  0
SECTION
  2
HEADER
  9
$ACADVER
  1
AC1009
  9
$LIMMIN
 10
-0.000000
 20
-0.000000
  9
$LIMMAX
 10
16.792684
 20
17.542161
  0
ENDSEC
  0
SECTION
  2
TABLES
  0
TABLE
  2
LTYPE
 70
     4
  0
LTYPE
  2
CONTINUOUS
 70
     0
  3
Solid line
 72
     65
 73
     0
 40
0.000000
  0
LTYPE
  2
HIDDEN
 70
     0
  3
 _ _ _ _ _ _ _ _ _ _ _
 72
     65
 73
     2
 40
0.375000
 49
0.250000
 49
-0.125000
  0
LTYPE
  2
DASHED
 70
     0
  3
 ___ ___ ___ ___ ___ ___ ___ 
 72
     65
 73
     2
 40
0.750000
 49
0.500000
 49
-0.250000
  0
LTYPE
  2
CENTER
 70
     0
  3
___ _ ___ _ ___ _ ___
 72
     65
 73
     4
 40
2.000000
 49
1.250000
 49
-0.250000
 49
0.250000
 49
-0.250000
  0
LTYPE
  2
BORDER
 70
     0
  3
___ ___ . ___ ___ . ___ ___
 72
     65
 73
     6
 40
1.750000
 49
0.500000
 49
-0.250000
 49
0.500000
 49
-0.250000
 49
0.000000
 49
-0.250000
  0
LTYPE
  2
DOT
 70
     0
  3
.................
 72
     65
 73
     2
 40
0.250000
 49
0.000000
 49
-0.250000
  0
LTYPE
  2
DASHDOT
 70
     0
  3
__ . __ . __ . __
 72
     65
 73
     4
 40
1.000000
 49
0.500000
 49
-0.250000
 49
0.000000
 49
-0.250000
  0
LTYPE
  2
DIVIDE
 70
     0
  3
___ .. ___ .. ___ .. ___
 72
     65
 73
     6
 40
1.250000
 49
0.500000
 49
-0.250000
 49
0.000000
 49
-0.250000
 49
0.000000
 49
-0.250000
  0
ENDTAB
  0
TABLE
  2
LAYER
 70
     8
  0
LAYER
  2
BLACK
 70
     0
 62
     1
  6
CONTINUOUS
  0
LAYER
  2
WHITE
 70
     0
 62
     7
  6
CONTINUOUS
  0
LAYER
  2
RED
 70
     0
 62
     1
  6
CONTINUOUS
  0
LAYER
  2
YELLOW
 70
     0
 62
     2
  6
CONTINUOUS
  0
LAYER
  2
GREEN
 70
     0
 62
     3
  6
CONTINUOUS
  0
LAYER
  2
CYAN
 70
     0
 62
     4
  6
CONTINUOUS
  0
LAYER
  2
BLUE
 70
     0
 62
     5
  6
CONTINUOUS
  0
LAYER
  2
MAGENTA
 70
     0
 62
     6
  6
CONTINUOUS
  0
ENDTAB
  0
TABLE
  2
APPID
 70
     1
  0
APPID
  2
TC_BEND_DATA
 70
     0
  0
ENDTAB
  0
ENDSEC
  0
SECTION
  2
BLOCKS
  0
ENDSEC
  0
SECTION
  2
ENTITIES
  0
ARC
  8
WHITE
 10
8.174547
 20
17.522161
 30
0.000000
 40
0.020000
 50
90.000000
 51
180.000000
  6
CONTINUOUS
  0
LINE
  8
WHITE
 10
8.154547
 20
17.522161
 30
0.000000
 11
8.154547
 21
16.789202
 31
0.000000
  6
CONTINUOUS
  0
ARC
  8
WHITE
 10
8.396342
 20
8.396342
 30
0.000000
 40
8.396342
 50
91.650217
 51
448.237762
  6
CONTINUOUS
  0
LINE
  8
WHITE
 10
8.654547
 20
16.788713
 30
0.000000
 11
8.654547
 21
17.522161
 31
0.000000
  6
CONTINUOUS
  0
ARC
  8
WHITE
 10
8.634547
 20
17.522161
 30
0.000000
 40
0.020000
 50
0.000000
 51
90.000000
  6
CONTINUOUS
  0
LINE
  8
WHITE
 10
8.634547
 20
17.542161
 30
0.000000
 11
8.504547
 21
17.542161
 31
0.000000
  6
CONTINUOUS
  0
ARC
  8
WHITE
 10
8.504547
 20
17.522161
 30
0.000000
 40
0.020000
 50
90.000000
 51
180.000000
  6
CONTINUOUS
  0
LINE
  8
WHITE
 10
8.484547
 20
17.522161
 30
0.000000
 11
8.484547
 21
17.201578
 31
0.000000
  6
CONTINUOUS
  0
ARC
  8
WHITE
 10
8.464547
 20
17.201578
 30
0.000000
 40
0.020000
 50
-90.000000
 51
0.000000
  6
CONTINUOUS
  0
LINE
  8
WHITE
 10
8.464547
 20
17.181578
 30
0.000000
 11
8.344547
 21
17.181578
 31
0.000000
  6
CONTINUOUS
  0
ARC
  8
WHITE
 10
8.344547
 20
17.201578
 30
0.000000
 40
0.020000
 50
180.000000
 51
270.000000
  6
CONTINUOUS
  0
LINE
  8
WHITE
 10
8.324547
 20
17.201578
 30
0.000000
 11
8.324547
 21
17.522161
 31
0.000000
  6
CONTINUOUS
  0
ARC
  8
WHITE
 10
8.304547
 20
17.522161
 30
0.000000
 40
0.020000
 50
0.000000
 51
90.000000
  6
CONTINUOUS
  0
LINE
  8
WHITE
 10
8.304547
 20
17.542161
 30
0.000000
 11
8.174547
 21
17.542161
 31
0.000000
  6
CONTINUOUS
  0
ARC
  8
WHITE
 10
38.779276
 20
47.335132
 30
0.000000
 40
48.764436
 50
-130.969738
 51
-129.604189
  6
CONTINUOUS
  0
ARC
  8
WHITE
 10
7.705657
 20
9.779170
 30
0.000000
 40
0.020000
 50
-129.604188
 51
-4.804114
  6
CONTINUOUS
  0
ARC
  8
WHITE
 10
3.162236
 20
10.161020
 30
0.000000
 40
4.579439
 50
-4.804113
 51
-2.126667
  6
CONTINUOUS
  0
ARC
  8
WHITE
 10
7.824932
 20
10.003349
 30
0.000000
 40
0.087278
 50
134.346505
 51
188.079806
  6
CONTINUOUS
  0
ARC
  8
WHITE
 10
7.748738
 20
10.127072
 30
0.000000
 40
0.063161
 50
-76.086724
 51
-11.112081
  6
CONTINUOUS
  0
ARC
  8
WHITE
 10
-23.080944
 20
8.774787
 30
0.000000
 40
30.920713
 50
2.483993
 51
2.948600
  6
CONTINUOUS
  0
ARC
  8
WHITE
 10
8.305679
 20
10.403804
 30
0.000000
 40
0.508302
 50
161.567951
 51
184.338665
  6
CONTINUOUS
  0
ARC
  8
WHITE
 10
7.842426
 20
10.558195
 30
0.000000
 40
0.020000
 50
23.962482
 51
161.567951
  6
CONTINUOUS
  0
LINE
  8
WHITE
 10
7.860703
 20
10.566318
 30
0.000000
 11
7.878729
 21
10.525758
 31
0.000000
  6
CONTINUOUS
  0
ARC
  8
WHITE
 10
7.897005
 20
10.533881
 30
0.000000
 40
0.020000
 50
-156.037521
 51
8.748198
  6
CONTINUOUS
  0
ARC
  8
WHITE
 10
-28.601665
 20
4.917374
 30
0.000000
 40
36.948283
 50
8.748198
 51
9.230558
  6
CONTINUOUS
  0
ARC
  8
WHITE
 10
8.313948
 20
10.955457
 30
0.000000
 40
0.459462
 50
147.874130
 51
194.018329
  6
CONTINUOUS
  0
ARC
  8
WHITE
 10
7.987040
 20
11.155742
 30
0.000000
 40
0.076219
 50
82.179376
 51
144.696015
  6
CONTINUOUS
  0
ARC
  8
WHITE
 10
8.000133
 20
11.251067
 30
0.000000
 40
0.020000
 50
-97.820622
 51
-2.390753
  6
CONTINUOUS
  0
ARC
  8
WHITE
 10
32.438881
 20
10.230730
 30
0.000000
 40
24.440039
 50
177.073299
 51
177.609246
  6
CONTINUOUS
  0
ARC
  8
WHITE
 10
9.211934
 20
11.298947
 30
0.000000
 40
1.194798
 50
159.177853
 51
171.352135
  6
CONTINUOUS
  0
ARC
  8
WHITE
 10
8.485689
 20
11.611625
 30
0.000000
 40
0.406271
 50
142.861886
 51
163.992497
  6
CONTINUOUS
  0
ARC
  8
WHITE
 10
8.177761
 20
11.844832
 30
0.000000
 40
0.020000
 50
43.360108
 51
142.861887
  6
CONTINUOUS
  0
ARC
  8
WHITE
 10
8.148319
 20
11.817029
 30
0.000000
 40
0.060495
 50
29.628290
 51
43.360109
  6
CONTINUOUS
  0
ARC
  8
WHITE
 10
11.208274
 20
13.796612
 30
0.000000
 40
3.584064
 50
-147.044676
 51
-145.206787
  6
CONTINUOUS
  0
LINE
  8
WHITE
 10
8.264980
 20
11.751487
 30
0.000000
 11
8.276451
 21
11.752624
 31
0.000000
  6
CONTINUOUS
  0
ARC
  8
WHITE
 10
7.516693
 20
12.051998
 30
0.000000
 40
0.816613
 50
-21.506398
 51
-11.132064
  6
CONTINUOUS
  0
ARC
  8
WHITE
 10
9.039365
 20
11.721907
 30
0.000000
 40
0.741744
 50
149.401252
 51
166.557943
  6
CONTINUOUS
  0
ARC
  8
WHITE
 10
8.766215
 20
11.851399
 30
0.000000
 40
0.441576
 50
120.916575
 51
145.820420
  6
CONTINUOUS
  0
ARC
  8
WHITE
 10
8.549613
 20
12.213076
 30
0.000000
 40
0.020000
 50
7.413486
 51
120.916575
  6
CONTINUOUS
  0
ARC
  8
WHITE
 10
19.078325
 20
13.583037
 30
0.000000
 40
10.597465
 50
-172.586513
 51
-170.684879
  6
CONTINUOUS
  0
ARC
  8
WHITE
 10
8.640345
 20
11.870924
 30
0.000000
 40
0.020000
 50
-170.684880
 51
-34.443120
  6
CONTINUOUS
  0
ARC
  8
WHITE
 10
8.521093
 20
11.952709
 30
0.000000
 40
0.164603
 50
-34.443121
 51
-2.308266
  6
CONTINUOUS
  0
ARC
  8
WHITE
 10
12.118442
 20
11.173345
 30
0.000000
 40
3.518776
 50
159.568315
 51
167.314268
  6
CONTINUOUS
  0
ARC
  8
WHITE
 10
9.544468
 20
12.158320
 30
0.000000
 40
0.763280
 50
128.392562
 51
161.404752
  6
CONTINUOUS
  0
ARC
  8
WHITE
 10
9.082857
 20
12.740884
 30
0.000000
 40
0.020000
 50
5.494005
 51
128.392562
  6
CONTINUOUS
  0
ARC
  8
WHITE
 10
7.473510
 20
12.586092
 30
0.000000
 40
1.636775
 50
-3.733449
 51
5.494004
  6
CONTINUOUS
  0
ARC
  8
WHITE
 10
9.890473
 20
12.413276
 30
0.000000
 40
0.786457
 50
175.168718
 51
192.609517
  6
CONTINUOUS
  0
ARC
  8
WHITE
 10
9.142503
 20
12.245955
 30
0.000000
 40
0.020000
 50
-167.390482
 51
-21.454460
  6
CONTINUOUS
  0
ARC
  8
WHITE
 10
8.109600
 20
12.651878
 30
0.000000
 40
1.129803
 50
-21.454459
 51
-14.037332
  6
CONTINUOUS
  0
ARC
  8
WHITE
 10
12.145065
 20
11.713628
 30
0.000000
 40
3.013512
 50
153.537525
 51
167.266828
  6
CONTINUOUS
  0
ARC
  8
WHITE
 10
10.578496
 20
12.462139
 30
0.000000
 40
1.277839
 50
121.305526
 51
152.282199
  6
CONTINUOUS
  0
ARC
  8
WHITE
 10
9.924921
 20
13.536848
 30
0.000000
 40
0.020000
 50
2.979130
 51
121.305528
  6
CONTINUOUS
  0
ARC
  8
WHITE
 10
9.682477
 20
13.524231
 30
0.000000
 40
0.262772
 50
-23.741967
 51
2.979131
  6
CONTINUOUS
  0
ARC
  8
WHITE
 10
11.504675
 20
12.764037
 30
0.000000
 40
1.711695
 50
157.523191
 51
171.708839
  6
CONTINUOUS
  0
ARC
  8
WHITE
 10
9.830662
 20
13.007985
 30
0.000000
 40
0.020000
 50
171.708842
 51
332.223916
  6
CONTINUOUS
  0
ARC
  8
WHITE
 10
12.785746
 20
11.451522
 30
0.000000
 40
3.319925
 50
140.173800
 51
152.223917
  6
CONTINUOUS
  0
ARC
  8
WHITE
 10
10.766748
 20
13.082005
 30
0.000000
 40
0.726245
 50
110.911600
 51
136.945865
  6
CONTINUOUS
  0
ARC
  8
WHITE
 10
11.792823
 20
10.774420
 30
0.000000
 40
3.250867
 50
108.390789
 51
113.288993
  6
CONTINUOUS
  0
ARC
  8
WHITE
 10
10.773496
 20
13.840276
 30
0.000000
 40
0.020000
 50
-29.542490
 51
108.390789
  6
CONTINUOUS
  0
ARC
  8
WHITE
 10
15.236764
 20
11.310709
 30
0.000000
 40
5.110250
 50
150.457510
 51
159.044266
  6
CONTINUOUS
  0
ARC
  8
WHITE
 10
12.612061
 20
12.237080
 30
0.000000
 40
2.329003
 50
157.232867
 51
176.299432
  6
CONTINUOUS
  0
ARC
  8
WHITE
 10
10.307872
 20
12.386108
 30
0.000000
 40
0.020000
 50
176.299432
 51
329.796348
  6
CONTINUOUS
  0
ARC
  8
WHITE
 10
10.972750
 20
11.999083
 30
0.000000
 40
0.749319
 50
119.639909
 51
149.796347
  6
CONTINUOUS
  0
ARC
  8
WHITE
 10
12.155048
 20
10.077845
 30
0.000000
 40
3.004865
 50
114.414519
 51
121.116889
  6
CONTINUOUS
  0
ARC
  8
WHITE
 10
10.921298
 20
12.795800
 30
0.000000
 40
0.020000
 50
-16.326432
 51
114.414520
  6
CONTINUOUS
  0
ARC
  8
WHITE
 10
8.728628
 20
13.438079
 30
0.000000
 40
2.304803
 50
-21.302568
 51
-16.326429
  6
CONTINUOUS
  0
ARC
  8
WHITE
 10
12.866399
 20
11.704415
 30
0.000000
 40
2.182958
 50
155.756792
 51
162.136398
  6
CONTINUOUS
  0
ARC
  8
WHITE
 10
14.177451
 20
11.241214
 30
0.000000
 40
3.573100
 50
161.515783
 51
169.310629
  6
CONTINUOUS
  0
ARC
  8
WHITE
 10
14.146422
 20
11.244909
 30
0.000000
 40
3.541925
 50
169.276271
 51
185.003510
  6
CONTINUOUS
  0
ARC
  8
WHITE
 10
150.868428
 20
24.416199
 30
0.000000
 40
140.896771
 50
-174.509867
 51
-173.719235
  6
CONTINUOUS
  0
ARC
  8
WHITE
 10
10.029038
 20
8.954286
 30
0.000000
 40
0.789761
 50
-36.846870
 51
3.464161
  6
CONTINUOUS
  0
ARC
  8
WHITE
 10
9.488152
 20
9.363011
 30
0.000000
 40
1.467706
 50
-48.519305
 51
-36.953099
  6
CONTINUOUS
  0
ARC
  8
WHITE
 10
5.163450
 20
13.890546
 30
0.000000
 40
7.727944
 50
-49.074631
 51
-46.731600
  6
CONTINUOUS
  0
ARC
  8
WHITE
 10
10.671267
 20
7.568340
 30
0.000000
 40
0.657223
 50
132.667767
 51
162.043221
  6
CONTINUOUS
  0
ARC
  8
WHITE
 10
11.502038
 20
7.310936
 30
0.000000
 40
1.526926
 50
162.465755
 51
175.958482
  6
CONTINUOUS
  0
ARC
  8
WHITE
 10
10.136232
 20
7.812464
 30
0.000000
 40
0.424166
 50
-111.771005
 51
-85.273285
  6
CONTINUOUS
  0
ARC
  8
WHITE
 10
9.985797
 20
9.817948
 30
0.000000
 40
2.435274
 50
-85.634087
 51
-76.981361
  6
CONTINUOUS
  0
ARC
  8
WHITE
 10
11.583630
 20
2.809474
 30
0.000000
 40
4.753052
 50
94.995418
 51
102.753184
  6
CONTINUOUS
  0
ARC
  8
WHITE
 10
11.232289
 20
5.996927
 30
0.000000
 40
1.548808
 50
83.384574
 51
92.314032
  6
CONTINUOUS
  0
ARC
  8
WHITE
 10
11.403507
 20
7.191489
 30
0.000000
 40
0.344010
 50
53.643518
 51
88.798882
  6
CONTINUOUS
  0
ARC
  8
WHITE
 10
9.212930
 20
5.094100
 30
0.000000
 40
3.372183
 50
41.621319
 51
44.758821
  6
CONTINUOUS
  0
ARC
  8
WHITE
 10
11.893731
 20
7.499554
 30
0.000000
 40
0.230240
 50
-133.994762
 51
-93.698049
  6
CONTINUOUS
  0
ARC
  8
WHITE
 10
11.843347
 20
7.027236
 30
0.000000
 40
0.245146
 50
15.585802
 51
81.665484
  6
CONTINUOUS
  0
ARC
  8
WHITE
 10
11.614551
 20
7.042274
 30
0.000000
 40
0.467698
 50
-19.726318
 51
6.239088
  6
CONTINUOUS
  0
ARC
  8
WHITE
 10
11.447952
 20
7.077788
 30
0.000000
 40
0.636915
 50
-24.834335
 51
-17.674621
  6
CONTINUOUS
  0
ARC
  8
WHITE
 10
11.958535
 20
6.832879
 30
0.000000
 40
0.071118
 50
-74.045907
 51
-18.523394
  6
CONTINUOUS
  0
ARC
  8
WHITE
 10
12.065253
 20
6.986689
 30
0.000000
 40
0.238676
 50
-140.586655
 51
-111.421198
  6
CONTINUOUS
  0
ARC
  8
WHITE
 10
11.666363
 20
6.605315
 30
0.000000
 40
0.314375
 50
46.977778
 51
63.592901
  6
CONTINUOUS
  0
ARC
  8
WHITE
 10
11.775042
 20
6.765574
 30
0.000000
 40
0.125245
 50
75.604523
 51
138.330697
  6
CONTINUOUS
  0
ARC
  8
WHITE
 10
12.091022
 20
6.405072
 30
0.000000
 40
0.603864
 50
132.702777
 51
145.710426
  6
CONTINUOUS
  0
ARC
  8
WHITE
 10
10.665064
 20
3.938099
 30
0.000000
 40
2.956289
 50
69.395377
 51
71.724649
  6
CONTINUOUS
  0
ARC
  8
WHITE
 10
12.599819
 20
5.970444
 30
0.000000
 40
1.157543
 50
140.593205
 51
144.933045
  6
CONTINUOUS
  0
ARC
  8
WHITE
 10
11.729878
 20
6.572152
 30
0.000000
 40
0.100080
 50
140.736959
 51
178.294165
  6
CONTINUOUS
  0
ARC
  8
WHITE
 10
12.307072
 20
6.909288
 30
0.000000
 40
0.755183
 50
-153.737472
 51
-138.811237
  6
CONTINUOUS
  0
ARC
  8
WHITE
 10
11.395856
 20
6.891045
 30
0.000000
 40
0.589151
 50
-79.352061
 51
-54.406085
  6
CONTINUOUS
  0
ARC
  8
WHITE
 10
10.971183
 20
9.360134
 30
0.000000
 40
3.094438
 50
-88.975687
 51
-80.071646
  6
CONTINUOUS
  0
ARC
  8
WHITE
 10
11.112719
 20
4.023191
 30
0.000000
 40
2.244656
 50
92.201271
 51
102.939369
  6
CONTINUOUS
  0
ARC
  8
WHITE
 10
10.762757
 20
5.519183
 30
0.000000
 40
0.708313
 50
102.446521
 51
132.231840
  6
CONTINUOUS
  0
ARC
  8
WHITE
 10
10.655273
 20
5.667121
 30
0.000000
 40
0.526906
 50
134.390727
 51
169.458531
  6
CONTINUOUS
  0
ARC
  8
WHITE
 10
8.411970
 20
6.377793
 30
0.000000
 40
1.831382
 50
-37.229281
 51
-19.597870
  6
CONTINUOUS
  0
ARC
  8
WHITE
 10
7.366642
 20
7.049295
 30
0.000000
 40
3.071513
 50
-43.293522
 51
-35.405242
  6
CONTINUOUS
  0
ARC
  8
WHITE
 10
9.922264
 20
4.604413
 30
0.000000
 40
0.465926
 50
133.381187
 51
152.870685
  6
CONTINUOUS
  0
ARC
  8
WHITE
 10
9.769946
 20
4.746175
 30
0.000000
 40
0.271705
 50
164.917727
 51
194.104285
  6
CONTINUOUS
  0
ARC
  8
WHITE
 10
6.196005
 20
4.302898
 30
0.000000
 40
3.331832
 50
-1.846591
 51
6.498128
  6
CONTINUOUS
  0
LINE
  8
WHITE
 10
9.526106
 20
4.195535
 30
0.000000
 11
9.478951
 21
3.712192
 31
0.000000
  6
CONTINUOUS
  0
LINE
  8
WHITE
 10
9.478951
 20
3.712192
 30
0.000000
 11
9.472284
 21
3.712192
 31
0.000000
  6
CONTINUOUS
  0
LINE
  8
WHITE
 10
9.472284
 20
3.712192
 30
0.000000
 11
9.478951
 21
3.318891
 31
0.000000
  6
CONTINUOUS
  0
ARC
  8
WHITE
 10
9.921085
 20
3.073003
 30
0.000000
 40
0.505909
 50
150.919887
 51
157.557901
  6
CONTINUOUS
  0
ARC
  8
WHITE
 10
9.521576
 20
3.234641
 30
0.000000
 40
0.075016
 50
155.177132
 51
239.061648
  6
CONTINUOUS
  0
ARC
  8
WHITE
 10
10.836210
 20
4.543461
 30
0.000000
 40
1.927881
 50
-134.580521
 51
-123.151000
  6
CONTINUOUS
  0
ARC
  8
WHITE
 10
11.320704
 20
5.205303
 30
0.000000
 40
2.747289
 50
-124.062573
 51
-120.051700
  6
CONTINUOUS
  0
ARC
  8
WHITE
 10
10.038279
 20
2.944516
 30
0.000000
 40
0.149839
 50
-128.543230
 51
-54.886500
  6
CONTINUOUS
  0
LINE
  8
WHITE
 10
10.124466
 20
2.821946
 30
0.000000
 11
9.893408
 21
2.935213
 31
0.000000
  6
CONTINUOUS
  0
LINE
  8
WHITE
 10
9.893408
 20
2.935213
 30
0.000000
 11
11.030487
 21
3.279173
 31
0.000000
  6
CONTINUOUS
  0
LINE
  8
WHITE
 10
11.030487
 20
3.279173
 30
0.000000
 11
10.601821
 21
3.350617
 31
0.000000
  6
CONTINUOUS
  0
LINE
  8
WHITE
 10
10.601821
 20
3.350617
 30
0.000000
 11
13.963862
 21
4.321406
 31
0.000000
  6
CONTINUOUS
  0
ARC
  8
WHITE
 10
8.396342
 20
8.396342
 30
0.000000
 40
6.899448
 50
-36.200857
 51
127.734199
  6
CONTINUOUS
  0
ARC
  8
WHITE
 10
4.186125
 20
13.837011
 30
0.000000
 40
0.020000
 50
127.734198
 51
192.308020
  6
CONTINUOUS
  0
ARC
  8
WHITE
 10
12.231254
 20
15.592313
 30
0.000000
 40
8.254390
 50
-167.691978
 51
-160.290085
  6
CONTINUOUS
  0
ARC
  8
WHITE
 10
4.479299
 20
12.815198
 30
0.000000
 40
0.020000
 50
-160.290084
 51
-10.159758
  6
CONTINUOUS
  0
ARC
  8
WHITE
 10
16.819808
 20
10.603737
 30
0.000000
 40
12.517094
 50
168.191917
 51
169.840243
  6
CONTINUOUS
  0
ARC
  8
WHITE
 10
5.553058
 20
12.954599
 30
0.000000
 40
1.007708
 50
143.201290
 51
167.939098
  6
CONTINUOUS
  0
ARC
  8
WHITE
 10
4.762156
 20
13.546242
 30
0.000000
 40
0.020000
 50
7.115606
 51
143.201291
  6
CONTINUOUS
  0
ARC
  8
WHITE
 10
7.530887
 20
13.891872
 30
0.000000
 40
2.770221
 50
-172.884392
 51
-157.838257
  6
CONTINUOUS
  0
ARC
  8
WHITE
 10
8.868892
 20
14.354568
 30
0.000000
 40
4.184611
 50
-158.881816
 51
-144.585916
  6
CONTINUOUS
  0
ARC
  8
WHITE
 10
10.389008
 20
15.546087
 30
0.000000
 40
6.114612
 50
-143.740760
 51
-136.403376
  6
CONTINUOUS
  0
ARC
  8
WHITE
 10
13.579199
 20
18.394643
 30
0.000000
 40
10.390189
 50
-137.158447
 51
-130.681123
  6
CONTINUOUS
  0
ARC
  8
WHITE
 10
3.252010
 20
12.963908
 30
0.000000
 40
0.020000
 50
4.291277
 51
138.398668
  6
CONTINUOUS
  0
ARC
  8
WHITE
 10
4.850825
 20
13.083878
 30
0.000000
 40
1.583310
 50
-175.708723
 51
-165.966637
  6
CONTINUOUS
  0
ARC
  8
WHITE
 10
36.577357
 20
21.583828
 30
0.000000
 40
34.428521
 50
-165.046299
 51
-164.018680
  6
CONTINUOUS
  0
ARC
  8
WHITE
 10
3.472421
 20
12.096369
 30
0.000000
 40
0.010999
 50
-140.301292
 51
50.301292
  6
CONTINUOUS
  0
LINE
  8
WHITE
 10
3.463958
 20
12.089343
 30
0.000000
 11
3.285487
 21
12.315405
 31
0.000000
  6
CONTINUOUS
  0
ARC
  8
WHITE
 10
3.269790
 20
12.303012
 30
0.000000
 40
0.020000
 50
38.290158
 51
133.274684
  6
CONTINUOUS
  0
ARC
  8
WHITE
 10
3.377459
 20
12.188655
 30
0.000000
 40
0.177068
 50
133.274684
 51
170.023894
  6
CONTINUOUS
  0
ARC
  8
WHITE
 10
4.067110
 20
12.041681
 30
0.000000
 40
0.882115
 50
168.381778
 51
199.128630
  6
CONTINUOUS
  0
ARC
  8
WHITE
 10
9.850978
 20
14.085222
 30
0.000000
 40
7.016365
 50
-160.582367
 51
-157.004792
  6
CONTINUOUS
  0
ARC
  8
WHITE
 10
3.373740
 20
11.336436
 30
0.000000
 40
0.020000
 50
-103.733859
 51
22.995205
  6
CONTINUOUS
  0
ARC
  8
WHITE
 10
3.416397
 20
11.510976
 30
0.000000
 40
0.199677
 50
-110.699973
 51
-103.733860
  6
CONTINUOUS
  0
ARC
  8
WHITE
 10
3.333440
 20
11.301891
 30
0.000000
 40
0.025503
 50
60.968406
 51
202.808783
  6
CONTINUOUS
  0
ARC
  8
WHITE
 10
3.701660
 20
11.269996
 30
0.000000
 40
0.392347
 50
176.784293
 51
182.807464
  6
CONTINUOUS
  0
ARC
  8
WHITE
 10
4.704904
 20
11.304115
 30
0.000000
 40
1.396139
 50
-177.810620
 51
-157.498331
  6
CONTINUOUS
  0
ARC
  8
WHITE
 10
5.747074
 20
11.780760
 30
0.000000
 40
2.541723
 50
-156.562602
 51
-141.686644
  6
CONTINUOUS
  0
ARC
  8
WHITE
 10
3.738429
 20
10.195904
 30
0.000000
 40
0.016965
 50
-122.375959
 51
32.375959
  6
CONTINUOUS
  0
LINE
  8
WHITE
 10
3.729345
 20
10.181576
 30
0.000000
 11
3.533276
 21
10.244824
 31
0.000000
  6
CONTINUOUS
  0
ARC
  8
WHITE
 10
3.527136
 20
10.225790
 30
0.000000
 40
0.020000
 50
72.121305
 51
198.552644
  6
CONTINUOUS
  0
ARC
  8
WHITE
 10
4.468009
 20
10.541563
 30
0.000000
 40
1.012449
 50
-161.447357
 51
-134.761712
  6
CONTINUOUS
  0
ARC
  8
WHITE
 10
-5.176154
 20
0.736422
 30
0.000000
 40
12.740766
 50
43.486363
 51
45.492961
  6
CONTINUOUS
  0
ARC
  8
WHITE
 10
4.053248
 20
9.490624
 30
0.000000
 40
0.020000
 50
-63.824026
 51
43.486362
  6
CONTINUOUS
  0
ARC
  8
WHITE
 10
3.753374
 20
10.100693
 30
0.000000
 40
0.699786
 50
-68.861558
 51
-63.824026
  6
CONTINUOUS
  0
ARC
  8
WHITE
 10
4.060216
 20
9.336607
 30
0.000000
 40
0.123998
 50
116.064738
 51
150.479493
  6
CONTINUOUS
  0
ARC
  8
WHITE
 10
3.969719
 20
9.387851
 30
0.000000
 40
0.020000
 50
150.479493
 51
219.734795
  6
CONTINUOUS
  0
ARC
  8
WHITE
 10
6.010672
 20
11.084377
 30
0.000000
 40
2.673995
 50
-140.265204
 51
-124.415329
  6
CONTINUOUS
  0
ARC
  8
WHITE
 10
4.162535
 20
8.687598
 30
0.000000
 40
0.387131
 50
25.114310
 51
29.534200
  6
CONTINUOUS
  0
ARC
  8
WHITE
 10
4.488003
 20
8.838722
 30
0.000000
 40
0.028320
 50
-30.417483
 51
27.746288
  6
CONTINUOUS
  0
ARC
  8
WHITE
 10
7.559157
 20
6.631539
 30
0.000000
 40
3.753817
 50
144.256045
 51
145.305644
  6
CONTINUOUS
  0
ARC
  8
WHITE
 10
4.489212
 20
8.756822
 30
0.000000
 40
0.020000
 50
145.305643
 51
206.961517
  6
CONTINUOUS
  0
ARC
  8
WHITE
 10
5.337987
 20
9.188576
 30
0.000000
 40
0.972276
 50
-153.038485
 51
-127.463276
  6
CONTINUOUS
  0
ARC
  8
WHITE
 10
6.016470
 20
10.054911
 30
0.000000
 40
2.072646
 50
-127.783710
 51
-115.455904
  6
CONTINUOUS
  0
ARC
  8
WHITE
 10
5.018233
 20
7.987507
 30
0.000000
 40
0.223468
 50
28.612805
 51
61.280830
  6
CONTINUOUS
  0
ARC
  8
WHITE
 10
4.485214
 20
7.764173
 30
0.000000
 40
0.800536
 50
13.953908
 51
24.372079
  6
CONTINUOUS
  0
ARC
  8
WHITE
 10
5.927869
 20
8.153252
 30
0.000000
 40
0.694005
 50
-163.592233
 51
-149.850723
  6
CONTINUOUS
  0
ARC
  8
WHITE
 10
5.237742
 20
7.742775
 30
0.000000
 40
0.109243
 50
-11.687409
 51
34.521622
  6
CONTINUOUS
  0
ARC
  8
WHITE
 10
3.932603
 20
8.455584
 30
0.000000
 40
1.591921
 50
-30.900992
 51
-27.494780
  6
CONTINUOUS
  0
ARC
  8
WHITE
 10
5.464990
 20
7.514188
 30
0.000000
 40
0.207459
 50
143.343823
 51
203.105951
  6
CONTINUOUS
  0
ARC
  8
WHITE
 10
4.740054
 20
7.208487
 30
0.000000
 40
0.579299
 50
11.367133
 51
22.778461
  6
CONTINUOUS
  0
ARC
  8
WHITE
 10
4.527390
 20
7.224174
 30
0.000000
 40
0.786789
 50
-12.018096
 51
7.191124
  6
CONTINUOUS
  0
ARC
  8
WHITE
 10
5.499892
 20
7.029280
 30
0.000000
 40
0.205322
 50
171.296926
 51
210.554479
  6
CONTINUOUS
  0
ARC
  8
WHITE
 10
3.503342
 20
5.992222
 30
0.000000
 40
2.044833
 50
22.940990
 51
27.136773
  6
CONTINUOUS
  0
ARC
  8
WHITE
 10
5.195171
 20
6.795794
 30
0.000000
 40
0.191383
 50
-25.070829
 51
-1.955530
  6
CONTINUOUS
  0
ARC
  8
WHITE
 10
5.950944
 20
6.511360
 30
0.000000
 40
0.616896
 50
160.754691
 51
168.179960
  6
CONTINUOUS
  0
ARC
  8
WHITE
 10
5.637488
 20
6.577980
 30
0.000000
 40
0.296442
 50
168.373091
 51
201.323689
  6
CONTINUOUS
  0
ARC
  8
WHITE
 10
5.832130
 20
6.772719
 30
0.000000
 40
0.559617
 50
-147.274664
 51
-128.703704
  6
CONTINUOUS
  0
ARC
  8
WHITE
 10
5.255509
 20
6.182974
 30
0.000000
 40
0.273511
 50
-6.562670
 51
34.020268
  6
CONTINUOUS
  0
ARC
  8
WHITE
 10
5.734091
 20
6.129238
 30
0.000000
 40
0.208081
 50
173.798915
 51
230.894043
  6
CONTINUOUS
  0
ARC
  8
WHITE
 10
5.470396
 20
5.745723
 30
0.000000
 40
0.258548
 50
10.127769
 51
59.184927
  6
CONTINUOUS
  0
ARC
  8
WHITE
 10
6.208392
 20
5.885135
 30
0.000000
 40
0.492520
 50
-169.003462
 51
-155.753764
  6
CONTINUOUS
  0
ARC
  8
WHITE
 10
5.988068
 20
5.821104
 30
0.000000
 40
0.267270
 50
-148.856659
 51
-96.780373
  6
CONTINUOUS
  0
ARC
  8
WHITE
 10
5.948679
 20
5.456902
 30
0.000000
 40
0.099112
 50
12.398524
 51
85.466437
  6
CONTINUOUS
  0
ARC
  8
WHITE
 10
6.297413
 20
5.562151
 30
0.000000
 40
0.265559
 50
-161.567040
 51
-103.724654
  6
CONTINUOUS
  0
ARC
  8
WHITE
 10
6.225687
 20
4.982079
 30
0.000000
 40
0.322213
 50
63.958394
 51
88.449105
  6
CONTINUOUS
  0
ARC
  8
WHITE
 10
5.223145
 20
3.855774
 30
0.000000
 40
1.820232
 50
46.577376
 51
51.061029
  6
CONTINUOUS
  0
ARC
  8
WHITE
 10
6.598500
 20
5.341043
 30
0.000000
 40
0.205092
 50
-127.261887
 51
-86.132334
  6
CONTINUOUS
  0
ARC
  8
WHITE
 10
6.648722
 20
4.840246
 30
0.000000
 40
0.298399
 50
67.901275
 51
97.004269
  6
CONTINUOUS
  0
ARC
  8
WHITE
 10
6.638579
 20
4.954905
 30
0.000000
 40
0.202897
 50
8.650022
 51
52.895738
  6
CONTINUOUS
  0
ARC
  8
WHITE
 10
3.619788
 20
7.405660
 30
0.000000
 40
4.027651
 50
-45.070345
 51
-36.934810
  6
CONTINUOUS
  0
ARC
  8
WHITE
 10
6.140230
 20
4.861484
 30
0.000000
 40
0.446579
 50
-67.915437
 51
-43.481140
  6
CONTINUOUS
  0
ARC
  8
WHITE
 10
6.294759
 20
5.289353
 30
0.000000
 40
0.841789
 50
-96.478671
 51
-89.089667
  6
CONTINUOUS
  0
ARC
  8
WHITE
 10
6.194456
 20
4.423081
 30
0.000000
 40
0.030329
 50
79.896928
 51
190.135955
  6
CONTINUOUS
  0
ARC
  8
WHITE
 10
6.794349
 20
4.389254
 30
0.000000
 40
0.630392
 50
177.409741
 51
189.475255
  6
CONTINUOUS
  0
ARC
  8
WHITE
 10
5.157627
 20
5.171792
 30
0.000000
 40
1.347455
 50
-60.040350
 51
-41.129926
  6
CONTINUOUS
  0
LINE
  8
WHITE
 10
5.830533
 20
4.004387
 30
0.000000
 11
4.892329
 21
4.555072
 31
0.000000
  6
CONTINUOUS
  0
LINE
  8
WHITE
 10
4.892329
 20
4.555072
 30
0.000000
 11
4.996773
 21
4.092935
 31
0.000000
  6
CONTINUOUS
  0
LINE
  8
WHITE
 10
4.996773
 20
4.092935
 30
0.000000
 11
3.510149
 21
5.031474
 31
0.000000
  6
CONTINUOUS
  0
LINE
  8
WHITE
 10
3.510149
 20
5.031474
 30
0.000000
 11
5.033092
 21
3.429068
 31
0.000000
  6
CONTINUOUS
  0
ARC
  8
WHITE
 10
4.941095
 20
3.418050
 30
0.000000
 40
0.092654
 50
-67.197277
 51
6.829144
  6
CONTINUOUS
  0
LINE
  8
WHITE
 10
4.977004
 20
3.332638
 30
0.000000
 11
4.628848
 21
3.100989
 31
0.000000
  6
CONTINUOUS
  0
ARC
  8
WHITE
 10
3.850193
 20
4.431457
 30
0.000000
 40
1.541574
 50
-67.434884
 51
-59.661743
  6
CONTINUOUS
  0
ARC
  8
WHITE
 10
4.622080
 20
2.584814
 30
0.000000
 40
0.459915
 50
113.085384
 51
141.343843
  6
CONTINUOUS
  0
ARC
  8
WHITE
 10
8.396342
 20
8.396342
 30
0.000000
 40
6.899448
 50
138.398667
 51
233.195002
  6
CONTINUOUS
  0
ARC
  8
WHITE
 10
6.125435
 20
12.526799
 30
0.000000
 40
1.215220
 50
-163.655702
 51
-153.778963
  6
CONTINUOUS
  0
LINE
  8
WHITE
 10
4.959324
 20
12.184825
 30
0.000000
 11
4.972656
 21
12.191491
 31
0.000000
  6
CONTINUOUS
  0
ARC
  8
WHITE
 10
21.881913
 20
24.326953
 30
0.000000
 40
20.813275
 50
-144.333693
 51
-141.751837
  6
CONTINUOUS
  0
ARC
  8
WHITE
 10
-10.135022
 20
-0.796187
 30
0.000000
 40
19.883960
 50
36.804861
 51
37.987215
  6
CONTINUOUS
  0
ARC
  8
WHITE
 10
14.557512
 20
18.539221
 30
0.000000
 40
11.491189
 50
-139.760696
 51
-132.089188
  6
CONTINUOUS
  0
ARC
  8
WHITE
 10
-0.201716
 20
2.690337
 30
0.000000
 40
10.168559
 50
39.551402
 51
46.053525
  6
CONTINUOUS
  0
ARC
  8
WHITE
 10
4.163840
 20
6.497722
 30
0.000000
 40
4.380824
 50
31.852803
 51
37.512758
  6
CONTINUOUS
  0
ARC
  8
WHITE
 10
7.092182
 20
8.326390
 30
0.000000
 40
0.928446
 50
8.010188
 51
31.366323
  6
CONTINUOUS
  0
ARC
  8
WHITE
 10
6.106487
 20
8.239182
 30
0.000000
 40
1.917355
 50
-13.317875
 51
6.486034
  6
CONTINUOUS
  0
ARC
  8
WHITE
 10
9.014417
 20
7.497341
 30
0.000000
 40
1.084508
 50
163.931777
 51
177.053653
  6
CONTINUOUS
  0
ARC
  8
WHITE
 10
9.719098
 20
7.612044
 30
0.000000
 40
1.788727
 50
-178.111129
 51
-150.251507
  6
CONTINUOUS
  0
ARC
  8
WHITE
 10
9.912198
 20
7.720444
 30
0.000000
 40
2.010167
 50
-150.299984
 51
-144.102284
  6
CONTINUOUS
  0
ARC
  8
WHITE
 10
8.759642
 20
6.844862
 30
0.000000
 40
0.564128
 50
-147.505548
 51
-130.941032
  6
CONTINUOUS
  0
ARC
  8
WHITE
 10
8.462872
 20
6.484156
 30
0.000000
 40
0.097949
 50
-138.089600
 51
-66.427049
  6
CONTINUOUS
  0
ARC
  8
WHITE
 10
8.308258
 20
6.746076
 30
0.000000
 40
0.401551
 50
-61.145097
 51
-34.971639
  6
CONTINUOUS
  0
ARC
  8
WHITE
 10
9.652433
 20
5.815249
 30
0.000000
 40
1.233461
 50
136.863473
 51
145.385540
  6
CONTINUOUS
  0
ARC
  8
WHITE
 10
7.860670
 20
6.119676
 30
0.000000
 40
1.041891
 50
8.035258
 51
31.149301
  6
CONTINUOUS
  0
ARC
  8
WHITE
 10
8.724717
 20
5.861156
 30
0.000000
 40
0.437538
 50
67.474885
 51
76.243992
  6
CONTINUOUS
  0
ARC
  8
WHITE
 10
8.834204
 20
6.210830
 30
0.000000
 40
0.075511
 50
94.136283
 51
182.416937
  6
CONTINUOUS
  0
ARC
  8
WHITE
 10
9.013965
 20
6.203608
 30
0.000000
 40
0.255236
 50
179.093544
 51
218.509640
  6
CONTINUOUS
  0
ARC
  8
WHITE
 10
6.918949
 20
4.665467
 30
0.000000
 40
2.344009
 50
31.743119
 51
36.043661
  6
CONTINUOUS
  0
ARC
  8
WHITE
 10
8.988350
 20
6.183574
 30
0.000000
 40
0.294863
 50
-151.950517
 51
-104.940286
  6
CONTINUOUS
  0
ARC
  8
WHITE
 10
8.899955
 20
6.166907
 30
0.000000
 40
0.210732
 50
-177.554212
 51
-144.628390
  6
CONTINUOUS
  0
ARC
  8
WHITE
 10
8.181732
 20
6.202645
 30
0.000000
 40
0.509650
 50
-5.035187
 51
8.576280
  6
CONTINUOUS
  0
ARC
  8
WHITE
 10
8.999853
 20
5.799036
 30
0.000000
 40
0.573349
 50
123.226913
 51
128.117112
  6
CONTINUOUS
  0
ARC
  8
WHITE
 10
8.649241
 20
6.230394
 30
0.000000
 40
0.019999
 50
99.495932
 51
222.100214
  6
CONTINUOUS
  0
ARC
  8
WHITE
 10
7.535451
 20
5.784915
 30
0.000000
 40
1.180838
 50
14.198662
 51
21.463089
  6
CONTINUOUS
  0
ARC
  8
WHITE
 10
12.089092
 20
7.114694
 30
0.000000
 40
3.564031
 50
-163.031689
 51
-161.827177
  6
CONTINUOUS
  0
ARC
  8
WHITE
 10
8.650390
 20
5.965412
 30
0.000000
 40
0.064598
 50
-31.137156
 51
35.722773
  6
CONTINUOUS
  0
ARC
  8
WHITE
 10
8.889790
 20
6.155657
 30
0.000000
 40
0.289680
 50
-159.021611
 51
-129.461366
  6
CONTINUOUS
  0
ARC
  8
WHITE
 10
8.382706
 20
5.988629
 30
0.000000
 40
0.244931
 50
14.982005
 51
49.575399
  6
CONTINUOUS
  0
ARC
  8
WHITE
 10
8.580826
 20
6.141987
 30
0.000000
 40
0.051376
 50
139.893221
 51
211.152772
  6
CONTINUOUS
  0
ARC
  8
WHITE
 10
7.513450
 20
5.495645
 30
0.000000
 40
1.196441
 50
20.470726
 51
31.198586
  6
CONTINUOUS
  0
ARC
  8
WHITE
 10
8.556084
 20
5.861091
 30
0.000000
 40
0.094503
 50
-34.268364
 51
34.101532
  6
CONTINUOUS
  0
ARC
  8
WHITE
 10
8.725694
 20
5.774255
 30
0.000000
 40
0.097494
 50
159.824941
 51
225.715626
  6
CONTINUOUS
  0
ARC
  8
WHITE
 10
8.686923
 20
5.710641
 30
0.000000
 40
0.029945
 50
-168.088595
 51
-104.732724
  6
CONTINUOUS
  0
ARC
  8
WHITE
 10
8.654261
 20
5.719950
 30
0.000000
 40
0.045737
 50
-56.796636
 51
10.267174
  6
CONTINUOUS
  0
ARC
  8
WHITE
 10
8.992664
 20
5.649420
 30
0.000000
 40
0.303765
 50
134.696984
 51
164.987862
  6
CONTINUOUS
  0
ARC
  8
WHITE
 10
8.428721
 20
5.461212
 30
0.000000
 40
0.534815
 50
29.524760
 51
49.082714
  6
CONTINUOUS
  0
ARC
  8
WHITE
 10
9.162555
 20
5.816296
 30
0.000000
 40
0.283641
 50
-161.174341
 51
-133.571144
  6
CONTINUOUS
  0
ARC
  8
WHITE
 10
9.010504
 20
5.661925
 30
0.000000
 40
0.067101
 50
-130.356561
 51
-43.136894
  6
CONTINUOUS
  0
ARC
  8
WHITE
 10
8.989137
 20
5.635876
 30
0.000000
 40
0.073074
 50
-15.745622
 51
44.247396
  6
CONTINUOUS
  0
ARC
  8
WHITE
 10
8.643566
 20
5.316125
 30
0.000000
 40
0.543861
 50
42.974972
 51
55.139578
  6
CONTINUOUS
  0
ARC
  8
WHITE
 10
8.995122
 20
5.845990
 30
0.000000
 40
0.092981
 50
173.486659
 51
244.043180
  6
CONTINUOUS
  0
ARC
  8
WHITE
 10
8.902949
 20
5.835349
 30
0.000000
 40
0.021190
 50
18.970511
 51
90.561091
  6
CONTINUOUS
  0
ARC
  8
WHITE
 10
8.068721
 20
4.463018
 30
0.000000
 40
1.622349
 50
50.848005
 51
58.226584
  6
CONTINUOUS
  0
ARC
  8
WHITE
 10
7.708640
 20
4.844691
 30
0.000000
 40
1.638495
 50
26.855747
 51
32.336481
  6
CONTINUOUS
  0
ARC
  8
WHITE
 10
9.257411
 20
5.629918
 30
0.000000
 40
0.097963
 50
-152.625902
 51
-84.374898
  6
CONTINUOUS
  0
ARC
  8
WHITE
 10
9.234543
 20
5.576268
 30
0.000000
 40
0.054556
 50
-53.475143
 51
38.914498
  6
CONTINUOUS
  0
ARC
  8
WHITE
 10
9.046879
 20
5.477590
 30
0.000000
 40
0.265758
 50
30.017035
 51
58.589032
  6
CONTINUOUS
  0
ARC
  8
WHITE
 10
9.638651
 20
6.372570
 30
0.000000
 40
0.807403
 50
-128.852074
 51
-124.151880
  6
CONTINUOUS
  0
ARC
  8
WHITE
 10
9.157995
 20
5.799485
 30
0.000000
 40
0.061396
 50
-176.649808
 51
-114.887180
  6
CONTINUOUS
  0
ARC
  8
WHITE
 10
9.137459
 20
5.694788
 30
0.000000
 40
0.109014
 50
74.438055
 51
111.953622
  6
CONTINUOUS
  0
ARC
  8
WHITE
 10
9.207057
 20
6.071724
 30
0.000000
 40
0.274897
 50
-98.440854
 51
-83.333410
  6
CONTINUOUS
  0
ARC
  8
WHITE
 10
9.493785
 20
5.903443
 30
0.000000
 40
0.275508
 50
-157.651892
 51
-118.719760
  6
CONTINUOUS
  0
ARC
  8
WHITE
 10
9.478626
 20
6.913118
 30
0.000000
 40
1.256769
 50
-95.352271
 51
-92.160662
  6
CONTINUOUS
  0
ARC
  8
WHITE
 10
9.908121
 20
6.392652
 30
0.000000
 40
0.876492
 50
-122.961456
 51
-114.934817
  6
CONTINUOUS
  0
ARC
  8
WHITE
 10
9.614103
 20
5.809388
 30
0.000000
 40
0.224599
 50
-109.642723
 51
-62.600547
  6
CONTINUOUS
  0
ARC
  8
WHITE
 10
9.779067
 20
5.535885
 30
0.000000
 40
0.096364
 50
74.599313
 51
129.739450
  6
CONTINUOUS
  0
LINE
  8
WHITE
 10
9.804658
 20
5.628788
 30
0.000000
 11
9.850113
 21
5.620809
 31
0.000000
  6
CONTINUOUS
  0
ARC
  8
WHITE
 10
9.862793
 20
5.657912
 30
0.000000
 40
0.039210
 50
-108.868148
 51
-41.299547
  6
CONTINUOUS
  0
ARC
  8
WHITE
 10
10.488976
 20
6.503728
 30
0.000000
 40
1.056377
 50
-127.030423
 51
-124.393925
  6
CONTINUOUS
  0
ARC
  8
WHITE
 10
10.023678
 20
5.888170
 30
0.000000
 40
0.284748
 50
-136.510690
 51
-126.881296
  6
CONTINUOUS
  0
ARC
  8
WHITE
 10
9.900438
 20
5.771638
 30
0.000000
 40
0.115138
 50
-159.043726
 51
-136.375273
  6
CONTINUOUS
  0
ARC
  8
WHITE
 10
9.805750
 20
5.730497
 30
0.000000
 40
0.012834
 50
61.815804
 51
180.172248
  6
CONTINUOUS
  0
ARC
  8
WHITE
 10
9.765720
 20
5.235003
 30
0.000000
 40
0.508898
 50
80.617755
 51
84.803548
  6
CONTINUOUS
  0
ARC
  8
WHITE
 10
9.879971
 20
5.917314
 30
0.000000
 40
0.182917
 50
-99.849520
 51
-88.730221
  6
CONTINUOUS
  0
ARC
  8
WHITE
 10
9.884380
 20
5.742013
 30
0.000000
 40
0.007579
 50
-92.685887
 51
75.768143
  6
CONTINUOUS
  0
ARC
  8
WHITE
 10
9.998930
 20
5.884088
 30
0.000000
 40
0.175642
 50
-148.882944
 51
-129.909214
  6
CONTINUOUS
  0
ARC
  8
WHITE
 10
9.902808
 20
5.812534
 30
0.000000
 40
0.057550
 50
142.819655
 51
199.506093
  6
CONTINUOUS
  0
LINE
  8
WHITE
 10
9.856955
 20
5.847313
 30
0.000000
 11
9.717688
 21
5.986580
 31
0.000000
  6
CONTINUOUS
  0
ARC
  8
WHITE
 10
9.573741
 20
5.052470
 30
0.000000
 40
0.945136
 50
72.163810
 51
81.239599
  6
CONTINUOUS
  0
ARC
  8
WHITE
 10
9.938217
 20
6.367065
 30
0.000000
 40
0.421607
 50
-100.244711
 51
-79.887987
  6
CONTINUOUS
  0
ARC
  8
WHITE
 10
10.160713
 20
6.225877
 30
0.000000
 40
0.311527
 50
-157.020431
 51
-118.463520
  6
CONTINUOUS
  0
ARC
  8
WHITE
 10
10.769070
 20
6.327292
 30
0.000000
 40
0.922529
 50
-172.525568
 51
-166.009176
  6
CONTINUOUS
  0
ARC
  8
WHITE
 10
9.767970
 20
6.206219
 30
0.000000
 40
0.086416
 50
0.707375
 51
70.304876
  6
CONTINUOUS
  0
LINE
  8
WHITE
 10
9.797094
 20
6.287580
 30
0.000000
 11
9.785022
 21
6.282651
 31
0.000000
  6
CONTINUOUS
  0
ARC
  8
WHITE
 10
9.856678
 20
6.243837
 30
0.000000
 40
0.081493
 50
151.556504
 51
225.516800
  6
CONTINUOUS
  0
ARC
  8
WHITE
 10
9.716183
 20
6.119611
 30
0.000000
 40
0.106402
 50
-18.099346
 51
38.394994
  6
CONTINUOUS
  0
ARC
  8
WHITE
 10
9.821051
 20
6.174307
 30
0.000000
 40
0.087830
 50
-129.934787
 51
-92.434379
  6
CONTINUOUS
  0
ARC
  8
WHITE
 10
11.379285
 20
8.537445
 30
0.000000
 40
2.917916
 50
-127.025879
 51
-123.596781
  6
CONTINUOUS
  0
ARC
  8
WHITE
 10
9.624778
 20
6.194029
 30
0.000000
 40
0.014099
 50
100.590556
 51
229.109403
  6
CONTINUOUS
  0
ARC
  8
WHITE
 10
10.730519
 20
6.461333
 30
0.000000
 40
1.149096
 50
-166.001497
 51
-161.881307
  6
CONTINUOUS
  0
ARC
  8
WHITE
 10
9.628178
 20
6.141623
 30
0.000000
 40
0.039007
 50
-149.326689
 51
-74.805217
  6
CONTINUOUS
  0
ARC
  8
WHITE
 10
9.703194
 20
6.238858
 30
0.000000
 40
0.159709
 50
-165.980000
 51
-132.825753
  6
CONTINUOUS
  0
ARC
  8
WHITE
 10
9.121737
 20
6.034605
 30
0.000000
 40
0.457513
 50
21.215322
 51
38.545001
  6
CONTINUOUS
  0
ARC
  8
WHITE
 10
6.663104
 20
4.668849
 30
0.000000
 40
3.264622
 50
30.376340
 51
32.802509
  6
CONTINUOUS
  0
ARC
  8
WHITE
 10
9.433648
 20
6.405814
 30
0.000000
 40
0.041255
 50
129.947460
 51
188.484846
  6
CONTINUOUS
  0
ARC
  8
WHITE
 10
9.747187
 20
6.439173
 30
0.000000
 40
0.356532
 50
-173.647878
 51
-152.034413
  6
CONTINUOUS
  0
LINE
  8
WHITE
 10
9.432288
 20
6.271981
 30
0.000000
 11
9.418955
 21
6.265314
 31
0.000000
  6
CONTINUOUS
  0
ARC
  8
WHITE
 10
9.599766
 20
6.492832
 30
0.000000
 40
0.290614
 50
-155.922337
 51
-128.474568
  6
CONTINUOUS
  0
ARC
  8
WHITE
 10
11.288884
 20
6.317503
 30
0.000000
 40
1.955271
 50
172.206649
 51
178.336355
  6
CONTINUOUS
  0
ARC
  8
WHITE
 10
9.843584
 20
6.532004
 30
0.000000
 40
0.494511
 50
161.992322
 51
174.122939
  6
CONTINUOUS
  0
ARC
  8
WHITE
 10
9.518060
 20
6.652746
 30
0.000000
 40
0.148287
 50
127.234877
 51
167.484728
  6
CONTINUOUS
  0
ARC
  8
WHITE
 10
9.401326
 20
6.738987
 30
0.000000
 40
0.041736
 50
-15.343835
 51
49.674746
  6
CONTINUOUS
  0
ARC
  8
WHITE
 10
9.089700
 20
6.756323
 30
0.000000
 40
0.353017
 50
-19.580355
 51
-4.611163
  6
CONTINUOUS
  0
ARC
  8
WHITE
 10
9.593122
 20
6.601471
 30
0.000000
 40
0.174685
 50
167.923689
 51
194.376268
  6
CONTINUOUS
  0
ARC
  8
WHITE
 10
9.462633
 20
6.562723
 30
0.000000
 40
0.039001
 50
-173.189828
 51
-68.828669
  6
CONTINUOUS
  0
ARC
  8
WHITE
 10
9.411033
 20
6.625444
 30
0.000000
 40
0.118883
 50
-56.460191
 51
3.141334
  6
CONTINUOUS
  0
ARC
  8
WHITE
 10
8.983488
 20
6.646051
 30
0.000000
 40
0.546432
 50
-1.477789
 51
17.921052
  6
CONTINUOUS
  0
ARC
  8
WHITE
 10
9.849739
 20
6.966405
 30
0.000000
 40
0.378305
 50
-170.315252
 51
-156.274460
  6
CONTINUOUS
  0
ARC
  8
WHITE
 10
9.581416
 20
6.906675
 30
0.000000
 40
0.104663
 50
131.341334
 51
182.141874
  6
CONTINUOUS
  0
LINE
  8
WHITE
 10
9.512281
 20
6.985255
 30
0.000000
 11
9.512281
 21
6.832808
 31
0.000000
  6
CONTINUOUS
  0
ARC
  8
WHITE
 10
9.586509
 20
6.913896
 30
0.000000
 40
0.109932
 50
-132.471238
 51
-89.477375
  6
CONTINUOUS
  0
ARC
  8
WHITE
 10
9.599832
 20
6.768184
 30
0.000000
 40
0.037846
 50
-0.316515
 51
108.998149
  6
CONTINUOUS
  0
ARC
  8
WHITE
 10
9.497257
 20
6.704806
 30
0.000000
 40
0.153975
 50
-22.797602
 51
24.221011
  6
CONTINUOUS
  0
ARC
  8
WHITE
 10
9.814309
 20
6.563262
 30
0.000000
 40
0.193304
 50
154.938598
 51
183.029450
  6
CONTINUOUS
  0
ARC
  8
WHITE
 10
8.290351
 20
5.996306
 30
0.000000
 40
1.442677
 50
17.055471
 51
22.700089
  6
CONTINUOUS
  0
ARC
  8
WHITE
 10
9.986796
 20
6.364047
 30
0.000000
 40
0.322015
 50
170.094694
 51
195.199183
  6
CONTINUOUS
  0
LINE
  8
WHITE
 10
9.676045
 20
6.279622
 30
0.000000
 11
9.689159
 21
6.279415
 31
0.000000
  6
CONTINUOUS
  0
ARC
  8
WHITE
 10
9.574901
 20
6.366617
 30
0.000000
 40
0.143732
 50
-37.350845
 51
15.900123
  6
CONTINUOUS
  0
ARC
  8
WHITE
 10
10.134359
 20
6.557808
 30
0.000000
 40
0.447749
 50
148.583806
 51
199.819720
  6
CONTINUOUS
  0
LINE
  8
WHITE
 10
9.752249
 20
6.791197
 30
0.000000
 11
9.762765
 21
6.785032
 31
0.000000
  6
CONTINUOUS
  0
ARC
  8
WHITE
 10
9.298709
 20
6.641375
 30
0.000000
 40
0.485783
 50
0.601746
 51
17.200842
  6
CONTINUOUS
  0
ARC
  8
WHITE
 10
10.124179
 20
6.533368
 30
0.000000
 40
0.358049
 50
161.584712
 51
183.948387
  6
CONTINUOUS
  0
ARC
  8
WHITE
 10
9.654421
 20
6.641663
 30
0.000000
 40
0.174199
 50
-49.747770
 51
-3.136577
  6
CONTINUOUS
  0
ARC
  8
WHITE
 10
10.055936
 20
6.621495
 30
0.000000
 40
0.227826
 50
141.598876
 51
177.323948
  6
CONTINUOUS
  0
ARC
  8
WHITE
 10
9.890444
 20
6.761966
 30
0.000000
 40
0.013093
 50
-31.766065
 51
175.419148
  6
CONTINUOUS
  0
ARC
  8
WHITE
 10
12.714017
 20
7.130463
 30
0.000000
 40
2.837383
 50
-172.397400
 51
-170.629715
  6
CONTINUOUS
  0
ARC
  8
WHITE
 10
10.003611
 20
6.672593
 30
0.000000
 40
0.089211
 50
-177.367959
 51
-121.064605
  6
CONTINUOUS
  0
ARC
  8
WHITE
 10
8.842533
 20
5.635457
 30
0.000000
 40
1.471838
 50
37.673007
 51
40.748069
  6
CONTINUOUS
  0
ARC
  8
WHITE
 10
10.464116
 20
6.742451
 30
0.000000
 40
0.501533
 50
-155.563779
 51
-133.497748
  6
CONTINUOUS
  0
LINE
  8
WHITE
 10
10.118898
 20
6.378638
 30
0.000000
 11
10.145562
 21
6.385305
 31
0.000000
  6
CONTINUOUS
  0
ARC
  8
WHITE
 10
9.450470
 20
6.011657
 30
0.000000
 40
0.789155
 50
28.260291
 51
46.191561
  6
CONTINUOUS
  0
ARC
  8
WHITE
 10
11.288245
 20
6.719169
 30
0.000000
 40
1.298836
 50
-178.718285
 51
-173.900333
  6
CONTINUOUS
  0
ARC
  8
WHITE
 10
10.149257
 20
6.669739
 30
0.000000
 40
0.160819
 50
133.823891
 51
172.720385
  6
CONTINUOUS
  0
LINE
  8
WHITE
 10
10.037898
 20
6.785765
 30
0.000000
 11
10.047273
 21
6.782650
 31
0.000000
  6
CONTINUOUS
  0
ARC
  8
WHITE
 10
9.236148
 20
6.507393
 30
0.000000
 40
0.856557
 50
9.660115
 51
18.744746
  6
CONTINUOUS
  0
ARC
  8
WHITE
 10
10.025057
 20
6.758270
 30
0.000000
 40
0.120667
 50
-62.614883
 51
-5.378613
  6
CONTINUOUS
  0
ARC
  8
WHITE
 10
10.310296
 20
6.706389
 30
0.000000
 40
0.170015
 50
125.228994
 51
166.194603
  6
CONTINUOUS
  0
ARC
  8
WHITE
 10
11.055584
 20
6.936761
 30
0.000000
 40
0.848309
 50
-173.808313
 51
-164.855319
  6
CONTINUOUS
  0
ARC
  8
WHITE
 10
10.264815
 20
6.720966
 30
0.000000
 40
0.028677
 50
-168.267084
 51
-32.941390
  6
CONTINUOUS
  0
ARC
  8
WHITE
 10
10.564133
 20
6.403423
 30
0.000000
 40
0.408578
 50
123.189472
 51
132.351714
  6
CONTINUOUS
  0
ARC
  8
WHITE
 10
10.321733
 20
6.722138
 30
0.000000
 40
0.029831
 50
-20.929084
 51
51.080743
  6
CONTINUOUS
  0
ARC
  8
WHITE
 10
10.466422
 20
6.701224
 30
0.000000
 40
0.117276
 50
174.982164
 51
207.506936
  6
CONTINUOUS
  0
ARC
  8
WHITE
 10
10.188014
 20
6.509575
 30
0.000000
 40
0.222067
 50
12.511188
 51
38.251249
  6
CONTINUOUS
  0
ARC
  8
WHITE
 10
11.459627
 20
6.694177
 30
0.000000
 40
1.063614
 50
-172.626812
 51
-169.937518
  6
CONTINUOUS
  0
ARC
  8
WHITE
 10
10.543435
 20
6.526428
 30
0.000000
 40
0.132304
 50
-172.142180
 51
-161.340518
  6
CONTINUOUS
  0
ARC
  8
WHITE
 10
10.430746
 20
6.489983
 30
0.000000
 40
0.013961
 50
-155.069301
 51
-54.408378
  6
CONTINUOUS
  0
ARC
  8
WHITE
 10
-6.909726
 20
8.883995
 30
0.000000
 40
17.514554
 50
-7.893676
 51
-7.569382
  6
CONTINUOUS
  0
ARC
  8
WHITE
 10
11.486462
 20
6.440997
 30
0.000000
 40
1.043140
 50
166.268378
 51
172.516241
  6
CONTINUOUS
  0
ARC
  8
WHITE
 10
10.713337
 20
6.628734
 30
0.000000
 40
0.247551
 50
153.662812
 51
166.002354
  6
CONTINUOUS
  0
ARC
  8
WHITE
 10
10.544505
 20
6.712547
 30
0.000000
 40
0.059061
 50
126.408479
 51
153.867545
  6
CONTINUOUS
  0
ARC
  8
WHITE
 10
10.522154
 20
6.746321
 30
0.000000
 40
0.018726
 50
73.858857
 51
132.715357
  6
CONTINUOUS
  0
ARC
  8
WHITE
 10
10.477074
 20
6.710359
 30
0.000000
 40
0.073752
 50
30.055614
 51
47.013608
  6
CONTINUOUS
  0
ARC
  8
WHITE
 10
10.409304
 20
6.661239
 30
0.000000
 40
0.157244
 50
22.208044
 51
33.180686
  6
CONTINUOUS
  0
ARC
  8
WHITE
 10
11.136106
 20
6.958498
 30
0.000000
 40
0.627998
 50
-157.746572
 51
-155.026388
  6
CONTINUOUS
  0
ARC
  8
WHITE
 10
10.582443
 20
6.700968
 30
0.000000
 40
0.017374
 50
-154.020944
 51
-97.512613
  6
CONTINUOUS
  0
ARC
  8
WHITE
 10
10.586507
 20
6.738137
 30
0.000000
 40
0.054762
 50
-96.643031
 51
-74.577758
  6
CONTINUOUS
  0
ARC
  8
WHITE
 10
10.511711
 20
6.998719
 30
0.000000
 40
0.325863
 50
-74.084334
 51
-66.619501
  6
CONTINUOUS
  0
ARC
  8
WHITE
 10
10.767006
 20
6.404860
 30
0.000000
 40
0.320547
 50
107.472239
 51
113.142493
  6
CONTINUOUS
  0
ARC
  8
WHITE
 10
10.671573
 20
6.698144
 30
0.000000
 40
0.012500
 50
21.033506
 51
93.711694
  6
CONTINUOUS
  0
ARC
  8
WHITE
 10
10.580844
 20
6.649414
 30
0.000000
 40
0.115399
 50
13.710781
 51
27.460923
  6
CONTINUOUS
  0
ARC
  8
WHITE
 10
9.857528
 20
6.472448
 30
0.000000
 40
0.860048
 50
8.992389
 51
13.742949
  6
CONTINUOUS
  0
ARC
  8
WHITE
 10
10.904542
 20
6.638087
 30
0.000000
 40
0.199986
 50
-171.021526
 51
-161.835518
  6
CONTINUOUS
  0
ARC
  8
WHITE
 10
10.761772
 20
6.593383
 30
0.000000
 40
0.050436
 50
-159.526663
 51
-113.472726
  6
CONTINUOUS
  0
ARC
  8
WHITE
 10
10.663847
 20
6.388575
 30
0.000000
 40
0.176622
 50
50.143150
 51
63.852232
  6
CONTINUOUS
  0
ARC
  8
WHITE
 10
10.548513
 20
6.263351
 30
0.000000
 40
0.346763
 50
36.984783
 51
48.774347
  6
CONTINUOUS
  0
ARC
  8
WHITE
 10
11.532997
 20
6.395686
 30
0.000000
 40
0.711591
 50
165.090348
 51
173.846409
  6
CONTINUOUS
  0
ARC
  8
WHITE
 10
10.917323
 20
6.570960
 30
0.000000
 40
0.072383
 50
88.007710
 51
173.801788
  6
CONTINUOUS
  0
ARC
  8
WHITE
 10
10.933626
 20
6.709056
 30
0.000000
 40
0.067187
 50
-101.841528
 51
-75.390548
  6
CONTINUOUS
  0
ARC
  8
WHITE
 10
11.089863
 20
6.407474
 30
0.000000
 40
0.274529
 50
113.094062
 51
120.489579
  6
CONTINUOUS
  0
ARC
  8
WHITE
 10
10.980544
 20
6.612017
 30
0.000000
 40
0.048014
 50
40.034303
 51
88.045072
  6
CONTINUOUS
  0
ARC
  8
WHITE
 10
11.511258
 20
7.144438
 30
0.000000
 40
0.703937
 50
-134.563497
 51
-130.794770
  6
CONTINUOUS
  0
ARC
  8
WHITE
 10
11.030848
 20
6.669360
 30
0.000000
 40
0.061364
 50
-70.491907
 51
-20.126324
  6
CONTINUOUS
  0
ARC
  8
WHITE
 10
11.641629
 20
6.359728
 30
0.000000
 40
0.623885
 50
143.035887
 51
152.454451
  6
CONTINUOUS
  0
ARC
  8
WHITE
 10
11.001614
 20
6.884163
 30
0.000000
 40
0.205705
 50
-46.528840
 51
-21.568495
  6
CONTINUOUS
  0
ARC
  8
WHITE
 10
11.139390
 20
6.830558
 30
0.000000
 40
0.057875
 50
-22.356449
 51
55.696946
  6
CONTINUOUS
  0
ARC
  8
WHITE
 10
11.082022
 20
6.636674
 30
0.000000
 40
0.257901
 50
69.579249
 51
99.890144
  6
CONTINUOUS
  0
ARC
  8
WHITE
 10
10.953889
 20
6.487533
 30
0.000000
 40
0.411833
 50
78.254229
 51
106.987416
  6
CONTINUOUS
  0
ARC
  8
WHITE
 10
10.897070
 20
7.540652
 30
0.000000
 40
0.662307
 50
-113.298939
 51
-95.502125
  6
CONTINUOUS
  0
LINE
  8
WHITE
 10
10.635109
 20
6.932354
 30
0.000000
 11
10.636169
 21
6.941432
 31
0.000000
  6
CONTINUOUS
  0
ARC
  8
WHITE
 10
10.602227
 20
7.064086
 30
0.000000
 40
0.127263
 50
-74.531886
 51
-9.828605
  6
CONTINUOUS
  0
ARC
  8
WHITE
 10
10.164131
 20
7.131849
 30
0.000000
 40
0.570553
 50
-9.023690
 51
5.369317
  6
CONTINUOUS
  0
ARC
  8
WHITE
 10
10.896439
 20
9.369863
 30
0.000000
 40
2.190791
 50
-98.863977
 51
-94.299883
  6
CONTINUOUS
  0
ARC
  8
WHITE
 10
10.898029
 20
6.635974
 30
0.000000
 40
0.662642
 50
81.833355
 51
120.786510
  6
CONTINUOUS
  0
ARC
  8
WHITE
 10
11.080390
 20
7.240126
 30
0.000000
 40
0.102298
 50
95.345427
 51
149.597585
  6
CONTINUOUS
  0
ARC
  8
WHITE
 10
11.079676
 20
6.968153
 30
0.000000
 40
0.373931
 50
35.698546
 51
91.350964
  6
CONTINUOUS
  0
ARC
  8
WHITE
 10
11.136641
 20
7.078427
 30
0.000000
 40
0.269277
 50
-34.340301
 51
23.627187
  6
CONTINUOUS
  0
LINE
  8
WHITE
 10
11.358983
 20
6.926527
 30
0.000000
 11
11.251215
 21
6.752936
 31
0.000000
  6
CONTINUOUS
  0
ARC
  8
WHITE
 10
11.464866
 20
6.614118
 30
0.000000
 40
0.254789
 50
146.986602
 51
181.445552
  6
CONTINUOUS
  0
ARC
  8
WHITE
 10
11.475419
 20
6.689643
 30
0.000000
 40
0.277632
 50
-162.831416
 51
-68.143471
  6
CONTINUOUS
  0
ARC
  8
WHITE
 10
12.455611
 20
8.193702
 30
0.000000
 40
1.967878
 50
-124.977515
 51
-116.460022
  6
CONTINUOUS
  0
ARC
  8
WHITE
 10
11.366607
 20
6.645858
 30
0.000000
 40
0.075500
 50
154.860475
 51
238.816658
  6
CONTINUOUS
  0
ARC
  8
WHITE
 10
11.832750
 20
6.387544
 30
0.000000
 40
0.608281
 50
115.295795
 51
151.484818
  6
CONTINUOUS
  0
ARC
  8
WHITE
 10
11.802139
 20
6.464329
 30
0.000000
 40
0.525804
 50
94.914870
 51
115.855284
  6
CONTINUOUS
  0
ARC
  8
WHITE
 10
11.802521
 20
6.819219
 30
0.000000
 40
0.174981
 50
41.947762
 51
105.047961
  6
CONTINUOUS
  0
ARC
  8
WHITE
 10
11.938302
 20
6.962597
 30
0.000000
 40
0.027006
 50
-102.051037
 51
-9.168108
  6
CONTINUOUS
  0
ARC
  8
WHITE
 10
11.803134
 20
7.021670
 30
0.000000
 40
0.173797
 50
-21.386418
 51
89.646824
  6
CONTINUOUS
  0
ARC
  8
WHITE
 10
11.751378
 20
6.323623
 30
0.000000
 40
0.873439
 50
86.532526
 51
97.510382
  6
CONTINUOUS
  0
ARC
  8
WHITE
 10
11.586897
 20
7.537023
 30
0.000000
 40
0.351078
 50
-109.082499
 51
-81.759865
  6
CONTINUOUS
  0
ARC
  8
WHITE
 10
14.425228
 20
5.047459
 30
0.000000
 40
3.657439
 50
141.970016
 51
143.845150
  6
CONTINUOUS
  0
ARC
  8
WHITE
 10
11.524410
 20
7.320534
 30
0.000000
 40
0.028085
 50
-44.895136
 51
69.588506
  6
CONTINUOUS
  0
ARC
  8
WHITE
 10
11.293414
 20
6.949973
 30
0.000000
 40
0.464211
 50
58.754450
 51
85.589672
  6
CONTINUOUS
  0
ARC
  8
WHITE
 10
11.189786
 20
5.847001
 30
0.000000
 40
1.571995
 50
84.915227
 51
98.783074
  6
CONTINUOUS
  0
ARC
  8
WHITE
 10
23.009915
 20
-63.591206
 30
0.000000
 40
72.008879
 50
99.641427
 51
100.095541
  6
CONTINUOUS
  0
ARC
  8
WHITE
 10
10.933087
 20
3.022763
 30
0.000000
 40
4.314622
 50
97.264934
 51
101.054402
  6
CONTINUOUS
  0
ARC
  8
WHITE
 10
10.107552
 20
6.980915
 30
0.000000
 40
0.276420
 50
90.363788
 51
149.899222
  6
CONTINUOUS
  0
ARC
  8
WHITE
 10
9.872237
 20
7.131624
 30
0.000000
 40
0.012670
 50
171.917767
 51
252.416534
  6
CONTINUOUS
  0
ARC
  8
WHITE
 10
10.142411
 20
7.247242
 30
0.000000
 40
0.304776
 50
-174.775760
 51
-158.067818
  6
CONTINUOUS
  0
LINE
  8
WHITE
 10
9.838901
 20
7.219491
 30
0.000000
 11
9.827535
 21
7.221901
 31
0.000000
  6
CONTINUOUS
  0
ARC
  8
WHITE
 10
9.839525
 20
7.162596
 30
0.000000
 40
0.060505
 50
101.429387
 51
130.076140
  6
CONTINUOUS
  0
ARC
  8
WHITE
 10
9.913958
 20
7.033340
 30
0.000000
 40
0.208987
 50
122.857666
 51
133.017088
  6
CONTINUOUS
  0
LINE
  8
WHITE
 10
9.771384
 20
7.186141
 30
0.000000
 11
9.743599
 21
7.160536
 31
0.000000
  6
CONTINUOUS
  0
ARC
  8
WHITE
 10
9.731294
 20
7.167566
 30
0.000000
 40
0.014172
 50
175.321227
 51
330.264093
  6
CONTINUOUS
  0
ARC
  8
WHITE
 10
9.801550
 20
7.229016
 30
0.000000
 40
0.103709
 50
-167.474975
 51
-144.452168
  6
CONTINUOUS
  0
LINE
  8
WHITE
 10
9.700309
 20
7.206525
 30
0.000000
 11
9.692287
 21
7.212462
 31
0.000000
  6
CONTINUOUS
  0
ARC
  8
WHITE
 10
9.785077
 20
7.033735
 30
0.000000
 40
0.201378
 50
117.436931
 51
145.411959
  6
CONTINUOUS
  0
ARC
  8
WHITE
 10
9.433305
 20
6.979021
 30
0.000000
 40
0.251322
 50
42.265692
 51
69.931763
  6
CONTINUOUS
  0
ARC
  8
WHITE
 10
9.527510
 20
7.122779
 30
0.000000
 40
0.092647
 50
94.933326
 51
208.405876
  6
CONTINUOUS
  0
ARC
  8
WHITE
 10
9.201972
 20
7.041923
 30
0.000000
 40
0.246802
 50
-34.054065
 51
8.571241
  6
CONTINUOUS
  0
ARC
  8
WHITE
 10
9.403162
 20
6.914781
 30
0.000000
 40
0.011540
 50
179.659271
 51
286.557049
  6
CONTINUOUS
  0
LINE
  8
WHITE
 10
9.391622
 20
6.914850
 30
0.000000
 11
9.377499
 21
6.947277
 31
0.000000
  6
CONTINUOUS
  0
ARC
  8
WHITE
 10
9.627766
 20
7.070429
 30
0.000000
 40
0.278927
 50
-163.551454
 51
-153.799049
  6
CONTINUOUS
  0
ARC
  8
WHITE
 10
9.826276
 20
7.130428
 30
0.000000
 40
0.486304
 50
-169.219442
 51
-163.394151
  6
CONTINUOUS
  0
ARC
  8
WHITE
 10
10.453672
 20
7.245925
 30
0.000000
 40
1.124237
 50
-173.817058
 51
-169.417970
  6
CONTINUOUS
  0
ARC
  8
WHITE
 10
9.021730
 20
7.091662
 30
0.000000
 40
0.315991
 50
6.027106
 51
11.426349
  6
CONTINUOUS
  0
ARC
  8
WHITE
 10
9.433517
 20
7.055200
 30
0.000000
 40
0.142229
 50
135.853626
 51
198.476765
  6
CONTINUOUS
  0
ARC
  8
WHITE
 10
5.971561
 20
6.433487
 30
0.000000
 40
3.376660
 50
7.829254
 51
9.832704
  6
CONTINUOUS
  0
ARC
  8
WHITE
 10
11.137726
 20
7.642465
 30
0.000000
 40
1.969005
 50
-157.641669
 51
-155.058657
  6
CONTINUOUS
  0
ARC
  8
WHITE
 10
9.260210
 20
6.773948
 30
0.000000
 40
0.099747
 50
-15.741536
 51
22.521964
  6
CONTINUOUS
  0
ARC
  8
WHITE
 10
9.982510
 20
6.375401
 30
0.000000
 40
0.728179
 50
149.325719
 51
165.040595
  6
CONTINUOUS
  0
ARC
  8
WHITE
 10
9.387872
 20
6.636817
 30
0.000000
 40
0.131322
 50
149.243056
 51
214.006665
  6
CONTINUOUS
  0
ARC
  8
WHITE
 10
9.168292
 20
6.756852
 30
0.000000
 40
0.119110
 50
-26.355529
 51
27.199568
  6
CONTINUOUS
  0
ARC
  8
WHITE
 10
10.087095
 20
7.116847
 30
0.000000
 40
0.868395
 50
178.566190
 51
200.600922
  6
CONTINUOUS
  0
ARC
  8
WHITE
 10
9.214426
 20
7.124627
 30
0.000000
 40
0.014671
 50
71.948949
 51
163.628454
  6
CONTINUOUS
  0
ARC
  8
WHITE
 10
10.047016
 20
6.553394
 30
0.000000
 40
1.023666
 50
145.801208
 51
148.263036
  6
CONTINUOUS
  0
ARC
  8
WHITE
 10
9.131569
 20
7.111709
 30
0.000000
 40
0.049043
 50
-114.508934
 51
-23.870080
  6
CONTINUOUS
  0
ARC
  8
WHITE
 10
9.101464
 20
7.055456
 30
0.000000
 40
0.015182
 50
49.995924
 51
160.372125
  6
CONTINUOUS
  0
ARC
  8
WHITE
 10
9.582968
 20
6.974584
 30
0.000000
 40
0.503202
 50
170.162763
 51
193.132564
  6
CONTINUOUS
  0
ARC
  8
WHITE
 10
9.099922
 20
6.847036
 30
0.000000
 40
0.014955
 50
117.888649
 51
336.914349
  6
CONTINUOUS
  0
ARC
  8
WHITE
 10
8.581736
 20
7.266887
 30
0.000000
 40
0.681320
 50
-38.670336
 51
-33.550756
  6
CONTINUOUS
  0
ARC
  8
WHITE
 10
9.161582
 20
6.896377
 30
0.000000
 40
0.013467
 50
-59.388050
 51
206.642165
  6
CONTINUOUS
  0
ARC
  8
WHITE
 10
8.970571
 20
6.864457
 30
0.000000
 40
0.198910
 50
-32.150845
 51
5.866138
  6
CONTINUOUS
  0
ARC
  8
WHITE
 10
9.119627
 20
6.751274
 30
0.000000
 40
0.020694
 50
20.754152
 51
120.704796
  6
CONTINUOUS
  0
ARC
  8
WHITE
 10
9.709963
 20
6.296234
 30
0.000000
 40
0.764627
 50
141.801779
 51
146.704953
  6
CONTINUOUS
  0
ARC
  8
WHITE
 10
9.065196
 20
6.723977
 30
0.000000
 40
0.009794
 50
-172.997850
 51
-54.774375
  6
CONTINUOUS
  0
ARC
  8
WHITE
 10
9.163099
 20
6.820169
 30
0.000000
 40
0.145145
 50
-154.743732
 51
-137.859279
  6
CONTINUOUS
  0
ARC
  8
WHITE
 10
9.238861
 20
6.855072
 30
0.000000
 40
0.228558
 50
-165.266523
 51
-154.933682
  6
CONTINUOUS
  0
ARC
  8
WHITE
 10
10.865239
 20
7.271528
 30
0.000000
 40
1.907405
 50
-167.258855
 51
-165.592838
  6
CONTINUOUS
  0
ARC
  8
WHITE
 10
8.849994
 20
6.814129
 30
0.000000
 40
0.159105
 50
13.346478
 51
26.278305
  6
CONTINUOUS
  0
ARC
  8
WHITE
 10
8.984508
 20
6.881807
 30
0.000000
 40
0.008603
 50
18.730494
 51
142.714429
  6
CONTINUOUS
  0
ARC
  8
WHITE
 10
9.009300
 20
6.814301
 30
0.000000
 40
0.079301
 50
113.512134
 51
142.423322
  6
CONTINUOUS
  0
ARC
  8
WHITE
 10
9.072627
 20
6.767333
 30
0.000000
 40
0.158138
 50
142.928252
 51
158.889592
  6
CONTINUOUS
  0
ARC
  8
WHITE
 10
9.385215
 20
6.651713
 30
0.000000
 40
0.491413
 50
159.440288
 51
167.448307
  6
CONTINUOUS
  0
ARC
  8
WHITE
 10
7.527176
 20
7.059072
 30
0.000000
 40
1.410761
 50
-15.645435
 51
-12.301271
  6
CONTINUOUS
  0
ARC
  8
WHITE
 10
8.977576
 20
6.774846
 30
0.000000
 40
0.133071
 50
159.559578
 51
226.316353
  6
CONTINUOUS
  0
ARC
  8
WHITE
 10
8.571811
 20
6.891832
 30
0.000000
 40
0.289782
 50
-14.083136
 51
16.402832
  6
CONTINUOUS
  0
ARC
  8
WHITE
 10
9.070268
 20
6.898117
 30
0.000000
 40
0.233053
 50
161.085670
 51
176.536450
  6
CONTINUOUS
  0
ARC
  8
WHITE
 10
8.810382
 20
6.927346
 30
0.000000
 40
0.031185
 50
-141.957889
 51
-29.063061
  6
CONTINUOUS
  0
LINE
  8
WHITE
 10
8.785821
 20
6.908128
 30
0.000000
 11
8.668963
 21
6.948404
 31
0.000000
  6
CONTINUOUS
  0
ARC
  8
WHITE
 10
8.955873
 20
7.456652
 30
0.000000
 40
0.583638
 50
-143.308997
 51
-119.445032
  6
CONTINUOUS
  0
ARC
  8
WHITE
 10
8.993602
 20
7.560870
 30
0.000000
 40
0.678910
 50
-177.997337
 51
-138.151821
  6
CONTINUOUS
  0
ARC
  8
WHITE
 10
9.760296
 20
7.566370
 30
0.000000
 40
1.445485
 50
163.630245
 51
181.158522
  6
CONTINUOUS
  0
ARC
  8
WHITE
 10
7.268012
 20
8.308395
 30
0.000000
 40
1.154937
 50
-16.842631
 51
24.343342
  6
CONTINUOUS
  0
ARC
  8
WHITE
 10
7.026833
 20
8.248088
 30
0.000000
 40
1.400239
 50
22.523408
 51
37.371077
  6
CONTINUOUS
  0
ARC
  8
WHITE
 10
5.033584
 20
6.659720
 30
0.000000
 40
3.948763
 50
38.132243
 51
48.004087
  6
CONTINUOUS
  0
ARC
  8
WHITE
 10
-0.868582
 20
0.330084
 30
0.000000
 40
12.602818
 50
47.315642
 51
52.728479
  6
CONTINUOUS
  0
ARC
  8
WHITE
 10
13.265151
 20
18.448538
 30
0.000000
 40
10.378316
 50
-133.718644
 51
-128.789112
  6
CONTINUOUS
  0
ARC
  8
WHITE
 10
10.166179
 20
15.096160
 30
0.000000
 40
5.814169
 50
-147.678451
 51
-134.478737
  6
CONTINUOUS
  0
ARC
  8
WHITE
 10
8.975640
 20
14.391399
 30
0.000000
 40
4.431465
 50
-164.467792
 51
-147.148605
  6
CONTINUOUS
  0
ARC
  8
WHITE
 10
5.216645
 20
12.911575
 30
0.000000
 40
0.588806
 50
150.138905
 51
180.464918
  6
CONTINUOUS
  0
ARC
  8
WHITE
 10
6.161192
 20
12.921311
 30
0.000000
 40
1.533402
 50
-179.457705
 51
-159.087519
  6
CONTINUOUS
  0
ARC
  8
WHITE
 10
9.386910
 20
14.229167
 30
0.000000
 40
5.013954
 50
-158.284026
 51
-148.938953
  6
CONTINUOUS
  0
ARC
  8
WHITE
 10
10.262851
 20
14.669989
 30
0.000000
 40
5.992204
 50
-149.649662
 51
-145.739555
  6
CONTINUOUS
  0
ARC
  8
WHITE
 10
7.021875
 20
12.408703
 30
0.000000
 40
2.041058
 50
-146.985993
 51
-134.282138
  6
CONTINUOUS
  0
ARC
  8
WHITE
 10
5.617770
 20
10.968966
 30
0.000000
 40
0.030000
 50
-134.282139
 51
34.901863
  6
CONTINUOUS
  0
ARC
  8
WHITE
 10
13.028023
 20
16.138788
 30
0.000000
 40
9.005425
 50
-152.566876
 51
-145.098137
  6
CONTINUOUS
  0
ARC
  8
WHITE
 10
11.587952
 20
7.043287
 30
0.000000
 40
0.067151
 50
101.601494
 51
130.787411
  6
CONTINUOUS
  0
ARC
  8
WHITE
 10
11.637760
 20
6.985385
 30
0.000000
 40
0.143529
 50
130.742088
 51
144.459870
  6
CONTINUOUS
  0
ARC
  8
WHITE
 10
11.526896
 20
7.062092
 30
0.000000
 40
0.008962
 50
131.397981
 51
285.822466
  6
CONTINUOUS
  0
ARC
  8
WHITE
 10
11.499044
 20
7.169769
 30
0.000000
 40
0.120182
 50
-75.398948
 51
-40.732921
  6
CONTINUOUS
  0
ARC
  8
WHITE
 10
11.586607
 20
7.104031
 30
0.000000
 40
0.013160
 50
-74.550234
 51
157.501702
  6
CONTINUOUS
  0
ARC
  8
WHITE
 10
9.484702
 20
10.037327
 30
0.000000
 40
0.295047
 50
123.544294
 51
163.179133
  6
CONTINUOUS
  0
ARC
  8
WHITE
 10
8.954129
 20
10.200167
 30
0.000000
 40
0.259959
 50
-34.258972
 51
-17.335567
  6
CONTINUOUS
  0
ARC
  8
WHITE
 10
9.136399
 20
10.063496
 30
0.000000
 40
0.033990
 50
-131.867555
 51
-16.526777
  6
CONTINUOUS
  0
ARC
  8
WHITE
 10
9.041479
 20
9.943671
 30
0.000000
 40
0.118956
 50
52.609959
 51
108.917190
  6
CONTINUOUS
  0
ARC
  8
WHITE
 10
9.093598
 20
9.949776
 30
0.000000
 40
0.139823
 50
130.433849
 51
166.545694
  6
CONTINUOUS
  0
ARC
  8
WHITE
 10
7.940046
 20
10.246464
 30
0.000000
 40
1.051294
 50
-21.759647
 51
-14.552513
  6
CONTINUOUS
  0
ARC
  8
WHITE
 10
8.880453
 20
9.869482
 30
0.000000
 40
0.038172
 50
-119.959637
 51
-19.509314
  6
CONTINUOUS
  0
ARC
  8
WHITE
 10
8.452820
 20
8.774326
 30
0.000000
 40
1.137961
 50
68.958894
 51
72.288924
  6
CONTINUOUS
  0
ARC
  8
WHITE
 10
7.878761
 20
10.079363
 30
0.000000
 40
0.946414
 50
-23.268004
 51
-13.504725
  6
CONTINUOUS
  0
ARC
  8
WHITE
 10
8.625196
 20
9.809404
 30
0.000000
 40
0.161016
 50
-83.010130
 51
-40.188789
  6
CONTINUOUS
  0
ARC
  8
WHITE
 10
8.687180
 20
9.499706
 30
0.000000
 40
0.155757
 50
105.792401
 51
172.721893
  6
CONTINUOUS
  0
ARC
  8
WHITE
 10
4.391060
 20
10.398809
 30
0.000000
 40
4.233946
 50
-13.215222
 51
-11.987323
  6
CONTINUOUS
  0
ARC
  8
WHITE
 10
8.415635
 20
9.438561
 30
0.000000
 40
0.097551
 50
-57.846478
 51
-4.510836
  6
CONTINUOUS
  0
ARC
  8
WHITE
 10
8.418588
 20
9.050187
 30
0.000000
 40
0.309680
 50
80.903036
 51
94.766359
  6
CONTINUOUS
  0
ARC
  8
WHITE
 10
8.431402
 20
9.253694
 30
0.000000
 40
0.111947
 50
110.140354
 51
177.009759
  6
CONTINUOUS
  0
ARC
  8
WHITE
 10
8.828736
 20
9.262062
 30
0.000000
 40
0.509136
 50
-179.715475
 51
-135.482967
  6
CONTINUOUS
  0
ARC
  8
WHITE
 10
13.637481
 20
5.080057
 30
0.000000
 40
6.432592
 50
142.279796
 51
143.513439
  6
CONTINUOUS
  0
ARC
  8
WHITE
 10
8.683894
 20
8.883533
 30
0.000000
 40
0.188570
 50
93.509470
 51
135.562979
  6
CONTINUOUS
  0
ARC
  8
WHITE
 10
9.472094
 20
9.011934
 30
0.000000
 40
0.801977
 50
163.484327
 51
175.722673
  6
CONTINUOUS
  0
ARC
  8
WHITE
 10
9.025983
 20
9.148981
 30
0.000000
 40
0.335344
 50
136.831642
 51
164.265686
  6
CONTINUOUS
  0
ARC
  8
WHITE
 10
8.994046
 20
9.113135
 30
0.000000
 40
0.339979
 50
103.429919
 51
128.716251
  6
CONTINUOUS
  0
ARC
  8
WHITE
 10
8.807892
 20
9.557457
 30
0.000000
 40
0.156218
 50
-46.672521
 51
4.709832
  6
CONTINUOUS
  0
ARC
  8
WHITE
 10
9.137527
 20
9.555345
 30
0.000000
 40
0.174585
 50
87.996131
 51
175.091290
  6
CONTINUOUS
  0
ARC
  8
WHITE
 10
9.147761
 20
9.880678
 30
0.000000
 40
0.150911
 50
-91.567804
 51
-47.583076
  6
CONTINUOUS
  0
ARC
  8
WHITE
 10
8.969897
 20
10.033717
 30
0.000000
 40
0.384892
 50
-43.399191
 51
-27.249297
  6
CONTINUOUS
  0
ARC
  8
WHITE
 10
9.530365
 20
9.748178
 30
0.000000
 40
0.244130
 50
105.742252
 51
153.399969
  6
CONTINUOUS
  0
ARC
  8
WHITE
 10
9.557324
 20
9.216545
 30
0.000000
 40
0.772250
 50
90.325462
 51
96.931292
  6
CONTINUOUS
  0
ARC
  8
WHITE
 10
9.554213
 20
10.160512
 30
0.000000
 40
0.171734
 50
-90.425717
 51
-34.611224
  6
CONTINUOUS
  0
ARC
  8
WHITE
 10
9.900000
 20
9.919691
 30
0.000000
 40
0.249651
 50
77.822358
 51
144.977443
  6
CONTINUOUS
  0
ARC
  8
WHITE
 10
9.910570
 20
9.957204
 30
0.000000
 40
0.210767
 50
18.873775
 51
78.479975
  6
CONTINUOUS
  0
ARC
  8
WHITE
 10
10.063007
 20
9.996452
 30
0.000000
 40
0.055190
 50
-52.446688
 51
31.615564
  6
CONTINUOUS
  0
ARC
  8
WHITE
 10
10.312642
 20
10.789675
 30
0.000000
 40
0.864399
 50
-113.916017
 51
-104.470522
  6
CONTINUOUS
  0
ARC
  8
WHITE
 10
9.921168
 20
9.817213
 30
0.000000
 40
0.186845
 50
77.308712
 51
142.991722
  6
CONTINUOUS
  0
ARC
  8
WHITE
 10
8.772154
 20
10.507739
 30
0.000000
 40
1.154889
 50
-40.704119
 51
-30.035128
  6
CONTINUOUS
  0
ARC
  8
WHITE
 10
9.428275
 20
9.388834
 30
0.000000
 40
0.426494
 50
59.042928
 51
76.358352
  6
CONTINUOUS
  0
ARC
  8
WHITE
 10
9.516281
 20
9.661606
 30
0.000000
 40
0.142247
 50
84.925727
 51
162.769723
  6
CONTINUOUS
  0
ARC
  8
WHITE
 10
8.423046
 20
10.085548
 30
0.000000
 40
1.030697
 50
-32.502888
 51
-21.742465
  6
CONTINUOUS
  0
ARC
  8
WHITE
 10
9.227211
 20
9.356994
 30
0.000000
 40
0.186448
 50
69.568051
 51
105.482951
  6
CONTINUOUS
  0
ARC
  8
WHITE
 10
9.285284
 20
9.367587
 30
0.000000
 40
0.200552
 50
122.529886
 51
172.539371
  6
CONTINUOUS
  0
ARC
  8
WHITE
 10
10.071057
 20
9.264018
 30
0.000000
 40
0.993121
 50
172.501049
 51
182.632512
  6
CONTINUOUS
  0
ARC
  8
WHITE
 10
9.075205
 20
9.920817
 30
0.000000
 40
0.702423
 50
-95.556055
 51
-89.691788
  6
CONTINUOUS
  0
ARC
  8
WHITE
 10
8.984983
 20
9.116045
 30
0.000000
 40
0.107959
 50
78.125975
 51
150.084745
  6
CONTINUOUS
  0
ARC
  8
WHITE
 10
9.151663
 20
8.953077
 30
0.000000
 40
0.338730
 50
140.203562
 51
180.136552
  6
CONTINUOUS
  0
ARC
  8
WHITE
 10
8.654280
 20
8.960444
 30
0.000000
 40
0.158864
 50
-34.682470
 51
-2.949187
  6
CONTINUOUS
  0
ARC
  8
WHITE
 10
9.022793
 20
8.484691
 30
0.000000
 40
0.452861
 50
121.686688
 51
141.178451
  6
CONTINUOUS
  0
ARC
  8
WHITE
 10
9.183971
 20
8.534806
 30
0.000000
 40
0.564672
 50
155.542696
 51
179.108296
  6
CONTINUOUS
  0
ARC
  8
WHITE
 10
9.842270
 20
8.460960
 30
0.000000
 40
1.225690
 50
176.134304
 51
186.989355
  6
CONTINUOUS
  0
ARC
  8
WHITE
 10
4.530060
 20
12.054356
 30
0.000000
 40
5.548045
 50
-42.420761
 51
-41.460169
  6
CONTINUOUS
  0
ARC
  8
WHITE
 10
9.050814
 20
8.069750
 30
0.000000
 40
0.478138
 50
110.206070
 51
139.385764
  6
CONTINUOUS
  0
ARC
  8
WHITE
 10
12.486406
 20
7.725471
 30
0.000000
 40
3.687026
 50
163.394733
 51
167.580019
  6
CONTINUOUS
  0
ARC
  8
WHITE
 10
9.254257
 20
8.684481
 30
0.000000
 40
0.315641
 50
119.784738
 51
162.549383
  6
CONTINUOUS
  0
ARC
  8
WHITE
 10
9.008677
 20
9.219046
 30
0.000000
 40
0.275330
 50
-71.187326
 51
-49.788414
  6
CONTINUOUS
  0
LINE
  8
WHITE
 10
9.186433
 20
9.008786
 30
0.000000
 11
9.276438
 21
9.179636
 31
0.000000
  6
CONTINUOUS
  0
ARC
  8
WHITE
 10
9.595408
 20
9.003849
 30
0.000000
 40
0.364202
 50
124.534197
 51
151.140463
  6
CONTINUOUS
  0
ARC
  8
WHITE
 10
9.496728
 20
9.091031
 30
0.000000
 40
0.238579
 50
81.302358
 51
116.857924
  6
CONTINUOUS
  0
ARC
  8
WHITE
 10
9.540290
 20
9.416673
 30
0.000000
 40
0.090118
 50
-94.763861
 51
-12.326375
  6
CONTINUOUS
  0
ARC
  8
WHITE
 10
9.925717
 20
9.278028
 30
0.000000
 40
0.320463
 50
117.576106
 51
158.123524
  6
CONTINUOUS
  0
ARC
  8
WHITE
 10
9.839663
 20
9.335594
 30
0.000000
 40
0.234903
 50
64.026111
 51
105.379169
  6
CONTINUOUS
  0
ARC
  8
WHITE
 10
9.986094
 20
9.616435
 30
0.000000
 40
0.082158
 50
-122.012639
 51
-32.167322
  6
CONTINUOUS
  0
ARC
  8
WHITE
 10
10.235540
 20
9.442387
 30
0.000000
 40
0.222134
 50
94.903190
 51
144.082854
  6
CONTINUOUS
  0
ARC
  8
WHITE
 10
10.192642
 20
9.482545
 30
0.000000
 40
0.182735
 50
22.706534
 51
82.481066
  6
CONTINUOUS
  0
ARC
  8
WHITE
 10
10.236973
 20
9.767167
 30
0.000000
 40
0.247524
 50
-81.585019
 51
-59.871872
  6
CONTINUOUS
  0
ARC
  8
WHITE
 10
10.333072
 20
9.315844
 30
0.000000
 40
0.214971
 50
106.172537
 51
153.173672
  6
CONTINUOUS
  0
ARC
  8
WHITE
 10
6.379170
 20
11.673788
 30
0.000000
 40
4.389186
 50
-32.012318
 51
-31.005064
  6
CONTINUOUS
  0
ARC
  8
WHITE
 10
10.044564
 20
9.381307
 30
0.000000
 40
0.065930
 50
-94.239516
 51
-31.281240
  6
CONTINUOUS
  0
ARC
  8
WHITE
 10
15.665924
 20
32.905259
 30
0.000000
 40
24.251361
 50
-103.734522
 51
-103.414648
  6
CONTINUOUS
  0
ARC
  8
WHITE
 10
9.874830
 20
9.156629
 30
0.000000
 40
0.193583
 50
80.109551
 51
150.423653
  6
CONTINUOUS
  0
ARC
  8
WHITE
 10
9.886773
 20
9.155933
 30
0.000000
 40
0.204382
 50
151.906729
 51
176.861376
  6
CONTINUOUS
  0
ARC
  8
WHITE
 10
9.300192
 20
9.191853
 30
0.000000
 40
0.383304
 50
-15.334534
 51
-3.699028
  6
CONTINUOUS
  0
ARC
  8
WHITE
 10
9.599375
 20
9.103597
 30
0.000000
 40
0.071684
 50
-120.925971
 51
-10.538780
  6
CONTINUOUS
  0
ARC
  8
WHITE
 10
9.495169
 20
8.875807
 30
0.000000
 40
0.179424
 50
67.947651
 51
133.338103
  6
CONTINUOUS
  0
ARC
  8
WHITE
 10
9.660815
 20
8.785851
 30
0.000000
 40
0.363314
 50
142.642476
 51
174.854147
  6
CONTINUOUS
  0
ARC
  8
WHITE
 10
9.506106
 20
8.446380
 30
0.000000
 40
0.425832
 50
87.374371
 51
119.106660
  6
CONTINUOUS
  0
ARC
  8
WHITE
 10
8.099822
 20
11.014432
 30
0.000000
 40
2.573694
 50
-59.914976
 51
-56.359073
  6
CONTINUOUS
  0
ARC
  8
WHITE
 10
9.138692
 20
9.142783
 30
0.000000
 40
0.435198
 50
-86.325750
 51
-54.732249
  6
CONTINUOUS
  0
ARC
  8
WHITE
 10
9.191232
 20
8.592758
 30
0.000000
 40
0.118318
 50
102.025408
 51
160.130450
  6
CONTINUOUS
  0
ARC
  8
WHITE
 10
9.598565
 20
8.415213
 30
0.000000
 40
0.562469
 50
157.222862
 51
169.422638
  6
CONTINUOUS
  0
LINE
  8
WHITE
 10
9.045653
 20
8.518462
 30
0.000000
 11
9.062290
 21
8.501824
 31
0.000000
  6
CONTINUOUS
  0
ARC
  8
WHITE
 10
9.339110
 20
8.268072
 30
0.000000
 40
0.362311
 50
115.982601
 51
139.821536
  6
CONTINUOUS
  0
ARC
  8
WHITE
 10
8.987812
 20
9.140601
 30
0.000000
 40
0.579754
 50
-70.600184
 51
-48.198532
  6
CONTINUOUS
  0
ARC
  8
WHITE
 10
9.583956
 20
8.530043
 30
0.000000
 40
0.275309
 50
92.431517
 51
139.616003
  6
CONTINUOUS
  0
ARC
  8
WHITE
 10
9.008992
 20
9.177002
 30
0.000000
 40
0.674979
 50
-44.750642
 51
-33.434043
  6
CONTINUOUS
  0
ARC
  8
WHITE
 10
10.054098
 20
7.898043
 30
0.000000
 40
0.982905
 50
125.140995
 51
132.875768
  6
CONTINUOUS
  0
ARC
  8
WHITE
 10
9.555207
 20
9.191980
 30
0.000000
 40
0.598263
 50
-106.497268
 51
-101.204880
  6
CONTINUOUS
  0
ARC
  8
WHITE
 10
8.236747
 20
10.454975
 30
0.000000
 40
2.206187
 50
-56.980434
 51
-49.743897
  6
CONTINUOUS
  0
ARC
  8
WHITE
 10
9.992167
 20
8.367813
 30
0.000000
 40
0.521100
 50
113.936474
 51
129.259715
  6
CONTINUOUS
  0
ARC
  8
WHITE
 10
9.862973
 20
8.649881
 30
0.000000
 40
0.210905
 50
94.018989
 51
112.947295
  6
CONTINUOUS
  0
ARC
  8
WHITE
 10
9.865633
 20
8.585262
 30
0.000000
 40
0.275558
 50
86.385561
 51
93.629024
  6
CONTINUOUS
  0
ARC
  8
WHITE
 10
9.890569
 20
8.838381
 30
0.000000
 40
0.023161
 50
23.893740
 51
109.061046
  6
CONTINUOUS
  0
ARC
  8
WHITE
 10
9.864495
 20
8.880099
 30
0.000000
 40
0.057256
 50
-64.850789
 51
-34.386141
  6
CONTINUOUS
  0
ARC
  8
WHITE
 10
10.432455
 20
7.727021
 30
0.000000
 40
1.228121
 50
116.273117
 51
124.005845
  6
CONTINUOUS
  0
ARC
  8
WHITE
 10
9.669883
 20
8.757349
 30
0.000000
 40
0.076695
 50
-61.672540
 51
-9.182986
  6
CONTINUOUS
  0
ARC
  8
WHITE
 10
10.503069
 20
6.931116
 30
0.000000
 40
1.930799
 50
114.373027
 51
121.670488
  6
CONTINUOUS
  0
ARC
  8
WHITE
 10
9.809074
 20
7.665358
 30
0.000000
 40
0.963619
 50
109.378686
 51
116.688752
  6
CONTINUOUS
  0
ARC
  8
WHITE
 10
9.490426
 20
8.338303
 30
0.000000
 40
0.219952
 50
121.265314
 51
153.192914
  6
CONTINUOUS
  0
ARC
  8
WHITE
 10
9.586905
 20
7.965822
 30
0.000000
 40
0.555163
 50
89.575709
 51
121.829906
  6
CONTINUOUS
  0
LINE
  8
WHITE
 10
9.591016
 20
8.520970
 30
0.000000
 11
9.744455
 21
8.549368
 31
0.000000
  6
CONTINUOUS
  0
ARC
  8
WHITE
 10
9.816020
 20
8.173982
 30
0.000000
 40
0.382147
 50
89.093016
 51
100.793588
  6
CONTINUOUS
  0
ARC
  8
WHITE
 10
9.828495
 20
8.471956
 30
0.000000
 40
0.084370
 50
41.483855
 51
94.368180
  6
CONTINUOUS
  0
ARC
  8
WHITE
 10
9.876118
 20
8.531139
 30
0.000000
 40
0.015927
 50
-112.245499
 51
-11.941130
  6
CONTINUOUS
  0
ARC
  8
WHITE
 10
9.322403
 20
10.055985
 30
0.000000
 40
1.634103
 50
-77.514503
 51
-70.417748
  6
CONTINUOUS
  0
ARC
  8
WHITE
 10
9.567459
 20
8.678369
 30
0.000000
 40
0.243243
 50
-111.338043
 51
-63.581612
  6
CONTINUOUS
  0
ARC
  8
WHITE
 10
9.612881
 20
8.140478
 30
0.000000
 40
0.338908
 50
113.277301
 51
150.916370
  6
CONTINUOUS
  0
ARC
  8
WHITE
 10
9.235950
 20
9.715120
 30
0.000000
 40
1.412214
 50
-86.721840
 51
-74.746240
  6
CONTINUOUS
  0
ARC
  8
WHITE
 10
9.947690
 20
7.423972
 30
0.000000
 40
0.989035
 50
92.826702
 51
110.118700
  6
CONTINUOUS
  0
ARC
  8
WHITE
 10
9.720115
 20
8.540266
 30
0.000000
 40
0.220164
 50
-76.024805
 51
-35.696062
  6
CONTINUOUS
  0
ARC
  8
WHITE
 10
9.327595
 20
9.359328
 30
0.000000
 40
1.124779
 50
-78.551244
 51
-66.656226
  6
CONTINUOUS
  0
ARC
  8
WHITE
 10
9.711701
 20
7.498066
 30
0.000000
 40
0.775722
 50
101.967205
 51
110.591634
  6
CONTINUOUS
  0
ARC
  8
WHITE
 10
9.336573
 20
8.486274
 30
0.000000
 40
0.281308
 50
-80.565709
 51
-68.674381
  6
CONTINUOUS
  0
ARC
  8
WHITE
 10
9.376759
 20
8.247077
 30
0.000000
 40
0.038761
 50
-167.192328
 51
-81.207500
  6
CONTINUOUS
  0
ARC
  8
WHITE
 10
9.071505
 20
8.787244
 30
0.000000
 40
0.610467
 50
-76.211799
 51
-64.016036
  6
CONTINUOUS
  0
ARC
  8
WHITE
 10
9.195176
 20
8.321252
 30
0.000000
 40
0.128746
 50
-94.691036
 51
-80.240907
  6
CONTINUOUS
  0
ARC
  8
WHITE
 10
9.180856
 20
8.205482
 30
0.000000
 40
0.013106
 50
179.921390
 51
286.812333
  6
CONTINUOUS
  0
ARC
  8
WHITE
 10
8.776988
 20
8.230737
 30
0.000000
 40
0.391577
 50
-3.695336
 51
7.003353
  6
CONTINUOUS
  0
ARC
  8
WHITE
 10
9.323408
 20
8.079239
 30
0.000000
 40
0.254140
 50
128.372902
 51
171.114157
  6
CONTINUOUS
  0
ARC
  8
WHITE
 10
9.205386
 20
8.666186
 30
0.000000
 40
0.563625
 50
-103.656164
 51
-92.801276
  6
CONTINUOUS
  0
ARC
  8
WHITE
 10
9.153917
 20
7.847663
 30
0.000000
 40
0.256689
 50
60.845583
 51
84.652200
  6
CONTINUOUS
  0
ARC
  8
WHITE
 10
9.877576
 20
7.169986
 30
0.000000
 40
1.082431
 50
123.574593
 51
133.199181
  6
CONTINUOUS
  0
ARC
  8
WHITE
 10
8.642398
 20
8.241312
 30
0.000000
 40
0.569136
 50
-57.269099
 51
-29.731638
  6
CONTINUOUS
  0
ARC
  8
WHITE
 10
9.537956
 20
6.746878
 30
0.000000
 40
1.173508
 50
120.060634
 51
133.397463
  6
CONTINUOUS
  0
ARC
  8
WHITE
 10
8.980245
 20
7.367617
 30
0.000000
 40
0.339962
 50
136.980613
 51
152.382759
  6
CONTINUOUS
  0
ARC
  8
WHITE
 10
8.685629
 20
7.530621
 30
0.000000
 40
0.008543
 50
-140.707300
 51
-19.959018
  6
CONTINUOUS
  0
LINE
  8
WHITE
 10
8.693659
 20
7.527704
 30
0.000000
 11
8.716980
 21
7.547635
 31
0.000000
  6
CONTINUOUS
  0
ARC
  8
WHITE
 10
7.367295
 20
9.258836
 30
0.000000
 40
2.179418
 50
-51.735895
 51
-49.383092
  6
CONTINUOUS
  0
ARC
  8
WHITE
 10
9.884662
 20
6.289553
 30
0.000000
 40
1.713448
 50
121.920630
 51
129.877328
  6
CONTINUOUS
  0
ARC
  8
WHITE
 10
10.946373
 20
4.607365
 30
0.000000
 40
3.702649
 50
120.889525
 51
122.101892
  6
CONTINUOUS
  0
LINE
  8
WHITE
 10
9.045491
 20
7.784826
 30
0.000000
 11
9.067078
 21
7.798182
 31
0.000000
  6
CONTINUOUS
  0
LINE
  8
WHITE
 10
9.067078
 20
7.798182
 30
0.000000
 11
9.079096
 21
7.806830
 31
0.000000
  6
CONTINUOUS
  0
ARC
  8
WHITE
 10
8.812877
 20
8.076569
 30
0.000000
 40
0.378988
 50
-45.376290
 51
-35.307013
  6
CONTINUOUS
  0
ARC
  8
WHITE
 10
5.548915
 20
10.438643
 30
0.000000
 40
4.407970
 50
-35.842274
 51
-35.083727
  6
CONTINUOUS
  0
ARC
  8
WHITE
 10
9.591494
 20
7.598596
 30
0.000000
 40
0.532507
 50
138.990613
 51
144.864322
  6
CONTINUOUS
  0
ARC
  8
WHITE
 10
9.992404
 20
7.130913
 30
0.000000
 40
1.145449
 50
125.636345
 51
134.491948
  6
CONTINUOUS
  0
ARC
  8
WHITE
 10
10.272156
 20
6.780957
 30
0.000000
 40
1.593037
 50
122.787192
 51
126.480341
  6
CONTINUOUS
  0
ARC
  8
WHITE
 10
9.853828
 20
7.426869
 30
0.000000
 40
0.823495
 50
119.591800
 51
122.654352
  6
CONTINUOUS
  0
ARC
  8
WHITE
 10
9.625048
 20
7.831171
 30
0.000000
 40
0.358954
 50
114.100867
 51
119.705545
  6
CONTINUOUS
  0
ARC
  8
WHITE
 10
9.556887
 20
7.955763
 30
0.000000
 40
0.217685
 50
103.542719
 51
111.113962
  6
CONTINUOUS
  0
ARC
  8
WHITE
 10
9.232402
 20
9.341874
 30
0.000000
 40
1.205906
 50
-76.890773
 51
-72.343094
  6
CONTINUOUS
  0
ARC
  8
WHITE
 10
8.611791
 20
11.139857
 30
0.000000
 40
3.107767
 50
-71.494686
 51
-69.345195
  6
CONTINUOUS
  0
ARC
  8
WHITE
 10
9.771024
 20
8.067315
 30
0.000000
 40
0.176186
 50
90.911505
 51
110.954772
  6
CONTINUOUS
  0
ARC
  8
WHITE
 10
9.768348
 20
7.766320
 30
0.000000
 40
0.477159
 50
85.006779
 51
90.015214
  6
CONTINUOUS
  0
ARC
  8
WHITE
 10
9.511237
 20
4.725171
 30
0.000000
 40
3.529155
 50
84.104661
 51
85.145741
  6
CONTINUOUS
  0
ARC
  8
WHITE
 10
9.582854
 20
8.680053
 30
0.000000
 40
0.531120
 50
-71.941717
 51
-56.794012
  6
CONTINUOUS
  0
ARC
  8
WHITE
 10
9.242848
 20
9.291262
 30
0.000000
 40
1.224946
 50
-77.182772
 51
-65.671185
  6
CONTINUOUS
  0
ARC
  8
WHITE
 10
11.281465
 20
4.806597
 30
0.000000
 40
3.734638
 50
118.235969
 51
121.069111
  6
CONTINUOUS
  0
ARC
  8
WHITE
 10
9.667442
 20
7.553510
 30
0.000000
 40
0.549954
 50
124.730539
 51
153.534757
  6
CONTINUOUS
  0
ARC
  8
WHITE
 10
8.857715
 20
8.017527
 30
0.000000
 40
0.385584
 50
-55.177209
 51
-34.595592
  6
CONTINUOUS
  0
ARC
  8
WHITE
 10
9.180784
 20
7.471037
 30
0.000000
 40
0.251921
 50
114.104270
 51
145.428949
  6
CONTINUOUS
  0
ARC
  8
WHITE
 10
8.755053
 20
8.312929
 30
0.000000
 40
0.732240
 50
-72.655432
 51
-59.858993
  6
CONTINUOUS
  0
ARC
  8
WHITE
 10
9.306337
 20
7.398245
 30
0.000000
 40
0.336042
 50
109.189507
 51
123.118671
  6
CONTINUOUS
  0
ARC
  8
WHITE
 10
9.232857
 20
7.550900
 30
0.000000
 40
0.168814
 50
88.776921
 51
102.651800
  6
CONTINUOUS
  0
ARC
  8
WHITE
 10
9.246276
 20
7.690934
 30
0.000000
 40
0.030372
 50
33.769896
 51
108.857012
  6
CONTINUOUS
  0
ARC
  8
WHITE
 10
7.946184
 20
9.360122
 30
0.000000
 40
2.118169
 50
-55.945699
 51
-51.266368
  6
CONTINUOUS
  0
ARC
  8
WHITE
 10
9.192732
 20
7.752847
 30
0.000000
 40
0.159527
 50
-112.255613
 51
-70.834767
  6
CONTINUOUS
  0
ARC
  8
WHITE
 10
9.275222
 20
7.373818
 30
0.000000
 40
0.230321
 50
76.087945
 51
97.514052
  6
CONTINUOUS
  0
ARC
  8
WHITE
 10
9.342726
 20
7.759587
 30
0.000000
 40
0.162657
 50
-94.275745
 51
-48.720828
  6
CONTINUOUS
  0
ARC
  8
WHITE
 10
9.556570
 20
7.532563
 30
0.000000
 40
0.149432
 50
86.266839
 51
135.473789
  6
CONTINUOUS
  0
ARC
  8
WHITE
 10
9.568146
 20
7.672486
 30
0.000000
 40
0.009375
 50
2.159377
 51
101.356968
  6
CONTINUOUS
  0
ARC
  8
WHITE
 10
10.633300
 20
6.883224
 30
0.000000
 40
1.318399
 50
143.207418
 51
148.239260
  6
CONTINUOUS
  0
ARC
  8
WHITE
 10
9.391654
 20
7.629047
 30
0.000000
 40
0.131342
 50
-61.230720
 51
-23.253494
  6
CONTINUOUS
  0
ARC
  8
WHITE
 10
9.857836
 20
6.802492
 30
0.000000
 40
0.817625
 50
119.528293
 51
137.782605
  6
CONTINUOUS
  0
ARC
  8
WHITE
 10
9.013215
 20
13.702574
 30
0.000000
 40
6.355181
 50
-87.843973
 51
-83.745332
  6
CONTINUOUS
  0
ARC
  8
WHITE
 10
9.256268
 20
7.600894
 30
0.000000
 40
0.498410
 50
-25.640296
 51
14.441610
  6
CONTINUOUS
  0
ARC
  8
WHITE
 10
9.547835
 20
7.932894
 30
0.000000
 40
0.282234
 50
-47.384585
 51
-13.565534
  6
CONTINUOUS
  0
ARC
  8
WHITE
 10
10.457497
 20
7.569742
 30
0.000000
 40
0.701276
 50
128.577807
 51
154.947725
  6
CONTINUOUS
  0
ARC
  8
WHITE
 10
8.128263
 20
10.456382
 30
0.000000
 40
3.007919
 50
-51.024736
 51
-39.496886
  6
CONTINUOUS
  0
ARC
  8
WHITE
 10
9.711329
 20
9.177355
 30
0.000000
 40
0.973027
 50
-40.669640
 51
-9.487956
  6
CONTINUOUS
  0
ARC
  8
WHITE
 10
8.213172
 20
9.081586
 30
0.000000
 40
2.458723
 50
-1.506122
 51
9.283975
  6
CONTINUOUS
  0
ARC
  8
WHITE
 10
101.267779
 20
19.855095
 30
0.000000
 40
91.220227
 50
-174.486717
 51
-173.468121
  6
CONTINUOUS
  0
ARC
  8
WHITE
 10
13.870395
 20
11.193727
 30
0.000000
 40
3.402406
 50
168.081419
 51
181.730601
  6
CONTINUOUS
  0
ARC
  8
WHITE
 10
23.542745
 20
8.621048
 30
0.000000
 40
13.407629
 50
162.398455
 51
165.860121
  6
CONTINUOUS
  0
ARC
  8
WHITE
 10
13.726275
 20
9.704992
 30
0.000000
 40
4.195911
 50
134.932260
 51
144.026249
  6
CONTINUOUS
  0
ARC
  8
WHITE
 10
10.932819
 20
11.807819
 30
0.000000
 40
0.702617
 50
148.996380
 51
175.850548
  6
CONTINUOUS
  0
ARC
  8
WHITE
 10
11.197615
 20
11.734702
 30
0.000000
 40
0.973495
 50
172.684517
 51
192.045419
  6
CONTINUOUS
  0
ARC
  8
WHITE
 10
27.629685
 20
5.995952
 30
0.000000
 40
18.244199
 50
161.433427
 51
162.337067
  6
CONTINUOUS
  0
ARC
  8
WHITE
 10
11.032269
 20
11.593590
 30
0.000000
 40
0.728604
 50
140.511519
 51
163.130944
  6
CONTINUOUS
  0
ARC
  8
WHITE
 10
10.479443
 20
12.056305
 30
0.000000
 40
0.009496
 50
39.584686
 51
176.251659
  6
CONTINUOUS
  0
LINE
  8
WHITE
 10
10.486761
 20
12.062356
 30
0.000000
 11
10.387115
 21
11.555687
 31
0.000000
  6
CONTINUOUS
  0
ARC
  8
WHITE
 10
14.363953
 20
10.918266
 30
0.000000
 40
4.027599
 50
170.893902
 51
181.912669
  6
CONTINUOUS
  0
ARC
  8
WHITE
 10
10.605657
 20
10.804614
 30
0.000000
 40
0.267865
 50
-175.552166
 51
-134.191914
  6
CONTINUOUS
  0
ARC
  8
WHITE
 10
10.387468
 20
10.588529
 30
0.000000
 40
0.039591
 50
-66.342397
 51
37.357066
  6
CONTINUOUS
  0
ARC
  8
WHITE
 10
10.525941
 20
10.208088
 30
0.000000
 40
0.365356
 50
109.604424
 51
129.528764
  6
CONTINUOUS
  0
ARC
  8
WHITE
 10
10.246542
 20
10.551377
 30
0.000000
 40
0.077310
 50
-123.377693
 51
-52.687391
  6
CONTINUOUS
  0
ARC
  8
WHITE
 10
10.135596
 20
10.344099
 30
0.000000
 40
0.158270
 50
64.388923
 51
116.061007
  6
CONTINUOUS
  0
ARC
  8
WHITE
 10
18.066659
 20
1.319591
 30
0.000000
 40
12.167073
 50
131.114147
 51
131.787363
  6
CONTINUOUS
  0
ARC
  8
WHITE
 10
9.590063
 20
9.696713
 30
0.000000
 40
0.786747
 50
62.041899
 51
72.931594
  6
CONTINUOUS
  0
ARC
  8
WHITE
 10
9.778734
 20
10.292479
 30
0.000000
 40
0.161938
 50
74.876282
 51
154.518358
  6
CONTINUOUS
  0
ARC
  8
WHITE
 10
19.975075
 20
4.624897
 30
0.000000
 40
11.827252
 50
150.981799
 51
152.068362
  6
CONTINUOUS
  0
ARC
  8
WHITE
 10
8.930161
 20
9.662799
 30
0.000000
 40
0.778949
 50
40.143634
 51
49.981169
  6
CONTINUOUS
  0
ARC
  8
WHITE
 10
9.355091
 20
10.173911
 30
0.000000
 40
0.114322
 50
48.357504
 51
107.001187
  6
CONTINUOUS
  0
ARC
  8
WHITE
 10
9.690280
 20
7.708528
 30
0.000000
 40
0.374879
 50
80.707218
 51
90.714917
  6
CONTINUOUS
  0
ARC
  8
WHITE
 10
9.736214
 20
7.866278
 30
0.000000
 40
0.212710
 50
78.614298
 51
86.063884
  6
CONTINUOUS
  0
ARC
  8
WHITE
 10
9.779172
 20
8.065416
 30
0.000000
 40
0.009436
 50
-47.133035
 51
95.880160
  6
CONTINUOUS
  0
ARC
  8
WHITE
 10
10.033389
 20
7.042388
 30
0.000000
 40
1.045890
 50
103.705080
 51
107.908309
  6
CONTINUOUS
  0
ARC
  8
WHITE
 10
9.778370
 20
7.833672
 30
0.000000
 40
0.214528
 50
108.082507
 51
125.036252
  6
CONTINUOUS
  0
ARC
  8
WHITE
 10
9.658932
 20
8.001441
 30
0.000000
 40
0.008718
 50
115.270335
 51
229.767700
  6
CONTINUOUS
  0
ARC
  8
WHITE
 10
9.686356
 20
8.033383
 30
0.000000
 40
0.050817
 50
-130.576690
 51
-104.657556
  6
CONTINUOUS
  0
ARC
  8
WHITE
 10
9.744845
 20
8.220344
 30
0.000000
 40
0.246668
 50
-106.812771
 51
-100.602146
  6
CONTINUOUS
  0
LINE
  8
WHITE
 10
9.699461
 20
7.977887
 30
0.000000
 11
9.713400
 21
7.976417
 31
0.000000
  6
CONTINUOUS
  0
ARC
  8
WHITE
 10
9.715703
 20
7.936803
 30
0.000000
 40
0.039682
 50
64.159544
 51
93.328325
  6
CONTINUOUS
  0
ARC
  8
WHITE
 10
9.680865
 20
8.022356
 30
0.000000
 40
0.072125
 50
-84.252029
 51
-43.710652
  6
CONTINUOUS
  0
LINE
  8
WHITE
 10
9.688088
 20
7.950594
 30
0.000000
 11
9.509653
 21
7.906919
 31
0.000000
  6
CONTINUOUS
  0
LINE
  8
WHITE
 10
9.509653
 20
7.906919
 30
0.000000
 11
9.420880
 21
7.883356
 31
0.000000
  6
CONTINUOUS
  0
ARC
  8
WHITE
 10
9.399516
 20
7.935744
 30
0.000000
 40
0.056576
 50
-162.265932
 51
-67.814655
  6
CONTINUOUS
  0
ARC
  8
WHITE
 10
9.856192
 20
7.489925
 30
0.000000
 40
0.666604
 50
131.837179
 51
139.988648
  6
CONTINUOUS
  0
ARC
  8
WHITE
 10
9.673673
 20
7.690786
 30
0.000000
 40
0.395216
 50
118.413985
 51
131.546156
  6
CONTINUOUS
  0
ARC
  8
WHITE
 10
9.676186
 20
7.658217
 30
0.000000
 40
0.425265
 50
88.731179
 51
116.623508
  6
CONTINUOUS
  0
ARC
  8
WHITE
 10
9.937113
 20
9.069884
 30
0.000000
 40
0.022227
 50
-16.888629
 51
126.341045
  6
CONTINUOUS
  0
ARC
  8
WHITE
 10
9.942207
 20
8.919170
 30
0.000000
 40
0.169604
 50
96.182459
 51
152.142408
  6
CONTINUOUS
  0
LINE
  8
WHITE
 10
9.792258
 20
8.998422
 30
0.000000
 11
9.958381
 21
9.063426
 31
0.000000
  6
CONTINUOUS
  0
ARC
  8
WHITE
 10
9.563941
 20
7.655546
 30
0.000000
 40
0.195553
 50
130.406806
 51
148.327323
  6
CONTINUOUS
  0
ARC
  8
WHITE
 10
9.403483
 20
7.749683
 30
0.000000
 40
0.010420
 50
124.951251
 51
251.829493
  6
CONTINUOUS
  0
ARC
  8
WHITE
 10
9.288060
 20
8.080385
 30
0.000000
 40
0.358598
 50
-71.771298
 51
-46.246193
  6
CONTINUOUS
  0
ARC
  8
WHITE
 10
9.524040
 20
7.826678
 30
0.000000
 40
0.013136
 50
-23.866230
 51
153.256000
  6
CONTINUOUS
  0
ARC
  8
WHITE
 10
9.519443
 20
7.699174
 30
0.000000
 40
0.133605
 50
93.060817
 51
128.003323
  6
CONTINUOUS
  0
ARC
  8
WHITE
 10
10.112889
 20
8.731692
 30
0.000000
 40
0.096577
 50
67.633299
 51
123.986491
  6
CONTINUOUS
  0
ARC
  8
WHITE
 10
10.218533
 20
9.060955
 30
0.000000
 40
0.295931
 50
-122.644167
 51
-88.640318
  6
CONTINUOUS
  0
ARC
  8
WHITE
 10
10.033695
 20
8.584028
 30
0.000000
 40
0.263819
 50
43.344267
 51
63.929030
  6
CONTINUOUS
  0
ARC
  8
WHITE
 10
9.953132
 20
9.182690
 30
0.000000
 40
0.025887
 50
5.282655
 51
108.504983
  6
CONTINUOUS
  0
ARC
  8
WHITE
 10
9.930761
 20
9.056799
 30
0.000000
 40
0.151104
 50
84.624934
 51
137.743709
  6
CONTINUOUS
  0
ARC
  8
WHITE
 10
9.838970
 20
9.531414
 30
0.000000
 40
0.373544
 50
-93.076497
 51
-67.998836
  6
CONTINUOUS
  0
ARC
  8
WHITE
 10
10.088784
 20
8.678334
 30
0.000000
 40
0.111671
 50
-127.278963
 51
-84.820398
  6
CONTINUOUS
  0
ARC
  8
WHITE
 10
10.094490
 20
8.576158
 30
0.000000
 40
0.010042
 50
-64.167349
 51
65.892542
  6
CONTINUOUS
  0
ARC
  8
WHITE
 10
10.033885
 20
8.515906
 30
0.000000
 40
0.094899
 50
47.012294
 51
57.491144
  6
CONTINUOUS
  0
LINE
  8
WHITE
 10
10.084887
 20
8.595935
 30
0.000000
 11
10.068837
 21
8.605311
 31
0.000000
  6
CONTINUOUS
  0
ARC
  8
WHITE
 10
10.012889
 20
8.500262
 30
0.000000
 40
0.119019
 50
61.960514
 51
77.188368
  6
CONTINUOUS
  0
ARC
  8
WHITE
 10
10.018169
 20
8.524439
 30
0.000000
 40
0.094273
 50
77.059291
 51
96.212444
  6
CONTINUOUS
  0
ARC
  8
WHITE
 10
10.020433
 20
8.606518
 30
0.000000
 40
0.017055
 50
136.960338
 51
272.395733
  6
CONTINUOUS
  0
ARC
  8
WHITE
 10
9.989584
 20
8.732809
 30
0.000000
 40
0.020025
 50
9.705070
 51
120.086934
  6
CONTINUOUS
  0
ARC
  8
WHITE
 10
9.963521
 20
8.633172
 30
0.000000
 40
0.118056
 50
82.198947
 51
112.936685
  6
CONTINUOUS
  0
ARC
  8
WHITE
 10
9.937159
 20
8.738418
 30
0.000000
 40
0.019951
 50
169.964322
 51
249.091001
  6
CONTINUOUS
  0
ARC
  8
WHITE
 10
9.946824
 20
8.838453
 30
0.000000
 40
0.119854
 50
-98.050764
 51
-58.570056
  6
CONTINUOUS
  0
ARC
  8
WHITE
 10
8.644307
 20
2.952183
 30
0.000000
 40
0.150829
 50
36.265163
 51
58.805375
  6
CONTINUOUS
  0
ARC
  8
WHITE
 10
8.691439
 20
3.132908
 30
0.000000
 40
0.060280
 50
-160.147483
 51
-59.063011
  6
CONTINUOUS
  0
ARC
  8
WHITE
 10
8.159756
 20
2.929723
 30
0.000000
 40
0.508916
 50
21.040360
 51
56.927965
  6
CONTINUOUS
  0
LINE
  8
WHITE
 10
8.437468
 20
3.356187
 30
0.000000
 11
8.315176
 21
3.145572
 31
0.000000
  6
CONTINUOUS
  0
LINE
  8
WHITE
 10
8.315176
 20
3.145572
 30
0.000000
 11
8.265717
 21
3.145572
 31
0.000000
  6
CONTINUOUS
  0
ARC
  8
WHITE
 10
4.038912
 20
1.161014
 30
0.000000
 40
4.669514
 50
25.150863
 51
30.898131
  6
CONTINUOUS
  0
LINE
  8
WHITE
 10
8.045736
 20
3.558872
 30
0.000000
 11
6.298789
 21
4.273824
 31
0.000000
  6
CONTINUOUS
  0
LINE
  8
WHITE
 10
6.298789
 20
4.273824
 30
0.000000
 11
6.562261
 21
3.468352
 31
0.000000
  6
CONTINUOUS
  0
LINE
  8
WHITE
 10
6.562261
 20
3.468352
 30
0.000000
 11
5.049577
 21
4.342985
 31
0.000000
  6
CONTINUOUS
  0
LINE
  8
WHITE
 10
5.049577
 20
4.342985
 30
0.000000
 11
5.179297
 21
3.843386
 31
0.000000
  6
CONTINUOUS
  0
LINE
  8
WHITE
 10
5.179297
 20
3.843386
 30
0.000000
 11
4.164722
 21
4.486793
 31
0.000000
  6
CONTINUOUS
  0
LINE
  8
WHITE
 10
4.164722
 20
4.486793
 30
0.000000
 11
5.874803
 21
2.788489
 31
0.000000
  6
CONTINUOUS
  0
LINE
  8
WHITE
 10
5.874803
 20
2.788489
 30
0.000000
 11
5.547951
 21
3.758483
 31
0.000000
  6
CONTINUOUS
  0
ARC
  8
WHITE
 10
-11.259431
 20
-17.187767
 30
0.000000
 40
26.855790
 50
48.918473
 51
51.256258
  6
CONTINUOUS
  0
ARC
  8
WHITE
 10
22.013150
 20
21.071369
 30
0.000000
 40
23.847566
 50
-130.934338
 51
-128.376709
  6
CONTINUOUS
  0
ARC
  8
WHITE
 10
72.439561
 20
21.755413
 30
0.000000
 40
68.049443
 50
-164.297201
 51
-163.454191
  6
CONTINUOUS
  0
LINE
  8
WHITE
 10
6.929824
 20
3.338003
 30
0.000000
 11
8.125729
 21
2.585619
 31
0.000000
  6
CONTINUOUS
  0
ARC
  8
WHITE
 10
8.111828
 20
2.908412
 30
0.000000
 40
0.323092
 50
-87.534049
 51
-52.153786
  6
CONTINUOUS
  0
ARC
  8
WHITE
 10
7.345423
 20
3.889331
 30
0.000000
 40
1.567912
 50
-52.030920
 51
-44.744627
  6
CONTINUOUS
  0
ARC
  8
WHITE
 10
8.236858
 20
2.614641
 30
0.000000
 40
0.280339
 50
-0.909420
 51
37.577689
  6
CONTINUOUS
  0
ARC
  8
WHITE
 10
8.054985
 20
2.616336
 30
0.000000
 40
0.462218
 50
-18.261375
 51
-0.761688
  6
CONTINUOUS
  0
ARC
  8
WHITE
 10
8.846083
 20
2.338583
 30
0.000000
 40
0.376407
 50
159.321902
 51
175.403167
  6
CONTINUOUS
  0
ARC
  8
WHITE
 10
8.698744
 20
2.491214
 30
0.000000
 40
0.258681
 50
-151.743745
 51
-116.729204
  6
CONTINUOUS
  0
ARC
  8
WHITE
 10
8.976113
 20
2.906334
 30
0.000000
 40
0.756661
 50
-121.354758
 51
-109.327753
  6
CONTINUOUS
  0
ARC
  8
WHITE
 10
7.506030
 20
2.923445
 30
0.000000
 40
1.422003
 50
-30.940845
 51
-21.080540
  6
CONTINUOUS
  0
ARC
  8
WHITE
 10
1.891569
 20
5.665755
 30
0.000000
 40
7.666072
 50
-25.115130
 51
-22.369772
  6
CONTINUOUS
  0
ARC
  8
WHITE
 10
7.750604
 20
3.307173
 30
0.000000
 40
1.351192
 50
-24.437627
 51
-8.866540
  6
CONTINUOUS
  0
ARC
  8
WHITE
 10
9.033261
 20
2.995992
 30
0.000000
 40
0.115484
 50
63.022345
 51
115.424249
  6
CONTINUOUS
  0
ARC
  8
WHITE
 10
9.205923
 20
2.704459
 30
0.000000
 40
0.453955
 50
119.312083
 51
130.957788
  6
CONTINUOUS
  0
ARC
  8
WHITE
 10
8.834744
 20
3.102295
 30
0.000000
 40
0.091896
 50
-138.499343
 51
-36.772626
  6
CONTINUOUS
  0
ARC
  8
WHITE
 10
8.536600
 20
1.206735
 30
0.000000
 40
1.132541
 50
124.633128
 51
128.016186
  6
CONTINUOUS
  0
ARC
  8
WHITE
 10
20.830645
 20
50.963126
 30
0.000000
 40
50.561687
 50
-104.888850
 51
-103.380001
  6
CONTINUOUS
  0
ARC
  8
WHITE
 10
8.999535
 20
1.316012
 30
0.000000
 40
0.476132
 50
32.318743
 51
74.065818
  6
CONTINUOUS
  0
ARC
  8
WHITE
 10
8.396342
 20
8.396342
 30
0.000000
 40
6.899448
 50
-125.343224
 51
-81.619531
  6
CONTINUOUS
  0
ARC
  8
WHITE
 10
4.613081
 20
1.788838
 30
0.000000
 40
1.001429
 50
93.395562
 51
101.981000
  6
CONTINUOUS
  0
ARC
  8
WHITE
 10
4.608487
 20
4.535904
 30
0.000000
 40
1.748251
 50
-91.793637
 51
-77.044087
  6
CONTINUOUS
  0
ARC
  8
WHITE
 10
5.104599
 20
2.149749
 30
0.000000
 40
0.690311
 50
77.927880
 51
98.677793
  6
CONTINUOUS
  0
ARC
  8
WHITE
 10
5.384589
 20
3.521910
 30
0.000000
 40
0.710184
 50
-101.008742
 51
-74.089729
  6
CONTINUOUS
  0
LINE
  8
WHITE
 10
5.579273
 20
2.838931
 30
0.000000
 11
6.107578
 21
2.360653
 31
0.000000
  6
CONTINUOUS
  0
LINE
  8
WHITE
 10
6.107578
 20
2.360653
 30
0.000000
 11
5.945909
 21
2.885594
 31
0.000000
  6
CONTINUOUS
  0
LINE
  8
WHITE
 10
5.945909
 20
2.885594
 30
0.000000
 11
5.952575
 21
2.912258
 31
0.000000
  6
CONTINUOUS
  0
LINE
  8
WHITE
 10
5.952575
 20
2.912258
 30
0.000000
 11
6.279215
 21
2.985586
 31
0.000000
  6
CONTINUOUS
  0
ARC
  8
WHITE
 10
91.682861
 20
104.241716
 30
0.000000
 40
132.463530
 50
-130.145681
 51
-129.511316
  6
CONTINUOUS
  0
ARC
  8
WHITE
 10
222.405140
 20
60.364257
 30
0.000000
 40
222.768561
 50
-165.092161
 51
-164.823850
  6
CONTINUOUS
  0
LINE
  8
WHITE
 10
7.134770
 20
3.053704
 30
0.000000
 11
7.879083
 21
2.578953
 31
0.000000
  6
CONTINUOUS
  0
ARC
  8
WHITE
 10
8.437366
 20
2.473019
 30
0.000000
 40
0.568244
 50
169.255877
 51
204.660630
  6
CONTINUOUS
  0
ARC
  8
WHITE
 10
7.875219
 20
2.196388
 30
0.000000
 40
0.060449
 50
-72.938719
 51
40.845456
  6
CONTINUOUS
  0
LINE
  8
WHITE
 10
11.014653
 20
2.293391
 30
0.000000
 11
12.242603
 21
2.825740
 31
0.000000
  6
CONTINUOUS
  0
LINE
  8
WHITE
 10
12.242603
 20
2.825740
 30
0.000000
 11
11.586849
 21
2.982880
 31
0.000000
  6
CONTINUOUS
  0
LINE
  8
WHITE
 10
11.586849
 20
2.982880
 30
0.000000
 11
12.348136
 21
3.374264
 31
0.000000
  6
CONTINUOUS
  0
LINE
  8
WHITE
 10
12.348136
 20
3.374264
 30
0.000000
 11
12.064000
 21
3.485786
 31
0.000000
  6
CONTINUOUS
  0
LINE
  8
WHITE
 10
12.064000
 20
3.485786
 30
0.000000
 11
13.886431
 21
4.217670
 31
0.000000
  6
CONTINUOUS
  0
ARC
  8
WHITE
 10
8.396342
 20
8.396342
 30
0.000000
 40
6.899448
 50
-80.309165
 51
-37.275857
  6
CONTINUOUS
  0
ARC
  8
WHITE
 10
9.616127
 20
1.615552
 30
0.000000
 40
0.061786
 50
117.570677
 51
199.088293
  6
CONTINUOUS
  0
LINE
  8
WHITE
 10
9.587530
 20
1.670322
 30
0.000000
 11
10.443036
 21
2.037923
 31
0.000000
  6
CONTINUOUS
  0
ARC
  8
WHITE
 10
10.511831
 20
2.159157
 30
0.000000
 40
0.139393
 50
-119.572917
 51
-31.417528
  6
CONTINUOUS
  0
ARC
  8
WHITE
 10
8.695054
 20
3.263314
 30
0.000000
 40
2.265385
 50
-31.297287
 51
-25.941586
  6
CONTINUOUS
  0
LINE
  8
WHITE
 10
10.732180
 20
2.272311
 30
0.000000
 11
10.852170
 21
2.132323
 31
0.000000
  6
CONTINUOUS
  0
ARC
  8
WHITE
 10
10.583538
 20
2.565801
 30
0.000000
 40
0.509967
 50
-58.212995
 51
-32.287726
  6
CONTINUOUS
  0
ARC
  8
WHITE
 10
7.726770
 20
6.294027
 30
0.000000
 40
1.233377
 50
-78.390633
 51
-65.458618
  6
CONTINUOUS
  0
ARC
  8
WHITE
 10
7.921665
 20
5.076593
 30
0.000000
 40
0.331438
 50
16.742630
 51
55.720734
  6
CONTINUOUS
  0
ARC
  8
WHITE
 10
5.091494
 20
-1.382272
 30
0.000000
 40
7.377741
 50
65.863500
 51
67.610792
  6
CONTINUOUS
  0
ARC
  8
WHITE
 10
7.864457
 20
5.365755
 30
0.000000
 40
0.082430
 50
63.180581
 51
107.509562
  6
CONTINUOUS
  0
ARC
  8
WHITE
 10
8.105203
 20
5.356219
 30
0.000000
 40
0.279794
 50
161.636711
 51
178.376341
  6
CONTINUOUS
  0
ARC
  8
WHITE
 10
7.817910
 20
5.360501
 30
0.000000
 40
0.008440
 50
-127.836906
 51
25.596089
  6
CONTINUOUS
  0
ARC
  8
WHITE
 10
7.998474
 20
5.532474
 30
0.000000
 40
0.257704
 50
-154.282183
 51
-136.116740
  6
CONTINUOUS
  0
LINE
  8
WHITE
 10
7.766298
 20
5.420646
 30
0.000000
 11
7.744447
 21
5.464431
 31
0.000000
  6
CONTINUOUS
  0
ARC
  8
WHITE
 10
7.735983
 20
5.465026
 30
0.000000
 40
0.008485
 50
-4.021160
 51
126.211278
  6
CONTINUOUS
  0
ARC
  8
WHITE
 10
7.889558
 20
5.376515
 30
0.000000
 40
0.185049
 50
148.981968
 51
162.651360
  6
CONTINUOUS
  0
ARC
  8
WHITE
 10
7.782892
 20
5.410297
 30
0.000000
 40
0.073163
 50
162.995164
 51
187.011159
  6
CONTINUOUS
  0
ARC
  8
WHITE
 10
7.769536
 20
5.411386
 30
0.000000
 40
0.060102
 50
-170.403353
 51
-139.851798
  6
CONTINUOUS
  0
ARC
  8
WHITE
 10
7.819694
 20
5.451832
 30
0.000000
 40
0.124527
 50
-140.506939
 51
-132.186299
  6
CONTINUOUS
  0
LINE
  8
WHITE
 10
7.736068
 20
5.359562
 30
0.000000
 11
7.751183
 21
5.346717
 31
0.000000
  6
CONTINUOUS
  0
ARC
  8
WHITE
 10
7.925855
 20
5.580406
 30
0.000000
 40
0.291756
 50
-126.776398
 51
-116.585594
  6
CONTINUOUS
  0
ARC
  8
WHITE
 10
9.586329
 20
8.869388
 30
0.000000
 40
3.976122
 50
-116.772553
 51
-115.744788
  6
CONTINUOUS
  0
ARC
  8
WHITE
 10
7.496101
 20
4.535333
 30
0.000000
 40
0.835643
 50
59.059446
 51
64.242019
  6
CONTINUOUS
  0
ARC
  8
WHITE
 10
7.805130
 20
5.475776
 30
0.000000
 40
0.254155
 50
-95.356431
 51
-61.668232
  6
CONTINUOUS
  0
ARC
  8
WHITE
 10
7.613773
 20
3.741100
 30
0.000000
 40
1.491083
 50
83.545028
 51
89.282820
  6
CONTINUOUS
  0
ARC
  8
WHITE
 10
7.739673
 20
5.328391
 30
0.000000
 40
0.144146
 50
-138.068591
 51
-100.341237
  6
CONTINUOUS
  0
ARC
  8
WHITE
 10
7.600352
 20
4.686357
 30
0.000000
 40
0.512932
 50
66.634330
 51
77.222165
  6
CONTINUOUS
  0
ARC
  8
WHITE
 10
7.797478
 20
5.153594
 30
0.000000
 40
0.007273
 50
-128.145747
 51
29.948438
  6
CONTINUOUS
  0
ARC
  8
WHITE
 10
7.728327
 20
5.441630
 30
0.000000
 40
0.300787
 50
-98.003876
 51
-77.586553
  6
CONTINUOUS
  0
ARC
  8
WHITE
 10
7.666998
 20
5.027130
 30
0.000000
 40
0.118252
 50
80.534582
 51
118.936615
  6
CONTINUOUS
  0
ARC
  8
WHITE
 10
7.762504
 20
5.126575
 30
0.000000
 40
0.152775
 50
178.482955
 51
223.470939
  6
CONTINUOUS
  0
ARC
  8
WHITE
 10
8.160446
 20
5.471916
 30
0.000000
 40
0.679555
 50
-138.481841
 51
-128.319090
  6
CONTINUOUS
  0
ARC
  8
WHITE
 10
17.078102
 20
-13.229801
 30
0.000000
 40
20.428254
 50
117.204082
 51
117.650977
  6
CONTINUOUS
  0
ARC
  8
WHITE
 10
7.711023
 20
4.627032
 30
0.000000
 40
0.263915
 50
115.436436
 51
145.669444
  6
CONTINUOUS
  0
ARC
  8
WHITE
 10
7.545448
 20
4.745683
 30
0.000000
 40
0.060444
 50
150.037338
 51
266.789361
  6
CONTINUOUS
  0
ARC
  8
WHITE
 10
7.395204
 20
3.972115
 30
0.000000
 40
0.728183
 50
69.992090
 51
78.364839
  6
CONTINUOUS
  0
ARC
  8
WHITE
 10
7.582528
 20
4.675817
 30
0.000000
 40
0.064817
 50
-56.909377
 51
-17.479554
  6
CONTINUOUS
  0
ARC
  8
WHITE
 10
7.410050
 20
4.879774
 30
0.000000
 40
0.331522
 50
-81.445713
 51
-51.170626
  6
CONTINUOUS
  0
ARC
  8
WHITE
 10
7.502936
 20
4.362296
 30
0.000000
 40
0.194586
 50
102.939905
 51
141.576595
  6
CONTINUOUS
  0
ARC
  8
WHITE
 10
7.396606
 20
4.457229
 30
0.000000
 40
0.052939
 50
150.590140
 51
257.227820
  6
CONTINUOUS
  0
ARC
  8
WHITE
 10
7.443031
 20
4.629061
 30
0.000000
 40
0.230898
 50
-104.580831
 51
-68.001224
  6
CONTINUOUS
  0
ARC
  8
WHITE
 10
7.885779
 20
3.338144
 30
0.000000
 40
1.134233
 50
100.841727
 51
108.306194
  6
CONTINUOUS
  0
ARC
  8
WHITE
 10
7.474481
 20
4.527557
 30
0.000000
 40
0.211835
 50
-39.547232
 51
-20.858410
  6
CONTINUOUS
  0
ARC
  8
WHITE
 10
7.402370
 20
4.604879
 30
0.000000
 40
0.316968
 50
-56.389749
 51
-42.026038
  6
CONTINUOUS
  0
ARC
  8
WHITE
 10
7.315018
 20
4.716059
 30
0.000000
 40
0.458052
 50
-63.363919
 51
-54.987890
  6
CONTINUOUS
  0
ARC
  8
WHITE
 10
7.389506
 20
4.569018
 30
0.000000
 40
0.293222
 50
-76.453150
 51
-63.493155
  6
CONTINUOUS
  0
ARC
  8
WHITE
 10
7.374848
 20
4.633836
 30
0.000000
 40
0.359671
 50
-90.080898
 51
-76.601701
  6
CONTINUOUS
  0
ARC
  8
WHITE
 10
7.378050
 20
3.885823
 30
0.000000
 40
0.388359
 50
90.547368
 51
95.409194
  6
CONTINUOUS
  0
ARC
  8
WHITE
 10
7.357961
 20
4.122219
 30
0.000000
 40
0.151140
 50
96.275282
 51
109.564677
  6
CONTINUOUS
  0
ARC
  8
WHITE
 10
7.326565
 20
4.215374
 30
0.000000
 40
0.052874
 50
111.311067
 51
150.253892
  6
CONTINUOUS
  0
ARC
  8
WHITE
 10
7.317748
 20
4.219746
 30
0.000000
 40
0.043054
 50
149.483962
 51
171.950004
  6
CONTINUOUS
  0
ARC
  8
WHITE
 10
7.300903
 20
4.222181
 30
0.000000
 40
0.026034
 50
172.065147
 51
205.956144
  6
CONTINUOUS
  0
ARC
  8
WHITE
 10
7.389823
 20
4.267649
 30
0.000000
 40
0.125901
 50
-153.150926
 51
-110.795305
  6
CONTINUOUS
  0
ARC
  8
WHITE
 10
7.434263
 20
4.388716
 30
0.000000
 40
0.254862
 50
-110.471962
 51
-94.104589
  6
CONTINUOUS
  0
ARC
  8
WHITE
 10
7.471349
 20
4.827640
 30
0.000000
 40
0.695338
 50
-94.563945
 51
-90.255489
  6
CONTINUOUS
  0
LINE
  8
WHITE
 10
7.468249
 20
4.132309
 30
0.000000
 11
7.519054
 21
4.131982
 31
0.000000
  6
CONTINUOUS
  0
LINE
  8
WHITE
 10
7.519054
 20
4.131982
 30
0.000000
 11
7.551848
 21
4.133600
 31
0.000000
  6
CONTINUOUS
  0
ARC
  8
WHITE
 10
7.555301
 20
4.111107
 30
0.000000
 40
0.022757
 50
31.474149
 51
98.728463
  6
CONTINUOUS
  0
ARC
  8
WHITE
 10
7.540276
 20
4.114650
 30
0.000000
 40
0.035429
 50
-30.913662
 51
13.612228
  6
CONTINUOUS
  0
LINE
  8
WHITE
 10
7.570672
 20
4.096448
 30
0.000000
 11
7.561113
 21
4.078275
 31
0.000000
  6
CONTINUOUS
  0
ARC
  8
WHITE
 10
7.593359
 20
4.061641
 30
0.000000
 40
0.036283
 50
152.713656
 51
184.088763
  6
CONTINUOUS
  0
ARC
  8
WHITE
 10
7.594792
 20
4.064778
 30
0.000000
 40
0.038057
 50
-171.350732
 51
-123.031859
  6
CONTINUOUS
  0
ARC
  8
WHITE
 10
7.630522
 20
4.118773
 30
0.000000
 40
0.102803
 50
-123.322450
 51
-101.854486
  6
CONTINUOUS
  0
ARC
  8
WHITE
 10
7.647103
 20
4.184889
 30
0.000000
 40
0.170935
 50
-102.741093
 51
-83.870859
  6
CONTINUOUS
  0
ARC
  8
WHITE
 10
7.611316
 20
4.439909
 30
0.000000
 40
0.428400
 50
-82.753569
 51
-78.003443
  6
CONTINUOUS
  0
ARC
  8
WHITE
 10
7.801706
 20
3.536941
 30
0.000000
 40
0.494423
 50
97.931153
 51
101.828141
  6
CONTINUOUS
  0
LINE
  8
WHITE
 10
7.733484
 20
4.026634
 30
0.000000
 11
7.767627
 21
4.033394
 31
0.000000
  6
CONTINUOUS
  0
ARC
  8
WHITE
 10
7.774485
 20
4.022124
 30
0.000000
 40
0.013192
 50
24.316396
 51
121.321001
  6
CONTINUOUS
  0
ARC
  8
WHITE
 10
7.724996
 20
4.042029
 30
0.000000
 40
0.063190
 50
-37.889068
 51
-13.239927
  6
CONTINUOUS
  0
LINE
  8
WHITE
 10
7.774866
 20
4.003222
 30
0.000000
 11
7.760724
 21
3.985963
 31
0.000000
  6
CONTINUOUS
  0
ARC
  8
WHITE
 10
7.865827
 20
3.892953
 30
0.000000
 40
0.140348
 50
138.493166
 51
147.937723
  6
CONTINUOUS
  0
ARC
  8
WHITE
 10
7.767180
 20
3.964140
 30
0.000000
 40
0.020563
 50
170.721897
 51
264.437799
  6
CONTINUOUS
  0
ARC
  8
WHITE
 10
7.858741
 20
4.182896
 30
0.000000
 40
0.256865
 50
-111.359277
 51
-103.326147
  6
CONTINUOUS
  0
LINE
  8
WHITE
 10
7.799535
 20
3.932947
 30
0.000000
 11
7.832234
 21
3.925314
 31
0.000000
  6
CONTINUOUS
  0
ARC
  8
WHITE
 10
7.748033
 20
3.588038
 30
0.000000
 40
0.347627
 50
67.454464
 51
75.982600
  6
CONTINUOUS
  0
ARC
  8
WHITE
 10
7.974658
 20
4.135020
 30
0.000000
 40
0.244444
 50
-112.447868
 51
-103.837684
  6
CONTINUOUS
  0
ARC
  8
WHITE
 10
7.939783
 20
4.006954
 30
0.000000
 40
0.111800
 50
-102.180321
 51
-86.741101
  6
CONTINUOUS
  0
ARC
  8
WHITE
 10
7.933970
 20
4.069819
 30
0.000000
 40
0.174909
 50
-86.010552
 51
-73.209497
  6
CONTINUOUS
  0
ARC
  8
WHITE
 10
7.880139
 20
4.255376
 30
0.000000
 40
0.368111
 50
-73.531166
 51
-39.034554
  6
CONTINUOUS
  0
ARC
  8
WHITE
 10
7.564288
 20
4.508770
 30
0.000000
 40
0.773041
 50
-38.879511
 51
-23.399659
  6
CONTINUOUS
  0
ARC
  8
WHITE
 10
5.295905
 20
5.485741
 30
0.000000
 40
3.242865
 50
-23.324584
 51
-18.621238
  6
CONTINUOUS
  0
ARC
  8
WHITE
 10
5.065428
 20
5.712880
 30
0.000000
 40
3.536642
 50
-20.916745
 51
-17.673081
  6
CONTINUOUS
  0
ARC
  8
WHITE
 10
7.903152
 20
4.815071
 30
0.000000
 40
0.560318
 50
-18.292319
 51
3.043011
  6
CONTINUOUS
  0
ARC
  8
WHITE
 10
8.373504
 20
4.856579
 30
0.000000
 40
0.089949
 50
-7.514357
 51
42.630868
  6
CONTINUOUS
  0
ARC
  8
WHITE
 10
7.160879
 20
4.142619
 30
0.000000
 40
1.495251
 50
31.213396
 51
36.459328
  6
CONTINUOUS
  0
ARC
  8
WHITE
 10
8.232028
 20
4.944078
 30
0.000000
 40
0.157686
 50
33.528070
 51
108.476845
  6
CONTINUOUS
  0
ARC
  8
WHITE
 10
8.050242
 20
5.460836
 30
0.000000
 40
0.390141
 50
-100.417020
 51
-70.253635
  6
CONTINUOUS
  0
LINE
  8
WHITE
 10
7.979700
 20
5.077125
 30
0.000000
 11
7.974972
 21
5.085882
 31
0.000000
  6
CONTINUOUS
  0
ARC
  8
WHITE
 10
16.187271
 20
16.700671
 30
0.000000
 40
12.788906
 50
-163.084397
 51
-157.919270
  6
CONTINUOUS
  0
ARC
  8
WHITE
 10
6.047735
 20
13.619022
 30
0.000000
 40
2.191418
 50
-178.106065
 51
-163.034521
  6
CONTINUOUS
  0
ARC
  8
WHITE
 10
5.002498
 20
13.640830
 30
0.000000
 40
1.148855
 50
-176.988413
 51
-175.295102
  6
CONTINUOUS
  0
ARC
  8
WHITE
 10
3.875202
 20
13.581522
 30
0.000000
 40
0.020000
 50
131.086315
 51
183.011587
  6
CONTINUOUS
  0
ARC
  8
WHITE
 10
8.396342
 20
8.396342
 30
0.000000
 40
6.899448
 50
129.663833
 51
131.086315
  6
CONTINUOUS
  0
ARC
  8
WHITE
 10
4.005314
 20
13.692159
 30
0.000000
 40
0.020000
 50
10.542182
 51
129.663833
  6
CONTINUOUS
  0
ARC
  8
WHITE
 10
9.837646
 20
14.777560
 30
0.000000
 40
5.912469
 50
-169.457819
 51
-165.572609
  6
CONTINUOUS
  0
ARC
  8
WHITE
 10
9.750824
 20
14.938748
 30
0.000000
 40
5.871237
 50
-163.837854
 51
-152.318645
  6
CONTINUOUS
  0
ARC
  8
WHITE
 10
16.888380
 20
19.408792
 30
0.000000
 40
14.282904
 50
-149.739812
 51
-142.325822
  6
CONTINUOUS
  0
ARC
  8
WHITE
 10
5.559731
 20
10.661169
 30
0.000000
 40
0.030000
 50
-134.345621
 51
37.674179
  6
CONTINUOUS
  0
ARC
  8
WHITE
 10
8.895164
 20
14.073674
 30
0.000000
 40
4.801824
 50
-147.624847
 51
-134.345621
  6
CONTINUOUS
  0
ARC
  8
WHITE
 10
14.499591
 20
17.771525
 30
0.000000
 40
11.515801
 50
-149.782962
 51
-147.017299
  6
CONTINUOUS
  0
ARC
  8
WHITE
 10
13.001855
 20
16.911285
 30
0.000000
 40
9.788637
 50
-151.348786
 51
-149.721962
  6
CONTINUOUS
  0
ARC
  8
WHITE
 10
2.678043
 20
11.374707
 30
0.000000
 40
1.927898
 50
25.934622
 51
33.131633
  6
CONTINUOUS
  0
ARC
  8
WHITE
 10
4.275750
 20
12.417497
 30
0.000000
 40
0.020000
 50
33.131633
 51
198.426218
  6
CONTINUOUS
  0
ARC
  8
WHITE
 10
8.099477
 20
13.691425
 30
0.000000
 40
4.050357
 50
-161.573781
 51
-142.660085
  6
CONTINUOUS
  0
ARC
  8
WHITE
 10
11.558208
 20
16.099361
 30
0.000000
 40
8.262777
 50
-143.932162
 51
-139.701983
  6
CONTINUOUS
  0
ARC
  8
WHITE
 10
16.890981
 20
20.707784
 30
0.000000
 40
15.310734
 50
-139.455899
 51
-138.314448
  6
CONTINUOUS
  0
ARC
  8
WHITE
 10
5.197826
 20
10.262079
 30
0.000000
 40
0.369428
 50
21.862426
 51
45.484199
  6
CONTINUOUS
  0
ARC
  8
WHITE
 10
5.318352
 20
10.356261
 30
0.000000
 40
0.226527
 50
-27.503179
 51
11.041667
  6
CONTINUOUS
  0
ARC
  8
WHITE
 10
5.673361
 20
10.741473
 30
0.000000
 40
0.513485
 50
-137.955588
 51
-107.461961
  6
CONTINUOUS
  0
ARC
  8
WHITE
 10
7.244104
 20
12.605041
 30
0.000000
 40
2.946765
 50
-151.412421
 51
-131.486632
  6
CONTINUOUS
  0
ARC
  8
WHITE
 10
9.988726
 20
14.063228
 30
0.000000
 40
6.054615
 50
-158.997073
 51
-151.723673
  6
CONTINUOUS
  0
LINE
  8
WHITE
 10
10.147067
 20
2.931841
 30
0.000000
 11
11.358795
 21
3.298893
 31
0.000000
  6
CONTINUOUS
  0
LINE
  8
WHITE
 10
11.358795
 20
3.298893
 30
0.000000
 11
11.154222
 21
3.365754
 31
0.000000
  6
CONTINUOUS
  0
ARC
  8
WHITE
 10
11.156006
 20
3.375594
 30
0.000000
 40
0.010000
 50
107.539185
 51
259.720784
  6
CONTINUOUS
  0
LINE
  8
WHITE
 10
11.152992
 20
3.385129
 30
0.000000
 11
12.929086
 21
3.946465
 31
0.000000
  6
CONTINUOUS
  0
ARC
  8
WHITE
 10
12.932099
 20
3.936930
 30
0.000000
 40
0.010000
 50
-66.569763
 51
107.539180
  6
CONTINUOUS
  0
LINE
  8
WHITE
 10
12.936076
 20
3.927754
 30
0.000000
 11
11.732121
 21
3.446526
 31
0.000000
  6
CONTINUOUS
  0
LINE
  8
WHITE
 10
11.732121
 20
3.446526
 30
0.000000
 11
12.098734
 21
3.345556
 31
0.000000
  6
CONTINUOUS
  0
LINE
  8
WHITE
 10
12.098734
 20
3.345556
 30
0.000000
 11
11.213653
 21
2.942108
 31
0.000000
  6
CONTINUOUS
  0
LINE
  8
WHITE
 10
11.213653
 20
2.942108
 30
0.000000
 11
11.879421
 21
2.784765
 31
0.000000
  6
CONTINUOUS
  0
LINE
  8
WHITE
 10
11.879421
 20
2.784765
 30
0.000000
 11
11.152146
 21
2.478961
 31
0.000000
  6
CONTINUOUS
  0
ARC
  8
WHITE
 10
9.848203
 20
2.325026
 30
0.000000
 40
1.312997
 50
6.732787
 51
12.874201
  6
CONTINUOUS
  0
ARC
  8
WHITE
 10
10.814808
 20
2.513876
 30
0.000000
 40
0.330097
 50
18.309669
 51
103.550314
  6
CONTINUOUS
  0
ARC
  8
WHITE
 10
10.541149
 20
3.188557
 30
0.000000
 40
0.404593
 50
-95.917368
 51
-60.972861
  6
CONTINUOUS
  0
ARC
  8
WHITE
 10
10.566309
 20
2.243218
 30
0.000000
 40
0.547005
 50
97.022023
 51
109.920880
  6
CONTINUOUS
  0
ARC
  8
WHITE
 10
10.298870
 20
2.960708
 30
0.000000
 40
0.218787
 50
-100.530182
 51
-68.253056
  6
CONTINUOUS
  0
ARC
  8
WHITE
 10
4.177980
 20
14.587605
 30
0.000000
 40
13.312039
 50
-62.819353
 51
-62.075029
  6
CONTINUOUS
  0
LINE
  8
WHITE
 10
10.412207
 20
2.825599
 30
0.000000
 11
10.147067
 21
2.931841
 31
0.000000
  6
CONTINUOUS
  0
ARC
  8
WHITE
 10
8.934478
 20
3.878497
 30
0.000000
 40
0.178614
 50
-98.547136
 51
-56.131188
  6
CONTINUOUS
  0
ARC
  8
WHITE
 10
9.120720
 20
3.609844
 30
0.000000
 40
0.148326
 50
75.162523
 51
125.770035
  6
CONTINUOUS
  0
ARC
  8
WHITE
 10
9.442321
 20
3.402245
 30
0.000000
 40
0.451249
 50
128.940994
 51
147.083116
  6
CONTINUOUS
  0
ARC
  8
WHITE
 10
9.177099
 20
3.625045
 30
0.000000
 40
0.115774
 50
168.834309
 51
221.934889
  6
CONTINUOUS
  0
ARC
  8
WHITE
 10
8.454568
 20
3.247460
 30
0.000000
 40
0.703663
 50
12.168649
 51
25.254894
  6
CONTINUOUS
  0
ARC
  8
WHITE
 10
9.258328
 20
3.443426
 30
0.000000
 40
0.125316
 50
-157.655672
 51
-83.598009
  6
CONTINUOUS
  0
ARC
  8
WHITE
 10
12.797271
 20
3.237271
 30
0.000000
 40
3.525915
 50
167.894196
 51
178.673561
  6
CONTINUOUS
  0
ARC
  8
WHITE
 10
7.611289
 20
4.297126
 30
0.000000
 40
1.767756
 50
-10.442653
 51
0.305114
  6
CONTINUOUS
  0
ARC
  8
WHITE
 10
9.030801
 20
4.307257
 30
0.000000
 40
0.348220
 50
-0.118014
 51
27.191367
  6
CONTINUOUS
  0
ARC
  8
WHITE
 10
9.466853
 20
4.525279
 30
0.000000
 40
0.139373
 50
170.930323
 51
204.998550
  6
CONTINUOUS
  0
ARC
  8
WHITE
 10
9.252829
 20
4.586941
 30
0.000000
 40
0.086091
 50
-27.454892
 51
27.972416
  6
CONTINUOUS
  0
LINE
  8
WHITE
 10
9.328862
 20
4.627322
 30
0.000000
 11
9.318964
 21
4.652115
 31
0.000000
  6
CONTINUOUS
  0
ARC
  8
WHITE
 10
9.263371
 20
4.573345
 30
0.000000
 40
0.096412
 50
54.786920
 51
108.461616
  6
CONTINUOUS
  0
ARC
  8
WHITE
 10
8.567082
 20
6.692732
 30
0.000000
 40
2.134423
 50
-88.784596
 51
-71.825332
  6
CONTINUOUS
  0
ARC
  8
WHITE
 10
8.888964
 20
4.596885
 30
0.000000
 40
0.279220
 50
-172.158252
 51
-136.721844
  6
CONTINUOUS
  0
ARC
  8
WHITE
 10
9.053538
 20
3.262851
 30
0.000000
 40
1.200372
 50
107.845480
 51
112.083869
  6
CONTINUOUS
  0
ARC
  8
WHITE
 10
8.663458
 20
4.282067
 30
0.000000
 40
0.111414
 50
123.329115
 51
203.332121
  6
CONTINUOUS
  0
ARC
  8
WHITE
 10
8.724030
 20
4.306651
 30
0.000000
 40
0.176775
 50
-157.127091
 51
-119.291127
  6
CONTINUOUS
  0
ARC
  8
WHITE
 10
8.621653
 20
4.139550
 30
0.000000
 40
0.020485
 50
-80.334615
 51
39.131601
  6
CONTINUOUS
  0
LINE
  8
WHITE
 10
8.625093
 20
4.119356
 30
0.000000
 11
8.558493
 21
4.081667
 31
0.000000
  6
CONTINUOUS
  0
ARC
  8
WHITE
 10
8.568811
 20
4.058740
 30
0.000000
 40
0.025142
 50
114.229509
 51
246.755937
  6
CONTINUOUS
  0
ARC
  8
WHITE
 10
8.910273
 20
4.546038
 30
0.000000
 40
0.619660
 50
-124.545434
 51
-108.627277
  6
CONTINUOUS
  0
ARC
  8
WHITE
 10
9.332964
 20
3.023979
 30
0.000000
 40
1.122108
 50
123.578613
 51
129.185801
  6
CONTINUOUS
  0
ARC
  8
WHITE
 10
8.650661
 20
3.860314
 30
0.000000
 40
0.042762
 50
128.615459
 51
239.475398
  6
CONTINUOUS
  0
ARC
  8
WHITE
 10
8.741734
 20
3.954579
 30
0.000000
 40
0.172943
 50
-130.706865
 51
-89.751773
  6
CONTINUOUS
  0
ARC
  8
WHITE
 10
8.668529
 20
2.010081
 30
0.000000
 40
1.773100
 50
83.616467
 51
87.609565
  6
CONTINUOUS
  0
ARC
  8
WHITE
 10
8.933175
 20
3.764899
 30
0.000000
 40
0.067899
 50
173.837801
 51
248.175066
  6
CONTINUOUS
  0
ARC
  8
WHITE
 10
10.036358
 20
10.763849
 30
0.000000
 40
0.020000
 50
-171.845077
 51
-90.983533
  6
CONTINUOUS
  0
ARC
  8
WHITE
 10
10.039176
 20
10.928002
 30
0.000000
 40
0.184177
 50
-90.983532
 51
-66.855049
  6
CONTINUOUS
  0
ARC
  8
WHITE
 10
10.084058
 20
10.800995
 30
0.000000
 40
0.050498
 50
-56.990199
 51
-4.827120
  6
CONTINUOUS
  0
ARC
  8
WHITE
 10
8.514544
 20
10.755627
 30
0.000000
 40
1.620355
 50
1.454131
 51
7.854544
  6
CONTINUOUS
  0
ARC
  8
WHITE
 10
14.423144
 20
11.460091
 30
0.000000
 40
4.330470
 50
177.422336
 51
186.404205
  6
CONTINUOUS
  0
ARC
  8
WHITE
 10
17.316816
 20
11.305413
 30
0.000000
 40
7.228212
 50
169.157588
 51
177.229061
  6
CONTINUOUS
  0
ARC
  8
WHITE
 10
13.403849
 20
12.112222
 30
0.000000
 40
3.233821
 50
152.761309
 51
170.155927
  6
CONTINUOUS
  0
ARC
  8
WHITE
 10
10.510852
 20
13.601491
 30
0.000000
 40
0.020000
 50
-27.238692
 51
118.029081
  6
CONTINUOUS
  0
ARC
  8
WHITE
 10
10.827564
 20
13.006570
 30
0.000000
 40
0.693971
 50
118.029080
 51
139.698144
  6
CONTINUOUS
  0
ARC
  8
WHITE
 10
11.374718
 20
12.461171
 30
0.000000
 40
1.465343
 50
137.271594
 51
150.226397
  6
CONTINUOUS
  0
ARC
  8
WHITE
 10
13.684497
 20
11.304845
 30
0.000000
 40
4.046957
 50
152.255512
 51
156.946923
  6
CONTINUOUS
  0
ARC
  8
WHITE
 10
11.899604
 20
11.973216
 30
0.000000
 40
2.144521
 50
154.703737
 51
172.406990
  6
CONTINUOUS
  0
ARC
  8
WHITE
 10
14.163038
 20
11.785392
 30
0.000000
 40
4.414371
 50
173.872569
 51
189.932306
  6
CONTINUOUS
  0
ARC
  8
WHITE
 10
9.834529
 20
11.027431
 30
0.000000
 40
0.020000
 50
-170.067692
 51
0.874064
  6
CONTINUOUS
  0
ARC
  8
WHITE
 10
17.805226
 20
11.149036
 30
0.000000
 40
7.951625
 50
175.042183
 51
180.874064
  6
CONTINUOUS
  0
ARC
  8
WHITE
 10
12.540494
 20
11.629834
 30
0.000000
 40
2.665147
 50
156.590939
 51
175.558331
  6
CONTINUOUS
  0
ARC
  8
WHITE
 10
10.113064
 20
12.680732
 30
0.000000
 40
0.020000
 50
-5.946544
 51
156.590940
  6
CONTINUOUS
  0
ARC
  8
WHITE
 10
9.718706
 20
12.721809
 30
0.000000
 40
0.416492
 50
-19.390849
 51
-5.946545
  6
CONTINUOUS
  0
ARC
  8
WHITE
 10
15.347399
 20
11.417940
 30
0.000000
 40
5.363998
 50
167.449583
 51
173.581180
  6
CONTINUOUS
  0
ARC
  8
WHITE
 10
15.450630
 20
11.410042
 30
0.000000
 40
5.467466
 50
173.619875
 51
181.640686
  6
CONTINUOUS
  0
ARC
  8
WHITE
 10
13.105453
 20
11.203648
 30
0.000000
 40
3.120446
 50
179.084597
 51
188.154923
  6
CONTINUOUS
  0
ARC
  8
WHITE
 10
10.165213
 20
14.624832
 30
0.000000
 40
6.976380
 50
-161.670547
 51
-155.670230
  6
CONTINUOUS
  0
ARC
  8
WHITE
 10
6.103171
 20
13.355697
 30
0.000000
 40
2.722282
 50
-175.330859
 51
-160.140480
  6
CONTINUOUS
  0
ARC
  8
WHITE
 10
3.409856
 20
13.135726
 30
0.000000
 40
0.020000
 50
136.455381
 51
184.669140
  6
CONTINUOUS
  0
ARC
  8
WHITE
 10
8.396342
 20
8.396342
 30
0.000000
 40
6.899448
 50
135.714715
 51
136.455379
  6
CONTINUOUS
  0
ARC
  8
WHITE
 10
3.471537
 20
13.199789
 30
0.000000
 40
0.020000
 50
22.795756
 51
135.714714
  6
CONTINUOUS
  0
ARC
  8
WHITE
 10
1.587714
 20
12.408067
 30
0.000000
 40
2.063432
 50
18.032134
 51
22.795756
  6
CONTINUOUS
  0
ARC
  8
WHITE
 10
9.038588
 20
14.918572
 30
0.000000
 40
5.799168
 50
-161.169774
 51
-151.554628
  6
CONTINUOUS
  0
ARC
  8
WHITE
 10
28.292009
 20
25.607625
 30
0.000000
 40
27.820504
 50
-151.085514
 51
-149.081236
  6
CONTINUOUS
  0
ARC
  8
WHITE
 10
12.252673
 20
15.534194
 30
0.000000
 40
8.893485
 50
-151.662927
 51
-150.314428
  6
CONTINUOUS
  0
ARC
  8
WHITE
 10
4.513003
 20
11.117219
 30
0.000000
 40
0.018370
 50
-137.947979
 51
43.161882
  6
CONTINUOUS
  0
ARC
  8
WHITE
 10
11.615620
 20
16.338747
 30
0.000000
 40
8.833693
 50
-150.906671
 51
-143.666435
  6
CONTINUOUS
  0
ARC
  8
WHITE
 10
2.848946
 20
11.449553
 30
0.000000
 40
1.204209
 50
29.553292
 51
36.835105
  6
CONTINUOUS
  0
ARC
  8
WHITE
 10
3.804149
 20
12.160098
 30
0.000000
 40
0.014278
 50
52.945764
 51
217.054236
  6
CONTINUOUS
  0
ARC
  8
WHITE
 10
6.591896
 20
12.930798
 30
0.000000
 40
2.905600
 50
-164.442379
 51
-143.380198
  6
CONTINUOUS
  0
ARC
  8
WHITE
 10
8.732331
 20
14.211656
 30
0.000000
 40
5.393311
 50
-146.023652
 51
-134.676981
  6
CONTINUOUS
  0
ARC
  8
WHITE
 10
13.536501
 20
20.083661
 30
0.000000
 40
12.966235
 50
-131.526963
 51
-128.660584
  6
CONTINUOUS
  0
ARC
  8
WHITE
 10
5.414557
 20
9.931512
 30
0.000000
 40
0.035000
 50
-121.943684
 51
51.339415
  6
CONTINUOUS
  0
ARC
  8
WHITE
 10
7.434584
 20
13.171313
 30
0.000000
 40
3.852960
 50
-136.975306
 51
-121.943684
  6
CONTINUOUS
  0
ARC
  8
WHITE
 10
7.773461
 20
13.531633
 30
0.000000
 40
4.346670
 50
-155.811775
 51
-136.550926
  6
CONTINUOUS
  0
ARC
  8
WHITE
 10
6.058403
 20
-0.551987
 30
0.000000
 40
1.622621
 50
60.755355
 51
67.880894
  6
CONTINUOUS
  0
ARC
  8
WHITE
 10
-16.297505
 20
-50.405562
 30
0.000000
 40
56.258297
 50
65.905687
 51
66.085512
  6
CONTINUOUS
  0
ARC
  8
WHITE
 10
6.647707
 20
1.353453
 30
0.000000
 40
0.358703
 50
-137.583239
 51
-112.908896
  6
CONTINUOUS
  0
ARC
  8
WHITE
 10
6.531718
 20
1.232333
 30
0.000000
 40
0.191701
 50
178.663360
 51
219.072887
  6
CONTINUOUS
  0
ARC
  8
WHITE
 10
6.588013
 20
1.241739
 30
0.000000
 40
0.247993
 50
126.489665
 51
181.140096
  6
CONTINUOUS
  0
ARC
  8
WHITE
 10
6.615694
 20
1.174030
 30
0.000000
 40
0.319398
 50
91.427369
 51
123.257192
  6
CONTINUOUS
  0
ARC
  8
WHITE
 10
6.636800
 20
0.892663
 30
0.000000
 40
0.601369
 50
42.054884
 51
92.769944
  6
CONTINUOUS
  0
LINE
  8
WHITE
 10
7.083318
 20
1.295485
 30
0.000000
 11
7.101889
 21
1.382853
 31
0.000000
  6
CONTINUOUS
  0
LINE
  8
WHITE
 10
7.101889
 20
1.382853
 30
0.000000
 11
7.342607
 21
1.331686
 31
0.000000
  6
CONTINUOUS
  0
LINE
  8
WHITE
 10
7.342607
 20
1.331686
 30
0.000000
 11
7.289233
 21
1.080582
 31
0.000000
  6
CONTINUOUS
  0
LINE
  8
WHITE
 10
7.289233
 20
1.080582
 30
0.000000
 11
7.055235
 21
1.130320
 31
0.000000
  6
CONTINUOUS
  0
ARC
  8
WHITE
 10
6.710490
 20
0.940445
 30
0.000000
 40
0.393575
 50
28.844527
 51
69.556349
  6
CONTINUOUS
  0
ARC
  8
WHITE
 10
6.740581
 20
1.031624
 30
0.000000
 40
0.297652
 50
68.853302
 51
92.404696
  6
CONTINUOUS
  0
ARC
  8
WHITE
 10
6.737527
 20
1.218210
 30
0.000000
 40
0.111204
 50
94.867361
 51
124.416188
  6
CONTINUOUS
  0
ARC
  8
WHITE
 10
6.712107
 20
1.264216
 30
0.000000
 40
0.059098
 50
129.300299
 51
237.029758
  6
CONTINUOUS
  0
ARC
  8
WHITE
 10
7.434216
 20
2.512672
 30
0.000000
 40
1.501273
 50
-120.160277
 51
-112.215150
  6
CONTINUOUS
  0
ARC
  8
WHITE
 10
3.667288
 20
-6.104599
 30
0.000000
 40
7.903890
 50
64.801583
 51
66.122804
  6
CONTINUOUS
  0
ARC
  8
WHITE
 10
6.810398
 20
0.594468
 30
0.000000
 40
0.504187
 50
45.757658
 51
63.875542
  6
CONTINUOUS
  0
ARC
  8
WHITE
 10
6.986954
 20
0.789860
 30
0.000000
 40
0.241228
 50
-22.842927
 51
43.419875
  6
CONTINUOUS
  0
ARC
  8
WHITE
 10
6.972294
 20
0.797502
 30
0.000000
 40
0.257708
 50
-69.662609
 51
-23.143508
  6
CONTINUOUS
  0
ARC
  8
WHITE
 10
6.905437
 20
1.063692
 30
0.000000
 40
0.531378
 50
-140.499565
 51
-72.880030
  6
CONTINUOUS
  0
LINE
  8
WHITE
 10
6.495414
 20
0.725691
 30
0.000000
 11
6.476844
 21
0.638323
 31
0.000000
  6
CONTINUOUS
  0
LINE
  8
WHITE
 10
6.476844
 20
0.638323
 30
0.000000
 11
6.233071
 21
0.690139
 31
0.000000
  6
CONTINUOUS
  0
LINE
  8
WHITE
 10
6.233071
 20
0.690139
 30
0.000000
 11
6.299561
 21
1.002951
 31
0.000000
  6
CONTINUOUS
  0
LINE
  8
WHITE
 10
6.299561
 20
1.002951
 30
0.000000
 11
6.533559
 21
0.953213
 31
0.000000
  6
CONTINUOUS
  0
ARC
  8
WHITE
 10
6.818984
 20
0.992305
 30
0.000000
 40
0.288090
 50
-172.201229
 51
-116.287586
  6
CONTINUOUS
  0
ARC
  8
WHITE
 10
6.808055
 20
0.962554
 30
0.000000
 40
0.256597
 50
-117.041770
 51
-89.577215
  6
CONTINUOUS
  0
ARC
  8
WHITE
 10
6.816880
 20
0.788451
 30
0.000000
 40
0.082778
 50
-94.803584
 51
65.568580
  6
CONTINUOUS
  0
LINE
  8
WHITE
 10
10.111193
 20
0.760043
 30
0.000000
 11
10.256041
 21
0.796157
 31
0.000000
  6
CONTINUOUS
  0
LINE
  8
WHITE
 10
10.256041
 20
0.796157
 30
0.000000
 11
10.143420
 21
0.935448
 31
0.000000
  6
CONTINUOUS
  0
LINE
  8
WHITE
 10
10.143420
 20
0.935448
 30
0.000000
 11
9.768878
 21
0.842064
 31
0.000000
  6
CONTINUOUS
  0
LINE
  8
WHITE
 10
9.768878
 20
0.842064
 30
0.000000
 11
9.739681
 21
0.667414
 31
0.000000
  6
CONTINUOUS
  0
LINE
  8
WHITE
 10
9.739681
 20
0.667414
 30
0.000000
 11
9.887559
 21
0.704284
 31
0.000000
  6
CONTINUOUS
  0
LINE
  8
WHITE
 10
9.887559
 20
0.704284
 30
0.000000
 11
9.921860
 21
0.566710
 31
0.000000
  6
CONTINUOUS
  0
LINE
  8
WHITE
 10
9.921860
 20
0.566710
 30
0.000000
 11
9.398228
 21
0.436154
 31
0.000000
  6
CONTINUOUS
  0
LINE
  8
WHITE
 10
9.398228
 20
0.436154
 30
0.000000
 11
9.363926
 21
0.573728
 31
0.000000
  6
CONTINUOUS
  0
LINE
  8
WHITE
 10
9.363926
 20
0.573728
 30
0.000000
 11
9.511804
 21
0.610598
 31
0.000000
  6
CONTINUOUS
  0
LINE
  8
WHITE
 10
9.511804
 20
0.610598
 30
0.000000
 11
9.642119
 21
1.381449
 31
0.000000
  6
CONTINUOUS
  0
LINE
  8
WHITE
 10
9.642119
 20
1.381449
 30
0.000000
 11
10.044540
 21
1.481784
 31
0.000000
  6
CONTINUOUS
  0
LINE
  8
WHITE
 10
10.044540
 20
1.481784
 30
0.000000
 11
10.529372
 21
0.864307
 31
0.000000
  6
CONTINUOUS
  0
LINE
  8
WHITE
 10
10.529372
 20
0.864307
 30
0.000000
 11
10.677250
 21
0.901177
 31
0.000000
  6
CONTINUOUS
  0
LINE
  8
WHITE
 10
10.677250
 20
0.901177
 30
0.000000
 11
10.711551
 21
0.763602
 31
0.000000
  6
CONTINUOUS
  0
LINE
  8
WHITE
 10
10.711551
 20
0.763602
 30
0.000000
 11
10.145495
 21
0.622468
 31
0.000000
  6
CONTINUOUS
  0
LINE
  8
WHITE
 10
10.145495
 20
0.622468
 30
0.000000
 11
10.111193
 21
0.760043
 31
0.000000
  6
CONTINUOUS
  0
LINE
  8
WHITE
 10
9.846288
 20
1.319057
 30
0.000000
 11
9.789404
 21
0.961122
 31
0.000000
  6
CONTINUOUS
  0
LINE
  8
WHITE
 10
9.789404
 20
0.961122
 30
0.000000
 11
10.070008
 21
1.031085
 31
0.000000
  6
CONTINUOUS
  0
LINE
  8
WHITE
 10
10.070008
 20
1.031085
 30
0.000000
 11
9.846288
 21
1.319057
 31
0.000000
  6
CONTINUOUS
  0
LINE
  8
WHITE
 10
9.952614
 20
1.047520
 30
0.000000
 11
9.844130
 21
1.020472
 31
0.000000
  6
CONTINUOUS
  0
LINE
  8
WHITE
 10
9.844130
 20
1.020472
 30
0.000000
 11
9.871671
 21
1.212089
 31
0.000000
  6
CONTINUOUS
  0
LINE
  8
WHITE
 10
9.871671
 20
1.212089
 30
0.000000
 11
9.959613
 21
1.096901
 31
0.000000
  6
CONTINUOUS
  0
LINE
  8
WHITE
 10
9.959613
 20
1.096901
 30
0.000000
 11
9.952614
 21
1.047520
 31
0.000000
  6
CONTINUOUS
  0
ARC
  8
WHITE
 10
4.335725
 20
1.898175
 30
0.000000
 40
0.307790
 50
144.273892
 51
170.954316
  6
CONTINUOUS
  0
ARC
  8
WHITE
 10
4.170805
 20
1.939297
 30
0.000000
 40
0.139232
 50
177.007292
 51
228.675487
  6
CONTINUOUS
  0
ARC
  8
WHITE
 10
4.458201
 20
2.240741
 30
0.000000
 40
0.555639
 50
-133.055022
 51
-110.433458
  6
CONTINUOUS
  0
ARC
  8
WHITE
 10
4.319666
 20
1.833669
 30
0.000000
 40
0.126415
 50
-116.016083
 51
-41.016844
  6
CONTINUOUS
  0
ARC
  8
WHITE
 10
4.066061
 20
2.075204
 30
0.000000
 40
0.476540
 50
-42.917615
 51
-28.070298
  6
CONTINUOUS
  0
LINE
  8
WHITE
 10
4.486547
 20
1.850966
 30
0.000000
 11
4.677331
 21
2.168484
 31
0.000000
  6
CONTINUOUS
  0
LINE
  8
WHITE
 10
4.677331
 20
2.168484
 30
0.000000
 11
4.559009
 21
2.239579
 31
0.000000
  6
CONTINUOUS
  0
LINE
  8
WHITE
 10
4.559009
 20
2.239579
 30
0.000000
 11
4.632034
 21
2.361114
 31
0.000000
  6
CONTINUOUS
  0
LINE
  8
WHITE
 10
4.632034
 20
2.361114
 30
0.000000
 11
5.108000
 21
2.075125
 31
0.000000
  6
CONTINUOUS
  0
LINE
  8
WHITE
 10
5.108000
 20
2.075125
 30
0.000000
 11
5.034975
 21
1.953590
 31
0.000000
  6
CONTINUOUS
  0
LINE
  8
WHITE
 10
5.034975
 20
1.953590
 30
0.000000
 11
4.884529
 21
2.043987
 31
0.000000
  6
CONTINUOUS
  0
LINE
  8
WHITE
 10
4.884529
 20
2.043987
 30
0.000000
 11
4.729923
 21
1.786680
 31
0.000000
  6
CONTINUOUS
  0
ARC
  8
WHITE
 10
1.842891
 20
3.488544
 30
0.000000
 40
3.351312
 50
-32.443258
 51
-30.518728
  6
CONTINUOUS
  0
ARC
  8
WHITE
 10
4.412765
 20
1.819287
 30
0.000000
 40
0.288611
 50
-104.851207
 51
-26.461060
  6
CONTINUOUS
  0
ARC
  8
WHITE
 10
4.473426
 20
2.141726
 30
0.000000
 40
0.616295
 50
-120.934921
 51
-102.618439
  6
CONTINUOUS
  0
ARC
  8
WHITE
 10
4.879192
 20
2.950276
 30
0.000000
 40
1.519924
 50
-125.811820
 51
-118.385806
  6
CONTINUOUS
  0
ARC
  8
WHITE
 10
4.295099
 20
2.171958
 30
0.000000
 40
0.547290
 50
-149.046768
 51
-123.900558
  6
CONTINUOUS
  0
ARC
  8
WHITE
 10
4.047688
 20
2.009480
 30
0.000000
 40
0.251834
 50
167.186528
 51
208.202308
  6
CONTINUOUS
  0
ARC
  8
WHITE
 10
4.324610
 20
1.917345
 30
0.000000
 40
0.543038
 50
149.919725
 51
164.186076
  6
CONTINUOUS
  0
ARC
  8
WHITE
 10
24.588186
 20
-9.913485
 30
0.000000
 40
24.007499
 50
148.757952
 51
149.726087
  6
CONTINUOUS
  0
LINE
  8
WHITE
 10
4.062162
 20
2.538115
 30
0.000000
 11
3.910110
 21
2.629477
 31
0.000000
  6
CONTINUOUS
  0
LINE
  8
WHITE
 10
3.910110
 20
2.629477
 30
0.000000
 11
3.983135
 21
2.751012
 31
0.000000
  6
CONTINUOUS
  0
LINE
  8
WHITE
 10
3.983135
 20
2.751012
 30
0.000000
 11
4.469809
 21
2.458589
 31
0.000000
  6
CONTINUOUS
  0
LINE
  8
WHITE
 10
4.469809
 20
2.458589
 30
0.000000
 11
4.396784
 21
2.337054
 31
0.000000
  6
CONTINUOUS
  0
LINE
  8
WHITE
 10
4.396784
 20
2.337054
 30
0.000000
 11
4.282745
 21
2.405576
 31
0.000000
  6
CONTINUOUS
  0
LINE
  8
WHITE
 10
4.282745
 20
2.405576
 30
0.000000
 11
4.085856
 21
2.077897
 31
0.000000
  6
CONTINUOUS
  0
ARC
  8
WHITE
 10
9.732694
 20
2.602122
 30
0.000000
 40
0.254104
 50
-1.534197
 51
8.642334
  6
CONTINUOUS
  0
ARC
  8
WHITE
 10
10.067534
 20
2.588885
 30
0.000000
 40
0.081084
 50
175.449340
 51
194.886423
  6
CONTINUOUS
  0
ARC
  8
WHITE
 10
10.312690
 20
2.659839
 30
0.000000
 40
0.336286
 50
-164.160965
 51
-157.865055
  6
CONTINUOUS
  0
LINE
  8
WHITE
 10
10.001189
 20
2.533130
 30
0.000000
 11
10.131912
 21
2.635841
 31
0.000000
  6
CONTINUOUS
  0
ARC
  8
WHITE
 10
10.754138
 20
2.662472
 30
0.000000
 40
0.622796
 50
-177.549263
 51
-168.419054
  6
CONTINUOUS
  0
ARC
  8
WHITE
 10
10.060559
 20
2.800677
 30
0.000000
 40
0.276148
 50
-72.407876
 51
-47.097823
  6
CONTINUOUS
  0
ARC
  8
WHITE
 10
10.568611
 20
2.108738
 30
0.000000
 40
0.584983
 50
105.156065
 51
123.170783
  6
CONTINUOUS
  0
ARC
  8
WHITE
 10
10.488998
 20
2.407775
 30
0.000000
 40
0.275536
 50
86.324942
 51
105.434322
  6
CONTINUOUS
  0
ARC
  8
WHITE
 10
10.512439
 20
2.610861
 30
0.000000
 40
0.072115
 50
22.921563
 51
94.597010
  6
CONTINUOUS
  0
ARC
  8
WHITE
 10
10.602936
 20
2.371185
 30
0.000000
 40
0.268843
 50
95.137921
 51
150.703567
  6
CONTINUOUS
  0
ARC
  8
WHITE
 10
10.523703
 20
2.453184
 30
0.000000
 40
0.162943
 50
162.295104
 51
208.176536
  6
CONTINUOUS
  0
ARC
  8
WHITE
 10
10.220771
 20
2.268802
 30
0.000000
 40
0.192144
 50
-4.923060
 51
33.998378
  6
CONTINUOUS
  0
ARC
  8
WHITE
 10
9.754160
 20
0.877904
 30
0.000000
 40
1.523820
 50
64.415598
 51
77.499342
  6
CONTINUOUS
  0
ARC
  8
WHITE
 10
10.002951
 20
1.902979
 30
0.000000
 40
0.469665
 50
80.063770
 51
143.855105
  6
CONTINUOUS
  0
ARC
  8
WHITE
 10
8.931609
 20
2.627828
 30
0.000000
 40
0.824327
 50
-41.963737
 51
-32.906070
  6
CONTINUOUS
  0
ARC
  8
WHITE
 10
9.521350
 20
2.096736
 30
0.000000
 40
0.030700
 50
-132.764171
 51
-40.906542
  6
CONTINUOUS
  0
ARC
  8
WHITE
 10
8.357267
 20
0.810922
 30
0.000000
 40
1.703778
 50
47.855557
 51
53.607864
  6
CONTINUOUS
  0
ARC
  8
WHITE
 10
9.266968
 20
1.952042
 30
0.000000
 40
0.251612
 50
66.292778
 51
105.229660
  6
CONTINUOUS
  0
LINE
  8
WHITE
 10
9.200873
 20
2.194817
 30
0.000000
 11
9.193862
 21
2.202327
 31
0.000000
  6
CONTINUOUS
  0
ARC
  8
WHITE
 10
9.304836
 20
2.192596
 30
0.000000
 40
0.111399
 50
75.452290
 51
174.988598
  6
CONTINUOUS
  0
ARC
  8
WHITE
 10
9.365449
 20
2.443116
 30
0.000000
 40
0.146376
 50
-102.880982
 51
-64.827247
  6
CONTINUOUS
  0
ARC
  8
WHITE
 10
9.691400
 20
1.703342
 30
0.000000
 40
0.662077
 50
105.052333
 51
113.470627
  6
CONTINUOUS
  0
ARC
  8
WHITE
 10
9.412757
 20
2.327351
 30
0.000000
 40
0.107800
 50
8.187171
 51
31.201070
  6
CONTINUOUS
  0
ARC
  8
WHITE
 10
9.432901
 20
2.414359
 30
0.000000
 40
0.078513
 50
-23.385734
 51
25.314271
  6
CONTINUOUS
  0
ARC
  8
WHITE
 10
9.541806
 20
2.468837
 30
0.000000
 40
0.043312
 50
121.855592
 51
208.862270
  6
CONTINUOUS
  0
ARC
  8
WHITE
 10
9.647406
 20
2.752999
 30
0.000000
 40
0.278739
 50
-156.856994
 51
-117.442463
  6
CONTINUOUS
  0
ARC
  8
WHITE
 10
8.443418
 20
2.137523
 30
0.000000
 40
1.074270
 50
28.095747
 51
43.422724
  6
CONTINUOUS
  0
ARC
  8
WHITE
 10
9.342389
 20
2.945968
 30
0.000000
 40
0.137834
 50
150.675398
 51
210.529656
  6
CONTINUOUS
  0
ARC
  8
WHITE
 10
10.916678
 20
2.363765
 30
0.000000
 40
1.814750
 50
154.481214
 51
159.021657
  6
CONTINUOUS
  0
ARC
  8
WHITE
 10
9.100653
 20
2.810375
 30
0.000000
 40
0.379675
 50
54.097808
 51
61.988466
  6
CONTINUOUS
  0
ARC
  8
WHITE
 10
9.316338
 20
3.101295
 30
0.000000
 40
0.018021
 50
5.555784
 51
67.288778
  6
CONTINUOUS
  0
LINE
  8
WHITE
 10
9.334275
 20
3.103040
 30
0.000000
 11
9.323869
 21
3.072809
 31
0.000000
  6
CONTINUOUS
  0
LINE
  8
WHITE
 10
9.323869
 20
3.072809
 30
0.000000
 11
9.314795
 21
3.046048
 31
0.000000
  6
CONTINUOUS
  0
ARC
  8
WHITE
 10
9.417715
 20
3.013134
 30
0.000000
 40
0.108055
 50
162.265665
 51
177.101131
  6
CONTINUOUS
  0
ARC
  8
WHITE
 10
9.588015
 20
3.010362
 30
0.000000
 40
0.278338
 50
178.304212
 51
187.869272
  6
CONTINUOUS
  0
LINE
  8
WHITE
 10
9.312298
 20
2.972253
 30
0.000000
 11
9.349386
 21
2.998792
 31
0.000000
  6
CONTINUOUS
  0
ARC
  8
WHITE
 10
9.547644
 20
2.723653
 30
0.000000
 40
0.339128
 50
119.828411
 51
125.775501
  6
CONTINUOUS
  0
ARC
  8
WHITE
 10
9.434277
 20
2.921689
 30
0.000000
 40
0.110939
 50
95.990791
 51
119.909017
  6
CONTINUOUS
  0
ARC
  8
WHITE
 10
9.417800
 20
3.018454
 30
0.000000
 40
0.014425
 50
-39.765488
 51
70.150585
  6
CONTINUOUS
  0
ARC
  8
WHITE
 10
9.113964
 20
3.106080
 30
0.000000
 40
0.329481
 50
-22.048979
 51
-17.094972
  6
CONTINUOUS
  0
ARC
  8
WHITE
 10
9.716731
 20
2.858226
 30
0.000000
 40
0.322264
 50
157.337908
 51
163.539693
  6
CONTINUOUS
  0
ARC
  8
WHITE
 10
9.510962
 20
2.924411
 30
0.000000
 40
0.106300
 50
166.326009
 51
180.472472
  6
CONTINUOUS
  0
ARC
  8
WHITE
 10
9.464864
 20
2.923969
 30
0.000000
 40
0.060200
 50
-179.586840
 51
-154.880724
  6
CONTINUOUS
  0
ARC
  8
WHITE
 10
9.419374
 20
2.910725
 30
0.000000
 40
0.015261
 50
-126.218396
 51
-41.089391
  6
CONTINUOUS
  0
ARC
  8
WHITE
 10
9.162366
 20
3.293804
 30
0.000000
 40
0.476058
 50
-55.665254
 51
-51.676816
  6
CONTINUOUS
  0
LINE
  8
WHITE
 10
9.457568
 20
2.920324
 30
0.000000
 11
9.483150
 21
2.939910
 31
0.000000
  6
CONTINUOUS
  0
ARC
  8
WHITE
 10
9.560471
 20
2.840020
 30
0.000000
 40
0.126320
 50
112.189175
 51
127.742030
  6
CONTINUOUS
  0
LINE
  8
WHITE
 10
9.512765
 20
2.956984
 30
0.000000
 11
9.525352
 21
2.953945
 31
0.000000
  6
CONTINUOUS
  0
ARC
  8
WHITE
 10
10.967802
 20
2.528796
 30
0.000000
 40
1.503799
 50
163.577594
 51
166.795284
  6
CONTINUOUS
  0
ARC
  8
WHITE
 10
9.631474
 20
2.864170
 30
0.000000
 40
0.127970
 50
176.352775
 51
214.185002
  6
CONTINUOUS
  0
LINE
  8
WHITE
 10
9.525613
 20
2.792268
 30
0.000000
 11
9.625605
 21
2.892260
 31
0.000000
  6
CONTINUOUS
  0
ARC
  8
WHITE
 10
9.323985
 20
2.880166
 30
0.000000
 40
0.301862
 50
-18.145155
 51
2.296174
  6
CONTINUOUS
  0
ARC
  8
WHITE
 10
9.641647
 20
2.769969
 30
0.000000
 40
0.034805
 50
152.281023
 51
283.190557
  6
CONTINUOUS
  0
ARC
  8
WHITE
 10
9.563610
 20
2.911470
 30
0.000000
 40
0.195329
 50
-63.884899
 51
-46.152039
  6
CONTINUOUS
  0
ARC
  8
WHITE
 10
9.746564
 20
2.728705
 30
0.000000
 40
0.063443
 50
97.799212
 51
138.669315
  6
CONTINUOUS
  0
ARC
  8
WHITE
 10
9.678872
 20
2.754376
 30
0.000000
 40
0.069810
 50
-22.023404
 51
32.184898
  6
CONTINUOUS
  0
ARC
  8
WHITE
 10
9.921133
 20
2.679506
 30
0.000000
 40
0.184101
 50
164.663342
 51
185.733220
  6
CONTINUOUS
  0
ARC
  8
WHITE
 10
9.753375
 20
2.731780
 30
0.000000
 40
0.072328
 50
-102.311405
 51
-45.652148
  6
CONTINUOUS
  0
ARC
  8
WHITE
 10
10.178128
 20
2.155077
 30
0.000000
 40
0.644690
 50
118.999048
 51
125.480454
  6
CONTINUOUS
  0
ARC
  8
WHITE
 10
5.566324
 20
2.522130
 30
0.000000
 40
4.303763
 50
1.592571
 51
2.621046
  6
CONTINUOUS
  0
ARC
  8
WHITE
 10
9.884961
 20
2.637051
 30
0.000000
 40
0.017188
 50
164.167075
 51
244.755686
  6
CONTINUOUS
  0
ARC
  8
WHITE
 10
9.853184
 20
2.732613
 30
0.000000
 40
0.113767
 50
-77.590876
 51
-64.073127
  6
CONTINUOUS
  0
ARC
  8
WHITE
 10
9.068058
 20
4.636742
 30
0.000000
 40
2.173206
 50
-67.408153
 51
-66.231239
  6
CONTINUOUS
  0
ARC
  8
WHITE
 10
10.017569
 20
2.487731
 30
0.000000
 40
0.176244
 50
106.451872
 51
114.686451
  6
CONTINUOUS
  0
ARC
  8
WHITE
 10
9.970913
 20
2.643720
 30
0.000000
 40
0.013440
 50
-14.720363
 51
104.027822
  6
CONTINUOUS
  0
LINE
  8
WHITE
 10
12.271325
 20
2.254653
 30
0.000000
 11
12.391318
 21
2.054950
 31
0.000000
  6
CONTINUOUS
  0
LINE
  8
WHITE
 10
12.391318
 20
2.054950
 30
0.000000
 11
12.586738
 21
2.172370
 31
0.000000
  6
CONTINUOUS
  0
LINE
  8
WHITE
 10
12.586738
 20
2.172370
 30
0.000000
 11
12.643356
 21
2.078140
 31
0.000000
  6
CONTINUOUS
  0
LINE
  8
WHITE
 10
12.643356
 20
2.078140
 30
0.000000
 11
12.447937
 21
1.960721
 31
0.000000
  6
CONTINUOUS
  0
LINE
  8
WHITE
 10
12.447937
 20
1.960721
 30
0.000000
 11
12.567287
 21
1.762089
 31
0.000000
  6
CONTINUOUS
  0
LINE
  8
WHITE
 10
12.567287
 20
1.762089
 30
0.000000
 11
12.725229
 21
1.856990
 31
0.000000
  6
CONTINUOUS
  0
LINE
  8
WHITE
 10
12.725229
 20
1.856990
 30
0.000000
 11
12.798254
 21
1.735455
 31
0.000000
  6
CONTINUOUS
  0
LINE
  8
WHITE
 10
12.798254
 20
1.735455
 30
0.000000
 11
12.269819
 21
1.417940
 31
0.000000
  6
CONTINUOUS
  0
LINE
  8
WHITE
 10
12.269819
 20
1.417940
 30
0.000000
 11
12.196794
 21
1.539474
 31
0.000000
  6
CONTINUOUS
  0
LINE
  8
WHITE
 10
12.196794
 20
1.539474
 30
0.000000
 11
12.344563
 21
1.628263
 31
0.000000
  6
CONTINUOUS
  0
LINE
  8
WHITE
 10
12.344563
 20
1.628263
 30
0.000000
 11
12.048601
 21
2.120826
 31
0.000000
  6
CONTINUOUS
  0
LINE
  8
WHITE
 10
12.048601
 20
2.120826
 30
0.000000
 11
11.900832
 21
2.032038
 31
0.000000
  6
CONTINUOUS
  0
LINE
  8
WHITE
 10
11.900832
 20
2.032038
 30
0.000000
 11
11.827807
 21
2.153572
 31
0.000000
  6
CONTINUOUS
  0
LINE
  8
WHITE
 10
11.827807
 20
2.153572
 30
0.000000
 11
12.771708
 21
2.720726
 31
0.000000
  6
CONTINUOUS
  0
LINE
  8
WHITE
 10
12.771708
 20
2.720726
 30
0.000000
 11
12.942208
 21
2.436966
 31
0.000000
  6
CONTINUOUS
  0
LINE
  8
WHITE
 10
12.942208
 20
2.436966
 30
0.000000
 11
12.730727
 21
2.309896
 31
0.000000
  6
CONTINUOUS
  0
LINE
  8
WHITE
 10
12.730727
 20
2.309896
 30
0.000000
 11
12.633252
 21
2.472120
 31
0.000000
  6
CONTINUOUS
  0
LINE
  8
WHITE
 10
12.633252
 20
2.472120
 30
0.000000
 11
12.271325
 21
2.254653
 31
0.000000
  6
CONTINUOUS
  0
ARC
  8
WHITE
 10
4.425470
 20
10.477769
 30
0.000000
 40
0.020000
 50
-130.840360
 51
38.914674
  6
CONTINUOUS
  0
ARC
  8
WHITE
 10
-39.784102
 20
-25.213557
 30
0.000000
 40
56.838632
 50
38.914674
 51
39.227358
  6
CONTINUOUS
  0
ARC
  8
WHITE
 10
11.859065
 20
16.753702
 30
0.000000
 40
9.707579
 50
-146.356406
 51
-141.654892
  6
CONTINUOUS
  0
ARC
  8
WHITE
 10
-6.000691
 20
5.131063
 30
0.000000
 40
11.601966
 50
32.562468
 51
36.188361
  6
CONTINUOUS
  0
ARC
  8
WHITE
 10
3.346885
 20
11.969539
 30
0.000000
 40
0.020000
 50
36.188360
 51
182.866179
  6
CONTINUOUS
  0
ARC
  8
WHITE
 10
4.164015
 20
12.010449
 30
0.000000
 40
0.838153
 50
-177.133823
 51
-160.953444
  6
CONTINUOUS
  0
ARC
  8
WHITE
 10
7.736516
 20
13.561251
 30
0.000000
 40
4.730682
 50
-157.316769
 51
-131.910176
  6
CONTINUOUS
  0
ARC
  8
WHITE
 10
6.879769
 20
12.529302
 30
0.000000
 40
3.390831
 50
-132.784138
 51
-116.465787
  6
CONTINUOUS
  0
ARC
  8
WHITE
 10
5.383685
 20
9.519591
 30
0.000000
 40
0.029854
 50
-120.352312
 51
58.492045
  6
CONTINUOUS
  0
ARC
  8
WHITE
 10
7.230097
 20
12.869950
 30
0.000000
 40
3.795638
 50
-143.488800
 51
-118.838707
  6
CONTINUOUS
  0
ARC
  8
WHITE
 10
4.194319
 20
10.625073
 30
0.000000
 40
0.020096
 50
60.230402
 51
222.016470
  6
CONTINUOUS
  0
LINE
  8
WHITE
 10
4.204297
 20
10.642516
 30
0.000000
 11
4.412391
 21
10.462638
 31
0.000000
  6
CONTINUOUS
  0
ARC
  8
WHITE
 10
9.688404
 20
10.706076
 30
0.000000
 40
0.020000
 50
-77.427474
 51
12.884244
  6
CONTINUOUS
  0
ARC
  8
WHITE
 10
14.966241
 20
11.913335
 30
0.000000
 40
5.394151
 50
166.002465
 51
192.884245
  6
CONTINUOUS
  0
ARC
  8
WHITE
 10
9.726360
 20
13.222313
 30
0.000000
 40
0.007268
 50
-35.684358
 51
141.601993
  6
CONTINUOUS
  0
ARC
  8
WHITE
 10
10.363935
 20
12.538617
 30
0.000000
 40
0.942035
 50
133.066982
 51
156.136843
  6
CONTINUOUS
  0
ARC
  8
WHITE
 10
11.352265
 20
12.112902
 30
0.000000
 40
2.018130
 50
156.435225
 51
167.395502
  6
CONTINUOUS
  0
ARC
  8
WHITE
 10
11.731042
 20
11.851316
 30
0.000000
 40
2.450947
 50
163.356706
 51
194.819101
  6
CONTINUOUS
  0
ARC
  8
WHITE
 10
9.380952
 20
11.229558
 30
0.000000
 40
0.020000
 50
-165.180900
 51
3.476486
  6
CONTINUOUS
  0
ARC
  8
WHITE
 10
-5.337253
 20
10.335417
 30
0.000000
 40
14.765341
 50
3.476485
 51
4.709060
  6
CONTINUOUS
  0
ARC
  8
WHITE
 10
11.821129
 20
11.746245
 30
0.000000
 40
2.450947
 50
172.243403
 51
184.648977
  6
CONTINUOUS
  0
ARC
  8
WHITE
 10
10.189851
 20
11.957707
 30
0.000000
 40
0.806125
 50
151.873453
 51
171.487233
  6
CONTINUOUS
  0
ARC
  8
WHITE
 10
9.496561
 20
12.328302
 30
0.000000
 40
0.020000
 50
-1.637937
 51
151.873454
  6
CONTINUOUS
  0
ARC
  8
WHITE
 10
24.576056
 20
11.897102
 30
0.000000
 40
15.065659
 50
178.362065
 51
181.206805
  6
CONTINUOUS
  0
ARC
  8
WHITE
 10
13.716487
 20
11.590694
 30
0.000000
 40
4.202762
 50
-179.851497
 51
-168.605351
  6
CONTINUOUS
  0
ARC
  8
WHITE
 10
9.672681
 20
10.755406
 30
0.000000
 40
0.076281
 50
176.267174
 51
257.850576
  6
CONTINUOUS
  0
ARC
  8
WHITE
 10
9.628869
 20
10.973022
 30
0.000000
 40
0.293504
 50
-84.573171
 51
-77.427476
  6
CONTINUOUS
  0
ARC
  8
WHITE
 10
9.100274
 20
15.852760
 30
0.000000
 40
0.407059
 50
127.273709
 51
145.281436
  6
CONTINUOUS
  0
ARC
  8
WHITE
 10
8.975277
 20
16.018625
 30
0.000000
 40
0.199373
 50
90.766606
 51
127.556895
  6
CONTINUOUS
  0
ARC
  8
WHITE
 10
8.973248
 20
16.000645
 30
0.000000
 40
0.217336
 50
47.986984
 51
90.168354
  6
CONTINUOUS
  0
ARC
  8
WHITE
 10
8.900351
 20
15.921134
 30
0.000000
 40
0.325204
 50
-1.494051
 51
47.820475
  6
CONTINUOUS
  0
ARC
  8
WHITE
 10
8.857071
 20
15.880658
 30
0.000000
 40
0.369761
 50
-60.168305
 51
4.964215
  6
CONTINUOUS
  0
ARC
  8
WHITE
 10
8.885468
 20
15.825935
 30
0.000000
 40
0.308173
 50
-98.718890
 51
-59.687204
  6
CONTINUOUS
  0
ARC
  8
WHITE
 10
8.920624
 20
15.987246
 30
0.000000
 40
0.473062
 50
-125.379363
 51
-99.966035
  6
CONTINUOUS
  0
LINE
  8
WHITE
 10
8.646727
 20
15.601542
 30
0.000000
 11
8.646727
 21
16.285752
 31
0.000000
  6
CONTINUOUS
  0
ARC
  8
WHITE
 10
7.028119
 20
16.304800
 30
0.000000
 40
1.618719
 50
-0.674239
 51
3.577121
  6
CONTINUOUS
  0
ARC
  8
WHITE
 10
8.521694
 20
16.399440
 30
0.000000
 40
0.122157
 50
2.982543
 51
18.788511
  6
CONTINUOUS
  0
ARC
  8
WHITE
 10
8.598252
 20
16.428572
 30
0.000000
 40
0.040401
 50
14.640125
 51
93.853728
  6
CONTINUOUS
  0
ARC
  8
WHITE
 10
8.602766
 20
16.321086
 30
0.000000
 40
0.147972
 50
92.800278
 51
112.949726
  6
CONTINUOUS
  0
LINE
  8
WHITE
 10
8.545068
 20
16.457346
 30
0.000000
 11
8.534975
 21
16.482580
 31
0.000000
  6
CONTINUOUS
  0
LINE
  8
WHITE
 10
8.534975
 20
16.482580
 30
0.000000
 11
8.733244
 21
16.563330
 31
0.000000
  6
CONTINUOUS
  0
LINE
  8
WHITE
 10
8.733244
 20
16.563330
 30
0.000000
 11
8.765688
 21
16.563330
 31
0.000000
  6
CONTINUOUS
  0
LINE
  8
WHITE
 10
8.765688
 20
16.563330
 30
0.000000
 11
8.765688
 21
16.084599
 31
0.000000
  6
CONTINUOUS
  0
ARC
  8
WHITE
 10
8.916075
 20
15.710695
 30
0.000000
 40
0.140483
 50
-110.124272
 51
-60.385202
  6
CONTINUOUS
  0
ARC
  8
WHITE
 10
8.851956
 20
15.792081
 30
0.000000
 40
0.243419
 50
-56.728392
 51
-7.683959
  6
CONTINUOUS
  0
ARC
  8
WHITE
 10
8.570839
 20
15.850195
 30
0.000000
 40
0.530159
 50
-9.846337
 51
7.030076
  6
CONTINUOUS
  0
ARC
  8
WHITE
 10
8.868436
 20
15.900220
 30
0.000000
 40
0.229059
 50
3.720002
 51
62.327205
  6
CONTINUOUS
  0
ARC
  8
WHITE
 10
8.914599
 20
15.964618
 30
0.000000
 40
0.150987
 50
66.495400
 51
110.969439
  6
CONTINUOUS
  0
ARC
  8
WHITE
 10
8.970777
 20
15.849285
 30
0.000000
 40
0.279011
 50
113.266670
 51
137.311985
  6
CONTINUOUS
  0
LINE
  8
WHITE
 10
8.765688
 20
16.038456
 30
0.000000
 11
8.765688
 21
15.643359
 31
0.000000
  6
CONTINUOUS
  0
ARC
  8
WHITE
 10
8.952691
 20
15.825986
 30
0.000000
 40
0.261386
 50
-135.678159
 51
-108.965393
  6
CONTINUOUS
  0
ARC
  8
WHITE
 10
8.938028
 20
12.345127
 30
0.000000
 40
0.020000
 50
9.123062
 51
153.965221
  6
CONTINUOUS
  0
ARC
  8
WHITE
 10
9.458551
 20
12.090860
 30
0.000000
 40
0.599306
 50
153.965220
 51
170.215304
  6
CONTINUOUS
  0
ARC
  8
WHITE
 10
5.524053
 20
12.557293
 30
0.000000
 40
3.363727
 50
-13.022648
 51
-6.222318
  6
CONTINUOUS
  0
ARC
  8
WHITE
 10
9.694074
 20
11.602093
 30
0.000000
 40
0.914332
 50
167.542793
 51
186.302013
  6
CONTINUOUS
  0
ARC
  8
WHITE
 10
11.128436
 20
11.843435
 30
0.000000
 40
2.367954
 50
-171.702973
 51
-160.837597
  6
CONTINUOUS
  0
ARC
  8
WHITE
 10
4.697485
 20
9.384316
 30
0.000000
 40
4.518841
 50
16.155977
 51
21.850438
  6
CONTINUOUS
  0
ARC
  8
WHITE
 10
10.531889
 20
10.980971
 30
0.000000
 40
1.532060
 50
-167.205862
 51
-158.698913
  6
CONTINUOUS
  0
ARC
  8
WHITE
 10
9.123126
 20
10.431686
 30
0.000000
 40
0.020000
 50
-158.698914
 51
-14.919837
  6
CONTINUOUS
  0
ARC
  8
WHITE
 10
9.087660
 20
10.441136
 30
0.000000
 40
0.056704
 50
-14.919837
 51
14.537747
  6
CONTINUOUS
  0
ARC
  8
WHITE
 10
5.292295
 20
9.597140
 30
0.000000
 40
3.944744
 50
12.565926
 51
16.551928
  6
CONTINUOUS
  0
ARC
  8
WHITE
 10
11.433969
 20
11.326367
 30
0.000000
 40
2.436801
 50
-175.302807
 51
-165.613986
  6
CONTINUOUS
  0
ARC
  8
WHITE
 10
12.386077
 20
11.691300
 30
0.000000
 40
3.427526
 50
-173.964670
 51
-170.520732
  6
CONTINUOUS
  0
ARC
  8
WHITE
 10
9.416636
 20
11.397298
 30
0.000000
 40
0.444076
 50
166.940346
 51
188.595878
  6
CONTINUOUS
  0
ARC
  8
WHITE
 10
9.003529
 20
11.493124
 30
0.000000
 40
0.020000
 50
21.307836
 51
166.940347
  6
CONTINUOUS
  0
ARC
  8
WHITE
 10
8.537127
 20
11.311208
 30
0.000000
 40
0.520623
 50
11.383463
 51
21.307834
  6
CONTINUOUS
  0
ARC
  8
WHITE
 10
139.342793
 20
40.656045
 30
0.000000
 40
133.536363
 50
-167.350744
 51
-167.136411
  6
CONTINUOUS
  0
ARC
  8
WHITE
 10
15.352371
 20
12.492754
 30
0.000000
 40
6.389439
 50
-165.812806
 51
-163.573072
  6
CONTINUOUS
  0
ARC
  8
WHITE
 10
10.925644
 20
11.244392
 30
0.000000
 40
1.791206
 50
-161.831448
 51
-157.840365
  6
CONTINUOUS
  0
ARC
  8
WHITE
 10
9.354333
 20
10.616338
 30
0.000000
 40
0.099673
 50
-151.494871
 51
-79.619454
  6
CONTINUOUS
  0
ARC
  8
WHITE
 10
2.259107
 20
8.877850
 30
0.000000
 40
7.299895
 50
12.986526
 51
16.788488
  6
CONTINUOUS
  0
ARC
  8
WHITE
 10
17.594764
 20
13.696244
 30
0.000000
 40
8.775778
 50
-166.761635
 51
-162.013511
  6
CONTINUOUS
  0
ARC
  8
WHITE
 10
12.895998
 20
12.546897
 30
0.000000
 40
3.938907
 50
-172.672342
 51
-167.383837
  6
CONTINUOUS
  0
ARC
  8
WHITE
 10
6.261858
 20
11.915369
 30
0.000000
 40
2.730458
 50
2.711004
 51
9.123064
  6
CONTINUOUS
  0
ARC
  8
WHITE
 10
11.800276
 20
15.132430
 30
0.000000
 40
0.377506
 50
140.012198
 51
192.565815
  6
CONTINUOUS
  0
ARC
  8
WHITE
 10
11.762623
 20
15.194269
 30
0.000000
 40
0.309787
 50
48.094214
 51
144.304038
  6
CONTINUOUS
  0
ARC
  8
WHITE
 10
11.742384
 20
15.186808
 30
0.000000
 40
0.329012
 50
1.129750
 51
46.338567
  6
CONTINUOUS
  0
ARC
  8
WHITE
 10
11.687860
 20
15.186844
 30
0.000000
 40
0.383526
 50
-37.822099
 51
0.963885
  6
CONTINUOUS
  0
ARC
  8
WHITE
 10
11.721800
 20
15.131626
 30
0.000000
 40
0.323661
 50
-80.502648
 51
-33.781740
  6
CONTINUOUS
  0
ARC
  8
WHITE
 10
11.725639
 20
15.107639
 30
0.000000
 40
0.299369
 50
-168.957528
 51
-80.469853
  6
CONTINUOUS
  0
ARC
  8
WHITE
 10
11.771080
 20
15.318553
 30
0.000000
 40
0.139094
 50
95.346394
 51
135.791457
  6
CONTINUOUS
  0
ARC
  8
WHITE
 10
11.942499
 20
15.163738
 30
0.000000
 40
0.370015
 50
137.116011
 51
165.623170
  6
CONTINUOUS
  0
ARC
  8
WHITE
 10
12.015362
 20
15.104389
 30
0.000000
 40
0.457034
 50
160.677901
 51
201.046531
  6
CONTINUOUS
  0
ARC
  8
WHITE
 10
11.721818
 20
15.006468
 30
0.000000
 40
0.148571
 50
-153.534816
 51
-60.415151
  6
CONTINUOUS
  0
ARC
  8
WHITE
 10
11.704939
 20
15.027381
 30
0.000000
 40
0.175146
 50
-58.990721
 51
-29.356548
  6
CONTINUOUS
  0
ARC
  8
WHITE
 10
11.318805
 20
15.248803
 30
0.000000
 40
0.620256
 50
-29.697297
 51
-0.402641
  6
CONTINUOUS
  0
ARC
  8
WHITE
 10
11.639902
 20
15.240494
 30
0.000000
 40
0.299169
 50
0.756659
 51
31.120105
  6
CONTINUOUS
  0
ARC
  8
WHITE
 10
11.774599
 20
15.309243
 30
0.000000
 40
0.148715
 50
35.269661
 51
96.362210
  6
CONTINUOUS
  0
ARC
  8
WHITE
 10
6.797172
 20
15.695997
 30
0.000000
 40
0.364224
 50
178.534197
 51
260.195822
  6
CONTINUOUS
  0
ARC
  8
WHITE
 10
6.753663
 20
15.721864
 30
0.000000
 40
0.321023
 50
135.850105
 51
182.955245
  6
CONTINUOUS
  0
ARC
  8
WHITE
 10
6.740643
 20
15.730406
 30
0.000000
 40
0.305745
 50
48.713768
 51
135.299044
  6
CONTINUOUS
  0
ARC
  8
WHITE
 10
6.695151
 20
15.675055
 30
0.000000
 40
0.377361
 50
-3.505374
 51
49.068783
  6
CONTINUOUS
  0
ARC
  8
WHITE
 10
6.761483
 20
15.646347
 30
0.000000
 40
0.310374
 50
-94.866678
 51
1.040255
  6
CONTINUOUS
  0
ARC
  8
WHITE
 10
6.696468
 20
15.815527
 30
0.000000
 40
0.165521
 50
130.129375
 51
189.589001
  6
CONTINUOUS
  0
ARC
  8
WHITE
 10
7.091668
 20
15.863714
 30
0.000000
 40
0.563523
 50
-172.273856
 51
-141.714486
  6
CONTINUOUS
  0
ARC
  8
WHITE
 10
6.956527
 20
15.759765
 30
0.000000
 40
0.393048
 50
-141.402850
 51
-124.688658
  6
CONTINUOUS
  0
ARC
  8
WHITE
 10
6.825455
 20
15.554544
 30
0.000000
 40
0.149979
 50
-128.136622
 51
3.472864
  6
CONTINUOUS
  0
ARC
  8
WHITE
 10
6.399657
 20
15.511396
 30
0.000000
 40
0.577867
 50
5.186001
 51
27.195206
  6
CONTINUOUS
  0
ARC
  8
WHITE
 10
6.544550
 20
15.610638
 30
0.000000
 40
0.404237
 50
24.068059
 51
55.550360
  6
CONTINUOUS
  0
ARC
  8
WHITE
 10
6.682780
 20
15.819670
 30
0.000000
 40
0.153729
 50
53.963337
 51
127.222586
  6
CONTINUOUS
  0
LINE
  8
WHITE
 10
8.147808
 20
15.865421
 30
0.000000
 11
7.769293
 21
15.865421
 31
0.000000
  6
CONTINUOUS
  0
ARC
  8
WHITE
 10
18.495610
 20
11.199828
 30
0.000000
 40
11.697078
 50
156.492554
 51
157.469524
  6
CONTINUOUS
  0
ARC
  8
WHITE
 10
7.874581
 20
15.609173
 30
0.000000
 40
0.197164
 50
158.368860
 51
172.858056
  6
CONTINUOUS
  0
ARC
  8
WHITE
 10
7.731388
 20
15.628131
 30
0.000000
 40
0.052735
 50
173.953522
 51
255.376774
  6
CONTINUOUS
  0
ARC
  8
WHITE
 10
7.807390
 20
15.884308
 30
0.000000
 40
0.319924
 50
-106.211146
 51
-92.821171
  6
CONTINUOUS
  0
LINE
  8
WHITE
 10
7.791644
 20
15.564772
 30
0.000000
 11
7.791644
 21
15.538095
 31
0.000000
  6
CONTINUOUS
  0
LINE
  8
WHITE
 10
7.791644
 20
15.538095
 30
0.000000
 11
7.483785
 21
15.538095
 31
0.000000
  6
CONTINUOUS
  0
LINE
  8
WHITE
 10
7.483785
 20
15.538095
 30
0.000000
 11
7.483785
 21
15.564772
 31
0.000000
  6
CONTINUOUS
  0
ARC
  8
WHITE
 10
7.446688
 20
15.816499
 30
0.000000
 40
0.254446
 50
-81.616629
 51
-65.816487
  6
CONTINUOUS
  0
ARC
  8
WHITE
 10
7.372742
 20
15.788736
 30
0.000000
 40
0.271125
 50
-48.913664
 51
-21.156162
  6
CONTINUOUS
  0
ARC
  8
WHITE
 10
-270.290219
 20
135.229212
 30
0.000000
 40
302.533652
 50
-23.273712
 51
-23.099163
  6
CONTINUOUS
  0
LINE
  8
WHITE
 10
7.988471
 20
16.538095
 30
0.000000
 11
8.013706
 21
16.538095
 31
0.000000
  6
CONTINUOUS
  0
LINE
  8
WHITE
 10
8.013706
 20
16.538095
 30
0.000000
 11
8.341109
 21
15.755658
 31
0.000000
  6
CONTINUOUS
  0
ARC
  8
WHITE
 10
9.058139
 20
16.024855
 30
0.000000
 40
0.765898
 50
-159.422192
 51
-148.847927
  6
CONTINUOUS
  0
ARC
  8
WHITE
 10
8.518304
 20
15.701241
 30
0.000000
 40
0.136519
 50
-147.876394
 51
-88.449888
  6
CONTINUOUS
  0
LINE
  8
WHITE
 10
8.521997
 20
15.564772
 30
0.000000
 11
8.521997
 21
15.538095
 31
0.000000
  6
CONTINUOUS
  0
LINE
  8
WHITE
 10
8.521997
 20
15.538095
 30
0.000000
 11
8.136272
 21
15.538095
 31
0.000000
  6
CONTINUOUS
  0
LINE
  8
WHITE
 10
8.136272
 20
15.538095
 30
0.000000
 11
8.136272
 21
15.564772
 31
0.000000
  6
CONTINUOUS
  0
ARC
  8
WHITE
 10
8.127305
 20
15.827291
 30
0.000000
 40
0.262672
 50
-88.043604
 51
-77.497804
  6
CONTINUOUS
  0
ARC
  8
WHITE
 10
8.179402
 20
15.626844
 30
0.000000
 40
0.056199
 50
-85.136030
 51
1.311578
  6
CONTINUOUS
  0
ARC
  8
WHITE
 10
7.806276
 20
15.556779
 30
0.000000
 40
0.435200
 50
9.436276
 51
26.128101
  6
CONTINUOUS
  0
LINE
  8
WHITE
 10
8.197003
 20
15.748432
 30
0.000000
 11
8.147808
 21
15.865421
 31
0.000000
  6
CONTINUOUS
  0
LINE
  8
WHITE
 10
7.961795
 20
16.313871
 30
0.000000
 11
7.791644
 21
15.918773
 31
0.000000
  6
CONTINUOUS
  0
LINE
  8
WHITE
 10
7.791644
 20
15.918773
 30
0.000000
 11
8.127621
 21
15.918773
 31
0.000000
  6
CONTINUOUS
  0
LINE
  8
WHITE
 10
8.127621
 20
15.918773
 30
0.000000
 11
7.961795
 21
16.313871
 31
0.000000
  6
CONTINUOUS
  0
LINE
  8
WHITE
 10
10.250669
 20
15.502924
 30
0.000000
 11
10.238967
 21
15.628893
 31
0.000000
  6
CONTINUOUS
  0
LINE
  8
WHITE
 10
10.238967
 20
15.628893
 30
0.000000
 11
9.877971
 21
15.742714
 31
0.000000
  6
CONTINUOUS
  0
ARC
  8
WHITE
 10
18.704870
 20
8.067594
 30
0.000000
 40
11.697077
 50
138.992554
 51
139.969524
  6
CONTINUOUS
  0
ARC
  8
WHITE
 10
9.901330
 20
15.466666
 30
0.000000
 40
0.197164
 50
140.868862
 51
155.358056
  6
CONTINUOUS
  0
ARC
  8
WHITE
 10
9.770465
 20
15.527805
 30
0.000000
 40
0.052735
 50
156.453519
 51
237.876776
  6
CONTINUOUS
  0
ARC
  8
WHITE
 10
9.919984
 20
15.749271
 30
0.000000
 40
0.319924
 50
-123.711146
 51
-110.321172
  6
CONTINUOUS
  0
LINE
  8
WHITE
 10
9.808880
 20
15.449259
 30
0.000000
 11
9.800858
 21
15.423818
 31
0.000000
  6
CONTINUOUS
  0
LINE
  8
WHITE
 10
9.800858
 20
15.423818
 30
0.000000
 11
9.507248
 21
15.516393
 31
0.000000
  6
CONTINUOUS
  0
LINE
  8
WHITE
 10
9.507248
 20
15.516393
 30
0.000000
 11
9.515270
 21
15.541834
 31
0.000000
  6
CONTINUOUS
  0
ARC
  8
WHITE
 10
9.555586
 20
15.793066
 30
0.000000
 40
0.254446
 50
-99.116629
 51
-83.316487
  6
CONTINUOUS
  0
ARC
  8
WHITE
 10
9.476714
 20
15.788824
 30
0.000000
 40
0.271125
 50
-66.413665
 51
-38.656162
  6
CONTINUOUS
  0
ARC
  8
WHITE
 10
-219.418862
 20
213.196220
 30
0.000000
 40
302.533846
 50
-40.773712
 51
-40.599163
  6
CONTINUOUS
  0
LINE
  8
WHITE
 10
10.289282
 20
16.318348
 30
0.000000
 11
10.313348
 21
16.310759
 31
0.000000
  6
CONTINUOUS
  0
LINE
  8
WHITE
 10
10.313348
 20
16.310759
 30
0.000000
 11
10.390315
 21
15.466083
 31
0.000000
  6
CONTINUOUS
  0
ARC
  8
WHITE
 10
11.155107
 20
15.507206
 30
0.000000
 40
0.765897
 50
-176.922192
 51
-166.347926
  6
CONTINUOUS
  0
ARC
  8
WHITE
 10
10.542945
 20
15.360901
 30
0.000000
 40
0.136519
 50
-165.376394
 51
-105.949890
  6
CONTINUOUS
  0
LINE
  8
WHITE
 10
10.505430
 20
15.229638
 30
0.000000
 11
10.497409
 21
15.204196
 31
0.000000
  6
CONTINUOUS
  0
LINE
  8
WHITE
 10
10.497409
 20
15.204196
 30
0.000000
 11
10.129537
 21
15.320186
 31
0.000000
  6
CONTINUOUS
  0
LINE
  8
WHITE
 10
10.129537
 20
15.320186
 30
0.000000
 11
10.137558
 21
15.345628
 31
0.000000
  6
CONTINUOUS
  0
ARC
  8
WHITE
 10
10.207947
 20
15.598693
 30
0.000000
 40
0.262672
 50
-105.543604
 51
-94.765029
  6
CONTINUOUS
  0
ARC
  8
WHITE
 10
10.197648
 20
15.391531
 30
0.000000
 40
0.055805
 50
-101.914691
 51
-15.128806
  6
CONTINUOUS
  0
ARC
  8
WHITE
 10
9.813817
 20
15.436996
 30
0.000000
 40
0.441799
 50
-7.809191
 51
8.582080
  6
CONTINUOUS
  0
LINE
  8
WHITE
 10
10.235757
 20
15.685846
 30
0.000000
 11
10.196415
 21
16.112522
 31
0.000000
  6
CONTINUOUS
  0
LINE
  8
WHITE
 10
10.196415
 20
16.112522
 30
0.000000
 11
9.915330
 21
15.786877
 31
0.000000
  6
CONTINUOUS
  0
LINE
  8
WHITE
 10
9.915330
 20
15.786877
 30
0.000000
 11
10.235757
 21
15.685846
 31
0.000000
  6
CONTINUOUS
  0
ARC
  8
WHITE
 10
6.793170
 20
4.736944
 30
0.000000
 40
0.471744
 50
-123.294374
 51
-99.844677
  6
CONTINUOUS
  0
ARC
  8
WHITE
 10
-25.124399
 20
41.927035
 30
0.000000
 40
49.310036
 50
-49.785743
 51
-49.190197
  6
CONTINUOUS
  0
ARC
  8
WHITE
 10
5.092391
 20
7.079929
 30
0.000000
 40
3.188112
 50
-50.920282
 51
-41.708286
  6
CONTINUOUS
  0
ARC
  8
WHITE
 10
7.180466
 20
4.863269
 30
0.000000
 40
0.307200
 50
18.109228
 51
42.821924
  6
CONTINUOUS
  0
ARC
  8
WHITE
 10
7.832584
 20
4.386397
 30
0.000000
 40
0.807661
 50
121.899714
 51
132.746076
  6
CONTINUOUS
  0
ARC
  8
WHITE
 10
7.145782
 20
5.087734
 30
0.000000
 40
0.175845
 50
-87.842290
 51
-37.981626
  6
CONTINUOUS
  0
LINE
  8
WHITE
 10
7.152402
 20
4.912014
 30
0.000000
 11
7.245802
 21
5.012085
 31
0.000000
  6
CONTINUOUS
  0
LINE
  8
WHITE
 10
7.245802
 20
5.012085
 30
0.000000
 11
7.019154
 21
4.845432
 31
0.000000
  6
CONTINUOUS
  0
LINE
  8
WHITE
 10
7.019154
 20
4.845432
 30
0.000000
 11
7.005822
 21
4.865430
 31
0.000000
  6
CONTINUOUS
  0
ARC
  8
WHITE
 10
6.666902
 20
5.220348
 30
0.000000
 40
0.490747
 50
-46.320858
 51
-33.802695
  6
CONTINUOUS
  0
ARC
  8
WHITE
 10
7.063870
 20
4.968047
 30
0.000000
 40
0.023376
 50
-62.418305
 51
67.958435
  6
CONTINUOUS
  0
ARC
  8
WHITE
 10
7.031911
 20
4.675531
 30
0.000000
 40
0.316812
 50
82.613331
 51
92.307757
  6
CONTINUOUS
  0
ARC
  8
WHITE
 10
198.127476
 20
-161.435834
 30
0.000000
 40
253.417923
 50
138.948811
 51
139.065367
  6
CONTINUOUS
  0
ARC
  8
WHITE
 10
7.536130
 20
3.778154
 30
0.000000
 40
1.188106
 50
136.033946
 51
148.446280
  6
CONTINUOUS
  0
ARC
  8
WHITE
 10
6.555682
 20
4.376173
 30
0.000000
 40
0.039826
 50
143.456892
 51
237.375761
  6
CONTINUOUS
  0
ARC
  8
WHITE
 10
4.172742
 20
9.655905
 30
0.000000
 40
0.483160
 50
85.016027
 51
88.263023
  6
CONTINUOUS
  0
ARC
  8
WHITE
 10
4.186781
 20
10.118852
 30
0.000000
 40
0.020000
 50
88.263024
 51
218.607193
  6
CONTINUOUS
  0
ARC
  8
WHITE
 10
6.127743
 20
11.668701
 30
0.000000
 40
2.503820
 50
-141.392806
 51
-106.468578
  6
CONTINUOUS
  0
ARC
  8
WHITE
 10
5.407697
 20
9.246427
 30
0.000000
 40
0.023518
 50
-78.439531
 51
64.189499
  6
CONTINUOUS
  0
ARC
  8
WHITE
 10
5.836530
 20
11.252797
 30
0.000000
 40
2.073254
 50
-133.234394
 51
-101.804177
  6
CONTINUOUS
  0
ARC
  8
WHITE
 10
7.828830
 20
13.512706
 30
0.000000
 40
5.085339
 50
-140.767243
 51
-132.147107
  6
CONTINUOUS
  0
ARC
  8
WHITE
 10
5.723671
 20
11.884667
 30
0.000000
 40
2.426050
 50
-157.173805
 51
-139.104287
  6
CONTINUOUS
  0
ARC
  8
WHITE
 10
3.677171
 20
11.026624
 30
0.000000
 40
0.206976
 50
-165.623338
 51
-156.324874
  6
CONTINUOUS
  0
ARC
  8
WHITE
 10
3.496050
 20
10.980199
 30
0.000000
 40
0.020000
 50
47.442500
 51
194.376662
  6
CONTINUOUS
  0
ARC
  8
WHITE
 10
2.142279
 20
9.505791
 30
0.000000
 40
2.021643
 50
40.420627
 51
47.442499
  6
CONTINUOUS
  0
ARC
  8
WHITE
 10
24.371766
 20
27.871891
 30
0.000000
 40
26.813713
 50
-140.500940
 51
-138.687399
  6
CONTINUOUS
  0
ARC
  8
WHITE
 10
4.216455
 20
10.157163
 30
0.000000
 40
0.020000
 50
-94.983974
 51
41.312600
  6
CONTINUOUS
  0
LINE
  8
WHITE
 10
5.474838
 20
15.900359
 30
0.000000
 11
5.484180
 21
15.875372
 31
0.000000
  6
CONTINUOUS
  0
ARC
  8
WHITE
 10
5.530918
 20
15.691143
 30
0.000000
 40
0.190065
 50
104.235331
 51
128.888700
  6
CONTINUOUS
  0
ARC
  8
WHITE
 10
5.477639
 20
15.770785
 30
0.000000
 40
0.095008
 50
134.038948
 51
181.871530
  6
CONTINUOUS
  0
ARC
  8
WHITE
 10
6.115832
 20
15.919571
 30
0.000000
 40
0.748719
 50
-168.295487
 51
-156.539994
  6
CONTINUOUS
  0
LINE
  8
WHITE
 10
5.429003
 20
15.621499
 30
0.000000
 11
5.529961
 21
15.351475
 31
0.000000
  6
CONTINUOUS
  0
ARC
  8
WHITE
 10
4.693706
 20
14.991417
 30
0.000000
 40
0.910475
 50
7.422200
 51
23.294794
  6
CONTINUOUS
  0
ARC
  8
WHITE
 10
5.303635
 20
15.092959
 30
0.000000
 40
0.293358
 50
-39.953878
 51
3.140720
  6
CONTINUOUS
  0
ARC
  8
WHITE
 10
5.226391
 20
15.167079
 30
0.000000
 40
0.400232
 50
-68.633667
 51
-40.986648
  6
CONTINUOUS
  0
ARC
  8
WHITE
 10
5.102102
 20
15.411601
 30
0.000000
 40
0.673759
 50
-80.736759
 51
-66.365879
  6
CONTINUOUS
  0
ARC
  8
WHITE
 10
5.158696
 20
15.039069
 30
0.000000
 40
0.297003
 50
-136.994913
 51
-79.943802
  6
CONTINUOUS
  0
ARC
  8
WHITE
 10
5.500856
 20
15.256865
 30
0.000000
 40
0.699708
 50
-161.216245
 51
-143.074138
  6
CONTINUOUS
  0
ARC
  8
WHITE
 10
213.107501
 20
93.166567
 30
0.000000
 40
222.443458
 50
-159.521423
 51
-159.435731
  6
CONTINUOUS
  0
ARC
  8
WHITE
 10
3.845731
 20
15.059990
 30
0.000000
 40
0.920678
 50
17.911132
 51
28.255422
  6
CONTINUOUS
  0
ARC
  8
WHITE
 10
4.593028
 20
15.460542
 30
0.000000
 40
0.072808
 50
29.001494
 51
94.590033
  6
CONTINUOUS
  0
ARC
  8
WHITE
 10
4.618797
 20
15.273274
 30
0.000000
 40
0.261756
 50
96.933010
 51
115.123286
  6
CONTINUOUS
  0
LINE
  8
WHITE
 10
4.507664
 20
15.510267
 30
0.000000
 11
4.498322
 21
15.535254
 31
0.000000
  6
CONTINUOUS
  0
LINE
  8
WHITE
 10
4.498322
 20
15.535254
 30
0.000000
 11
4.894061
 21
15.683215
 31
0.000000
  6
CONTINUOUS
  0
LINE
  8
WHITE
 10
4.894061
 20
15.683215
 30
0.000000
 11
4.903403
 21
15.658228
 31
0.000000
  6
CONTINUOUS
  0
ARC
  8
WHITE
 10
4.956826
 20
15.451138
 30
0.000000
 40
0.213870
 50
104.465180
 51
124.209431
  6
CONTINUOUS
  0
ARC
  8
WHITE
 10
4.875065
 20
15.562236
 30
0.000000
 40
0.076200
 50
120.330968
 51
174.032052
  6
CONTINUOUS
  0
ARC
  8
WHITE
 10
5.243092
 20
15.614125
 30
0.000000
 40
0.445987
 50
-174.342532
 51
-156.606758
  6
CONTINUOUS
  0
ARC
  8
WHITE
 10
-19.204894
 20
6.241698
 30
0.000000
 40
25.737358
 50
20.355648
 51
20.933027
  6
CONTINUOUS
  0
ARC
  8
WHITE
 10
6.672793
 20
15.780784
 30
0.000000
 40
1.843359
 50
-161.449780
 51
-154.395611
  6
CONTINUOUS
  0
ARC
  8
WHITE
 10
5.255793
 20
15.072954
 30
0.000000
 40
0.260911
 50
-160.105333
 51
-116.480035
  6
CONTINUOUS
  0
ARC
  8
WHITE
 10
5.228408
 20
15.062936
 30
0.000000
 40
0.240570
 50
-111.700413
 51
-70.348231
  6
CONTINUOUS
  0
ARC
  8
WHITE
 10
5.221715
 20
15.149211
 30
0.000000
 40
0.324867
 50
-74.357000
 51
-20.764556
  6
CONTINUOUS
  0
ARC
  8
WHITE
 10
5.315944
 20
15.091499
 30
0.000000
 40
0.217273
 50
-15.335450
 51
14.739083
  6
CONTINUOUS
  0
ARC
  8
WHITE
 10
4.409663
 20
14.899356
 30
0.000000
 40
1.143493
 50
12.496096
 51
22.494944
  6
CONTINUOUS
  0
ARC
  8
WHITE
 10
101.015538
 20
51.141202
 30
0.000000
 40
102.037427
 50
-159.626054
 51
-159.457981
  6
CONTINUOUS
  0
ARC
  8
WHITE
 10
4.807271
 20
15.445742
 30
0.000000
 40
0.580205
 50
17.198703
 51
31.973523
  6
CONTINUOUS
  0
ARC
  8
WHITE
 10
5.244142
 20
15.701397
 30
0.000000
 40
0.075630
 50
42.999186
 51
99.689774
  6
CONTINUOUS
  0
ARC
  8
WHITE
 10
5.281498
 20
15.483818
 30
0.000000
 40
0.296392
 50
99.728752
 51
114.194510
  6
CONTINUOUS
  0
LINE
  8
WHITE
 10
5.160026
 20
15.754175
 30
0.000000
 11
5.150683
 21
15.779162
 31
0.000000
  6
CONTINUOUS
  0
LINE
  8
WHITE
 10
5.150683
 20
15.779162
 30
0.000000
 11
5.474838
 21
15.900359
 31
0.000000
  6
CONTINUOUS
  0
ARC
  8
WHITE
 10
6.351967
 20
6.645549
 30
0.000000
 40
0.068494
 50
10.997632
 51
67.902867
  6
CONTINUOUS
  0
ARC
  8
WHITE
 10
6.409345
 20
6.039831
 30
0.000000
 40
0.669927
 50
92.704627
 51
113.063681
  6
CONTINUOUS
  0
ARC
  8
WHITE
 10
6.023593
 20
6.992003
 30
0.000000
 40
0.357716
 50
-108.079847
 51
-69.836328
  6
CONTINUOUS
  0
ARC
  8
WHITE
 10
6.551043
 20
5.128284
 30
0.000000
 40
1.652027
 50
105.387379
 51
112.735243
  6
CONTINUOUS
  0
ARC
  8
WHITE
 10
5.994994
 20
7.165270
 30
0.000000
 40
0.459506
 50
-75.159393
 51
-48.876264
  6
CONTINUOUS
  0
LINE
  8
WHITE
 10
6.297206
 20
6.819128
 30
0.000000
 11
5.809613
 21
6.720746
 31
0.000000
  6
CONTINUOUS
  0
ARC
  8
WHITE
 10
5.688322
 20
7.347921
 30
0.000000
 40
0.638796
 50
-95.791319
 51
-79.054587
  6
CONTINUOUS
  0
ARC
  8
WHITE
 10
5.108430
 20
3.240853
 30
0.000000
 40
3.509589
 50
81.554724
 51
82.886547
  6
CONTINUOUS
  0
ARC
  8
WHITE
 10
5.566786
 20
6.620400
 30
0.000000
 40
0.105729
 50
102.979978
 51
185.527122
  6
CONTINUOUS
  0
ARC
  8
WHITE
 10
5.655324
 20
6.590634
 30
0.000000
 40
0.194763
 50
174.229564
 51
253.029899
  6
CONTINUOUS
  0
ARC
  8
WHITE
 10
5.751339
 20
7.245417
 30
0.000000
 40
0.854844
 50
-100.300912
 51
-73.382406
  6
CONTINUOUS
  0
ARC
  8
WHITE
 10
5.598396
 20
7.754530
 30
0.000000
 40
1.386433
 50
-73.342816
 51
-56.765065
  6
CONTINUOUS
  0
ARC
  8
WHITE
 10
5.657849
 20
7.325531
 30
0.000000
 40
1.012145
 50
-46.210592
 51
-41.217047
  6
CONTINUOUS
  0
ARC
  8
WHITE
 10
6.135535
 20
7.472245
 30
0.000000
 40
0.350352
 50
-84.936714
 51
-50.500025
  6
CONTINUOUS
  0
ARC
  8
WHITE
 10
6.391076
 20
5.941660
 30
0.000000
 40
1.260669
 50
91.485895
 51
102.488156
  6
CONTINUOUS
  0
ARC
  8
WHITE
 10
5.780000
 20
9.402586
 30
0.000000
 40
2.255624
 50
-92.134611
 51
-81.369799
  6
CONTINUOUS
  0
ARC
  8
WHITE
 10
5.797461
 20
8.538618
 30
0.000000
 40
1.393789
 50
-100.709095
 51
-94.175170
  6
CONTINUOUS
  0
ARC
  8
WHITE
 10
5.390989
 20
6.239470
 30
0.000000
 40
0.941259
 50
80.985912
 51
85.217994
  6
CONTINUOUS
  0
ARC
  8
WHITE
 10
5.467069
 20
7.128629
 30
0.000000
 40
0.048882
 50
87.199593
 51
163.613200
  6
CONTINUOUS
  0
ARC
  8
WHITE
 10
5.596896
 20
7.082867
 30
0.000000
 40
0.186487
 50
161.377353
 51
236.500060
  6
CONTINUOUS
  0
ARC
  8
WHITE
 10
5.752061
 20
7.408054
 30
0.000000
 40
0.545602
 50
-118.232171
 51
-79.703912
  6
CONTINUOUS
  0
ARC
  8
WHITE
 10
5.716745
 20
8.160657
 30
0.000000
 40
1.296243
 50
-84.118203
 51
-67.906837
  6
CONTINUOUS
  0
ARC
  8
WHITE
 10
6.112727
 20
7.325430
 30
0.000000
 40
0.377120
 50
-75.949927
 51
-45.039520
  6
CONTINUOUS
  0
LINE
  8
WHITE
 10
6.379207
 20
7.058582
 30
0.000000
 11
6.379207
 21
7.078581
 31
0.000000
  6
CONTINUOUS
  0
ARC
  8
WHITE
 10
6.014271
 20
8.897306
 30
0.000000
 40
1.854977
 50
-95.827786
 51
-78.654012
  6
CONTINUOUS
  0
ARC
  8
WHITE
 10
5.957412
 20
6.863213
 30
0.000000
 40
0.229998
 50
89.883979
 51
124.869681
  6
CONTINUOUS
  0
ARC
  8
WHITE
 10
5.625671
 20
10.138031
 30
0.000000
 40
3.062890
 50
-83.773342
 51
-79.830532
  6
CONTINUOUS
  0
LINE
  8
WHITE
 10
5.788468
 20
15.699723
 30
0.000000
 11
5.817506
 21
15.710581
 31
0.000000
  6
CONTINUOUS
  0
LINE
  8
WHITE
 10
5.817506
 20
15.710581
 30
0.000000
 11
5.866490
 21
15.579568
 31
0.000000
  6
CONTINUOUS
  0
ARC
  8
WHITE
 10
6.388065
 20
15.406131
 30
0.000000
 40
0.549655
 50
147.455386
 51
161.606718
  6
CONTINUOUS
  0
ARC
  8
WHITE
 10
6.113741
 20
15.585060
 30
0.000000
 40
0.222176
 50
117.650749
 51
148.295673
  6
CONTINUOUS
  0
ARC
  8
WHITE
 10
6.082953
 20
15.647410
 30
0.000000
 40
0.152668
 50
40.054205
 51
118.275060
  6
CONTINUOUS
  0
ARC
  8
WHITE
 10
5.895956
 20
15.491756
 30
0.000000
 40
0.395969
 50
17.336910
 51
39.881634
  6
CONTINUOUS
  0
LINE
  8
WHITE
 10
6.273936
 20
15.609751
 30
0.000000
 11
6.355855
 21
15.390649
 31
0.000000
  6
CONTINUOUS
  0
ARC
  8
WHITE
 10
6.884171
 20
15.558243
 30
0.000000
 40
0.554262
 50
-162.399751
 51
-150.317410
  6
CONTINUOUS
  0
ARC
  8
WHITE
 10
6.452104
 20
15.315884
 30
0.000000
 40
0.058973
 50
-147.011699
 51
-90.190665
  6
CONTINUOUS
  0
ARC
  8
WHITE
 10
6.434425
 20
15.450481
 30
0.000000
 40
0.194357
 50
-84.839197
 51
-67.616133
  6
CONTINUOUS
  0
LINE
  8
WHITE
 10
6.508438
 20
15.270768
 30
0.000000
 11
6.517528
 21
15.246457
 31
0.000000
  6
CONTINUOUS
  0
LINE
  8
WHITE
 10
6.517528
 20
15.246457
 30
0.000000
 11
6.211607
 21
15.132077
 31
0.000000
  6
CONTINUOUS
  0
LINE
  8
WHITE
 10
6.211607
 20
15.132077
 30
0.000000
 11
6.202517
 21
15.156389
 31
0.000000
  6
CONTINUOUS
  0
LINE
  8
WHITE
 10
6.202517
 20
15.156389
 30
0.000000
 11
6.215348
 21
15.161186
 31
0.000000
  6
CONTINUOUS
  0
ARC
  8
WHITE
 10
6.152587
 20
15.337551
 30
0.000000
 40
0.187199
 50
-70.411498
 51
-58.342171
  6
CONTINUOUS
  0
ARC
  8
WHITE
 10
6.223210
 20
15.227660
 30
0.000000
 40
0.056646
 50
-60.808649
 51
-21.072110
  6
CONTINUOUS
  0
ARC
  8
WHITE
 10
6.201128
 20
15.234772
 30
0.000000
 40
0.079819
 50
-20.136812
 51
7.179680
  6
CONTINUOUS
  0
ARC
  8
WHITE
 10
5.870618
 20
15.146801
 30
0.000000
 40
0.421248
 50
13.445192
 51
22.681511
  6
CONTINUOUS
  0
LINE
  8
WHITE
 10
6.259288
 20
15.309238
 30
0.000000
 11
6.164604
 21
15.562484
 31
0.000000
  6
CONTINUOUS
  0
ARC
  8
WHITE
 10
5.743465
 20
15.410788
 30
0.000000
 40
0.447627
 50
19.809264
 51
29.805353
  6
CONTINUOUS
  0
ARC
  8
WHITE
 10
5.968121
 20
15.539355
 30
0.000000
 40
0.188784
 50
29.837585
 51
43.168521
  6
CONTINUOUS
  0
ARC
  8
WHITE
 10
6.045523
 20
15.614120
 30
0.000000
 40
0.081195
 50
42.057189
 51
78.205794
  6
CONTINUOUS
  0
ARC
  8
WHITE
 10
6.046361
 20
15.596278
 30
0.000000
 40
0.098591
 50
80.802398
 51
112.510899
  6
CONTINUOUS
  0
ARC
  8
WHITE
 10
6.072614
 20
15.522777
 30
0.000000
 40
0.176585
 50
111.249476
 51
140.362802
  6
CONTINUOUS
  0
ARC
  8
WHITE
 10
6.196360
 20
15.421714
 30
0.000000
 40
0.336355
 50
140.552183
 51
159.460638
  6
CONTINUOUS
  0
LINE
  8
WHITE
 10
5.881387
 20
15.539724
 30
0.000000
 11
5.977157
 21
15.283577
 31
0.000000
  6
CONTINUOUS
  0
ARC
  8
WHITE
 10
7.650214
 20
15.872613
 30
0.000000
 40
1.773721
 50
-160.604274
 51
-156.188287
  6
CONTINUOUS
  0
ARC
  8
WHITE
 10
6.085982
 20
15.183810
 30
0.000000
 40
0.064563
 50
-154.980032
 51
-94.321349
  6
CONTINUOUS
  0
ARC
  8
WHITE
 10
6.062675
 20
15.336561
 30
0.000000
 40
0.217912
 50
-85.145208
 51
-67.194095
  6
CONTINUOUS
  0
LINE
  8
WHITE
 10
6.147140
 20
15.135685
 30
0.000000
 11
6.156230
 21
15.111373
 31
0.000000
  6
CONTINUOUS
  0
LINE
  8
WHITE
 10
6.156230
 20
15.111373
 30
0.000000
 11
5.850309
 21
14.996994
 31
0.000000
  6
CONTINUOUS
  0
LINE
  8
WHITE
 10
5.850309
 20
14.996994
 30
0.000000
 11
5.841219
 21
15.021305
 31
0.000000
  6
CONTINUOUS
  0
ARC
  8
WHITE
 10
5.822057
 20
15.117617
 30
0.000000
 40
0.098200
 50
-78.747583
 51
-27.729753
  6
CONTINUOUS
  0
ARC
  8
WHITE
 10
5.762065
 20
15.093381
 30
0.000000
 40
0.148472
 50
-8.309247
 51
21.277544
  6
CONTINUOUS
  0
ARC
  8
WHITE
 10
-19.922840
 20
5.707651
 30
0.000000
 40
27.494487
 50
20.079724
 51
20.640100
  6
CONTINUOUS
  0
ARC
  8
WHITE
 10
4.166597
 20
14.809708
 30
0.000000
 40
1.743031
 50
19.772995
 51
24.192794
  6
CONTINUOUS
  0
ARC
  8
WHITE
 10
5.701519
 20
15.507525
 30
0.000000
 40
0.057441
 50
16.685652
 51
83.514068
  6
CONTINUOUS
  0
ARC
  8
WHITE
 10
5.727461
 20
15.456678
 30
0.000000
 40
0.109660
 50
100.218274
 51
135.253366
  6
CONTINUOUS
  0
LINE
  8
WHITE
 10
5.649577
 20
15.533875
 30
0.000000
 11
5.630358
 21
15.554399
 31
0.000000
  6
CONTINUOUS
  0
LINE
  8
WHITE
 10
5.630358
 20
15.554399
 30
0.000000
 11
5.788468
 21
15.699723
 31
0.000000
  6
CONTINUOUS
  0
ARC
  8
WHITE
 10
3.834031
 20
13.670950
 30
0.000000
 40
0.020000
 50
-49.141592
 51
-1.476624
  6
CONTINUOUS
  0
ARC
  8
WHITE
 10
5.002498
 20
13.640830
 30
0.000000
 40
1.148855
 50
155.969462
 51
178.523377
  6
CONTINUOUS
  0
ARC
  8
WHITE
 10
3.930414
 20
14.081564
 30
0.000000
 40
0.035421
 50
-14.889674
 51
49.930093
  6
CONTINUOUS
  0
LINE
  8
WHITE
 10
3.964646
 20
14.072462
 30
0.000000
 11
4.002786
 21
13.825248
 31
0.000000
  6
CONTINUOUS
  0
ARC
  8
WHITE
 10
4.022552
 20
13.828297
 30
0.000000
 40
0.020000
 50
-171.229732
 51
-51.159108
  6
CONTINUOUS
  0
ARC
  8
WHITE
 10
8.396342
 20
8.396342
 30
0.000000
 40
6.953964
 50
127.621880
 51
128.840892
  6
CONTINUOUS
  0
ARC
  8
WHITE
 10
12.231254
 20
15.592313
 30
0.000000
 40
8.254390
 50
-172.348109
 51
-168.199663
  6
CONTINUOUS
  0
ARC
  8
WHITE
 10
4.030545
 20
14.490544
 30
0.000000
 40
0.020000
 50
7.651891
 51
133.486334
  6
CONTINUOUS
  0
ARC
  8
WHITE
 10
4.562523
 20
13.929689
 30
0.000000
 40
0.793020
 50
133.486333
 51
156.886374
  6
CONTINUOUS
  0
ARC
  8
WHITE
 10
4.968932
 20
13.748331
 30
0.000000
 40
1.238021
 50
156.550323
 51
173.325471
  6
CONTINUOUS
  0
ARC
  8
WHITE
 10
6.176580
 20
13.628875
 30
0.000000
 40
2.451464
 50
173.833054
 51
180.846553
  6
CONTINUOUS
  0
ARC
  8
WHITE
 10
3.745381
 20
13.592951
 30
0.000000
 40
0.020000
 50
-179.153447
 51
-48.171483
  6
CONTINUOUS
  0
ARC
  8
WHITE
 10
8.396342
 20
8.396342
 30
0.000000
 40
6.953964
 50
130.858410
 51
131.828518
  6
CONTINUOUS
  0
ARC
  8
WHITE
 10
5.279295
 20
8.444694
 30
0.000000
 40
2.253564
 50
-70.601731
 51
-60.396653
  6
CONTINUOUS
  0
ARC
  8
WHITE
 10
5.591203
 20
7.662486
 30
0.000000
 40
1.412584
 50
-84.209337
 51
-71.997358
  6
CONTINUOUS
  0
ARC
  8
WHITE
 10
5.784786
 20
5.893296
 30
0.000000
 40
0.367379
 50
97.989303
 51
106.792473
  6
CONTINUOUS
  0
ARC
  8
WHITE
 10
5.702430
 20
6.186671
 30
0.000000
 40
0.063000
 50
112.179421
 51
207.938057
  6
CONTINUOUS
  0
ARC
  8
WHITE
 10
5.826202
 20
6.193795
 30
0.000000
 40
0.183132
 50
-168.458661
 51
-110.605602
  6
CONTINUOUS
  0
ARC
  8
WHITE
 10
5.857631
 20
6.573121
 30
0.000000
 40
0.559025
 50
-99.875702
 51
-71.430418
  6
CONTINUOUS
  0
ARC
  8
WHITE
 10
5.553413
 20
7.477322
 30
0.000000
 40
1.513032
 50
-71.414091
 51
-60.893901
  6
CONTINUOUS
  0
ARC
  8
WHITE
 10
4.125492
 20
10.077774
 30
0.000000
 40
4.479714
 50
-61.115546
 51
-58.002743
  6
CONTINUOUS
  0
ARC
  8
WHITE
 10
6.434793
 20
6.296198
 30
0.000000
 40
0.066753
 50
-15.243510
 51
124.395065
  6
CONTINUOUS
  0
ARC
  8
WHITE
 10
27.673072
 20
-43.059263
 30
0.000000
 40
53.796555
 50
113.296524
 51
113.550576
  6
CONTINUOUS
  0
ARC
  8
WHITE
 10
5.966080
 20
6.735576
 30
0.000000
 40
0.523978
 50
-92.206146
 51
-66.119148
  6
CONTINUOUS
  0
ARC
  8
WHITE
 10
6.498857
 20
5.411039
 30
0.000000
 40
0.973276
 50
108.865863
 51
124.619928
  6
CONTINUOUS
  0
ARC
  8
WHITE
 10
5.861305
 20
7.212946
 30
0.000000
 40
0.938211
 50
-69.873113
 51
-53.513026
  6
CONTINUOUS
  0
LINE
  8
WHITE
 10
6.419203
 20
6.458632
 30
0.000000
 11
6.392539
 21
6.485296
 31
0.000000
  6
CONTINUOUS
  0
ARC
  8
WHITE
 10
7.001439
 20
0.794978
 30
0.000000
 40
0.273733
 50
-0.209228
 51
39.218808
  6
CONTINUOUS
  0
ARC
  8
WHITE
 10
6.875216
 20
0.682234
 30
0.000000
 40
0.442873
 50
40.194121
 51
64.563357
  6
CONTINUOUS
  0
LINE
  8
WHITE
 10
7.065436
 20
1.082175
 30
0.000000
 11
7.323261
 21
1.027372
 31
0.000000
  6
CONTINUOUS
  0
LINE
  8
WHITE
 10
7.323261
 20
1.027372
 30
0.000000
 11
7.385985
 21
1.322466
 31
0.000000
  6
CONTINUOUS
  0
LINE
  8
WHITE
 10
7.385985
 20
1.322466
 30
0.000000
 11
7.461426
 21
1.208730
 31
0.000000
  6
CONTINUOUS
  0
LINE
  8
WHITE
 10
7.461426
 20
1.208730
 30
0.000000
 11
7.398052
 21
0.910582
 31
0.000000
  6
CONTINUOUS
  0
LINE
  8
WHITE
 10
7.398052
 20
0.910582
 30
0.000000
 11
7.244090
 21
0.943307
 31
0.000000
  6
CONTINUOUS
  0
ARC
  8
WHITE
 10
5.735793
 20
-0.104795
 30
0.000000
 40
1.836704
 50
29.436423
 51
34.795101
  6
CONTINUOUS
  0
ARC
  8
WHITE
 10
7.151570
 20
0.707308
 30
0.000000
 40
0.204908
 50
-11.205423
 51
26.228192
  6
CONTINUOUS
  0
ARC
  8
WHITE
 10
7.040589
 20
0.716135
 30
0.000000
 40
0.315752
 50
-51.357889
 51
-8.862602
  6
CONTINUOUS
  0
ARC
  8
WHITE
 10
6.977136
 20
0.812636
 30
0.000000
 40
0.430882
 50
-99.503956
 51
-52.780731
  6
CONTINUOUS
  0
ARC
  8
WHITE
 10
6.951959
 20
0.793046
 30
0.000000
 40
0.407976
 50
-121.137076
 51
-96.469590
  6
CONTINUOUS
  0
ARC
  8
WHITE
 10
7.172884
 20
1.120305
 30
0.000000
 40
0.802571
 50
-135.093469
 51
-122.556072
  6
CONTINUOUS
  0
LINE
  8
WHITE
 10
6.604455
 20
0.553728
 30
0.000000
 11
6.586664
 21
0.470027
 31
0.000000
  6
CONTINUOUS
  0
LINE
  8
WHITE
 10
6.586664
 20
0.470027
 30
0.000000
 11
6.352666
 21
0.519764
 31
0.000000
  6
CONTINUOUS
  0
LINE
  8
WHITE
 10
6.352666
 20
0.519764
 30
0.000000
 11
6.223721
 21
0.646150
 31
0.000000
  6
CONTINUOUS
  0
LINE
  8
WHITE
 10
6.223721
 20
0.646150
 30
0.000000
 11
6.510261
 21
0.585244
 31
0.000000
  6
CONTINUOUS
  0
LINE
  8
WHITE
 10
6.510261
 20
0.585244
 30
0.000000
 11
6.519611
 21
0.629233
 31
0.000000
  6
CONTINUOUS
  0
ARC
  8
WHITE
 10
6.939060
 20
1.146259
 30
0.000000
 40
0.665773
 50
-129.051460
 51
-100.227943
  6
CONTINUOUS
  0
ARC
  8
WHITE
 10
6.910270
 20
0.972488
 30
0.000000
 40
0.489657
 50
-100.523156
 51
-71.141580
  6
CONTINUOUS
  0
ARC
  8
WHITE
 10
6.982534
 20
0.788873
 30
0.000000
 40
0.292681
 50
-72.910545
 51
0.999370
  6
CONTINUOUS
  0
ARC
  8
WHITE
 10
4.149167
 20
2.060669
 30
0.000000
 40
0.413038
 50
-150.148412
 51
-130.153953
  6
CONTINUOUS
  0
ARC
  8
WHITE
 10
4.676854
 20
2.640307
 30
0.000000
 40
1.196704
 50
-131.568548
 51
-107.412235
  6
CONTINUOUS
  0
ARC
  8
WHITE
 10
4.418470
 20
1.816316
 30
0.000000
 40
0.333151
 50
-107.417626
 51
-63.999195
  6
CONTINUOUS
  0
ARC
  8
WHITE
 10
4.430427
 20
1.772590
 30
0.000000
 40
0.288732
 50
-62.327744
 51
-37.289053
  6
CONTINUOUS
  0
ARC
  8
WHITE
 10
3.926000
 20
2.176394
 30
0.000000
 40
0.934820
 50
-38.249010
 51
-30.514775
  6
CONTINUOUS
  0
LINE
  8
WHITE
 10
4.731345
 20
1.701730
 30
0.000000
 11
4.899915
 21
1.982277
 31
0.000000
  6
CONTINUOUS
  0
LINE
  8
WHITE
 10
4.899915
 20
1.982277
 30
0.000000
 11
5.050361
 21
1.891880
 31
0.000000
  6
CONTINUOUS
  0
LINE
  8
WHITE
 10
5.050361
 20
1.891880
 30
0.000000
 11
5.146549
 21
2.051963
 31
0.000000
  6
CONTINUOUS
  0
LINE
  8
WHITE
 10
5.146549
 20
2.051963
 30
0.000000
 11
5.180315
 21
1.920184
 31
0.000000
  6
CONTINUOUS
  0
LINE
  8
WHITE
 10
5.180315
 20
1.920184
 30
0.000000
 11
5.083484
 21
1.759030
 31
0.000000
  6
CONTINUOUS
  0
LINE
  8
WHITE
 10
5.083484
 20
1.759030
 30
0.000000
 11
4.934644
 21
1.848462
 31
0.000000
  6
CONTINUOUS
  0
LINE
  8
WHITE
 10
4.934644
 20
1.848462
 30
0.000000
 11
4.832923
 21
1.679169
 31
0.000000
  6
CONTINUOUS
  0
ARC
  8
WHITE
 10
3.235233
 20
2.587323
 30
0.000000
 40
1.837759
 50
-35.001839
 51
-29.614629
  6
CONTINUOUS
  0
ARC
  8
WHITE
 10
4.417664
 20
1.788684
 30
0.000000
 40
0.411791
 50
-80.424463
 51
-38.350624
  6
CONTINUOUS
  0
ARC
  8
WHITE
 10
4.409554
 20
1.829660
 30
0.000000
 40
0.453546
 50
-108.934205
 51
-80.275225
  6
CONTINUOUS
  0
ARC
  8
WHITE
 10
4.554157
 20
2.254023
 30
0.000000
 40
0.901869
 50
-130.483580
 51
-108.875805
  6
CONTINUOUS
  0
ARC
  8
WHITE
 10
4.319633
 20
1.947147
 30
0.000000
 40
0.516623
 50
-151.666041
 51
-132.797219
  6
CONTINUOUS
  0
ARC
  8
WHITE
 10
6.239011
 20
2.943265
 30
0.000000
 40
2.679038
 50
-156.034529
 51
-152.396986
  6
CONTINUOUS
  0
ARC
  8
WHITE
 10
9.020062
 20
3.913585
 30
0.000000
 40
2.167476
 50
-74.131353
 51
-66.639030
  6
CONTINUOUS
  0
ARC
  8
WHITE
 10
6.952927
 20
8.994174
 30
0.000000
 40
7.652142
 50
-67.514257
 51
-63.805250
  6
CONTINUOUS
  0
ARC
  8
WHITE
 10
10.004469
 20
1.804359
 30
0.000000
 40
0.459518
 50
44.758713
 51
110.276185
  6
CONTINUOUS
  0
ARC
  8
WHITE
 10
9.944416
 20
1.958150
 30
0.000000
 40
0.294461
 50
109.685529
 51
159.560805
  6
CONTINUOUS
  0
ARC
  8
WHITE
 10
9.476607
 20
2.089265
 30
0.000000
 40
0.193959
 50
-46.375912
 51
-8.385364
  6
CONTINUOUS
  0
ARC
  8
WHITE
 10
5.252162
 20
5.693082
 30
0.000000
 40
5.745750
 50
-41.947407
 51
-40.666154
  6
CONTINUOUS
  0
ARC
  8
WHITE
 10
9.588842
 20
1.913036
 30
0.000000
 40
0.087642
 50
-136.173658
 51
-74.189559
  6
CONTINUOUS
  0
ARC
  8
WHITE
 10
5.547989
 20
7.507179
 30
0.000000
 40
0.147818
 50
105.496492
 51
169.399938
  6
CONTINUOUS
  0
ARC
  8
WHITE
 10
5.524631
 20
7.393624
 30
0.000000
 40
0.256508
 50
65.970320
 51
93.606692
  6
CONTINUOUS
  0
ARC
  8
WHITE
 10
5.838218
 20
8.069046
 30
0.000000
 40
0.488206
 50
-115.364336
 51
-93.538390
  6
CONTINUOUS
  0
ARC
  8
WHITE
 10
5.725859
 20
6.677744
 30
0.000000
 40
0.907758
 50
78.940899
 51
84.802776
  6
CONTINUOUS
  0
ARC
  8
WHITE
 10
5.880471
 20
7.487924
 30
0.000000
 40
0.083046
 50
12.015135
 51
76.408822
  6
CONTINUOUS
  0
LINE
  8
WHITE
 10
5.961697
 20
7.505212
 30
0.000000
 11
5.692958
 21
7.505677
 31
0.000000
  6
CONTINUOUS
  0
ARC
  8
WHITE
 10
5.812396
 20
7.542754
 30
0.000000
 40
0.125060
 50
-162.754414
 51
-103.015758
  6
CONTINUOUS
  0
ARC
  8
WHITE
 10
6.079725
 20
8.391616
 30
0.000000
 40
1.014689
 50
-106.930852
 51
-95.849111
  6
CONTINUOUS
  0
ARC
  8
WHITE
 10
5.904147
 20
6.827642
 30
0.000000
 40
0.559244
 50
62.476648
 51
82.585139
  6
CONTINUOUS
  0
LINE
  8
WHITE
 10
6.162579
 20
7.323592
 30
0.000000
 11
6.148342
 21
7.302236
 31
0.000000
  6
CONTINUOUS
  0
ARC
  8
WHITE
 10
5.862438
 20
8.040161
 30
0.000000
 40
0.791375
 50
-97.177114
 51
-68.821467
  6
CONTINUOUS
  0
ARC
  8
WHITE
 10
5.795288
 20
7.812302
 30
0.000000
 40
0.558217
 50
-123.399817
 51
-93.257741
  6
CONTINUOUS
  0
ARC
  8
WHITE
 10
5.576598
 20
7.499849
 30
0.000000
 40
0.177298
 50
168.772248
 51
240.019711
  6
CONTINUOUS
  0
ARC
  8
WHITE
 10
8.758144
 20
10.092531
 30
0.000000
 40
0.009506
 50
-127.599360
 51
37.599360
  6
CONTINUOUS
  0
ARC
  8
WHITE
 10
-4.823738
 20
5.321073
 30
0.000000
 40
14.404664
 50
19.368747
 51
25.231484
  6
CONTINUOUS
  0
ARC
  8
WHITE
 10
8.188528
 20
11.452917
 30
0.000000
 40
0.020000
 50
25.231485
 51
162.526636
  6
CONTINUOUS
  0
ARC
  8
WHITE
 10
8.232236
 20
11.439158
 30
0.000000
 40
0.065821
 50
162.526637
 51
183.434921
  6
CONTINUOUS
  0
ARC
  8
WHITE
 10
9.394895
 20
11.305524
 30
0.000000
 40
1.235190
 50
173.973049
 51
196.923623
  6
CONTINUOUS
  0
ARC
  8
WHITE
 10
12.169419
 20
12.218315
 30
0.000000
 40
4.155787
 50
-162.171822
 51
-157.378516
  6
CONTINUOUS
  0
ARC
  8
WHITE
 10
8.351814
 20
10.627520
 30
0.000000
 40
0.020000
 50
-157.378517
 51
11.357868
  6
CONTINUOUS
  0
ARC
  8
WHITE
 10
15.806685
 20
12.124981
 30
0.000000
 40
7.583781
 50
-171.557760
 51
-168.642135
  6
CONTINUOUS
  0
ARC
  8
WHITE
 10
-2.659636
 20
5.641248
 30
0.000000
 40
12.209239
 50
23.035275
 51
26.094871
  6
CONTINUOUS
  0
ARC
  8
WHITE
 10
10.093661
 20
11.006864
 30
0.000000
 40
1.627564
 50
-158.815061
 51
-145.499879
  6
CONTINUOUS
  0
ARC
  8
WHITE
 10
3.954441
 20
10.484890
 30
0.000000
 40
0.455914
 50
-111.969970
 51
-107.677348
  6
CONTINUOUS
  0
ARC
  8
WHITE
 10
3.773988
 20
10.050359
 30
0.000000
 40
0.015337
 50
49.863989
 51
176.456196
  6
CONTINUOUS
  0
ARC
  8
WHITE
 10
3.952228
 20
10.135931
 30
0.000000
 40
0.211240
 50
-156.383980
 51
-138.501944
  6
CONTINUOUS
  0
ARC
  8
WHITE
 10
6.019802
 20
11.641514
 30
0.000000
 40
2.768025
 50
-143.524084
 51
-102.405390
  6
CONTINUOUS
  0
ARC
  8
WHITE
 10
5.436473
 20
8.966171
 30
0.000000
 40
0.030252
 50
-111.969829
 51
57.747632
  6
CONTINUOUS
  0
ARC
  8
WHITE
 10
6.377905
 20
12.423496
 30
0.000000
 40
3.554294
 50
-124.312433
 51
-105.089630
  6
CONTINUOUS
  0
ARC
  8
WHITE
 10
5.054131
 20
10.435969
 30
0.000000
 40
1.166737
 50
-132.386292
 51
-125.637189
  6
CONTINUOUS
  0
ARC
  8
WHITE
 10
4.667524
 20
9.999876
 30
0.000000
 40
0.584071
 50
-139.954524
 51
-133.213009
  6
CONTINUOUS
  0
ARC
  8
WHITE
 10
4.238170
 20
9.648591
 30
0.000000
 40
0.030270
 50
135.610003
 51
234.047021
  6
CONTINUOUS
  0
ARC
  8
WHITE
 10
4.202248
 20
9.683757
 30
0.000000
 40
0.020000
 50
-44.389998
 51
39.908095
  6
CONTINUOUS
  0
ARC
  8
WHITE
 10
1.716708
 20
7.604926
 30
0.000000
 40
3.260285
 50
39.908095
 51
45.535634
  6
CONTINUOUS
  0
ARC
  8
WHITE
 10
3.557523
 20
9.465783
 30
0.000000
 40
0.642871
 50
46.453469
 51
59.864042
  6
CONTINUOUS
  0
ARC
  8
WHITE
 10
3.702504
 20
9.710432
 30
0.000000
 40
0.358511
 50
60.272911
 51
71.544100
  6
CONTINUOUS
  0
ARC
  8
WHITE
 10
11.680069
 20
12.320086
 30
0.000000
 40
3.208941
 50
-172.333984
 51
-162.390385
  6
CONTINUOUS
  0
ARC
  8
WHITE
 10
8.479987
 20
11.889350
 30
0.000000
 40
0.020000
 50
7.666014
 51
156.173016
  6
CONTINUOUS
  0
ARC
  8
WHITE
 10
8.746315
 20
11.771736
 30
0.000000
 40
0.311143
 50
156.173017
 51
175.202414
  6
CONTINUOUS
  0
ARC
  8
WHITE
 10
9.362537
 20
11.662903
 30
0.000000
 40
0.936039
 50
171.716552
 51
189.456505
  6
CONTINUOUS
  0
ARC
  8
WHITE
 10
14.730000
 20
12.030753
 30
0.000000
 40
6.312373
 50
-175.259796
 51
-171.316681
  6
CONTINUOUS
  0
ARC
  8
WHITE
 10
10.610237
 20
11.739449
 30
0.000000
 40
2.221109
 50
-162.667811
 51
-155.983227
  6
CONTINUOUS
  0
ARC
  8
WHITE
 10
8.599686
 20
10.843588
 30
0.000000
 40
0.020000
 50
-155.983228
 51
11.986224
  6
CONTINUOUS
  0
ARC
  8
WHITE
 10
12.614536
 20
11.695962
 30
0.000000
 40
4.084335
 50
-173.188863
 51
-168.013778
  6
CONTINUOUS
  0
ARC
  8
WHITE
 10
8.597295
 20
11.175881
 30
0.000000
 40
0.052329
 50
109.883762
 51
136.995499
  6
CONTINUOUS
  0
LINE
  8
WHITE
 10
8.579497
 20
11.225090
 30
0.000000
 11
8.590007
 21
11.219435
 31
0.000000
  6
CONTINUOUS
  0
ARC
  8
WHITE
 10
8.488256
 20
11.122553
 30
0.000000
 40
0.140497
 50
33.455037
 51
43.595932
  6
CONTINUOUS
  0
ARC
  8
WHITE
 10
8.256977
 20
10.968178
 30
0.000000
 40
0.418564
 50
23.665864
 51
33.632640
  6
CONTINUOUS
  0
ARC
  8
WHITE
 10
5.799695
 20
9.924850
 30
0.000000
 40
3.088140
 50
17.021768
 51
23.094937
  6
CONTINUOUS
  0
ARC
  8
WHITE
 10
12.177024
 20
11.857340
 30
0.000000
 40
3.575579
 50
-163.283213
 51
-157.889490
  6
CONTINUOUS
  0
ARC
  8
WHITE
 10
9.619521
 20
10.831261
 30
0.000000
 40
0.820034
 50
-157.050414
 51
-149.350307
  6
CONTINUOUS
  0
ARC
  8
WHITE
 10
9.113278
 20
10.531068
 30
0.000000
 40
0.231478
 50
-149.394792
 51
-140.368569
  6
CONTINUOUS
  0
ARC
  8
WHITE
 10
8.946450
 20
10.387297
 30
0.000000
 40
0.012086
 50
-161.293706
 51
-59.034203
  6
CONTINUOUS
  0
ARC
  8
WHITE
 10
6.075733
 20
9.686348
 30
0.000000
 40
2.958659
 50
13.497994
 51
21.451815
  6
CONTINUOUS
  0
ARC
  8
WHITE
 10
38.464114
 20
21.703795
 30
0.000000
 40
31.587933
 50
-160.864729
 51
-159.745578
  6
CONTINUOUS
  0
ARC
  8
WHITE
 10
6.260704
 20
5.950477
 30
0.000000
 40
0.011671
 50
-142.709253
 51
-53.107775
  6
CONTINUOUS
  0
ARC
  8
WHITE
 10
6.411297
 20
5.867603
 30
0.000000
 40
0.176938
 50
138.286922
 51
154.633023
  6
CONTINUOUS
  0
ARC
  8
WHITE
 10
13.211631
 20
-15.601786
 30
0.000000
 40
22.672942
 50
107.803726
 51
108.736384
  6
CONTINUOUS
  0
ARC
  8
WHITE
 10
5.940455
 20
5.773110
 30
0.000000
 40
0.097234
 50
96.911287
 51
178.659694
  6
CONTINUOUS
  0
ARC
  8
WHITE
 10
5.953838
 20
5.798850
 30
0.000000
 40
0.113052
 50
-168.020491
 51
-106.754314
  6
CONTINUOUS
  0
ARC
  8
WHITE
 10
6.021490
 20
6.009710
 30
0.000000
 40
0.334486
 50
-107.438811
 51
-71.161996
  6
CONTINUOUS
  0
ARC
  8
WHITE
 10
5.878837
 20
6.568278
 30
0.000000
 40
0.910327
 50
-74.017247
 51
-54.006315
  6
CONTINUOUS
  0
ARC
  8
WHITE
 10
4.093316
 20
9.113530
 30
0.000000
 40
4.019313
 50
-54.736234
 51
-50.204972
  6
CONTINUOUS
  0
ARC
  8
WHITE
 10
6.581656
 20
6.004681
 30
0.000000
 40
0.086690
 50
13.783237
 51
71.520530
  6
CONTINUOUS
  0
LINE
  8
WHITE
 10
6.609134
 20
6.086901
 30
0.000000
 11
6.285881
 21
5.938675
 31
0.000000
  6
CONTINUOUS
  0
LINE
  8
WHITE
 10
6.285881
 20
5.938675
 30
0.000000
 11
6.267710
 21
5.941143
 31
0.000000
  6
CONTINUOUS
  0
LINE
  8
WHITE
 10
6.522384
 20
5.662036
 30
0.000000
 11
6.518504
 21
5.667432
 31
0.000000
  6
CONTINUOUS
  0
ARC
  8
WHITE
 10
7.220164
 20
5.190443
 30
0.000000
 40
0.848436
 50
131.546278
 51
145.792104
  6
CONTINUOUS
  0
ARC
  8
WHITE
 10
6.218097
 20
6.258267
 30
0.000000
 40
0.616755
 50
-44.571288
 51
-35.664150
  6
CONTINUOUS
  0
ARC
  8
WHITE
 10
4.794916
 20
8.361055
 30
0.000000
 40
3.125074
 50
-59.515789
 51
-51.993599
  6
CONTINUOUS
  0
ARC
  8
WHITE
 10
5.412376
 20
7.423703
 30
0.000000
 40
2.004854
 50
-65.530496
 51
-61.133226
  6
CONTINUOUS
  0
ARC
  8
WHITE
 10
6.265218
 20
5.502474
 30
0.000000
 40
0.099018
 50
103.082591
 51
181.214391
  6
CONTINUOUS
  0
ARC
  8
WHITE
 10
6.306131
 20
5.534314
 30
0.000000
 40
0.143966
 50
-166.364847
 51
-72.747271
  6
CONTINUOUS
  0
ARC
  8
WHITE
 10
6.062169
 20
6.298412
 30
0.000000
 40
0.946062
 50
-72.361886
 51
-50.979366
  6
CONTINUOUS
  0
ARC
  8
WHITE
 10
5.477749
 20
7.003332
 30
0.000000
 40
1.861706
 50
-50.664551
 51
-45.226580
  6
CONTINUOUS
  0
ARC
  8
WHITE
 10
6.696093
 20
5.804150
 30
0.000000
 40
0.153673
 50
-52.821031
 51
12.986212
  6
CONTINUOUS
  0
ARC
  8
WHITE
 10
7.109949
 20
5.168080
 30
0.000000
 40
0.720739
 50
111.496764
 51
126.184563
  6
CONTINUOUS
  0
ARC
  8
WHITE
 10
6.104483
 20
6.627117
 30
0.000000
 40
1.051676
 50
-66.586362
 51
-56.533261
  6
CONTINUOUS
  0
ARC
  8
WHITE
 10
9.263019
 20
16.398729
 30
0.000000
 40
1.706718
 50
-18.136494
 51
-14.134104
  6
CONTINUOUS
  0
ARC
  8
WHITE
 10
10.798254
 20
16.013660
 30
0.000000
 40
0.123937
 50
-14.818760
 51
0.545623
  6
CONTINUOUS
  0
ARC
  8
WHITE
 10
10.883027
 20
16.017517
 30
0.000000
 40
0.039250
 50
-3.909946
 51
76.585967
  6
CONTINUOUS
  0
ARC
  8
WHITE
 10
10.858765
 20
15.925270
 30
0.000000
 40
0.134627
 50
75.649656
 51
96.604334
  6
CONTINUOUS
  0
LINE
  8
WHITE
 10
10.843281
 20
16.059004
 30
0.000000
 11
10.839180
 21
16.086756
 31
0.000000
  6
CONTINUOUS
  0
LINE
  8
WHITE
 10
10.839180
 20
16.086756
 30
0.000000
 11
11.051180
 21
16.104581
 31
0.000000
  6
CONTINUOUS
  0
LINE
  8
WHITE
 10
11.051180
 20
16.104581
 30
0.000000
 11
11.082122
 21
16.094825
 31
0.000000
  6
CONTINUOUS
  0
LINE
  8
WHITE
 10
11.082122
 20
16.094825
 30
0.000000
 11
10.818707
 21
15.259377
 31
0.000000
  6
CONTINUOUS
  0
ARC
  8
WHITE
 10
11.149223
 20
15.145282
 30
0.000000
 40
0.349656
 50
160.955146
 51
169.005960
  6
CONTINUOUS
  0
ARC
  8
WHITE
 10
10.873173
 20
15.188028
 30
0.000000
 40
0.071324
 50
160.391763
 51
219.678267
  6
CONTINUOUS
  0
ARC
  8
WHITE
 10
10.923628
 20
15.270701
 30
0.000000
 40
0.165943
 50
-129.409216
 51
-104.029707
  6
CONTINUOUS
  0
LINE
  8
WHITE
 10
10.883400
 20
15.109709
 30
0.000000
 11
10.875595
 21
15.084955
 31
0.000000
  6
CONTINUOUS
  0
LINE
  8
WHITE
 10
10.875595
 20
15.084955
 30
0.000000
 11
10.566857
 21
15.182299
 31
0.000000
  6
CONTINUOUS
  0
LINE
  8
WHITE
 10
10.566857
 20
15.182299
 30
0.000000
 11
10.574662
 21
15.207053
 31
0.000000
  6
CONTINUOUS
  0
ARC
  8
WHITE
 10
10.639238
 20
15.390213
 30
0.000000
 40
0.194210
 50
-109.420832
 51
-94.888253
  6
CONTINUOUS
  0
ARC
  8
WHITE
 10
10.620013
 20
15.267111
 30
0.000000
 40
0.070452
 50
-87.823081
 51
-12.813283
  6
CONTINUOUS
  0
ARC
  8
WHITE
 10
-40.954742
 20
32.042971
 30
0.000000
 40
54.304697
 50
-18.011550
 51
-17.329464
  6
CONTINUOUS
  0
ARC
  8
WHITE
 10
6.714223
 20
12.489606
 30
0.000000
 40
4.262635
 50
-117.398259
 51
-106.934434
  6
CONTINUOUS
  0
ARC
  8
WHITE
 10
4.755554
 20
8.501900
 30
0.000000
 40
0.203234
 50
90.811742
 51
103.525018
  6
CONTINUOUS
  0
ARC
  8
WHITE
 10
4.726199
 20
8.625500
 30
0.000000
 40
0.076197
 50
103.800198
 51
125.286882
  6
CONTINUOUS
  0
ARC
  8
WHITE
 10
4.708942
 20
8.651460
 30
0.000000
 40
0.045046
 50
126.443464
 51
162.352298
  6
CONTINUOUS
  0
ARC
  8
WHITE
 10
5.649919
 20
9.517652
 30
0.000000
 40
1.301877
 50
-139.091619
 51
-95.002037
  6
CONTINUOUS
  0
ARC
  8
WHITE
 10
5.538150
 20
8.240657
 30
0.000000
 40
0.020000
 50
-95.002036
 51
34.155293
  6
CONTINUOUS
  0
ARC
  8
WHITE
 10
5.500329
 20
8.214997
 30
0.000000
 40
0.065705
 50
34.155296
 51
65.783032
  6
CONTINUOUS
  0
ARC
  8
WHITE
 10
3.793885
 20
2.592122
 30
0.000000
 40
5.941283
 50
73.036980
 51
75.460948
  6
CONTINUOUS
  0
ARC
  8
WHITE
 10
5.546062
 20
9.175022
 30
0.000000
 40
0.871763
 50
-118.739078
 51
-107.399004
  6
CONTINUOUS
  0
ARC
  8
WHITE
 10
5.136516
 20
8.428180
 30
0.000000
 40
0.020000
 50
83.575870
 51
241.260924
  6
CONTINUOUS
  0
ARC
  8
WHITE
 10
5.070265
 20
7.839785
 30
0.000000
 40
0.612114
 50
70.073687
 51
83.575870
  6
CONTINUOUS
  0
ARC
  8
WHITE
 10
5.540022
 20
9.297094
 30
0.000000
 40
0.919696
 50
-106.495656
 51
-94.366419
  6
CONTINUOUS
  0
ARC
  8
WHITE
 10
5.470885
 20
8.395971
 30
0.000000
 40
0.015927
 50
-93.181459
 51
83.763173
  6
CONTINUOUS
  0
ARC
  8
WHITE
 10
5.663203
 20
10.096767
 30
0.000000
 40
1.525549
 50
-106.140053
 51
-101.008676
  6
CONTINUOUS
  0
ARC
  8
WHITE
 10
5.466379
 20
9.086315
 30
0.000000
 40
0.496107
 50
-100.979970
 51
-97.361120
  6
CONTINUOUS
  0
ARC
  8
WHITE
 10
5.413835
 20
8.624925
 30
0.000000
 40
0.032550
 50
-109.785863
 51
75.734097
  6
CONTINUOUS
  0
ARC
  8
WHITE
 10
5.779692
 20
10.426794
 30
0.000000
 40
1.806126
 50
-115.174788
 51
-101.427239
  6
CONTINUOUS
  0
ARC
  8
WHITE
 10
5.395532
 20
9.937999
 30
0.000000
 40
1.208452
 50
-130.736597
 51
-108.534259
  6
CONTINUOUS
  0
ARC
  8
WHITE
 10
4.614282
 20
9.029099
 30
0.000000
 40
0.010000
 50
91.030532
 51
222.574227
  6
CONTINUOUS
  0
ARC
  8
WHITE
 10
4.628159
 20
8.257626
 30
0.000000
 40
0.781598
 50
84.873013
 51
91.030531
  6
CONTINUOUS
  0
ARC
  8
WHITE
 10
4.699993
 20
9.041760
 30
0.000000
 40
0.006002
 50
-109.344003
 51
73.855942
  6
CONTINUOUS
  0
ARC
  8
WHITE
 10
7.658518
 20
13.961940
 30
0.000000
 40
5.735370
 50
-124.113575
 51
-121.034063
  6
CONTINUOUS
  0
ARC
  8
WHITE
 10
8.321171
 20
14.919656
 30
0.000000
 40
6.899938
 50
-125.552090
 51
-124.209133
  6
CONTINUOUS
  0
ARC
  8
WHITE
 10
4.216009
 20
9.212366
 30
0.000000
 40
0.132109
 50
45.106164
 51
101.275182
  6
CONTINUOUS
  0
ARC
  8
WHITE
 10
4.194090
 20
9.322312
 30
0.000000
 40
0.020000
 50
101.275181
 51
221.393125
  6
CONTINUOUS
  0
ARC
  8
WHITE
 10
5.913242
 20
10.837582
 30
0.000000
 40
2.311621
 50
-138.606874
 51
-116.002954
  6
CONTINUOUS
  0
ARC
  8
WHITE
 10
5.752545
 20
10.497894
 30
0.000000
 40
1.935872
 50
-116.135993
 51
-105.379763
  6
CONTINUOUS
  0
ARC
  8
WHITE
 10
8.158488
 20
10.432620
 30
0.000000
 40
0.020000
 50
28.864957
 51
189.174106
  6
CONTINUOUS
  0
ARC
  8
WHITE
 10
9.659041
 20
10.674961
 30
0.000000
 40
1.539997
 50
-170.825893
 51
-146.196308
  6
CONTINUOUS
  0
ARC
  8
WHITE
 10
8.367197
 20
9.809761
 30
0.000000
 40
0.014814
 50
-150.795692
 51
34.653662
  6
CONTINUOUS
  0
ARC
  8
WHITE
 10
10.369215
 20
11.148182
 30
0.000000
 40
2.422971
 50
-166.507057
 51
-146.263700
  6
CONTINUOUS
  0
ARC
  8
WHITE
 10
8.538936
 20
10.740757
 30
0.000000
 40
0.549017
 50
172.576047
 51
196.716404
  6
CONTINUOUS
  0
ARC
  8
WHITE
 10
8.014354
 20
10.809111
 30
0.000000
 40
0.020000
 50
26.517155
 51
172.576045
  6
CONTINUOUS
  0
ARC
  8
WHITE
 10
16.432789
 20
15.009535
 30
0.000000
 40
9.388167
 50
-153.482847
 51
-149.451875
  6
CONTINUOUS
  0
ARC
  8
WHITE
 10
-2.618464
 20
3.705633
 30
0.000000
 40
12.764270
 50
28.852376
 51
30.781197
  6
CONTINUOUS
  0
ARC
  8
WHITE
 10
8.543807
 20
9.855438
 30
0.000000
 40
0.020000
 50
-82.068195
 51
28.852378
  6
CONTINUOUS
  0
ARC
  8
WHITE
 10
8.537511
 20
9.900627
 30
0.000000
 40
0.065625
 50
-153.215109
 51
-82.068194
  6
CONTINUOUS
  0
ARC
  8
WHITE
 10
8.941000
 20
10.247270
 30
0.000000
 40
0.595861
 50
-151.151215
 51
-140.847711
  6
CONTINUOUS
  0
ARC
  8
WHITE
 10
13.207224
 20
12.405653
 30
0.000000
 40
5.376672
 50
-155.224541
 51
-152.941052
  6
CONTINUOUS
  0
ARC
  8
WHITE
 10
3.018633
 20
7.599368
 30
0.000000
 40
5.889022
 50
25.692355
 51
28.864958
  6
CONTINUOUS
  0
ARC
  8
WHITE
 10
11.175965
 20
15.177131
 30
0.000000
 40
0.189845
 50
-102.245743
 51
-31.838248
  6
CONTINUOUS
  0
ARC
  8
WHITE
 10
11.170943
 20
15.107448
 30
0.000000
 40
0.121086
 50
171.266051
 51
253.077619
  6
CONTINUOUS
  0
ARC
  8
WHITE
 10
11.716600
 20
15.016450
 30
0.000000
 40
0.674270
 50
159.652216
 51
170.663858
  6
CONTINUOUS
  0
LINE
  8
WHITE
 10
11.084405
 20
15.250906
 30
0.000000
 11
11.201346
 21
15.621796
 31
0.000000
  6
CONTINUOUS
  0
LINE
  8
WHITE
 10
11.201346
 20
15.621796
 30
0.000000
 11
11.101642
 21
15.653232
 31
0.000000
  6
CONTINUOUS
  0
LINE
  8
WHITE
 10
11.101642
 20
15.653232
 30
0.000000
 11
11.108797
 21
15.675923
 31
0.000000
  6
CONTINUOUS
  0
ARC
  8
WHITE
 10
11.068042
 20
16.000124
 30
0.000000
 40
0.326752
 50
-82.835124
 51
-54.353237
  6
CONTINUOUS
  0
ARC
  8
WHITE
 10
10.947739
 20
16.166833
 30
0.000000
 40
0.532336
 50
-54.288056
 51
-36.813930
  6
CONTINUOUS
  0
LINE
  8
WHITE
 10
11.373920
 20
15.847848
 30
0.000000
 11
11.395236
 21
15.841127
 31
0.000000
  6
CONTINUOUS
  0
LINE
  8
WHITE
 10
11.395236
 20
15.841127
 30
0.000000
 11
11.329978
 21
15.634156
 31
0.000000
  6
CONTINUOUS
  0
LINE
  8
WHITE
 10
11.329978
 20
15.634156
 30
0.000000
 11
11.477127
 21
15.587760
 31
0.000000
  6
CONTINUOUS
  0
LINE
  8
WHITE
 10
11.477127
 20
15.587760
 30
0.000000
 11
11.461951
 21
15.539627
 31
0.000000
  6
CONTINUOUS
  0
LINE
  8
WHITE
 10
11.461951
 20
15.539627
 30
0.000000
 11
11.314802
 21
15.586023
 31
0.000000
  6
CONTINUOUS
  0
LINE
  8
WHITE
 10
11.314802
 20
15.586023
 30
0.000000
 11
11.186021
 21
15.177582
 31
0.000000
  6
CONTINUOUS
  0
ARC
  8
WHITE
 10
11.436433
 20
15.093946
 30
0.000000
 40
0.264010
 50
161.530966
 51
173.250858
  6
CONTINUOUS
  0
ARC
  8
WHITE
 10
11.263710
 20
15.114204
 30
0.000000
 40
0.090103
 50
173.135454
 51
191.144485
  6
CONTINUOUS
  0
ARC
  8
WHITE
 10
11.232300
 20
15.110224
 30
0.000000
 40
0.058557
 50
-166.735069
 51
-106.309249
  6
CONTINUOUS
  0
ARC
  8
WHITE
 10
11.239689
 20
15.140338
 30
0.000000
 40
0.089544
 50
-105.436020
 51
-37.813998
  6
CONTINUOUS
  0
LINE
  8
WHITE
 10
11.310430
 20
15.085438
 30
0.000000
 11
11.337246
 21
15.076983
 31
0.000000
  6
CONTINUOUS
  0
LINE
  8
WHITE
 10
6.980026
 20
5.719274
 30
0.000000
 11
7.006541
 21
5.686130
 31
0.000000
  6
CONTINUOUS
  0
LINE
  8
WHITE
 10
7.006541
 20
5.686130
 30
0.000000
 11
6.805838
 21
5.472047
 31
0.000000
  6
CONTINUOUS
  0
ARC
  8
WHITE
 10
6.577386
 20
6.291388
 30
0.000000
 40
0.850594
 50
-74.420222
 51
-50.895475
  6
CONTINUOUS
  0
LINE
  8
WHITE
 10
7.113887
 20
5.631330
 30
0.000000
 11
7.152107
 21
5.612220
 31
0.000000
  6
CONTINUOUS
  0
ARC
  8
WHITE
 10
5.133556
 20
7.351755
 30
0.000000
 40
2.664682
 50
-48.478127
 51
-40.753920
  6
CONTINUOUS
  0
ARC
  8
WHITE
 10
6.531072
 20
5.803610
 30
0.000000
 40
0.579507
 50
-77.096810
 51
-50.460750
  6
CONTINUOUS
  0
ARC
  8
WHITE
 10
6.623482
 20
5.450881
 30
0.000000
 40
0.215346
 50
-106.978340
 51
-80.107772
  6
CONTINUOUS
  0
ARC
  8
WHITE
 10
6.578994
 20
5.305193
 30
0.000000
 40
0.063017
 50
173.023464
 51
253.027814
  6
CONTINUOUS
  0
ARC
  8
WHITE
 10
6.820274
 20
5.101122
 30
0.000000
 40
0.370324
 50
121.319057
 51
145.129202
  6
CONTINUOUS
  0
ARC
  8
WHITE
 10
5.166262
 20
7.329546
 30
0.000000
 40
2.406659
 50
-52.606909
 51
-47.080010
  6
CONTINUOUS
  0
ARC
  8
WHITE
 10
7.712120
 20
4.701125
 30
0.000000
 40
1.254029
 50
125.717831
 51
136.323695
  6
CONTINUOUS
  0
ARC
  8
WHITE
 10
7.340711
 20
5.755331
 30
0.000000
 40
0.809404
 50
88.024900
 51
106.474968
  6
CONTINUOUS
  0
ARC
  8
WHITE
 10
7.010779
 20
6.851568
 30
0.000000
 40
0.335438
 50
-117.119981
 51
-72.586002
  6
CONTINUOUS
  0
ARC
  8
WHITE
 10
7.860976
 20
1.208353
 30
0.000000
 40
5.437976
 50
98.232393
 51
100.629845
  6
CONTINUOUS
  0
ARC
  8
WHITE
 10
7.034651
 20
7.024214
 30
0.000000
 40
0.436531
 50
-83.730829
 51
-53.800636
  6
CONTINUOUS
  0
ARC
  8
WHITE
 10
7.246275
 20
6.362520
 30
0.000000
 40
0.312856
 50
81.509805
 51
111.465398
  6
CONTINUOUS
  0
ARC
  8
WHITE
 10
6.683366
 20
8.114054
 30
0.000000
 40
1.527674
 50
-83.665974
 51
-72.930433
  6
CONTINUOUS
  0
ARC
  8
WHITE
 10
6.513380
 20
3.979406
 30
0.000000
 40
2.638110
 50
82.627391
 51
87.274937
  6
CONTINUOUS
  0
ARC
  8
WHITE
 10
6.645844
 20
6.561984
 30
0.000000
 40
0.053018
 50
97.629367
 51
184.635874
  6
CONTINUOUS
  0
ARC
  8
WHITE
 10
6.708291
 20
6.561873
 30
0.000000
 40
0.115367
 50
-177.926437
 51
-107.887345
  6
CONTINUOUS
  0
ARC
  8
WHITE
 10
6.909500
 20
7.045784
 30
0.000000
 40
0.639126
 50
-111.731805
 51
-73.909449
  6
CONTINUOUS
  0
ARC
  8
WHITE
 10
6.824647
 20
7.493654
 30
0.000000
 40
1.093798
 50
-76.141555
 51
-60.996051
  6
CONTINUOUS
  0
LINE
  8
WHITE
 10
7.354997
 20
6.537033
 30
0.000000
 11
7.368607
 21
6.564254
 31
0.000000
  6
CONTINUOUS
  0
LINE
  8
WHITE
 10
6.258883
 20
10.317979
 30
0.000000
 11
5.813002
 21
10.778975
 31
0.000000
  6
CONTINUOUS
  0
ARC
  8
WHITE
 10
6.076258
 20
10.640471
 30
0.000000
 40
0.297468
 50
152.250234
 51
192.653734
  6
CONTINUOUS
  0
ARC
  8
WHITE
 10
6.364581
 20
10.669517
 30
0.000000
 40
0.586185
 50
-170.751603
 51
-139.959622
  6
CONTINUOUS
  0
ARC
  8
WHITE
 10
6.605285
 20
10.840241
 30
0.000000
 40
0.880629
 50
-141.530838
 51
-131.284108
  6
CONTINUOUS
  0
ARC
  8
WHITE
 10
6.186908
 20
10.316518
 30
0.000000
 40
0.213325
 50
-139.683559
 51
-97.456252
  6
CONTINUOUS
  0
ARC
  8
WHITE
 10
2.661467
 20
7.740632
 30
0.000000
 40
4.221911
 50
34.057351
 51
37.241604
  6
CONTINUOUS
  0
ARC
  8
WHITE
 10
6.225064
 20
10.480521
 30
0.000000
 40
0.274259
 50
173.486914
 51
222.385988
  6
CONTINUOUS
  0
LINE
  8
WHITE
 10
5.952575
 20
10.511630
 30
0.000000
 11
6.199222
 21
10.291648
 31
0.000000
  6
CONTINUOUS
  0
LINE
  8
WHITE
 10
6.199222
 20
10.291648
 30
0.000000
 11
6.232552
 21
10.291648
 31
0.000000
  6
CONTINUOUS
  0
LINE
  8
WHITE
 10
6.232552
 20
10.291648
 30
0.000000
 11
6.258883
 21
10.317979
 31
0.000000
  6
CONTINUOUS
  0
ARC
  8
WHITE
 10
6.297299
 20
6.208101
 30
0.000000
 40
1.362656
 50
-48.188884
 51
-37.567192
  6
CONTINUOUS
  0
ARC
  8
WHITE
 10
6.981158
 20
5.663646
 30
0.000000
 40
0.488872
 50
-35.854195
 51
-18.889419
  6
CONTINUOUS
  0
LINE
  8
WHITE
 10
7.443702
 20
5.505377
 30
0.000000
 11
7.399954
 21
5.505377
 31
0.000000
  6
CONTINUOUS
  0
ARC
  8
WHITE
 10
1.873778
 20
11.312795
 30
0.000000
 40
8.016528
 50
-47.562671
 51
-46.421495
  6
CONTINUOUS
  0
ARC
  8
WHITE
 10
6.854149
 20
5.860462
 30
0.000000
 40
0.631959
 50
-54.478993
 51
-47.240762
  6
CONTINUOUS
  0
ARC
  8
WHITE
 10
7.171800
 20
5.390894
 30
0.000000
 40
0.066765
 50
-109.766914
 51
-42.126795
  6
CONTINUOUS
  0
LINE
  8
WHITE
 10
7.149220
 20
5.328063
 30
0.000000
 11
7.292914
 21
5.504414
 31
0.000000
  6
CONTINUOUS
  0
ARC
  8
WHITE
 10
7.221237
 20
5.484530
 30
0.000000
 40
0.074384
 50
15.504959
 51
65.174347
  6
CONTINUOUS
  0
ARC
  8
WHITE
 10
5.887387
 20
6.592756
 30
0.000000
 40
1.716548
 50
-47.099668
 51
-37.321299
  6
CONTINUOUS
  0
ARC
  8
WHITE
 10
4.566421
 20
8.865884
 30
0.000000
 40
4.319991
 50
-56.270205
 51
-54.811691
  6
CONTINUOUS
  0
ARC
  8
WHITE
 10
7.082384
 20
5.101324
 30
0.000000
 40
0.207930
 50
124.298977
 51
150.794665
  6
CONTINUOUS
  0
ARC
  8
WHITE
 10
6.980154
 20
5.172216
 30
0.000000
 40
0.084956
 50
158.912811
 51
271.810601
  6
CONTINUOUS
  0
ARC
  8
WHITE
 10
6.957816
 20
5.429211
 30
0.000000
 40
0.342823
 50
-85.814336
 51
-43.679283
  6
CONTINUOUS
  0
ARC
  8
WHITE
 10
6.342586
 20
9.597680
 30
0.000000
 40
0.256597
 50
-22.767164
 51
30.556453
  6
CONTINUOUS
  0
ARC
  8
WHITE
 10
8.589793
 20
11.329184
 30
0.000000
 40
2.582448
 50
-144.341909
 51
-141.685687
  6
CONTINUOUS
  0
ARC
  8
WHITE
 10
6.605750
 20
9.901558
 30
0.000000
 40
0.138203
 50
164.563179
 51
214.261467
  6
CONTINUOUS
  0
ARC
  8
WHITE
 10
7.204997
 20
10.931779
 30
0.000000
 40
1.234268
 50
-126.401536
 51
-120.590660
  6
CONTINUOUS
  0
ARC
  8
WHITE
 10
6.656500
 20
10.033255
 30
0.000000
 40
0.182275
 50
-115.901882
 51
-84.959224
  6
CONTINUOUS
  0
ARC
  8
WHITE
 10
6.302617
 20
9.739405
 30
0.000000
 40
0.386564
 50
16.885203
 51
57.215056
  6
CONTINUOUS
  0
ARC
  8
WHITE
 10
6.381703
 20
9.915050
 30
0.000000
 40
0.198152
 50
48.910256
 51
78.343083
  6
CONTINUOUS
  0
ARC
  8
WHITE
 10
6.446735
 20
10.032555
 30
0.000000
 40
0.080537
 50
108.081109
 51
171.265346
  6
CONTINUOUS
  0
ARC
  8
WHITE
 10
6.853682
 20
9.919262
 30
0.000000
 40
0.502481
 50
165.533878
 51
236.888249
  6
CONTINUOUS
  0
ARC
  8
WHITE
 10
9.083252
 20
2.236151
 30
0.000000
 40
0.165907
 50
85.263973
 51
112.619994
  6
CONTINUOUS
  0
ARC
  8
WHITE
 10
9.107139
 20
2.347538
 30
0.000000
 40
0.054907
 50
19.246100
 51
100.693579
  6
CONTINUOUS
  0
ARC
  8
WHITE
 10
9.285159
 20
2.137678
 30
0.000000
 40
0.260552
 50
118.965709
 51
164.367342
  6
CONTINUOUS
  0
ARC
  8
WHITE
 10
9.274921
 20
2.202027
 30
0.000000
 40
0.240748
 50
178.604907
 51
215.522491
  6
CONTINUOUS
  0
ARC
  8
WHITE
 10
8.899250
 20
1.950456
 30
0.000000
 40
0.211607
 50
0.359529
 51
31.858333
  6
CONTINUOUS
  0
ARC
  8
WHITE
 10
9.078222
 20
1.967442
 30
0.000000
 40
0.036193
 50
-94.427473
 51
-25.633481
  6
CONTINUOUS
  0
ARC
  8
WHITE
 10
9.055799
 20
2.586887
 30
0.000000
 40
0.655824
 50
-114.964055
 51
-88.284875
  6
CONTINUOUS
  0
ARC
  8
WHITE
 10
10.368931
 20
1.465849
 30
0.000000
 40
1.674826
 50
150.843277
 51
161.678280
  6
CONTINUOUS
  0
ARC
  8
WHITE
 10
9.144640
 20
2.144250
 30
0.000000
 40
0.275177
 50
117.063334
 51
150.003323
  6
CONTINUOUS
  0
ARC
  8
WHITE
 10
-116.436422
 20
210.036775
 30
0.000000
 40
239.829040
 50
-59.727091
 51
-59.544364
  6
CONTINUOUS
  0
ARC
  8
WHITE
 10
4.469103
 20
4.087706
 30
0.000000
 40
1.175452
 50
-90.149702
 51
-48.630909
  6
CONTINUOUS
  0
ARC
  8
WHITE
 10
4.982612
 20
2.990767
 30
0.000000
 40
0.339846
 50
39.201718
 51
65.048335
  6
CONTINUOUS
  0
ARC
  8
WHITE
 10
6.761719
 20
6.233817
 30
0.000000
 40
0.032422
 50
91.020887
 51
184.437281
  6
CONTINUOUS
  0
ARC
  8
WHITE
 10
6.846049
 20
6.279870
 30
0.000000
 40
0.126358
 50
-157.398620
 51
-112.586737
  6
CONTINUOUS
  0
ARC
  8
WHITE
 10
7.015026
 20
6.717047
 30
0.000000
 40
0.595023
 50
-111.441244
 51
-77.989724
  6
CONTINUOUS
  0
ARC
  8
WHITE
 10
6.939879
 20
7.083076
 30
0.000000
 40
0.968681
 50
-78.147305
 51
-57.586456
  6
CONTINUOUS
  0
ARC
  8
WHITE
 10
7.393511
 20
6.199062
 30
0.000000
 40
0.093240
 50
45.280630
 51
107.118314
  6
CONTINUOUS
  0
ARC
  8
WHITE
 10
6.865763
 20
8.049369
 30
0.000000
 40
1.830880
 50
-78.862630
 51
-74.141774
  6
CONTINUOUS
  0
ARC
  8
WHITE
 10
7.172914
 20
6.470876
 30
0.000000
 40
0.222814
 50
-116.791075
 51
-77.952493
  6
CONTINUOUS
  0
ARC
  8
WHITE
 10
8.199667
 20
2.427521
 30
0.000000
 40
4.006296
 50
103.839822
 51
106.340982
  6
CONTINUOUS
  0
ARC
  8
WHITE
 10
7.088295
 20
6.907566
 30
0.000000
 40
0.609580
 50
-75.460638
 51
-67.007982
  6
CONTINUOUS
  0
ARC
  8
WHITE
 10
7.206797
 20
6.619013
 30
0.000000
 40
0.297684
 50
-66.310842
 51
-49.671765
  6
CONTINUOUS
  0
ARC
  8
WHITE
 10
7.396091
 20
6.405315
 30
0.000000
 40
0.013661
 50
-75.775846
 51
77.180031
  6
CONTINUOUS
  0
ARC
  8
WHITE
 10
6.523166
 20
8.562928
 30
0.000000
 40
2.316311
 50
-77.097060
 51
-67.779684
  6
CONTINUOUS
  0
ARC
  8
WHITE
 10
6.698963
 20
7.735438
 30
0.000000
 40
1.470520
 50
-87.576615
 51
-76.574147
  6
CONTINUOUS
  0
ARC
  8
WHITE
 10
6.250165
 20
8.969783
 30
0.000000
 40
0.581599
 50
-131.324540
 51
-121.032357
  6
CONTINUOUS
  0
ARC
  8
WHITE
 10
5.920379
 20
8.615135
 30
0.000000
 40
0.098427
 50
176.079319
 51
236.547765
  6
CONTINUOUS
  0
LINE
  8
WHITE
 10
5.822183
 20
8.621865
 30
0.000000
 11
5.593651
 21
8.843255
 31
0.000000
  6
CONTINUOUS
  0
ARC
  8
WHITE
 10
5.888355
 20
8.741369
 30
0.000000
 40
0.311820
 50
160.928527
 51
222.282767
  6
CONTINUOUS
  0
ARC
  8
WHITE
 10
6.211532
 20
9.020852
 30
0.000000
 40
0.739028
 50
-138.543630
 51
-112.735684
  6
CONTINUOUS
  0
ARC
  8
WHITE
 10
6.097645
 20
8.751490
 30
0.000000
 40
0.446581
 50
-112.615737
 51
-87.893719
  6
CONTINUOUS
  0
LINE
  8
WHITE
 10
6.114058
 20
8.305211
 30
0.000000
 11
6.125894
 21
8.358475
 31
0.000000
  6
CONTINUOUS
  0
ARC
  8
WHITE
 10
4.627869
 20
6.223027
 30
0.000000
 40
2.608489
 50
54.950184
 51
59.536684
  6
CONTINUOUS
  0
ARC
  8
WHITE
 10
7.039372
 20
5.497817
 30
0.000000
 40
1.361304
 50
84.500975
 51
91.295926
  6
CONTINUOUS
  0
ARC
  8
WHITE
 10
6.986154
 20
7.161199
 30
0.000000
 40
0.303256
 50
-116.285613
 51
-85.758274
  6
CONTINUOUS
  0
ARC
  8
WHITE
 10
6.876810
 20
6.854365
 30
0.000000
 40
0.042931
 50
84.866576
 51
125.535163
  6
CONTINUOUS
  0
ARC
  8
WHITE
 10
6.871301
 20
7.827910
 30
0.000000
 40
0.930833
 50
-89.424422
 51
-69.815922
  6
CONTINUOUS
  0
LINE
  8
WHITE
 10
7.192473
 20
6.954240
 30
0.000000
 11
7.192473
 21
6.985573
 31
0.000000
  6
CONTINUOUS
  0
LINE
  8
WHITE
 10
7.192473
 20
6.985573
 30
0.000000
 11
6.848281
 21
6.952859
 31
0.000000
  6
CONTINUOUS
  0
ARC
  8
WHITE
 10
6.815642
 20
7.884837
 30
0.000000
 40
0.932549
 50
-95.962159
 51
-87.994245
  6
CONTINUOUS
  0
ARC
  8
WHITE
 10
6.636972
 20
6.522077
 30
0.000000
 40
0.442876
 50
79.355716
 51
93.983577
  6
CONTINUOUS
  0
ARC
  8
WHITE
 10
6.626187
 20
6.904455
 30
0.000000
 40
0.062697
 50
108.584329
 51
199.322217
  6
CONTINUOUS
  0
ARC
  8
WHITE
 10
6.717527
 20
6.949434
 30
0.000000
 40
0.164230
 50
-156.409856
 51
-95.697918
  6
CONTINUOUS
  0
ARC
  8
WHITE
 10
6.885500
 20
7.495939
 30
0.000000
 40
0.733451
 50
-104.551410
 51
-63.855469
  6
CONTINUOUS
  0
ARC
  8
WHITE
 10
7.175703
 20
6.810829
 30
0.000000
 40
0.042437
 50
38.991989
 51
97.962182
  6
CONTINUOUS
  0
ARC
  8
WHITE
 10
5.433689
 20
8.034923
 30
0.000000
 40
0.052769
 50
71.495179
 51
174.168201
  6
CONTINUOUS
  0
ARC
  8
WHITE
 10
5.639089
 20
8.068500
 30
0.000000
 40
0.259436
 50
-173.756194
 51
-137.199307
  6
CONTINUOUS
  0
ARC
  8
WHITE
 10
5.811410
 20
8.185354
 30
0.000000
 40
0.466322
 50
-141.053524
 51
-79.955182
  6
CONTINUOUS
  0
LINE
  8
WHITE
 10
5.892745
 20
7.726180
 30
0.000000
 11
5.899266
 21
7.765309
 31
0.000000
  6
CONTINUOUS
  0
ARC
  8
WHITE
 10
5.559824
 20
7.458892
 30
0.000000
 40
0.457288
 50
42.072838
 51
68.387500
  6
CONTINUOUS
  0
ARC
  8
WHITE
 10
5.883691
 20
8.379095
 30
0.000000
 40
0.518892
 50
-130.609729
 51
-107.430669
  6
CONTINUOUS
  0
LINE
  8
WHITE
 10
5.545942
 20
7.985172
 30
0.000000
 11
5.655370
 21
8.012233
 31
0.000000
  6
CONTINUOUS
  0
ARC
  8
WHITE
 10
5.557115
 20
7.970174
 30
0.000000
 40
0.106878
 50
23.173745
 51
89.407550
  6
CONTINUOUS
  0
LINE
  8
WHITE
 10
5.558221
 20
8.077047
 30
0.000000
 11
5.450437
 21
8.084963
 31
0.000000
  6
CONTINUOUS
  0
ARC
  8
WHITE
 10
4.697350
 20
7.629863
 30
0.000000
 40
1.729497
 50
40.153588
 51
47.885020
  6
CONTINUOUS
  0
ARC
  8
WHITE
 10
6.319575
 20
9.408774
 30
0.000000
 40
0.678078
 50
-142.858851
 51
-132.993232
  6
CONTINUOUS
  0
ARC
  8
WHITE
 10
5.879487
 20
9.092898
 30
0.000000
 40
0.137248
 50
174.612071
 51
222.960582
  6
CONTINUOUS
  0
ARC
  8
WHITE
 10
5.752067
 20
9.107284
 30
0.000000
 40
0.009343
 50
91.604302
 51
189.234245
  6
CONTINUOUS
  0
ARC
  8
WHITE
 10
5.521308
 20
8.750912
 30
0.000000
 40
0.432289
 50
46.030963
 51
57.778011
  6
CONTINUOUS
  0
ARC
  8
WHITE
 10
6.541022
 20
9.793215
 30
0.000000
 40
1.025880
 50
-134.542330
 51
-119.283331
  6
CONTINUOUS
  0
ARC
  8
WHITE
 10
5.951882
 20
8.880815
 30
0.000000
 40
0.089111
 50
11.400842
 51
64.900472
  6
CONTINUOUS
  0
ARC
  8
WHITE
 10
6.966009
 20
10.247785
 30
0.000000
 40
1.614841
 50
-148.264858
 51
-127.199788
  6
CONTINUOUS
  0
ARC
  8
WHITE
 10
5.871859
 20
9.282380
 30
0.000000
 40
0.302392
 50
157.440759
 51
198.831283
  6
CONTINUOUS
  0
ARC
  8
WHITE
 10
6.209267
 20
9.344827
 30
0.000000
 40
0.643825
 50
-165.605379
 51
-136.365333
  6
CONTINUOUS
  0
ARC
  8
WHITE
 10
6.334986
 20
9.450225
 30
0.000000
 40
0.807614
 50
-137.108216
 51
-125.454725
  6
CONTINUOUS
  0
ARC
  8
WHITE
 10
5.999126
 20
8.950511
 30
0.000000
 40
0.206384
 50
-129.979179
 51
-84.407959
  6
CONTINUOUS
  0
LINE
  8
WHITE
 10
12.992814
 20
1.686946
 30
0.000000
 11
12.469733
 21
1.372647
 31
0.000000
  6
CONTINUOUS
  0
LINE
  8
WHITE
 10
12.469733
 20
1.372647
 30
0.000000
 11
12.292981
 21
1.379391
 31
0.000000
  6
CONTINUOUS
  0
LINE
  8
WHITE
 10
12.292981
 20
1.379391
 30
0.000000
 11
12.858894
 21
1.719426
 31
0.000000
  6
CONTINUOUS
  0
LINE
  8
WHITE
 10
12.858894
 20
1.719426
 30
0.000000
 11
12.762706
 21
1.879509
 31
0.000000
  6
CONTINUOUS
  0
LINE
  8
WHITE
 10
12.762706
 20
1.879509
 30
0.000000
 11
12.882793
 21
1.870051
 31
0.000000
  6
CONTINUOUS
  0
LINE
  8
WHITE
 10
12.882793
 20
1.870051
 30
0.000000
 11
12.992814
 21
1.686946
 31
0.000000
  6
CONTINUOUS
  0
ARC
  8
WHITE
 10
6.887975
 20
6.559035
 30
0.000000
 40
0.589144
 50
75.772317
 51
79.309846
  6
CONTINUOUS
  0
LINE
  8
WHITE
 10
6.997260
 20
7.137954
 30
0.000000
 11
6.965676
 21
7.143891
 31
0.000000
  6
CONTINUOUS
  0
ARC
  8
WHITE
 10
7.040943
 20
7.548462
 30
0.000000
 40
0.411512
 50
-105.248294
 51
-100.538832
  6
CONTINUOUS
  0
ARC
  8
WHITE
 10
6.984158
 20
7.340859
 30
0.000000
 40
0.196284
 50
-115.012889
 51
-105.194027
  6
CONTINUOUS
  0
ARC
  8
WHITE
 10
7.187870
 20
7.847563
 30
0.000000
 40
0.742191
 50
-115.505256
 51
-112.724256
  6
CONTINUOUS
  0
ARC
  8
WHITE
 10
6.867556
 20
7.187944
 30
0.000000
 40
0.010269
 50
155.265273
 51
274.084411
  6
CONTINUOUS
  0
ARC
  8
WHITE
 10
6.959672
 20
6.921312
 30
0.000000
 40
0.289298
 50
83.118819
 51
110.527291
  6
CONTINUOUS
  0
ARC
  8
WHITE
 10
6.981407
 20
7.467839
 30
0.000000
 40
0.259635
 50
-87.146338
 51
-56.595851
  6
CONTINUOUS
  0
LINE
  8
WHITE
 10
7.124347
 20
7.251094
 30
0.000000
 11
7.115790
 21
7.285321
 31
0.000000
  6
CONTINUOUS
  0
ARC
  8
WHITE
 10
7.157583
 20
5.663849
 30
0.000000
 40
1.622010
 50
91.476451
 51
96.838252
  6
CONTINUOUS
  0
ARC
  8
WHITE
 10
6.894700
 20
7.672186
 30
0.000000
 40
0.403934
 50
-117.744172
 51
-80.055723
  6
CONTINUOUS
  0
ARC
  8
WHITE
 10
6.646318
 20
7.154257
 30
0.000000
 40
0.171405
 50
69.388345
 51
102.691997
  6
CONTINUOUS
  0
ARC
  8
WHITE
 10
6.633388
 20
7.245334
 30
0.000000
 40
0.080055
 50
107.992775
 51
232.781500
  6
CONTINUOUS
  0
ARC
  8
WHITE
 10
6.831817
 20
7.498231
 30
0.000000
 40
0.401498
 50
-127.939119
 51
-90.614020
  6
CONTINUOUS
  0
ARC
  8
WHITE
 10
6.928774
 20
7.667975
 30
0.000000
 40
0.580125
 50
-100.052423
 51
-74.261828
  6
CONTINUOUS
  0
ARC
  8
WHITE
 10
7.071470
 20
7.108630
 30
0.000000
 40
0.014691
 50
3.778680
 51
97.869646
  6
CONTINUOUS
  0
LINE
  8
WHITE
 10
7.069458
 20
7.123182
 30
0.000000
 11
7.050084
 21
7.126773
 31
0.000000
  6
CONTINUOUS
  0
LINE
  8
WHITE
 10
7.050084
 20
7.126773
 30
0.000000
 11
7.032772
 21
7.130107
 31
0.000000
  6
CONTINUOUS
  0
ARC
  8
WHITE
 10
3.309815
 20
13.546270
 30
0.000000
 40
0.193973
 50
16.040060
 51
38.248372
  6
CONTINUOUS
  0
ARC
  8
WHITE
 10
3.446442
 20
13.653971
 30
0.000000
 40
0.020000
 50
38.248369
 51
141.930815
  6
CONTINUOUS
  0
ARC
  8
WHITE
 10
3.992514
 20
13.226270
 30
0.000000
 40
0.713630
 50
141.930814
 51
173.044920
  6
CONTINUOUS
  0
ARC
  8
WHITE
 10
4.850825
 20
13.083878
 30
0.000000
 40
1.583310
 50
171.691026
 51
177.765240
  6
CONTINUOUS
  0
ARC
  8
WHITE
 10
3.288704
 20
13.144838
 30
0.000000
 40
0.020000
 50
177.765242
 51
317.086841
  6
CONTINUOUS
  0
ARC
  8
WHITE
 10
8.396342
 20
8.396342
 30
0.000000
 40
6.953964
 50
136.104627
 51
137.086842
  6
CONTINUOUS
  0
ARC
  8
WHITE
 10
3.370854
 20
13.231696
 30
0.000000
 40
0.020000
 50
-43.895370
 51
-5.622133
  6
CONTINUOUS
  0
ARC
  8
WHITE
 10
3.929027
 20
13.176749
 30
0.000000
 40
0.540871
 50
160.413862
 51
174.377864
  6
CONTINUOUS
  0
ARC
  8
WHITE
 10
1.587714
 20
12.408067
 30
0.000000
 40
2.063432
 50
26.032412
 51
27.412621
  6
CONTINUOUS
  0
ARC
  8
WHITE
 10
3.459773
 20
13.322443
 30
0.000000
 40
0.020000
 50
-153.967587
 51
-44.939188
  6
CONTINUOUS
  0
ARC
  8
WHITE
 10
8.396342
 20
8.396342
 30
0.000000
 40
6.953964
 50
134.177242
 51
135.060814
  6
CONTINUOUS
  0
ARC
  8
WHITE
 10
3.536324
 20
13.397982
 30
0.000000
 40
0.020000
 50
-45.822757
 51
18.846908
  6
CONTINUOUS
  0
ARC
  8
WHITE
 10
6.264539
 20
14.329235
 30
0.000000
 40
2.862775
 50
-165.239628
 51
-161.153094
  6
CONTINUOUS
  0
LINE
  8
WHITE
 10
10.720280
 20
0.911905
 30
0.000000
 11
10.834317
 21
0.857297
 31
0.000000
  6
CONTINUOUS
  0
LINE
  8
WHITE
 10
10.834317
 20
0.857297
 30
0.000000
 11
10.883427
 21
0.660328
 31
0.000000
  6
CONTINUOUS
  0
LINE
  8
WHITE
 10
10.883427
 20
0.660328
 30
0.000000
 11
10.307674
 21
0.516777
 31
0.000000
  6
CONTINUOUS
  0
LINE
  8
WHITE
 10
10.307674
 20
0.516777
 30
0.000000
 11
10.156374
 21
0.578832
 31
0.000000
  6
CONTINUOUS
  0
LINE
  8
WHITE
 10
10.156374
 20
0.578832
 30
0.000000
 11
10.765461
 21
0.730694
 31
0.000000
  6
CONTINUOUS
  0
LINE
  8
WHITE
 10
10.765461
 20
0.730694
 30
0.000000
 11
10.720280
 21
0.911905
 31
0.000000
  6
CONTINUOUS
  0
LINE
  8
WHITE
 10
4.298131
 20
2.343865
 30
0.000000
 11
4.411100
 21
2.275987
 31
0.000000
  6
CONTINUOUS
  0
LINE
  8
WHITE
 10
4.411100
 20
2.275987
 30
0.000000
 11
4.507287
 21
2.436070
 31
0.000000
  6
CONTINUOUS
  0
LINE
  8
WHITE
 10
4.507287
 20
2.436070
 30
0.000000
 11
4.551235
 21
2.312747
 31
0.000000
  6
CONTINUOUS
  0
LINE
  8
WHITE
 10
4.551235
 20
2.312747
 30
0.000000
 11
4.447970
 21
2.140885
 31
0.000000
  6
CONTINUOUS
  0
LINE
  8
WHITE
 10
4.447970
 20
2.140885
 30
0.000000
 11
4.333931
 21
2.209407
 31
0.000000
  6
CONTINUOUS
  0
LINE
  8
WHITE
 10
4.333931
 20
2.209407
 30
0.000000
 11
4.120324
 21
1.853905
 31
0.000000
  6
CONTINUOUS
  0
ARC
  8
WHITE
 10
4.238953
 20
1.981070
 30
0.000000
 40
0.173908
 50
-156.199758
 51
-133.010983
  6
CONTINUOUS
  0
ARC
  8
WHITE
 10
4.163566
 20
1.939003
 30
0.000000
 40
0.088325
 50
158.556918
 51
198.559899
  6
CONTINUOUS
  0
ARC
  8
WHITE
 10
4.546094
 20
1.787447
 30
0.000000
 40
0.499782
 50
146.055536
 51
158.416730
  6
CONTINUOUS
  0
LINE
  8
WHITE
 10
4.131485
 20
2.066520
 30
0.000000
 11
4.298131
 21
2.343865
 31
0.000000
  6
CONTINUOUS
  0
LINE
  8
WHITE
 10
9.975164
 20
0.533651
 30
0.000000
 11
9.929983
 21
0.714862
 31
0.000000
  6
CONTINUOUS
  0
LINE
  8
WHITE
 10
9.929983
 20
0.714862
 30
0.000000
 11
10.042662
 21
0.668283
 31
0.000000
  6
CONTINUOUS
  0
LINE
  8
WHITE
 10
10.042662
 20
0.668283
 30
0.000000
 11
10.093736
 21
0.463436
 31
0.000000
  6
CONTINUOUS
  0
LINE
  8
WHITE
 10
10.093736
 20
0.463436
 30
0.000000
 11
9.586467
 21
0.336960
 31
0.000000
  6
CONTINUOUS
  0
LINE
  8
WHITE
 10
9.586467
 20
0.336960
 30
0.000000
 11
9.409107
 21
0.392517
 31
0.000000
  6
CONTINUOUS
  0
LINE
  8
WHITE
 10
9.409107
 20
0.392517
 30
0.000000
 11
9.975164
 21
0.533651
 31
0.000000
  6
CONTINUOUS
  0
LINE
  8
WHITE
 10
6.092564
 20
9.838352
 30
0.000000
 11
6.112562
 21
9.851685
 31
0.000000
  6
CONTINUOUS
  0
ARC
  8
WHITE
 10
-16.532374
 20
-12.400086
 30
0.000000
 40
31.747983
 50
44.498267
 51
45.007375
  6
CONTINUOUS
  0
ARC
  8
WHITE
 10
4.384956
 20
8.772458
 30
0.000000
 40
1.993764
 50
39.924725
 51
48.017831
  6
CONTINUOUS
  0
ARC
  8
WHITE
 10
5.890330
 20
10.181125
 30
0.000000
 40
0.186776
 50
156.858248
 51
185.485373
  6
CONTINUOUS
  0
ARC
  8
WHITE
 10
6.406204
 20
10.202850
 30
0.000000
 40
0.702910
 50
-176.772109
 51
-122.754424
  6
CONTINUOUS
  0
ARC
  8
WHITE
 10
5.956491
 20
9.645197
 30
0.000000
 40
0.077070
 50
-25.758531
 51
52.976896
  6
CONTINUOUS
  0
LINE
  8
WHITE
 10
6.002898
 20
9.706729
 30
0.000000
 11
5.882212
 21
9.847400
 31
0.000000
  6
CONTINUOUS
  0
ARC
  8
WHITE
 10
6.100264
 20
10.058067
 30
0.000000
 40
0.303195
 50
-162.270584
 51
-135.987089
  6
CONTINUOUS
  0
ARC
  8
WHITE
 10
5.870609
 20
9.993129
 30
0.000000
 40
0.065175
 50
158.918067
 51
204.852143
  6
CONTINUOUS
  0
ARC
  8
WHITE
 10
5.836323
 20
10.012165
 30
0.000000
 40
0.026890
 50
71.754165
 51
170.567637
  6
CONTINUOUS
  0
ARC
  8
WHITE
 10
5.330853
 20
9.315683
 30
0.000000
 40
0.886225
 50
44.260556
 51
54.559157
  6
CONTINUOUS
  0
ARC
  8
WHITE
 10
6.357547
 20
10.321607
 30
0.000000
 40
0.551136
 50
-135.337791
 51
-118.737316
  6
CONTINUOUS
  0
ARC
  8
WHITE
 10
6.584746
 20
9.264975
 30
0.000000
 40
0.376852
 50
-11.878826
 51
36.624586
  6
CONTINUOUS
  0
ARC
  8
WHITE
 10
7.039412
 20
9.563756
 30
0.000000
 40
0.169237
 50
170.493756
 51
205.914764
  6
CONTINUOUS
  0
ARC
  8
WHITE
 10
8.659554
 20
12.354976
 30
0.000000
 40
3.290778
 50
-122.891448
 51
-119.765947
  6
CONTINUOUS
  0
ARC
  8
WHITE
 10
6.882530
 20
9.512841
 30
0.000000
 40
0.144018
 50
-5.762778
 51
55.662050
  6
CONTINUOUS
  0
ARC
  8
WHITE
 10
6.811728
 20
9.489491
 30
0.000000
 40
0.208222
 50
43.098940
 51
80.243547
  6
CONTINUOUS
  0
ARC
  8
WHITE
 10
6.858266
 20
9.610937
 30
0.000000
 40
0.084517
 50
97.650968
 51
178.513414
  6
CONTINUOUS
  0
ARC
  8
WHITE
 10
7.304157
 20
9.549659
 30
0.000000
 40
0.534163
 50
173.175799
 51
217.738019
  6
CONTINUOUS
  0
ARC
  8
WHITE
 10
7.188262
 20
9.476140
 30
0.000000
 40
0.397720
 50
-140.418533
 51
-132.923143
  6
CONTINUOUS
  0
ARC
  8
WHITE
 10
6.935000
 20
9.192904
 30
0.000000
 40
0.019327
 50
-155.541428
 51
-16.536809
  6
CONTINUOUS
  0
LINE
  8
WHITE
 10
10.544553
 20
0.914440
 30
0.000000
 11
10.088176
 21
1.492664
 31
0.000000
  6
CONTINUOUS
  0
LINE
  8
WHITE
 10
10.088176
 20
1.492664
 30
0.000000
 11
10.323450
 21
1.355410
 31
0.000000
  6
CONTINUOUS
  0
LINE
  8
WHITE
 10
10.323450
 20
1.355410
 30
0.000000
 11
10.674806
 21
0.946916
 31
0.000000
  6
CONTINUOUS
  0
LINE
  8
WHITE
 10
10.674806
 20
0.946916
 30
0.000000
 11
10.544553
 21
0.914440
 31
0.000000
  6
CONTINUOUS
  0
ARC
  8
WHITE
 10
6.970026
 20
8.778754
 30
0.000000
 40
0.915851
 50
-119.975632
 51
-114.383765
  6
CONTINUOUS
  0
ARC
  8
WHITE
 10
7.032603
 20
8.737160
 30
0.000000
 40
0.914167
 50
-127.482594
 51
-124.680816
  6
CONTINUOUS
  0
ARC
  8
WHITE
 10
6.483011
 20
8.040227
 30
0.000000
 40
0.029270
 50
173.180306
 51
256.773785
  6
CONTINUOUS
  0
ARC
  8
WHITE
 10
6.391404
 20
8.449115
 30
0.000000
 40
0.410209
 50
-81.229945
 51
-69.053583
  6
CONTINUOUS
  0
ARC
  8
WHITE
 10
6.524615
 20
8.073667
 30
0.000000
 40
0.015463
 50
-29.661461
 51
51.215869
  6
CONTINUOUS
  0
ARC
  8
WHITE
 10
6.364402
 20
7.975957
 30
0.000000
 40
0.202271
 50
32.864676
 51
63.854632
  6
CONTINUOUS
  0
ARC
  8
WHITE
 10
6.103642
 20
7.467244
 30
0.000000
 40
0.773900
 50
63.120616
 51
67.945491
  6
CONTINUOUS
  0
ARC
  8
WHITE
 10
9.077446
 20
14.751698
 30
0.000000
 40
7.094190
 50
-112.938417
 51
-112.223895
  6
CONTINUOUS
  0
ARC
  8
WHITE
 10
6.533725
 20
8.139157
 30
0.000000
 40
0.234975
 50
160.268763
 51
223.900945
  6
CONTINUOUS
  0
ARC
  8
WHITE
 10
6.740292
 20
8.284250
 30
0.000000
 40
0.485967
 50
-140.665668
 51
-109.841478
  6
CONTINUOUS
  0
ARC
  8
WHITE
 10
6.659879
 20
8.076865
 30
0.000000
 40
0.263653
 50
-108.700623
 51
-78.484562
  6
CONTINUOUS
  0
ARC
  8
WHITE
 10
6.497604
 20
7.733672
 30
0.000000
 40
0.231052
 50
21.544481
 51
65.907741
  6
CONTINUOUS
  0
LINE
  8
WHITE
 10
12.942998
 20
2.712157
 30
0.000000
 11
13.137625
 21
2.388243
 31
0.000000
  6
CONTINUOUS
  0
LINE
  8
WHITE
 10
13.137625
 20
2.388243
 30
0.000000
 11
12.897232
 21
2.243801
 31
0.000000
  6
CONTINUOUS
  0
LINE
  8
WHITE
 10
12.897232
 20
2.243801
 30
0.000000
 11
12.753245
 21
2.272418
 31
0.000000
  6
CONTINUOUS
  0
LINE
  8
WHITE
 10
12.753245
 20
2.272418
 30
0.000000
 11
13.003275
 21
2.422651
 31
0.000000
  6
CONTINUOUS
  0
LINE
  8
WHITE
 10
13.003275
 20
2.422651
 30
0.000000
 11
12.810256
 21
2.743888
 31
0.000000
  6
CONTINUOUS
  0
LINE
  8
WHITE
 10
12.810256
 20
2.743888
 30
0.000000
 11
12.942998
 21
2.712157
 31
0.000000
  6
CONTINUOUS
  0
ARC
  8
WHITE
 10
6.722248
 20
9.542246
 30
0.000000
 40
0.510777
 50
173.815188
 51
226.855361
  6
CONTINUOUS
  0
ARC
  8
WHITE
 10
6.539898
 20
9.369598
 30
0.000000
 40
0.260540
 50
-129.847622
 51
-116.825268
  6
CONTINUOUS
  0
ARC
  8
WHITE
 10
6.438602
 20
9.150713
 30
0.000000
 40
0.021224
 50
-140.085187
 51
-0.061781
  6
CONTINUOUS
  0
ARC
  8
WHITE
 10
5.855782
 20
8.876463
 30
0.000000
 40
0.663377
 50
24.417384
 51
40.028615
  6
CONTINUOUS
  0
ARC
  8
WHITE
 10
6.527893
 20
9.445047
 30
0.000000
 40
0.216992
 50
172.940398
 51
220.846351
  6
CONTINUOUS
  0
ARC
  8
WHITE
 10
4.353581
 20
7.133580
 30
0.000000
 40
3.050315
 50
46.965714
 51
50.042661
  6
CONTINUOUS
  0
ARC
  8
WHITE
 10
6.558237
 20
9.528796
 30
0.000000
 40
0.206291
 50
-126.605507
 51
-99.029518
  6
CONTINUOUS
  0
ARC
  8
WHITE
 10
6.381939
 20
9.302872
 30
0.000000
 40
0.145623
 50
8.764684
 51
49.132188
  6
CONTINUOUS
  0
ARC
  8
WHITE
 10
15.889581
 20
18.604138
 30
0.000000
 40
13.155592
 50
-137.021257
 51
-135.681277
  6
CONTINUOUS
  0
ARC
  8
WHITE
 10
6.218430
 20
9.591352
 30
0.000000
 40
0.064150
 50
43.630382
 51
72.535076
  6
CONTINUOUS
  0
ARC
  8
WHITE
 10
6.291536
 20
9.597382
 30
0.000000
 40
0.077092
 50
134.311231
 51
180.079111
  6
CONTINUOUS
  0
ARC
  8
WHITE
 10
9.128010
 20
1.692108
 30
0.000000
 40
0.337669
 50
-1.088549
 51
20.871371
  6
CONTINUOUS
  0
ARC
  8
WHITE
 10
10.286838
 20
2.116242
 30
0.000000
 40
0.896379
 50
-174.786165
 51
-160.186749
  6
CONTINUOUS
  0
ARC
  8
WHITE
 10
9.281725
 20
1.987622
 30
0.000000
 40
0.121933
 50
22.755531
 51
102.200386
  6
CONTINUOUS
  0
ARC
  8
WHITE
 10
9.300780
 20
2.025296
 30
0.000000
 40
0.093017
 50
118.808249
 51
197.474123
  6
CONTINUOUS
  0
ARC
  8
WHITE
 10
9.579768
 20
2.037540
 30
0.000000
 40
0.369901
 50
-173.764734
 51
-107.974545
  6
CONTINUOUS
  0
ARC
  8
WHITE
 10
6.732236
 20
7.572882
 30
0.000000
 40
1.815000
 50
-78.378810
 51
-61.457997
  6
CONTINUOUS
  0
ARC
  8
WHITE
 10
7.310159
 20
6.308959
 30
0.000000
 40
0.556002
 50
-112.448265
 51
-38.259035
  6
CONTINUOUS
  0
ARC
  8
WHITE
 10
7.661959
 20
5.852635
 30
0.000000
 40
0.140501
 50
52.883740
 51
116.417678
  6
CONTINUOUS
  0
LINE
  8
WHITE
 10
7.950425
 20
10.138243
 30
0.000000
 11
7.950435
 21
10.138684
 31
0.000000
  6
CONTINUOUS
  0
ARC
  8
WHITE
 10
7.970430
 20
10.138203
 30
0.000000
 40
0.020000
 50
29.675010
 51
178.621351
  6
CONTINUOUS
  0
ARC
  8
WHITE
 10
-6.480997
 20
1.903607
 30
0.000000
 40
16.652868
 50
28.574027
 51
29.675011
  6
CONTINUOUS
  0
ARC
  8
WHITE
 10
11.794400
 20
12.174874
 30
0.000000
 40
4.318303
 50
-147.718699
 51
-143.138992
  6
CONTINUOUS
  0
ARC
  8
WHITE
 10
8.330227
 20
9.578582
 30
0.000000
 40
0.010840
 50
-118.644271
 51
32.636671
  6
CONTINUOUS
  0
ARC
  8
WHITE
 10
8.924587
 20
10.173896
 30
0.000000
 40
0.851636
 50
-141.697963
 51
-134.749281
  6
CONTINUOUS
  0
ARC
  8
WHITE
 10
6.635247
 20
8.344379
 30
0.000000
 40
2.078949
 50
38.764284
 51
41.059623
  6
CONTINUOUS
  0
ARC
  8
WHITE
 10
7.842885
 20
9.367346
 30
0.000000
 40
0.496910
 50
43.583934
 51
50.788147
  6
CONTINUOUS
  0
ARC
  8
WHITE
 10
8.151685
 20
9.744949
 30
0.000000
 40
0.009134
 50
54.213343
 51
200.787777
  6
CONTINUOUS
  0
ARC
  8
WHITE
 10
8.536879
 20
9.718887
 30
0.000000
 40
0.394394
 50
176.682962
 51
188.628603
  6
CONTINUOUS
  0
ARC
  8
WHITE
 10
8.127175
 20
9.656716
 30
0.000000
 40
0.020000
 50
-149.928913
 51
8.628604
  6
CONTINUOUS
  0
ARC
  8
WHITE
 10
9.200644
 20
10.278261
 30
0.000000
 40
1.260425
 50
-170.542190
 51
-149.928912
  6
CONTINUOUS
  0
ARC
  8
WHITE
 10
8.322207
 20
10.142720
 30
0.000000
 40
0.371808
 50
-179.310144
 51
-168.901278
  6
CONTINUOUS
  0
ARC
  8
WHITE
 10
10.583713
 20
2.154780
 30
0.000000
 40
0.037569
 50
-175.109952
 51
-113.203092
  6
CONTINUOUS
  0
ARC
  8
WHITE
 10
10.491548
 20
2.269036
 30
0.000000
 40
0.167698
 50
-62.527355
 51
-1.368918
  6
CONTINUOUS
  0
ARC
  8
WHITE
 10
10.233855
 20
2.337899
 30
0.000000
 40
0.431540
 50
-9.721500
 51
14.071985
  6
CONTINUOUS
  0
ARC
  8
WHITE
 10
10.558252
 20
2.404893
 30
0.000000
 40
0.101543
 50
21.934281
 51
103.724443
  6
CONTINUOUS
  0
ARC
  8
WHITE
 10
10.555803
 20
2.418152
 30
0.000000
 40
0.088086
 50
104.223223
 51
174.936561
  6
CONTINUOUS
  0
ARC
  8
WHITE
 10
12.820551
 20
3.062911
 30
0.000000
 40
2.437203
 50
-164.849277
 51
-161.019004
  6
CONTINUOUS
  0
ARC
  8
WHITE
 10
13.864622
 20
3.017164
 30
0.000000
 40
3.431051
 50
-167.425599
 51
-166.061480
  6
CONTINUOUS
  0
ARC
  8
WHITE
 10
10.871976
 20
2.270152
 30
0.000000
 40
0.346609
 50
-166.746897
 51
-159.995174
  6
CONTINUOUS
  0
ARC
  8
WHITE
 10
8.396342
 20
8.396342
 30
0.000000
 40
6.899448
 50
132.907329
 51
134.169552
  6
CONTINUOUS
  0
ARC
  8
WHITE
 10
3.712714
 20
13.435234
 30
0.000000
 40
0.020000
 50
4.493767
 51
132.907329
  6
CONTINUOUS
  0
ARC
  8
WHITE
 10
6.176580
 20
13.628875
 30
0.000000
 40
2.451464
 50
-175.506232
 51
-169.227178
  6
CONTINUOUS
  0
ARC
  8
WHITE
 10
2.876527
 20
12.989989
 30
0.000000
 40
0.909911
 50
1.830025
 51
11.452641
  6
CONTINUOUS
  0
ARC
  8
WHITE
 10
3.765984
 20
13.018407
 30
0.000000
 40
0.020000
 50
-140.884787
 51
1.830023
  6
CONTINUOUS
  0
ARC
  8
WHITE
 10
4.403605
 20
13.536869
 30
0.000000
 40
0.841805
 50
-161.182754
 51
-140.884788
  6
CONTINUOUS
  0
ARC
  8
WHITE
 10
6.264539
 20
14.329235
 30
0.000000
 40
2.862775
 50
-159.438988
 51
-158.183873
  6
CONTINUOUS
  0
ARC
  8
WHITE
 10
3.602853
 20
13.330839
 30
0.000000
 40
0.020000
 50
134.169553
 51
200.561011
  6
CONTINUOUS
  0
ARC
  8
WHITE
 10
6.166372
 20
9.660514
 30
0.000000
 40
0.494323
 50
-126.615823
 51
-114.021862
  6
CONTINUOUS
  0
LINE
  8
WHITE
 10
5.965141
 20
9.209004
 30
0.000000
 11
5.982447
 21
9.220541
 31
0.000000
  6
CONTINUOUS
  0
ARC
  8
WHITE
 10
4.706215
 20
8.232808
 30
0.000000
 40
1.613811
 50
37.737900
 51
44.356254
  6
CONTINUOUS
  0
ARC
  8
WHITE
 10
6.071949
 20
9.585985
 30
0.000000
 40
0.308990
 50
-167.813536
 51
-133.284174
  6
CONTINUOUS
  0
ARC
  8
WHITE
 10
5.783593
 20
9.532251
 30
0.000000
 40
0.017860
 50
117.786754
 51
220.050900
  6
CONTINUOUS
  0
ARC
  8
WHITE
 10
6.117926
 20
8.724767
 30
0.000000
 40
0.891747
 50
109.807048
 51
112.597558
  6
CONTINUOUS
  0
LINE
  8
WHITE
 10
5.815755
 20
9.563758
 30
0.000000
 11
5.641601
 21
9.831686
 31
0.000000
  6
CONTINUOUS
  0
LINE
  8
WHITE
 10
5.641601
 20
9.831686
 30
0.000000
 11
5.618661
 21
9.831686
 31
0.000000
  6
CONTINUOUS
  0
ARC
  8
WHITE
 10
6.575370
 20
9.900683
 30
0.000000
 40
0.959193
 50
-175.875036
 51
-144.663847
  6
CONTINUOUS
  0
ARC
  8
WHITE
 10
6.122850
 20
9.583021
 30
0.000000
 40
0.406322
 50
-144.299326
 51
-128.207625
  6
CONTINUOUS
  0
LINE
  8
WHITE
 10
12.642281
 20
1.914996
 30
0.000000
 11
12.666730
 21
1.874306
 31
0.000000
  6
CONTINUOUS
  0
LINE
  8
WHITE
 10
12.666730
 20
1.874306
 30
0.000000
 11
12.582673
 21
1.823800
 31
0.000000
  6
CONTINUOUS
  0
LINE
  8
WHITE
 10
12.582673
 20
1.823800
 30
0.000000
 11
12.509648
 21
1.945335
 31
0.000000
  6
CONTINUOUS
  0
LINE
  8
WHITE
 10
12.509648
 20
1.945335
 30
0.000000
 11
12.704532
 21
2.062433
 31
0.000000
  6
CONTINUOUS
  0
LINE
  8
WHITE
 10
12.704532
 20
2.062433
 30
0.000000
 11
12.624751
 21
2.195210
 31
0.000000
  6
CONTINUOUS
  0
LINE
  8
WHITE
 10
12.624751
 20
2.195210
 30
0.000000
 11
12.756839
 21
2.179119
 31
0.000000
  6
CONTINUOUS
  0
LINE
  8
WHITE
 10
12.756839
 20
2.179119
 30
0.000000
 11
12.843054
 21
2.035633
 31
0.000000
  6
CONTINUOUS
  0
LINE
  8
WHITE
 10
12.843054
 20
2.035633
 30
0.000000
 11
12.642281
 21
1.914996
 31
0.000000
  6
CONTINUOUS
  0
ARC
  8
WHITE
 10
6.845498
 20
9.052750
 30
0.000000
 40
0.189791
 50
143.712921
 51
186.388260
  6
CONTINUOUS
  0
ARC
  8
WHITE
 10
7.332988
 20
9.083230
 30
0.000000
 40
0.678069
 50
-175.635888
 51
-157.731301
  6
CONTINUOUS
  0
ARC
  8
WHITE
 10
6.881322
 20
8.881369
 30
0.000000
 40
0.184259
 50
-162.602401
 51
-96.905661
  6
CONTINUOUS
  0
ARC
  8
WHITE
 10
6.576345
 20
8.680858
 30
0.000000
 40
0.283368
 50
3.558613
 51
42.017055
  6
CONTINUOUS
  0
ARC
  8
WHITE
 10
7.015139
 20
9.032121
 30
0.000000
 40
0.279672
 50
-154.440950
 51
-144.705395
  6
CONTINUOUS
  0
ARC
  8
WHITE
 10
6.784381
 20
8.932245
 30
0.000000
 40
0.029939
 50
82.753559
 51
223.971722
  6
CONTINUOUS
  0
ARC
  8
WHITE
 10
6.809530
 20
8.675021
 30
0.000000
 40
0.287718
 50
80.065644
 51
94.260039
  6
CONTINUOUS
  0
LINE
  8
WHITE
 10
6.859167
 20
8.958425
 30
0.000000
 11
6.692514
 21
9.165075
 31
0.000000
  6
CONTINUOUS
  0
ARC
  8
WHITE
 10
6.292770
 20
9.168504
 30
0.000000
 40
0.163152
 50
148.879340
 51
195.167544
  6
CONTINUOUS
  0
ARC
  8
WHITE
 10
6.607544
 20
9.220493
 30
0.000000
 40
0.481640
 50
-168.663490
 51
-111.306658
  6
CONTINUOUS
  0
LINE
  8
WHITE
 10
6.432536
 20
8.771774
 30
0.000000
 11
6.452534
 21
8.791772
 31
0.000000
  6
CONTINUOUS
  0
ARC
  8
WHITE
 10
3.219615
 20
6.145434
 30
0.000000
 40
4.177903
 50
39.302378
 51
41.951752
  6
CONTINUOUS
  0
ARC
  8
WHITE
 10
6.568744
 20
9.181526
 30
0.000000
 40
0.343043
 50
-150.994682
 51
-134.863591
  6
CONTINUOUS
  0
ARC
  8
WHITE
 10
6.363166
 20
9.063675
 30
0.000000
 40
0.106159
 50
154.973168
 51
207.177208
  6
CONTINUOUS
  0
LINE
  8
WHITE
 10
6.266975
 20
9.108585
 30
0.000000
 11
6.153099
 21
9.252828
 31
0.000000
  6
CONTINUOUS
  0
ARC
  8
WHITE
 10
8.523141
 20
5.645443
 30
0.000000
 40
0.073554
 50
166.841886
 51
264.618838
  6
CONTINUOUS
  0
LINE
  8
WHITE
 10
8.516243
 20
5.572213
 30
0.000000
 11
8.579025
 21
5.898678
 31
0.000000
  6
CONTINUOUS
  0
ARC
  8
WHITE
 10
9.706623
 20
7.060726
 30
0.000000
 40
1.619208
 50
-145.030736
 51
-134.137997
  6
CONTINUOUS
  0
LINE
  8
WHITE
 10
8.379748
 20
6.132699
 30
0.000000
 11
8.347216
 21
6.100167
 31
0.000000
  6
CONTINUOUS
  0
ARC
  8
WHITE
 10
7.532441
 20
5.553520
 30
0.000000
 40
0.981163
 50
23.106065
 51
33.858337
  6
CONTINUOUS
  0
ARC
  8
WHITE
 10
9.886404
 20
6.458320
 30
0.000000
 40
1.541761
 50
-160.298518
 51
-153.462839
  6
CONTINUOUS
  0
ARC
  8
WHITE
 10
8.581646
 20
5.662851
 30
0.000000
 40
0.130129
 50
124.962836
 51
180.292195
  6
CONTINUOUS
  0
LINE
  8
WHITE
 10
6.221273
 20
4.134211
 30
0.000000
 11
6.012570
 21
3.925508
 31
0.000000
  6
CONTINUOUS
  0
ARC
  8
WHITE
 10
6.171724
 20
4.087464
 30
0.000000
 40
0.227068
 50
-134.499943
 51
-97.412124
  6
CONTINUOUS
  0
ARC
  8
WHITE
 10
6.109153
 20
4.166030
 30
0.000000
 40
0.305554
 50
-83.747495
 51
-56.181155
  6
CONTINUOUS
  0
ARC
  8
WHITE
 10
5.975269
 20
3.951436
 30
0.000000
 40
0.306471
 50
-7.360166
 51
36.611325
  6
CONTINUOUS
  0
ARC
  8
WHITE
 10
8.130616
 20
2.623041
 30
0.000000
 40
0.321822
 50
-23.254274
 51
0.454417
  6
CONTINUOUS
  0
ARC
  8
WHITE
 10
8.003717
 20
2.783809
 30
0.000000
 40
0.511288
 50
-56.579616
 51
-34.259731
  6
CONTINUOUS
  0
ARC
  8
WHITE
 10
8.255186
 20
2.409776
 30
0.000000
 40
0.060720
 50
-155.393788
 51
-60.243555
  6
CONTINUOUS
  0
ARC
  8
WHITE
 10
8.341226
 20
2.476412
 30
0.000000
 40
0.168521
 50
179.066658
 51
213.054991
  6
CONTINUOUS
  0
LINE
  8
WHITE
 10
8.172727
 20
2.479157
 30
0.000000
 11
8.434315
 21
2.632281
 31
0.000000
  6
CONTINUOUS
  0
LINE
  8
WHITE
 10
8.434315
 20
2.632281
 30
0.000000
 11
8.452427
 21
2.625594
 31
0.000000
  6
CONTINUOUS
  0
ARC
  8
WHITE
 10
10.858037
 20
2.430691
 30
0.000000
 40
0.094379
 50
79.263143
 51
131.703500
  6
CONTINUOUS
  0
ARC
  8
WHITE
 10
10.826369
 20
2.457394
 30
0.000000
 40
0.053698
 50
125.419075
 51
206.401162
  6
CONTINUOUS
  0
ARC
  8
WHITE
 10
12.215181
 20
3.043809
 30
0.000000
 40
1.561142
 50
-156.987817
 51
-152.138823
  6
CONTINUOUS
  0
ARC
  8
WHITE
 10
11.499447
 20
2.684648
 30
0.000000
 40
0.760717
 50
-150.861587
 51
-143.389962
  6
CONTINUOUS
  0
ARC
  8
WHITE
 10
10.902606
 20
2.234744
 30
0.000000
 40
0.014300
 50
-164.749594
 51
-13.263092
  6
CONTINUOUS
  0
ARC
  8
WHITE
 10
10.729962
 20
2.388437
 30
0.000000
 40
0.243816
 50
-40.077318
 51
-9.478030
  6
CONTINUOUS
  0
ARC
  8
WHITE
 10
10.794587
 20
2.396539
 30
0.000000
 40
0.182362
 50
-15.342434
 51
25.502662
  6
CONTINUOUS
  0
ARC
  8
WHITE
 10
10.854026
 20
2.389738
 30
0.000000
 40
0.135413
 50
39.054265
 51
80.824019
  6
CONTINUOUS
  0
ARC
  8
WHITE
 10
6.380370
 20
8.558085
 30
0.000000
 40
0.065086
 50
169.745079
 51
204.200496
  6
CONTINUOUS
  0
ARC
  8
WHITE
 10
6.336372
 20
8.557851
 30
0.000000
 40
0.023274
 50
77.256303
 51
149.474942
  6
CONTINUOUS
  0
ARC
  8
WHITE
 10
6.440834
 20
9.138742
 30
0.000000
 40
0.566959
 50
-100.089933
 51
-91.157801
  6
CONTINUOUS
  0
LINE
  8
WHITE
 10
6.429378
 20
8.571899
 30
0.000000
 11
6.240397
 21
8.702231
 31
0.000000
  6
CONTINUOUS
  0
ARC
  8
WHITE
 10
6.542366
 20
8.613158
 30
0.000000
 40
0.314832
 50
163.565348
 51
268.209182
  6
CONTINUOUS
  0
ARC
  8
WHITE
 10
6.456409
 20
8.292006
 30
0.000000
 40
0.076393
 50
4.860945
 51
49.784842
  6
CONTINUOUS
  0
ARC
  8
WHITE
 10
4.819627
 20
6.201999
 30
0.000000
 40
2.730995
 50
51.873744
 51
54.069968
  6
CONTINUOUS
  0
ARC
  8
WHITE
 10
6.607871
 20
8.674916
 30
0.000000
 40
0.320762
 50
-153.422450
 51
-125.376728
  6
CONTINUOUS
  0
ARC
  8
WHITE
 10
8.676533
 20
3.263760
 30
0.000000
 40
0.030715
 50
-88.860643
 51
1.681094
  6
CONTINUOUS
  0
ARC
  8
WHITE
 10
8.465608
 20
3.340075
 30
0.000000
 40
0.253123
 50
-17.333597
 51
26.105730
  6
CONTINUOUS
  0
ARC
  8
WHITE
 10
8.489376
 20
3.332559
 30
0.000000
 40
0.235715
 50
30.292244
 51
65.326250
  6
CONTINUOUS
  0
ARC
  8
WHITE
 10
8.559922
 20
3.502842
 30
0.000000
 40
0.052000
 50
57.612057
 51
176.850233
  6
CONTINUOUS
  0
ARC
  8
WHITE
 10
8.851324
 20
3.588835
 30
0.000000
 40
0.353247
 50
-166.387819
 51
-140.160958
  6
CONTINUOUS
  0
ARC
  8
WHITE
 10
9.729241
 20
4.122807
 30
0.000000
 40
1.377888
 50
-146.511685
 51
-139.778875
  6
CONTINUOUS
  0
ARC
  8
WHITE
 10
1.724457
 20
10.957437
 30
0.000000
 40
8.637423
 50
-67.357533
 51
-65.775745
  6
CONTINUOUS
  0
ARC
  8
WHITE
 10
5.325654
 20
2.941598
 30
0.000000
 40
0.150276
 50
95.356826
 51
112.366155
  6
CONTINUOUS
  0
ARC
  8
WHITE
 10
5.310798
 20
3.075100
 30
0.000000
 40
0.016139
 50
-58.881361
 51
87.062358
  6
CONTINUOUS
  0
ARC
  8
WHITE
 10
2.440471
 20
7.637313
 30
0.000000
 40
5.406179
 50
-61.158880
 51
-57.827013
  6
CONTINUOUS
  0
ARC
  8
WHITE
 10
4.774039
 20
3.443821
 30
0.000000
 40
0.607544
 50
-77.986159
 51
-63.163006
  6
CONTINUOUS
  0
ARC
  8
WHITE
 10
4.845333
 20
2.983121
 30
0.000000
 40
0.144483
 50
-129.889538
 51
-67.554038
  6
CONTINUOUS
  0
LINE
  8
WHITE
 10
4.752675
 20
2.872262
 30
0.000000
 11
5.049688
 21
2.985742
 31
0.000000
  6
CONTINUOUS
  0
LINE
  8
WHITE
 10
12.491405
 20
2.166097
 30
0.000000
 11
12.407348
 21
2.115590
 31
0.000000
  6
CONTINUOUS
  0
LINE
  8
WHITE
 10
12.407348
 20
2.115590
 30
0.000000
 11
12.333036
 21
2.239266
 31
0.000000
  6
CONTINUOUS
  0
LINE
  8
WHITE
 10
12.333036
 20
2.239266
 30
0.000000
 11
12.620008
 21
2.411696
 31
0.000000
  6
CONTINUOUS
  0
LINE
  8
WHITE
 10
12.620008
 20
2.411696
 30
0.000000
 11
12.669871
 21
2.328710
 31
0.000000
  6
CONTINUOUS
  0
LINE
  8
WHITE
 10
12.669871
 20
2.328710
 30
0.000000
 11
12.466956
 21
2.206787
 31
0.000000
  6
CONTINUOUS
  0
LINE
  8
WHITE
 10
12.466956
 20
2.206787
 30
0.000000
 11
12.491405
 21
2.166097
 31
0.000000
  6
CONTINUOUS
  0
ARC
  8
WHITE
 10
6.079938
 20
8.433974
 30
0.000000
 40
0.441142
 50
-117.342913
 51
-101.983708
  6
CONTINUOUS
  0
ARC
  8
WHITE
 10
6.033585
 20
8.182827
 30
0.000000
 40
0.185968
 50
-104.080607
 51
-68.068987
  6
CONTINUOUS
  0
ARC
  8
WHITE
 10
6.042449
 20
8.010666
 30
0.000000
 40
0.060595
 50
-0.330046
 51
57.922118
  6
CONTINUOUS
  0
ARC
  8
WHITE
 10
5.935513
 20
7.879691
 30
0.000000
 40
0.229332
 50
52.654944
 51
82.020343
  6
CONTINUOUS
  0
ARC
  8
WHITE
 10
5.980123
 20
8.304461
 30
0.000000
 40
0.198071
 50
-153.481726
 51
-93.697726
  6
CONTINUOUS
  0
ARC
  8
WHITE
 10
5.710596
 20
8.150829
 30
0.000000
 40
0.113000
 50
35.237467
 51
74.378319
  6
CONTINUOUS
  0
ARC
  8
WHITE
 10
5.743250
 20
8.228911
 30
0.000000
 40
0.030824
 50
94.137919
 51
217.084853
  6
CONTINUOUS
  0
ARC
  8
WHITE
 10
6.025512
 20
8.340831
 30
0.000000
 40
0.333452
 50
-156.959535
 51
-116.387056
  6
CONTINUOUS
  0
ARC
  8
WHITE
 10
7.075753
 20
6.619661
 30
0.000000
 40
0.703190
 50
-89.870409
 51
-45.824587
  6
CONTINUOUS
  0
ARC
  8
WHITE
 10
6.938638
 20
7.483525
 30
0.000000
 40
1.505080
 50
-90.995232
 51
-65.374828
  6
CONTINUOUS
  0
ARC
  8
WHITE
 10
7.112549
 20
6.259332
 30
0.000000
 40
0.344661
 50
-125.481023
 51
-95.862772
  6
CONTINUOUS
  0
ARC
  8
WHITE
 10
8.050989
 20
6.310641
 30
0.000000
 40
0.015678
 50
-19.873330
 51
140.001008
  6
CONTINUOUS
  0
LINE
  8
WHITE
 10
8.038979
 20
6.320719
 30
0.000000
 11
8.005801
 21
6.320790
 31
0.000000
  6
CONTINUOUS
  0
ARC
  8
WHITE
 10
8.007706
 20
6.533415
 30
0.000000
 40
0.212633
 50
-99.611992
 51
-90.513370
  6
CONTINUOUS
  0
ARC
  8
WHITE
 10
7.984603
 20
6.394991
 30
0.000000
 40
0.072296
 50
-121.650379
 51
-99.877057
  6
CONTINUOUS
  0
ARC
  8
WHITE
 10
7.956710
 20
6.353170
 30
0.000000
 40
0.022132
 50
-177.718522
 51
-116.986504
  6
CONTINUOUS
  0
ARC
  8
WHITE
 10
7.924974
 20
6.357061
 30
0.000000
 40
0.010740
 50
-26.379617
 51
80.546339
  6
CONTINUOUS
  0
LINE
  8
WHITE
 10
7.926738
 20
6.367655
 30
0.000000
 11
7.899436
 21
6.364646
 31
0.000000
  6
CONTINUOUS
  0
ARC
  8
WHITE
 10
7.936130
 20
5.526836
 30
0.000000
 40
0.838613
 50
92.507829
 51
101.512290
  6
CONTINUOUS
  0
ARC
  8
WHITE
 10
7.865093
 20
5.878291
 30
0.000000
 40
0.480051
 50
101.576144
 51
117.185779
  6
CONTINUOUS
  0
ARC
  8
WHITE
 10
7.829230
 20
6.489428
 30
0.000000
 40
0.259917
 50
-134.897815
 51
-69.136457
  6
CONTINUOUS
  0
ARC
  8
WHITE
 10
7.766381
 20
6.832945
 30
0.000000
 40
0.606638
 50
-75.155723
 51
-60.431610
  6
CONTINUOUS
  0
ARC
  8
WHITE
 10
9.299586
 20
2.510379
 30
0.000000
 40
0.031708
 50
-34.777046
 51
21.779495
  6
CONTINUOUS
  0
ARC
  8
WHITE
 10
9.228110
 20
2.488707
 30
0.000000
 40
0.106315
 50
18.331057
 51
27.614013
  6
CONTINUOUS
  0
LINE
  8
WHITE
 10
9.322315
 20
2.537985
 30
0.000000
 11
9.314247
 21
2.552777
 31
0.000000
  6
CONTINUOUS
  0
ARC
  8
WHITE
 10
9.189125
 20
2.484312
 30
0.000000
 40
0.142629
 50
28.686911
 51
58.912544
  6
CONTINUOUS
  0
ARC
  8
WHITE
 10
9.159951
 20
2.426303
 30
0.000000
 40
0.207430
 50
60.285216
 51
91.091517
  6
CONTINUOUS
  0
ARC
  8
WHITE
 10
9.158283
 20
2.468868
 30
0.000000
 40
0.164843
 50
90.793523
 51
111.189857
  6
CONTINUOUS
  0
ARC
  8
WHITE
 10
9.143691
 20
2.508025
 30
0.000000
 40
0.123060
 50
111.445291
 51
139.182433
  6
CONTINUOUS
  0
ARC
  8
WHITE
 10
9.106591
 20
2.539210
 30
0.000000
 40
0.074602
 50
138.682846
 51
183.819103
  6
CONTINUOUS
  0
ARC
  8
WHITE
 10
9.137828
 20
2.541513
 30
0.000000
 40
0.105923
 50
-176.063414
 51
-160.727980
  6
CONTINUOUS
  0
ARC
  8
WHITE
 10
9.085908
 20
2.523037
 30
0.000000
 40
0.050815
 50
-161.070909
 51
-125.431142
  6
CONTINUOUS
  0
ARC
  8
WHITE
 10
9.069803
 20
2.506539
 30
0.000000
 40
0.028261
 50
-118.197931
 51
-57.846963
  6
CONTINUOUS
  0
ARC
  8
WHITE
 10
9.156519
 20
2.248642
 30
0.000000
 40
0.244702
 50
98.711269
 51
107.032343
  6
CONTINUOUS
  0
ARC
  8
WHITE
 10
9.199324
 20
1.948814
 30
0.000000
 40
0.547564
 50
91.420889
 51
98.386941
  6
CONTINUOUS
  0
ARC
  8
WHITE
 10
9.204968
 20
2.022992
 30
0.000000
 40
0.473608
 50
79.794089
 51
92.326059
  6
CONTINUOUS
  0
ARC
  8
WHITE
 10
9.319162
 20
2.637100
 30
0.000000
 40
0.151060
 50
-101.562337
 51
-92.574100
  6
CONTINUOUS
  0
ARC
  8
WHITE
 10
9.312914
 20
2.502472
 30
0.000000
 40
0.016288
 50
-91.887759
 51
-38.678269
  6
CONTINUOUS
  0
LINE
  8
WHITE
 10
8.149490
 20
3.636869
 30
0.000000
 11
8.309301
 21
3.379783
 31
0.000000
  6
CONTINUOUS
  0
LINE
  8
WHITE
 10
8.309301
 20
3.379783
 30
0.000000
 11
8.332379
 21
3.385553
 31
0.000000
  6
CONTINUOUS
  0
ARC
  8
WHITE
 10
8.003877
 20
3.500547
 30
0.000000
 40
0.348048
 50
-19.292911
 51
16.983472
  6
CONTINUOUS
  0
ARC
  8
WHITE
 10
8.230659
 20
3.552227
 30
0.000000
 40
0.117272
 50
25.227367
 51
133.799945
  6
CONTINUOUS
  0
LINE
  8
WHITE
 10
8.674075
 20
2.044591
 30
0.000000
 11
8.426476
 21
2.198505
 31
0.000000
  6
CONTINUOUS
  0
ARC
  8
WHITE
 10
8.487449
 20
1.555418
 30
0.000000
 40
0.645970
 50
95.416275
 51
114.977103
  6
CONTINUOUS
  0
ARC
  8
WHITE
 10
9.230058
 20
5.146930
 30
0.000000
 40
3.172814
 50
-108.664319
 51
-102.797063
  6
CONTINUOUS
  0
ARC
  8
WHITE
 10
8.776240
 20
3.144332
 30
0.000000
 40
1.119439
 50
-102.849622
 51
-96.243897
  6
CONTINUOUS
  0
LINE
  8
WHITE
 10
8.654489
 20
2.031533
 30
0.000000
 11
8.674075
 21
2.044591
 31
0.000000
  6
CONTINUOUS
  0
ARC
  8
WHITE
 10
6.953042
 20
4.287673
 30
0.000000
 40
0.130485
 50
-87.675300
 51
-41.485641
  6
CONTINUOUS
  0
ARC
  8
WHITE
 10
6.970533
 20
4.254693
 30
0.000000
 40
0.098159
 50
-158.562072
 51
-97.138568
  6
CONTINUOUS
  0
LINE
  8
WHITE
 10
6.879165
 20
4.218817
 30
0.000000
 11
7.112479
 21
4.412134
 31
0.000000
  6
CONTINUOUS
  0
LINE
  8
WHITE
 10
7.112479
 20
4.412134
 30
0.000000
 11
7.139144
 21
4.385470
 31
0.000000
  6
CONTINUOUS
  0
ARC
  8
WHITE
 10
6.891119
 20
4.391112
 30
0.000000
 40
0.248089
 50
-49.938480
 51
-1.303102
  6
CONTINUOUS
  0
ARC
  8
WHITE
 10
8.756706
 20
5.124206
 30
0.000000
 40
0.211730
 50
45.288559
 51
74.046913
  6
CONTINUOUS
  0
ARC
  8
WHITE
 10
9.258564
 20
5.742936
 30
0.000000
 40
0.586351
 50
-127.002893
 51
-119.181069
  6
CONTINUOUS
  0
ARC
  8
WHITE
 10
8.986717
 20
5.246042
 30
0.000000
 40
0.020575
 50
-133.034706
 51
35.237970
  6
CONTINUOUS
  0
ARC
  8
WHITE
 10
8.603242
 20
5.093962
 30
0.000000
 40
0.432555
 50
22.273564
 51
46.130054
  6
CONTINUOUS
  0
ARC
  8
WHITE
 10
8.401900
 20
5.027678
 30
0.000000
 40
0.627764
 50
37.036730
 51
53.859573
  6
CONTINUOUS
  0
ARC
  8
WHITE
 10
8.786835
 20
5.523015
 30
0.000000
 40
0.018743
 50
141.653287
 51
215.661774
  6
CONTINUOUS
  0
ARC
  8
WHITE
 10
8.000431
 20
5.084765
 30
0.000000
 40
0.881655
 50
22.268414
 51
28.991668
  6
CONTINUOUS
  0
ARC
  8
WHITE
 10
8.780422
 20
5.399967
 30
0.000000
 40
0.040578
 50
-3.982474
 51
27.756455
  6
CONTINUOUS
  0
ARC
  8
WHITE
 10
8.805342
 20
5.401672
 30
0.000000
 40
0.016204
 50
-93.741189
 51
-16.209836
  6
CONTINUOUS
  0
ARC
  8
WHITE
 10
8.627049
 20
5.042347
 30
0.000000
 40
0.386222
 50
62.684200
 51
75.256902
  6
CONTINUOUS
  0
ARC
  8
WHITE
 10
8.723325
 20
5.401694
 30
0.000000
 40
0.014302
 50
81.909556
 51
231.500914
  6
CONTINUOUS
  0
ARC
  8
WHITE
 10
8.797880
 20
5.410605
 30
0.000000
 40
0.085846
 50
-166.456767
 51
-119.936893
  6
CONTINUOUS
  0
ARC
  8
WHITE
 10
8.812291
 20
5.525967
 30
0.000000
 40
0.198203
 50
-106.789233
 51
-89.245605
  6
CONTINUOUS
  0
ARC
  8
WHITE
 10
6.655547
 20
7.610731
 30
0.000000
 40
0.070407
 50
168.175328
 51
220.508717
  6
CONTINUOUS
  0
ARC
  8
WHITE
 10
6.626144
 20
7.513508
 30
0.000000
 40
0.118436
 50
53.894456
 51
109.487493
  6
CONTINUOUS
  0
ARC
  8
WHITE
 10
6.575229
 20
7.463125
 30
0.000000
 40
0.189490
 50
24.215444
 51
50.431199
  6
CONTINUOUS
  0
ARC
  8
WHITE
 10
6.897512
 20
7.640030
 30
0.000000
 40
0.179380
 50
-146.432757
 51
-104.892762
  6
CONTINUOUS
  0
LINE
  8
WHITE
 10
6.851409
 20
7.466676
 30
0.000000
 11
6.972491
 21
7.418552
 31
0.000000
  6
CONTINUOUS
  0
LINE
  8
WHITE
 10
6.972491
 20
7.418552
 30
0.000000
 11
6.959159
 21
7.391888
 31
0.000000
  6
CONTINUOUS
  0
ARC
  8
WHITE
 10
6.952768
 20
7.835242
 30
0.000000
 40
0.443400
 50
-119.581661
 51
-89.174088
  6
CONTINUOUS
  0
ARC
  8
WHITE
 10
6.944036
 20
7.822902
 30
0.000000
 40
0.428360
 50
-142.981367
 51
-119.380784
  6
CONTINUOUS
  0
LINE
  8
WHITE
 10
6.162689
 20
7.634598
 30
0.000000
 11
6.143757
 21
7.634801
 31
0.000000
  6
CONTINUOUS
  0
LINE
  8
WHITE
 10
6.143757
 20
7.634801
 30
0.000000
 11
6.132266
 21
7.633428
 31
0.000000
  6
CONTINUOUS
  0
ARC
  8
WHITE
 10
6.140605
 20
7.620885
 30
0.000000
 40
0.015062
 50
123.618077
 51
206.586967
  6
CONTINUOUS
  0
ARC
  8
WHITE
 10
6.269995
 20
7.623693
 30
0.000000
 40
0.143178
 50
-176.175815
 51
-127.078522
  6
CONTINUOUS
  0
ARC
  8
WHITE
 10
6.409523
 20
7.742435
 30
0.000000
 40
0.324476
 50
-134.110948
 51
-112.274006
  6
CONTINUOUS
  0
ARC
  8
WHITE
 10
6.455326
 20
7.883079
 30
0.000000
 40
0.472113
 50
-110.948198
 51
-93.577191
  6
CONTINUOUS
  0
LINE
  8
WHITE
 10
6.425870
 20
7.411886
 30
0.000000
 11
6.439202
 21
7.418552
 31
0.000000
  6
CONTINUOUS
  0
ARC
  8
WHITE
 10
6.311187
 20
7.349408
 30
0.000000
 40
0.145495
 50
28.374686
 51
50.020358
  6
CONTINUOUS
  0
ARC
  8
WHITE
 10
6.152546
 20
7.150085
 30
0.000000
 40
0.400213
 50
50.951763
 51
65.005963
  6
CONTINUOUS
  0
ARC
  8
WHITE
 10
5.268766
 20
5.274557
 30
0.000000
 40
2.473534
 50
64.807672
 51
66.686519
  6
CONTINUOUS
  0
ARC
  8
WHITE
 10
6.250401
 20
7.563788
 30
0.000000
 40
0.017859
 50
179.276531
 51
261.286690
  6
CONTINUOUS
  0
ARC
  8
WHITE
 10
6.358025
 20
7.132277
 30
0.000000
 40
0.449602
 50
99.774719
 51
106.206154
  6
CONTINUOUS
  0
ARC
  8
WHITE
 10
6.192465
 20
8.073534
 30
0.000000
 40
0.506109
 50
-79.845471
 51
-74.173888
  6
CONTINUOUS
  0
ARC
  8
WHITE
 10
6.336676
 20
7.600675
 30
0.000000
 40
0.015366
 50
-113.737206
 51
-28.900639
  6
CONTINUOUS
  0
ARC
  8
WHITE
 10
6.316028
 20
7.566555
 30
0.000000
 40
0.043305
 50
38.053941
 51
79.397510
  6
CONTINUOUS
  0
ARC
  8
WHITE
 10
6.142888
 20
6.962112
 30
0.000000
 40
0.671879
 50
74.362220
 51
83.828147
  6
CONTINUOUS
  0
ARC
  8
WHITE
 10
6.125274
 20
6.891201
 30
0.000000
 40
0.744338
 50
83.066970
 51
87.118735
  6
CONTINUOUS
  0
LINE
  8
WHITE
 10
8.352377
 20
3.758855
 30
0.000000
 11
8.332379
 21
3.745523
 31
0.000000
  6
CONTINUOUS
  0
ARC
  8
WHITE
 10
8.267769
 20
2.851174
 30
0.000000
 40
0.896679
 50
85.868017
 51
98.097778
  6
CONTINUOUS
  0
ARC
  8
WHITE
 10
8.345221
 20
2.375302
 30
0.000000
 40
1.378750
 50
98.498687
 51
101.481021
  6
CONTINUOUS
  0
ARC
  8
WHITE
 10
8.050962
 20
3.782335
 30
0.000000
 40
0.059284
 50
-129.515680
 51
-70.460382
  6
CONTINUOUS
  0
ARC
  8
WHITE
 10
8.187121
 20
3.682013
 30
0.000000
 40
0.182248
 50
24.937812
 51
162.571264
  6
CONTINUOUS
  0
ARC
  8
WHITE
 10
7.605096
 20
6.810934
 30
0.000000
 40
0.180879
 50
-151.734069
 51
-84.189938
  6
CONTINUOUS
  0
ARC
  8
WHITE
 10
7.629401
 20
7.248487
 30
0.000000
 40
0.617532
 50
-90.556150
 51
-70.806547
  6
CONTINUOUS
  0
ARC
  8
WHITE
 10
7.820384
 20
6.671297
 30
0.000000
 40
0.013455
 50
-26.554149
 51
33.134425
  6
CONTINUOUS
  0
ARC
  8
WHITE
 10
7.831955
 20
6.765141
 30
0.000000
 40
0.086490
 50
-153.214260
 51
-90.201234
  6
CONTINUOUS
  0
ARC
  8
WHITE
 10
7.603471
 20
5.609493
 30
0.000000
 40
1.126871
 50
82.285132
 51
98.043930
  6
CONTINUOUS
  0
ARC
  8
WHITE
 10
7.690315
 20
7.019193
 30
0.000000
 40
0.582971
 50
-85.723104
 51
-64.740673
  6
CONTINUOUS
  0
ARC
  8
WHITE
 10
7.911512
 20
6.490085
 30
0.000000
 40
0.027629
 50
3.895503
 51
105.256622
  6
CONTINUOUS
  0
ARC
  8
WHITE
 10
7.712340
 20
5.862729
 30
0.000000
 40
0.681585
 50
73.647138
 51
103.567785
  6
CONTINUOUS
  0
ARC
  8
WHITE
 10
7.709126
 20
6.618457
 30
0.000000
 40
0.182288
 50
-149.264073
 51
-82.223542
  6
CONTINUOUS
  0
ARC
  8
WHITE
 10
7.179209
 20
7.840668
 30
0.000000
 40
0.353402
 50
-146.532032
 51
-122.891422
  6
CONTINUOUS
  0
ARC
  8
WHITE
 10
7.094816
 20
7.695050
 30
0.000000
 40
0.185479
 50
-125.429337
 51
-80.419735
  6
CONTINUOUS
  0
ARC
  8
WHITE
 10
7.113543
 20
7.543061
 30
0.000000
 40
0.033203
 50
-68.548724
 51
-37.962184
  6
CONTINUOUS
  0
ARC
  8
WHITE
 10
6.980923
 20
7.440123
 30
0.000000
 40
0.178956
 50
27.456763
 51
59.596789
  6
CONTINUOUS
  0
ARC
  8
WHITE
 10
7.906110
 20
9.196622
 30
0.000000
 40
1.806511
 50
-120.296483
 51
-117.516708
  6
CONTINUOUS
  0
ARC
  8
WHITE
 10
7.032717
 20
7.705557
 30
0.000000
 40
0.078504
 50
-146.517918
 51
-118.904592
  6
CONTINUOUS
  0
ARC
  8
WHITE
 10
7.028190
 20
7.655281
 30
0.000000
 40
0.061348
 50
140.294136
 51
173.479365
  6
CONTINUOUS
  0
ARC
  8
WHITE
 10
6.961761
 20
7.702677
 30
0.000000
 40
0.020909
 50
-23.101361
 51
69.692017
  6
CONTINUOUS
  0
ARC
  8
WHITE
 10
6.858470
 20
7.580778
 30
0.000000
 40
0.179570
 50
52.002832
 51
72.177319
  6
CONTINUOUS
  0
ARC
  8
WHITE
 10
6.873007
 20
7.623651
 30
0.000000
 40
0.134307
 50
72.482921
 51
84.268559
  6
CONTINUOUS
  0
ARC
  8
WHITE
 10
6.888755
 20
7.738953
 30
0.000000
 40
0.018482
 50
97.259376
 51
177.883954
  6
CONTINUOUS
  0
ARC
  8
WHITE
 10
6.994639
 20
7.710349
 30
0.000000
 40
0.127756
 50
166.747776
 51
210.359886
  6
CONTINUOUS
  0
ARC
  8
WHITE
 10
8.506507
 20
3.716941
 30
0.000000
 40
0.068420
 50
-158.250594
 51
-98.892582
  6
CONTINUOUS
  0
ARC
  8
WHITE
 10
8.738820
 20
4.251960
 30
0.000000
 40
0.649724
 50
-111.952337
 51
-93.252870
  6
CONTINUOUS
  0
ARC
  8
WHITE
 10
8.554925
 20
3.611369
 30
0.000000
 40
0.147251
 50
-3.148292
 51
72.324107
  6
CONTINUOUS
  0
ARC
  8
WHITE
 10
8.544900
 20
3.660075
 30
0.000000
 40
0.106701
 50
59.137776
 51
162.822422
  6
CONTINUOUS
  0
ARC
  8
WHITE
 10
6.870886
 20
8.588765
 30
0.000000
 40
0.245256
 50
169.194971
 51
262.293302
  6
CONTINUOUS
  0
ARC
  8
WHITE
 10
6.833568
 20
8.367035
 30
0.000000
 40
0.021767
 50
-78.260778
 51
44.948471
  6
CONTINUOUS
  0
ARC
  8
WHITE
 10
6.464493
 20
8.168821
 30
0.000000
 40
0.439825
 50
29.053654
 51
50.662581
  6
CONTINUOUS
  0
ARC
  8
WHITE
 10
6.358145
 20
8.308083
 30
0.000000
 40
0.434400
 50
27.548682
 51
49.476325
  6
CONTINUOUS
  0
LINE
  8
WHITE
 10
6.640402
 20
8.638286
 30
0.000000
 11
6.629978
 21
8.634742
 31
0.000000
  6
CONTINUOUS
  0
ARC
  8
WHITE
 10
10.809648
 20
2.798260
 30
0.000000
 40
0.145255
 50
-120.386747
 51
-83.315755
  6
CONTINUOUS
  0
ARC
  8
WHITE
 10
10.821149
 20
2.465708
 30
0.000000
 40
0.188362
 50
45.311511
 51
88.355210
  6
CONTINUOUS
  0
ARC
  8
WHITE
 10
10.312926
 20
1.958212
 30
0.000000
 40
0.906581
 50
36.094269
 51
45.032254
  6
CONTINUOUS
  0
LINE
  8
WHITE
 10
11.045488
 20
2.492293
 30
0.000000
 11
11.058820
 21
2.498959
 31
0.000000
  6
CONTINUOUS
  0
ARC
  8
WHITE
 10
10.777584
 20
2.474162
 30
0.000000
 40
0.282327
 50
5.038927
 51
49.469708
  6
CONTINUOUS
  0
ARC
  8
WHITE
 10
10.820002
 20
2.517790
 30
0.000000
 40
0.221635
 50
50.474953
 51
92.905349
  6
CONTINUOUS
  0
ARC
  8
WHITE
 10
10.821373
 20
2.615552
 30
0.000000
 40
0.124230
 50
95.823299
 51
124.213245
  6
CONTINUOUS
  0
ARC
  8
WHITE
 10
10.765858
 20
2.688168
 30
0.000000
 40
0.033354
 50
115.456814
 51
207.127771
  6
CONTINUOUS
  0
LINE
  8
WHITE
 10
9.793649
 20
0.727219
 30
0.000000
 11
9.806577
 21
0.807046
 31
0.000000
  6
CONTINUOUS
  0
LINE
  8
WHITE
 10
9.806577
 20
0.807046
 30
0.000000
 11
10.124150
 21
0.886226
 31
0.000000
  6
CONTINUOUS
  0
LINE
  8
WHITE
 10
10.124150
 20
0.886226
 30
0.000000
 11
10.171828
 21
0.821509
 31
0.000000
  6
CONTINUOUS
  0
LINE
  8
WHITE
 10
10.171828
 20
0.821509
 30
0.000000
 11
9.793649
 21
0.727219
 31
0.000000
  6
CONTINUOUS
  0
ARC
  8
WHITE
 10
8.903431
 20
3.326723
 30
0.000000
 40
0.078238
 50
123.038365
 51
211.347555
  6
CONTINUOUS
  0
ARC
  8
WHITE
 10
8.888879
 20
3.308555
 30
0.000000
 40
0.088345
 50
-8.913281
 51
108.548566
  6
CONTINUOUS
  0
ARC
  8
WHITE
 10
8.768262
 20
3.300652
 30
0.000000
 40
0.207975
 50
-51.052127
 51
-1.594200
  6
CONTINUOUS
  0
ARC
  8
WHITE
 10
9.449725
 20
3.459228
 30
0.000000
 40
0.637107
 50
-164.224745
 51
-149.816180
  6
CONTINUOUS
  0
ARC
  8
WHITE
 10
6.538869
 20
8.635565
 30
0.000000
 40
0.766053
 50
-34.686982
 51
-14.909235
  6
CONTINUOUS
  0
ARC
  8
WHITE
 10
7.215972
 20
8.412229
 30
0.000000
 40
0.068394
 50
22.559693
 51
66.836672
  6
CONTINUOUS
  0
ARC
  8
WHITE
 10
7.208042
 20
8.448686
 30
0.000000
 40
0.043721
 50
37.183558
 51
161.697331
  6
CONTINUOUS
  0
ARC
  8
WHITE
 10
7.378760
 20
8.332813
 30
0.000000
 40
0.248671
 50
148.588463
 51
212.388774
  6
CONTINUOUS
  0
ARC
  8
WHITE
 10
6.067427
 20
7.484283
 30
0.000000
 40
0.408806
 50
79.548105
 51
105.345468
  6
CONTINUOUS
  0
ARC
  8
WHITE
 10
6.224499
 20
8.147005
 30
0.000000
 40
0.377424
 50
-134.652954
 51
-83.705036
  6
CONTINUOUS
  0
ARC
  8
WHITE
 10
6.136853
 20
7.756446
 30
0.000000
 40
0.129947
 50
6.810882
 51
87.911531
  6
CONTINUOUS
  0
ARC
  8
WHITE
 10
7.870889
 20
9.776819
 30
0.000000
 40
0.020000
 50
37.280522
 51
173.815270
  6
CONTINUOUS
  0
ARC
  8
WHITE
 10
3.687203
 20
6.591952
 30
0.000000
 40
5.278004
 50
34.463187
 51
37.280522
  6
CONTINUOUS
  0
ARC
  8
WHITE
 10
11.243598
 20
11.877966
 30
0.000000
 40
3.944258
 50
-144.341524
 51
-142.126024
  6
CONTINUOUS
  0
ARC
  8
WHITE
 10
4.947636
 20
6.925339
 30
0.000000
 40
4.066332
 50
37.422077
 51
38.496231
  6
CONTINUOUS
  0
ARC
  8
WHITE
 10
8.156398
 20
9.365368
 30
0.000000
 40
0.037249
 50
-64.571765
 51
56.351431
  6
CONTINUOUS
  0
ARC
  8
WHITE
 10
5.864660
 20
7.965240
 30
0.000000
 40
2.681961
 50
30.631244
 51
39.417273
  6
CONTINUOUS
  0
LINE
  8
WHITE
 10
7.936588
 20
9.668187
 30
0.000000
 11
7.911486
 21
9.649234
 31
0.000000
  6
CONTINUOUS
  0
ARC
  8
WHITE
 10
7.896829
 20
9.657969
 30
0.000000
 40
0.017062
 50
-123.231065
 51
-30.792945
  6
CONTINUOUS
  0
ARC
  8
WHITE
 10
7.981531
 20
9.737232
 30
0.000000
 40
0.132646
 50
-176.683370
 51
-135.157996
  6
CONTINUOUS
  0
ARC
  8
WHITE
 10
8.204680
 20
9.740648
 30
0.000000
 40
0.355746
 50
173.815270
 51
181.786364
  6
CONTINUOUS
  0
ARC
  8
WHITE
 10
7.926705
 20
5.778656
 30
0.000000
 40
0.373370
 50
58.989588
 51
114.406664
  6
CONTINUOUS
  0
ARC
  8
WHITE
 10
7.959453
 20
6.346288
 30
0.000000
 40
0.294609
 50
-129.407876
 51
-57.195873
  6
CONTINUOUS
  0
ARC
  8
WHITE
 10
7.428210
 20
6.943758
 30
0.000000
 40
0.026233
 50
66.993010
 51
169.281805
  6
CONTINUOUS
  0
ARC
  8
WHITE
 10
7.454694
 20
6.702430
 30
0.000000
 40
0.265970
 50
57.878486
 51
93.498611
  6
CONTINUOUS
  0
LINE
  8
WHITE
 10
7.596115
 20
6.927686
 30
0.000000
 11
7.748648
 21
6.865022
 31
0.000000
  6
CONTINUOUS
  0
ARC
  8
WHITE
 10
7.641183
 20
7.178625
 30
0.000000
 40
0.331505
 50
-136.070656
 51
-71.084504
  6
CONTINUOUS
  0
ARC
  8
WHITE
 10
6.849596
 20
8.149782
 30
0.000000
 40
0.158574
 50
-172.930142
 51
-128.133260
  6
CONTINUOUS
  0
ARC
  8
WHITE
 10
7.258138
 20
8.141910
 30
0.000000
 40
0.566030
 50
176.466802
 51
181.178839
  6
CONTINUOUS
  0
ARC
  8
WHITE
 10
6.708674
 20
8.178560
 30
0.000000
 40
0.015590
 50
31.617647
 51
186.508156
  6
CONTINUOUS
  0
LINE
  8
WHITE
 10
6.721950
 20
8.186733
 30
0.000000
 11
6.909731
 21
7.972975
 31
0.000000
  6
CONTINUOUS
  0
LINE
  8
WHITE
 10
6.909731
 20
7.972975
 30
0.000000
 11
6.898162
 21
7.949838
 31
0.000000
  6
CONTINUOUS
  0
ARC
  8
WHITE
 10
7.034310
 20
8.395246
 30
0.000000
 40
0.465752
 50
-127.360648
 51
-106.996860
  6
CONTINUOUS
  0
ARC
  8
WHITE
 10
7.618025
 20
7.572770
 30
0.000000
 40
0.223798
 50
169.085820
 51
198.830643
  6
CONTINUOUS
  0
ARC
  8
WHITE
 10
7.498998
 20
7.533982
 30
0.000000
 40
0.098637
 50
-160.177992
 51
-126.455286
  6
CONTINUOUS
  0
ARC
  8
WHITE
 10
7.461241
 20
7.483004
 30
0.000000
 40
0.035199
 50
-126.327787
 51
-31.461987
  6
CONTINUOUS
  0
ARC
  8
WHITE
 10
7.325300
 20
7.540822
 30
0.000000
 40
0.182618
 50
-24.658334
 51
18.445705
  6
CONTINUOUS
  0
ARC
  8
WHITE
 10
7.373956
 20
7.565217
 30
0.000000
 40
0.128976
 50
15.002317
 51
60.556962
  6
CONTINUOUS
  0
ARC
  8
WHITE
 10
7.478561
 20
7.608290
 30
0.000000
 40
0.080578
 50
120.755780
 51
175.120879
  6
CONTINUOUS
  0
LINE
  8
WHITE
 10
7.772425
 20
8.281488
 30
0.000000
 11
7.772425
 21
8.025169
 31
0.000000
  6
CONTINUOUS
  0
ARC
  8
WHITE
 10
7.746540
 20
8.034934
 30
0.000000
 40
0.027665
 50
-115.458053
 51
-20.669209
  6
CONTINUOUS
  0
ARC
  8
WHITE
 10
7.838845
 20
8.133853
 30
0.000000
 40
0.161887
 50
114.222573
 51
229.936780
  6
CONTINUOUS
  0
ARC
  8
WHITE
 10
7.408406
 20
8.563491
 30
0.000000
 40
0.063591
 50
-78.223241
 51
-14.294879
  6
CONTINUOUS
  0
ARC
  8
WHITE
 10
7.268001
 20
8.631600
 30
0.000000
 40
0.218721
 50
-22.531103
 51
34.693757
  6
CONTINUOUS
  0
ARC
  8
WHITE
 10
7.560571
 20
8.615593
 30
0.000000
 40
0.180138
 50
128.743164
 51
219.406241
  6
CONTINUOUS
  0
ARC
  8
WHITE
 10
7.659184
 20
2.176010
 30
0.000000
 40
0.486277
 50
19.579710
 51
26.416460
  6
CONTINUOUS
  0
ARC
  8
WHITE
 10
7.909020
 20
2.298789
 30
0.000000
 40
0.207907
 50
26.744814
 51
34.590215
  6
CONTINUOUS
  0
ARC
  8
WHITE
 10
7.998149
 20
2.360503
 30
0.000000
 40
0.099499
 50
34.471377
 51
48.990634
  6
CONTINUOUS
  0
ARC
  8
WHITE
 10
7.999442
 20
2.359398
 30
0.000000
 40
0.099499
 50
49.969972
 51
67.454172
  6
CONTINUOUS
  0
ARC
  8
WHITE
 10
8.011879
 20
2.389169
 30
0.000000
 40
0.067234
 50
67.515356
 51
93.054318
  6
CONTINUOUS
  0
ARC
  8
WHITE
 10
8.006597
 20
2.440711
 30
0.000000
 40
0.015689
 50
83.780510
 51
175.374258
  6
CONTINUOUS
  0
LINE
  8
WHITE
 10
7.990958
 20
2.441976
 30
0.000000
 11
7.991214
 21
2.418322
 31
0.000000
  6
CONTINUOUS
  0
ARC
  8
WHITE
 10
8.123468
 20
2.399202
 30
0.000000
 40
0.133629
 50
171.773705
 51
216.286510
  6
CONTINUOUS
  0
ARC
  8
WHITE
 10
8.156040
 20
2.431146
 30
0.000000
 40
0.178906
 50
-141.640129
 51
-109.602245
  6
CONTINUOUS
  0
ARC
  8
WHITE
 10
8.138277
 20
2.376103
 30
0.000000
 40
0.121106
 50
-110.422299
 51
-93.928678
  6
CONTINUOUS
  0
ARC
  8
WHITE
 10
8.133896
 20
2.280054
 30
0.000000
 40
0.025080
 50
-98.984340
 51
-46.564119
  6
CONTINUOUS
  0
ARC
  8
WHITE
 10
8.140645
 20
2.268091
 30
0.000000
 40
0.012214
 50
-30.769708
 51
50.560773
  6
CONTINUOUS
  0
ARC
  8
WHITE
 10
8.219772
 20
2.345013
 30
0.000000
 40
0.098224
 50
-154.030538
 51
-136.599898
  6
CONTINUOUS
  0
ARC
  8
WHITE
 10
8.875102
 20
2.607266
 30
0.000000
 40
0.803855
 50
-160.502739
 51
-157.681683
  6
CONTINUOUS
  0
ARC
  8
WHITE
 10
6.729499
 20
1.262797
 30
0.000000
 40
0.024864
 50
169.489741
 51
220.389317
  6
CONTINUOUS
  0
ARC
  8
WHITE
 10
6.739688
 20
1.245751
 30
0.000000
 40
0.040810
 50
81.701226
 51
148.072694
  6
CONTINUOUS
  0
ARC
  8
WHITE
 10
6.704825
 20
0.940318
 30
0.000000
 40
0.348208
 50
28.247660
 51
83.278948
  6
CONTINUOUS
  0
LINE
  8
WHITE
 10
7.011565
 20
1.105119
 30
0.000000
 11
6.732902
 21
1.230123
 31
0.000000
  6
CONTINUOUS
  0
ARC
  8
WHITE
 10
6.752656
 20
1.280120
 30
0.000000
 40
0.053758
 50
-141.541536
 51
-111.559367
  6
CONTINUOUS
  0
ARC
  8
WHITE
 10
7.747638
 20
7.178872
 30
0.000000
 40
0.029296
 50
-115.108511
 51
-66.984386
  6
CONTINUOUS
  0
ARC
  8
WHITE
 10
7.494381
 20
7.183502
 30
0.000000
 40
0.266590
 50
-6.806209
 51
20.808539
  6
CONTINUOUS
  0
ARC
  8
WHITE
 10
7.627971
 20
7.255191
 30
0.000000
 40
0.117880
 50
11.259240
 51
58.466182
  6
CONTINUOUS
  0
ARC
  8
WHITE
 10
7.670918
 20
7.326339
 30
0.000000
 40
0.034783
 50
57.468024
 51
179.369593
  6
CONTINUOUS
  0
ARC
  8
WHITE
 10
7.787711
 20
7.297505
 30
0.000000
 40
0.154364
 50
169.089479
 51
250.115061
  6
CONTINUOUS
  0
ARC
  8
WHITE
 10
8.838078
 20
7.786931
 30
0.000000
 40
0.042093
 50
125.642871
 51
193.206717
  6
CONTINUOUS
  0
ARC
  8
WHITE
 10
8.180698
 20
8.853257
 30
0.000000
 40
1.240000
 50
-60.191929
 51
-43.130419
  6
CONTINUOUS
  0
LINE
  8
WHITE
 10
9.085650
 20
8.005517
 30
0.000000
 11
9.085650
 21
8.035074
 31
0.000000
  6
CONTINUOUS
  0
ARC
  8
WHITE
 10
9.105478
 20
7.824992
 30
0.000000
 40
0.211016
 50
95.391801
 51
150.788415
  6
CONTINUOUS
  0
ARC
  8
WHITE
 10
7.984666
 20
8.888195
 30
0.000000
 40
1.341381
 50
-50.042846
 51
-45.712418
  6
CONTINUOUS
  0
ARC
  8
WHITE
 10
9.059197
 20
7.648293
 30
0.000000
 40
0.300364
 50
135.185627
 51
144.868498
  6
CONTINUOUS
  0
LINE
  8
WHITE
 10
7.715506
 20
7.493066
 30
0.000000
 11
7.738564
 21
7.785138
 31
0.000000
  6
CONTINUOUS
  0
ARC
  8
WHITE
 10
7.765900
 20
7.673290
 30
0.000000
 40
0.115140
 50
103.734206
 51
190.180669
  6
CONTINUOUS
  0
ARC
  8
WHITE
 10
7.957386
 20
7.680604
 30
0.000000
 40
0.306066
 50
-174.813966
 51
-142.212478
  6
CONTINUOUS
  0
ARC
  8
WHITE
 10
7.709115
 20
8.427355
 30
0.000000
 40
0.125437
 50
105.643376
 51
162.900421
  6
CONTINUOUS
  0
ARC
  8
WHITE
 10
7.904058
 20
8.360013
 30
0.000000
 40
0.331638
 50
161.683184
 51
183.568225
  6
CONTINUOUS
  0
LINE
  8
WHITE
 10
7.573063
 20
8.339373
 30
0.000000
 11
7.725762
 21
8.485131
 31
0.000000
  6
CONTINUOUS
  0
ARC
  8
WHITE
 10
7.644235
 20
8.471551
 30
0.000000
 40
0.082651
 50
9.456793
 51
67.928827
  6
CONTINUOUS
  0
ARC
  8
WHITE
 10
8.186396
 20
9.109585
 30
0.000000
 40
1.134499
 50
-43.280170
 51
-35.170961
  6
CONTINUOUS
  0
ARC
  8
WHITE
 10
8.991120
 20
8.554411
 30
0.000000
 40
0.223608
 50
-84.558995
 51
-49.033204
  6
CONTINUOUS
  0
ARC
  8
WHITE
 10
8.896333
 20
8.650643
 30
0.000000
 40
0.358517
 50
-47.677810
 51
-17.116553
  6
CONTINUOUS
  0
ARC
  8
WHITE
 10
9.259007
 20
8.384416
 30
0.000000
 40
0.161955
 50
97.106660
 51
153.731659
  6
CONTINUOUS
  0
ARC
  8
WHITE
 10
7.212639
 20
7.867349
 30
0.000000
 40
0.029726
 50
21.784783
 51
82.909223
  6
CONTINUOUS
  0
ARC
  8
WHITE
 10
7.417847
 20
7.788270
 30
0.000000
 40
0.228925
 50
151.686670
 51
218.679531
  6
CONTINUOUS
  0
ARC
  8
WHITE
 10
6.840927
 20
7.815440
 30
0.000000
 40
0.433072
 50
-23.147416
 51
4.822702
  6
CONTINUOUS
  0
ARC
  8
WHITE
 10
6.655005
 20
7.134747
 30
0.000000
 40
0.946306
 50
49.269915
 51
51.797382
  6
CONTINUOUS
  0
ARC
  8
WHITE
 10
6.717516
 20
0.650524
 30
0.000000
 40
0.209856
 50
58.157956
 51
66.119956
  6
CONTINUOUS
  0
ARC
  8
WHITE
 10
6.807512
 20
0.789977
 30
0.000000
 40
0.044003
 50
27.569442
 51
61.910024
  6
CONTINUOUS
  0
ARC
  8
WHITE
 10
6.788724
 20
0.784278
 30
0.000000
 40
0.063400
 50
0.296849
 51
24.274802
  6
CONTINUOUS
  0
LINE
  8
WHITE
 10
6.852123
 20
0.784607
 30
0.000000
 11
6.685921
 21
0.858887
 31
0.000000
  6
CONTINUOUS
  0
ARC
  8
WHITE
 10
6.834745
 20
0.860653
 30
0.000000
 40
0.148834
 50
-179.320170
 51
-144.987966
  6
CONTINUOUS
  0
ARC
  8
WHITE
 10
6.793177
 20
0.974939
 30
0.000000
 40
0.215234
 50
-170.830242
 51
-111.915095
  6
CONTINUOUS
  0
LINE
  8
WHITE
 10
6.580694
 20
0.940640
 30
0.000000
 11
6.802470
 21
0.842415
 31
0.000000
  6
CONTINUOUS
  0
ARC
  8
WHITE
 10
7.476848
 20
8.889330
 30
0.000000
 40
0.267278
 50
146.152336
 51
189.343020
  6
CONTINUOUS
  0
ARC
  8
WHITE
 10
7.279914
 20
8.850985
 30
0.000000
 40
0.066988
 50
-175.679823
 51
-118.641328
  6
CONTINUOUS
  0
ARC
  8
WHITE
 10
7.239286
 20
8.837363
 30
0.000000
 40
0.045965
 50
-79.319083
 51
4.393302
  6
CONTINUOUS
  0
ARC
  8
WHITE
 10
6.967003
 20
8.893095
 30
0.000000
 40
0.322369
 50
-9.320741
 51
26.751401
  6
CONTINUOUS
  0
ARC
  8
WHITE
 10
7.738129
 20
8.531263
 30
0.000000
 40
1.534428
 50
-94.066340
 51
-92.396335
  6
CONTINUOUS
  0
LINE
  8
WHITE
 10
7.673972
 20
6.998177
 30
0.000000
 11
7.691178
 21
7.008501
 31
0.000000
  6
CONTINUOUS
  0
LINE
  8
WHITE
 10
7.691178
 20
7.008501
 30
0.000000
 11
7.491891
 21
7.161318
 31
0.000000
  6
CONTINUOUS
  0
ARC
  8
WHITE
 10
7.497960
 20
7.148040
 30
0.000000
 40
0.014600
 50
114.563153
 51
198.413676
  6
CONTINUOUS
  0
ARC
  8
WHITE
 10
7.856837
 20
7.172410
 30
0.000000
 40
0.373855
 50
-175.553796
 51
-170.807267
  6
CONTINUOUS
  0
ARC
  8
WHITE
 10
7.585051
 20
7.121508
 30
0.000000
 40
0.097667
 50
-174.816743
 51
-156.750009
  6
CONTINUOUS
  0
ARC
  8
WHITE
 10
7.606558
 20
7.136575
 30
0.000000
 40
0.123490
 50
-154.265214
 51
-137.661542
  6
CONTINUOUS
  0
ARC
  8
WHITE
 10
7.623808
 20
7.144174
 30
0.000000
 40
0.141487
 50
-140.092364
 51
-104.446490
  6
CONTINUOUS
  0
ARC
  8
WHITE
 10
7.647696
 20
7.248809
 30
0.000000
 40
0.248790
 50
-103.762320
 51
-94.235718
  6
CONTINUOUS
  0
ARC
  8
WHITE
 10
9.072179
 20
7.484276
 30
0.000000
 40
0.020936
 50
-15.879784
 51
89.619854
  6
CONTINUOUS
  0
ARC
  8
WHITE
 10
11.623317
 20
4.652048
 30
0.000000
 40
3.827289
 50
131.799744
 51
134.197442
  6
CONTINUOUS
  0
ARC
  8
WHITE
 10
9.151222
 20
7.151275
 30
0.000000
 40
0.313554
 50
128.697085
 51
157.884611
  6
CONTINUOUS
  0
ARC
  8
WHITE
 10
8.869649
 20
7.258636
 30
0.000000
 40
0.013913
 50
129.835961
 51
210.193564
  6
CONTINUOUS
  0
ARC
  8
WHITE
 10
8.703160
 20
7.571252
 30
0.000000
 40
0.354981
 50
-64.206135
 51
-37.655318
  6
CONTINUOUS
  0
ARC
  8
WHITE
 10
26.318916
 20
-7.631734
 30
0.000000
 40
22.914545
 50
138.744438
 51
139.156092
  6
CONTINUOUS
  0
ARC
  8
WHITE
 10
6.107930
 20
2.931000
 30
0.000000
 40
0.191133
 50
100.547862
 51
137.992165
  6
CONTINUOUS
  0
ARC
  8
WHITE
 10
6.072566
 20
3.201079
 30
0.000000
 40
0.177728
 50
-126.878470
 51
-53.121530
  6
CONTINUOUS
  0
ARC
  8
WHITE
 10
6.051112
 20
2.956088
 30
0.000000
 40
0.164272
 50
38.751122
 51
82.363489
  6
CONTINUOUS
  0
ARC
  8
WHITE
 10
10.004924
 20
6.370612
 30
0.000000
 40
0.315868
 50
6.305367
 51
32.838914
  6
CONTINUOUS
  0
ARC
  8
WHITE
 10
10.081765
 20
6.414197
 30
0.000000
 40
0.227727
 50
34.109351
 51
52.513247
  6
CONTINUOUS
  0
LINE
  8
WHITE
 10
10.220354
 20
6.594897
 30
0.000000
 11
10.191958
 21
6.617649
 31
0.000000
  6
CONTINUOUS
  0
ARC
  8
WHITE
 10
10.184074
 20
6.603844
 30
0.000000
 40
0.015898
 50
60.268881
 51
192.604073
  6
CONTINUOUS
  0
ARC
  8
WHITE
 10
10.231789
 20
6.558929
 30
0.000000
 40
0.075603
 50
146.756024
 51
219.047364
  6
CONTINUOUS
  0
ARC
  8
WHITE
 10
10.097939
 20
6.719678
 30
0.000000
 40
0.221508
 50
-70.172135
 51
-54.821584
  6
CONTINUOUS
  0
LINE
  8
WHITE
 10
10.225555
 20
6.538625
 30
0.000000
 11
10.294781
 21
6.393253
 31
0.000000
  6
CONTINUOUS
  0
ARC
  8
WHITE
 10
10.306244
 20
6.400451
 30
0.000000
 40
0.013536
 50
-147.873077
 51
21.003179
  6
CONTINUOUS
  0
LINE
  8
WHITE
 10
8.248989
 20
5.621971
 30
0.000000
 11
8.239053
 21
5.612035
 31
0.000000
  6
CONTINUOUS
  0
ARC
  8
WHITE
 10
13.624200
 20
8.740699
 30
0.000000
 40
6.228029
 50
-149.844261
 51
-148.531967
  6
CONTINUOUS
  0
ARC
  8
WHITE
 10
8.520713
 20
5.643446
 30
0.000000
 40
0.259236
 50
-143.576842
 51
-112.033349
  6
CONTINUOUS
  0
LINE
  8
WHITE
 10
8.423462
 20
5.403143
 30
0.000000
 11
8.449350
 21
5.429031
 31
0.000000
  6
CONTINUOUS
  0
LINE
  8
WHITE
 10
8.449350
 20
5.429031
 30
0.000000
 11
8.248989
 21
5.621971
 31
0.000000
  6
CONTINUOUS
  0
ARC
  8
WHITE
 10
7.520049
 20
8.172607
 30
0.000000
 40
0.181792
 50
154.488934
 51
182.361408
  6
CONTINUOUS
  0
ARC
  8
WHITE
 10
7.507156
 20
8.171994
 30
0.000000
 40
0.168885
 50
-177.666094
 51
-162.657758
  6
CONTINUOUS
  0
ARC
  8
WHITE
 10
7.361794
 20
8.121417
 30
0.000000
 40
0.015848
 50
179.145509
 51
339.504631
  6
CONTINUOUS
  0
ARC
  8
WHITE
 10
7.235499
 20
8.258160
 30
0.000000
 40
0.200418
 50
-45.232907
 51
-15.253102
  6
CONTINUOUS
  0
ARC
  8
WHITE
 10
7.358175
 20
8.214196
 30
0.000000
 40
0.071224
 50
-7.066867
 51
55.863540
  6
CONTINUOUS
  0
ARC
  8
WHITE
 10
7.383042
 20
8.250692
 30
0.000000
 40
0.027062
 50
56.080443
 51
179.554427
  6
CONTINUOUS
  0
ARC
  8
WHITE
 10
9.771643
 20
6.443131
 30
0.000000
 40
0.161971
 50
-32.884060
 51
15.004963
  6
CONTINUOUS
  0
ARC
  8
WHITE
 10
9.872372
 20
6.452341
 30
0.000000
 40
0.064618
 50
30.425693
 51
89.376398
  6
CONTINUOUS
  0
ARC
  8
WHITE
 10
9.911823
 20
6.456778
 30
0.000000
 40
0.071573
 50
122.777122
 51
202.424799
  6
CONTINUOUS
  0
ARC
  8
WHITE
 10
9.971784
 20
6.471723
 30
0.000000
 40
0.133010
 50
-161.480203
 51
-118.821846
  6
CONTINUOUS
  0
ARC
  8
WHITE
 10
8.272091
 20
5.441726
 30
0.000000
 40
0.096493
 50
-171.739562
 51
-58.023596
  6
CONTINUOUS
  0
ARC
  8
WHITE
 10
8.279273
 20
5.367509
 30
0.000000
 40
0.044576
 50
-9.861324
 51
53.181922
  6
CONTINUOUS
  0
ARC
  8
WHITE
 10
8.207757
 20
5.322165
 30
0.000000
 40
0.127337
 50
39.518717
 51
78.763729
  6
CONTINUOUS
  0
ARC
  8
WHITE
 10
8.215921
 20
5.404412
 30
0.000000
 40
0.045784
 50
68.677081
 51
149.189022
  6
CONTINUOUS
  0
ARC
  8
WHITE
 10
8.639020
 20
5.397188
 30
0.000000
 40
0.114266
 50
-148.629946
 51
-127.258247
  6
CONTINUOUS
  0
ARC
  8
WHITE
 10
8.579439
 20
5.319097
 30
0.000000
 40
0.016042
 50
-126.743337
 51
-10.452674
  6
CONTINUOUS
  0
ARC
  8
WHITE
 10
8.384236
 20
5.386430
 30
0.000000
 40
0.222365
 50
-18.414614
 51
6.280469
  6
CONTINUOUS
  0
ARC
  8
WHITE
 10
8.552371
 20
5.410721
 30
0.000000
 40
0.052896
 50
0.037637
 51
53.723436
  6
CONTINUOUS
  0
ARC
  8
WHITE
 10
8.558881
 20
5.431765
 30
0.000000
 40
0.032877
 50
41.066892
 51
116.331342
  6
CONTINUOUS
  0
ARC
  8
WHITE
 10
8.598513
 20
5.407907
 30
0.000000
 40
0.076044
 50
135.474912
 51
192.518565
  6
CONTINUOUS
  0
ARC
  8
WHITE
 10
8.657689
 20
5.404484
 30
0.000000
 40
0.134050
 50
-174.409230
 51
-150.121653
  6
CONTINUOUS
  0
ARC
  8
WHITE
 10
5.365293
 20
2.925696
 30
0.000000
 40
0.019984
 50
143.950831
 51
264.242155
  6
CONTINUOUS
  0
ARC
  8
WHITE
 10
5.419711
 20
3.039834
 30
0.000000
 40
0.145415
 50
-112.830804
 51
-53.536967
  6
CONTINUOUS
  0
ARC
  8
WHITE
 10
5.478002
 20
2.919005
 30
0.000000
 40
0.028396
 50
7.855108
 51
74.675592
  6
CONTINUOUS
  0
ARC
  8
WHITE
 10
5.419556
 20
2.907811
 30
0.000000
 40
0.076406
 50
30.327733
 51
157.170047
  6
CONTINUOUS
  0
ARC
  8
WHITE
 10
7.158176
 20
9.249798
 30
0.000000
 40
0.106940
 50
19.255350
 51
53.419438
  6
CONTINUOUS
  0
ARC
  8
WHITE
 10
7.205526
 20
9.280595
 30
0.000000
 40
0.057463
 50
73.436291
 51
167.780369
  6
CONTINUOUS
  0
ARC
  8
WHITE
 10
7.355432
 20
9.222705
 30
0.000000
 40
0.217649
 50
161.224629
 51
186.410236
  6
CONTINUOUS
  0
ARC
  8
WHITE
 10
6.820134
 20
9.766512
 30
0.000000
 40
0.651546
 50
-60.684374
 51
-47.640330
  6
CONTINUOUS
  0
ARC
  8
WHITE
 10
7.317597
 20
7.341519
 30
0.000000
 40
0.015589
 50
61.305777
 51
179.944719
  6
CONTINUOUS
  0
ARC
  8
WHITE
 10
7.512319
 20
7.280003
 30
0.000000
 40
0.219128
 50
163.692138
 51
213.316663
  6
CONTINUOUS
  0
ARC
  8
WHITE
 10
7.158259
 20
7.267998
 30
0.000000
 40
0.202394
 50
-32.368704
 51
16.067705
  6
CONTINUOUS
  0
ARC
  8
WHITE
 10
7.294983
 20
7.300623
 30
0.000000
 40
0.062321
 50
22.046391
 51
61.120521
  6
CONTINUOUS
  0
ARC
  8
WHITE
 10
6.838663
 20
8.633134
 30
0.000000
 40
0.217364
 50
11.372980
 51
32.077026
  6
CONTINUOUS
  0
ARC
  8
WHITE
 10
7.016293
 20
8.745158
 30
0.000000
 40
0.007384
 50
27.494848
 51
190.231269
  6
CONTINUOUS
  0
ARC
  8
WHITE
 10
7.434128
 20
8.601447
 30
0.000000
 40
0.448319
 50
161.480349
 51
165.262673
  6
CONTINUOUS
  0
ARC
  8
WHITE
 10
7.210338
 20
8.642976
 30
0.000000
 40
0.221960
 50
160.930411
 51
177.759746
  6
CONTINUOUS
  0
ARC
  8
WHITE
 10
7.210163
 20
8.639292
 30
0.000000
 40
0.221960
 50
176.807596
 51
185.146313
  6
CONTINUOUS
  0
ARC
  8
WHITE
 10
7.119051
 20
8.631287
 30
0.000000
 40
0.130498
 50
-174.765727
 51
-160.833661
  6
CONTINUOUS
  0
ARC
  8
WHITE
 10
7.093665
 20
8.619457
 30
0.000000
 40
0.102674
 50
-162.418394
 51
-147.472493
  6
CONTINUOUS
  0
ARC
  8
WHITE
 10
7.018609
 20
8.568746
 30
0.000000
 40
0.012360
 50
-158.660670
 51
-46.271206
  6
CONTINUOUS
  0
ARC
  8
WHITE
 10
6.961508
 20
8.624796
 30
0.000000
 40
0.092368
 50
-44.708834
 51
-12.578725
  6
CONTINUOUS
  0
ARC
  8
WHITE
 10
6.885668
 20
8.640571
 30
0.000000
 40
0.169827
 50
-12.200835
 51
12.040316
  6
CONTINUOUS
  0
ARC
  8
WHITE
 10
9.266493
 20
5.166817
 30
0.000000
 40
0.149814
 50
-162.665979
 51
-133.080730
  6
CONTINUOUS
  0
ARC
  8
WHITE
 10
9.137390
 20
5.133853
 30
0.000000
 40
0.018156
 50
29.412433
 51
220.005887
  6
CONTINUOUS
  0
ARC
  8
WHITE
 10
8.971282
 20
4.848875
 30
0.000000
 40
0.345645
 50
29.437515
 51
58.241998
  6
CONTINUOUS
  0
LINE
  8
WHITE
 10
9.272301
 20
5.018751
 30
0.000000
 11
9.252303
 21
5.005419
 31
0.000000
  6
CONTINUOUS
  0
ARC
  8
WHITE
 10
9.324633
 20
5.228788
 30
0.000000
 40
0.234788
 50
-133.114220
 51
-107.942667
  6
CONTINUOUS
  0
ARC
  8
WHITE
 10
9.374700
 20
5.314690
 30
0.000000
 40
0.105450
 50
-133.944240
 51
-76.700800
  6
CONTINUOUS
  0
ARC
  8
WHITE
 10
9.235572
 20
5.179907
 30
0.000000
 40
0.166520
 50
11.135783
 51
72.504572
  6
CONTINUOUS
  0
ARC
  8
WHITE
 10
9.394098
 20
5.304723
 30
0.000000
 40
0.113669
 50
162.594626
 51
215.469035
  6
CONTINUOUS
  0
ARC
  8
WHITE
 10
8.793478
 20
7.517967
 30
0.000000
 40
0.102295
 50
-22.477242
 51
2.009257
  6
CONTINUOUS
  0
ARC
  8
WHITE
 10
8.861531
 20
7.528656
 30
0.000000
 40
0.034909
 50
-11.739291
 51
115.186236
  6
CONTINUOUS
  0
ARC
  8
WHITE
 10
8.892886
 20
7.486395
 30
0.000000
 40
0.087118
 50
122.034926
 51
196.550087
  6
CONTINUOUS
  0
ARC
  8
WHITE
 10
8.847245
 20
7.476790
 30
0.000000
 40
0.040809
 50
-158.115781
 51
2.905747
  6
CONTINUOUS
  0
ARC
  8
WHITE
 10
9.343593
 20
7.238420
 30
0.000000
 40
0.263522
 50
106.762516
 51
135.116902
  6
CONTINUOUS
  0
ARC
  8
WHITE
 10
9.276749
 20
7.474887
 30
0.000000
 40
0.018313
 50
-31.879421
 51
120.003605
  6
CONTINUOUS
  0
LINE
  8
WHITE
 10
9.292299
 20
7.465215
 30
0.000000
 11
9.072317
 21
7.325227
 31
0.000000
  6
CONTINUOUS
  0
ARC
  8
WHITE
 10
9.810517
 20
6.781315
 30
0.000000
 40
0.916940
 50
135.467400
 51
143.616860
  6
CONTINUOUS
  0
ARC
  8
WHITE
 10
9.170317
 20
5.441691
 30
0.000000
 40
0.147787
 50
-125.517801
 51
-100.370247
  6
CONTINUOUS
  0
ARC
  8
WHITE
 10
9.163064
 20
5.379456
 30
0.000000
 40
0.085360
 50
-103.102027
 51
-86.837799
  6
CONTINUOUS
  0
ARC
  8
WHITE
 10
9.150671
 20
5.322500
 30
0.000000
 40
0.033044
 50
-58.830695
 51
15.032195
  6
CONTINUOUS
  0
ARC
  8
WHITE
 10
9.063281
 20
5.257914
 30
0.000000
 40
0.139946
 50
31.516268
 51
83.700010
  6
CONTINUOUS
  0
ARC
  8
WHITE
 10
9.112855
 20
5.361619
 30
0.000000
 40
0.049232
 50
134.030093
 51
234.775617
  6
CONTINUOUS
  0
ARC
  8
WHITE
 10
6.962312
 20
7.953865
 30
0.000000
 40
0.135648
 50
31.828129
 51
59.072817
  6
CONTINUOUS
  0
ARC
  8
WHITE
 10
7.034470
 20
8.045209
 30
0.000000
 40
0.025137
 50
95.575246
 51
204.580663
  6
CONTINUOUS
  0
ARC
  8
WHITE
 10
7.153277
 20
8.040097
 30
0.000000
 40
0.141766
 50
-177.839373
 51
-148.296894
  6
CONTINUOUS
  0
ARC
  8
WHITE
 10
7.067801
 20
7.971926
 30
0.000000
 40
0.035702
 50
-169.787492
 51
-51.075229
  6
CONTINUOUS
  0
ARC
  8
WHITE
 10
7.005301
 20
7.972522
 30
0.000000
 40
0.089545
 50
-18.471278
 51
36.195973
  6
CONTINUOUS
  0
ARC
  8
WHITE
 10
8.805602
 20
5.396919
 30
0.000000
 40
0.204374
 50
11.800857
 51
62.807077
  6
CONTINUOUS
  0
ARC
  8
WHITE
 10
9.150225
 20
5.576780
 30
0.000000
 40
0.251234
 50
179.561033
 51
202.843517
  6
CONTINUOUS
  0
ARC
  8
WHITE
 10
8.990742
 20
5.520272
 30
0.000000
 40
0.082908
 50
-150.341793
 51
-79.636866
  6
CONTINUOUS
  0
ARC
  8
WHITE
 10
8.997743
 20
5.290793
 30
0.000000
 40
0.368031
 50
-146.078742
 51
-115.551406
  6
CONTINUOUS
  0
ARC
  8
WHITE
 10
8.712543
 20
4.986542
 30
0.000000
 40
0.100911
 50
39.455197
 51
101.543812
  6
CONTINUOUS
  0
ARC
  8
WHITE
 10
8.015848
 20
4.357658
 30
0.000000
 40
1.039368
 50
35.784901
 51
41.817621
  6
CONTINUOUS
  0
LINE
  8
WHITE
 10
8.859002
 20
4.965422
 30
0.000000
 11
8.839003
 21
4.958756
 31
0.000000
  6
CONTINUOUS
  0
ARC
  8
WHITE
 10
5.969091
 20
3.249392
 30
0.000000
 40
0.114453
 50
173.160832
 51
217.798749
  6
CONTINUOUS
  0
ARC
  8
WHITE
 10
5.882847
 20
3.249173
 30
0.000000
 40
0.070054
 50
-93.432350
 51
-21.393262
  6
CONTINUOUS
  0
ARC
  8
WHITE
 10
5.868013
 20
3.205437
 30
0.000000
 40
0.082100
 50
12.795475
 51
67.479585
  6
CONTINUOUS
  0
ARC
  8
WHITE
 10
5.880822
 20
3.264033
 30
0.000000
 40
0.025390
 50
42.775003
 51
182.283116
  6
CONTINUOUS
  0
ARC
  8
WHITE
 10
8.592050
 20
5.613354
 30
0.000000
 40
0.254042
 50
-3.306148
 51
42.613827
  6
CONTINUOUS
  0
ARC
  8
WHITE
 10
8.926620
 20
5.732843
 30
0.000000
 40
0.156673
 50
160.417580
 51
238.890099
  6
CONTINUOUS
  0
ARC
  8
WHITE
 10
9.570214
 20
6.345235
 30
0.000000
 40
0.016317
 50
-164.333440
 51
-53.239356
  6
CONTINUOUS
  0
ARC
  8
WHITE
 10
9.450516
 20
6.408788
 30
0.000000
 40
0.150440
 50
-30.619780
 51
6.088848
  6
CONTINUOUS
  0
ARC
  8
WHITE
 10
9.544002
 20
6.410834
 30
0.000000
 40
0.057804
 50
13.924811
 51
55.488447
  6
CONTINUOUS
  0
ARC
  8
WHITE
 10
9.560083
 20
6.449956
 30
0.000000
 40
0.018715
 50
27.043892
 51
138.773746
  6
CONTINUOUS
  0
ARC
  8
WHITE
 10
9.641846
 20
6.407966
 30
0.000000
 40
0.110164
 50
150.454283
 51
217.548262
  6
CONTINUOUS
  0
ARC
  8
WHITE
 10
10.687282
 20
7.251729
 30
0.000000
 40
0.298515
 50
-47.476389
 51
-25.974971
  6
CONTINUOUS
  0
ARC
  8
WHITE
 10
10.942667
 20
7.145775
 30
0.000000
 40
0.027980
 50
-62.369978
 51
5.147529
  6
CONTINUOUS
  0
ARC
  8
WHITE
 10
10.938403
 20
7.120922
 30
0.000000
 40
0.042204
 50
40.419113
 51
158.593974
  6
CONTINUOUS
  0
ARC
  8
WHITE
 10
11.010018
 20
7.059477
 30
0.000000
 40
0.134930
 50
145.281904
 51
182.149043
  6
CONTINUOUS
  0
ARC
  8
WHITE
 10
10.887362
 20
7.046277
 30
0.000000
 40
0.014650
 50
146.245381
 51
276.600431
  6
CONTINUOUS
  0
ARC
  8
WHITE
 10
7.517982
 20
7.957949
 30
0.000000
 40
0.023168
 50
21.471279
 51
93.252524
  6
CONTINUOUS
  0
ARC
  8
WHITE
 10
7.595800
 20
7.920672
 30
0.000000
 40
0.099554
 50
142.642361
 51
202.735321
  6
CONTINUOUS
  0
ARC
  8
WHITE
 10
7.611698
 20
7.922817
 30
0.000000
 40
0.115122
 50
-159.338389
 51
-146.338367
  6
CONTINUOUS
  0
ARC
  8
WHITE
 10
7.528097
 20
7.876195
 30
0.000000
 40
0.021088
 50
-125.405977
 51
-18.284744
  6
CONTINUOUS
  0
ARC
  8
WHITE
 10
7.456606
 20
7.948228
 30
0.000000
 40
0.120668
 50
-40.676170
 51
-22.035055
  6
CONTINUOUS
  0
ARC
  8
WHITE
 10
7.532798
 20
7.914362
 30
0.000000
 40
0.037440
 50
-17.735306
 51
42.141763
  6
CONTINUOUS
  0
LINE
  8
WHITE
 10
7.560560
 20
7.939483
 30
0.000000
 11
7.539543
 21
7.966429
 31
0.000000
  6
CONTINUOUS
  0
LINE
  8
WHITE
 10
3.951124
 20
2.439421
 30
0.000000
 11
3.886948
 21
2.590929
 31
0.000000
  6
CONTINUOUS
  0
LINE
  8
WHITE
 10
3.886948
 20
2.590929
 30
0.000000
 11
4.000987
 21
2.522407
 31
0.000000
  6
CONTINUOUS
  0
LINE
  8
WHITE
 10
4.000987
 20
2.522407
 30
0.000000
 11
3.951124
 21
2.439421
 31
0.000000
  6
CONTINUOUS
  0
LINE
  8
WHITE
 10
12.084684
 20
1.977095
 30
0.000000
 11
11.923994
 21
1.993489
 31
0.000000
  6
CONTINUOUS
  0
LINE
  8
WHITE
 10
11.923994
 20
1.993489
 30
0.000000
 11
12.034821
 21
2.060081
 31
0.000000
  6
CONTINUOUS
  0
LINE
  8
WHITE
 10
12.034821
 20
2.060081
 30
0.000000
 11
12.084684
 21
1.977095
 31
0.000000
  6
CONTINUOUS
  0
ARC
  8
WHITE
 10
8.758558
 20
5.749329
 30
0.000000
 40
0.241860
 50
-119.129681
 51
-107.536405
  6
CONTINUOUS
  0
ARC
  8
WHITE
 10
8.486395
 20
5.478533
 30
0.000000
 40
0.203298
 50
11.398083
 51
58.585952
  6
CONTINUOUS
  0
ARC
  8
WHITE
 10
8.678020
 20
5.621169
 30
0.000000
 40
0.091053
 50
160.186687
 51
245.888323
  6
CONTINUOUS
  0
ARC
  8
WHITE
 10
8.665556
 20
8.237751
 30
0.000000
 40
0.318249
 50
-19.440893
 51
-14.429411
  6
CONTINUOUS
  0
ARC
  8
WHITE
 10
9.208081
 20
7.760862
 30
0.000000
 40
0.461496
 50
120.512787
 51
135.365810
  6
CONTINUOUS
  0
ARC
  8
WHITE
 10
8.977067
 20
7.978037
 30
0.000000
 40
0.144730
 50
132.291522
 51
179.814179
  6
CONTINUOUS
  0
ARC
  8
WHITE
 10
7.418649
 20
9.342427
 30
0.000000
 40
1.964382
 50
-43.973507
 51
-38.044646
  6
CONTINUOUS
  0
LINE
  8
WHITE
 10
8.928831
 20
5.098413
 30
0.000000
 11
8.918997
 21
5.078746
 31
0.000000
  6
CONTINUOUS
  0
LINE
  8
WHITE
 10
8.918997
 20
5.078746
 30
0.000000
 11
9.058985
 21
5.005419
 31
0.000000
  6
CONTINUOUS
  0
ARC
  8
WHITE
 10
8.990848
 20
5.015177
 30
0.000000
 40
0.068833
 50
-8.149865
 51
67.611045
  6
CONTINUOUS
  0
ARC
  8
WHITE
 10
8.914563
 20
4.825682
 30
0.000000
 40
0.273104
 50
67.955733
 51
87.005463
  6
CONTINUOUS
  0
ARC
  8
WHITE
 10
11.536154
 20
6.539447
 30
0.000000
 40
0.141371
 50
69.595065
 51
121.311820
  6
CONTINUOUS
  0
ARC
  8
WHITE
 10
11.359918
 20
6.921991
 30
0.000000
 40
0.336725
 50
-60.897561
 51
-47.951361
  6
CONTINUOUS
  0
ARC
  8
WHITE
 10
11.490357
 20
6.685095
 30
0.000000
 40
0.066306
 50
-108.677426
 51
-59.818915
  6
CONTINUOUS
  0
ARC
  8
WHITE
 10
11.484716
 20
6.644447
 30
0.000000
 40
0.027100
 50
144.386582
 51
234.876138
  6
CONTINUOUS
  0
ARC
  8
WHITE
 10
8.770755
 20
8.321937
 30
0.000000
 40
0.152283
 50
-49.141385
 51
-25.199490
  6
CONTINUOUS
  0
ARC
  8
WHITE
 10
8.901410
 20
8.273210
 30
0.000000
 40
0.017620
 50
-66.112580
 51
17.769380
  6
CONTINUOUS
  0
ARC
  8
WHITE
 10
8.894581
 20
8.218326
 30
0.000000
 40
0.064721
 50
68.606285
 51
179.980110
  6
CONTINUOUS
  0
ARC
  8
WHITE
 10
8.849994
 20
8.212117
 30
0.000000
 40
0.021076
 50
162.803436
 51
345.278693
  6
CONTINUOUS
  0
ARC
  8
WHITE
 10
9.192689
 20
5.425488
 30
0.000000
 40
0.030713
 50
-1.970766
 51
71.324350
  6
CONTINUOUS
  0
ARC
  8
WHITE
 10
9.108090
 20
5.356884
 30
0.000000
 40
0.135879
 50
45.974169
 51
95.470162
  6
CONTINUOUS
  0
ARC
  8
WHITE
 10
9.207084
 20
5.548866
 30
0.000000
 40
0.125497
 50
-153.129328
 51
-82.537089
  6
CONTINUOUS
  0
ARC
  8
WHITE
 10
8.404709
 20
5.876530
 30
0.000000
 40
0.075987
 50
174.742286
 51
227.687012
  6
CONTINUOUS
  0
ARC
  8
WHITE
 10
8.367942
 20
5.826842
 30
0.000000
 40
0.015788
 50
-155.674934
 51
-27.992143
  6
CONTINUOUS
  0
ARC
  8
WHITE
 10
8.200020
 20
5.907158
 30
0.000000
 40
0.201916
 50
-25.751415
 51
-15.805591
  6
CONTINUOUS
  0
ARC
  8
WHITE
 10
8.348298
 20
5.857525
 30
0.000000
 40
0.046316
 50
-6.649512
 51
70.526405
  6
CONTINUOUS
  0
ARC
  8
WHITE
 10
8.351406
 20
5.882506
 30
0.000000
 40
0.022387
 50
56.575089
 51
177.473308
  6
CONTINUOUS
  0
ARC
  8
WHITE
 10
8.680002
 20
4.895917
 30
0.000000
 40
0.015045
 50
-114.098576
 51
24.996401
  6
CONTINUOUS
  0
ARC
  8
WHITE
 10
8.594014
 20
4.862013
 30
0.000000
 40
0.107452
 50
22.005405
 51
87.725595
  6
CONTINUOUS
  0
ARC
  8
WHITE
 10
8.618263
 20
4.958848
 30
0.000000
 40
0.022590
 50
152.209618
 51
229.375612
  6
CONTINUOUS
  0
ARC
  8
WHITE
 10
8.744201
 20
5.036553
 30
0.000000
 40
0.169642
 50
-146.004495
 51
-114.497582
  6
CONTINUOUS
  0
ARC
  8
WHITE
 10
8.454955
 20
5.219360
 30
0.000000
 40
0.009799
 50
-164.643531
 51
5.953324
  6
CONTINUOUS
  0
ARC
  8
WHITE
 10
8.380183
 20
5.237799
 30
0.000000
 40
0.086295
 50
-11.647549
 51
67.813314
  6
CONTINUOUS
  0
ARC
  8
WHITE
 10
8.435958
 20
5.288897
 30
0.000000
 40
0.036980
 50
128.831218
 51
221.572481
  6
CONTINUOUS
  0
ARC
  8
WHITE
 10
8.554063
 20
5.339992
 30
0.000000
 40
0.164224
 50
-152.577503
 51
-131.378797
  6
CONTINUOUS
  0
LINE
  8
WHITE
 10
4.616156
 20
2.152776
 30
0.000000
 11
4.572083
 21
2.079427
 31
0.000000
  6
CONTINUOUS
  0
LINE
  8
WHITE
 10
4.572083
 20
2.079427
 30
0.000000
 11
4.535847
 21
2.201031
 31
0.000000
  6
CONTINUOUS
  0
LINE
  8
WHITE
 10
4.535847
 20
2.201031
 30
0.000000
 11
4.616156
 21
2.152776
 31
0.000000
  6
CONTINUOUS
  0
LINE
  8
WHITE
 10
8.790021
 20
5.179061
 30
0.000000
 11
8.760421
 21
5.214413
 31
0.000000
  6
CONTINUOUS
  0
ARC
  8
WHITE
 10
8.846795
 20
5.014488
 30
0.000000
 40
0.217786
 50
113.365909
 51
130.407736
  6
CONTINUOUS
  0
ARC
  8
WHITE
 10
8.830828
 20
5.346853
 30
0.000000
 40
0.208350
 50
-126.937650
 51
-96.545804
  6
CONTINUOUS
  0
ARC
  8
WHITE
 10
8.768539
 20
5.146404
 30
0.000000
 40
0.039089
 50
-9.634896
 51
56.662159
  6
CONTINUOUS
  0
ARC
  8
WHITE
 10
7.820573
 20
4.963534
 30
0.000000
 40
0.692038
 50
54.879655
 51
60.835644
  6
CONTINUOUS
  0
ARC
  8
WHITE
 10
8.101861
 20
5.497036
 30
0.000000
 40
0.090244
 50
51.681444
 51
96.183015
  6
CONTINUOUS
  0
ARC
  8
WHITE
 10
8.249682
 20
5.709053
 30
0.000000
 40
0.199439
 50
-142.178055
 51
-104.813881
  6
CONTINUOUS
  0
LINE
  8
WHITE
 10
8.198689
 20
5.516243
 30
0.000000
 11
8.218700
 21
5.529583
 31
0.000000
  6
CONTINUOUS
  0
ARC
  8
WHITE
 10
9.612786
 20
5.462690
 30
0.000000
 40
0.028356
 50
37.470101
 51
166.762885
  6
CONTINUOUS
  0
ARC
  8
WHITE
 10
9.646980
 20
5.501918
 30
0.000000
 40
0.069931
 50
-152.088607
 51
-99.874031
  6
CONTINUOUS
  0
ARC
  8
WHITE
 10
9.641962
 20
5.475111
 30
0.000000
 40
0.042661
 50
-99.408623
 51
-61.836035
  6
CONTINUOUS
  0
ARC
  8
WHITE
 10
9.659978
 20
5.450050
 30
0.000000
 40
0.012728
 50
-80.410906
 51
30.375975
  6
CONTINUOUS
  0
ARC
  8
WHITE
 10
9.481528
 20
5.207276
 30
0.000000
 40
0.313033
 50
52.760823
 51
60.580076
  6
CONTINUOUS
  0
ARC
  8
WHITE
 10
11.243697
 20
7.076487
 30
0.000000
 40
0.053469
 50
-3.769058
 51
56.052726
  6
CONTINUOUS
  0
ARC
  8
WHITE
 10
11.226879
 20
7.095928
 30
0.000000
 40
0.052910
 50
28.091470
 51
72.935987
  6
CONTINUOUS
  0
ARC
  8
WHITE
 10
11.269792
 20
7.120106
 30
0.000000
 40
0.038041
 50
136.048406
 51
232.118659
  6
CONTINUOUS
  0
ARC
  8
WHITE
 10
11.277513
 20
7.098599
 30
0.000000
 40
0.032225
 50
-164.673583
 51
-52.678376
  6
CONTINUOUS
  0
ARC
  8
WHITE
 10
8.580574
 20
8.126436
 30
0.000000
 40
0.177831
 50
-79.539999
 51
-65.001089
  6
CONTINUOUS
  0
ARC
  8
WHITE
 10
8.608284
 20
8.070535
 30
0.000000
 40
0.115466
 50
-65.740509
 51
-29.984131
  6
CONTINUOUS
  0
ARC
  8
WHITE
 10
8.693800
 20
7.920153
 30
0.000000
 40
0.093804
 50
81.109996
 51
150.462542
  6
CONTINUOUS
  0
ARC
  8
WHITE
 10
8.616382
 20
7.959154
 30
0.000000
 40
0.008370
 50
120.073511
 51
245.108562
  6
CONTINUOUS
  0
ARC
  8
WHITE
 10
6.300577
 20
3.765909
 30
0.000000
 40
0.051589
 50
-6.554151
 51
53.236922
  6
CONTINUOUS
  0
ARC
  8
WHITE
 10
6.313344
 20
3.803244
 30
0.000000
 40
0.018545
 50
12.437106
 51
185.403434
  6
CONTINUOUS
  0
ARC
  8
WHITE
 10
6.333615
 20
3.794846
 30
0.000000
 40
0.039301
 50
170.254634
 51
297.610975
  6
CONTINUOUS
  0
ARC
  8
WHITE
 10
9.351902
 20
5.409752
 30
0.000000
 40
0.034973
 50
26.560748
 51
100.825427
  6
CONTINUOUS
  0
ARC
  8
WHITE
 10
9.401462
 20
5.440015
 30
0.000000
 40
0.056277
 50
175.834567
 51
265.725119
  6
CONTINUOUS
  0
ARC
  8
WHITE
 10
9.356383
 20
5.393157
 30
0.000000
 40
0.041920
 50
-12.765296
 51
50.257120
  6
CONTINUOUS
  0
ARC
  8
WHITE
 10
9.142872
 20
2.751323
 30
0.000000
 40
0.019567
 50
113.143151
 51
175.830770
  6
CONTINUOUS
  0
ARC
  8
WHITE
 10
9.223094
 20
2.700101
 30
0.000000
 40
0.112779
 50
152.173444
 51
165.936351
  6
CONTINUOUS
  0
ARC
  8
WHITE
 10
9.121925
 20
2.726991
 30
0.000000
 40
0.008246
 50
176.417860
 51
306.009037
  6
CONTINUOUS
  0
LINE
  8
WHITE
 10
9.126773
 20
2.720321
 30
0.000000
 11
9.147566
 21
2.722696
 31
0.000000
  6
CONTINUOUS
  0
ARC
  8
WHITE
 10
9.151514
 20
2.735677
 30
0.000000
 40
0.013568
 50
-106.915210
 51
68.469966
  6
CONTINUOUS
  0
ARC
  8
WHITE
 10
9.058979
 20
2.670734
 30
0.000000
 40
0.124600
 50
38.499373
 51
52.296259
  6
CONTINUOUS
  0
ARC
  8
WHITE
 10
9.456474
 20
5.524003
 30
0.000000
 40
0.011322
 50
-53.272140
 51
88.771229
  6
CONTINUOUS
  0
ARC
  8
WHITE
 10
9.423803
 20
5.480138
 30
0.000000
 40
0.067231
 50
60.617477
 51
72.670856
  6
CONTINUOUS
  0
ARC
  8
WHITE
 10
9.429469
 20
5.513027
 30
0.000000
 40
0.034428
 50
65.349648
 51
91.787133
  6
CONTINUOUS
  0
ARC
  8
WHITE
 10
9.424261
 20
5.531752
 30
0.000000
 40
0.016222
 50
75.234804
 51
327.008699
  6
CONTINUOUS
  0
ARC
  8
WHITE
 10
9.456789
 20
5.538721
 30
0.000000
 40
0.024652
 50
-140.132967
 51
-74.820570
  6
CONTINUOUS
  0
ARC
  8
WHITE
 10
6.491558
 20
1.110740
 30
0.000000
 40
0.150871
 50
-177.443388
 51
-148.355655
  6
CONTINUOUS
  0
ARC
  8
WHITE
 10
6.503100
 20
1.173969
 30
0.000000
 40
0.176702
 50
-156.676935
 51
-119.659248
  6
CONTINUOUS
  0
LINE
  8
WHITE
 10
6.415661
 20
1.020418
 30
0.000000
 11
6.363118
 21
1.031586
 31
0.000000
  6
CONTINUOUS
  0
ARC
  8
WHITE
 10
8.737160
 20
7.813193
 30
0.000000
 40
0.082379
 50
130.749963
 51
157.920978
  6
CONTINUOUS
  0
ARC
  8
WHITE
 10
8.671858
 20
7.876707
 30
0.000000
 40
0.034369
 50
-108.729696
 51
-12.571575
  6
CONTINUOUS
  0
ARC
  8
WHITE
 10
8.701002
 20
7.884770
 30
0.000000
 40
0.016155
 50
-74.190942
 51
0.263927
  6
CONTINUOUS
  0
ARC
  8
WHITE
 10
8.704664
 20
7.864178
 30
0.000000
 40
0.024150
 50
58.847047
 51
151.769720
  6
CONTINUOUS
  0
LINE
  8
WHITE
 10
8.207961
 20
16.790567
 30
0.000000
 11
8.590542
 21
16.790567
 31
0.000000
  6
CONTINUOUS
  0
LINE
  8
WHITE
 10
8.207961
 20
17.112878
 30
0.000000
 11
8.590542
 21
17.112878
 31
0.000000
  6
CONTINUOUS
  0
ENDSEC
  0
EOF
