  0
SECTION
  2
HEADER
  9
$ACADVER
  1
AC1018
  9
$ACADMAINTVER
 70
     0
  9
$DWGCODEPAGE
  3
ANSI_1251
  9
$INSBASE
 10
0.0
 20
0.0
 30
0.0
  9
$EXTMIN
 10
1.000000000000000E+20
 20
1.000000000000000E+20
 30
1.000000000000000E+20
  9
$EXTMAX
 10
-1.000000000000000E+20
 20
-1.000000000000000E+20
 30
-1.000000000000000E+20
  9
$LIMMIN
 10
0.0
 20
0.0
  9
$LIMMAX
 10
12.0
 20
9.0
  9
$ORTHOMODE
 70
     0
  9
$REGENMODE
 70
     1
  9
$FILLMODE
 70
     1
  9
$QTEXTMODE
 70
     0
  9
$MIRRTEXT
 70
     1
  9
$LTSCALE
 40
1.0
  9
$ATTMODE
 70
     1
  9
$TEXTSIZE
 40
0.2
  9
$TRACEWID
 40
0.05
  9
$TEXTSTYLE
  7
Standard
  9
$CLAYER
  8
0
  9
$CELTYPE
  6
ByLayer
  9
$CECOLOR
 62
   256
  9
$CELTSCALE
 40
1.0
  9
$DISPSILH
 70
     0
  9
$DIMSCALE
 40
1.0
  9
$DIMASZ
 40
0.18
  9
$DIMEXO
 40
0.0625
  9
$DIMDLI
 40
0.38
  9
$DIMRND
 40
0.0
  9
$DIMDLE
 40
0.0
  9
$DIMEXE
 40
0.18
  9
$DIMTP
 40
0.0
  9
$DIMTM
 40
0.0
  9
$DIMTXT
 40
0.18
  9
$DIMCEN
 40
0.09
  9
$DIMTSZ
 40
0.0
  9
$DIMTOL
 70
     0
  9
$DIMLIM
 70
     0
  9
$DIMTIH
 70
     1
  9
$DIMTOH
 70
     1
  9
$DIMSE1
 70
     0
  9
$DIMSE2
 70
     0
  9
$DIMTAD
 70
     0
  9
$DIMZIN
 70
     0
  9
$DIMBLK
  1

  9
$DIMASO
 70
     1
  9
$DIMSHO
 70
     1
  9
$DIMPOST
  1

  9
$DIMAPOST
  1

  9
$DIMALT
 70
     0
  9
$DIMALTD
 70
     2
  9
$DIMALTF
 40
25.4
  9
$DIMLFAC
 40
1.0
  9
$DIMTOFL
 70
     0
  9
$DIMTVP
 40
0.0
  9
$DIMTIX
 70
     0
  9
$DIMSOXD
 70
     0
  9
$DIMSAH
 70
     0
  9
$DIMBLK1
  1

  9
$DIMBLK2
  1

  9
$DIMSTYLE
  2
Standard
  9
$DIMCLRD
 70
     0
  9
$DIMCLRE
 70
     0
  9
$DIMCLRT
 70
     0
  9
$DIMTFAC
 40
1.0
  9
$DIMGAP
 40
0.09
  9
$DIMJUST
 70
     0
  9
$DIMSD1
 70
     0
  9
$DIMSD2
 70
     0
  9
$DIMTOLJ
 70
     1
  9
$DIMTZIN
 70
     0
  9
$DIMALTZ
 70
     0
  9
$DIMALTTZ
 70
     0
  9
$DIMUPT
 70
     0
  9
$DIMDEC
 70
     4
  9
$DIMTDEC
 70
     4
  9
$DIMALTU
 70
     2
  9
$DIMALTTD
 70
     2
  9
$DIMTXSTY
  7
Standard
  9
$DIMAUNIT
 70
     0
  9
$DIMADEC
 70
     0
  9
$DIMALTRND
 40
0.0
  9
$DIMAZIN
 70
     0
  9
$DIMDSEP
 70
    46
  9
$DIMATFIT
 70
     3
  9
$DIMFRAC
 70
     0
  9
$DIMLDRBLK
  1

  9
$DIMLUNIT
 70
     2
  9
$DIMLWD
 70
    -2
  9
$DIMLWE
 70
    -2
  9
$DIMTMOVE
 70
     0
  9
$LUNITS
 70
     2
  9
$LUPREC
 70
     4
  9
$SKETCHINC
 40
0.1
  9
$FILLETRAD
 40
0.5
  9
$AUNITS
 70
     0
  9
$AUPREC
 70
     0
  9
$MENU
  1
.
  9
$ELEVATION
 40
0.0
  9
$PELEVATION
 40
0.0
  9
$THICKNESS
 40
0.0
  9
$LIMCHECK
 70
     0
  9
$CHAMFERA
 40
0.5
  9
$CHAMFERB
 40
0.5
  9
$CHAMFERC
 40
1.0
  9
$CHAMFERD
 40
0.0
  9
$SKPOLY
 70
     0
  9
$TDCREATE
 40
2457123.722836366
  9
$TDUCREATE
 40
2457123.556169699
  9
$TDUPDATE
 40
2457123.722836377
  9
$TDUUPDATE
 40
2457123.556169711
  9
$TDINDWG
 40
0.0000000116
  9
$TDUSRTIMER
 40
0.0000000116
  9
$USRTIMER
 70
     1
  9
$ANGBASE
 50
0.0
  9
$ANGDIR
 70
     0
  9
$PDMODE
 70
     0
  9
$PDSIZE
 40
0.0
  9
$PLINEWID
 40
0.0
  9
$SPLFRAME
 70
     0
  9
$SPLINETYPE
 70
     6
  9
$SPLINESEGS
 70
     8
  9
$HANDSEED
  5
60
  9
$SURFTAB1
 70
     6
  9
$SURFTAB2
 70
     6
  9
$SURFTYPE
 70
     6
  9
$SURFU
 70
     6
  9
$SURFV
 70
     6
  9
$UCSBASE
  2

  9
$UCSNAME
  2

  9
$UCSORG
 10
0.0
 20
0.0
 30
0.0
  9
$UCSXDIR
 10
1.0
 20
0.0
 30
0.0
  9
$UCSYDIR
 10
0.0
 20
1.0
 30
0.0
  9
$UCSORTHOREF
  2

  9
$UCSORTHOVIEW
 70
     0
  9
$UCSORGTOP
 10
0.0
 20
0.0
 30
0.0
  9
$UCSORGBOTTOM
 10
0.0
 20
0.0
 30
0.0
  9
$UCSORGLEFT
 10
0.0
 20
0.0
 30
0.0
  9
$UCSORGRIGHT
 10
0.0
 20
0.0
 30
0.0
  9
$UCSORGFRONT
 10
0.0
 20
0.0
 30
0.0
  9
$UCSORGBACK
 10
0.0
 20
0.0
 30
0.0
  9
$PUCSBASE
  2

  9
$PUCSNAME
  2

  9
$PUCSORG
 10
0.0
 20
0.0
 30
0.0
  9
$PUCSXDIR
 10
1.0
 20
0.0
 30
0.0
  9
$PUCSYDIR
 10
0.0
 20
1.0
 30
0.0
  9
$PUCSORTHOREF
  2

  9
$PUCSORTHOVIEW
 70
     0
  9
$PUCSORGTOP
 10
0.0
 20
0.0
 30
0.0
  9
$PUCSORGBOTTOM
 10
0.0
 20
0.0
 30
0.0
  9
$PUCSORGLEFT
 10
0.0
 20
0.0
 30
0.0
  9
$PUCSORGRIGHT
 10
0.0
 20
0.0
 30
0.0
  9
$PUCSORGFRONT
 10
0.0
 20
0.0
 30
0.0
  9
$PUCSORGBACK
 10
0.0
 20
0.0
 30
0.0
  9
$USERI1
 70
     0
  9
$USERI2
 70
     0
  9
$USERI3
 70
     0
  9
$USERI4
 70
     0
  9
$USERI5
 70
     0
  9
$USERR1
 40
0.0
  9
$USERR2
 40
0.0
  9
$USERR3
 40
0.0
  9
$USERR4
 40
0.0
  9
$USERR5
 40
0.0
  9
$WORLDVIEW
 70
     1
  9
$SHADEDGE
 70
     3
  9
$SHADEDIF
 70
    70
  9
$TILEMODE
 70
     1
  9
$MAXACTVP
 70
    64
  9
$PINSBASE
 10
0.0
 20
0.0
 30
0.0
  9
$PLIMCHECK
 70
     0
  9
$PEXTMIN
 10
1.000000000000000E+20
 20
1.000000000000000E+20
 30
1.000000000000000E+20
  9
$PEXTMAX
 10
-1.000000000000000E+20
 20
-1.000000000000000E+20
 30
-1.000000000000000E+20
  9
$PLIMMIN
 10
0.0
 20
0.0
  9
$PLIMMAX
 10
12.0
 20
9.0
  9
$UNITMODE
 70
     0
  9
$VISRETAIN
 70
     1
  9
$PLINEGEN
 70
     0
  9
$PSLTSCALE
 70
     1
  9
$TREEDEPTH
 70
  3020
  9
$CMLSTYLE
  2
Standard
  9
$CMLJUST
 70
     0
  9
$CMLSCALE
 40
1.0
  9
$PROXYGRAPHICS
 70
     1
  9
$MEASUREMENT
 70
     0
  9
$CELWEIGHT
370
    -1
  9
$ENDCAPS
280
     0
  9
$JOINSTYLE
280
     0
  9
$LWDISPLAY
290
     1
  9
$INSUNITS
 70
     1
  9
$HYPERLINKBASE
  1

  9
$STYLESHEET
  1

  9
$XEDIT
290
     1
  9
$CEPSNTYPE
380
     0
  9
$PSTYLEMODE
290
     1
  9
$FINGERPRINTGUID
  2
{567C0218-8890-4CB1-A175-41D13C8E1611}
  9
$VERSIONGUID
  2
{FAEB1C32-E019-11D5-929B-00C0DF256EC4}
  9
$EXTNAMES
290
     1
  9
$PSVPSCALE
 40
0.0
  9
$OLESTARTUP
290
     0
  9
$SORTENTS
280
   127
  9
$INDEXCTL
280
     0
  9
$HIDETEXT
280
     1
  9
$XCLIPFRAME
290
     0
  9
$HALOGAP
280
     0
  9
$OBSCOLOR
 70
   257
  9
$OBSLTYPE
280
     0
  9
$INTERSECTIONDISPLAY
280
     0
  9
$INTERSECTIONCOLOR
 70
   257
  9
$DIMASSOC
280
     2
  9
$PROJECTNAME
  1

  0
ENDSEC
  0
SECTION
  2
CLASSES
  0
CLASS
  1
ACDBDICTIONARYWDFLT
  2
AcDbDictionaryWithDefault
  3
ObjectDBX Classes
 90
        0
 91
        3
280
     0
281
     0
  0
CLASS
  1
VISUALSTYLE
  2
AcDbVisualStyle
  3
ObjectDBX Classes
 90
     4095
 91
        3
280
     0
281
     0
  0
ENDSEC
  0
SECTION
  2
TABLES
  0
TABLE
  2
VPORT
  5
8
330
0
100
AcDbSymbolTable
 70
     1
  0
VPORT
  5
29
330
8
100
AcDbSymbolTableRecord
100
AcDbViewportTableRecord
  2
*Active
 70
     0
 10
0.0
 20
0.0
 11
1.0
 21
1.0
 12
0.0
 22
0.0
 13
0.0
 23
0.0
 14
0.5
 24
0.5
 15
0.5
 25
0.5
 16
0.0
 26
0.0
 36
1.0
 17
107.9499999730125
 27
-139.699999965075
 37
0.0
 40
279.39999993015
 41
0.7727272727272728
 42
50.0
 43
0.0
 44
0.0
 50
0.0
 51
0.0
 71
     0
 72
   100
 73
     1
 74
     3
 75
     0
 76
     0
 77
     0
 78
     0
281
     0
 65
     1
110
0.0
120
0.0
130
0.0
111
1.0
121
0.0
131
0.0
112
0.0
122
1.0
132
0.0
 79
     0
146
0.0
  0
ENDTAB
  0
TABLE
  2
LTYPE
  5
5
330
0
100
AcDbSymbolTable
 70
     1
  0
LTYPE
  5
14
330
5
100
AcDbSymbolTableRecord
100
AcDbLinetypeTableRecord
  2
ByBlock
 70
     0
  3

 72
    65
 73
     0
 40
0.0
  0
LTYPE
  5
15
330
5
100
AcDbSymbolTableRecord
100
AcDbLinetypeTableRecord
  2
ByLayer
 70
     0
  3

 72
    65
 73
     0
 40
0.0
  0
LTYPE
  5
16
330
5
100
AcDbSymbolTableRecord
100
AcDbLinetypeTableRecord
  2
Continuous
 70
     0
  3
Solid line
 72
    65
 73
     0
 40
0.0
  0
ENDTAB
  0
TABLE
  2
LAYER
  5
2
330
0
100
AcDbSymbolTable
 70
     2
  0
LAYER
  5
10
330
2
100
AcDbSymbolTableRecord
100
AcDbLayerTableRecord
  2
0
 70
     0
 62
     7
  6
Continuous
370
    -3
390
F
  0
LAYER
  5
3B
330
2
100
AcDbSymbolTableRecord
100
AcDbLayerTableRecord
  2
Layer 1
 70
     0
 62
     7
  6
Continuous
370
    -3
390
F
  0
ENDTAB
  0
TABLE
  2
STYLE
  5
3
330
0
100
AcDbSymbolTable
 70
     1
  0
STYLE
  5
11
330
3
100
AcDbSymbolTableRecord
100
AcDbTextStyleTableRecord
  2
Standard
 70
     0
 40
0.0
 41
1.0
 50
0.0
 71
     0
 42
0.2
  3
txt
  4

  0
ENDTAB
  0
TABLE
  2
VIEW
  5
6
330
0
100
AcDbSymbolTable
 70
     0
  0
ENDTAB
  0
TABLE
  2
UCS
  5
7
330
0
100
AcDbSymbolTable
 70
     0
  0
ENDTAB
  0
TABLE
  2
APPID
  5
9
330
0
100
AcDbSymbolTable
 70
     1
  0
APPID
  5
12
330
9
100
AcDbSymbolTableRecord
100
AcDbRegAppTableRecord
  2
ACAD
 70
     0
  0
ENDTAB
  0
TABLE
  2
DIMSTYLE
  5
A
330
0
100
AcDbSymbolTable
 70
     1
100
AcDbDimStyleTable
  0
DIMSTYLE
105
27
330
A
100
AcDbSymbolTableRecord
100
AcDbDimStyleTableRecord
  2
Standard
 70
     0
340
11
  0
ENDTAB
  0
TABLE
  2
BLOCK_RECORD
  5
1
330
0
100
AcDbSymbolTable
 70
     2
  0
BLOCK_RECORD
  5
1F
330
1
100
AcDbSymbolTableRecord
100
AcDbBlockTableRecord
  2
*Model_Space
340
22
  0
BLOCK_RECORD
  5
1B
330
1
100
AcDbSymbolTableRecord
100
AcDbBlockTableRecord
  2
*Paper_Space
340
1E
  0
BLOCK_RECORD
  5
23
330
1
100
AcDbSymbolTableRecord
100
AcDbBlockTableRecord
  2
*Paper_Space0
340
26
  0
BLOCK_RECORD
  5
3C
330
1
100
AcDbSymbolTableRecord
100
AcDbBlockTableRecord
  2
block 2
340
0
102
{BLKREFS
331
3D
102
}
  0
ENDTAB
  0
ENDSEC
  0
SECTION
  2
BLOCKS
  0
BLOCK
  5
20
330
1F
100
AcDbEntity
  8
0
100
AcDbBlockBegin
  2
*Model_Space
 70
     0
 71
     0
 10
0.0
 20
0.0
 30
0.0
  3
*Model_Space
  1

  0
ENDBLK
  5
21
330
1F
100
AcDbEntity
  8
0
100
AcDbBlockEnd
  0
BLOCK
  5
1C
330
1B
100
AcDbEntity
 67
     1
  8
0
100
AcDbBlockBegin
  2
*Paper_Space
 70
     0
 71
     0
 10
0.0
 20
0.0
 30
0.0
  3
*Paper_Space
  1

  0
ENDBLK
  5
1D
330
1B
100
AcDbEntity
 67
     1
  8
0
100
AcDbBlockEnd
  0
BLOCK
  5
24
330
23
100
AcDbEntity
  8
0
100
AcDbBlockBegin
  2
*Paper_Space0
 70
     0
 71
     0
 10
0.0
 20
0.0
 30
0.0
  3
*Paper_Space0
  1

  0
ENDBLK
  5
25
330
23
100
AcDbEntity
  8
0
100
AcDbBlockEnd
  0
BLOCK
  5
3E
330
3C
100
AcDbEntity
  8
0
100
AcDbBlockBegin
  2
block 2
 70
     0
 71
     0
 10
0.0
 20
0.0
 30
0.0
  3
block 2
  1

  0
SPLINE
  5
40
330
3C
100
AcDbEntity
  8
Layer 1
370
     0
100
AcDbSpline
210
0.0
220
0.0
230
1.0
 70
    11
 71
     3
 72
   386
 73
   382
 74
     0
 42
0.0000000001
 43
0.0000000001
 40
0.0
 40
0.0
 40
0.0
 40
0.0
 40
1.0
 40
1.0
 40
1.0
 40
2.0
 40
2.0
 40
2.0
 40
3.0
 40
3.0
 40
3.0
 40
4.0
 40
4.0
 40
4.0
 40
5.0
 40
5.0
 40
5.0
 40
6.0
 40
6.0
 40
6.0
 40
7.0
 40
7.0
 40
7.0
 40
8.0
 40
8.0
 40
8.0
 40
9.0
 40
9.0
 40
9.0
 40
10.0
 40
10.0
 40
10.0
 40
11.0
 40
11.0
 40
11.0
 40
12.0
 40
12.0
 40
12.0
 40
13.0
 40
13.0
 40
13.0
 40
14.0
 40
14.0
 40
14.0
 40
15.0
 40
15.0
 40
15.0
 40
16.0
 40
16.0
 40
16.0
 40
17.0
 40
17.0
 40
17.0
 40
18.0
 40
18.0
 40
18.0
 40
19.0
 40
19.0
 40
19.0
 40
20.0
 40
20.0
 40
20.0
 40
21.0
 40
21.0
 40
21.0
 40
22.0
 40
22.0
 40
22.0
 40
23.0
 40
23.0
 40
23.0
 40
24.0
 40
24.0
 40
24.0
 40
25.0
 40
25.0
 40
25.0
 40
26.0
 40
26.0
 40
26.0
 40
27.0
 40
27.0
 40
27.0
 40
28.0
 40
28.0
 40
28.0
 40
29.0
 40
29.0
 40
29.0
 40
30.0
 40
30.0
 40
30.0
 40
31.0
 40
31.0
 40
31.0
 40
32.0
 40
32.0
 40
32.0
 40
33.0
 40
33.0
 40
33.0
 40
34.0
 40
34.0
 40
34.0
 40
35.0
 40
35.0
 40
35.0
 40
36.0
 40
36.0
 40
36.0
 40
37.0
 40
37.0
 40
37.0
 40
38.0
 40
38.0
 40
38.0
 40
39.0
 40
39.0
 40
39.0
 40
40.0
 40
40.0
 40
40.0
 40
41.0
 40
41.0
 40
41.0
 40
42.0
 40
42.0
 40
42.0
 40
43.0
 40
43.0
 40
43.0
 40
44.0
 40
44.0
 40
44.0
 40
45.0
 40
45.0
 40
45.0
 40
46.0
 40
46.0
 40
46.0
 40
47.0
 40
47.0
 40
47.0
 40
48.0
 40
48.0
 40
48.0
 40
49.0
 40
49.0
 40
49.0
 40
50.0
 40
50.0
 40
50.0
 40
51.0
 40
51.0
 40
51.0
 40
52.0
 40
52.0
 40
52.0
 40
53.0
 40
53.0
 40
53.0
 40
54.0
 40
54.0
 40
54.0
 40
55.0
 40
55.0
 40
55.0
 40
56.0
 40
56.0
 40
56.0
 40
57.0
 40
57.0
 40
57.0
 40
58.0
 40
58.0
 40
58.0
 40
59.0
 40
59.0
 40
59.0
 40
60.0
 40
60.0
 40
60.0
 40
61.0
 40
61.0
 40
61.0
 40
62.0
 40
62.0
 40
62.0
 40
63.0
 40
63.0
 40
63.0
 40
64.0
 40
64.0
 40
64.0
 40
65.0
 40
65.0
 40
65.0
 40
66.0
 40
66.0
 40
66.0
 40
67.0
 40
67.0
 40
67.0
 40
68.0
 40
68.0
 40
68.0
 40
69.0
 40
69.0
 40
69.0
 40
70.0
 40
70.0
 40
70.0
 40
71.0
 40
71.0
 40
71.0
 40
72.0
 40
72.0
 40
72.0
 40
73.0
 40
73.0
 40
73.0
 40
74.0
 40
74.0
 40
74.0
 40
75.0
 40
75.0
 40
75.0
 40
76.0
 40
76.0
 40
76.0
 40
77.0
 40
77.0
 40
77.0
 40
78.0
 40
78.0
 40
78.0
 40
79.0
 40
79.0
 40
79.0
 40
80.0
 40
80.0
 40
80.0
 40
81.0
 40
81.0
 40
81.0
 40
82.0
 40
82.0
 40
82.0
 40
83.0
 40
83.0
 40
83.0
 40
84.0
 40
84.0
 40
84.0
 40
85.0
 40
85.0
 40
85.0
 40
86.0
 40
86.0
 40
86.0
 40
87.0
 40
87.0
 40
87.0
 40
88.0
 40
88.0
 40
88.0
 40
89.0
 40
89.0
 40
89.0
 40
90.0
 40
90.0
 40
90.0
 40
91.0
 40
91.0
 40
91.0
 40
92.0
 40
92.0
 40
92.0
 40
93.0
 40
93.0
 40
93.0
 40
94.0
 40
94.0
 40
94.0
 40
95.0
 40
95.0
 40
95.0
 40
96.0
 40
96.0
 40
96.0
 40
97.0
 40
97.0
 40
97.0
 40
98.0
 40
98.0
 40
98.0
 40
99.0
 40
99.0
 40
99.0
 40
100.0
 40
100.0
 40
100.0
 40
101.0
 40
101.0
 40
101.0
 40
102.0
 40
102.0
 40
102.0
 40
103.0
 40
103.0
 40
103.0
 40
104.0
 40
104.0
 40
104.0
 40
105.0
 40
105.0
 40
105.0
 40
106.0
 40
106.0
 40
106.0
 40
107.0
 40
107.0
 40
107.0
 40
108.0
 40
108.0
 40
108.0
 40
109.0
 40
109.0
 40
109.0
 40
110.0
 40
110.0
 40
110.0
 40
111.0
 40
111.0
 40
111.0
 40
112.0
 40
112.0
 40
112.0
 40
113.0
 40
113.0
 40
113.0
 40
114.0
 40
114.0
 40
114.0
 40
115.0
 40
115.0
 40
115.0
 40
116.0
 40
116.0
 40
116.0
 40
117.0
 40
117.0
 40
117.0
 40
118.0
 40
118.0
 40
118.0
 40
119.0
 40
119.0
 40
119.0
 40
120.0
 40
120.0
 40
120.0
 40
121.0
 40
121.0
 40
121.0
 40
122.0
 40
122.0
 40
122.0
 40
123.0
 40
123.0
 40
123.0
 40
124.0
 40
124.0
 40
124.0
 40
125.0
 40
125.0
 40
125.0
 40
126.0
 40
126.0
 40
126.0
 40
127.0
 40
127.0
 40
127.0
 40
127.0
 10
137.0614013329221
 20
-108.3423963487825
 30
0.0
 10
137.0614013329221
 20
-108.3423963487825
 30
0.0
 10
137.0614013329221
 20
-111.3410074591439
 30
0.0
 10
137.0614013329221
 20
-111.3410074591439
 30
0.0
 10
139.1780679990597
 20
-111.1646185702991
 30
0.0
 10
141.6475124428868
 20
-112.3111463477903
 30
0.0
 10
141.6475124428868
 20
-115.3097574581517
 30
0.0
 10
141.6475124428868
 20
-116.4559407260944
 30
0.0
 10
141.051855433487
 20
-118.1970919843396
 30
0.0
 10
140.4909938884884
 20
-119.6171603433596
 30
0.0
 10
140.2188313451536
 20
-116.3972018480708
 30
0.0
 10
138.6499348611709
 20
-113.8927896850685
 30
0.0
 10
137.0748372053146
 20
-113.127289468246
 30
0.0
 10
136.9232530039637
 20
-113.3291720636816
 30
0.0
 10
136.9921549136686
 20
-113.7398274455234
 30
0.0
 10
136.7716688026127
 20
-113.9561794419971
 30
0.0
 10
135.969995083195
 20
-113.0849147937774
 30
0.0
 10
135.1032090591061
 20
-112.7510850412567
 30
0.0
 10
133.9856200836911
 20
-112.5977782921631
 30
0.0
 10
133.2066839944761
 20
-112.4210448937697
 30
0.0
 10
132.1214789166224
 20
-112.9143825672575
 30
0.0
 10
131.4896484046276
 20
-112.1440592167557
 30
0.0
 10
131.2712293508628
 20
-111.8784423548429
 30
0.0
 10
131.0807155705284
 20
-112.0927272940254
 30
0.0
 10
131.3539116425088
 20
-112.3786702193012
 30
0.0
 10
132.2858099712688
 20
-113.3498426365931
 30
0.0
 10
132.3254285693492
 20
-114.5917995590257
 30
0.0
 10
133.5725531350097
 20
-115.2253526187631
 30
0.0
 10
131.7969509219119
 20
-115.0592990163741
 30
0.0
 10
128.4865586701353
 20
-116.3146918111991
 30
0.0
 10
128.3394530929151
 20
-119.8865668103061
 30
0.0
 10
128.2788194123748
 20
-121.3658908116724
 30
0.0
 10
129.2937445423293
 20
-123.0178140968497
 30
0.0
 10
130.6859076279188
 20
-122.9120496654525
 30
0.0
 10
132.5042290250337
 20
-122.7728678078485
 30
0.0
 10
131.9843641163095
 20
-119.3036566542019
 30
0.0
 10
130.2442463867098
 20
-119.9423773571672
 30
0.0
 10
130.0826714084516
 20
-120.0023220186105
 30
0.0
 10
129.9317762261976
 20
-120.0939615585182
 30
0.0
 10
129.7915608399479
 20
-120.1931803084934
 30
0.0
 10
129.4601426542669
 20
-117.5008381867706
 30
0.0
 10
132.0071017465121
 20
-116.4111544847861
 30
0.0
 10
133.0413194111841
 20
-116.7377495367878
 30
0.0
 10
133.0413194111841
 20
-116.7377495367878
 30
0.0
 10
131.7966064123634
 20
-117.4632866459814
 30
0.0
 10
131.5998914601556
 20
-118.5016384252357
 30
0.0
 10
131.7652560434476
 20
-118.6835394668569
 30
0.0
 10
132.0239827143898
 20
-118.7111002307389
 30
0.0
 10
132.2720295893278
 20
-118.726258650874
 30
0.0
 10
131.9251084739632
 20
-119.9234293319983
 30
0.0
 10
131.6908419809662
 20
-120.8587727562437
 30
0.0
 10
132.7216145501529
 20
-122.0228705207096
 30
0.0
 10
132.9214300882974
 20
-122.249557803639
 30
0.0
 10
133.0323621629225
 20
-122.1927137281324
 30
0.0
 10
133.088517219332
 20
-122.0101236674141
 30
0.0
 10
133.1680989250413
 20
-121.7438177864043
 30
0.0
 10
133.2659396368224
 20
-121.5429687196143
 30
0.0
 10
133.4240695195954
 20
-121.3197265321701
 30
0.0
 10
134.9774630738945
 20
-119.1420816759437
 30
0.0
 10
137.2784423484929
 20
-120.3578558726883
 30
0.0
 10
138.1462619012273
 20
-122.1968478427147
 30
0.0
 10
138.5066188889845
 20
-123.2339938385491
 30
0.0
 10
138.4101562153975
 20
-124.2470241659869
 30
0.0
 10
138.1307589715437
 20
-125.2338717677367
 30
0.0
 10
138.1307589715437
 20
-125.2338717677367
 30
0.0
 10
134.6512125314414
 20
-133.4719563468404
 30
0.0
 10
134.6512125314414
 20
-133.4719563468404
 30
0.0
 10
134.1971489464854
 20
-133.398231303456
 30
0.0
 10
133.7255153745547
 20
-133.2668009106937
 30
0.0
 10
133.3679144631858
 20
-133.129858365155
 30
0.0
 10
132.7963731221829
 20
-132.9097167636476
 30
0.0
 10
132.2296549148593
 20
-132.6992214294988
 30
0.0
 10
131.6619031788901
 20
-132.4866590380589
 30
0.0
 10
130.060622797346
 20
-131.8927245764018
 30
0.0
 10
128.3180935009066
 20
-131.384917501876
 30
0.0
 10
126.1008300465998
 20
-133.6714273754363
 30
0.0
 10
125.5199869477867
 20
-134.2691514421272
 30
0.0
 10
124.9704942178893
 20
-135.0709974163191
 30
0.0
 10
124.3396972345401
 20
-136.1822129650864
 30
0.0
 10
124.7255479288881
 20
-132.7274712124779
 30
0.0
 10
127.6531900722534
 20
-131.2856987519008
 30
0.0
 10
129.5872666776726
 20
-131.1534070852672
 30
0.0
 10
129.9055935005097
 20
-131.1327365123557
 30
0.0
 10
129.950379741818
 20
-131.0283501191526
 30
0.0
 10
129.6248182184619
 20
-130.8919243379368
 30
0.0
 10
128.4869031796838
 20
-130.4175346896178
 30
0.0
 10
126.9917317390854
 20
-130.2907551757606
 30
0.0
 10
125.5296332151454
 20
-130.8622965167636
 30
0.0
 10
125.30432397041
 20
-130.3019517360877
 30
0.0
 10
124.8726535061082
 20
-129.7247259875341
 30
0.0
 10
124.3534776164811
 20
-129.3025295358167
 30
0.0
 10
124.5722411797944
 20
-128.9931599612413
 30
0.0
 10
124.4413275513549
 20
-128.5096408098865
 30
0.0
 10
124.0062119915679
 20
-128.3615017040208
 30
0.0
 10
124.0062119915679
 20
-128.3615017040208
 30
0.0
 10
124.0062119915679
 20
-127.7555094081653
 30
0.0
 10
124.0062119915679
 20
-127.7555094081653
 30
0.0
 10
125.0631672864425
 20
-128.1737440000746
 30
0.0
 10
125.5192979286896
 20
-129.5469590604952
 30
0.0
 10
126.5390461923236
 20
-129.4739230362079
 30
0.0
 10
127.6328640088904
 20
-129.3974419164354
 30
0.0
 10
127.9418890739173
 20
-128.0703911355171
 30
0.0
 10
128.9630153757454
 20
-127.3886067389862
 30
0.0
 10
128.0211262700781
 20
-126.7119899856831
 30
0.0
 10
127.7114121859541
 20
-125.3842501856678
 30
0.0
 10
126.7340385967887
 20
-125.3480766830727
 30
0.0
 10
125.5975015962048
 20
-125.3094916136379
 30
0.0
 10
125.2082058063716
 20
-126.5600612747836
 30
0.0
 10
124.0368733413866
 20
-126.9772623380474
 30
0.0
 10
124.3844834758483
 20
-125.8786213878012
 30
0.0
 10
125.9134168522022
 20
-125.5006944130693
 30
0.0
 10
125.9134168522022
 20
-124.4365044176756
 30
0.0
 10
125.9134168522022
 20
-123.4925482547171
 30
0.0
 10
124.3844834758483
 20
-123.1146212799852
 30
0.0
 10
123.6844400732456
 20
-122.3973523999562
 30
0.0
 10
122.9003363408027
 20
-123.0388291793097
 30
0.0
 10
121.5347004904497
 20
-123.6837510541485
 30
0.0
 10
121.5347004904497
 20
-124.4785345825957
 30
0.0
 10
121.5347004904497
 20
-125.5006944130693
 30
0.0
 10
123.4108994917167
 20
-126.330617915466
 30
0.0
 10
123.3695583458937
 20
-127.0523654196258
 30
0.0
 10
122.1954698045206
 20
-126.6361978850076
 30
0.0
 10
122.001510928701
 20
-125.4614203245374
 30
0.0
 10
120.9824516841641
 20
-125.4249023123938
 30
0.0
 10
120.0040445663532
 20
-125.4249023123938
 30
0.0
 10
119.6715928520265
 20
-126.9369547208699
 30
0.0
 10
118.5770860163627
 20
-127.5408799594342
 30
0.0
 10
119.7494520099932
 20
-128.3008680234803
 30
0.0
 10
120.2403781166413
 20
-129.5107855579001
 30
0.0
 10
121.0248263586327
 20
-129.5469590604952
 30
0.0
 10
122.0394069790388
 20
-129.6230956707192
 30
0.0
 10
122.366346540589
 20
-127.9432671121114
 30
0.0
 10
123.538368024671
 20
-127.8306124897437
 30
0.0
 10
123.538368024671
 20
-127.8306124897437
 30
0.0
 10
123.538368024671
 20
-128.3615017040208
 30
0.0
 10
123.538368024671
 20
-128.3615017040208
 30
0.0
 10
123.0543321089934
 20
-128.413522645848
 30
0.0
 10
122.9227294614568
 20
-128.9452731339963
 30
0.0
 10
123.152517330323
 20
-129.2866820965846
 30
0.0
 10
122.628173797468
 20
-129.7093953126247
 30
0.0
 10
122.1906466708412
 20
-130.2909274305349
 30
0.0
 10
121.9646484070088
 20
-130.8564398544387
 30
0.0
 10
120.5022053735203
 20
-130.2845540038872
 30
0.0
 10
119.0077229520189
 20
-130.4113335177444
 30
0.0
 10
117.8698079132409
 20
-130.8850341469662
 30
0.0
 10
117.5432128612392
 20
-131.0218044377307
 30
0.0
 10
117.5869655739019
 20
-131.1261908309337
 30
0.0
 10
117.9080484731272
 20
-131.1485839515879
 30
0.0
 10
119.8562499700359
 20
-131.281909146867
 30
0.0
 10
122.8107638581862
 20
-132.5107747064556
 30
0.0
 10
123.166297712264
 20
-136.2047783405148
 30
0.0
 10
122.5296440665898
 20
-135.083399760066
 30
0.0
 10
121.9763617316587
 20
-134.2753526140006
 30
0.0
 10
121.3934515755544
 20
-133.674527961373
 30
0.0
 10
119.1751545926021
 20
-131.3890516164583
 30
0.0
 10
117.4322807866142
 20
-131.8965141814356
 30
0.0
 10
115.8323784432641
 20
-132.4911376621897
 30
0.0
 10
115.2642821977464
 20
-132.70128848679
 30
0.0
 10
114.6975639904228
 20
-132.9131618591328
 30
0.0
 10
114.1260226494199
 20
-133.1329589510918
 30
0.0
 10
113.7746229099244
 20
-133.267662184565
 30
0.0
 10
113.313669133998
 20
-133.3963365009391
 30
0.0
 10
112.8675292686581
 20
-133.4705783086463
 30
0.0
 10
112.8675292686581
 20
-133.4705783086463
 30
0.0
 10
112.4551513390737
 20
-132.5076741205189
 30
0.0
 10
112.4551513390737
 20
-132.5076741205189
 30
0.0
 10
112.4551513390737
 20
-132.5076741205189
 30
0.0
 10
118.099595782107
 20
-119.1021185683148
 30
0.0
 10
118.099595782107
 20
-119.1021185683148
 30
0.0
 10
120.1280680038222
 20
-114.3396185695054
 30
0.0
 10
122.2447346699597
 20
-111.8701741256783
 30
0.0
 10
125.4197346691659
 20
-111.3410074591439
 30
0.0
 10
125.4197346691659
 20
-111.3410074591439
 30
0.0
 10
125.4197346691659
 20
-108.3423963487825
 30
0.0
 10
125.4197346691659
 20
-108.3423963487825
 30
0.0
 10
125.4197346691659
 20
-108.3423963487825
 30
0.0
 10
91.37667912212112
 20
-108.3423963487825
 30
0.0
 10
91.37667912212112
 20
-108.3423963487825
 30
0.0
 10
91.37667912212112
 20
-108.3423963487825
 30
0.0
 10
91.37667912212112
 20
-111.3410074591439
 30
0.0
 10
91.37667912212112
 20
-111.3410074591439
 30
0.0
 10
94.63987356574975
 20
-111.6937852368335
 30
0.0
 10
96.31556800977528
 20
-113.7222574585486
 30
0.0
 10
97.55029023168882
 20
-116.5444796800653
 30
0.0
 10
97.55029023168882
 20
-116.5444796800653
 30
0.0
 10
104.5960272633475
 20
-133.4543863598656
 30
0.0
 10
104.5960272633475
 20
-133.4543863598656
 30
0.0
 10
104.1731417925331
 20
-133.3785942591901
 30
0.0
 10
103.7431938759739
 20
-133.2569823885608
 30
0.0
 10
103.4112589259701
 20
-133.129858365155
 30
0.0
 10
102.8397175849672
 20
-132.9097167636476
 30
0.0
 10
102.2731716324178
 20
-132.6992214294988
 30
0.0
 10
101.7054198964486
 20
-132.4866590380589
 30
0.0
 10
100.1039672601303
 20
-131.8927245764018
 30
0.0
 10
98.36143796369089
 20
-131.384917501876
 30
0.0
 10
96.14400225460983
 20
-133.6714273754363
 30
0.0
 10
95.56350366534524
 20
-134.2691514421272
 30
0.0
 10
95.01383868067363
 20
-135.0709974163191
 30
0.0
 10
94.38286944255012
 20
-136.1822129650864
 30
0.0
 10
94.76889239167237
 20
-132.7274712124779
 30
0.0
 10
97.69670678981194
 20
-131.2856987519008
 30
0.0
 10
99.63043888568268
 20
-131.1534070852672
 30
0.0
 10
99.94911021806828
 20
-131.1327365123557
 30
0.0
 10
99.99372420460227
 20
-131.0283501191526
 30
0.0
 10
99.66816268124616
 20
-130.8919243379368
 30
0.0
 10
98.53007538769387
 20
-130.4175346896178
 30
0.0
 10
97.03490394709544
 20
-130.2907551757606
 30
0.0
 10
95.57297767792967
 20
-130.8622965167636
 30
0.0
 10
95.34766843319434
 20
-130.3019517360877
 30
0.0
 10
94.9161702236668
 20
-129.7247259875341
 30
0.0
 10
94.39664982449112
 20
-129.3025295358167
 30
0.0
 10
94.61558564257875
 20
-128.9931599612413
 30
0.0
 10
94.48467201413925
 20
-128.5096408098865
 30
0.0
 10
94.0495564543522
 20
-128.3615017040208
 30
0.0
 10
94.0495564543522
 20
-128.3615017040208
 30
0.0
 10
94.0495564543522
 20
-127.7555094081653
 30
0.0
 10
94.0495564543522
 20
-127.7555094081653
 30
0.0
 10
95.10651174922685
 20
-128.1737440000746
 30
0.0
 10
95.56247013669966
 20
-129.5469590604952
 30
0.0
 10
96.58256290988214
 20
-129.4739230362079
 30
0.0
 10
97.6762084716747
 20
-129.3974419164354
 30
0.0
 10
97.98523353670161
 20
-128.0703911355171
 30
0.0
 10
99.00635983852966
 20
-127.3886067389862
 30
0.0
 10
98.06464298763662
 20
-126.7119899856831
 30
0.0
 10
97.7547566487384
 20
-125.3842501856678
 30
0.0
 10
96.77721080479876
 20
-125.3480766830727
 30
0.0
 10
95.6408460589891
 20
-125.3094916136379
 30
0.0
 10
95.25155026915587
 20
-126.5600612747836
 30
0.0
 10
94.08021780417093
 20
-126.9772623380474
 30
0.0
 10
94.42800019340689
 20
-125.8786213878012
 30
0.0
 10
95.95676131498651
 20
-125.5006944130693
 30
0.0
 10
95.95676131498651
 20
-124.4365044176756
 30
0.0
 10
95.95676131498651
 20
-123.4925482547171
 30
0.0
 10
94.42800019340689
 20
-123.1146212799852
 30
0.0
 10
93.7276122812556
 20
-122.3973523999562
 30
0.0
 10
92.94385305836126
 20
-123.0388291793097
 30
0.0
 10
91.57804495323397
 20
-123.6837510541485
 30
0.0
 10
91.57804495323397
 20
-124.4785345825957
 30
0.0
 10
91.57804495323397
 20
-125.5006944130693
 30
0.0
 10
93.4544162092753
 20
-126.330617915466
 30
0.0
 10
93.41273055390377
 20
-127.0523654196258
 30
0.0
 10
92.23864201253062
 20
-126.6361978850076
 30
0.0
 10
92.04485539148531
 20
-125.4614203245374
 30
0.0
 10
91.02579614694842
 20
-125.4249023123938
 30
0.0
 10
90.04738902913746
 20
-125.4249023123938
 30
0.0
 10
89.71510956958511
 20
-126.9369547208699
 30
0.0
 10
88.62043047914698
 20
-127.5408799594342
 30
0.0
 10
89.79262421800324
 20
-128.3008680234803
 30
0.0
 10
90.2837225794256
 20
-129.5107855579001
 30
0.0
 10
91.06834307619125
 20
-129.5469590604952
 30
0.0
 10
92.08275144182306
 20
-129.6230956707192
 30
0.0
 10
92.40951874859901
 20
-127.9432671121114
 30
0.0
 10
93.58171248745528
 20
-127.8306124897437
 30
0.0
 10
93.58171248745528
 20
-127.8306124897437
 30
0.0
 10
93.58171248745528
 20
-128.3615017040208
 30
0.0
 10
93.58171248745528
 20
-128.3615017040208
 30
0.0
 10
93.09767657177767
 20
-128.413522645848
 30
0.0
 10
92.96607392424113
 20
-128.9452731339963
 30
0.0
 10
93.19603404788155
 20
-129.2866820965846
 30
0.0
 10
92.671346005478
 20
-129.7093953126247
 30
0.0
 10
92.23416338839979
 20
-130.2909274305349
 30
0.0
 10
92.00799286979314
 20
-130.8564398544387
 30
0.0
 10
90.54554983630459
 20
-130.2845540038872
 30
0.0
 10
89.05106741480321
 20
-130.4113335177444
 30
0.0
 10
87.9131523760252
 20
-130.8850341469662
 30
0.0
 10
87.5865573240235
 20
-131.0218044377307
 30
0.0
 10
87.63031003668618
 20
-131.1261908309337
 30
0.0
 10
87.95139293591146
 20
-131.1485839515879
 30
0.0
 10
89.89959443282025
 20
-131.281909146867
 30
0.0
 10
92.85428057574477
 20
-132.5107747064556
 30
0.0
 10
93.20946992027403
 20
-136.2047783405148
 30
0.0
 10
92.57316078414839
 20
-135.083399760066
 30
0.0
 10
92.01987844921726
 20
-134.2753526140006
 30
0.0
 10
91.43679603833873
 20
-133.674527961373
 30
0.0
 10
89.34355602150092
 20
-131.5178981876066
 30
0.0
 10
87.67354598502607
 20
-131.8484550994164
 30
0.0
 10
86.14754093983464
 20
-132.3920911669888
 30
0.0
 10
86.14754093983464
 20
-132.3920911669888
 30
0.0
 10
82.4425130002227
 20
-123.570579667458
 30
0.0
 10
82.4425130002227
 20
-123.570579667458
 30
0.0
 10
82.2451090289179
 20
-122.7635660500383
 30
0.0
 10
82.20101180670669
 20
-121.9372598979011
 30
0.0
 10
82.49436168727571
 20
-121.0930392492406
 30
0.0
 10
83.27347003126496
 20
-119.4418049831604
 30
0.0
 10
85.33932153899504
 20
-118.3500542238847
 30
0.0
 10
86.73441295574696
 20
-120.3054904213125
 30
0.0
 10
86.87617863496499
 20
-120.5059949785541
 30
0.0
 10
86.96420082461312
 20
-120.6865179819812
 30
0.0
 10
87.03568655593206
 20
-120.9256076086575
 30
0.0
 10
87.08598495001671
 20
-121.0892496442069
 30
0.0
 10
87.18589271908895
 20
-121.1405815669371
 30
0.0
 10
87.36538219387046
 20
-120.9369764237588
 30
0.0
 10
88.29090709598283
 20
-119.891734453534
 30
0.0
 10
88.08041176183407
 20
-119.0518201742301
 30
0.0
 10
87.76880287519322
 20
-117.9769503828322
 30
0.0
 10
87.99152829831462
 20
-117.9635145104397
 30
0.0
 10
88.22372773402046
 20
-117.9380208038488
 30
0.0
 10
88.37238360420899
 20
-117.775412296945
 30
0.0
 10
88.19582246058994
 20
-116.8428249490879
 30
0.0
 10
87.07788897562637
 20
-116.1913573928272
 30
0.0
 10
87.07788897562637
 20
-116.1913573928272
 30
0.0
 10
88.00668671844971
 20
-115.8978352574839
 30
0.0
 10
90.29371335633283
 20
-116.8762423752948
 30
0.0
 10
89.9962293611815
 20
-119.2940103868432
 30
0.0
 10
89.87048337596988
 20
-119.2047824137752
 30
0.0
 10
89.73457435907677
 20
-119.1224446316777
 30
0.0
 10
89.58970809392203
 20
-119.0687011421078
 30
0.0
 10
88.02735729136123
 20
-118.4954372533623
 30
0.0
 10
87.5603745983356
 20
-121.6104925911252
 30
0.0
 10
89.19317760356977
 20
-121.7352050476912
 30
0.0
 10
90.44340275516693
 20
-121.8302896830841
 30
0.0
 10
91.35445825624124
 20
-120.3468315671355
 30
0.0
 10
91.30002574757431
 20
-119.0187472575717
 30
0.0
 10
91.16807859048923
 20
-115.8113633608041
 30
0.0
 10
88.19547795104141
 20
-114.6837836084818
 30
0.0
 10
86.60126001524205
 20
-114.8333007525417
 30
0.0
 10
87.72074379317398
 20
-114.2641709783784
 30
0.0
 10
87.75640053144632
 20
-113.148993569803
 30
0.0
 10
88.59321422481351
 20
-112.2770399024863
 30
0.0
 10
88.8385050233633
 20
-112.0200357792867
 30
0.0
 10
88.6676282872949
 20
-111.8277994512097
 30
0.0
 10
88.47143009940993
 20
-112.066200058789
 30
0.0
 10
87.90385061821502
 20
-112.7579752322272
 30
0.0
 10
86.92974986976063
 20
-112.314935952824
 30
0.0
 10
86.23022323148064
 20
-112.4737548546941
 30
0.0
 10
85.22666691662737
 20
-112.6112141645555
 30
0.0
 10
84.44824759173517
 20
-112.9109374717723
 30
0.0
 10
83.7283948900922
 20
-113.693663166021
 30
0.0
 10
83.53047415446461
 20
-113.4993597806529
 30
0.0
 10
83.59248587319911
 20
-113.1307345637312
 30
0.0
 10
83.45640460153173
 20
-112.94883352211
 30
0.0
 10
82.05511201290636
 20
-113.6302734090924
 30
0.0
 10
80.66501598460806
 20
-115.8471923538507
 30
0.0
 10
80.40181068953497
 20
-118.6997314156376
 30
0.0
 10
79.6907429813794
 20
-116.9429049729344
 30
0.0
 10
79.29404023625288
 20
-115.7841471064706
 30
0.0
 10
79.29404023625288
 20
-114.8687852360398
 30
0.0
 10
79.29404023625288
 20
-112.3111463477903
 30
0.0
 10
81.58709579123517
 20
-111.3410074591439
 30
0.0
 10
83.52737356852788
 20
-111.3410074591439
 30
0.0
 10
83.52737356852788
 20
-111.3410074591439
 30
0.0
 10
83.52737356852788
 20
-108.3423963487825
 30
0.0
 10
83.52737356852788
 20
-108.3423963487825
 30
0.0
 10
83.52737356852788
 20
-108.3423963487825
 30
0.0
 10
63.94820690675601
 20
-108.3423963487825
 30
0.0
 10
63.94820690675601
 20
-108.3423963487825
 30
0.0
 10
63.94820690675601
 20
-108.3423963487825
 30
0.0
 10
63.94820690675601
 20
-111.3410074591439
 30
0.0
 10
63.94820690675601
 20
-111.3410074591439
 30
0.0
 10
68.53431801672059
 20
-111.4292019035663
 30
0.0
 10
70.29820690516851
 20
-114.3396185695054
 30
0.0
 10
71.62112357150444
 20
-117.602813013134
 30
0.0
 10
71.62112357150444
 20
-117.602813013134
 30
0.0
 10
79.68092445924644
 20
-137.1998941714292
 30
0.0
 10
79.68092445924644
 20
-137.1998941714292
 30
0.0
 10
79.68092445924644
 20
-137.1998941714292
 30
0.0
 10
73.41464028112551
 20
-137.1998941714292
 30
0.0
 10
73.41464028112551
 20
-137.1998941714292
 30
0.0
 10
73.41464028112551
 20
-137.1998941714292
 30
0.0
 10
73.41464028112551
 20
-138.8115098394291
 30
0.0
 10
73.41464028112551
 20
-138.8115098394291
 30
0.0
 10
73.41464028112551
 20
-138.8115098394291
 30
0.0
 10
142.3234401770927
 20
-138.8115098394291
 30
0.0
 10
142.3234401770927
 20
-138.8115098394291
 30
0.0
 10
142.3234401770927
 20
-138.8115098394291
 30
0.0
 10
142.3234401770927
 20
-137.1998941714292
 30
0.0
 10
142.3234401770927
 20
-137.1998941714292
 30
0.0
 10
142.3234401770927
 20
-137.1998941714292
 30
0.0
 10
136.859174227938
 20
-137.1998941714292
 30
0.0
 10
136.859174227938
 20
-137.1998941714292
 30
0.0
 10
136.859174227938
 20
-137.1998941714292
 30
0.0
 10
144.7343179976706
 20
-119.1021185683148
 30
0.0
 10
144.7343179976706
 20
-119.1021185683148
 30
0.0
 10
147.8211235524545
 20
-112.0465630145231
 30
0.0
 10
150.3787624407039
 20
-111.4292019035663
 30
0.0
 10
151.7898735514623
 20
-111.3410074591439
 30
0.0
 10
151.7898735514623
 20
-111.3410074591439
 30
0.0
 10
151.7898735514623
 20
-108.3423963487825
 30
0.0
 10
151.7898735514623
 20
-108.3423963487825
 30
0.0
 10
151.7898735514623
 20
-108.3423963487825
 30
0.0
 10
137.0614013329221
 20
-108.3423963487825
 30
0.0
 10
137.0614013329221
 20
-108.3423963487825
 30
0.0
  0
SPLINE
  5
41
330
3C
100
AcDbEntity
  8
Layer 1
370
     0
100
AcDbSpline
210
0.0
220
0.0
230
1.0
 70
    11
 71
     3
 72
    14
 73
    10
 74
     0
 42
0.0000000001
 43
0.0000000001
 40
0.0
 40
0.0
 40
0.0
 40
0.0
 40
1.0
 40
1.0
 40
1.0
 40
2.0
 40
2.0
 40
2.0
 40
3.0
 40
3.0
 40
3.0
 40
3.0
 10
134.3073920020134
 20
-134.2858601552306
 30
0.0
 10
134.3073920020134
 20
-134.2858601552306
 30
0.0
 10
133.9463459951592
 20
-135.1407605998954
 30
0.0
 10
133.9463459951592
 20
-135.1407605998954
 30
0.0
 10
132.9634602532175
 20
-134.8830674575987
 30
0.0
 10
131.8527614687729
 20
-133.8237005958844
 30
0.0
 10
131.1544406139128
 20
-133.1515624667121
 30
0.0
 10
132.1073540251329
 20
-133.4623100794817
 30
0.0
 10
133.218397319126
 20
-133.9973334083409
 30
0.0
 10
134.3073920020134
 20
-134.2858601552306
 30
0.0
  0
SPLINE
  5
42
330
3C
100
AcDbEntity
  8
Layer 1
370
     0
100
AcDbSpline
210
0.0
220
0.0
230
1.0
 70
    11
 71
     3
 72
    17
 73
    13
 74
     0
 42
0.0000000001
 43
0.0000000001
 40
0.0
 40
0.0
 40
0.0
 40
0.0
 40
1.0
 40
1.0
 40
1.0
 40
2.0
 40
2.0
 40
2.0
 40
3.0
 40
3.0
 40
3.0
 40
4.0
 40
4.0
 40
4.0
 40
4.0
 10
128.3546115130502
 20
-136.266617804475
 30
0.0
 10
128.2746852977924
 20
-136.6438557601099
 30
0.0
 10
128.0693576068716
 20
-136.9430623030038
 30
0.0
 10
127.8306124897437
 20
-137.1998941714292
 30
0.0
 10
127.8306124897437
 20
-137.1998941714292
 30
0.0
 10
124.8178764878928
 20
-137.1998941714292
 30
0.0
 10
124.8178764878928
 20
-137.1998941714292
 30
0.0
 10
124.9777289184083
 20
-136.9122286984108
 30
0.0
 10
125.1286241006623
 20
-136.6142279389367
 30
0.0
 10
125.2771077160766
 20
-136.3069254216524
 30
0.0
 10
126.572119108982
 20
-133.6256076054825
 30
0.0
 10
128.8293456709177
 20
-134.0400525923581
 30
0.0
 10
128.3546115130502
 20
-136.266617804475
 30
0.0
  0
SPLINE
  5
43
330
3C
100
AcDbEntity
  8
Layer 1
370
     0
100
AcDbSpline
210
0.0
220
0.0
230
1.0
 70
    11
 71
     3
 72
    17
 73
    13
 74
     0
 42
0.0000000001
 43
0.0000000001
 40
0.0
 40
0.0
 40
0.0
 40
0.0
 40
1.0
 40
1.0
 40
1.0
 40
2.0
 40
2.0
 40
2.0
 40
3.0
 40
3.0
 40
3.0
 40
4.0
 40
4.0
 40
4.0
 40
4.0
 10
122.2168293965291
 20
-136.3110595362348
 30
0.0
 10
122.3649685023949
 20
-136.6166395057764
 30
0.0
 10
122.5151746655518
 20
-136.9134344818307
 30
0.0
 10
122.6739935674218
 20
-137.1998941714292
 30
0.0
 10
122.6739935674218
 20
-137.1998941714292
 30
0.0
 10
119.6598795273767
 20
-137.1998941714292
 30
0.0
 10
119.6598795273767
 20
-137.1998941714292
 30
0.0
 10
119.422512448443
 20
-136.9437513221009
 30
0.0
 10
119.2182182861677
 20
-136.6454060530782
 30
0.0
 10
119.1386365804584
 20
-136.2693738808632
 30
0.0
 10
118.6652804607851
 20
-134.0441867069403
 30
0.0
 10
120.9221625131722
 20
-133.6283636818707
 30
0.0
 10
122.2168293965291
 20
-136.3110595362348
 30
0.0
  0
SPLINE
  5
44
330
3C
100
AcDbEntity
  8
Layer 1
370
     0
100
AcDbSpline
210
0.0
220
0.0
230
1.0
 70
    11
 71
     3
 72
    29
 73
    25
 74
     0
 42
0.0000000001
 43
0.0000000001
 40
0.0
 40
0.0
 40
0.0
 40
0.0
 40
1.0
 40
1.0
 40
1.0
 40
2.0
 40
2.0
 40
2.0
 40
3.0
 40
3.0
 40
3.0
 40
4.0
 40
4.0
 40
4.0
 40
5.0
 40
5.0
 40
5.0
 40
6.0
 40
6.0
 40
6.0
 40
7.0
 40
7.0
 40
7.0
 40
8.0
 40
8.0
 40
8.0
 40
8.0
 10
116.6147596279644
 20
-133.722414788618
 30
0.0
 10
117.8353569583884
 20
-132.6175726664984
 30
0.0
 10
119.1644747965978
 20
-132.7412515944189
 30
0.0
 10
120.0195474960368
 20
-133.4319932392115
 30
0.0
 10
119.8865668103061
 20
-133.4505967548318
 30
0.0
 10
117.2910318717189
 20
-133.9952663510498
 30
0.0
 10
117.4322807866142
 20
-134.8968478395397
 30
0.0
 10
117.5473469758215
 20
-135.2441134644529
 30
0.0
 10
117.7592203481644
 20
-135.1600531346128
 30
0.0
 10
117.9580023576633
 20
-135.397764723095
 30
0.0
 10
117.6355414202439
 20
-136.1169284056409
 30
0.0
 10
117.7433729089322
 20
-136.7721855669354
 30
0.0
 10
117.8642957604645
 20
-137.1998941714292
 30
0.0
 10
117.8642957604645
 20
-137.1998941714292
 30
0.0
 10
114.4639865165229
 20
-137.1998941714292
 30
0.0
 10
114.4639865165229
 20
-137.1998941714292
 30
0.0
 10
114.4639865165229
 20
-137.1998941714292
 30
0.0
 10
114.1863118204118
 20
-136.5518717106537
 30
0.0
 10
114.1863118204118
 20
-136.5518717106537
 30
0.0
 10
114.4591633828435
 20
-136.3865071273617
 30
0.0
 10
114.7175455442373
 20
-136.1551689655272
 30
0.0
 10
114.9359645980021
 20
-135.8831786769667
 30
0.0
 10
115.5216308304946
 20
-135.1517849054482
 30
0.0
 10
116.037706134185
 20
-134.2453802832789
 30
0.0
 10
116.6147596279644
 20
-133.722414788618
 30
0.0
  0
SPLINE
  5
45
330
3C
100
AcDbEntity
  8
Layer 1
370
     0
100
AcDbSpline
210
0.0
220
0.0
230
1.0
 70
    11
 71
     3
 72
    14
 73
    10
 74
     0
 42
0.0000000001
 43
0.0000000001
 40
0.0
 40
0.0
 40
0.0
 40
0.0
 40
1.0
 40
1.0
 40
1.0
 40
2.0
 40
2.0
 40
2.0
 40
3.0
 40
3.0
 40
3.0
 40
3.0
 10
116.3394964986929
 20
-133.1556965812944
 30
0.0
 10
115.6497883825459
 20
-133.8193942265278
 30
0.0
 10
114.555281546882
 20
-134.8642916872041
 30
0.0
 10
113.5806640341048
 20
-135.1366264853131
 30
0.0
 10
113.5806640341048
 20
-135.1366264853131
 30
0.0
 10
113.2147948935713
 20
-134.2824150597454
 30
0.0
 10
113.2147948935713
 20
-134.2824150597454
 30
0.0
 10
114.2944878186486
 20
-133.9916490007903
 30
0.0
 10
115.3955403357345
 20
-133.4628268438044
 30
0.0
 10
116.3394964986929
 20
-133.1556965812944
 30
0.0
  0
SPLINE
  5
46
330
3C
100
AcDbEntity
  8
Layer 1
370
     0
100
AcDbSpline
210
0.0
220
0.0
230
1.0
 70
    11
 71
     3
 72
    26
 73
    22
 74
     0
 42
0.0000000001
 43
0.0000000001
 40
0.0
 40
0.0
 40
0.0
 40
0.0
 40
1.0
 40
1.0
 40
1.0
 40
2.0
 40
2.0
 40
2.0
 40
3.0
 40
3.0
 40
3.0
 40
4.0
 40
4.0
 40
4.0
 40
5.0
 40
5.0
 40
5.0
 40
6.0
 40
6.0
 40
6.0
 40
7.0
 40
7.0
 40
7.0
 40
7.0
 10
110.514873561781
 20
-111.3410074591439
 30
0.0
 10
110.514873561781
 20
-111.3410074591439
 30
0.0
 10
112.4551513390737
 20
-111.3410074591439
 30
0.0
 10
112.4551513390737
 20
-111.3410074591439
 30
0.0
 10
117.4822346711503
 20
-111.3410074591439
 30
0.0
 10
115.8947346715472
 20
-115.0451741248845
 30
0.0
 10
115.189179116168
 20
-116.8090630133325
 30
0.0
 10
115.189179116168
 20
-116.8090630133325
 30
0.0
 10
110.7794568950482
 20
-127.2160074551752
 30
0.0
 10
110.7794568950482
 20
-127.2160074551752
 30
0.0
 10
110.7794568950482
 20
-127.2160074551752
 30
0.0
 10
110.3384846729362
 20
-127.2160074551752
 30
0.0
 10
110.3384846729362
 20
-127.2160074551752
 30
0.0
 10
110.3384846729362
 20
-127.2160074551752
 30
0.0
 10
106.281540229506
 20
-117.602813013134
 30
0.0
 10
106.281540229506
 20
-117.602813013134
 30
0.0
 10
105.840568007394
 20
-116.4562852356429
 30
0.0
 10
105.1350124520149
 20
-115.4861463469965
 30
0.0
 10
105.1350124520149
 20
-114.1632296806606
 30
0.0
 10
105.1350124520149
 20
-111.5173963479887
 30
0.0
 10
107.3398735625748
 20
-111.3410074591439
 30
0.0
 10
110.514873561781
 20
-111.3410074591439
 30
0.0
  0
SPLINE
  5
47
330
3C
100
AcDbEntity
  8
Layer 1
370
     0
100
AcDbSpline
210
0.0
220
0.0
230
1.0
 70
    11
 71
     3
 72
    47
 73
    43
 74
     0
 42
0.0000000001
 43
0.0000000001
 40
0.0
 40
0.0
 40
0.0
 40
0.0
 40
1.0
 40
1.0
 40
1.0
 40
2.0
 40
2.0
 40
2.0
 40
3.0
 40
3.0
 40
3.0
 40
4.0
 40
4.0
 40
4.0
 40
5.0
 40
5.0
 40
5.0
 40
6.0
 40
6.0
 40
6.0
 40
7.0
 40
7.0
 40
7.0
 40
8.0
 40
8.0
 40
8.0
 40
9.0
 40
9.0
 40
9.0
 40
10.0
 40
10.0
 40
10.0
 40
11.0
 40
11.0
 40
11.0
 40
12.0
 40
12.0
 40
12.0
 40
13.0
 40
13.0
 40
13.0
 40
14.0
 40
14.0
 40
14.0
 40
14.0
 10
100.9221774378771
 20
-133.7203477313269
 30
0.0
 10
101.4994031864307
 20
-134.2405571495996
 30
0.0
 10
102.0144449614756
 20
-135.1469617717688
 30
0.0
 10
102.6020059964849
 20
-135.88007809103
 30
0.0
 10
103.1385796183126
 20
-136.549460143814
 30
0.0
 10
103.9187214909474
 20
-136.997667066445
 30
0.0
 10
104.5677774803685
 20
-136.7261935422073
 30
0.0
 10
104.9300292706425
 20
-136.5725422835652
 30
0.0
 10
105.2542127558045
 20
-136.3162271794626
 30
0.0
 10
105.309678793117
 20
-136.0147813245032
 30
0.0
 10
105.3697957093346
 20
-135.7002441067
 30
0.0
 10
105.188928196359
 20
-135.8242675441689
 30
0.0
 10
105.1067626690358
 20
-135.8552734035362
 30
0.0
 10
104.7050645354557
 20
-136.0058240762416
 30
0.0
 10
104.1834770789889
 20
-136.1081434121535
 30
0.0
 10
103.8308715560735
 20
-135.8614745754096
 30
0.0
 10
104.0081217187896
 20
-135.6485676744212
 30
0.0
 10
104.0933878320496
 20
-135.439105868918
 30
0.0
 10
104.1071682139906
 20
-135.17004391152
 30
0.0
 10
103.0965494533925
 20
-134.9709173924726
 30
0.0
 10
101.9238389502135
 20
-133.8505723406693
 30
0.0
 10
101.1977850766971
 20
-133.1515624667121
 30
0.0
 10
102.3413845230258
 20
-133.5244940529904
 30
0.0
 10
103.7123602713809
 20
-134.2195420671396
 30
0.0
 10
104.9994479446703
 20
-134.4224581912208
 30
0.0
 10
104.9994479446703
 20
-134.4224581912208
 30
0.0
 10
106.1566555181657
 20
-137.1998941714292
 30
0.0
 10
106.1566555181657
 20
-137.1998941714292
 30
0.0
 10
106.1566555181657
 20
-137.1998941714292
 30
0.0
 10
99.67298581492551
 20
-137.1998941714292
 30
0.0
 10
99.67298581492551
 20
-137.1998941714292
 30
0.0
 10
99.79339190213499
 20
-136.7713242930641
 30
0.0
 10
99.90191240992036
 20
-136.1153781126725
 30
0.0
 10
99.57927921772671
 20
-135.3936306085127
 30
0.0
 10
99.77823348199989
 20
-135.1548854913849
 30
0.0
 10
99.98959009001997
 20
-135.2396348403221
 30
0.0
 10
100.1051730435501
 20
-134.8958143108941
 30
0.0
 10
100.2472832323167
 20
-133.990787726919
 30
0.0
 10
97.6519205485037
 20
-133.4471516593466
 30
0.0
 10
97.51756182457895
 20
-133.4282036341777
 30
0.0
 10
98.3724622692437
 20
-132.7384955180306
 30
0.0
 10
99.70192461700161
 20
-132.6161946283043
 30
0.0
 10
100.9221774378771
 20
-133.7203477313269
 30
0.0
  0
SPLINE
  5
48
330
3C
100
AcDbEntity
  8
Layer 1
370
     0
100
AcDbSpline
210
0.0
220
0.0
230
1.0
 70
    11
 71
     3
 72
    17
 73
    13
 74
     0
 42
0.0000000001
 43
0.0000000001
 40
0.0
 40
0.0
 40
0.0
 40
0.0
 40
1.0
 40
1.0
 40
1.0
 40
2.0
 40
2.0
 40
2.0
 40
3.0
 40
3.0
 40
3.0
 40
4.0
 40
4.0
 40
4.0
 40
4.0
 10
98.39795597583455
 20
-136.266617804475
 30
0.0
 10
98.31802976057675
 20
-136.6438557601099
 30
0.0
 10
98.11270206965585
 20
-136.9430623030038
 30
0.0
 10
97.87395695252805
 20
-137.1998941714292
 30
0.0
 10
97.87395695252805
 20
-137.1998941714292
 30
0.0
 10
94.86122095067707
 20
-137.1998941714292
 30
0.0
 10
94.86122095067707
 20
-137.1998941714292
 30
0.0
 10
95.0209011264184
 20
-136.9122286984108
 30
0.0
 10
95.17214081822085
 20
-136.6142279389367
 30
0.0
 10
95.32045217886086
 20
-136.3069254216524
 30
0.0
 10
96.61546357176628
 20
-133.6256076054825
 30
0.0
 10
98.87269013370197
 20
-134.0400525923581
 30
0.0
 10
98.39795597583455
 20
-136.266617804475
 30
0.0
  0
SPLINE
  5
49
330
3C
100
AcDbEntity
  8
Layer 1
370
     0
100
AcDbSpline
210
0.0
220
0.0
230
1.0
 70
    11
 71
     3
 72
    20
 73
    16
 74
     0
 42
0.0000000001
 43
0.0000000001
 40
0.0
 40
0.0
 40
0.0
 40
0.0
 40
1.0
 40
1.0
 40
1.0
 40
2.0
 40
2.0
 40
2.0
 40
3.0
 40
3.0
 40
3.0
 40
4.0
 40
4.0
 40
4.0
 40
5.0
 40
5.0
 40
5.0
 40
5.0
 10
90.06306421359535
 20
-133.4319932392115
 30
0.0
 10
89.92973901831618
 20
-133.4505967548318
 30
0.0
 10
87.33420407972895
 20
-133.9952663510498
 30
0.0
 10
87.47545299462419
 20
-134.8968478395397
 30
0.0
 10
87.59086369338007
 20
-135.2441134644529
 30
0.0
 10
87.80256481094867
 20
-135.1600531346128
 30
0.0
 10
88.00151907522185
 20
-135.397764723095
 30
0.0
 10
87.85716957438987
 20
-135.7195366414173
 30
0.0
 10
87.80204804662588
 20
-136.0270114134759
 30
0.0
 10
87.79257403404145
 20
-136.3086479693951
 30
0.0
 10
87.79257403404145
 20
-136.3086479693951
 30
0.0
 10
86.693760829021
 20
-133.6924424578963
 30
0.0
 10
86.693760829021
 20
-133.6924424578963
 30
0.0
 10
87.90453963731207
 20
-132.621879035855
 30
0.0
 10
89.21608748854668
 20
-132.7479695306151
 30
0.0
 10
90.06306421359535
 20
-133.4319932392115
 30
0.0
  0
SPLINE
  5
4A
330
3C
100
AcDbEntity
  8
Layer 1
370
     0
100
AcDbSpline
210
0.0
220
0.0
230
1.0
 70
    11
 71
     3
 72
    14
 73
    10
 74
     0
 42
0.0000000001
 43
0.0000000001
 40
0.0
 40
0.0
 40
0.0
 40
0.0
 40
1.0
 40
1.0
 40
1.0
 40
2.0
 40
2.0
 40
2.0
 40
3.0
 40
3.0
 40
3.0
 40
3.0
 10
86.08966333568245
 20
-118.9157389025627
 30
0.0
 10
85.0120374678963
 20
-118.11992184547
 30
0.0
 10
82.42856036350744
 20
-118.8482150310518
 30
0.0
 10
81.68734806985594
 20
-120.5438910288918
 30
0.0
 10
81.75900605594914
 20
-118.6763047663379
 30
0.0
 10
85.17240666273467
 20
-117.1039631868698
 30
0.0
 10
86.15425887603088
 20
-118.8833550050014
 30
0.0
 10
86.20972491334341
 20
-118.9836072836222
 30
0.0
 10
86.14857446848022
 20
-118.9591471056769
 30
0.0
 10
86.08966333568245
 20
-118.9157389025627
 30
0.0
  0
SPLINE
  5
4B
330
3C
100
AcDbEntity
  8
Layer 1
370
     0
100
AcDbSpline
210
0.0
220
0.0
230
1.0
 70
    11
 71
     3
 72
    14
 73
    10
 74
     0
 42
0.0000000001
 43
0.0000000001
 40
0.0
 40
0.0
 40
0.0
 40
0.0
 40
1.0
 40
1.0
 40
1.0
 40
2.0
 40
2.0
 40
2.0
 40
3.0
 40
3.0
 40
3.0
 40
3.0
 10
85.98252086609118
 20
-113.9113932006888
 30
0.0
 10
86.0192111330091
 20
-113.8983018378449
 30
0.0
 10
86.01972789733188
 20
-113.9065700670095
 30
0.0
 10
85.98717174499626
 20
-113.9327527926974
 30
0.0
 10
84.22087128970867
 20
-115.3297390119662
 30
0.0
 10
82.22064885097262
 20
-117.1349690462371
 30
0.0
 10
81.40915660942203
 20
-119.3391411376999
 30
0.0
 10
81.63102075867211
 20
-117.0808810471187
 30
0.0
 10
83.76491290223586
 20
-114.7085882959756
 30
0.0
 10
85.98252086609118
 20
-113.9113932006888
 30
0.0
  0
SPLINE
  5
4C
330
3C
100
AcDbEntity
  8
Layer 1
370
     0
100
AcDbSpline
210
0.0
220
0.0
230
1.0
 70
    11
 71
     3
 72
    17
 73
    13
 74
     0
 42
0.0000000001
 43
0.0000000001
 40
0.0
 40
0.0
 40
0.0
 40
0.0
 40
1.0
 40
1.0
 40
1.0
 40
2.0
 40
2.0
 40
2.0
 40
3.0
 40
3.0
 40
3.0
 40
4.0
 40
4.0
 40
4.0
 40
4.0
 10
89.1819810432427
 20
-136.2693738808632
 30
0.0
 10
88.70862492356937
 20
-134.0441867069403
 30
0.0
 10
90.96533472118229
 20
-133.6283636818707
 30
0.0
 10
92.26017385931344
 20
-136.3110595362348
 30
0.0
 10
92.40814071040491
 20
-136.6166395057764
 30
0.0
 10
92.55851912833607
 20
-136.9134344818307
 30
0.0
 10
92.71751028498035
 20
-137.1998941714292
 30
0.0
 10
92.71751028498035
 20
-137.1998941714292
 30
0.0
 10
89.70305173538674
 20
-137.1998941714292
 30
0.0
 10
89.70305173538674
 20
-137.1998941714292
 30
0.0
 10
89.46568465645302
 20
-136.9437513221009
 30
0.0
 10
89.26173500372624
 20
-136.6454060530782
 30
0.0
 10
89.1819810432427
 20
-136.2693738808632
 30
0.0
  0
SPLINE
  5
4D
330
3C
100
AcDbEntity
  8
Layer 1
370
     0
100
AcDbSpline
210
0.0
220
0.0
230
1.0
 70
    11
 71
     3
 72
    29
 73
    25
 74
     0
 42
0.0000000001
 43
0.0000000001
 40
0.0
 40
0.0
 40
0.0
 40
0.0
 40
1.0
 40
1.0
 40
1.0
 40
2.0
 40
2.0
 40
2.0
 40
3.0
 40
3.0
 40
3.0
 40
4.0
 40
4.0
 40
4.0
 40
5.0
 40
5.0
 40
5.0
 40
6.0
 40
6.0
 40
6.0
 40
7.0
 40
7.0
 40
7.0
 40
8.0
 40
8.0
 40
8.0
 40
8.0
 10
129.6296413521412
 20
-137.1998941714292
 30
0.0
 10
129.750219694125
 20
-136.7713242930641
 30
0.0
 10
129.8587402019103
 20
-136.1153781126725
 30
0.0
 10
129.5359347549424
 20
-135.3936306085127
 30
0.0
 10
129.7347167644413
 20
-135.1548854913849
 30
0.0
 10
129.9462456272357
 20
-135.2396348403221
 30
0.0
 10
130.0620008355401
 20
-134.8958143108941
 30
0.0
 10
130.2039387695324
 20
-133.990787726919
 30
0.0
 10
127.6084038309451
 20
-133.4471516593466
 30
0.0
 10
127.4740451070204
 20
-133.4282036341777
 30
0.0
 10
128.3291178064594
 20
-132.7384955180306
 30
0.0
 10
129.6585801542173
 20
-132.6161946283043
 30
0.0
 10
130.8788329750928
 20
-133.7203477313269
 30
0.0
 10
131.4558864688721
 20
-134.2405571495996
 30
0.0
 10
131.9712727534655
 20
-135.1469617717688
 30
0.0
 10
132.5586615337006
 20
-135.88007809103
 30
0.0
 10
132.7856933261786
 20
-136.1634371946918
 30
0.0
 10
133.0571668504163
 20
-136.4021823118196
 30
0.0
 10
133.343109775692
 20
-136.5684081689829
 30
0.0
 10
133.343109775692
 20
-136.5684081689829
 30
0.0
 10
133.0764593851337
 20
-137.1998941714292
 30
0.0
 10
133.0764593851337
 20
-137.1998941714292
 30
0.0
 10
133.0764593851337
 20
-137.1998941714292
 30
0.0
 10
129.6296413521412
 20
-137.1998941714292
 30
0.0
 10
129.6296413521412
 20
-137.1998941714292
 30
0.0
  0
SPLINE
  5
4E
330
3C
100
AcDbEntity
  8
Layer 1
370
     0
100
AcDbSpline
210
0.0
220
0.0
230
1.0
 70
    11
 71
     3
 72
    14
 73
    10
 74
     0
 42
0.0000000001
 43
0.0000000001
 40
0.0
 40
0.0
 40
0.0
 40
0.0
 40
1.0
 40
1.0
 40
1.0
 40
2.0
 40
2.0
 40
2.0
 40
3.0
 40
3.0
 40
3.0
 40
3.0
 10
134.14237192827
 20
-119.7718451306473
 30
0.0
 10
134.0762260949532
 20
-119.8204209769893
 30
0.0
 10
134.0083577138938
 20
-119.8472927217743
 30
0.0
 10
134.0700249230797
 20
-119.7360161376007
 30
0.0
 10
135.163498230098
 20
-117.7540527049365
 30
0.0
 10
138.9648165885227
 20
-119.505194740089
 30
0.0
 10
139.0447428037805
 20
-121.5849988845343
 30
0.0
 10
138.2192979255146
 20
-119.6970865586174
 30
0.0
 10
135.341954176234
 20
-118.8861110813896
 30
0.0
 10
134.14237192827
 20
-119.7718451306473
 30
0.0
  0
SPLINE
  5
4F
330
3C
100
AcDbEntity
  8
Layer 1
370
     0
100
AcDbSpline
210
0.0
220
0.0
230
1.0
 70
    11
 71
     3
 72
    14
 73
    10
 74
     0
 42
0.0000000001
 43
0.0000000001
 40
0.0
 40
0.0
 40
0.0
 40
0.0
 40
1.0
 40
1.0
 40
1.0
 40
2.0
 40
2.0
 40
2.0
 40
3.0
 40
3.0
 40
3.0
 40
3.0
 10
134.2560600792832
 20
-114.2224853230069
 30
0.0
 10
134.2202310862366
 20
-114.1935465209308
 30
0.0
 10
134.2205755957851
 20
-114.1842447631206
 30
0.0
 10
134.2615722320596
 20
-114.1990586737072
 30
0.0
 10
136.7310166758867
 20
-115.0865152707075
 30
0.0
 10
139.107443541612
 20
-117.7285589983456
 30
0.0
 10
139.354801397453
 20
-120.243478702578
 30
0.0
 10
138.4508083421234
 20
-117.7888481693375
 30
0.0
 10
136.2232096013609
 20
-115.7782904441457
 30
0.0
 10
134.2560600792832
 20
-114.2224853230069
 30
0.0
  0
HATCH
  5
50
330
3C
100
AcDbEntity
  8
Layer 1
 62
   250
420
  2301728
100
AcDbHatch
 10
0.0
 20
0.0
 30
0.0
210
0.0
220
0.0
230
1.0
  2
SOLID
 70
     1
 71
     0
 91
       16
 92
        1
 93
        1
 72
     4
 94
        3
 73
     0
 74
     1
 95
      386
 96
      382
 40
0.0
 40
0.0
 40
0.0
 40
0.0
 40
1.0
 40
1.0
 40
1.0
 40
2.0
 40
2.0
 40
2.0
 40
3.0
 40
3.0
 40
3.0
 40
4.0
 40
4.0
 40
4.0
 40
5.0
 40
5.0
 40
5.0
 40
6.0
 40
6.0
 40
6.0
 40
7.0
 40
7.0
 40
7.0
 40
8.0
 40
8.0
 40
8.0
 40
9.0
 40
9.0
 40
9.0
 40
10.0
 40
10.0
 40
10.0
 40
11.0
 40
11.0
 40
11.0
 40
12.0
 40
12.0
 40
12.0
 40
13.0
 40
13.0
 40
13.0
 40
14.0
 40
14.0
 40
14.0
 40
15.0
 40
15.0
 40
15.0
 40
16.0
 40
16.0
 40
16.0
 40
17.0
 40
17.0
 40
17.0
 40
18.0
 40
18.0
 40
18.0
 40
19.0
 40
19.0
 40
19.0
 40
20.0
 40
20.0
 40
20.0
 40
21.0
 40
21.0
 40
21.0
 40
22.0
 40
22.0
 40
22.0
 40
23.0
 40
23.0
 40
23.0
 40
24.0
 40
24.0
 40
24.0
 40
25.0
 40
25.0
 40
25.0
 40
26.0
 40
26.0
 40
26.0
 40
27.0
 40
27.0
 40
27.0
 40
28.0
 40
28.0
 40
28.0
 40
29.0
 40
29.0
 40
29.0
 40
30.0
 40
30.0
 40
30.0
 40
31.0
 40
31.0
 40
31.0
 40
32.0
 40
32.0
 40
32.0
 40
33.0
 40
33.0
 40
33.0
 40
34.0
 40
34.0
 40
34.0
 40
35.0
 40
35.0
 40
35.0
 40
36.0
 40
36.0
 40
36.0
 40
37.0
 40
37.0
 40
37.0
 40
38.0
 40
38.0
 40
38.0
 40
39.0
 40
39.0
 40
39.0
 40
40.0
 40
40.0
 40
40.0
 40
41.0
 40
41.0
 40
41.0
 40
42.0
 40
42.0
 40
42.0
 40
43.0
 40
43.0
 40
43.0
 40
44.0
 40
44.0
 40
44.0
 40
45.0
 40
45.0
 40
45.0
 40
46.0
 40
46.0
 40
46.0
 40
47.0
 40
47.0
 40
47.0
 40
48.0
 40
48.0
 40
48.0
 40
49.0
 40
49.0
 40
49.0
 40
50.0
 40
50.0
 40
50.0
 40
51.0
 40
51.0
 40
51.0
 40
52.0
 40
52.0
 40
52.0
 40
53.0
 40
53.0
 40
53.0
 40
54.0
 40
54.0
 40
54.0
 40
55.0
 40
55.0
 40
55.0
 40
56.0
 40
56.0
 40
56.0
 40
57.0
 40
57.0
 40
57.0
 40
58.0
 40
58.0
 40
58.0
 40
59.0
 40
59.0
 40
59.0
 40
60.0
 40
60.0
 40
60.0
 40
61.0
 40
61.0
 40
61.0
 40
62.0
 40
62.0
 40
62.0
 40
63.0
 40
63.0
 40
63.0
 40
64.0
 40
64.0
 40
64.0
 40
65.0
 40
65.0
 40
65.0
 40
66.0
 40
66.0
 40
66.0
 40
67.0
 40
67.0
 40
67.0
 40
68.0
 40
68.0
 40
68.0
 40
69.0
 40
69.0
 40
69.0
 40
70.0
 40
70.0
 40
70.0
 40
71.0
 40
71.0
 40
71.0
 40
72.0
 40
72.0
 40
72.0
 40
73.0
 40
73.0
 40
73.0
 40
74.0
 40
74.0
 40
74.0
 40
75.0
 40
75.0
 40
75.0
 40
76.0
 40
76.0
 40
76.0
 40
77.0
 40
77.0
 40
77.0
 40
78.0
 40
78.0
 40
78.0
 40
79.0
 40
79.0
 40
79.0
 40
80.0
 40
80.0
 40
80.0
 40
81.0
 40
81.0
 40
81.0
 40
82.0
 40
82.0
 40
82.0
 40
83.0
 40
83.0
 40
83.0
 40
84.0
 40
84.0
 40
84.0
 40
85.0
 40
85.0
 40
85.0
 40
86.0
 40
86.0
 40
86.0
 40
87.0
 40
87.0
 40
87.0
 40
88.0
 40
88.0
 40
88.0
 40
89.0
 40
89.0
 40
89.0
 40
90.0
 40
90.0
 40
90.0
 40
91.0
 40
91.0
 40
91.0
 40
92.0
 40
92.0
 40
92.0
 40
93.0
 40
93.0
 40
93.0
 40
94.0
 40
94.0
 40
94.0
 40
95.0
 40
95.0
 40
95.0
 40
96.0
 40
96.0
 40
96.0
 40
97.0
 40
97.0
 40
97.0
 40
98.0
 40
98.0
 40
98.0
 40
99.0
 40
99.0
 40
99.0
 40
100.0
 40
100.0
 40
100.0
 40
101.0
 40
101.0
 40
101.0
 40
102.0
 40
102.0
 40
102.0
 40
103.0
 40
103.0
 40
103.0
 40
104.0
 40
104.0
 40
104.0
 40
105.0
 40
105.0
 40
105.0
 40
106.0
 40
106.0
 40
106.0
 40
107.0
 40
107.0
 40
107.0
 40
108.0
 40
108.0
 40
108.0
 40
109.0
 40
109.0
 40
109.0
 40
110.0
 40
110.0
 40
110.0
 40
111.0
 40
111.0
 40
111.0
 40
112.0
 40
112.0
 40
112.0
 40
113.0
 40
113.0
 40
113.0
 40
114.0
 40
114.0
 40
114.0
 40
115.0
 40
115.0
 40
115.0
 40
116.0
 40
116.0
 40
116.0
 40
117.0
 40
117.0
 40
117.0
 40
118.0
 40
118.0
 40
118.0
 40
119.0
 40
119.0
 40
119.0
 40
120.0
 40
120.0
 40
120.0
 40
121.0
 40
121.0
 40
121.0
 40
122.0
 40
122.0
 40
122.0
 40
123.0
 40
123.0
 40
123.0
 40
124.0
 40
124.0
 40
124.0
 40
125.0
 40
125.0
 40
125.0
 40
126.0
 40
126.0
 40
126.0
 40
127.0
 40
127.0
 40
127.0
 40
127.0
 10
137.0614013329221
 20
-108.3423963487825
 10
137.0614013329221
 20
-108.3423963487825
 10
137.0614013329221
 20
-111.3410074591439
 10
137.0614013329221
 20
-111.3410074591439
 10
139.1780679990597
 20
-111.1646185702991
 10
141.6475124428868
 20
-112.3111463477903
 10
141.6475124428868
 20
-115.3097574581517
 10
141.6475124428868
 20
-116.4559407260944
 10
141.051855433487
 20
-118.1970919843396
 10
140.4909938884884
 20
-119.6171603433596
 10
140.2188313451536
 20
-116.3972018480708
 10
138.6499348611709
 20
-113.8927896850685
 10
137.0748372053146
 20
-113.127289468246
 10
136.9232530039637
 20
-113.3291720636816
 10
136.9921549136686
 20
-113.7398274455234
 10
136.7716688026127
 20
-113.9561794419971
 10
135.969995083195
 20
-113.0849147937774
 10
135.1032090591061
 20
-112.7510850412567
 10
133.9856200836911
 20
-112.5977782921631
 10
133.2066839944761
 20
-112.4210448937697
 10
132.1214789166224
 20
-112.9143825672575
 10
131.4896484046276
 20
-112.1440592167557
 10
131.2712293508628
 20
-111.8784423548429
 10
131.0807155705284
 20
-112.0927272940254
 10
131.3539116425088
 20
-112.3786702193012
 10
132.2858099712688
 20
-113.3498426365931
 10
132.3254285693492
 20
-114.5917995590257
 10
133.5725531350097
 20
-115.2253526187631
 10
131.7969509219119
 20
-115.0592990163741
 10
128.4865586701353
 20
-116.3146918111991
 10
128.3394530929151
 20
-119.8865668103061
 10
128.2788194123748
 20
-121.3658908116724
 10
129.2937445423293
 20
-123.0178140968497
 10
130.6859076279188
 20
-122.9120496654525
 10
132.5042290250337
 20
-122.7728678078485
 10
131.9843641163095
 20
-119.3036566542019
 10
130.2442463867098
 20
-119.9423773571672
 10
130.0826714084516
 20
-120.0023220186105
 10
129.9317762261976
 20
-120.0939615585182
 10
129.7915608399479
 20
-120.1931803084934
 10
129.4601426542669
 20
-117.5008381867706
 10
132.0071017465121
 20
-116.4111544847861
 10
133.0413194111841
 20
-116.7377495367878
 10
133.0413194111841
 20
-116.7377495367878
 10
131.7966064123634
 20
-117.4632866459814
 10
131.5998914601556
 20
-118.5016384252357
 10
131.7652560434476
 20
-118.6835394668569
 10
132.0239827143898
 20
-118.7111002307389
 10
132.2720295893278
 20
-118.726258650874
 10
131.9251084739632
 20
-119.9234293319983
 10
131.6908419809662
 20
-120.8587727562437
 10
132.7216145501529
 20
-122.0228705207096
 10
132.9214300882974
 20
-122.249557803639
 10
133.0323621629225
 20
-122.1927137281324
 10
133.088517219332
 20
-122.0101236674141
 10
133.1680989250413
 20
-121.7438177864043
 10
133.2659396368224
 20
-121.5429687196143
 10
133.4240695195954
 20
-121.3197265321701
 10
134.9774630738945
 20
-119.1420816759437
 10
137.2784423484929
 20
-120.3578558726883
 10
138.1462619012273
 20
-122.1968478427147
 10
138.5066188889845
 20
-123.2339938385491
 10
138.4101562153975
 20
-124.2470241659869
 10
138.1307589715437
 20
-125.2338717677367
 10
138.1307589715437
 20
-125.2338717677367
 10
134.6512125314414
 20
-133.4719563468404
 10
134.6512125314414
 20
-133.4719563468404
 10
134.1971489464854
 20
-133.398231303456
 10
133.7255153745547
 20
-133.2668009106937
 10
133.3679144631858
 20
-133.129858365155
 10
132.7963731221829
 20
-132.9097167636476
 10
132.2296549148593
 20
-132.6992214294988
 10
131.6619031788901
 20
-132.4866590380589
 10
130.060622797346
 20
-131.8927245764018
 10
128.3180935009066
 20
-131.384917501876
 10
126.1008300465998
 20
-133.6714273754363
 10
125.5199869477867
 20
-134.2691514421272
 10
124.9704942178893
 20
-135.0709974163191
 10
124.3396972345401
 20
-136.1822129650864
 10
124.7255479288881
 20
-132.7274712124779
 10
127.6531900722534
 20
-131.2856987519008
 10
129.5872666776726
 20
-131.1534070852672
 10
129.9055935005097
 20
-131.1327365123557
 10
129.950379741818
 20
-131.0283501191526
 10
129.6248182184619
 20
-130.8919243379368
 10
128.4869031796838
 20
-130.4175346896178
 10
126.9917317390854
 20
-130.2907551757606
 10
125.5296332151454
 20
-130.8622965167636
 10
125.30432397041
 20
-130.3019517360877
 10
124.8726535061082
 20
-129.7247259875341
 10
124.3534776164811
 20
-129.3025295358167
 10
124.5722411797944
 20
-128.9931599612413
 10
124.4413275513549
 20
-128.5096408098865
 10
124.0062119915679
 20
-128.3615017040208
 10
124.0062119915679
 20
-128.3615017040208
 10
124.0062119915679
 20
-127.7555094081653
 10
124.0062119915679
 20
-127.7555094081653
 10
125.0631672864425
 20
-128.1737440000746
 10
125.5192979286896
 20
-129.5469590604952
 10
126.5390461923236
 20
-129.4739230362079
 10
127.6328640088904
 20
-129.3974419164354
 10
127.9418890739173
 20
-128.0703911355171
 10
128.9630153757454
 20
-127.3886067389862
 10
128.0211262700781
 20
-126.7119899856831
 10
127.7114121859541
 20
-125.3842501856678
 10
126.7340385967887
 20
-125.3480766830727
 10
125.5975015962048
 20
-125.3094916136379
 10
125.2082058063716
 20
-126.5600612747836
 10
124.0368733413866
 20
-126.9772623380474
 10
124.3844834758483
 20
-125.8786213878012
 10
125.9134168522022
 20
-125.5006944130693
 10
125.9134168522022
 20
-124.4365044176756
 10
125.9134168522022
 20
-123.4925482547171
 10
124.3844834758483
 20
-123.1146212799852
 10
123.6844400732456
 20
-122.3973523999562
 10
122.9003363408027
 20
-123.0388291793097
 10
121.5347004904497
 20
-123.6837510541485
 10
121.5347004904497
 20
-124.4785345825957
 10
121.5347004904497
 20
-125.5006944130693
 10
123.4108994917167
 20
-126.330617915466
 10
123.3695583458937
 20
-127.0523654196258
 10
122.1954698045206
 20
-126.6361978850076
 10
122.001510928701
 20
-125.4614203245374
 10
120.9824516841641
 20
-125.4249023123938
 10
120.0040445663532
 20
-125.4249023123938
 10
119.6715928520265
 20
-126.9369547208699
 10
118.5770860163627
 20
-127.5408799594342
 10
119.7494520099932
 20
-128.3008680234803
 10
120.2403781166413
 20
-129.5107855579001
 10
121.0248263586327
 20
-129.5469590604952
 10
122.0394069790388
 20
-129.6230956707192
 10
122.366346540589
 20
-127.9432671121114
 10
123.538368024671
 20
-127.8306124897437
 10
123.538368024671
 20
-127.8306124897437
 10
123.538368024671
 20
-128.3615017040208
 10
123.538368024671
 20
-128.3615017040208
 10
123.0543321089934
 20
-128.413522645848
 10
122.9227294614568
 20
-128.9452731339963
 10
123.152517330323
 20
-129.2866820965846
 10
122.628173797468
 20
-129.7093953126247
 10
122.1906466708412
 20
-130.2909274305349
 10
121.9646484070088
 20
-130.8564398544387
 10
120.5022053735203
 20
-130.2845540038872
 10
119.0077229520189
 20
-130.4113335177444
 10
117.8698079132409
 20
-130.8850341469662
 10
117.5432128612392
 20
-131.0218044377307
 10
117.5869655739019
 20
-131.1261908309337
 10
117.9080484731272
 20
-131.1485839515879
 10
119.8562499700359
 20
-131.281909146867
 10
122.8107638581862
 20
-132.5107747064556
 10
123.166297712264
 20
-136.2047783405148
 10
122.5296440665898
 20
-135.083399760066
 10
121.9763617316587
 20
-134.2753526140006
 10
121.3934515755544
 20
-133.674527961373
 10
119.1751545926021
 20
-131.3890516164583
 10
117.4322807866142
 20
-131.8965141814356
 10
115.8323784432641
 20
-132.4911376621897
 10
115.2642821977464
 20
-132.70128848679
 10
114.6975639904228
 20
-132.9131618591328
 10
114.1260226494199
 20
-133.1329589510918
 10
113.7746229099244
 20
-133.267662184565
 10
113.313669133998
 20
-133.3963365009391
 10
112.8675292686581
 20
-133.4705783086463
 10
112.8675292686581
 20
-133.4705783086463
 10
112.4551513390737
 20
-132.5076741205189
 10
112.4551513390737
 20
-132.5076741205189
 10
112.4551513390737
 20
-132.5076741205189
 10
118.099595782107
 20
-119.1021185683148
 10
118.099595782107
 20
-119.1021185683148
 10
120.1280680038222
 20
-114.3396185695054
 10
122.2447346699597
 20
-111.8701741256783
 10
125.4197346691659
 20
-111.3410074591439
 10
125.4197346691659
 20
-111.3410074591439
 10
125.4197346691659
 20
-108.3423963487825
 10
125.4197346691659
 20
-108.3423963487825
 10
125.4197346691659
 20
-108.3423963487825
 10
91.37667912212112
 20
-108.3423963487825
 10
91.37667912212112
 20
-108.3423963487825
 10
91.37667912212112
 20
-108.3423963487825
 10
91.37667912212112
 20
-111.3410074591439
 10
91.37667912212112
 20
-111.3410074591439
 10
94.63987356574975
 20
-111.6937852368335
 10
96.31556800977528
 20
-113.7222574585486
 10
97.55029023168882
 20
-116.5444796800653
 10
97.55029023168882
 20
-116.5444796800653
 10
104.5960272633475
 20
-133.4543863598656
 10
104.5960272633475
 20
-133.4543863598656
 10
104.1731417925331
 20
-133.3785942591901
 10
103.7431938759739
 20
-133.2569823885608
 10
103.4112589259701
 20
-133.129858365155
 10
102.8397175849672
 20
-132.9097167636476
 10
102.2731716324178
 20
-132.6992214294988
 10
101.7054198964486
 20
-132.4866590380589
 10
100.1039672601303
 20
-131.8927245764018
 10
98.36143796369089
 20
-131.384917501876
 10
96.14400225460983
 20
-133.6714273754363
 10
95.56350366534524
 20
-134.2691514421272
 10
95.01383868067363
 20
-135.0709974163191
 10
94.38286944255012
 20
-136.1822129650864
 10
94.76889239167237
 20
-132.7274712124779
 10
97.69670678981194
 20
-131.2856987519008
 10
99.63043888568268
 20
-131.1534070852672
 10
99.94911021806828
 20
-131.1327365123557
 10
99.99372420460227
 20
-131.0283501191526
 10
99.66816268124616
 20
-130.8919243379368
 10
98.53007538769387
 20
-130.4175346896178
 10
97.03490394709544
 20
-130.2907551757606
 10
95.57297767792967
 20
-130.8622965167636
 10
95.34766843319434
 20
-130.3019517360877
 10
94.9161702236668
 20
-129.7247259875341
 10
94.39664982449112
 20
-129.3025295358167
 10
94.61558564257875
 20
-128.9931599612413
 10
94.48467201413925
 20
-128.5096408098865
 10
94.0495564543522
 20
-128.3615017040208
 10
94.0495564543522
 20
-128.3615017040208
 10
94.0495564543522
 20
-127.7555094081653
 10
94.0495564543522
 20
-127.7555094081653
 10
95.10651174922685
 20
-128.1737440000746
 10
95.56247013669966
 20
-129.5469590604952
 10
96.58256290988214
 20
-129.4739230362079
 10
97.6762084716747
 20
-129.3974419164354
 10
97.98523353670161
 20
-128.0703911355171
 10
99.00635983852966
 20
-127.3886067389862
 10
98.06464298763662
 20
-126.7119899856831
 10
97.7547566487384
 20
-125.3842501856678
 10
96.77721080479876
 20
-125.3480766830727
 10
95.6408460589891
 20
-125.3094916136379
 10
95.25155026915587
 20
-126.5600612747836
 10
94.08021780417093
 20
-126.9772623380474
 10
94.42800019340689
 20
-125.8786213878012
 10
95.95676131498651
 20
-125.5006944130693
 10
95.95676131498651
 20
-124.4365044176756
 10
95.95676131498651
 20
-123.4925482547171
 10
94.42800019340689
 20
-123.1146212799852
 10
93.7276122812556
 20
-122.3973523999562
 10
92.94385305836126
 20
-123.0388291793097
 10
91.57804495323397
 20
-123.6837510541485
 10
91.57804495323397
 20
-124.4785345825957
 10
91.57804495323397
 20
-125.5006944130693
 10
93.4544162092753
 20
-126.330617915466
 10
93.41273055390377
 20
-127.0523654196258
 10
92.23864201253062
 20
-126.6361978850076
 10
92.04485539148531
 20
-125.4614203245374
 10
91.02579614694842
 20
-125.4249023123938
 10
90.04738902913746
 20
-125.4249023123938
 10
89.71510956958511
 20
-126.9369547208699
 10
88.62043047914698
 20
-127.5408799594342
 10
89.79262421800324
 20
-128.3008680234803
 10
90.2837225794256
 20
-129.5107855579001
 10
91.06834307619125
 20
-129.5469590604952
 10
92.08275144182306
 20
-129.6230956707192
 10
92.40951874859901
 20
-127.9432671121114
 10
93.58171248745528
 20
-127.8306124897437
 10
93.58171248745528
 20
-127.8306124897437
 10
93.58171248745528
 20
-128.3615017040208
 10
93.58171248745528
 20
-128.3615017040208
 10
93.09767657177767
 20
-128.413522645848
 10
92.96607392424113
 20
-128.9452731339963
 10
93.19603404788155
 20
-129.2866820965846
 10
92.671346005478
 20
-129.7093953126247
 10
92.23416338839979
 20
-130.2909274305349
 10
92.00799286979314
 20
-130.8564398544387
 10
90.54554983630459
 20
-130.2845540038872
 10
89.05106741480321
 20
-130.4113335177444
 10
87.9131523760252
 20
-130.8850341469662
 10
87.5865573240235
 20
-131.0218044377307
 10
87.63031003668618
 20
-131.1261908309337
 10
87.95139293591146
 20
-131.1485839515879
 10
89.89959443282025
 20
-131.281909146867
 10
92.85428057574477
 20
-132.5107747064556
 10
93.20946992027403
 20
-136.2047783405148
 10
92.57316078414839
 20
-135.083399760066
 10
92.01987844921726
 20
-134.2753526140006
 10
91.43679603833873
 20
-133.674527961373
 10
89.34355602150092
 20
-131.5178981876066
 10
87.67354598502607
 20
-131.8484550994164
 10
86.14754093983464
 20
-132.3920911669888
 10
86.14754093983464
 20
-132.3920911669888
 10
82.4425130002227
 20
-123.570579667458
 10
82.4425130002227
 20
-123.570579667458
 10
82.2451090289179
 20
-122.7635660500383
 10
82.20101180670669
 20
-121.9372598979011
 10
82.49436168727571
 20
-121.0930392492406
 10
83.27347003126496
 20
-119.4418049831604
 10
85.33932153899504
 20
-118.3500542238847
 10
86.73441295574696
 20
-120.3054904213125
 10
86.87617863496499
 20
-120.5059949785541
 10
86.96420082461312
 20
-120.6865179819812
 10
87.03568655593206
 20
-120.9256076086575
 10
87.08598495001671
 20
-121.0892496442069
 10
87.18589271908895
 20
-121.1405815669371
 10
87.36538219387046
 20
-120.9369764237588
 10
88.29090709598283
 20
-119.891734453534
 10
88.08041176183407
 20
-119.0518201742301
 10
87.76880287519322
 20
-117.9769503828322
 10
87.99152829831462
 20
-117.9635145104397
 10
88.22372773402046
 20
-117.9380208038488
 10
88.37238360420899
 20
-117.775412296945
 10
88.19582246058994
 20
-116.8428249490879
 10
87.07788897562637
 20
-116.1913573928272
 10
87.07788897562637
 20
-116.1913573928272
 10
88.00668671844971
 20
-115.8978352574839
 10
90.29371335633283
 20
-116.8762423752948
 10
89.9962293611815
 20
-119.2940103868432
 10
89.87048337596988
 20
-119.2047824137752
 10
89.73457435907677
 20
-119.1224446316777
 10
89.58970809392203
 20
-119.0687011421078
 10
88.02735729136123
 20
-118.4954372533623
 10
87.5603745983356
 20
-121.6104925911252
 10
89.19317760356977
 20
-121.7352050476912
 10
90.44340275516693
 20
-121.8302896830841
 10
91.35445825624124
 20
-120.3468315671355
 10
91.30002574757431
 20
-119.0187472575717
 10
91.16807859048923
 20
-115.8113633608041
 10
88.19547795104141
 20
-114.6837836084818
 10
86.60126001524205
 20
-114.8333007525417
 10
87.72074379317398
 20
-114.2641709783784
 10
87.75640053144632
 20
-113.148993569803
 10
88.59321422481351
 20
-112.2770399024863
 10
88.8385050233633
 20
-112.0200357792867
 10
88.6676282872949
 20
-111.8277994512097
 10
88.47143009940993
 20
-112.066200058789
 10
87.90385061821502
 20
-112.7579752322272
 10
86.92974986976063
 20
-112.314935952824
 10
86.23022323148064
 20
-112.4737548546941
 10
85.22666691662737
 20
-112.6112141645555
 10
84.44824759173517
 20
-112.9109374717723
 10
83.7283948900922
 20
-113.693663166021
 10
83.53047415446461
 20
-113.4993597806529
 10
83.59248587319911
 20
-113.1307345637312
 10
83.45640460153173
 20
-112.94883352211
 10
82.05511201290636
 20
-113.6302734090924
 10
80.66501598460806
 20
-115.8471923538507
 10
80.40181068953497
 20
-118.6997314156376
 10
79.6907429813794
 20
-116.9429049729344
 10
79.29404023625288
 20
-115.7841471064706
 10
79.29404023625288
 20
-114.8687852360398
 10
79.29404023625288
 20
-112.3111463477903
 10
81.58709579123517
 20
-111.3410074591439
 10
83.52737356852788
 20
-111.3410074591439
 10
83.52737356852788
 20
-111.3410074591439
 10
83.52737356852788
 20
-108.3423963487825
 10
83.52737356852788
 20
-108.3423963487825
 10
83.52737356852788
 20
-108.3423963487825
 10
63.94820690675601
 20
-108.3423963487825
 10
63.94820690675601
 20
-108.3423963487825
 10
63.94820690675601
 20
-108.3423963487825
 10
63.94820690675601
 20
-111.3410074591439
 10
63.94820690675601
 20
-111.3410074591439
 10
68.53431801672059
 20
-111.4292019035663
 10
70.29820690516851
 20
-114.3396185695054
 10
71.62112357150444
 20
-117.602813013134
 10
71.62112357150444
 20
-117.602813013134
 10
79.68092445924644
 20
-137.1998941714292
 10
79.68092445924644
 20
-137.1998941714292
 10
79.68092445924644
 20
-137.1998941714292
 10
73.41464028112551
 20
-137.1998941714292
 10
73.41464028112551
 20
-137.1998941714292
 10
73.41464028112551
 20
-137.1998941714292
 10
73.41464028112551
 20
-138.8115098394291
 10
73.41464028112551
 20
-138.8115098394291
 10
73.41464028112551
 20
-138.8115098394291
 10
142.3234401770927
 20
-138.8115098394291
 10
142.3234401770927
 20
-138.8115098394291
 10
142.3234401770927
 20
-138.8115098394291
 10
142.3234401770927
 20
-137.1998941714292
 10
142.3234401770927
 20
-137.1998941714292
 10
142.3234401770927
 20
-137.1998941714292
 10
136.859174227938
 20
-137.1998941714292
 10
136.859174227938
 20
-137.1998941714292
 10
136.859174227938
 20
-137.1998941714292
 10
144.7343179976706
 20
-119.1021185683148
 10
144.7343179976706
 20
-119.1021185683148
 10
147.8211235524545
 20
-112.0465630145231
 10
150.3787624407039
 20
-111.4292019035663
 10
151.7898735514623
 20
-111.3410074591439
 10
151.7898735514623
 20
-111.3410074591439
 10
151.7898735514623
 20
-108.3423963487825
 10
151.7898735514623
 20
-108.3423963487825
 10
151.7898735514623
 20
-108.3423963487825
 10
137.0614013329221
 20
-108.3423963487825
 10
137.0614013329221
 20
-108.3423963487825
 97
        0
 92
        1
 93
        1
 72
     4
 94
        3
 73
     0
 74
     1
 95
       14
 96
       10
 40
0.0
 40
0.0
 40
0.0
 40
0.0
 40
1.0
 40
1.0
 40
1.0
 40
2.0
 40
2.0
 40
2.0
 40
3.0
 40
3.0
 40
3.0
 40
3.0
 10
134.3073920020134
 20
-134.2858601552306
 10
134.3073920020134
 20
-134.2858601552306
 10
133.9463459951592
 20
-135.1407605998954
 10
133.9463459951592
 20
-135.1407605998954
 10
132.9634602532175
 20
-134.8830674575987
 10
131.8527614687729
 20
-133.8237005958844
 10
131.1544406139128
 20
-133.1515624667121
 10
132.1073540251329
 20
-133.4623100794817
 10
133.218397319126
 20
-133.9973334083409
 10
134.3073920020134
 20
-134.2858601552306
 97
        0
 92
        1
 93
        1
 72
     4
 94
        3
 73
     0
 74
     1
 95
       17
 96
       13
 40
0.0
 40
0.0
 40
0.0
 40
0.0
 40
1.0
 40
1.0
 40
1.0
 40
2.0
 40
2.0
 40
2.0
 40
3.0
 40
3.0
 40
3.0
 40
4.0
 40
4.0
 40
4.0
 40
4.0
 10
128.3546115130502
 20
-136.266617804475
 10
128.2746852977924
 20
-136.6438557601099
 10
128.0693576068716
 20
-136.9430623030038
 10
127.8306124897437
 20
-137.1998941714292
 10
127.8306124897437
 20
-137.1998941714292
 10
124.8178764878928
 20
-137.1998941714292
 10
124.8178764878928
 20
-137.1998941714292
 10
124.9777289184083
 20
-136.9122286984108
 10
125.1286241006623
 20
-136.6142279389367
 10
125.2771077160766
 20
-136.3069254216524
 10
126.572119108982
 20
-133.6256076054825
 10
128.8293456709177
 20
-134.0400525923581
 10
128.3546115130502
 20
-136.266617804475
 97
        0
 92
        1
 93
        1
 72
     4
 94
        3
 73
     0
 74
     1
 95
       17
 96
       13
 40
0.0
 40
0.0
 40
0.0
 40
0.0
 40
1.0
 40
1.0
 40
1.0
 40
2.0
 40
2.0
 40
2.0
 40
3.0
 40
3.0
 40
3.0
 40
4.0
 40
4.0
 40
4.0
 40
4.0
 10
122.2168293965291
 20
-136.3110595362348
 10
122.3649685023949
 20
-136.6166395057764
 10
122.5151746655518
 20
-136.9134344818307
 10
122.6739935674218
 20
-137.1998941714292
 10
122.6739935674218
 20
-137.1998941714292
 10
119.6598795273767
 20
-137.1998941714292
 10
119.6598795273767
 20
-137.1998941714292
 10
119.422512448443
 20
-136.9437513221009
 10
119.2182182861677
 20
-136.6454060530782
 10
119.1386365804584
 20
-136.2693738808632
 10
118.6652804607851
 20
-134.0441867069403
 10
120.9221625131722
 20
-133.6283636818707
 10
122.2168293965291
 20
-136.3110595362348
 97
        0
 92
        1
 93
        1
 72
     4
 94
        3
 73
     0
 74
     1
 95
       29
 96
       25
 40
0.0
 40
0.0
 40
0.0
 40
0.0
 40
1.0
 40
1.0
 40
1.0
 40
2.0
 40
2.0
 40
2.0
 40
3.0
 40
3.0
 40
3.0
 40
4.0
 40
4.0
 40
4.0
 40
5.0
 40
5.0
 40
5.0
 40
6.0
 40
6.0
 40
6.0
 40
7.0
 40
7.0
 40
7.0
 40
8.0
 40
8.0
 40
8.0
 40
8.0
 10
116.6147596279644
 20
-133.722414788618
 10
117.8353569583884
 20
-132.6175726664984
 10
119.1644747965978
 20
-132.7412515944189
 10
120.0195474960368
 20
-133.4319932392115
 10
119.8865668103061
 20
-133.4505967548318
 10
117.2910318717189
 20
-133.9952663510498
 10
117.4322807866142
 20
-134.8968478395397
 10
117.5473469758215
 20
-135.2441134644529
 10
117.7592203481644
 20
-135.1600531346128
 10
117.9580023576633
 20
-135.397764723095
 10
117.6355414202439
 20
-136.1169284056409
 10
117.7433729089322
 20
-136.7721855669354
 10
117.8642957604645
 20
-137.1998941714292
 10
117.8642957604645
 20
-137.1998941714292
 10
114.4639865165229
 20
-137.1998941714292
 10
114.4639865165229
 20
-137.1998941714292
 10
114.4639865165229
 20
-137.1998941714292
 10
114.1863118204118
 20
-136.5518717106537
 10
114.1863118204118
 20
-136.5518717106537
 10
114.4591633828435
 20
-136.3865071273617
 10
114.7175455442373
 20
-136.1551689655272
 10
114.9359645980021
 20
-135.8831786769667
 10
115.5216308304946
 20
-135.1517849054482
 10
116.037706134185
 20
-134.2453802832789
 10
116.6147596279644
 20
-133.722414788618
 97
        0
 92
        1
 93
        1
 72
     4
 94
        3
 73
     0
 74
     1
 95
       14
 96
       10
 40
0.0
 40
0.0
 40
0.0
 40
0.0
 40
1.0
 40
1.0
 40
1.0
 40
2.0
 40
2.0
 40
2.0
 40
3.0
 40
3.0
 40
3.0
 40
3.0
 10
116.3394964986929
 20
-133.1556965812944
 10
115.6497883825459
 20
-133.8193942265278
 10
114.555281546882
 20
-134.8642916872041
 10
113.5806640341048
 20
-135.1366264853131
 10
113.5806640341048
 20
-135.1366264853131
 10
113.2147948935713
 20
-134.2824150597454
 10
113.2147948935713
 20
-134.2824150597454
 10
114.2944878186486
 20
-133.9916490007903
 10
115.3955403357345
 20
-133.4628268438044
 10
116.3394964986929
 20
-133.1556965812944
 97
        0
 92
        1
 93
        1
 72
     4
 94
        3
 73
     0
 74
     1
 95
       26
 96
       22
 40
0.0
 40
0.0
 40
0.0
 40
0.0
 40
1.0
 40
1.0
 40
1.0
 40
2.0
 40
2.0
 40
2.0
 40
3.0
 40
3.0
 40
3.0
 40
4.0
 40
4.0
 40
4.0
 40
5.0
 40
5.0
 40
5.0
 40
6.0
 40
6.0
 40
6.0
 40
7.0
 40
7.0
 40
7.0
 40
7.0
 10
110.514873561781
 20
-111.3410074591439
 10
110.514873561781
 20
-111.3410074591439
 10
112.4551513390737
 20
-111.3410074591439
 10
112.4551513390737
 20
-111.3410074591439
 10
117.4822346711503
 20
-111.3410074591439
 10
115.8947346715472
 20
-115.0451741248845
 10
115.189179116168
 20
-116.8090630133325
 10
115.189179116168
 20
-116.8090630133325
 10
110.7794568950482
 20
-127.2160074551752
 10
110.7794568950482
 20
-127.2160074551752
 10
110.7794568950482
 20
-127.2160074551752
 10
110.3384846729362
 20
-127.2160074551752
 10
110.3384846729362
 20
-127.2160074551752
 10
110.3384846729362
 20
-127.2160074551752
 10
106.281540229506
 20
-117.602813013134
 10
106.281540229506
 20
-117.602813013134
 10
105.840568007394
 20
-116.4562852356429
 10
105.1350124520149
 20
-115.4861463469965
 10
105.1350124520149
 20
-114.1632296806606
 10
105.1350124520149
 20
-111.5173963479887
 10
107.3398735625748
 20
-111.3410074591439
 10
110.514873561781
 20
-111.3410074591439
 97
        0
 92
        1
 93
        1
 72
     4
 94
        3
 73
     0
 74
     1
 95
       47
 96
       43
 40
0.0
 40
0.0
 40
0.0
 40
0.0
 40
1.0
 40
1.0
 40
1.0
 40
2.0
 40
2.0
 40
2.0
 40
3.0
 40
3.0
 40
3.0
 40
4.0
 40
4.0
 40
4.0
 40
5.0
 40
5.0
 40
5.0
 40
6.0
 40
6.0
 40
6.0
 40
7.0
 40
7.0
 40
7.0
 40
8.0
 40
8.0
 40
8.0
 40
9.0
 40
9.0
 40
9.0
 40
10.0
 40
10.0
 40
10.0
 40
11.0
 40
11.0
 40
11.0
 40
12.0
 40
12.0
 40
12.0
 40
13.0
 40
13.0
 40
13.0
 40
14.0
 40
14.0
 40
14.0
 40
14.0
 10
100.9221774378771
 20
-133.7203477313269
 10
101.4994031864307
 20
-134.2405571495996
 10
102.0144449614756
 20
-135.1469617717688
 10
102.6020059964849
 20
-135.88007809103
 10
103.1385796183126
 20
-136.549460143814
 10
103.9187214909474
 20
-136.997667066445
 10
104.5677774803685
 20
-136.7261935422073
 10
104.9300292706425
 20
-136.5725422835652
 10
105.2542127558045
 20
-136.3162271794626
 10
105.309678793117
 20
-136.0147813245032
 10
105.3697957093346
 20
-135.7002441067
 10
105.188928196359
 20
-135.8242675441689
 10
105.1067626690358
 20
-135.8552734035362
 10
104.7050645354557
 20
-136.0058240762416
 10
104.1834770789889
 20
-136.1081434121535
 10
103.8308715560735
 20
-135.8614745754096
 10
104.0081217187896
 20
-135.6485676744212
 10
104.0933878320496
 20
-135.439105868918
 10
104.1071682139906
 20
-135.17004391152
 10
103.0965494533925
 20
-134.9709173924726
 10
101.9238389502135
 20
-133.8505723406693
 10
101.1977850766971
 20
-133.1515624667121
 10
102.3413845230258
 20
-133.5244940529904
 10
103.7123602713809
 20
-134.2195420671396
 10
104.9994479446703
 20
-134.4224581912208
 10
104.9994479446703
 20
-134.4224581912208
 10
106.1566555181657
 20
-137.1998941714292
 10
106.1566555181657
 20
-137.1998941714292
 10
106.1566555181657
 20
-137.1998941714292
 10
99.67298581492551
 20
-137.1998941714292
 10
99.67298581492551
 20
-137.1998941714292
 10
99.79339190213499
 20
-136.7713242930641
 10
99.90191240992036
 20
-136.1153781126725
 10
99.57927921772671
 20
-135.3936306085127
 10
99.77823348199989
 20
-135.1548854913849
 10
99.98959009001997
 20
-135.2396348403221
 10
100.1051730435501
 20
-134.8958143108941
 10
100.2472832323167
 20
-133.990787726919
 10
97.6519205485037
 20
-133.4471516593466
 10
97.51756182457895
 20
-133.4282036341777
 10
98.3724622692437
 20
-132.7384955180306
 10
99.70192461700161
 20
-132.6161946283043
 10
100.9221774378771
 20
-133.7203477313269
 97
        0
 92
        1
 93
        1
 72
     4
 94
        3
 73
     0
 74
     1
 95
       17
 96
       13
 40
0.0
 40
0.0
 40
0.0
 40
0.0
 40
1.0
 40
1.0
 40
1.0
 40
2.0
 40
2.0
 40
2.0
 40
3.0
 40
3.0
 40
3.0
 40
4.0
 40
4.0
 40
4.0
 40
4.0
 10
98.39795597583455
 20
-136.266617804475
 10
98.31802976057675
 20
-136.6438557601099
 10
98.11270206965585
 20
-136.9430623030038
 10
97.87395695252805
 20
-137.1998941714292
 10
97.87395695252805
 20
-137.1998941714292
 10
94.86122095067707
 20
-137.1998941714292
 10
94.86122095067707
 20
-137.1998941714292
 10
95.0209011264184
 20
-136.9122286984108
 10
95.17214081822085
 20
-136.6142279389367
 10
95.32045217886086
 20
-136.3069254216524
 10
96.61546357176628
 20
-133.6256076054825
 10
98.87269013370197
 20
-134.0400525923581
 10
98.39795597583455
 20
-136.266617804475
 97
        0
 92
        1
 93
        1
 72
     4
 94
        3
 73
     0
 74
     1
 95
       20
 96
       16
 40
0.0
 40
0.0
 40
0.0
 40
0.0
 40
1.0
 40
1.0
 40
1.0
 40
2.0
 40
2.0
 40
2.0
 40
3.0
 40
3.0
 40
3.0
 40
4.0
 40
4.0
 40
4.0
 40
5.0
 40
5.0
 40
5.0
 40
5.0
 10
90.06306421359535
 20
-133.4319932392115
 10
89.92973901831618
 20
-133.4505967548318
 10
87.33420407972895
 20
-133.9952663510498
 10
87.47545299462419
 20
-134.8968478395397
 10
87.59086369338007
 20
-135.2441134644529
 10
87.80256481094867
 20
-135.1600531346128
 10
88.00151907522185
 20
-135.397764723095
 10
87.85716957438987
 20
-135.7195366414173
 10
87.80204804662588
 20
-136.0270114134759
 10
87.79257403404145
 20
-136.3086479693951
 10
87.79257403404145
 20
-136.3086479693951
 10
86.693760829021
 20
-133.6924424578963
 10
86.693760829021
 20
-133.6924424578963
 10
87.90453963731207
 20
-132.621879035855
 10
89.21608748854668
 20
-132.7479695306151
 10
90.06306421359535
 20
-133.4319932392115
 97
        0
 92
        1
 93
        1
 72
     4
 94
        3
 73
     0
 74
     1
 95
       14
 96
       10
 40
0.0
 40
0.0
 40
0.0
 40
0.0
 40
1.0
 40
1.0
 40
1.0
 40
2.0
 40
2.0
 40
2.0
 40
3.0
 40
3.0
 40
3.0
 40
3.0
 10
86.08966333568245
 20
-118.9157389025627
 10
85.0120374678963
 20
-118.11992184547
 10
82.42856036350744
 20
-118.8482150310518
 10
81.68734806985594
 20
-120.5438910288918
 10
81.75900605594914
 20
-118.6763047663379
 10
85.17240666273467
 20
-117.1039631868698
 10
86.15425887603088
 20
-118.8833550050014
 10
86.20972491334341
 20
-118.9836072836222
 10
86.14857446848022
 20
-118.9591471056769
 10
86.08966333568245
 20
-118.9157389025627
 97
        0
 92
        1
 93
        1
 72
     4
 94
        3
 73
     0
 74
     1
 95
       14
 96
       10
 40
0.0
 40
0.0
 40
0.0
 40
0.0
 40
1.0
 40
1.0
 40
1.0
 40
2.0
 40
2.0
 40
2.0
 40
3.0
 40
3.0
 40
3.0
 40
3.0
 10
85.98252086609118
 20
-113.9113932006888
 10
86.0192111330091
 20
-113.8983018378449
 10
86.01972789733188
 20
-113.9065700670095
 10
85.98717174499626
 20
-113.9327527926974
 10
84.22087128970867
 20
-115.3297390119662
 10
82.22064885097262
 20
-117.1349690462371
 10
81.40915660942203
 20
-119.3391411376999
 10
81.63102075867211
 20
-117.0808810471187
 10
83.76491290223586
 20
-114.7085882959756
 10
85.98252086609118
 20
-113.9113932006888
 97
        0
 92
        1
 93
        1
 72
     4
 94
        3
 73
     0
 74
     1
 95
       17
 96
       13
 40
0.0
 40
0.0
 40
0.0
 40
0.0
 40
1.0
 40
1.0
 40
1.0
 40
2.0
 40
2.0
 40
2.0
 40
3.0
 40
3.0
 40
3.0
 40
4.0
 40
4.0
 40
4.0
 40
4.0
 10
89.1819810432427
 20
-136.2693738808632
 10
88.70862492356937
 20
-134.0441867069403
 10
90.96533472118229
 20
-133.6283636818707
 10
92.26017385931344
 20
-136.3110595362348
 10
92.40814071040491
 20
-136.6166395057764
 10
92.55851912833607
 20
-136.9134344818307
 10
92.71751028498035
 20
-137.1998941714292
 10
92.71751028498035
 20
-137.1998941714292
 10
89.70305173538674
 20
-137.1998941714292
 10
89.70305173538674
 20
-137.1998941714292
 10
89.46568465645302
 20
-136.9437513221009
 10
89.26173500372624
 20
-136.6454060530782
 10
89.1819810432427
 20
-136.2693738808632
 97
        0
 92
        1
 93
        1
 72
     4
 94
        3
 73
     0
 74
     1
 95
       29
 96
       25
 40
0.0
 40
0.0
 40
0.0
 40
0.0
 40
1.0
 40
1.0
 40
1.0
 40
2.0
 40
2.0
 40
2.0
 40
3.0
 40
3.0
 40
3.0
 40
4.0
 40
4.0
 40
4.0
 40
5.0
 40
5.0
 40
5.0
 40
6.0
 40
6.0
 40
6.0
 40
7.0
 40
7.0
 40
7.0
 40
8.0
 40
8.0
 40
8.0
 40
8.0
 10
129.6296413521412
 20
-137.1998941714292
 10
129.750219694125
 20
-136.7713242930641
 10
129.8587402019103
 20
-136.1153781126725
 10
129.5359347549424
 20
-135.3936306085127
 10
129.7347167644413
 20
-135.1548854913849
 10
129.9462456272357
 20
-135.2396348403221
 10
130.0620008355401
 20
-134.8958143108941
 10
130.2039387695324
 20
-133.990787726919
 10
127.6084038309451
 20
-133.4471516593466
 10
127.4740451070204
 20
-133.4282036341777
 10
128.3291178064594
 20
-132.7384955180306
 10
129.6585801542173
 20
-132.6161946283043
 10
130.8788329750928
 20
-133.7203477313269
 10
131.4558864688721
 20
-134.2405571495996
 10
131.9712727534655
 20
-135.1469617717688
 10
132.5586615337006
 20
-135.88007809103
 10
132.7856933261786
 20
-136.1634371946918
 10
133.0571668504163
 20
-136.4021823118196
 10
133.343109775692
 20
-136.5684081689829
 10
133.343109775692
 20
-136.5684081689829
 10
133.0764593851337
 20
-137.1998941714292
 10
133.0764593851337
 20
-137.1998941714292
 10
133.0764593851337
 20
-137.1998941714292
 10
129.6296413521412
 20
-137.1998941714292
 10
129.6296413521412
 20
-137.1998941714292
 97
        0
 92
        1
 93
        1
 72
     4
 94
        3
 73
     0
 74
     1
 95
       14
 96
       10
 40
0.0
 40
0.0
 40
0.0
 40
0.0
 40
1.0
 40
1.0
 40
1.0
 40
2.0
 40
2.0
 40
2.0
 40
3.0
 40
3.0
 40
3.0
 40
3.0
 10
134.14237192827
 20
-119.7718451306473
 10
134.0762260949532
 20
-119.8204209769893
 10
134.0083577138938
 20
-119.8472927217743
 10
134.0700249230797
 20
-119.7360161376007
 10
135.163498230098
 20
-117.7540527049365
 10
138.9648165885227
 20
-119.505194740089
 10
139.0447428037805
 20
-121.5849988845343
 10
138.2192979255146
 20
-119.6970865586174
 10
135.341954176234
 20
-118.8861110813896
 10
134.14237192827
 20
-119.7718451306473
 97
        0
 92
        1
 93
        1
 72
     4
 94
        3
 73
     0
 74
     1
 95
       14
 96
       10
 40
0.0
 40
0.0
 40
0.0
 40
0.0
 40
1.0
 40
1.0
 40
1.0
 40
2.0
 40
2.0
 40
2.0
 40
3.0
 40
3.0
 40
3.0
 40
3.0
 10
134.2560600792832
 20
-114.2224853230069
 10
134.2202310862366
 20
-114.1935465209308
 10
134.2205755957851
 20
-114.1842447631206
 10
134.2615722320596
 20
-114.1990586737072
 10
136.7310166758867
 20
-115.0865152707075
 10
139.107443541612
 20
-117.7285589983456
 10
139.354801397453
 20
-120.243478702578
 10
138.4508083421234
 20
-117.7888481693375
 10
136.2232096013609
 20
-115.7782904441457
 10
134.2560600792832
 20
-114.2224853230069
 97
        0
 75
     2
 76
     1
 98
        0
  0
SPLINE
  5
51
330
3C
100
AcDbEntity
  8
Layer 1
370
     0
100
AcDbSpline
210
0.0
220
0.0
230
1.0
 70
    11
 71
     3
 72
   152
 73
   148
 74
     0
 42
0.0000000001
 43
0.0000000001
 40
0.0
 40
0.0
 40
0.0
 40
0.0
 40
1.0
 40
1.0
 40
1.0
 40
2.0
 40
2.0
 40
2.0
 40
3.0
 40
3.0
 40
3.0
 40
4.0
 40
4.0
 40
4.0
 40
5.0
 40
5.0
 40
5.0
 40
6.0
 40
6.0
 40
6.0
 40
7.0
 40
7.0
 40
7.0
 40
8.0
 40
8.0
 40
8.0
 40
9.0
 40
9.0
 40
9.0
 40
10.0
 40
10.0
 40
10.0
 40
11.0
 40
11.0
 40
11.0
 40
12.0
 40
12.0
 40
12.0
 40
13.0
 40
13.0
 40
13.0
 40
14.0
 40
14.0
 40
14.0
 40
15.0
 40
15.0
 40
15.0
 40
16.0
 40
16.0
 40
16.0
 40
17.0
 40
17.0
 40
17.0
 40
18.0
 40
18.0
 40
18.0
 40
19.0
 40
19.0
 40
19.0
 40
20.0
 40
20.0
 40
20.0
 40
21.0
 40
21.0
 40
21.0
 40
22.0
 40
22.0
 40
22.0
 40
23.0
 40
23.0
 40
23.0
 40
24.0
 40
24.0
 40
24.0
 40
25.0
 40
25.0
 40
25.0
 40
26.0
 40
26.0
 40
26.0
 40
27.0
 40
27.0
 40
27.0
 40
28.0
 40
28.0
 40
28.0
 40
29.0
 40
29.0
 40
29.0
 40
30.0
 40
30.0
 40
30.0
 40
31.0
 40
31.0
 40
31.0
 40
32.0
 40
32.0
 40
32.0
 40
33.0
 40
33.0
 40
33.0
 40
34.0
 40
34.0
 40
34.0
 40
35.0
 40
35.0
 40
35.0
 40
36.0
 40
36.0
 40
36.0
 40
37.0
 40
37.0
 40
37.0
 40
38.0
 40
38.0
 40
38.0
 40
39.0
 40
39.0
 40
39.0
 40
40.0
 40
40.0
 40
40.0
 40
41.0
 40
41.0
 40
41.0
 40
42.0
 40
42.0
 40
42.0
 40
43.0
 40
43.0
 40
43.0
 40
44.0
 40
44.0
 40
44.0
 40
45.0
 40
45.0
 40
45.0
 40
46.0
 40
46.0
 40
46.0
 40
47.0
 40
47.0
 40
47.0
 40
48.0
 40
48.0
 40
48.0
 40
49.0
 40
49.0
 40
49.0
 40
49.0
 10
73.41464028112551
 20
-150.8059542808749
 30
0.0
 10
73.41464028112551
 20
-150.8059542808749
 30
0.0
 10
79.90692272307882
 20
-150.8059542808749
 30
0.0
 10
79.90692272307882
 20
-150.8059542808749
 30
0.0
 10
79.38154566157823
 20
-151.1370279570074
 30
0.0
 10
78.90061033183736
 20
-151.5893689942207
 30
0.0
 10
78.52113306413708
 20
-152.1292154567594
 30
0.0
 10
77.45642630442062
 20
-153.6436794320752
 30
0.0
 10
77.17117239824194
 20
-157.0460557333079
 30
0.0
 10
80.35065102157901
 20
-159.1379177119516
 30
0.0
 10
82.09783119692347
 20
-160.2885796040251
 30
0.0
 10
84.29235702102761
 20
-160.6303330761619
 30
0.0
 10
85.81267765866836
 20
-160.1821261535309
 30
0.0
 10
86.00594751539087
 20
-160.1245930589272
 30
0.0
 10
85.9516872614982
 20
-160.1886718349528
 30
0.0
 10
85.89139809050631
 20
-160.2975368522867
 30
0.0
 10
85.51846650422803
 20
-160.9734645864928
 30
0.0
 10
85.22666691662737
 20
-161.7796169300412
 30
0.0
 10
85.27214217703266
 20
-162.3470241564619
 30
0.0
 10
85.31503361582402
 20
-162.8820474853212
 30
0.0
 10
85.61372339439518
 20
-162.8827365044182
 30
0.0
 10
86.14220104183251
 20
-162.5520073378342
 30
0.0
 10
86.44381915156613
 20
-163.9638074676896
 30
0.0
 10
88.11761879307477
 20
-166.5831135651251
 30
0.0
 10
88.74324813319613
 20
-165.9736761737844
 30
0.0
 10
87.61342906880846
 20
-164.0947210961291
 30
0.0
 10
87.71402585697774
 20
-162.3053385010903
 30
0.0
 10
88.45334334811237
 20
-159.0166503508708
 30
0.0
 10
88.47694225218632
 20
-158.908474352634
 30
0.0
 10
88.50036890148603
 20
-158.8051214880765
 30
0.0
 10
88.52379555078572
 20
-158.7003905853249
 30
0.0
 10
88.52379555078572
 20
-158.7003905853249
 30
0.0
 10
93.49334578825861
 20
-170.7840629998387
 30
0.0
 10
93.49334578825861
 20
-170.7840629998387
 30
0.0
 10
93.49334578825861
 20
-170.7840629998387
 30
0.0
 10
96.22737356535288
 20
-170.7840629998387
 30
0.0
 10
96.22737356535288
 20
-170.7840629998387
 30
0.0
 10
96.22737356535288
 20
-170.7840629998387
 30
0.0
 10
103.3709513087927
 20
-153.9041286507601
 30
0.0
 10
103.3709513087927
 20
-153.9041286507601
 30
0.0
 10
104.2792507334788
 20
-154.054334813917
 30
0.0
 10
105.3146741815706
 20
-153.9564941021359
 30
0.0
 10
106.3354559738502
 20
-153.5609971404292
 30
0.0
 10
106.5378553336086
 20
-154.0632920621786
 30
0.0
 10
106.9171603465346
 20
-154.5800563849661
 30
0.0
 10
107.3767360842669
 20
-154.972452760736
 30
0.0
 10
107.1657239857954
 20
-155.3117946660332
 30
0.0
 10
107.2988769263003
 20
-155.8213242883016
 30
0.0
 10
107.7708550077795
 20
-155.8719671919348
 30
0.0
 10
107.7708550077795
 20
-155.8719671919348
 30
0.0
 10
107.7708550077795
 20
-156.3997558202751
 30
0.0
 10
107.7708550077795
 20
-156.3997558202751
 30
0.0
 10
106.6064127337651
 20
-156.2874457074559
 30
0.0
 10
106.2818847390545
 20
-154.6186414544009
 30
0.0
 10
105.274194309619
 20
-154.6944335550764
 30
0.0
 10
104.4947414560812
 20
-154.730262548123
 30
0.0
 10
104.0069159353698
 20
-155.9322563629267
 30
0.0
 10
102.8424736613554
 20
-156.6870767837449
 30
0.0
 10
103.9299180512745
 20
-157.2872124172754
 30
0.0
 10
104.2599581987614
 20
-158.7892740488444
 30
0.0
 10
105.2318196351504
 20
-158.7892740488444
 30
0.0
 10
106.2443331982653
 20
-158.7531005462492
 30
0.0
 10
106.4367417811165
 20
-157.5862467053951
 30
0.0
 10
107.6030788576478
 20
-157.1728352471651
 30
0.0
 10
107.6444200034708
 20
-157.8894151080971
 30
0.0
 10
105.7804510911764
 20
-158.7138264577174
 30
0.0
 10
105.7804510911764
 20
-159.7290960972205
 30
0.0
 10
105.7804510911764
 20
-160.5187119824398
 30
0.0
 10
107.1373019480421
 20
-161.1594997426963
 30
0.0
 10
107.9158935277085
 20
-161.7964978979189
 30
0.0
 10
108.6114583061805
 20
-161.0840521515693
 30
0.0
 10
110.1300563960786
 20
-160.7088812532256
 30
0.0
 10
110.1300563960786
 20
-159.7711262621406
 30
0.0
 10
110.1300563960786
 20
-158.7138264577174
 30
0.0
 10
108.6114583061805
 20
-158.3386555593737
 30
0.0
 10
108.2660874837842
 20
-157.2472493096465
 30
0.0
 10
109.4296684839273
 20
-157.6613497869735
 30
0.0
 10
109.8165527069209
 20
-158.9036512189546
 30
0.0
 10
110.9451659878887
 20
-158.8657551686169
 30
0.0
 10
111.9163384051806
 20
-158.8292371564733
 30
0.0
 10
112.2239854320134
 20
-157.5107991142681
 30
0.0
 10
113.1596733658073
 20
-156.8383164755474
 30
0.0
 10
112.1454372549498
 20
-156.1613552126958
 30
0.0
 10
111.8381347376655
 20
-154.8425726609422
 30
0.0
 10
110.7518961311662
 20
-154.7667805602667
 30
0.0
 10
109.7386935489542
 20
-154.6944335550764
 30
0.0
 10
109.2856634926439
 20
-156.0586913672353
 30
0.0
 10
108.2355983887397
 20
-156.4741698827565
 30
0.0
 10
108.2355983887397
 20
-156.4741698827565
 30
0.0
 10
108.2355983887397
 20
-155.8719671919348
 30
0.0
 10
108.2355983887397
 20
-155.8719671919348
 30
0.0
 10
108.6307508408979
 20
-155.7372639584615
 30
0.0
 10
108.7730332844387
 20
-155.3245415193286
 30
0.0
 10
108.6286837836067
 20
-155.019650568884
 30
0.0
 10
109.1182318520607
 20
-154.6213975307891
 30
0.0
 10
109.5244086097717
 20
-154.0805175396049
 30
0.0
 10
109.7373155107601
 20
-153.5551404781043
 30
0.0
 10
110.8562825243693
 20
-153.9888779996972
 30
0.0
 10
111.9928195249532
 20
-154.0622585335331
 30
0.0
 10
112.9605468467599
 20
-153.8448730084138
 30
0.0
 10
112.9605468467599
 20
-153.8448730084138
 30
0.0
 10
119.863484670555
 20
-170.7840629998387
 30
0.0
 10
119.863484670555
 20
-170.7840629998387
 30
0.0
 10
119.863484670555
 20
-170.7840629998387
 30
0.0
 10
122.2447346699597
 20
-170.7840629998387
 30
0.0
 10
122.2447346699597
 20
-170.7840629998387
 30
0.0
 10
122.2447346699597
 20
-170.7840629998387
 30
0.0
 10
127.5539713222782
 20
-158.5836018483749
 30
0.0
 10
127.5539713222782
 20
-158.5836018483749
 30
0.0
 10
127.586010710291
 20
-158.7262288014643
 30
0.0
 10
127.6180500983038
 20
-158.8674777163595
 30
0.0
 10
127.6504339958652
 20
-159.0166503508708
 30
0.0
 10
128.3897514869998
 20
-162.3053385010903
 30
0.0
 10
128.4903482751691
 20
-164.0947210961291
 30
0.0
 10
127.3607014655557
 20
-165.9736761737844
 30
0.0
 10
127.986330805677
 20
-166.5831135651251
 30
0.0
 10
129.6603027019599
 20
-163.9638074676896
 30
0.0
 10
129.9617485569193
 20
-162.5520073378342
 30
0.0
 10
130.4902262043566
 20
-162.8827365044182
 30
0.0
 10
130.7889159829278
 20
-162.8820474853212
 30
0.0
 10
130.8316351669449
 20
-162.3470241564619
 30
0.0
 10
130.8771104273502
 20
-161.7796169300412
 30
0.0
 10
130.585655349298
 20
-160.9734645864928
 30
0.0
 10
130.2125515082455
 20
-160.2975368522867
 30
0.0
 10
130.1522623372536
 20
-160.1886718349528
 30
0.0
 10
130.0978298285867
 20
-160.1245930589272
 30
0.0
 10
130.2914441948577
 20
-160.1821261535309
 30
0.0
 10
131.8114203229499
 20
-160.6303330761619
 30
0.0
 10
134.0059461470541
 20
-160.2885796040251
 30
0.0
 10
135.7532985771728
 20
-159.1379177119516
 30
0.0
 10
138.9327772005099
 20
-157.0460557333079
 30
0.0
 10
138.6475232943312
 20
-153.6436794320752
 30
0.0
 10
137.5826442798405
 20
-152.1292154567594
 30
0.0
 10
137.2033392669144
 20
-151.5893689942207
 30
0.0
 10
136.7224039371736
 20
-151.1370279570074
 30
0.0
 10
136.197026875673
 20
-150.8059542808749
 30
0.0
 10
136.197026875673
 20
-150.8059542808749
 30
0.0
 10
142.3234401770927
 20
-150.8059542808749
 30
0.0
 10
142.3234401770927
 20
-150.8059542808749
 30
0.0
 10
142.3234401770927
 20
-150.8059542808749
 30
0.0
 10
142.3234401770927
 20
-149.194338612875
 30
0.0
 10
142.3234401770927
 20
-149.194338612875
 30
0.0
 10
142.3234401770927
 20
-149.194338612875
 30
0.0
 10
73.41464028112551
 20
-149.194338612875
 30
0.0
 10
73.41464028112551
 20
-149.194338612875
 30
0.0
 10
73.41464028112551
 20
-149.194338612875
 30
0.0
 10
73.41464028112551
 20
-150.8059542808749
 30
0.0
 10
73.41464028112551
 20
-150.8059542808749
 30
0.0
  0
SPLINE
  5
52
330
3C
100
AcDbEntity
  8
Layer 1
370
     0
100
AcDbSpline
210
0.0
220
0.0
230
1.0
 70
    11
 71
     3
 72
    56
 73
    52
 74
     0
 42
0.0000000001
 43
0.0000000001
 40
0.0
 40
0.0
 40
0.0
 40
0.0
 40
1.0
 40
1.0
 40
1.0
 40
2.0
 40
2.0
 40
2.0
 40
3.0
 40
3.0
 40
3.0
 40
4.0
 40
4.0
 40
4.0
 40
5.0
 40
5.0
 40
5.0
 40
6.0
 40
6.0
 40
6.0
 40
7.0
 40
7.0
 40
7.0
 40
8.0
 40
8.0
 40
8.0
 40
9.0
 40
9.0
 40
9.0
 40
10.0
 40
10.0
 40
10.0
 40
11.0
 40
11.0
 40
11.0
 40
12.0
 40
12.0
 40
12.0
 40
13.0
 40
13.0
 40
13.0
 40
14.0
 40
14.0
 40
14.0
 40
15.0
 40
15.0
 40
15.0
 40
16.0
 40
16.0
 40
16.0
 40
17.0
 40
17.0
 40
17.0
 40
17.0
 10
87.59689261047926
 20
-156.8848252645982
 30
0.0
 10
86.56922062722923
 20
-158.453032729484
 30
0.0
 10
85.04855548003995
 20
-158.1677788233053
 30
0.0
 10
84.16506074284763
 20
-156.7511555597706
 30
0.0
 10
83.77231985752914
 20
-156.1213921050669
 30
0.0
 10
83.72787812576942
 20
-155.1106010896946
 30
0.0
 10
84.57037622668727
 20
-154.6420681037006
 30
0.0
 10
84.70128985512676
 20
-154.5690320794133
 30
0.0
 10
84.80808781516951
 20
-154.4835937113791
 30
0.0
 10
84.5280015522187
 20
-154.3326985291252
 30
0.0
 10
83.61987438230685
 20
-153.8465955561564
 30
0.0
 10
82.25165471033986
 20
-154.5166666280375
 30
0.0
 10
81.67856307636856
 20
-155.7183159332926
 30
0.0
 10
81.67856307636856
 20
-155.7183159332926
 30
0.0
 10
81.30907658557551
 20
-155.4868055166839
 30
0.0
 10
80.95836586517707
 20
-155.4544216191225
 30
0.0
 10
80.51394854757984
 20
-155.413424982848
 30
0.0
 10
80.43161076548238
 20
-155.6135850305411
 30
0.0
 10
80.44211830671239
 20
-156.0221733550917
 30
0.0
 10
80.46520044646357
 20
-156.9840440145734
 30
0.0
 10
81.12734779872858
 20
-158.1980956635755
 30
0.0
 10
82.46146102539159
 20
-158.7878960106503
 30
0.0
 10
82.75567217983192
 20
-158.867822225908
 30
0.0
 10
82.98959416328039
 20
-158.8540418439671
 30
0.0
 10
83.1373887595976
 20
-159.087619317867
 30
0.0
 10
82.85781926096958
 20
-158.9897786060859
 30
0.0
 10
82.56946476885416
 20
-158.9250108109632
 30
0.0
 10
82.28524439132106
 20
-158.838883423832
 30
0.0
 10
79.65835908381806
 20
-158.0430663667393
 30
0.0
 10
78.1904038975531
 20
-155.8953938412345
 30
0.0
 10
79.0840616664269
 20
-153.6826090110585
 30
0.0
 10
79.41272377571974
 20
-152.8678439287969
 30
0.0
 10
80.10467120393217
 20
-152.1839924749748
 30
0.0
 10
80.85242917900564
 20
-151.7826388509432
 30
0.0
 10
80.88636336953536
 20
-152.1271483994682
 30
0.0
 10
81.05534530308687
 20
-152.4568440374066
 30
0.0
 10
81.35127900526982
 20
-152.6824977916905
 30
0.0
 10
81.9176527030449
 20
-153.1152017846379
 30
0.0
 10
82.72621661343304
 20
-153.007025786401
 30
0.0
 10
83.1580593325091
 20
-152.441341107723
 30
0.0
 10
83.48896075386735
 20
-152.0079480956786
 30
0.0
 10
83.48603242270488
 20
-151.3096272408184
 30
0.0
 10
83.12119681081693
 20
-150.8059542808749
 30
0.0
 10
83.12119681081693
 20
-150.8059542808749
 30
0.0
 10
85.27696531071201
 20
-150.8059542808749
 30
0.0
 10
85.27696531071201
 20
-150.8059542808749
 30
0.0
 10
85.27696531071201
 20
-150.8059542808749
 30
0.0
 10
87.70162351323084
 20
-156.701546184783
 30
0.0
 10
87.70162351323084
 20
-156.701546184783
 30
0.0
 10
87.6659667749585
 20
-156.7621798653234
 30
0.0
 10
87.63513317036552
 20
-156.8266031508975
 30
0.0
 10
87.59689261047926
 20
-156.8848252645982
 30
0.0
  0
SPLINE
  5
53
330
3C
100
AcDbEntity
  8
Layer 1
370
     0
100
AcDbSpline
210
0.0
220
0.0
230
1.0
 70
    11
 71
     3
 72
    20
 73
    16
 74
     0
 42
0.0000000001
 43
0.0000000001
 40
0.0
 40
0.0
 40
0.0
 40
0.0
 40
1.0
 40
1.0
 40
1.0
 40
2.0
 40
2.0
 40
2.0
 40
3.0
 40
3.0
 40
3.0
 40
4.0
 40
4.0
 40
4.0
 40
5.0
 40
5.0
 40
5.0
 40
5.0
 10
97.46209578726642
 20
-158.7014241139705
 30
0.0
 10
97.46209578726642
 20
-158.7014241139705
 30
0.0
 10
97.19751245399924
 20
-158.7014241139705
 30
0.0
 10
97.19751245399924
 20
-158.7014241139705
 30
0.0
 10
97.19751245399924
 20
-158.7014241139705
 30
0.0
 10
93.881435794672
 20
-150.8059542808749
 30
0.0
 10
93.881435794672
 20
-150.8059542808749
 30
0.0
 10
93.881435794672
 20
-150.8059542808749
 30
0.0
 10
99.2556124968875
 20
-150.8059542808749
 30
0.0
 10
99.2556124968875
 20
-150.8059542808749
 30
0.0
 10
99.47730439136332
 20
-151.3547579916752
 30
0.0
 10
99.8218139398883
 20
-151.7977972710783
 30
0.0
 10
100.2503838182534
 20
-152.130938004502
 30
0.0
 10
100.2503838182534
 20
-152.130938004502
 30
0.0
 10
97.46209578726642
 20
-158.7014241139705
 30
0.0
 10
97.46209578726642
 20
-158.7014241139705
 30
0.0
  0
SPLINE
  5
54
330
3C
100
AcDbEntity
  8
Layer 1
370
     0
100
AcDbSpline
210
0.0
220
0.0
230
1.0
 70
    11
 71
     3
 72
    17
 73
    13
 74
     0
 42
0.0000000001
 43
0.0000000001
 40
0.0
 40
0.0
 40
0.0
 40
0.0
 40
1.0
 40
1.0
 40
1.0
 40
2.0
 40
2.0
 40
2.0
 40
3.0
 40
3.0
 40
3.0
 40
4.0
 40
4.0
 40
4.0
 40
4.0
 10
103.6255438651527
 20
-153.3026149790355
 30
0.0
 10
103.6255438651527
 20
-153.3026149790355
 30
0.0
 10
103.8470635048542
 20
-152.7789604652775
 30
0.0
 10
103.8470635048542
 20
-152.7789604652775
 30
0.0
 10
104.9129760479905
 20
-152.5054198837487
 30
0.0
 10
105.8577934848203
 20
-151.8387939073528
 30
0.0
 10
106.3256374517172
 20
-150.8059542808749
 30
0.0
 10
106.3256374517172
 20
-150.8059542808749
 30
0.0
 10
107.0902763946684
 20
-150.8059542808749
 30
0.0
 10
107.0902763946684
 20
-150.8059542808749
 30
0.0
 10
106.3247761778459
 20
-152.2938910209543
 30
0.0
 10
105.1136528600063
 20
-153.0587022186798
 30
0.0
 10
103.6255438651527
 20
-153.3026149790355
 30
0.0
  0
SPLINE
  5
55
330
3C
100
AcDbEntity
  8
Layer 1
370
     0
100
AcDbSpline
210
0.0
220
0.0
230
1.0
 70
    11
 71
     3
 72
    17
 73
    13
 74
     0
 42
0.0000000001
 43
0.0000000001
 40
0.0
 40
0.0
 40
0.0
 40
0.0
 40
1.0
 40
1.0
 40
1.0
 40
2.0
 40
2.0
 40
2.0
 40
3.0
 40
3.0
 40
3.0
 40
4.0
 40
4.0
 40
4.0
 40
4.0
 10
108.8629502766037
 20
-150.8059542808749
 30
0.0
 10
108.8629502766037
 20
-150.8059542808749
 30
0.0
 10
109.7500623640556
 20
-150.8059542808749
 30
0.0
 10
109.7500623640556
 20
-150.8059542808749
 30
0.0
 10
110.2664821772945
 20
-151.9390461859736
 30
0.0
 10
111.3589219556672
 20
-152.6294433212177
 30
0.0
 10
112.5523030317578
 20
-152.8433837508517
 30
0.0
 10
112.5523030317578
 20
-152.8433837508517
 30
0.0
 10
112.7538411176449
 20
-153.337754952985
 30
0.0
 10
112.7538411176449
 20
-153.337754952985
 30
0.0
 10
111.1336127109319
 20
-153.1482747012963
 30
0.0
 10
109.6405083276246
 20
-152.3924207518324
 30
0.0
 10
108.8629502766037
 20
-150.8059542808749
 30
0.0
  0
POLYLINE
  5
56
330
3C
100
AcDbEntity
  8
Layer 1
370
     0
100
AcDb2dPolyline
 66
     1
 10
0.0
 20
0.0
 30
0.0
  0
VERTEX
  5
57
330
56
100
AcDbEntity
  8
Layer 1
370
     0
100
AcDbVertex
100
AcDb2dVertex
 10
123.7440402251404
 20
-158.8778130028153
 30
0.0
  0
VERTEX
  5
58
330
56
100
AcDbEntity
  8
Layer 1
370
     0
100
AcDbVertex
100
AcDb2dVertex
 10
120.2886094534348
 20
-150.8059542808749
 30
0.0
  0
VERTEX
  5
59
330
56
100
AcDbEntity
  8
Layer 1
370
     0
100
AcDbVertex
100
AcDb2dVertex
 10
127.3296956061884
 20
-150.8059542808749
 30
0.0
  0
VERTEX
  5
5A
330
56
100
AcDbEntity
  8
Layer 1
370
     0
100
AcDbVertex
100
AcDb2dVertex
 10
123.9204291139852
 20
-158.8778130028153
 30
0.0
  0
VERTEX
  5
5B
330
56
100
AcDbEntity
  8
Layer 1
370
     0
100
AcDbVertex
100
AcDb2dVertex
 10
123.7440402251404
 20
-158.8778130028153
 30
0.0
  0
SEQEND
  5
5C
330
56
100
AcDbEntity
  8
Layer 1
370
     0
  0
SPLINE
  5
5D
330
3C
100
AcDbEntity
  8
Layer 1
370
     0
100
AcDbSpline
210
0.0
220
0.0
230
1.0
 70
    11
 71
     3
 72
    56
 73
    52
 74
     0
 42
0.0000000001
 43
0.0000000001
 40
0.0
 40
0.0
 40
0.0
 40
0.0
 40
1.0
 40
1.0
 40
1.0
 40
2.0
 40
2.0
 40
2.0
 40
3.0
 40
3.0
 40
3.0
 40
4.0
 40
4.0
 40
4.0
 40
5.0
 40
5.0
 40
5.0
 40
6.0
 40
6.0
 40
6.0
 40
7.0
 40
7.0
 40
7.0
 40
8.0
 40
8.0
 40
8.0
 40
9.0
 40
9.0
 40
9.0
 40
10.0
 40
10.0
 40
10.0
 40
11.0
 40
11.0
 40
11.0
 40
12.0
 40
12.0
 40
12.0
 40
13.0
 40
13.0
 40
13.0
 40
14.0
 40
14.0
 40
14.0
 40
15.0
 40
15.0
 40
15.0
 40
16.0
 40
16.0
 40
16.0
 40
17.0
 40
17.0
 40
17.0
 40
17.0
 10
132.9458902662427
 20
-152.441341107723
 30
0.0
 10
133.3775607305445
 20
-153.007025786401
 30
0.0
 10
134.1864691504812
 20
-153.1152017846379
 30
0.0
 10
134.7528428482563
 20
-152.6824977916905
 30
0.0
 10
135.0484320408907
 20
-152.4568440374066
 30
0.0
 10
135.2175862292164
 20
-152.1271483994682
 30
0.0
 10
135.2516926745204
 20
-151.7826388509432
 30
0.0
 10
135.9992783948196
 20
-152.1839924749748
 30
0.0
 10
136.6910535682578
 20
-152.8678439287969
 30
0.0
 10
137.0197156775506
 20
-153.6826090110585
 30
0.0
 10
137.9133734464244
 20
-155.8953938412345
 30
0.0
 10
136.445762769708
 20
-158.0430663667393
 30
0.0
 10
133.8185329526565
 20
-158.838883423832
 30
0.0
 10
133.5346570846719
 20
-158.9250108109632
 30
0.0
 10
133.245958083008
 20
-158.9897786060859
 30
0.0
 10
132.9665608391542
 20
-159.087619317867
 30
0.0
 10
133.1143554354714
 20
-158.8540418439671
 30
0.0
 10
133.3482774189199
 20
-158.867822225908
 30
0.0
 10
133.6424885733602
 20
-158.7878960106503
 30
0.0
 10
134.9767740547975
 20
-158.1980956635755
 30
0.0
 10
135.6389214070625
 20
-156.9840440145734
 30
0.0
 10
135.6616590372651
 20
-156.0221733550917
 30
0.0
 10
135.6723388332694
 20
-155.6135850305411
 30
0.0
 10
135.590001051172
 20
-155.413424982848
 30
0.0
 10
135.1455837335747
 20
-155.4544216191225
 30
0.0
 10
134.7948730131763
 20
-155.4868055166839
 30
0.0
 10
134.4255587771575
 20
-155.7183159332926
 30
0.0
 10
134.4255587771575
 20
-155.7183159332926
 30
0.0
 10
133.8522948884119
 20
-154.5166666280375
 30
0.0
 10
132.4839029616707
 20
-153.8465955561564
 30
0.0
 10
131.5757757917588
 20
-154.3326985291252
 30
0.0
 10
131.2960340383566
 20
-154.4835937113791
 30
0.0
 10
131.4028319983993
 20
-154.5690320794133
 30
0.0
 10
131.5337456268388
 20
-154.6420681037006
 30
0.0
 10
132.3760714729824
 20
-155.1106010896946
 30
0.0
 10
132.3316297412227
 20
-156.1213921050669
 30
0.0
 10
131.9388888559042
 20
-156.7511555597706
 30
0.0
 10
131.0555663734861
 20
-158.1677788233053
 30
0.0
 10
129.5349012262968
 20
-158.453032729484
 30
0.0
 10
128.5068847334983
 20
-156.8848252645982
 30
0.0
 10
128.46209849219
 20
-156.8166123739903
 30
0.0
 10
128.4283365564346
 20
-156.7397867446692
 30
0.0
 10
128.3869954106116
 20
-156.6684732681246
 30
0.0
 10
128.3869954106116
 20
-156.6684732681246
 30
0.0
 10
130.9384331269876
 20
-150.8059542808749
 30
0.0
 10
130.9384331269876
 20
-150.8059542808749
 30
0.0
 10
130.9384331269876
 20
-150.8059542808749
 30
0.0
 10
132.9827527879349
 20
-150.8059542808749
 30
0.0
 10
132.9827527879349
 20
-150.8059542808749
 30
0.0
 10
132.6179171760469
 20
-151.3096272408184
 30
0.0
 10
132.6148165901102
 20
-152.0079480956786
 30
0.0
 10
132.9458902662427
 20
-152.441341107723
 30
0.0
  0
HATCH
  5
5E
330
3C
100
AcDbEntity
  8
Layer 1
 62
   250
420
  2301728
100
AcDbHatch
 10
0.0
 20
0.0
 30
0.0
210
0.0
220
0.0
230
1.0
  2
SOLID
 70
     1
 71
     0
 91
        7
 92
        1
 93
        1
 72
     4
 94
        3
 73
     0
 74
     1
 95
      152
 96
      148
 40
0.0
 40
0.0
 40
0.0
 40
0.0
 40
1.0
 40
1.0
 40
1.0
 40
2.0
 40
2.0
 40
2.0
 40
3.0
 40
3.0
 40
3.0
 40
4.0
 40
4.0
 40
4.0
 40
5.0
 40
5.0
 40
5.0
 40
6.0
 40
6.0
 40
6.0
 40
7.0
 40
7.0
 40
7.0
 40
8.0
 40
8.0
 40
8.0
 40
9.0
 40
9.0
 40
9.0
 40
10.0
 40
10.0
 40
10.0
 40
11.0
 40
11.0
 40
11.0
 40
12.0
 40
12.0
 40
12.0
 40
13.0
 40
13.0
 40
13.0
 40
14.0
 40
14.0
 40
14.0
 40
15.0
 40
15.0
 40
15.0
 40
16.0
 40
16.0
 40
16.0
 40
17.0
 40
17.0
 40
17.0
 40
18.0
 40
18.0
 40
18.0
 40
19.0
 40
19.0
 40
19.0
 40
20.0
 40
20.0
 40
20.0
 40
21.0
 40
21.0
 40
21.0
 40
22.0
 40
22.0
 40
22.0
 40
23.0
 40
23.0
 40
23.0
 40
24.0
 40
24.0
 40
24.0
 40
25.0
 40
25.0
 40
25.0
 40
26.0
 40
26.0
 40
26.0
 40
27.0
 40
27.0
 40
27.0
 40
28.0
 40
28.0
 40
28.0
 40
29.0
 40
29.0
 40
29.0
 40
30.0
 40
30.0
 40
30.0
 40
31.0
 40
31.0
 40
31.0
 40
32.0
 40
32.0
 40
32.0
 40
33.0
 40
33.0
 40
33.0
 40
34.0
 40
34.0
 40
34.0
 40
35.0
 40
35.0
 40
35.0
 40
36.0
 40
36.0
 40
36.0
 40
37.0
 40
37.0
 40
37.0
 40
38.0
 40
38.0
 40
38.0
 40
39.0
 40
39.0
 40
39.0
 40
40.0
 40
40.0
 40
40.0
 40
41.0
 40
41.0
 40
41.0
 40
42.0
 40
42.0
 40
42.0
 40
43.0
 40
43.0
 40
43.0
 40
44.0
 40
44.0
 40
44.0
 40
45.0
 40
45.0
 40
45.0
 40
46.0
 40
46.0
 40
46.0
 40
47.0
 40
47.0
 40
47.0
 40
48.0
 40
48.0
 40
48.0
 40
49.0
 40
49.0
 40
49.0
 40
49.0
 10
73.41464028112551
 20
-150.8059542808749
 10
73.41464028112551
 20
-150.8059542808749
 10
79.90692272307882
 20
-150.8059542808749
 10
79.90692272307882
 20
-150.8059542808749
 10
79.38154566157823
 20
-151.1370279570074
 10
78.90061033183736
 20
-151.5893689942207
 10
78.52113306413708
 20
-152.1292154567594
 10
77.45642630442062
 20
-153.6436794320752
 10
77.17117239824194
 20
-157.0460557333079
 10
80.35065102157901
 20
-159.1379177119516
 10
82.09783119692347
 20
-160.2885796040251
 10
84.29235702102761
 20
-160.6303330761619
 10
85.81267765866836
 20
-160.1821261535309
 10
86.00594751539087
 20
-160.1245930589272
 10
85.9516872614982
 20
-160.1886718349528
 10
85.89139809050631
 20
-160.2975368522867
 10
85.51846650422803
 20
-160.9734645864928
 10
85.22666691662737
 20
-161.7796169300412
 10
85.27214217703266
 20
-162.3470241564619
 10
85.31503361582402
 20
-162.8820474853212
 10
85.61372339439518
 20
-162.8827365044182
 10
86.14220104183251
 20
-162.5520073378342
 10
86.44381915156613
 20
-163.9638074676896
 10
88.11761879307477
 20
-166.5831135651251
 10
88.74324813319613
 20
-165.9736761737844
 10
87.61342906880846
 20
-164.0947210961291
 10
87.71402585697774
 20
-162.3053385010903
 10
88.45334334811237
 20
-159.0166503508708
 10
88.47694225218632
 20
-158.908474352634
 10
88.50036890148603
 20
-158.8051214880765
 10
88.52379555078572
 20
-158.7003905853249
 10
88.52379555078572
 20
-158.7003905853249
 10
93.49334578825861
 20
-170.7840629998387
 10
93.49334578825861
 20
-170.7840629998387
 10
93.49334578825861
 20
-170.7840629998387
 10
96.22737356535288
 20
-170.7840629998387
 10
96.22737356535288
 20
-170.7840629998387
 10
96.22737356535288
 20
-170.7840629998387
 10
103.3709513087927
 20
-153.9041286507601
 10
103.3709513087927
 20
-153.9041286507601
 10
104.2792507334788
 20
-154.054334813917
 10
105.3146741815706
 20
-153.9564941021359
 10
106.3354559738502
 20
-153.5609971404292
 10
106.5378553336086
 20
-154.0632920621786
 10
106.9171603465346
 20
-154.5800563849661
 10
107.3767360842669
 20
-154.972452760736
 10
107.1657239857954
 20
-155.3117946660332
 10
107.2988769263003
 20
-155.8213242883016
 10
107.7708550077795
 20
-155.8719671919348
 10
107.7708550077795
 20
-155.8719671919348
 10
107.7708550077795
 20
-156.3997558202751
 10
107.7708550077795
 20
-156.3997558202751
 10
106.6064127337651
 20
-156.2874457074559
 10
106.2818847390545
 20
-154.6186414544009
 10
105.274194309619
 20
-154.6944335550764
 10
104.4947414560812
 20
-154.730262548123
 10
104.0069159353698
 20
-155.9322563629267
 10
102.8424736613554
 20
-156.6870767837449
 10
103.9299180512745
 20
-157.2872124172754
 10
104.2599581987614
 20
-158.7892740488444
 10
105.2318196351504
 20
-158.7892740488444
 10
106.2443331982653
 20
-158.7531005462492
 10
106.4367417811165
 20
-157.5862467053951
 10
107.6030788576478
 20
-157.1728352471651
 10
107.6444200034708
 20
-157.8894151080971
 10
105.7804510911764
 20
-158.7138264577174
 10
105.7804510911764
 20
-159.7290960972205
 10
105.7804510911764
 20
-160.5187119824398
 10
107.1373019480421
 20
-161.1594997426963
 10
107.9158935277085
 20
-161.7964978979189
 10
108.6114583061805
 20
-161.0840521515693
 10
110.1300563960786
 20
-160.7088812532256
 10
110.1300563960786
 20
-159.7711262621406
 10
110.1300563960786
 20
-158.7138264577174
 10
108.6114583061805
 20
-158.3386555593737
 10
108.2660874837842
 20
-157.2472493096465
 10
109.4296684839273
 20
-157.6613497869735
 10
109.8165527069209
 20
-158.9036512189546
 10
110.9451659878887
 20
-158.8657551686169
 10
111.9163384051806
 20
-158.8292371564733
 10
112.2239854320134
 20
-157.5107991142681
 10
113.1596733658073
 20
-156.8383164755474
 10
112.1454372549498
 20
-156.1613552126958
 10
111.8381347376655
 20
-154.8425726609422
 10
110.7518961311662
 20
-154.7667805602667
 10
109.7386935489542
 20
-154.6944335550764
 10
109.2856634926439
 20
-156.0586913672353
 10
108.2355983887397
 20
-156.4741698827565
 10
108.2355983887397
 20
-156.4741698827565
 10
108.2355983887397
 20
-155.8719671919348
 10
108.2355983887397
 20
-155.8719671919348
 10
108.6307508408979
 20
-155.7372639584615
 10
108.7730332844387
 20
-155.3245415193286
 10
108.6286837836067
 20
-155.019650568884
 10
109.1182318520607
 20
-154.6213975307891
 10
109.5244086097717
 20
-154.0805175396049
 10
109.7373155107601
 20
-153.5551404781043
 10
110.8562825243693
 20
-153.9888779996972
 10
111.9928195249532
 20
-154.0622585335331
 10
112.9605468467599
 20
-153.8448730084138
 10
112.9605468467599
 20
-153.8448730084138
 10
119.863484670555
 20
-170.7840629998387
 10
119.863484670555
 20
-170.7840629998387
 10
119.863484670555
 20
-170.7840629998387
 10
122.2447346699597
 20
-170.7840629998387
 10
122.2447346699597
 20
-170.7840629998387
 10
122.2447346699597
 20
-170.7840629998387
 10
127.5539713222782
 20
-158.5836018483749
 10
127.5539713222782
 20
-158.5836018483749
 10
127.586010710291
 20
-158.7262288014643
 10
127.6180500983038
 20
-158.8674777163595
 10
127.6504339958652
 20
-159.0166503508708
 10
128.3897514869998
 20
-162.3053385010903
 10
128.4903482751691
 20
-164.0947210961291
 10
127.3607014655557
 20
-165.9736761737844
 10
127.986330805677
 20
-166.5831135651251
 10
129.6603027019599
 20
-163.9638074676896
 10
129.9617485569193
 20
-162.5520073378342
 10
130.4902262043566
 20
-162.8827365044182
 10
130.7889159829278
 20
-162.8820474853212
 10
130.8316351669449
 20
-162.3470241564619
 10
130.8771104273502
 20
-161.7796169300412
 10
130.585655349298
 20
-160.9734645864928
 10
130.2125515082455
 20
-160.2975368522867
 10
130.1522623372536
 20
-160.1886718349528
 10
130.0978298285867
 20
-160.1245930589272
 10
130.2914441948577
 20
-160.1821261535309
 10
131.8114203229499
 20
-160.6303330761619
 10
134.0059461470541
 20
-160.2885796040251
 10
135.7532985771728
 20
-159.1379177119516
 10
138.9327772005099
 20
-157.0460557333079
 10
138.6475232943312
 20
-153.6436794320752
 10
137.5826442798405
 20
-152.1292154567594
 10
137.2033392669144
 20
-151.5893689942207
 10
136.7224039371736
 20
-151.1370279570074
 10
136.197026875673
 20
-150.8059542808749
 10
136.197026875673
 20
-150.8059542808749
 10
142.3234401770927
 20
-150.8059542808749
 10
142.3234401770927
 20
-150.8059542808749
 10
142.3234401770927
 20
-150.8059542808749
 10
142.3234401770927
 20
-149.194338612875
 10
142.3234401770927
 20
-149.194338612875
 10
142.3234401770927
 20
-149.194338612875
 10
73.41464028112551
 20
-149.194338612875
 10
73.41464028112551
 20
-149.194338612875
 10
73.41464028112551
 20
-149.194338612875
 10
73.41464028112551
 20
-150.8059542808749
 10
73.41464028112551
 20
-150.8059542808749
 97
        0
 92
        1
 93
        1
 72
     4
 94
        3
 73
     0
 74
     1
 95
       56
 96
       52
 40
0.0
 40
0.0
 40
0.0
 40
0.0
 40
1.0
 40
1.0
 40
1.0
 40
2.0
 40
2.0
 40
2.0
 40
3.0
 40
3.0
 40
3.0
 40
4.0
 40
4.0
 40
4.0
 40
5.0
 40
5.0
 40
5.0
 40
6.0
 40
6.0
 40
6.0
 40
7.0
 40
7.0
 40
7.0
 40
8.0
 40
8.0
 40
8.0
 40
9.0
 40
9.0
 40
9.0
 40
10.0
 40
10.0
 40
10.0
 40
11.0
 40
11.0
 40
11.0
 40
12.0
 40
12.0
 40
12.0
 40
13.0
 40
13.0
 40
13.0
 40
14.0
 40
14.0
 40
14.0
 40
15.0
 40
15.0
 40
15.0
 40
16.0
 40
16.0
 40
16.0
 40
17.0
 40
17.0
 40
17.0
 40
17.0
 10
87.59689261047926
 20
-156.8848252645982
 10
86.56922062722923
 20
-158.453032729484
 10
85.04855548003995
 20
-158.1677788233053
 10
84.16506074284763
 20
-156.7511555597706
 10
83.77231985752914
 20
-156.1213921050669
 10
83.72787812576942
 20
-155.1106010896946
 10
84.57037622668727
 20
-154.6420681037006
 10
84.70128985512676
 20
-154.5690320794133
 10
84.80808781516951
 20
-154.4835937113791
 10
84.5280015522187
 20
-154.3326985291252
 10
83.61987438230685
 20
-153.8465955561564
 10
82.25165471033986
 20
-154.5166666280375
 10
81.67856307636856
 20
-155.7183159332926
 10
81.67856307636856
 20
-155.7183159332926
 10
81.30907658557551
 20
-155.4868055166839
 10
80.95836586517707
 20
-155.4544216191225
 10
80.51394854757984
 20
-155.413424982848
 10
80.43161076548238
 20
-155.6135850305411
 10
80.44211830671239
 20
-156.0221733550917
 10
80.46520044646357
 20
-156.9840440145734
 10
81.12734779872858
 20
-158.1980956635755
 10
82.46146102539159
 20
-158.7878960106503
 10
82.75567217983192
 20
-158.867822225908
 10
82.98959416328039
 20
-158.8540418439671
 10
83.1373887595976
 20
-159.087619317867
 10
82.85781926096958
 20
-158.9897786060859
 10
82.56946476885416
 20
-158.9250108109632
 10
82.28524439132106
 20
-158.838883423832
 10
79.65835908381806
 20
-158.0430663667393
 10
78.1904038975531
 20
-155.8953938412345
 10
79.0840616664269
 20
-153.6826090110585
 10
79.41272377571974
 20
-152.8678439287969
 10
80.10467120393217
 20
-152.1839924749748
 10
80.85242917900564
 20
-151.7826388509432
 10
80.88636336953536
 20
-152.1271483994682
 10
81.05534530308687
 20
-152.4568440374066
 10
81.35127900526982
 20
-152.6824977916905
 10
81.9176527030449
 20
-153.1152017846379
 10
82.72621661343304
 20
-153.007025786401
 10
83.1580593325091
 20
-152.441341107723
 10
83.48896075386735
 20
-152.0079480956786
 10
83.48603242270488
 20
-151.3096272408184
 10
83.12119681081693
 20
-150.8059542808749
 10
83.12119681081693
 20
-150.8059542808749
 10
85.27696531071201
 20
-150.8059542808749
 10
85.27696531071201
 20
-150.8059542808749
 10
85.27696531071201
 20
-150.8059542808749
 10
87.70162351323084
 20
-156.701546184783
 10
87.70162351323084
 20
-156.701546184783
 10
87.6659667749585
 20
-156.7621798653234
 10
87.63513317036552
 20
-156.8266031508975
 10
87.59689261047926
 20
-156.8848252645982
 97
        0
 92
        1
 93
        1
 72
     4
 94
        3
 73
     0
 74
     1
 95
       20
 96
       16
 40
0.0
 40
0.0
 40
0.0
 40
0.0
 40
1.0
 40
1.0
 40
1.0
 40
2.0
 40
2.0
 40
2.0
 40
3.0
 40
3.0
 40
3.0
 40
4.0
 40
4.0
 40
4.0
 40
5.0
 40
5.0
 40
5.0
 40
5.0
 10
97.46209578726642
 20
-158.7014241139705
 10
97.46209578726642
 20
-158.7014241139705
 10
97.19751245399924
 20
-158.7014241139705
 10
97.19751245399924
 20
-158.7014241139705
 10
97.19751245399924
 20
-158.7014241139705
 10
93.881435794672
 20
-150.8059542808749
 10
93.881435794672
 20
-150.8059542808749
 10
93.881435794672
 20
-150.8059542808749
 10
99.2556124968875
 20
-150.8059542808749
 10
99.2556124968875
 20
-150.8059542808749
 10
99.47730439136332
 20
-151.3547579916752
 10
99.8218139398883
 20
-151.7977972710783
 10
100.2503838182534
 20
-152.130938004502
 10
100.2503838182534
 20
-152.130938004502
 10
97.46209578726642
 20
-158.7014241139705
 10
97.46209578726642
 20
-158.7014241139705
 97
        0
 92
        1
 93
        1
 72
     4
 94
        3
 73
     0
 74
     1
 95
       17
 96
       13
 40
0.0
 40
0.0
 40
0.0
 40
0.0
 40
1.0
 40
1.0
 40
1.0
 40
2.0
 40
2.0
 40
2.0
 40
3.0
 40
3.0
 40
3.0
 40
4.0
 40
4.0
 40
4.0
 40
4.0
 10
103.6255438651527
 20
-153.3026149790355
 10
103.6255438651527
 20
-153.3026149790355
 10
103.8470635048542
 20
-152.7789604652775
 10
103.8470635048542
 20
-152.7789604652775
 10
104.9129760479905
 20
-152.5054198837487
 10
105.8577934848203
 20
-151.8387939073528
 10
106.3256374517172
 20
-150.8059542808749
 10
106.3256374517172
 20
-150.8059542808749
 10
107.0902763946684
 20
-150.8059542808749
 10
107.0902763946684
 20
-150.8059542808749
 10
106.3247761778459
 20
-152.2938910209543
 10
105.1136528600063
 20
-153.0587022186798
 10
103.6255438651527
 20
-153.3026149790355
 97
        0
 92
        1
 93
        1
 72
     4
 94
        3
 73
     0
 74
     1
 95
       17
 96
       13
 40
0.0
 40
0.0
 40
0.0
 40
0.0
 40
1.0
 40
1.0
 40
1.0
 40
2.0
 40
2.0
 40
2.0
 40
3.0
 40
3.0
 40
3.0
 40
4.0
 40
4.0
 40
4.0
 40
4.0
 10
108.8629502766037
 20
-150.8059542808749
 10
108.8629502766037
 20
-150.8059542808749
 10
109.7500623640556
 20
-150.8059542808749
 10
109.7500623640556
 20
-150.8059542808749
 10
110.2664821772945
 20
-151.9390461859736
 10
111.3589219556672
 20
-152.6294433212177
 10
112.5523030317578
 20
-152.8433837508517
 10
112.5523030317578
 20
-152.8433837508517
 10
112.7538411176449
 20
-153.337754952985
 10
112.7538411176449
 20
-153.337754952985
 10
111.1336127109319
 20
-153.1482747012963
 10
109.6405083276246
 20
-152.3924207518324
 10
108.8629502766037
 20
-150.8059542808749
 97
        0
 92
        1
 93
        4
 72
     1
 10
123.7440402251404
 20
-158.8778130028153
 11
120.2886094534348
 21
-150.8059542808749
 72
     1
 10
120.2886094534348
 20
-150.8059542808749
 11
127.3296956061884
 21
-150.8059542808749
 72
     1
 10
127.3296956061884
 20
-150.8059542808749
 11
123.9204291139852
 21
-158.8778130028153
 72
     1
 10
123.9204291139852
 20
-158.8778130028153
 11
123.7440402251404
 21
-158.8778130028153
 97
        0
 92
        1
 93
        1
 72
     4
 94
        3
 73
     0
 74
     1
 95
       56
 96
       52
 40
0.0
 40
0.0
 40
0.0
 40
0.0
 40
1.0
 40
1.0
 40
1.0
 40
2.0
 40
2.0
 40
2.0
 40
3.0
 40
3.0
 40
3.0
 40
4.0
 40
4.0
 40
4.0
 40
5.0
 40
5.0
 40
5.0
 40
6.0
 40
6.0
 40
6.0
 40
7.0
 40
7.0
 40
7.0
 40
8.0
 40
8.0
 40
8.0
 40
9.0
 40
9.0
 40
9.0
 40
10.0
 40
10.0
 40
10.0
 40
11.0
 40
11.0
 40
11.0
 40
12.0
 40
12.0
 40
12.0
 40
13.0
 40
13.0
 40
13.0
 40
14.0
 40
14.0
 40
14.0
 40
15.0
 40
15.0
 40
15.0
 40
16.0
 40
16.0
 40
16.0
 40
17.0
 40
17.0
 40
17.0
 40
17.0
 10
132.9458902662427
 20
-152.441341107723
 10
133.3775607305445
 20
-153.007025786401
 10
134.1864691504812
 20
-153.1152017846379
 10
134.7528428482563
 20
-152.6824977916905
 10
135.0484320408907
 20
-152.4568440374066
 10
135.2175862292164
 20
-152.1271483994682
 10
135.2516926745204
 20
-151.7826388509432
 10
135.9992783948196
 20
-152.1839924749748
 10
136.6910535682578
 20
-152.8678439287969
 10
137.0197156775506
 20
-153.6826090110585
 10
137.9133734464244
 20
-155.8953938412345
 10
136.445762769708
 20
-158.0430663667393
 10
133.8185329526565
 20
-158.838883423832
 10
133.5346570846719
 20
-158.9250108109632
 10
133.245958083008
 20
-158.9897786060859
 10
132.9665608391542
 20
-159.087619317867
 10
133.1143554354714
 20
-158.8540418439671
 10
133.3482774189199
 20
-158.867822225908
 10
133.6424885733602
 20
-158.7878960106503
 10
134.9767740547975
 20
-158.1980956635755
 10
135.6389214070625
 20
-156.9840440145734
 10
135.6616590372651
 20
-156.0221733550917
 10
135.6723388332694
 20
-155.6135850305411
 10
135.590001051172
 20
-155.413424982848
 10
135.1455837335747
 20
-155.4544216191225
 10
134.7948730131763
 20
-155.4868055166839
 10
134.4255587771575
 20
-155.7183159332926
 10
134.4255587771575
 20
-155.7183159332926
 10
133.8522948884119
 20
-154.5166666280375
 10
132.4839029616707
 20
-153.8465955561564
 10
131.5757757917588
 20
-154.3326985291252
 10
131.2960340383566
 20
-154.4835937113791
 10
131.4028319983993
 20
-154.5690320794133
 10
131.5337456268388
 20
-154.6420681037006
 10
132.3760714729824
 20
-155.1106010896946
 10
132.3316297412227
 20
-156.1213921050669
 10
131.9388888559042
 20
-156.7511555597706
 10
131.0555663734861
 20
-158.1677788233053
 10
129.5349012262968
 20
-158.453032729484
 10
128.5068847334983
 20
-156.8848252645982
 10
128.46209849219
 20
-156.8166123739903
 10
128.4283365564346
 20
-156.7397867446692
 10
128.3869954106116
 20
-156.6684732681246
 10
128.3869954106116
 20
-156.6684732681246
 10
130.9384331269876
 20
-150.8059542808749
 10
130.9384331269876
 20
-150.8059542808749
 10
130.9384331269876
 20
-150.8059542808749
 10
132.9827527879349
 20
-150.8059542808749
 10
132.9827527879349
 20
-150.8059542808749
 10
132.6179171760469
 20
-151.3096272408184
 10
132.6148165901102
 20
-152.0079480956786
 10
132.9458902662427
 20
-152.441341107723
 97
        0
 75
     2
 76
     1
 98
        0
  0
ENDBLK
  5
3F
330
3C
100
AcDbEntity
  8
0
100
AcDbBlockEnd
  0
ENDSEC
  0
SECTION
  2
ENTITIES
  0
INSERT
  5
3D
330
1F
100
AcDbEntity
  8
Layer 1
100
AcDbBlockReference
  2
block 2
 10
0.0
 20
0.0
 30
0.0
  0
ENDSEC
  0
SECTION
  2
OBJECTS
  0
DICTIONARY
  5
C
330
0
100
AcDbDictionary
281
     1
  3
ACAD_GROUP
350
D
  3
ACAD_LAYOUT
350
1A
  3
ACAD_MLINESTYLE
350
17
  3
ACAD_PLOTSETTINGS
350
19
  3
ACAD_PLOTSTYLENAME
350
E
  3
ACAD_TABLESTYLE
350
5F
  3
ACAD_VISUALSTYLE
350
2A
  0
DICTIONARY
  5
D
102
{ACAD_REACTORS
330
C
102
}
330
C
100
AcDbDictionary
281
     1
  0
DICTIONARY
  5
1A
102
{ACAD_REACTORS
330
C
102
}
330
C
100
AcDbDictionary
281
     1
  3
Layout1
350
1E
  3
Layout2
350
26
  3
Model
350
22
  0
DICTIONARY
  5
17
102
{ACAD_REACTORS
330
C
102
}
330
C
100
AcDbDictionary
281
     1
  3
Standard
350
18
  0
DICTIONARY
  5
19
102
{ACAD_REACTORS
330
C
102
}
330
C
100
AcDbDictionary
281
     1
  0
ACDBDICTIONARYWDFLT
  5
E
102
{ACAD_REACTORS
330
C
102
}
330
C
100
AcDbDictionary
281
     1
  3
Normal
350
F
100
AcDbDictionaryWithDefault
340
F
  0
DICTIONARY
  5
5F
102
{ACAD_REACTORS
330
C
102
}
330
C
100
AcDbDictionary
281
     1
  0
DICTIONARY
  5
2A
102
{ACAD_REACTORS
330
C
102
}
330
C
100
AcDbDictionary
281
     1
  3
2dWireframe
350
2F
  3
3D Hidden
350
31
  3
3dWireframe
350
30
  3
Basic
350
32
  3
Brighten
350
36
  3
ColorChange
350
3A
  3
Conceptual
350
34
  3
Dim
350
35
  3
Facepattern
350
39
  3
Flat
350
2B
  3
FlatWithEdges
350
2C
  3
Gouraud
350
2D
  3
GouraudWithEdges
350
2E
  3
Linepattern
350
38
  3
Realistic
350
33
  3
Thicken
350
37
  0
LAYOUT
  5
1E
102
{ACAD_REACTORS
330
1A
102
}
330
1A
100
AcDbPlotSettings
  1

  2
none_device
  4

  6

 40
0.0
 41
0.0
 42
0.0
 43
0.0
 44
0.0
 45
0.0
 46
0.0
 47
0.0
 48
0.0
 49
0.0
140
0.0
141
0.0
142
1.0
143
1.0
 70
   688
 72
     0
 73
     0
 74
     5
  7

 75
    16
 76
     0
 77
     2
 78
   300
147
1.0
148
0.0
149
0.0
100
AcDbLayout
  1
Layout1
 70
     1
 71
     1
 10
0.0
 20
0.0
 11
12.0
 21
9.0
 12
0.0
 22
0.0
 32
0.0
 14
1.000000000000000E+20
 24
1.000000000000000E+20
 34
1.000000000000000E+20
 15
-1.000000000000000E+20
 25
-1.000000000000000E+20
 35
-1.000000000000000E+20
146
0.0
 13
0.0
 23
0.0
 33
0.0
 16
1.0
 26
0.0
 36
0.0
 17
0.0
 27
1.0
 37
0.0
 76
     0
330
1B
  0
LAYOUT
  5
26
102
{ACAD_REACTORS
330
1A
102
}
330
1A
100
AcDbPlotSettings
  1

  2
none_device
  4

  6

 40
0.0
 41
0.0
 42
0.0
 43
0.0
 44
0.0
 45
0.0
 46
0.0
 47
0.0
 48
0.0
 49
0.0
140
0.0
141
0.0
142
1.0
143
1.0
 70
   688
 72
     0
 73
     0
 74
     5
  7

 75
    16
 76
     0
 77
     2
 78
   300
147
1.0
148
0.0
149
0.0
100
AcDbLayout
  1
Layout2
 70
     1
 71
     2
 10
0.0
 20
0.0
 11
0.0
 21
0.0
 12
0.0
 22
0.0
 32
0.0
 14
0.0
 24
0.0
 34
0.0
 15
0.0
 25
0.0
 35
0.0
146
0.0
 13
0.0
 23
0.0
 33
0.0
 16
1.0
 26
0.0
 36
0.0
 17
0.0
 27
1.0
 37
0.0
 76
     0
330
23
  0
LAYOUT
  5
22
102
{ACAD_REACTORS
330
1A
102
}
330
1A
100
AcDbPlotSettings
  1

  2
none_device
  4

  6

 40
0.0
 41
0.0
 42
0.0
 43
0.0
 44
0.0
 45
0.0
 46
0.0
 47
0.0
 48
0.0
 49
0.0
140
0.0
141
0.0
142
1.0
143
1.0
 70
  1712
 72
     0
 73
     0
 74
     0
  7

 75
     0
 76
     0
 77
     2
 78
   300
147
1.0
148
0.0
149
0.0
100
AcDbLayout
  1
Model
 70
     1
 71
     0
 10
0.0
 20
0.0
 11
12.0
 21
9.0
 12
0.0
 22
0.0
 32
0.0
 14
1.000000000000000E+20
 24
1.000000000000000E+20
 34
1.000000000000000E+20
 15
-1.000000000000000E+20
 25
-1.000000000000000E+20
 35
-1.000000000000000E+20
146
0.0
 13
0.0
 23
0.0
 33
0.0
 16
1.0
 26
0.0
 36
0.0
 17
0.0
 27
1.0
 37
0.0
 76
     0
330
1F
331
29
  0
MLINESTYLE
  5
18
102
{ACAD_REACTORS
330
17
102
}
330
17
100
AcDbMlineStyle
  2
Standard
 70
     0
  3

 62
   256
 51
90.0
 52
90.0
 71
     2
 49
0.5
 62
   256
  6
BYLAYER
 49
-0.5
 62
   256
  6
BYLAYER
  0
ACDBPLACEHOLDER
  5
F
102
{ACAD_REACTORS
330
E
102
}
330
E
  0
VISUALSTYLE
  5
2F
102
{ACAD_REACTORS
330
2A
102
}
330
2A
100
AcDbVisualStyle
  2
2dWireframe
 70
     4
 71
     0
 72
     2
 73
     0
 90
        0
 40
-0.6
 41
-30.0
 62
     5
 63
     7
421
 16777215
 74
     1
 91
        4
 64
     7
 65
   257
 75
     1
175
     1
 42
1.0
 92
        0
 66
   257
 43
1.0
 76
     1
 77
     6
 78
     2
 67
     7
 79
     5
170
     0
171
     0
290
     0
174
     0
 93
        1
 44
0.0
173
     0
291
     0
 45
0.0
1001
ACAD
1000
AcDbSavedByObjectVersion
1070
     0
  0
VISUALSTYLE
  5
31
102
{ACAD_REACTORS
330
2A
102
}
330
2A
100
AcDbVisualStyle
  2
3D Hidden
 70
     6
 71
     1
 72
     2
 73
     2
 90
        0
 40
-0.6
 41
-30.0
 62
     5
 63
     7
421
 16777215
 74
     2
 91
        2
 64
     7
 65
   257
 75
     2
175
     1
 42
40.0
 92
        0
 66
   257
 43
1.0
 76
     1
 77
     6
 78
     2
 67
     7
 79
     3
170
     0
171
     0
290
     0
174
     0
 93
        1
 44
0.0
173
     0
291
     0
 45
0.0
1001
ACAD
1000
AcDbSavedByObjectVersion
1070
     0
  0
VISUALSTYLE
  5
30
102
{ACAD_REACTORS
330
2A
102
}
330
2A
100
AcDbVisualStyle
  2
3dWireframe
 70
     5
 71
     0
 72
     2
 73
     0
 90
        0
 40
-0.6
 41
-30.0
 62
     5
 63
     7
421
 16777215
 74
     1
 91
        4
 64
     7
 65
   257
 75
     1
175
     1
 42
1.0
 92
        0
 66
   257
 43
1.0
 76
     1
 77
     6
 78
     2
 67
     7
 79
     5
170
     0
171
     0
290
     0
174
     0
 93
        1
 44
0.0
173
     0
291
     0
 45
0.0
1001
ACAD
1000
AcDbSavedByObjectVersion
1070
     0
  0
VISUALSTYLE
  5
32
102
{ACAD_REACTORS
330
2A
102
}
330
2A
100
AcDbVisualStyle
  2
Basic
 70
     7
 71
     1
 72
     0
 73
     1
 90
        0
 40
-0.6
 41
-30.0
 62
     5
 63
     7
421
 16777215
 74
     0
 91
        4
 64
     7
 65
   257
 75
     1
175
     1
 42
1.0
 92
        8
 66
     7
 43
1.0
 76
     1
 77
     6
 78
     2
 67
     7
 79
     5
170
     0
171
     0
290
     0
174
     0
 93
        1
 44
0.0
173
     0
291
     1
 45
0.0
1001
ACAD
1000
AcDbSavedByObjectVersion
1070
     0
  0
VISUALSTYLE
  5
36
102
{ACAD_REACTORS
330
2A
102
}
330
2A
100
AcDbVisualStyle
  2
Brighten
 70
    12
 71
     2
 72
     2
 73
     0
 90
        0
 40
-0.6
 41
-30.0
 62
     5
 63
     7
421
 16777215
 74
     1
 91
        4
 64
     7
 65
   257
 75
     1
175
     1
 42
1.0
 92
        8
 66
     7
 43
1.0
 76
     1
 77
     6
 78
     2
 67
     7
 79
     5
170
     0
171
     0
290
     0
174
     0
 93
        1
 44
50.0
173
     0
291
     1
 45
0.0
1001
ACAD
1000
AcDbSavedByObjectVersion
1070
     0
  0
VISUALSTYLE
  5
3A
102
{ACAD_REACTORS
330
2A
102
}
330
2A
100
AcDbVisualStyle
  2
ColorChange
 70
    16
 71
     2
 72
     2
 73
     3
 90
        0
 40
-0.6
 41
-30.0
 62
     5
 63
     8
421
  8421504
 74
     1
 91
        4
 64
     7
 65
   257
 75
     1
175
     1
 42
1.0
 92
        8
 66
     8
424
  8421504
 43
1.0
 76
     1
 77
     6
 78
     2
 67
     7
 79
     5
170
     0
171
     0
290
     0
174
     0
 93
        1
 44
0.0
173
     0
291
     1
 45
0.0
1001
ACAD
1000
AcDbSavedByObjectVersion
1070
     0
  0
VISUALSTYLE
  5
34
102
{ACAD_REACTORS
330
2A
102
}
330
2A
100
AcDbVisualStyle
  2
Conceptual
 70
     9
 71
     3
 72
     2
 73
     0
 90
        0
 40
-0.6
 41
-30.0
 62
     5
 63
     7
421
 16777215
 74
     2
 91
        2
 64
     7
 65
   257
 75
     1
175
     1
 42
40.0
 92
        8
 66
     7
 43
1.0
 76
     1
 77
     6
 78
     2
 67
     7
 79
     3
170
     0
171
     0
290
     0
174
     0
 93
        1
 44
0.0
173
     0
291
     0
 45
0.0
1001
ACAD
1000
AcDbSavedByObjectVersion
1070
     0
  0
VISUALSTYLE
  5
35
102
{ACAD_REACTORS
330
2A
102
}
330
2A
100
AcDbVisualStyle
  2
Dim
 70
    11
 71
     2
 72
     2
 73
     0
 90
        0
 40
-0.6
 41
-30.0
 62
     5
 63
     7
421
 16777215
 74
     1
 91
        4
 64
     7
 65
   257
 75
     1
175
     1
 42
1.0
 92
        8
 66
     7
 43
1.0
 76
     1
 77
     6
 78
     2
 67
     7
 79
     5
170
     0
171
     0
290
     0
174
     0
 93
        1
 44
-50.0
173
     0
291
     1
 45
0.0
1001
ACAD
1000
AcDbSavedByObjectVersion
1070
     0
  0
VISUALSTYLE
  5
39
102
{ACAD_REACTORS
330
2A
102
}
330
2A
100
AcDbVisualStyle
  2
Facepattern
 70
    15
 71
     2
 72
     2
 73
     0
 90
        0
 40
-0.6
 41
-30.0
 62
     5
 63
     7
421
 16777215
 74
     1
 91
        4
 64
     7
 65
   257
 75
     1
175
     1
 42
1.0
 92
        8
 66
     7
 43
1.0
 76
     1
 77
     6
 78
     2
 67
     7
 79
     5
170
     0
171
     0
290
     0
174
     0
 93
        1
 44
0.0
173
     0
291
     1
 45
0.0
1001
ACAD
1000
AcDbSavedByObjectVersion
1070
     0
  0
VISUALSTYLE
  5
2B
102
{ACAD_REACTORS
330
2A
102
}
330
2A
100
AcDbVisualStyle
  2
Flat
 70
     0
 71
     2
 72
     1
 73
     1
 90
        2
 40
-0.6
 41
30.0
 62
     5
 63
     7
421
 16777215
 74
     0
 91
        4
 64
     7
 65
   257
 75
     1
175
     1
 42
1.0
 92
        8
 66
     7
 43
1.0
 76
     1
 77
     6
 78
     2
 67
     7
 79
     5
170
     0
171
     0
290
     0
174
     0
 93
       13
 44
0.0
173
     0
291
     1
 45
0.0
1001
ACAD
1000
AcDbSavedByObjectVersion
1070
     0
  0
VISUALSTYLE
  5
2C
102
{ACAD_REACTORS
330
2A
102
}
330
2A
100
AcDbVisualStyle
  2
FlatWithEdges
 70
     1
 71
     2
 72
     1
 73
     1
 90
        2
 40
-0.6
 41
30.0
 62
     5
 63
     7
421
 16777215
 74
     1
 91
        4
 64
     7
 65
   257
 75
     1
175
     1
 42
1.0
 92
        0
 66
   257
 43
1.0
 76
     1
 77
     6
 78
     2
 67
     7
 79
     5
170
     0
171
     0
290
     0
174
     0
 93
       13
 44
0.0
173
     0
291
     1
 45
0.0
1001
ACAD
1000
AcDbSavedByObjectVersion
1070
     0
  0
VISUALSTYLE
  5
2D
102
{ACAD_REACTORS
330
2A
102
}
330
2A
100
AcDbVisualStyle
  2
Gouraud
 70
     2
 71
     2
 72
     2
 73
     1
 90
        2
 40
-0.6
 41
30.0
 62
     5
 63
     7
421
 16777215
 74
     0
 91
        4
 64
     7
 65
   257
 75
     1
175
     1
 42
1.0
 92
        0
 66
     7
 43
1.0
 76
     1
 77
     6
 78
     2
 67
     7
 79
     5
170
     0
171
     0
290
     0
174
     0
 93
       13
 44
0.0
173
     0
291
     1
 45
0.0
1001
ACAD
1000
AcDbSavedByObjectVersion
1070
     0
  0
VISUALSTYLE
  5
2E
102
{ACAD_REACTORS
330
2A
102
}
330
2A
100
AcDbVisualStyle
  2
GouraudWithEdges
 70
     3
 71
     2
 72
     2
 73
     1
 90
        2
 40
-0.6
 41
30.0
 62
     5
 63
     7
421
 16777215
 74
     1
 91
        4
 64
     7
 65
   257
 75
     1
175
     1
 42
1.0
 92
        0
 66
   257
 43
1.0
 76
     1
 77
     6
 78
     2
 67
     7
 79
     5
170
     0
171
     0
290
     0
174
     0
 93
       13
 44
0.0
173
     0
291
     1
 45
0.0
1001
ACAD
1000
AcDbSavedByObjectVersion
1070
     0
  0
VISUALSTYLE
  5
38
102
{ACAD_REACTORS
330
2A
102
}
330
2A
100
AcDbVisualStyle
  2
Linepattern
 70
    14
 71
     2
 72
     2
 73
     0
 90
        0
 40
-0.6
 41
-30.0
 62
     5
 63
     7
421
 16777215
 74
     1
 91
        4
 64
     7
 65
   257
 75
     7
175
     7
 42
1.0
 92
        8
 66
     7
 43
1.0
 76
     1
 77
     6
 78
     2
 67
     7
 79
     5
170
     0
171
     0
290
     0
174
     0
 93
        1
 44
0.0
173
     0
291
     1
 45
0.0
1001
ACAD
1000
AcDbSavedByObjectVersion
1070
     0
  0
VISUALSTYLE
  5
33
102
{ACAD_REACTORS
330
2A
102
}
330
2A
100
AcDbVisualStyle
  2
Realistic
 70
     8
 71
     2
 72
     2
 73
     0
 90
        0
 40
-0.6
 41
-30.0
 62
     5
 63
     7
421
 16777215
 74
     1
 91
        0
 64
     7
 65
   257
 75
     1
175
     1
 42
1.0
 92
        8
 66
     8
424
  7895160
 43
1.0
 76
     1
 77
     6
 78
     2
 67
     7
 79
     5
170
     0
171
     0
290
     0
174
     0
 93
       13
 44
0.0
173
     0
291
     0
 45
0.0
1001
ACAD
1000
AcDbSavedByObjectVersion
1070
     0
  0
VISUALSTYLE
  5
37
102
{ACAD_REACTORS
330
2A
102
}
330
2A
100
AcDbVisualStyle
  2
Thicken
 70
    13
 71
     2
 72
     2
 73
     0
 90
        0
 40
-0.6
 41
-30.0
 62
     5
 63
     7
421
 16777215
 74
     1
 91
        4
 64
     7
 65
   257
 75
     1
175
     1
 42
1.0
 92
       12
 66
     7
 43
1.0
 76
     1
 77
     6
 78
     2
 67
     7
 79
     5
170
     0
171
     0
290
     0
174
     0
 93
        1
 44
0.0
173
     0
291
     1
 45
0.0
1001
ACAD
1000
AcDbSavedByObjectVersion
1070
     0
  0
ENDSEC
  0
EOF
