  0
SECTION
  2
HEADER
  9
$ACADVER
  1
AC1024
  9
$ACADMAINTVER
 70
     6
  9
$DWGCODEPAGE
  3
ANSI_1252
  9
$INSBASE
 10
0.0
 20
0.0
 30
0.0
  9
$EXTMIN
 10
1.000000000000000E+20
 20
1.000000000000000E+20
 30
1.000000000000000E+20
  9
$EXTMAX
 10
-1.000000000000000E+20
 20
-1.000000000000000E+20
 30
-1.000000000000000E+20
  9
$LIMMIN
 10
0.0
 20
0.0
  9
$LIMMAX
 10
12.0
 20
9.0
  9
$ORTHOMODE
 70
     0
  9
$REGENMODE
 70
     1
  9
$FILLMODE
 70
     1
  9
$QTEXTMODE
 70
     0
  9
$MIRRTEXT
 70
     1
  9
$LTSCALE
 40
1.0
  9
$ATTMODE
 70
     1
  9
$TEXTSIZE
 40
0.2
  9
$TRACEWID
 40
0.05
  9
$TEXTSTYLE
  7
Standard
  9
$CLAYER
  8
0
  9
$CELTYPE
  6
ByLayer
  9
$CECOLOR
 62
   256
  9
$CELTSCALE
 40
1.0
  9
$DISPSILH
 70
     0
  9
$DIMSCALE
 40
1.0
  9
$DIMASZ
 40
0.18
  9
$DIMEXO
 40
0.0625
  9
$DIMDLI
 40
0.38
  9
$DIMRND
 40
0.0
  9
$DIMDLE
 40
0.0
  9
$DIMEXE
 40
0.18
  9
$DIMTP
 40
0.0
  9
$DIMTM
 40
0.0
  9
$DIMTXT
 40
0.18
  9
$DIMCEN
 40
0.09
  9
$DIMTSZ
 40
0.0
  9
$DIMTOL
 70
     0
  9
$DIMLIM
 70
     0
  9
$DIMTIH
 70
     1
  9
$DIMTOH
 70
     1
  9
$DIMSE1
 70
     0
  9
$DIMSE2
 70
     0
  9
$DIMTAD
 70
     0
  9
$DIMZIN
 70
     0
  9
$DIMBLK
  1

  9
$DIMASO
 70
     1
  9
$DIMSHO
 70
     1
  9
$DIMPOST
  1

  9
$DIMAPOST
  1

  9
$DIMALT
 70
     0
  9
$DIMALTD
 70
     2
  9
$DIMALTF
 40
25.4
  9
$DIMLFAC
 40
1.0
  9
$DIMTOFL
 70
     0
  9
$DIMTVP
 40
0.0
  9
$DIMTIX
 70
     0
  9
$DIMSOXD
 70
     0
  9
$DIMSAH
 70
     0
  9
$DIMBLK1
  1

  9
$DIMBLK2
  1

  9
$DIMSTYLE
  2
Standard
  9
$DIMCLRD
 70
     0
  9
$DIMCLRE
 70
     0
  9
$DIMCLRT
 70
     0
  9
$DIMTFAC
 40
1.0
  9
$DIMGAP
 40
0.09
  9
$DIMJUST
 70
     0
  9
$DIMSD1
 70
     0
  9
$DIMSD2
 70
     0
  9
$DIMTOLJ
 70
     1
  9
$DIMTZIN
 70
     0
  9
$DIMALTZ
 70
     0
  9
$DIMALTTZ
 70
     0
  9
$DIMUPT
 70
     0
  9
$DIMDEC
 70
     4
  9
$DIMTDEC
 70
     4
  9
$DIMALTU
 70
     2
  9
$DIMALTTD
 70
     2
  9
$DIMTXSTY
  7
Standard
  9
$DIMAUNIT
 70
     0
  9
$DIMADEC
 70
     0
  9
$DIMALTRND
 40
0.0
  9
$DIMAZIN
 70
     0
  9
$DIMDSEP
 70
    46
  9
$DIMATFIT
 70
     3
  9
$DIMFRAC
 70
     0
  9
$DIMLDRBLK
  1

  9
$DIMLUNIT
 70
     2
  9
$DIMLWD
 70
    -2
  9
$DIMLWE
 70
    -2
  9
$DIMTMOVE
 70
     0
  9
$DIMFXL
 40
1.0
  9
$DIMFXLON
 70
     0
  9
$DIMJOGANG
 40
0.7853981633974483
  9
$DIMTFILL
 70
     0
  9
$DIMTFILLCLR
 70
     0
  9
$DIMARCSYM
 70
     0
  9
$DIMLTYPE
  6

  9
$DIMLTEX1
  6

  9
$DIMLTEX2
  6

  9
$DIMTXTDIRECTION
 70
     0
  9
$LUNITS
 70
     2
  9
$LUPREC
 70
     4
  9
$SKETCHINC
 40
0.1
  9
$FILLETRAD
 40
0.5
  9
$AUNITS
 70
     0
  9
$AUPREC
 70
     0
  9
$MENU
  1
.
  9
$ELEVATION
 40
0.0
  9
$PELEVATION
 40
0.0
  9
$THICKNESS
 40
0.0
  9
$LIMCHECK
 70
     0
  9
$CHAMFERA
 40
0.5
  9
$CHAMFERB
 40
0.5
  9
$CHAMFERC
 40
1.0
  9
$CHAMFERD
 40
0.0
  9
$SKPOLY
 70
     0
  9
$TDCREATE
 40
2458663.817664421
  9
$TDUCREATE
 40
2458664.109331088
  9
$TDUPDATE
 40
2458663.817664421
  9
$TDUUPDATE
 40
2458664.109331088
  9
$TDINDWG
 40
0.0000000116
  9
$TDUSRTIMER
 40
0.0000000116
  9
$USRTIMER
 70
     1
  9
$ANGBASE
 50
0.0
  9
$ANGDIR
 70
     0
  9
$PDMODE
 70
     0
  9
$PDSIZE
 40
0.0
  9
$PLINEWID
 40
0.0
  9
$SPLFRAME
 70
     0
  9
$SPLINETYPE
 70
     6
  9
$SPLINESEGS
 70
     8
  9
$HANDSEED
  5
2BF
  9
$SURFTAB1
 70
     6
  9
$SURFTAB2
 70
     6
  9
$SURFTYPE
 70
     6
  9
$SURFU
 70
     6
  9
$SURFV
 70
     6
  9
$UCSBASE
  2

  9
$UCSNAME
  2

  9
$UCSORG
 10
0.0
 20
0.0
 30
0.0
  9
$UCSXDIR
 10
1.0
 20
0.0
 30
0.0
  9
$UCSYDIR
 10
0.0
 20
1.0
 30
0.0
  9
$UCSORTHOREF
  2

  9
$UCSORTHOVIEW
 70
     0
  9
$UCSORGTOP
 10
0.0
 20
0.0
 30
0.0
  9
$UCSORGBOTTOM
 10
0.0
 20
0.0
 30
0.0
  9
$UCSORGLEFT
 10
0.0
 20
0.0
 30
0.0
  9
$UCSORGRIGHT
 10
0.0
 20
0.0
 30
0.0
  9
$UCSORGFRONT
 10
0.0
 20
0.0
 30
0.0
  9
$UCSORGBACK
 10
0.0
 20
0.0
 30
0.0
  9
$PUCSBASE
  2

  9
$PUCSNAME
  2

  9
$PUCSORG
 10
0.0
 20
0.0
 30
0.0
  9
$PUCSXDIR
 10
1.0
 20
0.0
 30
0.0
  9
$PUCSYDIR
 10
0.0
 20
1.0
 30
0.0
  9
$PUCSORTHOREF
  2

  9
$PUCSORTHOVIEW
 70
     0
  9
$PUCSORGTOP
 10
0.0
 20
0.0
 30
0.0
  9
$PUCSORGBOTTOM
 10
0.0
 20
0.0
 30
0.0
  9
$PUCSORGLEFT
 10
0.0
 20
0.0
 30
0.0
  9
$PUCSORGRIGHT
 10
0.0
 20
0.0
 30
0.0
  9
$PUCSORGFRONT
 10
0.0
 20
0.0
 30
0.0
  9
$PUCSORGBACK
 10
0.0
 20
0.0
 30
0.0
  9
$USERI1
 70
     0
  9
$USERI2
 70
     0
  9
$USERI3
 70
     0
  9
$USERI4
 70
     0
  9
$USERI5
 70
     0
  9
$USERR1
 40
0.0
  9
$USERR2
 40
0.0
  9
$USERR3
 40
0.0
  9
$USERR4
 40
0.0
  9
$USERR5
 40
0.0
  9
$WORLDVIEW
 70
     1
  9
$SHADEDGE
 70
     3
  9
$SHADEDIF
 70
    70
  9
$TILEMODE
 70
     1
  9
$MAXACTVP
 70
    64
  9
$PINSBASE
 10
0.0
 20
0.0
 30
0.0
  9
$PLIMCHECK
 70
     0
  9
$PEXTMIN
 10
1.000000000000000E+20
 20
1.000000000000000E+20
 30
1.000000000000000E+20
  9
$PEXTMAX
 10
-1.000000000000000E+20
 20
-1.000000000000000E+20
 30
-1.000000000000000E+20
  9
$PLIMMIN
 10
0.0
 20
0.0
  9
$PLIMMAX
 10
12.0
 20
9.0
  9
$UNITMODE
 70
     0
  9
$VISRETAIN
 70
     1
  9
$PLINEGEN
 70
     0
  9
$PSLTSCALE
 70
     1
  9
$TREEDEPTH
 70
  3020
  9
$CMLSTYLE
  2
Standard
  9
$CMLJUST
 70
     0
  9
$CMLSCALE
 40
1.0
  9
$PROXYGRAPHICS
 70
     1
  9
$MEASUREMENT
 70
     0
  9
$CELWEIGHT
370
    -1
  9
$ENDCAPS
280
     0
  9
$JOINSTYLE
280
     0
  9
$LWDISPLAY
290
     1
  9
$INSUNITS
 70
     1
  9
$HYPERLINKBASE
  1

  9
$STYLESHEET
  1

  9
$XEDIT
290
     1
  9
$CEPSNTYPE
380
     0
  9
$PSTYLEMODE
290
     1
  9
$FINGERPRINTGUID
  2
{346EA722-ACB4-4071-A44B-41F660E6C36F}
  9
$VERSIONGUID
  2
{FAEB1C32-E019-11D5-929B-00C0DF256EC4}
  9
$EXTNAMES
290
     1
  9
$PSVPSCALE
 40
0.0
  9
$OLESTARTUP
290
     0
  9
$SORTENTS
280
   127
  9
$INDEXCTL
280
     0
  9
$HIDETEXT
280
     1
  9
$XCLIPFRAME
280
     2
  9
$HALOGAP
280
     0
  9
$OBSCOLOR
 70
   257
  9
$OBSLTYPE
280
     0
  9
$INTERSECTIONDISPLAY
280
     0
  9
$INTERSECTIONCOLOR
 70
   257
  9
$DIMASSOC
280
     2
  9
$PROJECTNAME
  1

  9
$CAMERADISPLAY
290
     0
  9
$LENSLENGTH
 40
50.0
  9
$CAMERAHEIGHT
 40
0.0
  9
$STEPSPERSEC
 40
2.0
  9
$STEPSIZE
 40
6.0
  9
$3DDWFPREC
 40
2.0
  9
$PSOLWIDTH
 40
0.25
  9
$PSOLHEIGHT
 40
4.0
  9
$LOFTANG1
 40
1.570796326794897
  9
$LOFTANG2
 40
1.570796326794897
  9
$LOFTMAG1
 40
0.0
  9
$LOFTMAG2
 40
0.0
  9
$LOFTPARAM
 70
     7
  9
$LOFTNORMALS
280
     1
  9
$LATITUDE
 40
37.795
  9
$LONGITUDE
 40
-122.394
  9
$NORTHDIRECTION
 40
0.0
  9
$TIMEZONE
 70
 -8000
  9
$LIGHTGLYPHDISPLAY
280
     1
  9
$TILEMODELIGHTSYNCH
280
     1
  9
$CMATERIAL
347
3C
  9
$SOLIDHIST
280
     1
  9
$SHOWHIST
280
     1
  9
$DWFFRAME
280
     2
  9
$DGNFRAME
280
     2
  9
$REALWORLDSCALE
290
     1
  9
$INTERFERECOLOR
 62
   256
  9
$CSHADOW
280
     0
  9
$SHADOWPLANELOCATION
 40
0.0
  0
ENDSEC
  0
SECTION
  2
CLASSES
  0
CLASS
  1
ACDBDICTIONARYWDFLT
  2
AcDbDictionaryWithDefault
  3
ObjectDBX Classes
 90
        0
 91
        4
280
     0
281
     0
  0
CLASS
  1
VISUALSTYLE
  2
AcDbVisualStyle
  3
ObjectDBX Classes
 90
     4095
 91
        4
280
     0
281
     0
  0
CLASS
  1
MATERIAL
  2
AcDbMaterial
  3
ObjectDBX Classes
 90
     1153
 91
        4
280
     0
281
     0
  0
CLASS
  1
SUN
  2
AcDbSun
  3
SCENEOE
 90
     1024
 91
        4
280
     0
281
     0
  0
ENDSEC
  0
SECTION
  2
TABLES
  0
TABLE
  2
VPORT
  5
8
330
0
100
AcDbSymbolTable
 70
     1
  0
VPORT
  5
29
330
8
100
AcDbSymbolTableRecord
100
AcDbViewportTableRecord
  2
*Active
 70
     0
 10
0.0
 20
0.0
 11
1.0
 21
1.0
 12
0.0
 22
0.0
 13
0.0
 23
0.0
 14
0.5
 24
0.5
 15
0.5
 25
0.5
 16
0.0
 26
0.0
 36
1.0
 17
18.0
 27
-12.0
 37
0.0
 40
24.0
 41
1.5
 42
50.0
 43
0.0
 44
0.0
 50
0.0
 51
0.0
 71
     0
 72
   100
 73
     1
 74
     3
 75
     0
 76
     0
 77
     0
 78
     0
281
     0
 65
     1
110
0.0
120
0.0
130
0.0
111
1.0
121
0.0
131
0.0
112
0.0
122
1.0
132
0.0
 79
     0
146
0.0
 60
     3
 61
     5
292
     1
282
     1
141
0.0
142
0.0
 63
   250
361
3F
  0
ENDTAB
  0
TABLE
  2
LTYPE
  5
5
330
0
100
AcDbSymbolTable
 70
     1
  0
LTYPE
  5
14
330
5
100
AcDbSymbolTableRecord
100
AcDbLinetypeTableRecord
  2
ByBlock
 70
     0
  3

 72
    65
 73
     0
 40
0.0
  0
LTYPE
  5
15
330
5
100
AcDbSymbolTableRecord
100
AcDbLinetypeTableRecord
  2
ByLayer
 70
     0
  3

 72
    65
 73
     0
 40
0.0
  0
LTYPE
  5
16
330
5
100
AcDbSymbolTableRecord
100
AcDbLinetypeTableRecord
  2
Continuous
 70
     0
  3
Solid line
 72
    65
 73
     0
 40
0.0
  0
ENDTAB
  0
TABLE
  2
LAYER
  5
2
330
0
100
AcDbSymbolTable
 70
     2
  0
LAYER
  5
10
330
2
100
AcDbSymbolTableRecord
100
AcDbLayerTableRecord
  2
0
 70
     0
 62
     7
  6
Continuous
370
    -3
390
F
347
3E
  0
LAYER
  5
40
330
2
100
AcDbSymbolTableRecord
100
AcDbLayerTableRecord
  2
Layer 1
 70
     0
 62
     7
  6
Continuous
370
    -3
390
F
347
3E
  0
ENDTAB
  0
TABLE
  2
STYLE
  5
3
330
0
100
AcDbSymbolTable
 70
     1
  0
STYLE
  5
11
330
3
100
AcDbSymbolTableRecord
100
AcDbTextStyleTableRecord
  2
Standard
 70
     0
 40
0.0
 41
1.0
 50
0.0
 71
     0
 42
0.2
  3
txt
  4

  0
ENDTAB
  0
TABLE
  2
VIEW
  5
6
330
0
100
AcDbSymbolTable
 70
     0
  0
ENDTAB
  0
TABLE
  2
UCS
  5
7
330
0
100
AcDbSymbolTable
 70
     0
  0
ENDTAB
  0
TABLE
  2
APPID
  5
9
330
0
100
AcDbSymbolTable
 70
     1
  0
APPID
  5
12
330
9
100
AcDbSymbolTableRecord
100
AcDbRegAppTableRecord
  2
ACAD
 70
     0
  0
ENDTAB
  0
TABLE
  2
DIMSTYLE
  5
A
330
0
100
AcDbSymbolTable
 70
     1
100
AcDbDimStyleTable
  0
DIMSTYLE
105
27
330
A
100
AcDbSymbolTableRecord
100
AcDbDimStyleTableRecord
  2
Standard
 70
     0
178
     0
340
11
  0
ENDTAB
  0
TABLE
  2
BLOCK_RECORD
  5
1
330
0
100
AcDbSymbolTable
 70
     8
  0
BLOCK_RECORD
  5
1F
330
1
100
AcDbSymbolTableRecord
100
AcDbBlockTableRecord
  2
*Model_Space
340
22
 70
     0
280
     1
281
     0
  0
BLOCK_RECORD
  5
1B
330
1
100
AcDbSymbolTableRecord
100
AcDbBlockTableRecord
  2
*Paper_Space
340
1E
 70
     0
280
     1
281
     0
  0
BLOCK_RECORD
  5
23
330
1
100
AcDbSymbolTableRecord
100
AcDbBlockTableRecord
  2
*Paper_Space0
340
26
 70
     0
280
     1
281
     0
  0
BLOCK_RECORD
  5
41
330
1
100
AcDbSymbolTableRecord
100
AcDbBlockTableRecord
  2
block 2
340
0
102
{BLKREFS
331
42
102
}
 70
     0
280
     1
281
     0
  0
BLOCK_RECORD
  5
45
330
1
100
AcDbSymbolTableRecord
100
AcDbBlockTableRecord
  2
block 3
340
0
102
{BLKREFS
331
46
102
}
 70
     0
280
     1
281
     0
  0
BLOCK_RECORD
  5
103
330
1
100
AcDbSymbolTableRecord
100
AcDbBlockTableRecord
  2
block 4
340
0
102
{BLKREFS
331
104
102
}
 70
     0
280
     1
281
     0
  0
BLOCK_RECORD
  5
115
330
1
100
AcDbSymbolTableRecord
100
AcDbBlockTableRecord
  2
block 5
340
0
102
{BLKREFS
331
116
102
}
 70
     0
280
     1
281
     0
  0
BLOCK_RECORD
  5
181
330
1
100
AcDbSymbolTableRecord
100
AcDbBlockTableRecord
  2
block 6
340
0
102
{BLKREFS
331
182
102
}
 70
     0
280
     1
281
     0
  0
BLOCK_RECORD
  5
23F
330
1
100
AcDbSymbolTableRecord
100
AcDbBlockTableRecord
  2
block 7
340
0
102
{BLKREFS
331
240
102
}
 70
     0
280
     1
281
     0
  0
BLOCK_RECORD
  5
251
330
1
100
AcDbSymbolTableRecord
100
AcDbBlockTableRecord
  2
block 8
340
0
102
{BLKREFS
331
252
102
}
 70
     0
280
     1
281
     0
  0
ENDTAB
  0
ENDSEC
  0
SECTION
  2
BLOCKS
  0
BLOCK
  5
20
330
1F
100
AcDbEntity
  8
0
100
AcDbBlockBegin
  2
*Model_Space
 70
     0
 10
0.0
 20
0.0
 30
0.0
  3
*Model_Space
  1

  0
ENDBLK
  5
21
330
1F
100
AcDbEntity
  8
0
100
AcDbBlockEnd
  0
BLOCK
  5
1C
330
1B
100
AcDbEntity
 67
     1
  8
0
100
AcDbBlockBegin
  2
*Paper_Space
 70
     0
 10
0.0
 20
0.0
 30
0.0
  3
*Paper_Space
  1

  0
ENDBLK
  5
1D
330
1B
100
AcDbEntity
 67
     1
  8
0
100
AcDbBlockEnd
  0
BLOCK
  5
24
330
23
100
AcDbEntity
  8
0
100
AcDbBlockBegin
  2
*Paper_Space0
 70
     0
 10
0.0
 20
0.0
 30
0.0
  3
*Paper_Space0
  1

  0
ENDBLK
  5
25
330
23
100
AcDbEntity
  8
0
100
AcDbBlockEnd
  0
BLOCK
  5
43
330
41
100
AcDbEntity
  8
0
100
AcDbBlockBegin
  2
block 2
 70
     0
 10
0.0
 20
0.0
 30
0.0
  3
block 2
  1

  0
INSERT
  5
46
330
41
100
AcDbEntity
  8
Layer 1
100
AcDbBlockReference
  2
block 3
 10
0.0
 20
0.0
 30
0.0
  0
INSERT
  5
116
330
41
100
AcDbEntity
  8
Layer 1
100
AcDbBlockReference
  2
block 5
 10
0.0
 20
0.0
 30
0.0
  0
INSERT
  5
182
330
41
100
AcDbEntity
  8
Layer 1
100
AcDbBlockReference
  2
block 6
 10
0.0
 20
0.0
 30
0.0
  0
INSERT
  5
252
330
41
100
AcDbEntity
  8
Layer 1
100
AcDbBlockReference
  2
block 8
 10
0.0
 20
0.0
 30
0.0
  0
ENDBLK
  5
44
330
41
100
AcDbEntity
  8
0
100
AcDbBlockEnd
  0
BLOCK
  5
47
330
45
100
AcDbEntity
  8
0
100
AcDbBlockBegin
  2
block 3
 70
     0
 10
0.0
 20
0.0
 30
0.0
  3
block 3
  1

  0
POLYLINE
  5
49
330
45
100
AcDbEntity
  8
Layer 1
 62
    18
420
    65793
370
     9
100
AcDb2dPolyline
 66
     1
 10
0.0
 20
0.0
 30
0.0
  0
VERTEX
  5
4A
330
49
100
AcDbEntity
  8
Layer 1
 62
    18
420
    65793
370
     9
100
AcDbVertex
100
AcDb2dVertex
 10
14.0509164407665
 20
-15.48346080102806
 30
0.0
  0
VERTEX
  5
4B
330
49
100
AcDbEntity
  8
Layer 1
 62
    18
420
    65793
370
     9
100
AcDbVertex
100
AcDb2dVertex
 10
14.0509164407665
 20
-15.48401635658347
 30
0.0
  0
SEQEND
  5
4C
330
49
100
AcDbEntity
  8
Layer 1
 62
    18
420
    65793
370
     9
  0
POLYLINE
  5
4D
330
45
100
AcDbEntity
  8
Layer 1
 62
    18
420
    65793
370
     9
100
AcDb2dPolyline
 66
     1
 10
0.0
 20
0.0
 30
0.0
  0
VERTEX
  5
4E
330
4D
100
AcDbEntity
  8
Layer 1
 62
    18
420
    65793
370
     9
100
AcDbVertex
100
AcDb2dVertex
 10
15.17969666334871
 20
-15.48346080102806
 30
0.0
  0
VERTEX
  5
4F
330
4D
100
AcDbEntity
  8
Layer 1
 62
    18
420
    65793
370
     9
100
AcDbVertex
100
AcDb2dVertex
 10
15.17969666334871
 20
-15.4840163565836
 30
0.0
  0
SEQEND
  5
50
330
4D
100
AcDbEntity
  8
Layer 1
 62
    18
420
    65793
370
     9
  0
POLYLINE
  5
51
330
45
100
AcDbEntity
  8
Layer 1
 62
    18
420
    65793
370
     9
100
AcDb2dPolyline
 66
     1
 10
0.0
 20
0.0
 30
0.0
  0
VERTEX
  5
52
330
51
100
AcDbEntity
  8
Layer 1
 62
    18
420
    65793
370
     9
100
AcDbVertex
100
AcDb2dVertex
 10
15.17969666334871
 20
-16.58221080102804
 30
0.0
  0
VERTEX
  5
53
330
51
100
AcDbEntity
  8
Layer 1
 62
    18
420
    65793
370
     9
100
AcDbVertex
100
AcDb2dVertex
 10
15.07566888557094
 20
-16.68623857880569
 30
0.0
  0
VERTEX
  5
54
330
51
100
AcDbEntity
  8
Layer 1
 62
    18
420
    65793
370
     9
100
AcDbVertex
100
AcDb2dVertex
 10
14.96080777445984
 20
-16.80109968991681
 30
0.0
  0
SEQEND
  5
55
330
51
100
AcDbEntity
  8
Layer 1
 62
    18
420
    65793
370
     9
  0
POLYLINE
  5
56
330
45
100
AcDbEntity
  8
Layer 1
 62
    18
420
    65793
370
     9
100
AcDb2dPolyline
 66
     1
 10
0.0
 20
0.0
 30
0.0
  0
VERTEX
  5
57
330
56
100
AcDbEntity
  8
Layer 1
 62
    18
420
    65793
370
     9
100
AcDbVertex
100
AcDb2dVertex
 10
15.17969666334871
 20
-16.19887746769458
 30
0.0
  0
VERTEX
  5
58
330
56
100
AcDbEntity
  8
Layer 1
 62
    18
420
    65793
370
     9
100
AcDbVertex
100
AcDb2dVertex
 10
15.07580777445983
 20
-16.30276635658361
 30
0.0
  0
VERTEX
  5
59
330
56
100
AcDbEntity
  8
Layer 1
 62
    18
420
    65793
370
     9
100
AcDbVertex
100
AcDb2dVertex
 10
14.88400221890428
 20
-16.49457191213903
 30
0.0
  0
VERTEX
  5
5A
330
56
100
AcDbEntity
  8
Layer 1
 62
    18
420
    65793
370
     9
100
AcDbVertex
100
AcDb2dVertex
 10
14.6923355522376
 20
-16.68623857880569
 30
0.0
  0
VERTEX
  5
5B
330
56
100
AcDbEntity
  8
Layer 1
 62
    18
420
    65793
370
     9
100
AcDbVertex
100
AcDb2dVertex
 10
14.57747444112651
 20
-16.80109968991681
 30
0.0
  0
SEQEND
  5
5C
330
56
100
AcDbEntity
  8
Layer 1
 62
    18
420
    65793
370
     9
  0
POLYLINE
  5
5D
330
45
100
AcDbEntity
  8
Layer 1
 62
    18
420
    65793
370
     9
100
AcDb2dPolyline
 66
     1
 10
0.0
 20
0.0
 30
0.0
  0
VERTEX
  5
5E
330
5D
100
AcDbEntity
  8
Layer 1
 62
    18
420
    65793
370
     9
100
AcDbVertex
100
AcDb2dVertex
 10
15.17969666334871
 20
-15.81526635658348
 30
0.0
  0
VERTEX
  5
5F
330
5D
100
AcDbEntity
  8
Layer 1
 62
    18
420
    65793
370
     9
100
AcDbVertex
100
AcDb2dVertex
 10
15.07566888557094
 20
-15.91929413436138
 30
0.0
  0
VERTEX
  5
60
330
5D
100
AcDbEntity
  8
Layer 1
 62
    18
420
    65793
370
     9
100
AcDbVertex
100
AcDb2dVertex
 10
14.88400221890428
 20
-16.11096080102804
 30
0.0
  0
VERTEX
  5
61
330
5D
100
AcDbEntity
  8
Layer 1
 62
    18
420
    65793
370
     9
100
AcDbVertex
100
AcDb2dVertex
 10
14.69219666334873
 20
-16.30276635658361
 30
0.0
  0
VERTEX
  5
62
330
5D
100
AcDbEntity
  8
Layer 1
 62
    18
420
    65793
370
     9
100
AcDbVertex
100
AcDb2dVertex
 10
14.50052999668205
 20
-16.49443302325027
 30
0.0
  0
VERTEX
  5
63
330
5D
100
AcDbEntity
  8
Layer 1
 62
    18
420
    65793
370
     9
100
AcDbVertex
100
AcDb2dVertex
 10
14.3087244411265
 20
-16.68623857880569
 30
0.0
  0
VERTEX
  5
64
330
5D
100
AcDbEntity
  8
Layer 1
 62
    18
420
    65793
370
     9
100
AcDbVertex
100
AcDb2dVertex
 10
14.19386333001538
 20
-16.80109968991681
 30
0.0
  0
SEQEND
  5
65
330
5D
100
AcDbEntity
  8
Layer 1
 62
    18
420
    65793
370
     9
  0
POLYLINE
  5
66
330
45
100
AcDbEntity
  8
Layer 1
 62
    18
420
    65793
370
     9
100
AcDb2dPolyline
 66
     1
 10
0.0
 20
0.0
 30
0.0
  0
VERTEX
  5
67
330
66
100
AcDbEntity
  8
Layer 1
 62
    18
420
    65793
370
     9
100
AcDbVertex
100
AcDb2dVertex
 10
14.05150221890427
 20
-16.56012746769471
 30
0.0
  0
VERTEX
  5
68
330
66
100
AcDbEntity
  8
Layer 1
 62
    18
420
    65793
370
     9
100
AcDbVertex
100
AcDb2dVertex
 10
15.17816888557095
 20
-15.43346080102805
 30
0.0
  0
SEQEND
  5
69
330
66
100
AcDbEntity
  8
Layer 1
 62
    18
420
    65793
370
     9
  0
POLYLINE
  5
6A
330
45
100
AcDbEntity
  8
Layer 1
 62
    18
420
    65793
370
     9
100
AcDb2dPolyline
 66
     1
 10
0.0
 20
0.0
 30
0.0
  0
VERTEX
  5
6B
330
6A
100
AcDbEntity
  8
Layer 1
 62
    18
420
    65793
370
     9
100
AcDbVertex
100
AcDb2dVertex
 10
14.05150221890427
 20
-16.17651635658361
 30
0.0
  0
VERTEX
  5
6C
330
6A
100
AcDbEntity
  8
Layer 1
 62
    18
420
    65793
370
     9
100
AcDbVertex
100
AcDb2dVertex
 10
15.17664110779316
 20
-15.05137746769459
 30
0.0
  0
SEQEND
  5
6D
330
6A
100
AcDbEntity
  8
Layer 1
 62
    18
420
    65793
370
     9
  0
POLYLINE
  5
6E
330
45
100
AcDbEntity
  8
Layer 1
 62
    18
420
    65793
370
     9
100
AcDb2dPolyline
 66
     1
 10
0.0
 20
0.0
 30
0.0
  0
VERTEX
  5
6F
330
6E
100
AcDbEntity
  8
Layer 1
 62
    18
420
    65793
370
     9
100
AcDbVertex
100
AcDb2dVertex
 10
14.05150221890427
 20
-15.79318302325014
 30
0.0
  0
VERTEX
  5
70
330
6E
100
AcDbEntity
  8
Layer 1
 62
    18
420
    65793
370
     9
100
AcDbVertex
100
AcDb2dVertex
 10
15.18650221890429
 20
-14.65818302325013
 30
0.0
  0
SEQEND
  5
71
330
6E
100
AcDbEntity
  8
Layer 1
 62
    18
420
    65793
370
     9
  0
POLYLINE
  5
72
330
45
100
AcDbEntity
  8
Layer 1
 62
    18
420
    65793
370
     9
100
AcDb2dPolyline
 66
     1
 10
0.0
 20
0.0
 30
0.0
  0
VERTEX
  5
73
330
72
100
AcDbEntity
  8
Layer 1
 62
    18
420
    65793
370
     9
100
AcDbVertex
100
AcDb2dVertex
 10
14.05372444112649
 20
-15.40734968991693
 30
0.0
  0
VERTEX
  5
74
330
72
100
AcDbEntity
  8
Layer 1
 62
    18
420
    65793
370
     9
100
AcDbVertex
100
AcDb2dVertex
 10
15.20414110779316
 20
-14.25693302325014
 30
0.0
  0
SEQEND
  5
75
330
72
100
AcDbEntity
  8
Layer 1
 62
    18
420
    65793
370
     9
  0
POLYLINE
  5
76
330
45
100
AcDbEntity
  8
Layer 1
 62
    18
420
    65793
370
     9
100
AcDb2dPolyline
 66
     1
 10
0.0
 20
0.0
 30
0.0
  0
VERTEX
  5
77
330
76
100
AcDbEntity
  8
Layer 1
 62
    18
420
    65793
370
     9
100
AcDbVertex
100
AcDb2dVertex
 10
14.05414110779317
 20
-15.02359968991681
 30
0.0
  0
VERTEX
  5
78
330
76
100
AcDbEntity
  8
Layer 1
 62
    18
420
    65793
370
     9
100
AcDbVertex
100
AcDb2dVertex
 10
15.22775221890428
 20
-13.8499885788057
 30
0.0
  0
SEQEND
  5
79
330
76
100
AcDbEntity
  8
Layer 1
 62
    18
420
    65793
370
     9
  0
POLYLINE
  5
7A
330
45
100
AcDbEntity
  8
Layer 1
 62
    18
420
    65793
370
     9
100
AcDb2dPolyline
 66
     1
 10
0.0
 20
0.0
 30
0.0
  0
VERTEX
  5
7B
330
7A
100
AcDbEntity
  8
Layer 1
 62
    18
420
    65793
370
     9
100
AcDbVertex
100
AcDb2dVertex
 10
14.04441888557094
 20
-14.64971080102792
 30
0.0
  0
VERTEX
  5
7C
330
7A
100
AcDbEntity
  8
Layer 1
 62
    18
420
    65793
370
     9
100
AcDbVertex
100
AcDb2dVertex
 10
15.25719666334871
 20
-13.43693302325012
 30
0.0
  0
SEQEND
  5
7D
330
7A
100
AcDbEntity
  8
Layer 1
 62
    18
420
    65793
370
     9
  0
POLYLINE
  5
7E
330
45
100
AcDbEntity
  8
Layer 1
 62
    18
420
    65793
370
     9
100
AcDb2dPolyline
 66
     1
 10
0.0
 20
0.0
 30
0.0
  0
VERTEX
  5
7F
330
7E
100
AcDbEntity
  8
Layer 1
 62
    18
420
    65793
370
     9
100
AcDbVertex
100
AcDb2dVertex
 10
14.02830777445983
 20
-14.28248857880569
 30
0.0
  0
VERTEX
  5
80
330
7E
100
AcDbEntity
  8
Layer 1
 62
    18
420
    65793
370
     9
100
AcDbVertex
100
AcDb2dVertex
 10
15.28927999668206
 20
-13.02151635658346
 30
0.0
  0
SEQEND
  5
81
330
7E
100
AcDbEntity
  8
Layer 1
 62
    18
420
    65793
370
     9
  0
POLYLINE
  5
82
330
45
100
AcDbEntity
  8
Layer 1
 62
    18
420
    65793
370
     9
100
AcDb2dPolyline
 66
     1
 10
0.0
 20
0.0
 30
0.0
  0
VERTEX
  5
83
330
82
100
AcDbEntity
  8
Layer 1
 62
    18
420
    65793
370
     9
100
AcDbVertex
100
AcDb2dVertex
 10
14.00789110779317
 20
-13.91957191213901
 30
0.0
  0
VERTEX
  5
84
330
82
100
AcDbEntity
  8
Layer 1
 62
    18
420
    65793
370
     9
100
AcDbVertex
100
AcDb2dVertex
 10
15.17191888557094
 20
-12.75554413436139
 30
0.0
  0
SEQEND
  5
85
330
82
100
AcDbEntity
  8
Layer 1
 62
    18
420
    65793
370
     9
  0
POLYLINE
  5
86
330
45
100
AcDbEntity
  8
Layer 1
 62
    18
420
    65793
370
     9
100
AcDb2dPolyline
 66
     1
 10
0.0
 20
0.0
 30
0.0
  0
VERTEX
  5
87
330
86
100
AcDbEntity
  8
Layer 1
 62
    18
420
    65793
370
     9
100
AcDbVertex
100
AcDb2dVertex
 10
13.98299977409984
 20
-13.56026635658347
 30
0.0
  0
VERTEX
  5
88
330
86
100
AcDbEntity
  8
Layer 1
 62
    18
420
    65793
370
     9
100
AcDbVertex
100
AcDb2dVertex
 10
14.83494421854429
 20
-12.70832191213903
 30
0.0
  0
SEQEND
  5
89
330
86
100
AcDbEntity
  8
Layer 1
 62
    18
420
    65793
370
     9
  0
POLYLINE
  5
8A
330
45
100
AcDbEntity
  8
Layer 1
 62
    18
420
    65793
370
     9
100
AcDb2dPolyline
 66
     1
 10
0.0
 20
0.0
 30
0.0
  0
VERTEX
  5
8B
330
8A
100
AcDbEntity
  8
Layer 1
 62
    18
420
    65793
370
     9
100
AcDbVertex
100
AcDb2dVertex
 10
13.95369421854428
 20
-13.20623857880582
 30
0.0
  0
VERTEX
  5
8C
330
8A
100
AcDbEntity
  8
Layer 1
 62
    18
420
    65793
370
     9
100
AcDbVertex
100
AcDb2dVertex
 10
14.45161088521095
 20
-12.70832191213903
 30
0.0
  0
SEQEND
  5
8D
330
8A
100
AcDbEntity
  8
Layer 1
 62
    18
420
    65793
370
     9
  0
POLYLINE
  5
8E
330
45
100
AcDbEntity
  8
Layer 1
 62
    18
420
    65793
370
     9
100
AcDb2dPolyline
 66
     1
 10
0.0
 20
0.0
 30
0.0
  0
VERTEX
  5
8F
330
8E
100
AcDbEntity
  8
Layer 1
 62
    18
420
    65793
370
     9
100
AcDbVertex
100
AcDb2dVertex
 10
14.42358555223762
 20
-16.80109968991681
 30
0.0
  0
VERTEX
  5
90
330
8E
100
AcDbEntity
  8
Layer 1
 62
    18
420
    65793
370
     9
100
AcDbVertex
100
AcDb2dVertex
 10
14.3087244411265
 20
-16.68623857880569
 30
0.0
  0
VERTEX
  5
91
330
8E
100
AcDbEntity
  8
Layer 1
 62
    18
420
    65793
370
     9
100
AcDbVertex
100
AcDb2dVertex
 10
14.11705777445984
 20
-16.49457191213903
 30
0.0
  0
VERTEX
  5
92
330
8E
100
AcDbEntity
  8
Layer 1
 62
    18
420
    65793
370
     9
100
AcDbVertex
100
AcDb2dVertex
 10
14.05150221890427
 20
-16.42901635658346
 30
0.0
  0
SEQEND
  5
93
330
8E
100
AcDbEntity
  8
Layer 1
 62
    18
420
    65793
370
     9
  0
POLYLINE
  5
94
330
45
100
AcDbEntity
  8
Layer 1
 62
    18
420
    65793
370
     9
100
AcDb2dPolyline
 66
     1
 10
0.0
 20
0.0
 30
0.0
  0
VERTEX
  5
95
330
94
100
AcDbEntity
  8
Layer 1
 62
    18
420
    65793
370
     9
100
AcDbVertex
100
AcDb2dVertex
 10
14.80719666334872
 20
-16.80109968991681
 30
0.0
  0
VERTEX
  5
96
330
94
100
AcDbEntity
  8
Layer 1
 62
    18
420
    65793
370
     9
100
AcDbVertex
100
AcDb2dVertex
 10
14.6923355522376
 20
-16.68623857880569
 30
0.0
  0
VERTEX
  5
97
330
94
100
AcDbEntity
  8
Layer 1
 62
    18
420
    65793
370
     9
100
AcDbVertex
100
AcDb2dVertex
 10
14.50052999668205
 20
-16.49443302325027
 30
0.0
  0
VERTEX
  5
98
330
94
100
AcDbEntity
  8
Layer 1
 62
    18
420
    65793
370
     9
100
AcDbVertex
100
AcDb2dVertex
 10
14.30886333001539
 20
-16.30276635658361
 30
0.0
  0
VERTEX
  5
99
330
94
100
AcDbEntity
  8
Layer 1
 62
    18
420
    65793
370
     9
100
AcDbVertex
100
AcDb2dVertex
 10
14.11705777445984
 20
-16.11096080102804
 30
0.0
  0
VERTEX
  5
9A
330
94
100
AcDbEntity
  8
Layer 1
 62
    18
420
    65793
370
     9
100
AcDbVertex
100
AcDb2dVertex
 10
14.05150221890427
 20
-16.04540524547236
 30
0.0
  0
SEQEND
  5
9B
330
94
100
AcDbEntity
  8
Layer 1
 62
    18
420
    65793
370
     9
  0
POLYLINE
  5
9C
330
45
100
AcDbEntity
  8
Layer 1
 62
    18
420
    65793
370
     9
100
AcDb2dPolyline
 66
     1
 10
0.0
 20
0.0
 30
0.0
  0
VERTEX
  5
9D
330
9C
100
AcDbEntity
  8
Layer 1
 62
    18
420
    65793
370
     9
100
AcDbVertex
100
AcDb2dVertex
 10
15.17969666334871
 20
-16.79026635658361
 30
0.0
  0
VERTEX
  5
9E
330
9C
100
AcDbEntity
  8
Layer 1
 62
    18
420
    65793
370
     9
100
AcDbVertex
100
AcDb2dVertex
 10
15.07566888557094
 20
-16.68623857880569
 30
0.0
  0
VERTEX
  5
9F
330
9C
100
AcDbEntity
  8
Layer 1
 62
    18
420
    65793
370
     9
100
AcDbVertex
100
AcDb2dVertex
 10
14.88400221890428
 20
-16.49457191213903
 30
0.0
  0
VERTEX
  5
A0
330
9C
100
AcDbEntity
  8
Layer 1
 62
    18
420
    65793
370
     9
100
AcDbVertex
100
AcDb2dVertex
 10
14.69219666334873
 20
-16.30276635658361
 30
0.0
  0
VERTEX
  5
A1
330
9C
100
AcDbEntity
  8
Layer 1
 62
    18
420
    65793
370
     9
100
AcDbVertex
100
AcDb2dVertex
 10
14.50052999668205
 20
-16.1110996899168
 30
0.0
  0
VERTEX
  5
A2
330
9C
100
AcDbEntity
  8
Layer 1
 62
    18
420
    65793
370
     9
100
AcDbVertex
100
AcDb2dVertex
 10
14.3087244411265
 20
-15.91929413436138
 30
0.0
  0
VERTEX
  5
A3
330
9C
100
AcDbEntity
  8
Layer 1
 62
    18
420
    65793
370
     9
100
AcDbVertex
100
AcDb2dVertex
 10
14.11705777445984
 20
-15.72762746769457
 30
0.0
  0
VERTEX
  5
A4
330
9C
100
AcDbEntity
  8
Layer 1
 62
    18
420
    65793
370
     9
100
AcDbVertex
100
AcDb2dVertex
 10
14.05150221890427
 20
-15.66207191213915
 30
0.0
  0
SEQEND
  5
A5
330
9C
100
AcDbEntity
  8
Layer 1
 62
    18
420
    65793
370
     9
  0
POLYLINE
  5
A6
330
45
100
AcDbEntity
  8
Layer 1
 62
    18
420
    65793
370
     9
100
AcDb2dPolyline
 66
     1
 10
0.0
 20
0.0
 30
0.0
  0
VERTEX
  5
A7
330
A6
100
AcDbEntity
  8
Layer 1
 62
    18
420
    65793
370
     9
100
AcDbVertex
100
AcDb2dVertex
 10
14.05539110779317
 20
-15.28234968991693
 30
0.0
  0
VERTEX
  5
A8
330
A6
100
AcDbEntity
  8
Layer 1
 62
    18
420
    65793
370
     9
100
AcDbVertex
100
AcDb2dVertex
 10
14.11705777445984
 20
-15.34401635658348
 30
0.0
  0
VERTEX
  5
A9
330
A6
100
AcDbEntity
  8
Layer 1
 62
    18
420
    65793
370
     9
100
AcDbVertex
100
AcDb2dVertex
 10
14.30886333001539
 20
-15.53582191213915
 30
0.0
  0
VERTEX
  5
AA
330
A6
100
AcDbEntity
  8
Layer 1
 62
    18
420
    65793
370
     9
100
AcDbVertex
100
AcDb2dVertex
 10
14.50052999668205
 20
-15.72748857880568
 30
0.0
  0
VERTEX
  5
AB
330
A6
100
AcDbEntity
  8
Layer 1
 62
    18
420
    65793
370
     9
100
AcDbVertex
100
AcDb2dVertex
 10
14.6923355522376
 20
-15.91929413436138
 30
0.0
  0
VERTEX
  5
AC
330
A6
100
AcDbEntity
  8
Layer 1
 62
    18
420
    65793
370
     9
100
AcDbVertex
100
AcDb2dVertex
 10
14.88400221890428
 20
-16.11096080102804
 30
0.0
  0
VERTEX
  5
AD
330
A6
100
AcDbEntity
  8
Layer 1
 62
    18
420
    65793
370
     9
100
AcDbVertex
100
AcDb2dVertex
 10
15.07580777445983
 20
-16.30276635658361
 30
0.0
  0
VERTEX
  5
AE
330
A6
100
AcDbEntity
  8
Layer 1
 62
    18
420
    65793
370
     9
100
AcDbVertex
100
AcDb2dVertex
 10
15.17969666334871
 20
-16.40665524547249
 30
0.0
  0
SEQEND
  5
AF
330
A6
100
AcDbEntity
  8
Layer 1
 62
    18
420
    65793
370
     9
  0
POLYLINE
  5
B0
330
45
100
AcDbEntity
  8
Layer 1
 62
    18
420
    65793
370
     9
100
AcDb2dPolyline
 66
     1
 10
0.0
 20
0.0
 30
0.0
  0
VERTEX
  5
B1
330
B0
100
AcDbEntity
  8
Layer 1
 62
    18
420
    65793
370
     9
100
AcDbVertex
100
AcDb2dVertex
 10
14.05164110779316
 20
-14.89526635658346
 30
0.0
  0
VERTEX
  5
B2
330
B0
100
AcDbEntity
  8
Layer 1
 62
    18
420
    65793
370
     9
100
AcDbVertex
100
AcDb2dVertex
 10
14.11705777445984
 20
-14.96068302325014
 30
0.0
  0
VERTEX
  5
B3
330
B0
100
AcDbEntity
  8
Layer 1
 62
    18
420
    65793
370
     9
100
AcDbVertex
100
AcDb2dVertex
 10
14.3087244411265
 20
-15.15234968991695
 30
0.0
  0
VERTEX
  5
B4
330
B0
100
AcDbEntity
  8
Layer 1
 62
    18
420
    65793
370
     9
100
AcDbVertex
100
AcDb2dVertex
 10
14.50052999668205
 20
-15.34415524547249
 30
0.0
  0
VERTEX
  5
B5
330
B0
100
AcDbEntity
  8
Layer 1
 62
    18
420
    65793
370
     9
100
AcDbVertex
100
AcDb2dVertex
 10
14.69219666334873
 20
-15.53582191213915
 30
0.0
  0
VERTEX
  5
B6
330
B0
100
AcDbEntity
  8
Layer 1
 62
    18
420
    65793
370
     9
100
AcDbVertex
100
AcDb2dVertex
 10
14.88400221890428
 20
-15.72762746769457
 30
0.0
  0
VERTEX
  5
B7
330
B0
100
AcDbEntity
  8
Layer 1
 62
    18
420
    65793
370
     9
100
AcDbVertex
100
AcDb2dVertex
 10
15.07566888557094
 20
-15.91929413436138
 30
0.0
  0
VERTEX
  5
B8
330
B0
100
AcDbEntity
  8
Layer 1
 62
    18
420
    65793
370
     9
100
AcDbVertex
100
AcDb2dVertex
 10
15.17969666334871
 20
-16.02332191213903
 30
0.0
  0
SEQEND
  5
B9
330
B0
100
AcDbEntity
  8
Layer 1
 62
    18
420
    65793
370
     9
  0
POLYLINE
  5
BA
330
45
100
AcDbEntity
  8
Layer 1
 62
    18
420
    65793
370
     9
100
AcDb2dPolyline
 66
     1
 10
0.0
 20
0.0
 30
0.0
  0
VERTEX
  5
BB
330
BA
100
AcDbEntity
  8
Layer 1
 62
    18
420
    65793
370
     9
100
AcDbVertex
100
AcDb2dVertex
 10
15.17969666334871
 20
-15.63971080102806
 30
0.0
  0
VERTEX
  5
BC
330
BA
100
AcDbEntity
  8
Layer 1
 62
    18
420
    65793
370
     9
100
AcDbVertex
100
AcDb2dVertex
 10
15.07580777445983
 20
-15.53582191213915
 30
0.0
  0
VERTEX
  5
BD
330
BA
100
AcDbEntity
  8
Layer 1
 62
    18
420
    65793
370
     9
100
AcDbVertex
100
AcDb2dVertex
 10
14.88400221890428
 20
-15.34401635658348
 30
0.0
  0
VERTEX
  5
BE
330
BA
100
AcDbEntity
  8
Layer 1
 62
    18
420
    65793
370
     9
100
AcDbVertex
100
AcDb2dVertex
 10
14.6923355522376
 20
-15.15234968991695
 30
0.0
  0
VERTEX
  5
BF
330
BA
100
AcDbEntity
  8
Layer 1
 62
    18
420
    65793
370
     9
100
AcDbVertex
100
AcDb2dVertex
 10
14.50052999668205
 20
-14.96054413436124
 30
0.0
  0
VERTEX
  5
C0
330
BA
100
AcDbEntity
  8
Layer 1
 62
    18
420
    65793
370
     9
100
AcDbVertex
100
AcDb2dVertex
 10
14.30886333001539
 20
-14.76887746769459
 30
0.0
  0
VERTEX
  5
C1
330
BA
100
AcDbEntity
  8
Layer 1
 62
    18
420
    65793
370
     9
100
AcDbVertex
100
AcDb2dVertex
 10
14.11705777445984
 20
-14.57707191213902
 30
0.0
  0
VERTEX
  5
C2
330
BA
100
AcDbEntity
  8
Layer 1
 62
    18
420
    65793
370
     9
100
AcDbVertex
100
AcDb2dVertex
 10
14.03830777445982
 20
-14.49832191213901
 30
0.0
  0
SEQEND
  5
C3
330
BA
100
AcDbEntity
  8
Layer 1
 62
    18
420
    65793
370
     9
  0
POLYLINE
  5
C4
330
45
100
AcDbEntity
  8
Layer 1
 62
    18
420
    65793
370
     9
100
AcDb2dPolyline
 66
     1
 10
0.0
 20
0.0
 30
0.0
  0
VERTEX
  5
C5
330
C4
100
AcDbEntity
  8
Layer 1
 62
    18
420
    65793
370
     9
100
AcDbVertex
100
AcDb2dVertex
 10
15.17566888557095
 20
-15.25234968991693
 30
0.0
  0
VERTEX
  5
C6
330
C4
100
AcDbEntity
  8
Layer 1
 62
    18
420
    65793
370
     9
100
AcDbVertex
100
AcDb2dVertex
 10
15.07566888557094
 20
-15.15234968991695
 30
0.0
  0
VERTEX
  5
C7
330
C4
100
AcDbEntity
  8
Layer 1
 62
    18
420
    65793
370
     9
100
AcDbVertex
100
AcDb2dVertex
 10
14.88400221890428
 20
-14.96068302325014
 30
0.0
  0
VERTEX
  5
C8
330
C4
100
AcDbEntity
  8
Layer 1
 62
    18
420
    65793
370
     9
100
AcDbVertex
100
AcDb2dVertex
 10
14.69219666334873
 20
-14.76887746769459
 30
0.0
  0
VERTEX
  5
C9
330
C4
100
AcDbEntity
  8
Layer 1
 62
    18
420
    65793
370
     9
100
AcDbVertex
100
AcDb2dVertex
 10
14.50052999668205
 20
-14.57721080102791
 30
0.0
  0
VERTEX
  5
CA
330
C4
100
AcDbEntity
  8
Layer 1
 62
    18
420
    65793
370
     9
100
AcDbVertex
100
AcDb2dVertex
 10
14.3087244411265
 20
-14.38540524547236
 30
0.0
  0
VERTEX
  5
CB
330
C4
100
AcDbEntity
  8
Layer 1
 62
    18
420
    65793
370
     9
100
AcDbVertex
100
AcDb2dVertex
 10
14.11705777445984
 20
-14.1937385788057
 30
0.0
  0
VERTEX
  5
CC
330
C4
100
AcDbEntity
  8
Layer 1
 62
    18
420
    65793
370
     9
100
AcDbVertex
100
AcDb2dVertex
 10
14.01830777445984
 20
-14.09498857880569
 30
0.0
  0
SEQEND
  5
CD
330
C4
100
AcDbEntity
  8
Layer 1
 62
    18
420
    65793
370
     9
  0
POLYLINE
  5
CE
330
45
100
AcDbEntity
  8
Layer 1
 62
    18
420
    65793
370
     9
100
AcDb2dPolyline
 66
     1
 10
0.0
 20
0.0
 30
0.0
  0
VERTEX
  5
CF
330
CE
100
AcDbEntity
  8
Layer 1
 62
    18
420
    65793
370
     9
100
AcDbVertex
100
AcDb2dVertex
 10
15.17997444112649
 20
-14.87304413436125
 30
0.0
  0
VERTEX
  5
D0
330
CE
100
AcDbEntity
  8
Layer 1
 62
    18
420
    65793
370
     9
100
AcDbVertex
100
AcDb2dVertex
 10
15.07580777445983
 20
-14.76887746769459
 30
0.0
  0
VERTEX
  5
D1
330
CE
100
AcDbEntity
  8
Layer 1
 62
    18
420
    65793
370
     9
100
AcDbVertex
100
AcDb2dVertex
 10
14.88400221890428
 20
-14.57707191213902
 30
0.0
  0
VERTEX
  5
D2
330
CE
100
AcDbEntity
  8
Layer 1
 62
    18
420
    65793
370
     9
100
AcDbVertex
100
AcDb2dVertex
 10
14.6923355522376
 20
-14.38540524547236
 30
0.0
  0
VERTEX
  5
D3
330
CE
100
AcDbEntity
  8
Layer 1
 62
    18
420
    65793
370
     9
100
AcDbVertex
100
AcDb2dVertex
 10
14.50052999668205
 20
-14.19359968991681
 30
0.0
  0
VERTEX
  5
D4
330
CE
100
AcDbEntity
  8
Layer 1
 62
    18
420
    65793
370
     9
100
AcDbVertex
100
AcDb2dVertex
 10
14.30886333001539
 20
-14.00193302325013
 30
0.0
  0
VERTEX
  5
D5
330
CE
100
AcDbEntity
  8
Layer 1
 62
    18
420
    65793
370
     9
100
AcDbVertex
100
AcDb2dVertex
 10
14.11719666334871
 20
-13.81026635658347
 30
0.0
  0
VERTEX
  5
D6
330
CE
100
AcDbEntity
  8
Layer 1
 62
    18
420
    65793
370
     9
100
AcDbVertex
100
AcDb2dVertex
 10
13.99247444112649
 20
-13.68554413436125
 30
0.0
  0
SEQEND
  5
D7
330
CE
100
AcDbEntity
  8
Layer 1
 62
    18
420
    65793
370
     9
  0
POLYLINE
  5
D8
330
45
100
AcDbEntity
  8
Layer 1
 62
    18
420
    65793
370
     9
100
AcDb2dPolyline
 66
     1
 10
0.0
 20
0.0
 30
0.0
  0
VERTEX
  5
D9
330
D8
100
AcDbEntity
  8
Layer 1
 62
    18
420
    65793
370
     9
100
AcDbVertex
100
AcDb2dVertex
 10
15.19261333001538
 20
-14.5023496899168
 30
0.0
  0
VERTEX
  5
DA
330
D8
100
AcDbEntity
  8
Layer 1
 62
    18
420
    65793
370
     9
100
AcDbVertex
100
AcDb2dVertex
 10
15.07566888557094
 20
-14.38540524547236
 30
0.0
  0
VERTEX
  5
DB
330
D8
100
AcDbEntity
  8
Layer 1
 62
    18
420
    65793
370
     9
100
AcDbVertex
100
AcDb2dVertex
 10
14.88400221890428
 20
-14.1937385788057
 30
0.0
  0
VERTEX
  5
DC
330
D8
100
AcDbEntity
  8
Layer 1
 62
    18
420
    65793
370
     9
100
AcDbVertex
100
AcDb2dVertex
 10
14.69219666334873
 20
-14.00193302325013
 30
0.0
  0
VERTEX
  5
DD
330
D8
100
AcDbEntity
  8
Layer 1
 62
    18
420
    65793
370
     9
100
AcDbVertex
100
AcDb2dVertex
 10
14.50052999668205
 20
-13.81026635658347
 30
0.0
  0
VERTEX
  5
DE
330
D8
100
AcDbEntity
  8
Layer 1
 62
    18
420
    65793
370
     9
100
AcDbVertex
100
AcDb2dVertex
 10
14.30886333001539
 20
-13.61859968991681
 30
0.0
  0
VERTEX
  5
DF
330
D8
100
AcDbEntity
  8
Layer 1
 62
    18
420
    65793
370
     9
100
AcDbVertex
100
AcDb2dVertex
 10
14.11705777445984
 20
-13.42679413436124
 30
0.0
  0
VERTEX
  5
E0
330
D8
100
AcDbEntity
  8
Layer 1
 62
    18
420
    65793
370
     9
100
AcDbVertex
100
AcDb2dVertex
 10
13.96011333001539
 20
-13.26984968991681
 30
0.0
  0
SEQEND
  5
E1
330
D8
100
AcDbEntity
  8
Layer 1
 62
    18
420
    65793
370
     9
  0
POLYLINE
  5
E2
330
45
100
AcDbEntity
  8
Layer 1
 62
    18
420
    65793
370
     9
100
AcDb2dPolyline
 66
     1
 10
0.0
 20
0.0
 30
0.0
  0
VERTEX
  5
E3
330
E2
100
AcDbEntity
  8
Layer 1
 62
    18
420
    65793
370
     9
100
AcDbVertex
100
AcDb2dVertex
 10
15.21052999668206
 20
-14.13693302325014
 30
0.0
  0
VERTEX
  5
E4
330
E2
100
AcDbEntity
  8
Layer 1
 62
    18
420
    65793
370
     9
100
AcDbVertex
100
AcDb2dVertex
 10
15.07566888557094
 20
-14.00207191213902
 30
0.0
  0
VERTEX
  5
E5
330
E2
100
AcDbEntity
  8
Layer 1
 62
    18
420
    65793
370
     9
100
AcDbVertex
100
AcDb2dVertex
 10
14.88386333001539
 20
-13.81026635658347
 30
0.0
  0
VERTEX
  5
E6
330
E2
100
AcDbEntity
  8
Layer 1
 62
    18
420
    65793
370
     9
100
AcDbVertex
100
AcDb2dVertex
 10
14.69219666334873
 20
-13.61859968991681
 30
0.0
  0
VERTEX
  5
E7
330
E2
100
AcDbEntity
  8
Layer 1
 62
    18
420
    65793
370
     9
100
AcDbVertex
100
AcDb2dVertex
 10
14.50052999668205
 20
-13.42693302325026
 30
0.0
  0
VERTEX
  5
E8
330
E2
100
AcDbEntity
  8
Layer 1
 62
    18
420
    65793
370
     9
100
AcDbVertex
100
AcDb2dVertex
 10
14.3087244411265
 20
-13.23512746769458
 30
0.0
  0
VERTEX
  5
E9
330
E2
100
AcDbEntity
  8
Layer 1
 62
    18
420
    65793
370
     9
100
AcDbVertex
100
AcDb2dVertex
 10
14.11705777445984
 20
-13.0434608010279
 30
0.0
  0
VERTEX
  5
EA
330
E2
100
AcDbEntity
  8
Layer 1
 62
    18
420
    65793
370
     9
100
AcDbVertex
100
AcDb2dVertex
 10
13.96511333001539
 20
-12.8915163565836
 30
0.0
  0
SEQEND
  5
EB
330
E2
100
AcDbEntity
  8
Layer 1
 62
    18
420
    65793
370
     9
  0
POLYLINE
  5
EC
330
45
100
AcDbEntity
  8
Layer 1
 62
    18
420
    65793
370
     9
100
AcDb2dPolyline
 66
     1
 10
0.0
 20
0.0
 30
0.0
  0
VERTEX
  5
ED
330
EC
100
AcDbEntity
  8
Layer 1
 62
    18
420
    65793
370
     9
100
AcDbVertex
100
AcDb2dVertex
 10
15.2326133300154
 20
-13.77540524547236
 30
0.0
  0
VERTEX
  5
EE
330
EC
100
AcDbEntity
  8
Layer 1
 62
    18
420
    65793
370
     9
100
AcDbVertex
100
AcDb2dVertex
 10
15.07566888557094
 20
-13.61846080102792
 30
0.0
  0
VERTEX
  5
EF
330
EC
100
AcDbEntity
  8
Layer 1
 62
    18
420
    65793
370
     9
100
AcDbVertex
100
AcDb2dVertex
 10
14.88400221890428
 20
-13.42679413436124
 30
0.0
  0
VERTEX
  5
F0
330
EC
100
AcDbEntity
  8
Layer 1
 62
    18
420
    65793
370
     9
100
AcDbVertex
100
AcDb2dVertex
 10
14.6923355522376
 20
-13.23512746769458
 30
0.0
  0
VERTEX
  5
F1
330
EC
100
AcDbEntity
  8
Layer 1
 62
    18
420
    65793
370
     9
100
AcDbVertex
100
AcDb2dVertex
 10
14.50052999668205
 20
-13.04332191213916
 30
0.0
  0
VERTEX
  5
F2
330
EC
100
AcDbEntity
  8
Layer 1
 62
    18
420
    65793
370
     9
100
AcDbVertex
100
AcDb2dVertex
 10
14.30886333001539
 20
-12.85165524547235
 30
0.0
  0
VERTEX
  5
F3
330
EC
100
AcDbEntity
  8
Layer 1
 62
    18
420
    65793
370
     9
100
AcDbVertex
100
AcDb2dVertex
 10
14.17247444112651
 20
-12.71526635658347
 30
0.0
  0
SEQEND
  5
F4
330
EC
100
AcDbEntity
  8
Layer 1
 62
    18
420
    65793
370
     9
  0
POLYLINE
  5
F5
330
45
100
AcDbEntity
  8
Layer 1
 62
    18
420
    65793
370
     9
100
AcDb2dPolyline
 66
     1
 10
0.0
 20
0.0
 30
0.0
  0
VERTEX
  5
F6
330
F5
100
AcDbEntity
  8
Layer 1
 62
    18
420
    65793
370
     9
100
AcDbVertex
100
AcDb2dVertex
 10
15.2587244411265
 20
-13.41818302325014
 30
0.0
  0
VERTEX
  5
F7
330
F5
100
AcDbEntity
  8
Layer 1
 62
    18
420
    65793
370
     9
100
AcDbVertex
100
AcDb2dVertex
 10
15.07566888557094
 20
-13.23512746769458
 30
0.0
  0
VERTEX
  5
F8
330
F5
100
AcDbEntity
  8
Layer 1
 62
    18
420
    65793
370
     9
100
AcDbVertex
100
AcDb2dVertex
 10
14.88400221890428
 20
-13.0434608010279
 30
0.0
  0
VERTEX
  5
F9
330
F5
100
AcDbEntity
  8
Layer 1
 62
    18
420
    65793
370
     9
100
AcDbVertex
100
AcDb2dVertex
 10
14.69219666334873
 20
-12.85165524547235
 30
0.0
  0
VERTEX
  5
FA
330
F5
100
AcDbEntity
  8
Layer 1
 62
    18
420
    65793
370
     9
100
AcDbVertex
100
AcDb2dVertex
 10
14.54886333001538
 20
-12.70832191213903
 30
0.0
  0
SEQEND
  5
FB
330
F5
100
AcDbEntity
  8
Layer 1
 62
    18
420
    65793
370
     9
  0
POLYLINE
  5
FC
330
45
100
AcDbEntity
  8
Layer 1
 62
    18
420
    65793
370
     9
100
AcDb2dPolyline
 66
     1
 10
0.0
 20
0.0
 30
0.0
  0
VERTEX
  5
FD
330
FC
100
AcDbEntity
  8
Layer 1
 62
    18
420
    65793
370
     9
100
AcDbVertex
100
AcDb2dVertex
 10
15.28897199632205
 20
-13.0654052454725
 30
0.0
  0
VERTEX
  5
FE
330
FC
100
AcDbEntity
  8
Layer 1
 62
    18
420
    65793
370
     9
100
AcDbVertex
100
AcDb2dVertex
 10
15.28897199632205
 20
-13.06526635658348
 30
0.0
  0
VERTEX
  5
FF
330
FC
100
AcDbEntity
  8
Layer 1
 62
    18
420
    65793
370
     9
100
AcDbVertex
100
AcDb2dVertex
 10
15.26688866298871
 20
-13.04332191213916
 30
0.0
  0
VERTEX
  5
100
330
FC
100
AcDbEntity
  8
Layer 1
 62
    18
420
    65793
370
     9
100
AcDbVertex
100
AcDb2dVertex
 10
15.07522199632206
 20
-12.85165524547235
 30
0.0
  0
VERTEX
  5
101
330
FC
100
AcDbEntity
  8
Layer 1
 62
    18
420
    65793
370
     9
100
AcDbVertex
100
AcDb2dVertex
 10
14.93188866298873
 20
-12.70832191213903
 30
0.0
  0
SEQEND
  5
102
330
FC
100
AcDbEntity
  8
Layer 1
 62
    18
420
    65793
370
     9
  0
INSERT
  5
104
330
45
100
AcDbEntity
  8
Layer 1
100
AcDbBlockReference
  2
block 4
 10
0.0
 20
0.0
 30
0.0
  0
ENDBLK
  5
48
330
45
100
AcDbEntity
  8
0
100
AcDbBlockEnd
  0
BLOCK
  5
105
330
103
100
AcDbEntity
  8
0
100
AcDbBlockBegin
  2
block 4
 70
     0
 10
0.0
 20
0.0
 30
0.0
  3
block 4
  1

  0
SPLINE
  5
107
330
103
100
AcDbEntity
  8
Layer 1
 62
   242
420
 13508646
370
     9
100
AcDbSpline
210
0.0
220
0.0
230
1.0
 70
     8
 71
     3
 72
    44
 73
    40
 74
     0
 42
0.0000000001
 43
0.0000000001
 12
1.0
 22
0.0
 32
0.0
 13
1.0
 23
0.0
 33
0.0
 40
0.0
 40
0.0
 40
0.0
 40
0.0
 40
1.0
 40
1.0
 40
1.0
 40
2.0
 40
2.0
 40
2.0
 40
3.0
 40
3.0
 40
3.0
 40
4.0
 40
4.0
 40
4.0
 40
5.0
 40
5.0
 40
5.0
 40
6.0
 40
6.0
 40
6.0
 40
7.0
 40
7.0
 40
7.0
 40
8.0
 40
8.0
 40
8.0
 40
9.0
 40
9.0
 40
9.0
 40
10.0
 40
10.0
 40
10.0
 40
11.0
 40
11.0
 40
11.0
 40
12.0
 40
12.0
 40
12.0
 40
13.0
 40
13.0
 40
13.0
 40
13.0
 10
14.05150221890427
 20
-15.4840163565836
 30
0.0
 10
14.05150221890427
 20
-15.4840163565836
 30
0.0
 10
14.05150221890427
 20
-15.48346080102806
 30
0.0
 10
14.05150221890427
 20
-15.48346080102806
 30
0.0
 10
14.0523355522376
 20
-15.45873857880583
 30
0.0
 10
14.05302999668206
 20
-15.43332191213904
 30
0.0
 10
14.05372444112649
 20
-15.40734968991693
 30
0.0
 10
14.0562244411265
 20
-15.28998857880568
 30
0.0
 10
14.0562244411265
 20
-15.16012746769472
 30
0.0
 10
14.05414110779317
 20
-15.02359968991681
 30
0.0
 10
14.0523355522376
 20
-14.90290524547236
 30
0.0
 10
14.04886333001538
 20
-14.77693302325014
 30
0.0
 10
14.04441888557094
 20
-14.64971080102792
 30
0.0
 10
14.0399744411265
 20
-14.52734968991679
 30
0.0
 10
14.03441888557095
 20
-14.40373857880569
 30
0.0
 10
14.02830777445983
 20
-14.28248857880569
 30
0.0
 10
14.02205777445984
 20
-14.15790524547234
 30
0.0
 10
14.0151133300154
 20
-14.03568302325013
 30
0.0
 10
14.00789110779317
 20
-13.91957191213901
 30
0.0
 10
13.99983555223761
 20
-13.79054413436125
 30
0.0
 10
13.99150221890428
 20
-13.66901635658347
 30
0.0
 10
13.98358555223761
 20
-13.56026635658347
 30
0.0
 10
13.97289110779316
 20
-13.41609968991679
 30
0.0
 10
13.96261333001539
 20
-13.29415524547236
 30
0.0
 10
13.95427999668205
 20
-13.20623857880582
 30
0.0
 10
13.9512244411265
 20
-13.1748496899168
 30
0.0
 10
13.94844666334872
 20
-13.14776635658346
 30
0.0
 10
13.94594666334871
 20
-13.12554413436126
 30
0.0
 10
13.92525221890427
 20
-12.93929413436124
 30
0.0
 10
13.97761333001539
 20
-12.83484968991681
 30
0.0
 10
14.03455777445984
 20
-12.77693302325027
 30
0.0
 10
14.07969666334873
 20
-12.73123857880569
 30
0.0
 10
14.17664110779316
 20
-12.70832191213903
 30
0.0
 10
14.24094666334871
 20
-12.70832191213903
 30
0.0
 10
14.24094666334871
 20
-12.70832191213903
 30
0.0
 10
14.45219666334872
 20
-12.70832191213903
 30
0.0
 10
14.45219666334872
 20
-12.70832191213903
 30
0.0
 10
14.45219666334872
 20
-12.70832191213903
 30
0.0
 10
14.61552999668206
 20
-12.70832191213903
 30
0.0
 10
14.61552999668206
 20
-12.70832191213903
 30
0.0
  0
SPLINE
  5
108
330
103
100
AcDbEntity
  8
Layer 1
 62
   242
420
 13508646
370
     9
100
AcDbSpline
210
0.0
220
0.0
230
1.0
 70
     8
 71
     3
 72
    47
 73
    43
 74
     0
 42
0.0000000001
 43
0.0000000001
 12
1.0
 22
0.0
 32
0.0
 13
1.0
 23
0.0
 33
0.0
 40
0.0
 40
0.0
 40
0.0
 40
0.0
 40
1.0
 40
1.0
 40
1.0
 40
2.0
 40
2.0
 40
2.0
 40
3.0
 40
3.0
 40
3.0
 40
4.0
 40
4.0
 40
4.0
 40
5.0
 40
5.0
 40
5.0
 40
6.0
 40
6.0
 40
6.0
 40
7.0
 40
7.0
 40
7.0
 40
8.0
 40
8.0
 40
8.0
 40
9.0
 40
9.0
 40
9.0
 40
10.0
 40
10.0
 40
10.0
 40
11.0
 40
11.0
 40
11.0
 40
12.0
 40
12.0
 40
12.0
 40
13.0
 40
13.0
 40
13.0
 40
14.0
 40
14.0
 40
14.0
 40
14.0
 10
15.17969666334871
 20
-15.4840163565836
 30
0.0
 10
15.17969666334871
 20
-15.4840163565836
 30
0.0
 10
15.17969666334871
 20
-15.48346080102806
 30
0.0
 10
15.17969666334871
 20
-15.48346080102806
 30
0.0
 10
15.17914110779317
 20
-15.46707191213901
 30
0.0
 10
15.1785855522376
 20
-15.45040524547236
 30
0.0
 10
15.17816888557095
 20
-15.43346080102805
 30
0.0
 10
15.17511333001538
 20
-15.31721080102792
 30
0.0
 10
15.17483555223762
 20
-15.18790524547249
 30
0.0
 10
15.17664110779316
 20
-15.05137746769459
 30
0.0
 10
15.17830777445984
 20
-14.9249885788057
 30
0.0
 10
15.18177999668207
 20
-14.79234968991679
 30
0.0
 10
15.18650221890429
 20
-14.65818302325013
 30
0.0
 10
15.19136333001538
 20
-14.52443302325014
 30
0.0
 10
15.19733555223761
 20
-14.38929413436126
 30
0.0
 10
15.20414110779316
 20
-14.25693302325014
 30
0.0
 10
15.21136333001539
 20
-14.11623857880568
 30
0.0
 10
15.21941888557094
 20
-13.97873857880568
 30
0.0
 10
15.22775221890428
 20
-13.8499885788057
 30
0.0
 10
15.23761333001538
 20
-13.69679413436125
 30
0.0
 10
15.24775221890429
 20
-13.55609968991681
 30
0.0
 10
15.25719666334871
 20
-13.43693302325012
 30
0.0
 10
15.26802999668205
 20
-13.29971080102804
 30
0.0
 10
15.27802999668204
 20
-13.1912385788057
 30
0.0
 10
15.28525221890427
 20
-13.12554413436126
 30
0.0
 10
15.28941888557095
 20
-13.08748857880568
 30
0.0
 10
15.29066888557096
 20
-13.0529052454725
 30
0.0
 10
15.28927999668206
 20
-13.02151635658346
 30
0.0
 10
15.28441888557095
 20
-12.89859968991681
 30
0.0
 10
15.24191888557095
 20
-12.82304413436138
 30
0.0
 10
15.19664110779317
 20
-12.77693302325027
 30
0.0
 10
15.18886333001538
 20
-12.76915524547235
 30
0.0
 10
15.18066888557093
 20
-12.76193302325014
 30
0.0
 10
15.17191888557094
 20
-12.75554413436139
 30
0.0
 10
15.12969666334873
 20
-12.72401635658348
 30
0.0
 10
15.07705777445983
 20
-12.70832191213903
 30
0.0
 10
15.02372444112649
 20
-12.70832191213903
 30
0.0
 10
15.02372444112649
 20
-12.70832191213903
 30
0.0
 10
14.83552999668206
 20
-12.70832191213903
 30
0.0
 10
14.83552999668206
 20
-12.70832191213903
 30
0.0
 10
14.83552999668206
 20
-12.70832191213903
 30
0.0
 10
14.61552999668206
 20
-12.70832191213903
 30
0.0
 10
14.61552999668206
 20
-12.70832191213903
 30
0.0
  0
POLYLINE
  5
109
330
103
100
AcDbEntity
  8
Layer 1
 62
   242
420
 13508646
370
     9
100
AcDb2dPolyline
 66
     1
 10
0.0
 20
0.0
 30
0.0
  0
VERTEX
  5
10A
330
109
100
AcDbEntity
  8
Layer 1
 62
   242
420
 13508646
370
     9
100
AcDbVertex
100
AcDb2dVertex
 10
15.17969666334871
 20
-16.80109968991681
 30
0.0
  0
VERTEX
  5
10B
330
109
100
AcDbEntity
  8
Layer 1
 62
   242
420
 13508646
370
     9
100
AcDbVertex
100
AcDb2dVertex
 10
14.05150198154538
 20
-16.80109968991681
 30
0.0
  0
SEQEND
  5
10C
330
109
100
AcDbEntity
  8
Layer 1
 62
   242
420
 13508646
370
     9
  0
POLYLINE
  5
10D
330
103
100
AcDbEntity
  8
Layer 1
 62
   242
420
 13508646
370
     9
100
AcDb2dPolyline
 66
     1
 10
0.0
 20
0.0
 30
0.0
  0
VERTEX
  5
10E
330
10D
100
AcDbEntity
  8
Layer 1
 62
   242
420
 13508646
370
     9
100
AcDbVertex
100
AcDb2dVertex
 10
15.17969666334871
 20
-16.80109968991681
 30
0.0
  0
VERTEX
  5
10F
330
10D
100
AcDbEntity
  8
Layer 1
 62
   242
420
 13508646
370
     9
100
AcDbVertex
100
AcDb2dVertex
 10
15.17969666334871
 20
-15.48346080102806
 30
0.0
  0
SEQEND
  5
110
330
10D
100
AcDbEntity
  8
Layer 1
 62
   242
420
 13508646
370
     9
  0
POLYLINE
  5
111
330
103
100
AcDbEntity
  8
Layer 1
 62
   242
420
 13508646
370
     9
100
AcDb2dPolyline
 66
     1
 10
0.0
 20
0.0
 30
0.0
  0
VERTEX
  5
112
330
111
100
AcDbEntity
  8
Layer 1
 62
   242
420
 13508646
370
     9
100
AcDbVertex
100
AcDb2dVertex
 10
14.05150198154538
 20
-16.80109968991681
 30
0.0
  0
VERTEX
  5
113
330
111
100
AcDbEntity
  8
Layer 1
 62
   242
420
 13508646
370
     9
100
AcDbVertex
100
AcDb2dVertex
 10
14.05150198154538
 20
-15.48346080102806
 30
0.0
  0
SEQEND
  5
114
330
111
100
AcDbEntity
  8
Layer 1
 62
   242
420
 13508646
370
     9
  0
ENDBLK
  5
106
330
103
100
AcDbEntity
  8
0
100
AcDbBlockEnd
  0
BLOCK
  5
117
330
115
100
AcDbEntity
  8
0
100
AcDbBlockBegin
  2
block 5
 70
     0
 10
0.0
 20
0.0
 30
0.0
  3
block 5
  1

  0
POLYLINE
  5
119
330
115
100
AcDbEntity
  8
Layer 1
 62
    18
420
    65793
370
     9
100
AcDb2dPolyline
 66
     1
 10
0.0
 20
0.0
 30
0.0
  0
VERTEX
  5
11A
330
119
100
AcDbEntity
  8
Layer 1
 62
    18
420
    65793
370
     9
100
AcDbVertex
100
AcDb2dVertex
 10
19.08752274043453
 20
-9.10975730097448
 30
0.0
  0
VERTEX
  5
11B
330
119
100
AcDbEntity
  8
Layer 1
 62
    18
420
    65793
370
     9
100
AcDbVertex
100
AcDb2dVertex
 10
16.09988405432541
 20
-12.0973959857422
 30
0.0
  0
SEQEND
  5
11C
330
119
100
AcDbEntity
  8
Layer 1
 62
    18
420
    65793
370
     9
  0
POLYLINE
  5
11D
330
115
100
AcDbEntity
  8
Layer 1
 62
    18
420
    65793
370
     9
100
AcDb2dPolyline
 66
     1
 10
0.0
 20
0.0
 30
0.0
  0
VERTEX
  5
11E
330
11D
100
AcDbEntity
  8
Layer 1
 62
    18
420
    65793
370
     9
100
AcDbVertex
100
AcDb2dVertex
 10
15.71655021236582
 20
-12.0973959856561
 30
0.0
  0
VERTEX
  5
11F
330
11D
100
AcDbEntity
  8
Layer 1
 62
    18
420
    65793
370
     9
100
AcDbVertex
100
AcDb2dVertex
 10
15.79335617483952
 20
-12.02059087092726
 30
0.0
  0
VERTEX
  5
120
330
11D
100
AcDbEntity
  8
Layer 1
 62
    18
420
    65793
370
     9
100
AcDbVertex
100
AcDb2dVertex
 10
19.0519672188654
 20
-8.761979828364549
 30
0.0
  0
SEQEND
  5
121
330
11D
100
AcDbEntity
  8
Layer 1
 62
    18
420
    65793
370
     9
  0
POLYLINE
  5
122
330
115
100
AcDbEntity
  8
Layer 1
 62
    18
420
    65793
370
     9
100
AcDb2dPolyline
 66
     1
 10
0.0
 20
0.0
 30
0.0
  0
VERTEX
  5
123
330
122
100
AcDbEntity
  8
Layer 1
 62
    18
420
    65793
370
     9
100
AcDbVertex
100
AcDb2dVertex
 10
14.61557819489629
 20
-6.296146494035358
 30
0.0
  0
VERTEX
  5
124
330
122
100
AcDbEntity
  8
Layer 1
 62
    18
420
    65793
370
     9
100
AcDbVertex
100
AcDb2dVertex
 10
13.41752263907188
 20
-7.494202049321845
 30
0.0
  0
SEQEND
  5
125
330
122
100
AcDbEntity
  8
Layer 1
 62
    18
420
    65793
370
     9
  0
POLYLINE
  5
126
330
115
100
AcDbEntity
  8
Layer 1
 62
    18
420
    65793
370
     9
100
AcDb2dPolyline
 66
     1
 10
0.0
 20
0.0
 30
0.0
  0
VERTEX
  5
127
330
126
100
AcDbEntity
  8
Layer 1
 62
    18
420
    65793
370
     9
100
AcDbVertex
100
AcDb2dVertex
 10
15.21030041716603
 20
-6.085035383057604
 30
0.0
  0
VERTEX
  5
128
330
126
100
AcDbEntity
  8
Layer 1
 62
    18
420
    65793
370
     9
100
AcDbVertex
100
AcDb2dVertex
 10
13.18752263893409
 20
-8.107813160381385
 30
0.0
  0
SEQEND
  5
129
330
126
100
AcDbEntity
  8
Layer 1
 62
    18
420
    65793
370
     9
  0
POLYLINE
  5
12A
330
115
100
AcDbEntity
  8
Layer 1
 62
    18
420
    65793
370
     9
100
AcDb2dPolyline
 66
     1
 10
0.0
 20
0.0
 30
0.0
  0
VERTEX
  5
12B
330
12A
100
AcDbEntity
  8
Layer 1
 62
    18
420
    65793
370
     9
100
AcDbVertex
100
AcDb2dVertex
 10
15.6697448616275
 20
-6.008924272049651
 30
0.0
  0
VERTEX
  5
12C
330
12A
100
AcDbEntity
  8
Layer 1
 62
    18
420
    65793
370
     9
100
AcDbVertex
100
AcDb2dVertex
 10
13.09599486104973
 20
-8.582674271471836
 30
0.0
  0
SEQEND
  5
12D
330
12A
100
AcDbEntity
  8
Layer 1
 62
    18
420
    65793
370
     9
  0
POLYLINE
  5
12E
330
115
100
AcDbEntity
  8
Layer 1
 62
    18
420
    65793
370
     9
100
AcDb2dPolyline
 66
     1
 10
0.0
 20
0.0
 30
0.0
  0
VERTEX
  5
12F
330
12E
100
AcDbEntity
  8
Layer 1
 62
    18
420
    65793
370
     9
100
AcDbVertex
100
AcDb2dVertex
 10
16.07210597274277
 20
-5.990174272140065
 30
0.0
  0
VERTEX
  5
130
330
12E
100
AcDbEntity
  8
Layer 1
 62
    18
420
    65793
370
     9
100
AcDbVertex
100
AcDb2dVertex
 10
13.04363374984074
 20
-9.018646493682429
 30
0.0
  0
SEQEND
  5
131
330
12E
100
AcDbEntity
  8
Layer 1
 62
    18
420
    65793
370
     9
  0
POLYLINE
  5
132
330
115
100
AcDbEntity
  8
Layer 1
 62
    18
420
    65793
370
     9
100
AcDb2dPolyline
 66
     1
 10
0.0
 20
0.0
 30
0.0
  0
VERTEX
  5
133
330
132
100
AcDbEntity
  8
Layer 1
 62
    18
420
    65793
370
     9
100
AcDbVertex
100
AcDb2dVertex
 10
16.43821708385008
 20
-6.007396494444416
 30
0.0
  0
VERTEX
  5
134
330
132
100
AcDbEntity
  8
Layer 1
 62
    18
420
    65793
370
     9
100
AcDbVertex
100
AcDb2dVertex
 10
13.01710597197095
 20
-9.428507604787606
 30
0.0
  0
SEQEND
  5
135
330
132
100
AcDbEntity
  8
Layer 1
 62
    18
420
    65793
370
     9
  0
POLYLINE
  5
136
330
115
100
AcDbEntity
  8
Layer 1
 62
    18
420
    65793
370
     9
100
AcDb2dPolyline
 66
     1
 10
0.0
 20
0.0
 30
0.0
  0
VERTEX
  5
137
330
136
100
AcDbEntity
  8
Layer 1
 62
    18
420
    65793
370
     9
100
AcDbVertex
100
AcDb2dVertex
 10
16.77391152828376
 20
-6.055035383408645
 30
0.0
  0
VERTEX
  5
138
330
136
100
AcDbEntity
  8
Layer 1
 62
    18
420
    65793
370
     9
100
AcDbVertex
100
AcDb2dVertex
 10
13.01474486077331
 20
-9.8142020492314
 30
0.0
  0
SEQEND
  5
139
330
136
100
AcDbEntity
  8
Layer 1
 62
    18
420
    65793
370
     9
  0
POLYLINE
  5
13A
330
115
100
AcDbEntity
  8
Layer 1
 62
    18
420
    65793
370
     9
100
AcDb2dPolyline
 66
     1
 10
0.0
 20
0.0
 30
0.0
  0
VERTEX
  5
13B
330
13A
100
AcDbEntity
  8
Layer 1
 62
    18
420
    65793
370
     9
100
AcDbVertex
100
AcDb2dVertex
 10
17.08210597271121
 20
-6.130452050144577
 30
0.0
  0
VERTEX
  5
13C
330
13A
100
AcDbEntity
  8
Layer 1
 62
    18
420
    65793
370
     9
100
AcDbVertex
100
AcDb2dVertex
 10
13.04349486069357
 20
-10.16906316034907
 30
0.0
  0
SEQEND
  5
13D
330
13A
100
AcDbEntity
  8
Layer 1
 62
    18
420
    65793
370
     9
  0
POLYLINE
  5
13E
330
115
100
AcDbEntity
  8
Layer 1
 62
    18
420
    65793
370
     9
100
AcDb2dPolyline
 66
     1
 10
0.0
 20
0.0
 30
0.0
  0
VERTEX
  5
13F
330
13E
100
AcDbEntity
  8
Layer 1
 62
    18
420
    65793
370
     9
100
AcDbVertex
100
AcDb2dVertex
 10
17.36460597268863
 20
-6.231285383541275
 30
0.0
  0
VERTEX
  5
140
330
13E
100
AcDbEntity
  8
Layer 1
 62
    18
420
    65793
370
     9
100
AcDbVertex
100
AcDb2dVertex
 10
13.10613374951049
 20
-10.48975760480756
 30
0.0
  0
SEQEND
  5
141
330
13E
100
AcDbEntity
  8
Layer 1
 62
    18
420
    65793
370
     9
  0
POLYLINE
  5
142
330
115
100
AcDbEntity
  8
Layer 1
 62
    18
420
    65793
370
     9
100
AcDb2dPolyline
 66
     1
 10
0.0
 20
0.0
 30
0.0
  0
VERTEX
  5
143
330
142
100
AcDbEntity
  8
Layer 1
 62
    18
420
    65793
370
     9
100
AcDbVertex
100
AcDb2dVertex
 10
17.62349486154954
 20
-6.356007605821648
 30
0.0
  0
VERTEX
  5
144
330
142
100
AcDbEntity
  8
Layer 1
 62
    18
420
    65793
370
     9
100
AcDbVertex
100
AcDb2dVertex
 10
13.20321708277955
 20
-10.77628538260713
 30
0.0
  0
SEQEND
  5
145
330
142
100
AcDbEntity
  8
Layer 1
 62
    18
420
    65793
370
     9
  0
POLYLINE
  5
146
330
115
100
AcDbEntity
  8
Layer 1
 62
    18
420
    65793
370
     9
100
AcDb2dPolyline
 66
     1
 10
0.0
 20
0.0
 30
0.0
  0
VERTEX
  5
147
330
146
100
AcDbEntity
  8
Layer 1
 62
    18
420
    65793
370
     9
100
AcDbVertex
100
AcDb2dVertex
 10
17.85988375040559
 20
-6.502952050319069
 30
0.0
  0
VERTEX
  5
148
330
146
100
AcDbEntity
  8
Layer 1
 62
    18
420
    65793
370
     9
100
AcDbVertex
100
AcDb2dVertex
 10
13.3312726382778
 20
-11.03156316041367
 30
0.0
  0
SEQEND
  5
149
330
146
100
AcDbEntity
  8
Layer 1
 62
    18
420
    65793
370
     9
  0
POLYLINE
  5
14A
330
115
100
AcDbEntity
  8
Layer 1
 62
    18
420
    65793
370
     9
100
AcDb2dPolyline
 66
     1
 10
0.0
 20
0.0
 30
0.0
  0
VERTEX
  5
14B
330
14A
100
AcDbEntity
  8
Layer 1
 62
    18
420
    65793
370
     9
100
AcDbVertex
100
AcDb2dVertex
 10
18.07502263925663
 20
-6.671424272589572
 30
0.0
  0
VERTEX
  5
14C
330
14A
100
AcDbEntity
  8
Layer 1
 62
    18
420
    65793
370
     9
100
AcDbVertex
100
AcDb2dVertex
 10
13.48474486044832
 20
-11.26170204933697
 30
0.0
  0
SEQEND
  5
14D
330
14A
100
AcDbEntity
  8
Layer 1
 62
    18
420
    65793
370
     9
  0
POLYLINE
  5
14E
330
115
100
AcDbEntity
  8
Layer 1
 62
    18
420
    65793
370
     9
100
AcDb2dPolyline
 66
     1
 10
0.0
 20
0.0
 30
0.0
  0
VERTEX
  5
14F
330
14E
100
AcDbEntity
  8
Layer 1
 62
    18
420
    65793
370
     9
100
AcDbVertex
100
AcDb2dVertex
 10
18.26932819476954
 20
-6.860452050411077
 30
0.0
  0
VERTEX
  5
150
330
14E
100
AcDbEntity
  8
Layer 1
 62
    18
420
    65793
370
     9
100
AcDbVertex
100
AcDb2dVertex
 10
13.65905041595698
 20
-11.47072982715389
 30
0.0
  0
SEQEND
  5
151
330
14E
100
AcDbEntity
  8
Layer 1
 62
    18
420
    65793
370
     9
  0
POLYLINE
  5
152
330
115
100
AcDbEntity
  8
Layer 1
 62
    18
420
    65793
370
     9
100
AcDb2dPolyline
 66
     1
 10
0.0
 20
0.0
 30
0.0
  0
VERTEX
  5
153
330
152
100
AcDbEntity
  8
Layer 1
 62
    18
420
    65793
370
     9
100
AcDbVertex
100
AcDb2dVertex
 10
18.44363375027822
 20
-7.069479828227915
 30
0.0
  0
VERTEX
  5
154
330
152
100
AcDbEntity
  8
Layer 1
 62
    18
420
    65793
370
     9
100
AcDbVertex
100
AcDb2dVertex
 10
13.85182819369202
 20
-11.66128538275272
 30
0.0
  0
SEQEND
  5
155
330
152
100
AcDbEntity
  8
Layer 1
 62
    18
420
    65793
370
     9
  0
POLYLINE
  5
156
330
115
100
AcDbEntity
  8
Layer 1
 62
    18
420
    65793
370
     9
100
AcDb2dPolyline
 66
     1
 10
0.0
 20
0.0
 30
0.0
  0
VERTEX
  5
157
330
156
100
AcDbEntity
  8
Layer 1
 62
    18
420
    65793
370
     9
100
AcDbVertex
100
AcDb2dVertex
 10
18.59807819467126
 20
-7.298646494929294
 30
0.0
  0
VERTEX
  5
158
330
156
100
AcDbEntity
  8
Layer 1
 62
    18
420
    65793
370
     9
100
AcDbVertex
100
AcDb2dVertex
 10
14.06224486031968
 20
-11.83447982724437
 30
0.0
  0
SEQEND
  5
159
330
156
100
AcDbEntity
  8
Layer 1
 62
    18
420
    65793
370
     9
  0
POLYLINE
  5
15A
330
115
100
AcDbEntity
  8
Layer 1
 62
    18
420
    65793
370
     9
100
AcDb2dPolyline
 66
     1
 10
0.0
 20
0.0
 30
0.0
  0
VERTEX
  5
15B
330
15A
100
AcDbEntity
  8
Layer 1
 62
    18
420
    65793
370
     9
100
AcDbVertex
100
AcDb2dVertex
 10
18.73224486128202
 20
-7.547813161626158
 30
0.0
  0
VERTEX
  5
15C
330
15A
100
AcDbEntity
  8
Layer 1
 62
    18
420
    65793
370
     9
100
AcDbVertex
100
AcDb2dVertex
 10
14.28946708250697
 20
-11.99059093840649
 30
0.0
  0
SEQEND
  5
15D
330
15A
100
AcDbEntity
  8
Layer 1
 62
    18
420
    65793
370
     9
  0
POLYLINE
  5
15E
330
115
100
AcDbEntity
  8
Layer 1
 62
    18
420
    65793
370
     9
100
AcDb2dPolyline
 66
     1
 10
0.0
 20
0.0
 30
0.0
  0
VERTEX
  5
15F
330
15E
100
AcDbEntity
  8
Layer 1
 62
    18
420
    65793
370
     9
100
AcDbVertex
100
AcDb2dVertex
 10
18.84557819455474
 20
-7.818090939429301
 30
0.0
  0
VERTEX
  5
160
330
15E
100
AcDbEntity
  8
Layer 1
 62
    18
420
    65793
370
     9
100
AcDbVertex
100
AcDb2dVertex
 10
14.56627263803855
 20
-12.09739649402422
 30
0.0
  0
SEQEND
  5
161
330
15E
100
AcDbEntity
  8
Layer 1
 62
    18
420
    65793
370
     9
  0
POLYLINE
  5
162
330
115
100
AcDbEntity
  8
Layer 1
 62
    18
420
    65793
370
     9
100
AcDb2dPolyline
 66
     1
 10
0.0
 20
0.0
 30
0.0
  0
VERTEX
  5
163
330
162
100
AcDbEntity
  8
Layer 1
 62
    18
420
    65793
370
     9
100
AcDbVertex
100
AcDb2dVertex
 10
18.93668930560009
 20
-8.110313161671986
 30
0.0
  0
VERTEX
  5
164
330
162
100
AcDbEntity
  8
Layer 1
 62
    18
420
    65793
370
     9
100
AcDbVertex
100
AcDb2dVertex
 10
14.94960597137179
 20
-12.09739649411027
 30
0.0
  0
SEQEND
  5
165
330
162
100
AcDbEntity
  8
Layer 1
 62
    18
420
    65793
370
     9
  0
POLYLINE
  5
166
330
115
100
AcDbEntity
  8
Layer 1
 62
    18
420
    65793
370
     9
100
AcDb2dPolyline
 66
     1
 10
0.0
 20
0.0
 30
0.0
  0
VERTEX
  5
167
330
166
100
AcDbEntity
  8
Layer 1
 62
    18
420
    65793
370
     9
100
AcDbVertex
100
AcDb2dVertex
 10
19.00307819441794
 20
-8.427535383909166
 30
0.0
  0
VERTEX
  5
168
330
166
100
AcDbEntity
  8
Layer 1
 62
    18
420
    65793
370
     9
100
AcDbVertex
100
AcDb2dVertex
 10
15.33321708248304
 20
-12.0973964941964
 30
0.0
  0
SEQEND
  5
169
330
166
100
AcDbEntity
  8
Layer 1
 62
    18
420
    65793
370
     9
  0
POLYLINE
  5
16A
330
115
100
AcDbEntity
  8
Layer 1
 62
    18
420
    65793
370
     9
100
AcDb2dPolyline
 66
     1
 10
0.0
 20
0.0
 30
0.0
  0
VERTEX
  5
16B
330
16A
100
AcDbEntity
  8
Layer 1
 62
    18
420
    65793
370
     9
100
AcDbVertex
100
AcDb2dVertex
 10
19.10710597187472
 20
-9.857118717265747
 30
0.0
  0
VERTEX
  5
16C
330
16A
100
AcDbEntity
  8
Layer 1
 62
    18
420
    65793
370
     9
100
AcDbVertex
100
AcDb2dVertex
 10
16.86682819359415
 20
-12.09739649454066
 30
0.0
  0
SEQEND
  5
16D
330
16A
100
AcDbEntity
  8
Layer 1
 62
    18
420
    65793
370
     9
  0
POLYLINE
  5
16E
330
115
100
AcDbEntity
  8
Layer 1
 62
    18
420
    65793
370
     9
100
AcDb2dPolyline
 66
     1
 10
0.0
 20
0.0
 30
0.0
  0
VERTEX
  5
16F
330
16E
100
AcDbEntity
  8
Layer 1
 62
    18
420
    65793
370
     9
100
AcDbVertex
100
AcDb2dVertex
 10
17.25043930470525
 20
-12.09739649462676
 30
0.0
  0
VERTEX
  5
170
330
16E
100
AcDbEntity
  8
Layer 1
 62
    18
420
    65793
370
     9
100
AcDbVertex
100
AcDb2dVertex
 10
19.06196708288965
 20
-10.28600760614454
 30
0.0
  0
VERTEX
  5
171
330
16E
100
AcDbEntity
  8
Layer 1
 62
    18
420
    65793
370
     9
100
AcDbVertex
100
AcDb2dVertex
 10
19.06196708288965
 20
-10.28586871725568
 30
0.0
  0
SEQEND
  5
172
330
16E
100
AcDbEntity
  8
Layer 1
 62
    18
420
    65793
370
     9
  0
POLYLINE
  5
173
330
115
100
AcDbEntity
  8
Layer 1
 62
    18
420
    65793
370
     9
100
AcDb2dPolyline
 66
     1
 10
0.0
 20
0.0
 30
0.0
  0
VERTEX
  5
174
330
173
100
AcDbEntity
  8
Layer 1
 62
    18
420
    65793
370
     9
100
AcDbVertex
100
AcDb2dVertex
 10
18.89321708276568
 20
-10.83795205055111
 30
0.0
  0
VERTEX
  5
175
330
173
100
AcDbEntity
  8
Layer 1
 62
    18
420
    65793
370
     9
100
AcDbVertex
100
AcDb2dVertex
 10
17.63377263803859
 20
-12.09739649471286
 30
0.0
  0
SEQEND
  5
176
330
173
100
AcDbEntity
  8
Layer 1
 62
    18
420
    65793
370
     9
  0
SPLINE
  5
177
330
115
100
AcDbEntity
  8
Layer 1
 62
   242
420
 13508646
370
     9
100
AcDbSpline
210
0.0
220
0.0
230
1.0
 70
     8
 71
     3
 72
    35
 73
    31
 74
     0
 42
0.0000000001
 43
0.0000000001
 12
1.0
 22
0.0
 32
0.0
 13
1.0
 23
0.0
 33
0.0
 40
0.0
 40
0.0
 40
0.0
 40
0.0
 40
1.0
 40
1.0
 40
1.0
 40
2.0
 40
2.0
 40
2.0
 40
3.0
 40
3.0
 40
3.0
 40
4.0
 40
4.0
 40
4.0
 40
5.0
 40
5.0
 40
5.0
 40
6.0
 40
6.0
 40
6.0
 40
7.0
 40
7.0
 40
7.0
 40
8.0
 40
8.0
 40
8.0
 40
9.0
 40
9.0
 40
9.0
 40
10.0
 40
10.0
 40
10.0
 40
10.0
 10
16.06172050754832
 20
-16.19017362787768
 30
0.0
 10
16.06172050754832
 20
-16.19017362787768
 30
0.0
 10
16.43639501082415
 20
-16.19017362796181
 30
0.0
 10
16.43639501082415
 20
-16.19017362796181
 30
0.0
 10
16.5006690698033
 20
-16.19017362797621
 30
0.0
 10
16.59760339784487
 20
-16.16729966606049
 30
0.0
 10
16.64270666142349
 20
-16.12150828835423
 30
0.0
 10
16.69968752047551
 20
-16.06365810564342
 30
0.0
 10
16.75201755752465
 20
-15.9591557565945
 30
0.0
 10
16.7313268917033
 20
-15.77293976382018
 30
0.0
 10
16.69028749530652
 20
-15.40358519549578
 30
0.0
 10
16.56716930625506
 20
-13.67993054333068
 30
0.0
 10
16.64924973633305
 20
-13.10536753446056
 30
0.0
 10
16.72822329317566
 20
-12.55261959426765
 30
0.0
 10
17.27731163956191
 20
-12.30802351265025
 30
0.0
 10
17.70692174364775
 20
-12.06611030778393
 30
0.0
 10
18.28061972808743
 20
-11.74306119714912
 30
0.0
 10
18.7986873812338
 20
-11.2172700535542
 30
0.0
 10
18.99305662470968
 20
-10.5756064132195
 30
0.0
 10
19.12633052292027
 20
-10.13557666151718
 30
0.0
 10
19.12429254331667
 20
-9.671701221031954
 30
0.0
 10
19.09529627679429
 20
-9.216826370310374
 30
0.0
 10
19.07753823907168
 20
-8.93824965244375
 30
0.0
 10
19.04317767574245
 20
-8.660981717260533
 30
0.0
 10
18.99603742297899
 20
-8.38584877971314
 30
0.0
 10
18.99603742297899
 20
-8.38584877971314
 30
0.0
 10
18.9960373575819
 20
-8.385848398025093
 30
0.0
 10
18.9960373575819
 20
-8.385848398025093
 30
0.0
 10
18.79084037545173
 20
-7.195705900074623
 30
0.0
 10
17.9290130496536
 20
-5.990173628296916
 30
0.0
 10
16.06172050983805
 20
-5.990173627877639
 30
0.0
  0
SPLINE
  5
178
330
115
100
AcDbEntity
  8
Layer 1
 62
   242
420
 13508646
370
     9
100
AcDbSpline
210
0.0
220
0.0
230
1.0
 70
     8
 71
     3
 72
    35
 73
    31
 74
     0
 42
0.0000000001
 43
0.0000000001
 12
1.0
 22
0.0
 32
0.0
 13
1.0
 23
0.0
 33
0.0
 40
0.0
 40
0.0
 40
0.0
 40
0.0
 40
1.0
 40
1.0
 40
1.0
 40
2.0
 40
2.0
 40
2.0
 40
3.0
 40
3.0
 40
3.0
 40
4.0
 40
4.0
 40
4.0
 40
5.0
 40
5.0
 40
5.0
 40
6.0
 40
6.0
 40
6.0
 40
7.0
 40
7.0
 40
7.0
 40
8.0
 40
8.0
 40
8.0
 40
9.0
 40
9.0
 40
9.0
 40
10.0
 40
10.0
 40
10.0
 40
10.0
 10
16.06172050724497
 20
-16.19017362787768
 30
0.0
 10
16.06172050724497
 20
-16.19017362787768
 30
0.0
 10
15.65355026533972
 20
-16.1901736277692
 30
0.0
 10
15.65355026533972
 20
-16.1901736277692
 30
0.0
 10
15.58927620636041
 20
-16.19017362775197
 30
0.0
 10
15.52583761695961
 20
-16.16729966579737
 30
0.0
 10
15.48073435340363
 20
-16.12150828806885
 30
0.0
 10
15.42375349438008
 20
-16.0636581053298
 30
0.0
 10
15.37142345738256
 20
-15.95915575625511
 30
0.0
 10
15.3921141232962
 20
-15.77293976349092
 30
0.0
 10
15.433153519875
 20
-15.40358519518683
 30
0.0
 10
15.55627170977767
 20
-13.67993054308259
 30
0.0
 10
15.47419127998349
 20
-13.10536753417189
 30
0.0
 10
15.39521772341398
 20
-12.55261959393995
 30
0.0
 10
14.8461293771485
 20
-12.30802351204994
 30
0.0
 10
14.41651927318217
 20
-12.06611030697137
 30
0.0
 10
13.84282128890211
 20
-11.7430611960532
 30
0.0
 10
13.32475363601528
 20
-11.21727005220254
 30
0.0
 10
13.13038439285629
 20
-10.57560641177181
 30
0.0
 10
12.99711049486292
 20
-10.13557666000368
 30
0.0
 10
12.99914847469567
 20
-9.671701219519464
 30
0.0
 10
13.02814474144263
 20
-9.216826368812285
 30
0.0
 10
13.04590277930281
 20
-8.9382496509542
 30
0.0
 10
13.08026334276918
 20
-8.660981715788113
 30
0.0
 10
13.12740359566861
 20
-8.385848778264087
 30
0.0
 10
13.12740359566861
 20
-8.385848778264087
 30
0.0
 10
13.12740366106555
 20
-8.38584839657589
 30
0.0
 10
13.12740366106555
 20
-8.38584839657589
 30
0.0
 10
13.33260064378348
 20
-7.195705898726638
 30
0.0
 10
14.19442797017695
 20
-5.99017362737479
 30
0.0
 10
16.06172050999251
 20
-5.990173627877639
 30
0.0
  0
POLYLINE
  5
179
330
115
100
AcDbEntity
  8
Layer 1
 62
    18
420
    65793
370
     9
100
AcDb2dPolyline
 66
     1
 10
0.0
 20
0.0
 30
0.0
  0
VERTEX
  5
17A
330
179
100
AcDbEntity
  8
Layer 1
 62
    18
420
    65793
370
     9
100
AcDbVertex
100
AcDb2dVertex
 10
19.10793984782905
 20
-9.472952084507723
 30
0.0
  0
VERTEX
  5
17B
330
179
100
AcDbEntity
  8
Layer 1
 62
    18
420
    65793
370
     9
100
AcDbVertex
100
AcDb2dVertex
 10
16.4834950976197
 20
-12.09739598582827
 30
0.0
  0
SEQEND
  5
17C
330
179
100
AcDbEntity
  8
Layer 1
 62
    18
420
    65793
370
     9
  0
POLYLINE
  5
17D
330
115
100
AcDbEntity
  8
Layer 1
 62
    18
420
    65793
370
     9
100
AcDb2dPolyline
 66
     1
 10
0.0
 20
0.0
 30
0.0
  0
VERTEX
  5
17E
330
17D
100
AcDbEntity
  8
Layer 1
 62
    18
420
    65793
370
     9
100
AcDbVertex
100
AcDb2dVertex
 10
14.47280041581634
 20
-12.09739649400325
 30
0.0
  0
VERTEX
  5
17F
330
17D
100
AcDbEntity
  8
Layer 1
 62
    18
420
    65793
370
     9
100
AcDbVertex
100
AcDb2dVertex
 10
17.65071708248302
 20
-12.09739649471665
 30
0.0
  0
SEQEND
  5
180
330
17D
100
AcDbEntity
  8
Layer 1
 62
    18
420
    65793
370
     9
  0
ENDBLK
  5
118
330
115
100
AcDbEntity
  8
0
100
AcDbBlockEnd
  0
BLOCK
  5
183
330
181
100
AcDbEntity
  8
0
100
AcDbBlockBegin
  2
block 6
 70
     0
 10
0.0
 20
0.0
 30
0.0
  3
block 6
  1

  0
POLYLINE
  5
185
330
181
100
AcDbEntity
  8
Layer 1
 62
    18
420
    65793
370
     9
100
AcDb2dPolyline
 66
     1
 10
0.0
 20
0.0
 30
0.0
  0
VERTEX
  5
186
330
185
100
AcDbEntity
  8
Layer 1
 62
    18
420
    65793
370
     9
100
AcDbVertex
100
AcDb2dVertex
 10
21.94908355923351
 20
-8.516539198971941
 30
0.0
  0
VERTEX
  5
187
330
185
100
AcDbEntity
  8
Layer 1
 62
    18
420
    65793
370
     9
100
AcDbVertex
100
AcDb2dVertex
 10
21.94908355923351
 20
-8.515983643416524
 30
0.0
  0
SEQEND
  5
188
330
185
100
AcDbEntity
  8
Layer 1
 62
    18
420
    65793
370
     9
  0
POLYLINE
  5
189
330
181
100
AcDbEntity
  8
Layer 1
 62
    18
420
    65793
370
     9
100
AcDb2dPolyline
 66
     1
 10
0.0
 20
0.0
 30
0.0
  0
VERTEX
  5
18A
330
189
100
AcDbEntity
  8
Layer 1
 62
    18
420
    65793
370
     9
100
AcDbVertex
100
AcDb2dVertex
 10
20.8203033366513
 20
-8.516539198971941
 30
0.0
  0
VERTEX
  5
18B
330
189
100
AcDbEntity
  8
Layer 1
 62
    18
420
    65793
370
     9
100
AcDbVertex
100
AcDb2dVertex
 10
20.8203033366513
 20
-8.515983643416398
 30
0.0
  0
SEQEND
  5
18C
330
189
100
AcDbEntity
  8
Layer 1
 62
    18
420
    65793
370
     9
  0
POLYLINE
  5
18D
330
181
100
AcDbEntity
  8
Layer 1
 62
    18
420
    65793
370
     9
100
AcDb2dPolyline
 66
     1
 10
0.0
 20
0.0
 30
0.0
  0
VERTEX
  5
18E
330
18D
100
AcDbEntity
  8
Layer 1
 62
    18
420
    65793
370
     9
100
AcDbVertex
100
AcDb2dVertex
 10
20.8203033366513
 20
-7.417789198971958
 30
0.0
  0
VERTEX
  5
18F
330
18D
100
AcDbEntity
  8
Layer 1
 62
    18
420
    65793
370
     9
100
AcDbVertex
100
AcDb2dVertex
 10
20.92433111442905
 20
-7.313761421194309
 30
0.0
  0
VERTEX
  5
190
330
18D
100
AcDbEntity
  8
Layer 1
 62
    18
420
    65793
370
     9
100
AcDbVertex
100
AcDb2dVertex
 10
21.03919222554017
 20
-7.198900310083192
 30
0.0
  0
SEQEND
  5
191
330
18D
100
AcDbEntity
  8
Layer 1
 62
    18
420
    65793
370
     9
  0
POLYLINE
  5
192
330
181
100
AcDbEntity
  8
Layer 1
 62
    18
420
    65793
370
     9
100
AcDb2dPolyline
 66
     1
 10
0.0
 20
0.0
 30
0.0
  0
VERTEX
  5
193
330
192
100
AcDbEntity
  8
Layer 1
 62
    18
420
    65793
370
     9
100
AcDbVertex
100
AcDb2dVertex
 10
20.8203033366513
 20
-7.801122532305422
 30
0.0
  0
VERTEX
  5
194
330
192
100
AcDbEntity
  8
Layer 1
 62
    18
420
    65793
370
     9
100
AcDbVertex
100
AcDb2dVertex
 10
20.92419222554018
 20
-7.697233643416388
 30
0.0
  0
VERTEX
  5
195
330
192
100
AcDbEntity
  8
Layer 1
 62
    18
420
    65793
370
     9
100
AcDbVertex
100
AcDb2dVertex
 10
21.1159977810957
 20
-7.505428087860966
 30
0.0
  0
VERTEX
  5
196
330
192
100
AcDbEntity
  8
Layer 1
 62
    18
420
    65793
370
     9
100
AcDbVertex
100
AcDb2dVertex
 10
21.30766444776241
 20
-7.313761421194309
 30
0.0
  0
VERTEX
  5
197
330
192
100
AcDbEntity
  8
Layer 1
 62
    18
420
    65793
370
     9
100
AcDbVertex
100
AcDb2dVertex
 10
21.42252555887348
 20
-7.198900310083192
 30
0.0
  0
SEQEND
  5
198
330
192
100
AcDbEntity
  8
Layer 1
 62
    18
420
    65793
370
     9
  0
POLYLINE
  5
199
330
181
100
AcDbEntity
  8
Layer 1
 62
    18
420
    65793
370
     9
100
AcDb2dPolyline
 66
     1
 10
0.0
 20
0.0
 30
0.0
  0
VERTEX
  5
19A
330
199
100
AcDbEntity
  8
Layer 1
 62
    18
420
    65793
370
     9
100
AcDbVertex
100
AcDb2dVertex
 10
20.8203033366513
 20
-8.18473364341652
 30
0.0
  0
VERTEX
  5
19B
330
199
100
AcDbEntity
  8
Layer 1
 62
    18
420
    65793
370
     9
100
AcDbVertex
100
AcDb2dVertex
 10
20.92433111442905
 20
-8.080705865638619
 30
0.0
  0
VERTEX
  5
19C
330
199
100
AcDbEntity
  8
Layer 1
 62
    18
420
    65793
370
     9
100
AcDbVertex
100
AcDb2dVertex
 10
21.1159977810957
 20
-7.889039198971962
 30
0.0
  0
VERTEX
  5
19D
330
199
100
AcDbEntity
  8
Layer 1
 62
    18
420
    65793
370
     9
100
AcDbVertex
100
AcDb2dVertex
 10
21.30780333665128
 20
-7.697233643416388
 30
0.0
  0
VERTEX
  5
19E
330
199
100
AcDbEntity
  8
Layer 1
 62
    18
420
    65793
370
     9
100
AcDbVertex
100
AcDb2dVertex
 10
21.49947000331793
 20
-7.505566976749732
 30
0.0
  0
VERTEX
  5
19F
330
199
100
AcDbEntity
  8
Layer 1
 62
    18
420
    65793
370
     9
100
AcDbVertex
100
AcDb2dVertex
 10
21.69127555887351
 20
-7.313761421194309
 30
0.0
  0
VERTEX
  5
1A0
330
199
100
AcDbEntity
  8
Layer 1
 62
    18
420
    65793
370
     9
100
AcDbVertex
100
AcDb2dVertex
 10
21.80613666998463
 20
-7.198900310083192
 30
0.0
  0
SEQEND
  5
1A1
330
199
100
AcDbEntity
  8
Layer 1
 62
    18
420
    65793
370
     9
  0
POLYLINE
  5
1A2
330
181
100
AcDbEntity
  8
Layer 1
 62
    18
420
    65793
370
     9
100
AcDb2dPolyline
 66
     1
 10
0.0
 20
0.0
 30
0.0
  0
VERTEX
  5
1A3
330
1A2
100
AcDbEntity
  8
Layer 1
 62
    18
420
    65793
370
     9
100
AcDbVertex
100
AcDb2dVertex
 10
21.94849778109574
 20
-7.439872532305293
 30
0.0
  0
VERTEX
  5
1A4
330
1A2
100
AcDbEntity
  8
Layer 1
 62
    18
420
    65793
370
     9
100
AcDbVertex
100
AcDb2dVertex
 10
20.82183111442903
 20
-8.566539198971945
 30
0.0
  0
SEQEND
  5
1A5
330
1A2
100
AcDbEntity
  8
Layer 1
 62
    18
420
    65793
370
     9
  0
POLYLINE
  5
1A6
330
181
100
AcDbEntity
  8
Layer 1
 62
    18
420
    65793
370
     9
100
AcDb2dPolyline
 66
     1
 10
0.0
 20
0.0
 30
0.0
  0
VERTEX
  5
1A7
330
1A6
100
AcDbEntity
  8
Layer 1
 62
    18
420
    65793
370
     9
100
AcDbVertex
100
AcDb2dVertex
 10
21.94849778109574
 20
-7.82348364341639
 30
0.0
  0
VERTEX
  5
1A8
330
1A6
100
AcDbEntity
  8
Layer 1
 62
    18
420
    65793
370
     9
100
AcDbVertex
100
AcDb2dVertex
 10
20.82335889220682
 20
-8.948622532305409
 30
0.0
  0
SEQEND
  5
1A9
330
1A6
100
AcDbEntity
  8
Layer 1
 62
    18
420
    65793
370
     9
  0
POLYLINE
  5
1AA
330
181
100
AcDbEntity
  8
Layer 1
 62
    18
420
    65793
370
     9
100
AcDb2dPolyline
 66
     1
 10
0.0
 20
0.0
 30
0.0
  0
VERTEX
  5
1AB
330
1AA
100
AcDbEntity
  8
Layer 1
 62
    18
420
    65793
370
     9
100
AcDbVertex
100
AcDb2dVertex
 10
21.94849778109574
 20
-8.206816976749854
 30
0.0
  0
VERTEX
  5
1AC
330
1AA
100
AcDbEntity
  8
Layer 1
 62
    18
420
    65793
370
     9
100
AcDbVertex
100
AcDb2dVertex
 10
20.81349778109572
 20
-9.34181697674987
 30
0.0
  0
SEQEND
  5
1AD
330
1AA
100
AcDbEntity
  8
Layer 1
 62
    18
420
    65793
370
     9
  0
POLYLINE
  5
1AE
330
181
100
AcDbEntity
  8
Layer 1
 62
    18
420
    65793
370
     9
100
AcDb2dPolyline
 66
     1
 10
0.0
 20
0.0
 30
0.0
  0
VERTEX
  5
1AF
330
1AE
100
AcDbEntity
  8
Layer 1
 62
    18
420
    65793
370
     9
100
AcDbVertex
100
AcDb2dVertex
 10
21.94627555887352
 20
-8.592650310083071
 30
0.0
  0
VERTEX
  5
1B0
330
1AE
100
AcDbEntity
  8
Layer 1
 62
    18
420
    65793
370
     9
100
AcDbVertex
100
AcDb2dVertex
 10
20.79585889220683
 20
-9.743066976749862
 30
0.0
  0
SEQEND
  5
1B1
330
1AE
100
AcDbEntity
  8
Layer 1
 62
    18
420
    65793
370
     9
  0
POLYLINE
  5
1B2
330
181
100
AcDbEntity
  8
Layer 1
 62
    18
420
    65793
370
     9
100
AcDb2dPolyline
 66
     1
 10
0.0
 20
0.0
 30
0.0
  0
VERTEX
  5
1B3
330
1B2
100
AcDbEntity
  8
Layer 1
 62
    18
420
    65793
370
     9
100
AcDbVertex
100
AcDb2dVertex
 10
21.94585889220682
 20
-8.976400310083186
 30
0.0
  0
VERTEX
  5
1B4
330
1B2
100
AcDbEntity
  8
Layer 1
 62
    18
420
    65793
370
     9
100
AcDbVertex
100
AcDb2dVertex
 10
20.7722477810957
 20
-10.1500114211943
 30
0.0
  0
SEQEND
  5
1B5
330
1B2
100
AcDbEntity
  8
Layer 1
 62
    18
420
    65793
370
     9
  0
POLYLINE
  5
1B6
330
181
100
AcDbEntity
  8
Layer 1
 62
    18
420
    65793
370
     9
100
AcDb2dPolyline
 66
     1
 10
0.0
 20
0.0
 30
0.0
  0
VERTEX
  5
1B7
330
1B6
100
AcDbEntity
  8
Layer 1
 62
    18
420
    65793
370
     9
100
AcDbVertex
100
AcDb2dVertex
 10
21.95558111442905
 20
-9.350289198972076
 30
0.0
  0
VERTEX
  5
1B8
330
1B6
100
AcDbEntity
  8
Layer 1
 62
    18
420
    65793
370
     9
100
AcDbVertex
100
AcDb2dVertex
 10
20.74280333665127
 20
-10.56306697674987
 30
0.0
  0
SEQEND
  5
1B9
330
1B6
100
AcDbEntity
  8
Layer 1
 62
    18
420
    65793
370
     9
  0
POLYLINE
  5
1BA
330
181
100
AcDbEntity
  8
Layer 1
 62
    18
420
    65793
370
     9
100
AcDb2dPolyline
 66
     1
 10
0.0
 20
0.0
 30
0.0
  0
VERTEX
  5
1BB
330
1BA
100
AcDbEntity
  8
Layer 1
 62
    18
420
    65793
370
     9
100
AcDbVertex
100
AcDb2dVertex
 10
21.97169222554016
 20
-9.717511421194304
 30
0.0
  0
VERTEX
  5
1BC
330
1BA
100
AcDbEntity
  8
Layer 1
 62
    18
420
    65793
370
     9
100
AcDbVertex
100
AcDb2dVertex
 10
20.71072000331792
 20
-10.97848364341654
 30
0.0
  0
SEQEND
  5
1BD
330
1BA
100
AcDbEntity
  8
Layer 1
 62
    18
420
    65793
370
     9
  0
POLYLINE
  5
1BE
330
181
100
AcDbEntity
  8
Layer 1
 62
    18
420
    65793
370
     9
100
AcDb2dPolyline
 66
     1
 10
0.0
 20
0.0
 30
0.0
  0
VERTEX
  5
1BF
330
1BE
100
AcDbEntity
  8
Layer 1
 62
    18
420
    65793
370
     9
100
AcDbVertex
100
AcDb2dVertex
 10
21.99210889220684
 20
-10.08042808786099
 30
0.0
  0
VERTEX
  5
1C0
330
1BE
100
AcDbEntity
  8
Layer 1
 62
    18
420
    65793
370
     9
100
AcDbVertex
100
AcDb2dVertex
 10
20.82808111442904
 20
-11.2444558656386
 30
0.0
  0
SEQEND
  5
1C1
330
1BE
100
AcDbEntity
  8
Layer 1
 62
    18
420
    65793
370
     9
  0
POLYLINE
  5
1C2
330
181
100
AcDbEntity
  8
Layer 1
 62
    18
420
    65793
370
     9
100
AcDb2dPolyline
 66
     1
 10
0.0
 20
0.0
 30
0.0
  0
VERTEX
  5
1C3
330
1C2
100
AcDbEntity
  8
Layer 1
 62
    18
420
    65793
370
     9
100
AcDbVertex
100
AcDb2dVertex
 10
22.01700022590017
 20
-10.43973364341653
 30
0.0
  0
VERTEX
  5
1C4
330
1C2
100
AcDbEntity
  8
Layer 1
 62
    18
420
    65793
370
     9
100
AcDbVertex
100
AcDb2dVertex
 10
21.16505578145572
 20
-11.29167808786097
 30
0.0
  0
SEQEND
  5
1C5
330
1C2
100
AcDbEntity
  8
Layer 1
 62
    18
420
    65793
370
     9
  0
POLYLINE
  5
1C6
330
181
100
AcDbEntity
  8
Layer 1
 62
    18
420
    65793
370
     9
100
AcDb2dPolyline
 66
     1
 10
0.0
 20
0.0
 30
0.0
  0
VERTEX
  5
1C7
330
1C6
100
AcDbEntity
  8
Layer 1
 62
    18
420
    65793
370
     9
100
AcDbVertex
100
AcDb2dVertex
 10
22.04630578145573
 20
-10.79376142119418
 30
0.0
  0
VERTEX
  5
1C8
330
1C6
100
AcDbEntity
  8
Layer 1
 62
    18
420
    65793
370
     9
100
AcDbVertex
100
AcDb2dVertex
 10
21.54838911478904
 20
-11.29167808786097
 30
0.0
  0
SEQEND
  5
1C9
330
1C6
100
AcDbEntity
  8
Layer 1
 62
    18
420
    65793
370
     9
  0
POLYLINE
  5
1CA
330
181
100
AcDbEntity
  8
Layer 1
 62
    18
420
    65793
370
     9
100
AcDb2dPolyline
 66
     1
 10
0.0
 20
0.0
 30
0.0
  0
VERTEX
  5
1CB
330
1CA
100
AcDbEntity
  8
Layer 1
 62
    18
420
    65793
370
     9
100
AcDbVertex
100
AcDb2dVertex
 10
21.57641444776239
 20
-7.198900310083192
 30
0.0
  0
VERTEX
  5
1CC
330
1CA
100
AcDbEntity
  8
Layer 1
 62
    18
420
    65793
370
     9
100
AcDbVertex
100
AcDb2dVertex
 10
21.69127555887351
 20
-7.313761421194309
 30
0.0
  0
VERTEX
  5
1CD
330
1CA
100
AcDbEntity
  8
Layer 1
 62
    18
420
    65793
370
     9
100
AcDbVertex
100
AcDb2dVertex
 10
21.88294222554017
 20
-7.505428087860966
 30
0.0
  0
VERTEX
  5
1CE
330
1CA
100
AcDbEntity
  8
Layer 1
 62
    18
420
    65793
370
     9
100
AcDbVertex
100
AcDb2dVertex
 10
21.94849778109574
 20
-7.570983643416538
 30
0.0
  0
SEQEND
  5
1CF
330
1CA
100
AcDbEntity
  8
Layer 1
 62
    18
420
    65793
370
     9
  0
POLYLINE
  5
1D0
330
181
100
AcDbEntity
  8
Layer 1
 62
    18
420
    65793
370
     9
100
AcDb2dPolyline
 66
     1
 10
0.0
 20
0.0
 30
0.0
  0
VERTEX
  5
1D1
330
1D0
100
AcDbEntity
  8
Layer 1
 62
    18
420
    65793
370
     9
100
AcDbVertex
100
AcDb2dVertex
 10
21.19280333665129
 20
-7.198900310083192
 30
0.0
  0
VERTEX
  5
1D2
330
1D0
100
AcDbEntity
  8
Layer 1
 62
    18
420
    65793
370
     9
100
AcDbVertex
100
AcDb2dVertex
 10
21.30766444776241
 20
-7.313761421194309
 30
0.0
  0
VERTEX
  5
1D3
330
1D0
100
AcDbEntity
  8
Layer 1
 62
    18
420
    65793
370
     9
100
AcDbVertex
100
AcDb2dVertex
 10
21.49947000331793
 20
-7.505566976749732
 30
0.0
  0
VERTEX
  5
1D4
330
1D0
100
AcDbEntity
  8
Layer 1
 62
    18
420
    65793
370
     9
100
AcDbVertex
100
AcDb2dVertex
 10
21.69113666998459
 20
-7.697233643416388
 30
0.0
  0
VERTEX
  5
1D5
330
1D0
100
AcDbEntity
  8
Layer 1
 62
    18
420
    65793
370
     9
100
AcDbVertex
100
AcDb2dVertex
 10
21.88294222554017
 20
-7.889039198971962
 30
0.0
  0
VERTEX
  5
1D6
330
1D0
100
AcDbEntity
  8
Layer 1
 62
    18
420
    65793
370
     9
100
AcDbVertex
100
AcDb2dVertex
 10
21.94849778109574
 20
-7.954594754527634
 30
0.0
  0
SEQEND
  5
1D7
330
1D0
100
AcDbEntity
  8
Layer 1
 62
    18
420
    65793
370
     9
  0
POLYLINE
  5
1D8
330
181
100
AcDbEntity
  8
Layer 1
 62
    18
420
    65793
370
     9
100
AcDb2dPolyline
 66
     1
 10
0.0
 20
0.0
 30
0.0
  0
VERTEX
  5
1D9
330
1D8
100
AcDbEntity
  8
Layer 1
 62
    18
420
    65793
370
     9
100
AcDbVertex
100
AcDb2dVertex
 10
20.8203033366513
 20
-7.209733643416383
 30
0.0
  0
VERTEX
  5
1DA
330
1D8
100
AcDbEntity
  8
Layer 1
 62
    18
420
    65793
370
     9
100
AcDbVertex
100
AcDb2dVertex
 10
20.92433111442905
 20
-7.313761421194309
 30
0.0
  0
VERTEX
  5
1DB
330
1D8
100
AcDbEntity
  8
Layer 1
 62
    18
420
    65793
370
     9
100
AcDbVertex
100
AcDb2dVertex
 10
21.1159977810957
 20
-7.505428087860966
 30
0.0
  0
VERTEX
  5
1DC
330
1D8
100
AcDbEntity
  8
Layer 1
 62
    18
420
    65793
370
     9
100
AcDbVertex
100
AcDb2dVertex
 10
21.30780333665128
 20
-7.697233643416388
 30
0.0
  0
VERTEX
  5
1DD
330
1D8
100
AcDbEntity
  8
Layer 1
 62
    18
420
    65793
370
     9
100
AcDbVertex
100
AcDb2dVertex
 10
21.49947000331793
 20
-7.888900310083196
 30
0.0
  0
VERTEX
  5
1DE
330
1D8
100
AcDbEntity
  8
Layer 1
 62
    18
420
    65793
370
     9
100
AcDbVertex
100
AcDb2dVertex
 10
21.69127555887351
 20
-8.080705865638619
 30
0.0
  0
VERTEX
  5
1DF
330
1D8
100
AcDbEntity
  8
Layer 1
 62
    18
420
    65793
370
     9
100
AcDbVertex
100
AcDb2dVertex
 10
21.88294222554017
 20
-8.272372532305427
 30
0.0
  0
VERTEX
  5
1E0
330
1D8
100
AcDbEntity
  8
Layer 1
 62
    18
420
    65793
370
     9
100
AcDbVertex
100
AcDb2dVertex
 10
21.94849778109574
 20
-8.337928087860847
 30
0.0
  0
SEQEND
  5
1E1
330
1D8
100
AcDbEntity
  8
Layer 1
 62
    18
420
    65793
370
     9
  0
POLYLINE
  5
1E2
330
181
100
AcDbEntity
  8
Layer 1
 62
    18
420
    65793
370
     9
100
AcDb2dPolyline
 66
     1
 10
0.0
 20
0.0
 30
0.0
  0
VERTEX
  5
1E3
330
1E2
100
AcDbEntity
  8
Layer 1
 62
    18
420
    65793
370
     9
100
AcDbVertex
100
AcDb2dVertex
 10
21.94460889220682
 20
-8.717650310083071
 30
0.0
  0
VERTEX
  5
1E4
330
1E2
100
AcDbEntity
  8
Layer 1
 62
    18
420
    65793
370
     9
100
AcDbVertex
100
AcDb2dVertex
 10
21.88294222554017
 20
-8.655983643416523
 30
0.0
  0
VERTEX
  5
1E5
330
1E2
100
AcDbEntity
  8
Layer 1
 62
    18
420
    65793
370
     9
100
AcDbVertex
100
AcDb2dVertex
 10
21.69113666998459
 20
-8.464178087860848
 30
0.0
  0
VERTEX
  5
1E6
330
1E2
100
AcDbEntity
  8
Layer 1
 62
    18
420
    65793
370
     9
100
AcDbVertex
100
AcDb2dVertex
 10
21.49947000331793
 20
-8.272511421194318
 30
0.0
  0
VERTEX
  5
1E7
330
1E2
100
AcDbEntity
  8
Layer 1
 62
    18
420
    65793
370
     9
100
AcDbVertex
100
AcDb2dVertex
 10
21.30766444776241
 20
-8.080705865638619
 30
0.0
  0
VERTEX
  5
1E8
330
1E2
100
AcDbEntity
  8
Layer 1
 62
    18
420
    65793
370
     9
100
AcDbVertex
100
AcDb2dVertex
 10
21.1159977810957
 20
-7.889039198971962
 30
0.0
  0
VERTEX
  5
1E9
330
1E2
100
AcDbEntity
  8
Layer 1
 62
    18
420
    65793
370
     9
100
AcDbVertex
100
AcDb2dVertex
 10
20.92419222554018
 20
-7.697233643416388
 30
0.0
  0
VERTEX
  5
1EA
330
1E2
100
AcDbEntity
  8
Layer 1
 62
    18
420
    65793
370
     9
100
AcDbVertex
100
AcDb2dVertex
 10
20.8203033366513
 20
-7.593344754527505
 30
0.0
  0
SEQEND
  5
1EB
330
1E2
100
AcDbEntity
  8
Layer 1
 62
    18
420
    65793
370
     9
  0
POLYLINE
  5
1EC
330
181
100
AcDbEntity
  8
Layer 1
 62
    18
420
    65793
370
     9
100
AcDb2dPolyline
 66
     1
 10
0.0
 20
0.0
 30
0.0
  0
VERTEX
  5
1ED
330
1EC
100
AcDbEntity
  8
Layer 1
 62
    18
420
    65793
370
     9
100
AcDbVertex
100
AcDb2dVertex
 10
21.94835889220682
 20
-9.104733643416541
 30
0.0
  0
VERTEX
  5
1EE
330
1EC
100
AcDbEntity
  8
Layer 1
 62
    18
420
    65793
370
     9
100
AcDbVertex
100
AcDb2dVertex
 10
21.88294222554017
 20
-9.039316976749861
 30
0.0
  0
VERTEX
  5
1EF
330
1EC
100
AcDbEntity
  8
Layer 1
 62
    18
420
    65793
370
     9
100
AcDbVertex
100
AcDb2dVertex
 10
21.69127555887351
 20
-8.847650310083054
 30
0.0
  0
VERTEX
  5
1F0
330
1EC
100
AcDbEntity
  8
Layer 1
 62
    18
420
    65793
370
     9
100
AcDbVertex
100
AcDb2dVertex
 10
21.49947000331793
 20
-8.655844754527505
 30
0.0
  0
VERTEX
  5
1F1
330
1EC
100
AcDbEntity
  8
Layer 1
 62
    18
420
    65793
370
     9
100
AcDbVertex
100
AcDb2dVertex
 10
21.30780333665128
 20
-8.464178087860848
 30
0.0
  0
VERTEX
  5
1F2
330
1EC
100
AcDbEntity
  8
Layer 1
 62
    18
420
    65793
370
     9
100
AcDbVertex
100
AcDb2dVertex
 10
21.1159977810957
 20
-8.272372532305427
 30
0.0
  0
VERTEX
  5
1F3
330
1EC
100
AcDbEntity
  8
Layer 1
 62
    18
420
    65793
370
     9
100
AcDbVertex
100
AcDb2dVertex
 10
20.92433111442905
 20
-8.080705865638619
 30
0.0
  0
VERTEX
  5
1F4
330
1EC
100
AcDbEntity
  8
Layer 1
 62
    18
420
    65793
370
     9
100
AcDbVertex
100
AcDb2dVertex
 10
20.8203033366513
 20
-7.97667808786097
 30
0.0
  0
SEQEND
  5
1F5
330
1EC
100
AcDbEntity
  8
Layer 1
 62
    18
420
    65793
370
     9
  0
POLYLINE
  5
1F6
330
181
100
AcDbEntity
  8
Layer 1
 62
    18
420
    65793
370
     9
100
AcDb2dPolyline
 66
     1
 10
0.0
 20
0.0
 30
0.0
  0
VERTEX
  5
1F7
330
1F6
100
AcDbEntity
  8
Layer 1
 62
    18
420
    65793
370
     9
100
AcDbVertex
100
AcDb2dVertex
 10
20.8203033366513
 20
-8.360289198971941
 30
0.0
  0
VERTEX
  5
1F8
330
1F6
100
AcDbEntity
  8
Layer 1
 62
    18
420
    65793
370
     9
100
AcDbVertex
100
AcDb2dVertex
 10
20.92419222554018
 20
-8.464178087860848
 30
0.0
  0
VERTEX
  5
1F9
330
1F6
100
AcDbEntity
  8
Layer 1
 62
    18
420
    65793
370
     9
100
AcDbVertex
100
AcDb2dVertex
 10
21.1159977810957
 20
-8.655983643416523
 30
0.0
  0
VERTEX
  5
1FA
330
1F6
100
AcDbEntity
  8
Layer 1
 62
    18
420
    65793
370
     9
100
AcDbVertex
100
AcDb2dVertex
 10
21.30766444776241
 20
-8.847650310083054
 30
0.0
  0
VERTEX
  5
1FB
330
1F6
100
AcDbEntity
  8
Layer 1
 62
    18
420
    65793
370
     9
100
AcDbVertex
100
AcDb2dVertex
 10
21.49947000331793
 20
-9.039455865638754
 30
0.0
  0
VERTEX
  5
1FC
330
1F6
100
AcDbEntity
  8
Layer 1
 62
    18
420
    65793
370
     9
100
AcDbVertex
100
AcDb2dVertex
 10
21.69113666998459
 20
-9.23112253230541
 30
0.0
  0
VERTEX
  5
1FD
330
1F6
100
AcDbEntity
  8
Layer 1
 62
    18
420
    65793
370
     9
100
AcDbVertex
100
AcDb2dVertex
 10
21.88294222554017
 20
-9.422928087860983
 30
0.0
  0
VERTEX
  5
1FE
330
1F6
100
AcDbEntity
  8
Layer 1
 62
    18
420
    65793
370
     9
100
AcDbVertex
100
AcDb2dVertex
 10
21.96169222554019
 20
-9.501678087860984
 30
0.0
  0
SEQEND
  5
1FF
330
1F6
100
AcDbEntity
  8
Layer 1
 62
    18
420
    65793
370
     9
  0
POLYLINE
  5
200
330
181
100
AcDbEntity
  8
Layer 1
 62
    18
420
    65793
370
     9
100
AcDb2dPolyline
 66
     1
 10
0.0
 20
0.0
 30
0.0
  0
VERTEX
  5
201
330
200
100
AcDbEntity
  8
Layer 1
 62
    18
420
    65793
370
     9
100
AcDbVertex
100
AcDb2dVertex
 10
20.82433111442904
 20
-8.747650310083069
 30
0.0
  0
VERTEX
  5
202
330
200
100
AcDbEntity
  8
Layer 1
 62
    18
420
    65793
370
     9
100
AcDbVertex
100
AcDb2dVertex
 10
20.92433111442905
 20
-8.847650310083054
 30
0.0
  0
VERTEX
  5
203
330
200
100
AcDbEntity
  8
Layer 1
 62
    18
420
    65793
370
     9
100
AcDbVertex
100
AcDb2dVertex
 10
21.1159977810957
 20
-9.039316976749861
 30
0.0
  0
VERTEX
  5
204
330
200
100
AcDbEntity
  8
Layer 1
 62
    18
420
    65793
370
     9
100
AcDbVertex
100
AcDb2dVertex
 10
21.30780333665128
 20
-9.23112253230541
 30
0.0
  0
VERTEX
  5
205
330
200
100
AcDbEntity
  8
Layer 1
 62
    18
420
    65793
370
     9
100
AcDbVertex
100
AcDb2dVertex
 10
21.49947000331793
 20
-9.422789198972092
 30
0.0
  0
VERTEX
  5
206
330
200
100
AcDbEntity
  8
Layer 1
 62
    18
420
    65793
370
     9
100
AcDbVertex
100
AcDb2dVertex
 10
21.69127555887351
 20
-9.61459475452764
 30
0.0
  0
VERTEX
  5
207
330
200
100
AcDbEntity
  8
Layer 1
 62
    18
420
    65793
370
     9
100
AcDbVertex
100
AcDb2dVertex
 10
21.88294222554017
 20
-9.806261421194296
 30
0.0
  0
VERTEX
  5
208
330
200
100
AcDbEntity
  8
Layer 1
 62
    18
420
    65793
370
     9
100
AcDbVertex
100
AcDb2dVertex
 10
21.98169222554018
 20
-9.905011421194304
 30
0.0
  0
SEQEND
  5
209
330
200
100
AcDbEntity
  8
Layer 1
 62
    18
420
    65793
370
     9
  0
POLYLINE
  5
20A
330
181
100
AcDbEntity
  8
Layer 1
 62
    18
420
    65793
370
     9
100
AcDb2dPolyline
 66
     1
 10
0.0
 20
0.0
 30
0.0
  0
VERTEX
  5
20B
330
20A
100
AcDbEntity
  8
Layer 1
 62
    18
420
    65793
370
     9
100
AcDbVertex
100
AcDb2dVertex
 10
20.82002555887351
 20
-9.126955865638744
 30
0.0
  0
VERTEX
  5
20C
330
20A
100
AcDbEntity
  8
Layer 1
 62
    18
420
    65793
370
     9
100
AcDbVertex
100
AcDb2dVertex
 10
20.92419222554018
 20
-9.23112253230541
 30
0.0
  0
VERTEX
  5
20D
330
20A
100
AcDbEntity
  8
Layer 1
 62
    18
420
    65793
370
     9
100
AcDbVertex
100
AcDb2dVertex
 10
21.1159977810957
 20
-9.422928087860983
 30
0.0
  0
VERTEX
  5
20E
330
20A
100
AcDbEntity
  8
Layer 1
 62
    18
420
    65793
370
     9
100
AcDbVertex
100
AcDb2dVertex
 10
21.30766444776241
 20
-9.61459475452764
 30
0.0
  0
VERTEX
  5
20F
330
20A
100
AcDbEntity
  8
Layer 1
 62
    18
420
    65793
370
     9
100
AcDbVertex
100
AcDb2dVertex
 10
21.49947000331793
 20
-9.80640031008319
 30
0.0
  0
VERTEX
  5
210
330
20A
100
AcDbEntity
  8
Layer 1
 62
    18
420
    65793
370
     9
100
AcDbVertex
100
AcDb2dVertex
 10
21.69113666998459
 20
-9.99806697674987
 30
0.0
  0
VERTEX
  5
211
330
20A
100
AcDbEntity
  8
Layer 1
 62
    18
420
    65793
370
     9
100
AcDbVertex
100
AcDb2dVertex
 10
21.8828033366513
 20
-10.18973364341653
 30
0.0
  0
VERTEX
  5
212
330
20A
100
AcDbEntity
  8
Layer 1
 62
    18
420
    65793
370
     9
100
AcDbVertex
100
AcDb2dVertex
 10
22.00752555887351
 20
-10.31445586563874
 30
0.0
  0
SEQEND
  5
213
330
20A
100
AcDbEntity
  8
Layer 1
 62
    18
420
    65793
370
     9
  0
POLYLINE
  5
214
330
181
100
AcDbEntity
  8
Layer 1
 62
    18
420
    65793
370
     9
100
AcDb2dPolyline
 66
     1
 10
0.0
 20
0.0
 30
0.0
  0
VERTEX
  5
215
330
214
100
AcDbEntity
  8
Layer 1
 62
    18
420
    65793
370
     9
100
AcDbVertex
100
AcDb2dVertex
 10
20.80738666998463
 20
-9.497650310083195
 30
0.0
  0
VERTEX
  5
216
330
214
100
AcDbEntity
  8
Layer 1
 62
    18
420
    65793
370
     9
100
AcDbVertex
100
AcDb2dVertex
 10
20.92433111442905
 20
-9.61459475452764
 30
0.0
  0
VERTEX
  5
217
330
214
100
AcDbEntity
  8
Layer 1
 62
    18
420
    65793
370
     9
100
AcDbVertex
100
AcDb2dVertex
 10
21.1159977810957
 20
-9.806261421194296
 30
0.0
  0
VERTEX
  5
218
330
214
100
AcDbEntity
  8
Layer 1
 62
    18
420
    65793
370
     9
100
AcDbVertex
100
AcDb2dVertex
 10
21.30780333665128
 20
-9.99806697674987
 30
0.0
  0
VERTEX
  5
219
330
214
100
AcDbEntity
  8
Layer 1
 62
    18
420
    65793
370
     9
100
AcDbVertex
100
AcDb2dVertex
 10
21.49947000331793
 20
-10.18973364341653
 30
0.0
  0
VERTEX
  5
21A
330
214
100
AcDbEntity
  8
Layer 1
 62
    18
420
    65793
370
     9
100
AcDbVertex
100
AcDb2dVertex
 10
21.69113666998459
 20
-10.38140031008318
 30
0.0
  0
VERTEX
  5
21B
330
214
100
AcDbEntity
  8
Layer 1
 62
    18
420
    65793
370
     9
100
AcDbVertex
100
AcDb2dVertex
 10
21.88294222554017
 20
-10.57320586563876
 30
0.0
  0
VERTEX
  5
21C
330
214
100
AcDbEntity
  8
Layer 1
 62
    18
420
    65793
370
     9
100
AcDbVertex
100
AcDb2dVertex
 10
22.0398866699846
 20
-10.73015031008319
 30
0.0
  0
SEQEND
  5
21D
330
214
100
AcDbEntity
  8
Layer 1
 62
    18
420
    65793
370
     9
  0
POLYLINE
  5
21E
330
181
100
AcDbEntity
  8
Layer 1
 62
    18
420
    65793
370
     9
100
AcDb2dPolyline
 66
     1
 10
0.0
 20
0.0
 30
0.0
  0
VERTEX
  5
21F
330
21E
100
AcDbEntity
  8
Layer 1
 62
    18
420
    65793
370
     9
100
AcDbVertex
100
AcDb2dVertex
 10
20.78947000331795
 20
-9.863066976749854
 30
0.0
  0
VERTEX
  5
220
330
21E
100
AcDbEntity
  8
Layer 1
 62
    18
420
    65793
370
     9
100
AcDbVertex
100
AcDb2dVertex
 10
20.92433111442905
 20
-9.997928087860979
 30
0.0
  0
VERTEX
  5
221
330
21E
100
AcDbEntity
  8
Layer 1
 62
    18
420
    65793
370
     9
100
AcDbVertex
100
AcDb2dVertex
 10
21.11613666998462
 20
-10.18973364341653
 30
0.0
  0
VERTEX
  5
222
330
21E
100
AcDbEntity
  8
Layer 1
 62
    18
420
    65793
370
     9
100
AcDbVertex
100
AcDb2dVertex
 10
21.30780333665128
 20
-10.38140031008318
 30
0.0
  0
VERTEX
  5
223
330
21E
100
AcDbEntity
  8
Layer 1
 62
    18
420
    65793
370
     9
100
AcDbVertex
100
AcDb2dVertex
 10
21.49947000331793
 20
-10.57306697674974
 30
0.0
  0
VERTEX
  5
224
330
21E
100
AcDbEntity
  8
Layer 1
 62
    18
420
    65793
370
     9
100
AcDbVertex
100
AcDb2dVertex
 10
21.69127555887351
 20
-10.76487253230541
 30
0.0
  0
VERTEX
  5
225
330
21E
100
AcDbEntity
  8
Layer 1
 62
    18
420
    65793
370
     9
100
AcDbVertex
100
AcDb2dVertex
 10
21.88294222554017
 20
-10.9565391989721
 30
0.0
  0
VERTEX
  5
226
330
21E
100
AcDbEntity
  8
Layer 1
 62
    18
420
    65793
370
     9
100
AcDbVertex
100
AcDb2dVertex
 10
22.03488666998459
 20
-11.1084836434164
 30
0.0
  0
SEQEND
  5
227
330
21E
100
AcDbEntity
  8
Layer 1
 62
    18
420
    65793
370
     9
  0
POLYLINE
  5
228
330
181
100
AcDbEntity
  8
Layer 1
 62
    18
420
    65793
370
     9
100
AcDb2dPolyline
 66
     1
 10
0.0
 20
0.0
 30
0.0
  0
VERTEX
  5
229
330
228
100
AcDbEntity
  8
Layer 1
 62
    18
420
    65793
370
     9
100
AcDbVertex
100
AcDb2dVertex
 10
20.76738666998461
 20
-10.22459475452764
 30
0.0
  0
VERTEX
  5
22A
330
228
100
AcDbEntity
  8
Layer 1
 62
    18
420
    65793
370
     9
100
AcDbVertex
100
AcDb2dVertex
 10
20.92433111442905
 20
-10.38153919897208
 30
0.0
  0
VERTEX
  5
22B
330
228
100
AcDbEntity
  8
Layer 1
 62
    18
420
    65793
370
     9
100
AcDbVertex
100
AcDb2dVertex
 10
21.1159977810957
 20
-10.57320586563876
 30
0.0
  0
VERTEX
  5
22C
330
228
100
AcDbEntity
  8
Layer 1
 62
    18
420
    65793
370
     9
100
AcDbVertex
100
AcDb2dVertex
 10
21.30766444776241
 20
-10.76487253230541
 30
0.0
  0
VERTEX
  5
22D
330
228
100
AcDbEntity
  8
Layer 1
 62
    18
420
    65793
370
     9
100
AcDbVertex
100
AcDb2dVertex
 10
21.49947000331793
 20
-10.95667808786084
 30
0.0
  0
VERTEX
  5
22E
330
228
100
AcDbEntity
  8
Layer 1
 62
    18
420
    65793
370
     9
100
AcDbVertex
100
AcDb2dVertex
 10
21.69113666998459
 20
-11.14834475452764
 30
0.0
  0
VERTEX
  5
22F
330
228
100
AcDbEntity
  8
Layer 1
 62
    18
420
    65793
370
     9
100
AcDbVertex
100
AcDb2dVertex
 10
21.82752555887348
 20
-11.28473364341653
 30
0.0
  0
SEQEND
  5
230
330
228
100
AcDbEntity
  8
Layer 1
 62
    18
420
    65793
370
     9
  0
POLYLINE
  5
231
330
181
100
AcDbEntity
  8
Layer 1
 62
    18
420
    65793
370
     9
100
AcDb2dPolyline
 66
     1
 10
0.0
 20
0.0
 30
0.0
  0
VERTEX
  5
232
330
231
100
AcDbEntity
  8
Layer 1
 62
    18
420
    65793
370
     9
100
AcDbVertex
100
AcDb2dVertex
 10
20.74127555887349
 20
-10.58181697674985
 30
0.0
  0
VERTEX
  5
233
330
231
100
AcDbEntity
  8
Layer 1
 62
    18
420
    65793
370
     9
100
AcDbVertex
100
AcDb2dVertex
 10
20.92433111442905
 20
-10.76487253230541
 30
0.0
  0
VERTEX
  5
234
330
231
100
AcDbEntity
  8
Layer 1
 62
    18
420
    65793
370
     9
100
AcDbVertex
100
AcDb2dVertex
 10
21.1159977810957
 20
-10.9565391989721
 30
0.0
  0
VERTEX
  5
235
330
231
100
AcDbEntity
  8
Layer 1
 62
    18
420
    65793
370
     9
100
AcDbVertex
100
AcDb2dVertex
 10
21.30780333665128
 20
-11.14834475452764
 30
0.0
  0
VERTEX
  5
236
330
231
100
AcDbEntity
  8
Layer 1
 62
    18
420
    65793
370
     9
100
AcDbVertex
100
AcDb2dVertex
 10
21.45113666998461
 20
-11.29167808786097
 30
0.0
  0
SEQEND
  5
237
330
231
100
AcDbEntity
  8
Layer 1
 62
    18
420
    65793
370
     9
  0
POLYLINE
  5
238
330
181
100
AcDbEntity
  8
Layer 1
 62
    18
420
    65793
370
     9
100
AcDb2dPolyline
 66
     1
 10
0.0
 20
0.0
 30
0.0
  0
VERTEX
  5
239
330
238
100
AcDbEntity
  8
Layer 1
 62
    18
420
    65793
370
     9
100
AcDbVertex
100
AcDb2dVertex
 10
20.71102800367796
 20
-10.9345947545275
 30
0.0
  0
VERTEX
  5
23A
330
238
100
AcDbEntity
  8
Layer 1
 62
    18
420
    65793
370
     9
100
AcDbVertex
100
AcDb2dVertex
 10
20.71102800367796
 20
-10.93473364341652
 30
0.0
  0
VERTEX
  5
23B
330
238
100
AcDbEntity
  8
Layer 1
 62
    18
420
    65793
370
     9
100
AcDbVertex
100
AcDb2dVertex
 10
20.7331113370113
 20
-10.95667808786084
 30
0.0
  0
VERTEX
  5
23C
330
238
100
AcDbEntity
  8
Layer 1
 62
    18
420
    65793
370
     9
100
AcDbVertex
100
AcDb2dVertex
 10
20.92477800367795
 20
-11.14834475452764
 30
0.0
  0
VERTEX
  5
23D
330
238
100
AcDbEntity
  8
Layer 1
 62
    18
420
    65793
370
     9
100
AcDbVertex
100
AcDb2dVertex
 10
21.06811133701128
 20
-11.29167808786097
 30
0.0
  0
SEQEND
  5
23E
330
238
100
AcDbEntity
  8
Layer 1
 62
    18
420
    65793
370
     9
  0
INSERT
  5
240
330
181
100
AcDbEntity
  8
Layer 1
100
AcDbBlockReference
  2
block 7
 10
0.0
 20
0.0
 30
0.0
  0
ENDBLK
  5
184
330
181
100
AcDbEntity
  8
0
100
AcDbBlockEnd
  0
BLOCK
  5
241
330
23F
100
AcDbEntity
  8
0
100
AcDbBlockBegin
  2
block 7
 70
     0
 10
0.0
 20
0.0
 30
0.0
  3
block 7
  1

  0
SPLINE
  5
243
330
23F
100
AcDbEntity
  8
Layer 1
 62
   242
420
 13508646
370
     9
100
AcDbSpline
210
0.0
220
0.0
230
1.0
 70
     8
 71
     3
 72
    44
 73
    40
 74
     0
 42
0.0000000001
 43
0.0000000001
 12
1.0
 22
0.0
 32
0.0
 13
1.0
 23
0.0
 33
0.0
 40
0.0
 40
0.0
 40
0.0
 40
0.0
 40
1.0
 40
1.0
 40
1.0
 40
2.0
 40
2.0
 40
2.0
 40
3.0
 40
3.0
 40
3.0
 40
4.0
 40
4.0
 40
4.0
 40
5.0
 40
5.0
 40
5.0
 40
6.0
 40
6.0
 40
6.0
 40
7.0
 40
7.0
 40
7.0
 40
8.0
 40
8.0
 40
8.0
 40
9.0
 40
9.0
 40
9.0
 40
10.0
 40
10.0
 40
10.0
 40
11.0
 40
11.0
 40
11.0
 40
12.0
 40
12.0
 40
12.0
 40
13.0
 40
13.0
 40
13.0
 40
13.0
 10
21.94849778109574
 20
-8.515983643416398
 30
0.0
 10
21.94849778109574
 20
-8.515983643416398
 30
0.0
 10
21.94849778109574
 20
-8.516539198971941
 30
0.0
 10
21.94849778109574
 20
-8.516539198971941
 30
0.0
 10
21.94766444776239
 20
-8.541261421194172
 30
0.0
 10
21.94697000331795
 20
-8.566678087860964
 30
0.0
 10
21.94627555887352
 20
-8.592650310083071
 30
0.0
 10
21.94377555887352
 20
-8.710011421194318
 30
0.0
 10
21.94377555887352
 20
-8.839872532305282
 30
0.0
 10
21.94585889220682
 20
-8.976400310083186
 30
0.0
 10
21.94766444776239
 20
-9.097094754527637
 30
0.0
 10
21.95113666998461
 20
-9.223066976749855
 30
0.0
 10
21.95558111442905
 20
-9.350289198972076
 30
0.0
 10
21.96002555887349
 20
-9.472650310083205
 30
0.0
 10
21.96558111442906
 20
-9.596261421194312
 30
0.0
 10
21.97169222554016
 20
-9.717511421194304
 30
0.0
 10
21.97794222554017
 20
-9.842094754527654
 30
0.0
 10
21.98488666998461
 20
-9.964316976749867
 30
0.0
 10
21.99210889220684
 20
-10.08042808786099
 30
0.0
 10
22.00016444776237
 20
-10.20945586563875
 30
0.0
 10
22.00849778109573
 20
-10.33098364341653
 30
0.0
 10
22.0164144477624
 20
-10.43973364341653
 30
0.0
 10
22.02710889220685
 20
-10.58390031008321
 30
0.0
 10
22.0373866699846
 20
-10.70584475452764
 30
0.0
 10
22.04572000331796
 20
-10.79376142119418
 30
0.0
 10
22.04877555887348
 20
-10.82515031008319
 30
0.0
 10
22.05155333665127
 20
-10.85223364341654
 30
0.0
 10
22.05405333665127
 20
-10.87445586563874
 30
0.0
 10
22.07474778109574
 20
-11.06070586563876
 30
0.0
 10
22.02238666998462
 20
-11.16515031008319
 30
0.0
 10
21.96544222554015
 20
-11.22306697674973
 30
0.0
 10
21.92030333665126
 20
-11.26876142119431
 30
0.0
 10
21.82335889220682
 20
-11.29167808786097
 30
0.0
 10
21.7590533366513
 20
-11.29167808786097
 30
0.0
 10
21.7590533366513
 20
-11.29167808786097
 30
0.0
 10
21.54780333665126
 20
-11.29167808786097
 30
0.0
 10
21.54780333665126
 20
-11.29167808786097
 30
0.0
 10
21.54780333665126
 20
-11.29167808786097
 30
0.0
 10
21.38447000331795
 20
-11.29167808786097
 30
0.0
 10
21.38447000331795
 20
-11.29167808786097
 30
0.0
  0
SPLINE
  5
244
330
23F
100
AcDbEntity
  8
Layer 1
 62
   242
420
 13508646
370
     9
100
AcDbSpline
210
0.0
220
0.0
230
1.0
 70
     8
 71
     3
 72
    47
 73
    43
 74
     0
 42
0.0000000001
 43
0.0000000001
 12
1.0
 22
0.0
 32
0.0
 13
1.0
 23
0.0
 33
0.0
 40
0.0
 40
0.0
 40
0.0
 40
0.0
 40
1.0
 40
1.0
 40
1.0
 40
2.0
 40
2.0
 40
2.0
 40
3.0
 40
3.0
 40
3.0
 40
4.0
 40
4.0
 40
4.0
 40
5.0
 40
5.0
 40
5.0
 40
6.0
 40
6.0
 40
6.0
 40
7.0
 40
7.0
 40
7.0
 40
8.0
 40
8.0
 40
8.0
 40
9.0
 40
9.0
 40
9.0
 40
10.0
 40
10.0
 40
10.0
 40
11.0
 40
11.0
 40
11.0
 40
12.0
 40
12.0
 40
12.0
 40
13.0
 40
13.0
 40
13.0
 40
14.0
 40
14.0
 40
14.0
 40
14.0
 10
20.8203033366513
 20
-8.515983643416398
 30
0.0
 10
20.8203033366513
 20
-8.515983643416398
 30
0.0
 10
20.8203033366513
 20
-8.516539198971941
 30
0.0
 10
20.8203033366513
 20
-8.516539198971941
 30
0.0
 10
20.82085889220682
 20
-8.532928087860984
 30
0.0
 10
20.82141444776238
 20
-8.549594754527636
 30
0.0
 10
20.82183111442903
 20
-8.566539198971945
 30
0.0
 10
20.82488666998461
 20
-8.682789198972083
 30
0.0
 10
20.82516444776239
 20
-8.812094754527505
 30
0.0
 10
20.82335889220682
 20
-8.948622532305409
 30
0.0
 10
20.82169222554017
 20
-9.075011421194302
 30
0.0
 10
20.81822000331795
 20
-9.207650310083206
 30
0.0
 10
20.81349778109572
 20
-9.34181697674987
 30
0.0
 10
20.80863666998463
 20
-9.47556697674986
 30
0.0
 10
20.8026644477624
 20
-9.610705865638742
 30
0.0
 10
20.79585889220683
 20
-9.743066976749862
 30
0.0
 10
20.7886366699846
 20
-9.883761421194322
 30
0.0
 10
20.78058111442907
 20
-10.02126142119432
 30
0.0
 10
20.7722477810957
 20
-10.1500114211943
 30
0.0
 10
20.76238666998461
 20
-10.30320586563875
 30
0.0
 10
20.75224778109572
 20
-10.44390031008318
 30
0.0
 10
20.74280333665127
 20
-10.56306697674987
 30
0.0
 10
20.73197000331796
 20
-10.70028919897196
 30
0.0
 10
20.72197000331794
 20
-10.8087614211943
 30
0.0
 10
20.71474778109571
 20
-10.87445586563874
 30
0.0
 10
20.71058111442906
 20
-10.91251142119432
 30
0.0
 10
20.70933111442906
 20
-10.9470947545275
 30
0.0
 10
20.71072000331792
 20
-10.97848364341654
 30
0.0
 10
20.71558111442906
 20
-11.10140031008319
 30
0.0
 10
20.75808111442903
 20
-11.17695586563862
 30
0.0
 10
20.80335889220684
 20
-11.22306697674973
 30
0.0
 10
20.81113666998463
 20
-11.23084475452765
 30
0.0
 10
20.81933111442908
 20
-11.23806697674985
 30
0.0
 10
20.82808111442904
 20
-11.2444558656386
 30
0.0
 10
20.87030333665128
 20
-11.27598364341651
 30
0.0
 10
20.92294222554018
 20
-11.29167808786097
 30
0.0
 10
20.97627555887351
 20
-11.29167808786097
 30
0.0
 10
20.97627555887351
 20
-11.29167808786097
 30
0.0
 10
21.16447000331795
 20
-11.29167808786097
 30
0.0
 10
21.16447000331795
 20
-11.29167808786097
 30
0.0
 10
21.16447000331795
 20
-11.29167808786097
 30
0.0
 10
21.38447000331795
 20
-11.29167808786097
 30
0.0
 10
21.38447000331795
 20
-11.29167808786097
 30
0.0
  0
POLYLINE
  5
245
330
23F
100
AcDbEntity
  8
Layer 1
 62
   242
420
 13508646
370
     9
100
AcDb2dPolyline
 66
     1
 10
0.0
 20
0.0
 30
0.0
  0
VERTEX
  5
246
330
245
100
AcDbEntity
  8
Layer 1
 62
   242
420
 13508646
370
     9
100
AcDbVertex
100
AcDb2dVertex
 10
20.8203033366513
 20
-7.198900310083192
 30
0.0
  0
VERTEX
  5
247
330
245
100
AcDbEntity
  8
Layer 1
 62
   242
420
 13508646
370
     9
100
AcDbVertex
100
AcDb2dVertex
 10
21.9484980184546
 20
-7.198900310083192
 30
0.0
  0
SEQEND
  5
248
330
245
100
AcDbEntity
  8
Layer 1
 62
   242
420
 13508646
370
     9
  0
POLYLINE
  5
249
330
23F
100
AcDbEntity
  8
Layer 1
 62
   242
420
 13508646
370
     9
100
AcDb2dPolyline
 66
     1
 10
0.0
 20
0.0
 30
0.0
  0
VERTEX
  5
24A
330
249
100
AcDbEntity
  8
Layer 1
 62
   242
420
 13508646
370
     9
100
AcDbVertex
100
AcDb2dVertex
 10
20.8203033366513
 20
-7.198900310083192
 30
0.0
  0
VERTEX
  5
24B
330
249
100
AcDbEntity
  8
Layer 1
 62
   242
420
 13508646
370
     9
100
AcDbVertex
100
AcDb2dVertex
 10
20.8203033366513
 20
-8.516539198971941
 30
0.0
  0
SEQEND
  5
24C
330
249
100
AcDbEntity
  8
Layer 1
 62
   242
420
 13508646
370
     9
  0
POLYLINE
  5
24D
330
23F
100
AcDbEntity
  8
Layer 1
 62
   242
420
 13508646
370
     9
100
AcDb2dPolyline
 66
     1
 10
0.0
 20
0.0
 30
0.0
  0
VERTEX
  5
24E
330
24D
100
AcDbEntity
  8
Layer 1
 62
   242
420
 13508646
370
     9
100
AcDbVertex
100
AcDb2dVertex
 10
21.9484980184546
 20
-7.198900310083192
 30
0.0
  0
VERTEX
  5
24F
330
24D
100
AcDbEntity
  8
Layer 1
 62
   242
420
 13508646
370
     9
100
AcDbVertex
100
AcDb2dVertex
 10
21.9484980184546
 20
-8.516539198971941
 30
0.0
  0
SEQEND
  5
250
330
24D
100
AcDbEntity
  8
Layer 1
 62
   242
420
 13508646
370
     9
  0
ENDBLK
  5
242
330
23F
100
AcDbEntity
  8
0
100
AcDbBlockEnd
  0
BLOCK
  5
253
330
251
100
AcDbEntity
  8
0
100
AcDbBlockBegin
  2
block 8
 70
     0
 10
0.0
 20
0.0
 30
0.0
  3
block 8
  1

  0
POLYLINE
  5
255
330
251
100
AcDbEntity
  8
Layer 1
 62
    18
420
    65793
370
     9
100
AcDb2dPolyline
 66
     1
 10
0.0
 20
0.0
 30
0.0
  0
VERTEX
  5
256
330
255
100
AcDbEntity
  8
Layer 1
 62
    18
420
    65793
370
     9
100
AcDbVertex
100
AcDb2dVertex
 10
16.91247725956547
 20
-14.89024269902552
 30
0.0
  0
VERTEX
  5
257
330
255
100
AcDbEntity
  8
Layer 1
 62
    18
420
    65793
370
     9
100
AcDbVertex
100
AcDb2dVertex
 10
19.90011594567459
 20
-11.9026040142578
 30
0.0
  0
SEQEND
  5
258
330
255
100
AcDbEntity
  8
Layer 1
 62
    18
420
    65793
370
     9
  0
POLYLINE
  5
259
330
251
100
AcDbEntity
  8
Layer 1
 62
    18
420
    65793
370
     9
100
AcDb2dPolyline
 66
     1
 10
0.0
 20
0.0
 30
0.0
  0
VERTEX
  5
25A
330
259
100
AcDbEntity
  8
Layer 1
 62
    18
420
    65793
370
     9
100
AcDbVertex
100
AcDb2dVertex
 10
20.28344978763418
 20
-11.9026040143439
 30
0.0
  0
VERTEX
  5
25B
330
259
100
AcDbEntity
  8
Layer 1
 62
    18
420
    65793
370
     9
100
AcDbVertex
100
AcDb2dVertex
 10
20.20664382516048
 20
-11.97940912907274
 30
0.0
  0
VERTEX
  5
25C
330
259
100
AcDbEntity
  8
Layer 1
 62
    18
420
    65793
370
     9
100
AcDbVertex
100
AcDb2dVertex
 10
16.94803278113459
 20
-15.23802017163545
 30
0.0
  0
SEQEND
  5
25D
330
259
100
AcDbEntity
  8
Layer 1
 62
    18
420
    65793
370
     9
  0
POLYLINE
  5
25E
330
251
100
AcDbEntity
  8
Layer 1
 62
    18
420
    65793
370
     9
100
AcDb2dPolyline
 66
     1
 10
0.0
 20
0.0
 30
0.0
  0
VERTEX
  5
25F
330
25E
100
AcDbEntity
  8
Layer 1
 62
    18
420
    65793
370
     9
100
AcDbVertex
100
AcDb2dVertex
 10
21.38442180510371
 20
-17.70385350596464
 30
0.0
  0
VERTEX
  5
260
330
25E
100
AcDbEntity
  8
Layer 1
 62
    18
420
    65793
370
     9
100
AcDbVertex
100
AcDb2dVertex
 10
22.5824773609281
 20
-16.50579795067816
 30
0.0
  0
SEQEND
  5
261
330
25E
100
AcDbEntity
  8
Layer 1
 62
    18
420
    65793
370
     9
  0
POLYLINE
  5
262
330
251
100
AcDbEntity
  8
Layer 1
 62
    18
420
    65793
370
     9
100
AcDb2dPolyline
 66
     1
 10
0.0
 20
0.0
 30
0.0
  0
VERTEX
  5
263
330
262
100
AcDbEntity
  8
Layer 1
 62
    18
420
    65793
370
     9
100
AcDbVertex
100
AcDb2dVertex
 10
20.78969958283397
 20
-17.9149646169424
 30
0.0
  0
VERTEX
  5
264
330
262
100
AcDbEntity
  8
Layer 1
 62
    18
420
    65793
370
     9
100
AcDbVertex
100
AcDb2dVertex
 10
22.81247736106591
 20
-15.89218683961862
 30
0.0
  0
SEQEND
  5
265
330
262
100
AcDbEntity
  8
Layer 1
 62
    18
420
    65793
370
     9
  0
POLYLINE
  5
266
330
251
100
AcDbEntity
  8
Layer 1
 62
    18
420
    65793
370
     9
100
AcDb2dPolyline
 66
     1
 10
0.0
 20
0.0
 30
0.0
  0
VERTEX
  5
267
330
266
100
AcDbEntity
  8
Layer 1
 62
    18
420
    65793
370
     9
100
AcDbVertex
100
AcDb2dVertex
 10
20.3302551383725
 20
-17.99107572795035
 30
0.0
  0
VERTEX
  5
268
330
266
100
AcDbEntity
  8
Layer 1
 62
    18
420
    65793
370
     9
100
AcDbVertex
100
AcDb2dVertex
 10
22.90400513895025
 20
-15.41732572852816
 30
0.0
  0
SEQEND
  5
269
330
266
100
AcDbEntity
  8
Layer 1
 62
    18
420
    65793
370
     9
  0
POLYLINE
  5
26A
330
251
100
AcDbEntity
  8
Layer 1
 62
    18
420
    65793
370
     9
100
AcDb2dPolyline
 66
     1
 10
0.0
 20
0.0
 30
0.0
  0
VERTEX
  5
26B
330
26A
100
AcDbEntity
  8
Layer 1
 62
    18
420
    65793
370
     9
100
AcDbVertex
100
AcDb2dVertex
 10
19.92789402725723
 20
-18.00982572785993
 30
0.0
  0
VERTEX
  5
26C
330
26A
100
AcDbEntity
  8
Layer 1
 62
    18
420
    65793
370
     9
100
AcDbVertex
100
AcDb2dVertex
 10
22.95636625015923
 20
-14.98135350631757
 30
0.0
  0
SEQEND
  5
26D
330
26A
100
AcDbEntity
  8
Layer 1
 62
    18
420
    65793
370
     9
  0
POLYLINE
  5
26E
330
251
100
AcDbEntity
  8
Layer 1
 62
    18
420
    65793
370
     9
100
AcDb2dPolyline
 66
     1
 10
0.0
 20
0.0
 30
0.0
  0
VERTEX
  5
26F
330
26E
100
AcDbEntity
  8
Layer 1
 62
    18
420
    65793
370
     9
100
AcDbVertex
100
AcDb2dVertex
 10
19.56178291614992
 20
-17.99260350555558
 30
0.0
  0
VERTEX
  5
270
330
26E
100
AcDbEntity
  8
Layer 1
 62
    18
420
    65793
370
     9
100
AcDbVertex
100
AcDb2dVertex
 10
22.98289402802902
 20
-14.57149239521239
 30
0.0
  0
SEQEND
  5
271
330
26E
100
AcDbEntity
  8
Layer 1
 62
    18
420
    65793
370
     9
  0
POLYLINE
  5
272
330
251
100
AcDbEntity
  8
Layer 1
 62
    18
420
    65793
370
     9
100
AcDb2dPolyline
 66
     1
 10
0.0
 20
0.0
 30
0.0
  0
VERTEX
  5
273
330
272
100
AcDbEntity
  8
Layer 1
 62
    18
420
    65793
370
     9
100
AcDbVertex
100
AcDb2dVertex
 10
19.22608847171624
 20
-17.94496461659135
 30
0.0
  0
VERTEX
  5
274
330
272
100
AcDbEntity
  8
Layer 1
 62
    18
420
    65793
370
     9
100
AcDbVertex
100
AcDb2dVertex
 10
22.98525513922666
 20
-14.1857979507686
 30
0.0
  0
SEQEND
  5
275
330
272
100
AcDbEntity
  8
Layer 1
 62
    18
420
    65793
370
     9
  0
POLYLINE
  5
276
330
251
100
AcDbEntity
  8
Layer 1
 62
    18
420
    65793
370
     9
100
AcDb2dPolyline
 66
     1
 10
0.0
 20
0.0
 30
0.0
  0
VERTEX
  5
277
330
276
100
AcDbEntity
  8
Layer 1
 62
    18
420
    65793
370
     9
100
AcDbVertex
100
AcDb2dVertex
 10
18.91789402728879
 20
-17.86954794985541
 30
0.0
  0
VERTEX
  5
278
330
276
100
AcDbEntity
  8
Layer 1
 62
    18
420
    65793
370
     9
100
AcDbVertex
100
AcDb2dVertex
 10
22.9565051393064
 20
-13.83093683965093
 30
0.0
  0
SEQEND
  5
279
330
276
100
AcDbEntity
  8
Layer 1
 62
    18
420
    65793
370
     9
  0
POLYLINE
  5
27A
330
251
100
AcDbEntity
  8
Layer 1
 62
    18
420
    65793
370
     9
100
AcDb2dPolyline
 66
     1
 10
0.0
 20
0.0
 30
0.0
  0
VERTEX
  5
27B
330
27A
100
AcDbEntity
  8
Layer 1
 62
    18
420
    65793
370
     9
100
AcDbVertex
100
AcDb2dVertex
 10
18.63539402731137
 20
-17.76871461645874
 30
0.0
  0
VERTEX
  5
27C
330
27A
100
AcDbEntity
  8
Layer 1
 62
    18
420
    65793
370
     9
100
AcDbVertex
100
AcDb2dVertex
 10
22.89386625048948
 20
-13.51024239519244
 30
0.0
  0
SEQEND
  5
27D
330
27A
100
AcDbEntity
  8
Layer 1
 62
    18
420
    65793
370
     9
  0
POLYLINE
  5
27E
330
251
100
AcDbEntity
  8
Layer 1
 62
    18
420
    65793
370
     9
100
AcDb2dPolyline
 66
     1
 10
0.0
 20
0.0
 30
0.0
  0
VERTEX
  5
27F
330
27E
100
AcDbEntity
  8
Layer 1
 62
    18
420
    65793
370
     9
100
AcDbVertex
100
AcDb2dVertex
 10
18.37650513845046
 20
-17.64399239417836
 30
0.0
  0
VERTEX
  5
280
330
27E
100
AcDbEntity
  8
Layer 1
 62
    18
420
    65793
370
     9
100
AcDbVertex
100
AcDb2dVertex
 10
22.79678291722045
 20
-13.22371461739287
 30
0.0
  0
SEQEND
  5
281
330
27E
100
AcDbEntity
  8
Layer 1
 62
    18
420
    65793
370
     9
  0
POLYLINE
  5
282
330
251
100
AcDbEntity
  8
Layer 1
 62
    18
420
    65793
370
     9
100
AcDb2dPolyline
 66
     1
 10
0.0
 20
0.0
 30
0.0
  0
VERTEX
  5
283
330
282
100
AcDbEntity
  8
Layer 1
 62
    18
420
    65793
370
     9
100
AcDbVertex
100
AcDb2dVertex
 10
18.14011624959441
 20
-17.49704794968094
 30
0.0
  0
VERTEX
  5
284
330
282
100
AcDbEntity
  8
Layer 1
 62
    18
420
    65793
370
     9
100
AcDbVertex
100
AcDb2dVertex
 10
22.66872736172218
 20
-12.96843683958632
 30
0.0
  0
SEQEND
  5
285
330
282
100
AcDbEntity
  8
Layer 1
 62
    18
420
    65793
370
     9
  0
POLYLINE
  5
286
330
251
100
AcDbEntity
  8
Layer 1
 62
    18
420
    65793
370
     9
100
AcDb2dPolyline
 66
     1
 10
0.0
 20
0.0
 30
0.0
  0
VERTEX
  5
287
330
286
100
AcDbEntity
  8
Layer 1
 62
    18
420
    65793
370
     9
100
AcDbVertex
100
AcDb2dVertex
 10
17.92497736074337
 20
-17.32857572741043
 30
0.0
  0
VERTEX
  5
288
330
286
100
AcDbEntity
  8
Layer 1
 62
    18
420
    65793
370
     9
100
AcDbVertex
100
AcDb2dVertex
 10
22.51525513955165
 20
-12.73829795066303
 30
0.0
  0
SEQEND
  5
289
330
286
100
AcDbEntity
  8
Layer 1
 62
    18
420
    65793
370
     9
  0
POLYLINE
  5
28A
330
251
100
AcDbEntity
  8
Layer 1
 62
    18
420
    65793
370
     9
100
AcDb2dPolyline
 66
     1
 10
0.0
 20
0.0
 30
0.0
  0
VERTEX
  5
28B
330
28A
100
AcDbEntity
  8
Layer 1
 62
    18
420
    65793
370
     9
100
AcDbVertex
100
AcDb2dVertex
 10
17.73067180523046
 20
-17.13954794958891
 30
0.0
  0
VERTEX
  5
28C
330
28A
100
AcDbEntity
  8
Layer 1
 62
    18
420
    65793
370
     9
100
AcDbVertex
100
AcDb2dVertex
 10
22.340949584043
 20
-12.5292701728461
 30
0.0
  0
SEQEND
  5
28D
330
28A
100
AcDbEntity
  8
Layer 1
 62
    18
420
    65793
370
     9
  0
POLYLINE
  5
28E
330
251
100
AcDbEntity
  8
Layer 1
 62
    18
420
    65793
370
     9
100
AcDb2dPolyline
 66
     1
 10
0.0
 20
0.0
 30
0.0
  0
VERTEX
  5
28F
330
28E
100
AcDbEntity
  8
Layer 1
 62
    18
420
    65793
370
     9
100
AcDbVertex
100
AcDb2dVertex
 10
17.55636624972178
 20
-16.93052017177208
 30
0.0
  0
VERTEX
  5
290
330
28E
100
AcDbEntity
  8
Layer 1
 62
    18
420
    65793
370
     9
100
AcDbVertex
100
AcDb2dVertex
 10
22.14817180630795
 20
-12.33871461724728
 30
0.0
  0
SEQEND
  5
291
330
28E
100
AcDbEntity
  8
Layer 1
 62
    18
420
    65793
370
     9
  0
POLYLINE
  5
292
330
251
100
AcDbEntity
  8
Layer 1
 62
    18
420
    65793
370
     9
100
AcDb2dPolyline
 66
     1
 10
0.0
 20
0.0
 30
0.0
  0
VERTEX
  5
293
330
292
100
AcDbEntity
  8
Layer 1
 62
    18
420
    65793
370
     9
100
AcDbVertex
100
AcDb2dVertex
 10
17.40192180532873
 20
-16.70135350507071
 30
0.0
  0
VERTEX
  5
294
330
292
100
AcDbEntity
  8
Layer 1
 62
    18
420
    65793
370
     9
100
AcDbVertex
100
AcDb2dVertex
 10
21.93775513968032
 20
-12.16552017275563
 30
0.0
  0
SEQEND
  5
295
330
292
100
AcDbEntity
  8
Layer 1
 62
    18
420
    65793
370
     9
  0
POLYLINE
  5
296
330
251
100
AcDbEntity
  8
Layer 1
 62
    18
420
    65793
370
     9
100
AcDb2dPolyline
 66
     1
 10
0.0
 20
0.0
 30
0.0
  0
VERTEX
  5
297
330
296
100
AcDbEntity
  8
Layer 1
 62
    18
420
    65793
370
     9
100
AcDbVertex
100
AcDb2dVertex
 10
17.26775513871798
 20
-16.45218683837384
 30
0.0
  0
VERTEX
  5
298
330
296
100
AcDbEntity
  8
Layer 1
 62
    18
420
    65793
370
     9
100
AcDbVertex
100
AcDb2dVertex
 10
21.710532917493
 20
-12.00940906159351
 30
0.0
  0
SEQEND
  5
299
330
296
100
AcDbEntity
  8
Layer 1
 62
    18
420
    65793
370
     9
  0
POLYLINE
  5
29A
330
251
100
AcDbEntity
  8
Layer 1
 62
    18
420
    65793
370
     9
100
AcDb2dPolyline
 66
     1
 10
0.0
 20
0.0
 30
0.0
  0
VERTEX
  5
29B
330
29A
100
AcDbEntity
  8
Layer 1
 62
    18
420
    65793
370
     9
100
AcDbVertex
100
AcDb2dVertex
 10
17.15442180544526
 20
-16.18190906057071
 30
0.0
  0
VERTEX
  5
29C
330
29A
100
AcDbEntity
  8
Layer 1
 62
    18
420
    65793
370
     9
100
AcDbVertex
100
AcDb2dVertex
 10
21.43372736196145
 20
-11.90260350597578
 30
0.0
  0
SEQEND
  5
29D
330
29A
100
AcDbEntity
  8
Layer 1
 62
    18
420
    65793
370
     9
  0
POLYLINE
  5
29E
330
251
100
AcDbEntity
  8
Layer 1
 62
    18
420
    65793
370
     9
100
AcDb2dPolyline
 66
     1
 10
0.0
 20
0.0
 30
0.0
  0
VERTEX
  5
29F
330
29E
100
AcDbEntity
  8
Layer 1
 62
    18
420
    65793
370
     9
100
AcDbVertex
100
AcDb2dVertex
 10
17.06331069439991
 20
-15.88968683832801
 30
0.0
  0
VERTEX
  5
2A0
330
29E
100
AcDbEntity
  8
Layer 1
 62
    18
420
    65793
370
     9
100
AcDbVertex
100
AcDb2dVertex
 10
21.05039402862818
 20
-11.90260350588973
 30
0.0
  0
SEQEND
  5
2A1
330
29E
100
AcDbEntity
  8
Layer 1
 62
    18
420
    65793
370
     9
  0
POLYLINE
  5
2A2
330
251
100
AcDbEntity
  8
Layer 1
 62
    18
420
    65793
370
     9
100
AcDb2dPolyline
 66
     1
 10
0.0
 20
0.0
 30
0.0
  0
VERTEX
  5
2A3
330
2A2
100
AcDbEntity
  8
Layer 1
 62
    18
420
    65793
370
     9
100
AcDbVertex
100
AcDb2dVertex
 10
16.99692180558205
 20
-15.57246461609083
 30
0.0
  0
VERTEX
  5
2A4
330
2A2
100
AcDbEntity
  8
Layer 1
 62
    18
420
    65793
370
     9
100
AcDbVertex
100
AcDb2dVertex
 10
20.66678291751696
 20
-11.9026035058036
 30
0.0
  0
SEQEND
  5
2A5
330
2A2
100
AcDbEntity
  8
Layer 1
 62
    18
420
    65793
370
     9
  0
POLYLINE
  5
2A6
330
251
100
AcDbEntity
  8
Layer 1
 62
    18
420
    65793
370
     9
100
AcDb2dPolyline
 66
     1
 10
0.0
 20
0.0
 30
0.0
  0
VERTEX
  5
2A7
330
2A6
100
AcDbEntity
  8
Layer 1
 62
    18
420
    65793
370
     9
100
AcDbVertex
100
AcDb2dVertex
 10
16.89289402812528
 20
-14.14288128273425
 30
0.0
  0
VERTEX
  5
2A8
330
2A6
100
AcDbEntity
  8
Layer 1
 62
    18
420
    65793
370
     9
100
AcDbVertex
100
AcDb2dVertex
 10
19.13317180640585
 20
-11.90260350545933
 30
0.0
  0
SEQEND
  5
2A9
330
2A6
100
AcDbEntity
  8
Layer 1
 62
    18
420
    65793
370
     9
  0
POLYLINE
  5
2AA
330
251
100
AcDbEntity
  8
Layer 1
 62
    18
420
    65793
370
     9
100
AcDb2dPolyline
 66
     1
 10
0.0
 20
0.0
 30
0.0
  0
VERTEX
  5
2AB
330
2AA
100
AcDbEntity
  8
Layer 1
 62
    18
420
    65793
370
     9
100
AcDbVertex
100
AcDb2dVertex
 10
18.74956069529475
 20
-11.90260350537324
 30
0.0
  0
VERTEX
  5
2AC
330
2AA
100
AcDbEntity
  8
Layer 1
 62
    18
420
    65793
370
     9
100
AcDbVertex
100
AcDb2dVertex
 10
16.93803291711035
 20
-13.71399239385545
 30
0.0
  0
VERTEX
  5
2AD
330
2AA
100
AcDbEntity
  8
Layer 1
 62
    18
420
    65793
370
     9
100
AcDbVertex
100
AcDb2dVertex
 10
16.93803291711035
 20
-13.71413128274432
 30
0.0
  0
SEQEND
  5
2AE
330
2AA
100
AcDbEntity
  8
Layer 1
 62
    18
420
    65793
370
     9
  0
POLYLINE
  5
2AF
330
251
100
AcDbEntity
  8
Layer 1
 62
    18
420
    65793
370
     9
100
AcDb2dPolyline
 66
     1
 10
0.0
 20
0.0
 30
0.0
  0
VERTEX
  5
2B0
330
2AF
100
AcDbEntity
  8
Layer 1
 62
    18
420
    65793
370
     9
100
AcDbVertex
100
AcDb2dVertex
 10
17.10678291723432
 20
-13.16204794944888
 30
0.0
  0
VERTEX
  5
2B1
330
2AF
100
AcDbEntity
  8
Layer 1
 62
    18
420
    65793
370
     9
100
AcDbVertex
100
AcDb2dVertex
 10
18.36622736196141
 20
-11.90260350528714
 30
0.0
  0
SEQEND
  5
2B2
330
2AF
100
AcDbEntity
  8
Layer 1
 62
    18
420
    65793
370
     9
  0
SPLINE
  5
2B3
330
251
100
AcDbEntity
  8
Layer 1
 62
   242
420
 13508646
370
     9
100
AcDbSpline
210
0.0
220
0.0
230
1.0
 70
     8
 71
     3
 72
    35
 73
    31
 74
     0
 42
0.0000000001
 43
0.0000000001
 12
1.0
 22
0.0
 32
0.0
 13
1.0
 23
0.0
 33
0.0
 40
0.0
 40
0.0
 40
0.0
 40
0.0
 40
1.0
 40
1.0
 40
1.0
 40
2.0
 40
2.0
 40
2.0
 40
3.0
 40
3.0
 40
3.0
 40
4.0
 40
4.0
 40
4.0
 40
5.0
 40
5.0
 40
5.0
 40
6.0
 40
6.0
 40
6.0
 40
7.0
 40
7.0
 40
7.0
 40
8.0
 40
8.0
 40
8.0
 40
9.0
 40
9.0
 40
9.0
 40
10.0
 40
10.0
 40
10.0
 40
10.0
 10
19.93827949245168
 20
-7.809826372122314
 30
0.0
 10
19.93827949245168
 20
-7.809826372122314
 30
0.0
 10
19.56360498917585
 20
-7.809826372038186
 30
0.0
 10
19.56360498917585
 20
-7.809826372038186
 30
0.0
 10
19.4993309301967
 20
-7.809826372023785
 30
0.0
 10
19.40239660215512
 20
-7.832700333939505
 30
0.0
 10
19.35729333857651
 20
-7.878491711645766
 30
0.0
 10
19.30031247952449
 20
-7.936341894356574
 30
0.0
 10
19.24798244247535
 20
-8.040844243405495
 30
0.0
 10
19.2686731082967
 20
-8.22706023617982
 30
0.0
 10
19.30971250469348
 20
-8.596414804504219
 30
0.0
 10
19.43283069374494
 20
-10.32006945666932
 30
0.0
 10
19.35075026366695
 20
-10.89463246553944
 30
0.0
 10
19.27177670682434
 20
-11.44738040573235
 30
0.0
 10
18.72268836043809
 20
-11.69197648734975
 30
0.0
 10
18.29307825635225
 20
-11.93388969221607
 30
0.0
 10
17.71938027191257
 20
-12.25693880285088
 30
0.0
 10
17.2013126187662
 20
-12.7827299464458
 30
0.0
 10
17.00694337529032
 20
-13.4243935867805
 30
0.0
 10
16.87366947707973
 20
-13.86442333848282
 30
0.0
 10
16.87570745668333
 20
-14.32829877896804
 30
0.0
 10
16.90470372320571
 20
-14.78317362968962
 30
0.0
 10
16.92246176092832
 20
-15.06175034755625
 30
0.0
 10
16.95682232425755
 20
-15.33901828273946
 30
0.0
 10
17.00396257702101
 20
-15.61415122028686
 30
0.0
 10
17.00396257702101
 20
-15.61415122028686
 30
0.0
 10
17.0039626424181
 20
-15.61415160197491
 30
0.0
 10
17.0039626424181
 20
-15.61415160197491
 30
0.0
 10
17.20915962454827
 20
-16.80429409992538
 30
0.0
 10
18.0709869503464
 20
-18.00982637170308
 30
0.0
 10
19.93827949016195
 20
-18.00982637212236
 30
0.0
  0
SPLINE
  5
2B4
330
251
100
AcDbEntity
  8
Layer 1
 62
   242
420
 13508646
370
     9
100
AcDbSpline
210
0.0
220
0.0
230
1.0
 70
     8
 71
     3
 72
    35
 73
    31
 74
     0
 42
0.0000000001
 43
0.0000000001
 12
1.0
 22
0.0
 32
0.0
 13
1.0
 23
0.0
 33
0.0
 40
0.0
 40
0.0
 40
0.0
 40
0.0
 40
1.0
 40
1.0
 40
1.0
 40
2.0
 40
2.0
 40
2.0
 40
3.0
 40
3.0
 40
3.0
 40
4.0
 40
4.0
 40
4.0
 40
5.0
 40
5.0
 40
5.0
 40
6.0
 40
6.0
 40
6.0
 40
7.0
 40
7.0
 40
7.0
 40
8.0
 40
8.0
 40
8.0
 40
9.0
 40
9.0
 40
9.0
 40
10.0
 40
10.0
 40
10.0
 40
10.0
 10
19.93827949275502
 20
-7.809826372122314
 30
0.0
 10
19.93827949275502
 20
-7.809826372122314
 30
0.0
 10
20.34644973466028
 20
-7.809826372230797
 30
0.0
 10
20.34644973466028
 20
-7.809826372230797
 30
0.0
 10
20.41072379363959
 20
-7.809826372248026
 30
0.0
 10
20.47416238304039
 20
-7.832700334202627
 30
0.0
 10
20.51926564659637
 20
-7.878491711931146
 30
0.0
 10
20.57624650561992
 20
-7.936341894670199
 30
0.0
 10
20.62857654261744
 20
-8.040844243744889
 30
0.0
 10
20.6078858767038
 20
-8.227060236509082
 30
0.0
 10
20.566846480125
 20
-8.596414804813168
 30
0.0
 10
20.44372829022232
 20
-10.32006945691741
 30
0.0
 10
20.52580872001651
 20
-10.8946324658281
 30
0.0
 10
20.60478227658601
 20
-11.44738040606004
 30
0.0
 10
21.15387062285147
 20
-11.69197648795006
 30
0.0
 10
21.58348072681782
 20
-11.93388969302863
 30
0.0
 10
22.15717871109786
 20
-12.2569388039468
 30
0.0
 10
22.67524636398472
 20
-12.78272994779746
 30
0.0
 10
22.86961560714371
 20
-13.42439358822819
 30
0.0
 10
23.00288950513707
 20
-13.86442333999632
 30
0.0
 10
23.00085152530432
 20
-14.32829878048053
 30
0.0
 10
22.97185525855735
 20
-14.78317363118771
 30
0.0
 10
22.9540972206972
 20
-15.0617503490458
 30
0.0
 10
22.91973665723081
 20
-15.33901828421189
 30
0.0
 10
22.87259640433139
 20
-15.61415122173591
 30
0.0
 10
22.87259640433139
 20
-15.61415122173591
 30
0.0
 10
22.87259633893442
 20
-15.61415160342411
 30
0.0
 10
22.87259633893442
 20
-15.61415160342411
 30
0.0
 10
22.66739935621652
 20
-16.80429410127335
 30
0.0
 10
21.80557202982305
 20
-18.00982637262521
 30
0.0
 10
19.93827949000749
 20
-18.00982637212236
 30
0.0
  0
POLYLINE
  5
2B5
330
251
100
AcDbEntity
  8
Layer 1
 62
    18
420
    65793
370
     9
100
AcDb2dPolyline
 66
     1
 10
0.0
 20
0.0
 30
0.0
  0
VERTEX
  5
2B6
330
2B5
100
AcDbEntity
  8
Layer 1
 62
    18
420
    65793
370
     9
100
AcDbVertex
100
AcDb2dVertex
 10
16.89206015217095
 20
-14.52704791549228
 30
0.0
  0
VERTEX
  5
2B7
330
2B5
100
AcDbEntity
  8
Layer 1
 62
    18
420
    65793
370
     9
100
AcDbVertex
100
AcDb2dVertex
 10
19.51650490238029
 20
-11.90260401417173
 30
0.0
  0
SEQEND
  5
2B8
330
2B5
100
AcDbEntity
  8
Layer 1
 62
    18
420
    65793
370
     9
  0
POLYLINE
  5
2B9
330
251
100
AcDbEntity
  8
Layer 1
 62
    18
420
    65793
370
     9
100
AcDb2dPolyline
 66
     1
 10
0.0
 20
0.0
 30
0.0
  0
VERTEX
  5
2BA
330
2B9
100
AcDbEntity
  8
Layer 1
 62
    18
420
    65793
370
     9
100
AcDbVertex
100
AcDb2dVertex
 10
21.52719958418366
 20
-11.90260350599674
 30
0.0
  0
VERTEX
  5
2BB
330
2B9
100
AcDbEntity
  8
Layer 1
 62
    18
420
    65793
370
     9
100
AcDbVertex
100
AcDb2dVertex
 10
18.34928291751698
 20
-11.90260350528335
 30
0.0
  0
SEQEND
  5
2BC
330
2B9
100
AcDbEntity
  8
Layer 1
 62
    18
420
    65793
370
     9
  0
ENDBLK
  5
254
330
251
100
AcDbEntity
  8
0
100
AcDbBlockEnd
  0
ENDSEC
  0
SECTION
  2
ENTITIES
  0
INSERT
  5
42
330
1F
100
AcDbEntity
  8
Layer 1
100
AcDbBlockReference
  2
block 2
 10
0.0
 20
0.0
 30
0.0
  0
ENDSEC
  0
SECTION
  2
OBJECTS
  0
DICTIONARY
  5
C
330
0
100
AcDbDictionary
281
     1
  3
ACAD_GROUP
350
D
  3
ACAD_LAYOUT
350
1A
  3
ACAD_MATERIAL
350
3B
  3
ACAD_MLEADERSTYLE
350
2BE
  3
ACAD_MLINESTYLE
350
17
  3
ACAD_PLOTSETTINGS
350
19
  3
ACAD_PLOTSTYLENAME
350
E
  3
ACAD_TABLESTYLE
350
2BD
  3
ACAD_VISUALSTYLE
350
2A
  0
SUN
  5
3F
330
29
100
AcDbSun
 90
        1
290
     0
 63
     7
421
 16777215
 40
1.0
291
     1
 91
  2455826
 92
 54000000
292
     0
 70
     2
 71
   256
280
     1
  0
DICTIONARY
  5
D
102
{ACAD_REACTORS
330
C
102
}
330
C
100
AcDbDictionary
281
     1
  0
DICTIONARY
  5
1A
102
{ACAD_REACTORS
330
C
102
}
330
C
100
AcDbDictionary
281
     1
  3
Layout1
350
1E
  3
Layout2
350
26
  3
Model
350
22
  0
DICTIONARY
  5
3B
102
{ACAD_REACTORS
330
C
102
}
330
C
100
AcDbDictionary
281
     1
  3
ByBlock
350
3D
  3
ByLayer
350
3C
  3
Global
350
3E
  0
DICTIONARY
  5
2BE
102
{ACAD_REACTORS
330
C
102
}
330
C
100
AcDbDictionary
281
     1
  0
DICTIONARY
  5
17
102
{ACAD_REACTORS
330
C
102
}
330
C
100
AcDbDictionary
281
     1
  3
Standard
350
18
  0
DICTIONARY
  5
19
102
{ACAD_REACTORS
330
C
102
}
330
C
100
AcDbDictionary
281
     1
  0
ACDBDICTIONARYWDFLT
  5
E
102
{ACAD_REACTORS
330
C
102
}
330
C
100
AcDbDictionary
281
     1
  3
Normal
350
F
100
AcDbDictionaryWithDefault
340
F
  0
DICTIONARY
  5
2BD
102
{ACAD_REACTORS
330
C
102
}
330
C
100
AcDbDictionary
281
     1
  0
DICTIONARY
  5
2A
102
{ACAD_REACTORS
330
C
102
}
330
C
100
AcDbDictionary
281
     1
  3
2dWireframe
350
2F
  3
3D Hidden
350
31
  3
3dWireframe
350
30
  3
Basic
350
32
  3
Brighten
350
36
  3
ColorChange
350
3A
  3
Conceptual
350
34
  3
Dim
350
35
  3
Facepattern
350
39
  3
Flat
350
2B
  3
FlatWithEdges
350
2C
  3
Gouraud
350
2D
  3
GouraudWithEdges
350
2E
  3
Linepattern
350
38
  3
Realistic
350
33
  3
Thicken
350
37
  0
LAYOUT
  5
1E
102
{ACAD_REACTORS
330
1A
102
}
330
1A
100
AcDbPlotSettings
  1

  2
none_device
  4

  6

 40
0.0
 41
0.0
 42
0.0
 43
0.0
 44
0.0
 45
0.0
 46
0.0
 47
0.0
 48
0.0
 49
0.0
140
0.0
141
0.0
142
1.0
143
1.0
 70
   688
 72
     0
 73
     0
 74
     5
  7

 75
    16
 76
     0
 77
     2
 78
   300
147
1.0
148
0.0
149
0.0
100
AcDbLayout
  1
Layout1
 70
     1
 71
     1
 10
0.0
 20
0.0
 11
12.0
 21
9.0
 12
0.0
 22
0.0
 32
0.0
 14
1.000000000000000E+20
 24
1.000000000000000E+20
 34
1.000000000000000E+20
 15
-1.000000000000000E+20
 25
-1.000000000000000E+20
 35
-1.000000000000000E+20
146
0.0
 13
0.0
 23
0.0
 33
0.0
 16
1.0
 26
0.0
 36
0.0
 17
0.0
 27
1.0
 37
0.0
 76
     0
330
1B
  0
LAYOUT
  5
26
102
{ACAD_REACTORS
330
1A
102
}
330
1A
100
AcDbPlotSettings
  1

  2
none_device
  4

  6

 40
0.0
 41
0.0
 42
0.0
 43
0.0
 44
0.0
 45
0.0
 46
0.0
 47
0.0
 48
0.0
 49
0.0
140
0.0
141
0.0
142
1.0
143
1.0
 70
   688
 72
     0
 73
     0
 74
     5
  7

 75
    16
 76
     0
 77
     2
 78
   300
147
1.0
148
0.0
149
0.0
100
AcDbLayout
  1
Layout2
 70
     1
 71
     2
 10
0.0
 20
0.0
 11
0.0
 21
0.0
 12
0.0
 22
0.0
 32
0.0
 14
0.0
 24
0.0
 34
0.0
 15
0.0
 25
0.0
 35
0.0
146
0.0
 13
0.0
 23
0.0
 33
0.0
 16
1.0
 26
0.0
 36
0.0
 17
0.0
 27
1.0
 37
0.0
 76
     0
330
23
  0
LAYOUT
  5
22
102
{ACAD_REACTORS
330
1A
102
}
330
1A
100
AcDbPlotSettings
  1

  2
none_device
  4

  6

 40
0.0
 41
0.0
 42
0.0
 43
0.0
 44
0.0
 45
0.0
 46
0.0
 47
0.0
 48
0.0
 49
0.0
140
0.0
141
0.0
142
1.0
143
1.0
 70
  1712
 72
     0
 73
     0
 74
     0
  7

 75
     0
 76
     0
 77
     2
 78
   300
147
1.0
148
0.0
149
0.0
100
AcDbLayout
  1
Model
 70
     1
 71
     0
 10
0.0
 20
0.0
 11
12.0
 21
9.0
 12
0.0
 22
0.0
 32
0.0
 14
1.000000000000000E+20
 24
1.000000000000000E+20
 34
1.000000000000000E+20
 15
-1.000000000000000E+20
 25
-1.000000000000000E+20
 35
-1.000000000000000E+20
146
0.0
 13
0.0
 23
0.0
 33
0.0
 16
1.0
 26
0.0
 36
0.0
 17
0.0
 27
1.0
 37
0.0
 76
     0
330
1F
331
29
  0
MATERIAL
  5
3D
102
{ACAD_REACTORS
330
3B
102
}
330
3B
100
AcDbMaterial
  1
ByBlock
 72
     1
 94
      127
  0
MATERIAL
  5
3C
102
{ACAD_REACTORS
330
3B
102
}
330
3B
100
AcDbMaterial
  1
ByLayer
 72
     1
 94
      127
  0
MATERIAL
  5
3E
102
{ACAD_REACTORS
330
3B
102
}
330
3B
100
AcDbMaterial
  1
Global
 72
     1
 94
      127
  0
MLINESTYLE
  5
18
102
{ACAD_REACTORS
330
17
102
}
330
17
100
AcDbMlineStyle
  2
Standard
 70
     0
  3

 62
   256
 51
90.0
 52
90.0
 71
     2
 49
0.5
 62
   256
  6
BYLAYER
 49
-0.5
 62
   256
  6
BYLAYER
  0
ACDBPLACEHOLDER
  5
F
102
{ACAD_REACTORS
330
E
102
}
330
E
  0
VISUALSTYLE
  5
2F
102
{ACAD_REACTORS
330
2A
102
}
330
2A
100
AcDbVisualStyle
  2
2dWireframe
 70
     4
177
     2
291
     0
 71
     0
176
     1
 72
     2
176
     1
 73
     0
176
     1
 90
        0
176
     1
 40
-0.6
176
     1
 41
-30.0
176
     1
 62
     5
 63
     7
421
 16777215
176
     1
 74
     1
176
     1
 91
        4
176
     1
 64
     7
176
     1
 65
   257
176
     1
 75
     1
176
     1
175
     1
176
     1
 42
1.0
176
     1
 92
        0
176
     1
 66
   257
176
     1
 43
1.0
176
     1
 76
     1
176
     1
 77
     6
176
     1
 78
     2
176
     1
 67
     7
176
     1
 79
     5
176
     1
170
     0
176
     1
171
     0
176
     1
290
     0
176
     1
 93
        1
176
     1
 44
0.0
176
     1
173
     0
176
     1
  0
VISUALSTYLE
  5
31
102
{ACAD_REACTORS
330
2A
102
}
330
2A
100
AcDbVisualStyle
  2
3D Hidden
 70
     6
177
     2
291
     0
 71
     1
176
     1
 72
     2
176
     1
 73
     2
176
     1
 90
        0
176
     1
 40
-0.6
176
     1
 41
-30.0
176
     1
 62
     5
 63
     7
421
 16777215
176
     1
 74
     2
176
     1
 91
        2
176
     1
 64
     7
176
     1
 65
   257
176
     1
 75
     2
176
     1
175
     1
176
     1
 42
40.0
176
     1
 92
        0
176
     1
 66
   257
176
     1
 43
1.0
176
     1
 76
     1
176
     1
 77
     6
176
     1
 78
     2
176
     1
 67
     7
176
     1
 79
     3
176
     1
170
     0
176
     1
171
     0
176
     1
290
     0
176
     1
 93
        1
176
     1
 44
0.0
176
     1
173
     0
176
     1
  0
VISUALSTYLE
  5
30
102
{ACAD_REACTORS
330
2A
102
}
330
2A
100
AcDbVisualStyle
  2
3dWireframe
 70
     5
177
     2
291
     0
 71
     0
176
     1
 72
     2
176
     1
 73
     0
176
     1
 90
        0
176
     1
 40
-0.6
176
     1
 41
-30.0
176
     1
 62
     5
 63
     7
421
 16777215
176
     1
 74
     1
176
     1
 91
        4
176
     1
 64
     7
176
     1
 65
   257
176
     1
 75
     1
176
     1
175
     1
176
     1
 42
1.0
176
     1
 92
        0
176
     1
 66
   257
176
     1
 43
1.0
176
     1
 76
     1
176
     1
 77
     6
176
     1
 78
     2
176
     1
 67
     7
176
     1
 79
     5
176
     1
170
     0
176
     1
171
     0
176
     1
290
     0
176
     1
 93
        1
176
     1
 44
0.0
176
     1
173
     0
176
     1
  0
VISUALSTYLE
  5
32
102
{ACAD_REACTORS
330
2A
102
}
330
2A
100
AcDbVisualStyle
  2
Basic
 70
     7
177
     2
291
     1
 71
     1
176
     1
 72
     0
176
     1
 73
     1
176
     1
 90
        0
176
     1
 40
-0.6
176
     1
 41
-30.0
176
     1
 62
     5
 63
     7
421
 16777215
176
     1
 74
     0
176
     1
 91
        4
176
     1
 64
     7
176
     1
 65
   257
176
     1
 75
     1
176
     1
175
     1
176
     1
 42
1.0
176
     1
 92
        8
176
     1
 66
     7
176
     1
 43
1.0
176
     1
 76
     1
176
     1
 77
     6
176
     1
 78
     2
176
     1
 67
     7
176
     1
 79
     5
176
     1
170
     0
176
     1
171
     0
176
     1
290
     0
176
     1
 93
        1
176
     1
 44
0.0
176
     1
173
     0
176
     1
  0
VISUALSTYLE
  5
36
102
{ACAD_REACTORS
330
2A
102
}
330
2A
100
AcDbVisualStyle
  2
Brighten
 70
    12
177
     2
291
     1
 71
     2
176
     1
 72
     2
176
     1
 73
     0
176
     1
 90
        0
176
     1
 40
-0.6
176
     1
 41
-30.0
176
     1
 62
     5
 63
     7
421
 16777215
176
     1
 74
     1
176
     1
 91
        4
176
     1
 64
     7
176
     1
 65
   257
176
     1
 75
     1
176
     1
175
     1
176
     1
 42
1.0
176
     1
 92
        8
176
     1
 66
     7
176
     1
 43
1.0
176
     1
 76
     1
176
     1
 77
     6
176
     1
 78
     2
176
     1
 67
     7
176
     1
 79
     5
176
     1
170
     0
176
     1
171
     0
176
     1
290
     0
176
     1
 93
        1
176
     1
 44
50.0
176
     1
173
     0
176
     1
  0
VISUALSTYLE
  5
3A
102
{ACAD_REACTORS
330
2A
102
}
330
2A
100
AcDbVisualStyle
  2
ColorChange
 70
    16
177
     2
291
     1
 71
     2
176
     1
 72
     2
176
     1
 73
     3
176
     1
 90
        0
176
     1
 40
-0.6
176
     1
 41
-30.0
176
     1
 62
     5
 63
     8
421
  8421504
176
     1
 74
     1
176
     1
 91
        4
176
     1
 64
     7
176
     1
 65
   257
176
     1
 75
     1
176
     1
175
     1
176
     1
 42
1.0
176
     1
 92
        8
176
     1
 66
     8
424
  8421504
176
     1
 43
1.0
176
     1
 76
     1
176
     1
 77
     6
176
     1
 78
     2
176
     1
 67
     7
176
     1
 79
     5
176
     1
170
     0
176
     1
171
     0
176
     1
290
     0
176
     1
 93
        1
176
     1
 44
0.0
176
     1
173
     0
176
     1
  0
VISUALSTYLE
  5
34
102
{ACAD_REACTORS
330
2A
102
}
330
2A
100
AcDbVisualStyle
  2
Conceptual
 70
     9
177
     2
291
     0
 71
     3
176
     1
 72
     2
176
     1
 73
     0
176
     1
 90
        0
176
     1
 40
-0.6
176
     1
 41
-30.0
176
     1
 62
     5
 63
     7
421
 16777215
176
     1
 74
     2
176
     1
 91
        2
176
     1
 64
     7
176
     1
 65
   257
176
     1
 75
     1
176
     1
175
     1
176
     1
 42
40.0
176
     1
 92
        8
176
     1
 66
     7
176
     1
 43
1.0
176
     1
 76
     1
176
     1
 77
     6
176
     1
 78
     2
176
     1
 67
     7
176
     1
 79
     3
176
     1
170
     0
176
     1
171
     0
176
     1
290
     0
176
     1
 93
        1
176
     1
 44
0.0
176
     1
173
     0
176
     1
  0
VISUALSTYLE
  5
35
102
{ACAD_REACTORS
330
2A
102
}
330
2A
100
AcDbVisualStyle
  2
Dim
 70
    11
177
     2
291
     1
 71
     2
176
     1
 72
     2
176
     1
 73
     0
176
     1
 90
        0
176
     1
 40
-0.6
176
     1
 41
-30.0
176
     1
 62
     5
 63
     7
421
 16777215
176
     1
 74
     1
176
     1
 91
        4
176
     1
 64
     7
176
     1
 65
   257
176
     1
 75
     1
176
     1
175
     1
176
     1
 42
1.0
176
     1
 92
        8
176
     1
 66
     7
176
     1
 43
1.0
176
     1
 76
     1
176
     1
 77
     6
176
     1
 78
     2
176
     1
 67
     7
176
     1
 79
     5
176
     1
170
     0
176
     1
171
     0
176
     1
290
     0
176
     1
 93
        1
176
     1
 44
-50.0
176
     1
173
     0
176
     1
  0
VISUALSTYLE
  5
39
102
{ACAD_REACTORS
330
2A
102
}
330
2A
100
AcDbVisualStyle
  2
Facepattern
 70
    15
177
     2
291
     1
 71
     2
176
     1
 72
     2
176
     1
 73
     0
176
     1
 90
        0
176
     1
 40
-0.6
176
     1
 41
-30.0
176
     1
 62
     5
 63
     7
421
 16777215
176
     1
 74
     1
176
     1
 91
        4
176
     1
 64
     7
176
     1
 65
   257
176
     1
 75
     1
176
     1
175
     1
176
     1
 42
1.0
176
     1
 92
        8
176
     1
 66
     7
176
     1
 43
1.0
176
     1
 76
     1
176
     1
 77
     6
176
     1
 78
     2
176
     1
 67
     7
176
     1
 79
     5
176
     1
170
     0
176
     1
171
     0
176
     1
290
     0
176
     1
 93
        1
176
     1
 44
0.0
176
     1
173
     0
176
     1
  0
VISUALSTYLE
  5
2B
102
{ACAD_REACTORS
330
2A
102
}
330
2A
100
AcDbVisualStyle
  2
Flat
 70
     0
177
     2
291
     1
 71
     2
176
     1
 72
     1
176
     1
 73
     1
176
     1
 90
        2
176
     1
 40
-0.6
176
     1
 41
30.0
176
     1
 62
     5
 63
     7
421
 16777215
176
     1
 74
     0
176
     1
 91
        4
176
     1
 64
     7
176
     1
 65
   257
176
     1
 75
     1
176
     1
175
     1
176
     1
 42
1.0
176
     1
 92
        8
176
     1
 66
     7
176
     1
 43
1.0
176
     1
 76
     1
176
     1
 77
     6
176
     1
 78
     2
176
     1
 67
     7
176
     1
 79
     5
176
     1
170
     0
176
     1
171
     0
176
     1
290
     0
176
     1
 93
       13
176
     1
 44
0.0
176
     1
173
     0
176
     1
  0
VISUALSTYLE
  5
2C
102
{ACAD_REACTORS
330
2A
102
}
330
2A
100
AcDbVisualStyle
  2
FlatWithEdges
 70
     1
177
     2
291
     1
 71
     2
176
     1
 72
     1
176
     1
 73
     1
176
     1
 90
        2
176
     1
 40
-0.6
176
     1
 41
30.0
176
     1
 62
     5
 63
     7
421
 16777215
176
     1
 74
     1
176
     1
 91
        4
176
     1
 64
     7
176
     1
 65
   257
176
     1
 75
     1
176
     1
175
     1
176
     1
 42
1.0
176
     1
 92
        0
176
     1
 66
   257
176
     1
 43
1.0
176
     1
 76
     1
176
     1
 77
     6
176
     1
 78
     2
176
     1
 67
     7
176
     1
 79
     5
176
     1
170
     0
176
     1
171
     0
176
     1
290
     0
176
     1
 93
       13
176
     1
 44
0.0
176
     1
173
     0
176
     1
  0
VISUALSTYLE
  5
2D
102
{ACAD_REACTORS
330
2A
102
}
330
2A
100
AcDbVisualStyle
  2
Gouraud
 70
     2
177
     2
291
     1
 71
     2
176
     1
 72
     2
176
     1
 73
     1
176
     1
 90
        2
176
     1
 40
-0.6
176
     1
 41
30.0
176
     1
 62
     5
 63
     7
421
 16777215
176
     1
 74
     0
176
     1
 91
        4
176
     1
 64
     7
176
     1
 65
   257
176
     1
 75
     1
176
     1
175
     1
176
     1
 42
1.0
176
     1
 92
        0
176
     1
 66
     7
176
     1
 43
1.0
176
     1
 76
     1
176
     1
 77
     6
176
     1
 78
     2
176
     1
 67
     7
176
     1
 79
     5
176
     1
170
     0
176
     1
171
     0
176
     1
290
     0
176
     1
 93
       13
176
     1
 44
0.0
176
     1
173
     0
176
     1
  0
VISUALSTYLE
  5
2E
102
{ACAD_REACTORS
330
2A
102
}
330
2A
100
AcDbVisualStyle
  2
GouraudWithEdges
 70
     3
177
     2
291
     1
 71
     2
176
     1
 72
     2
176
     1
 73
     1
176
     1
 90
        2
176
     1
 40
-0.6
176
     1
 41
30.0
176
     1
 62
     5
 63
     7
421
 16777215
176
     1
 74
     1
176
     1
 91
        4
176
     1
 64
     7
176
     1
 65
   257
176
     1
 75
     1
176
     1
175
     1
176
     1
 42
1.0
176
     1
 92
        0
176
     1
 66
   257
176
     1
 43
1.0
176
     1
 76
     1
176
     1
 77
     6
176
     1
 78
     2
176
     1
 67
     7
176
     1
 79
     5
176
     1
170
     0
176
     1
171
     0
176
     1
290
     0
176
     1
 93
       13
176
     1
 44
0.0
176
     1
173
     0
176
     1
  0
VISUALSTYLE
  5
38
102
{ACAD_REACTORS
330
2A
102
}
330
2A
100
AcDbVisualStyle
  2
Linepattern
 70
    14
177
     2
291
     1
 71
     2
176
     1
 72
     2
176
     1
 73
     0
176
     1
 90
        0
176
     1
 40
-0.6
176
     1
 41
-30.0
176
     1
 62
     5
 63
     7
421
 16777215
176
     1
 74
     1
176
     1
 91
        4
176
     1
 64
     7
176
     1
 65
   257
176
     1
 75
     7
176
     1
175
     7
176
     1
 42
1.0
176
     1
 92
        8
176
     1
 66
     7
176
     1
 43
1.0
176
     1
 76
     1
176
     1
 77
     6
176
     1
 78
     2
176
     1
 67
     7
176
     1
 79
     5
176
     1
170
     0
176
     1
171
     0
176
     1
290
     0
176
     1
 93
        1
176
     1
 44
0.0
176
     1
173
     0
176
     1
  0
VISUALSTYLE
  5
33
102
{ACAD_REACTORS
330
2A
102
}
330
2A
100
AcDbVisualStyle
  2
Realistic
 70
     8
177
     2
291
     0
 71
     2
176
     1
 72
     2
176
     1
 73
     0
176
     1
 90
        0
176
     1
 40
-0.6
176
     1
 41
-30.0
176
     1
 62
     5
 63
     7
421
 16777215
176
     1
 74
     1
176
     1
 91
        0
176
     1
 64
     7
176
     1
 65
   257
176
     1
 75
     1
176
     1
175
     1
176
     1
 42
1.0
176
     1
 92
        8
176
     1
 66
     8
424
  7895160
176
     1
 43
1.0
176
     1
 76
     1
176
     1
 77
     6
176
     1
 78
     2
176
     1
 67
     7
176
     1
 79
     5
176
     1
170
     0
176
     1
171
     0
176
     1
290
     0
176
     1
 93
       13
176
     1
 44
0.0
176
     1
173
     0
176
     1
  0
VISUALSTYLE
  5
37
102
{ACAD_REACTORS
330
2A
102
}
330
2A
100
AcDbVisualStyle
  2
Thicken
 70
    13
177
     2
291
     1
 71
     2
176
     1
 72
     2
176
     1
 73
     0
176
     1
 90
        0
176
     1
 40
-0.6
176
     1
 41
-30.0
176
     1
 62
     5
 63
     7
421
 16777215
176
     1
 74
     1
176
     1
 91
        4
176
     1
 64
     7
176
     1
 65
   257
176
     1
 75
     1
176
     1
175
     1
176
     1
 42
1.0
176
     1
 92
       12
176
     1
 66
     7
176
     1
 43
1.0
176
     1
 76
     1
176
     1
 77
     6
176
     1
 78
     2
176
     1
 67
     7
176
     1
 79
     5
176
     1
170
     0
176
     1
171
     0
176
     1
290
     0
176
     1
 93
        1
176
     1
 44
0.0
176
     1
173
     0
176
     1
  0
ENDSEC
  0
EOF
