  0
SECTION
  2
HEADER
  9
$ACADVER
  1
AC1014
  9
$HANDSEED
  5
FFFF
  9
$MEASUREMENT
 70
     1
  0
ENDSEC
  0
SECTION
  2
TABLES
  0
TABLE
  2
VPORT
  5
8
330
0
100
AcDbSymbolTable
 70
     4
  0
VPORT
  5
2E
330
8
100
AcDbSymbolTableRecord
100
AcDbViewportTableRecord
  2
*ACTIVE
 70
     0
 10
0.0
 20
0.0
 11
1.0
 21
1.0
 12
210.0
 22
148.5
 13
0.0
 23
0.0
 14
10.0
 24
10.0
 15
10.0
 25
10.0
 16
0.0
 26
0.0
 36
1.0
 17
0.0
 27
0.0
 37
0.0
 40
341.0
 41
1.24
 42
50.0
 43
0.0
 44
0.0
 50
0.0
 51
0.0
 71
     0
 72
   100
 73
     1
 74
     3
 75
     0
 76
     0
 77
     0
 78
     0
  0
ENDTAB
  0
TABLE
  2
LTYPE
  5
5
330
0
100
AcDbSymbolTable
 70
     1
  0
LTYPE
  5
14
330
5
100
AcDbSymbolTableRecord
100
AcDbLinetypeTableRecord
  2
BYBLOCK
 70
     0
  3

 72
    65
 73
     0
 40
0.0
  0
LTYPE
  5
15
330
5
100
AcDbSymbolTableRecord
100
AcDbLinetypeTableRecord
  2
BYLAYER
 70
     0
  3

 72
    65
 73
     0
 40
0.0
  0
LTYPE
  5
16
330
5
100
AcDbSymbolTableRecord
100
AcDbLinetypeTableRecord
  2
CONTINUOUS
 70
     0
  3
Solid line
 72
    65
 73
     0
 40
0.0
  0
ENDTAB
  0
TABLE
  2
LAYER
  5
2
100
AcDbSymbolTable
 70
2
  0
LAYER
  5
50
100
AcDbSymbolTableRecord
100
AcDbLayerTableRecord
  2
0
 70
0
  6
CONTINUOUS
  0
LAYER
  5
51
100
AcDbSymbolTableRecord
100
AcDbLayerTableRecord
  2
Layer_1
 70
0
  6
CONTINUOUS
  0
ENDTAB
  0
TABLE
  2
STYLE
  5
3
330
0
100
AcDbSymbolTable
 70
     1
  0
STYLE
  5
11
330
3
100
AcDbSymbolTableRecord
100
AcDbTextStyleTableRecord
  2
STANDARD
 70
     0
 40
0.0
 41
1.0
 50
0.0
 71
     0
 42
2.5
  3
txt
  4

  0
ENDTAB
  0
TABLE
  2
VIEW
  5
6
330
0
100
AcDbSymbolTable
 70
     0
  0
ENDTAB
  0
TABLE
  2
UCS
  5
7
330
0
100
AcDbSymbolTable
 70
     0
  0
ENDTAB
  0
TABLE
  2
APPID
  5
9
330
0
100
AcDbSymbolTable
 70
     2
  0
APPID
  5
12
330
9
100
AcDbSymbolTableRecord
100
AcDbRegAppTableRecord
  2
ACAD
 70
     0
  0
ENDTAB
  0
TABLE
  2
DIMSTYLE
  5
A
330
0
100
AcDbSymbolTable
 70
     1
  0
DIMSTYLE
105
27
330
A
100
AcDbSymbolTableRecord
100
AcDbDimStyleTableRecord
  2
ISO-25
 70
     0
  3

  4

  5

  6

  7

 40
1.0
 41
2.5
 42
0.625
 43
3.75
 44
1.25
 45
0.0
 46
0.0
 47
0.0
 48
0.0
140
2.5
141
2.5
142
0.0
143
0.03937007874016
144
1.0
145
0.0
146
1.0
147
0.625
 71
     0
 72
     0
 73
     0
 74
     0
 75
     0
 76
     0
 77
     1
 78
     8
170
     0
171
     3
172
     1
173
     0
174
     0
175
     0
176
     0
177
     0
178
     0
270
     2
271
     2
272
     2
273
     2
274
     3
340
11
275
     0
280
     0
281
     0
282
     0
283
     0
284
     8
285
     0
286
     0
287
     3
288
     0
  0
ENDTAB
  0
TABLE
  2
BLOCK_RECORD
  5
1
330
0
100
AcDbSymbolTable
 70
     1
  0
BLOCK_RECORD
  5
1F
330
1
100
AcDbSymbolTableRecord
100
AcDbBlockTableRecord
  2
*MODEL_SPACE
  0
BLOCK_RECORD
  5
1B
330
1
100
AcDbSymbolTableRecord
100
AcDbBlockTableRecord
  2
*PAPER_SPACE
  0
ENDTAB
  0
ENDSEC
  0
SECTION
  2
BLOCKS
  0
BLOCK
  5
20
330
1F
100
AcDbEntity
  8
0
100
AcDbBlockBegin
  2
*MODEL_SPACE
 70
     0
 10
0.0
 20
0.0
 30
0.0
  3
*MODEL_SPACE
  1

  0
ENDBLK
  5
21
330
1F
100
AcDbEntity
  8
0
100
AcDbBlockEnd
  0
BLOCK
  5
1C
330
1B
100
AcDbEntity
 67
     1
  8
0
100
AcDbBlockBegin
  2
*PAPER_SPACE
  1

  0
ENDBLK
  5
1D
330
1B
100
AcDbEntity
 67
     1
  8
0
100
AcDbBlockEnd
  0
ENDSEC
  0
SECTION
  2
ENTITIES
  0
SPLINE
  5
100
100
AcDbEntity
  8
Layer_1
 62
7
100
AcDbSpline
 70
8
 71
3
 72
8
 73
4
 74
0
 40
0
 40
0
 40
0
 40
0
 40
1
 40
1
 40
1
 40
1
 10
82.116719
 20
316.175581
 30
0.0
 10
82.162029
 20
317.170726
 30
0.0
 10
82.177249
 20
318.157352
 30
0.0
 10
82.182869
 20
319.142327
 30
0.0
  0
LWPOLYLINE
  5
101
100
AcDbEntity
  8
Layer_1
 62
7
100
AcDbPolyline
 90
74
 70
0
 10
82.202503
 20
355.867733
 30
0.0
 10
71.370604
 20
355.781953
 30
0.0
 10
70.834204
 20
355.321001
 30
0.0
 10
69.912298
 20
355.181473
 30
0.0
 10
69.461678
 20
354.795451
 30
0.0
 10
69.503538
 20
352.049883
 30
0.0
 10
70.061129
 20
351.706234
 30
0.0
 10
70.747392
 20
351.062863
 30
0.0
 10
70.747392
 20
350.419491
 30
0.0
 10
64.484207
 20
340.166369
 30
0.0
 10
64.012402
 20
339.909022
 30
0.0
 10
63.970542
 20
338.364929
 30
0.0
 10
64.528130
 20
337.978389
 30
0.0
 10
59.294341
 20
329.055419
 30
0.0
 10
58.608078
 20
328.883856
 30
0.0
 10
57.964707
 20
327.468438
 30
0.0
 10
56.248532
 20
327.426578
 30
0.0
 10
55.132837
 20
326.997665
 30
0.0
 10
54.918379
 20
326.267994
 30
0.0
 10
54.232116
 20
325.967753
 30
0.0
 10
54.317896
 20
323.093510
 30
0.0
 10
54.961268
 20
322.879052
 30
0.0
 10
54.875488
 20
322.450139
 30
0.0
 10
54.189222
 20
322.064114
 30
0.0
 10
54.189222
 20
319.220362
 30
0.0
 10
54.875488
 20
318.834338
 30
0.0
 10
54.961268
 20
318.405424
 30
0.0
 10
54.317896
 20
318.190966
 30
0.0
 10
54.232116
 20
315.316724
 30
0.0
 10
54.918379
 20
315.016485
 30
0.0
 10
55.132837
 20
314.287330
 30
0.0
 10
56.248532
 20
313.857898
 30
0.0
 10
57.964707
 20
313.816038
 30
0.0
 10
58.608078
 20
312.400621
 30
0.0
 10
59.294341
 20
312.229054
 30
0.0
 10
64.528130
 20
303.306085
 30
0.0
 10
63.970542
 20
302.919544
 30
0.0
 10
64.012402
 20
301.375452
 30
0.0
 10
64.484207
 20
301.118105
 30
0.0
 10
70.747392
 20
290.864985
 30
0.0
 10
70.747392
 20
290.221614
 30
0.0
 10
70.061129
 20
289.578240
 30
0.0
 10
69.503538
 20
289.234594
 30
0.0
 10
69.461678
 20
286.489023
 30
0.0
 10
69.912298
 20
286.103001
 30
0.0
 10
70.834204
 20
285.963473
 30
0.0
 10
71.370604
 20
285.502521
 30
0.0
 10
82.202503
 20
285.417251
 30
0.0
 10
83.060849
 20
285.953135
 30
0.0
 10
84.519158
 20
285.996025
 30
0.0
 10
85.184233
 20
286.703992
 30
0.0
 10
90.568405
 20
286.703992
 30
0.0
 10
91.340445
 20
287.411443
 30
0.0
 10
97.024335
 20
287.432631
 30
0.0
 10
97.517845
 20
287.046609
 30
0.0
 10
99.298095
 20
287.089498
 30
0.0
 10
99.362695
 20
287.475523
 30
0.0
 10
99.448495
 20
288.161786
 30
0.0
 10
100.220540
 20
288.290461
 30
0.0
 10
100.263440
 20
289.963744
 30
0.0
 10
99.448505
 20
290.263982
 30
0.0
 10
99.448505
 20
291.036034
 30
0.0
 10
97.432095
 20
290.993658
 30
0.0
 10
96.788725
 20
290.049529
 30
0.0
 10
84.562049
 20
290.049529
 30
0.0
 10
84.304700
 20
290.864985
 30
0.0
 10
83.232415
 20
290.864985
 30
0.0
 10
82.975065
 20
291.637029
 30
0.0
 10
81.687807
 20
291.551248
 30
0.0
 10
81.730697
 20
297.943105
 30
0.0
 10
82.374069
 20
298.286235
 30
0.0
 10
82.374069
 20
299.015908
 30
0.0
 10
81.730697
 20
299.487713
 30
0.0
 10
82.116719
 20
316.175581
 30
0.0
  0
SPLINE
  5
102
100
AcDbEntity
  8
Layer_1
 62
7
100
AcDbSpline
 70
8
 71
3
 72
8
 73
4
 74
0
 40
0
 40
0
 40
0
 40
0
 40
1
 40
1
 40
1
 40
1
 10
82.166329
 20
322.142660
 30
0.0
 10
82.151169
 20
323.127979
 30
0.0
 10
82.133109
 20
324.114946
 30
0.0
 10
82.116719
 20
325.110438
 30
0.0
  0
LWPOLYLINE
  5
103
100
AcDbEntity
  8
Layer_1
 62
7
100
AcDbPolyline
 90
4
 70
0
 10
82.182869
 20
319.142327
 30
0.0
 10
67.633884
 20
319.142327
 30
0.0
 10
67.633884
 20
322.142660
 30
0.0
 10
82.166329
 20
322.142660
 30
0.0
  0
LWPOLYLINE
  5
104
100
AcDbEntity
  8
Layer_1
 62
7
100
AcDbPolyline
 90
27
 70
0
 10
82.116719
 20
325.110438
 30
0.0
 10
81.730697
 20
341.798825
 30
0.0
 10
82.374069
 20
342.270630
 30
0.0
 10
82.374069
 20
342.999785
 30
0.0
 10
81.730697
 20
343.342915
 30
0.0
 10
81.687807
 20
349.734775
 30
0.0
 10
82.975065
 20
349.648995
 30
0.0
 10
83.232415
 20
350.421556
 30
0.0
 10
84.304700
 20
350.421556
 30
0.0
 10
84.562049
 20
351.236494
 30
0.0
 10
96.788695
 20
351.236494
 30
0.0
 10
97.432065
 20
350.292881
 30
0.0
 10
99.448475
 20
350.249991
 30
0.0
 10
99.448475
 20
351.022554
 30
0.0
 10
100.263410
 20
351.322795
 30
0.0
 10
100.220510
 20
352.995559
 30
0.0
 10
99.448465
 20
353.124234
 30
0.0
 10
99.362665
 20
353.811016
 30
0.0
 10
99.298065
 20
354.197038
 30
0.0
 10
97.517815
 20
354.239408
 30
0.0
 10
97.024305
 20
353.853384
 30
0.0
 10
91.340415
 20
353.873024
 30
0.0
 10
90.568375
 20
354.580991
 30
0.0
 10
85.184203
 20
354.580991
 30
0.0
 10
84.519128
 20
355.288958
 30
0.0
 10
83.060819
 20
355.331338
 30
0.0
 10
82.202503
 20
355.867733
 30
0.0
  0
LWPOLYLINE
  5
105
100
AcDbEntity
  8
Layer_1
 62
7
100
AcDbPolyline
 90
3
 70
1
 10
55.015531
 20
325.546070
 30
0.0
 10
55.004161
 20
325.487680
 30
0.0
 10
54.559746
 20
325.429280
 30
0.0
  0
LWPOLYLINE
  5
106
100
AcDbEntity
  8
Layer_1
 62
7
100
AcDbPolyline
 90
3
 70
1
 10
54.945771
 20
324.598841
 30
0.0
 10
54.933881
 20
324.552331
 30
0.0
 10
54.594883
 20
324.586951
 30
0.0
  0
LWPOLYLINE
  5
107
100
AcDbEntity
  8
Layer_1
 62
7
100
AcDbPolyline
 90
3
 70
1
 10
54.630028
 20
323.534824
 30
0.0
 10
54.969025
 20
323.476434
 30
0.0
 10
54.945775
 20
323.418034
 30
0.0
  0
LWPOLYLINE
  5
108
100
AcDbEntity
  8
Layer_1
 62
7
100
AcDbPolyline
 90
3
 70
1
 10
54.957140
 20
317.769802
 30
0.0
 10
54.980910
 20
317.711402
 30
0.0
 10
54.641397
 20
317.653012
 30
0.0
  0
LWPOLYLINE
  5
109
100
AcDbEntity
  8
Layer_1
 62
7
100
AcDbPolyline
 90
3
 70
1
 10
54.945770
 20
316.636020
 30
0.0
 10
54.957140
 20
316.588990
 30
0.0
 10
54.606257
 20
316.600880
 30
0.0
  0
SPLINE
  5
10a
100
AcDbEntity
  8
Layer_1
 62
7
100
AcDbSpline
 70
8
 71
3
 72
8
 73
4
 74
0
 40
0
 40
0
 40
0
 40
0
 40
1
 40
1
 40
1
 40
1
 10
46.774997
 20
367.465219
 30
0.0
 10
48.210713
 20
367.924888
 30
0.0
 10
47.281981
 20
367.684273
 30
0.0
 10
48.695428
 20
368.055814
 30
0.0
  0
SPLINE
  5
10b
100
AcDbEntity
  8
Layer_1
 62
7
100
AcDbSpline
 70
8
 71
3
 72
8
 73
4
 74
0
 40
0
 40
0
 40
0
 40
0
 40
1
 40
1
 40
1
 40
1
 10
41.253370
 20
365.467927
 30
0.0
 10
42.411161
 20
365.938327
 30
0.0
 10
43.584508
 20
366.379475
 30
0.0
 10
44.763750
 20
366.791360
 30
0.0
  0
SPLINE
  5
10c
100
AcDbEntity
  8
Layer_1
 62
7
100
AcDbSpline
 70
8
 71
3
 72
8
 73
4
 74
0
 40
0
 40
0
 40
0
 40
0
 40
1
 40
1
 40
1
 40
1
 10
38.517121
 20
364.283570
 30
0.0
 10
39.285899
 20
364.660350
 30
0.0
 10
38.687980
 20
364.369200
 30
0.0
 10
39.481902
 20
364.718100
 30
0.0
  0
SPLINE
  5
10d
100
AcDbEntity
  8
Layer_1
 62
7
100
AcDbSpline
 70
8
 71
3
 72
8
 73
4
 74
0
 40
0
 40
0
 40
0
 40
0
 40
1
 40
1
 40
1
 40
1
 10
44.717021
 20
337.661917
 30
0.0
 10
46.152737
 20
337.202248
 30
0.0
 10
45.224005
 20
337.442863
 30
0.0
 10
46.637453
 20
337.071322
 30
0.0
  0
SPLINE
  5
10e
100
AcDbEntity
  8
Layer_1
 62
7
100
AcDbSpline
 70
8
 71
3
 72
8
 73
4
 74
0
 40
0
 40
0
 40
0
 40
0
 40
1
 40
1
 40
1
 40
1
 10
39.195394
 20
339.659209
 30
0.0
 10
40.353185
 20
339.188809
 30
0.0
 10
41.526533
 20
338.747661
 30
0.0
 10
42.705774
 20
338.335776
 30
0.0
  0
SPLINE
  5
10f
100
AcDbEntity
  8
Layer_1
 62
7
100
AcDbSpline
 70
8
 71
3
 72
8
 73
4
 74
0
 40
0
 40
0
 40
0
 40
0
 40
1
 40
1
 40
1
 40
1
 10
36.459146
 20
340.843566
 30
0.0
 10
37.227923
 20
340.466786
 30
0.0
 10
36.630004
 20
340.757926
 30
0.0
 10
37.423926
 20
340.409035
 30
0.0
  0
LWPOLYLINE
  5
110
100
AcDbEntity
  8
Layer_1
 62
7
100
AcDbPolyline
 90
3
 70
1
 10
54.571633
 20
315.759072
 30
0.0
 10
55.015532
 20
315.700162
 30
0.0
 10
55.027422
 20
315.641772
 30
0.0
  0
SPLINE
  5
111
100
AcDbEntity
  8
Layer_1
 62
7
100
AcDbSpline
 70
8
 71
3
 72
8
 73
4
 74
0
 40
0
 40
0
 40
0
 40
0
 40
1
 40
1
 40
1
 40
1
 10
44.824817
 20
319.513940
 30
0.0
 10
44.524818
 20
319.513938
 30
0.0
 10
44.324818
 20
319.313938
 30
0.0
 10
44.324818
 20
319.013941
 30
0.0
  0
LWPOLYLINE
  5
112
100
AcDbEntity
  8
Layer_1
 62
7
100
AcDbPolyline
 90
2
 70
0
 10
46.324818
 20
319.513939
 30
0.0
 10
44.824817
 20
319.513940
 30
0.0
  0
SPLINE
  5
113
100
AcDbEntity
  8
Layer_1
 62
7
100
AcDbSpline
 70
8
 71
3
 72
8
 73
4
 74
0
 40
0
 40
0
 40
0
 40
0
 40
1
 40
1
 40
1
 40
1
 10
44.324818
 20
316.513941
 30
0.0
 10
44.324818
 20
316.213938
 30
0.0
 10
44.524818
 20
316.013938
 30
0.0
 10
44.824817
 20
316.013939
 30
0.0
  0
LWPOLYLINE
  5
114
100
AcDbEntity
  8
Layer_1
 62
7
100
AcDbPolyline
 90
2
 70
0
 10
44.324818
 20
319.013941
 30
0.0
 10
44.324818
 20
316.513941
 30
0.0
  0
LWPOLYLINE
  5
115
100
AcDbEntity
  8
Layer_1
 62
7
100
AcDbPolyline
 90
2
 70
0
 10
44.824817
 20
316.013939
 30
0.0
 10
46.324818
 20
316.013938
 30
0.0
  0
SPLINE
  5
116
100
AcDbEntity
  8
Layer_1
 62
7
100
AcDbSpline
 70
8
 71
3
 72
8
 73
4
 74
0
 40
0
 40
0
 40
0
 40
0
 40
1
 40
1
 40
1
 40
1
 10
48.738998
 20
383.031240
 30
0.0
 10
48.711598
 20
383.030764
 30
0.0
 10
48.683218
 20
383.029440
 30
0.0
 10
48.653218
 20
383.026540
 30
0.0
  0
SPLINE
  5
117
100
AcDbEntity
  8
Layer_1
 62
7
100
AcDbSpline
 70
8
 71
3
 72
8
 73
4
 74
0
 40
0
 40
0
 40
0
 40
0
 40
1
 40
1
 40
1
 40
1
 10
48.653218
 20
383.026540
 30
0.0
 10
48.323178
 20
382.994630
 30
0.0
 10
48.312764
 20
382.978020
 30
0.0
 10
48.281664
 20
382.437945
 30
0.0
  0
SPLINE
  5
118
100
AcDbEntity
  8
Layer_1
 62
7
100
AcDbSpline
 70
8
 71
3
 72
8
 73
4
 74
0
 40
0
 40
0
 40
0
 40
0
 40
1
 40
1
 40
1
 40
1
 10
48.281664
 20
382.437945
 30
0.0
 10
48.254664
 20
381.968923
 30
0.0
 10
48.217494
 20
381.882423
 30
0.0
 10
48.043436
 20
381.882423
 30
0.0
  0
SPLINE
  5
119
100
AcDbEntity
  8
Layer_1
 62
7
100
AcDbSpline
 70
8
 71
3
 72
8
 73
4
 74
0
 40
0
 40
0
 40
0
 40
0
 40
1
 40
1
 40
1
 40
1
 10
48.043436
 20
381.882423
 30
0.0
 10
47.915526
 20
381.882423
 30
0.0
 10
47.837764
 20
381.954903
 30
0.0
 10
47.837764
 20
382.073108
 30
0.0
  0
SPLINE
  5
11a
100
AcDbEntity
  8
Layer_1
 62
7
100
AcDbSpline
 70
8
 71
3
 72
8
 73
4
 74
0
 40
0
 40
0
 40
0
 40
0
 40
1
 40
1
 40
1
 40
1
 10
47.837764
 20
382.073108
 30
0.0
 10
47.837764
 20
382.316866
 30
0.0
 10
47.637107
 20
382.517526
 30
0.0
 10
47.393347
 20
382.517526
 30
0.0
  0
SPLINE
  5
11b
100
AcDbEntity
  8
Layer_1
 62
7
100
AcDbSpline
 70
8
 71
3
 72
8
 73
4
 74
0
 40
0
 40
0
 40
0
 40
0
 40
1
 40
1
 40
1
 40
1
 10
47.393347
 20
382.517526
 30
0.0
 10
47.288596
 20
382.517526
 30
0.0
 10
47.202661
 20
382.588886
 30
0.0
 10
47.202661
 20
382.676173
 30
0.0
  0
SPLINE
  5
11c
100
AcDbEntity
  8
Layer_1
 62
7
100
AcDbSpline
 70
8
 71
3
 72
8
 73
4
 74
0
 40
0
 40
0
 40
0
 40
0
 40
1
 40
1
 40
1
 40
1
 10
47.202661
 20
382.676173
 30
0.0
 10
47.202661
 20
382.810134
 30
0.0
 10
46.957290
 20
382.834820
 30
0.0
 10
45.628080
 20
382.834820
 30
0.0
  0
SPLINE
  5
11d
100
AcDbEntity
  8
Layer_1
 62
7
100
AcDbSpline
 70
8
 71
3
 72
8
 73
4
 74
0
 40
0
 40
0
 40
0
 40
0
 40
1
 40
1
 40
1
 40
1
 10
45.628080
 20
382.834820
 30
0.0
 10
44.142340
 20
382.834820
 30
0.0
 10
44.049888
 20
382.822600
 30
0.0
 10
43.997688
 20
382.622947
 30
0.0
  0
SPLINE
  5
11e
100
AcDbEntity
  8
Layer_1
 62
7
100
AcDbSpline
 70
8
 71
3
 72
8
 73
4
 74
0
 40
0
 40
0
 40
0
 40
0
 40
1
 40
1
 40
1
 40
1
 10
43.997688
 20
382.622947
 30
0.0
 10
43.960288
 20
382.479953
 30
0.0
 10
43.853432
 20
382.411590
 30
0.0
 10
43.667993
 20
382.411590
 30
0.0
  0
SPLINE
  5
11f
100
AcDbEntity
  8
Layer_1
 62
7
100
AcDbSpline
 70
8
 71
3
 72
8
 73
4
 74
0
 40
0
 40
0
 40
0
 40
0
 40
1
 40
1
 40
1
 40
1
 10
43.667993
 20
382.411590
 30
0.0
 10
43.424923
 20
382.411590
 30
0.0
 10
43.393591
 20
382.369100
 30
0.0
 10
43.393591
 20
382.041070
 30
0.0
  0
LWPOLYLINE
  5
120
100
AcDbEntity
  8
Layer_1
 62
7
100
AcDbPolyline
 90
2
 70
0
 10
48.738998
 20
383.031756
 30
0.0
 10
48.738998
 20
383.031240
 30
0.0
  0
SPLINE
  5
121
100
AcDbEntity
  8
Layer_1
 62
7
100
AcDbSpline
 70
8
 71
3
 72
8
 73
4
 74
0
 40
0
 40
0
 40
0
 40
0
 40
1
 40
1
 40
1
 40
1
 10
42.540930
 20
381.671066
 30
0.0
 10
42.051500
 20
381.671066
 30
0.0
 10
41.713833
 20
381.712086
 30
0.0
 10
41.748213
 20
381.767706
 30
0.0
  0
SPLINE
  5
122
100
AcDbEntity
  8
Layer_1
 62
7
100
AcDbSpline
 70
8
 71
3
 72
8
 73
4
 74
0
 40
0
 40
0
 40
0
 40
0
 40
1
 40
1
 40
1
 40
1
 10
41.748213
 20
381.767706
 30
0.0
 10
41.874013
 20
381.971256
 30
0.0
 10
41.604809
 20
382.411594
 30
0.0
 10
41.354439
 20
382.411594
 30
0.0
  0
SPLINE
  5
123
100
AcDbEntity
  8
Layer_1
 62
7
100
AcDbSpline
 70
8
 71
3
 72
8
 73
4
 74
0
 40
0
 40
0
 40
0
 40
0
 40
1
 40
1
 40
1
 40
1
 10
41.354439
 20
382.411594
 30
0.0
 10
40.993609
 20
382.411594
 30
0.0
 10
40.854728
 20
382.214273
 30
0.0
 10
40.854728
 20
381.702593
 30
0.0
  0
SPLINE
  5
124
100
AcDbEntity
  8
Layer_1
 62
7
100
AcDbSpline
 70
8
 71
3
 72
8
 73
4
 74
0
 40
0
 40
0
 40
0
 40
0
 40
1
 40
1
 40
1
 40
1
 10
40.854728
 20
381.702593
 30
0.0
 10
40.854728
 20
381.323381
 30
0.0
 10
40.820568
 20
381.247840
 30
0.0
 10
40.650089
 20
381.247840
 30
0.0
  0
SPLINE
  5
125
100
AcDbEntity
  8
Layer_1
 62
7
100
AcDbSpline
 70
8
 71
3
 72
8
 73
4
 74
0
 40
0
 40
0
 40
0
 40
0
 40
1
 40
1
 40
1
 40
1
 10
40.650089
 20
381.247840
 30
0.0
 10
40.506479
 20
381.247840
 30
0.0
 10
40.435371
 20
381.333090
 30
0.0
 10
40.411861
 20
381.534127
 30
0.0
  0
LWPOLYLINE
  5
126
100
AcDbEntity
  8
Layer_1
 62
7
100
AcDbPolyline
 90
3
 70
0
 10
43.393591
 20
382.041070
 30
0.0
 10
43.393591
 20
381.671066
 30
0.0
 10
42.540930
 20
381.671066
 30
0.0
  0
SPLINE
  5
127
100
AcDbEntity
  8
Layer_1
 62
7
100
AcDbSpline
 70
8
 71
3
 72
8
 73
4
 74
0
 40
0
 40
0
 40
0
 40
0
 40
1
 40
1
 40
1
 40
1
 10
37.892118
 20
381.791474
 30
0.0
 10
35.217709
 20
381.760254
 30
0.0
 10
34.656407
 20
381.679621
 30
0.0
 10
33.337357
 20
381.138284
 30
0.0
  0
SPLINE
  5
128
100
AcDbEntity
  8
Layer_1
 62
7
100
AcDbSpline
 70
8
 71
3
 72
8
 73
4
 74
0
 40
0
 40
0
 40
0
 40
0
 40
1
 40
1
 40
1
 40
1
 10
33.337357
 20
381.138284
 30
0.0
 10
32.512247
 20
380.799672
 30
0.0
 10
31.898527
 20
380.424173
 30
0.0
 10
31.328178
 20
379.908900
 30
0.0
  0
LWPOLYLINE
  5
129
100
AcDbEntity
  8
Layer_1
 62
7
100
AcDbPolyline
 90
3
 70
0
 10
40.411861
 20
381.534127
 30
0.0
 10
40.378271
 20
381.820414
 30
0.0
 10
37.892118
 20
381.791474
 30
0.0
  0
SPLINE
  5
12a
100
AcDbEntity
  8
Layer_1
 62
7
100
AcDbSpline
 70
8
 71
3
 72
8
 73
4
 74
0
 40
0
 40
0
 40
0
 40
0
 40
1
 40
1
 40
1
 40
1
 10
31.834606
 20
375.037881
 30
0.0
 10
33.608737
 20
374.065214
 30
0.0
 10
35.732376
 20
373.312403
 30
0.0
 10
36.702526
 20
373.312403
 30
0.0
  0
LWPOLYLINE
  5
12b
100
AcDbEntity
  8
Layer_1
 62
7
100
AcDbPolyline
 90
5
 70
0
 10
31.328178
 20
379.908900
 30
0.0
 10
30.909082
 20
379.530112
 30
0.0
 10
30.909082
 20
377.537987
 30
0.0
 10
30.909082
 20
375.545344
 30
0.0
 10
31.834606
 20
375.037881
 30
0.0
  0
SPLINE
  5
12c
100
AcDbEntity
  8
Layer_1
 62
7
100
AcDbSpline
 70
8
 71
3
 72
8
 73
4
 74
0
 40
0
 40
0
 40
0
 40
0
 40
1
 40
1
 40
1
 40
1
 10
37.116453
 20
372.968757
 30
0.0
 10
37.082053
 20
372.779633
 30
0.0
 10
36.836546
 20
371.672283
 30
0.0
 10
36.571266
 20
370.508442
 30
0.0
  0
SPLINE
  5
12d
100
AcDbEntity
  8
Layer_1
 62
7
100
AcDbSpline
 70
8
 71
3
 72
8
 73
4
 74
0
 40
0
 40
0
 40
0
 40
0
 40
1
 40
1
 40
1
 40
1
 10
36.571266
 20
370.508442
 30
0.0
 10
36.305976
 20
369.344601
 30
0.0
 10
35.974203
 20
367.845040
 30
0.0
 10
35.833844
 20
367.175827
 30
0.0
  0
SPLINE
  5
12e
100
AcDbEntity
  8
Layer_1
 62
7
100
AcDbSpline
 70
8
 71
3
 72
8
 73
4
 74
0
 40
0
 40
0
 40
0
 40
0
 40
1
 40
1
 40
1
 40
1
 10
35.833844
 20
367.175827
 30
0.0
 10
35.499953
 20
365.583879
 30
0.0
 10
34.924943
 20
363.008714
 30
0.0
 10
34.897983
 20
362.985385
 30
0.0
  0
SPLINE
  5
12f
100
AcDbEntity
  8
Layer_1
 62
7
100
AcDbSpline
 70
8
 71
3
 72
8
 73
4
 74
0
 40
0
 40
0
 40
0
 40
0
 40
1
 40
1
 40
1
 40
1
 10
34.897983
 20
362.985385
 30
0.0
 10
34.886283
 20
362.975305
 30
0.0
 10
34.435798
 20
362.742125
 30
0.0
 10
33.897528
 20
362.467588
 30
0.0
  0
SPLINE
  5
130
100
AcDbEntity
  8
Layer_1
 62
7
100
AcDbSpline
 70
8
 71
3
 72
8
 73
4
 74
0
 40
0
 40
0
 40
0
 40
0
 40
1
 40
1
 40
1
 40
1
 10
33.897528
 20
362.467588
 30
0.0
 10
33.359258
 20
362.193053
 30
0.0
 10
32.919293
 20
361.941054
 30
0.0
 10
32.919293
 20
361.907417
 30
0.0
  0
SPLINE
  5
131
100
AcDbEntity
  8
Layer_1
 62
7
100
AcDbSpline
 70
8
 71
3
 72
8
 73
4
 74
0
 40
0
 40
0
 40
0
 40
0
 40
1
 40
1
 40
1
 40
1
 10
32.919293
 20
361.907417
 30
0.0
 10
32.919293
 20
361.873777
 30
0.0
 10
33.022733
 20
361.736174
 30
0.0
 10
33.149253
 20
361.601490
 30
0.0
  0
SPLINE
  5
132
100
AcDbEntity
  8
Layer_1
 62
7
100
AcDbSpline
 70
8
 71
3
 72
8
 73
4
 74
0
 40
0
 40
0
 40
0
 40
0
 40
1
 40
1
 40
1
 40
1
 10
33.149253
 20
361.601490
 30
0.0
 10
33.372563
 20
361.363799
 30
0.0
 10
33.432836
 20
361.356544
 30
0.0
 10
35.212176
 20
361.356544
 30
0.0
  0
LWPOLYLINE
  5
133
100
AcDbEntity
  8
Layer_1
 62
7
100
AcDbPolyline
 90
3
 70
0
 10
36.702526
 20
373.312403
 30
0.0
 10
37.178983
 20
373.312403
 30
0.0
 10
37.116453
 20
372.968757
 30
0.0
  0
SPLINE
  5
134
100
AcDbEntity
  8
Layer_1
 62
7
100
AcDbSpline
 70
8
 71
3
 72
8
 73
4
 74
0
 40
0
 40
0
 40
0
 40
0
 40
1
 40
1
 40
1
 40
1
 10
37.045656
 20
360.715758
 30
0.0
 10
37.045656
 20
360.128885
 30
0.0
 10
37.074446
 20
360.048603
 30
0.0
 10
37.386720
 20
359.763361
 30
0.0
  0
LWPOLYLINE
  5
135
100
AcDbEntity
  8
Layer_1
 62
7
100
AcDbPolyline
 90
3
 70
0
 10
35.212176
 20
361.356544
 30
0.0
 10
37.045656
 20
361.356544
 30
0.0
 10
37.045656
 20
360.715758
 30
0.0
  0
SPLINE
  5
136
100
AcDbEntity
  8
Layer_1
 62
7
100
AcDbSpline
 70
8
 71
3
 72
8
 73
4
 74
0
 40
0
 40
0
 40
0
 40
0
 40
1
 40
1
 40
1
 40
1
 10
35.543422
 20
359.452269
 30
0.0
 10
34.342283
 20
359.452269
 30
0.0
 10
33.291584
 20
359.425889
 30
0.0
 10
33.208164
 20
359.393879
 30
0.0
  0
SPLINE
  5
137
100
AcDbEntity
  8
Layer_1
 62
7
100
AcDbSpline
 70
8
 71
3
 72
8
 73
4
 74
0
 40
0
 40
0
 40
0
 40
0
 40
1
 40
1
 40
1
 40
1
 10
33.208164
 20
359.393879
 30
0.0
 10
33.118264
 20
359.359389
 30
0.0
 10
33.074287
 20
359.241008
 30
0.0
 10
33.100677
 20
359.102940
 30
0.0
  0
SPLINE
  5
138
100
AcDbEntity
  8
Layer_1
 62
7
100
AcDbSpline
 70
8
 71
3
 72
8
 73
4
 74
0
 40
0
 40
0
 40
0
 40
0
 40
1
 40
1
 40
1
 40
1
 10
33.100677
 20
359.102940
 30
0.0
 10
33.138077
 20
358.907164
 30
0.0
 10
33.028157
 20
358.806199
 30
0.0
 10
32.411314
 20
358.473004
 30
0.0
  0
SPLINE
  5
139
100
AcDbEntity
  8
Layer_1
 62
7
100
AcDbSpline
 70
8
 71
3
 72
8
 73
4
 74
0
 40
0
 40
0
 40
0
 40
0
 40
1
 40
1
 40
1
 40
1
 10
32.411314
 20
358.473004
 30
0.0
 10
32.007533
 20
358.254908
 30
0.0
 10
31.599262
 20
358.076645
 30
0.0
 10
31.504392
 20
358.076645
 30
0.0
  0
SPLINE
  5
13a
100
AcDbEntity
  8
Layer_1
 62
7
100
AcDbSpline
 70
8
 71
3
 72
8
 73
4
 74
0
 40
0
 40
0
 40
0
 40
0
 40
1
 40
1
 40
1
 40
1
 10
31.504392
 20
358.076645
 30
0.0
 10
31.351652
 20
358.076645
 30
0.0
 10
31.332310
 20
357.869093
 30
0.0
 10
31.332310
 20
356.266419
 30
0.0
  0
SPLINE
  5
13b
100
AcDbEntity
  8
Layer_1
 62
7
100
AcDbSpline
 70
8
 71
3
 72
8
 73
4
 74
0
 40
0
 40
0
 40
0
 40
0
 40
1
 40
1
 40
1
 40
1
 10
31.332310
 20
356.266419
 30
0.0
 10
31.332310
 20
354.775995
 30
0.0
 10
31.347700
 20
354.502720
 30
0.0
 10
31.468735
 20
354.514073
 30
0.0
  0
SPLINE
  5
13c
100
AcDbEntity
  8
Layer_1
 62
7
100
AcDbSpline
 70
8
 71
3
 72
8
 73
4
 74
0
 40
0
 40
0
 40
0
 40
0
 40
1
 40
1
 40
1
 40
1
 10
31.468735
 20
354.514073
 30
0.0
 10
31.486035
 20
354.493303
 30
0.0
 10
31.508365
 20
354.467603
 30
0.0
 10
31.543665
 20
354.429843
 30
0.0
  0
SPLINE
  5
13d
100
AcDbEntity
  8
Layer_1
 62
7
100
AcDbSpline
 70
8
 71
3
 72
8
 73
4
 74
0
 40
0
 40
0
 40
0
 40
0
 40
1
 40
1
 40
1
 40
1
 10
31.543665
 20
354.429843
 30
0.0
 10
31.562265
 20
354.409953
 30
0.0
 10
31.674593
 20
354.309437
 30
0.0
 10
31.834603
 20
354.222619
 30
0.0
  0
SPLINE
  5
13e
100
AcDbEntity
  8
Layer_1
 62
7
100
AcDbSpline
 70
8
 71
3
 72
8
 73
4
 74
0
 40
0
 40
0
 40
0
 40
0
 40
1
 40
1
 40
1
 40
1
 10
31.834603
 20
354.222619
 30
0.0
 10
32.393834
 20
353.908686
 30
0.0
 10
32.721277
 20
353.727433
 30
0.0
 10
32.931177
 20
353.613871
 30
0.0
  0
SPLINE
  5
13f
100
AcDbEntity
  8
Layer_1
 62
7
100
AcDbSpline
 70
8
 71
3
 72
8
 73
4
 74
0
 40
0
 40
0
 40
0
 40
0
 40
1
 40
1
 40
1
 40
1
 10
32.931177
 20
353.613871
 30
0.0
 10
32.917977
 20
353.599941
 30
0.0
 10
32.957657
 20
353.573501
 30
0.0
 10
33.051584
 20
353.518791
 30
0.0
  0
SPLINE
  5
140
100
AcDbEntity
  8
Layer_1
 62
7
100
AcDbSpline
 70
8
 71
3
 72
8
 73
4
 74
0
 40
0
 40
0
 40
0
 40
0
 40
1
 40
1
 40
1
 40
1
 10
33.051584
 20
353.518791
 30
0.0
 10
33.190083
 20
353.438121
 30
0.0
 10
33.236585
 20
353.273175
 30
0.0
 10
33.236585
 20
352.864566
 30
0.0
  0
SPLINE
  5
141
100
AcDbEntity
  8
Layer_1
 62
7
100
AcDbSpline
 70
8
 71
3
 72
8
 73
4
 74
0
 40
0
 40
0
 40
0
 40
0
 40
1
 40
1
 40
1
 40
1
 10
33.236585
 20
352.864566
 30
0.0
 10
33.236585
 20
352.399238
 30
0.0
 10
33.193515
 20
352.281766
 30
0.0
 10
32.945647
 20
352.070816
 30
0.0
  0
SPLINE
  5
142
100
AcDbEntity
  8
Layer_1
 62
7
100
AcDbSpline
 70
8
 71
3
 72
8
 73
4
 74
0
 40
0
 40
0
 40
0
 40
0
 40
1
 40
1
 40
1
 40
1
 10
32.945647
 20
352.070816
 30
0.0
 10
32.914047
 20
352.043956
 30
0.0
 10
32.896897
 20
352.027986
 30
0.0
 10
32.873297
 20
352.007256
 30
0.0
  0
SPLINE
  5
143
100
AcDbEntity
  8
Layer_1
 62
7
100
AcDbSpline
 70
8
 71
3
 72
8
 73
4
 74
0
 40
0
 40
0
 40
0
 40
0
 40
1
 40
1
 40
1
 40
1
 10
32.873297
 20
352.007256
 30
0.0
 10
32.686506
 20
351.902891
 30
0.0
 10
32.443057
 20
351.757778
 30
0.0
 10
32.363767
 20
351.707531
 30
0.0
  0
SPLINE
  5
144
100
AcDbEntity
  8
Layer_1
 62
7
100
AcDbSpline
 70
8
 71
3
 72
8
 73
4
 74
0
 40
0
 40
0
 40
0
 40
0
 40
1
 40
1
 40
1
 40
1
 10
32.363767
 20
351.707531
 30
0.0
 10
32.232837
 20
351.624561
 30
0.0
 10
31.946885
 20
351.448999
 30
0.0
 10
31.728664
 20
351.316858
 30
0.0
  0
LWPOLYLINE
  5
145
100
AcDbEntity
  8
Layer_1
 62
7
100
AcDbPolyline
 90
3
 70
0
 10
37.386720
 20
359.763361
 30
0.0
 10
37.727268
 20
359.452269
 30
0.0
 10
35.543422
 20
359.452269
 30
0.0
  0
SPLINE
  5
146
100
AcDbEntity
  8
Layer_1
 62
7
100
AcDbSpline
 70
8
 71
3
 72
8
 73
4
 74
0
 40
0
 40
0
 40
0
 40
0
 40
1
 40
1
 40
1
 40
1
 10
31.332306
 20
349.656494
 30
0.0
 10
31.332306
 20
348.955031
 30
0.0
 10
31.338106
 20
348.594904
 30
0.0
 10
31.371066
 20
348.413159
 30
0.0
  0
SPLINE
  5
147
100
AcDbEntity
  8
Layer_1
 62
7
100
AcDbSpline
 70
8
 71
3
 72
8
 73
4
 74
0
 40
0
 40
0
 40
0
 40
0
 40
1
 40
1
 40
1
 40
1
 10
31.371066
 20
348.413159
 30
0.0
 10
31.347766
 20
348.209282
 30
0.0
 10
31.332306
 20
347.875179
 30
0.0
 10
31.332306
 20
347.718112
 30
0.0
  0
SPLINE
  5
148
100
AcDbEntity
  8
Layer_1
 62
7
100
AcDbSpline
 70
8
 71
3
 72
8
 73
4
 74
0
 40
0
 40
0
 40
0
 40
0
 40
1
 40
1
 40
1
 40
1
 10
31.332306
 20
347.718112
 30
0.0
 10
31.332306
 20
347.650672
 30
0.0
 10
31.337006
 20
347.602986
 30
0.0
 10
31.341106
 20
347.552231
 30
0.0
  0
LWPOLYLINE
  5
149
100
AcDbEntity
  8
Layer_1
 62
7
100
AcDbPolyline
 90
3
 70
0
 10
31.728664
 20
351.316858
 30
0.0
 10
31.332306
 20
351.076563
 30
0.0
 10
31.332306
 20
349.656494
 30
0.0
  0
SPLINE
  5
14a
100
AcDbEntity
  8
Layer_1
 62
7
100
AcDbSpline
 70
8
 71
3
 72
8
 73
4
 74
0
 40
0
 40
0
 40
0
 40
0
 40
1
 40
1
 40
1
 40
1
 10
31.549866
 20
344.551896
 30
0.0
 10
31.471196
 20
344.529496
 30
0.0
 10
31.421514
 20
344.502596
 30
0.0
 10
31.387086
 20
344.468186
 30
0.0
  0
SPLINE
  5
14b
100
AcDbEntity
  8
Layer_1
 62
7
100
AcDbSpline
 70
8
 71
3
 72
8
 73
4
 74
0
 40
0
 40
0
 40
0
 40
0
 40
1
 40
1
 40
1
 40
1
 10
31.387086
 20
344.468186
 30
0.0
 10
31.133226
 20
344.214321
 30
0.0
 10
31.224121
 20
344.008155
 30
0.0
 10
31.755022
 20
343.634645
 30
0.0
  0
SPLINE
  5
14c
100
AcDbEntity
  8
Layer_1
 62
7
100
AcDbSpline
 70
8
 71
3
 72
8
 73
4
 74
0
 40
0
 40
0
 40
0
 40
0
 40
1
 40
1
 40
1
 40
1
 10
31.755022
 20
343.634645
 30
0.0
 10
32.181031
 20
343.334936
 30
0.0
 10
32.238525
 20
343.244953
 30
0.0
 10
32.299175
 20
342.779398
 30
0.0
  0
SPLINE
  5
14d
100
AcDbEntity
  8
Layer_1
 62
7
100
AcDbSpline
 70
8
 71
3
 72
8
 73
4
 74
0
 40
0
 40
0
 40
0
 40
0
 40
1
 40
1
 40
1
 40
1
 10
32.299175
 20
342.779398
 30
0.0
 10
32.336475
 20
342.493225
 30
0.0
 10
32.586813
 20
340.521251
 30
0.0
 10
32.855213
 20
338.397237
 30
0.0
  0
SPLINE
  5
14e
100
AcDbEntity
  8
Layer_1
 62
7
100
AcDbSpline
 70
8
 71
3
 72
8
 73
4
 74
0
 40
0
 40
0
 40
0
 40
0
 40
1
 40
1
 40
1
 40
1
 10
32.855213
 20
338.397237
 30
0.0
 10
33.123623
 20
336.273228
 30
0.0
 10
33.391496
 20
334.225892
 30
0.0
 10
33.450525
 20
333.847644
 30
0.0
  0
SPLINE
  5
14f
100
AcDbEntity
  8
Layer_1
 62
7
100
AcDbSpline
 70
8
 71
3
 72
8
 73
4
 74
0
 40
0
 40
0
 40
0
 40
0
 40
1
 40
1
 40
1
 40
1
 10
33.450525
 20
333.847644
 30
0.0
 10
33.509525
 20
333.469396
 30
0.0
 10
33.700112
 20
331.945703
 30
0.0
 10
33.874272
 20
330.461806
 30
0.0
  0
SPLINE
  5
150
100
AcDbEntity
  8
Layer_1
 62
7
100
AcDbSpline
 70
8
 71
3
 72
8
 73
4
 74
0
 40
0
 40
0
 40
0
 40
0
 40
1
 40
1
 40
1
 40
1
 10
33.874272
 20
330.461806
 30
0.0
 10
34.253252
 20
327.232741
 30
0.0
 10
34.483966
 20
325.361520
 30
0.0
 10
34.617896
 20
324.431166
 30
0.0
  0
SPLINE
  5
151
100
AcDbEntity
  8
Layer_1
 62
7
100
AcDbSpline
 70
8
 71
3
 72
8
 73
4
 74
0
 40
0
 40
0
 40
0
 40
0
 40
1
 40
1
 40
1
 40
1
 10
34.617896
 20
324.431166
 30
0.0
 10
34.672396
 20
324.052915
 30
0.0
 10
34.907978
 20
322.196045
 30
0.0
 10
35.141378
 20
320.304801
 30
0.0
  0
SPLINE
  5
152
100
AcDbEntity
  8
Layer_1
 62
7
100
AcDbSpline
 70
8
 71
3
 72
8
 73
4
 74
0
 40
0
 40
0
 40
0
 40
0
 40
1
 40
1
 40
1
 40
1
 10
35.141378
 20
320.304801
 30
0.0
 10
35.374788
 20
318.413554
 30
0.0
 10
35.686739
 20
315.937559
 30
0.0
 10
35.834359
 20
314.802812
 30
0.0
  0
SPLINE
  5
153
100
AcDbEntity
  8
Layer_1
 62
7
100
AcDbSpline
 70
8
 71
3
 72
8
 73
4
 74
0
 40
0
 40
0
 40
0
 40
0
 40
1
 40
1
 40
1
 40
1
 10
35.834359
 20
314.802812
 30
0.0
 10
35.981979
 20
313.668067
 30
0.0
 10
36.145995
 20
312.382578
 30
0.0
 10
36.199195
 20
311.946140
 30
0.0
  0
SPLINE
  5
154
100
AcDbEntity
  8
Layer_1
 62
7
100
AcDbSpline
 70
8
 71
3
 72
8
 73
4
 74
0
 40
0
 40
0
 40
0
 40
0
 40
1
 40
1
 40
1
 40
1
 10
36.199195
 20
311.946140
 30
0.0
 10
36.252395
 20
311.509699
 30
0.0
 10
36.490138
 20
309.652827
 30
0.0
 10
36.727328
 20
307.819775
 30
0.0
  0
SPLINE
  5
155
100
AcDbEntity
  8
Layer_1
 62
7
100
AcDbSpline
 70
8
 71
3
 72
8
 73
4
 74
0
 40
0
 40
0
 40
0
 40
0
 40
1
 40
1
 40
1
 40
1
 10
36.727328
 20
307.819775
 30
0.0
 10
36.964498
 20
305.986726
 30
0.0
 10
37.201975
 20
304.129854
 30
0.0
 10
37.254944
 20
303.693413
 30
0.0
  0
SPLINE
  5
156
100
AcDbEntity
  8
Layer_1
 62
7
100
AcDbSpline
 70
8
 71
3
 72
8
 73
4
 74
0
 40
0
 40
0
 40
0
 40
0
 40
1
 40
1
 40
1
 40
1
 10
37.254944
 20
303.693413
 30
0.0
 10
37.339544
 20
302.996122
 30
0.0
 10
37.810415
 20
299.345613
 30
0.0
 10
38.102955
 20
297.119136
 30
0.0
  0
SPLINE
  5
157
100
AcDbEntity
  8
Layer_1
 62
7
100
AcDbSpline
 70
8
 71
3
 72
8
 73
4
 74
0
 40
0
 40
0
 40
0
 40
0
 40
1
 40
1
 40
1
 40
1
 10
38.102955
 20
297.119136
 30
0.0
 10
38.159255
 20
296.690826
 30
0.0
 10
38.281819
 20
295.697631
 30
0.0
 10
38.375290
 20
294.912038
 30
0.0
  0
SPLINE
  5
158
100
AcDbEntity
  8
Layer_1
 62
7
100
AcDbSpline
 70
8
 71
3
 72
8
 73
4
 74
0
 40
0
 40
0
 40
0
 40
0
 40
1
 40
1
 40
1
 40
1
 10
38.375290
 20
294.912038
 30
0.0
 10
38.835049
 20
291.179923
 30
0.0
 10
39.179044
 20
288.460099
 30
0.0
 10
39.369544
 20
287.024147
 30
0.0
  0
SPLINE
  5
159
100
AcDbEntity
  8
Layer_1
 62
7
100
AcDbSpline
 70
8
 71
3
 72
8
 73
4
 74
0
 40
0
 40
0
 40
0
 40
0
 40
1
 40
1
 40
1
 40
1
 10
39.369544
 20
287.024147
 30
0.0
 10
39.370334
 20
286.999215
 30
0.0
 10
39.371644
 20
286.970500
 30
0.0
 10
39.371644
 20
286.950249
 30
0.0
  0
SPLINE
  5
15a
100
AcDbEntity
  8
Layer_1
 62
7
100
AcDbSpline
 70
8
 71
3
 72
8
 73
4
 74
0
 40
0
 40
0
 40
0
 40
0
 40
1
 40
1
 40
1
 40
1
 10
39.371644
 20
286.950249
 30
0.0
 10
39.371954
 20
286.860989
 30
0.0
 10
39.386434
 20
286.781508
 30
0.0
 10
39.408334
 20
286.728041
 30
0.0
  0
SPLINE
  5
15b
100
AcDbEntity
  8
Layer_1
 62
7
100
AcDbSpline
 70
8
 71
3
 72
8
 73
4
 74
0
 40
0
 40
0
 40
0
 40
0
 40
1
 40
1
 40
1
 40
1
 10
39.408334
 20
286.728041
 30
0.0
 10
39.442834
 20
286.471763
 30
0.0
 10
39.468864
 20
286.284129
 30
0.0
 10
39.489464
 20
286.143063
 30
0.0
  0
SPLINE
  5
15c
100
AcDbEntity
  8
Layer_1
 62
7
100
AcDbSpline
 70
8
 71
3
 72
8
 73
4
 74
0
 40
0
 40
0
 40
0
 40
0
 40
1
 40
1
 40
1
 40
1
 10
39.489464
 20
286.143063
 30
0.0
 10
39.470064
 20
285.932881
 30
0.0
 10
39.397314
 20
285.681725
 30
0.0
 10
39.316348
 20
285.558086
 30
0.0
  0
LWPOLYLINE
  5
15d
100
AcDbEntity
  8
Layer_1
 62
7
100
AcDbPolyline
 90
4
 70
0
 10
31.341106
 20
347.552231
 30
0.0
 10
44.695329
 20
347.552231
 30
0.0
 10
44.695329
 20
344.551896
 30
0.0
 10
31.549866
 20
344.551896
 30
0.0
  0
SPLINE
  5
15e
100
AcDbEntity
  8
Layer_1
 62
7
100
AcDbSpline
 70
8
 71
3
 72
8
 73
4
 74
0
 40
0
 40
0
 40
0
 40
0
 40
1
 40
1
 40
1
 40
1
 10
39.181473
 20
285.351896
 30
0.0
 10
38.966753
 20
285.106968
 30
0.0
 10
38.618122
 20
284.658968
 30
0.0
 10
38.593912
 20
284.595870
 30
0.0
  0
SPLINE
  5
15f
100
AcDbEntity
  8
Layer_1
 62
7
100
AcDbSpline
 70
8
 71
3
 72
8
 73
4
 74
0
 40
0
 40
0
 40
0
 40
0
 40
1
 40
1
 40
1
 40
1
 10
38.593912
 20
284.595870
 30
0.0
 10
38.569012
 20
284.530960
 30
0.0
 10
38.363227
 20
284.150275
 30
0.0
 10
38.267317
 20
283.958700
 30
0.0
  0
SPLINE
  5
160
100
AcDbEntity
  8
Layer_1
 62
7
100
AcDbSpline
 70
8
 71
3
 72
8
 73
4
 74
0
 40
0
 40
0
 40
0
 40
0
 40
1
 40
1
 40
1
 40
1
 10
38.267317
 20
283.958700
 30
0.0
 10
38.191617
 20
283.926480
 30
0.0
 10
38.144954
 20
283.880370
 30
0.0
 10
38.092134
 20
283.815040
 30
0.0
  0
SPLINE
  5
161
100
AcDbEntity
  8
Layer_1
 62
7
100
AcDbSpline
 70
8
 71
3
 72
8
 73
4
 74
0
 40
0
 40
0
 40
0
 40
0
 40
1
 40
1
 40
1
 40
1
 10
38.092134
 20
283.815040
 30
0.0
 10
37.992434
 20
283.691868
 30
0.0
 10
37.846599
 20
283.589244
 30
0.0
 10
37.768639
 20
283.587146
 30
0.0
  0
SPLINE
  5
162
100
AcDbEntity
  8
Layer_1
 62
7
100
AcDbSpline
 70
8
 71
3
 72
8
 73
4
 74
0
 40
0
 40
0
 40
0
 40
0
 40
1
 40
1
 40
1
 40
1
 10
37.768639
 20
283.587146
 30
0.0
 10
37.690639
 20
283.585046
 30
0.0
 10
37.507942
 20
283.515286
 30
0.0
 10
37.362462
 20
283.432119
 30
0.0
  0
SPLINE
  5
163
100
AcDbEntity
  8
Layer_1
 62
7
100
AcDbSpline
 70
8
 71
3
 72
8
 73
4
 74
0
 40
0
 40
0
 40
0
 40
0
 40
1
 40
1
 40
1
 40
1
 10
37.362462
 20
283.432119
 30
0.0
 10
37.181083
 20
283.355729
 30
0.0
 10
37.073651
 20
283.304904
 30
0.0
 10
37.000211
 20
283.266236
 30
0.0
  0
SPLINE
  5
164
100
AcDbEntity
  8
Layer_1
 62
7
100
AcDbSpline
 70
8
 71
3
 72
8
 73
4
 74
0
 40
0
 40
0
 40
0
 40
0
 40
1
 40
1
 40
1
 40
1
 10
37.000211
 20
283.266236
 30
0.0
 10
36.998211
 20
283.268336
 30
0.0
 10
36.996411
 20
283.269336
 30
0.0
 10
36.992411
 20
283.269336
 30
0.0
  0
SPLINE
  5
165
100
AcDbEntity
  8
Layer_1
 62
7
100
AcDbSpline
 70
8
 71
3
 72
8
 73
4
 74
0
 40
0
 40
0
 40
0
 40
0
 40
1
 40
1
 40
1
 40
1
 10
36.992411
 20
283.269336
 30
0.0
 10
36.934211
 20
283.268542
 30
0.0
 10
36.767371
 20
283.171296
 30
0.0
 10
36.621891
 20
283.052295
 30
0.0
  0
SPLINE
  5
166
100
AcDbEntity
  8
Layer_1
 62
7
100
AcDbSpline
 70
8
 71
3
 72
8
 73
4
 74
0
 40
0
 40
0
 40
0
 40
0
 40
1
 40
1
 40
1
 40
1
 10
36.621891
 20
283.052295
 30
0.0
 10
36.474261
 20
282.931545
 30
0.0
 10
35.984381
 20
282.324339
 30
0.0
 10
35.914441
 20
282.175863
 30
0.0
  0
SPLINE
  5
167
100
AcDbEntity
  8
Layer_1
 62
7
100
AcDbSpline
 70
8
 71
3
 72
8
 73
4
 74
0
 40
0
 40
0
 40
0
 40
0
 40
1
 40
1
 40
1
 40
1
 10
35.914441
 20
282.175863
 30
0.0
 10
35.901541
 20
282.169163
 30
0.0
 10
35.892431
 20
282.133303
 30
0.0
 10
35.889631
 20
282.065791
 30
0.0
  0
SPLINE
  5
168
100
AcDbEntity
  8
Layer_1
 62
7
100
AcDbSpline
 70
8
 71
3
 72
8
 73
4
 74
0
 40
0
 40
0
 40
0
 40
0
 40
1
 40
1
 40
1
 40
1
 10
35.889631
 20
282.065791
 30
0.0
 10
35.885631
 20
281.976341
 30
0.0
 10
36.204696
 20
281.597859
 30
0.0
 10
36.350585
 20
281.467896
 30
0.0
  0
SPLINE
  5
169
100
AcDbEntity
  8
Layer_1
 62
7
100
AcDbSpline
 70
8
 71
3
 72
8
 73
4
 74
0
 40
0
 40
0
 40
0
 40
0
 40
1
 40
1
 40
1
 40
1
 10
36.350585
 20
281.467896
 30
0.0
 10
36.316885
 20
281.454786
 30
0.0
 10
36.384385
 20
281.391196
 30
0.0
 10
36.515950
 20
281.315967
 30
0.0
  0
SPLINE
  5
16a
100
AcDbEntity
  8
Layer_1
 62
7
100
AcDbSpline
 70
8
 71
3
 72
8
 73
4
 74
0
 40
0
 40
0
 40
0
 40
0
 40
1
 40
1
 40
1
 40
1
 10
36.515950
 20
281.315967
 30
0.0
 10
36.831899
 20
281.149549
 30
0.0
 10
36.998124
 20
281.066933
 30
0.0
 10
37.070954
 20
281.036398
 30
0.0
  0
SPLINE
  5
16b
100
AcDbEntity
  8
Layer_1
 62
7
100
AcDbSpline
 70
8
 71
3
 72
8
 73
4
 74
0
 40
0
 40
0
 40
0
 40
0
 40
1
 40
1
 40
1
 40
1
 10
37.070954
 20
281.036398
 30
0.0
 10
37.088854
 20
281.025048
 30
0.0
 10
37.103084
 20
281.016358
 30
0.0
 10
37.117984
 20
281.007458
 30
0.0
  0
SPLINE
  5
16c
100
AcDbEntity
  8
Layer_1
 62
7
100
AcDbSpline
 70
8
 71
3
 72
8
 73
4
 74
0
 40
0
 40
0
 40
0
 40
0
 40
1
 40
1
 40
1
 40
1
 10
37.117984
 20
281.007458
 30
0.0
 10
37.174084
 20
280.897999
 30
0.0
 10
39.153425
 20
280.318705
 30
0.0
 10
39.893525
 20
280.208540
 30
0.0
  0
SPLINE
  5
16d
100
AcDbEntity
  8
Layer_1
 62
7
100
AcDbSpline
 70
8
 71
3
 72
8
 73
4
 74
0
 40
0
 40
0
 40
0
 40
0
 40
1
 40
1
 40
1
 40
1
 10
39.893525
 20
280.208540
 30
0.0
 10
40.141665
 20
280.171600
 30
0.0
 10
40.327033
 20
280.150770
 30
0.0
 10
40.465583
 20
280.149630
 30
0.0
  0
SPLINE
  5
16e
100
AcDbEntity
  8
Layer_1
 62
7
100
AcDbSpline
 70
8
 71
3
 72
8
 73
4
 74
0
 40
0
 40
0
 40
0
 40
0
 40
1
 40
1
 40
1
 40
1
 10
40.465583
 20
280.149630
 30
0.0
 10
40.586953
 20
279.924821
 30
0.0
 10
40.871369
 20
279.436152
 30
0.0
 10
40.919819
 20
279.309887
 30
0.0
  0
SPLINE
  5
16f
100
AcDbEntity
  8
Layer_1
 62
7
100
AcDbSpline
 70
8
 71
3
 72
8
 73
4
 74
0
 40
0
 40
0
 40
0
 40
0
 40
1
 40
1
 40
1
 40
1
 10
40.919819
 20
279.309887
 30
0.0
 10
40.954519
 20
279.219357
 30
0.0
 10
42.029934
 20
278.376472
 30
0.0
 10
42.145584
 20
278.328550
 30
0.0
  0
SPLINE
  5
170
100
AcDbEntity
  8
Layer_1
 62
7
100
AcDbSpline
 70
8
 71
3
 72
8
 73
4
 74
0
 40
0
 40
0
 40
0
 40
0
 40
1
 40
1
 40
1
 40
1
 10
42.145584
 20
278.328550
 30
0.0
 10
41.957324
 20
278.326550
 30
0.0
 10
42.338016
 20
278.323150
 30
0.0
 10
43.181696
 20
278.288240
 30
0.0
  0
SPLINE
  5
171
100
AcDbEntity
  8
Layer_1
 62
7
100
AcDbSpline
 70
8
 71
3
 72
8
 73
4
 74
0
 40
0
 40
0
 40
0
 40
0
 40
1
 40
1
 40
1
 40
1
 10
43.181696
 20
278.288240
 30
0.0
 10
44.436156
 20
278.236220
 30
0.0
 10
45.481326
 20
278.133358
 30
0.0
 10
46.091596
 20
278.001437
 30
0.0
  0
SPLINE
  5
172
100
AcDbEntity
  8
Layer_1
 62
7
100
AcDbSpline
 70
8
 71
3
 72
8
 73
4
 74
0
 40
0
 40
0
 40
0
 40
0
 40
1
 40
1
 40
1
 40
1
 10
46.091596
 20
278.001437
 30
0.0
 10
47.424856
 20
277.713237
 30
0.0
 10
47.609516
 20
277.716385
 30
0.0
 10
47.728706
 20
278.029857
 30
0.0
  0
SPLINE
  5
173
100
AcDbEntity
  8
Layer_1
 62
7
100
AcDbSpline
 70
8
 71
3
 72
8
 73
4
 74
0
 40
0
 40
0
 40
0
 40
0
 40
1
 40
1
 40
1
 40
1
 10
47.728706
 20
278.029857
 30
0.0
 10
47.807606
 20
278.237293
 30
0.0
 10
47.916303
 20
278.295798
 30
0.0
 10
48.281643
 20
278.328545
 30
0.0
  0
SPLINE
  5
174
100
AcDbEntity
  8
Layer_1
 62
7
100
AcDbSpline
 70
8
 71
3
 72
8
 73
4
 74
0
 40
0
 40
0
 40
0
 40
0
 40
1
 40
1
 40
1
 40
1
 10
48.281643
 20
278.328545
 30
0.0
 10
48.839303
 20
278.720359
 30
0.0
 10
49.115978
 20
278.953907
 30
0.0
 10
49.186498
 20
279.077853
 30
0.0
  0
SPLINE
  5
175
100
AcDbEntity
  8
Layer_1
 62
7
100
AcDbSpline
 70
8
 71
3
 72
8
 73
4
 74
0
 40
0
 40
0
 40
0
 40
0
 40
1
 40
1
 40
1
 40
1
 10
49.186498
 20
279.077853
 30
0.0
 10
49.782629
 20
279.012223
 30
0.0
 10
52.138111
 20
279.042883
 30
0.0
 10
53.285990
 20
279.149683
 30
0.0
  0
SPLINE
  5
176
100
AcDbEntity
  8
Layer_1
 62
7
100
AcDbSpline
 70
8
 71
3
 72
8
 73
4
 74
0
 40
0
 40
0
 40
0
 40
0
 40
1
 40
1
 40
1
 40
1
 10
53.285990
 20
279.149683
 30
0.0
 10
53.926102
 20
279.209233
 30
0.0
 10
54.676143
 20
279.331976
 30
0.0
 10
54.952553
 20
279.422535
 30
0.0
  0
SPLINE
  5
177
100
AcDbEntity
  8
Layer_1
 62
7
100
AcDbSpline
 70
8
 71
3
 72
8
 73
4
 74
0
 40
0
 40
0
 40
0
 40
0
 40
1
 40
1
 40
1
 40
1
 10
54.952553
 20
279.422535
 30
0.0
 10
55.422032
 20
279.576326
 30
0.0
 10
55.454848
 20
279.611130
 30
0.0
 10
55.454848
 20
279.949116
 30
0.0
  0
LWPOLYLINE
  5
178
100
AcDbEntity
  8
Layer_1
 62
7
100
AcDbPolyline
 90
2
 70
0
 10
39.316348
 20
285.558086
 30
0.0
 10
39.181473
 20
285.351896
 30
0.0
  0
SPLINE
  5
179
100
AcDbEntity
  8
Layer_1
 62
7
100
AcDbSpline
 70
8
 71
3
 72
8
 73
4
 74
0
 40
0
 40
0
 40
0
 40
0
 40
1
 40
1
 40
1
 40
1
 10
52.704113
 20
280.575435
 30
0.0
 10
52.704113
 20
280.799844
 30
0.0
 10
52.652223
 20
280.842704
 30
0.0
 10
52.360464
 20
280.857071
 30
0.0
  0
LWPOLYLINE
  5
17a
100
AcDbEntity
  8
Layer_1
 62
7
100
AcDbPolyline
 90
5
 70
0
 10
55.454848
 20
279.949116
 30
0.0
 10
55.454848
 20
280.310852
 30
0.0
 10
54.079740
 20
280.310852
 30
0.0
 10
52.704113
 20
280.310852
 30
0.0
 10
52.704113
 20
280.575435
 30
0.0
  0
SPLINE
  5
17b
100
AcDbEntity
  8
Layer_1
 62
7
100
AcDbSpline
 70
8
 71
3
 72
8
 73
4
 74
0
 40
0
 40
0
 40
0
 40
0
 40
1
 40
1
 40
1
 40
1
 10
52.352196
 20
280.915991
 30
0.0
 10
52.536986
 20
280.939141
 30
0.0
 10
52.745565
 20
281.026505
 30
0.0
 10
52.815217
 20
281.110296
 30
0.0
  0
SPLINE
  5
17c
100
AcDbEntity
  8
Layer_1
 62
7
100
AcDbSpline
 70
8
 71
3
 72
8
 73
4
 74
0
 40
0
 40
0
 40
0
 40
0
 40
1
 40
1
 40
1
 40
1
 10
52.815217
 20
281.110296
 30
0.0
 10
53.008487
 20
281.343174
 30
0.0
 10
59.424572
 20
281.337591
 30
0.0
 10
59.514033
 20
281.104596
 30
0.0
  0
SPLINE
  5
17d
100
AcDbEntity
  8
Layer_1
 62
7
100
AcDbSpline
 70
8
 71
3
 72
8
 73
4
 74
0
 40
0
 40
0
 40
0
 40
0
 40
1
 40
1
 40
1
 40
1
 10
59.514033
 20
281.104596
 30
0.0
 10
59.547533
 20
281.017306
 30
0.0
 10
59.671248
 20
280.945949
 30
0.0
 10
59.789467
 20
280.945949
 30
0.0
  0
SPLINE
  5
17e
100
AcDbEntity
  8
Layer_1
 62
7
100
AcDbSpline
 70
8
 71
3
 72
8
 73
4
 74
0
 40
0
 40
0
 40
0
 40
0
 40
1
 40
1
 40
1
 40
1
 10
59.789467
 20
280.945949
 30
0.0
 10
59.907677
 20
280.945949
 30
0.0
 10
60.004441
 20
280.877389
 30
0.0
 10
60.004441
 20
280.794020
 30
0.0
  0
SPLINE
  5
17f
100
AcDbEntity
  8
Layer_1
 62
7
100
AcDbSpline
 70
8
 71
3
 72
8
 73
4
 74
0
 40
0
 40
0
 40
0
 40
0
 40
1
 40
1
 40
1
 40
1
 10
60.004441
 20
280.794020
 30
0.0
 10
60.004441
 20
280.710660
 30
0.0
 10
60.105668
 20
280.610518
 30
0.0
 10
60.229233
 20
280.571297
 30
0.0
  0
SPLINE
  5
180
100
AcDbEntity
  8
Layer_1
 62
7
100
AcDbSpline
 70
8
 71
3
 72
8
 73
4
 74
0
 40
0
 40
0
 40
0
 40
0
 40
1
 40
1
 40
1
 40
1
 10
60.229233
 20
280.571297
 30
0.0
 10
60.393458
 20
280.519177
 30
0.0
 10
60.522905
 20
280.574397
 30
0.0
 10
60.709825
 20
280.775933
 30
0.0
  0
SPLINE
  5
181
100
AcDbEntity
  8
Layer_1
 62
7
100
AcDbSpline
 70
8
 71
3
 72
8
 73
4
 74
0
 40
0
 40
0
 40
0
 40
0
 40
1
 40
1
 40
1
 40
1
 10
60.709825
 20
280.775933
 30
0.0
 10
60.851803
 20
280.929045
 30
0.0
 10
61.081086
 20
281.051370
 30
0.0
 10
61.225556
 20
281.051370
 30
0.0
  0
SPLINE
  5
182
100
AcDbEntity
  8
Layer_1
 62
7
100
AcDbSpline
 70
8
 71
3
 72
8
 73
4
 74
0
 40
0
 40
0
 40
0
 40
0
 40
1
 40
1
 40
1
 40
1
 10
61.225556
 20
281.051370
 30
0.0
 10
61.368685
 20
281.051370
 30
0.0
 10
61.486004
 20
281.096090
 30
0.0
 10
61.486004
 20
281.150590
 30
0.0
  0
SPLINE
  5
183
100
AcDbEntity
  8
Layer_1
 62
7
100
AcDbSpline
 70
8
 71
3
 72
8
 73
4
 74
0
 40
0
 40
0
 40
0
 40
0
 40
1
 40
1
 40
1
 40
1
 10
61.486004
 20
281.150590
 30
0.0
 10
61.486004
 20
281.205100
 30
0.0
 10
61.640542
 20
281.264647
 30
0.0
 10
61.829653
 20
281.282882
 30
0.0
  0
SPLINE
  5
184
100
AcDbEntity
  8
Layer_1
 62
7
100
AcDbSpline
 70
8
 71
3
 72
8
 73
4
 74
0
 40
0
 40
0
 40
0
 40
0
 40
1
 40
1
 40
1
 40
1
 10
61.829653
 20
281.282882
 30
0.0
 10
62.096464
 20
281.308612
 30
0.0
 10
62.181512
 20
281.370772
 30
0.0
 10
62.208441
 20
281.560901
 30
0.0
  0
LWPOLYLINE
  5
185
100
AcDbEntity
  8
Layer_1
 62
7
100
AcDbPolyline
 90
3
 70
0
 10
52.360464
 20
280.857071
 30
0.0
 10
52.016300
 20
280.873611
 30
0.0
 10
52.352196
 20
280.915991
 30
0.0
  0
SPLINE
  5
186
100
AcDbEntity
  8
Layer_1
 62
7
100
AcDbSpline
 70
8
 71
3
 72
8
 73
4
 74
0
 40
0
 40
0
 40
0
 40
0
 40
1
 40
1
 40
1
 40
1
 10
64.714230
 20
281.772773
 30
0.0
 10
66.267871
 20
281.751753
 30
0.0
 10
67.308599
 20
281.778673
 30
0.0
 10
67.373499
 20
281.845123
 30
0.0
  0
SPLINE
  5
187
100
AcDbEntity
  8
Layer_1
 62
7
100
AcDbSpline
 70
8
 71
3
 72
8
 73
4
 74
0
 40
0
 40
0
 40
0
 40
0
 40
1
 40
1
 40
1
 40
1
 10
67.373499
 20
281.845123
 30
0.0
 10
67.430299
 20
281.903313
 30
0.0
 10
67.408679
 20
282.089227
 30
0.0
 10
67.428279
 20
282.258534
 30
0.0
  0
SPLINE
  5
188
100
AcDbEntity
  8
Layer_1
 62
7
100
AcDbSpline
 70
8
 71
3
 72
8
 73
4
 74
0
 40
0
 40
0
 40
0
 40
0
 40
1
 40
1
 40
1
 40
1
 10
67.428279
 20
282.258534
 30
0.0
 10
67.375579
 20
282.912616
 30
0.0
 10
67.389729
 20
282.805354
 30
0.0
 10
65.784451
 20
282.793903
 30
0.0
  0
SPLINE
  5
189
100
AcDbEntity
  8
Layer_1
 62
7
100
AcDbSpline
 70
8
 71
3
 72
8
 73
4
 74
0
 40
0
 40
0
 40
0
 40
0
 40
1
 40
1
 40
1
 40
1
 10
65.784451
 20
282.793903
 30
0.0
 10
65.225969
 20
282.758883
 30
0.0
 10
63.819261
 20
282.818703
 30
0.0
 10
62.727273
 20
282.789203
 30
0.0
  0
SPLINE
  5
18a
100
AcDbEntity
  8
Layer_1
 62
7
100
AcDbSpline
 70
8
 71
3
 72
8
 73
4
 74
0
 40
0
 40
0
 40
0
 40
0
 40
1
 40
1
 40
1
 40
1
 10
62.727273
 20
282.789203
 30
0.0
 10
61.003394
 20
282.742793
 30
0.0
 10
60.733688
 20
282.757113
 30
0.0
 10
60.679337
 20
282.898757
 30
0.0
  0
SPLINE
  5
18b
100
AcDbEntity
  8
Layer_1
 62
7
100
AcDbSpline
 70
8
 71
3
 72
8
 73
4
 74
0
 40
0
 40
0
 40
0
 40
0
 40
1
 40
1
 40
1
 40
1
 10
60.679337
 20
282.898757
 30
0.0
 10
60.595837
 20
283.116358
 30
0.0
 10
60.004441
 20
283.119432
 30
0.0
 10
60.004441
 20
282.902857
 30
0.0
  0
SPLINE
  5
18c
100
AcDbEntity
  8
Layer_1
 62
7
100
AcDbSpline
 70
8
 71
3
 72
8
 73
4
 74
0
 40
0
 40
0
 40
0
 40
0
 40
1
 40
1
 40
1
 40
1
 10
60.004441
 20
282.902857
 30
0.0
 10
60.004441
 20
282.765504
 30
0.0
 10
59.598951
 20
282.744210
 30
0.0
 10
56.989122
 20
282.744210
 30
0.0
  0
SPLINE
  5
18d
100
AcDbEntity
  8
Layer_1
 62
7
100
AcDbSpline
 70
8
 71
3
 72
8
 73
4
 74
0
 40
0
 40
0
 40
0
 40
0
 40
1
 40
1
 40
1
 40
1
 10
56.989122
 20
282.744210
 30
0.0
 10
54.492292
 20
282.744210
 30
0.0
 10
53.973804
 20
282.769260
 30
0.0
 10
53.973804
 20
282.890453
 30
0.0
  0
SPLINE
  5
18e
100
AcDbEntity
  8
Layer_1
 62
7
100
AcDbSpline
 70
8
 71
3
 72
8
 73
4
 74
0
 40
0
 40
0
 40
0
 40
0
 40
1
 40
1
 40
1
 40
1
 10
53.973804
 20
282.890453
 30
0.0
 10
53.973804
 20
283.056323
 30
0.0
 10
53.670594
 20
283.159045
 30
0.0
 10
53.127343
 20
283.176741
 30
0.0
  0
LWPOLYLINE
  5
18f
100
AcDbEntity
  8
Layer_1
 62
7
100
AcDbPolyline
 90
3
 70
0
 10
62.208441
 20
281.560901
 30
0.0
 10
62.243061
 20
281.806363
 30
0.0
 10
64.714230
 20
281.772773
 30
0.0
  0
SPLINE
  5
190
100
AcDbEntity
  8
Layer_1
 62
7
100
AcDbSpline
 70
8
 71
3
 72
8
 73
4
 74
0
 40
0
 40
0
 40
0
 40
0
 40
1
 40
1
 40
1
 40
1
 10
53.180054
 20
283.290434
 30
0.0
 10
53.412821
 20
283.346414
 30
0.0
 10
53.889235
 20
283.425091
 30
0.0
 10
54.238387
 20
283.465102
 30
0.0
  0
SPLINE
  5
191
100
AcDbEntity
  8
Layer_1
 62
7
100
AcDbSpline
 70
8
 71
3
 72
8
 73
4
 74
0
 40
0
 40
0
 40
0
 40
0
 40
1
 40
1
 40
1
 40
1
 10
54.238387
 20
283.465102
 30
0.0
 10
54.851908
 20
283.535392
 30
0.0
 10
54.873289
 20
283.548502
 30
0.0
 10
54.889508
 20
283.855259
 30
0.0
  0
SPLINE
  5
192
100
AcDbEntity
  8
Layer_1
 62
7
100
AcDbSpline
 70
8
 71
3
 72
8
 73
4
 74
0
 40
0
 40
0
 40
0
 40
0
 40
1
 40
1
 40
1
 40
1
 10
54.889508
 20
283.855259
 30
0.0
 10
54.894508
 20
283.951469
 30
0.0
 10
54.869168
 20
284.191166
 30
0.0
 10
54.854368
 20
284.286239
 30
0.0
  0
SPLINE
  5
193
100
AcDbEntity
  8
Layer_1
 62
7
100
AcDbSpline
 70
8
 71
3
 72
8
 73
4
 74
0
 40
0
 40
0
 40
0
 40
0
 40
1
 40
1
 40
1
 40
1
 10
54.854368
 20
284.286239
 30
0.0
 10
54.867168
 20
284.302329
 30
0.0
 10
54.869398
 20
284.325139
 30
0.0
 10
54.856468
 20
284.358069
 30
0.0
  0
SPLINE
  5
194
100
AcDbEntity
  8
Layer_1
 62
7
100
AcDbSpline
 70
8
 71
3
 72
8
 73
4
 74
0
 40
0
 40
0
 40
0
 40
0
 40
1
 40
1
 40
1
 40
1
 10
54.856468
 20
284.358069
 30
0.0
 10
54.838268
 20
284.406059
 30
0.0
 10
54.581487
 20
284.437129
 30
0.0
 10
54.305598
 20
284.437129
 30
0.0
  0
SPLINE
  5
195
100
AcDbEntity
  8
Layer_1
 62
7
100
AcDbSpline
 70
8
 71
3
 72
8
 73
4
 74
0
 40
0
 40
0
 40
0
 40
0
 40
1
 40
1
 40
1
 40
1
 10
54.305598
 20
284.437129
 30
0.0
 10
54.175338
 20
284.437129
 30
0.0
 10
54.042671
 20
284.451099
 30
0.0
 10
53.929910
 20
284.472789
 30
0.0
  0
SPLINE
  5
196
100
AcDbEntity
  8
Layer_1
 62
7
100
AcDbSpline
 70
8
 71
3
 72
8
 73
4
 74
0
 40
0
 40
0
 40
0
 40
0
 40
1
 40
1
 40
1
 40
1
 10
53.929910
 20
284.472789
 30
0.0
 10
53.738760
 20
284.592317
 30
0.0
 10
53.168646
 20
284.905817
 30
0.0
 10
52.529995
 20
285.249487
 30
0.0
  0
SPLINE
  5
197
100
AcDbEntity
  8
Layer_1
 62
7
100
AcDbSpline
 70
8
 71
3
 72
8
 73
4
 74
0
 40
0
 40
0
 40
0
 40
0
 40
1
 40
1
 40
1
 40
1
 10
52.529995
 20
285.249487
 30
0.0
 10
52.518195
 20
285.256187
 30
0.0
 10
52.509525
 20
285.261007
 30
0.0
 10
52.496925
 20
285.268087
 30
0.0
  0
SPLINE
  5
198
100
AcDbEntity
  8
Layer_1
 62
7
100
AcDbSpline
 70
8
 71
3
 72
8
 73
4
 74
0
 40
0
 40
0
 40
0
 40
0
 40
1
 40
1
 40
1
 40
1
 10
52.496925
 20
285.268087
 30
0.0
 10
52.436025
 20
285.302307
 30
0.0
 10
52.379987
 20
285.332017
 30
0.0
 10
52.327427
 20
285.358517
 30
0.0
  0
SPLINE
  5
199
100
AcDbEntity
  8
Layer_1
 62
7
100
AcDbSpline
 70
8
 71
3
 72
8
 73
4
 74
0
 40
0
 40
0
 40
0
 40
0
 40
1
 40
1
 40
1
 40
1
 10
52.327427
 20
285.358517
 30
0.0
 10
52.202417
 20
285.425487
 30
0.0
 10
52.082772
 20
285.488766
 30
0.0
 10
51.957423
 20
285.555404
 30
0.0
  0
SPLINE
  5
19a
100
AcDbEntity
  8
Layer_1
 62
7
100
AcDbSpline
 70
8
 71
3
 72
8
 73
4
 74
0
 40
0
 40
0
 40
0
 40
0
 40
1
 40
1
 40
1
 40
1
 10
51.957423
 20
285.555404
 30
0.0
 10
51.906623
 20
285.632564
 30
0.0
 10
51.301900
 20
285.946903
 30
0.0
 10
51.097012
 20
286.008088
 30
0.0
  0
SPLINE
  5
19b
100
AcDbEntity
  8
Layer_1
 62
7
100
AcDbSpline
 70
8
 71
3
 72
8
 73
4
 74
0
 40
0
 40
0
 40
0
 40
0
 40
1
 40
1
 40
1
 40
1
 10
51.097012
 20
286.008088
 30
0.0
 10
50.634681
 20
286.248321
 30
0.0
 10
50.277028
 20
286.428881
 30
0.0
 10
50.228848
 20
286.439070
 30
0.0
  0
SPLINE
  5
19c
100
AcDbEntity
  8
Layer_1
 62
7
100
AcDbSpline
 70
8
 71
3
 72
8
 73
4
 74
0
 40
0
 40
0
 40
0
 40
0
 40
1
 40
1
 40
1
 40
1
 10
50.228848
 20
286.439070
 30
0.0
 10
50.166148
 20
286.469120
 30
0.0
 10
50.068986
 20
286.513650
 30
0.0
 10
49.997337
 20
286.547592
 30
0.0
  0
SPLINE
  5
19d
100
AcDbEntity
  8
Layer_1
 62
7
100
AcDbSpline
 70
8
 71
3
 72
8
 73
4
 74
0
 40
0
 40
0
 40
0
 40
0
 40
1
 40
1
 40
1
 40
1
 10
49.997337
 20
286.547592
 30
0.0
 10
49.891880
 20
286.644364
 30
0.0
 10
48.979041
 20
287.057910
 30
0.0
 10
48.457361
 20
287.263441
 30
0.0
  0
SPLINE
  5
19e
100
AcDbEntity
  8
Layer_1
 62
7
100
AcDbSpline
 70
8
 71
3
 72
8
 73
4
 74
0
 40
0
 40
0
 40
0
 40
0
 40
1
 40
1
 40
1
 40
1
 10
48.457361
 20
287.263441
 30
0.0
 10
48.064081
 20
287.443318
 30
0.0
 10
47.739600
 20
287.590302
 30
0.0
 10
47.692550
 20
287.608640
 30
0.0
  0
SPLINE
  5
19f
100
AcDbEntity
  8
Layer_1
 62
7
100
AcDbSpline
 70
8
 71
3
 72
8
 73
4
 74
0
 40
0
 40
0
 40
0
 40
0
 40
1
 40
1
 40
1
 40
1
 10
47.692550
 20
287.608640
 30
0.0
 10
47.539000
 20
287.668460
 30
0.0
 10
47.294394
 20
287.763760
 30
0.0
 10
47.148914
 20
287.820513
 30
0.0
  0
SPLINE
  5
1a0
100
AcDbEntity
  8
Layer_1
 62
7
100
AcDbSpline
 70
8
 71
3
 72
8
 73
4
 74
0
 40
0
 40
0
 40
0
 40
0
 40
1
 40
1
 40
1
 40
1
 10
47.148914
 20
287.820513
 30
0.0
 10
47.014864
 20
287.872824
 30
0.0
 10
46.922108
 20
287.967156
 30
0.0
 10
46.886398
 20
288.080964
 30
0.0
  0
SPLINE
  5
1a1
100
AcDbEntity
  8
Layer_1
 62
7
100
AcDbSpline
 70
8
 71
3
 72
8
 73
4
 74
0
 40
0
 40
0
 40
0
 40
0
 40
1
 40
1
 40
1
 40
1
 10
46.886398
 20
288.080964
 30
0.0
 10
46.926598
 20
288.366063
 30
0.0
 10
47.013317
 20
289.286522
 30
0.0
 10
47.143746
 20
290.838417
 30
0.0
  0
SPLINE
  5
1a2
100
AcDbEntity
  8
Layer_1
 62
7
100
AcDbSpline
 70
8
 71
3
 72
8
 73
4
 74
0
 40
0
 40
0
 40
0
 40
0
 40
1
 40
1
 40
1
 40
1
 10
47.143746
 20
290.838417
 30
0.0
 10
47.441096
 20
293.925917
 30
0.0
 10
47.450922
 20
294.220422
 30
0.0
 10
47.259501
 20
294.379288
 30
0.0
  0
SPLINE
  5
1a3
100
AcDbEntity
  8
Layer_1
 62
7
100
AcDbSpline
 70
8
 71
3
 72
8
 73
4
 74
0
 40
0
 40
0
 40
0
 40
0
 40
1
 40
1
 40
1
 40
1
 10
47.259501
 20
294.379288
 30
0.0
 10
47.114742
 20
294.499427
 30
0.0
 10
47.097444
 20
294.686205
 30
0.0
 10
47.147364
 20
295.589548
 30
0.0
  0
SPLINE
  5
1a4
100
AcDbEntity
  8
Layer_1
 62
7
100
AcDbSpline
 70
8
 71
3
 72
8
 73
4
 74
0
 40
0
 40
0
 40
0
 40
0
 40
1
 40
1
 40
1
 40
1
 10
47.147364
 20
295.589548
 30
0.0
 10
47.179864
 20
296.177100
 30
0.0
 10
47.228174
 20
296.895912
 30
0.0
 10
47.255368
 20
297.186866
 30
0.0
  0
SPLINE
  5
1a5
100
AcDbEntity
  8
Layer_1
 62
7
100
AcDbSpline
 70
8
 71
3
 72
8
 73
4
 74
0
 40
0
 40
0
 40
0
 40
0
 40
1
 40
1
 40
1
 40
1
 10
47.255368
 20
297.186866
 30
0.0
 10
47.282568
 20
297.477831
 30
0.0
 10
47.330598
 20
298.144185
 30
0.0
 10
47.362338
 20
298.667914
 30
0.0
  0
SPLINE
  5
1a6
100
AcDbEntity
  8
Layer_1
 62
7
100
AcDbSpline
 70
8
 71
3
 72
8
 73
4
 74
0
 40
0
 40
0
 40
0
 40
0
 40
1
 40
1
 40
1
 40
1
 10
47.362338
 20
298.667914
 30
0.0
 10
47.447038
 20
300.066785
 30
0.0
 10
47.510074
 20
300.373304
 30
0.0
 10
47.770065
 20
300.653839
 30
0.0
  0
SPLINE
  5
1a7
100
AcDbEntity
  8
Layer_1
 62
7
100
AcDbSpline
 70
8
 71
3
 72
8
 73
4
 74
0
 40
0
 40
0
 40
0
 40
0
 40
1
 40
1
 40
1
 40
1
 10
47.770065
 20
300.653839
 30
0.0
 10
47.980064
 20
300.880423
 30
0.0
 10
48.018985
 20
301.099599
 30
0.0
 10
48.142135
 20
302.749834
 30
0.0
  0
SPLINE
  5
1a8
100
AcDbEntity
  8
Layer_1
 62
7
100
AcDbSpline
 70
8
 71
3
 72
8
 73
4
 74
0
 40
0
 40
0
 40
0
 40
0
 40
1
 40
1
 40
1
 40
1
 10
48.142135
 20
302.749834
 30
0.0
 10
48.217735
 20
303.763585
 30
0.0
 10
48.298175
 20
304.780937
 30
0.0
 10
48.320935
 20
305.010680
 30
0.0
  0
SPLINE
  5
1a9
100
AcDbEntity
  8
Layer_1
 62
7
100
AcDbSpline
 70
8
 71
3
 72
8
 73
4
 74
0
 40
0
 40
0
 40
0
 40
0
 40
1
 40
1
 40
1
 40
1
 10
48.320935
 20
305.010680
 30
0.0
 10
48.347235
 20
305.276446
 30
0.0
 10
48.300805
 20
305.522469
 30
0.0
 10
48.193295
 20
305.686606
 30
0.0
  0
SPLINE
  5
1aa
100
AcDbEntity
  8
Layer_1
 62
7
100
AcDbSpline
 70
8
 71
3
 72
8
 73
4
 74
0
 40
0
 40
0
 40
0
 40
0
 40
1
 40
1
 40
1
 40
1
 10
48.193295
 20
305.686606
 30
0.0
 10
48.049805
 20
305.905599
 30
0.0
 10
48.035854
 20
306.146460
 30
0.0
 10
48.100795
 20
307.279273
 30
0.0
  0
SPLINE
  5
1ab
100
AcDbEntity
  8
Layer_1
 62
7
100
AcDbSpline
 70
8
 71
3
 72
8
 73
4
 74
0
 40
0
 40
0
 40
0
 40
0
 40
1
 40
1
 40
1
 40
1
 10
48.100795
 20
307.279273
 30
0.0
 10
48.142895
 20
308.013288
 30
0.0
 10
48.190525
 20
308.684925
 30
0.0
 10
48.206732
 20
308.772206
 30
0.0
  0
SPLINE
  5
1ac
100
AcDbEntity
  8
Layer_1
 62
7
100
AcDbSpline
 70
8
 71
3
 72
8
 73
4
 74
0
 40
0
 40
0
 40
0
 40
0
 40
1
 40
1
 40
1
 40
1
 10
48.206732
 20
308.772206
 30
0.0
 10
48.223032
 20
308.859496
 30
0.0
 10
48.268152
 20
309.430889
 30
0.0
 10
48.306984
 20
310.041896
 30
0.0
  0
SPLINE
  5
1ad
100
AcDbEntity
  8
Layer_1
 62
7
100
AcDbSpline
 70
8
 71
3
 72
8
 73
4
 74
0
 40
0
 40
0
 40
0
 40
0
 40
1
 40
1
 40
1
 40
1
 10
48.306984
 20
310.041896
 30
0.0
 10
48.368584
 20
311.011494
 30
0.0
 10
48.409621
 20
311.186669
 30
0.0
 10
48.628411
 20
311.417523
 30
0.0
  0
SPLINE
  5
1ae
100
AcDbEntity
  8
Layer_1
 62
7
100
AcDbSpline
 70
8
 71
3
 72
8
 73
4
 74
0
 40
0
 40
0
 40
0
 40
0
 40
1
 40
1
 40
1
 40
1
 10
48.628411
 20
311.417523
 30
0.0
 10
48.915631
 20
311.720572
 30
0.0
 10
48.970632
 20
312.028674
 30
0.0
 10
49.054742
 20
313.798257
 30
0.0
  0
SPLINE
  5
1af
100
AcDbEntity
  8
Layer_1
 62
7
100
AcDbSpline
 70
8
 71
3
 72
8
 73
4
 74
0
 40
0
 40
0
 40
0
 40
0
 40
1
 40
1
 40
1
 40
1
 10
49.054742
 20
313.798257
 30
0.0
 10
49.087942
 20
314.496569
 30
0.0
 10
49.140482
 20
315.151154
 30
0.0
 10
49.171014
 20
315.252947
 30
0.0
  0
SPLINE
  5
1b0
100
AcDbEntity
  8
Layer_1
 62
7
100
AcDbSpline
 70
8
 71
3
 72
8
 73
4
 74
0
 40
0
 40
0
 40
0
 40
0
 40
1
 40
1
 40
1
 40
1
 10
49.171014
 20
315.252947
 30
0.0
 10
49.209814
 20
315.382151
 30
0.0
 10
49.144654
 20
315.469209
 30
0.0
 10
48.955006
 20
315.541303
 30
0.0
  0
SPLINE
  5
1b1
100
AcDbEntity
  8
Layer_1
 62
7
100
AcDbSpline
 70
8
 71
3
 72
8
 73
4
 74
0
 40
0
 40
0
 40
0
 40
0
 40
1
 40
1
 40
1
 40
1
 10
48.955006
 20
315.541303
 30
0.0
 10
48.762376
 20
315.614543
 30
0.0
 10
48.683188
 20
315.721863
 30
0.0
 10
48.683188
 20
315.911304
 30
0.0
  0
LWPOLYLINE
  5
1b2
100
AcDbEntity
  8
Layer_1
 62
7
100
AcDbPolyline
 90
3
 70
0
 10
53.127343
 20
283.176741
 30
0.0
 10
52.756823
 20
283.188631
 30
0.0
 10
53.180054
 20
283.290434
 30
0.0
  0
SPLINE
  5
1b3
100
AcDbEntity
  8
Layer_1
 62
7
100
AcDbSpline
 70
8
 71
3
 72
8
 73
4
 74
0
 40
0
 40
0
 40
0
 40
0
 40
1
 40
1
 40
1
 40
1
 10
48.974127
 20
319.671850
 30
0.0
 10
49.134157
 20
319.672723
 30
0.0
 10
49.322969
 20
319.710680
 30
0.0
 10
49.393740
 20
319.755560
 30
0.0
  0
SPLINE
  5
1b4
100
AcDbEntity
  8
Layer_1
 62
7
100
AcDbSpline
 70
8
 71
3
 72
8
 73
4
 74
0
 40
0
 40
0
 40
0
 40
0
 40
1
 40
1
 40
1
 40
1
 10
49.393740
 20
319.755560
 30
0.0
 10
49.527989
 20
319.840860
 30
0.0
 10
49.679281
 20
320.987074
 30
0.0
 10
49.794231
 20
322.791550
 30
0.0
  0
SPLINE
  5
1b5
100
AcDbEntity
  8
Layer_1
 62
7
100
AcDbSpline
 70
8
 71
3
 72
8
 73
4
 74
0
 40
0
 40
0
 40
0
 40
0
 40
1
 40
1
 40
1
 40
1
 10
49.794231
 20
322.791550
 30
0.0
 10
49.831331
 20
323.373470
 30
0.0
 10
49.905007
 20
324.158930
 30
0.0
 10
49.958046
 20
324.537181
 30
0.0
  0
SPLINE
  5
1b6
100
AcDbEntity
  8
Layer_1
 62
7
100
AcDbSpline
 70
8
 71
3
 72
8
 73
4
 74
0
 40
0
 40
0
 40
0
 40
0
 40
1
 40
1
 40
1
 40
1
 10
49.958046
 20
324.537181
 30
0.0
 10
50.011046
 20
324.915424
 30
0.0
 10
50.055546
 20
325.514293
 30
0.0
 10
50.056746
 20
325.867848
 30
0.0
  0
SPLINE
  5
1b7
100
AcDbEntity
  8
Layer_1
 62
7
100
AcDbSpline
 70
8
 71
3
 72
8
 73
4
 74
0
 40
0
 40
0
 40
0
 40
0
 40
1
 40
1
 40
1
 40
1
 10
50.056746
 20
325.867848
 30
0.0
 10
50.058746
 20
326.416112
 30
0.0
 10
50.020166
 20
326.546843
 30
0.0
 10
49.797330
 20
326.756168
 30
0.0
  0
SPLINE
  5
1b8
100
AcDbEntity
  8
Layer_1
 62
7
100
AcDbSpline
 70
8
 71
3
 72
8
 73
4
 74
0
 40
0
 40
0
 40
0
 40
0
 40
1
 40
1
 40
1
 40
1
 10
49.797330
 20
326.756168
 30
0.0
 10
49.653659
 20
326.891155
 30
0.0
 10
49.553821
 20
327.030530
 30
0.0
 10
49.575123
 20
327.065709
 30
0.0
  0
SPLINE
  5
1b9
100
AcDbEntity
  8
Layer_1
 62
7
100
AcDbSpline
 70
8
 71
3
 72
8
 73
4
 74
0
 40
0
 40
0
 40
0
 40
0
 40
1
 40
1
 40
1
 40
1
 10
49.575123
 20
327.065709
 30
0.0
 10
49.596423
 20
327.100899
 30
0.0
 10
49.666763
 20
327.915246
 30
0.0
 10
49.731700
 20
328.875417
 30
0.0
  0
SPLINE
  5
1ba
100
AcDbEntity
  8
Layer_1
 62
7
100
AcDbSpline
 70
8
 71
3
 72
8
 73
4
 74
0
 40
0
 40
0
 40
0
 40
0
 40
1
 40
1
 40
1
 40
1
 10
49.731700
 20
328.875417
 30
0.0
 10
49.796600
 20
329.835587
 30
0.0
 10
49.879862
 20
330.906996
 30
0.0
 10
49.916702
 20
331.256151
 30
0.0
  0
SPLINE
  5
1bb
100
AcDbEntity
  8
Layer_1
 62
7
100
AcDbSpline
 70
8
 71
3
 72
8
 73
4
 74
0
 40
0
 40
0
 40
0
 40
0
 40
1
 40
1
 40
1
 40
1
 10
49.916702
 20
331.256151
 30
0.0
 10
49.953502
 20
331.605303
 30
0.0
 10
49.992382
 20
331.977783
 30
0.0
 10
50.002482
 20
332.084524
 30
0.0
  0
SPLINE
  5
1bc
100
AcDbEntity
  8
Layer_1
 62
7
100
AcDbSpline
 70
8
 71
3
 72
8
 73
4
 74
0
 40
0
 40
0
 40
0
 40
0
 40
1
 40
1
 40
1
 40
1
 10
50.002482
 20
332.084524
 30
0.0
 10
50.012682
 20
332.191262
 30
0.0
 10
50.165158
 20
332.391986
 30
0.0
 10
50.341479
 20
332.529974
 30
0.0
  0
SPLINE
  5
1bd
100
AcDbEntity
  8
Layer_1
 62
7
100
AcDbSpline
 70
8
 71
3
 72
8
 73
4
 74
0
 40
0
 40
0
 40
0
 40
0
 40
1
 40
1
 40
1
 40
1
 10
50.341479
 20
332.529974
 30
0.0
 10
50.654910
 20
332.775274
 30
0.0
 10
50.663567
 20
332.806990
 30
0.0
 10
50.734737
 20
333.975363
 30
0.0
  0
SPLINE
  5
1be
100
AcDbEntity
  8
Layer_1
 62
7
100
AcDbSpline
 70
8
 71
3
 72
8
 73
4
 74
0
 40
0
 40
0
 40
0
 40
0
 40
1
 40
1
 40
1
 40
1
 10
50.734737
 20
333.975363
 30
0.0
 10
50.774837
 20
334.632612
 30
0.0
 10
50.825977
 20
335.265615
 30
0.0
 10
50.848426
 20
335.381997
 30
0.0
  0
SPLINE
  5
1bf
100
AcDbEntity
  8
Layer_1
 62
7
100
AcDbSpline
 70
8
 71
3
 72
8
 73
4
 74
0
 40
0
 40
0
 40
0
 40
0
 40
1
 40
1
 40
1
 40
1
 10
50.848426
 20
335.381997
 30
0.0
 10
50.870826
 20
335.498382
 30
0.0
 10
50.892606
 20
335.655618
 30
0.0
 10
50.896996
 20
335.731329
 30
0.0
  0
SPLINE
  5
1c0
100
AcDbEntity
  8
Layer_1
 62
7
100
AcDbSpline
 70
8
 71
3
 72
8
 73
4
 74
0
 40
0
 40
0
 40
0
 40
0
 40
1
 40
1
 40
1
 40
1
 10
50.896996
 20
335.731329
 30
0.0
 10
50.900996
 20
335.807039
 30
0.0
 10
51.083403
 20
335.942025
 30
0.0
 10
51.301623
 20
336.031052
 30
0.0
  0
SPLINE
  5
1c1
100
AcDbEntity
  8
Layer_1
 62
7
100
AcDbSpline
 70
8
 71
3
 72
8
 73
4
 74
0
 40
0
 40
0
 40
0
 40
0
 40
1
 40
1
 40
1
 40
1
 10
51.301623
 20
336.031052
 30
0.0
 10
53.082504
 20
336.757603
 30
0.0
 10
55.325954
 20
337.979295
 30
0.0
 10
56.883194
 20
339.071178
 30
0.0
  0
SPLINE
  5
1c2
100
AcDbEntity
  8
Layer_1
 62
7
100
AcDbSpline
 70
8
 71
3
 72
8
 73
4
 74
0
 40
0
 40
0
 40
0
 40
0
 40
1
 40
1
 40
1
 40
1
 10
56.883194
 20
339.071178
 30
0.0
 10
58.603893
 20
340.277662
 30
0.0
 10
60.512020
 20
342.328971
 30
0.0
 10
61.005423
 20
343.502432
 30
0.0
  0
SPLINE
  5
1c3
100
AcDbEntity
  8
Layer_1
 62
7
100
AcDbSpline
 70
8
 71
3
 72
8
 73
4
 74
0
 40
0
 40
0
 40
0
 40
0
 40
1
 40
1
 40
1
 40
1
 10
61.005423
 20
343.502432
 30
0.0
 10
61.133831
 20
343.807820
 30
0.0
 10
61.123829
 20
343.870288
 30
0.0
 10
60.891218
 20
344.212466
 30
0.0
  0
LWPOLYLINE
  5
1c4
100
AcDbEntity
  8
Layer_1
 62
7
100
AcDbPolyline
 90
6
 70
0
 10
48.683188
 20
315.911304
 30
0.0
 10
48.683188
 20
316.178473
 30
0.0
 10
48.673888
 20
316.178473
 30
0.0
 10
48.659938
 20
317.950975
 30
0.0
 10
48.683188
 20
319.670250
 30
0.0
 10
48.974127
 20
319.671850
 30
0.0
  0
SPLINE
  5
1c5
100
AcDbEntity
  8
Layer_1
 62
7
100
AcDbSpline
 70
8
 71
3
 72
8
 73
4
 74
0
 40
0
 40
0
 40
0
 40
0
 40
1
 40
1
 40
1
 40
1
 10
60.636454
 20
344.587118
 30
0.0
 10
60.150356
 20
345.233498
 30
0.0
 10
59.174014
 20
345.599454
 30
0.0
 10
58.628824
 20
345.539515
 30
0.0
  0
SPLINE
  5
1c6
100
AcDbEntity
  8
Layer_1
 62
7
100
AcDbSpline
 70
8
 71
3
 72
8
 73
4
 74
0
 40
0
 40
0
 40
0
 40
0
 40
1
 40
1
 40
1
 40
1
 10
58.628824
 20
345.539515
 30
0.0
 10
58.628824
 20
345.676331
 30
0.0
 10
58.266546
 20
345.698162
 30
0.0
 10
56.004695
 20
345.698162
 30
0.0
  0
SPLINE
  5
1c7
100
AcDbEntity
  8
Layer_1
 62
7
100
AcDbSpline
 70
8
 71
3
 72
8
 73
4
 74
0
 40
0
 40
0
 40
0
 40
0
 40
1
 40
1
 40
1
 40
1
 10
56.004695
 20
345.698162
 30
0.0
 10
53.359687
 20
345.698162
 30
0.0
 10
53.067958
 20
345.737782
 30
0.0
 10
53.199696
 20
346.081085
 30
0.0
  0
SPLINE
  5
1c8
100
AcDbEntity
  8
Layer_1
 62
7
100
AcDbSpline
 70
8
 71
3
 72
8
 73
4
 74
0
 40
0
 40
0
 40
0
 40
0
 40
1
 40
1
 40
1
 40
1
 10
53.199696
 20
346.081085
 30
0.0
 10
53.245196
 20
346.199632
 30
0.0
 10
53.755128
 20
346.227328
 30
0.0
 10
55.927180
 20
346.227328
 30
0.0
  0
LWPOLYLINE
  5
1c9
100
AcDbEntity
  8
Layer_1
 62
7
100
AcDbPolyline
 90
2
 70
0
 10
60.891218
 20
344.212466
 30
0.0
 10
60.636454
 20
344.587118
 30
0.0
  0
SPLINE
  5
1ca
100
AcDbEntity
  8
Layer_1
 62
7
100
AcDbSpline
 70
8
 71
3
 72
8
 73
4
 74
0
 40
0
 40
0
 40
0
 40
0
 40
1
 40
1
 40
1
 40
1
 10
59.581221
 20
352.689983
 30
0.0
 10
59.581221
 20
358.168154
 30
0.0
 10
59.572221
 20
358.419656
 30
0.0
 10
59.372446
 20
358.812092
 30
0.0
  0
SPLINE
  5
1cb
100
AcDbEntity
  8
Layer_1
 62
7
100
AcDbSpline
 70
8
 71
3
 72
8
 73
4
 74
0
 40
0
 40
0
 40
0
 40
0
 40
1
 40
1
 40
1
 40
1
 10
59.372446
 20
358.812092
 30
0.0
 10
59.257625
 20
359.037173
 30
0.0
 10
59.106911
 20
359.240288
 30
0.0
 10
59.038100
 20
359.263225
 30
0.0
  0
SPLINE
  5
1cc
100
AcDbEntity
  8
Layer_1
 62
7
100
AcDbSpline
 70
8
 71
3
 72
8
 73
4
 74
0
 40
0
 40
0
 40
0
 40
0
 40
1
 40
1
 40
1
 40
1
 10
59.038100
 20
359.263225
 30
0.0
 10
58.969300
 20
359.286165
 30
0.0
 10
59.158719
 20
359.406737
 30
0.0
 10
59.458746
 20
359.531428
 30
0.0
  0
SPLINE
  5
1cd
100
AcDbEntity
  8
Layer_1
 62
7
100
AcDbSpline
 70
8
 71
3
 72
8
 73
4
 74
0
 40
0
 40
0
 40
0
 40
0
 40
1
 40
1
 40
1
 40
1
 10
59.458746
 20
359.531428
 30
0.0
 10
59.758770
 20
359.656113
 30
0.0
 10
60.003933
 20
359.800975
 30
0.0
 10
60.003933
 20
359.853370
 30
0.0
  0
SPLINE
  5
1ce
100
AcDbEntity
  8
Layer_1
 62
7
100
AcDbSpline
 70
8
 71
3
 72
8
 73
4
 74
0
 40
0
 40
0
 40
0
 40
0
 40
1
 40
1
 40
1
 40
1
 10
60.003933
 20
359.853370
 30
0.0
 10
60.003933
 20
360.001653
 30
0.0
 10
59.682673
 20
360.249422
 30
0.0
 10
59.104762
 20
360.546351
 30
0.0
  0
LWPOLYLINE
  5
1cf
100
AcDbEntity
  8
Layer_1
 62
7
100
AcDbPolyline
 90
5
 70
0
 10
55.927180
 20
346.227328
 30
0.0
 10
58.598334
 20
346.227328
 30
0.0
 10
59.089776
 20
346.602500
 30
0.0
 10
59.581221
 20
346.977155
 30
0.0
 10
59.581221
 20
352.689983
 30
0.0
  0
SPLINE
  5
1d0
100
AcDbEntity
  8
Layer_1
 62
7
100
AcDbSpline
 70
8
 71
3
 72
8
 73
4
 74
0
 40
0
 40
0
 40
0
 40
0
 40
1
 40
1
 40
1
 40
1
 10
59.706277
 20
360.822870
 30
0.0
 10
60.942476
 20
360.828270
 30
0.0
 10
60.986815
 20
360.853160
 30
0.0
 10
60.905686
 20
361.494147
 30
0.0
  0
SPLINE
  5
1d1
100
AcDbEntity
  8
Layer_1
 62
7
100
AcDbSpline
 70
8
 71
3
 72
8
 73
4
 74
0
 40
0
 40
0
 40
0
 40
0
 40
1
 40
1
 40
1
 40
1
 10
60.905686
 20
361.494147
 30
0.0
 10
60.862686
 20
361.833784
 30
0.0
 10
60.831516
 20
361.879208
 30
0.0
 10
59.906780
 20
362.931268
 30
0.0
  0
SPLINE
  5
1d2
100
AcDbEntity
  8
Layer_1
 62
7
100
AcDbSpline
 70
8
 71
3
 72
8
 73
4
 74
0
 40
0
 40
0
 40
0
 40
0
 40
1
 40
1
 40
1
 40
1
 10
59.906780
 20
362.931268
 30
0.0
 10
57.693493
 20
365.449361
 30
0.0
 10
54.708186
 20
367.958079
 30
0.0
 10
52.730476
 20
368.962424
 30
0.0
  0
LWPOLYLINE
  5
1d3
100
AcDbEntity
  8
Layer_1
 62
7
100
AcDbPolyline
 90
3
 70
0
 10
59.104762
 20
360.546351
 30
0.0
 10
58.575596
 20
360.818170
 30
0.0
 10
59.706277
 20
360.822870
 30
0.0
  0
SPLINE
  5
1d4
100
AcDbEntity
  8
Layer_1
 62
7
100
AcDbSpline
 70
8
 71
3
 72
8
 73
4
 74
0
 40
0
 40
0
 40
0
 40
0
 40
1
 40
1
 40
1
 40
1
 10
52.835894
 20
371.727579
 30
0.0
 10
55.089043
 20
371.734979
 30
0.0
 10
57.941310
 20
372.358952
 30
0.0
 10
60.004449
 20
373.295958
 30
0.0
  0
SPLINE
  5
1d5
100
AcDbEntity
  8
Layer_1
 62
7
100
AcDbSpline
 70
8
 71
3
 72
8
 73
4
 74
0
 40
0
 40
0
 40
0
 40
0
 40
1
 40
1
 40
1
 40
1
 10
60.004449
 20
373.295958
 30
0.0
 10
60.762750
 20
373.640353
 30
0.0
 10
60.999330
 20
373.855012
 30
0.0
 10
61.103091
 20
374.291765
 30
0.0
  0
SPLINE
  5
1d6
100
AcDbEntity
  8
Layer_1
 62
7
100
AcDbSpline
 70
8
 71
3
 72
8
 73
4
 74
0
 40
0
 40
0
 40
0
 40
0
 40
1
 40
1
 40
1
 40
1
 10
61.103091
 20
374.291765
 30
0.0
 10
61.171791
 20
374.580746
 30
0.0
 10
61.178201
 20
374.582703
 30
0.0
 10
62.065307
 20
374.582701
 30
0.0
  0
SPLINE
  5
1d7
100
AcDbEntity
  8
Layer_1
 62
7
100
AcDbSpline
 70
8
 71
3
 72
8
 73
4
 74
0
 40
0
 40
0
 40
0
 40
0
 40
1
 40
1
 40
1
 40
1
 10
62.065307
 20
374.582701
 30
0.0
 10
62.789159
 20
374.582701
 30
0.0
 10
62.994539
 20
374.618901
 30
0.0
 10
63.147926
 20
374.774939
 30
0.0
  0
SPLINE
  5
1d8
100
AcDbEntity
  8
Layer_1
 62
7
100
AcDbSpline
 70
8
 71
3
 72
8
 73
4
 74
0
 40
0
 40
0
 40
0
 40
0
 40
1
 40
1
 40
1
 40
1
 10
63.147926
 20
374.774939
 30
0.0
 10
63.307571
 20
374.937332
 30
0.0
 10
63.530252
 20
374.970170
 30
0.0
 10
64.570580
 20
374.982677
 30
0.0
  0
SPLINE
  5
1d9
100
AcDbEntity
  8
Layer_1
 62
7
100
AcDbSpline
 70
8
 71
3
 72
8
 73
4
 74
0
 40
0
 40
0
 40
0
 40
0
 40
1
 40
1
 40
1
 40
1
 10
64.570580
 20
374.982677
 30
0.0
 10
65.564191
 20
374.994627
 30
0.0
 10
65.815257
 20
374.967057
 30
0.0
 10
65.863006
 20
374.842635
 30
0.0
  0
SPLINE
  5
1da
100
AcDbEntity
  8
Layer_1
 62
7
100
AcDbSpline
 70
8
 71
3
 72
8
 73
4
 74
0
 40
0
 40
0
 40
0
 40
0
 40
1
 40
1
 40
1
 40
1
 10
65.863006
 20
374.842635
 30
0.0
 10
65.905206
 20
374.732733
 30
0.0
 10
66.092979
 20
374.688121
 30
0.0
 10
66.513095
 20
374.688121
 30
0.0
  0
LWPOLYLINE
  5
1db
100
AcDbEntity
  8
Layer_1
 62
7
100
AcDbPolyline
 90
5
 70
0
 10
52.730476
 20
368.962424
 30
0.0
 10
52.280372
 20
369.190834
 30
0.0
 10
52.280372
 20
370.458455
 30
0.0
 10
52.280372
 20
371.726079
 30
0.0
 10
52.835894
 20
371.727579
 30
0.0
  0
SPLINE
  5
1dc
100
AcDbEntity
  8
Layer_1
 62
7
100
AcDbSpline
 70
8
 71
3
 72
8
 73
4
 74
0
 40
0
 40
0
 40
0
 40
0
 40
1
 40
1
 40
1
 40
1
 10
66.582864
 20
375.938171
 30
0.0
 10
66.331242
 20
375.956271
 30
0.0
 10
66.067762
 20
375.923221
 30
0.0
 10
65.997370
 20
375.864791
 30
0.0
  0
SPLINE
  5
1dd
100
AcDbEntity
  8
Layer_1
 62
7
100
AcDbSpline
 70
8
 71
3
 72
8
 73
4
 74
0
 40
0
 40
0
 40
0
 40
0
 40
1
 40
1
 40
1
 40
1
 10
65.997370
 20
375.864791
 30
0.0
 10
65.824198
 20
375.721067
 30
0.0
 10
63.748631
 20
375.664403
 30
0.0
 10
63.612501
 20
375.799681
 30
0.0
  0
SPLINE
  5
1de
100
AcDbEntity
  8
Layer_1
 62
7
100
AcDbSpline
 70
8
 71
3
 72
8
 73
4
 74
0
 40
0
 40
0
 40
0
 40
0
 40
1
 40
1
 40
1
 40
1
 10
63.612501
 20
375.799681
 30
0.0
 10
63.553801
 20
375.857991
 30
0.0
 10
63.493681
 20
376.088114
 30
0.0
 10
63.478658
 20
376.311279
 30
0.0
  0
SPLINE
  5
1df
100
AcDbEntity
  8
Layer_1
 62
7
100
AcDbSpline
 70
8
 71
3
 72
8
 73
4
 74
0
 40
0
 40
0
 40
0
 40
0
 40
1
 40
1
 40
1
 40
1
 10
63.478658
 20
376.311279
 30
0.0
 10
63.455058
 20
376.661640
 30
0.0
 10
63.397498
 20
376.744487
 30
0.0
 10
63.057497
 20
376.917961
 30
0.0
  0
SPLINE
  5
1e0
100
AcDbEntity
  8
Layer_1
 62
7
100
AcDbSpline
 70
8
 71
3
 72
8
 73
4
 74
0
 40
0
 40
0
 40
0
 40
0
 40
1
 40
1
 40
1
 40
1
 10
63.057497
 20
376.917961
 30
0.0
 10
62.840917
 20
377.028454
 30
0.0
 10
62.629645
 20
377.173472
 30
0.0
 10
62.588275
 20
377.240422
 30
0.0
  0
SPLINE
  5
1e1
100
AcDbEntity
  8
Layer_1
 62
7
100
AcDbSpline
 70
8
 71
3
 72
8
 73
4
 74
0
 40
0
 40
0
 40
0
 40
0
 40
1
 40
1
 40
1
 40
1
 10
62.588275
 20
377.240422
 30
0.0
 10
62.546875
 20
377.307372
 30
0.0
 10
62.510225
 20
377.694058
 30
0.0
 10
62.506625
 20
378.099283
 30
0.0
  0
LWPOLYLINE
  5
1e2
100
AcDbEntity
  8
Layer_1
 62
7
100
AcDbPolyline
 90
5
 70
0
 10
66.513095
 20
374.688121
 30
0.0
 10
67.103759
 20
374.688121
 30
0.0
 10
67.072239
 20
375.296869
 30
0.0
 10
67.040199
 20
375.905101
 30
0.0
 10
66.582864
 20
375.938171
 30
0.0
  0
SPLINE
  5
1e3
100
AcDbEntity
  8
Layer_1
 62
7
100
AcDbSpline
 70
8
 71
3
 72
8
 73
4
 74
0
 40
0
 40
0
 40
0
 40
0
 40
1
 40
1
 40
1
 40
1
 10
61.225070
 20
379.454757
 30
0.0
 10
58.546312
 20
380.755279
 30
0.0
 10
55.608310
 20
381.598771
 30
0.0
 10
52.231820
 20
382.036511
 30
0.0
  0
SPLINE
  5
1e4
100
AcDbEntity
  8
Layer_1
 62
7
100
AcDbSpline
 70
8
 71
3
 72
8
 73
4
 74
0
 40
0
 40
0
 40
0
 40
0
 40
1
 40
1
 40
1
 40
1
 10
52.231820
 20
382.036511
 30
0.0
 10
51.535928
 20
382.126731
 30
0.0
 10
50.781527
 20
382.200325
 30
0.0
 10
50.555435
 20
382.200325
 30
0.0
  0
SPLINE
  5
1e5
100
AcDbEntity
  8
Layer_1
 62
7
100
AcDbSpline
 70
8
 71
3
 72
8
 73
4
 74
0
 40
0
 40
0
 40
0
 40
0
 40
1
 40
1
 40
1
 40
1
 10
50.555435
 20
382.200325
 30
0.0
 10
50.233355
 20
382.200325
 30
0.0
 10
50.132158
 20
382.246395
 30
0.0
 10
50.088798
 20
382.412198
 30
0.0
  0
SPLINE
  5
1e6
100
AcDbEntity
  8
Layer_1
 62
7
100
AcDbSpline
 70
8
 71
3
 72
8
 73
4
 74
0
 40
0
 40
0
 40
0
 40
0
 40
1
 40
1
 40
1
 40
1
 10
50.088798
 20
382.412198
 30
0.0
 10
50.048198
 20
382.567508
 30
0.0
 10
49.944637
 20
382.623555
 30
0.0
 10
49.699159
 20
382.623555
 30
0.0
  0
SPLINE
  5
1e7
100
AcDbEntity
  8
Layer_1
 62
7
100
AcDbSpline
 70
8
 71
3
 72
8
 73
4
 74
0
 40
0
 40
0
 40
0
 40
0
 40
1
 40
1
 40
1
 40
1
 10
49.699159
 20
382.623555
 30
0.0
 10
49.492369
 20
382.623555
 30
0.0
 10
49.293143
 20
382.706855
 30
0.0
 10
49.177743
 20
382.841630
 30
0.0
  0
SPLINE
  5
1e8
100
AcDbEntity
  8
Layer_1
 62
7
100
AcDbSpline
 70
8
 71
3
 72
8
 73
4
 74
0
 40
0
 40
0
 40
0
 40
0
 40
1
 40
1
 40
1
 40
1
 10
49.177743
 20
382.841630
 30
0.0
 10
49.062476
 20
382.976247
 30
0.0
 10
48.930510
 20
383.034622
 30
0.0
 10
48.739010
 20
383.031799
 30
0.0
  0
LWPOLYLINE
  5
1e9
100
AcDbEntity
  8
Layer_1
 62
7
100
AcDbPolyline
 90
3
 70
0
 10
62.506625
 20
378.099283
 30
0.0
 10
62.499925
 20
378.835671
 30
0.0
 10
61.225070
 20
379.454757
 30
0.0
  0
SPLINE
  5
1ea
100
AcDbEntity
  8
Layer_1
 62
7
100
AcDbSpline
 70
8
 71
3
 72
8
 73
4
 74
0
 40
0
 40
0
 40
0
 40
0
 40
1
 40
1
 40
1
 40
1
 10
51.896946
 20
381.277857
 30
0.0
 10
52.170829
 20
381.252657
 30
0.0
 10
52.511909
 20
381.215857
 30
0.0
 10
52.846757
 20
381.172439
 30
0.0
  0
SPLINE
  5
1eb
100
AcDbEntity
  8
Layer_1
 62
7
100
AcDbSpline
 70
8
 71
3
 72
8
 73
4
 74
0
 40
0
 40
0
 40
0
 40
0
 40
1
 40
1
 40
1
 40
1
 10
52.846757
 20
381.172439
 30
0.0
 10
55.311970
 20
380.852836
 30
0.0
 10
57.497881
 20
380.274171
 30
0.0
 10
59.504232
 20
379.409237
 30
0.0
  0
SPLINE
  5
1ec
100
AcDbEntity
  8
Layer_1
 62
7
100
AcDbSpline
 70
8
 71
3
 72
8
 73
4
 74
0
 40
0
 40
0
 40
0
 40
0
 40
1
 40
1
 40
1
 40
1
 10
59.504232
 20
379.409237
 30
0.0
 10
59.495432
 20
379.361347
 30
0.0
 10
59.498832
 20
379.287677
 30
0.0
 10
59.518182
 20
379.184445
 30
0.0
  0
SPLINE
  5
1ed
100
AcDbEntity
  8
Layer_1
 62
7
100
AcDbSpline
 70
8
 71
3
 72
8
 73
4
 74
0
 40
0
 40
0
 40
0
 40
0
 40
1
 40
1
 40
1
 40
1
 10
59.518182
 20
379.184445
 30
0.0
 10
59.551342
 20
379.007716
 30
0.0
 10
59.544562
 20
379.050086
 30
0.0
 10
59.517182
 20
379.050086
 30
0.0
  0
SPLINE
  5
1ee
100
AcDbEntity
  8
Layer_1
 62
7
100
AcDbSpline
 70
8
 71
3
 72
8
 73
4
 74
0
 40
0
 40
0
 40
0
 40
0
 40
1
 40
1
 40
1
 40
1
 10
59.517182
 20
379.050086
 30
0.0
 10
59.489772
 20
379.050086
 30
0.0
 10
59.079635
 20
379.130306
 30
0.0
 10
58.605610
 20
379.227855
 30
0.0
  0
SPLINE
  5
1ef
100
AcDbEntity
  8
Layer_1
 62
7
100
AcDbSpline
 70
8
 71
3
 72
8
 73
4
 74
0
 40
0
 40
0
 40
0
 40
0
 40
1
 40
1
 40
1
 40
1
 10
58.605610
 20
379.227855
 30
0.0
 10
56.378152
 20
379.686245
 30
0.0
 10
55.871816
 20
379.761607
 30
0.0
 10
54.247219
 20
379.880010
 30
0.0
  0
LWPOLYLINE
  5
1f0
100
AcDbEntity
  8
Layer_1
 62
7
100
AcDbPolyline
 90
1
 70
1
 10
48.739010
 20
383.031799
 30
0.0
  0
SPLINE
  5
1f1
100
AcDbEntity
  8
Layer_1
 62
7
100
AcDbSpline
 70
8
 71
3
 72
8
 73
4
 74
0
 40
0
 40
0
 40
0
 40
0
 40
1
 40
1
 40
1
 40
1
 10
52.387902
 20
380.590043
 30
0.0
 10
52.209504
 20
380.874354
 30
0.0
 10
52.026235
 20
381.128605
 30
0.0
 10
51.896976
 20
381.277857
 30
0.0
  0
LWPOLYLINE
  5
1f2
100
AcDbEntity
  8
Layer_1
 62
7
100
AcDbPolyline
 90
3
 70
0
 10
54.247219
 20
379.880010
 30
0.0
 10
52.876759
 20
379.980264
 30
0.0
 10
52.387902
 20
380.590043
 30
0.0
  0
LWPOLYLINE
  5
1f3
100
AcDbEntity
  8
Layer_1
 62
7
100
AcDbPolyline
 90
1
 70
1
 10
51.896976
 20
381.277857
 30
0.0
  0
SPLINE
  5
1f4
100
AcDbEntity
  8
Layer_1
 62
7
100
AcDbSpline
 70
8
 71
3
 72
8
 73
4
 74
0
 40
0
 40
0
 40
0
 40
0
 40
1
 40
1
 40
1
 40
1
 10
53.673064
 20
379.312603
 30
0.0
 10
54.797342
 20
379.215763
 30
0.0
 10
56.005247
 20
379.089179
 30
0.0
 10
56.719905
 20
378.992725
 30
0.0
  0
SPLINE
  5
1f5
100
AcDbEntity
  8
Layer_1
 62
7
100
AcDbSpline
 70
8
 71
3
 72
8
 73
4
 74
0
 40
0
 40
0
 40
0
 40
0
 40
1
 40
1
 40
1
 40
1
 10
56.719905
 20
378.992725
 30
0.0
 10
57.709913
 20
378.859110
 30
0.0
 10
59.486288
 20
378.476856
 30
0.0
 10
59.587430
 20
378.375709
 30
0.0
  0
SPLINE
  5
1f6
100
AcDbEntity
  8
Layer_1
 62
7
100
AcDbSpline
 70
8
 71
3
 72
8
 73
4
 74
0
 40
0
 40
0
 40
0
 40
0
 40
1
 40
1
 40
1
 40
1
 10
59.587430
 20
378.375709
 30
0.0
 10
59.674080
 20
378.289049
 30
0.0
 10
59.984681
 20
377.681175
 30
0.0
 10
59.984824
 20
377.556638
 30
0.0
  0
SPLINE
  5
1f7
100
AcDbEntity
  8
Layer_1
 62
7
100
AcDbSpline
 70
8
 71
3
 72
8
 73
4
 74
0
 40
0
 40
0
 40
0
 40
0
 40
1
 40
1
 40
1
 40
1
 10
59.984824
 20
377.556638
 30
0.0
 10
59.984890
 20
377.499128
 30
0.0
 10
59.058856
 20
377.473538
 30
0.0
 10
58.994184
 20
377.529248
 30
0.0
  0
LWPOLYLINE
  5
1f8
100
AcDbEntity
  8
Layer_1
 62
7
100
AcDbPolyline
 90
2
 70
0
 10
52.972847
 20
379.373063
 30
0.0
 10
53.673064
 20
379.312603
 30
0.0
  0
SPLINE
  5
1f9
100
AcDbEntity
  8
Layer_1
 62
7
100
AcDbSpline
 70
8
 71
3
 72
8
 73
4
 74
0
 40
0
 40
0
 40
0
 40
0
 40
1
 40
1
 40
1
 40
1
 10
58.994184
 20
377.528732
 30
0.0
 10
58.978894
 20
377.541912
 30
0.0
 10
58.428018
 20
377.578322
 30
0.0
 10
57.770486
 20
377.609352
 30
0.0
  0
SPLINE
  5
1fa
100
AcDbEntity
  8
Layer_1
 62
7
100
AcDbSpline
 70
8
 71
3
 72
8
 73
4
 74
0
 40
0
 40
0
 40
0
 40
0
 40
1
 40
1
 40
1
 40
1
 10
57.770486
 20
377.609352
 30
0.0
 10
55.555678
 20
377.713863
 30
0.0
 10
54.719052
 20
377.757442
 30
0.0
 10
53.990874
 20
377.806755
 30
0.0
  0
LWPOLYLINE
  5
1fb
100
AcDbEntity
  8
Layer_1
 62
7
100
AcDbPolyline
 90
2
 70
0
 10
58.994184
 20
377.529248
 30
0.0
 10
58.994184
 20
377.528732
 30
0.0
  0
SPLINE
  5
1fc
100
AcDbEntity
  8
Layer_1
 62
7
100
AcDbSpline
 70
8
 71
3
 72
8
 73
4
 74
0
 40
0
 40
0
 40
0
 40
0
 40
1
 40
1
 40
1
 40
1
 10
53.167152
 20
378.313698
 30
0.0
 10
53.112932
 20
378.565296
 30
0.0
 10
53.044261
 20
378.945827
 30
0.0
 10
53.014707
 20
379.159640
 30
0.0
  0
LWPOLYLINE
  5
1fd
100
AcDbEntity
  8
Layer_1
 62
7
100
AcDbPolyline
 90
3
 70
0
 10
53.990874
 20
377.806755
 30
0.0
 10
53.265852
 20
377.855845
 30
0.0
 10
53.167152
 20
378.313698
 30
0.0
  0
LWPOLYLINE
  5
1fe
100
AcDbEntity
  8
Layer_1
 62
7
100
AcDbPolyline
 90
2
 70
0
 10
53.014707
 20
379.159640
 30
0.0
 10
52.972847
 20
379.373063
 30
0.0
  0
SPLINE
  5
1ff
100
AcDbEntity
  8
Layer_1
 62
7
100
AcDbSpline
 70
8
 71
3
 72
8
 73
4
 74
0
 40
0
 40
0
 40
0
 40
0
 40
1
 40
1
 40
1
 40
1
 10
57.401517
 20
356.671607
 30
0.0
 10
57.425037
 20
356.674507
 30
0.0
 10
57.448357
 20
356.676907
 30
0.0
 10
57.442857
 20
356.671091
 30
0.0
  0
SPLINE
  5
200
100
AcDbEntity
  8
Layer_1
 62
7
100
AcDbSpline
 70
8
 71
3
 72
8
 73
4
 74
0
 40
0
 40
0
 40
0
 40
0
 40
1
 40
1
 40
1
 40
1
 10
57.442857
 20
356.671091
 30
0.0
 10
57.437257
 20
356.665291
 30
0.0
 10
57.403607
 20
356.651731
 30
0.0
 10
57.369997
 20
356.638021
 30
0.0
  0
SPLINE
  5
201
100
AcDbEntity
  8
Layer_1
 62
7
100
AcDbSpline
 70
8
 71
3
 72
8
 73
4
 74
0
 40
0
 40
0
 40
0
 40
0
 40
1
 40
1
 40
1
 40
1
 10
57.369997
 20
356.638021
 30
0.0
 10
55.944361
 20
356.056211
 30
0.0
 10
55.087386
 20
355.581651
 30
0.0
 10
53.893208
 20
354.721343
 30
0.0
  0
LWPOLYLINE
  5
202
100
AcDbEntity
  8
Layer_1
 62
7
100
AcDbPolyline
 90
3
 70
1
 10
33.317200
 20
357.885486
 30
0.0
 10
33.325500
 20
357.835876
 30
0.0
 10
31.862023
 20
357.488610
 30
0.0
  0
SPLINE
  5
203
100
AcDbEntity
  8
Layer_1
 62
7
100
AcDbSpline
 70
8
 71
3
 72
8
 73
4
 74
0
 40
0
 40
0
 40
0
 40
0
 40
1
 40
1
 40
1
 40
1
 10
53.341253
 20
352.727665
 30
0.0
 10
53.339953
 20
351.159871
 30
0.0
 10
53.343853
 20
351.119705
 30
0.0
 10
53.511269
 20
350.968599
 30
0.0
  0
SPLINE
  5
204
100
AcDbEntity
  8
Layer_1
 62
7
100
AcDbSpline
 70
8
 71
3
 72
8
 73
4
 74
0
 40
0
 40
0
 40
0
 40
0
 40
1
 40
1
 40
1
 40
1
 10
53.511269
 20
350.968599
 30
0.0
 10
54.581786
 20
350.051741
 30
0.0
 10
56.182785
 20
349.323427
 30
0.0
 10
57.452629
 20
348.642128
 30
0.0
  0
SPLINE
  5
205
100
AcDbEntity
  8
Layer_1
 62
7
100
AcDbSpline
 70
8
 71
3
 72
8
 73
4
 74
0
 40
0
 40
0
 40
0
 40
0
 40
1
 40
1
 40
1
 40
1
 10
57.452629
 20
348.642128
 30
0.0
 10
55.906258
 20
349.088734
 30
0.0
 10
54.415472
 20
349.991201
 30
0.0
 10
53.114394
 20
351.009424
 30
0.0
  0
LWPOLYLINE
  5
206
100
AcDbEntity
  8
Layer_1
 62
7
100
AcDbPolyline
 90
3
 70
0
 10
53.893208
 20
354.721343
 30
0.0
 10
53.342853
 20
354.331701
 30
0.0
 10
53.341253
 20
352.727665
 30
0.0
  0
SPLINE
  5
207
100
AcDbEntity
  8
Layer_1
 62
7
100
AcDbSpline
 70
8
 71
3
 72
8
 73
4
 74
0
 40
0
 40
0
 40
0
 40
0
 40
1
 40
1
 40
1
 40
1
 10
53.108714
 20
354.500683
 30
0.0
 10
54.509685
 20
355.515206
 30
0.0
 10
55.709825
 20
356.179260
 30
0.0
 10
57.401475
 20
356.671610
 30
0.0
  0
LWPOLYLINE
  5
208
100
AcDbEntity
  8
Layer_1
 62
7
100
AcDbPolyline
 90
3
 70
0
 10
53.114394
 20
351.009424
 30
0.0
 10
53.094244
 20
352.711129
 30
0.0
 10
53.108714
 20
354.500683
 30
0.0
  0
LWPOLYLINE
  5
209
100
AcDbEntity
  8
Layer_1
 62
7
100
AcDbPolyline
 90
1
 70
1
 10
57.401475
 20
356.671610
 30
0.0
  0
LWPOLYLINE
  5
20a
100
AcDbEntity
  8
Layer_1
 62
7
100
AcDbPolyline
 90
3
 70
1
 10
33.300664
 20
356.322791
 30
0.0
 10
33.300664
 20
356.223571
 30
0.0
 10
31.853724
 20
356.240111
 30
0.0
  0
SPLINE
  5
20b
100
AcDbEntity
  8
Layer_1
 62
7
100
AcDbSpline
 70
8
 71
3
 72
8
 73
4
 74
0
 40
0
 40
0
 40
0
 40
0
 40
1
 40
1
 40
1
 40
1
 10
56.207275
 20
354.633490
 30
0.0
 10
56.748004
 20
354.637690
 30
0.0
 10
57.175153
 20
354.625690
 30
0.0
 10
57.156571
 20
354.607130
 30
0.0
  0
SPLINE
  5
20c
100
AcDbEntity
  8
Layer_1
 62
7
100
AcDbSpline
 70
8
 71
3
 72
8
 73
4
 74
0
 40
0
 40
0
 40
0
 40
0
 40
1
 40
1
 40
1
 40
1
 10
57.156571
 20
354.607130
 30
0.0
 10
57.099501
 20
354.550060
 30
0.0
 10
55.587976
 20
354.523380
 30
0.0
 10
55.400606
 20
354.576120
 30
0.0
  0
SPLINE
  5
20d
100
AcDbEntity
  8
Layer_1
 62
7
100
AcDbSpline
 70
8
 71
3
 72
8
 73
4
 74
0
 40
0
 40
0
 40
0
 40
0
 40
1
 40
1
 40
1
 40
1
 10
55.400606
 20
354.576120
 30
0.0
 10
55.303656
 20
354.603420
 30
0.0
 10
55.666544
 20
354.629340
 30
0.0
 10
56.207275
 20
354.633480
 30
0.0
  0
LWPOLYLINE
  5
20e
100
AcDbEntity
  8
Layer_1
 62
7
100
AcDbPolyline
 90
3
 70
1
 10
31.853724
 20
354.983338
 30
0.0
 10
33.317200
 20
354.330148
 30
0.0
 10
33.308900
 20
354.263998
 30
0.0
  0
SPLINE
  5
20f
100
AcDbEntity
  8
Layer_1
 62
7
100
AcDbSpline
 70
8
 71
3
 72
8
 73
4
 74
0
 40
0
 40
0
 40
0
 40
0
 40
1
 40
1
 40
1
 40
1
 10
56.356103
 20
352.990179
 30
0.0
 10
56.851557
 20
352.990179
 30
0.0
 10
57.242844
 20
352.957749
 30
0.0
 10
57.269744
 20
352.914219
 30
0.0
  0
SPLINE
  5
210
100
AcDbEntity
  8
Layer_1
 62
7
100
AcDbSpline
 70
8
 71
3
 72
8
 73
4
 74
0
 40
0
 40
0
 40
0
 40
0
 40
1
 40
1
 40
1
 40
1
 10
57.269744
 20
352.914219
 30
0.0
 10
57.300154
 20
352.865009
 30
0.0
 10
56.976998
 20
352.837739
 30
0.0
 10
56.356103
 20
352.837739
 30
0.0
  0
SPLINE
  5
211
100
AcDbEntity
  8
Layer_1
 62
7
100
AcDbSpline
 70
8
 71
3
 72
8
 73
4
 74
0
 40
0
 40
0
 40
0
 40
0
 40
1
 40
1
 40
1
 40
1
 10
56.356103
 20
352.837739
 30
0.0
 10
55.735208
 20
352.837739
 30
0.0
 10
55.412570
 20
352.865009
 30
0.0
 10
55.442981
 20
352.914219
 30
0.0
  0
SPLINE
  5
212
100
AcDbEntity
  8
Layer_1
 62
7
100
AcDbSpline
 70
8
 71
3
 72
8
 73
4
 74
0
 40
0
 40
0
 40
0
 40
0
 40
1
 40
1
 40
1
 40
1
 10
55.442981
 20
352.914219
 30
0.0
 10
55.469881
 20
352.957749
 30
0.0
 10
55.860653
 20
352.990179
 30
0.0
 10
56.356103
 20
352.990179
 30
0.0
  0
LWPOLYLINE
  5
213
100
AcDbEntity
  8
Layer_1
 62
7
100
AcDbPolyline
 90
1
 70
1
 10
56.207275
 20
354.633480
 30
0.0
  0
SPLINE
  5
214
100
AcDbEntity
  8
Layer_1
 62
7
100
AcDbSpline
 70
8
 71
3
 72
8
 73
4
 74
0
 40
0
 40
0
 40
0
 40
0
 40
1
 40
1
 40
1
 40
1
 10
56.398993
 20
351.092103
 30
0.0
 10
56.982537
 20
351.092103
 30
0.0
 10
57.350355
 20
351.062823
 30
0.0
 10
57.350355
 20
351.016143
 30
0.0
  0
SPLINE
  5
215
100
AcDbEntity
  8
Layer_1
 62
7
100
AcDbSpline
 70
8
 71
3
 72
8
 73
4
 74
0
 40
0
 40
0
 40
0
 40
0
 40
1
 40
1
 40
1
 40
1
 10
57.350355
 20
351.016143
 30
0.0
 10
57.350355
 20
350.969463
 30
0.0
 10
56.982537
 20
350.939663
 30
0.0
 10
56.398993
 20
350.939663
 30
0.0
  0
SPLINE
  5
216
100
AcDbEntity
  8
Layer_1
 62
7
100
AcDbSpline
 70
8
 71
3
 72
8
 73
4
 74
0
 40
0
 40
0
 40
0
 40
0
 40
1
 40
1
 40
1
 40
1
 10
56.398993
 20
350.939663
 30
0.0
 10
55.815449
 20
350.939663
 30
0.0
 10
55.447631
 20
350.969463
 30
0.0
 10
55.447631
 20
351.016143
 30
0.0
  0
SPLINE
  5
217
100
AcDbEntity
  8
Layer_1
 62
7
100
AcDbSpline
 70
8
 71
3
 72
8
 73
4
 74
0
 40
0
 40
0
 40
0
 40
0
 40
1
 40
1
 40
1
 40
1
 10
55.447631
 20
351.016143
 30
0.0
 10
55.447631
 20
351.062823
 30
0.0
 10
55.815449
 20
351.092103
 30
0.0
 10
56.398993
 20
351.092103
 30
0.0
  0
LWPOLYLINE
  5
218
100
AcDbEntity
  8
Layer_1
 62
7
100
AcDbPolyline
 90
1
 70
1
 10
56.356103
 20
352.990179
 30
0.0
  0
LWPOLYLINE
  5
219
100
AcDbEntity
  8
Layer_1
 62
7
100
AcDbPolyline
 90
1
 70
1
 10
56.398993
 20
351.092103
 30
0.0
  0
LWPOLYLINE
  5
21a
100
AcDbEntity
  8
Layer_1
 62
7
100
AcDbPolyline
 90
3
 70
1
 10
33.308930
 20
350.816151
 30
0.0
 10
33.308930
 20
350.733471
 30
0.0
 10
31.903331
 20
350.535034
 30
0.0
  0
LWPOLYLINE
  5
21b
100
AcDbEntity
  8
Layer_1
 62
7
100
AcDbPolyline
 90
3
 70
1
 10
33.342000
 20
349.013677
 30
0.0
 10
33.342000
 20
348.930997
 30
0.0
 10
31.870255
 20
348.947537
 30
0.0
  0
ENDSEC
  0
SECTION
  2
OBJECTS
  0
DICTIONARY
  5
C
330
0
100
AcDbDictionary
  3
ACAD_GROUP
350
D
  3
ACAD_MLINESTYLE
350
17
  0
DICTIONARY
  5
D
330
C
100
AcDbDictionary
  0
DICTIONARY
  5
1A
330
C
100
AcDbDictionary
  0
DICTIONARY
  5
17
330
C
100
AcDbDictionary
  3
STANDARD
350
18
  0
DICTIONARY
  5
19
330
C
100
AcDbDictionary
  0
ENDSEC
  0
EOF
