  0
SECTION
  2
HEADER
  9
$ACADVER
  1
AC1009
  9
$EXTMAX
 10
421.880798339844
 20
542.285583496094
 30
0.0
  9
$EXTMIN
 10
1.0
 20
4.0
 30
0.0
  9
$INSUNITS
 70
     4
  9
$LUNITS
 70
     2
  9
$LUPREC
 70
     4
  9
$MEASUREMENT
 70
     1
  0
ENDSEC
  0
SECTION
  2
TABLES
  0
TABLE
  2
LAYER
 70
     1
  0
LAYER
  2
0
 70
     0
 62
     7
  6
Continuous
  0
LAYER
  2
Default
 70
     0
 62
    14
  6
Continuous
  0
ENDTAB
  0
TABLE
  2
APPID
 70
     1
  0
APPID
  2
ACAD
 70
     0
  0
ENDTAB
  0
ENDSEC
  0
SECTION
  2
ENTITIES
  0
LINE
  8
Default
 10
188.0
 20
542.0
 30
0.0
 11
173.714404296875
 21
541.23037109375
 31
0.0
  0
LINE
  8
Default
 10
173.714404296875
 20
541.23037109375
 30
0.0
 11
161.483203125
 21
540.21123046875
 31
0.0
  0
LINE
  8
Default
 10
161.483203125
 20
540.21123046875
 30
0.0
 11
149.544799804688
 21
538.716796875
 31
0.0
  0
LINE
  8
Default
 10
149.544799804688
 20
538.716796875
 30
0.0
 11
136.137609863281
 21
536.521630859375
 31
0.0
  0
LINE
  8
Default
 10
136.137609863281
 20
536.521630859375
 30
0.0
 11
119.5
 21
533.4
 31
0.0
  0
LINE
  8
Default
 10
119.5
 20
533.4
 30
0.0
 11
103.072790527344
 21
529.718408203125
 31
0.0
  0
LINE
  8
Default
 10
103.072790527344
 20
529.718408203125
 30
0.0
 11
85.714404296875
 21
524.947216796875
 31
0.0
  0
LINE
  8
Default
 10
85.714404296875
 20
524.947216796875
 30
0.0
 11
68.1495971679688
 21
519.316796875
 31
0.0
  0
LINE
  8
Default
 10
68.1495971679688
 20
519.316796875
 30
0.0
 11
51.1032012939453
 21
513.0576171875
 31
0.0
  0
LINE
  8
Default
 10
51.1032012939453
 20
513.0576171875
 30
0.0
 11
35.3
 21
506.4
 31
0.0
  0
LINE
  8
Default
 10
35.3
 20
506.4
 30
0.0
 11
34.2903961181641
 21
505.94716796875
 31
0.0
  0
LINE
  8
Default
 10
34.2903961181641
 20
505.94716796875
 30
0.0
 11
33.3432006835938
 21
505.56162109375
 31
0.0
  0
LINE
  8
Default
 10
33.3432006835938
 20
505.56162109375
 30
0.0
 11
32.52080078125
 21
505.26240234375
 31
0.0
  0
LINE
  8
Default
 10
32.52080078125
 20
505.26240234375
 30
0.0
 11
31.8856018066406
 21
505.068798828125
 31
0.0
  0
LINE
  8
Default
 10
31.8856018066406
 20
505.068798828125
 30
0.0
 11
31.5
 21
505.0
 31
0.0
  0
LINE
  8
Default
 10
31.5
 20
505.0
 30
0.0
 11
28.1887969970703
 21
503.6248046875
 31
0.0
  0
LINE
  8
Default
 10
28.1887969970703
 20
503.6248046875
 30
0.0
 11
21.3544006347656
 21
500.286376953125
 31
0.0
  0
LINE
  8
Default
 10
21.3544006347656
 20
500.286376953125
 30
0.0
 11
13.3055999755859
 21
496.165625
 31
0.0
  0
LINE
  8
Default
 10
13.3055999755859
 20
496.165625
 30
0.0
 11
6.3512001037598
 21
492.443212890625
 31
0.0
  0
LINE
  8
Default
 10
6.3512001037598
 20
492.443212890625
 30
0.0
 11
2.8
 21
490.3
 31
0.0
  0
LINE
  8
Default
 10
2.8
 20
490.3
 30
0.0
 11
1.9599998474121
 21
488.629638671875
 31
0.0
  0
LINE
  8
Default
 10
1.9599998474121
 20
488.629638671875
 30
0.0
 11
1.4320000648499
 21
483.4408203125
 31
0.0
  0
LINE
  8
Default
 10
1.4320000648499
 20
483.4408203125
 30
0.0
 11
1.1439999580383
 21
471.7671875
 31
0.0
  0
LINE
  8
Default
 10
1.1439999580383
 20
471.7671875
 30
0.0
 11
1.0239999771118
 21
450.642431640625
 31
0.0
  0
LINE
  8
Default
 10
1.0239999771118
 20
450.642431640625
 30
0.0
 11
1.0
 21
417.1
 31
0.0
  0
LINE
  8
Default
 10
1.0
 20
417.1
 30
0.0
 11
1.1552000045776
 21
368.721557617188
 31
0.0
  0
LINE
  8
Default
 10
1.1552000045776
 20
368.721557617188
 30
0.0
 11
1.8096000671387
 21
334.656811523438
 31
0.0
  0
LINE
  8
Default
 10
1.8096000671387
 20
334.656811523438
 30
0.0
 11
3.2464000701904
 21
309.97119140625
 31
0.0
  0
LINE
  8
Default
 10
3.2464000701904
 20
309.97119140625
 30
0.0
 11
5.74880027771
 21
289.730395507813
 31
0.0
  0
LINE
  8
Default
 10
5.74880027771
 20
289.730395507813
 30
0.0
 11
9.6
 21
269.0
 31
0.0
  0
LINE
  8
Default
 10
9.6
 20
269.0
 30
0.0
 11
11.9959991455078
 21
257.442358398438
 31
0.0
  0
LINE
  8
Default
 10
11.9959991455078
 20
257.442358398438
 30
0.0
 11
14.1760009765625
 21
248.035205078125
 31
0.0
  0
LINE
  8
Default
 10
14.1760009765625
 20
248.035205078125
 30
0.0
 11
16.5480010986328
 21
239.256787109375
 31
0.0
  0
LINE
  8
Default
 10
16.5480010986328
 20
239.256787109375
 30
0.0
 11
19.5199996948242
 21
229.585595703125
 31
0.0
  0
LINE
  8
Default
 10
19.5199996948242
 20
229.585595703125
 30
0.0
 11
23.5
 21
217.5
 31
0.0
  0
LINE
  8
Default
 10
23.5
 20
217.5
 30
0.0
 11
25.7463989257813
 21
210.819213867188
 31
0.0
  0
LINE
  8
Default
 10
25.7463989257813
 20
210.819213867188
 30
0.0
 11
27.5992004394531
 21
205.597607421875
 31
0.0
  0
LINE
  8
Default
 10
27.5992004394531
 20
205.597607421875
 30
0.0
 11
29.2888000488281
 21
201.206396484375
 31
0.0
  0
LINE
  8
Default
 10
29.2888000488281
 20
201.206396484375
 30
0.0
 11
31.0455993652344
 21
197.016809082031
 31
0.0
  0
LINE
  8
Default
 10
31.0455993652344
 20
197.016809082031
 30
0.0
 11
33.1
 21
192.4
 31
0.0
  0
LINE
  8
Default
 10
33.1
 20
192.4
 30
0.0
 11
33.7727996826172
 21
190.878393554688
 31
0.0
  0
LINE
  8
Default
 10
33.7727996826172
 20
190.878393554688
 30
0.0
 11
34.5464019775391
 21
189.059204101563
 31
0.0
  0
LINE
  8
Default
 10
34.5464019775391
 20
189.059204101563
 30
0.0
 11
35.3536010742188
 21
187.100793457031
 31
0.0
  0
LINE
  8
Default
 10
35.3536010742188
 20
187.100793457031
 30
0.0
 11
36.1272003173828
 21
185.161596679688
 31
0.0
  0
LINE
  8
Default
 10
36.1272003173828
 20
185.161596679688
 30
0.0
 11
36.8
 21
183.4
 31
0.0
  0
LINE
  8
Default
 10
36.8
 20
183.4
 30
0.0
 11
39.4743988037109
 21
177.441589355469
 31
0.0
  0
LINE
  8
Default
 10
39.4743988037109
 20
177.441589355469
 30
0.0
 11
43.5071990966797
 21
169.308801269531
 31
0.0
  0
LINE
  8
Default
 10
43.5071990966797
 20
169.308801269531
 30
0.0
 11
48.3128021240234
 21
160.115197753906
 31
0.0
  0
LINE
  8
Default
 10
48.3128021240234
 20
160.115197753906
 30
0.0
 11
53.3056030273438
 21
150.974401855469
 31
0.0
  0
LINE
  8
Default
 10
53.3056030273438
 20
150.974401855469
 30
0.0
 11
57.9
 21
143.0
 31
0.0
  0
LINE
  8
Default
 10
57.9
 20
143.0
 30
0.0
 11
64.0591918945313
 21
133.038403320313
 31
0.0
  0
LINE
  8
Default
 10
64.0591918945313
 20
133.038403320313
 30
0.0
 11
69.9496032714844
 21
124.075207519531
 31
0.0
  0
LINE
  8
Default
 10
69.9496032714844
 20
124.075207519531
 30
0.0
 11
76.310400390625
 21
115.092797851563
 31
0.0
  0
LINE
  8
Default
 10
76.310400390625
 20
115.092797851563
 30
0.0
 11
83.8808044433594
 21
105.073596191406
 31
0.0
  0
LINE
  8
Default
 10
83.8808044433594
 20
105.073596191406
 30
0.0
 11
93.4
 21
93.0
 31
0.0
  0
LINE
  8
Default
 10
93.4
 20
93.0
 30
0.0
 11
99.1807983398438
 21
86.4031982421875
 31
0.0
  0
LINE
  8
Default
 10
99.1807983398438
 20
86.4031982421875
 30
0.0
 11
107.702404785156
 21
77.4736022949219
 31
0.0
  0
LINE
  8
Default
 10
107.702404785156
 20
77.4736022949219
 30
0.0
 11
117.433605957031
 21
67.7424011230469
 31
0.0
  0
LINE
  8
Default
 10
117.433605957031
 20
67.7424011230469
 30
0.0
 11
126.843200683594
 21
58.7408020019531
 31
0.0
  0
LINE
  8
Default
 10
126.843200683594
 20
58.7408020019531
 30
0.0
 11
134.4
 21
52.0
 31
0.0
  0
LINE
  8
Default
 10
134.4
 20
52.0
 30
0.0
 11
138.982397460938
 21
48.1735992431641
 31
0.0
  0
LINE
  8
Default
 10
138.982397460938
 20
48.1735992431641
 30
0.0
 11
143.0751953125
 21
44.8848022460938
 31
0.0
  0
LINE
  8
Default
 10
143.0751953125
 20
44.8848022460938
 30
0.0
 11
147.316809082031
 21
41.6391998291016
 31
0.0
  0
LINE
  8
Default
 10
147.316809082031
 20
41.6391998291016
 30
0.0
 11
152.34560546875
 21
37.9424011230469
 31
0.0
  0
LINE
  8
Default
 10
152.34560546875
 20
37.9424011230469
 30
0.0
 11
158.8
 21
33.3
 31
0.0
  0
LINE
  8
Default
 10
158.8
 20
33.3
 30
0.0
 11
170.686401367188
 21
25.3375991821289
 31
0.0
  0
LINE
  8
Default
 10
170.686401367188
 20
25.3375991821289
 30
0.0
 11
183.6912109375
 21
17.4567993164063
 31
0.0
  0
LINE
  8
Default
 10
183.6912109375
 20
17.4567993164063
 30
0.0
 11
196.052795410156
 21
10.6271995544434
 31
0.0
  0
LINE
  8
Default
 10
196.052795410156
 20
10.6271995544434
 30
0.0
 11
206.009594726563
 21
5.818399810791
 31
0.0
  0
LINE
  8
Default
 10
206.009594726563
 20
5.818399810791
 30
0.0
 11
211.8
 21
4.0
 31
0.0
  0
LINE
  8
Default
 10
211.8
 20
4.0
 30
0.0
 11
215.465600585938
 21
5.3175998687744
 31
0.0
  0
LINE
  8
Default
 10
215.465600585938
 20
5.3175998687744
 30
0.0
 11
222.476806640625
 21
8.6368003845215
 31
0.0
  0
LINE
  8
Default
 10
222.476806640625
 20
8.6368003845215
 30
0.0
 11
230.995190429688
 21
13.0072006225586
 31
0.0
  0
LINE
  8
Default
 10
230.995190429688
 20
13.0072006225586
 30
0.0
 11
239.182397460938
 21
17.4783996582031
 31
0.0
  0
LINE
  8
Default
 10
239.182397460938
 20
17.4783996582031
 30
0.0
 11
245.2
 21
21.1
 31
0.0
  0
LINE
  8
Default
 10
245.2
 20
21.1
 30
0.0
 11
247.016821289063
 21
22.3503997802734
 31
0.0
  0
LINE
  8
Default
 10
247.016821289063
 20
22.3503997802734
 30
0.0
 11
248.670385742188
 21
23.4231994628906
 31
0.0
  0
LINE
  8
Default
 10
248.670385742188
 20
23.4231994628906
 30
0.0
 11
250.04560546875
 21
24.2608001708984
 31
0.0
  0
LINE
  8
Default
 10
250.04560546875
 20
24.2608001708984
 30
0.0
 11
251.027221679688
 21
24.8055999755859
 31
0.0
  0
LINE
  8
Default
 10
251.027221679688
 20
24.8055999755859
 30
0.0
 11
251.5
 21
25.0
 31
0.0
  0
LINE
  8
Default
 10
251.5
 20
25.0
 30
0.0
 11
253.87041015625
 21
26.4439971923828
 31
0.0
  0
LINE
  8
Default
 10
253.87041015625
 20
26.4439971923828
 30
0.0
 11
259.039208984375
 21
29.9280029296875
 31
0.0
  0
LINE
  8
Default
 10
259.039208984375
 20
29.9280029296875
 30
0.0
 11
265.172802734375
 21
34.1800018310547
 31
0.0
  0
LINE
  8
Default
 10
265.172802734375
 20
34.1800018310547
 30
0.0
 11
270.43759765625
 21
37.9280029296875
 31
0.0
  0
LINE
  8
Default
 10
270.43759765625
 20
37.9280029296875
 30
0.0
 11
273.0
 21
39.9
 31
0.0
  0
LINE
  8
Default
 10
273.0
 20
39.9
 30
0.0
 11
273.371997070313
 21
40.2647979736328
 31
0.0
  0
LINE
  8
Default
 10
273.371997070313
 20
40.2647979736328
 30
0.0
 11
274.080029296875
 21
40.8503997802734
 31
0.0
  0
LINE
  8
Default
 10
274.080029296875
 20
40.8503997802734
 30
0.0
 11
275.052001953125
 21
41.6136016845703
 31
0.0
  0
LINE
  8
Default
 10
275.052001953125
 20
41.6136016845703
 30
0.0
 11
276.216015625
 21
42.5111999511719
 31
0.0
  0
LINE
  8
Default
 10
276.216015625
 20
42.5111999511719
 30
0.0
 11
277.5
 21
43.5
 31
0.0
  0
LINE
  8
Default
 10
277.5
 20
43.5
 30
0.0
 11
278.817578125
 21
44.4727966308594
 31
0.0
  0
LINE
  8
Default
 10
278.817578125
 20
44.4727966308594
 30
0.0
 11
280.072802734375
 21
45.4264007568359
 31
0.0
  0
LINE
  8
Default
 10
280.072802734375
 20
45.4264007568359
 30
0.0
 11
281.17919921875
 21
46.2936004638672
 31
0.0
  0
LINE
  8
Default
 10
281.17919921875
 20
46.2936004638672
 30
0.0
 11
282.050415039063
 21
47.0071990966797
 31
0.0
  0
LINE
  8
Default
 10
282.050415039063
 20
47.0071990966797
 30
0.0
 11
282.6
 21
47.5
 31
0.0
  0
LINE
  8
Default
 10
282.6
 20
47.5
 30
0.0
 11
283.22958984375
 21
48.0239990234375
 31
0.0
  0
LINE
  8
Default
 10
283.22958984375
 20
48.0239990234375
 30
0.0
 11
284.3248046875
 21
48.9320007324219
 31
0.0
  0
LINE
  8
Default
 10
284.3248046875
 20
48.9320007324219
 30
0.0
 11
285.7751953125
 21
50.1279998779297
 31
0.0
  0
LINE
  8
Default
 10
285.7751953125
 20
50.1279998779297
 30
0.0
 11
287.47041015625
 21
51.5160034179688
 31
0.0
  0
LINE
  8
Default
 10
287.47041015625
 20
51.5160034179688
 30
0.0
 11
289.3
 21
53.0
 31
0.0
  0
LINE
  8
Default
 10
289.3
 20
53.0
 30
0.0
 11
296.118408203125
 21
59.1047973632813
 31
0.0
  0
LINE
  8
Default
 10
296.118408203125
 20
59.1047973632813
 30
0.0
 11
305.327221679688
 21
68.0704040527344
 31
0.0
  0
LINE
  8
Default
 10
305.327221679688
 20
68.0704040527344
 30
0.0
 11
315.356811523438
 21
78.293603515625
 31
0.0
  0
LINE
  8
Default
 10
315.356811523438
 20
78.293603515625
 30
0.0
 11
324.63759765625
 21
88.1712036132813
 31
0.0
  0
LINE
  8
Default
 10
324.63759765625
 20
88.1712036132813
 30
0.0
 11
331.6
 21
96.1
 31
0.0
  0
LINE
  8
Default
 10
331.6
 20
96.1
 30
0.0
 11
340.065576171875
 21
106.907202148438
 31
0.0
  0
LINE
  8
Default
 10
340.065576171875
 20
106.907202148438
 30
0.0
 11
348.972802734375
 21
118.981604003906
 31
0.0
  0
LINE
  8
Default
 10
348.972802734375
 20
118.981604003906
 30
0.0
 11
356.98720703125
 21
130.422399902344
 31
0.0
  0
LINE
  8
Default
 10
356.98720703125
 20
130.422399902344
 30
0.0
 11
362.7744140625
 21
139.328796386719
 31
0.0
  0
LINE
  8
Default
 10
362.7744140625
 20
139.328796386719
 30
0.0
 11
365.0
 21
143.8
 31
0.0
  0
LINE
  8
Default
 10
365.0
 20
143.8
 30
0.0
 11
365.102392578125
 21
144.221594238281
 31
0.0
  0
LINE
  8
Default
 10
365.102392578125
 20
144.221594238281
 30
0.0
 11
365.38720703125
 21
144.844799804688
 31
0.0
  0
LINE
  8
Default
 10
365.38720703125
 20
144.844799804688
 30
0.0
 11
365.82080078125
 21
145.607202148438
 31
0.0
  0
LINE
  8
Default
 10
365.82080078125
 20
145.607202148438
 30
0.0
 11
366.369604492188
 21
146.446398925781
 31
0.0
  0
LINE
  8
Default
 10
366.369604492188
 20
146.446398925781
 30
0.0
 11
367.0
 21
147.3
 31
0.0
  0
LINE
  8
Default
 10
367.0
 20
147.3
 30
0.0
 11
370.08720703125
 21
152.487194824219
 31
0.0
  0
LINE
  8
Default
 10
370.08720703125
 20
152.487194824219
 30
0.0
 11
375.185620117188
 21
162.229602050781
 31
0.0
  0
LINE
  8
Default
 10
375.185620117188
 20
162.229602050781
 30
0.0
 11
381.090405273438
 21
174.098400878906
 31
0.0
  0
LINE
  8
Default
 10
381.090405273438
 20
174.098400878906
 30
0.0
 11
386.596801757813
 21
185.664807128906
 31
0.0
  0
LINE
  8
Default
 10
386.596801757813
 20
185.664807128906
 30
0.0
 11
390.5
 21
194.5
 31
0.0
  0
LINE
  8
Default
 10
390.5
 20
194.5
 30
0.0
 11
396.77197265625
 21
210.95439453125
 31
0.0
  0
LINE
  8
Default
 10
396.77197265625
 20
210.95439453125
 30
0.0
 11
402.444018554688
 21
227.927197265625
 31
0.0
  0
LINE
  8
Default
 10
402.444018554688
 20
227.927197265625
 30
0.0
 11
407.419995117188
 21
245.072802734375
 31
0.0
  0
LINE
  8
Default
 10
407.419995117188
 20
245.072802734375
 30
0.0
 11
411.60400390625
 21
262.04560546875
 31
0.0
  0
LINE
  8
Default
 10
411.60400390625
 20
262.04560546875
 30
0.0
 11
414.9
 21
278.5
 31
0.0
  0
LINE
  8
Default
 10
414.9
 20
278.5
 30
0.0
 11
417.978369140625
 21
296.686401367188
 31
0.0
  0
LINE
  8
Default
 10
417.978369140625
 20
296.686401367188
 30
0.0
 11
419.871240234375
 21
312.29521484375
 31
0.0
  0
LINE
  8
Default
 10
419.871240234375
 20
312.29521484375
 30
0.0
 11
420.904833984375
 21
331.340795898438
 31
0.0
  0
LINE
  8
Default
 10
420.904833984375
 20
331.340795898438
 30
0.0
 11
421.405615234375
 21
359.83759765625
 31
0.0
  0
LINE
  8
Default
 10
421.405615234375
 20
359.83759765625
 30
0.0
 11
421.7
 21
403.8
 31
0.0
  0
LINE
  8
Default
 10
421.7
 20
403.8
 30
0.0
 11
421.83359375
 21
429.86875
 31
0.0
  0
LINE
  8
Default
 10
421.83359375
 20
429.86875
 30
0.0
 11
421.880810546875
 21
452.7744140625
 31
0.0
  0
LINE
  8
Default
 10
421.880810546875
 20
452.7744140625
 30
0.0
 11
421.851220703125
 21
471.105615234375
 31
0.0
  0
LINE
  8
Default
 10
421.851220703125
 20
471.105615234375
 30
0.0
 11
421.75439453125
 21
483.451220703125
 31
0.0
  0
LINE
  8
Default
 10
421.75439453125
 20
483.451220703125
 30
0.0
 11
421.6
 21
488.4
 31
0.0
  0
LINE
  8
Default
 10
421.6
 20
488.4
 30
0.0
 11
418.18876953125
 21
491.48564453125
 31
0.0
  0
LINE
  8
Default
 10
418.18876953125
 20
491.48564453125
 30
0.0
 11
409.718408203125
 21
496.284814453125
 31
0.0
  0
LINE
  8
Default
 10
409.718408203125
 20
496.284814453125
 30
0.0
 11
397.393603515625
 21
502.231201171875
 31
0.0
  0
LINE
  8
Default
 10
397.393603515625
 20
502.231201171875
 30
0.0
 11
382.419213867188
 21
508.7583984375
 31
0.0
  0
LINE
  8
Default
 10
382.419213867188
 20
508.7583984375
 30
0.0
 11
366.0
 21
515.3
 31
0.0
  0
LINE
  8
Default
 10
366.0
 20
515.3
 30
0.0
 11
332.617602539063
 21
526.294384765625
 31
0.0
  0
LINE
  8
Default
 10
332.617602539063
 20
526.294384765625
 30
0.0
 11
298.188818359375
 21
534.447216796875
 31
0.0
  0
LINE
  8
Default
 10
298.188818359375
 20
534.447216796875
 30
0.0
 11
262.651196289063
 21
539.772802734375
 31
0.0
  0
LINE
  8
Default
 10
262.651196289063
 20
539.772802734375
 30
0.0
 11
225.942407226563
 21
542.285595703125
 31
0.0
  0
LINE
  8
Default
 10
225.942407226563
 20
542.285595703125
 30
0.0
 11
188.0
 21
542.0
 31
0.0
  0
LINE
  8
Default
 10
241.0
 20
528.9
 30
0.0
 11
246.217578125
 21
528.5015625
 31
0.0
  0
LINE
  8
Default
 10
246.217578125
 20
528.5015625
 30
0.0
 11
251.972802734375
 21
527.94482421875
 31
0.0
  0
LINE
  8
Default
 10
251.972802734375
 20
527.94482421875
 30
0.0
 11
257.819213867188
 21
527.28720703125
 31
0.0
  0
LINE
  8
Default
 10
257.819213867188
 20
527.28720703125
 30
0.0
 11
263.310400390625
 21
526.586376953125
 31
0.0
  0
LINE
  8
Default
 10
263.310400390625
 20
526.586376953125
 30
0.0
 11
268.0
 21
525.9
 31
0.0
  0
LINE
  8
Default
 10
268.0
 20
525.9
 30
0.0
 11
272.313598632813
 21
525.223974609375
 31
0.0
  0
LINE
  8
Default
 10
272.313598632813
 20
525.223974609375
 30
0.0
 11
276.756811523438
 21
524.548046875
 31
0.0
  0
LINE
  8
Default
 10
276.756811523438
 20
524.548046875
 30
0.0
 11
281.003198242188
 21
523.92001953125
 31
0.0
  0
LINE
  8
Default
 10
281.003198242188
 20
523.92001953125
 30
0.0
 11
284.726391601563
 21
523.38798828125
 31
0.0
  0
LINE
  8
Default
 10
284.726391601563
 20
523.38798828125
 30
0.0
 11
287.6
 21
523.0
 31
0.0
  0
LINE
  8
Default
 10
287.6
 20
523.0
 30
0.0
 11
290.211987304688
 21
522.56318359375
 31
0.0
  0
LINE
  8
Default
 10
290.211987304688
 20
522.56318359375
 30
0.0
 11
293.2080078125
 21
522.001611328125
 31
0.0
  0
LINE
  8
Default
 10
293.2080078125
 20
522.001611328125
 30
0.0
 11
296.347998046875
 21
521.3583984375
 31
0.0
  0
LINE
  8
Default
 10
296.347998046875
 20
521.3583984375
 30
0.0
 11
299.3919921875
 21
520.676806640625
 31
0.0
  0
LINE
  8
Default
 10
299.3919921875
 20
520.676806640625
 30
0.0
 11
302.1
 21
520.0
 31
0.0
  0
LINE
  8
Default
 10
302.1
 20
520.0
 30
0.0
 11
304.956005859375
 21
519.23359375
 31
0.0
  0
LINE
  8
Default
 10
304.956005859375
 20
519.23359375
 30
0.0
 11
308.411987304688
 21
518.3087890625
 31
0.0
  0
LINE
  8
Default
 10
308.411987304688
 20
518.3087890625
 30
0.0
 11
312.180004882813
 21
517.307177734375
 31
0.0
  0
LINE
  8
Default
 10
312.180004882813
 20
517.307177734375
 30
0.0
 11
315.971997070313
 21
516.310400390625
 31
0.0
  0
LINE
  8
Default
 10
315.971997070313
 20
516.310400390625
 30
0.0
 11
319.5
 21
515.4
 31
0.0
  0
LINE
  8
Default
 10
319.5
 20
515.4
 30
0.0
 11
328.060009765625
 21
513.039208984375
 31
0.0
  0
LINE
  8
Default
 10
328.060009765625
 20
513.039208984375
 30
0.0
 11
338.252001953125
 21
509.881591796875
 31
0.0
  0
LINE
  8
Default
 10
338.252001953125
 20
509.881591796875
 30
0.0
 11
349.164013671875
 21
506.234375
 31
0.0
  0
LINE
  8
Default
 10
349.164013671875
 20
506.234375
 30
0.0
 11
359.884008789063
 21
502.404833984375
 31
0.0
  0
LINE
  8
Default
 10
359.884008789063
 20
502.404833984375
 30
0.0
 11
369.5
 21
498.7
 31
0.0
  0
LINE
  8
Default
 10
369.5
 20
498.7
 30
0.0
 11
379.327197265625
 21
494.6255859375
 31
0.0
  0
LINE
  8
Default
 10
379.327197265625
 20
494.6255859375
 30
0.0
 11
389.197631835938
 21
490.32080078125
 31
0.0
  0
LINE
  8
Default
 10
389.197631835938
 20
490.32080078125
 30
0.0
 11
397.954418945313
 21
486.323193359375
 31
0.0
  0
LINE
  8
Default
 10
397.954418945313
 20
486.323193359375
 30
0.0
 11
404.440795898438
 21
483.17041015625
 31
0.0
  0
LINE
  8
Default
 10
404.440795898438
 20
483.17041015625
 30
0.0
 11
407.5
 21
481.4
 31
0.0
  0
LINE
  8
Default
 10
407.5
 20
481.4
 30
0.0
 11
408.319995117188
 21
468.52880859375
 31
0.0
  0
LINE
  8
Default
 10
408.319995117188
 20
468.52880859375
 30
0.0
 11
408.82802734375
 21
438.166357421875
 31
0.0
  0
LINE
  8
Default
 10
408.82802734375
 20
438.166357421875
 30
0.0
 11
408.976000976563
 21
399.62958984375
 31
0.0
  0
LINE
  8
Default
 10
408.976000976563
 20
399.62958984375
 30
0.0
 11
408.716015625
 21
362.235205078125
 31
0.0
  0
LINE
  8
Default
 10
408.716015625
 20
362.235205078125
 30
0.0
 11
408.0
 21
335.3
 31
0.0
  0
LINE
  8
Default
 10
408.0
 20
335.3
 30
0.0
 11
406.9927734375
 21
317.215991210938
 31
0.0
  0
LINE
  8
Default
 10
406.9927734375
 20
317.215991210938
 30
0.0
 11
405.750415039063
 21
302.371997070313
 31
0.0
  0
LINE
  8
Default
 10
405.750415039063
 20
302.371997070313
 30
0.0
 11
404.061596679688
 21
289.040014648438
 31
0.0
  0
LINE
  8
Default
 10
404.061596679688
 20
289.040014648438
 30
0.0
 11
401.715209960938
 21
275.4919921875
 31
0.0
  0
LINE
  8
Default
 10
401.715209960938
 20
275.4919921875
 30
0.0
 11
398.5
 21
260.0
 31
0.0
  0
LINE
  8
Default
 10
398.5
 20
260.0
 30
0.0
 11
390.3583984375
 21
230.073583984375
 31
0.0
  0
LINE
  8
Default
 10
390.3583984375
 20
230.073583984375
 30
0.0
 11
379.2072265625
 21
199.892797851563
 31
0.0
  0
LINE
  8
Default
 10
379.2072265625
 20
199.892797851563
 30
0.0
 11
365.516796875
 21
170.4751953125
 31
0.0
  0
LINE
  8
Default
 10
365.516796875
 20
170.4751953125
 30
0.0
 11
349.7576171875
 21
142.838403320313
 31
0.0
  0
LINE
  8
Default
 10
349.7576171875
 20
142.838403320313
 30
0.0
 11
332.4
 21
118.0
 31
0.0
  0
LINE
  8
Default
 10
332.4
 20
118.0
 30
0.0
 11
331.147998046875
 21
116.367993164063
 31
0.0
  0
LINE
  8
Default
 10
331.147998046875
 20
116.367993164063
 30
0.0
 11
329.751977539063
 21
114.568005371094
 31
0.0
  0
LINE
  8
Default
 10
329.751977539063
 20
114.568005371094
 30
0.0
 11
328.332006835938
 21
112.743994140625
 31
0.0
  0
LINE
  8
Default
 10
328.332006835938
 20
112.743994140625
 30
0.0
 11
327.0080078125
 21
111.040002441406
 31
0.0
  0
LINE
  8
Default
 10
327.0080078125
 20
111.040002441406
 30
0.0
 11
325.9
 21
109.6
 31
0.0
  0
LINE
  8
Default
 10
325.9
 20
109.6
 30
0.0
 11
319.156005859375
 21
101.324798583984
 31
0.0
  0
LINE
  8
Default
 10
319.156005859375
 20
101.324798583984
 30
0.0
 11
310.39599609375
 21
91.5903991699219
 31
0.0
  0
LINE
  8
Default
 10
310.39599609375
 20
91.5903991699219
 30
0.0
 11
300.627978515625
 21
81.43359375
 31
0.0
  0
LINE
  8
Default
 10
300.627978515625
 20
81.43359375
 30
0.0
 11
290.860009765625
 21
71.8911987304688
 31
0.0
  0
LINE
  8
Default
 10
290.860009765625
 20
71.8911987304688
 30
0.0
 11
282.1
 21
64.0
 31
0.0
  0
LINE
  8
Default
 10
282.1
 20
64.0
 30
0.0
 11
280.203979492188
 21
62.4127990722656
 31
0.0
  0
LINE
  8
Default
 10
280.203979492188
 20
62.4127990722656
 30
0.0
 11
278.211987304688
 21
60.7343994140625
 31
0.0
  0
LINE
  8
Default
 10
278.211987304688
 20
60.7343994140625
 30
0.0
 11
276.267993164063
 21
59.089599609375
 31
0.0
  0
LINE
  8
Default
 10
276.267993164063
 20
59.089599609375
 30
0.0
 11
274.515991210938
 21
57.6032043457031
 31
0.0
  0
LINE
  8
Default
 10
274.515991210938
 20
57.6032043457031
 30
0.0
 11
273.1
 21
56.4
 31
0.0
  0
LINE
  8
Default
 10
273.1
 20
56.4
 30
0.0
 11
268.23837890625
 21
52.4528015136719
 31
0.0
  0
LINE
  8
Default
 10
268.23837890625
 20
52.4528015136719
 30
0.0
 11
262.31123046875
 21
48.0544036865234
 31
0.0
  0
LINE
  8
Default
 10
262.31123046875
 20
48.0544036865234
 30
0.0
 11
254.804809570313
 21
42.8496002197266
 31
0.0
  0
LINE
  8
Default
 10
254.804809570313
 20
42.8496002197266
 30
0.0
 11
245.205590820313
 21
36.4832000732422
 31
0.0
  0
LINE
  8
Default
 10
245.205590820313
 20
36.4832000732422
 30
0.0
 11
233.0
 21
28.6
 31
0.0
  0
LINE
  8
Default
 10
233.0
 20
28.6
 30
0.0
 11
231.173583984375
 21
27.4720001220703
 31
0.0
  0
LINE
  8
Default
 10
231.173583984375
 20
27.4720001220703
 30
0.0
 11
229.380810546875
 21
26.4160003662109
 31
0.0
  0
LINE
  8
Default
 10
229.380810546875
 20
26.4160003662109
 30
0.0
 11
227.751196289063
 21
25.5040008544922
 31
0.0
  0
LINE
  8
Default
 10
227.751196289063
 20
25.5040008544922
 30
0.0
 11
226.414404296875
 21
24.8080001831055
 31
0.0
  0
LINE
  8
Default
 10
226.414404296875
 20
24.8080001831055
 30
0.0
 11
225.5
 21
24.4
 31
0.0
  0
LINE
  8
Default
 10
225.5
 20
24.4
 30
0.0
 11
224.584790039063
 21
23.9927993774414
 31
0.0
  0
LINE
  8
Default
 10
224.584790039063
 20
23.9927993774414
 30
0.0
 11
223.242407226563
 21
23.3024017333984
 31
0.0
  0
LINE
  8
Default
 10
223.242407226563
 20
23.3024017333984
 30
0.0
 11
221.597583007813
 21
22.4055999755859
 31
0.0
  0
LINE
  8
Default
 10
221.597583007813
 20
22.4055999755859
 30
0.0
 11
219.7751953125
 21
21.3792007446289
 31
0.0
  0
LINE
  8
Default
 10
219.7751953125
 20
21.3792007446289
 30
0.0
 11
217.9
 21
20.3
 31
0.0
  0
LINE
  8
Default
 10
217.9
 20
20.3
 30
0.0
 11
212.2
 21
17.0
 31
0.0
  0
LINE
  8
Default
 10
212.2
 20
17.0
 30
0.0
 11
201.9
 21
22.6
 31
0.0
  0
LINE
  8
Default
 10
201.9
 20
22.6
 30
0.0
 11
198.196789550781
 21
24.6464004516602
 31
0.0
  0
LINE
  8
Default
 10
198.196789550781
 20
24.6464004516602
 30
0.0
 11
194.138403320313
 21
26.9472015380859
 31
0.0
  0
LINE
  8
Default
 10
194.138403320313
 20
26.9472015380859
 30
0.0
 11
190.0416015625
 21
29.3248016357422
 31
0.0
  0
LINE
  8
Default
 10
190.0416015625
 20
29.3248016357422
 30
0.0
 11
186.223205566406
 21
31.6015991210938
 31
0.0
  0
LINE
  8
Default
 10
186.223205566406
 20
31.6015991210938
 30
0.0
 11
183.0
 21
33.6
 31
0.0
  0
LINE
  8
Default
 10
183.0
 20
33.6
 30
0.0
 11
180.163989257813
 21
35.4048004150391
 31
0.0
  0
LINE
  8
Default
 10
180.163989257813
 20
35.4048004150391
 30
0.0
 11
177.424011230469
 21
37.1424011230469
 31
0.0
  0
LINE
  8
Default
 10
177.424011230469
 20
37.1424011230469
 30
0.0
 11
174.972009277344
 21
38.6976013183594
 31
0.0
  0
LINE
  8
Default
 10
174.972009277344
 20
38.6976013183594
 30
0.0
 11
173.0
 21
39.9552001953125
 31
0.0
  0
LINE
  8
Default
 10
173.0
 20
39.9552001953125
 30
0.0
 11
171.7
 21
40.8
 31
0.0
  0
LINE
  8
Default
 10
171.7
 20
40.8
 30
0.0
 11
170.350402832031
 21
41.6647979736328
 31
0.0
  0
LINE
  8
Default
 10
170.350402832031
 20
41.6647979736328
 30
0.0
 11
168.343200683594
 21
43.0864013671875
 31
0.0
  0
LINE
  8
Default
 10
168.343200683594
 20
43.0864013671875
 30
0.0
 11
165.860791015625
 21
44.9256011962891
 31
0.0
  0
LINE
  8
Default
 10
165.860791015625
 20
44.9256011962891
 30
0.0
 11
163.085595703125
 21
47.0432006835938
 31
0.0
  0
LINE
  8
Default
 10
163.085595703125
 20
47.0432006835938
 30
0.0
 11
160.2
 21
49.3
 31
0.0
  0
LINE
  8
Default
 10
160.2
 20
49.3
 30
0.0
 11
157.168005371094
 21
51.6335998535156
 31
0.0
  0
LINE
  8
Default
 10
157.168005371094
 20
51.6335998535156
 30
0.0
 11
153.992004394531
 21
54.072802734375
 31
0.0
  0
LINE
  8
Default
 10
153.992004394531
 20
54.072802734375
 30
0.0
 11
150.911999511719
 21
56.4351989746094
 31
0.0
  0
LINE
  8
Default
 10
150.911999511719
 20
56.4351989746094
 30
0.0
 11
148.168005371094
 21
58.5384033203125
 31
0.0
  0
LINE
  8
Default
 10
148.168005371094
 20
58.5384033203125
 30
0.0
 11
146.0
 21
60.2
 31
0.0
  0
LINE
  8
Default
 10
146.0
 20
60.2
 30
0.0
 11
139.464794921875
 21
65.8919982910156
 31
0.0
  0
LINE
  8
Default
 10
139.464794921875
 20
65.8919982910156
 30
0.0
 11
129.9583984375
 21
75.0160034179688
 31
0.0
  0
LINE
  8
Default
 10
129.9583984375
 20
75.0160034179688
 30
0.0
 11
119.309606933594
 21
85.7240051269531
 31
0.0
  0
LINE
  8
Default
 10
119.309606933594
 20
85.7240051269531
 30
0.0
 11
109.347204589844
 21
96.1679992675781
 31
0.0
  0
LINE
  8
Default
 10
109.347204589844
 20
96.1679992675781
 30
0.0
 11
101.9
 21
104.5
 31
0.0
  0
LINE
  8
Default
 10
101.9
 20
104.5
 30
0.0
 11
87.0744018554688
 21
123.407995605469
 31
0.0
  0
LINE
  8
Default
 10
87.0744018554688
 20
123.407995605469
 30
0.0
 11
73.6552001953125
 21
142.964001464844
 31
0.0
  0
LINE
  8
Default
 10
73.6552001953125
 20
142.964001464844
 30
0.0
 11
61.6088012695313
 21
163.216003417969
 31
0.0
  0
LINE
  8
Default
 10
61.6088012695313
 20
163.216003417969
 30
0.0
 11
50.9015991210938
 21
184.211999511719
 31
0.0
  0
LINE
  8
Default
 10
50.9015991210938
 20
184.211999511719
 30
0.0
 11
41.5
 21
206.0
 31
0.0
  0
LINE
  8
Default
 10
41.5
 20
206.0
 30
0.0
 11
35.5207977294922
 21
222.392797851563
 31
0.0
  0
LINE
  8
Default
 10
35.5207977294922
 20
222.392797851563
 30
0.0
 11
29.9304016113281
 21
240.230419921875
 31
0.0
  0
LINE
  8
Default
 10
29.9304016113281
 20
240.230419921875
 30
0.0
 11
25.0695999145508
 21
258.221606445313
 31
0.0
  0
LINE
  8
Default
 10
25.0695999145508
 20
258.221606445313
 30
0.0
 11
21.27919921875
 21
275.0751953125
 31
0.0
  0
LINE
  8
Default
 10
21.27919921875
 20
275.0751953125
 30
0.0
 11
18.9
 21
289.5
 31
0.0
  0
LINE
  8
Default
 10
18.9
 20
289.5
 30
0.0
 11
18.5247985839844
 21
292.715185546875
 31
0.0
  0
LINE
  8
Default
 10
18.5247985839844
 20
292.715185546875
 30
0.0
 11
18.0343994140625
 21
296.837622070313
 31
0.0
  0
LINE
  8
Default
 10
18.0343994140625
 20
296.837622070313
 30
0.0
 11
17.4815994262695
 21
301.502392578125
 31
0.0
  0
LINE
  8
Default
 10
17.4815994262695
 20
301.502392578125
 30
0.0
 11
16.9192001342773
 21
306.34482421875
 31
0.0
  0
LINE
  8
Default
 10
16.9192001342773
 20
306.34482421875
 30
0.0
 11
16.4
 21
311.0
 31
0.0
  0
LINE
  8
Default
 10
16.4
 20
311.0
 30
0.0
 11
15.6831985473633
 21
318.593603515625
 31
0.0
  0
LINE
  8
Default
 10
15.6831985473633
 20
318.593603515625
 30
0.0
 11
15.1776000976563
 21
329.388793945313
 31
0.0
  0
LINE
  8
Default
 10
15.1776000976563
 20
329.388793945313
 30
0.0
 11
14.8304000854492
 21
345.38720703125
 31
0.0
  0
LINE
  8
Default
 10
14.8304000854492
 20
345.38720703125
 30
0.0
 11
14.5888000488281
 21
368.590405273438
 31
0.0
  0
LINE
  8
Default
 10
14.5888000488281
 20
368.590405273438
 30
0.0
 11
14.4
 21
401.0
 31
0.0
  0
LINE
  8
Default
 10
14.4
 20
401.0
 30
0.0
 11
14.3767990112305
 21
426.350390625
 31
0.0
  0
LINE
  8
Default
 10
14.3767990112305
 20
426.350390625
 30
0.0
 11
14.4304000854492
 21
447.80322265625
 31
0.0
  0
LINE
  8
Default
 10
14.4304000854492
 20
447.80322265625
 30
0.0
 11
14.5656005859375
 21
464.460791015625
 31
0.0
  0
LINE
  8
Default
 10
14.5656005859375
 20
464.460791015625
 30
0.0
 11
14.7871994018555
 21
475.4255859375
 31
0.0
  0
LINE
  8
Default
 10
14.7871994018555
 20
475.4255859375
 30
0.0
 11
15.1
 21
479.8
 31
0.0
  0
LINE
  8
Default
 10
15.1
 20
479.8
 30
0.0
 11
16.936799621582
 21
481.7328125
 31
0.0
  0
LINE
  8
Default
 10
16.936799621582
 20
481.7328125
 30
0.0
 11
21.2503997802734
 21
484.414404296875
 31
0.0
  0
LINE
  8
Default
 10
21.2503997802734
 20
484.414404296875
 30
0.0
 11
28.0455993652344
 21
487.849609375
 31
0.0
  0
LINE
  8
Default
 10
28.0455993652344
 20
487.849609375
 30
0.0
 11
37.3272003173828
 21
492.043212890625
 31
0.0
  0
LINE
  8
Default
 10
37.3272003173828
 20
492.043212890625
 30
0.0
 11
49.1
 21
497.0
 31
0.0
  0
LINE
  8
Default
 10
49.1
 20
497.0
 30
0.0
 11
66.5719970703125
 21
503.69755859375
 31
0.0
  0
LINE
  8
Default
 10
66.5719970703125
 20
503.69755859375
 30
0.0
 11
85.3880065917969
 21
510.068798828125
 31
0.0
  0
LINE
  8
Default
 10
85.3880065917969
 20
510.068798828125
 30
0.0
 11
104.1080078125
 21
515.6912109375
 31
0.0
  0
LINE
  8
Default
 10
104.1080078125
 20
515.6912109375
 30
0.0
 11
121.292004394531
 21
520.142431640625
 31
0.0
  0
LINE
  8
Default
 10
121.292004394531
 20
520.142431640625
 30
0.0
 11
135.5
 21
523.0
 31
0.0
  0
LINE
  8
Default
 10
135.5
 20
523.0
 30
0.0
 11
138.061596679688
 21
523.388818359375
 31
0.0
  0
LINE
  8
Default
 10
138.061596679688
 20
523.388818359375
 30
0.0
 11
141.568811035156
 21
523.926416015625
 31
0.0
  0
LINE
  8
Default
 10
141.568811035156
 20
523.926416015625
 30
0.0
 11
145.695190429688
 21
524.56962890625
 31
0.0
  0
LINE
  8
Default
 10
145.695190429688
 20
524.56962890625
 30
0.0
 11
150.114404296875
 21
525.275244140625
 31
0.0
  0
LINE
  8
Default
 10
150.114404296875
 20
525.275244140625
 30
0.0
 11
154.5
 21
526.0
 31
0.0
  0
LINE
  8
Default
 10
154.5
 20
526.0
 30
0.0
 11
162.725598144531
 21
527.119189453125
 31
0.0
  0
LINE
  8
Default
 10
162.725598144531
 20
527.119189453125
 30
0.0
 11
172.352807617188
 21
528.16162109375
 31
0.0
  0
LINE
  8
Default
 10
172.352807617188
 20
528.16162109375
 30
0.0
 11
182.767199707031
 21
529.0744140625
 31
0.0
  0
LINE
  8
Default
 10
182.767199707031
 20
529.0744140625
 30
0.0
 11
193.354406738281
 21
529.80478515625
 31
0.0
  0
LINE
  8
Default
 10
193.354406738281
 20
529.80478515625
 30
0.0
 11
203.5
 21
530.3
 31
0.0
  0
LINE
  8
Default
 10
203.5
 20
530.3
 30
0.0
 11
209.118383789063
 21
530.394384765625
 31
0.0
  0
LINE
  8
Default
 10
209.118383789063
 20
530.394384765625
 30
0.0
 11
215.3751953125
 21
530.31123046875
 31
0.0
  0
LINE
  8
Default
 10
215.3751953125
 20
530.31123046875
 30
0.0
 11
222.572802734375
 21
530.0408203125
 31
0.0
  0
LINE
  8
Default
 10
222.572802734375
 20
530.0408203125
 30
0.0
 11
231.013598632813
 21
529.5736328125
 31
0.0
  0
LINE
  8
Default
 10
231.013598632813
 20
529.5736328125
 30
0.0
 11
241.0
 21
528.9
 31
0.0
  0
LINE
  8
Default
 10
380.5
 20
448.8
 30
0.0
 11
377.250390625
 21
445.22958984375
 31
0.0
  0
LINE
  8
Default
 10
377.250390625
 20
445.22958984375
 30
0.0
 11
373.583203125
 21
441.21279296875
 31
0.0
  0
LINE
  8
Default
 10
373.583203125
 20
441.21279296875
 30
0.0
 11
369.800805664063
 21
437.07119140625
 31
0.0
  0
LINE
  8
Default
 10
369.800805664063
 20
437.07119140625
 30
0.0
 11
366.205615234375
 21
433.126416015625
 31
0.0
  0
LINE
  8
Default
 10
366.205615234375
 20
433.126416015625
 30
0.0
 11
363.1
 21
429.7
 31
0.0
  0
LINE
  8
Default
 10
363.1
 20
429.7
 30
0.0
 11
360.118408203125
 21
426.469580078125
 31
0.0
  0
LINE
  8
Default
 10
360.118408203125
 20
426.469580078125
 30
0.0
 11
356.863208007813
 21
422.960791015625
 31
0.0
  0
LINE
  8
Default
 10
356.863208007813
 20
422.960791015625
 30
0.0
 11
353.588818359375
 21
419.447216796875
 31
0.0
  0
LINE
  8
Default
 10
353.588818359375
 20
419.447216796875
 30
0.0
 11
350.549609375
 21
416.202392578125
 31
0.0
  0
LINE
  8
Default
 10
350.549609375
 20
416.202392578125
 30
0.0
 11
348.0
 21
413.5
 31
0.0
  0
LINE
  8
Default
 10
348.0
 20
413.5
 30
0.0
 11
345.6248046875
 21
410.982421875
 31
0.0
  0
LINE
  8
Default
 10
345.6248046875
 20
410.982421875
 30
0.0
 11
342.96640625
 21
408.143212890625
 31
0.0
  0
LINE
  8
Default
 10
342.96640625
 20
408.143212890625
 30
0.0
 11
340.24560546875
 21
405.21279296875
 31
0.0
  0
LINE
  8
Default
 10
340.24560546875
 20
405.21279296875
 30
0.0
 11
337.683203125
 21
402.421606445313
 31
0.0
  0
LINE
  8
Default
 10
337.683203125
 20
402.421606445313
 30
0.0
 11
335.5
 21
400.0
 31
0.0
  0
LINE
  8
Default
 10
335.5
 20
400.0
 30
0.0
 11
333.088793945313
 21
397.327172851563
 31
0.0
  0
LINE
  8
Default
 10
333.088793945313
 20
397.327172851563
 30
0.0
 11
329.8904296875
 21
393.83359375
 31
0.0
  0
LINE
  8
Default
 10
329.8904296875
 20
393.83359375
 30
0.0
 11
326.197583007813
 21
389.826416015625
 31
0.0
  0
LINE
  8
Default
 10
326.197583007813
 20
389.826416015625
 30
0.0
 11
322.303198242188
 21
385.612817382813
 31
0.0
  0
LINE
  8
Default
 10
322.303198242188
 20
385.612817382813
 30
0.0
 11
318.5
 21
381.5
 31
0.0
  0
LINE
  8
Default
 10
318.5
 20
381.5
 30
0.0
 11
314.4919921875
 21
377.159204101563
 31
0.0
  0
LINE
  8
Default
 10
314.4919921875
 20
377.159204101563
 30
0.0
 11
310.028002929688
 21
372.309594726563
 31
0.0
  0
LINE
  8
Default
 10
310.028002929688
 20
372.309594726563
 30
0.0
 11
305.467993164063
 21
367.330419921875
 31
0.0
  0
LINE
  8
Default
 10
305.467993164063
 20
367.330419921875
 30
0.0
 11
301.171997070313
 21
362.600805664063
 31
0.0
  0
LINE
  8
Default
 10
301.171997070313
 20
362.600805664063
 30
0.0
 11
297.5
 21
358.5
 31
0.0
  0
LINE
  8
Default
 10
297.5
 20
358.5
 30
0.0
 11
294.176000976563
 21
354.870385742188
 31
0.0
  0
LINE
  8
Default
 10
294.176000976563
 20
354.870385742188
 30
0.0
 11
290.947998046875
 21
351.351196289063
 31
0.0
  0
LINE
  8
Default
 10
290.947998046875
 20
351.351196289063
 30
0.0
 11
288.032006835938
 21
348.196801757813
 31
0.0
  0
LINE
  8
Default
 10
288.032006835938
 20
348.196801757813
 30
0.0
 11
285.643994140625
 21
345.661596679688
 31
0.0
  0
LINE
  8
Default
 10
285.643994140625
 20
345.661596679688
 30
0.0
 11
284.0
 21
344.0
 31
0.0
  0
LINE
  8
Default
 10
284.0
 20
344.0
 30
0.0
 11
282.496801757813
 21
342.440795898438
 31
0.0
  0
LINE
  8
Default
 10
282.496801757813
 20
342.440795898438
 30
0.0
 11
280.398413085938
 21
340.190405273438
 31
0.0
  0
LINE
  8
Default
 10
280.398413085938
 20
340.190405273438
 30
0.0
 11
277.901611328125
 21
337.469604492188
 31
0.0
  0
LINE
  8
Default
 10
277.901611328125
 20
337.469604492188
 30
0.0
 11
275.203198242188
 21
334.49921875
 31
0.0
  0
LINE
  8
Default
 10
275.203198242188
 20
334.49921875
 30
0.0
 11
272.5
 21
331.5
 31
0.0
  0
LINE
  8
Default
 10
272.5
 20
331.5
 30
0.0
 11
269.659985351563
 21
328.351171875
 31
0.0
  0
LINE
  8
Default
 10
269.659985351563
 20
328.351171875
 30
0.0
 11
266.580004882813
 21
324.957592773438
 31
0.0
  0
LINE
  8
Default
 10
266.580004882813
 20
324.957592773438
 30
0.0
 11
263.5
 21
321.578393554688
 31
0.0
  0
LINE
  8
Default
 10
263.5
 20
321.578393554688
 30
0.0
 11
260.660009765625
 21
318.472802734375
 31
0.0
  0
LINE
  8
Default
 10
260.660009765625
 20
318.472802734375
 30
0.0
 11
258.3
 21
315.9
 31
0.0
  0
LINE
  8
Default
 10
258.3
 20
315.9
 30
0.0
 11
256.30078125
 21
313.79677734375
 31
0.0
  0
LINE
  8
Default
 10
256.30078125
 20
313.79677734375
 30
0.0
 11
254.57041015625
 21
311.890405273438
 31
0.0
  0
LINE
  8
Default
 10
254.57041015625
 20
311.890405273438
 30
0.0
 11
253.209594726563
 21
310.305615234375
 31
0.0
  0
LINE
  8
Default
 10
253.209594726563
 20
310.305615234375
 30
0.0
 11
252.319213867188
 21
309.167211914063
 31
0.0
  0
LINE
  8
Default
 10
252.319213867188
 20
309.167211914063
 30
0.0
 11
252.0
 21
308.6
 31
0.0
  0
LINE
  8
Default
 10
252.0
 20
308.6
 30
0.0
 11
252.739990234375
 21
307.4671875
 31
0.0
  0
LINE
  8
Default
 10
252.739990234375
 20
307.4671875
 30
0.0
 11
254.8
 21
304.649609375
 31
0.0
  0
LINE
  8
Default
 10
254.8
 20
304.649609375
 30
0.0
 11
257.939990234375
 21
300.478393554688
 31
0.0
  0
LINE
  8
Default
 10
257.939990234375
 20
300.478393554688
 30
0.0
 11
261.919995117188
 21
295.284814453125
 31
0.0
  0
LINE
  8
Default
 10
261.919995117188
 20
295.284814453125
 30
0.0
 11
266.5
 21
289.4
 31
0.0
  0
LINE
  8
Default
 10
266.5
 20
289.4
 30
0.0
 11
271.14716796875
 21
283.434399414063
 31
0.0
  0
LINE
  8
Default
 10
271.14716796875
 20
283.434399414063
 30
0.0
 11
275.309594726563
 21
278.011206054688
 31
0.0
  0
LINE
  8
Default
 10
275.309594726563
 20
278.011206054688
 30
0.0
 11
278.718408203125
 21
273.480786132813
 31
0.0
  0
LINE
  8
Default
 10
278.718408203125
 20
273.480786132813
 30
0.0
 11
281.104809570313
 21
270.193603515625
 31
0.0
  0
LINE
  8
Default
 10
281.104809570313
 20
270.193603515625
 30
0.0
 11
282.2
 21
268.5
 31
0.0
  0
LINE
  8
Default
 10
282.2
 20
268.5
 30
0.0
 11
282.792797851563
 21
266.342358398438
 31
0.0
  0
LINE
  8
Default
 10
282.792797851563
 20
266.342358398438
 30
0.0
 11
282.526416015625
 21
264.031201171875
 31
0.0
  0
LINE
  8
Default
 10
282.526416015625
 20
264.031201171875
 30
0.0
 11
281.213598632813
 21
261.148803710938
 31
0.0
  0
LINE
  8
Default
 10
281.213598632813
 20
261.148803710938
 30
0.0
 11
278.667211914063
 21
257.277612304688
 31
0.0
  0
LINE
  8
Default
 10
278.667211914063
 20
257.277612304688
 30
0.0
 11
274.7
 21
252.0
 31
0.0
  0
LINE
  8
Default
 10
274.7
 20
252.0
 30
0.0
 11
271.68798828125
 21
248.070385742188
 31
0.0
  0
LINE
  8
Default
 10
271.68798828125
 20
248.070385742188
 30
0.0
 11
267.692016601563
 21
242.835205078125
 31
0.0
  0
LINE
  8
Default
 10
267.692016601563
 20
242.835205078125
 30
0.0
 11
263.071997070313
 21
236.764794921875
 31
0.0
  0
LINE
  8
Default
 10
263.071997070313
 20
236.764794921875
 30
0.0
 11
258.188012695313
 21
230.329614257813
 31
0.0
  0
LINE
  8
Default
 10
258.188012695313
 20
230.329614257813
 30
0.0
 11
253.4
 21
224.0
 31
0.0
  0
LINE
  8
Default
 10
253.4
 20
224.0
 30
0.0
 11
238.381591796875
 21
204.302392578125
 31
0.0
  0
LINE
  8
Default
 10
238.381591796875
 20
204.302392578125
 30
0.0
 11
227.332788085938
 21
189.923205566406
 31
0.0
  0
LINE
  8
Default
 10
227.332788085938
 20
189.923205566406
 30
0.0
 11
219.783203125
 21
180.252795410156
 31
0.0
  0
LINE
  8
Default
 10
219.783203125
 20
180.252795410156
 30
0.0
 11
215.26240234375
 21
174.681604003906
 31
0.0
  0
LINE
  8
Default
 10
215.26240234375
 20
174.681604003906
 30
0.0
 11
213.3
 21
172.6
 31
0.0
  0
LINE
  8
Default
 10
213.3
 20
172.6
 30
0.0
 11
211.787182617188
 21
172.256787109375
 31
0.0
  0
LINE
  8
Default
 10
211.787182617188
 20
172.256787109375
 30
0.0
 11
210.05361328125
 21
172.7583984375
 31
0.0
  0
LINE
  8
Default
 10
210.05361328125
 20
172.7583984375
 30
0.0
 11
208.16640625
 21
174.061608886719
 31
0.0
  0
LINE
  8
Default
 10
208.16640625
 20
174.061608886719
 30
0.0
 11
206.192797851563
 21
176.123205566406
 31
0.0
  0
LINE
  8
Default
 10
206.192797851563
 20
176.123205566406
 30
0.0
 11
204.2
 21
178.9
 31
0.0
  0
LINE
  8
Default
 10
204.2
 20
178.9
 30
0.0
 11
203.133581542969
 21
180.440795898438
 31
0.0
  0
LINE
  8
Default
 10
203.133581542969
 20
180.440795898438
 30
0.0
 11
202.02880859375
 21
181.986401367188
 31
0.0
  0
LINE
  8
Default
 10
202.02880859375
 20
181.986401367188
 30
0.0
 11
200.967199707031
 21
183.421606445313
 31
0.0
  0
LINE
  8
Default
 10
200.967199707031
 20
183.421606445313
 30
0.0
 11
200.030407714844
 21
184.631201171875
 31
0.0
  0
LINE
  8
Default
 10
200.030407714844
 20
184.631201171875
 30
0.0
 11
199.3
 21
185.5
 31
0.0
  0
LINE
  8
Default
 10
199.3
 20
185.5
 30
0.0
 11
198.623999023438
 21
186.210400390625
 31
0.0
  0
LINE
  8
Default
 10
198.623999023438
 20
186.210400390625
 30
0.0
 11
197.948010253906
 21
186.983203125
 31
0.0
  0
LINE
  8
Default
 10
197.948010253906
 20
186.983203125
 30
0.0
 11
197.319995117188
 21
187.760803222656
 31
0.0
  0
LINE
  8
Default
 10
197.319995117188
 20
187.760803222656
 30
0.0
 11
196.788000488281
 21
188.485607910156
 31
0.0
  0
LINE
  8
Default
 10
196.788000488281
 20
188.485607910156
 30
0.0
 11
196.4
 21
189.1
 31
0.0
  0
LINE
  8
Default
 10
196.4
 20
189.1
 30
0.0
 11
195.965600585938
 21
189.804797363281
 31
0.0
  0
LINE
  8
Default
 10
195.965600585938
 20
189.804797363281
 30
0.0
 11
195.300793457031
 21
190.778405761719
 31
0.0
  0
LINE
  8
Default
 10
195.300793457031
 20
190.778405761719
 30
0.0
 11
194.463195800781
 21
191.929602050781
 31
0.0
  0
LINE
  8
Default
 10
194.463195800781
 20
191.929602050781
 30
0.0
 11
193.510400390625
 21
193.167199707031
 31
0.0
  0
LINE
  8
Default
 10
193.510400390625
 20
193.167199707031
 30
0.0
 11
192.5
 21
194.4
 31
0.0
  0
LINE
  8
Default
 10
192.5
 20
194.4
 30
0.0
 11
189.6671875
 21
197.93759765625
 31
0.0
  0
LINE
  8
Default
 10
189.6671875
 20
197.93759765625
 30
0.0
 11
186.949609375
 21
201.364794921875
 31
0.0
  0
LINE
  8
Default
 10
186.949609375
 20
201.364794921875
 30
0.0
 11
184.198400878906
 21
204.883203125
 31
0.0
  0
LINE
  8
Default
 10
184.198400878906
 20
204.883203125
 30
0.0
 11
181.264794921875
 21
208.694409179688
 31
0.0
  0
LINE
  8
Default
 10
181.264794921875
 20
208.694409179688
 30
0.0
 11
178.0
 21
213.0
 31
0.0
  0
LINE
  8
Default
 10
178.0
 20
213.0
 30
0.0
 11
175.991198730469
 21
215.649584960938
 31
0.0
  0
LINE
  8
Default
 10
175.991198730469
 20
215.649584960938
 30
0.0
 11
173.689599609375
 21
218.644799804688
 31
0.0
  0
LINE
  8
Default
 10
173.689599609375
 20
218.644799804688
 30
0.0
 11
171.282397460938
 21
221.755200195313
 31
0.0
  0
LINE
  8
Default
 10
171.282397460938
 20
221.755200195313
 30
0.0
 11
168.956799316406
 21
224.750390625
 31
0.0
  0
LINE
  8
Default
 10
168.956799316406
 20
224.750390625
 30
0.0
 11
166.9
 21
227.4
 31
0.0
  0
LINE
  8
Default
 10
166.9
 20
227.4
 30
0.0
 11
164.955993652344
 21
229.8751953125
 31
0.0
  0
LINE
  8
Default
 10
164.955993652344
 20
229.8751953125
 30
0.0
 11
162.940002441406
 21
232.489599609375
 31
0.0
  0
LINE
  8
Default
 10
162.940002441406
 20
232.489599609375
 30
0.0
 11
160.996008300781
 21
235.046411132813
 31
0.0
  0
LINE
  8
Default
 10
160.996008300781
 20
235.046411132813
 30
0.0
 11
159.268005371094
 21
237.348803710938
 31
0.0
  0
LINE
  8
Default
 10
159.268005371094
 20
237.348803710938
 30
0.0
 11
157.9
 21
239.2
 31
0.0
  0
LINE
  8
Default
 10
157.9
 20
239.2
 30
0.0
 11
154.687194824219
 21
243.527197265625
 31
0.0
  0
LINE
  8
Default
 10
154.687194824219
 20
243.527197265625
 30
0.0
 11
150.989611816406
 21
248.425610351563
 31
0.0
  0
LINE
  8
Default
 10
150.989611816406
 20
248.425610351563
 30
0.0
 11
147.2583984375
 21
253.290405273438
 31
0.0
  0
LINE
  8
Default
 10
147.2583984375
 20
253.290405273438
 30
0.0
 11
143.944799804688
 21
257.516796875
 31
0.0
  0
LINE
  8
Default
 10
143.944799804688
 20
257.516796875
 30
0.0
 11
141.5
 21
260.5
 31
0.0
  0
LINE
  8
Default
 10
141.5
 20
260.5
 30
0.0
 11
139.681591796875
 21
262.881591796875
 31
0.0
  0
LINE
  8
Default
 10
139.681591796875
 20
262.881591796875
 30
0.0
 11
139.12080078125
 21
264.984790039063
 31
0.0
  0
LINE
  8
Default
 10
139.12080078125
 20
264.984790039063
 30
0.0
 11
140.139208984375
 21
267.707202148438
 31
0.0
  0
LINE
  8
Default
 10
140.139208984375
 20
267.707202148438
 30
0.0
 11
143.0583984375
 21
271.946411132813
 31
0.0
  0
LINE
  8
Default
 10
143.0583984375
 20
271.946411132813
 30
0.0
 11
148.2
 21
278.6
 31
0.0
  0
LINE
  8
Default
 10
148.2
 20
278.6
 30
0.0
 11
149.678393554688
 21
280.48798828125
 31
0.0
  0
LINE
  8
Default
 10
149.678393554688
 20
280.48798828125
 30
0.0
 11
151.819201660156
 21
283.216015625
 31
0.0
  0
LINE
  8
Default
 10
151.819201660156
 20
283.216015625
 30
0.0
 11
154.42080078125
 21
286.52001953125
 31
0.0
  0
LINE
  8
Default
 10
154.42080078125
 20
286.52001953125
 30
0.0
 11
157.281604003906
 21
290.136010742188
 31
0.0
  0
LINE
  8
Default
 10
157.281604003906
 20
290.136010742188
 30
0.0
 11
160.2
 21
293.8
 31
0.0
  0
LINE
  8
Default
 10
160.2
 20
293.8
 30
0.0
 11
166.340002441406
 21
301.572778320313
 31
0.0
  0
LINE
  8
Default
 10
166.340002441406
 20
301.572778320313
 30
0.0
 11
169.576000976563
 21
306.278393554688
 31
0.0
  0
LINE
  8
Default
 10
169.576000976563
 20
306.278393554688
 30
0.0
 11
170.172009277344
 21
309.337573242188
 31
0.0
  0
LINE
  8
Default
 10
170.172009277344
 20
309.337573242188
 30
0.0
 11
168.392004394531
 21
312.17119140625
 31
0.0
  0
LINE
  8
Default
 10
168.392004394531
 20
312.17119140625
 30
0.0
 11
164.5
 21
316.2
 31
0.0
  0
LINE
  8
Default
 10
164.5
 20
316.2
 30
0.0
 11
155.6255859375
 21
325.61357421875
 31
0.0
  0
LINE
  8
Default
 10
155.6255859375
 20
325.61357421875
 30
0.0
 11
144.864794921875
 21
337.172827148438
 31
0.0
  0
LINE
  8
Default
 10
144.864794921875
 20
337.172827148438
 30
0.0
 11
134.051208496094
 21
348.89521484375
 31
0.0
  0
LINE
  8
Default
 10
134.051208496094
 20
348.89521484375
 30
0.0
 11
125.018395996094
 21
358.798413085938
 31
0.0
  0
LINE
  8
Default
 10
125.018395996094
 20
358.798413085938
 30
0.0
 11
119.6
 21
364.9
 31
0.0
  0
LINE
  8
Default
 10
119.6
 20
364.9
 30
0.0
 11
118.761596679688
 21
365.807983398438
 31
0.0
  0
LINE
  8
Default
 10
118.761596679688
 20
365.807983398438
 30
0.0
 11
117.740808105469
 21
366.907983398438
 31
0.0
  0
LINE
  8
Default
 10
117.740808105469
 20
366.907983398438
 30
0.0
 11
116.619201660156
 21
368.103979492188
 31
0.0
  0
LINE
  8
Default
 10
116.619201660156
 20
368.103979492188
 30
0.0
 11
115.478405761719
 21
369.3
 31
0.0
  0
LINE
  8
Default
 10
115.478405761719
 20
369.3
 30
0.0
 11
114.4
 21
370.4
 31
0.0
  0
LINE
  8
Default
 10
114.4
 20
370.4
 30
0.0
 11
112.66240234375
 21
372.217578125
 31
0.0
  0
LINE
  8
Default
 10
112.66240234375
 20
372.217578125
 30
0.0
 11
109.6912109375
 21
375.412817382813
 31
0.0
  0
LINE
  8
Default
 10
109.6912109375
 20
375.412817382813
 30
0.0
 11
105.788806152344
 21
379.659204101563
 31
0.0
  0
LINE
  8
Default
 10
105.788806152344
 20
379.659204101563
 30
0.0
 11
101.257598876953
 21
384.630419921875
 31
0.0
  0
LINE
  8
Default
 10
101.257598876953
 20
384.630419921875
 30
0.0
 11
96.4
 21
390.0
 31
0.0
  0
LINE
  8
Default
 10
96.4
 20
390.0
 30
0.0
 11
91.5432006835938
 21
395.368774414063
 31
0.0
  0
LINE
  8
Default
 10
91.5432006835938
 20
395.368774414063
 30
0.0
 11
87.0175964355469
 21
400.334399414063
 31
0.0
  0
LINE
  8
Default
 10
87.0175964355469
 20
400.334399414063
 30
0.0
 11
83.1303955078125
 21
404.565600585938
 31
0.0
  0
LINE
  8
Default
 10
83.1303955078125
 20
404.565600585938
 30
0.0
 11
80.1888000488281
 21
407.731201171875
 31
0.0
  0
LINE
  8
Default
 10
80.1888000488281
 20
407.731201171875
 30
0.0
 11
78.5
 21
409.5
 31
0.0
  0
LINE
  8
Default
 10
78.5
 20
409.5
 30
0.0
 11
73.4007995605469
 21
414.925634765625
 31
0.0
  0
LINE
  8
Default
 10
73.4007995605469
 20
414.925634765625
 30
0.0
 11
64.8264038085938
 21
424.2248046875
 31
0.0
  0
LINE
  8
Default
 10
64.8264038085938
 20
424.2248046875
 30
0.0
 11
54.9416015625
 21
435.031201171875
 31
0.0
  0
LINE
  8
Default
 10
54.9416015625
 20
435.031201171875
 30
0.0
 11
45.9111999511719
 21
444.97841796875
 31
0.0
  0
LINE
  8
Default
 10
45.9111999511719
 20
444.97841796875
 30
0.0
 11
39.9
 21
451.7
 31
0.0
  0
LINE
  8
Default
 10
39.9
 20
451.7
 30
0.0
 11
38.1415985107422
 21
453.650390625
 31
0.0
  0
LINE
  8
Default
 10
38.1415985107422
 20
453.650390625
 30
0.0
 11
36.5367980957031
 21
455.351220703125
 31
0.0
  0
LINE
  8
Default
 10
36.5367980957031
 20
455.351220703125
 30
0.0
 11
35.1911987304688
 21
456.69677734375
 31
0.0
  0
LINE
  8
Default
 10
35.1911987304688
 20
456.69677734375
 30
0.0
 11
34.210400390625
 21
457.581591796875
 31
0.0
  0
LINE
  8
Default
 10
34.210400390625
 20
457.581591796875
 30
0.0
 11
33.7
 21
457.9
 31
0.0
  0
LINE
  8
Default
 10
33.7
 20
457.9
 30
0.0
 11
33.4855987548828
 21
454.274365234375
 31
0.0
  0
LINE
  8
Default
 10
33.4855987548828
 20
454.274365234375
 30
0.0
 11
33.3288024902344
 21
444.08720703125
 31
0.0
  0
LINE
  8
Default
 10
33.3288024902344
 20
444.08720703125
 30
0.0
 11
33.2391998291016
 21
428.552783203125
 31
0.0
  0
LINE
  8
Default
 10
33.2391998291016
 20
428.552783203125
 30
0.0
 11
33.2264007568359
 21
408.885620117188
 31
0.0
  0
LINE
  8
Default
 10
33.2264007568359
 20
408.885620117188
 30
0.0
 11
33.3
 21
386.3
 31
0.0
  0
LINE
  8
Default
 10
33.3
 20
386.3
 30
0.0
 11
33.5847991943359
 21
343.398388671875
 31
0.0
  0
LINE
  8
Default
 10
33.5847991943359
 20
343.398388671875
 30
0.0
 11
34.3303985595703
 21
315.07919921875
 31
0.0
  0
LINE
  8
Default
 10
34.3303985595703
 20
315.07919921875
 30
0.0
 11
36.0936004638672
 21
294.780810546875
 31
0.0
  0
LINE
  8
Default
 10
36.0936004638672
 20
294.780810546875
 30
0.0
 11
39.431201171875
 21
275.9416015625
 31
0.0
  0
LINE
  8
Default
 10
39.431201171875
 20
275.9416015625
 30
0.0
 11
44.9
 21
252.0
 31
0.0
  0
LINE
  8
Default
 10
44.9
 20
252.0
 30
0.0
 11
46.5999969482422
 21
245.909594726563
 31
0.0
  0
LINE
  8
Default
 10
46.5999969482422
 20
245.909594726563
 30
0.0
 11
49.1880004882813
 21
237.596801757813
 31
0.0
  0
LINE
  8
Default
 10
49.1880004882813
 20
237.596801757813
 30
0.0
 11
52.1359985351563
 21
228.67919921875
 31
0.0
  0
LINE
  8
Default
 10
52.1359985351563
 20
228.67919921875
 30
0.0
 11
54.9160034179688
 21
220.7744140625
 31
0.0
  0
LINE
  8
Default
 10
54.9160034179688
 20
220.7744140625
 30
0.0
 11
57.0
 21
215.5
 31
0.0
  0
LINE
  8
Default
 10
57.0
 20
215.5
 30
0.0
 11
57.8911926269531
 21
213.483203125
 31
0.0
  0
LINE
  8
Default
 10
57.8911926269531
 20
213.483203125
 30
0.0
 11
58.7296020507813
 21
211.485595703125
 31
0.0
  0
LINE
  8
Default
 10
58.7296020507813
 20
211.485595703125
 30
0.0
 11
59.46240234375
 21
209.646411132813
 31
0.0
  0
LINE
  8
Default
 10
59.46240234375
 20
209.646411132813
 30
0.0
 11
60.0367980957031
 21
208.104809570313
 31
0.0
  0
LINE
  8
Default
 10
60.0367980957031
 20
208.104809570313
 30
0.0
 11
60.4
 21
207.0
 31
0.0
  0
LINE
  8
Default
 10
60.4
 20
207.0
 30
0.0
 11
62.6256042480469
 21
201.33359375
 31
0.0
  0
LINE
  8
Default
 10
62.6256042480469
 20
201.33359375
 30
0.0
 11
66.6367980957031
 21
192.580810546875
 31
0.0
  0
LINE
  8
Default
 10
66.6367980957031
 20
192.580810546875
 30
0.0
 11
71.6752014160156
 21
182.311206054688
 31
0.0
  0
LINE
  8
Default
 10
71.6752014160156
 20
182.311206054688
 30
0.0
 11
76.9824035644531
 21
172.094396972656
 31
0.0
  0
LINE
  8
Default
 10
76.9824035644531
 20
172.094396972656
 30
0.0
 11
81.8
 21
163.5
 31
0.0
  0
LINE
  8
Default
 10
81.8
 20
163.5
 30
0.0
 11
88.4967956542969
 21
152.633581542969
 31
0.0
  0
LINE
  8
Default
 10
88.4967956542969
 20
152.633581542969
 30
0.0
 11
95.5824035644531
 21
141.944812011719
 31
0.0
  0
LINE
  8
Default
 10
95.5824035644531
 20
141.944812011719
 30
0.0
 11
102.989599609375
 21
131.539196777344
 31
0.0
  0
LINE
  8
Default
 10
102.989599609375
 20
131.539196777344
 30
0.0
 11
110.651196289063
 21
121.522399902344
 31
0.0
  0
LINE
  8
Default
 10
110.651196289063
 20
121.522399902344
 30
0.0
 11
118.5
 21
112.0
 31
0.0
  0
LINE
  8
Default
 10
118.5
 20
112.0
 30
0.0
 11
124.087194824219
 21
105.845593261719
 31
0.0
  0
LINE
  8
Default
 10
124.087194824219
 20
105.845593261719
 30
0.0
 11
131.829614257813
 21
97.8288024902344
 31
0.0
  0
LINE
  8
Default
 10
131.829614257813
 20
97.8288024902344
 30
0.0
 11
140.258410644531
 21
89.3992004394531
 31
0.0
  0
LINE
  8
Default
 10
140.258410644531
 20
89.3992004394531
 30
0.0
 11
147.904797363281
 21
82.0064025878906
 31
0.0
  0
LINE
  8
Default
 10
147.904797363281
 20
82.0064025878906
 30
0.0
 11
153.3
 21
77.1
 31
0.0
  0
LINE
  8
Default
 10
153.3
 20
77.1
 30
0.0
 11
161.355981445313
 21
70.6608032226563
 31
0.0
  0
LINE
  8
Default
 10
161.355981445313
 20
70.6608032226563
 30
0.0
 11
170.371997070313
 21
63.7224060058594
 31
0.0
  0
LINE
  8
Default
 10
170.371997070313
 20
63.7224060058594
 30
0.0
 11
178.859997558594
 21
57.3935974121094
 31
0.0
  0
LINE
  8
Default
 10
178.859997558594
 20
57.3935974121094
 30
0.0
 11
185.332006835938
 21
52.783203125
 31
0.0
  0
LINE
  8
Default
 10
185.332006835938
 20
52.783203125
 30
0.0
 11
188.3
 21
51.0
 31
0.0
  0
LINE
  8
Default
 10
188.3
 20
51.0
 30
0.0
 11
188.773596191406
 21
50.8063995361328
 31
0.0
  0
LINE
  8
Default
 10
188.773596191406
 20
50.8063995361328
 30
0.0
 11
189.760803222656
 21
50.2672027587891
 31
0.0
  0
LINE
  8
Default
 10
189.760803222656
 20
50.2672027587891
 30
0.0
 11
191.151196289063
 21
49.4447998046875
 31
0.0
  0
LINE
  8
Default
 10
191.151196289063
 20
49.4447998046875
 30
0.0
 11
192.834399414063
 21
48.4016021728516
 31
0.0
  0
LINE
  8
Default
 10
192.834399414063
 20
48.4016021728516
 30
0.0
 11
194.7
 21
47.2
 31
0.0
  0
LINE
  8
Default
 10
194.7
 20
47.2
 30
0.0
 11
196.815991210938
 21
45.8511962890625
 31
0.0
  0
LINE
  8
Default
 10
196.815991210938
 20
45.8511962890625
 30
0.0
 11
199.19599609375
 21
44.4016021728516
 31
0.0
  0
LINE
  8
Default
 10
199.19599609375
 20
44.4016021728516
 30
0.0
 11
201.648010253906
 21
42.9664001464844
 31
0.0
  0
LINE
  8
Default
 10
201.648010253906
 20
42.9664001464844
 30
0.0
 11
203.980004882813
 21
41.6608001708984
 31
0.0
  0
LINE
  8
Default
 10
203.980004882813
 20
41.6608001708984
 30
0.0
 11
206.0
 21
40.6
 31
0.0
  0
LINE
  8
Default
 10
206.0
 20
40.6
 30
0.0
 11
211.5
 21
37.8
 31
0.0
  0
LINE
  8
Default
 10
211.5
 20
37.8
 30
0.0
 11
217.7
 21
41.2
 31
0.0
  0
LINE
  8
Default
 10
217.7
 20
41.2
 30
0.0
 11
223.968774414063
 21
44.6551971435547
 31
0.0
  0
LINE
  8
Default
 10
223.968774414063
 20
44.6551971435547
 30
0.0
 11
229.522412109375
 21
47.8896026611328
 31
0.0
  0
LINE
  8
Default
 10
229.522412109375
 20
47.8896026611328
 30
0.0
 11
234.821606445313
 21
51.1864013671875
 31
0.0
  0
LINE
  8
Default
 10
234.821606445313
 20
51.1864013671875
 30
0.0
 11
240.327197265625
 21
54.8288024902344
 31
0.0
  0
LINE
  8
Default
 10
240.327197265625
 20
54.8288024902344
 30
0.0
 11
246.5
 21
59.1
 31
0.0
  0
LINE
  8
Default
 10
246.5
 20
59.1
 30
0.0
 11
252.710400390625
 21
63.6903991699219
 31
0.0
  0
LINE
  8
Default
 10
252.710400390625
 20
63.6903991699219
 30
0.0
 11
259.6072265625
 21
68.9912048339844
 31
0.0
  0
LINE
  8
Default
 10
259.6072265625
 20
68.9912048339844
 30
0.0
 11
266.148803710938
 21
74.1768005371094
 31
0.0
  0
LINE
  8
Default
 10
266.148803710938
 20
74.1768005371094
 30
0.0
 11
271.293603515625
 21
78.4216003417969
 31
0.0
  0
LINE
  8
Default
 10
271.293603515625
 20
78.4216003417969
 30
0.0
 11
274.0
 21
80.9
 31
0.0
  0
LINE
  8
Default
 10
274.0
 20
80.9
 30
0.0
 11
274.599975585938
 21
81.4871948242188
 31
0.0
  0
LINE
  8
Default
 10
274.599975585938
 20
81.4871948242188
 30
0.0
 11
275.944018554688
 21
82.7896057128906
 31
0.0
  0
LINE
  8
Default
 10
275.944018554688
 20
82.7896057128906
 30
0.0
 11
277.88798828125
 21
84.6583984375
 31
0.0
  0
LINE
  8
Default
 10
277.88798828125
 20
84.6583984375
 30
0.0
 11
280.288012695313
 21
86.9448059082031
 31
0.0
  0
LINE
  8
Default
 10
280.288012695313
 20
86.9448059082031
 30
0.0
 11
283.0
 21
89.5
 31
0.0
  0
LINE
  8
Default
 10
283.0
 20
89.5
 30
0.0
 11
290.956005859375
 21
97.3432006835938
 31
0.0
  0
LINE
  8
Default
 10
290.956005859375
 20
97.3432006835938
 30
0.0
 11
298.840014648438
 21
105.709606933594
 31
0.0
  0
LINE
  8
Default
 10
298.840014648438
 20
105.709606933594
 30
0.0
 11
306.436010742188
 21
114.35439453125
 31
0.0
  0
LINE
  8
Default
 10
306.436010742188
 20
114.35439453125
 30
0.0
 11
313.528002929688
 21
123.032800292969
 31
0.0
  0
LINE
  8
Default
 10
313.528002929688
 20
123.032800292969
 30
0.0
 11
319.9
 21
131.5
 31
0.0
  0
LINE
  8
Default
 10
319.9
 20
131.5
 30
0.0
 11
321.5927734375
 21
133.907189941406
 31
0.0
  0
LINE
  8
Default
 10
321.5927734375
 20
133.907189941406
 30
0.0
 11
323.338403320313
 21
136.333605957031
 31
0.0
  0
LINE
  8
Default
 10
323.338403320313
 20
136.333605957031
 30
0.0
 11
324.997607421875
 21
138.606396484375
 31
0.0
  0
LINE
  8
Default
 10
324.997607421875
 20
138.606396484375
 30
0.0
 11
326.431201171875
 21
140.552795410156
 31
0.0
  0
LINE
  8
Default
 10
326.431201171875
 20
140.552795410156
 30
0.0
 11
327.5
 21
142.0
 31
0.0
  0
LINE
  8
Default
 10
327.5
 20
142.0
 30
0.0
 11
329.9248046875
 21
145.386401367188
 31
0.0
  0
LINE
  8
Default
 10
329.9248046875
 20
145.386401367188
 30
0.0
 11
332.930395507813
 21
149.843200683594
 31
0.0
  0
LINE
  8
Default
 10
332.930395507813
 20
149.843200683594
 30
0.0
 11
335.873583984375
 21
154.376806640625
 31
0.0
  0
LINE
  8
Default
 10
335.873583984375
 20
154.376806640625
 30
0.0
 11
338.111206054688
 21
157.993603515625
 31
0.0
  0
LINE
  8
Default
 10
338.111206054688
 20
157.993603515625
 30
0.0
 11
339.0
 21
159.7
 31
0.0
  0
LINE
  8
Default
 10
339.0
 20
159.7
 30
0.0
 11
339.216796875
 21
160.192797851563
 31
0.0
  0
LINE
  8
Default
 10
339.216796875
 20
160.192797851563
 30
0.0
 11
339.822387695313
 21
161.338403320313
 31
0.0
  0
LINE
  8
Default
 10
339.822387695313
 20
161.338403320313
 30
0.0
 11
340.749609375
 21
162.997607421875
 31
0.0
  0
LINE
  8
Default
 10
340.749609375
 20
162.997607421875
 30
0.0
 11
341.931201171875
 21
165.031201171875
 31
0.0
  0
LINE
  8
Default
 10
341.931201171875
 20
165.031201171875
 30
0.0
 11
343.3
 21
167.3
 31
0.0
  0
LINE
  8
Default
 10
343.3
 20
167.3
 30
0.0
 11
345.627978515625
 21
171.320788574219
 31
0.0
  0
LINE
  8
Default
 10
345.627978515625
 20
171.320788574219
 30
0.0
 11
348.196020507813
 21
176.114404296875
 31
0.0
  0
LINE
  8
Default
 10
348.196020507813
 20
176.114404296875
 30
0.0
 11
351.219995117188
 21
182.117602539063
 31
0.0
  0
LINE
  8
Default
 10
351.219995117188
 20
182.117602539063
 30
0.0
 11
354.916015625
 21
189.767199707031
 31
0.0
  0
LINE
  8
Default
 10
354.916015625
 20
189.767199707031
 30
0.0
 11
359.5
 21
199.5
 31
0.0
  0
LINE
  8
Default
 10
359.5
 20
199.5
 30
0.0
 11
363.935986328125
 21
209.8583984375
 31
0.0
  0
LINE
  8
Default
 10
363.935986328125
 20
209.8583984375
 30
0.0
 11
368.876000976563
 21
223.039208984375
 31
0.0
  0
LINE
  8
Default
 10
368.876000976563
 20
223.039208984375
 30
0.0
 11
373.647998046875
 21
237.040795898438
 31
0.0
  0
LINE
  8
Default
 10
373.647998046875
 20
237.040795898438
 30
0.0
 11
377.580004882813
 21
249.861596679688
 31
0.0
  0
LINE
  8
Default
 10
377.580004882813
 20
249.861596679688
 30
0.0
 11
380.0
 21
259.5
 31
0.0
  0
LINE
  8
Default
 10
380.0
 20
259.5
 30
0.0
 11
380.398388671875
 21
261.583984375
 31
0.0
  0
LINE
  8
Default
 10
380.398388671875
 20
261.583984375
 30
0.0
 11
380.955224609375
 21
264.316015625
 31
0.0
  0
LINE
  8
Default
 10
380.955224609375
 20
264.316015625
 30
0.0
 11
381.61279296875
 21
267.456005859375
 31
0.0
  0
LINE
  8
Default
 10
381.61279296875
 20
267.456005859375
 30
0.0
 11
382.313623046875
 21
270.764013671875
 31
0.0
  0
LINE
  8
Default
 10
382.313623046875
 20
270.764013671875
 30
0.0
 11
383.0
 21
274.0
 31
0.0
  0
LINE
  8
Default
 10
383.0
 20
274.0
 30
0.0
 11
384.871997070313
 21
282.895166015625
 31
0.0
  0
LINE
  8
Default
 10
384.871997070313
 20
282.895166015625
 30
0.0
 11
386.336010742188
 21
291.209619140625
 31
0.0
  0
LINE
  8
Default
 10
386.336010742188
 20
291.209619140625
 30
0.0
 11
387.463989257813
 21
299.46640625
 31
0.0
  0
LINE
  8
Default
 10
387.463989257813
 20
299.46640625
 30
0.0
 11
388.328002929688
 21
308.188818359375
 31
0.0
  0
LINE
  8
Default
 10
388.328002929688
 20
308.188818359375
 30
0.0
 11
389.0
 21
317.9
 31
0.0
  0
LINE
  8
Default
 10
389.0
 20
317.9
 30
0.0
 11
389.515966796875
 21
338.396801757813
 31
0.0
  0
LINE
  8
Default
 10
389.515966796875
 20
338.396801757813
 30
0.0
 11
389.93603515625
 21
373.850390625
 31
0.0
  0
LINE
  8
Default
 10
389.93603515625
 20
373.850390625
 30
0.0
 11
390.188012695313
 21
413.105615234375
 31
0.0
  0
LINE
  8
Default
 10
390.188012695313
 20
413.105615234375
 30
0.0
 11
390.200024414063
 21
445.0072265625
 31
0.0
  0
LINE
  8
Default
 10
390.200024414063
 20
445.0072265625
 30
0.0
 11
389.9
 21
458.4
 31
0.0
  0
LINE
  8
Default
 10
389.9
 20
458.4
 30
0.0
 11
389.3255859375
 21
457.9583984375
 31
0.0
  0
LINE
  8
Default
 10
389.3255859375
 20
457.9583984375
 30
0.0
 11
387.944799804688
 21
456.619189453125
 31
0.0
  0
LINE
  8
Default
 10
387.944799804688
 20
456.619189453125
 30
0.0
 11
385.911206054688
 21
454.5408203125
 31
0.0
  0
LINE
  8
Default
 10
385.911206054688
 20
454.5408203125
 30
0.0
 11
383.37841796875
 21
451.881591796875
 31
0.0
  0
LINE
  8
Default
 10
383.37841796875
 20
451.881591796875
 30
0.0
 11
380.5
 21
448.8
 31
0.0
  0
ENDSEC
  0
EOF
