  0
SECTION
  2
HEADER
  9
$ACADVER
  1
AC1015
  9
$ACADMAINTVER
 70
    20
  9
$DWGCODEPAGE
  3
ANSI_1252
  9
$INSBASE
 10
0.0
 20
0.0
 30
0.0
  9
$EXTMIN
 10
311.9226090133899
 20
-337.7014609388297
 30
0.0
  9
$EXTMAX
 10
741.9226090133902
 20
-47.70146093882977
 30
0.0
  9
$LIMMIN
 10
0.0
 20
0.0
  9
$LIMMAX
 10
12.0
 20
9.0
  9
$ORTHOMODE
 70
     0
  9
$REGENMODE
 70
     1
  9
$FILLMODE
 70
     1
  9
$QTEXTMODE
 70
     0
  9
$MIRRTEXT
 70
     1
  9
$LTSCALE
 40
1.0
  9
$ATTMODE
 70
     1
  9
$TEXTSIZE
 40
5.0
  9
$TRACEWID
 40
0.05
  9
$TEXTSTYLE
  7
style1
  9
$CLAYER
  8
INT
  9
$CELTYPE
  6
ByLayer
  9
$CECOLOR
 62
   256
  9
$CELTSCALE
 40
1.0
  9
$DISPSILH
 70
     0
  9
$DIMSCALE
 40
1.0
  9
$DIMASZ
 40
0.18
  9
$DIMEXO
 40
0.0625
  9
$DIMDLI
 40
0.38
  9
$DIMRND
 40
0.0
  9
$DIMDLE
 40
0.0
  9
$DIMEXE
 40
0.18
  9
$DIMTP
 40
0.0
  9
$DIMTM
 40
0.0
  9
$DIMTXT
 40
0.18
  9
$DIMCEN
 40
0.09
  9
$DIMTSZ
 40
0.0
  9
$DIMTOL
 70
     0
  9
$DIMLIM
 70
     0
  9
$DIMTIH
 70
     1
  9
$DIMTOH
 70
     1
  9
$DIMSE1
 70
     0
  9
$DIMSE2
 70
     0
  9
$DIMTAD
 70
     0
  9
$DIMZIN
 70
     0
  9
$DIMBLK
  1

  9
$DIMASO
 70
     1
  9
$DIMSHO
 70
     1
  9
$DIMPOST
  1

  9
$DIMAPOST
  1

  9
$DIMALT
 70
     0
  9
$DIMALTD
 70
     2
  9
$DIMALTF
 40
25.4
  9
$DIMLFAC
 40
1.0
  9
$DIMTOFL
 70
     0
  9
$DIMTVP
 40
0.0
  9
$DIMTIX
 70
     0
  9
$DIMSOXD
 70
     0
  9
$DIMSAH
 70
     0
  9
$DIMBLK1
  1

  9
$DIMBLK2
  1

  9
$DIMSTYLE
  2
STANDARD
  9
$DIMCLRD
 70
     0
  9
$DIMCLRE
 70
     0
  9
$DIMCLRT
 70
     0
  9
$DIMTFAC
 40
1.0
  9
$DIMGAP
 40
0.09
  9
$DIMJUST
 70
     0
  9
$DIMSD1
 70
     0
  9
$DIMSD2
 70
     0
  9
$DIMTOLJ
 70
     1
  9
$DIMTZIN
 70
     0
  9
$DIMALTZ
 70
     0
  9
$DIMALTTZ
 70
     0
  9
$DIMUPT
 70
     0
  9
$DIMDEC
 70
     4
  9
$DIMTDEC
 70
     4
  9
$DIMALTU
 70
     2
  9
$DIMALTTD
 70
     2
  9
$DIMTXSTY
  7
STANDARD
  9
$DIMAUNIT
 70
     0
  9
$DIMADEC
 70
     0
  9
$DIMALTRND
 40
0.0
  9
$DIMAZIN
 70
     0
  9
$DIMDSEP
 70
    46
  9
$DIMATFIT
 70
     3
  9
$DIMFRAC
 70
     0
  9
$DIMLDRBLK
  1

  9
$DIMLUNIT
 70
     2
  9
$DIMLWD
 70
    -2
  9
$DIMLWE
 70
    -2
  9
$DIMTMOVE
 70
     0
  9
$LUNITS
 70
     2
  9
$LUPREC
 70
     4
  9
$SKETCHINC
 40
0.1
  9
$FILLETRAD
 40
10.0
  9
$AUNITS
 70
     0
  9
$AUPREC
 70
     0
  9
$MENU
  1
.
  9
$ELEVATION
 40
0.0
  9
$PELEVATION
 40
0.0
  9
$THICKNESS
 40
0.0
  9
$LIMCHECK
 70
     0
  9
$CHAMFERA
 40
0.0
  9
$CHAMFERB
 40
0.0
  9
$CHAMFERC
 40
0.0
  9
$CHAMFERD
 40
0.0
  9
$SKPOLY
 70
     0
  9
$TDCREATE
 40
2454910.500000000
  9
$TDUCREATE
 40
2454909.958333334
  9
$TDUPDATE
 40
2455555.579118553
  9
$TDUUPDATE
 40
2455555.037451887
  9
$TDINDWG
 40
0.2137966782
  9
$TDUSRTIMER
 40
0.2137964931
  9
$USRTIMER
 70
     1
  9
$ANGBASE
 50
0.0
  9
$ANGDIR
 70
     0
  9
$PDMODE
 70
     0
  9
$PDSIZE
 40
0.0
  9
$PLINEWID
 40
0.0
  9
$SPLFRAME
 70
     0
  9
$SPLINETYPE
 70
     6
  9
$SPLINESEGS
 70
     8
  9
$HANDSEED
  5
982
  9
$SURFTAB1
 70
     6
  9
$SURFTAB2
 70
     6
  9
$SURFTYPE
 70
     6
  9
$SURFU
 70
     6
  9
$SURFV
 70
     6
  9
$UCSBASE
  2

  9
$UCSNAME
  2

  9
$UCSORG
 10
0.0
 20
0.0
 30
0.0
  9
$UCSXDIR
 10
1.0
 20
0.0
 30
0.0
  9
$UCSYDIR
 10
0.0
 20
1.0
 30
0.0
  9
$UCSORTHOREF
  2

  9
$UCSORTHOVIEW
 70
     0
  9
$UCSORGTOP
 10
0.0
 20
0.0
 30
0.0
  9
$UCSORGBOTTOM
 10
0.0
 20
0.0
 30
0.0
  9
$UCSORGLEFT
 10
0.0
 20
0.0
 30
0.0
  9
$UCSORGRIGHT
 10
0.0
 20
0.0
 30
0.0
  9
$UCSORGFRONT
 10
0.0
 20
0.0
 30
0.0
  9
$UCSORGBACK
 10
0.0
 20
0.0
 30
0.0
  9
$PUCSBASE
  2

  9
$PUCSNAME
  2

  9
$PUCSORG
 10
0.0
 20
0.0
 30
0.0
  9
$PUCSXDIR
 10
1.0
 20
0.0
 30
0.0
  9
$PUCSYDIR
 10
0.0
 20
1.0
 30
0.0
  9
$PUCSORTHOREF
  2

  9
$PUCSORTHOVIEW
 70
     0
  9
$PUCSORGTOP
 10
0.0
 20
0.0
 30
0.0
  9
$PUCSORGBOTTOM
 10
0.0
 20
0.0
 30
0.0
  9
$PUCSORGLEFT
 10
0.0
 20
0.0
 30
0.0
  9
$PUCSORGRIGHT
 10
0.0
 20
0.0
 30
0.0
  9
$PUCSORGFRONT
 10
0.0
 20
0.0
 30
0.0
  9
$PUCSORGBACK
 10
0.0
 20
0.0
 30
0.0
  9
$USERI1
 70
     0
  9
$USERI2
 70
     0
  9
$USERI3
 70
     0
  9
$USERI4
 70
     0
  9
$USERI5
 70
     0
  9
$USERR1
 40
0.0
  9
$USERR2
 40
0.0
  9
$USERR3
 40
0.0
  9
$USERR4
 40
0.0
  9
$USERR5
 40
0.0
  9
$WORLDVIEW
 70
     1
  9
$SHADEDGE
 70
     3
  9
$SHADEDIF
 70
    70
  9
$TILEMODE
 70
     1
  9
$MAXACTVP
 70
    64
  9
$PINSBASE
 10
0.0
 20
0.0
 30
0.0
  9
$PLIMCHECK
 70
     0
  9
$PEXTMIN
 10
1.000000000000000E 20
 20
1.000000000000000E 20
 30
1.000000000000000E 20
  9
$PEXTMAX
 10
-1.000000000000000E 20
 20
-1.000000000000000E 20
 30
-1.000000000000000E 20
  9
$PLIMMIN
 10
0.0
 20
0.0
  9
$PLIMMAX
 10
12.0
 20
9.0
  9
$UNITMODE
 70
     0
  9
$VISRETAIN
 70
     1
  9
$PLINEGEN
 70
     0
  9
$PSLTSCALE
 70
     1
  9
$TREEDEPTH
 70
  3020
  9
$CMLSTYLE
  2
Standard
  9
$CMLJUST
 70
     0
  9
$CMLSCALE
 40
1.0
  9
$PROXYGRAPHICS
 70
     1
  9
$MEASUREMENT
 70
     0
  9
$CELWEIGHT
370
    -1
  9
$ENDCAPS
280
     0
  9
$JOINSTYLE
280
     0
  9
$LWDISPLAY
290
     0
  9
$INSUNITS
 70
     0
  9
$HYPERLINKBASE
  1

  9
$STYLESHEET
  1

  9
$XEDIT
290
     1
  9
$CEPSNTYPE
380
     0
  9
$PSTYLEMODE
290
     1
  9
$FINGERPRINTGUID
  2
{1B702FD0-51D0-4BC6-8C96-93EB450D3939}
  9
$VERSIONGUID
  2
{FD5A2F3B-87FE-4300-BED1-8C46B1A97632}
  9
$EXTNAMES
290
     1
  9
$PSVPSCALE
 40
0.0
  9
$OLESTARTUP
290
     0
  0
ENDSEC
  0
SECTION
  2
CLASSES
  0
CLASS
  1
ACDBDICTIONARYWDFLT
  2
AcDbDictionaryWithDefault
  3
ObjectDBX Classes
 90
        0
280
     0
281
     0
  0
CLASS
  1
MATERIAL
  2
AcDbMaterial
  3
ObjectDBX Classes
 90
     1153
280
     0
281
     0
  0
CLASS
  1
VISUALSTYLE
  2
AcDbVisualStyle
  3
ObjectDBX Classes
 90
     4095
280
     0
281
     0
  0
CLASS
  1
SCALE
  2
AcDbScale
  3
ObjectDBX Classes
 90
     1153
280
     0
281
     0
  0
CLASS
  1
TABLESTYLE
  2
AcDbTableStyle
  3
ObjectDBX Classes
 90
     4095
280
     0
281
     0
  0
CLASS
  1
MLEADERSTYLE
  2
AcDbMLeaderStyle
  3
ACDB_MLEADERSTYLE_CLASS
 90
     4095
280
     0
281
     0
  0
CLASS
  1
SORTENTSTABLE
  2
AcDbSortentsTable
  3
ObjectDBX Classes
 90
        0
280
     0
281
     0
  0
CLASS
  1
DICTIONARYVAR
  2
AcDbDictionaryVar
  3
ObjectDBX Classes
 90
        0
280
     0
281
     0
  0
CLASS
  1
CELLSTYLEMAP
  2
AcDbCellStyleMap
  3
ObjectDBX Classes
 90
     1152
280
     0
281
     0
  0
CLASS
  1
ACDBPLACEHOLDER
  2
AcDbPlaceHolder
  3
ObjectDBX Classes
 90
        0
280
     0
281
     0
  0
CLASS
  1
LAYOUT
  2
AcDbLayout
  3
ObjectDBX Classes
 90
        0
280
     0
281
     0
  0
ENDSEC
  0
SECTION
  2
TABLES
  0
TABLE
  2
VPORT
  5
327
330
0
100
AcDbSymbolTable
 70
     1
  0
VPORT
  5
38E
330
327
100
AcDbSymbolTableRecord
100
AcDbViewportTableRecord
  2
*ACTIVE
 70
     0
 10
0.0
 20
0.0
 11
1.0
 21
1.0
 12
568.7109232040593
 22
-106.8942101510395
 13
0.0
 23
0.0
 14
0.5
 24
0.5
 15
0.5
 25
0.5
 16
0.0
 26
0.0
 36
1.0
 17
0.0
 27
0.0
 37
0.0
 40
86.708604997684
 41
1.775167785234899
 42
50.0
 43
0.0
 44
0.0
 50
0.0
 51
0.0
 71
     0
 72
   100
 73
     1
 74
     3
 75
     0
 76
     0
 77
     0
 78
     0
281
     0
 65
     1
110
0.0
120
0.0
130
0.0
111
1.0
121
0.0
131
0.0
112
0.0
122
1.0
132
0.0
 79
     0
146
0.0
  0
ENDTAB
  0
TABLE
  2
LTYPE
  5
324
330
0
100
AcDbSymbolTable
 70
     4
  0
LTYPE
  5
379
330
324
100
AcDbSymbolTableRecord
100
AcDbLinetypeTableRecord
  2
ByBlock
 70
     0
  3

 72
    65
 73
     0
 40
0.0
  0
LTYPE
  5
37A
330
324
100
AcDbSymbolTableRecord
100
AcDbLinetypeTableRecord
  2
ByLayer
 70
     0
  3

 72
    65
 73
     0
 40
0.0
  0
LTYPE
  5
37B
330
324
100
AcDbSymbolTableRecord
100
AcDbLinetypeTableRecord
  2
CONTINUOUS
 70
     0
  3
Solid line
 72
    65
 73
     0
 40
0.0
  0
LTYPE
  5
38F
330
324
100
AcDbSymbolTableRecord
100
AcDbLinetypeTableRecord
  2
CONTINUOUS2
 70
     0
  3
Solid Line
 72
    65
 73
     0
 40
0.0
  0
ENDTAB
  0
TABLE
  2
LAYER
  5
321
102
{ACAD_XDICTIONARY
360
78D
102
}
330
0
100
AcDbSymbolTable
 70
     4
  0
LAYER
  5
373
102
{ACAD_XDICTIONARY
360
726
102
}
330
321
100
AcDbSymbolTableRecord
100
AcDbLayerTableRecord
  2
0
 70
     0
 62
     7
  6
CONTINUOUS
370
    -3
390
32E
  0
LAYER
  5
390
102
{ACAD_XDICTIONARY
360
728
102
}
330
321
100
AcDbSymbolTableRecord
100
AcDbLayerTableRecord
  2
INT
 70
     0
 62
     6
  6
CONTINUOUS
370
    -3
390
32E
  0
LAYER
  5
391
102
{ACAD_XDICTIONARY
360
72A
102
}
330
321
100
AcDbSymbolTableRecord
100
AcDbLayerTableRecord
  2
EXT
 70
     0
 62
     5
  6
CONTINUOUS
370
    -3
390
32E
  0
LAYER
  5
79D
330
321
100
AcDbSymbolTableRecord
100
AcDbLayerTableRecord
  2
pocket 1mm
 70
     0
 62
     3
  6
CONTINUOUS
370
    -3
390
32E
1001
AcAecLayerStandard
1000

1000

1001
AcCmTransparency
1071
        0
  0
ENDTAB
  0
TABLE
  2
STYLE
  5
322
330
0
100
AcDbSymbolTable
 70
     3
  0
STYLE
  5
374
330
322
100
AcDbSymbolTableRecord
100
AcDbTextStyleTableRecord
  2
STANDARD
 70
     0
 40
0.0
 41
1.0
 50
0.0
 71
     0
 42
8.0
  3
txt
  4

  0
STYLE
  5
378
330
322
100
AcDbSymbolTableRecord
100
AcDbTextStyleTableRecord
  2
Annotative
 70
     0
 40
0.0
 41
1.0
 50
0.0
 71
     0
 42
0.2
  3
txt
  4

1001
AcadAnnotative
1000
AnnotativeData
1002
{
1070
     1
1070
     1
1002
}
  0
STYLE
  5
7B1
330
322
100
AcDbSymbolTableRecord
100
AcDbTextStyleTableRecord
  2
style1
 70
     0
 40
0.0
 41
1.0
 50
0.0
 71
     0
 42
5.0
  3
ARIALUNI.TTF
  4

1001
ACAD
1000
@Arial Unicode MS
1071
       34
  0
ENDTAB
  0
TABLE
  2
VIEW
  5
325
330
0
100
AcDbSymbolTable
 70
     1
  0
ENDTAB
  0
TABLE
  2
UCS
  5
326
330
0
100
AcDbSymbolTable
 70
     0
  0
ENDTAB
  0
TABLE
  2
APPID
  5
328
330
0
100
AcDbSymbolTable
 70
     7
  0
APPID
  5
375
330
328
100
AcDbSymbolTableRecord
100
AcDbRegAppTableRecord
  2
ACAD
 70
     0
  0
APPID
  5
37C
330
328
100
AcDbSymbolTableRecord
100
AcDbRegAppTableRecord
  2
AcadAnnotative
 70
     0
  0
APPID
  5
3BE
330
328
100
AcDbSymbolTableRecord
100
AcDbRegAppTableRecord
  2
ACAD_EXEMPT_FROM_CAD_STANDARDS
 70
     0
  0
APPID
  5
79E
330
328
100
AcDbSymbolTableRecord
100
AcDbRegAppTableRecord
  2
AcAecLayerStandard
 70
     0
  0
APPID
  5
79F
330
328
100
AcDbSymbolTableRecord
100
AcDbRegAppTableRecord
  2
AcCmTransparency
 70
     0
  0
APPID
  5
7B2
330
328
100
AcDbSymbolTableRecord
100
AcDbRegAppTableRecord
  2
AcadAnnoPO
 70
     0
  0
APPID
  5
863
330
328
100
AcDbSymbolTableRecord
100
AcDbRegAppTableRecord
  2
ACAD_MLEADERVER
 70
     0
  0
ENDTAB
  0
TABLE
  2
DIMSTYLE
  5
329
330
0
100
AcDbSymbolTable
 70
     3
100
AcDbDimStyleTable
 71
     1
340
376
  0
DIMSTYLE
105
376
330
329
100
AcDbSymbolTableRecord
100
AcDbDimStyleTableRecord
  2
STANDARD
 70
     0
279
     2
340
374
  0
DIMSTYLE
105
377
330
329
100
AcDbSymbolTableRecord
100
AcDbDimStyleTableRecord
  2
Annotative
 70
     0
340
374
1001
AcadAnnotative
1000
AnnotativeData
1002
{
1070
     1
1070
     1
1002
}
  0
ENDTAB
  0
TABLE
  2
BLOCK_RECORD
  5
320
330
0
100
AcDbSymbolTable
 70
     3
  0
BLOCK_RECORD
  5
38A
102
{ACAD_XDICTIONARY
360
3B8
102
}
330
320
100
AcDbSymbolTableRecord
100
AcDbBlockTableRecord
  2
*Model_Space
340
38D
  0
BLOCK_RECORD
  5
386
330
320
100
AcDbSymbolTableRecord
100
AcDbBlockTableRecord
  2
*Paper_Space
340
389
  0
BLOCK_RECORD
  5
393
330
320
100
AcDbSymbolTableRecord
100
AcDbBlockTableRecord
  2
$MODEL_SPACE
340
0
  0
BLOCK_RECORD
  5
395
330
320
100
AcDbSymbolTableRecord
100
AcDbBlockTableRecord
  2
$PAPER_SPACE
340
0
  0
ENDTAB
  0
ENDSEC
  0
SECTION
  2
BLOCKS
  0
BLOCK
  5
38B
330
38A
100
AcDbEntity
  8
0
100
AcDbBlockBegin
  2
*Model_Space
 70
     0
 10
0.0
 20
0.0
 30
0.0
  3
*Model_Space
  1

  0
ENDBLK
  5
38C
330
38A
100
AcDbEntity
  8
0
100
AcDbBlockEnd
  0
BLOCK
  5
387
330
386
100
AcDbEntity
 67
     1
  8
0
100
AcDbBlockBegin
  2
*Paper_Space
 70
     0
 10
0.0
 20
0.0
 30
0.0
  3
*Paper_Space
  1

  0
ENDBLK
  5
388
330
386
100
AcDbEntity
 67
     1
  8
0
100
AcDbBlockEnd
  0
BLOCK
  5
394
330
393
100
AcDbEntity
  8
0
100
AcDbBlockBegin
  2
$MODEL_SPACE
 70
     0
 10
0.0
 20
0.0
 30
0.0
  3
$MODEL_SPACE
  1

  0
ENDBLK
  5
21
330
393
100
AcDbEntity
  8
0
100
AcDbBlockEnd
  0
BLOCK
  5
396
330
395
100
AcDbEntity
  8
0
100
AcDbBlockBegin
  2
$PAPER_SPACE
 70
     0
 10
0.0
 20
0.0
 30
0.0
  3
$PAPER_SPACE
  1

  0
ENDBLK
  5
1D
330
395
100
AcDbEntity
  8
0
100
AcDbBlockEnd
  0
ENDSEC
  0
SECTION
  2
ENTITIES
  0
LWPOLYLINE
  5
49
330
38A
100
AcDbEntity
  8
INT
100
AcDbPolyline
 90
        2
 70
     0
 43
0.0
 10
604.2757272472068
 20
-108.7948579782738
 10
604.2757272472068
 20
-97.7948524964605
  0
LWPOLYLINE
  5
4F
330
38A
100
AcDbEntity
  8
INT
100
AcDbPolyline
 90
        4
 70
     1
 43
0.0
 10
554.572848956707
 20
-220.8951299166145
 10
554.572848956707
 20
-223.8951314116545
 10
562.5728529434802
 20
-223.8951314116545
 10
562.5728529434802
 20
-220.8951299166145
  0
LWPOLYLINE
  5
50
330
38A
100
AcDbEntity
  8
INT
100
AcDbPolyline
 90
        4
 70
     1
 43
0.0
 10
554.572848956707
 20
-194.8951169596015
 10
554.572848956707
 20
-197.8951184546414
 10
562.5728529434802
 20
-197.8951184546414
 10
562.5728529434802
 20
-194.8951169596015
  0
LWPOLYLINE
  5
51
330
38A
100
AcDbEntity
  8
INT
100
AcDbPolyline
 90
        4
 70
     1
 43
0.0
 10
593.3078786261146
 20
-197.8951184546413
 10
593.3078786261146
 20
-194.8951169596014
 10
585.3078746393413
 20
-194.8951169596014
 10
585.3078746393413
 20
-197.8951184546413
  0
LWPOLYLINE
  5
52
330
38A
100
AcDbEntity
  8
INT
100
AcDbPolyline
 90
        4
 70
     1
 43
0.0
 10
593.3078786261146
 20
-223.8951314116544
 10
593.3078786261146
 20
-220.8951299166144
 10
585.3078746393413
 20
-220.8951299166144
 10
585.3078746393413
 20
-223.8951314116544
  0
LWPOLYLINE
  5
53
330
38A
100
AcDbEntity
  8
INT
100
AcDbPolyline
 90
        4
 70
     1
 43
0.0
 10
617.2757337257134
 20
-108.7948579782738
 10
617.2757337257134
 20
-111.7948594733137
 10
609.2757297389403
 20
-111.7948594733137
 10
609.2757297389403
 20
-108.7948579782738
  0
LWPOLYLINE
  5
55
330
38A
100
AcDbEntity
  8
INT
100
AcDbPolyline
 90
        4
 70
     1
 43
0.0
 10
627.8766360676704
 20
-283.8951548339474
 10
627.8766360676704
 20
-280.8951533389074
 10
661.8766530114567
 20
-280.8951533389074
 10
661.8766530114567
 20
-283.8951548339474
  0
LWPOLYLINE
  5
56
330
38A
100
AcDbEntity
  8
INT
100
AcDbPolyline
 90
        4
 70
     1
 43
0.0
 10
700.3762960167724
 20
-188.0203630956795
 10
704.3762980101591
 20
-188.0203630956795
 10
704.3762980101591
 20
-185.0203616006396
 10
700.3762960167724
 20
-185.0203616006396
  0
LWPOLYLINE
  5
57
330
38A
100
AcDbEntity
  8
INT
100
AcDbPolyline
 90
        4
 70
     1
 43
0.0
 10
481.9747428884157
 20
-221.8951279232279
 10
478.9747413933757
 20
-221.8951279232279
 10
478.9747413933757
 20
-213.8951239364546
 10
481.9747428884157
 20
-213.8951239364546
  0
LWPOLYLINE
  5
58
330
38A
100
AcDbEntity
  8
INT
100
AcDbPolyline
 90
        4
 70
     1
 43
0.0
 10
632.0222994576554
 20
-223.8951314116544
 10
632.0222994576554
 20
-220.8951299166145
 10
646.0223064345085
 20
-220.8951299166145
 10
646.0223064345085
 20
-223.8951314116544
  0
LWPOLYLINE
  5
5A
330
38A
100
AcDbEntity
  8
INT
100
AcDbPolyline
 90
        4
 70
     1
 43
0.0
 10
395.9747000306035
 20
-231.8951329066944
 10
412.9747085024964
 20
-231.8951329066944
 10
412.9747085024964
 20
-228.8951314116545
 10
395.9747000306035
 20
-228.8951314116545
  0
LWPOLYLINE
  5
5C
330
38A
100
AcDbEntity
  8
INT
100
AcDbPolyline
 90
        4
 70
     1
 43
0.0
 10
569.0890957110614
 20
-270.8951483554409
 10
569.0890957110614
 20
-267.895146860401
 10
591.0891066746877
 20
-267.895146860401
 10
591.0891066746877
 20
-270.8951483554409
  0
LWPOLYLINE
  5
5D
330
38A
100
AcDbEntity
  8
INT
100
AcDbPolyline
 90
        4
 70
     1
 43
0.0
 10
562.7427124759885
 20
-283.8951548339474
 10
582.7427224429217
 20
-283.8951548339474
 10
582.7427224429217
 20
-280.8951533389075
 10
562.7427124759885
 20
-280.8951533389075
  0
LWPOLYLINE
  5
5E
330
38A
100
AcDbEntity
  8
INT
100
AcDbPolyline
 90
        4
 70
     1
 43
0.0
 10
569.0890957110614
 20
-296.895161312454
 10
569.0890957110614
 20
-293.895159817414
 10
591.0891066746877
 20
-293.895159817414
 10
591.0891066746877
 20
-296.895161312454
  0
LWPOLYLINE
  5
62
330
38A
100
AcDbEntity
  8
EXT
100
AcDbPolyline
 90
        4
 70
     1
 43
0.0
 10
702.376297013466
 20
-177.5203578630397
 42
0.4142135623730951
 10
693.3762925283461
 20
-186.5203623481595
 42
0.4142135623730951
 10
702.376297013466
 20
-195.5203668332794
 42
0.4142135623730951
 10
711.3763014985858
 20
-186.5203623481595
 42
0.4142135623730951
  0
LWPOLYLINE
  5
66
330
38A
100
AcDbEntity
  8
EXT
100
AcDbPolyline
 90
       15
 70
     1
 43
0.0
 10
500.891425250687
 20
-83.30793190468964
 10
500.8914252506868
 20
-107.6555933636031
 42
-0.4139919177918105
 10
523.1792638658738
 20
-119.7948652043002
 10
528.8914392043931
 20
-119.7948652043002
 10
528.8914392043931
 20
-115.3893856158356
 10
537.891443689513
 20
-115.3893856158356
 10
537.891443689513
 20
-119.7948652043002
 10
540.4845904973359
 20
-119.7948652043002
 42
0.3583497593221334
 10
540.9751706183982
 20
-119.3914640958668
 42
0.3951885163117589
 10
526.3802195772727
 20
-96.02308079994827
 10
512.8914312308467
 20
-83.30793190468964
 10
508.8914292374601
 20
-83.30793190468964
 10
508.8914292374601
 20
-90.30793539311614
 10
505.8914277424202
 20
-90.30793539311614
 10
505.8914277424202
 20
-83.30793190468964
  0
LWPOLYLINE
  5
67
330
38A
100
AcDbEntity
  8
EXT
100
AcDbPolyline
 90
       27
 70
     1
 43
0.0
 10
606.3078851046213
 20
-223.8951314116544
 10
606.3078851046213
 20
-218.8951289199211
 42
0.4142135623731066
 10
604.8078843571013
 20
-217.3951281724011
 10
601.3078826128881
 20
-217.3951281724011
 10
601.3078826128881
 20
-215.3980152077397
 42
0.2259238129044603
 10
600.7534283912027
 20
-214.2335651186237
 42
0.0914159697796636
 10
591.8903373689677
 20
-209.395124185628
 42
0.0914159697796767
 10
600.7534283912028
 20
-204.5566832526321
 42
0.2259238129044882
 10
601.3078826128881
 20
-203.392233163516
 10
601.3078826128881
 20
-201.3951201988547
 10
604.8078843571013
 20
-201.3951201988547
 42
0.4142135623731066
 10
606.3078851046213
 20
-199.8951194513347
 10
606.3078851046213
 20
-194.8951169596014
 42
0.4142135623731066
 10
604.8078843571013
 20
-193.3951162120813
 10
601.3078826128877
 20
-193.3951162120813
 10
601.3078826128877
 20
-191.3980032474201
 42
0.2259238129044503
 10
600.7534283912028
 20
-190.2335531583041
 42
0.089150505273959
 10
592.1277763815099
 20
-185.4742890212403
 42
0.0817716038480839
 10
591.6468797801959
 20
-185.3951122253081
 10
580.3951620267269
 20
-185.3951122253081
 10
580.3951620267269
 20
-233.3951361459476
 10
591.6468797801957
 20
-233.3951361459476
 42
0.0817716038480839
 10
592.1277763815096
 20
-233.3159593500155
 42
0.0891505052739598
 10
600.7534283912027
 20
-228.5566952129516
 42
0.2259238129044783
 10
601.3078826128877
 20
-227.3922451238358
 10
601.3078826128877
 20
-225.3951321591744
 10
604.8078843571013
 20
-225.3951321591744
 42
0.4142135623730875
  0
LWPOLYLINE
  5
69
330
38A
100
AcDbEntity
  8
EXT
100
AcDbPolyline
 90
       24
 70
     1
 43
0.0
 10
647.6315924562173
 20
-157.7948823972598
 10
642.1646784280044
 20
-157.7948823972598
 42
-0.4142135623731008
 10
639.6646771821377
 20
-155.2948811513932
 10
639.6646771821377
 20
-154.7948809022199
 10
642.6646786771779
 20
-154.7948809022199
 10
642.6646786771779
 20
-151.7948794071799
 10
639.6646771821377
 20
-151.7948794071799
 10
633.6646741920579
 20
-137.7948724303267
 10
639.6646771821377
 20
-137.7948724303267
 10
639.6646771821377
 20
-134.7948709352867
 10
633.6646741920579
 20
-134.7948709352867
 10
633.6646741920579
 20
-111.7948594733136
 10
639.6646771821377
 20
-111.7948594733136
 10
639.6646771821377
 20
-108.7948579782737
 10
633.6646741920579
 20
-108.7948579782737
 10
639.6646771821377
 20
-94.79485100142069
 10
642.6646786771779
 20
-94.79485100142069
 10
642.6646786771779
 20
-91.79484950638068
 10
639.6646771821377
 20
-91.79484950638068
 10
639.6646771821377
 20
-91.29484925720737
 42
-0.4142135623730951
 10
642.1646784280044
 20
-88.79484801134074
 10
647.6315924562173
 20
-88.79484801134074
 42
-0.3570525659745248
 10
650.0822452487588
 20
-90.80057492068569
 42
-0.0998402095333396
 10
650.0822452487588
 20
-155.789155487915
 42
-0.3570525659745007
  0
LWPOLYLINE
  5
6A
330
38A
100
AcDbEntity
  8
EXT
100
AcDbPolyline
 90
       46
 70
     1
 43
0.0
 10
336.5024292618632
 20
-73.63903798860746
 10
354.5024382321028
 20
-67.63903499852742
 10
354.5024382321028
 20
-76.63903948364738
 10
357.5024397271428
 20
-76.63903948364738
 10
357.5024397271428
 20
-67.63903499852742
 10
368.502445208956
 20
-67.63903499852742
 10
371.502446703996
 20
-70.63903649356749
 10
440.502481089915
 20
-70.63903649356749
 10
443.5024825849551
 20
-67.63903499852742
 10
451.5024865717283
 20
-67.63903499852742
 10
451.5024865717282
 20
-76.63903948364726
 10
454.5024880667683
 20
-76.63903948364726
 10
454.5024880667683
 20
-67.63903499852742
 10
476.5024990303945
 20
-73.63903798860746
 10
476.5024990303945
 20
-78.63904048034072
 10
473.5024975353548
 20
-78.63904048034072
 10
473.5024975353546
 20
-81.63904197538069
 10
476.5024990303945
 20
-81.63904197538069
 10
476.5024990303945
 20
-86.63904446711383
 10
479.5025005254346
 20
-86.63904446711383
 10
479.5025005254346
 20
-94.6390484538872
 10
476.5024990303945
 20
-94.6390484538872
 10
476.5024990303945
 20
-99.63905094562043
 10
460.5024910568482
 20
-99.63905094562043
 10
460.5024910568481
 20
-102.6390524406604
 10
446.5024840799951
 20
-102.6390524406604
 10
446.5024840799951
 20
-99.63905094562043
 10
434.502478099835
 20
-99.63905094562036
 10
433.8242406513401
 20
-97.75756271811708
 10
431.0020083100853
 20
-98.77491889085945
 10
428.289058516106
 20
-91.24896598084637
 10
431.1112908573607
 20
-90.23160980810406
 10
428.3983410633813
 20
-82.70565689809094
 10
423.4272646956407
 20
-83.242708723738
 10
423.7494957910289
 20
-86.22535454438239
 10
415.7957736026443
 20
-87.08463746541779
 10
415.4735425072559
 20
-84.10199164477344
 10
410.5024661395155
 20
-84.63904347042051
 10
410.5024661395153
 20
-76.63903948364738
 10
383.3085218724495
 20
-76.63903948364738
 10
378.8264036366616
 20
-101.2339828471497
 10
372.9207327936664
 20
-100.174224490181
 10
372.390853615182
 20
-103.1270599116785
 10
350.7367271908665
 20
-99.24127926945988
 10
351.2666063693509
 20
-96.28844384796236
 10
336.5024292618632
 20
-93.63904795554049
  0
LWPOLYLINE
  5
77
330
38A
100
AcDbEntity
  8
EXT
100
AcDbPolyline
 90
       16
 70
     1
 43
0.0
 10
685.3762885415727
 20
-217.7803093538028
 10
685.3762885415727
 20
-214.7803078587628
 10
683.3762875448796
 20
-214.7803078587628
 10
683.3762875448796
 20
-214.1859914810282
 42
-0.3552848358969529
 10
683.7743593686013
 20
-213.6964908730015
 42
-0.1030099415373399
 10
720.9782346583303
 20
-213.6964908730015
 42
-0.3552848358969466
 10
721.3763064820523
 20
-214.1859914810282
 10
721.3763064820523
 20
-214.7803078587628
 10
719.3763054853592
 20
-214.7803078587628
 10
719.3763054853592
 20
-217.7803093538028
 10
712.3763019969324
 20
-217.7803093538028
 10
712.3763019969325
 20
-221.2803110980161
 42
-0.4142135623730925
 10
710.8763012494123
 20
-222.7803118455361
 10
693.8762927775192
 20
-222.7803118455361
 42
-0.4142135623730875
 10
692.3762920299992
 20
-221.2803110980161
 10
692.3762920299992
 20
-217.7803093538028
  0
LWPOLYLINE
  5
7B
330
38A
100
AcDbEntity
  8
EXT
100
AcDbPolyline
 90
       14
 70
     0
 43
0.0
 10
617.2757337257134
 20
-91.79484950638068
 10
617.2757337257134
 20
-94.79485100142051
 10
622.2757362174466
 20
-94.79485100142055
 10
622.2757362174466
 20
-151.7948794071799
 10
617.2757337257134
 20
-151.7948794071799
 10
617.2757337257134
 20
-154.7948809022198
 10
609.2757297389403
 20
-154.7948809022198
 10
609.2757297389403
 20
-151.7948794071799
 10
604.2757272472068
 20
-151.7948794071799
 10
604.2757272472068
 20
-94.79485100142055
 10
609.2757297389403
 20
-94.79485100142051
 10
609.2757297389403
 20
-91.79484950638068
 10
617.2757337257134
 20
-91.79484950638068
 10
617.2757337257134
 20
-94.79485100142055
  0
LWPOLYLINE
  5
7C
330
38A
100
AcDbEntity
  8
EXT
100
AcDbPolyline
 90
        2
 70
     0
 43
0.0
 10
617.2757337257134
 20
-154.7948809022198
 10
617.2757337257134
 20
-151.7948794071799
  0
LWPOLYLINE
  5
419
330
38A
100
AcDbEntity
  8
EXT
100
AcDbPolyline
 90
       56
 70
     1
 43
0.0
 10
380.7911084978059
 20
-122.8011566289272
 10
378.8264036366616
 20
-112.0201369762074
 10
372.9207327936664
 20
-113.0798953331761
 10
372.390853615182
 20
-110.1270599116785
 10
350.7367271908665
 20
-114.0128405538972
 10
351.2666063693509
 20
-116.9656759753948
 10
336.5024292618632
 20
-119.6150718678167
 10
336.5024292618632
 20
-139.6150818347496
 10
354.5024382321028
 20
-145.6150848248297
 10
354.5024382321028
 20
-136.6150803397097
 10
357.5024397271428
 20
-136.6150803397097
 10
357.5024397271428
 20
-145.6150848248297
 10
368.502445208956
 20
-145.6150848248297
 10
371.502446703996
 20
-142.6150833297896
 10
440.502481089915
 20
-142.6150833297896
 10
443.5024825849551
 20
-145.6150848248297
 10
451.5024865717283
 20
-145.6150848248297
 10
451.5024865717282
 20
-136.6150803397098
 10
454.5024880667681
 20
-136.6150803397098
 10
454.5024880667681
 20
-145.6150848248297
 10
476.5024990303945
 20
-139.6150818347496
 10
476.5024990303945
 20
-134.6150793430164
 10
473.5024975353548
 20
-134.6150793430164
 10
473.5024975353546
 20
-131.6150778479764
 10
476.5024990303945
 20
-131.6150778479764
 10
476.5024990303945
 20
-126.6150753562433
 10
479.5025005254346
 20
-126.6150753562433
 10
479.5025005254346
 20
-118.6150713694699
 10
476.5024990303945
 20
-118.6150713694699
 10
476.5024990303945
 20
-113.6150688777367
 10
460.5024910568482
 20
-113.6150688777367
 10
460.502491056848
 20
-110.6150673826967
 10
446.5024840799951
 20
-110.6150673826967
 10
446.5024840799951
 20
-113.6150688777367
 10
434.502478099835
 20
-113.6150688777368
 10
433.8242406513401
 20
-115.49655710524
 10
431.0020083100853
 20
-114.4792009324977
 10
428.289058516106
 20
-122.0051538425107
 10
431.1112908573607
 20
-123.0225100152531
 10
428.3983410633813
 20
-130.5484629252662
 10
423.4272646956407
 20
-130.0114110996191
 10
423.7494957910289
 20
-127.0287652789747
 10
415.7957736026443
 20
-126.1694823579393
 10
415.4735425072559
 20
-129.1521281785837
 10
410.5024661395155
 20
-128.6150763529366
 10
410.5024661395153
 20
-136.6150803397097
 10
393.3085268559159
 20
-136.6150803397097
 10
393.3085268559159
 20
-126.0683233675347
 10
397.1232574134252
 20
-122.3651507871828
 10
404.3261510017438
 20
-119.9094200277398
 10
403.3580585064133
 20
-117.069911990997
 10
406.1975665431561
 20
-116.1018194956666
 10
404.9067765493822
 20
-112.3158087800095
 10
402.0672685126394
 20
-113.2839012753399
 10
401.0991760173091
 20
-110.4443932385971
 10
389.4173888885824
 20
-114.4271431745122
  0
LINE
  5
4F3
330
38A
100
AcDbEntity
  8
INT
100
AcDbLine
 10
603.5400674594549
 20
-253.8951398835477
 30
0.0
 11
604.9917233339487
 21
-253.8951398835477
 31
0.0
  0
LWPOLYLINE
  5
583
330
38A
100
AcDbEntity
  8
INT
100
AcDbPolyline
 90
        4
 70
     1
 43
0.0
 10
397.6491310716692
 20
-210.0933433203516
 10
403.6491310716691
 20
-210.0933433203516
 10
403.6491310716691
 20
-207.0933433203517
 10
397.6491310716692
 20
-207.0933433203517
  0
LWPOLYLINE
  5
584
330
38A
100
AcDbEntity
  8
EXT
100
AcDbPolyline
 90
       28
 70
     1
 43
0.0
 10
437.4469643208372
 20
-238.895136395121
 10
376.5024467039959
 20
-238.895136395121
 42
-0.5117725455009979
 10
375.5536169481331
 20
-237.5793462657175
 42
0.5027068339370706
 10
358.9937655062318
 20
-213.9026101664063
 42
0.499119125101428
 10
341.0437845204246
 20
-236.3855848776266
 42
-0.4147519904804118
 10
340.3230910082787
 20
-237.6038938600101
 42
-0.4895747415057457
 10
325.9746656446844
 20
-226.4622390032111
 10
332.9746686347643
 20
-226.4622390032111
 10
332.9746686347643
 20
-223.4622375081712
 10
329.9746671397243
 20
-223.4622375081712
 10
329.9746671397243
 20
-215.3471020621501
 42
-0.3114330991505508
 10
333.1985848658252
 20
-210.6731799593945
 42
-0.0966545664755709
 10
393.7317607510124
 20
-200.2551098624553
 10
395.8213738676622
 20
-202.4076725196076
 42
0.1259007537683348
 10
398.5651638070304
 20
-203.5562026839632
 42
0.0365030613615815
 10
430.559750471034
 20
-205.8951199496814
 10
481.9747428884157
 20
-205.8951199496814
 42
-0.4142135623730847
 10
484.4747441342825
 20
-208.395121195548
 10
484.4747441342825
 20
-226.8951304149611
 10
478.9747413933757
 20
-226.8951304149612
 10
478.9747413933757
 20
-229.8951319100011
 10
484.4747441342825
 20
-229.8951319100011
 10
484.4747441342825
 20
-233.3951336542144
 42
-0.4142135623730951
 10
481.9747428884158
 20
-235.895134900081
 10
474.2364020713349
 20
-235.8951349000811
 42
-0.4614546159230948
 10
473.2489456298032
 20
-234.737239586206
 42
0.4863646416047953
 10
454.0117716230425
 20
-213.9546736972492
 42
0.4863646416047942
 10
438.3957940766999
 20
-237.5793462657175
 42
-0.5117725455009829
  0
LWPOLYLINE
  5
585
330
38A
100
AcDbEntity
  8
INT
100
AcDbPolyline
 90
        4
 70
     1
 43
0.0
 10
384.1662646933698
 20
-213.721939691187
 10
391.3414735505445
 20
-206.7565626356875
 10
389.2518604338946
 20
-204.6039999785353
 10
382.07665157672
 20
-211.5693770340346
  0
LWPOLYLINE
  5
586
330
38A
100
AcDbEntity
  8
EXT
100
AcDbPolyline
 90
       12
 70
     1
 43
0.0
 10
563.170401410047
 20
-77.0351733804022
 10
560.3847205881113
 20
-75.92162842922134
 10
560.3847205881113
 20
-78.07550045675355
 10
567.9981874571418
 20
-81.11889922887177
 10
567.9981874571418
 20
-78.9048598083974
 10
570.9981874571418
 20
-78.9048598083974
 10
570.9981874571418
 20
-72.9048598083974
 10
567.9981874571418
 20
-72.9048598083974
 10
567.9981874571418
 20
-70.69082038792301
 10
560.3847205881113
 20
-70.69082038792299
 10
560.3847205881113
 20
-72.69082038792305
 10
564.2839463612277
 20
-74.24949255846666
  0
LWPOLYLINE
  5
587
330
38A
100
AcDbEntity
  8
EXT
100
AcDbPolyline
 90
       11
 70
     1
 43
0.0
 10
551.5562934633654
 20
-72.92162842922135
 10
551.5562934633654
 20
-69.92162444244811
 42
0.4142135623730925
 10
548.5562919683253
 20
-66.92162294740811
 10
537.5562864865121
 20
-66.92162294740811
 42
0.4142135623730925
 10
534.556284991472
 20
-69.92162444244811
 10
534.556284991472
 20
-74.9216269341813
 42
0.4142135623730896
 10
537.5562864865121
 20
-77.92162842922135
 10
548.5562934633653
 20
-77.92162842922135
 42
0.3178372451957823
 10
551.3847205881113
 20
-75.92162842922134
 10
548.5562934633653
 20
-75.92162842922134
 10
548.5562934633653
 20
-72.92162842922135
  0
LWPOLYLINE
  5
588
330
38A
100
AcDbEntity
  8
EXT
100
AcDbPolyline
 90
       24
 70
     1
 43
0.0
 10
546.0433541500962
 20
-144.7948759187533
 10
547.2309177277598
 20
-144.7948759187533
 42
0.2876215801632993
 10
547.6810222857726
 20
-144.5126051715529
 42
0.2291636673406929
 10
547.6810222857726
 20
-102.0771252370475
 42
0.2876215801632578
 10
547.2309177277598
 20
-101.7948544898471
 10
546.0433541500962
 20
-101.7948544898471
 42
-0.4142135623731117
 10
545.5433539009228
 20
-101.2948542406737
 10
545.5433539009228
 20
-97.7948524964605
 10
550.5433563926563
 20
-97.7948524964605
 10
550.5433563926563
 20
-94.79485100142062
 10
545.5433539009228
 20
-94.79485100142062
 10
545.5433539009228
 20
-93.2948502539005
 42
-0.4142135623731117
 10
546.0433541500962
 20
-92.7948500047273
 10
554.6126106066103
 20
-92.7948500047273
 42
-0.3612266937222274
 10
562.4772286250248
 20
-99.32931821577565
 42
-0.099111127460304
 10
561.834750352584
 20
-147.4697738372143
 42
-0.3537014932262894
 10
554.0120441720508
 20
-153.7948804038732
 10
546.0433541500962
 20
-153.7948804038732
 42
-0.4142135623730951
 10
545.5433539009228
 20
-153.2948801546997
 10
545.5433539009228
 20
-151.7948794071798
 10
550.5433563926563
 20
-151.7948794071798
 10
550.5433563926563
 20
-148.79487791214
 10
545.5433539009228
 20
-148.79487791214
 10
545.5433539009228
 20
-145.2948761679266
 42
-0.4142135623730951
  0
LWPOLYLINE
  5
58A
330
38A
100
AcDbEntity
  8
EXT
100
AcDbPolyline
 90
       24
 70
     1
 43
0.0
 10
570.3185403439495
 20
-92.93136895072391
 42
-0.41421356237312
 10
570.8185405931227
 20
-92.43136870155058
 10
583.7190027461648
 20
-92.43136870155058
 42
-0.3259353904078219
 10
591.3364854448549
 20
-97.98720067640205
 42
-0.1565020478846816
 10
591.3364854448549
 20
-148.8755681225384
 42
-0.3259353904078218
 10
583.7190027461648
 20
-154.4314000973898
 10
570.8185405931227
 20
-154.4314000973898
 42
-0.4142135623731117
 10
570.3185403439495
 20
-153.9313998482165
 10
570.3185403439495
 20
-151.9313986023498
 10
575.3185428356827
 20
-151.9313986023498
 10
575.3185428356827
 20
-148.9313971073098
 10
570.3185403439495
 20
-148.9313971073098
 10
570.3185403439495
 20
-145.4313953630966
 42
-0.41421356237312
 10
570.8185405931227
 20
-144.9313951139231
 10
572.0061041707863
 20
-144.9313951139231
 42
0.2876215801632092
 10
572.456208728799
 20
-144.6491243667228
 42
0.229163667340693
 10
572.456208728799
 20
-102.2136444322176
 42
0.2876215801632022
 10
572.0061041707863
 20
-101.9313736850171
 10
570.8185405931227
 20
-101.9313736850171
 42
-0.41421356237312
 10
570.3185403439495
 20
-101.4313734358438
 10
570.3185403439495
 20
-97.93137169163047
 10
575.3185428356827
 20
-97.93137169163047
 10
575.3185428356827
 20
-94.93137019659052
 10
570.3185403439495
 20
-94.93137019659052
  0
LWPOLYLINE
  5
58B
330
38A
100
AcDbEntity
  8
EXT
100
AcDbPolyline
 90
       32
 70
     1
 43
0.0
 10
674.0168189562933
 20
-89.09484666580484
 42
-0.4142135623731035
 10
674.5168192054666
 20
-88.59484641663136
 10
681.5168226938931
 20
-88.59484641663142
 42
-0.4142135623731076
 10
682.0168229430663
 20
-89.09484666580484
 10
682.0168229430663
 20
-91.59484791167148
 10
678.0168209496799
 20
-91.59484791167148
 10
678.0168209496799
 20
-94.59484940671144
 10
682.0168229430663
 20
-94.59484940671144
 10
682.0168229430663
 20
-100.7948524964605
 10
687.0168254347998
 20
-100.7948524964606
 10
687.0168254347998
 20
-108.7948579782737
 10
678.0168209496799
 20
-108.7948579782739
 10
678.0168209496799
 20
-111.7948594733138
 10
687.0168254347998
 20
-111.7948594733138
 10
687.0168254347998
 20
-134.7948709352868
 10
678.0168209496799
 20
-134.7948709352868
 10
678.0168209496799
 20
-137.7948724303268
 10
687.0168254347998
 20
-137.7948724303267
 10
687.0168254347998
 20
-145.7948779121401
 10
682.0168229430663
 20
-145.7948779121401
 10
682.0168229430663
 20
-151.9948810018892
 10
678.0168209496799
 20
-151.9948810018892
 10
678.0168209496799
 20
-154.9948824969292
 10
682.0168229430663
 20
-154.9948824969292
 10
682.0168229430663
 20
-157.4948837427958
 42
-0.4142135623731078
 10
681.5168226938931
 20
-157.9948839919691
 10
674.5168192054666
 20
-157.9948839919691
 42
-0.4142135623731035
 10
674.0168189562933
 20
-157.4948837427958
 10
674.0168189562933
 20
-145.7948779121399
 10
669.0168164645598
 20
-145.7948779121399
 10
669.0168164645598
 20
-100.7948524964605
 10
674.0168189562933
 20
-100.7948524964606
  0
LWPOLYLINE
  5
58C
330
38A
100
AcDbEntity
  8
EXT
100
AcDbPolyline
 90
        8
 70
     1
 43
0.0
 10
675.6739945395636
 20
-310.895168289307
 10
677.1256504140572
 20
-310.895168289307
 42
-0.0701754036248135
 10
677.1256504140572
 20
-253.8951398835477
 10
675.6739945395637
 20
-253.8951398835477
 10
615.3190978508007
 20
-267.9076802412177
 42
0.315093323605289
 10
614.9358721204768
 20
-268.334033104177
 42
0.0609181573783787
 10
614.9358721204768
 20
-296.4562750686778
 42
0.3150933236052904
 10
615.3190978508007
 20
-296.882627931637
  0
LWPOLYLINE
  5
58D
330
38A
100
AcDbEntity
  8
EXT
100
AcDbPolyline
 90
        4
 70
     1
 43
0.0
 10
603.5400674594549
 20
-253.8951398835478
 42
0.0203292857079851
 10
544.9453674594548
 20
-256.2029924028546
 42
0.1145380834252219
 10
544.9453674594549
 20
-308.5873157700003
 42
0.0203292857079849
 10
603.5400674594543
 20
-310.895168289307
  0
LWPOLYLINE
  5
58E
330
38A
100
AcDbEntity
  8
EXT
100
AcDbPolyline
 90
       16
 70
     1
 43
0.0
 10
533.0441606303431
 20
-312.4094080972434
 42
-0.4360709450972026
 10
530.3592157811261
 20
-314.9025591341671
 42
-0.0024140093993652
 10
523.3570328524567
 20
-314.3491274657768
 42
-0.3210476579202276
 10
520.697055356667
 20
-312.0857951107288
 42
-0.1226626608881902
 10
520.6746489930749
 20
-252.7085443270459
 42
-0.3212474445119542
 10
523.3350831820613
 20
-250.4430225550168
 42
-0.0024215795563353
 10
530.3592157811266
 20
-249.8877490386878
 42
-0.4360709450972034
 10
533.0441606303431
 20
-252.3809000756117
 10
533.0441606303431
 20
-252.70104298319
 42
0.0021586577591482
 10
526.8065941061045
 20
-253.1694478713796
 10
527.0441576402636
 20
-256.1600285068883
 42
-0.0020851004132779
 10
533.0441606303426
 20
-255.7085755833887
 10
533.0441606303436
 20
-309.0817325894662
 42
-0.0020851004133003
 10
527.0441576402631
 20
-308.6302796659666
 10
526.8065941061039
 20
-311.6208603014753
 42
0.0021586577591515
 10
533.0441606303435
 20
-312.0892651896646
  0
LWPOLYLINE
  5
58F
330
38A
100
AcDbEntity
  8
INT
100
AcDbPolyline
 90
        4
 70
     1
 43
0.0
 10
524.3366146617781
 20
-297.435059441042
 10
525.1326379211958
 20
-302.6139950718038
 10
528.0978163223108
 20
-302.15823521227
 10
527.3017930628931
 20
-296.9792995815082
  0
LWPOLYLINE
  5
590
330
38A
100
AcDbEntity
  8
INT
100
AcDbPolyline
 90
        4
 70
     1
 43
0.0
 10
525.0441561452231
 20
-279.7752768327613
 10
525.0441561452231
 20
-285.0150313400935
 10
522.0441561452231
 20
-285.0150313400935
 10
522.0441561452231
 20
-279.7752768327613
  0
LWPOLYLINE
  5
591
330
38A
100
AcDbEntity
  8
INT
100
AcDbPolyline
 90
        4
 70
     1
 43
0.0
 10
528.0978163223108
 20
-262.6320729605849
 10
527.3017930628931
 20
-267.8110085913467
 10
524.3366146617781
 20
-267.3552487318129
 10
525.1326379211958
 20
-262.1763131010511
  0
LWPOLYLINE
  5
592
330
38A
100
AcDbEntity
  8
INT
100
AcDbPolyline
 90
        8
 70
     1
 43
0.0
 10
725.7703334198463
 20
-255.2174330339862
 42
0.3011070264346769
 10
725.3827259794134
 20
-254.8241986723539
 10
709.6505513614012
 20
-251.5094702499855
 42
0.4764295748305959
 10
709.0474659663851
 20
-251.9987282609923
 10
709.0474659663851
 20
-306.7915799118622
 42
0.476429574830596
 10
709.6505513614012
 20
-307.2808379228692
 10
725.3827259794134
 20
-303.9661095005007
 42
0.3011070264346763
 10
725.7703334198463
 20
-303.5728751388684
 42
0.096925753309904
  0
LWPOLYLINE
  5
59D
330
38A
100
AcDbEntity
  8
EXT
100
AcDbPolyline
 90
       14
 70
     1
 43
0.0
 10
700.8038810912475
 20
-307.8951682893069
 10
707.0474659663851
 20
-307.8951682893069
 10
707.0474659663851
 20
-310.8951682893069
 10
727.9288826152618
 20
-306.4955079152032
 42
0.2968786180610671
 10
728.3149401450081
 20
-306.1098800115735
 42
0.1047675768415117
 10
728.3149401450081
 20
-252.6804281612811
 42
0.2968786180610683
 10
727.9288826152618
 20
-252.2948002576514
 10
707.0474659663851
 20
-247.8951398835476
 10
707.0474659663851
 20
-250.8951398835476
 10
700.8038810912475
 20
-250.8951398835476
 10
700.8038810912475
 20
-247.8951398835476
 10
690.803876107781
 20
-247.8951398835476
 10
690.803876107781
 20
-310.8951682893069
 10
700.8038810912475
 20
-310.8951682893069
  0
LWPOLYLINE
  5
5BD
330
38A
100
AcDbEntity
  8
EXT
100
AcDbPolyline
 90
       10
 70
     1
 43
0.0
 10
549.5728464649738
 20
-188.3951137203482
 42
-0.4142135623730951
 10
552.5728479600139
 20
-185.3951122253083
 10
567.5728554352136
 20
-185.3951122253083
 10
567.5728554352136
 20
-233.3951361459476
 10
552.5728479600139
 20
-233.3951361459477
 42
-0.4142135623730971
 10
549.5728464649738
 20
-230.3951346509077
 10
549.5728464649738
 20
-212.395125680668
 42
-0.2632653732989222
 10
551.0276112336778
 20
-209.8236956447105
 42
0.5657415322841009
 10
551.0276112336778
 20
-208.9665527265456
 42
-0.2632653732989265
 10
549.5728464649738
 20
-206.395122690588
  0
LWPOLYLINE
  5
6CE
330
38A
100
AcDbEntity
  8
INT
100
AcDbPolyline
 90
        4
 70
     1
 43
0.0
 10
341.7417945933926
 20
-311.167164317357
 42
-0.4142135623730951
 10
337.4697905917959
 20
-306.8951603157604
 42
-0.4142135623730951
 10
341.7417945933926
 20
-302.6231563141639
 42
-0.4142135623730951
 10
346.0137985949891
 20
-306.8951603157604
 42
-0.4142135623730951
  0
LWPOLYLINE
  5
6CF
330
38A
100
AcDbEntity
  8
INT
100
AcDbPolyline
 90
        4
 70
     1
 43
0.0
 10
341.7417945933926
 20
-317.8951657975736
 42
-0.4142135623730951
 10
339.7417935966992
 20
-315.8951648008804
 42
-0.4142135623730951
 10
341.7417945933926
 20
-313.895163804187
 42
-0.4142135623730951
 10
343.7417955900857
 20
-315.8951648008804
 42
-0.4142135623730951
  0
LWPOLYLINE
  5
6D0
330
38A
100
AcDbEntity
  8
INT
100
AcDbPolyline
 90
        4
 70
     1
 43
0.0
 10
335.3778303912549
 20
-315.2591255145913
 42
-0.4142135623730951
 10
333.3778293945615
 20
-313.259124517898
 42
-0.4142135623730951
 10
335.3778303912549
 20
-311.2591235212047
 42
-0.4142135623730951
 10
337.3778313879482
 20
-313.259124517898
 42
-0.4142135623730951
  0
LWPOLYLINE
  5
6D1
330
38A
100
AcDbEntity
  8
INT
100
AcDbPolyline
 90
        4
 70
     1
 43
0.0
 10
332.7417901082725
 20
-308.8951613124536
 42
-0.4142135623730951
 10
330.7417891115792
 20
-306.8951603157604
 42
-0.4142135623730951
 10
332.7417901082725
 20
-304.895159319067
 42
-0.4142135623730951
 10
334.7417911049658
 20
-306.8951603157604
 42
-0.4142135623730951
  0
LWPOLYLINE
  5
6D2
330
38A
100
AcDbEntity
  8
INT
100
AcDbPolyline
 90
        4
 70
     1
 43
0.0
 10
335.3778303912549
 20
-302.531197110316
 42
-0.4142135623730951
 10
333.3778293945615
 20
-300.5311961136227
 42
-0.4142135623730951
 10
335.3778303912549
 20
-298.5311951169294
 42
-0.4142135623730951
 10
337.3778313879483
 20
-300.5311961136227
 42
-0.4142135623730951
  0
LWPOLYLINE
  5
6D3
330
38A
100
AcDbEntity
  8
INT
100
AcDbPolyline
 90
        4
 70
     1
 43
0.0
 10
341.7417945933926
 20
-299.8951568273337
 42
-0.4142135623730951
 10
339.7417935966992
 20
-297.8951558306404
 42
-0.4142135623730951
 10
341.7417945933926
 20
-295.8951548339471
 42
-0.4142135623730951
 10
343.7417955900857
 20
-297.8951558306404
 42
-0.4142135623730951
  0
LWPOLYLINE
  5
6D4
330
38A
100
AcDbEntity
  8
INT
100
AcDbPolyline
 90
        4
 70
     1
 43
0.0
 10
348.1057587955302
 20
-302.531197110316
 42
-0.4142135623730951
 10
346.1057577988368
 20
-300.5311961136227
 42
-0.4142135623730951
 10
348.1057587955302
 20
-298.5311951169294
 42
-0.4142135623730951
 10
350.1057597922234
 20
-300.5311961136227
 42
-0.4142135623730951
  0
LWPOLYLINE
  5
6D5
330
38A
100
AcDbEntity
  8
INT
100
AcDbPolyline
 90
        4
 70
     1
 43
0.0
 10
350.7417990785124
 20
-308.8951613124538
 42
-0.4142135623730951
 10
348.7417980818191
 20
-306.8951603157604
 42
-0.4142135623730951
 10
350.7417990785124
 20
-304.8951593190671
 42
-0.4142135623730951
 10
352.7418000752057
 20
-306.8951603157604
 42
-0.4142135623730951
  0
LWPOLYLINE
  5
6D6
330
38A
100
AcDbEntity
  8
INT
100
AcDbPolyline
 90
        4
 70
     1
 43
0.0
 10
348.1057587955302
 20
-315.2591255145913
 42
-0.4142135623730951
 10
346.1057577988368
 20
-313.259124517898
 42
-0.4142135623730951
 10
348.1057587955302
 20
-311.2591235212047
 42
-0.4142135623730951
 10
350.1057597922234
 20
-313.259124517898
 42
-0.4142135623730951
  0
LWPOLYLINE
  5
6D7
330
38A
100
AcDbEntity
  8
INT
100
AcDbPolyline
 90
        4
 70
     1
 43
0.0
 10
341.7417945933926
 20
-269.1671483702641
 42
-0.4142135623730951
 10
337.4697905917959
 20
-264.8951443686675
 42
-0.4142135623730951
 10
341.7417945933926
 20
-260.6231403670709
 42
-0.4142135623730951
 10
346.0137985949891
 20
-264.8951443686675
 42
-0.4142135623730951
  0
LWPOLYLINE
  5
6D8
330
38A
100
AcDbEntity
  8
pocket 1mm
100
AcDbPolyline
 90
        4
 70
     1
 43
0.0
 10
341.7417945933926
 20
-312.8951633058404
 42
-0.4142135623730951
 10
335.7417916033126
 20
-306.8951603157604
 42
-0.4142135623730951
 10
341.7417945933926
 20
-300.8951573256805
 42
-0.4142135623730951
 10
347.7417975834724
 20
-306.8951603157604
 42
-0.4142135623730951
  0
LWPOLYLINE
  5
6D9
330
38A
100
AcDbEntity
  8
pocket 1mm
100
AcDbPolyline
 90
        4
 70
     1
 43
0.0
 10
341.7417945933926
 20
-317.8951657975736
 42
-0.4142135623730951
 10
330.7417891115794
 20
-306.8951603157604
 42
-0.4142135623730951
 10
341.7417945933926
 20
-295.8951548339472
 42
-0.4142135623730951
 10
352.7418000752057
 20
-306.8951603157604
 42
-0.4142135623730951
  0
LWPOLYLINE
  5
6DA
330
38A
100
AcDbEntity
  8
EXT
100
AcDbPolyline
 90
        5
 70
     1
 43
0.0
 10
360.2418018194191
 20
-291.7046302566577
 42
-0.8810176860692417
 10
361.741802566939
 20
-279.8951493521339
 42
-0.8810176860692441
 10
363.241803314459
 20
-291.7046302566575
 10
363.241803314459
 20
-285.895152342214
 10
360.2418018194191
 20
-285.895152342214
  0
LWPOLYLINE
  5
6DB
330
38A
100
AcDbEntity
  8
EXT
100
AcDbPolyline
 90
        4
 70
     1
 43
0.0
 10
341.7417945933926
 20
-290.895152342214
 42
-0.4142135623730957
 10
357.741802566939
 20
-306.8951603157604
 42
-0.4142135623730957
 10
341.7417945933926
 20
-322.8951682893069
 42
-0.4142135623730951
 10
325.7417866198461
 20
-306.8951603157604
 42
-0.4142135623730951
  0
LWPOLYLINE
  5
6DC
330
38A
100
AcDbEntity
  8
EXT
100
AcDbPolyline
 90
        4
 70
     1
 43
0.0
 10
341.7417945933926
 20
-280.895152342214
 42
-0.4142135623730951
 10
325.741786619846
 20
-264.8951443686675
 42
-0.4142135623730951
 10
341.7417945933926
 20
-248.895136395121
 42
-0.4142135623730951
 10
357.741802566939
 20
-264.8951443686675
 42
-0.4142135623730951
  0
LWPOLYLINE
  5
6DD
330
38A
100
AcDbEntity
  8
INT
100
AcDbPolyline
 90
        4
 70
     1
 43
0.0
 10
381.7418105404855
 20
-311.167164317357
 42
-0.4142135623730951
 10
377.4698065388889
 20
-306.8951603157604
 42
-0.4142135623730951
 10
381.7418105404855
 20
-302.6231563141639
 42
-0.4142135623730951
 10
386.0138145420821
 20
-306.8951603157604
 42
-0.4142135623730951
  0
LWPOLYLINE
  5
6DE
330
38A
100
AcDbEntity
  8
INT
100
AcDbPolyline
 90
        4
 70
     1
 43
0.0
 10
381.7418105404855
 20
-317.8951657975736
 42
-0.4142135623730951
 10
379.7418095437921
 20
-315.8951648008804
 42
-0.4142135623730951
 10
381.7418105404855
 20
-313.895163804187
 42
-0.4142135623730951
 10
383.7418115371786
 20
-315.8951648008804
 42
-0.4142135623730951
  0
LWPOLYLINE
  5
6DF
330
38A
100
AcDbEntity
  8
INT
100
AcDbPolyline
 90
        4
 70
     1
 43
0.0
 10
375.3778463383477
 20
-315.2591255145913
 42
-0.4142135623730951
 10
373.3778453416545
 20
-313.259124517898
 42
-0.4142135623730951
 10
375.3778463383477
 20
-311.2591235212047
 42
-0.4142135623730951
 10
377.3778473350411
 20
-313.259124517898
 42
-0.4142135623730951
  0
LWPOLYLINE
  5
6E0
330
38A
100
AcDbEntity
  8
INT
100
AcDbPolyline
 90
        4
 70
     1
 43
0.0
 10
372.7418060553655
 20
-308.8951613124536
 42
-0.4142135623730951
 10
370.7418050586722
 20
-306.8951603157604
 42
-0.4142135623730951
 10
372.7418060553655
 20
-304.895159319067
 42
-0.4142135623730951
 10
374.7418070520587
 20
-306.8951603157604
 42
-0.4142135623730951
  0
LWPOLYLINE
  5
6E1
330
38A
100
AcDbEntity
  8
INT
100
AcDbPolyline
 90
        4
 70
     1
 43
0.0
 10
375.3778463383479
 20
-302.531197110316
 42
-0.4142135623730951
 10
373.3778453416545
 20
-300.5311961136227
 42
-0.4142135623730951
 10
375.3778463383479
 20
-298.5311951169294
 42
-0.4142135623730951
 10
377.3778473350412
 20
-300.5311961136227
 42
-0.4142135623730951
  0
LWPOLYLINE
  5
6E2
330
38A
100
AcDbEntity
  8
INT
100
AcDbPolyline
 90
        4
 70
     1
 43
0.0
 10
381.7418105404855
 20
-299.8951568273337
 42
-0.4142135623730951
 10
379.7418095437921
 20
-297.8951558306404
 42
-0.4142135623730951
 10
381.7418105404855
 20
-295.8951548339471
 42
-0.4142135623730951
 10
383.7418115371786
 20
-297.8951558306404
 42
-0.4142135623730951
  0
LWPOLYLINE
  5
6E3
330
38A
100
AcDbEntity
  8
INT
100
AcDbPolyline
 90
        4
 70
     1
 43
0.0
 10
388.1057747426231
 20
-302.531197110316
 42
-0.4142135623730951
 10
386.1057737459297
 20
-300.5311961136227
 42
-0.4142135623730951
 10
388.1057747426231
 20
-298.5311951169294
 42
-0.4142135623730951
 10
390.1057757393163
 20
-300.5311961136227
 42
-0.4142135623730951
  0
LWPOLYLINE
  5
6E4
330
38A
100
AcDbEntity
  8
INT
100
AcDbPolyline
 90
        4
 70
     1
 43
0.0
 10
390.7418150256053
 20
-308.8951613124538
 42
-0.4142135623730951
 10
388.741814028912
 20
-306.8951603157604
 42
-0.4142135623730951
 10
390.7418150256053
 20
-304.8951593190671
 42
-0.4142135623730951
 10
392.7418160222987
 20
-306.8951603157604
 42
-0.4142135623730951
  0
LWPOLYLINE
  5
6E5
330
38A
100
AcDbEntity
  8
INT
100
AcDbPolyline
 90
        4
 70
     1
 43
0.0
 10
388.1057747426231
 20
-315.2591255145913
 42
-0.4142135623730951
 10
386.1057737459297
 20
-313.259124517898
 42
-0.4142135623730951
 10
388.1057747426231
 20
-311.2591235212047
 42
-0.4142135623730951
 10
390.1057757393163
 20
-313.259124517898
 42
-0.4142135623730951
  0
LWPOLYLINE
  5
6E6
330
38A
100
AcDbEntity
  8
INT
100
AcDbPolyline
 90
        4
 70
     1
 43
0.0
 10
381.7418105404855
 20
-269.1671483702641
 42
-0.4142135623730951
 10
377.4698065388889
 20
-264.8951443686675
 42
-0.4142135623730951
 10
381.7418105404855
 20
-260.6231403670709
 42
-0.4142135623730951
 10
386.0138145420821
 20
-264.8951443686675
 42
-0.4142135623730951
  0
LWPOLYLINE
  5
6E7
330
38A
100
AcDbEntity
  8
pocket 1mm
100
AcDbPolyline
 90
        4
 70
     1
 43
0.0
 10
381.7418105404855
 20
-312.8951633058404
 42
-0.4142135623730951
 10
375.7418075504055
 20
-306.8951603157604
 42
-0.4142135623730951
 10
381.7418105404855
 20
-300.8951573256805
 42
-0.4142135623730951
 10
387.7418135305654
 20
-306.8951603157604
 42
-0.4142135623730951
  0
LWPOLYLINE
  5
6E8
330
38A
100
AcDbEntity
  8
pocket 1mm
100
AcDbPolyline
 90
        4
 70
     1
 43
0.0
 10
381.7418105404855
 20
-317.8951657975736
 42
-0.4142135623730951
 10
370.7418050586722
 20
-306.8951603157604
 42
-0.4142135623730951
 10
381.7418105404855
 20
-295.8951548339472
 42
-0.4142135623730951
 10
392.7418160222987
 20
-306.8951603157604
 42
-0.4142135623730951
  0
LWPOLYLINE
  5
6E9
330
38A
100
AcDbEntity
  8
EXT
100
AcDbPolyline
 90
        4
 70
     1
 43
0.0
 10
381.7418105404855
 20
-290.895152342214
 42
-0.4142135623730957
 10
397.741818514032
 20
-306.8951603157604
 42
-0.4142135623730957
 10
381.7418105404855
 20
-322.8951682893069
 42
-0.4142135623730951
 10
365.741802566939
 20
-306.8951603157604
 42
-0.4142135623730951
  0
LWPOLYLINE
  5
6EA
330
38A
100
AcDbEntity
  8
EXT
100
AcDbPolyline
 90
        4
 70
     1
 43
0.0
 10
381.7418105404855
 20
-280.895152342214
 42
-0.4142135623730951
 10
365.741802566939
 20
-264.8951443686675
 42
-0.4142135623730951
 10
381.7418105404855
 20
-248.895136395121
 42
-0.4142135623730951
 10
397.741818514032
 20
-264.8951443686675
 42
-0.4142135623730951
  0
LWPOLYLINE
  5
6EB
330
38A
100
AcDbEntity
  8
INT
100
AcDbPolyline
 90
        4
 70
     1
 43
0.0
 10
421.7418264875783
 20
-311.167164317357
 42
-0.4142135623730951
 10
417.4698224859818
 20
-306.8951603157604
 42
-0.4142135623730951
 10
421.7418264875783
 20
-302.6231563141639
 42
-0.4142135623730951
 10
426.013830489175
 20
-306.8951603157604
 42
-0.4142135623730951
  0
LWPOLYLINE
  5
6EC
330
38A
100
AcDbEntity
  8
INT
100
AcDbPolyline
 90
        4
 70
     1
 43
0.0
 10
421.7418264875783
 20
-317.8951657975736
 42
-0.4142135623730951
 10
419.741825490885
 20
-315.8951648008804
 42
-0.4142135623730951
 10
421.7418264875783
 20
-313.895163804187
 42
-0.4142135623730951
 10
423.7418274842715
 20
-315.8951648008804
 42
-0.4142135623730951
  0
LWPOLYLINE
  5
6ED
330
38A
100
AcDbEntity
  8
INT
100
AcDbPolyline
 90
        4
 70
     1
 43
0.0
 10
415.3778622854408
 20
-315.2591255145913
 42
-0.4142135623730951
 10
413.3778612887473
 20
-313.259124517898
 42
-0.4142135623730951
 10
415.3778622854408
 20
-311.2591235212047
 42
-0.4142135623730951
 10
417.3778632821339
 20
-313.259124517898
 42
-0.4142135623730951
  0
LWPOLYLINE
  5
6EE
330
38A
100
AcDbEntity
  8
INT
100
AcDbPolyline
 90
        4
 70
     1
 43
0.0
 10
412.7418220024583
 20
-308.8951613124536
 42
-0.4142135623730951
 10
410.7418210057651
 20
-306.8951603157604
 42
-0.4142135623730951
 10
412.7418220024583
 20
-304.895159319067
 42
-0.4142135623730951
 10
414.7418229991516
 20
-306.8951603157604
 42
-0.4142135623730951
  0
LWPOLYLINE
  5
6EF
330
38A
100
AcDbEntity
  8
INT
100
AcDbPolyline
 90
        4
 70
     1
 43
0.0
 10
415.3778622854408
 20
-302.531197110316
 42
-0.4142135623730951
 10
413.3778612887473
 20
-300.5311961136227
 42
-0.4142135623730951
 10
415.3778622854408
 20
-298.5311951169294
 42
-0.4142135623730951
 10
417.3778632821341
 20
-300.5311961136227
 42
-0.4142135623730951
  0
LWPOLYLINE
  5
6F0
330
38A
100
AcDbEntity
  8
INT
100
AcDbPolyline
 90
        4
 70
     1
 43
0.0
 10
421.7418264875783
 20
-299.8951568273337
 42
-0.4142135623730951
 10
419.741825490885
 20
-297.8951558306404
 42
-0.4142135623730951
 10
421.7418264875783
 20
-295.8951548339471
 42
-0.4142135623730951
 10
423.7418274842715
 20
-297.8951558306404
 42
-0.4142135623730951
  0
LWPOLYLINE
  5
6F1
330
38A
100
AcDbEntity
  8
INT
100
AcDbPolyline
 90
        4
 70
     1
 43
0.0
 10
428.105790689716
 20
-302.531197110316
 42
-0.4142135623730951
 10
426.1057896930226
 20
-300.5311961136227
 42
-0.4142135623730951
 10
428.105790689716
 20
-298.5311951169294
 42
-0.4142135623730951
 10
430.1057916864093
 20
-300.5311961136227
 42
-0.4142135623730951
  0
LWPOLYLINE
  5
6F2
330
38A
100
AcDbEntity
  8
INT
100
AcDbPolyline
 90
        4
 70
     1
 43
0.0
 10
430.7418309726982
 20
-308.8951613124538
 42
-0.4142135623730951
 10
428.7418299760048
 20
-306.8951603157604
 42
-0.4142135623730951
 10
430.7418309726982
 20
-304.8951593190671
 42
-0.4142135623730951
 10
432.7418319693914
 20
-306.8951603157604
 42
-0.4142135623730951
  0
LWPOLYLINE
  5
6F3
330
38A
100
AcDbEntity
  8
INT
100
AcDbPolyline
 90
        4
 70
     1
 43
0.0
 10
428.105790689716
 20
-315.2591255145913
 42
-0.4142135623730951
 10
426.1057896930226
 20
-313.259124517898
 42
-0.4142135623730951
 10
428.105790689716
 20
-311.2591235212047
 42
-0.4142135623730951
 10
430.1057916864093
 20
-313.259124517898
 42
-0.4142135623730951
  0
LWPOLYLINE
  5
6F4
330
38A
100
AcDbEntity
  8
INT
100
AcDbPolyline
 90
        4
 70
     1
 43
0.0
 10
421.7418264875783
 20
-269.1671483702641
 42
-0.4142135623730951
 10
417.4698224859818
 20
-264.8951443686675
 42
-0.4142135623730951
 10
421.7418264875783
 20
-260.6231403670709
 42
-0.4142135623730951
 10
426.013830489175
 20
-264.8951443686675
 42
-0.4142135623730951
  0
LWPOLYLINE
  5
6F5
330
38A
100
AcDbEntity
  8
pocket 1mm
100
AcDbPolyline
 90
        4
 70
     1
 43
0.0
 10
421.7418264875783
 20
-312.8951633058404
 42
-0.4142135623730951
 10
415.7418234974984
 20
-306.8951603157604
 42
-0.4142135623730951
 10
421.7418264875783
 20
-300.8951573256805
 42
-0.4142135623730951
 10
427.7418294776581
 20
-306.8951603157604
 42
-0.4142135623730951
  0
LWPOLYLINE
  5
6F6
330
38A
100
AcDbEntity
  8
pocket 1mm
100
AcDbPolyline
 90
        4
 70
     1
 43
0.0
 10
421.7418264875783
 20
-317.8951657975736
 42
-0.4142135623730951
 10
410.7418210057651
 20
-306.8951603157604
 42
-0.4142135623730951
 10
421.7418264875783
 20
-295.8951548339472
 42
-0.4142135623730951
 10
432.7418319693914
 20
-306.8951603157604
 42
-0.4142135623730951
  0
LWPOLYLINE
  5
6F7
330
38A
100
AcDbEntity
  8
EXT
100
AcDbPolyline
 90
        4
 70
     1
 43
0.0
 10
421.7418264875783
 20
-290.895152342214
 42
-0.4142135623730957
 10
437.7418344611249
 20
-306.8951603157604
 42
-0.4142135623730957
 10
421.7418264875783
 20
-322.8951682893069
 42
-0.4142135623730951
 10
405.741818514032
 20
-306.8951603157604
 42
-0.4142135623730951
  0
LWPOLYLINE
  5
6F8
330
38A
100
AcDbEntity
  8
EXT
100
AcDbPolyline
 90
        4
 70
     1
 43
0.0
 10
421.7418264875783
 20
-280.895152342214
 42
-0.4142135623730951
 10
405.7418185140319
 20
-264.8951443686675
 42
-0.4142135623730951
 10
421.7418264875783
 20
-248.895136395121
 42
-0.4142135623730951
 10
437.7418344611249
 20
-264.8951443686675
 42
-0.4142135623730951
  0
LWPOLYLINE
  5
6F9
330
38A
100
AcDbEntity
  8
INT
100
AcDbPolyline
 90
        4
 70
     1
 43
0.0
 10
461.7418424346714
 20
-311.167164317357
 42
-0.4142135623730951
 10
457.4698384330747
 20
-306.8951603157604
 42
-0.4142135623730951
 10
461.7418424346714
 20
-302.6231563141639
 42
-0.4142135623730951
 10
466.0138464362678
 20
-306.8951603157604
 42
-0.4142135623730951
  0
LWPOLYLINE
  5
6FA
330
38A
100
AcDbEntity
  8
INT
100
AcDbPolyline
 90
        4
 70
     1
 43
0.0
 10
461.7418424346714
 20
-317.8951657975736
 42
-0.4142135623730951
 10
459.741841437978
 20
-315.8951648008804
 42
-0.4142135623730951
 10
461.7418424346714
 20
-313.895163804187
 42
-0.4142135623730951
 10
463.7418434313645
 20
-315.8951648008804
 42
-0.4142135623730951
  0
LWPOLYLINE
  5
6FB
330
38A
100
AcDbEntity
  8
INT
100
AcDbPolyline
 90
        4
 70
     1
 43
0.0
 10
455.3778782325337
 20
-315.2591255145913
 42
-0.4142135623730951
 10
453.3778772358402
 20
-313.259124517898
 42
-0.4142135623730951
 10
455.3778782325337
 20
-311.2591235212047
 42
-0.4142135623730951
 10
457.3778792292268
 20
-313.259124517898
 42
-0.4142135623730951
  0
LWPOLYLINE
  5
6FC
330
38A
100
AcDbEntity
  8
INT
100
AcDbPolyline
 90
        4
 70
     1
 43
0.0
 10
452.7418379495514
 20
-308.8951613124536
 42
-0.4142135623730951
 10
450.7418369528579
 20
-306.8951603157604
 42
-0.4142135623730951
 10
452.7418379495514
 20
-304.895159319067
 42
-0.4142135623730951
 10
454.7418389462446
 20
-306.8951603157604
 42
-0.4142135623730951
  0
LWPOLYLINE
  5
6FD
330
38A
100
AcDbEntity
  8
INT
100
AcDbPolyline
 90
        4
 70
     1
 43
0.0
 10
455.3778782325338
 20
-302.531197110316
 42
-0.4142135623730951
 10
453.3778772358402
 20
-300.5311961136227
 42
-0.4142135623730951
 10
455.3778782325338
 20
-298.5311951169294
 42
-0.4142135623730951
 10
457.3778792292271
 20
-300.5311961136227
 42
-0.4142135623730951
  0
LWPOLYLINE
  5
6FE
330
38A
100
AcDbEntity
  8
INT
100
AcDbPolyline
 90
        4
 70
     1
 43
0.0
 10
461.7418424346714
 20
-299.8951568273337
 42
-0.4142135623730951
 10
459.741841437978
 20
-297.8951558306404
 42
-0.4142135623730951
 10
461.7418424346714
 20
-295.8951548339471
 42
-0.4142135623730951
 10
463.7418434313645
 20
-297.8951558306404
 42
-0.4142135623730951
  0
LWPOLYLINE
  5
6FF
330
38A
100
AcDbEntity
  8
INT
100
AcDbPolyline
 90
        4
 70
     1
 43
0.0
 10
468.1058066368088
 20
-302.531197110316
 42
-0.4142135623730951
 10
466.1058056401156
 20
-300.5311961136227
 42
-0.4142135623730951
 10
468.1058066368088
 20
-298.5311951169294
 42
-0.4142135623730951
 10
470.1058076335023
 20
-300.5311961136227
 42
-0.4142135623730951
  0
LWPOLYLINE
  5
700
330
38A
100
AcDbEntity
  8
INT
100
AcDbPolyline
 90
        4
 70
     1
 43
0.0
 10
470.7418469197911
 20
-308.8951613124538
 42
-0.4142135623730951
 10
468.7418459230978
 20
-306.8951603157604
 42
-0.4142135623730951
 10
470.7418469197911
 20
-304.8951593190671
 42
-0.4142135623730951
 10
472.7418479164845
 20
-306.8951603157604
 42
-0.4142135623730951
  0
LWPOLYLINE
  5
701
330
38A
100
AcDbEntity
  8
INT
100
AcDbPolyline
 90
        4
 70
     1
 43
0.0
 10
468.1058066368088
 20
-315.2591255145913
 42
-0.4142135623730951
 10
466.1058056401156
 20
-313.259124517898
 42
-0.4142135623730951
 10
468.1058066368088
 20
-311.2591235212047
 42
-0.4142135623730951
 10
470.1058076335023
 20
-313.259124517898
 42
-0.4142135623730951
  0
LWPOLYLINE
  5
702
330
38A
100
AcDbEntity
  8
INT
100
AcDbPolyline
 90
        4
 70
     1
 43
0.0
 10
461.7418424346714
 20
-269.1671483702641
 42
-0.4142135623730951
 10
457.4698384330747
 20
-264.8951443686675
 42
-0.4142135623730951
 10
461.7418424346714
 20
-260.6231403670709
 42
-0.4142135623730951
 10
466.0138464362678
 20
-264.8951443686675
 42
-0.4142135623730951
  0
LWPOLYLINE
  5
703
330
38A
100
AcDbEntity
  8
pocket 1mm
100
AcDbPolyline
 90
        4
 70
     1
 43
0.0
 10
461.7418424346714
 20
-312.8951633058404
 42
-0.4142135623730951
 10
455.7418394445914
 20
-306.8951603157604
 42
-0.4142135623730951
 10
461.7418424346714
 20
-300.8951573256805
 42
-0.4142135623730951
 10
467.7418454247511
 20
-306.8951603157604
 42
-0.4142135623730951
  0
LWPOLYLINE
  5
704
330
38A
100
AcDbEntity
  8
pocket 1mm
100
AcDbPolyline
 90
        4
 70
     1
 43
0.0
 10
461.7418424346714
 20
-317.8951657975736
 42
-0.4142135623730951
 10
450.7418369528582
 20
-306.8951603157604
 42
-0.4142135623730951
 10
461.7418424346714
 20
-295.8951548339472
 42
-0.4142135623730951
 10
472.7418479164845
 20
-306.8951603157604
 42
-0.4142135623730951
  0
LWPOLYLINE
  5
705
330
38A
100
AcDbEntity
  8
EXT
100
AcDbPolyline
 90
        4
 70
     1
 43
0.0
 10
461.7418424346714
 20
-290.895152342214
 42
-0.4142135623730957
 10
477.7418504082178
 20
-306.8951603157604
 42
-0.4142135623730957
 10
461.7418424346714
 20
-322.8951682893069
 42
-0.4142135623730951
 10
445.741834461125
 20
-306.8951603157604
 42
-0.4142135623730951
  0
LWPOLYLINE
  5
706
330
38A
100
AcDbEntity
  8
EXT
100
AcDbPolyline
 90
        4
 70
     1
 43
0.0
 10
461.7418424346714
 20
-280.895152342214
 42
-0.4142135623730951
 10
445.7418344611248
 20
-264.8951443686675
 42
-0.4142135623730951
 10
461.7418424346714
 20
-248.895136395121
 42
-0.4142135623730951
 10
477.7418504082178
 20
-264.8951443686675
 42
-0.4142135623730951
  0
LWPOLYLINE
  5
707
330
38A
100
AcDbEntity
  8
EXT
100
AcDbPolyline
 90
        5
 70
     1
 43
0.0
 10
400.2418177665119
 20
-291.7046302566577
 42
-0.8810176860692417
 10
401.741818514032
 20
-279.8951493521339
 42
-0.8810176860692441
 10
403.2418192615518
 20
-291.7046302566575
 10
403.2418192615518
 20
-285.895152342214
 10
400.2418177665119
 20
-285.895152342214
  0
LWPOLYLINE
  5
708
330
38A
100
AcDbEntity
  8
EXT
100
AcDbPolyline
 90
        5
 70
     1
 43
0.0
 10
440.2418337136048
 20
-291.7046302566577
 42
-0.8810176860692417
 10
441.7418344611248
 20
-279.8951493521339
 42
-0.8810176860692441
 10
443.2418352086449
 20
-291.7046302566575
 10
443.2418352086449
 20
-285.895152342214
 10
440.2418337136048
 20
-285.895152342214
  0
LWPOLYLINE
  5
709
330
38A
100
AcDbEntity
  8
EXT
100
AcDbPolyline
 90
        5
 70
     1
 43
0.0
 10
480.2418496606978
 20
-291.7046302566577
 42
-0.8810176860692417
 10
481.7418504082178
 20
-279.8951493521339
 42
-0.8810176860692441
 10
483.2418511557378
 20
-291.7046302566575
 10
483.2418511557378
 20
-285.895152342214
 10
480.2418496606978
 20
-285.895152342214
  0
LINE
  5
70A
330
38A
100
AcDbEntity
  8
EXT
100
AcDbLine
 10
321.9226090133902
 20
-337.7014609388297
 30
0.0
 11
731.9226090133902
 21
-337.7014609388297
 31
0.0
  0
LINE
  5
70B
330
38A
100
AcDbEntity
  8
EXT
100
AcDbLine
 10
311.9226090133902
 20
-327.7014609388297
 30
0.0
 11
311.9226090133899
 21
-57.70146093882978
 31
0.0
  0
LINE
  5
70C
330
38A
100
AcDbEntity
  8
EXT
100
AcDbLine
 10
741.9226090133902
 20
-327.7014609388297
 30
0.0
 11
741.9226090133896
 21
-57.70146093882971
 31
0.0
  0
LINE
  5
70D
330
38A
100
AcDbEntity
  8
EXT
100
AcDbLine
 10
321.9226090133899
 20
-47.70146093882977
 30
0.0
 11
731.9226090133894
 21
-47.70146093882977
 31
0.0
  0
ARC
  5
70E
330
38A
100
AcDbEntity
  8
EXT
100
AcDbCircle
 10
321.9226090133902
 20
-327.7014609388297
 30
0.0
 40
10.0
100
AcDbArc
 50
180.0
 51
270.0
  0
ARC
  5
70F
330
38A
100
AcDbEntity
  8
EXT
100
AcDbCircle
 10
321.9226090133899
 20
-57.70146093882978
 30
0.0
 40
10.0
100
AcDbArc
 50
90.0
 51
180.0
  0
ARC
  5
710
330
38A
100
AcDbEntity
  8
EXT
100
AcDbCircle
 10
731.9226090133894
 20
-57.70146093882978
 30
0.0
 40
10.0
100
AcDbArc
 50
0.0000000000001527
 51
90.0
  0
ARC
  5
711
330
38A
100
AcDbEntity
  8
EXT
100
AcDbCircle
 10
731.9226090133902
 20
-327.7014609388297
 30
0.0
 40
10.0
100
AcDbArc
 50
270.0
 51
0.0000000000002036
  0
LWPOLYLINE
  5
718
330
38A
100
AcDbEntity
  8
INT
100
AcDbPolyline
 90
        4
 70
     1
 43
0.0
 10
481.9747428884157
 20
-169.6150918016827
 10
478.9747413933757
 20
-169.6150918016827
 10
478.9747413933757
 20
-177.615095788456
 10
481.9747428884157
 20
-177.615095788456
  0
LWPOLYLINE
  5
719
330
38A
100
AcDbEntity
  8
INT
100
AcDbPolyline
 90
        4
 70
     1
 43
0.0
 10
384.1662646933698
 20
-177.7882800337236
 10
391.3414735505445
 20
-184.7536570892231
 10
389.2518604338946
 20
-186.9062197463754
 10
382.07665157672
 20
-179.940842690876
  0
LWPOLYLINE
  5
71A
330
38A
100
AcDbEntity
  8
INT
100
AcDbPolyline
 90
        4
 70
     1
 43
0.0
 10
395.9747000306035
 20
-159.6150868182163
 10
412.9747085024964
 20
-159.6150868182163
 10
412.9747085024964
 20
-162.6150883132562
 10
395.9747000306035
 20
-162.6150883132562
  0
LWPOLYLINE
  5
71B
330
38A
100
AcDbEntity
  8
EXT
100
AcDbPolyline
 90
       28
 70
     1
 43
0.0
 10
437.4469643208372
 20
-152.6150833297896
 10
376.5024467039959
 20
-152.6150833297896
 42
0.5117725455009979
 10
375.5536169481331
 20
-153.9308734591931
 42
-0.5027068339370706
 10
358.9937655062318
 20
-177.6076095585043
 42
-0.499119125101428
 10
341.0437845204246
 20
-155.1246348472841
 42
0.4147519904804118
 10
340.3230910082787
 20
-153.9063258649005
 42
0.4895747415057457
 10
325.9746656446844
 20
-165.0479807216995
 10
332.9746686347643
 20
-165.0479807216995
 10
332.9746686347643
 20
-168.0479822167394
 10
329.9746671397243
 20
-168.0479822167394
 10
329.9746671397243
 20
-176.1631176627606
 42
0.3114330991505508
 10
333.1985848658252
 20
-180.8370397655161
 42
0.0966545664755709
 10
393.7317607510124
 20
-191.2551098624553
 10
395.8213738676622
 20
-189.102547205303
 42
-0.1259007537683348
 10
398.5651638070304
 20
-187.9540170409474
 42
-0.0365030613615815
 10
430.559750471034
 20
-185.6150997752292
 10
481.9747428884157
 20
-185.6150997752292
 42
0.4142135623730847
 10
484.4747441342825
 20
-183.1150985293626
 10
484.4747441342825
 20
-164.6150893099495
 10
478.9747413933757
 20
-164.6150893099495
 10
478.9747413933757
 20
-161.6150878149095
 10
484.4747441342825
 20
-161.6150878149095
 10
484.4747441342825
 20
-158.1150860706963
 42
0.4142135623730951
 10
481.9747428884158
 20
-155.6150848248297
 10
474.2364020713349
 20
-155.6150848248296
 42
0.4614546159230948
 10
473.2489456298032
 20
-156.7729801387045
 42
-0.4863646416047953
 10
454.0117716230425
 20
-177.5555460276614
 42
-0.4863646416047942
 10
438.3957940766999
 20
-153.9308734591931
 42
0.5117725455009829
  0
LWPOLYLINE
  5
71C
330
38A
100
AcDbEntity
  8
INT
100
AcDbPolyline
 90
        4
 70
     1
 43
0.0
 10
397.6491310716692
 20
-181.416876404559
 10
403.6491310716691
 20
-181.416876404559
 10
403.6491310716691
 20
-184.416876404559
 10
397.6491310716692
 20
-184.416876404559
  0
LWPOLYLINE
  5
734
330
38A
100
AcDbEntity
  8
EXT
100
AcDbPolyline
 90
       32
 70
     1
 43
0.0
 10
699.0168279265331
 20
-89.094846665805
 42
-0.4142135623731035
 10
699.5168281757062
 20
-88.59484641663151
 10
706.5168316641328
 20
-88.59484641663158
 42
-0.4142135623731076
 10
707.0168319133062
 20
-89.094846665805
 10
707.0168319133062
 20
-91.59484791167162
 10
703.0168299199195
 20
-91.59484791167162
 10
703.0168299199195
 20
-94.59484940671158
 10
707.0168319133062
 20
-94.59484940671158
 10
707.0168319133062
 20
-100.7948524964607
 10
712.0168344050394
 20
-100.7948524964607
 10
712.0168344050394
 20
-108.7948579782739
 10
703.0168299199195
 20
-108.794857978274
 10
703.0168299199195
 20
-111.794859473314
 10
712.0168344050394
 20
-111.794859473314
 10
712.0168344050394
 20
-134.794870935287
 10
703.0168299199194
 20
-134.794870935287
 10
703.0168299199195
 20
-137.794872430327
 10
712.0168344050394
 20
-137.7948724303269
 10
712.0168344050394
 20
-145.7948779121402
 10
707.0168319133062
 20
-145.7948779121402
 10
707.0168319133062
 20
-151.9948810018893
 10
703.0168299199195
 20
-151.9948810018893
 10
703.0168299199195
 20
-154.9948824969293
 10
707.0168319133062
 20
-154.9948824969293
 10
707.0168319133062
 20
-157.494883742796
 42
-0.4142135623731078
 10
706.5168316641328
 20
-157.9948839919693
 10
699.5168281757062
 20
-157.9948839919693
 42
-0.4142135623731035
 10
699.0168279265331
 20
-157.494883742796
 10
699.0168279265331
 20
-145.7948779121401
 10
694.0168254347997
 20
-145.7948779121401
 10
694.0168254347997
 20
-100.7948524964606
 10
699.0168279265331
 20
-100.7948524964607
  0
LWPOLYLINE
  5
74B
330
38A
100
AcDbEntity
  8
INT
100
AcDbPolyline
 90
        4
 70
     1
 43
0.0
 10
617.2757337257134
 20
-134.7948709352868
 10
609.2757297389403
 20
-134.7948709352868
 10
609.2757297389403
 20
-137.7948724303268
 10
617.2757337257134
 20
-137.7948724303268
  0
LWPOLYLINE
  5
74D
330
38A
100
AcDbEntity
  8
EXT
100
AcDbPolyline
 90
       15
 70
     1
 43
0.0
 10
500.8914252506868
 20
-163.2817985039108
 10
500.8914252506868
 20
-138.9341370449973
 42
0.4139919177918105
 10
523.1792638658738
 20
-126.7948652043002
 10
528.8914392043931
 20
-126.7948652043002
 10
528.8914392043931
 20
-131.2003447927648
 10
537.891443689513
 20
-131.2003447927648
 10
537.891443689513
 20
-126.7948652043002
 10
540.4845904973359
 20
-126.7948652043002
 42
-0.3583497593221334
 10
540.9751706183982
 20
-127.1982663127336
 42
-0.3951885163117589
 10
526.3802195772724
 20
-150.5666496086522
 10
512.8914312308467
 20
-163.2817985039108
 10
508.89142923746
 20
-163.2817985039108
 10
508.89142923746
 20
-156.2817950154842
 10
505.89142774242
 20
-156.2817950154842
 10
505.89142774242
 20
-163.2817985039108
  0
LWPOLYLINE
  5
76F
330
38A
100
AcDbEntity
  8
EXT
100
AcDbPolyline
 90
       10
 70
     1
 43
0.0
 10
507.8988102879423
 20
-308.2547858474256
 42
-0.4142135623730951
 10
506.8988102879423
 20
-309.2547858474256
 10
504.8988102879422
 20
-309.2547858474256
 10
504.8988102879422
 20
-315.2547858474256
 10
497.9467262636728
 20
-315.2547858474256
 10
497.9467262636728
 20
-298.0150313400935
 10
504.8988102879422
 20
-298.0150313400935
 10
504.8988102879422
 20
-304.0150313400935
 10
506.8988102879423
 20
-304.0150313400935
 42
-0.4142135623730951
 10
507.8988102879423
 20
-305.0150313400935
  0
LWPOLYLINE
  5
770
330
38A
100
AcDbEntity
  8
EXT
100
AcDbPolyline
 90
       10
 70
     1
 43
0.0
 10
507.8988102879423
 20
-284.0150313400935
 42
-0.4142135623730951
 10
506.8988102879423
 20
-285.0150313400935
 10
504.8988102879422
 20
-285.0150313400935
 10
504.8988102879422
 20
-291.0150313400935
 10
497.9467262636728
 20
-291.0150313400935
 10
497.9467262636728
 20
-273.7752768327613
 10
504.8988102879422
 20
-273.7752768327613
 10
504.8988102879422
 20
-279.7752768327613
 10
506.8988102879423
 20
-279.7752768327613
 42
-0.4142135623730951
 10
507.8988102879423
 20
-280.7752768327613
  0
LWPOLYLINE
  5
771
330
38A
100
AcDbEntity
  8
EXT
100
AcDbPolyline
 90
       10
 70
     1
 43
0.0
 10
507.8988102879423
 20
-259.7752768327613
 42
-0.4142135623730951
 10
506.8988102879423
 20
-260.7752768327614
 10
504.8988102879422
 20
-260.7752768327614
 10
504.8988102879422
 20
-266.7752768327613
 10
497.9467262636728
 20
-266.7752768327613
 10
497.9467262636728
 20
-249.5355223254291
 10
504.8988102879422
 20
-249.5355223254291
 10
504.8988102879422
 20
-255.5355223254291
 10
506.8988102879423
 20
-255.5355223254291
 42
-0.4142135623730951
 10
507.8988102879423
 20
-256.5355223254292
  0
LWPOLYLINE
  5
77D
330
38A
100
AcDbEntity
  8
EXT
100
AcDbPolyline
 90
       11
 70
     1
 43
0.0
 10
599.4400814509186
 20
-72.92162842922135
 10
599.4400814509186
 20
-69.92162444244811
 42
-0.4142135623730925
 10
602.4400829459586
 20
-66.92162294740811
 10
613.4400884277718
 20
-66.92162294740811
 42
-0.4142135623730925
 10
616.4400899228117
 20
-69.92162444244811
 10
616.4400899228117
 20
-74.9216269341813
 42
-0.4142135623730896
 10
613.4400884277718
 20
-77.92162842922135
 10
602.4400814509184
 20
-77.92162842922135
 42
-0.3178372451957823
 10
599.6116543261725
 20
-75.92162842922134
 10
602.4400814509184
 20
-75.92162842922134
 10
602.4400814509184
 20
-72.92162842922135
  0
LWPOLYLINE
  5
77E
330
38A
100
AcDbEntity
  8
EXT
100
AcDbPolyline
 90
       12
 70
     1
 43
0.0
 10
587.8259735042369
 20
-77.0351733804022
 10
590.6116543261723
 20
-75.92162842922134
 10
590.6116543261723
 20
-78.07550045675355
 10
582.9981874571418
 20
-81.11889922887177
 10
582.9981874571418
 20
-78.9048598083974
 10
579.9981874571418
 20
-78.9048598083974
 10
579.9981874571418
 20
-72.9048598083974
 10
582.9981874571418
 20
-72.9048598083974
 10
582.9981874571418
 20
-70.69082038792301
 10
590.6116543261723
 20
-70.69082038792299
 10
590.6116543261723
 20
-72.69082038792305
 10
586.712428553056
 20
-74.24949255846666
  0
LWPOLYLINE
  5
789
330
38A
100
AcDbEntity
  8
EXT
100
AcDbPolyline
 90
        8
 70
     1
 43
0.0
 10
629.1037357266686
 20
-180.8951099827483
 10
629.1037357266686
 20
-183.8951114777882
 10
621.1037317398953
 20
-183.8951114777882
 10
621.1037317398953
 20
-234.8951368934676
 10
629.1037357266686
 20
-234.8951368934676
 10
629.1037357266686
 20
-237.8951383885076
 10
665.0223159030949
 20
-237.8951383885079
 42
0.0906765543846685
 10
665.0223159030952
 20
-180.8951099827487
  0
TEXT
  5
7B8
330
38A
100
AcDbEntity
  8
0
100
AcDbText
 10
339.7994344296817
 20
-309.3951603157604
 30
0.0
 40
5.0
  1
a
  7
style1
 72
     1
 11
341.7417945933925
 21
-306.8951603157604
 31
0.0
100
AcDbText
 73
     2
  0
TEXT
  5
7B9
330
38A
100
AcDbEntity
  8
0
100
AcDbText
 10
379.7994503767748
 20
-309.3951603157606
 30
0.0
 40
5.0
  1
a
  7
style1
 72
     1
 11
381.7418105404855
 21
-306.8951603157606
 31
0.0
100
AcDbText
 73
     2
  0
TEXT
  5
7BA
330
38A
100
AcDbEntity
  8
0
100
AcDbText
 10
419.7994663238675
 20
-309.3951603157604
 30
0.0
 40
5.0
  1
a
  7
style1
 72
     1
 11
421.7418264875782
 21
-306.8951603157604
 31
0.0
100
AcDbText
 73
     2
  0
TEXT
  5
7BB
330
38A
100
AcDbEntity
  8
0
100
AcDbText
 10
459.7994822709607
 20
-309.3951603157604
 30
0.0
 40
5.0
  1
a
  7
style1
 72
     1
 11
461.7418424346714
 21
-306.8951603157604
 31
0.0
100
AcDbText
 73
     2
  0
TEXT
  5
7BC
330
38A
100
AcDbEntity
  8
0
100
AcDbText
 10
339.7994344296817
 20
-267.3951443686675
 30
0.0
 40
5.0
  1
b
  7
style1
 72
     1
 11
341.7417945933925
 21
-264.8951443686675
 31
0.0
100
AcDbText
 73
     2
  0
TEXT
  5
7BD
330
38A
100
AcDbEntity
  8
0
100
AcDbText
 10
379.7994503767748
 20
-267.3951443686675
 30
0.0
 40
5.0
  1
b
  7
style1
 72
     1
 11
381.7418105404855
 21
-264.8951443686675
 31
0.0
100
AcDbText
 73
     2
  0
TEXT
  5
7BE
330
38A
100
AcDbEntity
  8
0
100
AcDbText
 10
419.7994663238675
 20
-267.3951443686675
 30
0.0
 40
5.0
  1
b
  7
style1
 72
     1
 11
421.7418264875783
 21
-264.8951443686675
 31
0.0
100
AcDbText
 73
     2
  0
TEXT
  5
7BF
330
38A
100
AcDbEntity
  8
0
100
AcDbText
 10
459.7994822709607
 20
-267.3951443686675
 30
0.0
 40
5.0
  1
b
  7
style1
 72
     1
 11
461.7418424346714
 21
-264.8951443686675
 31
0.0
100
AcDbText
 73
     2
  0
TEXT
  5
7C0
330
38A
100
AcDbEntity
  8
0
100
AcDbText
 10
360.1409666739302
 20
-285.471391323535
 30
0.0
 40
5.0
  1
c
  7
style1
 72
     1
 11
361.8872149686096
 21
-282.971391323535
 31
0.0
100
AcDbText
 73
     2
  0
TEXT
  5
7C1
330
38A
100
AcDbEntity
  8
0
100
AcDbText
 10
399.8393238425657
 20
-285.471391323535
 30
0.0
 40
5.0
  1
c
  7
style1
 72
     1
 11
401.585572137245
 21
-282.971391323535
 31
0.0
100
AcDbText
 73
     2
  0
TEXT
  5
7C2
330
38A
100
AcDbEntity
  8
0
100
AcDbText
 10
439.9787749017387
 20
-285.471391323535
 30
0.0
 40
5.0
  1
c
  7
style1
 72
     1
 11
441.7250231964181
 21
-282.971391323535
 31
0.0
100
AcDbText
 73
     2
  0
TEXT
  5
7C3
330
38A
100
AcDbEntity
  8
0
100
AcDbText
 10
479.8096827825347
 20
-285.471391323535
 30
0.0
 40
5.0
  1
c
  7
style1
 72
     1
 11
481.5559310772142
 21
-282.971391323535
 31
0.0
100
AcDbText
 73
     2
  0
TEXT
  5
7CC
330
38A
100
AcDbEntity
  8
0
100
AcDbText
 10
673.1956522225591
 20
-150.6922062063875
 30
0.0
 40
5.0
  1
a,b
  7
style1
 72
     1
 11
678.050699971536
 21
-148.1922062063875
 31
0.0
100
AcDbText
 73
     2
  0
TEXT
  5
7CD
330
38A
100
AcDbEntity
  8
0
100
AcDbText
 10
698.0753341813497
 20
-150.6922062063875
 30
0.0
 40
5.0
  1
a,b
  7
style1
 72
     1
 11
702.9303819303265
 21
-148.1922062063875
 31
0.0
100
AcDbText
 73
     2
  0
TEXT
  5
7CE
330
38A
100
AcDbEntity
  8
0
100
AcDbText
 10
673.1956522225591
 20
-99.51874031534657
 30
0.0
 40
5.0
  1
a,b
  7
style1
 72
     1
 11
678.050699971536
 21
-97.01874031534657
 31
0.0
100
AcDbText
 73
     2
  0
TEXT
  5
7CF
330
38A
100
AcDbEntity
  8
0
100
AcDbText
 10
698.1350433482407
 20
-99.51874031534657
 30
0.0
 40
5.0
  1
a,b
  7
style1
 72
     1
 11
702.9900910972176
 21
-97.01874031534657
 31
0.0
100
AcDbText
 73
     2
  0
TEXT
  5
7D0
330
38A
100
AcDbEntity
  8
0
100
AcDbText
 10
683.3365098160181
 20
-155.4980564931519
 30
0.0
 40
5.0
  1
c
  7
style1
 72
     1
 11
685.0827581106974
 21
-152.9980564931519
 31
0.0
100
AcDbText
 73
     2
  0
TEXT
  5
7D1
330
38A
100
AcDbEntity
  8
0
100
AcDbText
 10
709.3061347116242
 20
-155.279046659056
 30
0.0
 40
5.0
  1
c
  7
style1
 72
     1
 11
711.0523830063035
 21
-152.779046659056
 31
0.0
100
AcDbText
 73
     2
  0
TEXT
  5
7D2
330
38A
100
AcDbEntity
  8
0
100
AcDbText
 10
684.7667545781367
 20
-94.26050682095103
 30
0.0
 40
5.0
  1
c
  7
style1
 72
     1
 11
686.513002872816
 21
-91.76050682095103
 31
0.0
100
AcDbText
 73
     2
  0
TEXT
  5
7D3
330
38A
100
AcDbEntity
  8
0
100
AcDbText
 10
710.3335063224314
 20
-94.39861531062671
 30
0.0
 40
5.0
  1
c
  7
style1
 72
     1
 11
712.0797546171107
 21
-91.89861531062671
 31
0.0
100
AcDbText
 73
     2
  0
TEXT
  5
870
330
38A
100
AcDbEntity
  8
0
100
AcDbText
 10
352.5273681853349
 20
-134.2143114818598
 30
0.0
 40
5.0
  1
21
  7
style1
 72
     1
 11
356.4120885127565
 21
-131.7143114818598
 31
0.0
100
AcDbText
 73
     2
  0
TEXT
  5
873
330
38A
100
AcDbEntity
  8
0
100
AcDbText
 10
449.5274165249603
 20
-134.2143114818599
 30
0.0
 40
5.0
  1
22
  7
style1
 72
     1
 11
453.4121368523819
 21
-131.7143114818599
 31
0.0
100
AcDbText
 73
     2
  0
TEXT
  5
874
330
38A
100
AcDbEntity
  8
0
100
AcDbText
 10
352.5273681853349
 20
-82.96167534185057
 30
0.0
 40
5.0
  1
21
  7
style1
 72
     1
 11
356.4120885127565
 21
-80.46167534185057
 31
0.0
100
AcDbText
 73
     2
  0
TEXT
  5
875
330
38A
100
AcDbEntity
  8
0
100
AcDbText
 10
449.5207472442881
 20
-83.57079476515165
 30
0.0
 40
5.0
  1
22
  7
style1
 72
     1
 11
453.4054675717097
 21
-81.07079476515165
 31
0.0
100
AcDbText
 73
     2
  0
TEXT
  5
876
330
38A
100
AcDbEntity
  8
0
100
AcDbText
 10
359.8441705110265
 20
-99.0190318257574
 30
0.0
 40
5.0
  1
7
  7
style1
 72
     1
 11
361.7865306747372
 21
-96.5190318257574
 31
0.0
100
AcDbText
 73
     2
  0
TEXT
  5
877
330
38A
100
AcDbEntity
  8
0
100
AcDbText
 10
360.1913203608252
 20
-119.0514083390536
 30
0.0
 40
5.0
  1
7
  7
style1
 72
     1
 11
362.1336805245359
 21
-116.5514083390536
 31
0.0
100
AcDbText
 73
     2
  0
TEXT
  5
879
330
38A
100
AcDbEntity
  8
0
100
AcDbText
 10
418.006304130223
 20
-83.82458568653248
 30
0.0
 40
5.0
  1
3
  7
style1
 72
     1
 11
419.9486642939338
 21
-81.32458568653248
 31
0.0
100
AcDbText
 73
     2
  0
TEXT
  5
87A
330
38A
100
AcDbEntity
  8
0
100
AcDbText
 10
430.791529273243
 20
-95.35679386026719
 30
0.0
 40
5.0
  1
4
  7
style1
 72
     1
 11
432.7338894369538
 21
-92.85679386026719
 31
0.0
100
AcDbText
 73
     2
  0
TEXT
  5
87B
330
38A
100
AcDbEntity
  8
0
100
AcDbText
 10
451.7019602223331
 20
-100.2382835828105
 30
0.0
 40
5.0
  1
5
  7
style1
 72
     1
 11
453.6443203860438
 21
-97.73828358281051
 31
0.0
100
AcDbText
 73
     2
  0
TEXT
  5
87C
330
38A
100
AcDbEntity
  8
0
100
AcDbText
 10
473.8713621122361
 20
-93.03133469248578
 30
0.0
 40
5.0
  1
6
  7
style1
 72
     1
 11
475.8137222759469
 21
-90.53133469248578
 31
0.0
100
AcDbText
 73
     2
  0
TEXT
  5
87D
330
38A
100
AcDbEntity
  8
0
100
AcDbText
 10
465.8981115192424
 20
-82.88234598804683
 30
0.0
 40
5.0
  1
19
  7
style1
 72
     1
 11
469.782831846664
 21
-80.38234598804683
 31
0.0
100
AcDbText
 73
     2
  0
TEXT
  5
87E
330
38A
100
AcDbEntity
  8
0
100
AcDbText
 10
417.1937581537553
 20
-134.2143114818598
 30
0.0
 40
5.0
  1
3
  7
style1
 72
     1
 11
419.1361183174659
 21
-131.7143114818598
 31
0.0
100
AcDbText
 73
     2
  0
TEXT
  5
87F
330
38A
100
AcDbEntity
  8
0
100
AcDbText
 10
431.7638877029576
 20
-122.1165601795627
 30
0.0
 40
5.0
  1
4
  7
style1
 72
     1
 11
433.7062478666684
 21
-119.6165601795627
 31
0.0
100
AcDbText
 73
     2
  0
TEXT
  5
880
330
38A
100
AcDbEntity
  8
0
100
AcDbText
 10
450.9351105416747
 20
-117.26340259235
 30
0.0
 40
5.0
  1
5
  7
style1
 72
     1
 11
452.8774707053854
 21
-114.76340259235
 31
0.0
100
AcDbText
 73
     2
  0
TEXT
  5
881
330
38A
100
AcDbEntity
  8
0
100
AcDbText
 10
473.4697876522974
 20
-124.2143064983934
 30
0.0
 40
5.0
  1
6
  7
style1
 72
     1
 11
475.4121478160082
 21
-121.7143064983934
 31
0.0
100
AcDbText
 73
     2
  0
TEXT
  5
882
330
38A
100
AcDbEntity
  8
0
100
AcDbText
 10
466.119043132143
 20
-134.2143114818598
 30
0.0
 40
5.0
  1
19
  7
style1
 72
     1
 11
470.0037634595646
 21
-131.7143114818598
 31
0.0
100
AcDbText
 73
     2
  0
TEXT
  5
883
330
38A
100
AcDbEntity
  8
0
100
AcDbText
 10
518.4603207916883
 20
-224.5265838459591
 30
0.0
 40
5.0
  1
1
  7
style1
 72
     1
 11
520.402680955399
 21
-222.0265838459591
 31
0.0
100
AcDbText
 73
     2
  0
TEXT
  5
884
330
38A
100
AcDbEntity
  8
0
100
AcDbText
 10
518.4603207916883
 20
-198.4069782301126
 30
0.0
 40
5.0
  1
1
  7
style1
 72
     1
 11
520.402680955399
 21
-195.9069782301126
 31
0.0
100
AcDbText
 73
     2
  0
TEXT
  5
8A7
330
38A
100
AcDbEntity
  8
0
100
AcDbText
 10
387.1988252946638
 20
-136.8209384265758
 30
0.0
 40
5.0
  1
2
  7
style1
 72
     1
 11
389.1411854583746
 21
-134.3209384265758
 31
0.0
100
AcDbText
 73
     2
  0
TEXT
  5
8A8
330
38A
100
AcDbEntity
  8
0
100
AcDbText
 10
410.7165808372309
 20
-80.95879206124777
 30
0.0
 40
5.0
  1
1
  7
style1
 72
     1
 11
412.6589410009416
 21
-78.45879206124777
 31
0.0
100
AcDbText
 73
     2
  0
TEXT
  5
8A9
330
38A
100
AcDbEntity
  8
0
100
AcDbText
 10
410.5024661395153
 20
-136.6150803397097
 30
0.0
 40
5.0
  1
1
  7
style1
 72
     1
 11
412.4448263032261
 21
-134.1150803397097
 31
0.0
100
AcDbText
 73
     2
  0
TEXT
  5
8AA
330
38A
100
AcDbEntity
  8
0
100
AcDbText
 10
508.8761830621316
 20
-198.3477414809821
 30
0.0
 40
5.0
  1
2
  7
style1
 72
     1
 11
510.8185432258424
 21
-195.8477414809821
 31
0.0
100
AcDbText
 73
     2
  0
TEXT
  5
8AB
330
38A
100
AcDbEntity
  8
0
100
AcDbText
 10
556.306354947167
 20
-192.9708696214417
 30
0.0
 40
5.0
  1
3
  7
style1
 72
     1
 11
558.2487151108778
 21
-190.4708696214417
 31
0.0
100
AcDbText
 73
     2
  0
TEXT
  5
8AC
330
38A
100
AcDbEntity
  8
0
100
AcDbText
 10
556.306354947167
 20
-219.0965953304607
 30
0.0
 40
5.0
  1
3
  7
style1
 72
     1
 11
558.2487151108778
 21
-216.5965953304607
 31
0.0
100
AcDbText
 73
     2
  0
TEXT
  5
8AD
330
38A
100
AcDbEntity
  8
0
100
AcDbText
 10
586.3797239833078
 20
-193.4329904048946
 30
0.0
 40
5.0
  1
4
  7
style1
 72
     1
 11
588.3220841470185
 21
-190.9329904048945
 31
0.0
100
AcDbText
 73
     2
  0
TEXT
  5
8AE
330
38A
100
AcDbEntity
  8
0
100
AcDbText
 10
586.5666039115179
 20
-219.3903142959656
 30
0.0
 40
5.0
  1
4
  7
style1
 72
     1
 11
588.5089640752287
 21
-216.8903142959656
 31
0.0
100
AcDbText
 73
     2
  0
LWPOLYLINE
  5
8AF
330
38A
100
AcDbEntity
  8
EXT
100
AcDbPolyline
 90
       28
 70
     1
 43
0.0
 10
537.7215320513128
 20
-194.8951169596015
 10
537.7215320513128
 20
-183.8951114777883
 10
532.7215295595796
 20
-183.8951114777883
 10
532.7215295595796
 20
-180.8951099827483
 10
524.7215255728063
 20
-180.8951099827483
 10
524.7215255728063
 20
-177.8951084877083
 10
507.7215171009131
 20
-177.8951084877083
 10
507.7215171009131
 20
-180.8951099827483
 10
497.7215121174466
 20
-180.8951099827483
 10
497.7215121174466
 20
-194.8951169596014
 10
507.7215171009131
 20
-194.8951169596014
 10
507.7215171009131
 20
-197.8951184546414
 10
497.7215121174466
 20
-197.8951184546414
 10
497.7215121174466
 20
-237.8951383885076
 10
507.7215171009131
 20
-237.8951383885076
 10
507.7215171009131
 20
-240.8951398835476
 10
524.7215255728063
 20
-240.8951398835476
 10
524.7215255728063
 20
-237.8951383885076
 10
532.7215295595796
 20
-237.8951383885076
 10
532.7215295595796
 20
-234.8951368934677
 10
537.7215320513128
 20
-234.8951368934677
 10
537.7215320513128
 20
-223.8951314116544
 10
524.7215255728063
 20
-223.8951314116544
 10
524.7215255728063
 20
-220.8951299166145
 10
529.7215280645396
 20
-220.8951299166145
 10
529.7215280645396
 20
-197.8951184546414
 10
524.7215255728063
 20
-197.8951184546414
 10
524.7215255728063
 20
-194.8951169596014
  0
TEXT
  5
8B0
330
38A
100
AcDbEntity
  8
0
100
AcDbText
 10
636.9824537563366
 20
-219.1410636434648
 30
0.0
 40
5.0
  1
5
  7
style1
 72
     1
 11
638.9248139200474
 21
-216.6410636434648
 31
0.0
100
AcDbText
 73
     2
  0
TEXT
  5
8B1
330
38A
100
AcDbEntity
  8
0
100
AcDbText
 10
636.8738358060921
 20
-193.3091550730188
 30
0.0
 40
5.0
  1
5
  7
style1
 72
     1
 11
638.8161959698029
 21
-190.8091550730188
 31
0.0
100
AcDbText
 73
     2
  0
LWPOLYLINE
  5
8B7
330
38A
100
AcDbEntity
  8
INT
100
AcDbPolyline
 90
        4
 70
     1
 43
0.0
 10
646.0223064345085
 20
-194.8951169596015
 10
632.0222994576554
 20
-194.8951169596014
 10
632.0222994576555
 20
-197.8951184546414
 10
646.0223064345085
 20
-197.8951184546414
  0
TEXT
  5
8B8
330
38A
100
AcDbEntity
  8
0
100
AcDbText
 10
611.5297552917619
 20
-107.3994115536302
 30
0.0
 40
5.0
  1
6
  7
style1
 72
     1
 11
613.4721154554727
 21
-104.8994115536302
 31
0.0
100
AcDbText
 73
     2
  0
TEXT
  5
8B9
330
38A
100
AcDbEntity
  8
0
100
AcDbText
 10
611.1637636204608
 20
-133.5487047529509
 30
0.0
 40
5.0
  1
6
  7
style1
 72
     1
 11
613.1061237841715
 21
-131.0487047529509
 31
0.0
100
AcDbText
 73
     2
  0
TEXT
  5
8BE
330
38A
100
AcDbEntity
  8
0
100
AcDbText
 10
579.277078513414
 20
-266.1841868067881
 30
0.0
 40
5.0
  1
7
  7
style1
 72
     1
 11
581.2194386771247
 21
-263.684186806788
 31
0.0
100
AcDbText
 73
     2
  0
TEXT
  5
8BF
330
38A
100
AcDbEntity
  8
0
100
AcDbText
 10
579.277078513414
 20
-292.7385654891206
 30
0.0
 40
5.0
  1
7
  7
style1
 72
     1
 11
581.2194386771247
 21
-290.2385654891205
 31
0.0
100
AcDbText
 73
     2
  0
TEXT
  5
8C0
330
38A
100
AcDbEntity
  8
0
100
AcDbText
 10
571.2642680784341
 20
-279.2030091629329
 30
0.0
 40
5.0
  1
8
  7
style1
 72
     1
 11
573.2066282421449
 21
-276.7030091629329
 31
0.0
100
AcDbText
 73
     2
  0
TEXT
  5
8C1
330
38A
100
AcDbEntity
  8
0
100
AcDbText
 10
643.0265344772143
 20
-279.2030091629329
 30
0.0
 40
5.0
  1
9
  7
style1
 72
     1
 11
644.9688946409251
 21
-276.7030091629329
 31
0.0
100
AcDbText
 73
     2
  0
TEXT
  5
8C2
330
38A
100
AcDbEntity
  8
0
100
AcDbText
 10
699.6683239978964
 20
-221.8831543741527
 30
0.0
 40
5.0
  1
8
  7
style1
 72
     1
 11
701.6106841616071
 21
-219.3831543741527
 31
0.0
100
AcDbText
 73
     2
  0
TEXT
  5
8C3
330
38A
100
AcDbEntity
  8
0
100
AcDbText
 10
695.1081799872623
 20
-217.8060096115797
 30
0.0
 40
5.0
  1
9
  7
style1
 72
     1
 11
697.0505401509731
 21
-215.3060096115797
 31
0.0
100
AcDbText
 73
     2
  0
TEXT
  5
8C4
330
38A
100
AcDbEntity
  8
0
100
AcDbText
 10
698.1536131525683
 20
-183.3916777782931
 30
0.0
 40
5.0
  1
10
  7
style1
 72
     1
 11
702.0383334799898
 21
-180.8916777782931
 31
0.0
100
AcDbText
 73
     2
  0
TEXT
  5
8C5
330
38A
100
AcDbEntity
  8
0
100
AcDbText
 10
394.0737192180249
 20
-118.5169075980873
 30
0.0
 40
5.0
  1
10
  7
style1
 72
     1
 11
397.9584395454465
 21
-116.0169075980873
 31
0.0
100
AcDbText
 73
     2
  0
TEXT
  5
8C6
330
38A
100
AcDbEntity
  8
0
100
AcDbText
 10
503.5666077089987
 20
-97.20170029711347
 30
0.0
 40
5.0
  1
11
  7
style1
 72
     1
 11
507.4513280364203
 21
-94.70170029711345
 31
0.0
100
AcDbText
 73
     2
  0
TEXT
  5
8C7
330
38A
100
AcDbEntity
  8
0
100
AcDbText
 10
503.4547978629093
 20
-155.0415172295308
 30
0.0
 40
5.0
  1
11
  7
style1
 72
     1
 11
507.3395181903308
 21
-152.5415172295309
 31
0.0
100
AcDbText
 73
     2
  0
TEXT
  5
8CB
330
38A
100
AcDbEntity
  8
0
100
AcDbText
 10
492.8820382757047
 20
-126.37416625125
 30
0.0
 40
5.0
  1
20,12,13
  7
style1
 72
     1
 11
506.4768541010798
 21
-123.87416625125
 31
0.0
100
AcDbText
 73
     2
  0
TEXT
  5
8CC
330
38A
100
AcDbEntity
  8
0
100
AcDbText
 10
576.6423026905447
 20
-152.1424748728656
 30
0.0
 40
5.0
  1
12
  7
style1
 72
     1
 11
580.5270230179663
 21
-149.6424748728656
 31
0.0
100
AcDbText
 73
     2
  0
TEXT
  5
8CD
330
38A
100
AcDbEntity
  8
0
100
AcDbText
 10
576.4515428649063
 20
-98.95952285703447
 30
0.0
 40
5.0
  1
12
  7
style1
 72
     1
 11
580.3362631923278
 21
-96.45952285703447
 31
0.0
100
AcDbText
 73
     2
  0
TEXT
  5
8CE
330
38A
100
AcDbEntity
  8
0
100
AcDbText
 10
551.0805387937832
 20
-99.9126227112813
 30
0.0
 40
5.0
  1
13
  7
style1
 72
     1
 11
554.9652591212048
 21
-97.4126227112813
 31
0.0
100
AcDbText
 73
     2
  0
TEXT
  5
8CF
330
38A
100
AcDbEntity
  8
0
100
AcDbText
 10
550.6990203411153
 20
-151.1893756938276
 30
0.0
 40
5.0
  1
13
  7
style1
 72
     1
 11
554.5837406685368
 21
-148.6893756938276
 31
0.0
100
AcDbText
 73
     2
  0
TEXT
  5
8D0
330
38A
100
AcDbEntity
  8
0
100
AcDbText
 10
332.0378119039592
 20
-222.3409475973466
 30
0.0
 40
5.0
  1
17
  7
style1
 72
     1
 11
335.9225322313807
 21
-219.8409475973466
 31
0.0
100
AcDbText
 73
     2
  0
TEXT
  5
8D1
330
38A
100
AcDbEntity
  8
0
100
AcDbText
 10
374.7002243147155
 20
-209.2236527800058
 30
0.0
 40
5.0
  1
16
  7
style1
 72
     1
 11
378.5849446421371
 21
-206.7236527800058
 31
0.0
100
AcDbText
 73
     2
  0
TEXT
  5
8D2
330
38A
100
AcDbEntity
  8
0
100
AcDbText
 10
396.6877756398955
 20
-217.4219618720416
 30
0.0
 40
5.0
  1
23
  7
style1
 72
     1
 11
400.572495967317
 21
-214.9219618720416
 31
0.0
100
AcDbText
 73
     2
  0
TEXT
  5
8D3
330
38A
100
AcDbEntity
  8
0
100
AcDbText
 10
401.2821890812892
 20
-227.5878653892412
 30
0.0
 40
5.0
  1
15
  7
style1
 72
     1
 11
405.1669094087108
 21
-225.0878653892412
 31
0.0
100
AcDbText
 73
     2
  0
TEXT
  5
8D4
330
38A
100
AcDbEntity
  8
0
100
AcDbText
 10
483.0334929286307
 20
-230.8615359073356
 30
0.0
 40
5.0
  1
18
  7
style1
 72
     1
 11
486.9182132560522
 21
-228.3615359073356
 31
0.0
100
AcDbText
 73
     2
  0
TEXT
  5
8D5
330
38A
100
AcDbEntity
  8
0
100
AcDbText
 10
473.5236929310773
 20
-212.6477497055848
 30
0.0
 40
5.0
  1
14
  7
style1
 72
     1
 11
477.4084132584989
 21
-210.1477497055848
 31
0.0
100
AcDbText
 73
     2
  0
TEXT
  5
8D6
330
38A
100
AcDbEntity
  8
0
100
AcDbText
 10
330.7936809022287
 20
-175.0441025484041
 30
0.0
 40
5.0
  1
17
  7
style1
 72
     1
 11
334.6784012296503
 21
-172.5441025484041
 31
0.0
100
AcDbText
 73
     2
  0
TEXT
  5
8D7
330
38A
100
AcDbEntity
  8
0
100
AcDbText
 10
374.3478020962363
 20
-187.6426526236953
 30
0.0
 40
5.0
  1
16
  7
style1
 72
     1
 11
378.2325224236579
 21
-185.1426526236953
 31
0.0
100
AcDbText
 73
     2
  0
TEXT
  5
8D8
330
38A
100
AcDbEntity
  8
0
100
AcDbText
 10
395.8383226193668
 20
-179.0527318415932
 30
0.0
 40
5.0
  1
23
  7
style1
 72
     1
 11
399.7230429467884
 21
-176.5527318415932
 31
0.0
100
AcDbText
 73
     2
  0
TEXT
  5
8D9
330
38A
100
AcDbEntity
  8
0
100
AcDbText
 10
400.7095068717398
 20
-169.6038197915313
 30
0.0
 40
5.0
  1
15
  7
style1
 72
     1
 11
404.5942271991614
 21
-167.1038197915313
 31
0.0
100
AcDbText
 73
     2
  0
TEXT
  5
8DA
330
38A
100
AcDbEntity
  8
0
100
AcDbText
 10
473.0857655402675
 20
-183.5552338829986
 30
0.0
 40
5.0
  1
14
  7
style1
 72
     1
 11
476.9704858676891
 21
-181.0552338829986
 31
0.0
100
AcDbText
 73
     2
  0
TEXT
  5
8DB
330
38A
100
AcDbEntity
  8
0
100
AcDbText
 10
483.3348687857657
 20
-165.4818107757755
 30
0.0
 40
5.0
  1
18
  7
style1
 72
     1
 11
487.2195891131873
 21
-162.9818107757755
 31
0.0
100
AcDbText
 73
     2
  0
TEXT
  5
8DC
330
38A
100
AcDbEntity
  8
0
100
AcDbText
 10
608.9612717363167
 20
-90.04375100207131
 30
0.0
 40
5.0
  1
14
  7
style1
 72
     1
 11
612.8459920637383
 21
-87.54375100207131
 31
0.0
100
AcDbText
 73
     2
  0
TEXT
  5
8DD
330
38A
100
AcDbEntity
  8
0
100
AcDbText
 10
608.856882478728
 20
-161.7012447560424
 30
0.0
 40
5.0
  1
14
  7
style1
 72
     1
 11
612.7416028061495
 21
-159.2012447560424
 31
0.0
100
AcDbText
 73
     2
  0
TEXT
  5
8DE
330
38A
100
AcDbEntity
  8
0
100
AcDbText
 10
511.8121137037291
 20
-239.6485494825719
 30
0.0
 40
5.0
  1
15
  7
style1
 72
     1
 11
515.6968340311506
 21
-237.1485494825719
 31
0.0
100
AcDbText
 73
     2
  0
TEXT
  5
8DF
330
38A
100
AcDbEntity
  8
0
100
AcDbText
 10
512.8399533088859
 20
-185.2128696264095
 30
0.0
 40
5.0
  1
15
  7
style1
 72
     1
 11
516.7246736363074
 21
-182.7128696264095
 31
0.0
100
AcDbText
 73
     2
  0
TEXT
  5
8E0
330
38A
100
AcDbEntity
  8
0
100
AcDbText
 10
692.319532730243
 20
-256.3966982831427
 30
0.0
 40
5.0
  1
16
  7
style1
 72
     1
 11
696.2042530576646
 21
-253.8966982831427
 31
0.0
100
AcDbText
 73
     2
  0
TEXT
  5
8E1
330
38A
100
AcDbEntity
  8
0
100
AcDbText
 10
691.185410065231
 20
-308.2448920085724
 30
0.0
 40
5.0
  1
16
  7
style1
 72
     1
 11
695.0701303926526
 21
-305.7448920085724
 31
0.0
100
AcDbText
 73
     2
  0
TEXT
  5
8E2
330
38A
100
AcDbEntity
  8
0
100
AcDbText
 10
533.4725730150482
 20
-313.5602401935336
 30
0.0
 40
5.0
  1
17
  7
style1
 72
     1
 11
537.3572933424697
 21
-311.0602401935336
 31
0.0
100
AcDbText
 73
     2
  0
TEXT
  5
8E3
330
38A
100
AcDbEntity
  8
0
100
AcDbText
 10
533.0628321141739
 20
-256.5113500992151
 30
0.0
 40
5.0
  1
17
  7
style1
 72
     1
 11
536.9475524415954
 21
-254.0113500992151
 31
0.0
100
AcDbText
 73
     2
  0
TEXT
  5
8E4
330
38A
100
AcDbEntity
  8
0
100
AcDbText
 10
629.5872139915761
 20
-156.1881191161558
 30
0.0
 40
5.0
  1
18
  7
style1
 72
     1
 11
633.4719343189976
 21
-153.6881191161558
 31
0.0
100
AcDbText
 73
     2
  0
TEXT
  5
8E5
330
38A
100
AcDbEntity
  8
0
100
AcDbText
 10
630.7620438164446
 20
-94.90689020196816
 30
0.0
 40
5.0
  1
18
  7
style1
 72
     1
 11
634.6467641438662
 21
-92.40689020196816
 31
0.0
100
AcDbText
 73
     2
  0
TEXT
  5
8E6
330
38A
100
AcDbEntity
  8
0
100
AcDbText
 10
640.395643346209
 20
-112.5164387405278
 30
0.0
 40
5.0
  1
19
  7
style1
 72
     1
 11
644.2803636736305
 21
-110.0164387405278
 31
0.0
100
AcDbText
 73
     2
  0
TEXT
  5
8E7
330
38A
100
AcDbEntity
  8
0
100
AcDbText
 10
640.395643346209
 20
-138.5785705775961
 30
0.0
 40
5.0
  1
19
  7
style1
 72
     1
 11
644.2803636736305
 21
-136.0785705775961
 31
0.0
100
AcDbText
 73
     2
  0
LINE
  5
8EC
330
38A
100
AcDbEntity
  8
0
100
AcDbLine
 10
522.9765225966956
 20
-123.8525980613891
 30
0.0
 11
533.2841083739562
 21
-127.6393793787449
 31
0.0
  0
LINE
  5
8ED
330
38A
100
AcDbEntity
  8
0
100
AcDbLine
 10
522.9765225966956
 20
-122.9437703021485
 30
0.0
 11
533.587272555763
 21
-119.0055173539815
 31
0.0
  0
TEXT
  5
8EE
330
38A
100
AcDbEntity
  8
0
100
AcDbText
 10
669.9132666701307
 20
-112.4090886401302
 30
0.0
 40
5.0
  1
21
  7
style1
 72
     1
 11
673.7979869975522
 21
-109.9090886401302
 31
0.0
100
AcDbText
 73
     2
  0
TEXT
  5
8EF
330
38A
100
AcDbEntity
  8
0
100
AcDbText
 10
669.7322743094728
 20
-138.9953837704075
 30
0.0
 40
5.0
  1
21
  7
style1
 72
     1
 11
673.6169946368943
 21
-136.4953837704075
 31
0.0
100
AcDbText
 73
     2
  0
TEXT
  5
8F0
330
38A
100
AcDbEntity
  8
0
100
AcDbText
 10
694.7091074110133
 20
-112.9516662295662
 30
0.0
 40
5.0
  1
22
  7
style1
 72
     1
 11
698.5938277384348
 21
-110.4516662295661
 31
0.0
100
AcDbText
 73
     2
  0
TEXT
  5
8F1
330
38A
100
AcDbEntity
  8
0
100
AcDbText
 10
694.5281150503554
 20
-138.8145250240681
 30
0.0
 40
5.0
  1
22
  7
style1
 72
     1
 11
698.4128353777768
 21
-136.314525024068
 31
0.0
100
AcDbText
 73
     2
  0
TEXT
  5
8F2
330
38A
100
AcDbEntity
  8
0
100
AcDbText
 10
499.877292575545
 20
-259.3239421196307
 30
0.0
 40
5.0
  1
x
  7
style1
 72
     1
 11
501.6235408702244
 21
-256.8239421196306
 31
0.0
100
AcDbText
 73
     2
  0
TEXT
  5
8F3
330
38A
100
AcDbEntity
  8
0
100
AcDbText
 10
499.877292575545
 20
-284.3053765067683
 30
0.0
 40
5.0
  1
x
  7
style1
 72
     1
 11
501.6235408702244
 21
-281.8053765067682
 31
0.0
100
AcDbText
 73
     2
  0
TEXT
  5
8F4
330
38A
100
AcDbEntity
  8
0
100
AcDbText
 10
499.877292575545
 20
-309.0122898743404
 30
0.0
 40
5.0
  1
x
  7
style1
 72
     1
 11
501.6235408702244
 21
-306.5122898743404
 31
0.0
100
AcDbText
 73
     2
  0
TEXT
  5
8F5
330
38A
100
AcDbEntity
  8
0
100
AcDbText
 10
519.6572913375137
 20
-302.6983010226647
 30
0.0
 40
5.0
  1
x
  7
style1
 72
     1
 11
521.403539632193
 21
-300.1983010226647
 31
0.0
100
AcDbText
 73
     2
  0
TEXT
  5
8F6
330
38A
100
AcDbEntity
  8
0
100
AcDbText
 10
526.8000686349298
 20
-284.0308554872028
 30
0.0
 40
5.0
  1
x
  7
style1
 72
     1
 11
528.5463169296092
 21
-281.5308554872028
 31
0.0
100
AcDbText
 73
     2
  0
TEXT
  5
8F7
330
38A
100
AcDbEntity
  8
0
100
AcDbText
 10
519.9320137256618
 20
-265.6379309713064
 30
0.0
 40
5.0
  1
x
  7
style1
 72
     1
 11
521.6782620203412
 21
-263.1379309713064
 31
0.0
100
AcDbText
 73
     2
  0
TEXT
  5
8F8
330
38A
100
AcDbEntity
  8
0
100
AcDbText
 10
628.4469504517326
 20
-187.2260937308139
 30
0.0
 40
5.0
  1
20
  7
style1
 72
     1
 11
632.3316707791541
 21
-184.7260937308139
 31
0.0
100
AcDbText
 73
     2
  0
TEXT
  5
8F9
330
38A
100
AcDbEntity
  8
0
100
AcDbText
 10
628.752418360094
 20
-235.8227509600257
 30
0.0
 40
5.0
  1
20
  7
style1
 72
     1
 11
632.6371386875154
 21
-233.3227509600257
 31
0.0
100
AcDbText
 73
     2
  0
TEXT
  5
8FA
330
38A
100
AcDbEntity
  8
0
100
AcDbText
 10
537.3672313134225
 20
-74.78811359080509
 30
0.0
 40
5.0
  1
24
  7
style1
 72
     1
 11
541.251951640844
 21
-72.28811359080509
 31
0.0
100
AcDbText
 73
     2
  0
TEXT
  5
8FB
330
38A
100
AcDbEntity
  8
0
100
AcDbText
 10
563.4816079101449
 20
-78.36283205923166
 30
0.0
 40
5.0
  1
23
  7
style1
 72
     1
 11
567.3663282375664
 21
-75.86283205923166
 31
0.0
100
AcDbText
 73
     2
  0
TEXT
  5
8FC
330
38A
100
AcDbEntity
  8
0
100
AcDbText
 10
579.8306134962376
 20
-78.04560813006742
 30
0.0
 40
5.0
  1
23
  7
style1
 72
     1
 11
583.7153338236592
 21
-75.54560813006742
 31
0.0
100
AcDbText
 73
     2
  0
TEXT
  5
8FD
330
38A
100
AcDbEntity
  8
0
100
AcDbText
 10
604.1333812420857
 20
-74.64585923624042
 30
0.0
 40
5.0
  1
24
  7
style1
 72
     1
 11
608.0181015695073
 21
-72.14585923624042
 31
0.0
100
AcDbText
 73
     2
  0
TEXT
  5
8FE
330
38A
100
AcDbEntity
  8
0
100
AcDbText
 10
587.4774334585254
 20
-69.38244676692841
 30
0.0
 40
5.0
  1
24
  7
style1
 72
     1
 11
591.3621537859468
 21
-66.88244676692841
 31
0.0
100
AcDbText
 73
     2
  0
TEXT
  5
8FF
330
38A
100
AcDbEntity
  8
0
100
AcDbText
 10
555.3044058495642
 20
-69.24019241236362
 30
0.0
 40
5.0
  1
24
  7
style1
 72
     1
 11
559.1891261769858
 21
-66.74019241236362
 31
0.0
100
AcDbText
 73
     2
  0
ENDSEC
  0
SECTION
  2
OBJECTS
  0
DICTIONARY
  5
32B
330
0
100
AcDbDictionary
281
     1
  3
ACAD_COLOR
350
381
  3
ACAD_GROUP
350
32C
  3
ACAD_LAYOUT
350
380
  3
ACAD_MATERIAL
350
32F
  3
ACAD_MLEADERSTYLE
350
384
  3
ACAD_MLINESTYLE
350
37D
  3
ACAD_PLOTSETTINGS
350
37F
  3
ACAD_PLOTSTYLENAME
350
32D
  3
ACAD_SCALELIST
350
361
  3
ACAD_TABLESTYLE
350
382
  3
ACAD_VISUALSTYLE
350
348
  3
ACDB_RECOMPOSE_DATA
350
94C
  3
AcDbVariableDictionary
350
7E3
  3
DWGPROPS
350
94D
  0
DICTIONARY
  5
78D
330
321
100
AcDbDictionary
280
     1
281
     1
  3
ACAD_LAYERSTATES
360
78E
  0
DICTIONARY
  5
726
330
373
100
AcDbDictionary
280
     1
281
     1
  3
ADSK_XREC_LAYER_RECONCILED
360
727
  0
DICTIONARY
  5
728
330
390
100
AcDbDictionary
280
     1
281
     1
  3
ADSK_XREC_LAYER_RECONCILED
360
729
  0
DICTIONARY
  5
72A
330
391
100
AcDbDictionary
280
     1
281
     1
  3
ADSK_XREC_LAYER_RECONCILED
360
72B
  0
DICTIONARY
  5
3B8
330
38A
100
AcDbDictionary
280
     1
281
     1
  3
ACAD_SORTENTS
360
3B9
  0
DICTIONARY
  5
381
102
{ACAD_REACTORS
330
32B
102
}
330
32B
100
AcDbDictionary
281
     1
  0
DICTIONARY
  5
32C
102
{ACAD_REACTORS
330
32B
102
}
330
32B
100
AcDbDictionary
281
     1
  0
DICTIONARY
  5
380
102
{ACAD_REACTORS
330
32B
102
}
330
32B
100
AcDbDictionary
281
     1
  3
Layout1
350
389
  3
Model
350
38D
  0
DICTIONARY
  5
32F
102
{ACAD_REACTORS
330
32B
102
}
330
32B
100
AcDbDictionary
281
     1
  3
ByBlock
350
338
  3
ByLayer
350
330
  3
Global
350
340
  0
DICTIONARY
  5
384
102
{ACAD_REACTORS
330
32B
102
}
330
32B
100
AcDbDictionary
281
     1
  3
Standard
350
385
  0
DICTIONARY
  5
37D
102
{ACAD_REACTORS
330
32B
102
}
330
32B
100
AcDbDictionary
281
     1
  3
Standard
350
37E
  0
DICTIONARY
  5
37F
102
{ACAD_REACTORS
330
32B
102
}
330
32B
100
AcDbDictionary
281
     1
  0
ACDBDICTIONARYWDFLT
  5
32D
102
{ACAD_REACTORS
330
32B
102
}
330
32B
100
AcDbDictionary
281
     1
  3
Normal
350
32E
100
AcDbDictionaryWithDefault
340
32E
  0
DICTIONARY
  5
361
102
{ACAD_REACTORS
330
32B
102
}
330
32B
100
AcDbDictionary
281
     1
  3
A0
350
362
  3
A1
350
363
  3
A2
350
364
  3
A3
350
365
  3
A4
350
366
  3
A5
350
367
  3
A6
350
368
  3
A7
350
369
  3
A8
350
36A
  3
A9
350
36B
  3
B0
350
36C
  3
B1
350
36D
  3
B2
350
36E
  3
B3
350
36F
  3
B4
350
370
  3
B5
350
371
  3
B6
350
372
  0
DICTIONARY
  5
382
102
{ACAD_REACTORS
330
32B
102
}
330
32B
100
AcDbDictionary
281
     1
  3
Standard
350
383
  0
DICTIONARY
  5
348
102
{ACAD_REACTORS
330
32B
102
}
330
32B
100
AcDbDictionary
281
     1
  3
2dWireframe
350
34E
  3
Basic
350
34D
  3
Brighten
350
354
  3
ColorChange
350
358
  3
Conceptual
350
351
  3
Dim
350
353
  3
EdgeColorOff
350
360
  3
Facepattern
350
357
  3
Flat
350
349
  3
FlatWithEdges
350
34A
  3
Gouraud
350
34B
  3
GouraudWithEdges
350
34C
  3
Hidden
350
350
  3
JitterOff
350
35E
  3
Linepattern
350
356
  3
OverhangOff
350
35F
  3
Realistic
350
352
  3
Shaded
350
35D
  3
Shaded with edges
350
35C
  3
Shades of Gray
350
359
  3
Sketchy
350
35A
  3
Thicken
350
355
  3
Wireframe
350
34F
  3
X-Ray
350
35B
  0
XRECORD
  5
94C
102
{ACAD_REACTORS
330
32B
102
}
330
32B
100
AcDbXrecord
280
     1
 90
        1
330
383
  0
DICTIONARY
  5
7E3
102
{ACAD_REACTORS
330
32B
102
}
330
32B
100
AcDbDictionary
281
     1
  3
CANNOSCALE
350
7E6
  3
CMLEADERSTYLE
350
7E5
  3
CTABLESTYLE
350
7E4
  3
DIMASSOC
350
7E9
  3
INDEXCTL
350
7E8
  3
SORTENTS
350
7E7
  3
XCLIPFRAME
350
913
  0
XRECORD
  5
94D
102
{ACAD_REACTORS
330
32B
102
}
330
32B
100
AcDbXrecord
280
     1
  1
DWGPROPS COOKIE
  2

  3

  4

  6

  7

  8
Administrator
  9

300
=
301
=
302
=
303
=
304
=
305
=
306
=
307
=
308
=
309
=
 40
0.2137963078703704
 41
2454910.5
 42
2455555.579118553
  1

 90
        0
  0
DICTIONARY
  5
78E
102
{ACAD_REACTORS
330
78D
102
}
330
78D
100
AcDbDictionary
281
     1
  0
XRECORD
  5
727
102
{ACAD_REACTORS
330
726
102
}
330
726
100
AcDbXrecord
280
     1
290
     1
  0
XRECORD
  5
729
102
{ACAD_REACTORS
330
728
102
}
330
728
100
AcDbXrecord
280
     1
290
     1
  0
XRECORD
  5
72B
102
{ACAD_REACTORS
330
72A
102
}
330
72A
100
AcDbXrecord
280
     1
290
     1
  0
SORTENTSTABLE
  5
3B9
102
{ACAD_REACTORS
330
3B8
102
}
330
3B8
100
AcDbSortentsTable
330
38A
331
7C1
  5
889
331
6DE
  5
71A
331
7D2
  5
892
331
59D
  5
6F9
331
879
  5
89B
331
710
  5
874
331
6E3
  5
737
331
6F4
  5
74D
331
7BB
  5
883
331
6D8
  5
712
331
7CC
  5
88C
331
883
  5
8AB
331
8B0
  5
8B5
331
4F3
  5
701
331
58C
  5
702
331
873
  5
895
331
53
  5
53
331
70A
  5
7CF
331
76F
  5
704
331
71B
  5
878
331
6EE
  5
746
331
6FF
  5
7BC
331
6D2
  5
70C
331
77E
  5
87F
331
591
  5
705
331
8AA
  5
8B0
331
586
  5
706
331
69
  5
6F0
331
87E
  5
8A0
331
704
  5
7C1
331
5E
  5
7E
331
6E8
  5
73D
331
6F9
  5
77E
331
7C0
  5
888
331
6DD
  5
719
331
7D1
  5
891
331
74B
  5
5E
331
58
  5
6E
331
70F
  5
7D2
331
6E2
  5
736
331
6F3
  5
74B
331
7BA
  5
882
331
6D7
  5
711
331
882
  5
8AA
331
8AF
  5
6F4
331
58B
  5
6F6
331
52
  5
52
331
709
  5
7CE
331
71A
  5
877
331
6ED
  5
744
331
6FE
  5
7BB
331
6D1
  5
70B
331
77D
  5
87E
331
590
  5
6F2
331
8A9
  5
8AF
331
585
  5
6F
331
87D
  5
89F
331
703
  5
7C0
331
5D
  5
7C
331
6E7
  5
73B
331
6F8
  5
77D
331
7BF
  5
887
331
6DC
  5
718
331
7D0
  5
890
331
62
  5
5A1
331
877
  5
899
331
57
  5
63
331
70E
  5
7D0
331
6E1
  5
734
331
6F2
  5
74A
331
7B9
  5
881
331
771
  5
87D
331
6D6
  5
710
331
8AE
  5
8B4
331
881
  5
8A9
331
58A
  5
6F5
331
734
  5
87A
331
51
  5
51
331
708
  5
7CD
331
719
  5
876
331
6EC
  5
743
331
6FD
  5
7BA
331
6D0
  5
70A
331
8A8
  5
8AE
331
584
  5
6F7
331
67
  5
5A6
331
87C
  5
89E
331
702
  5
7BF
331
5C
  5
7B
331
6E6
  5
73A
331
6F7
  5
771
331
7BE
  5
886
331
6DB
  5
715
331
7CF
  5
88F
331
789
  5
5A4
331
58F
  5
703
331
876
  5
898
331
56
  5
62
331
70D
  5
7D1
331
6E0
  5
71C
331
6F1
  5
749
331
7B8
  5
880
331
770
  5
87C
331
6D5
  5
70F
331
8AD
  5
8B3
331
880
  5
8A8
331
5BD
  5
6FB
331
870
  5
894
331
50
  5
50
331
707
  5
7CC
331
718
  5
875
331
6EB
  5
741
331
6FC
  5
7B9
331
6CF
  5
709
331
7C3
  5
88B
331
8A7
  5
8AD
331
583
  5
707
331
66
  5
5A5
331
77
  5
6FA
331
87B
  5
89D
331
701
  5
7BE
331
6E5
  5
739
331
6F6
  5
770
331
7BD
  5
885
331
6DA
  5
714
331
7CE
  5
88E
331
58E
  5
6F3
331
875
  5
897
331
55
  5
60
331
70C
  5
870
331
6F0
  5
748
331
6D4
  5
70E
331
8AC
  5
8B2
331
588
  5
6D0
331
7C
  5
6FD
331
4F
  5
4F
331
706
  5
7C3
331
6EA
  5
740
331
6FB
  5
7B8
331
6CE
  5
708
331
7C2
  5
88A
331
6DF
  5
71B
331
7D3
  5
893
331
419
  5
6FF
331
8B7
  5
437
331
49
  5
49
331
87A
  5
89C
331
74D
  5
87B
331
700
  5
7BD
331
5A
  5
70
331
711
  5
873
331
6E4
  5
738
331
6F5
  5
757
331
7BC
  5
884
331
6D9
  5
713
331
7CD
  5
88D
331
8B1
  5
8B6
331
884
  5
8AC
331
58D
  5
700
331
874
  5
896
331
70B
  5
7D3
331
71C
  5
879
331
6EF
  5
747
331
6D3
  5
70D
331
592
  5
6FE
331
8AB
  5
8B1
331
587
  5
6F8
331
6A
  5
6F1
331
7B
  5
6FC
331
87F
  5
8A7
331
705
  5
7C2
331
6E9
  5
73E
331
6FA
  5
789
  0
LAYOUT
  5
389
102
{ACAD_XDICTIONARY
360
97F
102
}
102
{ACAD_REACTORS
330
380
102
}
330
380
100
AcDbPlotSettings
  1

  2
Microsoft XPS Document Writer
  4

  6

 40
0.0
 41
0.0
 42
0.0
 43
0.0
 44
0.0
 45
0.0
 46
0.0
 47
0.0
 48
0.0
 49
0.0
140
0.0
141
0.0
142
1.0
143
1.0
 70
   688
 72
     0
 73
     0
 74
     5
  7

 75
    16
147
1.0
148
0.0
149
0.0
100
AcDbLayout
  1
Layout1
 70
     1
 71
     1
 10
0.0
 20
0.0
 11
12.0
 21
9.0
 12
0.0
 22
0.0
 32
0.0
 14
1.000000000000000E 20
 24
1.000000000000000E 20
 34
1.000000000000000E 20
 15
-1.000000000000000E 20
 25
-1.000000000000000E 20
 35
-1.000000000000000E 20
146
0.0
 13
0.0
 23
0.0
 33
0.0
 16
1.0
 26
0.0
 36
0.0
 17
0.0
 27
1.0
 37
0.0
 76
     0
330
386
  0
LAYOUT
  5
38D
102
{ACAD_XDICTIONARY
360
793
102
}
102
{ACAD_REACTORS
330
380
102
}
330
380
100
AcDbPlotSettings
  1

  2
Microsoft XPS Document Writer
  4

  6

 40
0.0
 41
0.0
 42
0.0
 43
0.0
 44
0.0
 45
0.0
 46
0.0
 47
0.0
 48
0.0
 49
0.0
140
0.0
141
0.0
142
1.0
143
1.0
 70
  1712
 72
     0
 73
     0
 74
     0
  7

 75
     0
147
1.0
148
0.0
149
0.0
100
AcDbLayout
  1
Model
 70
     1
 71
     0
 10
0.0
 20
0.0
 11
12.0
 21
9.0
 12
0.0
 22
0.0
 32
0.0
 14
0.0
 24
0.0
 34
0.0
 15
0.0
 25
0.0
 35
0.0
146
0.0
 13
0.0
 23
0.0
 33
0.0
 16
1.0
 26
0.0
 36
0.0
 17
0.0
 27
1.0
 37
0.0
 76
     0
330
38A
331
38E
  0
MATERIAL
  5
338
102
{ACAD_XDICTIONARY
360
339
102
}
102
{ACAD_REACTORS
330
32F
102
}
330
32F
100
AcDbMaterial
  1
ByBlock
 72
     0
 43
0.0208333333333333
 43
0.0
 43
0.0
 43
0.0
 43
0.0
 43
0.0208333333333333
 43
0.0
 43
0.0
 43
0.0
 43
0.0
 43
1.0
 43
0.0
 43
0.0
 43
0.0
 43
0.0
 43
1.0
 77
     0
 47
0.0208333333333333
 47
0.0
 47
0.0
 47
0.0
 47
0.0
 47
0.0208333333333333
 47
0.0
 47
0.0
 47
0.0
 47
0.0
 47
1.0
 47
0.0
 47
0.0
 47
0.0
 47
0.0
 47
1.0
171
     0
 49
0.0208333333333333
 49
0.0
 49
0.0
 49
0.0
 49
0.0
 49
0.0208333333333333
 49
0.0
 49
0.0
 49
0.0
 49
0.0
 49
1.0
 49
0.0
 49
0.0
 49
0.0
 49
0.0
 49
1.0
175
     0
142
0.0208333333333333
142
0.0
142
0.0
142
0.0
142
0.0
142
0.0208333333333333
142
0.0
142
0.0
142
0.0
142
0.0
142
1.0
142
0.0
142
0.0
142
0.0
142
0.0
142
1.0
179
     0
144
0.0208333333333333
144
0.0
144
0.0
144
0.0
144
0.0
144
0.0208333333333333
144
0.0
144
0.0
144
0.0
144
0.0
144
1.0
144
0.0
144
0.0
144
0.0
144
0.0
144
1.0
147
0.0208333333333333
147
0.0
147
0.0
147
0.0
147
0.0
147
0.0208333333333333
147
0.0
147
0.0
147
0.0
147
0.0
147
1.0
147
0.0
147
0.0
147
0.0
147
0.0
147
1.0
  0
MATERIAL
  5
330
102
{ACAD_XDICTIONARY
360
331
102
}
102
{ACAD_REACTORS
330
32F
102
}
330
32F
100
AcDbMaterial
  1
ByLayer
 72
     0
 43
0.0208333333333333
 43
0.0
 43
0.0
 43
0.0
 43
0.0
 43
0.0208333333333333
 43
0.0
 43
0.0
 43
0.0
 43
0.0
 43
1.0
 43
0.0
 43
0.0
 43
0.0
 43
0.0
 43
1.0
 77
     0
 47
0.0208333333333333
 47
0.0
 47
0.0
 47
0.0
 47
0.0
 47
0.0208333333333333
 47
0.0
 47
0.0
 47
0.0
 47
0.0
 47
1.0
 47
0.0
 47
0.0
 47
0.0
 47
0.0
 47
1.0
171
     0
 49
0.0208333333333333
 49
0.0
 49
0.0
 49
0.0
 49
0.0
 49
0.0208333333333333
 49
0.0
 49
0.0
 49
0.0
 49
0.0
 49
1.0
 49
0.0
 49
0.0
 49
0.0
 49
0.0
 49
1.0
175
     0
142
0.0208333333333333
142
0.0
142
0.0
142
0.0
142
0.0
142
0.0208333333333333
142
0.0
142
0.0
142
0.0
142
0.0
142
1.0
142
0.0
142
0.0
142
0.0
142
0.0
142
1.0
179
     0
144
0.0208333333333333
144
0.0
144
0.0
144
0.0
144
0.0
144
0.0208333333333333
144
0.0
144
0.0
144
0.0
144
0.0
144
1.0
144
0.0
144
0.0
144
0.0
144
0.0
144
1.0
147
0.0208333333333333
147
0.0
147
0.0
147
0.0
147
0.0
147
0.0208333333333333
147
0.0
147
0.0
147
0.0
147
0.0
147
1.0
147
0.0
147
0.0
147
0.0
147
0.0
147
1.0
  0
MATERIAL
  5
340
102
{ACAD_XDICTIONARY
360
341
102
}
102
{ACAD_REACTORS
330
32F
102
}
330
32F
100
AcDbMaterial
  1
Global
 72
     0
 43
0.0208333333333333
 43
0.0
 43
0.0
 43
0.0
 43
0.0
 43
0.0208333333333333
 43
0.0
 43
0.0
 43
0.0
 43
0.0
 43
1.0
 43
0.0
 43
0.0
 43
0.0
 43
0.0
 43
1.0
 77
     0
 47
0.0208333333333333
 47
0.0
 47
0.0
 47
0.0
 47
0.0
 47
0.0208333333333333
 47
0.0
 47
0.0
 47
0.0
 47
0.0
 47
1.0
 47
0.0
 47
0.0
 47
0.0
 47
0.0
 47
1.0
171
     0
 49
0.0208333333333333
 49
0.0
 49
0.0
 49
0.0
 49
0.0
 49
0.0208333333333333
 49
0.0
 49
0.0
 49
0.0
 49
0.0
 49
1.0
 49
0.0
 49
0.0
 49
0.0
 49
0.0
 49
1.0
175
     0
142
0.0208333333333333
142
0.0
142
0.0
142
0.0
142
0.0
142
0.0208333333333333
142
0.0
142
0.0
142
0.0
142
0.0
142
1.0
142
0.0
142
0.0
142
0.0
142
0.0
142
1.0
179
     0
144
0.0208333333333333
144
0.0
144
0.0
144
0.0
144
0.0
144
0.0208333333333333
144
0.0
144
0.0
144
0.0
144
0.0
144
1.0
144
0.0
144
0.0
144
0.0
144
0.0
144
1.0
147
0.0208333333333333
147
0.0
147
0.0
147
0.0
147
0.0
147
0.0208333333333333
147
0.0
147
0.0
147
0.0
147
0.0
147
1.0
147
0.0
147
0.0
147
0.0
147
0.0
147
1.0
  0
MLEADERSTYLE
  5
385
102
{ACAD_REACTORS
330
384
102
}
330
384
100
AcDbMLeaderStyle
170
     2
171
     1
172
     0
 90
        2
 40
0.0
 41
0.0
173
     1
 91
-1056964608
340
379
 92
       -2
290
     1
 42
0.09
291
     1
 43
0.36
  3
Standard
 44
0.18
300

342
374
174
     1
178
     6
175
     1
176
     0
 93
-1056964608
 45
0.18
292
     0
297
     0
 46
0.18
 94
-1056964608
 47
1.0
 49
1.0
140
1.0
293
     1
141
0.0
294
     1
177
     0
142
1.0
295
     0
296
     0
143
0.125
1001
ACAD_MLEADERVER
1070
     2
  0
MLINESTYLE
  5
37E
102
{ACAD_REACTORS
330
37D
102
}
330
37D
100
AcDbMlineStyle
  2
STANDARD
 70
     0
  3

 62
   256
 51
90.0
 52
90.0
 71
     2
 49
0.5
 62
   256
  6
BYLAYER
 49
-0.5
 62
   256
  6
BYLAYER
  0
ACDBPLACEHOLDER
  5
32E
102
{ACAD_REACTORS
330
32D
102
}
330
32D
  0
SCALE
  5
362
102
{ACAD_REACTORS
330
361
102
}
330
361
100
AcDbScale
 70
     0
300
1:1
140
1.0
141
1.0
290
     1
  0
SCALE
  5
363
102
{ACAD_REACTORS
330
361
102
}
330
361
100
AcDbScale
 70
     0
300
1/128\" = 1\'-0\"
140
0.0078125
141
12.0
290
     0
  0
SCALE
  5
364
102
{ACAD_REACTORS
330
361
102
}
330
361
100
AcDbScale
 70
     0
300
1/64\" = 1\'-0\"
140
0.015625
141
12.0
290
     0
  0
SCALE
  5
365
102
{ACAD_REACTORS
330
361
102
}
330
361
100
AcDbScale
 70
     0
300
1/32\" = 1\'-0\"
140
0.03125
141
12.0
290
     0
  0
SCALE
  5
366
102
{ACAD_REACTORS
330
361
102
}
330
361
100
AcDbScale
 70
     0
300
1/16\" = 1\'-0\"
140
0.0625
141
12.0
290
     0
  0
SCALE
  5
367
102
{ACAD_REACTORS
330
361
102
}
330
361
100
AcDbScale
 70
     0
300
3/32\" = 1\'-0\"
140
0.09375
141
12.0
290
     0
  0
SCALE
  5
368
102
{ACAD_REACTORS
330
361
102
}
330
361
100
AcDbScale
 70
     0
300
1/8\" = 1\'-0\"
140
0.125
141
12.0
290
     0
  0
SCALE
  5
369
102
{ACAD_REACTORS
330
361
102
}
330
361
100
AcDbScale
 70
     0
300
3/16\" = 1\'-0\"
140
0.1875
141
12.0
290
     0
  0
SCALE
  5
36A
102
{ACAD_REACTORS
330
361
102
}
330
361
100
AcDbScale
 70
     0
300
1/4\" = 1\'-0\"
140
0.25
141
12.0
290
     0
  0
SCALE
  5
36B
102
{ACAD_REACTORS
330
361
102
}
330
361
100
AcDbScale
 70
     0
300
3/8\" = 1\'-0\"
140
0.375
141
12.0
290
     0
  0
SCALE
  5
36C
102
{ACAD_REACTORS
330
361
102
}
330
361
100
AcDbScale
 70
     0
300
1/2\" = 1\'-0\"
140
0.5
141
12.0
290
     0
  0
SCALE
  5
36D
102
{ACAD_REACTORS
330
361
102
}
330
361
100
AcDbScale
 70
     0
300
3/4\" = 1\'-0\"
140
0.75
141
12.0
290
     0
  0
SCALE
  5
36E
102
{ACAD_REACTORS
330
361
102
}
330
361
100
AcDbScale
 70
     0
300
1\" = 1\'-0\"
140
1.0
141
12.0
290
     0
  0
SCALE
  5
36F
102
{ACAD_REACTORS
330
361
102
}
330
361
100
AcDbScale
 70
     0
300
1-1/2\" = 1\'-0\"
140
1.5
141
12.0
290
     0
  0
SCALE
  5
370
102
{ACAD_REACTORS
330
361
102
}
330
361
100
AcDbScale
 70
     0
300
3\" = 1\'-0\"
140
3.0
141
12.0
290
     0
  0
SCALE
  5
371
102
{ACAD_REACTORS
330
361
102
}
330
361
100
AcDbScale
 70
     0
300
6\" = 1\'-0\"
140
6.0
141
12.0
290
     0
  0
SCALE
  5
372
102
{ACAD_REACTORS
330
361
102
}
330
361
100
AcDbScale
 70
     0
300
1\'-0\" = 1\'-0\"
140
12.0
141
12.0
290
     0
  0
TABLESTYLE
  5
383
102
{ACAD_XDICTIONARY
360
82B
102
}
102
{ACAD_REACTORS
330
382
102
}
330
382
100
AcDbTableStyle
  3
Standard
 70
     0
 71
     0
 40
0.06
 41
0.06
280
     0
281
     0
  7
STANDARD
140
0.18
170
     2
 62
     0
 63
     7
283
     0
274
    -2
284
     1
 64
     0
275
    -2
285
     1
 65
     0
276
    -2
286
     1
 66
     0
277
    -2
287
     1
 67
     0
278
    -2
288
     1
 68
     0
279
    -2
289
     1
 69
     0
  7
STANDARD
140
0.25
170
     5
 62
     0
 63
     7
283
     0
274
    -2
284
     1
 64
     0
275
    -2
285
     1
 65
     0
276
    -2
286
     1
 66
     0
277
    -2
287
     1
 67
     0
278
    -2
288
     1
 68
     0
279
    -2
289
     1
 69
     0
  7
STANDARD
140
0.18
170
     5
 62
     0
 63
     7
283
     0
274
    -2
284
     1
 64
     0
275
    -2
285
     1
 65
     0
276
    -2
286
     1
 66
     0
277
    -2
287
     1
 67
     0
278
    -2
288
     1
 68
     0
279
    -2
289
     1
 69
     0
  0
VISUALSTYLE
  5
34E
102
{ACAD_XDICTIONARY
360
958
102
}
102
{ACAD_REACTORS
330
348
102
}
330
348
100
AcDbVisualStyle
  2

 70
     4
 71
     0
 72
     2
 73
     0
 90
        0
 40
-0.6
 41
-30.0
 62
     5
 63
     7
 74
     1
 91
        4
 64
     7
 65
   257
 75
     1
175
     1
 42
1.0
 92
        0
 66
   257
 43
1.0
 76
     1
 77
     6
 78
     2
 67
     7
 79
     5
170
     0
171
     0
290
     0
174
     0
 93
        1
 44
0.0
173
     0
291
     0
 45
0.0
1001
ACAD
1000
AcDbSavedByObjectVersion
1070
     0
  0
VISUALSTYLE
  5
34D
102
{ACAD_XDICTIONARY
360
956
102
}
102
{ACAD_REACTORS
330
348
102
}
330
348
100
AcDbVisualStyle
  2

 70
     7
 71
     1
 72
     0
 73
     1
 90
        0
 40
-0.6
 41
-30.0
 62
     5
 63
     7
 74
     0
 91
        4
 64
     7
 65
   257
 75
     1
175
     1
 42
1.0
 92
        8
 66
     7
 43
1.0
 76
     1
 77
     6
 78
     2
 67
     7
 79
     5
170
     0
171
     0
290
     0
174
     0
 93
        1
 44
0.0
173
     0
291
     1
 45
0.0
1001
ACAD
1000
AcDbSavedByObjectVersion
1070
     0
  0
VISUALSTYLE
  5
354
102
{ACAD_XDICTIONARY
360
964
102
}
102
{ACAD_REACTORS
330
348
102
}
330
348
100
AcDbVisualStyle
  2

 70
    12
 71
     2
 72
     2
 73
     0
 90
        0
 40
-0.6
 41
-30.0
 62
     5
 63
     7
 74
     1
 91
        4
 64
     7
 65
   257
 75
     1
175
     1
 42
1.0
 92
        8
 66
     7
 43
1.0
 76
     1
 77
     6
 78
     2
 67
     7
 79
     5
170
     0
171
     0
290
     0
174
     0
 93
        1
 44
50.0
173
     0
291
     1
 45
0.0
1001
ACAD
1000
AcDbSavedByObjectVersion
1070
     0
  0
VISUALSTYLE
  5
358
102
{ACAD_XDICTIONARY
360
96C
102
}
102
{ACAD_REACTORS
330
348
102
}
330
348
100
AcDbVisualStyle
  2

 70
    16
 71
     2
 72
     2
 73
     3
 90
        0
 40
-0.6
 41
-30.0
 62
     5
 63
     8
 74
     1
 91
        4
 64
     7
 65
   257
 75
     1
175
     1
 42
1.0
 92
        8
 66
     8
 43
1.0
 76
     1
 77
     6
 78
     2
 67
     7
 79
     5
170
     0
171
     0
290
     0
174
     0
 93
        1
 44
0.0
173
     0
291
     1
 45
0.0
1001
ACAD
1000
AcDbSavedByObjectVersion
1070
     0
  0
VISUALSTYLE
  5
351
102
{ACAD_XDICTIONARY
360
95E
102
}
102
{ACAD_REACTORS
330
348
102
}
330
348
100
AcDbVisualStyle
  2

 70
     9
 71
     3
 72
     2
 73
     0
 90
        0
 40
-0.6
 41
-30.0
 62
     5
 63
     7
 74
     2
 91
        2
 64
     7
 65
   257
 75
     1
175
     1
 42
179.0
 92
        8
 66
     7
 43
1.0
 76
     1
 77
     6
 78
     2
 67
     7
 79
     3
170
     0
171
     0
290
     0
174
     0
 93
        1
 44
0.0
173
     0
291
     0
 45
0.0
1001
ACAD
1000
AcDbSavedByObjectVersion
1070
     0
  0
VISUALSTYLE
  5
353
102
{ACAD_XDICTIONARY
360
962
102
}
102
{ACAD_REACTORS
330
348
102
}
330
348
100
AcDbVisualStyle
  2

 70
    11
 71
     2
 72
     2
 73
     0
 90
        0
 40
-0.6
 41
-30.0
 62
     5
 63
     7
 74
     1
 91
        4
 64
     7
 65
   257
 75
     1
175
     1
 42
1.0
 92
        8
 66
     7
 43
1.0
 76
     1
 77
     6
 78
     2
 67
     7
 79
     5
170
     0
171
     0
290
     0
174
     0
 93
        1
 44
-50.0
173
     0
291
     1
 45
0.0
1001
ACAD
1000
AcDbSavedByObjectVersion
1070
     0
  0
VISUALSTYLE
  5
360
102
{ACAD_XDICTIONARY
360
97C
102
}
102
{ACAD_REACTORS
330
348
102
}
330
348
100
AcDbVisualStyle
  2

 70
    22
 71
     2
 72
     2
 73
     0
 90
        0
 40
-0.6
 41
-30.0
 62
     5
 63
     7
 74
     1
 91
        4
 64
     7
 65
   257
 75
     1
175
     1
 42
1.0
 92
        8
 66
     7
 43
1.0
 76
     1
 77
     6
 78
     2
 67
     7
 79
     5
170
     0
171
     0
290
     0
174
     0
 93
        1
 44
0.0
173
     0
291
     1
 45
0.0
1001
ACAD
1000
AcDbSavedByObjectVersion
1070
     0
  0
VISUALSTYLE
  5
357
102
{ACAD_XDICTIONARY
360
96A
102
}
102
{ACAD_REACTORS
330
348
102
}
330
348
100
AcDbVisualStyle
  2

 70
    15
 71
     2
 72
     2
 73
     0
 90
        0
 40
-0.6
 41
-30.0
 62
     5
 63
     7
 74
     1
 91
        4
 64
     7
 65
   257
 75
     1
175
     1
 42
1.0
 92
        8
 66
     7
 43
1.0
 76
     1
 77
     6
 78
     2
 67
     7
 79
     5
170
     0
171
     0
290
     0
174
     0
 93
        1
 44
0.0
173
     0
291
     1
 45
0.0
1001
ACAD
1000
AcDbSavedByObjectVersion
1070
     0
  0
VISUALSTYLE
  5
349
102
{ACAD_XDICTIONARY
360
94E
102
}
102
{ACAD_REACTORS
330
348
102
}
330
348
100
AcDbVisualStyle
  2

 70
     0
 71
     2
 72
     1
 73
     1
 90
        2
 40
-0.6
 41
30.0
 62
     5
 63
     7
 74
     0
 91
        0
 64
     7
 65
   257
 75
     1
175
     1
 42
1.0
 92
        8
 66
     7
 43
1.0
 76
     1
 77
     6
 78
     2
 67
     7
 79
     5
170
     0
171
     0
290
     0
174
     0
 93
       13
 44
0.0
173
     0
291
     1
 45
0.0
1001
ACAD
1000
AcDbSavedByObjectVersion
1070
     0
  0
VISUALSTYLE
  5
34A
102
{ACAD_XDICTIONARY
360
950
102
}
102
{ACAD_REACTORS
330
348
102
}
330
348
100
AcDbVisualStyle
  2

 70
     1
 71
     2
 72
     1
 73
     1
 90
        2
 40
-0.6
 41
30.0
 62
     5
 63
     7
 74
     1
 91
        0
 64
     7
 65
   257
 75
     1
175
     1
 42
1.0
 92
        0
 66
   257
 43
1.0
 76
     1
 77
     6
 78
     2
 67
     7
 79
     5
170
     0
171
     0
290
     0
174
     0
 93
       13
 44
0.0
173
     0
291
     1
 45
0.0
1001
ACAD
1000
AcDbSavedByObjectVersion
1070
     0
  0
VISUALSTYLE
  5
34B
102
{ACAD_XDICTIONARY
360
952
102
}
102
{ACAD_REACTORS
330
348
102
}
330
348
100
AcDbVisualStyle
  2

 70
     2
 71
     2
 72
     2
 73
     1
 90
        2
 40
-0.6
 41
30.0
 62
     5
 63
     7
 74
     0
 91
        0
 64
     7
 65
   257
 75
     1
175
     1
 42
1.0
 92
        0
 66
     7
 43
1.0
 76
     1
 77
     6
 78
     2
 67
     7
 79
     5
170
     0
171
     0
290
     0
174
     0
 93
       13
 44
0.0
173
     0
291
     1
 45
0.0
1001
ACAD
1000
AcDbSavedByObjectVersion
1070
     0
  0
VISUALSTYLE
  5
34C
102
{ACAD_XDICTIONARY
360
954
102
}
102
{ACAD_REACTORS
330
348
102
}
330
348
100
AcDbVisualStyle
  2

 70
     3
 71
     2
 72
     2
 73
     1
 90
        2
 40
-0.6
 41
30.0
 62
     5
 63
     7
 74
     1
 91
        0
 64
     7
 65
   257
 75
     1
175
     1
 42
1.0
 92
        0
 66
   257
 43
1.0
 76
     1
 77
     6
 78
     2
 67
     7
 79
     5
170
     0
171
     0
290
     0
174
     0
 93
       13
 44
0.0
173
     0
291
     1
 45
0.0
1001
ACAD
1000
AcDbSavedByObjectVersion
1070
     0
  0
VISUALSTYLE
  5
350
102
{ACAD_XDICTIONARY
360
95C
102
}
102
{ACAD_REACTORS
330
348
102
}
330
348
100
AcDbVisualStyle
  2

 70
     6
 71
     1
 72
     2
 73
     2
 90
        0
 40
-0.6
 41
-30.0
 62
     5
 63
     7
 74
     2
 91
        2
 64
     7
 65
   257
 75
     2
175
     1
 42
40.0
 92
        0
 66
   257
 43
1.0
 76
     1
 77
     6
 78
     2
 67
     7
 79
     3
170
     0
171
     0
290
     0
174
     0
 93
        1
 44
0.0
173
     0
291
     0
 45
0.0
1001
ACAD
1000
AcDbSavedByObjectVersion
1070
     0
  0
VISUALSTYLE
  5
35E
102
{ACAD_XDICTIONARY
360
978
102
}
102
{ACAD_REACTORS
330
348
102
}
330
348
100
AcDbVisualStyle
  2

 70
    20
 71
     2
 72
     2
 73
     0
 90
        0
 40
-0.6
 41
-30.0
 62
     5
 63
     7
 74
     1
 91
        4
 64
     7
 65
   257
 75
     1
175
     1
 42
1.0
 92
       10
 66
     7
 43
1.0
 76
     1
 77
     6
 78
     2
 67
     7
 79
     5
170
     0
171
     0
290
     0
174
     0
 93
        1
 44
0.0
173
     0
291
     1
 45
0.0
1001
ACAD
1000
AcDbSavedByObjectVersion
1070
     0
  0
VISUALSTYLE
  5
356
102
{ACAD_XDICTIONARY
360
968
102
}
102
{ACAD_REACTORS
330
348
102
}
330
348
100
AcDbVisualStyle
  2

 70
    14
 71
     2
 72
     2
 73
     0
 90
        0
 40
-0.6
 41
-30.0
 62
     5
 63
     7
 74
     1
 91
        4
 64
     7
 65
   257
 75
     7
175
     7
 42
1.0
 92
        8
 66
     7
 43
1.0
 76
     1
 77
     6
 78
     2
 67
     7
 79
     5
170
     0
171
     0
290
     0
174
     0
 93
        1
 44
0.0
173
     0
291
     1
 45
0.0
1001
ACAD
1000
AcDbSavedByObjectVersion
1070
     0
  0
VISUALSTYLE
  5
35F
102
{ACAD_XDICTIONARY
360
97A
102
}
102
{ACAD_REACTORS
330
348
102
}
330
348
100
AcDbVisualStyle
  2

 70
    21
 71
     2
 72
     2
 73
     0
 90
        0
 40
-0.6
 41
-30.0
 62
     5
 63
     7
 74
     1
 91
        4
 64
     7
 65
   257
 75
     1
175
     1
 42
1.0
 92
        9
 66
     7
 43
1.0
 76
     1
 77
     6
 78
     2
 67
     7
 79
     5
170
     0
171
     0
290
     0
174
     0
 93
        1
 44
0.0
173
     0
291
     1
 45
0.0
1001
ACAD
1000
AcDbSavedByObjectVersion
1070
     0
  0
VISUALSTYLE
  5
352
102
{ACAD_XDICTIONARY
360
960
102
}
102
{ACAD_REACTORS
330
348
102
}
330
348
100
AcDbVisualStyle
  2

 70
     8
 71
     2
 72
     3
 73
     0
 90
        2
 40
-0.6
 41
30.0
 62
     5
 63
     7
 74
     0
 91
        0
 64
     7
 65
   257
 75
     1
175
     1
 42
1.0
 92
        8
 66
   257
 43
1.0
 76
     1
 77
     6
 78
     2
 67
     7
 79
     3
170
     0
171
     0
290
     0
174
     0
 93
       13
 44
0.0
173
     0
291
     0
 45
0.0
1001
ACAD
1000
AcDbSavedByObjectVersion
1070
     0
  0
VISUALSTYLE
  5
35D
102
{ACAD_XDICTIONARY
360
976
102
}
102
{ACAD_REACTORS
330
348
102
}
330
348
100
AcDbVisualStyle
  2

 70
    27
 71
     2
 72
     2
 73
     1
 90
        2
 40
-0.6
 41
30.0
 62
     5
 63
     7
 74
     0
 91
        4
 64
     7
 65
   257
 75
     1
175
     1
 42
1.0
 92
        8
 66
   257
 43
1.0
 76
     1
 77
     6
 78
     2
 67
     8
 79
     3
170
     0
171
     0
290
     0
174
     0
 93
        5
 44
0.0
173
     0
291
     0
 45
0.0
1001
ACAD
1000
AcDbSavedByObjectVersion
1070
     0
  0
VISUALSTYLE
  5
35C
102
{ACAD_XDICTIONARY
360
974
102
}
102
{ACAD_REACTORS
330
348
102
}
330
348
100
AcDbVisualStyle
  2

 70
    26
 71
     2
 72
     2
 73
     1
 90
        2
 40
-0.6
 41
30.0
 62
     5
 63
     7
 74
     1
 91
       10
 64
     7
 65
   257
 75
     2
175
     1
 42
1.0
 92
        8
 66
   257
 43
1.0
 76
     1
 77
     6
 78
     2
 67
     7
 79
     3
170
     0
171
     0
290
     0
174
     0
 93
        5
 44
0.0
173
     0
291
     0
 45
0.0
1001
ACAD
1000
AcDbSavedByObjectVersion
1070
     0
  0
VISUALSTYLE
  5
359
102
{ACAD_XDICTIONARY
360
96E
102
}
102
{ACAD_REACTORS
330
348
102
}
330
348
100
AcDbVisualStyle
  2

 70
    23
 71
     2
 72
     2
 73
     3
 90
        0
 40
-0.6
 41
-30.0
 62
     5
 63
     7
 74
     2
 91
        2
 64
     7
 65
     7
 75
     1
175
     1
 42
40.0
 92
        8
 66
     7
 43
1.0
 76
     1
 77
     6
 78
     2
 67
     7
 79
     3
170
     0
171
     0
290
     0
174
     0
 93
        1
 44
0.0
173
     0
291
     0
 45
0.0
1001
ACAD
1000
AcDbSavedByObjectVersion
1070
     0
  0
VISUALSTYLE
  5
35A
102
{ACAD_XDICTIONARY
360
970
102
}
102
{ACAD_REACTORS
330
348
102
}
330
348
100
AcDbVisualStyle
  2

 70
    24
 71
     1
 72
     2
 73
     2
 90
        0
 40
-0.6
 41
-30.0
 62
     5
 63
     7
 74
     2
 91
        2
 64
     7
 65
     7
 75
     1
175
     1
 42
40.0
 92
       11
 66
     7
 43
1.0
 76
     1
 77
     6
 78
     2
 67
     7
 79
     6
170
     0
171
     0
290
     0
174
     0
 93
        1
 44
0.0
173
     0
291
     0
 45
0.0
1001
ACAD
1000
AcDbSavedByObjectVersion
1070
     0
  0
VISUALSTYLE
  5
355
102
{ACAD_XDICTIONARY
360
966
102
}
102
{ACAD_REACTORS
330
348
102
}
330
348
100
AcDbVisualStyle
  2

 70
    13
 71
     2
 72
     2
 73
     0
 90
        0
 40
-0.6
 41
-30.0
 62
     5
 63
     7
 74
     1
 91
        4
 64
     7
 65
   257
 75
     1
175
     1
 42
1.0
 92
       12
 66
     7
 43
1.0
 76
     1
 77
     6
 78
     2
 67
     7
 79
     5
170
     0
171
     0
290
     0
174
     0
 93
        1
 44
0.0
173
     0
291
     1
 45
0.0
1001
ACAD
1000
AcDbSavedByObjectVersion
1070
     0
  0
VISUALSTYLE
  5
34F
102
{ACAD_XDICTIONARY
360
95A
102
}
102
{ACAD_REACTORS
330
348
102
}
330
348
100
AcDbVisualStyle
  2

 70
     5
 71
     0
 72
     2
 73
     0
 90
        0
 40
-0.6
 41
-30.0
 62
     5
 63
     7
 74
     1
 91
        4
 64
     7
 65
   257
 75
     1
175
     1
 42
1.0
 92
        0
 66
   257
 43
1.0
 76
     1
 77
     6
 78
     2
 67
     7
 79
     3
170
     0
171
     0
290
     0
174
     0
 93
        1
 44
0.0
173
     0
291
     0
 45
0.0
1001
ACAD
1000
AcDbSavedByObjectVersion
1070
     0
  0
VISUALSTYLE
  5
35B
102
{ACAD_XDICTIONARY
360
972
102
}
102
{ACAD_REACTORS
330
348
102
}
330
348
100
AcDbVisualStyle
  2

 70
    25
 71
     2
 72
     2
 73
     1
 90
        1
 40
0.5
 41
-30.0
 62
     5
 63
     7
 74
     1
 91
        0
 64
     7
 65
   257
 75
     1
175
     1
 42
1.0
 92
        8
 66
     7
 43
1.0
 76
     1
 77
     6
 78
     2
 67
     7
 79
     3
170
     0
171
     0
290
     0
174
     0
 93
       13
 44
0.0
173
     0
291
     0
 45
0.0
1001
ACAD
1000
AcDbSavedByObjectVersion
1070
     0
  0
DICTIONARYVAR
  5
7E6
102
{ACAD_REACTORS
330
7E3
102
}
330
7E3
100
DictionaryVariables
280
     0
  1
1:1
  0
DICTIONARYVAR
  5
7E5
102
{ACAD_REACTORS
330
7E3
102
}
330
7E3
100
DictionaryVariables
280
     0
  1
STANDARD
  0
DICTIONARYVAR
  5
7E4
102
{ACAD_REACTORS
330
7E3
102
}
330
7E3
100
DictionaryVariables
280
     0
  1
STANDARD
  0
DICTIONARYVAR
  5
7E9
102
{ACAD_REACTORS
330
7E3
102
}
330
7E3
100
DictionaryVariables
280
     0
  1
1
  0
DICTIONARYVAR
  5
7E8
102
{ACAD_REACTORS
330
7E3
102
}
330
7E3
100
DictionaryVariables
280
     0
  1
0
  0
DICTIONARYVAR
  5
7E7
102
{ACAD_REACTORS
330
7E3
102
}
330
7E3
100
DictionaryVariables
280
     0
  1
127
  0
DICTIONARYVAR
  5
913
102
{ACAD_REACTORS
330
7E3
102
}
330
7E3
100
DictionaryVariables
280
     0
  1
2
  0
DICTIONARY
  5
97F
330
389
100
AcDbDictionary
280
     1
281
     1
  3
ACAD_XREC_ROUNDTRIP
360
980
  0
DICTIONARY
  5
793
330
38D
100
AcDbDictionary
280
     1
281
     1
  3
ACAD_XREC_ROUNDTRIP
360
981
  3
ADSK_XREC_LAYOUTTHUMBNAIL
360
794
  0
DICTIONARY
  5
339
330
338
100
AcDbDictionary
280
     1
281
     1
  3
ACAD_XREC_ROUNDTRIP
360
830
  3
BUMPTILE
360
33B
  3
DIFFUSETILE
360
33A
  3
OPACITYTILE
360
33E
  3
REFLECTIONTILE
360
33D
  3
REFRACTIONTILE
360
33F
  3
SPECULARTILE
360
33C
  0
DICTIONARY
  5
331
330
330
100
AcDbDictionary
280
     1
281
     1
  3
ACAD_XREC_ROUNDTRIP
360
82F
  3
BUMPTILE
360
333
  3
DIFFUSETILE
360
332
  3
OPACITYTILE
360
336
  3
REFLECTIONTILE
360
335
  3
REFRACTIONTILE
360
337
  3
SPECULARTILE
360
334
  0
DICTIONARY
  5
341
330
340
100
AcDbDictionary
280
     1
281
     1
  3
ACAD_XREC_ROUNDTRIP
360
831
  3
BUMPTILE
360
343
  3
DIFFUSETILE
360
342
  3
OPACITYTILE
360
346
  3
REFLECTIONTILE
360
345
  3
REFRACTIONTILE
360
347
  3
SPECULARTILE
360
344
  0
DICTIONARY
  5
82B
330
383
100
AcDbDictionary
280
     1
281
     1
  3
ACAD_ROUNDTRIP_2008_TABLESTYLE_CELLSTYLEMAP
360
94B
  3
ACAD_XREC_ROUNDTRIP
360
97E
  0
DICTIONARY
  5
958
330
34E
100
AcDbDictionary
280
     1
281
     1
  3
ACAD_XREC_ROUNDTRIP
360
959
  0
DICTIONARY
  5
956
330
34D
100
AcDbDictionary
280
     1
281
     1
  3
ACAD_XREC_ROUNDTRIP
360
957
  0
DICTIONARY
  5
964
330
354
100
AcDbDictionary
280
     1
281
     1
  3
ACAD_XREC_ROUNDTRIP
360
965
  0
DICTIONARY
  5
96C
330
358
100
AcDbDictionary
280
     1
281
     1
  3
ACAD_XREC_ROUNDTRIP
360
96D
  0
DICTIONARY
  5
95E
330
351
100
AcDbDictionary
280
     1
281
     1
  3
ACAD_XREC_ROUNDTRIP
360
95F
  0
DICTIONARY
  5
962
330
353
100
AcDbDictionary
280
     1
281
     1
  3
ACAD_XREC_ROUNDTRIP
360
963
  0
DICTIONARY
  5
97C
330
360
100
AcDbDictionary
280
     1
281
     1
  3
ACAD_XREC_ROUNDTRIP
360
97D
  0
DICTIONARY
  5
96A
330
357
100
AcDbDictionary
280
     1
281
     1
  3
ACAD_XREC_ROUNDTRIP
360
96B
  0
DICTIONARY
  5
94E
330
349
100
AcDbDictionary
280
     1
281
     1
  3
ACAD_XREC_ROUNDTRIP
360
94F
  0
DICTIONARY
  5
950
330
34A
100
AcDbDictionary
280
     1
281
     1
  3
ACAD_XREC_ROUNDTRIP
360
951
  0
DICTIONARY
  5
952
330
34B
100
AcDbDictionary
280
     1
281
     1
  3
ACAD_XREC_ROUNDTRIP
360
953
  0
DICTIONARY
  5
954
330
34C
100
AcDbDictionary
280
     1
281
     1
  3
ACAD_XREC_ROUNDTRIP
360
955
  0
DICTIONARY
  5
95C
330
350
100
AcDbDictionary
280
     1
281
     1
  3
ACAD_XREC_ROUNDTRIP
360
95D
  0
DICTIONARY
  5
978
330
35E
100
AcDbDictionary
280
     1
281
     1
  3
ACAD_XREC_ROUNDTRIP
360
979
  0
DICTIONARY
  5
968
330
356
100
AcDbDictionary
280
     1
281
     1
  3
ACAD_XREC_ROUNDTRIP
360
969
  0
DICTIONARY
  5
97A
330
35F
100
AcDbDictionary
280
     1
281
     1
  3
ACAD_XREC_ROUNDTRIP
360
97B
  0
DICTIONARY
  5
960
330
352
100
AcDbDictionary
280
     1
281
     1
  3
ACAD_XREC_ROUNDTRIP
360
961
  0
DICTIONARY
  5
976
330
35D
100
AcDbDictionary
280
     1
281
     1
  3
ACAD_XREC_ROUNDTRIP
360
977
  0
DICTIONARY
  5
974
330
35C
100
AcDbDictionary
280
     1
281
     1
  3
ACAD_XREC_ROUNDTRIP
360
975
  0
DICTIONARY
  5
96E
330
359
100
AcDbDictionary
280
     1
281
     1
  3
ACAD_XREC_ROUNDTRIP
360
96F
  0
DICTIONARY
  5
970
330
35A
100
AcDbDictionary
280
     1
281
     1
  3
ACAD_XREC_ROUNDTRIP
360
971
  0
DICTIONARY
  5
966
330
355
100
AcDbDictionary
280
     1
281
     1
  3
ACAD_XREC_ROUNDTRIP
360
967
  0
DICTIONARY
  5
95A
330
34F
100
AcDbDictionary
280
     1
281
     1
  3
ACAD_XREC_ROUNDTRIP
360
95B
  0
DICTIONARY
  5
972
330
35B
100
AcDbDictionary
280
     1
281
     1
  3
ACAD_XREC_ROUNDTRIP
360
973
  0
XRECORD
  5
980
102
{ACAD_REACTORS
330
97F
102
}
330
97F
100
AcDbXrecord
280
     1
102
SHADEPLOT
 70
     0
102
SHADEPLOTRESLEVEL
 70
     2
102
SHADEPLOTCUSTOMDPI
 70
   300
  0
XRECORD
  5
981
102
{ACAD_REACTORS
330
793
102
}
330
793
100
AcDbXrecord
280
     1
102
SHADEPLOT
 70
     0
102
SHADEPLOTRESLEVEL
 70
     2
102
SHADEPLOTCUSTOMDPI
 70
   300
  0
XRECORD
  5
794
102
{ACAD_REACTORS
330
793
102
}
330
793
100
AcDbXrecord
280
     1
310
28000000000100009000000001000800000000000090000000000000000000000001000000000000FFFFFF0000000000FFFFFF000000000000000000000000000000000000000000000000000000000000000000330000006600000099000000CC000000FF00000000330000333300006633000099330000CC330000FF3300
310
0000660000336600006666000099660000CC660000FF66000000990000339900006699000099990000CC990000FF99000000CC000033CC000066CC000099CC0000CCCC0000FFCC000000FF000033FF000066FF000099FF0000CCFF0000FFFF000000003300330033006600330099003300CC003300FF003300003333003333
310
33006633330099333300CC333300FF33330000663300336633006666330099663300CC663300FF66330000993300339933006699330099993300CC993300FF99330000CC330033CC330066CC330099CC3300CCCC3300FFCC330000FF330033FF330066FF330099FF3300CCFF3300FFFF330000006600330066006600660099
310
006600CC006600FF00660000336600333366006633660099336600CC336600FF33660000666600336666006666660099666600CC666600FF66660000996600339966006699660099996600CC996600FF99660000CC660033CC660066CC660099CC6600CCCC6600FFCC660000FF660033FF660066FF660099FF6600CCFF6600
310
FFFF660000009900330099006600990099009900CC009900FF00990000339900333399006633990099339900CC339900FF33990000669900336699006666990099669900CC669900FF66990000999900339999006699990099999900CC999900FF99990000CC990033CC990066CC990099CC9900CCCC9900FFCC990000FF99
310
0033FF990066FF990099FF9900CCFF9900FFFF99000000CC003300CC006600CC009900CC00CC00CC00FF00CC000033CC003333CC006633CC009933CC00CC33CC00FF33CC000066CC003366CC006666CC009966CC00CC66CC00FF66CC000099CC003399CC006699CC009999CC00CC99CC00FF99CC0000CCCC0033CCCC0066CC
310
CC0099CCCC00CCCCCC00FFCCCC0000FFCC0033FFCC0066FFCC0099FFCC00CCFFCC00FFFFCC000000FF003300FF006600FF009900FF00CC00FF00FF00FF000033FF003333FF006633FF009933FF00CC33FF00FF33FF000066FF003366FF006666FF009966FF00CC66FF00FF66FF000099FF003399FF006699FF009999FF00CC
310
99FF00FF99FF0000CCFF0033CCFF0066CCFF0099CCFF00CCCCFF00FFCCFF0000FFFF0033FFFF0066FFFF0099FFFF00CCFFFF00FFFFFF00000000000D0D0D001A1A1A00282828003535350043434300505050005D5D5D006B6B6B00787878008686860093939300A1A1A100AEAEAE00BBBBBB00C9C9C900D6D6D600E4E4E400
310
F1F1F100FFFFFF000000000000000000000000000000000000000000000000000000000000000000000000000000000000000000000000000000000000000000000000000000000000000000000000000000000000000000000000000000000000000000000000000000000000000000000000000000000000000000000000
310
00000000000000000000000000000000000000000000000000000000000000000000000000000000000000000000000000000000000000000000000000000000000000000000000000000000000000000000000000000000000000000000000000000000000000000000000000000000000000000000000000000000000000
310
00000000000000000000000000000000000000000000000000000000000000000000000000000000000000000000000000000000000000000000000000000000000000000000000000000000000000000000000000000000000000000000000000000000000000000000000000000000000000000000000000000000000000
310
00000000000000000000000000000000000000000000000000000000000000000000000000000000000000000000000000000000000000000000000000000000000000000000000000000000000000000000000000000000000000000000000000000000000000000000000000000000000000000000000000000000000000
310
00000000000000000000000000000000000000000000000000000000000000000000000000000000000000000000000000000000000000000000000000000000000000000000000000000000000000000000000000000000000000000000000000000000000000000000000000000000000000000000000000000000000000
310
00000000000000000000000000000000000000000000000000000000000000000000000000000000000000000000000000000000000000000000000000000000000000000000000000000000000000000000000000000000000000000000000000000000000000000000000000000000000000000000000000000000000000
310
00000000000000000000000000000000000000000000000000000000000000000000000000000000000000000000000000000000000000000000000000000000000000000000000000000000000000000000000000000000000000000000000000000000000000000000000000000000000000000000000000000000000000
310
00000000000000000000000000000000000000000000000000000000000000000000000000000000000000000000000000000000000000000000000000000000000000000000000000000000000000000000000000000000000000000000000000000000000000000000000000000000000000000000000000000000000000
310
00000000000000000000000000000000000000000000000000000000000000000000000000000000000000000000000000000000000000000000000000000000000000000000000000000000000000000000000000000000000000000000000000000000000000000000000000000000000000000000000000000000000000
310
00000000000000000000000000000000000000000000000000000000000000000000000000000000000000000000000000000000000000000000000000000000000000000000000000000000000000000000000000000000000000000000000000000000000000000000000000000000000000000000000000000000000000
310
00000000000000000000000000000000000000000000000000000000000000000000000000000000000000000000000000000000000000000000000000000000000000000000000000000000000000000000000000000000000000000000000000000000000000000000000000000000000000000000000000000000000000
310
00000000000000000000000000000000000000000000000000000000000000000000000000000000000000000000000000000000000000000000000000000000000000000000000000000000000000000000000000000000000000000000000000000000000000000000000000000000000000000000000000000000000000
310
00000000000000000000000000000000000000000000000000000000000000000000000000000000000000000000000000000000000000000000000000000000000000000000000000000000000000000000000000000000000000000000000000000000000000000000000000000000000000000000000000000000000000
310
00000000000000000000000000000000000000000000000000000000000000000000000000000000000000000000000000000000000000000000000000000000000000000000000000000000000000000000000000000000000000000000000000000000000000000000000000000000000000000000000000000000000000
310
00000000000000000000000000000000000000000000000000000000000000000000000000000000000000000000000000000000000000000000000000000000000000000000000000000000000000000000000000000000000000000000000000000000000000000000000000000000000000000000000000000000000000
310
00000000000000000000000000000000000000000000000000000000000000000000000000000000000000000000000000000000000000000000000000000000000000000000000000000000000000000000000000000000000000000000000000000000000000000000000000000000000000000000000000000000000000
310
00000000000000000000000000000000000000000000000000000000000000000000000000000000000000000000000000000000000000000000000000000000000000000000000000000000000000000000000000000000000000000000000000000000000000000000000000000000000000000000000000000000000000
310
00000000000000000000000000000000000000000000000000000000000000000000000000000000000000000000000000000000000000000000000000000000000000000000000000000000000000000000000000000000000000000000000000000000000000000000000000000000000000000000000000000000000000
310
00000000000000000000000000000000000000000000000000000000000000000000000000000000000000000000000000000000000000000000000000000000000000000000000000000000000000000000000000000000000000000000000000000000000000000000000000000000000000000000000000000000000000
310
00000000000000000000000000000000000000000000000000000000000000000000000000000000000000000000000000000000000000000000000000000000000000000000000000000000000000000000000000000000000000000000000000000000000000000000000000000000000000000000000000000000000000
310
00000000000000000000000000000000000000000000000000000000000000000000000000000000000000000000000000000000000000000000000000000000000000000000000000000000000000000000000000000000000000000000000000000000000000000000000000000000000000000000000000000000000000
310
00000000000000000000000000000000000000000000000000000000000000000000000000000000000000000000000000000000000000000000000000000000000000000000000000000000000000000000000000000000000000000000000000000000000000000000000000000000000000000000000000000000000000
310
00000000000000000000000000000000000000000000000000000000000000000000000000000000000000000000000000000000000000000000000000000000000000000000000000000000000000000000000000000000000000000000000000000000000000000000000000000000000000000000000000000000000000
310
00000000000000000000000000000000000000000000000000000000000000000000000000000000000000000000000000000000000000000000000000000000000000000000000000000000000000000000000000000000000000000000000000000000000000000000000000000000000000000000000000000000000000
310
00000000000000000000000000000000000000000000000000000000000000000000000000000000000000000000000000000000000000000000000000000000000000000000000000000000000000000000000000000000000000000000000000000000000000000000000000000000000000000000000000000000000000
310
00000000000000000000000000000000000000000000000000000000000000000000000000000000000000000000000000000000000000000000000000000000000000000000000000000000000000000000000000000000000000000000000000000000000000000000000000000000000000000000000000000000000000
310
00000000000000000000000000000000000000000000000000000000000000000000000000000000000000000000000000000000000000000000000000000000000000000000000000000000000000000000000000000000000000000000000000000000000000000000000000000000000000000000000000000000000000
310
00000000000000000000000000000000000000000000000000000000000000000000000000000000000000000000000000000000000000000000000000000000000000000000000000000000000000000000000000000000000000000000000000000000000000000000000000000000000000000000000000000000000000
310
00000000000000000000000000000000000000000000000000000000000000000000000000000000000000000000000000000000000000000000000000000000000000000000000000000000000000000000000000000000000000000000000000000000000000000000000000000000000000000000000000000000000000
310
00000000000000000000000000000000000000000000000000000000000000000000000000000000000000000000000000000000000000000000000000000000000000000000000000000000000000000000000000000000000000000000000000000000000000000000000000000000000000000000000000000000000000
310
000000000000000000000000000000000000000000000000000000000000000000000000000000000000000000000000000000000000000000000000000000000000000000000000000000000000000000000000000000000000000000000000000000000000000000000F0F0F0F0F0F0F0F0F0F0F0F0F0F0F0F0F0F0F0F0F
310
0F0F0F0F0F0F0F0F0F0F0F0F0F0F0F0F0F0F0F0F0F0F0F0F0F0F0F0F0F0F0F0F0F0F0F0F0F0F0F0F0F0F0F0F0F0F0F0F0F0F0F0F0F0F0F0F0F0F0F0F0F0F0F0F0F0F0F0F0F0F0F0F0F0F0F0F0F0F0F0F0F0F0F0F0F0F0F0F0F0F0F0F0F0F0F0F0F0F0F0F0F0F0F0F0F0F0F0F00000000000000000000000000000000000000
310
0000000000000000000000000000000000000000000000000000000000000000000000000000000000000000000000000000000000000000000000000000000000000000000000000000000000000000000000000000000000000000000000000000000000000000000000000F000000000000000000000000000000000000
310
00000000000000000000000000000000000000000000000000000000000000000000000000000000000000000000000000000000000000000000000000000000000000000000000000000000000000000000000000000000000000000000000000000000000000000000000000000F00000000000000000000000000000000
310
000000000000000000000000000000000000000000000000000000000000000000000000000000000000000000000000000000000000000000000000000000000000000000000000000000000000000000000000000000000000000000000000000000000000000000000000000F0000000000000000000000000000000000
310
000000000000000000000000000000000000000000000000000000000000000000000000000000000000000000000000000000000000000000000000000000000000000000000000000000000000000000000000000000000000000000000000000000000000000000000000000000000F0000000000000000000000000000
310
0000000000000000000000000000000000000000000000000000000000000000000000000000000000000000000000000000000000000000000000000000000000000000000000000000000000000000000000000000000000000000000000000000000000000000000000000000000F000000000000000000000000000000
310
0000000000000000000000000000000000000000000000000000000000000000000000000000000000000000000000000000000000000000000000000000000000000000000000000000000000000000000000000000000000000000000000000000000000000000000000000000000000000F000000000000000000000000
310
00000000000000000000000000000000000000000000000000000000000000000000000000000000000000000000000000000000000000000000000000000000000000000000000000000000000000000000000000000000000000000000000000000000000000000000000000000000000F000000000000000F0F0F000000
310
0000000000000F0F0F0000000000000000000F0F0F0000000000000000000F0F0F00000000000000000000000000000000000000000000000000000000000000000000000000000000000000000000000000000000000000000000000000000000000000000000000000000000000000000000000F00000000000000000000
310
000000000000000000000000000000000000000000000000000000000000000000000000000000000000000000000000000000000000000000000000000000000000000000000000000000000000000000000000000000000000000000000000000000000000000000000000000000000000000F00000000000F0F0000000F
310
0F00000000000F0F0000000F0F00000000000F0F0000000F0F00000000000F0F0000000F0F0000000000000000000000000000000000000000000000000000000000000000000000000000000000000000000000000000000000000000000000000000000000000000000000000000000000000000000F0000000000000000
310
0000000000000000000000000000000000000000000000000000000000000000000000000000000000000000000000000000000000000000000000000000000000000000000000000000000000000000000000000000000000000000000000000000000000000000000000000000000000000000000F000000000F00282828
310
2828000F0000000F002828282828000F0000000F002828282828000F000000000F2828282828000F00000000000000000000000000000000000000000000000000000000000000000000000000000000000000000000000000000000000000000000000000000000000000000000000000000000000000000F000000000000
310
00000000000000000000000000000000000000000000000000000000000000000000000000000000000000000000000000000000000000000000000000000000000000000000000000000000000000000000000000000000000000000000000000000000000000000000000000000000000000000000000F000000000F28C3
310
E2E2E2C3280F0000000F28C328E2E2C328000F00000F0028C3E2E2C328000F00000F0028C3E2E2C328000F00000000000FE2E2000000000F0F0F0FE2E2000000000000000000000000000000000000000000000000000000000000000000000000000000000000000000000000000000000000000000000000000F00000000
310
000000000000000000000000000000000000000000000000000000000000000000000000000000000000000000000000000000000000000000000000000000000000000000000000000000000000000000000000000000000000000000000000000000000000000000000000000000000000000000000000000F0000000F00
310
2828E2E2E22828000F000F00282828E2E22828000F00000F28C328E2E22828000F00000F28C328E2E228C3280F00000000000FE2E20F0000000F000F0FE2E2000000000000000F0F0F0F0F0F0F0F0F0F0F0F0F000000000000000000000000000000000000000F0F0F0F000000E2E20F0F000F0F0F000000000000000F0000
310
0000000000000000000000000000000000000000000000000000000000000000000000000000000000000000000000000000000000000000000000000000000000000000000000000000000000000000000000000000000000000000000000000000000000000000000000000000000000000000000000000000000F000000
310
0F002828E2E2E22828000F000F002828C3E2E228C3280F000F002828C3E2E228C3280F00000F28C328E2E228C3280F00000000000FE2E20F000000E2E20F0F0F0000000F0F0F0F0F0000000000000000000000000F0000000000000000000000000000000F0F0F0F0000000F000000E2E2000F0FC3C3C30F0F0F0F0000000F
310
00000000000000000000000000000000000000000000000000000000000000000000000000000000000000000000000000000000000000000000000000000000000000000000000000000000000000000000000000000000000000000000000000000000000000000000000000000000000000000000000000000000000F00
310
00000F00282828C3282828000F000F00282828C3282828000F00000F28C328C3C32828000F00000F28C328C3C328C3280F00000000000FE2E20F000000E2E2C3000F0000000F000000000000000000000000000000000F000000000000000000000F0F0F0F0F000000000000000F000000E2E2000000C30000C3C3C30F0000
310
000F0000000000000000000000000000000000000000000000000000000000000000000000000000000000000000000000000000000000000000000000000000000000000000000000000000000000000000000000000000000000000000000000000000000000000000000000000000000000000000000000000000000000
310
0F000000000F28C3282828C3280F0000000F28C3282828C328000F00000F0028C32828C328000F00000F0028C32828C328000F00000000000F000F00000000E2E2C3000F00000F00000000000000000000000000000000000F0000000000000F0F0F0F00000000000000000000000F000000000F00000000C300000000C300
310
0F00000F000000000000000000000000000000000000000000000000000000000000000000000000000000000000000000000000000000000000000000000000000000000000000000000000000000000000000000000000000000000000000000000000000000000000000000000000000000000000000000000000000000
310
00000F000000000F002828282828000F0000000F002828282828000F0000000F002828282828000F000000000F2828282828000F0000000000000F0F0F0000000F00C3C3000F00000F00000000000000C3C3C3E2E2C3C30000000F0000000F0F0F0000000000000000000000000000000F000000000F00000000C300000000
310
00C30F00000F00000000000000000000000000000000000000000000000000000000000000000000000000000000000000000000000000000000000000000000000000000000000000000000000000000000000000000000000000000000000000000000000000000000000000000000000000000000000000000000000000
310
000000000F00000000000F0F0000000F0F00000000000F0F0000000F0F00000000000F0F0000000F0F00000000000F0F0000000F0F000000000000000000000000000F000000000F00000F00000000000000C3C3C3E2E2C3C30000000F0000000F00000000000000000000000000000000000F000000000F00000000C30000
310
000000C30F00000F0000000000000000000000000000000000000000000000000000000000000000000000000000000000000000000000000000000000000000000000000000000000000000000000000000000000000000000000000000000000000000000000000000000000000000000000000000000000000000000000
310
0000000000000F000000000000000F0F0F0000000FE2E20000000F0F0F0000000FE2E20000000F0F0F0000000FE2E20000000F0F0F0000000FE2E20F00000F0F0F0000000F000000000F00000F00000000000000000000E2E200000000000F00000F0000000000000000000000000000000000000F000000000F00000000C3
310
0000000000C30F00000F000000000000000000000000000000000000000000000000000000000000000000000000000000000000000000000000000000000000000000000000000000000000000000000000000000000000000000000000000000000000000000000000000000000000000000000000000000000000000000
310
00000000000000000F0000000000000000000000000F0FE2E20F000000000000000F0FE2E20F00000000000000000FE2E20F00000000000000000FE2E20F00000FE2E20000000F0000E2E20F00000F00000000000000000000000000000000000F00000F0000000000000000000000000000000000000F000000000F000000
310
00C30000000000C30F00000F00000000000000000000000000000000000000000000000000000000000000000000000000000000000000000000000000000000000000000000000000000000000000000000000000000000000000000000000000000000000000000000000000000000000000000000000000000000000000
310
000000000000000000000F0000000000000000000000000F00E2E20F00000000000000000FE2E20F00000000000000000FE2E20F00000000000000000FE2E20F00000FE2E20F00000F00C3E2E20F00000F0000000000C3C3E2E2E2C3C300000000000F00000F00000000C3C3C3C3E2E2C3C3C3C3C30000000F000000000F00
310
000000C30000000000C30F00000F0000000000000000000000000000000000000000000000000000000000000000000000000000000000000000000000000000000000000000000000000000000000000000000000000000000000000000000000000000000000000000000000000000000000000000000000000000000000
310
0000000000000000000000000F0000000000000F0F0F0F0F00000FE2E200000F0F0F0F0F00000FE2E20F000F0F0F0F0F00000FE2E20F000F0F0F0F0F00000FE2E20F00000FE2E20F00000F00C3E2E20F00000F0000000000C3C3E2E2E2C3C300000000000F00000F00000000C3C3C3C3E2E2C3C3C3C3C30000000F00000000
310
0F00000000C30000000000C30F00000F000000000000000000000000000000000000000000000000000000000000000000000000000000000000000000000000000000000000000000000000000000000000000000000000000000000000000000000000000000000000000000000000000000000000000000000000000000
310
00000000000000000000000000000F00000000000F00000000000F00000000000F00000000000F00000000000F00000000000F00000000000F00000000000F000000000000000F000F0000000F000000000F00000F00000000000000E2E2E2000000000000000F00000F0000000000000000E2E200000000000000000F0000
310
00000F00000000C30000000000C30F00000F00000000000000000000000000000000000000000000000000000000000000000000000000000000000000000000000000000000000000000000000000000000000000000000000000000000000000000000000000000000000000000000000000000000000000000000000000
310
000000000000000000000000000000000F000000000F000000000000000F0000000F000000000000000F0000000F000000000000000F000000000F0000000000000F0000000000000F0F0F0000000F000000000F00000F00000000000000000000000000000000000F00000F0000000000000000000000000000000000000F
310
000000000F00000000C30000000000C30F00000F0000000000000000000000000000000000000000000000000000000000000000000000000000000000000000000000000000000000000000000000000000000000000000000000000000000000000000000000000000000000000000000000000000000000000000000000
310
0000000000000000000000000000000000000F000000000F0000E2E2E200000F0000000F000000E2E20000000F00000F000000E2E20000000F00000F000000E2E20000000F00000000000000000000000FE2E200000F00000F00000000000000C3C3C3E2E2C3C30000000F0000000F00000000000000000000000000000000
310
000F000000000F00000000C30000000000C30F00000F000000000000000000000000000000000000000000000000000000000000000000000000000000000000000000000000000000000000000000000000000000000000000000000000000000000000000000000000000000000000000000000000000000000000000000
310
00000000000000000000000000000000000000000F0000000F000000E2E2E20000000F000F000000C3E2E20000000F00000F0000C3E2E20000000F00000F0000C3E2E20000000F00000000000F0F0F00000000E2E2C3000F00000F00000000000000C3C3C3E2E2C3C30000000F0000000F0F0F000000000000000000000000
310
0000000F000000000F00000000C30000000000C30F00000F00000000000000000000000000000000000000000000000000000000000000000000000000000000000000000000000000000000000000000000000000000000000000000000000000000000000000000000000000000000000000000000000000000000000000
310
000000000000000000000000000000000000000000000F0000000F000000E2E2E20000000F000F000000C3E2E20000000F000F000000C3E2E2C300000F00000F0000C3E2E2C300000F00000000000FE2E200000000E2E2C3000F00000F00000000000000000000E2E200000000000F0000000000000F0F0F0F000000000000
310
00000000000F000000000F00000000C30000000000C30F00000F0000000000000000000000000000000000000000000000000000000000000000000000000000000000000000000000000000000000000000000000000000000000000000000000000000000000000000000000000000000000000000000000000000000000
310
0000000000000000000000000000000000000000000000000F0000000F000000C3C3C30000000F000F00000000C3C30000000F00000F000000C3C30000000F00000F000000C3C30000000F00000000000FE2E20F000000E2E2C3000F0000000F000000000000000000000000000000000F000000000000000000000F0F0F0F
310
0F000000000000000F0000000F00000000C30000000000C30F00000F000000000000000000000000000000000000000000000000000000000000000000000000000000000000000000000000000000000000000000000000000000000000000000000000000000000000000000000000000000000000000000000000000000
310
00000000000000000000000000000000000000000000000000000F000000000F000000000000000F0000000F00000000000000000F00000F00000000000000000F00000F00000000000000000F00000000000FE2E20F0000000F000F00E2E200000F0F0F0F000000000000000000000000000F000000000000000000000000
310
0000000F0F0F0F0000000F000000E2E2000000C300000000C30F0000000F00000000000000000000000000000000000000000000000000000000000000000000000000000000000000000000000000000000000000000000000000000000000000000000000000000000000000000000000000000000000000000000000000
310
000000000000000000000000000000000000000000000000000000000F000000000F000000000000000F0000000F000000000000000F0000000F000000000000000F000000000F0000000000000F0000000000000F000F0F0000000F000F0FE2E20000000000000F0F0F0F0F0F0F0F0F0F0F0F0FC3C3000000000000000000
310
0000000000000000000F0F0F0F000000E2E2000000C30000C3C3C30F0000000F0000000000000000000000000000000000000000000000000000000000000000000000000000000000000000000000000000000000000000000000000000000000000000000000000000000000000000000000000000000000000000000000
310
0000000000000000000000000000000000000000000000000000000000000F00000000000F0F0F000F0F0F00000000000F0F0F000F0F0F00000000000F0F0F000F0F0F00000000000F0F0F000F0F0F000000000000000F0F0F000000000F0F0F0FE2E200000000000000000000000000000000000000000000000000000000
310
000000000000000000000000000000000000E2E2000F0FC3C3C3000F0F0F0000000F000000000000000000000000000000000000000000000000000000000000000000000000000000000000000000000000000000000000000000000000000000000000000000000000000000000000000000000000000000000000000000
310
00000000000000000000000000000000000000000000000000000000000000000F00000000000000000F00000000000000000000000F00000000000000000000000F00000000000000000000000F00000000000000000000000000000000000000000000000000000000000000000000000000000000000000000000000000
310
00000000000000000000000000000000000000000F0F0F0F000F0F0F0F0000000000000F00000000000000000000000000000000000000000000000000000000000000000000000000000000000000000000000000000000000000000000000000000000000000000000000000000000000000000000000000000000000000
310
000000000000000000000000000000000000000000000000000000000000000000000F0000000000000000000000000000000000000000000000000000000000000000000000000000000000000000000000000000000000000000000000000000000000000000000000000000000000000000000000000000000000000000
310
000000000000000000000000000000000000000000000000000000000000000000000000000F0000000000000000000000000000000000000000000000000000000000000000000000000000000000000000000000000000000000000000000000000000000000000000000000000000000000000000000000000000000000
310
0000000000000000000000000000000000000000000000000000000000000000000000000F000000000000000000000000000000000000000000000000000000000000000000000000000000000000000000000000000000000000000000000F0FE2E20F0F0000000000000000000000000000000000000000000000000000
310
0000000000000000000000000000000000000000000000000000000000000000000000000000000F000000000000000000000000000000000000000000000000000000000000000000000000000000000000000000000000000000000000000000000000000000000000000000000000000000000000000000000000000000
310
00000000000000000000000000000000000000000000000000000000000000000000000000000F00000000000F0F0F0F0000000000000000000F0F0F0F0F0F0F0F0F0F0F0F0F0F0F0F0F0F0F0F000000000000000000000F0F0F000000000F0F0F0F00E2E2000F0F0F0F000000000000000000000000000000000000000000
310
00000000000000E2E20F0F0F0F0F0F0F0F0F0F000000000000000000000000000000000000000000000F00000000000000000000000000000000000000000000000000000000000000000000000000000000000000000000000000000000000000000000000000000000000000000000000000000000000000000000000000
310
000000000000000000000000000000000000000000000000000000000000000000000000000000000F000000000F0000000F000000000000000000000F00000000000000000000000000000000000F000000000000000000000F0000E2E200000F00000000E2E2000000000F0F0000000F0F0F0F0F0F0000000F0F0F0F0F00
310
000000000000000F0FE2E20000000000000000000F000000000000000000000000000000000000000000000F0000000000000000000000000000000000000000000000000000000000000000000000000000000000000000000000000000000000000000000000000000000000000000000000000000000000000000000000
310
0000000000000000000000000000000000000000000000000000000000000000000000000000000000000F0000000F0F0000000F000000000000000000000F00000000C3C3E2E2C3C3C30000000000000F000000000000000000000F000FE2E200000F00000000000000000000000F0000000F000000000F0000000F000000
310
000F000000000000000F00E2E20000000000000000000F000000000000000000000000000000000000000000000F000000000000000000000000000000000000000000000000000000000000000000000000000000000000000000000000000000000000000000000000000000000000000000000000000000000000000000
310
00000000000000000000000000000000000000000000000000000000000000000000000000000000000000000F0000000F0F0F00000F000000000000000000000F00000000C3C3E2E2C3C3C30000000000000F000000000000000000000F000FE2E200000F0000000000E2E2E20000000F0000000F000000000F0000000F00
310
000000000F0F00000000000F0000000000000000000000000F000000000000000000E2E200000000000000000000000F00000000000000000000000000000000000000000000000000000000000000000000000000000000000000000000000000000000000000000000000000000000000000000000000000000000000000
310
000000000000000000000000000000000000000000000000000000000000000000000000000000000000000000000F0000000000E2E2000F0000000000000000000F00000000000000E2E20000000000000000000F0000000000000000000F0000000F0000000F0000000000E2E2E20F0F0F0F0000000FC3E2E2C30F000000
310
0F00E2E2C300000F0F000000000F0000C3E2E2E2C300000000000F00000000000000000FE2E20F0F0F00000000000000000F0000000000000000000000000000000000000000000000000000000000000000000000000000000000000000000000000000000000000000000000000000000000000000000000000000000000
310
0000000000000000000000000000000000000000000000000000000000000000000000000000000000000000000000000F0000000000E2E200000F00000000000000000F000000000000E2E200000000000000000000000F000000000000000F000000C30F0000000F0000000000E2E2E20F0F00000000000FC3E2E2C30F00
310
00000F00E2E2C30000000F000000000F0000C3E2E2E2C30000000000000F0000000000000FE2E2E200000F00000000000000000F000000000000000000000000000000000000000000000000000000000000000000000000000000000000000000000000000000000000000000000000000000000000000000000000000000
310
00000000000000000000000000000000000000000000000000000000000000000000000000000000000000000000000000000F0000000000E2E20000000F00000000000F0F00000000000000E2E20000000000000000000000000F0F00000000000F000000C30F0000000F0000000000000000000F00000000000F00E2E200
310
0F0000000F00E2E20000000F0F000000000F000000E2E2E2000000000000000F000000000F0F0FE2E2E200000F0F0F0000000000000F00000000000000000000000000000000000000000000000000000000000000000000000000000000000000000000000000000000000000000000000000000000000000000000000000
310
000000000000000000000000000000000000000000000000000000000000000000000000000000000000000000000000000000000F00000000000F00000000000F0F0F0F0F0000000000C3000000E2E200000000000000000000000000000F0F0F0F0F0000E2E2C30F0000000F0000000000000000000F00000000000F00E2
310
E2000F0000000F00E2E200000F0F00000000000F000000E2E2E2000000000000000F0000000F0F0000E2E200000000000F0F00000000000F0000000000000000000000000000000000000000000000000000000000000000000000000000000000000000000000000000000000000000000000000000000000000000000000
310
0000000000000000000000000000000000000000000000000000000000000000000000000000000000000000000000000000000000000F00000000000F0F0000000000000000000000E2E2C300C30000C3C3C30000000000000000000000000000000000000000E2E2000F0000000F0000000000000000000F00000000000F
310
000000000F0000000F0000000F0F000000000000000F000000000000000000000000000F00000000000F0F0F0F0F0F0F0F0F000000000000000F000000000000000000000000000000000000000000000000000000000000000000000000000000000000000000000000000000000000000000000000000000000000000000
310
00000000000000000000000000000000000000000000000000000000000000000000000000000000000000000000000000000000000000000F000000000000000F0F0F0F00000000000000E2E200C300C300C3C3C300000000000F0F0F0F0F0F0F0F0F0F0F0F0F0F0FE2E20F0F0000000F0000000000000000000F00000000
310
000F000000000F0000000F000000000F000000000000000F000000000000000000000000000F0000000000000000000000000000000000000000000F00000000000000000000000000000000000000000000000000000000000000000000000000000000000000000000000000000000000000000000000000000000000000
310
000000000000000000000000000000000000000000000000000000000000000000000000000000000000000000000000000000000000000000000F00000000000000000000000F0F0F0F000000E2E20000C300000F0F0F0F0F0F0F0F000000000000000000000000000000000000000000000F0000000000000000000F0000
310
0000000F000000000F0000000F00000000000F0F00000000000F000000000000000000000000000F0000000000000000000000000000000000000000000F0000000000000000000000000000000000000000000000000000000000000000000000000000000000000000000000000000000000000000000000000000000000
310
0000000000000000000000000000000000000000000000000000000000000000000000000000000000000000000000000000000000000000000000000F0000000000000000000000000000000F0F0F0F0F0F0F0F0F0F0000000000000000000000000000000000000000000000000000000000000F000000E2E2E2E2E2000F
310
00000000000F000000000F0000000F0000000000000F0F000000000F000000000000000000000000000F0000000000000000000000000000000000000000000F000000000000000000000000000000000000000000000000000000000000000000000000000000000000000000000000000000000000000000000000000000
310
00000000000000000000000000000000000000000000000000000000000000000000000000000000000000000000000000000000000000000000000000000F000000000000000000000000000000000000000000000000000000000000000000000000000000000000000000000000000000000000000F0F0F0FE2E2E2E2E2
310
0F0F00000000000FC3E2E2C30F0000000F00E2E2C30000000F000000000F0000C3E2E2C3C30000000000000F0000000000000000000000000000000000000000000F00000000000000000000000000000000000000000000000000000000000000000000000000000000000000000000000000000000000000000000000000
310
000000000000000000000000000000000000000000000000000000000000000000000000000000000000000000000000000000000000000000000000000000000F000000000000000000000000000000000000000000000000000000000000000000000000000000000000000000000000000000000000000F0F0F0FE2E2E2
310
E2E20F0F0F0F0000000FC3E2E2C30F0000000F00E2E2C300000F0F000000000F0000C3E2E2C3C300000000000F0000000000000000000F0F0F0F0000000000000000000F0000000000000000000000000000000000000000000000000000000000000000000000000000000000000000000000000000000000000000000000
310
0000000000000000000000000000000000000000000000000000000000000000000000000000000000000000000000000000000000000000000000000000000000000F0000000000000000000000000000000F0F0FE2E20F0F0F0F0F0000000000000000000000000000000000000000000000000000000000000F00000000
310
000000000000000F0000000F00E2E2000F0000000F00E2E200000F0F00000000000F000000E2E2000000000000000F00000000000000000F0000000F0F00000000000000000F000000000000000000000000000000000000000000000000000000000000000000000000000000000000000000000000000000000000000000
310
00000000000000000000000000000000000000000000000000000000000000000000000000000000000000000000000000000000000000000000000000000000000000000F0000000000000000000000000F0F0F000000E2E20000C3000F0F0F0F0F0F0F0F0F000000000000000000000000000000000000000000000F0000
310
0000E2E200000000000F0000000F000000000F0000000F000000000F000000000000000F00E2E20000000000000000000F000000000000000F0000C3C3000F00000000000000000F00000000000000000000000000000000000000000000000000000000000000000000000000000000000000000000000000000000000000
310
000000000000000000000000000000000000000000000000000000000000000000000000000000000000000000000000000000000000000000000000000000000000000000000F00000000000000000F0F0F0F000000000000E2E200C300C300C3C3C300000000000F0F0F0F0F0F0F0F0F0F0F0F0F0F0FE2E20F0F0000000F
310
00000000E2E2000000000F0F0000000F0F0F0F0F0F0000000F0F0F0F0F00000000000000000F0FE2E20000000000000000000F00000000000000000FE2E2C3000F00000000000000000F0000000000000000000000000000000000000000000000000000000000000000000000000000000000000000000000000000000000
310
0000000000000000000000000000000000000000000000000000000000000000000000000000000000000000000000000000000000000000000000000000000000000000000000000F00000000000F0F0F000000000000000000000000C300C300E2E2E2C30000000000000000000000000000000000000000E2E2000F0000
310
000F0F0F0F00E2E2000F0F0F0F000000000000000000000000000000000000000000000000000000000F0F0F0F0F0F0F0F0F0F0F0F00000000000000000FE2E2000F0000000000000000000F000000000000000000000000000000000000000000000000000000000000000000000000000000000000000000000000000000
310
00000000000000000000000000000000000000000000000000000000000000000000000000000000000000000000000000000000000000000000000000000000000000000000000000000F0000000000E2E200000000000F0F0F0F0000000000C30000E2E2E200000000000000000000000000000F0F0F0F0000000000C30F
310
0000000000000F0F0F0F0F0F00000000000000000000000000000000000000000000000000000000000000000000000000000000000000000000000000000000E2E20F0F0000000000000000000F00000000000000000000000000000000000000000000000000000000000000000000000000000000000000000000000000
310
000000000000000000000000000000000000000000000000000000000000000000000000000000000000000000000000000000000000000000000000000000000000000000000000000000000F0000000000E2E20000000F0F000000000F0F000000000000E2E2E2000000000000000000000000000F000000000F0F000000
310
C30F00000000000000000000000000000000000000000000000000000000000000000000000000000000000000000000000000000000000000000000000000000000000000000000000000000000000F0000000000000000000000000000000000000000000000000000000000000000000000000000000000000000000000
310
0000000000000000000000000000000000000000000000000000000000000000000000000000000000000000000000000000000000000000000000000000000000000000000000000000000000000F0000000000E2E200000F00000000000000000F00000000000000E2E2000000000000000000000F0F0000000000000F00
310
0000C30F00000000000000000000000000000000000000000000000000000000000000000000000000000000000000000000000000000000000000000000000000000000000000000000000000000000000F000000000000000000000000000000000000000000000000000000000000000000000000000000000000000000
310
00000000000000000000000000000000000000000000000000000000000000000000000000000000000000000000000000000000000000000000000000000000000000000000000000000000000000000F00000000000F00000F0000000000000000000F00000000000000E2E2000000000000000000000F00000000000000
310
000F000000E2E2000000000000000000000000000000000000000000000000000000000000000000000000000000000000000000000000000000000000000000000000000000000000000000000000000000000F00000000000000000000000000000000000000000000000000000000000000000000000000000000000000
310
000000000000000000000000000000000000000000000000000000000000000000000000000000000000000000000000000000000000000000000000000000000000000000000000000000000000000000000F0000000F0F0F00000F000000000000000000000F000000000000E2E20000000000000000000F000000000000
310
000000000F000FE2E20000000F0F0F0F0F00000000000000000000000000000000000000000000000000000000E2E200000000000000000000000000000000000000000000000000000000000000000000000000000F0000000000000000000000000000000000000000000000000000000000000000000000000000000000
310
0000000000000000000000000000000000000000000000000000000000000000000000000000000000000000000000000000000000000000000000000000000000000000000000000000000000000000000000000F0000000F000000000F000000000000000000000F00000000C3C3C3C3C3C3C30000000000000F00000000
310
0000000000000F000FE2E20000000F000F0F000F000000000000000000000000000000000000000000000000000000E2E20000000000000000000000000000000000000000E2E2000000000000000000000000000000000F000000000000000000000000000000000000000000000000000000000000000000000000000000
310
00000000000000000000000000000000000000000000000000000000000000000000000000000000000000000000000000000000000000000000000000000000000000000000000000000000000000000000000000000F000000000F0000000F000000000000000000000F00000000000000000000000000000000000F0000
310
00000000000000000F00000F000000000FE2E20F00000F0000000000000000000000000000000000000000000000000000E2E200000000E2E2000F0F0F0F000000000000000F0FE2E20000000F0F0FE2E200000000000000000F00000000000000000000000000000000000000000000000000000000000000000000000000
310
000000000000000000000000000000000000000000000000000000000000000000000000000000000000000000000000000000000000000000000000000000000000000000000000000000000000000000000000000000000F00000000000F0F0F0F0000000000000000000F0000000000000000000000000000000000000F
310
000000000000000000000F0F0F0F000000000FE2E2000000000F0000000000000FE2E2E20000000F0FE2E20F0F0F00000000000F0F0F000000E2E2000F0F000F000000000000000F0FE2E20000000F0F0FE2E200000000000000000F0000000000000000000000000000000000000000000000000000000000000000000000
310
0000000000000000000000000000000000000000000000000000000000000000000000000000000000000000000000000000000000000000000000000000000000000000000000000000000000000000000000000000000000000F000000000000000000000000000000000000000F0F0F0F0F0F0F0F0F0F0F0F0F0F0F0F0F
310
0F0F0000000000000000000000000000000000000FE2E200000000000F00000000000FE2E2E20F00000F0FE2E200000F0000000F0F0F000F0F0F00E2E2000F0F000F000000000000E2E2E2E2E2000000E2E2E2E2E200000000000000000F000000000000000000000000000000000000000000000000000000000000000000
310
00000000000000000000000000000000000000000000000000000000000000000000000000000000000000000000000000000000000000000000000000000000000000000000000000000000000000000000000000000000000000000F00000000000000000000000000000000000000000000000000000000000000000000
310
000000000000000000000000000000000000000000000F00000000000000000F0F0000000FE2E2E2000F000F0FE2E20000000F00000F00000000000F000000000F0000000F0000000000E2E2E20F00000000E2E2E20F0000000000000000000F00000000000000000000000000000000000000000000000000000000000000
310
000000000000000000000000000000000000000000000000000000000000000000000000000000000000000000000000000000000000000000000000000000000000000000000000000000000000000000000000000000000000000000000F000000000000000000000F0F0F0F0F0F0F000000000000000000000000000000
310
000000000000000F0F0F0F0F0F0F000000000000000000000F000000000000000000000F00000F000000000F000F0F00000000000F00000F00000000000F0000000F000000000F000000000F0F0F000F0F00000F0F00000F0F00000000000000000F0000000000000000000000000000000000000000000000000000000000
310
0000000000000000000000000000000000000000000000000000000000000000000000000000000000000000000000000000000000000000000000000000000000000000000000000000000000000000000000000000000000000000000000000F0000000000000F0F0F0F00000F0F0000000F0F0F0F0FE2E20F0F0F0F0FE2
310
E20F0F0F0F0F0F0F0F00000F0F0000000F0F0F0F0000000000000F0F000000000000000000000F00000F0000000F0000000F000000000F00000F00000000000F0000000FE2E2E2000F00000000E2E2E200000F0000E2E20000000F00000000000000000F000000000000000000000000000000000000000000000000000000
310
00000000000000000000000000000000000000000000000000000000000000000000000000000000000000000000000000000000000000000000000000000000000000000000000000000000000000000000000000000000000000000000000000000F0000000000000F00000000000F0F0000000000000000E2E20F0F0F0F
310
0FE2E2E2E200000000000000000F0F0000000000000F0000000000000F000F0F0F0F0000000000000F00000F0000000F0000000F000000000F00000F00C3E2E2000F00000F0FE2E2E2000F00000000E2E2E20F0F0F0000E2E20F0F0F0F00000000000000000F00000000000000000000000000000000000000000000000000
310
000000000000000000000000000000000000000000000000000000000000000000000000000000000000000000000000000000000000000000000000000000000000000000000000000000000000000000000000000000000000000000000000000000000F0000000000000F00000000E2E2E20000000000000000E2E20F00
310
000000E2E2E2E20000000000000000E2E2000000E2E20F0F0000000000000000000000000F00000000000F0000000F00000F0000000F00000000000F000F00C3E2E2000F00000F0FE2E2E2000F00000000E2E2E20F0F0F0000E2E20F0F0F0F00000000000000000F0000000000000000000000000000000000000000000000
310
0000000000000000000000000000000000000000000000000000000000000000000000000000000000000000000000000000000000000000000000000000000000000000000000000000000000000000000000000000000000000000000000000000000000000F0000000000000F00000000E2E2E200000000000000000000
310
0F000000000F00E2E20F0F000000000000E2E2000000E2E20F0F0000000000000000000000000F00000F0F0F0F0000000F00000F0000000F00000000000F000F0000E2E2000F00000F00000000000F000000000F000000000F00000F000000000F00000000000000000F000000000000000000000000000000000000000000
310
00000000000000000000000000000000000000000000000000000000000000000000000000000000000000000000000000000000000000000000000000000000000000000000000000000000000000000000000000000000000000000000000000000000000000000F0000000000000F000000000000000000000000000000
310
00000F000000000F0F000F0F000F000000000000000000000000E2E20F000000E2E2E2E2E2E2E2E2000F0FE2E20F0F0000000F00000F0000000F00000000000F000F00000000000F00000F00000000000F000000000F000000000F00000F000000000F00000000000000000F00000000000000000000000000000000000000
310
000000000000000000000000000000000000000000000000000000000000000000000000000000000000000000000000000000000000000000000000000000000000000000000000000000000000000000000000000000000000000000000000000000000000000000000F0000000000000F00000000000000E2E200000000
310
000000000F00000000000F0F000000E2E20000000000000000000000E2E20F000000E2E2E2E2E2E2E2E200E2E2000000000000000F00000F0000000F00000000000F000F00000000000F00000F00000000000F000000000F000000000F00000F000000000F00000000000000000F0000000000000000000000000000000000
310
0000000000000000000000000000000000000000000000000000000000000000000000000000000000000000000000000000000000000000000000000000000000000000000000000000000000000000000000000000000000000000000000000000000000000000000000000F0000000000000F0F0F0000000000E2E20000
310
00000F000000E2E20F0F0000000000000FE2E200000000E2E20000000000E2E20F000000E2E2E2E2E2E2E2E2000FE2E2000F0F0000000F00000F0000000F00000000000F000F00000000000F00000F00000000000F000000000F000000000F00000F000000000F00000000000000000F000000000000000000000000000000
310
00000000000000000000000000000000000000000000000000000000000000000000000000000000000000000000000000000000000000000000000000000000000000000000000000000000000000000000000000000000000000000000000000000000000000000000000000000F0000000000000000000F0F0F0000E2E2
310
000000000F0F0000E2E2000F00000000000000E2E200000000E2E20000000000000F0F0000000000000000000000000F000FE20F0F0000000F00000F0000000F00000000000F000F00000000000F00000F00000000000F000000000F000000000F00000F000000000F00000000000000000F00000000000000000000000000
310
000000000000000000000000000000000000000000000000000000000000000000000000000000000000000000000000000000000000000000000000000000000000000000000000000000000000000000000000000000000000000000000000000000000000000000000000000000000F00000000000000000000000F0F0F
310
E2E200000F0F00000F0FE2E20F000F0000000000000F0F0F0F0F0FE2E2000F0F0F0F0F0F0000000000000000000000000F00000F0F0F0F0000000F00000F0000000F00000000000F000F00000000000F00000F00E2E2E2000F00000000E2E2E200000F0000E2E20000000F00000000000000000F0000000000000000000000
310
0000000000000000000000000000000000000000000000000000000000000000000000000000000000000000000000000000000000000000000000000000000000000000000000000000000000000000000000000000000000000000000000000000000000000000000000000000000000000F000000000000000000000000
310
00000F0F0F0F000F000000000F0F0F0F0000000000000000000000000F0F0F0F0F000000000000000000000000000000000F0F00000000000F0000000F00000F0000000F00000000000F000F00C3E2E2000F00000F0FE2E2E2000F00000000E2E2E20F0F0F0000E2E20F0F0F0F00000000000000000F000000000000000000
310
00000000000000000000000000000000000000000000000000000000000000000000000000000000000000000000000000000000000000000000000000000000000000000000000000000000000000000000000000000000000000000000000000000000000000000000000000000000000000000F00000000000000000000
310
000000000000000000000000000000000000000000000000000000000000000000000000000000000000000000000F0F0F0F0F000000000000000F00000F0000000F0000000F000000000F00000F00C3E2E2000F00000F0FE2E2E2000F00000000E2E2E20F0F0F0000E2E20F0F0F0F00000000000000000F00000000000000
310
000000000000000000000000000000000000000000000000000000000000000000000000000000000000000000000000000000000000000000000000000000000000000000000000000000000000000000000000000000000000000000000000000000000000000000000000000000000000000000000F0000000000000000
310
000000000000E2E20F0F0000000000000000000000000000000000000000000000E2E2000000000000000000000000000F000000000000000000000F0000000F0000000F0000000F000000000F00000F0000E2E2000F0000000F000000000F000000000F000000000F00000F000000000F00000000000000000F0000000000
310
0000000000000000000000000000000000000000000000000000000000000000000000000000000000000000000000000000000000000000000000000000000000000000000000000000000000000000000000000000000000000000000000000000000000000000000000000000000000000000000000000F000000000000
310
000000000000000FE2E200000F0F000000000000000000000000000000000F0F0F0F0FE2E20F0F0F0F0F0F0F0000000000000F0000000000000000000F0000000FE2E2E2000F000F0FE2E20000000F00000F00000000000F0000000F000000000F000000000FE2E2E20F0F00000FE2E2E20F0F00000000000000000F000000
310
00000000000000000000000000000000000000000000000000000000000000000000000000000000000000000000000000000000000000000000000000000000000000000000000000000000000000000000000000000000000000000000000000000000000000000000000000000000000000000000000000000F00000000
310
00000000000F0F0F0F00E2E20000000F000000000000000000000000000000E2E200000000E2E20000000000E2E20000000000000FE2E20000000000000F000000000FE2E2E2000F000F0FE2E20000000F00000F00000000000F00E2E2E20F0000000F0000000000E2E2E20FE2E20000E2E2E20FE2E2000000000000000F00
310
000000000000000000000000000000000000000000000000000000000000000000000000000000000000000000000000000000000000000000000000000000000000000000000000000000000000000000000000000000000000000000000000000000000000000000000000000000000000000000000000000000000F0000
310
000000000F0F0F0000000000E2E2000000000F0000000000000000000000000000E2E20000000000000000000000E2E20F00000000000FE2E200000000000F00000000000FE2E2E20F00000F0FE2E200000F0000000F0F0F000F0F0F00E2E2E20F0F000F000000000000E2E2E20FE2E20000E2E2E20FE2E200000000000000
310
0F00000000000000000000000000000000000000000000000000000000000000000000000000000000000000000000000000000000000000000000000000000000000000000000000000000000000000000000000000000000000000000000000000000000000000000000000000000000000000000000000000000000000F
310
0000000000000F000000000000000000000000000F000000000000000000000000000FE2E20000000000000000000000E2E20F00000000000F000F0F0000000F0000000000000F0F0F000000000F0F0F0F0F0F000000000000E2E20F000000E2E2E20F0F000F000000000000000F0F0FE2E200000F0F0F0FE2E20000000000
310
00000F00000000000000000000000000000000000000000000000000000000000000000000000000000000000000000000000000000000000000000000000000000000000000000000000000000000000000000000000000000000000000000000000000000000000000000000000000000000000000000000000000000000
310
000F0000000000000F000000000000000000000000000F0000000000000000000FE2E200000F000000000000000000000000E2E20F00000000000F000F0F000F0F0000000000000000000000000000000000000000000000000000E2E200000000000000000F0F0F000000000000000F0F0F000000000F0F0F0F0000000000
310
000000000F0000000000000000000000000000000000000000000000000000000000000000000000000000000000000000000000000000000000000000000000000000000000000000000000000000000000000000000000000000000000000000000000000000000000000000000000000000000000000000000000000000
310
0000000F0000000000000F00000000E2E2E20000000000000F0000000000000000E2E2E2E20F0F000000000000E2E2000000E2E2000F0000000000000F0F0F0F0F00000000000000000000000000000000000000000000000000000000E2E20000000000000000000000000000000000000000000000000000000000000000
310
0000000000000F000000000000000000000000000000000000000000000000000000000000000000000000000000000000000000000000000000000000000000000000000000000000000000000000000000000000000000000000000000000000000000000000000000000000000000000000000000000000000000000000
310
00000000000F0000000000000F00000000E2E2E2000000000000000F00000000000000E2E2E2E2000F000000000000E2E2000000E2E20F0F00000000000000000000000000000000000000000000000000E2E2000000E2E2000000000000000000000000000000000000000000000000000000000000000000000000000000
310
00000000000000000F00000000000000000000000000000000000000000000000000000000000000000000000000000000000000000000000000000000000000000000000000000000000000000000000000000000000000000000000000000000000000000000000000000000000000000000000000000000000000000000
310
000000000000000F0000000000000F00000000E2E2E2000000000000000F0F0F0F0F0F0F0FE2E200000000000000000000E2E2000000E2E20F0F0000000000000000000000000000000000E2E2E20F0F00000FE2E20F0000E2E20F0F00000FE2E2E20F0F000000000000000000000000000000000000000000000000000000
310
000000000000000000000F0000000000000000000000000000000000000000000000000000000000000000000000000000000000000000000000000000000000000000000000000000000000000000000000000000000000000000000000000000000000000000000000000000000000000000000000000000000000000000
310
0000000000000000000F0000000000000F0F000000000F0F0000000000000000000000000000000000000000000000000000000F0F00000000000F0F000000000000000000000000000000000FE2E2E2000F00000FE2E20F0000E2E20F0F00000FE2E2E2000F00000000000000000000000000000000000000000000000000
310
0000000000000000000000000F000000000000000000000000000000000000000000000000000000000000000000000000000000000000000000000000000000000000000000000000000000000000000000000000000000000000000000000000000000000000000000000000000000000000000000000000000000000000
310
00000000000000000000000F00000000000000000F0F0F000F0F0000000F0F0F0F0F0F0F0F0F0F0F0F0F0F0F0F0F0F0F0F0F0F00000F0F000F0F0F0F0000000000000000000000000000000000000FE2E2E2000F0FE2E20F0F0F00000F0FE2E2E2000FE2E2E2000F0000000000000000000000000000000000000000000000
310
00000000000000000000000000000F00000000000000000000000000000000000000000000000000000000000000000000000000000000000000000000000000000000000000000000000000000000000000000000000000000000000000000000000000000000000000000000000000000000000000000000000000000000
310
000000000000000000000000000F00000000000000000000000F0F0F0F0F0F000000000000000000000000000000000000000000000F0F0F0F0F00000000000000000000000000000000000000000000000F0F0F0F0F00E2E200000000000000E2E2E2000F0F0F0F0F0F000000000000000000000000000000000000000000
310
000000000000000000000000000000000F0000000000000000000000000000000000000000000000000000000000000000000000000000000000000000000000000000000000000000000000000000000000000000000000000000000000000000000000000000000000000000000000000000000000000000000000000000
310
0000000000000000000000000000000F00000000000000000000000000000000000000000000000000000000000000000000000000000000000000000000000000000000000000000000000000000000000000000000000000E2E200000000000000E2E2E20000000000000000000000000000000000000000000000000000
310
0000000000000000000000000000000000000F000000000000000000000000000000000000000000000000000000000000000000000000000000000000000000000000000000000000000000000000000000000000000000000000000000000000000000000000000000000000000000000000000000000000000000000000
310
00000000000000000000000000000000000F00000000000000000000000000000000000000000000000000000000000000000000000000000000000000000000000000000000000000000000000000000000000000000000000000000000000000000000000000000000000000000000000000000000000000000000000000
310
00000000000000000000000000000000000000000F00000000000000000000000000000000000000000000000000000000000000000000000000000000000000000000000000000000000000000000000000000000000000000000000000000000000000000000000000000000000000000000000000000000000000000000
310
000000000000000000000000000000000000000F0000000000000000000000000000000000000000000000000000000000000000000000000000000000000000000000000000000000000000000000000000000000000000000000000000000000000000000000000000000000000000000000000000000000000000000000
310
000000000000000000000000000000000000000000000F0000000000000000000000000000000000000000000000000000000000000000000000000000000000000000000000000000000000000000000000000000000000000000000000000000000000000000000000000000000000000000000000000000000000000000
310
0000000000000000000000000000000000000000000F000000000000000000000000000000000000000000000000000000000000000000000000000000000000000000000000000000000000000000000000000000000000000000000000000000000000000000000000000000000000000000000000000000000000000000
310
0000000000000000000000000000000000000000000000000F000000000000000000000000000000000000000000000000000000000000000000000000000000000000000000000000000000000000000000000000000000000000000000000000000000000000000000000000000000000000000000000000000000000000
310
0000000000000000000000000000000000000000000000000F000000000000000000000000000000000000000000000000000000000000000000000000000000000000000000000000000000000000000000000000000000000000000000000000000000000000000000000000000000000000000000000000000000000000
310
00000000000000000000000000000000000000000000000000000F00000000000000000000000000000000000000000000000000000000000000000000000000000000000000000000000000000000000000000000000000000000000000000000000000000000000000000000000000000000000000000000000000000000
310
00000000000000000000000000000000000000000000000000000F0F0F0F0F0F0F0F0F0F0F0F0F0F0F0F0F0F0F0F0F0F0F0F0F0F0F0F0F0F0F0F0F0F0F0F0F0F0F0F0F0F0F0F0F0F0F0F0F0F0F0F0F0F0F0F0F0F0F0F0F0F0F0F0F0F0F0F0F0F0F0F0F0F0F0F0F0F0F0F0F0F0F0F0F0F0F0F0F0F0F0F0F0F0F0F0F0F0F0F0F
310
0F0F0F0F0F0F0F0F0F0F0F0F0F0F0F0F0F0F0F0F0F0F0F0F0F0F0F0F000000000000000000000000000000000000000000000000000000000000000000000000000000000000000000000000000000000000000000000000000000000000000000000000000000000000000000000000000000000000000000000000000000
310
00000000000000000000000000000000000000000000000000000000000000000000000000000000000000000000000000000000000000000000000000000000000000000000000000000000000000000000000000000000000000000000000000000000000000000000000000000000000000000000000000000000000000
310
00000000000000000000000000000000000000000000000000000000000000000000000000000000000000000000000000000000000000000000000000000000000000000000000000000000000000000000000000000000000000000000000000000000000000000000000000000000000000000000000000000000000000
310
00000000000000000000000000000000000000000000000000000000000000000000000000000000000000000000000000000000000000000000000000000000000000000000000000000000000000000000000000000000000000000000000000000000000000000000000000000000000000000000000000000000000000
310
00000000000000000000000000000000000000000000000000000000000000000000000000000000000000000000000000000000000000000000000000000000000000000000000000000000000000000000000000000000000000000000000000000000000000000000000000000000000000000000000000000000000000
310
00000000000000000000000000000000000000000000000000000000000000000000000000000000000000000000000000000000000000000000000000000000000000000000000000000000000000000000000000000000000000000000000000000000000000000000000000000000000000000000000000000000000000
310
00000000000000000000000000000000000000000000000000000000000000000000000000000000000000000000000000000000000000000000000000000000000000000000000000000000000000000000000000000000000000000000000000000000000000000000000000000000000000000000000000000000000000
310
00000000000000000000000000000000000000000000000000000000000000000000000000000000000000000000000000000000000000000000000000000000000000000000000000000000000000000000000000000000000000000000000000000000000000000000000000000000000000000000000000000000000000
310
00000000000000000000000000000000000000000000000000000000000000000000000000000000000000000000000000000000000000000000000000000000000000000000000000000000000000000000000000000000000000000000000000000000000000000000000000000000000000000000000000000000000000
310
00000000000000000000000000000000000000000000000000000000000000000000000000000000000000000000000000000000000000000000000000000000000000000000000000000000000000000000000000000000000000000000000000000000000000000000000000000000000000000000000000000000000000
310
00000000000000000000000000000000000000000000000000000000000000000000000000000000000000000000000000000000000000000000000000000000000000000000000000000000000000000000000000000000000000000000000000000000000000000000000000000000000000000000000000000000000000
310
00000000000000000000000000000000000000000000000000000000000000000000000000000000000000000000000000000000000000000000000000000000000000000000000000000000000000000000000000000000000000000000000000000000000000000000000000000000000000000000000000000000000000
310
00000000000000000000000000000000000000000000000000000000000000000000000000000000000000000000000000000000000000000000000000000000000000000000000000000000000000000000000000000000000000000000000000000000000000000000000000000000000000000000000000000000000000
310
00000000000000000000000000000000000000000000000000000000000000000000000000000000000000000000000000000000000000000000000000000000000000000000000000000000000000000000000000000000000000000000000000000000000000000000000000000000000000000000000000000000000000
310
00000000000000000000000000000000000000000000000000000000000000000000000000000000000000000000000000000000000000000000000000000000000000000000000000000000000000000000000000000000000000000000000000000000000000000000000000000000000000000000000000000000000000
310
00000000000000000000000000000000000000000000000000000000000000000000000000000000000000000000000000000000000000000000000000000000000000000000000000000000000000000000000000000000000000000000000000000000000000000000000000000000000000000000000000000000000000
310
00000000000000000000000000000000000000000000000000000000000000000000000000000000000000000000000000000000000000000000000000000000000000000000000000000000000000000000000000000000000000000000000000000000000000000000000000000000000000000000000000000000000000
310
00000000000000000000000000000000000000000000000000000000000000000000000000000000000000000000000000000000000000000000000000000000000000000000000000000000000000000000000000000000000000000000000000000000000000000000000000000000000000000000000000000000000000
310
00000000000000000000000000000000000000000000000000000000000000000000000000000000000000000000000000000000000000000000000000000000000000000000000000000000000000000000000000000000000000000000000000000000000000000000000000000000000000000000000000000000000000
310
00000000000000000000000000000000000000000000000000000000000000000000000000000000000000000000000000000000000000000000000000000000000000000000000000000000000000000000000000000000000000000000000000000000000000000000000000000000000000000000000000000000000000
310
00000000000000000000000000000000000000000000000000000000000000000000000000000000000000000000000000000000000000000000000000000000000000000000000000000000000000000000000000000000000000000000000000000000000000000000000000000000000000000000000000000000000000
310
00000000000000000000000000000000000000000000000000000000000000000000000000000000000000000000000000000000000000000000000000000000000000000000000000000000000000000000000000000000000000000000000000000000000000000000000000000000000000000000000000000000000000
310
00000000000000000000000000000000000000000000000000000000000000000000000000000000000000000000000000000000000000000000000000000000000000000000000000000000000000000000000000000000000000000000000000000000000000000000000000000000000000000000000000000000000000
310
00000000000000000000000000000000000000000000000000000000000000000000000000000000000000000000000000000000000000000000000000000000000000000000000000000000000000000000000000000000000000000000000000000000000000000000000000000000000000000000000000000000000000
310
00000000000000000000000000000000000000000000000000000000000000000000000000000000000000000000000000000000000000000000000000000000000000000000000000000000000000000000000000000000000000000000000000000000000000000000000000000000000000000000000000000000000000
310
00000000000000000000000000000000000000000000000000000000000000000000000000000000000000000000000000000000000000000000000000000000000000000000000000000000000000000000000000000000000000000000000000000000000000000000000000000000000000000000000000000000000000
310
00000000000000000000000000000000000000000000000000000000000000000000000000000000000000000000000000000000000000000000000000000000000000000000000000000000000000000000000000000000000000000000000000000000000000000000000000000000000000000000000000000000000000
310
00000000000000000000000000000000000000000000000000000000000000000000000000000000000000000000000000000000000000000000000000000000000000000000000000000000000000000000000000000000000000000000000000000000000000000000000000000000000000000000000000000000000000
310
00000000000000000000000000000000000000000000000000000000000000000000000000000000000000000000000000000000000000000000000000000000000000000000000000000000000000000000000000000000000000000000000000000000000000000000000000000000000000000000000000000000000000
310
00000000000000000000000000000000000000000000000000000000000000000000000000000000000000000000000000000000000000000000000000000000000000000000000000000000000000000000000000000000000000000000000000000000000000000000000000000000000000000000000000000000000000
310
00000000000000000000000000000000000000000000000000000000000000000000000000000000000000000000000000000000000000000000000000000000000000000000000000000000000000000000000000000000000000000000000000000000000000000000000000000000000000000000000000000000000000
310
00000000000000000000000000000000000000000000000000000000000000000000000000000000000000000000000000000000000000000000000000000000000000000000000000000000000000000000000000000000000000000000000000000000000000000000000000000000000000000000000000000000000000
310
00000000000000000000000000000000000000000000000000000000000000000000000000000000000000000000000000000000000000000000000000000000000000000000000000000000000000000000000000000000000000000000000000000000000000000000000000000000000000000000000000000000000000
310
00000000000000000000000000000000000000000000000000000000000000000000000000000000000000000000000000000000000000000000000000000000000000000000000000000000000000000000000000000000000000000000000000000000000000000000000000000000000000000000000000000000000000
310
00000000000000000000000000000000000000000000000000000000000000000000000000000000000000000000000000000000000000000000000000000000000000000000000000000000000000000000000000000000000000000000000000000000000000000000000000000000000000000000000000000000000000
310
00000000000000000000000000000000000000000000000000000000000000000000000000000000000000000000000000000000000000000000000000000000000000000000000000000000000000000000000000000000000000000000000000000000000000000000000000000000000000000000000000000000000000
310
00000000000000000000000000000000000000000000000000000000000000000000000000000000000000000000000000000000000000000000000000000000000000000000000000000000000000000000000000000000000000000000000000000000000000000000000000000000000000000000000000000000000000
310
00000000000000000000000000000000000000000000000000000000000000000000000000000000000000000000000000000000000000000000000000000000000000000000000000000000000000000000000000000000000000000000000000000000000000000000000000000000000000000000000000000000000000
310
00000000000000000000000000000000000000000000000000000000000000000000000000000000000000000000000000000000000000000000000000000000000000000000000000000000000000000000000000000000000000000000000000000000000000000000000000000000000000000000000000000000000000
310
00000000000000000000000000000000000000000000000000000000000000000000000000000000000000000000000000000000000000000000000000000000000000000000000000000000000000000000000000000000000000000000000000000000000000000000000000000000000000000000000000000000000000
310
00000000000000000000000000000000000000000000000000000000000000000000000000000000000000000000000000000000000000000000000000000000000000000000000000000000000000000000000000000000000000000000000000000000000000000000000000000000000000000000000000000000000000
310
00000000000000000000000000000000000000000000000000000000000000000000000000000000000000000000000000000000000000000000000000000000000000000000000000000000000000000000000000000000000000000000000000000000000000000000000000000000000000000000000000000000000000
310
00000000000000000000000000000000000000000000000000000000000000000000000000000000000000000000000000000000000000000000000000000000000000000000000000000000000000000000000000000000000000000000000000000000000000000000000000000000000000000000000000000000000000
310
00000000000000000000000000000000000000000000000000000000000000000000000000000000000000000000000000000000000000000000000000000000000000000000000000000000000000000000000000000000000000000000000000000000000000000000000000000000000000000000000000000000000000
310
00000000000000000000000000000000000000000000000000000000000000000000000000000000000000000000000000000000000000000000000000000000000000000000000000000000000000000000000000000000000000000000000000000000000000000000000000000000000000000000000000000000000000
310
00000000000000000000000000000000000000000000000000000000000000000000000000000000000000000000000000000000000000000000000000000000000000000000000000000000000000000000000000000000000000000000000000000000000000000000000000000000000000000000000000000000000000
310
00000000000000000000000000000000000000000000000000000000000000000000000000000000000000000000000000000000000000000000000000000000000000000000000000000000000000000000000000000000000000000000000000000000000000000000000000000000000000000000000000000000000000
310
00000000000000000000000000000000000000000000000000000000000000000000000000000000000000000000000000000000000000000000000000000000000000000000000000000000000000000000000000000000000000000000000000000000000000000000000000000000000000000000000000000000000000
310
00000000000000000000000000000000000000000000000000000000000000000000000000000000000000000000000000000000000000000000000000000000000000000000000000000000000000000000000000000000000000000000000000000000000000000000000000000000000000000000000000000000000000
310
00000000000000000000000000000000000000000000000000000000000000000000000000000000000000000000000000000000000000000000000000000000000000000000000000000000000000000000000000000000000000000000000000000000000000000000000000000000000000000000000000000000000000
310
00000000000000000000000000000000000000000000000000000000000000000000000000000000000000000000000000000000000000000000000000000000000000000000000000000000000000000000000000000000000000000000000000000000000000000000000000000000000000000000000000000000000000
310
00000000000000000000000000000000000000000000000000000000000000000000000000000000000000000000000000000000000000000000000000000000000000000000000000000000000000000000000000000000000000000000000000000000000000000000000000000000000000000000000000000000000000
310
00000000000000000000000000000000000000000000000000000000000000000000000000000000000000000000000000000000000000000000000000000000000000000000000000000000000000000000000000000000000000000000000000000000000000000000000000000000000000000000000000000000000000
310
00000000000000000000000000000000000000000000000000000000000000000000000000000000000000000000000000000000000000000000000000000000000000000000000000000000000000000000000000000000000000000000000000000000000000000000000000000000000000000000000000000000000000
310
00000000000000000000000000000000000000000000000000000000000000000000000000000000000000000000000000000000000000000000000000000000000000000000000000000000000000000000000000000000000000000000000000000000000000000000000000000000000000000000000000000000000000
310
00000000000000000000000000000000000000000000000000000000000000000000000000000000000000000000000000000000000000000000000000000000000000000000000000000000000000000000000000000000000000000000000000000000000000000000000000000000000000000000000000000000000000
310
00000000000000000000000000000000000000000000000000000000000000000000000000000000000000000000000000000000000000000000000000000000000000000000000000000000000000000000000000000000000000000000000000000000000000000000000000000000000000000000000000000000000000
310
00000000000000000000000000000000000000000000000000000000000000000000000000000000000000000000000000000000000000000000000000000000000000000000000000000000000000000000000000000000000000000000000000000000000000000000000000000000000000000000000000000000000000
310
00000000000000000000000000000000000000000000000000000000000000000000000000000000000000000000000000000000000000000000000000000000000000000000000000000000000000000000000000000000000000000000000000000000000000000000000000000000000000000000000000000000000000
310
00000000000000000000000000000000000000000000000000000000000000000000000000000000000000000000000000000000000000000000000000000000000000000000000000000000000000000000000000000000000000000000000000000000000000000000000000000000000000000000000000000000000000
310
00000000000000000000000000000000000000000000000000000000000000000000000000000000000000000000000000000000000000000000000000000000000000000000000000000000000000000000000000000000000000000000000000000000000000000000000000000000000000000000000000000000000000
310
00000000000000000000000000000000000000000000000000000000000000000000000000000000000000000000000000000000000000000000000000000000000000000000000000000000000000000000000000000000000000000000000000000000000000000000000000000000000000000000000000000000000000
310
00000000000000000000000000000000000000000000000000000000000000000000000000000000000000000000000000000000000000000000000000000000000000000000000000000000000000000000000000000000000000000000000000000000000000000000000000000000000000000000000000000000000000
310
00000000000000000000000000000000000000000000000000000000000000000000000000000000000000000000000000000000000000000000000000000000000000000000000000000000000000000000000000000000000000000000000000000000000000000000000000000000000000000000000000000000000000
310
00000000000000000000000000000000000000000000000000000000000000000000000000000000000000000000000000000000000000000000000000000000000000000000000000000000000000000000000000000000000000000000000000000000000000000000000000000000000000000000000000000000000000
310
00000000000000000000000000000000000000000000000000000000000000000000000000000000000000000000000000000000000000000000000000000000000000000000000000000000000000000000000000000000000000000000000000000000000000000000000000000000000000000000000000000000000000
310
00000000000000000000000000000000000000000000000000000000000000000000000000000000000000000000000000000000000000000000000000000000000000000000000000000000000000000000000000000000000000000000000000000000000000000000000000000000000000000000000000000000000000
310
00000000000000000000000000000000000000000000000000000000000000000000000000000000000000000000000000000000000000000000000000000000000000000000000000000000000000000000000000000000000000000000000000000000000000000000000000000000000000000000000000000000000000
310
00000000000000000000000000000000000000000000000000000000000000000000000000000000000000000000000000000000000000000000000000000000000000000000000000000000000000000000000000000000000000000000000000000000000000000000000000000000000000000000000000000000000000
310
00000000000000000000000000000000000000000000000000000000000000000000000000000000000000000000000000000000000000000000000000000000000000000000000000000000000000000000000000000000000000000000000000000000000000000000000000000000000000000000000000000000000000
310
00000000000000000000000000000000000000000000000000000000000000000000000000000000000000000000000000000000000000000000000000000000000000000000000000000000000000000000000000000000000000000000000000000000000000000000000000000000000000000000000000000000000000
310
00000000000000000000000000000000000000000000000000000000000000000000000000000000000000000000000000000000000000000000000000000000000000000000000000000000000000000000000000000000000000000000000000000000000000000000000000000000000000000000000000000000000000
310
00000000000000000000000000000000000000000000000000000000000000000000000000000000000000000000000000000000000000000000000000000000000000000000000000000000000000000000000000000000000000000000000000000000000000000000000000000000000000000000000000000000000000
310
00000000000000000000000000000000000000000000000000000000000000000000000000000000000000000000000000000000000000000000000000000000000000000000000000000000000000000000000000000000000000000000000000000000000000000000000000000000000000000000000000000000000000
310
00000000000000000000000000000000000000000000000000000000000000000000000000000000000000000000000000000000000000000000000000000000000000000000000000000000000000000000000000000000000000000000000000000000000000000000000000000000000000000000000000000000000000
310
00000000000000000000000000000000000000000000000000000000000000000000000000000000000000000000000000000000000000000000000000000000000000000000000000000000000000000000000000000000000000000000000000000000000000000000000000000000000000000000000000000000000000
310
00000000000000000000000000000000000000000000000000000000000000000000000000000000000000000000000000000000000000000000000000000000000000000000000000000000000000000000000000000000000000000000000000000000000000000000000000000000000000000000000000000000000000
310
00000000000000000000000000000000000000000000000000000000000000000000000000000000000000000000000000000000000000000000000000000000000000000000000000000000000000000000000000000000000000000000000000000000000000000000000000000000000000000000000000000000000000
310
00000000000000000000000000000000000000000000000000000000000000000000000000000000000000000000000000000000000000000000000000000000000000000000000000000000000000000000000000000000000000000000000000000000000000000000000000000000000000000000000000000000000000
310
00000000000000000000000000000000000000000000000000000000000000000000000000000000000000000000000000000000000000000000000000000000000000000000000000000000000000000000000000000000000000000000000000000000000000000000000000000000000000000000000000000000000000
310
00000000000000000000000000000000000000000000000000000000000000000000000000000000000000000000000000000000000000000000000000000000000000000000000000000000000000000000000000000000000000000000000000000000000000000000000000000000000000000000000000000000000000
310
00000000000000000000000000000000000000000000000000000000000000000000000000000000000000000000000000000000000000000000000000000000000000000000000000000000000000000000000000000000000000000000000000000000000000000000000000000000000000000000000000000000000000
310
00000000000000000000000000000000000000000000000000000000000000000000000000000000000000000000000000000000000000000000000000000000000000000000000000000000000000000000000000000000000000000000000000000000000000000000000000000000000000000000000000000000000000
310
00000000000000000000000000000000000000000000000000000000000000000000000000000000000000000000000000000000000000000000000000000000000000000000000000000000000000000000
  0
XRECORD
  5
830
102
{ACAD_REACTORS
330
339
102
}
330
339
100
AcDbXrecord
280
     1
102
MATERIAL
148
0.0
149
0.0
149
0.0
 93
        0
 94
      127
282
     0
 72
     0
 77
     0
171
     0
175
     0
179
     0
273
     0
  0
XRECORD
  5
33B
102
{ACAD_REACTORS
330
339
102
}
330
339
100
AcDbXrecord
280
     1
270
     1
271
     1
  0
XRECORD
  5
33A
102
{ACAD_REACTORS
330
339
102
}
330
339
100
AcDbXrecord
280
     1
270
     1
271
     1
  0
XRECORD
  5
33E
102
{ACAD_REACTORS
330
339
102
}
330
339
100
AcDbXrecord
280
     1
270
     1
271
     1
  0
XRECORD
  5
33D
102
{ACAD_REACTORS
330
339
102
}
330
339
100
AcDbXrecord
280
     1
270
     1
271
     1
  0
XRECORD
  5
33F
102
{ACAD_REACTORS
330
339
102
}
330
339
100
AcDbXrecord
280
     1
270
     1
271
     1
  0
XRECORD
  5
33C
102
{ACAD_REACTORS
330
339
102
}
330
339
100
AcDbXrecord
280
     1
270
     1
271
     1
  0
XRECORD
  5
82F
102
{ACAD_REACTORS
330
331
102
}
330
331
100
AcDbXrecord
280
     1
102
MATERIAL
148
0.0
149
0.0
149
0.0
 93
        0
 94
      127
282
     0
 72
     0
 77
     0
171
     0
175
     0
179
     0
273
     0
  0
XRECORD
  5
333
102
{ACAD_REACTORS
330
331
102
}
330
331
100
AcDbXrecord
280
     1
270
     1
271
     1
  0
XRECORD
  5
332
102
{ACAD_REACTORS
330
331
102
}
330
331
100
AcDbXrecord
280
     1
270
     1
271
     1
  0
XRECORD
  5
336
102
{ACAD_REACTORS
330
331
102
}
330
331
100
AcDbXrecord
280
     1
270
     1
271
     1
  0
XRECORD
  5
335
102
{ACAD_REACTORS
330
331
102
}
330
331
100
AcDbXrecord
280
     1
270
     1
271
     1
  0
XRECORD
  5
337
102
{ACAD_REACTORS
330
331
102
}
330
331
100
AcDbXrecord
280
     1
270
     1
271
     1
  0
XRECORD
  5
334
102
{ACAD_REACTORS
330
331
102
}
330
331
100
AcDbXrecord
280
     1
270
     1
271
     1
  0
XRECORD
  5
831
102
{ACAD_REACTORS
330
341
102
}
330
341
100
AcDbXrecord
280
     1
102
MATERIAL
148
0.0
149
0.0
149
0.0
 93
        0
 94
      127
282
     0
 72
     0
 77
     0
171
     0
175
     0
179
     0
273
     0
  0
XRECORD
  5
343
102
{ACAD_REACTORS
330
341
102
}
330
341
100
AcDbXrecord
280
     1
270
     1
271
     1
  0
XRECORD
  5
342
102
{ACAD_REACTORS
330
341
102
}
330
341
100
AcDbXrecord
280
     1
270
     1
271
     1
  0
XRECORD
  5
346
102
{ACAD_REACTORS
330
341
102
}
330
341
100
AcDbXrecord
280
     1
270
     1
271
     1
  0
XRECORD
  5
345
102
{ACAD_REACTORS
330
341
102
}
330
341
100
AcDbXrecord
280
     1
270
     1
271
     1
  0
XRECORD
  5
347
102
{ACAD_REACTORS
330
341
102
}
330
341
100
AcDbXrecord
280
     1
270
     1
271
     1
  0
XRECORD
  5
344
102
{ACAD_REACTORS
330
341
102
}
330
341
100
AcDbXrecord
280
     1
270
     1
271
     1
  0
CELLSTYLEMAP
  5
94B
102
{ACAD_REACTORS
330
82B
102
}
330
82B
100
AcDbCellStyleMap
 90
        3
300
CELLSTYLE
  1
TABLEFORMAT_BEGIN
 90
        5
170
     1
 91
        0
 92
    32768
 62
   257
 93
        1
300
CONTENTFORMAT
  1
CONTENTFORMAT_BEGIN
 90
        0
 91
        0
 92
      512
 93
        0
300

 40
0.0
140
1.0
 94
        5
 62
     0
340
374
144
0.25
309
CONTENTFORMAT_END
171
     1
301
MARGIN
  1
CELLMARGIN_BEGIN
 40
0.06
 40
0.06
 40
0.06
 40
0.06
 40
0.18
 40
0.18
309
CELLMARGIN_END
 94
        6
 95
        1
302
GRIDFORMAT
  1
GRIDFORMAT_BEGIN
 90
        0
 91
        1
 62
     0
 92
       -2
340
0
 93
        0
 40
0.045
309
GRIDFORMAT_END
 95
        2
302
GRIDFORMAT
  1
GRIDFORMAT_BEGIN
 90
        0
 91
        1
 62
     0
 92
       -2
340
0
 93
        0
 40
0.045
309
GRIDFORMAT_END
 95
        4
302
GRIDFORMAT
  1
GRIDFORMAT_BEGIN
 90
        0
 91
        1
 62
     0
 92
       -2
340
0
 93
        0
 40
0.045
309
GRIDFORMAT_END
 95
        8
302
GRIDFORMAT
  1
GRIDFORMAT_BEGIN
 90
        0
 91
        1
 62
     0
 92
       -2
340
0
 93
        0
 40
0.045
309
GRIDFORMAT_END
 95
       16
302
GRIDFORMAT
  1
GRIDFORMAT_BEGIN
 90
        0
 91
        1
 62
     0
 92
       -2
340
0
 93
        0
 40
0.045
309
GRIDFORMAT_END
 95
       32
302
GRIDFORMAT
  1
GRIDFORMAT_BEGIN
 90
        0
 91
        1
 62
     0
 92
       -2
340
0
 93
        0
 40
0.045
309
GRIDFORMAT_END
309
TABLEFORMAT_END
  1
CELLSTYLE_BEGIN
 90
        1
 91
        1
300
_TITLE
309
CELLSTYLE_END
300
CELLSTYLE
  1
TABLEFORMAT_BEGIN
 90
        5
170
     1
 91
        0
 92
        0
 62
   257
 93
        1
300
CONTENTFORMAT
  1
CONTENTFORMAT_BEGIN
 90
        0
 91
        0
 92
      512
 93
        0
300

 40
0.0
140
1.0
 94
        5
 62
     0
340
374
144
0.18
309
CONTENTFORMAT_END
171
     1
301
MARGIN
  1
CELLMARGIN_BEGIN
 40
0.06
 40
0.06
 40
0.06
 40
0.06
 40
0.18
 40
0.18
309
CELLMARGIN_END
 94
        6
 95
        1
302
GRIDFORMAT
  1
GRIDFORMAT_BEGIN
 90
        0
 91
        1
 62
     0
 92
       -2
340
0
 93
        0
 40
0.045
309
GRIDFORMAT_END
 95
        2
302
GRIDFORMAT
  1
GRIDFORMAT_BEGIN
 90
        0
 91
        1
 62
     0
 92
       -2
340
0
 93
        0
 40
0.045
309
GRIDFORMAT_END
 95
        4
302
GRIDFORMAT
  1
GRIDFORMAT_BEGIN
 90
        0
 91
        1
 62
     0
 92
       -2
340
0
 93
        0
 40
0.045
309
GRIDFORMAT_END
 95
        8
302
GRIDFORMAT
  1
GRIDFORMAT_BEGIN
 90
        0
 91
        1
 62
     0
 92
       -2
340
0
 93
        0
 40
0.045
309
GRIDFORMAT_END
 95
       16
302
GRIDFORMAT
  1
GRIDFORMAT_BEGIN
 90
        0
 91
        1
 62
     0
 92
       -2
340
0
 93
        0
 40
0.045
309
GRIDFORMAT_END
 95
       32
302
GRIDFORMAT
  1
GRIDFORMAT_BEGIN
 90
        0
 91
        1
 62
     0
 92
       -2
340
0
 93
        0
 40
0.045
309
GRIDFORMAT_END
309
TABLEFORMAT_END
  1
CELLSTYLE_BEGIN
 90
        2
 91
        1
300
_HEADER
309
CELLSTYLE_END
300
CELLSTYLE
  1
TABLEFORMAT_BEGIN
 90
        5
170
     1
 91
        0
 92
        0
 62
   257
 93
        1
300
CONTENTFORMAT
  1
CONTENTFORMAT_BEGIN
 90
        0
 91
        0
 92
      512
 93
        0
300

 40
0.0
140
1.0
 94
        2
 62
     0
340
374
144
0.18
309
CONTENTFORMAT_END
171
     1
301
MARGIN
  1
CELLMARGIN_BEGIN
 40
0.06
 40
0.06
 40
0.06
 40
0.06
 40
0.18
 40
0.18
309
CELLMARGIN_END
 94
        6
 95
        1
302
GRIDFORMAT
  1
GRIDFORMAT_BEGIN
 90
        0
 91
        1
 62
     0
 92
       -2
340
0
 93
        0
 40
0.045
309
GRIDFORMAT_END
 95
        2
302
GRIDFORMAT
  1
GRIDFORMAT_BEGIN
 90
        0
 91
        1
 62
     0
 92
       -2
340
0
 93
        0
 40
0.045
309
GRIDFORMAT_END
 95
        4
302
GRIDFORMAT
  1
GRIDFORMAT_BEGIN
 90
        0
 91
        1
 62
     0
 92
       -2
340
0
 93
        0
 40
0.045
309
GRIDFORMAT_END
 95
        8
302
GRIDFORMAT
  1
GRIDFORMAT_BEGIN
 90
        0
 91
        1
 62
     0
 92
       -2
340
0
 93
        0
 40
0.045
309
GRIDFORMAT_END
 95
       16
302
GRIDFORMAT
  1
GRIDFORMAT_BEGIN
 90
        0
 91
        1
 62
     0
 92
       -2
340
0
 93
        0
 40
0.045
309
GRIDFORMAT_END
 95
       32
302
GRIDFORMAT
  1
GRIDFORMAT_BEGIN
 90
        0
 91
        1
 62
     0
 92
       -2
340
0
 93
        0
 40
0.045
309
GRIDFORMAT_END
309
TABLEFORMAT_END
  1
CELLSTYLE_BEGIN
 90
        3
 91
        2
300
_DATA
309
CELLSTYLE_END
  0
XRECORD
  5
97E
102
{ACAD_REACTORS
330
82B
102
}
330
82B
100
AcDbXrecord
280
     1
102
ACAD_ROUNDTRIP_PRE2007_TABLESTYLE
 90
      512
 91
        0
  1

 92
      512
 93
        0
  2

 94
      512
 95
        0
  3

  0
XRECORD
  5
959
102
{ACAD_REACTORS
330
958
102
}
330
958
100
AcDbXrecord
280
     1
102
RTVSPropertyOp0
 70
     1
102
RTVSPropertyOp1
 70
     1
102
RTVSPropertyOp2
 70
     1
102
RTVSPropertyOp3
 70
     1
102
RTVSPropertyOp4
 70
     1
102
RTVSPropertyOp5
 70
     1
102
RTVSPropertyOp6
 70
     1
102
RTVSPropertyOp7
 70
     1
102
RTVSPropertyOp8
 70
     1
102
RTVSPropertyOp9
 70
     1
102
RTVSPropertyOp10
 70
     1
102
RTVSPropertyOp11
 70
     1
102
RTVSPropertyOp12
 70
     1
102
RTVSPropertyOp13
 70
     1
102
RTVSPropertyOp14
 70
     1
102
RTVSPropertyOp15
 70
     1
102
RTVSPropertyOp16
 70
     1
102
RTVSPropertyOp17
 70
     1
102
RTVSPropertyOp18
 70
     1
102
RTVSPropertyOp19
 70
     1
102
RTVSPropertyOp20
 70
     1
102
RTVSPropertyOp21
 70
     1
102
RTVSPropertyOp22
 70
     1
102
RTVSPropertyOp23
 70
     1
102
RTVSPropertyOp24
 70
     1
102
RTVSPropertyOp25
 70
     1
102
RTVSPropertyOp26
 70
     1
102
RTVSPropertyOp27
 70
     1
102
RTVSPropertyOp28
 70
     1
102
RTVSPropertyOp29
 70
     1
102
RTVSPropertyOp30
 70
     1
102
RTVSPropertyOp31
 70
     1
102
RTVSPropertyOp32
 70
     1
  0
XRECORD
  5
957
102
{ACAD_REACTORS
330
956
102
}
330
956
100
AcDbXrecord
280
     1
102
RTVSPropertyOp0
 70
     1
102
RTVSPropertyOp1
 70
     1
102
RTVSPropertyOp2
 70
     1
102
RTVSPropertyOp3
 70
     1
102
RTVSPropertyOp4
 70
     1
102
RTVSPropertyOp5
 70
     1
102
RTVSPropertyOp6
 70
     1
102
RTVSPropertyOp7
 70
     1
102
RTVSPropertyOp8
 70
     1
102
RTVSPropertyOp9
 70
     1
102
RTVSPropertyOp10
 70
     1
102
RTVSPropertyOp11
 70
     1
102
RTVSPropertyOp12
 70
     1
102
RTVSPropertyOp13
 70
     1
102
RTVSPropertyOp14
 70
     1
102
RTVSPropertyOp15
 70
     1
102
RTVSPropertyOp16
 70
     1
102
RTVSPropertyOp17
 70
     1
102
RTVSPropertyOp18
 70
     1
102
RTVSPropertyOp19
 70
     1
102
RTVSPropertyOp20
 70
     1
102
RTVSPropertyOp21
 70
     1
102
RTVSPropertyOp22
 70
     1
102
RTVSPropertyOp23
 70
     1
102
RTVSPropertyOp24
 70
     1
102
RTVSPropertyOp25
 70
     1
102
RTVSPropertyOp26
 70
     1
102
RTVSPropertyOp27
 70
     1
102
RTVSPropertyOp28
 70
     1
102
RTVSPropertyOp29
 70
     1
102
RTVSPropertyOp30
 70
     1
102
RTVSPropertyOp31
 70
     1
102
RTVSPropertyOp32
 70
     1
  0
XRECORD
  5
965
102
{ACAD_REACTORS
330
964
102
}
330
964
100
AcDbXrecord
280
     1
102
RTVSPropertyOp0
 70
     1
102
RTVSPropertyOp1
 70
     1
102
RTVSPropertyOp2
 70
     1
102
RTVSPropertyOp3
 70
     1
102
RTVSPropertyOp4
 70
     1
102
RTVSPropertyOp5
 70
     1
102
RTVSPropertyOp6
 70
     1
102
RTVSPropertyOp7
 70
     1
102
RTVSPropertyOp8
 70
     1
102
RTVSPropertyOp9
 70
     1
102
RTVSPropertyOp10
 70
     1
102
RTVSPropertyOp11
 70
     1
102
RTVSPropertyOp12
 70
     1
102
RTVSPropertyOp13
 70
     1
102
RTVSPropertyOp14
 70
     1
102
RTVSPropertyOp15
 70
     1
102
RTVSPropertyOp16
 70
     1
102
RTVSPropertyOp17
 70
     1
102
RTVSPropertyOp18
 70
     1
102
RTVSPropertyOp19
 70
     1
102
RTVSPropertyOp20
 70
     1
102
RTVSPropertyOp21
 70
     1
102
RTVSPropertyOp22
 70
     1
102
RTVSPropertyOp23
 70
     1
102
RTVSPropertyOp24
 70
     1
102
RTVSPropertyOp25
 70
     1
102
RTVSPropertyOp26
 70
     1
102
RTVSPropertyOp27
 70
     1
102
RTVSPropertyOp28
 70
     1
102
RTVSPropertyOp29
 70
     1
102
RTVSPropertyOp30
 70
     1
102
RTVSPropertyOp31
 70
     1
102
RTVSPropertyOp32
 70
     1
  0
XRECORD
  5
96D
102
{ACAD_REACTORS
330
96C
102
}
330
96C
100
AcDbXrecord
280
     1
102
RTVSPropertyOp0
 70
     1
102
RTVSPropertyOp1
 70
     1
102
RTVSPropertyOp2
 70
     1
102
RTVSPropertyOp3
 70
     1
102
RTVSPropertyOp4
 70
     1
102
RTVSPropertyOp5
 70
     1
102
RTVSPropertyOp6
 70
     1
102
RTVSPropertyOp7
 70
     1
102
RTVSPropertyOp8
 70
     1
102
RTVSPropertyOp9
 70
     1
102
RTVSPropertyOp10
 70
     1
102
RTVSPropertyOp11
 70
     1
102
RTVSPropertyOp12
 70
     1
102
RTVSPropertyOp13
 70
     1
102
RTVSPropertyOp14
 70
     1
102
RTVSPropertyOp15
 70
     1
102
RTVSPropertyOp16
 70
     1
102
RTVSPropertyOp17
 70
     1
102
RTVSPropertyOp18
 70
     1
102
RTVSPropertyOp19
 70
     1
102
RTVSPropertyOp20
 70
     1
102
RTVSPropertyOp21
 70
     1
102
RTVSPropertyOp22
 70
     1
102
RTVSPropertyOp23
 70
     1
102
RTVSPropertyOp24
 70
     1
102
RTVSPropertyOp25
 70
     1
102
RTVSPropertyOp26
 70
     1
102
RTVSPropertyOp27
 70
     1
102
RTVSPropertyOp28
 70
     1
102
RTVSPropertyOp29
 70
     1
102
RTVSPropertyOp30
 70
     1
102
RTVSPropertyOp31
 70
     1
102
RTVSPropertyOp32
 70
     1
  0
XRECORD
  5
95F
102
{ACAD_REACTORS
330
95E
102
}
330
95E
100
AcDbXrecord
280
     1
102
RTVSPropertyOp0
 70
     1
102
RTVSPropertyOp1
 70
     1
102
RTVSPropertyOp2
 70
     1
102
RTVSPropertyOp3
 70
     1
102
RTVSPropertyOp4
 70
     1
102
RTVSPropertyOp5
 70
     1
102
RTVSPropertyOp6
 70
     1
102
RTVSPropertyOp7
 70
     1
102
RTVSPropertyOp8
 70
     1
102
RTVSPropertyOp9
 70
     1
102
RTVSPropertyOp10
 70
     1
102
RTVSPropertyOp11
 70
     1
102
RTVSPropertyOp12
 70
     1
102
RTVSPropertyOp13
 70
     1
102
RTVSPropertyOp14
 70
     1
102
RTVSPropertyOp15
 70
     1
102
RTVSPropertyOp16
 70
     1
102
RTVSPropertyOp17
 70
     1
102
RTVSPropertyOp18
 70
     1
102
RTVSPropertyOp19
 70
     1
102
RTVSPropertyOp20
 70
     1
102
RTVSPropertyOp21
 70
     1
102
RTVSPropertyOp22
 70
     1
102
RTVSPropertyOp23
 70
     1
102
RTVSPropertyOp24
 70
     1
102
RTVSPropertyOp25
 70
     1
102
RTVSPropertyOp26
 70
     1
102
RTVSPropertyOp27
 70
     1
102
RTVSPropertyOp28
 70
     1
102
RTVSPropertyOp29
 70
     1
102
RTVSPropertyOp30
 70
     1
102
RTVSPropertyOp31
 70
     1
102
RTVSPropertyOp32
 70
     1
  0
XRECORD
  5
963
102
{ACAD_REACTORS
330
962
102
}
330
962
100
AcDbXrecord
280
     1
102
RTVSPropertyOp0
 70
     1
102
RTVSPropertyOp1
 70
     1
102
RTVSPropertyOp2
 70
     1
102
RTVSPropertyOp3
 70
     1
102
RTVSPropertyOp4
 70
     1
102
RTVSPropertyOp5
 70
     1
102
RTVSPropertyOp6
 70
     1
102
RTVSPropertyOp7
 70
     1
102
RTVSPropertyOp8
 70
     1
102
RTVSPropertyOp9
 70
     1
102
RTVSPropertyOp10
 70
     1
102
RTVSPropertyOp11
 70
     1
102
RTVSPropertyOp12
 70
     1
102
RTVSPropertyOp13
 70
     1
102
RTVSPropertyOp14
 70
     1
102
RTVSPropertyOp15
 70
     1
102
RTVSPropertyOp16
 70
     1
102
RTVSPropertyOp17
 70
     1
102
RTVSPropertyOp18
 70
     1
102
RTVSPropertyOp19
 70
     1
102
RTVSPropertyOp20
 70
     1
102
RTVSPropertyOp21
 70
     1
102
RTVSPropertyOp22
 70
     1
102
RTVSPropertyOp23
 70
     1
102
RTVSPropertyOp24
 70
     1
102
RTVSPropertyOp25
 70
     1
102
RTVSPropertyOp26
 70
     1
102
RTVSPropertyOp27
 70
     1
102
RTVSPropertyOp28
 70
     1
102
RTVSPropertyOp29
 70
     1
102
RTVSPropertyOp30
 70
     1
102
RTVSPropertyOp31
 70
     1
102
RTVSPropertyOp32
 70
     1
  0
XRECORD
  5
97D
102
{ACAD_REACTORS
330
97C
102
}
330
97C
100
AcDbXrecord
280
     1
102
RTVSPropertyOp0
 70
     0
102
RTVSPropertyOp1
 70
     0
102
RTVSPropertyOp2
 70
     0
102
RTVSPropertyOp3
 70
     0
102
RTVSPropertyOp4
 70
     0
102
RTVSPropertyOp5
 70
     0
102
RTVSPropertyOp6
 70
     0
102
RTVSPropertyOp7
 70
     0
102
RTVSPropertyOp8
 70
     0
102
RTVSPropertyOp9
 70
     0
102
RTVSPropertyOp10
 70
     0
102
RTVSPropertyOp11
 70
     0
102
RTVSPropertyOp12
 70
     0
102
RTVSPropertyOp13
 70
     0
102
RTVSPropertyOp14
 70
     2
102
RTVSPropertyOp15
 70
     0
102
RTVSPropertyOp16
 70
     0
102
RTVSPropertyOp17
 70
     0
102
RTVSPropertyOp18
 70
     0
102
RTVSPropertyOp19
 70
     0
102
RTVSPropertyOp20
 70
     0
102
RTVSPropertyOp21
 70
     0
102
RTVSPropertyOp22
 70
     0
102
RTVSPropertyOp23
 70
     0
102
RTVSPropertyOp24
 70
     0
102
RTVSPropertyOp25
 70
     0
102
RTVSPropertyOp26
 70
     0
102
RTVSPropertyOp27
 70
     0
102
RTVSPropertyOp28
 70
     0
102
RTVSPropertyOp29
 70
     0
102
RTVSPropertyOp30
 70
     0
102
RTVSPropertyOp31
 70
     0
102
RTVSPropertyOp32
 70
     0
  0
XRECORD
  5
96B
102
{ACAD_REACTORS
330
96A
102
}
330
96A
100
AcDbXrecord
280
     1
102
RTVSPropertyOp0
 70
     1
102
RTVSPropertyOp1
 70
     1
102
RTVSPropertyOp2
 70
     1
102
RTVSPropertyOp3
 70
     1
102
RTVSPropertyOp4
 70
     1
102
RTVSPropertyOp5
 70
     1
102
RTVSPropertyOp6
 70
     1
102
RTVSPropertyOp7
 70
     1
102
RTVSPropertyOp8
 70
     1
102
RTVSPropertyOp9
 70
     1
102
RTVSPropertyOp10
 70
     1
102
RTVSPropertyOp11
 70
     1
102
RTVSPropertyOp12
 70
     1
102
RTVSPropertyOp13
 70
     1
102
RTVSPropertyOp14
 70
     1
102
RTVSPropertyOp15
 70
     1
102
RTVSPropertyOp16
 70
     1
102
RTVSPropertyOp17
 70
     1
102
RTVSPropertyOp18
 70
     1
102
RTVSPropertyOp19
 70
     1
102
RTVSPropertyOp20
 70
     1
102
RTVSPropertyOp21
 70
     1
102
RTVSPropertyOp22
 70
     1
102
RTVSPropertyOp23
 70
     1
102
RTVSPropertyOp24
 70
     1
102
RTVSPropertyOp25
 70
     1
102
RTVSPropertyOp26
 70
     1
102
RTVSPropertyOp27
 70
     1
102
RTVSPropertyOp28
 70
     1
102
RTVSPropertyOp29
 70
     1
102
RTVSPropertyOp30
 70
     1
102
RTVSPropertyOp31
 70
     1
102
RTVSPropertyOp32
 70
     1
  0
XRECORD
  5
94F
102
{ACAD_REACTORS
330
94E
102
}
330
94E
100
AcDbXrecord
280
     1
102
RTVSPropertyOp0
 70
     1
102
RTVSPropertyOp1
 70
     1
102
RTVSPropertyOp2
 70
     1
102
RTVSPropertyOp3
 70
     1
102
RTVSPropertyOp4
 70
     1
102
RTVSPropertyOp5
 70
     1
102
RTVSPropertyOp6
 70
     1
102
RTVSPropertyOp7
 70
     1
102
RTVSPropertyOp8
 70
     1
102
RTVSPropertyOp9
 70
     1
102
RTVSPropertyOp10
 70
     1
102
RTVSPropertyOp11
 70
     1
102
RTVSPropertyOp12
 70
     1
102
RTVSPropertyOp13
 70
     1
102
RTVSPropertyOp14
 70
     1
102
RTVSPropertyOp15
 70
     1
102
RTVSPropertyOp16
 70
     1
102
RTVSPropertyOp17
 70
     1
102
RTVSPropertyOp18
 70
     1
102
RTVSPropertyOp19
 70
     1
102
RTVSPropertyOp20
 70
     1
102
RTVSPropertyOp21
 70
     1
102
RTVSPropertyOp22
 70
     1
102
RTVSPropertyOp23
 70
     1
102
RTVSPropertyOp24
 70
     1
102
RTVSPropertyOp25
 70
     1
102
RTVSPropertyOp26
 70
     1
102
RTVSPropertyOp27
 70
     1
102
RTVSPropertyOp28
 70
     1
102
RTVSPropertyOp29
 70
     1
102
RTVSPropertyOp30
 70
     1
102
RTVSPropertyOp31
 70
     1
102
RTVSPropertyOp32
 70
     1
  0
XRECORD
  5
951
102
{ACAD_REACTORS
330
950
102
}
330
950
100
AcDbXrecord
280
     1
102
RTVSPropertyOp0
 70
     1
102
RTVSPropertyOp1
 70
     1
102
RTVSPropertyOp2
 70
     1
102
RTVSPropertyOp3
 70
     1
102
RTVSPropertyOp4
 70
     1
102
RTVSPropertyOp5
 70
     1
102
RTVSPropertyOp6
 70
     1
102
RTVSPropertyOp7
 70
     1
102
RTVSPropertyOp8
 70
     1
102
RTVSPropertyOp9
 70
     1
102
RTVSPropertyOp10
 70
     1
102
RTVSPropertyOp11
 70
     1
102
RTVSPropertyOp12
 70
     1
102
RTVSPropertyOp13
 70
     1
102
RTVSPropertyOp14
 70
     1
102
RTVSPropertyOp15
 70
     1
102
RTVSPropertyOp16
 70
     1
102
RTVSPropertyOp17
 70
     1
102
RTVSPropertyOp18
 70
     1
102
RTVSPropertyOp19
 70
     1
102
RTVSPropertyOp20
 70
     1
102
RTVSPropertyOp21
 70
     1
102
RTVSPropertyOp22
 70
     1
102
RTVSPropertyOp23
 70
     1
102
RTVSPropertyOp24
 70
     1
102
RTVSPropertyOp25
 70
     1
102
RTVSPropertyOp26
 70
     1
102
RTVSPropertyOp27
 70
     1
102
RTVSPropertyOp28
 70
     1
102
RTVSPropertyOp29
 70
     1
102
RTVSPropertyOp30
 70
     1
102
RTVSPropertyOp31
 70
     1
102
RTVSPropertyOp32
 70
     1
  0
XRECORD
  5
953
102
{ACAD_REACTORS
330
952
102
}
330
952
100
AcDbXrecord
280
     1
102
RTVSPropertyOp0
 70
     1
102
RTVSPropertyOp1
 70
     1
102
RTVSPropertyOp2
 70
     1
102
RTVSPropertyOp3
 70
     1
102
RTVSPropertyOp4
 70
     1
102
RTVSPropertyOp5
 70
     1
102
RTVSPropertyOp6
 70
     1
102
RTVSPropertyOp7
 70
     1
102
RTVSPropertyOp8
 70
     1
102
RTVSPropertyOp9
 70
     1
102
RTVSPropertyOp10
 70
     1
102
RTVSPropertyOp11
 70
     1
102
RTVSPropertyOp12
 70
     1
102
RTVSPropertyOp13
 70
     1
102
RTVSPropertyOp14
 70
     1
102
RTVSPropertyOp15
 70
     1
102
RTVSPropertyOp16
 70
     1
102
RTVSPropertyOp17
 70
     1
102
RTVSPropertyOp18
 70
     1
102
RTVSPropertyOp19
 70
     1
102
RTVSPropertyOp20
 70
     1
102
RTVSPropertyOp21
 70
     1
102
RTVSPropertyOp22
 70
     1
102
RTVSPropertyOp23
 70
     1
102
RTVSPropertyOp24
 70
     1
102
RTVSPropertyOp25
 70
     1
102
RTVSPropertyOp26
 70
     1
102
RTVSPropertyOp27
 70
     1
102
RTVSPropertyOp28
 70
     1
102
RTVSPropertyOp29
 70
     1
102
RTVSPropertyOp30
 70
     1
102
RTVSPropertyOp31
 70
     1
102
RTVSPropertyOp32
 70
     1
  0
XRECORD
  5
955
102
{ACAD_REACTORS
330
954
102
}
330
954
100
AcDbXrecord
280
     1
102
RTVSPropertyOp0
 70
     1
102
RTVSPropertyOp1
 70
     1
102
RTVSPropertyOp2
 70
     1
102
RTVSPropertyOp3
 70
     1
102
RTVSPropertyOp4
 70
     1
102
RTVSPropertyOp5
 70
     1
102
RTVSPropertyOp6
 70
     1
102
RTVSPropertyOp7
 70
     1
102
RTVSPropertyOp8
 70
     1
102
RTVSPropertyOp9
 70
     1
102
RTVSPropertyOp10
 70
     1
102
RTVSPropertyOp11
 70
     1
102
RTVSPropertyOp12
 70
     1
102
RTVSPropertyOp13
 70
     1
102
RTVSPropertyOp14
 70
     1
102
RTVSPropertyOp15
 70
     1
102
RTVSPropertyOp16
 70
     1
102
RTVSPropertyOp17
 70
     1
102
RTVSPropertyOp18
 70
     1
102
RTVSPropertyOp19
 70
     1
102
RTVSPropertyOp20
 70
     1
102
RTVSPropertyOp21
 70
     1
102
RTVSPropertyOp22
 70
     1
102
RTVSPropertyOp23
 70
     1
102
RTVSPropertyOp24
 70
     1
102
RTVSPropertyOp25
 70
     1
102
RTVSPropertyOp26
 70
     1
102
RTVSPropertyOp27
 70
     1
102
RTVSPropertyOp28
 70
     1
102
RTVSPropertyOp29
 70
     1
102
RTVSPropertyOp30
 70
     1
102
RTVSPropertyOp31
 70
     1
102
RTVSPropertyOp32
 70
     1
  0
XRECORD
  5
95D
102
{ACAD_REACTORS
330
95C
102
}
330
95C
100
AcDbXrecord
280
     1
102
RTVSPropertyOp0
 70
     1
102
RTVSPropertyOp1
 70
     1
102
RTVSPropertyOp2
 70
     1
102
RTVSPropertyOp3
 70
     1
102
RTVSPropertyOp4
 70
     1
102
RTVSPropertyOp5
 70
     1
102
RTVSPropertyOp6
 70
     1
102
RTVSPropertyOp7
 70
     1
102
RTVSPropertyOp8
 70
     1
102
RTVSPropertyOp9
 70
     1
102
RTVSPropertyOp10
 70
     1
102
RTVSPropertyOp11
 70
     1
102
RTVSPropertyOp12
 70
     1
102
RTVSPropertyOp13
 70
     1
102
RTVSPropertyOp14
 70
     1
102
RTVSPropertyOp15
 70
     1
102
RTVSPropertyOp16
 70
     1
102
RTVSPropertyOp17
 70
     1
102
RTVSPropertyOp18
 70
     1
102
RTVSPropertyOp19
 70
     1
102
RTVSPropertyOp20
 70
     1
102
RTVSPropertyOp21
 70
     1
102
RTVSPropertyOp22
 70
     1
102
RTVSPropertyOp23
 70
     1
102
RTVSPropertyOp24
 70
     1
102
RTVSPropertyOp25
 70
     1
102
RTVSPropertyOp26
 70
     1
102
RTVSPropertyOp27
 70
     1
102
RTVSPropertyOp28
 70
     1
102
RTVSPropertyOp29
 70
     1
102
RTVSPropertyOp30
 70
     1
102
RTVSPropertyOp31
 70
     1
102
RTVSPropertyOp32
 70
     1
  0
XRECORD
  5
979
102
{ACAD_REACTORS
330
978
102
}
330
978
100
AcDbXrecord
280
     1
102
RTVSPropertyOp0
 70
     0
102
RTVSPropertyOp1
 70
     0
102
RTVSPropertyOp2
 70
     0
102
RTVSPropertyOp3
 70
     0
102
RTVSPropertyOp4
 70
     0
102
RTVSPropertyOp5
 70
     0
102
RTVSPropertyOp6
 70
     0
102
RTVSPropertyOp7
 70
     0
102
RTVSPropertyOp8
 70
     0
102
RTVSPropertyOp9
 70
     0
102
RTVSPropertyOp10
 70
     0
102
RTVSPropertyOp11
 70
     0
102
RTVSPropertyOp12
 70
     0
102
RTVSPropertyOp13
 70
     0
102
RTVSPropertyOp14
 70
     2
102
RTVSPropertyOp15
 70
     0
102
RTVSPropertyOp16
 70
     0
102
RTVSPropertyOp17
 70
     0
102
RTVSPropertyOp18
 70
     0
102
RTVSPropertyOp19
 70
     0
102
RTVSPropertyOp20
 70
     0
102
RTVSPropertyOp21
 70
     0
102
RTVSPropertyOp22
 70
     0
102
RTVSPropertyOp23
 70
     0
102
RTVSPropertyOp24
 70
     0
102
RTVSPropertyOp25
 70
     0
102
RTVSPropertyOp26
 70
     0
102
RTVSPropertyOp27
 70
     0
102
RTVSPropertyOp28
 70
     0
102
RTVSPropertyOp29
 70
     0
102
RTVSPropertyOp30
 70
     0
102
RTVSPropertyOp31
 70
     0
102
RTVSPropertyOp32
 70
     0
  0
XRECORD
  5
969
102
{ACAD_REACTORS
330
968
102
}
330
968
100
AcDbXrecord
280
     1
102
RTVSPropertyOp0
 70
     1
102
RTVSPropertyOp1
 70
     1
102
RTVSPropertyOp2
 70
     1
102
RTVSPropertyOp3
 70
     1
102
RTVSPropertyOp4
 70
     1
102
RTVSPropertyOp5
 70
     1
102
RTVSPropertyOp6
 70
     1
102
RTVSPropertyOp7
 70
     1
102
RTVSPropertyOp8
 70
     1
102
RTVSPropertyOp9
 70
     1
102
RTVSPropertyOp10
 70
     1
102
RTVSPropertyOp11
 70
     1
102
RTVSPropertyOp12
 70
     1
102
RTVSPropertyOp13
 70
     1
102
RTVSPropertyOp14
 70
     1
102
RTVSPropertyOp15
 70
     1
102
RTVSPropertyOp16
 70
     1
102
RTVSPropertyOp17
 70
     1
102
RTVSPropertyOp18
 70
     1
102
RTVSPropertyOp19
 70
     1
102
RTVSPropertyOp20
 70
     1
102
RTVSPropertyOp21
 70
     1
102
RTVSPropertyOp22
 70
     1
102
RTVSPropertyOp23
 70
     1
102
RTVSPropertyOp24
 70
     1
102
RTVSPropertyOp25
 70
     1
102
RTVSPropertyOp26
 70
     1
102
RTVSPropertyOp27
 70
     1
102
RTVSPropertyOp28
 70
     1
102
RTVSPropertyOp29
 70
     1
102
RTVSPropertyOp30
 70
     1
102
RTVSPropertyOp31
 70
     1
102
RTVSPropertyOp32
 70
     1
  0
XRECORD
  5
97B
102
{ACAD_REACTORS
330
97A
102
}
330
97A
100
AcDbXrecord
280
     1
102
RTVSPropertyOp0
 70
     0
102
RTVSPropertyOp1
 70
     0
102
RTVSPropertyOp2
 70
     0
102
RTVSPropertyOp3
 70
     0
102
RTVSPropertyOp4
 70
     0
102
RTVSPropertyOp5
 70
     0
102
RTVSPropertyOp6
 70
     0
102
RTVSPropertyOp7
 70
     0
102
RTVSPropertyOp8
 70
     0
102
RTVSPropertyOp9
 70
     0
102
RTVSPropertyOp10
 70
     0
102
RTVSPropertyOp11
 70
     0
102
RTVSPropertyOp12
 70
     0
102
RTVSPropertyOp13
 70
     0
102
RTVSPropertyOp14
 70
     2
102
RTVSPropertyOp15
 70
     0
102
RTVSPropertyOp16
 70
     0
102
RTVSPropertyOp17
 70
     0
102
RTVSPropertyOp18
 70
     0
102
RTVSPropertyOp19
 70
     0
102
RTVSPropertyOp20
 70
     0
102
RTVSPropertyOp21
 70
     0
102
RTVSPropertyOp22
 70
     0
102
RTVSPropertyOp23
 70
     0
102
RTVSPropertyOp24
 70
     0
102
RTVSPropertyOp25
 70
     0
102
RTVSPropertyOp26
 70
     0
102
RTVSPropertyOp27
 70
     0
102
RTVSPropertyOp28
 70
     0
102
RTVSPropertyOp29
 70
     0
102
RTVSPropertyOp30
 70
     0
102
RTVSPropertyOp31
 70
     0
102
RTVSPropertyOp32
 70
     0
  0
XRECORD
  5
961
102
{ACAD_REACTORS
330
960
102
}
330
960
100
AcDbXrecord
280
     1
102
RTVSPropertyOp0
 70
     1
102
RTVSPropertyOp1
 70
     1
102
RTVSPropertyOp2
 70
     1
102
RTVSPropertyOp3
 70
     1
102
RTVSPropertyOp4
 70
     1
102
RTVSPropertyOp5
 70
     1
102
RTVSPropertyOp6
 70
     1
102
RTVSPropertyOp7
 70
     1
102
RTVSPropertyOp8
 70
     1
102
RTVSPropertyOp9
 70
     1
102
RTVSPropertyOp10
 70
     1
102
RTVSPropertyOp11
 70
     1
102
RTVSPropertyOp12
 70
     1
102
RTVSPropertyOp13
 70
     1
102
RTVSPropertyOp14
 70
     1
102
RTVSPropertyOp15
 70
     1
102
RTVSPropertyOp16
 70
     1
102
RTVSPropertyOp17
 70
     1
102
RTVSPropertyOp18
 70
     1
102
RTVSPropertyOp19
 70
     1
102
RTVSPropertyOp20
 70
     1
102
RTVSPropertyOp21
 70
     1
102
RTVSPropertyOp22
 70
     1
102
RTVSPropertyOp23
 70
     1
102
RTVSPropertyOp24
 70
     1
102
RTVSPropertyOp25
 70
     1
102
RTVSPropertyOp26
 70
     1
102
RTVSPropertyOp27
 70
     1
102
RTVSPropertyOp28
 70
     1
102
RTVSPropertyOp29
 70
     1
102
RTVSPropertyOp30
 70
     1
102
RTVSPropertyOp31
 70
     1
102
RTVSPropertyOp32
 70
     1
  0
XRECORD
  5
977
102
{ACAD_REACTORS
330
976
102
}
330
976
100
AcDbXrecord
280
     1
102
RTVSPropertyOp0
 70
     1
102
RTVSPropertyOp1
 70
     1
102
RTVSPropertyOp2
 70
     1
102
RTVSPropertyOp3
 70
     1
102
RTVSPropertyOp4
 70
     1
102
RTVSPropertyOp5
 70
     1
102
RTVSPropertyOp6
 70
     1
102
RTVSPropertyOp7
 70
     1
102
RTVSPropertyOp8
 70
     1
102
RTVSPropertyOp9
 70
     1
102
RTVSPropertyOp10
 70
     1
102
RTVSPropertyOp11
 70
     1
102
RTVSPropertyOp12
 70
     1
102
RTVSPropertyOp13
 70
     1
102
RTVSPropertyOp14
 70
     1
102
RTVSPropertyOp15
 70
     1
102
RTVSPropertyOp16
 70
     1
102
RTVSPropertyOp17
 70
     1
102
RTVSPropertyOp18
 70
     1
102
RTVSPropertyOp19
 70
     1
102
RTVSPropertyOp20
 70
     1
102
RTVSPropertyOp21
 70
     1
102
RTVSPropertyOp22
 70
     1
102
RTVSPropertyOp23
 70
     1
102
RTVSPropertyOp24
 70
     1
102
RTVSPropertyOp25
 70
     1
102
RTVSPropertyOp26
 70
     1
102
RTVSPropertyOp27
 70
     1
102
RTVSPropertyOp28
 70
     1
102
RTVSPropertyOp29
 70
     1
102
RTVSPropertyOp30
 70
     1
102
RTVSPropertyOp31
 70
     1
102
RTVSPropertyOp32
 70
     1
  0
XRECORD
  5
975
102
{ACAD_REACTORS
330
974
102
}
330
974
100
AcDbXrecord
280
     1
102
RTVSPropertyOp0
 70
     1
102
RTVSPropertyOp1
 70
     1
102
RTVSPropertyOp2
 70
     1
102
RTVSPropertyOp3
 70
     1
102
RTVSPropertyOp4
 70
     1
102
RTVSPropertyOp5
 70
     1
102
RTVSPropertyOp6
 70
     1
102
RTVSPropertyOp7
 70
     1
102
RTVSPropertyOp8
 70
     1
102
RTVSPropertyOp9
 70
     1
102
RTVSPropertyOp10
 70
     1
102
RTVSPropertyOp11
 70
     1
102
RTVSPropertyOp12
 70
     1
102
RTVSPropertyOp13
 70
     1
102
RTVSPropertyOp14
 70
     1
102
RTVSPropertyOp15
 70
     1
102
RTVSPropertyOp16
 70
     1
102
RTVSPropertyOp17
 70
     1
102
RTVSPropertyOp18
 70
     1
102
RTVSPropertyOp19
 70
     1
102
RTVSPropertyOp20
 70
     1
102
RTVSPropertyOp21
 70
     1
102
RTVSPropertyOp22
 70
     1
102
RTVSPropertyOp23
 70
     1
102
RTVSPropertyOp24
 70
     1
102
RTVSPropertyOp25
 70
     1
102
RTVSPropertyOp26
 70
     1
102
RTVSPropertyOp27
 70
     1
102
RTVSPropertyOp28
 70
     1
102
RTVSPropertyOp29
 70
     1
102
RTVSPropertyOp30
 70
     1
102
RTVSPropertyOp31
 70
     1
102
RTVSPropertyOp32
 70
     1
  0
XRECORD
  5
96F
102
{ACAD_REACTORS
330
96E
102
}
330
96E
100
AcDbXrecord
280
     1
102
RTVSPropertyOp0
 70
     1
102
RTVSPropertyOp1
 70
     1
102
RTVSPropertyOp2
 70
     1
102
RTVSPropertyOp3
 70
     1
102
RTVSPropertyOp4
 70
     1
102
RTVSPropertyOp5
 70
     1
102
RTVSPropertyOp6
 70
     1
102
RTVSPropertyOp7
 70
     1
102
RTVSPropertyOp8
 70
     1
102
RTVSPropertyOp9
 70
     1
102
RTVSPropertyOp10
 70
     1
102
RTVSPropertyOp11
 70
     1
102
RTVSPropertyOp12
 70
     1
102
RTVSPropertyOp13
 70
     1
102
RTVSPropertyOp14
 70
     1
102
RTVSPropertyOp15
 70
     1
102
RTVSPropertyOp16
 70
     1
102
RTVSPropertyOp17
 70
     1
102
RTVSPropertyOp18
 70
     1
102
RTVSPropertyOp19
 70
     1
102
RTVSPropertyOp20
 70
     1
102
RTVSPropertyOp21
 70
     1
102
RTVSPropertyOp22
 70
     1
102
RTVSPropertyOp23
 70
     1
102
RTVSPropertyOp24
 70
     1
102
RTVSPropertyOp25
 70
     1
102
RTVSPropertyOp26
 70
     1
102
RTVSPropertyOp27
 70
     1
102
RTVSPropertyOp28
 70
     1
102
RTVSPropertyOp29
 70
     1
102
RTVSPropertyOp30
 70
     1
102
RTVSPropertyOp31
 70
     1
102
RTVSPropertyOp32
 70
     1
  0
XRECORD
  5
971
102
{ACAD_REACTORS
330
970
102
}
330
970
100
AcDbXrecord
280
     1
102
RTVSPropertyOp0
 70
     1
102
RTVSPropertyOp1
 70
     1
102
RTVSPropertyOp2
 70
     1
102
RTVSPropertyOp3
 70
     1
102
RTVSPropertyOp4
 70
     1
102
RTVSPropertyOp5
 70
     1
102
RTVSPropertyOp6
 70
     1
102
RTVSPropertyOp7
 70
     1
102
RTVSPropertyOp8
 70
     1
102
RTVSPropertyOp9
 70
     1
102
RTVSPropertyOp10
 70
     1
102
RTVSPropertyOp11
 70
     1
102
RTVSPropertyOp12
 70
     1
102
RTVSPropertyOp13
 70
     1
102
RTVSPropertyOp14
 70
     1
102
RTVSPropertyOp15
 70
     1
102
RTVSPropertyOp16
 70
     1
102
RTVSPropertyOp17
 70
     1
102
RTVSPropertyOp18
 70
     1
102
RTVSPropertyOp19
 70
     1
102
RTVSPropertyOp20
 70
     1
102
RTVSPropertyOp21
 70
     1
102
RTVSPropertyOp22
 70
     1
102
RTVSPropertyOp23
 70
     1
102
RTVSPropertyOp24
 70
     1
102
RTVSPropertyOp25
 70
     1
102
RTVSPropertyOp26
 70
     1
102
RTVSPropertyOp27
 70
     1
102
RTVSPropertyOp28
 70
     1
102
RTVSPropertyOp29
 70
     1
102
RTVSPropertyOp30
 70
     1
102
RTVSPropertyOp31
 70
     1
102
RTVSPropertyOp32
 70
     1
  0
XRECORD
  5
967
102
{ACAD_REACTORS
330
966
102
}
330
966
100
AcDbXrecord
280
     1
102
RTVSPropertyOp0
 70
     1
102
RTVSPropertyOp1
 70
     1
102
RTVSPropertyOp2
 70
     1
102
RTVSPropertyOp3
 70
     1
102
RTVSPropertyOp4
 70
     1
102
RTVSPropertyOp5
 70
     1
102
RTVSPropertyOp6
 70
     1
102
RTVSPropertyOp7
 70
     1
102
RTVSPropertyOp8
 70
     1
102
RTVSPropertyOp9
 70
     1
102
RTVSPropertyOp10
 70
     1
102
RTVSPropertyOp11
 70
     1
102
RTVSPropertyOp12
 70
     1
102
RTVSPropertyOp13
 70
     1
102
RTVSPropertyOp14
 70
     1
102
RTVSPropertyOp15
 70
     1
102
RTVSPropertyOp16
 70
     1
102
RTVSPropertyOp17
 70
     1
102
RTVSPropertyOp18
 70
     1
102
RTVSPropertyOp19
 70
     1
102
RTVSPropertyOp20
 70
     1
102
RTVSPropertyOp21
 70
     1
102
RTVSPropertyOp22
 70
     1
102
RTVSPropertyOp23
 70
     1
102
RTVSPropertyOp24
 70
     1
102
RTVSPropertyOp25
 70
     1
102
RTVSPropertyOp26
 70
     1
102
RTVSPropertyOp27
 70
     1
102
RTVSPropertyOp28
 70
     1
102
RTVSPropertyOp29
 70
     1
102
RTVSPropertyOp30
 70
     1
102
RTVSPropertyOp31
 70
     1
102
RTVSPropertyOp32
 70
     1
  0
XRECORD
  5
95B
102
{ACAD_REACTORS
330
95A
102
}
330
95A
100
AcDbXrecord
280
     1
102
RTVSPropertyOp0
 70
     1
102
RTVSPropertyOp1
 70
     1
102
RTVSPropertyOp2
 70
     1
102
RTVSPropertyOp3
 70
     1
102
RTVSPropertyOp4
 70
     1
102
RTVSPropertyOp5
 70
     1
102
RTVSPropertyOp6
 70
     1
102
RTVSPropertyOp7
 70
     1
102
RTVSPropertyOp8
 70
     1
102
RTVSPropertyOp9
 70
     1
102
RTVSPropertyOp10
 70
     1
102
RTVSPropertyOp11
 70
     1
102
RTVSPropertyOp12
 70
     1
102
RTVSPropertyOp13
 70
     1
102
RTVSPropertyOp14
 70
     1
102
RTVSPropertyOp15
 70
     1
102
RTVSPropertyOp16
 70
     1
102
RTVSPropertyOp17
 70
     1
102
RTVSPropertyOp18
 70
     1
102
RTVSPropertyOp19
 70
     1
102
RTVSPropertyOp20
 70
     1
102
RTVSPropertyOp21
 70
     1
102
RTVSPropertyOp22
 70
     1
102
RTVSPropertyOp23
 70
     1
102
RTVSPropertyOp24
 70
     1
102
RTVSPropertyOp25
 70
     1
102
RTVSPropertyOp26
 70
     1
102
RTVSPropertyOp27
 70
     1
102
RTVSPropertyOp28
 70
     1
102
RTVSPropertyOp29
 70
     1
102
RTVSPropertyOp30
 70
     1
102
RTVSPropertyOp31
 70
     1
102
RTVSPropertyOp32
 70
     1
  0
XRECORD
  5
973
102
{ACAD_REACTORS
330
972
102
}
330
972
100
AcDbXrecord
280
     1
102
RTVSPropertyOp0
 70
     1
102
RTVSPropertyOp1
 70
     1
102
RTVSPropertyOp2
 70
     1
102
RTVSPropertyOp3
 70
     1
102
RTVSPropertyOp4
 70
     1
102
RTVSPropertyOp5
 70
     1
102
RTVSPropertyOp6
 70
     1
102
RTVSPropertyOp7
 70
     1
102
RTVSPropertyOp8
 70
     1
102
RTVSPropertyOp9
 70
     1
102
RTVSPropertyOp10
 70
     1
102
RTVSPropertyOp11
 70
     1
102
RTVSPropertyOp12
 70
     1
102
RTVSPropertyOp13
 70
     1
102
RTVSPropertyOp14
 70
     1
102
RTVSPropertyOp15
 70
     1
102
RTVSPropertyOp16
 70
     1
102
RTVSPropertyOp17
 70
     1
102
RTVSPropertyOp18
 70
     1
102
RTVSPropertyOp19
 70
     1
102
RTVSPropertyOp20
 70
     1
102
RTVSPropertyOp21
 70
     1
102
RTVSPropertyOp22
 70
     1
102
RTVSPropertyOp23
 70
     1
102
RTVSPropertyOp24
 70
     1
102
RTVSPropertyOp25
 70
     1
102
RTVSPropertyOp26
 70
     1
102
RTVSPropertyOp27
 70
     1
102
RTVSPropertyOp28
 70
     1
102
RTVSPropertyOp29
 70
     1
102
RTVSPropertyOp30
 70
     1
102
RTVSPropertyOp31
 70
     1
102
RTVSPropertyOp32
 70
     1
  0
ENDSEC
  0
EOF
