  0
SECTION
  2
HEADER
  9
$ACADVER
  1
AC1014
  9
$HANDSEED
  5
FFFF
  9
$MEASUREMENT
 70
     1
  0
ENDSEC
  0
SECTION
  2
TABLES
  0
TABLE
  2
VPORT
  5
8
330
0
100
AcDbSymbolTable
 70
     4
  0
VPORT
  5
2E
330
8
100
AcDbSymbolTableRecord
100
AcDbViewportTableRecord
  2
*ACTIVE
 70
     0
 10
0.0
 20
0.0
 11
1.0
 21
1.0
 12
210.0
 22
148.5
 13
0.0
 23
0.0
 14
10.0
 24
10.0
 15
10.0
 25
10.0
 16
0.0
 26
0.0
 36
1.0
 17
0.0
 27
0.0
 37
0.0
 40
341.0
 41
1.24
 42
50.0
 43
0.0
 44
0.0
 50
0.0
 51
0.0
 71
     0
 72
   100
 73
     1
 74
     3
 75
     0
 76
     0
 77
     0
 78
     0
  0
ENDTAB
  0
TABLE
  2
LTYPE
  5
5
330
0
100
AcDbSymbolTable
 70
     1
  0
LTYPE
  5
14
330
5
100
AcDbSymbolTableRecord
100
AcDbLinetypeTableRecord
  2
BYBLOCK
 70
     0
  3

 72
    65
 73
     0
 40
0.0
  0
LTYPE
  5
15
330
5
100
AcDbSymbolTableRecord
100
AcDbLinetypeTableRecord
  2
BYLAYER
 70
     0
  3

 72
    65
 73
     0
 40
0.0
  0
LTYPE
  5
16
330
5
100
AcDbSymbolTableRecord
100
AcDbLinetypeTableRecord
  2
CONTINUOUS
 70
     0
  3
Solid line
 72
    65
 73
     0
 40
0.0
  0
ENDTAB
  0
TABLE
  2
LAYER
  5
2
100
AcDbSymbolTable
 70
1
  0
LAYER
  5
50
100
AcDbSymbolTableRecord
100
AcDbLayerTableRecord
  2
0
 70
0
  6
CONTINUOUS
  0
ENDTAB
  0
TABLE
  2
STYLE
  5
3
330
0
100
AcDbSymbolTable
 70
     1
  0
STYLE
  5
11
330
3
100
AcDbSymbolTableRecord
100
AcDbTextStyleTableRecord
  2
STANDARD
 70
     0
 40
0.0
 41
1.0
 50
0.0
 71
     0
 42
2.5
  3
txt
  4

  0
ENDTAB
  0
TABLE
  2
VIEW
  5
6
330
0
100
AcDbSymbolTable
 70
     0
  0
ENDTAB
  0
TABLE
  2
UCS
  5
7
330
0
100
AcDbSymbolTable
 70
     0
  0
ENDTAB
  0
TABLE
  2
APPID
  5
9
330
0
100
AcDbSymbolTable
 70
     2
  0
APPID
  5
12
330
9
100
AcDbSymbolTableRecord
100
AcDbRegAppTableRecord
  2
ACAD
 70
     0
  0
ENDTAB
  0
TABLE
  2
DIMSTYLE
  5
A
330
0
100
AcDbSymbolTable
 70
     1
  0
DIMSTYLE
105
27
330
A
100
AcDbSymbolTableRecord
100
AcDbDimStyleTableRecord
  2
ISO-25
 70
     0
  3

  4

  5

  6

  7

 40
1.0
 41
2.5
 42
0.625
 43
3.75
 44
1.25
 45
0.0
 46
0.0
 47
0.0
 48
0.0
140
2.5
141
2.5
142
0.0
143
0.03937007874016
144
1.0
145
0.0
146
1.0
147
0.625
 71
     0
 72
     0
 73
     0
 74
     0
 75
     0
 76
     0
 77
     1
 78
     8
170
     0
171
     3
172
     1
173
     0
174
     0
175
     0
176
     0
177
     0
178
     0
270
     2
271
     2
272
     2
273
     2
274
     3
340
11
275
     0
280
     0
281
     0
282
     0
283
     0
284
     8
285
     0
286
     0
287
     3
288
     0
  0
ENDTAB
  0
TABLE
  2
BLOCK_RECORD
  5
1
330
0
100
AcDbSymbolTable
 70
     1
  0
BLOCK_RECORD
  5
1F
330
1
100
AcDbSymbolTableRecord
100
AcDbBlockTableRecord
  2
*MODEL_SPACE
  0
BLOCK_RECORD
  5
1B
330
1
100
AcDbSymbolTableRecord
100
AcDbBlockTableRecord
  2
*PAPER_SPACE
  0
ENDTAB
  0
ENDSEC
  0
SECTION
  2
BLOCKS
  0
BLOCK
  5
20
330
1F
100
AcDbEntity
  8
0
100
AcDbBlockBegin
  2
*MODEL_SPACE
 70
     0
 10
0.0
 20
0.0
 30
0.0
  3
*MODEL_SPACE
  1

  0
ENDBLK
  5
21
330
1F
100
AcDbEntity
  8
0
100
AcDbBlockEnd
  0
BLOCK
  5
1C
330
1B
100
AcDbEntity
 67
     1
  8
0
100
AcDbBlockBegin
  2
*PAPER_SPACE
  1

  0
ENDBLK
  5
1D
330
1B
100
AcDbEntity
 67
     1
  8
0
100
AcDbBlockEnd
  0
ENDSEC
  0
SECTION
  2
ENTITIES
  0
SPLINE
  5
100
100
AcDbEntity
  8
0
 62
7
100
AcDbSpline
 70
8
 71
3
 72
8
 73
4
 74
0
 40
0
 40
0
 40
0
 40
0
 40
1
 40
1
 40
1
 40
1
 10
-37.846689
 20
9.129358
 30
0.0
 10
-38.247860
 20
9.131755
 30
0.0
 10
-38.684496
 20
9.106445
 30
0.0
 10
-38.940707
 20
9.061279
 30
0.0
  0
SPLINE
  5
101
100
AcDbEntity
  8
0
 62
7
100
AcDbSpline
 70
8
 71
3
 72
8
 73
4
 74
0
 40
0
 40
0
 40
0
 40
0
 40
1
 40
1
 40
1
 40
1
 10
-38.940707
 20
9.061279
 30
0.0
 10
-40.163726
 20
8.845691
 30
0.0
 10
-41.218701
 20
8.309068
 30
0.0
 10
-42.079553
 20
7.464858
 30
0.0
  0
SPLINE
  5
102
100
AcDbEntity
  8
0
 62
7
100
AcDbSpline
 70
8
 71
3
 72
8
 73
4
 74
0
 40
0
 40
0
 40
0
 40
0
 40
1
 40
1
 40
1
 40
1
 10
-42.079553
 20
7.464858
 30
0.0
 10
-42.798723
 20
6.759593
 30
0.0
 10
-43.338640
 20
5.835855
 30
0.0
 10
-43.584414
 20
4.884756
 30
0.0
  0
SPLINE
  5
103
100
AcDbEntity
  8
0
 62
7
100
AcDbSpline
 70
8
 71
3
 72
8
 73
4
 74
0
 40
0
 40
0
 40
0
 40
0
 40
1
 40
1
 40
1
 40
1
 10
-43.584414
 20
4.884756
 30
0.0
 10
-44.080862
 20
2.963731
 30
0.0
 10
-43.531968
 20
0.951865
 30
0.0
 10
-42.126507
 20
-0.456209
 30
0.0
  0
SPLINE
  5
104
100
AcDbEntity
  8
0
 62
7
100
AcDbSpline
 70
8
 71
3
 72
8
 73
4
 74
0
 40
0
 40
0
 40
0
 40
0
 40
1
 40
1
 40
1
 40
1
 10
-42.126507
 20
-0.456209
 30
0.0
 10
-41.852707
 20
-0.730514
 30
0.0
 10
-41.499808
 20
-1.022634
 30
0.0
 10
-41.227346
 20
-1.202770
 30
0.0
  0
SPLINE
  5
105
100
AcDbEntity
  8
0
 62
7
100
AcDbSpline
 70
8
 71
3
 72
8
 73
4
 74
0
 40
0
 40
0
 40
0
 40
0
 40
1
 40
1
 40
1
 40
1
 10
-41.227346
 20
-1.202770
 30
0.0
 10
-40.498802
 20
-1.684431
 30
0.0
 10
-39.597913
 20
-2.024766
 30
0.0
 10
-38.743502
 20
-2.137147
 30
0.0
  0
SPLINE
  5
106
100
AcDbEntity
  8
0
 62
7
100
AcDbSpline
 70
8
 71
3
 72
8
 73
4
 74
0
 40
0
 40
0
 40
0
 40
0
 40
1
 40
1
 40
1
 40
1
 10
-38.743502
 20
-2.137147
 30
0.0
 10
-38.383968
 20
-2.184438
 30
0.0
 10
-37.580607
 20
-2.185714
 30
0.0
 10
-37.215163
 20
-2.139498
 30
0.0
  0
SPLINE
  5
107
100
AcDbEntity
  8
0
 62
7
100
AcDbSpline
 70
8
 71
3
 72
8
 73
4
 74
0
 40
0
 40
0
 40
0
 40
0
 40
1
 40
1
 40
1
 40
1
 10
-37.215163
 20
-2.139498
 30
0.0
 10
-36.179853
 20
-2.008433
 30
0.0
 10
-35.147647
 20
-1.575303
 30
0.0
 10
-34.297000
 20
-0.918704
 30
0.0
  0
SPLINE
  5
108
100
AcDbEntity
  8
0
 62
7
100
AcDbSpline
 70
8
 71
3
 72
8
 73
4
 74
0
 40
0
 40
0
 40
0
 40
0
 40
1
 40
1
 40
1
 40
1
 10
-34.297000
 20
-0.918704
 30
0.0
 10
-34.063716
 20
-0.738583
 30
0.0
 10
-33.589181
 20
-0.276839
 30
0.0
 10
-33.411926
 20
-0.057103
 30
0.0
  0
SPLINE
  5
109
100
AcDbEntity
  8
0
 62
7
100
AcDbSpline
 70
8
 71
3
 72
8
 73
4
 74
0
 40
0
 40
0
 40
0
 40
0
 40
1
 40
1
 40
1
 40
1
 10
-33.350886
 20
0.020367
 30
0.0
 10
-33.312747
 20
0.071602
 30
0.0
 10
-33.308051
 20
0.086732
 30
0.0
 10
-33.350886
 20
0.060281
 30
0.0
  0
LWPOLYLINE
  5
10a
100
AcDbEntity
  8
0
 62
7
100
AcDbPolyline
 90
3
 70
0
 10
-33.411926
 20
-0.057103
 30
0.0
 10
-33.350886
 20
-0.057103
 30
0.0
 10
-33.350886
 20
0.020367
 30
0.0
  0
SPLINE
  5
10b
100
AcDbEntity
  8
0
 62
7
100
AcDbSpline
 70
8
 71
3
 72
8
 73
4
 74
0
 40
0
 40
0
 40
0
 40
0
 40
1
 40
1
 40
1
 40
1
 10
-32.707621
 20
3.962122
 30
0.0
 10
-32.707623
 20
4.259935
 30
0.0
 10
-32.724643
 20
4.470918
 30
0.0
 10
-32.756922
 20
4.591300
 30
0.0
  0
SPLINE
  5
10c
100
AcDbEntity
  8
0
 62
7
100
AcDbSpline
 70
8
 71
3
 72
8
 73
4
 74
0
 40
0
 40
0
 40
0
 40
0
 40
1
 40
1
 40
1
 40
1
 10
-32.756922
 20
4.591300
 30
0.0
 10
-32.780821
 20
4.680414
 30
0.0
 10
-32.815352
 20
4.756689
 30
0.0
 10
-32.862568
 20
4.821372
 30
0.0
  0
SPLINE
  5
10d
100
AcDbEntity
  8
0
 62
7
100
AcDbSpline
 70
8
 71
3
 72
8
 73
4
 74
0
 40
0
 40
0
 40
0
 40
0
 40
1
 40
1
 40
1
 40
1
 10
-32.862568
 20
4.821372
 30
0.0
 10
-32.840742
 20
4.818330
 30
0.0
 10
-32.818499
 20
4.814333
 30
0.0
 10
-32.794486
 20
4.814333
 30
0.0
  0
SPLINE
  5
10e
100
AcDbEntity
  8
0
 62
7
100
AcDbSpline
 70
8
 71
3
 72
8
 73
4
 74
0
 40
0
 40
0
 40
0
 40
0
 40
1
 40
1
 40
1
 40
1
 10
-32.794486
 20
4.814333
 30
0.0
 10
-32.707800
 20
4.814333
 30
0.0
 10
-32.636608
 20
4.833558
 30
0.0
 10
-32.580847
 20
4.873021
 30
0.0
  0
SPLINE
  5
10f
100
AcDbEntity
  8
0
 62
7
100
AcDbSpline
 70
8
 71
3
 72
8
 73
4
 74
0
 40
0
 40
0
 40
0
 40
0
 40
1
 40
1
 40
1
 40
1
 10
-32.580847
 20
4.873021
 30
0.0
 10
-32.525087
 20
4.912485
 30
0.0
 10
-32.486429
 20
4.968243
 30
0.0
 10
-32.465811
 20
5.039710
 30
0.0
  0
LWPOLYLINE
  5
110
100
AcDbEntity
  8
0
 62
7
100
AcDbPolyline
 90
13
 70
0
 10
-33.350886
 20
0.060281
 30
0.0
 10
-33.350886
 20
0.198790
 30
0.0
 10
-33.280456
 20
0.198790
 30
0.0
 10
-33.588000
 20
0.785717
 30
0.0
 10
-33.299237
 20
1.252901
 30
0.0
 10
-33.299237
 20
1.257597
 30
0.0
 10
-33.444792
 20
1.257597
 30
0.0
 10
-33.698341
 20
0.820928
 30
0.0
 10
-33.698341
 20
1.867993
 30
0.0
 10
-32.585542
 20
1.867993
 30
0.0
 10
-32.585542
 20
2.234231
 30
0.0
 10
-32.707621
 20
2.234231
 30
0.0
 10
-32.707621
 20
3.962122
 30
0.0
  0
SPLINE
  5
111
100
AcDbEntity
  8
0
 62
7
100
AcDbSpline
 70
8
 71
3
 72
8
 73
4
 74
0
 40
0
 40
0
 40
0
 40
0
 40
1
 40
1
 40
1
 40
1
 10
-32.594933
 20
5.056140
 30
0.0
 10
-32.614144
 20
5.006159
 30
0.0
 10
-32.641954
 20
4.968596
 30
0.0
 10
-32.674754
 20
4.945803
 30
0.0
  0
SPLINE
  5
112
100
AcDbEntity
  8
0
 62
7
100
AcDbSpline
 70
8
 71
3
 72
8
 73
4
 74
0
 40
0
 40
0
 40
0
 40
0
 40
1
 40
1
 40
1
 40
1
 10
-32.674754
 20
4.945803
 30
0.0
 10
-32.707554
 20
4.923002
 30
0.0
 10
-32.745749
 20
4.912928
 30
0.0
 10
-32.792138
 20
4.912928
 30
0.0
  0
SPLINE
  5
113
100
AcDbEntity
  8
0
 62
7
100
AcDbSpline
 70
8
 71
3
 72
8
 73
4
 74
0
 40
0
 40
0
 40
0
 40
0
 40
1
 40
1
 40
1
 40
1
 10
-32.792138
 20
4.912928
 30
0.0
 10
-32.854459
 20
4.912928
 30
0.0
 10
-32.907729
 20
4.933197
 30
0.0
 10
-32.949432
 20
4.973975
 30
0.0
  0
SPLINE
  5
114
100
AcDbEntity
  8
0
 62
7
100
AcDbSpline
 70
8
 71
3
 72
8
 73
4
 74
0
 40
0
 40
0
 40
0
 40
0
 40
1
 40
1
 40
1
 40
1
 10
-32.949432
 20
4.973975
 30
0.0
 10
-32.991136
 20
5.014746
 30
0.0
 10
-33.012829
 20
5.073321
 30
0.0
 10
-33.017514
 20
5.150047
 30
0.0
  0
LWPOLYLINE
  5
115
100
AcDbEntity
  8
0
 62
7
100
AcDbPolyline
 90
2
 70
0
 10
-32.465811
 20
5.039710
 30
0.0
 10
-32.594933
 20
5.056140
 30
0.0
  0
SPLINE
  5
116
100
AcDbEntity
  8
0
 62
7
100
AcDbSpline
 70
8
 71
3
 72
8
 73
4
 74
0
 40
0
 40
0
 40
0
 40
0
 40
1
 40
1
 40
1
 40
1
 10
-32.461114
 20
5.150047
 30
0.0
 10
-32.460648
 20
5.164081
 30
0.0
 10
-32.461116
 20
5.173554
 30
0.0
 10
-32.461114
 20
5.180571
 30
0.0
  0
SPLINE
  5
117
100
AcDbEntity
  8
0
 62
7
100
AcDbSpline
 70
8
 71
3
 72
8
 73
4
 74
0
 40
0
 40
0
 40
0
 40
0
 40
1
 40
1
 40
1
 40
1
 10
-32.461114
 20
5.180571
 30
0.0
 10
-32.461116
 20
5.295874
 30
0.0
 10
-32.491766
 20
5.384627
 30
0.0
 10
-32.555022
 20
5.448199
 30
0.0
  0
SPLINE
  5
118
100
AcDbEntity
  8
0
 62
7
100
AcDbSpline
 70
8
 71
3
 72
8
 73
4
 74
0
 40
0
 40
0
 40
0
 40
0
 40
1
 40
1
 40
1
 40
1
 10
-32.555022
 20
5.448199
 30
0.0
 10
-32.618281
 20
5.511777
 30
0.0
 10
-32.701722
 20
5.544457
 30
0.0
 10
-32.801528
 20
5.544457
 30
0.0
  0
SPLINE
  5
119
100
AcDbEntity
  8
0
 62
7
100
AcDbSpline
 70
8
 71
3
 72
8
 73
4
 74
0
 40
0
 40
0
 40
0
 40
0
 40
1
 40
1
 40
1
 40
1
 10
-32.801528
 20
5.544457
 30
0.0
 10
-32.904616
 20
5.544457
 30
0.0
 10
-32.988067
 20
5.513092
 30
0.0
 10
-33.052730
 20
5.448199
 30
0.0
  0
SPLINE
  5
11a
100
AcDbEntity
  8
0
 62
7
100
AcDbSpline
 70
8
 71
3
 72
8
 73
4
 74
0
 40
0
 40
0
 40
0
 40
0
 40
1
 40
1
 40
1
 40
1
 10
-33.052730
 20
5.448199
 30
0.0
 10
-33.117394
 20
5.383312
 30
0.0
 10
-33.148984
 20
5.291028
 30
0.0
 10
-33.148984
 20
5.173524
 30
0.0
  0
SPLINE
  5
11b
100
AcDbEntity
  8
0
 62
7
100
AcDbSpline
 70
8
 71
3
 72
8
 73
4
 74
0
 40
0
 40
0
 40
0
 40
0
 40
1
 40
1
 40
1
 40
1
 10
-33.148984
 20
5.173524
 30
0.0
 10
-33.148984
 20
5.101065
 30
0.0
 10
-33.135116
 20
5.039898
 30
0.0
 10
-33.109074
 20
4.988054
 30
0.0
  0
SPLINE
  5
11c
100
AcDbEntity
  8
0
 62
7
100
AcDbSpline
 70
8
 71
3
 72
8
 73
4
 74
0
 40
0
 40
0
 40
0
 40
0
 40
1
 40
1
 40
1
 40
1
 10
-33.109074
 20
4.988054
 30
0.0
 10
-33.135718
 20
4.993485
 30
0.0
 10
-33.164531
 20
4.997444
 30
0.0
 10
-33.193591
 20
4.997444
 30
0.0
  0
SPLINE
  5
11d
100
AcDbEntity
  8
0
 62
7
100
AcDbSpline
 70
8
 71
3
 72
8
 73
4
 74
0
 40
0
 40
0
 40
0
 40
0
 40
1
 40
1
 40
1
 40
1
 10
-33.193591
 20
4.997444
 30
0.0
 10
-33.231488
 20
4.997444
 30
0.0
 10
-33.265593
 20
4.990931
 30
0.0
 10
-33.299237
 20
4.981014
 30
0.0
  0
LWPOLYLINE
  5
11e
100
AcDbEntity
  8
0
 62
7
100
AcDbPolyline
 90
2
 70
0
 10
-33.017514
 20
5.150047
 30
0.0
 10
-32.461114
 20
5.150047
 30
0.0
  0
SPLINE
  5
11f
100
AcDbEntity
  8
0
 62
7
100
AcDbSpline
 70
8
 71
3
 72
8
 73
4
 74
0
 40
0
 40
0
 40
0
 40
0
 40
1
 40
1
 40
1
 40
1
 10
-33.299237
 20
5.272126
 30
0.0
 10
-33.299238
 20
5.340521
 30
0.0
 10
-33.309838
 20
5.393469
 30
0.0
 10
-33.327408
 20
5.429417
 30
0.0
  0
SPLINE
  5
120
100
AcDbEntity
  8
0
 62
7
100
AcDbSpline
 70
8
 71
3
 72
8
 73
4
 74
0
 40
0
 40
0
 40
0
 40
0
 40
1
 40
1
 40
1
 40
1
 10
-33.327408
 20
5.429417
 30
0.0
 10
-33.344981
 20
5.465372
 30
0.0
 10
-33.373507
 20
5.493552
 30
0.0
 10
-33.414272
 20
5.513934
 30
0.0
  0
SPLINE
  5
121
100
AcDbEntity
  8
0
 62
7
100
AcDbSpline
 70
8
 71
3
 72
8
 73
4
 74
0
 40
0
 40
0
 40
0
 40
0
 40
1
 40
1
 40
1
 40
1
 10
-33.414272
 20
5.513934
 30
0.0
 10
-33.455040
 20
5.534323
 30
0.0
 10
-33.502189
 20
5.544457
 30
0.0
 10
-33.557481
 20
5.544457
 30
0.0
  0
SPLINE
  5
122
100
AcDbEntity
  8
0
 62
7
100
AcDbSpline
 70
8
 71
3
 72
8
 73
4
 74
0
 40
0
 40
0
 40
0
 40
0
 40
1
 40
1
 40
1
 40
1
 10
-33.557481
 20
5.544457
 30
0.0
 10
-33.647448
 20
5.544457
 30
0.0
 10
-33.721470
 20
5.512213
 30
0.0
 10
-33.780510
 20
5.448199
 30
0.0
  0
LWPOLYLINE
  5
123
100
AcDbEntity
  8
0
 62
7
100
AcDbPolyline
 90
2
 70
0
 10
-33.299237
 20
4.981014
 30
0.0
 10
-33.299237
 20
5.272126
 30
0.0
  0
SPLINE
  5
124
100
AcDbEntity
  8
0
 62
7
100
AcDbSpline
 70
8
 71
3
 72
8
 73
4
 74
0
 40
0
 40
0
 40
0
 40
0
 40
1
 40
1
 40
1
 40
1
 10
-32.329646
 20
6.415442
 30
0.0
 10
-32.329001
 20
6.434299
 30
0.0
 10
-32.328192
 20
6.466535
 30
0.0
 10
-32.327298
 20
6.481177
 30
0.0
  0
SPLINE
  5
125
100
AcDbEntity
  8
0
 62
7
100
AcDbSpline
 70
8
 71
3
 72
8
 73
4
 74
0
 40
0
 40
0
 40
0
 40
0
 40
1
 40
1
 40
1
 40
1
 10
-32.327298
 20
6.481177
 30
0.0
 10
-32.325718
 20
6.512324
 30
0.0
 10
-32.323838
 20
6.547092
 30
0.0
 10
-32.317907
 20
6.582131
 30
0.0
  0
LWPOLYLINE
  5
126
100
AcDbEntity
  8
0
 62
7
100
AcDbPolyline
 90
12
 70
0
 10
-33.780510
 20
5.448199
 30
0.0
 10
-33.780510
 20
5.783920
 30
0.0
 10
-32.205219
 20
5.783920
 30
0.0
 10
-32.205219
 20
6.056251
 30
0.0
 10
-32.148874
 20
6.063298
 30
0.0
 10
-32.003318
 20
5.901304
 30
0.0
 10
-31.963408
 20
6.114939
 30
0.0
 10
-31.763854
 20
6.204158
 30
0.0
 10
-31.956364
 20
6.307456
 30
0.0
 10
-31.977493
 20
6.523443
 30
0.0
 10
-32.137136
 20
6.375535
 30
0.0
 10
-32.329646
 20
6.415442
 30
0.0
  0
SPLINE
  5
127
100
AcDbEntity
  8
0
 62
7
100
AcDbSpline
 70
8
 71
3
 72
8
 73
4
 74
0
 40
0
 40
0
 40
0
 40
0
 40
1
 40
1
 40
1
 40
1
 10
-32.346079
 20
6.598568
 30
0.0
 10
-32.374541
 20
6.589997
 30
0.0
 10
-32.403296
 20
6.582687
 30
0.0
 10
-32.432943
 20
6.577436
 30
0.0
  0
SPLINE
  5
128
100
AcDbEntity
  8
0
 62
7
100
AcDbSpline
 70
8
 71
3
 72
8
 73
4
 74
0
 40
0
 40
0
 40
0
 40
0
 40
1
 40
1
 40
1
 40
1
 10
-32.432943
 20
6.577436
 30
0.0
 10
-32.462592
 20
6.572177
 30
0.0
 10
-32.512064
 20
6.565273
 30
0.0
 10
-32.580847
 20
6.558654
 30
0.0
  0
LWPOLYLINE
  5
129
100
AcDbEntity
  8
0
 62
7
100
AcDbPolyline
 90
2
 70
0
 10
-32.317907
 20
6.582131
 30
0.0
 10
-32.346079
 20
6.598568
 30
0.0
  0
SPLINE
  5
12a
100
AcDbEntity
  8
0
 62
7
100
AcDbSpline
 70
8
 71
3
 72
8
 73
4
 74
0
 40
0
 40
0
 40
0
 40
0
 40
1
 40
1
 40
1
 40
1
 10
-32.580847
 20
6.521091
 30
0.0
 10
-32.533016
 20
6.516028
 30
0.0
 10
-32.503643
 20
6.508718
 30
0.0
 10
-32.496331
 20
6.499958
 30
0.0
  0
SPLINE
  5
12b
100
AcDbEntity
  8
0
 62
7
100
AcDbSpline
 70
8
 71
3
 72
8
 73
4
 74
0
 40
0
 40
0
 40
0
 40
0
 40
1
 40
1
 40
1
 40
1
 10
-32.496331
 20
6.499958
 30
0.0
 10
-32.489018
 20
6.491199
 30
0.0
 10
-32.486940
 20
6.457009
 30
0.0
 10
-32.486940
 20
6.396661
 30
0.0
  0
SPLINE
  5
12c
100
AcDbEntity
  8
0
 62
7
100
AcDbSpline
 70
8
 71
3
 72
8
 73
4
 74
0
 40
0
 40
0
 40
0
 40
0
 40
1
 40
1
 40
1
 40
1
 10
-32.486940
 20
6.396661
 30
0.0
 10
-32.486940
 20
6.293107
 30
0.0
 10
-32.488078
 20
6.230272
 30
0.0
 10
-32.491634
 20
6.211198
 30
0.0
  0
SPLINE
  5
12d
100
AcDbEntity
  8
0
 62
7
100
AcDbSpline
 70
8
 71
3
 72
8
 73
4
 74
0
 40
0
 40
0
 40
0
 40
0
 40
1
 40
1
 40
1
 40
1
 10
-32.491634
 20
6.211198
 30
0.0
 10
-32.496774
 20
6.180832
 30
0.0
 10
-32.507702
 20
6.157911
 30
0.0
 10
-32.524502
 20
6.143111
 30
0.0
  0
SPLINE
  5
12e
100
AcDbEntity
  8
0
 62
7
100
AcDbSpline
 70
8
 71
3
 72
8
 73
4
 74
0
 40
0
 40
0
 40
0
 40
0
 40
1
 40
1
 40
1
 40
1
 10
-32.524502
 20
6.143111
 30
0.0
 10
-32.541304
 20
6.128319
 30
0.0
 10
-32.561824
 20
6.121986
 30
0.0
 10
-32.585542
 20
6.121986
 30
0.0
  0
SPLINE
  5
12f
100
AcDbEntity
  8
0
 62
7
100
AcDbSpline
 70
8
 71
3
 72
8
 73
4
 74
0
 40
0
 40
0
 40
0
 40
0
 40
1
 40
1
 40
1
 40
1
 10
-32.585542
 20
6.121986
 30
0.0
 10
-32.615586
 20
6.121986
 30
0.0
 10
-32.635711
 20
6.133841
 30
0.0
 10
-32.646581
 20
6.157205
 30
0.0
  0
SPLINE
  5
130
100
AcDbEntity
  8
0
 62
7
100
AcDbSpline
 70
8
 71
3
 72
8
 73
4
 74
0
 40
0
 40
0
 40
0
 40
0
 40
1
 40
1
 40
1
 40
1
 10
-32.646581
 20
6.157205
 30
0.0
 10
-32.657453
 20
6.180561
 30
0.0
 10
-32.663016
 20
6.231564
 30
0.0
 10
-32.663016
 20
6.312144
 30
0.0
  0
SPLINE
  5
131
100
AcDbEntity
  8
0
 62
7
100
AcDbSpline
 70
8
 71
3
 72
8
 73
4
 74
0
 40
0
 40
0
 40
0
 40
0
 40
1
 40
1
 40
1
 40
1
 10
-32.663016
 20
6.312144
 30
0.0
 10
-32.663016
 20
6.364311
 30
0.0
 10
-32.661482
 20
6.426358
 30
0.0
 10
-32.658320
 20
6.495271
 30
0.0
  0
SPLINE
  5
132
100
AcDbEntity
  8
0
 62
7
100
AcDbSpline
 70
8
 71
3
 72
8
 73
4
 74
0
 40
0
 40
0
 40
0
 40
0
 40
1
 40
1
 40
1
 40
1
 10
-32.658320
 20
6.495271
 30
0.0
 10
-32.656344
 20
6.533419
 30
0.0
 10
-32.654440
 20
6.560314
 30
0.0
 10
-32.651278
 20
6.579787
 30
0.0
  0
LWPOLYLINE
  5
133
100
AcDbEntity
  8
0
 62
7
100
AcDbPolyline
 90
2
 70
0
 10
-32.580847
 20
6.558654
 30
0.0
 10
-32.580847
 20
6.521091
 30
0.0
  0
SPLINE
  5
134
100
AcDbEntity
  8
0
 62
7
100
AcDbSpline
 70
8
 71
3
 72
8
 73
4
 74
0
 40
0
 40
0
 40
0
 40
0
 40
1
 40
1
 40
1
 40
1
 10
-32.677101
 20
6.598568
 30
0.0
 10
-32.742328
 20
6.579486
 30
0.0
 10
-32.821739
 20
6.565273
 30
0.0
 10
-32.911869
 20
6.558654
 30
0.0
  0
LWPOLYLINE
  5
135
100
AcDbEntity
  8
0
 62
7
100
AcDbPolyline
 90
2
 70
0
 10
-32.651278
 20
6.579787
 30
0.0
 10
-32.677101
 20
6.598568
 30
0.0
  0
SPLINE
  5
136
100
AcDbEntity
  8
0
 62
7
100
AcDbSpline
 70
8
 71
3
 72
8
 73
4
 74
0
 40
0
 40
0
 40
0
 40
0
 40
1
 40
1
 40
1
 40
1
 10
-32.911869
 20
6.521091
 30
0.0
 10
-32.866014
 20
6.517200
 30
0.0
 10
-32.838398
 20
6.508125
 30
0.0
 10
-32.829701
 20
6.497614
 30
0.0
  0
SPLINE
  5
137
100
AcDbEntity
  8
0
 62
7
100
AcDbSpline
 70
8
 71
3
 72
8
 73
4
 74
0
 40
0
 40
0
 40
0
 40
0
 40
1
 40
1
 40
1
 40
1
 10
-32.829701
 20
6.497614
 30
0.0
 10
-32.821004
 20
6.487104
 30
0.0
 10
-32.815614
 20
6.451119
 30
0.0
 10
-32.815614
 20
6.387270
 30
0.0
  0
LWPOLYLINE
  5
138
100
AcDbEntity
  8
0
 62
7
100
AcDbPolyline
 90
2
 70
0
 10
-32.911869
 20
6.558654
 30
0.0
 10
-32.911869
 20
6.521091
 30
0.0
  0
SPLINE
  5
139
100
AcDbEntity
  8
0
 62
7
100
AcDbSpline
 70
8
 71
3
 72
8
 73
4
 74
0
 40
0
 40
0
 40
0
 40
0
 40
1
 40
1
 40
1
 40
1
 10
-32.815614
 20
6.269893
 30
0.0
 10
-32.815614
 20
6.198261
 30
0.0
 10
-32.814848
 20
6.155552
 30
0.0
 10
-32.813267
 20
6.138423
 30
0.0
  0
SPLINE
  5
13a
100
AcDbEntity
  8
0
 62
7
100
AcDbSpline
 70
8
 71
3
 72
8
 73
4
 74
0
 40
0
 40
0
 40
0
 40
0
 40
1
 40
1
 40
1
 40
1
 10
-32.813267
 20
6.138423
 30
0.0
 10
-32.810104
 20
6.111559
 30
0.0
 10
-32.805159
 20
6.089231
 30
0.0
 10
-32.794486
 20
6.072688
 30
0.0
  0
SPLINE
  5
13b
100
AcDbEntity
  8
0
 62
7
100
AcDbSpline
 70
8
 71
3
 72
8
 73
4
 74
0
 40
0
 40
0
 40
0
 40
0
 40
1
 40
1
 40
1
 40
1
 10
-32.794486
 20
6.072688
 30
0.0
 10
-32.790830
 20
6.067016
 30
0.0
 10
-32.785331
 20
6.061232
 30
0.0
 10
-32.780400
 20
6.056251
 30
0.0
  0
LWPOLYLINE
  5
13c
100
AcDbEntity
  8
0
 62
7
100
AcDbPolyline
 90
2
 70
0
 10
-32.815614
 20
6.387270
 30
0.0
 10
-32.815614
 20
6.269893
 30
0.0
  0
SPLINE
  5
13d
100
AcDbEntity
  8
0
 62
7
100
AcDbSpline
 70
8
 71
3
 72
8
 73
4
 74
0
 40
0
 40
0
 40
0
 40
0
 40
1
 40
1
 40
1
 40
1
 10
-33.073859
 20
6.056251
 30
0.0
 10
-33.058133
 20
6.066618
 30
0.0
 10
-33.042644
 20
6.079991
 30
0.0
 10
-33.029253
 20
6.093814
 30
0.0
  0
SPLINE
  5
13e
100
AcDbEntity
  8
0
 62
7
100
AcDbSpline
 70
8
 71
3
 72
8
 73
4
 74
0
 40
0
 40
0
 40
0
 40
0
 40
1
 40
1
 40
1
 40
1
 10
-33.029253
 20
6.093814
 30
0.0
 10
-32.975691
 20
6.149091
 30
0.0
 10
-32.949433
 20
6.226576
 30
0.0
 10
-32.949432
 20
6.326238
 30
0.0
  0
SPLINE
  5
13f
100
AcDbEntity
  8
0
 62
7
100
AcDbSpline
 70
8
 71
3
 72
8
 73
4
 74
0
 40
0
 40
0
 40
0
 40
0
 40
1
 40
1
 40
1
 40
1
 10
-32.949432
 20
6.326238
 30
0.0
 10
-32.949433
 20
6.412655
 30
0.0
 10
-32.974158
 20
6.478886
 30
0.0
 10
-33.024558
 20
6.528131
 30
0.0
  0
SPLINE
  5
140
100
AcDbEntity
  8
0
 62
7
100
AcDbSpline
 70
8
 71
3
 72
8
 73
4
 74
0
 40
0
 40
0
 40
0
 40
0
 40
1
 40
1
 40
1
 40
1
 10
-33.024558
 20
6.528131
 30
0.0
 10
-33.074960
 20
6.577383
 30
0.0
 10
-33.144162
 20
6.603256
 30
0.0
 10
-33.233501
 20
6.603256
 30
0.0
  0
SPLINE
  5
141
100
AcDbEntity
  8
0
 62
7
100
AcDbSpline
 70
8
 71
3
 72
8
 73
4
 74
0
 40
0
 40
0
 40
0
 40
0
 40
1
 40
1
 40
1
 40
1
 10
-33.233501
 20
6.603256
 30
0.0
 10
-33.323631
 20
6.603256
 30
0.0
 10
-33.397481
 20
6.576579
 30
0.0
 10
-33.451836
 20
6.523443
 30
0.0
  0
SPLINE
  5
142
100
AcDbEntity
  8
0
 62
7
100
AcDbSpline
 70
8
 71
3
 72
8
 73
4
 74
0
 40
0
 40
0
 40
0
 40
0
 40
1
 40
1
 40
1
 40
1
 10
-33.451836
 20
6.523443
 30
0.0
 10
-33.506190
 20
6.470299
 30
0.0
 10
-33.531657
 20
6.400920
 30
0.0
 10
-33.531657
 20
6.314496
 30
0.0
  0
SPLINE
  5
143
100
AcDbEntity
  8
0
 62
7
100
AcDbSpline
 70
8
 71
3
 72
8
 73
4
 74
0
 40
0
 40
0
 40
0
 40
0
 40
1
 40
1
 40
1
 40
1
 10
-33.531657
 20
6.314496
 30
0.0
 10
-33.531657
 20
6.214834
 30
0.0
 10
-33.508489
 20
6.138160
 30
0.0
 10
-33.458879
 20
6.086767
 30
0.0
  0
SPLINE
  5
144
100
AcDbEntity
  8
0
 62
7
100
AcDbSpline
 70
8
 71
3
 72
8
 73
4
 74
0
 40
0
 40
0
 40
0
 40
0
 40
1
 40
1
 40
1
 40
1
 10
-33.458879
 20
6.086767
 30
0.0
 10
-33.447240
 20
6.074717
 30
0.0
 10
-33.432926
 20
6.065476
 30
0.0
 10
-33.418968
 20
6.056251
 30
0.0
  0
LWPOLYLINE
  5
145
100
AcDbEntity
  8
0
 62
7
100
AcDbPolyline
 90
2
 70
0
 10
-32.780400
 20
6.056251
 30
0.0
 10
-33.073859
 20
6.056251
 30
0.0
  0
SPLINE
  5
146
100
AcDbEntity
  8
0
 62
7
100
AcDbSpline
 70
8
 71
3
 72
8
 73
4
 74
0
 40
0
 40
0
 40
0
 40
0
 40
1
 40
1
 40
1
 40
1
 10
-33.825117
 20
6.070337
 30
0.0
 10
-33.875320
 20
6.079683
 30
0.0
 10
-33.902913
 20
6.086001
 30
0.0
 10
-33.909632
 20
6.089118
 30
0.0
  0
SPLINE
  5
147
100
AcDbEntity
  8
0
 62
7
100
AcDbSpline
 70
8
 71
3
 72
8
 73
4
 74
0
 40
0
 40
0
 40
0
 40
0
 40
1
 40
1
 40
1
 40
1
 10
-33.909632
 20
6.089118
 30
0.0
 10
-33.920307
 20
6.094182
 30
0.0
 10
-33.929354
 20
6.099726
 30
0.0
 10
-33.933109
 20
6.107900
 30
0.0
  0
SPLINE
  5
148
100
AcDbEntity
  8
0
 62
7
100
AcDbSpline
 70
8
 71
3
 72
8
 73
4
 74
0
 40
0
 40
0
 40
0
 40
0
 40
1
 40
1
 40
1
 40
1
 10
-33.933109
 20
6.107900
 30
0.0
 10
-33.936866
 20
6.116074
 30
0.0
 10
-33.937411
 20
6.137417
 30
0.0
 10
-33.937804
 20
6.171283
 30
0.0
  0
LWPOLYLINE
  5
149
100
AcDbEntity
  8
0
 62
7
100
AcDbPolyline
 90
4
 70
0
 10
-33.418968
 20
6.056251
 30
0.0
 10
-33.806334
 20
6.056251
 30
0.0
 10
-33.806334
 20
6.067986
 30
0.0
 10
-33.825117
 20
6.070337
 30
0.0
  0
SPLINE
  5
14a
100
AcDbEntity
  8
0
 62
7
100
AcDbSpline
 70
8
 71
3
 72
8
 73
4
 74
0
 40
0
 40
0
 40
0
 40
0
 40
1
 40
1
 40
1
 40
1
 10
-33.937804
 20
6.382582
 30
0.0
 10
-33.807354
 20
6.594744
 30
0.0
 10
-33.737979
 20
6.708598
 30
0.0
 10
-33.726514
 20
6.725336
 30
0.0
  0
SPLINE
  5
14b
100
AcDbEntity
  8
0
 62
7
100
AcDbSpline
 70
8
 71
3
 72
8
 73
4
 74
0
 40
0
 40
0
 40
0
 40
0
 40
1
 40
1
 40
1
 40
1
 10
-33.726514
 20
6.725336
 30
0.0
 10
-33.708726
 20
6.751419
 30
0.0
 10
-33.690876
 20
6.769404
 30
0.0
 10
-33.674864
 20
6.779336
 30
0.0
  0
SPLINE
  5
14c
100
AcDbEntity
  8
0
 62
7
100
AcDbSpline
 70
8
 71
3
 72
8
 73
4
 74
0
 40
0
 40
0
 40
0
 40
0
 40
1
 40
1
 40
1
 40
1
 10
-33.674864
 20
6.779336
 30
0.0
 10
-33.658856
 20
6.789260
 30
0.0
 10
-33.625306
 20
6.800123
 30
0.0
 10
-33.573914
 20
6.809852
 30
0.0
  0
LWPOLYLINE
  5
14d
100
AcDbEntity
  8
0
 62
7
100
AcDbPolyline
 90
2
 70
0
 10
-33.937804
 20
6.171283
 30
0.0
 10
-33.937804
 20
6.382582
 30
0.0
  0
SPLINE
  5
14e
100
AcDbEntity
  8
0
 62
7
100
AcDbSpline
 70
8
 71
3
 72
8
 73
4
 74
0
 40
0
 40
0
 40
0
 40
0
 40
1
 40
1
 40
1
 40
1
 10
-33.573914
 20
6.852118
 30
0.0
 10
-33.652581
 20
6.847828
 30
0.0
 10
-33.704353
 20
6.845071
 30
0.0
 10
-33.728861
 20
6.845071
 30
0.0
  0
SPLINE
  5
14f
100
AcDbEntity
  8
0
 62
7
100
AcDbSpline
 70
8
 71
3
 72
8
 73
4
 74
0
 40
0
 40
0
 40
0
 40
0
 40
1
 40
1
 40
1
 40
1
 10
-33.728861
 20
6.845071
 30
0.0
 10
-33.751394
 20
6.845071
 30
0.0
 10
-33.794712
 20
6.846649
 30
0.0
 10
-33.860331
 20
6.849766
 30
0.0
  0
LWPOLYLINE
  5
150
100
AcDbEntity
  8
0
 62
7
100
AcDbPolyline
 90
2
 70
0
 10
-33.573914
 20
6.809852
 30
0.0
 10
-33.573914
 20
6.852118
 30
0.0
  0
SPLINE
  5
151
100
AcDbEntity
  8
0
 62
7
100
AcDbSpline
 70
8
 71
3
 72
8
 73
4
 74
0
 40
0
 40
0
 40
0
 40
0
 40
1
 40
1
 40
1
 40
1
 10
-33.890851
 20
6.809852
 30
0.0
 10
-33.843811
 20
6.801288
 30
0.0
 10
-33.816762
 20
6.794970
 30
0.0
 10
-33.811030
 20
6.791071
 30
0.0
  0
SPLINE
  5
152
100
AcDbEntity
  8
0
 62
7
100
AcDbSpline
 70
8
 71
3
 72
8
 73
4
 74
0
 40
0
 40
0
 40
0
 40
0
 40
1
 40
1
 40
1
 40
1
 10
-33.811030
 20
6.791071
 30
0.0
 10
-33.805299
 20
6.787179
 30
0.0
 10
-33.801640
 20
6.782439
 30
0.0
 10
-33.801640
 20
6.776992
 30
0.0
  0
SPLINE
  5
153
100
AcDbEntity
  8
0
 62
7
100
AcDbSpline
 70
8
 71
3
 72
8
 73
4
 74
0
 40
0
 40
0
 40
0
 40
0
 40
1
 40
1
 40
1
 40
1
 10
-33.801640
 20
6.776992
 30
0.0
 10
-33.801640
 20
6.773484
 30
0.0
 10
-33.804730
 20
6.767947
 30
0.0
 10
-33.808682
 20
6.760554
 30
0.0
  0
LWPOLYLINE
  5
154
100
AcDbEntity
  8
0
 62
7
100
AcDbPolyline
 90
3
 70
0
 10
-33.860331
 20
6.849766
 30
0.0
 10
-33.890851
 20
6.852118
 30
0.0
 10
-33.890851
 20
6.809852
 30
0.0
  0
SPLINE
  5
155
100
AcDbEntity
  8
0
 62
7
100
AcDbSpline
 70
8
 71
3
 72
8
 73
4
 74
0
 40
0
 40
0
 40
0
 40
0
 40
1
 40
1
 40
1
 40
1
 10
-33.975368
 20
6.460052
 30
0.0
 10
-34.007388
 20
6.512610
 30
0.0
 10
-34.039208
 20
6.567158
 30
0.0
 10
-34.071622
 20
6.624389
 30
0.0
  0
SPLINE
  5
156
100
AcDbEntity
  8
0
 62
7
100
AcDbSpline
 70
8
 71
3
 72
8
 73
4
 74
0
 40
0
 40
0
 40
0
 40
0
 40
1
 40
1
 40
1
 40
1
 10
-34.071622
 20
6.624389
 30
0.0
 10
-34.104038
 20
6.681612
 30
0.0
 10
-34.127822
 20
6.723502
 30
0.0
 10
-34.142053
 20
6.746468
 30
0.0
  0
SPLINE
  5
157
100
AcDbEntity
  8
0
 62
7
100
AcDbSpline
 70
8
 71
3
 72
8
 73
4
 74
0
 40
0
 40
0
 40
0
 40
0
 40
1
 40
1
 40
1
 40
1
 10
-34.142053
 20
6.746468
 30
0.0
 10
-34.147982
 20
6.756197
 30
0.0
 10
-34.149096
 20
6.763717
 30
0.0
 10
-34.149096
 20
6.769945
 30
0.0
  0
SPLINE
  5
158
100
AcDbEntity
  8
0
 62
7
100
AcDbSpline
 70
8
 71
3
 72
8
 73
4
 74
0
 40
0
 40
0
 40
0
 40
0
 40
1
 40
1
 40
1
 40
1
 10
-34.149096
 20
6.769945
 30
0.0
 10
-34.149096
 20
6.775782
 30
0.0
 10
-34.146623
 20
6.781124
 30
0.0
 10
-34.139704
 20
6.786383
 30
0.0
  0
SPLINE
  5
159
100
AcDbEntity
  8
0
 62
7
100
AcDbSpline
 70
8
 71
3
 72
8
 73
4
 74
0
 40
0
 40
0
 40
0
 40
0
 40
1
 40
1
 40
1
 40
1
 10
-34.139704
 20
6.786383
 30
0.0
 10
-34.132787
 20
6.791634
 30
0.0
 10
-34.107297
 20
6.799732
 30
0.0
 10
-34.062232
 20
6.809852
 30
0.0
  0
LWPOLYLINE
  5
15a
100
AcDbEntity
  8
0
 62
7
100
AcDbPolyline
 90
2
 70
0
 10
-33.808682
 20
6.760554
 30
0.0
 10
-33.975368
 20
6.460052
 30
0.0
  0
SPLINE
  5
15b
100
AcDbEntity
  8
0
 62
7
100
AcDbSpline
 70
8
 71
3
 72
8
 73
4
 74
0
 40
0
 40
0
 40
0
 40
0
 40
1
 40
1
 40
1
 40
1
 10
-34.062232
 20
6.852118
 30
0.0
 10
-34.165407
 20
6.847828
 30
0.0
 10
-34.234783
 20
6.845071
 30
0.0
 10
-34.273522
 20
6.845071
 30
0.0
  0
SPLINE
  5
15c
100
AcDbEntity
  8
0
 62
7
100
AcDbSpline
 70
8
 71
3
 72
8
 73
4
 74
0
 40
0
 40
0
 40
0
 40
0
 40
1
 40
1
 40
1
 40
1
 10
-34.273522
 20
6.845071
 30
0.0
 10
-34.283800
 20
6.845071
 30
0.0
 10
-34.316807
 20
6.845860
 30
0.0
 10
-34.369778
 20
6.847415
 30
0.0
  0
LWPOLYLINE
  5
15d
100
AcDbEntity
  8
0
 62
7
100
AcDbPolyline
 90
2
 70
0
 10
-34.062232
 20
6.809852
 30
0.0
 10
-34.062232
 20
6.852118
 30
0.0
  0
SPLINE
  5
15e
100
AcDbEntity
  8
0
 62
7
100
AcDbSpline
 70
8
 71
3
 72
8
 73
4
 74
0
 40
0
 40
0
 40
0
 40
0
 40
1
 40
1
 40
1
 40
1
 10
-34.487161
 20
6.809852
 30
0.0
 10
-34.446840
 20
6.801678
 30
0.0
 10
-34.418062
 20
6.793377
 30
0.0
 10
-34.402646
 20
6.784031
 30
0.0
  0
SPLINE
  5
15f
100
AcDbEntity
  8
0
 62
7
100
AcDbSpline
 70
8
 71
3
 72
8
 73
4
 74
0
 40
0
 40
0
 40
0
 40
0
 40
1
 40
1
 40
1
 40
1
 10
-34.402646
 20
6.784031
 30
0.0
 10
-34.387229
 20
6.774686
 30
0.0
 10
-34.372072
 20
6.760457
 30
0.0
 10
-34.358039
 20
6.741773
 30
0.0
  0
SPLINE
  5
160
100
AcDbEntity
  8
0
 62
7
100
AcDbSpline
 70
8
 71
3
 72
8
 73
4
 74
0
 40
0
 40
0
 40
0
 40
0
 40
1
 40
1
 40
1
 40
1
 10
-34.358039
 20
6.741773
 30
0.0
 10
-34.344006
 20
6.723089
 30
0.0
 10
-34.305114
 20
6.660239
 30
0.0
 10
-34.238308
 20
6.553959
 30
0.0
  0
SPLINE
  5
161
100
AcDbEntity
  8
0
 62
7
100
AcDbSpline
 70
8
 71
3
 72
8
 73
4
 74
0
 40
0
 40
0
 40
0
 40
0
 40
1
 40
1
 40
1
 40
1
 10
-34.238308
 20
6.553959
 30
0.0
 10
-34.186918
 20
6.471816
 30
0.0
 10
-34.147409
 20
6.410551
 30
0.0
 10
-34.120923
 20
6.370840
 30
0.0
  0
LWPOLYLINE
  5
162
100
AcDbEntity
  8
0
 62
7
100
AcDbPolyline
 90
3
 70
0
 10
-34.369778
 20
6.847415
 30
0.0
 10
-34.487161
 20
6.852118
 30
0.0
 10
-34.487161
 20
6.809852
 30
0.0
  0
SPLINE
  5
163
100
AcDbEntity
  8
0
 62
7
100
AcDbSpline
 70
8
 71
3
 72
8
 73
4
 74
0
 40
0
 40
0
 40
0
 40
0
 40
1
 40
1
 40
1
 40
1
 10
-34.120923
 20
6.199456
 30
0.0
 10
-34.120923
 20
6.151961
 30
0.0
 10
-34.121868
 20
6.122519
 30
0.0
 10
-34.125619
 20
6.112595
 30
0.0
  0
SPLINE
  5
164
100
AcDbEntity
  8
0
 62
7
100
AcDbSpline
 70
8
 71
3
 72
8
 73
4
 74
0
 40
0
 40
0
 40
0
 40
0
 40
1
 40
1
 40
1
 40
1
 10
-34.125619
 20
6.112595
 30
0.0
 10
-34.129374
 20
6.102671
 30
0.0
 10
-34.136494
 20
6.095752
 30
0.0
 10
-34.144400
 20
6.091470
 30
0.0
  0
SPLINE
  5
165
100
AcDbEntity
  8
0
 62
7
100
AcDbSpline
 70
8
 71
3
 72
8
 73
4
 74
0
 40
0
 40
0
 40
0
 40
0
 40
1
 40
1
 40
1
 40
1
 10
-34.144400
 20
6.091470
 30
0.0
 10
-34.156260
 20
6.084851
 30
0.0
 10
-34.181529
 20
6.078916
 30
0.0
 10
-34.224221
 20
6.072688
 30
0.0
  0
SPLINE
  5
166
100
AcDbEntity
  8
0
 62
7
100
AcDbSpline
 70
8
 71
3
 72
8
 73
4
 74
0
 40
0
 40
0
 40
0
 40
0
 40
1
 40
1
 40
1
 40
1
 10
-34.224221
 20
6.072688
 30
0.0
 10
-34.230547
 20
6.071907
 30
0.0
 10
-34.242091
 20
6.070322
 30
0.0
 10
-34.254741
 20
6.067986
 30
0.0
  0
LWPOLYLINE
  5
167
100
AcDbEntity
  8
0
 62
7
100
AcDbPolyline
 90
2
 70
0
 10
-34.120923
 20
6.370840
 30
0.0
 10
-34.120923
 20
6.199456
 30
0.0
  0
SPLINE
  5
168
100
AcDbEntity
  8
0
 62
7
100
AcDbSpline
 70
8
 71
3
 72
8
 73
4
 74
0
 40
0
 40
0
 40
0
 40
0
 40
1
 40
1
 40
1
 40
1
 10
-34.942611
 20
6.056251
 30
0.0
 10
-34.906087
 20
6.078007
 30
0.0
 10
-34.868371
 20
6.104384
 30
0.0
 10
-34.827574
 20
6.138423
 30
0.0
  0
LWPOLYLINE
  5
169
100
AcDbEntity
  8
0
 62
7
100
AcDbPolyline
 90
3
 70
0
 10
-34.254741
 20
6.067986
 30
0.0
 10
-34.254741
 20
6.056251
 30
0.0
 10
-34.942611
 20
6.056251
 30
0.0
  0
SPLINE
  5
16a
100
AcDbEntity
  8
0
 62
7
100
AcDbSpline
 70
8
 71
3
 72
8
 73
4
 74
0
 40
0
 40
0
 40
0
 40
0
 40
1
 40
1
 40
1
 40
1
 10
-34.858094
 20
6.183026
 30
0.0
 10
-34.891301
 20
6.160443
 30
0.0
 10
-34.919882
 20
6.144246
 30
0.0
 10
-34.942611
 20
6.136072
 30
0.0
  0
SPLINE
  5
16b
100
AcDbEntity
  8
0
 62
7
100
AcDbSpline
 70
8
 71
3
 72
8
 73
4
 74
0
 40
0
 40
0
 40
0
 40
0
 40
1
 40
1
 40
1
 40
1
 10
-34.942611
 20
6.136072
 30
0.0
 10
-34.965341
 20
6.127898
 30
0.0
 10
-34.988137
 20
6.124330
 30
0.0
 10
-35.013041
 20
6.124330
 30
0.0
  0
SPLINE
  5
16c
100
AcDbEntity
  8
0
 62
7
100
AcDbSpline
 70
8
 71
3
 72
8
 73
4
 74
0
 40
0
 40
0
 40
0
 40
0
 40
1
 40
1
 40
1
 40
1
 10
-35.013041
 20
6.124330
 30
0.0
 10
-35.064036
 20
6.124330
 30
0.0
 10
-35.102581
 20
6.143720
 30
0.0
 10
-35.128078
 20
6.185377
 30
0.0
  0
SPLINE
  5
16d
100
AcDbEntity
  8
0
 62
7
100
AcDbSpline
 70
8
 71
3
 72
8
 73
4
 74
0
 40
0
 40
0
 40
0
 40
0
 40
1
 40
1
 40
1
 40
1
 10
-35.128078
 20
6.185377
 30
0.0
 10
-35.153576
 20
6.227027
 30
0.0
 10
-35.165640
 20
6.276039
 30
0.0
 10
-35.165640
 20
6.330926
 30
0.0
  0
SPLINE
  5
16e
100
AcDbEntity
  8
0
 62
7
100
AcDbSpline
 70
8
 71
3
 72
8
 73
4
 74
0
 40
0
 40
0
 40
0
 40
0
 40
1
 40
1
 40
1
 40
1
 10
-35.165640
 20
6.330926
 30
0.0
 10
-35.165640
 20
6.336770
 30
0.0
 10
-35.166029
 20
6.343494
 30
0.0
 10
-35.165640
 20
6.352058
 30
0.0
  0
SPLINE
  5
16f
100
AcDbEntity
  8
0
 62
7
100
AcDbSpline
 70
8
 71
3
 72
8
 73
4
 74
0
 40
0
 40
0
 40
0
 40
0
 40
1
 40
1
 40
1
 40
1
 10
-35.165640
 20
6.352058
 30
0.0
 10
-35.117413
 20
6.353614
 30
0.0
 10
-35.064480
 20
6.354402
 30
0.0
 10
-35.008347
 20
6.354410
 30
0.0
  0
SPLINE
  5
170
100
AcDbEntity
  8
0
 62
7
100
AcDbSpline
 70
8
 71
3
 72
8
 73
4
 74
0
 40
0
 40
0
 40
0
 40
0
 40
1
 40
1
 40
1
 40
1
 10
-35.008347
 20
6.354410
 30
0.0
 10
-34.965259
 20
6.354402
 30
0.0
 10
-34.923079
 20
6.353613
 30
0.0
 10
-34.881571
 20
6.352058
 30
0.0
  0
SPLINE
  5
171
100
AcDbEntity
  8
0
 62
7
100
AcDbSpline
 70
8
 71
3
 72
8
 73
4
 74
0
 40
0
 40
0
 40
0
 40
0
 40
1
 40
1
 40
1
 40
1
 10
-34.881571
 20
6.352058
 30
0.0
 10
-34.864573
 20
6.368406
 30
0.0
 10
-34.847340
 20
6.383814
 30
0.0
 10
-34.827574
 20
6.396661
 30
0.0
  0
SPLINE
  5
172
100
AcDbEntity
  8
0
 62
7
100
AcDbSpline
 70
8
 71
3
 72
8
 73
4
 74
0
 40
0
 40
0
 40
0
 40
0
 40
1
 40
1
 40
1
 40
1
 10
-34.827574
 20
6.396661
 30
0.0
 10
-34.831133
 20
6.459338
 30
0.0
 10
-34.844162
 20
6.505593
 30
0.0
 10
-34.867486
 20
6.535177
 30
0.0
  0
SPLINE
  5
173
100
AcDbEntity
  8
0
 62
7
100
AcDbSpline
 70
8
 71
3
 72
8
 73
4
 74
0
 40
0
 40
0
 40
0
 40
0
 40
1
 40
1
 40
1
 40
1
 10
-34.867486
 20
6.535177
 30
0.0
 10
-34.902668
 20
6.580335
 30
0.0
 10
-34.958272
 20
6.603256
 30
0.0
 10
-35.034171
 20
6.603256
 30
0.0
  0
SPLINE
  5
174
100
AcDbEntity
  8
0
 62
7
100
AcDbSpline
 70
8
 71
3
 72
8
 73
4
 74
0
 40
0
 40
0
 40
0
 40
0
 40
1
 40
1
 40
1
 40
1
 10
-35.034171
 20
6.603256
 30
0.0
 10
-35.117184
 20
6.603256
 30
0.0
 10
-35.186981
 20
6.574400
 30
0.0
 10
-35.243114
 20
6.516396
 30
0.0
  0
SPLINE
  5
175
100
AcDbEntity
  8
0
 62
7
100
AcDbSpline
 70
8
 71
3
 72
8
 73
4
 74
0
 40
0
 40
0
 40
0
 40
0
 40
1
 40
1
 40
1
 40
1
 10
-35.243114
 20
6.516396
 30
0.0
 10
-35.299247
 20
6.458391
 30
0.0
 10
-35.327630
 20
6.381711
 30
0.0
 10
-35.327630
 20
6.288675
 30
0.0
  0
SPLINE
  5
176
100
AcDbEntity
  8
0
 62
7
100
AcDbSpline
 70
8
 71
3
 72
8
 73
4
 74
0
 40
0
 40
0
 40
0
 40
0
 40
1
 40
1
 40
1
 40
1
 10
-35.327630
 20
6.288675
 30
0.0
 10
-35.327630
 20
6.199132
 30
0.0
 10
-35.301522
 20
6.128755
 30
0.0
 10
-35.252504
 20
6.075032
 30
0.0
  0
SPLINE
  5
177
100
AcDbEntity
  8
0
 62
7
100
AcDbSpline
 70
8
 71
3
 72
8
 73
4
 74
0
 40
0
 40
0
 40
0
 40
0
 40
1
 40
1
 40
1
 40
1
 10
-35.252504
 20
6.075032
 30
0.0
 10
-35.245913
 20
6.067745
 30
0.0
 10
-35.238973
 20
6.062299
 30
0.0
 10
-35.231376
 20
6.056251
 30
0.0
  0
LWPOLYLINE
  5
178
100
AcDbEntity
  8
0
 62
7
100
AcDbPolyline
 90
2
 70
0
 10
-34.827574
 20
6.138423
 30
0.0
 10
-34.858094
 20
6.183026
 30
0.0
  0
SPLINE
  5
179
100
AcDbEntity
  8
0
 62
7
100
AcDbSpline
 70
8
 71
3
 72
8
 73
4
 74
0
 40
0
 40
0
 40
0
 40
0
 40
1
 40
1
 40
1
 40
1
 10
-35.639872
 20
6.056251
 30
0.0
 10
-35.611282
 20
6.125216
 30
0.0
 10
-35.584739
 20
6.194054
 30
0.0
 10
-35.560050
 20
6.258151
 30
0.0
  0
SPLINE
  5
17a
100
AcDbEntity
  8
0
 62
7
100
AcDbSpline
 70
8
 71
3
 72
8
 73
4
 74
0
 40
0
 40
0
 40
0
 40
0
 40
1
 40
1
 40
1
 40
1
 10
-35.560050
 20
6.258151
 30
0.0
 10
-35.504313
 20
6.404136
 30
0.0
 10
-35.470367
 20
6.484197
 30
0.0
 10
-35.459100
 20
6.499958
 30
0.0
  0
SPLINE
  5
17b
100
AcDbEntity
  8
0
 62
7
100
AcDbSpline
 70
8
 71
3
 72
8
 73
4
 74
0
 40
0
 40
0
 40
0
 40
0
 40
1
 40
1
 40
1
 40
1
 10
-35.459100
 20
6.499958
 30
0.0
 10
-35.447834
 20
6.515727
 30
0.0
 10
-35.423087
 20
6.530542
 30
0.0
 10
-35.386322
 20
6.542224
 30
0.0
  0
LWPOLYLINE
  5
17c
100
AcDbEntity
  8
0
 62
7
100
AcDbPolyline
 90
2
 70
0
 10
-35.231376
 20
6.056251
 30
0.0
 10
-35.639872
 20
6.056251
 30
0.0
  0
SPLINE
  5
17d
100
AcDbEntity
  8
0
 62
7
100
AcDbSpline
 70
8
 71
3
 72
8
 73
4
 74
0
 40
0
 40
0
 40
0
 40
0
 40
1
 40
1
 40
1
 40
1
 10
-35.386322
 20
6.582131
 30
0.0
 10
-35.425063
 20
6.577849
 30
0.0
 10
-35.458810
 20
6.575084
 30
0.0
 10
-35.487272
 20
6.575084
 30
0.0
  0
SPLINE
  5
17e
100
AcDbEntity
  8
0
 62
7
100
AcDbSpline
 70
8
 71
3
 72
8
 73
4
 74
0
 40
0
 40
0
 40
0
 40
0
 40
1
 40
1
 40
1
 40
1
 10
-35.487272
 20
6.575084
 30
0.0
 10
-35.514154
 20
6.575084
 30
0.0
 10
-35.549806
 20
6.577849
 30
0.0
 10
-35.595266
 20
6.582131
 30
0.0
  0
LWPOLYLINE
  5
17f
100
AcDbEntity
  8
0
 62
7
100
AcDbPolyline
 90
2
 70
0
 10
-35.386322
 20
6.542224
 30
0.0
 10
-35.386322
 20
6.582131
 30
0.0
  0
SPLINE
  5
180
100
AcDbEntity
  8
0
 62
7
100
AcDbSpline
 70
8
 71
3
 72
8
 73
4
 74
0
 40
0
 40
0
 40
0
 40
0
 40
1
 40
1
 40
1
 40
1
 10
-35.595266
 20
6.542224
 30
0.0
 10
-35.572733
 20
6.534043
 30
0.0
 10
-35.560494
 20
6.526350
 30
0.0
 10
-35.555354
 20
6.521091
 30
0.0
  0
SPLINE
  5
181
100
AcDbEntity
  8
0
 62
7
100
AcDbSpline
 70
8
 71
3
 72
8
 73
4
 74
0
 40
0
 40
0
 40
0
 40
0
 40
1
 40
1
 40
1
 40
1
 10
-35.555354
 20
6.521091
 30
0.0
 10
-35.550216
 20
6.515832
 30
0.0
 10
-35.545966
 20
6.511272
 30
0.0
 10
-35.545964
 20
6.504661
 30
0.0
  0
SPLINE
  5
182
100
AcDbEntity
  8
0
 62
7
100
AcDbSpline
 70
8
 71
3
 72
8
 73
4
 74
0
 40
0
 40
0
 40
0
 40
0
 40
1
 40
1
 40
1
 40
1
 10
-35.545964
 20
6.504661
 30
0.0
 10
-35.545966
 20
6.498426
 30
0.0
 10
-35.547893
 20
6.489741
 30
0.0
 10
-35.550660
 20
6.481177
 30
0.0
  0
LWPOLYLINE
  5
183
100
AcDbEntity
  8
0
 62
7
100
AcDbPolyline
 90
2
 70
0
 10
-35.595266
 20
6.582131
 30
0.0
 10
-35.595266
 20
6.542224
 30
0.0
  0
SPLINE
  5
184
100
AcDbEntity
  8
0
 62
7
100
AcDbSpline
 70
8
 71
3
 72
8
 73
4
 74
0
 40
0
 40
0
 40
0
 40
0
 40
1
 40
1
 40
1
 40
1
 10
-35.724388
 20
6.481177
 30
0.0
 10
-35.727551
 20
6.490913
 30
0.0
 10
-35.729083
 20
6.498043
 30
0.0
 10
-35.729083
 20
6.504661
 30
0.0
  0
SPLINE
  5
185
100
AcDbEntity
  8
0
 62
7
100
AcDbSpline
 70
8
 71
3
 72
8
 73
4
 74
0
 40
0
 40
0
 40
0
 40
0
 40
1
 40
1
 40
1
 40
1
 10
-35.729083
 20
6.504661
 30
0.0
 10
-35.729083
 20
6.512444
 30
0.0
 10
-35.726018
 20
6.520332
 30
0.0
 10
-35.719692
 20
6.525787
 30
0.0
  0
SPLINE
  5
186
100
AcDbEntity
  8
0
 62
7
100
AcDbSpline
 70
8
 71
3
 72
8
 73
4
 74
0
 40
0
 40
0
 40
0
 40
0
 40
1
 40
1
 40
1
 40
1
 10
-35.719692
 20
6.525787
 30
0.0
 10
-35.714949
 20
6.529678
 30
0.0
 10
-35.696159
 20
6.534824
 30
0.0
 10
-35.663348
 20
6.542224
 30
0.0
  0
LWPOLYLINE
  5
187
100
AcDbEntity
  8
0
 62
7
100
AcDbPolyline
 90
3
 70
0
 10
-35.550660
 20
6.481177
 30
0.0
 10
-35.637523
 20
6.239370
 30
0.0
 10
-35.724388
 20
6.481177
 30
0.0
  0
SPLINE
  5
188
100
AcDbEntity
  8
0
 62
7
100
AcDbSpline
 70
8
 71
3
 72
8
 73
4
 74
0
 40
0
 40
0
 40
0
 40
0
 40
1
 40
1
 40
1
 40
1
 10
-35.663348
 20
6.582131
 30
0.0
 10
-35.725016
 20
6.577849
 30
0.0
 10
-35.781040
 20
6.575084
 30
0.0
 10
-35.827686
 20
6.575084
 30
0.0
  0
SPLINE
  5
189
100
AcDbEntity
  8
0
 62
7
100
AcDbSpline
 70
8
 71
3
 72
8
 73
4
 74
0
 40
0
 40
0
 40
0
 40
0
 40
1
 40
1
 40
1
 40
1
 10
-35.827686
 20
6.575084
 30
0.0
 10
-35.873541
 20
6.575084
 30
0.0
 10
-35.927983
 20
6.577849
 30
0.0
 10
-35.992023
 20
6.582131
 30
0.0
  0
LWPOLYLINE
  5
18a
100
AcDbEntity
  8
0
 62
7
100
AcDbPolyline
 90
2
 70
0
 10
-35.663348
 20
6.542224
 30
0.0
 10
-35.663348
 20
6.582131
 30
0.0
  0
SPLINE
  5
18b
100
AcDbEntity
  8
0
 62
7
100
AcDbSpline
 70
8
 71
3
 72
8
 73
4
 74
0
 40
0
 40
0
 40
0
 40
0
 40
1
 40
1
 40
1
 40
1
 10
-35.992023
 20
6.542224
 30
0.0
 10
-35.958422
 20
6.529370
 30
0.0
 10
-35.938297
 20
6.519694
 30
0.0
 10
-35.930983
 20
6.514052
 30
0.0
  0
SPLINE
  5
18c
100
AcDbEntity
  8
0
 62
7
100
AcDbSpline
 70
8
 71
3
 72
8
 73
4
 74
0
 40
0
 40
0
 40
0
 40
0
 40
1
 40
1
 40
1
 40
1
 10
-35.930983
 20
6.514052
 30
0.0
 10
-35.923671
 20
6.508403
 30
0.0
 10
-35.915018
 20
6.498719
 30
0.0
 10
-35.907507
 20
6.485880
 30
0.0
  0
LWPOLYLINE
  5
18d
100
AcDbEntity
  8
0
 62
7
100
AcDbPolyline
 90
2
 70
0
 10
-35.992023
 20
6.582131
 30
0.0
 10
-35.992023
 20
6.542224
 30
0.0
  0
SPLINE
  5
18e
100
AcDbEntity
  8
0
 62
7
100
AcDbSpline
 70
8
 71
3
 72
8
 73
4
 74
0
 40
0
 40
0
 40
0
 40
0
 40
1
 40
1
 40
1
 40
1
 10
-36.179837
 20
6.056251
 30
0.0
 10
-36.164111
 20
6.066618
 30
0.0
 10
-36.150970
 20
6.079991
 30
0.0
 10
-36.137579
 20
6.093814
 30
0.0
  0
SPLINE
  5
18f
100
AcDbEntity
  8
0
 62
7
100
AcDbSpline
 70
8
 71
3
 72
8
 73
4
 74
0
 40
0
 40
0
 40
0
 40
0
 40
1
 40
1
 40
1
 40
1
 10
-36.137579
 20
6.093814
 30
0.0
 10
-36.084016
 20
6.149091
 30
0.0
 10
-36.055411
 20
6.226576
 30
0.0
 10
-36.055410
 20
6.326238
 30
0.0
  0
SPLINE
  5
190
100
AcDbEntity
  8
0
 62
7
100
AcDbSpline
 70
8
 71
3
 72
8
 73
4
 74
0
 40
0
 40
0
 40
0
 40
0
 40
1
 40
1
 40
1
 40
1
 10
-36.055410
 20
6.326238
 30
0.0
 10
-36.055411
 20
6.412655
 30
0.0
 10
-36.082482
 20
6.478886
 30
0.0
 10
-36.132883
 20
6.528131
 30
0.0
  0
SPLINE
  5
191
100
AcDbEntity
  8
0
 62
7
100
AcDbSpline
 70
8
 71
3
 72
8
 73
4
 74
0
 40
0
 40
0
 40
0
 40
0
 40
1
 40
1
 40
1
 40
1
 10
-36.132883
 20
6.528131
 30
0.0
 10
-36.183286
 20
6.577383
 30
0.0
 10
-36.252488
 20
6.603256
 30
0.0
 10
-36.341827
 20
6.603256
 30
0.0
  0
SPLINE
  5
192
100
AcDbEntity
  8
0
 62
7
100
AcDbSpline
 70
8
 71
3
 72
8
 73
4
 74
0
 40
0
 40
0
 40
0
 40
0
 40
1
 40
1
 40
1
 40
1
 10
-36.341827
 20
6.603256
 30
0.0
 10
-36.431957
 20
6.603256
 30
0.0
 10
-36.503459
 20
6.576579
 30
0.0
 10
-36.557813
 20
6.523443
 30
0.0
  0
SPLINE
  5
193
100
AcDbEntity
  8
0
 62
7
100
AcDbSpline
 70
8
 71
3
 72
8
 73
4
 74
0
 40
0
 40
0
 40
0
 40
0
 40
1
 40
1
 40
1
 40
1
 10
-36.557813
 20
6.523443
 30
0.0
 10
-36.612168
 20
6.470299
 30
0.0
 10
-36.639982
 20
6.400920
 30
0.0
 10
-36.639982
 20
6.314496
 30
0.0
  0
SPLINE
  5
194
100
AcDbEntity
  8
0
 62
7
100
AcDbSpline
 70
8
 71
3
 72
8
 73
4
 74
0
 40
0
 40
0
 40
0
 40
0
 40
1
 40
1
 40
1
 40
1
 10
-36.639982
 20
6.314496
 30
0.0
 10
-36.639982
 20
6.214834
 30
0.0
 10
-36.614467
 20
6.138160
 30
0.0
 10
-36.564857
 20
6.086767
 30
0.0
  0
SPLINE
  5
195
100
AcDbEntity
  8
0
 62
7
100
AcDbSpline
 70
8
 71
3
 72
8
 73
4
 74
0
 40
0
 40
0
 40
0
 40
0
 40
1
 40
1
 40
1
 40
1
 10
-36.564857
 20
6.086767
 30
0.0
 10
-36.553247
 20
6.074747
 30
0.0
 10
-36.541209
 20
6.065461
 30
0.0
 10
-36.527293
 20
6.056251
 30
0.0
  0
LWPOLYLINE
  5
196
100
AcDbEntity
  8
0
 62
7
100
AcDbPolyline
 90
4
 70
0
 10
-35.907507
 20
6.485880
 30
0.0
 10
-35.834729
 20
6.314496
 30
0.0
 10
-35.726736
 20
6.056251
 30
0.0
 10
-36.179837
 20
6.056251
 30
0.0
  0
SPLINE
  5
197
100
AcDbEntity
  8
0
 62
7
100
AcDbSpline
 70
8
 71
3
 72
8
 73
4
 74
0
 40
0
 40
0
 40
0
 40
0
 40
1
 40
1
 40
1
 40
1
 10
-36.773800
 20
6.056251
 30
0.0
 10
-36.751673
 20
6.129446
 30
0.0
 10
-36.728741
 20
6.197893
 30
0.0
 10
-36.705717
 20
6.260503
 30
0.0
  0
LWPOLYLINE
  5
198
100
AcDbEntity
  8
0
 62
7
100
AcDbPolyline
 90
2
 70
0
 10
-36.527293
 20
6.056251
 30
0.0
 10
-36.773800
 20
6.056251
 30
0.0
  0
SPLINE
  5
199
100
AcDbEntity
  8
0
 62
7
100
AcDbSpline
 70
8
 71
3
 72
8
 73
4
 74
0
 40
0
 40
0
 40
0
 40
0
 40
1
 40
1
 40
1
 40
1
 10
-36.757367
 20
6.260503
 30
0.0
 10
-36.795316
 20
6.198208
 30
0.0
 10
-36.822167
 20
6.157896
 30
0.0
 10
-36.837187
 20
6.140767
 30
0.0
  0
SPLINE
  5
19a
100
AcDbEntity
  8
0
 62
7
100
AcDbSpline
 70
8
 71
3
 72
8
 73
4
 74
0
 40
0
 40
0
 40
0
 40
0
 40
1
 40
1
 40
1
 40
1
 10
-36.837187
 20
6.140767
 30
0.0
 10
-36.852210
 20
6.123639
 30
0.0
 10
-36.867933
 20
6.112167
 30
0.0
 10
-36.884141
 20
6.105548
 30
0.0
  0
SPLINE
  5
19b
100
AcDbEntity
  8
0
 62
7
100
AcDbSpline
 70
8
 71
3
 72
8
 73
4
 74
0
 40
0
 40
0
 40
0
 40
0
 40
1
 40
1
 40
1
 40
1
 10
-36.884141
 20
6.105548
 30
0.0
 10
-36.896001
 20
6.100883
 30
0.0
 10
-36.921341
 20
6.098509
 30
0.0
 10
-36.956919
 20
6.098509
 30
0.0
  0
LWPOLYLINE
  5
19c
100
AcDbEntity
  8
0
 62
7
100
AcDbPolyline
 90
2
 70
0
 10
-36.705717
 20
6.260503
 30
0.0
 10
-36.757367
 20
6.260503
 30
0.0
  0
SPLINE
  5
19d
100
AcDbEntity
  8
0
 62
7
100
AcDbSpline
 70
8
 71
3
 72
8
 73
4
 74
0
 40
0
 40
0
 40
0
 40
0
 40
1
 40
1
 40
1
 40
1
 10
-37.170558
 20
6.734726
 30
0.0
 10
-37.170558
 20
6.761982
 30
0.0
 10
-37.163636
 20
6.779757
 30
0.0
 10
-37.151776
 20
6.786383
 30
0.0
  0
SPLINE
  5
19e
100
AcDbEntity
  8
0
 62
7
100
AcDbSpline
 70
8
 71
3
 72
8
 73
4
 74
0
 40
0
 40
0
 40
0
 40
0
 40
1
 40
1
 40
1
 40
1
 10
-37.151776
 20
6.786383
 30
0.0
 10
-37.144661
 20
6.789884
 30
0.0
 10
-37.101739
 20
6.797787
 30
0.0
 10
-37.020307
 20
6.809852
 30
0.0
  0
LWPOLYLINE
  5
19f
100
AcDbEntity
  8
0
 62
7
100
AcDbPolyline
 90
4
 70
0
 10
-36.956919
 20
6.098509
 30
0.0
 10
-37.172906
 20
6.098509
 30
0.0
 10
-37.172906
 20
6.584475
 30
0.0
 10
-37.170558
 20
6.734726
 30
0.0
  0
SPLINE
  5
1a0
100
AcDbEntity
  8
0
 62
7
100
AcDbSpline
 70
8
 71
3
 72
8
 73
4
 74
0
 40
0
 40
0
 40
0
 40
0
 40
1
 40
1
 40
1
 40
1
 10
-37.020307
 20
6.852118
 30
0.0
 10
-37.116366
 20
6.847828
 30
0.0
 10
-37.192663
 20
6.845071
 30
0.0
 10
-37.250379
 20
6.845071
 30
0.0
  0
SPLINE
  5
1a1
100
AcDbEntity
  8
0
 62
7
100
AcDbSpline
 70
8
 71
3
 72
8
 73
4
 74
0
 40
0
 40
0
 40
0
 40
0
 40
1
 40
1
 40
1
 40
1
 10
-37.250379
 20
6.845071
 30
0.0
 10
-37.306908
 20
6.845071
 30
0.0
 10
-37.386296
 20
6.847828
 30
0.0
 10
-37.487494
 20
6.852118
 30
0.0
  0
LWPOLYLINE
  5
1a2
100
AcDbEntity
  8
0
 62
7
100
AcDbPolyline
 90
2
 70
0
 10
-37.020307
 20
6.809852
 30
0.0
 10
-37.020307
 20
6.852118
 30
0.0
  0
SPLINE
  5
1a3
100
AcDbEntity
  8
0
 62
7
100
AcDbSpline
 70
8
 71
3
 72
8
 73
4
 74
0
 40
0
 40
0
 40
0
 40
0
 40
1
 40
1
 40
1
 40
1
 10
-37.487494
 20
6.809852
 30
0.0
 10
-37.422664
 20
6.797396
 30
0.0
 10
-37.384862
 20
6.787727
 30
0.0
 10
-37.377153
 20
6.784031
 30
0.0
  0
SPLINE
  5
1a4
100
AcDbEntity
  8
0
 62
7
100
AcDbSpline
 70
8
 71
3
 72
8
 73
4
 74
0
 40
0
 40
0
 40
0
 40
0
 40
1
 40
1
 40
1
 40
1
 10
-37.377153
 20
6.784031
 30
0.0
 10
-37.369446
 20
6.780335
 30
0.0
 10
-37.363882
 20
6.774595
 30
0.0
 10
-37.360720
 20
6.765250
 30
0.0
  0
SPLINE
  5
1a5
100
AcDbEntity
  8
0
 62
7
100
AcDbSpline
 70
8
 71
3
 72
8
 73
4
 74
0
 40
0
 40
0
 40
0
 40
0
 40
1
 40
1
 40
1
 40
1
 10
-37.360720
 20
6.765250
 30
0.0
 10
-37.356371
 20
6.752794
 30
0.0
 10
-37.356023
 20
6.714848
 30
0.0
 10
-37.356023
 20
6.652561
 30
0.0
  0
LWPOLYLINE
  5
1a6
100
AcDbEntity
  8
0
 62
7
100
AcDbPolyline
 90
2
 70
0
 10
-37.487494
 20
6.852118
 30
0.0
 10
-37.487494
 20
6.809852
 30
0.0
  0
SPLINE
  5
1a7
100
AcDbEntity
  8
0
 62
7
100
AcDbSpline
 70
8
 71
3
 72
8
 73
4
 74
0
 40
0
 40
0
 40
0
 40
0
 40
1
 40
1
 40
1
 40
1
 10
-37.353677
 20
6.403707
 30
0.0
 10
-37.353677
 20
6.230858
 30
0.0
 10
-37.354243
 20
6.138153
 30
0.0
 10
-37.356023
 20
6.124330
 30
0.0
  0
SPLINE
  5
1a8
100
AcDbEntity
  8
0
 62
7
100
AcDbSpline
 70
8
 71
3
 72
8
 73
4
 74
0
 40
0
 40
0
 40
0
 40
0
 40
1
 40
1
 40
1
 40
1
 10
-37.356023
 20
6.124330
 30
0.0
 10
-37.357803
 20
6.110514
 30
0.0
 10
-37.362994
 20
6.101221
 30
0.0
 10
-37.370110
 20
6.096158
 30
0.0
  0
SPLINE
  5
1a9
100
AcDbEntity
  8
0
 62
7
100
AcDbSpline
 70
8
 71
3
 72
8
 73
4
 74
0
 40
0
 40
0
 40
0
 40
0
 40
1
 40
1
 40
1
 40
1
 10
-37.370110
 20
6.096158
 30
0.0
 10
-37.377227
 20
6.091102
 30
0.0
 10
-37.417130
 20
6.081613
 30
0.0
 10
-37.487494
 20
6.067986
 30
0.0
  0
LWPOLYLINE
  5
1aa
100
AcDbEntity
  8
0
 62
7
100
AcDbPolyline
 90
3
 70
0
 10
-37.356023
 20
6.652561
 30
0.0
 10
-37.356023
 20
6.614998
 30
0.0
 10
-37.353677
 20
6.403707
 30
0.0
  0
SPLINE
  5
1ab
100
AcDbEntity
  8
0
 62
7
100
AcDbSpline
 70
8
 71
3
 72
8
 73
4
 74
0
 40
0
 40
0
 40
0
 40
0
 40
1
 40
1
 40
1
 40
1
 10
-37.813821
 20
6.067986
 30
0.0
 10
-37.823704
 20
6.069548
 30
0.0
 10
-37.830208
 20
6.069556
 30
0.0
 10
-37.834951
 20
6.070337
 30
0.0
  0
SPLINE
  5
1ac
100
AcDbEntity
  8
0
 62
7
100
AcDbSpline
 70
8
 71
3
 72
8
 73
4
 74
0
 40
0
 40
0
 40
0
 40
0
 40
1
 40
1
 40
1
 40
1
 10
-37.834951
 20
6.070337
 30
0.0
 10
-37.879226
 20
6.077346
 30
0.0
 10
-37.909932
 20
6.084070
 30
0.0
 10
-37.924162
 20
6.091470
 30
0.0
  0
SPLINE
  5
1ad
100
AcDbEntity
  8
0
 62
7
100
AcDbSpline
 70
8
 71
3
 72
8
 73
4
 74
0
 40
0
 40
0
 40
0
 40
0
 40
1
 40
1
 40
1
 40
1
 10
-37.924162
 20
6.091470
 30
0.0
 10
-37.932463
 20
6.095752
 30
0.0
 10
-37.937237
 20
6.101679
 30
0.0
 10
-37.940597
 20
6.110251
 30
0.0
  0
SPLINE
  5
1ae
100
AcDbEntity
  8
0
 62
7
100
AcDbSpline
 70
8
 71
3
 72
8
 73
4
 74
0
 40
0
 40
0
 40
0
 40
0
 40
1
 40
1
 40
1
 40
1
 10
-37.940597
 20
6.110251
 30
0.0
 10
-37.943957
 20
6.118816
 30
0.0
 10
-37.945291
 20
6.140151
 30
0.0
 10
-37.945291
 20
6.173635
 30
0.0
  0
LWPOLYLINE
  5
1af
100
AcDbEntity
  8
0
 62
7
100
AcDbPolyline
 90
4
 70
0
 10
-37.487494
 20
6.067986
 30
0.0
 10
-37.487494
 20
6.056251
 30
0.0
 10
-37.813821
 20
6.056251
 30
0.0
 10
-37.813821
 20
6.067986
 30
0.0
  0
SPLINE
  5
1b0
100
AcDbEntity
  8
0
 62
7
100
AcDbSpline
 70
8
 71
3
 72
8
 73
4
 74
0
 40
0
 40
0
 40
0
 40
0
 40
1
 40
1
 40
1
 40
1
 10
-37.945291
 20
6.727687
 30
0.0
 10
-37.945291
 20
6.754544
 30
0.0
 10
-37.941682
 20
6.774686
 30
0.0
 10
-37.931206
 20
6.784031
 30
0.0
  0
SPLINE
  5
1b1
100
AcDbEntity
  8
0
 62
7
100
AcDbSpline
 70
8
 71
3
 72
8
 73
4
 74
0
 40
0
 40
0
 40
0
 40
0
 40
1
 40
1
 40
1
 40
1
 10
-37.931206
 20
6.784031
 30
0.0
 10
-37.920730
 20
6.793377
 30
0.0
 10
-37.887527
 20
6.798929
 30
0.0
 10
-37.834951
 20
6.805164
 30
0.0
  0
LWPOLYLINE
  5
1b2
100
AcDbEntity
  8
0
 62
7
100
AcDbPolyline
 90
5
 70
0
 10
-37.945291
 20
6.173635
 30
0.0
 10
-37.947639
 20
6.288675
 30
0.0
 10
-37.947639
 20
6.511701
 30
0.0
 10
-37.945291
 20
6.706554
 30
0.0
 10
-37.945291
 20
6.727687
 30
0.0
  0
SPLINE
  5
1b3
100
AcDbEntity
  8
0
 62
7
100
AcDbSpline
 70
8
 71
3
 72
8
 73
4
 74
0
 40
0
 40
0
 40
0
 40
0
 40
1
 40
1
 40
1
 40
1
 10
-37.813821
 20
6.852118
 30
0.0
 10
-37.905138
 20
6.847828
 30
0.0
 10
-37.977999
 20
6.845071
 30
0.0
 10
-38.032156
 20
6.845071
 30
0.0
  0
SPLINE
  5
1b4
100
AcDbEntity
  8
0
 62
7
100
AcDbSpline
 70
8
 71
3
 72
8
 73
4
 74
0
 40
0
 40
0
 40
0
 40
0
 40
1
 40
1
 40
1
 40
1
 10
-38.032156
 20
6.845071
 30
0.0
 10
-38.082754
 20
6.845071
 30
0.0
 10
-38.158288
 20
6.847828
 30
0.0
 10
-38.259880
 20
6.852118
 30
0.0
  0
LWPOLYLINE
  5
1b5
100
AcDbEntity
  8
0
 62
7
100
AcDbPolyline
 90
3
 70
0
 10
-37.834951
 20
6.805164
 30
0.0
 10
-37.813821
 20
6.809852
 30
0.0
 10
-37.813821
 20
6.852118
 30
0.0
  0
SPLINE
  5
1b6
100
AcDbEntity
  8
0
 62
7
100
AcDbSpline
 70
8
 71
3
 72
8
 73
4
 74
0
 40
0
 40
0
 40
0
 40
0
 40
1
 40
1
 40
1
 40
1
 10
-38.259880
 20
6.809852
 30
0.0
 10
-38.248812
 20
6.807516
 30
0.0
 10
-38.239986
 20
6.803977
 30
0.0
 10
-38.234056
 20
6.802813
 30
0.0
  0
SPLINE
  5
1b7
100
AcDbEntity
  8
0
 62
7
100
AcDbSpline
 70
8
 71
3
 72
8
 73
4
 74
0
 40
0
 40
0
 40
0
 40
0
 40
1
 40
1
 40
1
 40
1
 10
-38.234056
 20
6.802813
 30
0.0
 10
-38.181876
 20
6.794248
 30
0.0
 10
-38.151589
 20
6.785939
 30
0.0
 10
-38.142497
 20
6.776992
 30
0.0
  0
SPLINE
  5
1b8
100
AcDbEntity
  8
0
 62
7
100
AcDbSpline
 70
8
 71
3
 72
8
 73
4
 74
0
 40
0
 40
0
 40
0
 40
0
 40
1
 40
1
 40
1
 40
1
 10
-38.142497
 20
6.776992
 30
0.0
 10
-38.133406
 20
6.768037
 30
0.0
 10
-38.128410
 20
6.749436
 30
0.0
 10
-38.128410
 20
6.718296
 30
0.0
  0
LWPOLYLINE
  5
1b9
100
AcDbEntity
  8
0
 62
7
100
AcDbPolyline
 90
2
 70
0
 10
-38.259880
 20
6.852118
 30
0.0
 10
-38.259880
 20
6.809852
 30
0.0
  0
SPLINE
  5
1ba
100
AcDbEntity
  8
0
 62
7
100
AcDbSpline
 70
8
 71
3
 72
8
 73
4
 74
0
 40
0
 40
0
 40
0
 40
0
 40
1
 40
1
 40
1
 40
1
 10
-38.128410
 20
6.488224
 30
0.0
 10
-38.128410
 20
6.332894
 30
0.0
 10
-38.127621
 20
6.221828
 30
0.0
 10
-38.128410
 20
6.157205
 30
0.0
  0
SPLINE
  5
1bb
100
AcDbEntity
  8
0
 62
7
100
AcDbSpline
 70
8
 71
3
 72
8
 73
4
 74
0
 40
0
 40
0
 40
0
 40
0
 40
1
 40
1
 40
1
 40
1
 10
-38.128410
 20
6.157205
 30
0.0
 10
-38.128799
 20
6.129559
 30
0.0
 10
-38.131872
 20
6.112159
 30
0.0
 10
-38.137801
 20
6.103204
 30
0.0
  0
SPLINE
  5
1bc
100
AcDbEntity
  8
0
 62
7
100
AcDbSpline
 70
8
 71
3
 72
8
 73
4
 74
0
 40
0
 40
0
 40
0
 40
0
 40
1
 40
1
 40
1
 40
1
 10
-38.137801
 20
6.103204
 30
0.0
 10
-38.142544
 20
6.096586
 30
0.0
 10
-38.149839
 20
6.090275
 30
0.0
 10
-38.158930
 20
6.086767
 30
0.0
  0
SPLINE
  5
1bd
100
AcDbEntity
  8
0
 62
7
100
AcDbSpline
 70
8
 71
3
 72
8
 73
4
 74
0
 40
0
 40
0
 40
0
 40
0
 40
1
 40
1
 40
1
 40
1
 10
-38.158930
 20
6.086767
 30
0.0
 10
-38.164860
 20
6.084438
 30
0.0
 10
-38.198213
 20
6.079277
 30
0.0
 10
-38.259880
 20
6.067986
 30
0.0
  0
LWPOLYLINE
  5
1be
100
AcDbEntity
  8
0
 62
7
100
AcDbPolyline
 90
3
 70
0
 10
-38.128410
 20
6.718296
 30
0.0
 10
-38.128410
 20
6.699515
 30
0.0
 10
-38.128410
 20
6.488224
 30
0.0
  0
SPLINE
  5
1bf
100
AcDbEntity
  8
0
 62
7
100
AcDbSpline
 70
8
 71
3
 72
8
 73
4
 74
0
 40
0
 40
0
 40
0
 40
0
 40
1
 40
1
 40
1
 40
1
 10
-40.086374
 20
6.056251
 30
0.0
 10
-39.335523
 20
7.171507
 30
0.0
 10
-38.097187
 20
7.922907
 30
0.0
 10
-36.682240
 20
8.068207
 30
0.0
  0
SPLINE
  5
1c0
100
AcDbEntity
  8
0
 62
7
100
AcDbSpline
 70
8
 71
3
 72
8
 73
4
 74
0
 40
0
 40
0
 40
0
 40
0
 40
1
 40
1
 40
1
 40
1
 10
-36.682240
 20
8.068207
 30
0.0
 10
-36.030139
 20
8.135242
 30
0.0
 10
-35.290310
 20
8.057803
 30
0.0
 10
-34.686714
 20
7.861612
 30
0.0
  0
SPLINE
  5
1c1
100
AcDbEntity
  8
0
 62
7
100
AcDbSpline
 70
8
 71
3
 72
8
 73
4
 74
0
 40
0
 40
0
 40
0
 40
0
 40
1
 40
1
 40
1
 40
1
 10
-34.686714
 20
7.861612
 30
0.0
 10
-34.460016
 20
7.787989
 30
0.0
 10
-33.983139
 20
7.575811
 30
0.0
 10
-33.886156
 20
7.504765
 30
0.0
  0
SPLINE
  5
1c2
100
AcDbEntity
  8
0
 62
7
100
AcDbSpline
 70
8
 71
3
 72
8
 73
4
 74
0
 40
0
 40
0
 40
0
 40
0
 40
1
 40
1
 40
1
 40
1
 10
-33.886156
 20
7.504765
 30
0.0
 10
-33.770514
 20
7.420113
 30
0.0
 10
-34.010722
 20
7.644258
 30
0.0
 10
-34.210136
 20
7.807619
 30
0.0
  0
SPLINE
  5
1c3
100
AcDbEntity
  8
0
 62
7
100
AcDbSpline
 70
8
 71
3
 72
8
 73
4
 74
0
 40
0
 40
0
 40
0
 40
0
 40
1
 40
1
 40
1
 40
1
 10
-34.210136
 20
7.807619
 30
0.0
 10
-35.059810
 20
8.503696
 30
0.0
 10
-36.126034
 20
8.961895
 30
0.0
 10
-37.210468
 20
9.096498
 30
0.0
  0
SPLINE
  5
1c4
100
AcDbEntity
  8
0
 62
7
100
AcDbSpline
 70
8
 71
3
 72
8
 73
4
 74
0
 40
0
 40
0
 40
0
 40
0
 40
1
 40
1
 40
1
 40
1
 10
-37.210468
 20
9.096498
 30
0.0
 10
-37.378903
 20
9.117353
 30
0.0
 10
-37.605987
 20
9.127998
 30
0.0
 10
-37.846689
 20
9.129358
 30
0.0
  0
LWPOLYLINE
  5
1c5
100
AcDbEntity
  8
0
 62
7
100
AcDbPolyline
 90
3
 70
0
 10
-38.259880
 20
6.067986
 30
0.0
 10
-38.259880
 20
6.056251
 30
0.0
 10
-40.086374
 20
6.056251
 30
0.0
  0
LWPOLYLINE
  5
1c6
100
AcDbEntity
  8
0
 62
7
100
AcDbPolyline
 90
2
 70
0
 10
-37.846689
 20
9.129358
 30
0.0
 10
-37.846689
 20
9.129358
 30
0.0
  0
LWPOLYLINE
  5
1c7
100
AcDbEntity
  8
0
 62
7
100
AcDbPolyline
 90
12
 70
0
 10
-39.029919
 20
8.852340
 30
0.0
 10
-38.637857
 20
8.678604
 30
0.0
 10
-38.335006
 20
8.852340
 30
0.0
 10
-38.306834
 20
8.486102
 30
0.0
 10
-37.957030
 20
8.227850
 30
0.0
 10
-38.330311
 20
8.173857
 30
0.0
 10
-38.417174
 20
7.842830
 30
0.0
 10
-38.677768
 20
8.173857
 30
0.0
 10
-39.079220
 20
8.227850
 30
0.0
 10
-38.867929
 20
8.486102
 30
0.0
 10
-39.029919
 20
8.852340
 30
0.0
 10
-39.029919
 20
8.852340
 30
0.0
  0
LWPOLYLINE
  5
1c8
100
AcDbEntity
  8
0
 62
7
100
AcDbPolyline
 90
12
 70
0
 10
-37.142386
 20
8.756081
 30
0.0
 10
-37.050827
 20
8.648088
 30
0.0
 10
-36.893531
 20
8.648088
 30
0.0
 10
-36.987439
 20
8.542446
 30
0.0
 10
-36.938138
 20
8.415664
 30
0.0
 10
-37.086041
 20
8.457930
 30
0.0
 10
-37.212816
 20
8.378101
 30
0.0
 10
-37.210468
 20
8.511922
 30
0.0
 10
-37.339590
 20
8.589400
 30
0.0
 10
-37.189339
 20
8.629306
 30
0.0
 10
-37.142386
 20
8.756081
 30
0.0
 10
-37.142386
 20
8.756081
 30
0.0
  0
SPLINE
  5
1c9
100
AcDbEntity
  8
0
 62
7
100
AcDbSpline
 70
8
 71
3
 72
8
 73
4
 74
0
 40
0
 40
0
 40
0
 40
0
 40
1
 40
1
 40
1
 40
1
 10
-36.353566
 20
6.546912
 30
0.0
 10
-36.320756
 20
6.546912
 30
0.0
 10
-36.296623
 20
6.532683
 30
0.0
 10
-36.278440
 20
6.504661
 30
0.0
  0
SPLINE
  5
1ca
100
AcDbEntity
  8
0
 62
7
100
AcDbSpline
 70
8
 71
3
 72
8
 73
4
 74
0
 40
0
 40
0
 40
0
 40
0
 40
1
 40
1
 40
1
 40
1
 10
-36.278440
 20
6.504661
 30
0.0
 10
-36.248792
 20
6.459886
 30
0.0
 10
-36.233834
 20
6.383213
 30
0.0
 10
-36.233834
 20
6.276933
 30
0.0
  0
SPLINE
  5
1cb
100
AcDbEntity
  8
0
 62
7
100
AcDbSpline
 70
8
 71
3
 72
8
 73
4
 74
0
 40
0
 40
0
 40
0
 40
0
 40
1
 40
1
 40
1
 40
1
 10
-36.233834
 20
6.276933
 30
0.0
 10
-36.233834
 20
6.193626
 30
0.0
 10
-36.245331
 20
6.137071
 30
0.0
 10
-36.269049
 20
6.103204
 30
0.0
  0
SPLINE
  5
1cc
100
AcDbEntity
  8
0
 62
7
100
AcDbSpline
 70
8
 71
3
 72
8
 73
4
 74
0
 40
0
 40
0
 40
0
 40
0
 40
1
 40
1
 40
1
 40
1
 10
-36.269049
 20
6.103204
 30
0.0
 10
-36.285653
 20
6.079457
 30
0.0
 10
-36.309042
 20
6.065642
 30
0.0
 10
-36.339480
 20
6.065642
 30
0.0
  0
SPLINE
  5
1cd
100
AcDbEntity
  8
0
 62
7
100
AcDbSpline
 70
8
 71
3
 72
8
 73
4
 74
0
 40
0
 40
0
 40
0
 40
0
 40
1
 40
1
 40
1
 40
1
 10
-36.339480
 20
6.065642
 30
0.0
 10
-36.372686
 20
6.065642
 30
0.0
 10
-36.396817
 20
6.080261
 30
0.0
 10
-36.414606
 20
6.107900
 30
0.0
  0
SPLINE
  5
1ce
100
AcDbEntity
  8
0
 62
7
100
AcDbSpline
 70
8
 71
3
 72
8
 73
4
 74
0
 40
0
 40
0
 40
0
 40
0
 40
1
 40
1
 40
1
 40
1
 10
-36.414606
 20
6.107900
 30
0.0
 10
-36.445834
 20
6.156176
 30
0.0
 10
-36.461559
 20
6.235621
 30
0.0
 10
-36.461559
 20
6.345019
 30
0.0
  0
SPLINE
  5
1cf
100
AcDbEntity
  8
0
 62
7
100
AcDbSpline
 70
8
 71
3
 72
8
 73
4
 74
0
 40
0
 40
0
 40
0
 40
0
 40
1
 40
1
 40
1
 40
1
 10
-36.461559
 20
6.345019
 30
0.0
 10
-36.461559
 20
6.422489
 30
0.0
 10
-36.450458
 20
6.476264
 30
0.0
 10
-36.426343
 20
6.509349
 30
0.0
  0
SPLINE
  5
1d0
100
AcDbEntity
  8
0
 62
7
100
AcDbSpline
 70
8
 71
3
 72
8
 73
4
 74
0
 40
0
 40
0
 40
0
 40
0
 40
1
 40
1
 40
1
 40
1
 10
-36.426343
 20
6.509349
 30
0.0
 10
-36.408950
 20
6.533487
 30
0.0
 10
-36.384400
 20
6.546912
 30
0.0
 10
-36.353566
 20
6.546912
 30
0.0
  0
LWPOLYLINE
  5
1d1
100
AcDbEntity
  8
0
 62
7
100
AcDbPolyline
 90
12
 70
0
 10
-40.783634
 20
7.608063
 30
0.0
 10
-40.548867
 20
7.326341
 30
0.0
 10
-40.114547
 20
7.314607
 30
0.0
 10
-40.389224
 20
7.056362
 30
0.0
 10
-40.267146
 20
6.734726
 30
0.0
 10
-40.673293
 20
6.856805
 30
0.0
 10
-41.032488
 20
6.668991
 30
0.0
 10
-41.006663
 20
7.002369
 30
0.0
 10
-41.349424
 20
7.206613
 30
0.0
 10
-40.931539
 20
7.291130
 30
0.0
 10
-40.783634
 20
7.608063
 30
0.0
 10
-40.783634
 20
7.608063
 30
0.0
  0
SPLINE
  5
1d2
100
AcDbEntity
  8
0
 62
7
100
AcDbSpline
 70
8
 71
3
 72
8
 73
4
 74
0
 40
0
 40
0
 40
0
 40
0
 40
1
 40
1
 40
1
 40
1
 10
-33.247587
 20
6.546912
 30
0.0
 10
-33.214778
 20
6.546912
 30
0.0
 10
-33.188299
 20
6.532683
 30
0.0
 10
-33.170114
 20
6.504661
 30
0.0
  0
SPLINE
  5
1d3
100
AcDbEntity
  8
0
 62
7
100
AcDbSpline
 70
8
 71
3
 72
8
 73
4
 74
0
 40
0
 40
0
 40
0
 40
0
 40
1
 40
1
 40
1
 40
1
 10
-33.170114
 20
6.504661
 30
0.0
 10
-33.140467
 20
6.459886
 30
0.0
 10
-33.125509
 20
6.383213
 30
0.0
 10
-33.125508
 20
6.276933
 30
0.0
  0
SPLINE
  5
1d4
100
AcDbEntity
  8
0
 62
7
100
AcDbSpline
 70
8
 71
3
 72
8
 73
4
 74
0
 40
0
 40
0
 40
0
 40
0
 40
1
 40
1
 40
1
 40
1
 10
-33.125508
 20
6.276933
 30
0.0
 10
-33.125509
 20
6.193626
 30
0.0
 10
-33.137006
 20
6.137071
 30
0.0
 10
-33.160723
 20
6.103204
 30
0.0
  0
SPLINE
  5
1d5
100
AcDbEntity
  8
0
 62
7
100
AcDbSpline
 70
8
 71
3
 72
8
 73
4
 74
0
 40
0
 40
0
 40
0
 40
0
 40
1
 40
1
 40
1
 40
1
 10
-33.160723
 20
6.103204
 30
0.0
 10
-33.177327
 20
6.079457
 30
0.0
 10
-33.200716
 20
6.065642
 30
0.0
 10
-33.231153
 20
6.065642
 30
0.0
  0
SPLINE
  5
1d6
100
AcDbEntity
  8
0
 62
7
100
AcDbSpline
 70
8
 71
3
 72
8
 73
4
 74
0
 40
0
 40
0
 40
0
 40
0
 40
1
 40
1
 40
1
 40
1
 10
-33.231153
 20
6.065642
 30
0.0
 10
-33.264360
 20
6.065642
 30
0.0
 10
-33.290839
 20
6.080261
 30
0.0
 10
-33.308627
 20
6.107900
 30
0.0
  0
SPLINE
  5
1d7
100
AcDbEntity
  8
0
 62
7
100
AcDbSpline
 70
8
 71
3
 72
8
 73
4
 74
0
 40
0
 40
0
 40
0
 40
0
 40
1
 40
1
 40
1
 40
1
 10
-33.308627
 20
6.107900
 30
0.0
 10
-33.339856
 20
6.156176
 30
0.0
 10
-33.355581
 20
6.235621
 30
0.0
 10
-33.355581
 20
6.345019
 30
0.0
  0
SPLINE
  5
1d8
100
AcDbEntity
  8
0
 62
7
100
AcDbSpline
 70
8
 71
3
 72
8
 73
4
 74
0
 40
0
 40
0
 40
0
 40
0
 40
1
 40
1
 40
1
 40
1
 10
-33.355581
 20
6.345019
 30
0.0
 10
-33.355581
 20
6.422489
 30
0.0
 10
-33.344480
 20
6.476264
 30
0.0
 10
-33.320366
 20
6.509349
 30
0.0
  0
SPLINE
  5
1d9
100
AcDbEntity
  8
0
 62
7
100
AcDbSpline
 70
8
 71
3
 72
8
 73
4
 74
0
 40
0
 40
0
 40
0
 40
0
 40
1
 40
1
 40
1
 40
1
 10
-33.320366
 20
6.509349
 30
0.0
 10
-33.302972
 20
6.533487
 30
0.0
 10
-33.278421
 20
6.546912
 30
0.0
 10
-33.247587
 20
6.546912
 30
0.0
  0
LWPOLYLINE
  5
1da
100
AcDbEntity
  8
0
 62
7
100
AcDbPolyline
 90
2
 70
0
 10
-36.353566
 20
6.546912
 30
0.0
 10
-36.353566
 20
6.546912
 30
0.0
  0
SPLINE
  5
1db
100
AcDbEntity
  8
0
 62
7
100
AcDbSpline
 70
8
 71
3
 72
8
 73
4
 74
0
 40
0
 40
0
 40
0
 40
0
 40
1
 40
1
 40
1
 40
1
 10
-35.069386
 20
6.539873
 30
0.0
 10
-35.044086
 20
6.539873
 30
0.0
 10
-35.025122
 20
6.530399
 30
0.0
 10
-35.010693
 20
6.514052
 30
0.0
  0
SPLINE
  5
1dc
100
AcDbEntity
  8
0
 62
7
100
AcDbSpline
 70
8
 71
3
 72
8
 73
4
 74
0
 40
0
 40
0
 40
0
 40
0
 40
1
 40
1
 40
1
 40
1
 10
-35.010693
 20
6.514052
 30
0.0
 10
-34.996264
 20
6.497697
 30
0.0
 10
-34.987242
 20
6.464890
 30
0.0
 10
-34.984869
 20
6.415442
 30
0.0
  0
SPLINE
  5
1dd
100
AcDbEntity
  8
0
 62
7
100
AcDbSpline
 70
8
 71
3
 72
8
 73
4
 74
0
 40
0
 40
0
 40
0
 40
0
 40
1
 40
1
 40
1
 40
1
 10
-34.984869
 20
6.415442
 30
0.0
 10
-35.033888
 20
6.412332
 30
0.0
 10
-35.075300
 20
6.410747
 30
0.0
 10
-35.109296
 20
6.410754
 30
0.0
  0
SPLINE
  5
1de
100
AcDbEntity
  8
0
 62
7
100
AcDbSpline
 70
8
 71
3
 72
8
 73
4
 74
0
 40
0
 40
0
 40
0
 40
0
 40
1
 40
1
 40
1
 40
1
 10
-35.109296
 20
6.410754
 30
0.0
 10
-35.123528
 20
6.410747
 30
0.0
 10
-35.143503
 20
6.412317
 30
0.0
 10
-35.165640
 20
6.413098
 30
0.0
  0
SPLINE
  5
1df
100
AcDbEntity
  8
0
 62
7
100
AcDbSpline
 70
8
 71
3
 72
8
 73
4
 74
0
 40
0
 40
0
 40
0
 40
0
 40
1
 40
1
 40
1
 40
1
 10
-35.165640
 20
6.413098
 30
0.0
 10
-35.162083
 20
6.458647
 30
0.0
 10
-35.150167
 20
6.489884
 30
0.0
 10
-35.132773
 20
6.509349
 30
0.0
  0
SPLINE
  5
1e0
100
AcDbEntity
  8
0
 62
7
100
AcDbSpline
 70
8
 71
3
 72
8
 73
4
 74
0
 40
0
 40
0
 40
0
 40
0
 40
1
 40
1
 40
1
 40
1
 10
-35.132773
 20
6.509349
 30
0.0
 10
-35.115380
 20
6.528814
 30
0.0
 10
-35.093894
 20
6.539873
 30
0.0
 10
-35.069386
 20
6.539873
 30
0.0
  0
LWPOLYLINE
  5
1e1
100
AcDbEntity
  8
0
 62
7
100
AcDbPolyline
 90
2
 70
0
 10
-33.247587
 20
6.546912
 30
0.0
 10
-33.247587
 20
6.546912
 30
0.0
  0
LWPOLYLINE
  5
1e2
100
AcDbEntity
  8
0
 62
7
100
AcDbPolyline
 90
2
 70
0
 10
-35.069386
 20
6.539873
 30
0.0
 10
-35.069386
 20
6.539873
 30
0.0
  0
SPLINE
  5
1e3
100
AcDbEntity
  8
0
 62
7
100
AcDbSpline
 70
8
 71
3
 72
8
 73
4
 74
0
 40
0
 40
0
 40
0
 40
0
 40
1
 40
1
 40
1
 40
1
 10
-32.315559
 20
6.119642
 30
0.0
 10
-32.320240
 20
6.122670
 30
0.0
 10
-32.325157
 20
6.126185
 30
0.0
 10
-32.327298
 20
6.131377
 30
0.0
  0
SPLINE
  5
1e4
100
AcDbEntity
  8
0
 62
7
100
AcDbSpline
 70
8
 71
3
 72
8
 73
4
 74
0
 40
0
 40
0
 40
0
 40
0
 40
1
 40
1
 40
1
 40
1
 10
-32.327298
 20
6.131377
 30
0.0
 10
-32.331251
 20
6.140332
 30
0.0
 10
-32.334341
 20
6.180246
 30
0.0
 10
-32.334341
 20
6.248761
 30
0.0
  0
SPLINE
  5
1e5
100
AcDbEntity
  8
0
 62
7
100
AcDbSpline
 70
8
 71
3
 72
8
 73
4
 74
0
 40
0
 40
0
 40
0
 40
0
 40
1
 40
1
 40
1
 40
1
 10
-32.334341
 20
6.248761
 30
0.0
 10
-32.334341
 20
6.307787
 30
0.0
 10
-32.330657
 20
6.338025
 30
0.0
 10
-32.329646
 20
6.380231
 30
0.0
  0
LWPOLYLINE
  5
1e6
100
AcDbEntity
  8
0
 62
7
100
AcDbPolyline
 90
3
 70
0
 10
-32.329646
 20
6.380231
 30
0.0
 10
-32.256867
 20
6.222940
 30
0.0
 10
-32.315559
 20
6.119642
 30
0.0
  0
SPLINE
  5
1e7
100
AcDbEntity
  8
0
 62
7
100
AcDbSpline
 70
8
 71
3
 72
8
 73
4
 74
0
 40
0
 40
0
 40
0
 40
0
 40
1
 40
1
 40
1
 40
1
 10
-32.493982
 20
6.114939
 30
0.0
 10
-32.495626
 20
6.094715
 30
0.0
 10
-32.498246
 20
6.075355
 30
0.0
 10
-32.501026
 20
6.056251
 30
0.0
  0
LWPOLYLINE
  5
1e8
100
AcDbEntity
  8
0
 62
7
100
AcDbPolyline
 90
2
 70
0
 10
-32.329646
 20
6.380231
 30
0.0
 10
-32.329646
 20
6.380231
 30
0.0
  0
SPLINE
  5
1e9
100
AcDbEntity
  8
0
 62
7
100
AcDbSpline
 70
8
 71
3
 72
8
 73
4
 74
0
 40
0
 40
0
 40
0
 40
0
 40
1
 40
1
 40
1
 40
1
 10
-32.559718
 20
6.056251
 30
0.0
 10
-32.541623
 20
6.070457
 30
0.0
 10
-32.520693
 20
6.090711
 30
0.0
 10
-32.493982
 20
6.114939
 30
0.0
  0
LWPOLYLINE
  5
1ea
100
AcDbEntity
  8
0
 62
7
100
AcDbPolyline
 90
2
 70
0
 10
-32.501026
 20
6.056251
 30
0.0
 10
-32.559718
 20
6.056251
 30
0.0
  0
LWPOLYLINE
  5
1eb
100
AcDbEntity
  8
0
 62
7
100
AcDbPolyline
 90
2
 70
0
 10
-32.493982
 20
6.114939
 30
0.0
 10
-32.493982
 20
6.114939
 30
0.0
  0
SPLINE
  5
1ec
100
AcDbEntity
  8
0
 62
7
100
AcDbSpline
 70
8
 71
3
 72
8
 73
4
 74
0
 40
0
 40
0
 40
0
 40
0
 40
1
 40
1
 40
1
 40
1
 10
-40.626340
 20
2.234231
 30
0.0
 10
-40.925717
 20
3.144867
 30
0.0
 10
-40.918954
 20
4.110262
 30
0.0
 10
-40.598168
 20
5.035007
 30
0.0
  0
SPLINE
  5
1ed
100
AcDbEntity
  8
0
 62
7
100
AcDbSpline
 70
8
 71
3
 72
8
 73
4
 74
0
 40
0
 40
0
 40
0
 40
0
 40
1
 40
1
 40
1
 40
1
 10
-40.598168
 20
5.035007
 30
0.0
 10
-40.507280
 20
5.297031
 30
0.0
 10
-40.392941
 20
5.547883
 30
0.0
 10
-40.257754
 20
5.783920
 30
0.0
  0
LWPOLYLINE
  5
1ee
100
AcDbEntity
  8
0
 62
7
100
AcDbPolyline
 90
4
 70
0
 10
-40.257754
 20
5.783920
 30
0.0
 10
-40.243669
 20
5.783920
 30
0.0
 10
-40.243669
 20
2.234231
 30
0.0
 10
-40.626340
 20
2.234231
 30
0.0
  0
LWPOLYLINE
  5
1ef
100
AcDbEntity
  8
0
 62
7
100
AcDbPolyline
 90
2
 70
0
 10
-40.257754
 20
5.783920
 30
0.0
 10
-40.257754
 20
5.783920
 30
0.0
  0
LWPOLYLINE
  5
1f0
100
AcDbEntity
  8
0
 62
7
100
AcDbPolyline
 90
5
 70
0
 10
-39.426677
 20
5.783920
 30
0.0
 10
-38.884362
 20
5.783920
 30
0.0
 10
-39.149650
 20
3.933950
 30
0.0
 10
-39.426677
 20
5.783920
 30
0.0
 10
-39.426677
 20
5.783920
 30
0.0
  0
LWPOLYLINE
  5
1f1
100
AcDbEntity
  8
0
 62
7
100
AcDbPolyline
 90
6
 70
0
 10
-38.065023
 20
5.783920
 30
0.0
 10
-37.672961
 20
5.783920
 30
0.0
 10
-37.731653
 20
5.532715
 30
0.0
 10
-38.065023
 20
5.391854
 30
0.0
 10
-38.065023
 20
5.783920
 30
0.0
 10
-38.065023
 20
5.783920
 30
0.0
  0
LWPOLYLINE
  5
1f2
100
AcDbEntity
  8
0
 62
7
100
AcDbPolyline
 90
6
 70
0
 10
-37.532100
 20
5.783920
 30
0.0
 10
-36.928747
 20
5.783920
 30
0.0
 10
-36.928747
 20
5.725232
 30
0.0
 10
-37.346633
 20
5.647755
 30
0.0
 10
-37.532100
 20
5.783920
 30
0.0
 10
-37.532100
 20
5.783920
 30
0.0
  0
SPLINE
  5
1f3
100
AcDbEntity
  8
0
 62
7
100
AcDbSpline
 70
8
 71
3
 72
8
 73
4
 74
0
 40
0
 40
0
 40
0
 40
0
 40
1
 40
1
 40
1
 40
1
 10
-34.937916
 20
2.234231
 30
0.0
 10
-34.813862
 20
2.299958
 30
0.0
 10
-34.707982
 20
2.411512
 30
0.0
 10
-34.618631
 20
2.572296
 30
0.0
  0
SPLINE
  5
1f4
100
AcDbEntity
  8
0
 62
7
100
AcDbSpline
 70
8
 71
3
 72
8
 73
4
 74
0
 40
0
 40
0
 40
0
 40
0
 40
1
 40
1
 40
1
 40
1
 10
-34.618631
 20
2.572296
 30
0.0
 10
-34.467501
 20
2.844259
 30
0.0
 10
-34.390908
 20
3.184586
 30
0.0
 10
-34.390907
 20
3.591189
 30
0.0
  0
SPLINE
  5
1f5
100
AcDbEntity
  8
0
 62
7
100
AcDbSpline
 70
8
 71
3
 72
8
 73
4
 74
0
 40
0
 40
0
 40
0
 40
0
 40
1
 40
1
 40
1
 40
1
 10
-34.390907
 20
3.591189
 30
0.0
 10
-34.390908
 20
3.994223
 30
0.0
 10
-34.467109
 20
4.328495
 30
0.0
 10
-34.616283
 20
4.595995
 30
0.0
  0
SPLINE
  5
1f6
100
AcDbEntity
  8
0
 62
7
100
AcDbSpline
 70
8
 71
3
 72
8
 73
4
 74
0
 40
0
 40
0
 40
0
 40
0
 40
1
 40
1
 40
1
 40
1
 10
-34.616283
 20
4.595995
 30
0.0
 10
-34.765461
 20
4.863495
 30
0.0
 10
-34.962372
 20
4.997444
 30
0.0
 10
-35.207899
 20
4.997444
 30
0.0
  0
SPLINE
  5
1f7
100
AcDbEntity
  8
0
 62
7
100
AcDbSpline
 70
8
 71
3
 72
8
 73
4
 74
0
 40
0
 40
0
 40
0
 40
0
 40
1
 40
1
 40
1
 40
1
 10
-35.207899
 20
4.997444
 30
0.0
 10
-35.268792
 20
4.997444
 30
0.0
 10
-35.326450
 20
4.988564
 30
0.0
 10
-35.381627
 20
4.971624
 30
0.0
  0
SPLINE
  5
1f8
100
AcDbEntity
  8
0
 62
7
100
AcDbSpline
 70
8
 71
3
 72
8
 73
4
 74
0
 40
0
 40
0
 40
0
 40
0
 40
1
 40
1
 40
1
 40
1
 10
-35.381627
 20
4.971624
 30
0.0
 10
-35.380716
 20
4.973186
 30
0.0
 10
-35.380166
 20
4.974734
 30
0.0
 10
-35.379279
 20
4.976319
 30
0.0
  0
SPLINE
  5
1f9
100
AcDbEntity
  8
0
 62
7
100
AcDbSpline
 70
8
 71
3
 72
8
 73
4
 74
0
 40
0
 40
0
 40
0
 40
0
 40
1
 40
1
 40
1
 40
1
 10
-35.379279
 20
4.976319
 30
0.0
 10
-35.350462
 20
5.027833
 30
0.0
 10
-35.337021
 20
5.100074
 30
0.0
 10
-35.337021
 20
5.189961
 30
0.0
  0
SPLINE
  5
1fa
100
AcDbEntity
  8
0
 62
7
100
AcDbSpline
 70
8
 71
3
 72
8
 73
4
 74
0
 40
0
 40
0
 40
0
 40
0
 40
1
 40
1
 40
1
 40
1
 10
-35.337021
 20
5.189961
 30
0.0
 10
-35.337021
 20
5.300884
 30
0.0
 10
-35.368143
 20
5.387632
 30
0.0
 10
-35.433276
 20
5.450550
 30
0.0
  0
SPLINE
  5
1fb
100
AcDbEntity
  8
0
 62
7
100
AcDbSpline
 70
8
 71
3
 72
8
 73
4
 74
0
 40
0
 40
0
 40
0
 40
0
 40
1
 40
1
 40
1
 40
1
 10
-35.433276
 20
5.450550
 30
0.0
 10
-35.498408
 20
5.513468
 30
0.0
 10
-35.584207
 20
5.544457
 30
0.0
 10
-35.686824
 20
5.544457
 30
0.0
  0
SPLINE
  5
1fc
100
AcDbEntity
  8
0
 62
7
100
AcDbSpline
 70
8
 71
3
 72
8
 73
4
 74
0
 40
0
 40
0
 40
0
 40
0
 40
1
 40
1
 40
1
 40
1
 10
-35.686824
 20
5.544457
 30
0.0
 10
-35.779136
 20
5.544457
 30
0.0
 10
-35.857398
 20
5.518719
 30
0.0
 10
-35.921592
 20
5.466980
 30
0.0
  0
SPLINE
  5
1fd
100
AcDbEntity
  8
0
 62
7
100
AcDbSpline
 70
8
 71
3
 72
8
 73
4
 74
0
 40
0
 40
0
 40
0
 40
0
 40
1
 40
1
 40
1
 40
1
 10
-35.921592
 20
5.466980
 30
0.0
 10
-35.998440
 20
5.404723
 30
0.0
 10
-36.036629
 20
5.309907
 30
0.0
 10
-36.036629
 20
5.180571
 30
0.0
  0
SPLINE
  5
1fe
100
AcDbEntity
  8
0
 62
7
100
AcDbSpline
 70
8
 71
3
 72
8
 73
4
 74
0
 40
0
 40
0
 40
0
 40
0
 40
1
 40
1
 40
1
 40
1
 10
-36.036629
 20
5.180571
 30
0.0
 10
-36.036629
 20
5.062623
 30
0.0
 10
-36.002456
 20
4.970932
 30
0.0
 10
-35.938027
 20
4.908240
 30
0.0
  0
SPLINE
  5
1ff
100
AcDbEntity
  8
0
 62
7
100
AcDbSpline
 70
8
 71
3
 72
8
 73
4
 74
0
 40
0
 40
0
 40
0
 40
0
 40
1
 40
1
 40
1
 40
1
 10
-35.938027
 20
4.908240
 30
0.0
 10
-35.873597
 20
4.845540
 30
0.0
 10
-35.791318
 20
4.814333
 30
0.0
 10
-35.686824
 20
4.814333
 30
0.0
  0
SPLINE
  5
200
100
AcDbEntity
  8
0
 62
7
100
AcDbSpline
 70
8
 71
3
 72
8
 73
4
 74
0
 40
0
 40
0
 40
0
 40
0
 40
1
 40
1
 40
1
 40
1
 10
-35.686824
 20
4.814333
 30
0.0
 10
-35.668901
 20
4.814333
 30
0.0
 10
-35.649989
 20
4.814521
 30
0.0
 10
-35.632829
 20
4.816677
 30
0.0
  0
SPLINE
  5
201
100
AcDbEntity
  8
0
 62
7
100
AcDbSpline
 70
8
 71
3
 72
8
 73
4
 74
0
 40
0
 40
0
 40
0
 40
0
 40
1
 40
1
 40
1
 40
1
 10
-35.632829
 20
4.816677
 30
0.0
 10
-35.693842
 20
4.756381
 30
0.0
 10
-35.751053
 20
4.681841
 30
0.0
 10
-35.801861
 20
4.591300
 30
0.0
  0
SPLINE
  5
202
100
AcDbEntity
  8
0
 62
7
100
AcDbSpline
 70
8
 71
3
 72
8
 73
4
 74
0
 40
0
 40
0
 40
0
 40
0
 40
1
 40
1
 40
1
 40
1
 10
-35.801861
 20
4.591300
 30
0.0
 10
-35.953971
 20
4.320231
 30
0.0
 10
-36.029587
 20
3.981354
 30
0.0
 10
-36.029587
 20
3.574759
 30
0.0
  0
SPLINE
  5
203
100
AcDbEntity
  8
0
 62
7
100
AcDbSpline
 70
8
 71
3
 72
8
 73
4
 74
0
 40
0
 40
0
 40
0
 40
0
 40
1
 40
1
 40
1
 40
1
 10
-36.029587
 20
3.574759
 30
0.0
 10
-36.029587
 20
3.196689
 30
0.0
 10
-35.957004
 20
2.867255
 30
0.0
 10
-35.811252
 20
2.586382
 30
0.0
  0
SPLINE
  5
204
100
AcDbEntity
  8
0
 62
7
100
AcDbSpline
 70
8
 71
3
 72
8
 73
4
 74
0
 40
0
 40
0
 40
0
 40
0
 40
1
 40
1
 40
1
 40
1
 10
-35.811252
 20
2.586382
 30
0.0
 10
-35.723637
 20
2.417537
 30
0.0
 10
-35.616343
 20
2.301581
 30
0.0
 10
-35.491968
 20
2.234231
 30
0.0
  0
LWPOLYLINE
  5
205
100
AcDbEntity
  8
0
 62
7
100
AcDbPolyline
 90
14
 70
0
 10
-36.114102
 20
5.783920
 30
0.0
 10
-34.848704
 20
5.783920
 30
0.0
 10
-34.848704
 20
5.680622
 30
0.0
 10
-34.510638
 20
5.680622
 30
0.0
 10
-34.510638
 20
4.830763
 30
0.0
 10
-34.374472
 20
4.830763
 30
0.0
 10
-34.374472
 20
5.680622
 30
0.0
 10
-34.031712
 20
5.680622
 30
0.0
 10
-34.031712
 20
5.783920
 30
0.0
 10
-33.907286
 20
5.783920
 30
0.0
 10
-33.907286
 20
4.941100
 30
0.0
 10
-34.165530
 20
4.941100
 30
0.0
 10
-34.165530
 20
2.234231
 30
0.0
 10
-34.937916
 20
2.234231
 30
0.0
  0
SPLINE
  5
206
100
AcDbEntity
  8
0
 62
7
100
AcDbSpline
 70
8
 71
3
 72
8
 73
4
 74
0
 40
0
 40
0
 40
0
 40
0
 40
1
 40
1
 40
1
 40
1
 10
-36.722151
 20
2.234231
 30
0.0
 10
-36.598098
 20
2.299958
 30
0.0
 10
-36.492218
 20
2.411512
 30
0.0
 10
-36.402867
 20
2.572296
 30
0.0
  0
SPLINE
  5
207
100
AcDbEntity
  8
0
 62
7
100
AcDbSpline
 70
8
 71
3
 72
8
 73
4
 74
0
 40
0
 40
0
 40
0
 40
0
 40
1
 40
1
 40
1
 40
1
 10
-36.402867
 20
2.572296
 30
0.0
 10
-36.251737
 20
2.844259
 30
0.0
 10
-36.175143
 20
3.184586
 30
0.0
 10
-36.175142
 20
3.591189
 30
0.0
  0
SPLINE
  5
208
100
AcDbEntity
  8
0
 62
7
100
AcDbSpline
 70
8
 71
3
 72
8
 73
4
 74
0
 40
0
 40
0
 40
0
 40
0
 40
1
 40
1
 40
1
 40
1
 10
-36.175142
 20
3.591189
 30
0.0
 10
-36.175143
 20
3.994223
 30
0.0
 10
-36.251344
 20
4.328495
 30
0.0
 10
-36.400519
 20
4.595995
 30
0.0
  0
SPLINE
  5
209
100
AcDbEntity
  8
0
 62
7
100
AcDbSpline
 70
8
 71
3
 72
8
 73
4
 74
0
 40
0
 40
0
 40
0
 40
0
 40
1
 40
1
 40
1
 40
1
 10
-36.400519
 20
4.595995
 30
0.0
 10
-36.453301
 20
4.690638
 30
0.0
 10
-36.511752
 20
4.769603
 30
0.0
 10
-36.576594
 20
4.830763
 30
0.0
  0
LWPOLYLINE
  5
20a
100
AcDbEntity
  8
0
 62
7
100
AcDbPolyline
 90
2
 70
0
 10
-35.491968
 20
2.234231
 30
0.0
 10
-36.722151
 20
2.234231
 30
0.0
  0
LWPOLYLINE
  5
20b
100
AcDbEntity
  8
0
 62
7
100
AcDbPolyline
 90
6
 70
0
 10
-36.576594
 20
4.830763
 30
0.0
 10
-36.454516
 20
4.830763
 30
0.0
 10
-36.454516
 20
5.680622
 30
0.0
 10
-36.114102
 20
5.680622
 30
0.0
 10
-36.114102
 20
5.783920
 30
0.0
 10
-36.114102
 20
5.783920
 30
0.0
  0
SPLINE
  5
20c
100
AcDbEntity
  8
0
 62
7
100
AcDbSpline
 70
8
 71
3
 72
8
 73
4
 74
0
 40
0
 40
0
 40
0
 40
0
 40
1
 40
1
 40
1
 40
1
 10
-36.590681
 20
4.844849
 30
0.0
 10
-36.705926
 20
4.947816
 30
0.0
 10
-36.839802
 20
4.997444
 30
0.0
 10
-36.992134
 20
4.997444
 30
0.0
  0
SPLINE
  5
20d
100
AcDbEntity
  8
0
 62
7
100
AcDbSpline
 70
8
 71
3
 72
8
 73
4
 74
0
 40
0
 40
0
 40
0
 40
0
 40
1
 40
1
 40
1
 40
1
 10
-36.992134
 20
4.997444
 30
0.0
 10
-37.235707
 20
4.997444
 30
0.0
 10
-37.433988
 20
4.862368
 30
0.0
 10
-37.586097
 20
4.591300
 30
0.0
  0
SPLINE
  5
20e
100
AcDbEntity
  8
0
 62
7
100
AcDbSpline
 70
8
 71
3
 72
8
 73
4
 74
0
 40
0
 40
0
 40
0
 40
0
 40
1
 40
1
 40
1
 40
1
 10
-37.586097
 20
4.591300
 30
0.0
 10
-37.738207
 20
4.320231
 30
0.0
 10
-37.813821
 20
3.981354
 30
0.0
 10
-37.813821
 20
3.574759
 30
0.0
  0
SPLINE
  5
20f
100
AcDbEntity
  8
0
 62
7
100
AcDbSpline
 70
8
 71
3
 72
8
 73
4
 74
0
 40
0
 40
0
 40
0
 40
0
 40
1
 40
1
 40
1
 40
1
 10
-37.813821
 20
3.574759
 30
0.0
 10
-37.813821
 20
3.196689
 30
0.0
 10
-37.741240
 20
2.867255
 30
0.0
 10
-37.595488
 20
2.586382
 30
0.0
  0
SPLINE
  5
210
100
AcDbEntity
  8
0
 62
7
100
AcDbSpline
 70
8
 71
3
 72
8
 73
4
 74
0
 40
0
 40
0
 40
0
 40
0
 40
1
 40
1
 40
1
 40
1
 10
-37.595488
 20
2.586382
 30
0.0
 10
-37.507872
 20
2.417537
 30
0.0
 10
-37.400579
 20
2.301581
 30
0.0
 10
-37.276203
 20
2.234231
 30
0.0
  0
LWPOLYLINE
  5
211
100
AcDbEntity
  8
0
 62
7
100
AcDbPolyline
 90
4
 70
0
 10
-36.928747
 20
5.687669
 30
0.0
 10
-36.928747
 20
5.680622
 30
0.0
 10
-36.590681
 20
5.680622
 30
0.0
 10
-36.590681
 20
4.844849
 30
0.0
  0
SPLINE
  5
212
100
AcDbEntity
  8
0
 62
7
100
AcDbSpline
 70
8
 71
3
 72
8
 73
4
 74
0
 40
0
 40
0
 40
0
 40
0
 40
1
 40
1
 40
1
 40
1
 10
-32.799181
 20
5.448199
 30
0.0
 10
-32.734987
 20
5.448199
 30
0.0
 10
-32.682184
 20
5.423369
 30
0.0
 10
-32.641887
 20
5.377776
 30
0.0
  0
SPLINE
  5
213
100
AcDbEntity
  8
0
 62
7
100
AcDbSpline
 70
8
 71
3
 72
8
 73
4
 74
0
 40
0
 40
0
 40
0
 40
0
 40
1
 40
1
 40
1
 40
1
 10
-32.641887
 20
5.377776
 30
0.0
 10
-32.615647
 20
5.348394
 30
0.0
 10
-32.600556
 20
5.305054
 30
0.0
 10
-32.594933
 20
5.246306
 30
0.0
  0
LWPOLYLINE
  5
214
100
AcDbEntity
  8
0
 62
7
100
AcDbPolyline
 90
10
 70
0
 10
-37.276203
 20
2.234231
 30
0.0
 10
-38.065023
 20
2.234231
 30
0.0
 10
-38.065023
 20
5.333166
 30
0.0
 10
-37.745739
 20
5.232212
 30
0.0
 10
-37.694090
 20
4.901193
 30
0.0
 10
-37.367762
 20
5.161789
 30
0.0
 10
-36.924051
 20
5.131266
 30
0.0
 10
-37.121256
 20
5.417682
 30
0.0
 10
-36.928747
 20
5.687669
 30
0.0
 10
-36.928747
 20
5.687669
 30
0.0
  0
SPLINE
  5
215
100
AcDbEntity
  8
0
 62
7
100
AcDbSpline
 70
8
 71
3
 72
8
 73
4
 74
0
 40
0
 40
0
 40
0
 40
0
 40
1
 40
1
 40
1
 40
1
 10
-33.010472
 20
5.246306
 30
0.0
 10
-33.006256
 20
5.307248
 30
0.0
 10
-32.984332
 20
5.355463
 30
0.0
 10
-32.944737
 20
5.391854
 30
0.0
  0
SPLINE
  5
216
100
AcDbEntity
  8
0
 62
7
100
AcDbSpline
 70
8
 71
3
 72
8
 73
4
 74
0
 40
0
 40
0
 40
0
 40
0
 40
1
 40
1
 40
1
 40
1
 10
-32.944737
 20
5.391854
 30
0.0
 10
-32.905142
 20
5.428245
 30
0.0
 10
-32.857284
 20
5.448199
 30
0.0
 10
-32.799181
 20
5.448199
 30
0.0
  0
LWPOLYLINE
  5
217
100
AcDbEntity
  8
0
 62
7
100
AcDbPolyline
 90
2
 70
0
 10
-32.594933
 20
5.246306
 30
0.0
 10
-33.010472
 20
5.246306
 30
0.0
  0
SPLINE
  5
218
100
AcDbEntity
  8
0
 62
7
100
AcDbSpline
 70
8
 71
3
 72
8
 73
4
 74
0
 40
0
 40
0
 40
0
 40
0
 40
1
 40
1
 40
1
 40
1
 10
-35.686824
 20
5.445855
 30
0.0
 10
-35.624504
 20
5.445855
 30
0.0
 10
-35.571469
 20
5.424624
 30
0.0
 10
-35.529530
 20
5.380120
 30
0.0
  0
SPLINE
  5
219
100
AcDbEntity
  8
0
 62
7
100
AcDbSpline
 70
8
 71
3
 72
8
 73
4
 74
0
 40
0
 40
0
 40
0
 40
0
 40
1
 40
1
 40
1
 40
1
 10
-35.529530
 20
5.380120
 30
0.0
 10
-35.487593
 20
5.335615
 30
0.0
 10
-35.466143
 20
5.269287
 30
0.0
 10
-35.466143
 20
5.182915
 30
0.0
  0
SPLINE
  5
21a
100
AcDbEntity
  8
0
 62
7
100
AcDbSpline
 70
8
 71
3
 72
8
 73
4
 74
0
 40
0
 40
0
 40
0
 40
0
 40
1
 40
1
 40
1
 40
1
 10
-35.466143
 20
5.182915
 30
0.0
 10
-35.466143
 20
5.091276
 30
0.0
 10
-35.487828
 20
5.023385
 30
0.0
 10
-35.529530
 20
4.978663
 30
0.0
  0
SPLINE
  5
21b
100
AcDbEntity
  8
0
 62
7
100
AcDbSpline
 70
8
 71
3
 72
8
 73
4
 74
0
 40
0
 40
0
 40
0
 40
0
 40
1
 40
1
 40
1
 40
1
 10
-35.529530
 20
4.978663
 30
0.0
 10
-35.571234
 20
4.933948
 30
0.0
 10
-35.624037
 20
4.912928
 30
0.0
 10
-35.686824
 20
4.912928
 30
0.0
  0
SPLINE
  5
21c
100
AcDbEntity
  8
0
 62
7
100
AcDbSpline
 70
8
 71
3
 72
8
 73
4
 74
0
 40
0
 40
0
 40
0
 40
0
 40
1
 40
1
 40
1
 40
1
 10
-35.686824
 20
4.912928
 30
0.0
 10
-35.750082
 20
4.912928
 30
0.0
 10
-35.802416
 20
4.934166
 30
0.0
 10
-35.844120
 20
4.978663
 30
0.0
  0
SPLINE
  5
21d
100
AcDbEntity
  8
0
 62
7
100
AcDbSpline
 70
8
 71
3
 72
8
 73
4
 74
0
 40
0
 40
0
 40
0
 40
0
 40
1
 40
1
 40
1
 40
1
 10
-35.844120
 20
4.978663
 30
0.0
 10
-35.885823
 20
5.023167
 30
0.0
 10
-35.905159
 20
5.091126
 30
0.0
 10
-35.905159
 20
5.180571
 30
0.0
  0
SPLINE
  5
21e
100
AcDbEntity
  8
0
 62
7
100
AcDbSpline
 70
8
 71
3
 72
8
 73
4
 74
0
 40
0
 40
0
 40
0
 40
0
 40
1
 40
1
 40
1
 40
1
 10
-35.905159
 20
5.180571
 30
0.0
 10
-35.905159
 20
5.270008
 30
0.0
 10
-35.885823
 20
5.335833
 30
0.0
 10
-35.844120
 20
5.380120
 30
0.0
  0
SPLINE
  5
21f
100
AcDbEntity
  8
0
 62
7
100
AcDbSpline
 70
8
 71
3
 72
8
 73
4
 74
0
 40
0
 40
0
 40
0
 40
0
 40
1
 40
1
 40
1
 40
1
 10
-35.844120
 20
5.380120
 30
0.0
 10
-35.802416
 20
5.424399
 30
0.0
 10
-35.750082
 20
5.445855
 30
0.0
 10
-35.686824
 20
5.445855
 30
0.0
  0
LWPOLYLINE
  5
220
100
AcDbEntity
  8
0
 62
7
100
AcDbPolyline
 90
2
 70
0
 10
-32.799181
 20
5.448199
 30
0.0
 10
-32.799181
 20
5.448199
 30
0.0
  0
SPLINE
  5
221
100
AcDbEntity
  8
0
 62
7
100
AcDbSpline
 70
8
 71
3
 72
8
 73
4
 74
0
 40
0
 40
0
 40
0
 40
0
 40
1
 40
1
 40
1
 40
1
 10
-33.583306
 20
5.443511
 30
0.0
 10
-33.533168
 20
5.443503
 30
0.0
 10
-33.495682
 20
5.428215
 30
0.0
 10
-33.468269
 20
5.401245
 30
0.0
  0
SPLINE
  5
222
100
AcDbEntity
  8
0
 62
7
100
AcDbSpline
 70
8
 71
3
 72
8
 73
4
 74
0
 40
0
 40
0
 40
0
 40
0
 40
1
 40
1
 40
1
 40
1
 10
-33.468269
 20
5.401245
 30
0.0
 10
-33.440859
 20
5.374282
 30
0.0
 10
-33.426011
 20
5.331318
 30
0.0
 10
-33.426011
 20
5.272126
 30
0.0
  0
LWPOLYLINE
  5
223
100
AcDbEntity
  8
0
 62
7
100
AcDbPolyline
 90
2
 70
0
 10
-35.686824
 20
5.445855
 30
0.0
 10
-35.686824
 20
5.445855
 30
0.0
  0
SPLINE
  5
224
100
AcDbEntity
  8
0
 62
7
100
AcDbSpline
 70
8
 71
3
 72
8
 73
4
 74
0
 40
0
 40
0
 40
0
 40
0
 40
1
 40
1
 40
1
 40
1
 10
-33.426011
 20
4.910584
 30
0.0
 10
-33.510771
 20
4.838125
 30
0.0
 10
-33.578200
 20
4.721222
 30
0.0
 10
-33.623216
 20
4.556081
 30
0.0
  0
LWPOLYLINE
  5
225
100
AcDbEntity
  8
0
 62
7
100
AcDbPolyline
 90
2
 70
0
 10
-33.426011
 20
5.272126
 30
0.0
 10
-33.426011
 20
4.910584
 30
0.0
  0
SPLINE
  5
226
100
AcDbEntity
  8
0
 62
7
100
AcDbSpline
 70
8
 71
3
 72
8
 73
4
 74
0
 40
0
 40
0
 40
0
 40
0
 40
1
 40
1
 40
1
 40
1
 10
-33.780510
 20
5.213431
 30
0.0
 10
-33.780510
 20
5.268242
 30
0.0
 10
-33.773439
 20
5.309081
 30
0.0
 10
-33.759381
 20
5.340213
 30
0.0
  0
SPLINE
  5
227
100
AcDbEntity
  8
0
 62
7
100
AcDbSpline
 70
8
 71
3
 72
8
 73
4
 74
0
 40
0
 40
0
 40
0
 40
0
 40
1
 40
1
 40
1
 40
1
 10
-33.759381
 20
5.340213
 30
0.0
 10
-33.745324
 20
5.371337
 30
0.0
 10
-33.721987
 20
5.397136
 30
0.0
 10
-33.688951
 20
5.415339
 30
0.0
  0
SPLINE
  5
228
100
AcDbEntity
  8
0
 62
7
100
AcDbSpline
 70
8
 71
3
 72
8
 73
4
 74
0
 40
0
 40
0
 40
0
 40
0
 40
1
 40
1
 40
1
 40
1
 10
-33.688951
 20
5.415339
 30
0.0
 10
-33.655917
 20
5.433526
 30
0.0
 10
-33.620792
 20
5.443503
 30
0.0
 10
-33.583306
 20
5.443511
 30
0.0
  0
LWPOLYLINE
  5
229
100
AcDbEntity
  8
0
 62
7
100
AcDbPolyline
 90
4
 70
0
 10
-33.623216
 20
4.556081
 30
0.0
 10
-33.623216
 20
4.941100
 30
0.0
 10
-33.780510
 20
4.941100
 30
0.0
 10
-33.780510
 20
5.213431
 30
0.0
  0
LWPOLYLINE
  5
22a
100
AcDbEntity
  8
0
 62
7
100
AcDbPolyline
 90
2
 70
0
 10
-33.583306
 20
5.443511
 30
0.0
 10
-33.583306
 20
5.443511
 30
0.0
  0
LWPOLYLINE
  5
22b
100
AcDbEntity
  8
0
 62
7
100
AcDbPolyline
 90
5
 70
0
 10
-39.783523
 20
4.833114
 30
0.0
 10
-39.400852
 20
2.234231
 30
0.0
 10
-39.783523
 20
2.234231
 30
0.0
 10
-39.783523
 20
4.833114
 30
0.0
 10
-39.783523
 20
4.833114
 30
0.0
  0
SPLINE
  5
22c
100
AcDbEntity
  8
0
 62
7
100
AcDbSpline
 70
8
 71
3
 72
8
 73
4
 74
0
 40
0
 40
0
 40
0
 40
0
 40
1
 40
1
 40
1
 40
1
 10
-36.994482
 20
4.328360
 30
0.0
 10
-36.921118
 20
4.328360
 30
0.0
 10
-36.870251
 20
4.274021
 30
0.0
 10
-36.841882
 20
4.161671
 30
0.0
  0
SPLINE
  5
22d
100
AcDbEntity
  8
0
 62
7
100
AcDbSpline
 70
8
 71
3
 72
8
 73
4
 74
0
 40
0
 40
0
 40
0
 40
0
 40
1
 40
1
 40
1
 40
1
 10
-36.841882
 20
4.161671
 30
0.0
 10
-36.813516
 20
4.049320
 30
0.0
 10
-36.799626
 20
3.864984
 30
0.0
 10
-36.799624
 20
3.609970
 30
0.0
  0
SPLINE
  5
22e
100
AcDbEntity
  8
0
 62
7
100
AcDbSpline
 70
8
 71
3
 72
8
 73
4
 74
0
 40
0
 40
0
 40
0
 40
0
 40
1
 40
1
 40
1
 40
1
 10
-36.799624
 20
3.609970
 30
0.0
 10
-36.799626
 20
3.422719
 30
0.0
 10
-36.810092
 20
3.242095
 30
0.0
 10
-36.830144
 20
3.070004
 30
0.0
  0
SPLINE
  5
22f
100
AcDbEntity
  8
0
 62
7
100
AcDbSpline
 70
8
 71
3
 72
8
 73
4
 74
0
 40
0
 40
0
 40
0
 40
0
 40
1
 40
1
 40
1
 40
1
 10
-36.830144
 20
3.070004
 30
0.0
 10
-36.850198
 20
2.897914
 30
0.0
 10
-36.905859
 20
2.811760
 30
0.0
 10
-36.996829
 20
2.811760
 30
0.0
  0
SPLINE
  5
230
100
AcDbEntity
  8
0
 62
7
100
AcDbSpline
 70
8
 71
3
 72
8
 73
4
 74
0
 40
0
 40
0
 40
0
 40
0
 40
1
 40
1
 40
1
 40
1
 10
-36.996829
 20
2.811760
 30
0.0
 10
-37.061392
 20
2.811760
 30
0.0
 10
-37.110106
 20
2.863596
 30
0.0
 10
-37.142386
 20
2.964362
 30
0.0
  0
SPLINE
  5
231
100
AcDbEntity
  8
0
 62
7
100
AcDbSpline
 70
8
 71
3
 72
8
 73
4
 74
0
 40
0
 40
0
 40
0
 40
0
 40
1
 40
1
 40
1
 40
1
 10
-37.142386
 20
2.964362
 30
0.0
 10
-37.174667
 20
3.065113
 30
0.0
 10
-37.189340
 20
3.272062
 30
0.0
 10
-37.189339
 20
3.584149
 30
0.0
  0
SPLINE
  5
232
100
AcDbEntity
  8
0
 62
7
100
AcDbSpline
 70
8
 71
3
 72
8
 73
4
 74
0
 40
0
 40
0
 40
0
 40
0
 40
1
 40
1
 40
1
 40
1
 10
-37.189339
 20
3.584149
 30
0.0
 10
-37.189340
 20
3.849862
 30
0.0
 10
-37.173689
 20
4.038713
 30
0.0
 10
-37.142386
 20
4.154632
 30
0.0
  0
SPLINE
  5
233
100
AcDbEntity
  8
0
 62
7
100
AcDbSpline
 70
8
 71
3
 72
8
 73
4
 74
0
 40
0
 40
0
 40
0
 40
0
 40
1
 40
1
 40
1
 40
1
 10
-37.142386
 20
4.154632
 30
0.0
 10
-37.111083
 20
4.270550
 30
0.0
 10
-37.061979
 20
4.328360
 30
0.0
 10
-36.994482
 20
4.328360
 30
0.0
  0
LWPOLYLINE
  5
234
100
AcDbEntity
  8
0
 62
7
100
AcDbPolyline
 90
5
 70
0
 10
-38.635509
 20
4.833114
 30
0.0
 10
-38.635509
 20
2.234231
 30
0.0
 10
-39.006442
 20
2.234231
 30
0.0
 10
-38.635509
 20
4.833114
 30
0.0
 10
-38.635509
 20
4.833114
 30
0.0
  0
SPLINE
  5
235
100
AcDbEntity
  8
0
 62
7
100
AcDbSpline
 70
8
 71
3
 72
8
 73
4
 74
0
 40
0
 40
0
 40
0
 40
0
 40
1
 40
1
 40
1
 40
1
 10
-35.210247
 20
4.328360
 30
0.0
 10
-35.136882
 20
4.328360
 30
0.0
 10
-35.086016
 20
4.274021
 30
0.0
 10
-35.057648
 20
4.161671
 30
0.0
  0
SPLINE
  5
236
100
AcDbEntity
  8
0
 62
7
100
AcDbSpline
 70
8
 71
3
 72
8
 73
4
 74
0
 40
0
 40
0
 40
0
 40
0
 40
1
 40
1
 40
1
 40
1
 10
-35.057648
 20
4.161671
 30
0.0
 10
-35.029280
 20
4.049320
 30
0.0
 10
-35.015389
 20
3.864984
 30
0.0
 10
-35.015389
 20
3.609970
 30
0.0
  0
SPLINE
  5
237
100
AcDbEntity
  8
0
 62
7
100
AcDbSpline
 70
8
 71
3
 72
8
 73
4
 74
0
 40
0
 40
0
 40
0
 40
0
 40
1
 40
1
 40
1
 40
1
 10
-35.015389
 20
3.609970
 30
0.0
 10
-35.015389
 20
3.422719
 30
0.0
 10
-35.025857
 20
3.242095
 30
0.0
 10
-35.045909
 20
3.070004
 30
0.0
  0
SPLINE
  5
238
100
AcDbEntity
  8
0
 62
7
100
AcDbSpline
 70
8
 71
3
 72
8
 73
4
 74
0
 40
0
 40
0
 40
0
 40
0
 40
1
 40
1
 40
1
 40
1
 10
-35.045909
 20
3.070004
 30
0.0
 10
-35.065962
 20
2.897914
 30
0.0
 10
-35.121622
 20
2.811760
 30
0.0
 10
-35.212594
 20
2.811760
 30
0.0
  0
SPLINE
  5
239
100
AcDbEntity
  8
0
 62
7
100
AcDbSpline
 70
8
 71
3
 72
8
 73
4
 74
0
 40
0
 40
0
 40
0
 40
0
 40
1
 40
1
 40
1
 40
1
 10
-35.212594
 20
2.811760
 30
0.0
 10
-35.277157
 20
2.811760
 30
0.0
 10
-35.325870
 20
2.863596
 30
0.0
 10
-35.358150
 20
2.964362
 30
0.0
  0
SPLINE
  5
23a
100
AcDbEntity
  8
0
 62
7
100
AcDbSpline
 70
8
 71
3
 72
8
 73
4
 74
0
 40
0
 40
0
 40
0
 40
0
 40
1
 40
1
 40
1
 40
1
 10
-35.358150
 20
2.964362
 30
0.0
 10
-35.390432
 20
3.065113
 30
0.0
 10
-35.405104
 20
3.272062
 30
0.0
 10
-35.405103
 20
3.584149
 30
0.0
  0
SPLINE
  5
23b
100
AcDbEntity
  8
0
 62
7
100
AcDbSpline
 70
8
 71
3
 72
8
 73
4
 74
0
 40
0
 40
0
 40
0
 40
0
 40
1
 40
1
 40
1
 40
1
 10
-35.405103
 20
3.584149
 30
0.0
 10
-35.405104
 20
3.849862
 30
0.0
 10
-35.389453
 20
4.038713
 30
0.0
 10
-35.358150
 20
4.154632
 30
0.0
  0
SPLINE
  5
23c
100
AcDbEntity
  8
0
 62
7
100
AcDbSpline
 70
8
 71
3
 72
8
 73
4
 74
0
 40
0
 40
0
 40
0
 40
0
 40
1
 40
1
 40
1
 40
1
 10
-35.358150
 20
4.154632
 30
0.0
 10
-35.326848
 20
4.270550
 30
0.0
 10
-35.277743
 20
4.328360
 30
0.0
 10
-35.210247
 20
4.328360
 30
0.0
  0
LWPOLYLINE
  5
23d
100
AcDbEntity
  8
0
 62
7
100
AcDbPolyline
 90
2
 70
0
 10
-36.994482
 20
4.328360
 30
0.0
 10
-36.994482
 20
4.328360
 30
0.0
  0
SPLINE
  5
23e
100
AcDbEntity
  8
0
 62
7
100
AcDbSpline
 70
8
 71
3
 72
8
 73
4
 74
0
 40
0
 40
0
 40
0
 40
0
 40
1
 40
1
 40
1
 40
1
 10
-33.421316
 20
4.262625
 30
0.0
 10
-33.385122
 20
4.262625
 30
0.0
 10
-33.353722
 20
4.243167
 30
0.0
 10
-33.329757
 20
4.203936
 30
0.0
  0
SPLINE
  5
23f
100
AcDbEntity
  8
0
 62
7
100
AcDbSpline
 70
8
 71
3
 72
8
 73
4
 74
0
 40
0
 40
0
 40
0
 40
0
 40
1
 40
1
 40
1
 40
1
 10
-33.329757
 20
4.203936
 30
0.0
 10
-33.305791
 20
4.164698
 30
0.0
 10
-33.294541
 20
4.074833
 30
0.0
 10
-33.294541
 20
3.933950
 30
0.0
  0
LWPOLYLINE
  5
240
100
AcDbEntity
  8
0
 62
7
100
AcDbPolyline
 90
2
 70
0
 10
-35.210247
 20
4.328360
 30
0.0
 10
-35.210247
 20
4.328360
 30
0.0
  0
SPLINE
  5
241
100
AcDbEntity
  8
0
 62
7
100
AcDbSpline
 70
8
 71
3
 72
8
 73
4
 74
0
 40
0
 40
0
 40
0
 40
0
 40
1
 40
1
 40
1
 40
1
 10
-33.580958
 20
3.856480
 30
0.0
 10
-33.580959
 20
4.127541
 30
0.0
 10
-33.527940
 20
4.262625
 30
0.0
 10
-33.421316
 20
4.262625
 30
0.0
  0
LWPOLYLINE
  5
242
100
AcDbEntity
  8
0
 62
7
100
AcDbPolyline
 90
4
 70
0
 10
-33.294541
 20
3.933950
 30
0.0
 10
-33.294541
 20
2.234231
 30
0.0
 10
-33.580958
 20
2.234231
 30
0.0
 10
-33.580958
 20
3.856480
 30
0.0
  0
LWPOLYLINE
  5
243
100
AcDbEntity
  8
0
 62
7
100
AcDbPolyline
 90
2
 70
0
 10
-33.421316
 20
4.262625
 30
0.0
 10
-33.421316
 20
4.262625
 30
0.0
  0
LWPOLYLINE
  5
244
100
AcDbEntity
  8
0
 62
7
100
AcDbPolyline
 90
12
 70
0
 10
-41.948082
 20
4.098287
 30
0.0
 10
-41.786093
 20
3.389288
 30
0.0
 10
-41.109962
 20
3.116958
 30
0.0
 10
-41.736792
 20
2.746025
 30
0.0
 10
-41.786093
 20
2.018244
 30
0.0
 10
-42.333102
 20
2.499515
 30
0.0
 10
-43.039753
 20
2.321091
 30
0.0
 10
-42.750989
 20
2.990183
 30
0.0
 10
-43.138356
 20
3.607619
 30
0.0
 10
-42.412923
 20
3.539540
 30
0.0
 10
-41.948082
 20
4.098287
 30
0.0
 10
-41.948082
 20
4.098287
 30
0.0
  0
SPLINE
  5
245
100
AcDbEntity
  8
0
 62
7
100
AcDbSpline
 70
8
 71
3
 72
8
 73
4
 74
0
 40
0
 40
0
 40
0
 40
0
 40
1
 40
1
 40
1
 40
1
 10
-39.297554
 20
0.231664
 30
0.0
 10
-39.697960
 20
0.579744
 30
0.0
 10
-40.036427
 20
0.996768
 30
0.0
 10
-40.295317
 20
1.471239
 30
0.0
  0
SPLINE
  5
246
100
AcDbEntity
  8
0
 62
7
100
AcDbSpline
 70
8
 71
3
 72
8
 73
4
 74
0
 40
0
 40
0
 40
0
 40
0
 40
1
 40
1
 40
1
 40
1
 10
-40.295317
 20
1.471239
 30
0.0
 10
-40.323423
 20
1.522745
 30
0.0
 10
-40.351293
 20
1.575701
 30
0.0
 10
-40.377486
 20
1.628530
 30
0.0
  0
SPLINE
  5
247
100
AcDbEntity
  8
0
 62
7
100
AcDbSpline
 70
8
 71
3
 72
8
 73
4
 74
0
 40
0
 40
0
 40
0
 40
0
 40
1
 40
1
 40
1
 40
1
 10
-40.377486
 20
1.628530
 30
0.0
 10
-40.416642
 20
1.707509
 30
0.0
 10
-40.451219
 20
1.787871
 30
0.0
 10
-40.485480
 20
1.867993
 30
0.0
  0
LWPOLYLINE
  5
248
100
AcDbEntity
  8
0
 62
7
100
AcDbPolyline
 90
15
 70
0
 10
-40.485480
 20
1.867993
 30
0.0
 10
-39.957252
 20
1.867993
 30
0.0
 10
-40.001858
 20
1.607397
 30
0.0
 10
-40.295317
 20
1.471239
 30
0.0
 10
-40.008901
 20
1.320988
 30
0.0
 10
-39.968990
 20
0.999352
 30
0.0
 10
-39.738918
 20
1.224729
 30
0.0
 10
-39.421981
 20
1.163689
 30
0.0
 10
-39.565189
 20
1.452458
 30
0.0
 10
-39.407896
 20
1.736523
 30
0.0
 10
-39.727179
 20
1.689569
 30
0.0
 10
-39.893864
 20
1.867993
 30
0.0
 10
-38.842104
 20
1.867993
 30
0.0
 10
-39.114436
 20
0.231664
 30
0.0
 10
-39.297554
 20
0.231664
 30
0.0
  0
LWPOLYLINE
  5
249
100
AcDbEntity
  8
0
 62
7
100
AcDbPolyline
 90
2
 70
0
 10
-40.485480
 20
1.867993
 30
0.0
 10
-40.485480
 20
1.867993
 30
0.0
  0
SPLINE
  5
24a
100
AcDbEntity
  8
0
 62
7
100
AcDbSpline
 70
8
 71
3
 72
8
 73
4
 74
0
 40
0
 40
0
 40
0
 40
0
 40
1
 40
1
 40
1
 40
1
 10
-37.248031
 20
1.257597
 30
0.0
 10
-37.308213
 20
1.257597
 30
0.0
 10
-37.358387
 20
1.237410
 30
0.0
 10
-37.398282
 20
1.194205
 30
0.0
  0
SPLINE
  5
24b
100
AcDbEntity
  8
0
 62
7
100
AcDbSpline
 70
8
 71
3
 72
8
 73
4
 74
0
 40
0
 40
0
 40
0
 40
0
 40
1
 40
1
 40
1
 40
1
 10
-37.398282
 20
1.194205
 30
0.0
 10
-37.438179
 20
1.151001
 30
0.0
 10
-37.456974
 20
1.095220
 30
0.0
 10
-37.456974
 20
1.029875
 30
0.0
  0
LWPOLYLINE
  5
24c
100
AcDbEntity
  8
0
 62
7
100
AcDbPolyline
 90
4
 70
0
 10
-38.689506
 20
1.867993
 30
0.0
 10
-37.025002
 20
1.867993
 30
0.0
 10
-37.025002
 20
1.257597
 30
0.0
 10
-37.248031
 20
1.257597
 30
0.0
  0
SPLINE
  5
24d
100
AcDbEntity
  8
0
 62
7
100
AcDbSpline
 70
8
 71
3
 72
8
 73
4
 74
0
 40
0
 40
0
 40
0
 40
0
 40
1
 40
1
 40
1
 40
1
 10
-37.456974
 20
0.410089
 30
0.0
 10
-37.456974
 20
0.347637
 30
0.0
 10
-37.440488
 20
0.296889
 30
0.0
 10
-37.405326
 20
0.255134
 30
0.0
  0
SPLINE
  5
24e
100
AcDbEntity
  8
0
 62
7
100
AcDbSpline
 70
8
 71
3
 72
8
 73
4
 74
0
 40
0
 40
0
 40
0
 40
0
 40
1
 40
1
 40
1
 40
1
 10
-37.405326
 20
0.255134
 30
0.0
 10
-37.398000
 20
0.246442
 30
0.0
 10
-37.390142
 20
0.238547
 30
0.0
 10
-37.381849
 20
0.231664
 30
0.0
  0
LWPOLYLINE
  5
24f
100
AcDbEntity
  8
0
 62
7
100
AcDbPolyline
 90
2
 70
0
 10
-37.456974
 20
1.029875
 30
0.0
 10
-37.456974
 20
0.410089
 30
0.0
  0
SPLINE
  5
250
100
AcDbEntity
  8
0
 62
7
100
AcDbSpline
 70
8
 71
3
 72
8
 73
4
 74
0
 40
0
 40
0
 40
0
 40
0
 40
1
 40
1
 40
1
 40
1
 10
-37.672961
 20
1.144908
 30
0.0
 10
-37.672962
 20
1.224053
 30
0.0
 10
-37.710591
 20
1.264636
 30
0.0
 10
-37.785649
 20
1.264643
 30
0.0
  0
SPLINE
  5
251
100
AcDbEntity
  8
0
 62
7
100
AcDbSpline
 70
8
 71
3
 72
8
 73
4
 74
0
 40
0
 40
0
 40
0
 40
0
 40
1
 40
1
 40
1
 40
1
 10
-37.785649
 20
1.264643
 30
0.0
 10
-37.827574
 20
1.264636
 30
0.0
 10
-37.880376
 20
1.259264
 30
0.0
 10
-37.945291
 20
1.250550
 30
0.0
  0
SPLINE
  5
252
100
AcDbEntity
  8
0
 62
7
100
AcDbSpline
 70
8
 71
3
 72
8
 73
4
 74
0
 40
0
 40
0
 40
0
 40
0
 40
1
 40
1
 40
1
 40
1
 10
-37.945291
 20
1.250550
 30
0.0
 10
-37.998712
 20
1.242564
 30
0.0
 10
-38.052190
 20
1.236682
 30
0.0
 10
-38.104933
 20
1.229424
 30
0.0
  0
LWPOLYLINE
  5
253
100
AcDbEntity
  8
0
 62
7
100
AcDbPolyline
 90
3
 70
0
 10
-37.381849
 20
0.231664
 30
0.0
 10
-37.672961
 20
0.231664
 30
0.0
 10
-37.672961
 20
1.144908
 30
0.0
  0
LWPOLYLINE
  5
254
100
AcDbEntity
  8
0
 62
7
100
AcDbPolyline
 90
7
 70
0
 10
-38.104933
 20
1.229424
 30
0.0
 10
-38.104933
 20
1.257597
 30
0.0
 10
-38.238751
 20
1.257597
 30
0.0
 10
-38.238751
 20
0.231664
 30
0.0
 10
-38.419522
 20
0.231664
 30
0.0
 10
-38.689506
 20
1.867993
 30
0.0
 10
-38.689506
 20
1.867993
 30
0.0
  0
LWPOLYLINE
  5
255
100
AcDbEntity
  8
0
 62
7
100
AcDbPolyline
 90
6
 70
0
 10
-36.891183
 20
1.867993
 30
0.0
 10
-36.247920
 20
1.867993
 30
0.0
 10
-36.247920
 20
0.231664
 30
0.0
 10
-36.891183
 20
0.231664
 30
0.0
 10
-36.891183
 20
1.867993
 30
0.0
 10
-36.891183
 20
1.867993
 30
0.0
  0
SPLINE
  5
256
100
AcDbEntity
  8
0
 62
7
100
AcDbSpline
 70
8
 71
3
 72
8
 73
4
 74
0
 40
0
 40
0
 40
0
 40
0
 40
1
 40
1
 40
1
 40
1
 10
-34.078666
 20
0.231664
 30
0.0
 10
-34.061236
 20
0.252144
 30
0.0
 10
-34.052841
 20
0.281511
 30
0.0
 10
-34.052841
 20
0.320869
 30
0.0
  0
LWPOLYLINE
  5
257
100
AcDbEntity
  8
0
 62
7
100
AcDbPolyline
 90
4
 70
0
 10
-35.646914
 20
1.867993
 30
0.0
 10
-33.834507
 20
1.867993
 30
0.0
 10
-33.834507
 20
0.231664
 30
0.0
 10
-34.078666
 20
0.231664
 30
0.0
  0
SPLINE
  5
258
100
AcDbEntity
  8
0
 62
7
100
AcDbSpline
 70
8
 71
3
 72
8
 73
4
 74
0
 40
0
 40
0
 40
0
 40
0
 40
1
 40
1
 40
1
 40
1
 10
-34.052841
 20
1.135517
 30
0.0
 10
-34.052842
 20
1.217570
 30
0.0
 10
-34.089794
 20
1.257597
 30
0.0
 10
-34.165530
 20
1.257597
 30
0.0
  0
LWPOLYLINE
  5
259
100
AcDbEntity
  8
0
 62
7
100
AcDbPolyline
 90
10
 70
0
 10
-34.052841
 20
0.320869
 30
0.0
 10
-34.052841
 20
0.562683
 30
0.0
 10
-34.186659
 20
0.562683
 30
0.0
 10
-34.186659
 20
0.325572
 30
0.0
 10
-34.466032
 20
0.325572
 30
0.0
 10
-34.466032
 20
1.130822
 30
0.0
 10
-34.186659
 20
1.130822
 30
0.0
 10
-34.186659
 20
0.924226
 30
0.0
 10
-34.052841
 20
0.924226
 30
0.0
 10
-34.052841
 20
1.135517
 30
0.0
  0
SPLINE
  5
25a
100
AcDbEntity
  8
0
 62
7
100
AcDbSpline
 70
8
 71
3
 72
8
 73
4
 74
0
 40
0
 40
0
 40
0
 40
0
 40
1
 40
1
 40
1
 40
1
 10
-34.487161
 20
1.257597
 30
0.0
 10
-34.562896
 20
1.257597
 30
0.0
 10
-34.599850
 20
1.217570
 30
0.0
 10
-34.599850
 20
1.135517
 30
0.0
  0
LWPOLYLINE
  5
25b
100
AcDbEntity
  8
0
 62
7
100
AcDbPolyline
 90
2
 70
0
 10
-34.165530
 20
1.257597
 30
0.0
 10
-34.487161
 20
1.257597
 30
0.0
  0
SPLINE
  5
25c
100
AcDbEntity
  8
0
 62
7
100
AcDbSpline
 70
8
 71
3
 72
8
 73
4
 74
0
 40
0
 40
0
 40
0
 40
0
 40
1
 40
1
 40
1
 40
1
 10
-34.599850
 20
0.320869
 30
0.0
 10
-34.599850
 20
0.281511
 30
0.0
 10
-34.591456
 20
0.252144
 30
0.0
 10
-34.574026
 20
0.231664
 30
0.0
  0
LWPOLYLINE
  5
25d
100
AcDbEntity
  8
0
 62
7
100
AcDbPolyline
 90
2
 70
0
 10
-34.599850
 20
1.135517
 30
0.0
 10
-34.599850
 20
0.320869
 30
0.0
  0
SPLINE
  5
25e
100
AcDbEntity
  8
0
 62
7
100
AcDbSpline
 70
8
 71
3
 72
8
 73
4
 74
0
 40
0
 40
0
 40
0
 40
0
 40
1
 40
1
 40
1
 40
1
 10
-34.820531
 20
1.135517
 30
0.0
 10
-34.820532
 20
1.217570
 30
0.0
 10
-34.859833
 20
1.257597
 30
0.0
 10
-34.935568
 20
1.257597
 30
0.0
  0
LWPOLYLINE
  5
25f
100
AcDbEntity
  8
0
 62
7
100
AcDbPolyline
 90
3
 70
0
 10
-34.574026
 20
0.231664
 30
0.0
 10
-34.820531
 20
0.231664
 30
0.0
 10
-34.820531
 20
1.135517
 30
0.0
  0
SPLINE
  5
260
100
AcDbEntity
  8
0
 62
7
100
AcDbSpline
 70
8
 71
3
 72
8
 73
4
 74
0
 40
0
 40
0
 40
0
 40
0
 40
1
 40
1
 40
1
 40
1
 10
-35.259548
 20
1.257597
 30
0.0
 10
-35.335282
 20
1.257597
 30
0.0
 10
-35.372237
 20
1.217570
 30
0.0
 10
-35.372237
 20
1.135517
 30
0.0
  0
LWPOLYLINE
  5
261
100
AcDbEntity
  8
0
 62
7
100
AcDbPolyline
 90
2
 70
0
 10
-34.935568
 20
1.257597
 30
0.0
 10
-35.259548
 20
1.257597
 30
0.0
  0
SPLINE
  5
262
100
AcDbEntity
  8
0
 62
7
100
AcDbSpline
 70
8
 71
3
 72
8
 73
4
 74
0
 40
0
 40
0
 40
0
 40
0
 40
1
 40
1
 40
1
 40
1
 10
-35.268939
 20
0.818577
 30
0.0
 10
-35.345349
 20
0.818577
 30
0.0
 10
-35.383974
 20
0.777829
 30
0.0
 10
-35.383974
 20
0.696498
 30
0.0
  0
LWPOLYLINE
  5
263
100
AcDbEntity
  8
0
 62
7
100
AcDbPolyline
 90
7
 70
0
 10
-35.372237
 20
1.135517
 30
0.0
 10
-35.372237
 20
0.957094
 30
0.0
 10
-35.243114
 20
0.957094
 30
0.0
 10
-35.243114
 20
1.137861
 30
0.0
 10
-34.952002
 20
1.137861
 30
0.0
 10
-34.952002
 20
0.818577
 30
0.0
 10
-35.268939
 20
0.818577
 30
0.0
  0
SPLINE
  5
264
100
AcDbEntity
  8
0
 62
7
100
AcDbSpline
 70
8
 71
3
 72
8
 73
4
 74
0
 40
0
 40
0
 40
0
 40
0
 40
1
 40
1
 40
1
 40
1
 10
-35.383974
 20
0.309134
 30
0.0
 10
-35.383974
 20
0.276726
 30
0.0
 10
-35.377780
 20
0.250679
 30
0.0
 10
-35.365193
 20
0.231664
 30
0.0
  0
LWPOLYLINE
  5
265
100
AcDbEntity
  8
0
 62
7
100
AcDbPolyline
 90
2
 70
0
 10
-35.383974
 20
0.696498
 30
0.0
 10
-35.383974
 20
0.309134
 30
0.0
  0
SPLINE
  5
266
100
AcDbEntity
  8
0
 62
7
100
AcDbSpline
 70
8
 71
3
 72
8
 73
4
 74
0
 40
0
 40
0
 40
0
 40
0
 40
1
 40
1
 40
1
 40
1
 10
-35.642219
 20
0.231664
 30
0.0
 10
-35.621258
 20
0.254172
 30
0.0
 10
-35.611700
 20
0.282946
 30
0.0
 10
-35.611699
 20
0.318526
 30
0.0
  0
LWPOLYLINE
  5
267
100
AcDbEntity
  8
0
 62
7
100
AcDbPolyline
 90
2
 70
0
 10
-35.365193
 20
0.231664
 30
0.0
 10
-35.642219
 20
0.231664
 30
0.0
  0
SPLINE
  5
268
100
AcDbEntity
  8
0
 62
7
100
AcDbSpline
 70
8
 71
3
 72
8
 73
4
 74
0
 40
0
 40
0
 40
0
 40
0
 40
1
 40
1
 40
1
 40
1
 10
-35.611699
 20
0.898405
 30
0.0
 10
-35.611700
 20
0.947778
 30
0.0
 10
-35.628187
 20
0.983155
 30
0.0
 10
-35.663348
 20
1.006391
 30
0.0
  0
LWPOLYLINE
  5
269
100
AcDbEntity
  8
0
 62
7
100
AcDbPolyline
 90
2
 70
0
 10
-35.611699
 20
0.318526
 30
0.0
 10
-35.611699
 20
0.898405
 30
0.0
  0
SPLINE
  5
26a
100
AcDbEntity
  8
0
 62
7
100
AcDbSpline
 70
8
 71
3
 72
8
 73
4
 74
0
 40
0
 40
0
 40
0
 40
0
 40
1
 40
1
 40
1
 40
1
 10
-35.672739
 20
1.161345
 30
0.0
 10
-35.634872
 20
1.191839
 30
0.0
 10
-35.616396
 20
1.231355
 30
0.0
 10
-35.616394
 20
1.276378
 30
0.0
  0
LWPOLYLINE
  5
26b
100
AcDbEntity
  8
0
 62
7
100
AcDbPolyline
 90
3
 70
0
 10
-35.663348
 20
1.006391
 30
0.0
 10
-35.783080
 20
1.090908
 30
0.0
 10
-35.672739
 20
1.161345
 30
0.0
  0
SPLINE
  5
26c
100
AcDbEntity
  8
0
 62
7
100
AcDbSpline
 70
8
 71
3
 72
8
 73
4
 74
0
 40
0
 40
0
 40
0
 40
0
 40
1
 40
1
 40
1
 40
1
 10
-35.616394
 20
1.781133
 30
0.0
 10
-35.616396
 20
1.816705
 30
0.0
 10
-35.625952
 20
1.845478
 30
0.0
 10
-35.646914
 20
1.867993
 30
0.0
  0
LWPOLYLINE
  5
26d
100
AcDbEntity
  8
0
 62
7
100
AcDbPolyline
 90
2
 70
0
 10
-35.616394
 20
1.276378
 30
0.0
 10
-35.616394
 20
1.781133
 30
0.0
  0
LWPOLYLINE
  5
26e
100
AcDbEntity
  8
0
 62
7
100
AcDbPolyline
 90
2
 70
0
 10
-35.646914
 20
1.867993
 30
0.0
 10
-35.646914
 20
1.867993
 30
0.0
  0
LWPOLYLINE
  5
26f
100
AcDbEntity
  8
0
 62
7
100
AcDbPolyline
 90
7
 70
0
 10
-36.107059
 20
1.769390
 30
0.0
 10
-35.757256
 20
1.769390
 30
0.0
 10
-35.757256
 20
1.255253
 30
0.0
 10
-35.898116
 20
1.154299
 30
0.0
 10
-36.107059
 20
1.154299
 30
0.0
 10
-36.107059
 20
1.769390
 30
0.0
 10
-36.107059
 20
1.769390
 30
0.0
  0
LWPOLYLINE
  5
270
100
AcDbEntity
  8
0
 62
7
100
AcDbPolyline
 90
5
 70
0
 10
-38.769327
 20
1.635569
 30
0.0
 10
-38.628467
 20
0.710591
 30
0.0
 10
-38.907840
 20
0.710591
 30
0.0
 10
-38.769327
 20
1.635569
 30
0.0
 10
-38.769327
 20
1.635569
 30
0.0
  0
SPLINE
  5
271
100
AcDbEntity
  8
0
 62
7
100
AcDbSpline
 70
8
 71
3
 72
8
 73
4
 74
0
 40
0
 40
0
 40
0
 40
0
 40
1
 40
1
 40
1
 40
1
 10
-37.025002
 20
0.330260
 30
0.0
 10
-37.131842
 20
0.323002
 30
0.0
 10
-37.195234
 20
0.318526
 30
0.0
 10
-37.212816
 20
0.318526
 30
0.0
  0
SPLINE
  5
272
100
AcDbEntity
  8
0
 62
7
100
AcDbSpline
 70
8
 71
3
 72
8
 73
4
 74
0
 40
0
 40
0
 40
0
 40
0
 40
1
 40
1
 40
1
 40
1
 10
-37.212816
 20
0.318526
 30
0.0
 10
-37.287199
 20
0.318526
 30
0.0
 10
-37.323157
 20
0.359281
 30
0.0
 10
-37.323157
 20
0.440604
 30
0.0
  0
LWPOLYLINE
  5
273
100
AcDbEntity
  8
0
 62
7
100
AcDbPolyline
 90
3
 70
0
 10
-37.212816
 20
1.130822
 30
0.0
 10
-37.025002
 20
1.130822
 30
0.0
 10
-37.025002
 20
0.330260
 30
0.0
  0
SPLINE
  5
274
100
AcDbEntity
  8
0
 62
7
100
AcDbSpline
 70
8
 71
3
 72
8
 73
4
 74
0
 40
0
 40
0
 40
0
 40
0
 40
1
 40
1
 40
1
 40
1
 10
-37.323157
 20
1.006391
 30
0.0
 10
-37.323157
 20
1.088443
 30
0.0
 10
-37.287199
 20
1.130822
 30
0.0
 10
-37.212816
 20
1.130822
 30
0.0
  0
LWPOLYLINE
  5
275
100
AcDbEntity
  8
0
 62
7
100
AcDbPolyline
 90
2
 70
0
 10
-37.323157
 20
0.440604
 30
0.0
 10
-37.323157
 20
1.006391
 30
0.0
  0
LWPOLYLINE
  5
276
100
AcDbEntity
  8
0
 62
7
100
AcDbPolyline
 90
2
 70
0
 10
-37.212816
 20
1.130822
 30
0.0
 10
-37.212816
 20
1.130822
 30
0.0
  0
LWPOLYLINE
  5
277
100
AcDbEntity
  8
0
 62
7
100
AcDbPolyline
 90
6
 70
0
 10
-37.806779
 20
1.128470
 30
0.0
 10
-37.806779
 20
0.231664
 30
0.0
 10
-38.104933
 20
0.231664
 30
0.0
 10
-38.104933
 20
1.119080
 30
0.0
 10
-37.806779
 20
1.128470
 30
0.0
 10
-37.806779
 20
1.128470
 30
0.0
  0
LWPOLYLINE
  5
278
100
AcDbEntity
  8
0
 62
7
100
AcDbPolyline
 90
7
 70
0
 10
-36.107059
 20
1.020485
 30
0.0
 10
-35.895768
 20
1.020485
 30
0.0
 10
-35.754908
 20
0.921875
 30
0.0
 10
-35.754908
 20
0.332611
 30
0.0
 10
-36.107059
 20
0.332611
 30
0.0
 10
-36.107059
 20
1.020485
 30
0.0
 10
-36.107059
 20
1.020485
 30
0.0
  0
LWPOLYLINE
  5
279
100
AcDbEntity
  8
0
 62
7
100
AcDbPolyline
 90
5
 70
0
 10
-33.698341
 20
0.738763
 30
0.0
 10
-33.442446
 20
0.231664
 30
0.0
 10
-33.698341
 20
0.231664
 30
0.0
 10
-33.698341
 20
0.738763
 30
0.0
 10
-33.698341
 20
0.738763
 30
0.0
  0
LWPOLYLINE
  5
27a
100
AcDbEntity
  8
0
 62
7
100
AcDbPolyline
 90
6
 70
0
 10
-35.254852
 20
0.703544
 30
0.0
 10
-34.952002
 20
0.703544
 30
0.0
 10
-34.952002
 20
0.330260
 30
0.0
 10
-35.254852
 20
0.323220
 30
0.0
 10
-35.254852
 20
0.703544
 30
0.0
 10
-35.254852
 20
0.703544
 30
0.0
  0
LWPOLYLINE
  5
27b
100
AcDbEntity
  8
0
 62
7
100
AcDbPolyline
 90
6
 70
0
 10
-38.926621
 20
0.576770
 30
0.0
 10
-38.612032
 20
0.576770
 30
0.0
 10
-38.560383
 20
0.231664
 30
0.0
 10
-38.978270
 20
0.231664
 30
0.0
 10
-38.926621
 20
0.576770
 30
0.0
 10
-38.926621
 20
0.576770
 30
0.0
  0
LWPOLYLINE
  5
27c
100
AcDbEntity
  8
0
 62
7
100
AcDbPolyline
 90
12
 70
0
 10
-40.769549
 20
0.562683
 30
0.0
 10
-40.534781
 20
0.288009
 30
0.0
 10
-40.100460
 20
0.278619
 30
0.0
 10
-40.375139
 20
0.025069
 30
0.0
 10
-40.253059
 20
-0.287176
 30
0.0
 10
-40.659208
 20
-0.169792
 30
0.0
 10
-41.018402
 20
-0.352911
 30
0.0
 10
-40.992578
 20
-0.026588
 30
0.0
 10
-41.335339
 20
0.172969
 30
0.0
 10
-40.917452
 20
0.255134
 30
0.0
 10
-40.769549
 20
0.562683
 30
0.0
 10
-40.769549
 20
0.562683
 30
0.0
  0
SPLINE
  5
27d
100
AcDbEntity
  8
0
 62
7
100
AcDbSpline
 70
8
 71
3
 72
8
 73
4
 74
0
 40
0
 40
0
 40
0
 40
0
 40
1
 40
1
 40
1
 40
1
 10
-33.519918
 20
-0.057103
 30
0.0
 10
-34.402364
 20
-0.689894
 30
0.0
 10
-35.602701
 20
-1.007977
 30
0.0
 10
-36.682240
 20
-0.892877
 30
0.0
  0
SPLINE
  5
27e
100
AcDbEntity
  8
0
 62
7
100
AcDbSpline
 70
8
 71
3
 72
8
 73
4
 74
0
 40
0
 40
0
 40
0
 40
0
 40
1
 40
1
 40
1
 40
1
 10
-36.682240
 20
-0.892877
 30
0.0
 10
-37.513539
 20
-0.804243
 30
0.0
 10
-38.282913
 20
-0.511719
 30
0.0
 10
-38.928969
 20
-0.057103
 30
0.0
  0
LWPOLYLINE
  5
27f
100
AcDbEntity
  8
0
 62
7
100
AcDbPolyline
 90
2
 70
0
 10
-38.928969
 20
-0.057103
 30
0.0
 10
-33.519918
 20
-0.057103
 30
0.0
  0
LWPOLYLINE
  5
280
100
AcDbEntity
  8
0
 62
7
100
AcDbPolyline
 90
2
 70
0
 10
-38.928969
 20
-0.057103
 30
0.0
 10
-38.928969
 20
-0.057103
 30
0.0
  0
LWPOLYLINE
  5
281
100
AcDbEntity
  8
0
 62
7
100
AcDbPolyline
 90
12
 70
0
 10
-38.722373
 20
-0.984440
 30
0.0
 10
-38.485258
 20
-1.266161
 30
0.0
 10
-38.053286
 20
-1.275551
 30
0.0
 10
-38.327962
 20
-1.536141
 30
0.0
 10
-38.205883
 20
-1.857776
 30
0.0
 10
-38.609684
 20
-1.735697
 30
0.0
 10
-38.968880
 20
-1.923511
 30
0.0
 10
-38.945402
 20
-1.590133
 30
0.0
 10
-39.288163
 20
-1.385889
 30
0.0
 10
-38.867929
 20
-1.299021
 30
0.0
 10
-38.722373
 20
-0.984440
 30
0.0
 10
-38.722373
 20
-0.984440
 30
0.0
  0
ENDSEC
  0
SECTION
  2
OBJECTS
  0
DICTIONARY
  5
C
330
0
100
AcDbDictionary
  3
ACAD_GROUP
350
D
  3
ACAD_MLINESTYLE
350
17
  0
DICTIONARY
  5
D
330
C
100
AcDbDictionary
  0
DICTIONARY
  5
1A
330
C
100
AcDbDictionary
  0
DICTIONARY
  5
17
330
C
100
AcDbDictionary
  3
STANDARD
350
18
  0
DICTIONARY
  5
19
330
C
100
AcDbDictionary
  0
ENDSEC
  0
EOF
