 0 
SECTION
 2 
ENTITIES
 0 
LINE
 10 
 1757 
 20 
 5632 
 30 
 0 
 11 
 1668.59191894531 
 21 
 5579.8154296875 
 31 
 0 
 0 
LINE
 10 
 1668.59191894531 
 20 
 5579.8154296875 
 30 
 0 
 11 
 1589.25610351563 
 21 
 5520.28857421875 
 31 
 0 
 0 
LINE
 10 
 1589.25610351563 
 20 
 5520.28857421875 
 30 
 0 
 11 
 1520.62390136719 
 21 
 5454.95166015625 
 31 
 0 
 0 
LINE
 10 
 1520.62390136719 
 20 
 5454.95166015625 
 30 
 0 
 11 
 1464.32800292969 
 21 
 5385.34423828125 
 31 
 0 
 0 
LINE
 10 
 1464.32800292969 
 20 
 5385.34423828125 
 30 
 0 
 11 
 1422 
 21 
 5313 
 31 
 0 
 0 
LINE
 10 
 1422 
 20 
 5313 
 30 
 0 
 11 
 1405.45593261719 
 21 
 5276.2880859375 
 31 
 0 
 0 
LINE
 10 
 1405.45593261719 
 20 
 5276.2880859375 
 30 
 0 
 11 
 1394.52807617188 
 21 
 5246.34423828125 
 31 
 0 
 0 
LINE
 10 
 1394.52807617188 
 20 
 5246.34423828125 
 30 
 0 
 11 
 1387.8720703125 
 21 
 5217.4560546875 
 31 
 0 
 0 
LINE
 10 
 1387.8720703125 
 20 
 5217.4560546875 
 30 
 0 
 11 
 1384.14404296875 
 21 
 5183.912109375 
 31 
 0 
 0 
LINE
 10 
 1384.14404296875 
 20 
 5183.912109375 
 30 
 0 
 11 
 1382 
 21 
 5140 
 31 
 0 
 0 
LINE
 10 
 1382 
 20 
 5140 
 30 
 0 
 11 
 1380.91186523438 
 21 
 5097.02392578125 
 31 
 0 
 0 
LINE
 10 
 1380.91186523438 
 20 
 5097.02392578125 
 30 
 0 
 11 
 1381.69604492188 
 21 
 5065.9521484375 
 31 
 0 
 0 
LINE
 10 
 1381.69604492188 
 20 
 5065.9521484375 
 30 
 0 
 11 
 1385.02404785156 
 21 
 5042.3681640625 
 31 
 0 
 0 
LINE
 10 
 1385.02404785156 
 20 
 5042.3681640625 
 30 
 0 
 11 
 1391.56799316406 
 21 
 5021.85595703125 
 31 
 0 
 0 
LINE
 10 
 1391.56799316406 
 20 
 5021.85595703125 
 30 
 0 
 11 
 1402 
 21 
 5000 
 31 
 0 
 0 
LINE
 10 
 1402 
 20 
 5000 
 30 
 0 
 11 
 1420.84790039063 
 21 
 4970.28759765625 
 31 
 0 
 0 
LINE
 10 
 1420.84790039063 
 20 
 4970.28759765625 
 30 
 0 
 11 
 1444.06408691406 
 21 
 4945.42431640625 
 31 
 0 
 0 
LINE
 10 
 1444.06408691406 
 20 
 4945.42431640625 
 30 
 0 
 11 
 1470.25610351563 
 21 
 4926.416015625 
 31 
 0 
 0 
LINE
 10 
 1470.25610351563 
 20 
 4926.416015625 
 30 
 0 
 11 
 1498.03198242188 
 21 
 4914.27197265625 
 31 
 0 
 0 
LINE
 10 
 1498.03198242188 
 20 
 4914.27197265625 
 30 
 0 
 11 
 1526 
 21 
 4910 
 31 
 0 
 0 
LINE
 10 
 1526 
 20 
 4910 
 30 
 0 
 11 
 1546.18395996094 
 21 
 4911.1357421875 
 31 
 0 
 0 
LINE
 10 
 1546.18395996094 
 20 
 4911.1357421875 
 30 
 0 
 11 
 1556.43200683594 
 21 
 4915.248046875 
 31 
 0 
 0 
LINE
 10 
 1556.43200683594 
 20 
 4915.248046875 
 30 
 0 
 11 
 1556.88806152344 
 21 
 4923.39208984375 
 31 
 0 
 0 
LINE
 10 
 1556.88806152344 
 20 
 4923.39208984375 
 30 
 0 
 11 
 1547.69604492188 
 21 
 4936.6240234375 
 31 
 0 
 0 
LINE
 10 
 1547.69604492188 
 20 
 4936.6240234375 
 30 
 0 
 11 
 1529 
 21 
 4956 
 31 
 0 
 0 
LINE
 10 
 1529 
 20 
 4956 
 30 
 0 
 11 
 1503.00805664063 
 21 
 4984.11962890625 
 31 
 0 
 0 
LINE
 10 
 1503.00805664063 
 20 
 4984.11962890625 
 30 
 0 
 11 
 1483.54406738281 
 21 
 5013.92041015625 
 31 
 0 
 0 
LINE
 10 
 1483.54406738281 
 20 
 5013.92041015625 
 30 
 0 
 11 
 1470.17590332031 
 21 
 5046.35986328125 
 31 
 0 
 0 
LINE
 10 
 1470.17590332031 
 20 
 5046.35986328125 
 30 
 0 
 11 
 1462.47204589844 
 21 
 5082.400390625 
 31 
 0 
 0 
LINE
 10 
 1462.47204589844 
 20 
 5082.400390625 
 30 
 0 
 11 
 1460 
 21 
 5123 
 31 
 0 
 0 
LINE
 10 
 1460 
 20 
 5123 
 30 
 0 
 11 
 1467.65588378906 
 21 
 5197.240234375 
 31 
 0 
 0 
LINE
 10 
 1467.65588378906 
 20 
 5197.240234375 
 30 
 0 
 11 
 1490.52807617188 
 21 
 5272.2001953125 
 31 
 0 
 0 
LINE
 10 
 1490.52807617188 
 20 
 5272.2001953125 
 30 
 0 
 11 
 1528.47204589844 
 21 
 5347.64013671875 
 31 
 0 
 0 
LINE
 10 
 1528.47204589844 
 20 
 5347.64013671875 
 30 
 0 
 11 
 1581.34399414063 
 21 
 5423.3203125 
 31 
 0 
 0 
LINE
 10 
 1581.34399414063 
 20 
 5423.3203125 
 30 
 0 
 11 
 1649 
 21 
 5499 
 31 
 0 
 0 
LINE
 10 
 1649 
 20 
 5499 
 30 
 0 
 11 
 1694.51184082031 
 21 
 5542.8798828125 
 31 
 0 
 0 
LINE
 10 
 1694.51184082031 
 20 
 5542.8798828125 
 30 
 0 
 11 
 1734.93615722656 
 21 
 5578.1201171875 
 31 
 0 
 0 
LINE
 10 
 1734.93615722656 
 20 
 5578.1201171875 
 30 
 0 
 11 
 1771.90405273438 
 21 
 5605.919921875 
 31 
 0 
 0 
LINE
 10 
 1771.90405273438 
 20 
 5605.919921875 
 30 
 0 
 11 
 1807.04797363281 
 21 
 5627.47998046875 
 31 
 0 
 0 
LINE
 10 
 1807.04797363281 
 20 
 5627.47998046875 
 30 
 0 
 11 
 1842 
 21 
 5644 
 31 
 0 
 0 
LINE
 10 
 1842 
 20 
 5644 
 30 
 0 
 11 
 1859.1279296875 
 21 
 5650.7119140625 
 31 
 0 
 0 
LINE
 10 
 1859.1279296875 
 20 
 5650.7119140625 
 30 
 0 
 11 
 1871.02404785156 
 21 
 5654.01611328125 
 31 
 0 
 0 
LINE
 10 
 1871.02404785156 
 20 
 5654.01611328125 
 30 
 0 
 11 
 1879.65600585938 
 21 
 5653.8642578125 
 31 
 0 
 0 
LINE
 10 
 1879.65600585938 
 20 
 5653.8642578125 
 30 
 0 
 11 
 1886.99206542969 
 21 
 5650.2080078125 
 31 
 0 
 0 
LINE
 10 
 1886.99206542969 
 20 
 5650.2080078125 
 30 
 0 
 11 
 1895 
 21 
 5643 
 31 
 0 
 0 
LINE
 10 
 1895 
 20 
 5643 
 30 
 0 
 11 
 1904.71984863281 
 21 
 5627.1357421875 
 31 
 0 
 0 
LINE
 10 
 1904.71984863281 
 20 
 5627.1357421875 
 30 
 0 
 11 
 1907.48010253906 
 21 
 5604.6484375 
 31 
 0 
 0 
LINE
 10 
 1907.48010253906 
 20 
 5604.6484375 
 30 
 0 
 11 
 1903.28002929688 
 21 
 5575.39208984375 
 31 
 0 
 0 
LINE
 10 
 1903.28002929688 
 20 
 5575.39208984375 
 30 
 0 
 11 
 1892.1201171875 
 21 
 5539.22412109375 
 31 
 0 
 0 
LINE
 10 
 1892.1201171875 
 20 
 5539.22412109375 
 30 
 0 
 11 
 1874 
 21 
 5496 
 31 
 0 
 0 
LINE
 10 
 1874 
 20 
 5496 
 30 
 0 
 11 
 1864.49597167969 
 21 
 5472.9921875 
 31 
 0 
 0 
LINE
 10 
 1864.49597167969 
 20 
 5472.9921875 
 30 
 0 
 11 
 1857.48815917969 
 21 
 5451.61572265625 
 31 
 0 
 0 
LINE
 10 
 1857.48815917969 
 20 
 5451.61572265625 
 30 
 0 
 11 
 1852.83203125 
 21 
 5431.34375 
 31 
 0 
 0 
LINE
 10 
 1852.83203125 
 20 
 5431.34375 
 30 
 0 
 11 
 1850.38403320313 
 21 
 5411.6484375 
 31 
 0 
 0 
LINE
 10 
 1850.38403320313 
 20 
 5411.6484375 
 30 
 0 
 11 
 1850 
 21 
 5392 
 31 
 0 
 0 
LINE
 10 
 1850 
 20 
 5392 
 30 
 0 
 11 
 1853.34399414063 
 21 
 5290.15185546875 
 31 
 0 
 0 
LINE
 10 
 1853.34399414063 
 20 
 5290.15185546875 
 30 
 0 
 11 
 1849.39196777344 
 21 
 5220.416015625 
 31 
 0 
 0 
LINE
 10 
 1849.39196777344 
 20 
 5220.416015625 
 30 
 0 
 11 
 1835.16796875 
 21 
 5172.90380859375 
 31 
 0 
 0 
LINE
 10 
 1835.16796875 
 20 
 5172.90380859375 
 30 
 0 
 11 
 1807.69604492188 
 21 
 5137.72802734375 
 31 
 0 
 0 
LINE
 10 
 1807.69604492188 
 20 
 5137.72802734375 
 30 
 0 
 11 
 1764 
 21 
 5105 
 31 
 0 
 0 
LINE
 10 
 1764 
 20 
 5105 
 30 
 0 
 11 
 1746.02392578125 
 21 
 5092.24755859375 
 31 
 0 
 0 
LINE
 10 
 1746.02392578125 
 20 
 5092.24755859375 
 30 
 0 
 11 
 1726.751953125 
 21 
 5077.62451171875 
 31 
 0 
 0 
LINE
 10 
 1726.751953125 
 20 
 5077.62451171875 
 30 
 0 
 11 
 1707.76806640625 
 21 
 5062.3759765625 
 31 
 0 
 0 
LINE
 10 
 1707.76806640625 
 20 
 5062.3759765625 
 30 
 0 
 11 
 1690.65600585938 
 21 
 5047.751953125 
 31 
 0 
 0 
LINE
 10 
 1690.65600585938 
 20 
 5047.751953125 
 30 
 0 
 11 
 1677 
 21 
 5035 
 31 
 0 
 0 
LINE
 10 
 1677 
 20 
 5035 
 30 
 0 
 11 
 1654.68005371094 
 21 
 5015.19970703125 
 31 
 0 
 0 
LINE
 10 
 1654.68005371094 
 20 
 5015.19970703125 
 30 
 0 
 11 
 1635.96008300781 
 21 
 5005 
 31 
 0 
 0 
LINE
 10 
 1635.96008300781 
 20 
 5005 
 30 
 0 
 11 
 1619.40002441406 
 21 
 5004.39990234375 
 31 
 0 
 0 
LINE
 10 
 1619.40002441406 
 20 
 5004.39990234375 
 30 
 0 
 11 
 1603.56005859375 
 21 
 5013.400390625 
 31 
 0 
 0 
LINE
 10 
 1603.56005859375 
 20 
 5013.400390625 
 30 
 0 
 11 
 1587 
 21 
 5032 
 31 
 0 
 0 
LINE
 10 
 1587 
 20 
 5032 
 30 
 0 
 11 
 1565.34387207031 
 21 
 5091.431640625 
 31 
 0 
 0 
LINE
 10 
 1565.34387207031 
 20 
 5091.431640625 
 30 
 0 
 11 
 1563.51208496094 
 21 
 5173.85595703125 
 31 
 0 
 0 
LINE
 10 
 1563.51208496094 
 20 
 5173.85595703125 
 30 
 0 
 11 
 1579.00805664063 
 21 
 5265.06396484375 
 31 
 0 
 0 
LINE
 10 
 1579.00805664063 
 20 
 5265.06396484375 
 30 
 0 
 11 
 1609.33605957031 
 21 
 5350.84814453125 
 31 
 0 
 0 
LINE
 10 
 1609.33605957031 
 20 
 5350.84814453125 
 30 
 0 
 11 
 1652 
 21 
 5417 
 31 
 0 
 0 
LINE
 10 
 1652 
 20 
 5417 
 30 
 0 
 11 
 1658.45593261719 
 21 
 5424.7197265625 
 31 
 0 
 0 
LINE
 10 
 1658.45593261719 
 20 
 5424.7197265625 
 30 
 0 
 11 
 1663.32800292969 
 21 
 5431.9599609375 
 31 
 0 
 0 
LINE
 10 
 1663.32800292969 
 20 
 5431.9599609375 
 30 
 0 
 11 
 1666.47204589844 
 21 
 5438.23974609375 
 31 
 0 
 0 
LINE
 10 
 1666.47204589844 
 20 
 5438.23974609375 
 30 
 0 
 11 
 1667.74401855469 
 21 
 5443.080078125 
 31 
 0 
 0 
LINE
 10 
 1667.74401855469 
 20 
 5443.080078125 
 30 
 0 
 11 
 1667 
 21 
 5446 
 31 
 0 
 0 
LINE
 10 
 1667 
 20 
 5446 
 30 
 0 
 11 
 1654.82397460938 
 21 
 5443.3359375 
 31 
 0 
 0 
LINE
 10 
 1654.82397460938 
 20 
 5443.3359375 
 30 
 0 
 11 
 1634.15209960938 
 21 
 5424.2080078125 
 31 
 0 
 0 
LINE
 10 
 1634.15209960938 
 20 
 5424.2080078125 
 30 
 0 
 11 
 1608.96801757813 
 21 
 5393.51220703125 
 31 
 0 
 0 
LINE
 10 
 1608.96801757813 
 20 
 5393.51220703125 
 30 
 0 
 11 
 1583.25598144531 
 21 
 5356.14404296875 
 31 
 0 
 0 
LINE
 10 
 1583.25598144531 
 20 
 5356.14404296875 
 30 
 0 
 11 
 1561 
 21 
 5317 
 31 
 0 
 0 
LINE
 10 
 1561 
 20 
 5317 
 30 
 0 
 11 
 1527.86389160156 
 21 
 5230.3837890625 
 31 
 0 
 0 
LINE
 10 
 1527.86389160156 
 20 
 5230.3837890625 
 30 
 0 
 11 
 1512.39196777344 
 21 
 5146.79248046875 
 31 
 0 
 0 
LINE
 10 
 1512.39196777344 
 20 
 5146.79248046875 
 30 
 0 
 11 
 1514.48803710938 
 21 
 5071.408203125 
 31 
 0 
 0 
LINE
 10 
 1514.48803710938 
 20 
 5071.408203125 
 30 
 0 
 11 
 1534.05603027344 
 21 
 5009.416015625 
 31 
 0 
 0 
LINE
 10 
 1534.05603027344 
 20 
 5009.416015625 
 30 
 0 
 11 
 1571 
 21 
 4966 
 31 
 0 
 0 
LINE
 10 
 1571 
 20 
 4966 
 30 
 0 
 11 
 1589.66394042969 
 21 
 4956.64794921875 
 31 
 0 
 0 
LINE
 10 
 1589.66394042969 
 20 
 4956.64794921875 
 30 
 0 
 11 
 1612.07202148438 
 21 
 4951.423828125 
 31 
 0 
 0 
LINE
 10 
 1612.07202148438 
 20 
 4951.423828125 
 30 
 0 
 11 
 1636.44799804688 
 21 
 4950.3759765625 
 31 
 0 
 0 
LINE
 10 
 1636.44799804688 
 20 
 4950.3759765625 
 30 
 0 
 11 
 1661.01599121094 
 21 
 4953.55224609375 
 31 
 0 
 0 
LINE
 10 
 1661.01599121094 
 20 
 4953.55224609375 
 30 
 0 
 11 
 1684 
 21 
 4961 
 31 
 0 
 0 
LINE
 10 
 1684 
 20 
 4961 
 30 
 0 
 11 
 1695.95202636719 
 21 
 4965.48779296875 
 31 
 0 
 0 
LINE
 10 
 1695.95202636719 
 20 
 4965.48779296875 
 30 
 0 
 11 
 1706.65600585938 
 21 
 4966.6640625 
 31 
 0 
 0 
LINE
 10 
 1706.65600585938 
 20 
 4966.6640625 
 30 
 0 
 11 
 1717.98400878906 
 21 
 4964.09619140625 
 31 
 0 
 0 
LINE
 10 
 1717.98400878906 
 20 
 4964.09619140625 
 30 
 0 
 11 
 1731.80798339844 
 21 
 4957.35205078125 
 31 
 0 
 0 
LINE
 10 
 1731.80798339844 
 20 
 4957.35205078125 
 30 
 0 
 11 
 1750 
 21 
 4946 
 31 
 0 
 0 
LINE
 10 
 1750 
 20 
 4946 
 30 
 0 
 11 
 1796.01599121094 
 21 
 4902.607421875 
 31 
 0 
 0 
LINE
 10 
 1796.01599121094 
 20 
 4902.607421875 
 30 
 0 
 11 
 1832.04797363281 
 21 
 4841.984375 
 31 
 0 
 0 
LINE
 10 
 1832.04797363281 
 20 
 4841.984375 
 30 
 0 
 11 
 1856.27197265625 
 21 
 4769.4560546875 
 31 
 0 
 0 
LINE
 10 
 1856.27197265625 
 20 
 4769.4560546875 
 30 
 0 
 11 
 1866.86401367188 
 21 
 4690.35205078125 
 31 
 0 
 0 
LINE
 10 
 1866.86401367188 
 20 
 4690.35205078125 
 30 
 0 
 11 
 1862 
 21 
 4610 
 31 
 0 
 0 
LINE
 10 
 1862 
 20 
 4610 
 30 
 0 
 11 
 1857.97595214844 
 21 
 4586.57568359375 
 31 
 0 
 0 
LINE
 10 
 1857.97595214844 
 20 
 4586.57568359375 
 30 
 0 
 11 
 1853.328125 
 21 
 4560.84814453125 
 31 
 0 
 0 
LINE
 10 
 1853.328125 
 20 
 4560.84814453125 
 30 
 0 
 11 
 1848.39196777344 
 21 
 4534.83203125 
 31 
 0 
 0 
LINE
 10 
 1848.39196777344 
 20 
 4534.83203125 
 30 
 0 
 11 
 1843.50402832031 
 21 
 4510.5439453125 
 31 
 0 
 0 
LINE
 10 
 1843.50402832031 
 20 
 4510.5439453125 
 30 
 0 
 11 
 1839 
 21 
 4490 
 31 
 0 
 0 
LINE
 10 
 1839 
 20 
 4490 
 30 
 0 
 11 
 1833.82397460938 
 21 
 4451.31982421875 
 31 
 0 
 0 
LINE
 10 
 1833.82397460938 
 20 
 4451.31982421875 
 30 
 0 
 11 
 1835.03198242188 
 21 
 4414.7998046875 
 31 
 0 
 0 
LINE
 10 
 1835.03198242188 
 20 
 4414.7998046875 
 30 
 0 
 11 
 1842.52807617188 
 21 
 4380.919921875 
 31 
 0 
 0 
LINE
 10 
 1842.52807617188 
 20 
 4380.919921875 
 30 
 0 
 11 
 1856.21606445313 
 21 
 4350.16015625 
 31 
 0 
 0 
LINE
 10 
 1856.21606445313 
 20 
 4350.16015625 
 30 
 0 
 11 
 1876 
 21 
 4323 
 31 
 0 
 0 
LINE
 10 
 1876 
 20 
 4323 
 30 
 0 
 11 
 1901 
 21 
 4295 
 31 
 0 
 0 
LINE
 10 
 1901 
 20 
 4295 
 30 
 0 
 11 
 1885 
 21 
 4334 
 31 
 0 
 0 
LINE
 10 
 1885 
 20 
 4334 
 30 
 0 
 11 
 1874.82397460938 
 21 
 4368.9921875 
 31 
 0 
 0 
LINE
 10 
 1874.82397460938 
 20 
 4368.9921875 
 30 
 0 
 11 
 1870.7919921875 
 21 
 4407.5361328125 
 31 
 0 
 0 
LINE
 10 
 1870.7919921875 
 20 
 4407.5361328125 
 30 
 0 
 11 
 1873.04809570313 
 21 
 4450.7841796875 
 31 
 0 
 0 
LINE
 10 
 1873.04809570313 
 20 
 4450.7841796875 
 30 
 0 
 11 
 1881.73608398438 
 21 
 4499.88818359375 
 31 
 0 
 0 
LINE
 10 
 1881.73608398438 
 20 
 4499.88818359375 
 30 
 0 
 11 
 1897 
 21 
 4556 
 31 
 0 
 0 
LINE
 10 
 1897 
 20 
 4556 
 30 
 0 
 11 
 1912.09594726563 
 21 
 4617.6240234375 
 31 
 0 
 0 
LINE
 10 
 1912.09594726563 
 20 
 4617.6240234375 
 30 
 0 
 11 
 1921.2880859375 
 21 
 4682.2724609375 
 31 
 0 
 0 
LINE
 10 
 1921.2880859375 
 20 
 4682.2724609375 
 30 
 0 
 11 
 1924.43200683594 
 21 
 4746.0078125 
 31 
 0 
 0 
LINE
 10 
 1924.43200683594 
 20 
 4746.0078125 
 30 
 0 
 11 
 1921.38403320313 
 21 
 4804.89599609375 
 31 
 0 
 0 
LINE
 10 
 1921.38403320313 
 20 
 4804.89599609375 
 30 
 0 
 11 
 1912 
 21 
 4855 
 31 
 0 
 0 
LINE
 10 
 1912 
 20 
 4855 
 30 
 0 
 11 
 1900.97595214844 
 21 
 4884.17578125 
 31 
 0 
 0 
LINE
 10 
 1900.97595214844 
 20 
 4884.17578125 
 30 
 0 
 11 
 1883.32800292969 
 21 
 4919.44775390625 
 31 
 0 
 0 
LINE
 10 
 1883.32800292969 
 20 
 4919.44775390625 
 30 
 0 
 11 
 1860.59204101563 
 21 
 4958.0322265625 
 31 
 0 
 0 
LINE
 10 
 1860.59204101563 
 20 
 4958.0322265625 
 30 
 0 
 11 
 1834.30407714844 
 21 
 4997.14404296875 
 31 
 0 
 0 
LINE
 10 
 1834.30407714844 
 20 
 4997.14404296875 
 30 
 0 
 11 
 1806 
 21 
 5034 
 31 
 0 
 0 
LINE
 10 
 1806 
 20 
 5034 
 30 
 0 
 11 
 1778 
 21 
 5070 
 31 
 0 
 0 
LINE
 10 
 1778 
 20 
 5070 
 30 
 0 
 11 
 1809 
 21 
 5096 
 31 
 0 
 0 
LINE
 10 
 1809 
 20 
 5096 
 30 
 0 
 11 
 1842.83996582031 
 21 
 5131.40771484375 
 31 
 0 
 0 
LINE
 10 
 1842.83996582031 
 20 
 5131.40771484375 
 30 
 0 
 11 
 1865.64001464844 
 21 
 5173.58447265625 
 31 
 0 
 0 
LINE
 10 
 1865.64001464844 
 20 
 5173.58447265625 
 30 
 0 
 11 
 1878.11999511719 
 21 
 5225.4560546875 
 31 
 0 
 0 
LINE
 10 
 1878.11999511719 
 20 
 5225.4560546875 
 30 
 0 
 11 
 1881 
 21 
 5289.9521484375 
 31 
 0 
 0 
LINE
 10 
 1881 
 20 
 5289.9521484375 
 30 
 0 
 11 
 1875 
 21 
 5370 
 31 
 0 
 0 
LINE
 10 
 1875 
 20 
 5370 
 30 
 0 
 11 
 1872.42395019531 
 21 
 5398.78369140625 
 31 
 0 
 0 
LINE
 10 
 1872.42395019531 
 20 
 5398.78369140625 
 30 
 0 
 11 
 1872.15197753906 
 21 
 5422.19189453125 
 31 
 0 
 0 
LINE
 10 
 1872.15197753906 
 20 
 5422.19189453125 
 30 
 0 
 11 
 1874.56799316406 
 21 
 5443.00830078125 
 31 
 0 
 0 
LINE
 10 
 1874.56799316406 
 20 
 5443.00830078125 
 30 
 0 
 11 
 1880.05603027344 
 21 
 5464.01611328125 
 31 
 0 
 0 
LINE
 10 
 1880.05603027344 
 20 
 5464.01611328125 
 30 
 0 
 11 
 1889 
 21 
 5488 
 31 
 0 
 0 
LINE
 10 
 1889 
 20 
 5488 
 30 
 0 
 11 
 1918.3759765625 
 21 
 5580.4482421875 
 31 
 0 
 0 
LINE
 10 
 1918.3759765625 
 20 
 5580.4482421875 
 30 
 0 
 11 
 1920.00805664063 
 21 
 5640.7841796875 
 31 
 0 
 0 
LINE
 10 
 1920.00805664063 
 20 
 5640.7841796875 
 30 
 0 
 11 
 1893.75207519531 
 21 
 5669.2958984375 
 31 
 0 
 0 
LINE
 10 
 1893.75207519531 
 20 
 5669.2958984375 
 30 
 0 
 11 
 1839.46398925781 
 21 
 5666.27197265625 
 31 
 0 
 0 
LINE
 10 
 1839.46398925781 
 20 
 5666.27197265625 
 30 
 0 
 11 
 1757 
 21 
 5632 
 31 
 0 
 0 
LINE
 10 
 1132 
 20 
 5613 
 30 
 0 
 11 
 1091.80004882813 
 21 
 5584.11181640625 
 31 
 0 
 0 
LINE
 10 
 1091.80004882813 
 20 
 5584.11181640625 
 30 
 0 
 11 
 1058.07995605469 
 21 
 5540.5361328125 
 31 
 0 
 0 
LINE
 10 
 1058.07995605469 
 20 
 5540.5361328125 
 30 
 0 
 11 
 1031.56005859375 
 21 
 5483.904296875 
 31 
 0 
 0 
LINE
 10 
 1031.56005859375 
 20 
 5483.904296875 
 30 
 0 
 11 
 1012.96002197266 
 21 
 5415.84814453125 
 31 
 0 
 0 
LINE
 10 
 1012.96002197266 
 20 
 5415.84814453125 
 30 
 0 
 11 
 1003 
 21 
 5338 
 31 
 0 
 0 
LINE
 10 
 1003 
 20 
 5338 
 30 
 0 
 11 
 1000.97595214844 
 21 
 5301.13623046875 
 31 
 0 
 0 
LINE
 10 
 1000.97595214844 
 20 
 5301.13623046875 
 30 
 0 
 11 
 1000.96801757813 
 21 
 5271.80810546875 
 31 
 0 
 0 
LINE
 10 
 1000.96801757813 
 20 
 5271.80810546875 
 30 
 0 
 11 
 1003.07202148438 
 21 
 5247.7119140625 
 31 
 0 
 0 
LINE
 10 
 1003.07202148438 
 20 
 5247.7119140625 
 30 
 0 
 11 
 1007.38403320313 
 21 
 5226.5439453125 
 31 
 0 
 0 
LINE
 10 
 1007.38403320313 
 20 
 5226.5439453125 
 30 
 0 
 11 
 1014 
 21 
 5206 
 31 
 0 
 0 
LINE
 10 
 1014 
 20 
 5206 
 30 
 0 
 11 
 1036.57604980469 
 21 
 5163.26416015625 
 31 
 0 
 0 
LINE
 10 
 1036.57604980469 
 20 
 5163.26416015625 
 30 
 0 
 11 
 1066.2080078125 
 21 
 5132.67236328125 
 31 
 0 
 0 
LINE
 10 
 1066.2080078125 
 20 
 5132.67236328125 
 30 
 0 
 11 
 1101.55200195313 
 21 
 5114.84814453125 
 31 
 0 
 0 
LINE
 10 
 1101.55200195313 
 20 
 5114.84814453125 
 30 
 0 
 11 
 1141.26403808594 
 21 
 5110.416015625 
 31 
 0 
 0 
LINE
 10 
 1141.26403808594 
 20 
 5110.416015625 
 30 
 0 
 11 
 1184 
 21 
 5120 
 31 
 0 
 0 
LINE
 10 
 1184 
 20 
 5120 
 30 
 0 
 11 
 1192.080078125 
 21 
 5122.50390625 
 31 
 0 
 0 
LINE
 10 
 1192.080078125 
 20 
 5122.50390625 
 30 
 0 
 11 
 1199.20007324219 
 21 
 5123.9521484375 
 31 
 0 
 0 
LINE
 10 
 1199.20007324219 
 20 
 5123.9521484375 
 30 
 0 
 11 
 1204.88000488281 
 21 
 5124.248046875 
 31 
 0 
 0 
LINE
 10 
 1204.88000488281 
 20 
 5124.248046875 
 30 
 0 
 11 
 1208.64001464844 
 21 
 5123.2958984375 
 31 
 0 
 0 
LINE
 10 
 1208.64001464844 
 20 
 5123.2958984375 
 30 
 0 
 11 
 1210 
 21 
 5121 
 31 
 0 
 0 
LINE
 10 
 1210 
 20 
 5121 
 30 
 0 
 11 
 1205.7119140625 
 21 
 5111.30419921875 
 31 
 0 
 0 
LINE
 10 
 1205.7119140625 
 20 
 5111.30419921875 
 30 
 0 
 11 
 1191.53601074219 
 21 
 5098.15234375 
 31 
 0 
 0 
LINE
 10 
 1191.53601074219 
 20 
 5098.15234375 
 30 
 0 
 11 
 1165.50402832031 
 21 
 5080.248046875 
 31 
 0 
 0 
LINE
 10 
 1165.50402832031 
 20 
 5080.248046875 
 30 
 0 
 11 
 1125.64794921875 
 21 
 5056.2958984375 
 31 
 0 
 0 
LINE
 10 
 1125.64794921875 
 20 
 5056.2958984375 
 30 
 0 
 11 
 1070 
 21 
 5025 
 31 
 0 
 0 
LINE
 10 
 1070 
 20 
 5025 
 30 
 0 
 11 
 982.447998046875 
 21 
 4974.54345703125 
 31 
 0 
 0 
LINE
 10 
 982.447998046875 
 20 
 4974.54345703125 
 30 
 0 
 11 
 915.104064941406 
 21 
 4929.75244140625 
 31 
 0 
 0 
LINE
 10 
 915.104064941406 
 20 
 4929.75244140625 
 30 
 0 
 11 
 867.536010742188 
 21 
 4890.2880859375 
 31 
 0 
 0 
LINE
 10 
 867.536010742188 
 20 
 4890.2880859375 
 30 
 0 
 11 
 839.31201171875 
 21 
 4855.81640625 
 31 
 0 
 0 
LINE
 10 
 839.31201171875 
 20 
 4855.81640625 
 30 
 0 
 11 
 830 
 21 
 4826 
 31 
 0 
 0 
LINE
 10 
 830 
 20 
 4826 
 30 
 0 
 11 
 826.640014648438 
 21 
 4803.80029296875 
 31 
 0 
 0 
LINE
 10 
 826.640014648438 
 20 
 4803.80029296875 
 30 
 0 
 11 
 815.600036621094 
 21 
 4783.04052734375 
 31 
 0 
 0 
LINE
 10 
 815.600036621094 
 20 
 4783.04052734375 
 30 
 0 
 11 
 795.440002441406 
 21 
 4762.27978515625 
 31 
 0 
 0 
LINE
 10 
 795.440002441406 
 20 
 4762.27978515625 
 30 
 0 
 11 
 764.720031738281 
 21 
 4740.080078125 
 31 
 0 
 0 
LINE
 10 
 764.720031738281 
 20 
 4740.080078125 
 30 
 0 
 11 
 722 
 21 
 4715 
 31 
 0 
 0 
LINE
 10 
 722 
 20 
 4715 
 30 
 0 
 11 
 650.343994140625 
 21 
 4672.3515625 
 31 
 0 
 0 
LINE
 10 
 650.343994140625 
 20 
 4672.3515625 
 30 
 0 
 11 
 578.831970214844 
 21 
 4624.3759765625 
 31 
 0 
 0 
LINE
 10 
 578.831970214844 
 20 
 4624.3759765625 
 30 
 0 
 11 
 513.848022460938 
 21 
 4575.82421875 
 31 
 0 
 0 
LINE
 10 
 513.848022460938 
 20 
 4575.82421875 
 30 
 0 
 11 
 461.776000976563 
 21 
 4531.4482421875 
 31 
 0 
 0 
LINE
 10 
 461.776000976563 
 20 
 4531.4482421875 
 30 
 0 
 11 
 429 
 21 
 4496 
 31 
 0 
 0 
LINE
 10 
 429 
 20 
 4496 
 30 
 0 
 11 
 412.423980712891 
 21 
 4470.27978515625 
 31 
 0 
 0 
LINE
 10 
 412.423980712891 
 20 
 4470.27978515625 
 30 
 0 
 11 
 403.432006835938 
 21 
 4447.68017578125 
 31 
 0 
 0 
LINE
 10 
 403.432006835938 
 20 
 4447.68017578125 
 30 
 0 
 11 
 401.928009033203 
 21 
 4427.23974609375 
 31 
 0 
 0 
LINE
 10 
 401.928009033203 
 20 
 4427.23974609375 
 30 
 0 
 11 
 407.816009521484 
 21 
 4408 
 31 
 0 
 0 
LINE
 10 
 407.816009521484 
 20 
 4408 
 30 
 0 
 11 
 421 
 21 
 4389 
 31 
 0 
 0 
LINE
 10 
 421 
 20 
 4389 
 30 
 0 
 11 
 441 
 21 
 4365 
 31 
 0 
 0 
LINE
 10 
 441 
 20 
 4365 
 30 
 0 
 11 
 435 
 21 
 4402 
 31 
 0 
 0 
LINE
 10 
 435 
 20 
 4402 
 30 
 0 
 11 
 433.048004150391 
 21 
 4418.4638671875 
 31 
 0 
 0 
LINE
 10 
 433.048004150391 
 20 
 4418.4638671875 
 30 
 0 
 11 
 433.544006347656 
 21 
 4430.51220703125 
 31 
 0 
 0 
LINE
 10 
 433.544006347656 
 20 
 4430.51220703125 
 30 
 0 
 11 
 437.015991210938 
 21 
 4439.72802734375 
 31 
 0 
 0 
LINE
 10 
 437.015991210938 
 20 
 4439.72802734375 
 30 
 0 
 11 
 443.992004394531 
 21 
 4447.69580078125 
 31 
 0 
 0 
LINE
 10 
 443.992004394531 
 20 
 4447.69580078125 
 30 
 0 
 11 
 455 
 21 
 4456 
 31 
 0 
 0 
LINE
 10 
 455 
 20 
 4456 
 30 
 0 
 11 
 467.727966308594 
 21 
 4462.86376953125 
 31 
 0 
 0 
LINE
 10 
 467.727966308594 
 20 
 4462.86376953125 
 30 
 0 
 11 
 481.464019775391 
 21 
 4466.751953125 
 31 
 0 
 0 
LINE
 10 
 481.464019775391 
 20 
 4466.751953125 
 30 
 0 
 11 
 499.136016845703 
 21 
 4467.80810546875 
 31 
 0 
 0 
LINE
 10 
 499.136016845703 
 20 
 4467.80810546875 
 30 
 0 
 11 
 523.671997070313 
 21 
 4466.17626953125 
 31 
 0 
 0 
LINE
 10 
 523.671997070313 
 20 
 4466.17626953125 
 30 
 0 
 11 
 558 
 21 
 4462 
 31 
 0 
 0 
LINE
 10 
 558 
 20 
 4462 
 30 
 0 
 11 
 595.47998046875 
 21 
 4457.4482421875 
 31 
 0 
 0 
LINE
 10 
 595.47998046875 
 20 
 4457.4482421875 
 30 
 0 
 11 
 621.919982910156 
 21 
 4456.30419921875 
 31 
 0 
 0 
LINE
 10 
 621.919982910156 
 20 
 4456.30419921875 
 30 
 0 
 11 
 643.320007324219 
 21 
 4459.3359375 
 31 
 0 
 0 
LINE
 10 
 643.320007324219 
 20 
 4459.3359375 
 30 
 0 
 11 
 665.679992675781 
 21 
 4467.31201171875 
 31 
 0 
 0 
LINE
 10 
 665.679992675781 
 20 
 4467.31201171875 
 30 
 0 
 11 
 695 
 21 
 4481 
 31 
 0 
 0 
LINE
 10 
 695 
 20 
 4481 
 30 
 0 
 11 
 749.327941894531 
 21 
 4512.1279296875 
 31 
 0 
 0 
LINE
 10 
 749.327941894531 
 20 
 4512.1279296875 
 30 
 0 
 11 
 806.10400390625 
 21 
 4553.6240234375 
 31 
 0 
 0 
LINE
 10 
 806.10400390625 
 20 
 4553.6240234375 
 30 
 0 
 11 
 860.815979003906 
 21 
 4601.4560546875 
 31 
 0 
 0 
LINE
 10 
 860.815979003906 
 20 
 4601.4560546875 
 30 
 0 
 11 
 908.952026367188 
 21 
 4651.591796875 
 31 
 0 
 0 
LINE
 10 
 908.952026367188 
 20 
 4651.591796875 
 30 
 0 
 11 
 946 
 21 
 4700 
 31 
 0 
 0 
LINE
 10 
 946 
 20 
 4700 
 30 
 0 
 11 
 980.288024902344 
 21 
 4751.26416015625 
 31 
 0 
 0 
LINE
 10 
 980.288024902344 
 20 
 4751.26416015625 
 30 
 0 
 11 
 1007.42401123047 
 21 
 4785.8720703125 
 31 
 0 
 0 
LINE
 10 
 1007.42401123047 
 20 
 4785.8720703125 
 30 
 0 
 11 
 1030.81604003906 
 21 
 4806.84814453125 
 31 
 0 
 0 
LINE
 10 
 1030.81604003906 
 20 
 4806.84814453125 
 30 
 0 
 11 
 1053.8720703125 
 21 
 4817.21630859375 
 31 
 0 
 0 
LINE
 10 
 1053.8720703125 
 20 
 4817.21630859375 
 30 
 0 
 11 
 1080 
 21 
 4820 
 31 
 0 
 0 
LINE
 10 
 1080 
 20 
 4820 
 30 
 0 
 11 
 1109.69592285156 
 21 
 4815.98388671875 
 31 
 0 
 0 
LINE
 10 
 1109.69592285156 
 20 
 4815.98388671875 
 30 
 0 
 11 
 1134.2080078125 
 21 
 4803.7119140625 
 31 
 0 
 0 
LINE
 10 
 1134.2080078125 
 20 
 4803.7119140625 
 30 
 0 
 11 
 1153.8720703125 
 21 
 4782.84814453125 
 31 
 0 
 0 
LINE
 10 
 1153.8720703125 
 20 
 4782.84814453125 
 30 
 0 
 11 
 1169.02404785156 
 21 
 4753.05615234375 
 31 
 0 
 0 
LINE
 10 
 1169.02404785156 
 20 
 4753.05615234375 
 30 
 0 
 11 
 1180 
 21 
 4714 
 31 
 0 
 0 
LINE
 10 
 1180 
 20 
 4714 
 30 
 0 
 11 
 1185.88000488281 
 21 
 4689.18359375 
 31 
 0 
 0 
LINE
 10 
 1185.88000488281 
 20 
 4689.18359375 
 30 
 0 
 11 
 1191.28002929688 
 21 
 4673.392578125 
 31 
 0 
 0 
LINE
 10 
 1191.28002929688 
 20 
 4673.392578125 
 30 
 0 
 11 
 1197.64001464844 
 21 
 4664.60791015625 
 31 
 0 
 0 
LINE
 10 
 1197.64001464844 
 20 
 4664.60791015625 
 30 
 0 
 11 
 1206.40002441406 
 21 
 4660.81591796875 
 31 
 0 
 0 
LINE
 10 
 1206.40002441406 
 20 
 4660.81591796875 
 30 
 0 
 11 
 1219 
 21 
 4660 
 31 
 0 
 0 
LINE
 10 
 1219 
 20 
 4660 
 30 
 0 
 11 
 1241.38391113281 
 21 
 4662.23974609375 
 31 
 0 
 0 
LINE
 10 
 1241.38391113281 
 20 
 4662.23974609375 
 30 
 0 
 11 
 1267.27209472656 
 21 
 4669.27978515625 
 31 
 0 
 0 
LINE
 10 
 1267.27209472656 
 20 
 4669.27978515625 
 30 
 0 
 11 
 1297.76806640625 
 21 
 4681.60009765625 
 31 
 0 
 0 
LINE
 10 
 1297.76806640625 
 20 
 4681.60009765625 
 30 
 0 
 11 
 1333.97595214844 
 21 
 4699.68017578125 
 31 
 0 
 0 
LINE
 10 
 1333.97595214844 
 20 
 4699.68017578125 
 30 
 0 
 11 
 1377 
 21 
 4724 
 31 
 0 
 0 
LINE
 10 
 1377 
 20 
 4724 
 30 
 0 
 11 
 1417.75988769531 
 21 
 4750.919921875 
 31 
 0 
 0 
LINE
 10 
 1417.75988769531 
 20 
 4750.919921875 
 30 
 0 
 11 
 1461.16015625 
 21 
 4783.60009765625 
 31 
 0 
 0 
LINE
 10 
 1461.16015625 
 20 
 4783.60009765625 
 30 
 0 
 11 
 1500.47998046875 
 21 
 4816.52001953125 
 31 
 0 
 0 
LINE
 10 
 1500.47998046875 
 20 
 4816.52001953125 
 30 
 0 
 11 
 1529 
 21 
 4844.16015625 
 31 
 0 
 0 
LINE
 10 
 1529 
 20 
 4844.16015625 
 30 
 0 
 11 
 1540 
 21 
 4861 
 31 
 0 
 0 
LINE
 10 
 1540 
 20 
 4861 
 30 
 0 
 11 
 1538.41589355469 
 21 
 4863.85595703125 
 31 
 0 
 0 
LINE
 10 
 1538.41589355469 
 20 
 4863.85595703125 
 30 
 0 
 11 
 1534.04797363281 
 21 
 4866.328125 
 31 
 0 
 0 
LINE
 10 
 1534.04797363281 
 20 
 4866.328125 
 30 
 0 
 11 
 1527.47204589844 
 21 
 4868.27197265625 
 31 
 0 
 0 
LINE
 10 
 1527.47204589844 
 20 
 4868.27197265625 
 30 
 0 
 11 
 1519.26403808594 
 21 
 4869.5439453125 
 31 
 0 
 0 
LINE
 10 
 1519.26403808594 
 20 
 4869.5439453125 
 30 
 0 
 11 
 1510 
 21 
 4870 
 31 
 0 
 0 
LINE
 10 
 1510 
 20 
 4870 
 30 
 0 
 11 
 1485.31994628906 
 21 
 4872.8564453125 
 31 
 0 
 0 
LINE
 10 
 1485.31994628906 
 20 
 4872.8564453125 
 30 
 0 
 11 
 1459.44006347656 
 21 
 4881.328125 
 31 
 0 
 0 
LINE
 10 
 1459.44006347656 
 20 
 4881.328125 
 30 
 0 
 11 
 1432.59997558594 
 21 
 4895.27197265625 
 31 
 0 
 0 
LINE
 10 
 1432.59997558594 
 20 
 4895.27197265625 
 30 
 0 
 11 
 1405.0400390625 
 21 
 4914.5439453125 
 31 
 0 
 0 
LINE
 10 
 1405.0400390625 
 20 
 4914.5439453125 
 30 
 0 
 11 
 1377 
 21 
 4939 
 31 
 0 
 0 
LINE
 10 
 1377 
 20 
 4939 
 30 
 0 
 11 
 1343.16003417969 
 21 
 4981.99169921875 
 31 
 0 
 0 
LINE
 10 
 1343.16003417969 
 20 
 4981.99169921875 
 30 
 0 
 11 
 1322.0400390625 
 21 
 5033.81640625 
 31 
 0 
 0 
LINE
 10 
 1322.0400390625 
 20 
 5033.81640625 
 30 
 0 
 11 
 1313.64001464844 
 21 
 5093.94384765625 
 31 
 0 
 0 
LINE
 10 
 1313.64001464844 
 20 
 5093.94384765625 
 30 
 0 
 11 
 1317.96008300781 
 21 
 5161.84814453125 
 31 
 0 
 0 
LINE
 10 
 1317.96008300781 
 20 
 5161.84814453125 
 30 
 0 
 11 
 1335 
 21 
 5237 
 31 
 0 
 0 
LINE
 10 
 1335 
 20 
 5237 
 30 
 0 
 11 
 1342.01599121094 
 21 
 5270.751953125 
 31 
 0 
 0 
LINE
 10 
 1342.01599121094 
 20 
 5270.751953125 
 30 
 0 
 11 
 1340.72814941406 
 21 
 5300.85595703125 
 31 
 0 
 0 
LINE
 10 
 1340.72814941406 
 20 
 5300.85595703125 
 30 
 0 
 11 
 1330.03198242188 
 21 
 5330.3837890625 
 31 
 0 
 0 
LINE
 10 
 1330.03198242188 
 20 
 5330.3837890625 
 30 
 0 
 11 
 1308.82409667969 
 21 
 5362.408203125 
 31 
 0 
 0 
LINE
 10 
 1308.82409667969 
 20 
 5362.408203125 
 30 
 0 
 11 
 1276 
 21 
 5400 
 31 
 0 
 0 
LINE
 10 
 1276 
 20 
 5400 
 30 
 0 
 11 
 1248.15991210938 
 21 
 5430.90380859375 
 31 
 0 
 0 
LINE
 10 
 1248.15991210938 
 20 
 5430.90380859375 
 30 
 0 
 11 
 1228 
 21 
 5459.55224609375 
 31 
 0 
 0 
LINE
 10 
 1228 
 20 
 5459.55224609375 
 30 
 0 
 11 
 1213.35998535156 
 21 
 5490.64794921875 
 31 
 0 
 0 
LINE
 10 
 1213.35998535156 
 20 
 5490.64794921875 
 30 
 0 
 11 
 1202.080078125 
 21 
 5528.89599609375 
 31 
 0 
 0 
LINE
 10 
 1202.080078125 
 20 
 5528.89599609375 
 30 
 0 
 11 
 1192 
 21 
 5579 
 31 
 0 
 0 
LINE
 10 
 1192 
 20 
 5579 
 30 
 0 
 11 
 1189.17602539063 
 21 
 5593.3916015625 
 31 
 0 
 0 
LINE
 10 
 1189.17602539063 
 20 
 5593.3916015625 
 30 
 0 
 11 
 1185.72790527344 
 21 
 5606.05615234375 
 31 
 0 
 0 
LINE
 10 
 1185.72790527344 
 20 
 5606.05615234375 
 30 
 0 
 11 
 1181.99206542969 
 21 
 5616.22412109375 
 31 
 0 
 0 
LINE
 10 
 1181.99206542969 
 20 
 5616.22412109375 
 30 
 0 
 11 
 1178.30395507813 
 21 
 5623.1279296875 
 31 
 0 
 0 
LINE
 10 
 1178.30395507813 
 20 
 5623.1279296875 
 30 
 0 
 11 
 1175 
 21 
 5626 
 31 
 0 
 0 
LINE
 10 
 1175 
 20 
 5626 
 30 
 0 
 11 
 1169.95202636719 
 21 
 5626.279296875 
 31 
 0 
 0 
LINE
 10 
 1169.95202636719 
 20 
 5626.279296875 
 30 
 0 
 11 
 1162.4560546875 
 21 
 5624.8798828125 
 31 
 0 
 0 
LINE
 10 
 1162.4560546875 
 20 
 5624.8798828125 
 30 
 0 
 11 
 1153.18395996094 
 21 
 5622.0400390625 
 31 
 0 
 0 
LINE
 10 
 1153.18395996094 
 20 
 5622.0400390625 
 30 
 0 
 11 
 1142.80798339844 
 21 
 5618 
 31 
 0 
 0 
LINE
 10 
 1142.80798339844 
 20 
 5618 
 30 
 0 
 11 
 1132 
 21 
 5613 
 31 
 0 
 0 
LINE
 10 
 2212 
 20 
 5491 
 30 
 0 
 11 
 2207.69604492188 
 21 
 5487.3837890625 
 31 
 0 
 0 
LINE
 10 
 2207.69604492188 
 20 
 5487.3837890625 
 30 
 0 
 11 
 2204.44799804688 
 21 
 5481.751953125 
 31 
 0 
 0 
LINE
 10 
 2204.44799804688 
 20 
 5481.751953125 
 30 
 0 
 11 
 2202.35205078125 
 21 
 5474.72802734375 
 31 
 0 
 0 
LINE
 10 
 2202.35205078125 
 20 
 5474.72802734375 
 30 
 0 
 11 
 2201.50390625 
 21 
 5466.93603515625 
 31 
 0 
 0 
LINE
 10 
 2201.50390625 
 20 
 5466.93603515625 
 30 
 0 
 11 
 2202 
 21 
 5459 
 31 
 0 
 0 
LINE
 10 
 2202 
 20 
 5459 
 30 
 0 
 11 
 2205 
 21 
 5435 
 31 
 0 
 0 
LINE
 10 
 2205 
 20 
 5435 
 30 
 0 
 11 
 3585 
 21 
 5430 
 31 
 0 
 0 
LINE
 10 
 3585 
 20 
 5430 
 30 
 0 
 11 
 4224.73583984375 
 21 
 5427.2158203125 
 31 
 0 
 0 
LINE
 10 
 4224.73583984375 
 20 
 5427.2158203125 
 30 
 0 
 11 
 4632.96826171875 
 21 
 5424.2880859375 
 31 
 0 
 0 
LINE
 10 
 4632.96826171875 
 20 
 5424.2880859375 
 30 
 0 
 11 
 4865.232421875 
 21 
 5420.35205078125 
 31 
 0 
 0 
LINE
 10 
 4865.232421875 
 20 
 5420.35205078125 
 30 
 0 
 11 
 4977.06396484375 
 21 
 5414.5439453125 
 31 
 0 
 0 
LINE
 10 
 4977.06396484375 
 20 
 5414.5439453125 
 30 
 0 
 11 
 5024 
 21 
 5406 
 31 
 0 
 0 
LINE
 10 
 5024 
 20 
 5406 
 30 
 0 
 11 
 5120.5595703125 
 21 
 5368.70361328125 
 31 
 0 
 0 
LINE
 10 
 5120.5595703125 
 20 
 5368.70361328125 
 30 
 0 
 11 
 5208 
 21 
 5317.39208984375 
 31 
 0 
 0 
LINE
 10 
 5208 
 20 
 5317.39208984375 
 30 
 0 
 11 
 5285.3603515625 
 21 
 5252.92822265625 
 31 
 0 
 0 
LINE
 10 
 5285.3603515625 
 20 
 5252.92822265625 
 30 
 0 
 11 
 5351.68017578125 
 21 
 5176.17578125 
 31 
 0 
 0 
LINE
 10 
 5351.68017578125 
 20 
 5176.17578125 
 30 
 0 
 11 
 5406 
 21 
 5088 
 31 
 0 
 0 
LINE
 10 
 5406 
 20 
 5088 
 30 
 0 
 11 
 5438.767578125 
 21 
 5020.3359375 
 31 
 0 
 0 
LINE
 10 
 5438.767578125 
 20 
 5020.3359375 
 30 
 0 
 11 
 5457.90380859375 
 21 
 4895.16796875 
 31 
 0 
 0 
LINE
 10 
 5457.90380859375 
 20 
 4895.16796875 
 30 
 0 
 11 
 5467.05615234375 
 21 
 4588.03173828125 
 31 
 0 
 0 
LINE
 10 
 5467.05615234375 
 20 
 4588.03173828125 
 30 
 0 
 11 
 5469.8720703125 
 21 
 3974.46411132813 
 31 
 0 
 0 
LINE
 10 
 5469.8720703125 
 20 
 3974.46411132813 
 30 
 0 
 11 
 5470 
 21 
 2930 
 31 
 0 
 0 
LINE
 10 
 5470 
 20 
 2930 
 30 
 0 
 11 
 5469.83203125 
 21 
 1973.45581054688 
 31 
 0 
 0 
LINE
 10 
 5469.83203125 
 20 
 1973.45581054688 
 30 
 0 
 11 
 5468.65576171875 
 21 
 1387.80786132813 
 31 
 0 
 0 
LINE
 10 
 5468.65576171875 
 20 
 1387.80786132813 
 30 
 0 
 11 
 5465.4638671875 
 21 
 1076.43200683594 
 31 
 0 
 0 
LINE
 10 
 5465.4638671875 
 20 
 1076.43200683594 
 30 
 0 
 11 
 5459.248046875 
 21 
 942.703979492188 
 31 
 0 
 0 
LINE
 10 
 5459.248046875 
 20 
 942.703979492188 
 30 
 0 
 11 
 5449 
 21 
 890 
 31 
 0 
 0 
LINE
 10 
 5449 
 20 
 890 
 30 
 0 
 11 
 5441.103515625 
 21 
 863.608032226563 
 31 
 0 
 0 
LINE
 10 
 5441.103515625 
 20 
 863.608032226563 
 30 
 0 
 11 
 5431.1923828125 
 21 
 835.10400390625 
 31 
 0 
 0 
LINE
 10 
 5431.1923828125 
 20 
 835.10400390625 
 30 
 0 
 11 
 5420.12841796875 
 21 
 806.696044921875 
 31 
 0 
 0 
LINE
 10 
 5420.12841796875 
 20 
 806.696044921875 
 30 
 0 
 11 
 5408.7763671875 
 21 
 780.592041015625 
 31 
 0 
 0 
LINE
 10 
 5408.7763671875 
 20 
 780.592041015625 
 30 
 0 
 11 
 5398 
 21 
 759 
 31 
 0 
 0 
LINE
 10 
 5398 
 20 
 759 
 30 
 0 
 11 
 5349.22412109375 
 21 
 684.200012207031 
 31 
 0 
 0 
LINE
 10 
 5349.22412109375 
 20 
 684.200012207031 
 30 
 0 
 11 
 5286.67236328125 
 21 
 615.160034179688 
 31 
 0 
 0 
LINE
 10 
 5286.67236328125 
 20 
 615.160034179688 
 30 
 0 
 11 
 5213.60791015625 
 21 
 554.52001953125 
 31 
 0 
 0 
LINE
 10 
 5213.60791015625 
 20 
 554.52001953125 
 30 
 0 
 11 
 5133.2958984375 
 21 
 504.920013427734 
 31 
 0 
 0 
LINE
 10 
 5133.2958984375 
 20 
 504.920013427734 
 30 
 0 
 11 
 5049 
 21 
 469 
 31 
 0 
 0 
LINE
 10 
 5049 
 20 
 469 
 30 
 0 
 11 
 4975 
 21 
 445 
 31 
 0 
 0 
LINE
 10 
 4975 
 20 
 445 
 30 
 0 
 11 
 3025 
 21 
 445 
 31 
 0 
 0 
LINE
 10 
 3025 
 20 
 445 
 30 
 0 
 11 
 1075 
 21 
 445 
 31 
 0 
 0 
LINE
 10 
 1075 
 20 
 445 
 30 
 0 
 11 
 1001 
 21 
 469 
 31 
 0 
 0 
LINE
 10 
 1001 
 20 
 469 
 30 
 0 
 11 
 943.864013671875 
 21 
 491.89599609375 
 31 
 0 
 0 
LINE
 10 
 943.864013671875 
 20 
 491.89599609375 
 30 
 0 
 11 
 885.191955566406 
 21 
 523.048034667969 
 31 
 0 
 0 
LINE
 10 
 885.191955566406 
 20 
 523.048034667969 
 30 
 0 
 11 
 828.487976074219 
 21 
 560.151977539063 
 31 
 0 
 0 
LINE
 10 
 828.487976074219 
 20 
 560.151977539063 
 30 
 0 
 11 
 777.256042480469 
 21 
 600.903991699219 
 31 
 0 
 0 
LINE
 10 
 777.256042480469 
 20 
 600.903991699219 
 30 
 0 
 11 
 735 
 21 
 643 
 31 
 0 
 0 
LINE
 10 
 735 
 20 
 643 
 30 
 0 
 11 
 705.495971679688 
 21 
 681.607971191406 
 31 
 0 
 0 
LINE
 10 
 705.495971679688 
 20 
 681.607971191406 
 30 
 0 
 11 
 674.16796875 
 21 
 730.344055175781 
 31 
 0 
 0 
LINE
 10 
 674.16796875 
 20 
 730.344055175781 
 30 
 0 
 11 
 643.992004394531 
 21 
 783.976013183594 
 31 
 0 
 0 
LINE
 10 
 643.992004394531 
 20 
 783.976013183594 
 30 
 0 
 11 
 617.943969726563 
 21 
 837.272033691406 
 31 
 0 
 0 
LINE
 10 
 617.943969726563 
 20 
 837.272033691406 
 30 
 0 
 11 
 599 
 21 
 885 
 31 
 0 
 0 
LINE
 10 
 599 
 20 
 885 
 30 
 0 
 11 
 593.184020996094 
 21 
 940.719970703125 
 31 
 0 
 0 
LINE
 10 
 593.184020996094 
 20 
 940.719970703125 
 30 
 0 
 11 
 588.711975097656 
 21 
 1090.28002929688 
 31 
 0 
 0 
LINE
 10 
 588.711975097656 
 20 
 1090.28002929688 
 30 
 0 
 11 
 585.247985839844 
 21 
 1364.88000488281 
 31 
 0 
 0 
LINE
 10 
 585.247985839844 
 20 
 1364.88000488281 
 30 
 0 
 11 
 582.455993652344 
 21 
 1795.72009277344 
 31 
 0 
 0 
LINE
 10 
 582.455993652344 
 20 
 1795.72009277344 
 30 
 0 
 11 
 580 
 21 
 2414 
 31 
 0 
 0 
LINE
 10 
 580 
 20 
 2414 
 30 
 0 
 11 
 577.328002929688 
 21 
 3108.07983398438 
 31 
 0 
 0 
LINE
 10 
 577.328002929688 
 20 
 3108.07983398438 
 30 
 0 
 11 
 574.703979492188 
 21 
 3545.36010742188 
 31 
 0 
 0 
LINE
 10 
 574.703979492188 
 20 
 3545.36010742188 
 30 
 0 
 11 
 571.216003417969 
 21 
 3785.60009765625 
 31 
 0 
 0 
LINE
 10 
 571.216003417969 
 20 
 3785.60009765625 
 30 
 0 
 11 
 565.952026367188 
 21 
 3888.56005859375 
 31 
 0 
 0 
LINE
 10 
 565.952026367188 
 20 
 3888.56005859375 
 30 
 0 
 11 
 558 
 21 
 3914 
 31 
 0 
 0 
LINE
 10 
 558 
 20 
 3914 
 30 
 0 
 11 
 550.52001953125 
 21 
 3917.83984375 
 31 
 0 
 0 
LINE
 10 
 550.52001953125 
 20 
 3917.83984375 
 30 
 0 
 11 
 543.52001953125 
 21 
 3919.76025390625 
 31 
 0 
 0 
LINE
 10 
 543.52001953125 
 20 
 3919.76025390625 
 30 
 0 
 11 
 536.760009765625 
 21 
 3919.76000976563 
 31 
 0 
 0 
LINE
 10 
 536.760009765625 
 20 
 3919.76000976563 
 30 
 0 
 11 
 530 
 21 
 3917.84008789063 
 31 
 0 
 0 
LINE
 10 
 530 
 20 
 3917.84008789063 
 30 
 0 
 11 
 523 
 21 
 3914 
 31 
 0 
 0 
LINE
 10 
 523 
 20 
 3914 
 30 
 0 
 11 
 514.599975585938 
 21 
 3889.06396484375 
 31 
 0 
 0 
LINE
 10 
 514.599975585938 
 20 
 3889.06396484375 
 30 
 0 
 11 
 509.320007324219 
 21 
 3787.71215820313 
 31 
 0 
 0 
LINE
 10 
 509.320007324219 
 20 
 3787.71215820313 
 30 
 0 
 11 
 506.440002441406 
 21 
 3550.328125 
 31 
 0 
 0 
LINE
 10 
 506.440002441406 
 20 
 3550.328125 
 30 
 0 
 11 
 505.239990234375 
 21 
 3117.2958984375 
 31 
 0 
 0 
LINE
 10 
 505.239990234375 
 20 
 3117.2958984375 
 30 
 0 
 11 
 505 
 21 
 2429 
 31 
 0 
 0 
LINE
 10 
 505 
 20 
 2429 
 30 
 0 
 11 
 505.023986816406 
 21 
 1634.37585449219 
 31 
 0 
 0 
LINE
 10 
 505.023986816406 
 20 
 1634.37585449219 
 30 
 0 
 11 
 508.071990966797 
 21 
 1168.64807128906 
 31 
 0 
 0 
LINE
 10 
 508.071990966797 
 20 
 1168.64807128906 
 30 
 0 
 11 
 518.608032226563 
 21 
 931.83203125 
 31 
 0 
 0 
LINE
 10 
 518.608032226563 
 20 
 931.83203125 
 30 
 0 
 11 
 541.096008300781 
 21 
 823.944030761719 
 31 
 0 
 0 
LINE
 10 
 541.096008300781 
 20 
 823.944030761719 
 30 
 0 
 11 
 580 
 21 
 745 
 31 
 0 
 0 
LINE
 10 
 580 
 20 
 745 
 30 
 0 
 11 
 624.776000976563 
 21 
 666.143981933594 
 31 
 0 
 0 
LINE
 10 
 624.776000976563 
 20 
 666.143981933594 
 30 
 0 
 11 
 676.848022460938 
 21 
 597.031982421875 
 31 
 0 
 0 
LINE
 10 
 676.848022460938 
 20 
 597.031982421875 
 30 
 0 
 11 
 737.032043457031 
 21 
 536.848022460938 
 31 
 0 
 0 
LINE
 10 
 737.032043457031 
 20 
 536.848022460938 
 30 
 0 
 11 
 806.143981933594 
 21 
 484.776000976563 
 31 
 0 
 0 
LINE
 10 
 806.143981933594 
 20 
 484.776000976563 
 30 
 0 
 11 
 885 
 21 
 440 
 31 
 0 
 0 
LINE
 10 
 885 
 20 
 440 
 30 
 0 
 11 
 959.064025878906 
 21 
 403.456024169922 
 31 
 0 
 0 
LINE
 10 
 959.064025878906 
 20 
 403.456024169922 
 30 
 0 
 11 
 1083.67199707031 
 21 
 382.368011474609 
 31 
 0 
 0 
LINE
 10 
 1083.67199707031 
 20 
 382.368011474609 
 30 
 0 
 11 
 1387.84802246094 
 21 
 372.752014160156 
 31 
 0 
 0 
LINE
 10 
 1387.84802246094 
 20 
 372.752014160156 
 30 
 0 
 11 
 2000.61608886719 
 21 
 370.6240234375 
 31 
 0 
 0 
LINE
 10 
 2000.61608886719 
 20 
 370.6240234375 
 30 
 0 
 11 
 3051 
 21 
 372 
 31 
 0 
 0 
LINE
 10 
 3051 
 20 
 372 
 30 
 0 
 11 
 3978.15209960938 
 21 
 373.704010009766 
 31 
 0 
 0 
LINE
 10 
 3978.15209960938 
 20 
 373.704010009766 
 30 
 0 
 11 
 4558.6962890625 
 21 
 375.792022705078 
 31 
 0 
 0 
LINE
 10 
 4558.6962890625 
 20 
 375.792022705078 
 30 
 0 
 11 
 4877.06396484375 
 21 
 379.127990722656 
 31 
 0 
 0 
LINE
 10 
 4877.06396484375 
 20 
 379.127990722656 
 30 
 0 
 11 
 5017.68798828125 
 21 
 384.576019287109 
 31 
 0 
 0 
LINE
 10 
 5017.68798828125 
 20 
 384.576019287109 
 30 
 0 
 11 
 5065 
 21 
 393 
 31 
 0 
 0 
LINE
 10 
 5065 
 20 
 393 
 30 
 0 
 11 
 5198.4873046875 
 21 
 455.455993652344 
 31 
 0 
 0 
LINE
 10 
 5198.4873046875 
 20 
 455.455993652344 
 30 
 0 
 11 
 5311.8642578125 
 21 
 535.768005371094 
 31 
 0 
 0 
LINE
 10 
 5311.8642578125 
 20 
 535.768005371094 
 30 
 0 
 11 
 5404.69580078125 
 21 
 633.552001953125 
 31 
 0 
 0 
LINE
 10 
 5404.69580078125 
 20 
 633.552001953125 
 30 
 0 
 11 
 5476.55224609375 
 21 
 748.424011230469 
 31 
 0 
 0 
LINE
 10 
 5476.55224609375 
 20 
 748.424011230469 
 30 
 0 
 11 
 5527 
 21 
 880 
 31 
 0 
 0 
LINE
 10 
 5527 
 20 
 880 
 30 
 0 
 11 
 5535.3994140625 
 21 
 934.991943359375 
 31 
 0 
 0 
LINE
 10 
 5535.3994140625 
 20 
 934.991943359375 
 30 
 0 
 11 
 5540.68017578125 
 21 
 1082.3359375 
 31 
 0 
 0 
LINE
 10 
 5540.68017578125 
 20 
 1082.3359375 
 30 
 0 
 11 
 5543.56005859375 
 21 
 1407.18395996094 
 31 
 0 
 0 
LINE
 10 
 5543.56005859375 
 20 
 1407.18395996094 
 30 
 0 
 11 
 5544.76025390625 
 21 
 1994.68811035156 
 31 
 0 
 0 
LINE
 10 
 5544.76025390625 
 20 
 1994.68811035156 
 30 
 0 
 11 
 5545 
 21 
 2930 
 31 
 0 
 0 
LINE
 10 
 5545 
 20 
 2930 
 30 
 0 
 11 
 5544.759765625 
 21 
 3851.96801757813 
 31 
 0 
 0 
LINE
 10 
 5544.759765625 
 20 
 3851.96801757813 
 30 
 0 
 11 
 5543.56005859375 
 21 
 4437.984375 
 31 
 0 
 0 
LINE
 10 
 5543.56005859375 
 20 
 4437.984375 
 30 
 0 
 11 
 5540.68017578125 
 21 
 4768.01611328125 
 31 
 0 
 0 
LINE
 10 
 5540.68017578125 
 20 
 4768.01611328125 
 30 
 0 
 11 
 5535.39990234375 
 21 
 4922.0322265625 
 31 
 0 
 0 
LINE
 10 
 5535.39990234375 
 20 
 4922.0322265625 
 30 
 0 
 11 
 5527 
 21 
 4980 
 31 
 0 
 0 
LINE
 10 
 5527 
 20 
 4980 
 30 
 0 
 11 
 5478.16748046875 
 21 
 5110.99951171875 
 31 
 0 
 0 
LINE
 10 
 5478.16748046875 
 20 
 5110.99951171875 
 30 
 0 
 11 
 5406.34375 
 21 
 5227.60009765625 
 31 
 0 
 0 
LINE
 10 
 5406.34375 
 20 
 5227.60009765625 
 30 
 0 
 11 
 5313.736328125 
 21 
 5327.39990234375 
 31 
 0 
 0 
LINE
 10 
 5313.736328125 
 20 
 5327.39990234375 
 30 
 0 
 11 
 5202.55224609375 
 21 
 5408 
 31 
 0 
 0 
LINE
 10 
 5202.55224609375 
 20 
 5408 
 30 
 0 
 11 
 5075 
 21 
 5467 
 31 
 0 
 0 
LINE
 10 
 5075 
 20 
 5467 
 30 
 0 
 11 
 4995 
 21 
 5495 
 31 
 0 
 0 
LINE
 10 
 4995 
 20 
 5495 
 30 
 0 
 11 
 3610 
 21 
 5497 
 31 
 0 
 0 
LINE
 10 
 3610 
 20 
 5497 
 30 
 0 
 11 
 3172.671875 
 21 
 5497.62451171875 
 31 
 0 
 0 
LINE
 10 
 3172.671875 
 20 
 5497.62451171875 
 30 
 0 
 11 
 2790.73608398438 
 21 
 5497.19189453125 
 31 
 0 
 0 
LINE
 10 
 2790.73608398438 
 20 
 5497.19189453125 
 30 
 0 
 11 
 2487.6640625 
 21 
 5495.84814453125 
 31 
 0 
 0 
LINE
 10 
 2487.6640625 
 20 
 5495.84814453125 
 30 
 0 
 11 
 2286.92797851563 
 21 
 5493.736328125 
 31 
 0 
 0 
LINE
 10 
 2286.92797851563 
 20 
 5493.736328125 
 30 
 0 
 11 
 2212 
 21 
 5491 
 31 
 0 
 0 
LINE
 10 
 1030 
 20 
 4750 
 30 
 0 
 11 
 1017.98394775391 
 21 
 4734.86376953125 
 31 
 0 
 0 
LINE
 10 
 1017.98394775391 
 20 
 4734.86376953125 
 30 
 0 
 11 
 1011.87200927734 
 21 
 4719.39208984375 
 31 
 0 
 0 
LINE
 10 
 1011.87200927734 
 20 
 4719.39208984375 
 30 
 0 
 11 
 1011.56805419922 
 21 
 4703.48828125 
 31 
 0 
 0 
LINE
 10 
 1011.56805419922 
 20 
 4703.48828125 
 30 
 0 
 11 
 1016.97601318359 
 21 
 4687.05615234375 
 31 
 0 
 0 
LINE
 10 
 1016.97601318359 
 20 
 4687.05615234375 
 30 
 0 
 11 
 1028 
 21 
 4670 
 31 
 0 
 0 
LINE
 10 
 1028 
 20 
 4670 
 30 
 0 
 11 
 1053.087890625 
 21 
 4652.37548828125 
 31 
 0 
 0 
LINE
 10 
 1053.087890625 
 20 
 4652.37548828125 
 30 
 0 
 11 
 1082.5439453125 
 21 
 4649.72802734375 
 31 
 0 
 0 
LINE
 10 
 1082.5439453125 
 20 
 4649.72802734375 
 30 
 0 
 11 
 1110.65600585938 
 21 
 4659.9921875 
 31 
 0 
 0 
LINE
 10 
 1110.65600585938 
 20 
 4659.9921875 
 30 
 0 
 11 
 1131.71203613281 
 21 
 4681.10400390625 
 31 
 0 
 0 
LINE
 10 
 1131.71203613281 
 20 
 4681.10400390625 
 30 
 0 
 11 
 1140 
 21 
 4711 
 31 
 0 
 0 
LINE
 10 
 1140 
 20 
 4711 
 30 
 0 
 11 
 1136.11987304688 
 21 
 4727.50390625 
 31 
 0 
 0 
LINE
 10 
 1136.11987304688 
 20 
 4727.50390625 
 30 
 0 
 11 
 1125.76013183594 
 21 
 4743.43212890625 
 31 
 0 
 0 
LINE
 10 
 1125.76013183594 
 20 
 4743.43212890625 
 30 
 0 
 11 
 1110.83996582031 
 21 
 4757.00830078125 
 31 
 0 
 0 
LINE
 10 
 1110.83996582031 
 20 
 4757.00830078125 
 30 
 0 
 11 
 1093.28002929688 
 21 
 4766.4560546875 
 31 
 0 
 0 
LINE
 10 
 1093.28002929688 
 20 
 4766.4560546875 
 30 
 0 
 11 
 1075 
 21 
 4770 
 31 
 0 
 0 
LINE
 10 
 1075 
 20 
 4770 
 30 
 0 
 11 
 1066 
 21 
 4768.97607421875 
 31 
 0 
 0 
LINE
 10 
 1066 
 20 
 4768.97607421875 
 30 
 0 
 11 
 1056.28002929688 
 21 
 4766.1279296875 
 31 
 0 
 0 
LINE
 10 
 1056.28002929688 
 20 
 4766.1279296875 
 30 
 0 
 11 
 1046.56005859375 
 21 
 4761.7919921875 
 31 
 0 
 0 
LINE
 10 
 1046.56005859375 
 20 
 4761.7919921875 
 30 
 0 
 11 
 1037.56005859375 
 21 
 4756.30419921875 
 31 
 0 
 0 
LINE
 10 
 1037.56005859375 
 20 
 4756.30419921875 
 30 
 0 
 11 
 1030 
 21 
 4750 
 31 
 0 
 0 
LINE
 10 
 1290 
 20 
 4562 
 30 
 0 
 11 
 1291.81591796875 
 21 
 4557.919921875 
 31 
 0 
 0 
LINE
 10 
 1291.81591796875 
 20 
 4557.919921875 
 30 
 0 
 11 
 1296.84802246094 
 21 
 4550.9599609375 
 31 
 0 
 0 
LINE
 10 
 1296.84802246094 
 20 
 4550.9599609375 
 30 
 0 
 11 
 1304.47204589844 
 21 
 4541.84033203125 
 31 
 0 
 0 
LINE
 10 
 1304.47204589844 
 20 
 4541.84033203125 
 30 
 0 
 11 
 1314.06408691406 
 21 
 4531.2802734375 
 31 
 0 
 0 
LINE
 10 
 1314.06408691406 
 20 
 4531.2802734375 
 30 
 0 
 11 
 1325 
 21 
 4520 
 31 
 0 
 0 
LINE
 10 
 1325 
 20 
 4520 
 30 
 0 
 11 
 1371.88793945313 
 21 
 4449.61572265625 
 31 
 0 
 0 
LINE
 10 
 1371.88793945313 
 20 
 4449.61572265625 
 30 
 0 
 11 
 1366.98400878906 
 21 
 4386.76806640625 
 31 
 0 
 0 
LINE
 10 
 1366.98400878906 
 20 
 4386.76806640625 
 30 
 0 
 11 
 1315.13610839844 
 21 
 4336.11181640625 
 31 
 0 
 0 
LINE
 10 
 1315.13610839844 
 20 
 4336.11181640625 
 30 
 0 
 11 
 1221.19201660156 
 21 
 4302.30419921875 
 31 
 0 
 0 
LINE
 10 
 1221.19201660156 
 20 
 4302.30419921875 
 30 
 0 
 11 
 1090 
 21 
 4290 
 31 
 0 
 0 
LINE
 10 
 1090 
 20 
 4290 
 30 
 0 
 11 
 1043.82397460938 
 21 
 4287.84814453125 
 31 
 0 
 0 
LINE
 10 
 1043.82397460938 
 20 
 4287.84814453125 
 30 
 0 
 11 
 1002.11206054688 
 21 
 4280.4638671875 
 31 
 0 
 0 
LINE
 10 
 1002.11206054688 
 20 
 4280.4638671875 
 30 
 0 
 11 
 960.68798828125 
 21 
 4266.4560546875 
 31 
 0 
 0 
LINE
 10 
 960.68798828125 
 20 
 4266.4560546875 
 30 
 0 
 11 
 915.3759765625 
 21 
 4244.43212890625 
 31 
 0 
 0 
LINE
 10 
 915.3759765625 
 20 
 4244.43212890625 
 30 
 0 
 11 
 862 
 21 
 4213 
 31 
 0 
 0 
LINE
 10 
 862 
 20 
 4213 
 30 
 0 
 11 
 826.151977539063 
 21 
 4191.1201171875 
 31 
 0 
 0 
LINE
 10 
 826.151977539063 
 20 
 4191.1201171875 
 30 
 0 
 11 
 799.376037597656 
 21 
 4177.15966796875 
 31 
 0 
 0 
LINE
 10 
 799.376037597656 
 20 
 4177.15966796875 
 30 
 0 
 11 
 776.824035644531 
 21 
 4169.43994140625 
 31 
 0 
 0 
LINE
 10 
 776.824035644531 
 20 
 4169.43994140625 
 30 
 0 
 11 
 753.648010253906 
 21 
 4166.2802734375 
 31 
 0 
 0 
LINE
 10 
 753.648010253906 
 20 
 4166.2802734375 
 30 
 0 
 11 
 725 
 21 
 4166 
 31 
 0 
 0 
LINE
 10 
 725 
 20 
 4166 
 30 
 0 
 11 
 703.039978027344 
 21 
 4166.81591796875 
 31 
 0 
 0 
LINE
 10 
 703.039978027344 
 20 
 4166.81591796875 
 30 
 0 
 11 
 682.0400390625 
 21 
 4169.16796875 
 31 
 0 
 0 
LINE
 10 
 682.0400390625 
 20 
 4169.16796875 
 30 
 0 
 11 
 662.720031738281 
 21 
 4172.912109375 
 31 
 0 
 0 
LINE
 10 
 662.720031738281 
 20 
 4172.912109375 
 30 
 0 
 11 
 645.800048828125 
 21 
 4177.904296875 
 31 
 0 
 0 
LINE
 10 
 645.800048828125 
 20 
 4177.904296875 
 30 
 0 
 11 
 632 
 21 
 4184 
 31 
 0 
 0 
LINE
 10 
 632 
 20 
 4184 
 30 
 0 
 11 
 620.928039550781 
 21 
 4188.99169921875 
 31 
 0 
 0 
LINE
 10 
 620.928039550781 
 20 
 4188.99169921875 
 30 
 0 
 11 
 610.864013671875 
 21 
 4192.97607421875 
 31 
 0 
 0 
LINE
 10 
 610.864013671875 
 20 
 4192.97607421875 
 30 
 0 
 11 
 602.335998535156 
 21 
 4195.6640625 
 31 
 0 
 0 
LINE
 10 
 602.335998535156 
 20 
 4195.6640625 
 30 
 0 
 11 
 595.872009277344 
 21 
 4196.76806640625 
 31 
 0 
 0 
LINE
 10 
 595.872009277344 
 20 
 4196.76806640625 
 30 
 0 
 11 
 592 
 21 
 4196 
 31 
 0 
 0 
LINE
 10 
 592 
 20 
 4196 
 30 
 0 
 11 
 593.640014648438 
 21 
 4184.919921875 
 31 
 0 
 0 
LINE
 10 
 593.640014648438 
 20 
 4184.919921875 
 30 
 0 
 11 
 607.52001953125 
 21 
 4167.60009765625 
 31 
 0 
 0 
LINE
 10 
 607.52001953125 
 20 
 4167.60009765625 
 30 
 0 
 11 
 629.080017089844 
 21 
 4148.1201171875 
 31 
 0 
 0 
LINE
 10 
 629.080017089844 
 20 
 4148.1201171875 
 30 
 0 
 11 
 653.760009765625 
 21 
 4130.56005859375 
 31 
 0 
 0 
LINE
 10 
 653.760009765625 
 20 
 4130.56005859375 
 30 
 0 
 11 
 677 
 21 
 4119 
 31 
 0 
 0 
LINE
 10 
 677 
 20 
 4119 
 30 
 0 
 11 
 703.487915039063 
 21 
 4113.45556640625 
 31 
 0 
 0 
LINE
 10 
 703.487915039063 
 20 
 4113.45556640625 
 30 
 0 
 11 
 732.184020996094 
 21 
 4114.48828125 
 31 
 0 
 0 
LINE
 10 
 732.184020996094 
 20 
 4114.48828125 
 30 
 0 
 11 
 767.935974121094 
 21 
 4123.39208984375 
 31 
 0 
 0 
LINE
 10 
 767.935974121094 
 20 
 4123.39208984375 
 30 
 0 
 11 
 815.592041015625 
 21 
 4141.4638671875 
 31 
 0 
 0 
LINE
 10 
 815.592041015625 
 20 
 4141.4638671875 
 30 
 0 
 11 
 880 
 21 
 4170 
 31 
 0 
 0 
LINE
 10 
 880 
 20 
 4170 
 30 
 0 
 11 
 947.903930664063 
 21 
 4199.16796875 
 31 
 0 
 0 
LINE
 10 
 947.903930664063 
 20 
 4199.16796875 
 30 
 0 
 11 
 1002.75201416016 
 21 
 4218.78369140625 
 31 
 0 
 0 
LINE
 10 
 1002.75201416016 
 20 
 4218.78369140625 
 30 
 0 
 11 
 1048.04797363281 
 21 
 4229.6162109375 
 31 
 0 
 0 
LINE
 10 
 1048.04797363281 
 20 
 4229.6162109375 
 30 
 0 
 11 
 1087.29602050781 
 21 
 4232.43212890625 
 31 
 0 
 0 
LINE
 10 
 1087.29602050781 
 20 
 4232.43212890625 
 30 
 0 
 11 
 1124 
 21 
 4228 
 31 
 0 
 0 
LINE
 10 
 1124 
 20 
 4228 
 30 
 0 
 11 
 1179.19189453125 
 21 
 4202.86376953125 
 31 
 0 
 0 
LINE
 10 
 1179.19189453125 
 20 
 4202.86376953125 
 30 
 0 
 11 
 1205.53601074219 
 21 
 4156.2724609375 
 31 
 0 
 0 
LINE
 10 
 1205.53601074219 
 20 
 4156.2724609375 
 30 
 0 
 11 
 1202.98400878906 
 21 
 4086.44799804688 
 31 
 0 
 0 
LINE
 10 
 1202.98400878906 
 20 
 4086.44799804688 
 30 
 0 
 11 
 1171.48803710938 
 21 
 3991.6162109375 
 31 
 0 
 0 
LINE
 10 
 1171.48803710938 
 20 
 3991.6162109375 
 30 
 0 
 11 
 1111 
 21 
 3870 
 31 
 0 
 0 
LINE
 10 
 1111 
 20 
 3870 
 30 
 0 
 11 
 1071.96801757813 
 21 
 3797.26391601563 
 31 
 0 
 0 
LINE
 10 
 1071.96801757813 
 20 
 3797.26391601563 
 30 
 0 
 11 
 1045.70397949219 
 21 
 3739.7919921875 
 31 
 0 
 0 
LINE
 10 
 1045.70397949219 
 20 
 3739.7919921875 
 30 
 0 
 11 
 1029.85595703125 
 21 
 3690.2880859375 
 31 
 0 
 0 
LINE
 10 
 1029.85595703125 
 20 
 3690.2880859375 
 30 
 0 
 11 
 1022.07202148438 
 21 
 3641.4560546875 
 31 
 0 
 0 
LINE
 10 
 1022.07202148438 
 20 
 3641.4560546875 
 30 
 0 
 11 
 1020 
 21 
 3586 
 31 
 0 
 0 
LINE
 10 
 1020 
 20 
 3586 
 30 
 0 
 11 
 1022.04797363281 
 21 
 3535.97583007813 
 31 
 0 
 0 
LINE
 10 
 1022.04797363281 
 20 
 3535.97583007813 
 30 
 0 
 11 
 1028.22399902344 
 21 
 3487.96801757813 
 31 
 0 
 0 
LINE
 10 
 1028.22399902344 
 20 
 3487.96801757813 
 30 
 0 
 11 
 1038.57604980469 
 21 
 3442.07202148438 
 31 
 0 
 0 
LINE
 10 
 1038.57604980469 
 20 
 3442.07202148438 
 30 
 0 
 11 
 1053.15197753906 
 21 
 3398.38403320313 
 31 
 0 
 0 
LINE
 10 
 1053.15197753906 
 20 
 3398.38403320313 
 30 
 0 
 11 
 1072 
 21 
 3357 
 31 
 0 
 0 
LINE
 10 
 1072 
 20 
 3357 
 30 
 0 
 11 
 1094.95190429688 
 21 
 3322.17578125 
 31 
 0 
 0 
LINE
 10 
 1094.95190429688 
 20 
 3322.17578125 
 30 
 0 
 11 
 1130.33605957031 
 21 
 3281.20825195313 
 31 
 0 
 0 
LINE
 10 
 1130.33605957031 
 20 
 3281.20825195313 
 30 
 0 
 11 
 1174.74401855469 
 21 
 3237.55200195313 
 31 
 0 
 0 
LINE
 10 
 1174.74401855469 
 20 
 3237.55200195313 
 30 
 0 
 11 
 1224.76794433594 
 21 
 3194.6640625 
 31 
 0 
 0 
LINE
 10 
 1224.76794433594 
 20 
 3194.6640625 
 30 
 0 
 11 
 1277 
 21 
 3156 
 31 
 0 
 0 
LINE
 10 
 1277 
 20 
 3156 
 30 
 0 
 11 
 1311.05590820313 
 21 
 3132.19213867188 
 31 
 0 
 0 
LINE
 10 
 1311.05590820313 
 20 
 3132.19213867188 
 30 
 0 
 11 
 1333.20812988281 
 21 
 3113.61596679688 
 31 
 0 
 0 
LINE
 10 
 1333.20812988281 
 20 
 3113.61596679688 
 30 
 0 
 11 
 1347.63208007813 
 21 
 3094.94409179688 
 31 
 0 
 0 
LINE
 10 
 1347.63208007813 
 20 
 3094.94409179688 
 30 
 0 
 11 
 1358.50402832031 
 21 
 3070.84814453125 
 31 
 0 
 0 
LINE
 10 
 1358.50402832031 
 20 
 3070.84814453125 
 30 
 0 
 11 
 1370 
 21 
 3036 
 31 
 0 
 0 
LINE
 10 
 1370 
 20 
 3036 
 30 
 0 
 11 
 1384.3759765625 
 21 
 2982.34399414063 
 31 
 0 
 0 
LINE
 10 
 1384.3759765625 
 20 
 2982.34399414063 
 30 
 0 
 11 
 1393.80810546875 
 21 
 2927.63208007813 
 31 
 0 
 0 
LINE
 10 
 1393.80810546875 
 20 
 2927.63208007813 
 30 
 0 
 11 
 1398.15197753906 
 21 
 2874.64794921875 
 31 
 0 
 0 
LINE
 10 
 1398.15197753906 
 20 
 2874.64794921875 
 30 
 0 
 11 
 1397.26403808594 
 21 
 2826.17602539063 
 31 
 0 
 0 
LINE
 10 
 1397.26403808594 
 20 
 2826.17602539063 
 30 
 0 
 11 
 1391 
 21 
 2785 
 31 
 0 
 0 
LINE
 10 
 1391 
 20 
 2785 
 30 
 0 
 11 
 1385.16796875 
 21 
 2765.83203125 
 31 
 0 
 0 
LINE
 10 
 1385.16796875 
 20 
 2765.83203125 
 30 
 0 
 11 
 1375.5439453125 
 21 
 2739.89599609375 
 31 
 0 
 0 
LINE
 10 
 1375.5439453125 
 20 
 2739.89599609375 
 30 
 0 
 11 
 1363.13598632813 
 21 
 2709.5439453125 
 31 
 0 
 0 
LINE
 10 
 1363.13598632813 
 20 
 2709.5439453125 
 30 
 0 
 11 
 1348.95202636719 
 21 
 2677.1279296875 
 31 
 0 
 0 
LINE
 10 
 1348.95202636719 
 20 
 2677.1279296875 
 30 
 0 
 11 
 1334 
 21 
 2645 
 31 
 0 
 0 
LINE
 10 
 1334 
 20 
 2645 
 30 
 0 
 11 
 1306.1279296875 
 21 
 2580.88793945313 
 31 
 0 
 0 
LINE
 10 
 1306.1279296875 
 20 
 2580.88793945313 
 30 
 0 
 11 
 1288.38403320313 
 21 
 2523.06396484375 
 31 
 0 
 0 
LINE
 10 
 1288.38403320313 
 20 
 2523.06396484375 
 30 
 0 
 11 
 1280.57592773438 
 21 
 2469.89599609375 
 31 
 0 
 0 
LINE
 10 
 1280.57592773438 
 20 
 2469.89599609375 
 30 
 0 
 11 
 1282.51208496094 
 21 
 2419.751953125 
 31 
 0 
 0 
LINE
 10 
 1282.51208496094 
 20 
 2419.751953125 
 30 
 0 
 11 
 1294 
 21 
 2371 
 31 
 0 
 0 
LINE
 10 
 1294 
 20 
 2371 
 30 
 0 
 11 
 1299.11999511719 
 21 
 2350.8798828125 
 31 
 0 
 0 
LINE
 10 
 1299.11999511719 
 20 
 2350.8798828125 
 30 
 0 
 11 
 1303.52001953125 
 21 
 2326.43994140625 
 31 
 0 
 0 
LINE
 10 
 1303.52001953125 
 20 
 2326.43994140625 
 30 
 0 
 11 
 1306.96008300781 
 21 
 2299.36010742188 
 31 
 0 
 0 
LINE
 10 
 1306.96008300781 
 20 
 2299.36010742188 
 30 
 0 
 11 
 1309.20007324219 
 21 
 2271.32006835938 
 31 
 0 
 0 
LINE
 10 
 1309.20007324219 
 20 
 2271.32006835938 
 30 
 0 
 11 
 1310 
 21 
 2244 
 31 
 0 
 0 
LINE
 10 
 1310 
 20 
 2244 
 30 
 0 
 11 
 1310 
 21 
 2167 
 31 
 0 
 0 
LINE
 10 
 1310 
 20 
 2167 
 30 
 0 
 11 
 1350 
 21 
 2128 
 31 
 0 
 0 
LINE
 10 
 1350 
 20 
 2128 
 30 
 0 
 11 
 1383.91198730469 
 21 
 2099.10375976563 
 31 
 0 
 0 
LINE
 10 
 1383.91198730469 
 20 
 2099.10375976563 
 30 
 0 
 11 
 1422.09606933594 
 21 
 2070.11206054688 
 31 
 0 
 0 
LINE
 10 
 1422.09606933594 
 20 
 2070.11206054688 
 30 
 0 
 11 
 1459.22412109375 
 21 
 2044.76806640625 
 31 
 0 
 0 
LINE
 10 
 1459.22412109375 
 20 
 2044.76806640625 
 30 
 0 
 11 
 1489.96801757813 
 21 
 2026.81604003906 
 31 
 0 
 0 
LINE
 10 
 1489.96801757813 
 20 
 2026.81604003906 
 30 
 0 
 11 
 1509 
 21 
 2020 
 31 
 0 
 0 
LINE
 10 
 1509 
 20 
 2020 
 30 
 0 
 11 
 1511.70397949219 
 21 
 2021.84802246094 
 31 
 0 
 0 
LINE
 10 
 1511.70397949219 
 20 
 2021.84802246094 
 30 
 0 
 11 
 1510.47204589844 
 21 
 2027.10400390625 
 31 
 0 
 0 
LINE
 10 
 1510.47204589844 
 20 
 2027.10400390625 
 30 
 0 
 11 
 1505.68798828125 
 21 
 2035.33605957031 
 31 
 0 
 0 
LINE
 10 
 1505.68798828125 
 20 
 2035.33605957031 
 30 
 0 
 11 
 1497.73608398438 
 21 
 2046.11206054688 
 31 
 0 
 0 
LINE
 10 
 1497.73608398438 
 20 
 2046.11206054688 
 30 
 0 
 11 
 1487 
 21 
 2059 
 31 
 0 
 0 
LINE
 10 
 1487 
 20 
 2059 
 30 
 0 
 11 
 1462.8798828125 
 21 
 2088.16796875 
 31 
 0 
 0 
LINE
 10 
 1462.8798828125 
 20 
 2088.16796875 
 30 
 0 
 11 
 1443.80004882813 
 21 
 2115.94409179688 
 31 
 0 
 0 
LINE
 10 
 1443.80004882813 
 20 
 2115.94409179688 
 30 
 0 
 11 
 1430.47998046875 
 21 
 2140.93603515625 
 31 
 0 
 0 
LINE
 10 
 1430.47998046875 
 20 
 2140.93603515625 
 30 
 0 
 11 
 1423.64001464844 
 21 
 2161.751953125 
 31 
 0 
 0 
LINE
 10 
 1423.64001464844 
 20 
 2161.751953125 
 30 
 0 
 11 
 1424 
 21 
 2177 
 31 
 0 
 0 
LINE
 10 
 1424 
 20 
 2177 
 30 
 0 
 11 
 1427.61596679688 
 21 
 2182.22387695313 
 31 
 0 
 0 
LINE
 10 
 1427.61596679688 
 20 
 2182.22387695313 
 30 
 0 
 11 
 1433.00805664063 
 21 
 2183.27197265625 
 31 
 0 
 0 
LINE
 10 
 1433.00805664063 
 20 
 2183.27197265625 
 30 
 0 
 11 
 1440.99194335938 
 21 
 2179.80786132813 
 31 
 0 
 0 
LINE
 10 
 1440.99194335938 
 20 
 2179.80786132813 
 30 
 0 
 11 
 1452.38403320313 
 21 
 2171.49609375 
 31 
 0 
 0 
LINE
 10 
 1452.38403320313 
 20 
 2171.49609375 
 30 
 0 
 11 
 1468 
 21 
 2158 
 31 
 0 
 0 
LINE
 10 
 1468 
 20 
 2158 
 30 
 0 
 11 
 1505.43994140625 
 21 
 2126.3037109375 
 31 
 0 
 0 
LINE
 10 
 1505.43994140625 
 20 
 2126.3037109375 
 30 
 0 
 11 
 1541.92004394531 
 21 
 2099.31201171875 
 31 
 0 
 0 
LINE
 10 
 1541.92004394531 
 20 
 2099.31201171875 
 30 
 0 
 11 
 1575.28002929688 
 21 
 2078.36791992188 
 31 
 0 
 0 
LINE
 10 
 1575.28002929688 
 20 
 2078.36791992188 
 30 
 0 
 11 
 1603.36010742188 
 21 
 2064.81616210938 
 31 
 0 
 0 
LINE
 10 
 1603.36010742188 
 20 
 2064.81616210938 
 30 
 0 
 11 
 1624 
 21 
 2060 
 31 
 0 
 0 
LINE
 10 
 1624 
 20 
 2060 
 30 
 0 
 11 
 1641.27197265625 
 21 
 2062.83203125 
 31 
 0 
 0 
LINE
 10 
 1641.27197265625 
 20 
 2062.83203125 
 30 
 0 
 11 
 1648.65612792969 
 21 
 2071.61596679688 
 31 
 0 
 0 
LINE
 10 
 1648.65612792969 
 20 
 2071.61596679688 
 30 
 0 
 11 
 1646.10400390625 
 21 
 2086.78393554688 
 31 
 0 
 0 
LINE
 10 
 1646.10400390625 
 20 
 2086.78393554688 
 30 
 0 
 11 
 1633.56799316406 
 21 
 2108.76806640625 
 31 
 0 
 0 
LINE
 10 
 1633.56799316406 
 20 
 2108.76806640625 
 30 
 0 
 11 
 1611 
 21 
 2138 
 31 
 0 
 0 
LINE
 10 
 1611 
 20 
 2138 
 30 
 0 
 11 
 1581.11193847656 
 21 
 2176.22387695313 
 31 
 0 
 0 
LINE
 10 
 1581.11193847656 
 20 
 2176.22387695313 
 30 
 0 
 11 
 1561.25610351563 
 21 
 2210.0322265625 
 31 
 0 
 0 
LINE
 10 
 1561.25610351563 
 20 
 2210.0322265625 
 30 
 0 
 11 
 1549.94396972656 
 21 
 2244.12817382813 
 31 
 0 
 0 
LINE
 10 
 1549.94396972656 
 20 
 2244.12817382813 
 30 
 0 
 11 
 1545.68811035156 
 21 
 2283.21606445313 
 31 
 0 
 0 
LINE
 10 
 1545.68811035156 
 20 
 2283.21606445313 
 30 
 0 
 11 
 1547 
 21 
 2332 
 31 
 0 
 0 
LINE
 10 
 1547 
 20 
 2332 
 30 
 0 
 11 
 1548.98400878906 
 21 
 2366.13598632813 
 31 
 0 
 0 
LINE
 10 
 1548.98400878906 
 20 
 2366.13598632813 
 30 
 0 
 11 
 1548.71203613281 
 21 
 2393.88818359375 
 31 
 0 
 0 
LINE
 10 
 1548.71203613281 
 20 
 2393.88818359375 
 30 
 0 
 11 
 1545.84802246094 
 21 
 2418.47192382813 
 31 
 0 
 0 
LINE
 10 
 1545.84802246094 
 20 
 2418.47192382813 
 30 
 0 
 11 
 1540.05603027344 
 21 
 2443.10400390625 
 31 
 0 
 0 
LINE
 10 
 1540.05603027344 
 20 
 2443.10400390625 
 30 
 0 
 11 
 1531 
 21 
 2471 
 31 
 0 
 0 
LINE
 10 
 1531 
 20 
 2471 
 30 
 0 
 11 
 1519.22387695313 
 21 
 2505.64794921875 
 31 
 0 
 0 
LINE
 10 
 1519.22387695313 
 20 
 2505.64794921875 
 30 
 0 
 11 
 1514.31213378906 
 21 
 2533.86401367188 
 31 
 0 
 0 
LINE
 10 
 1514.31213378906 
 20 
 2533.86401367188 
 30 
 0 
 11 
 1516.88793945313 
 21 
 2562.65600585938 
 31 
 0 
 0 
LINE
 10 
 1516.88793945313 
 20 
 2562.65600585938 
 30 
 0 
 11 
 1527.57604980469 
 21 
 2599.03198242188 
 31 
 0 
 0 
LINE
 10 
 1527.57604980469 
 20 
 2599.03198242188 
 30 
 0 
 11 
 1547 
 21 
 2650 
 31 
 0 
 0 
LINE
 10 
 1547 
 20 
 2650 
 30 
 0 
 11 
 1556.45593261719 
 21 
 2676.26391601563 
 31 
 0 
 0 
LINE
 10 
 1556.45593261719 
 20 
 2676.26391601563 
 30 
 0 
 11 
 1567.44799804688 
 21 
 2709.8720703125 
 31 
 0 
 0 
LINE
 10 
 1567.44799804688 
 20 
 2709.8720703125 
 30 
 0 
 11 
 1579.11206054688 
 21 
 2747.84790039063 
 31 
 0 
 0 
LINE
 10 
 1579.11206054688 
 20 
 2747.84790039063 
 30 
 0 
 11 
 1590.58410644531 
 21 
 2787.21606445313 
 31 
 0 
 0 
LINE
 10 
 1590.58410644531 
 20 
 2787.21606445313 
 30 
 0 
 11 
 1601 
 21 
 2825 
 31 
 0 
 0 
LINE
 10 
 1601 
 20 
 2825 
 30 
 0 
 11 
 1629 
 21 
 2935 
 31 
 0 
 0 
LINE
 10 
 1629 
 20 
 2935 
 30 
 0 
 11 
 1700 
 21 
 2933 
 31 
 0 
 0 
LINE
 10 
 1700 
 20 
 2933 
 30 
 0 
 11 
 1734.61608886719 
 21 
 2932.17602539063 
 31 
 0 
 0 
LINE
 10 
 1734.61608886719 
 20 
 2932.17602539063 
 30 
 0 
 11 
 1754.92797851563 
 21 
 2932.64794921875 
 31 
 0 
 0 
LINE
 10 
 1754.92797851563 
 20 
 2932.64794921875 
 30 
 0 
 11 
 1763.43200683594 
 21 
 2935.23193359375 
 31 
 0 
 0 
LINE
 10 
 1763.43200683594 
 20 
 2935.23193359375 
 30 
 0 
 11 
 1762.6240234375 
 21 
 2940.744140625 
 31 
 0 
 0 
LINE
 10 
 1762.6240234375 
 20 
 2940.744140625 
 30 
 0 
 11 
 1755 
 21 
 2950 
 31 
 0 
 0 
LINE
 10 
 1755 
 20 
 2950 
 30 
 0 
 11 
 1743.82397460938 
 21 
 2959.37573242188 
 31 
 0 
 0 
LINE
 10 
 1743.82397460938 
 20 
 2959.37573242188 
 30 
 0 
 11 
 1723.67199707031 
 21 
 2973.40795898438 
 31 
 0 
 0 
LINE
 10 
 1723.67199707031 
 20 
 2973.40795898438 
 30 
 0 
 11 
 1696.60803222656 
 21 
 2990.751953125 
 31 
 0 
 0 
LINE
 10 
 1696.60803222656 
 20 
 2990.751953125 
 30 
 0 
 11 
 1664.69604492188 
 21 
 3010.06396484375 
 31 
 0 
 0 
LINE
 10 
 1664.69604492188 
 20 
 3010.06396484375 
 30 
 0 
 11 
 1630 
 21 
 3030 
 31 
 0 
 0 
LINE
 10 
 1630 
 20 
 3030 
 30 
 0 
 11 
 1522.55200195313 
 21 
 3095.18383789063 
 31 
 0 
 0 
LINE
 10 
 1522.55200195313 
 20 
 3095.18383789063 
 30 
 0 
 11 
 1429.93615722656 
 21 
 3162.912109375 
 31 
 0 
 0 
LINE
 10 
 1429.93615722656 
 20 
 3162.912109375 
 30 
 0 
 11 
 1351.14404296875 
 21 
 3234.04809570313 
 31 
 0 
 0 
LINE
 10 
 1351.14404296875 
 20 
 3234.04809570313 
 30 
 0 
 11 
 1285.16796875 
 21 
 3309.4560546875 
 31 
 0 
 0 
LINE
 10 
 1285.16796875 
 20 
 3309.4560546875 
 30 
 0 
 11 
 1231 
 21 
 3390 
 31 
 0 
 0 
LINE
 10 
 1231 
 20 
 3390 
 30 
 0 
 11 
 1199.32006835938 
 21 
 3449.7041015625 
 31 
 0 
 0 
LINE
 10 
 1199.32006835938 
 20 
 3449.7041015625 
 30 
 0 
 11 
 1175.79992675781 
 21 
 3504.51220703125 
 31 
 0 
 0 
LINE
 10 
 1175.79992675781 
 20 
 3504.51220703125 
 30 
 0 
 11 
 1159.72009277344 
 21 
 3556.96801757813 
 31 
 0 
 0 
LINE
 10 
 1159.72009277344 
 20 
 3556.96801757813 
 30 
 0 
 11 
 1150.35998535156 
 21 
 3609.61596679688 
 31 
 0 
 0 
LINE
 10 
 1150.35998535156 
 20 
 3609.61596679688 
 30 
 0 
 11 
 1147 
 21 
 3665 
 31 
 0 
 0 
LINE
 10 
 1147 
 20 
 3665 
 30 
 0 
 11 
 1148.44799804688 
 21 
 3719.671875 
 31 
 0 
 0 
LINE
 10 
 1148.44799804688 
 20 
 3719.671875 
 30 
 0 
 11 
 1154.50402832031 
 21 
 3770.6962890625 
 31 
 0 
 0 
LINE
 10 
 1154.50402832031 
 20 
 3770.6962890625 
 30 
 0 
 11 
 1165.93603515625 
 21 
 3821.3837890625 
 31 
 0 
 0 
LINE
 10 
 1165.93603515625 
 20 
 3821.3837890625 
 30 
 0 
 11 
 1183.51196289063 
 21 
 3875.04809570313 
 31 
 0 
 0 
LINE
 10 
 1183.51196289063 
 20 
 3875.04809570313 
 30 
 0 
 11 
 1208 
 21 
 3935 
 31 
 0 
 0 
LINE
 10 
 1208 
 20 
 3935 
 30 
 0 
 11 
 1243.31201171875 
 21 
 4018.0400390625 
 31 
 0 
 0 
LINE
 10 
 1243.31201171875 
 20 
 4018.0400390625 
 30 
 0 
 11 
 1264.89599609375 
 21 
 4073.9599609375 
 31 
 0 
 0 
LINE
 10 
 1264.89599609375 
 20 
 4073.9599609375 
 30 
 0 
 11 
 1275.82397460938 
 21 
 4113.56005859375 
 31 
 0 
 0 
LINE
 10 
 1275.82397460938 
 20 
 4113.56005859375 
 30 
 0 
 11 
 1279.16796875 
 21 
 4147.64013671875 
 31 
 0 
 0 
LINE
 10 
 1279.16796875 
 20 
 4147.64013671875 
 30 
 0 
 11 
 1278 
 21 
 4187 
 31 
 0 
 0 
LINE
 10 
 1278 
 20 
 4187 
 30 
 0 
 11 
 1276.74389648438 
 21 
 4221.89599609375 
 31 
 0 
 0 
LINE
 10 
 1276.74389648438 
 20 
 4221.89599609375 
 30 
 0 
 11 
 1277.31201171875 
 21 
 4243.68798828125 
 31 
 0 
 0 
LINE
 10 
 1277.31201171875 
 20 
 4243.68798828125 
 30 
 0 
 11 
 1280.80798339844 
 21 
 4255.83203125 
 31 
 0 
 0 
LINE
 10 
 1280.80798339844 
 20 
 4255.83203125 
 30 
 0 
 11 
 1288.33605957031 
 21 
 4261.7841796875 
 31 
 0 
 0 
LINE
 10 
 1288.33605957031 
 20 
 4261.7841796875 
 30 
 0 
 11 
 1301 
 21 
 4265 
 31 
 0 
 0 
LINE
 10 
 1301 
 20 
 4265 
 30 
 0 
 11 
 1329.85595703125 
 21 
 4275.56787109375 
 31 
 0 
 0 
LINE
 10 
 1329.85595703125 
 20 
 4275.56787109375 
 30 
 0 
 11 
 1362.16809082031 
 21 
 4293.38427734375 
 31 
 0 
 0 
LINE
 10 
 1362.16809082031 
 20 
 4293.38427734375 
 30 
 0 
 11 
 1393.95202636719 
 21 
 4315.6162109375 
 31 
 0 
 0 
LINE
 10 
 1393.95202636719 
 20 
 4315.6162109375 
 30 
 0 
 11 
 1421.22399902344 
 21 
 4339.43212890625 
 31 
 0 
 0 
LINE
 10 
 1421.22399902344 
 20 
 4339.43212890625 
 30 
 0 
 11 
 1440 
 21 
 4362 
 31 
 0 
 0 
LINE
 10 
 1440 
 20 
 4362 
 30 
 0 
 11 
 1446.30407714844 
 21 
 4373.82373046875 
 31 
 0 
 0 
LINE
 10 
 1446.30407714844 
 20 
 4373.82373046875 
 30 
 0 
 11 
 1451.79211425781 
 21 
 4386.9921875 
 31 
 0 
 0 
LINE
 10 
 1451.79211425781 
 20 
 4386.9921875 
 30 
 0 
 11 
 1456.1279296875 
 21 
 4400.4482421875 
 31 
 0 
 0 
LINE
 10 
 1456.1279296875 
 20 
 4400.4482421875 
 30 
 0 
 11 
 1458.97607421875 
 21 
 4413.13623046875 
 31 
 0 
 0 
LINE
 10 
 1458.97607421875 
 20 
 4413.13623046875 
 30 
 0 
 11 
 1460 
 21 
 4424 
 31 
 0 
 0 
LINE
 10 
 1460 
 20 
 4424 
 30 
 0 
 11 
 1456.08801269531 
 21 
 4452.0078125 
 31 
 0 
 0 
LINE
 10 
 1456.08801269531 
 20 
 4452.0078125 
 30 
 0 
 11 
 1445.50415039063 
 21 
 4482.22412109375 
 31 
 0 
 0 
LINE
 10 
 1445.50415039063 
 20 
 4482.22412109375 
 30 
 0 
 11 
 1429.97607421875 
 21 
 4511.3359375 
 31 
 0 
 0 
LINE
 10 
 1429.97607421875 
 20 
 4511.3359375 
 30 
 0 
 11 
 1411.23205566406 
 21 
 4536.0322265625 
 31 
 0 
 0 
LINE
 10 
 1411.23205566406 
 20 
 4536.0322265625 
 30 
 0 
 11 
 1391 
 21 
 4553 
 31 
 0 
 0 
LINE
 10 
 1391 
 20 
 4553 
 30 
 0 
 11 
 1369.35986328125 
 21 
 4561.90380859375 
 31 
 0 
 0 
LINE
 10 
 1369.35986328125 
 20 
 4561.90380859375 
 30 
 0 
 11 
 1342.92016601563 
 21 
 4567.83203125 
 31 
 0 
 0 
LINE
 10 
 1342.92016601563 
 20 
 4567.83203125 
 30 
 0 
 11 
 1317.19995117188 
 21 
 4570.2080078125 
 31 
 0 
 0 
LINE
 10 
 1317.19995117188 
 20 
 4570.2080078125 
 30 
 0 
 11 
 1297.71997070313 
 21 
 4568.4560546875 
 31 
 0 
 0 
LINE
 10 
 1297.71997070313 
 20 
 4568.4560546875 
 30 
 0 
 11 
 1290 
 21 
 4562 
 31 
 0 
 0 
LINE
 10 
 2019 
 20 
 4099 
 30 
 0 
 11 
 1894.78393554688 
 21 
 4075.591796875 
 31 
 0 
 0 
LINE
 10 
 1894.78393554688 
 20 
 4075.591796875 
 30 
 0 
 11 
 1794.95202636719 
 21 
 4043.97607421875 
 31 
 0 
 0 
LINE
 10 
 1794.95202636719 
 20 
 4043.97607421875 
 30 
 0 
 11 
 1716.52795410156 
 21 
 4002.6640625 
 31 
 0 
 0 
LINE
 10 
 1716.52795410156 
 20 
 4002.6640625 
 30 
 0 
 11 
 1656.53601074219 
 21 
 3950.16796875 
 31 
 0 
 0 
LINE
 10 
 1656.53601074219 
 20 
 3950.16796875 
 30 
 0 
 11 
 1612 
 21 
 3885 
 31 
 0 
 0 
LINE
 10 
 1612 
 20 
 3885 
 30 
 0 
 11 
 1601.10400390625 
 21 
 3861.65600585938 
 31 
 0 
 0 
LINE
 10 
 1601.10400390625 
 20 
 3861.65600585938 
 30 
 0 
 11 
 1593.23205566406 
 21 
 3838.64794921875 
 31 
 0 
 0 
LINE
 10 
 1593.23205566406 
 20 
 3838.64794921875 
 30 
 0 
 11 
 1587.80798339844 
 21 
 3812.7119140625 
 31 
 0 
 0 
LINE
 10 
 1587.80798339844 
 20 
 3812.7119140625 
 30 
 0 
 11 
 1584.25598144531 
 21 
 3780.583984375 
 31 
 0 
 0 
LINE
 10 
 1584.25598144531 
 20 
 3780.583984375 
 30 
 0 
 11 
 1582 
 21 
 3739 
 31 
 0 
 0 
LINE
 10 
 1582 
 20 
 3739 
 30 
 0 
 11 
 1582.99194335938 
 21 
 3645.34399414063 
 31 
 0 
 0 
LINE
 10 
 1582.99194335938 
 20 
 3645.34399414063 
 30 
 0 
 11 
 1598.09606933594 
 21 
 3566.47192382813 
 31 
 0 
 0 
LINE
 10 
 1598.09606933594 
 20 
 3566.47192382813 
 30 
 0 
 11 
 1631.10400390625 
 21 
 3494.12817382813 
 31 
 0 
 0 
LINE
 10 
 1631.10400390625 
 20 
 3494.12817382813 
 30 
 0 
 11 
 1685.80798339844 
 21 
 3420.05615234375 
 31 
 0 
 0 
LINE
 10 
 1685.80798339844 
 20 
 3420.05615234375 
 30 
 0 
 11 
 1766 
 21 
 3336 
 31 
 0 
 0 
LINE
 10 
 1766 
 20 
 3336 
 30 
 0 
 11 
 1825.79187011719 
 21 
 3273.85571289063 
 31 
 0 
 0 
LINE
 10 
 1825.79187011719 
 20 
 3273.85571289063 
 30 
 0 
 11 
 1869.4560546875 
 21 
 3219.96826171875 
 31 
 0 
 0 
LINE
 10 
 1869.4560546875 
 20 
 3219.96826171875 
 30 
 0 
 11 
 1898.6240234375 
 21 
 3171.55200195313 
 31 
 0 
 0 
LINE
 10 
 1898.6240234375 
 20 
 3171.55200195313 
 30 
 0 
 11 
 1914.92810058594 
 21 
 3125.82397460938 
 31 
 0 
 0 
LINE
 10 
 1914.92810058594 
 20 
 3125.82397460938 
 30 
 0 
 11 
 1920 
 21 
 3080 
 31 
 0 
 0 
LINE
 10 
 1920 
 20 
 3080 
 30 
 0 
 11 
 1914.08801269531 
 21 
 3028.6318359375 
 31 
 0 
 0 
LINE
 10 
 1914.08801269531 
 20 
 3028.6318359375 
 30 
 0 
 11 
 1895.74401855469 
 21 
 2961.85595703125 
 31 
 0 
 0 
LINE
 10 
 1895.74401855469 
 20 
 2961.85595703125 
 30 
 0 
 11 
 1864.05603027344 
 21 
 2877.4638671875 
 31 
 0 
 0 
LINE
 10 
 1864.05603027344 
 20 
 2877.4638671875 
 30 
 0 
 11 
 1818.11193847656 
 21 
 2773.248046875 
 31 
 0 
 0 
LINE
 10 
 1818.11193847656 
 20 
 2773.248046875 
 30 
 0 
 11 
 1757 
 21 
 2647 
 31 
 0 
 0 
LINE
 10 
 1757 
 20 
 2647 
 30 
 0 
 11 
 1722.39196777344 
 21 
 2576.69580078125 
 31 
 0 
 0 
LINE
 10 
 1722.39196777344 
 20 
 2576.69580078125 
 30 
 0 
 11 
 1691.81591796875 
 21 
 2511.52807617188 
 31 
 0 
 0 
LINE
 10 
 1691.81591796875 
 20 
 2511.52807617188 
 30 
 0 
 11 
 1667.14404296875 
 21 
 2455.91186523438 
 31 
 0 
 0 
LINE
 10 
 1667.14404296875 
 20 
 2455.91186523438 
 30 
 0 
 11 
 1650.248046875 
 21 
 2414.26416015625 
 31 
 0 
 0 
LINE
 10 
 1650.248046875 
 20 
 2414.26416015625 
 30 
 0 
 11 
 1643 
 21 
 2391 
 31 
 0 
 0 
LINE
 10 
 1643 
 20 
 2391 
 30 
 0 
 11 
 1641.96789550781 
 21 
 2373.97583007813 
 31 
 0 
 0 
LINE
 10 
 1641.96789550781 
 20 
 2373.97583007813 
 30 
 0 
 11 
 1643.86401367188 
 21 
 2355.60791015625 
 31 
 0 
 0 
LINE
 10 
 1643.86401367188 
 20 
 2355.60791015625 
 30 
 0 
 11 
 1648.97607421875 
 21 
 2334.55200195313 
 31 
 0 
 0 
LINE
 10 
 1648.97607421875 
 20 
 2334.55200195313 
 30 
 0 
 11 
 1657.59204101563 
 21 
 2309.46411132813 
 31 
 0 
 0 
LINE
 10 
 1657.59204101563 
 20 
 2309.46411132813 
 30 
 0 
 11 
 1670 
 21 
 2279 
 31 
 0 
 0 
LINE
 10 
 1670 
 20 
 2279 
 30 
 0 
 11 
 1685.19189453125 
 21 
 2243.39184570313 
 31 
 0 
 0 
LINE
 10 
 1685.19189453125 
 20 
 2243.39184570313 
 30 
 0 
 11 
 1694.33605957031 
 21 
 2215.89599609375 
 31 
 0 
 0 
LINE
 10 
 1694.33605957031 
 20 
 2215.89599609375 
 30 
 0 
 11 
 1698.583984375 
 21 
 2189.50415039063 
 31 
 0 
 0 
LINE
 10 
 1698.583984375 
 20 
 2189.50415039063 
 30 
 0 
 11 
 1699.08801269531 
 21 
 2157.2080078125 
 31 
 0 
 0 
LINE
 10 
 1699.08801269531 
 20 
 2157.2080078125 
 30 
 0 
 11 
 1697 
 21 
 2112 
 31 
 0 
 0 
LINE
 10 
 1697 
 20 
 2112 
 30 
 0 
 11 
 1691 
 21 
 2018 
 31 
 0 
 0 
LINE
 10 
 1691 
 20 
 2018 
 30 
 0 
 11 
 1733 
 21 
 1973 
 31 
 0 
 0 
LINE
 10 
 1733 
 20 
 1973 
 30 
 0 
 11 
 1763.13610839844 
 21 
 1943.85595703125 
 31 
 0 
 0 
LINE
 10 
 1763.13610839844 
 20 
 1943.85595703125 
 30 
 0 
 11 
 1796.00793457031 
 21 
 1917.92797851563 
 31 
 0 
 0 
LINE
 10 
 1796.00793457031 
 20 
 1917.92797851563 
 30 
 0 
 11 
 1828.11206054688 
 21 
 1897.47204589844 
 31 
 0 
 0 
LINE
 10 
 1828.11206054688 
 20 
 1897.47204589844 
 30 
 0 
 11 
 1855.94409179688 
 21 
 1884.74401855469 
 31 
 0 
 0 
LINE
 10 
 1855.94409179688 
 20 
 1884.74401855469 
 30 
 0 
 11 
 1876 
 21 
 1882 
 31 
 0 
 0 
LINE
 10 
 1876 
 20 
 1882 
 30 
 0 
 11 
 1881.55993652344 
 21 
 1884.43994140625 
 31 
 0 
 0 
LINE
 10 
 1881.55993652344 
 20 
 1884.43994140625 
 30 
 0 
 11 
 1882.32006835938 
 21 
 1890 
 31 
 0 
 0 
LINE
 10 
 1882.32006835938 
 20 
 1890 
 30 
 0 
 11 
 1877.80004882813 
 21 
 1899.64013671875 
 31 
 0 
 0 
LINE
 10 
 1877.80004882813 
 20 
 1899.64013671875 
 30 
 0 
 11 
 1867.52001953125 
 21 
 1914.32006835938 
 31 
 0 
 0 
LINE
 10 
 1867.52001953125 
 20 
 1914.32006835938 
 30 
 0 
 11 
 1851 
 21 
 1935 
 31 
 0 
 0 
LINE
 10 
 1851 
 20 
 1935 
 30 
 0 
 11 
 1829.07995605469 
 21 
 1965.93591308594 
 31 
 0 
 0 
LINE
 10 
 1829.07995605469 
 20 
 1965.93591308594 
 30 
 0 
 11 
 1808.60009765625 
 21 
 2001.52807617188 
 31 
 0 
 0 
LINE
 10 
 1808.60009765625 
 20 
 2001.52807617188 
 30 
 0 
 11 
 1792.68005371094 
 21 
 2035.15197753906 
 31 
 0 
 0 
LINE
 10 
 1792.68005371094 
 20 
 2035.15197753906 
 30 
 0 
 11 
 1784.44006347656 
 21 
 2060.18408203125 
 31 
 0 
 0 
LINE
 10 
 1784.44006347656 
 20 
 2060.18408203125 
 30 
 0 
 11 
 1787 
 21 
 2070 
 31 
 0 
 0 
LINE
 10 
 1787 
 20 
 2070 
 30 
 0 
 11 
 1792.7998046875 
 21 
 2066.248046875 
 31 
 0 
 0 
LINE
 10 
 1792.7998046875 
 20 
 2066.248046875 
 30 
 0 
 11 
 1804.59997558594 
 21 
 2055.82397460938 
 31 
 0 
 0 
LINE
 10 
 1804.59997558594 
 20 
 2055.82397460938 
 30 
 0 
 11 
 1821.19995117188 
 21 
 2039.97607421875 
 31 
 0 
 0 
LINE
 10 
 1821.19995117188 
 20 
 2039.97607421875 
 30 
 0 
 11 
 1841.40002441406 
 21 
 2019.95202636719 
 31 
 0 
 0 
LINE
 10 
 1841.40002441406 
 20 
 2019.95202636719 
 30 
 0 
 11 
 1864 
 21 
 1997 
 31 
 0 
 0 
LINE
 10 
 1864 
 20 
 1997 
 30 
 0 
 11 
 1907.24792480469 
 21 
 1955.66394042969 
 31 
 0 
 0 
LINE
 10 
 1907.24792480469 
 20 
 1955.66394042969 
 30 
 0 
 11 
 1949.34411621094 
 21 
 1922.39208984375 
 31 
 0 
 0 
LINE
 10 
 1949.34411621094 
 20 
 1922.39208984375 
 30 
 0 
 11 
 1988.416015625 
 21 
 1898.2880859375 
 31 
 0 
 0 
LINE
 10 
 1988.416015625 
 20 
 1898.2880859375 
 30 
 0 
 11 
 2022.59204101563 
 21 
 1884.4560546875 
 31 
 0 
 0 
LINE
 10 
 2022.59204101563 
 20 
 1884.4560546875 
 30 
 0 
 11 
 2050 
 21 
 1882 
 31 
 0 
 0 
LINE
 10 
 2050 
 20 
 1882 
 30 
 0 
 11 
 2059.080078125 
 21 
 1884.5439453125 
 31 
 0 
 0 
LINE
 10 
 2059.080078125 
 20 
 1884.5439453125 
 30 
 0 
 11 
 2061.68017578125 
 21 
 1890.11206054688 
 31 
 0 
 0 
LINE
 10 
 2061.68017578125 
 20 
 1890.11206054688 
 30 
 0 
 11 
 2056.84008789063 
 21 
 1901.00805664063 
 31 
 0 
 0 
LINE
 10 
 2056.84008789063 
 20 
 1901.00805664063 
 30 
 0 
 11 
 2043.59997558594 
 21 
 1919.53601074219 
 31 
 0 
 0 
LINE
 10 
 2043.59997558594 
 20 
 1919.53601074219 
 30 
 0 
 11 
 2021 
 21 
 1948 
 31 
 0 
 0 
LINE
 10 
 2021 
 20 
 1948 
 30 
 0 
 11 
 1982.54382324219 
 21 
 1997.2958984375 
 31 
 0 
 0 
LINE
 10 
 1982.54382324219 
 20 
 1997.2958984375 
 30 
 0 
 11 
 1957.43200683594 
 21 
 2036.36804199219 
 31 
 0 
 0 
LINE
 10 
 1957.43200683594 
 20 
 2036.36804199219 
 30 
 0 
 11 
 1942.44799804688 
 21 
 2072.99194335938 
 31 
 0 
 0 
LINE
 10 
 1942.44799804688 
 20 
 2072.99194335938 
 30 
 0 
 11 
 1934.37609863281 
 21 
 2114.94409179688 
 31 
 0 
 0 
LINE
 10 
 1934.37609863281 
 20 
 2114.94409179688 
 30 
 0 
 11 
 1930 
 21 
 2170 
 31 
 0 
 0 
LINE
 10 
 1930 
 20 
 2170 
 30 
 0 
 11 
 1926.81579589844 
 21 
 2213.39184570313 
 31 
 0 
 0 
LINE
 10 
 1926.81579589844 
 20 
 2213.39184570313 
 30 
 0 
 11 
 1922.52807617188 
 21 
 2244.73608398438 
 31 
 0 
 0 
LINE
 10 
 1922.52807617188 
 20 
 2244.73608398438 
 30 
 0 
 11 
 1916.03198242188 
 21 
 2268.78393554688 
 31 
 0 
 0 
LINE
 10 
 1916.03198242188 
 20 
 2268.78393554688 
 30 
 0 
 11 
 1906.22412109375 
 21 
 2290.2880859375 
 31 
 0 
 0 
LINE
 10 
 1906.22412109375 
 20 
 2290.2880859375 
 30 
 0 
 11 
 1892 
 21 
 2314 
 31 
 0 
 0 
LINE
 10 
 1892 
 20 
 2314 
 30 
 0 
 11 
 1868.03991699219 
 21 
 2359.02416992188 
 31 
 0 
 0 
LINE
 10 
 1868.03991699219 
 20 
 2359.02416992188 
 30 
 0 
 11 
 1860.16003417969 
 21 
 2404.43212890625 
 31 
 0 
 0 
LINE
 10 
 1860.16003417969 
 20 
 2404.43212890625 
 30 
 0 
 11 
 1870.76000976563 
 21 
 2463.32788085938 
 31 
 0 
 0 
LINE
 10 
 1870.76000976563 
 20 
 2463.32788085938 
 30 
 0 
 11 
 1902.23999023438 
 21 
 2548.81616210938 
 31 
 0 
 0 
LINE
 10 
 1902.23999023438 
 20 
 2548.81616210938 
 30 
 0 
 11 
 1957 
 21 
 2674 
 31 
 0 
 0 
LINE
 10 
 1957 
 20 
 2674 
 30 
 0 
 11 
 1995.56799316406 
 21 
 2756.28784179688 
 31 
 0 
 0 
LINE
 10 
 1995.56799316406 
 20 
 2756.28784179688 
 30 
 0 
 11 
 2040.6640625 
 21 
 2843.90405273438 
 31 
 0 
 0 
LINE
 10 
 2040.6640625 
 20 
 2843.90405273438 
 30 
 0 
 11 
 2092.576171875 
 21 
 2937.3759765625 
 31 
 0 
 0 
LINE
 10 
 2092.576171875 
 20 
 2937.3759765625 
 30 
 0 
 11 
 2151.59204101563 
 21 
 3037.23217773438 
 31 
 0 
 0 
LINE
 10 
 2151.59204101563 
 20 
 3037.23217773438 
 30 
 0 
 11 
 2218 
 21 
 3144 
 31 
 0 
 0 
LINE
 10 
 2218 
 20 
 3144 
 30 
 0 
 11 
 2248.52783203125 
 21 
 3192.7919921875 
 31 
 0 
 0 
LINE
 10 
 2248.52783203125 
 20 
 3192.7919921875 
 30 
 0 
 11 
 2276.46411132813 
 21 
 3238.65600585938 
 31 
 0 
 0 
LINE
 10 
 2276.46411132813 
 20 
 3238.65600585938 
 30 
 0 
 11 
 2299.93603515625 
 21 
 3278.42407226563 
 31 
 0 
 0 
LINE
 10 
 2299.93603515625 
 20 
 3278.42407226563 
 30 
 0 
 11 
 2317.07202148438 
 21 
 3308.92822265625 
 31 
 0 
 0 
LINE
 10 
 2317.07202148438 
 20 
 3308.92822265625 
 30 
 0 
 11 
 2326 
 21 
 3327 
 31 
 0 
 0 
LINE
 10 
 2326 
 20 
 3327 
 30 
 0 
 11 
 2335.56787109375 
 21 
 3358.60009765625 
 31 
 0 
 0 
LINE
 10 
 2335.56787109375 
 20 
 3358.60009765625 
 30 
 0 
 11 
 2338.94409179688 
 21 
 3394.52026367188 
 31 
 0 
 0 
LINE
 10 
 2338.94409179688 
 20 
 3394.52026367188 
 30 
 0 
 11 
 2335.93603515625 
 21 
 3436.43994140625 
 31 
 0 
 0 
LINE
 10 
 2335.93603515625 
 20 
 3436.43994140625 
 30 
 0 
 11 
 2326.35205078125 
 21 
 3486.0400390625 
 31 
 0 
 0 
LINE
 10 
 2326.35205078125 
 20 
 3486.0400390625 
 30 
 0 
 11 
 2310 
 21 
 3545 
 31 
 0 
 0 
LINE
 10 
 2310 
 20 
 3545 
 30 
 0 
 11 
 2292 
 21 
 3611.7919921875 
 31 
 0 
 0 
LINE
 10 
 2292 
 20 
 3611.7919921875 
 30 
 0 
 11 
 2282.40014648438 
 21 
 3668.6962890625 
 31 
 0 
 0 
LINE
 10 
 2282.40014648438 
 20 
 3668.6962890625 
 30 
 0 
 11 
 2281.19995117188 
 21 
 3718.30419921875 
 31 
 0 
 0 
LINE
 10 
 2281.19995117188 
 20 
 3718.30419921875 
 30 
 0 
 11 
 2288.39990234375 
 21 
 3763.2080078125 
 31 
 0 
 0 
LINE
 10 
 2288.39990234375 
 20 
 3763.2080078125 
 30 
 0 
 11 
 2304 
 21 
 3806 
 31 
 0 
 0 
LINE
 10 
 2304 
 20 
 3806 
 30 
 0 
 11 
 2351.41577148438 
 21 
 3884.53564453125 
 31 
 0 
 0 
LINE
 10 
 2351.41577148438 
 20 
 3884.53564453125 
 30 
 0 
 11 
 2413.328125 
 21 
 3942.52807617188 
 31 
 0 
 0 
LINE
 10 
 2413.328125 
 20 
 3942.52807617188 
 30 
 0 
 11 
 2493.43188476563 
 21 
 3981.751953125 
 31 
 0 
 0 
LINE
 10 
 2493.43188476563 
 20 
 3981.751953125 
 30 
 0 
 11 
 2595.42407226563 
 21 
 4003.98413085938 
 31 
 0 
 0 
LINE
 10 
 2595.42407226563 
 20 
 4003.98413085938 
 30 
 0 
 11 
 2723 
 21 
 4011 
 31 
 0 
 0 
LINE
 10 
 2723 
 20 
 4011 
 30 
 0 
 11 
 2763.4560546875 
 21 
 4011.60791015625 
 31 
 0 
 0 
LINE
 10 
 2763.4560546875 
 20 
 4011.60791015625 
 30 
 0 
 11 
 2798.248046875 
 21 
 4012.26416015625 
 31 
 0 
 0 
LINE
 10 
 2798.248046875 
 20 
 4012.26416015625 
 30 
 0 
 11 
 2825.31201171875 
 21 
 4013.01586914063 
 31 
 0 
 0 
LINE
 10 
 2825.31201171875 
 20 
 4013.01586914063 
 30 
 0 
 11 
 2842.583984375 
 21 
 4013.912109375 
 31 
 0 
 0 
LINE
 10 
 2842.583984375 
 20 
 4013.912109375 
 30 
 0 
 11 
 2848 
 21 
 4015 
 31 
 0 
 0 
LINE
 10 
 2848 
 20 
 4015 
 30 
 0 
 11 
 2814.93603515625 
 21 
 4026.39208984375 
 31 
 0 
 0 
LINE
 10 
 2814.93603515625 
 20 
 4026.39208984375 
 30 
 0 
 11 
 2742.12817382813 
 21 
 4044.4560546875 
 31 
 0 
 0 
LINE
 10 
 2742.12817382813 
 20 
 4044.4560546875 
 30 
 0 
 11 
 2649.35205078125 
 21 
 4064.82397460938 
 31 
 0 
 0 
LINE
 10 
 2649.35205078125 
 20 
 4064.82397460938 
 30 
 0 
 11 
 2556.38403320313 
 21 
 4083.12817382813 
 31 
 0 
 0 
LINE
 10 
 2556.38403320313 
 20 
 4083.12817382813 
 30 
 0 
 11 
 2483 
 21 
 4095 
 31 
 0 
 0 
LINE
 10 
 2483 
 20 
 4095 
 30 
 0 
 11 
 2397.30395507813 
 21 
 4102.90380859375 
 31 
 0 
 0 
LINE
 10 
 2397.30395507813 
 20 
 4102.90380859375 
 30 
 0 
 11 
 2294.47216796875 
 21 
 4107.35205078125 
 31 
 0 
 0 
LINE
 10 
 2294.47216796875 
 20 
 4107.35205078125 
 30 
 0 
 11 
 2188.08813476563 
 21 
 4108.248046875 
 31 
 0 
 0 
LINE
 10 
 2188.08813476563 
 20 
 4108.248046875 
 30 
 0 
 11 
 2091.73608398438 
 21 
 4105.49609375 
 31 
 0 
 0 
LINE
 10 
 2091.73608398438 
 20 
 4105.49609375 
 30 
 0 
 11 
 2019 
 21 
 4099 
 31 
 0 
 0 
LINE
 10 
 3265 
 20 
 3810 
 30 
 0 
 11 
 3327.01586914063 
 21 
 3753.88012695313 
 31 
 0 
 0 
LINE
 10 
 3327.01586914063 
 20 
 3753.88012695313 
 30 
 0 
 11 
 3404.96826171875 
 21 
 3676.16015625 
 31 
 0 
 0 
LINE
 10 
 3404.96826171875 
 20 
 3676.16015625 
 30 
 0 
 11 
 3484.31201171875 
 21 
 3592.19995117188 
 31 
 0 
 0 
LINE
 10 
 3484.31201171875 
 20 
 3592.19995117188 
 30 
 0 
 11 
 3550.50415039063 
 21 
 3517.36010742188 
 31 
 0 
 0 
LINE
 10 
 3550.50415039063 
 20 
 3517.36010742188 
 30 
 0 
 11 
 3589 
 21 
 3467 
 31 
 0 
 0 
LINE
 10 
 3589 
 20 
 3467 
 30 
 0 
 11 
 3601.5439453125 
 21 
 3443.77587890625 
 31 
 0 
 0 
LINE
 10 
 3601.5439453125 
 20 
 3443.77587890625 
 30 
 0 
 11 
 3615.67211914063 
 21 
 3414.16796875 
 31 
 0 
 0 
LINE
 10 
 3615.67211914063 
 20 
 3414.16796875 
 30 
 0 
 11 
 3630.328125 
 21 
 3380.67211914063 
 31 
 0 
 0 
LINE
 10 
 3630.328125 
 20 
 3380.67211914063 
 30 
 0 
 11 
 3644.4560546875 
 21 
 3345.7841796875 
 31 
 0 
 0 
LINE
 10 
 3644.4560546875 
 20 
 3345.7841796875 
 30 
 0 
 11 
 3657 
 21 
 3312 
 31 
 0 
 0 
LINE
 10 
 3657 
 20 
 3312 
 30 
 0 
 11 
 3672.02392578125 
 21 
 3267.3759765625 
 31 
 0 
 0 
LINE
 10 
 3672.02392578125 
 20 
 3267.3759765625 
 30 
 0 
 11 
 3681.67211914063 
 21 
 3232.92797851563 
 31 
 0 
 0 
LINE
 10 
 3681.67211914063 
 20 
 3232.92797851563 
 30 
 0 
 11 
 3686.80810546875 
 21 
 3202.99194335938 
 31 
 0 
 0 
LINE
 10 
 3686.80810546875 
 20 
 3202.99194335938 
 30 
 0 
 11 
 3688.29614257813 
 21 
 3171.90405273438 
 31 
 0 
 0 
LINE
 10 
 3688.29614257813 
 20 
 3171.90405273438 
 30 
 0 
 11 
 3687 
 21 
 3134 
 31 
 0 
 0 
LINE
 10 
 3687 
 20 
 3134 
 30 
 0 
 11 
 3684.84008789063 
 21 
 3099.39208984375 
 31 
 0 
 0 
LINE
 10 
 3684.84008789063 
 20 
 3099.39208984375 
 30 
 0 
 11 
 3681.48022460938 
 21 
 3071.93603515625 
 31 
 0 
 0 
LINE
 10 
 3681.48022460938 
 20 
 3071.93603515625 
 30 
 0 
 11 
 3676.2001953125 
 21 
 3049.18383789063 
 31 
 0 
 0 
LINE
 10 
 3676.2001953125 
 20 
 3049.18383789063 
 30 
 0 
 11 
 3668.28002929688 
 21 
 3028.68823242188 
 31 
 0 
 0 
LINE
 10 
 3668.28002929688 
 20 
 3028.68823242188 
 30 
 0 
 11 
 3657 
 21 
 3008 
 31 
 0 
 0 
LINE
 10 
 3657 
 20 
 3008 
 30 
 0 
 11 
 3622.73583984375 
 21 
 2960.97583007813 
 31 
 0 
 0 
LINE
 10 
 3622.73583984375 
 20 
 2960.97583007813 
 30 
 0 
 11 
 3580.408203125 
 21 
 2921.72802734375 
 31 
 0 
 0 
LINE
 10 
 3580.408203125 
 20 
 2921.72802734375 
 30 
 0 
 11 
 3532.51196289063 
 21 
 2891.7919921875 
 31 
 0 
 0 
LINE
 10 
 3532.51196289063 
 20 
 2891.7919921875 
 30 
 0 
 11 
 3481.54418945313 
 21 
 2872.7041015625 
 31 
 0 
 0 
LINE
 10 
 3481.54418945313 
 20 
 2872.7041015625 
 30 
 0 
 11 
 3430 
 21 
 2866 
 31 
 0 
 0 
LINE
 10 
 3430 
 20 
 2866 
 30 
 0 
 11 
 3387.6318359375 
 21 
 2869.40771484375 
 31 
 0 
 0 
LINE
 10 
 3387.6318359375 
 20 
 2869.40771484375 
 30 
 0 
 11 
 3343.5361328125 
 21 
 2882.46411132813 
 31 
 0 
 0 
LINE
 10 
 3343.5361328125 
 20 
 2882.46411132813 
 30 
 0 
 11 
 3292.6240234375 
 21 
 2907.61596679688 
 31 
 0 
 0 
LINE
 10 
 3292.6240234375 
 20 
 2907.61596679688 
 30 
 0 
 11 
 3229.80810546875 
 21 
 2947.31201171875 
 31 
 0 
 0 
LINE
 10 
 3229.80810546875 
 20 
 2947.31201171875 
 30 
 0 
 11 
 3150 
 21 
 3004 
 31 
 0 
 0 
LINE
 10 
 3150 
 20 
 3004 
 30 
 0 
 11 
 3075.40795898438 
 21 
 3057.36767578125 
 31 
 0 
 0 
LINE
 10 
 3075.40795898438 
 20 
 3057.36767578125 
 30 
 0 
 11 
 3006.62426757813 
 21 
 3102.38403320313 
 31 
 0 
 0 
LINE
 10 
 3006.62426757813 
 20 
 3102.38403320313 
 30 
 0 
 11 
 2940.33618164063 
 21 
 3141.01611328125 
 31 
 0 
 0 
LINE
 10 
 2940.33618164063 
 20 
 3141.01611328125 
 30 
 0 
 11 
 2873.23217773438 
 21 
 3175.23193359375 
 31 
 0 
 0 
LINE
 10 
 2873.23217773438 
 20 
 3175.23193359375 
 30 
 0 
 11 
 2802 
 21 
 3207 
 31 
 0 
 0 
LINE
 10 
 2802 
 20 
 3207 
 30 
 0 
 11 
 2762.759765625 
 21 
 3222.39990234375 
 31 
 0 
 0 
LINE
 10 
 2762.759765625 
 20 
 3222.39990234375 
 30 
 0 
 11 
 2729.76000976563 
 21 
 3233.23999023438 
 31 
 0 
 0 
LINE
 10 
 2729.76000976563 
 20 
 3233.23999023438 
 30 
 0 
 11 
 2698.67993164063 
 21 
 3240.47998046875 
 31 
 0 
 0 
LINE
 10 
 2698.67993164063 
 20 
 3240.47998046875 
 30 
 0 
 11 
 2665.19995117188 
 21 
 3245.080078125 
 31 
 0 
 0 
LINE
 10 
 2665.19995117188 
 20 
 3245.080078125 
 30 
 0 
 11 
 2625 
 21 
 3248 
 31 
 0 
 0 
LINE
 10 
 2625 
 20 
 3248 
 30 
 0 
 11 
 2584.6318359375 
 21 
 3249.48803710938 
 31 
 0 
 0 
LINE
 10 
 2584.6318359375 
 20 
 3249.48803710938 
 30 
 0 
 11 
 2554.5361328125 
 21 
 3248.8642578125 
 31 
 0 
 0 
LINE
 10 
 2554.5361328125 
 20 
 3248.8642578125 
 30 
 0 
 11 
 2530.82397460938 
 21 
 3245.69604492188 
 31 
 0 
 0 
LINE
 10 
 2530.82397460938 
 20 
 3245.69604492188 
 30 
 0 
 11 
 2509.60815429688 
 21 
 3239.55200195313 
 31 
 0 
 0 
LINE
 10 
 2509.60815429688 
 20 
 3239.55200195313 
 30 
 0 
 11 
 2487 
 21 
 3230 
 31 
 0 
 0 
LINE
 10 
 2487 
 20 
 3230 
 30 
 0 
 11 
 2424.07202148438 
 21 
 3186.71166992188 
 31 
 0 
 0 
LINE
 10 
 2424.07202148438 
 20 
 3186.71166992188 
 30 
 0 
 11 
 2370.69604492188 
 21 
 3120.09619140625 
 31 
 0 
 0 
LINE
 10 
 2370.69604492188 
 20 
 3120.09619140625 
 30 
 0 
 11 
 2326.583984375 
 21 
 3029.6240234375 
 31 
 0 
 0 
LINE
 10 
 2326.583984375 
 20 
 3029.6240234375 
 30 
 0 
 11 
 2291.44799804688 
 21 
 2914.76806640625 
 31 
 0 
 0 
LINE
 10 
 2291.44799804688 
 20 
 2914.76806640625 
 30 
 0 
 11 
 2265 
 21 
 2775 
 31 
 0 
 0 
LINE
 10 
 2265 
 20 
 2775 
 30 
 0 
 11 
 2253.64794921875 
 21 
 2658.02392578125 
 31 
 0 
 0 
LINE
 10 
 2253.64794921875 
 20 
 2658.02392578125 
 30 
 0 
 11 
 2250.50415039063 
 21 
 2525.11206054688 
 31 
 0 
 0 
LINE
 10 
 2250.50415039063 
 20 
 2525.11206054688 
 30 
 0 
 11 
 2255.13598632813 
 21 
 2386.48803710938 
 31 
 0 
 0 
LINE
 10 
 2255.13598632813 
 20 
 2386.48803710938 
 30 
 0 
 11 
 2267.11206054688 
 21 
 2252.3759765625 
 31 
 0 
 0 
LINE
 10 
 2267.11206054688 
 20 
 2252.3759765625 
 30 
 0 
 11 
 2286 
 21 
 2133 
 31 
 0 
 0 
LINE
 10 
 2286 
 20 
 2133 
 30 
 0 
 11 
 2287.751953125 
 21 
 2111.26391601563 
 31 
 0 
 0 
LINE
 10 
 2287.751953125 
 20 
 2111.26391601563 
 30 
 0 
 11 
 2282.01586914063 
 21 
 2101.19213867188 
 31 
 0 
 0 
LINE
 10 
 2282.01586914063 
 20 
 2101.19213867188 
 30 
 0 
 11 
 2268.50390625 
 21 
 2102.68798828125 
 31 
 0 
 0 
LINE
 10 
 2268.50390625 
 20 
 2102.68798828125 
 30 
 0 
 11 
 2246.92797851563 
 21 
 2115.65600585938 
 31 
 0 
 0 
LINE
 10 
 2246.92797851563 
 20 
 2115.65600585938 
 30 
 0 
 11 
 2217 
 21 
 2140 
 31 
 0 
 0 
LINE
 10 
 2217 
 20 
 2140 
 30 
 0 
 11 
 2180.92797851563 
 21 
 2177.16796875 
 31 
 0 
 0 
LINE
 10 
 2180.92797851563 
 20 
 2177.16796875 
 30 
 0 
 11 
 2143.46411132813 
 21 
 2224.70385742188 
 31 
 0 
 0 
LINE
 10 
 2143.46411132813 
 20 
 2224.70385742188 
 30 
 0 
 11 
 2106.3359375 
 21 
 2280.25610351563 
 31 
 0 
 0 
LINE
 10 
 2106.3359375 
 20 
 2280.25610351563 
 30 
 0 
 11 
 2071.27197265625 
 21 
 2341.47192382813 
 31 
 0 
 0 
LINE
 10 
 2071.27197265625 
 20 
 2341.47192382813 
 30 
 0 
 11 
 2040 
 21 
 2406 
 31 
 0 
 0 
LINE
 10 
 2040 
 20 
 2406 
 30 
 0 
 11 
 2003 
 21 
 2490 
 31 
 0 
 0 
LINE
 10 
 2003 
 20 
 2490 
 30 
 0 
 11 
 1997 
 21 
 2422 
 31 
 0 
 0 
LINE
 10 
 1997 
 20 
 2422 
 30 
 0 
 11 
 1995.23193359375 
 21 
 2362.44775390625 
 31 
 0 
 0 
LINE
 10 
 1995.23193359375 
 20 
 2362.44775390625 
 30 
 0 
 11 
 1997.97595214844 
 21 
 2300.30395507813 
 31 
 0 
 0 
LINE
 10 
 1997.97595214844 
 20 
 2300.30395507813 
 30 
 0 
 11 
 2004.7041015625 
 21 
 2241.13598632813 
 31 
 0 
 0 
LINE
 10 
 2004.7041015625 
 20 
 2241.13598632813 
 30 
 0 
 11 
 2014.88806152344 
 21 
 2190.51196289063 
 31 
 0 
 0 
LINE
 10 
 2014.88806152344 
 20 
 2190.51196289063 
 30 
 0 
 11 
 2028 
 21 
 2154 
 31 
 0 
 0 
LINE
 10 
 2028 
 20 
 2154 
 30 
 0 
 11 
 2038.74389648438 
 21 
 2137.16796875 
 31 
 0 
 0 
LINE
 10 
 2038.74389648438 
 20 
 2137.16796875 
 30 
 0 
 11 
 2056.59204101563 
 21 
 2114.38403320313 
 31 
 0 
 0 
LINE
 10 
 2056.59204101563 
 20 
 2114.38403320313 
 30 
 0 
 11 
 2079.76806640625 
 21 
 2087.61596679688 
 31 
 0 
 0 
LINE
 10 
 2079.76806640625 
 20 
 2087.61596679688 
 30 
 0 
 11 
 2106.49609375 
 21 
 2058.83203125 
 31 
 0 
 0 
LINE
 10 
 2106.49609375 
 20 
 2058.83203125 
 30 
 0 
 11 
 2135 
 21 
 2030 
 31 
 0 
 0 
LINE
 10 
 2135 
 20 
 2030 
 30 
 0 
 11 
 2189.61596679688 
 21 
 1974.15991210938 
 31 
 0 
 0 
LINE
 10 
 2189.61596679688 
 20 
 1974.15991210938 
 30 
 0 
 11 
 2228.00805664063 
 21 
 1927.68005371094 
 31 
 0 
 0 
LINE
 10 
 2228.00805664063 
 20 
 1927.68005371094 
 30 
 0 
 11 
 2254.59204101563 
 21 
 1883.11999511719 
 31 
 0 
 0 
LINE
 10 
 2254.59204101563 
 20 
 1883.11999511719 
 30 
 0 
 11 
 2273.78393554688 
 21 
 1833.0400390625 
 31 
 0 
 0 
LINE
 10 
 2273.78393554688 
 20 
 1833.0400390625 
 30 
 0 
 11 
 2290 
 21 
 1770 
 31 
 0 
 0 
LINE
 10 
 2290 
 20 
 1770 
 30 
 0 
 11 
 2303.58374023438 
 21 
 1700.73596191406 
 31 
 0 
 0 
LINE
 10 
 2303.58374023438 
 20 
 1700.73596191406 
 30 
 0 
 11 
 2310.83203125 
 21 
 1640.92797851563 
 31 
 0 
 0 
LINE
 10 
 2310.83203125 
 20 
 1640.92797851563 
 30 
 0 
 11 
 2311.88793945313 
 21 
 1591.15209960938 
 31 
 0 
 0 
LINE
 10 
 2311.88793945313 
 20 
 1591.15209960938 
 30 
 0 
 11 
 2306.89599609375 
 21 
 1551.98400878906 
 31 
 0 
 0 
LINE
 10 
 2306.89599609375 
 20 
 1551.98400878906 
 30 
 0 
 11 
 2296 
 21 
 1524 
 31 
 0 
 0 
LINE
 10 
 2296 
 20 
 1524 
 30 
 0 
 11 
 2278 
 21 
 1497 
 31 
 0 
 0 
LINE
 10 
 2278 
 20 
 1497 
 30 
 0 
 11 
 2171 
 21 
 1504 
 31 
 0 
 0 
LINE
 10 
 2171 
 20 
 1504 
 30 
 0 
 11 
 1958.54382324219 
 21 
 1514.65588378906 
 31 
 0 
 0 
LINE
 10 
 1958.54382324219 
 20 
 1514.65588378906 
 30 
 0 
 11 
 1784.8720703125 
 21 
 1517.72802734375 
 31 
 0 
 0 
LINE
 10 
 1784.8720703125 
 20 
 1517.72802734375 
 30 
 0 
 11 
 1645.328125 
 21 
 1513.07202148438 
 31 
 0 
 0 
LINE
 10 
 1645.328125 
 20 
 1513.07202148438 
 30 
 0 
 11 
 1535.25610351563 
 21 
 1500.54406738281 
 31 
 0 
 0 
LINE
 10 
 1535.25610351563 
 20 
 1500.54406738281 
 30 
 0 
 11 
 1450 
 21 
 1480 
 31 
 0 
 0 
LINE
 10 
 1450 
 20 
 1480 
 30 
 0 
 11 
 1427.11999511719 
 21 
 1474.05603027344 
 31 
 0 
 0 
LINE
 10 
 1427.11999511719 
 20 
 1474.05603027344 
 30 
 0 
 11 
 1397.28002929688 
 21 
 1468.44812011719 
 31 
 0 
 0 
LINE
 10 
 1397.28002929688 
 20 
 1468.44812011719 
 30 
 0 
 11 
 1362.88000488281 
 21 
 1463.51196289063 
 31 
 0 
 0 
LINE
 10 
 1362.88000488281 
 20 
 1463.51196289063 
 30 
 0 
 11 
 1326.31994628906 
 21 
 1459.583984375 
 31 
 0 
 0 
LINE
 10 
 1326.31994628906 
 20 
 1459.583984375 
 30 
 0 
 11 
 1290 
 21 
 1457 
 31 
 0 
 0 
LINE
 10 
 1290 
 20 
 1457 
 30 
 0 
 11 
 1221.56787109375 
 21 
 1451.36804199219 
 31 
 0 
 0 
LINE
 10 
 1221.56787109375 
 20 
 1451.36804199219 
 30 
 0 
 11 
 1161.10400390625 
 21 
 1442.42407226563 
 31 
 0 
 0 
LINE
 10 
 1161.10400390625 
 20 
 1442.42407226563 
 30 
 0 
 11 
 1106.25598144531 
 21 
 1429.49597167969 
 31 
 0 
 0 
LINE
 10 
 1106.25598144531 
 20 
 1429.49597167969 
 30 
 0 
 11 
 1054.67199707031 
 21 
 1411.912109375 
 31 
 0 
 0 
LINE
 10 
 1054.67199707031 
 20 
 1411.912109375 
 30 
 0 
 11 
 1004 
 21 
 1389 
 31 
 0 
 0 
LINE
 10 
 1004 
 20 
 1389 
 30 
 0 
 11 
 960.64794921875 
 21 
 1364.09594726563 
 31 
 0 
 0 
LINE
 10 
 960.64794921875 
 20 
 1364.09594726563 
 30 
 0 
 11 
 917.583984375 
 21 
 1333.76794433594 
 31 
 0 
 0 
LINE
 10 
 917.583984375 
 20 
 1333.76794433594 
 30 
 0 
 11 
 881.096008300781 
 21 
 1303.39196777344 
 31 
 0 
 0 
LINE
 10 
 881.096008300781 
 20 
 1303.39196777344 
 30 
 0 
 11 
 857.471984863281 
 21 
 1278.34399414063 
 31 
 0 
 0 
LINE
 10 
 857.471984863281 
 20 
 1278.34399414063 
 30 
 0 
 11 
 853 
 21 
 1264 
 31 
 0 
 0 
LINE
 10 
 853 
 20 
 1264 
 30 
 0 
 11 
 857.759948730469 
 21 
 1262.31994628906 
 31 
 0 
 0 
LINE
 10 
 857.759948730469 
 20 
 1262.31994628906 
 30 
 0 
 11 
 866.599975585938 
 21 
 1262.080078125 
 31 
 0 
 0 
LINE
 10 
 866.599975585938 
 20 
 1262.080078125 
 30 
 0 
 11 
 878.559997558594 
 21 
 1263.28002929688 
 31 
 0 
 0 
LINE
 10 
 878.559997558594 
 20 
 1263.28002929688 
 30 
 0 
 11 
 892.679992675781 
 21 
 1265.92004394531 
 31 
 0 
 0 
LINE
 10 
 892.679992675781 
 20 
 1265.92004394531 
 30 
 0 
 11 
 908 
 21 
 1270 
 31 
 0 
 0 
LINE
 10 
 908 
 20 
 1270 
 30 
 0 
 11 
 942.351989746094 
 21 
 1278.28784179688 
 31 
 0 
 0 
LINE
 10 
 942.351989746094 
 20 
 1278.28784179688 
 30 
 0 
 11 
 980.016052246094 
 21 
 1284.70397949219 
 31 
 0 
 0 
LINE
 10 
 980.016052246094 
 20 
 1284.70397949219 
 30 
 0 
 11 
 1014.70404052734 
 21 
 1288.57604980469 
 31 
 0 
 0 
LINE
 10 
 1014.70404052734 
 20 
 1288.57604980469 
 30 
 0 
 11 
 1040.12805175781 
 21 
 1289.23205566406 
 31 
 0 
 0 
LINE
 10 
 1040.12805175781 
 20 
 1289.23205566406 
 30 
 0 
 11 
 1050 
 21 
 1286 
 31 
 0 
 0 
LINE
 10 
 1050 
 20 
 1286 
 30 
 0 
 11 
 1048.74389648438 
 21 
 1283.07202148438 
 31 
 0 
 0 
LINE
 10 
 1048.74389648438 
 20 
 1283.07202148438 
 30 
 0 
 11 
 1045.23205566406 
 21 
 1278.17614746094 
 31 
 0 
 0 
LINE
 10 
 1045.23205566406 
 20 
 1278.17614746094 
 30 
 0 
 11 
 1039.84802246094 
 21 
 1271.74401855469 
 31 
 0 
 0 
LINE
 10 
 1039.84802246094 
 20 
 1271.74401855469 
 30 
 0 
 11 
 1032.97607421875 
 21 
 1264.2080078125 
 31 
 0 
 0 
LINE
 10 
 1032.97607421875 
 20 
 1264.2080078125 
 30 
 0 
 11 
 1025 
 21 
 1256 
 31 
 0 
 0 
LINE
 10 
 1025 
 20 
 1256 
 30 
 0 
 11 
 1010.63995361328 
 21 
 1239.03198242188 
 31 
 0 
 0 
LINE
 10 
 1010.63995361328 
 20 
 1239.03198242188 
 30 
 0 
 11 
 1002.52001953125 
 21 
 1223.69592285156 
 31 
 0 
 0 
LINE
 10 
 1002.52001953125 
 20 
 1223.69592285156 
 30 
 0 
 11 
 1000.88000488281 
 21 
 1211.14404296875 
 31 
 0 
 0 
LINE
 10 
 1000.88000488281 
 20 
 1211.14404296875 
 30 
 0 
 11 
 1005.96002197266 
 21 
 1202.52807617188 
 31 
 0 
 0 
LINE
 10 
 1005.96002197266 
 20 
 1202.52807617188 
 30 
 0 
 11 
 1018 
 21 
 1199 
 31 
 0 
 0 
LINE
 10 
 1018 
 20 
 1199 
 30 
 0 
 11 
 1045.47998046875 
 21 
 1198.65588378906 
 31 
 0 
 0 
LINE
 10 
 1045.47998046875 
 20 
 1198.65588378906 
 30 
 0 
 11 
 1077.52001953125 
 21 
 1200.08801269531 
 31 
 0 
 0 
LINE
 10 
 1077.52001953125 
 20 
 1200.08801269531 
 30 
 0 
 11 
 1114.11999511719 
 21 
 1203.39208984375 
 31 
 0 
 0 
LINE
 10 
 1114.11999511719 
 20 
 1203.39208984375 
 30 
 0 
 11 
 1155.28002929688 
 21 
 1208.6640625 
 31 
 0 
 0 
LINE
 10 
 1155.28002929688 
 20 
 1208.6640625 
 30 
 0 
 11 
 1201 
 21 
 1216 
 31 
 0 
 0 
LINE
 10 
 1201 
 20 
 1216 
 30 
 0 
 11 
 1241.44799804688 
 21 
 1221.08813476563 
 31 
 0 
 0 
LINE
 10 
 1241.44799804688 
 20 
 1221.08813476563 
 30 
 0 
 11 
 1301.38403320313 
 21 
 1226.46398925781 
 31 
 0 
 0 
LINE
 10 
 1301.38403320313 
 20 
 1226.46398925781 
 30 
 0 
 11 
 1375.09606933594 
 21 
 1231.69592285156 
 31 
 0 
 0 
LINE
 10 
 1375.09606933594 
 20 
 1231.69592285156 
 30 
 0 
 11 
 1456.8720703125 
 21 
 1236.35205078125 
 31 
 0 
 0 
LINE
 10 
 1456.8720703125 
 20 
 1236.35205078125 
 30 
 0 
 11 
 1541 
 21 
 1240 
 31 
 0 
 0 
LINE
 10 
 1541 
 20 
 1240 
 30 
 0 
 11 
 1623.45593261719 
 21 
 1243.19201660156 
 31 
 0 
 0 
LINE
 10 
 1623.45593261719 
 20 
 1243.19201660156 
 30 
 0 
 11 
 1699.52795410156 
 21 
 1246.57592773438 
 31 
 0 
 0 
LINE
 10 
 1699.52795410156 
 20 
 1246.57592773438 
 30 
 0 
 11 
 1764.27209472656 
 21 
 1249.86401367188 
 31 
 0 
 0 
LINE
 10 
 1764.27209472656 
 20 
 1249.86401367188 
 30 
 0 
 11 
 1812.74401855469 
 21 
 1252.76806640625 
 31 
 0 
 0 
LINE
 10 
 1812.74401855469 
 20 
 1252.76806640625 
 30 
 0 
 11 
 1840 
 21 
 1255 
 31 
 0 
 0 
LINE
 10 
 1840 
 20 
 1255 
 30 
 0 
 11 
 1869.40795898438 
 21 
 1257.13598632813 
 31 
 0 
 0 
LINE
 10 
 1869.40795898438 
 20 
 1257.13598632813 
 30 
 0 
 11 
 1923.82409667969 
 21 
 1259.84802246094 
 31 
 0 
 0 
LINE
 10 
 1923.82409667969 
 20 
 1259.84802246094 
 30 
 0 
 11 
 1997.53601074219 
 21 
 1262.99206542969 
 31 
 0 
 0 
LINE
 10 
 1997.53601074219 
 20 
 1262.99206542969 
 30 
 0 
 11 
 2084.83203125 
 21 
 1266.42395019531 
 31 
 0 
 0 
LINE
 10 
 2084.83203125 
 20 
 1266.42395019531 
 30 
 0 
 11 
 2180 
 21 
 1270 
 31 
 0 
 0 
LINE
 10 
 2180 
 20 
 1270 
 30 
 0 
 11 
 2276.40795898438 
 21 
 1273.2958984375 
 31 
 0 
 0 
LINE
 10 
 2276.40795898438 
 20 
 1273.2958984375 
 30 
 0 
 11 
 2367.10400390625 
 21 
 1276.92797851563 
 31 
 0 
 0 
LINE
 10 
 2367.10400390625 
 20 
 1276.92797851563 
 30 
 0 
 11 
 2445.89599609375 
 21 
 1280.51208496094 
 31 
 0 
 0 
LINE
 10 
 2445.89599609375 
 20 
 1280.51208496094 
 30 
 0 
 11 
 2506.59204101563 
 21 
 1283.6640625 
 31 
 0 
 0 
LINE
 10 
 2506.59204101563 
 20 
 1283.6640625 
 30 
 0 
 11 
 2543 
 21 
 1286 
 31 
 0 
 0 
LINE
 10 
 2543 
 20 
 1286 
 30 
 0 
 11 
 2611 
 21 
 1292 
 31 
 0 
 0 
LINE
 10 
 2611 
 20 
 1292 
 30 
 0 
 11 
 2608 
 21 
 1250 
 31 
 0 
 0 
LINE
 10 
 2608 
 20 
 1250 
 30 
 0 
 11 
 2606.14379882813 
 21 
 1232.61584472656 
 31 
 0 
 0 
LINE
 10 
 2606.14379882813 
 20 
 1232.61584472656 
 30 
 0 
 11 
 2602.75219726563 
 21 
 1218.44799804688 
 31 
 0 
 0 
LINE
 10 
 2602.75219726563 
 20 
 1218.44799804688 
 30 
 0 
 11 
 2597.48803710938 
 21 
 1206.87194824219 
 31 
 0 
 0 
LINE
 10 
 2597.48803710938 
 20 
 1206.87194824219 
 30 
 0 
 11 
 2590.01611328125 
 21 
 1197.26403808594 
 31 
 0 
 0 
LINE
 10 
 2590.01611328125 
 20 
 1197.26403808594 
 30 
 0 
 11 
 2580 
 21 
 1189 
 31 
 0 
 0 
LINE
 10 
 2580 
 20 
 1189 
 30 
 0 
 11 
 2565.4638671875 
 21 
 1180.77587890625 
 31 
 0 
 0 
LINE
 10 
 2565.4638671875 
 20 
 1180.77587890625 
 30 
 0 
 11 
 2543.15209960938 
 21 
 1176.248046875 
 31 
 0 
 0 
LINE
 10 
 2543.15209960938 
 20 
 1176.248046875 
 30 
 0 
 11 
 2503.60791015625 
 21 
 1175.03198242188 
 31 
 0 
 0 
LINE
 10 
 2503.60791015625 
 20 
 1175.03198242188 
 30 
 0 
 11 
 2437.3759765625 
 21 
 1176.74401855469 
 31 
 0 
 0 
LINE
 10 
 2437.3759765625 
 20 
 1176.74401855469 
 30 
 0 
 11 
 2335 
 21 
 1181 
 31 
 0 
 0 
LINE
 10 
 2335 
 20 
 1181 
 30 
 0 
 11 
 2139.23193359375 
 21 
 1186.17590332031 
 31 
 0 
 0 
LINE
 10 
 2139.23193359375 
 20 
 1186.17590332031 
 30 
 0 
 11 
 1960.69604492188 
 21 
 1182.56811523438 
 31 
 0 
 0 
LINE
 10 
 1960.69604492188 
 20 
 1182.56811523438 
 30 
 0 
 11 
 1800.5439453125 
 21 
 1170.27197265625 
 31 
 0 
 0 
LINE
 10 
 1800.5439453125 
 20 
 1170.27197265625 
 30 
 0 
 11 
 1659.92797851563 
 21 
 1149.38403320313 
 31 
 0 
 0 
LINE
 10 
 1659.92797851563 
 20 
 1149.38403320313 
 30 
 0 
 11 
 1540 
 21 
 1120 
 31 
 0 
 0 
LINE
 10 
 1540 
 20 
 1120 
 30 
 0 
 11 
 1516.90393066406 
 21 
 1113.69604492188 
 31 
 0 
 0 
LINE
 10 
 1516.90393066406 
 20 
 1113.69604492188 
 30 
 0 
 11 
 1492.03198242188 
 21 
 1108.2080078125 
 31 
 0 
 0 
LINE
 10 
 1492.03198242188 
 20 
 1108.2080078125 
 30 
 0 
 11 
 1467.2080078125 
 21 
 1103.87194824219 
 31 
 0 
 0 
LINE
 10 
 1467.2080078125 
 20 
 1103.87194824219 
 30 
 0 
 11 
 1444.25598144531 
 21 
 1101.02404785156 
 31 
 0 
 0 
LINE
 10 
 1444.25598144531 
 20 
 1101.02404785156 
 30 
 0 
 11 
 1425 
 21 
 1100 
 31 
 0 
 0 
LINE
 10 
 1425 
 20 
 1100 
 30 
 0 
 11 
 1386.63195800781 
 21 
 1097.76000976563 
 31 
 0 
 0 
LINE
 10 
 1386.63195800781 
 20 
 1097.76000976563 
 30 
 0 
 11 
 1346.5361328125 
 21 
 1091.20007324219 
 31 
 0 
 0 
LINE
 10 
 1346.5361328125 
 20 
 1091.20007324219 
 30 
 0 
 11 
 1305.62390136719 
 21 
 1080.56005859375 
 31 
 0 
 0 
LINE
 10 
 1305.62390136719 
 20 
 1080.56005859375 
 30 
 0 
 11 
 1264.80798339844 
 21 
 1066.07995605469 
 31 
 0 
 0 
LINE
 10 
 1264.80798339844 
 20 
 1066.07995605469 
 30 
 0 
 11 
 1225 
 21 
 1048 
 31 
 0 
 0 
LINE
 10 
 1225 
 20 
 1048 
 30 
 0 
 11 
 1185.40795898438 
 21 
 1024.38391113281 
 31 
 0 
 0 
LINE
 10 
 1185.40795898438 
 20 
 1024.38391113281 
 30 
 0 
 11 
 1146.10400390625 
 21 
 995.39208984375 
 31 
 0 
 0 
LINE
 10 
 1146.10400390625 
 20 
 995.39208984375 
 30 
 0 
 11 
 1112.89599609375 
 21 
 966.2080078125 
 31 
 0 
 0 
LINE
 10 
 1112.89599609375 
 20 
 966.2080078125 
 30 
 0 
 11 
 1091.59204101563 
 21 
 942.016052246094 
 31 
 0 
 0 
LINE
 10 
 1091.59204101563 
 20 
 942.016052246094 
 30 
 0 
 11 
 1088 
 21 
 928 
 31 
 0 
 0 
LINE
 10 
 1088 
 20 
 928 
 30 
 0 
 11 
 1093.62390136719 
 21 
 925.943908691406 
 31 
 0 
 0 
LINE
 10 
 1093.62390136719 
 20 
 925.943908691406 
 30 
 0 
 11 
 1103.95202636719 
 21 
 925.712036132813 
 31 
 0 
 0 
LINE
 10 
 1103.95202636719 
 20 
 925.712036132813 
 30 
 0 
 11 
 1118.16796875 
 21 
 927.2080078125 
 31 
 0 
 0 
LINE
 10 
 1118.16796875 
 20 
 927.2080078125 
 30 
 0 
 11 
 1135.4560546875 
 21 
 930.335998535156 
 31 
 0 
 0 
LINE
 10 
 1135.4560546875 
 20 
 930.335998535156 
 30 
 0 
 11 
 1155 
 21 
 935 
 31 
 0 
 0 
LINE
 10 
 1155 
 20 
 935 
 30 
 0 
 11 
 1194.76794433594 
 21 
 943.487976074219 
 31 
 0 
 0 
LINE
 10 
 1194.76794433594 
 20 
 943.487976074219 
 30 
 0 
 11 
 1231.46411132813 
 21 
 948.424011230469 
 31 
 0 
 0 
LINE
 10 
 1231.46411132813 
 20 
 948.424011230469 
 30 
 0 
 11 
 1261.77600097656 
 21 
 949.616027832031 
 31 
 0 
 0 
LINE
 10 
 1261.77600097656 
 20 
 949.616027832031 
 30 
 0 
 11 
 1282.39196777344 
 21 
 946.872009277344 
 31 
 0 
 0 
LINE
 10 
 1282.39196777344 
 20 
 946.872009277344 
 30 
 0 
 11 
 1290 
 21 
 940 
 31 
 0 
 0 
LINE
 10 
 1290 
 20 
 940 
 30 
 0 
 11 
 1289.43994140625 
 21 
 937.039978027344 
 31 
 0 
 0 
LINE
 10 
 1289.43994140625 
 20 
 937.039978027344 
 30 
 0 
 11 
 1287.92004394531 
 21 
 934.320068359375 
 31 
 0 
 0 
LINE
 10 
 1287.92004394531 
 20 
 934.320068359375 
 30 
 0 
 11 
 1285.67993164063 
 21 
 932.080017089844 
 31 
 0 
 0 
LINE
 10 
 1285.67993164063 
 20 
 932.080017089844 
 30 
 0 
 11 
 1282.9599609375 
 21 
 930.559997558594 
 31 
 0 
 0 
LINE
 10 
 1282.9599609375 
 20 
 930.559997558594 
 30 
 0 
 11 
 1280 
 21 
 930 
 31 
 0 
 0 
LINE
 10 
 1280 
 20 
 930 
 30 
 0 
 11 
 1265.69604492188 
 21 
 924.687927246094 
 31 
 0 
 0 
LINE
 10 
 1265.69604492188 
 20 
 924.687927246094 
 30 
 0 
 11 
 1249.80798339844 
 21 
 911.024047851563 
 31 
 0 
 0 
LINE
 10 
 1249.80798339844 
 20 
 911.024047851563 
 30 
 0 
 11 
 1235.07202148438 
 21 
 892.415954589844 
 31 
 0 
 0 
LINE
 10 
 1235.07202148438 
 20 
 892.415954589844 
 30 
 0 
 11 
 1224.22399902344 
 21 
 872.272033691406 
 31 
 0 
 0 
LINE
 10 
 1224.22399902344 
 20 
 872.272033691406 
 30 
 0 
 11 
 1220 
 21 
 854 
 31 
 0 
 0 
LINE
 10 
 1220 
 20 
 854 
 30 
 0 
 11 
 1220.52807617188 
 21 
 843.383911132813 
 31 
 0 
 0 
LINE
 10 
 1220.52807617188 
 20 
 843.383911132813 
 30 
 0 
 11 
 1222.30407714844 
 21 
 836.512023925781 
 31 
 0 
 0 
LINE
 10 
 1222.30407714844 
 20 
 836.512023925781 
 30 
 0 
 11 
 1225.61608886719 
 21 
 833.048034667969 
 31 
 0 
 0 
LINE
 10 
 1225.61608886719 
 20 
 833.048034667969 
 30 
 0 
 11 
 1230.75207519531 
 21 
 832.656005859375 
 31 
 0 
 0 
LINE
 10 
 1230.75207519531 
 20 
 832.656005859375 
 30 
 0 
 11 
 1238 
 21 
 835 
 31 
 0 
 0 
LINE
 10 
 1238 
 20 
 835 
 30 
 0 
 11 
 1310.36010742188 
 21 
 854.207946777344 
 31 
 0 
 0 
LINE
 10 
 1310.36010742188 
 20 
 854.207946777344 
 30 
 0 
 11 
 1423.76000976563 
 21 
 873.703979492188 
 31 
 0 
 0 
LINE
 10 
 1423.76000976563 
 20 
 873.703979492188 
 30 
 0 
 11 
 1566.68005371094 
 21 
 892.096008300781 
 31 
 0 
 0 
LINE
 10 
 1566.68005371094 
 20 
 892.096008300781 
 30 
 0 
 11 
 1727.59997558594 
 21 
 907.992004394531 
 31 
 0 
 0 
LINE
 10 
 1727.59997558594 
 20 
 907.992004394531 
 30 
 0 
 11 
 1895 
 21 
 920 
 31 
 0 
 0 
LINE
 10 
 1895 
 20 
 920 
 30 
 0 
 11 
 2075.03979492188 
 21 
 926.23193359375 
 31 
 0 
 0 
LINE
 10 
 2075.03979492188 
 20 
 926.23193359375 
 30 
 0 
 11 
 2291.080078125 
 21 
 929.296020507813 
 31 
 0 
 0 
LINE
 10 
 2291.080078125 
 20 
 929.296020507813 
 30 
 0 
 11 
 2505.19995117188 
 21 
 929.14404296875 
 31 
 0 
 0 
LINE
 10 
 2505.19995117188 
 20 
 929.14404296875 
 30 
 0 
 11 
 2679.47998046875 
 21 
 925.72802734375 
 31 
 0 
 0 
LINE
 10 
 2679.47998046875 
 20 
 925.72802734375 
 30 
 0 
 11 
 2776 
 21 
 919 
 31 
 0 
 0 
LINE
 10 
 2776 
 20 
 919 
 30 
 0 
 11 
 2830.73608398438 
 21 
 911.799926757813 
 31 
 0 
 0 
LINE
 10 
 2830.73608398438 
 20 
 911.799926757813 
 30 
 0 
 11 
 2896.3681640625 
 21 
 908.199951171875 
 31 
 0 
 0 
LINE
 10 
 2896.3681640625 
 20 
 908.199951171875 
 30 
 0 
 11 
 2963.63208007813 
 21 
 908.200012207031 
 31 
 0 
 0 
LINE
 10 
 2963.63208007813 
 20 
 908.200012207031 
 30 
 0 
 11 
 3023.26416015625 
 21 
 911.800048828125 
 31 
 0 
 0 
LINE
 10 
 3023.26416015625 
 20 
 911.800048828125 
 30 
 0 
 11 
 3066 
 21 
 919 
 31 
 0 
 0 
LINE
 10 
 3066 
 20 
 919 
 30 
 0 
 11 
 3095.36010742188 
 21 
 929.351928710938 
 31 
 0 
 0 
LINE
 10 
 3095.36010742188 
 20 
 929.351928710938 
 30 
 0 
 11 
 3121.1201171875 
 21 
 942.776062011719 
 31 
 0 
 0 
LINE
 10 
 3121.1201171875 
 20 
 942.776062011719 
 30 
 0 
 11 
 3141.60009765625 
 21 
 958.024047851563 
 31 
 0 
 0 
LINE
 10 
 3141.60009765625 
 20 
 958.024047851563 
 30 
 0 
 11 
 3155.1201171875 
 21 
 973.848022460938 
 31 
 0 
 0 
LINE
 10 
 3155.1201171875 
 20 
 973.848022460938 
 30 
 0 
 11 
 3160 
 21 
 989 
 31 
 0 
 0 
LINE
 10 
 3160 
 20 
 989 
 30 
 0 
 11 
 3157.15185546875 
 21 
 1000.51995849609 
 31 
 0 
 0 
LINE
 10 
 3157.15185546875 
 20 
 1000.51995849609 
 30 
 0 
 11 
 3149.21606445313 
 21 
 1021.64007568359 
 31 
 0 
 0 
LINE
 10 
 3149.21606445313 
 20 
 1021.64007568359 
 30 
 0 
 11 
 3137.10400390625 
 21 
 1050.19995117188 
 31 
 0 
 0 
LINE
 10 
 3137.10400390625 
 20 
 1050.19995117188 
 30 
 0 
 11 
 3121.72802734375 
 21 
 1084.0400390625 
 31 
 0 
 0 
LINE
 10 
 3121.72802734375 
 20 
 1084.0400390625 
 30 
 0 
 11 
 3104 
 21 
 1121 
 31 
 0 
 0 
LINE
 10 
 3104 
 20 
 1121 
 30 
 0 
 11 
 3045.89599609375 
 21 
 1251.27990722656 
 31 
 0 
 0 
LINE
 10 
 3045.89599609375 
 20 
 1251.27990722656 
 30 
 0 
 11 
 3001.328125 
 21 
 1375.56005859375 
 31 
 0 
 0 
LINE
 10 
 3001.328125 
 20 
 1375.56005859375 
 30 
 0 
 11 
 2972.31176757813 
 21 
 1486.40002441406 
 31 
 0 
 0 
LINE
 10 
 2972.31176757813 
 20 
 1486.40002441406 
 30 
 0 
 11 
 2960.86401367188 
 21 
 1576.35998535156 
 31 
 0 
 0 
LINE
 10 
 2960.86401367188 
 20 
 1576.35998535156 
 30 
 0 
 11 
 2969 
 21 
 1638 
 31 
 0 
 0 
LINE
 10 
 2969 
 20 
 1638 
 30 
 0 
 11 
 2975.48803710938 
 21 
 1651.52807617188 
 31 
 0 
 0 
LINE
 10 
 2975.48803710938 
 20 
 1651.52807617188 
 30 
 0 
 11 
 2983.7041015625 
 21 
 1660.54406738281 
 31 
 0 
 0 
LINE
 10 
 2983.7041015625 
 20 
 1660.54406738281 
 30 
 0 
 11 
 2996.576171875 
 21 
 1666.29602050781 
 31 
 0 
 0 
LINE
 10 
 2996.576171875 
 20 
 1666.29602050781 
 30 
 0 
 11 
 3017.03198242188 
 21 
 1670.03198242188 
 31 
 0 
 0 
LINE
 10 
 3017.03198242188 
 20 
 1670.03198242188 
 30 
 0 
 11 
 3048 
 21 
 1673 
 31 
 0 
 0 
LINE
 10 
 3048 
 20 
 1673 
 30 
 0 
 11 
 3072.01586914063 
 21 
 1676.06396484375 
 31 
 0 
 0 
LINE
 10 
 3072.01586914063 
 20 
 1676.06396484375 
 30 
 0 
 11 
 3098.2880859375 
 21 
 1680.23205566406 
 31 
 0 
 0 
LINE
 10 
 3098.2880859375 
 20 
 1680.23205566406 
 30 
 0 
 11 
 3124.751953125 
 21 
 1685.16809082031 
 31 
 0 
 0 
LINE
 10 
 3124.751953125 
 20 
 1685.16809082031 
 30 
 0 
 11 
 3149.34399414063 
 21 
 1690.53601074219 
 31 
 0 
 0 
LINE
 10 
 3149.34399414063 
 20 
 1690.53601074219 
 30 
 0 
 11 
 3170 
 21 
 1696 
 31 
 0 
 0 
LINE
 10 
 3170 
 20 
 1696 
 30 
 0 
 11 
 3195.40795898438 
 21 
 1703.17590332031 
 31 
 0 
 0 
LINE
 10 
 3195.40795898438 
 20 
 1703.17590332031 
 30 
 0 
 11 
 3212.22387695313 
 21 
 1706.60815429688 
 31 
 0 
 0 
LINE
 10 
 3212.22387695313 
 20 
 1706.60815429688 
 30 
 0 
 11 
 3223.13598632813 
 21 
 1706.15197753906 
 31 
 0 
 0 
LINE
 10 
 3223.13598632813 
 20 
 1706.15197753906 
 30 
 0 
 11 
 3230.83203125 
 21 
 1701.6640625 
 31 
 0 
 0 
LINE
 10 
 3230.83203125 
 20 
 1701.6640625 
 30 
 0 
 11 
 3238 
 21 
 1693 
 31 
 0 
 0 
LINE
 10 
 3238 
 20 
 1693 
 30 
 0 
 11 
 3277.65576171875 
 21 
 1631.71997070313 
 31 
 0 
 0 
LINE
 10 
 3277.65576171875 
 20 
 1631.71997070313 
 30 
 0 
 11 
 3347.408203125 
 21 
 1518.84008789063 
 31 
 0 
 0 
LINE
 10 
 3347.408203125 
 20 
 1518.84008789063 
 30 
 0 
 11 
 3427.43188476563 
 21 
 1387 
 31 
 0 
 0 
LINE
 10 
 3427.43188476563 
 20 
 1387 
 30 
 0 
 11 
 3497.90405273438 
 21 
 1268.84008789063 
 31 
 0 
 0 
LINE
 10 
 3497.90405273438 
 20 
 1268.84008789063 
 30 
 0 
 11 
 3539 
 21 
 1197 
 31 
 0 
 0 
LINE
 10 
 3539 
 20 
 1197 
 30 
 0 
 11 
 3575.28784179688 
 21 
 1138.01599121094 
 31 
 0 
 0 
LINE
 10 
 3575.28784179688 
 20 
 1138.01599121094 
 30 
 0 
 11 
 3619.78393554688 
 21 
 1089.44812011719 
 31 
 0 
 0 
LINE
 10 
 3619.78393554688 
 20 
 1089.44812011719 
 30 
 0 
 11 
 3674.93603515625 
 21 
 1049.47204589844 
 31 
 0 
 0 
LINE
 10 
 3674.93603515625 
 20 
 1049.47204589844 
 30 
 0 
 11 
 3743.19213867188 
 21 
 1016.26403808594 
 31 
 0 
 0 
LINE
 10 
 3743.19213867188 
 20 
 1016.26403808594 
 30 
 0 
 11 
 3827 
 21 
 988 
 31 
 0 
 0 
LINE
 10 
 3827 
 20 
 988 
 30 
 0 
 11 
 3868.36767578125 
 21 
 977.159973144531 
 31 
 0 
 0 
LINE
 10 
 3868.36767578125 
 20 
 977.159973144531 
 30 
 0 
 11 
 3914.82397460938 
 21 
 970.400024414063 
 31 
 0 
 0 
LINE
 10 
 3914.82397460938 
 20 
 970.400024414063 
 30 
 0 
 11 
 3984.89599609375 
 21 
 966.760009765625 
 31 
 0 
 0 
LINE
 10 
 3984.89599609375 
 20 
 966.760009765625 
 30 
 0 
 11 
 4097.11181640625 
 21 
 965.280029296875 
 31 
 0 
 0 
LINE
 10 
 4097.11181640625 
 20 
 965.280029296875 
 30 
 0 
 11 
 4270 
 21 
 965 
 31 
 0 
 0 
LINE
 10 
 4270 
 20 
 965 
 30 
 0 
 11 
 4474.55126953125 
 21 
 966.191955566406 
 31 
 0 
 0 
LINE
 10 
 4474.55126953125 
 20 
 966.191955566406 
 30 
 0 
 11 
 4616.17626953125 
 21 
 971.176025390625 
 31 
 0 
 0 
LINE
 10 
 4616.17626953125 
 20 
 971.176025390625 
 30 
 0 
 11 
 4714.02392578125 
 21 
 982.064025878906 
 31 
 0 
 0 
LINE
 10 
 4714.02392578125 
 20 
 982.064025878906 
 30 
 0 
 11 
 4787.248046875 
 21 
 1000.96801757813 
 31 
 0 
 0 
LINE
 10 
 4787.248046875 
 20 
 1000.96801757813 
 30 
 0 
 11 
 4855 
 21 
 1030 
 31 
 0 
 0 
LINE
 10 
 4855 
 20 
 1030 
 30 
 0 
 11 
 4905.8076171875 
 21 
 1058.01599121094 
 31 
 0 
 0 
LINE
 10 
 4905.8076171875 
 20 
 1058.01599121094 
 30 
 0 
 11 
 4946.583984375 
 21 
 1089.248046875 
 31 
 0 
 0 
LINE
 10 
 4946.583984375 
 20 
 1089.248046875 
 30 
 0 
 11 
 4979.05615234375 
 21 
 1125.47204589844 
 31 
 0 
 0 
LINE
 10 
 4979.05615234375 
 20 
 1125.47204589844 
 30 
 0 
 11 
 5004.9521484375 
 21 
 1168.46398925781 
 31 
 0 
 0 
LINE
 10 
 5004.9521484375 
 20 
 1168.46398925781 
 30 
 0 
 11 
 5026 
 21 
 1220 
 31 
 0 
 0 
LINE
 10 
 5026 
 20 
 1220 
 30 
 0 
 11 
 5038.95947265625 
 21 
 1299.72802734375 
 31 
 0 
 0 
LINE
 10 
 5038.95947265625 
 20 
 1299.72802734375 
 30 
 0 
 11 
 5045.43994140625 
 21 
 1427.50402832031 
 31 
 0 
 0 
LINE
 10 
 5045.43994140625 
 20 
 1427.50402832031 
 30 
 0 
 11 
 5045.43994140625 
 21 
 1578.416015625 
 31 
 0 
 0 
LINE
 10 
 5045.43994140625 
 20 
 1578.416015625 
 30 
 0 
 11 
 5038.9599609375 
 21 
 1727.55200195313 
 31 
 0 
 0 
LINE
 10 
 5038.9599609375 
 20 
 1727.55200195313 
 30 
 0 
 11 
 5026 
 21 
 1850 
 31 
 0 
 0 
LINE
 10 
 5026 
 20 
 1850 
 30 
 0 
 11 
 4989.16015625 
 21 
 2038.53601074219 
 31 
 0 
 0 
LINE
 10 
 4989.16015625 
 20 
 2038.53601074219 
 30 
 0 
 11 
 4938.88037109375 
 21 
 2227.88793945313 
 31 
 0 
 0 
LINE
 10 
 4938.88037109375 
 20 
 2227.88793945313 
 30 
 0 
 11 
 4877.31982421875 
 21 
 2411.67211914063 
 31 
 0 
 0 
LINE
 10 
 4877.31982421875 
 20 
 2411.67211914063 
 30 
 0 
 11 
 4806.64013671875 
 21 
 2583.50415039063 
 31 
 0 
 0 
LINE
 10 
 4806.64013671875 
 20 
 2583.50415039063 
 30 
 0 
 11 
 4729 
 21 
 2737 
 31 
 0 
 0 
LINE
 10 
 4729 
 20 
 2737 
 30 
 0 
 11 
 4656.23193359375 
 21 
 2853.11181640625 
 31 
 0 
 0 
LINE
 10 
 4656.23193359375 
 20 
 2853.11181640625 
 30 
 0 
 11 
 4558.6962890625 
 21 
 2994.13598632813 
 31 
 0 
 0 
LINE
 10 
 4558.6962890625 
 20 
 2994.13598632813 
 30 
 0 
 11 
 4451.9443359375 
 21 
 3138.90405273438 
 31 
 0 
 0 
LINE
 10 
 4451.9443359375 
 20 
 3138.90405273438 
 30 
 0 
 11 
 4351.52783203125 
 21 
 3266.248046875 
 31 
 0 
 0 
LINE
 10 
 4351.52783203125 
 20 
 3266.248046875 
 30 
 0 
 11 
 4273 
 21 
 3355 
 31 
 0 
 0 
LINE
 10 
 4273 
 20 
 3355 
 30 
 0 
 11 
 4248.3994140625 
 21 
 3378.84790039063 
 31 
 0 
 0 
LINE
 10 
 4248.3994140625 
 20 
 3378.84790039063 
 30 
 0 
 11 
 4229.56005859375 
 21 
 3394.82421875 
 31 
 0 
 0 
LINE
 10 
 4229.56005859375 
 20 
 3394.82421875 
 30 
 0 
 11 
 4214.3203125 
 21 
 3404.17626953125 
 31 
 0 
 0 
LINE
 10 
 4214.3203125 
 20 
 3404.17626953125 
 30 
 0 
 11 
 4200.52001953125 
 21 
 3408.15209960938 
 31 
 0 
 0 
LINE
 10 
 4200.52001953125 
 20 
 3408.15209960938 
 30 
 0 
 11 
 4186 
 21 
 3408 
 31 
 0 
 0 
LINE
 10 
 4186 
 20 
 3408 
 30 
 0 
 11 
 4174.2080078125 
 21 
 3406.18383789063 
 31 
 0 
 0 
LINE
 10 
 4174.2080078125 
 20 
 3406.18383789063 
 30 
 0 
 11 
 4165.10400390625 
 21 
 3403.07202148438 
 31 
 0 
 0 
LINE
 10 
 4165.10400390625 
 20 
 3403.07202148438 
 30 
 0 
 11 
 4158.49609375 
 21 
 3398.56811523438 
 31 
 0 
 0 
LINE
 10 
 4158.49609375 
 20 
 3398.56811523438 
 30 
 0 
 11 
 4154.19189453125 
 21 
 3392.57592773438 
 31 
 0 
 0 
LINE
 10 
 4154.19189453125 
 20 
 3392.57592773438 
 30 
 0 
 11 
 4152 
 21 
 3385 
 31 
 0 
 0 
LINE
 10 
 4152 
 20 
 3385 
 30 
 0 
 11 
 4156.416015625 
 21 
 3368.68798828125 
 31 
 0 
 0 
LINE
 10 
 4156.416015625 
 20 
 3368.68798828125 
 30 
 0 
 11 
 4169.80810546875 
 21 
 3335.38427734375 
 31 
 0 
 0 
LINE
 10 
 4169.80810546875 
 20 
 3335.38427734375 
 30 
 0 
 11 
 4190.591796875 
 21 
 3288.73583984375 
 31 
 0 
 0 
LINE
 10 
 4190.591796875 
 20 
 3288.73583984375 
 30 
 0 
 11 
 4217.18408203125 
 21 
 3232.39208984375 
 31 
 0 
 0 
LINE
 10 
 4217.18408203125 
 20 
 3232.39208984375 
 30 
 0 
 11 
 4248 
 21 
 3170 
 31 
 0 
 0 
LINE
 10 
 4248 
 20 
 3170 
 30 
 0 
 11 
 4353.89599609375 
 21 
 2946.80786132813 
 31 
 0 
 0 
LINE
 10 
 4353.89599609375 
 20 
 2946.80786132813 
 30 
 0 
 11 
 4435.16796875 
 21 
 2741.6640625 
 31 
 0 
 0 
LINE
 10 
 4435.16796875 
 20 
 2741.6640625 
 30 
 0 
 11 
 4497.19189453125 
 21 
 2536.61596679688 
 31 
 0 
 0 
LINE
 10 
 4497.19189453125 
 20 
 2536.61596679688 
 30 
 0 
 11 
 4545.34423828125 
 21 
 2313.71215820313 
 31 
 0 
 0 
LINE
 10 
 4545.34423828125 
 20 
 2313.71215820313 
 30 
 0 
 11 
 4585 
 21 
 2055 
 31 
 0 
 0 
LINE
 10 
 4585 
 20 
 2055 
 30 
 0 
 11 
 4593.47998046875 
 21 
 1971.52795410156 
 31 
 0 
 0 
LINE
 10 
 4593.47998046875 
 20 
 1971.52795410156 
 30 
 0 
 11 
 4598.35986328125 
 21 
 1888.10388183594 
 31 
 0 
 0 
LINE
 10 
 4598.35986328125 
 20 
 1888.10388183594 
 30 
 0 
 11 
 4599.39990234375 
 21 
 1812.21606445313 
 31 
 0 
 0 
LINE
 10 
 4599.39990234375 
 20 
 1812.21606445313 
 30 
 0 
 11 
 4596.35986328125 
 21 
 1751.35205078125 
 31 
 0 
 0 
LINE
 10 
 4596.35986328125 
 20 
 1751.35205078125 
 30 
 0 
 11 
 4589 
 21 
 1713 
 31 
 0 
 0 
LINE
 10 
 4589 
 20 
 1713 
 30 
 0 
 11 
 4566.751953125 
 21 
 1672.5439453125 
 31 
 0 
 0 
LINE
 10 
 4566.751953125 
 20 
 1672.5439453125 
 30 
 0 
 11 
 4533.416015625 
 21 
 1642.31201171875 
 31 
 0 
 0 
LINE
 10 
 4533.416015625 
 20 
 1642.31201171875 
 30 
 0 
 11 
 4488.7041015625 
 21 
 1622.2080078125 
 31 
 0 
 0 
LINE
 10 
 4488.7041015625 
 20 
 1622.2080078125 
 30 
 0 
 11 
 4432.328125 
 21 
 1612.13598632813 
 31 
 0 
 0 
LINE
 10 
 4432.328125 
 20 
 1612.13598632813 
 30 
 0 
 11 
 4364 
 21 
 1612 
 31 
 0 
 0 
LINE
 10 
 4364 
 20 
 1612 
 30 
 0 
 11 
 4331.3837890625 
 21 
 1614.76794433594 
 31 
 0 
 0 
LINE
 10 
 4331.3837890625 
 20 
 1614.76794433594 
 30 
 0 
 11 
 4306.11181640625 
 21 
 1618.78393554688 
 31 
 0 
 0 
LINE
 10 
 4306.11181640625 
 20 
 1618.78393554688 
 30 
 0 
 11 
 4285.4482421875 
 21 
 1624.81604003906 
 31 
 0 
 0 
LINE
 10 
 4285.4482421875 
 20 
 1624.81604003906 
 30 
 0 
 11 
 4266.65576171875 
 21 
 1633.63208007813 
 31 
 0 
 0 
LINE
 10 
 4266.65576171875 
 20 
 1633.63208007813 
 30 
 0 
 11 
 4247 
 21 
 1646 
 31 
 0 
 0 
LINE
 10 
 4247 
 20 
 1646 
 30 
 0 
 11 
 4203.5439453125 
 21 
 1689.14404296875 
 31 
 0 
 0 
LINE
 10 
 4203.5439453125 
 20 
 1689.14404296875 
 30 
 0 
 11 
 4167.43212890625 
 21 
 1748.75207519531 
 31 
 0 
 0 
LINE
 10 
 4167.43212890625 
 20 
 1748.75207519531 
 30 
 0 
 11 
 4141.4482421875 
 21 
 1817.28796386719 
 31 
 0 
 0 
LINE
 10 
 4141.4482421875 
 20 
 1817.28796386719 
 30 
 0 
 11 
 4128.3759765625 
 21 
 1887.21606445313 
 31 
 0 
 0 
LINE
 10 
 4128.3759765625 
 20 
 1887.21606445313 
 30 
 0 
 11 
 4131 
 21 
 1951 
 31 
 0 
 0 
LINE
 10 
 4131 
 20 
 1951 
 30 
 0 
 11 
 4137.3916015625 
 21 
 2016.47985839844 
 31 
 0 
 0 
LINE
 10 
 4137.3916015625 
 20 
 2016.47985839844 
 30 
 0 
 11 
 4139.89599609375 
 21 
 2114.36010742188 
 31 
 0 
 0 
LINE
 10 
 4139.89599609375 
 20 
 2114.36010742188 
 30 
 0 
 11 
 4138.7041015625 
 21 
 2226.40014648438 
 31 
 0 
 0 
LINE
 10 
 4138.7041015625 
 20 
 2226.40014648438 
 30 
 0 
 11 
 4134.00830078125 
 21 
 2334.36010742188 
 31 
 0 
 0 
LINE
 10 
 4134.00830078125 
 20 
 2334.36010742188 
 30 
 0 
 11 
 4126 
 21 
 2420 
 31 
 0 
 0 
LINE
 10 
 4126 
 20 
 2420 
 30 
 0 
 11 
 4088.07983398438 
 21 
 2620.61596679688 
 31 
 0 
 0 
LINE
 10 
 4088.07983398438 
 20 
 2620.61596679688 
 30 
 0 
 11 
 4031.67993164063 
 21 
 2819.16821289063 
 31 
 0 
 0 
LINE
 10 
 4031.67993164063 
 20 
 2819.16821289063 
 30 
 0 
 11 
 3958.23999023438 
 21 
 3011.912109375 
 31 
 0 
 0 
LINE
 10 
 3958.23999023438 
 20 
 3011.912109375 
 30 
 0 
 11 
 3869.19995117188 
 21 
 3195.10400390625 
 31 
 0 
 0 
LINE
 10 
 3869.19995117188 
 20 
 3195.10400390625 
 30 
 0 
 11 
 3766 
 21 
 3365 
 31 
 0 
 0 
LINE
 10 
 3766 
 20 
 3365 
 30 
 0 
 11 
 3685.71166992188 
 21 
 3469.52807617188 
 31 
 0 
 0 
LINE
 10 
 3685.71166992188 
 20 
 3469.52807617188 
 30 
 0 
 11 
 3586.65600585938 
 21 
 3575.78393554688 
 31 
 0 
 0 
LINE
 10 
 3586.65600585938 
 20 
 3575.78393554688 
 30 
 0 
 11 
 3478.14404296875 
 21 
 3675.17602539063 
 31 
 0 
 0 
LINE
 10 
 3478.14404296875 
 20 
 3675.17602539063 
 30 
 0 
 11 
 3369.48803710938 
 21 
 3759.11206054688 
 31 
 0 
 0 
LINE
 10 
 3369.48803710938 
 20 
 3759.11206054688 
 30 
 0 
 11 
 3270 
 21 
 3819 
 31 
 0 
 0 
LINE
 10 
 3270 
 20 
 3819 
 30 
 0 
 11 
 3225 
 21 
 3842 
 31 
 0 
 0 
LINE
 10 
 3225 
 20 
 3842 
 30 
 0 
 11 
 3265 
 21 
 3810 
 31 
 0 
 0 
ENDSEC
 0 
EOF
