  0
SECTION
  2
HEADER
  9
$ACADVER
  1
AC1012
  9
$DWGCODEPAGE
  3
ansi_1252
  9
$INSBASE
 10
0.0
 20
0.0
 30
0.0
  9
$EXTMIN
 10
0.0
 20
0.0
 30
0.0
  9
$EXTMAX
 10
18.5
 20
11.0
 30
0.0
  9
$LIMMIN
 10
0.0
 20
0.0
  9
$LIMMAX
 10
12.0
 20
9.0
  9
$ORTHOMODE
 70
     1
  9
$REGENMODE
 70
     1
  9
$FILLMODE
 70
     1
  9
$QTEXTMODE
 70
     0
  9
$MIRRTEXT
 70
     0
  9
$DRAGMODE
 70
     2
  9
$LTSCALE
 40
1.0
  9
$OSMODE
 70
   511
  9
$ATTMODE
 70
     1
  9
$TEXTSIZE
 40
0.4
  9
$TRACEWID
 40
0.05
  9
$TEXTSTYLE
  7
STANDARD
  9
$CLAYER
  8
LINES
  9
$CELTYPE
  6
BYLAYER
  9
$CECOLOR
 62
   256
  9
$CELTSCALE
 40
1.0
  9
$DELOBJ
 70
     1
  9
$DISPSILH
 70
     0
  9
$DIMSCALE
 40
1.0
  9
$DIMASZ
 40
0.18
  9
$DIMEXO
 40
0.0625
  9
$DIMDLI
 40
0.38
  9
$DIMRND
 40
0.0
  9
$DIMDLE
 40
0.0
  9
$DIMEXE
 40
0.18
  9
$DIMTP
 40
0.0
  9
$DIMTM
 40
0.0
  9
$DIMTXT
 40
0.18
  9
$DIMCEN
 40
0.09
  9
$DIMTSZ
 40
0.0
  9
$DIMTOL
 70
     0
  9
$DIMLIM
 70
     0
  9
$DIMTIH
 70
     1
  9
$DIMTOH
 70
     1
  9
$DIMSE1
 70
     0
  9
$DIMSE2
 70
     0
  9
$DIMTAD
 70
     0
  9
$DIMZIN
 70
     0
  9
$DIMBLK
  1

  9
$DIMASO
 70
     1
  9
$DIMSHO
 70
     1
  9
$DIMPOST
  1

  9
$DIMAPOST
  1

  9
$DIMALT
 70
     0
  9
$DIMALTD
 70
     2
  9
$DIMALTF
 40
25.4
  9
$DIMLFAC
 40
1.0
  9
$DIMTOFL
 70
     0
  9
$DIMTVP
 40
0.0
  9
$DIMTIX
 70
     0
  9
$DIMSOXD
 70
     0
  9
$DIMSAH
 70
     0
  9
$DIMBLK1
  1

  9
$DIMBLK2
  1

  9
$DIMSTYLE
  2
STANDARD
  9
$DIMCLRD
 70
     0
  9
$DIMCLRE
 70
     0
  9
$DIMCLRT
 70
     0
  9
$DIMTFAC
 40
1.0
  9
$DIMGAP
 40
0.09
  9
$DIMJUST
 70
     0
  9
$DIMSD1
 70
     0
  9
$DIMSD2
 70
     0
  9
$DIMTOLJ
 70
     1
  9
$DIMTZIN
 70
     0
  9
$DIMALTZ
 70
     0
  9
$DIMALTTZ
 70
     0
  9
$DIMFIT
 70
     3
  9
$DIMUPT
 70
     0
  9
$DIMUNIT
 70
     2
  9
$DIMDEC
 70
     4
  9
$DIMTDEC
 70
     4
  9
$DIMALTU
 70
     2
  9
$DIMALTTD
 70
     2
  9
$DIMTXSTY
  7
STANDARD
  9
$DIMAUNIT
 70
     0
  9
$LUNITS
 70
     2
  9
$LUPREC
 70
     4
  9
$SKETCHINC
 40
0.1
  9
$FILLETRAD
 40
0.0
  9
$AUNITS
 70
     0
  9
$AUPREC
 70
     0
  9
$MENU
  1
.
  9
$ELEVATION
 40
0.0
  9
$PELEVATION
 40
0.0
  9
$THICKNESS
 40
0.0
  9
$LIMCHECK
 70
     0
  9
$CHAMFERA
 40
0.0
  9
$CHAMFERB
 40
0.0
  9
$CHAMFERC
 40
0.0
  9
$CHAMFERD
 40
0.0
  9
$SKPOLY
 70
     0
  9
$TDCREATE
 40
2452642.813384271
  9
$TDUPDATE
 40
2456981.562298171
  9
$TDINDWG
 40
1.0123126736
  9
$TDUSRTIMER
 40
2456981.702969282
  9
$USRTIMER
 70
     1
  9
$ANGBASE
 50
0.0
  9
$ANGDIR
 70
     0
  9
$PDMODE
 70
     0
  9
$PDSIZE
 40
0.0
  9
$PLINEWID
 40
0.0
  9
$COORDS
 70
     1
  9
$SPLFRAME
 70
     0
  9
$SPLINETYPE
 70
     6
  9
$SPLINESEGS
 70
     8
  9
$ATTDIA
 70
     0
  9
$ATTREQ
 70
     1
  9
$HANDLING
 70
     1
  9
$HANDSEED
  5
3EC
  9
$SURFTAB1
 70
     6
  9
$SURFTAB2
 70
     6
  9
$SURFTYPE
 70
     6
  9
$SURFU
 70
     6
  9
$SURFV
 70
     6
  9
$UCSNAME
  2

  9
$UCSORG
 10
0.0
 20
0.0
 30
0.0
  9
$UCSXDIR
 10
1.0
 20
0.0
 30
0.0
  9
$UCSYDIR
 10
0.0
 20
1.0
 30
0.0
  9
$PUCSNAME
  2

  9
$PUCSORG
 10
0.0
 20
0.0
 30
0.0
  9
$PUCSXDIR
 10
1.0
 20
0.0
 30
0.0
  9
$PUCSYDIR
 10
0.0
 20
1.0
 30
0.0
  9
$USERI1
 70
     0
  9
$USERI2
 70
     0
  9
$USERI3
 70
     0
  9
$USERI4
 70
     0
  9
$USERI5
 70
     0
  9
$USERR1
 40
0.0
  9
$USERR2
 40
0.0
  9
$USERR3
 40
0.0
  9
$USERR4
 40
0.0
  9
$USERR5
 40
0.0
  9
$WORLDVIEW
 70
     1
  9
$SHADEDGE
 70
     3
  9
$SHADEDIF
 70
    70
  9
$TILEMODE
 70
     1
  9
$MAXACTVP
 70
    64
  9
$PINSBASE
 10
0.0
 20
0.0
 30
0.0
  9
$PLIMCHECK
 70
     0
  9
$PEXTMIN
 10
0.0
 20
0.0
 30
0.0
  9
$PEXTMAX
 10
0.0
 20
0.0
 30
0.0
  9
$PLIMMIN
 10
0.0
 20
0.0
  9
$PLIMMAX
 10
0.0
 20
0.0
  9
$UNITMODE
 70
     0
  9
$VISRETAIN
 70
     1
  9
$PLINEGEN
 70
     0
  9
$PSLTSCALE
 70
     1
  9
$TREEDEPTH
 70
  3020
  9
$PICKSTYLE
 70
     0
  9
$CMLSTYLE
  2
STANDARD
  9
$CMLJUST
 70
     0
  9
$CMLSCALE
 40
1.0
  9
$SAVEIMAGES
 70
     1
  0
ENDSEC
  0
SECTION
  2
CLASSES
  0
CLASS
  1
ACDBDICTIONARYWDFLT
  2
AcDbDictionaryWithDefault
  3
ObjectDBX Classes
 90
    32768
280
     0
281
     0
  0
CLASS
  1
ACDBPLACEHOLDER
  2
AcDbPlaceHolder
  3
ObjectDBX Classes
 90
        0
280
     0
281
     0
  0
CLASS
  1
LAYOUT
  2
AcDbLayout
  3
ObjectDBX Classes
 90
        0
280
     0
281
     0
  0
CLASS
  1
DICTIONARYVAR
  2
AcDbDictionaryVar
  3
ObjectDBX Classes
 90
        0
280
     0
281
     0
  0
CLASS
  1
TABLESTYLE
  2
AcDbTableStyle
  3
ObjectDBX Classes
 90
     4095
280
     0
281
     0
  0
CLASS
  1
MATERIAL
  2
AcDbMaterial
  3
ObjectDBX Classes
 90
     1153
280
     0
281
     0
  0
CLASS
  1
VISUALSTYLE
  2
AcDbVisualStyle
  3
ObjectDBX Classes
 90
     4095
280
     0
281
     0
  0
CLASS
  1
SCALE
  2
AcDbScale
  3
ObjectDBX Classes
 90
     1153
280
     0
281
     0
  0
CLASS
  1
CELLSTYLEMAP
  2
AcDbCellStyleMap
  3
ObjectDBX Classes
 90
     1152
280
     0
281
     0
  0
CLASS
  1
RASTERVARIABLES
  2
AcDbRasterVariables
  3
ISM
 90
    32768
280
     0
281
     0
  0
CLASS
  1
SUN
  2
AcDbSun
  3
SCENEOE
 90
     1153
280
     0
281
     0
  0
CLASS
  1
XRECORD
  2
AcDbXrecord
  3
ObjectDBX Classes
 90
    32768
280
     0
281
     0
  0
CLASS
  1
IMAGEDEF
  2
AcDbRasterImageDef
  3
ISM
 90
    32768
280
     0
281
     0
  0
CLASS
  1
IMAGE
  2
AcDbRasterImage
  3
ISM
 90
    32895
280
     0
281
     1
  0
CLASS
  1
IMAGEDEF_REACTOR
  2
AcDbRasterImageDefReactor
  3
ISM
 90
    32769
280
     0
281
     0
  0
ENDSEC
  0
SECTION
  2
TABLES
  0
TABLE
  2
VPORT
  5
8
330
0
100
AcDbSymbolTable
 70
     1
  0
VPORT
  5
94
330
8
100
AcDbSymbolTableRecord
100
AcDbViewportTableRecord
  2
*ACTIVE
 70
     0
 10
0.0
 20
0.0
 11
1.0
 21
1.0
 12
35.85689498423407
 22
21.09708780001205
 13
0.0
 23
0.0
 14
0.1
 24
0.1
 15
1.0
 25
1.0
 16
0.0
 26
0.0
 36
1.0
 17
-27.66959356597975
 27
-19.53870295786203
 37
0.0
 40
17.5208894878706
 41
1.793791574279379
 42
50.0
 43
0.0
 44
0.0
 50
0.0
 51
0.0
 71
    16
 72
  1000
 73
     1
 74
     3
 75
     0
 76
     1
 77
     0
 78
     2
  0
ENDTAB
  0
TABLE
  2
LTYPE
  5
5
330
0
100
AcDbSymbolTable
 70
     1
  0
LTYPE
  5
14
330
5
100
AcDbSymbolTableRecord
100
AcDbLinetypeTableRecord
  2
BYBLOCK
 70
     0
  3

 72
    65
 73
     0
 40
0.0
  0
LTYPE
  5
15
330
5
100
AcDbSymbolTableRecord
100
AcDbLinetypeTableRecord
  2
BYLAYER
 70
     0
  3

 72
    65
 73
     0
 40
0.0
  0
LTYPE
  5
16
330
5
100
AcDbSymbolTableRecord
100
AcDbLinetypeTableRecord
  2
CONTINUOUS
 70
     0
  3
Solid line
 72
    65
 73
     0
 40
0.0
  0
ENDTAB
  0
TABLE
  2
LAYER
  5
2
102
{ACAD_XDICTIONARY
360
186
102
}
330
0
100
AcDbSymbolTable
 70
     7
  0
LAYER
  5
10
330
2
100
AcDbSymbolTableRecord
100
AcDbLayerTableRecord
  2
0
 70
     0
 62
     7
  6
CONTINUOUS
  0
LAYER
  5
192
330
2
100
AcDbSymbolTableRecord
100
AcDbLayerTableRecord
  2
PAGE_BORDER
 70
     0
 62
     5
  6
CONTINUOUS
1001
ACAECLAYERSTANDARD
1000

1000

  0
LAYER
  5
194
330
2
100
AcDbSymbolTableRecord
100
AcDbLayerTableRecord
  2
PRINTED_AREA
 70
     0
 62
     6
  6
CONTINUOUS
1001
ACAECLAYERSTANDARD
1000

1000

  0
LAYER
  5
195
330
2
100
AcDbSymbolTableRecord
100
AcDbLayerTableRecord
  2
SQUARES_LG
 70
     0
 62
     3
  6
CONTINUOUS
1001
ACAECLAYERSTANDARD
1000

1000

  0
LAYER
  5
196
330
2
100
AcDbSymbolTableRecord
100
AcDbLayerTableRecord
  2
SQUARES_SM
 70
     0
 62
     4
  6
CONTINUOUS
1001
ACAECLAYERSTANDARD
1000

1000

  0
LAYER
  5
197
330
2
100
AcDbSymbolTableRecord
100
AcDbLayerTableRecord
  2
TEXT
 70
     0
 62
     1
  6
CONTINUOUS
1001
ACAECLAYERSTANDARD
1000

1000

  0
LAYER
  5
198
330
2
100
AcDbSymbolTableRecord
100
AcDbLayerTableRecord
  2
LINES
 70
     0
 62
     1
  6
CONTINUOUS
1001
ACAECLAYERSTANDARD
1000

1000

  0
ENDTAB
  0
TABLE
  2
STYLE
  5
3
330
0
100
AcDbSymbolTable
 70
     1
  0
STYLE
  5
11
330
3
100
AcDbSymbolTableRecord
100
AcDbTextStyleTableRecord
  2
STANDARD
 70
     0
 40
0.0
 41
1.0
 50
0.0
 71
     0
 42
0.4
  3
arial.ttf
  4

1001
ACAD
1000
Arial
1071
        0
  0
ENDTAB
  0
TABLE
  2
VIEW
  5
6
330
0
100
AcDbSymbolTable
 70
     0
  0
ENDTAB
  0
TABLE
  2
UCS
  5
7
330
0
100
AcDbSymbolTable
 70
     0
  0
ENDTAB
  0
TABLE
  2
APPID
  5
9
330
0
100
AcDbSymbolTable
 70
     2
  0
APPID
  5
12
330
9
100
AcDbSymbolTableRecord
100
AcDbRegAppTableRecord
  2
ACAD
 70
     0
  0
APPID
  5
193
330
9
100
AcDbSymbolTableRecord
100
AcDbRegAppTableRecord
  2
ACAECLAYERSTANDARD
 70
     0
  0
ENDTAB
  0
TABLE
  2
DIMSTYLE
  5
A
330
0
100
AcDbSymbolTable
 70
     1
  0
DIMSTYLE
105
27
330
A
100
AcDbSymbolTableRecord
100
AcDbDimStyleTableRecord
  2
STANDARD
 70
     0
  3

  4

  5

  6

  7

 40
1.0
 41
0.18
 42
0.0625
 43
0.38
 44
0.18
 45
0.0
 46
0.0
 47
0.0
 48
0.0
140
0.18
141
0.09
142
0.0
143
25.4
144
1.0
145
0.0
146
1.0
147
0.09
 71
     0
 72
     0
 73
     1
 74
     1
 75
     0
 76
     0
 77
     0
 78
     0
170
     0
171
     2
172
     0
173
     0
174
     0
175
     0
176
     0
177
     0
178
     0
270
     2
271
     4
272
     4
273
     2
274
     2
340
11
275
     0
280
     0
281
     0
282
     0
283
     1
284
     0
285
     0
286
     0
287
     3
288
     0
  0
ENDTAB
  0
TABLE
  2
BLOCK_RECORD
  5
1
330
0
100
AcDbSymbolTable
 70
     1
  0
BLOCK_RECORD
  5
1F
330
1
100
AcDbSymbolTableRecord
100
AcDbBlockTableRecord
  2
*MODEL_SPACE
  0
BLOCK_RECORD
  5
58
330
1
100
AcDbSymbolTableRecord
100
AcDbBlockTableRecord
  2
*PAPER_SPACE
  0
BLOCK_RECORD
  5
5D
330
1
100
AcDbSymbolTableRecord
100
AcDbBlockTableRecord
  2
*PAPER_SPACE0
  0
ENDTAB
  0
ENDSEC
  0
SECTION
  2
BLOCKS
  0
BLOCK
  5
20
330
1F
100
AcDbEntity
  8
0
100
AcDbBlockBegin
  2
*MODEL_SPACE
 70
     0
 10
0.0
 20
0.0
 30
0.0
  3
*MODEL_SPACE
  1

  0
ENDBLK
  5
21
330
1F
100
AcDbEntity
  8
0
100
AcDbBlockEnd
  0
BLOCK
  5
5A
330
58
100
AcDbEntity
 67
     1
  8
0
100
AcDbBlockBegin
  2
*PAPER_SPACE
 70
     0
 10
0.0
 20
0.0
 30
0.0
  3
*PAPER_SPACE
  1

  0
ENDBLK
  5
5B
330
58
100
AcDbEntity
 67
     1
  8
0
100
AcDbBlockEnd
  0
BLOCK
  5
5F
330
5D
100
AcDbEntity
  8
0
100
AcDbBlockBegin
  2
*PAPER_SPACE0
 70
     0
 10
0.0
 20
0.0
 30
0.0
  3
*PAPER_SPACE0
  1
*PAPER_SPACE0
  0
ENDBLK
  5
60
330
5D
100
AcDbEntity
  8
0
100
AcDbBlockEnd
  0
ENDSEC
  0
SECTION
  2
ENTITIES
  0
LINE
  5
29F
330
1F
100
AcDbEntity
  8
LINES
100
AcDbLine
 10
9.919999999999998
 20
0.1125000000000007
 30
0.0
 11
15.92
 21
0.1125000000000007
 31
0.0
  0
LINE
  5
2A1
330
1F
100
AcDbEntity
  8
LINES
100
AcDbLine
 10
15.92
 20
1.112500000000001
 30
0.0
 11
13.92
 21
1.112500000000001
 31
0.0
  0
LINE
  5
2A2
330
1F
100
AcDbEntity
  8
LINES
100
AcDbLine
 10
13.92
 20
1.112500000000001
 30
0.0
 11
12.92
 21
2.112500000000001
 31
0.0
  0
LINE
  5
2A3
330
1F
100
AcDbEntity
  8
LINES
100
AcDbLine
 10
12.92
 20
2.112500000000001
 30
0.0
 11
12.92
 21
3.112500000000001
 31
0.0
  0
LINE
  5
2A4
330
1F
100
AcDbEntity
  8
LINES
100
AcDbLine
 10
12.92
 20
5.112500000000001
 30
0.0
 11
11.92
 21
6.112500000000001
 31
0.0
  0
LINE
  5
2A5
330
1F
100
AcDbEntity
  8
LINES
100
AcDbLine
 10
11.92
 20
6.112500000000001
 30
0.0
 11
9.919999999999998
 21
6.112500000000001
 31
0.0
  0
LINE
  5
2AE
330
1F
100
AcDbEntity
  8
LINES
100
AcDbLine
 10
12.79
 20
3.112500000000001
 30
0.0
 11
12.79
 21
4.112500000000001
 31
0.0
  0
LINE
  5
2B2
330
1F
100
AcDbEntity
  8
LINES
100
AcDbLine
 10
6.18
 20
6.112500000000001
 30
0.0
 11
9.919999999999998
 21
6.112500000000001
 31
0.0
  0
LINE
  5
2B4
330
1F
100
AcDbEntity
  8
LINES
100
AcDbLine
 10
9.919999999999998
 20
0.1125000000000025
 30
0.0
 11
6.18
 21
0.1125000000000025
 31
0.0
  0
LINE
  5
2B6
330
1F
100
AcDbEntity
  8
LINES
100
AcDbLine
 10
12.95
 20
5.112499999999998
 30
0.0
 11
16.69
 21
5.112499999999998
 31
0.0
  0
LINE
  5
2B8
330
1F
100
AcDbEntity
  8
LINES
100
AcDbLine
 10
16.69
 20
2.1125
 30
0.0
 11
12.95
 21
2.1125
 31
0.0
  0
LINE
  5
2BA
330
1F
100
AcDbEntity
  8
LINES
100
AcDbLine
 10
9.919999999999998
 20
7.112500000000001
 30
0.0
 11
6.179999999999999
 21
7.112500000000001
 31
0.0
  0
LINE
  5
2BB
330
1F
100
AcDbEntity
  8
LINES
100
AcDbLine
 10
6.05
 20
6.812500000000002
 30
0.0
 11
6.05
 21
6.412500000000001
 31
0.0
  0
LINE
  5
2BD
330
1F
100
AcDbEntity
  8
LINES
100
AcDbLine
 10
0.1799999999999997
 20
7.012500000000001
 30
0.0
 11
0.1799999999999997
 21
6.512500000000001
 31
0.0
  0
LINE
  5
2BE
330
1F
100
AcDbEntity
  8
LINES
100
AcDbLine
 10
0.3100000000000005
 20
6.012500000000001
 30
0.0
 11
4.049999999999997
 21
6.012500000000001
 31
0.0
  0
LINE
  5
2C0
330
1F
100
AcDbEntity
  8
LINES
100
AcDbLine
 10
4.049999999999997
 20
7.512500000000001
 30
0.0
 11
0.3100000000000005
 21
7.512500000000001
 31
0.0
  0
LINE
  5
2C6
330
1F
100
AcDbEntity
  8
LINES
100
AcDbLine
 10
0.1799999999999997
 20
5.882499999999999
 30
0.0
 11
0.1799999999999997
 21
2.142500000000003
 31
0.0
  0
LINE
  5
2C8
330
1F
100
AcDbEntity
  8
LINES
100
AcDbLine
 10
3.18
 20
3.112500000000001
 30
0.0
 11
3.18
 21
4.112500000000001
 31
0.0
  0
LINE
  5
2CA
330
1F
100
AcDbEntity
  8
LINES
100
AcDbLine
 10
6.18
 20
7.112500000000001
 30
0.0
 11
6.18
 21
6.812500000000002
 31
0.0
  0
LINE
  5
2CD
330
1F
100
AcDbEntity
  8
LINES
100
AcDbLine
 10
0.3100000000000005
 20
7.512500000000001
 30
0.0
 11
0.3100000000000005
 21
7.012500000000001
 31
0.0
  0
LINE
  5
2D1
330
1F
100
AcDbEntity
  8
LINES
100
AcDbLine
 10
3.18
 20
5.882499999999998
 30
0.0
 11
1.18
 21
5.882499999999998
 31
0.0
  0
LINE
  5
2EF
330
1F
100
AcDbEntity
  8
LINES
100
AcDbLine
 10
12.92
 20
4.112500000000001
 30
0.0
 11
12.79
 21
4.112500000000001
 31
0.0
  0
LINE
  5
2F1
330
1F
100
AcDbEntity
  8
LINES
100
AcDbLine
 10
12.79
 20
3.112500000000001
 30
0.0
 11
12.92
 21
3.112500000000001
 31
0.0
  0
LINE
  5
2F2
330
1F
100
AcDbEntity
  8
LINES
100
AcDbLine
 10
12.92
 20
4.112500000000001
 30
0.0
 11
12.92
 21
5.112500000000001
 31
0.0
  0
LINE
  5
2F5
330
1F
100
AcDbEntity
  8
LINES
100
AcDbLine
 10
9.919999999999998
 20
7.112500000000001
 30
0.0
 11
9.919999999999998
 21
6.812500000000002
 31
0.0
  0
LINE
  5
2F7
330
1F
100
AcDbEntity
  8
LINES
100
AcDbLine
 10
10.05
 20
6.812500000000002
 30
0.0
 11
10.05
 21
6.412500000000001
 31
0.0
  0
LINE
  5
2F9
330
1F
100
AcDbEntity
  8
LINES
100
AcDbLine
 10
9.919999999999998
 20
6.412500000000001
 30
0.0
 11
9.919999999999998
 21
6.112500000000001
 31
0.0
  0
LINE
  5
2FA
330
1F
100
AcDbEntity
  8
LINES
100
AcDbLine
 10
6.18
 20
6.412500000000001
 30
0.0
 11
6.18
 21
6.112500000000001
 31
0.0
  0
LINE
  5
2FC
330
1F
100
AcDbEntity
  8
LINES
100
AcDbLine
 10
15.79
 20
0.8125000000000018
 30
0.0
 11
15.79
 21
0.4125000000000014
 31
0.0
  0
LINE
  5
2FE
330
1F
100
AcDbEntity
  8
LINES
100
AcDbLine
 10
15.92
 20
0.4125000000000014
 30
0.0
 11
15.92
 21
0.1125000000000007
 31
0.0
  0
LINE
  5
2FF
330
1F
100
AcDbEntity
  8
LINES
100
AcDbLine
 10
15.92
 20
1.112500000000001
 30
0.0
 11
15.92
 21
0.8125000000000018
 31
0.0
  0
LINE
  5
300
330
1F
100
AcDbEntity
  8
LINES
100
AcDbLine
 10
10.05
 20
2.112500000000001
 30
0.0
 11
9.920000000000002
 21
2.112500000000001
 31
0.0
  0
LINE
  5
301
330
1F
100
AcDbEntity
  8
LINES
100
AcDbLine
 10
10.05
 20
5.112500000000001
 30
0.0
 11
9.920000000000002
 21
5.112500000000001
 31
0.0
  0
LINE
  5
302
330
1F
100
AcDbEntity
  8
LINES
100
AcDbLine
 10
9.920000000000002
 20
4.112500000000001
 30
0.0
 11
10.05
 21
4.112500000000001
 31
0.0
  0
LINE
  5
303
330
1F
100
AcDbEntity
  8
LINES
100
AcDbLine
 10
9.920000000000002
 20
1.112500000000001
 30
0.0
 11
10.05
 21
1.112500000000001
 31
0.0
  0
LINE
  5
304
330
1F
100
AcDbEntity
  8
LINES
100
AcDbLine
 10
10.05
 20
1.112500000000001
 30
0.0
 11
10.05
 21
2.112500000000001
 31
0.0
  0
LINE
  5
305
330
1F
100
AcDbEntity
  8
LINES
100
AcDbLine
 10
10.05
 20
4.112500000000001
 30
0.0
 11
10.05
 21
5.112500000000001
 31
0.0
  0
LINE
  5
306
330
1F
100
AcDbEntity
  8
LINES
100
AcDbLine
 10
9.919999999999998
 20
5.112500000000001
 30
0.0
 11
9.919999999999998
 21
6.112500000000001
 31
0.0
  0
LINE
  5
307
330
1F
100
AcDbEntity
  8
LINES
100
AcDbLine
 10
9.919999999999998
 20
0.1125000000000025
 30
0.0
 11
9.919999999999998
 21
1.112500000000001
 31
0.0
  0
LINE
  5
308
330
1F
100
AcDbEntity
  8
LINES
100
AcDbLine
 10
9.919999999999998
 20
2.112500000000001
 30
0.0
 11
9.919999999999998
 21
4.112500000000001
 31
0.0
  0
LINE
  5
30E
330
1F
100
AcDbEntity
  8
LINES
100
AcDbLine
 10
16.69
 20
4.112499999999998
 30
0.0
 11
16.69
 21
5.112499999999998
 31
0.0
  0
LINE
  5
30F
330
1F
100
AcDbEntity
  8
LINES
100
AcDbLine
 10
16.82
 20
3.112499999999998
 30
0.0
 11
16.82
 21
4.112499999999998
 31
0.0
  0
LINE
  5
310
330
1F
100
AcDbEntity
  8
LINES
100
AcDbLine
 10
16.69
 20
4.112499999999998
 30
0.0
 11
16.82
 21
4.112499999999998
 31
0.0
  0
LINE
  5
311
330
1F
100
AcDbEntity
  8
LINES
100
AcDbLine
 10
16.82
 20
3.112499999999998
 30
0.0
 11
16.69
 21
3.112499999999998
 31
0.0
  0
LINE
  5
312
330
1F
100
AcDbEntity
  8
LINES
100
AcDbLine
 10
16.69
 20
2.112499999999998
 30
0.0
 11
16.69
 21
3.112499999999998
 31
0.0
  0
LINE
  5
313
330
1F
100
AcDbEntity
  8
LINES
100
AcDbLine
 10
11.01526891322785
 20
4.820685118343968
 30
0.0
 11
10.5593081606403
 21
5.025867457008365
 31
0.0
  0
LINE
  5
315
330
1F
100
AcDbEntity
  8
LINES
100
AcDbLine
 10
12.30841151393001
 20
0.532464151637374
 30
0.0
 11
11.86914934886132
 21
0.7713129538934704
 31
0.0
  0
LINE
  5
316
330
1F
100
AcDbEntity
  8
LINES
100
AcDbLine
 10
10.96192150517511
 20
4.702135322671205
 30
0.0
 11
10.50596075258755
 21
4.907317661335603
 31
0.0
  0
LINE
  5
318
330
1F
100
AcDbEntity
  8
LINES
100
AcDbLine
 10
12.24631082534342
 20
0.4182559887195167
 30
0.0
 11
11.80704866027474
 21
0.6571047909756136
 31
0.0
  0
LINE
  5
319
330
1F
100
AcDbEntity
  8
LINES
100
AcDbLine
 10
11.82473108677215
 20
3.320685118343968
 30
0.0
 11
12.2806918393597
 21
3.525867457008365
 31
0.0
  0
LINE
  5
31A
330
1F
100
AcDbEntity
  8
LINES
100
AcDbLine
 10
11.87807849482489
 20
3.202135322671205
 30
0.0
 11
12.33403924741245
 21
3.407317661335603
 31
0.0
  0
LINE
  5
31E
330
1F
100
AcDbEntity
  8
LINES
100
AcDbLine
 10
10.50596075258755
 20
4.907317661335603
 30
0.0
 11
10.5593081606403
 21
5.025867457008365
 31
0.0
  0
LINE
  5
31F
330
1F
100
AcDbEntity
  8
LINES
100
AcDbLine
 10
10.96192150517511
 20
4.702135322671205
 30
0.0
 11
11.01526891322785
 21
4.820685118343968
 31
0.0
  0
LINE
  5
320
330
1F
100
AcDbEntity
  8
LINES
100
AcDbLine
 10
11.87807849482489
 20
3.202135322671205
 30
0.0
 11
11.82473108677215
 21
3.320685118343968
 31
0.0
  0
LINE
  5
321
330
1F
100
AcDbEntity
  8
LINES
100
AcDbLine
 10
12.33403924741245
 20
3.407317661335603
 30
0.0
 11
12.2806918393597
 21
3.525867457008365
 31
0.0
  0
LINE
  5
322
330
1F
100
AcDbEntity
  8
LINES
100
AcDbLine
 10
0.1799999999999997
 20
7.012500000000001
 30
0.0
 11
0.3100000000000005
 21
7.012500000000001
 31
0.0
  0
LINE
  5
323
330
1F
100
AcDbEntity
  8
LINES
100
AcDbLine
 10
0.1799999999999997
 20
6.512500000000001
 30
0.0
 11
0.3100000000000005
 21
6.512500000000001
 31
0.0
  0
LINE
  5
324
330
1F
100
AcDbEntity
  8
LINES
100
AcDbLine
 10
0.3100000000000005
 20
6.512500000000001
 30
0.0
 11
0.3100000000000005
 21
6.012500000000001
 31
0.0
  0
LINE
  5
325
330
1F
100
AcDbEntity
  8
LINES
100
AcDbLine
 10
4.18
 20
6.512500000000001
 30
0.0
 11
4.049999999999997
 21
6.512500000000001
 31
0.0
  0
LINE
  5
326
330
1F
100
AcDbEntity
  8
LINES
100
AcDbLine
 10
4.049999999999997
 20
6.512500000000001
 30
0.0
 11
4.049999999999997
 21
6.012500000000001
 31
0.0
  0
LINE
  5
327
330
1F
100
AcDbEntity
  8
LINES
100
AcDbLine
 10
4.18
 20
7.012500000000001
 30
0.0
 11
4.18
 21
6.512500000000001
 31
0.0
  0
LINE
  5
328
330
1F
100
AcDbEntity
  8
LINES
100
AcDbLine
 10
4.18
 20
7.012500000000001
 30
0.0
 11
4.049999999999997
 21
7.012500000000001
 31
0.0
  0
LINE
  5
329
330
1F
100
AcDbEntity
  8
LINES
100
AcDbLine
 10
4.049999999999997
 20
7.512500000000001
 30
0.0
 11
4.049999999999997
 21
7.012500000000001
 31
0.0
  0
LINE
  5
32A
330
1F
100
AcDbEntity
  8
LINES
100
AcDbLine
 10
12.79
 20
6.112500000000001
 30
0.0
 11
12.92
 21
6.112500000000001
 31
0.0
  0
LINE
  5
32B
330
1F
100
AcDbEntity
  8
LINES
100
AcDbLine
 10
12.79
 20
5.612500000000001
 30
0.0
 11
12.92
 21
5.612500000000001
 31
0.0
  0
LINE
  5
32C
330
1F
100
AcDbEntity
  8
LINES
100
AcDbLine
 10
12.92
 20
5.612500000000001
 30
0.0
 11
12.92
 21
5.112500000000001
 31
0.0
  0
LINE
  5
32D
330
1F
100
AcDbEntity
  8
LINES
100
AcDbLine
 10
12.79
 20
6.112500000000001
 30
0.0
 11
12.79
 21
5.612500000000001
 31
0.0
  0
LINE
  5
32E
330
1F
100
AcDbEntity
  8
LINES
100
AcDbLine
 10
16.79
 20
5.612500000000001
 30
0.0
 11
16.66
 21
5.612500000000001
 31
0.0
  0
LINE
  5
32F
330
1F
100
AcDbEntity
  8
LINES
100
AcDbLine
 10
12.92
 20
6.612500000000001
 30
0.0
 11
12.92
 21
6.112500000000001
 31
0.0
  0
LINE
  5
330
330
1F
100
AcDbEntity
  8
LINES
100
AcDbLine
 10
16.66
 20
5.612500000000001
 30
0.0
 11
16.66
 21
5.112500000000001
 31
0.0
  0
LINE
  5
331
330
1F
100
AcDbEntity
  8
LINES
100
AcDbLine
 10
16.79
 20
6.112500000000001
 30
0.0
 11
16.79
 21
5.612500000000001
 31
0.0
  0
LINE
  5
332
330
1F
100
AcDbEntity
  8
LINES
100
AcDbLine
 10
16.79
 20
6.112500000000001
 30
0.0
 11
16.66
 21
6.112500000000001
 31
0.0
  0
LINE
  5
333
330
1F
100
AcDbEntity
  8
LINES
100
AcDbLine
 10
16.66
 20
6.612500000000001
 30
0.0
 11
16.66
 21
6.112500000000001
 31
0.0
  0
LINE
  5
335
330
1F
100
AcDbEntity
  8
LINES
100
AcDbLine
 10
16.66
 20
6.612500000000001
 30
0.0
 11
12.92
 21
6.612500000000001
 31
0.0
  0
LINE
  5
338
330
1F
100
AcDbEntity
  8
LINES
100
AcDbLine
 10
12.24631082534342
 20
0.4182559887195167
 30
0.0
 11
12.30841151393001
 21
0.532464151637374
 31
0.0
  0
LINE
  5
339
330
1F
100
AcDbEntity
  8
LINES
100
AcDbLine
 10
11.80704866027474
 20
0.6571047909756136
 30
0.0
 11
11.86914934886132
 21
0.7713129538934709
 31
0.0
  0
LINE
  5
33A
330
1F
100
AcDbEntity
  8
LINES
100
AcDbLine
 10
1.18
 20
6.012499999999998
 30
0.0
 11
1.18
 21
5.882499999999998
 31
0.0
  0
LINE
  5
33B
330
1F
100
AcDbEntity
  8
LINES
100
AcDbLine
 10
0.6799999999999997
 20
6.0125
 30
0.0
 11
0.6799999999999997
 21
5.882499999999999
 31
0.0
  0
LINE
  5
33C
330
1F
100
AcDbEntity
  8
LINES
100
AcDbLine
 10
0.6799999999999997
 20
5.882499999999999
 30
0.0
 11
0.1799999999999997
 21
5.882499999999999
 31
0.0
  0
LINE
  5
33D
330
1F
100
AcDbEntity
  8
LINES
100
AcDbLine
 10
1.18
 20
6.012499999999998
 30
0.0
 11
0.6799999999999997
 21
6.0125
 31
0.0
  0
LINE
  5
33E
330
1F
100
AcDbEntity
  8
LINES
100
AcDbLine
 10
0.6799999999999997
 20
2.0125
 30
0.0
 11
0.6799999999999997
 21
2.142500000000003
 31
0.0
  0
LINE
  5
33F
330
1F
100
AcDbEntity
  8
LINES
100
AcDbLine
 10
0.6799999999999997
 20
2.142500000000003
 30
0.0
 11
0.1799999999999997
 21
2.142500000000003
 31
0.0
  0
LINE
  5
340
330
1F
100
AcDbEntity
  8
LINES
100
AcDbLine
 10
1.18
 20
2.0125
 30
0.0
 11
0.6799999999999997
 21
2.0125
 31
0.0
  0
LINE
  5
341
330
1F
100
AcDbEntity
  8
LINES
100
AcDbLine
 10
1.18
 20
2.0125
 30
0.0
 11
1.18
 21
2.142500000000003
 31
0.0
  0
LINE
  5
342
330
1F
100
AcDbEntity
  8
LINES
100
AcDbLine
 10
3.18
 20
2.142500000000003
 30
0.0
 11
1.18
 21
2.142500000000003
 31
0.0
  0
LINE
  5
343
330
1F
100
AcDbEntity
  8
LINES
100
AcDbLine
 10
6.18
 20
0.1125000000000007
 30
0.0
 11
0.1799999999999997
 21
0.1125000000000007
 31
0.0
  0
LINE
  5
344
330
1F
100
AcDbEntity
  8
LINES
100
AcDbLine
 10
0.1799999999999997
 20
1.112500000000001
 30
0.0
 11
2.18
 21
1.112500000000001
 31
0.0
  0
LINE
  5
345
330
1F
100
AcDbEntity
  8
LINES
100
AcDbLine
 10
2.18
 20
1.112500000000001
 30
0.0
 11
3.18
 21
2.112500000000001
 31
0.0
  0
LINE
  5
346
330
1F
100
AcDbEntity
  8
LINES
100
AcDbLine
 10
3.18
 20
5.112500000000001
 30
0.0
 11
4.18
 21
6.112500000000001
 31
0.0
  0
LINE
  5
347
330
1F
100
AcDbEntity
  8
LINES
100
AcDbLine
 10
4.18
 20
6.112500000000001
 30
0.0
 11
6.18
 21
6.112500000000001
 31
0.0
  0
LINE
  5
348
330
1F
100
AcDbEntity
  8
LINES
100
AcDbLine
 10
3.18
 20
4.112500000000001
 30
0.0
 11
3.18
 21
5.112500000000001
 31
0.0
  0
LINE
  5
349
330
1F
100
AcDbEntity
  8
LINES
100
AcDbLine
 10
3.309999999999999
 20
3.112500000000001
 30
0.0
 11
3.309999999999999
 21
4.112500000000001
 31
0.0
  0
LINE
  5
34A
330
1F
100
AcDbEntity
  8
LINES
100
AcDbLine
 10
3.18
 20
4.112500000000001
 30
0.0
 11
3.309999999999999
 21
4.112500000000001
 31
0.0
  0
LINE
  5
34B
330
1F
100
AcDbEntity
  8
LINES
100
AcDbLine
 10
3.309999999999999
 20
3.112500000000001
 30
0.0
 11
3.18
 21
3.112500000000001
 31
0.0
  0
LINE
  5
34C
330
1F
100
AcDbEntity
  8
LINES
100
AcDbLine
 10
3.18
 20
2.112500000000001
 30
0.0
 11
3.18
 21
3.112500000000001
 31
0.0
  0
LINE
  5
34E
330
1F
100
AcDbEntity
  8
LINES
100
AcDbLine
 10
0.3099999999999987
 20
0.8125000000000018
 30
0.0
 11
0.3099999999999987
 21
0.4125000000000014
 31
0.0
  0
LINE
  5
350
330
1F
100
AcDbEntity
  8
LINES
100
AcDbLine
 10
0.1799999999999997
 20
0.4125000000000014
 30
0.0
 11
0.1799999999999997
 21
0.1125000000000007
 31
0.0
  0
LINE
  5
351
330
1F
100
AcDbEntity
  8
LINES
100
AcDbLine
 10
0.1799999999999997
 20
1.112500000000001
 30
0.0
 11
0.1799999999999997
 21
0.8125000000000018
 31
0.0
  0
LINE
  5
352
330
1F
100
AcDbEntity
  8
LINES
100
AcDbLine
 10
6.049999999999997
 20
2.112500000000001
 30
0.0
 11
6.18
 21
2.112500000000001
 31
0.0
  0
LINE
  5
353
330
1F
100
AcDbEntity
  8
LINES
100
AcDbLine
 10
6.049999999999997
 20
5.112500000000001
 30
0.0
 11
6.18
 21
5.112500000000001
 31
0.0
  0
LINE
  5
354
330
1F
100
AcDbEntity
  8
LINES
100
AcDbLine
 10
6.18
 20
4.112500000000001
 30
0.0
 11
6.049999999999997
 21
4.112500000000001
 31
0.0
  0
LINE
  5
355
330
1F
100
AcDbEntity
  8
LINES
100
AcDbLine
 10
6.18
 20
1.112500000000001
 30
0.0
 11
6.049999999999997
 21
1.112500000000001
 31
0.0
  0
LINE
  5
356
330
1F
100
AcDbEntity
  8
LINES
100
AcDbLine
 10
6.049999999999997
 20
1.112500000000001
 30
0.0
 11
6.049999999999997
 21
2.112500000000001
 31
0.0
  0
LINE
  5
357
330
1F
100
AcDbEntity
  8
LINES
100
AcDbLine
 10
6.049999999999997
 20
4.112500000000001
 30
0.0
 11
6.049999999999997
 21
5.112500000000001
 31
0.0
  0
LINE
  5
358
330
1F
100
AcDbEntity
  8
LINES
100
AcDbLine
 10
6.18
 20
5.112500000000001
 30
0.0
 11
6.18
 21
6.112500000000001
 31
0.0
  0
LINE
  5
359
330
1F
100
AcDbEntity
  8
LINES
100
AcDbLine
 10
6.18
 20
0.1125000000000025
 30
0.0
 11
6.18
 21
1.112500000000001
 31
0.0
  0
LINE
  5
35A
330
1F
100
AcDbEntity
  8
LINES
100
AcDbLine
 10
6.18
 20
2.112500000000001
 30
0.0
 11
6.18
 21
4.112500000000001
 31
0.0
  0
LINE
  5
35B
330
1F
100
AcDbEntity
  8
LINES
100
AcDbLine
 10
5.594039247412447
 20
4.907317661335603
 30
0.0
 11
5.540691839359702
 21
5.025867457008365
 31
0.0
  0
LINE
  5
35C
330
1F
100
AcDbEntity
  8
LINES
100
AcDbLine
 10
5.138078494824892
 20
4.702135322671205
 30
0.0
 11
5.084731086772152
 21
4.820685118343968
 31
0.0
  0
LINE
  5
35D
330
1F
100
AcDbEntity
  8
LINES
100
AcDbLine
 10
4.221921505175107
 20
3.202135322671205
 30
0.0
 11
4.275268913227848
 21
3.320685118343968
 31
0.0
  0
LINE
  5
35E
330
1F
100
AcDbEntity
  8
LINES
100
AcDbLine
 10
3.765960752587553
 20
3.407317661335603
 30
0.0
 11
3.819308160640297
 21
3.525867457008365
 31
0.0
  0
LINE
  5
35F
330
1F
100
AcDbEntity
  8
LINES
100
AcDbLine
 10
3.853689174656576
 20
0.4182559887195167
 30
0.0
 11
3.791588486069994
 21
0.532464151637374
 31
0.0
  0
LINE
  5
360
330
1F
100
AcDbEntity
  8
LINES
100
AcDbLine
 10
4.292951339725263
 20
0.6571047909756136
 30
0.0
 11
4.230850651138677
 21
0.7713129538934709
 31
0.0
  0
LINE
  5
361
330
1F
100
AcDbEntity
  8
LINES
100
AcDbLine
 10
3.791588486069994
 20
0.532464151637374
 30
0.0
 11
4.230850651138677
 21
0.7713129538934704
 31
0.0
  0
LINE
  5
362
330
1F
100
AcDbEntity
  8
LINES
100
AcDbLine
 10
4.221921505175107
 20
3.202135322671205
 30
0.0
 11
3.765960752587553
 21
3.407317661335603
 31
0.0
  0
LINE
  5
363
330
1F
100
AcDbEntity
  8
LINES
100
AcDbLine
 10
4.275268913227848
 20
3.320685118343968
 30
0.0
 11
3.819308160640297
 21
3.525867457008365
 31
0.0
  0
LINE
  5
364
330
1F
100
AcDbEntity
  8
LINES
100
AcDbLine
 10
3.853689174656576
 20
0.4182559887195167
 30
0.0
 11
4.292951339725263
 21
0.6571047909756136
 31
0.0
  0
LINE
  5
365
330
1F
100
AcDbEntity
  8
LINES
100
AcDbLine
 10
5.084731086772152
 20
4.820685118343968
 30
0.0
 11
5.540691839359702
 21
5.025867457008365
 31
0.0
  0
LINE
  5
366
330
1F
100
AcDbEntity
  8
LINES
100
AcDbLine
 10
5.138078494824892
 20
4.702135322671205
 30
0.0
 11
5.594039247412447
 21
4.907317661335603
 31
0.0
  0
LINE
  5
3CD
330
1F
100
AcDbEntity
  8
LINES
100
AcDbLine
 10
15.79
 20
0.8125000000000018
 30
0.0
 11
15.92
 21
0.8125000000000018
 31
0.0
  0
LINE
  5
3CE
330
1F
100
AcDbEntity
  8
LINES
100
AcDbLine
 10
15.79
 20
0.4125000000000014
 30
0.0
 11
15.92
 21
0.4125000000000014
 31
0.0
  0
LINE
  5
3CF
330
1F
100
AcDbEntity
  8
LINES
100
AcDbLine
 10
0.1799999999999997
 20
0.8125000000000018
 30
0.0
 11
0.3099999999999987
 21
0.8125000000000018
 31
0.0
  0
LINE
  5
3D0
330
1F
100
AcDbEntity
  8
LINES
100
AcDbLine
 10
0.1799999999999997
 20
0.4125000000000014
 30
0.0
 11
0.3099999999999987
 21
0.4125000000000014
 31
0.0
  0
LINE
  5
3D7
330
1F
100
AcDbEntity
  8
LINES
100
AcDbLine
 10
3.18
 20
5.112500000000001
 30
0.0
 11
3.18
 21
5.882499999999998
 31
0.0
  0
LINE
  5
3D8
330
1F
100
AcDbEntity
  8
LINES
100
AcDbLine
 10
6.05
 20
6.812500000000002
 30
0.0
 11
6.18
 21
6.812500000000002
 31
0.0
  0
LINE
  5
3D9
330
1F
100
AcDbEntity
  8
LINES
100
AcDbLine
 10
6.18
 20
6.412500000000001
 30
0.0
 11
6.05
 21
6.412500000000001
 31
0.0
  0
LINE
  5
3DA
330
1F
100
AcDbEntity
  8
LINES
100
AcDbLine
 10
9.919999999999998
 20
6.812500000000002
 30
0.0
 11
10.052991927376
 21
6.812500000000002
 31
0.0
  0
LINE
  5
3DC
330
1F
100
AcDbEntity
  8
LINES
100
AcDbLine
 10
9.919999999999998
 20
6.412500000000001
 30
0.0
 11
10.05
 21
6.412500000000001
 31
0.0
  0
POLYLINE
  5
3DD
330
1F
100
AcDbEntity
  8
PRINTED_AREA
100
AcDb2dPolyline
 66
     1
 10
0.0
 20
0.0
 30
0.0
 70
     1
  0
VERTEX
  5
3E2
330
3DD
100
AcDbEntity
  8
PRINTED_AREA
100
AcDbVertex
100
AcDb2dVertex
 10
0.0
 20
0.0
 30
0.0
  0
VERTEX
  5
3E3
330
3DD
100
AcDbEntity
  8
PRINTED_AREA
100
AcDbVertex
100
AcDb2dVertex
 10
0.0
 20
7.625000000000002
 30
0.0
  0
VERTEX
  5
3E4
330
3DD
100
AcDbEntity
  8
PRINTED_AREA
100
AcDbVertex
100
AcDb2dVertex
 10
17.0
 20
7.625000000000002
 30
0.0
  0
VERTEX
  5
3E5
330
3DD
100
AcDbEntity
  8
PRINTED_AREA
100
AcDbVertex
100
AcDb2dVertex
 10
17.0
 20
0.0
 30
0.0
  0
SEQEND
  5
3EA
330
3DD
100
AcDbEntity
  8
PRINTED_AREA
  0
POLYLINE
  5
3DE
330
1F
100
AcDbEntity
  8
PAGE_BORDER
100
AcDb2dPolyline
 66
     1
 10
0.0
 20
0.0
 30
0.0
 70
     1
  0
VERTEX
  5
3E6
330
3DE
100
AcDbEntity
  8
PAGE_BORDER
100
AcDbVertex
100
AcDb2dVertex
 10
0.0
 20
0.0
 30
0.0
  0
VERTEX
  5
3E7
330
3DE
100
AcDbEntity
  8
PAGE_BORDER
100
AcDbVertex
100
AcDb2dVertex
 10
0.0
 20
12.0
 30
0.0
  0
VERTEX
  5
3E8
330
3DE
100
AcDbEntity
  8
PAGE_BORDER
100
AcDbVertex
100
AcDb2dVertex
 10
24.0
 20
12.0
 30
0.0
  0
VERTEX
  5
3E9
330
3DE
100
AcDbEntity
  8
PAGE_BORDER
100
AcDbVertex
100
AcDb2dVertex
 10
24.0
 20
0.0
 30
0.0
  0
SEQEND
  5
3EB
330
3DE
100
AcDbEntity
  8
PAGE_BORDER
  0
ENDSEC
  0
SECTION
  2
OBJECTS
  0
DICTIONARY
  5
C
330
0
100
AcDbDictionary
  3
ACAD_DETAILVIEWSTYLE
350
122
  3
ACAD_GROUP
350
D
  3
ACAD_IMAGE_DICT
350
3D1
  3
ACAD_IMAGE_VARS
350
DC
  3
ACAD_MLINESTYLE
350
17
  3
ACAD_SCALELIST
350
B6
  3
ACAD_SECTIONVIEWSTYLE
350
123
  3
ACDBVARIABLEDICTIONARY
350
66
  3
APPDATA
350
E1
  3
DWGPROPS
350
3E1
1001
ACAD
1000
TREAT_AS_HARD
1070
     0
  0
DICTIONARY
  5
186
330
2
100
AcDbDictionary
  3
ACAD_LAYERSTATES
360
190
  3
ACLYDICTIONARY
360
38A
1001
ACAD
1000
TREAT_AS_HARD
1070
     1
  0
DICTIONARY
  5
122
102
{ACAD_REACTORS
330
C
102
}
330
C
100
AcDbDictionary
1001
ACAD
1000
TREAT_AS_HARD
1070
     0
  0
DICTIONARY
  5
D
102
{ACAD_REACTORS
330
C
102
}
330
C
100
AcDbDictionary
1001
ACAD
1000
TREAT_AS_HARD
1070
     0
  0
DICTIONARY
  5
3D1
102
{ACAD_REACTORS
330
C
102
}
330
C
100
AcDbDictionary
  3
BATTLETECH_LOGO
350
3D2
1001
ACAD
1000
TREAT_AS_HARD
1070
     0
  0
RASTERVARIABLES
  5
DC
102
{ACAD_REACTORS
330
C
102
}
330
C
100
AcDbRasterVariables
 90
        0
 70
     1
 71
     1
 72
     5
  0
DICTIONARY
  5
17
102
{ACAD_REACTORS
330
C
102
}
330
C
100
AcDbDictionary
  3
STANDARD
350
18
1001
ACAD
1000
TREAT_AS_HARD
1070
     0
  0
DICTIONARY
  5
B6
102
{ACAD_REACTORS
330
C
102
}
330
C
100
AcDbDictionary
1001
ACAD
1000
TREAT_AS_HARD
1070
     0
  0
DICTIONARY
  5
123
102
{ACAD_REACTORS
330
C
102
}
330
C
100
AcDbDictionary
1001
ACAD
1000
TREAT_AS_HARD
1070
     0
  0
DICTIONARY
  5
66
102
{ACAD_REACTORS
330
C
102
}
330
C
100
AcDbDictionary
  3
DIMASSOC
350
67
  3
HIDETEXT
350
6B
1001
ACAD
1000
TREAT_AS_HARD
1070
     0
  0
DICTIONARY
  5
E1
102
{ACAD_REACTORS
330
C
102
}
330
C
100
AcDbDictionary
1001
ACAD
1000
TREAT_AS_HARD
1070
     0
  0
XRECORD
  5
3E1
102
{ACAD_REACTORS
330
C
102
}
330
C
100
AcDbXrecord
  1
DWGPROPS COOKIE
  2

  3

  4

  6

  7

  8
user
  9

300
=
301
=
302
=
303
=
304
=
305
=
306
=
307
=
308
=
309
=
 40
0.0
 41
2452643.063384271
 42
2456981.812298171
  1

 90
        0
  0
DICTIONARY
  5
190
102
{ACAD_REACTORS
330
186
102
}
330
186
100
AcDbDictionary
1001
ACAD
1000
TREAT_AS_HARD
1070
     0
  0
DICTIONARY
  5
38A
102
{ACAD_REACTORS
330
186
102
}
330
186
100
AcDbDictionary
1001
ACAD
1000
<All
1000
TREAT_AS_HARD
1070
     0
  0
IMAGEDEF
  5
3D2
102
{ACAD_REACTORS
330
3D1
330
3D4
102
}
330
3D1
100
AcDbRasterImageDef
 90
        0
  1
C:/Documents and Settings/user/My Documents/FABLAB/Dice tower/battletech logo.png
 10
1177.0
 20
277.0
 11
0.0008496176720475786
 21
0.0008496176720475786
280
     1
281
     0
  0
MLINESTYLE
  5
18
102
{ACAD_REACTORS
330
17
102
}
330
17
100
AcDbMlineStyle
  2
STANDARD
 70
     0
  3

 62
   256
 51
90.0
 52
90.0
 71
     2
 49
0.5
 62
   256
  6
BYLAYER
 49
-0.5
 62
   256
  6
BYLAYER
  0
DICTIONARYVAR
  5
67
102
{ACAD_REACTORS
330
66
102
}
330
66
100
DictionaryVariables
280
     0
  1
2
  0
DICTIONARYVAR
  5
6B
102
{ACAD_REACTORS
330
66
102
}
330
66
100
DictionaryVariables
280
     0
  1
1
  0
ENDSEC
  0
EOF
