  0
SECTION
  2
HEADER
  9
$ACADVER
  1
AC1024
  9
$ACADMAINTVER
 70
     6
  9
$DWGCODEPAGE
  3
ANSI_1252
  9
$INSBASE
 10
0.0
 20
0.0
 30
0.0
  9
$EXTMIN
 10
1.000000000000000E+20
 20
1.000000000000000E+20
 30
1.000000000000000E+20
  9
$EXTMAX
 10
-1.000000000000000E+20
 20
-1.000000000000000E+20
 30
-1.000000000000000E+20
  9
$LIMMIN
 10
0.0
 20
0.0
  9
$LIMMAX
 10
12.0
 20
9.0
  9
$ORTHOMODE
 70
     0
  9
$REGENMODE
 70
     1
  9
$FILLMODE
 70
     1
  9
$QTEXTMODE
 70
     0
  9
$MIRRTEXT
 70
     1
  9
$LTSCALE
 40
1.0
  9
$ATTMODE
 70
     1
  9
$TEXTSIZE
 40
0.2
  9
$TRACEWID
 40
0.05
  9
$TEXTSTYLE
  7
Standard
  9
$CLAYER
  8
0
  9
$CELTYPE
  6
ByLayer
  9
$CECOLOR
 62
   256
  9
$CELTSCALE
 40
1.0
  9
$DISPSILH
 70
     0
  9
$DIMSCALE
 40
1.0
  9
$DIMASZ
 40
0.18
  9
$DIMEXO
 40
0.0625
  9
$DIMDLI
 40
0.38
  9
$DIMRND
 40
0.0
  9
$DIMDLE
 40
0.0
  9
$DIMEXE
 40
0.18
  9
$DIMTP
 40
0.0
  9
$DIMTM
 40
0.0
  9
$DIMTXT
 40
0.18
  9
$DIMCEN
 40
0.09
  9
$DIMTSZ
 40
0.0
  9
$DIMTOL
 70
     0
  9
$DIMLIM
 70
     0
  9
$DIMTIH
 70
     1
  9
$DIMTOH
 70
     1
  9
$DIMSE1
 70
     0
  9
$DIMSE2
 70
     0
  9
$DIMTAD
 70
     0
  9
$DIMZIN
 70
     0
  9
$DIMBLK
  1

  9
$DIMASO
 70
     1
  9
$DIMSHO
 70
     1
  9
$DIMPOST
  1

  9
$DIMAPOST
  1

  9
$DIMALT
 70
     0
  9
$DIMALTD
 70
     2
  9
$DIMALTF
 40
25.4
  9
$DIMLFAC
 40
1.0
  9
$DIMTOFL
 70
     0
  9
$DIMTVP
 40
0.0
  9
$DIMTIX
 70
     0
  9
$DIMSOXD
 70
     0
  9
$DIMSAH
 70
     0
  9
$DIMBLK1
  1

  9
$DIMBLK2
  1

  9
$DIMSTYLE
  2
Standard
  9
$DIMCLRD
 70
     0
  9
$DIMCLRE
 70
     0
  9
$DIMCLRT
 70
     0
  9
$DIMTFAC
 40
1.0
  9
$DIMGAP
 40
0.09
  9
$DIMJUST
 70
     0
  9
$DIMSD1
 70
     0
  9
$DIMSD2
 70
     0
  9
$DIMTOLJ
 70
     1
  9
$DIMTZIN
 70
     0
  9
$DIMALTZ
 70
     0
  9
$DIMALTTZ
 70
     0
  9
$DIMUPT
 70
     0
  9
$DIMDEC
 70
     4
  9
$DIMTDEC
 70
     4
  9
$DIMALTU
 70
     2
  9
$DIMALTTD
 70
     2
  9
$DIMTXSTY
  7
Standard
  9
$DIMAUNIT
 70
     0
  9
$DIMADEC
 70
     0
  9
$DIMALTRND
 40
0.0
  9
$DIMAZIN
 70
     0
  9
$DIMDSEP
 70
    46
  9
$DIMATFIT
 70
     3
  9
$DIMFRAC
 70
     0
  9
$DIMLDRBLK
  1

  9
$DIMLUNIT
 70
     2
  9
$DIMLWD
 70
    -2
  9
$DIMLWE
 70
    -2
  9
$DIMTMOVE
 70
     0
  9
$DIMFXL
 40
1.0
  9
$DIMFXLON
 70
     0
  9
$DIMJOGANG
 40
0.7853981633974483
  9
$DIMTFILL
 70
     0
  9
$DIMTFILLCLR
 70
     0
  9
$DIMARCSYM
 70
     0
  9
$DIMLTYPE
  6

  9
$DIMLTEX1
  6

  9
$DIMLTEX2
  6

  9
$DIMTXTDIRECTION
 70
     0
  9
$LUNITS
 70
     2
  9
$LUPREC
 70
     4
  9
$SKETCHINC
 40
0.1
  9
$FILLETRAD
 40
0.5
  9
$AUNITS
 70
     0
  9
$AUPREC
 70
     0
  9
$MENU
  1
.
  9
$ELEVATION
 40
0.0
  9
$PELEVATION
 40
0.0
  9
$THICKNESS
 40
0.0
  9
$LIMCHECK
 70
     0
  9
$CHAMFERA
 40
0.5
  9
$CHAMFERB
 40
0.5
  9
$CHAMFERC
 40
1.0
  9
$CHAMFERD
 40
0.0
  9
$SKPOLY
 70
     0
  9
$TDCREATE
 40
2457496.895574896
  9
$TDUCREATE
 40
2457496.812241563
  9
$TDUPDATE
 40
2457496.895574977
  9
$TDUUPDATE
 40
2457496.812241644
  9
$TDINDWG
 40
0.0000000116
  9
$TDUSRTIMER
 40
0.0000000116
  9
$USRTIMER
 70
     1
  9
$ANGBASE
 50
0.0
  9
$ANGDIR
 70
     0
  9
$PDMODE
 70
     0
  9
$PDSIZE
 40
0.0
  9
$PLINEWID
 40
0.0
  9
$SPLFRAME
 70
     0
  9
$SPLINETYPE
 70
     6
  9
$SPLINESEGS
 70
     8
  9
$HANDSEED
  5
1A1
  9
$SURFTAB1
 70
     6
  9
$SURFTAB2
 70
     6
  9
$SURFTYPE
 70
     6
  9
$SURFU
 70
     6
  9
$SURFV
 70
     6
  9
$UCSBASE
  2

  9
$UCSNAME
  2

  9
$UCSORG
 10
0.0
 20
0.0
 30
0.0
  9
$UCSXDIR
 10
1.0
 20
0.0
 30
0.0
  9
$UCSYDIR
 10
0.0
 20
1.0
 30
0.0
  9
$UCSORTHOREF
  2

  9
$UCSORTHOVIEW
 70
     0
  9
$UCSORGTOP
 10
0.0
 20
0.0
 30
0.0
  9
$UCSORGBOTTOM
 10
0.0
 20
0.0
 30
0.0
  9
$UCSORGLEFT
 10
0.0
 20
0.0
 30
0.0
  9
$UCSORGRIGHT
 10
0.0
 20
0.0
 30
0.0
  9
$UCSORGFRONT
 10
0.0
 20
0.0
 30
0.0
  9
$UCSORGBACK
 10
0.0
 20
0.0
 30
0.0
  9
$PUCSBASE
  2

  9
$PUCSNAME
  2

  9
$PUCSORG
 10
0.0
 20
0.0
 30
0.0
  9
$PUCSXDIR
 10
1.0
 20
0.0
 30
0.0
  9
$PUCSYDIR
 10
0.0
 20
1.0
 30
0.0
  9
$PUCSORTHOREF
  2

  9
$PUCSORTHOVIEW
 70
     0
  9
$PUCSORGTOP
 10
0.0
 20
0.0
 30
0.0
  9
$PUCSORGBOTTOM
 10
0.0
 20
0.0
 30
0.0
  9
$PUCSORGLEFT
 10
0.0
 20
0.0
 30
0.0
  9
$PUCSORGRIGHT
 10
0.0
 20
0.0
 30
0.0
  9
$PUCSORGFRONT
 10
0.0
 20
0.0
 30
0.0
  9
$PUCSORGBACK
 10
0.0
 20
0.0
 30
0.0
  9
$USERI1
 70
     0
  9
$USERI2
 70
     0
  9
$USERI3
 70
     0
  9
$USERI4
 70
     0
  9
$USERI5
 70
     0
  9
$USERR1
 40
0.0
  9
$USERR2
 40
0.0
  9
$USERR3
 40
0.0
  9
$USERR4
 40
0.0
  9
$USERR5
 40
0.0
  9
$WORLDVIEW
 70
     1
  9
$SHADEDGE
 70
     3
  9
$SHADEDIF
 70
    70
  9
$TILEMODE
 70
     1
  9
$MAXACTVP
 70
    64
  9
$PINSBASE
 10
0.0
 20
0.0
 30
0.0
  9
$PLIMCHECK
 70
     0
  9
$PEXTMIN
 10
1.000000000000000E+20
 20
1.000000000000000E+20
 30
1.000000000000000E+20
  9
$PEXTMAX
 10
-1.000000000000000E+20
 20
-1.000000000000000E+20
 30
-1.000000000000000E+20
  9
$PLIMMIN
 10
0.0
 20
0.0
  9
$PLIMMAX
 10
12.0
 20
9.0
  9
$UNITMODE
 70
     0
  9
$VISRETAIN
 70
     1
  9
$PLINEGEN
 70
     0
  9
$PSLTSCALE
 70
     1
  9
$TREEDEPTH
 70
  3020
  9
$CMLSTYLE
  2
Standard
  9
$CMLJUST
 70
     0
  9
$CMLSCALE
 40
1.0
  9
$PROXYGRAPHICS
 70
     1
  9
$MEASUREMENT
 70
     0
  9
$CELWEIGHT
370
    -1
  9
$ENDCAPS
280
     0
  9
$JOINSTYLE
280
     0
  9
$LWDISPLAY
290
     1
  9
$INSUNITS
 70
     1
  9
$HYPERLINKBASE
  1

  9
$STYLESHEET
  1

  9
$XEDIT
290
     1
  9
$CEPSNTYPE
380
     0
  9
$PSTYLEMODE
290
     1
  9
$FINGERPRINTGUID
  2
{A662270B-FCCB-443B-B996-5D00A84D6ED5}
  9
$VERSIONGUID
  2
{FAEB1C32-E019-11D5-929B-00C0DF256EC4}
  9
$EXTNAMES
290
     1
  9
$PSVPSCALE
 40
0.0
  9
$OLESTARTUP
290
     0
  9
$SORTENTS
280
   127
  9
$INDEXCTL
280
     0
  9
$HIDETEXT
280
     1
  9
$XCLIPFRAME
280
     2
  9
$HALOGAP
280
     0
  9
$OBSCOLOR
 70
   257
  9
$OBSLTYPE
280
     0
  9
$INTERSECTIONDISPLAY
280
     0
  9
$INTERSECTIONCOLOR
 70
   257
  9
$DIMASSOC
280
     2
  9
$PROJECTNAME
  1

  9
$CAMERADISPLAY
290
     0
  9
$LENSLENGTH
 40
50.0
  9
$CAMERAHEIGHT
 40
0.0
  9
$STEPSPERSEC
 40
2.0
  9
$STEPSIZE
 40
6.0
  9
$3DDWFPREC
 40
2.0
  9
$PSOLWIDTH
 40
0.25
  9
$PSOLHEIGHT
 40
4.0
  9
$LOFTANG1
 40
1.570796326794897
  9
$LOFTANG2
 40
1.570796326794897
  9
$LOFTMAG1
 40
0.0
  9
$LOFTMAG2
 40
0.0
  9
$LOFTPARAM
 70
     7
  9
$LOFTNORMALS
280
     1
  9
$LATITUDE
 40
37.795
  9
$LONGITUDE
 40
-122.394
  9
$NORTHDIRECTION
 40
0.0
  9
$TIMEZONE
 70
 -8000
  9
$LIGHTGLYPHDISPLAY
280
     1
  9
$TILEMODELIGHTSYNCH
280
     1
  9
$CMATERIAL
347
3C
  9
$SOLIDHIST
280
     1
  9
$SHOWHIST
280
     1
  9
$DWFFRAME
280
     2
  9
$DGNFRAME
280
     2
  9
$REALWORLDSCALE
290
     1
  9
$INTERFERECOLOR
 62
   256
  9
$CSHADOW
280
     0
  9
$SHADOWPLANELOCATION
 40
0.0
  0
ENDSEC
  0
SECTION
  2
CLASSES
  0
CLASS
  1
ACDBDICTIONARYWDFLT
  2
AcDbDictionaryWithDefault
  3
ObjectDBX Classes
 90
        0
 91
        4
280
     0
281
     0
  0
CLASS
  1
VISUALSTYLE
  2
AcDbVisualStyle
  3
ObjectDBX Classes
 90
     4095
 91
        4
280
     0
281
     0
  0
CLASS
  1
MATERIAL
  2
AcDbMaterial
  3
ObjectDBX Classes
 90
     1153
 91
        4
280
     0
281
     0
  0
CLASS
  1
SUN
  2
AcDbSun
  3
SCENEOE
 90
     1024
 91
        4
280
     0
281
     0
  0
ENDSEC
  0
SECTION
  2
TABLES
  0
TABLE
  2
VPORT
  5
8
330
0
100
AcDbSymbolTable
 70
     1
  0
VPORT
  5
29
330
8
100
AcDbSymbolTableRecord
100
AcDbViewportTableRecord
  2
*Active
 70
     0
 10
0.0
 20
0.0
 11
1.0
 21
1.0
 12
0.0
 22
0.0
 13
0.0
 23
0.0
 14
0.5
 24
0.5
 15
0.5
 25
0.5
 16
0.0
 26
0.0
 36
1.0
 17
149.999347184723
 27
-200.0003055055556
 37
0.0
 40
400.0006110111112
 41
1.999996944449116
 42
50.0
 43
0.0
 44
0.0
 50
0.0
 51
0.0
 71
     0
 72
   100
 73
     1
 74
     3
 75
     0
 76
     0
 77
     0
 78
     0
281
     0
 65
     1
110
0.0
120
0.0
130
0.0
111
1.0
121
0.0
131
0.0
112
0.0
122
1.0
132
0.0
 79
     0
146
0.0
 60
     3
 61
     5
292
     1
282
     1
141
0.0
142
0.0
 63
   250
361
3F
  0
ENDTAB
  0
TABLE
  2
LTYPE
  5
5
330
0
100
AcDbSymbolTable
 70
     1
  0
LTYPE
  5
14
330
5
100
AcDbSymbolTableRecord
100
AcDbLinetypeTableRecord
  2
ByBlock
 70
     0
  3

 72
    65
 73
     0
 40
0.0
  0
LTYPE
  5
15
330
5
100
AcDbSymbolTableRecord
100
AcDbLinetypeTableRecord
  2
ByLayer
 70
     0
  3

 72
    65
 73
     0
 40
0.0
  0
LTYPE
  5
16
330
5
100
AcDbSymbolTableRecord
100
AcDbLinetypeTableRecord
  2
Continuous
 70
     0
  3
Solid line
 72
    65
 73
     0
 40
0.0
  0
ENDTAB
  0
TABLE
  2
LAYER
  5
2
330
0
100
AcDbSymbolTable
 70
     4
  0
LAYER
  5
10
330
2
100
AcDbSymbolTableRecord
100
AcDbLayerTableRecord
  2
0
 70
     0
 62
     7
  6
Continuous
370
    -3
390
F
347
3E
  0
LAYER
  5
40
330
2
100
AcDbSymbolTableRecord
100
AcDbLayerTableRecord
  2
Ebene 2
 70
     1
 62
     7
  6
Continuous
370
    -3
390
F
347
3E
  0
LAYER
  5
41
330
2
100
AcDbSymbolTableRecord
100
AcDbLayerTableRecord
  2
Ebene 1
 70
     0
 62
     7
  6
Continuous
370
    -3
390
F
347
3E
  0
LAYER
  5
19E
330
2
100
AcDbSymbolTableRecord
100
AcDbLayerTableRecord
  2
Ebene 3
 70
     4
 62
     7
  6
Continuous
370
    -3
390
F
347
3E
  0
ENDTAB
  0
TABLE
  2
STYLE
  5
3
330
0
100
AcDbSymbolTable
 70
     1
  0
STYLE
  5
11
330
3
100
AcDbSymbolTableRecord
100
AcDbTextStyleTableRecord
  2
Standard
 70
     0
 40
0.0
 41
1.0
 50
0.0
 71
     0
 42
0.2
  3
txt
  4

  0
ENDTAB
  0
TABLE
  2
VIEW
  5
6
330
0
100
AcDbSymbolTable
 70
     0
  0
ENDTAB
  0
TABLE
  2
UCS
  5
7
330
0
100
AcDbSymbolTable
 70
     0
  0
ENDTAB
  0
TABLE
  2
APPID
  5
9
330
0
100
AcDbSymbolTable
 70
     1
  0
APPID
  5
12
330
9
100
AcDbSymbolTableRecord
100
AcDbRegAppTableRecord
  2
ACAD
 70
     0
  0
ENDTAB
  0
TABLE
  2
DIMSTYLE
  5
A
330
0
100
AcDbSymbolTable
 70
     1
100
AcDbDimStyleTable
  0
DIMSTYLE
105
27
330
A
100
AcDbSymbolTableRecord
100
AcDbDimStyleTableRecord
  2
Standard
 70
     0
178
     0
340
11
  0
ENDTAB
  0
TABLE
  2
BLOCK_RECORD
  5
1
330
0
100
AcDbSymbolTable
 70
     6
  0
BLOCK_RECORD
  5
1F
330
1
100
AcDbSymbolTableRecord
100
AcDbBlockTableRecord
  2
*Model_Space
340
22
 70
     0
280
     1
281
     0
  0
BLOCK_RECORD
  5
1B
330
1
100
AcDbSymbolTableRecord
100
AcDbBlockTableRecord
  2
*Paper_Space
340
1E
 70
     0
280
     1
281
     0
  0
BLOCK_RECORD
  5
23
330
1
100
AcDbSymbolTableRecord
100
AcDbBlockTableRecord
  2
*Paper_Space0
340
26
 70
     0
280
     1
281
     0
  0
BLOCK_RECORD
  5
BA
330
1
100
AcDbSymbolTableRecord
100
AcDbBlockTableRecord
  2
block 2
340
0
102
{BLKREFS
331
BB
102
}
 70
     0
280
     1
281
     0
  0
BLOCK_RECORD
  5
13F
330
1
100
AcDbSymbolTableRecord
100
AcDbBlockTableRecord
  2
block 3
340
0
102
{BLKREFS
331
140
102
}
 70
     0
280
     1
281
     0
  0
BLOCK_RECORD
  5
14B
330
1
100
AcDbSymbolTableRecord
100
AcDbBlockTableRecord
  2
block 4
340
0
102
{BLKREFS
331
14C
102
}
 70
     0
280
     1
281
     0
  0
BLOCK_RECORD
  5
157
330
1
100
AcDbSymbolTableRecord
100
AcDbBlockTableRecord
  2
block 5
340
0
102
{BLKREFS
331
158
102
}
 70
     0
280
     1
281
     0
  0
BLOCK_RECORD
  5
163
330
1
100
AcDbSymbolTableRecord
100
AcDbBlockTableRecord
  2
block 6
340
0
102
{BLKREFS
331
164
102
}
 70
     0
280
     1
281
     0
  0
ENDTAB
  0
ENDSEC
  0
SECTION
  2
BLOCKS
  0
BLOCK
  5
20
330
1F
100
AcDbEntity
  8
0
100
AcDbBlockBegin
  2
*Model_Space
 70
     0
 10
0.0
 20
0.0
 30
0.0
  3
*Model_Space
  1

  0
ENDBLK
  5
21
330
1F
100
AcDbEntity
  8
0
100
AcDbBlockEnd
  0
BLOCK
  5
1C
330
1B
100
AcDbEntity
 67
     1
  8
0
100
AcDbBlockBegin
  2
*Paper_Space
 70
     0
 10
0.0
 20
0.0
 30
0.0
  3
*Paper_Space
  1

  0
ENDBLK
  5
1D
330
1B
100
AcDbEntity
 67
     1
  8
0
100
AcDbBlockEnd
  0
BLOCK
  5
24
330
23
100
AcDbEntity
  8
0
100
AcDbBlockBegin
  2
*Paper_Space0
 70
     0
 10
0.0
 20
0.0
 30
0.0
  3
*Paper_Space0
  1

  0
ENDBLK
  5
25
330
23
100
AcDbEntity
  8
0
100
AcDbBlockEnd
  0
BLOCK
  5
BC
330
BA
100
AcDbEntity
  8
0
100
AcDbBlockBegin
  2
block 2
 70
     0
 10
0.0
 20
0.0
 30
0.0
  3
block 2
  1

  0
POLYLINE
  5
BE
330
BA
100
AcDbEntity
  8
Ebene 1
 62
     7
420
 16777215
370
    35
100
AcDb2dPolyline
 66
     1
 10
0.0
 20
0.0
 30
0.0
  0
VERTEX
  5
BF
330
BE
100
AcDbEntity
  8
Ebene 1
 62
     7
420
 16777215
370
    35
100
AcDbVertex
100
AcDb2dVertex
 10
320.6942421539723
 20
-74.58731108526975
 30
0.0
  0
VERTEX
  5
C0
330
BE
100
AcDbEntity
  8
Ebene 1
 62
     7
420
 16777215
370
    35
100
AcDbVertex
100
AcDb2dVertex
 10
324.81918042468
 20
-46.89281914458635
 30
0.0
  0
VERTEX
  5
C1
330
BE
100
AcDbEntity
  8
Ebene 1
 62
     7
420
 16777215
370
    35
100
AcDbVertex
100
AcDb2dVertex
 10
330.7537144040936
 20
-47.77673448760243
 30
0.0
  0
VERTEX
  5
C2
330
BE
100
AcDbEntity
  8
Ebene 1
 62
     7
420
 16777215
370
    35
100
AcDbVertex
100
AcDb2dVertex
 10
326.6287761268905
 20
-75.47122642797748
 30
0.0
  0
VERTEX
  5
C3
330
BE
100
AcDbEntity
  8
Ebene 1
 62
     7
420
 16777215
370
    35
100
AcDbVertex
100
AcDb2dVertex
 10
320.6942421539723
 20
-74.58731108526975
 30
0.0
  0
SEQEND
  5
C4
330
BE
100
AcDbEntity
  8
Ebene 1
 62
     7
420
 16777215
370
    35
  0
POLYLINE
  5
C5
330
BA
100
AcDbEntity
  8
Ebene 1
 62
     7
420
 16777215
370
    35
100
AcDb2dPolyline
 66
     1
 10
0.0
 20
0.0
 30
0.0
  0
VERTEX
  5
C6
330
C5
100
AcDbEntity
  8
Ebene 1
 62
     7
420
 16777215
370
    35
100
AcDbVertex
100
AcDb2dVertex
 10
372.5581508193229
 20
-83.23764495950164
 30
0.0
  0
VERTEX
  5
C7
330
C5
100
AcDbEntity
  8
Ebene 1
 62
     7
420
 16777215
370
    35
100
AcDbVertex
100
AcDb2dVertex
 10
372.5509887043341
 20
-83.23764490214465
 30
0.0
  0
VERTEX
  5
C8
330
C5
100
AcDbEntity
  8
Ebene 1
 62
     7
420
 16777215
370
    35
100
AcDbVertex
100
AcDb2dVertex
 10
431.7495923774486
 20
-83.19075912864497
 30
0.0
  0
VERTEX
  5
C9
330
C5
100
AcDbEntity
  8
Ebene 1
 62
     7
420
 16777215
370
    35
100
AcDbVertex
100
AcDb2dVertex
 10
432.0789590530236
 20
-83.07619783280431
 30
0.0
  0
VERTEX
  5
CA
330
C5
100
AcDbEntity
  8
Ebene 1
 62
     7
420
 16777215
370
    35
100
AcDbVertex
100
AcDb2dVertex
 10
432.3544724179582
 20
-82.92390019688759
 30
0.0
  0
VERTEX
  5
CB
330
C5
100
AcDbEntity
  8
Ebene 1
 62
     7
420
 16777215
370
    35
100
AcDbVertex
100
AcDb2dVertex
 10
432.5928298244061
 20
-82.72144117713836
 30
0.0
  0
VERTEX
  5
CC
330
C5
100
AcDbEntity
  8
Ebene 1
 62
     7
420
 16777215
370
    35
100
AcDbVertex
100
AcDb2dVertex
 10
432.7918860557269
 20
-82.48336973702622
 30
0.0
  0
VERTEX
  5
CD
330
C5
100
AcDbEntity
  8
Ebene 1
 62
     7
420
 16777215
370
    35
100
AcDbVertex
100
AcDb2dVertex
 10
432.9683502448405
 20
-82.1973278955861
 30
0.0
  0
VERTEX
  5
CE
330
C5
100
AcDbEntity
  8
Ebene 1
 62
     7
420
 16777215
370
    35
100
AcDbVertex
100
AcDb2dVertex
 10
433.1222042668739
 20
-81.86329118385277
 30
0.0
  0
VERTEX
  5
CF
330
C5
100
AcDbEntity
  8
Ebene 1
 62
     7
420
 16777215
370
    35
100
AcDbVertex
100
AcDb2dVertex
 10
433.2658455245697
 20
-81.4979963757456
 30
0.0
  0
VERTEX
  5
D0
330
C5
100
AcDbEntity
  8
Ebene 1
 62
     7
420
 16777215
370
    35
100
AcDbVertex
100
AcDb2dVertex
 10
433.3825617129707
 20
-81.11382274914531
 30
0.0
  0
VERTEX
  5
D1
330
C5
100
AcDbEntity
  8
Ebene 1
 62
     7
420
 16777215
370
    35
100
AcDbVertex
100
AcDb2dVertex
 10
433.4890470121754
 20
-80.69836655720533
 30
0.0
  0
VERTEX
  5
D2
330
C5
100
AcDbEntity
  8
Ebene 1
 62
     7
420
 16777215
370
    35
100
AcDbVertex
100
AcDb2dVertex
 10
433.583174330413
 20
-80.26620123236464
 30
0.0
  0
VERTEX
  5
D3
330
C5
100
AcDbEntity
  8
Ebene 1
 62
     7
420
 16777215
370
    35
100
AcDbVertex
100
AcDb2dVertex
 10
433.7256006101358
 20
-79.40993495834176
 30
0.0
  0
VERTEX
  5
D4
330
C5
100
AcDbEntity
  8
Ebene 1
 62
     7
420
 16777215
370
    35
100
AcDbVertex
100
AcDb2dVertex
 10
433.8534629735896
 20
-78.55147770181182
 30
0.0
  0
VERTEX
  5
D5
330
C5
100
AcDbEntity
  8
Ebene 1
 62
     7
420
 16777215
370
    35
100
AcDbVertex
100
AcDb2dVertex
 10
433.911974699409
 20
-78.15863484900157
 30
0.0
  0
VERTEX
  5
D6
330
C5
100
AcDbEntity
  8
Ebene 1
 62
     7
420
 16777215
370
    35
100
AcDbVertex
100
AcDb2dVertex
 10
433.968319911691
 20
-77.78033778760778
 30
0.0
  0
VERTEX
  5
D7
330
C5
100
AcDbEntity
  8
Ebene 1
 62
     7
420
 16777215
370
    35
100
AcDbVertex
100
AcDb2dVertex
 10
434.5360568417042
 20
-76.76430483639757
 30
0.0
  0
VERTEX
  5
D8
330
C5
100
AcDbEntity
  8
Ebene 1
 62
     7
420
 16777215
370
    35
100
AcDbVertex
100
AcDb2dVertex
 10
434.8502857233052
 20
-76.05259721073398
 30
0.0
  0
VERTEX
  5
D9
330
C5
100
AcDbEntity
  8
Ebene 1
 62
     7
420
 16777215
370
    35
100
AcDbVertex
100
AcDb2dVertex
 10
435.110625044544
 20
-75.30310430705939
 30
0.0
  0
VERTEX
  5
DA
330
C5
100
AcDbEntity
  8
Ebene 1
 62
     7
420
 16777215
370
    35
100
AcDbVertex
100
AcDb2dVertex
 10
435.3273451163897
 20
-74.54713633173597
 30
0.0
  0
VERTEX
  5
DB
330
C5
100
AcDbEntity
  8
Ebene 1
 62
     7
420
 16777215
370
    35
100
AcDbVertex
100
AcDb2dVertex
 10
435.4858426008004
 20
-73.78247466123514
 30
0.0
  0
VERTEX
  5
DC
330
C5
100
AcDbEntity
  8
Ebene 1
 62
     7
420
 16777215
370
    35
100
AcDbVertex
100
AcDb2dVertex
 10
435.5737744696115
 20
-72.99245592853637
 30
0.0
  0
VERTEX
  5
DD
330
C5
100
AcDbEntity
  8
Ebene 1
 62
     7
420
 16777215
370
    35
100
AcDbVertex
100
AcDb2dVertex
 10
435.6180508393173
 20
-72.19591318625257
 30
0.0
  0
VERTEX
  5
DE
330
C5
100
AcDbEntity
  8
Ebene 1
 62
     7
420
 16777215
370
    35
100
AcDbVertex
100
AcDb2dVertex
 10
435.6038123111417
 20
-71.79223459369241
 30
0.0
  0
VERTEX
  5
DF
330
C5
100
AcDbEntity
  8
Ebene 1
 62
     7
420
 16777215
370
    35
100
AcDbVertex
100
AcDb2dVertex
 10
435.5874072694312
 20
-71.40310179254936
 30
0.0
  0
VERTEX
  5
E0
330
C5
100
AcDbEntity
  8
Ebene 1
 62
     7
420
 16777215
370
    35
100
AcDbVertex
100
AcDb2dVertex
 10
435.5273648534704
 20
-71.0074694507907
 30
0.0
  0
VERTEX
  5
E1
330
C5
100
AcDbEntity
  8
Ebene 1
 62
     7
420
 16777215
370
    35
100
AcDbVertex
100
AcDb2dVertex
 10
435.4338765306849
 20
-70.63659249273164
 30
0.0
  0
VERTEX
  5
E2
330
C5
100
AcDbEntity
  8
Ebene 1
 62
     7
420
 16777215
370
    35
100
AcDbVertex
100
AcDb2dVertex
 10
435.3091301115247
 20
-70.27592829901079
 30
0.0
  0
VERTEX
  5
E3
330
C5
100
AcDbEntity
  8
Ebene 1
 62
     7
420
 16777215
370
    35
100
AcDbVertex
100
AcDb2dVertex
 10
435.2144139627791
 20
-70.11309251065575
 30
0.0
  0
VERTEX
  5
E4
330
C5
100
AcDbEntity
  8
Ebene 1
 62
     7
420
 16777215
370
    35
100
AcDbVertex
100
AcDb2dVertex
 10
435.1175068315293
 20
-69.96482063857295
 30
0.0
  0
VERTEX
  5
E5
330
C5
100
AcDbEntity
  8
Ebene 1
 62
     7
420
 16777215
370
    35
100
AcDbVertex
100
AcDb2dVertex
 10
434.9915325864063
 20
-69.8121976145548
 30
0.0
  0
VERTEX
  5
E6
330
C5
100
AcDbEntity
  8
Ebene 1
 62
     7
420
 16777215
370
    35
100
AcDbVertex
100
AcDb2dVertex
 10
434.8612008452436
 20
-69.6886842982286
 30
0.0
  0
VERTEX
  5
E7
330
C5
100
AcDbEntity
  8
Ebene 1
 62
     7
420
 16777215
370
    35
100
AcDbVertex
100
AcDb2dVertex
 10
434.5547366471805
 20
-69.4496826194633
 30
0.0
  0
VERTEX
  5
E8
330
C5
100
AcDbEntity
  8
Ebene 1
 62
     7
420
 16777215
370
    35
100
AcDbVertex
100
AcDb2dVertex
 10
434.2104903431618
 20
-69.26454920414334
 30
0.0
  0
VERTEX
  5
E9
330
C5
100
AcDbEntity
  8
Ebene 1
 62
     7
420
 16777215
370
    35
100
AcDbVertex
100
AcDb2dVertex
 10
433.8430503184303
 20
-69.13545690991899
 30
0.0
  0
VERTEX
  5
EA
330
C5
100
AcDbEntity
  8
Ebene 1
 62
     7
420
 16777215
370
    35
100
AcDbVertex
100
AcDb2dVertex
 10
361.7272308592454
 20
-48.66741753238004
 30
0.0
  0
VERTEX
  5
EB
330
C5
100
AcDbEntity
  8
Ebene 1
 62
     7
420
 16777215
370
    35
100
AcDbVertex
100
AcDb2dVertex
 10
360.6650181271298
 20
-48.36544200514941
 30
0.0
  0
VERTEX
  5
EC
330
C5
100
AcDbEntity
  8
Ebene 1
 62
     7
420
 16777215
370
    35
100
AcDbVertex
100
AcDb2dVertex
 10
359.7353459148601
 20
-54.60718379130809
 30
0.0
  0
VERTEX
  5
ED
330
C5
100
AcDbEntity
  8
Ebene 1
 62
     7
420
 16777215
370
    35
100
AcDbVertex
100
AcDb2dVertex
 10
353.8008120952983
 20
-53.72326847185969
 30
0.0
  0
VERTEX
  5
EE
330
C5
100
AcDbEntity
  8
Ebene 1
 62
     7
420
 16777215
370
    35
100
AcDbVertex
100
AcDb2dVertex
 10
354.8452682884068
 20
-46.71087660049167
 30
0.0
  0
VERTEX
  5
EF
330
C5
100
AcDbEntity
  8
Ebene 1
 62
     7
420
 16777215
370
    35
100
AcDbVertex
100
AcDb2dVertex
 10
341.5093367696595
 20
-42.91949204081505
 30
0.0
  0
VERTEX
  5
F0
330
C5
100
AcDbEntity
  8
Ebene 1
 62
     7
420
 16777215
370
    35
100
AcDbVertex
100
AcDb2dVertex
 10
322.3476524810391
 20
-40.06546730962477
 30
0.0
  0
VERTEX
  5
F1
330
C5
100
AcDbEntity
  8
Ebene 1
 62
     7
420
 16777215
370
    35
100
AcDbVertex
100
AcDb2dVertex
 10
315.9313399009704
 20
-39.10979376283625
 30
0.0
  0
VERTEX
  5
F2
330
C5
100
AcDbEntity
  8
Ebene 1
 62
     7
420
 16777215
370
    35
100
AcDbVertex
100
AcDb2dVertex
 10
301.6870317583382
 20
-38.84304383548724
 30
0.0
  0
VERTEX
  5
F3
330
C5
100
AcDbEntity
  8
Ebene 1
 62
     7
420
 16777215
370
    35
100
AcDbVertex
100
AcDb2dVertex
 10
300.6498300549244
 20
-45.80672966736911
 30
0.0
  0
VERTEX
  5
F4
330
C5
100
AcDbEntity
  8
Ebene 1
 62
     7
420
 16777215
370
    35
100
AcDbVertex
100
AcDb2dVertex
 10
294.7152962353613
 20
-44.92281434792135
 30
0.0
  0
VERTEX
  5
F5
330
C5
100
AcDbEntity
  8
Ebene 1
 62
     7
420
 16777215
370
    35
100
AcDbVertex
100
AcDb2dVertex
 10
295.6377139579324
 20
-38.72977860125139
 30
0.0
  0
VERTEX
  5
F6
330
C5
100
AcDbEntity
  8
Ebene 1
 62
     7
420
 16777215
370
    35
100
AcDbVertex
100
AcDb2dVertex
 10
294.9159404411467
 20
-38.71625289028079
 30
0.0
  0
VERTEX
  5
F7
330
C5
100
AcDbEntity
  8
Ebene 1
 62
     7
420
 16777215
370
    35
100
AcDbVertex
100
AcDb2dVertex
 10
256.3741496389575
 20
-37.97748876099392
 30
0.0
  0
VERTEX
  5
F8
330
C5
100
AcDbEntity
  8
Ebene 1
 62
     7
420
 16777215
370
    35
100
AcDbVertex
100
AcDb2dVertex
 10
219.9654815861145
 20
-37.27960011702724
 30
0.0
  0
VERTEX
  5
F9
330
C5
100
AcDbEntity
  8
Ebene 1
 62
     7
420
 16777215
370
    35
100
AcDbVertex
100
AcDb2dVertex
 10
219.7720075047403
 20
-37.28054197665909
 30
0.0
  0
VERTEX
  5
FA
330
C5
100
AcDbEntity
  8
Ebene 1
 62
     7
420
 16777215
370
    35
100
AcDbVertex
100
AcDb2dVertex
 10
219.5763700818825
 20
-37.29600833079402
 30
0.0
  0
VERTEX
  5
FB
330
C5
100
AcDbEntity
  8
Ebene 1
 62
     7
420
 16777215
370
    35
100
AcDbVertex
100
AcDb2dVertex
 10
219.3930874679367
 20
-37.32820511474306
 30
0.0
  0
VERTEX
  5
FC
330
C5
100
AcDbEntity
  8
Ebene 1
 62
     7
420
 16777215
370
    35
100
AcDbVertex
100
AcDb2dVertex
 10
219.1931138459466
 20
-37.37278434862431
 30
0.0
  0
VERTEX
  5
FD
330
C5
100
AcDbEntity
  8
Ebene 1
 62
     7
420
 16777215
370
    35
100
AcDbVertex
100
AcDb2dVertex
 10
219.0200652932515
 20
-37.43624240099837
 30
0.0
  0
VERTEX
  5
FE
330
C5
100
AcDbEntity
  8
Ebene 1
 62
     7
420
 16777215
370
    35
100
AcDbVertex
100
AcDb2dVertex
 10
218.8303044356002
 20
-37.51207973125248
 30
0.0
  0
VERTEX
  5
FF
330
C5
100
AcDbEntity
  8
Ebene 1
 62
     7
420
 16777215
370
    35
100
AcDbVertex
100
AcDb2dVertex
 10
218.7488849553961
 20
-37.55944845408184
 30
0.0
  0
VERTEX
  5
100
330
C5
100
AcDbEntity
  8
Ebene 1
 62
     7
420
 16777215
370
    35
100
AcDbVertex
100
AcDb2dVertex
 10
218.6696319887281
 20
-37.59227138549537
 30
0.0
  0
VERTEX
  5
101
330
C5
100
AcDbEntity
  8
Ebene 1
 62
     7
420
 16777215
370
    35
100
AcDbVertex
100
AcDb2dVertex
 10
218.5860672918965
 20
-37.65418907179686
 30
0.0
  0
VERTEX
  5
102
330
C5
100
AcDbEntity
  8
Ebene 1
 62
     7
420
 16777215
370
    35
100
AcDbVertex
100
AcDb2dVertex
 10
218.5191967751624
 20
-37.70370301125277
 30
0.0
  0
VERTEX
  5
103
330
C5
100
AcDbEntity
  8
Ebene 1
 62
     7
420
 16777215
370
    35
100
AcDbVertex
100
AcDb2dVertex
 10
218.4356107814177
 20
-37.76561752549956
 30
0.0
  0
VERTEX
  5
104
330
C5
100
AcDbEntity
  8
Ebene 1
 62
     7
420
 16777215
370
    35
100
AcDbVertex
100
AcDb2dVertex
 10
218.3687370926291
 20
-37.81515276186756
 30
0.0
  0
VERTEX
  5
105
330
C5
100
AcDbEntity
  8
Ebene 1
 62
     7
420
 16777215
370
    35
100
AcDbVertex
100
AcDb2dVertex
 10
218.2306779848852
 20
-37.94331798949411
 30
0.0
  0
VERTEX
  5
106
330
C5
100
AcDbEntity
  8
Ebene 1
 62
     7
420
 16777215
370
    35
100
AcDbVertex
100
AcDb2dVertex
 10
218.1195439464361
 20
-38.09036203561347
 30
0.0
  0
VERTEX
  5
107
330
C5
100
AcDbEntity
  8
Ebene 1
 62
     7
420
 16777215
370
    35
100
AcDbVertex
100
AcDb2dVertex
 10
218.0062433944484
 20
-38.25195187315025
 30
0.0
  0
VERTEX
  5
108
330
C5
100
AcDbEntity
  8
Ebene 1
 62
     7
420
 16777215
370
    35
100
AcDbVertex
100
AcDb2dVertex
 10
217.9096732722742
 20
-38.40118690177572
 30
0.0
  0
VERTEX
  5
109
330
C5
100
AcDbEntity
  8
Ebene 1
 62
     7
420
 16777215
370
    35
100
AcDbVertex
100
AcDb2dVertex
 10
217.8087519981653
 20
-38.57948904426795
 30
0.0
  0
VERTEX
  5
10A
330
C5
100
AcDbEntity
  8
Ebene 1
 62
     7
420
 16777215
370
    35
100
AcDbVertex
100
AcDb2dVertex
 10
217.7223733434163
 20
-38.7599789972119
 30
0.0
  0
VERTEX
  5
10B
330
C5
100
AcDbEntity
  8
Ebene 1
 62
     7
420
 16777215
370
    35
100
AcDbVertex
100
AcDb2dVertex
 10
217.650543652139
 20
-38.94261416678142
 30
0.0
  0
VERTEX
  5
10C
330
C5
100
AcDbEntity
  8
Ebene 1
 62
     7
420
 16777215
370
    35
100
AcDbVertex
100
AcDb2dVertex
 10
217.578710788808
 20
-39.12527063326338
 30
0.0
  0
VERTEX
  5
10D
330
C5
100
AcDbEntity
  8
Ebene 1
 62
     7
420
 16777215
370
    35
100
AcDbVertex
100
AcDb2dVertex
 10
217.5068810975314
 20
-39.30790580283227
 30
0.0
  0
VERTEX
  5
10E
330
C5
100
AcDbEntity
  8
Ebene 1
 62
     7
420
 16777215
370
    35
100
AcDbVertex
100
AcDb2dVertex
 10
217.3901830339878
 20
-39.69210389840066
 30
0.0
  0
VERTEX
  5
10F
330
C5
100
AcDbEntity
  8
Ebene 1
 62
     7
420
 16777215
370
    35
100
AcDbVertex
100
AcDb2dVertex
 10
217.2734668455856
 20
-40.07627752500127
 30
0.0
  0
VERTEX
  5
110
330
C5
100
AcDbEntity
  8
Ebene 1
 62
     7
420
 16777215
370
    35
100
AcDbVertex
100
AcDb2dVertex
 10
217.18586353693
 20
-40.46478735073455
 30
0.0
  0
VERTEX
  5
111
330
C5
100
AcDbEntity
  8
Ebene 1
 62
     7
420
 16777215
370
    35
100
AcDbVertex
100
AcDb2dVertex
 10
217.1128667383742
 20
-40.85549450308367
 30
0.0
  0
VERTEX
  5
112
330
C5
100
AcDbEntity
  8
Ebene 1
 62
     7
420
 16777215
370
    35
100
AcDbVertex
100
AcDb2dVertex
 10
217.0543550125522
 20
-41.2483373558936
 30
0.0
  0
VERTEX
  5
113
330
C5
100
AcDbEntity
  8
Ebene 1
 62
     7
420
 16777215
370
    35
100
AcDbVertex
100
AcDb2dVertex
 10
216.9958432867296
 20
-41.64118020870482
 30
0.0
  0
VERTEX
  5
114
330
C5
100
AcDbEntity
  8
Ebene 1
 62
     7
420
 16777215
370
    35
100
AcDbVertex
100
AcDb2dVertex
 10
216.9685896572785
 20
-42.02381029717624
 30
0.0
  0
VERTEX
  5
115
330
C5
100
AcDbEntity
  8
Ebene 1
 62
     7
420
 16777215
370
    35
100
AcDbVertex
100
AcDb2dVertex
 10
216.953733430563
 20
-42.42317715957184
 30
0.0
  0
VERTEX
  5
116
330
C5
100
AcDbEntity
  8
Ebene 1
 62
     7
420
 16777215
370
    35
100
AcDbVertex
100
AcDb2dVertex
 10
216.9555926808592
 20
-42.8101434471759
 30
0.0
  0
VERTEX
  5
117
330
C5
100
AcDbEntity
  8
Ebene 1
 62
     7
420
 16777215
370
    35
100
AcDbVertex
100
AcDb2dVertex
 10
216.9698099121186
 20
-43.21381886768135
 30
0.0
  0
VERTEX
  5
118
330
C5
100
AcDbEntity
  8
Ebene 1
 62
     7
420
 16777215
370
    35
100
AcDbVertex
100
AcDb2dVertex
 10
216.986214953831
 20
-43.60295166882407
 30
0.0
  0
VERTEX
  5
119
330
C5
100
AcDbEntity
  8
Ebene 1
 62
     7
420
 16777215
370
    35
100
AcDbVertex
100
AcDb2dVertex
 10
217.0338780919156
 20
-43.98187170562699
 30
0.0
  0
VERTEX
  5
11A
330
C5
100
AcDbEntity
  8
Ebene 1
 62
     7
420
 16777215
370
    35
100
AcDbVertex
100
AcDb2dVertex
 10
217.0939205078764
 20
-44.37750404738664
 30
0.0
  0
VERTEX
  5
11B
330
C5
100
AcDbEntity
  8
Ebene 1
 62
     7
420
 16777215
370
    35
100
AcDbVertex
100
AcDb2dVertex
 10
217.1561507342896
 20
-44.75859376978549
 30
0.0
  0
VERTEX
  5
11C
330
C5
100
AcDbEntity
  8
Ebene 1
 62
     7
420
 16777215
370
    35
100
AcDbVertex
100
AcDb2dVertex
 10
217.235093265657
 20
-45.12730421430557
 30
0.0
  0
VERTEX
  5
11D
330
C5
100
AcDbEntity
  8
Ebene 1
 62
     7
420
 16777215
370
    35
100
AcDbVertex
100
AcDb2dVertex
 10
217.3408938035269
 20
-45.51490525806673
 30
0.0
  0
VERTEX
  5
11E
330
C5
100
AcDbEntity
  8
Ebene 1
 62
     7
420
 16777215
370
    35
100
AcDbVertex
100
AcDb2dVertex
 10
217.3127227834131
 20
-45.70404314030853
 30
0.0
  0
VERTEX
  5
11F
330
C5
100
AcDbEntity
  8
Ebene 1
 62
     7
420
 16777215
370
    35
100
AcDbVertex
100
AcDb2dVertex
 10
217.2845485912436
 20
-45.89320231946116
 30
0.0
  0
VERTEX
  5
120
330
C5
100
AcDbEntity
  8
Ebene 1
 62
     7
420
 16777215
370
    35
100
AcDbVertex
100
AcDb2dVertex
 10
217.2418956704509
 20
-46.08018320432814
 30
0.0
  0
VERTEX
  5
121
330
C5
100
AcDbEntity
  8
Ebene 1
 62
     7
420
 16777215
370
    35
100
AcDbVertex
100
AcDb2dVertex
 10
217.2115549647434
 20
-46.28388817489851
 30
0.0
  0
VERTEX
  5
122
330
C5
100
AcDbEntity
  8
Ebene 1
 62
     7
420
 16777215
370
    35
100
AcDbVertex
100
AcDb2dVertex
 10
217.1487070397878
 20
-46.70584390745444
 30
0.0
  0
VERTEX
  5
123
330
C5
100
AcDbEntity
  8
Ebene 1
 62
     7
420
 16777215
370
    35
100
AcDbVertex
100
AcDb2dVertex
 10
217.0836926012941
 20
-47.14234543142845
 30
0.0
  0
VERTEX
  5
124
330
C5
100
AcDbEntity
  8
Ebene 1
 62
     7
420
 16777215
370
    35
100
AcDbVertex
100
AcDb2dVertex
 10
217.0186781627992
 20
-47.57884695540085
 30
0.0
  0
VERTEX
  5
125
330
C5
100
AcDbEntity
  8
Ebene 1
 62
     7
420
 16777215
370
    35
100
AcDbVertex
100
AcDb2dVertex
 10
216.9703121385231
 20
-48.00295968533129
 30
0.0
  0
VERTEX
  5
126
330
C5
100
AcDbEntity
  8
Ebene 1
 62
     7
420
 16777215
370
    35
100
AcDbVertex
100
AcDb2dVertex
 10
216.9343892828624
 20
-48.4437942363826
 30
0.0
  0
VERTEX
  5
127
330
C5
100
AcDbEntity
  8
Ebene 1
 62
     7
420
 16777215
370
    35
100
AcDbVertex
100
AcDb2dVertex
 10
216.9185304778319
 20
-48.64965620432653
 30
0.0
  0
VERTEX
  5
128
330
C5
100
AcDbEntity
  8
Ebene 1
 62
     7
420
 16777215
370
    35
100
AcDbVertex
100
AcDb2dVertex
 10
216.9151180134737
 20
-48.87221869647729
 30
0.0
  0
VERTEX
  5
129
330
C5
100
AcDbEntity
  8
Ebene 1
 62
     7
420
 16777215
370
    35
100
AcDbVertex
100
AcDb2dVertex
 10
216.9138688905985
 20
-49.08025669412497
 30
0.0
  0
VERTEX
  5
12A
330
C5
100
AcDbEntity
  8
Ebene 1
 62
     7
420
 16777215
370
    35
100
AcDbVertex
100
AcDb2dVertex
 10
216.9147862812625
 20
-49.27374890035618
 30
0.0
  0
VERTEX
  5
12B
330
C5
100
AcDbEntity
  8
Ebene 1
 62
     7
420
 16777215
370
    35
100
AcDbVertex
100
AcDb2dVertex
 10
216.9302739323102
 20
-49.46938949526802
 30
0.0
  0
VERTEX
  5
12C
330
C5
100
AcDbEntity
  8
Ebene 1
 62
     7
420
 16777215
370
    35
100
AcDbVertex
100
AcDb2dVertex
 10
216.9457584113041
 20
-49.66505138709388
 30
0.0
  0
VERTEX
  5
12D
330
C5
100
AcDbEntity
  8
Ebene 1
 62
     7
420
 16777215
370
    35
100
AcDbVertex
100
AcDb2dVertex
 10
216.9634125758911
 20
-49.84614619058893
 30
0.0
  0
VERTEX
  5
12E
330
C5
100
AcDbEntity
  8
Ebene 1
 62
     7
420
 16777215
370
    35
100
AcDbVertex
100
AcDb2dVertex
 10
216.9956125318936
 20
-50.02940750762358
 30
0.0
  0
VERTEX
  5
12F
330
C5
100
AcDbEntity
  8
Ebene 1
 62
     7
420
 16777215
370
    35
100
AcDbVertex
100
AcDb2dVertex
 10
217.0299758293816
 20
-50.19814433015323
 30
0.0
  0
VERTEX
  5
130
330
C5
100
AcDbEntity
  8
Ebene 1
 62
     7
420
 16777215
370
    35
100
AcDbVertex
100
AcDb2dVertex
 10
217.0810333069664
 20
-50.35447740583794
 30
0.0
  0
VERTEX
  5
131
330
C5
100
AcDbEntity
  8
Ebene 1
 62
     7
420
 16777215
370
    35
100
AcDbVertex
100
AcDb2dVertex
 10
217.1466610449347
 20
-50.51295887020455
 30
0.0
  0
VERTEX
  5
132
330
C5
100
AcDbEntity
  8
Ebene 1
 62
     7
420
 16777215
370
    35
100
AcDbVertex
100
AcDb2dVertex
 10
217.2166186379267
 20
-50.64237004865032
 30
0.0
  0
VERTEX
  5
133
330
C5
100
AcDbEntity
  8
Ebene 1
 62
     7
420
 16777215
370
    35
100
AcDbVertex
100
AcDb2dVertex
 10
217.2843884204669
 20
-50.78632384645753
 30
0.0
  0
VERTEX
  5
134
330
C5
100
AcDbEntity
  8
Ebene 1
 62
     7
420
 16777215
370
    35
100
AcDbVertex
100
AcDb2dVertex
 10
217.3710614904693
 20
-50.90333445011307
 30
0.0
  0
VERTEX
  5
135
330
C5
100
AcDbEntity
  8
Ebene 1
 62
     7
420
 16777215
370
    35
100
AcDbVertex
100
AcDb2dVertex
 10
217.4723016487997
 20
-51.02251473936165
 30
0.0
  0
VERTEX
  5
136
330
C5
100
AcDbEntity
  8
Ebene 1
 62
     7
420
 16777215
370
    35
100
AcDbVertex
100
AcDb2dVertex
 10
217.5902296431193
 20
-51.12933387559045
 30
0.0
  0
VERTEX
  5
137
330
C5
100
AcDbEntity
  8
Ebene 1
 62
     7
420
 16777215
370
    35
100
AcDbVertex
100
AcDb2dVertex
 10
217.7227278978231
 20
-51.23830140050019
 30
0.0
  0
VERTEX
  5
138
330
C5
100
AcDbEntity
  8
Ebene 1
 62
     7
420
 16777215
370
    35
100
AcDbVertex
100
AcDb2dVertex
 10
217.8719384574818
 20
-51.33488964753436
 30
0.0
  0
VERTEX
  5
139
330
C5
100
AcDbEntity
  8
Ebene 1
 62
     7
420
 16777215
370
    35
100
AcDbVertex
100
AcDb2dVertex
 10
275.0854859365327
 20
-68.80994099267606
 30
0.0
  0
VERTEX
  5
13A
330
C5
100
AcDbEntity
  8
Ebene 1
 62
     7
420
 16777215
370
    35
100
AcDbVertex
100
AcDb2dVertex
 10
309.9240292573437
 20
-79.44237698079516
 30
0.0
  0
VERTEX
  5
13B
330
C5
100
AcDbEntity
  8
Ebene 1
 62
     7
420
 16777215
370
    35
100
AcDbVertex
100
AcDb2dVertex
 10
315.6565192655323
 20
-80.2961990148213
 30
0.0
  0
VERTEX
  5
13C
330
C5
100
AcDbEntity
  8
Ebene 1
 62
     7
420
 16777215
370
    35
100
AcDbVertex
100
AcDb2dVertex
 10
335.5020261260328
 20
-83.25207525877491
 30
0.0
  0
VERTEX
  5
13D
330
C5
100
AcDbEntity
  8
Ebene 1
 62
     7
420
 16777215
370
    35
100
AcDbVertex
100
AcDb2dVertex
 10
372.5581508193229
 20
-83.23764495950164
 30
0.0
  0
SEQEND
  5
13E
330
C5
100
AcDbEntity
  8
Ebene 1
 62
     7
420
 16777215
370
    35
  0
ENDBLK
  5
BD
330
BA
100
AcDbEntity
  8
0
100
AcDbBlockEnd
  0
BLOCK
  5
141
330
13F
100
AcDbEntity
  8
0
100
AcDbBlockBegin
  2
block 3
 70
     0
 10
0.0
 20
0.0
 30
0.0
  3
block 3
  1

  0
POLYLINE
  5
143
330
13F
100
AcDbEntity
  8
Ebene 1
 62
     7
420
 16777215
370
    35
100
AcDb2dPolyline
 66
     1
 10
0.0
 20
0.0
 30
0.0
  0
VERTEX
  5
144
330
143
100
AcDbEntity
  8
Ebene 1
 62
     7
420
 16777215
370
    35
100
AcDbVertex
100
AcDb2dVertex
 10
351.798626848961
 20
-39.77889836980095
 30
0.0
  0
VERTEX
  5
145
330
143
100
AcDbEntity
  8
Ebene 1
 62
     7
420
 16777215
370
    35
100
AcDbVertex
100
AcDb2dVertex
 10
357.7986268473903
 20
-39.77889837305886
 30
0.0
  0
VERTEX
  5
146
330
143
100
AcDbEntity
  8
Ebene 1
 62
     7
420
 16777215
370
    35
100
AcDbVertex
100
AcDb2dVertex
 10
357.7986268474397
 20
-33.77889838252242
 30
0.0
  0
VERTEX
  5
147
330
143
100
AcDbEntity
  8
Ebene 1
 62
     7
420
 16777215
370
    35
100
AcDbVertex
100
AcDb2dVertex
 10
351.7986268488724
 20
-33.77889838573477
 30
0.0
  0
VERTEX
  5
148
330
143
100
AcDbEntity
  8
Ebene 1
 62
     7
420
 16777215
370
    35
100
AcDbVertex
100
AcDb2dVertex
 10
351.798626848961
 20
-39.77889836980095
 30
0.0
  0
SEQEND
  5
149
330
143
100
AcDbEntity
  8
Ebene 1
 62
     7
420
 16777215
370
    35
  0
SPLINE
  5
14A
330
13F
100
AcDbEntity
  8
Ebene 1
 62
     7
420
 16777215
370
    35
100
AcDbSpline
210
0.0
220
0.0
230
1.0
 70
    11
 71
     3
 72
    17
 73
    13
 74
     0
 42
0.0000000001
 43
0.0000000001
 12
1.0
 22
0.0
 32
0.0
 13
1.0
 23
0.0
 33
0.0
 40
0.0
 40
0.0
 40
0.0
 40
0.0
 40
1.0
 40
1.0
 40
1.0
 40
2.0
 40
2.0
 40
2.0
 40
3.0
 40
3.0
 40
3.0
 40
4.0
 40
4.0
 40
4.0
 40
4.0
 10
361.2551919176271
 20
-36.77889884374179
 30
0.0
 10
361.2551919176271
 20
-40.344760736819
 30
0.0
 10
358.3644897024818
 20
-43.23546295196436
 30
0.0
 10
354.7986278094043
 20
-43.23546295196436
 30
0.0
 10
351.232765916328
 20
-43.23546295196436
 30
0.0
 10
348.3420637011814
 20
-40.344760736819
 30
0.0
 10
348.3420637011814
 20
-36.77889884374179
 30
0.0
 10
348.3420637011814
 20
-33.21303695066458
 30
0.0
 10
351.232765916328
 20
-30.32233473551922
 30
0.0
 10
354.7986278094043
 20
-30.32233473551922
 30
0.0
 10
358.3644897024818
 20
-30.32233473551922
 30
0.0
 10
361.2551919176271
 20
-33.21303695066458
 30
0.0
 10
361.2551919176271
 20
-36.77889884374179
 30
0.0
  0
ENDBLK
  5
142
330
13F
100
AcDbEntity
  8
0
100
AcDbBlockEnd
  0
BLOCK
  5
14D
330
14B
100
AcDbEntity
  8
0
100
AcDbBlockBegin
  2
block 4
 70
     0
 10
0.0
 20
0.0
 30
0.0
  3
block 4
  1

  0
POLYLINE
  5
14F
330
14B
100
AcDbEntity
  8
Ebene 1
 62
     7
420
 16777215
370
    35
100
AcDb2dPolyline
 66
     1
 10
0.0
 20
0.0
 30
0.0
  0
VERTEX
  5
150
330
14F
100
AcDbEntity
  8
Ebene 1
 62
     7
420
 16777215
370
    35
100
AcDbVertex
100
AcDb2dVertex
 10
495.3693624166405
 20
-77.60434433319723
 30
0.0
  0
VERTEX
  5
151
330
14F
100
AcDbEntity
  8
Ebene 1
 62
     7
420
 16777215
370
    35
100
AcDbVertex
100
AcDb2dVertex
 10
501.3693624150705
 20
-77.60434433645578
 30
0.0
  0
VERTEX
  5
152
330
14F
100
AcDbEntity
  8
Ebene 1
 62
     7
420
 16777215
370
    35
100
AcDbVertex
100
AcDb2dVertex
 10
501.3693624151199
 20
-71.60434434591903
 30
0.0
  0
VERTEX
  5
153
330
14F
100
AcDbEntity
  8
Ebene 1
 62
     7
420
 16777215
370
    35
100
AcDbVertex
100
AcDb2dVertex
 10
495.369362416552
 20
-71.6043443491317
 30
0.0
  0
VERTEX
  5
154
330
14F
100
AcDbEntity
  8
Ebene 1
 62
     7
420
 16777215
370
    35
100
AcDbVertex
100
AcDb2dVertex
 10
495.3693624166405
 20
-77.60434433319723
 30
0.0
  0
SEQEND
  5
155
330
14F
100
AcDbEntity
  8
Ebene 1
 62
     7
420
 16777215
370
    35
  0
SPLINE
  5
156
330
14B
100
AcDbEntity
  8
Ebene 1
 62
     7
420
 16777215
370
    35
100
AcDbSpline
210
0.0
220
0.0
230
1.0
 70
    11
 71
     3
 72
    17
 73
    13
 74
     0
 42
0.0000000001
 43
0.0000000001
 12
1.0
 22
0.0
 32
0.0
 13
1.0
 23
0.0
 33
0.0
 40
0.0
 40
0.0
 40
0.0
 40
0.0
 40
1.0
 40
1.0
 40
1.0
 40
2.0
 40
2.0
 40
2.0
 40
3.0
 40
3.0
 40
3.0
 40
4.0
 40
4.0
 40
4.0
 40
4.0
 10
504.8259274853073
 20
-74.60434480713839
 30
0.0
 10
504.8259274853073
 20
-78.17020670021529
 30
0.0
 10
501.9352252701626
 20
-81.06090891536097
 30
0.0
 10
498.3693633770851
 20
-81.06090891536097
 30
0.0
 10
494.8035014840075
 20
-81.06090891536097
 30
0.0
 10
491.912799268859
 20
-78.17020670021529
 30
0.0
 10
491.912799268859
 20
-74.60434480713839
 30
0.0
 10
491.912799268859
 20
-71.0384829140615
 30
0.0
 10
494.8035014840075
 20
-68.14778069891582
 30
0.0
 10
498.3693633770851
 20
-68.14778069891582
 30
0.0
 10
501.9352252701626
 20
-68.14778069891582
 30
0.0
 10
504.8259274853073
 20
-71.0384829140615
 30
0.0
 10
504.8259274853073
 20
-74.60434480713839
 30
0.0
  0
ENDBLK
  5
14E
330
14B
100
AcDbEntity
  8
0
100
AcDbBlockEnd
  0
BLOCK
  5
159
330
157
100
AcDbEntity
  8
0
100
AcDbBlockBegin
  2
block 5
 70
     0
 10
0.0
 20
0.0
 30
0.0
  3
block 5
  1

  0
POLYLINE
  5
15B
330
157
100
AcDbEntity
  8
Ebene 1
 62
     7
420
 16777215
370
    35
100
AcDb2dPolyline
 66
     1
 10
0.0
 20
0.0
 30
0.0
  0
VERTEX
  5
15C
330
15B
100
AcDbEntity
  8
Ebene 1
 62
     7
420
 16777215
370
    35
100
AcDbVertex
100
AcDb2dVertex
 10
271.7588015648772
 20
-80.02734104111178
 30
0.0
  0
VERTEX
  5
15D
330
15B
100
AcDbEntity
  8
Ebene 1
 62
     7
420
 16777215
370
    35
100
AcDbVertex
100
AcDb2dVertex
 10
277.7588015633071
 20
-80.02734104436969
 30
0.0
  0
VERTEX
  5
15E
330
15B
100
AcDbEntity
  8
Ebene 1
 62
     7
420
 16777215
370
    35
100
AcDbVertex
100
AcDb2dVertex
 10
277.7588015633585
 20
-74.02734105383325
 30
0.0
  0
VERTEX
  5
15F
330
15B
100
AcDbEntity
  8
Ebene 1
 62
     7
420
 16777215
370
    35
100
AcDbVertex
100
AcDb2dVertex
 10
271.7588015647887
 20
-74.0273410570456
 30
0.0
  0
VERTEX
  5
160
330
15B
100
AcDbEntity
  8
Ebene 1
 62
     7
420
 16777215
370
    35
100
AcDbVertex
100
AcDb2dVertex
 10
271.7588015648772
 20
-80.02734104111178
 30
0.0
  0
SEQEND
  5
161
330
15B
100
AcDbEntity
  8
Ebene 1
 62
     7
420
 16777215
370
    35
  0
SPLINE
  5
162
330
157
100
AcDbEntity
  8
Ebene 1
 62
     7
420
 16777215
370
    35
100
AcDbSpline
210
0.0
220
0.0
230
1.0
 70
    11
 71
     3
 72
    17
 73
    13
 74
     0
 42
0.0000000001
 43
0.0000000001
 12
1.0
 22
0.0
 32
0.0
 13
1.0
 23
0.0
 33
0.0
 40
0.0
 40
0.0
 40
0.0
 40
0.0
 40
1.0
 40
1.0
 40
1.0
 40
2.0
 40
2.0
 40
2.0
 40
3.0
 40
3.0
 40
3.0
 40
4.0
 40
4.0
 40
4.0
 40
4.0
 10
280.3631954717259
 20
-77.02734104910148
 30
0.0
 10
280.3631954717259
 20
-80.12256228839328
 30
0.0
 10
277.8540228898725
 20
-82.63173487024706
 30
0.0
 10
274.7588016505807
 20
-82.63173487024706
 30
0.0
 10
271.6635804112889
 20
-82.63173487024706
 30
0.0
 10
269.1544078294348
 20
-80.12256228839328
 30
0.0
 10
269.1544078294348
 20
-77.02734104910148
 30
0.0
 10
269.1544078294348
 20
-73.93211980980968
 30
0.0
 10
271.6635804112889
 20
-71.4229472279559
 30
0.0
 10
274.7588016505807
 20
-71.4229472279559
 30
0.0
 10
277.8540228898725
 20
-71.4229472279559
 30
0.0
 10
280.3631954717259
 20
-73.93211980980968
 30
0.0
 10
280.3631954717259
 20
-77.02734104910148
 30
0.0
  0
ENDBLK
  5
15A
330
157
100
AcDbEntity
  8
0
100
AcDbBlockEnd
  0
BLOCK
  5
165
330
163
100
AcDbEntity
  8
0
100
AcDbBlockBegin
  2
block 6
 70
     0
 10
0.0
 20
0.0
 30
0.0
  3
block 6
  1

  0
POLYLINE
  5
167
330
163
100
AcDbEntity
  8
Ebene 1
 62
     7
420
 16777215
370
    35
100
AcDb2dPolyline
 66
     1
 10
0.0
 20
0.0
 30
0.0
  0
VERTEX
  5
168
330
167
100
AcDbEntity
  8
Ebene 1
 62
     7
420
 16777215
370
    35
100
AcDbVertex
100
AcDb2dVertex
 10
392.3410042402683
 20
-44.18470274032542
 30
0.0
  0
VERTEX
  5
169
330
167
100
AcDbEntity
  8
Ebene 1
 62
     7
420
 16777215
370
    35
100
AcDbVertex
100
AcDb2dVertex
 10
397.0336549281142
 20
-44.25825283745466
 30
0.0
  0
VERTEX
  5
16A
330
167
100
AcDbEntity
  8
Ebene 1
 62
     7
420
 16777215
370
    35
100
AcDbVertex
100
AcDb2dVertex
 10
397.0777844480955
 20
-40.94850418603583
 30
0.0
  0
VERTEX
  5
16B
330
167
100
AcDbEntity
  8
Ebene 1
 62
     7
420
 16777215
370
    35
100
AcDbVertex
100
AcDb2dVertex
 10
392.3851337602496
 20
-40.88966404104542
 30
0.0
  0
VERTEX
  5
16C
330
167
100
AcDbEntity
  8
Ebene 1
 62
     7
420
 16777215
370
    35
100
AcDbVertex
100
AcDb2dVertex
 10
392.3410042402683
 20
-44.18470274032542
 30
0.0
  0
SEQEND
  5
16D
330
167
100
AcDbEntity
  8
Ebene 1
 62
     7
420
 16777215
370
    35
  0
POLYLINE
  5
16E
330
163
100
AcDbEntity
  8
Ebene 1
 62
     7
420
 16777215
370
    35
100
AcDb2dPolyline
 66
     1
 10
0.0
 20
0.0
 30
0.0
  0
VERTEX
  5
16F
330
16E
100
AcDbEntity
  8
Ebene 1
 62
     7
420
 16777215
370
    35
100
AcDbVertex
100
AcDb2dVertex
 10
399.0637043576061
 20
-42.5813129106668
 30
0.0
  0
VERTEX
  5
170
330
16E
100
AcDbEntity
  8
Ebene 1
 62
     7
420
 16777215
370
    35
100
AcDbVertex
100
AcDb2dVertex
 10
399.0342918549008
 20
-44.27296245315838
 30
0.0
  0
VERTEX
  5
171
330
16E
100
AcDbEntity
  8
Ebene 1
 62
     7
420
 16777215
370
    35
100
AcDbVertex
100
AcDb2dVertex
 10
403.7269425427468
 20
-44.34651255028761
 30
0.0
  0
VERTEX
  5
172
330
16E
100
AcDbEntity
  8
Ebene 1
 62
     7
420
 16777215
370
    35
100
AcDbVertex
100
AcDb2dVertex
 10
403.7710720627281
 20
-41.03676389886879
 30
0.0
  0
VERTEX
  5
173
330
16E
100
AcDbEntity
  8
Ebene 1
 62
     7
420
 16777215
370
    35
100
AcDbVertex
100
AcDb2dVertex
 10
400.6818710899897
 20
-41.00734534033156
 30
0.0
  0
SEQEND
  5
174
330
16E
100
AcDbEntity
  8
Ebene 1
 62
     7
420
 16777215
370
    35
  0
POLYLINE
  5
175
330
163
100
AcDbEntity
  8
Ebene 1
 62
     7
420
 16777215
370
    35
100
AcDb2dPolyline
 66
     1
 10
0.0
 20
0.0
 30
0.0
  0
VERTEX
  5
176
330
175
100
AcDbEntity
  8
Ebene 1
 62
     7
420
 16777215
370
    35
100
AcDbVertex
100
AcDb2dVertex
 10
405.7275633206483
 20
-44.36122216599134
 30
0.0
  0
VERTEX
  5
177
330
175
100
AcDbEntity
  8
Ebene 1
 62
     7
420
 16777215
370
    35
100
AcDbVertex
100
AcDb2dVertex
 10
410.4349202598469
 20
-44.43477226312057
 30
0.0
  0
VERTEX
  5
178
330
175
100
AcDbEntity
  8
Ebene 1
 62
     7
420
 16777215
370
    35
100
AcDbVertex
100
AcDb2dVertex
 10
410.4790497798282
 20
-41.12502361170174
 30
0.0
  0
VERTEX
  5
179
330
175
100
AcDbEntity
  8
Ebene 1
 62
     7
420
 16777215
370
    35
100
AcDbVertex
100
AcDb2dVertex
 10
405.771687457668
 20
-41.06618413958154
 30
0.0
  0
VERTEX
  5
17A
330
175
100
AcDbEntity
  8
Ebene 1
 62
     7
420
 16777215
370
    35
100
AcDbVertex
100
AcDb2dVertex
 10
405.7275579376866
 20
-44.36122283886154
 30
0.0
  0
VERTEX
  5
17B
330
175
100
AcDbEntity
  8
Ebene 1
 62
     7
420
 16777215
370
    35
100
AcDbVertex
100
AcDb2dVertex
 10
405.7275633206483
 20
-44.36122216599134
 30
0.0
  0
SEQEND
  5
17C
330
175
100
AcDbEntity
  8
Ebene 1
 62
     7
420
 16777215
370
    35
  0
POLYLINE
  5
17D
330
163
100
AcDbEntity
  8
Ebene 1
 62
     7
420
 16777215
370
    35
100
AcDb2dPolyline
 66
     1
 10
0.0
 20
0.0
 30
0.0
  0
VERTEX
  5
17E
330
17D
100
AcDbEntity
  8
Ebene 1
 62
     7
420
 16777215
370
    35
100
AcDbVertex
100
AcDb2dVertex
 10
412.4355518036718
 20
-44.4494825516945
 30
0.0
  0
VERTEX
  5
17F
330
17D
100
AcDbEntity
  8
Ebene 1
 62
     7
420
 16777215
370
    35
100
AcDbVertex
100
AcDb2dVertex
 10
417.1282078744794
 20
-44.52303264882342
 30
0.0
  0
VERTEX
  5
180
330
17D
100
AcDbEntity
  8
Ebene 1
 62
     7
420
 16777215
370
    35
100
AcDbVertex
100
AcDb2dVertex
 10
417.1723373944608
 20
-41.21328399740491
 30
0.0
  0
VERTEX
  5
181
330
17D
100
AcDbEntity
  8
Ebene 1
 62
     7
420
 16777215
370
    35
100
AcDbVertex
100
AcDb2dVertex
 10
412.4796867066149
 20
-41.15444385241482
 30
0.0
  0
VERTEX
  5
182
330
17D
100
AcDbEntity
  8
Ebene 1
 62
     7
420
 16777215
370
    35
100
AcDbVertex
100
AcDb2dVertex
 10
412.4355518036718
 20
-44.4494825516945
 30
0.0
  0
SEQEND
  5
183
330
17D
100
AcDbEntity
  8
Ebene 1
 62
     7
420
 16777215
370
    35
  0
POLYLINE
  5
184
330
163
100
AcDbEntity
  8
Ebene 1
 62
     7
420
 16777215
370
    35
100
AcDb2dPolyline
 66
     1
 10
0.0
 20
0.0
 30
0.0
  0
VERTEX
  5
185
330
184
100
AcDbEntity
  8
Ebene 1
 62
     7
420
 16777215
370
    35
100
AcDbVertex
100
AcDb2dVertex
 10
422.0120882765652
 20
-41.28683342166394
 30
0.0
  0
VERTEX
  5
186
330
184
100
AcDbEntity
  8
Ebene 1
 62
     7
420
 16777215
370
    35
100
AcDbVertex
100
AcDb2dVertex
 10
419.172963555324
 20
-41.24270356524746
 30
0.0
  0
VERTEX
  5
187
330
184
100
AcDbEntity
  8
Ebene 1
 62
     7
420
 16777215
370
    35
100
AcDbVertex
100
AcDb2dVertex
 10
419.1288286523809
 20
-44.53774226452746
 30
0.0
  0
VERTEX
  5
188
330
184
100
AcDbEntity
  8
Ebene 1
 62
     7
420
 16777215
370
    35
100
AcDbVertex
100
AcDb2dVertex
 10
423.8214793402269
 20
-44.61129236165669
 30
0.0
  0
VERTEX
  5
189
330
184
100
AcDbEntity
  8
Ebene 1
 62
     7
420
 16777215
370
    35
100
AcDbVertex
100
AcDb2dVertex
 10
423.8362071234263
 20
-43.15500272625654
 30
0.0
  0
SEQEND
  5
18A
330
184
100
AcDbEntity
  8
Ebene 1
 62
     7
420
 16777215
370
    35
  0
POLYLINE
  5
18B
330
163
100
AcDbEntity
  8
Ebene 1
 62
     7
420
 16777215
370
    35
100
AcDb2dPolyline
 66
     1
 10
0.0
 20
0.0
 30
0.0
  0
VERTEX
  5
18C
330
18B
100
AcDbEntity
  8
Ebene 1
 62
     7
420
 16777215
370
    35
100
AcDbVertex
100
AcDb2dVertex
 10
425.8221108840518
 20
-44.62600197736042
 30
0.0
  0
VERTEX
  5
18D
330
18B
100
AcDbEntity
  8
Ebene 1
 62
     7
420
 16777215
370
    35
100
AcDbVertex
100
AcDb2dVertex
 10
430.5147615718978
 20
-44.69955207448965
 30
0.0
  0
VERTEX
  5
18E
330
18B
100
AcDbEntity
  8
Ebene 1
 62
     7
420
 16777215
370
    35
100
AcDbVertex
100
AcDb2dVertex
 10
430.5588910918792
 20
-41.38980342307114
 30
0.0
  0
VERTEX
  5
18F
330
18B
100
AcDbEntity
  8
Ebene 1
 62
     7
420
 16777215
370
    35
100
AcDbVertex
100
AcDb2dVertex
 10
425.8662404040332
 20
-41.33096361451552
 30
0.0
  0
VERTEX
  5
190
330
18B
100
AcDbEntity
  8
Ebene 1
 62
     7
420
 16777215
370
    35
100
AcDbVertex
100
AcDb2dVertex
 10
425.8221055010902
 20
-44.62600197736042
 30
0.0
  0
VERTEX
  5
191
330
18B
100
AcDbEntity
  8
Ebene 1
 62
     7
420
 16777215
370
    35
100
AcDbVertex
100
AcDb2dVertex
 10
425.8221108840518
 20
-44.62600197736042
 30
0.0
  0
SEQEND
  5
192
330
18B
100
AcDbEntity
  8
Ebene 1
 62
     7
420
 16777215
370
    35
  0
POLYLINE
  5
193
330
163
100
AcDbEntity
  8
Ebene 1
 62
     7
420
 16777215
370
    35
100
AcDb2dPolyline
 66
     1
 10
0.0
 20
0.0
 30
0.0
  0
VERTEX
  5
194
330
193
100
AcDbEntity
  8
Ebene 1
 62
     7
420
 16777215
370
    35
100
AcDbVertex
100
AcDb2dVertex
 10
423.8361963575023
 20
-43.15500306269165
 30
0.0
  0
VERTEX
  5
195
330
193
100
AcDbEntity
  8
Ebene 1
 62
     7
420
 16777215
370
    35
100
AcDbVertex
100
AcDb2dVertex
 10
422.0120936595269
 20
-41.28683375809904
 30
0.0
  0
SEQEND
  5
196
330
193
100
AcDbEntity
  8
Ebene 1
 62
     7
420
 16777215
370
    35
  0
POLYLINE
  5
197
330
163
100
AcDbEntity
  8
Ebene 1
 62
     7
420
 16777215
370
    35
100
AcDb2dPolyline
 66
     1
 10
0.0
 20
0.0
 30
0.0
  0
VERTEX
  5
198
330
197
100
AcDbEntity
  8
Ebene 1
 62
     7
420
 16777215
370
    35
100
AcDbVertex
100
AcDb2dVertex
 10
399.0637043576061
 20
-42.5813129106668
 30
0.0
  0
VERTEX
  5
199
330
197
100
AcDbEntity
  8
Ebene 1
 62
     7
420
 16777215
370
    35
100
AcDbVertex
100
AcDb2dVertex
 10
400.6818603240663
 20
-41.00734365815603
 30
0.0
  0
SEQEND
  5
19A
330
197
100
AcDbEntity
  8
Ebene 1
 62
     7
420
 16777215
370
    35
  0
SPLINE
  5
19B
330
163
100
AcDbEntity
  8
Ebene 1
 62
     7
420
 16777215
370
    35
100
AcDbSpline
210
0.0
220
0.0
230
1.0
 70
    11
 71
     3
 72
   188
 73
   184
 74
     0
 42
0.0000000001
 43
0.0000000001
 12
1.0
 22
0.0
 32
0.0
 13
1.0
 23
0.0
 33
0.0
 40
0.0
 40
0.0
 40
0.0
 40
0.0
 40
1.0
 40
1.0
 40
1.0
 40
2.0
 40
2.0
 40
2.0
 40
3.0
 40
3.0
 40
3.0
 40
4.0
 40
4.0
 40
4.0
 40
5.0
 40
5.0
 40
5.0
 40
6.0
 40
6.0
 40
6.0
 40
7.0
 40
7.0
 40
7.0
 40
8.0
 40
8.0
 40
8.0
 40
9.0
 40
9.0
 40
9.0
 40
10.0
 40
10.0
 40
10.0
 40
11.0
 40
11.0
 40
11.0
 40
12.0
 40
12.0
 40
12.0
 40
13.0
 40
13.0
 40
13.0
 40
14.0
 40
14.0
 40
14.0
 40
15.0
 40
15.0
 40
15.0
 40
16.0
 40
16.0
 40
16.0
 40
17.0
 40
17.0
 40
17.0
 40
18.0
 40
18.0
 40
18.0
 40
19.0
 40
19.0
 40
19.0
 40
20.0
 40
20.0
 40
20.0
 40
21.0
 40
21.0
 40
21.0
 40
22.0
 40
22.0
 40
22.0
 40
23.0
 40
23.0
 40
23.0
 40
24.0
 40
24.0
 40
24.0
 40
25.0
 40
25.0
 40
25.0
 40
26.0
 40
26.0
 40
26.0
 40
27.0
 40
27.0
 40
27.0
 40
28.0
 40
28.0
 40
28.0
 40
29.0
 40
29.0
 40
29.0
 40
30.0
 40
30.0
 40
30.0
 40
31.0
 40
31.0
 40
31.0
 40
32.0
 40
32.0
 40
32.0
 40
33.0
 40
33.0
 40
33.0
 40
34.0
 40
34.0
 40
34.0
 40
35.0
 40
35.0
 40
35.0
 40
36.0
 40
36.0
 40
36.0
 40
37.0
 40
37.0
 40
37.0
 40
38.0
 40
38.0
 40
38.0
 40
39.0
 40
39.0
 40
39.0
 40
40.0
 40
40.0
 40
40.0
 40
41.0
 40
41.0
 40
41.0
 40
42.0
 40
42.0
 40
42.0
 40
43.0
 40
43.0
 40
43.0
 40
44.0
 40
44.0
 40
44.0
 40
45.0
 40
45.0
 40
45.0
 40
46.0
 40
46.0
 40
46.0
 40
47.0
 40
47.0
 40
47.0
 40
48.0
 40
48.0
 40
48.0
 40
49.0
 40
49.0
 40
49.0
 40
50.0
 40
50.0
 40
50.0
 40
51.0
 40
51.0
 40
51.0
 40
52.0
 40
52.0
 40
52.0
 40
53.0
 40
53.0
 40
53.0
 40
54.0
 40
54.0
 40
54.0
 40
55.0
 40
55.0
 40
55.0
 40
56.0
 40
56.0
 40
56.0
 40
57.0
 40
57.0
 40
57.0
 40
58.0
 40
58.0
 40
58.0
 40
59.0
 40
59.0
 40
59.0
 40
60.0
 40
60.0
 40
60.0
 40
61.0
 40
61.0
 40
61.0
 40
61.0
 10
489.8222980546278
 20
-43.00207884031353
 30
0.0
 10
489.8222980546278
 20
-43.00207884031353
 30
0.0
 10
489.8222980546278
 20
-49.00207866927143
 30
0.0
 10
489.8222980546278
 20
-49.00207866927143
 30
0.0
 10
489.8222980546278
 20
-49.00207866927143
 30
0.0
 10
504.8910595797234
 20
-49.00207866927143
 30
0.0
 10
504.8910595797234
 20
-49.00207866927143
 30
0.0
 10
504.8910595797234
 20
-49.00207866927143
 30
0.0
 10
504.8910595797234
 20
-55.76146367056553
 30
0.0
 10
504.8910595797234
 20
-55.76146367056553
 30
0.0
 10
504.8910595797234
 20
-55.76146367056553
 30
0.0
 10
504.8910595797234
 20
-60.26273930420583
 30
0.0
 10
504.8910595797234
 20
-60.26273930420583
 30
0.0
 10
504.8910595797234
 20
-60.26273930420583
 30
0.0
 10
504.8469408256655
 20
-60.88055258394504
 30
0.0
 10
504.8469408256655
 20
-60.88055258394504
 30
0.0
 10
504.8469408256655
 20
-60.88055258394504
 30
0.0
 10
504.7586817857027
 20
-61.46895336097893
 30
0.0
 10
504.7586817857027
 20
-61.46895336097893
 30
0.0
 10
504.7586817857027
 20
-61.46895336097893
 30
0.0
 10
504.5821421739304
 20
-62.05735413801282
 30
0.0
 10
504.5821421739304
 20
-62.05735413801282
 30
0.0
 10
504.5821421739304
 20
-62.05735413801282
 30
0.0
 10
504.3467775567476
 20
-62.61634241234139
 30
0.0
 10
504.3467775567476
 20
-62.61634241234139
 30
0.0
 10
504.3467775567476
 20
-62.61634241234139
 30
0.0
 10
504.0525664023072
 20
-63.14589665211786
 30
0.0
 10
504.0525664023072
 20
-63.14589665211786
 30
0.0
 10
504.0525664023072
 20
-63.14589665211786
 30
0.0
 10
503.6995302424562
 20
-63.64603838918899
 30
0.0
 10
503.6995302424562
 20
-63.64603838918899
 30
0.0
 10
503.6995302424562
 20
-63.64603838918899
 30
0.0
 10
503.3023322648537
 20
-64.10203984035537
 30
0.0
 10
503.3023322648537
 20
-64.10203984035537
 30
0.0
 10
503.3023322648537
 20
-64.10203984035537
 30
0.0
 10
502.8463092818405
 20
-64.49921628611112
 30
0.0
 10
502.8463092818405
 20
-64.49921628611112
 30
0.0
 10
502.8463092818405
 20
-64.49921628611112
 30
0.0
 10
502.3608737961221
 20
-64.8522524459621
 30
0.0
 10
502.3608737961221
 20
-64.8522524459621
 30
0.0
 10
502.3608737961221
 20
-64.8522524459621
 30
0.0
 10
501.8165702412994
 20
-65.14644206855566
 30
0.0
 10
501.8165702412994
 20
-65.14644206855566
 30
0.0
 10
501.8165702412994
 20
-65.14644206855566
 30
0.0
 10
501.2575819669708
 20
-65.38180668573857
 30
0.0
 10
501.2575819669708
 20
-65.38180668573857
 30
0.0
 10
501.2575819669708
 20
-65.38180668573857
 30
0.0
 10
500.6838659094428
 20
-65.54361851431139
 30
0.0
 10
500.6838659094428
 20
-65.54361851431139
 30
0.0
 10
500.6838659094428
 20
-65.54361851431139
 30
0.0
 10
500.0807373492094
 20
-65.64658380562679
 30
0.0
 10
500.0807373492094
 20
-65.64658380562679
 30
0.0
 10
500.0807373492094
 20
-65.64658380562679
 30
0.0
 10
499.4775872571293
 20
-65.69072409153156
 30
0.0
 10
499.4775872571293
 20
-65.69072409153156
 30
0.0
 10
499.4775872571293
 20
-65.69072409153156
 30
0.0
 10
490.9160728075011
 20
-65.69072409153156
 30
0.0
 10
490.9160728075011
 20
-65.69072409153156
 30
0.0
 10
490.9160728075011
 20
-65.69072409153156
 30
0.0
 10
481.7955700835442
 20
-49.37733569500227
 30
0.0
 10
481.7955700835442
 20
-49.37733569500227
 30
0.0
 10
481.7955700835442
 20
-49.37733569500227
 30
0.0
 10
401.6086256930549
 20
-49.37733569500227
 30
0.0
 10
401.6086256930549
 20
-49.37733569500227
 30
0.0
 10
401.6086256930549
 20
-49.37733569500227
 30
0.0
 10
394.5034392324288
 20
-49.14197107781936
 30
0.0
 10
394.5034392324288
 20
-49.14197107781936
 30
0.0
 10
394.5034392324288
 20
-49.14197107781936
 30
0.0
 10
389.2812127729596
 20
-48.98015924924653
 30
0.0
 10
389.2812127729596
 20
-48.98015924924653
 30
0.0
 10
389.2812127729596
 20
-48.98015924924653
 30
0.0
 10
382.6614833298989
 20
-47.31794374130705
 30
0.0
 10
382.6614833298989
 20
-47.31794374130705
 30
0.0
 10
382.6614833298989
 20
-47.31794374130705
 30
0.0
 10
381.572919283947
 20
-46.25881372990733
 30
0.0
 10
381.572919283947
 20
-46.25881372990733
 30
0.0
 10
381.572919283947
 20
-46.25881372990733
 30
0.0
 10
380.3225218775756
 20
-43.47862167331071
 30
0.0
 10
380.3225218775756
 20
-43.47862167331071
 30
0.0
 10
379.6141025865743
 20
-43.39972898669849
 30
0.0
 10
378.903314792427
 20
-43.33989198448906
 30
0.0
 10
378.1970271542572
 20
-43.24310633320032
 30
0.0
 10
377.3295521110713
 20
-43.11008258377611
 30
0.0
 10
376.4642733162572
 20
-42.95550545572231
 30
0.0
 10
375.6101264862299
 20
-42.75278311826214
 30
0.0
 10
374.8816610458738
 20
-42.5939857482389
 30
0.0
 10
374.1678803250236
 20
-42.37823664347513
 30
0.0
 10
373.4588581423124
 20
-42.1491593255528
 30
0.0
 10
372.8300636207139
 20
-41.95715984779047
 30
0.0
 10
372.2164490510974
 20
-41.72185982614791
 30
0.0
 10
371.6083896979508
 20
-41.47273635887078
 30
0.0
 10
371.6083896979508
 20
-41.47273635887078
 30
0.0
 10
371.6083896979508
 20
-40.44469833422544
 30
0.0
 10
371.6083896979508
 20
-40.44469833422544
 30
0.0
 10
371.6083896979508
 20
-40.44469833422544
 30
0.0
 10
365.6083898689929
 20
-40.44469833422544
 30
0.0
 10
365.6083898689929
 20
-40.44469833422544
 30
0.0
 10
365.6083898689929
 20
-40.44469833422544
 30
0.0
 10
365.6083898689929
 20
-37.60934168617126
 30
0.0
 10
365.6083898689929
 20
-37.60934168617126
 30
0.0
 10
365.6083898689929
 20
-37.60934168617126
 30
0.0
 10
365.6083898689929
 20
-34.44469850526755
 30
0.0
 10
365.6083898689929
 20
-34.44469850526755
 30
0.0
 10
365.6083898689929
 20
-34.44469850526755
 30
0.0
 10
371.6083896979508
 20
-34.44469850526755
 30
0.0
 10
371.6083896979508
 20
-34.44469850526755
 30
0.0
 10
371.6083896979508
 20
-34.44469850526755
 30
0.0
 10
371.6083896979508
 20
-33.2817634605279
 30
0.0
 10
371.6083896979508
 20
-33.2817634605279
 30
0.0
 10
372.7166553837089
 20
-32.74467307437745
 30
0.0
 10
373.8467543621047
 20
-32.2543067957457
 30
0.0
 10
374.9914519326193
 20
-31.80030780633012
 30
0.0
 10
375.840215800951
 20
-31.44981240439951
 30
0.0
 10
376.7158514140676
 20
-31.17069507455393
 30
0.0
 10
377.5827881610839
 20
-30.86965832468344
 30
0.0
 10
378.4870180667281
 20
-30.58567479746494
 30
0.0
 10
379.3979659085685
 20
-30.31762483686572
 30
0.0
 10
380.3225218775756
 20
-30.10747401226548
 30
0.0
 10
380.3225218775756
 20
-30.10747401226548
 30
0.0
 10
390.8846678710289
 20
-28.09491382532287
 30
0.0
 10
390.8846678710289
 20
-28.09491382532287
 30
0.0
 10
390.8846678710289
 20
-28.09491382532287
 30
0.0
 10
390.8846678710289
 20
-34.09491365428077
 30
0.0
 10
390.8846678710289
 20
-34.09491365428077
 30
0.0
 10
390.8846678710289
 20
-34.09491365428077
 30
0.0
 10
397.2734251936504
 20
-34.09491365428077
 30
0.0
 10
397.2734251936504
 20
-34.09491365428077
 30
0.0
 10
397.2734251936504
 20
-34.09491365428077
 30
0.0
 10
397.2734251936504
 20
-28.1006412965671
 30
0.0
 10
397.2734251936504
 20
-28.1006412965671
 30
0.0
 10
404.8641332673821
 20
-28.1074022964569
 30
0.0
 10
417.4760249471718
 20
-28.1184266020097
 30
0.0
 10
425.2734172181717
 20
-28.12413254140715
 30
0.0
 10
425.2734172181717
 20
-28.12413254140715
 30
0.0
 10
425.2734172181717
 20
-34.12783584801169
 30
0.0
 10
425.2734172181717
 20
-34.12783584801169
 30
0.0
 10
425.2734172181717
 20
-34.12783584801169
 30
0.0
 10
431.6621745407932
 20
-34.12783584801169
 30
0.0
 10
431.6621745407932
 20
-34.12783584801169
 30
0.0
 10
431.6621745407932
 20
-34.12783584801169
 30
0.0
 10
431.6621745407932
 20
-28.12783601905379
 30
0.0
 10
431.6621745407932
 20
-28.12783601905379
 30
0.0
 10
431.6621745407932
 20
-28.12783601905379
 30
0.0
 10
486.5398326081285
 20
-39.5368080146282
 30
0.0
 10
486.5398326081285
 20
-39.5368080146282
 30
0.0
 10
486.5398326081285
 20
-39.5368080146282
 30
0.0
 10
491.4015298250663
 20
-39.5368080146282
 30
0.0
 10
491.4015298250663
 20
-39.5368080146282
 30
0.0
 10
491.4015298250663
 20
-39.5368080146282
 30
0.0
 10
491.4015513569131
 20
-40.27229283703547
 30
0.0
 10
491.4015513569131
 20
-40.27229283703547
 30
0.0
 10
491.4015513569131
 20
-40.27229283703547
 30
0.0
 10
491.4309638596184
 20
-40.69890331734332
 30
0.0
 10
491.4309638596184
 20
-40.69890331734332
 30
0.0
 10
491.4309638596184
 20
-40.69890331734332
 30
0.0
 10
491.5339291509338
 20
-41.11076448260494
 30
0.0
 10
491.5339291509338
 20
-41.11076448260494
 30
0.0
 10
491.5339291509338
 20
-41.11076448260494
 30
0.0
 10
491.6957409795066
 20
-41.50794092836068
 30
0.0
 10
491.6957409795066
 20
-41.50794092836068
 30
0.0
 10
491.6957409795066
 20
-41.50794092836068
 30
0.0
 10
491.9163993453369
 20
-41.86097708821165
 30
0.0
 10
491.9163993453369
 20
-41.86097708821165
 30
0.0
 10
491.9163993453369
 20
-41.86097708821165
 30
0.0
 10
492.1811979970719
 20
-42.18460074535731
 30
0.0
 10
492.1811979970719
 20
-42.18460074535731
 30
0.0
 10
492.1811979970719
 20
-42.18460074535731
 30
0.0
 10
492.5048216542176
 20
-42.4640841165982
 30
0.0
 10
492.5048216542176
 20
-42.4640841165982
 30
0.0
 10
492.5048216542176
 20
-42.4640841165982
 30
0.0
 10
492.872585597268
 20
-42.69944873378111
 30
0.0
 10
492.872585597268
 20
-42.69944873378111
 30
0.0
 10
492.872585597268
 20
-42.69944873378111
 30
0.0
 10
493.2550557916711
 20
-42.86126056235394
 30
0.0
 10
493.2550557916711
 20
-42.86126056235394
 30
0.0
 10
493.2550557916711
 20
-42.86126056235394
 30
0.0
 10
493.6669600206263
 20
-42.96422585366935
 30
0.0
 10
493.6669600206263
 20
-42.96422585366935
 30
0.0
 10
493.6669600206263
 20
-42.96422585366935
 30
0.0
 10
494.0327860974662
 20
-43.00207884031353
 30
0.0
 10
494.0327860974662
 20
-43.00207884031353
 30
0.0
 10
494.0327860974662
 20
-43.00207884031353
 30
0.0
 10
489.8222980546278
 20
-43.00207884031353
 30
0.0
 10
489.8222980546278
 20
-43.00207884031353
 30
0.0
  0
ENDBLK
  5
166
330
163
100
AcDbEntity
  8
0
100
AcDbBlockEnd
  0
ENDSEC
  0
SECTION
  2
ENTITIES
  0
POLYLINE
  5
42
330
1F
100
AcDbEntity
  8
Ebene 1
 62
     7
420
 16777215
370
    35
100
AcDb2dPolyline
 66
     1
 10
0.0
 20
0.0
 30
0.0
  0
VERTEX
  5
43
330
42
100
AcDbEntity
  8
Ebene 1
 62
     7
420
 16777215
370
    35
100
AcDbVertex
100
AcDb2dVertex
 10
485.0571561731984
 20
-82.34288678363639
 30
0.0
  0
VERTEX
  5
44
330
42
100
AcDbEntity
  8
Ebene 1
 62
     7
420
 16777215
370
    35
100
AcDbVertex
100
AcDb2dVertex
 10
488.8015945613478
 20
-82.89347399680562
 30
0.0
  0
VERTEX
  5
45
330
42
100
AcDbEntity
  8
Ebene 1
 62
     7
420
 16777215
370
    35
100
AcDbVertex
100
AcDb2dVertex
 10
488.8016150927185
 20
-82.89348048396934
 30
0.0
  0
VERTEX
  5
46
330
42
100
AcDbEntity
  8
Ebene 1
 62
     7
420
 16777215
370
    35
100
AcDbVertex
100
AcDb2dVertex
 10
488.9692005331272
 20
-82.90016273573953
 30
0.0
  0
VERTEX
  5
47
330
42
100
AcDbEntity
  8
Ebene 1
 62
     7
420
 16777215
370
    35
100
AcDbVertex
100
AcDb2dVertex
 10
489.1220388061659
 20
-82.8558942150961
 30
0.0
  0
VERTEX
  5
48
330
42
100
AcDbEntity
  8
Ebene 1
 62
     7
420
 16777215
370
    35
100
AcDbVertex
100
AcDb2dVertex
 10
489.2460864549114
 20
-82.7562377026834
 30
0.0
  0
VERTEX
  5
49
330
42
100
AcDbEntity
  8
Ebene 1
 62
     7
420
 16777215
370
    35
100
AcDbVertex
100
AcDb2dVertex
 10
489.3745648358441
 20
-82.64255826471683
 30
0.0
  0
VERTEX
  5
4A
330
42
100
AcDbEntity
  8
Ebene 1
 62
     7
420
 16777215
370
    35
100
AcDbVertex
100
AcDb2dVertex
 10
489.5938630218779
 20
-82.38787777949048
 30
0.0
  0
VERTEX
  5
4B
330
42
100
AcDbEntity
  8
Ebene 1
 62
     7
420
 16777215
370
    35
100
AcDbVertex
100
AcDb2dVertex
 10
489.779960382791
 20
-82.09183871521178
 30
0.0
  0
VERTEX
  5
4C
330
42
100
AcDbEntity
  8
Ebene 1
 62
     7
420
 16777215
370
    35
100
AcDbVertex
100
AcDb2dVertex
 10
489.9475975987997
 20
-81.8054123756659
 30
0.0
  0
VERTEX
  5
4D
330
42
100
AcDbEntity
  8
Ebene 1
 62
     7
420
 16777215
370
    35
100
AcDbVertex
100
AcDb2dVertex
 10
490.0960569152473
 20
-81.48205818925804
 30
0.0
  0
VERTEX
  5
4E
330
42
100
AcDbEntity
  8
Ebene 1
 62
     7
420
 16777215
370
    35
100
AcDbVertex
100
AcDb2dVertex
 10
490.2260420425776
 20
-81.1682897090503
 30
0.0
  0
VERTEX
  5
4F
330
42
100
AcDbEntity
  8
Ebene 1
 62
     7
420
 16777215
370
    35
100
AcDbVertex
100
AcDb2dVertex
 10
490.3368427831795
 20
-80.81761391335117
 30
0.0
  0
VERTEX
  5
50
330
42
100
AcDbEntity
  8
Ebene 1
 62
     7
420
 16777215
370
    35
100
AcDbVertex
100
AcDb2dVertex
 10
490.5443943203033
 20
-80.1118456339675
 30
0.0
  0
VERTEX
  5
51
330
42
100
AcDbEntity
  8
Ebene 1
 62
     7
420
 16777215
370
    35
100
AcDbVertex
100
AcDb2dVertex
 10
490.7468114147898
 20
-79.37358672707755
 30
0.0
  0
VERTEX
  5
52
330
42
100
AcDbEntity
  8
Ebene 1
 62
     7
420
 16777215
370
    35
100
AcDbVertex
100
AcDb2dVertex
 10
490.8339970364796
 20
-79.0000265414406
 30
0.0
  0
VERTEX
  5
53
330
42
100
AcDbEntity
  8
Ebene 1
 62
     7
420
 16777215
370
    35
100
AcDbVertex
100
AcDb2dVertex
 10
490.8310730506822
 20
-78.81396042475458
 30
0.0
  0
VERTEX
  5
54
330
42
100
AcDbEntity
  8
Ebene 1
 62
     7
420
 16777215
370
    35
100
AcDbVertex
100
AcDb2dVertex
 10
490.8096889199773
 20
-78.63750703280009
 30
0.0
  0
VERTEX
  5
55
330
42
100
AcDbEntity
  8
Ebene 1
 62
     7
420
 16777215
370
    35
100
AcDbVertex
100
AcDb2dVertex
 10
490.7373540168568
 20
-78.47580080821562
 30
0.0
  0
VERTEX
  5
56
330
42
100
AcDbEntity
  8
Ebene 1
 62
     7
420
 16777215
370
    35
100
AcDbVertex
100
AcDb2dVertex
 10
490.6281117982408
 20
-78.3332789703559
 30
0.0
  0
VERTEX
  5
57
330
42
100
AcDbEntity
  8
Ebene 1
 62
     7
420
 16777215
370
    35
100
AcDbVertex
100
AcDb2dVertex
 10
490.4775250447825
 20
-78.2239849761438
 30
0.0
  0
VERTEX
  5
58
330
42
100
AcDbEntity
  8
Ebene 1
 62
     7
420
 16777215
370
    35
100
AcDbVertex
100
AcDb2dVertex
 10
490.3040474142256
 20
-78.13832663221999
 30
0.0
  0
VERTEX
  5
59
330
42
100
AcDbEntity
  8
Ebene 1
 62
     7
420
 16777215
370
    35
100
AcDbVertex
100
AcDb2dVertex
 10
488.5226841787321
 20
-77.57548092629814
 30
0.0
  0
VERTEX
  5
5A
330
42
100
AcDbEntity
  8
Ebene 1
 62
     7
420
 16777215
370
    35
100
AcDbVertex
100
AcDb2dVertex
 10
488.6557356443282
 20
-76.56849385156268
 30
0.0
  0
VERTEX
  5
5B
330
42
100
AcDbEntity
  8
Ebene 1
 62
     7
420
 16777215
370
    35
100
AcDbVertex
100
AcDb2dVertex
 10
488.838178290467
 20
-76.03988916174406
 30
0.0
  0
VERTEX
  5
5C
330
42
100
AcDbEntity
  8
Ebene 1
 62
     7
420
 16777215
370
    35
100
AcDbVertex
100
AcDb2dVertex
 10
489.0162042486214
 20
-75.52533441601072
 30
0.0
  0
VERTEX
  5
5D
330
42
100
AcDbEntity
  8
Ebene 1
 62
     7
420
 16777215
370
    35
100
AcDbVertex
100
AcDb2dVertex
 10
489.1617125607377
 20
-75.01592815712372
 30
0.0
  0
VERTEX
  5
5E
330
42
100
AcDbEntity
  8
Ebene 1
 62
     7
420
 16777215
370
    35
100
AcDbVertex
100
AcDb2dVertex
 10
489.4151181590293
 20
-73.96978647301209
 30
0.0
  0
VERTEX
  5
5F
330
42
100
AcDbEntity
  8
Ebene 1
 62
     7
420
 16777215
370
    35
100
AcDbVertex
100
AcDb2dVertex
 10
489.6308586943176
 20
-72.89634371097884
 30
0.0
  0
VERTEX
  5
60
330
42
100
AcDbEntity
  8
Ebene 1
 62
     7
420
 16777215
370
    35
100
AcDbVertex
100
AcDb2dVertex
 10
489.7151203302068
 20
-72.33671740865586
 30
0.0
  0
VERTEX
  5
61
330
42
100
AcDbEntity
  8
Ebene 1
 62
     7
420
 16777215
370
    35
100
AcDbVertex
100
AcDb2dVertex
 10
489.757254926673
 20
-72.05692803244555
 30
0.0
  0
VERTEX
  5
62
330
42
100
AcDbEntity
  8
Ebene 1
 62
     7
420
 16777215
370
    35
100
AcDbVertex
100
AcDb2dVertex
 10
489.7713296278293
 20
-71.76825017331858
 30
0.0
  0
VERTEX
  5
63
330
42
100
AcDbEntity
  8
Ebene 1
 62
     7
420
 16777215
370
    35
100
AcDbVertex
100
AcDb2dVertex
 10
489.7691298838488
 20
-71.62870409685482
 30
0.0
  0
VERTEX
  5
64
330
42
100
AcDbEntity
  8
Ebene 1
 62
     7
420
 16777215
370
    35
100
AcDbVertex
100
AcDb2dVertex
 10
489.7300228243766
 20
-71.50834240711774
 30
0.0
  0
VERTEX
  5
65
330
42
100
AcDbEntity
  8
Ebene 1
 62
     7
420
 16777215
370
    35
100
AcDbVertex
100
AcDb2dVertex
 10
489.6768863521871
 20
-71.38357051655639
 30
0.0
  0
VERTEX
  5
66
330
42
100
AcDbEntity
  8
Ebene 1
 62
     7
420
 16777215
370
    35
100
AcDbVertex
100
AcDb2dVertex
 10
489.5824118323156
 20
-71.29200593827397
 30
0.0
  0
VERTEX
  5
67
330
42
100
AcDbEntity
  8
Ebene 1
 62
     7
420
 16777215
370
    35
100
AcDbVertex
100
AcDb2dVertex
 10
489.4738938555163
 20
-71.19600414063909
 30
0.0
  0
VERTEX
  5
68
330
42
100
AcDbEntity
  8
Ebene 1
 62
     7
420
 16777215
370
    35
100
AcDbVertex
100
AcDb2dVertex
 10
489.3609656779006
 20
-71.1140317557189
 30
0.0
  0
VERTEX
  5
69
330
42
100
AcDbEntity
  8
Ebene 1
 62
     7
420
 16777215
370
    35
100
AcDbVertex
100
AcDb2dVertex
 10
489.1121979141927
 20
-70.97371614900277
 30
0.0
  0
VERTEX
  5
6A
330
42
100
AcDbEntity
  8
Ebene 1
 62
     7
420
 16777215
370
    35
100
AcDbVertex
100
AcDb2dVertex
 10
463.2333539370337
 20
-59.1566741366404
 30
0.0
  0
VERTEX
  5
6B
330
42
100
AcDbEntity
  8
Ebene 1
 62
     7
420
 16777215
370
    35
100
AcDbVertex
100
AcDb2dVertex
 10
460.376439876212
 20
-68.19858672721328
 30
0.0
  0
VERTEX
  5
6C
330
42
100
AcDbEntity
  8
Ebene 1
 62
     7
420
 16777215
370
    35
100
AcDbVertex
100
AcDb2dVertex
 10
454.6552299697616
 20
-66.39089340315994
 30
0.0
  0
VERTEX
  5
6D
330
42
100
AcDbEntity
  8
Ebene 1
 62
     7
420
 16777215
370
    35
100
AcDbVertex
100
AcDb2dVertex
 10
457.5126889522563
 20
-57.34725617752643
 30
0.0
  0
VERTEX
  5
6E
330
42
100
AcDbEntity
  8
Ebene 1
 62
     7
420
 16777215
370
    35
100
AcDbVertex
100
AcDb2dVertex
 10
429.5276374784651
 20
-52.14717178557054
 30
0.0
  0
VERTEX
  5
6F
330
42
100
AcDbEntity
  8
Ebene 1
 62
     7
420
 16777215
370
    35
100
AcDbVertex
100
AcDb2dVertex
 10
429.392549152727
 20
-52.13533455979094
 30
0.0
  0
VERTEX
  5
70
330
42
100
AcDbEntity
  8
Ebene 1
 62
     7
420
 16777215
370
    35
100
AcDbVertex
100
AcDb2dVertex
 10
429.2434173700657
 20
-52.11906011465693
 30
0.0
  0
VERTEX
  5
71
330
42
100
AcDbEntity
  8
Ebene 1
 62
     7
420
 16777215
370
    35
100
AcDbVertex
100
AcDb2dVertex
 10
429.10389182497
 20
-52.12126634580117
 30
0.0
  0
VERTEX
  5
72
330
42
100
AcDbEntity
  8
Ebene 1
 62
     7
420
 16777215
370
    35
100
AcDbVertex
100
AcDb2dVertex
 10
429.0293194464763
 20
-52.11314965460333
 30
0.0
  0
VERTEX
  5
73
330
42
100
AcDbEntity
  8
Ebene 1
 62
     7
420
 16777215
370
    35
100
AcDbVertex
100
AcDb2dVertex
 10
428.9599150163165
 20
-52.1374890153362
 30
0.0
  0
VERTEX
  5
74
330
42
100
AcDbEntity
  8
Ebene 1
 62
     7
420
 16777215
370
    35
100
AcDbVertex
100
AcDb2dVertex
 10
428.8949413183446
 20
-52.14780545051521
 30
0.0
  0
VERTEX
  5
75
330
42
100
AcDbEntity
  8
Ebene 1
 62
     7
420
 16777215
370
    35
100
AcDbVertex
100
AcDb2dVertex
 10
428.8299676203765
 20
-52.15812188569293
 30
0.0
  0
VERTEX
  5
76
330
42
100
AcDbEntity
  8
Ebene 1
 62
     7
420
 16777215
370
    35
100
AcDbVertex
100
AcDb2dVertex
 10
428.7746001599771
 20
-52.18691899715113
 30
0.0
  0
VERTEX
  5
77
330
42
100
AcDbEntity
  8
Ebene 1
 62
     7
420
 16777215
370
    35
100
AcDbVertex
100
AcDb2dVertex
 10
428.7147814360162
 20
-52.22973254699853
 30
0.0
  0
VERTEX
  5
78
330
42
100
AcDbEntity
  8
Ebene 1
 62
     7
420
 16777215
370
    35
100
AcDbVertex
100
AcDb2dVertex
 10
428.6734433883335
 20
-52.26293985927651
 30
0.0
  0
VERTEX
  5
79
330
42
100
AcDbEntity
  8
Ebene 1
 62
     7
420
 16777215
370
    35
100
AcDbVertex
100
AcDb2dVertex
 10
428.6136451957431
 20
-52.30575989628955
 30
0.0
  0
VERTEX
  5
7A
330
42
100
AcDbEntity
  8
Ebene 1
 62
     7
420
 16777215
370
    35
100
AcDbVertex
100
AcDb2dVertex
 10
428.567869928706
 20
-52.35301066549168
 30
0.0
  0
VERTEX
  5
7B
330
42
100
AcDbEntity
  8
Ebene 1
 62
     7
420
 16777215
370
    35
100
AcDbVertex
100
AcDb2dVertex
 10
428.5316663236573
 20
-52.41870860527595
 30
0.0
  0
VERTEX
  5
7C
330
42
100
AcDbEntity
  8
Ebene 1
 62
     7
420
 16777215
370
    35
100
AcDbVertex
100
AcDb2dVertex
 10
428.4496874515747
 20
-52.53165731426458
 30
0.0
  0
VERTEX
  5
7D
330
42
100
AcDbEntity
  8
Ebene 1
 62
     7
420
 16777215
370
    35
100
AcDbVertex
100
AcDb2dVertex
 10
428.3773213042287
 20
-52.66306616816053
 30
0.0
  0
VERTEX
  5
7E
330
42
100
AcDbEntity
  8
Ebene 1
 62
     7
420
 16777215
370
    35
100
AcDbVertex
100
AcDb2dVertex
 10
428.2510426672727
 20
-52.91629168259087
 30
0.0
  0
VERTEX
  5
7F
330
42
100
AcDbEntity
  8
Ebene 1
 62
     7
420
 16777215
370
    35
100
AcDbVertex
100
AcDb2dVertex
 10
428.1247434989506
 20
-53.16951070985877
 30
0.0
  0
VERTEX
  5
80
330
42
100
AcDbEntity
  8
Ebene 1
 62
     7
420
 16777215
370
    35
100
AcDbVertex
100
AcDb2dVertex
 10
428.0124942747112
 20
-53.42714642511144
 30
0.0
  0
VERTEX
  5
81
330
42
100
AcDbEntity
  8
Ebene 1
 62
     7
420
 16777215
370
    35
100
AcDbVertex
100
AcDb2dVertex
 10
427.8862156377558
 20
-53.68037193954177
 30
0.0
  0
VERTEX
  5
82
330
42
100
AcDbEntity
  8
Ebene 1
 62
     7
420
 16777215
370
    35
100
AcDbVertex
100
AcDb2dVertex
 10
427.7783906585473
 20
-53.92400526060958
 30
0.0
  0
VERTEX
  5
83
330
42
100
AcDbEntity
  8
Ebene 1
 62
     7
420
 16777215
370
    35
100
AcDbVertex
100
AcDb2dVertex
 10
427.5582959237339
 20
-54.42526780976729
 30
0.0
  0
VERTEX
  5
84
330
42
100
AcDbEntity
  8
Ebene 1
 62
     7
420
 16777215
370
    35
100
AcDbVertex
100
AcDb2dVertex
 10
427.3566548466601
 20
-54.9169381655628
 30
0.0
  0
VERTEX
  5
85
330
42
100
AcDbEntity
  8
Ebene 1
 62
     7
420
 16777215
370
    35
100
AcDbVertex
100
AcDb2dVertex
 10
427.1786288885058
 20
-55.43149291129581
 30
0.0
  0
VERTEX
  5
86
330
42
100
AcDbEntity
  8
Ebene 1
 62
     7
420
 16777215
370
    35
100
AcDbVertex
100
AcDb2dVertex
 10
427.0050747252798
 20
-55.93203770579916
 30
0.0
  0
VERTEX
  5
87
330
42
100
AcDbEntity
  8
Ebene 1
 62
     7
420
 16777215
370
    35
100
AcDbVertex
100
AcDb2dVertex
 10
426.9208648649905
 20
-56.19855541680575
 30
0.0
  0
VERTEX
  5
88
330
42
100
AcDbEntity
  8
Ebene 1
 62
     7
420
 16777215
370
    35
100
AcDbVertex
100
AcDb2dVertex
 10
426.8410922240518
 20
-56.4510296708869
 30
0.0
  0
VERTEX
  5
89
330
42
100
AcDbEntity
  8
Ebene 1
 62
     7
420
 16777215
370
    35
100
AcDbVertex
100
AcDb2dVertex
 10
426.7568823637594
 20
-56.71754738189156
 30
0.0
  0
VERTEX
  5
8A
330
42
100
AcDbEntity
  8
Ebene 1
 62
     7
420
 16777215
370
    35
100
AcDbVertex
100
AcDb2dVertex
 10
426.6866748976533
 20
-56.98848933792705
 30
0.0
  0
VERTEX
  5
8B
330
42
100
AcDbEntity
  8
Ebene 1
 62
     7
420
 16777215
370
    35
100
AcDbVertex
100
AcDb2dVertex
 10
426.6349481078249
 20
-57.2498250563912
 30
0.0
  0
VERTEX
  5
8C
330
42
100
AcDbEntity
  8
Ebene 1
 62
     7
420
 16777215
370
    35
100
AcDbVertex
100
AcDb2dVertex
 10
426.5647817044518
 20
-57.52077998675026
 30
0.0
  0
VERTEX
  5
8D
330
42
100
AcDbEntity
  8
Ebene 1
 62
     7
420
 16777215
370
    35
100
AcDbVertex
100
AcDb2dVertex
 10
426.2310010445078
 20
-57.89358468634269
 30
0.0
  0
VERTEX
  5
8E
330
42
100
AcDbEntity
  8
Ebene 1
 62
     7
420
 16777215
370
    35
100
AcDbVertex
100
AcDb2dVertex
 10
424.4356148834572
 20
-57.32630824823015
 30
0.0
  0
VERTEX
  5
8F
330
42
100
AcDbEntity
  8
Ebene 1
 62
     7
420
 16777215
370
    35
100
AcDbVertex
100
AcDb2dVertex
 10
424.3514567987647
 20
-57.2997173679165
 30
0.0
  0
VERTEX
  5
90
330
42
100
AcDbEntity
  8
Ebene 1
 62
     7
420
 16777215
370
    35
100
AcDbVertex
100
AcDb2dVertex
 10
424.2584372496863
 20
-57.30117233871219
 30
0.0
  0
VERTEX
  5
91
330
42
100
AcDbEntity
  8
Ebene 1
 62
     7
420
 16777215
370
    35
100
AcDbVertex
100
AcDb2dVertex
 10
424.1698484327989
 20
-57.28860438395337
 30
0.0
  0
VERTEX
  5
92
330
42
100
AcDbEntity
  8
Ebene 1
 62
     7
420
 16777215
370
    35
100
AcDbVertex
100
AcDb2dVertex
 10
424.07239815153
 20
-57.30408228030294
 30
0.0
  0
VERTEX
  5
93
330
42
100
AcDbEntity
  8
Ebene 1
 62
     7
420
 16777215
370
    35
100
AcDbVertex
100
AcDb2dVertex
 10
423.9749413830972
 20
-57.3195807080215
 30
0.0
  0
VERTEX
  5
94
330
42
100
AcDbEntity
  8
Ebene 1
 62
     7
420
 16777215
370
    35
100
AcDbVertex
100
AcDb2dVertex
 10
423.8870768080298
 20
-57.35353279348719
 30
0.0
  0
VERTEX
  5
95
330
42
100
AcDbEntity
  8
Ebene 1
 62
     7
420
 16777215
370
    35
100
AcDbVertex
100
AcDb2dVertex
 10
423.8088249576959
 20
-57.4059450238602
 30
0.0
  0
VERTEX
  5
96
330
42
100
AcDbEntity
  8
Ebene 1
 62
     7
420
 16777215
370
    35
100
AcDbVertex
100
AcDb2dVertex
 10
423.7349833081785
 20
-57.4443278415169
 30
0.0
  0
VERTEX
  5
97
330
42
100
AcDbEntity
  8
Ebene 1
 62
     7
420
 16777215
370
    35
100
AcDbVertex
100
AcDb2dVertex
 10
423.6663031198323
 20
-57.51518724247268
 30
0.0
  0
VERTEX
  5
98
330
42
100
AcDbEntity
  8
Ebene 1
 62
     7
420
 16777215
370
    35
100
AcDbVertex
100
AcDb2dVertex
 10
423.6160971206041
 20
-57.57646093722965
 30
0.0
  0
VERTEX
  5
99
330
42
100
AcDbEntity
  8
Ebene 1
 62
     7
420
 16777215
370
    35
100
AcDbVertex
100
AcDb2dVertex
 10
423.561460389185
 20
-57.65175755754048
 30
0.0
  0
VERTEX
  5
9A
330
42
100
AcDbEntity
  8
Ebene 1
 62
     7
420
 16777215
370
    35
100
AcDbVertex
100
AcDb2dVertex
 10
423.5208195647851
 20
-57.73149895424986
 30
0.0
  0
VERTEX
  5
9B
330
42
100
AcDbEntity
  8
Ebene 1
 62
     7
420
 16777215
370
    35
100
AcDbVertex
100
AcDb2dVertex
 10
423.4801852275492
 20
-57.81121981958863
 30
0.0
  0
VERTEX
  5
9C
330
42
100
AcDbEntity
  8
Ebene 1
 62
     7
420
 16777215
370
    35
100
AcDbVertex
100
AcDb2dVertex
 10
423.435161220859
 20
-57.90497658480774
 30
0.0
  0
VERTEX
  5
9D
330
42
100
AcDbEntity
  8
Ebene 1
 62
     7
420
 16777215
370
    35
100
AcDbVertex
100
AcDb2dVertex
 10
423.3634987839554
 20
-58.08289899176513
 30
0.0
  0
VERTEX
  5
9E
330
42
100
AcDbEntity
  8
Ebene 1
 62
     7
420
 16777215
370
    35
100
AcDbVertex
100
AcDb2dVertex
 10
423.2342238542354
 20
-58.44316049366308
 30
0.0
  0
VERTEX
  5
9F
330
42
100
AcDbEntity
  8
Ebene 1
 62
     7
420
 16777215
370
    35
100
AcDbVertex
100
AcDb2dVertex
 10
423.104969455886
 20
-58.80342848272474
 30
0.0
  0
VERTEX
  5
A0
330
42
100
AcDbEntity
  8
Ebene 1
 62
     7
420
 16777215
370
    35
100
AcDbVertex
100
AcDb2dVertex
 10
422.9801252583538
 20
-59.14966705906978
 30
0.0
  0
VERTEX
  5
A1
330
42
100
AcDbEntity
  8
Ebene 1
 62
     7
420
 16777215
370
    35
100
AcDbVertex
100
AcDb2dVertex
 10
422.869324517748
 20
-59.50034285476858
 30
0.0
  0
VERTEX
  5
A2
330
42
100
AcDbEntity
  8
Ebene 1
 62
     7
420
 16777215
370
    35
100
AcDbVertex
100
AcDb2dVertex
 10
422.7725672340699
 20
-59.8554558698234
 30
0.0
  0
VERTEX
  5
A3
330
42
100
AcDbEntity
  8
Ebene 1
 62
     7
420
 16777215
370
    35
100
AcDbVertex
100
AcDb2dVertex
 10
422.7193854734445
 20
-60.02377203921073
 30
0.0
  0
VERTEX
  5
A4
330
42
100
AcDbEntity
  8
Ebene 1
 62
     7
420
 16777215
370
    35
100
AcDbVertex
100
AcDb2dVertex
 10
422.6846573705627
 20
-60.18249601523648
 30
0.0
  0
VERTEX
  5
A5
330
42
100
AcDbEntity
  8
Ebene 1
 62
     7
420
 16777215
370
    35
100
AcDbVertex
100
AcDb2dVertex
 10
422.6595149738836
 20
-60.35969418037676
 30
0.0
  0
VERTEX
  5
A6
330
42
100
AcDbEntity
  8
Ebene 1
 62
     7
420
 16777215
370
    35
100
AcDbVertex
100
AcDb2dVertex
 10
422.6203356074415
 20
-60.532434594793
 30
0.0
  0
VERTEX
  5
A7
330
42
100
AcDbEntity
  8
Ebene 1
 62
     7
420
 16777215
370
    35
100
AcDbVertex
100
AcDb2dVertex
 10
422.6136738870368
 20
-60.70002652236546
 30
0.0
  0
VERTEX
  5
A8
330
42
100
AcDbEntity
  8
Ebene 1
 62
     7
420
 16777215
370
    35
100
AcDbVertex
100
AcDb2dVertex
 10
422.5929622225519
 20
-60.86320176195218
 30
0.0
  0
VERTEX
  5
A9
330
42
100
AcDbEntity
  8
Ebene 1
 62
     7
420
 16777215
370
    35
100
AcDbVertex
100
AcDb2dVertex
 10
422.5818492385894
 20
-61.04481012791512
 30
0.0
  0
VERTEX
  5
AA
330
42
100
AcDbEntity
  8
Ebene 1
 62
     7
420
 16777215
370
    35
100
AcDbVertex
100
AcDb2dVertex
 10
422.5892104437411
 20
-61.21683278767796
 30
0.0
  0
VERTEX
  5
AB
330
42
100
AcDbEntity
  8
Ebene 1
 62
     7
420
 16777215
370
    35
100
AcDbVertex
100
AcDb2dVertex
 10
422.5965651617295
 20
-61.38887597881043
 30
0.0
  0
VERTEX
  5
AC
330
42
100
AcDbEntity
  8
Ebene 1
 62
     7
420
 16777215
370
    35
100
AcDbVertex
100
AcDb2dVertex
 10
422.6083365677061
 20
-61.54686922585729
 30
0.0
  0
VERTEX
  5
AD
330
42
100
AcDbEntity
  8
Ebene 1
 62
     7
420
 16777215
370
    35
100
AcDbVertex
100
AcDb2dVertex
 10
422.6282657276141
 20
-61.63030306873463
 30
0.0
  0
VERTEX
  5
AE
330
42
100
AcDbEntity
  8
Ebene 1
 62
     7
420
 16777215
370
    35
100
AcDbVertex
100
AcDb2dVertex
 10
422.6481743561585
 20
-61.71373042444988
 30
0.0
  0
VERTEX
  5
AF
330
42
100
AcDbEntity
  8
Ebene 1
 62
     7
420
 16777215
370
    35
100
AcDbVertex
100
AcDb2dVertex
 10
422.6681035160665
 20
-61.79716426732659
 30
0.0
  0
VERTEX
  5
B0
330
42
100
AcDbEntity
  8
Ebene 1
 62
     7
420
 16777215
370
    35
100
AcDbVertex
100
AcDb2dVertex
 10
422.7064863337225
 20
-61.87100591684237
 30
0.0
  0
VERTEX
  5
B1
330
42
100
AcDbEntity
  8
Ebene 1
 62
     7
420
 16777215
370
    35
100
AcDbVertex
100
AcDb2dVertex
 10
422.7492858393624
 20
-61.93079762227157
 30
0.0
  0
VERTEX
  5
B2
330
42
100
AcDbEntity
  8
Ebene 1
 62
     7
420
 16777215
370
    35
100
AcDbVertex
100
AcDb2dVertex
 10
422.792099389212
 20
-61.99061634623187
 30
0.0
  0
VERTEX
  5
B3
330
42
100
AcDbEntity
  8
Ebene 1
 62
     7
420
 16777215
370
    35
100
AcDbVertex
100
AcDb2dVertex
 10
422.85337308397
 20
-62.04082234546097
 30
0.0
  0
VERTEX
  5
B4
330
42
100
AcDbEntity
  8
Ebene 1
 62
     7
420
 16777215
370
    35
100
AcDbVertex
100
AcDb2dVertex
 10
422.9331825619494
 20
-62.08146209997918
 30
0.0
  0
VERTEX
  5
B5
330
42
100
AcDbEntity
  8
Ebene 1
 62
     7
420
 16777215
370
    35
100
AcDbVertex
100
AcDb2dVertex
 10
426.3281995099655
 20
-63.78668195552271
 30
0.0
  0
VERTEX
  5
B6
330
42
100
AcDbEntity
  8
Ebene 1
 62
     7
420
 16777215
370
    35
100
AcDbVertex
100
AcDb2dVertex
 10
453.4338200815133
 20
-73.6469732213007
 30
0.0
  0
VERTEX
  5
B7
330
42
100
AcDbEntity
  8
Ebene 1
 62
     7
420
 16777215
370
    35
100
AcDbVertex
100
AcDb2dVertex
 10
457.1929291043669
 20
-74.83471434531359
 30
0.0
  0
VERTEX
  5
B8
330
42
100
AcDbEntity
  8
Ebene 1
 62
     7
420
 16777215
370
    35
100
AcDbVertex
100
AcDb2dVertex
 10
485.0571561731984
 20
-82.34288678363639
 30
0.0
  0
SEQEND
  5
B9
330
42
100
AcDbEntity
  8
Ebene 1
 62
     7
420
 16777215
370
    35
  0
INSERT
  5
BB
330
1F
100
AcDbEntity
  8
Ebene 1
100
AcDbBlockReference
  2
block 2
 10
0.0
 20
0.0
 30
0.0
  0
INSERT
  5
140
330
1F
100
AcDbEntity
  8
Ebene 1
100
AcDbBlockReference
  2
block 3
 10
0.0
 20
0.0
 30
0.0
  0
INSERT
  5
14C
330
1F
100
AcDbEntity
  8
Ebene 1
100
AcDbBlockReference
  2
block 4
 10
0.0
 20
0.0
 30
0.0
  0
INSERT
  5
158
330
1F
100
AcDbEntity
  8
Ebene 1
100
AcDbBlockReference
  2
block 5
 10
0.0
 20
0.0
 30
0.0
  0
INSERT
  5
164
330
1F
100
AcDbEntity
  8
Ebene 1
100
AcDbBlockReference
  2
block 6
 10
0.0
 20
0.0
 30
0.0
  0
SPLINE
  5
19C
330
1F
100
AcDbEntity
  8
Ebene 1
 62
     7
420
 16777215
370
    35
100
AcDbSpline
210
0.0
220
0.0
230
1.0
 70
    11
 71
     3
 72
    74
 73
    70
 74
     0
 42
0.0000000001
 43
0.0000000001
 12
1.0
 22
0.0
 32
0.0
 13
1.0
 23
0.0
 33
0.0
 40
0.0
 40
0.0
 40
0.0
 40
0.0
 40
1.0
 40
1.0
 40
1.0
 40
2.0
 40
2.0
 40
2.0
 40
3.0
 40
3.0
 40
3.0
 40
4.0
 40
4.0
 40
4.0
 40
5.0
 40
5.0
 40
5.0
 40
6.0
 40
6.0
 40
6.0
 40
7.0
 40
7.0
 40
7.0
 40
8.0
 40
8.0
 40
8.0
 40
9.0
 40
9.0
 40
9.0
 40
10.0
 40
10.0
 40
10.0
 40
11.0
 40
11.0
 40
11.0
 40
12.0
 40
12.0
 40
12.0
 40
13.0
 40
13.0
 40
13.0
 40
14.0
 40
14.0
 40
14.0
 40
15.0
 40
15.0
 40
15.0
 40
16.0
 40
16.0
 40
16.0
 40
17.0
 40
17.0
 40
17.0
 40
18.0
 40
18.0
 40
18.0
 40
19.0
 40
19.0
 40
19.0
 40
20.0
 40
20.0
 40
20.0
 40
21.0
 40
21.0
 40
21.0
 40
22.0
 40
22.0
 40
22.0
 40
23.0
 40
23.0
 40
23.0
 40
23.0
 10
235.1825223546701
 20
-71.90624155790032
 30
0.0
 10
235.1825223546701
 20
-71.90624155790032
 30
0.0
 10
235.1825223546701
 20
-65.90624172894242
 30
0.0
 10
235.1825223546701
 20
-65.90624172894242
 30
0.0
 10
235.1825223546701
 20
-65.90624172894242
 30
0.0
 10
246.299285657555
 20
-65.90624172894242
 30
0.0
 10
246.299285657555
 20
-65.90624172894242
 30
0.0
 10
246.299285657555
 20
-65.90624172894242
 30
0.0
 10
246.299285657555
 20
-64.14218058572024
 30
0.0
 10
246.299285657555
 20
-64.14218058572024
 30
0.0
 10
246.299285657555
 20
-64.14218058572024
 30
0.0
 10
235.2810951492418
 20
-62.97203237230835
 30
0.0
 10
235.2810951492418
 20
-62.97203237230835
 30
0.0
 10
234.4593537486226
 20
-62.88924242142843
 30
0.0
 10
233.6348347397684
 20
-62.82776899886351
 30
0.0
 10
232.8097128392043
 20
-62.79176775104265
 30
0.0
 10
230.5072478671779
 20
-62.69117096287335
 30
0.0
 10
228.1869545260153
 20
-62.75049120076
 30
0.0
 10
225.9105000249026
 20
-63.13384420088117
 30
0.0
 10
225.9105000249026
 20
-63.13384420088117
 30
0.0
 10
225.6898416590723
 20
-62.53073717249463
 30
0.0
 10
225.6898416590723
 20
-62.53073717249463
 30
0.0
 10
225.4394047491415
 20
-62.4802880554825
 30
0.0
 10
225.1886017978153
 20
-62.43089399896273
 30
0.0
 10
224.9341169006892
 20
-62.4056156108397
 30
0.0
 10
224.6852733474203
 20
-62.36700900955812
 30
0.0
 10
224.4361929438367
 20
-62.32915602291394
 30
0.0
 10
224.1870048810192
 20
-62.29184133243933
 30
0.0
 10
224.1870048810192
 20
-62.29184133243933
 30
0.0
 10
224.1870048810192
 20
-65.90624172894242
 30
0.0
 10
224.1870048810192
 20
-65.90624172894242
 30
0.0
 10
224.1870048810192
 20
-65.90624172894242
 30
0.0
 10
218.1870050520613
 20
-65.90624172894242
 30
0.0
 10
218.1870050520613
 20
-65.90624172894242
 30
0.0
 10
218.1870050520613
 20
-66.27411333122674
 30
0.0
 10
218.1870050520613
 20
-66.62202491154342
 30
0.0
 10
218.1870050520613
 20
-66.75181888395021
 30
0.0
 10
218.1870050520613
 20
-66.75181888395021
 30
0.0
 10
218.1967374468072
 20
-71.90624155790032
 30
0.0
 10
218.1967374468072
 20
-71.90624155790032
 30
0.0
 10
218.1967374468072
 20
-71.90624155790032
 30
0.0
 10
224.1870048810192
 20
-71.90624155790032
 30
0.0
 10
224.1870048810192
 20
-71.90624155790032
 30
0.0
 10
224.1870048810192
 20
-71.90624155790032
 30
0.0
 10
224.1870048810192
 20
-75.51390248636038
 30
0.0
 10
224.1870048810192
 20
-75.51390248636038
 30
0.0
 10
224.5479432286395
 20
-75.44448381233259
 30
0.0
 10
224.9095275316633
 20
-75.37844563824972
 30
0.0
 10
225.2688509907748
 20
-75.30086639429125
 30
0.0
 10
225.4838464809012
 20
-75.26077409558165
 30
0.0
 10
225.6970332958978
 20
-75.21176761230397
 30
0.0
 10
225.9105000249026
 20
-75.16435448568822
 30
0.0
 10
225.9105000249026
 20
-75.16435448568822
 30
0.0
 10
226.0723118534754
 20
-74.70835303452183
 30
0.0
 10
226.0723118534754
 20
-74.70835303452183
 30
0.0
 10
229.1669334686414
 20
-74.93562167731442
 30
0.0
 10
232.2895680164719
 20
-75.03568016931413
 30
0.0
 10
235.3768688037318
 20
-74.6652893409562
 30
0.0
 10
236.5250760652719
 20
-74.50840830529665
 30
0.0
 10
237.663787782381
 20
-74.29315443300888
 30
0.0
 10
238.7821949679737
 20
-73.98755293162044
 30
0.0
 10
238.7821949679737
 20
-73.98755293162044
 30
0.0
 10
246.299285657555
 20
-73.6703027011225
 30
0.0
 10
246.299285657555
 20
-73.6703027011225
 30
0.0
 10
246.299285657555
 20
-73.6703027011225
 30
0.0
 10
246.299285657555
 20
-71.90624155790032
 30
0.0
 10
246.299285657555
 20
-71.90624155790032
 30
0.0
 10
246.299285657555
 20
-71.90624155790032
 30
0.0
 10
235.1825223546701
 20
-71.90624155790032
 30
0.0
 10
235.1825223546701
 20
-71.90624155790032
 30
0.0
  0
SPLINE
  5
19D
330
1F
100
AcDbEntity
  8
Ebene 1
 62
     7
420
 16777215
370
    35
100
AcDbSpline
210
0.0
220
0.0
230
1.0
 70
    11
 71
     3
 72
    74
 73
    70
 74
     0
 42
0.0000000001
 43
0.0000000001
 12
1.0
 22
0.0
 32
0.0
 13
1.0
 23
0.0
 33
0.0
 40
0.0
 40
0.0
 40
0.0
 40
0.0
 40
1.0
 40
1.0
 40
1.0
 40
2.0
 40
2.0
 40
2.0
 40
3.0
 40
3.0
 40
3.0
 40
4.0
 40
4.0
 40
4.0
 40
5.0
 40
5.0
 40
5.0
 40
6.0
 40
6.0
 40
6.0
 40
7.0
 40
7.0
 40
7.0
 40
8.0
 40
8.0
 40
8.0
 40
9.0
 40
9.0
 40
9.0
 40
10.0
 40
10.0
 40
10.0
 40
11.0
 40
11.0
 40
11.0
 40
12.0
 40
12.0
 40
12.0
 40
13.0
 40
13.0
 40
13.0
 40
14.0
 40
14.0
 40
14.0
 40
15.0
 40
15.0
 40
15.0
 40
16.0
 40
16.0
 40
16.0
 40
17.0
 40
17.0
 40
17.0
 40
18.0
 40
18.0
 40
18.0
 40
19.0
 40
19.0
 40
19.0
 40
20.0
 40
20.0
 40
20.0
 40
21.0
 40
21.0
 40
21.0
 40
22.0
 40
22.0
 40
22.0
 40
23.0
 40
23.0
 40
23.0
 40
23.0
 10
249.2310624371872
 20
-70.13050120958492
 30
0.0
 10
249.2310624371872
 20
-70.13050120958492
 30
0.0
 10
249.2310624366488
 20
-76.13050103854282
 30
0.0
 10
249.2310624366488
 20
-76.13050103854282
 30
0.0
 10
249.2310624366488
 20
-76.13050103854282
 30
0.0
 10
238.114299133764
 20
-76.13050103754466
 30
0.0
 10
238.114299133764
 20
-76.13050103754466
 30
0.0
 10
238.114299133764
 20
-76.13050103754466
 30
0.0
 10
238.1142991336054
 20
-77.89456218076684
 30
0.0
 10
238.1142991336054
 20
-77.89456218076684
 30
0.0
 10
238.1142991336054
 20
-77.89456218076684
 30
0.0
 10
249.1324896418134
 20
-79.06471039516822
 30
0.0
 10
249.1324896418134
 20
-79.06471039516822
 30
0.0
 10
249.9542310424249
 20
-79.14750034612193
 30
0.0
 10
250.778750051274
 20
-79.20897376876097
 30
0.0
 10
251.6038719518349
 20
-79.24497501665563
 30
0.0
 10
253.9063369238523
 20
-79.34557180503188
 30
0.0
 10
256.2266302650199
 20
-79.28625156735346
 30
0.0
 10
258.5030847661673
 20
-78.90289856743667
 30
0.0
 10
258.5030847661673
 20
-78.90289856743667
 30
0.0
 10
258.723743131943
 20
-79.5060055958431
 30
0.0
 10
258.723743131943
 20
-79.5060055958431
 30
0.0
 10
258.9741800418694
 20
-79.5564547128777
 30
0.0
 10
259.2249829931911
 20
-79.60584876941992
 30
0.0
 10
259.4794678903153
 20
-79.63112715756604
 30
0.0
 10
259.7283114435804
 20
-79.66973375886977
 30
0.0
 10
259.9773918471607
 20
-79.7075867455364
 30
0.0
 10
260.226579909975
 20
-79.74490143603347
 30
0.0
 10
260.226579909975
 20
-79.74490143603347
 30
0.0
 10
260.2265799102997
 20
-76.1305010395304
 30
0.0
 10
260.2265799102997
 20
-76.1305010395304
 30
0.0
 10
260.2265799102997
 20
-76.1305010395304
 30
0.0
 10
266.2265797392576
 20
-76.1305010400691
 30
0.0
 10
266.2265797392576
 20
-76.1305010400691
 30
0.0
 10
266.2265797392903
 20
-75.76262943778477
 30
0.0
 10
266.2265797393218
 20
-75.4147178574681
 30
0.0
 10
266.2265797393333
 20
-75.28492388506132
 30
0.0
 10
266.2265797393333
 20
-75.28492388506132
 30
0.0
 10
266.2168473450502
 20
-70.13050121111024
 30
0.0
 10
266.2168473450502
 20
-70.13050121111024
 30
0.0
 10
266.2168473450502
 20
-70.13050121111024
 30
0.0
 10
260.2265799108381
 20
-70.13050121057249
 30
0.0
 10
260.2265799108381
 20
-70.13050121057249
 30
0.0
 10
260.2265799108381
 20
-70.13050121057249
 30
0.0
 10
260.2265799111621
 20
-66.52284028211243
 30
0.0
 10
260.2265799111621
 20
-66.52284028211243
 30
0.0
 10
259.8656415635355
 20
-66.59225895610781
 30
0.0
 10
259.5040572605059
 20
-66.65829713015796
 30
0.0
 10
259.1447338013873
 20
-66.73587637408467
 30
0.0
 10
258.9297383112577
 20
-66.7759686727747
 30
0.0
 10
258.7165514962566
 20
-66.82497515603312
 30
0.0
 10
258.5030847672473
 20
-66.87238828262963
 30
0.0
 10
258.5030847672473
 20
-66.87238828262963
 30
0.0
 10
258.3412729386334
 20
-67.32838973378156
 30
0.0
 10
258.3412729386334
 20
-67.32838973378156
 30
0.0
 10
255.246651323488
 20
-67.10112109071113
 30
0.0
 10
252.1240167756665
 20
-67.00106259843099
 30
0.0
 10
249.0367159883733
 20
-67.37145342651169
 30
0.0
 10
247.8885087268189
 20
-67.52833446206827
 30
0.0
 10
246.7497970096907
 20
-67.74358833425369
 30
0.0
 10
245.6313898240709
 20
-68.0491898355417
 30
0.0
 10
245.6313898240709
 20
-68.0491898355417
 30
0.0
 10
238.1142991344609
 20
-68.36644006536459
 30
0.0
 10
238.1142991344609
 20
-68.36644006536459
 30
0.0
 10
238.1142991344609
 20
-68.36644006536459
 30
0.0
 10
238.1142991343023
 20
-70.13050120858676
 30
0.0
 10
238.1142991343023
 20
-70.13050120858676
 30
0.0
 10
238.1142991343023
 20
-70.13050120858676
 30
0.0
 10
249.2310624371872
 20
-70.13050120958492
 30
0.0
 10
249.2310624371872
 20
-70.13050120958492
 30
0.0
  0
ENDSEC
  0
SECTION
  2
OBJECTS
  0
DICTIONARY
  5
C
330
0
100
AcDbDictionary
281
     1
  3
ACAD_GROUP
350
D
  3
ACAD_LAYOUT
350
1A
  3
ACAD_MATERIAL
350
3B
  3
ACAD_MLEADERSTYLE
350
1A0
  3
ACAD_MLINESTYLE
350
17
  3
ACAD_PLOTSETTINGS
350
19
  3
ACAD_PLOTSTYLENAME
350
E
  3
ACAD_TABLESTYLE
350
19F
  3
ACAD_VISUALSTYLE
350
2A
  0
SUN
  5
3F
330
29
100
AcDbSun
 90
        1
290
     0
 63
     7
421
 16777215
 40
1.0
291
     1
 91
  2455826
 92
 54000000
292
     0
 70
     2
 71
   256
280
     1
  0
DICTIONARY
  5
D
102
{ACAD_REACTORS
330
C
102
}
330
C
100
AcDbDictionary
281
     1
  0
DICTIONARY
  5
1A
102
{ACAD_REACTORS
330
C
102
}
330
C
100
AcDbDictionary
281
     1
  3
Layout1
350
1E
  3
Layout2
350
26
  3
Model
350
22
  0
DICTIONARY
  5
3B
102
{ACAD_REACTORS
330
C
102
}
330
C
100
AcDbDictionary
281
     1
  3
ByBlock
350
3D
  3
ByLayer
350
3C
  3
Global
350
3E
  0
DICTIONARY
  5
1A0
102
{ACAD_REACTORS
330
C
102
}
330
C
100
AcDbDictionary
281
     1
  0
DICTIONARY
  5
17
102
{ACAD_REACTORS
330
C
102
}
330
C
100
AcDbDictionary
281
     1
  3
Standard
350
18
  0
DICTIONARY
  5
19
102
{ACAD_REACTORS
330
C
102
}
330
C
100
AcDbDictionary
281
     1
  0
ACDBDICTIONARYWDFLT
  5
E
102
{ACAD_REACTORS
330
C
102
}
330
C
100
AcDbDictionary
281
     1
  3
Normal
350
F
100
AcDbDictionaryWithDefault
340
F
  0
DICTIONARY
  5
19F
102
{ACAD_REACTORS
330
C
102
}
330
C
100
AcDbDictionary
281
     1
  0
DICTIONARY
  5
2A
102
{ACAD_REACTORS
330
C
102
}
330
C
100
AcDbDictionary
281
     1
  3
2dWireframe
350
2F
  3
3D Hidden
350
31
  3
3dWireframe
350
30
  3
Basic
350
32
  3
Brighten
350
36
  3
ColorChange
350
3A
  3
Conceptual
350
34
  3
Dim
350
35
  3
Facepattern
350
39
  3
Flat
350
2B
  3
FlatWithEdges
350
2C
  3
Gouraud
350
2D
  3
GouraudWithEdges
350
2E
  3
Linepattern
350
38
  3
Realistic
350
33
  3
Thicken
350
37
  0
LAYOUT
  5
1E
102
{ACAD_REACTORS
330
1A
102
}
330
1A
100
AcDbPlotSettings
  1

  2
none_device
  4

  6

 40
0.0
 41
0.0
 42
0.0
 43
0.0
 44
0.0
 45
0.0
 46
0.0
 47
0.0
 48
0.0
 49
0.0
140
0.0
141
0.0
142
1.0
143
1.0
 70
   688
 72
     0
 73
     0
 74
     5
  7

 75
    16
 76
     0
 77
     2
 78
   300
147
1.0
148
0.0
149
0.0
100
AcDbLayout
  1
Layout1
 70
     1
 71
     1
 10
0.0
 20
0.0
 11
12.0
 21
9.0
 12
0.0
 22
0.0
 32
0.0
 14
1.000000000000000E+20
 24
1.000000000000000E+20
 34
1.000000000000000E+20
 15
-1.000000000000000E+20
 25
-1.000000000000000E+20
 35
-1.000000000000000E+20
146
0.0
 13
0.0
 23
0.0
 33
0.0
 16
1.0
 26
0.0
 36
0.0
 17
0.0
 27
1.0
 37
0.0
 76
     0
330
1B
  0
LAYOUT
  5
26
102
{ACAD_REACTORS
330
1A
102
}
330
1A
100
AcDbPlotSettings
  1

  2
none_device
  4

  6

 40
0.0
 41
0.0
 42
0.0
 43
0.0
 44
0.0
 45
0.0
 46
0.0
 47
0.0
 48
0.0
 49
0.0
140
0.0
141
0.0
142
1.0
143
1.0
 70
   688
 72
     0
 73
     0
 74
     5
  7

 75
    16
 76
     0
 77
     2
 78
   300
147
1.0
148
0.0
149
0.0
100
AcDbLayout
  1
Layout2
 70
     1
 71
     2
 10
0.0
 20
0.0
 11
0.0
 21
0.0
 12
0.0
 22
0.0
 32
0.0
 14
0.0
 24
0.0
 34
0.0
 15
0.0
 25
0.0
 35
0.0
146
0.0
 13
0.0
 23
0.0
 33
0.0
 16
1.0
 26
0.0
 36
0.0
 17
0.0
 27
1.0
 37
0.0
 76
     0
330
23
  0
LAYOUT
  5
22
102
{ACAD_REACTORS
330
1A
102
}
330
1A
100
AcDbPlotSettings
  1

  2
none_device
  4

  6

 40
0.0
 41
0.0
 42
0.0
 43
0.0
 44
0.0
 45
0.0
 46
0.0
 47
0.0
 48
0.0
 49
0.0
140
0.0
141
0.0
142
1.0
143
1.0
 70
  1712
 72
     0
 73
     0
 74
     0
  7

 75
     0
 76
     0
 77
     2
 78
   300
147
1.0
148
0.0
149
0.0
100
AcDbLayout
  1
Model
 70
     1
 71
     0
 10
0.0
 20
0.0
 11
12.0
 21
9.0
 12
0.0
 22
0.0
 32
0.0
 14
1.000000000000000E+20
 24
1.000000000000000E+20
 34
1.000000000000000E+20
 15
-1.000000000000000E+20
 25
-1.000000000000000E+20
 35
-1.000000000000000E+20
146
0.0
 13
0.0
 23
0.0
 33
0.0
 16
1.0
 26
0.0
 36
0.0
 17
0.0
 27
1.0
 37
0.0
 76
     0
330
1F
331
29
  0
MATERIAL
  5
3D
102
{ACAD_REACTORS
330
3B
102
}
330
3B
100
AcDbMaterial
  1
ByBlock
 72
     1
 94
      127
  0
MATERIAL
  5
3C
102
{ACAD_REACTORS
330
3B
102
}
330
3B
100
AcDbMaterial
  1
ByLayer
 72
     1
 94
      127
  0
MATERIAL
  5
3E
102
{ACAD_REACTORS
330
3B
102
}
330
3B
100
AcDbMaterial
  1
Global
 72
     1
 94
      127
  0
MLINESTYLE
  5
18
102
{ACAD_REACTORS
330
17
102
}
330
17
100
AcDbMlineStyle
  2
Standard
 70
     0
  3

 62
   256
 51
90.0
 52
90.0
 71
     2
 49
0.5
 62
   256
  6
BYLAYER
 49
-0.5
 62
   256
  6
BYLAYER
  0
ACDBPLACEHOLDER
  5
F
102
{ACAD_REACTORS
330
E
102
}
330
E
  0
VISUALSTYLE
  5
2F
102
{ACAD_REACTORS
330
2A
102
}
330
2A
100
AcDbVisualStyle
  2
2dWireframe
 70
     4
177
     2
291
     0
 71
     0
176
     1
 72
     2
176
     1
 73
     0
176
     1
 90
        0
176
     1
 40
-0.6
176
     1
 41
-30.0
176
     1
 62
     5
 63
     7
421
 16777215
176
     1
 74
     1
176
     1
 91
        4
176
     1
 64
     7
176
     1
 65
   257
176
     1
 75
     1
176
     1
175
     1
176
     1
 42
1.0
176
     1
 92
        0
176
     1
 66
   257
176
     1
 43
1.0
176
     1
 76
     1
176
     1
 77
     6
176
     1
 78
     2
176
     1
 67
     7
176
     1
 79
     5
176
     1
170
     0
176
     1
171
     0
176
     1
290
     0
176
     1
 93
        1
176
     1
 44
0.0
176
     1
173
     0
176
     1
  0
VISUALSTYLE
  5
31
102
{ACAD_REACTORS
330
2A
102
}
330
2A
100
AcDbVisualStyle
  2
3D Hidden
 70
     6
177
     2
291
     0
 71
     1
176
     1
 72
     2
176
     1
 73
     2
176
     1
 90
        0
176
     1
 40
-0.6
176
     1
 41
-30.0
176
     1
 62
     5
 63
     7
421
 16777215
176
     1
 74
     2
176
     1
 91
        2
176
     1
 64
     7
176
     1
 65
   257
176
     1
 75
     2
176
     1
175
     1
176
     1
 42
40.0
176
     1
 92
        0
176
     1
 66
   257
176
     1
 43
1.0
176
     1
 76
     1
176
     1
 77
     6
176
     1
 78
     2
176
     1
 67
     7
176
     1
 79
     3
176
     1
170
     0
176
     1
171
     0
176
     1
290
     0
176
     1
 93
        1
176
     1
 44
0.0
176
     1
173
     0
176
     1
  0
VISUALSTYLE
  5
30
102
{ACAD_REACTORS
330
2A
102
}
330
2A
100
AcDbVisualStyle
  2
3dWireframe
 70
     5
177
     2
291
     0
 71
     0
176
     1
 72
     2
176
     1
 73
     0
176
     1
 90
        0
176
     1
 40
-0.6
176
     1
 41
-30.0
176
     1
 62
     5
 63
     7
421
 16777215
176
     1
 74
     1
176
     1
 91
        4
176
     1
 64
     7
176
     1
 65
   257
176
     1
 75
     1
176
     1
175
     1
176
     1
 42
1.0
176
     1
 92
        0
176
     1
 66
   257
176
     1
 43
1.0
176
     1
 76
     1
176
     1
 77
     6
176
     1
 78
     2
176
     1
 67
     7
176
     1
 79
     5
176
     1
170
     0
176
     1
171
     0
176
     1
290
     0
176
     1
 93
        1
176
     1
 44
0.0
176
     1
173
     0
176
     1
  0
VISUALSTYLE
  5
32
102
{ACAD_REACTORS
330
2A
102
}
330
2A
100
AcDbVisualStyle
  2
Basic
 70
     7
177
     2
291
     1
 71
     1
176
     1
 72
     0
176
     1
 73
     1
176
     1
 90
        0
176
     1
 40
-0.6
176
     1
 41
-30.0
176
     1
 62
     5
 63
     7
421
 16777215
176
     1
 74
     0
176
     1
 91
        4
176
     1
 64
     7
176
     1
 65
   257
176
     1
 75
     1
176
     1
175
     1
176
     1
 42
1.0
176
     1
 92
        8
176
     1
 66
     7
176
     1
 43
1.0
176
     1
 76
     1
176
     1
 77
     6
176
     1
 78
     2
176
     1
 67
     7
176
     1
 79
     5
176
     1
170
     0
176
     1
171
     0
176
     1
290
     0
176
     1
 93
        1
176
     1
 44
0.0
176
     1
173
     0
176
     1
  0
VISUALSTYLE
  5
36
102
{ACAD_REACTORS
330
2A
102
}
330
2A
100
AcDbVisualStyle
  2
Brighten
 70
    12
177
     2
291
     1
 71
     2
176
     1
 72
     2
176
     1
 73
     0
176
     1
 90
        0
176
     1
 40
-0.6
176
     1
 41
-30.0
176
     1
 62
     5
 63
     7
421
 16777215
176
     1
 74
     1
176
     1
 91
        4
176
     1
 64
     7
176
     1
 65
   257
176
     1
 75
     1
176
     1
175
     1
176
     1
 42
1.0
176
     1
 92
        8
176
     1
 66
     7
176
     1
 43
1.0
176
     1
 76
     1
176
     1
 77
     6
176
     1
 78
     2
176
     1
 67
     7
176
     1
 79
     5
176
     1
170
     0
176
     1
171
     0
176
     1
290
     0
176
     1
 93
        1
176
     1
 44
50.0
176
     1
173
     0
176
     1
  0
VISUALSTYLE
  5
3A
102
{ACAD_REACTORS
330
2A
102
}
330
2A
100
AcDbVisualStyle
  2
ColorChange
 70
    16
177
     2
291
     1
 71
     2
176
     1
 72
     2
176
     1
 73
     3
176
     1
 90
        0
176
     1
 40
-0.6
176
     1
 41
-30.0
176
     1
 62
     5
 63
     8
421
  8421504
176
     1
 74
     1
176
     1
 91
        4
176
     1
 64
     7
176
     1
 65
   257
176
     1
 75
     1
176
     1
175
     1
176
     1
 42
1.0
176
     1
 92
        8
176
     1
 66
     8
424
  8421504
176
     1
 43
1.0
176
     1
 76
     1
176
     1
 77
     6
176
     1
 78
     2
176
     1
 67
     7
176
     1
 79
     5
176
     1
170
     0
176
     1
171
     0
176
     1
290
     0
176
     1
 93
        1
176
     1
 44
0.0
176
     1
173
     0
176
     1
  0
VISUALSTYLE
  5
34
102
{ACAD_REACTORS
330
2A
102
}
330
2A
100
AcDbVisualStyle
  2
Conceptual
 70
     9
177
     2
291
     0
 71
     3
176
     1
 72
     2
176
     1
 73
     0
176
     1
 90
        0
176
     1
 40
-0.6
176
     1
 41
-30.0
176
     1
 62
     5
 63
     7
421
 16777215
176
     1
 74
     2
176
     1
 91
        2
176
     1
 64
     7
176
     1
 65
   257
176
     1
 75
     1
176
     1
175
     1
176
     1
 42
40.0
176
     1
 92
        8
176
     1
 66
     7
176
     1
 43
1.0
176
     1
 76
     1
176
     1
 77
     6
176
     1
 78
     2
176
     1
 67
     7
176
     1
 79
     3
176
     1
170
     0
176
     1
171
     0
176
     1
290
     0
176
     1
 93
        1
176
     1
 44
0.0
176
     1
173
     0
176
     1
  0
VISUALSTYLE
  5
35
102
{ACAD_REACTORS
330
2A
102
}
330
2A
100
AcDbVisualStyle
  2
Dim
 70
    11
177
     2
291
     1
 71
     2
176
     1
 72
     2
176
     1
 73
     0
176
     1
 90
        0
176
     1
 40
-0.6
176
     1
 41
-30.0
176
     1
 62
     5
 63
     7
421
 16777215
176
     1
 74
     1
176
     1
 91
        4
176
     1
 64
     7
176
     1
 65
   257
176
     1
 75
     1
176
     1
175
     1
176
     1
 42
1.0
176
     1
 92
        8
176
     1
 66
     7
176
     1
 43
1.0
176
     1
 76
     1
176
     1
 77
     6
176
     1
 78
     2
176
     1
 67
     7
176
     1
 79
     5
176
     1
170
     0
176
     1
171
     0
176
     1
290
     0
176
     1
 93
        1
176
     1
 44
-50.0
176
     1
173
     0
176
     1
  0
VISUALSTYLE
  5
39
102
{ACAD_REACTORS
330
2A
102
}
330
2A
100
AcDbVisualStyle
  2
Facepattern
 70
    15
177
     2
291
     1
 71
     2
176
     1
 72
     2
176
     1
 73
     0
176
     1
 90
        0
176
     1
 40
-0.6
176
     1
 41
-30.0
176
     1
 62
     5
 63
     7
421
 16777215
176
     1
 74
     1
176
     1
 91
        4
176
     1
 64
     7
176
     1
 65
   257
176
     1
 75
     1
176
     1
175
     1
176
     1
 42
1.0
176
     1
 92
        8
176
     1
 66
     7
176
     1
 43
1.0
176
     1
 76
     1
176
     1
 77
     6
176
     1
 78
     2
176
     1
 67
     7
176
     1
 79
     5
176
     1
170
     0
176
     1
171
     0
176
     1
290
     0
176
     1
 93
        1
176
     1
 44
0.0
176
     1
173
     0
176
     1
  0
VISUALSTYLE
  5
2B
102
{ACAD_REACTORS
330
2A
102
}
330
2A
100
AcDbVisualStyle
  2
Flat
 70
     0
177
     2
291
     1
 71
     2
176
     1
 72
     1
176
     1
 73
     1
176
     1
 90
        2
176
     1
 40
-0.6
176
     1
 41
30.0
176
     1
 62
     5
 63
     7
421
 16777215
176
     1
 74
     0
176
     1
 91
        4
176
     1
 64
     7
176
     1
 65
   257
176
     1
 75
     1
176
     1
175
     1
176
     1
 42
1.0
176
     1
 92
        8
176
     1
 66
     7
176
     1
 43
1.0
176
     1
 76
     1
176
     1
 77
     6
176
     1
 78
     2
176
     1
 67
     7
176
     1
 79
     5
176
     1
170
     0
176
     1
171
     0
176
     1
290
     0
176
     1
 93
       13
176
     1
 44
0.0
176
     1
173
     0
176
     1
  0
VISUALSTYLE
  5
2C
102
{ACAD_REACTORS
330
2A
102
}
330
2A
100
AcDbVisualStyle
  2
FlatWithEdges
 70
     1
177
     2
291
     1
 71
     2
176
     1
 72
     1
176
     1
 73
     1
176
     1
 90
        2
176
     1
 40
-0.6
176
     1
 41
30.0
176
     1
 62
     5
 63
     7
421
 16777215
176
     1
 74
     1
176
     1
 91
        4
176
     1
 64
     7
176
     1
 65
   257
176
     1
 75
     1
176
     1
175
     1
176
     1
 42
1.0
176
     1
 92
        0
176
     1
 66
   257
176
     1
 43
1.0
176
     1
 76
     1
176
     1
 77
     6
176
     1
 78
     2
176
     1
 67
     7
176
     1
 79
     5
176
     1
170
     0
176
     1
171
     0
176
     1
290
     0
176
     1
 93
       13
176
     1
 44
0.0
176
     1
173
     0
176
     1
  0
VISUALSTYLE
  5
2D
102
{ACAD_REACTORS
330
2A
102
}
330
2A
100
AcDbVisualStyle
  2
Gouraud
 70
     2
177
     2
291
     1
 71
     2
176
     1
 72
     2
176
     1
 73
     1
176
     1
 90
        2
176
     1
 40
-0.6
176
     1
 41
30.0
176
     1
 62
     5
 63
     7
421
 16777215
176
     1
 74
     0
176
     1
 91
        4
176
     1
 64
     7
176
     1
 65
   257
176
     1
 75
     1
176
     1
175
     1
176
     1
 42
1.0
176
     1
 92
        0
176
     1
 66
     7
176
     1
 43
1.0
176
     1
 76
     1
176
     1
 77
     6
176
     1
 78
     2
176
     1
 67
     7
176
     1
 79
     5
176
     1
170
     0
176
     1
171
     0
176
     1
290
     0
176
     1
 93
       13
176
     1
 44
0.0
176
     1
173
     0
176
     1
  0
VISUALSTYLE
  5
2E
102
{ACAD_REACTORS
330
2A
102
}
330
2A
100
AcDbVisualStyle
  2
GouraudWithEdges
 70
     3
177
     2
291
     1
 71
     2
176
     1
 72
     2
176
     1
 73
     1
176
     1
 90
        2
176
     1
 40
-0.6
176
     1
 41
30.0
176
     1
 62
     5
 63
     7
421
 16777215
176
     1
 74
     1
176
     1
 91
        4
176
     1
 64
     7
176
     1
 65
   257
176
     1
 75
     1
176
     1
175
     1
176
     1
 42
1.0
176
     1
 92
        0
176
     1
 66
   257
176
     1
 43
1.0
176
     1
 76
     1
176
     1
 77
     6
176
     1
 78
     2
176
     1
 67
     7
176
     1
 79
     5
176
     1
170
     0
176
     1
171
     0
176
     1
290
     0
176
     1
 93
       13
176
     1
 44
0.0
176
     1
173
     0
176
     1
  0
VISUALSTYLE
  5
38
102
{ACAD_REACTORS
330
2A
102
}
330
2A
100
AcDbVisualStyle
  2
Linepattern
 70
    14
177
     2
291
     1
 71
     2
176
     1
 72
     2
176
     1
 73
     0
176
     1
 90
        0
176
     1
 40
-0.6
176
     1
 41
-30.0
176
     1
 62
     5
 63
     7
421
 16777215
176
     1
 74
     1
176
     1
 91
        4
176
     1
 64
     7
176
     1
 65
   257
176
     1
 75
     7
176
     1
175
     7
176
     1
 42
1.0
176
     1
 92
        8
176
     1
 66
     7
176
     1
 43
1.0
176
     1
 76
     1
176
     1
 77
     6
176
     1
 78
     2
176
     1
 67
     7
176
     1
 79
     5
176
     1
170
     0
176
     1
171
     0
176
     1
290
     0
176
     1
 93
        1
176
     1
 44
0.0
176
     1
173
     0
176
     1
  0
VISUALSTYLE
  5
33
102
{ACAD_REACTORS
330
2A
102
}
330
2A
100
AcDbVisualStyle
  2
Realistic
 70
     8
177
     2
291
     0
 71
     2
176
     1
 72
     2
176
     1
 73
     0
176
     1
 90
        0
176
     1
 40
-0.6
176
     1
 41
-30.0
176
     1
 62
     5
 63
     7
421
 16777215
176
     1
 74
     1
176
     1
 91
        0
176
     1
 64
     7
176
     1
 65
   257
176
     1
 75
     1
176
     1
175
     1
176
     1
 42
1.0
176
     1
 92
        8
176
     1
 66
     8
424
  7895160
176
     1
 43
1.0
176
     1
 76
     1
176
     1
 77
     6
176
     1
 78
     2
176
     1
 67
     7
176
     1
 79
     5
176
     1
170
     0
176
     1
171
     0
176
     1
290
     0
176
     1
 93
       13
176
     1
 44
0.0
176
     1
173
     0
176
     1
  0
VISUALSTYLE
  5
37
102
{ACAD_REACTORS
330
2A
102
}
330
2A
100
AcDbVisualStyle
  2
Thicken
 70
    13
177
     2
291
     1
 71
     2
176
     1
 72
     2
176
     1
 73
     0
176
     1
 90
        0
176
     1
 40
-0.6
176
     1
 41
-30.0
176
     1
 62
     5
 63
     7
421
 16777215
176
     1
 74
     1
176
     1
 91
        4
176
     1
 64
     7
176
     1
 65
   257
176
     1
 75
     1
176
     1
175
     1
176
     1
 42
1.0
176
     1
 92
       12
176
     1
 66
     7
176
     1
 43
1.0
176
     1
 76
     1
176
     1
 77
     6
176
     1
 78
     2
176
     1
 67
     7
176
     1
 79
     5
176
     1
170
     0
176
     1
171
     0
176
     1
290
     0
176
     1
 93
        1
176
     1
 44
0.0
176
     1
173
     0
176
     1
  0
ENDSEC
  0
EOF
