  0
SECTION
  2
HEADER
  9
$ACADVER
  1
AC1014
  9
$HANDSEED
  5
FFFF
  9
$MEASUREMENT
 70
     1
  0
ENDSEC
  0
SECTION
  2
TABLES
  0
TABLE
  2
VPORT
  5
8
330
0
100
AcDbSymbolTable
 70
     4
  0
VPORT
  5
2E
330
8
100
AcDbSymbolTableRecord
100
AcDbViewportTableRecord
  2
*ACTIVE
 70
     0
 10
0.0
 20
0.0
 11
1.0
 21
1.0
 12
210.0
 22
148.5
 13
0.0
 23
0.0
 14
10.0
 24
10.0
 15
10.0
 25
10.0
 16
0.0
 26
0.0
 36
1.0
 17
0.0
 27
0.0
 37
0.0
 40
341.0
 41
1.24
 42
50.0
 43
0.0
 44
0.0
 50
0.0
 51
0.0
 71
     0
 72
   100
 73
     1
 74
     3
 75
     0
 76
     0
 77
     0
 78
     0
  0
ENDTAB
  0
TABLE
  2
LTYPE
  5
5
330
0
100
AcDbSymbolTable
 70
     1
  0
LTYPE
  5
14
330
5
100
AcDbSymbolTableRecord
100
AcDbLinetypeTableRecord
  2
BYBLOCK
 70
     0
  3

 72
    65
 73
     0
 40
0.0
  0
LTYPE
  5
15
330
5
100
AcDbSymbolTableRecord
100
AcDbLinetypeTableRecord
  2
BYLAYER
 70
     0
  3

 72
    65
 73
     0
 40
0.0
  0
LTYPE
  5
16
330
5
100
AcDbSymbolTableRecord
100
AcDbLinetypeTableRecord
  2
CONTINUOUS
 70
     0
  3
Solid line
 72
    65
 73
     0
 40
0.0
  0
ENDTAB
  0
TABLE
  2
LAYER
  5
2
100
AcDbSymbolTable
 70
1
  0
LAYER
  5
50
100
AcDbSymbolTableRecord
100
AcDbLayerTableRecord
  2
0
 70
0
  6
CONTINUOUS
  0
ENDTAB
  0
TABLE
  2
STYLE
  5
3
330
0
100
AcDbSymbolTable
 70
     1
  0
STYLE
  5
11
330
3
100
AcDbSymbolTableRecord
100
AcDbTextStyleTableRecord
  2
STANDARD
 70
     0
 40
0.0
 41
1.0
 50
0.0
 71
     0
 42
2.5
  3
txt
  4

  0
ENDTAB
  0
TABLE
  2
VIEW
  5
6
330
0
100
AcDbSymbolTable
 70
     0
  0
ENDTAB
  0
TABLE
  2
UCS
  5
7
330
0
100
AcDbSymbolTable
 70
     0
  0
ENDTAB
  0
TABLE
  2
APPID
  5
9
330
0
100
AcDbSymbolTable
 70
     2
  0
APPID
  5
12
330
9
100
AcDbSymbolTableRecord
100
AcDbRegAppTableRecord
  2
ACAD
 70
     0
  0
ENDTAB
  0
TABLE
  2
DIMSTYLE
  5
A
330
0
100
AcDbSymbolTable
 70
     1
  0
DIMSTYLE
105
27
330
A
100
AcDbSymbolTableRecord
100
AcDbDimStyleTableRecord
  2
ISO-25
 70
     0
  3

  4

  5

  6

  7

 40
1.0
 41
2.5
 42
0.625
 43
3.75
 44
1.25
 45
0.0
 46
0.0
 47
0.0
 48
0.0
140
2.5
141
2.5
142
0.0
143
0.03937007874016
144
1.0
145
0.0
146
1.0
147
0.625
 71
     0
 72
     0
 73
     0
 74
     0
 75
     0
 76
     0
 77
     1
 78
     8
170
     0
171
     3
172
     1
173
     0
174
     0
175
     0
176
     0
177
     0
178
     0
270
     2
271
     2
272
     2
273
     2
274
     3
340
11
275
     0
280
     0
281
     0
282
     0
283
     0
284
     8
285
     0
286
     0
287
     3
288
     0
  0
ENDTAB
  0
TABLE
  2
BLOCK_RECORD
  5
1
330
0
100
AcDbSymbolTable
 70
     1
  0
BLOCK_RECORD
  5
1F
330
1
100
AcDbSymbolTableRecord
100
AcDbBlockTableRecord
  2
*MODEL_SPACE
  0
BLOCK_RECORD
  5
1B
330
1
100
AcDbSymbolTableRecord
100
AcDbBlockTableRecord
  2
*PAPER_SPACE
  0
ENDTAB
  0
ENDSEC
  0
SECTION
  2
BLOCKS
  0
BLOCK
  5
20
330
1F
100
AcDbEntity
  8
0
100
AcDbBlockBegin
  2
*MODEL_SPACE
 70
     0
 10
0.0
 20
0.0
 30
0.0
  3
*MODEL_SPACE
  1

  0
ENDBLK
  5
21
330
1F
100
AcDbEntity
  8
0
100
AcDbBlockEnd
  0
BLOCK
  5
1C
330
1B
100
AcDbEntity
 67
     1
  8
0
100
AcDbBlockBegin
  2
*PAPER_SPACE
  1

  0
ENDBLK
  5
1D
330
1B
100
AcDbEntity
 67
     1
  8
0
100
AcDbBlockEnd
  0
ENDSEC
  0
SECTION
  2
ENTITIES
  0
SPLINE
  5
100
100
AcDbEntity
  8
0
 62
7
100
AcDbSpline
 70
8
 71
3
 72
8
 73
4
 74
0
 40
0
 40
0
 40
0
 40
0
 40
1
 40
1
 40
1
 40
1
 10
57.894421
 20
6.281065
 30
0.0
 10
55.734236
 20
6.717834
 30
0.0
 10
54.076111
 20
7.280767
 30
0.0
 10
51.512465
 20
8.447744
 30
0.0
  0
SPLINE
  5
101
100
AcDbEntity
  8
0
 62
7
100
AcDbSpline
 70
8
 71
3
 72
8
 73
4
 74
0
 40
0
 40
0
 40
0
 40
0
 40
1
 40
1
 40
1
 40
1
 10
47.695146
 20
8.809313
 30
0.0
 10
46.704605
 20
8.503367
 30
0.0
 10
45.815882
 20
8.345001
 30
0.0
 10
45.720212
 20
8.457393
 30
0.0
  0
SPLINE
  5
102
100
AcDbEntity
  8
0
 62
7
100
AcDbSpline
 70
8
 71
3
 72
8
 73
4
 74
0
 40
0
 40
0
 40
0
 40
0
 40
1
 40
1
 40
1
 40
1
 10
45.720212
 20
8.457393
 30
0.0
 10
45.550336
 20
8.656955
 30
0.0
 10
42.535253
 20
28.090598
 30
0.0
 10
42.544114
 20
28.928846
 30
0.0
  0
SPLINE
  5
103
100
AcDbEntity
  8
0
 62
7
100
AcDbSpline
 70
8
 71
3
 72
8
 73
4
 74
0
 40
0
 40
0
 40
0
 40
0
 40
1
 40
1
 40
1
 40
1
 10
42.544114
 20
28.928846
 30
0.0
 10
42.546495
 20
29.161692
 30
0.0
 10
43.739213
 20
30.269161
 30
0.0
 10
45.194421
 20
31.389889
 30
0.0
  0
LWPOLYLINE
  5
104
100
AcDbEntity
  8
0
 62
7
100
AcDbPolyline
 90
3
 70
0
 10
51.512465
 20
8.447744
 30
0.0
 10
49.496133
 20
9.365583
 30
0.0
 10
47.695146
 20
8.809313
 30
0.0
  0
SPLINE
  5
105
100
AcDbEntity
  8
0
 62
7
100
AcDbSpline
 70
8
 71
3
 72
8
 73
4
 74
0
 40
0
 40
0
 40
0
 40
0
 40
1
 40
1
 40
1
 40
1
 10
47.840254
 20
35.904196
 30
0.0
 10
47.840254
 20
38.701276
 30
0.0
 10
47.282931
 20
42.050891
 30
0.0
 10
46.638117
 20
43.129256
 30
0.0
  0
SPLINE
  5
106
100
AcDbEntity
  8
0
 62
7
100
AcDbSpline
 70
8
 71
3
 72
8
 73
4
 74
0
 40
0
 40
0
 40
0
 40
0
 40
1
 40
1
 40
1
 40
1
 10
46.638117
 20
43.129256
 30
0.0
 10
46.400649
 20
43.526393
 30
0.0
 10
44.838112
 20
44.863356
 30
0.0
 10
43.165816
 20
46.100283
 30
0.0
  0
SPLINE
  5
107
100
AcDbEntity
  8
0
 62
7
100
AcDbSpline
 70
8
 71
3
 72
8
 73
4
 74
0
 40
0
 40
0
 40
0
 40
0
 40
1
 40
1
 40
1
 40
1
 10
43.165816
 20
46.100283
 30
0.0
 10
41.493522
 20
47.337210
 30
0.0
 10
40.066129
 20
48.441864
 30
0.0
 10
39.993835
 20
48.555071
 30
0.0
  0
SPLINE
  5
108
100
AcDbEntity
  8
0
 62
7
100
AcDbSpline
 70
8
 71
3
 72
8
 73
4
 74
0
 40
0
 40
0
 40
0
 40
0
 40
1
 40
1
 40
1
 40
1
 10
39.993835
 20
48.555071
 30
0.0
 10
39.921540
 20
48.668276
 30
0.0
 10
40.139361
 20
49.005665
 30
0.0
 10
40.477885
 20
49.304821
 30
0.0
  0
SPLINE
  5
109
100
AcDbEntity
  8
0
 62
7
100
AcDbSpline
 70
8
 71
3
 72
8
 73
4
 74
0
 40
0
 40
0
 40
0
 40
0
 40
1
 40
1
 40
1
 40
1
 10
40.477885
 20
49.304821
 30
0.0
 10
41.015200
 20
49.779656
 30
0.0
 10
41.026165
 20
49.823410
 30
0.0
 10
40.564213
 20
49.649301
 30
0.0
  0
SPLINE
  5
10a
100
AcDbEntity
  8
0
 62
7
100
AcDbSpline
 70
8
 71
3
 72
8
 73
4
 74
0
 40
0
 40
0
 40
0
 40
0
 40
1
 40
1
 40
1
 40
1
 10
40.564213
 20
49.649301
 30
0.0
 10
39.593666
 20
49.283501
 30
0.0
 10
37.826267
 20
49.220985
 30
0.0
 10
36.919138
 20
49.520364
 30
0.0
  0
SPLINE
  5
10b
100
AcDbEntity
  8
0
 62
7
100
AcDbSpline
 70
8
 71
3
 72
8
 73
4
 74
0
 40
0
 40
0
 40
0
 40
0
 40
1
 40
1
 40
1
 40
1
 10
36.919138
 20
49.520364
 30
0.0
 10
35.744692
 20
49.907965
 30
0.0
 10
34.387054
 20
51.249128
 30
0.0
 10
33.773025
 20
52.628295
 30
0.0
  0
SPLINE
  5
10c
100
AcDbEntity
  8
0
 62
7
100
AcDbSpline
 70
8
 71
3
 72
8
 73
4
 74
0
 40
0
 40
0
 40
0
 40
0
 40
1
 40
1
 40
1
 40
1
 10
33.773025
 20
52.628295
 30
0.0
 10
33.386170
 20
53.497202
 30
0.0
 10
33.245396
 20
54.688113
 30
0.0
 10
33.112051
 20
58.219893
 30
0.0
  0
SPLINE
  5
10d
100
AcDbEntity
  8
0
 62
7
100
AcDbSpline
 70
8
 71
3
 72
8
 73
4
 74
0
 40
0
 40
0
 40
0
 40
0
 40
1
 40
1
 40
1
 40
1
 10
33.112051
 20
58.219893
 30
0.0
 10
32.925322
 20
63.165696
 30
0.0
 10
33.060148
 20
64.276576
 30
0.0
 10
34.402763
 20
68.854450
 30
0.0
  0
LWPOLYLINE
  5
10e
100
AcDbEntity
  8
0
 62
7
100
AcDbPolyline
 90
3
 70
0
 10
45.194421
 20
31.389889
 30
0.0
 10
47.840254
 20
33.427575
 30
0.0
 10
47.840254
 20
35.904196
 30
0.0
  0
SPLINE
  5
10f
100
AcDbEntity
  8
0
 62
7
100
AcDbSpline
 70
8
 71
3
 72
8
 73
4
 74
0
 40
0
 40
0
 40
0
 40
0
 40
1
 40
1
 40
1
 40
1
 10
35.249345
 20
78.908616
 30
0.0
 10
35.284963
 20
87.057897
 30
0.0
 10
35.484784
 20
88.787946
 30
0.0
 10
37.663297
 20
99.808644
 30
0.0
  0
SPLINE
  5
110
100
AcDbEntity
  8
0
 62
7
100
AcDbSpline
 70
8
 71
3
 72
8
 73
4
 74
0
 40
0
 40
0
 40
0
 40
0
 40
1
 40
1
 40
1
 40
1
 10
37.663297
 20
99.808644
 30
0.0
 10
38.533231
 20
104.209472
 30
0.0
 10
38.990312
 20
105.963461
 30
0.0
 10
39.417937
 20
106.541856
 30
0.0
  0
SPLINE
  5
111
100
AcDbEntity
  8
0
 62
7
100
AcDbSpline
 70
8
 71
3
 72
8
 73
4
 74
0
 40
0
 40
0
 40
0
 40
0
 40
1
 40
1
 40
1
 40
1
 10
39.417937
 20
106.541856
 30
0.0
 10
39.826359
 20
107.094274
 30
0.0
 10
39.979674
 20
107.643306
 30
0.0
 10
39.939926
 20
108.411145
 30
0.0
  0
SPLINE
  5
112
100
AcDbEntity
  8
0
 62
7
100
AcDbSpline
 70
8
 71
3
 72
8
 73
4
 74
0
 40
0
 40
0
 40
0
 40
0
 40
1
 40
1
 40
1
 40
1
 10
39.939926
 20
108.411145
 30
0.0
 10
39.898910
 20
109.203501
 30
0.0
 10
40.065603
 20
109.766407
 30
0.0
 10
40.554661
 20
110.487077
 30
0.0
  0
SPLINE
  5
113
100
AcDbEntity
  8
0
 62
7
100
AcDbSpline
 70
8
 71
3
 72
8
 73
4
 74
0
 40
0
 40
0
 40
0
 40
0
 40
1
 40
1
 40
1
 40
1
 10
40.554661
 20
110.487077
 30
0.0
 10
40.968501
 20
111.096907
 30
0.0
 10
41.228150
 20
111.851623
 30
0.0
 10
41.232140
 20
112.456304
 30
0.0
  0
SPLINE
  5
114
100
AcDbEntity
  8
0
 62
7
100
AcDbSpline
 70
8
 71
3
 72
8
 73
4
 74
0
 40
0
 40
0
 40
0
 40
0
 40
1
 40
1
 40
1
 40
1
 10
41.232140
 20
112.456304
 30
0.0
 10
41.242353
 20
114.003450
 30
0.0
 10
41.703030
 20
115.625341
 30
0.0
 10
42.692013
 20
117.595958
 30
0.0
  0
SPLINE
  5
115
100
AcDbEntity
  8
0
 62
7
100
AcDbSpline
 70
8
 71
3
 72
8
 73
4
 74
0
 40
0
 40
0
 40
0
 40
0
 40
1
 40
1
 40
1
 40
1
 10
42.692013
 20
117.595958
 30
0.0
 10
43.296713
 20
118.800863
 30
0.0
 10
43.607908
 20
119.795303
 30
0.0
 10
43.609834
 20
120.528898
 30
0.0
  0
SPLINE
  5
116
100
AcDbEntity
  8
0
 62
7
100
AcDbSpline
 70
8
 71
3
 72
8
 73
4
 74
0
 40
0
 40
0
 40
0
 40
0
 40
1
 40
1
 40
1
 40
1
 10
43.609834
 20
120.528898
 30
0.0
 10
43.616819
 20
123.194961
 30
0.0
 10
43.797180
 20
123.554185
 30
0.0
 10
45.559850
 20
124.412938
 30
0.0
  0
SPLINE
  5
117
100
AcDbEntity
  8
0
 62
7
100
AcDbSpline
 70
8
 71
3
 72
8
 73
4
 74
0
 40
0
 40
0
 40
0
 40
0
 40
1
 40
1
 40
1
 40
1
 10
45.559850
 20
124.412938
 30
0.0
 10
48.301114
 20
125.748449
 30
0.0
 10
50.356849
 20
126.109041
 30
0.0
 10
55.248588
 20
126.112418
 30
0.0
  0
SPLINE
  5
118
100
AcDbEntity
  8
0
 62
7
100
AcDbSpline
 70
8
 71
3
 72
8
 73
4
 74
0
 40
0
 40
0
 40
0
 40
0
 40
1
 40
1
 40
1
 40
1
 10
55.248588
 20
126.112418
 30
0.0
 10
63.322256
 20
126.117993
 30
0.0
 10
71.497814
 20
124.209457
 30
0.0
 10
78.928796
 20
120.584413
 30
0.0
  0
SPLINE
  5
119
100
AcDbEntity
  8
0
 62
7
100
AcDbSpline
 70
8
 71
3
 72
8
 73
4
 74
0
 40
0
 40
0
 40
0
 40
0
 40
1
 40
1
 40
1
 40
1
 10
78.928796
 20
120.584413
 30
0.0
 10
84.885612
 20
117.678509
 30
0.0
 10
89.420097
 20
113.718396
 30
0.0
 10
91.416897
 20
109.678145
 30
0.0
  0
SPLINE
  5
11a
100
AcDbEntity
  8
0
 62
7
100
AcDbSpline
 70
8
 71
3
 72
8
 73
4
 74
0
 40
0
 40
0
 40
0
 40
0
 40
1
 40
1
 40
1
 40
1
 10
91.416897
 20
109.678145
 30
0.0
 10
92.291636
 20
107.908230
 30
0.0
 10
92.412622
 20
107.415915
 30
0.0
 10
92.507837
 20
105.238894
 30
0.0
  0
SPLINE
  5
11b
100
AcDbEntity
  8
0
 62
7
100
AcDbSpline
 70
8
 71
3
 72
8
 73
4
 74
0
 40
0
 40
0
 40
0
 40
0
 40
1
 40
1
 40
1
 40
1
 10
92.507837
 20
105.238894
 30
0.0
 10
92.583132
 20
103.517367
 30
0.0
 10
92.491724
 20
102.370038
 30
0.0
 10
92.200000
 20
101.374861
 30
0.0
  0
SPLINE
  5
11c
100
AcDbEntity
  8
0
 62
7
100
AcDbSpline
 70
8
 71
3
 72
8
 73
4
 74
0
 40
0
 40
0
 40
0
 40
0
 40
1
 40
1
 40
1
 40
1
 10
92.200000
 20
101.374861
 30
0.0
 10
91.927458
 20
100.445136
 30
0.0
 10
91.877520
 20
99.902261
 30
0.0
 10
92.054476
 20
99.792898
 30
0.0
  0
SPLINE
  5
11d
100
AcDbEntity
  8
0
 62
7
100
AcDbSpline
 70
8
 71
3
 72
8
 73
4
 74
0
 40
0
 40
0
 40
0
 40
0
 40
1
 40
1
 40
1
 40
1
 10
92.054476
 20
99.792898
 30
0.0
 10
92.415479
 20
99.569783
 30
0.0
 10
89.302344
 20
94.389011
 30
0.0
 10
88.081726
 20
93.181588
 30
0.0
  0
SPLINE
  5
11e
100
AcDbEntity
  8
0
 62
7
100
AcDbSpline
 70
8
 71
3
 72
8
 73
4
 74
0
 40
0
 40
0
 40
0
 40
0
 40
1
 40
1
 40
1
 40
1
 10
88.081726
 20
93.181588
 30
0.0
 10
87.558761
 20
92.664275
 30
0.0
 10
86.124074
 20
90.789040
 30
0.0
 10
84.893534
 20
89.014401
 30
0.0
  0
SPLINE
  5
11f
100
AcDbEntity
  8
0
 62
7
100
AcDbSpline
 70
8
 71
3
 72
8
 73
4
 74
0
 40
0
 40
0
 40
0
 40
0
 40
1
 40
1
 40
1
 40
1
 10
84.893534
 20
89.014401
 30
0.0
 10
83.537182
 20
87.058317
 30
0.0
 10
82.481274
 20
85.787783
 30
0.0
 10
82.211984
 20
85.787783
 30
0.0
  0
SPLINE
  5
120
100
AcDbEntity
  8
0
 62
7
100
AcDbSpline
 70
8
 71
3
 72
8
 73
4
 74
0
 40
0
 40
0
 40
0
 40
0
 40
1
 40
1
 40
1
 40
1
 10
82.211984
 20
85.787783
 30
0.0
 10
81.967673
 20
85.787783
 30
0.0
 10
81.571399
 20
85.488066
 30
0.0
 10
81.331374
 20
85.121742
 30
0.0
  0
LWPOLYLINE
  5
121
100
AcDbEntity
  8
0
 62
7
100
AcDbPolyline
 90
3
 70
0
 10
34.402763
 20
68.854450
 30
0.0
 10
35.217542
 20
71.632575
 30
0.0
 10
35.249345
 20
78.908616
 30
0.0
  0
SPLINE
  5
122
100
AcDbEntity
  8
0
 62
7
100
AcDbSpline
 70
8
 71
3
 72
8
 73
4
 74
0
 40
0
 40
0
 40
0
 40
0
 40
1
 40
1
 40
1
 40
1
 10
81.992491
 20
84.631205
 30
0.0
 10
83.057727
 20
84.801541
 30
0.0
 10
83.084257
 20
84.788055
 30
0.0
 10
82.894284
 20
84.172764
 30
0.0
  0
SPLINE
  5
123
100
AcDbEntity
  8
0
 62
7
100
AcDbSpline
 70
8
 71
3
 72
8
 73
4
 74
0
 40
0
 40
0
 40
0
 40
0
 40
1
 40
1
 40
1
 40
1
 10
82.894284
 20
84.172764
 30
0.0
 10
81.484385
 20
79.606370
 30
0.0
 10
78.910881
 20
77.368149
 30
0.0
 10
74.779399
 20
77.115104
 30
0.0
  0
LWPOLYLINE
  5
124
100
AcDbEntity
  8
0
 62
7
100
AcDbPolyline
 90
3
 70
0
 10
81.331374
 20
85.121742
 30
0.0
 10
80.894968
 20
84.455701
 30
0.0
 10
81.992491
 20
84.631205
 30
0.0
  0
SPLINE
  5
125
100
AcDbEntity
  8
0
 62
7
100
AcDbSpline
 70
8
 71
3
 72
8
 73
4
 74
0
 40
0
 40
0
 40
0
 40
0
 40
1
 40
1
 40
1
 40
1
 10
72.900585
 20
73.650131
 30
0.0
 10
72.990091
 20
71.707568
 30
0.0
 10
73.176410
 20
70.218186
 30
0.0
 10
73.345815
 20
70.091078
 30
0.0
  0
SPLINE
  5
126
100
AcDbEntity
  8
0
 62
7
100
AcDbSpline
 70
8
 71
3
 72
8
 73
4
 74
0
 40
0
 40
0
 40
0
 40
0
 40
1
 40
1
 40
1
 40
1
 10
73.345815
 20
70.091078
 30
0.0
 10
73.553304
 20
69.935392
 30
0.0
 10
73.541964
 20
69.833882
 30
0.0
 10
73.306400
 20
69.738301
 30
0.0
  0
SPLINE
  5
127
100
AcDbEntity
  8
0
 62
7
100
AcDbSpline
 70
8
 71
3
 72
8
 73
4
 74
0
 40
0
 40
0
 40
0
 40
0
 40
1
 40
1
 40
1
 40
1
 10
73.306400
 20
69.738301
 30
0.0
 10
73.111995
 20
69.659418
 30
0.0
 10
72.975671
 20
69.122428
 30
0.0
 10
72.975671
 20
68.435527
 30
0.0
  0
SPLINE
  5
128
100
AcDbEntity
  8
0
 62
7
100
AcDbSpline
 70
8
 71
3
 72
8
 73
4
 74
0
 40
0
 40
0
 40
0
 40
0
 40
1
 40
1
 40
1
 40
1
 10
72.975671
 20
68.435527
 30
0.0
 10
72.975671
 20
67.792809
 30
0.0
 10
72.886374
 20
67.270262
 30
0.0
 10
72.777234
 20
67.274310
 30
0.0
  0
SPLINE
  5
129
100
AcDbEntity
  8
0
 62
7
100
AcDbSpline
 70
8
 71
3
 72
8
 73
4
 74
0
 40
0
 40
0
 40
0
 40
0
 40
1
 40
1
 40
1
 40
1
 10
72.777234
 20
67.274310
 30
0.0
 10
72.668093
 20
67.278358
 30
0.0
 10
72.111883
 20
67.634964
 30
0.0
 10
71.541214
 20
68.066764
 30
0.0
  0
SPLINE
  5
12a
100
AcDbEntity
  8
0
 62
7
100
AcDbSpline
 70
8
 71
3
 72
8
 73
4
 74
0
 40
0
 40
0
 40
0
 40
0
 40
1
 40
1
 40
1
 40
1
 10
71.541214
 20
68.066764
 30
0.0
 10
70.970545
 20
68.498564
 30
0.0
 10
70.476097
 20
68.822673
 30
0.0
 10
70.442442
 20
68.787007
 30
0.0
  0
SPLINE
  5
12b
100
AcDbEntity
  8
0
 62
7
100
AcDbSpline
 70
8
 71
3
 72
8
 73
4
 74
0
 40
0
 40
0
 40
0
 40
0
 40
1
 40
1
 40
1
 40
1
 10
70.442442
 20
68.787007
 30
0.0
 10
70.408787
 20
68.751339
 30
0.0
 10
70.477994
 20
66.043252
 30
0.0
 10
70.596236
 20
62.769033
 30
0.0
  0
SPLINE
  5
12c
100
AcDbEntity
  8
0
 62
7
100
AcDbSpline
 70
8
 71
3
 72
8
 73
4
 74
0
 40
0
 40
0
 40
0
 40
0
 40
1
 40
1
 40
1
 40
1
 10
70.596236
 20
62.769033
 30
0.0
 10
70.771499
 20
57.915815
 30
0.0
 10
70.906955
 20
56.547041
 30
0.0
 10
71.329381
 20
55.360700
 30
0.0
  0
SPLINE
  5
12d
100
AcDbEntity
  8
0
 62
7
100
AcDbSpline
 70
8
 71
3
 72
8
 73
4
 74
0
 40
0
 40
0
 40
0
 40
0
 40
1
 40
1
 40
1
 40
1
 10
71.329381
 20
55.360700
 30
0.0
 10
71.917211
 20
53.709827
 30
0.0
 10
73.160141
 20
51.034992
 30
0.0
 10
74.155226
 20
49.279376
 30
0.0
  0
SPLINE
  5
12e
100
AcDbEntity
  8
0
 62
7
100
AcDbSpline
 70
8
 71
3
 72
8
 73
4
 74
0
 40
0
 40
0
 40
0
 40
0
 40
1
 40
1
 40
1
 40
1
 10
74.155226
 20
49.279376
 30
0.0
 10
75.069756
 20
47.665883
 30
0.0
 10
75.029777
 20
46.613368
 30
0.0
 10
74.009835
 20
45.451720
 30
0.0
  0
SPLINE
  5
12f
100
AcDbEntity
  8
0
 62
7
100
AcDbSpline
 70
8
 71
3
 72
8
 73
4
 74
0
 40
0
 40
0
 40
0
 40
0
 40
1
 40
1
 40
1
 40
1
 10
74.009835
 20
45.451720
 30
0.0
 10
73.207528
 20
44.537945
 30
0.0
 10
71.634956
 20
43.875097
 30
0.0
 10
70.657760
 20
44.038808
 30
0.0
  0
SPLINE
  5
130
100
AcDbEntity
  8
0
 62
7
100
AcDbSpline
 70
8
 71
3
 72
8
 73
4
 74
0
 40
0
 40
0
 40
0
 40
0
 40
1
 40
1
 40
1
 40
1
 10
70.657760
 20
44.038808
 30
0.0
 10
70.327179
 20
44.094191
 30
0.0
 10
70.221880
 20
43.966852
 30
0.0
 10
70.283938
 20
43.586741
 30
0.0
  0
SPLINE
  5
131
100
AcDbEntity
  8
0
 62
7
100
AcDbSpline
 70
8
 71
3
 72
8
 73
4
 74
0
 40
0
 40
0
 40
0
 40
0
 40
1
 40
1
 40
1
 40
1
 10
70.283938
 20
43.586741
 30
0.0
 10
70.492464
 20
42.309465
 30
0.0
 10
72.501080
 20
34.583703
 30
0.0
 10
72.754413
 20
34.084535
 30
0.0
  0
SPLINE
  5
132
100
AcDbEntity
  8
0
 62
7
100
AcDbSpline
 70
8
 71
3
 72
8
 73
4
 74
0
 40
0
 40
0
 40
0
 40
0
 40
1
 40
1
 40
1
 40
1
 10
72.754413
 20
34.084535
 30
0.0
 10
72.908480
 20
33.780958
 30
0.0
 10
73.904758
 20
32.639606
 30
0.0
 10
74.968362
 20
31.548200
 30
0.0
  0
LWPOLYLINE
  5
133
100
AcDbEntity
  8
0
 62
7
100
AcDbPolyline
 90
3
 70
0
 10
74.779399
 20
77.115104
 30
0.0
 10
72.746669
 20
76.990601
 30
0.0
 10
72.900585
 20
73.650131
 30
0.0
  0
SPLINE
  5
134
100
AcDbEntity
  8
0
 62
7
100
AcDbSpline
 70
8
 71
3
 72
8
 73
4
 74
0
 40
0
 40
0
 40
0
 40
0
 40
1
 40
1
 40
1
 40
1
 10
77.453064
 20
21.890908
 30
0.0
 10
77.756044
 20
17.670804
 30
0.0
 10
78.003670
 20
13.711976
 30
0.0
 10
78.003344
 20
13.093512
 30
0.0
  0
LWPOLYLINE
  5
135
100
AcDbEntity
  8
0
 62
7
100
AcDbPolyline
 90
3
 70
0
 10
74.968362
 20
31.548200
 30
0.0
 10
76.902191
 20
29.563825
 30
0.0
 10
77.453064
 20
21.890908
 30
0.0
  0
SPLINE
  5
136
100
AcDbEntity
  8
0
 62
7
100
AcDbSpline
 70
8
 71
3
 72
8
 73
4
 74
0
 40
0
 40
0
 40
0
 40
0
 40
1
 40
1
 40
1
 40
1
 10
72.429513
 20
10.403269
 30
0.0
 10
67.869784
 20
6.574758
 30
0.0
 10
63.113454
 20
5.225838
 30
0.0
 10
57.894482
 20
6.281065
 30
0.0
  0
LWPOLYLINE
  5
137
100
AcDbEntity
  8
0
 62
7
100
AcDbPolyline
 90
5
 70
0
 10
78.003344
 20
13.093512
 30
0.0
 10
78.002815
 20
11.969033
 30
0.0
 10
76.148570
 20
11.969033
 30
0.0
 10
74.294325
 20
11.969033
 30
0.0
 10
72.429513
 20
10.403269
 30
0.0
  0
SPLINE
  5
138
100
AcDbEntity
  8
0
 62
7
100
AcDbSpline
 70
8
 71
3
 72
8
 73
4
 74
0
 40
0
 40
0
 40
0
 40
0
 40
1
 40
1
 40
1
 40
1
 10
65.289046
 20
8.524833
 30
0.0
 10
67.466472
 20
9.258353
 30
0.0
 10
69.695002
 20
10.623516
 30
0.0
 10
71.739353
 20
12.476189
 30
0.0
  0
SPLINE
  5
139
100
AcDbEntity
  8
0
 62
7
100
AcDbSpline
 70
8
 71
3
 72
8
 73
4
 74
0
 40
0
 40
0
 40
0
 40
0
 40
1
 40
1
 40
1
 40
1
 10
71.739353
 20
12.476189
 30
0.0
 10
73.300947
 20
13.891368
 30
0.0
 10
73.596857
 20
14.053992
 30
0.0
 10
74.541745
 20
14.016313
 30
0.0
  0
SPLINE
  5
13a
100
AcDbEntity
  8
0
 62
7
100
AcDbSpline
 70
8
 71
3
 72
8
 73
4
 74
0
 40
0
 40
0
 40
0
 40
0
 40
1
 40
1
 40
1
 40
1
 10
74.541745
 20
14.016313
 30
0.0
 10
75.122786
 20
13.993135
 30
0.0
 10
75.679419
 20
14.055418
 30
0.0
 10
75.778704
 20
14.154706
 30
0.0
  0
SPLINE
  5
13b
100
AcDbEntity
  8
0
 62
7
100
AcDbSpline
 70
8
 71
3
 72
8
 73
4
 74
0
 40
0
 40
0
 40
0
 40
0
 40
1
 40
1
 40
1
 40
1
 10
75.778704
 20
14.154706
 30
0.0
 10
75.877989
 20
14.253991
 30
0.0
 10
75.739564
 20
17.580012
 30
0.0
 10
75.471091
 20
21.545860
 30
0.0
  0
LWPOLYLINE
  5
13c
100
AcDbEntity
  8
0
 62
7
100
AcDbPolyline
 90
1
 70
1
 10
57.894482
 20
6.281065
 30
0.0
  0
SPLINE
  5
13d
100
AcDbEntity
  8
0
 62
7
100
AcDbSpline
 70
8
 71
3
 72
8
 73
4
 74
0
 40
0
 40
0
 40
0
 40
0
 40
1
 40
1
 40
1
 40
1
 10
73.224292
 20
30.487472
 30
0.0
 10
72.257026
 20
31.439509
 30
0.0
 10
71.274834
 20
32.587396
 30
0.0
 10
71.041649
 20
33.038330
 30
0.0
  0
SPLINE
  5
13e
100
AcDbEntity
  8
0
 62
7
100
AcDbSpline
 70
8
 71
3
 72
8
 73
4
 74
0
 40
0
 40
0
 40
0
 40
0
 40
1
 40
1
 40
1
 40
1
 10
71.041649
 20
33.038330
 30
0.0
 10
70.277429
 20
34.516163
 30
0.0
 10
67.116965
 20
47.706455
 30
0.0
 10
67.355572
 20
48.422274
 30
0.0
  0
SPLINE
  5
13f
100
AcDbEntity
  8
0
 62
7
100
AcDbSpline
 70
8
 71
3
 72
8
 73
4
 74
0
 40
0
 40
0
 40
0
 40
0
 40
1
 40
1
 40
1
 40
1
 10
67.355572
 20
48.422274
 30
0.0
 10
67.556338
 20
49.024572
 30
0.0
 10
69.703844
 20
48.593748
 30
0.0
 10
70.824275
 20
47.726399
 30
0.0
  0
SPLINE
  5
140
100
AcDbEntity
  8
0
 62
7
100
AcDbSpline
 70
8
 71
3
 72
8
 73
4
 74
0
 40
0
 40
0
 40
0
 40
0
 40
1
 40
1
 40
1
 40
1
 10
70.824275
 20
47.726399
 30
0.0
 10
71.358861
 20
47.312567
 30
0.0
 10
71.406118
 20
47.157362
 30
0.0
 10
71.145696
 20
46.670759
 30
0.0
  0
SPLINE
  5
141
100
AcDbEntity
  8
0
 62
7
100
AcDbSpline
 70
8
 71
3
 72
8
 73
4
 74
0
 40
0
 40
0
 40
0
 40
0
 40
1
 40
1
 40
1
 40
1
 10
71.145696
 20
46.670759
 30
0.0
 10
70.892114
 20
46.196935
 30
0.0
 10
70.912151
 20
46.100283
 30
0.0
 10
71.263965
 20
46.100283
 30
0.0
  0
SPLINE
  5
142
100
AcDbEntity
  8
0
 62
7
100
AcDbSpline
 70
8
 71
3
 72
8
 73
4
 74
0
 40
0
 40
0
 40
0
 40
0
 40
1
 40
1
 40
1
 40
1
 10
71.263965
 20
46.100283
 30
0.0
 10
71.881508
 20
46.100283
 30
0.0
 10
72.624410
 20
46.551107
 30
0.0
 10
72.811868
 20
47.039615
 30
0.0
  0
SPLINE
  5
143
100
AcDbEntity
  8
0
 62
7
100
AcDbSpline
 70
8
 71
3
 72
8
 73
4
 74
0
 40
0
 40
0
 40
0
 40
0
 40
1
 40
1
 40
1
 40
1
 10
72.811868
 20
47.039615
 30
0.0
 10
72.907869
 20
47.289791
 30
0.0
 10
72.553835
 20
48.190298
 30
0.0
 10
71.950802
 20
49.229777
 30
0.0
  0
SPLINE
  5
144
100
AcDbEntity
  8
0
 62
7
100
AcDbSpline
 70
8
 71
3
 72
8
 73
4
 74
0
 40
0
 40
0
 40
0
 40
0
 40
1
 40
1
 40
1
 40
1
 10
71.950802
 20
49.229777
 30
0.0
 10
71.387544
 20
50.200690
 30
0.0
 10
70.474538
 20
52.126168
 30
0.0
 10
69.921895
 20
53.508616
 30
0.0
  0
SPLINE
  5
145
100
AcDbEntity
  8
0
 62
7
100
AcDbSpline
 70
8
 71
3
 72
8
 73
4
 74
0
 40
0
 40
0
 40
0
 40
0
 40
1
 40
1
 40
1
 40
1
 10
69.921895
 20
53.508616
 30
0.0
 10
68.991835
 20
55.835193
 30
0.0
 10
68.902014
 20
56.297687
 30
0.0
 10
68.714353
 20
59.726325
 30
0.0
  0
SPLINE
  5
146
100
AcDbEntity
  8
0
 62
7
100
AcDbSpline
 70
8
 71
3
 72
8
 73
4
 74
0
 40
0
 40
0
 40
0
 40
0
 40
1
 40
1
 40
1
 40
1
 10
68.714353
 20
59.726325
 30
0.0
 10
68.602847
 20
61.763616
 30
0.0
 10
68.503993
 20
65.013983
 30
0.0
 10
68.494682
 20
66.949360
 30
0.0
  0
LWPOLYLINE
  5
147
100
AcDbEntity
  8
0
 62
7
100
AcDbPolyline
 90
3
 70
0
 10
75.471091
 20
21.545860
 30
0.0
 10
74.982962
 20
28.756496
 30
0.0
 10
73.224292
 20
30.487472
 30
0.0
  0
SPLINE
  5
148
100
AcDbEntity
  8
0
 62
7
100
AcDbSpline
 70
8
 71
3
 72
8
 73
4
 74
0
 40
0
 40
0
 40
0
 40
0
 40
1
 40
1
 40
1
 40
1
 10
66.824103
 20
70.293005
 30
0.0
 10
58.391073
 20
69.399444
 30
0.0
 10
50.492644
 20
65.563909
 30
0.0
 10
43.407727
 20
58.921838
 30
0.0
  0
LWPOLYLINE
  5
149
100
AcDbEntity
  8
0
 62
7
100
AcDbPolyline
 90
3
 70
0
 10
68.494682
 20
66.949360
 30
0.0
 10
68.477749
 20
70.468225
 30
0.0
 10
66.824103
 20
70.293005
 30
0.0
  0
SPLINE
  5
14a
100
AcDbEntity
  8
0
 62
7
100
AcDbSpline
 70
8
 71
3
 72
8
 73
4
 74
0
 40
0
 40
0
 40
0
 40
0
 40
1
 40
1
 40
1
 40
1
 10
40.209769
 20
57.523330
 30
0.0
 10
38.015696
 20
62.699183
 30
0.0
 10
38.699533
 20
69.586038
 30
0.0
 10
42.046311
 20
76.018969
 30
0.0
  0
LWPOLYLINE
  5
14b
100
AcDbEntity
  8
0
 62
7
100
AcDbPolyline
 90
3
 70
0
 10
43.407727
 20
58.921838
 30
0.0
 10
40.694996
 20
56.378671
 30
0.0
 10
40.209769
 20
57.523330
 30
0.0
  0
SPLINE
  5
14c
100
AcDbEntity
  8
0
 62
7
100
AcDbSpline
 70
8
 71
3
 72
8
 73
4
 74
0
 40
0
 40
0
 40
0
 40
0
 40
1
 40
1
 40
1
 40
1
 10
45.938855
 20
78.258982
 30
0.0
 10
54.442807
 20
78.838684
 30
0.0
 10
61.237400
 20
77.152804
 30
0.0
 10
68.307858
 20
72.708767
 30
0.0
  0
SPLINE
  5
14d
100
AcDbEntity
  8
0
 62
7
100
AcDbSpline
 70
8
 71
3
 72
8
 73
4
 74
0
 40
0
 40
0
 40
0
 40
0
 40
1
 40
1
 40
1
 40
1
 10
68.307858
 20
72.708767
 30
0.0
 10
69.596865
 20
71.898581
 30
0.0
 10
70.698193
 20
71.235700
 30
0.0
 10
70.755253
 20
71.235700
 30
0.0
  0
SPLINE
  5
14e
100
AcDbEntity
  8
0
 62
7
100
AcDbSpline
 70
8
 71
3
 72
8
 73
4
 74
0
 40
0
 40
0
 40
0
 40
0
 40
1
 40
1
 40
1
 40
1
 10
70.755253
 20
71.235700
 30
0.0
 10
70.812313
 20
71.235700
 30
0.0
 10
70.858999
 20
71.880402
 30
0.0
 10
70.858999
 20
72.668373
 30
0.0
  0
SPLINE
  5
14f
100
AcDbEntity
  8
0
 62
7
100
AcDbSpline
 70
8
 71
3
 72
8
 73
4
 74
0
 40
0
 40
0
 40
0
 40
0
 40
1
 40
1
 40
1
 40
1
 10
70.858999
 20
72.668373
 30
0.0
 10
70.858999
 20
74.078838
 30
0.0
 10
70.838785
 20
74.115880
 30
0.0
 10
69.555693
 20
75.057762
 30
0.0
  0
SPLINE
  5
150
100
AcDbEntity
  8
0
 62
7
100
AcDbSpline
 70
8
 71
3
 72
8
 73
4
 74
0
 40
0
 40
0
 40
0
 40
0
 40
1
 40
1
 40
1
 40
1
 10
69.555693
 20
75.057762
 30
0.0
 10
68.092249
 20
76.132029
 30
0.0
 10
66.890249
 20
78.190315
 30
0.0
 10
66.890249
 20
79.622023
 30
0.0
  0
SPLINE
  5
151
100
AcDbEntity
  8
0
 62
7
100
AcDbSpline
 70
8
 71
3
 72
8
 73
4
 74
0
 40
0
 40
0
 40
0
 40
0
 40
1
 40
1
 40
1
 40
1
 10
66.890249
 20
79.622023
 30
0.0
 10
66.890249
 20
80.425896
 30
0.0
 10
66.957131
 20
80.496116
 30
0.0
 10
67.722779
 20
80.496116
 30
0.0
  0
SPLINE
  5
152
100
AcDbEntity
  8
0
 62
7
100
AcDbSpline
 70
8
 71
3
 72
8
 73
4
 74
0
 40
0
 40
0
 40
0
 40
0
 40
1
 40
1
 40
1
 40
1
 10
67.722779
 20
80.496116
 30
0.0
 10
68.180672
 20
80.496116
 30
0.0
 10
69.670377
 20
80.138929
 30
0.0
 10
71.033235
 20
79.702366
 30
0.0
  0
SPLINE
  5
153
100
AcDbEntity
  8
0
 62
7
100
AcDbSpline
 70
8
 71
3
 72
8
 73
4
 74
0
 40
0
 40
0
 40
0
 40
0
 40
1
 40
1
 40
1
 40
1
 10
71.033235
 20
79.702366
 30
0.0
 10
73.865121
 20
78.795232
 30
0.0
 10
74.467405
 20
78.751554
 30
0.0
 10
76.366695
 20
79.315583
 30
0.0
  0
SPLINE
  5
154
100
AcDbEntity
  8
0
 62
7
100
AcDbSpline
 70
8
 71
3
 72
8
 73
4
 74
0
 40
0
 40
0
 40
0
 40
0
 40
1
 40
1
 40
1
 40
1
 10
76.366695
 20
79.315583
 30
0.0
 10
77.678203
 20
79.705060
 30
0.0
 10
79.854832
 20
81.383156
 30
0.0
 10
79.854832
 20
82.004800
 30
0.0
  0
SPLINE
  5
155
100
AcDbEntity
  8
0
 62
7
100
AcDbSpline
 70
8
 71
3
 72
8
 73
4
 74
0
 40
0
 40
0
 40
0
 40
0
 40
1
 40
1
 40
1
 40
1
 10
79.854832
 20
82.004800
 30
0.0
 10
79.854832
 20
82.177498
 30
0.0
 10
78.746048
 20
82.226838
 30
0.0
 10
76.730511
 20
82.143828
 30
0.0
  0
SPLINE
  5
156
100
AcDbEntity
  8
0
 62
7
100
AcDbSpline
 70
8
 71
3
 72
8
 73
4
 74
0
 40
0
 40
0
 40
0
 40
0
 40
1
 40
1
 40
1
 40
1
 10
76.730511
 20
82.143828
 30
0.0
 10
71.464490
 20
81.926946
 30
0.0
 10
67.252522
 20
83.155340
 30
0.0
 10
63.934377
 20
85.875738
 30
0.0
  0
SPLINE
  5
157
100
AcDbEntity
  8
0
 62
7
100
AcDbSpline
 70
8
 71
3
 72
8
 73
4
 74
0
 40
0
 40
0
 40
0
 40
0
 40
1
 40
1
 40
1
 40
1
 10
63.934377
 20
85.875738
 30
0.0
 10
62.535644
 20
87.022495
 30
0.0
 10
60.004764
 20
90.378082
 30
0.0
 10
59.616919
 20
91.600068
 30
0.0
  0
SPLINE
  5
158
100
AcDbEntity
  8
0
 62
7
100
AcDbSpline
 70
8
 71
3
 72
8
 73
4
 74
0
 40
0
 40
0
 40
0
 40
0
 40
1
 40
1
 40
1
 40
1
 10
59.616919
 20
91.600068
 30
0.0
 10
59.462255
 20
92.087375
 30
0.0
 10
59.226315
 20
92.137783
 30
0.0
 10
57.100134
 20
92.137783
 30
0.0
  0
SPLINE
  5
159
100
AcDbEntity
  8
0
 62
7
100
AcDbSpline
 70
8
 71
3
 72
8
 73
4
 74
0
 40
0
 40
0
 40
0
 40
0
 40
1
 40
1
 40
1
 40
1
 10
57.100134
 20
92.137783
 30
0.0
 10
53.920266
 20
92.137783
 30
0.0
 10
49.859369
 20
91.221896
 30
0.0
 10
47.456061
 20
89.962675
 30
0.0
  0
LWPOLYLINE
  5
15a
100
AcDbEntity
  8
0
 62
7
100
AcDbPolyline
 90
3
 70
0
 10
42.046311
 20
76.018969
 30
0.0
 10
43.111417
 20
78.066239
 30
0.0
 10
45.938855
 20
78.258982
 30
0.0
  0
SPLINE
  5
15b
100
AcDbEntity
  8
0
 62
7
100
AcDbSpline
 70
8
 71
3
 72
8
 73
4
 74
0
 40
0
 40
0
 40
0
 40
0
 40
1
 40
1
 40
1
 40
1
 10
48.247964
 20
88.349831
 30
0.0
 10
49.075800
 20
87.668309
 30
0.0
 10
49.849119
 20
87.110700
 30
0.0
 10
49.966443
 20
87.110700
 30
0.0
  0
SPLINE
  5
15c
100
AcDbEntity
  8
0
 62
7
100
AcDbSpline
 70
8
 71
3
 72
8
 73
4
 74
0
 40
0
 40
0
 40
0
 40
0
 40
1
 40
1
 40
1
 40
1
 10
49.966443
 20
87.110700
 30
0.0
 10
50.083770
 20
87.110700
 30
0.0
 10
51.210578
 20
87.706012
 30
0.0
 10
52.470457
 20
88.433616
 30
0.0
  0
SPLINE
  5
15d
100
AcDbEntity
  8
0
 62
7
100
AcDbSpline
 70
8
 71
3
 72
8
 73
4
 74
0
 40
0
 40
0
 40
0
 40
0
 40
1
 40
1
 40
1
 40
1
 10
52.470457
 20
88.433616
 30
0.0
 10
53.730337
 20
89.161220
 30
0.0
 10
54.856343
 20
89.756533
 30
0.0
 10
54.972691
 20
89.756533
 30
0.0
  0
SPLINE
  5
15e
100
AcDbEntity
  8
0
 62
7
100
AcDbSpline
 70
8
 71
3
 72
8
 73
4
 74
0
 40
0
 40
0
 40
0
 40
0
 40
1
 40
1
 40
1
 40
1
 10
54.972691
 20
89.756533
 30
0.0
 10
55.089039
 20
89.756533
 30
0.0
 10
55.696599
 20
89.092410
 30
0.0
 10
56.322825
 20
88.280703
 30
0.0
  0
SPLINE
  5
15f
100
AcDbEntity
  8
0
 62
7
100
AcDbSpline
 70
8
 71
3
 72
8
 73
4
 74
0
 40
0
 40
0
 40
0
 40
0
 40
1
 40
1
 40
1
 40
1
 10
56.322825
 20
88.280703
 30
0.0
 10
58.086477
 20
85.994684
 30
0.0
 10
60.626654
 20
83.822783
 30
0.0
 10
62.950876
 20
82.613590
 30
0.0
  0
SPLINE
  5
160
100
AcDbEntity
  8
0
 62
7
100
AcDbSpline
 70
8
 71
3
 72
8
 73
4
 74
0
 40
0
 40
0
 40
0
 40
0
 40
1
 40
1
 40
1
 40
1
 10
62.950876
 20
82.613590
 30
0.0
 10
65.403688
 20
81.337497
 30
0.0
 10
65.507907
 20
80.975756
 30
0.0
 10
63.712307
 20
79.970707
 30
0.0
  0
SPLINE
  5
161
100
AcDbEntity
  8
0
 62
7
100
AcDbSpline
 70
8
 71
3
 72
8
 73
4
 74
0
 40
0
 40
0
 40
0
 40
0
 40
1
 40
1
 40
1
 40
1
 10
63.712307
 20
79.970707
 30
0.0
 10
62.633058
 20
79.366621
 30
0.0
 10
62.258903
 20
79.308415
 30
0.0
 10
59.614207
 20
79.333169
 30
0.0
  0
SPLINE
  5
162
100
AcDbEntity
  8
0
 62
7
100
AcDbSpline
 70
8
 71
3
 72
8
 73
4
 74
0
 40
0
 40
0
 40
0
 40
0
 40
1
 40
1
 40
1
 40
1
 10
59.614207
 20
79.333169
 30
0.0
 10
57.010520
 20
79.357537
 30
0.0
 10
56.452831
 20
79.452989
 30
0.0
 10
54.322541
 20
80.238812
 30
0.0
  0
SPLINE
  5
163
100
AcDbEntity
  8
0
 62
7
100
AcDbSpline
 70
8
 71
3
 72
8
 73
4
 74
0
 40
0
 40
0
 40
0
 40
0
 40
1
 40
1
 40
1
 40
1
 10
54.322541
 20
80.238812
 30
0.0
 10
52.406561
 20
80.945580
 30
0.0
 10
51.437249
 20
81.140091
 30
0.0
 10
49.361603
 20
81.234312
 30
0.0
  0
LWPOLYLINE
  5
164
100
AcDbEntity
  8
0
 62
7
100
AcDbPolyline
 90
3
 70
0
 10
47.456061
 20
89.962675
 30
0.0
 10
46.742802
 20
89.588962
 30
0.0
 10
48.247964
 20
88.349831
 30
0.0
  0
SPLINE
  5
165
100
AcDbEntity
  8
0
 62
7
100
AcDbSpline
 70
8
 71
3
 72
8
 73
4
 74
0
 40
0
 40
0
 40
0
 40
0
 40
1
 40
1
 40
1
 40
1
 10
46.781916
 20
82.074906
 30
0.0
 10
46.781916
 20
83.185706
 30
0.0
 10
47.295162
 20
84.492928
 30
0.0
 10
48.173000
 20
85.617960
 30
0.0
  0
SPLINE
  5
166
100
AcDbEntity
  8
0
 62
7
100
AcDbSpline
 70
8
 71
3
 72
8
 73
4
 74
0
 40
0
 40
0
 40
0
 40
0
 40
1
 40
1
 40
1
 40
1
 10
48.173000
 20
85.617960
 30
0.0
 10
48.619058
 20
86.189624
 30
0.0
 10
48.857482
 20
86.713481
 30
0.0
 10
48.714893
 20
86.808585
 30
0.0
  0
SPLINE
  5
167
100
AcDbEntity
  8
0
 62
7
100
AcDbSpline
 70
8
 71
3
 72
8
 73
4
 74
0
 40
0
 40
0
 40
0
 40
0
 40
1
 40
1
 40
1
 40
1
 10
48.714893
 20
86.808585
 30
0.0
 10
47.500180
 20
87.618779
 30
0.0
 10
44.929832
 20
89.630311
 30
0.0
 10
44.929832
 20
89.770744
 30
0.0
  0
SPLINE
  5
168
100
AcDbEntity
  8
0
 62
7
100
AcDbSpline
 70
8
 71
3
 72
8
 73
4
 74
0
 40
0
 40
0
 40
0
 40
0
 40
1
 40
1
 40
1
 40
1
 10
44.929832
 20
89.770744
 30
0.0
 10
44.929832
 20
90.094522
 30
0.0
 10
49.195826
 20
91.902918
 30
0.0
 10
51.244140
 20
92.447435
 30
0.0
  0
SPLINE
  5
169
100
AcDbEntity
  8
0
 62
7
100
AcDbSpline
 70
8
 71
3
 72
8
 73
4
 74
0
 40
0
 40
0
 40
0
 40
0
 40
1
 40
1
 40
1
 40
1
 10
51.244140
 20
92.447435
 30
0.0
 10
52.513137
 20
92.784784
 30
0.0
 10
54.503820
 20
93.036324
 30
0.0
 10
56.598254
 20
93.123978
 30
0.0
  0
LWPOLYLINE
  5
16a
100
AcDbEntity
  8
0
 62
7
100
AcDbPolyline
 90
3
 70
0
 10
49.361603
 20
81.234312
 30
0.0
 10
46.781916
 20
81.351411
 30
0.0
 10
46.781916
 20
82.074906
 30
0.0
  0
SPLINE
  5
16b
100
AcDbEntity
  8
0
 62
7
100
AcDbSpline
 70
8
 71
3
 72
8
 73
4
 74
0
 40
0
 40
0
 40
0
 40
0
 40
1
 40
1
 40
1
 40
1
 10
61.228462
 20
91.311582
 30
0.0
 10
62.953257
 20
88.714167
 30
0.0
 10
65.868976
 20
85.834950
 30
0.0
 10
67.698646
 20
84.922397
 30
0.0
  0
SPLINE
  5
16c
100
AcDbEntity
  8
0
 62
7
100
AcDbSpline
 70
8
 71
3
 72
8
 73
4
 74
0
 40
0
 40
0
 40
0
 40
0
 40
1
 40
1
 40
1
 40
1
 10
67.698646
 20
84.922397
 30
0.0
 10
69.512767
 20
84.017601
 30
0.0
 10
71.514880
 20
83.674638
 30
0.0
 10
74.994315
 20
83.672648
 30
0.0
  0
LWPOLYLINE
  5
16d
100
AcDbEntity
  8
0
 62
7
100
AcDbPolyline
 90
3
 70
0
 10
56.598254
 20
93.123978
 30
0.0
 10
59.932300
 20
93.263506
 30
0.0
 10
61.228462
 20
91.311582
 30
0.0
  0
SPLINE
  5
16e
100
AcDbEntity
  8
0
 62
7
100
AcDbSpline
 70
8
 71
3
 72
8
 73
4
 74
0
 40
0
 40
0
 40
0
 40
0
 40
1
 40
1
 40
1
 40
1
 10
78.632336
 20
84.840069
 30
0.0
 10
79.159187
 20
85.483023
 30
0.0
 10
79.590249
 20
86.078335
 30
0.0
 10
79.590249
 20
86.162986
 30
0.0
  0
SPLINE
  5
16f
100
AcDbEntity
  8
0
 62
7
100
AcDbSpline
 70
8
 71
3
 72
8
 73
4
 74
0
 40
0
 40
0
 40
0
 40
0
 40
1
 40
1
 40
1
 40
1
 10
79.590249
 20
86.162986
 30
0.0
 10
79.590249
 20
86.247634
 30
0.0
 10
78.994937
 20
86.316894
 30
0.0
 10
78.267332
 20
86.316894
 30
0.0
  0
SPLINE
  5
170
100
AcDbEntity
  8
0
 62
7
100
AcDbSpline
 70
8
 71
3
 72
8
 73
4
 74
0
 40
0
 40
0
 40
0
 40
0
 40
1
 40
1
 40
1
 40
1
 10
78.267332
 20
86.316894
 30
0.0
 10
76.816172
 20
86.316894
 30
0.0
 10
76.694752
 20
86.479115
 30
0.0
 10
77.448860
 20
87.410398
 30
0.0
  0
SPLINE
  5
171
100
AcDbEntity
  8
0
 62
7
100
AcDbSpline
 70
8
 71
3
 72
8
 73
4
 74
0
 40
0
 40
0
 40
0
 40
0
 40
1
 40
1
 40
1
 40
1
 10
77.448860
 20
87.410398
 30
0.0
 10
77.905248
 20
87.974014
 30
0.0
 10
78.127675
 20
88.025351
 30
0.0
 10
79.783765
 20
87.949289
 30
0.0
  0
SPLINE
  5
172
100
AcDbEntity
  8
0
 62
7
100
AcDbSpline
 70
8
 71
3
 72
8
 73
4
 74
0
 40
0
 40
0
 40
0
 40
0
 40
1
 40
1
 40
1
 40
1
 10
79.783765
 20
87.949289
 30
0.0
 10
81.603263
 20
87.865723
 30
0.0
 10
81.618471
 20
87.870779
 30
0.0
 10
82.322032
 20
88.793196
 30
0.0
  0
SPLINE
  5
173
100
AcDbEntity
  8
0
 62
7
100
AcDbSpline
 70
8
 71
3
 72
8
 73
4
 74
0
 40
0
 40
0
 40
0
 40
0
 40
1
 40
1
 40
1
 40
1
 10
82.322032
 20
88.793196
 30
0.0
 10
82.711322
 20
89.303582
 30
0.0
 10
83.029832
 20
89.777956
 30
0.0
 10
83.029832
 20
89.847364
 30
0.0
  0
SPLINE
  5
174
100
AcDbEntity
  8
0
 62
7
100
AcDbSpline
 70
8
 71
3
 72
8
 73
4
 74
0
 40
0
 40
0
 40
0
 40
0
 40
1
 40
1
 40
1
 40
1
 10
83.029832
 20
89.847364
 30
0.0
 10
83.029832
 20
89.916770
 30
0.0
 10
82.009668
 20
90.058536
 30
0.0
 10
80.762798
 20
90.162401
 30
0.0
  0
LWPOLYLINE
  5
175
100
AcDbEntity
  8
0
 62
7
100
AcDbPolyline
 90
3
 70
0
 10
74.994315
 20
83.672648
 30
0.0
 10
77.674422
 20
83.671061
 30
0.0
 10
78.632336
 20
84.840069
 30
0.0
  0
SPLINE
  5
176
100
AcDbEntity
  8
0
 62
7
100
AcDbSpline
 70
8
 71
3
 72
8
 73
4
 74
0
 40
0
 40
0
 40
0
 40
0
 40
1
 40
1
 40
1
 40
1
 10
79.224799
 20
91.112194
 30
0.0
 10
79.914033
 20
91.831655
 30
0.0
 10
80.074611
 20
91.873200
 30
0.0
 10
82.165984
 20
91.873200
 30
0.0
  0
SPLINE
  5
177
100
AcDbEntity
  8
0
 62
7
100
AcDbSpline
 70
8
 71
3
 72
8
 73
4
 74
0
 40
0
 40
0
 40
0
 40
0
 40
1
 40
1
 40
1
 40
1
 10
82.165984
 20
91.873200
 30
0.0
 10
84.247596
 20
91.873200
 30
0.0
 10
84.415921
 20
91.916134
 30
0.0
 10
85.018536
 20
92.600804
 30
0.0
  0
SPLINE
  5
178
100
AcDbEntity
  8
0
 62
7
100
AcDbSpline
 70
8
 71
3
 72
8
 73
4
 74
0
 40
0
 40
0
 40
0
 40
0
 40
1
 40
1
 40
1
 40
1
 10
85.018536
 20
92.600804
 30
0.0
 10
86.081664
 20
93.808685
 30
0.0
 10
85.914627
 20
93.920524
 30
0.0
 10
82.971759
 20
93.971229
 30
0.0
  0
SPLINE
  5
179
100
AcDbEntity
  8
0
 62
7
100
AcDbSpline
 70
8
 71
3
 72
8
 73
4
 74
0
 40
0
 40
0
 40
0
 40
0
 40
1
 40
1
 40
1
 40
1
 10
82.971759
 20
93.971229
 30
0.0
 10
81.484613
 20
93.996841
 30
0.0
 10
80.224810
 20
94.060862
 30
0.0
 10
80.172198
 20
94.113472
 30
0.0
  0
SPLINE
  5
17a
100
AcDbEntity
  8
0
 62
7
100
AcDbSpline
 70
8
 71
3
 72
8
 73
4
 74
0
 40
0
 40
0
 40
0
 40
0
 40
1
 40
1
 40
1
 40
1
 10
80.172198
 20
94.113472
 30
0.0
 10
80.119588
 20
94.166084
 30
0.0
 10
80.209440
 20
94.457451
 30
0.0
 10
80.371871
 20
94.760955
 30
0.0
  0
SPLINE
  5
17b
100
AcDbEntity
  8
0
 62
7
100
AcDbSpline
 70
8
 71
3
 72
8
 73
4
 74
0
 40
0
 40
0
 40
0
 40
0
 40
1
 40
1
 40
1
 40
1
 10
80.371871
 20
94.760955
 30
0.0
 10
80.647593
 20
95.276146
 30
0.0
 10
80.891703
 20
95.312783
 30
0.0
 10
84.048753
 20
95.312783
 30
0.0
  0
LWPOLYLINE
  5
17c
100
AcDbEntity
  8
0
 62
7
100
AcDbPolyline
 90
3
 70
0
 10
80.762798
 20
90.162401
 30
0.0
 10
78.495763
 20
90.351245
 30
0.0
 10
79.224799
 20
91.112194
 30
0.0
  0
SPLINE
  5
17d
100
AcDbEntity
  8
0
 62
7
100
AcDbSpline
 70
8
 71
3
 72
8
 73
4
 74
0
 40
0
 40
0
 40
0
 40
0
 40
1
 40
1
 40
1
 40
1
 10
87.357749
 20
97.267146
 30
0.0
 10
85.399144
 20
96.957393
 30
0.0
 10
77.624943
 20
97.041891
 30
0.0
 10
75.092332
 20
97.400457
 30
0.0
  0
SPLINE
  5
17e
100
AcDbEntity
  8
0
 62
7
100
AcDbSpline
 70
8
 71
3
 72
8
 73
4
 74
0
 40
0
 40
0
 40
0
 40
0
 40
1
 40
1
 40
1
 40
1
 10
75.092332
 20
97.400457
 30
0.0
 10
69.968015
 20
98.125957
 30
0.0
 10
65.121364
 20
99.553882
 30
0.0
 10
60.656481
 20
101.653562
 30
0.0
  0
SPLINE
  5
17f
100
AcDbEntity
  8
0
 62
7
100
AcDbSpline
 70
8
 71
3
 72
8
 73
4
 74
0
 40
0
 40
0
 40
0
 40
0
 40
1
 40
1
 40
1
 40
1
 10
60.656481
 20
101.653562
 30
0.0
 10
53.994029
 20
104.786684
 30
0.0
 10
48.990345
 20
109.363063
 30
0.0
 10
46.092515
 20
114.973796
 30
0.0
  0
SPLINE
  5
180
100
AcDbEntity
  8
0
 62
7
100
AcDbSpline
 70
8
 71
3
 72
8
 73
4
 74
0
 40
0
 40
0
 40
0
 40
0
 40
1
 40
1
 40
1
 40
1
 10
46.092515
 20
114.973796
 30
0.0
 10
45.363360
 20
116.385573
 30
0.0
 10
44.781152
 20
117.230354
 30
0.0
 10
44.636814
 20
117.086013
 30
0.0
  0
SPLINE
  5
181
100
AcDbEntity
  8
0
 62
7
100
AcDbSpline
 70
8
 71
3
 72
8
 73
4
 74
0
 40
0
 40
0
 40
0
 40
0
 40
1
 40
1
 40
1
 40
1
 10
44.636814
 20
117.086013
 30
0.0
 10
44.233031
 20
116.682232
 30
0.0
 10
43.314975
 20
113.819864
 30
0.0
 10
43.176613
 20
112.533322
 30
0.0
  0
LWPOLYLINE
  5
182
100
AcDbEntity
  8
0
 62
7
100
AcDbPolyline
 90
5
 70
0
 10
84.048753
 20
95.312783
 30
0.0
 10
87.430308
 20
95.312783
 30
0.0
 10
88.036633
 20
96.391592
 30
0.0
 10
88.642957
 20
97.470402
 30
0.0
 10
87.357749
 20
97.267146
 30
0.0
  0
SPLINE
  5
183
100
AcDbEntity
  8
0
 62
7
100
AcDbSpline
 70
8
 71
3
 72
8
 73
4
 74
0
 40
0
 40
0
 40
0
 40
0
 40
1
 40
1
 40
1
 40
1
 10
46.231067
 20
108.806533
 30
0.0
 10
48.527679
 20
106.994053
 30
0.0
 10
49.399190
 20
106.151180
 30
0.0
 10
49.355730
 20
105.784549
 30
0.0
  0
SPLINE
  5
184
100
AcDbEntity
  8
0
 62
7
100
AcDbSpline
 70
8
 71
3
 72
8
 73
4
 74
0
 40
0
 40
0
 40
0
 40
0
 40
1
 40
1
 40
1
 40
1
 10
49.355730
 20
105.784549
 30
0.0
 10
49.322580
 20
105.504906
 30
0.0
 10
49.168217
 20
105.234290
 30
0.0
 10
49.012700
 20
105.183178
 30
0.0
  0
SPLINE
  5
185
100
AcDbEntity
  8
0
 62
7
100
AcDbSpline
 70
8
 71
3
 72
8
 73
4
 74
0
 40
0
 40
0
 40
0
 40
0
 40
1
 40
1
 40
1
 40
1
 10
49.012700
 20
105.183178
 30
0.0
 10
48.857186
 20
105.132068
 30
0.0
 10
47.309373
 20
106.090109
 30
0.0
 10
45.573117
 20
107.312156
 30
0.0
  0
SPLINE
  5
186
100
AcDbEntity
  8
0
 62
7
100
AcDbSpline
 70
8
 71
3
 72
8
 73
4
 74
0
 40
0
 40
0
 40
0
 40
0
 40
1
 40
1
 40
1
 40
1
 10
45.573117
 20
107.312156
 30
0.0
 10
43.836863
 20
108.534203
 30
0.0
 10
42.326994
 20
109.482403
 30
0.0
 10
42.217853
 20
109.419266
 30
0.0
  0
SPLINE
  5
187
100
AcDbEntity
  8
0
 62
7
100
AcDbSpline
 70
8
 71
3
 72
8
 73
4
 74
0
 40
0
 40
0
 40
0
 40
0
 40
1
 40
1
 40
1
 40
1
 10
42.217853
 20
109.419266
 30
0.0
 10
42.108713
 20
109.356128
 30
0.0
 10
42.019416
 20
108.961807
 30
0.0
 10
42.019416
 20
108.542998
 30
0.0
  0
SPLINE
  5
188
100
AcDbEntity
  8
0
 62
7
100
AcDbSpline
 70
8
 71
3
 72
8
 73
4
 74
0
 40
0
 40
0
 40
0
 40
0
 40
1
 40
1
 40
1
 40
1
 10
42.019416
 20
108.542998
 30
0.0
 10
42.019416
 20
107.897054
 30
0.0
 10
42.501116
 20
107.370089
 30
0.0
 10
45.194416
 20
105.069661
 30
0.0
  0
SPLINE
  5
189
100
AcDbEntity
  8
0
 62
7
100
AcDbSpline
 70
8
 71
3
 72
8
 73
4
 74
0
 40
0
 40
0
 40
0
 40
0
 40
1
 40
1
 40
1
 40
1
 10
45.194416
 20
105.069661
 30
0.0
 10
46.940666
 20
103.578136
 30
0.0
 10
48.369416
 20
102.215998
 30
0.0
 10
48.369416
 20
102.042688
 30
0.0
  0
SPLINE
  5
18a
100
AcDbEntity
  8
0
 62
7
100
AcDbSpline
 70
8
 71
3
 72
8
 73
4
 74
0
 40
0
 40
0
 40
0
 40
0
 40
1
 40
1
 40
1
 40
1
 10
48.369416
 20
102.042688
 30
0.0
 10
48.369416
 20
101.869375
 30
0.0
 10
48.195018
 20
101.582839
 30
0.0
 10
47.981867
 20
101.405939
 30
0.0
  0
SPLINE
  5
18b
100
AcDbEntity
  8
0
 62
7
100
AcDbSpline
 70
8
 71
3
 72
8
 73
4
 74
0
 40
0
 40
0
 40
0
 40
0
 40
1
 40
1
 40
1
 40
1
 10
47.981867
 20
101.405939
 30
0.0
 10
47.545128
 20
101.043478
 30
0.0
 10
47.360988
 20
101.153770
 30
0.0
 10
43.698234
 20
103.971611
 30
0.0
  0
SPLINE
  5
18c
100
AcDbEntity
  8
0
 62
7
100
AcDbSpline
 70
8
 71
3
 72
8
 73
4
 74
0
 40
0
 40
0
 40
0
 40
0
 40
1
 40
1
 40
1
 40
1
 10
43.698234
 20
103.971611
 30
0.0
 10
42.511530
 20
104.884567
 30
0.0
 10
41.418227
 20
105.631533
 30
0.0
 10
41.268666
 20
105.631533
 30
0.0
  0
SPLINE
  5
18d
100
AcDbEntity
  8
0
 62
7
100
AcDbSpline
 70
8
 71
3
 72
8
 73
4
 74
0
 40
0
 40
0
 40
0
 40
0
 40
1
 40
1
 40
1
 40
1
 10
41.268666
 20
105.631533
 30
0.0
 10
40.772099
 20
105.631533
 30
0.0
 10
40.640291
 20
104.566101
 30
0.0
 10
41.057997
 20
103.928603
 30
0.0
  0
SPLINE
  5
18e
100
AcDbEntity
  8
0
 62
7
100
AcDbSpline
 70
8
 71
3
 72
8
 73
4
 74
0
 40
0
 40
0
 40
0
 40
0
 40
1
 40
1
 40
1
 40
1
 10
41.057997
 20
103.928603
 30
0.0
 10
41.280953
 20
103.588325
 30
0.0
 10
42.689812
 20
102.308599
 30
0.0
 10
44.188790
 20
101.084766
 30
0.0
  0
SPLINE
  5
18f
100
AcDbEntity
  8
0
 62
7
100
AcDbSpline
 70
8
 71
3
 72
8
 73
4
 74
0
 40
0
 40
0
 40
0
 40
0
 40
1
 40
1
 40
1
 40
1
 10
44.188790
 20
101.084766
 30
0.0
 10
46.720884
 20
99.017452
 30
0.0
 10
47.322756
 20
98.271187
 30
0.0
 10
46.641202
 20
98.044003
 30
0.0
  0
SPLINE
  5
190
100
AcDbEntity
  8
0
 62
7
100
AcDbSpline
 70
8
 71
3
 72
8
 73
4
 74
0
 40
0
 40
0
 40
0
 40
0
 40
1
 40
1
 40
1
 40
1
 10
46.641202
 20
98.044003
 30
0.0
 10
46.491051
 20
97.993954
 30
0.0
 10
45.002770
 20
98.840896
 30
0.0
 10
43.333911
 20
99.926098
 30
0.0
  0
SPLINE
  5
191
100
AcDbEntity
  8
0
 62
7
100
AcDbSpline
 70
8
 71
3
 72
8
 73
4
 74
0
 40
0
 40
0
 40
0
 40
0
 40
1
 40
1
 40
1
 40
1
 10
43.333911
 20
99.926098
 30
0.0
 10
41.665054
 20
101.011299
 30
0.0
 10
40.224207
 20
101.816236
 30
0.0
 10
40.132029
 20
101.714842
 30
0.0
  0
SPLINE
  5
192
100
AcDbEntity
  8
0
 62
7
100
AcDbSpline
 70
8
 71
3
 72
8
 73
4
 74
0
 40
0
 40
0
 40
0
 40
0
 40
1
 40
1
 40
1
 40
1
 10
40.132029
 20
101.714842
 30
0.0
 10
40.039851
 20
101.613449
 30
0.0
 10
39.838056
 20
100.816116
 30
0.0
 10
39.683592
 20
99.942991
 30
0.0
  0
SPLINE
  5
193
100
AcDbEntity
  8
0
 62
7
100
AcDbSpline
 70
8
 71
3
 72
8
 73
4
 74
0
 40
0
 40
0
 40
0
 40
0
 40
1
 40
1
 40
1
 40
1
 10
39.683592
 20
99.942991
 30
0.0
 10
39.529128
 20
99.069866
 30
0.0
 10
39.102673
 20
96.748148
 30
0.0
 10
38.735915
 20
94.783616
 30
0.0
  0
SPLINE
  5
194
100
AcDbEntity
  8
0
 62
7
100
AcDbSpline
 70
8
 71
3
 72
8
 73
4
 74
0
 40
0
 40
0
 40
0
 40
0
 40
1
 40
1
 40
1
 40
1
 10
38.735915
 20
94.783616
 30
0.0
 10
37.385792
 20
87.551715
 30
0.0
 10
36.751358
 20
79.943635
 30
0.0
 10
37.180890
 20
76.135881
 30
0.0
  0
LWPOLYLINE
  5
195
100
AcDbEntity
  8
0
 62
7
100
AcDbPolyline
 90
3
 70
0
 10
43.176613
 20
112.533322
 30
0.0
 10
43.046134
 20
111.320075
 30
0.0
 10
46.231067
 20
108.806533
 30
0.0
  0
SPLINE
  5
196
100
AcDbEntity
  8
0
 62
7
100
AcDbSpline
 70
8
 71
3
 72
8
 73
4
 74
0
 40
0
 40
0
 40
0
 40
0
 40
1
 40
1
 40
1
 40
1
 10
38.547077
 20
76.207048
 30
0.0
 10
39.183905
 20
77.261871
 30
0.0
 10
39.794781
 20
78.180430
 30
0.0
 10
39.904577
 20
78.248288
 30
0.0
  0
SPLINE
  5
197
100
AcDbEntity
  8
0
 62
7
100
AcDbSpline
 70
8
 71
3
 72
8
 73
4
 74
0
 40
0
 40
0
 40
0
 40
0
 40
1
 40
1
 40
1
 40
1
 10
39.904577
 20
78.248288
 30
0.0
 10
40.014374
 20
78.316145
 30
0.0
 10
39.655927
 20
77.331620
 30
0.0
 10
39.108031
 20
76.060453
 30
0.0
  0
SPLINE
  5
198
100
AcDbEntity
  8
0
 62
7
100
AcDbSpline
 70
8
 71
3
 72
8
 73
4
 74
0
 40
0
 40
0
 40
0
 40
0
 40
1
 40
1
 40
1
 40
1
 10
39.108031
 20
76.060453
 30
0.0
 10
37.742302
 20
72.891856
 30
0.0
 10
36.590901
 20
69.568589
 30
0.0
 10
35.753601
 20
66.378624
 30
0.0
  0
SPLINE
  5
199
100
AcDbEntity
  8
0
 62
7
100
AcDbSpline
 70
8
 71
3
 72
8
 73
4
 74
0
 40
0
 40
0
 40
0
 40
0
 40
1
 40
1
 40
1
 40
1
 10
35.753601
 20
66.378624
 30
0.0
 10
35.102617
 20
63.898494
 30
0.0
 10
35.053982
 20
63.344094
 30
0.0
 10
35.111965
 20
59.064866
 30
0.0
  0
SPLINE
  5
19a
100
AcDbEntity
  8
0
 62
7
100
AcDbSpline
 70
8
 71
3
 72
8
 73
4
 74
0
 40
0
 40
0
 40
0
 40
0
 40
1
 40
1
 40
1
 40
1
 10
35.111965
 20
59.064866
 30
0.0
 10
35.180257
 20
54.024850
 30
0.0
 10
35.494182
 20
52.654150
 30
0.0
 10
36.769146
 20
51.829057
 30
0.0
  0
SPLINE
  5
19b
100
AcDbEntity
  8
0
 62
7
100
AcDbSpline
 70
8
 71
3
 72
8
 73
4
 74
0
 40
0
 40
0
 40
0
 40
0
 40
1
 40
1
 40
1
 40
1
 10
36.769146
 20
51.829057
 30
0.0
 10
38.483133
 20
50.719852
 30
0.0
 10
39.757575
 20
51.111245
 30
0.0
 10
41.385667
 20
53.246832
 30
0.0
  0
SPLINE
  5
19c
100
AcDbEntity
  8
0
 62
7
100
AcDbSpline
 70
8
 71
3
 72
8
 73
4
 74
0
 40
0
 40
0
 40
0
 40
0
 40
1
 40
1
 40
1
 40
1
 10
41.385667
 20
53.246832
 30
0.0
 10
42.907318
 20
55.242796
 30
0.0
 10
44.528817
 20
56.419033
 30
0.0
 10
45.758698
 20
56.419033
 30
0.0
  0
SPLINE
  5
19d
100
AcDbEntity
  8
0
 62
7
100
AcDbSpline
 70
8
 71
3
 72
8
 73
4
 74
0
 40
0
 40
0
 40
0
 40
0
 40
1
 40
1
 40
1
 40
1
 10
45.758698
 20
56.419033
 30
0.0
 10
47.159111
 20
56.419033
 30
0.0
 10
46.884601
 20
55.904670
 30
0.0
 10
44.772191
 20
54.570561
 30
0.0
  0
LWPOLYLINE
  5
19e
100
AcDbEntity
  8
0
 62
7
100
AcDbPolyline
 90
3
 70
0
 10
37.180890
 20
76.135881
 30
0.0
 10
37.389207
 20
74.289187
 30
0.0
 10
38.547077
 20
76.207048
 30
0.0
  0
SPLINE
  5
19f
100
AcDbEntity
  8
0
 62
7
100
AcDbSpline
 70
8
 71
3
 72
8
 73
4
 74
0
 40
0
 40
0
 40
0
 40
0
 40
1
 40
1
 40
1
 40
1
 10
45.657437
 20
51.814148
 30
0.0
 10
50.213800
 20
53.369273
 30
0.0
 10
53.920350
 20
53.579038
 30
0.0
 10
59.152843
 20
52.577897
 30
0.0
  0
SPLINE
  5
1a0
100
AcDbEntity
  8
0
 62
7
100
AcDbSpline
 70
8
 71
3
 72
8
 73
4
 74
0
 40
0
 40
0
 40
0
 40
0
 40
1
 40
1
 40
1
 40
1
 10
59.152843
 20
52.577897
 30
0.0
 10
61.183110
 20
52.189443
 30
0.0
 10
63.715249
 20
51.447314
 30
0.0
 10
63.715249
 20
51.240727
 30
0.0
  0
SPLINE
  5
1a1
100
AcDbEntity
  8
0
 62
7
100
AcDbSpline
 70
8
 71
3
 72
8
 73
4
 74
0
 40
0
 40
0
 40
0
 40
0
 40
1
 40
1
 40
1
 40
1
 10
63.715249
 20
51.240727
 30
0.0
 10
63.715249
 20
51.042051
 30
0.0
 10
66.639884
 20
37.246063
 30
0.0
 10
66.796158
 20
36.707575
 30
0.0
  0
SPLINE
  5
1a2
100
AcDbEntity
  8
0
 62
7
100
AcDbSpline
 70
8
 71
3
 72
8
 73
4
 74
0
 40
0
 40
0
 40
0
 40
0
 40
1
 40
1
 40
1
 40
1
 10
66.796158
 20
36.707575
 30
0.0
 10
66.897938
 20
36.356856
 30
0.0
 10
66.861232
 20
36.267631
 30
0.0
 10
66.687308
 20
36.442991
 30
0.0
  0
SPLINE
  5
1a3
100
AcDbEntity
  8
0
 62
7
100
AcDbSpline
 70
8
 71
3
 72
8
 73
4
 74
0
 40
0
 40
0
 40
0
 40
0
 40
1
 40
1
 40
1
 40
1
 10
66.687308
 20
36.442991
 30
0.0
 10
66.542978
 20
36.588512
 30
0.0
 10
65.606864
 20
39.731037
 30
0.0
 10
64.607048
 20
43.426383
 30
0.0
  0
SPLINE
  5
1a4
100
AcDbEntity
  8
0
 62
7
100
AcDbSpline
 70
8
 71
3
 72
8
 73
4
 74
0
 40
0
 40
0
 40
0
 40
0
 40
1
 40
1
 40
1
 40
1
 10
64.607048
 20
43.426383
 30
0.0
 10
62.834930
 20
49.976201
 30
0.0
 10
62.769096
 20
50.153668
 30
0.0
 10
61.989563
 20
50.482362
 30
0.0
  0
SPLINE
  5
1a5
100
AcDbEntity
  8
0
 62
7
100
AcDbSpline
 70
8
 71
3
 72
8
 73
4
 74
0
 40
0
 40
0
 40
0
 40
0
 40
1
 40
1
 40
1
 40
1
 10
61.989563
 20
50.482362
 30
0.0
 10
60.428182
 20
51.140725
 30
0.0
 10
56.751410
 20
51.656533
 30
0.0
 10
53.619866
 20
51.656533
 30
0.0
  0
LWPOLYLINE
  5
1a6
100
AcDbEntity
  8
0
 62
7
100
AcDbPolyline
 90
5
 70
0
 10
44.772191
 20
54.570561
 30
0.0
 10
43.077749
 20
53.500425
 30
0.0
 10
43.077749
 20
52.217053
 30
0.0
 10
43.077749
 20
50.933678
 30
0.0
 10
45.657437
 20
51.814148
 30
0.0
  0
SPLINE
  5
1a7
100
AcDbEntity
  8
0
 62
7
100
AcDbSpline
 70
8
 71
3
 72
8
 73
4
 74
0
 40
0
 40
0
 40
0
 40
0
 40
1
 40
1
 40
1
 40
1
 10
50.626994
 20
50.664345
 30
0.0
 10
50.717683
 20
50.118642
 30
0.0
 10
51.132068
 20
47.945752
 30
0.0
 10
51.547850
 20
45.835700
 30
0.0
  0
SPLINE
  5
1a8
100
AcDbEntity
  8
0
 62
7
100
AcDbSpline
 70
8
 71
3
 72
8
 73
4
 74
0
 40
0
 40
0
 40
0
 40
0
 40
1
 40
1
 40
1
 40
1
 10
51.547850
 20
45.835700
 30
0.0
 10
51.963632
 20
43.725648
 30
0.0
 10
52.386418
 20
41.374163
 30
0.0
 10
52.487370
 20
40.610179
 30
0.0
  0
SPLINE
  5
1a9
100
AcDbEntity
  8
0
 62
7
100
AcDbSpline
 70
8
 71
3
 72
8
 73
4
 74
0
 40
0
 40
0
 40
0
 40
0
 40
1
 40
1
 40
1
 40
1
 10
52.487370
 20
40.610179
 30
0.0
 10
52.742441
 20
38.679887
 30
0.0
 10
52.195259
 20
38.787663
 30
0.0
 10
51.815709
 20
40.742470
 30
0.0
  0
SPLINE
  5
1aa
100
AcDbEntity
  8
0
 62
7
100
AcDbSpline
 70
8
 71
3
 72
8
 73
4
 74
0
 40
0
 40
0
 40
0
 40
0
 40
1
 40
1
 40
1
 40
1
 10
51.815709
 20
40.742470
 30
0.0
 10
51.653244
 20
41.579215
 30
0.0
 10
51.027642
 20
44.258122
 30
0.0
 10
50.425485
 20
46.695595
 30
0.0
  0
SPLINE
  5
1ab
100
AcDbEntity
  8
0
 62
7
100
AcDbSpline
 70
8
 71
3
 72
8
 73
4
 74
0
 40
0
 40
0
 40
0
 40
0
 40
1
 40
1
 40
1
 40
1
 10
50.425485
 20
46.695595
 30
0.0
 10
49.557612
 20
50.208664
 30
0.0
 10
49.239607
 20
51.127366
 30
0.0
 10
48.891455
 20
51.127366
 30
0.0
  0
SPLINE
  5
1ac
100
AcDbEntity
  8
0
 62
7
100
AcDbSpline
 70
8
 71
3
 72
8
 73
4
 74
0
 40
0
 40
0
 40
0
 40
0
 40
1
 40
1
 40
1
 40
1
 10
48.891455
 20
51.127366
 30
0.0
 10
47.776479
 20
51.127366
 30
0.0
 10
43.349979
 20
49.190592
 30
0.0
 10
43.344370
 20
48.700290
 30
0.0
  0
SPLINE
  5
1ad
100
AcDbEntity
  8
0
 62
7
100
AcDbSpline
 70
8
 71
3
 72
8
 73
4
 74
0
 40
0
 40
0
 40
0
 40
0
 40
1
 40
1
 40
1
 40
1
 10
43.344370
 20
48.700290
 30
0.0
 10
43.343311
 20
48.602326
 30
0.0
 10
44.411080
 20
47.679123
 30
0.0
 10
45.717328
 20
46.648725
 30
0.0
  0
SPLINE
  5
1ae
100
AcDbEntity
  8
0
 62
7
100
AcDbSpline
 70
8
 71
3
 72
8
 73
4
 74
0
 40
0
 40
0
 40
0
 40
0
 40
1
 40
1
 40
1
 40
1
 10
45.717328
 20
46.648725
 30
0.0
 10
47.023576
 20
45.618329
 30
0.0
 10
48.259222
 20
44.448325
 30
0.0
 10
48.463211
 20
44.048717
 30
0.0
  0
SPLINE
  5
1af
100
AcDbEntity
  8
0
 62
7
100
AcDbSpline
 70
8
 71
3
 72
8
 73
4
 74
0
 40
0
 40
0
 40
0
 40
0
 40
1
 40
1
 40
1
 40
1
 10
48.463211
 20
44.048717
 30
0.0
 10
49.482335
 20
42.052272
 30
0.0
 10
50.308192
 20
35.166297
 30
0.0
 10
49.772043
 20
33.135700
 30
0.0
  0
SPLINE
  5
1b0
100
AcDbEntity
  8
0
 62
7
100
AcDbSpline
 70
8
 71
3
 72
8
 73
4
 74
0
 40
0
 40
0
 40
0
 40
0
 40
1
 40
1
 40
1
 40
1
 10
49.772043
 20
33.135700
 30
0.0
 10
49.589846
 20
32.445648
 30
0.0
 10
49.091551
 20
31.872531
 30
0.0
 10
47.816691
 20
30.886741
 30
0.0
  0
SPLINE
  5
1b1
100
AcDbEntity
  8
0
 62
7
100
AcDbSpline
 70
8
 71
3
 72
8
 73
4
 74
0
 40
0
 40
0
 40
0
 40
0
 40
1
 40
1
 40
1
 40
1
 10
47.816691
 20
30.886741
 30
0.0
 10
46.875726
 20
30.159137
 30
0.0
 10
45.759169
 20
29.290833
 30
0.0
 10
45.335452
 20
28.957175
 30
0.0
  0
LWPOLYLINE
  5
1b2
100
AcDbEntity
  8
0
 62
7
100
AcDbPolyline
 90
3
 70
0
 10
53.619866
 20
51.656533
 30
0.0
 10
50.462103
 20
51.656533
 30
0.0
 10
50.626994
 20
50.664345
 30
0.0
  0
SPLINE
  5
1b3
100
AcDbEntity
  8
0
 62
7
100
AcDbSpline
 70
8
 71
3
 72
8
 73
4
 74
0
 40
0
 40
0
 40
0
 40
0
 40
1
 40
1
 40
1
 40
1
 10
45.863529
 20
19.883517
 30
0.0
 10
46.577684
 20
15.226665
 30
0.0
 10
47.238378
 20
11.292922
 30
0.0
 10
47.331733
 20
11.141869
 30
0.0
  0
SPLINE
  5
1b4
100
AcDbEntity
  8
0
 62
7
100
AcDbSpline
 70
8
 71
3
 72
8
 73
4
 74
0
 40
0
 40
0
 40
0
 40
0
 40
1
 40
1
 40
1
 40
1
 10
47.331733
 20
11.141869
 30
0.0
 10
47.447338
 20
10.954816
 30
0.0
 10
47.850010
 20
10.971654
 30
0.0
 10
48.594354
 20
11.194664
 30
0.0
  0
SPLINE
  5
1b5
100
AcDbEntity
  8
0
 62
7
100
AcDbSpline
 70
8
 71
3
 72
8
 73
4
 74
0
 40
0
 40
0
 40
0
 40
0
 40
1
 40
1
 40
1
 40
1
 10
48.594354
 20
11.194664
 30
0.0
 10
49.648248
 20
11.510420
 30
0.0
 10
49.781383
 20
11.477815
 30
0.0
 10
52.326228
 20
10.280793
 30
0.0
  0
SPLINE
  5
1b6
100
AcDbEntity
  8
0
 62
7
100
AcDbSpline
 70
8
 71
3
 72
8
 73
4
 74
0
 40
0
 40
0
 40
0
 40
0
 40
1
 40
1
 40
1
 40
1
 10
52.326228
 20
10.280793
 30
0.0
 10
53.777674
 20
9.598073
 30
0.0
 10
55.832648
 20
8.812220
 30
0.0
 10
56.892838
 20
8.534453
 30
0.0
  0
SPLINE
  5
1b7
100
AcDbEntity
  8
0
 62
7
100
AcDbSpline
 70
8
 71
3
 72
8
 73
4
 74
0
 40
0
 40
0
 40
0
 40
0
 40
1
 40
1
 40
1
 40
1
 10
56.892838
 20
8.534453
 30
0.0
 10
59.555944
 20
7.836723
 30
0.0
 10
63.233914
 20
7.832511
 30
0.0
 10
65.289041
 20
8.524822
 30
0.0
  0
LWPOLYLINE
  5
1b8
100
AcDbEntity
  8
0
 62
7
100
AcDbPolyline
 90
3
 70
0
 10
45.335452
 20
28.957175
 30
0.0
 10
44.565059
 20
28.350525
 30
0.0
 10
45.863529
 20
19.883517
 30
0.0
  0
SPLINE
  5
1b9
100
AcDbEntity
  8
0
 62
7
100
AcDbSpline
 70
8
 71
3
 72
8
 73
4
 74
0
 40
0
 40
0
 40
0
 40
0
 40
1
 40
1
 40
1
 40
1
 10
57.719307
 20
12.762928
 30
0.0
 10
54.976985
 20
13.660980
 30
0.0
 10
52.743881
 20
15.624974
 30
0.0
 10
51.368936
 20
18.348026
 30
0.0
  0
SPLINE
  5
1ba
100
AcDbEntity
  8
0
 62
7
100
AcDbSpline
 70
8
 71
3
 72
8
 73
4
 74
0
 40
0
 40
0
 40
0
 40
0
 40
1
 40
1
 40
1
 40
1
 10
51.368936
 20
18.348026
 30
0.0
 10
50.418802
 20
20.229748
 30
0.0
 10
50.189355
 20
23.683460
 30
0.0
 10
50.875179
 20
25.780246
 30
0.0
  0
SPLINE
  5
1bb
100
AcDbEntity
  8
0
 62
7
100
AcDbSpline
 70
8
 71
3
 72
8
 73
4
 74
0
 40
0
 40
0
 40
0
 40
0
 40
1
 40
1
 40
1
 40
1
 10
50.875179
 20
25.780246
 30
0.0
 10
52.849965
 20
31.817807
 30
0.0
 10
59.876116
 20
34.841357
 30
0.0
 10
65.651298
 20
32.138824
 30
0.0
  0
SPLINE
  5
1bc
100
AcDbEntity
  8
0
 62
7
100
AcDbSpline
 70
8
 71
3
 72
8
 73
4
 74
0
 40
0
 40
0
 40
0
 40
0
 40
1
 40
1
 40
1
 40
1
 10
65.651298
 20
32.138824
 30
0.0
 10
69.901914
 20
30.149721
 30
0.0
 10
72.453968
 20
25.542468
 30
0.0
 10
71.694244
 20
21.229428
 30
0.0
  0
SPLINE
  5
1bd
100
AcDbEntity
  8
0
 62
7
100
AcDbSpline
 70
8
 71
3
 72
8
 73
4
 74
0
 40
0
 40
0
 40
0
 40
0
 40
1
 40
1
 40
1
 40
1
 10
71.694244
 20
21.229428
 30
0.0
 10
71.055196
 20
17.601504
 30
0.0
 10
68.911547
 20
14.756146
 30
0.0
 10
65.677034
 20
13.242536
 30
0.0
  0
SPLINE
  5
1be
100
AcDbEntity
  8
0
 62
7
100
AcDbSpline
 70
8
 71
3
 72
8
 73
4
 74
0
 40
0
 40
0
 40
0
 40
0
 40
1
 40
1
 40
1
 40
1
 10
65.677034
 20
13.242536
 30
0.0
 10
63.350135
 20
12.153649
 30
0.0
 10
60.165861
 20
11.961733
 30
0.0
 10
57.719307
 20
12.762928
 30
0.0
  0
LWPOLYLINE
  5
1bf
100
AcDbEntity
  8
0
 62
7
100
AcDbPolyline
 90
1
 70
1
 10
65.289041
 20
8.524822
 30
0.0
  0
SPLINE
  5
1c0
100
AcDbEntity
  8
0
 62
7
100
AcDbSpline
 70
8
 71
3
 72
8
 73
4
 74
0
 40
0
 40
0
 40
0
 40
0
 40
1
 40
1
 40
1
 40
1
 10
64.682407
 20
15.278478
 30
0.0
 10
70.956067
 20
18.070785
 30
0.0
 10
71.103106
 20
26.808068
 30
0.0
 10
64.929435
 20
29.957218
 30
0.0
  0
SPLINE
  5
1c1
100
AcDbEntity
  8
0
 62
7
100
AcDbSpline
 70
8
 71
3
 72
8
 73
4
 74
0
 40
0
 40
0
 40
0
 40
0
 40
1
 40
1
 40
1
 40
1
 10
64.929435
 20
29.957218
 30
0.0
 10
63.321666
 20
30.777331
 30
0.0
 10
62.896742
 20
30.878600
 30
0.0
 10
61.102936
 20
30.869157
 30
0.0
  0
SPLINE
  5
1c2
100
AcDbEntity
  8
0
 62
7
100
AcDbSpline
 70
8
 71
3
 72
8
 73
4
 74
0
 40
0
 40
0
 40
0
 40
0
 40
1
 40
1
 40
1
 40
1
 10
61.102936
 20
30.869157
 30
0.0
 10
59.461556
 20
30.860505
 30
0.0
 10
58.805157
 20
30.723700
 30
0.0
 10
57.584991
 20
30.135896
 30
0.0
  0
SPLINE
  5
1c3
100
AcDbEntity
  8
0
 62
7
100
AcDbSpline
 70
8
 71
3
 72
8
 73
4
 74
0
 40
0
 40
0
 40
0
 40
0
 40
1
 40
1
 40
1
 40
1
 10
57.584991
 20
30.135896
 30
0.0
 10
52.203572
 20
27.543442
 30
0.0
 10
51.039001
 20
20.827003
 30
0.0
 10
55.282645
 20
16.857573
 30
0.0
  0
SPLINE
  5
1c4
100
AcDbEntity
  8
0
 62
7
100
AcDbSpline
 70
8
 71
3
 72
8
 73
4
 74
0
 40
0
 40
0
 40
0
 40
0
 40
1
 40
1
 40
1
 40
1
 10
55.282645
 20
16.857573
 30
0.0
 10
57.918419
 20
14.392114
 30
0.0
 10
61.383204
 20
13.810054
 30
0.0
 10
64.682407
 20
15.278478
 30
0.0
  0
LWPOLYLINE
  5
1c5
100
AcDbEntity
  8
0
 62
7
100
AcDbPolyline
 90
1
 70
1
 10
57.719307
 20
12.762928
 30
0.0
  0
LWPOLYLINE
  5
1c6
100
AcDbEntity
  8
0
 62
7
100
AcDbPolyline
 90
1
 70
1
 10
64.682407
 20
15.278478
 30
0.0
  0
SPLINE
  5
1c7
100
AcDbEntity
  8
0
 62
7
100
AcDbSpline
 70
8
 71
3
 72
8
 73
4
 74
0
 40
0
 40
0
 40
0
 40
0
 40
1
 40
1
 40
1
 40
1
 10
47.862837
 20
16.414446
 30
0.0
 10
47.548826
 20
18.407854
 30
0.0
 10
47.017649
 20
21.735568
 30
0.0
 10
46.682448
 20
23.809367
 30
0.0
  0
LWPOLYLINE
  5
1c8
100
AcDbEntity
  8
0
 62
7
100
AcDbPolyline
 90
3
 70
0
 10
49.526074
 20
12.690356
 30
0.0
 10
48.433770
 20
12.790064
 30
0.0
 10
47.862837
 20
16.414446
 30
0.0
  0
SPLINE
  5
1c9
100
AcDbEntity
  8
0
 62
7
100
AcDbSpline
 70
8
 71
3
 72
8
 73
4
 74
0
 40
0
 40
0
 40
0
 40
0
 40
1
 40
1
 40
1
 40
1
 10
47.474436
 20
28.638013
 30
0.0
 10
48.245231
 20
29.219969
 30
0.0
 10
48.935240
 20
29.696116
 30
0.0
 10
49.007789
 20
29.696116
 30
0.0
  0
SPLINE
  5
1ca
100
AcDbEntity
  8
0
 62
7
100
AcDbSpline
 70
8
 71
3
 72
8
 73
4
 74
0
 40
0
 40
0
 40
0
 40
0
 40
1
 40
1
 40
1
 40
1
 10
49.007789
 20
29.696116
 30
0.0
 10
49.080341
 20
29.696116
 30
0.0
 10
48.945408
 20
29.190101
 30
0.0
 10
48.707945
 20
28.571637
 30
0.0
  0
SPLINE
  5
1cb
100
AcDbEntity
  8
0
 62
7
100
AcDbSpline
 70
8
 71
3
 72
8
 73
4
 74
0
 40
0
 40
0
 40
0
 40
0
 40
1
 40
1
 40
1
 40
1
 10
48.707945
 20
28.571637
 30
0.0
 10
48.389786
 20
27.743004
 30
0.0
 10
48.271456
 20
26.507411
 30
0.0
 10
48.258190
 20
23.875283
 30
0.0
  0
SPLINE
  5
1cc
100
AcDbEntity
  8
0
 62
7
100
AcDbSpline
 70
8
 71
3
 72
8
 73
4
 74
0
 40
0
 40
0
 40
0
 40
0
 40
1
 40
1
 40
1
 40
1
 10
48.258190
 20
23.875283
 30
0.0
 10
48.243188
 20
20.899030
 30
0.0
 10
48.341817
 20
19.950446
 30
0.0
 10
48.849656
 20
18.186741
 30
0.0
  0
SPLINE
  5
1cd
100
AcDbEntity
  8
0
 62
7
100
AcDbSpline
 70
8
 71
3
 72
8
 73
4
 74
0
 40
0
 40
0
 40
0
 40
0
 40
1
 40
1
 40
1
 40
1
 10
48.849656
 20
18.186741
 30
0.0
 10
49.473985
 20
16.018470
 30
0.0
 10
50.281319
 20
14.403131
 30
0.0
 10
51.257441
 20
13.369158
 30
0.0
  0
SPLINE
  5
1ce
100
AcDbEntity
  8
0
 62
7
100
AcDbSpline
 70
8
 71
3
 72
8
 73
4
 74
0
 40
0
 40
0
 40
0
 40
0
 40
1
 40
1
 40
1
 40
1
 10
51.257441
 20
13.369158
 30
0.0
 10
52.141056
 20
12.433181
 30
0.0
 10
52.179281
 20
12.448167
 30
0.0
 10
49.526074
 20
12.690356
 30
0.0
  0
LWPOLYLINE
  5
1cf
100
AcDbEntity
  8
0
 62
7
100
AcDbPolyline
 90
3
 70
0
 10
46.682448
 20
23.809367
 30
0.0
 10
46.072989
 20
27.579913
 30
0.0
 10
47.474436
 20
28.638013
 30
0.0
  0
SPLINE
  5
1d0
100
AcDbEntity
  8
0
 62
7
100
AcDbSpline
 70
8
 71
3
 72
8
 73
4
 74
0
 40
0
 40
0
 40
0
 40
0
 40
1
 40
1
 40
1
 40
1
 10
52.487946
 20
46.935385
 30
0.0
 10
52.412413
 20
47.276443
 30
0.0
 10
52.246165
 20
48.174177
 30
0.0
 10
52.118509
 20
48.930351
 30
0.0
  0
LWPOLYLINE
  5
1d1
100
AcDbEntity
  8
0
 62
7
100
AcDbPolyline
 90
1
 70
1
 10
49.526074
 20
12.690356
 30
0.0
  0
SPLINE
  5
1d2
100
AcDbEntity
  8
0
 62
7
100
AcDbSpline
 70
8
 71
3
 72
8
 73
4
 74
0
 40
0
 40
0
 40
0
 40
0
 40
1
 40
1
 40
1
 40
1
 10
53.304366
 20
50.482373
 30
0.0
 10
54.811949
 20
50.670733
 30
0.0
 10
57.139896
 20
50.510128
 30
0.0
 10
60.107978
 20
50.012994
 30
0.0
  0
LWPOLYLINE
  5
1d3
100
AcDbEntity
  8
0
 62
7
100
AcDbPolyline
 90
3
 70
0
 10
52.118509
 20
48.930351
 30
0.0
 10
51.886406
 20
50.305211
 30
0.0
 10
53.304366
 20
50.482373
 30
0.0
  0
SPLINE
  5
1d4
100
AcDbEntity
  8
0
 62
7
100
AcDbSpline
 70
8
 71
3
 72
8
 73
4
 74
0
 40
0
 40
0
 40
0
 40
0
 40
1
 40
1
 40
1
 40
1
 10
61.103555
 20
49.028977
 30
0.0
 10
60.651948
 20
48.655123
 30
0.0
 10
60.068727
 20
47.904482
 30
0.0
 10
59.807512
 20
47.360885
 30
0.0
  0
LWPOLYLINE
  5
1d5
100
AcDbEntity
  8
0
 62
7
100
AcDbPolyline
 90
3
 70
0
 10
60.107978
 20
50.012994
 30
0.0
 10
61.924663
 20
49.708713
 30
0.0
 10
61.103555
 20
49.028977
 30
0.0
  0
SPLINE
  5
1d6
100
AcDbEntity
  8
0
 62
7
100
AcDbSpline
 70
8
 71
3
 72
8
 73
4
 74
0
 40
0
 40
0
 40
0
 40
0
 40
1
 40
1
 40
1
 40
1
 10
58.395566
 20
47.039220
 30
0.0
 10
56.727934
 20
48.225758
 30
0.0
 10
55.099532
 20
48.133188
 30
0.0
 10
53.209330
 20
46.744398
 30
0.0
  0
SPLINE
  5
1d7
100
AcDbEntity
  8
0
 62
7
100
AcDbSpline
 70
8
 71
3
 72
8
 73
4
 74
0
 40
0
 40
0
 40
0
 40
0
 40
1
 40
1
 40
1
 40
1
 10
53.209330
 20
46.744398
 30
0.0
 10
52.653803
 20
46.336236
 30
0.0
 10
52.618574
 20
46.345562
 30
0.0
 10
52.487946
 20
46.935385
 30
0.0
  0
LWPOLYLINE
  5
1d8
100
AcDbEntity
  8
0
 62
7
100
AcDbPolyline
 90
3
 70
0
 10
59.807512
 20
47.360885
 30
0.0
 10
59.332572
 20
46.372531
 30
0.0
 10
58.395566
 20
47.039220
 30
0.0
  0
SPLINE
  5
1d9
100
AcDbEntity
  8
0
 62
7
100
AcDbSpline
 70
8
 71
3
 72
8
 73
4
 74
0
 40
0
 40
0
 40
0
 40
0
 40
1
 40
1
 40
1
 40
1
 10
46.517338
 20
47.952795
 30
0.0
 10
46.517338
 20
48.211211
 30
0.0
 10
47.774519
 20
48.746116
 30
0.0
 10
48.381870
 20
48.746116
 30
0.0
  0
SPLINE
  5
1da
100
AcDbEntity
  8
0
 62
7
100
AcDbSpline
 70
8
 71
3
 72
8
 73
4
 74
0
 40
0
 40
0
 40
0
 40
0
 40
1
 40
1
 40
1
 40
1
 10
48.381870
 20
48.746116
 30
0.0
 10
48.722891
 20
48.746116
 30
0.0
 10
48.898588
 20
48.565461
 30
0.0
 10
48.898588
 20
48.214812
 30
0.0
  0
SPLINE
  5
1db
100
AcDbEntity
  8
0
 62
7
100
AcDbSpline
 70
8
 71
3
 72
8
 73
4
 74
0
 40
0
 40
0
 40
0
 40
0
 40
1
 40
1
 40
1
 40
1
 10
48.898588
 20
48.214812
 30
0.0
 10
48.898588
 20
47.754836
 30
0.0
 10
48.738745
 20
47.689556
 30
0.0
 10
47.707963
 20
47.728545
 30
0.0
  0
SPLINE
  5
1dc
100
AcDbEntity
  8
0
 62
7
100
AcDbSpline
 70
8
 71
3
 72
8
 73
4
 74
0
 40
0
 40
0
 40
0
 40
0
 40
1
 40
1
 40
1
 40
1
 10
47.707963
 20
47.728545
 30
0.0
 10
47.053119
 20
47.753310
 30
0.0
 10
46.517338
 20
47.854227
 30
0.0
 10
46.517338
 20
47.952795
 30
0.0
  0
LWPOLYLINE
  5
1dd
100
AcDbEntity
  8
0
 62
7
100
AcDbPolyline
 90
1
 70
1
 10
52.487946
 20
46.935385
 30
0.0
  0
SPLINE
  5
1de
100
AcDbEntity
  8
0
 62
7
100
AcDbSpline
 70
8
 71
3
 72
8
 73
4
 74
0
 40
0
 40
0
 40
0
 40
0
 40
1
 40
1
 40
1
 40
1
 10
44.377449
 20
57.698558
 30
0.0
 10
44.892161
 20
58.660305
 30
0.0
 10
48.781200
 20
62.071737
 30
0.0
 10
51.147546
 20
63.637226
 30
0.0
  0
SPLINE
  5
1df
100
AcDbEntity
  8
0
 62
7
100
AcDbSpline
 70
8
 71
3
 72
8
 73
4
 74
0
 40
0
 40
0
 40
0
 40
0
 40
1
 40
1
 40
1
 40
1
 10
51.147546
 20
63.637226
 30
0.0
 10
52.457234
 20
64.503670
 30
0.0
 10
54.421765
 20
65.628359
 30
0.0
 10
55.513171
 20
66.136536
 30
0.0
  0
SPLINE
  5
1e0
100
AcDbEntity
  8
0
 62
7
100
AcDbSpline
 70
8
 71
3
 72
8
 73
4
 74
0
 40
0
 40
0
 40
0
 40
0
 40
1
 40
1
 40
1
 40
1
 10
55.513171
 20
66.136536
 30
0.0
 10
57.656651
 20
67.134579
 30
0.0
 10
62.240914
 20
68.779882
 30
0.0
 10
63.234800
 20
68.907848
 30
0.0
  0
SPLINE
  5
1e1
100
AcDbEntity
  8
0
 62
7
100
AcDbSpline
 70
8
 71
3
 72
8
 73
4
 74
0
 40
0
 40
0
 40
0
 40
0
 40
1
 40
1
 40
1
 40
1
 10
63.234800
 20
68.907848
 30
0.0
 10
64.646162
 20
69.089566
 30
0.0
 10
63.824157
 20
68.455765
 30
0.0
 10
61.147714
 20
67.298615
 30
0.0
  0
SPLINE
  5
1e2
100
AcDbEntity
  8
0
 62
7
100
AcDbSpline
 70
8
 71
3
 72
8
 73
4
 74
0
 40
0
 40
0
 40
0
 40
0
 40
1
 40
1
 40
1
 40
1
 10
61.147714
 20
67.298615
 30
0.0
 10
55.463173
 20
64.840924
 30
0.0
 10
50.934855
 20
61.953958
 30
0.0
 10
48.282622
 20
59.096653
 30
0.0
  0
SPLINE
  5
1e3
100
AcDbEntity
  8
0
 62
7
100
AcDbSpline
 70
8
 71
3
 72
8
 73
4
 74
0
 40
0
 40
0
 40
0
 40
0
 40
1
 40
1
 40
1
 40
1
 10
48.282622
 20
59.096653
 30
0.0
 10
47.416625
 20
58.163698
 30
0.0
 10
46.734899
 20
57.675698
 30
0.0
 10
46.165955
 20
57.581482
 30
0.0
  0
SPLINE
  5
1e4
100
AcDbEntity
  8
0
 62
7
100
AcDbSpline
 70
8
 71
3
 72
8
 73
4
 74
0
 40
0
 40
0
 40
0
 40
0
 40
1
 40
1
 40
1
 40
1
 10
46.165955
 20
57.581482
 30
0.0
 10
45.704371
 20
57.505047
 30
0.0
 10
45.052581
 20
57.386985
 30
0.0
 10
44.717531
 20
57.319124
 30
0.0
  0
SPLINE
  5
1e5
100
AcDbEntity
  8
0
 62
7
100
AcDbSpline
 70
8
 71
3
 72
8
 73
4
 74
0
 40
0
 40
0
 40
0
 40
0
 40
1
 40
1
 40
1
 40
1
 10
44.717531
 20
57.319124
 30
0.0
 10
44.188380
 20
57.211950
 30
0.0
 10
44.143702
 20
57.261797
 30
0.0
 10
44.377449
 20
57.698558
 30
0.0
  0
LWPOLYLINE
  5
1e6
100
AcDbEntity
  8
0
 62
7
100
AcDbPolyline
 90
1
 70
1
 10
46.517338
 20
47.952795
 30
0.0
  0
SPLINE
  5
1e7
100
AcDbEntity
  8
0
 62
7
100
AcDbSpline
 70
8
 71
3
 72
8
 73
4
 74
0
 40
0
 40
0
 40
0
 40
0
 40
1
 40
1
 40
1
 40
1
 10
38.844421
 20
82.704525
 30
0.0
 10
38.844421
 20
84.224064
 30
0.0
 10
41.048101
 20
98.927576
 30
0.0
 10
41.315992
 20
99.195467
 30
0.0
  0
SPLINE
  5
1e8
100
AcDbEntity
  8
0
 62
7
100
AcDbSpline
 70
8
 71
3
 72
8
 73
4
 74
0
 40
0
 40
0
 40
0
 40
0
 40
1
 40
1
 40
1
 40
1
 10
41.315992
 20
99.195467
 30
0.0
 10
41.344866
 20
99.224341
 30
0.0
 10
42.428369
 20
98.540096
 30
0.0
 10
43.723774
 20
97.674925
 30
0.0
  0
SPLINE
  5
1e9
100
AcDbEntity
  8
0
 62
7
100
AcDbSpline
 70
8
 71
3
 72
8
 73
4
 74
0
 40
0
 40
0
 40
0
 40
0
 40
1
 40
1
 40
1
 40
1
 10
43.723774
 20
97.674925
 30
0.0
 10
45.784032
 20
96.298925
 30
0.0
 10
47.581410
 20
95.338445
 30
0.0
 10
49.956921
 20
94.344064
 30
0.0
  0
SPLINE
  5
1ea
100
AcDbEntity
  8
0
 62
7
100
AcDbSpline
 70
8
 71
3
 72
8
 73
4
 74
0
 40
0
 40
0
 40
0
 40
0
 40
1
 40
1
 40
1
 40
1
 10
49.956921
 20
94.344064
 30
0.0
 10
50.576853
 20
94.084563
 30
0.0
 10
50.518716
 20
94.039267
 30
0.0
 10
49.030879
 20
93.622556
 30
0.0
  0
SPLINE
  5
1eb
100
AcDbEntity
  8
0
 62
7
100
AcDbSpline
 70
8
 71
3
 72
8
 73
4
 74
0
 40
0
 40
0
 40
0
 40
0
 40
1
 40
1
 40
1
 40
1
 10
49.030879
 20
93.622556
 30
0.0
 10
44.477863
 20
92.347354
 30
0.0
 10
42.284004
 20
90.595371
 30
0.0
 10
42.284004
 20
88.234599
 30
0.0
  0
SPLINE
  5
1ec
100
AcDbEntity
  8
0
 62
7
100
AcDbSpline
 70
8
 71
3
 72
8
 73
4
 74
0
 40
0
 40
0
 40
0
 40
0
 40
1
 40
1
 40
1
 40
1
 10
42.284004
 20
88.234599
 30
0.0
 10
42.284004
 20
87.466329
 30
0.0
 10
43.298438
 20
85.261275
 30
0.0
 10
44.027852
 20
84.444033
 30
0.0
  0
SPLINE
  5
1ed
100
AcDbEntity
  8
0
 62
7
100
AcDbSpline
 70
8
 71
3
 72
8
 73
4
 74
0
 40
0
 40
0
 40
0
 40
0
 40
1
 40
1
 40
1
 40
1
 10
44.027852
 20
84.444033
 30
0.0
 10
44.551063
 20
83.857822
 30
0.0
 10
44.491611
 20
83.606595
 30
0.0
 10
43.875918
 20
83.802008
 30
0.0
  0
SPLINE
  5
1ee
100
AcDbEntity
  8
0
 62
7
100
AcDbSpline
 70
8
 71
3
 72
8
 73
4
 74
0
 40
0
 40
0
 40
0
 40
0
 40
1
 40
1
 40
1
 40
1
 10
43.875918
 20
83.802008
 30
0.0
 10
43.229072
 20
84.007309
 30
0.0
 10
40.400769
 20
83.307097
 30
0.0
 10
39.504313
 20
82.719720
 30
0.0
  0
SPLINE
  5
1ef
100
AcDbEntity
  8
0
 62
7
100
AcDbSpline
 70
8
 71
3
 72
8
 73
4
 74
0
 40
0
 40
0
 40
0
 40
0
 40
1
 40
1
 40
1
 40
1
 10
39.504313
 20
82.719720
 30
0.0
 10
38.909887
 20
82.330234
 30
0.0
 10
38.844421
 20
82.328729
 30
0.0
 10
38.844421
 20
82.704533
 30
0.0
  0
LWPOLYLINE
  5
1f0
100
AcDbEntity
  8
0
 62
7
100
AcDbPolyline
 90
1
 70
1
 10
44.377449
 20
57.698558
 30
0.0
  0
SPLINE
  5
1f1
100
AcDbEntity
  8
0
 62
7
100
AcDbSpline
 70
8
 71
3
 72
8
 73
4
 74
0
 40
0
 40
0
 40
0
 40
0
 40
1
 40
1
 40
1
 40
1
 10
49.480671
 20
89.015700
 30
0.0
 10
49.306046
 20
89.190325
 30
0.0
 10
49.163171
 20
89.412760
 30
0.0
 10
49.163171
 20
89.510000
 30
0.0
  0
SPLINE
  5
1f2
100
AcDbEntity
  8
0
 62
7
100
AcDbSpline
 70
8
 71
3
 72
8
 73
4
 74
0
 40
0
 40
0
 40
0
 40
0
 40
1
 40
1
 40
1
 40
1
 10
49.163171
 20
89.510000
 30
0.0
 10
49.163171
 20
89.716697
 30
0.0
 10
52.333800
 20
90.642847
 30
0.0
 10
52.493770
 20
90.482880
 30
0.0
  0
SPLINE
  5
1f3
100
AcDbEntity
  8
0
 62
7
100
AcDbSpline
 70
8
 71
3
 72
8
 73
4
 74
0
 40
0
 40
0
 40
0
 40
0
 40
1
 40
1
 40
1
 40
1
 10
52.493770
 20
90.482880
 30
0.0
 10
52.628639
 20
90.348012
 30
0.0
 10
50.353579
 20
88.698200
 30
0.0
 10
50.032729
 20
88.698200
 30
0.0
  0
SPLINE
  5
1f4
100
AcDbEntity
  8
0
 62
7
100
AcDbSpline
 70
8
 71
3
 72
8
 73
4
 74
0
 40
0
 40
0
 40
0
 40
0
 40
1
 40
1
 40
1
 40
1
 10
50.032729
 20
88.698200
 30
0.0
 10
49.903724
 20
88.698200
 30
0.0
 10
49.655296
 20
88.841075
 30
0.0
 10
49.480671
 20
89.015700
 30
0.0
  0
LWPOLYLINE
  5
1f5
100
AcDbEntity
  8
0
 62
7
100
AcDbPolyline
 90
1
 70
1
 10
38.844421
 20
82.704533
 30
0.0
  0
SPLINE
  5
1f6
100
AcDbEntity
  8
0
 62
7
100
AcDbSpline
 70
8
 71
3
 72
8
 73
4
 74
0
 40
0
 40
0
 40
0
 40
0
 40
1
 40
1
 40
1
 40
1
 10
47.311088
 20
63.909514
 30
0.0
 10
52.285678
 20
67.634183
 30
0.0
 10
57.159768
 20
69.629224
 30
0.0
 10
64.154577
 20
70.803815
 30
0.0
  0
LWPOLYLINE
  5
1f7
100
AcDbEntity
  8
0
 62
7
100
AcDbPolyline
 90
1
 70
1
 10
49.480671
 20
89.015700
 30
0.0
  0
SPLINE
  5
1f8
100
AcDbEntity
  8
0
 62
7
100
AcDbSpline
 70
8
 71
3
 72
8
 73
4
 74
0
 40
0
 40
0
 40
0
 40
0
 40
1
 40
1
 40
1
 40
1
 10
65.967549
 20
72.434283
 30
0.0
 10
61.567616
 20
74.894866
 30
0.0
 10
57.245036
 20
76.305577
 30
0.0
 10
52.593542
 20
76.799009
 30
0.0
  0
SPLINE
  5
1f9
100
AcDbEntity
  8
0
 62
7
100
AcDbSpline
 70
8
 71
3
 72
8
 73
4
 74
0
 40
0
 40
0
 40
0
 40
0
 40
1
 40
1
 40
1
 40
1
 10
52.593542
 20
76.799009
 30
0.0
 10
48.893817
 20
77.191476
 30
0.0
 10
45.004958
 20
76.872452
 30
0.0
 10
43.908525
 20
76.086525
 30
0.0
  0
SPLINE
  5
1fa
100
AcDbEntity
  8
0
 62
7
100
AcDbSpline
 70
8
 71
3
 72
8
 73
4
 74
0
 40
0
 40
0
 40
0
 40
0
 40
1
 40
1
 40
1
 40
1
 10
43.908525
 20
76.086525
 30
0.0
 10
42.999702
 20
75.435079
 30
0.0
 10
41.128050
 20
71.669217
 30
0.0
 10
40.524708
 20
69.278106
 30
0.0
  0
SPLINE
  5
1fb
100
AcDbEntity
  8
0
 62
7
100
AcDbSpline
 70
8
 71
3
 72
8
 73
4
 74
0
 40
0
 40
0
 40
0
 40
0
 40
1
 40
1
 40
1
 40
1
 10
40.524708
 20
69.278106
 30
0.0
 10
39.954891
 20
67.019855
 30
0.0
 10
39.896605
 20
62.340392
 30
0.0
 10
40.409032
 20
59.990908
 30
0.0
  0
SPLINE
  5
1fc
100
AcDbEntity
  8
0
 62
7
100
AcDbSpline
 70
8
 71
3
 72
8
 73
4
 74
0
 40
0
 40
0
 40
0
 40
0
 40
1
 40
1
 40
1
 40
1
 10
40.409032
 20
59.990908
 30
0.0
 10
40.599463
 20
59.117783
 30
0.0
 10
40.814352
 20
58.304814
 30
0.0
 10
40.886563
 20
58.184309
 30
0.0
  0
SPLINE
  5
1fd
100
AcDbEntity
  8
0
 62
7
100
AcDbSpline
 70
8
 71
3
 72
8
 73
4
 74
0
 40
0
 40
0
 40
0
 40
0
 40
1
 40
1
 40
1
 40
1
 10
40.886563
 20
58.184309
 30
0.0
 10
40.958775
 20
58.063805
 30
0.0
 10
42.165942
 20
59.102098
 30
0.0
 10
43.569160
 20
60.491627
 30
0.0
  0
SPLINE
  5
1fe
100
AcDbEntity
  8
0
 62
7
100
AcDbSpline
 70
8
 71
3
 72
8
 73
4
 74
0
 40
0
 40
0
 40
0
 40
0
 40
1
 40
1
 40
1
 40
1
 10
43.569160
 20
60.491627
 30
0.0
 10
44.972377
 20
61.881157
 30
0.0
 10
46.656244
 20
63.419207
 30
0.0
 10
47.311088
 20
63.909514
 30
0.0
  0
LWPOLYLINE
  5
1ff
100
AcDbEntity
  8
0
 62
7
100
AcDbPolyline
 90
3
 70
0
 10
64.154577
 20
70.803815
 30
0.0
 10
67.791132
 20
71.414476
 30
0.0
 10
65.967549
 20
72.434283
 30
0.0
  0
SPLINE
  5
200
100
AcDbEntity
  8
0
 62
7
100
AcDbSpline
 70
8
 71
3
 72
8
 73
4
 74
0
 40
0
 40
0
 40
0
 40
0
 40
1
 40
1
 40
1
 40
1
 10
44.197543
 20
68.422748
 30
0.0
 10
44.273512
 20
69.096747
 30
0.0
 10
44.260998
 20
69.647755
 30
0.0
 10
44.169732
 20
69.647210
 30
0.0
  0
SPLINE
  5
201
100
AcDbEntity
  8
0
 62
7
100
AcDbSpline
 70
8
 71
3
 72
8
 73
4
 74
0
 40
0
 40
0
 40
0
 40
0
 40
1
 40
1
 40
1
 40
1
 10
44.169732
 20
69.647210
 30
0.0
 10
44.078467
 20
69.646681
 30
0.0
 10
43.600947
 20
69.400624
 30
0.0
 10
43.108576
 20
69.100451
 30
0.0
  0
SPLINE
  5
202
100
AcDbEntity
  8
0
 62
7
100
AcDbSpline
 70
8
 71
3
 72
8
 73
4
 74
0
 40
0
 40
0
 40
0
 40
0
 40
1
 40
1
 40
1
 40
1
 10
43.108576
 20
69.100451
 30
0.0
 10
42.523071
 20
68.743497
 30
0.0
 10
42.123521
 20
68.644516
 30
0.0
 10
41.953693
 20
68.814344
 30
0.0
  0
SPLINE
  5
203
100
AcDbEntity
  8
0
 62
7
100
AcDbSpline
 70
8
 71
3
 72
8
 73
4
 74
0
 40
0
 40
0
 40
0
 40
0
 40
1
 40
1
 40
1
 40
1
 10
41.953693
 20
68.814344
 30
0.0
 10
41.783863
 20
68.984175
 30
0.0
 10
42.068874
 20
69.310636
 30
0.0
 10
42.777508
 20
69.757978
 30
0.0
  0
SPLINE
  5
204
100
AcDbEntity
  8
0
 62
7
100
AcDbSpline
 70
8
 71
3
 72
8
 73
4
 74
0
 40
0
 40
0
 40
0
 40
0
 40
1
 40
1
 40
1
 40
1
 10
42.777508
 20
69.757978
 30
0.0
 10
43.373424
 20
70.134163
 30
0.0
 10
43.972956
 20
70.441950
 30
0.0
 10
44.109807
 20
70.441950
 30
0.0
  0
SPLINE
  5
205
100
AcDbEntity
  8
0
 62
7
100
AcDbSpline
 70
8
 71
3
 72
8
 73
4
 74
0
 40
0
 40
0
 40
0
 40
0
 40
1
 40
1
 40
1
 40
1
 10
44.109807
 20
70.441950
 30
0.0
 10
44.246657
 20
70.441950
 30
0.0
 10
44.427616
 20
70.799137
 30
0.0
 10
44.511939
 20
71.235700
 30
0.0
  0
SPLINE
  5
206
100
AcDbEntity
  8
0
 62
7
100
AcDbSpline
 70
8
 71
3
 72
8
 73
4
 74
0
 40
0
 40
0
 40
0
 40
0
 40
1
 40
1
 40
1
 40
1
 10
44.511939
 20
71.235700
 30
0.0
 10
44.596264
 20
71.672262
 30
0.0
 10
44.734245
 20
72.386637
 30
0.0
 10
44.818570
 20
72.823200
 30
0.0
  0
SPLINE
  5
207
100
AcDbEntity
  8
0
 62
7
100
AcDbSpline
 70
8
 71
3
 72
8
 73
4
 74
0
 40
0
 40
0
 40
0
 40
0
 40
1
 40
1
 40
1
 40
1
 10
44.818570
 20
72.823200
 30
0.0
 10
44.904205
 20
73.266565
 30
0.0
 10
45.140020
 20
73.616950
 30
0.0
 10
45.352777
 20
73.616950
 30
0.0
  0
SPLINE
  5
208
100
AcDbEntity
  8
0
 62
7
100
AcDbSpline
 70
8
 71
3
 72
8
 73
4
 74
0
 40
0
 40
0
 40
0
 40
0
 40
1
 40
1
 40
1
 40
1
 10
45.352777
 20
73.616950
 30
0.0
 10
45.723217
 20
73.616950
 30
0.0
 10
45.710914
 20
73.272333
 30
0.0
 10
45.284292
 20
71.698720
 30
0.0
  0
SPLINE
  5
209
100
AcDbEntity
  8
0
 62
7
100
AcDbSpline
 70
8
 71
3
 72
8
 73
4
 74
0
 40
0
 40
0
 40
0
 40
0
 40
1
 40
1
 40
1
 40
1
 10
45.284292
 20
71.698720
 30
0.0
 10
45.140017
 20
71.166564
 30
0.0
 10
45.395020
 20
71.123876
 30
0.0
 10
46.410906
 20
71.510115
 30
0.0
  0
SPLINE
  5
20a
100
AcDbEntity
  8
0
 62
7
100
AcDbSpline
 70
8
 71
3
 72
8
 73
4
 74
0
 40
0
 40
0
 40
0
 40
0
 40
1
 40
1
 40
1
 40
1
 10
46.410906
 20
71.510115
 30
0.0
 10
47.733834
 20
72.013090
 30
0.0
 10
47.673048
 20
71.339660
 30
0.0
 10
46.335667
 20
70.676537
 30
0.0
  0
SPLINE
  5
20b
100
AcDbEntity
  8
0
 62
7
100
AcDbSpline
 70
8
 71
3
 72
8
 73
4
 74
0
 40
0
 40
0
 40
0
 40
0
 40
1
 40
1
 40
1
 40
1
 10
46.335667
 20
70.676537
 30
0.0
 10
45.113914
 20
70.070750
 30
0.0
 10
45.056750
 20
69.992118
 30
0.0
 10
44.929838
 20
68.742676
 30
0.0
  0
SPLINE
  5
20c
100
AcDbEntity
  8
0
 62
7
100
AcDbSpline
 70
8
 71
3
 72
8
 73
4
 74
0
 40
0
 40
0
 40
0
 40
0
 40
1
 40
1
 40
1
 40
1
 10
44.929838
 20
68.742676
 30
0.0
 10
44.850145
 20
67.958115
 30
0.0
 10
44.650803
 20
67.391971
 30
0.0
 10
44.428481
 20
67.318787
 30
0.0
  0
SPLINE
  5
20d
100
AcDbEntity
  8
0
 62
7
100
AcDbSpline
 70
8
 71
3
 72
8
 73
4
 74
0
 40
0
 40
0
 40
0
 40
0
 40
1
 40
1
 40
1
 40
1
 10
44.428481
 20
67.318787
 30
0.0
 10
44.135942
 20
67.222486
 30
0.0
 10
44.088058
 20
67.451391
 30
0.0
 10
44.197543
 20
68.422748
 30
0.0
  0
LWPOLYLINE
  5
20e
100
AcDbEntity
  8
0
 62
7
100
AcDbPolyline
 90
1
 70
1
 10
47.311088
 20
63.909514
 30
0.0
  0
SPLINE
  5
20f
100
AcDbEntity
  8
0
 62
7
100
AcDbSpline
 70
8
 71
3
 72
8
 73
4
 74
0
 40
0
 40
0
 40
0
 40
0
 40
1
 40
1
 40
1
 40
1
 10
49.604144
 20
69.824589
 30
0.0
 10
49.507129
 20
69.921602
 30
0.0
 10
49.427754
 20
70.390308
 30
0.0
 10
49.427754
 20
70.866159
 30
0.0
  0
SPLINE
  5
210
100
AcDbEntity
  8
0
 62
7
100
AcDbSpline
 70
8
 71
3
 72
8
 73
4
 74
0
 40
0
 40
0
 40
0
 40
0
 40
1
 40
1
 40
1
 40
1
 10
49.427754
 20
70.866159
 30
0.0
 10
49.427754
 20
71.648865
 30
0.0
 10
49.345784
 20
71.739241
 30
0.0
 10
48.567859
 20
71.814248
 30
0.0
  0
SPLINE
  5
211
100
AcDbEntity
  8
0
 62
7
100
AcDbSpline
 70
8
 71
3
 72
8
 73
4
 74
0
 40
0
 40
0
 40
0
 40
0
 40
1
 40
1
 40
1
 40
1
 10
48.567859
 20
71.814248
 30
0.0
 10
47.534113
 20
71.913919
 30
0.0
 10
47.527951
 20
72.390087
 30
0.0
 10
48.558783
 20
72.516344
 30
0.0
  0
SPLINE
  5
212
100
AcDbEntity
  8
0
 62
7
100
AcDbSpline
 70
8
 71
3
 72
8
 73
4
 74
0
 40
0
 40
0
 40
0
 40
0
 40
1
 40
1
 40
1
 40
1
 10
48.558783
 20
72.516344
 30
0.0
 10
49.390797
 20
72.618251
 30
0.0
 10
49.682432
 20
72.953655
 30
0.0
 10
49.688298
 20
73.815387
 30
0.0
  0
SPLINE
  5
213
100
AcDbEntity
  8
0
 62
7
100
AcDbSpline
 70
8
 71
3
 72
8
 73
4
 74
0
 40
0
 40
0
 40
0
 40
0
 40
1
 40
1
 40
1
 40
1
 10
49.688298
 20
73.815387
 30
0.0
 10
49.690679
 20
74.161848
 30
0.0
 10
49.855482
 20
74.410700
 30
0.0
 10
50.082609
 20
74.410700
 30
0.0
  0
SPLINE
  5
214
100
AcDbEntity
  8
0
 62
7
100
AcDbSpline
 70
8
 71
3
 72
8
 73
4
 74
0
 40
0
 40
0
 40
0
 40
0
 40
1
 40
1
 40
1
 40
1
 10
50.082609
 20
74.410700
 30
0.0
 10
50.375121
 20
74.410700
 30
0.0
 10
50.433108
 20
74.211889
 30
0.0
 10
50.314119
 20
73.616950
 30
0.0
  0
SPLINE
  5
215
100
AcDbEntity
  8
0
 62
7
100
AcDbSpline
 70
8
 71
3
 72
8
 73
4
 74
0
 40
0
 40
0
 40
0
 40
0
 40
1
 40
1
 40
1
 40
1
 10
50.314119
 20
73.616950
 30
0.0
 10
50.158256
 20
72.837633
 30
0.0
 10
50.175213
 20
72.823200
 30
0.0
 10
51.246775
 20
72.823200
 30
0.0
  0
SPLINE
  5
216
100
AcDbEntity
  8
0
 62
7
100
AcDbSpline
 70
8
 71
3
 72
8
 73
4
 74
0
 40
0
 40
0
 40
0
 40
0
 40
1
 40
1
 40
1
 40
1
 10
51.246775
 20
72.823200
 30
0.0
 10
52.040525
 20
72.823200
 30
0.0
 10
52.338182
 20
72.714961
 30
0.0
 10
52.338182
 20
72.426325
 30
0.0
  0
SPLINE
  5
217
100
AcDbEntity
  8
0
 62
7
100
AcDbSpline
 70
8
 71
3
 72
8
 73
4
 74
0
 40
0
 40
0
 40
0
 40
0
 40
1
 40
1
 40
1
 40
1
 10
52.338182
 20
72.426325
 30
0.0
 10
52.338182
 20
72.139694
 30
0.0
 10
52.044200
 20
72.029450
 30
0.0
 10
51.279848
 20
72.029450
 30
0.0
  0
LWPOLYLINE
  5
218
100
AcDbEntity
  8
0
 62
7
100
AcDbPolyline
 90
1
 70
1
 10
44.197543
 20
68.422748
 30
0.0
  0
SPLINE
  5
219
100
AcDbEntity
  8
0
 62
7
100
AcDbSpline
 70
8
 71
3
 72
8
 73
4
 74
0
 40
0
 40
0
 40
0
 40
0
 40
1
 40
1
 40
1
 40
1
 10
50.221515
 20
70.838825
 30
0.0
 10
50.221515
 20
69.727736
 30
0.0
 10
50.024564
 20
69.404177
 30
0.0
 10
49.604155
 20
69.824589
 30
0.0
  0
LWPOLYLINE
  5
21a
100
AcDbEntity
  8
0
 62
7
100
AcDbPolyline
 90
3
 70
0
 10
51.279848
 20
72.029450
 30
0.0
 10
50.221515
 20
72.029450
 30
0.0
 10
50.221515
 20
70.838825
 30
0.0
  0
SPLINE
  5
21b
100
AcDbEntity
  8
0
 62
7
100
AcDbSpline
 70
8
 71
3
 72
8
 73
4
 74
0
 40
0
 40
0
 40
0
 40
0
 40
1
 40
1
 40
1
 40
1
 10
70.859004
 20
75.438603
 30
0.0
 10
70.859004
 20
75.567387
 30
0.0
 10
70.561348
 20
75.867789
 30
0.0
 10
70.197546
 20
76.106160
 30
0.0
  0
SPLINE
  5
21c
100
AcDbEntity
  8
0
 62
7
100
AcDbSpline
 70
8
 71
3
 72
8
 73
4
 74
0
 40
0
 40
0
 40
0
 40
0
 40
1
 40
1
 40
1
 40
1
 10
70.197546
 20
76.106160
 30
0.0
 10
69.324889
 20
76.677946
 30
0.0
 10
69.323818
 20
77.699000
 30
0.0
 10
70.195165
 20
78.269999
 30
0.0
  0
SPLINE
  5
21d
100
AcDbEntity
  8
0
 62
7
100
AcDbSpline
 70
8
 71
3
 72
8
 73
4
 74
0
 40
0
 40
0
 40
0
 40
0
 40
1
 40
1
 40
1
 40
1
 10
70.195165
 20
78.269999
 30
0.0
 10
70.557718
 20
78.507553
 30
0.0
 10
70.801391
 20
78.787606
 30
0.0
 10
70.736664
 20
78.892342
 30
0.0
  0
SPLINE
  5
21e
100
AcDbEntity
  8
0
 62
7
100
AcDbSpline
 70
8
 71
3
 72
8
 73
4
 74
0
 40
0
 40
0
 40
0
 40
0
 40
1
 40
1
 40
1
 40
1
 10
70.736664
 20
78.892342
 30
0.0
 10
70.591717
 20
79.126868
 30
0.0
 10
67.725375
 20
79.832039
 30
0.0
 10
67.565773
 20
79.672437
 30
0.0
  0
SPLINE
  5
21f
100
AcDbEntity
  8
0
 62
7
100
AcDbSpline
 70
8
 71
3
 72
8
 73
4
 74
0
 40
0
 40
0
 40
0
 40
0
 40
1
 40
1
 40
1
 40
1
 10
67.565773
 20
79.672437
 30
0.0
 10
67.310757
 20
79.417423
 30
0.0
 10
68.566869
 20
77.126872
 30
0.0
 10
69.471860
 20
76.196637
 30
0.0
  0
SPLINE
  5
220
100
AcDbEntity
  8
0
 62
7
100
AcDbSpline
 70
8
 71
3
 72
8
 73
4
 74
0
 40
0
 40
0
 40
0
 40
0
 40
1
 40
1
 40
1
 40
1
 10
69.471860
 20
76.196637
 30
0.0
 10
70.423802
 20
75.218142
 30
0.0
 10
70.858896
 20
74.980358
 30
0.0
 10
70.858896
 20
75.438603
 30
0.0
  0
LWPOLYLINE
  5
221
100
AcDbEntity
  8
0
 62
7
100
AcDbPolyline
 90
1
 70
1
 10
49.604155
 20
69.824589
 30
0.0
  0
SPLINE
  5
222
100
AcDbEntity
  8
0
 62
7
100
AcDbSpline
 70
8
 71
3
 72
8
 73
4
 74
0
 40
0
 40
0
 40
0
 40
0
 40
1
 40
1
 40
1
 40
1
 10
62.623184
 20
80.346378
 30
0.0
 10
64.023105
 20
81.070304
 30
0.0
 10
64.092458
 20
81.429942
 30
0.0
 10
62.920891
 20
81.890148
 30
0.0
  0
SPLINE
  5
223
100
AcDbEntity
  8
0
 62
7
100
AcDbSpline
 70
8
 71
3
 72
8
 73
4
 74
0
 40
0
 40
0
 40
0
 40
0
 40
1
 40
1
 40
1
 40
1
 10
62.920891
 20
81.890148
 30
0.0
 10
61.936757
 20
82.276725
 30
0.0
 10
61.840348
 20
82.273222
 30
0.0
 10
61.532516
 20
81.839708
 30
0.0
  0
SPLINE
  5
224
100
AcDbEntity
  8
0
 62
7
100
AcDbSpline
 70
8
 71
3
 72
8
 73
4
 74
0
 40
0
 40
0
 40
0
 40
0
 40
1
 40
1
 40
1
 40
1
 10
61.532516
 20
81.839708
 30
0.0
 10
60.663204
 20
80.615475
 30
0.0
 10
58.760818
 20
80.399416
 30
0.0
 10
57.750104
 20
81.410133
 30
0.0
  0
SPLINE
  5
225
100
AcDbEntity
  8
0
 62
7
100
AcDbSpline
 70
8
 71
3
 72
8
 73
4
 74
0
 40
0
 40
0
 40
0
 40
0
 40
1
 40
1
 40
1
 40
1
 10
57.750104
 20
81.410133
 30
0.0
 10
56.931499
 20
82.228735
 30
0.0
 10
56.928089
 20
82.911802
 30
0.0
 10
57.737907
 20
83.853263
 30
0.0
  0
LWPOLYLINE
  5
226
100
AcDbEntity
  8
0
 62
7
100
AcDbPolyline
 90
2
 70
0
 10
70.858896
 20
75.438603
 30
0.0
 10
70.859004
 20
75.438603
 30
0.0
  0
SPLINE
  5
227
100
AcDbEntity
  8
0
 62
7
100
AcDbSpline
 70
8
 71
3
 72
8
 73
4
 74
0
 40
0
 40
0
 40
0
 40
0
 40
1
 40
1
 40
1
 40
1
 10
57.270589
 20
85.786248
 30
0.0
 10
56.663085
 20
86.441936
 30
0.0
 10
55.858894
 20
87.376095
 30
0.0
 10
55.483498
 20
87.862159
 30
0.0
  0
LWPOLYLINE
  5
228
100
AcDbEntity
  8
0
 62
7
100
AcDbPolyline
 90
3
 70
0
 10
57.737907
 20
83.853263
 30
0.0
 10
58.375137
 20
84.594086
 30
0.0
 10
57.270589
 20
85.786248
 30
0.0
  0
SPLINE
  5
229
100
AcDbEntity
  8
0
 62
7
100
AcDbSpline
 70
8
 71
3
 72
8
 73
4
 74
0
 40
0
 40
0
 40
0
 40
0
 40
1
 40
1
 40
1
 40
1
 10
52.901511
 20
87.789364
 30
0.0
 10
50.545865
 20
86.603078
 30
0.0
 10
49.049980
 20
85.275182
 30
0.0
 10
48.216585
 20
83.630556
 30
0.0
  0
SPLINE
  5
22a
100
AcDbEntity
  8
0
 62
7
100
AcDbSpline
 70
8
 71
3
 72
8
 73
4
 74
0
 40
0
 40
0
 40
0
 40
0
 40
1
 40
1
 40
1
 40
1
 10
48.216585
 20
83.630556
 30
0.0
 10
47.864085
 20
82.934934
 30
0.0
 10
47.575679
 20
82.302302
 30
0.0
 10
47.575679
 20
82.224703
 30
0.0
  0
SPLINE
  5
22b
100
AcDbEntity
  8
0
 62
7
100
AcDbSpline
 70
8
 71
3
 72
8
 73
4
 74
0
 40
0
 40
0
 40
0
 40
0
 40
1
 40
1
 40
1
 40
1
 10
47.575679
 20
82.224703
 30
0.0
 10
47.575679
 20
82.147106
 30
0.0
 10
48.709747
 20
82.083616
 30
0.0
 10
50.095830
 20
82.083616
 30
0.0
  0
SPLINE
  5
22c
100
AcDbEntity
  8
0
 62
7
100
AcDbSpline
 70
8
 71
3
 72
8
 73
4
 74
0
 40
0
 40
0
 40
0
 40
0
 40
1
 40
1
 40
1
 40
1
 10
50.095830
 20
82.083616
 30
0.0
 10
52.014207
 20
82.083616
 30
0.0
 10
52.977682
 20
81.949319
 30
0.0
 10
54.130726
 20
81.521194
 30
0.0
  0
SPLINE
  5
22d
100
AcDbEntity
  8
0
 62
7
100
AcDbSpline
 70
8
 71
3
 72
8
 73
4
 74
0
 40
0
 40
0
 40
0
 40
0
 40
1
 40
1
 40
1
 40
1
 10
54.130726
 20
81.521194
 30
0.0
 10
54.963835
 20
81.211862
 30
0.0
 10
56.240783
 20
80.739499
 30
0.0
 10
56.968387
 20
80.471497
 30
0.0
  0
SPLINE
  5
22e
100
AcDbEntity
  8
0
 62
7
100
AcDbSpline
 70
8
 71
3
 72
8
 73
4
 74
0
 40
0
 40
0
 40
0
 40
0
 40
1
 40
1
 40
1
 40
1
 10
56.968387
 20
80.471497
 30
0.0
 10
58.587071
 20
79.875285
 30
0.0
 10
61.583967
 20
79.808975
 30
0.0
 10
62.623192
 20
80.346378
 30
0.0
  0
LWPOLYLINE
  5
22f
100
AcDbEntity
  8
0
 62
7
100
AcDbPolyline
 90
3
 70
0
 10
55.483498
 20
87.862159
 30
0.0
 10
54.800955
 20
88.745909
 30
0.0
 10
52.901511
 20
87.789364
 30
0.0
  0
SPLINE
  5
230
100
AcDbEntity
  8
0
 62
7
100
AcDbSpline
 70
8
 71
3
 72
8
 73
4
 74
0
 40
0
 40
0
 40
0
 40
0
 40
1
 40
1
 40
1
 40
1
 10
85.807963
 20
98.484306
 30
0.0
 10
88.578513
 20
99.034068
 30
0.0
 10
89.269091
 20
99.445358
 30
0.0
 10
89.942085
 20
100.946474
 30
0.0
  0
SPLINE
  5
231
100
AcDbEntity
  8
0
 62
7
100
AcDbSpline
 70
8
 71
3
 72
8
 73
4
 74
0
 40
0
 40
0
 40
0
 40
0
 40
1
 40
1
 40
1
 40
1
 10
89.942085
 20
100.946474
 30
0.0
 10
90.430588
 20
102.036078
 30
0.0
 10
90.560895
 20
102.794618
 30
0.0
 10
90.565121
 20
104.573200
 30
0.0
  0
SPLINE
  5
232
100
AcDbEntity
  8
0
 62
7
100
AcDbSpline
 70
8
 71
3
 72
8
 73
4
 74
0
 40
0
 40
0
 40
0
 40
0
 40
1
 40
1
 40
1
 40
1
 10
90.565121
 20
104.573200
 30
0.0
 10
90.569804
 20
106.546690
 30
0.0
 10
90.470175
 20
107.032809
 30
0.0
 10
89.751696
 20
108.541950
 30
0.0
  0
SPLINE
  5
233
100
AcDbEntity
  8
0
 62
7
100
AcDbSpline
 70
8
 71
3
 72
8
 73
4
 74
0
 40
0
 40
0
 40
0
 40
0
 40
1
 40
1
 40
1
 40
1
 10
89.751696
 20
108.541950
 30
0.0
 10
86.992492
 20
114.337555
 30
0.0
 10
78.807837
 20
119.670893
 30
0.0
 10
68.656068
 20
122.288416
 30
0.0
  0
SPLINE
  5
234
100
AcDbEntity
  8
0
 62
7
100
AcDbSpline
 70
8
 71
3
 72
8
 73
4
 74
0
 40
0
 40
0
 40
0
 40
0
 40
1
 40
1
 40
1
 40
1
 10
68.656068
 20
122.288416
 30
0.0
 10
63.787938
 20
123.543611
 30
0.0
 10
61.189732
 20
123.921859
 30
0.0
 10
56.439213
 20
124.066955
 30
0.0
  0
SPLINE
  5
235
100
AcDbEntity
  8
0
 62
7
100
AcDbSpline
 70
8
 71
3
 72
8
 73
4
 74
0
 40
0
 40
0
 40
0
 40
0
 40
1
 40
1
 40
1
 40
1
 10
56.439213
 20
124.066955
 30
0.0
 10
51.589681
 20
124.215075
 30
0.0
 10
49.331435
 20
123.925961
 30
0.0
 10
46.884942
 20
122.843760
 30
0.0
  0
LWPOLYLINE
  5
236
100
AcDbEntity
  8
0
 62
7
100
AcDbPolyline
 90
1
 70
1
 10
62.623192
 20
80.346378
 30
0.0
  0
SPLINE
  5
237
100
AcDbEntity
  8
0
 62
7
100
AcDbSpline
 70
8
 71
3
 72
8
 73
4
 74
0
 40
0
 40
0
 40
0
 40
0
 40
1
 40
1
 40
1
 40
1
 10
45.791070
 20
120.115894
 30
0.0
 10
45.956823
 20
117.567559
 30
0.0
 10
46.619964
 20
115.637593
 30
0.0
 10
48.144755
 20
113.265868
 30
0.0
  0
SPLINE
  5
238
100
AcDbEntity
  8
0
 62
7
100
AcDbSpline
 70
8
 71
3
 72
8
 73
4
 74
0
 40
0
 40
0
 40
0
 40
0
 40
1
 40
1
 40
1
 40
1
 10
48.144755
 20
113.265868
 30
0.0
 10
52.378316
 20
106.680805
 30
0.0
 10
64.068005
 20
100.054291
 30
0.0
 10
74.441002
 20
98.359357
 30
0.0
  0
SPLINE
  5
239
100
AcDbEntity
  8
0
 62
7
100
AcDbSpline
 70
8
 71
3
 72
8
 73
4
 74
0
 40
0
 40
0
 40
0
 40
0
 40
1
 40
1
 40
1
 40
1
 10
74.441002
 20
98.359357
 30
0.0
 10
77.020735
 20
97.937833
 30
0.0
 10
83.407803
 20
98.008043
 30
0.0
 10
85.807963
 20
98.484306
 30
0.0
  0
LWPOLYLINE
  5
23a
100
AcDbEntity
  8
0
 62
7
100
AcDbPolyline
 90
3
 70
0
 10
46.884942
 20
122.843760
 30
0.0
 10
45.649195
 20
122.297130
 30
0.0
 10
45.791070
 20
120.115894
 30
0.0
  0
SPLINE
  5
23b
100
AcDbEntity
  8
0
 62
7
100
AcDbSpline
 70
8
 71
3
 72
8
 73
4
 74
0
 40
0
 40
0
 40
0
 40
0
 40
1
 40
1
 40
1
 40
1
 10
74.827754
 20
99.455944
 30
0.0
 10
73.154265
 20
99.817592
 30
0.0
 10
70.058640
 20
100.691053
 30
0.0
 10
67.948588
 20
101.396972
 30
0.0
  0
SPLINE
  5
23c
100
AcDbEntity
  8
0
 62
7
100
AcDbSpline
 70
8
 71
3
 72
8
 73
4
 74
0
 40
0
 40
0
 40
0
 40
0
 40
1
 40
1
 40
1
 40
1
 10
67.948588
 20
101.396972
 30
0.0
 10
57.200033
 20
104.992900
 30
0.0
 10
51.550308
 20
109.160069
 30
0.0
 10
48.519059
 20
115.727959
 30
0.0
  0
SPLINE
  5
23d
100
AcDbEntity
  8
0
 62
7
100
AcDbSpline
 70
8
 71
3
 72
8
 73
4
 74
0
 40
0
 40
0
 40
0
 40
0
 40
1
 40
1
 40
1
 40
1
 10
48.519059
 20
115.727959
 30
0.0
 10
47.773471
 20
117.343445
 30
0.0
 10
46.781921
 20
120.410671
 30
0.0
 10
46.781921
 20
121.101566
 30
0.0
  0
SPLINE
  5
23e
100
AcDbEntity
  8
0
 62
7
100
AcDbSpline
 70
8
 71
3
 72
8
 73
4
 74
0
 40
0
 40
0
 40
0
 40
0
 40
1
 40
1
 40
1
 40
1
 10
46.781921
 20
121.101566
 30
0.0
 10
46.781921
 20
121.267207
 30
0.0
 10
47.841485
 20
121.224638
 30
0.0
 10
53.793379
 20
120.819877
 30
0.0
  0
LWPOLYLINE
  5
23f
100
AcDbEntity
  8
0
 62
7
100
AcDbPolyline
 90
1
 70
1
 10
85.807963
 20
98.484306
 30
0.0
  0
SPLINE
  5
240
100
AcDbEntity
  8
0
 62
7
100
AcDbSpline
 70
8
 71
3
 72
8
 73
4
 74
0
 40
0
 40
0
 40
0
 40
0
 40
1
 40
1
 40
1
 40
1
 10
55.925074
 20
117.717795
 30
0.0
 10
55.937404
 20
115.293468
 30
0.0
 10
56.048129
 20
114.485455
 30
0.0
 10
56.538707
 20
113.240148
 30
0.0
  0
SPLINE
  5
241
100
AcDbEntity
  8
0
 62
7
100
AcDbSpline
 70
8
 71
3
 72
8
 73
4
 74
0
 40
0
 40
0
 40
0
 40
0
 40
1
 40
1
 40
1
 40
1
 10
56.538707
 20
113.240148
 30
0.0
 10
57.418200
 20
111.007599
 30
0.0
 10
59.276689
 20
108.702491
 30
0.0
 10
61.436679
 20
107.165132
 30
0.0
  0
SPLINE
  5
242
100
AcDbEntity
  8
0
 62
7
100
AcDbSpline
 70
8
 71
3
 72
8
 73
4
 74
0
 40
0
 40
0
 40
0
 40
0
 40
1
 40
1
 40
1
 40
1
 10
61.436679
 20
107.165132
 30
0.0
 10
64.991107
 20
104.635287
 30
0.0
 10
71.507691
 20
101.891314
 30
0.0
 10
77.574534
 20
100.369875
 30
0.0
  0
SPLINE
  5
243
100
AcDbEntity
  8
0
 62
7
100
AcDbSpline
 70
8
 71
3
 72
8
 73
4
 74
0
 40
0
 40
0
 40
0
 40
0
 40
1
 40
1
 40
1
 40
1
 10
77.574534
 20
100.369875
 30
0.0
 10
79.858047
 20
99.797219
 30
0.0
 10
80.495719
 20
99.416563
 30
0.0
 10
79.852621
 20
99.009983
 30
0.0
  0
SPLINE
  5
244
100
AcDbEntity
  8
0
 62
7
100
AcDbSpline
 70
8
 71
3
 72
8
 73
4
 74
0
 40
0
 40
0
 40
0
 40
0
 40
1
 40
1
 40
1
 40
1
 10
79.852621
 20
99.009983
 30
0.0
 10
79.260237
 20
98.635465
 30
0.0
 10
78.181356
 20
98.731216
 30
0.0
 10
74.827749
 20
99.455944
 30
0.0
  0
LWPOLYLINE
  5
245
100
AcDbEntity
  8
0
 62
7
100
AcDbPolyline
 90
3
 70
0
 10
53.793379
 20
120.819877
 30
0.0
 10
55.910046
 20
120.675932
 30
0.0
 10
55.925074
 20
117.717795
 30
0.0
  0
LWPOLYLINE
  5
246
100
AcDbEntity
  8
0
 62
7
100
AcDbPolyline
 90
1
 70
1
 10
74.827749
 20
99.455944
 30
0.0
  0
ENDSEC
  0
SECTION
  2
OBJECTS
  0
DICTIONARY
  5
C
330
0
100
AcDbDictionary
  3
ACAD_GROUP
350
D
  3
ACAD_MLINESTYLE
350
17
  0
DICTIONARY
  5
D
330
C
100
AcDbDictionary
  0
DICTIONARY
  5
1A
330
C
100
AcDbDictionary
  0
DICTIONARY
  5
17
330
C
100
AcDbDictionary
  3
STANDARD
350
18
  0
DICTIONARY
  5
19
330
C
100
AcDbDictionary
  0
ENDSEC
  0
EOF
