  0
SECTION
  2
HEADER
  9
$ACADVER
  1
AC1014
  9
$HANDSEED
  5
FFFF
  9
$MEASUREMENT
 70
     1
  0
ENDSEC
  0
SECTION
  2
TABLES
  0
TABLE
  2
VPORT
  5
8
330
0
100
AcDbSymbolTable
 70
     4
  0
VPORT
  5
2E
330
8
100
AcDbSymbolTableRecord
100
AcDbViewportTableRecord
  2
*ACTIVE
 70
     0
 10
0.0
 20
0.0
 11
1.0
 21
1.0
 12
210.0
 22
148.5
 13
0.0
 23
0.0
 14
10.0
 24
10.0
 15
10.0
 25
10.0
 16
0.0
 26
0.0
 36
1.0
 17
0.0
 27
0.0
 37
0.0
 40
341.0
 41
1.24
 42
50.0
 43
0.0
 44
0.0
 50
0.0
 51
0.0
 71
     0
 72
   100
 73
     1
 74
     3
 75
     0
 76
     0
 77
     0
 78
     0
  0
ENDTAB
  0
TABLE
  2
LTYPE
  5
5
330
0
100
AcDbSymbolTable
 70
     1
  0
LTYPE
  5
14
330
5
100
AcDbSymbolTableRecord
100
AcDbLinetypeTableRecord
  2
BYBLOCK
 70
     0
  3

 72
    65
 73
     0
 40
0.0
  0
LTYPE
  5
15
330
5
100
AcDbSymbolTableRecord
100
AcDbLinetypeTableRecord
  2
BYLAYER
 70
     0
  3

 72
    65
 73
     0
 40
0.0
  0
LTYPE
  5
16
330
5
100
AcDbSymbolTableRecord
100
AcDbLinetypeTableRecord
  2
CONTINUOUS
 70
     0
  3
Solid line
 72
    65
 73
     0
 40
0.0
  0
ENDTAB
  0
TABLE
  2
LAYER
  5
2
100
AcDbSymbolTable
 70
1
  0
LAYER
  5
50
100
AcDbSymbolTableRecord
100
AcDbLayerTableRecord
  2
0
 70
0
  6
CONTINUOUS
  0
ENDTAB
  0
TABLE
  2
STYLE
  5
3
330
0
100
AcDbSymbolTable
 70
     1
  0
STYLE
  5
11
330
3
100
AcDbSymbolTableRecord
100
AcDbTextStyleTableRecord
  2
STANDARD
 70
     0
 40
0.0
 41
1.0
 50
0.0
 71
     0
 42
2.5
  3
txt
  4

  0
ENDTAB
  0
TABLE
  2
VIEW
  5
6
330
0
100
AcDbSymbolTable
 70
     0
  0
ENDTAB
  0
TABLE
  2
UCS
  5
7
330
0
100
AcDbSymbolTable
 70
     0
  0
ENDTAB
  0
TABLE
  2
APPID
  5
9
330
0
100
AcDbSymbolTable
 70
     2
  0
APPID
  5
12
330
9
100
AcDbSymbolTableRecord
100
AcDbRegAppTableRecord
  2
ACAD
 70
     0
  0
ENDTAB
  0
TABLE
  2
DIMSTYLE
  5
A
330
0
100
AcDbSymbolTable
 70
     1
  0
DIMSTYLE
105
27
330
A
100
AcDbSymbolTableRecord
100
AcDbDimStyleTableRecord
  2
ISO-25
 70
     0
  3

  4

  5

  6

  7

 40
1.0
 41
2.5
 42
0.625
 43
3.75
 44
1.25
 45
0.0
 46
0.0
 47
0.0
 48
0.0
140
2.5
141
2.5
142
0.0
143
0.03937007874016
144
1.0
145
0.0
146
1.0
147
0.625
 71
     0
 72
     0
 73
     0
 74
     0
 75
     0
 76
     0
 77
     1
 78
     8
170
     0
171
     3
172
     1
173
     0
174
     0
175
     0
176
     0
177
     0
178
     0
270
     2
271
     2
272
     2
273
     2
274
     3
340
11
275
     0
280
     0
281
     0
282
     0
283
     0
284
     8
285
     0
286
     0
287
     3
288
     0
  0
ENDTAB
  0
TABLE
  2
BLOCK_RECORD
  5
1
330
0
100
AcDbSymbolTable
 70
     1
  0
BLOCK_RECORD
  5
1F
330
1
100
AcDbSymbolTableRecord
100
AcDbBlockTableRecord
  2
*MODEL_SPACE
  0
BLOCK_RECORD
  5
1B
330
1
100
AcDbSymbolTableRecord
100
AcDbBlockTableRecord
  2
*PAPER_SPACE
  0
ENDTAB
  0
ENDSEC
  0
SECTION
  2
BLOCKS
  0
BLOCK
  5
20
330
1F
100
AcDbEntity
  8
0
100
AcDbBlockBegin
  2
*MODEL_SPACE
 70
     0
 10
0.0
 20
0.0
 30
0.0
  3
*MODEL_SPACE
  1

  0
ENDBLK
  5
21
330
1F
100
AcDbEntity
  8
0
100
AcDbBlockEnd
  0
BLOCK
  5
1C
330
1B
100
AcDbEntity
 67
     1
  8
0
100
AcDbBlockBegin
  2
*PAPER_SPACE
  1

  0
ENDBLK
  5
1D
330
1B
100
AcDbEntity
 67
     1
  8
0
100
AcDbBlockEnd
  0
ENDSEC
  0
SECTION
  2
ENTITIES
  0
SPLINE
  5
100
100
AcDbEntity
  8
0
 62
7
100
AcDbSpline
 70
8
 71
3
 72
8
 73
4
 74
0
 40
0
 40
0
 40
0
 40
0
 40
1
 40
1
 40
1
 40
1
 10
131.978760
 20
12.490622
 30
0.0
 10
132.054867
 20
12.734949
 30
0.0
 10
132.197036
 20
13.389793
 30
0.0
 10
132.294691
 20
13.945830
 30
0.0
  0
SPLINE
  5
101
100
AcDbEntity
  8
0
 62
7
100
AcDbSpline
 70
8
 71
3
 72
8
 73
4
 74
0
 40
0
 40
0
 40
0
 40
0
 40
1
 40
1
 40
1
 40
1
 10
132.294691
 20
13.945830
 30
0.0
 10
132.392346
 20
14.501865
 30
0.0
 10
132.808911
 20
16.206962
 30
0.0
 10
133.220391
 20
17.734931
 30
0.0
  0
SPLINE
  5
102
100
AcDbEntity
  8
0
 62
7
100
AcDbSpline
 70
8
 71
3
 72
8
 73
4
 74
0
 40
0
 40
0
 40
0
 40
0
 40
1
 40
1
 40
1
 40
1
 10
133.220391
 20
17.734931
 30
0.0
 10
133.631871
 20
19.262900
 30
0.0
 10
134.181432
 20
22.150165
 30
0.0
 10
134.441634
 20
24.151077
 30
0.0
  0
SPLINE
  5
103
100
AcDbEntity
  8
0
 62
7
100
AcDbSpline
 70
8
 71
3
 72
8
 73
4
 74
0
 40
0
 40
0
 40
0
 40
0
 40
1
 40
1
 40
1
 40
1
 10
135.788710
 20
27.789098
 30
0.0
 10
136.916313
 20
27.789098
 30
0.0
 10
137.093759
 20
27.310154
 30
0.0
 10
136.662856
 20
25.429660
 30
0.0
  0
SPLINE
  5
104
100
AcDbEntity
  8
0
 62
7
100
AcDbSpline
 70
8
 71
3
 72
8
 73
4
 74
0
 40
0
 40
0
 40
0
 40
0
 40
1
 40
1
 40
1
 40
1
 10
136.662856
 20
25.429660
 30
0.0
 10
136.476711
 20
24.617299
 30
0.0
 10
136.233083
 20
23.297795
 30
0.0
 10
136.121463
 20
22.497431
 30
0.0
  0
SPLINE
  5
105
100
AcDbEntity
  8
0
 62
7
100
AcDbSpline
 70
8
 71
3
 72
8
 73
4
 74
0
 40
0
 40
0
 40
0
 40
0
 40
1
 40
1
 40
1
 40
1
 10
136.121463
 20
22.497431
 30
0.0
 10
135.819994
 20
20.335777
 30
0.0
 10
133.279338
 20
13.769978
 30
0.0
 10
132.282163
 20
12.575556
 30
0.0
  0
SPLINE
  5
106
100
AcDbEntity
  8
0
 62
7
100
AcDbSpline
 70
8
 71
3
 72
8
 73
4
 74
0
 40
0
 40
0
 40
0
 40
0
 40
1
 40
1
 40
1
 40
1
 10
132.282163
 20
12.575556
 30
0.0
 10
131.939094
 20
12.164624
 30
0.0
 10
131.871302
 20
12.145648
 30
0.0
 10
131.978760
 20
12.490622
 30
0.0
  0
LWPOLYLINE
  5
107
100
AcDbEntity
  8
0
 62
7
100
AcDbPolyline
 90
3
 70
0
 10
134.441634
 20
24.151077
 30
0.0
 10
134.914730
 20
27.789098
 30
0.0
 10
135.788710
 20
27.789098
 30
0.0
  0
SPLINE
  5
108
100
AcDbEntity
  8
0
 62
7
100
AcDbSpline
 70
8
 71
3
 72
8
 73
4
 74
0
 40
0
 40
0
 40
0
 40
0
 40
1
 40
1
 40
1
 40
1
 10
124.331894
 20
16.610452
 30
0.0
 10
124.871562
 20
18.015487
 30
0.0
 10
125.533581
 20
20.912182
 30
0.0
 10
125.533581
 20
21.868492
 30
0.0
  0
SPLINE
  5
109
100
AcDbEntity
  8
0
 62
7
100
AcDbSpline
 70
8
 71
3
 72
8
 73
4
 74
0
 40
0
 40
0
 40
0
 40
0
 40
1
 40
1
 40
1
 40
1
 10
125.533581
 20
21.868492
 30
0.0
 10
125.533581
 20
23.010286
 30
0.0
 10
126.120229
 20
23.604117
 30
0.0
 10
126.687651
 20
23.036694
 30
0.0
  0
SPLINE
  5
10a
100
AcDbEntity
  8
0
 62
7
100
AcDbSpline
 70
8
 71
3
 72
8
 73
4
 74
0
 40
0
 40
0
 40
0
 40
0
 40
1
 40
1
 40
1
 40
1
 10
126.687651
 20
23.036694
 30
0.0
 10
127.272949
 20
22.451396
 30
0.0
 10
125.183016
 20
16.147431
 30
0.0
 10
124.403676
 20
16.147431
 30
0.0
  0
SPLINE
  5
10b
100
AcDbEntity
  8
0
 62
7
100
AcDbSpline
 70
8
 71
3
 72
8
 73
4
 74
0
 40
0
 40
0
 40
0
 40
0
 40
1
 40
1
 40
1
 40
1
 10
124.403676
 20
16.147431
 30
0.0
 10
124.266381
 20
16.147431
 30
0.0
 10
124.234080
 20
16.355790
 30
0.0
 10
124.331894
 20
16.610452
 30
0.0
  0
LWPOLYLINE
  5
10c
100
AcDbEntity
  8
0
 62
7
100
AcDbPolyline
 90
1
 70
1
 10
131.978760
 20
12.490622
 30
0.0
  0
SPLINE
  5
10d
100
AcDbEntity
  8
0
 62
7
100
AcDbSpline
 70
8
 71
3
 72
8
 73
4
 74
0
 40
0
 40
0
 40
0
 40
0
 40
1
 40
1
 40
1
 40
1
 10
115.788967
 20
16.866097
 30
0.0
 10
115.449898
 20
16.930688
 30
0.0
 10
114.725421
 20
17.430591
 30
0.0
 10
114.179022
 20
17.976990
 30
0.0
  0
SPLINE
  5
10e
100
AcDbEntity
  8
0
 62
7
100
AcDbSpline
 70
8
 71
3
 72
8
 73
4
 74
0
 40
0
 40
0
 40
0
 40
0
 40
1
 40
1
 40
1
 40
1
 10
114.179022
 20
17.976990
 30
0.0
 10
112.899854
 20
19.256158
 30
0.0
 10
112.493152
 20
20.993952
 30
0.0
 10
113.004936
 20
22.993744
 30
0.0
  0
SPLINE
  5
10f
100
AcDbEntity
  8
0
 62
7
100
AcDbSpline
 70
8
 71
3
 72
8
 73
4
 74
0
 40
0
 40
0
 40
0
 40
0
 40
1
 40
1
 40
1
 40
1
 10
113.004936
 20
22.993744
 30
0.0
 10
113.700198
 20
25.710473
 30
0.0
 10
114.668448
 20
26.949352
 30
0.0
 10
116.670040
 20
27.683262
 30
0.0
  0
SPLINE
  5
110
100
AcDbEntity
  8
0
 62
7
100
AcDbSpline
 70
8
 71
3
 72
8
 73
4
 74
0
 40
0
 40
0
 40
0
 40
0
 40
1
 40
1
 40
1
 40
1
 10
116.670040
 20
27.683262
 30
0.0
 10
119.161901
 20
28.596931
 30
0.0
 10
120.559534
 20
25.407967
 30
0.0
 10
118.548581
 20
23.397014
 30
0.0
  0
SPLINE
  5
111
100
AcDbEntity
  8
0
 62
7
100
AcDbSpline
 70
8
 71
3
 72
8
 73
4
 74
0
 40
0
 40
0
 40
0
 40
0
 40
1
 40
1
 40
1
 40
1
 10
118.548581
 20
23.397014
 30
0.0
 10
117.627180
 20
22.475613
 30
0.0
 10
117.205707
 20
22.333768
 30
0.0
 10
116.575612
 20
22.733013
 30
0.0
  0
SPLINE
  5
112
100
AcDbEntity
  8
0
 62
7
100
AcDbSpline
 70
8
 71
3
 72
8
 73
4
 74
0
 40
0
 40
0
 40
0
 40
0
 40
1
 40
1
 40
1
 40
1
 10
116.575612
 20
22.733013
 30
0.0
 10
115.980422
 20
23.110145
 30
0.0
 10
116.449618
 20
24.581898
 30
0.0
 10
117.227263
 20
24.777073
 30
0.0
  0
SPLINE
  5
113
100
AcDbEntity
  8
0
 62
7
100
AcDbSpline
 70
8
 71
3
 72
8
 73
4
 74
0
 40
0
 40
0
 40
0
 40
0
 40
1
 40
1
 40
1
 40
1
 10
117.227263
 20
24.777073
 30
0.0
 10
118.390617
 20
25.069057
 30
0.0
 10
118.719955
 20
26.710521
 30
0.0
 10
117.694162
 20
27.104155
 30
0.0
  0
SPLINE
  5
114
100
AcDbEntity
  8
0
 62
7
100
AcDbSpline
 70
8
 71
3
 72
8
 73
4
 74
0
 40
0
 40
0
 40
0
 40
0
 40
1
 40
1
 40
1
 40
1
 10
117.694162
 20
27.104155
 30
0.0
 10
116.976528
 20
27.379538
 30
0.0
 10
115.522163
 20
26.455037
 30
0.0
 10
114.671451
 20
25.182698
 30
0.0
  0
SPLINE
  5
115
100
AcDbEntity
  8
0
 62
7
100
AcDbSpline
 70
8
 71
3
 72
8
 73
4
 74
0
 40
0
 40
0
 40
0
 40
0
 40
1
 40
1
 40
1
 40
1
 10
114.671451
 20
25.182698
 30
0.0
 10
113.983519
 20
24.153818
 30
0.0
 10
113.872253
 20
23.776540
 30
0.0
 10
113.991147
 20
22.875912
 30
0.0
  0
SPLINE
  5
116
100
AcDbEntity
  8
0
 62
7
100
AcDbSpline
 70
8
 71
3
 72
8
 73
4
 74
0
 40
0
 40
0
 40
0
 40
0
 40
1
 40
1
 40
1
 40
1
 10
113.991147
 20
22.875912
 30
0.0
 10
114.220268
 20
21.140280
 30
0.0
 10
114.598569
 20
20.445910
 30
0.0
 10
115.719011
 20
19.704436
 30
0.0
  0
SPLINE
  5
117
100
AcDbEntity
  8
0
 62
7
100
AcDbSpline
 70
8
 71
3
 72
8
 73
4
 74
0
 40
0
 40
0
 40
0
 40
0
 40
1
 40
1
 40
1
 40
1
 10
115.719011
 20
19.704436
 30
0.0
 10
116.579637
 20
19.134900
 30
0.0
 10
116.958853
 20
19.037906
 30
0.0
 10
117.780189
 20
19.177233
 30
0.0
  0
SPLINE
  5
118
100
AcDbEntity
  8
0
 62
7
100
AcDbSpline
 70
8
 71
3
 72
8
 73
4
 74
0
 40
0
 40
0
 40
0
 40
0
 40
1
 40
1
 40
1
 40
1
 10
117.780189
 20
19.177233
 30
0.0
 10
119.496909
 20
19.468446
 30
0.0
 10
121.481842
 20
21.635545
 30
0.0
 10
121.939214
 20
23.717941
 30
0.0
  0
SPLINE
  5
119
100
AcDbEntity
  8
0
 62
7
100
AcDbSpline
 70
8
 71
3
 72
8
 73
4
 74
0
 40
0
 40
0
 40
0
 40
0
 40
1
 40
1
 40
1
 40
1
 10
121.939214
 20
23.717941
 30
0.0
 10
122.135162
 20
24.610089
 30
0.0
 10
121.502596
 20
26.392174
 30
0.0
 10
120.810282
 20
26.898407
 30
0.0
  0
SPLINE
  5
11a
100
AcDbEntity
  8
0
 62
7
100
AcDbSpline
 70
8
 71
3
 72
8
 73
4
 74
0
 40
0
 40
0
 40
0
 40
0
 40
1
 40
1
 40
1
 40
1
 10
120.810282
 20
26.898407
 30
0.0
 10
120.570898
 20
27.073450
 30
0.0
 10
120.468961
 20
27.310588
 30
0.0
 10
120.583756
 20
27.425383
 30
0.0
  0
SPLINE
  5
11b
100
AcDbEntity
  8
0
 62
7
100
AcDbSpline
 70
8
 71
3
 72
8
 73
4
 74
0
 40
0
 40
0
 40
0
 40
0
 40
1
 40
1
 40
1
 40
1
 10
120.583756
 20
27.425383
 30
0.0
 10
120.978986
 20
27.820612
 30
0.0
 10
122.227546
 20
26.796963
 30
0.0
 10
122.855117
 20
25.563176
 30
0.0
  0
LWPOLYLINE
  5
11c
100
AcDbEntity
  8
0
 62
7
100
AcDbPolyline
 90
1
 70
1
 10
124.331894
 20
16.610452
 30
0.0
  0
SPLINE
  5
11d
100
AcDbEntity
  8
0
 62
7
100
AcDbSpline
 70
8
 71
3
 72
8
 73
4
 74
0
 40
0
 40
0
 40
0
 40
0
 40
1
 40
1
 40
1
 40
1
 10
122.921469
 20
22.613490
 30
0.0
 10
122.207507
 20
20.438615
 30
0.0
 10
121.348124
 20
19.078721
 30
0.0
 10
120.064908
 20
18.093246
 30
0.0
  0
SPLINE
  5
11e
100
AcDbEntity
  8
0
 62
7
100
AcDbSpline
 70
8
 71
3
 72
8
 73
4
 74
0
 40
0
 40
0
 40
0
 40
0
 40
1
 40
1
 40
1
 40
1
 10
120.064908
 20
18.093246
 30
0.0
 10
118.353951
 20
16.779274
 30
0.0
 10
117.512476
 20
16.537781
 30
0.0
 10
115.788967
 20
16.866097
 30
0.0
  0
LWPOLYLINE
  5
11f
100
AcDbEntity
  8
0
 62
7
100
AcDbPolyline
 90
3
 70
0
 10
122.855117
 20
25.563176
 30
0.0
 10
123.483947
 20
24.326916
 30
0.0
 10
122.921469
 20
22.613490
 30
0.0
  0
SPLINE
  5
120
100
AcDbEntity
  8
0
 62
7
100
AcDbSpline
 70
8
 71
3
 72
8
 73
4
 74
0
 40
0
 40
0
 40
0
 40
0
 40
1
 40
1
 40
1
 40
1
 10
127.268023
 20
17.711227
 30
0.0
 10
127.171566
 20
17.867294
 30
0.0
 10
127.515766
 20
18.751587
 30
0.0
 10
128.032907
 20
19.676322
 30
0.0
  0
SPLINE
  5
121
100
AcDbEntity
  8
0
 62
7
100
AcDbSpline
 70
8
 71
3
 72
8
 73
4
 74
0
 40
0
 40
0
 40
0
 40
0
 40
1
 40
1
 40
1
 40
1
 10
128.032907
 20
19.676322
 30
0.0
 10
129.180595
 20
21.728578
 30
0.0
 10
129.243899
 20
22.326648
 30
0.0
 10
128.208437
 20
21.334611
 30
0.0
  0
SPLINE
  5
122
100
AcDbEntity
  8
0
 62
7
100
AcDbSpline
 70
8
 71
3
 72
8
 73
4
 74
0
 40
0
 40
0
 40
0
 40
0
 40
1
 40
1
 40
1
 40
1
 10
128.208437
 20
21.334611
 30
0.0
 10
127.663961
 20
20.812969
 30
0.0
 10
127.386646
 20
20.694288
 30
0.0
 10
127.245581
 20
20.922538
 30
0.0
  0
SPLINE
  5
123
100
AcDbEntity
  8
0
 62
7
100
AcDbSpline
 70
8
 71
3
 72
8
 73
4
 74
0
 40
0
 40
0
 40
0
 40
0
 40
1
 40
1
 40
1
 40
1
 10
127.245581
 20
20.922538
 30
0.0
 10
127.124526
 20
21.118412
 30
0.0
 10
127.400579
 20
21.576279
 30
0.0
 10
127.955212
 20
22.099543
 30
0.0
  0
SPLINE
  5
124
100
AcDbEntity
  8
0
 62
7
100
AcDbSpline
 70
8
 71
3
 72
8
 73
4
 74
0
 40
0
 40
0
 40
0
 40
0
 40
1
 40
1
 40
1
 40
1
 10
127.955212
 20
22.099543
 30
0.0
 10
129.121638
 20
23.200000
 30
0.0
 10
129.847226
 20
23.435143
 30
0.0
 10
130.319724
 20
22.865818
 30
0.0
  0
SPLINE
  5
125
100
AcDbEntity
  8
0
 62
7
100
AcDbSpline
 70
8
 71
3
 72
8
 73
4
 74
0
 40
0
 40
0
 40
0
 40
0
 40
1
 40
1
 40
1
 40
1
 10
130.319724
 20
22.865818
 30
0.0
 10
130.634634
 20
22.486374
 30
0.0
 10
130.553756
 20
22.187993
 30
0.0
 10
129.708513
 20
20.610886
 30
0.0
  0
SPLINE
  5
126
100
AcDbEntity
  8
0
 62
7
100
AcDbSpline
 70
8
 71
3
 72
8
 73
4
 74
0
 40
0
 40
0
 40
0
 40
0
 40
1
 40
1
 40
1
 40
1
 10
129.708513
 20
20.610886
 30
0.0
 10
129.172735
 20
19.611194
 30
0.0
 10
128.790650
 20
18.793264
 30
0.0
 10
128.859439
 20
18.793264
 30
0.0
  0
SPLINE
  5
127
100
AcDbEntity
  8
0
 62
7
100
AcDbSpline
 70
8
 71
3
 72
8
 73
4
 74
0
 40
0
 40
0
 40
0
 40
0
 40
1
 40
1
 40
1
 40
1
 10
128.859439
 20
18.793264
 30
0.0
 10
128.928228
 20
18.793264
 30
0.0
 10
129.451335
 20
19.102194
 30
0.0
 10
130.021899
 20
19.479776
 30
0.0
  0
SPLINE
  5
128
100
AcDbEntity
  8
0
 62
7
100
AcDbSpline
 70
8
 71
3
 72
8
 73
4
 74
0
 40
0
 40
0
 40
0
 40
0
 40
1
 40
1
 40
1
 40
1
 10
130.021899
 20
19.479776
 30
0.0
 10
130.592462
 20
19.857358
 30
0.0
 10
131.185224
 20
20.088455
 30
0.0
 10
131.339143
 20
19.993327
 30
0.0
  0
SPLINE
  5
129
100
AcDbEntity
  8
0
 62
7
100
AcDbSpline
 70
8
 71
3
 72
8
 73
4
 74
0
 40
0
 40
0
 40
0
 40
0
 40
1
 40
1
 40
1
 40
1
 10
131.339143
 20
19.993327
 30
0.0
 10
131.772147
 20
19.725717
 30
0.0
 10
131.671116
 20
19.374631
 30
0.0
 10
131.109836
 20
19.196489
 30
0.0
  0
SPLINE
  5
12a
100
AcDbEntity
  8
0
 62
7
100
AcDbSpline
 70
8
 71
3
 72
8
 73
4
 74
0
 40
0
 40
0
 40
0
 40
0
 40
1
 40
1
 40
1
 40
1
 10
131.109836
 20
19.196489
 30
0.0
 10
130.829796
 20
19.107608
 30
0.0
 10
130.171867
 20
18.743890
 30
0.0
 10
129.647770
 20
18.388229
 30
0.0
  0
SPLINE
  5
12b
100
AcDbEntity
  8
0
 62
7
100
AcDbSpline
 70
8
 71
3
 72
8
 73
4
 74
0
 40
0
 40
0
 40
0
 40
0
 40
1
 40
1
 40
1
 40
1
 10
129.647770
 20
18.388229
 30
0.0
 10
128.497523
 20
17.607650
 30
0.0
 10
127.506312
 20
17.325668
 30
0.0
 10
127.268023
 20
17.711227
 30
0.0
  0
LWPOLYLINE
  5
12c
100
AcDbEntity
  8
0
 62
7
100
AcDbPolyline
 90
1
 70
1
 10
115.788967
 20
16.866097
 30
0.0
  0
SPLINE
  5
12d
100
AcDbEntity
  8
0
 62
7
100
AcDbSpline
 70
8
 71
3
 72
8
 73
4
 74
0
 40
0
 40
0
 40
0
 40
0
 40
1
 40
1
 40
1
 40
1
 10
112.304415
 20
25.235858
 30
0.0
 10
112.304415
 20
25.432306
 30
0.0
 10
112.647032
 20
26.057384
 30
0.0
 10
113.065788
 20
26.624920
 30
0.0
  0
SPLINE
  5
12e
100
AcDbEntity
  8
0
 62
7
100
AcDbSpline
 70
8
 71
3
 72
8
 73
4
 74
0
 40
0
 40
0
 40
0
 40
0
 40
1
 40
1
 40
1
 40
1
 10
113.065788
 20
26.624920
 30
0.0
 10
116.286301
 20
30.989675
 30
0.0
 10
121.611686
 20
35.448452
 30
0.0
 10
126.561318
 20
37.924301
 30
0.0
  0
SPLINE
  5
12f
100
AcDbEntity
  8
0
 62
7
100
AcDbSpline
 70
8
 71
3
 72
8
 73
4
 74
0
 40
0
 40
0
 40
0
 40
0
 40
1
 40
1
 40
1
 40
1
 10
126.561318
 20
37.924301
 30
0.0
 10
128.579867
 20
38.933998
 30
0.0
 10
129.693667
 20
39.133595
 30
0.0
 10
130.243165
 20
38.584098
 30
0.0
  0
SPLINE
  5
130
100
AcDbEntity
  8
0
 62
7
100
AcDbSpline
 70
8
 71
3
 72
8
 73
4
 74
0
 40
0
 40
0
 40
0
 40
0
 40
1
 40
1
 40
1
 40
1
 10
130.243165
 20
38.584098
 30
0.0
 10
130.616624
 20
38.210638
 30
0.0
 10
130.664876
 20
36.999910
 30
0.0
 10
130.320669
 20
36.639410
 30
0.0
  0
SPLINE
  5
131
100
AcDbEntity
  8
0
 62
7
100
AcDbSpline
 70
8
 71
3
 72
8
 73
4
 74
0
 40
0
 40
0
 40
0
 40
0
 40
1
 40
1
 40
1
 40
1
 10
130.320669
 20
36.639410
 30
0.0
 10
130.188671
 20
36.501165
 30
0.0
 10
129.958177
 20
35.971337
 30
0.0
 10
129.808454
 20
35.462014
 30
0.0
  0
SPLINE
  5
132
100
AcDbEntity
  8
0
 62
7
100
AcDbSpline
 70
8
 71
3
 72
8
 73
4
 74
0
 40
0
 40
0
 40
0
 40
0
 40
1
 40
1
 40
1
 40
1
 10
129.808454
 20
35.462014
 30
0.0
 10
129.658734
 20
34.952691
 30
0.0
 10
129.355710
 20
33.970426
 30
0.0
 10
129.135063
 20
33.279202
 30
0.0
  0
SPLINE
  5
133
100
AcDbEntity
  8
0
 62
7
100
AcDbSpline
 70
8
 71
3
 72
8
 73
4
 74
0
 40
0
 40
0
 40
0
 40
0
 40
1
 40
1
 40
1
 40
1
 10
129.135063
 20
33.279202
 30
0.0
 10
128.914419
 20
32.587978
 30
0.0
 10
128.830189
 20
32.022431
 30
0.0
 10
128.947886
 20
32.022431
 30
0.0
  0
SPLINE
  5
134
100
AcDbEntity
  8
0
 62
7
100
AcDbSpline
 70
8
 71
3
 72
8
 73
4
 74
0
 40
0
 40
0
 40
0
 40
0
 40
1
 40
1
 40
1
 40
1
 10
128.947886
 20
32.022431
 30
0.0
 10
129.203884
 20
32.022431
 30
0.0
 10
130.987030
 20
34.721305
 30
0.0
 10
131.223697
 20
35.466975
 30
0.0
  0
SPLINE
  5
135
100
AcDbEntity
  8
0
 62
7
100
AcDbSpline
 70
8
 71
3
 72
8
 73
4
 74
0
 40
0
 40
0
 40
0
 40
0
 40
1
 40
1
 40
1
 40
1
 10
131.223697
 20
35.466975
 30
0.0
 10
131.315206
 20
35.755289
 30
0.0
 10
131.570838
 20
35.991181
 30
0.0
 10
131.791774
 20
35.991181
 30
0.0
  0
SPLINE
  5
136
100
AcDbEntity
  8
0
 62
7
100
AcDbSpline
 70
8
 71
3
 72
8
 73
4
 74
0
 40
0
 40
0
 40
0
 40
0
 40
1
 40
1
 40
1
 40
1
 10
131.791774
 20
35.991181
 30
0.0
 10
132.211651
 20
35.991181
 30
0.0
 10
132.211038
 20
35.947249
 30
0.0
 10
131.722744
 20
31.038162
 30
0.0
  0
LWPOLYLINE
  5
137
100
AcDbEntity
  8
0
 62
7
100
AcDbPolyline
 90
1
 70
1
 10
127.268023
 20
17.711227
 30
0.0
  0
SPLINE
  5
138
100
AcDbEntity
  8
0
 62
7
100
AcDbSpline
 70
8
 71
3
 72
8
 73
4
 74
0
 40
0
 40
0
 40
0
 40
0
 40
1
 40
1
 40
1
 40
1
 10
132.647357
 20
29.218411
 30
0.0
 10
134.114196
 20
28.983853
 30
0.0
 10
134.084409
 20
28.419838
 30
0.0
 10
132.611185
 20
28.533495
 30
0.0
  0
SPLINE
  5
139
100
AcDbEntity
  8
0
 62
7
100
AcDbSpline
 70
8
 71
3
 72
8
 73
4
 74
0
 40
0
 40
0
 40
0
 40
0
 40
1
 40
1
 40
1
 40
1
 10
132.611185
 20
28.533495
 30
0.0
 10
131.489379
 20
28.620040
 30
0.0
 10
131.485238
 20
28.617008
 30
0.0
 10
130.868521
 20
27.257407
 30
0.0
  0
SPLINE
  5
13a
100
AcDbEntity
  8
0
 62
7
100
AcDbSpline
 70
8
 71
3
 72
8
 73
4
 74
0
 40
0
 40
0
 40
0
 40
0
 40
1
 40
1
 40
1
 40
1
 10
130.868521
 20
27.257407
 30
0.0
 10
130.528520
 20
26.507845
 30
0.0
 10
130.188901
 20
25.956001
 30
0.0
 10
130.113812
 20
26.031089
 30
0.0
  0
SPLINE
  5
13b
100
AcDbEntity
  8
0
 62
7
100
AcDbSpline
 70
8
 71
3
 72
8
 73
4
 74
0
 40
0
 40
0
 40
0
 40
0
 40
1
 40
1
 40
1
 40
1
 10
130.113812
 20
26.031089
 30
0.0
 10
129.985114
 20
26.159788
 30
0.0
 10
130.411940
 20
29.889749
 30
0.0
 10
130.747177
 20
31.565927
 30
0.0
  0
SPLINE
  5
13c
100
AcDbEntity
  8
0
 62
7
100
AcDbSpline
 70
8
 71
3
 72
8
 73
4
 74
0
 40
0
 40
0
 40
0
 40
0
 40
1
 40
1
 40
1
 40
1
 10
130.747177
 20
31.565927
 30
0.0
 10
130.891039
 20
32.285236
 30
0.0
 10
130.813064
 20
32.242453
 30
0.0
 10
129.554166
 20
30.911356
 30
0.0
  0
SPLINE
  5
13d
100
AcDbEntity
  8
0
 62
7
100
AcDbSpline
 70
8
 71
3
 72
8
 73
4
 74
0
 40
0
 40
0
 40
0
 40
0
 40
1
 40
1
 40
1
 40
1
 10
129.554166
 20
30.911356
 30
0.0
 10
128.322766
 20
29.609333
 30
0.0
 10
128.182185
 20
29.329242
 30
0.0
 10
127.915196
 20
27.645947
 30
0.0
  0
SPLINE
  5
13e
100
AcDbEntity
  8
0
 62
7
100
AcDbSpline
 70
8
 71
3
 72
8
 73
4
 74
0
 40
0
 40
0
 40
0
 40
0
 40
1
 40
1
 40
1
 40
1
 10
127.915196
 20
27.645947
 30
0.0
 10
127.754576
 20
26.633273
 30
0.0
 10
127.439219
 20
25.626129
 30
0.0
 10
127.214402
 20
25.407848
 30
0.0
  0
SPLINE
  5
13f
100
AcDbEntity
  8
0
 62
7
100
AcDbSpline
 70
8
 71
3
 72
8
 73
4
 74
0
 40
0
 40
0
 40
0
 40
0
 40
1
 40
1
 40
1
 40
1
 10
127.214402
 20
25.407848
 30
0.0
 10
126.846462
 20
25.050604
 30
0.0
 10
126.823772
 20
25.199493
 30
0.0
 10
126.987170
 20
26.898873
 30
0.0
  0
SPLINE
  5
140
100
AcDbEntity
  8
0
 62
7
100
AcDbSpline
 70
8
 71
3
 72
8
 73
4
 74
0
 40
0
 40
0
 40
0
 40
0
 40
1
 40
1
 40
1
 40
1
 10
126.987170
 20
26.898873
 30
0.0
 10
127.112620
 20
28.203562
 30
0.0
 10
127.075636
 20
28.844288
 30
0.0
 10
126.867457
 20
28.972949
 30
0.0
  0
SPLINE
  5
141
100
AcDbEntity
  8
0
 62
7
100
AcDbSpline
 70
8
 71
3
 72
8
 73
4
 74
0
 40
0
 40
0
 40
0
 40
0
 40
1
 40
1
 40
1
 40
1
 10
126.867457
 20
28.972949
 30
0.0
 10
126.644212
 20
29.110921
 30
0.0
 10
126.648713
 20
29.258522
 30
0.0
 10
126.884840
 20
29.543039
 30
0.0
  0
SPLINE
  5
142
100
AcDbEntity
  8
0
 62
7
100
AcDbSpline
 70
8
 71
3
 72
8
 73
4
 74
0
 40
0
 40
0
 40
0
 40
0
 40
1
 40
1
 40
1
 40
1
 10
126.884840
 20
29.543039
 30
0.0
 10
127.060079
 20
29.754190
 30
0.0
 10
127.294084
 20
30.487731
 30
0.0
 10
127.404852
 20
31.173129
 30
0.0
  0
SPLINE
  5
143
100
AcDbEntity
  8
0
 62
7
100
AcDbSpline
 70
8
 71
3
 72
8
 73
4
 74
0
 40
0
 40
0
 40
0
 40
0
 40
1
 40
1
 40
1
 40
1
 10
127.404852
 20
31.173129
 30
0.0
 10
127.515617
 20
31.858527
 30
0.0
 10
127.693224
 20
32.657431
 30
0.0
 10
127.799531
 20
32.948473
 30
0.0
  0
SPLINE
  5
144
100
AcDbEntity
  8
0
 62
7
100
AcDbSpline
 70
8
 71
3
 72
8
 73
4
 74
0
 40
0
 40
0
 40
0
 40
0
 40
1
 40
1
 40
1
 40
1
 10
127.799531
 20
32.948473
 30
0.0
 10
127.935802
 20
33.321546
 30
0.0
 10
127.688642
 20
33.192008
 30
0.0
 10
126.961638
 20
32.509336
 30
0.0
  0
SPLINE
  5
145
100
AcDbEntity
  8
0
 62
7
100
AcDbSpline
 70
8
 71
3
 72
8
 73
4
 74
0
 40
0
 40
0
 40
0
 40
0
 40
1
 40
1
 40
1
 40
1
 10
126.961638
 20
32.509336
 30
0.0
 10
125.816918
 20
31.434416
 30
0.0
 10
123.946081
 20
30.306571
 30
0.0
 10
123.946081
 20
30.691386
 30
0.0
  0
SPLINE
  5
146
100
AcDbEntity
  8
0
 62
7
100
AcDbSpline
 70
8
 71
3
 72
8
 73
4
 74
0
 40
0
 40
0
 40
0
 40
0
 40
1
 40
1
 40
1
 40
1
 10
123.946081
 20
30.691386
 30
0.0
 10
123.946081
 20
30.827467
 30
0.0
 10
124.643711
 20
31.724703
 30
0.0
 10
125.496368
 20
32.685247
 30
0.0
  0
SPLINE
  5
147
100
AcDbEntity
  8
0
 62
7
100
AcDbSpline
 70
8
 71
3
 72
8
 73
4
 74
0
 40
0
 40
0
 40
0
 40
0
 40
1
 40
1
 40
1
 40
1
 10
125.496368
 20
32.685247
 30
0.0
 10
126.349024
 20
33.645793
 30
0.0
 10
127.198284
 20
34.715013
 30
0.0
 10
127.383606
 20
35.061295
 30
0.0
  0
SPLINE
  5
148
100
AcDbEntity
  8
0
 62
7
100
AcDbSpline
 70
8
 71
3
 72
8
 73
4
 74
0
 40
0
 40
0
 40
0
 40
0
 40
1
 40
1
 40
1
 40
1
 10
127.383606
 20
35.061295
 30
0.0
 10
128.261356
 20
36.701383
 30
0.0
 10
126.384140
 20
37.047845
 30
0.0
 10
123.967475
 20
35.691781
 30
0.0
  0
SPLINE
  5
149
100
AcDbEntity
  8
0
 62
7
100
AcDbSpline
 70
8
 71
3
 72
8
 73
4
 74
0
 40
0
 40
0
 40
0
 40
0
 40
1
 40
1
 40
1
 40
1
 10
123.967475
 20
35.691781
 30
0.0
 10
120.657199
 20
33.834282
 30
0.0
 10
114.474694
 20
27.979915
 30
0.0
 10
113.088954
 20
25.390639
 30
0.0
  0
SPLINE
  5
14a
100
AcDbEntity
  8
0
 62
7
100
AcDbSpline
 70
8
 71
3
 72
8
 73
4
 74
0
 40
0
 40
0
 40
0
 40
0
 40
1
 40
1
 40
1
 40
1
 10
113.088954
 20
25.390639
 30
0.0
 10
112.773822
 20
24.801811
 30
0.0
 10
112.304415
 20
24.709202
 30
0.0
 10
112.304415
 20
25.235858
 30
0.0
  0
LWPOLYLINE
  5
14b
100
AcDbEntity
  8
0
 62
7
100
AcDbPolyline
 90
3
 70
0
 10
131.722744
 20
31.038162
 30
0.0
 10
131.559049
 20
29.392438
 30
0.0
 10
132.647357
 20
29.218411
 30
0.0
  0
SPLINE
  5
14c
100
AcDbEntity
  8
0
 62
7
100
AcDbSpline
 70
8
 71
3
 72
8
 73
4
 74
0
 40
0
 40
0
 40
0
 40
0
 40
1
 40
1
 40
1
 40
1
 10
68.383581
 20
27.476966
 30
0.0
 10
67.198740
 20
28.013866
 30
0.0
 10
64.903070
 20
29.722180
 30
0.0
 10
64.244789
 20
30.556830
 30
0.0
  0
SPLINE
  5
14d
100
AcDbEntity
  8
0
 62
7
100
AcDbSpline
 70
8
 71
3
 72
8
 73
4
 74
0
 40
0
 40
0
 40
0
 40
0
 40
1
 40
1
 40
1
 40
1
 10
64.244789
 20
30.556830
 30
0.0
 10
63.828991
 20
31.084033
 30
0.0
 10
63.128395
 20
31.913092
 30
0.0
 10
62.687912
 20
32.399187
 30
0.0
  0
SPLINE
  5
14e
100
AcDbEntity
  8
0
 62
7
100
AcDbSpline
 70
8
 71
3
 72
8
 73
4
 74
0
 40
0
 40
0
 40
0
 40
0
 40
1
 40
1
 40
1
 40
1
 10
62.687912
 20
32.399187
 30
0.0
 10
61.667980
 20
33.524732
 30
0.0
 10
60.529197
 20
35.621590
 30
0.0
 10
60.367606
 20
36.671605
 30
0.0
  0
SPLINE
  5
14f
100
AcDbEntity
  8
0
 62
7
100
AcDbSpline
 70
8
 71
3
 72
8
 73
4
 74
0
 40
0
 40
0
 40
0
 40
0
 40
1
 40
1
 40
1
 40
1
 10
60.367606
 20
36.671605
 30
0.0
 10
60.183548
 20
37.867603
 30
0.0
 10
60.690413
 20
38.814113
 30
0.0
 10
62.670227
 20
40.971481
 30
0.0
  0
SPLINE
  5
150
100
AcDbEntity
  8
0
 62
7
100
AcDbSpline
 70
8
 71
3
 72
8
 73
4
 74
0
 40
0
 40
0
 40
0
 40
0
 40
1
 40
1
 40
1
 40
1
 10
62.670227
 20
40.971481
 30
0.0
 10
64.264008
 20
42.708192
 30
0.0
 10
64.436448
 20
43.002777
 30
0.0
 10
64.363621
 20
43.864374
 30
0.0
  0
SPLINE
  5
151
100
AcDbEntity
  8
0
 62
7
100
AcDbSpline
 70
8
 71
3
 72
8
 73
4
 74
0
 40
0
 40
0
 40
0
 40
0
 40
1
 40
1
 40
1
 40
1
 10
64.363621
 20
43.864374
 30
0.0
 10
64.296319
 20
44.660640
 30
0.0
 10
64.099205
 20
44.938701
 30
0.0
 10
63.203688
 20
45.500647
 30
0.0
  0
SPLINE
  5
152
100
AcDbEntity
  8
0
 62
7
100
AcDbSpline
 70
8
 71
3
 72
8
 73
4
 74
0
 40
0
 40
0
 40
0
 40
0
 40
1
 40
1
 40
1
 40
1
 10
63.203688
 20
45.500647
 30
0.0
 10
56.870576
 20
49.474744
 30
0.0
 10
50.420781
 20
54.428393
 30
0.0
 10
47.878373
 20
57.270978
 30
0.0
  0
SPLINE
  5
153
100
AcDbEntity
  8
0
 62
7
100
AcDbSpline
 70
8
 71
3
 72
8
 73
4
 74
0
 40
0
 40
0
 40
0
 40
0
 40
1
 40
1
 40
1
 40
1
 10
47.878373
 20
57.270978
 30
0.0
 10
46.714206
 20
58.572596
 30
0.0
 10
45.263107
 20
60.142075
 30
0.0
 10
44.653711
 20
60.758708
 30
0.0
  0
SPLINE
  5
154
100
AcDbEntity
  8
0
 62
7
100
AcDbSpline
 70
8
 71
3
 72
8
 73
4
 74
0
 40
0
 40
0
 40
0
 40
0
 40
1
 40
1
 40
1
 40
1
 10
44.653711
 20
60.758708
 30
0.0
 10
43.234335
 20
62.194935
 30
0.0
 10
40.153349
 20
66.876261
 30
0.0
 10
39.470124
 20
68.634782
 30
0.0
  0
SPLINE
  5
155
100
AcDbEntity
  8
0
 62
7
100
AcDbSpline
 70
8
 71
3
 72
8
 73
4
 74
0
 40
0
 40
0
 40
0
 40
0
 40
1
 40
1
 40
1
 40
1
 10
39.470124
 20
68.634782
 30
0.0
 10
38.833851
 20
70.272455
 30
0.0
 10
38.417947
 20
75.339919
 30
0.0
 10
38.379675
 20
81.921130
 30
0.0
  0
SPLINE
  5
156
100
AcDbEntity
  8
0
 62
7
100
AcDbSpline
 70
8
 71
3
 72
8
 73
4
 74
0
 40
0
 40
0
 40
0
 40
0
 40
1
 40
1
 40
1
 40
1
 10
38.379675
 20
81.921130
 30
0.0
 10
38.351394
 20
86.784310
 30
0.0
 10
38.410629
 20
86.550450
 30
0.0
 10
36.743979
 20
88.378681
 30
0.0
  0
SPLINE
  5
157
100
AcDbEntity
  8
0
 62
7
100
AcDbSpline
 70
8
 71
3
 72
8
 73
4
 74
0
 40
0
 40
0
 40
0
 40
0
 40
1
 40
1
 40
1
 40
1
 10
36.743979
 20
88.378681
 30
0.0
 10
36.132881
 20
89.049021
 30
0.0
 10
35.849441
 20
89.670012
 30
0.0
 10
35.717475
 20
90.627639
 30
0.0
  0
SPLINE
  5
158
100
AcDbEntity
  8
0
 62
7
100
AcDbSpline
 70
8
 71
3
 72
8
 73
4
 74
0
 40
0
 40
0
 40
0
 40
0
 40
1
 40
1
 40
1
 40
1
 10
35.717475
 20
90.627639
 30
0.0
 10
35.617208
 20
91.355243
 30
0.0
 10
35.121064
 20
92.993361
 30
0.0
 10
34.614932
 20
94.267898
 30
0.0
  0
SPLINE
  5
159
100
AcDbEntity
  8
0
 62
7
100
AcDbSpline
 70
8
 71
3
 72
8
 73
4
 74
0
 40
0
 40
0
 40
0
 40
0
 40
1
 40
1
 40
1
 40
1
 10
34.614932
 20
94.267898
 30
0.0
 10
33.761024
 20
96.418212
 30
0.0
 10
33.047154
 20
99.432531
 30
0.0
 10
33.325819
 20
99.711195
 30
0.0
  0
SPLINE
  5
15a
100
AcDbEntity
  8
0
 62
7
100
AcDbSpline
 70
8
 71
3
 72
8
 73
4
 74
0
 40
0
 40
0
 40
0
 40
0
 40
1
 40
1
 40
1
 40
1
 10
33.325819
 20
99.711195
 30
0.0
 10
33.457618
 20
99.842995
 30
0.0
 10
33.510172
 20
99.685689
 30
0.0
 10
33.945962
 20
97.854958
 30
0.0
  0
SPLINE
  5
15b
100
AcDbEntity
  8
0
 62
7
100
AcDbSpline
 70
8
 71
3
 72
8
 73
4
 74
0
 40
0
 40
0
 40
0
 40
0
 40
1
 40
1
 40
1
 40
1
 10
33.945962
 20
97.854958
 30
0.0
 10
34.732550
 20
94.550553
 30
0.0
 10
37.377624
 20
89.683990
 30
0.0
 10
41.126778
 20
84.643267
 30
0.0
  0
SPLINE
  5
15c
100
AcDbEntity
  8
0
 62
7
100
AcDbSpline
 70
8
 71
3
 72
8
 73
4
 74
0
 40
0
 40
0
 40
0
 40
0
 40
1
 40
1
 40
1
 40
1
 10
41.126778
 20
84.643267
 30
0.0
 10
42.848752
 20
82.328078
 30
0.0
 10
43.263960
 20
81.511608
 30
0.0
 10
42.321649
 20
82.293658
 30
0.0
  0
SPLINE
  5
15d
100
AcDbEntity
  8
0
 62
7
100
AcDbSpline
 70
8
 71
3
 72
8
 73
4
 74
0
 40
0
 40
0
 40
0
 40
0
 40
1
 40
1
 40
1
 40
1
 10
42.321649
 20
82.293658
 30
0.0
 10
42.096074
 20
82.480870
 30
0.0
 10
41.357177
 20
83.389004
 30
0.0
 10
40.679661
 20
84.311739
 30
0.0
  0
SPLINE
  5
15e
100
AcDbEntity
  8
0
 62
7
100
AcDbSpline
 70
8
 71
3
 72
8
 73
4
 74
0
 40
0
 40
0
 40
0
 40
0
 40
1
 40
1
 40
1
 40
1
 10
40.679661
 20
84.311739
 30
0.0
 10
40.002142
 20
85.234473
 30
0.0
 10
39.412865
 20
85.954494
 30
0.0
 10
39.370159
 20
85.911785
 30
0.0
  0
SPLINE
  5
15f
100
AcDbEntity
  8
0
 62
7
100
AcDbSpline
 70
8
 71
3
 72
8
 73
4
 74
0
 40
0
 40
0
 40
0
 40
0
 40
1
 40
1
 40
1
 40
1
 10
39.370159
 20
85.911785
 30
0.0
 10
39.327450
 20
85.869076
 30
0.0
 10
39.399530
 20
85.126735
 30
0.0
 10
39.530335
 20
84.262137
 30
0.0
  0
SPLINE
  5
160
100
AcDbEntity
  8
0
 62
7
100
AcDbSpline
 70
8
 71
3
 72
8
 73
4
 74
0
 40
0
 40
0
 40
0
 40
0
 40
1
 40
1
 40
1
 40
1
 10
39.530335
 20
84.262137
 30
0.0
 10
39.661142
 20
83.397537
 30
0.0
 10
39.836704
 20
82.094827
 30
0.0
 10
39.920474
 20
81.367223
 30
0.0
  0
SPLINE
  5
161
100
AcDbEntity
  8
0
 62
7
100
AcDbSpline
 70
8
 71
3
 72
8
 73
4
 74
0
 40
0
 40
0
 40
0
 40
0
 40
1
 40
1
 40
1
 40
1
 10
39.920474
 20
81.367223
 30
0.0
 10
40.004243
 20
80.639618
 30
0.0
 10
40.253931
 20
79.389462
 30
0.0
 10
40.475337
 20
78.589098
 30
0.0
  0
SPLINE
  5
162
100
AcDbEntity
  8
0
 62
7
100
AcDbSpline
 70
8
 71
3
 72
8
 73
4
 74
0
 40
0
 40
0
 40
0
 40
0
 40
1
 40
1
 40
1
 40
1
 10
40.475337
 20
78.589098
 30
0.0
 10
41.099539
 20
76.332665
 30
0.0
 10
41.588552
 20
73.632592
 30
0.0
 10
41.793110
 20
71.313056
 30
0.0
  0
SPLINE
  5
163
100
AcDbEntity
  8
0
 62
7
100
AcDbSpline
 70
8
 71
3
 72
8
 73
4
 74
0
 40
0
 40
0
 40
0
 40
0
 40
1
 40
1
 40
1
 40
1
 10
41.793110
 20
71.313056
 30
0.0
 10
41.965062
 20
69.363246
 30
0.0
 10
42.149697
 20
68.855950
 30
0.0
 10
44.135326
 20
64.877733
 30
0.0
  0
SPLINE
  5
164
100
AcDbEntity
  8
0
 62
7
100
AcDbSpline
 70
8
 71
3
 72
8
 73
4
 74
0
 40
0
 40
0
 40
0
 40
0
 40
1
 40
1
 40
1
 40
1
 10
44.135326
 20
64.877733
 30
0.0
 10
46.455415
 20
60.229419
 30
0.0
 10
45.919972
 20
60.901255
 30
0.0
 10
51.317956
 20
55.865466
 30
0.0
  0
SPLINE
  5
165
100
AcDbEntity
  8
0
 62
7
100
AcDbSpline
 70
8
 71
3
 72
8
 73
4
 74
0
 40
0
 40
0
 40
0
 40
0
 40
1
 40
1
 40
1
 40
1
 10
51.317956
 20
55.865466
 30
0.0
 10
54.561830
 20
52.839252
 30
0.0
 10
60.436085
 20
48.583596
 30
0.0
 10
62.230381
 20
47.959865
 30
0.0
  0
SPLINE
  5
166
100
AcDbEntity
  8
0
 62
7
100
AcDbSpline
 70
8
 71
3
 72
8
 73
4
 74
0
 40
0
 40
0
 40
0
 40
0
 40
1
 40
1
 40
1
 40
1
 10
62.230381
 20
47.959865
 30
0.0
 10
63.363216
 20
47.566069
 30
0.0
 10
63.598594
 20
48.002000
 30
0.0
 10
63.575549
 20
50.451160
 30
0.0
  0
LWPOLYLINE
  5
167
100
AcDbEntity
  8
0
 62
7
100
AcDbPolyline
 90
1
 70
1
 10
112.304415
 20
25.235858
 30
0.0
  0
SPLINE
  5
168
100
AcDbEntity
  8
0
 62
7
100
AcDbSpline
 70
8
 71
3
 72
8
 73
4
 74
0
 40
0
 40
0
 40
0
 40
0
 40
1
 40
1
 40
1
 40
1
 10
61.334563
 20
53.457782
 30
0.0
 10
57.471839
 20
55.471581
 30
0.0
 10
55.691463
 20
57.444690
 30
0.0
 10
54.527947
 20
61.001233
 30
0.0
  0
SPLINE
  5
169
100
AcDbEntity
  8
0
 62
7
100
AcDbSpline
 70
8
 71
3
 72
8
 73
4
 74
0
 40
0
 40
0
 40
0
 40
0
 40
1
 40
1
 40
1
 40
1
 10
54.527947
 20
61.001233
 30
0.0
 10
54.288666
 20
61.732647
 30
0.0
 10
53.606726
 20
63.161397
 30
0.0
 10
53.012523
 20
64.176233
 30
0.0
  0
SPLINE
  5
16a
100
AcDbEntity
  8
0
 62
7
100
AcDbSpline
 70
8
 71
3
 72
8
 73
4
 74
0
 40
0
 40
0
 40
0
 40
0
 40
1
 40
1
 40
1
 40
1
 10
53.012523
 20
64.176233
 30
0.0
 10
51.680274
 20
66.451573
 30
0.0
 10
50.580536
 20
68.880352
 30
0.0
 10
48.677179
 20
73.750879
 30
0.0
  0
SPLINE
  5
16b
100
AcDbEntity
  8
0
 62
7
100
AcDbSpline
 70
8
 71
3
 72
8
 73
4
 74
0
 40
0
 40
0
 40
0
 40
0
 40
1
 40
1
 40
1
 40
1
 10
48.677179
 20
73.750879
 30
0.0
 10
47.064197
 20
77.878358
 30
0.0
 10
46.719223
 20
79.118264
 30
0.0
 10
47.183842
 20
79.118264
 30
0.0
  0
SPLINE
  5
16c
100
AcDbEntity
  8
0
 62
7
100
AcDbSpline
 70
8
 71
3
 72
8
 73
4
 74
0
 40
0
 40
0
 40
0
 40
0
 40
1
 40
1
 40
1
 40
1
 10
47.183842
 20
79.118264
 30
0.0
 10
47.347553
 20
79.118264
 30
0.0
 10
47.481498
 20
78.946346
 30
0.0
 10
47.481498
 20
78.736224
 30
0.0
  0
SPLINE
  5
16d
100
AcDbEntity
  8
0
 62
7
100
AcDbSpline
 70
8
 71
3
 72
8
 73
4
 74
0
 40
0
 40
0
 40
0
 40
0
 40
1
 40
1
 40
1
 40
1
 10
47.481498
 20
78.736224
 30
0.0
 10
47.481498
 20
78.281072
 30
0.0
 10
48.933605
 20
74.651587
 30
0.0
 10
50.080907
 20
72.239098
 30
0.0
  0
SPLINE
  5
16e
100
AcDbEntity
  8
0
 62
7
100
AcDbSpline
 70
8
 71
3
 72
8
 73
4
 74
0
 40
0
 40
0
 40
0
 40
0
 40
1
 40
1
 40
1
 40
1
 10
50.080907
 20
72.239098
 30
0.0
 10
50.530739
 20
71.293212
 30
0.0
 10
51.752365
 20
68.614306
 30
0.0
 10
52.795628
 20
66.285973
 30
0.0
  0
SPLINE
  5
16f
100
AcDbEntity
  8
0
 62
7
100
AcDbSpline
 70
8
 71
3
 72
8
 73
4
 74
0
 40
0
 40
0
 40
0
 40
0
 40
1
 40
1
 40
1
 40
1
 10
52.795628
 20
66.285973
 30
0.0
 10
56.281955
 20
58.505267
 30
0.0
 10
57.214394
 20
56.932856
 30
0.0
 10
58.994357
 20
55.832777
 30
0.0
  0
SPLINE
  5
170
100
AcDbEntity
  8
0
 62
7
100
AcDbSpline
 70
8
 71
3
 72
8
 73
4
 74
0
 40
0
 40
0
 40
0
 40
0
 40
1
 40
1
 40
1
 40
1
 10
58.994357
 20
55.832777
 30
0.0
 10
60.140477
 20
55.124437
 30
0.0
 10
61.253465
 20
55.087290
 30
0.0
 10
62.425130
 20
55.718273
 30
0.0
  0
SPLINE
  5
171
100
AcDbEntity
  8
0
 62
7
100
AcDbSpline
 70
8
 71
3
 72
8
 73
4
 74
0
 40
0
 40
0
 40
0
 40
0
 40
1
 40
1
 40
1
 40
1
 10
62.425130
 20
55.718273
 30
0.0
 10
63.209617
 20
56.140750
 30
0.0
 10
63.468001
 20
56.165499
 30
0.0
 10
64.227385
 20
55.890901
 30
0.0
  0
SPLINE
  5
172
100
AcDbEntity
  8
0
 62
7
100
AcDbSpline
 70
8
 71
3
 72
8
 73
4
 74
0
 40
0
 40
0
 40
0
 40
0
 40
1
 40
1
 40
1
 40
1
 10
64.227385
 20
55.890901
 30
0.0
 10
65.369514
 20
55.477902
 30
0.0
 10
66.579898
 20
55.482151
 30
0.0
 10
67.126345
 20
55.901087
 30
0.0
  0
SPLINE
  5
173
100
AcDbEntity
  8
0
 62
7
100
AcDbSpline
 70
8
 71
3
 72
8
 73
4
 74
0
 40
0
 40
0
 40
0
 40
0
 40
1
 40
1
 40
1
 40
1
 10
67.126345
 20
55.901087
 30
0.0
 10
67.761263
 20
56.387841
 30
0.0
 10
69.343971
 20
58.848265
 30
0.0
 10
69.549865
 20
59.668614
 30
0.0
  0
SPLINE
  5
174
100
AcDbEntity
  8
0
 62
7
100
AcDbSpline
 70
8
 71
3
 72
8
 73
4
 74
0
 40
0
 40
0
 40
0
 40
0
 40
1
 40
1
 40
1
 40
1
 10
69.549865
 20
59.668614
 30
0.0
 10
69.780240
 20
60.586501
 30
0.0
 10
70.854641
 20
61.655775
 30
0.0
 10
71.546556
 20
61.655775
 30
0.0
  0
SPLINE
  5
175
100
AcDbEntity
  8
0
 62
7
100
AcDbSpline
 70
8
 71
3
 72
8
 73
4
 74
0
 40
0
 40
0
 40
0
 40
0
 40
1
 40
1
 40
1
 40
1
 10
71.546556
 20
61.655775
 30
0.0
 10
72.257005
 20
61.655775
 30
0.0
 10
72.261188
 20
60.781348
 30
0.0
 10
71.558595
 20
59.142233
 30
0.0
  0
SPLINE
  5
176
100
AcDbEntity
  8
0
 62
7
100
AcDbSpline
 70
8
 71
3
 72
8
 73
4
 74
0
 40
0
 40
0
 40
0
 40
0
 40
1
 40
1
 40
1
 40
1
 10
71.558595
 20
59.142233
 30
0.0
 10
70.830813
 20
57.444389
 30
0.0
 10
70.878007
 20
57.210243
 30
0.0
 10
71.990035
 20
57.001624
 30
0.0
  0
SPLINE
  5
177
100
AcDbEntity
  8
0
 62
7
100
AcDbSpline
 70
8
 71
3
 72
8
 73
4
 74
0
 40
0
 40
0
 40
0
 40
0
 40
1
 40
1
 40
1
 40
1
 10
71.990035
 20
57.001624
 30
0.0
 10
73.964604
 20
56.631194
 30
0.0
 10
76.691511
 20
58.808919
 30
0.0
 10
76.691511
 20
60.756255
 30
0.0
  0
SPLINE
  5
178
100
AcDbEntity
  8
0
 62
7
100
AcDbSpline
 70
8
 71
3
 72
8
 73
4
 74
0
 40
0
 40
0
 40
0
 40
0
 40
1
 40
1
 40
1
 40
1
 10
76.691511
 20
60.756255
 30
0.0
 10
76.691511
 20
61.249139
 30
0.0
 10
76.446306
 20
61.980588
 30
0.0
 10
76.146610
 20
62.381696
 30
0.0
  0
SPLINE
  5
179
100
AcDbEntity
  8
0
 62
7
100
AcDbSpline
 70
8
 71
3
 72
8
 73
4
 74
0
 40
0
 40
0
 40
0
 40
0
 40
1
 40
1
 40
1
 40
1
 10
76.146610
 20
62.381696
 30
0.0
 10
75.639512
 20
63.060384
 30
0.0
 10
75.466035
 20
63.111795
 30
0.0
 10
73.646297
 20
63.122678
 30
0.0
  0
SPLINE
  5
17a
100
AcDbEntity
  8
0
 62
7
100
AcDbSpline
 70
8
 71
3
 72
8
 73
4
 74
0
 40
0
 40
0
 40
0
 40
0
 40
1
 40
1
 40
1
 40
1
 10
73.646297
 20
63.122678
 30
0.0
 10
72.077813
 20
63.132044
 30
0.0
 10
71.397884
 20
63.276030
 30
0.0
 10
70.210148
 20
63.850282
 30
0.0
  0
SPLINE
  5
17b
100
AcDbEntity
  8
0
 62
7
100
AcDbSpline
 70
8
 71
3
 72
8
 73
4
 74
0
 40
0
 40
0
 40
0
 40
0
 40
1
 40
1
 40
1
 40
1
 10
70.210148
 20
63.850282
 30
0.0
 10
68.521974
 20
64.666482
 30
0.0
 10
68.165715
 20
64.691728
 30
0.0
 10
64.587411
 20
64.248715
 30
0.0
  0
LWPOLYLINE
  5
17c
100
AcDbEntity
  8
0
 62
7
100
AcDbPolyline
 90
3
 70
0
 10
63.575549
 20
50.451160
 30
0.0
 10
63.558166
 20
52.298521
 30
0.0
 10
61.334563
 20
53.457782
 30
0.0
  0
SPLINE
  5
17d
100
AcDbEntity
  8
0
 62
7
100
AcDbSpline
 70
8
 71
3
 72
8
 73
4
 74
0
 40
0
 40
0
 40
0
 40
0
 40
1
 40
1
 40
1
 40
1
 10
60.552515
 20
65.413520
 30
0.0
 10
58.946127
 20
67.085123
 30
0.0
 10
58.610542
 20
68.270348
 30
0.0
 10
59.743615
 20
68.270348
 30
0.0
  0
SPLINE
  5
17e
100
AcDbEntity
  8
0
 62
7
100
AcDbSpline
 70
8
 71
3
 72
8
 73
4
 74
0
 40
0
 40
0
 40
0
 40
0
 40
1
 40
1
 40
1
 40
1
 10
59.743615
 20
68.270348
 30
0.0
 10
60.084864
 20
68.270348
 30
0.0
 10
60.579566
 20
68.032223
 30
0.0
 10
60.842956
 20
67.741181
 30
0.0
  0
SPLINE
  5
17f
100
AcDbEntity
  8
0
 62
7
100
AcDbSpline
 70
8
 71
3
 72
8
 73
4
 74
0
 40
0
 40
0
 40
0
 40
0
 40
1
 40
1
 40
1
 40
1
 10
60.842956
 20
67.741181
 30
0.0
 10
61.106346
 20
67.450139
 30
0.0
 10
61.637823
 20
67.212014
 30
0.0
 10
62.024019
 20
67.212014
 30
0.0
  0
SPLINE
  5
180
100
AcDbEntity
  8
0
 62
7
100
AcDbSpline
 70
8
 71
3
 72
8
 73
4
 74
0
 40
0
 40
0
 40
0
 40
0
 40
1
 40
1
 40
1
 40
1
 10
62.024019
 20
67.212014
 30
0.0
 10
62.410213
 20
67.212014
 30
0.0
 10
62.957308
 20
67.037207
 30
0.0
 10
63.239782
 20
66.823553
 30
0.0
  0
SPLINE
  5
181
100
AcDbEntity
  8
0
 62
7
100
AcDbSpline
 70
8
 71
3
 72
8
 73
4
 74
0
 40
0
 40
0
 40
0
 40
0
 40
1
 40
1
 40
1
 40
1
 10
63.239782
 20
66.823553
 30
0.0
 10
63.522257
 20
66.609902
 30
0.0
 10
64.042017
 20
66.431308
 30
0.0
 10
64.394805
 20
66.426678
 30
0.0
  0
LWPOLYLINE
  5
182
100
AcDbEntity
  8
0
 62
7
100
AcDbPolyline
 90
3
 70
0
 10
64.587411
 20
64.248715
 30
0.0
 10
61.981853
 20
63.926133
 30
0.0
 10
60.552515
 20
65.413520
 30
0.0
  0
SPLINE
  5
183
100
AcDbEntity
  8
0
 62
7
100
AcDbSpline
 70
8
 71
3
 72
8
 73
4
 74
0
 40
0
 40
0
 40
0
 40
0
 40
1
 40
1
 40
1
 40
1
 10
64.460951
 20
67.030629
 30
0.0
 10
63.878148
 20
67.650995
 30
0.0
 10
63.701705
 20
68.270348
 30
0.0
 10
64.107777
 20
68.270348
 30
0.0
  0
SPLINE
  5
184
100
AcDbEntity
  8
0
 62
7
100
AcDbSpline
 70
8
 71
3
 72
8
 73
4
 74
0
 40
0
 40
0
 40
0
 40
0
 40
1
 40
1
 40
1
 40
1
 10
64.107777
 20
68.270348
 30
0.0
 10
64.229940
 20
68.270348
 30
0.0
 10
64.465512
 20
68.568004
 30
0.0
 10
64.631274
 20
68.931806
 30
0.0
  0
SPLINE
  5
185
100
AcDbEntity
  8
0
 62
7
100
AcDbSpline
 70
8
 71
3
 72
8
 73
4
 74
0
 40
0
 40
0
 40
0
 40
0
 40
1
 40
1
 40
1
 40
1
 10
64.631274
 20
68.931806
 30
0.0
 10
64.810539
 20
69.325252
 30
0.0
 10
65.153133
 20
69.593264
 30
0.0
 10
65.476800
 20
69.593264
 30
0.0
  0
SPLINE
  5
186
100
AcDbEntity
  8
0
 62
7
100
AcDbSpline
 70
8
 71
3
 72
8
 73
4
 74
0
 40
0
 40
0
 40
0
 40
0
 40
1
 40
1
 40
1
 40
1
 10
65.476800
 20
69.593264
 30
0.0
 10
65.943200
 20
69.593264
 30
0.0
 10
65.979516
 20
69.670681
 30
0.0
 10
65.730969
 20
70.135096
 30
0.0
  0
SPLINE
  5
187
100
AcDbEntity
  8
0
 62
7
100
AcDbSpline
 70
8
 71
3
 72
8
 73
4
 74
0
 40
0
 40
0
 40
0
 40
0
 40
1
 40
1
 40
1
 40
1
 10
65.730969
 20
70.135096
 30
0.0
 10
65.571481
 20
70.433102
 30
0.0
 10
65.180340
 20
70.779071
 30
0.0
 10
64.861765
 20
70.903915
 30
0.0
  0
SPLINE
  5
188
100
AcDbEntity
  8
0
 62
7
100
AcDbSpline
 70
8
 71
3
 72
8
 73
4
 74
0
 40
0
 40
0
 40
0
 40
0
 40
1
 40
1
 40
1
 40
1
 10
64.861765
 20
70.903915
 30
0.0
 10
64.543191
 20
71.028758
 30
0.0
 10
63.605360
 20
71.648137
 30
0.0
 10
62.777693
 20
72.280314
 30
0.0
  0
SPLINE
  5
189
100
AcDbEntity
  8
0
 62
7
100
AcDbSpline
 70
8
 71
3
 72
8
 73
4
 74
0
 40
0
 40
0
 40
0
 40
0
 40
1
 40
1
 40
1
 40
1
 10
62.777693
 20
72.280314
 30
0.0
 10
61.950029
 20
72.912489
 30
0.0
 10
60.800292
 20
73.714520
 30
0.0
 10
60.222723
 20
74.062606
 30
0.0
  0
SPLINE
  5
18a
100
AcDbEntity
  8
0
 62
7
100
AcDbSpline
 70
8
 71
3
 72
8
 73
4
 74
0
 40
0
 40
0
 40
0
 40
0
 40
1
 40
1
 40
1
 40
1
 10
60.222723
 20
74.062606
 30
0.0
 10
58.152996
 20
75.309976
 30
0.0
 10
56.423896
 20
77.403931
 30
0.0
 10
52.333771
 20
83.616181
 30
0.0
  0
SPLINE
  5
18b
100
AcDbEntity
  8
0
 62
7
100
AcDbSpline
 70
8
 71
3
 72
8
 73
4
 74
0
 40
0
 40
0
 40
0
 40
0
 40
1
 40
1
 40
1
 40
1
 10
52.333771
 20
83.616181
 30
0.0
 10
50.474883
 20
86.439539
 30
0.0
 10
48.505245
 20
90.601062
 30
0.0
 10
46.319117
 20
96.324158
 30
0.0
  0
SPLINE
  5
18c
100
AcDbEntity
  8
0
 62
7
100
AcDbSpline
 70
8
 71
3
 72
8
 73
4
 74
0
 40
0
 40
0
 40
0
 40
0
 40
1
 40
1
 40
1
 40
1
 10
46.319117
 20
96.324158
 30
0.0
 10
45.293256
 20
99.009774
 30
0.0
 10
43.827496
 20
102.414099
 30
0.0
 10
43.132833
 20
103.724514
 30
0.0
  0
SPLINE
  5
18d
100
AcDbEntity
  8
0
 62
7
100
AcDbSpline
 70
8
 71
3
 72
8
 73
4
 74
0
 40
0
 40
0
 40
0
 40
0
 40
1
 40
1
 40
1
 40
1
 10
43.132833
 20
103.724514
 30
0.0
 10
42.785694
 20
104.379358
 30
0.0
 10
42.217274
 20
105.450920
 30
0.0
 10
41.869678
 20
106.105764
 30
0.0
  0
SPLINE
  5
18e
100
AcDbEntity
  8
0
 62
7
100
AcDbSpline
 70
8
 71
3
 72
8
 73
4
 74
0
 40
0
 40
0
 40
0
 40
0
 40
1
 40
1
 40
1
 40
1
 10
41.869678
 20
106.105764
 30
0.0
 10
40.703770
 20
108.302235
 30
0.0
 10
39.759988
 20
109.809931
 30
0.0
 10
39.550956
 20
109.809931
 30
0.0
  0
SPLINE
  5
18f
100
AcDbEntity
  8
0
 62
7
100
AcDbSpline
 70
8
 71
3
 72
8
 73
4
 74
0
 40
0
 40
0
 40
0
 40
0
 40
1
 40
1
 40
1
 40
1
 10
39.550956
 20
109.809931
 30
0.0
 10
39.436918
 20
109.809931
 30
0.0
 10
39.198053
 20
109.458519
 30
0.0
 10
39.020147
 20
109.029013
 30
0.0
  0
SPLINE
  5
190
100
AcDbEntity
  8
0
 62
7
100
AcDbSpline
 70
8
 71
3
 72
8
 73
4
 74
0
 40
0
 40
0
 40
0
 40
0
 40
1
 40
1
 40
1
 40
1
 10
39.020147
 20
109.029013
 30
0.0
 10
38.750317
 20
108.377585
 30
0.0
 10
38.773436
 20
108.047110
 30
0.0
 10
39.159585
 20
107.036000
 30
0.0
  0
SPLINE
  5
191
100
AcDbEntity
  8
0
 62
7
100
AcDbSpline
 70
8
 71
3
 72
8
 73
4
 74
0
 40
0
 40
0
 40
0
 40
0
 40
1
 40
1
 40
1
 40
1
 10
39.159585
 20
107.036000
 30
0.0
 10
39.414183
 20
106.369345
 30
0.0
 10
39.723891
 20
105.761232
 30
0.0
 10
39.847827
 20
105.684635
 30
0.0
  0
SPLINE
  5
192
100
AcDbEntity
  8
0
 62
7
100
AcDbSpline
 70
8
 71
3
 72
8
 73
4
 74
0
 40
0
 40
0
 40
0
 40
0
 40
1
 40
1
 40
1
 40
1
 10
39.847827
 20
105.684635
 30
0.0
 10
39.971763
 20
105.608038
 30
0.0
 10
40.072720
 20
105.344034
 30
0.0
 10
40.072175
 20
105.097961
 30
0.0
  0
SPLINE
  5
193
100
AcDbEntity
  8
0
 62
7
100
AcDbSpline
 70
8
 71
3
 72
8
 73
4
 74
0
 40
0
 40
0
 40
0
 40
0
 40
1
 40
1
 40
1
 40
1
 10
40.072175
 20
105.097961
 30
0.0
 10
40.071646
 20
104.822535
 30
0.0
 10
39.860172
 20
104.996684
 30
0.0
 10
39.522233
 20
105.551010
 30
0.0
  0
SPLINE
  5
194
100
AcDbEntity
  8
0
 62
7
100
AcDbSpline
 70
8
 71
3
 72
8
 73
4
 74
0
 40
0
 40
0
 40
0
 40
0
 40
1
 40
1
 40
1
 40
1
 10
39.522233
 20
105.551010
 30
0.0
 10
39.220309
 20
106.046259
 30
0.0
 10
38.733188
 20
106.645879
 30
0.0
 10
38.439744
 20
106.883494
 30
0.0
  0
SPLINE
  5
195
100
AcDbEntity
  8
0
 62
7
100
AcDbSpline
 70
8
 71
3
 72
8
 73
4
 74
0
 40
0
 40
0
 40
0
 40
0
 40
1
 40
1
 40
1
 40
1
 10
38.439744
 20
106.883494
 30
0.0
 10
38.138891
 20
107.127111
 30
0.0
 10
37.766273
 20
107.936863
 30
0.0
 10
37.585335
 20
108.740242
 30
0.0
  0
SPLINE
  5
196
100
AcDbEntity
  8
0
 62
7
100
AcDbSpline
 70
8
 71
3
 72
8
 73
4
 74
0
 40
0
 40
0
 40
0
 40
0
 40
1
 40
1
 40
1
 40
1
 10
37.585335
 20
108.740242
 30
0.0
 10
37.275193
 20
110.117313
 30
0.0
 10
37.203036
 20
110.202252
 30
0.0
 10
35.427666
 20
111.280062
 30
0.0
  0
SPLINE
  5
197
100
AcDbEntity
  8
0
 62
7
100
AcDbSpline
 70
8
 71
3
 72
8
 73
4
 74
0
 40
0
 40
0
 40
0
 40
0
 40
1
 40
1
 40
1
 40
1
 10
35.427666
 20
111.280062
 30
0.0
 10
33.354851
 20
112.538449
 30
0.0
 10
32.714438
 20
113.413897
 30
0.0
 10
32.491847
 20
115.293349
 30
0.0
  0
SPLINE
  5
198
100
AcDbEntity
  8
0
 62
7
100
AcDbSpline
 70
8
 71
3
 72
8
 73
4
 74
0
 40
0
 40
0
 40
0
 40
0
 40
1
 40
1
 40
1
 40
1
 10
32.491847
 20
115.293349
 30
0.0
 10
32.312520
 20
116.807472
 30
0.0
 10
32.865803
 20
118.164917
 30
0.0
 10
33.808337
 20
118.523266
 30
0.0
  0
SPLINE
  5
199
100
AcDbEntity
  8
0
 62
7
100
AcDbSpline
 70
8
 71
3
 72
8
 73
4
 74
0
 40
0
 40
0
 40
0
 40
0
 40
1
 40
1
 40
1
 40
1
 10
33.808337
 20
118.523266
 30
0.0
 10
34.471687
 20
118.775472
 30
0.0
 10
37.008454
 20
118.926023
 30
0.0
 10
39.464840
 20
118.858969
 30
0.0
  0
SPLINE
  5
19a
100
AcDbEntity
  8
0
 62
7
100
AcDbSpline
 70
8
 71
3
 72
8
 73
4
 74
0
 40
0
 40
0
 40
0
 40
0
 40
1
 40
1
 40
1
 40
1
 10
39.464840
 20
118.858969
 30
0.0
 10
40.367185
 20
118.834337
 30
0.0
 10
41.177885
 20
118.931351
 30
0.0
 10
41.266390
 20
119.074557
 30
0.0
  0
SPLINE
  5
19b
100
AcDbEntity
  8
0
 62
7
100
AcDbSpline
 70
8
 71
3
 72
8
 73
4
 74
0
 40
0
 40
0
 40
0
 40
0
 40
1
 40
1
 40
1
 40
1
 10
41.266390
 20
119.074557
 30
0.0
 10
41.354896
 20
119.217763
 30
0.0
 10
41.671965
 20
119.334931
 30
0.0
 10
41.970984
 20
119.334931
 30
0.0
  0
SPLINE
  5
19c
100
AcDbEntity
  8
0
 62
7
100
AcDbSpline
 70
8
 71
3
 72
8
 73
4
 74
0
 40
0
 40
0
 40
0
 40
0
 40
1
 40
1
 40
1
 40
1
 10
41.970984
 20
119.334931
 30
0.0
 10
42.793444
 20
119.334931
 30
0.0
 10
44.479572
 20
120.378847
 30
0.0
 10
44.802743
 20
121.088129
 30
0.0
  0
SPLINE
  5
19d
100
AcDbEntity
  8
0
 62
7
100
AcDbSpline
 70
8
 71
3
 72
8
 73
4
 74
0
 40
0
 40
0
 40
0
 40
0
 40
1
 40
1
 40
1
 40
1
 10
44.802743
 20
121.088129
 30
0.0
 10
45.013970
 20
121.551721
 30
0.0
 10
45.302792
 20
121.716181
 30
0.0
 10
45.905719
 20
121.716181
 30
0.0
  0
SPLINE
  5
19e
100
AcDbEntity
  8
0
 62
7
100
AcDbSpline
 70
8
 71
3
 72
8
 73
4
 74
0
 40
0
 40
0
 40
0
 40
0
 40
1
 40
1
 40
1
 40
1
 10
45.905719
 20
121.716181
 30
0.0
 10
46.354968
 20
121.716181
 30
0.0
 10
46.950440
 20
121.838151
 30
0.0
 10
47.228988
 20
121.987225
 30
0.0
  0
SPLINE
  5
19f
100
AcDbEntity
  8
0
 62
7
100
AcDbSpline
 70
8
 71
3
 72
8
 73
4
 74
0
 40
0
 40
0
 40
0
 40
0
 40
1
 40
1
 40
1
 40
1
 10
47.228988
 20
121.987225
 30
0.0
 10
47.685690
 20
122.231645
 30
0.0
 10
47.720345
 20
122.182819
 30
0.0
 10
47.581812
 20
121.490147
 30
0.0
  0
SPLINE
  5
1a0
100
AcDbEntity
  8
0
 62
7
100
AcDbSpline
 70
8
 71
3
 72
8
 73
4
 74
0
 40
0
 40
0
 40
0
 40
0
 40
1
 40
1
 40
1
 40
1
 10
47.581812
 20
121.490147
 30
0.0
 10
47.392344
 20
120.542807
 30
0.0
 10
47.708082
 20
120.315437
 30
0.0
 10
49.465873
 20
120.133393
 30
0.0
  0
SPLINE
  5
1a1
100
AcDbEntity
  8
0
 62
7
100
AcDbSpline
 70
8
 71
3
 72
8
 73
4
 74
0
 40
0
 40
0
 40
0
 40
0
 40
1
 40
1
 40
1
 40
1
 10
49.465873
 20
120.133393
 30
0.0
 10
50.642192
 20
120.011571
 30
0.0
 10
50.779905
 20
119.932117
 30
0.0
 10
50.708605
 20
119.416375
 30
0.0
  0
SPLINE
  5
1a2
100
AcDbEntity
  8
0
 62
7
100
AcDbSpline
 70
8
 71
3
 72
8
 73
4
 74
0
 40
0
 40
0
 40
0
 40
0
 40
1
 40
1
 40
1
 40
1
 10
50.708605
 20
119.416375
 30
0.0
 10
50.587667
 20
118.541588
 30
0.0
 10
51.522101
 20
118.095554
 30
0.0
 10
54.461974
 20
117.624767
 30
0.0
  0
SPLINE
  5
1a3
100
AcDbEntity
  8
0
 62
7
100
AcDbSpline
 70
8
 71
3
 72
8
 73
4
 74
0
 40
0
 40
0
 40
0
 40
0
 40
1
 40
1
 40
1
 40
1
 10
54.461974
 20
117.624767
 30
0.0
 10
55.900140
 20
117.394463
 30
0.0
 10
57.205372
 20
117.126583
 30
0.0
 10
57.362490
 20
117.029479
 30
0.0
  0
SPLINE
  5
1a4
100
AcDbEntity
  8
0
 62
7
100
AcDbSpline
 70
8
 71
3
 72
8
 73
4
 74
0
 40
0
 40
0
 40
0
 40
0
 40
1
 40
1
 40
1
 40
1
 10
57.362490
 20
117.029479
 30
0.0
 10
57.817512
 20
116.748258
 30
0.0
 10
54.135602
 20
115.872615
 30
0.0
 10
52.207758
 20
115.803561
 30
0.0
  0
SPLINE
  5
1a5
100
AcDbEntity
  8
0
 62
7
100
AcDbSpline
 70
8
 71
3
 72
8
 73
4
 74
0
 40
0
 40
0
 40
0
 40
0
 40
1
 40
1
 40
1
 40
1
 10
52.207758
 20
115.803561
 30
0.0
 10
50.836706
 20
115.754452
 30
0.0
 10
50.227648
 20
115.592476
 30
0.0
 10
49.429633
 20
115.064731
 30
0.0
  0
SPLINE
  5
1a6
100
AcDbEntity
  8
0
 62
7
100
AcDbSpline
 70
8
 71
3
 72
8
 73
4
 74
0
 40
0
 40
0
 40
0
 40
0
 40
1
 40
1
 40
1
 40
1
 10
49.429633
 20
115.064731
 30
0.0
 10
48.867481
 20
114.692964
 30
0.0
 10
47.668326
 20
114.043161
 30
0.0
 10
46.764842
 20
113.620717
 30
0.0
  0
SPLINE
  5
1a7
100
AcDbEntity
  8
0
 62
7
100
AcDbSpline
 70
8
 71
3
 72
8
 73
4
 74
0
 40
0
 40
0
 40
0
 40
0
 40
1
 40
1
 40
1
 40
1
 10
46.764842
 20
113.620717
 30
0.0
 10
45.071305
 20
112.828869
 30
0.0
 10
44.504935
 20
112.184789
 30
0.0
 10
44.504935
 20
111.050734
 30
0.0
  0
LWPOLYLINE
  5
1a8
100
AcDbEntity
  8
0
 62
7
100
AcDbPolyline
 90
3
 70
0
 10
64.394805
 20
66.426678
 30
0.0
 10
65.036240
 20
66.418264
 30
0.0
 10
64.460951
 20
67.030629
 30
0.0
  0
SPLINE
  5
1a9
100
AcDbEntity
  8
0
 62
7
100
AcDbSpline
 70
8
 71
3
 72
8
 73
4
 74
0
 40
0
 40
0
 40
0
 40
0
 40
1
 40
1
 40
1
 40
1
 10
43.611123
 20
110.923335
 30
0.0
 10
43.119524
 20
111.213384
 30
0.0
 10
42.651130
 20
111.557774
 30
0.0
 10
42.570247
 20
111.688647
 30
0.0
  0
SPLINE
  5
1aa
100
AcDbEntity
  8
0
 62
7
100
AcDbSpline
 70
8
 71
3
 72
8
 73
4
 74
0
 40
0
 40
0
 40
0
 40
0
 40
1
 40
1
 40
1
 40
1
 10
42.570247
 20
111.688647
 30
0.0
 10
42.489363
 20
111.819521
 30
0.0
 10
42.013492
 20
111.926598
 30
0.0
 10
41.512757
 20
111.926598
 30
0.0
  0
SPLINE
  5
1ab
100
AcDbEntity
  8
0
 62
7
100
AcDbSpline
 70
8
 71
3
 72
8
 73
4
 74
0
 40
0
 40
0
 40
0
 40
0
 40
1
 40
1
 40
1
 40
1
 10
41.512757
 20
111.926598
 30
0.0
 10
39.938214
 20
111.926598
 30
0.0
 10
40.335846
 20
111.123812
 30
0.0
 10
42.520560
 20
109.891925
 30
0.0
  0
SPLINE
  5
1ac
100
AcDbEntity
  8
0
 62
7
100
AcDbSpline
 70
8
 71
3
 72
8
 73
4
 74
0
 40
0
 40
0
 40
0
 40
0
 40
1
 40
1
 40
1
 40
1
 10
42.520560
 20
109.891925
 30
0.0
 10
48.702423
 20
106.406188
 30
0.0
 10
54.133234
 20
103.715500
 30
0.0
 10
55.989085
 20
103.218964
 30
0.0
  0
SPLINE
  5
1ad
100
AcDbEntity
  8
0
 62
7
100
AcDbSpline
 70
8
 71
3
 72
8
 73
4
 74
0
 40
0
 40
0
 40
0
 40
0
 40
1
 40
1
 40
1
 40
1
 10
55.989085
 20
103.218964
 30
0.0
 10
57.102997
 20
102.920935
 30
0.0
 10
58.948466
 20
102.269237
 30
0.0
 10
60.090127
 20
101.770746
 30
0.0
  0
SPLINE
  5
1ae
100
AcDbEntity
  8
0
 62
7
100
AcDbSpline
 70
8
 71
3
 72
8
 73
4
 74
0
 40
0
 40
0
 40
0
 40
0
 40
1
 40
1
 40
1
 40
1
 10
60.090127
 20
101.770746
 30
0.0
 10
63.086284
 20
100.462514
 30
0.0
 10
65.554961
 20
99.798979
 30
0.0
 10
68.118998
 20
99.612733
 30
0.0
  0
SPLINE
  5
1af
100
AcDbEntity
  8
0
 62
7
100
AcDbSpline
 70
8
 71
3
 72
8
 73
4
 74
0
 40
0
 40
0
 40
0
 40
0
 40
1
 40
1
 40
1
 40
1
 10
68.118998
 20
99.612733
 30
0.0
 10
71.089200
 20
99.396984
 30
0.0
 10
73.146081
 20
98.791146
 30
0.0
 10
73.146081
 20
98.132045
 30
0.0
  0
SPLINE
  5
1b0
100
AcDbEntity
  8
0
 62
7
100
AcDbSpline
 70
8
 71
3
 72
8
 73
4
 74
0
 40
0
 40
0
 40
0
 40
0
 40
1
 40
1
 40
1
 40
1
 10
73.146081
 20
98.132045
 30
0.0
 10
73.146081
 20
97.860924
 30
0.0
 10
73.027019
 20
97.639098
 30
0.0
 10
72.881498
 20
97.639098
 30
0.0
  0
SPLINE
  5
1b1
100
AcDbEntity
  8
0
 62
7
100
AcDbSpline
 70
8
 71
3
 72
8
 73
4
 74
0
 40
0
 40
0
 40
0
 40
0
 40
1
 40
1
 40
1
 40
1
 10
72.881498
 20
97.639098
 30
0.0
 10
72.735977
 20
97.639098
 30
0.0
 10
72.616915
 20
97.504456
 30
0.0
 10
72.616915
 20
97.339896
 30
0.0
  0
SPLINE
  5
1b2
100
AcDbEntity
  8
0
 62
7
100
AcDbSpline
 70
8
 71
3
 72
8
 73
4
 74
0
 40
0
 40
0
 40
0
 40
0
 40
1
 40
1
 40
1
 40
1
 10
72.616915
 20
97.339896
 30
0.0
 10
72.616915
 20
97.043962
 30
0.0
 10
73.517734
 20
97.120564
 30
0.0
 10
74.998165
 20
97.542390
 30
0.0
  0
SPLINE
  5
1b3
100
AcDbEntity
  8
0
 62
7
100
AcDbSpline
 70
8
 71
3
 72
8
 73
4
 74
0
 40
0
 40
0
 40
0
 40
0
 40
1
 40
1
 40
1
 40
1
 10
74.998165
 20
97.542390
 30
0.0
 10
75.587881
 20
97.710421
 30
0.0
 10
75.621020
 20
97.683783
 30
0.0
 10
75.303692
 20
97.296774
 30
0.0
  0
SPLINE
  5
1b4
100
AcDbEntity
  8
0
 62
7
100
AcDbSpline
 70
8
 71
3
 72
8
 73
4
 74
0
 40
0
 40
0
 40
0
 40
0
 40
1
 40
1
 40
1
 40
1
 10
75.303692
 20
97.296774
 30
0.0
 10
75.107930
 20
97.058025
 30
0.0
 10
74.800878
 20
96.293239
 30
0.0
 10
74.621356
 20
95.597247
 30
0.0
  0
LWPOLYLINE
  5
1b5
100
AcDbEntity
  8
0
 62
7
100
AcDbPolyline
 90
3
 70
0
 10
44.504935
 20
111.050734
 30
0.0
 10
44.504935
 20
110.395970
 30
0.0
 10
43.611123
 20
110.923335
 30
0.0
  0
SPLINE
  5
1b6
100
AcDbEntity
  8
0
 62
7
100
AcDbSpline
 70
8
 71
3
 72
8
 73
4
 74
0
 40
0
 40
0
 40
0
 40
0
 40
1
 40
1
 40
1
 40
1
 10
73.862594
 20
95.159640
 30
0.0
 10
73.365341
 20
96.111727
 30
0.0
 10
72.956013
 20
96.319650
 30
0.0
 10
71.603087
 20
96.307378
 30
0.0
  0
SPLINE
  5
1b7
100
AcDbEntity
  8
0
 62
7
100
AcDbSpline
 70
8
 71
3
 72
8
 73
4
 74
0
 40
0
 40
0
 40
0
 40
0
 40
1
 40
1
 40
1
 40
1
 10
71.603087
 20
96.307378
 30
0.0
 10
70.484608
 20
96.297245
 30
0.0
 10
69.701503
 20
95.733558
 30
0.0
 10
69.046696
 20
94.467302
 30
0.0
  0
LWPOLYLINE
  5
1b8
100
AcDbEntity
  8
0
 62
7
100
AcDbPolyline
 90
3
 70
0
 10
74.621356
 20
95.597247
 30
0.0
 10
74.294952
 20
94.331806
 30
0.0
 10
73.862594
 20
95.159640
 30
0.0
  0
SPLINE
  5
1b9
100
AcDbEntity
  8
0
 62
7
100
AcDbSpline
 70
8
 71
3
 72
8
 73
4
 74
0
 40
0
 40
0
 40
0
 40
0
 40
1
 40
1
 40
1
 40
1
 10
68.236150
 20
94.593418
 30
0.0
 10
67.772801
 20
95.941208
 30
0.0
 10
66.772742
 20
96.911493
 30
0.0
 10
65.846941
 20
96.911493
 30
0.0
  0
SPLINE
  5
1ba
100
AcDbEntity
  8
0
 62
7
100
AcDbSpline
 70
8
 71
3
 72
8
 73
4
 74
0
 40
0
 40
0
 40
0
 40
0
 40
1
 40
1
 40
1
 40
1
 10
65.846941
 20
96.911493
 30
0.0
 10
64.979762
 20
96.911493
 30
0.0
 10
64.150248
 20
96.024017
 30
0.0
 10
64.150248
 20
95.096245
 30
0.0
  0
SPLINE
  5
1bb
100
AcDbEntity
  8
0
 62
7
100
AcDbSpline
 70
8
 71
3
 72
8
 73
4
 74
0
 40
0
 40
0
 40
0
 40
0
 40
1
 40
1
 40
1
 40
1
 10
64.150248
 20
95.096245
 30
0.0
 10
64.150248
 20
94.748564
 30
0.0
 10
64.031185
 20
94.464098
 30
0.0
 10
63.885665
 20
94.464098
 30
0.0
  0
SPLINE
  5
1bc
100
AcDbEntity
  8
0
 62
7
100
AcDbSpline
 70
8
 71
3
 72
8
 73
4
 74
0
 40
0
 40
0
 40
0
 40
0
 40
1
 40
1
 40
1
 40
1
 10
63.885665
 20
94.464098
 30
0.0
 10
63.740144
 20
94.464098
 30
0.0
 10
63.621081
 20
94.645057
 30
0.0
 10
63.621081
 20
94.866230
 30
0.0
  0
SPLINE
  5
1bd
100
AcDbEntity
  8
0
 62
7
100
AcDbSpline
 70
8
 71
3
 72
8
 73
4
 74
0
 40
0
 40
0
 40
0
 40
0
 40
1
 40
1
 40
1
 40
1
 10
63.621081
 20
94.866230
 30
0.0
 10
63.621081
 20
95.350036
 30
0.0
 10
62.542177
 20
97.107208
 30
0.0
 10
61.936461
 20
97.609909
 30
0.0
  0
SPLINE
  5
1be
100
AcDbEntity
  8
0
 62
7
100
AcDbSpline
 70
8
 71
3
 72
8
 73
4
 74
0
 40
0
 40
0
 40
0
 40
0
 40
1
 40
1
 40
1
 40
1
 10
61.936461
 20
97.609909
 30
0.0
 10
61.321802
 20
98.120028
 30
0.0
 10
60.153415
 20
98.055904
 30
0.0
 10
59.739112
 20
97.489309
 30
0.0
  0
SPLINE
  5
1bf
100
AcDbEntity
  8
0
 62
7
100
AcDbSpline
 70
8
 71
3
 72
8
 73
4
 74
0
 40
0
 40
0
 40
0
 40
0
 40
1
 40
1
 40
1
 40
1
 10
59.739112
 20
97.489309
 30
0.0
 10
59.545860
 20
97.225025
 30
0.0
 10
59.379784
 20
96.644595
 30
0.0
 10
59.370047
 20
96.199465
 30
0.0
  0
SPLINE
  5
1c0
100
AcDbEntity
  8
0
 62
7
100
AcDbSpline
 70
8
 71
3
 72
8
 73
4
 74
0
 40
0
 40
0
 40
0
 40
0
 40
1
 40
1
 40
1
 40
1
 10
59.370047
 20
96.199465
 30
0.0
 10
59.353405
 20
95.438550
 30
0.0
 10
59.331487
 20
95.456894
 30
0.0
 10
59.003584
 20
96.506160
 30
0.0
  0
SPLINE
  5
1c1
100
AcDbEntity
  8
0
 62
7
100
AcDbSpline
 70
8
 71
3
 72
8
 73
4
 74
0
 40
0
 40
0
 40
0
 40
0
 40
1
 40
1
 40
1
 40
1
 10
59.003584
 20
96.506160
 30
0.0
 10
58.584161
 20
97.848290
 30
0.0
 10
57.354446
 20
99.226598
 30
0.0
 10
56.576436
 20
99.226598
 30
0.0
  0
SPLINE
  5
1c2
100
AcDbEntity
  8
0
 62
7
100
AcDbSpline
 70
8
 71
3
 72
8
 73
4
 74
0
 40
0
 40
0
 40
0
 40
0
 40
1
 40
1
 40
1
 40
1
 10
56.576436
 20
99.226598
 30
0.0
 10
56.192338
 20
99.226598
 30
0.0
 10
55.901442
 20
98.958810
 30
0.0
 10
55.664716
 20
98.387302
 30
0.0
  0
LWPOLYLINE
  5
1c3
100
AcDbEntity
  8
0
 62
7
100
AcDbPolyline
 90
3
 70
0
 10
69.046696
 20
94.467302
 30
0.0
 10
68.585868
 20
93.576156
 30
0.0
 10
68.236150
 20
94.593418
 30
0.0
  0
SPLINE
  5
1c4
100
AcDbEntity
  8
0
 62
7
100
AcDbSpline
 70
8
 71
3
 72
8
 73
4
 74
0
 40
0
 40
0
 40
0
 40
0
 40
1
 40
1
 40
1
 40
1
 10
55.069774
 20
98.321156
 30
0.0
 10
54.814126
 20
99.120418
 30
0.0
 10
53.899615
 20
100.284931
 30
0.0
 10
53.527590
 20
100.284931
 30
0.0
  0
SPLINE
  5
1c5
100
AcDbEntity
  8
0
 62
7
100
AcDbSpline
 70
8
 71
3
 72
8
 73
4
 74
0
 40
0
 40
0
 40
0
 40
0
 40
1
 40
1
 40
1
 40
1
 10
53.527590
 20
100.284931
 30
0.0
 10
53.411170
 20
100.284931
 30
0.0
 10
53.115078
 20
99.897978
 30
0.0
 10
52.869600
 20
99.425035
 30
0.0
  0
SPLINE
  5
1c6
100
AcDbEntity
  8
0
 62
7
100
AcDbSpline
 70
8
 71
3
 72
8
 73
4
 74
0
 40
0
 40
0
 40
0
 40
0
 40
1
 40
1
 40
1
 40
1
 10
52.869600
 20
99.425035
 30
0.0
 10
52.624125
 20
98.952092
 30
0.0
 10
52.389355
 20
98.684202
 30
0.0
 10
52.347892
 20
98.829723
 30
0.0
  0
SPLINE
  5
1c7
100
AcDbEntity
  8
0
 62
7
100
AcDbSpline
 70
8
 71
3
 72
8
 73
4
 74
0
 40
0
 40
0
 40
0
 40
0
 40
1
 40
1
 40
1
 40
1
 10
52.347892
 20
98.829723
 30
0.0
 10
52.306426
 20
98.975243
 30
0.0
 10
52.142438
 20
99.600322
 30
0.0
 10
51.983468
 20
100.218785
 30
0.0
  0
SPLINE
  5
1c8
100
AcDbEntity
  8
0
 62
7
100
AcDbSpline
 70
8
 71
3
 72
8
 73
4
 74
0
 40
0
 40
0
 40
0
 40
0
 40
1
 40
1
 40
1
 40
1
 10
51.983468
 20
100.218785
 30
0.0
 10
51.670469
 20
101.436506
 30
0.0
 10
51.079964
 20
101.705833
 30
0.0
 10
50.823262
 20
100.747952
 30
0.0
  0
SPLINE
  5
1c9
100
AcDbEntity
  8
0
 62
7
100
AcDbSpline
 70
8
 71
3
 72
8
 73
4
 74
0
 40
0
 40
0
 40
0
 40
0
 40
1
 40
1
 40
1
 40
1
 10
50.823262
 20
100.747952
 30
0.0
 10
50.735516
 20
100.420530
 30
0.0
 10
50.662544
 20
99.021545
 30
0.0
 10
50.661099
 20
97.639098
 30
0.0
  0
SPLINE
  5
1ca
100
AcDbEntity
  8
0
 62
7
100
AcDbSpline
 70
8
 71
3
 72
8
 73
4
 74
0
 40
0
 40
0
 40
0
 40
0
 40
1
 40
1
 40
1
 40
1
 10
50.661099
 20
97.639098
 30
0.0
 10
50.658109
 20
94.764863
 30
0.0
 10
51.121241
 20
93.612113
 30
0.0
 10
52.408865
 20
93.288937
 30
0.0
  0
SPLINE
  5
1cb
100
AcDbEntity
  8
0
 62
7
100
AcDbSpline
 70
8
 71
3
 72
8
 73
4
 74
0
 40
0
 40
0
 40
0
 40
0
 40
1
 40
1
 40
1
 40
1
 10
52.408865
 20
93.288937
 30
0.0
 10
52.818276
 20
93.186184
 30
0.0
 10
53.660381
 20
92.634652
 30
0.0
 10
54.280213
 20
92.063313
 30
0.0
  0
SPLINE
  5
1cc
100
AcDbEntity
  8
0
 62
7
100
AcDbSpline
 70
8
 71
3
 72
8
 73
4
 74
0
 40
0
 40
0
 40
0
 40
0
 40
1
 40
1
 40
1
 40
1
 10
54.280213
 20
92.063313
 30
0.0
 10
54.900042
 20
91.491972
 30
0.0
 10
55.573851
 20
91.024514
 30
0.0
 10
55.777564
 20
91.024514
 30
0.0
  0
SPLINE
  5
1cd
100
AcDbEntity
  8
0
 62
7
100
AcDbSpline
 70
8
 71
3
 72
8
 73
4
 74
0
 40
0
 40
0
 40
0
 40
0
 40
1
 40
1
 40
1
 40
1
 10
55.777564
 20
91.024514
 30
0.0
 10
55.981280
 20
91.024514
 30
0.0
 10
56.277783
 20
90.868082
 30
0.0
 10
56.436461
 20
90.676883
 30
0.0
  0
SPLINE
  5
1ce
100
AcDbEntity
  8
0
 62
7
100
AcDbSpline
 70
8
 71
3
 72
8
 73
4
 74
0
 40
0
 40
0
 40
0
 40
0
 40
1
 40
1
 40
1
 40
1
 10
56.436461
 20
90.676883
 30
0.0
 10
56.869438
 20
90.155181
 30
0.0
 10
54.808649
 20
90.314320
 30
0.0
 10
53.963898
 20
90.867820
 30
0.0
  0
SPLINE
  5
1cf
100
AcDbEntity
  8
0
 62
7
100
AcDbSpline
 70
8
 71
3
 72
8
 73
4
 74
0
 40
0
 40
0
 40
0
 40
0
 40
1
 40
1
 40
1
 40
1
 10
53.963898
 20
90.867820
 30
0.0
 10
53.454205
 20
91.201785
 30
0.0
 10
53.172799
 20
91.238393
 30
0.0
 10
52.770468
 20
91.023072
 30
0.0
  0
SPLINE
  5
1d0
100
AcDbEntity
  8
0
 62
7
100
AcDbSpline
 70
8
 71
3
 72
8
 73
4
 74
0
 40
0
 40
0
 40
0
 40
0
 40
1
 40
1
 40
1
 40
1
 10
52.770468
 20
91.023072
 30
0.0
 10
52.144591
 20
90.688112
 30
0.0
 10
52.103703
 20
90.252807
 30
0.0
 10
52.632459
 20
89.553730
 30
0.0
  0
SPLINE
  5
1d1
100
AcDbEntity
  8
0
 62
7
100
AcDbSpline
 70
8
 71
3
 72
8
 73
4
 74
0
 40
0
 40
0
 40
0
 40
0
 40
1
 40
1
 40
1
 40
1
 10
52.632459
 20
89.553730
 30
0.0
 10
52.846110
 20
89.271255
 30
0.0
 10
53.024704
 20
88.708894
 30
0.0
 10
53.029334
 20
88.304037
 30
0.0
  0
SPLINE
  5
1d2
100
AcDbEntity
  8
0
 62
7
100
AcDbSpline
 70
8
 71
3
 72
8
 73
4
 74
0
 40
0
 40
0
 40
0
 40
0
 40
1
 40
1
 40
1
 40
1
 10
53.029334
 20
88.304037
 30
0.0
 10
53.039918
 20
87.377484
 30
0.0
 10
53.713623
 20
85.732848
 30
0.0
 10
54.082580
 20
85.732848
 30
0.0
  0
SPLINE
  5
1d3
100
AcDbEntity
  8
0
 62
7
100
AcDbSpline
 70
8
 71
3
 72
8
 73
4
 74
0
 40
0
 40
0
 40
0
 40
0
 40
1
 40
1
 40
1
 40
1
 10
54.082580
 20
85.732848
 30
0.0
 10
54.246071
 20
85.732848
 30
0.0
 10
54.360665
 20
86.387022
 30
0.0
 10
54.360665
 20
87.320348
 30
0.0
  0
SPLINE
  5
1d4
100
AcDbEntity
  8
0
 62
7
100
AcDbSpline
 70
8
 71
3
 72
8
 73
4
 74
0
 40
0
 40
0
 40
0
 40
0
 40
1
 40
1
 40
1
 40
1
 10
54.360665
 20
87.320348
 30
0.0
 10
54.360665
 20
88.193473
 30
0.0
 10
54.475991
 20
88.907848
 30
0.0
 10
54.616945
 20
88.907848
 30
0.0
  0
SPLINE
  5
1d5
100
AcDbEntity
  8
0
 62
7
100
AcDbSpline
 70
8
 71
3
 72
8
 73
4
 74
0
 40
0
 40
0
 40
0
 40
0
 40
1
 40
1
 40
1
 40
1
 10
54.616945
 20
88.907848
 30
0.0
 10
54.757897
 20
88.907848
 30
0.0
 10
54.808916
 20
88.740268
 30
0.0
 10
54.730322
 20
88.535449
 30
0.0
  0
SPLINE
  5
1d6
100
AcDbEntity
  8
0
 62
7
100
AcDbSpline
 70
8
 71
3
 72
8
 73
4
 74
0
 40
0
 40
0
 40
0
 40
0
 40
1
 40
1
 40
1
 40
1
 10
54.730322
 20
88.535449
 30
0.0
 10
54.530302
 20
88.014207
 30
0.0
 10
56.128280
 20
82.957326
 30
0.0
 10
56.622670
 20
82.547018
 30
0.0
  0
SPLINE
  5
1d7
100
AcDbEntity
  8
0
 62
7
100
AcDbSpline
 70
8
 71
3
 72
8
 73
4
 74
0
 40
0
 40
0
 40
0
 40
0
 40
1
 40
1
 40
1
 40
1
 10
56.622670
 20
82.547018
 30
0.0
 10
57.079258
 20
82.168085
 30
0.0
 10
57.425759
 20
82.407895
 30
0.0
 10
57.594058
 20
83.219306
 30
0.0
  0
SPLINE
  5
1d8
100
AcDbEntity
  8
0
 62
7
100
AcDbSpline
 70
8
 71
3
 72
8
 73
4
 74
0
 40
0
 40
0
 40
0
 40
0
 40
1
 40
1
 40
1
 40
1
 10
57.594058
 20
83.219306
 30
0.0
 10
57.674100
 20
83.605211
 30
0.0
 10
57.908039
 20
83.300784
 30
0.0
 10
58.458169
 20
82.094827
 30
0.0
  0
SPLINE
  5
1d9
100
AcDbEntity
  8
0
 62
7
100
AcDbSpline
 70
8
 71
3
 72
8
 73
4
 74
0
 40
0
 40
0
 40
0
 40
0
 40
1
 40
1
 40
1
 40
1
 10
58.458169
 20
82.094827
 30
0.0
 10
58.873062
 20
81.185322
 30
0.0
 10
59.341245
 20
80.445142
 30
0.0
 10
59.498571
 20
80.449984
 30
0.0
  0
SPLINE
  5
1da
100
AcDbEntity
  8
0
 62
7
100
AcDbSpline
 70
8
 71
3
 72
8
 73
4
 74
0
 40
0
 40
0
 40
0
 40
0
 40
1
 40
1
 40
1
 40
1
 10
59.498571
 20
80.449984
 30
0.0
 10
59.655900
 20
80.454825
 30
0.0
 10
60.066301
 20
80.693435
 30
0.0
 10
60.410574
 20
80.980224
 30
0.0
  0
SPLINE
  5
1db
100
AcDbEntity
  8
0
 62
7
100
AcDbSpline
 70
8
 71
3
 72
8
 73
4
 74
0
 40
0
 40
0
 40
0
 40
0
 40
1
 40
1
 40
1
 40
1
 10
60.410574
 20
80.980224
 30
0.0
 10
60.857736
 20
81.352726
 30
0.0
 10
61.000468
 20
81.690289
 30
0.0
 10
60.910285
 20
82.162047
 30
0.0
  0
SPLINE
  5
1dc
100
AcDbEntity
  8
0
 62
7
100
AcDbSpline
 70
8
 71
3
 72
8
 73
4
 74
0
 40
0
 40
0
 40
0
 40
0
 40
1
 40
1
 40
1
 40
1
 10
60.910285
 20
82.162047
 30
0.0
 10
60.738372
 20
83.061358
 30
0.0
 10
61.137139
 20
82.994735
 30
0.0
 10
61.629912
 20
82.041820
 30
0.0
  0
SPLINE
  5
1dd
100
AcDbEntity
  8
0
 62
7
100
AcDbSpline
 70
8
 71
3
 72
8
 73
4
 74
0
 40
0
 40
0
 40
0
 40
0
 40
1
 40
1
 40
1
 40
1
 10
61.629912
 20
82.041820
 30
0.0
 10
62.168492
 20
81.000320
 30
0.0
 10
62.138706
 20
80.727815
 30
0.0
 10
61.504415
 20
80.893685
 30
0.0
  0
SPLINE
  5
1de
100
AcDbEntity
  8
0
 62
7
100
AcDbSpline
 70
8
 71
3
 72
8
 73
4
 74
0
 40
0
 40
0
 40
0
 40
0
 40
1
 40
1
 40
1
 40
1
 10
61.504415
 20
80.893685
 30
0.0
 10
60.721412
 20
81.098446
 30
0.0
 10
60.831140
 20
80.331638
 30
0.0
 10
61.700148
 20
79.525847
 30
0.0
  0
SPLINE
  5
1df
100
AcDbEntity
  8
0
 62
7
100
AcDbSpline
 70
8
 71
3
 72
8
 73
4
 74
0
 40
0
 40
0
 40
0
 40
0
 40
1
 40
1
 40
1
 40
1
 10
61.700148
 20
79.525847
 30
0.0
 10
62.307113
 20
78.963038
 30
0.0
 10
62.680374
 20
78.853681
 30
0.0
 10
63.994419
 20
78.853681
 30
0.0
  0
SPLINE
  5
1e0
100
AcDbEntity
  8
0
 62
7
100
AcDbSpline
 70
8
 71
3
 72
8
 73
4
 74
0
 40
0
 40
0
 40
0
 40
0
 40
1
 40
1
 40
1
 40
1
 10
63.994419
 20
78.853681
 30
0.0
 10
65.069196
 20
78.853681
 30
0.0
 10
65.712919
 20
78.718722
 30
0.0
 10
66.036981
 20
78.425447
 30
0.0
  0
SPLINE
  5
1e1
100
AcDbEntity
  8
0
 62
7
100
AcDbSpline
 70
8
 71
3
 72
8
 73
4
 74
0
 40
0
 40
0
 40
0
 40
0
 40
1
 40
1
 40
1
 40
1
 10
66.036981
 20
78.425447
 30
0.0
 10
66.623507
 20
77.894648
 30
0.0
 10
67.552975
 20
78.090609
 30
0.0
 10
68.560863
 20
78.957556
 30
0.0
  0
SPLINE
  5
1e2
100
AcDbEntity
  8
0
 62
7
100
AcDbSpline
 70
8
 71
3
 72
8
 73
4
 74
0
 40
0
 40
0
 40
0
 40
0
 40
1
 40
1
 40
1
 40
1
 10
68.560863
 20
78.957556
 30
0.0
 10
69.190920
 20
79.499510
 30
0.0
 10
69.243234
 20
79.646095
 30
0.0
 10
68.937899
 20
80.014001
 30
0.0
  0
SPLINE
  5
1e3
100
AcDbEntity
  8
0
 62
7
100
AcDbSpline
 70
8
 71
3
 72
8
 73
4
 74
0
 40
0
 40
0
 40
0
 40
0
 40
1
 40
1
 40
1
 40
1
 10
68.937899
 20
80.014001
 30
0.0
 10
68.742909
 20
80.248951
 30
0.0
 10
68.419356
 20
80.441181
 30
0.0
 10
68.218894
 20
80.441181
 30
0.0
  0
SPLINE
  5
1e4
100
AcDbEntity
  8
0
 62
7
100
AcDbSpline
 70
8
 71
3
 72
8
 73
4
 74
0
 40
0
 40
0
 40
0
 40
0
 40
1
 40
1
 40
1
 40
1
 10
68.218894
 20
80.441181
 30
0.0
 10
67.766287
 20
80.441181
 30
0.0
 10
67.767449
 20
80.701322
 30
0.0
 10
68.222730
 20
81.301077
 30
0.0
  0
SPLINE
  5
1e5
100
AcDbEntity
  8
0
 62
7
100
AcDbSpline
 70
8
 71
3
 72
8
 73
4
 74
0
 40
0
 40
0
 40
0
 40
0
 40
1
 40
1
 40
1
 40
1
 10
68.222730
 20
81.301077
 30
0.0
 10
68.720864
 20
81.957286
 30
0.0
 10
68.888390
 20
81.887023
 30
0.0
 10
69.326678
 20
80.838056
 30
0.0
  0
SPLINE
  5
1e6
100
AcDbEntity
  8
0
 62
7
100
AcDbSpline
 70
8
 71
3
 72
8
 73
4
 74
0
 40
0
 40
0
 40
0
 40
0
 40
1
 40
1
 40
1
 40
1
 10
69.326678
 20
80.838056
 30
0.0
 10
70.084283
 20
79.024845
 30
0.0
 10
71.370264
 20
79.930823
 30
0.0
 10
72.196709
 20
82.860004
 30
0.0
  0
SPLINE
  5
1e7
100
AcDbEntity
  8
0
 62
7
100
AcDbSpline
 70
8
 71
3
 72
8
 73
4
 74
0
 40
0
 40
0
 40
0
 40
0
 40
1
 40
1
 40
1
 40
1
 10
72.196709
 20
82.860004
 30
0.0
 10
72.734413
 20
84.765793
 30
0.0
 10
73.245909
 20
86.091459
 30
0.0
 10
72.947866
 20
84.806806
 30
0.0
  0
SPLINE
  5
1e8
100
AcDbEntity
  8
0
 62
7
100
AcDbSpline
 70
8
 71
3
 72
8
 73
4
 74
0
 40
0
 40
0
 40
0
 40
0
 40
1
 40
1
 40
1
 40
1
 10
72.947866
 20
84.806806
 30
0.0
 10
72.682460
 20
83.662830
 30
0.0
 10
72.777361
 20
81.659312
 30
0.0
 10
73.127989
 20
81.004156
 30
0.0
  0
SPLINE
  5
1e9
100
AcDbEntity
  8
0
 62
7
100
AcDbSpline
 70
8
 71
3
 72
8
 73
4
 74
0
 40
0
 40
0
 40
0
 40
0
 40
1
 40
1
 40
1
 40
1
 10
73.127989
 20
81.004156
 30
0.0
 10
73.311319
 20
80.661603
 30
0.0
 10
73.686903
 20
80.441181
 30
0.0
 10
74.087262
 20
80.441181
 30
0.0
  0
SPLINE
  5
1ea
100
AcDbEntity
  8
0
 62
7
100
AcDbSpline
 70
8
 71
3
 72
8
 73
4
 74
0
 40
0
 40
0
 40
0
 40
0
 40
1
 40
1
 40
1
 40
1
 10
74.087262
 20
80.441181
 30
0.0
 10
75.086588
 20
80.441181
 30
0.0
 10
76.276208
 20
82.439309
 30
0.0
 10
77.001460
 20
85.335973
 30
0.0
  0
SPLINE
  5
1eb
100
AcDbEntity
  8
0
 62
7
100
AcDbSpline
 70
8
 71
3
 72
8
 73
4
 74
0
 40
0
 40
0
 40
0
 40
0
 40
1
 40
1
 40
1
 40
1
 10
77.001460
 20
85.335973
 30
0.0
 10
77.190642
 20
86.091567
 30
0.0
 10
77.210124
 20
86.067093
 30
0.0
 10
77.406754
 20
84.826888
 30
0.0
  0
SPLINE
  5
1ec
100
AcDbEntity
  8
0
 62
7
100
AcDbSpline
 70
8
 71
3
 72
8
 73
4
 74
0
 40
0
 40
0
 40
0
 40
0
 40
1
 40
1
 40
1
 40
1
 10
77.406754
 20
84.826888
 30
0.0
 10
77.525385
 20
84.078643
 30
0.0
 10
77.507216
 20
83.325809
 30
0.0
 10
77.364074
 20
83.058344
 30
0.0
  0
SPLINE
  5
1ed
100
AcDbEntity
  8
0
 62
7
100
AcDbSpline
 70
8
 71
3
 72
8
 73
4
 74
0
 40
0
 40
0
 40
0
 40
0
 40
1
 40
1
 40
1
 40
1
 10
77.364074
 20
83.058344
 30
0.0
 10
76.973909
 20
82.329316
 30
0.0
 10
77.070447
 20
81.764098
 30
0.0
 10
77.585128
 20
81.764098
 30
0.0
  0
SPLINE
  5
1ee
100
AcDbEntity
  8
0
 62
7
100
AcDbSpline
 70
8
 71
3
 72
8
 73
4
 74
0
 40
0
 40
0
 40
0
 40
0
 40
1
 40
1
 40
1
 40
1
 10
77.585128
 20
81.764098
 30
0.0
 10
78.513104
 20
81.764098
 30
0.0
 10
79.183712
 20
82.574019
 30
0.0
 10
79.914279
 20
84.577111
 30
0.0
  0
LWPOLYLINE
  5
1ef
100
AcDbEntity
  8
0
 62
7
100
AcDbPolyline
 90
3
 70
0
 10
55.664716
 20
98.387302
 30
0.0
 10
55.317070
 20
97.548009
 30
0.0
 10
55.069774
 20
98.321156
 30
0.0
  0
SPLINE
  5
1f0
100
AcDbEntity
  8
0
 62
7
100
AcDbSpline
 70
8
 71
3
 72
8
 73
4
 74
0
 40
0
 40
0
 40
0
 40
0
 40
1
 40
1
 40
1
 40
1
 10
81.049320
 20
85.772837
 30
0.0
 10
81.794249
 20
84.199902
 30
0.0
 10
83.086731
 20
85.079644
 30
0.0
 10
83.405234
 20
87.376413
 30
0.0
  0
SPLINE
  5
1f1
100
AcDbEntity
  8
0
 62
7
100
AcDbSpline
 70
8
 71
3
 72
8
 73
4
 74
0
 40
0
 40
0
 40
0
 40
0
 40
1
 40
1
 40
1
 40
1
 10
83.405234
 20
87.376413
 30
0.0
 10
83.534739
 20
88.310281
 30
0.0
 10
83.590318
 20
88.397437
 30
0.0
 10
83.719437
 20
87.869130
 30
0.0
  0
SPLINE
  5
1f2
100
AcDbEntity
  8
0
 62
7
100
AcDbSpline
 70
8
 71
3
 72
8
 73
4
 74
0
 40
0
 40
0
 40
0
 40
0
 40
1
 40
1
 40
1
 40
1
 10
83.719437
 20
87.869130
 30
0.0
 10
83.951143
 20
86.921083
 30
0.0
 10
84.404150
 20
86.923420
 30
0.0
 10
84.798180
 20
87.874687
 30
0.0
  0
SPLINE
  5
1f3
100
AcDbEntity
  8
0
 62
7
100
AcDbSpline
 70
8
 71
3
 72
8
 73
4
 74
0
 40
0
 40
0
 40
0
 40
0
 40
1
 40
1
 40
1
 40
1
 10
84.798180
 20
87.874687
 30
0.0
 10
84.989292
 20
88.336067
 30
0.0
 10
85.429034
 20
89.050339
 30
0.0
 10
85.775390
 20
89.461959
 30
0.0
  0
SPLINE
  5
1f4
100
AcDbEntity
  8
0
 62
7
100
AcDbSpline
 70
8
 71
3
 72
8
 73
4
 74
0
 40
0
 40
0
 40
0
 40
0
 40
1
 40
1
 40
1
 40
1
 10
85.775390
 20
89.461959
 30
0.0
 10
86.121745
 20
89.873579
 30
0.0
 10
86.428170
 20
90.542369
 30
0.0
 10
86.456335
 20
90.948161
 30
0.0
  0
SPLINE
  5
1f5
100
AcDbEntity
  8
0
 62
7
100
AcDbSpline
 70
8
 71
3
 72
8
 73
4
 74
0
 40
0
 40
0
 40
0
 40
0
 40
1
 40
1
 40
1
 40
1
 10
86.456335
 20
90.948161
 30
0.0
 10
86.502536
 20
91.613826
 30
0.0
 10
86.429929
 20
91.680488
 30
0.0
 10
85.713792
 20
91.629939
 30
0.0
  0
SPLINE
  5
1f6
100
AcDbEntity
  8
0
 62
7
100
AcDbSpline
 70
8
 71
3
 72
8
 73
4
 74
0
 40
0
 40
0
 40
0
 40
0
 40
1
 40
1
 40
1
 40
1
 10
85.713792
 20
91.629939
 30
0.0
 10
85.222919
 20
91.595292
 30
0.0
 10
84.657285
 20
91.282237
 30
0.0
 10
84.231432
 20
90.809514
 30
0.0
  0
SPLINE
  5
1f7
100
AcDbEntity
  8
0
 62
7
100
AcDbSpline
 70
8
 71
3
 72
8
 73
4
 74
0
 40
0
 40
0
 40
0
 40
0
 40
1
 40
1
 40
1
 40
1
 10
84.231432
 20
90.809514
 30
0.0
 10
83.564312
 20
90.068964
 30
0.0
 10
83.532660
 20
90.061389
 30
0.0
 10
83.217023
 20
90.566804
 30
0.0
  0
SPLINE
  5
1f8
100
AcDbEntity
  8
0
 62
7
100
AcDbSpline
 70
8
 71
3
 72
8
 73
4
 74
0
 40
0
 40
0
 40
0
 40
0
 40
1
 40
1
 40
1
 40
1
 10
83.217023
 20
90.566804
 30
0.0
 10
82.904928
 20
91.066549
 30
0.0
 10
82.847625
 20
91.045930
 30
0.0
 10
81.855109
 20
90.076763
 30
0.0
  0
SPLINE
  5
1f9
100
AcDbEntity
  8
0
 62
7
100
AcDbSpline
 70
8
 71
3
 72
8
 73
4
 74
0
 40
0
 40
0
 40
0
 40
0
 40
1
 40
1
 40
1
 40
1
 10
81.855109
 20
90.076763
 30
0.0
 10
81.285249
 20
89.520310
 30
0.0
 10
80.819001
 20
88.910599
 30
0.0
 10
80.819001
 20
88.721851
 30
0.0
  0
SPLINE
  5
1fa
100
AcDbEntity
  8
0
 62
7
100
AcDbSpline
 70
8
 71
3
 72
8
 73
4
 74
0
 40
0
 40
0
 40
0
 40
0
 40
1
 40
1
 40
1
 40
1
 10
80.819001
 20
88.721851
 30
0.0
 10
80.819001
 20
88.227633
 30
0.0
 10
80.572261
 20
88.298012
 30
0.0
 10
80.051868
 20
88.940672
 30
0.0
  0
SPLINE
  5
1fb
100
AcDbEntity
  8
0
 62
7
100
AcDbSpline
 70
8
 71
3
 72
8
 73
4
 74
0
 40
0
 40
0
 40
0
 40
0
 40
1
 40
1
 40
1
 40
1
 10
80.051868
 20
88.940672
 30
0.0
 10
79.615985
 20
89.478964
 30
0.0
 10
79.561462
 20
89.484404
 30
0.0
 10
78.759394
 20
89.069638
 30
0.0
  0
SPLINE
  5
1fc
100
AcDbEntity
  8
0
 62
7
100
AcDbSpline
 70
8
 71
3
 72
8
 73
4
 74
0
 40
0
 40
0
 40
0
 40
0
 40
1
 40
1
 40
1
 40
1
 10
78.759394
 20
89.069638
 30
0.0
 10
78.298826
 20
88.831470
 30
0.0
 10
77.745153
 20
88.310680
 30
0.0
 10
77.529010
 20
87.912326
 30
0.0
  0
LWPOLYLINE
  5
1fd
100
AcDbEntity
  8
0
 62
7
100
AcDbPolyline
 90
3
 70
0
 10
79.914279
 20
84.577111
 30
0.0
 10
80.654467
 20
86.606576
 30
0.0
 10
81.049320
 20
85.772837
 30
0.0
  0
SPLINE
  5
1fe
100
AcDbEntity
  8
0
 62
7
100
AcDbSpline
 70
8
 71
3
 72
8
 73
4
 74
0
 40
0
 40
0
 40
0
 40
0
 40
1
 40
1
 40
1
 40
1
 10
77.125438
 20
87.900036
 30
0.0
 10
77.111283
 20
88.850608
 30
0.0
 10
76.763618
 20
89.013837
 30
0.0
 10
76.164099
 20
88.351373
 30
0.0
  0
SPLINE
  5
1ff
100
AcDbEntity
  8
0
 62
7
100
AcDbSpline
 70
8
 71
3
 72
8
 73
4
 74
0
 40
0
 40
0
 40
0
 40
0
 40
1
 40
1
 40
1
 40
1
 10
76.164099
 20
88.351373
 30
0.0
 10
75.809393
 20
87.959430
 30
0.0
 10
75.469544
 20
87.847837
 30
0.0
 10
74.948161
 20
87.952114
 30
0.0
  0
SPLINE
  5
200
100
AcDbEntity
  8
0
 62
7
100
AcDbSpline
 70
8
 71
3
 72
8
 73
4
 74
0
 40
0
 40
0
 40
0
 40
0
 40
1
 40
1
 40
1
 40
1
 10
74.948161
 20
87.952114
 30
0.0
 10
74.421579
 20
88.057429
 30
0.0
 10
74.013261
 20
87.919071
 30
0.0
 10
73.448680
 20
87.444006
 30
0.0
  0
SPLINE
  5
201
100
AcDbEntity
  8
0
 62
7
100
AcDbSpline
 70
8
 71
3
 72
8
 73
4
 74
0
 40
0
 40
0
 40
0
 40
0
 40
1
 40
1
 40
1
 40
1
 10
73.448680
 20
87.444006
 30
0.0
 10
72.519556
 20
86.662202
 30
0.0
 10
72.575634
 20
86.667737
 30
0.0
 10
71.861312
 20
87.287267
 30
0.0
  0
LWPOLYLINE
  5
202
100
AcDbEntity
  8
0
 62
7
100
AcDbPolyline
 90
3
 70
0
 10
77.529010
 20
87.912326
 30
0.0
 10
77.136022
 20
87.188048
 30
0.0
 10
77.125438
 20
87.900036
 30
0.0
  0
SPLINE
  5
203
100
AcDbEntity
  8
0
 62
7
100
AcDbSpline
 70
8
 71
3
 72
8
 73
4
 74
0
 40
0
 40
0
 40
0
 40
0
 40
1
 40
1
 40
1
 40
1
 10
72.066282
 20
88.105194
 30
0.0
 10
73.071416
 20
88.521532
 30
0.0
 10
73.532302
 20
89.067973
 30
0.0
 10
73.934669
 20
90.320405
 30
0.0
  0
LWPOLYLINE
  5
204
100
AcDbEntity
  8
0
 62
7
100
AcDbPolyline
 90
3
 70
0
 10
71.861312
 20
87.287267
 30
0.0
 10
71.289310
 20
87.783360
 30
0.0
 10
72.066282
 20
88.105194
 30
0.0
  0
SPLINE
  5
205
100
AcDbEntity
  8
0
 62
7
100
AcDbSpline
 70
8
 71
3
 72
8
 73
4
 74
0
 40
0
 40
0
 40
0
 40
0
 40
1
 40
1
 40
1
 40
1
 10
74.774705
 20
90.491342
 30
0.0
 10
75.177073
 20
89.829704
 30
0.0
 10
75.414696
 20
89.680441
 30
0.0
 10
75.870909
 20
89.802766
 30
0.0
  0
SPLINE
  5
206
100
AcDbEntity
  8
0
 62
7
100
AcDbSpline
 70
8
 71
3
 72
8
 73
4
 74
0
 40
0
 40
0
 40
0
 40
0
 40
1
 40
1
 40
1
 40
1
 10
75.870909
 20
89.802766
 30
0.0
 10
76.191271
 20
89.888666
 30
0.0
 10
76.631980
 20
89.962397
 30
0.0
 10
76.850261
 20
89.966612
 30
0.0
  0
SPLINE
  5
207
100
AcDbEntity
  8
0
 62
7
100
AcDbSpline
 70
8
 71
3
 72
8
 73
4
 74
0
 40
0
 40
0
 40
0
 40
0
 40
1
 40
1
 40
1
 40
1
 10
76.850261
 20
89.966612
 30
0.0
 10
77.535114
 20
89.979841
 30
0.0
 10
77.931410
 20
90.381582
 30
0.0
 10
78.311388
 20
91.447832
 30
0.0
  0
SPLINE
  5
208
100
AcDbEntity
  8
0
 62
7
100
AcDbSpline
 70
8
 71
3
 72
8
 73
4
 74
0
 40
0
 40
0
 40
0
 40
0
 40
1
 40
1
 40
1
 40
1
 10
78.311388
 20
91.447832
 30
0.0
 10
78.545452
 20
92.104633
 30
0.0
 10
78.683339
 20
92.277589
 30
0.0
 10
78.690732
 20
91.923642
 30
0.0
  0
SPLINE
  5
209
100
AcDbEntity
  8
0
 62
7
100
AcDbSpline
 70
8
 71
3
 72
8
 73
4
 74
0
 40
0
 40
0
 40
0
 40
0
 40
1
 40
1
 40
1
 40
1
 10
78.690732
 20
91.923642
 30
0.0
 10
78.700733
 20
91.445130
 30
0.0
 10
80.058136
 20
89.701590
 30
0.0
 10
80.420684
 20
89.701590
 30
0.0
  0
SPLINE
  5
20a
100
AcDbEntity
  8
0
 62
7
100
AcDbSpline
 70
8
 71
3
 72
8
 73
4
 74
0
 40
0
 40
0
 40
0
 40
0
 40
1
 40
1
 40
1
 40
1
 10
80.420684
 20
89.701590
 30
0.0
 10
80.698851
 20
89.701590
 30
0.0
 10
81.955508
 20
91.864974
 30
0.0
 10
82.147481
 20
92.674339
 30
0.0
  0
LWPOLYLINE
  5
20b
100
AcDbEntity
  8
0
 62
7
100
AcDbPolyline
 90
3
 70
0
 10
73.934669
 20
90.320405
 30
0.0
 10
74.260980
 20
91.336098
 30
0.0
 10
74.774705
 20
90.491342
 30
0.0
  0
SPLINE
  5
20c
100
AcDbEntity
  8
0
 62
7
100
AcDbSpline
 70
8
 71
3
 72
8
 73
4
 74
0
 40
0
 40
0
 40
0
 40
0
 40
1
 40
1
 40
1
 40
1
 10
82.379428
 20
92.678152
 30
0.0
 10
82.412306
 20
91.634305
 30
0.0
 10
82.962480
 20
91.551215
 30
0.0
 10
84.533719
 20
92.352799
 30
0.0
  0
SPLINE
  5
20d
100
AcDbEntity
  8
0
 62
7
100
AcDbSpline
 70
8
 71
3
 72
8
 73
4
 74
0
 40
0
 40
0
 40
0
 40
0
 40
1
 40
1
 40
1
 40
1
 10
84.533719
 20
92.352799
 30
0.0
 10
85.277772
 20
92.732389
 30
0.0
 10
85.582686
 20
93.058356
 30
0.0
 10
85.585562
 20
93.477278
 30
0.0
  0
SPLINE
  5
20e
100
AcDbEntity
  8
0
 62
7
100
AcDbSpline
 70
8
 71
3
 72
8
 73
4
 74
0
 40
0
 40
0
 40
0
 40
0
 40
1
 40
1
 40
1
 40
1
 10
85.585562
 20
93.477278
 30
0.0
 10
85.587679
 20
93.801745
 30
0.0
 10
85.705029
 20
94.245808
 30
0.0
 10
85.846094
 20
94.464090
 30
0.0
  0
SPLINE
  5
20f
100
AcDbEntity
  8
0
 62
7
100
AcDbSpline
 70
8
 71
3
 72
8
 73
4
 74
0
 40
0
 40
0
 40
0
 40
0
 40
1
 40
1
 40
1
 40
1
 10
85.846094
 20
94.464090
 30
0.0
 10
86.041254
 20
94.766077
 30
0.0
 10
86.103545
 20
94.659111
 30
0.0
 10
86.106627
 20
94.016684
 30
0.0
  0
SPLINE
  5
210
100
AcDbEntity
  8
0
 62
7
100
AcDbSpline
 70
8
 71
3
 72
8
 73
4
 74
0
 40
0
 40
0
 40
0
 40
0
 40
1
 40
1
 40
1
 40
1
 10
86.106627
 20
94.016684
 30
0.0
 10
86.108744
 20
93.552330
 30
0.0
 10
86.236125
 20
93.094874
 30
0.0
 10
86.389448
 20
93.000113
 30
0.0
  0
SPLINE
  5
211
100
AcDbEntity
  8
0
 62
7
100
AcDbSpline
 70
8
 71
3
 72
8
 73
4
 74
0
 40
0
 40
0
 40
0
 40
0
 40
1
 40
1
 40
1
 40
1
 10
86.389448
 20
93.000113
 30
0.0
 10
86.924269
 20
92.669577
 30
0.0
 10
88.498614
 20
94.051885
 30
0.0
 10
89.195119
 20
95.463553
 30
0.0
  0
SPLINE
  5
212
100
AcDbEntity
  8
0
 62
7
100
AcDbSpline
 70
8
 71
3
 72
8
 73
4
 74
0
 40
0
 40
0
 40
0
 40
0
 40
1
 40
1
 40
1
 40
1
 10
89.195119
 20
95.463553
 30
0.0
 10
89.780787
 20
96.650577
 30
0.0
 10
89.881562
 20
97.198537
 30
0.0
 10
89.867383
 20
99.119005
 30
0.0
  0
SPLINE
  5
213
100
AcDbEntity
  8
0
 62
7
100
AcDbSpline
 70
8
 71
3
 72
8
 73
4
 74
0
 40
0
 40
0
 40
0
 40
0
 40
1
 40
1
 40
1
 40
1
 10
89.867383
 20
99.119005
 30
0.0
 10
89.849100
 20
101.596373
 30
0.0
 10
89.605996
 20
102.141668
 30
0.0
 10
88.525678
 20
102.128593
 30
0.0
  0
SPLINE
  5
214
100
AcDbEntity
  8
0
 62
7
100
AcDbSpline
 70
8
 71
3
 72
8
 73
4
 74
0
 40
0
 40
0
 40
0
 40
0
 40
1
 40
1
 40
1
 40
1
 10
88.525678
 20
102.128593
 30
0.0
 10
87.524743
 20
102.116475
 30
0.0
 10
86.941425
 20
101.570314
 30
0.0
 10
86.371671
 20
100.111788
 30
0.0
  0
SPLINE
  5
215
100
AcDbEntity
  8
0
 62
7
100
AcDbSpline
 70
8
 71
3
 72
8
 73
4
 74
0
 40
0
 40
0
 40
0
 40
0
 40
1
 40
1
 40
1
 40
1
 10
86.371671
 20
100.111788
 30
0.0
 10
85.894368
 20
98.889931
 30
0.0
 10
85.870264
 20
98.869484
 30
0.0
 10
85.858469
 20
99.676463
 30
0.0
  0
SPLINE
  5
216
100
AcDbEntity
  8
0
 62
7
100
AcDbSpline
 70
8
 71
3
 72
8
 73
4
 74
0
 40
0
 40
0
 40
0
 40
0
 40
1
 40
1
 40
1
 40
1
 10
85.858469
 20
99.676463
 30
0.0
 10
85.840927
 20
100.876037
 30
0.0
 10
85.196505
 20
101.162974
 30
0.0
 10
83.949127
 20
100.526609
 30
0.0
  0
SPLINE
  5
217
100
AcDbEntity
  8
0
 62
7
100
AcDbSpline
 70
8
 71
3
 72
8
 73
4
 74
0
 40
0
 40
0
 40
0
 40
0
 40
1
 40
1
 40
1
 40
1
 10
83.949127
 20
100.526609
 30
0.0
 10
82.942131
 20
100.012878
 30
0.0
 10
82.866008
 20
99.844712
 30
0.0
 10
82.582165
 20
97.506798
 30
0.0
  0
SPLINE
  5
218
100
AcDbEntity
  8
0
 62
7
100
AcDbSpline
 70
8
 71
3
 72
8
 73
4
 74
0
 40
0
 40
0
 40
0
 40
0
 40
1
 40
1
 40
1
 40
1
 10
82.582165
 20
97.506798
 30
0.0
 10
82.514758
 20
96.951580
 30
0.0
 10
82.472668
 20
97.070847
 30
0.0
 10
82.442103
 20
97.903673
 30
0.0
  0
SPLINE
  5
219
100
AcDbEntity
  8
0
 62
7
100
AcDbSpline
 70
8
 71
3
 72
8
 73
4
 74
0
 40
0
 40
0
 40
0
 40
0
 40
1
 40
1
 40
1
 40
1
 10
82.442103
 20
97.903673
 30
0.0
 10
82.382093
 20
99.538851
 30
0.0
 10
82.123068
 20
99.902579
 30
0.0
 10
81.315679
 20
99.485426
 30
0.0
  0
SPLINE
  5
21a
100
AcDbEntity
  8
0
 62
7
100
AcDbSpline
 70
8
 71
3
 72
8
 73
4
 74
0
 40
0
 40
0
 40
0
 40
0
 40
1
 40
1
 40
1
 40
1
 10
81.315679
 20
99.485426
 30
0.0
 10
80.162540
 20
98.889637
 30
0.0
 10
79.517460
 20
98.104542
 30
0.0
 10
79.067189
 20
96.748902
 30
0.0
  0
LWPOLYLINE
  5
21b
100
AcDbEntity
  8
0
 62
7
100
AcDbPolyline
 90
3
 70
0
 10
82.147481
 20
92.674339
 30
0.0
 10
82.352346
 20
93.538048
 30
0.0
 10
82.379428
 20
92.678152
 30
0.0
  0
SPLINE
  5
21c
100
AcDbEntity
  8
0
 62
7
100
AcDbSpline
 70
8
 71
3
 72
8
 73
4
 74
0
 40
0
 40
0
 40
0
 40
0
 40
1
 40
1
 40
1
 40
1
 10
78.256791
 20
96.654612
 30
0.0
 10
78.035973
 20
97.411876
 30
0.0
 10
77.739454
 20
97.903681
 30
0.0
 10
77.503700
 20
97.903681
 30
0.0
  0
SPLINE
  5
21d
100
AcDbEntity
  8
0
 62
7
100
AcDbSpline
 70
8
 71
3
 72
8
 73
4
 74
0
 40
0
 40
0
 40
0
 40
0
 40
1
 40
1
 40
1
 40
1
 10
77.503700
 20
97.903681
 30
0.0
 10
76.359507
 20
97.903681
 30
0.0
 10
78.075346
 20
98.965922
 30
0.0
 10
80.289831
 20
99.628518
 30
0.0
  0
SPLINE
  5
21e
100
AcDbEntity
  8
0
 62
7
100
AcDbSpline
 70
8
 71
3
 72
8
 73
4
 74
0
 40
0
 40
0
 40
0
 40
0
 40
1
 40
1
 40
1
 40
1
 10
80.289831
 20
99.628518
 30
0.0
 10
80.653633
 20
99.737370
 30
0.0
 10
82.558633
 20
100.627966
 30
0.0
 10
84.523165
 20
101.607617
 30
0.0
  0
SPLINE
  5
21f
100
AcDbEntity
  8
0
 62
7
100
AcDbSpline
 70
8
 71
3
 72
8
 73
4
 74
0
 40
0
 40
0
 40
0
 40
0
 40
1
 40
1
 40
1
 40
1
 10
84.523165
 20
101.607617
 30
0.0
 10
86.487696
 20
102.587269
 30
0.0
 10
89.461454
 20
104.021938
 30
0.0
 10
91.131514
 20
104.795772
 30
0.0
  0
SPLINE
  5
220
100
AcDbEntity
  8
0
 62
7
100
AcDbSpline
 70
8
 71
3
 72
8
 73
4
 74
0
 40
0
 40
0
 40
0
 40
0
 40
1
 40
1
 40
1
 40
1
 10
91.131514
 20
104.795772
 30
0.0
 10
93.166126
 20
105.738523
 30
0.0
 10
94.764749
 20
106.703805
 30
0.0
 10
95.976657
 20
107.721366
 30
0.0
  0
SPLINE
  5
221
100
AcDbEntity
  8
0
 62
7
100
AcDbSpline
 70
8
 71
3
 72
8
 73
4
 74
0
 40
0
 40
0
 40
0
 40
0
 40
1
 40
1
 40
1
 40
1
 10
95.976657
 20
107.721366
 30
0.0
 10
97.694435
 20
109.163676
 30
0.0
 10
100.709436
 20
111.138152
 30
0.0
 10
101.852656
 20
111.569468
 30
0.0
  0
SPLINE
  5
222
100
AcDbEntity
  8
0
 62
7
100
AcDbSpline
 70
8
 71
3
 72
8
 73
4
 74
0
 40
0
 40
0
 40
0
 40
0
 40
1
 40
1
 40
1
 40
1
 10
101.852656
 20
111.569468
 30
0.0
 10
102.378423
 20
111.767832
 30
0.0
 10
102.378489
 20
111.764882
 30
0.0
 10
101.865700
 20
110.987824
 30
0.0
  0
SPLINE
  5
223
100
AcDbEntity
  8
0
 62
7
100
AcDbSpline
 70
8
 71
3
 72
8
 73
4
 74
0
 40
0
 40
0
 40
0
 40
0
 40
1
 40
1
 40
1
 40
1
 10
101.865700
 20
110.987824
 30
0.0
 10
100.012561
 20
108.179682
 30
0.0
 10
97.930928
 20
104.436029
 30
0.0
 10
97.671951
 20
103.445702
 30
0.0
  0
SPLINE
  5
224
100
AcDbEntity
  8
0
 62
7
100
AcDbSpline
 70
8
 71
3
 72
8
 73
4
 74
0
 40
0
 40
0
 40
0
 40
0
 40
1
 40
1
 40
1
 40
1
 10
97.671951
 20
103.445702
 30
0.0
 10
97.582183
 20
103.102436
 30
0.0
 10
97.453709
 20
102.876612
 30
0.0
 10
97.386450
 20
102.943869
 30
0.0
  0
SPLINE
  5
225
100
AcDbEntity
  8
0
 62
7
100
AcDbSpline
 70
8
 71
3
 72
8
 73
4
 74
0
 40
0
 40
0
 40
0
 40
0
 40
1
 40
1
 40
1
 40
1
 10
97.386450
 20
102.943869
 30
0.0
 10
97.319192
 20
103.011129
 30
0.0
 10
97.439678
 20
103.825895
 30
0.0
 10
97.654197
 20
104.754458
 30
0.0
  0
SPLINE
  5
226
100
AcDbEntity
  8
0
 62
7
100
AcDbSpline
 70
8
 71
3
 72
8
 73
4
 74
0
 40
0
 40
0
 40
0
 40
0
 40
1
 40
1
 40
1
 40
1
 10
97.654197
 20
104.754458
 30
0.0
 10
98.304371
 20
107.568796
 30
0.0
 10
97.978756
 20
107.853038
 30
0.0
 10
96.863937
 20
105.444306
 30
0.0
  0
SPLINE
  5
227
100
AcDbEntity
  8
0
 62
7
100
AcDbSpline
 70
8
 71
3
 72
8
 73
4
 74
0
 40
0
 40
0
 40
0
 40
0
 40
1
 40
1
 40
1
 40
1
 10
96.863937
 20
105.444306
 30
0.0
 10
96.325132
 20
104.280139
 30
0.0
 10
95.719085
 20
102.970452
 30
0.0
 10
95.517166
 20
102.533889
 30
0.0
  0
SPLINE
  5
228
100
AcDbEntity
  8
0
 62
7
100
AcDbSpline
 70
8
 71
3
 72
8
 73
4
 74
0
 40
0
 40
0
 40
0
 40
0
 40
1
 40
1
 40
1
 40
1
 10
95.517166
 20
102.533889
 30
0.0
 10
95.315246
 20
102.097327
 30
0.0
 10
94.593302
 20
100.549514
 30
0.0
 10
93.912846
 20
99.094306
 30
0.0
  0
SPLINE
  5
229
100
AcDbEntity
  8
0
 62
7
100
AcDbSpline
 70
8
 71
3
 72
8
 73
4
 74
0
 40
0
 40
0
 40
0
 40
0
 40
1
 40
1
 40
1
 40
1
 10
93.912846
 20
99.094306
 30
0.0
 10
93.232391
 20
97.639098
 30
0.0
 10
92.500302
 20
95.853160
 30
0.0
 10
92.285981
 20
95.125556
 30
0.0
  0
SPLINE
  5
22a
100
AcDbEntity
  8
0
 62
7
100
AcDbSpline
 70
8
 71
3
 72
8
 73
4
 74
0
 40
0
 40
0
 40
0
 40
0
 40
1
 40
1
 40
1
 40
1
 10
92.285981
 20
95.125556
 30
0.0
 10
91.568799
 20
92.690773
 30
0.0
 10
89.201215
 20
86.996048
 30
0.0
 10
88.614396
 20
86.294328
 30
0.0
  0
SPLINE
  5
22b
100
AcDbEntity
  8
0
 62
7
100
AcDbSpline
 70
8
 71
3
 72
8
 73
4
 74
0
 40
0
 40
0
 40
0
 40
0
 40
1
 40
1
 40
1
 40
1
 10
88.614396
 20
86.294328
 30
0.0
 10
88.295297
 20
85.912754
 30
0.0
 10
87.452592
 20
84.687034
 30
0.0
 10
86.741714
 20
83.570509
 30
0.0
  0
SPLINE
  5
22c
100
AcDbEntity
  8
0
 62
7
100
AcDbSpline
 70
8
 71
3
 72
8
 73
4
 74
0
 40
0
 40
0
 40
0
 40
0
 40
1
 40
1
 40
1
 40
1
 10
86.741714
 20
83.570509
 30
0.0
 10
85.567882
 20
81.726850
 30
0.0
 10
80.272313
 20
75.987709
 30
0.0
 10
79.060675
 20
75.246079
 30
0.0
  0
SPLINE
  5
22d
100
AcDbEntity
  8
0
 62
7
100
AcDbSpline
 70
8
 71
3
 72
8
 73
4
 74
0
 40
0
 40
0
 40
0
 40
0
 40
1
 40
1
 40
1
 40
1
 10
79.060675
 20
75.246079
 30
0.0
 10
78.601358
 20
74.964936
 30
0.0
 10
78.614185
 20
74.925275
 30
0.0
 10
79.261626
 20
74.624708
 30
0.0
  0
SPLINE
  5
22e
100
AcDbEntity
  8
0
 62
7
100
AcDbSpline
 70
8
 71
3
 72
8
 73
4
 74
0
 40
0
 40
0
 40
0
 40
0
 40
1
 40
1
 40
1
 40
1
 10
79.261626
 20
74.624708
 30
0.0
 10
79.863640
 20
74.345231
 30
0.0
 10
80.086375
 20
74.388297
 30
0.0
 10
80.981418
 20
74.957252
 30
0.0
  0
SPLINE
  5
22f
100
AcDbEntity
  8
0
 62
7
100
AcDbSpline
 70
8
 71
3
 72
8
 73
4
 74
0
 40
0
 40
0
 40
0
 40
0
 40
1
 40
1
 40
1
 40
1
 10
80.981418
 20
74.957252
 30
0.0
 10
81.546933
 20
75.316734
 30
0.0
 10
82.694235
 20
76.331651
 30
0.0
 10
83.530980
 20
77.212627
 30
0.0
  0
SPLINE
  5
230
100
AcDbEntity
  8
0
 62
7
100
AcDbSpline
 70
8
 71
3
 72
8
 73
4
 74
0
 40
0
 40
0
 40
0
 40
0
 40
1
 40
1
 40
1
 40
1
 10
83.530980
 20
77.212627
 30
0.0
 10
84.367725
 20
78.093599
 30
0.0
 10
85.052334
 20
78.705451
 30
0.0
 10
85.052334
 20
78.572291
 30
0.0
  0
SPLINE
  5
231
100
AcDbEntity
  8
0
 62
7
100
AcDbSpline
 70
8
 71
3
 72
8
 73
4
 74
0
 40
0
 40
0
 40
0
 40
0
 40
1
 40
1
 40
1
 40
1
 10
85.052334
 20
78.572291
 30
0.0
 10
85.052334
 20
78.439134
 30
0.0
 10
83.951006
 20
77.227581
 30
0.0
 10
82.604938
 20
75.879955
 30
0.0
  0
SPLINE
  5
232
100
AcDbEntity
  8
0
 62
7
100
AcDbSpline
 70
8
 71
3
 72
8
 73
4
 74
0
 40
0
 40
0
 40
0
 40
0
 40
1
 40
1
 40
1
 40
1
 10
82.604938
 20
75.879955
 30
0.0
 10
80.328230
 20
73.600606
 30
0.0
 10
79.991469
 20
73.365678
 30
0.0
 10
77.776292
 20
72.511415
 30
0.0
  0
LWPOLYLINE
  5
233
100
AcDbEntity
  8
0
 62
7
100
AcDbPolyline
 90
3
 70
0
 10
79.067189
 20
96.748902
 30
0.0
 10
78.620998
 20
95.405554
 30
0.0
 10
78.256791
 20
96.654612
 30
0.0
  0
SPLINE
  5
234
100
AcDbEntity
  8
0
 62
7
100
AcDbSpline
 70
8
 71
3
 72
8
 73
4
 74
0
 40
0
 40
0
 40
0
 40
0
 40
1
 40
1
 40
1
 40
1
 10
78.040876
 20
71.289516
 30
0.0
 10
81.735276
 20
70.865611
 30
0.0
 10
82.846262
 20
70.366504
 30
0.0
 10
83.523540
 20
68.826444
 30
0.0
  0
SPLINE
  5
235
100
AcDbEntity
  8
0
 62
7
100
AcDbSpline
 70
8
 71
3
 72
8
 73
4
 74
0
 40
0
 40
0
 40
0
 40
0
 40
1
 40
1
 40
1
 40
1
 10
83.523540
 20
68.826444
 30
0.0
 10
84.351704
 20
66.943282
 30
0.0
 10
84.429306
 20
64.327297
 30
0.0
 10
83.740477
 20
61.513477
 30
0.0
  0
SPLINE
  5
236
100
AcDbEntity
  8
0
 62
7
100
AcDbSpline
 70
8
 71
3
 72
8
 73
4
 74
0
 40
0
 40
0
 40
0
 40
0
 40
1
 40
1
 40
1
 40
1
 10
83.740477
 20
61.513477
 30
0.0
 10
82.774443
 20
57.567311
 30
0.0
 10
82.073284
 20
55.495169
 30
0.0
 10
81.304217
 20
54.313577
 30
0.0
  0
SPLINE
  5
237
100
AcDbEntity
  8
0
 62
7
100
AcDbSpline
 70
8
 71
3
 72
8
 73
4
 74
0
 40
0
 40
0
 40
0
 40
0
 40
1
 40
1
 40
1
 40
1
 10
81.304217
 20
54.313577
 30
0.0
 10
80.316655
 20
52.796294
 30
0.0
 10
80.831370
 20
52.894886
 30
0.0
 10
82.421714
 20
54.527633
 30
0.0
  0
SPLINE
  5
238
100
AcDbEntity
  8
0
 62
7
100
AcDbSpline
 70
8
 71
3
 72
8
 73
4
 74
0
 40
0
 40
0
 40
0
 40
0
 40
1
 40
1
 40
1
 40
1
 10
82.421714
 20
54.527633
 30
0.0
 10
84.174788
 20
56.327447
 30
0.0
 10
85.132857
 20
57.767326
 30
0.0
 10
86.414782
 20
60.528795
 30
0.0
  0
SPLINE
  5
239
100
AcDbEntity
  8
0
 62
7
100
AcDbSpline
 70
8
 71
3
 72
8
 73
4
 74
0
 40
0
 40
0
 40
0
 40
0
 40
1
 40
1
 40
1
 40
1
 10
86.414782
 20
60.528795
 30
0.0
 10
87.656445
 20
63.203534
 30
0.0
 10
87.570699
 20
63.004846
 30
0.0
 10
89.127711
 20
66.815139
 30
0.0
  0
SPLINE
  5
23a
100
AcDbEntity
  8
0
 62
7
100
AcDbSpline
 70
8
 71
3
 72
8
 73
4
 74
0
 40
0
 40
0
 40
0
 40
0
 40
1
 40
1
 40
1
 40
1
 10
89.127711
 20
66.815139
 30
0.0
 10
89.781822
 20
68.415868
 30
0.0
 10
90.750977
 20
70.737587
 30
0.0
 10
91.281390
 20
71.974514
 30
0.0
  0
SPLINE
  5
23b
100
AcDbEntity
  8
0
 62
7
100
AcDbSpline
 70
8
 71
3
 72
8
 73
4
 74
0
 40
0
 40
0
 40
0
 40
0
 40
1
 40
1
 40
1
 40
1
 10
91.281390
 20
71.974514
 30
0.0
 10
91.811803
 20
73.211441
 30
0.0
 10
92.523373
 20
74.878316
 30
0.0
 10
92.862657
 20
75.678681
 30
0.0
  0
SPLINE
  5
23c
100
AcDbEntity
  8
0
 62
7
100
AcDbSpline
 70
8
 71
3
 72
8
 73
4
 74
0
 40
0
 40
0
 40
0
 40
0
 40
1
 40
1
 40
1
 40
1
 10
92.862657
 20
75.678681
 30
0.0
 10
93.596047
 20
77.408733
 30
0.0
 10
94.781351
 20
79.673696
 30
0.0
 10
95.147283
 20
80.044306
 30
0.0
  0
SPLINE
  5
23d
100
AcDbEntity
  8
0
 62
7
100
AcDbSpline
 70
8
 71
3
 72
8
 73
4
 74
0
 40
0
 40
0
 40
0
 40
0
 40
1
 40
1
 40
1
 40
1
 10
95.147283
 20
80.044306
 30
0.0
 10
95.443021
 20
80.343822
 30
0.0
 10
95.329476
 20
79.734817
 30
0.0
 10
94.552175
 20
76.852428
 30
0.0
  0
SPLINE
  5
23e
100
AcDbEntity
  8
0
 62
7
100
AcDbSpline
 70
8
 71
3
 72
8
 73
4
 74
0
 40
0
 40
0
 40
0
 40
0
 40
1
 40
1
 40
1
 40
1
 10
94.552175
 20
76.852428
 30
0.0
 10
94.203324
 20
75.558827
 30
0.0
 10
94.048167
 20
74.105542
 30
0.0
 10
94.048167
 20
72.131661
 30
0.0
  0
SPLINE
  5
23f
100
AcDbEntity
  8
0
 62
7
100
AcDbSpline
 70
8
 71
3
 72
8
 73
4
 74
0
 40
0
 40
0
 40
0
 40
0
 40
1
 40
1
 40
1
 40
1
 10
94.048167
 20
72.131661
 30
0.0
 10
94.048167
 20
69.680484
 30
0.0
 10
93.973827
 20
69.185348
 30
0.0
 10
93.519001
 20
68.607128
 30
0.0
  0
SPLINE
  5
240
100
AcDbEntity
  8
0
 62
7
100
AcDbSpline
 70
8
 71
3
 72
8
 73
4
 74
0
 40
0
 40
0
 40
0
 40
0
 40
1
 40
1
 40
1
 40
1
 10
93.519001
 20
68.607128
 30
0.0
 10
92.923061
 20
67.849515
 30
0.0
 10
92.828438
 20
66.348671
 30
0.0
 10
93.275179
 20
64.739808
 30
0.0
  0
SPLINE
  5
241
100
AcDbEntity
  8
0
 62
7
100
AcDbSpline
 70
8
 71
3
 72
8
 73
4
 74
0
 40
0
 40
0
 40
0
 40
0
 40
1
 40
1
 40
1
 40
1
 10
93.275179
 20
64.739808
 30
0.0
 10
93.595216
 20
63.587249
 30
0.0
 10
93.457922
 20
63.274160
 30
0.0
 10
92.852722
 20
63.776431
 30
0.0
  0
SPLINE
  5
242
100
AcDbEntity
  8
0
 62
7
100
AcDbSpline
 70
8
 71
3
 72
8
 73
4
 74
0
 40
0
 40
0
 40
0
 40
0
 40
1
 40
1
 40
1
 40
1
 10
92.852722
 20
63.776431
 30
0.0
 10
92.608678
 20
63.978970
 30
0.0
 10
92.348902
 20
64.021674
 30
0.0
 10
92.220981
 20
63.880280
 30
0.0
  0
SPLINE
  5
243
100
AcDbEntity
  8
0
 62
7
100
AcDbSpline
 70
8
 71
3
 72
8
 73
4
 74
0
 40
0
 40
0
 40
0
 40
0
 40
1
 40
1
 40
1
 40
1
 10
92.220981
 20
63.880280
 30
0.0
 10
91.777608
 20
63.390214
 30
0.0
 10
91.402334
 20
61.798610
 30
0.0
 10
91.402334
 20
60.408264
 30
0.0
  0
SPLINE
  5
244
100
AcDbEntity
  8
0
 62
7
100
AcDbSpline
 70
8
 71
3
 72
8
 73
4
 74
0
 40
0
 40
0
 40
0
 40
0
 40
1
 40
1
 40
1
 40
1
 10
91.402334
 20
60.408264
 30
0.0
 10
91.402334
 20
58.826122
 30
0.0
 10
91.161738
 20
58.206730
 30
0.0
 10
90.088358
 20
57.025556
 30
0.0
  0
SPLINE
  5
245
100
AcDbEntity
  8
0
 62
7
100
AcDbSpline
 70
8
 71
3
 72
8
 73
4
 74
0
 40
0
 40
0
 40
0
 40
0
 40
1
 40
1
 40
1
 40
1
 10
90.088358
 20
57.025556
 30
0.0
 10
89.691636
 20
56.588993
 30
0.0
 10
89.021314
 20
55.756500
 30
0.0
 10
88.598751
 20
55.175571
 30
0.0
  0
LWPOLYLINE
  5
246
100
AcDbEntity
  8
0
 62
7
100
AcDbPolyline
 90
3
 70
0
 10
77.776292
 20
72.511415
 30
0.0
 10
75.395042
 20
71.593104
 30
0.0
 10
78.040876
 20
71.289516
 30
0.0
  0
SPLINE
  5
247
100
AcDbEntity
  8
0
 62
7
100
AcDbSpline
 70
8
 71
3
 72
8
 73
4
 74
0
 40
0
 40
0
 40
0
 40
0
 40
1
 40
1
 40
1
 40
1
 10
88.592589
 20
54.608981
 30
0.0
 10
90.647607
 20
55.929265
 30
0.0
 10
92.350188
 20
58.078465
 30
0.0
 10
95.432600
 20
63.243264
 30
0.0
  0
SPLINE
  5
248
100
AcDbEntity
  8
0
 62
7
100
AcDbSpline
 70
8
 71
3
 72
8
 73
4
 74
0
 40
0
 40
0
 40
0
 40
0
 40
1
 40
1
 40
1
 40
1
 10
95.432600
 20
63.243264
 30
0.0
 10
98.024791
 20
67.586670
 30
0.0
 10
98.286782
 20
68.707640
 30
0.0
 10
98.409906
 20
75.982169
 30
0.0
  0
SPLINE
  5
249
100
AcDbEntity
  8
0
 62
7
100
AcDbSpline
 70
8
 71
3
 72
8
 73
4
 74
0
 40
0
 40
0
 40
0
 40
0
 40
1
 40
1
 40
1
 40
1
 10
98.409906
 20
75.982169
 30
0.0
 10
98.453371
 20
78.550183
 30
0.0
 10
98.583218
 20
81.288620
 30
0.0
 10
98.698455
 20
82.067585
 30
0.0
  0
SPLINE
  5
24a
100
AcDbEntity
  8
0
 62
7
100
AcDbSpline
 70
8
 71
3
 72
8
 73
4
 74
0
 40
0
 40
0
 40
0
 40
0
 40
1
 40
1
 40
1
 40
1
 10
98.698455
 20
82.067585
 30
0.0
 10
98.889984
 20
83.362260
 30
0.0
 10
98.923832
 20
83.415725
 30
0.0
 10
99.092599
 20
82.690139
 30
0.0
  0
SPLINE
  5
24b
100
AcDbEntity
  8
0
 62
7
100
AcDbSpline
 70
8
 71
3
 72
8
 73
4
 74
0
 40
0
 40
0
 40
0
 40
0
 40
1
 40
1
 40
1
 40
1
 10
99.092599
 20
82.690139
 30
0.0
 10
99.194144
 20
82.253577
 30
0.0
 10
99.290058
 20
79.634202
 30
0.0
 10
99.305748
 20
76.869306
 30
0.0
  0
SPLINE
  5
24c
100
AcDbEntity
  8
0
 62
7
100
AcDbSpline
 70
8
 71
3
 72
8
 73
4
 74
0
 40
0
 40
0
 40
0
 40
0
 40
1
 40
1
 40
1
 40
1
 10
99.305748
 20
76.869306
 30
0.0
 10
99.330327
 20
72.538000
 30
0.0
 10
99.246875
 20
71.413727
 30
0.0
 10
98.702807
 20
68.746283
 30
0.0
  0
SPLINE
  5
24d
100
AcDbEntity
  8
0
 62
7
100
AcDbSpline
 70
8
 71
3
 72
8
 73
4
 74
0
 40
0
 40
0
 40
0
 40
0
 40
1
 40
1
 40
1
 40
1
 10
98.702807
 20
68.746283
 30
0.0
 10
98.318002
 20
66.859671
 30
0.0
 10
97.852807
 20
65.343442
 30
0.0
 10
97.511883
 20
64.864657
 30
0.0
  0
SPLINE
  5
24e
100
AcDbEntity
  8
0
 62
7
100
AcDbSpline
 70
8
 71
3
 72
8
 73
4
 74
0
 40
0
 40
0
 40
0
 40
0
 40
1
 40
1
 40
1
 40
1
 10
97.511883
 20
64.864657
 30
0.0
 10
97.204181
 20
64.432529
 30
0.0
 10
96.515015
 20
63.146794
 30
0.0
 10
95.980409
 20
62.007472
 30
0.0
  0
SPLINE
  5
24f
100
AcDbEntity
  8
0
 62
7
100
AcDbSpline
 70
8
 71
3
 72
8
 73
4
 74
0
 40
0
 40
0
 40
0
 40
0
 40
1
 40
1
 40
1
 40
1
 10
95.980409
 20
62.007472
 30
0.0
 10
94.230706
 20
58.278615
 30
0.0
 10
91.973019
 20
55.454219
 30
0.0
 10
89.309451
 20
53.662024
 30
0.0
  0
SPLINE
  5
250
100
AcDbEntity
  8
0
 62
7
100
AcDbSpline
 70
8
 71
3
 72
8
 73
4
 74
0
 40
0
 40
0
 40
0
 40
0
 40
1
 40
1
 40
1
 40
1
 10
89.309451
 20
53.662024
 30
0.0
 10
88.641523
 20
53.212608
 30
0.0
 10
87.399085
 20
52.249459
 30
0.0
 10
86.548473
 20
51.521693
 30
0.0
  0
SPLINE
  5
251
100
AcDbEntity
  8
0
 62
7
100
AcDbSpline
 70
8
 71
3
 72
8
 73
4
 74
0
 40
0
 40
0
 40
0
 40
0
 40
1
 40
1
 40
1
 40
1
 10
86.548473
 20
51.521693
 30
0.0
 10
85.697862
 20
50.793928
 30
0.0
 10
83.905654
 20
49.633492
 30
0.0
 10
82.565785
 20
48.942948
 30
0.0
  0
SPLINE
  5
252
100
AcDbEntity
  8
0
 62
7
100
AcDbSpline
 70
8
 71
3
 72
8
 73
4
 74
0
 40
0
 40
0
 40
0
 40
0
 40
1
 40
1
 40
1
 40
1
 10
82.565785
 20
48.942948
 30
0.0
 10
81.225917
 20
48.252401
 30
0.0
 10
79.553271
 20
47.321875
 30
0.0
 10
78.848791
 20
46.875107
 30
0.0
  0
SPLINE
  5
253
100
AcDbEntity
  8
0
 62
7
100
AcDbSpline
 70
8
 71
3
 72
8
 73
4
 74
0
 40
0
 40
0
 40
0
 40
0
 40
1
 40
1
 40
1
 40
1
 10
78.848791
 20
46.875107
 30
0.0
 10
76.875352
 20
45.623588
 30
0.0
 10
72.643727
 20
44.408095
 30
0.0
 10
70.103373
 20
44.363071
 30
0.0
  0
SPLINE
  5
254
100
AcDbEntity
  8
0
 62
7
100
AcDbSpline
 70
8
 71
3
 72
8
 73
4
 74
0
 40
0
 40
0
 40
0
 40
0
 40
1
 40
1
 40
1
 40
1
 10
70.103373
 20
44.363071
 30
0.0
 10
67.465390
 20
44.316317
 30
0.0
 10
67.370553
 20
43.987559
 30
0.0
 10
69.563366
 20
42.491107
 30
0.0
  0
SPLINE
  5
255
100
AcDbEntity
  8
0
 62
7
100
AcDbSpline
 70
8
 71
3
 72
8
 73
4
 74
0
 40
0
 40
0
 40
0
 40
0
 40
1
 40
1
 40
1
 40
1
 10
69.563366
 20
42.491107
 30
0.0
 10
71.587633
 20
41.109678
 30
0.0
 10
72.978661
 20
39.273443
 30
0.0
 10
73.388617
 20
37.441555
 30
0.0
  0
SPLINE
  5
256
100
AcDbEntity
  8
0
 62
7
100
AcDbSpline
 70
8
 71
3
 72
8
 73
4
 74
0
 40
0
 40
0
 40
0
 40
0
 40
1
 40
1
 40
1
 40
1
 10
73.388617
 20
37.441555
 30
0.0
 10
73.775282
 20
35.713760
 30
0.0
 10
73.471275
 20
34.972879
 30
0.0
 10
71.524323
 20
32.898165
 30
0.0
  0
SPLINE
  5
257
100
AcDbEntity
  8
0
 62
7
100
AcDbSpline
 70
8
 71
3
 72
8
 73
4
 74
0
 40
0
 40
0
 40
0
 40
0
 40
1
 40
1
 40
1
 40
1
 10
71.524323
 20
32.898165
 30
0.0
 10
70.284017
 20
31.576465
 30
0.0
 10
70.235665
 20
31.466512
 30
0.0
 10
70.235665
 20
29.967722
 30
0.0
  0
SPLINE
  5
258
100
AcDbEntity
  8
0
 62
7
100
AcDbSpline
 70
8
 71
3
 72
8
 73
4
 74
0
 40
0
 40
0
 40
0
 40
0
 40
1
 40
1
 40
1
 40
1
 10
70.235665
 20
29.967722
 30
0.0
 10
70.235665
 20
28.682080
 30
0.0
 10
70.128871
 20
28.310176
 30
0.0
 10
69.623300
 20
27.835217
 30
0.0
  0
SPLINE
  5
259
100
AcDbEntity
  8
0
 62
7
100
AcDbSpline
 70
8
 71
3
 72
8
 73
4
 74
0
 40
0
 40
0
 40
0
 40
0
 40
1
 40
1
 40
1
 40
1
 10
69.623300
 20
27.835217
 30
0.0
 10
68.958886
 20
27.211036
 30
0.0
 10
68.965940
 20
27.213073
 30
0.0
 10
68.383581
 20
27.476966
 30
0.0
  0
LWPOLYLINE
  5
25a
100
AcDbEntity
  8
0
 62
7
100
AcDbPolyline
 90
3
 70
0
 10
88.598751
 20
55.175571
 30
0.0
 10
87.830459
 20
54.119338
 30
0.0
 10
88.592589
 20
54.608981
 30
0.0
  0
SPLINE
  5
25b
100
AcDbEntity
  8
0
 62
7
100
AcDbSpline
 70
8
 71
3
 72
8
 73
4
 74
0
 40
0
 40
0
 40
0
 40
0
 40
1
 40
1
 40
1
 40
1
 10
135.070702
 20
28.839941
 30
0.0
 10
134.865097
 20
28.967012
 30
0.0
 10
134.883036
 20
29.611156
 30
0.0
 10
135.133466
 20
31.093817
 30
0.0
  0
SPLINE
  5
25c
100
AcDbEntity
  8
0
 62
7
100
AcDbSpline
 70
8
 71
3
 72
8
 73
4
 74
0
 40
0
 40
0
 40
0
 40
0
 40
1
 40
1
 40
1
 40
1
 10
135.133466
 20
31.093817
 30
0.0
 10
135.408511
 20
32.722190
 30
0.0
 10
135.595114
 20
33.209442
 30
0.0
 10
135.998950
 20
33.353740
 30
0.0
  0
SPLINE
  5
25d
100
AcDbEntity
  8
0
 62
7
100
AcDbSpline
 70
8
 71
3
 72
8
 73
4
 74
0
 40
0
 40
0
 40
0
 40
0
 40
1
 40
1
 40
1
 40
1
 10
135.998950
 20
33.353740
 30
0.0
 10
136.650323
 20
33.586489
 30
0.0
 10
136.901462
 20
33.208981
 30
0.0
 10
136.906614
 20
31.989358
 30
0.0
  0
SPLINE
  5
25e
100
AcDbEntity
  8
0
 62
7
100
AcDbSpline
 70
8
 71
3
 72
8
 73
4
 74
0
 40
0
 40
0
 40
0
 40
0
 40
1
 40
1
 40
1
 40
1
 10
136.906614
 20
31.989358
 30
0.0
 10
136.908730
 20
31.461845
 30
0.0
 10
136.979575
 20
30.685687
 30
0.0
 10
137.063800
 20
30.264563
 30
0.0
  0
SPLINE
  5
25f
100
AcDbEntity
  8
0
 62
7
100
AcDbSpline
 70
8
 71
3
 72
8
 73
4
 74
0
 40
0
 40
0
 40
0
 40
0
 40
1
 40
1
 40
1
 40
1
 10
137.063800
 20
30.264563
 30
0.0
 10
137.205066
 20
29.558239
 30
0.0
 10
137.294967
 20
29.506323
 30
0.0
 10
138.223461
 20
29.594868
 30
0.0
  0
SPLINE
  5
260
100
AcDbEntity
  8
0
 62
7
100
AcDbSpline
 70
8
 71
3
 72
8
 73
4
 74
0
 40
0
 40
0
 40
0
 40
0
 40
1
 40
1
 40
1
 40
1
 10
138.223461
 20
29.594868
 30
0.0
 10
139.286313
 20
29.696227
 30
0.0
 10
139.901099
 20
29.233479
 30
0.0
 10
139.259667
 20
28.814919
 30
0.0
  0
SPLINE
  5
261
100
AcDbEntity
  8
0
 62
7
100
AcDbSpline
 70
8
 71
3
 72
8
 73
4
 74
0
 40
0
 40
0
 40
0
 40
0
 40
1
 40
1
 40
1
 40
1
 10
139.259667
 20
28.814919
 30
0.0
 10
138.848269
 20
28.546465
 30
0.0
 10
135.513323
 20
28.566385
 30
0.0
 10
135.070702
 20
28.839948
 30
0.0
  0
LWPOLYLINE
  5
262
100
AcDbEntity
  8
0
 62
7
100
AcDbPolyline
 90
1
 70
1
 10
68.383581
 20
27.476966
 30
0.0
  0
SPLINE
  5
263
100
AcDbEntity
  8
0
 62
7
100
AcDbSpline
 70
8
 71
3
 72
8
 73
4
 74
0
 40
0
 40
0
 40
0
 40
0
 40
1
 40
1
 40
1
 40
1
 10
64.943998
 20
80.043846
 30
0.0
 10
63.884019
 20
80.425327
 30
0.0
 10
63.773709
 20
80.708227
 30
0.0
 10
64.115590
 20
82.168333
 30
0.0
  0
SPLINE
  5
264
100
AcDbEntity
  8
0
 62
7
100
AcDbSpline
 70
8
 71
3
 72
8
 73
4
 74
0
 40
0
 40
0
 40
0
 40
0
 40
1
 40
1
 40
1
 40
1
 10
64.115590
 20
82.168333
 30
0.0
 10
64.268972
 20
82.823383
 30
0.0
 10
64.371688
 20
82.990089
 30
0.0
 10
64.388254
 20
82.610854
 30
0.0
  0
SPLINE
  5
265
100
AcDbEntity
  8
0
 62
7
100
AcDbSpline
 70
8
 71
3
 72
8
 73
4
 74
0
 40
0
 40
0
 40
0
 40
0
 40
1
 40
1
 40
1
 40
1
 10
64.388254
 20
82.610854
 30
0.0
 10
64.431627
 20
81.617921
 30
0.0
 10
65.170971
 20
80.460702
 30
0.0
 10
65.874852
 20
80.284040
 30
0.0
  0
SPLINE
  5
266
100
AcDbEntity
  8
0
 62
7
100
AcDbSpline
 70
8
 71
3
 72
8
 73
4
 74
0
 40
0
 40
0
 40
0
 40
0
 40
1
 40
1
 40
1
 40
1
 10
65.874852
 20
80.284040
 30
0.0
 10
66.236006
 20
80.193396
 30
0.0
 10
66.531498
 20
80.013077
 30
0.0
 10
66.531498
 20
79.883331
 30
0.0
  0
SPLINE
  5
267
100
AcDbEntity
  8
0
 62
7
100
AcDbSpline
 70
8
 71
3
 72
8
 73
4
 74
0
 40
0
 40
0
 40
0
 40
0
 40
1
 40
1
 40
1
 40
1
 10
66.531498
 20
79.883331
 30
0.0
 10
66.531498
 20
79.582656
 30
0.0
 10
66.105868
 20
79.625693
 30
0.0
 10
64.943998
 20
80.043845
 30
0.0
  0
LWPOLYLINE
  5
268
100
AcDbEntity
  8
0
 62
7
100
AcDbPolyline
 90
1
 70
1
 10
135.070702
 20
28.839948
 30
0.0
  0
SPLINE
  5
269
100
AcDbEntity
  8
0
 62
7
100
AcDbSpline
 70
8
 71
3
 72
8
 73
4
 74
0
 40
0
 40
0
 40
0
 40
0
 40
1
 40
1
 40
1
 40
1
 10
68.251290
 20
87.849514
 30
0.0
 10
68.341227
 20
87.995035
 30
0.0
 10
68.586379
 20
88.114098
 30
0.0
 10
68.796072
 20
88.114098
 30
0.0
  0
SPLINE
  5
26a
100
AcDbEntity
  8
0
 62
7
100
AcDbSpline
 70
8
 71
3
 72
8
 73
4
 74
0
 40
0
 40
0
 40
0
 40
0
 40
1
 40
1
 40
1
 40
1
 10
68.796072
 20
88.114098
 30
0.0
 10
69.005765
 20
88.114098
 30
0.0
 10
69.177331
 20
87.995035
 30
0.0
 10
69.177331
 20
87.849514
 30
0.0
  0
SPLINE
  5
26b
100
AcDbEntity
  8
0
 62
7
100
AcDbSpline
 70
8
 71
3
 72
8
 73
4
 74
0
 40
0
 40
0
 40
0
 40
0
 40
1
 40
1
 40
1
 40
1
 10
69.177331
 20
87.849514
 30
0.0
 10
69.177331
 20
87.703993
 30
0.0
 10
68.932179
 20
87.584931
 30
0.0
 10
68.632549
 20
87.584931
 30
0.0
  0
SPLINE
  5
26c
100
AcDbEntity
  8
0
 62
7
100
AcDbSpline
 70
8
 71
3
 72
8
 73
4
 74
0
 40
0
 40
0
 40
0
 40
0
 40
1
 40
1
 40
1
 40
1
 10
68.632549
 20
87.584931
 30
0.0
 10
68.332919
 20
87.584931
 30
0.0
 10
68.161352
 20
87.703993
 30
0.0
 10
68.251290
 20
87.849514
 30
0.0
  0
LWPOLYLINE
  5
26d
100
AcDbEntity
  8
0
 62
7
100
AcDbPolyline
 90
1
 70
1
 10
64.943998
 20
80.043845
 30
0.0
  0
SPLINE
  5
26e
100
AcDbEntity
  8
0
 62
7
100
AcDbSpline
 70
8
 71
3
 72
8
 73
4
 74
0
 40
0
 40
0
 40
0
 40
0
 40
1
 40
1
 40
1
 40
1
 10
61.139448
 20
88.780535
 30
0.0
 10
60.429394
 20
88.975531
 30
0.0
 10
59.720972
 20
89.262540
 30
0.0
 10
59.565178
 20
89.418335
 30
0.0
  0
SPLINE
  5
26f
100
AcDbEntity
  8
0
 62
7
100
AcDbSpline
 70
8
 71
3
 72
8
 73
4
 74
0
 40
0
 40
0
 40
0
 40
0
 40
1
 40
1
 40
1
 40
1
 10
59.565178
 20
89.418335
 30
0.0
 10
59.409383
 20
89.574129
 30
0.0
 10
59.067602
 20
89.701598
 30
0.0
 10
58.805665
 20
89.701598
 30
0.0
  0
SPLINE
  5
270
100
AcDbEntity
  8
0
 62
7
100
AcDbSpline
 70
8
 71
3
 72
8
 73
4
 74
0
 40
0
 40
0
 40
0
 40
0
 40
1
 40
1
 40
1
 40
1
 10
58.805665
 20
89.701598
 30
0.0
 10
58.543727
 20
89.701598
 30
0.0
 10
58.329415
 20
89.777081
 30
0.0
 10
58.329415
 20
89.869338
 30
0.0
  0
SPLINE
  5
271
100
AcDbEntity
  8
0
 62
7
100
AcDbSpline
 70
8
 71
3
 72
8
 73
4
 74
0
 40
0
 40
0
 40
0
 40
0
 40
1
 40
1
 40
1
 40
1
 10
58.329415
 20
89.869338
 30
0.0
 10
58.329415
 20
90.360735
 30
0.0
 10
58.973074
 20
92.082848
 30
0.0
 10
59.156740
 20
92.082848
 30
0.0
  0
SPLINE
  5
272
100
AcDbEntity
  8
0
 62
7
100
AcDbSpline
 70
8
 71
3
 72
8
 73
4
 74
0
 40
0
 40
0
 40
0
 40
0
 40
1
 40
1
 40
1
 40
1
 10
59.156740
 20
92.082848
 30
0.0
 10
59.274660
 20
92.082848
 30
0.0
 10
59.303767
 20
91.907275
 30
0.0
 10
59.221423
 20
91.692688
 30
0.0
  0
SPLINE
  5
273
100
AcDbEntity
  8
0
 62
7
100
AcDbSpline
 70
8
 71
3
 72
8
 73
4
 74
0
 40
0
 40
0
 40
0
 40
0
 40
1
 40
1
 40
1
 40
1
 10
59.221423
 20
91.692688
 30
0.0
 10
58.984428
 20
91.075092
 30
0.0
 10
60.110412
 20
89.513561
 30
0.0
 10
61.021846
 20
89.195833
 30
0.0
  0
SPLINE
  5
274
100
AcDbEntity
  8
0
 62
7
100
AcDbSpline
 70
8
 71
3
 72
8
 73
4
 74
0
 40
0
 40
0
 40
0
 40
0
 40
1
 40
1
 40
1
 40
1
 10
61.021846
 20
89.195833
 30
0.0
 10
62.053930
 20
88.836048
 30
0.0
 10
63.010031
 20
88.825888
 30
0.0
 10
63.224206
 20
89.172444
 30
0.0
  0
SPLINE
  5
275
100
AcDbEntity
  8
0
 62
7
100
AcDbSpline
 70
8
 71
3
 72
8
 73
4
 74
0
 40
0
 40
0
 40
0
 40
0
 40
1
 40
1
 40
1
 40
1
 10
63.224206
 20
89.172444
 30
0.0
 10
63.500728
 20
89.619865
 30
0.0
 10
63.885665
 20
89.465888
 30
0.0
 10
63.885665
 20
88.907861
 30
0.0
  0
SPLINE
  5
276
100
AcDbEntity
  8
0
 62
7
100
AcDbSpline
 70
8
 71
3
 72
8
 73
4
 74
0
 40
0
 40
0
 40
0
 40
0
 40
1
 40
1
 40
1
 40
1
 10
63.885665
 20
88.907861
 30
0.0
 10
63.885665
 20
88.274689
 30
0.0
 10
63.112068
 20
88.238827
 30
0.0
 10
61.139448
 20
88.780549
 30
0.0
  0
LWPOLYLINE
  5
277
100
AcDbEntity
  8
0
 62
7
100
AcDbPolyline
 90
1
 70
1
 10
68.251290
 20
87.849514
 30
0.0
  0
SPLINE
  5
278
100
AcDbEntity
  8
0
 62
7
100
AcDbSpline
 70
8
 71
3
 72
8
 73
4
 74
0
 40
0
 40
0
 40
0
 40
0
 40
1
 40
1
 40
1
 40
1
 10
96.164831
 20
92.428822
 30
0.0
 10
96.164831
 20
93.261839
 30
0.0
 10
96.967008
 20
95.772772
 30
0.0
 10
97.871642
 20
97.771389
 30
0.0
  0
SPLINE
  5
279
100
AcDbEntity
  8
0
 62
7
100
AcDbSpline
 70
8
 71
3
 72
8
 73
4
 74
0
 40
0
 40
0
 40
0
 40
0
 40
1
 40
1
 40
1
 40
1
 10
97.871642
 20
97.771389
 30
0.0
 10
98.069244
 20
98.207952
 30
0.0
 10
98.491524
 20
99.458108
 30
0.0
 10
98.810048
 20
100.549514
 30
0.0
  0
SPLINE
  5
27a
100
AcDbEntity
  8
0
 62
7
100
AcDbSpline
 70
8
 71
3
 72
8
 73
4
 74
0
 40
0
 40
0
 40
0
 40
0
 40
1
 40
1
 40
1
 40
1
 10
98.810048
 20
100.549514
 30
0.0
 10
99.128569
 20
101.640920
 30
0.0
 10
99.485310
 20
102.635172
 30
0.0
 10
99.602806
 20
102.758960
 30
0.0
  0
SPLINE
  5
27b
100
AcDbEntity
  8
0
 62
7
100
AcDbSpline
 70
8
 71
3
 72
8
 73
4
 74
0
 40
0
 40
0
 40
0
 40
0
 40
1
 40
1
 40
1
 40
1
 10
99.602806
 20
102.758960
 30
0.0
 10
100.045586
 20
103.225462
 30
0.0
 10
100.152076
 20
101.823742
 30
0.0
 10
99.785398
 20
100.355490
 30
0.0
  0
SPLINE
  5
27c
100
AcDbEntity
  8
0
 62
7
100
AcDbSpline
 70
8
 71
3
 72
8
 73
4
 74
0
 40
0
 40
0
 40
0
 40
0
 40
1
 40
1
 40
1
 40
1
 10
99.785398
 20
100.355490
 30
0.0
 10
99.575826
 20
99.516319
 30
0.0
 10
99.249005
 20
97.996285
 30
0.0
 10
99.059132
 20
96.977639
 30
0.0
  0
SPLINE
  5
27d
100
AcDbEntity
  8
0
 62
7
100
AcDbSpline
 70
8
 71
3
 72
8
 73
4
 74
0
 40
0
 40
0
 40
0
 40
0
 40
1
 40
1
 40
1
 40
1
 10
99.059132
 20
96.977639
 30
0.0
 10
98.869259
 20
95.958993
 30
0.0
 10
98.493093
 20
94.803259
 30
0.0
 10
98.223213
 20
94.409339
 30
0.0
  0
SPLINE
  5
27e
100
AcDbEntity
  8
0
 62
7
100
AcDbSpline
 70
8
 71
3
 72
8
 73
4
 74
0
 40
0
 40
0
 40
0
 40
0
 40
1
 40
1
 40
1
 40
1
 10
98.223213
 20
94.409339
 30
0.0
 10
97.953330
 20
94.015420
 30
0.0
 10
97.576301
 20
93.241514
 30
0.0
 10
97.385370
 20
92.689548
 30
0.0
  0
SPLINE
  5
27f
100
AcDbEntity
  8
0
 62
7
100
AcDbSpline
 70
8
 71
3
 72
8
 73
4
 74
0
 40
0
 40
0
 40
0
 40
0
 40
1
 40
1
 40
1
 40
1
 10
97.385370
 20
92.689548
 30
0.0
 10
96.918224
 20
91.339059
 30
0.0
 10
96.164831
 20
91.178123
 30
0.0
 10
96.164831
 20
92.428822
 30
0.0
  0
LWPOLYLINE
  5
280
100
AcDbEntity
  8
0
 62
7
100
AcDbPolyline
 90
1
 70
1
 10
61.139448
 20
88.780549
 30
0.0
  0
SPLINE
  5
281
100
AcDbEntity
  8
0
 62
7
100
AcDbSpline
 70
8
 71
3
 72
8
 73
4
 74
0
 40
0
 40
0
 40
0
 40
0
 40
1
 40
1
 40
1
 40
1
 10
73.204721
 20
99.641877
 30
0.0
 10
72.318684
 20
99.974966
 30
0.0
 10
71.333379
 20
100.386838
 30
0.0
 10
71.015151
 20
100.557147
 30
0.0
  0
SPLINE
  5
282
100
AcDbEntity
  8
0
 62
7
100
AcDbSpline
 70
8
 71
3
 72
8
 73
4
 74
0
 40
0
 40
0
 40
0
 40
0
 40
1
 40
1
 40
1
 40
1
 10
71.015151
 20
100.557147
 30
0.0
 10
70.452819
 20
100.858100
 30
0.0
 10
70.466215
 20
100.884485
 30
0.0
 10
71.491893
 20
101.496125
 30
0.0
  0
SPLINE
  5
283
100
AcDbEntity
  8
0
 62
7
100
AcDbSpline
 70
8
 71
3
 72
8
 73
4
 74
0
 40
0
 40
0
 40
0
 40
0
 40
1
 40
1
 40
1
 40
1
 10
71.491893
 20
101.496125
 30
0.0
 10
72.166046
 20
101.898143
 30
0.0
 10
72.959394
 20
102.772604
 30
0.0
 10
73.688363
 20
103.917168
 30
0.0
  0
SPLINE
  5
284
100
AcDbEntity
  8
0
 62
7
100
AcDbSpline
 70
8
 71
3
 72
8
 73
4
 74
0
 40
0
 40
0
 40
0
 40
0
 40
1
 40
1
 40
1
 40
1
 10
73.688363
 20
103.917168
 30
0.0
 10
74.315992
 20
104.902616
 30
0.0
 10
74.999831
 20
105.850814
 30
0.0
 10
75.208006
 20
106.024278
 30
0.0
  0
SPLINE
  5
285
100
AcDbEntity
  8
0
 62
7
100
AcDbSpline
 70
8
 71
3
 72
8
 73
4
 74
0
 40
0
 40
0
 40
0
 40
0
 40
1
 40
1
 40
1
 40
1
 10
75.208006
 20
106.024278
 30
0.0
 10
75.416182
 20
106.197741
 30
0.0
 10
76.257804
 20
106.415853
 30
0.0
 10
77.078274
 20
106.508971
 30
0.0
  0
SPLINE
  5
286
100
AcDbEntity
  8
0
 62
7
100
AcDbSpline
 70
8
 71
3
 72
8
 73
4
 74
0
 40
0
 40
0
 40
0
 40
0
 40
1
 40
1
 40
1
 40
1
 10
77.078274
 20
106.508971
 30
0.0
 10
79.281663
 20
106.759042
 30
0.0
 10
79.509014
 20
106.865843
 30
0.0
 10
79.917110
 20
107.842553
 30
0.0
  0
SPLINE
  5
287
100
AcDbEntity
  8
0
 62
7
100
AcDbSpline
 70
8
 71
3
 72
8
 73
4
 74
0
 40
0
 40
0
 40
0
 40
0
 40
1
 40
1
 40
1
 40
1
 10
79.917110
 20
107.842553
 30
0.0
 10
80.487150
 20
109.206853
 30
0.0
 10
80.373048
 20
111.039934
 30
0.0
 10
79.594572
 20
113.024134
 30
0.0
  0
SPLINE
  5
288
100
AcDbEntity
  8
0
 62
7
100
AcDbSpline
 70
8
 71
3
 72
8
 73
4
 74
0
 40
0
 40
0
 40
0
 40
0
 40
1
 40
1
 40
1
 40
1
 10
79.594572
 20
113.024134
 30
0.0
 10
79.179555
 20
114.081946
 30
0.0
 10
78.961509
 20
115.044408
 30
0.0
 10
79.053616
 20
115.411935
 30
0.0
  0
SPLINE
  5
289
100
AcDbEntity
  8
0
 62
7
100
AcDbSpline
 70
8
 71
3
 72
8
 73
4
 74
0
 40
0
 40
0
 40
0
 40
0
 40
1
 40
1
 40
1
 40
1
 10
79.053616
 20
115.411935
 30
0.0
 10
79.206381
 20
116.021493
 30
0.0
 10
79.241716
 20
116.026882
 30
0.0
 10
82.593146
 20
115.951934
 30
0.0
  0
SPLINE
  5
28a
100
AcDbEntity
  8
0
 62
7
100
AcDbSpline
 70
8
 71
3
 72
8
 73
4
 74
0
 40
0
 40
0
 40
0
 40
0
 40
1
 40
1
 40
1
 40
1
 10
82.593146
 20
115.951934
 30
0.0
 10
84.455021
 20
115.910296
 30
0.0
 10
87.496420
 20
115.803677
 30
0.0
 10
89.351810
 20
115.715005
 30
0.0
  0
SPLINE
  5
28b
100
AcDbEntity
  8
0
 62
7
100
AcDbSpline
 70
8
 71
3
 72
8
 73
4
 74
0
 40
0
 40
0
 40
0
 40
0
 40
1
 40
1
 40
1
 40
1
 10
89.351810
 20
115.715005
 30
0.0
 10
91.499190
 20
115.612373
 30
0.0
 10
92.725248
 20
115.648494
 30
0.0
 10
92.725248
 20
115.814385
 30
0.0
  0
SPLINE
  5
28c
100
AcDbEntity
  8
0
 62
7
100
AcDbSpline
 70
8
 71
3
 72
8
 73
4
 74
0
 40
0
 40
0
 40
0
 40
0
 40
1
 40
1
 40
1
 40
1
 10
92.725248
 20
115.814385
 30
0.0
 10
92.725248
 20
116.186850
 30
0.0
 10
91.511702
 20
116.689098
 30
0.0
 10
90.611746
 20
116.689098
 30
0.0
  0
SPLINE
  5
28d
100
AcDbEntity
  8
0
 62
7
100
AcDbSpline
 70
8
 71
3
 72
8
 73
4
 74
0
 40
0
 40
0
 40
0
 40
0
 40
1
 40
1
 40
1
 40
1
 10
90.611746
 20
116.689098
 30
0.0
 10
90.190619
 20
116.689098
 30
0.0
 10
89.772477
 20
116.808160
 30
0.0
 10
89.682540
 20
116.953681
 30
0.0
  0
SPLINE
  5
28e
100
AcDbEntity
  8
0
 62
7
100
AcDbSpline
 70
8
 71
3
 72
8
 73
4
 74
0
 40
0
 40
0
 40
0
 40
0
 40
1
 40
1
 40
1
 40
1
 10
89.682540
 20
116.953681
 30
0.0
 10
89.592602
 20
117.099202
 30
0.0
 10
89.254880
 20
117.218264
 30
0.0
 10
88.932046
 20
117.218264
 30
0.0
  0
SPLINE
  5
28f
100
AcDbEntity
  8
0
 62
7
100
AcDbSpline
 70
8
 71
3
 72
8
 73
4
 74
0
 40
0
 40
0
 40
0
 40
0
 40
1
 40
1
 40
1
 40
1
 10
88.932046
 20
117.218264
 30
0.0
 10
88.609212
 20
117.218264
 30
0.0
 10
88.110221
 20
117.382332
 30
0.0
 10
87.823183
 20
117.582860
 30
0.0
  0
SPLINE
  5
290
100
AcDbEntity
  8
0
 62
7
100
AcDbSpline
 70
8
 71
3
 72
8
 73
4
 74
0
 40
0
 40
0
 40
0
 40
0
 40
1
 40
1
 40
1
 40
1
 10
87.823183
 20
117.582860
 30
0.0
 10
86.866299
 20
118.251346
 30
0.0
 10
84.960981
 20
118.254481
 30
0.0
 10
83.515062
 20
117.589951
 30
0.0
  0
SPLINE
  5
291
100
AcDbEntity
  8
0
 62
7
100
AcDbSpline
 70
8
 71
3
 72
8
 73
4
 74
0
 40
0
 40
0
 40
0
 40
0
 40
1
 40
1
 40
1
 40
1
 10
83.515062
 20
117.589951
 30
0.0
 10
82.793313
 20
117.258240
 30
0.0
 10
81.482668
 20
116.905371
 30
0.0
 10
80.602521
 20
116.805792
 30
0.0
  0
LWPOLYLINE
  5
292
100
AcDbEntity
  8
0
 62
7
100
AcDbPolyline
 90
1
 70
1
 10
96.164831
 20
92.428822
 30
0.0
  0
SPLINE
  5
293
100
AcDbEntity
  8
0
 62
7
100
AcDbSpline
 70
8
 71
3
 72
8
 73
4
 74
0
 40
0
 40
0
 40
0
 40
0
 40
1
 40
1
 40
1
 40
1
 10
78.471702
 20
115.267856
 30
0.0
 10
78.179898
 20
114.521570
 30
0.0
 10
77.861001
 20
113.256126
 30
0.0
 10
77.763042
 20
112.455762
 30
0.0
  0
SPLINE
  5
294
100
AcDbEntity
  8
0
 62
7
100
AcDbSpline
 70
8
 71
3
 72
8
 73
4
 74
0
 40
0
 40
0
 40
0
 40
0
 40
1
 40
1
 40
1
 40
1
 10
77.763042
 20
112.455762
 30
0.0
 10
77.665083
 20
111.655397
 30
0.0
 10
77.491042
 20
110.828225
 30
0.0
 10
77.376287
 20
110.617603
 30
0.0
  0
SPLINE
  5
295
100
AcDbEntity
  8
0
 62
7
100
AcDbSpline
 70
8
 71
3
 72
8
 73
4
 74
0
 40
0
 40
0
 40
0
 40
0
 40
1
 40
1
 40
1
 40
1
 10
77.376287
 20
110.617603
 30
0.0
 10
77.261529
 20
110.406979
 30
0.0
 10
77.282717
 20
109.931967
 30
0.0
 10
77.423370
 20
109.562022
 30
0.0
  0
SPLINE
  5
296
100
AcDbEntity
  8
0
 62
7
100
AcDbSpline
 70
8
 71
3
 72
8
 73
4
 74
0
 40
0
 40
0
 40
0
 40
0
 40
1
 40
1
 40
1
 40
1
 10
77.423370
 20
109.562022
 30
0.0
 10
77.564025
 20
109.192076
 30
0.0
 10
77.606279
 20
108.501201
 30
0.0
 10
77.517270
 20
108.026745
 30
0.0
  0
SPLINE
  5
297
100
AcDbEntity
  8
0
 62
7
100
AcDbSpline
 70
8
 71
3
 72
8
 73
4
 74
0
 40
0
 40
0
 40
0
 40
0
 40
1
 40
1
 40
1
 40
1
 10
77.517270
 20
108.026745
 30
0.0
 10
77.376708
 20
107.277487
 30
0.0
 10
77.249655
 20
107.164095
 30
0.0
 10
76.550692
 20
107.164095
 30
0.0
  0
SPLINE
  5
298
100
AcDbEntity
  8
0
 62
7
100
AcDbSpline
 70
8
 71
3
 72
8
 73
4
 74
0
 40
0
 40
0
 40
0
 40
0
 40
1
 40
1
 40
1
 40
1
 10
76.550692
 20
107.164095
 30
0.0
 10
75.897790
 20
107.164095
 30
0.0
 10
75.688873
 20
107.315310
 30
0.0
 10
75.443445
 20
107.965518
 30
0.0
  0
SPLINE
  5
299
100
AcDbEntity
  8
0
 62
7
100
AcDbSpline
 70
8
 71
3
 72
8
 73
4
 74
0
 40
0
 40
0
 40
0
 40
0
 40
1
 40
1
 40
1
 40
1
 10
75.443445
 20
107.965518
 30
0.0
 10
74.973886
 20
109.209520
 30
0.0
 10
74.407662
 20
108.832999
 30
0.0
 10
73.771276
 20
106.853572
 30
0.0
  0
SPLINE
  5
29a
100
AcDbEntity
  8
0
 62
7
100
AcDbSpline
 70
8
 71
3
 72
8
 73
4
 74
0
 40
0
 40
0
 40
0
 40
0
 40
1
 40
1
 40
1
 40
1
 10
73.771276
 20
106.853572
 30
0.0
 10
73.166092
 20
104.971202
 30
0.0
 10
71.542169
 20
102.288446
 30
0.0
 10
70.751906
 20
101.865512
 30
0.0
  0
SPLINE
  5
29b
100
AcDbEntity
  8
0
 62
7
100
AcDbSpline
 70
8
 71
3
 72
8
 73
4
 74
0
 40
0
 40
0
 40
0
 40
0
 40
1
 40
1
 40
1
 40
1
 10
70.751906
 20
101.865512
 30
0.0
 10
69.925673
 20
101.423324
 30
0.0
 10
67.827760
 20
101.573542
 30
0.0
 10
66.612336
 20
102.161919
 30
0.0
  0
SPLINE
  5
29c
100
AcDbEntity
  8
0
 62
7
100
AcDbSpline
 70
8
 71
3
 72
8
 73
4
 74
0
 40
0
 40
0
 40
0
 40
0
 40
1
 40
1
 40
1
 40
1
 10
66.612336
 20
102.161919
 30
0.0
 10
65.982826
 20
102.466661
 30
0.0
 10
65.031350
 20
103.270333
 30
0.0
 10
64.497945
 20
103.947857
 30
0.0
  0
SPLINE
  5
29d
100
AcDbEntity
  8
0
 62
7
100
AcDbSpline
 70
8
 71
3
 72
8
 73
4
 74
0
 40
0
 40
0
 40
0
 40
0
 40
1
 40
1
 40
1
 40
1
 10
64.497945
 20
103.947857
 30
0.0
 10
62.967195
 20
105.892198
 30
0.0
 10
62.643385
 20
106.105764
 30
0.0
 10
61.226134
 20
106.105764
 30
0.0
  0
SPLINE
  5
29e
100
AcDbEntity
  8
0
 62
7
100
AcDbSpline
 70
8
 71
3
 72
8
 73
4
 74
0
 40
0
 40
0
 40
0
 40
0
 40
1
 40
1
 40
1
 40
1
 10
61.226134
 20
106.105764
 30
0.0
 10
59.823144
 20
106.105764
 30
0.0
 10
59.488044
 20
106.362743
 30
0.0
 10
59.896301
 20
107.125579
 30
0.0
  0
SPLINE
  5
29f
100
AcDbEntity
  8
0
 62
7
100
AcDbSpline
 70
8
 71
3
 72
8
 73
4
 74
0
 40
0
 40
0
 40
0
 40
0
 40
1
 40
1
 40
1
 40
1
 10
59.896301
 20
107.125579
 30
0.0
 10
60.597566
 20
108.435907
 30
0.0
 10
62.948709
 20
107.628513
 30
0.0
 10
64.087050
 20
105.686453
 30
0.0
  0
SPLINE
  5
2a0
100
AcDbEntity
  8
0
 62
7
100
AcDbSpline
 70
8
 71
3
 72
8
 73
4
 74
0
 40
0
 40
0
 40
0
 40
0
 40
1
 40
1
 40
1
 40
1
 10
64.087050
 20
105.686453
 30
0.0
 10
65.138596
 20
103.892472
 30
0.0
 10
66.157898
 20
102.930764
 30
0.0
 10
67.007769
 20
102.930764
 30
0.0
  0
SPLINE
  5
2a1
100
AcDbEntity
  8
0
 62
7
100
AcDbSpline
 70
8
 71
3
 72
8
 73
4
 74
0
 40
0
 40
0
 40
0
 40
0
 40
1
 40
1
 40
1
 40
1
 10
67.007769
 20
102.930764
 30
0.0
 10
68.089378
 20
102.930764
 30
0.0
 10
69.304805
 20
103.712380
 30
0.0
 10
70.331600
 20
105.068251
 30
0.0
  0
SPLINE
  5
2a2
100
AcDbEntity
  8
0
 62
7
100
AcDbSpline
 70
8
 71
3
 72
8
 73
4
 74
0
 40
0
 40
0
 40
0
 40
0
 40
1
 40
1
 40
1
 40
1
 10
70.331600
 20
105.068251
 30
0.0
 10
71.492031
 20
106.600588
 30
0.0
 10
72.038967
 20
107.892585
 30
0.0
 10
72.470439
 20
110.120708
 30
0.0
  0
SPLINE
  5
2a3
100
AcDbEntity
  8
0
 62
7
100
AcDbSpline
 70
8
 71
3
 72
8
 73
4
 74
0
 40
0
 40
0
 40
0
 40
0
 40
1
 40
1
 40
1
 40
1
 10
72.470439
 20
110.120708
 30
0.0
 10
72.785642
 20
111.748417
 30
0.0
 10
72.772908
 20
111.945227
 30
0.0
 10
72.307823
 20
112.634249
 30
0.0
  0
SPLINE
  5
2a4
100
AcDbEntity
  8
0
 62
7
100
AcDbSpline
 70
8
 71
3
 72
8
 73
4
 74
0
 40
0
 40
0
 40
0
 40
0
 40
1
 40
1
 40
1
 40
1
 10
72.307823
 20
112.634249
 30
0.0
 10
71.931033
 20
113.192462
 30
0.0
 10
71.841379
 20
113.653361
 30
0.0
 10
71.953853
 20
114.453953
 30
0.0
  0
SPLINE
  5
2a5
100
AcDbEntity
  8
0
 62
7
100
AcDbSpline
 70
8
 71
3
 72
8
 73
4
 74
0
 40
0
 40
0
 40
0
 40
0
 40
1
 40
1
 40
1
 40
1
 10
71.953853
 20
114.453953
 30
0.0
 10
72.052312
 20
115.154792
 30
0.0
 10
71.954382
 20
115.885230
 30
0.0
 10
71.671204
 20
116.563069
 30
0.0
  0
SPLINE
  5
2a6
100
AcDbEntity
  8
0
 62
7
100
AcDbSpline
 70
8
 71
3
 72
8
 73
4
 74
0
 40
0
 40
0
 40
0
 40
0
 40
1
 40
1
 40
1
 40
1
 10
71.671204
 20
116.563069
 30
0.0
 10
71.384245
 20
117.249863
 30
0.0
 10
71.280398
 20
118.041981
 30
0.0
 10
71.363687
 20
118.908774
 30
0.0
  0
SPLINE
  5
2a7
100
AcDbEntity
  8
0
 62
7
100
AcDbSpline
 70
8
 71
3
 72
8
 73
4
 74
0
 40
0
 40
0
 40
0
 40
0
 40
1
 40
1
 40
1
 40
1
 10
71.363687
 20
118.908774
 30
0.0
 10
71.547014
 20
120.816709
 30
0.0
 10
72.443599
 20
121.294573
 30
0.0
 10
73.743966
 20
120.177422
 30
0.0
  0
SPLINE
  5
2a8
100
AcDbEntity
  8
0
 62
7
100
AcDbSpline
 70
8
 71
3
 72
8
 73
4
 74
0
 40
0
 40
0
 40
0
 40
0
 40
1
 40
1
 40
1
 40
1
 10
73.743966
 20
120.177422
 30
0.0
 10
74.143775
 20
119.833943
 30
0.0
 10
74.304954
 20
119.828487
 30
0.0
 10
74.884772
 20
120.138796
 30
0.0
  0
SPLINE
  5
2a9
100
AcDbEntity
  8
0
 62
7
100
AcDbSpline
 70
8
 71
3
 72
8
 73
4
 74
0
 40
0
 40
0
 40
0
 40
0
 40
1
 40
1
 40
1
 40
1
 10
74.884772
 20
120.138796
 30
0.0
 10
75.372442
 20
120.399789
 30
0.0
 10
75.684060
 20
120.423297
 30
0.0
 10
76.006680
 20
120.223436
 30
0.0
  0
SPLINE
  5
2aa
100
AcDbEntity
  8
0
 62
7
100
AcDbSpline
 70
8
 71
3
 72
8
 73
4
 74
0
 40
0
 40
0
 40
0
 40
0
 40
1
 40
1
 40
1
 40
1
 10
76.006680
 20
120.223436
 30
0.0
 10
76.252361
 20
120.071240
 30
0.0
 10
76.707598
 20
119.788959
 30
0.0
 10
77.018317
 20
119.596143
 30
0.0
  0
SPLINE
  5
2ab
100
AcDbEntity
  8
0
 62
7
100
AcDbSpline
 70
8
 71
3
 72
8
 73
4
 74
0
 40
0
 40
0
 40
0
 40
0
 40
1
 40
1
 40
1
 40
1
 10
77.018317
 20
119.596143
 30
0.0
 10
77.477877
 20
119.310968
 30
0.0
 10
77.733440
 20
119.307779
 30
0.0
 10
78.388366
 20
119.579051
 30
0.0
  0
SPLINE
  5
2ac
100
AcDbEntity
  8
0
 62
7
100
AcDbSpline
 70
8
 71
3
 72
8
 73
4
 74
0
 40
0
 40
0
 40
0
 40
0
 40
1
 40
1
 40
1
 40
1
 10
78.388366
 20
119.579051
 30
0.0
 10
79.523738
 20
120.049338
 30
0.0
 10
79.597284
 20
120.524162
 30
0.0
 10
78.694095
 20
121.552840
 30
0.0
  0
SPLINE
  5
2ad
100
AcDbEntity
  8
0
 62
7
100
AcDbSpline
 70
8
 71
3
 72
8
 73
4
 74
0
 40
0
 40
0
 40
0
 40
0
 40
1
 40
1
 40
1
 40
1
 10
78.694095
 20
121.552840
 30
0.0
 10
77.850270
 20
122.513902
 30
0.0
 10
77.732953
 20
123.157898
 30
0.0
 10
78.210696
 20
124.206426
 30
0.0
  0
SPLINE
  5
2ae
100
AcDbEntity
  8
0
 62
7
100
AcDbSpline
 70
8
 71
3
 72
8
 73
4
 74
0
 40
0
 40
0
 40
0
 40
0
 40
1
 40
1
 40
1
 40
1
 10
78.210696
 20
124.206426
 30
0.0
 10
78.569592
 20
124.994117
 30
0.0
 10
78.129797
 20
125.832137
 30
0.0
 10
76.896738
 20
126.710154
 30
0.0
  0
LWPOLYLINE
  5
2af
100
AcDbEntity
  8
0
 62
7
100
AcDbPolyline
 90
3
 70
0
 10
80.602521
 20
116.805792
 30
0.0
 10
79.002255
 20
116.624743
 30
0.0
 10
78.471702
 20
115.267856
 30
0.0
  0
SPLINE
  5
2b0
100
AcDbEntity
  8
0
 62
7
100
AcDbSpline
 70
8
 71
3
 72
8
 73
4
 74
0
 40
0
 40
0
 40
0
 40
0
 40
1
 40
1
 40
1
 40
1
 10
75.258956
 20
125.545159
 30
0.0
 10
74.780936
 20
124.603391
 30
0.0
 10
74.297813
 20
123.832848
 30
0.0
 10
74.185349
 20
123.832848
 30
0.0
  0
SPLINE
  5
2b1
100
AcDbEntity
  8
0
 62
7
100
AcDbSpline
 70
8
 71
3
 72
8
 73
4
 74
0
 40
0
 40
0
 40
0
 40
0
 40
1
 40
1
 40
1
 40
1
 10
74.185349
 20
123.832848
 30
0.0
 10
74.072885
 20
123.832848
 30
0.0
 10
73.845216
 20
123.421817
 30
0.0
 10
73.679420
 20
122.919448
 30
0.0
  0
SPLINE
  5
2b2
100
AcDbEntity
  8
0
 62
7
100
AcDbSpline
 70
8
 71
3
 72
8
 73
4
 74
0
 40
0
 40
0
 40
0
 40
0
 40
1
 40
1
 40
1
 40
1
 10
73.679420
 20
122.919448
 30
0.0
 10
73.317272
 20
121.822128
 30
0.0
 10
72.567707
 20
121.514201
 30
0.0
 10
71.677919
 20
122.097213
 30
0.0
  0
SPLINE
  5
2b3
100
AcDbEntity
  8
0
 62
7
100
AcDbSpline
 70
8
 71
3
 72
8
 73
4
 74
0
 40
0
 40
0
 40
0
 40
0
 40
1
 40
1
 40
1
 40
1
 10
71.677919
 20
122.097213
 30
0.0
 10
70.993511
 20
122.545655
 30
0.0
 10
71.032240
 20
122.273502
 30
0.0
 10
70.913659
 20
127.467598
 30
0.0
  0
SPLINE
  5
2b4
100
AcDbEntity
  8
0
 62
7
100
AcDbSpline
 70
8
 71
3
 72
8
 73
4
 74
0
 40
0
 40
0
 40
0
 40
0
 40
1
 40
1
 40
1
 40
1
 10
70.913659
 20
127.467598
 30
0.0
 10
70.898578
 20
128.127784
 30
0.0
 10
71.002573
 20
128.207090
 30
0.0
 10
72.087748
 20
128.363054
 30
0.0
  0
SPLINE
  5
2b5
100
AcDbEntity
  8
0
 62
7
100
AcDbSpline
 70
8
 71
3
 72
8
 73
4
 74
0
 40
0
 40
0
 40
0
 40
0
 40
1
 40
1
 40
1
 40
1
 10
72.087748
 20
128.363054
 30
0.0
 10
73.470050
 20
128.561722
 30
0.0
 10
76.069465
 20
129.817823
 30
0.0
 10
78.229153
 20
131.330732
 30
0.0
  0
SPLINE
  5
2b6
100
AcDbEntity
  8
0
 62
7
100
AcDbSpline
 70
8
 71
3
 72
8
 73
4
 74
0
 40
0
 40
0
 40
0
 40
0
 40
1
 40
1
 40
1
 40
1
 10
78.229153
 20
131.330732
 30
0.0
 10
79.683830
 20
132.349764
 30
0.0
 10
79.779167
 20
132.377730
 30
0.0
 10
80.778133
 20
132.078434
 30
0.0
  0
SPLINE
  5
2b7
100
AcDbEntity
  8
0
 62
7
100
AcDbSpline
 70
8
 71
3
 72
8
 73
4
 74
0
 40
0
 40
0
 40
0
 40
0
 40
1
 40
1
 40
1
 40
1
 10
80.778133
 20
132.078434
 30
0.0
 10
81.478604
 20
131.868566
 30
0.0
 10
82.141557
 20
131.370104
 30
0.0
 10
82.817801
 20
130.544837
 30
0.0
  0
SPLINE
  5
2b8
100
AcDbEntity
  8
0
 62
7
100
AcDbSpline
 70
8
 71
3
 72
8
 73
4
 74
0
 40
0
 40
0
 40
0
 40
0
 40
1
 40
1
 40
1
 40
1
 10
82.817801
 20
130.544837
 30
0.0
 10
83.520547
 20
129.687227
 30
0.0
 10
83.653405
 20
129.411158
 30
0.0
 10
83.262777
 20
129.620216
 30
0.0
  0
SPLINE
  5
2b9
100
AcDbEntity
  8
0
 62
7
100
AcDbSpline
 70
8
 71
3
 72
8
 73
4
 74
0
 40
0
 40
0
 40
0
 40
0
 40
1
 40
1
 40
1
 40
1
 10
83.262777
 20
129.620216
 30
0.0
 10
82.414906
 20
130.073982
 30
0.0
 10
82.335627
 20
129.987596
 30
0.0
 10
82.830728
 20
129.149454
 30
0.0
  0
SPLINE
  5
2ba
100
AcDbEntity
  8
0
 62
7
100
AcDbSpline
 70
8
 71
3
 72
8
 73
4
 74
0
 40
0
 40
0
 40
0
 40
0
 40
1
 40
1
 40
1
 40
1
 10
82.830728
 20
129.149454
 30
0.0
 10
83.724544
 20
127.636344
 30
0.0
 10
87.012830
 20
126.493217
 30
0.0
 10
90.500176
 20
126.483274
 30
0.0
  0
SPLINE
  5
2bb
100
AcDbEntity
  8
0
 62
7
100
AcDbSpline
 70
8
 71
3
 72
8
 73
4
 74
0
 40
0
 40
0
 40
0
 40
0
 40
1
 40
1
 40
1
 40
1
 10
90.500176
 20
126.483274
 30
0.0
 10
92.514468
 20
126.477533
 30
0.0
 10
95.136306
 20
127.673182
 30
0.0
 10
95.927958
 20
128.958533
 30
0.0
  0
SPLINE
  5
2bc
100
AcDbEntity
  8
0
 62
7
100
AcDbSpline
 70
8
 71
3
 72
8
 73
4
 74
0
 40
0
 40
0
 40
0
 40
0
 40
1
 40
1
 40
1
 40
1
 10
95.927958
 20
128.958533
 30
0.0
 10
96.811547
 20
130.393154
 30
0.0
 10
97.078525
 20
131.635767
 30
0.0
 10
96.699673
 20
132.550395
 30
0.0
  0
SPLINE
  5
2bd
100
AcDbEntity
  8
0
 62
7
100
AcDbSpline
 70
8
 71
3
 72
8
 73
4
 74
0
 40
0
 40
0
 40
0
 40
0
 40
1
 40
1
 40
1
 40
1
 10
96.699673
 20
132.550395
 30
0.0
 10
96.374802
 20
133.334702
 30
0.0
 10
95.900248
 20
133.646376
 30
0.0
 10
95.900248
 20
133.075434
 30
0.0
  0
SPLINE
  5
2be
100
AcDbEntity
  8
0
 62
7
100
AcDbSpline
 70
8
 71
3
 72
8
 73
4
 74
0
 40
0
 40
0
 40
0
 40
0
 40
1
 40
1
 40
1
 40
1
 10
95.900248
 20
133.075434
 30
0.0
 10
95.900248
 20
132.915940
 30
0.0
 10
95.675921
 20
132.864220
 30
0.0
 10
95.384837
 20
132.956607
 30
0.0
  0
SPLINE
  5
2bf
100
AcDbEntity
  8
0
 62
7
100
AcDbSpline
 70
8
 71
3
 72
8
 73
4
 74
0
 40
0
 40
0
 40
0
 40
0
 40
1
 40
1
 40
1
 40
1
 10
95.384837
 20
132.956607
 30
0.0
 10
94.996114
 20
133.079982
 30
0.0
 10
94.770676
 20
132.929225
 30
0.0
 10
94.467669
 20
132.343274
 30
0.0
  0
SPLINE
  5
2c0
100
AcDbEntity
  8
0
 62
7
100
AcDbSpline
 70
8
 71
3
 72
8
 73
4
 74
0
 40
0
 40
0
 40
0
 40
0
 40
1
 40
1
 40
1
 40
1
 10
94.467669
 20
132.343274
 30
0.0
 10
93.846020
 20
131.141139
 30
0.0
 10
91.766837
 20
129.464813
 30
0.0
 10
90.288369
 20
128.973747
 30
0.0
  0
SPLINE
  5
2c1
100
AcDbEntity
  8
0
 62
7
100
AcDbSpline
 70
8
 71
3
 72
8
 73
4
 74
0
 40
0
 40
0
 40
0
 40
0
 40
1
 40
1
 40
1
 40
1
 10
90.288369
 20
128.973747
 30
0.0
 10
88.526832
 20
128.388658
 30
0.0
 10
86.636471
 20
128.606936
 30
0.0
 10
85.271192
 20
129.553076
 30
0.0
  0
SPLINE
  5
2c2
100
AcDbEntity
  8
0
 62
7
100
AcDbSpline
 70
8
 71
3
 72
8
 73
4
 74
0
 40
0
 40
0
 40
0
 40
0
 40
1
 40
1
 40
1
 40
1
 10
85.271192
 20
129.553076
 30
0.0
 10
84.708984
 20
129.942685
 30
0.0
 10
84.284262
 20
130.296722
 30
0.0
 10
84.327362
 20
130.339822
 30
0.0
  0
SPLINE
  5
2c3
100
AcDbEntity
  8
0
 62
7
100
AcDbSpline
 70
8
 71
3
 72
8
 73
4
 74
0
 40
0
 40
0
 40
0
 40
0
 40
1
 40
1
 40
1
 40
1
 10
84.327362
 20
130.339822
 30
0.0
 10
84.370463
 20
130.382925
 30
0.0
 10
84.878638
 20
130.308546
 30
0.0
 10
85.456633
 20
130.174540
 30
0.0
  0
SPLINE
  5
2c4
100
AcDbEntity
  8
0
 62
7
100
AcDbSpline
 70
8
 71
3
 72
8
 73
4
 74
0
 40
0
 40
0
 40
0
 40
0
 40
1
 40
1
 40
1
 40
1
 10
85.456633
 20
130.174540
 30
0.0
 10
88.215137
 20
129.534983
 30
0.0
 10
91.079100
 20
130.420827
 30
0.0
 10
92.923685
 20
132.484148
 30
0.0
  0
SPLINE
  5
2c5
100
AcDbEntity
  8
0
 62
7
100
AcDbSpline
 70
8
 71
3
 72
8
 73
4
 74
0
 40
0
 40
0
 40
0
 40
0
 40
1
 40
1
 40
1
 40
1
 10
92.923685
 20
132.484148
 30
0.0
 10
93.912849
 20
133.590607
 30
0.0
 10
93.990954
 20
134.021997
 30
0.0
 10
93.271808
 20
134.406873
 30
0.0
  0
SPLINE
  5
2c6
100
AcDbEntity
  8
0
 62
7
100
AcDbSpline
 70
8
 71
3
 72
8
 73
4
 74
0
 40
0
 40
0
 40
0
 40
0
 40
1
 40
1
 40
1
 40
1
 10
93.271808
 20
134.406873
 30
0.0
 10
92.481762
 20
134.829693
 30
0.0
 10
92.043176
 20
134.740573
 30
0.0
 10
91.129178
 20
133.971493
 30
0.0
  0
SPLINE
  5
2c7
100
AcDbEntity
  8
0
 62
7
100
AcDbSpline
 70
8
 71
3
 72
8
 73
4
 74
0
 40
0
 40
0
 40
0
 40
0
 40
1
 40
1
 40
1
 40
1
 10
91.129178
 20
133.971493
 30
0.0
 10
90.371054
 20
133.333575
 30
0.0
 10
90.261220
 20
133.306958
 30
0.0
 10
90.037396
 20
133.706910
 30
0.0
  0
SPLINE
  5
2c8
100
AcDbEntity
  8
0
 62
7
100
AcDbSpline
 70
8
 71
3
 72
8
 73
4
 74
0
 40
0
 40
0
 40
0
 40
0
 40
1
 40
1
 40
1
 40
1
 10
90.037396
 20
133.706910
 30
0.0
 10
89.724727
 20
134.265617
 30
0.0
 10
89.189507
 20
134.276468
 30
0.0
 10
88.738668
 20
133.733236
 30
0.0
  0
SPLINE
  5
2c9
100
AcDbEntity
  8
0
 62
7
100
AcDbSpline
 70
8
 71
3
 72
8
 73
4
 74
0
 40
0
 40
0
 40
0
 40
0
 40
1
 40
1
 40
1
 40
1
 10
88.738668
 20
133.733236
 30
0.0
 10
88.472354
 20
133.412346
 30
0.0
 10
88.462046
 20
133.201852
 30
0.0
 10
88.694421
 20
132.829758
 30
0.0
  0
SPLINE
  5
2ca
100
AcDbEntity
  8
0
 62
7
100
AcDbSpline
 70
8
 71
3
 72
8
 73
4
 74
0
 40
0
 40
0
 40
0
 40
0
 40
1
 40
1
 40
1
 40
1
 10
88.694421
 20
132.829758
 30
0.0
 10
89.118104
 20
132.151334
 30
0.0
 10
88.495304
 20
131.687602
 30
0.0
 10
87.123177
 20
131.659823
 30
0.0
  0
SPLINE
  5
2cb
100
AcDbEntity
  8
0
 62
7
100
AcDbSpline
 70
8
 71
3
 72
8
 73
4
 74
0
 40
0
 40
0
 40
0
 40
0
 40
1
 40
1
 40
1
 40
1
 10
87.123177
 20
131.659823
 30
0.0
 10
86.131659
 20
131.639741
 30
0.0
 10
85.795022
 20
131.859242
 30
0.0
 10
85.418168
 20
132.771520
 30
0.0
  0
SPLINE
  5
2cc
100
AcDbEntity
  8
0
 62
7
100
AcDbSpline
 70
8
 71
3
 72
8
 73
4
 74
0
 40
0
 40
0
 40
0
 40
0
 40
1
 40
1
 40
1
 40
1
 10
85.418168
 20
132.771520
 30
0.0
 10
85.401102
 20
132.812846
 30
0.0
 10
84.820133
 20
132.719588
 30
0.0
 10
84.127136
 20
132.564285
 30
0.0
  0
SPLINE
  5
2cd
100
AcDbEntity
  8
0
 62
7
100
AcDbSpline
 70
8
 71
3
 72
8
 73
4
 74
0
 40
0
 40
0
 40
0
 40
0
 40
1
 40
1
 40
1
 40
1
 10
84.127136
 20
132.564285
 30
0.0
 10
83.095446
 20
132.333079
 30
0.0
 10
82.657617
 20
132.361932
 30
0.0
 10
81.710779
 20
132.723533
 30
0.0
  0
SPLINE
  5
2ce
100
AcDbEntity
  8
0
 62
7
100
AcDbSpline
 70
8
 71
3
 72
8
 73
4
 74
0
 40
0
 40
0
 40
0
 40
0
 40
1
 40
1
 40
1
 40
1
 10
81.710779
 20
132.723533
 30
0.0
 10
81.074779
 20
132.966428
 30
0.0
 10
80.554415
 20
133.213332
 30
0.0
 10
80.554415
 20
133.272215
 30
0.0
  0
SPLINE
  5
2cf
100
AcDbEntity
  8
0
 62
7
100
AcDbSpline
 70
8
 71
3
 72
8
 73
4
 74
0
 40
0
 40
0
 40
0
 40
0
 40
1
 40
1
 40
1
 40
1
 10
80.554415
 20
133.272215
 30
0.0
 10
80.554415
 20
133.331098
 30
0.0
 10
80.821903
 20
133.761406
 30
0.0
 10
81.148833
 20
134.228456
 30
0.0
  0
SPLINE
  5
2d0
100
AcDbEntity
  8
0
 62
7
100
AcDbSpline
 70
8
 71
3
 72
8
 73
4
 74
0
 40
0
 40
0
 40
0
 40
0
 40
1
 40
1
 40
1
 40
1
 10
81.148833
 20
134.228456
 30
0.0
 10
81.475763
 20
134.695507
 30
0.0
 10
81.774649
 20
135.128479
 30
0.0
 10
81.813024
 20
135.190616
 30
0.0
  0
SPLINE
  5
2d1
100
AcDbEntity
  8
0
 62
7
100
AcDbSpline
 70
8
 71
3
 72
8
 73
4
 74
0
 40
0
 40
0
 40
0
 40
0
 40
1
 40
1
 40
1
 40
1
 10
81.813024
 20
135.190616
 30
0.0
 10
81.851399
 20
135.252754
 30
0.0
 10
82.060164
 20
135.074160
 30
0.0
 10
82.276939
 20
134.793741
 30
0.0
  0
SPLINE
  5
2d2
100
AcDbEntity
  8
0
 62
7
100
AcDbSpline
 70
8
 71
3
 72
8
 73
4
 74
0
 40
0
 40
0
 40
0
 40
0
 40
1
 40
1
 40
1
 40
1
 10
82.276939
 20
134.793741
 30
0.0
 10
82.665382
 20
134.291263
 30
0.0
 10
82.677130
 20
134.291541
 30
0.0
 10
83.089353
 20
134.813056
 30
0.0
  0
SPLINE
  5
2d3
100
AcDbEntity
  8
0
 62
7
100
AcDbSpline
 70
8
 71
3
 72
8
 73
4
 74
0
 40
0
 40
0
 40
0
 40
0
 40
1
 40
1
 40
1
 40
1
 10
83.089353
 20
134.813056
 30
0.0
 10
83.319406
 20
135.104098
 30
0.0
 10
83.850131
 20
136.013423
 30
0.0
 10
84.268747
 20
136.833777
 30
0.0
  0
SPLINE
  5
2d4
100
AcDbEntity
  8
0
 62
7
100
AcDbSpline
 70
8
 71
3
 72
8
 73
4
 74
0
 40
0
 40
0
 40
0
 40
0
 40
1
 40
1
 40
1
 40
1
 10
84.268747
 20
136.833777
 30
0.0
 10
84.848885
 20
137.970673
 30
0.0
 10
85.234174
 20
138.396557
 30
0.0
 10
85.889113
 20
138.624868
 30
0.0
  0
SPLINE
  5
2d5
100
AcDbEntity
  8
0
 62
7
100
AcDbSpline
 70
8
 71
3
 72
8
 73
4
 74
0
 40
0
 40
0
 40
0
 40
0
 40
1
 40
1
 40
1
 40
1
 10
85.889113
 20
138.624868
 30
0.0
 10
87.147257
 20
139.063460
 30
0.0
 10
89.395432
 20
140.683184
 30
0.0
 10
90.280307
 20
141.788557
 30
0.0
  0
SPLINE
  5
2d6
100
AcDbEntity
  8
0
 62
7
100
AcDbSpline
 70
8
 71
3
 72
8
 73
4
 74
0
 40
0
 40
0
 40
0
 40
0
 40
1
 40
1
 40
1
 40
1
 10
90.280307
 20
141.788557
 30
0.0
 10
91.409962
 20
143.199705
 30
0.0
 10
93.823208
 20
147.689620
 30
0.0
 10
93.668588
 20
148.092552
 30
0.0
  0
SPLINE
  5
2d7
100
AcDbEntity
  8
0
 62
7
100
AcDbSpline
 70
8
 71
3
 72
8
 73
4
 74
0
 40
0
 40
0
 40
0
 40
0
 40
1
 40
1
 40
1
 40
1
 10
93.668588
 20
148.092552
 30
0.0
 10
93.470780
 20
148.608034
 30
0.0
 10
91.383903
 20
148.521513
 30
0.0
 10
90.717365
 20
147.970192
 30
0.0
  0
SPLINE
  5
2d8
100
AcDbEntity
  8
0
 62
7
100
AcDbSpline
 70
8
 71
3
 72
8
 73
4
 74
0
 40
0
 40
0
 40
0
 40
0
 40
1
 40
1
 40
1
 40
1
 10
90.717365
 20
147.970192
 30
0.0
 10
89.926380
 20
147.315939
 30
0.0
 10
89.224244
 20
146.160564
 30
0.0
 10
88.510068
 20
144.338056
 30
0.0
  0
SPLINE
  5
2d9
100
AcDbEntity
  8
0
 62
7
100
AcDbSpline
 70
8
 71
3
 72
8
 73
4
 74
0
 40
0
 40
0
 40
0
 40
0
 40
1
 40
1
 40
1
 40
1
 10
88.510068
 20
144.338056
 30
0.0
 10
87.547998
 20
141.882942
 30
0.0
 10
86.942726
 20
141.048698
 30
0.0
 10
85.414030
 20
140.070803
 30
0.0
  0
SPLINE
  5
2da
100
AcDbEntity
  8
0
 62
7
100
AcDbSpline
 70
8
 71
3
 72
8
 73
4
 74
0
 40
0
 40
0
 40
0
 40
0
 40
1
 40
1
 40
1
 40
1
 10
85.414030
 20
140.070803
 30
0.0
 10
84.637269
 20
139.573915
 30
0.0
 10
83.819267
 20
138.814508
 30
0.0
 10
83.596245
 20
138.383230
 30
0.0
  0
SPLINE
  5
2db
100
AcDbEntity
  8
0
 62
7
100
AcDbSpline
 70
8
 71
3
 72
8
 73
4
 74
0
 40
0
 40
0
 40
0
 40
0
 40
1
 40
1
 40
1
 40
1
 10
83.596245
 20
138.383230
 30
0.0
 10
83.373222
 20
137.951953
 30
0.0
 10
82.419791
 20
136.981282
 30
0.0
 10
81.477506
 20
136.226182
 30
0.0
  0
SPLINE
  5
2dc
100
AcDbEntity
  8
0
 62
7
100
AcDbSpline
 70
8
 71
3
 72
8
 73
4
 74
0
 40
0
 40
0
 40
0
 40
0
 40
1
 40
1
 40
1
 40
1
 10
81.477506
 20
136.226182
 30
0.0
 10
80.535222
 20
135.471085
 30
0.0
 10
79.615326
 20
134.516805
 30
0.0
 10
79.433293
 20
134.105563
 30
0.0
  0
SPLINE
  5
2dd
100
AcDbEntity
  8
0
 62
7
100
AcDbSpline
 70
8
 71
3
 72
8
 73
4
 74
0
 40
0
 40
0
 40
0
 40
0
 40
1
 40
1
 40
1
 40
1
 10
79.433293
 20
134.105563
 30
0.0
 10
79.128848
 20
133.417773
 30
0.0
 10
78.692830
 20
133.086980
 30
0.0
 10
78.709292
 20
133.556285
 30
0.0
  0
SPLINE
  5
2de
100
AcDbEntity
  8
0
 62
7
100
AcDbSpline
 70
8
 71
3
 72
8
 73
4
 74
0
 40
0
 40
0
 40
0
 40
0
 40
1
 40
1
 40
1
 40
1
 10
78.709292
 20
133.556285
 30
0.0
 10
78.731703
 20
134.195198
 30
0.0
 10
79.728393
 20
137.337369
 30
0.0
 10
80.157002
 20
138.120348
 30
0.0
  0
SPLINE
  5
2df
100
AcDbEntity
  8
0
 62
7
100
AcDbSpline
 70
8
 71
3
 72
8
 73
4
 74
0
 40
0
 40
0
 40
0
 40
0
 40
1
 40
1
 40
1
 40
1
 10
80.157002
 20
138.120348
 30
0.0
 10
80.435810
 20
138.629670
 30
0.0
 10
80.750577
 20
139.760764
 30
0.0
 10
80.856481
 20
140.633889
 30
0.0
  0
SPLINE
  5
2e0
100
AcDbEntity
  8
0
 62
7
100
AcDbSpline
 70
8
 71
3
 72
8
 73
4
 74
0
 40
0
 40
0
 40
0
 40
0
 40
1
 40
1
 40
1
 40
1
 10
80.856481
 20
140.633889
 30
0.0
 10
80.962384
 20
141.507014
 30
0.0
 10
81.156085
 20
142.780956
 30
0.0
 10
81.286929
 20
143.464873
 30
0.0
  0
LWPOLYLINE
  5
2e1
100
AcDbEntity
  8
0
 62
7
100
AcDbPolyline
 90
3
 70
0
 10
76.896738
 20
126.710154
 30
0.0
 10
76.128084
 20
127.257482
 30
0.0
 10
75.258956
 20
125.545159
 30
0.0
  0
SPLINE
  5
2e2
100
AcDbEntity
  8
0
 62
7
100
AcDbSpline
 70
8
 71
3
 72
8
 73
4
 74
0
 40
0
 40
0
 40
0
 40
0
 40
1
 40
1
 40
1
 40
1
 10
80.817683
 20
144.204828
 30
0.0
 10
79.617678
 20
143.350348
 30
0.0
 10
79.421580
 20
142.930459
 30
0.0
 10
79.324269
 20
141.007087
 30
0.0
  0
SPLINE
  5
2e3
100
AcDbEntity
  8
0
 62
7
100
AcDbSpline
 70
8
 71
3
 72
8
 73
4
 74
0
 40
0
 40
0
 40
0
 40
0
 40
1
 40
1
 40
1
 40
1
 10
79.324269
 20
141.007087
 30
0.0
 10
79.247788
 20
139.495411
 30
0.0
 10
79.054396
 20
138.815678
 30
0.0
 10
78.292105
 20
137.379221
 30
0.0
  0
SPLINE
  5
2e4
100
AcDbEntity
  8
0
 62
7
100
AcDbSpline
 70
8
 71
3
 72
8
 73
4
 74
0
 40
0
 40
0
 40
0
 40
0
 40
1
 40
1
 40
1
 40
1
 10
78.292105
 20
137.379221
 30
0.0
 10
77.690358
 20
136.245290
 30
0.0
 10
77.406185
 20
135.403870
 30
0.0
 10
77.499459
 20
135.032234
 30
0.0
  0
SPLINE
  5
2e5
100
AcDbEntity
  8
0
 62
7
100
AcDbSpline
 70
8
 71
3
 72
8
 73
4
 74
0
 40
0
 40
0
 40
0
 40
0
 40
1
 40
1
 40
1
 40
1
 10
77.499459
 20
135.032234
 30
0.0
 10
77.706963
 20
134.205475
 30
0.0
 10
77.258762
 20
133.206318
 30
0.0
 10
76.012850
 20
131.718217
 30
0.0
  0
SPLINE
  5
2e6
100
AcDbEntity
  8
0
 62
7
100
AcDbSpline
 70
8
 71
3
 72
8
 73
4
 74
0
 40
0
 40
0
 40
0
 40
0
 40
1
 40
1
 40
1
 40
1
 10
76.012850
 20
131.718217
 30
0.0
 10
74.205857
 20
129.559958
 30
0.0
 10
71.994279
 20
128.783035
 30
0.0
 10
69.394343
 20
129.393143
 30
0.0
  0
SPLINE
  5
2e7
100
AcDbEntity
  8
0
 62
7
100
AcDbSpline
 70
8
 71
3
 72
8
 73
4
 74
0
 40
0
 40
0
 40
0
 40
0
 40
1
 40
1
 40
1
 40
1
 10
69.394343
 20
129.393143
 30
0.0
 10
67.487734
 20
129.840553
 30
0.0
 10
67.427409
 20
129.903490
 30
0.0
 10
68.422697
 20
130.406836
 30
0.0
  0
SPLINE
  5
2e8
100
AcDbEntity
  8
0
 62
7
100
AcDbSpline
 70
8
 71
3
 72
8
 73
4
 74
0
 40
0
 40
0
 40
0
 40
0
 40
1
 40
1
 40
1
 40
1
 10
68.422697
 20
130.406836
 30
0.0
 10
68.975071
 20
130.686188
 30
0.0
 10
69.618066
 20
131.413575
 30
0.0
 10
70.201705
 20
132.419333
 30
0.0
  0
SPLINE
  5
2e9
100
AcDbEntity
  8
0
 62
7
100
AcDbSpline
 70
8
 71
3
 72
8
 73
4
 74
0
 40
0
 40
0
 40
0
 40
0
 40
1
 40
1
 40
1
 40
1
 10
70.201705
 20
132.419333
 30
0.0
 10
71.001221
 20
133.797096
 30
0.0
 10
71.117584
 20
134.227887
 30
0.0
 10
71.130800
 20
135.858917
 30
0.0
  0
SPLINE
  5
2ea
100
AcDbEntity
  8
0
 62
7
100
AcDbSpline
 70
8
 71
3
 72
8
 73
4
 74
0
 40
0
 40
0
 40
0
 40
0
 40
1
 40
1
 40
1
 40
1
 10
71.130800
 20
135.858917
 30
0.0
 10
71.152655
 20
138.556032
 30
0.0
 10
70.873937
 20
138.775096
 30
0.0
 10
69.809085
 20
136.897734
 30
0.0
  0
SPLINE
  5
2eb
100
AcDbEntity
  8
0
 62
7
100
AcDbSpline
 70
8
 71
3
 72
8
 73
4
 74
0
 40
0
 40
0
 40
0
 40
0
 40
1
 40
1
 40
1
 40
1
 10
69.809085
 20
136.897734
 30
0.0
 10
69.323823
 20
136.042202
 30
0.0
 10
68.849761
 20
134.985035
 30
0.0
 10
68.755612
 20
134.548473
 30
0.0
  0
SPLINE
  5
2ec
100
AcDbEntity
  8
0
 62
7
100
AcDbSpline
 70
8
 71
3
 72
8
 73
4
 74
0
 40
0
 40
0
 40
0
 40
0
 40
1
 40
1
 40
1
 40
1
 10
68.755612
 20
134.548473
 30
0.0
 10
68.378663
 20
132.800572
 30
0.0
 10
66.637432
 20
130.447431
 30
0.0
 10
65.721005
 20
130.447431
 30
0.0
  0
SPLINE
  5
2ed
100
AcDbEntity
  8
0
 62
7
100
AcDbSpline
 70
8
 71
3
 72
8
 73
4
 74
0
 40
0
 40
0
 40
0
 40
0
 40
1
 40
1
 40
1
 40
1
 10
65.721005
 20
130.447431
 30
0.0
 10
65.269663
 20
130.447431
 30
0.0
 10
64.105896
 20
128.912302
 30
0.0
 10
63.780847
 20
127.888164
 30
0.0
  0
SPLINE
  5
2ee
100
AcDbEntity
  8
0
 62
7
100
AcDbSpline
 70
8
 71
3
 72
8
 73
4
 74
0
 40
0
 40
0
 40
0
 40
0
 40
1
 40
1
 40
1
 40
1
 10
63.780847
 20
127.888164
 30
0.0
 10
63.681705
 20
127.575794
 30
0.0
 10
63.407113
 20
127.160636
 30
0.0
 10
63.170641
 20
126.965596
 30
0.0
  0
SPLINE
  5
2ef
100
AcDbEntity
  8
0
 62
7
100
AcDbSpline
 70
8
 71
3
 72
8
 73
4
 74
0
 40
0
 40
0
 40
0
 40
0
 40
1
 40
1
 40
1
 40
1
 10
63.170641
 20
126.965596
 30
0.0
 10
62.785411
 20
126.647853
 30
0.0
 10
62.772719
 20
126.671078
 30
0.0
 10
63.048597
 20
127.188891
 30
0.0
  0
SPLINE
  5
2f0
100
AcDbEntity
  8
0
 62
7
100
AcDbSpline
 70
8
 71
3
 72
8
 73
4
 74
0
 40
0
 40
0
 40
0
 40
0
 40
1
 40
1
 40
1
 40
1
 10
63.048597
 20
127.188891
 30
0.0
 10
63.527691
 20
128.088133
 30
0.0
 10
63.415855
 20
128.824628
 30
0.0
 10
62.689981
 20
129.550501
 30
0.0
  0
SPLINE
  5
2f1
100
AcDbEntity
  8
0
 62
7
100
AcDbSpline
 70
8
 71
3
 72
8
 73
4
 74
0
 40
0
 40
0
 40
0
 40
0
 40
1
 40
1
 40
1
 40
1
 10
62.689981
 20
129.550501
 30
0.0
 10
61.764257
 20
130.476225
 30
0.0
 10
60.775588
 20
130.320899
 30
0.0
 10
59.978475
 20
129.124514
 30
0.0
  0
SPLINE
  5
2f2
100
AcDbEntity
  8
0
 62
7
100
AcDbSpline
 70
8
 71
3
 72
8
 73
4
 74
0
 40
0
 40
0
 40
0
 40
0
 40
1
 40
1
 40
1
 40
1
 10
59.978475
 20
129.124514
 30
0.0
 10
59.357056
 20
128.191824
 30
0.0
 10
57.880004
 20
127.328388
 30
0.0
 10
56.843742
 20
127.292052
 30
0.0
  0
SPLINE
  5
2f3
100
AcDbEntity
  8
0
 62
7
100
AcDbSpline
 70
8
 71
3
 72
8
 73
4
 74
0
 40
0
 40
0
 40
0
 40
0
 40
1
 40
1
 40
1
 40
1
 10
56.843742
 20
127.292052
 30
0.0
 10
56.535944
 20
127.281257
 30
0.0
 10
55.992427
 20
127.042992
 30
0.0
 10
55.635925
 20
126.762566
 30
0.0
  0
SPLINE
  5
2f4
100
AcDbEntity
  8
0
 62
7
100
AcDbSpline
 70
8
 71
3
 72
8
 73
4
 74
0
 40
0
 40
0
 40
0
 40
0
 40
1
 40
1
 40
1
 40
1
 10
55.635925
 20
126.762566
 30
0.0
 10
55.279420
 20
126.482142
 30
0.0
 10
54.275741
 20
126.012850
 30
0.0
 10
53.405527
 20
125.719694
 30
0.0
  0
SPLINE
  5
2f5
100
AcDbEntity
  8
0
 62
7
100
AcDbSpline
 70
8
 71
3
 72
8
 73
4
 74
0
 40
0
 40
0
 40
0
 40
0
 40
1
 40
1
 40
1
 40
1
 10
53.405527
 20
125.719694
 30
0.0
 10
52.141623
 20
125.293916
 30
0.0
 10
51.519690
 20
125.227890
 30
0.0
 10
50.314082
 20
125.391495
 30
0.0
  0
SPLINE
  5
2f6
100
AcDbEntity
  8
0
 62
7
100
AcDbSpline
 70
8
 71
3
 72
8
 73
4
 74
0
 40
0
 40
0
 40
0
 40
0
 40
1
 40
1
 40
1
 40
1
 10
50.314082
 20
125.391495
 30
0.0
 10
48.201805
 20
125.678136
 30
0.0
 10
48.058835
 20
126.012138
 30
0.0
 10
50.136137
 20
125.807208
 30
0.0
  0
SPLINE
  5
2f7
100
AcDbEntity
  8
0
 62
7
100
AcDbSpline
 70
8
 71
3
 72
8
 73
4
 74
0
 40
0
 40
0
 40
0
 40
0
 40
1
 40
1
 40
1
 40
1
 10
50.136137
 20
125.807208
 30
0.0
 10
51.077180
 20
125.714371
 30
0.0
 10
52.120215
 20
125.742729
 30
0.0
 10
52.453995
 20
125.870227
 30
0.0
  0
SPLINE
  5
2f8
100
AcDbEntity
  8
0
 62
7
100
AcDbSpline
 70
8
 71
3
 72
8
 73
4
 74
0
 40
0
 40
0
 40
0
 40
0
 40
1
 40
1
 40
1
 40
1
 10
52.453995
 20
125.870227
 30
0.0
 10
52.993483
 20
126.076297
 30
0.0
 10
52.868811
 20
126.174362
 30
0.0
 10
51.331217
 20
126.753379
 30
0.0
  0
SPLINE
  5
2f9
100
AcDbEntity
  8
0
 62
7
100
AcDbSpline
 70
8
 71
3
 72
8
 73
4
 74
0
 40
0
 40
0
 40
0
 40
0
 40
1
 40
1
 40
1
 40
1
 10
51.331217
 20
126.753379
 30
0.0
 10
49.644914
 20
127.388398
 30
0.0
 10
48.937407
 20
127.977519
 30
0.0
 10
50.259623
 20
127.645663
 30
0.0
  0
SPLINE
  5
2fa
100
AcDbEntity
  8
0
 62
7
100
AcDbSpline
 70
8
 71
3
 72
8
 73
4
 74
0
 40
0
 40
0
 40
0
 40
0
 40
1
 40
1
 40
1
 40
1
 10
50.259623
 20
127.645663
 30
0.0
 10
50.623425
 20
127.554355
 30
0.0
 10
51.248503
 20
127.569005
 30
0.0
 10
51.648685
 20
127.678217
 30
0.0
  0
SPLINE
  5
2fb
100
AcDbEntity
  8
0
 62
7
100
AcDbSpline
 70
8
 71
3
 72
8
 73
4
 74
0
 40
0
 40
0
 40
0
 40
0
 40
1
 40
1
 40
1
 40
1
 10
51.648685
 20
127.678217
 30
0.0
 10
52.348969
 20
127.869331
 30
0.0
 10
52.331583
 20
127.888442
 30
0.0
 10
51.185665
 20
128.187199
 30
0.0
  0
LWPOLYLINE
  5
2fc
100
AcDbEntity
  8
0
 62
7
100
AcDbPolyline
 90
3
 70
0
 10
81.286929
 20
143.464873
 30
0.0
 10
81.524824
 20
144.708356
 30
0.0
 10
80.817683
 20
144.204828
 30
0.0
  0
SPLINE
  5
2fd
100
AcDbEntity
  8
0
 62
7
100
AcDbSpline
 70
8
 71
3
 72
8
 73
4
 74
0
 40
0
 40
0
 40
0
 40
0
 40
1
 40
1
 40
1
 40
1
 10
51.079024
 20
128.675421
 30
0.0
 10
52.231930
 20
128.864540
 30
0.0
 10
54.736939
 20
129.891091
 30
0.0
 10
56.125832
 20
130.743605
 30
0.0
  0
LWPOLYLINE
  5
2fe
100
AcDbEntity
  8
0
 62
7
100
AcDbPolyline
 90
3
 70
0
 10
51.185665
 20
128.187199
 30
0.0
 10
49.995040
 20
128.497610
 30
0.0
 10
51.079024
 20
128.675421
 30
0.0
  0
SPLINE
  5
2ff
100
AcDbEntity
  8
0
 62
7
100
AcDbSpline
 70
8
 71
3
 72
8
 73
4
 74
0
 40
0
 40
0
 40
0
 40
0
 40
1
 40
1
 40
1
 40
1
 10
56.390416
 20
131.860790
 30
0.0
 10
56.074418
 20
132.191956
 30
0.0
 10
55.692408
 20
132.680445
 30
0.0
 10
55.541505
 20
132.946320
 30
0.0
  0
SPLINE
  5
300
100
AcDbEntity
  8
0
 62
7
100
AcDbSpline
 70
8
 71
3
 72
8
 73
4
 74
0
 40
0
 40
0
 40
0
 40
0
 40
1
 40
1
 40
1
 40
1
 10
55.541505
 20
132.946320
 30
0.0
 10
55.283132
 20
133.401554
 30
0.0
 10
55.218359
 20
133.404504
 30
0.0
 10
54.430165
 20
132.996914
 30
0.0
  0
SPLINE
  5
301
100
AcDbEntity
  8
0
 62
7
100
AcDbSpline
 70
8
 71
3
 72
8
 73
4
 74
0
 40
0
 40
0
 40
0
 40
0
 40
1
 40
1
 40
1
 40
1
 10
54.430165
 20
132.996914
 30
0.0
 10
53.969830
 20
132.758865
 30
0.0
 10
53.390234
 20
132.564098
 30
0.0
 10
53.142171
 20
132.564098
 30
0.0
  0
SPLINE
  5
302
100
AcDbEntity
  8
0
 62
7
100
AcDbSpline
 70
8
 71
3
 72
8
 73
4
 74
0
 40
0
 40
0
 40
0
 40
0
 40
1
 40
1
 40
1
 40
1
 10
53.142171
 20
132.564098
 30
0.0
 10
52.726487
 20
132.564098
 30
0.0
 10
52.728672
 20
132.605558
 30
0.0
 10
53.170040
 20
133.093264
 30
0.0
  0
SPLINE
  5
303
100
AcDbEntity
  8
0
 62
7
100
AcDbSpline
 70
8
 71
3
 72
8
 73
4
 74
0
 40
0
 40
0
 40
0
 40
0
 40
1
 40
1
 40
1
 40
1
 10
53.170040
 20
133.093264
 30
0.0
 10
53.642302
 20
133.615110
 30
0.0
 10
53.632169
 20
133.622431
 30
0.0
 10
52.437596
 20
133.622431
 30
0.0
  0
SPLINE
  5
304
100
AcDbEntity
  8
0
 62
7
100
AcDbSpline
 70
8
 71
3
 72
8
 73
4
 74
0
 40
0
 40
0
 40
0
 40
0
 40
1
 40
1
 40
1
 40
1
 10
52.437596
 20
133.622431
 30
0.0
 10
51.513679
 20
133.622431
 30
0.0
 10
51.028841
 20
133.788552
 30
0.0
 10
50.394198
 20
134.322569
 30
0.0
  0
SPLINE
  5
305
100
AcDbEntity
  8
0
 62
7
100
AcDbSpline
 70
8
 71
3
 72
8
 73
4
 74
0
 40
0
 40
0
 40
0
 40
0
 40
1
 40
1
 40
1
 40
1
 10
50.394198
 20
134.322569
 30
0.0
 10
49.609923
 20
134.982492
 30
0.0
 10
49.536572
 20
134.996708
 30
0.0
 10
49.117128
 20
134.570084
 30
0.0
  0
SPLINE
  5
306
100
AcDbEntity
  8
0
 62
7
100
AcDbSpline
 70
8
 71
3
 72
8
 73
4
 74
0
 40
0
 40
0
 40
0
 40
0
 40
1
 40
1
 40
1
 40
1
 10
49.117128
 20
134.570084
 30
0.0
 10
48.699703
 20
134.145512
 30
0.0
 10
48.710837
 20
134.085719
 30
0.0
 10
49.296746
 20
133.605363
 30
0.0
  0
SPLINE
  5
307
100
AcDbEntity
  8
0
 62
7
100
AcDbSpline
 70
8
 71
3
 72
8
 73
4
 74
0
 40
0
 40
0
 40
0
 40
0
 40
1
 40
1
 40
1
 40
1
 10
49.296746
 20
133.605363
 30
0.0
 10
50.057553
 20
132.981615
 30
0.0
 10
49.561004
 20
132.929006
 30
0.0
 10
48.549970
 20
133.526236
 30
0.0
  0
SPLINE
  5
308
100
AcDbEntity
  8
0
 62
7
100
AcDbSpline
 70
8
 71
3
 72
8
 73
4
 74
0
 40
0
 40
0
 40
0
 40
0
 40
1
 40
1
 40
1
 40
1
 10
48.549970
 20
133.526236
 30
0.0
 10
48.031612
 20
133.832439
 30
0.0
 10
47.535484
 20
133.906398
 30
0.0
 10
46.855502
 20
133.778831
 30
0.0
  0
SPLINE
  5
309
100
AcDbEntity
  8
0
 62
7
100
AcDbSpline
 70
8
 71
3
 72
8
 73
4
 74
0
 40
0
 40
0
 40
0
 40
0
 40
1
 40
1
 40
1
 40
1
 10
46.855502
 20
133.778831
 30
0.0
 10
45.998688
 20
133.618092
 30
0.0
 10
45.893998
 20
133.510308
 30
0.0
 10
45.893998
 20
132.788917
 30
0.0
  0
SPLINE
  5
30a
100
AcDbEntity
  8
0
 62
7
100
AcDbSpline
 70
8
 71
3
 72
8
 73
4
 74
0
 40
0
 40
0
 40
0
 40
0
 40
1
 40
1
 40
1
 40
1
 10
45.893998
 20
132.788917
 30
0.0
 10
45.893998
 20
132.328132
 30
0.0
 10
46.234149
 20
131.475374
 30
0.0
 10
46.683570
 20
130.809458
 30
0.0
  0
SPLINE
  5
30b
100
AcDbEntity
  8
0
 62
7
100
AcDbSpline
 70
8
 71
3
 72
8
 73
4
 74
0
 40
0
 40
0
 40
0
 40
0
 40
1
 40
1
 40
1
 40
1
 10
46.683570
 20
130.809458
 30
0.0
 10
47.406414
 20
129.738406
 30
0.0
 10
47.423184
 20
129.665743
 30
0.0
 10
46.882008
 20
129.949636
 30
0.0
  0
SPLINE
  5
30c
100
AcDbEntity
  8
0
 62
7
100
AcDbSpline
 70
8
 71
3
 72
8
 73
4
 74
0
 40
0
 40
0
 40
0
 40
0
 40
1
 40
1
 40
1
 40
1
 10
46.882008
 20
129.949636
 30
0.0
 10
45.531590
 20
130.658044
 30
0.0
 10
43.985185
 20
131.931971
 30
0.0
 10
43.476442
 20
132.755135
 30
0.0
  0
LWPOLYLINE
  5
30d
100
AcDbEntity
  8
0
 62
7
100
AcDbPolyline
 90
3
 70
0
 10
56.125832
 20
130.743605
 30
0.0
 10
56.964958
 20
131.258667
 30
0.0
 10
56.390416
 20
131.860790
 30
0.0
  0
SPLINE
  5
30e
100
AcDbEntity
  8
0
 62
7
100
AcDbSpline
 70
8
 71
3
 72
8
 73
4
 74
0
 40
0
 40
0
 40
0
 40
0
 40
1
 40
1
 40
1
 40
1
 10
42.098420
 20
133.142736
 30
0.0
 10
41.275119
 20
132.657784
 30
0.0
 10
41.244036
 20
132.659390
 30
0.0
 10
39.808581
 20
133.260933
 30
0.0
  0
SPLINE
  5
30f
100
AcDbEntity
  8
0
 62
7
100
AcDbSpline
 70
8
 71
3
 72
8
 73
4
 74
0
 40
0
 40
0
 40
0
 40
0
 40
1
 40
1
 40
1
 40
1
 10
39.808581
 20
133.260933
 30
0.0
 10
38.990968
 20
133.603563
 30
0.0
 10
38.594887
 20
133.874319
 30
0.0
 10
38.904587
 20
133.878886
 30
0.0
  0
SPLINE
  5
310
100
AcDbEntity
  8
0
 62
7
100
AcDbSpline
 70
8
 71
3
 72
8
 73
4
 74
0
 40
0
 40
0
 40
0
 40
0
 40
1
 40
1
 40
1
 40
1
 10
38.904587
 20
133.878886
 30
0.0
 10
39.713448
 20
133.890819
 30
0.0
 10
39.875777
 20
134.187001
 30
0.0
 10
39.296015
 20
134.593084
 30
0.0
  0
SPLINE
  5
311
100
AcDbEntity
  8
0
 62
7
100
AcDbSpline
 70
8
 71
3
 72
8
 73
4
 74
0
 40
0
 40
0
 40
0
 40
0
 40
1
 40
1
 40
1
 40
1
 10
39.296015
 20
134.593084
 30
0.0
 10
38.738059
 20
134.983892
 30
0.0
 10
37.872469
 20
136.537012
 30
0.0
 10
38.090888
 20
136.755431
 30
0.0
  0
SPLINE
  5
312
100
AcDbEntity
  8
0
 62
7
100
AcDbSpline
 70
8
 71
3
 72
8
 73
4
 74
0
 40
0
 40
0
 40
0
 40
0
 40
1
 40
1
 40
1
 40
1
 10
38.090888
 20
136.755431
 30
0.0
 10
38.166064
 20
136.830607
 30
0.0
 10
38.853491
 20
136.632685
 30
0.0
 10
39.618502
 20
136.315606
 30
0.0
  0
SPLINE
  5
313
100
AcDbEntity
  8
0
 62
7
100
AcDbSpline
 70
8
 71
3
 72
8
 73
4
 74
0
 40
0
 40
0
 40
0
 40
0
 40
1
 40
1
 40
1
 40
1
 10
39.618502
 20
136.315606
 30
0.0
 10
40.383513
 20
135.998527
 30
0.0
 10
41.081166
 20
135.739098
 30
0.0
 10
41.168841
 20
135.739098
 30
0.0
  0
SPLINE
  5
314
100
AcDbEntity
  8
0
 62
7
100
AcDbSpline
 70
8
 71
3
 72
8
 73
4
 74
0
 40
0
 40
0
 40
0
 40
0
 40
1
 40
1
 40
1
 40
1
 10
41.168841
 20
135.739098
 30
0.0
 10
41.256516
 20
135.739098
 30
0.0
 10
41.315862
 20
136.211511
 30
0.0
 10
41.300723
 20
136.788906
 30
0.0
  0
SPLINE
  5
315
100
AcDbEntity
  8
0
 62
7
100
AcDbSpline
 70
8
 71
3
 72
8
 73
4
 74
0
 40
0
 40
0
 40
0
 40
0
 40
1
 40
1
 40
1
 40
1
 10
41.300723
 20
136.788906
 30
0.0
 10
41.261578
 20
138.281849
 30
0.0
 10
41.633201
 20
138.539397
 30
0.0
 10
42.817944
 20
137.840381
 30
0.0
  0
SPLINE
  5
316
100
AcDbEntity
  8
0
 62
7
100
AcDbSpline
 70
8
 71
3
 72
8
 73
4
 74
0
 40
0
 40
0
 40
0
 40
0
 40
1
 40
1
 40
1
 40
1
 10
42.817944
 20
137.840381
 30
0.0
 10
43.351709
 20
137.525450
 30
0.0
 10
43.994290
 20
137.331551
 30
0.0
 10
44.245900
 20
137.409489
 30
0.0
  0
SPLINE
  5
317
100
AcDbEntity
  8
0
 62
7
100
AcDbSpline
 70
8
 71
3
 72
8
 73
4
 74
0
 40
0
 40
0
 40
0
 40
0
 40
1
 40
1
 40
1
 40
1
 10
44.245900
 20
137.409489
 30
0.0
 10
44.830357
 20
137.590527
 30
0.0
 10
48.112111
 20
138.949668
 30
0.0
 10
48.237965
 20
139.062807
 30
0.0
  0
SPLINE
  5
318
100
AcDbEntity
  8
0
 62
7
100
AcDbSpline
 70
8
 71
3
 72
8
 73
4
 74
0
 40
0
 40
0
 40
0
 40
0
 40
1
 40
1
 40
1
 40
1
 10
48.237965
 20
139.062807
 30
0.0
 10
48.290221
 20
139.109781
 30
0.0
 10
48.101515
 20
139.482491
 30
0.0
 10
47.818619
 20
139.891050
 30
0.0
  0
SPLINE
  5
319
100
AcDbEntity
  8
0
 62
7
100
AcDbSpline
 70
8
 71
3
 72
8
 73
4
 74
0
 40
0
 40
0
 40
0
 40
0
 40
1
 40
1
 40
1
 40
1
 10
47.818619
 20
139.891050
 30
0.0
 10
47.535722
 20
140.299612
 30
0.0
 10
47.038961
 20
141.193036
 30
0.0
 10
46.714704
 20
141.876436
 30
0.0
  0
SPLINE
  5
31a
100
AcDbEntity
  8
0
 62
7
100
AcDbSpline
 70
8
 71
3
 72
8
 73
4
 74
0
 40
0
 40
0
 40
0
 40
0
 40
1
 40
1
 40
1
 40
1
 10
46.714704
 20
141.876436
 30
0.0
 10
46.042149
 20
143.293909
 30
0.0
 10
44.248205
 20
145.154957
 30
0.0
 10
43.332966
 20
145.384666
 30
0.0
  0
SPLINE
  5
31b
100
AcDbEntity
  8
0
 62
7
100
AcDbSpline
 70
8
 71
3
 72
8
 73
4
 74
0
 40
0
 40
0
 40
0
 40
0
 40
1
 40
1
 40
1
 40
1
 10
43.332966
 20
145.384666
 30
0.0
 10
42.937729
 20
145.483866
 30
0.0
 10
42.264349
 20
145.299557
 30
0.0
 10
41.462531
 20
144.872715
 30
0.0
  0
SPLINE
  5
31c
100
AcDbEntity
  8
0
 62
7
100
AcDbSpline
 70
8
 71
3
 72
8
 73
4
 74
0
 40
0
 40
0
 40
0
 40
0
 40
1
 40
1
 40
1
 40
1
 10
41.462531
 20
144.872715
 30
0.0
 10
40.773456
 20
144.505892
 30
0.0
 10
40.072228
 20
144.205764
 30
0.0
 10
39.904247
 20
144.205764
 30
0.0
  0
SPLINE
  5
31d
100
AcDbEntity
  8
0
 62
7
100
AcDbSpline
 70
8
 71
3
 72
8
 73
4
 74
0
 40
0
 40
0
 40
0
 40
0
 40
1
 40
1
 40
1
 40
1
 10
39.904247
 20
144.205764
 30
0.0
 10
39.736265
 20
144.205764
 30
0.0
 10
38.723287
 20
143.848984
 30
0.0
 10
37.653182
 20
143.412922
 30
0.0
  0
SPLINE
  5
31e
100
AcDbEntity
  8
0
 62
7
100
AcDbSpline
 70
8
 71
3
 72
8
 73
4
 74
0
 40
0
 40
0
 40
0
 40
0
 40
1
 40
1
 40
1
 40
1
 10
37.653182
 20
143.412922
 30
0.0
 10
36.583080
 20
142.976857
 30
0.0
 10
35.586461
 20
142.619669
 30
0.0
 10
35.438477
 20
142.619172
 30
0.0
  0
SPLINE
  5
31f
100
AcDbEntity
  8
0
 62
7
100
AcDbSpline
 70
8
 71
3
 72
8
 73
4
 74
0
 40
0
 40
0
 40
0
 40
0
 40
1
 40
1
 40
1
 40
1
 10
35.438477
 20
142.619172
 30
0.0
 10
35.290493
 20
142.618643
 30
0.0
 10
35.156926
 20
143.094514
 30
0.0
 10
35.141662
 20
143.676598
 30
0.0
  0
SPLINE
  5
320
100
AcDbEntity
  8
0
 62
7
100
AcDbSpline
 70
8
 71
3
 72
8
 73
4
 74
0
 40
0
 40
0
 40
0
 40
0
 40
1
 40
1
 40
1
 40
1
 10
35.141662
 20
143.676598
 30
0.0
 10
35.123617
 20
144.364652
 30
0.0
 10
35.230255
 20
144.734931
 30
0.0
 10
35.446441
 20
144.734931
 30
0.0
  0
SPLINE
  5
321
100
AcDbEntity
  8
0
 62
7
100
AcDbSpline
 70
8
 71
3
 72
8
 73
4
 74
0
 40
0
 40
0
 40
0
 40
0
 40
1
 40
1
 40
1
 40
1
 10
35.446441
 20
144.734931
 30
0.0
 10
35.629334
 20
144.734931
 30
0.0
 10
35.968736
 20
145.024549
 30
0.0
 10
36.200670
 20
145.378525
 30
0.0
  0
SPLINE
  5
322
100
AcDbEntity
  8
0
 62
7
100
AcDbSpline
 70
8
 71
3
 72
8
 73
4
 74
0
 40
0
 40
0
 40
0
 40
0
 40
1
 40
1
 40
1
 40
1
 10
36.200670
 20
145.378525
 30
0.0
 10
36.947533
 20
146.518381
 30
0.0
 10
39.451317
 20
147.978704
 30
0.0
 10
40.896945
 20
148.117610
 30
0.0
  0
SPLINE
  5
323
100
AcDbEntity
  8
0
 62
7
100
AcDbSpline
 70
8
 71
3
 72
8
 73
4
 74
0
 40
0
 40
0
 40
0
 40
0
 40
1
 40
1
 40
1
 40
1
 10
40.896945
 20
148.117610
 30
0.0
 10
42.015103
 20
148.225050
 30
0.0
 10
42.181563
 20
148.312915
 30
0.0
 10
42.050324
 20
148.726414
 30
0.0
  0
SPLINE
  5
324
100
AcDbEntity
  8
0
 62
7
100
AcDbSpline
 70
8
 71
3
 72
8
 73
4
 74
0
 40
0
 40
0
 40
0
 40
0
 40
1
 40
1
 40
1
 40
1
 10
42.050324
 20
148.726414
 30
0.0
 10
41.932429
 20
149.097870
 30
0.0
 10
42.391494
 20
148.929466
 30
0.0
 10
44.034829
 20
147.998413
 30
0.0
  0
SPLINE
  5
325
100
AcDbEntity
  8
0
 62
7
100
AcDbSpline
 70
8
 71
3
 72
8
 73
4
 74
0
 40
0
 40
0
 40
0
 40
0
 40
1
 40
1
 40
1
 40
1
 10
44.034829
 20
147.998413
 30
0.0
 10
46.277900
 20
146.727569
 30
0.0
 10
47.555941
 20
145.435061
 30
0.0
 10
49.452998
 20
142.518900
 30
0.0
  0
SPLINE
  5
326
100
AcDbEntity
  8
0
 62
7
100
AcDbSpline
 70
8
 71
3
 72
8
 73
4
 74
0
 40
0
 40
0
 40
0
 40
0
 40
1
 40
1
 40
1
 40
1
 10
49.452998
 20
142.518900
 30
0.0
 10
50.009213
 20
141.663886
 30
0.0
 10
50.770999
 20
140.711386
 30
0.0
 10
51.145853
 20
140.402233
 30
0.0
  0
SPLINE
  5
327
100
AcDbEntity
  8
0
 62
7
100
AcDbSpline
 70
8
 71
3
 72
8
 73
4
 74
0
 40
0
 40
0
 40
0
 40
0
 40
1
 40
1
 40
1
 40
1
 10
51.145853
 20
140.402233
 30
0.0
 10
52.061605
 20
139.646988
 30
0.0
 10
52.856619
 20
138.846788
 30
0.0
 10
54.837415
 20
136.686594
 30
0.0
  0
SPLINE
  5
328
100
AcDbEntity
  8
0
 62
7
100
AcDbSpline
 70
8
 71
3
 72
8
 73
4
 74
0
 40
0
 40
0
 40
0
 40
0
 40
1
 40
1
 40
1
 40
1
 10
54.837415
 20
136.686594
 30
0.0
 10
55.754471
 20
135.686482
 30
0.0
 10
57.287374
 20
134.283215
 30
0.0
 10
58.243867
 20
133.568223
 30
0.0
  0
SPLINE
  5
329
100
AcDbEntity
  8
0
 62
7
100
AcDbSpline
 70
8
 71
3
 72
8
 73
4
 74
0
 40
0
 40
0
 40
0
 40
0
 40
1
 40
1
 40
1
 40
1
 10
58.243867
 20
133.568223
 30
0.0
 10
59.916692
 20
132.317763
 30
0.0
 10
60.710665
 20
132.113898
 30
0.0
 10
60.710665
 20
132.934840
 30
0.0
  0
SPLINE
  5
32a
100
AcDbEntity
  8
0
 62
7
100
AcDbSpline
 70
8
 71
3
 72
8
 73
4
 74
0
 40
0
 40
0
 40
0
 40
0
 40
1
 40
1
 40
1
 40
1
 10
60.710665
 20
132.934840
 30
0.0
 10
60.710665
 20
133.147882
 30
0.0
 10
60.944482
 20
133.396400
 30
0.0
 10
61.230259
 20
133.487102
 30
0.0
  0
SPLINE
  5
32b
100
AcDbEntity
  8
0
 62
7
100
AcDbSpline
 70
8
 71
3
 72
8
 73
4
 74
0
 40
0
 40
0
 40
0
 40
0
 40
1
 40
1
 40
1
 40
1
 10
61.230259
 20
133.487102
 30
0.0
 10
61.651925
 20
133.620933
 30
0.0
 10
61.718939
 20
133.806578
 30
0.0
 10
61.585832
 20
134.472114
 30
0.0
  0
SPLINE
  5
32c
100
AcDbEntity
  8
0
 62
7
100
AcDbSpline
 70
8
 71
3
 72
8
 73
4
 74
0
 40
0
 40
0
 40
0
 40
0
 40
1
 40
1
 40
1
 40
1
 10
61.585832
 20
134.472114
 30
0.0
 10
61.468852
 20
135.057012
 30
0.0
 10
61.509540
 20
135.237993
 30
0.0
 10
61.727696
 20
135.103164
 30
0.0
  0
SPLINE
  5
32d
100
AcDbEntity
  8
0
 62
7
100
AcDbSpline
 70
8
 71
3
 72
8
 73
4
 74
0
 40
0
 40
0
 40
0
 40
0
 40
1
 40
1
 40
1
 40
1
 10
61.727696
 20
135.103164
 30
0.0
 10
61.895934
 20
134.999188
 30
0.0
 10
62.033581
 20
134.778832
 30
0.0
 10
62.033581
 20
134.613481
 30
0.0
  0
SPLINE
  5
32e
100
AcDbEntity
  8
0
 62
7
100
AcDbSpline
 70
8
 71
3
 72
8
 73
4
 74
0
 40
0
 40
0
 40
0
 40
0
 40
1
 40
1
 40
1
 40
1
 10
62.033581
 20
134.613481
 30
0.0
 10
62.033581
 20
134.206234
 30
0.0
 10
63.376847
 20
132.828681
 30
0.0
 10
63.773955
 20
132.828681
 30
0.0
  0
SPLINE
  5
32f
100
AcDbEntity
  8
0
 62
7
100
AcDbSpline
 70
8
 71
3
 72
8
 73
4
 74
0
 40
0
 40
0
 40
0
 40
0
 40
1
 40
1
 40
1
 40
1
 10
63.773955
 20
132.828681
 30
0.0
 10
64.134630
 20
132.828681
 30
0.0
 10
64.453270
 20
135.591272
 30
0.0
 10
64.510817
 20
139.217247
 30
0.0
  0
SPLINE
  5
330
100
AcDbEntity
  8
0
 62
7
100
AcDbSpline
 70
8
 71
3
 72
8
 73
4
 74
0
 40
0
 40
0
 40
0
 40
0
 40
1
 40
1
 40
1
 40
1
 10
64.510817
 20
139.217247
 30
0.0
 10
64.540059
 20
141.059622
 30
0.0
 10
64.457019
 20
141.604296
 30
0.0
 10
64.084102
 20
142.016205
 30
0.0
  0
SPLINE
  5
331
100
AcDbEntity
  8
0
 62
7
100
AcDbSpline
 70
8
 71
3
 72
8
 73
4
 74
0
 40
0
 40
0
 40
0
 40
0
 40
1
 40
1
 40
1
 40
1
 10
64.084102
 20
142.016205
 30
0.0
 10
63.829441
 20
142.297494
 30
0.0
 10
63.621081
 20
142.670488
 30
0.0
 10
63.621081
 20
142.845081
 30
0.0
  0
SPLINE
  5
332
100
AcDbEntity
  8
0
 62
7
100
AcDbSpline
 70
8
 71
3
 72
8
 73
4
 74
0
 40
0
 40
0
 40
0
 40
0
 40
1
 40
1
 40
1
 40
1
 10
63.621081
 20
142.845081
 30
0.0
 10
63.621081
 20
143.019672
 30
0.0
 10
63.256099
 20
143.885550
 30
0.0
 10
62.810006
 20
144.769250
 30
0.0
  0
SPLINE
  5
333
100
AcDbEntity
  8
0
 62
7
100
AcDbSpline
 70
8
 71
3
 72
8
 73
4
 74
0
 40
0
 40
0
 40
0
 40
0
 40
1
 40
1
 40
1
 40
1
 10
62.810006
 20
144.769250
 30
0.0
 10
62.363916
 20
145.652950
 30
0.0
 10
62.062262
 20
146.439305
 30
0.0
 10
62.139663
 20
146.516706
 30
0.0
  0
SPLINE
  5
334
100
AcDbEntity
  8
0
 62
7
100
AcDbSpline
 70
8
 71
3
 72
8
 73
4
 74
0
 40
0
 40
0
 40
0
 40
0
 40
1
 40
1
 40
1
 40
1
 10
62.139663
 20
146.516706
 30
0.0
 10
62.217065
 20
146.594108
 30
0.0
 10
62.714336
 20
146.276428
 30
0.0
 10
63.244711
 20
145.810751
 30
0.0
  0
SPLINE
  5
335
100
AcDbEntity
  8
0
 62
7
100
AcDbSpline
 70
8
 71
3
 72
8
 73
4
 74
0
 40
0
 40
0
 40
0
 40
0
 40
1
 40
1
 40
1
 40
1
 10
63.244711
 20
145.810751
 30
0.0
 10
63.775090
 20
145.345076
 30
0.0
 10
64.493463
 20
144.855927
 30
0.0
 10
64.841099
 20
144.723755
 30
0.0
  0
SPLINE
  5
336
100
AcDbEntity
  8
0
 62
7
100
AcDbSpline
 70
8
 71
3
 72
8
 73
4
 74
0
 40
0
 40
0
 40
0
 40
0
 40
1
 40
1
 40
1
 40
1
 10
64.841099
 20
144.723755
 30
0.0
 10
65.312806
 20
144.544412
 30
0.0
 10
65.473165
 20
144.282890
 30
0.0
 10
65.473165
 20
143.692941
 30
0.0
  0
SPLINE
  5
337
100
AcDbEntity
  8
0
 62
7
100
AcDbSpline
 70
8
 71
3
 72
8
 73
4
 74
0
 40
0
 40
0
 40
0
 40
0
 40
1
 40
1
 40
1
 40
1
 10
65.473165
 20
143.692941
 30
0.0
 10
65.473165
 20
143.258164
 30
0.0
 10
65.724749
 20
142.272951
 30
0.0
 10
66.032240
 20
141.503580
 30
0.0
  0
SPLINE
  5
338
100
AcDbEntity
  8
0
 62
7
100
AcDbSpline
 70
8
 71
3
 72
8
 73
4
 74
0
 40
0
 40
0
 40
0
 40
0
 40
1
 40
1
 40
1
 40
1
 10
66.032240
 20
141.503580
 30
0.0
 10
66.857102
 20
139.439695
 30
0.0
 10
66.984253
 20
136.567508
 30
0.0
 10
66.313770
 20
135.144121
 30
0.0
  0
SPLINE
  5
339
100
AcDbEntity
  8
0
 62
7
100
AcDbSpline
 70
8
 71
3
 72
8
 73
4
 74
0
 40
0
 40
0
 40
0
 40
0
 40
1
 40
1
 40
1
 40
1
 10
66.313770
 20
135.144121
 30
0.0
 10
66.022358
 20
134.525472
 30
0.0
 10
65.700259
 20
133.602587
 30
0.0
 10
65.597995
 20
133.093264
 30
0.0
  0
SPLINE
  5
33a
100
AcDbEntity
  8
0
 62
7
100
AcDbSpline
 70
8
 71
3
 72
8
 73
4
 74
0
 40
0
 40
0
 40
0
 40
0
 40
1
 40
1
 40
1
 40
1
 10
65.597995
 20
133.093264
 30
0.0
 10
65.495731
 20
132.583941
 30
0.0
 10
65.296497
 20
132.023609
 30
0.0
 10
65.155252
 20
131.848082
 30
0.0
  0
SPLINE
  5
33b
100
AcDbEntity
  8
0
 62
7
100
AcDbSpline
 70
8
 71
3
 72
8
 73
4
 74
0
 40
0
 40
0
 40
0
 40
0
 40
1
 40
1
 40
1
 40
1
 10
65.155252
 20
131.848082
 30
0.0
 10
64.847698
 20
131.465884
 30
0.0
 10
65.097652
 20
130.976598
 30
0.0
 10
65.600453
 20
130.976598
 30
0.0
  0
SPLINE
  5
33c
100
AcDbEntity
  8
0
 62
7
100
AcDbSpline
 70
8
 71
3
 72
8
 73
4
 74
0
 40
0
 40
0
 40
0
 40
0
 40
1
 40
1
 40
1
 40
1
 10
65.600453
 20
130.976598
 30
0.0
 10
66.275111
 20
130.976598
 30
0.0
 10
67.737874
 20
133.039263
 30
0.0
 10
68.262352
 20
134.730180
 30
0.0
  0
SPLINE
  5
33d
100
AcDbEntity
  8
0
 62
7
100
AcDbSpline
 70
8
 71
3
 72
8
 73
4
 74
0
 40
0
 40
0
 40
0
 40
0
 40
1
 40
1
 40
1
 40
1
 10
68.262352
 20
134.730180
 30
0.0
 10
69.010419
 20
137.141958
 30
0.0
 10
68.952089
 20
140.790041
 30
0.0
 10
68.123533
 20
143.412014
 30
0.0
  0
SPLINE
  5
33e
100
AcDbEntity
  8
0
 62
7
100
AcDbSpline
 70
8
 71
3
 72
8
 73
4
 74
0
 40
0
 40
0
 40
0
 40
0
 40
1
 40
1
 40
1
 40
1
 10
68.123533
 20
143.412014
 30
0.0
 10
67.495222
 20
145.400316
 30
0.0
 10
67.062443
 20
150.027283
 30
0.0
 10
67.504908
 20
150.025936
 30
0.0
  0
SPLINE
  5
33f
100
AcDbEntity
  8
0
 62
7
100
AcDbSpline
 70
8
 71
3
 72
8
 73
4
 74
0
 40
0
 40
0
 40
0
 40
0
 40
1
 40
1
 40
1
 40
1
 10
67.504908
 20
150.025936
 30
0.0
 10
67.741819
 20
150.025142
 30
0.0
 10
69.700643
 20
145.535221
 30
0.0
 10
69.715875
 20
144.957993
 30
0.0
  0
SPLINE
  5
340
100
AcDbEntity
  8
0
 62
7
100
AcDbSpline
 70
8
 71
3
 72
8
 73
4
 74
0
 40
0
 40
0
 40
0
 40
0
 40
1
 40
1
 40
1
 40
1
 10
69.715875
 20
144.957993
 30
0.0
 10
69.721034
 20
144.762548
 30
0.0
 10
69.875829
 20
144.331420
 30
0.0
 10
70.059870
 20
143.999929
 30
0.0
  0
SPLINE
  5
341
100
AcDbEntity
  8
0
 62
7
100
AcDbSpline
 70
8
 71
3
 72
8
 73
4
 74
0
 40
0
 40
0
 40
0
 40
0
 40
1
 40
1
 40
1
 40
1
 10
70.059870
 20
143.999929
 30
0.0
 10
70.392602
 20
143.400624
 30
0.0
 10
70.397656
 20
143.402865
 30
0.0
 10
70.954895
 20
144.396804
 30
0.0
  0
SPLINE
  5
342
100
AcDbEntity
  8
0
 62
7
100
AcDbSpline
 70
8
 71
3
 72
8
 73
4
 74
0
 40
0
 40
0
 40
0
 40
0
 40
1
 40
1
 40
1
 40
1
 10
70.954895
 20
144.396804
 30
0.0
 10
71.263116
 20
144.946576
 30
0.0
 10
71.702065
 20
146.383558
 30
0.0
 10
71.930337
 20
147.590097
 30
0.0
  0
SPLINE
  5
343
100
AcDbEntity
  8
0
 62
7
100
AcDbSpline
 70
8
 71
3
 72
8
 73
4
 74
0
 40
0
 40
0
 40
0
 40
0
 40
1
 40
1
 40
1
 40
1
 10
71.930337
 20
147.590097
 30
0.0
 10
72.158609
 20
148.796637
 30
0.0
 10
72.461419
 20
150.000637
 30
0.0
 10
72.603252
 20
150.265651
 30
0.0
  0
SPLINE
  5
344
100
AcDbEntity
  8
0
 62
7
100
AcDbSpline
 70
8
 71
3
 72
8
 73
4
 74
0
 40
0
 40
0
 40
0
 40
0
 40
1
 40
1
 40
1
 40
1
 10
72.603252
 20
150.265651
 30
0.0
 10
72.772196
 20
150.581328
 30
0.0
 10
72.765632
 20
151.239080
 30
0.0
 10
72.584202
 20
152.172982
 30
0.0
  0
SPLINE
  5
345
100
AcDbEntity
  8
0
 62
7
100
AcDbSpline
 70
8
 71
3
 72
8
 73
4
 74
0
 40
0
 40
0
 40
0
 40
0
 40
1
 40
1
 40
1
 40
1
 10
72.584202
 20
152.172982
 30
0.0
 10
72.056109
 20
154.891460
 30
0.0
 10
72.120345
 20
155.354885
 30
0.0
 10
73.119054
 20
156.031819
 30
0.0
  0
LWPOLYLINE
  5
346
100
AcDbEntity
  8
0
 62
7
100
AcDbPolyline
 90
3
 70
0
 10
43.476442
 20
132.755135
 30
0.0
 10
42.933051
 20
133.634358
 30
0.0
 10
42.098420
 20
133.142736
 30
0.0
  0
SPLINE
  5
347
100
AcDbEntity
  8
0
 62
7
100
AcDbSpline
 70
8
 71
3
 72
8
 73
4
 74
0
 40
0
 40
0
 40
0
 40
0
 40
1
 40
1
 40
1
 40
1
 10
73.302363
 20
156.641181
 30
0.0
 10
72.207580
 20
156.641181
 30
0.0
 10
70.223999
 20
157.202018
 30
0.0
 10
70.386850
 20
157.465514
 30
0.0
  0
SPLINE
  5
348
100
AcDbEntity
  8
0
 62
7
100
AcDbSpline
 70
8
 71
3
 72
8
 73
4
 74
0
 40
0
 40
0
 40
0
 40
0
 40
1
 40
1
 40
1
 40
1
 10
70.386850
 20
157.465514
 30
0.0
 10
70.466400
 20
157.594213
 30
0.0
 10
70.887550
 20
157.699514
 30
0.0
 10
71.322753
 20
157.699514
 30
0.0
  0
SPLINE
  5
349
100
AcDbEntity
  8
0
 62
7
100
AcDbSpline
 70
8
 71
3
 72
8
 73
4
 74
0
 40
0
 40
0
 40
0
 40
0
 40
1
 40
1
 40
1
 40
1
 10
71.322753
 20
157.699514
 30
0.0
 10
72.829161
 20
157.699514
 30
0.0
 10
73.939831
 20
158.581992
 30
0.0
 10
73.939831
 20
159.778901
 30
0.0
  0
SPLINE
  5
34a
100
AcDbEntity
  8
0
 62
7
100
AcDbSpline
 70
8
 71
3
 72
8
 73
4
 74
0
 40
0
 40
0
 40
0
 40
0
 40
1
 40
1
 40
1
 40
1
 10
73.939831
 20
159.778901
 30
0.0
 10
73.939831
 20
160.025636
 30
0.0
 10
74.267253
 20
160.537919
 30
0.0
 10
74.667435
 20
160.917308
 30
0.0
  0
SPLINE
  5
34b
100
AcDbEntity
  8
0
 62
7
100
AcDbSpline
 70
8
 71
3
 72
8
 73
4
 74
0
 40
0
 40
0
 40
0
 40
0
 40
1
 40
1
 40
1
 40
1
 10
74.667435
 20
160.917308
 30
0.0
 10
75.067618
 20
161.296697
 30
0.0
 10
75.556367
 20
161.807813
 30
0.0
 10
75.753542
 20
162.053124
 30
0.0
  0
SPLINE
  5
34c
100
AcDbEntity
  8
0
 62
7
100
AcDbSpline
 70
8
 71
3
 72
8
 73
4
 74
0
 40
0
 40
0
 40
0
 40
0
 40
1
 40
1
 40
1
 40
1
 10
75.753542
 20
162.053124
 30
0.0
 10
76.030304
 20
162.397448
 30
0.0
 10
76.346883
 20
162.459466
 30
0.0
 10
77.142022
 20
162.325129
 30
0.0
  0
SPLINE
  5
34d
100
AcDbEntity
  8
0
 62
7
100
AcDbSpline
 70
8
 71
3
 72
8
 73
4
 74
0
 40
0
 40
0
 40
0
 40
0
 40
1
 40
1
 40
1
 40
1
 10
77.142022
 20
162.325129
 30
0.0
 10
78.389189
 20
162.114420
 30
0.0
 10
78.680622
 20
162.559677
 30
0.0
 10
78.143915
 20
163.855829
 30
0.0
  0
SPLINE
  5
34e
100
AcDbEntity
  8
0
 62
7
100
AcDbSpline
 70
8
 71
3
 72
8
 73
4
 74
0
 40
0
 40
0
 40
0
 40
0
 40
1
 40
1
 40
1
 40
1
 10
78.143915
 20
163.855829
 30
0.0
 10
77.545208
 20
165.301705
 30
0.0
 10
75.806612
 20
166.755606
 30
0.0
 10
73.076366
 20
168.093565
 30
0.0
  0
SPLINE
  5
34f
100
AcDbEntity
  8
0
 62
7
100
AcDbSpline
 70
8
 71
3
 72
8
 73
4
 74
0
 40
0
 40
0
 40
0
 40
0
 40
1
 40
1
 40
1
 40
1
 10
73.076366
 20
168.093565
 30
0.0
 10
71.176224
 20
169.024731
 30
0.0
 10
70.337458
 20
169.596940
 30
0.0
 10
69.904502
 20
170.257422
 30
0.0
  0
SPLINE
  5
350
100
AcDbEntity
  8
0
 62
7
100
AcDbSpline
 70
8
 71
3
 72
8
 73
4
 74
0
 40
0
 40
0
 40
0
 40
0
 40
1
 40
1
 40
1
 40
1
 10
69.904502
 20
170.257422
 30
0.0
 10
69.580768
 20
170.751283
 30
0.0
 10
68.935238
 20
171.336875
 30
0.0
 10
68.469986
 20
171.558736
 30
0.0
  0
SPLINE
  5
351
100
AcDbEntity
  8
0
 62
7
100
AcDbSpline
 70
8
 71
3
 72
8
 73
4
 74
0
 40
0
 40
0
 40
0
 40
0
 40
1
 40
1
 40
1
 40
1
 10
68.469986
 20
171.558736
 30
0.0
 10
68.004735
 20
171.780600
 30
0.0
 10
67.350235
 20
172.332512
 30
0.0
 10
67.015543
 20
172.785209
 30
0.0
  0
SPLINE
  5
352
100
AcDbEntity
  8
0
 62
7
100
AcDbSpline
 70
8
 71
3
 72
8
 73
4
 74
0
 40
0
 40
0
 40
0
 40
0
 40
1
 40
1
 40
1
 40
1
 10
67.015543
 20
172.785209
 30
0.0
 10
66.680850
 20
173.237906
 30
0.0
 10
65.988536
 20
173.858079
 30
0.0
 10
65.477067
 20
174.163371
 30
0.0
  0
SPLINE
  5
353
100
AcDbEntity
  8
0
 62
7
100
AcDbSpline
 70
8
 71
3
 72
8
 73
4
 74
0
 40
0
 40
0
 40
0
 40
0
 40
1
 40
1
 40
1
 40
1
 10
65.477067
 20
174.163371
 30
0.0
 10
64.965599
 20
174.468663
 30
0.0
 10
64.291858
 20
174.946207
 30
0.0
 10
63.979867
 20
175.224578
 30
0.0
  0
SPLINE
  5
354
100
AcDbEntity
  8
0
 62
7
100
AcDbSpline
 70
8
 71
3
 72
8
 73
4
 74
0
 40
0
 40
0
 40
0
 40
0
 40
1
 40
1
 40
1
 40
1
 10
63.979867
 20
175.224578
 30
0.0
 10
63.497322
 20
175.655123
 30
0.0
 10
63.331606
 20
175.680119
 30
0.0
 10
62.870188
 20
175.391958
 30
0.0
  0
SPLINE
  5
355
100
AcDbEntity
  8
0
 62
7
100
AcDbSpline
 70
8
 71
3
 72
8
 73
4
 74
0
 40
0
 40
0
 40
0
 40
0
 40
1
 40
1
 40
1
 40
1
 10
62.870188
 20
175.391958
 30
0.0
 10
62.407856
 20
175.103226
 30
0.0
 10
62.242181
 20
175.129608
 30
0.0
 10
61.748117
 20
175.570634
 30
0.0
  0
SPLINE
  5
356
100
AcDbEntity
  8
0
 62
7
100
AcDbSpline
 70
8
 71
3
 72
8
 73
4
 74
0
 40
0
 40
0
 40
0
 40
0
 40
1
 40
1
 40
1
 40
1
 10
61.748117
 20
175.570634
 30
0.0
 10
61.062764
 20
176.182409
 30
0.0
 10
58.549101
 20
179.298232
 30
0.0
 10
58.128935
 20
180.056806
 30
0.0
  0
SPLINE
  5
357
100
AcDbEntity
  8
0
 62
7
100
AcDbSpline
 70
8
 71
3
 72
8
 73
4
 74
0
 40
0
 40
0
 40
0
 40
0
 40
1
 40
1
 40
1
 40
1
 10
58.128935
 20
180.056806
 30
0.0
 10
57.603316
 20
181.005763
 30
0.0
 10
57.388802
 20
179.762378
 30
0.0
 10
57.895003
 20
178.700864
 30
0.0
  0
SPLINE
  5
358
100
AcDbEntity
  8
0
 62
7
100
AcDbSpline
 70
8
 71
3
 72
8
 73
4
 74
0
 40
0
 40
0
 40
0
 40
0
 40
1
 40
1
 40
1
 40
1
 10
57.895003
 20
178.700864
 30
0.0
 10
58.421868
 20
177.596017
 30
0.0
 10
58.425040
 20
177.543264
 30
0.0
 10
57.964639
 20
177.543264
 30
0.0
  0
SPLINE
  5
359
100
AcDbEntity
  8
0
 62
7
100
AcDbSpline
 70
8
 71
3
 72
8
 73
4
 74
0
 40
0
 40
0
 40
0
 40
0
 40
1
 40
1
 40
1
 40
1
 10
57.964639
 20
177.543264
 30
0.0
 10
57.764013
 20
177.543264
 30
0.0
 10
57.452490
 20
177.930217
 30
0.0
 10
57.272370
 20
178.403160
 30
0.0
  0
SPLINE
  5
35a
100
AcDbEntity
  8
0
 62
7
100
AcDbSpline
 70
8
 71
3
 72
8
 73
4
 74
0
 40
0
 40
0
 40
0
 40
0
 40
1
 40
1
 40
1
 40
1
 10
57.272370
 20
178.403160
 30
0.0
 10
56.142946
 20
181.368671
 30
0.0
 10
55.780001
 20
182.103289
 30
0.0
 10
55.142572
 20
182.713987
 30
0.0
  0
SPLINE
  5
35b
100
AcDbEntity
  8
0
 62
7
100
AcDbSpline
 70
8
 71
3
 72
8
 73
4
 74
0
 40
0
 40
0
 40
0
 40
0
 40
1
 40
1
 40
1
 40
1
 10
55.142572
 20
182.713987
 30
0.0
 10
54.497571
 20
183.331935
 30
0.0
 10
54.196377
 20
183.404190
 30
0.0
 10
51.948149
 20
183.480303
 30
0.0
  0
SPLINE
  5
35c
100
AcDbEntity
  8
0
 62
7
100
AcDbSpline
 70
8
 71
3
 72
8
 73
4
 74
0
 40
0
 40
0
 40
0
 40
0
 40
1
 40
1
 40
1
 40
1
 10
51.948149
 20
183.480303
 30
0.0
 10
49.928153
 20
183.548689
 30
0.0
 10
49.283059
 20
183.471783
 30
0.0
 10
48.484226
 20
183.067344
 30
0.0
  0
SPLINE
  5
35d
100
AcDbEntity
  8
0
 62
7
100
AcDbSpline
 70
8
 71
3
 72
8
 73
4
 74
0
 40
0
 40
0
 40
0
 40
0
 40
1
 40
1
 40
1
 40
1
 10
48.484226
 20
183.067344
 30
0.0
 10
47.944320
 20
182.793995
 30
0.0
 10
47.214994
 20
182.570348
 30
0.0
 10
46.863503
 20
182.570348
 30
0.0
  0
SPLINE
  5
35e
100
AcDbEntity
  8
0
 62
7
100
AcDbSpline
 70
8
 71
3
 72
8
 73
4
 74
0
 40
0
 40
0
 40
0
 40
0
 40
1
 40
1
 40
1
 40
1
 10
46.863503
 20
182.570348
 30
0.0
 10
46.512009
 20
182.570348
 30
0.0
 10
45.551373
 20
182.272691
 30
0.0
 10
44.728752
 20
181.908889
 30
0.0
  0
SPLINE
  5
35f
100
AcDbEntity
  8
0
 62
7
100
AcDbSpline
 70
8
 71
3
 72
8
 73
4
 74
0
 40
0
 40
0
 40
0
 40
0
 40
1
 40
1
 40
1
 40
1
 10
44.728752
 20
181.908889
 30
0.0
 10
43.906130
 20
181.545087
 30
0.0
 10
43.069732
 20
181.247431
 30
0.0
 10
42.870088
 20
181.247431
 30
0.0
  0
SPLINE
  5
360
100
AcDbEntity
  8
0
 62
7
100
AcDbSpline
 70
8
 71
3
 72
8
 73
4
 74
0
 40
0
 40
0
 40
0
 40
0
 40
1
 40
1
 40
1
 40
1
 10
42.870088
 20
181.247431
 30
0.0
 10
42.670447
 20
181.247431
 30
0.0
 10
41.512982
 20
180.786159
 30
0.0
 10
40.297947
 20
180.222379
 30
0.0
  0
SPLINE
  5
361
100
AcDbEntity
  8
0
 62
7
100
AcDbSpline
 70
8
 71
3
 72
8
 73
4
 74
0
 40
0
 40
0
 40
0
 40
0
 40
1
 40
1
 40
1
 40
1
 10
40.297947
 20
180.222379
 30
0.0
 10
38.465435
 20
179.372093
 30
0.0
 10
37.733634
 20
178.830780
 30
0.0
 10
36.005677
 20
177.047379
 30
0.0
  0
SPLINE
  5
362
100
AcDbEntity
  8
0
 62
7
100
AcDbSpline
 70
8
 71
3
 72
8
 73
4
 74
0
 40
0
 40
0
 40
0
 40
0
 40
1
 40
1
 40
1
 40
1
 10
36.005677
 20
177.047379
 30
0.0
 10
34.859965
 20
175.864909
 30
0.0
 10
33.818306
 20
174.897431
 30
0.0
 10
33.690877
 20
174.897431
 30
0.0
  0
SPLINE
  5
363
100
AcDbEntity
  8
0
 62
7
100
AcDbSpline
 70
8
 71
3
 72
8
 73
4
 74
0
 40
0
 40
0
 40
0
 40
0
 40
1
 40
1
 40
1
 40
1
 10
33.690877
 20
174.897431
 30
0.0
 10
32.832643
 20
174.897431
 30
0.0
 10
30.283581
 20
171.265689
 30
0.0
 10
30.283581
 20
170.042933
 30
0.0
  0
SPLINE
  5
364
100
AcDbEntity
  8
0
 62
7
100
AcDbSpline
 70
8
 71
3
 72
8
 73
4
 74
0
 40
0
 40
0
 40
0
 40
0
 40
1
 40
1
 40
1
 40
1
 10
30.283581
 20
170.042933
 30
0.0
 10
30.283581
 20
169.870940
 30
0.0
 10
30.045456
 20
169.285931
 30
0.0
 10
29.754415
 20
168.742910
 30
0.0
  0
SPLINE
  5
365
100
AcDbEntity
  8
0
 62
7
100
AcDbSpline
 70
8
 71
3
 72
8
 73
4
 74
0
 40
0
 40
0
 40
0
 40
0
 40
1
 40
1
 40
1
 40
1
 10
29.754415
 20
168.742910
 30
0.0
 10
29.463373
 20
168.199887
 30
0.0
 10
29.225248
 20
167.421793
 30
0.0
 10
29.225248
 20
167.013805
 30
0.0
  0
SPLINE
  5
366
100
AcDbEntity
  8
0
 62
7
100
AcDbSpline
 70
8
 71
3
 72
8
 73
4
 74
0
 40
0
 40
0
 40
0
 40
0
 40
1
 40
1
 40
1
 40
1
 10
29.225248
 20
167.013805
 30
0.0
 10
29.225248
 20
166.605820
 30
0.0
 10
29.094975
 20
166.141741
 30
0.0
 10
28.935751
 20
165.982518
 30
0.0
  0
SPLINE
  5
367
100
AcDbEntity
  8
0
 62
7
100
AcDbSpline
 70
8
 71
3
 72
8
 73
4
 74
0
 40
0
 40
0
 40
0
 40
0
 40
1
 40
1
 40
1
 40
1
 10
28.935751
 20
165.982518
 30
0.0
 10
28.586517
 20
165.633284
 30
0.0
 10
28.751750
 20
163.048471
 30
0.0
 10
29.219993
 20
161.535973
 30
0.0
  0
SPLINE
  5
368
100
AcDbEntity
  8
0
 62
7
100
AcDbSpline
 70
8
 71
3
 72
8
 73
4
 74
0
 40
0
 40
0
 40
0
 40
0
 40
1
 40
1
 40
1
 40
1
 10
29.219993
 20
161.535973
 30
0.0
 10
29.400196
 20
160.953889
 30
0.0
 10
29.663800
 20
159.525139
 30
0.0
 10
29.805778
 20
158.360973
 30
0.0
  0
SPLINE
  5
369
100
AcDbEntity
  8
0
 62
7
100
AcDbSpline
 70
8
 71
3
 72
8
 73
4
 74
0
 40
0
 40
0
 40
0
 40
0
 40
1
 40
1
 40
1
 40
1
 10
29.805778
 20
158.360973
 30
0.0
 10
30.177978
 20
155.309054
 30
0.0
 10
30.215808
 20
155.174826
 30
0.0
 10
30.949411
 20
154.302987
 30
0.0
  0
LWPOLYLINE
  5
36a
100
AcDbEntity
  8
0
 62
7
100
AcDbPolyline
 90
3
 70
0
 10
73.119054
 20
156.031819
 30
0.0
 10
74.018079
 20
156.641181
 30
0.0
 10
73.302363
 20
156.641181
 30
0.0
  0
SPLINE
  5
36b
100
AcDbEntity
  8
0
 62
7
100
AcDbSpline
 70
8
 71
3
 72
8
 73
4
 74
0
 40
0
 40
0
 40
0
 40
0
 40
1
 40
1
 40
1
 40
1
 10
31.069661
 20
152.586558
 30
0.0
 10
30.738350
 20
152.025027
 30
0.0
 10
30.540584
 20
151.262432
 30
0.0
 10
30.566323
 20
150.645664
 30
0.0
  0
SPLINE
  5
36c
100
AcDbEntity
  8
0
 62
7
100
AcDbSpline
 70
8
 71
3
 72
8
 73
4
 74
0
 40
0
 40
0
 40
0
 40
0
 40
1
 40
1
 40
1
 40
1
 10
30.566323
 20
150.645664
 30
0.0
 10
30.608175
 20
149.642827
 30
0.0
 10
29.728604
 20
145.599909
 30
0.0
 10
29.327316
 20
144.950614
 30
0.0
  0
SPLINE
  5
36d
100
AcDbEntity
  8
0
 62
7
100
AcDbSpline
 70
8
 71
3
 72
8
 73
4
 74
0
 40
0
 40
0
 40
0
 40
0
 40
1
 40
1
 40
1
 40
1
 10
29.327316
 20
144.950614
 30
0.0
 10
28.993409
 20
144.410340
 30
0.0
 10
28.610219
 20
141.810129
 30
0.0
 10
28.632677
 20
140.237014
 30
0.0
  0
SPLINE
  5
36e
100
AcDbEntity
  8
0
 62
7
100
AcDbSpline
 70
8
 71
3
 72
8
 73
4
 74
0
 40
0
 40
0
 40
0
 40
0
 40
1
 40
1
 40
1
 40
1
 10
28.632677
 20
140.237014
 30
0.0
 10
28.644107
 20
139.436650
 30
0.0
 10
28.790461
 20
137.412587
 30
0.0
 10
28.957916
 20
135.739098
 30
0.0
  0
SPLINE
  5
36f
100
AcDbEntity
  8
0
 62
7
100
AcDbSpline
 70
8
 71
3
 72
8
 73
4
 74
0
 40
0
 40
0
 40
0
 40
0
 40
1
 40
1
 40
1
 40
1
 10
28.957916
 20
135.739098
 30
0.0
 10
29.222121
 20
133.098733
 30
0.0
 10
29.203131
 20
132.418849
 30
0.0
 10
28.814305
 20
130.597500
 30
0.0
  0
SPLINE
  5
370
100
AcDbEntity
  8
0
 62
7
100
AcDbSpline
 70
8
 71
3
 72
8
 73
4
 74
0
 40
0
 40
0
 40
0
 40
0
 40
1
 40
1
 40
1
 40
1
 10
28.814305
 20
130.597500
 30
0.0
 10
28.518855
 20
129.213560
 30
0.0
 10
28.421023
 20
127.974331
 30
0.0
 10
28.527097
 20
126.959479
 30
0.0
  0
SPLINE
  5
371
100
AcDbEntity
  8
0
 62
7
100
AcDbSpline
 70
8
 71
3
 72
8
 73
4
 74
0
 40
0
 40
0
 40
0
 40
0
 40
1
 40
1
 40
1
 40
1
 10
28.527097
 20
126.959479
 30
0.0
 10
28.621649
 20
126.054855
 30
0.0
 10
28.584771
 20
125.420348
 30
0.0
 10
28.437639
 20
125.420348
 30
0.0
  0
SPLINE
  5
372
100
AcDbEntity
  8
0
 62
7
100
AcDbSpline
 70
8
 71
3
 72
8
 73
4
 74
0
 40
0
 40
0
 40
0
 40
0
 40
1
 40
1
 40
1
 40
1
 10
28.437639
 20
125.420348
 30
0.0
 10
28.181874
 20
125.420348
 30
0.0
 10
27.658370
 20
127.069588
 30
0.0
 10
27.488780
 20
128.409626
 30
0.0
  0
SPLINE
  5
373
100
AcDbEntity
  8
0
 62
7
100
AcDbSpline
 70
8
 71
3
 72
8
 73
4
 74
0
 40
0
 40
0
 40
0
 40
0
 40
1
 40
1
 40
1
 40
1
 10
27.488780
 20
128.409626
 30
0.0
 10
27.436887
 20
128.819664
 30
0.0
 10
27.091987
 20
129.514579
 30
0.0
 10
26.722337
 20
129.953882
 30
0.0
  0
SPLINE
  5
374
100
AcDbEntity
  8
0
 62
7
100
AcDbSpline
 70
8
 71
3
 72
8
 73
4
 74
0
 40
0
 40
0
 40
0
 40
0
 40
1
 40
1
 40
1
 40
1
 10
26.722337
 20
129.953882
 30
0.0
 10
26.352688
 20
130.393186
 30
0.0
 10
26.050248
 20
131.048940
 30
0.0
 10
26.050248
 20
131.411115
 30
0.0
  0
SPLINE
  5
375
100
AcDbEntity
  8
0
 62
7
100
AcDbSpline
 70
8
 71
3
 72
8
 73
4
 74
0
 40
0
 40
0
 40
0
 40
0
 40
1
 40
1
 40
1
 40
1
 10
26.050248
 20
131.411115
 30
0.0
 10
26.050248
 20
131.773287
 30
0.0
 10
25.632558
 20
132.973649
 30
0.0
 10
25.122048
 20
134.078583
 30
0.0
  0
SPLINE
  5
376
100
AcDbEntity
  8
0
 62
7
100
AcDbSpline
 70
8
 71
3
 72
8
 73
4
 74
0
 40
0
 40
0
 40
0
 40
0
 40
1
 40
1
 40
1
 40
1
 10
25.122048
 20
134.078583
 30
0.0
 10
24.229103
 20
136.011245
 30
0.0
 10
24.102753
 20
136.951215
 30
0.0
 10
24.878522
 20
135.890288
 30
0.0
  0
SPLINE
  5
377
100
AcDbEntity
  8
0
 62
7
100
AcDbSpline
 70
8
 71
3
 72
8
 73
4
 74
0
 40
0
 40
0
 40
0
 40
0
 40
1
 40
1
 40
1
 40
1
 10
24.878522
 20
135.890288
 30
0.0
 10
25.083402
 20
135.610097
 30
0.0
 10
25.319408
 20
135.449228
 30
0.0
 10
25.402979
 20
135.532802
 30
0.0
  0
SPLINE
  5
378
100
AcDbEntity
  8
0
 62
7
100
AcDbSpline
 70
8
 71
3
 72
8
 73
4
 74
0
 40
0
 40
0
 40
0
 40
0
 40
1
 40
1
 40
1
 40
1
 10
25.402979
 20
135.532802
 30
0.0
 10
25.798140
 20
135.927962
 30
0.0
 10
25.463889
 20
137.459294
 30
0.0
 10
24.352896
 20
140.343628
 30
0.0
  0
SPLINE
  5
379
100
AcDbEntity
  8
0
 62
7
100
AcDbSpline
 70
8
 71
3
 72
8
 73
4
 74
0
 40
0
 40
0
 40
0
 40
0
 40
1
 40
1
 40
1
 40
1
 10
24.352896
 20
140.343628
 30
0.0
 10
23.658203
 20
142.147168
 30
0.0
 10
23.139832
 20
143.933526
 30
0.0
 10
23.139832
 20
144.523955
 30
0.0
  0
SPLINE
  5
37a
100
AcDbEntity
  8
0
 62
7
100
AcDbSpline
 70
8
 71
3
 72
8
 73
4
 74
0
 40
0
 40
0
 40
0
 40
0
 40
1
 40
1
 40
1
 40
1
 10
23.139832
 20
144.523955
 30
0.0
 10
23.139832
 20
145.827554
 30
0.0
 10
22.681573
 20
146.706788
 30
0.0
 10
20.773149
 20
149.064760
 30
0.0
  0
SPLINE
  5
37b
100
AcDbEntity
  8
0
 62
7
100
AcDbSpline
 70
8
 71
3
 72
8
 73
4
 74
0
 40
0
 40
0
 40
0
 40
0
 40
1
 40
1
 40
1
 40
1
 10
20.773149
 20
149.064760
 30
0.0
 10
19.932777
 20
150.103094
 30
0.0
 10
19.165951
 20
151.204827
 30
0.0
 10
19.069093
 20
151.513058
 30
0.0
  0
SPLINE
  5
37c
100
AcDbEntity
  8
0
 62
7
100
AcDbSpline
 70
8
 71
3
 72
8
 73
4
 74
0
 40
0
 40
0
 40
0
 40
0
 40
1
 40
1
 40
1
 40
1
 10
19.069093
 20
151.513058
 30
0.0
 10
18.805822
 20
152.350864
 30
0.0
 10
18.028587
 20
152.941004
 30
0.0
 10
16.960062
 20
153.114401
 30
0.0
  0
SPLINE
  5
37d
100
AcDbEntity
  8
0
 62
7
100
AcDbSpline
 70
8
 71
3
 72
8
 73
4
 74
0
 40
0
 40
0
 40
0
 40
0
 40
1
 40
1
 40
1
 40
1
 10
16.960062
 20
153.114401
 30
0.0
 10
15.637502
 20
153.329024
 30
0.0
 10
14.767952
 20
152.688025
 30
0.0
 10
13.987407
 20
150.923075
 30
0.0
  0
SPLINE
  5
37e
100
AcDbEntity
  8
0
 62
7
100
AcDbSpline
 70
8
 71
3
 72
8
 73
4
 74
0
 40
0
 40
0
 40
0
 40
0
 40
1
 40
1
 40
1
 40
1
 10
13.987407
 20
150.923075
 30
0.0
 10
13.045197
 20
148.792570
 30
0.0
 10
13.111277
 20
147.156445
 30
0.0
 10
14.322817
 20
142.618264
 30
0.0
  0
SPLINE
  5
37f
100
AcDbEntity
  8
0
 62
7
100
AcDbSpline
 70
8
 71
3
 72
8
 73
4
 74
0
 40
0
 40
0
 40
0
 40
0
 40
1
 40
1
 40
1
 40
1
 10
14.322817
 20
142.618264
 30
0.0
 10
16.083656
 20
136.022517
 30
0.0
 10
16.215540
 20
134.483671
 30
0.0
 10
14.560910
 20
139.840139
 30
0.0
  0
SPLINE
  5
380
100
AcDbEntity
  8
0
 62
7
100
AcDbSpline
 70
8
 71
3
 72
8
 73
4
 74
0
 40
0
 40
0
 40
0
 40
0
 40
1
 40
1
 40
1
 40
1
 10
14.560910
 20
139.840139
 30
0.0
 10
12.979369
 20
144.959993
 30
0.0
 10
12.470392
 20
147.277323
 30
0.0
 10
12.646004
 20
148.558541
 30
0.0
  0
SPLINE
  5
381
100
AcDbEntity
  8
0
 62
7
100
AcDbSpline
 70
8
 71
3
 72
8
 73
4
 74
0
 40
0
 40
0
 40
0
 40
0
 40
1
 40
1
 40
1
 40
1
 10
12.646004
 20
148.558541
 30
0.0
 10
12.828717
 20
149.891589
 30
0.0
 10
13.966365
 20
152.429662
 30
0.0
 10
14.664267
 20
153.061252
 30
0.0
  0
SPLINE
  5
382
100
AcDbEntity
  8
0
 62
7
100
AcDbSpline
 70
8
 71
3
 72
8
 73
4
 74
0
 40
0
 40
0
 40
0
 40
0
 40
1
 40
1
 40
1
 40
1
 10
14.664267
 20
153.061252
 30
0.0
 10
15.637090
 20
153.941645
 30
0.0
 10
15.813847
 20
155.089754
 30
0.0
 10
15.211740
 20
156.617310
 30
0.0
  0
SPLINE
  5
383
100
AcDbEntity
  8
0
 62
7
100
AcDbSpline
 70
8
 71
3
 72
8
 73
4
 74
0
 40
0
 40
0
 40
0
 40
0
 40
1
 40
1
 40
1
 40
1
 10
15.211740
 20
156.617310
 30
0.0
 10
14.915523
 20
157.368817
 30
0.0
 10
14.673165
 20
158.403827
 30
0.0
 10
14.673165
 20
158.917328
 30
0.0
  0
SPLINE
  5
384
100
AcDbEntity
  8
0
 62
7
100
AcDbSpline
 70
8
 71
3
 72
8
 73
4
 74
0
 40
0
 40
0
 40
0
 40
0
 40
1
 40
1
 40
1
 40
1
 10
14.673165
 20
158.917328
 30
0.0
 10
14.673165
 20
159.430831
 30
0.0
 10
14.562476
 20
160.057790
 30
0.0
 10
14.427192
 20
160.310573
 30
0.0
  0
SPLINE
  5
385
100
AcDbEntity
  8
0
 62
7
100
AcDbSpline
 70
8
 71
3
 72
8
 73
4
 74
0
 40
0
 40
0
 40
0
 40
0
 40
1
 40
1
 40
1
 40
1
 10
14.427192
 20
160.310573
 30
0.0
 10
14.291906
 20
160.563356
 30
0.0
 10
14.115124
 20
161.522579
 30
0.0
 10
14.034342
 20
162.442181
 30
0.0
  0
SPLINE
  5
386
100
AcDbEntity
  8
0
 62
7
100
AcDbSpline
 70
8
 71
3
 72
8
 73
4
 74
0
 40
0
 40
0
 40
0
 40
0
 40
1
 40
1
 40
1
 40
1
 10
14.034342
 20
162.442181
 30
0.0
 10
13.953559
 20
163.361783
 30
0.0
 10
13.713092
 20
164.962837
 30
0.0
 10
13.499968
 20
166.000078
 30
0.0
  0
SPLINE
  5
387
100
AcDbEntity
  8
0
 62
7
100
AcDbSpline
 70
8
 71
3
 72
8
 73
4
 74
0
 40
0
 40
0
 40
0
 40
0
 40
1
 40
1
 40
1
 40
1
 10
13.499968
 20
166.000078
 30
0.0
 10
13.286846
 20
167.037321
 30
0.0
 10
13.043038
 20
168.285255
 30
0.0
 10
12.958175
 20
168.773269
 30
0.0
  0
SPLINE
  5
388
100
AcDbEntity
  8
0
 62
7
100
AcDbSpline
 70
8
 71
3
 72
8
 73
4
 74
0
 40
0
 40
0
 40
0
 40
0
 40
1
 40
1
 40
1
 40
1
 10
12.958175
 20
168.773269
 30
0.0
 10
12.873313
 20
169.261279
 30
0.0
 10
12.567206
 20
170.124482
 30
0.0
 10
12.277937
 20
170.691498
 30
0.0
  0
LWPOLYLINE
  5
389
100
AcDbEntity
  8
0
 62
7
100
AcDbPolyline
 90
3
 70
0
 10
30.949411
 20
154.302987
 30
0.0
 10
31.615396
 20
153.511509
 30
0.0
 10
31.069661
 20
152.586558
 30
0.0
  0
SPLINE
  5
38a
100
AcDbEntity
  8
0
 62
7
100
AcDbSpline
 70
8
 71
3
 72
8
 73
4
 74
0
 40
0
 40
0
 40
0
 40
0
 40
1
 40
1
 40
1
 40
1
 10
12.932381
 20
171.722431
 30
0.0
 10
13.581592
 20
171.722431
 30
0.0
 10
14.197021
 20
171.586107
 30
0.0
 10
14.299997
 20
171.419486
 30
0.0
  0
SPLINE
  5
38b
100
AcDbEntity
  8
0
 62
7
100
AcDbSpline
 70
8
 71
3
 72
8
 73
4
 74
0
 40
0
 40
0
 40
0
 40
0
 40
1
 40
1
 40
1
 40
1
 10
14.299997
 20
171.419486
 30
0.0
 10
14.429238
 20
171.210372
 30
0.0
 10
14.270178
 20
171.158032
 30
0.0
 10
13.786446
 20
171.250504
 30
0.0
  0
SPLINE
  5
38c
100
AcDbEntity
  8
0
 62
7
100
AcDbSpline
 70
8
 71
3
 72
8
 73
4
 74
0
 40
0
 40
0
 40
0
 40
0
 40
1
 40
1
 40
1
 40
1
 10
13.786446
 20
171.250504
 30
0.0
 10
12.988872
 20
171.402970
 30
0.0
 10
12.852051
 20
171.072326
 30
0.0
 10
13.556668
 20
170.695226
 30
0.0
  0
SPLINE
  5
38d
100
AcDbEntity
  8
0
 62
7
100
AcDbSpline
 70
8
 71
3
 72
8
 73
4
 74
0
 40
0
 40
0
 40
0
 40
0
 40
1
 40
1
 40
1
 40
1
 10
13.556668
 20
170.695226
 30
0.0
 10
14.040001
 20
170.436553
 30
0.0
 10
17.001419
 20
169.908299
 30
0.0
 10
19.237227
 20
169.681935
 30
0.0
  0
SPLINE
  5
38e
100
AcDbEntity
  8
0
 62
7
100
AcDbSpline
 70
8
 71
3
 72
8
 73
4
 74
0
 40
0
 40
0
 40
0
 40
0
 40
1
 40
1
 40
1
 40
1
 10
19.237227
 20
169.681935
 30
0.0
 10
20.786630
 20
169.525064
 30
0.0
 10
20.880189
 20
169.922952
 30
0.0
 10
19.430310
 20
170.503077
 30
0.0
  0
SPLINE
  5
38f
100
AcDbEntity
  8
0
 62
7
100
AcDbSpline
 70
8
 71
3
 72
8
 73
4
 74
0
 40
0
 40
0
 40
0
 40
0
 40
1
 40
1
 40
1
 40
1
 10
19.430310
 20
170.503077
 30
0.0
 10
18.189377
 20
170.999600
 30
0.0
 10
17.278890
 20
171.047323
 30
0.0
 10
16.868897
 20
170.637332
 30
0.0
  0
SPLINE
  5
390
100
AcDbEntity
  8
0
 62
7
100
AcDbSpline
 70
8
 71
3
 72
8
 73
4
 74
0
 40
0
 40
0
 40
0
 40
0
 40
1
 40
1
 40
1
 40
1
 10
16.868897
 20
170.637332
 30
0.0
 10
16.496202
 20
170.264635
 30
0.0
 10
14.870406
 20
170.599579
 30
0.0
 10
15.016658
 20
171.018928
 30
0.0
  0
SPLINE
  5
391
100
AcDbEntity
  8
0
 62
7
100
AcDbSpline
 70
8
 71
3
 72
8
 73
4
 74
0
 40
0
 40
0
 40
0
 40
0
 40
1
 40
1
 40
1
 40
1
 10
15.016658
 20
171.018928
 30
0.0
 10
15.075472
 20
171.187573
 30
0.0
 10
15.379436
 20
171.316102
 30
0.0
 10
15.692131
 20
171.304548
 30
0.0
  0
SPLINE
  5
392
100
AcDbEntity
  8
0
 62
7
100
AcDbSpline
 70
8
 71
3
 72
8
 73
4
 74
0
 40
0
 40
0
 40
0
 40
0
 40
1
 40
1
 40
1
 40
1
 10
15.692131
 20
171.304548
 30
0.0
 10
16.004823
 20
171.292986
 30
0.0
 10
16.260665
 20
171.378102
 30
0.0
 10
16.260665
 20
171.493677
 30
0.0
  0
SPLINE
  5
393
100
AcDbEntity
  8
0
 62
7
100
AcDbSpline
 70
8
 71
3
 72
8
 73
4
 74
0
 40
0
 40
0
 40
0
 40
0
 40
1
 40
1
 40
1
 40
1
 10
16.260665
 20
171.493677
 30
0.0
 10
16.260665
 20
171.978635
 30
0.0
 10
14.974480
 20
172.327133
 30
0.0
 10
13.298871
 20
172.296190
 30
0.0
  0
SPLINE
  5
394
100
AcDbEntity
  8
0
 62
7
100
AcDbSpline
 70
8
 71
3
 72
8
 73
4
 74
0
 40
0
 40
0
 40
0
 40
0
 40
1
 40
1
 40
1
 40
1
 10
13.298871
 20
172.296190
 30
0.0
 10
11.577680
 20
172.264406
 30
0.0
 10
11.490061
 20
172.293545
 30
0.0
 10
11.112683
 20
173.023313
 30
0.0
  0
SPLINE
  5
395
100
AcDbEntity
  8
0
 62
7
100
AcDbSpline
 70
8
 71
3
 72
8
 73
4
 74
0
 40
0
 40
0
 40
0
 40
0
 40
1
 40
1
 40
1
 40
1
 10
11.112683
 20
173.023313
 30
0.0
 10
10.896460
 20
173.441445
 30
0.0
 10
10.641825
 20
174.269622
 30
0.0
 10
10.546826
 20
174.863710
 30
0.0
  0
SPLINE
  5
396
100
AcDbEntity
  8
0
 62
7
100
AcDbSpline
 70
8
 71
3
 72
8
 73
4
 74
0
 40
0
 40
0
 40
0
 40
0
 40
1
 40
1
 40
1
 40
1
 10
10.546826
 20
174.863710
 30
0.0
 10
10.391066
 20
175.837781
 30
0.0
 10
10.436725
 20
175.967681
 30
0.0
 10
11.011715
 20
176.186293
 30
0.0
  0
SPLINE
  5
397
100
AcDbEntity
  8
0
 62
7
100
AcDbSpline
 70
8
 71
3
 72
8
 73
4
 74
0
 40
0
 40
0
 40
0
 40
0
 40
1
 40
1
 40
1
 40
1
 10
11.011715
 20
176.186293
 30
0.0
 10
11.715287
 20
176.453789
 30
0.0
 10
13.061326
 20
176.442370
 30
0.0
 10
13.497740
 20
176.165206
 30
0.0
  0
SPLINE
  5
398
100
AcDbEntity
  8
0
 62
7
100
AcDbSpline
 70
8
 71
3
 72
8
 73
4
 74
0
 40
0
 40
0
 40
0
 40
0
 40
1
 40
1
 40
1
 40
1
 10
13.497740
 20
176.165206
 30
0.0
 10
13.651619
 20
176.067474
 30
0.0
 10
14.425525
 20
175.904996
 30
0.0
 10
15.217532
 20
175.804145
 30
0.0
  0
SPLINE
  5
399
100
AcDbEntity
  8
0
 62
7
100
AcDbSpline
 70
8
 71
3
 72
8
 73
4
 74
0
 40
0
 40
0
 40
0
 40
0
 40
1
 40
1
 40
1
 40
1
 10
15.217532
 20
175.804145
 30
0.0
 10
16.009536
 20
175.703291
 30
0.0
 10
16.791797
 20
175.515069
 30
0.0
 10
16.955892
 20
175.385870
 30
0.0
  0
SPLINE
  5
39a
100
AcDbEntity
  8
0
 62
7
100
AcDbSpline
 70
8
 71
3
 72
8
 73
4
 74
0
 40
0
 40
0
 40
0
 40
0
 40
1
 40
1
 40
1
 40
1
 10
16.955892
 20
175.385870
 30
0.0
 10
17.557756
 20
174.911999
 30
0.0
 10
20.916347
 20
173.375442
 30
0.0
 10
21.750936
 20
173.192136
 30
0.0
  0
SPLINE
  5
39b
100
AcDbEntity
  8
0
 62
7
100
AcDbSpline
 70
8
 71
3
 72
8
 73
4
 74
0
 40
0
 40
0
 40
0
 40
0
 40
1
 40
1
 40
1
 40
1
 10
21.750936
 20
173.192136
 30
0.0
 10
22.670993
 20
172.990058
 30
0.0
 10
22.881794
 20
173.284711
 30
0.0
 10
22.213790
 20
173.839103
 30
0.0
  0
SPLINE
  5
39c
100
AcDbEntity
  8
0
 62
7
100
AcDbSpline
 70
8
 71
3
 72
8
 73
4
 74
0
 40
0
 40
0
 40
0
 40
0
 40
1
 40
1
 40
1
 40
1
 10
22.213790
 20
173.839103
 30
0.0
 10
21.711597
 20
174.255885
 30
0.0
 10
21.698516
 20
174.897436
 30
0.0
 10
22.192200
 20
174.897436
 30
0.0
  0
SPLINE
  5
39d
100
AcDbEntity
  8
0
 62
7
100
AcDbSpline
 70
8
 71
3
 72
8
 73
4
 74
0
 40
0
 40
0
 40
0
 40
0
 40
1
 40
1
 40
1
 40
1
 10
22.192200
 20
174.897436
 30
0.0
 10
22.398612
 20
174.897436
 30
0.0
 10
22.825041
 20
175.314155
 30
0.0
 10
23.139821
 20
175.823478
 30
0.0
  0
SPLINE
  5
39e
100
AcDbEntity
  8
0
 62
7
100
AcDbSpline
 70
8
 71
3
 72
8
 73
4
 74
0
 40
0
 40
0
 40
0
 40
0
 40
1
 40
1
 40
1
 40
1
 10
23.139821
 20
175.823478
 30
0.0
 10
23.454601
 20
176.332801
 30
0.0
 10
23.881030
 20
176.749519
 30
0.0
 10
24.087442
 20
176.749519
 30
0.0
  0
SPLINE
  5
39f
100
AcDbEntity
  8
0
 62
7
100
AcDbSpline
 70
8
 71
3
 72
8
 73
4
 74
0
 40
0
 40
0
 40
0
 40
0
 40
1
 40
1
 40
1
 40
1
 10
24.087442
 20
176.749519
 30
0.0
 10
24.792226
 20
176.749519
 30
0.0
 10
24.462224
 20
177.145857
 30
0.0
 10
23.206247
 20
177.807853
 30
0.0
  0
SPLINE
  5
3a0
100
AcDbEntity
  8
0
 62
7
100
AcDbSpline
 70
8
 71
3
 72
8
 73
4
 74
0
 40
0
 40
0
 40
0
 40
0
 40
1
 40
1
 40
1
 40
1
 10
23.206247
 20
177.807853
 30
0.0
 10
22.516018
 20
178.171655
 30
0.0
 10
21.912321
 20
178.677671
 30
0.0
 10
21.864696
 20
178.932332
 30
0.0
  0
SPLINE
  5
3a1
100
AcDbEntity
  8
0
 62
7
100
AcDbSpline
 70
8
 71
3
 72
8
 73
4
 74
0
 40
0
 40
0
 40
0
 40
0
 40
1
 40
1
 40
1
 40
1
 10
21.864696
 20
178.932332
 30
0.0
 10
21.791126
 20
179.325714
 30
0.0
 10
21.987944
 20
179.395353
 30
0.0
 10
23.173338
 20
179.395353
 30
0.0
  0
SPLINE
  5
3a2
100
AcDbEntity
  8
0
 62
7
100
AcDbSpline
 70
8
 71
3
 72
8
 73
4
 74
0
 40
0
 40
0
 40
0
 40
0
 40
1
 40
1
 40
1
 40
1
 10
23.173338
 20
179.395353
 30
0.0
 10
23.941048
 20
179.395353
 30
0.0
 10
24.455522
 20
179.494400
 30
0.0
 10
24.317217
 20
179.615573
 30
0.0
  0
SPLINE
  5
3a3
100
AcDbEntity
  8
0
 62
7
100
AcDbSpline
 70
8
 71
3
 72
8
 73
4
 74
0
 40
0
 40
0
 40
0
 40
0
 40
1
 40
1
 40
1
 40
1
 10
24.317217
 20
179.615573
 30
0.0
 10
24.010112
 20
179.884641
 30
0.0
 10
21.377648
 20
180.718264
 30
0.0
 10
20.835065
 20
180.718264
 30
0.0
  0
SPLINE
  5
3a4
100
AcDbEntity
  8
0
 62
7
100
AcDbSpline
 70
8
 71
3
 72
8
 73
4
 74
0
 40
0
 40
0
 40
0
 40
0
 40
1
 40
1
 40
1
 40
1
 10
20.835065
 20
180.718264
 30
0.0
 10
20.125526
 20
180.718264
 30
0.0
 10
17.583582
 20
179.891756
 30
0.0
 10
17.583582
 20
179.661050
 30
0.0
  0
SPLINE
  5
3a5
100
AcDbEntity
  8
0
 62
7
100
AcDbSpline
 70
8
 71
3
 72
8
 73
4
 74
0
 40
0
 40
0
 40
0
 40
0
 40
1
 40
1
 40
1
 40
1
 10
17.583582
 20
179.661050
 30
0.0
 10
17.583582
 20
179.536796
 30
0.0
 10
18.076304
 20
178.966310
 30
0.0
 10
18.678523
 20
178.393299
 30
0.0
  0
LWPOLYLINE
  5
3a6
100
AcDbEntity
  8
0
 62
7
100
AcDbPolyline
 90
3
 70
0
 10
12.277937
 20
170.691498
 30
0.0
 10
11.751993
 20
171.722431
 30
0.0
 10
12.932381
 20
171.722431
 30
0.0
  0
SPLINE
  5
3a7
100
AcDbEntity
  8
0
 62
7
100
AcDbSpline
 70
8
 71
3
 72
8
 73
4
 74
0
 40
0
 40
0
 40
0
 40
0
 40
1
 40
1
 40
1
 40
1
 10
18.536714
 20
177.539153
 30
0.0
 10
17.570620
 20
177.685769
 30
0.0
 10
17.251307
 20
177.639909
 30
0.0
 10
17.077648
 20
177.329595
 30
0.0
  0
SPLINE
  5
3a8
100
AcDbEntity
  8
0
 62
7
100
AcDbSpline
 70
8
 71
3
 72
8
 73
4
 74
0
 40
0
 40
0
 40
0
 40
0
 40
1
 40
1
 40
1
 40
1
 10
17.077648
 20
177.329595
 30
0.0
 10
16.940977
 20
177.085376
 30
0.0
 10
16.678484
 20
177.000210
 30
0.0
 10
16.396251
 20
177.108514
 30
0.0
  0
SPLINE
  5
3a9
100
AcDbEntity
  8
0
 62
7
100
AcDbSpline
 70
8
 71
3
 72
8
 73
4
 74
0
 40
0
 40
0
 40
0
 40
0
 40
1
 40
1
 40
1
 40
1
 10
16.396251
 20
177.108514
 30
0.0
 10
16.057954
 20
177.238329
 30
0.0
 10
15.977537
 20
177.179470
 30
0.0
 10
16.090609
 20
176.884806
 30
0.0
  0
SPLINE
  5
3aa
100
AcDbEntity
  8
0
 62
7
100
AcDbSpline
 70
8
 71
3
 72
8
 73
4
 74
0
 40
0
 40
0
 40
0
 40
0
 40
1
 40
1
 40
1
 40
1
 10
16.090609
 20
176.884806
 30
0.0
 10
16.302694
 20
176.332121
 30
0.0
 10
15.765381
 20
176.385596
 30
0.0
 10
14.723404
 20
177.020871
 30
0.0
  0
SPLINE
  5
3ab
100
AcDbEntity
  8
0
 62
7
100
AcDbSpline
 70
8
 71
3
 72
8
 73
4
 74
0
 40
0
 40
0
 40
0
 40
0
 40
1
 40
1
 40
1
 40
1
 10
14.723404
 20
177.020871
 30
0.0
 10
14.241711
 20
177.314550
 30
0.0
 10
13.739194
 20
177.487834
 30
0.0
 10
13.606696
 20
177.405943
 30
0.0
  0
SPLINE
  5
3ac
100
AcDbEntity
  8
0
 62
7
100
AcDbSpline
 70
8
 71
3
 72
8
 73
4
 74
0
 40
0
 40
0
 40
0
 40
0
 40
1
 40
1
 40
1
 40
1
 10
13.606696
 20
177.405943
 30
0.0
 10
13.263618
 20
177.193911
 30
0.0
 10
11.858223
 20
177.971156
 30
0.0
 10
11.662519
 20
178.481159
 30
0.0
  0
SPLINE
  5
3ad
100
AcDbEntity
  8
0
 62
7
100
AcDbSpline
 70
8
 71
3
 72
8
 73
4
 74
0
 40
0
 40
0
 40
0
 40
0
 40
1
 40
1
 40
1
 40
1
 10
11.662519
 20
178.481159
 30
0.0
 10
11.358909
 20
179.272353
 30
0.0
 10
11.493865
 20
179.373202
 30
0.0
 10
12.264430
 20
178.930959
 30
0.0
  0
SPLINE
  5
3ae
100
AcDbEntity
  8
0
 62
7
100
AcDbSpline
 70
8
 71
3
 72
8
 73
4
 74
0
 40
0
 40
0
 40
0
 40
0
 40
1
 40
1
 40
1
 40
1
 10
12.264430
 20
178.930959
 30
0.0
 10
12.907656
 20
178.561799
 30
0.0
 10
13.098833
 20
178.547734
 30
0.0
 10
13.455055
 20
178.843371
 30
0.0
  0
SPLINE
  5
3af
100
AcDbEntity
  8
0
 62
7
100
AcDbSpline
 70
8
 71
3
 72
8
 73
4
 74
0
 40
0
 40
0
 40
0
 40
0
 40
1
 40
1
 40
1
 40
1
 10
13.455055
 20
178.843371
 30
0.0
 10
14.045602
 20
179.333480
 30
0.0
 10
13.984592
 20
179.792924
 30
0.0
 10
13.284102
 20
180.130760
 30
0.0
  0
SPLINE
  5
3b0
100
AcDbEntity
  8
0
 62
7
100
AcDbSpline
 70
8
 71
3
 72
8
 73
4
 74
0
 40
0
 40
0
 40
0
 40
0
 40
1
 40
1
 40
1
 40
1
 10
13.284102
 20
180.130760
 30
0.0
 10
12.703371
 20
180.410834
 30
0.0
 10
12.707086
 20
180.418306
 30
0.0
 10
13.435793
 20
180.435774
 30
0.0
  0
SPLINE
  5
3b1
100
AcDbEntity
  8
0
 62
7
100
AcDbSpline
 70
8
 71
3
 72
8
 73
4
 74
0
 40
0
 40
0
 40
0
 40
0
 40
1
 40
1
 40
1
 40
1
 10
13.435793
 20
180.435774
 30
0.0
 10
13.999761
 20
180.449294
 30
0.0
 10
14.161082
 20
180.567134
 30
0.0
 10
14.094172
 20
180.916702
 30
0.0
  0
SPLINE
  5
3b2
100
AcDbEntity
  8
0
 62
7
100
AcDbSpline
 70
8
 71
3
 72
8
 73
4
 74
0
 40
0
 40
0
 40
0
 40
0
 40
1
 40
1
 40
1
 40
1
 10
14.094172
 20
180.916702
 30
0.0
 10
14.034929
 20
181.226225
 30
0.0
 10
13.568003
 20
181.487059
 30
0.0
 10
12.685710
 20
181.703498
 30
0.0
  0
SPLINE
  5
3b3
100
AcDbEntity
  8
0
 62
7
100
AcDbSpline
 70
8
 71
3
 72
8
 73
4
 74
0
 40
0
 40
0
 40
0
 40
0
 40
1
 40
1
 40
1
 40
1
 10
12.685710
 20
181.703498
 30
0.0
 10
11.216918
 20
182.063813
 30
0.0
 10
10.439832
 20
182.806972
 30
0.0
 10
10.439832
 20
183.851317
 30
0.0
  0
SPLINE
  5
3b4
100
AcDbEntity
  8
0
 62
7
100
AcDbSpline
 70
8
 71
3
 72
8
 73
4
 74
0
 40
0
 40
0
 40
0
 40
0
 40
1
 40
1
 40
1
 40
1
 10
10.439832
 20
183.851317
 30
0.0
 10
10.439832
 20
184.232566
 30
0.0
 10
10.184559
 20
185.160386
 30
0.0
 10
9.872560
 20
185.913141
 30
0.0
  0
SPLINE
  5
3b5
100
AcDbEntity
  8
0
 62
7
100
AcDbSpline
 70
8
 71
3
 72
8
 73
4
 74
0
 40
0
 40
0
 40
0
 40
0
 40
1
 40
1
 40
1
 40
1
 10
9.872560
 20
185.913141
 30
0.0
 10
9.231059
 20
187.460877
 30
0.0
 10
9.344438
 20
188.126598
 30
0.0
 10
10.249538
 20
188.126598
 30
0.0
  0
SPLINE
  5
3b6
100
AcDbEntity
  8
0
 62
7
100
AcDbSpline
 70
8
 71
3
 72
8
 73
4
 74
0
 40
0
 40
0
 40
0
 40
0
 40
1
 40
1
 40
1
 40
1
 10
10.249538
 20
188.126598
 30
0.0
 10
11.178051
 20
188.126598
 30
0.0
 10
12.997627
 20
189.093261
 30
0.0
 10
13.536578
 20
189.872861
 30
0.0
  0
SPLINE
  5
3b7
100
AcDbEntity
  8
0
 62
7
100
AcDbSpline
 70
8
 71
3
 72
8
 73
4
 74
0
 40
0
 40
0
 40
0
 40
0
 40
1
 40
1
 40
1
 40
1
 10
13.536578
 20
189.872861
 30
0.0
 10
14.512446
 20
191.284466
 30
0.0
 10
15.791019
 20
192.607666
 30
0.0
 10
16.347390
 20
192.781780
 30
0.0
  0
SPLINE
  5
3b8
100
AcDbEntity
  8
0
 62
7
100
AcDbSpline
 70
8
 71
3
 72
8
 73
4
 74
0
 40
0
 40
0
 40
0
 40
0
 40
1
 40
1
 40
1
 40
1
 10
16.347390
 20
192.781780
 30
0.0
 10
16.794557
 20
192.921718
 30
0.0
 10
20.627131
 20
195.879268
 30
0.0
 10
21.287748
 20
196.594193
 30
0.0
  0
SPLINE
  5
3b9
100
AcDbEntity
  8
0
 62
7
100
AcDbSpline
 70
8
 71
3
 72
8
 73
4
 74
0
 40
0
 40
0
 40
0
 40
0
 40
1
 40
1
 40
1
 40
1
 10
21.287748
 20
196.594193
 30
0.0
 10
21.360509
 20
196.672933
 30
0.0
 10
22.116820
 20
197.325113
 30
0.0
 10
22.968442
 20
198.043477
 30
0.0
  0
SPLINE
  5
3ba
100
AcDbEntity
  8
0
 62
7
100
AcDbSpline
 70
8
 71
3
 72
8
 73
4
 74
0
 40
0
 40
0
 40
0
 40
0
 40
1
 40
1
 40
1
 40
1
 10
22.968442
 20
198.043477
 30
0.0
 10
23.820065
 20
198.761840
 30
0.0
 10
25.040297
 20
200.029858
 30
0.0
 10
25.680072
 20
200.861295
 30
0.0
  0
SPLINE
  5
3bb
100
AcDbEntity
  8
0
 62
7
100
AcDbSpline
 70
8
 71
3
 72
8
 73
4
 74
0
 40
0
 40
0
 40
0
 40
0
 40
1
 40
1
 40
1
 40
1
 10
25.680072
 20
200.861295
 30
0.0
 10
26.742917
 20
202.242542
 30
0.0
 10
29.034925
 20
203.998777
 30
0.0
 10
31.158871
 20
205.059389
 30
0.0
  0
SPLINE
  5
3bc
100
AcDbEntity
  8
0
 62
7
100
AcDbSpline
 70
8
 71
3
 72
8
 73
4
 74
0
 40
0
 40
0
 40
0
 40
0
 40
1
 40
1
 40
1
 40
1
 10
31.158871
 20
205.059389
 30
0.0
 10
31.747672
 20
205.353410
 30
0.0
 10
31.869896
 20
205.557806
 30
0.0
 10
31.747804
 20
206.044258
 30
0.0
  0
SPLINE
  5
3bd
100
AcDbEntity
  8
0
 62
7
100
AcDbSpline
 70
8
 71
3
 72
8
 73
4
 74
0
 40
0
 40
0
 40
0
 40
0
 40
1
 40
1
 40
1
 40
1
 10
31.747804
 20
206.044258
 30
0.0
 10
31.616571
 20
206.567133
 30
0.0
 10
31.715437
 20
206.682449
 30
0.0
 10
32.414908
 20
206.822342
 30
0.0
  0
SPLINE
  5
3be
100
AcDbEntity
  8
0
 62
7
100
AcDbSpline
 70
8
 71
3
 72
8
 73
4
 74
0
 40
0
 40
0
 40
0
 40
0
 40
1
 40
1
 40
1
 40
1
 10
32.414908
 20
206.822342
 30
0.0
 10
32.866552
 20
206.912671
 30
0.0
 10
33.374314
 20
207.207924
 30
0.0
 10
33.543266
 20
207.478461
 30
0.0
  0
SPLINE
  5
3bf
100
AcDbEntity
  8
0
 62
7
100
AcDbSpline
 70
8
 71
3
 72
8
 73
4
 74
0
 40
0
 40
0
 40
0
 40
0
 40
1
 40
1
 40
1
 40
1
 10
33.543266
 20
207.478461
 30
0.0
 10
33.719699
 20
207.760975
 30
0.0
 10
34.155081
 20
207.970348
 30
0.0
 10
34.566122
 20
207.970348
 30
0.0
  0
SPLINE
  5
3c0
100
AcDbEntity
  8
0
 62
7
100
AcDbSpline
 70
8
 71
3
 72
8
 73
4
 74
0
 40
0
 40
0
 40
0
 40
0
 40
1
 40
1
 40
1
 40
1
 10
34.566122
 20
207.970348
 30
0.0
 10
35.086134
 20
207.970348
 30
0.0
 10
35.376890
 20
208.169267
 30
0.0
 10
35.629646
 20
208.697952
 30
0.0
  0
SPLINE
  5
3c1
100
AcDbEntity
  8
0
 62
7
100
AcDbSpline
 70
8
 71
3
 72
8
 73
4
 74
0
 40
0
 40
0
 40
0
 40
0
 40
1
 40
1
 40
1
 40
1
 10
35.629646
 20
208.697952
 30
0.0
 10
35.955602
 20
209.379751
 30
0.0
 10
36.112389
 20
209.435608
 30
0.0
 10
38.120169
 20
209.585230
 30
0.0
  0
SPLINE
  5
3c2
100
AcDbEntity
  8
0
 62
7
100
AcDbSpline
 70
8
 71
3
 72
8
 73
4
 74
0
 40
0
 40
0
 40
0
 40
0
 40
1
 40
1
 40
1
 40
1
 10
38.120169
 20
209.585230
 30
0.0
 10
39.298637
 20
209.673050
 30
0.0
 10
40.400925
 20
209.830247
 30
0.0
 10
40.569700
 20
209.934556
 30
0.0
  0
SPLINE
  5
3c3
100
AcDbEntity
  8
0
 62
7
100
AcDbSpline
 70
8
 71
3
 72
8
 73
4
 74
0
 40
0
 40
0
 40
0
 40
0
 40
1
 40
1
 40
1
 40
1
 10
40.569700
 20
209.934556
 30
0.0
 10
41.502645
 20
210.511147
 30
0.0
 10
45.527979
 20
205.903354
 30
0.0
 10
47.854923
 20
201.595181
 30
0.0
  0
SPLINE
  5
3c4
100
AcDbEntity
  8
0
 62
7
100
AcDbSpline
 70
8
 71
3
 72
8
 73
4
 74
0
 40
0
 40
0
 40
0
 40
0
 40
1
 40
1
 40
1
 40
1
 10
47.854923
 20
201.595181
 30
0.0
 10
48.798176
 20
199.848812
 30
0.0
 10
48.837736
 20
199.697832
 30
0.0
 10
48.316354
 20
199.834177
 30
0.0
  0
SPLINE
  5
3c5
100
AcDbEntity
  8
0
 62
7
100
AcDbSpline
 70
8
 71
3
 72
8
 73
4
 74
0
 40
0
 40
0
 40
0
 40
0
 40
1
 40
1
 40
1
 40
1
 10
48.316354
 20
199.834177
 30
0.0
 10
47.608778
 20
200.019214
 30
0.0
 10
47.609649
 20
199.979746
 30
0.0
 10
48.341383
 20
198.698242
 30
0.0
  0
SPLINE
  5
3c6
100
AcDbEntity
  8
0
 62
7
100
AcDbSpline
 70
8
 71
3
 72
8
 73
4
 74
0
 40
0
 40
0
 40
0
 40
0
 40
1
 40
1
 40
1
 40
1
 10
48.341383
 20
198.698242
 30
0.0
 10
49.024842
 20
197.501301
 30
0.0
 10
49.315976
 20
197.359776
 30
0.0
 10
49.133744
 20
198.313056
 30
0.0
  0
SPLINE
  5
3c7
100
AcDbEntity
  8
0
 62
7
100
AcDbSpline
 70
8
 71
3
 72
8
 73
4
 74
0
 40
0
 40
0
 40
0
 40
0
 40
1
 40
1
 40
1
 40
1
 10
49.133744
 20
198.313056
 30
0.0
 10
48.920961
 20
199.426166
 30
0.0
 10
49.442595
 20
199.057557
 30
0.0
 10
50.640948
 20
197.248000
 30
0.0
  0
SPLINE
  5
3c8
100
AcDbEntity
  8
0
 62
7
100
AcDbSpline
 70
8
 71
3
 72
8
 73
4
 74
0
 40
0
 40
0
 40
0
 40
0
 40
1
 40
1
 40
1
 40
1
 10
50.640948
 20
197.248000
 30
0.0
 10
51.947784
 20
195.274631
 30
0.0
 10
53.063783
 20
194.352500
 30
0.0
 10
53.885216
 20
194.567310
 30
0.0
  0
SPLINE
  5
3c9
100
AcDbEntity
  8
0
 62
7
100
AcDbSpline
 70
8
 71
3
 72
8
 73
4
 74
0
 40
0
 40
0
 40
0
 40
0
 40
1
 40
1
 40
1
 40
1
 10
53.885216
 20
194.567310
 30
0.0
 10
54.191300
 20
194.647354
 30
0.0
 10
54.780677
 20
194.537568
 30
0.0
 10
55.194943
 20
194.323343
 30
0.0
  0
SPLINE
  5
3ca
100
AcDbEntity
  8
0
 62
7
100
AcDbSpline
 70
8
 71
3
 72
8
 73
4
 74
0
 40
0
 40
0
 40
0
 40
0
 40
1
 40
1
 40
1
 40
1
 10
55.194943
 20
194.323343
 30
0.0
 10
56.063610
 20
193.874136
 30
0.0
 10
56.098575
 20
193.947412
 30
0.0
 10
55.535298
 20
195.036665
 30
0.0
  0
SPLINE
  5
3cb
100
AcDbEntity
  8
0
 62
7
100
AcDbSpline
 70
8
 71
3
 72
8
 73
4
 74
0
 40
0
 40
0
 40
0
 40
0
 40
1
 40
1
 40
1
 40
1
 10
55.535298
 20
195.036665
 30
0.0
 10
55.308230
 20
195.475770
 30
0.0
 10
55.163532
 20
196.035406
 30
0.0
 10
55.213750
 20
196.280297
 30
0.0
  0
SPLINE
  5
3cc
100
AcDbEntity
  8
0
 62
7
100
AcDbSpline
 70
8
 71
3
 72
8
 73
4
 74
0
 40
0
 40
0
 40
0
 40
0
 40
1
 40
1
 40
1
 40
1
 10
55.213750
 20
196.280297
 30
0.0
 10
55.284616
 20
196.625877
 30
0.0
 10
55.524839
 20
196.488627
 30
0.0
 10
56.286800
 20
195.667223
 30
0.0
  0
SPLINE
  5
3cd
100
AcDbEntity
  8
0
 62
7
100
AcDbSpline
 70
8
 71
3
 72
8
 73
4
 74
0
 40
0
 40
0
 40
0
 40
0
 40
1
 40
1
 40
1
 40
1
 10
56.286800
 20
195.667223
 30
0.0
 10
57.389554
 20
194.478436
 30
0.0
 10
57.516718
 20
194.671204
 30
0.0
 10
56.747714
 20
196.365934
 30
0.0
  0
SPLINE
  5
3ce
100
AcDbEntity
  8
0
 62
7
100
AcDbSpline
 70
8
 71
3
 72
8
 73
4
 74
0
 40
0
 40
0
 40
0
 40
0
 40
1
 40
1
 40
1
 40
1
 10
56.747714
 20
196.365934
 30
0.0
 10
56.025148
 20
197.958327
 30
0.0
 10
56.052199
 20
198.423824
 30
0.0
 10
56.825102
 20
197.697717
 30
0.0
  0
SPLINE
  5
3cf
100
AcDbEntity
  8
0
 62
7
100
AcDbSpline
 70
8
 71
3
 72
8
 73
4
 74
0
 40
0
 40
0
 40
0
 40
0
 40
1
 40
1
 40
1
 40
1
 10
56.825102
 20
197.697717
 30
0.0
 10
57.592664
 20
196.976632
 30
0.0
 10
58.336164
 20
196.958834
 30
0.0
 10
58.518782
 20
197.657175
 30
0.0
  0
SPLINE
  5
3d0
100
AcDbEntity
  8
0
 62
7
100
AcDbSpline
 70
8
 71
3
 72
8
 73
4
 74
0
 40
0
 40
0
 40
0
 40
0
 40
1
 40
1
 40
1
 40
1
 10
58.518782
 20
197.657175
 30
0.0
 10
58.628656
 20
198.077328
 30
0.0
 10
58.736741
 20
198.127083
 30
0.0
 10
59.023179
 20
197.889360
 30
0.0
  0
SPLINE
  5
3d1
100
AcDbEntity
  8
0
 62
7
100
AcDbSpline
 70
8
 71
3
 72
8
 73
4
 74
0
 40
0
 40
0
 40
0
 40
0
 40
1
 40
1
 40
1
 40
1
 10
59.023179
 20
197.889360
 30
0.0
 10
59.223685
 20
197.722953
 30
0.0
 10
59.387737
 20
197.363258
 30
0.0
 10
59.387737
 20
197.090036
 30
0.0
  0
SPLINE
  5
3d2
100
AcDbEntity
  8
0
 62
7
100
AcDbSpline
 70
8
 71
3
 72
8
 73
4
 74
0
 40
0
 40
0
 40
0
 40
0
 40
1
 40
1
 40
1
 40
1
 10
59.387737
 20
197.090036
 30
0.0
 10
59.387737
 20
196.816811
 30
0.0
 10
59.506800
 20
196.593264
 30
0.0
 10
59.652321
 20
196.593264
 30
0.0
  0
SPLINE
  5
3d3
100
AcDbEntity
  8
0
 62
7
100
AcDbSpline
 70
8
 71
3
 72
8
 73
4
 74
0
 40
0
 40
0
 40
0
 40
0
 40
1
 40
1
 40
1
 40
1
 10
59.652321
 20
196.593264
 30
0.0
 10
59.797842
 20
196.593264
 30
0.0
 10
59.916904
 20
196.712327
 30
0.0
 10
59.916904
 20
196.857848
 30
0.0
  0
SPLINE
  5
3d4
100
AcDbEntity
  8
0
 62
7
100
AcDbSpline
 70
8
 71
3
 72
8
 73
4
 74
0
 40
0
 40
0
 40
0
 40
0
 40
1
 40
1
 40
1
 40
1
 10
59.916904
 20
196.857848
 30
0.0
 10
59.916904
 20
197.322742
 30
0.0
 10
60.671951
 20
197.141849
 30
0.0
 10
61.229513
 20
196.543375
 30
0.0
  0
SPLINE
  5
3d5
100
AcDbEntity
  8
0
 62
7
100
AcDbSpline
 70
8
 71
3
 72
8
 73
4
 74
0
 40
0
 40
0
 40
0
 40
0
 40
1
 40
1
 40
1
 40
1
 10
61.229513
 20
196.543375
 30
0.0
 10
61.526224
 20
196.224893
 30
0.0
 10
61.768987
 20
195.696139
 30
0.0
 10
61.768987
 20
195.368365
 30
0.0
  0
SPLINE
  5
3d6
100
AcDbEntity
  8
0
 62
7
100
AcDbSpline
 70
8
 71
3
 72
8
 73
4
 74
0
 40
0
 40
0
 40
0
 40
0
 40
1
 40
1
 40
1
 40
1
 10
61.768987
 20
195.368365
 30
0.0
 10
61.768987
 20
195.040589
 30
0.0
 10
61.884179
 20
194.701218
 30
0.0
 10
62.024972
 20
194.614205
 30
0.0
  0
SPLINE
  5
3d7
100
AcDbEntity
  8
0
 62
7
100
AcDbSpline
 70
8
 71
3
 72
8
 73
4
 74
0
 40
0
 40
0
 40
0
 40
0
 40
1
 40
1
 40
1
 40
1
 10
62.024972
 20
194.614205
 30
0.0
 10
62.165762
 20
194.527191
 30
0.0
 10
62.648095
 20
193.686726
 30
0.0
 10
63.096820
 20
192.746506
 30
0.0
  0
SPLINE
  5
3d8
100
AcDbEntity
  8
0
 62
7
100
AcDbSpline
 70
8
 71
3
 72
8
 73
4
 74
0
 40
0
 40
0
 40
0
 40
0
 40
1
 40
1
 40
1
 40
1
 10
63.096820
 20
192.746506
 30
0.0
 10
63.545545
 20
191.806285
 30
0.0
 10
64.025666
 20
191.037014
 30
0.0
 10
64.163752
 20
191.037014
 30
0.0
  0
SPLINE
  5
3d9
100
AcDbEntity
  8
0
 62
7
100
AcDbSpline
 70
8
 71
3
 72
8
 73
4
 74
0
 40
0
 40
0
 40
0
 40
0
 40
1
 40
1
 40
1
 40
1
 10
64.163752
 20
191.037014
 30
0.0
 10
64.301841
 20
191.037014
 30
0.0
 10
64.414821
 20
191.782279
 30
0.0
 10
64.414821
 20
192.693160
 30
0.0
  0
SPLINE
  5
3da
100
AcDbEntity
  8
0
 62
7
100
AcDbSpline
 70
8
 71
3
 72
8
 73
4
 74
0
 40
0
 40
0
 40
0
 40
0
 40
1
 40
1
 40
1
 40
1
 10
64.414821
 20
192.693160
 30
0.0
 10
64.414821
 20
194.057662
 30
0.0
 10
64.507152
 20
194.406970
 30
0.0
 10
64.939143
 20
194.676752
 30
0.0
  0
SPLINE
  5
3db
100
AcDbEntity
  8
0
 62
7
100
AcDbSpline
 70
8
 71
3
 72
8
 73
4
 74
0
 40
0
 40
0
 40
0
 40
0
 40
1
 40
1
 40
1
 40
1
 10
64.939143
 20
194.676752
 30
0.0
 10
65.407204
 20
194.969061
 30
0.0
 10
65.480150
 20
194.926207
 30
0.0
 10
65.618950
 20
194.277377
 30
0.0
  0
SPLINE
  5
3dc
100
AcDbEntity
  8
0
 62
7
100
AcDbSpline
 70
8
 71
3
 72
8
 73
4
 74
0
 40
0
 40
0
 40
0
 40
0
 40
1
 40
1
 40
1
 40
1
 10
65.618950
 20
194.277377
 30
0.0
 10
65.818250
 20
193.345747
 30
0.0
 10
66.487164
 20
191.412715
 30
0.0
 10
66.992040
 20
190.309410
 30
0.0
  0
SPLINE
  5
3dd
100
AcDbEntity
  8
0
 62
7
100
AcDbSpline
 70
8
 71
3
 72
8
 73
4
 74
0
 40
0
 40
0
 40
0
 40
0
 40
1
 40
1
 40
1
 40
1
 10
66.992040
 20
190.309410
 30
0.0
 10
67.763250
 20
188.624088
 30
0.0
 10
67.943373
 20
189.292928
 30
0.0
 10
67.758916
 20
193.156972
 30
0.0
  0
SPLINE
  5
3de
100
AcDbEntity
  8
0
 62
7
100
AcDbSpline
 70
8
 71
3
 72
8
 73
4
 74
0
 40
0
 40
0
 40
0
 40
0
 40
1
 40
1
 40
1
 40
1
 10
67.758916
 20
193.156972
 30
0.0
 10
67.606220
 20
196.355714
 30
0.0
 10
67.641856
 20
196.955881
 30
0.0
 10
68.018623
 20
197.530903
 30
0.0
  0
SPLINE
  5
3df
100
AcDbEntity
  8
0
 62
7
100
AcDbSpline
 70
8
 71
3
 72
8
 73
4
 74
0
 40
0
 40
0
 40
0
 40
0
 40
1
 40
1
 40
1
 40
1
 10
68.018623
 20
197.530903
 30
0.0
 10
68.332956
 20
198.010632
 30
0.0
 10
68.416863
 20
198.547183
 30
0.0
 10
68.318094
 20
199.445838
 30
0.0
  0
SPLINE
  5
3e0
100
AcDbEntity
  8
0
 62
7
100
AcDbSpline
 70
8
 71
3
 72
8
 73
4
 74
0
 40
0
 40
0
 40
0
 40
0
 40
1
 40
1
 40
1
 40
1
 10
68.318094
 20
199.445838
 30
0.0
 10
68.182450
 20
200.679974
 30
0.0
 10
68.662505
 20
203.058033
 30
0.0
 10
68.943995
 20
202.546389
 30
0.0
  0
SPLINE
  5
3e1
100
AcDbEntity
  8
0
 62
7
100
AcDbSpline
 70
8
 71
3
 72
8
 73
4
 74
0
 40
0
 40
0
 40
0
 40
0
 40
1
 40
1
 40
1
 40
1
 10
68.943995
 20
202.546389
 30
0.0
 10
69.024055
 20
202.400869
 30
0.0
 10
69.248311
 20
201.593329
 30
0.0
 10
69.442343
 20
200.751856
 30
0.0
  0
SPLINE
  5
3e2
100
AcDbEntity
  8
0
 62
7
100
AcDbSpline
 70
8
 71
3
 72
8
 73
4
 74
0
 40
0
 40
0
 40
0
 40
0
 40
1
 40
1
 40
1
 40
1
 10
69.442343
 20
200.751856
 30
0.0
 10
69.636375
 20
199.910383
 30
0.0
 10
69.889402
 20
199.316179
 30
0.0
 10
70.004628
 20
199.431405
 30
0.0
  0
SPLINE
  5
3e3
100
AcDbEntity
  8
0
 62
7
100
AcDbSpline
 70
8
 71
3
 72
8
 73
4
 74
0
 40
0
 40
0
 40
0
 40
0
 40
1
 40
1
 40
1
 40
1
 10
70.004628
 20
199.431405
 30
0.0
 10
70.119854
 20
199.546631
 30
0.0
 10
70.329962
 20
200.871958
 30
0.0
 10
70.471535
 20
202.376575
 30
0.0
  0
SPLINE
  5
3e4
100
AcDbEntity
  8
0
 62
7
100
AcDbSpline
 70
8
 71
3
 72
8
 73
4
 74
0
 40
0
 40
0
 40
0
 40
0
 40
1
 40
1
 40
1
 40
1
 10
70.471535
 20
202.376575
 30
0.0
 10
70.613109
 20
203.881194
 30
0.0
 10
70.773409
 20
205.156716
 30
0.0
 10
70.827762
 20
205.211066
 30
0.0
  0
SPLINE
  5
3e5
100
AcDbEntity
  8
0
 62
7
100
AcDbSpline
 70
8
 71
3
 72
8
 73
4
 74
0
 40
0
 40
0
 40
0
 40
0
 40
1
 40
1
 40
1
 40
1
 10
70.827762
 20
205.211066
 30
0.0
 10
71.077659
 20
205.460963
 30
0.0
 10
72.883202
 20
203.639608
 30
0.0
 10
72.898259
 20
203.122440
 30
0.0
  0
LWPOLYLINE
  5
3e6
100
AcDbEntity
  8
0
 62
7
100
AcDbPolyline
 90
3
 70
0
 10
18.678523
 20
178.393299
 30
0.0
 10
19.773466
 20
177.351460
 30
0.0
 10
18.536714
 20
177.539153
 30
0.0
  0
SPLINE
  5
3e7
100
AcDbEntity
  8
0
 62
7
100
AcDbSpline
 70
8
 71
3
 72
8
 73
4
 74
0
 40
0
 40
0
 40
0
 40
0
 40
1
 40
1
 40
1
 40
1
 10
73.148209
 20
203.125176
 30
0.0
 10
73.681119
 20
204.447979
 30
0.0
 10
73.954415
 20
206.839246
 30
0.0
 10
73.660458
 20
207.607223
 30
0.0
  0
LWPOLYLINE
  5
3e8
100
AcDbEntity
  8
0
 62
7
100
AcDbPolyline
 90
3
 70
0
 10
72.898259
 20
203.122440
 30
0.0
 10
72.915034
 20
202.546389
 30
0.0
 10
73.148209
 20
203.125176
 30
0.0
  0
SPLINE
  5
3e9
100
AcDbEntity
  8
0
 62
7
100
AcDbSpline
 70
8
 71
3
 72
8
 73
4
 74
0
 40
0
 40
0
 40
0
 40
0
 40
1
 40
1
 40
1
 40
1
 10
72.860945
 20
207.742600
 30
0.0
 10
72.581206
 20
207.399057
 30
0.0
 10
72.352331
 20
206.952570
 30
0.0
 10
72.352331
 20
206.750412
 30
0.0
  0
SPLINE
  5
3ea
100
AcDbEntity
  8
0
 62
7
100
AcDbSpline
 70
8
 71
3
 72
8
 73
4
 74
0
 40
0
 40
0
 40
0
 40
0
 40
1
 40
1
 40
1
 40
1
 10
72.352331
 20
206.750412
 30
0.0
 10
72.352331
 20
205.419884
 30
0.0
 10
70.300215
 20
207.533764
 30
0.0
 10
69.132603
 20
210.067044
 30
0.0
  0
SPLINE
  5
3eb
100
AcDbEntity
  8
0
 62
7
100
AcDbSpline
 70
8
 71
3
 72
8
 73
4
 74
0
 40
0
 40
0
 40
0
 40
0
 40
1
 40
1
 40
1
 40
1
 10
69.132603
 20
210.067044
 30
0.0
 10
68.390553
 20
211.677023
 30
0.0
 10
68.309950
 20
211.762396
 30
0.0
 10
68.052143
 20
211.211494
 30
0.0
  0
SPLINE
  5
3ec
100
AcDbEntity
  8
0
 62
7
100
AcDbSpline
 70
8
 71
3
 72
8
 73
4
 74
0
 40
0
 40
0
 40
0
 40
0
 40
1
 40
1
 40
1
 40
1
 10
68.052143
 20
211.211494
 30
0.0
 10
67.898918
 20
210.884072
 30
0.0
 10
67.543153
 20
210.616181
 30
0.0
 10
67.261560
 20
210.616181
 30
0.0
  0
SPLINE
  5
3ed
100
AcDbEntity
  8
0
 62
7
100
AcDbSpline
 70
8
 71
3
 72
8
 73
4
 74
0
 40
0
 40
0
 40
0
 40
0
 40
1
 40
1
 40
1
 40
1
 10
67.261560
 20
210.616181
 30
0.0
 10
66.811432
 20
210.616181
 30
0.0
 10
66.771020
 20
210.489208
 30
0.0
 10
66.927111
 20
209.565312
 30
0.0
  0
SPLINE
  5
3ee
100
AcDbEntity
  8
0
 62
7
100
AcDbSpline
 70
8
 71
3
 72
8
 73
4
 74
0
 40
0
 40
0
 40
0
 40
0
 40
1
 40
1
 40
1
 40
1
 10
66.927111
 20
209.565312
 30
0.0
 10
67.024761
 20
208.987335
 30
0.0
 10
67.308495
 20
207.826475
 30
0.0
 10
67.557631
 20
206.985624
 30
0.0
  0
SPLINE
  5
3ef
100
AcDbEntity
  8
0
 62
7
100
AcDbSpline
 70
8
 71
3
 72
8
 73
4
 74
0
 40
0
 40
0
 40
0
 40
0
 40
1
 40
1
 40
1
 40
1
 10
67.557631
 20
206.985624
 30
0.0
 10
67.834039
 20
206.052738
 30
0.0
 10
67.940801
 20
205.147402
 30
0.0
 10
67.831523
 20
204.663056
 30
0.0
  0
SPLINE
  5
3f0
100
AcDbEntity
  8
0
 62
7
100
AcDbSpline
 70
8
 71
3
 72
8
 73
4
 74
0
 40
0
 40
0
 40
0
 40
0
 40
1
 40
1
 40
1
 40
1
 10
67.831523
 20
204.663056
 30
0.0
 10
67.733026
 20
204.226494
 30
0.0
 10
67.638353
 20
203.381743
 30
0.0
 10
67.621134
 20
202.785835
 30
0.0
  0
SPLINE
  5
3f1
100
AcDbEntity
  8
0
 62
7
100
AcDbSpline
 70
8
 71
3
 72
8
 73
4
 74
0
 40
0
 40
0
 40
0
 40
0
 40
1
 40
1
 40
1
 40
1
 10
67.621134
 20
202.785835
 30
0.0
 10
67.588807
 20
201.666909
 30
0.0
 10
66.987894
 20
200.826598
 30
0.0
 10
66.220070
 20
200.826598
 30
0.0
  0
SPLINE
  5
3f2
100
AcDbEntity
  8
0
 62
7
100
AcDbSpline
 70
8
 71
3
 72
8
 73
4
 74
0
 40
0
 40
0
 40
0
 40
0
 40
1
 40
1
 40
1
 40
1
 10
66.220070
 20
200.826598
 30
0.0
 10
65.996381
 20
200.826598
 30
0.0
 10
65.611775
 20
201.325454
 30
0.0
 10
65.353120
 20
201.951077
 30
0.0
  0
LWPOLYLINE
  5
3f3
100
AcDbEntity
  8
0
 62
7
100
AcDbPolyline
 90
3
 70
0
 10
73.660458
 20
207.607223
 30
0.0
 10
73.369559
 20
208.367223
 30
0.0
 10
72.860945
 20
207.742600
 30
0.0
  0
SPLINE
  5
3f4
100
AcDbEntity
  8
0
 62
7
100
AcDbSpline
 70
8
 71
3
 72
8
 73
4
 74
0
 40
0
 40
0
 40
0
 40
0
 40
1
 40
1
 40
1
 40
1
 10
64.643960
 20
202.215660
 30
0.0
 10
64.498164
 20
201.702398
 30
0.0
 10
64.227861
 20
201.355764
 30
0.0
 10
63.973414
 20
201.355764
 30
0.0
  0
SPLINE
  5
3f5
100
AcDbEntity
  8
0
 62
7
100
AcDbSpline
 70
8
 71
3
 72
8
 73
4
 74
0
 40
0
 40
0
 40
0
 40
0
 40
1
 40
1
 40
1
 40
1
 10
63.973414
 20
201.355764
 30
0.0
 10
63.353675
 20
201.355764
 30
0.0
 10
62.845416
 20
200.557884
 30
0.0
 10
62.835745
 20
199.569827
 30
0.0
  0
SPLINE
  5
3f6
100
AcDbEntity
  8
0
 62
7
100
AcDbSpline
 70
8
 71
3
 72
8
 73
4
 74
0
 40
0
 40
0
 40
0
 40
0
 40
1
 40
1
 40
1
 40
1
 10
62.835745
 20
199.569827
 30
0.0
 10
62.824976
 20
198.469528
 30
0.0
 10
62.510466
 20
198.469528
 30
0.0
 10
62.131408
 20
199.569827
 30
0.0
  0
SPLINE
  5
3f7
100
AcDbEntity
  8
0
 62
7
100
AcDbSpline
 70
8
 71
3
 72
8
 73
4
 74
0
 40
0
 40
0
 40
0
 40
0
 40
1
 40
1
 40
1
 40
1
 10
62.131408
 20
199.569827
 30
0.0
 10
61.488489
 20
201.436026
 30
0.0
 10
59.909549
 20
204.894111
 30
0.0
 10
59.487366
 20
205.360617
 30
0.0
  0
SPLINE
  5
3f8
100
AcDbEntity
  8
0
 62
7
100
AcDbSpline
 70
8
 71
3
 72
8
 73
4
 74
0
 40
0
 40
0
 40
0
 40
0
 40
1
 40
1
 40
1
 40
1
 10
59.487366
 20
205.360617
 30
0.0
 10
58.661390
 20
206.273313
 30
0.0
 10
58.521915
 20
205.939356
 30
0.0
 10
58.698789
 20
203.472431
 30
0.0
  0
SPLINE
  5
3f9
100
AcDbEntity
  8
0
 62
7
100
AcDbSpline
 70
8
 71
3
 72
8
 73
4
 74
0
 40
0
 40
0
 40
0
 40
0
 40
1
 40
1
 40
1
 40
1
 10
58.698789
 20
203.472431
 30
0.0
 10
58.879878
 20
200.946692
 30
0.0
 10
58.605436
 20
200.356142
 30
0.0
 10
58.053261
 20
202.083369
 30
0.0
  0
SPLINE
  5
3fa
100
AcDbEntity
  8
0
 62
7
100
AcDbSpline
 70
8
 71
3
 72
8
 73
4
 74
0
 40
0
 40
0
 40
0
 40
0
 40
1
 40
1
 40
1
 40
1
 10
58.053261
 20
202.083369
 30
0.0
 10
57.878808
 20
202.629072
 30
0.0
 10
57.512387
 20
203.446798
 30
0.0
 10
57.238993
 20
203.900535
 30
0.0
  0
SPLINE
  5
3fb
100
AcDbEntity
  8
0
 62
7
100
AcDbSpline
 70
8
 71
3
 72
8
 73
4
 74
0
 40
0
 40
0
 40
0
 40
0
 40
1
 40
1
 40
1
 40
1
 10
57.238993
 20
203.900535
 30
0.0
 10
56.965599
 20
204.354274
 30
0.0
 10
56.741915
 20
205.030380
 30
0.0
 10
56.741915
 20
205.402993
 30
0.0
  0
SPLINE
  5
3fc
100
AcDbEntity
  8
0
 62
7
100
AcDbSpline
 70
8
 71
3
 72
8
 73
4
 74
0
 40
0
 40
0
 40
0
 40
0
 40
1
 40
1
 40
1
 40
1
 10
56.741915
 20
205.402993
 30
0.0
 10
56.741915
 20
206.091539
 30
0.0
 10
56.138228
 20
206.912014
 30
0.0
 10
55.631609
 20
206.912014
 30
0.0
  0
SPLINE
  5
3fd
100
AcDbEntity
  8
0
 62
7
100
AcDbSpline
 70
8
 71
3
 72
8
 73
4
 74
0
 40
0
 40
0
 40
0
 40
0
 40
1
 40
1
 40
1
 40
1
 10
55.631609
 20
206.912014
 30
0.0
 10
55.455616
 20
206.912014
 30
0.0
 10
55.420943
 20
206.595017
 30
0.0
 10
55.537555
 20
206.052119
 30
0.0
  0
SPLINE
  5
3fe
100
AcDbEntity
  8
0
 62
7
100
AcDbSpline
 70
8
 71
3
 72
8
 73
4
 74
0
 40
0
 40
0
 40
0
 40
0
 40
1
 40
1
 40
1
 40
1
 10
55.537555
 20
206.052119
 30
0.0
 10
55.942936
 20
204.164838
 30
0.0
 10
56.115339
 20
202.385126
 30
0.0
 10
55.905350
 20
202.255345
 30
0.0
  0
SPLINE
  5
3ff
100
AcDbEntity
  8
0
 62
7
100
AcDbSpline
 70
8
 71
3
 72
8
 73
4
 74
0
 40
0
 40
0
 40
0
 40
0
 40
1
 40
1
 40
1
 40
1
 10
55.905350
 20
202.255345
 30
0.0
 10
55.783377
 20
202.179963
 30
0.0
 10
55.683581
 20
201.847498
 30
0.0
 10
55.683581
 20
201.516539
 30
0.0
  0
SPLINE
  5
400
100
AcDbEntity
  8
0
 62
7
100
AcDbSpline
 70
8
 71
3
 72
8
 73
4
 74
0
 40
0
 40
0
 40
0
 40
0
 40
1
 40
1
 40
1
 40
1
 10
55.683581
 20
201.516539
 30
0.0
 10
55.683581
 20
201.185579
 30
0.0
 10
55.613123
 20
200.844333
 30
0.0
 10
55.527003
 20
200.758216
 30
0.0
  0
SPLINE
  5
401
100
AcDbEntity
  8
0
 62
7
100
AcDbSpline
 70
8
 71
3
 72
8
 73
4
 74
0
 40
0
 40
0
 40
0
 40
0
 40
1
 40
1
 40
1
 40
1
 10
55.527003
 20
200.758216
 30
0.0
 10
55.316324
 20
200.547534
 30
0.0
 10
53.155858
 20
201.490038
 30
0.0
 10
52.283310
 20
202.173279
 30
0.0
  0
SPLINE
  5
402
100
AcDbEntity
  8
0
 62
7
100
AcDbSpline
 70
8
 71
3
 72
8
 73
4
 74
0
 40
0
 40
0
 40
0
 40
0
 40
1
 40
1
 40
1
 40
1
 10
52.283310
 20
202.173279
 30
0.0
 10
51.897886
 20
202.475079
 30
0.0
 10
50.496399
 20
203.412437
 30
0.0
 10
49.168891
 20
204.256296
 30
0.0
  0
SPLINE
  5
403
100
AcDbEntity
  8
0
 62
7
100
AcDbSpline
 70
8
 71
3
 72
8
 73
4
 74
0
 40
0
 40
0
 40
0
 40
0
 40
1
 40
1
 40
1
 40
1
 10
49.168891
 20
204.256296
 30
0.0
 10
47.180063
 20
205.520534
 30
0.0
 10
46.481532
 20
206.155968
 30
0.0
 10
45.200141
 20
207.866539
 30
0.0
  0
SPLINE
  5
404
100
AcDbEntity
  8
0
 62
7
100
AcDbSpline
 70
8
 71
3
 72
8
 73
4
 74
0
 40
0
 40
0
 40
0
 40
0
 40
1
 40
1
 40
1
 40
1
 10
45.200141
 20
207.866539
 30
0.0
 10
42.926540
 20
210.901648
 30
0.0
 10
42.955631
 20
210.830533
 30
0.0
 10
43.540931
 20
211.922575
 30
0.0
  0
SPLINE
  5
405
100
AcDbEntity
  8
0
 62
7
100
AcDbSpline
 70
8
 71
3
 72
8
 73
4
 74
0
 40
0
 40
0
 40
0
 40
0
 40
1
 40
1
 40
1
 40
1
 10
43.540931
 20
211.922575
 30
0.0
 10
43.816471
 20
212.436676
 30
0.0
 10
44.041915
 20
213.007894
 30
0.0
 10
44.041915
 20
213.191950
 30
0.0
  0
SPLINE
  5
406
100
AcDbEntity
  8
0
 62
7
100
AcDbSpline
 70
8
 71
3
 72
8
 73
4
 74
0
 40
0
 40
0
 40
0
 40
0
 40
1
 40
1
 40
1
 40
1
 10
44.041915
 20
213.191950
 30
0.0
 10
44.041915
 20
213.613788
 30
0.0
 10
44.607274
 20
213.619315
 30
0.0
 10
45.513657
 20
213.206338
 30
0.0
  0
SPLINE
  5
407
100
AcDbEntity
  8
0
 62
7
100
AcDbSpline
 70
8
 71
3
 72
8
 73
4
 74
0
 40
0
 40
0
 40
0
 40
0
 40
1
 40
1
 40
1
 40
1
 10
45.513657
 20
213.206338
 30
0.0
 10
46.109924
 20
212.934661
 30
0.0
 10
46.266748
 20
212.954728
 30
0.0
 10
46.547463
 20
213.338630
 30
0.0
  0
SPLINE
  5
408
100
AcDbEntity
  8
0
 62
7
100
AcDbSpline
 70
8
 71
3
 72
8
 73
4
 74
0
 40
0
 40
0
 40
0
 40
0
 40
1
 40
1
 40
1
 40
1
 10
46.547463
 20
213.338630
 30
0.0
 10
46.762376
 20
213.632541
 30
0.0
 10
47.242336
 20
213.791181
 30
0.0
 10
47.916642
 20
213.791181
 30
0.0
  0
SPLINE
  5
409
100
AcDbEntity
  8
0
 62
7
100
AcDbSpline
 70
8
 71
3
 72
8
 73
4
 74
0
 40
0
 40
0
 40
0
 40
0
 40
1
 40
1
 40
1
 40
1
 10
47.916642
 20
213.791181
 30
0.0
 10
48.798917
 20
213.791181
 30
0.0
 10
49.028286
 20
213.915405
 30
0.0
 10
49.443328
 20
214.618014
 30
0.0
  0
SPLINE
  5
40a
100
AcDbEntity
  8
0
 62
7
100
AcDbSpline
 70
8
 71
3
 72
8
 73
4
 74
0
 40
0
 40
0
 40
0
 40
0
 40
1
 40
1
 40
1
 40
1
 10
49.443328
 20
214.618014
 30
0.0
 10
49.929140
 20
215.440429
 30
0.0
 10
49.941427
 20
215.444154
 30
0.0
 10
51.742861
 20
215.315262
 30
0.0
  0
SPLINE
  5
40b
100
AcDbEntity
  8
0
 62
7
100
AcDbSpline
 70
8
 71
3
 72
8
 73
4
 74
0
 40
0
 40
0
 40
0
 40
0
 40
1
 40
1
 40
1
 40
1
 10
51.742861
 20
215.315262
 30
0.0
 10
53.373941
 20
215.198559
 30
0.0
 10
53.570415
 20
215.237480
 30
0.0
 10
53.719373
 20
215.706800
 30
0.0
  0
SPLINE
  5
40c
100
AcDbEntity
  8
0
 62
7
100
AcDbSpline
 70
8
 71
3
 72
8
 73
4
 74
0
 40
0
 40
0
 40
0
 40
0
 40
1
 40
1
 40
1
 40
1
 10
53.719373
 20
215.706800
 30
0.0
 10
53.851612
 20
216.123453
 30
0.0
 10
54.041667
 20
216.196543
 30
0.0
 10
54.667417
 20
216.071393
 30
0.0
  0
SPLINE
  5
40d
100
AcDbEntity
  8
0
 62
7
100
AcDbSpline
 70
8
 71
3
 72
8
 73
4
 74
0
 40
0
 40
0
 40
0
 40
0
 40
1
 40
1
 40
1
 40
1
 10
54.667417
 20
216.071393
 30
0.0
 10
55.277089
 20
215.949459
 30
0.0
 10
55.595483
 20
216.060280
 30
0.0
 10
56.108018
 20
216.572814
 30
0.0
  0
SPLINE
  5
40e
100
AcDbEntity
  8
0
 62
7
100
AcDbSpline
 70
8
 71
3
 72
8
 73
4
 74
0
 40
0
 40
0
 40
0
 40
0
 40
1
 40
1
 40
1
 40
1
 10
56.108018
 20
216.572814
 30
0.0
 10
56.942919
 20
217.407716
 30
0.0
 10
57.061960
 20
217.399179
 30
0.0
 10
58.025850
 20
216.435290
 30
0.0
  0
SPLINE
  5
40f
100
AcDbEntity
  8
0
 62
7
100
AcDbSpline
 70
8
 71
3
 72
8
 73
4
 74
0
 40
0
 40
0
 40
0
 40
0
 40
1
 40
1
 40
1
 40
1
 10
58.025850
 20
216.435290
 30
0.0
 10
58.807421
 20
215.653720
 30
0.0
 10
58.822807
 20
215.650252
 30
0.0
 10
58.906098
 20
216.236852
 30
0.0
  0
SPLINE
  5
410
100
AcDbEntity
  8
0
 62
7
100
AcDbSpline
 70
8
 71
3
 72
8
 73
4
 74
0
 40
0
 40
0
 40
0
 40
0
 40
1
 40
1
 40
1
 40
1
 10
58.906098
 20
216.236852
 30
0.0
 10
58.989404
 20
216.823541
 30
0.0
 10
59.043612
 20
216.832213
 30
0.0
 10
62.033581
 20
216.737146
 30
0.0
  0
SPLINE
  5
411
100
AcDbEntity
  8
0
 62
7
100
AcDbSpline
 70
8
 71
3
 72
8
 73
4
 74
0
 40
0
 40
0
 40
0
 40
0
 40
1
 40
1
 40
1
 40
1
 10
62.033581
 20
216.737146
 30
0.0
 10
63.707071
 20
216.683938
 30
0.0
 10
65.271507
 20
216.537954
 30
0.0
 10
65.510106
 20
216.412739
 30
0.0
  0
SPLINE
  5
412
100
AcDbEntity
  8
0
 62
7
100
AcDbSpline
 70
8
 71
3
 72
8
 73
4
 74
0
 40
0
 40
0
 40
0
 40
0
 40
1
 40
1
 40
1
 40
1
 10
65.510106
 20
216.412739
 30
0.0
 10
65.828235
 20
216.245784
 30
0.0
 10
65.978424
 20
216.317012
 30
0.0
 10
66.073306
 20
216.679843
 30
0.0
  0
SPLINE
  5
413
100
AcDbEntity
  8
0
 62
7
100
AcDbSpline
 70
8
 71
3
 72
8
 73
4
 74
0
 40
0
 40
0
 40
0
 40
0
 40
1
 40
1
 40
1
 40
1
 10
66.073306
 20
216.679843
 30
0.0
 10
66.358775
 20
217.771480
 30
0.0
 10
69.590166
 20
217.669041
 30
0.0
 10
70.641125
 20
216.535038
 30
0.0
  0
SPLINE
  5
414
100
AcDbEntity
  8
0
 62
7
100
AcDbSpline
 70
8
 71
3
 72
8
 73
4
 74
0
 40
0
 40
0
 40
0
 40
0
 40
1
 40
1
 40
1
 40
1
 10
70.641125
 20
216.535038
 30
0.0
 10
71.212170
 20
215.918871
 30
0.0
 10
71.234350
 20
215.915760
 30
0.0
 10
71.369571
 20
216.432851
 30
0.0
  0
SPLINE
  5
415
100
AcDbEntity
  8
0
 62
7
100
AcDbSpline
 70
8
 71
3
 72
8
 73
4
 74
0
 40
0
 40
0
 40
0
 40
0
 40
1
 40
1
 40
1
 40
1
 10
71.369571
 20
216.432851
 30
0.0
 10
71.549252
 20
217.119947
 30
0.0
 10
72.267019
 20
217.122627
 30
0.0
 10
72.484623
 20
216.437016
 30
0.0
  0
SPLINE
  5
416
100
AcDbEntity
  8
0
 62
7
100
AcDbSpline
 70
8
 71
3
 72
8
 73
4
 74
0
 40
0
 40
0
 40
0
 40
0
 40
1
 40
1
 40
1
 40
1
 10
72.484623
 20
216.437016
 30
0.0
 10
72.710122
 20
215.726532
 30
0.0
 10
73.487222
 20
215.765287
 30
0.0
 10
73.810945
 20
216.503162
 30
0.0
  0
SPLINE
  5
417
100
AcDbEntity
  8
0
 62
7
100
AcDbSpline
 70
8
 71
3
 72
8
 73
4
 74
0
 40
0
 40
0
 40
0
 40
0
 40
1
 40
1
 40
1
 40
1
 10
73.810945
 20
216.503162
 30
0.0
 10
74.059785
 20
217.070352
 30
0.0
 10
74.203359
 20
217.096471
 30
0.0
 10
76.850248
 20
217.056069
 30
0.0
  0
SPLINE
  5
418
100
AcDbEntity
  8
0
 62
7
100
AcDbSpline
 70
8
 71
3
 72
8
 73
4
 74
0
 40
0
 40
0
 40
0
 40
0
 40
1
 40
1
 40
1
 40
1
 10
76.850248
 20
217.056069
 30
0.0
 10
78.433655
 20
217.031899
 30
0.0
 10
80.481744
 20
216.812004
 30
0.0
 10
81.612748
 20
216.544737
 30
0.0
  0
SPLINE
  5
419
100
AcDbEntity
  8
0
 62
7
100
AcDbSpline
 70
8
 71
3
 72
8
 73
4
 74
0
 40
0
 40
0
 40
0
 40
0
 40
1
 40
1
 40
1
 40
1
 10
81.612748
 20
216.544737
 30
0.0
 10
83.311696
 20
216.143260
 30
0.0
 10
83.749351
 20
215.915969
 30
0.0
 10
84.655456
 20
214.964547
 30
0.0
  0
SPLINE
  5
41a
100
AcDbEntity
  8
0
 62
7
100
AcDbSpline
 70
8
 71
3
 72
8
 73
4
 74
0
 40
0
 40
0
 40
0
 40
0
 40
1
 40
1
 40
1
 40
1
 10
84.655456
 20
214.964547
 30
0.0
 10
85.237540
 20
214.353353
 30
0.0
 10
85.847486
 20
213.630952
 30
0.0
 10
86.010890
 20
213.359213
 30
0.0
  0
SPLINE
  5
41b
100
AcDbEntity
  8
0
 62
7
100
AcDbSpline
 70
8
 71
3
 72
8
 73
4
 74
0
 40
0
 40
0
 40
0
 40
0
 40
1
 40
1
 40
1
 40
1
 10
86.010890
 20
213.359213
 30
0.0
 10
86.300768
 20
212.877155
 30
0.0
 10
86.321514
 20
212.877249
 30
0.0
 10
86.864034
 20
213.363057
 30
0.0
  0
SPLINE
  5
41c
100
AcDbEntity
  8
0
 62
7
100
AcDbSpline
 70
8
 71
3
 72
8
 73
4
 74
0
 40
0
 40
0
 40
0
 40
0
 40
1
 40
1
 40
1
 40
1
 10
86.864034
 20
213.363057
 30
0.0
 10
87.355804
 20
213.803421
 30
0.0
 10
87.516182
 20
213.821166
 30
0.0
 10
88.251519
 20
213.516579
 30
0.0
  0
SPLINE
  5
41d
100
AcDbEntity
  8
0
 62
7
100
AcDbSpline
 70
8
 71
3
 72
8
 73
4
 74
0
 40
0
 40
0
 40
0
 40
0
 40
1
 40
1
 40
1
 40
1
 10
88.251519
 20
213.516579
 30
0.0
 10
89.321098
 20
213.073545
 30
0.0
 10
90.281464
 20
212.032386
 30
0.0
 10
90.488024
 20
211.091924
 30
0.0
  0
SPLINE
  5
41e
100
AcDbEntity
  8
0
 62
7
100
AcDbSpline
 70
8
 71
3
 72
8
 73
4
 74
0
 40
0
 40
0
 40
0
 40
0
 40
1
 40
1
 40
1
 40
1
 10
90.488024
 20
211.091924
 30
0.0
 10
90.687858
 20
210.182083
 30
0.0
 10
90.874032
 20
210.169074
 30
0.0
 10
91.663811
 20
211.009753
 30
0.0
  0
SPLINE
  5
41f
100
AcDbEntity
  8
0
 62
7
100
AcDbSpline
 70
8
 71
3
 72
8
 73
4
 74
0
 40
0
 40
0
 40
0
 40
0
 40
1
 40
1
 40
1
 40
1
 10
91.663811
 20
211.009753
 30
0.0
 10
92.373767
 20
211.765466
 30
0.0
 10
92.989831
 20
211.513355
 30
0.0
 10
92.989831
 20
210.467108
 30
0.0
  0
SPLINE
  5
420
100
AcDbEntity
  8
0
 62
7
100
AcDbSpline
 70
8
 71
3
 72
8
 73
4
 74
0
 40
0
 40
0
 40
0
 40
0
 40
1
 40
1
 40
1
 40
1
 10
92.989831
 20
210.467108
 30
0.0
 10
92.989831
 20
209.661965
 30
0.0
 10
93.434344
 20
209.403478
 30
0.0
 10
93.650070
 20
210.083174
 30
0.0
  0
SPLINE
  5
421
100
AcDbEntity
  8
0
 62
7
100
AcDbSpline
 70
8
 71
3
 72
8
 73
4
 74
0
 40
0
 40
0
 40
0
 40
0
 40
1
 40
1
 40
1
 40
1
 10
93.650070
 20
210.083174
 30
0.0
 10
93.885324
 20
210.824391
 30
0.0
 10
94.197678
 20
210.755912
 30
0.0
 10
95.442791
 20
209.690141
 30
0.0
  0
SPLINE
  5
422
100
AcDbEntity
  8
0
 62
7
100
AcDbSpline
 70
8
 71
3
 72
8
 73
4
 74
0
 40
0
 40
0
 40
0
 40
0
 40
1
 40
1
 40
1
 40
1
 10
95.442791
 20
209.690141
 30
0.0
 10
96.037821
 20
209.180818
 30
0.0
 10
96.612586
 20
208.764099
 30
0.0
 10
96.720044
 20
208.764099
 30
0.0
  0
SPLINE
  5
423
100
AcDbEntity
  8
0
 62
7
100
AcDbSpline
 70
8
 71
3
 72
8
 73
4
 74
0
 40
0
 40
0
 40
0
 40
0
 40
1
 40
1
 40
1
 40
1
 10
96.720044
 20
208.764099
 30
0.0
 10
96.827501
 20
208.764099
 30
0.0
 10
97.172968
 20
208.347380
 30
0.0
 10
97.487748
 20
207.838057
 30
0.0
  0
SPLINE
  5
424
100
AcDbEntity
  8
0
 62
7
100
AcDbSpline
 70
8
 71
3
 72
8
 73
4
 74
0
 40
0
 40
0
 40
0
 40
0
 40
1
 40
1
 40
1
 40
1
 10
97.487748
 20
207.838057
 30
0.0
 10
97.911293
 20
207.152744
 30
0.0
 10
98.244258
 20
206.912016
 30
0.0
 10
98.768598
 20
206.912016
 30
0.0
  0
SPLINE
  5
425
100
AcDbEntity
  8
0
 62
7
100
AcDbSpline
 70
8
 71
3
 72
8
 73
4
 74
0
 40
0
 40
0
 40
0
 40
0
 40
1
 40
1
 40
1
 40
1
 10
98.768598
 20
206.912016
 30
0.0
 10
99.190580
 20
206.912016
 30
0.0
 10
99.610775
 20
206.698008
 30
0.0
 10
99.807596
 20
206.382849
 30
0.0
  0
SPLINE
  5
426
100
AcDbEntity
  8
0
 62
7
100
AcDbSpline
 70
8
 71
3
 72
8
 73
4
 74
0
 40
0
 40
0
 40
0
 40
0
 40
1
 40
1
 40
1
 40
1
 10
99.807596
 20
206.382849
 30
0.0
 10
99.989354
 20
206.091807
 30
0.0
 10
100.369894
 20
205.853682
 30
0.0
 10
100.653239
 20
205.853682
 30
0.0
  0
SPLINE
  5
427
100
AcDbEntity
  8
0
 62
7
100
AcDbSpline
 70
8
 71
3
 72
8
 73
4
 74
0
 40
0
 40
0
 40
0
 40
0
 40
1
 40
1
 40
1
 40
1
 10
100.653239
 20
205.853682
 30
0.0
 10
100.936586
 20
205.853682
 30
0.0
 10
101.607035
 20
205.556026
 30
0.0
 10
102.143129
 20
205.192224
 30
0.0
  0
SPLINE
  5
428
100
AcDbEntity
  8
0
 62
7
100
AcDbSpline
 70
8
 71
3
 72
8
 73
4
 74
0
 40
0
 40
0
 40
0
 40
0
 40
1
 40
1
 40
1
 40
1
 10
102.143129
 20
205.192224
 30
0.0
 10
102.679220
 20
204.828422
 30
0.0
 10
103.418188
 20
204.530766
 30
0.0
 10
103.785278
 20
204.530766
 30
0.0
  0
SPLINE
  5
429
100
AcDbEntity
  8
0
 62
7
100
AcDbSpline
 70
8
 71
3
 72
8
 73
4
 74
0
 40
0
 40
0
 40
0
 40
0
 40
1
 40
1
 40
1
 40
1
 10
103.785278
 20
204.530766
 30
0.0
 10
104.706298
 20
204.530766
 30
0.0
 10
106.749263
 20
203.289640
 30
0.0
 10
106.743394
 20
202.733676
 30
0.0
  0
SPLINE
  5
42a
100
AcDbEntity
  8
0
 62
7
100
AcDbSpline
 70
8
 71
3
 72
8
 73
4
 74
0
 40
0
 40
0
 40
0
 40
0
 40
1
 40
1
 40
1
 40
1
 10
106.743394
 20
202.733676
 30
0.0
 10
106.736753
 20
202.103780
 30
0.0
 10
104.889250
 20
200.634411
 30
0.0
 10
103.909823
 20
200.480051
 30
0.0
  0
SPLINE
  5
42b
100
AcDbEntity
  8
0
 62
7
100
AcDbSpline
 70
8
 71
3
 72
8
 73
4
 74
0
 40
0
 40
0
 40
0
 40
0
 40
1
 40
1
 40
1
 40
1
 10
103.909823
 20
200.480051
 30
0.0
 10
102.580847
 20
200.270601
 30
0.0
 10
101.616806
 20
199.681215
 30
0.0
 10
101.226937
 20
198.839814
 30
0.0
  0
SPLINE
  5
42c
100
AcDbEntity
  8
0
 62
7
100
AcDbSpline
 70
8
 71
3
 72
8
 73
4
 74
0
 40
0
 40
0
 40
0
 40
0
 40
1
 40
1
 40
1
 40
1
 10
101.226937
 20
198.839814
 30
0.0
 10
101.025267
 20
198.404577
 30
0.0
 10
100.564693
 20
197.730728
 30
0.0
 10
100.203437
 20
197.342370
 30
0.0
  0
SPLINE
  5
42d
100
AcDbEntity
  8
0
 62
7
100
AcDbSpline
 70
8
 71
3
 72
8
 73
4
 74
0
 40
0
 40
0
 40
0
 40
0
 40
1
 40
1
 40
1
 40
1
 10
100.203437
 20
197.342370
 30
0.0
 10
99.837743
 20
196.949242
 30
0.0
 10
99.630868
 20
196.499931
 30
0.0
 10
99.736706
 20
196.328682
 30
0.0
  0
SPLINE
  5
42e
100
AcDbEntity
  8
0
 62
7
100
AcDbSpline
 70
8
 71
3
 72
8
 73
4
 74
0
 40
0
 40
0
 40
0
 40
0
 40
1
 40
1
 40
1
 40
1
 10
99.736706
 20
196.328682
 30
0.0
 10
100.011159
 20
195.884609
 30
0.0
 10
98.562790
 20
194.476600
 30
0.0
 10
97.831532
 20
194.476600
 30
0.0
  0
SPLINE
  5
42f
100
AcDbEntity
  8
0
 62
7
100
AcDbSpline
 70
8
 71
3
 72
8
 73
4
 74
0
 40
0
 40
0
 40
0
 40
0
 40
1
 40
1
 40
1
 40
1
 10
97.831532
 20
194.476600
 30
0.0
 10
97.492981
 20
194.476600
 30
0.0
 10
96.985577
 20
194.620494
 30
0.0
 10
96.703965
 20
194.796360
 30
0.0
  0
SPLINE
  5
430
100
AcDbEntity
  8
0
 62
7
100
AcDbSpline
 70
8
 71
3
 72
8
 73
4
 74
0
 40
0
 40
0
 40
0
 40
0
 40
1
 40
1
 40
1
 40
1
 10
96.703965
 20
194.796360
 30
0.0
 10
96.265524
 20
195.070172
 30
0.0
 10
96.033116
 20
194.988482
 30
0.0
 10
95.086649
 20
194.227879
 30
0.0
  0
SPLINE
  5
431
100
AcDbEntity
  8
0
 62
7
100
AcDbSpline
 70
8
 71
3
 72
8
 73
4
 74
0
 40
0
 40
0
 40
0
 40
0
 40
1
 40
1
 40
1
 40
1
 10
95.086649
 20
194.227879
 30
0.0
 10
94.393194
 20
193.670605
 30
0.0
 10
93.707162
 20
193.347433
 30
0.0
 10
93.245488
 20
193.360561
 30
0.0
  0
SPLINE
  5
432
100
AcDbEntity
  8
0
 62
7
100
AcDbSpline
 70
8
 71
3
 72
8
 73
4
 74
0
 40
0
 40
0
 40
0
 40
0
 40
1
 40
1
 40
1
 40
1
 10
93.245488
 20
193.360561
 30
0.0
 10
92.486996
 20
193.382125
 30
0.0
 10
92.176380
 20
192.935355
 30
0.0
 10
91.786197
 20
191.261600
 30
0.0
  0
SPLINE
  5
433
100
AcDbEntity
  8
0
 62
7
100
AcDbSpline
 70
8
 71
3
 72
8
 73
4
 74
0
 40
0
 40
0
 40
0
 40
0
 40
1
 40
1
 40
1
 40
1
 10
91.786197
 20
191.261600
 30
0.0
 10
91.634847
 20
190.612366
 30
0.0
 10
91.439230
 20
190.359215
 30
0.0
 10
90.146688
 20
189.139901
 30
0.0
  0
SPLINE
  5
434
100
AcDbEntity
  8
0
 62
7
100
AcDbSpline
 70
8
 71
3
 72
8
 73
4
 74
0
 40
0
 40
0
 40
0
 40
0
 40
1
 40
1
 40
1
 40
1
 10
90.146688
 20
189.139901
 30
0.0
 10
89.889042
 20
188.896855
 30
0.0
 10
89.513481
 20
188.122949
 30
0.0
 10
89.312104
 20
187.420110
 30
0.0
  0
SPLINE
  5
435
100
AcDbEntity
  8
0
 62
7
100
AcDbSpline
 70
8
 71
3
 72
8
 73
4
 74
0
 40
0
 40
0
 40
0
 40
0
 40
1
 40
1
 40
1
 40
1
 10
89.312104
 20
187.420110
 30
0.0
 10
88.917653
 20
186.043403
 30
0.0
 10
88.350881
 20
185.216184
 30
0.0
 10
87.802074
 20
185.216184
 30
0.0
  0
SPLINE
  5
436
100
AcDbEntity
  8
0
 62
7
100
AcDbSpline
 70
8
 71
3
 72
8
 73
4
 74
0
 40
0
 40
0
 40
0
 40
0
 40
1
 40
1
 40
1
 40
1
 10
87.802074
 20
185.216184
 30
0.0
 10
87.565820
 20
185.216184
 30
0.0
 10
87.434280
 20
185.731629
 30
0.0
 10
87.380061
 20
186.869829
 30
0.0
  0
LWPOLYLINE
  5
437
100
AcDbEntity
  8
0
 62
7
100
AcDbPolyline
 90
3
 70
0
 10
65.353120
 20
201.951077
 30
0.0
 10
64.888221
 20
203.075556
 30
0.0
 10
64.643960
 20
202.215660
 30
0.0
  0
SPLINE
  5
438
100
AcDbEntity
  8
0
 62
7
100
AcDbSpline
 70
8
 71
3
 72
8
 73
4
 74
0
 40
0
 40
0
 40
0
 40
0
 40
1
 40
1
 40
1
 40
1
 10
86.507540
 20
187.233438
 30
0.0
 10
84.956708
 20
184.712957
 30
0.0
 10
84.524736
 20
184.459954
 30
0.0
 10
82.861732
 20
185.098108
 30
0.0
  0
SPLINE
  5
439
100
AcDbEntity
  8
0
 62
7
100
AcDbSpline
 70
8
 71
3
 72
8
 73
4
 74
0
 40
0
 40
0
 40
0
 40
0
 40
1
 40
1
 40
1
 40
1
 10
82.861732
 20
185.098108
 30
0.0
 10
82.607457
 20
185.195684
 30
0.0
 10
82.426167
 20
185.036740
 30
0.0
 10
82.334891
 20
184.636217
 30
0.0
  0
SPLINE
  5
43a
100
AcDbEntity
  8
0
 62
7
100
AcDbSpline
 70
8
 71
3
 72
8
 73
4
 74
0
 40
0
 40
0
 40
0
 40
0
 40
1
 40
1
 40
1
 40
1
 10
82.334891
 20
184.636217
 30
0.0
 10
82.258352
 20
184.300355
 30
0.0
 10
81.769746
 20
183.073059
 30
0.0
 10
81.249099
 20
181.908892
 30
0.0
  0
SPLINE
  5
43b
100
AcDbEntity
  8
0
 62
7
100
AcDbSpline
 70
8
 71
3
 72
8
 73
4
 74
0
 40
0
 40
0
 40
0
 40
0
 40
1
 40
1
 40
1
 40
1
 10
81.249099
 20
181.908892
 30
0.0
 10
80.728455
 20
180.744725
 30
0.0
 10
80.415966
 20
179.753445
 30
0.0
 10
80.554682
 20
179.706048
 30
0.0
  0
SPLINE
  5
43c
100
AcDbEntity
  8
0
 62
7
100
AcDbSpline
 70
8
 71
3
 72
8
 73
4
 74
0
 40
0
 40
0
 40
0
 40
0
 40
1
 40
1
 40
1
 40
1
 10
80.554682
 20
179.706048
 30
0.0
 10
80.693398
 20
179.658650
 30
0.0
 10
81.434697
 20
179.978024
 30
0.0
 10
82.202009
 20
180.415766
 30
0.0
  0
SPLINE
  5
43d
100
AcDbEntity
  8
0
 62
7
100
AcDbSpline
 70
8
 71
3
 72
8
 73
4
 74
0
 40
0
 40
0
 40
0
 40
0
 40
1
 40
1
 40
1
 40
1
 10
82.202009
 20
180.415766
 30
0.0
 10
82.969322
 20
180.853509
 30
0.0
 10
84.724962
 20
181.759752
 30
0.0
 10
86.103434
 20
182.429642
 30
0.0
  0
SPLINE
  5
43e
100
AcDbEntity
  8
0
 62
7
100
AcDbSpline
 70
8
 71
3
 72
8
 73
4
 74
0
 40
0
 40
0
 40
0
 40
0
 40
1
 40
1
 40
1
 40
1
 10
86.103434
 20
182.429642
 30
0.0
 10
87.953929
 20
183.328921
 30
0.0
 10
88.939248
 20
184.004170
 30
0.0
 10
89.869010
 20
185.010224
 30
0.0
  0
LWPOLYLINE
  5
43f
100
AcDbEntity
  8
0
 62
7
100
AcDbPolyline
 90
3
 70
0
 10
87.380061
 20
186.869829
 30
0.0
 10
87.301290
 20
188.523475
 30
0.0
 10
86.507540
 20
187.233438
 30
0.0
  0
SPLINE
  5
440
100
AcDbEntity
  8
0
 62
7
100
AcDbSpline
 70
8
 71
3
 72
8
 73
4
 74
0
 40
0
 40
0
 40
0
 40
0
 40
1
 40
1
 40
1
 40
1
 10
92.126467
 20
185.291590
 30
0.0
 10
92.852023
 20
184.505669
 30
0.0
 10
93.522078
 20
184.094821
 30
0.0
 10
94.579720
 20
183.787357
 30
0.0
  0
SPLINE
  5
441
100
AcDbEntity
  8
0
 62
7
100
AcDbSpline
 70
8
 71
3
 72
8
 73
4
 74
0
 40
0
 40
0
 40
0
 40
0
 40
1
 40
1
 40
1
 40
1
 10
94.579720
 20
183.787357
 30
0.0
 10
96.349743
 20
183.272795
 30
0.0
 10
98.798002
 20
181.451795
 30
0.0
 10
102.209902
 20
178.112065
 30
0.0
  0
SPLINE
  5
442
100
AcDbEntity
  8
0
 62
7
100
AcDbSpline
 70
8
 71
3
 72
8
 73
4
 74
0
 40
0
 40
0
 40
0
 40
0
 40
1
 40
1
 40
1
 40
1
 10
102.209902
 20
178.112065
 30
0.0
 10
104.614969
 20
175.757872
 30
0.0
 10
105.425248
 20
175.252578
 30
0.0
 10
105.425248
 20
176.106958
 30
0.0
  0
SPLINE
  5
443
100
AcDbEntity
  8
0
 62
7
100
AcDbSpline
 70
8
 71
3
 72
8
 73
4
 74
0
 40
0
 40
0
 40
0
 40
0
 40
1
 40
1
 40
1
 40
1
 10
105.425248
 20
176.106958
 30
0.0
 10
105.425248
 20
176.335632
 30
0.0
 10
105.611496
 20
176.708980
 30
0.0
 10
105.839133
 20
176.936614
 30
0.0
  0
SPLINE
  5
444
100
AcDbEntity
  8
0
 62
7
100
AcDbSpline
 70
8
 71
3
 72
8
 73
4
 74
0
 40
0
 40
0
 40
0
 40
0
 40
1
 40
1
 40
1
 40
1
 10
105.839133
 20
176.936614
 30
0.0
 10
106.131720
 20
177.229204
 30
0.0
 10
106.170492
 20
177.433023
 30
0.0
 10
105.971425
 20
177.632090
 30
0.0
  0
SPLINE
  5
445
100
AcDbEntity
  8
0
 62
7
100
AcDbSpline
 70
8
 71
3
 72
8
 73
4
 74
0
 40
0
 40
0
 40
0
 40
0
 40
1
 40
1
 40
1
 40
1
 10
105.971425
 20
177.632090
 30
0.0
 10
105.816548
 20
177.786967
 30
0.0
 10
105.689831
 20
178.127996
 30
0.0
 10
105.689831
 20
178.389934
 30
0.0
  0
SPLINE
  5
446
100
AcDbEntity
  8
0
 62
7
100
AcDbSpline
 70
8
 71
3
 72
8
 73
4
 74
0
 40
0
 40
0
 40
0
 40
0
 40
1
 40
1
 40
1
 40
1
 10
105.689831
 20
178.389934
 30
0.0
 10
105.689831
 20
178.651871
 30
0.0
 10
105.574957
 20
178.866184
 30
0.0
 10
105.434556
 20
178.866184
 30
0.0
  0
SPLINE
  5
447
100
AcDbEntity
  8
0
 62
7
100
AcDbSpline
 70
8
 71
3
 72
8
 73
4
 74
0
 40
0
 40
0
 40
0
 40
0
 40
1
 40
1
 40
1
 40
1
 10
105.434556
 20
178.866184
 30
0.0
 10
104.871822
 20
178.866184
 30
0.0
 10
104.655633
 20
179.824486
 30
0.0
 10
105.047825
 20
180.580440
 30
0.0
  0
SPLINE
  5
448
100
AcDbEntity
  8
0
 62
7
100
AcDbSpline
 70
8
 71
3
 72
8
 73
4
 74
0
 40
0
 40
0
 40
0
 40
0
 40
1
 40
1
 40
1
 40
1
 10
105.047825
 20
180.580440
 30
0.0
 10
105.260614
 20
180.990587
 30
0.0
 10
105.396432
 20
181.364443
 30
0.0
 10
105.349646
 20
181.411232
 30
0.0
  0
SPLINE
  5
449
100
AcDbEntity
  8
0
 62
7
100
AcDbSpline
 70
8
 71
3
 72
8
 73
4
 74
0
 40
0
 40
0
 40
0
 40
0
 40
1
 40
1
 40
1
 40
1
 10
105.349646
 20
181.411232
 30
0.0
 10
105.302857
 20
181.458018
 30
0.0
 10
104.823996
 20
181.182820
 30
0.0
 10
104.285505
 20
180.799676
 30
0.0
  0
SPLINE
  5
44a
100
AcDbEntity
  8
0
 62
7
100
AcDbSpline
 70
8
 71
3
 72
8
 73
4
 74
0
 40
0
 40
0
 40
0
 40
0
 40
1
 40
1
 40
1
 40
1
 10
104.285505
 20
180.799676
 30
0.0
 10
103.747014
 20
180.416536
 30
0.0
 10
103.227524
 20
180.181964
 30
0.0
 10
103.131080
 20
180.278408
 30
0.0
  0
SPLINE
  5
44b
100
AcDbEntity
  8
0
 62
7
100
AcDbSpline
 70
8
 71
3
 72
8
 73
4
 74
0
 40
0
 40
0
 40
0
 40
0
 40
1
 40
1
 40
1
 40
1
 10
103.131080
 20
180.278408
 30
0.0
 10
103.034637
 20
180.374851
 30
0.0
 10
103.313928
 20
181.148297
 30
0.0
 10
103.751729
 20
181.997175
 30
0.0
  0
LWPOLYLINE
  5
44c
100
AcDbEntity
  8
0
 62
7
100
AcDbPolyline
 90
3
 70
0
 10
89.869010
 20
185.010224
 30
0.0
 10
91.128276
 20
186.372825
 30
0.0
 10
92.126467
 20
185.291590
 30
0.0
  0
SPLINE
  5
44d
100
AcDbEntity
  8
0
 62
7
100
AcDbSpline
 70
8
 71
3
 72
8
 73
4
 74
0
 40
0
 40
0
 40
0
 40
0
 40
1
 40
1
 40
1
 40
1
 10
103.729719
 20
183.503869
 30
0.0
 10
103.279810
 20
183.483681
 30
0.0
 10
102.524753
 20
183.262312
 30
0.0
 10
102.051810
 20
183.011956
 30
0.0
  0
SPLINE
  5
44e
100
AcDbEntity
  8
0
 62
7
100
AcDbSpline
 70
8
 71
3
 72
8
 73
4
 74
0
 40
0
 40
0
 40
0
 40
0
 40
1
 40
1
 40
1
 40
1
 10
102.051810
 20
183.011956
 30
0.0
 10
101.064968
 20
182.489560
 30
0.0
 10
100.982388
 20
182.708262
 30
0.0
 10
101.699769
 20
183.944289
 30
0.0
  0
SPLINE
  5
44f
100
AcDbEntity
  8
0
 62
7
100
AcDbSpline
 70
8
 71
3
 72
8
 73
4
 74
0
 40
0
 40
0
 40
0
 40
0
 40
1
 40
1
 40
1
 40
1
 10
101.699769
 20
183.944289
 30
0.0
 10
101.979090
 20
184.425550
 30
0.0
 10
102.337132
 20
185.311455
 30
0.0
 10
102.495419
 20
185.912966
 30
0.0
  0
SPLINE
  5
450
100
AcDbEntity
  8
0
 62
7
100
AcDbSpline
 70
8
 71
3
 72
8
 73
4
 74
0
 40
0
 40
0
 40
0
 40
0
 40
1
 40
1
 40
1
 40
1
 10
102.495419
 20
185.912966
 30
0.0
 10
102.653706
 20
186.514478
 30
0.0
 10
102.944298
 20
187.140313
 30
0.0
 10
103.141177
 20
187.303709
 30
0.0
  0
SPLINE
  5
451
100
AcDbEntity
  8
0
 62
7
100
AcDbSpline
 70
8
 71
3
 72
8
 73
4
 74
0
 40
0
 40
0
 40
0
 40
0
 40
1
 40
1
 40
1
 40
1
 10
103.141177
 20
187.303709
 30
0.0
 10
103.348999
 20
187.476186
 30
0.0
 10
103.444500
 20
187.886634
 30
0.0
 10
103.368867
 20
188.282278
 30
0.0
  0
SPLINE
  5
452
100
AcDbEntity
  8
0
 62
7
100
AcDbSpline
 70
8
 71
3
 72
8
 73
4
 74
0
 40
0
 40
0
 40
0
 40
0
 40
1
 40
1
 40
1
 40
1
 10
103.368867
 20
188.282278
 30
0.0
 10
103.269135
 20
188.804000
 30
0.0
 10
103.116973
 20
188.931960
 30
0.0
 10
102.719820
 20
188.828103
 30
0.0
  0
SPLINE
  5
453
100
AcDbEntity
  8
0
 62
7
100
AcDbSpline
 70
8
 71
3
 72
8
 73
4
 74
0
 40
0
 40
0
 40
0
 40
0
 40
1
 40
1
 40
1
 40
1
 10
102.719820
 20
188.828103
 30
0.0
 10
102.434496
 20
188.753488
 30
0.0
 10
101.810434
 20
188.911836
 30
0.0
 10
101.333017
 20
189.179986
 30
0.0
  0
SPLINE
  5
454
100
AcDbEntity
  8
0
 62
7
100
AcDbSpline
 70
8
 71
3
 72
8
 73
4
 74
0
 40
0
 40
0
 40
0
 40
0
 40
1
 40
1
 40
1
 40
1
 10
101.333017
 20
189.179986
 30
0.0
 10
100.553793
 20
189.617649
 30
0.0
 10
100.423562
 20
189.626105
 30
0.0
 10
100.060091
 20
189.262634
 30
0.0
  0
SPLINE
  5
455
100
AcDbEntity
  8
0
 62
7
100
AcDbSpline
 70
8
 71
3
 72
8
 73
4
 74
0
 40
0
 40
0
 40
0
 40
0
 40
1
 40
1
 40
1
 40
1
 10
100.060091
 20
189.262634
 30
0.0
 10
99.379516
 20
188.582059
 30
0.0
 10
99.075248
 20
189.119198
 30
0.0
 10
99.075248
 20
191.001229
 30
0.0
  0
SPLINE
  5
456
100
AcDbEntity
  8
0
 62
7
100
AcDbSpline
 70
8
 71
3
 72
8
 73
4
 74
0
 40
0
 40
0
 40
0
 40
0
 40
1
 40
1
 40
1
 40
1
 10
99.075248
 20
191.001229
 30
0.0
 10
99.075248
 20
192.489828
 30
0.0
 10
99.185103
 20
192.935196
 30
0.0
 10
99.736706
 20
193.682850
 30
0.0
  0
SPLINE
  5
457
100
AcDbEntity
  8
0
 62
7
100
AcDbSpline
 70
8
 71
3
 72
8
 73
4
 74
0
 40
0
 40
0
 40
0
 40
0
 40
1
 40
1
 40
1
 40
1
 10
99.736706
 20
193.682850
 30
0.0
 10
100.100508
 20
194.175957
 30
0.0
 10
100.398165
 20
194.712479
 30
0.0
 10
100.398165
 20
194.875121
 30
0.0
  0
SPLINE
  5
458
100
AcDbEntity
  8
0
 62
7
100
AcDbSpline
 70
8
 71
3
 72
8
 73
4
 74
0
 40
0
 40
0
 40
0
 40
0
 40
1
 40
1
 40
1
 40
1
 10
100.398165
 20
194.875121
 30
0.0
 10
100.398165
 20
195.258195
 30
0.0
 10
101.558886
 20
196.084637
 30
0.0
 10
102.964671
 20
196.702488
 30
0.0
  0
SPLINE
  5
459
100
AcDbEntity
  8
0
 62
7
100
AcDbSpline
 70
8
 71
3
 72
8
 73
4
 74
0
 40
0
 40
0
 40
0
 40
0
 40
1
 40
1
 40
1
 40
1
 10
102.964671
 20
196.702488
 30
0.0
 10
103.799444
 20
197.069378
 30
0.0
 10
104.318255
 20
197.577341
 30
0.0
 10
105.049672
 20
198.743902
 30
0.0
  0
SPLINE
  5
45a
100
AcDbEntity
  8
0
 62
7
100
AcDbSpline
 70
8
 71
3
 72
8
 73
4
 74
0
 40
0
 40
0
 40
0
 40
0
 40
1
 40
1
 40
1
 40
1
 10
105.049672
 20
198.743902
 30
0.0
 10
105.991731
 20
200.246426
 30
0.0
 10
107.494446
 20
201.503880
 30
0.0
 10
108.104824
 20
201.300420
 30
0.0
  0
SPLINE
  5
45b
100
AcDbEntity
  8
0
 62
7
100
AcDbSpline
 70
8
 71
3
 72
8
 73
4
 74
0
 40
0
 40
0
 40
0
 40
0
 40
1
 40
1
 40
1
 40
1
 10
108.104824
 20
201.300420
 30
0.0
 10
108.430311
 20
201.191925
 30
0.0
 10
109.383856
 20
198.376084
 30
0.0
 10
109.390101
 20
197.504962
 30
0.0
  0
SPLINE
  5
45c
100
AcDbEntity
  8
0
 62
7
100
AcDbSpline
 70
8
 71
3
 72
8
 73
4
 74
0
 40
0
 40
0
 40
0
 40
0
 40
1
 40
1
 40
1
 40
1
 10
109.390101
 20
197.504962
 30
0.0
 10
109.396424
 20
196.622931
 30
0.0
 10
110.867886
 20
194.559293
 30
0.0
 10
112.046763
 20
193.779151
 30
0.0
  0
SPLINE
  5
45d
100
AcDbEntity
  8
0
 62
7
100
AcDbSpline
 70
8
 71
3
 72
8
 73
4
 74
0
 40
0
 40
0
 40
0
 40
0
 40
1
 40
1
 40
1
 40
1
 10
112.046763
 20
193.779151
 30
0.0
 10
113.181199
 20
193.028414
 30
0.0
 10
114.339854
 20
191.530176
 30
0.0
 10
114.934675
 20
190.044829
 30
0.0
  0
SPLINE
  5
45e
100
AcDbEntity
  8
0
 62
7
100
AcDbSpline
 70
8
 71
3
 72
8
 73
4
 74
0
 40
0
 40
0
 40
0
 40
0
 40
1
 40
1
 40
1
 40
1
 10
114.934675
 20
190.044829
 30
0.0
 10
115.141711
 20
189.527836
 30
0.0
 10
115.465958
 20
189.184934
 30
0.0
 10
115.747789
 20
189.184934
 30
0.0
  0
SPLINE
  5
45f
100
AcDbEntity
  8
0
 62
7
100
AcDbSpline
 70
8
 71
3
 72
8
 73
4
 74
0
 40
0
 40
0
 40
0
 40
0
 40
1
 40
1
 40
1
 40
1
 10
115.747789
 20
189.184934
 30
0.0
 10
116.005607
 20
189.184934
 30
0.0
 10
116.285081
 20
189.006340
 30
0.0
 10
116.368846
 20
188.788059
 30
0.0
  0
SPLINE
  5
460
100
AcDbEntity
  8
0
 62
7
100
AcDbSpline
 70
8
 71
3
 72
8
 73
4
 74
0
 40
0
 40
0
 40
0
 40
0
 40
1
 40
1
 40
1
 40
1
 10
116.368846
 20
188.788059
 30
0.0
 10
116.452608
 20
188.569777
 30
0.0
 10
116.698691
 20
188.391184
 30
0.0
 10
116.915697
 20
188.391184
 30
0.0
  0
SPLINE
  5
461
100
AcDbEntity
  8
0
 62
7
100
AcDbSpline
 70
8
 71
3
 72
8
 73
4
 74
0
 40
0
 40
0
 40
0
 40
0
 40
1
 40
1
 40
1
 40
1
 10
116.915697
 20
188.391184
 30
0.0
 10
117.147361
 20
188.391184
 30
0.0
 10
117.442332
 20
187.950351
 30
0.0
 10
117.630165
 20
187.323423
 30
0.0
  0
SPLINE
  5
462
100
AcDbEntity
  8
0
 62
7
100
AcDbSpline
 70
8
 71
3
 72
8
 73
4
 74
0
 40
0
 40
0
 40
0
 40
0
 40
1
 40
1
 40
1
 40
1
 10
117.630165
 20
187.323423
 30
0.0
 10
117.848568
 20
186.594459
 30
0.0
 10
118.019841
 20
186.363591
 30
0.0
 10
118.169952
 20
186.595819
 30
0.0
  0
SPLINE
  5
463
100
AcDbEntity
  8
0
 62
7
100
AcDbSpline
 70
8
 71
3
 72
8
 73
4
 74
0
 40
0
 40
0
 40
0
 40
0
 40
1
 40
1
 40
1
 40
1
 10
118.169952
 20
186.595819
 30
0.0
 10
118.344683
 20
186.866130
 30
0.0
 10
118.443327
 20
186.854484
 30
0.0
 10
118.650364
 20
186.539100
 30
0.0
  0
SPLINE
  5
464
100
AcDbEntity
  8
0
 62
7
100
AcDbSpline
 70
8
 71
3
 72
8
 73
4
 74
0
 40
0
 40
0
 40
0
 40
0
 40
1
 40
1
 40
1
 40
1
 10
118.650364
 20
186.539100
 30
0.0
 10
118.793657
 20
186.320819
 30
0.0
 10
118.912719
 20
185.942121
 30
0.0
 10
118.914947
 20
185.697551
 30
0.0
  0
SPLINE
  5
465
100
AcDbEntity
  8
0
 62
7
100
AcDbSpline
 70
8
 71
3
 72
8
 73
4
 74
0
 40
0
 40
0
 40
0
 40
0
 40
1
 40
1
 40
1
 40
1
 10
118.914947
 20
185.697551
 30
0.0
 10
118.920927
 20
185.042413
 30
0.0
 10
120.035106
 20
183.428894
 30
0.0
 10
120.588127
 20
183.274525
 30
0.0
  0
SPLINE
  5
466
100
AcDbEntity
  8
0
 62
7
100
AcDbSpline
 70
8
 71
3
 72
8
 73
4
 74
0
 40
0
 40
0
 40
0
 40
0
 40
1
 40
1
 40
1
 40
1
 10
120.588127
 20
183.274525
 30
0.0
 10
121.009214
 20
183.156987
 30
0.0
 10
121.044864
 20
182.948569
 30
0.0
 10
120.885233
 20
181.537613
 30
0.0
  0
SPLINE
  5
467
100
AcDbEntity
  8
0
 62
7
100
AcDbSpline
 70
8
 71
3
 72
8
 73
4
 74
0
 40
0
 40
0
 40
0
 40
0
 40
1
 40
1
 40
1
 40
1
 10
120.885233
 20
181.537613
 30
0.0
 10
120.746234
 20
180.309041
 30
0.0
 10
120.798299
 20
179.790095
 30
0.0
 10
121.107967
 20
179.317481
 30
0.0
  0
SPLINE
  5
468
100
AcDbEntity
  8
0
 62
7
100
AcDbSpline
 70
8
 71
3
 72
8
 73
4
 74
0
 40
0
 40
0
 40
0
 40
0
 40
1
 40
1
 40
1
 40
1
 10
121.107967
 20
179.317481
 30
0.0
 10
121.768428
 20
178.309490
 30
0.0
 10
121.967718
 20
175.403187
 30
0.0
 10
121.445607
 20
174.393537
 30
0.0
  0
SPLINE
  5
469
100
AcDbEntity
  8
0
 62
7
100
AcDbSpline
 70
8
 71
3
 72
8
 73
4
 74
0
 40
0
 40
0
 40
0
 40
0
 40
1
 40
1
 40
1
 40
1
 10
121.445607
 20
174.393537
 30
0.0
 10
121.205143
 20
173.928529
 30
0.0
 10
121.078109
 20
173.328433
 30
0.0
 10
121.163310
 20
173.059990
 30
0.0
  0
SPLINE
  5
46a
100
AcDbEntity
  8
0
 62
7
100
AcDbSpline
 70
8
 71
3
 72
8
 73
4
 74
0
 40
0
 40
0
 40
0
 40
0
 40
1
 40
1
 40
1
 40
1
 10
121.163310
 20
173.059990
 30
0.0
 10
121.346034
 20
172.484275
 30
0.0
 10
120.323914
 20
170.063755
 30
0.0
 10
119.186264
 20
168.378079
 30
0.0
  0
SPLINE
  5
46b
100
AcDbEntity
  8
0
 62
7
100
AcDbSpline
 70
8
 71
3
 72
8
 73
4
 74
0
 40
0
 40
0
 40
0
 40
0
 40
1
 40
1
 40
1
 40
1
 10
119.186264
 20
168.378079
 30
0.0
 10
118.449212
 20
167.285974
 30
0.0
 10
118.429238
 20
167.201366
 30
0.0
 10
118.947300
 20
167.365791
 30
0.0
  0
SPLINE
  5
46c
100
AcDbEntity
  8
0
 62
7
100
AcDbSpline
 70
8
 71
3
 72
8
 73
4
 74
0
 40
0
 40
0
 40
0
 40
0
 40
1
 40
1
 40
1
 40
1
 10
118.947300
 20
167.365791
 30
0.0
 10
119.463579
 20
167.529653
 30
0.0
 10
119.500735
 20
167.468201
 30
0.0
 10
119.375682
 20
166.657261
 30
0.0
  0
SPLINE
  5
46d
100
AcDbEntity
  8
0
 62
7
100
AcDbSpline
 70
8
 71
3
 72
8
 73
4
 74
0
 40
0
 40
0
 40
0
 40
0
 40
1
 40
1
 40
1
 40
1
 10
119.375682
 20
166.657261
 30
0.0
 10
119.300374
 20
166.168888
 30
0.0
 10
119.149453
 20
165.488146
 30
0.0
 10
119.040304
 20
165.144503
 30
0.0
  0
SPLINE
  5
46e
100
AcDbEntity
  8
0
 62
7
100
AcDbSpline
 70
8
 71
3
 72
8
 73
4
 74
0
 40
0
 40
0
 40
0
 40
0
 40
1
 40
1
 40
1
 40
1
 10
119.040304
 20
165.144503
 30
0.0
 10
118.853553
 20
164.556527
 30
0.0
 10
118.890920
 20
164.530471
 30
0.0
 10
119.674177
 20
164.702503
 30
0.0
  0
SPLINE
  5
46f
100
AcDbEntity
  8
0
 62
7
100
AcDbSpline
 70
8
 71
3
 72
8
 73
4
 74
0
 40
0
 40
0
 40
0
 40
0
 40
1
 40
1
 40
1
 40
1
 10
119.674177
 20
164.702503
 30
0.0
 10
120.380265
 20
164.857586
 30
0.0
 10
120.506498
 20
164.808863
 30
0.0
 10
120.506498
 20
164.381243
 30
0.0
  0
SPLINE
  5
470
100
AcDbEntity
  8
0
 62
7
100
AcDbSpline
 70
8
 71
3
 72
8
 73
4
 74
0
 40
0
 40
0
 40
0
 40
0
 40
1
 40
1
 40
1
 40
1
 10
120.506498
 20
164.381243
 30
0.0
 10
120.506498
 20
164.104005
 30
0.0
 10
120.208842
 20
163.597542
 30
0.0
 10
119.845040
 20
163.255767
 30
0.0
  0
SPLINE
  5
471
100
AcDbEntity
  8
0
 62
7
100
AcDbSpline
 70
8
 71
3
 72
8
 73
4
 74
0
 40
0
 40
0
 40
0
 40
0
 40
1
 40
1
 40
1
 40
1
 10
119.845040
 20
163.255767
 30
0.0
 10
119.146627
 20
162.599640
 30
0.0
 10
119.002450
 20
161.707341
 30
0.0
 10
119.457473
 20
160.857123
 30
0.0
  0
SPLINE
  5
472
100
AcDbEntity
  8
0
 62
7
100
AcDbSpline
 70
8
 71
3
 72
8
 73
4
 74
0
 40
0
 40
0
 40
0
 40
0
 40
1
 40
1
 40
1
 40
1
 10
119.457473
 20
160.857123
 30
0.0
 10
119.648552
 20
160.500089
 30
0.0
 10
119.643678
 20
160.181507
 30
0.0
 10
119.441360
 20
159.803462
 30
0.0
  0
SPLINE
  5
473
100
AcDbEntity
  8
0
 62
7
100
AcDbSpline
 70
8
 71
3
 72
8
 73
4
 74
0
 40
0
 40
0
 40
0
 40
0
 40
1
 40
1
 40
1
 40
1
 10
119.441360
 20
159.803462
 30
0.0
 10
119.230156
 20
159.408823
 30
0.0
 10
119.233426
 20
158.866208
 30
0.0
 10
119.453398
 20
157.806602
 30
0.0
  0
LWPOLYLINE
  5
474
100
AcDbEntity
  8
0
 62
7
100
AcDbPolyline
 90
3
 70
0
 10
103.751729
 20
181.997175
 30
0.0
 10
104.547731
 20
183.540590
 30
0.0
 10
103.729719
 20
183.503869
 30
0.0
  0
SPLINE
  5
475
100
AcDbEntity
  8
0
 62
7
100
AcDbSpline
 70
8
 71
3
 72
8
 73
4
 74
0
 40
0
 40
0
 40
0
 40
0
 40
1
 40
1
 40
1
 40
1
 10
118.273272
 20
154.663410
 30
0.0
 10
116.792028
 20
152.976249
 30
0.0
 10
116.631400
 20
152.177869
 30
0.0
 10
117.987874
 20
153.244873
 30
0.0
  0
SPLINE
  5
476
100
AcDbEntity
  8
0
 62
7
100
AcDbSpline
 70
8
 71
3
 72
8
 73
4
 74
0
 40
0
 40
0
 40
0
 40
0
 40
1
 40
1
 40
1
 40
1
 10
117.987874
 20
153.244873
 30
0.0
 10
118.581051
 20
153.711465
 30
0.0
 10
118.747368
 20
153.745464
 30
0.0
 10
118.940961
 20
153.439704
 30
0.0
  0
SPLINE
  5
477
100
AcDbEntity
  8
0
 62
7
100
AcDbSpline
 70
8
 71
3
 72
8
 73
4
 74
0
 40
0
 40
0
 40
0
 40
0
 40
1
 40
1
 40
1
 40
1
 10
118.940961
 20
153.439704
 30
0.0
 10
119.328872
 20
152.827035
 30
0.0
 10
119.213350
 20
149.914951
 30
0.0
 10
118.743407
 20
148.459865
 30
0.0
  0
SPLINE
  5
478
100
AcDbEntity
  8
0
 62
7
100
AcDbSpline
 70
8
 71
3
 72
8
 73
4
 74
0
 40
0
 40
0
 40
0
 40
0
 40
1
 40
1
 40
1
 40
1
 10
118.743407
 20
148.459865
 30
0.0
 10
118.432572
 20
147.497416
 30
0.0
 10
118.385873
 20
147.014308
 30
0.0
 10
118.584483
 20
146.815699
 30
0.0
  0
SPLINE
  5
479
100
AcDbEntity
  8
0
 62
7
100
AcDbSpline
 70
8
 71
3
 72
8
 73
4
 74
0
 40
0
 40
0
 40
0
 40
0
 40
1
 40
1
 40
1
 40
1
 10
118.584483
 20
146.815699
 30
0.0
 10
118.985363
 20
146.414818
 30
0.0
 10
119.919139
 20
146.781406
 30
0.0
 10
120.411605
 20
147.533003
 30
0.0
  0
SPLINE
  5
47a
100
AcDbEntity
  8
0
 62
7
100
AcDbSpline
 70
8
 71
3
 72
8
 73
4
 74
0
 40
0
 40
0
 40
0
 40
0
 40
1
 40
1
 40
1
 40
1
 10
120.411605
 20
147.533003
 30
0.0
 10
120.642703
 20
147.885703
 30
0.0
 10
121.233864
 20
148.613246
 30
0.0
 10
121.725301
 20
149.149771
 30
0.0
  0
SPLINE
  5
47b
100
AcDbEntity
  8
0
 62
7
100
AcDbSpline
 70
8
 71
3
 72
8
 73
4
 74
0
 40
0
 40
0
 40
0
 40
0
 40
1
 40
1
 40
1
 40
1
 10
121.725301
 20
149.149771
 30
0.0
 10
122.216735
 20
149.686293
 30
0.0
 10
122.689432
 20
150.347746
 30
0.0
 10
122.775737
 20
150.619664
 30
0.0
  0
SPLINE
  5
47c
100
AcDbEntity
  8
0
 62
7
100
AcDbSpline
 70
8
 71
3
 72
8
 73
4
 74
0
 40
0
 40
0
 40
0
 40
0
 40
1
 40
1
 40
1
 40
1
 10
122.775737
 20
150.619664
 30
0.0
 10
123.027395
 20
151.412570
 30
0.0
 10
123.424746
 20
151.042314
 30
0.0
 10
123.988309
 20
149.489776
 30
0.0
  0
SPLINE
  5
47d
100
AcDbEntity
  8
0
 62
7
100
AcDbSpline
 70
8
 71
3
 72
8
 73
4
 74
0
 40
0
 40
0
 40
0
 40
0
 40
1
 40
1
 40
1
 40
1
 10
123.988309
 20
149.489776
 30
0.0
 10
124.399588
 20
148.356762
 30
0.0
 10
124.486826
 20
147.604816
 30
0.0
 10
124.389801
 20
146.029185
 30
0.0
  0
SPLINE
  5
47e
100
AcDbEntity
  8
0
 62
7
100
AcDbSpline
 70
8
 71
3
 72
8
 73
4
 74
0
 40
0
 40
0
 40
0
 40
0
 40
1
 40
1
 40
1
 40
1
 10
124.389801
 20
146.029185
 30
0.0
 10
124.280787
 20
144.258863
 30
0.0
 10
124.148382
 20
143.839240
 30
0.0
 10
123.291674
 20
142.548943
 30
0.0
  0
SPLINE
  5
47f
100
AcDbEntity
  8
0
 62
7
100
AcDbSpline
 70
8
 71
3
 72
8
 73
4
 74
0
 40
0
 40
0
 40
0
 40
0
 40
1
 40
1
 40
1
 40
1
 10
123.291674
 20
142.548943
 30
0.0
 10
122.218741
 20
140.932990
 30
0.0
 10
121.454982
 20
140.544137
 30
0.0
 10
120.698540
 20
141.228707
 30
0.0
  0
SPLINE
  5
480
100
AcDbEntity
  8
0
 62
7
100
AcDbSpline
 70
8
 71
3
 72
8
 73
4
 74
0
 40
0
 40
0
 40
0
 40
0
 40
1
 40
1
 40
1
 40
1
 10
120.698540
 20
141.228707
 30
0.0
 10
120.275832
 20
141.611252
 30
0.0
 10
120.176488
 20
141.618854
 30
0.0
 10
119.965070
 20
141.284830
 30
0.0
  0
SPLINE
  5
481
100
AcDbEntity
  8
0
 62
7
100
AcDbSpline
 70
8
 71
3
 72
8
 73
4
 74
0
 40
0
 40
0
 40
0
 40
0
 40
1
 40
1
 40
1
 40
1
 10
119.965070
 20
141.284830
 30
0.0
 10
119.587219
 20
140.687846
 30
0.0
 10
119.372282
 20
139.253402
 30
0.0
 10
119.540205
 20
138.449333
 30
0.0
  0
SPLINE
  5
482
100
AcDbEntity
  8
0
 62
7
100
AcDbSpline
 70
8
 71
3
 72
8
 73
4
 74
0
 40
0
 40
0
 40
0
 40
0
 40
1
 40
1
 40
1
 40
1
 10
119.540205
 20
138.449333
 30
0.0
 10
119.623575
 20
138.050111
 30
0.0
 10
119.819081
 20
136.949569
 30
0.0
 10
119.974656
 20
136.003684
 30
0.0
  0
SPLINE
  5
483
100
AcDbEntity
  8
0
 62
7
100
AcDbSpline
 70
8
 71
3
 72
8
 73
4
 74
0
 40
0
 40
0
 40
0
 40
0
 40
1
 40
1
 40
1
 40
1
 10
119.974656
 20
136.003684
 30
0.0
 10
120.130231
 20
135.057798
 30
0.0
 10
120.383752
 20
133.719610
 30
0.0
 10
120.538034
 20
133.029931
 30
0.0
  0
SPLINE
  5
484
100
AcDbEntity
  8
0
 62
7
100
AcDbSpline
 70
8
 71
3
 72
8
 73
4
 74
0
 40
0
 40
0
 40
0
 40
0
 40
1
 40
1
 40
1
 40
1
 10
120.538034
 20
133.029931
 30
0.0
 10
120.839846
 20
131.680733
 30
0.0
 10
120.655789
 20
129.935658
 30
0.0
 10
120.096283
 20
128.841627
 30
0.0
  0
SPLINE
  5
485
100
AcDbEntity
  8
0
 62
7
100
AcDbSpline
 70
8
 71
3
 72
8
 73
4
 74
0
 40
0
 40
0
 40
0
 40
0
 40
1
 40
1
 40
1
 40
1
 10
120.096283
 20
128.841627
 30
0.0
 10
119.905076
 20
128.467758
 30
0.0
 10
118.985096
 20
127.580422
 30
0.0
 10
118.051879
 20
126.869769
 30
0.0
  0
SPLINE
  5
486
100
AcDbEntity
  8
0
 62
7
100
AcDbSpline
 70
8
 71
3
 72
8
 73
4
 74
0
 40
0
 40
0
 40
0
 40
0
 40
1
 40
1
 40
1
 40
1
 10
118.051879
 20
126.869769
 30
0.0
 10
117.118662
 20
126.159117
 30
0.0
 10
116.103908
 20
125.224066
 30
0.0
 10
115.796872
 20
124.791877
 30
0.0
  0
SPLINE
  5
487
100
AcDbEntity
  8
0
 62
7
100
AcDbSpline
 70
8
 71
3
 72
8
 73
4
 74
0
 40
0
 40
0
 40
0
 40
0
 40
1
 40
1
 40
1
 40
1
 10
115.796872
 20
124.791877
 30
0.0
 10
115.284512
 20
124.070676
 30
0.0
 10
115.274474
 20
123.979866
 30
0.0
 10
115.674778
 20
123.687157
 30
0.0
  0
SPLINE
  5
488
100
AcDbEntity
  8
0
 62
7
100
AcDbSpline
 70
8
 71
3
 72
8
 73
4
 74
0
 40
0
 40
0
 40
0
 40
0
 40
1
 40
1
 40
1
 40
1
 10
115.674778
 20
123.687157
 30
0.0
 10
116.057709
 20
123.407151
 30
0.0
 10
116.063662
 20
123.320966
 30
0.0
 10
115.723567
 20
122.980871
 30
0.0
  0
SPLINE
  5
489
100
AcDbEntity
  8
0
 62
7
100
AcDbSpline
 70
8
 71
3
 72
8
 73
4
 74
0
 40
0
 40
0
 40
0
 40
0
 40
1
 40
1
 40
1
 40
1
 10
115.723567
 20
122.980871
 30
0.0
 10
115.175369
 20
122.432675
 30
0.0
 10
114.271891
 20
121.980767
 30
0.0
 10
113.724100
 20
121.980767
 30
0.0
  0
SPLINE
  5
48a
100
AcDbEntity
  8
0
 62
7
100
AcDbSpline
 70
8
 71
3
 72
8
 73
4
 74
0
 40
0
 40
0
 40
0
 40
0
 40
1
 40
1
 40
1
 40
1
 10
113.724100
 20
121.980767
 30
0.0
 10
113.360734
 20
121.980767
 30
0.0
 10
113.327471
 20
122.051323
 30
0.0
 10
113.574415
 20
122.298267
 30
0.0
  0
SPLINE
  5
48b
100
AcDbEntity
  8
0
 62
7
100
AcDbSpline
 70
8
 71
3
 72
8
 73
4
 74
0
 40
0
 40
0
 40
0
 40
0
 40
1
 40
1
 40
1
 40
1
 10
113.574415
 20
122.298267
 30
0.0
 10
113.749040
 20
122.472892
 30
0.0
 10
113.891915
 20
123.044924
 30
0.0
 10
113.891915
 20
123.569447
 30
0.0
  0
SPLINE
  5
48c
100
AcDbEntity
  8
0
 62
7
100
AcDbSpline
 70
8
 71
3
 72
8
 73
4
 74
0
 40
0
 40
0
 40
0
 40
0
 40
1
 40
1
 40
1
 40
1
 10
113.891915
 20
123.569447
 30
0.0
 10
113.891915
 20
124.271447
 30
0.0
 10
114.285038
 20
125.147753
 30
0.0
 10
115.381543
 20
126.889968
 30
0.0
  0
SPLINE
  5
48d
100
AcDbEntity
  8
0
 62
7
100
AcDbSpline
 70
8
 71
3
 72
8
 73
4
 74
0
 40
0
 40
0
 40
0
 40
0
 40
1
 40
1
 40
1
 40
1
 10
115.381543
 20
126.889968
 30
0.0
 10
116.200838
 20
128.191731
 30
0.0
 10
117.051116
 20
129.463387
 30
0.0
 10
117.271051
 20
129.715871
 30
0.0
  0
SPLINE
  5
48e
100
AcDbEntity
  8
0
 62
7
100
AcDbSpline
 70
8
 71
3
 72
8
 73
4
 74
0
 40
0
 40
0
 40
0
 40
0
 40
1
 40
1
 40
1
 40
1
 10
117.271051
 20
129.715871
 30
0.0
 10
117.822755
 20
130.349225
 30
0.0
 10
117.553486
 20
132.832115
 30
0.0
 10
116.821635
 20
133.859908
 30
0.0
  0
SPLINE
  5
48f
100
AcDbEntity
  8
0
 62
7
100
AcDbSpline
 70
8
 71
3
 72
8
 73
4
 74
0
 40
0
 40
0
 40
0
 40
0
 40
1
 40
1
 40
1
 40
1
 10
116.821635
 20
133.859908
 30
0.0
 10
116.463612
 20
134.362703
 30
0.0
 10
116.273165
 20
135.040407
 30
0.0
 10
116.273165
 20
135.811622
 30
0.0
  0
SPLINE
  5
490
100
AcDbEntity
  8
0
 62
7
100
AcDbSpline
 70
8
 71
3
 72
8
 73
4
 74
0
 40
0
 40
0
 40
0
 40
0
 40
1
 40
1
 40
1
 40
1
 10
116.273165
 20
135.811622
 30
0.0
 10
116.273165
 20
137.030582
 30
0.0
 10
116.982044
 20
139.587523
 30
0.0
 10
117.710548
 20
140.996294
 30
0.0
  0
SPLINE
  5
491
100
AcDbEntity
  8
0
 62
7
100
AcDbSpline
 70
8
 71
3
 72
8
 73
4
 74
0
 40
0
 40
0
 40
0
 40
0
 40
1
 40
1
 40
1
 40
1
 10
117.710548
 20
140.996294
 30
0.0
 10
118.243178
 20
142.026293
 30
0.0
 10
118.266509
 20
143.676600
 30
0.0
 10
117.748436
 20
143.676600
 30
0.0
  0
SPLINE
  5
492
100
AcDbEntity
  8
0
 62
7
100
AcDbSpline
 70
8
 71
3
 72
8
 73
4
 74
0
 40
0
 40
0
 40
0
 40
0
 40
1
 40
1
 40
1
 40
1
 10
117.748436
 20
143.676600
 30
0.0
 10
117.303812
 20
143.676600
 30
0.0
 10
115.500481
 20
139.168524
 30
0.0
 10
114.837858
 20
136.400559
 30
0.0
  0
SPLINE
  5
493
100
AcDbEntity
  8
0
 62
7
100
AcDbSpline
 70
8
 71
3
 72
8
 73
4
 74
0
 40
0
 40
0
 40
0
 40
0
 40
1
 40
1
 40
1
 40
1
 10
114.837858
 20
136.400559
 30
0.0
 10
114.594002
 20
135.381913
 30
0.0
 10
114.235233
 20
133.953163
 30
0.0
 10
114.040589
 20
133.225559
 30
0.0
  0
SPLINE
  5
494
100
AcDbEntity
  8
0
 62
7
100
AcDbSpline
 70
8
 71
3
 72
8
 73
4
 74
0
 40
0
 40
0
 40
0
 40
0
 40
1
 40
1
 40
1
 40
1
 10
114.040589
 20
133.225559
 30
0.0
 10
113.256216
 20
130.293480
 30
0.0
 10
112.796251
 20
128.422903
 30
0.0
 10
112.674334
 20
127.669309
 30
0.0
  0
SPLINE
  5
495
100
AcDbEntity
  8
0
 62
7
100
AcDbSpline
 70
8
 71
3
 72
8
 73
4
 74
0
 40
0
 40
0
 40
0
 40
0
 40
1
 40
1
 40
1
 40
1
 10
112.674334
 20
127.669309
 30
0.0
 10
112.603706
 20
127.232746
 30
0.0
 10
112.486186
 20
126.488605
 30
0.0
 10
112.413177
 20
126.015663
 30
0.0
  0
SPLINE
  5
496
100
AcDbEntity
  8
0
 62
7
100
AcDbSpline
 70
8
 71
3
 72
8
 73
4
 74
0
 40
0
 40
0
 40
0
 40
0
 40
1
 40
1
 40
1
 40
1
 10
112.413177
 20
126.015663
 30
0.0
 10
112.340170
 20
125.542720
 30
0.0
 10
112.149652
 20
125.155767
 30
0.0
 10
111.989801
 20
125.155767
 30
0.0
  0
SPLINE
  5
497
100
AcDbEntity
  8
0
 62
7
100
AcDbSpline
 70
8
 71
3
 72
8
 73
4
 74
0
 40
0
 40
0
 40
0
 40
0
 40
1
 40
1
 40
1
 40
1
 10
111.989801
 20
125.155767
 30
0.0
 10
111.788506
 20
125.155767
 30
0.0
 10
111.752724
 20
125.797964
 30
0.0
 10
111.873398
 20
127.244954
 30
0.0
  0
SPLINE
  5
498
100
AcDbEntity
  8
0
 62
7
100
AcDbSpline
 70
8
 71
3
 72
8
 73
4
 74
0
 40
0
 40
0
 40
0
 40
0
 40
1
 40
1
 40
1
 40
1
 10
111.873398
 20
127.244954
 30
0.0
 10
112.058360
 20
129.462797
 30
0.0
 10
111.843256
 20
130.451508
 30
0.0
 10
110.973788
 20
131.379973
 30
0.0
  0
SPLINE
  5
499
100
AcDbEntity
  8
0
 62
7
100
AcDbSpline
 70
8
 71
3
 72
8
 73
4
 74
0
 40
0
 40
0
 40
0
 40
0
 40
1
 40
1
 40
1
 40
1
 10
110.973788
 20
131.379973
 30
0.0
 10
110.237220
 20
132.166521
 30
0.0
 10
110.126370
 20
133.314564
 30
0.0
 10
110.067495
 20
140.766184
 30
0.0
  0
SPLINE
  5
49a
100
AcDbEntity
  8
0
 62
7
100
AcDbSpline
 70
8
 71
3
 72
8
 73
4
 74
0
 40
0
 40
0
 40
0
 40
0
 40
1
 40
1
 40
1
 40
1
 10
110.067495
 20
140.766184
 30
0.0
 10
110.030850
 20
145.404059
 30
0.0
 10
109.912100
 20
147.759444
 30
0.0
 10
109.687601
 20
148.301265
 30
0.0
  0
SPLINE
  5
49b
100
AcDbEntity
  8
0
 62
7
100
AcDbSpline
 70
8
 71
3
 72
8
 73
4
 74
0
 40
0
 40
0
 40
0
 40
0
 40
1
 40
1
 40
1
 40
1
 10
109.687601
 20
148.301265
 30
0.0
 10
109.482345
 20
148.796640
 30
0.0
 10
109.426055
 20
149.562389
 30
0.0
 10
109.536084
 20
150.362391
 30
0.0
  0
SPLINE
  5
49c
100
AcDbEntity
  8
0
 62
7
100
AcDbSpline
 70
8
 71
3
 72
8
 73
4
 74
0
 40
0
 40
0
 40
0
 40
0
 40
1
 40
1
 40
1
 40
1
 10
109.536084
 20
150.362391
 30
0.0
 10
109.706278
 20
151.599860
 30
0.0
 10
109.677946
 20
151.670814
 30
0.0
 10
108.518695
 20
152.910146
 30
0.0
  0
LWPOLYLINE
  5
49d
100
AcDbEntity
  8
0
 62
7
100
AcDbPolyline
 90
3
 70
0
 10
119.453398
 20
157.806602
 30
0.0
 10
119.755449
 20
156.351631
 30
0.0
 10
118.273272
 20
154.663410
 30
0.0
  0
SPLINE
  5
49e
100
AcDbEntity
  8
0
 62
7
100
AcDbSpline
 70
8
 71
3
 72
8
 73
4
 74
0
 40
0
 40
0
 40
0
 40
0
 40
1
 40
1
 40
1
 40
1
 10
107.682512
 20
155.876104
 30
0.0
 10
107.878462
 20
156.806220
 30
0.0
 10
108.229519
 20
158.021547
 30
0.0
 10
108.462638
 20
158.576830
 30
0.0
  0
SPLINE
  5
49f
100
AcDbEntity
  8
0
 62
7
100
AcDbSpline
 70
8
 71
3
 72
8
 73
4
 74
0
 40
0
 40
0
 40
0
 40
0
 40
1
 40
1
 40
1
 40
1
 10
108.462638
 20
158.576830
 30
0.0
 10
108.814002
 20
159.413776
 30
0.0
 10
108.831679
 20
159.738002
 30
0.0
 10
108.566006
 20
160.472713
 30
0.0
  0
SPLINE
  5
4a0
100
AcDbEntity
  8
0
 62
7
100
AcDbSpline
 70
8
 71
3
 72
8
 73
4
 74
0
 40
0
 40
0
 40
0
 40
0
 40
1
 40
1
 40
1
 40
1
 10
108.566006
 20
160.472713
 30
0.0
 10
108.295141
 20
161.221772
 30
0.0
 10
108.313948
 20
161.463421
 30
0.0
 10
108.687468
 20
162.033487
 30
0.0
  0
SPLINE
  5
4a1
100
AcDbEntity
  8
0
 62
7
100
AcDbSpline
 70
8
 71
3
 72
8
 73
4
 74
0
 40
0
 40
0
 40
0
 40
0
 40
1
 40
1
 40
1
 40
1
 10
108.687468
 20
162.033487
 30
0.0
 10
109.272136
 20
162.925802
 30
0.0
 10
109.249435
 20
164.776224
 30
0.0
 10
108.641637
 20
165.769309
 30
0.0
  0
SPLINE
  5
4a2
100
AcDbEntity
  8
0
 62
7
100
AcDbSpline
 70
8
 71
3
 72
8
 73
4
 74
0
 40
0
 40
0
 40
0
 40
0
 40
1
 40
1
 40
1
 40
1
 10
108.641637
 20
165.769309
 30
0.0
 10
107.707110
 20
167.296240
 30
0.0
 10
105.502350
 20
170.104157
 30
0.0
 10
104.739522
 20
170.738924
 30
0.0
  0
SPLINE
  5
4a3
100
AcDbEntity
  8
0
 62
7
100
AcDbSpline
 70
8
 71
3
 72
8
 73
4
 74
0
 40
0
 40
0
 40
0
 40
0
 40
1
 40
1
 40
1
 40
1
 10
104.739522
 20
170.738924
 30
0.0
 10
103.347044
 20
171.897643
 30
0.0
 10
102.789863
 20
172.056113
 30
0.0
 10
100.158865
 20
172.041735
 30
0.0
  0
SPLINE
  5
4a4
100
AcDbEntity
  8
0
 62
7
100
AcDbSpline
 70
8
 71
3
 72
8
 73
4
 74
0
 40
0
 40
0
 40
0
 40
0
 40
1
 40
1
 40
1
 40
1
 10
100.158865
 20
172.041735
 30
0.0
 10
97.887451
 20
172.029326
 30
0.0
 10
97.584114
 20
171.969308
 30
0.0
 10
97.162787
 20
171.448992
 30
0.0
  0
SPLINE
  5
4a5
100
AcDbEntity
  8
0
 62
7
100
AcDbSpline
 70
8
 71
3
 72
8
 73
4
 74
0
 40
0
 40
0
 40
0
 40
0
 40
1
 40
1
 40
1
 40
1
 10
97.162787
 20
171.448992
 30
0.0
 10
96.904953
 20
171.130579
 30
0.0
 10
96.693998
 20
170.719234
 30
0.0
 10
96.693998
 20
170.534894
 30
0.0
  0
SPLINE
  5
4a6
100
AcDbEntity
  8
0
 62
7
100
AcDbSpline
 70
8
 71
3
 72
8
 73
4
 74
0
 40
0
 40
0
 40
0
 40
0
 40
1
 40
1
 40
1
 40
1
 10
96.693998
 20
170.534894
 30
0.0
 10
96.693998
 20
170.057233
 30
0.0
 10
96.157473
 20
169.678697
 30
0.0
 10
95.238790
 20
169.508194
 30
0.0
  0
SPLINE
  5
4a7
100
AcDbEntity
  8
0
 62
7
100
AcDbSpline
 70
8
 71
3
 72
8
 73
4
 74
0
 40
0
 40
0
 40
0
 40
0
 40
1
 40
1
 40
1
 40
1
 10
95.238790
 20
169.508194
 30
0.0
 10
93.877135
 20
169.255477
 30
0.0
 10
91.697842
 20
168.426932
 30
0.0
 10
91.141225
 20
167.950343
 30
0.0
  0
SPLINE
  5
4a8
100
AcDbEntity
  8
0
 62
7
100
AcDbSpline
 70
8
 71
3
 72
8
 73
4
 74
0
 40
0
 40
0
 40
0
 40
0
 40
1
 40
1
 40
1
 40
1
 10
91.141225
 20
167.950343
 30
0.0
 10
90.409916
 20
167.324177
 30
0.0
 10
90.422825
 20
165.452930
 30
0.0
 10
91.167154
 20
164.191384
 30
0.0
  0
SPLINE
  5
4a9
100
AcDbEntity
  8
0
 62
7
100
AcDbSpline
 70
8
 71
3
 72
8
 73
4
 74
0
 40
0
 40
0
 40
0
 40
0
 40
1
 40
1
 40
1
 40
1
 10
91.167154
 20
164.191384
 30
0.0
 10
91.474369
 20
163.670692
 30
0.0
 10
91.664142
 20
163.009162
 30
0.0
 10
91.588868
 20
162.721316
 30
0.0
  0
SPLINE
  5
4aa
100
AcDbEntity
  8
0
 62
7
100
AcDbSpline
 70
8
 71
3
 72
8
 73
4
 74
0
 40
0
 40
0
 40
0
 40
0
 40
1
 40
1
 40
1
 40
1
 10
91.588868
 20
162.721316
 30
0.0
 10
91.513594
 20
162.433471
 30
0.0
 10
91.559891
 20
162.131285
 30
0.0
 10
91.691751
 20
162.049791
 30
0.0
  0
SPLINE
  5
4ab
100
AcDbEntity
  8
0
 62
7
100
AcDbSpline
 70
8
 71
3
 72
8
 73
4
 74
0
 40
0
 40
0
 40
0
 40
0
 40
1
 40
1
 40
1
 40
1
 10
91.691751
 20
162.049791
 30
0.0
 10
91.823611
 20
161.968296
 30
0.0
 10
91.931495
 20
161.551459
 30
0.0
 10
91.931495
 20
161.123484
 30
0.0
  0
SPLINE
  5
4ac
100
AcDbEntity
  8
0
 62
7
100
AcDbSpline
 70
8
 71
3
 72
8
 73
4
 74
0
 40
0
 40
0
 40
0
 40
0
 40
1
 40
1
 40
1
 40
1
 10
91.931495
 20
161.123484
 30
0.0
 10
91.931495
 20
160.519404
 30
0.0
 10
92.050936
 20
160.345350
 30
0.0
 10
92.465469
 20
160.345350
 30
0.0
  0
SPLINE
  5
4ad
100
AcDbEntity
  8
0
 62
7
100
AcDbSpline
 70
8
 71
3
 72
8
 73
4
 74
0
 40
0
 40
0
 40
0
 40
0
 40
1
 40
1
 40
1
 40
1
 10
92.465469
 20
160.345350
 30
0.0
 10
92.759154
 20
160.345350
 30
0.0
 10
94.185743
 20
159.750038
 30
0.0
 10
95.635662
 20
159.022434
 30
0.0
  0
SPLINE
  5
4ae
100
AcDbEntity
  8
0
 62
7
100
AcDbSpline
 70
8
 71
3
 72
8
 73
4
 74
0
 40
0
 40
0
 40
0
 40
0
 40
1
 40
1
 40
1
 40
1
 10
95.635662
 20
159.022434
 30
0.0
 10
97.085581
 20
158.294829
 30
0.0
 10
98.556567
 20
157.699517
 30
0.0
 10
98.904512
 20
157.699517
 30
0.0
  0
SPLINE
  5
4af
100
AcDbEntity
  8
0
 62
7
100
AcDbSpline
 70
8
 71
3
 72
8
 73
4
 74
0
 40
0
 40
0
 40
0
 40
0
 40
1
 40
1
 40
1
 40
1
 10
98.904512
 20
157.699517
 30
0.0
 10
99.849964
 20
157.699517
 30
0.0
 10
101.804295
 20
156.748390
 30
0.0
 10
102.207274
 20
156.092141
 30
0.0
  0
SPLINE
  5
4b0
100
AcDbEntity
  8
0
 62
7
100
AcDbSpline
 70
8
 71
3
 72
8
 73
4
 74
0
 40
0
 40
0
 40
0
 40
0
 40
1
 40
1
 40
1
 40
1
 10
102.207274
 20
156.092141
 30
0.0
 10
102.663805
 20
155.348683
 30
0.0
 10
102.222382
 20
154.857987
 30
0.0
 10
100.766121
 20
154.490132
 30
0.0
  0
SPLINE
  5
4b1
100
AcDbEntity
  8
0
 62
7
100
AcDbSpline
 70
8
 71
3
 72
8
 73
4
 74
0
 40
0
 40
0
 40
0
 40
0
 40
1
 40
1
 40
1
 40
1
 10
100.766121
 20
154.490132
 30
0.0
 10
100.199941
 20
154.347114
 30
0.0
 10
99.319985
 20
154.109465
 30
0.0
 10
98.810662
 20
153.962023
 30
0.0
  0
SPLINE
  5
4b2
100
AcDbEntity
  8
0
 62
7
100
AcDbSpline
 70
8
 71
3
 72
8
 73
4
 74
0
 40
0
 40
0
 40
0
 40
0
 40
1
 40
1
 40
1
 40
1
 10
98.810662
 20
153.962023
 30
0.0
 10
98.301339
 20
153.814584
 30
0.0
 10
97.586964
 20
153.635477
 30
0.0
 10
97.223162
 20
153.564013
 30
0.0
  0
SPLINE
  5
4b3
100
AcDbEntity
  8
0
 62
7
100
AcDbSpline
 70
8
 71
3
 72
8
 73
4
 74
0
 40
0
 40
0
 40
0
 40
0
 40
1
 40
1
 40
1
 40
1
 10
97.223162
 20
153.564013
 30
0.0
 10
96.859360
 20
153.492547
 30
0.0
 10
96.323579
 20
153.386930
 30
0.0
 10
96.032537
 20
153.329309
 30
0.0
  0
SPLINE
  5
4b4
100
AcDbEntity
  8
0
 62
7
100
AcDbSpline
 70
8
 71
3
 72
8
 73
4
 74
0
 40
0
 40
0
 40
0
 40
0
 40
1
 40
1
 40
1
 40
1
 10
96.032537
 20
153.329309
 30
0.0
 10
95.741495
 20
153.271688
 30
0.0
 10
95.273895
 20
152.798267
 30
0.0
 10
94.993423
 20
152.277260
 30
0.0
  0
SPLINE
  5
4b5
100
AcDbEntity
  8
0
 62
7
100
AcDbSpline
 70
8
 71
3
 72
8
 73
4
 74
0
 40
0
 40
0
 40
0
 40
0
 40
1
 40
1
 40
1
 40
1
 10
94.993423
 20
152.277260
 30
0.0
 10
94.194310
 20
150.792818
 30
0.0
 10
94.670708
 20
150.506443
 30
0.0
 10
98.057864
 20
150.435143
 30
0.0
  0
SPLINE
  5
4b6
100
AcDbEntity
  8
0
 62
7
100
AcDbSpline
 70
8
 71
3
 72
8
 73
4
 74
0
 40
0
 40
0
 40
0
 40
0
 40
1
 40
1
 40
1
 40
1
 10
98.057864
 20
150.435143
 30
0.0
 10
101.224908
 20
150.368476
 30
0.0
 10
102.696587
 20
150.020179
 30
0.0
 10
103.825715
 20
149.070081
 30
0.0
  0
SPLINE
  5
4b7
100
AcDbEntity
  8
0
 62
7
100
AcDbSpline
 70
8
 71
3
 72
8
 73
4
 74
0
 40
0
 40
0
 40
0
 40
0
 40
1
 40
1
 40
1
 40
1
 10
103.825715
 20
149.070081
 30
0.0
 10
104.756908
 20
148.286533
 30
0.0
 10
104.803215
 20
147.989941
 30
0.0
 10
104.168474
 20
146.874714
 30
0.0
  0
SPLINE
  5
4b8
100
AcDbEntity
  8
0
 62
7
100
AcDbSpline
 70
8
 71
3
 72
8
 73
4
 74
0
 40
0
 40
0
 40
0
 40
0
 40
1
 40
1
 40
1
 40
1
 10
104.168474
 20
146.874714
 30
0.0
 10
103.694682
 20
146.042269
 30
0.0
 10
103.043995
 20
145.775511
 30
0.0
 10
103.043995
 20
146.413717
 30
0.0
  0
SPLINE
  5
4b9
100
AcDbEntity
  8
0
 62
7
100
AcDbSpline
 70
8
 71
3
 72
8
 73
4
 74
0
 40
0
 40
0
 40
0
 40
0
 40
1
 40
1
 40
1
 40
1
 10
103.043995
 20
146.413717
 30
0.0
 10
103.043998
 20
146.949750
 30
0.0
 10
102.155374
 20
147.645350
 30
0.0
 10
101.470592
 20
147.645350
 30
0.0
  0
SPLINE
  5
4ba
100
AcDbEntity
  8
0
 62
7
100
AcDbSpline
 70
8
 71
3
 72
8
 73
4
 74
0
 40
0
 40
0
 40
0
 40
0
 40
1
 40
1
 40
1
 40
1
 10
101.470592
 20
147.645350
 30
0.0
 10
101.137461
 20
147.645350
 30
0.0
 10
100.458082
 20
147.288163
 30
0.0
 10
99.960867
 20
146.851600
 30
0.0
  0
SPLINE
  5
4bb
100
AcDbEntity
  8
0
 62
7
100
AcDbSpline
 70
8
 71
3
 72
8
 73
4
 74
0
 40
0
 40
0
 40
0
 40
0
 40
1
 40
1
 40
1
 40
1
 10
99.960867
 20
146.851600
 30
0.0
 10
99.090157
 20
146.087108
 30
0.0
 10
98.683138
 20
145.942603
 30
0.0
 10
97.686185
 20
146.044012
 30
0.0
  0
SPLINE
  5
4bc
100
AcDbEntity
  8
0
 62
7
100
AcDbSpline
 70
8
 71
3
 72
8
 73
4
 74
0
 40
0
 40
0
 40
0
 40
0
 40
1
 40
1
 40
1
 40
1
 10
97.686185
 20
146.044012
 30
0.0
 10
97.431524
 20
146.069915
 30
0.0
 10
97.223165
 20
145.966572
 30
0.0
 10
97.223165
 20
145.814354
 30
0.0
  0
SPLINE
  5
4bd
100
AcDbEntity
  8
0
 62
7
100
AcDbSpline
 70
8
 71
3
 72
8
 73
4
 74
0
 40
0
 40
0
 40
0
 40
0
 40
1
 40
1
 40
1
 40
1
 10
97.223165
 20
145.814354
 30
0.0
 10
97.223165
 20
145.662139
 30
0.0
 10
96.638303
 20
145.241224
 30
0.0
 10
95.923470
 20
144.878994
 30
0.0
  0
SPLINE
  5
4be
100
AcDbEntity
  8
0
 62
7
100
AcDbSpline
 70
8
 71
3
 72
8
 73
4
 74
0
 40
0
 40
0
 40
0
 40
0
 40
1
 40
1
 40
1
 40
1
 10
95.923470
 20
144.878994
 30
0.0
 10
95.208638
 20
144.516761
 30
0.0
 10
94.368054
 20
143.861261
 30
0.0
 10
94.055507
 20
143.422328
 30
0.0
  0
SPLINE
  5
4bf
100
AcDbEntity
  8
0
 62
7
100
AcDbSpline
 70
8
 71
3
 72
8
 73
4
 74
0
 40
0
 40
0
 40
0
 40
0
 40
1
 40
1
 40
1
 40
1
 10
94.055507
 20
143.422328
 30
0.0
 10
93.742960
 20
142.983394
 30
0.0
 10
92.957994
 20
142.004243
 30
0.0
 10
92.311141
 20
141.246434
 30
0.0
  0
SPLINE
  5
4c0
100
AcDbEntity
  8
0
 62
7
100
AcDbSpline
 70
8
 71
3
 72
8
 73
4
 74
0
 40
0
 40
0
 40
0
 40
0
 40
1
 40
1
 40
1
 40
1
 10
92.311141
 20
141.246434
 30
0.0
 10
91.533147
 20
140.334992
 30
0.0
 10
91.185272
 20
139.710343
 30
0.0
 10
91.283435
 20
139.401063
 30
0.0
  0
SPLINE
  5
4c1
100
AcDbEntity
  8
0
 62
7
100
AcDbSpline
 70
8
 71
3
 72
8
 73
4
 74
0
 40
0
 40
0
 40
0
 40
0
 40
1
 40
1
 40
1
 40
1
 10
91.283435
 20
139.401063
 30
0.0
 10
91.394854
 20
139.050014
 30
0.0
 10
91.191495
 20
138.833109
 30
0.0
 10
90.467233
 20
138.530494
 30
0.0
  0
SPLINE
  5
4c2
100
AcDbEntity
  8
0
 62
7
100
AcDbSpline
 70
8
 71
3
 72
8
 73
4
 74
0
 40
0
 40
0
 40
0
 40
0
 40
1
 40
1
 40
1
 40
1
 10
90.467233
 20
138.530494
 30
0.0
 10
89.563556
 20
138.152912
 30
0.0
 10
86.625218
 20
136.003684
 30
0.0
 10
87.012685
 20
136.003684
 30
0.0
  0
SPLINE
  5
4c3
100
AcDbEntity
  8
0
 62
7
100
AcDbSpline
 70
8
 71
3
 72
8
 73
4
 74
0
 40
0
 40
0
 40
0
 40
0
 40
1
 40
1
 40
1
 40
1
 10
87.012685
 20
136.003684
 30
0.0
 10
87.110252
 20
136.003684
 30
0.0
 10
87.644116
 20
136.235316
 30
0.0
 10
88.199047
 20
136.518420
 30
0.0
  0
SPLINE
  5
4c4
100
AcDbEntity
  8
0
 62
7
100
AcDbSpline
 70
8
 71
3
 72
8
 73
4
 74
0
 40
0
 40
0
 40
0
 40
0
 40
1
 40
1
 40
1
 40
1
 10
88.199047
 20
136.518420
 30
0.0
 10
88.753979
 20
136.801527
 30
0.0
 10
90.230526
 20
137.243629
 30
0.0
 10
91.480259
 20
137.500876
 30
0.0
  0
SPLINE
  5
4c5
100
AcDbEntity
  8
0
 62
7
100
AcDbSpline
 70
8
 71
3
 72
8
 73
4
 74
0
 40
0
 40
0
 40
0
 40
0
 40
1
 40
1
 40
1
 40
1
 10
91.480259
 20
137.500876
 30
0.0
 10
93.630020
 20
137.943381
 30
0.0
 10
93.803745
 20
137.944159
 30
0.0
 10
94.703061
 20
137.515296
 30
0.0
  0
SPLINE
  5
4c6
100
AcDbEntity
  8
0
 62
7
100
AcDbSpline
 70
8
 71
3
 72
8
 73
4
 74
0
 40
0
 40
0
 40
0
 40
0
 40
1
 40
1
 40
1
 40
1
 10
94.703061
 20
137.515296
 30
0.0
 10
95.972199
 20
136.910085
 30
0.0
 10
96.320319
 20
136.934191
 30
0.0
 10
99.298477
 20
137.833523
 30
0.0
  0
SPLINE
  5
4c7
100
AcDbEntity
  8
0
 62
7
100
AcDbSpline
 70
8
 71
3
 72
8
 73
4
 74
0
 40
0
 40
0
 40
0
 40
0
 40
1
 40
1
 40
1
 40
1
 10
99.298477
 20
137.833523
 30
0.0
 10
102.299476
 20
138.739753
 30
0.0
 10
104.309857
 20
139.023280
 30
0.0
 10
105.236502
 20
138.670969
 30
0.0
  0
SPLINE
  5
4c8
100
AcDbEntity
  8
0
 62
7
100
AcDbSpline
 70
8
 71
3
 72
8
 73
4
 74
0
 40
0
 40
0
 40
0
 40
0
 40
1
 40
1
 40
1
 40
1
 10
105.236502
 20
138.670969
 30
0.0
 10
106.007371
 20
138.377885
 30
0.0
 10
107.277331
 20
137.090221
 30
0.0
 10
107.277331
 20
136.601689
 30
0.0
  0
SPLINE
  5
4c9
100
AcDbEntity
  8
0
 62
7
100
AcDbSpline
 70
8
 71
3
 72
8
 73
4
 74
0
 40
0
 40
0
 40
0
 40
0
 40
1
 40
1
 40
1
 40
1
 10
107.277331
 20
136.601689
 30
0.0
 10
107.277331
 20
136.159401
 30
0.0
 10
107.203311
 20
136.173668
 30
0.0
 10
106.090053
 20
136.830506
 30
0.0
  0
SPLINE
  5
4ca
100
AcDbEntity
  8
0
 62
7
100
AcDbSpline
 70
8
 71
3
 72
8
 73
4
 74
0
 40
0
 40
0
 40
0
 40
0
 40
1
 40
1
 40
1
 40
1
 10
106.090053
 20
136.830506
 30
0.0
 10
104.972234
 20
137.490036
 30
0.0
 10
103.008785
 20
137.410436
 30
0.0
 10
102.289123
 20
136.676410
 30
0.0
  0
SPLINE
  5
4cb
100
AcDbEntity
  8
0
 62
7
100
AcDbSpline
 70
8
 71
3
 72
8
 73
4
 74
0
 40
0
 40
0
 40
0
 40
0
 40
1
 40
1
 40
1
 40
1
 10
102.289123
 20
136.676410
 30
0.0
 10
101.881585
 20
136.260737
 30
0.0
 10
101.974690
 20
136.243631
 30
0.0
 10
103.727110
 20
136.412203
 30
0.0
  0
SPLINE
  5
4cc
100
AcDbEntity
  8
0
 62
7
100
AcDbSpline
 70
8
 71
3
 72
8
 73
4
 74
0
 40
0
 40
0
 40
0
 40
0
 40
1
 40
1
 40
1
 40
1
 10
103.727110
 20
136.412203
 30
0.0
 10
105.262833
 20
136.559930
 30
0.0
 10
105.763991
 20
136.506516
 30
0.0
 10
106.505235
 20
136.116110
 30
0.0
  0
SPLINE
  5
4cd
100
AcDbEntity
  8
0
 62
7
100
AcDbSpline
 70
8
 71
3
 72
8
 73
4
 74
0
 40
0
 40
0
 40
0
 40
0
 40
1
 40
1
 40
1
 40
1
 10
106.505235
 20
136.116110
 30
0.0
 10
107.002649
 20
135.854125
 30
0.0
 10
107.765093
 20
135.632354
 30
0.0
 10
108.199558
 20
135.623287
 30
0.0
  0
SPLINE
  5
4ce
100
AcDbEntity
  8
0
 62
7
100
AcDbSpline
 70
8
 71
3
 72
8
 73
4
 74
0
 40
0
 40
0
 40
0
 40
0
 40
1
 40
1
 40
1
 40
1
 10
108.199558
 20
135.623287
 30
0.0
 10
108.773341
 20
135.611301
 30
0.0
 10
109.016109
 20
135.462002
 30
0.0
 10
109.086769
 20
135.077631
 30
0.0
  0
SPLINE
  5
4cf
100
AcDbEntity
  8
0
 62
7
100
AcDbSpline
 70
8
 71
3
 72
8
 73
4
 74
0
 40
0
 40
0
 40
0
 40
0
 40
1
 40
1
 40
1
 40
1
 10
109.086769
 20
135.077631
 30
0.0
 10
109.140270
 20
134.786590
 30
0.0
 10
109.374826
 20
134.333446
 30
0.0
 10
109.608006
 20
134.070643
 30
0.0
  0
SPLINE
  5
4d0
100
AcDbEntity
  8
0
 62
7
100
AcDbSpline
 70
8
 71
3
 72
8
 73
4
 74
0
 40
0
 40
0
 40
0
 40
0
 40
1
 40
1
 40
1
 40
1
 10
109.608006
 20
134.070643
 30
0.0
 10
109.956007
 20
133.678433
 30
0.0
 10
109.973417
 20
133.499069
 30
0.0
 10
109.705182
 20
133.069555
 30
0.0
  0
SPLINE
  5
4d1
100
AcDbEntity
  8
0
 62
7
100
AcDbSpline
 70
8
 71
3
 72
8
 73
4
 74
0
 40
0
 40
0
 40
0
 40
0
 40
1
 40
1
 40
1
 40
1
 10
109.705182
 20
133.069555
 30
0.0
 10
109.456789
 20
132.671815
 30
0.0
 10
109.447976
 20
132.287880
 30
0.0
 10
109.668445
 20
131.469122
 30
0.0
  0
SPLINE
  5
4d2
100
AcDbEntity
  8
0
 62
7
100
AcDbSpline
 70
8
 71
3
 72
8
 73
4
 74
0
 40
0
 40
0
 40
0
 40
0
 40
1
 40
1
 40
1
 40
1
 10
109.668445
 20
131.469122
 30
0.0
 10
110.080520
 20
129.938796
 30
0.0
 10
109.890552
 20
129.653673
 30
0.0
 10
108.458865
 20
129.653673
 30
0.0
  0
SPLINE
  5
4d3
100
AcDbEntity
  8
0
 62
7
100
AcDbSpline
 70
8
 71
3
 72
8
 73
4
 74
0
 40
0
 40
0
 40
0
 40
0
 40
1
 40
1
 40
1
 40
1
 10
108.458865
 20
129.653673
 30
0.0
 10
106.962697
 20
129.653673
 30
0.0
 10
106.344783
 20
129.341470
 30
0.0
 10
105.815609
 20
128.318159
 30
0.0
  0
SPLINE
  5
4d4
100
AcDbEntity
  8
0
 62
7
100
AcDbSpline
 70
8
 71
3
 72
8
 73
4
 74
0
 40
0
 40
0
 40
0
 40
0
 40
1
 40
1
 40
1
 40
1
 10
105.815609
 20
128.318159
 30
0.0
 10
105.436990
 20
127.585991
 30
0.0
 10
105.441681
 20
127.516652
 30
0.0
 10
105.879016
 20
127.380870
 30
0.0
  0
SPLINE
  5
4d5
100
AcDbEntity
  8
0
 62
7
100
AcDbSpline
 70
8
 71
3
 72
8
 73
4
 74
0
 40
0
 40
0
 40
0
 40
0
 40
1
 40
1
 40
1
 40
1
 10
105.879016
 20
127.380870
 30
0.0
 10
106.138766
 20
127.300225
 30
0.0
 10
106.522798
 20
127.145031
 30
0.0
 10
106.732417
 20
127.035994
 30
0.0
  0
SPLINE
  5
4d6
100
AcDbEntity
  8
0
 62
7
100
AcDbSpline
 70
8
 71
3
 72
8
 73
4
 74
0
 40
0
 40
0
 40
0
 40
0
 40
1
 40
1
 40
1
 40
1
 10
106.732417
 20
127.035994
 30
0.0
 10
108.045501
 20
126.352969
 30
0.0
 10
106.458954
 20
125.420340
 30
0.0
 10
103.983941
 20
125.420340
 30
0.0
  0
SPLINE
  5
4d7
100
AcDbEntity
  8
0
 62
7
100
AcDbSpline
 70
8
 71
3
 72
8
 73
4
 74
0
 40
0
 40
0
 40
0
 40
0
 40
1
 40
1
 40
1
 40
1
 10
103.983941
 20
125.420340
 30
0.0
 10
102.368083
 20
125.420340
 30
0.0
 10
102.181263
 20
125.356639
 30
0.0
 10
101.201717
 20
124.471676
 30
0.0
  0
SPLINE
  5
4d8
100
AcDbEntity
  8
0
 62
7
100
AcDbSpline
 70
8
 71
3
 72
8
 73
4
 74
0
 40
0
 40
0
 40
0
 40
0
 40
1
 40
1
 40
1
 40
1
 10
101.201717
 20
124.471676
 30
0.0
 10
99.802566
 20
123.207629
 30
0.0
 10
98.761508
 20
120.922825
 30
0.0
 10
98.864700
 20
119.342643
 30
0.0
  0
LWPOLYLINE
  5
4d9
100
AcDbEntity
  8
0
 62
7
100
AcDbPolyline
 90
3
 70
0
 10
108.518695
 20
152.910146
 30
0.0
 10
107.326237
 20
154.184980
 30
0.0
 10
107.682512
 20
155.876104
 30
0.0
  0
SPLINE
  5
4da
100
AcDbEntity
  8
0
 62
7
100
AcDbSpline
 70
8
 71
3
 72
8
 73
4
 74
0
 40
0
 40
0
 40
0
 40
0
 40
1
 40
1
 40
1
 40
1
 10
100.483583
 20
118.227157
 30
0.0
 10
101.809762
 20
118.298476
 30
0.0
 10
102.150466
 20
118.213717
 30
0.0
 10
102.931256
 20
117.618169
 30
0.0
  0
SPLINE
  5
4db
100
AcDbEntity
  8
0
 62
7
100
AcDbSpline
 70
8
 71
3
 72
8
 73
4
 74
0
 40
0
 40
0
 40
0
 40
0
 40
1
 40
1
 40
1
 40
1
 10
102.931256
 20
117.618169
 30
0.0
 10
104.001229
 20
116.802061
 30
0.0
 10
104.798529
 20
115.427382
 30
0.0
 10
104.420911
 20
115.049763
 30
0.0
  0
SPLINE
  5
4dc
100
AcDbEntity
  8
0
 62
7
100
AcDbSpline
 70
8
 71
3
 72
8
 73
4
 74
0
 40
0
 40
0
 40
0
 40
0
 40
1
 40
1
 40
1
 40
1
 10
104.420911
 20
115.049763
 30
0.0
 10
104.256472
 20
114.885324
 30
0.0
 10
103.767419
 20
114.997122
 30
0.0
 10
103.049906
 20
115.363170
 30
0.0
  0
SPLINE
  5
4dd
100
AcDbEntity
  8
0
 62
7
100
AcDbSpline
 70
8
 71
3
 72
8
 73
4
 74
0
 40
0
 40
0
 40
0
 40
0
 40
1
 40
1
 40
1
 40
1
 10
103.049906
 20
115.363170
 30
0.0
 10
101.583675
 20
116.111184
 30
0.0
 10
100.452420
 20
116.134332
 30
0.0
 10
99.901235
 20
115.427593
 30
0.0
  0
SPLINE
  5
4de
100
AcDbEntity
  8
0
 62
7
100
AcDbSpline
 70
8
 71
3
 72
8
 73
4
 74
0
 40
0
 40
0
 40
0
 40
0
 40
1
 40
1
 40
1
 40
1
 10
99.901235
 20
115.427593
 30
0.0
 10
99.665224
 20
115.124976
 30
0.0
 10
99.175684
 20
114.838533
 30
0.0
 10
98.813369
 20
114.791053
 30
0.0
  0
SPLINE
  5
4df
100
AcDbEntity
  8
0
 62
7
100
AcDbSpline
 70
8
 71
3
 72
8
 73
4
 74
0
 40
0
 40
0
 40
0
 40
0
 40
1
 40
1
 40
1
 40
1
 10
98.813369
 20
114.791053
 30
0.0
 10
97.984966
 20
114.682492
 30
0.0
 10
97.725630
 20
113.778684
 30
0.0
 10
98.522883
 20
113.778684
 30
0.0
  0
SPLINE
  5
4e0
100
AcDbEntity
  8
0
 62
7
100
AcDbSpline
 70
8
 71
3
 72
8
 73
4
 74
0
 40
0
 40
0
 40
0
 40
0
 40
1
 40
1
 40
1
 40
1
 10
98.522883
 20
113.778684
 30
0.0
 10
98.822507
 20
113.778684
 30
0.0
 10
99.593220
 20
113.919251
 30
0.0
 10
100.235581
 20
114.091056
 30
0.0
  0
SPLINE
  5
4e1
100
AcDbEntity
  8
0
 62
7
100
AcDbSpline
 70
8
 71
3
 72
8
 73
4
 74
0
 40
0
 40
0
 40
0
 40
0
 40
1
 40
1
 40
1
 40
1
 10
100.235581
 20
114.091056
 30
0.0
 10
101.235386
 20
114.358462
 30
0.0
 10
101.501199
 20
114.339420
 30
0.0
 10
102.082153
 20
113.958764
 30
0.0
  0
SPLINE
  5
4e2
100
AcDbEntity
  8
0
 62
7
100
AcDbSpline
 70
8
 71
3
 72
8
 73
4
 74
0
 40
0
 40
0
 40
0
 40
0
 40
1
 40
1
 40
1
 40
1
 10
102.082153
 20
113.958764
 30
0.0
 10
102.455406
 20
113.714199
 30
0.0
 10
102.943581
 20
113.514100
 30
0.0
 10
103.166982
 20
113.514100
 30
0.0
  0
SPLINE
  5
4e3
100
AcDbEntity
  8
0
 62
7
100
AcDbSpline
 70
8
 71
3
 72
8
 73
4
 74
0
 40
0
 40
0
 40
0
 40
0
 40
1
 40
1
 40
1
 40
1
 10
103.166982
 20
113.514100
 30
0.0
 10
103.390382
 20
113.514100
 30
0.0
 10
103.573165
 20
113.399226
 30
0.0
 10
103.573165
 20
113.258825
 30
0.0
  0
SPLINE
  5
4e4
100
AcDbEntity
  8
0
 62
7
100
AcDbSpline
 70
8
 71
3
 72
8
 73
4
 74
0
 40
0
 40
0
 40
0
 40
0
 40
1
 40
1
 40
1
 40
1
 10
103.573165
 20
113.258825
 30
0.0
 10
103.573165
 20
112.894938
 30
0.0
 10
102.662204
 20
112.455767
 30
0.0
 10
101.907403
 20
112.455767
 30
0.0
  0
SPLINE
  5
4e5
100
AcDbEntity
  8
0
 62
7
100
AcDbSpline
 70
8
 71
3
 72
8
 73
4
 74
0
 40
0
 40
0
 40
0
 40
0
 40
1
 40
1
 40
1
 40
1
 10
101.907403
 20
112.455767
 30
0.0
 10
101.346974
 20
112.455767
 30
0.0
 10
99.908947
 20
111.571516
 30
0.0
 10
94.312748
 20
107.785773
 30
0.0
  0
SPLINE
  5
4e6
100
AcDbEntity
  8
0
 62
7
100
AcDbSpline
 70
8
 71
3
 72
8
 73
4
 74
0
 40
0
 40
0
 40
0
 40
0
 40
1
 40
1
 40
1
 40
1
 10
94.312748
 20
107.785773
 30
0.0
 10
91.956448
 20
106.191772
 30
0.0
 10
81.198863
 20
100.998933
 30
0.0
 10
78.154689
 20
99.986047
 30
0.0
  0
SPLINE
  5
4e7
100
AcDbEntity
  8
0
 62
7
100
AcDbSpline
 70
8
 71
3
 72
8
 73
4
 74
0
 40
0
 40
0
 40
0
 40
0
 40
1
 40
1
 40
1
 40
1
 10
78.154689
 20
99.986047
 30
0.0
 10
75.195176
 20
99.001331
 30
0.0
 10
74.953347
 20
98.984517
 30
0.0
 10
73.204721
 20
99.641880
 30
0.0
  0
LWPOLYLINE
  5
4e8
100
AcDbEntity
  8
0
 62
7
100
AcDbPolyline
 90
3
 70
0
 10
98.864700
 20
119.342643
 30
0.0
 10
98.942956
 20
118.144309
 30
0.0
 10
100.483583
 20
118.227157
 30
0.0
  0
SPLINE
  5
4e9
100
AcDbEntity
  8
0
 62
7
100
AcDbSpline
 70
8
 71
3
 72
8
 73
4
 74
0
 40
0
 40
0
 40
0
 40
0
 40
1
 40
1
 40
1
 40
1
 10
88.781819
 20
107.112506
 30
0.0
 10
91.697119
 20
108.097981
 30
0.0
 10
94.584205
 20
109.626667
 30
0.0
 10
94.219281
 20
109.991591
 30
0.0
  0
SPLINE
  5
4ea
100
AcDbEntity
  8
0
 62
7
100
AcDbSpline
 70
8
 71
3
 72
8
 73
4
 74
0
 40
0
 40
0
 40
0
 40
0
 40
1
 40
1
 40
1
 40
1
 10
94.219281
 20
109.991591
 30
0.0
 10
94.154432
 20
110.056441
 30
0.0
 10
93.279516
 20
109.759769
 30
0.0
 10
92.275025
 20
109.332318
 30
0.0
  0
SPLINE
  5
4eb
100
AcDbEntity
  8
0
 62
7
100
AcDbSpline
 70
8
 71
3
 72
8
 73
4
 74
0
 40
0
 40
0
 40
0
 40
0
 40
1
 40
1
 40
1
 40
1
 10
92.275025
 20
109.332318
 30
0.0
 10
91.270532
 20
108.904868
 30
0.0
 10
89.145200
 20
108.225825
 30
0.0
 10
87.552064
 20
107.823336
 30
0.0
  0
SPLINE
  5
4ec
100
AcDbEntity
  8
0
 62
7
100
AcDbSpline
 70
8
 71
3
 72
8
 73
4
 74
0
 40
0
 40
0
 40
0
 40
0
 40
1
 40
1
 40
1
 40
1
 10
87.552064
 20
107.823336
 30
0.0
 10
85.958931
 20
107.420847
 30
0.0
 10
84.298269
 20
106.910971
 30
0.0
 10
83.861706
 20
106.690282
 30
0.0
  0
SPLINE
  5
4ed
100
AcDbEntity
  8
0
 62
7
100
AcDbSpline
 70
8
 71
3
 72
8
 73
4
 74
0
 40
0
 40
0
 40
0
 40
0
 40
1
 40
1
 40
1
 40
1
 10
83.861706
 20
106.690282
 30
0.0
 10
83.118045
 20
106.314348
 30
0.0
 10
82.434030
 20
105.649138
 30
0.0
 10
82.414912
 20
105.283262
 30
0.0
  0
SPLINE
  5
4ee
100
AcDbEntity
  8
0
 62
7
100
AcDbSpline
 70
8
 71
3
 72
8
 73
4
 74
0
 40
0
 40
0
 40
0
 40
0
 40
1
 40
1
 40
1
 40
1
 10
82.414912
 20
105.283262
 30
0.0
 10
82.403852
 20
105.071526
 30
0.0
 10
84.670754
 20
105.722820
 30
0.0
 10
88.781819
 20
107.112506
 30
0.0
  0
LWPOLYLINE
  5
4ef
100
AcDbEntity
  8
0
 62
7
100
AcDbPolyline
 90
1
 70
1
 10
73.204721
 20
99.641880
 30
0.0
  0
SPLINE
  5
4f0
100
AcDbEntity
  8
0
 62
7
100
AcDbSpline
 70
8
 71
3
 72
8
 73
4
 74
0
 40
0
 40
0
 40
0
 40
0
 40
1
 40
1
 40
1
 40
1
 10
100.141995
 20
104.039628
 30
0.0
 10
100.137365
 20
104.285701
 30
0.0
 10
100.260565
 20
104.565513
 30
0.0
 10
100.415767
 20
104.661436
 30
0.0
  0
SPLINE
  5
4f1
100
AcDbEntity
  8
0
 62
7
100
AcDbSpline
 70
8
 71
3
 72
8
 73
4
 74
0
 40
0
 40
0
 40
0
 40
0
 40
1
 40
1
 40
1
 40
1
 10
100.415767
 20
104.661436
 30
0.0
 10
100.882117
 20
104.949654
 30
0.0
 10
100.947500
 20
104.645825
 30
0.0
 10
100.536137
 20
104.102075
 30
0.0
  0
SPLINE
  5
4f2
100
AcDbEntity
  8
0
 62
7
100
AcDbSpline
 70
8
 71
3
 72
8
 73
4
 74
0
 40
0
 40
0
 40
0
 40
0
 40
1
 40
1
 40
1
 40
1
 10
100.536137
 20
104.102075
 30
0.0
 10
100.197478
 20
103.654434
 30
0.0
 10
100.149385
 20
103.646814
 30
0.0
 10
100.141995
 20
104.039628
 30
0.0
  0
LWPOLYLINE
  5
4f3
100
AcDbEntity
  8
0
 62
7
100
AcDbPolyline
 90
1
 70
1
 10
88.781819
 20
107.112506
 30
0.0
  0
SPLINE
  5
4f4
100
AcDbEntity
  8
0
 62
7
100
AcDbSpline
 70
8
 71
3
 72
8
 73
4
 74
0
 40
0
 40
0
 40
0
 40
0
 40
1
 40
1
 40
1
 40
1
 10
115.056973
 20
115.560787
 30
0.0
 10
115.158367
 20
115.740582
 30
0.0
 10
115.348644
 20
116.547075
 30
0.0
 10
115.479811
 20
117.352993
 30
0.0
  0
SPLINE
  5
4f5
100
AcDbEntity
  8
0
 62
7
100
AcDbSpline
 70
8
 71
3
 72
8
 73
4
 74
0
 40
0
 40
0
 40
0
 40
0
 40
1
 40
1
 40
1
 40
1
 10
115.479811
 20
117.352993
 30
0.0
 10
115.670322
 20
118.523536
 30
0.0
 10
115.890469
 20
118.963175
 30
0.0
 10
116.574186
 20
119.538485
 30
0.0
  0
SPLINE
  5
4f6
100
AcDbEntity
  8
0
 62
7
100
AcDbSpline
 70
8
 71
3
 72
8
 73
4
 74
0
 40
0
 40
0
 40
0
 40
0
 40
1
 40
1
 40
1
 40
1
 10
116.574186
 20
119.538485
 30
0.0
 10
117.044928
 20
119.934588
 30
0.0
 10
118.110757
 20
121.176701
 30
0.0
 10
118.942694
 20
122.298735
 30
0.0
  0
SPLINE
  5
4f7
100
AcDbEntity
  8
0
 62
7
100
AcDbSpline
 70
8
 71
3
 72
8
 73
4
 74
0
 40
0
 40
0
 40
0
 40
0
 40
1
 40
1
 40
1
 40
1
 10
118.942694
 20
122.298735
 30
0.0
 10
121.227837
 20
125.380708
 30
0.0
 10
122.141078
 20
128.511067
 30
0.0
 10
122.594534
 20
134.816342
 30
0.0
  0
SPLINE
  5
4f8
100
AcDbEntity
  8
0
 62
7
100
AcDbSpline
 70
8
 71
3
 72
8
 73
4
 74
0
 40
0
 40
0
 40
0
 40
0
 40
1
 40
1
 40
1
 40
1
 10
122.594534
 20
134.816342
 30
0.0
 10
122.846780
 20
138.323812
 30
0.0
 10
122.901856
 20
138.532283
 30
0.0
 10
124.715296
 20
142.844115
 30
0.0
  0
SPLINE
  5
4f9
100
AcDbEntity
  8
0
 62
7
100
AcDbSpline
 70
8
 71
3
 72
8
 73
4
 74
0
 40
0
 40
0
 40
0
 40
0
 40
1
 40
1
 40
1
 40
1
 10
124.715296
 20
142.844115
 30
0.0
 10
125.892391
 20
145.642901
 30
0.0
 10
125.757874
 20
148.598274
 30
0.0
 10
124.319064
 20
151.549449
 30
0.0
  0
SPLINE
  5
4fa
100
AcDbEntity
  8
0
 62
7
100
AcDbSpline
 70
8
 71
3
 72
8
 73
4
 74
0
 40
0
 40
0
 40
0
 40
0
 40
1
 40
1
 40
1
 40
1
 10
124.319064
 20
151.549449
 30
0.0
 10
123.424947
 20
153.383390
 30
0.0
 10
122.896884
 20
153.656906
 30
0.0
 10
121.543270
 20
152.987192
 30
0.0
  0
SPLINE
  5
4fb
100
AcDbEntity
  8
0
 62
7
100
AcDbSpline
 70
8
 71
3
 72
8
 73
4
 74
0
 40
0
 40
0
 40
0
 40
0
 40
1
 40
1
 40
1
 40
1
 10
121.543270
 20
152.987192
 30
0.0
 10
120.968918
 20
152.703025
 30
0.0
 10
120.451883
 20
152.546748
 30
0.0
 10
120.394304
 20
152.639914
 30
0.0
  0
SPLINE
  5
4fc
100
AcDbEntity
  8
0
 62
7
100
AcDbSpline
 70
8
 71
3
 72
8
 73
4
 74
0
 40
0
 40
0
 40
0
 40
0
 40
1
 40
1
 40
1
 40
1
 10
120.394304
 20
152.639914
 30
0.0
 10
120.218250
 20
152.924772
 30
0.0
 10
120.656289
 20
154.876651
 30
0.0
 10
121.074090
 20
155.669009
 30
0.0
  0
LWPOLYLINE
  5
4fd
100
AcDbEntity
  8
0
 62
7
100
AcDbPolyline
 90
1
 70
1
 10
100.141995
 20
104.039628
 30
0.0
  0
SPLINE
  5
4fe
100
AcDbEntity
  8
0
 62
7
100
AcDbSpline
 70
8
 71
3
 72
8
 73
4
 74
0
 40
0
 40
0
 40
0
 40
0
 40
1
 40
1
 40
1
 40
1
 10
121.450415
 20
155.139842
 30
0.0
 10
121.432926
 20
153.890750
 30
0.0
 10
121.448827
 20
153.864794
 30
0.0
 10
122.185282
 20
153.943158
 30
0.0
  0
SPLINE
  5
4ff
100
AcDbEntity
  8
0
 62
7
100
AcDbSpline
 70
8
 71
3
 72
8
 73
4
 74
0
 40
0
 40
0
 40
0
 40
0
 40
1
 40
1
 40
1
 40
1
 10
122.185282
 20
153.943158
 30
0.0
 10
123.272812
 20
154.058885
 30
0.0
 10
124.072351
 20
153.414717
 30
0.0
 10
124.818135
 20
151.821941
 30
0.0
  0
SPLINE
  5
500
100
AcDbEntity
  8
0
 62
7
100
AcDbSpline
 70
8
 71
3
 72
8
 73
4
 74
0
 40
0
 40
0
 40
0
 40
0
 40
1
 40
1
 40
1
 40
1
 10
124.818135
 20
151.821941
 30
0.0
 10
125.630104
 20
150.087817
 30
0.0
 10
126.062743
 20
148.090861
 30
0.0
 10
126.062743
 20
146.077136
 30
0.0
  0
SPLINE
  5
501
100
AcDbEntity
  8
0
 62
7
100
AcDbSpline
 70
8
 71
3
 72
8
 73
4
 74
0
 40
0
 40
0
 40
0
 40
0
 40
1
 40
1
 40
1
 40
1
 10
126.062743
 20
146.077136
 30
0.0
 10
126.062743
 20
144.466434
 30
0.0
 10
125.904051
 20
143.971391
 30
0.0
 10
124.167993
 20
140.166447
 30
0.0
  0
SPLINE
  5
502
100
AcDbEntity
  8
0
 62
7
100
AcDbSpline
 70
8
 71
3
 72
8
 73
4
 74
0
 40
0
 40
0
 40
0
 40
0
 40
1
 40
1
 40
1
 40
1
 10
124.167993
 20
140.166447
 30
0.0
 10
123.148236
 20
137.931435
 30
0.0
 10
123.101148
 20
137.704893
 30
0.0
 10
122.875582
 20
133.948739
 30
0.0
  0
SPLINE
  5
503
100
AcDbEntity
  8
0
 62
7
100
AcDbSpline
 70
8
 71
3
 72
8
 73
4
 74
0
 40
0
 40
0
 40
0
 40
0
 40
1
 40
1
 40
1
 40
1
 10
122.875582
 20
133.948739
 30
0.0
 10
122.625175
 20
129.778932
 30
0.0
 10
122.628200
 20
129.797146
 30
0.0
 10
121.664383
 20
126.651803
 30
0.0
  0
SPLINE
  5
504
100
AcDbEntity
  8
0
 62
7
100
AcDbSpline
 70
8
 71
3
 72
8
 73
4
 74
0
 40
0
 40
0
 40
0
 40
0
 40
1
 40
1
 40
1
 40
1
 10
121.664383
 20
126.651803
 30
0.0
 10
120.849215
 20
123.991550
 30
0.0
 10
119.995990
 20
122.555524
 30
0.0
 10
117.928160
 20
120.363514
 30
0.0
  0
SPLINE
  5
505
100
AcDbEntity
  8
0
 62
7
100
AcDbSpline
 70
8
 71
3
 72
8
 73
4
 74
0
 40
0
 40
0
 40
0
 40
0
 40
1
 40
1
 40
1
 40
1
 10
117.928160
 20
120.363514
 30
0.0
 10
116.656093
 20
119.015058
 30
0.0
 10
116.162675
 20
118.260495
 30
0.0
 10
115.846175
 20
117.179638
 30
0.0
  0
SPLINE
  5
506
100
AcDbEntity
  8
0
 62
7
100
AcDbSpline
 70
8
 71
3
 72
8
 73
4
 74
0
 40
0
 40
0
 40
0
 40
0
 40
1
 40
1
 40
1
 40
1
 10
115.846175
 20
117.179638
 30
0.0
 10
115.618030
 20
116.400517
 30
0.0
 10
115.305647
 20
115.643993
 30
0.0
 10
115.151990
 20
115.498473
 30
0.0
  0
SPLINE
  5
507
100
AcDbEntity
  8
0
 62
7
100
AcDbSpline
 70
8
 71
3
 72
8
 73
4
 74
0
 40
0
 40
0
 40
0
 40
0
 40
1
 40
1
 40
1
 40
1
 10
115.151990
 20
115.498473
 30
0.0
 10
114.961702
 20
115.318262
 30
0.0
 10
114.931402
 20
115.338135
 30
0.0
 10
115.056968
 20
115.560787
 30
0.0
  0
LWPOLYLINE
  5
508
100
AcDbEntity
  8
0
 62
7
100
AcDbPolyline
 90
3
 70
0
 10
121.074090
 20
155.669009
 30
0.0
 10
121.468301
 20
156.416626
 30
0.0
 10
121.450415
 20
155.139842
 30
0.0
  0
SPLINE
  5
509
100
AcDbEntity
  8
0
 62
7
100
AcDbSpline
 70
8
 71
3
 72
8
 73
4
 74
0
 40
0
 40
0
 40
0
 40
0
 40
1
 40
1
 40
1
 40
1
 10
19.444452
 20
120.908736
 30
0.0
 10
18.128144
 20
122.960024
 30
0.0
 10
16.525248
 20
128.158666
 30
0.0
 10
16.525248
 20
130.376533
 30
0.0
  0
SPLINE
  5
50a
100
AcDbEntity
  8
0
 62
7
100
AcDbSpline
 70
8
 71
3
 72
8
 73
4
 74
0
 40
0
 40
0
 40
0
 40
0
 40
1
 40
1
 40
1
 40
1
 10
16.525248
 20
130.376533
 30
0.0
 10
16.525248
 20
131.543107
 30
0.0
 10
16.809421
 20
130.862216
 30
0.0
 10
17.341887
 20
128.419836
 30
0.0
  0
SPLINE
  5
50b
100
AcDbEntity
  8
0
 62
7
100
AcDbSpline
 70
8
 71
3
 72
8
 73
4
 74
0
 40
0
 40
0
 40
0
 40
0
 40
1
 40
1
 40
1
 40
1
 10
17.341887
 20
128.419836
 30
0.0
 10
18.024369
 20
125.289347
 30
0.0
 10
18.820961
 20
122.936159
 30
0.0
 10
19.771993
 20
121.241116
 30
0.0
  0
SPLINE
  5
50c
100
AcDbEntity
  8
0
 62
7
100
AcDbSpline
 70
8
 71
3
 72
8
 73
4
 74
0
 40
0
 40
0
 40
0
 40
0
 40
1
 40
1
 40
1
 40
1
 10
19.771993
 20
121.241116
 30
0.0
 10
20.790212
 20
119.426323
 30
0.0
 10
20.551294
 20
119.183875
 30
0.0
 10
19.444452
 20
120.908736
 30
0.0
  0
LWPOLYLINE
  5
50d
100
AcDbEntity
  8
0
 62
7
100
AcDbPolyline
 90
1
 70
1
 10
115.056968
 20
115.560787
 30
0.0
  0
SPLINE
  5
50e
100
AcDbEntity
  8
0
 62
7
100
AcDbSpline
 70
8
 71
3
 72
8
 73
4
 74
0
 40
0
 40
0
 40
0
 40
0
 40
1
 40
1
 40
1
 40
1
 10
24.187050
 20
122.391030
 30
0.0
 10
23.900617
 20
122.736163
 30
0.0
 10
23.930817
 20
122.823332
 30
0.0
 10
24.377269
 20
122.940080
 30
0.0
  0
SPLINE
  5
50f
100
AcDbEntity
  8
0
 62
7
100
AcDbSpline
 70
8
 71
3
 72
8
 73
4
 74
0
 40
0
 40
0
 40
0
 40
0
 40
1
 40
1
 40
1
 40
1
 10
24.377269
 20
122.940080
 30
0.0
 10
24.788299
 20
123.047569
 30
0.0
 10
24.896054
 20
123.275238
 30
0.0
 10
24.855107
 20
123.949690
 30
0.0
  0
SPLINE
  5
510
100
AcDbEntity
  8
0
 62
7
100
AcDbSpline
 70
8
 71
3
 72
8
 73
4
 74
0
 40
0
 40
0
 40
0
 40
0
 40
1
 40
1
 40
1
 40
1
 10
24.855107
 20
123.949690
 30
0.0
 10
24.782807
 20
125.140511
 30
0.0
 10
24.598895
 20
125.363290
 30
0.0
 10
23.427786
 20
125.678639
 30
0.0
  0
SPLINE
  5
511
100
AcDbEntity
  8
0
 62
7
100
AcDbSpline
 70
8
 71
3
 72
8
 73
4
 74
0
 40
0
 40
0
 40
0
 40
0
 40
1
 40
1
 40
1
 40
1
 10
23.427786
 20
125.678639
 30
0.0
 10
22.103811
 20
126.035147
 30
0.0
 10
21.126453
 20
126.826600
 30
0.0
 10
20.193487
 20
128.297739
 30
0.0
  0
SPLINE
  5
512
100
AcDbEntity
  8
0
 62
7
100
AcDbSpline
 70
8
 71
3
 72
8
 73
4
 74
0
 40
0
 40
0
 40
0
 40
0
 40
1
 40
1
 40
1
 40
1
 10
20.193487
 20
128.297739
 30
0.0
 10
19.491894
 20
129.404033
 30
0.0
 10
19.435665
 20
129.685664
 30
0.0
 10
19.435665
 20
132.093340
 30
0.0
  0
SPLINE
  5
513
100
AcDbEntity
  8
0
 62
7
100
AcDbSpline
 70
8
 71
3
 72
8
 73
4
 74
0
 40
0
 40
0
 40
0
 40
0
 40
1
 40
1
 40
1
 40
1
 10
19.435665
 20
132.093340
 30
0.0
 10
19.435665
 20
134.083359
 30
0.0
 10
19.566660
 20
135.049644
 30
0.0
 10
19.993576
 20
136.208728
 30
0.0
  0
SPLINE
  5
514
100
AcDbEntity
  8
0
 62
7
100
AcDbSpline
 70
8
 71
3
 72
8
 73
4
 74
0
 40
0
 40
0
 40
0
 40
0
 40
1
 40
1
 40
1
 40
1
 10
19.993576
 20
136.208728
 30
0.0
 10
20.300429
 20
137.041837
 30
0.0
 10
20.638913
 20
138.230629
 30
0.0
 10
20.745765
 20
138.850489
 30
0.0
  0
SPLINE
  5
515
100
AcDbEntity
  8
0
 62
7
100
AcDbSpline
 70
8
 71
3
 72
8
 73
4
 74
0
 40
0
 40
0
 40
0
 40
0
 40
1
 40
1
 40
1
 40
1
 10
20.745765
 20
138.850489
 30
0.0
 10
20.852617
 20
139.470347
 30
0.0
 10
21.015399
 20
140.052859
 30
0.0
 10
21.107501
 20
140.144963
 30
0.0
  0
SPLINE
  5
516
100
AcDbEntity
  8
0
 62
7
100
AcDbSpline
 70
8
 71
3
 72
8
 73
4
 74
0
 40
0
 40
0
 40
0
 40
0
 40
1
 40
1
 40
1
 40
1
 10
21.107501
 20
140.144963
 30
0.0
 10
21.434841
 20
140.472300
 30
0.0
 10
22.021628
 20
139.677584
 30
0.0
 10
22.576769
 20
138.155064
 30
0.0
  0
SPLINE
  5
517
100
AcDbEntity
  8
0
 62
7
100
AcDbSpline
 70
8
 71
3
 72
8
 73
4
 74
0
 40
0
 40
0
 40
0
 40
0
 40
1
 40
1
 40
1
 40
1
 10
22.576769
 20
138.155064
 30
0.0
 10
23.276489
 20
136.236011
 30
0.0
 10
23.282979
 20
135.469445
 30
0.0
 10
22.610665
 20
134.151598
 30
0.0
  0
SPLINE
  5
518
100
AcDbEntity
  8
0
 62
7
100
AcDbSpline
 70
8
 71
3
 72
8
 73
4
 74
0
 40
0
 40
0
 40
0
 40
0
 40
1
 40
1
 40
1
 40
1
 10
22.610665
 20
134.151598
 30
0.0
 10
21.975334
 20
132.906243
 30
0.0
 10
21.908887
 20
130.660587
 30
0.0
 10
22.467793
 20
129.322938
 30
0.0
  0
SPLINE
  5
519
100
AcDbEntity
  8
0
 62
7
100
AcDbSpline
 70
8
 71
3
 72
8
 73
4
 74
0
 40
0
 40
0
 40
0
 40
0
 40
1
 40
1
 40
1
 40
1
 10
22.467793
 20
129.322938
 30
0.0
 10
22.680253
 20
128.814446
 30
0.0
 10
23.453103
 20
127.698579
 30
0.0
 10
24.185232
 20
126.843232
 30
0.0
  0
SPLINE
  5
51a
100
AcDbEntity
  8
0
 62
7
100
AcDbSpline
 70
8
 71
3
 72
8
 73
4
 74
0
 40
0
 40
0
 40
0
 40
0
 40
1
 40
1
 40
1
 40
1
 10
24.185232
 20
126.843232
 30
0.0
 10
25.335982
 20
125.498815
 30
0.0
 10
25.516697
 20
125.133309
 30
0.0
 10
25.518729
 20
124.146183
 30
0.0
  0
SPLINE
  5
51b
100
AcDbEntity
  8
0
 62
7
100
AcDbSpline
 70
8
 71
3
 72
8
 73
4
 74
0
 40
0
 40
0
 40
0
 40
0
 40
1
 40
1
 40
1
 40
1
 10
25.518729
 20
124.146183
 30
0.0
 10
25.521111
 20
122.994232
 30
0.0
 10
25.161513
 20
121.980764
 30
0.0
 10
24.750419
 20
121.980764
 30
0.0
  0
SPLINE
  5
51c
100
AcDbEntity
  8
0
 62
7
100
AcDbSpline
 70
8
 71
3
 72
8
 73
4
 74
0
 40
0
 40
0
 40
0
 40
0
 40
1
 40
1
 40
1
 40
1
 10
24.750419
 20
121.980764
 30
0.0
 10
24.627838
 20
121.980764
 30
0.0
 10
24.374322
 20
122.165385
 30
0.0
 10
24.187050
 20
122.391030
 30
0.0
  0
LWPOLYLINE
  5
51d
100
AcDbEntity
  8
0
 62
7
100
AcDbPolyline
 90
1
 70
1
 10
19.444452
 20
120.908736
 30
0.0
  0
SPLINE
  5
51e
100
AcDbEntity
  8
0
 62
7
100
AcDbSpline
 70
8
 71
3
 72
8
 73
4
 74
0
 40
0
 40
0
 40
0
 40
0
 40
1
 40
1
 40
1
 40
1
 10
46.158581
 20
127.140139
 30
0.0
 10
45.816806
 20
127.503941
 30
0.0
 10
45.664252
 20
127.801598
 30
0.0
 10
45.819571
 20
127.801598
 30
0.0
  0
SPLINE
  5
51f
100
AcDbEntity
  8
0
 62
7
100
AcDbSpline
 70
8
 71
3
 72
8
 73
4
 74
0
 40
0
 40
0
 40
0
 40
0
 40
1
 40
1
 40
1
 40
1
 10
45.819571
 20
127.801598
 30
0.0
 10
45.974889
 20
127.801598
 30
0.0
 10
46.171596
 20
127.620144
 30
0.0
 10
46.256702
 20
127.398367
 30
0.0
  0
SPLINE
  5
520
100
AcDbEntity
  8
0
 62
7
100
AcDbSpline
 70
8
 71
3
 72
8
 73
4
 74
0
 40
0
 40
0
 40
0
 40
0
 40
1
 40
1
 40
1
 40
1
 10
46.256702
 20
127.398367
 30
0.0
 10
46.341805
 20
127.176588
 30
0.0
 10
46.681964
 20
126.886481
 30
0.0
 10
47.012611
 20
126.753678
 30
0.0
  0
SPLINE
  5
521
100
AcDbEntity
  8
0
 62
7
100
AcDbSpline
 70
8
 71
3
 72
8
 73
4
 74
0
 40
0
 40
0
 40
0
 40
0
 40
1
 40
1
 40
1
 40
1
 10
47.012611
 20
126.753678
 30
0.0
 10
47.390476
 20
126.601913
 30
0.0
 10
47.458926
 20
126.505994
 30
0.0
 10
47.196888
 20
126.495453
 30
0.0
  0
SPLINE
  5
522
100
AcDbEntity
  8
0
 62
7
100
AcDbSpline
 70
8
 71
3
 72
8
 73
4
 74
0
 40
0
 40
0
 40
0
 40
0
 40
1
 40
1
 40
1
 40
1
 10
47.196888
 20
126.495453
 30
0.0
 10
46.967595
 20
126.486219
 30
0.0
 10
46.500357
 20
126.776337
 30
0.0
 10
46.158581
 20
127.140139
 30
0.0
  0
LWPOLYLINE
  5
523
100
AcDbEntity
  8
0
 62
7
100
AcDbPolyline
 90
1
 70
1
 10
24.187050
 20
122.391030
 30
0.0
  0
SPLINE
  5
524
100
AcDbEntity
  8
0
 62
7
100
AcDbSpline
 70
8
 71
3
 72
8
 73
4
 74
0
 40
0
 40
0
 40
0
 40
0
 40
1
 40
1
 40
1
 40
1
 10
95.391970
 20
131.924687
 30
0.0
 10
95.404670
 20
132.232913
 30
0.0
 10
95.467360
 20
132.295606
 30
0.0
 10
95.551821
 20
132.084540
 30
0.0
  0
SPLINE
  5
525
100
AcDbEntity
  8
0
 62
7
100
AcDbSpline
 70
8
 71
3
 72
8
 73
4
 74
0
 40
0
 40
0
 40
0
 40
0
 40
1
 40
1
 40
1
 40
1
 10
95.551821
 20
132.084540
 30
0.0
 10
95.628251
 20
131.893545
 30
0.0
 10
95.618853
 20
131.665340
 30
0.0
 10
95.530945
 20
131.577421
 30
0.0
  0
SPLINE
  5
526
100
AcDbEntity
  8
0
 62
7
100
AcDbSpline
 70
8
 71
3
 72
8
 73
4
 74
0
 40
0
 40
0
 40
0
 40
0
 40
1
 40
1
 40
1
 40
1
 10
95.530945
 20
131.577421
 30
0.0
 10
95.443027
 20
131.489503
 30
0.0
 10
95.380492
 20
131.645774
 30
0.0
 10
95.391981
 20
131.924687
 30
0.0
  0
LWPOLYLINE
  5
527
100
AcDbEntity
  8
0
 62
7
100
AcDbPolyline
 90
1
 70
1
 10
46.158581
 20
127.140139
 30
0.0
  0
SPLINE
  5
528
100
AcDbEntity
  8
0
 62
7
100
AcDbSpline
 70
8
 71
3
 72
8
 73
4
 74
0
 40
0
 40
0
 40
0
 40
0
 40
1
 40
1
 40
1
 40
1
 10
16.354984
 20
141.361493
 30
0.0
 10
16.072358
 20
142.455209
 30
0.0
 10
15.728363
 20
143.505499
 30
0.0
 10
15.120110
 20
145.131806
 30
0.0
  0
SPLINE
  5
529
100
AcDbEntity
  8
0
 62
7
100
AcDbSpline
 70
8
 71
3
 72
8
 73
4
 74
0
 40
0
 40
0
 40
0
 40
0
 40
1
 40
1
 40
1
 40
1
 10
15.120110
 20
145.131806
 30
0.0
 10
14.733376
 20
146.165837
 30
0.0
 10
14.787806
 20
148.865667
 30
0.0
 10
15.205536
 20
149.369002
 30
0.0
  0
SPLINE
  5
52a
100
AcDbEntity
  8
0
 62
7
100
AcDbSpline
 70
8
 71
3
 72
8
 73
4
 74
0
 40
0
 40
0
 40
0
 40
0
 40
1
 40
1
 40
1
 40
1
 10
15.205536
 20
149.369002
 30
0.0
 10
15.405174
 20
149.609551
 30
0.0
 10
15.991293
 20
149.762014
 30
0.0
 10
16.716394
 20
149.762014
 30
0.0
  0
SPLINE
  5
52b
100
AcDbEntity
  8
0
 62
7
100
AcDbSpline
 70
8
 71
3
 72
8
 73
4
 74
0
 40
0
 40
0
 40
0
 40
0
 40
1
 40
1
 40
1
 40
1
 10
16.716394
 20
149.762014
 30
0.0
 10
17.703861
 20
149.762014
 30
0.0
 10
18.046430
 20
149.616665
 30
0.0
 10
18.774183
 20
148.888913
 30
0.0
  0
SPLINE
  5
52c
100
AcDbEntity
  8
0
 62
7
100
AcDbSpline
 70
8
 71
3
 72
8
 73
4
 74
0
 40
0
 40
0
 40
0
 40
0
 40
1
 40
1
 40
1
 40
1
 10
18.774183
 20
148.888913
 30
0.0
 10
19.270620
 20
148.392475
 30
0.0
 10
19.785518
 20
147.507862
 30
0.0
 10
19.967708
 20
146.838392
 30
0.0
  0
SPLINE
  5
52d
100
AcDbEntity
  8
0
 62
7
100
AcDbSpline
 70
8
 71
3
 72
8
 73
4
 74
0
 40
0
 40
0
 40
0
 40
0
 40
1
 40
1
 40
1
 40
1
 10
19.967708
 20
146.838392
 30
0.0
 10
20.143941
 20
146.190811
 30
0.0
 10
20.572603
 20
144.968455
 30
0.0
 10
20.920292
 20
144.122042
 30
0.0
  0
LWPOLYLINE
  5
52e
100
AcDbEntity
  8
0
 62
7
100
AcDbPolyline
 90
1
 70
1
 10
95.391981
 20
131.924687
 30
0.0
  0
SPLINE
  5
52f
100
AcDbEntity
  8
0
 62
7
100
AcDbSpline
 70
8
 71
3
 72
8
 73
4
 74
0
 40
0
 40
0
 40
0
 40
0
 40
1
 40
1
 40
1
 40
1
 10
20.850649
 20
141.663005
 30
0.0
 10
20.464659
 20
141.156944
 30
0.0
 10
19.972010
 20
140.777902
 30
0.0
 10
19.755874
 20
140.820685
 30
0.0
  0
SPLINE
  5
530
100
AcDbEntity
  8
0
 62
7
100
AcDbSpline
 70
8
 71
3
 72
8
 73
4
 74
0
 40
0
 40
0
 40
0
 40
0
 40
1
 40
1
 40
1
 40
1
 10
19.755874
 20
140.820685
 30
0.0
 10
19.183165
 20
140.934051
 30
0.0
 10
18.537214
 20
143.631020
 30
0.0
 10
18.894605
 20
144.416650
 30
0.0
  0
SPLINE
  5
531
100
AcDbEntity
  8
0
 62
7
100
AcDbSpline
 70
8
 71
3
 72
8
 73
4
 74
0
 40
0
 40
0
 40
0
 40
0
 40
1
 40
1
 40
1
 40
1
 10
18.894605
 20
144.416650
 30
0.0
 10
19.473752
 20
145.689759
 30
0.0
 10
18.876852
 20
145.962198
 30
0.0
 10
17.865942
 20
144.886148
 30
0.0
  0
SPLINE
  5
532
100
AcDbEntity
  8
0
 62
7
100
AcDbSpline
 70
8
 71
3
 72
8
 73
4
 74
0
 40
0
 40
0
 40
0
 40
0
 40
1
 40
1
 40
1
 40
1
 10
17.865942
 20
144.886148
 30
0.0
 10
17.434177
 20
144.426554
 30
0.0
 10
17.246873
 20
143.880401
 30
0.0
 10
17.208085
 20
142.967919
 30
0.0
  0
SPLINE
  5
533
100
AcDbEntity
  8
0
 62
7
100
AcDbSpline
 70
8
 71
3
 72
8
 73
4
 74
0
 40
0
 40
0
 40
0
 40
0
 40
1
 40
1
 40
1
 40
1
 10
17.208085
 20
142.967919
 30
0.0
 10
17.109173
 20
140.641007
 30
0.0
 10
17.056198
 20
140.237014
 30
0.0
 10
16.849987
 20
140.237014
 30
0.0
  0
SPLINE
  5
534
100
AcDbEntity
  8
0
 62
7
100
AcDbSpline
 70
8
 71
3
 72
8
 73
4
 74
0
 40
0
 40
0
 40
0
 40
0
 40
1
 40
1
 40
1
 40
1
 10
16.849987
 20
140.237014
 30
0.0
 10
16.737553
 20
140.237014
 30
0.0
 10
16.514800
 20
140.743030
 30
0.0
 10
16.354984
 20
141.361493
 30
0.0
  0
LWPOLYLINE
  5
535
100
AcDbEntity
  8
0
 62
7
100
AcDbPolyline
 90
3
 70
0
 10
20.920292
 20
144.122042
 30
0.0
 10
21.552451
 20
142.583112
 30
0.0
 10
20.850649
 20
141.663005
 30
0.0
  0
LWPOLYLINE
  5
536
100
AcDbEntity
  8
0
 62
7
100
AcDbPolyline
 90
1
 70
1
 10
16.354984
 20
141.361493
 30
0.0
  0
ENDSEC
  0
SECTION
  2
OBJECTS
  0
DICTIONARY
  5
C
330
0
100
AcDbDictionary
  3
ACAD_GROUP
350
D
  3
ACAD_MLINESTYLE
350
17
  0
DICTIONARY
  5
D
330
C
100
AcDbDictionary
  0
DICTIONARY
  5
1A
330
C
100
AcDbDictionary
  0
DICTIONARY
  5
17
330
C
100
AcDbDictionary
  3
STANDARD
350
18
  0
DICTIONARY
  5
19
330
C
100
AcDbDictionary
  0
ENDSEC
  0
EOF
