  0
SECTION
  2
HEADER
  9
$ACADVER
  1
AC1018
  9
$ACADMAINTVER
 70
     0
  9
$DWGCODEPAGE
  3
ANSI_1256
  9
$INSBASE
 10
0.0
 20
0.0
 30
0.0
  9
$EXTMIN
 10
0.0
 20
0.0
 30
0.0
  9
$EXTMAX
 10
33.84
 20
33.84
 30
0.0
  9
$LIMMIN
 10
0.0
 20
0.0
  9
$LIMMAX
 10
12.0
 20
9.0
  9
$ORTHOMODE
 70
     0
  9
$REGENMODE
 70
     1
  9
$FILLMODE
 70
     1
  9
$QTEXTMODE
 70
     0
  9
$MIRRTEXT
 70
     1
  9
$LTSCALE
 40
1.0
  9
$ATTMODE
 70
     1
  9
$TEXTSIZE
 40
0.2
  9
$TRACEWID
 40
0.05
  9
$TEXTSTYLE
  7
Standard
  9
$CLAYER
  8
0
  9
$CELTYPE
  6
ByBlock
  9
$CECOLOR
 62
   256
  9
$CELTSCALE
 40
1.0
  9
$DISPSILH
 70
     0
  9
$DIMSCALE
 40
1.0
  9
$DIMASZ
 40
0.18
  9
$DIMEXO
 40
0.0625
  9
$DIMDLI
 40
0.38
  9
$DIMRND
 40
0.0
  9
$DIMDLE
 40
0.0
  9
$DIMEXE
 40
0.18
  9
$DIMTP
 40
0.0
  9
$DIMTM
 40
0.0
  9
$DIMTXT
 40
0.18
  9
$DIMCEN
 40
0.09
  9
$DIMTSZ
 40
0.0
  9
$DIMTOL
 70
     0
  9
$DIMLIM
 70
     0
  9
$DIMTIH
 70
     1
  9
$DIMTOH
 70
     1
  9
$DIMSE1
 70
     0
  9
$DIMSE2
 70
     0
  9
$DIMTAD
 70
     0
  9
$DIMZIN
 70
     0
  9
$DIMBLK
  1

  9
$DIMASO
 70
     1
  9
$DIMSHO
 70
     1
  9
$DIMPOST
  1

  9
$DIMAPOST
  1

  9
$DIMALT
 70
     0
  9
$DIMALTD
 70
     2
  9
$DIMALTF
 40
25.4
  9
$DIMLFAC
 40
1.0
  9
$DIMTOFL
 70
     0
  9
$DIMTVP
 40
0.0
  9
$DIMTIX
 70
     0
  9
$DIMSOXD
 70
     0
  9
$DIMSAH
 70
     0
  9
$DIMBLK1
  1

  9
$DIMBLK2
  1

  9
$DIMSTYLE
  2
Standard
  9
$DIMCLRD
 70
     0
  9
$DIMCLRE
 70
     0
  9
$DIMCLRT
 70
     0
  9
$DIMTFAC
 40
1.0
  9
$DIMGAP
 40
0.09
  9
$DIMJUST
 70
     0
  9
$DIMSD1
 70
     0
  9
$DIMSD2
 70
     0
  9
$DIMTOLJ
 70
     1
  9
$DIMTZIN
 70
     0
  9
$DIMALTZ
 70
     0
  9
$DIMALTTZ
 70
     0
  9
$DIMUPT
 70
     0
  9
$DIMDEC
 70
     4
  9
$DIMTDEC
 70
     4
  9
$DIMALTU
 70
     2
  9
$DIMALTTD
 70
     2
  9
$DIMTXSTY
  7
Standard
  9
$DIMAUNIT
 70
     0
  9
$DIMADEC
 70
     0
  9
$DIMALTRND
 40
0.0
  9
$DIMAZIN
 70
     0
  9
$DIMDSEP
 70
    46
  9
$DIMATFIT
 70
     3
  9
$DIMFRAC
 70
     0
  9
$DIMLDRBLK
  1

  9
$DIMLUNIT
 70
     2
  9
$DIMLWD
 70
    -2
  9
$DIMLWE
 70
    -2
  9
$DIMTMOVE
 70
     2
  9
$LUNITS
 70
     2
  9
$LUPREC
 70
     4
  9
$SKETCHINC
 40
0.1
  9
$FILLETRAD
 40
0.5
  9
$AUNITS
 70
     0
  9
$AUPREC
 70
     0
  9
$MENU
  1
.
  9
$ELEVATION
 40
0.0
  9
$PELEVATION
 40
0.0
  9
$THICKNESS
 40
0.0
  9
$LIMCHECK
 70
     0
  9
$CHAMFERA
 40
0.0
  9
$CHAMFERB
 40
0.0
  9
$CHAMFERC
 40
0.0
  9
$CHAMFERD
 40
0.0
  9
$SKPOLY
 70
     0
  9
$TDCREATE
 40
2457945.716883472
  9
$TDUCREATE
 40
2457945.591883472
  9
$TDUPDATE
 40
2457945.716884097
  9
$TDUUPDATE
 40
2457945.591884097
  9
$TDINDWG
 40
0.0000000116
  9
$TDUSRTIMER
 40
0.0000000116
  9
$USRTIMER
 70
     1
  9
$ANGBASE
 50
0.0
  9
$ANGDIR
 70
     0
  9
$PDMODE
 70
     0
  9
$PDSIZE
 40
0.0
  9
$PLINEWID
 40
0.0
  9
$SPLFRAME
 70
     0
  9
$SPLINETYPE
 70
     6
  9
$SPLINESEGS
 70
     8
  9
$HANDSEED
  5
1034
  9
$SURFTAB1
 70
     6
  9
$SURFTAB2
 70
     6
  9
$SURFTYPE
 70
     6
  9
$SURFU
 70
     6
  9
$SURFV
 70
     6
  9
$UCSBASE
  2

  9
$UCSNAME
  2

  9
$UCSORG
 10
0.0
 20
0.0
 30
0.0
  9
$UCSXDIR
 10
1.0
 20
0.0
 30
0.0
  9
$UCSYDIR
 10
0.0
 20
1.0
 30
0.0
  9
$UCSORTHOREF
  2

  9
$UCSORTHOVIEW
 70
     0
  9
$UCSORGTOP
 10
0.0
 20
0.0
 30
0.0
  9
$UCSORGBOTTOM
 10
0.0
 20
0.0
 30
0.0
  9
$UCSORGLEFT
 10
0.0
 20
0.0
 30
0.0
  9
$UCSORGRIGHT
 10
0.0
 20
0.0
 30
0.0
  9
$UCSORGFRONT
 10
0.0
 20
0.0
 30
0.0
  9
$UCSORGBACK
 10
0.0
 20
0.0
 30
0.0
  9
$PUCSBASE
  2

  9
$PUCSNAME
  2

  9
$PUCSORG
 10
0.0
 20
0.0
 30
0.0
  9
$PUCSXDIR
 10
1.0
 20
0.0
 30
0.0
  9
$PUCSYDIR
 10
0.0
 20
1.0
 30
0.0
  9
$PUCSORTHOREF
  2

  9
$PUCSORTHOVIEW
 70
     0
  9
$PUCSORGTOP
 10
0.0
 20
0.0
 30
0.0
  9
$PUCSORGBOTTOM
 10
0.0
 20
0.0
 30
0.0
  9
$PUCSORGLEFT
 10
0.0
 20
0.0
 30
0.0
  9
$PUCSORGRIGHT
 10
0.0
 20
0.0
 30
0.0
  9
$PUCSORGFRONT
 10
0.0
 20
0.0
 30
0.0
  9
$PUCSORGBACK
 10
0.0
 20
0.0
 30
0.0
  9
$USERI1
 70
     0
  9
$USERI2
 70
     0
  9
$USERI3
 70
     0
  9
$USERI4
 70
     0
  9
$USERI5
 70
     0
  9
$USERR1
 40
0.0
  9
$USERR2
 40
0.0
  9
$USERR3
 40
0.0
  9
$USERR4
 40
0.0
  9
$USERR5
 40
0.0
  9
$WORLDVIEW
 70
     1
  9
$SHADEDGE
 70
     3
  9
$SHADEDIF
 70
    70
  9
$TILEMODE
 70
     1
  9
$MAXACTVP
 70
    64
  9
$PINSBASE
 10
0.0
 20
0.0
 30
0.0
  9
$PLIMCHECK
 70
     0
  9
$PEXTMIN
 10
1.000000000000000E+20
 20
1.000000000000000E+20
 30
1.000000000000000E+20
  9
$PEXTMAX
 10
-1.000000000000000E+20
 20
-1.000000000000000E+20
 30
-1.000000000000000E+20
  9
$PLIMMIN
 10
0.0
 20
0.0
  9
$PLIMMAX
 10
12.0
 20
9.0
  9
$UNITMODE
 70
     0
  9
$VISRETAIN
 70
     1
  9
$PLINEGEN
 70
     0
  9
$PSLTSCALE
 70
     1
  9
$TREEDEPTH
 70
  3020
  9
$CMLSTYLE
  2
Standard
  9
$CMLJUST
 70
     0
  9
$CMLSCALE
 40
1.0
  9
$PROXYGRAPHICS
 70
     1
  9
$MEASUREMENT
 70
     0
  9
$CELWEIGHT
370
    -1
  9
$ENDCAPS
280
     0
  9
$JOINSTYLE
280
     0
  9
$LWDISPLAY
290
     0
  9
$INSUNITS
 70
     0
  9
$HYPERLINKBASE
  1

  9
$STYLESHEET
  1

  9
$XEDIT
290
     1
  9
$CEPSNTYPE
380
     0
  9
$PSTYLEMODE
290
     1
  9
$FINGERPRINTGUID
  2
{A6060076-9869-4446-A233-749D1BCA63C4}
  9
$VERSIONGUID
  2
{FAEB1C32-E019-11D5-929B-00C0DF256EC4}
  9
$EXTNAMES
290
     1
  9
$PSVPSCALE
 40
0.0
  9
$OLESTARTUP
290
     0
  9
$SORTENTS
280
   127
  9
$INDEXCTL
280
     0
  9
$HIDETEXT
280
     1
  9
$XCLIPFRAME
290
     0
  9
$HALOGAP
280
     0
  9
$OBSCOLOR
 70
   257
  9
$OBSLTYPE
280
     0
  9
$INTERSECTIONDISPLAY
280
     0
  9
$INTERSECTIONCOLOR
 70
   257
  9
$DIMASSOC
280
     2
  9
$PROJECTNAME
  1

  0
ENDSEC
  0
SECTION
  2
CLASSES
  0
CLASS
  1
ACDBDICTIONARYWDFLT
  2
AcDbDictionaryWithDefault
  3
ObjectDBX Classes
 90
        0
 91
        4
280
     0
281
     0
  0
CLASS
  1
SCALE
  2
AcDbScale
  3
ObjectDBX Classes
 90
     1153
 91
        4
280
     0
281
     0
  0
CLASS
  1
VISUALSTYLE
  2
AcDbVisualStyle
  3
ObjectDBX Classes
 90
     4095
 91
        4
280
     0
281
     0
  0
CLASS
  1
MATERIAL
  2
AcDbMaterial
  3
ObjectDBX Classes
 90
     1153
 91
        4
280
     0
281
     0
  0
CLASS
  1
TABLESTYLE
  2
AcDbTableStyle
  3
ObjectDBX Classes
 90
     4095
 91
        4
280
     0
281
     0
  0
CLASS
  1
MLEADERSTYLE
  2
AcDbMLeaderStyle
  3
ACDB_MLEADERSTYLE_CLASS
 90
     4095
 91
        4
280
     0
281
     0
  0
CLASS
  1
DICTIONARYVAR
  2
AcDbDictionaryVar
  3
ObjectDBX Classes
 90
        0
 91
        4
280
     0
281
     0
  0
CLASS
  1
CELLSTYLEMAP
  2
AcDbCellStyleMap
  3
ObjectDBX Classes
 90
     1152
 91
        4
280
     0
281
     0
  0
ENDSEC
  0
SECTION
  2
TABLES
  0
TABLE
  2
VPORT
  5
8
102
{ACAD_XDICTIONARY
360
FED
102
}
330
0
100
AcDbSymbolTable
 70
     1
  0
VPORT
  5
21
330
8
100
AcDbSymbolTableRecord
100
AcDbViewportTableRecord
  2
*Active
 70
     0
 10
0.0
 20
0.0
 11
1.0
 21
1.0
 12
10.42990654205607
 22
4.5
 13
0.0
 23
0.0
 14
0.5
 24
0.5
 15
0.5
 25
0.5
 16
0.0
 26
0.0
 36
1.0
 17
0.0
 27
0.0
 37
0.0
 40
9.0
 41
1.972972972850329
 42
50.0
 43
0.0
 44
0.0
 50
0.0
 51
0.0
 71
     0
 72
   100
 73
     1
 74
     3
 75
     0
 76
     0
 77
     0
 78
     0
281
     0
 65
     1
110
0.0
120
0.0
130
0.0
111
1.0
121
0.0
131
0.0
112
0.0
122
1.0
132
0.0
 79
     0
146
0.0
  0
ENDTAB
  0
TABLE
  2
LTYPE
  5
5
330
0
100
AcDbSymbolTable
 70
     1
  0
LTYPE
  5
14
330
5
100
AcDbSymbolTableRecord
100
AcDbLinetypeTableRecord
  2
ByBlock
 70
     0
  3

 72
    65
 73
     0
 40
0.0
  0
LTYPE
  5
15
330
5
100
AcDbSymbolTableRecord
100
AcDbLinetypeTableRecord
  2
ByLayer
 70
     0
  3

 72
    65
 73
     0
 40
0.0
  0
LTYPE
  5
16
330
5
100
AcDbSymbolTableRecord
100
AcDbLinetypeTableRecord
  2
Continuous
 70
     0
  3
Solid line
 72
    65
 73
     0
 40
0.0
  0
ENDTAB
  0
TABLE
  2
LAYER
  5
2
330
0
100
AcDbSymbolTable
 70
     1
  0
LAYER
  5
10
330
2
100
AcDbSymbolTableRecord
100
AcDbLayerTableRecord
  2
0
 70
     0
 62
     7
  6
Continuous
370
    -3
390
F
  0
ENDTAB
  0
TABLE
  2
STYLE
  5
3
330
0
100
AcDbSymbolTable
 70
     1
  0
STYLE
  5
11
330
3
100
AcDbSymbolTableRecord
100
AcDbTextStyleTableRecord
  2
Standard
 70
     0
 40
0.0
 41
1.0
 50
0.0
 71
     0
 42
0.2
  3
txt
  4

  0
ENDTAB
  0
TABLE
  2
VIEW
  5
6
330
0
100
AcDbSymbolTable
 70
     0
  0
ENDTAB
  0
TABLE
  2
UCS
  5
7
330
0
100
AcDbSymbolTable
 70
     0
  0
ENDTAB
  0
TABLE
  2
APPID
  5
9
330
0
100
AcDbSymbolTable
 70
     2
  0
APPID
  5
12
330
9
100
AcDbSymbolTableRecord
100
AcDbRegAppTableRecord
  2
ACAD
 70
     0
  0
APPID
  5
102B
330
9
100
AcDbSymbolTableRecord
100
AcDbRegAppTableRecord
  2
ACAD_MLEADERVER
 70
     0
  0
ENDTAB
  0
TABLE
  2
DIMSTYLE
  5
A
330
0
100
AcDbSymbolTable
 70
     1
100
AcDbDimStyleTable
  0
DIMSTYLE
105
20
330
A
100
AcDbSymbolTableRecord
100
AcDbDimStyleTableRecord
  2
Standard
 70
     0
178
     0
340
11
  0
ENDTAB
  0
TABLE
  2
BLOCK_RECORD
  5
1
330
0
100
AcDbSymbolTable
 70
     0
  0
BLOCK_RECORD
  5
1D
330
1
100
AcDbSymbolTableRecord
100
AcDbBlockTableRecord
  2
*Model_Space
340
1E
  0
BLOCK_RECORD
  5
1B
330
1
100
AcDbSymbolTableRecord
100
AcDbBlockTableRecord
  2
*Paper_Space
340
1C
  0
ENDTAB
  0
ENDSEC
  0
SECTION
  2
BLOCKS
  0
BLOCK
  5
FC8
330
1D
100
AcDbEntity
  8
0
100
AcDbBlockBegin
  2
*Model_Space
 70
     0
 10
0.0
 20
0.0
 30
0.0
  3
*Model_Space
  1

  0
ENDBLK
  5
FC9
330
1D
100
AcDbEntity
  8
0
100
AcDbBlockEnd
  0
BLOCK
  5
FCA
330
1B
100
AcDbEntity
 67
     1
  8
0
100
AcDbBlockBegin
  2
*Paper_Space
 70
     0
 10
0.0
 20
0.0
 30
0.0
  3
*Paper_Space
  1

  0
ENDBLK
  5
FCB
330
1B
100
AcDbEntity
 67
     1
  8
0
100
AcDbBlockEnd
  0
ENDSEC
  0
SECTION
  2
ENTITIES
  0
LWPOLYLINE
  5
22
330
1D
100
AcDbEntity
  8
0
100
AcDbPolyline
 90
       54
 70
     1
 43
0.0
 10
16.812409
 20
33.294259
 42
0.030357
 10
16.734301
 20
33.423587
 42
0.487307
 10
16.69012
 20
33.426236
 42
0.10995
 10
16.64867
 20
33.351217
 42
0.003054
 10
16.545624
 20
32.992407
 42
0.016143
 10
16.471771
 20
32.692269
 42
0.039155
 10
16.442047
 20
32.466171
 42
0.040075
 10
16.448268
 20
32.241338
 42
0.017638
 10
16.490722
 20
31.946564
 42
-0.026653
 10
16.538074
 20
31.569788
 42
-0.000713
 10
16.655663
 20
29.899883
 42
-0.001488
 10
16.78524
 20
27.936426
 42
-0.001018
 10
16.92121
 20
25.706072
 42
-0.000168
 10
17.05047
 20
23.499636
 42
-0.000268
 10
17.15935
 20
21.612895
 42
-0.000049
 10
17.254469
 20
19.946285
 42
-0.014229
 10
17.2584
 20
19.808165
 42
0.098248
 10
17.275716
 20
19.720891
 42
0.028511
 10
17.335528
 20
19.596673
 42
0.027473
 10
17.420472
 20
19.46139
 42
0.026236
 10
17.520964
 20
19.334044
 42
0.014032
 10
17.627368
 20
19.219505
 42
0.019133
 10
17.729911
 20
19.122844
 42
0.016247
 10
17.818918
 20
19.050109
 42
0.164622
 10
17.863565
 20
19.035
 42
0.362539
 10
17.893748
 20
19.060197
 42
0.028503
 10
17.907523
 20
19.171991
 42
0.027137
 10
17.909285
 20
19.327197
 42
0.0139
 10
17.895526
 20
19.52145
 42
-0.007073
 10
17.871994
 20
19.799709
 42
-0.00131
 10
17.837288
 20
20.312328
 42
-0.001405
 10
17.799958
 20
20.912023
 42
-0.001281
 10
17.764782
 20
21.5307
 42
0.000229
 10
17.721906
 20
22.313862
 42
0.000074
 10
17.657578
 20
23.475971
 42
0.000074
 10
17.585611
 20
24.769187
 42
0.000082
 10
17.51592
 20
26.0145
 42
-0.000235
 10
17.448164
 20
27.231881
 42
-0.000239
 10
17.382006
 20
28.441198
 42
-0.000232
 10
17.325519
 20
29.491916
 42
-0.000997
 10
17.293424
 20
30.1176
 10
17.237123
 20
31.2597
 10
17.501562
 20
31.011222
 42
0.005643
 10
17.6673
 20
30.858973
 42
0.117936
 10
17.726042
 20
30.827115
 42
0.435428
 10
17.757055
 20
30.846524
 42
0.047601
 10
17.766
 20
30.940269
 42
0.081113
 10
17.747508
 20
31.053506
 42
0.005946
 10
17.643358
 20
31.352072
 42
0.008165
 10
17.508408
 20
31.706447
 42
0.006093
 10
17.348497
 20
32.092862
 42
0.001718
 10
17.179952
 20
32.482787
 42
0.002069
 10
17.018801
 20
32.847988
 42
0.001763
 10
16.880739
 20
33.154482
 42
0.013968
  0
LWPOLYLINE
  5
5A
330
1D
100
AcDbEntity
  8
0
100
AcDbPolyline
 90
       36
 70
     1
 43
0.0
 10
18.677776
 20
33.5016
 42
0.305093
 10
18.652257
 20
33.48443
 42
0.039502
 10
18.631322
 20
33.418472
 42
0.035193
 10
18.616757
 20
33.327071
 42
0.021919
 10
18.612
 20
33.218612
 42
0.044733
 10
18.623766
 20
33.087363
 42
0.052027
 10
18.658713
 20
32.967087
 42
0.054665
 10
18.715738
 20
32.861692
 42
0.059519
 10
18.792876
 20
32.774462
 42
-0.040143
 10
18.870482
 20
32.693255
 42
-0.020782
 10
18.954467
 20
32.580673
 42
-0.020523
 10
19.031662
 20
32.457087
 42
-0.029233
 10
19.088976
 20
32.341067
 42
-0.046026
 10
19.133823
 20
32.200293
 42
-0.016415
 10
19.172371
 20
31.992684
 42
-0.016127
 10
19.199981
 20
31.760811
 42
-0.018335
 10
19.211071
 20
31.537367
 42
0.002027
 10
19.217144
 20
31.179812
 42
0.099379
 10
19.232535
 20
31.110704
 42
0.625634
 10
19.260083
 20
31.109728
 42
0.014682
 10
19.334155
 20
31.2597
 42
0.051993
 10
19.379202
 20
31.393167
 42
0.017516
 10
19.417352
 20
31.595257
 42
0.01721
 10
19.444184
 20
31.823278
 42
0.01889
 10
19.454184
 20
32.04562
 42
0.019366
 10
19.44598
 20
32.305507
 42
0.029533
 10
19.41688
 20
32.529252
 42
0.033186
 10
19.365451
 20
32.72676
 42
0.037684
 10
19.289933
 20
32.90718
 42
0.025371
 10
19.211707
 20
33.043023
 42
0.021268
 10
19.11567
 20
33.178765
 42
0.021798
 10
19.017065
 20
33.295394
 42
0.053637
 10
18.932709
 20
33.369109
 42
0.014972
 10
18.855465
 20
33.419835
 42
0.017962
 10
18.779795
 20
33.462681
 42
0.01687
 10
18.714258
 20
33.49398
 42
0.103319
  0
LWPOLYLINE
  5
80
330
1D
100
AcDbEntity
  8
0
100
AcDbPolyline
 90
       54
 70
     1
 43
0.0
 10
13.4937
 20
32.778586
 42
0.024263
 10
13.351727
 20
32.78973
 42
0.022182
 10
13.205002
 20
32.787597
 42
0.022791
 10
13.074184
 20
32.773881
 42
0.064515
 10
12.9861
 20
32.748657
 42
0.038174
 10
12.911282
 20
32.709319
 42
0.020914
 10
12.825879
 20
32.650617
 42
0.020735
 10
12.743674
 20
32.583393
 42
0.030949
 10
12.678265
 20
32.517535
 42
0.049405
 10
12.62091
 20
32.437426
 42
0.023883
 10
12.563189
 20
32.325156
 42
0.023416
 10
12.513715
 20
32.201398
 42
0.031024
 10
12.481194
 20
32.08455
 10
12.422756
 20
31.8096
 10
12.873628
 20
31.803654
 42
-0.01275
 10
13.058653
 20
31.796492
 42
-0.013024
 10
13.241759
 20
31.779925
 42
-0.012878
 10
13.399778
 20
31.757329
 42
-0.051697
 10
13.4937
 20
31.731225
 42
-0.048164
 10
13.580151
 20
31.68724
 42
-0.382795
 10
13.591248
 20
31.647567
 42
-0.134178
 10
13.547234
 20
31.597909
 42
-0.007762
 10
13.373871
 20
31.488421
 42
-0.020929
 10
13.228034
 20
31.407624
 42
-0.008266
 10
13.021232
 20
31.308354
 42
-0.008164
 10
12.794011
 20
31.208329
 42
-0.010121
 10
12.579266
 20
31.123027
 42
0.004645
 10
12.275053
 20
31.006026
 42
0.084088
 10
12.186217
 20
30.952262
 42
0.473842
 10
12.187378
 20
30.908002
 42
0.076461
 10
12.27423
 20
30.859769
 42
0.084668
 10
12.399177
 20
30.836337
 42
0.039809
 10
12.563673
 20
30.846736
 42
0.029468
 10
12.776043
 20
30.890145
 42
0.01264
 10
13.053866
 20
30.971788
 42
0.012785
 10
13.295287
 20
31.056284
 42
0.01137
 10
13.541803
 20
31.156172
 42
0.011491
 10
13.759442
 20
31.256169
 42
0.034126
 10
13.901731
 20
31.337998
 42
0.041397
 10
14.024088
 20
31.43551
 42
0.017428
 10
14.172176
 20
31.585108
 42
0.017102
 10
14.320195
 20
31.756876
 42
0.02135
 10
14.444974
 20
31.92645
 42
0.014091
 10
14.547035
 20
32.08798
 42
0.020959
 10
14.626243
 20
32.235268
 42
0.016935
 10
14.680583
 20
32.357726
 42
0.238721
 10
14.676629
 20
32.40418
 42
0.136555
 10
14.640252
 20
32.437784
 42
0.012591
 10
14.528637
 20
32.491587
 42
0.015502
 10
14.389608
 20
32.549223
 42
0.011545
 10
14.232955
 20
32.604445
 42
0.012514
 10
14.054796
 20
32.657764
 42
0.008606
 10
13.850446
 20
32.709629
 42
0.008681
 10
13.651929
 20
32.752769
 42
0.017444
  0
LWPOLYLINE
  5
B8
330
1D
100
AcDbEntity
  8
0
100
AcDbPolyline
 90
       50
 70
     1
 43
0.0
 10
22.375317
 20
32.386279
 42
0.244953
 10
22.363025
 20
32.390908
 42
0.117207
 10
22.346748
 20
32.384899
 42
0.074443
 10
22.328645
 20
32.368515
 42
0.041497
 10
22.311728
 20
32.343979
 42
0.057462
 10
22.291403
 20
32.296684
 42
0.004487
 10
22.253087
 20
32.164492
 42
0.006072
 10
22.210599
 20
32.005415
 42
0.004604
 10
22.16773
 20
31.829964
 42
0.026224
 10
22.122482
 20
31.578449
 42
0.028589
 10
22.105512
 20
31.330747
 42
0.024008
 10
22.115885
 20
31.048763
 42
0.011448
 10
22.154894
 20
30.687864
 42
-0.013684
 10
22.197977
 20
30.271872
 42
-0.002
 10
22.258909
 20
29.425103
 42
-0.00226
 10
22.322422
 20
28.423314
 42
-0.001937
 10
22.380433
 20
27.3681
 42
0.001548
 10
22.435986
 20
26.343066
 42
0.002213
 10
22.492113
 20
25.43403
 42
0.001203
 10
22.54483
 20
24.665622
 42
0.03362
 10
22.572463
 20
24.466831
 42
0.05355
 10
22.615849
 20
24.332465
 42
0.055767
 10
22.68635
 20
24.212344
 42
0.052415
 10
22.785902
 20
24.104816
 42
0.038886
 10
22.915729
 20
24.007864
 10
23.200959
 20
23.827567
 10
23.139832
 20
25.047934
 42
0.000724
 10
23.109039
 20
25.645401
 42
0.000296
 10
23.065574
 20
26.456545
 42
0.000293
 10
23.017871
 20
27.327563
 42
0.000375
 10
22.972876
 20
28.1295
 42
-0.001648
 10
22.934522
 20
28.845666
 42
-0.002674
 10
22.907186
 20
29.454633
 42
-0.000417
 10
22.886328
 20
29.99365
 42
-0.187622
 10
22.897864
 20
30.02699
 42
-0.330996
 10
22.921814
 20
30.032535
 42
-0.019088
 10
22.993876
 20
29.997727
 42
-0.022937
 10
23.082326
 20
29.945425
 42
-0.01419
 10
23.18144
 20
29.876408
 42
0.013773
 10
23.306398
 20
29.789241
 42
0.082228
 10
23.378773
 20
29.75714
 42
0.273024
 10
23.417156
 20
29.768164
 42
0.191817
 10
23.4342
 20
29.810958
 42
0.090285
 10
23.418753
 20
29.895807
 42
0.002404
 10
23.282198
 20
30.253196
 42
0.004955
 10
23.115023
 20
30.672123
 42
0.003363
 10
22.916746
 20
31.14594
 42
0.000819
 10
22.716647
 20
31.6131
 42
0.001314
 10
22.544251
 20
32.010883
 42
0.000216
 10
22.390541
 20
32.362596
 42
0.079605
  0
LWPOLYLINE
  5
EC
330
1D
100
AcDbEntity
  8
0
100
AcDbPolyline
 90
       46
 70
     1
 43
0.0
 10
10.068778
 20
32.177608
 42
0.467913
 10
10.033212
 20
32.175127
 42
0.039122
 10
9.978391
 20
32.085232
 42
0.030582
 10
9.917325
 20
31.94407
 42
0.016058
 10
9.858045
 20
31.762159
 42
0.0187
 10
9.789367
 20
31.488071
 42
0.038742
 10
9.760636
 20
31.269452
 42
0.038152
 10
9.765764
 20
31.0469
 42
0.017599
 10
9.804633
 20
30.759651
 42
-0.02517
 10
9.849917
 20
30.382073
 42
-0.000604
 10
9.969683
 20
28.618961
 42
-0.001321
 10
10.102175
 20
26.550779
 42
-0.000897
 10
10.242559
 20
24.1956
 42
0.000322
 10
10.37823
 20
21.874526
 42
0.000534
 10
10.496037
 20
19.916576
 42
0.000018
 10
10.604534
 20
18.145953
 42
0.174305
 10
10.614451
 20
18.122908
 42
0.308752
 10
10.632742
 20
18.118812
 42
0.009445
 10
10.707915
 20
18.150371
 42
0.015541
 10
10.798327
 20
18.193761
 42
0.009742
 10
10.901407
 20
18.249808
 42
0.035733
 10
11.043192
 20
18.344522
 42
0.103868
 10
11.119025
 20
18.433928
 42
0.096208
 10
11.155642
 20
18.550395
 42
0.028048
 10
11.166345
 20
18.7389
 42
0.013267
 10
11.159891
 20
18.98805
 42
0.000268
 10
11.093237
 20
20.245309
 42
0.000633
 10
11.012719
 20
21.714019
 42
0.000426
 10
10.917167
 20
23.3919
 42
-0.000189
 10
10.817502
 20
25.127547
 42
-0.000221
 10
10.724282
 20
26.774578
 42
-0.000195
 10
10.646626
 20
28.167189
 42
-0.001357
 10
10.610749
 20
28.8486
 10
10.553723
 20
29.9907
 10
10.818162
 20
29.742222
 42
0.003935
 10
10.998584
 20
29.575343
 42
0.139478
 10
11.049293
 20
29.550132
 42
0.440686
 10
11.076817
 20
29.57088
 42
0.023676
 10
11.0826
 20
29.69295
 42
0.081102
 10
11.061808
 20
29.820293
 42
0.005842
 10
10.943837
 20
30.158753
 42
0.008073
 10
10.791149
 20
30.560484
 42
0.006012
 10
10.610216
 20
30.998928
 42
0.002733
 10
10.424194
 20
31.428254
 42
0.004069
 10
10.256311
 20
31.801709
 42
0.001813
 10
10.109498
 20
32.118281
 42
0.082007
  0
LWPOLYLINE
  5
11C
330
1D
100
AcDbEntity
  8
0
100
AcDbPolyline
 90
       90
 70
     1
 43
0.0
 10
19.604626
 20
31.183574
 42
0.269606
 10
19.582806
 20
31.189348
 42
0.069339
 10
19.547977
 20
31.174358
 42
0.051444
 10
19.506735
 20
31.143156
 42
0.031907
 10
19.465019
 20
31.098957
 42
0.095408
 10
19.426237
 20
31.028386
 42
0.050493
 10
19.405213
 20
30.93039
 42
0.043201
 10
19.40237
 20
30.812441
 42
0.030809
 10
19.418699
 20
30.681268
 42
-0.025326
 10
19.435782
 20
30.555313
 42
-0.021396
 10
19.441345
 20
30.42095
 42
-0.021939
 10
19.435766
 20
30.297825
 42
-0.0546
 10
19.418034
 20
30.209555
 42
-0.073403
 10
19.385112
 20
30.14207
 42
-0.06773
 10
19.333329
 20
30.084863
 42
-0.07154
 10
19.271285
 20
30.04622
 42
-0.103922
 10
19.208366
 20
30.033
 42
-0.108013
 10
19.144411
 20
30.046979
 42
-0.07988
 10
19.08405
 20
30.087377
 42
-0.073115
 10
19.034913
 20
30.14869
 42
-0.067048
 10
19.003722
 20
30.22335
 42
-0.026214
 10
18.983815
 20
30.317015
 42
-0.010999
 10
18.966462
 20
30.444764
 42
-0.010847
 10
18.95385
 20
30.582493
 42
-0.013863
 10
18.948513
 20
30.7098
 10
18.944315
 20
31.0059
 10
18.736278
 20
30.7521
 42
0.019443
 10
18.656608
 20
30.646809
 42
0.022359
 10
18.589228
 20
30.540323
 42
0.022176
 10
18.540733
 20
30.44605
 42
0.107149
 10
18.52782
 20
30.387557
 42
0.082081
 10
18.534016
 20
30.349167
 42
0.161385
 10
18.552375
 20
30.324704
 42
0.183325
 10
18.579814
 20
30.317862
 42
0.109258
 10
18.612
 20
30.3291
 42
-0.369423
 10
18.646062
 20
30.323807
 42
-0.106919
 10
18.67346
 20
30.273157
 42
-0.051222
 10
18.691213
 20
30.175858
 42
-0.019531
 10
18.6966
 20
30.037993
 42
0.032256
 10
18.707035
 20
29.876411
 42
0.047497
 10
18.738592
 20
29.737832
 42
0.053687
 10
18.791515
 20
29.621237
 42
0.063091
 10
18.8658
 20
29.5254
 42
0.023889
 10
18.937069
 20
29.460634
 42
0.027202
 10
19.011278
 20
29.405902
 42
0.027912
 10
19.078481
 20
29.366953
 42
0.117908
 10
19.123445
 20
29.3562
 42
0.132641
 10
19.170549
 20
29.368919
 42
0.022487
 10
19.249523
 20
29.419813
 42
0.023196
 10
19.339052
 20
29.489844
 42
0.018805
 10
19.428447
 20
29.572756
 42
-0.015603
 10
19.56021
 20
29.696542
 42
-0.124039
 10
19.633885
 20
29.734541
 42
-0.194556
 10
19.700672
 20
29.724108
 42
-0.049114
 10
19.790813
 20
29.657356
 42
0.041487
 10
19.856886
 20
29.606852
 42
0.03412
 10
19.934751
 20
29.564162
 42
0.035365
 10
20.012178
 20
29.53479
 42
0.0731
 10
20.076061
 20
29.5254
 42
0.117248
 10
20.139492
 20
29.540482
 42
0.046656
 10
20.215758
 20
29.588308
 42
0.042848
 10
20.29182
 20
29.657619
 42
0.041554
 10
20.355819
 20
29.739555
 42
0.053631
 10
20.418641
 20
29.862352
 42
0.053948
 10
20.453756
 20
29.995459
 42
0.044781
 10
20.463339
 20
30.153318
 42
0.022417
 10
20.448605
 20
30.352905
 42
0.013942
 10
20.423328
 20
30.524328
 42
0.010808
 10
20.386604
 20
30.70939
 42
0.010958
 10
20.344792
 20
30.88067
 42
0.025749
 10
20.304287
 20
31.0059
 42
0.009533
 10
20.243657
 20
31.156217
 42
0.17118
 10
20.209054
 20
31.193999
 42
0.370157
 10
20.173787
 20
31.186156
 42
0.03319
 10
20.120387
 20
31.104037
 42
0.084725
 10
20.089585
 20
31.017283
 42
0.029039
 10
20.074352
 20
30.88431
 42
0.027122
 10
20.074077
 20
30.728811
 42
0.024101
 10
20.090332
 20
30.567871
 42
-0.009196
 10
20.119278
 20
30.347251
 42
-0.09468
 10
20.112267
 20
30.256054
 42
-0.275208
 10
20.073234
 20
30.218345
 42
-0.105712
 10
19.994844
 20
30.216747
 42
-0.1508
 10
19.919531
 20
30.256879
 42
-0.074381
 10
19.854705
 20
30.345164
 42
-0.048601
 10
19.796777
 20
30.486995
 42
-0.018028
 10
19.742419
 20
30.695892
 42
0.005815
 10
19.701398
 20
30.870968
 42
0.008397
 10
19.660743
 20
31.024677
 42
0.00491
 10
19.623274
 20
31.152479
 42
0.123216
  0
LWPOLYLINE
  5
178
330
1D
100
AcDbEntity
  8
0
100
AcDbPolyline
 90
       54
 70
     1
 43
0.0
 10
25.051439
 20
30.9636
 42
0.302007
 10
25.02461
 20
30.945769
 42
0.009844
 10
24.974567
 20
30.819718
 42
0.015856
 10
24.921002
 20
30.661541
 42
0.009987
 10
24.86806
 20
30.473789
 42
0.018435
 10
24.805955
 20
30.193432
 42
0.039653
 10
24.783467
 20
29.97345
 42
0.037649
 10
24.795471
 20
29.745685
 42
0.01511
 10
24.844626
 20
29.437439
 42
-0.029183
 10
24.895187
 20
29.050714
 42
-0.001126
 10
24.995333
 20
27.610073
 42
-0.002008
 10
25.10321
 20
25.903692
 42
-0.001414
 10
25.211379
 20
23.9841
 42
0.000028
 10
25.322893
 20
21.902416
 42
0.000024
 10
25.440837
 20
19.704967
 42
0.000024
 10
25.548405
 20
17.70443
 42
0.000068
 10
25.623789
 20
16.307239
 42
0.001491
 10
25.684602
 20
15.241867
 42
0.002422
 10
25.743353
 20
14.337139
 42
0.000354
 10
25.79989
 20
13.535342
 42
0.180496
 10
25.820412
 20
13.490388
 42
0.375653
 10
25.851665
 20
13.4883
 42
0.022599
 10
25.929805
 20
13.553738
 42
0.024882
 10
26.024087
 20
13.649294
 42
0.014772
 10
26.127106
 20
13.771753
 10
26.38701
 20
14.099908
 10
26.095887
 20
19.253504
 42
0.000069
 10
25.975548
 20
21.378579
 42
0.000069
 10
25.854706
 20
23.502087
 42
0.000068
 10
25.748759
 20
25.3549
 42
0.000277
 10
25.683656
 20
26.4798
 42
-0.003006
 10
25.641775
 20
27.279075
 42
-0.004793
 10
25.616632
 20
27.96287
 42
-0.00125
 10
25.60196
 20
28.557498
 42
-0.199729
 10
25.625553
 20
28.617949
 42
-0.239219
 10
25.661121
 20
28.630323
 42
-0.079407
 10
25.715562
 20
28.613883
 42
-0.058446
 10
25.779554
 20
28.572999
 42
-0.037506
 10
25.843491
 20
28.512199
 42
0.021141
 10
25.90805
 20
28.446656
 42
0.025826
 10
25.973912
 20
28.39129
 42
0.025764
 10
26.032797
 20
28.351359
 42
0.136938
 10
26.069912
 20
28.341
 42
0.18215
 10
26.0972
 20
28.351282
 42
0.091016
 10
26.1204
 20
28.380653
 42
0.070934
 10
26.136119
 20
28.424337
 42
0.050987
 10
26.1414
 20
28.475989
 42
0.091093
 10
26.124393
 20
28.568567
 42
0.003062
 10
25.989503
 20
28.916867
 42
0.005703
 10
25.822428
 20
29.326787
 42
0.003934
 10
25.624303
 20
29.787289
 42
0.00372
 10
25.42204
 20
30.238266
 42
0.006037
 10
25.242722
 20
30.618059
 42
0.001592
 10
25.082569
 20
30.944273
 42
0.285184
  0
LWPOLYLINE
  5
1B0
330
1D
100
AcDbEntity
  8
0
100
AcDbPolyline
 90
       60
 70
     1
 43
0.0
 10
7.662379
 20
30.618521
 42
0.008848
 10
7.490216
 20
30.612793
 42
0.010463
 10
7.327755
 20
30.601095
 42
0.009414
 10
7.191528
 20
30.585824
 42
0.0631
 10
7.12577
 20
30.568578
 42
0.098826
 10
7.076074
 20
30.536051
 42
0.02751
 10
7.013073
 20
30.466948
 42
0.026628
 10
6.948924
 20
30.379149
 42
0.02513
 10
6.89312
 20
30.283358
 42
0.029579
 10
6.845205
 20
30.175514
 42
0.021909
 10
6.804754
 20
30.051441
 42
0.022294
 10
6.77685
 20
29.930503
 42
0.045577
 10
6.768
 20
29.833621
 42
0.034514
 10
6.775242
 20
29.728826
 42
0.167037
 10
6.801821
 20
29.676374
 42
0.204697
 10
6.851304
 20
29.657356
 42
0.054781
 10
6.936565
 20
29.669921
 42
-0.054421
 10
7.026441
 20
29.683233
 42
-0.015534
 10
7.167631
 20
29.684255
 42
-0.015445
 10
7.328105
 20
29.675467
 42
-0.015814
 10
7.486465
 20
29.656817
 42
-0.020214
 10
7.63259
 20
29.628825
 42
-0.031154
 10
7.755783
 20
29.591796
 42
-0.031921
 10
7.84605
 20
29.551692
 42
-0.279152
 10
7.8678
 20
29.515771
 42
-0.247363
 10
7.844941
 20
29.472393
 42
-0.013804
 10
7.71248
 20
29.386889
 42
-0.018662
 10
7.541668
 20
29.291729
 42
-0.012346
 10
7.33905
 20
29.194784
 42
-0.000978
 10
7.121106
 20
29.097555
 42
-0.000988
 10
6.903492
 20
29.001498
 42
-0.000962
 10
6.71364
 20
28.918578
 42
-0.004014
 10
6.5988
 20
28.869776
 42
0.009749
 10
6.475237
 20
28.815585
 42
0.194658
 10
6.447588
 20
28.786112
 42
0.379324
 10
6.45794
 20
28.758284
 42
0.025876
 10
6.540706
 20
28.719541
 42
0.10824
 10
6.632183
 20
28.703798
 42
0.018851
 10
6.807802
 20
28.718393
 42
0.019649
 10
7.01653
 20
28.752057
 42
0.01629
 10
7.235604
 20
28.803762
 42
0.01899
 10
7.46944
 20
28.876693
 42
0.013681
 10
7.724547
 20
28.974955
 42
0.013851
 10
7.962341
 20
29.081925
 42
0.028904
 10
8.139698
 20
29.180717
 42
0.031009
 10
8.296194
 20
29.294344
 42
0.018831
 10
8.467042
 20
29.446521
 42
0.018839
 10
8.625752
 20
29.610917
 42
0.031351
 10
8.744876
 20
29.762069
 42
0.022848
 10
8.834408
 20
29.905168
 42
0.02916
 10
8.902782
 20
30.044896
 42
0.029657
 10
8.94477
 20
30.16455
 42
0.162558
 10
8.941791
 20
30.232031
 42
0.145911
 10
8.899877
 20
30.286464
 42
0.026394
 10
8.791357
 20
30.356338
 42
0.02647
 10
8.651182
 20
30.4269
 42
0.021261
 10
8.493795
 20
30.48811
 42
0.027089
 10
8.308661
 20
30.540192
 42
0.016121
 10
8.083603
 20
30.582968
 42
0.016113
 10
7.855862
 20
30.611206
 42
0.026683
  0
LWPOLYLINE
  5
1EE
330
1D
100
AcDbEntity
  8
0
100
AcDbPolyline
 90
       76
 70
     1
 43
0.0
 10
15.236414
 20
30.536097
 42
0.034294
 10
15.173442
 20
30.564433
 42
0.045243
 10
15.112705
 20
30.580841
 42
0.05266
 10
15.062403
 20
30.584277
 42
0.189308
 10
15.033452
 20
30.571652
 42
0.129284
 10
15.018224
 20
30.545558
 42
0.0584
 10
15.012085
 20
30.506126
 42
0.052261
 10
15.01513
 20
30.460505
 42
0.048872
 10
15.027547
 20
30.415418
 42
-0.170019
 10
15.029248
 20
30.357968
 42
-0.041858
 10
14.992729
 20
30.269353
 42
-0.038063
 10
14.931157
 20
30.169072
 42
-0.030177
 10
14.850476
 20
30.070733
 42
0.026678
 10
14.763038
 20
29.965663
 42
0.022066
 10
14.681206
 20
29.845172
 42
0.022624
 10
14.615946
 20
29.727741
 42
0.054075
 10
14.581431
 20
29.634335
 42
0.063972
 10
14.569793
 20
29.536274
 42
0.067587
 10
14.58376
 20
29.440356
 42
0.064188
 10
14.623831
 20
29.347596
 42
0.049628
 10
14.689223
 20
29.258871
 42
-0.052818
 10
14.773027
 20
29.143637
 42
-0.236958
 10
14.777712
 20
29.062831
 42
-0.102884
 10
14.712398
 20
28.969872
 42
-0.006734
 10
14.468373
 20
28.74714
 42
-0.031311
 10
14.270521
 20
28.592397
 42
-0.011874
 10
13.976574
 20
28.400906
 42
-0.011706
 10
13.646242
 20
28.207255
 42
-0.014022
 10
13.326273
 20
28.041171
 42
-0.011908
 10
12.983397
 20
27.885196
 42
-0.007882
 10
12.582832
 20
27.721785
 42
-0.007935
 10
12.188372
 20
27.575238
 42
-0.015252
 10
11.8671
 20
27.47256
 42
0.006305
 10
11.595706
 20
27.391146
 42
0.008913
 10
11.356339
 20
27.311322
 42
0.005676
 10
11.158563
 20
27.238892
 42
0.114416
 10
11.1057
 20
27.203477
 42
0.627829
 10
11.115541
 20
27.177997
 42
0.012407
 10
11.295598
 20
27.167874
 42
0.014644
 10
11.540184
 20
27.167368
 42
0.007695
 10
11.844
 20
27.180321
 42
0.01349
 10
12.252552
 20
27.215123
 42
0.020233
 10
12.606276
 20
27.269459
 42
0.021642
 10
12.935867
 20
27.348773
 42
0.019259
 10
13.270664
 20
27.458959
 42
0.020431
 10
13.588088
 20
27.592161
 42
0.027951
 10
13.860941
 20
27.739124
 42
0.028133
 10
14.114343
 20
27.914801
 42
0.021116
 10
14.372945
 20
28.134694
 42
0.010873
 10
14.56482
 20
28.320245
 42
0.011463
 10
14.745014
 20
28.510792
 42
0.011155
 10
14.892686
 20
28.68182
 42
0.049676
 10
14.966478
 20
28.791872
 42
-0.033251
 10
15.035978
 20
28.903251
 42
-0.137696
 10
15.097408
 20
28.952197
 42
-0.149889
 10
15.172269
 20
28.959824
 42
-0.041848
 10
15.286755
 20
28.926944
 42
0.021973
 10
15.377483
 20
28.89694
 42
0.016396
 10
15.479797
 20
28.871614
 42
0.016648
 10
15.577969
 20
28.854096
 42
0.035836
 10
15.654557
 20
28.8486
 42
0.104175
 10
15.726507
 20
28.863755
 42
0.049447
 10
15.809377
 20
28.910547
 42
0.046024
 10
15.889634
 20
28.97881
 42
0.048529
 10
15.954476
 20
29.059484
 42
0.047279
 10
16.006421
 20
29.157923
 42
0.044282
 10
16.040323
 20
29.266534
 42
0.046337
 10
16.053398
 20
29.373664
 42
0.068795
 10
16.043173
 20
29.467506
 42
0.057639
 10
16.004929
 20
29.568786
 42
0.014701
 10
15.919823
 20
29.722517
 42
0.014784
 10
15.811577
 20
29.89343
 42
0.014496
 10
15.692738
 20
30.058796
 42
0.0133
 10
15.566117
 20
30.215787
 42
0.014405
 10
15.434548
 20
30.361591
 42
0.014009
 10
15.31506
 20
30.479759
 42
0.065201
  0
LWPOLYLINE
  5
23C
330
1D
100
AcDbEntity
  8
0
100
AcDbPolyline
 90
       20
 70
     1
 43
0.0
 10
15.154596
 20
29.8638
 42
-0.059009
 10
15.227667
 20
29.855146
 42
-0.136471
 10
15.275566
 20
29.82854
 42
-0.158752
 10
15.298538
 20
29.784157
 42
-0.08881
 10
15.297653
 20
29.72276
 42
-0.049631
 10
15.280916
 20
29.666824
 42
-0.049633
 10
15.253484
 20
29.615283
 42
-0.054229
 10
15.220103
 20
29.575381
 42
-0.115301
 10
15.1857
 20
29.554936
 42
-0.092152
 10
15.144942
 20
29.549904
 42
-0.04214
 10
15.091703
 20
29.557687
 42
-0.03983
 10
15.035373
 20
29.575671
 42
-0.043898
 10
14.984511
 20
29.601917
 42
-0.07851
 10
14.944359
 20
29.637191
 42
-0.089765
 10
14.919247
 20
29.681644
 42
-0.099611
 10
14.912848
 20
29.728194
 42
-0.123527
 10
14.926054
 20
29.769741
 42
-0.105823
 10
14.96063
 20
29.805798
 42
-0.051312
 10
15.017168
 20
29.83617
 42
-0.047649
 10
15.085099
 20
29.856828
 42
-0.050037
  0
LWPOLYLINE
  5
252
330
1D
100
AcDbEntity
  8
0
100
AcDbPolyline
 90
       20
 70
     1
 43
0.0
 10
15.515981
 20
29.61
 42
-0.186453
 10
15.530817
 20
29.604268
 42
-0.006157
 10
15.578049
 20
29.560298
 42
-0.010981
 10
15.632869
 20
29.505638
 42
-0.007335
 10
15.6933
 20
29.4408
 42
-0.015378
 10
15.765943
 20
29.355392
 42
-0.118744
 10
15.788022
 20
29.30821
 42
-0.354808
 10
15.774542
 20
29.282355
 42
-0.10518
 10
15.727562
 20
29.272895
 42
-0.048069
 10
15.673617
 20
29.278688
 42
-0.02648
 10
15.609368
 20
29.295503
 42
-0.026165
 10
15.545435
 20
29.319658
 42
-0.037781
 10
15.492111
 20
29.348037
 42
-0.078477
 10
15.451959
 20
29.383342
 42
-0.089711
 10
15.426847
 20
29.42782
 42
-0.099558
 10
15.420447
 20
29.474388
 42
-0.123544
 10
15.433654
 20
29.515941
 42
-0.017332
 10
15.457684
 20
29.551968
 42
-0.024026
 10
15.481817
 20
29.58237
 42
-0.02199
 10
15.503404
 20
29.604948
 42
-0.193323
  0
LWPOLYLINE
  5
268
330
1D
100
AcDbEntity
  8
0
100
AcDbPolyline
 90
      130
 70
     1
 43
0.0
 10
20.216393
 20
29.1024
 42
0.308268
 10
20.18933
 20
29.083962
 42
0.013745
 10
20.148789
 20
28.971931
 42
0.019083
 10
20.107301
 20
28.828496
 42
0.012018
 10
20.069345
 20
28.65825
 42
0.024021
 10
20.032668
 20
28.411051
 42
0.035658
 10
20.026546
 20
28.192316
 42
0.032185
 10
20.051747
 20
27.95913
 42
0.015447
 10
20.112422
 20
27.6642
 42
0.00554
 10
20.177021
 20
27.40568
 42
0.002731
 10
20.264566
 20
27.078441
 42
0.002709
 10
20.359147
 20
26.739709
 42
0.00395
 10
20.446468
 20
26.442325
 42
0.012457
 10
20.548225
 20
26.133627
 42
0.006692
 10
20.688256
 20
25.757863
 42
0.00666
 10
20.841372
 20
25.378279
 42
0.010373
 10
20.984381
 20
25.055864
 42
-0.007511
 10
21.112609
 20
24.771179
 42
-0.009799
 10
21.220847
 20
24.5068
 42
-0.007693
 10
21.303215
 20
24.283651
 42
-0.084757
 10
21.3192
 20
24.19003
 42
-0.108896
 10
21.303689
 20
24.119655
 42
-0.041247
 10
21.25372
 20
24.031633
 42
-0.038409
 10
21.181585
 20
23.941612
 42
-0.038007
 10
21.096291
 20
23.86334
 42
-0.050957
 10
20.973079
 20
23.785285
 42
-0.046256
 10
20.83262
 20
23.730739
 42
-0.041527
 10
20.67068
 20
23.69876
 42
-0.028199
 10
20.482941
 20
23.688316
 42
-0.031166
 10
20.309034
 20
23.699308
 42
-0.027716
 10
20.130762
 20
23.731905
 42
-0.028824
 10
19.967208
 20
23.781406
 42
-0.049063
 10
19.838659
 20
23.843436
 42
-0.05903
 10
19.724761
 20
23.93285
 42
-0.023281
 10
19.590049
 20
24.080156
 42
-0.022653
 10
19.457789
 20
24.254527
 42
-0.026303
 10
19.348785
 20
24.431908
 42
-0.02912
 10
19.24985
 20
24.641946
 42
-0.014293
 10
19.147515
 20
24.919361
 42
-0.01413
 10
19.057328
 20
25.214505
 42
-0.019939
 10
18.99506
 20
25.482339
 42
-0.008692
 10
18.940999
 20
25.79507
 42
-0.00304
 10
18.873828
 20
26.2465
 42
-0.003018
 10
18.805927
 20
26.744184
 42
-0.003522
 10
18.747628
 20
27.217648
 42
0.00738
 10
18.677216
 20
27.755248
 42
0.016597
 10
18.60433
 20
28.159958
 42
0.021713
 10
18.52399
 20
28.468417
 42
0.045213
 10
18.42994
 20
28.698148
 10
18.241991
 20
29.0601
 10
18.077577
 20
28.519047
 10
17.913164
 20
27.977993
 10
18.137275
 20
26.615547
 42
-0.002539
 10
18.222997
 20
26.077368
 42
-0.003382
 10
18.295086
 20
25.587501
 42
-0.00239
 10
18.350744
 20
25.176397
 42
-0.034238
 10
18.359793
 20
25.029041
 42
-0.067607
 10
18.342993
 20
24.911626
 42
-0.017434
 10
18.284114
 20
24.72907
 42
-0.017419
 10
18.201667
 20
24.523657
 42
-0.016934
 10
18.1044
 20
24.3225
 42
0.019706
 10
17.98747
 20
24.077218
 42
0.032419
 10
17.910716
 20
23.860668
 42
0.036461
 10
17.868572
 20
23.655838
 42
0.036303
 10
17.856546
 20
23.446759
 42
0.013764
 10
17.863476
 20
23.284355
 42
0.013515
 10
17.879347
 20
23.121583
 42
0.013515
 10
17.900962
 20
22.979768
 42
0.048895
 10
17.925817
 20
22.892012
 42
0.045831
 10
17.968049
 20
22.807896
 42
0.353697
 10
18.006819
 20
22.794444
 42
0.143543
 10
18.056444
 20
22.83071
 42
0.008945
 10
18.165702
 20
22.978482
 42
0.038606
 10
18.243537
 20
23.10786
 42
0.014443
 10
18.332971
 20
23.300047
 42
0.014209
 10
18.418756
 20
23.515925
 42
0.01673
 10
18.487192
 20
23.724977
 10
18.632121
 20
24.223515
 10
18.905392
 20
23.633542
 42
0.018579
 10
19.027296
 20
23.394105
 42
0.018159
 10
19.167512
 20
23.162501
 42
0.018392
 10
19.305251
 20
22.968536
 42
0.062585
 10
19.413975
 20
22.858471
 42
0.034328
 10
19.527375
 20
22.781241
 42
0.01899
 10
19.675174
 20
22.702163
 42
0.018861
 10
19.831723
 20
22.633079
 42
0.028718
 10
19.972724
 20
22.586282
 42
0.032765
 10
20.143135
 20
22.552176
 42
0.036472
 10
20.310505
 20
22.542271
 42
0.034341
 10
20.485938
 20
22.55677
 42
0.023896
 10
20.680849
 20
22.596056
 42
0.035289
 10
20.863046
 20
22.655873
 42
0.037887
 10
21.030547
 20
22.739594
 42
0.038538
 10
21.180945
 20
22.846124
 42
0.039255
 10
21.312215
 20
22.973869
 42
0.041881
 10
21.424468
 20
23.125642
 42
0.03203
 10
21.521509
 20
23.307984
 42
0.029819
 10
21.600883
 20
23.515448
 42
0.02528
 10
21.660151
 20
23.742586
 42
0.023127
 10
21.695984
 20
23.966847
 42
0.015838
 10
21.716726
 20
24.223877
 42
0.015926
 10
21.721058
 20
24.478637
 42
0.025542
 10
21.70674
 20
24.695519
 42
0.02437
 10
21.668975
 20
24.921308
 42
0.009954
 10
21.596708
 20
25.223999
 42
0.009821
 10
21.506038
 20
25.546702
 42
0.012376
 10
21.408936
 20
25.841391
 42
0.002605
 10
21.300317
 20
26.140567
 42
0.001812
 10
21.174677
 20
26.477318
 42
0.001828
 10
21.051753
 20
26.799609
 42
0.003778
 10
20.95288
 20
27.050359
 42
-0.003922
 10
20.828433
 20
27.366235
 42
-0.060715
 10
20.800053
 20
27.47918
 42
-0.441644
 10
20.82712
 20
27.51087
 42
-0.131642
 10
20.897117
 20
27.494509
 42
0.021107
 10
20.963904
 20
27.462314
 42
0.019795
 10
21.034596
 20
27.435107
 42
0.020216
 10
21.099186
 20
27.416016
 42
0.061818
 10
21.144438
 20
27.4104
 42
0.093487
 10
21.178855
 20
27.416892
 42
0.096466
 10
21.208115
 20
27.435449
 42
0.099138
 10
21.227699
 20
27.463136
 42
0.104882
 10
21.2346
 20
27.495673
 42
0.126074
 10
21.219872
 20
27.553154
 42
0.003501
 10
21.093742
 20
27.779361
 42
0.006982
 10
20.938828
 20
28.043989
 42
0.004713
 10
20.755083
 20
28.341673
 42
0.005207
 10
20.567004
 20
28.633274
 42
0.008225
 10
20.399042
 20
28.878936
 42
0.00315
 10
20.251513
 20
29.084515
 42
0.239962
  0
LWPOLYLINE
  5
2EC
330
1D
100
AcDbEntity
  8
0
100
AcDbPolyline
 90
       48
 70
     1
 43
0.0
 10
27.870369
 20
28.5525
 42
0.01029
 10
27.750126
 20
28.80228
 42
0.033819
 10
27.656579
 20
28.959463
 42
0.079957
 10
27.589841
 20
29.029115
 42
0.493808
 10
27.548986
 20
29.0178
 42
0.00751
 10
27.521642
 20
28.946931
 42
0.001628
 10
27.476652
 20
28.823666
 42
0.001697
 10
27.425523
 20
28.680636
 42
0.001623
 10
27.374593
 20
28.535119
 42
0.032381
 10
27.313992
 20
28.315028
 42
0.050157
 10
27.293603
 20
28.11915
 42
0.034803
 10
27.309618
 20
27.877181
 42
0.008267
 10
27.370905
 20
27.477619
 42
-0.022769
 10
27.429288
 20
27.006136
 42
-0.001443
 10
27.533503
 20
25.615211
 42
-0.002119
 10
27.64592
 20
23.956294
 42
-0.001573
 10
27.756568
 20
22.1229
 42
0.00071
 10
27.921058
 20
19.316825
 42
0.007235
 10
28.007807
 20
18.153659
 42
0.013871
 10
28.084263
 20
17.501209
 42
0.118632
 10
28.19275
 20
17.230026
 42
0.015125
 10
28.296216
 20
17.09306
 42
0.137618
 10
28.356527
 20
17.049997
 42
0.235135
 10
28.414276
 20
17.056686
 42
0.052096
 10
28.493921
 20
17.121264
 42
0.19762
 10
28.568424
 20
17.299873
 42
0.008403
 10
28.560164
 20
17.997882
 42
0.006414
 10
28.510501
 20
19.194851
 42
0.000667
 10
28.354014
 20
22.004985
 42
-0.000929
 10
28.253319
 20
23.83044
 42
-0.001529
 10
28.175748
 20
25.374657
 42
-0.000126
 10
28.110818
 20
26.758646
 42
-0.211059
 10
28.127731
 20
26.802331
 42
-0.305166
 10
28.157459
 20
26.808141
 42
-0.035272
 10
28.221258
 20
26.775744
 42
-0.032875
 10
28.29926
 20
26.721676
 42
-0.02059
 10
28.3833
 20
26.649
 42
0.026626
 10
28.468268
 20
26.577295
 42
0.041497
 10
28.549139
 20
26.526054
 42
0.050028
 10
28.615722
 20
26.499317
 42
0.273335
 10
28.651796
 20
26.508596
 42
0.266702
 10
28.664683
 20
26.556244
 42
0.008691
 10
28.608968
 20
26.754071
 42
0.014544
 10
28.529872
 20
26.991961
 42
0.009343
 10
28.425023
 20
27.26328
 42
0.00285
 10
28.296464
 20
27.573256
 42
0.00186
 10
28.144763
 20
27.929509
 42
0.001871
 10
27.99426
 20
28.275759
 42
0.003576
  0
LWPOLYLINE
  5
31E
330
1D
100
AcDbEntity
  8
0
100
AcDbPolyline
 90
       50
 70
     1
 43
0.0
 10
5.088425
 20
28.78454
 42
0.497815
 10
5.05658
 20
28.780332
 42
0.026299
 10
5.003388
 20
28.67378
 42
0.024505
 10
4.944278
 20
28.517424
 42
0.013105
 10
4.885951
 20
28.31924
 42
0.015667
 10
4.823261
 20
28.049909
 42
0.031265
 10
4.793859
 20
27.833197
 42
0.037331
 10
4.794297
 20
27.64195
 42
0.037221
 10
4.823156
 20
27.4527
 42
-0.037632
 10
4.860003
 20
27.209724
 42
-0.001276
 10
4.930322
 20
26.244506
 42
-0.0024
 10
5.005014
 20
25.103595
 42
-0.001671
 10
5.07885
 20
23.8149
 42
0.000766
 10
5.149433
 20
22.542702
 42
0.001219
 10
5.214142
 20
21.454535
 42
0.000238
 10
5.273974
 20
20.495551
 42
0.061349
 10
5.289485
 20
20.412815
 42
0.159112
 10
5.320235
 20
20.370056
 42
0.147979
 10
5.371244
 20
20.35213
 42
0.076004
 10
5.452313
 20
20.360887
 42
0.019029
 10
5.579924
 20
20.399995
 42
0.016337
 10
5.681592
 20
20.439207
 42
0.019887
 10
5.773887
 20
20.482718
 42
0.018818
 10
5.847591
 20
20.524717
 42
0.115927
 10
5.878224
 20
20.555411
 42
0.147679
 10
5.893125
 20
20.611351
 42
0.00061
 10
5.871078
 20
21.2572
 42
0.002946
 10
5.840752
 20
21.992272
 42
0.001843
 10
5.79701
 20
22.852431
 42
0.000463
 10
5.746516
 20
23.762584
 42
0.000496
 10
5.695457
 20
24.652067
 42
0.000469
 10
5.650103
 20
25.416368
 42
0.002339
 10
5.622233
 20
25.8453
 10
5.569182
 20
26.6067
 10
5.81367
 20
26.37405
 42
0.011156
 10
5.911606
 20
26.284934
 42
0.015414
 10
6.003619
 20
26.209741
 42
0.011952
 10
6.082472
 20
26.152197
 42
0.152801
 10
6.116979
 20
26.1414
 42
0.151549
 10
6.139412
 20
26.148359
 42
0.098353
 10
6.158521
 20
26.167945
 42
0.08127
 10
6.171412
 20
26.197215
 42
0.063249
 10
6.1758
 20
26.231765
 42
0.093351
 10
6.163541
 20
26.296855
 42
0.001484
 10
6.025193
 20
26.648022
 42
0.003856
 10
5.859584
 20
27.05557
 42
0.00254
 10
5.663096
 20
27.521915
 42
0.002309
 10
5.462122
 20
27.98627
 42
0.00351
 10
5.282796
 20
28.387723
 42
0.001323
 10
5.125417
 20
28.731093
 42
0.086712
  0
LWPOLYLINE
  5
352
330
1D
100
AcDbEntity
  8
0
100
AcDbPolyline
 90
       46
 70
     1
 43
0.0
 10
24.765643
 20
28.137557
 42
0.329899
 10
24.733519
 20
28.142349
 42
0.019862
 10
24.644063
 20
28.090063
 42
0.023455
 10
24.535196
 20
28.013068
 42
0.014518
 10
24.41449
 20
27.91314
 42
0.035816
 10
24.276038
 20
27.77281
 42
0.01525
 10
24.110683
 20
27.566886
 42
0.014997
 10
23.946928
 20
27.335593
 42
0.019047
 10
23.810628
 20
27.112277
 42
0.019356
 10
23.689618
 20
26.874758
 42
0.013794
 10
23.571987
 20
26.600293
 42
0.013957
 10
23.4742
 20
26.331912
 42
0.028693
 10
23.415834
 20
26.116095
 42
0.012836
 10
23.367571
 20
25.852494
 42
0.056052
 10
23.360699
 20
25.69433
 42
0.081164
 10
23.390173
 20
25.56875
 42
0.046917
 10
23.462861
 20
25.431242
 42
0.044024
 10
23.529408
 20
25.346905
 42
0.044072
 10
23.609669
 20
25.275555
 42
0.047808
 10
23.691017
 20
25.226454
 42
0.112348
 10
23.759803
 20
25.2108
 42
0.093213
 10
23.830976
 20
25.224185
 42
0.03774
 10
23.920357
 20
25.267054
 42
0.035679
 10
24.012114
 20
25.329023
 42
0.03784
 10
24.092215
 20
25.402305
 42
0.034285
 10
24.170624
 20
25.498154
 42
0.016537
 10
24.258135
 20
25.630556
 42
0.016313
 10
24.340622
 20
25.77518
 42
0.022488
 10
24.404408
 20
25.910409
 10
24.536692
 20
26.227009
 10
24.260396
 20
26.205355
 42
-0.026447
 10
24.093783
 20
26.201133
 42
-0.186273
 10
24.020304
 20
26.231843
 42
-0.163136
 10
23.981209
 20
26.306359
 42
-0.019186
 10
23.958198
 20
26.495005
 42
-0.044613
 10
23.959132
 20
26.646945
 42
-0.032084
 10
23.986088
 20
26.814548
 42
-0.030755
 10
24.03624
 20
26.985664
 42
-0.031298
 10
24.106767
 20
27.148302
 42
-0.020193
 10
24.192638
 20
27.301057
 42
-0.011587
 10
24.307696
 20
27.47834
 42
-0.011563
 10
24.431789
 20
27.651439
 42
-0.018861
 10
24.545778
 20
27.791589
 42
0.014769
 10
24.64396
 20
27.910307
 42
0.02384
 10
24.719486
 20
28.017501
 42
0.020444
 10
24.770501
 20
28.105528
 42
0.328548
  0
LWPOLYLINE
  5
382
330
1D
100
AcDbEntity
  8
0
100
AcDbPolyline
 90
       86
 70
     1
 43
0.0
 10
8.775262
 20
27.757025
 42
0.004733
 10
8.695392
 20
27.945533
 42
0.178692
 10
8.66394
 20
27.978368
 42
0.436932
 10
8.6357
 20
27.967396
 42
0.015843
 10
8.592193
 20
27.846195
 42
0.055571
 10
8.571272
 20
27.744002
 42
0.019551
 10
8.563511
 20
27.594305
 42
0.019131
 10
8.567769
 20
27.427701
 42
0.021263
 10
8.584843
 20
27.267729
 42
-0.009226
 10
8.61371
 20
27.04761
 42
-0.094859
 10
8.606667
 20
26.956566
 42
-0.27519
 10
8.567631
 20
26.918915
 42
-0.105519
 10
8.489244
 20
26.917347
 42
-0.1508
 10
8.413931
 20
26.957479
 42
-0.074381
 10
8.349105
 20
27.045764
 42
-0.048601
 10
8.291177
 20
27.187595
 42
-0.018028
 10
8.236819
 20
27.396492
 42
0.007641
 10
8.194921
 20
27.572418
 42
0.01056
 10
8.151602
 20
27.728818
 42
0.007415
 10
8.110969
 20
27.857366
 42
0.116628
 10
8.086971
 20
27.896229
 42
0.126885
 10
8.063026
 20
27.910355
 42
0.10125
 10
8.03304
 20
27.912721
 42
0.09012
 10
8.001556
 20
27.902884
 42
0.076935
 10
7.97355
 20
27.8822
 42
0.152831
 10
7.948634
 20
27.834079
 42
0.013997
 10
7.928738
 20
27.699209
 42
0.017071
 10
7.914727
 20
27.533457
 42
0.012549
 10
7.9101
 20
27.349125
 42
-0.015327
 10
7.902887
 20
27.113882
 42
-0.049951
 10
7.877911
 20
26.960213
 42
-0.079008
 10
7.831881
 20
26.85676
 42
-0.108994
 10
7.759642
 20
26.785675
 42
-0.040893
 10
7.681061
 20
26.744917
 42
-0.13491
 10
7.623709
 20
26.737505
 42
-0.156266
 10
7.575692
 20
26.760682
 42
-0.060964
 10
7.528287
 20
26.8182
 42
-0.080608
 10
7.496741
 20
26.891451
 42
-0.020035
 10
7.469988
 20
27.019654
 42
-0.019962
 10
7.450889
 20
27.170747
 42
-0.018851
 10
7.443422
 20
27.3258
 10
7.439453
 20
27.7065
 10
7.230627
 20
27.469132
 42
0.027315
 10
7.150799
 20
27.367729
 42
0.028305
 10
7.083523
 20
27.259388
 42
0.029485
 10
7.03647
 20
27.159478
 42
0.097868
 10
7.023095
 20
27.088432
 42
0.012089
 10
7.025777
 20
27.007731
 42
0.342147
 10
7.038676
 20
26.992926
 42
0.295887
 10
7.058258
 20
27.000761
 42
0.010276
 10
7.1064
 20
27.072
 42
-0.1063
 10
7.144082
 20
27.109671
 42
-0.459803
 10
7.170604
 20
27.1018
 42
-0.093879
 10
7.185906
 20
27.037358
 42
-0.010448
 10
7.189705
 20
26.885631
 42
0.026152
 10
7.197371
 20
26.749919
 42
0.019312
 10
7.21946
 20
26.601087
 42
0.019624
 10
7.251388
 20
26.461715
 42
0.040793
 10
7.28918
 20
26.356881
 42
0.05279
 10
7.347663
 20
26.257751
 42
0.088019
 10
7.417927
 20
26.191405
 42
0.089453
 10
7.505869
 20
26.153944
 42
0.056127
 10
7.617261
 20
26.1414
 42
0.060775
 10
7.722016
 20
26.15418
 42
0.061824
 10
7.81998
 20
26.191759
 42
0.061913
 10
7.905663
 20
26.252086
 42
0.061263
 10
7.974317
 20
26.33175
 42
-0.018512
 10
8.058263
 20
26.447869
 42
-0.200658
 10
8.107632
 20
26.475599
 42
-0.196735
 10
8.162586
 20
26.460225
 42
-0.017714
 10
8.274441
 20
26.366635
 42
0.047549
 10
8.35188
 20
26.309323
 42
0.043037
 10
8.441316
 20
26.265448
 42
0.045651
 10
8.528849
 20
26.240389
 42
0.094741
 10
8.599631
 20
26.240484
 42
0.093663
 10
8.666003
 20
26.266766
 42
0.043581
 10
8.739959
 20
26.323096
 42
0.041123
 10
8.809582
 20
26.397746
 42
0.045245
 10
8.863589
 20
26.480549
 42
0.060485
 10
8.906727
 20
26.592872
 42
0.031977
 10
8.933773
 20
26.739887
 42
0.029373
 10
8.943674
 20
26.906742
 42
0.026175
 10
8.93468
 20
27.080225
 42
0.018697
 10
8.910469
 20
27.25016
 42
0.013105
 10
8.871085
 20
27.439466
 42
0.013246
 10
8.823735
 20
27.619031
 42
0.026755
  0
LWPOLYLINE
  5
3DA
330
1D
100
AcDbEntity
  8
0
100
AcDbPolyline
 90
      130
 70
     1
 43
0.0
 10
15.82302
 20
28.0026
 42
0.15251
 10
15.776356
 20
27.988028
 42
0.014563
 10
15.679127
 20
27.916464
 42
0.017513
 10
15.566287
 20
27.821682
 42
0.012933
 10
15.448012
 20
27.709372
 42
0.034947
 10
15.31736
 20
27.559059
 42
0.015367
 10
15.165202
 20
27.343626
 42
0.015121
 10
15.017167
 20
27.104311
 42
0.019612
 10
14.897018
 20
26.876044
 42
0.023128
 10
14.777749
 20
26.593188
 42
0.007463
 10
14.626942
 20
26.163954
 42
0.007424
 10
14.473221
 20
25.680899
 42
0.008262
 10
14.33958
 20
25.210348
 42
-0.004834
 10
14.212922
 20
24.752461
 42
-0.005174
 10
14.080173
 20
24.307421
 42
-0.00492
 10
13.958416
 20
23.92741
 42
-0.024145
 10
13.877311
 20
23.717177
 42
-0.025531
 10
13.806251
 20
23.576423
 42
-0.034333
 10
13.727154
 20
23.457576
 42
-0.036649
 10
13.651179
 20
23.372529
 42
-0.194501
 10
13.594466
 20
23.3496
 42
-0.092661
 10
13.533557
 20
23.360986
 42
-0.025584
 10
13.444282
 20
23.400933
 42
-0.024917
 10
13.34594
 20
23.457465
 42
-0.023747
 10
13.252059
 20
23.524351
 42
-0.063294
 10
13.149837
 20
23.628125
 42
-0.035646
 10
13.052776
 20
23.776213
 42
-0.031761
 10
12.965856
 20
23.958278
 42
-0.024756
 10
12.894289
 20
24.165584
 42
-0.032082
 10
12.830254
 20
24.453607
 42
-0.022489
 10
12.793875
 20
24.784038
 42
-0.016308
 10
12.780214
 20
25.20989
 42
-0.006042
 10
12.78779
 20
25.809789
 42
0.004525
 10
12.794863
 20
26.261379
 42
0.007549
 10
12.791638
 20
26.641539
 42
0.002277
 10
12.782514
 20
26.965698
 42
0.404954
 10
12.760011
 20
26.987456
 42
0.256998
 10
12.732276
 20
26.972156
 42
0.018849
 10
12.687041
 20
26.894224
 42
0.022544
 10
12.638391
 20
26.79172
 42
0.014929
 10
12.591491
 20
26.67015
 42
0.054152
 10
12.541853
 20
26.458289
 42
0.013478
 10
12.508043
 20
26.103418
 42
0.011473
 10
12.486954
 20
25.636052
 42
0.005663
 10
12.480522
 20
25.0416
 42
0.004204
 10
12.487299
 20
24.281174
 42
0.022602
 10
12.513154
 20
23.868128
 42
0.038008
 10
12.569567
 20
23.56448
 42
0.030504
 10
12.674361
 20
23.248954
 42
0.027155
 10
12.772473
 20
23.038338
 42
0.023559
 10
12.897187
 20
22.82903
 42
0.024391
 10
13.033544
 20
22.643278
 42
0.042088
 10
13.1664
 20
22.505202
 42
0.022109
 10
13.317642
 20
22.383816
 42
0.056783
 10
13.439265
 20
22.314395
 42
0.079792
 10
13.545868
 20
22.287631
 42
0.095458
 10
13.648681
 20
22.298322
 42
0.043121
 10
13.732346
 20
22.331753
 42
0.020767
 10
13.833324
 20
22.387952
 42
0.020418
 10
13.934446
 20
22.455691
 42
0.027495
 10
14.019687
 20
22.525475
 42
0.057503
 10
14.100383
 20
22.61843
 42
0.023405
 10
14.188529
 20
22.761161
 42
0.022786
 10
14.269889
 20
22.925016
 42
0.026949
 10
14.331048
 20
23.086801
 42
0.019666
 10
14.388123
 20
23.29447
 42
0.005571
 10
14.460545
 20
23.621795
 42
0.005604
 10
14.534147
 20
23.993673
 42
0.005898
 10
14.598076
 20
24.360821
 42
-0.007668
 10
14.663971
 20
24.731497
 42
-0.006864
 10
14.743496
 20
25.113981
 42
-0.006899
 10
14.824368
 20
25.455492
 42
-0.021264
 10
14.89196
 20
25.682961
 42
-0.009466
 10
14.959711
 20
25.868392
 42
-0.007806
 10
15.038752
 20
26.06354
 42
-0.007898
 10
15.116942
 20
26.240408
 42
-0.020788
 10
15.180151
 20
26.36374
 42
-0.050604
 10
15.25472
 20
26.469013
 42
-0.64707
 10
15.288909
 20
26.458614
 42
-0.05044
 10
15.292467
 20
26.322481
 42
-0.001819
 10
15.251705
 20
25.803
 42
0.006887
 10
15.226527
 20
25.434215
 42
0.003899
 10
15.205668
 20
24.986874
 42
0.003892
 10
15.191664
 20
24.535499
 42
0.00639
 10
15.187669
 20
24.1533
 42
0.007726
 10
15.196267
 20
23.669813
 42
0.034647
 10
15.225218
 20
23.388344
 42
0.051472
 10
15.286632
 20
23.170358
 42
0.03354
 10
15.399169
 20
22.934094
 42
0.02314
 10
15.49598
 20
22.778939
 42
0.018621
 10
15.61364
 20
22.621356
 42
0.019004
 10
15.73349
 20
22.483767
 42
0.044912
 10
15.835048
 20
22.393531
 42
0.057276
 10
15.952266
 20
22.326067
 42
0.024949
 10
16.120744
 20
22.26305
 42
0.024214
 10
16.309093
 20
22.213021
 42
0.028861
 10
16.490698
 20
22.184923
 10
16.92
 20
22.143673
 10
16.918845
 20
22.598586
 42
0.00959
 10
16.914768
 20
22.786282
 42
0.009532
 10
16.903494
 20
22.974065
 42
0.009422
 10
16.887423
 20
23.137747
 42
0.036345
 10
16.868209
 20
23.237996
 42
0.056704
 10
16.841045
 20
23.306941
 42
0.087184
 10
16.801687
 20
23.357389
 42
0.114081
 10
16.756004
 20
23.382772
 42
0.163018
 10
16.710039
 20
23.380784
 42
-0.118029
 10
16.648691
 20
23.372674
 42
-0.025692
 10
16.542504
 20
23.389256
 42
-0.02542
 10
16.418609
 20
23.421832
 42
-0.021963
 10
16.292331
 20
23.468194
 42
-0.040837
 10
16.148937
 20
23.542374
 42
-0.051731
 10
16.03137
 20
23.634073
 42
-0.053764
 10
15.938603
 20
23.744749
 42
-0.049993
 10
15.86892
 20
23.875305
 42
-0.019885
 10
15.821033
 20
24.006249
 42
-0.01054
 10
15.77165
 20
24.17188
 42
-0.010473
 10
15.728207
 20
24.343642
 42
-0.015957
 10
15.698421
 20
24.494547
 42
-0.045588
 10
15.684177
 20
24.692452
 42
-0.007975
 10
15.697347
 20
25.066359
 42
-0.008595
 10
15.727427
 20
25.505772
 42
-0.00762
 10
15.773556
 20
25.961944
 42
0.004159
 10
15.823798
 20
26.426628
 42
0.004172
 10
15.866247
 20
26.891606
 42
0.004078
 10
15.896579
 20
27.29777
 42
0.016598
 10
15.9048
 20
27.545347
 42
0.016823
 10
15.898901
 20
27.72063
 42
0.02743
 10
15.880777
 20
27.868282
 42
0.026261
 10
15.855016
 20
27.978558
 42
0.333832
  0
LWPOLYLINE
  5
45E
330
1D
100
AcDbEntity
  8
0
100
AcDbPolyline
 90
       58
 70
     1
 43
0.0
 10
3.230028
 20
27.495
 42
0.147049
 10
3.187758
 20
27.482294
 42
0.009053
 10
3.078331
 20
27.40709
 42
0.012822
 10
2.950014
 20
27.310378
 42
0.00911
 10
2.81103
 20
27.195733
 42
0.030909
 10
2.647476
 20
27.037222
 42
0.011804
 10
2.439294
 20
26.797766
 42
0.011636
 10
2.224812
 20
26.526358
 42
0.013999
 10
2.036511
 20
26.261199
 42
0.015173
 10
1.864377
 20
25.98613
 42
0.012756
 10
1.698534
 20
25.68493
 42
0.012949
 10
1.561198
 20
25.401999
 42
0.034346
 10
1.482609
 20
25.191511
 42
0.019992
 10
1.433175
 20
24.996851
 42
0.013319
 10
1.391496
 20
24.770485
 42
0.01342
 10
1.362772
 20
24.548369
 42
0.025448
 10
1.3536
 20
24.368269
 42
0.02957
 10
1.363256
 20
24.205129
 42
0.02656
 10
1.392141
 20
24.038211
 42
0.027567
 10
1.434467
 20
23.890786
 42
0.069188
 10
1.485297
 20
23.791424
 42
0.062349
 10
1.562418
 20
23.706204
 42
0.072974
 10
1.65445
 20
23.647859
 42
0.065668
 10
1.767338
 20
23.614396
 42
0.039278
 10
1.907097
 20
23.6034
 42
0.045175
 10
2.067034
 20
23.61788
 42
0.096715
 10
2.18198
 20
23.662915
 42
0.080895
 10
2.283943
 20
23.753737
 42
0.024808
 10
2.406173
 20
23.92065
 42
0.013961
 10
2.496018
 20
24.065704
 42
0.00873
 10
2.593408
 20
24.240155
 42
0.00876
 10
2.683414
 20
24.415518
 42
0.015746
 10
2.750116
 20
24.562826
 10
2.885085
 20
24.887751
 10
2.623477
 20
24.830293
 42
-0.036069
 10
2.506749
 20
24.813355
 42
-0.047107
 10
2.398949
 20
24.815744
 42
-0.05386
 10
2.307142
 20
24.836652
 42
-0.090544
 10
2.238435
 20
24.875276
 42
-0.112364
 10
2.188911
 20
24.939845
 42
-0.041582
 10
2.149655
 20
25.048269
 42
-0.036921
 10
2.123662
 20
25.1831
 42
-0.029169
 10
2.115
 20
25.331448
 42
-0.0422
 10
2.129426
 20
25.502063
 42
-0.024028
 10
2.173977
 20
25.704382
 42
-0.023145
 10
2.241334
 20
25.913883
 42
-0.026243
 10
2.325413
 20
26.107422
 42
-0.02266
 10
2.433156
 20
26.301123
 42
-0.011244
 10
2.586167
 20
26.537019
 42
-0.011136
 10
2.75605
 20
26.774891
 42
-0.016032
 10
2.917613
 20
26.976941
 42
0.003651
 10
3.063948
 20
27.150934
 42
0.005685
 10
3.18725
 20
27.303225
 42
0.001968
 10
3.291194
 20
27.435702
 42
0.166862
 10
3.2994
 20
27.459608
 42
0.18794
 10
3.294135
 20
27.473121
 42
0.089223
 10
3.279022
 20
27.484604
 42
0.069043
 10
3.256576
 20
27.49239
 42
0.049044
  0
LWPOLYLINE
  5
49A
330
1D
100
AcDbEntity
  8
0
100
AcDbPolyline
 90
       46
 70
     1
 43
0.0
 10
30.175995
 20
25.9722
 42
0.319798
 10
30.159349
 20
25.96034
 42
0.003088
 10
30.109182
 20
25.812211
 42
0.008671
 10
30.054203
 20
25.636363
 42
0.005333
 10
29.995284
 20
25.427555
 42
0.014256
 10
29.923393
 20
25.128402
 42
0.037316
 10
29.894166
 20
24.90951
 42
0.043616
 10
29.899981
 20
24.709304
 42
0.026535
 10
29.939887
 20
24.475805
 42
-0.030538
 10
29.982394
 20
24.214513
 42
-0.00288
 10
30.043666
 20
23.56773
 42
-0.00368
 10
30.106657
 20
22.794925
 42
-0.002889
 10
30.163943
 20
21.956165
 42
0.000925
 10
30.21617
 20
21.144592
 42
0.001516
 10
30.263747
 20
20.457627
 42
0.00014
 10
30.308358
 20
19.843035
 42
0.180074
 10
30.318303
 20
19.821297
 42
0.439061
 10
30.33408
 20
19.821961
 42
0.004675
 10
30.41161
 20
19.915523
 42
0.010786
 10
30.501762
 20
20.031432
 42
0.006372
 10
30.604583
 20
20.173428
 10
30.86853
 20
20.547892
 10
30.754124
 20
22.012196
 42
-0.004415
 10
30.714919
 20
22.578326
 42
-0.006906
 10
30.69222
 20
23.066146
 42
-0.002525
 10
30.68068
 20
23.483605
 42
-0.198805
 10
30.704041
 20
23.543852
 42
-0.336348
 10
30.743888
 20
23.550261
 42
-0.046828
 10
30.81829
 20
23.501192
 42
-0.038147
 10
30.908194
 20
23.416953
 42
-0.022518
 10
31.002646
 20
23.304046
 42
0.021839
 10
31.105742
 20
23.180466
 42
0.050797
 10
31.195492
 20
23.100092
 42
0.081954
 10
31.267321
 20
23.064029
 42
0.278684
 10
31.3161
 20
23.07606
 42
0.253566
 10
31.336639
 20
23.145206
 42
0.016109
 10
31.284582
 20
23.357793
 42
0.01847
 10
31.195276
 20
23.637269
 42
0.008622
 10
31.060092
 20
23.992666
 42
0.002533
 10
30.912906
 20
24.35507
 42
0.001911
 10
30.747637
 20
24.75185
 42
0.001931
 10
30.589449
 20
25.123555
 42
0.004467
 10
30.467094
 20
25.40115
 42
0.004532
 10
30.365857
 20
25.62007
 42
0.007304
 10
30.275234
 20
25.804454
 42
0.002327
 10
30.194533
 20
25.96096
 42
0.279468
  0
LWPOLYLINE
  5
4CA
330
1D
100
AcDbEntity
  8
0
100
AcDbPolyline
 90
      256
 70
     1
 43
0.0
 10
9.059788
 20
25.05072
 10
8.559776
 20
25.829159
 10
8.46806
 20
25.49883
 42
0.015931
 10
8.432899
 20
25.354506
 42
0.011987
 10
8.403147
 20
25.193864
 42
0.012151
 10
8.382448
 20
25.041315
 42
0.027163
 10
8.375872
 20
24.924515
 42
0.024441
 10
8.381284
 20
24.809291
 42
0.011742
 10
8.398899
 20
24.662338
 42
0.011612
 10
8.424495
 20
24.509564
 42
0.016277
 10
8.454925
 20
24.374615
 42
-0.000269
 10
8.495069
 20
24.219845
 42
-0.000094
 10
8.552691
 20
23.997029
 42
-0.000093
 10
8.616021
 20
23.751762
 42
-0.000109
 10
8.676074
 20
23.5188
 42
0.019888
 10
8.760604
 20
23.237422
 42
0.006162
 10
8.909672
 20
22.821229
 42
0.006151
 10
9.087948
 20
22.359622
 42
0.006731
 10
9.272426
 20
21.916291
 42
-0.003593
 10
9.54148
 20
21.280981
 42
-0.033026
 10
9.63773
 20
20.997564
 42
-0.085016
 10
9.653909
 20
20.821684
 42
-0.1262
 10
9.604173
 20
20.675991
 42
-0.068208
 10
9.5352
 20
20.596752
 42
-0.031756
 10
9.42691
 20
20.513597
 42
-0.030726
 10
9.30027
 20
20.439408
 42
-0.037448
 10
9.173419
 20
20.386725
 42
-0.037566
 10
9.027152
 20
20.35036
 42
-0.02458
 10
8.854541
 20
20.329646
 42
-0.024335
 10
8.67779
 20
20.325824
 42
-0.032893
 10
8.518679
 20
20.340632
 42
-0.030046
 10
8.364758
 20
20.374832
 42
-0.018568
 10
8.188509
 20
20.432427
 42
-0.018603
 10
8.017994
 20
20.502552
 42
-0.03156
 10
7.881924
 20
20.575214
 42
-0.049426
 10
7.745095
 20
20.679739
 42
-0.037372
 10
7.616852
 20
20.818794
 42
-0.034304
 10
7.500347
 20
20.988477
 42
-0.027713
 10
7.398712
 20
21.184807
 42
-0.038096
 10
7.305901
 20
21.442158
 42
-0.012959
 10
7.209792
 20
21.82812
 42
-0.011505
 10
7.115788
 20
22.303762
 42
-0.007647
 10
7.028945
 20
22.85299
 42
-0.002274
 10
6.961406
 20
23.342963
 42
-0.002979
 10
6.904401
 20
23.791289
 42
-0.002191
 10
6.860533
 20
24.167336
 42
-0.027944
 10
6.8526
 20
24.309167
 42
0.049078
 10
6.841326
 20
24.423743
 42
0.013417
 10
6.801112
 20
24.601087
 42
0.013432
 10
6.744417
 20
24.800742
 42
0.013621
 10
6.677322
 20
24.996126
 42
0.011559
 10
6.605373
 20
25.175667
 42
0.017823
 10
6.534154
 20
25.326986
 42
0.012491
 10
6.469373
 20
25.445419
 42
0.267439
 10
6.436078
 20
25.4646
 42
0.295618
 10
6.40433
 20
25.444032
 42
0.011302
 10
6.347168
 20
25.30825
 42
0.017063
 10
6.286027
 20
25.136358
 42
0.010816
 10
6.226038
 20
24.932346
 42
0.023729
 10
6.147847
 20
24.57753
 42
0.052361
 10
6.129894
 20
24.300988
 42
0.028783
 10
6.165096
 20
23.940527
 42
0.003188
 10
6.298082
 20
23.123088
 42
-0.0033
 10
6.38084
 20
22.613674
 42
-0.004111
 10
6.450715
 20
22.139238
 42
-0.003352
 10
6.503386
 20
21.740405
 42
-0.03116
 10
6.5142
 20
21.567052
 42
-0.047259
 10
6.501569
 20
21.433714
 42
-0.020444
 10
6.460916
 20
21.259916
 42
-0.020013
 10
6.402259
 20
21.077228
 42
-0.025039
 10
6.332808
 20
20.913315
 42
-0.036678
 10
6.22941
 20
20.734457
 42
-0.035939
 10
6.100348
 20
20.57133
 42
-0.034999
 10
5.945793
 20
20.424537
 42
-0.031136
 10
5.766345
 20
20.294405
 42
-0.025053
 10
5.559722
 20
20.177447
 42
-0.042169
 10
5.374849
 20
20.103456
 42
-0.043956
 10
5.185724
 20
20.063432
 42
-0.030184
 10
4.96674
 20
20.0502
 42
-0.028312
 10
4.785998
 20
20.060443
 42
-0.025465
 10
4.600958
 20
20.091091
 42
-0.026588
 10
4.433693
 20
20.137063
 42
-0.053095
 10
4.308975
 20
20.19388
 42
-0.059282
 10
4.206416
 20
20.272168
 42
-0.03175
 10
4.09919
 20
20.390333
 42
-0.031119
 10
4.003728
 20
20.526568
 42
-0.04212
 10
3.936372
 20
20.660892
 42
-0.043004
 10
3.884805
 20
20.830806
 42
-0.018237
 10
3.843967
 20
21.065566
 42
-0.017323
 10
3.817132
 20
21.330036
 42
-0.017297
 10
3.808652
 20
21.595862
 42
-0.01318
 10
3.817274
 20
21.89252
 42
-0.005622
 10
3.843728
 20
22.288769
 42
-0.005558
 10
3.881409
 20
22.710939
 42
-0.007273
 10
3.925741
 20
23.0958
 42
0.010093
 10
3.96599
 20
23.463446
 42
0.010002
 10
3.991512
 20
23.833535
 42
0.009903
 10
4.000939
 20
24.157977
 42
0.037778
 10
3.987539
 20
24.359837
 10
3.9339
 20
24.735575
 10
3.626806
 20
24.46574
 42
0.044629
 10
3.48724
 20
24.319102
 42
0.017879
 10
3.322586
 20
24.095975
 42
0.017394
 10
3.159706
 20
23.839156
 42
0.019825
 10
3.022502
 20
23.582403
 42
0.023299
 10
2.887296
 20
23.266615
 42
0.008206
 10
2.722222
 20
22.80223
 42
0.008126
 10
2.557214
 20
22.285108
 42
0.00944
 10
2.417631
 20
21.78801
 42
-0.006034
 10
2.288836
 20
21.317028
 42
-0.007303
 10
2.156249
 20
20.878502
 42
-0.006297
 10
2.034878
 20
20.513241
 42
-0.048837
 10
1.959855
 20
20.350086
 42
-0.034399
 10
1.891516
 20
20.249629
 42
-0.035094
 10
1.810469
 20
20.160205
 42
-0.03739
 10
1.729211
 20
20.093194
 42
-0.10655
 10
1.66211
 20
20.064622
 42
-0.084502
 10
1.591082
 20
20.063084
 42
-0.035974
 10
1.497925
 20
20.083805
 42
-0.034283
 10
1.399443
 20
20.120798
 42
-0.038062
 10
1.31049
 20
20.169851
 42
-0.077001
 10
1.216593
 20
20.254515
 42
-0.038186
 10
1.124878
 20
20.386574
 42
-0.033557
 10
1.041112
 20
20.554125
 42
-0.02528
 10
0.971262
 20
20.747905
 42
-0.031404
 10
0.915776
 20
20.982101
 42
-0.009565
 10
0.861036
 20
21.342553
 42
-0.009536
 10
0.815041
 20
21.749631
 42
-0.010273
 10
0.785936
 20
22.148194
 42
0.005687
 10
0.758618
 20
22.576302
 42
0.020206
 10
0.726936
 20
22.849372
 42
0.03351
 10
0.691224
 20
23.006922
 42
0.568021
 10
0.649289
 20
23.017529
 42
0.159469
 10
0.613449
 20
22.946819
 42
0.007721
 10
0.576861
 20
22.682219
 42
0.011933
 10
0.545296
 20
22.361491
 42
0.008264
 10
0.524274
 20
21.997597
 42
0.010414
 10
0.51584
 20
21.583251
 42
0.011016
 10
0.524993
 20
21.176624
 42
0.011715
 10
0.549705
 20
20.813599
 42
0.025721
 10
0.589318
 20
20.538143
 42
0.016004
 10
0.641422
 20
20.311803
 42
0.012058
 10
0.712569
 20
20.066582
 42
0.012223
 10
0.790723
 20
19.83911
 42
0.027365
 10
0.863556
 20
19.671581
 42
0.015723
 10
0.941689
 20
19.527279
 42
0.012201
 10
1.03537
 20
19.375201
 42
0.01238
 10
1.129806
 20
19.237538
 42
0.028927
 10
1.208694
 20
19.14075
 42
0.054068
 10
1.299762
 20
19.060705
 42
0.051437
 10
1.407356
 20
19.000486
 42
0.050953
 10
1.525988
 20
18.963052
 42
0.051003
 10
1.6497
 20
18.9504
 42
0.05139
 10
1.773206
 20
18.963128
 42
0.049763
 10
1.89293
 20
19.000796
 42
0.050073
 10
2.00216
 20
19.061085
 42
0.053463
 10
2.094618
 20
19.14075
 42
0.028793
 10
2.169187
 20
19.230153
 42
0.018309
 10
2.24585
 20
19.34197
 42
0.018387
 10
2.313236
 20
19.45761
 42
0.032193
 10
2.359058
 20
19.558456
 42
0.033706
 10
2.404618
 20
19.708533
 42
0.00279
 10
2.494371
 20
20.106586
 42
0.00372
 10
2.595351
 20
20.583277
 42
0.00286
 10
2.698751
 20
21.105167
 42
-0.007819
 10
2.812802
 20
21.652299
 42
-0.008912
 10
2.939443
 20
22.172118
 42
-0.008884
 10
3.062998
 20
22.610761
 42
-0.037396
 10
3.161106
 20
22.865911
 10
3.369897
 20
23.3073
 10
3.376949
 20
23.01568
 42
-0.019777
 10
3.374365
 20
22.847625
 42
-0.003472
 10
3.354815
 20
22.532051
 42
-0.00376
 10
3.326519
 20
22.162075
 42
-0.00337
 10
3.2917
 20
21.778794
 42
0.007016
 10
3.247344
 20
21.247574
 42
0.024994
 10
3.240761
 20
20.906402
 42
0.033356
 10
3.268728
 20
20.620088
 42
0.021518
 10
3.337279
 20
20.293814
 42
0.01887
 10
3.405296
 20
20.064086
 42
0.014731
 10
3.495774
 20
19.820052
 42
0.014973
 10
3.593661
 20
19.597551
 42
0.034776
 10
3.68322
 20
19.438905
 42
0.023248
 10
3.778811
 20
19.30778
 42
0.018157
 10
3.894068
 20
19.174426
 42
0.0185
 10
4.010713
 20
19.05793
 42
0.041955
 10
4.10883
 20
18.981166
 42
0.060742
 10
4.233332
 20
18.919682
 42
0.03572
 10
4.393748
 20
18.875983
 42
0.030631
 10
4.586378
 20
18.850151
 42
0.020374
 10
4.809168
 20
18.84317
 42
0.023826
 10
5.018527
 20
18.85513
 42
0.017555
 10
5.24855
 20
18.887501
 42
0.017823
 10
5.464328
 20
18.933619
 42
0.037412
 10
5.626975
 20
18.987697
 42
0.021936
 10
5.76986
 20
19.054903
 42
0.01609
 10
5.922253
 20
19.141286
 42
0.01632
 10
6.061455
 20
19.232587
 42
0.034388
 10
6.161729
 20
19.313988
 42
0.031796
 10
6.249302
 20
19.406758
 42
0.016079
 10
6.348003
 20
19.533706
 42
0.015902
 10
6.441879
 20
19.67184
 42
0.022791
 10
6.51537
 20
19.800335
 42
0.02242
 10
6.578806
 20
19.938976
 42
0.01346
 10
6.642141
 20
20.108589
 42
0.013467
 10
6.696154
 20
20.281047
 42
0.022789
 10
6.73081
 20
20.428386
 10
6.792346
 20
20.756402
 10
6.985406
 20
20.382151
 42
0.018961
 10
7.077309
 20
20.219447
 42
0.012563
 10
7.19439
 20
20.039652
 42
0.012652
 10
7.317117
 20
19.870492
 42
0.023924
 10
7.425735
 20
19.741741
 42
0.024029
 10
7.540783
 20
19.629258
 42
0.015994
 10
7.682568
 20
19.511259
 42
0.016119
 10
7.827843
 20
19.405365
 42
0.030106
 10
7.95283
 20
19.330877
 42
0.044971
 10
8.114136
 20
19.265068
 42
0.040667
 10
8.290136
 20
19.226413
 42
0.033239
 10
8.500235
 20
19.212009
 42
0.016399
 10
8.767861
 20
19.220253
 42
0.01599
 10
9.063897
 20
19.24863
 42
0.053693
 10
9.253035
 20
19.293879
 42
0.067716
 10
9.404064
 20
19.371996
 42
0.037217
 10
9.565262
 20
19.504216
 42
0.028723
 10
9.674914
 20
19.621447
 42
0.01894
 10
9.787632
 20
19.767676
 42
0.019077
 10
9.886757
 20
19.918749
 42
0.034623
 10
9.954077
 20
20.0502
 42
0.047431
 10
10.00399
 20
20.206393
 42
0.018147
 10
10.044482
 20
20.431193
 42
0.017436
 10
10.071797
 20
20.685359
 42
0.017919
 10
10.081004
 20
20.9385
 42
0.021911
 10
10.06778
 20
21.243746
 42
0.020477
 10
10.027869
 20
21.553702
 42
0.019361
 10
9.960009
 20
21.875672
 42
0.015433
 10
9.862835
 20
22.217065
 42
0.006151
 10
9.760735
 20
22.524676
 42
0.003824
 10
9.633777
 20
22.883103
 42
0.003836
 10
9.503088
 20
23.234845
 42
0.006927
 10
9.389859
 20
23.520596
 42
-0.006549
 10
9.294883
 20
23.759756
 42
-0.010423
 10
9.220628
 20
23.966977
 42
-0.004603
 10
9.16357
 20
24.142662
 42
-0.279512
 10
9.171135
 20
24.173535
 42
-0.233592
 10
9.195548
 20
24.1818
 42
-0.034302
 10
9.248231
 20
24.171061
 42
-0.032772
 10
9.31316
 20
24.148444
 42
-0.022676
 10
9.383354
 20
24.114878
 42
0.020057
 10
9.476424
 20
24.069772
 42
0.148009
 10
9.524874
 20
24.064063
 42
0.283059
 10
9.551183
 20
24.087525
 42
0.072838
 10
9.5598
 20
24.146364
 42
0.120565
 10
9.540064
 20
24.227021
 42
0.00628
 10
9.412921
 20
24.463959
 42
0.009642
 10
9.25134
 20
24.743344
 42
0.006834
  0
LWPOLYLINE
  5
5CC
330
1D
100
AcDbEntity
  8
0
100
AcDbPolyline
 90
       48
 70
     1
 43
0.0
 10
27.378638
 20
24.763162
 42
0.360311
 10
27.341863
 20
24.766619
 42
0.01966
 10
27.241513
 20
24.692334
 42
0.023193
 10
27.120086
 20
24.585203
 42
0.014002
 10
26.985997
 20
24.44788
 42
0.022995
 10
26.839658
 20
24.273965
 42
0.013561
 10
26.680456
 20
24.053954
 42
0.013552
 10
26.53306
 20
23.825093
 42
0.022518
 10
26.423058
 20
23.623756
 42
0.023424
 10
26.334757
 20
23.419573
 42
0.016487
 10
26.25405
 20
23.182687
 42
0.016682
 10
26.191756
 20
22.950418
 42
0.033232
 10
26.16102
 20
22.762623
 42
0.016498
 10
26.146728
 20
22.535351
 42
0.076684
 10
26.162841
 20
22.405291
 42
0.113265
 10
26.213977
 20
22.312109
 42
0.058144
 10
26.314027
 20
22.223082
 42
0.037795
 10
26.413734
 20
22.163928
 42
0.081006
 10
26.498994
 20
22.137718
 42
0.093331
 10
26.580181
 20
22.141743
 42
0.064021
 10
26.666607
 20
22.174623
 42
0.061519
 10
26.73968
 20
22.226162
 42
0.023268
 10
26.828344
 20
22.314524
 42
0.022628
 10
26.916888
 20
22.42065
 42
0.025637
 10
26.991611
 20
22.530149
 42
0.014965
 10
27.054554
 20
22.64069
 42
0.017161
 10
27.107781
 20
22.749933
 42
0.016467
 10
27.146394
 20
22.844914
 42
0.087734
 10
27.156284
 20
22.899831
 42
0.20101
 10
27.139545
 20
22.940141
 42
0.070258
 10
27.088166
 20
22.978411
 42
0.056083
 10
27.012986
 20
23.009128
 42
0.040337
 10
26.92395
 20
23.026731
 42
-0.047294
 10
26.814304
 20
23.049995
 42
-0.099879
 10
26.738452
 20
23.091698
 42
-0.112247
 10
26.690126
 20
23.155872
 42
-0.070356
 10
26.663912
 20
23.246553
 42
-0.078971
 10
26.665577
 20
23.346321
 42
-0.023431
 10
26.69915
 20
23.495648
 42
-0.022875
 10
26.75323
 20
23.662319
 42
-0.022841
 10
26.822333
 20
23.823438
 42
-0.015782
 10
26.90892
 20
23.988784
 42
-0.011261
 10
27.015735
 20
24.168408
 42
-0.011386
 10
27.125441
 20
24.335208
 42
-0.023744
 10
27.219798
 20
24.458808
 42
0.021309
 10
27.297081
 20
24.559027
 42
0.033331
 10
27.353765
 20
24.651971
 42
0.035744
 10
27.386682
 20
24.727799
 42
0.288499
  0
LWPOLYLINE
  5
5FE
330
1D
100
AcDbEntity
  8
0
100
AcDbPolyline
 90
       38
 70
     1
 43
0.0
 10
22.146951
 20
24.1956
 42
0.343426
 10
22.120901
 20
24.175315
 42
0.021999
 10
22.10009
 20
24.074509
 42
0.024774
 10
22.085383
 20
23.941405
 42
0.015129
 10
22.0806
 20
23.783375
 42
0.027405
 10
22.094282
 20
23.533932
 42
0.091606
 10
22.141309
 20
23.377653
 42
0.074237
 10
22.24644
 20
23.231384
 42
0.014088
 10
22.48245
 20
23.001972
 42
-0.029575
 10
22.702966
 20
22.773928
 42
-0.004894
 10
23.096845
 20
22.306007
 42
-0.00536
 10
23.549371
 20
21.745474
 42
-0.004718
 10
24.009706
 20
21.151148
 42
0.001745
 10
24.445446
 20
20.581614
 42
0.002788
 10
24.82211
 20
20.098436
 42
0.000572
 10
25.155975
 20
19.676042
 42
0.140125
 10
25.194978
 20
19.648059
 42
0.49433
 10
25.217006
 20
19.662312
 42
0.012037
 10
25.224576
 20
19.80178
 42
0.01681
 10
25.223951
 20
19.982496
 42
0.009471
 10
25.211672
 20
20.201471
 42
0.025759
 10
25.164066
 20
20.575896
 42
0.074221
 10
25.080435
 20
20.823164
 42
0.042746
 10
24.905833
 20
21.101813
 42
0.004376
 10
24.432114
 20
21.719886
 10
23.695728
 20
22.663449
 10
24.051414
 20
22.689274
 42
0.021993
 10
24.208156
 20
22.707611
 42
0.05641
 10
24.317946
 20
22.738368
 42
0.091516
 10
24.383973
 20
22.780537
 42
0.207897
 10
24.4071
 20
22.833754
 42
0.242671
 10
24.372537
 20
22.900773
 42
0.006217
 10
24.084886
 20
23.100147
 42
0.011867
 10
23.730611
 20
23.327184
 42
0.007655
 10
23.310201
 20
23.574004
 42
0.002425
 10
22.884974
 20
23.812257
 42
0.003777
 10
22.516025
 20
24.013006
 42
0.00115
 10
22.194708
 20
24.183757
 42
0.122142
  0
LWPOLYLINE
  5
626
330
1D
100
AcDbEntity
  8
0
100
AcDbPolyline
 90
       52
 70
     1
 43
0.0
 10
14.69925
 20
22.251447
 10
14.382
 20
22.435713
 10
14.382
 20
21.972831
 42
0.01981
 10
14.393193
 20
21.690422
 42
0.086674
 10
14.434722
 20
21.529224
 42
0.083085
 10
14.529248
 20
21.388306
 42
0.01736
 10
14.74155
 20
21.178517
 42
-0.012753
 10
14.900508
 20
21.024309
 42
-0.007651
 10
15.081667
 20
20.833614
 42
-0.007659
 10
15.2562
 20
20.63825
 42
-0.013219
 10
15.394495
 20
20.469793
 42
0.005759
 10
15.556929
 20
20.265801
 42
0.001369
 10
15.832262
 20
19.929966
 42
0.001408
 10
16.150759
 20
19.545853
 42
0.00139
 10
16.472766
 20
19.1619
 42
0.003702
 10
16.824729
 20
18.750804
 42
0.00245
 10
17.234699
 20
18.283712
 42
0.002466
 10
17.637527
 20
17.833759
 42
0.004791
 10
17.964415
 20
17.479123
 10
18.671188
 20
16.726947
 10
18.958844
 20
16.928937
 42
-0.000862
 10
19.071451
 20
17.00772
 42
-0.00123
 10
19.171699
 20
17.077234
 42
-0.000669
 10
19.256725
 20
17.135715
 42
-0.018598
 10
19.279516
 20
17.15013
 42
0.47569
 10
19.282505
 20
17.169136
 42
0.000481
 10
18.956803
 20
17.530903
 42
0.003411
 10
18.583902
 20
17.938669
 42
0.00203
 10
18.134558
 20
18.419416
 42
-0.00163
 10
17.648101
 20
18.939036
 42
-0.001586
 10
17.160558
 20
19.466577
 42
-0.001563
 10
16.734973
 20
19.932938
 42
-0.00591
 10
16.472992
 20
20.228782
 42
-0.004467
 10
16.287651
 20
20.447043
 42
-0.006856
 10
16.131455
 20
20.639658
 42
-0.002812
 10
16.001618
 20
20.806251
 42
-0.165591
 10
15.9894
 20
20.842132
 42
-0.344057
 10
16.005972
 20
20.863365
 42
-0.021723
 10
16.088805
 20
20.880318
 42
-0.024597
 10
16.198071
 20
20.892303
 42
-0.015018
 10
16.3278
 20
20.8962
 42
0.02274
 10
16.471805
 20
20.902753
 42
0.053357
 10
16.577276
 20
20.923865
 42
0.084525
 10
16.642719
 20
20.957339
 42
0.240398
 10
16.664682
 20
21.00195
 42
0.230691
 10
16.634791
 20
21.061116
 42
0.008066
 10
16.421756
 20
21.21756
 42
0.01354
 10
16.15547
 20
21.395932
 42
0.008885
 10
15.839832
 20
21.58744
 42
0.000048
 10
15.501352
 20
21.784623
 42
0.000049
 10
15.165162
 20
21.980385
 42
0.000047
 10
14.873085
 20
22.150384
 42
0.000203
  0
LWPOLYLINE
  5
65C
330
1D
100
AcDbEntity
  8
0
100
AcDbPolyline
 90
       34
 70
     1
 43
0.0
 10
23.005301
 20
22.0806
 10
22.666051
 20
22.4613
 10
22.71319
 20
21.7422
 42
-0.00101
 10
22.740974
 20
21.304839
 42
-0.000129
 10
22.798559
 20
20.364542
 42
-0.000151
 10
22.866278
 20
19.248515
 42
-0.000126
 10
22.93761
 20
18.0621
 42
-0.00282
 10
23.00352
 20
16.846357
 42
-0.003606
 10
23.049838
 20
15.725776
 42
-0.003333
 10
23.075412
 20
14.793738
 42
-0.021012
 10
23.065311
 20
14.31855
 42
0.008588
 10
23.05147
 20
14.018487
 42
0.014365
 10
23.051422
 20
13.765874
 42
0.008042
 10
23.060547
 20
13.561505
 42
0.396544
 10
23.087649
 20
13.536
 42
0.243741
 10
23.124038
 20
13.55486
 42
0.017079
 10
23.189066
 20
13.654043
 42
0.021124
 10
23.260656
 20
13.783872
 42
0.014134
 10
23.331912
 20
13.93785
 42
0.028406
 10
23.404956
 20
14.138978
 42
0.011488
 10
23.482434
 20
14.420467
 42
0.011324
 10
23.552149
 20
14.727934
 42
0.014115
 10
23.602306
 20
15.0165
 42
0.027801
 10
23.644724
 20
15.495756
 42
0.013663
 10
23.648011
 20
16.108212
 42
0.008084
 10
23.613679
 20
17.008249
 42
0.001822
 10
23.524976
 20
18.537528
 42
-0.000238
 10
23.457578
 20
19.639122
 42
-0.000366
 10
23.400375
 20
20.592991
 42
-0.000116
 10
23.351587
 20
21.419882
 42
-0.010708
 10
23.347075
 20
21.540828
 42
0.115975
 10
23.325769
 20
21.625402
 42
0.021692
 10
23.245638
 20
21.765003
 42
0.022179
 10
23.135363
 20
21.923182
 42
0.018683
  0
LWPOLYLINE
  5
680
330
1D
100
AcDbEntity
  8
0
100
AcDbPolyline
 90
       34
 70
     1
 43
0.0
 10
31.876117
 20
21.84572
 10
31.845681
 20
22.0383
 10
31.779615
 20
21.847874
 42
-0.042687
 10
31.725264
 20
21.725925
 42
-0.002811
 10
31.537021
 20
21.389556
 42
-0.004057
 10
31.306836
 20
20.991181
 42
-0.003018
 10
31.046536
 20
20.555049
 42
-0.005135
 10
30.726726
 20
20.03854
 42
-0.002529
 10
30.310021
 20
19.388033
 42
-0.002509
 10
29.870547
 20
18.716968
 42
-0.003656
 10
29.475908
 20
18.130277
 42
0.002272
 10
28.906003
 20
17.28807
 42
0.029777
 10
28.715219
 20
16.963068
 42
0.095702
 10
28.658846
 20
16.767365
 42
0.160102
 10
28.697171
 20
16.602096
 42
0.023441
 10
28.750608
 20
16.522674
 42
0.02888
 10
28.807903
 20
16.454217
 42
0.029533
 10
28.861326
 20
16.403732
 42
0.147655
 10
28.898774
 20
16.387682
 42
0.261866
 10
28.946765
 20
16.408003
 42
0.001461
 10
29.259607
 20
16.815183
 42
0.005656
 10
29.61367
 20
17.289846
 42
0.003501
 10
30.019401
 20
17.855088
 42
0.005181
 10
30.436092
 20
18.457407
 42
0.005785
 10
30.8249
 20
19.046629
 42
0.005361
 10
31.14478
 20
19.555727
 42
0.030269
 10
31.295623
 20
19.8387
 42
0.013459
 10
31.398194
 20
20.079749
 42
0.006763
 10
31.515308
 20
20.389135
 42
0.00671
 10
31.627858
 20
20.712522
 42
0.009878
 10
31.717249
 20
20.99972
 42
0.011106
 10
31.787493
 20
21.264008
 42
0.012987
 10
31.842004
 20
21.517768
 42
0.011981
 10
31.877185
 20
21.733489
 42
0.073745
  0
LWPOLYLINE
  5
6A4
330
1D
100
AcDbEntity
  8
0
100
AcDbPolyline
 90
       40
 70
     1
 43
0.0
 10
22.10175
 20
21.906867
 42
0.042712
 10
21.973096
 20
21.893327
 42
0.008926
 10
21.751057
 20
21.846447
 42
0.009304
 10
21.49458
 20
21.782447
 42
0.008678
 10
21.2346
 20
21.707547
 42
0.007527
 10
20.962426
 20
21.619487
 42
0.005859
 10
20.669154
 20
21.515851
 42
0.005927
 10
20.398046
 20
21.412797
 42
0.014283
 10
20.200678
 20
21.328495
 42
0.009965
 10
20.005673
 20
21.233776
 42
0.003944
 10
19.74134
 20
21.096168
 42
0.003901
 10
19.458136
 20
20.943041
 42
0.00488
 10
19.197864
 20
20.796349
 42
0.01766
 10
18.947334
 20
20.639869
 42
0.020213
 10
18.719852
 20
20.472595
 42
0.021406
 10
18.537169
 20
20.313249
 42
0.065879
 10
18.434353
 20
20.185884
 42
0.009111
 10
18.373005
 20
20.081028
 42
0.01202
 10
18.321175
 20
19.983174
 42
0.009515
 10
18.281717
 20
19.900229
 42
0.105291
 10
18.273916
 20
19.864541
 42
0.540148
 10
18.294143
 20
19.851125
 42
0.003008
 10
18.546011
 20
19.960843
 42
0.008181
 10
18.845103
 20
20.099175
 42
0.004722
 10
19.20064
 20
20.274888
 42
-0.010876
 10
19.624641
 20
20.477984
 42
-0.00656
 10
20.135352
 20
20.70107
 42
-0.006569
 10
20.648865
 20
20.909502
 42
-0.011432
 10
21.080838
 20
21.066977
 42
0.009481
 10
21.490084
 20
21.214361
 42
0.016801
 10
21.820627
 20
21.353426
 42
0.018014
 10
22.068735
 20
21.478788
 42
0.096865
 10
22.184198
 20
21.575453
 42
0.018153
 10
22.2417
 20
21.651986
 42
0.02135
 10
22.290278
 20
21.728555
 42
0.020834
 10
22.325396
 20
21.795844
 42
0.110279
 10
22.3344
 20
21.836172
 42
0.263101
 10
22.31823
 20
21.864775
 42
0.061756
 10
22.266059
 20
21.88797
 42
0.048002
 10
22.190883
 20
21.903136
 42
0.030665
  0
LWPOLYLINE
  5
6CE
330
1D
100
AcDbEntity
  8
0
100
AcDbPolyline
 90
       44
 70
     1
 43
0.0
 10
13.124014
 20
21.8268
 42
0.177761
 10
13.080183
 20
21.810709
 42
0.007846
 10
12.956191
 20
21.702094
 42
0.01244
 10
12.811866
 20
21.564932
 42
0.008485
 10
12.654456
 20
21.40227
 42
0.01842
 10
12.490507
 20
21.213517
 42
0.014388
 10
12.326265
 20
20.997277
 42
0.014621
 10
12.184876
 20
20.786821
 42
0.034062
 10
12.094837
 20
20.61972
 42
0.034781
 10
12.032039
 20
20.451144
 42
0.020179
 10
11.979239
 20
20.241486
 42
0.020059
 10
11.9429
 20
20.024909
 42
0.030455
 10
11.930458
 20
19.83447
 42
0.021888
 10
11.937202
 20
19.663466
 42
0.025784
 10
11.958967
 20
19.502917
 42
0.026004
 10
11.990896
 20
19.371477
 42
0.124413
 10
12.03012
 20
19.30572
 42
0.074449
 10
12.082762
 20
19.266789
 42
0.038549
 10
12.157929
 20
19.234022
 42
0.037257
 10
12.24207
 20
19.211678
 42
0.046301
 10
12.322654
 20
19.2042
 42
0.110823
 10
12.423801
 20
19.226898
 42
0.076191
 10
12.521585
 20
19.292877
 42
0.052955
 10
12.623547
 20
19.409292
 42
0.020857
 10
12.739012
 20
19.588722
 42
0.016428
 10
12.821227
 20
19.740208
 42
0.025094
 10
12.881392
 20
19.877059
 42
0.02239
 10
12.91821
 20
19.988438
 42
0.271351
 10
12.90727
 20
20.03033
 42
0.105979
 10
12.872967
 20
20.052522
 42
0.0306
 10
12.812361
 20
20.071395
 42
0.029293
 10
12.739672
 20
20.084782
 42
0.027478
 10
12.664341
 20
20.089959
 42
-0.077996
 10
12.568999
 20
20.106261
 42
-0.162477
 10
12.509553
 20
20.151187
 42
-0.106367
 10
12.473963
 20
20.237879
 42
-0.023543
 10
12.452945
 20
20.397969
 42
-0.05925
 10
12.459284
 20
20.579525
 42
-0.059883
 10
12.508069
 20
20.753843
 42
-0.040332
 10
12.614648
 20
20.962044
 42
-0.011648
 10
12.811933
 20
21.265119
 42
0.008255
 10
12.954302
 20
21.480619
 42
0.015042
 10
13.06223
 20
21.661806
 42
0.010812
 10
13.137647
 20
21.804735
 42
0.55762
  0
LWPOLYLINE
  5
6FC
330
1D
100
AcDbEntity
  8
0
100
AcDbPolyline
 90
       48
 70
     1
 43
0.0
 10
21.547308
 20
20.780892
 42
0.366615
 10
21.512476
 20
20.783776
 42
0.013959
 10
21.400738
 20
20.699164
 42
0.019263
 10
21.266379
 20
20.582611
 42
0.011645
 10
21.116046
 20
20.43497
 42
0.025899
 10
20.950743
 20
20.246253
 42
0.014771
 10
20.770129
 20
20.00267
 42
0.014724
 10
20.602389
 20
19.74611
 42
0.023561
 10
20.476359
 20
19.516769
 42
0.017821
 10
20.374343
 20
19.288162
 42
0.014121
 10
20.280071
 20
19.034524
 42
0.014352
 10
20.205966
 20
18.794035
 42
0.034231
 10
20.168526
 20
18.611011
 42
0.021903
 10
20.150395
 20
18.409066
 42
0.059082
 10
20.160781
 20
18.265638
 42
0.073126
 10
20.202256
 20
18.146995
 42
0.049632
 10
20.280991
 20
18.027207
 42
0.039207
 10
20.371107
 20
17.932209
 42
0.088943
 10
20.454913
 20
17.880136
 42
0.099119
 10
20.545593
 20
17.863545
 42
0.057381
 10
20.65587
 20
17.878105
 42
0.093902
 10
20.761789
 20
17.927087
 42
0.049864
 10
20.870839
 20
18.022742
 42
0.040145
 10
20.981698
 20
18.162428
 42
0.023046
 10
21.093143
 20
18.346457
 42
0.004922
 10
21.179755
 20
18.509392
 42
0.007121
 10
21.252796
 20
18.655161
 42
0.003993
 10
21.311461
 20
18.779042
 42
0.109
 10
21.3192
 20
18.814121
 42
0.347479
 10
21.304003
 20
18.833348
 42
0.030347
 10
21.238433
 20
18.844767
 42
0.029613
 10
21.149659
 20
18.849434
 42
0.017816
 10
21.04425
 20
18.844972
 42
-0.02593
 10
20.882748
 20
18.840758
 42
-0.168679
 10
20.807792
 20
18.868969
 42
-0.170186
 10
20.766812
 20
18.937418
 42
-0.026504
 10
20.742992
 20
19.095739
 42
-0.052974
 10
20.744231
 20
19.225988
 42
-0.023545
 10
20.772043
 20
19.395685
 42
-0.022989
 10
20.818681
 20
19.574235
 42
-0.028759
 10
20.878831
 20
19.734537
 42
-0.024707
 10
20.960898
 20
19.897762
 42
-0.014212
 10
21.074795
 20
20.086184
 42
-0.014177
 10
21.200262
 20
20.26939
 42
-0.022929
 10
21.318247
 20
20.416889
 42
0.015208
 10
21.421052
 20
20.54142
 42
0.024513
 10
21.499908
 20
20.65408
 42
0.02147
 10
21.552673
 20
20.746507
 42
0.326182
  0
LWPOLYLINE
  5
72E
330
1D
100
AcDbEntity
  8
0
100
AcDbPolyline
 90
       60
 70
     1
 43
0.0
 10
32.249379
 20
20.16673
 42
0.069355
 10
32.212328
 20
20.183058
 42
0.087892
 10
32.175172
 20
20.186834
 42
0.103991
 10
32.143746
 20
20.177753
 42
0.141883
 10
32.122702
 20
20.15733
 42
0.058077
 10
32.103535
 20
20.112306
 42
0.004041
 10
32.065653
 20
19.979746
 42
0.005696
 10
32.023455
 20
19.820405
 42
0.004254
 10
31.980433
 20
19.643826
 42
0.019461
 10
31.926316
 20
19.364781
 42
0.071051
 10
31.924377
 20
19.18494
 42
0.060932
 10
31.972648
 20
18.998077
 42
0.011831
 10
32.107989
 20
18.676327
 42
-0.010383
 10
32.205484
 20
18.446412
 42
-0.007307
 10
32.305941
 20
18.184064
 42
-0.007377
 10
32.394723
 20
17.930113
 42
-0.015328
 10
32.454908
 20
17.729101
 42
-0.032196
 10
32.49897
 20
17.507051
 42
-0.010532
 10
32.535775
 20
17.175209
 42
-0.010446
 10
32.561237
 20
16.804091
 42
-0.01161
 10
32.569996
 20
16.445097
 42
-0.008354
 10
32.564419
 20
16.086113
 42
-0.00754
 10
32.546846
 20
15.715019
 42
-0.007576
 10
32.521045
 20
15.38299
 42
-0.023684
 10
32.489778
 20
15.161211
 42
-0.019599
 10
32.445443
 20
14.968932
 42
-0.011729
 10
32.378534
 20
14.74411
 42
-0.011736
 10
32.301302
 20
14.523104
 42
-0.019939
 10
32.225132
 20
14.34271
 42
0.01403
 10
32.158364
 20
14.189657
 42
0.021294
 10
32.109861
 20
14.052846
 42
0.017099
 10
32.079675
 20
13.941142
 42
0.259375
 10
32.090295
 20
13.903905
 42
0.378295
 10
32.11961
 20
13.902083
 42
0.038085
 10
32.175846
 20
13.953159
 42
0.03294
 10
32.242928
 20
14.034199
 42
0.018902
 10
32.313302
 20
14.139809
 42
0.019766
 10
32.392569
 20
14.281365
 42
0.008318
 10
32.488313
 20
14.477413
 42
0.008214
 10
32.583843
 20
14.690621
 42
0.010596
 10
32.664154
 20
14.8896
 42
0.013286
 10
32.741121
 20
15.110083
 42
0.006675
 10
32.82713
 20
15.392177
 42
0.006623
 10
32.908359
 20
15.686429
 42
0.00975
 10
32.97121
 20
15.9471
 42
0.018597
 10
33.021823
 20
16.225384
 42
0.009598
 10
33.065424
 20
16.576577
 42
0.009528
 10
33.096481
 20
16.939912
 42
0.014234
 10
33.108509
 20
17.2584
 42
0.013917
 10
33.102769
 20
17.567795
 42
0.010886
 10
33.079892
 20
17.902946
 42
0.011038
 10
33.044889
 20
18.214162
 42
0.026286
 10
33.001715
 20
18.4428
 42
0.018886
 10
32.938954
 20
18.663581
 42
0.00853
 10
32.840917
 20
18.948138
 42
0.008431
 10
32.727104
 20
19.245346
 42
0.011404
 10
32.613656
 20
19.5097
 42
0.008215
 10
32.501941
 20
19.744181
 42
0.011298
 10
32.393382
 20
19.950862
 42
0.008139
 10
32.29675
 20
20.118654
 42
0.120181
  0
LWPOLYLINE
  5
76C
330
1D
100
AcDbEntity
  8
0
100
AcDbPolyline
 90
      202
 70
     1
 43
0.0
 10
15.714054
 20
19.177403
 42
0.074767
 10
15.630264
 20
19.239287
 42
0.292741
 10
15.569109
 20
19.234219
 42
0.108511
 10
15.506798
 20
19.160595
 42
0.008485
 10
15.389737
 20
18.929701
 42
0.014446
 10
15.281281
 20
18.689014
 42
0.080559
 10
15.248602
 20
18.551738
 42
0.091915
 10
15.263265
 20
18.419439
 42
0.021731
 10
15.337074
 20
18.208881
 42
-0.009773
 10
15.419967
 20
17.989369
 42
-0.129629
 10
15.427137
 20
17.9039
 42
-0.212492
 10
15.3876
 20
17.845216
 42
-0.032922
 10
15.261144
 20
17.777222
 42
-0.029752
 10
15.165939
 20
17.74051
 42
-0.01997
 10
15.053461
 20
17.709548
 42
-0.020145
 10
14.941738
 20
17.688246
 42
-0.037046
 10
14.84946
 20
17.6814
 42
-0.084435
 10
14.756993
 20
17.697127
 42
-0.049726
 10
14.655131
 20
17.744623
 42
-0.046259
 10
14.556081
 20
17.816559
 42
-0.045956
 10
14.471705
 20
17.905625
 42
-0.044075
 10
14.400327
 20
18.014947
 42
-0.02415
 10
14.331842
 20
18.159651
 42
-0.023894
 10
14.276044
 20
18.314443
 42
-0.034921
 10
14.243252
 20
18.455525
 42
0.030051
 10
14.215537
 20
18.580256
 42
0.043593
 10
14.175204
 20
18.685533
 42
0.051833
 10
14.129243
 20
18.759404
 42
0.231681
 10
14.084729
 20
18.7812
 42
0.21759
 10
14.027093
 20
18.754871
 42
0.013789
 10
13.90626
 20
18.607334
 42
0.018241
 10
13.769107
 20
18.416096
 42
0.012407
 10
13.626651
 20
18.189316
 42
-0.017058
 10
13.467302
 20
17.940804
 42
-0.022286
 10
13.304179
 20
17.725715
 42
-0.024353
 10
13.15165
 20
17.559375
 42
-0.075829
 10
13.029011
 20
17.470216
 42
-0.038113
 10
12.914
 20
17.421446
 42
-0.022669
 10
12.770906
 20
17.38037
 42
-0.022611
 10
12.623682
 20
17.352209
 42
-0.035962
 10
12.495813
 20
17.343
 42
-0.043632
 10
12.362917
 20
17.354619
 42
-0.051113
 10
12.241231
 20
17.389157
 42
-0.054042
 10
12.134904
 20
17.445416
 42
-0.060439
 10
12.047462
 20
17.521396
 42
-0.065877
 10
11.971712
 20
17.631381
 42
-0.059862
 10
11.924158
 20
17.760861
 42
-0.045387
 10
11.900361
 20
17.927697
 42
-0.01877
 10
11.897295
 20
18.155896
 42
0.01342
 10
11.896816
 20
18.330762
 42
0.022175
 10
11.885911
 20
18.47802
 42
0.018092
 10
11.86829
 20
18.591209
 42
0.359423
 10
11.843103
 20
18.612
 42
0.134646
 10
11.798039
 20
18.59964
 42
0.002209
 10
11.571978
 20
18.464199
 42
0.005563
 10
11.310043
 20
18.30168
 42
0.003644
 10
11.01166
 20
18.108848
 42
-0.002923
 10
10.69967
 20
17.906585
 42
-0.003241
 10
10.395878
 20
17.714914
 42
-0.003004
 10
10.134676
 20
17.554641
 42
-0.016777
 10
9.991402
 20
17.474348
 42
-0.015999
 10
9.886093
 20
17.424093
 42
-0.016922
 10
9.779717
 20
17.381677
 42
-0.016776
 10
9.685943
 20
17.351429
 42
-0.070457
 10
9.627451
 20
17.343317
 42
-0.212922
 10
9.575086
 20
17.366857
 42
-0.03159
 10
9.501823
 20
17.460172
 42
-0.030955
 10
9.424754
 20
17.588583
 42
-0.022107
 10
9.35418
 20
17.740676
 42
0.027095
 10
9.270685
 20
17.916013
 42
0.016145
 10
9.153612
 20
18.115418
 42
0.016138
 10
9.02373
 20
18.307132
 42
0.026754
 10
8.900739
 20
18.458846
 42
0.033241
 10
8.766166
 20
18.58924
 42
0.025411
 10
8.603234
 20
18.713708
 42
0.02598
 10
8.437344
 20
18.815325
 42
0.051685
 10
8.295245
 20
18.874463
 42
0.026698
 10
8.119675
 20
18.917003
 42
0.066155
 10
7.987769
 20
18.923897
 42
0.068752
 10
7.86169
 20
18.896074
 42
0.030702
 10
7.705894
 20
18.827272
 42
0.05648
 10
7.572271
 20
18.737787
 42
0.044504
 10
7.449851
 20
18.613769
 42
0.038743
 10
7.336694
 20
18.452733
 42
0.025308
 10
7.230899
 20
18.251718
 42
0.022897
 10
7.149862
 20
18.05349
 42
0.014417
 10
7.072712
 20
17.815481
 42
0.014471
 10
7.010238
 20
17.57649
 42
0.025618
 10
6.974669
 20
17.375927
 42
0.023347
 10
6.959039
 20
17.174954
 42
0.022816
 10
6.962024
 20
16.971842
 42
0.024034
 10
6.982458
 20
16.784045
 42
0.040607
 10
7.019703
 20
16.630255
 42
0.034244
 10
7.069634
 20
16.507821
 42
0.03248
 10
7.136581
 20
16.391068
 42
0.034158
 10
7.209561
 20
16.295834
 42
0.08955
 10
7.276814
 20
16.242551
 42
0.089509
 10
7.378357
 20
16.209703
 42
0.01087
 10
7.612255
 20
16.18326
 42
0.012619
 10
7.894135
 20
16.164743
 42
0.010091
 10
8.198466
 20
16.1586
 42
-0.004821
 10
8.697457
 20
16.153788
 42
-0.062291
 10
8.881375
 20
16.127174
 42
-0.146343
 10
8.99079
 20
16.058767
 42
-0.061119
 10
9.089908
 20
15.913681
 42
-0.029937
 10
9.142445
 20
15.795206
 42
-0.014711
 10
9.195618
 20
15.639012
 42
-0.01454
 10
9.241491
 20
15.473015
 42
-0.020498
 10
9.271919
 20
15.322568
 42
-0.049707
 10
9.285252
 20
15.097722
 42
-0.123369
 10
9.239117
 20
14.9406
 42
-0.058904
 10
9.103291
 20
14.761472
 42
-0.005165
 10
8.703289
 20
14.354508
 42
-0.01702
 10
8.405618
 20
14.077389
 42
-0.013283
 10
8.064581
 20
13.796459
 42
-0.013478
 10
7.717573
 20
13.540493
 42
-0.020657
 10
7.4025
 20
13.339749
 42
-0.006067
 10
7.135624
 20
13.189123
 42
-0.008544
 10
6.893827
 20
13.06182
 42
-0.005464
 10
6.68899
 20
12.9612
 42
-0.108179
 10
6.621247
 20
12.945328
 42
0.292502
 10
6.57505
 20
12.914813
 42
0.080396
 10
6.551794
 20
12.826489
 42
0.039569
 10
6.549009
 20
12.671102
 42
0.009609
 10
6.569638
 20
12.41505
 42
0.00373
 10
6.591644
 20
12.210306
 42
0.005699
 10
6.614079
 20
12.033092
 42
0.002267
 10
6.635664
 20
11.881961
 42
0.138198
 10
6.646722
 20
11.857269
 42
0.335367
 10
6.669054
 20
11.852089
 42
0.002671
 10
6.84584
 20
11.932008
 42
0.008101
 10
7.051244
 20
12.030247
 42
0.004951
 10
7.290531
 20
12.152467
 42
0.02358
 10
7.59944
 20
12.333161
 42
0.018185
 10
7.918792
 20
12.557692
 42
0.017069
 10
8.242303
 20
12.82107
 42
0.014742
 10
8.563769
 20
13.118696
 42
0.012936
 10
8.868597
 20
13.433984
 42
0.020361
 10
9.11172
 20
13.721492
 42
0.023637
 10
9.300059
 20
13.988703
 42
0.034355
 10
9.437786
 20
14.242002
 42
0.026181
 10
9.546526
 20
14.516654
 42
0.029475
 10
9.621079
 20
14.79061
 42
0.024911
 10
9.671227
 20
15.107485
 42
0.011889
 10
9.705585
 20
15.518649
 10
9.753036
 20
16.313992
 10
10.100955
 20
16.446864
 42
0.038072
 10
10.264647
 20
16.52411
 42
0.015737
 10
10.473791
 20
16.651904
 42
0.015462
 10
10.690442
 20
16.803612
 42
0.019226
 10
10.881617
 20
16.958288
 42
-0.012281
 10
11.051357
 20
17.099566
 42
-0.019974
 10
11.202904
 20
17.209978
 42
-0.014863
 10
11.328276
 20
17.288575
 42
-0.341309
 10
11.36768
 20
17.28352
 42
-0.112169
 10
11.388271
 20
17.250821
 42
-0.02985
 10
11.405337
 20
17.191228
 42
-0.028714
 10
11.417075
 20
17.119321
 42
-0.026107
 10
11.421
 20
17.044209
 42
0.069893
 10
11.433216
 20
16.957244
 42
0.031126
 10
11.472036
 20
16.847972
 42
0.030052
 10
11.528239
 20
16.73557
 42
0.035707
 10
11.594739
 20
16.637345
 42
0.055252
 10
11.684983
 20
16.545555
 42
0.029457
 10
11.814299
 20
16.452335
 42
0.028934
 10
11.959232
 20
16.371673
 42
0.039746
 10
12.098204
 20
16.317684
 42
0.029494
 10
12.28001
 20
16.274707
 42
0.046567
 10
12.439631
 20
16.261896
 42
0.043305
 10
12.606939
 20
16.278604
 42
0.02173
 10
12.813945
 20
16.326973
 42
0.035751
 10
12.991815
 20
16.390787
 42
0.033621
 10
13.162632
 20
16.480401
 42
0.03421
 10
13.316842
 20
16.590205
 42
0.040799
 10
13.445114
 20
16.714266
 42
0.018197
 10
13.543213
 20
16.834553
 42
0.016711
 10
13.635262
 20
16.965047
 42
0.016983
 10
13.709484
 20
17.086938
 42
0.05146
 10
13.748166
 20
17.175897
 42
-0.054988
 10
13.791065
 20
17.272689
 42
-0.362248
 10
13.837256
 20
17.28948
 42
-0.115167
 10
13.905261
 20
17.245335
 42
-0.006035
 10
14.084291
 20
17.054556
 42
0.024213
 10
14.244685
 20
16.895625
 42
0.069301
 10
14.374458
 20
16.807978
 42
0.077736
 10
14.514414
 20
16.764612
 42
0.036345
 10
14.704169
 20
16.7508
 42
0.036379
 10
14.874163
 20
16.763185
 42
0.048902
 10
15.023923
 20
16.800339
 42
0.049822
 10
15.161468
 20
16.865171
 42
0.03989
 10
15.294851
 20
16.960347
 42
0.048302
 10
15.403776
 20
17.071615
 42
0.02119
 10
15.526397
 20
17.237739
 42
0.020737
 10
15.642581
 20
17.426387
 42
0.026078
 10
15.733385
 20
17.610402
 42
0.022939
 10
15.824137
 20
17.851224
 42
0.037914
 10
15.875503
 20
18.062288
 42
0.03734
 10
15.894859
 20
18.28095
 42
0.021466
 10
15.887109
 20
18.545517
 42
0.019813
 10
15.863161
 20
18.758778
 42
0.028975
 10
15.823898
 20
18.943544
 42
0.033201
 10
15.773348
 20
19.089368
 42
0.096631
  0
LWPOLYLINE
  5
838
330
1D
100
AcDbEntity
  8
0
100
AcDbPolyline
 90
       24
 70
     1
 43
0.0
 10
7.940793
 20
17.811891
 42
-0.055851
 10
8.039984
 20
17.776616
 42
-0.029312
 10
8.154278
 20
17.712403
 42
-0.028753
 10
8.265031
 20
17.631995
 42
-0.039046
 10
8.35425
 20
17.546597
 42
-0.01714
 10
8.42713
 20
17.459178
 42
-0.021105
 10
8.488685
 20
17.372678
 42
-0.020062
 10
8.533614
 20
17.297065
 42
-0.124647
 10
8.5446
 20
17.253682
 42
-0.35174
 10
8.519337
 20
17.222214
 42
-0.018412
 10
8.383067
 20
17.197265
 42
-0.022422
 10
8.205518
 20
17.179555
 42
-0.013647
 10
7.9947
 20
17.1738
 42
-0.008138
 10
7.688814
 20
17.178779
 42
-0.058663
 10
7.543292
 20
17.200734
 42
-0.156482
 10
7.472217
 20
17.247035
 42
-0.172421
 10
7.4448
 20
17.324176
 42
-0.066312
 10
7.454307
 20
17.395543
 42
-0.027901
 10
7.48488
 20
17.487602
 42
-0.027003
 10
7.529017
 20
17.58373
 42
-0.031659
 10
7.581243
 20
17.669352
 42
-0.044479
 10
7.659515
 20
17.762296
 42
-0.101485
 10
7.735877
 20
17.812294
 42
-0.104017
 10
7.82451
 20
17.827522
 42
-0.048275
  0
LWPOLYLINE
  5
852
330
1D
100
AcDbEntity
  8
0
100
AcDbPolyline
 90
       50
 70
     1
 43
0.0
 10
26.422962
 20
19.1196
 42
0.146238
 10
26.357252
 20
19.153057
 42
0.42097
 10
26.319769
 20
19.126501
 42
0.057423
 10
26.314252
 20
18.997647
 42
0.003707
 10
26.344058
 20
18.622794
 10
26.398306
 20
17.999088
 10
27.47773
 20
16.592394
 42
-0.000755
 10
27.913429
 20
16.022817
 42
-0.000853
 10
28.329953
 20
15.47466
 42
-0.000778
 10
28.682605
 20
15.007406
 42
-0.004686
 10
28.863129
 20
14.7627
 42
-0.013499
 10
28.999432
 20
14.563134
 42
-0.007256
 10
29.157207
 20
14.310198
 42
-0.00722
 10
29.310712
 20
14.047464
 42
-0.011237
 10
29.434578
 20
13.816269
 42
-0.009851
 10
29.548565
 20
13.580102
 42
-0.00634
 10
29.671795
 20
13.302138
 42
-0.006372
 10
29.785489
 20
13.027012
 42
-0.011903
 10
29.86933
 20
12.801069
 42
-0.021931
 10
29.941259
 20
12.557957
 42
-0.009094
 10
30.017937
 20
12.223883
 42
-0.008977
 10
30.087266
 20
11.862376
 42
-0.011448
 10
30.13752
 20
11.52675
 42
0.006825
 10
30.179612
 20
11.226721
 42
0.011186
 10
30.224387
 20
10.974074
 42
0.004957
 10
30.268446
 20
10.764992
 42
0.351824
 10
30.294338
 20
10.7442
 42
0.323372
 10
30.321057
 20
10.763498
 42
0.008866
 10
30.366233
 20
10.908497
 42
0.015084
 10
30.413144
 20
11.089099
 42
0.009368
 10
30.457776
 20
11.30351
 42
0.020364
 10
30.495747
 20
11.56215
 42
0.013881
 10
30.518701
 20
11.858539
 42
0.013933
 10
30.52509
 20
12.153416
 42
0.021731
 10
30.512482
 20
12.407124
 42
0.023773
 10
30.475842
 20
12.665915
 42
0.010818
 10
30.404641
 20
13.00026
 42
0.010685
 10
30.314254
 20
13.350123
 42
0.014436
 10
30.216741
 20
13.661969
 42
0.017508
 10
30.094935
 20
13.978882
 42
0.010605
 10
29.929883
 20
14.345354
 42
0.01062
 10
29.750375
 20
14.70261
 42
0.018343
 10
29.584125
 20
14.990605
 42
0.015921
 10
29.354787
 20
15.331608
 42
0.003181
 10
28.922515
 20
15.92416
 42
0.00336
 10
28.410116
 20
16.607588
 42
0.003128
 10
27.876269
 20
17.3007
 42
0.001168
 10
27.360753
 20
17.958247
 42
0.001722
 10
26.904797
 20
18.532952
 42
0.000783
 10
26.513517
 20
19.021091
 42
0.033055
  0
LWPOLYLINE
  5
886
330
1D
100
AcDbEntity
  8
0
100
AcDbPolyline
 90
      188
 70
     1
 43
0.0
 10
2.811076
 20
19.1196
 42
0.140816
 10
2.771499
 20
19.108229
 42
0.009704
 10
2.673127
 20
19.04392
 42
0.013221
 10
2.557681
 20
18.960655
 42
0.009524
 10
2.433196
 20
18.861966
 42
0.03855
 10
2.28254
 20
18.716917
 42
0.011848
 10
2.078227
 20
18.476115
 42
0.011778
 10
1.861577
 20
18.194852
 42
0.012651
 10
1.663698
 20
17.910216
 42
0.010553
 10
1.477189
 20
17.613447
 42
0.009239
 10
1.294647
 20
17.29574
 42
0.009327
 10
1.140406
 20
17.002609
 42
0.027203
 10
1.049017
 20
16.7931
 42
0.029648
 10
0.988072
 20
16.594433
 42
0.017036
 10
0.937238
 20
16.349092
 42
0.016929
 10
0.902584
 20
16.096574
 42
0.025598
 10
0.891199
 20
15.875034
 42
0.014337
 10
0.898952
 20
15.603191
 42
0.059174
 10
0.927609
 20
15.441487
 42
0.088807
 10
0.986527
 20
15.325716
 42
0.060632
 10
1.089432
 20
15.219384
 42
0.036389
 10
1.177765
 20
15.15792
 42
0.030735
 10
1.279099
 20
15.105971
 42
0.031868
 10
1.377809
 20
15.070101
 42
0.07133
 10
1.456624
 20
15.0588
 42
-0.0462
 10
1.535641
 20
15.051483
 42
-0.188648
 10
1.575793
 20
15.026445
 42
-0.202982
 10
1.586606
 20
14.982217
 42
-0.05406
 10
1.566923
 20
14.91075
 42
0.019644
 10
1.534873
 20
14.819418
 42
0.002497
 10
1.474606
 20
14.619805
 42
0.002924
 10
1.40561
 20
14.38199
 42
0.002428
 10
1.334916
 20
14.1282
 42
0.020317
 10
1.253541
 20
13.774584
 42
0.018976
 10
1.198944
 20
13.407394
 42
0.01632
 10
1.166686
 20
12.98942
 42
0.009075
 10
1.153278
 20
12.4785
 42
0.007495
 10
1.156839
 20
11.962524
 42
0.018977
 10
1.179268
 20
11.588157
 42
0.025411
 10
1.223648
 20
11.291705
 42
0.033337
 10
1.295608
 20
11.027654
 42
0.019733
 10
1.371557
 20
10.833094
 42
0.011747
 10
1.476402
 20
10.607542
 42
0.011749
 10
1.591646
 20
10.387318
 42
0.019855
 10
1.699681
 20
10.209245
 42
0.033412
 10
1.82555
 20
10.044296
 42
0.019831
 10
1.995692
 20
9.864666
 42
0.019797
 10
2.180434
 20
9.698245
 42
0.032013
 10
2.351356
 20
9.573708
 42
0.022299
 10
2.537037
 20
9.467126
 42
0.01312
 10
2.767525
 20
9.355715
 42
0.01311
 10
3.004173
 20
9.256276
 42
0.021777
 10
3.209005
 20
9.186567
 42
0.030001
 10
3.451532
 20
9.131186
 42
0.01501
 10
3.763407
 20
9.088985
 42
0.013943
 10
4.114095
 20
9.062071
 42
0.012579
 10
4.478005
 20
9.053499
 42
0.013791
 10
4.866098
 20
9.064829
 42
0.014219
 10
5.249026
 20
9.097534
 42
0.014759
 10
5.614057
 20
9.15015
 42
0.018545
 10
5.948268
 20
9.221301
 42
0.019097
 10
6.251122
 20
9.310041
 42
0.010202
 10
6.618454
 20
9.441481
 42
0.010143
 10
6.988523
 20
9.591147
 42
0.015576
 10
7.301868
 20
9.73704
 42
0.004766
 10
7.585731
 20
9.883536
 42
0.004817
 10
7.865734
 20
10.034906
 42
0.0047
 10
8.106981
 20
10.17132
 42
0.019481
 10
8.2485
 20
10.260636
 42
0.01079
 10
8.38315
 20
10.357482
 42
0.002739
 10
8.597428
 20
10.520575
 42
0.002791
 10
8.840174
 20
10.709611
 42
0.002821
 10
9.07994
 20
10.900688
 42
0.016067
 10
9.328728
 20
11.114806
 42
0.010842
 10
9.599054
 20
11.374038
 42
0.010929
 10
9.849798
 20
11.636378
 42
0.021276
 10
10.035982
 20
11.858142
 42
0.014681
 10
10.195756
 20
12.078898
 42
0.010299
 10
10.363041
 20
12.336167
 42
0.010402
 10
10.513149
 20
12.589368
 42
0.021304
 10
10.618001
 20
12.794902
 42
0.017937
 10
10.705062
 20
13.004755
 42
0.009476
 10
10.798674
 20
13.270715
 42
0.009417
 10
10.884287
 20
13.546842
 42
0.014355
 10
10.947129
 20
13.7898
 42
0.015458
 10
11.001506
 20
14.06732
 42
0.00561
 10
11.062001
 20
14.463956
 42
0.005557
 10
11.118548
 20
14.899805
 42
0.006596
 10
11.161932
 20
15.3126
 42
0.003117
 10
11.196134
 20
15.712661
 42
0.003187
 10
11.225078
 20
16.110203
 42
0.003091
 10
11.245876
 20
16.455716
 42
0.013294
 10
11.251511
 20
16.661646
 10
11.2518
 20
17.037791
 10
10.9557
 20
16.7508
 10
10.6596
 20
16.463809
 10
10.659128
 20
15.317154
 42
-0.007402
 10
10.65207
 20
14.853341
 42
-0.008333
 10
10.63126
 20
14.407925
 42
-0.007735
 10
10.601421
 20
14.030143
 42
-0.044011
 10
10.564921
 20
13.8321
 42
-0.065802
 10
10.478893
 20
13.629549
 42
-0.032849
 10
10.321641
 20
13.399066
 42
-0.022905
 10
10.075436
 20
13.112743
 42
-0.008115
 10
9.698243
 20
12.725487
 42
-0.007152
 10
9.36706
 20
12.405617
 42
-0.006213
 10
9.011116
 20
12.079762
 42
-0.006261
 10
8.681545
 20
11.79283
 42
-0.018229
 10
8.444498
 20
11.606041
 42
-0.010371
 10
8.221426
 20
11.450074
 42
-0.005945
 10
7.946321
 20
11.270799
 42
-0.005936
 10
7.665356
 20
11.097073
 42
-0.00983
 10
7.423745
 20
10.958013
 42
-0.011929
 10
7.180546
 20
10.831793
 42
-0.007858
 10
6.895248
 20
10.697773
 42
-0.007908
 10
6.613428
 20
10.576078
 42
-0.015114
 10
6.382836
 20
10.488864
 42
-0.014805
 10
6.150286
 20
10.41648
 42
-0.008229
 10
5.862978
 20
10.341374
 42
-0.008202
 10
5.569418
 20
10.274855
 42
-0.013125
 10
5.316582
 20
10.228801
 42
-0.018941
 10
5.023639
 20
10.194651
 42
-0.01982
 10
4.733359
 20
10.183458
 42
-0.019092
 10
4.433384
 20
10.195245
 42
-0.015189
 10
4.111206
 20
10.230119
 42
-0.017226
 10
3.836622
 20
10.278002
 42
-0.013269
 10
3.540735
 20
10.348418
 42
-0.013469
 10
3.26746
 20
10.429106
 42
-0.030939
 10
3.068013
 20
10.507821
 42
-0.031681
 10
2.885805
 20
10.607623
 42
-0.016072
 10
2.669426
 20
10.754572
 42
-0.015899
 10
2.455047
 20
10.921131
 42
-0.022846
 10
2.277195
 20
11.082875
 42
-0.025217
 10
2.10562
 20
11.272035
 42
-0.025612
 10
1.954906
 20
11.476564
 42
-0.026822
 10
1.833092
 20
11.684369
 42
-0.037062
 10
1.748445
 20
11.883197
 42
-0.033263
 10
1.688477
 20
12.106913
 42
-0.0187
 10
1.644203
 20
12.384801
 42
-0.016867
 10
1.616566
 20
12.702148
 42
-0.013285
 10
1.6074
 20
13.047037
 42
-0.014359
 10
1.61701
 20
13.381603
 42
-0.009268
 10
1.646435
 20
13.768201
 42
-0.009317
 10
1.689293
 20
14.145415
 42
-0.017318
 10
1.740284
 20
14.449017
 42
-0.014366
 10
1.806206
 20
14.730865
 42
-0.010606
 10
1.894656
 20
15.038804
 42
-0.010738
 10
1.990748
 20
15.326466
 42
-0.02352
 10
2.079204
 20
15.54111
 42
0.002996
 10
2.163855
 20
15.724749
 42
0.002841
 10
2.247829
 20
15.912657
 42
0.00282
 10
2.320231
 20
16.079724
 42
0.009995
 10
2.363919
 20
16.188062
 42
0.027315
 10
2.390361
 20
16.270978
 42
0.036031
 10
2.40472
 20
16.348979
 42
0.039103
 10
2.406749
 20
16.412623
 42
0.186905
 10
2.392333
 20
16.445267
 42
0.180399
 10
2.364998
 20
16.457752
 42
0.079741
 10
2.324851
 20
16.454223
 42
0.063874
 10
2.278564
 20
16.436037
 42
0.047727
 10
2.233191
 20
16.405172
 42
-0.080063
 10
2.177827
 20
16.372514
 42
-0.041486
 10
2.100686
 20
16.349475
 42
-0.039877
 10
2.01548
 20
16.338545
 42
-0.048257
 10
1.935002
 20
16.342456
 42
-0.083671
 10
1.84758
 20
16.370648
 42
-0.087835
 10
1.775885
 20
16.425619
 42
-0.075748
 10
1.719827
 20
16.5093
 42
-0.044819
 10
1.678591
 20
16.622458
 42
-0.048754
 10
1.658422
 20
16.74552
 42
-0.026046
 10
1.656427
 20
16.899792
 42
-0.025198
 10
1.671082
 20
17.06304
 42
-0.029953
 10
1.701785
 20
17.214658
 42
-0.022493
 10
1.74946
 20
17.366266
 42
-0.013529
 10
1.818842
 20
17.541651
 42
-0.013538
 10
1.897434
 20
17.71264
 42
-0.022943
 10
1.973482
 20
17.8506
 42
-0.015061
 10
2.067879
 20
17.994749
 42
-0.005753
 10
2.207571
 20
18.189839
 42
-0.005691
 10
2.364227
 20
18.398369
 42
-0.006951
 10
2.515643
 20
18.589655
 42
0.004489
 10
2.653902
 20
18.762563
 42
0.006853
 10
2.770428
 20
18.915268
 42
0.002902
 10
2.866997
 20
19.047076
 42
0.157919
 10
2.8764
 20
19.076105
 42
0.14837
 10
2.871367
 20
19.092692
 42
0.098868
 10
2.857211
 20
19.106823
 42
0.082365
 10
2.83605
 20
19.116351
 42
0.064768
  0
LWPOLYLINE
  5
944
330
1D
100
AcDbEntity
  8
0
100
AcDbPolyline
 90
       30
 70
     1
 43
0.0
 10
5.94315
 20
18.8568
 42
0.041238
 10
5.905784
 20
18.848314
 42
0.005689
 10
5.829997
 20
18.823439
 42
0.006494
 10
5.740776
 20
18.791727
 42
0.005457
 10
5.64705
 20
18.755869
 42
0.047029
 10
5.52628
 20
18.694475
 42
0.119075
 10
5.458211
 20
18.624203
 42
0.10323
 10
5.424273
 20
18.524044
 42
0.030252
 10
5.4144
 20
18.361005
 42
0.012945
 10
5.42015
 20
18.138945
 42
0.00028
 10
5.476888
 20
17.055907
 42
0.000643
 10
5.54561
 20
15.788863
 42
0.000434
 10
5.627124
 20
14.343512
 42
0.000839
 10
5.711233
 20
12.916751
 42
0.001378
 10
5.787762
 20
11.709703
 42
0.000115
 10
5.859581
 20
10.628089
 42
0.181676
 10
5.875256
 20
10.593544
 42
0.228148
 10
5.902492
 20
10.584008
 42
0.016859
 10
5.982817
 20
10.595783
 42
0.020767
 10
6.081451
 20
10.617922
 42
0.014114
 10
6.191699
 20
10.650887
 10
6.472734
 20
10.743637
 10
6.245584
 20
14.445168
 42
-0.000404
 10
6.158122
 20
15.889518
 42
-0.000586
 10
6.083421
 20
17.164993
 42
-0.000293
 10
6.021885
 20
18.248333
 42
-0.009925
 10
6.012517
 20
18.50625
 42
0.016654
 10
6.005684
 20
18.643461
 42
0.028081
 10
5.9897
 20
18.757538
 42
0.028015
 10
5.968264
 20
18.841011
 42
0.36625
  0
LWPOLYLINE
  5
964
330
1D
100
AcDbEntity
  8
0
100
AcDbPolyline
 90
      220
 70
     1
 43
0.0
 10
30.93119
 20
18.75721
 42
0.413044
 10
30.905331
 20
18.757262
 42
0.017435
 10
30.836146
 20
18.683669
 42
0.021335
 10
30.753609
 20
18.580972
 42
0.012433
 10
30.663127
 20
18.451367
 10
30.43458
 20
18.106008
 10
30.613372
 20
15.123054
 42
-0.001931
 10
30.696887
 20
13.63339
 42
-0.006474
 10
30.735195
 20
12.656547
 42
-0.009267
 10
30.740414
 20
11.980052
 42
-0.032919
 10
30.707233
 20
11.5479
 42
-0.01327
 10
30.661744
 20
11.281278
 42
-0.00803
 10
30.59448
 20
10.968126
 42
-0.008041
 10
30.517642
 20
10.659129
 42
-0.013988
 10
30.442658
 20
10.4058
 42
-0.012155
 10
30.354118
 20
10.155553
 42
-0.006831
 10
30.235115
 20
9.8559
 42
-0.006814
 10
30.106619
 20
9.556436
 42
-0.011054
 10
29.988394
 20
9.306
 42
-0.018064
 10
29.848894
 20
9.050216
 42
-0.008615
 10
29.65217
 20
8.731249
 42
-0.008528
 10
29.434963
 20
8.404679
 42
-0.011999
 10
29.229439
 20
8.1216
 42
-0.009473
 10
29.003418
 20
7.836853
 42
-0.005534
 10
28.722407
 20
7.503862
 42
-0.005532
 10
28.433638
 20
7.176651
 42
-0.00934
 10
28.183502
 20
6.909661
 42
-0.0052
 10
27.934136
 20
6.658542
 42
-0.003658
 10
27.648634
 20
6.381041
 42
-0.003691
 10
27.371497
 20
6.119483
 42
-0.007727
 10
27.151305
 20
5.920976
 10
26.680711
 20
5.50973
 10
26.734408
 20
5.928299
 42
0.036914
 10
26.749761
 20
6.213402
 42
0.002029
 10
26.728218
 20
7.108831
 42
0.003137
 10
26.691546
 20
8.174914
 42
0.002287
 10
26.637931
 20
9.359355
 42
0.000742
 10
26.578544
 20
10.51613
 42
0.001222
 10
26.524489
 20
11.493979
 42
0.000088
 10
26.473643
 20
12.372032
 42
0.18975
 10
26.462628
 20
12.395856
 42
0.417311
 10
26.444803
 20
12.395357
 42
0.005712
 10
26.363877
 20
12.306854
 42
0.012009
 10
26.269288
 20
12.195747
 42
0.007137
 10
26.16174
 20
12.05915
 10
25.88598
 20
11.698432
 10
26.066664
 20
8.550306
 10
26.247347
 20
5.40218
 10
25.974818
 20
5.121001
 42
-0.041728
 10
25.829474
 20
4.994138
 42
-0.01606
 10
25.608517
 20
4.842296
 42
-0.015771
 10
25.357077
 20
4.692113
 42
-0.018748
 10
25.110537
 20
4.567066
 42
-0.012616
 10
24.785663
 20
4.427148
 42
-0.038481
 10
24.556722
 20
4.355193
 42
-0.049827
 10
24.354127
 20
4.329114
 42
-0.035188
 10
24.12467
 20
4.338733
 42
-0.030174
 10
23.910337
 20
4.376092
 42
-0.065378
 10
23.754329
 20
4.435433
 42
-0.06369
 10
23.616445
 20
4.53413
 42
-0.027388
 10
23.459066
 20
4.697222
 42
-0.040146
 10
23.341856
 20
4.857115
 42
-0.018011
 10
23.213146
 20
5.083856
 42
-0.017695
 10
23.093619
 20
5.334557
 42
-0.022983
 10
23.003132
 20
5.572394
 42
0.007763
 10
22.92056
 20
5.811035
 42
0.006313
 10
22.824923
 20
6.064143
 42
0.006385
 10
22.73088
 20
6.295117
 42
0.016496
 10
22.655471
 20
6.458498
 42
0.01872
 10
22.557399
 20
6.63681
 42
0.102384
 10
22.48327
 20
6.717291
 42
0.156114
 10
22.399204
 20
6.744468
 42
0.062293
 10
22.277616
 20
6.729624
 42
0.029519
 10
22.179827
 20
6.698846
 42
0.015582
 10
22.062343
 20
6.64985
 42
0.015452
 10
21.944827
 20
6.59204
 42
0.022995
 10
21.84618
 20
6.533702
 42
0.055988
 10
21.742259
 20
6.4476
 42
0.016055
 10
21.60186
 20
6.292264
 42
0.015943
 10
21.453679
 20
6.105588
 42
0.016318
 10
21.318891
 20
5.911261
 42
0.035182
 10
21.155376
 20
5.614392
 42
0.011014
 10
20.95229
 20
5.148527
 42
0.009779
 10
20.725806
 20
4.563752
 42
0.006234
 10
20.484262
 20
3.875416
 42
-0.003891
 10
20.271544
 20
3.260012
 42
-0.004999
 10
20.065873
 20
2.697589
 42
-0.003876
 10
19.885394
 20
2.229961
 42
-0.0426
 10
19.79598
 20
2.050047
 42
-0.027259
 10
19.710726
 20
1.925667
 42
-0.078143
 10
19.634975
 20
1.853751
 42
-0.11817
 10
19.560615
 20
1.825062
 42
-0.118721
 10
19.481467
 20
1.833272
 42
-0.043668
 10
19.410427
 20
1.865594
 42
-0.01731
 10
19.318877
 20
1.921583
 42
-0.016976
 10
19.223648
 20
1.989202
 42
-0.020422
 10
19.139122
 20
2.059283
 42
-0.071905
 10
19.054069
 20
2.161466
 42
-0.021123
 10
18.954485
 20
2.340187
 42
-0.02074
 10
18.858195
 20
2.553144
 42
-0.020903
 10
18.780155
 20
2.772799
 42
-0.027619
 10
18.708926
 20
3.058481
 42
-0.009501
 10
18.636776
 20
3.478482
 42
-0.009258
 10
18.573364
 20
3.953863
 42
-0.009489
 10
18.528189
 20
4.427373
 42
-0.000386
 10
18.495605
 20
4.858887
 42
-0.000593
 10
18.468113
 20
5.232722
 42
-0.000191
 10
18.444805
 20
5.556598
 42
-0.017057
 10
18.443005
 20
5.60475
 42
0.151286
 10
18.435426
 20
5.628949
 42
0.098001
 10
18.414236
 20
5.649562
 42
0.081068
 10
18.382628
 20
5.663466
 42
0.063247
 10
18.345356
 20
5.6682
 42
0.384031
 10
18.298303
 20
5.625809
 42
0.016935
 10
18.281529
 20
5.387493
 42
0.015605
 10
18.279619
 20
5.019914
 42
0.003908
 10
18.299909
 20
4.42035
 42
0.004597
 10
18.326079
 20
3.906034
 42
0.004605
 10
18.36169
 20
3.392562
 42
0.004506
 10
18.400925
 20
2.945132
 42
0.018237
 10
18.437212
 20
2.673797
 42
0.008369
 10
18.479294
 20
2.450354
 42
0.005233
 10
18.535667
 20
2.190158
 42
0.005251
 10
18.596599
 20
1.934904
 42
0.009521
 10
18.652587
 20
1.727673
 42
0.025519
 10
18.718792
 20
1.536842
 42
0.018951
 10
18.810371
 20
1.333336
 42
0.019261
 10
18.911732
 20
1.147478
 42
0.04045
 10
19.007077
 20
1.013543
 42
0.025617
 10
19.107466
 20
0.90594
 42
0.021938
 10
19.223477
 20
0.803165
 42
0.022519
 10
19.337337
 20
0.719083
 42
0.056992
 10
19.428614
 20
0.67189
 42
0.03906
 10
19.513746
 20
0.646926
 42
0.033232
 10
19.606473
 20
0.633791
 42
0.034576
 10
19.692848
 20
0.633345
 42
0.075754
 10
19.75729
 20
0.647431
 42
0.120935
 10
19.820809
 20
0.691552
 42
0.022072
 10
19.91139
 20
0.803829
 42
0.022599
 10
20.007747
 20
0.94789
 42
0.01883
 10
20.097142
 20
1.10896
 42
0.029373
 10
20.200893
 20
1.347481
 42
0.005741
 10
20.357176
 20
1.789168
 42
0.006077
 10
20.527407
 20
2.309036
 42
0.005595
 10
20.689868
 20
2.847351
 42
-0.005117
 10
20.852555
 20
3.388284
 42
-0.005403
 10
21.023458
 20
3.91602
 42
-0.005177
 10
21.180337
 20
4.367622
 42
-0.0243
 10
21.285647
 20
4.621443
 42
-0.024527
 10
21.385693
 20
4.808593
 42
-0.019187
 10
21.511629
 20
5.001512
 42
-0.019565
 10
21.643045
 20
5.172306
 42
-0.044113
 10
21.758163
 20
5.28795
 42
-0.034455
 10
21.870774
 20
5.370163
 42
-0.03499
 10
21.993047
 20
5.435664
 42
-0.037253
 10
22.107033
 20
5.476932
 42
-0.105483
 10
22.191016
 20
5.482205
 42
-0.162533
 10
22.286944
 20
5.43351
 42
-0.069819
 10
22.373677
 20
5.316873
 42
-0.038235
 10
22.466318
 20
5.111393
 42
-0.009147
 10
22.587336
 20
4.756735
 42
0.011236
 10
22.685878
 20
4.471844
 42
0.011591
 10
22.79617
 20
4.194636
 42
0.011378
 10
22.902625
 20
3.959171
 42
0.047585
 10
22.982815
 20
3.826135
 42
0.029795
 10
23.068264
 20
3.724093
 42
0.015647
 10
23.185629
 20
3.607334
 42
0.015512
 10
23.313775
 20
3.494828
 42
0.022977
 10
23.43334
 20
3.40515
 42
0.041393
 10
23.596444
 20
3.312876
 42
0.049625
 10
23.763078
 20
3.255253
 42
0.040948
 10
23.96217
 20
3.224773
 42
0.017919
 10
24.229261
 20
3.215626
 42
0.022449
 10
24.489605
 20
3.227739
 42
0.029439
 10
24.724927
 20
3.263364
 42
0.030323
 10
24.948769
 20
3.325249
 42
0.026363
 10
25.174495
 20
3.416213
 42
0.031688
 10
25.358571
 20
3.51657
 42
0.02084
 10
25.557218
 20
3.653692
 42
0.020986
 10
25.740102
 20
3.803961
 42
0.037488
 10
25.874963
 20
3.944137
 42
0.017706
 10
25.988879
 20
4.092217
 42
0.012465
 10
26.106734
 20
4.2662
 42
0.0126
 10
26.211263
 20
4.438516
 42
0.025674
 10
26.282753
 20
4.579699
 42
-0.050377
 10
26.376741
 20
4.744592
 42
-0.063061
 10
26.495985
 20
4.873963
 42
-0.048222
 10
26.668366
 20
4.992856
 42
-0.017087
 10
26.935413
 20
5.129599
 42
0.016023
 10
27.185113
 20
5.25679
 42
0.006426
 10
27.518601
 20
5.445971
 42
0.006351
 10
27.873029
 20
5.659181
 42
0.007978
 10
28.195659
 20
5.866078
 42
0.015699
 10
28.52396
 20
6.099255
 42
0.014483
 10
28.846149
 20
6.358698
 42
0.015106
 10
29.131753
 20
6.617971
 42
0.027357
 10
29.346579
 20
6.849137
 42
0.010904
 10
29.524375
 20
7.072513
 42
0.006865
 10
29.722672
 20
7.340673
 42
0.006892
 10
29.910544
 20
7.609927
 42
0.012546
 10
30.055339
 20
7.835659
 42
0.014973
 10
30.189128
 20
8.071889
 42
0.00773
 10
30.34291
 20
8.374702
 42
0.007676
 10
30.491573
 20
8.691225
 42
0.011528
 10
30.610579
 20
8.972165
 42
0.015601
 10
30.720691
 20
9.277195
 42
0.007633
 10
30.842839
 20
9.672116
 42
0.007564
 10
30.957436
 20
10.086879
 42
0.010881
 10
31.045279
 20
10.457568
 42
0.012252
 10
31.119526
 20
10.851223
 42
0.006595
 10
31.192707
 20
11.339644
 42
0.006564
 10
31.254228
 20
11.839726
 42
0.010245
 10
31.292702
 20
12.271904
 42
0.016652
 10
31.31401
 20
12.880509
 42
0.009046
 10
31.30174
 20
13.628871
 42
0.006575
 10
31.254965
 20
14.610027
 42
0.002491
 10
31.164811
 20
15.978798
 42
0.001249
 10
31.087547
 20
17.031721
 42
0.002035
 10
31.016116
 20
17.924752
 42
0.000255
 10
30.948918
 20
18.719075
 42
0.176935
  0
LWPOLYLINE
  5
A42
330
1D
100
AcDbEntity
  8
0
100
AcDbPolyline
 90
       28
 70
     1
 43
0.0
 10
17.411772
 20
17.6814
 42
0.380889
 10
17.384264
 20
17.656889
 42
0.007119
 10
17.363202
 20
17.448782
 42
0.013513
 10
17.347946
 20
17.193138
 42
0.008145
 10
17.343
 20
16.889508
 42
-0.006065
 10
17.338965
 20
16.556907
 42
-0.005449
 10
17.326848
 20
16.212395
 42
-0.005469
 10
17.309228
 20
15.903553
 42
-0.017074
 10
17.288016
 20
15.696462
 42
0.008438
 10
17.259644
 20
15.459857
 42
0.093593
 10
17.267613
 20
15.365408
 42
0.277741
 10
17.308388
 20
15.326796
 42
0.101997
 10
17.390948
 20
15.32572
 42
0.147495
 10
17.469987
 20
15.367184
 42
0.061921
 10
17.545434
 20
15.4622
 42
0.04344
 10
17.619117
 20
15.610697
 42
0.01838
 10
17.692738
 20
15.820816
 42
0.012516
 10
17.7522
 20
16.031382
 42
0.007776
 10
17.811898
 20
16.281117
 42
0.007799
 10
17.863158
 20
16.52953
 42
0.01396
 10
17.896355
 20
16.735264
 42
0.015135
 10
17.924051
 20
17.006411
 42
0.080493
 10
17.910832
 20
17.154359
 42
0.09954
 10
17.852572
 20
17.275529
 42
0.029352
 10
17.718321
 20
17.433214
 42
0.013403
 10
17.622233
 20
17.528272
 42
0.018159
 10
17.530189
 20
17.608495
 42
0.015265
 10
17.450675
 20
17.668949
 42
0.156131
  0
LWPOLYLINE
  5
A60
330
1D
100
AcDbEntity
  8
0
100
AcDbPolyline
 90
       48
 70
     1
 43
0.0
 10
25.306802
 20
17.4276
 42
0.177677
 10
25.262751
 20
17.411436
 42
0.007878
 10
25.138383
 20
17.30255
 42
0.012468
 10
24.993618
 20
17.165009
 42
0.008507
 10
24.83576
 20
17.001898
 42
0.023464
 10
24.667126
 20
16.803751
 42
0.015015
 10
24.48947
 20
16.559145
 42
0.015089
 10
24.329505
 20
16.308451
 42
0.027104
 10
24.216066
 20
16.092448
 42
0.022532
 10
24.12866
 20
15.876334
 42
0.015881
 10
24.049316
 20
15.626505
 42
0.016068
 10
23.988598
 20
15.382226
 42
0.032183
 10
23.95945
 20
15.185565
 42
0.017338
 10
23.948407
 20
14.956305
 42
0.063502
 10
23.964826
 20
14.812109
 42
0.089706
 10
24.013028
 20
14.703923
 42
0.059359
 10
24.10261
 20
14.601092
 42
0.03571
 10
24.204515
 20
14.521321
 42
0.10581
 10
24.286481
 20
14.488397
 42
0.1099
 10
24.372886
 20
14.492531
 42
0.04022
 10
24.488598
 20
14.534393
 42
0.0753
 10
24.580438
 20
14.594281
 42
0.030493
 10
24.686008
 20
14.700641
 42
0.029318
 10
24.787582
 20
14.830956
 42
0.032942
 10
24.868954
 20
14.967446
 42
0.010014
 10
24.935062
 20
15.103701
 42
0.01239
 10
24.990885
 20
15.233232
 42
0.010784
 10
25.032419
 20
15.343387
 42
0.084953
 10
25.0416
 20
15.397032
 42
0.246104
 10
25.024282
 20
15.430084
 42
0.08165
 10
24.973259
 20
15.454269
 42
0.059006
 10
24.898071
 20
15.466542
 42
0.037074
 10
24.80895
 20
15.463852
 42
-0.038997
 10
24.677302
 20
15.460384
 42
-0.186656
 10
24.609966
 20
15.490509
 42
-0.149877
 10
24.572049
 20
15.562722
 42
-0.022687
 10
24.548917
 20
15.726156
 42
-0.01927
 10
24.541901
 20
15.849751
 42
-0.015076
 10
24.543511
 20
15.984125
 42
-0.015328
 10
24.552634
 20
16.109248
 42
-0.035632
 10
24.568968
 20
16.201807
 42
-0.063797
 10
24.609536
 20
16.305378
 42
-0.011116
 10
24.714571
 20
16.487564
 42
-0.011914
 10
24.848445
 20
16.696871
 42
-0.010431
 10
24.998026
 20
16.909201
 42
0.008567
 10
25.139265
 20
17.10811
 42
0.01578
 10
25.246149
 20
17.27532
 42
0.012182
 10
25.319758
 20
17.406043
 42
0.565701
  0
LWPOLYLINE
  5
A92
330
1D
100
AcDbEntity
  8
0
100
AcDbPolyline
 90
      118
 70
     1
 43
0.0
 10
20.752351
 20
17.337039
 42
0.019673
 10
20.540999
 20
17.326147
 42
0.015118
 10
20.311567
 20
17.298234
 42
0.015362
 10
20.098327
 20
17.258985
 42
0.034766
 10
19.940809
 20
17.213307
 42
0.019584
 10
19.798243
 20
17.154553
 42
0.011926
 10
19.634482
 20
17.074653
 42
0.011945
 10
19.475671
 20
16.98755
 42
0.020643
 10
19.348609
 20
16.906674
 42
0.010998
 10
19.213659
 20
16.808258
 42
0.003851
 10
19.02395
 20
16.661083
 42
0.003821
 10
18.817671
 20
16.495923
 42
0.004459
 10
18.624374
 20
16.335831
 42
0.022743
 10
18.38878
 20
16.11806
 42
0.00558
 10
18.022047
 20
15.738378
 42
0.005704
 10
17.61127
 20
15.293425
 42
0.00567
 10
17.209925
 20
14.838344
 42
-0.004337
 10
16.815714
 20
14.388944
 42
-0.004785
 10
16.426346
 20
13.961066
 42
-0.004462
 10
16.087179
 20
13.601929
 42
-0.024285
 10
15.892644
 20
13.418322
 42
-0.01778
 10
15.730191
 20
13.288985
 42
-0.011836
 10
15.535518
 20
13.152006
 42
-0.011923
 10
15.340063
 20
13.027923
 42
-0.022744
 10
15.176472
 20
12.939333
 42
-0.025156
 10
14.992825
 20
12.861572
 42
-0.042405
 10
14.831506
 20
12.81771
 42
-0.047559
 10
14.679022
 20
12.804615
 42
-0.044046
 10
14.522728
 20
12.819888
 42
-0.053937
 10
14.392824
 20
12.859108
 42
-0.030132
 10
14.244767
 20
12.932689
 42
-0.029698
 10
14.102239
 20
13.026244
 42
-0.041882
 10
13.988449
 20
13.126843
 42
-0.042947
 10
13.84853
 20
13.300831
 42
-0.09471
 10
13.781976
 20
13.457115
 42
-0.050441
 10
13.756478
 20
13.681931
 42
-0.005641
 10
13.756035
 20
14.197635
 42
-0.01287
 10
13.771523
 20
14.625736
 42
-0.020529
 10
13.809152
 20
14.989931
 42
-0.021484
 10
13.874928
 20
15.337628
 42
-0.016051
 10
13.975991
 20
15.71445
 42
0.007021
 10
14.072736
 20
16.050782
 42
0.029788
 10
14.115656
 20
16.255674
 42
0.057952
 10
14.119391
 20
16.37555
 42
0.38964
 10
14.079284
 20
16.4124
 42
0.237311
 10
14.027247
 20
16.386228
 42
0.025151
 10
13.949593
 20
16.269872
 42
0.026765
 10
13.867029
 20
16.113083
 42
0.018289
 10
13.789619
 20
15.927198
 42
0.00746
 10
13.71116
 20
15.707565
 42
0.004624
 10
13.625277
 20
15.447475
 42
0.004638
 10
13.545227
 20
15.189071
 42
0.008339
 10
13.485079
 20
14.975448
 42
0.024821
 10
13.437627
 20
14.750775
 42
0.01154
 10
13.397382
 20
14.45544
 42
0.0114
 10
13.369306
 20
14.142781
 42
0.015606
 10
13.359262
 20
13.860361
 42
0.012307
 10
13.364795
 20
13.587534
 42
0.01091
 10
13.383731
 20
13.304081
 42
0.011022
 10
13.411981
 20
13.049624
 42
0.032617
 10
13.446511
 20
12.877356
 42
0.026905
 10
13.493888
 20
12.73286
 42
0.018671
 10
13.562085
 20
12.575073
 42
0.018882
 10
13.63919
 20
12.428068
 42
0.03644
 10
13.713484
 20
12.317984
 42
0.040737
 10
13.80454
 20
12.219839
 42
0.020163
 10
13.934492
 20
12.110136
 42
0.019864
 10
14.079263
 20
12.006551
 42
0.027405
 10
14.217427
 20
11.92624
 42
0.032892
 10
14.366118
 20
11.862322
 42
0.022145
 10
14.542944
 20
11.808409
 42
0.022347
 10
14.719463
 20
11.771344
 42
0.040594
 10
14.866333
 20
11.7594
 42
0.042765
 10
15.013889
 20
11.772044
 42
0.022883
 10
15.192692
 20
11.811412
 42
0.022618
 10
15.372762
 20
11.868637
 42
0.032675
 10
15.525353
 20
11.936461
 42
0.035851
 10
15.691065
 20
12.039261
 42
0.011515
 10
15.92163
 20
12.214521
 42
0.011421
 10
16.170062
 20
12.422004
 42
0.012542
 10
16.400942
 20
12.634411
 42
0.01011
 10
16.670205
 20
12.905648
 42
0.003376
 10
17.053275
 20
13.312929
 42
0.003358
 10
17.471471
 20
13.769732
 42
0.003826
 10
17.865541
 20
14.2128
 42
-0.007515
 10
18.260245
 20
14.650042
 42
-0.006841
 10
18.680303
 20
15.089332
 42
-0.006861
 10
19.066607
 20
15.471772
 42
-0.021901
 10
19.338638
 20
15.71174
 42
-0.016274
 10
19.572103
 20
15.88794
 42
-0.01531
 10
19.82125
 20
16.05237
 42
-0.01548
 10
20.050925
 20
16.184415
 42
-0.049972
 10
20.213529
 20
16.251436
 42
-0.032606
 10
20.360158
 20
16.285136
 42
-0.022317
 10
20.529896
 20
16.30493
 42
-0.022555
 10
20.695879
 20
16.309306
 42
-0.0417
 10
20.829997
 20
16.295566
 42
-0.057919
 10
20.965323
 20
16.253533
 42
-0.032488
 10
21.118133
 20
16.173625
 42
-0.030854
 10
21.270596
 20
16.067416
 42
-0.03273
 10
21.40567
 20
15.945171
 10
21.692824
 20
15.648903
 10
21.799114
 20
15.840301
 42
0.056302
 10
21.840212
 20
15.939031
 42
0.022015
 10
21.875062
 20
16.082728
 42
0.021459
 10
21.899447
 20
16.242986
 42
0.024975
 10
21.908402
 20
16.396812
 42
0.021431
 10
21.903144
 20
16.548536
 42
0.02013
 10
21.884931
 20
16.702483
 42
0.020571
 10
21.857672
 20
16.837553
 42
0.062861
 10
21.824292
 20
16.924686
 42
0.063206
 10
21.773514
 20
16.996168
 42
0.027828
 10
21.690189
 20
17.077171
 42
0.026997
 10
21.591079
 20
17.154353
 42
0.032615
 10
21.490093
 20
17.215224
 42
0.055177
 10
21.358893
 20
17.265661
 42
0.023285
 10
21.173997
 20
17.30511
 42
0.022039
 10
20.964075
 20
17.33033
 42
0.021915
  0
LWPOLYLINE
  5
B0A
330
1D
100
AcDbEntity
  8
0
100
AcDbPolyline
 90
       52
 70
     1
 43
0.0
 10
4.906147
 20
17.1738
 42
0.161174
 10
4.857353
 20
17.157652
 42
0.01257
 10
4.747803
 20
17.071866
 42
0.016128
 10
4.620377
 20
16.959715
 42
0.011602
 10
4.485251
 20
16.826791
 42
0.030484
 10
4.335037
 20
16.651838
 42
0.013952
 10
4.15998
 20
16.406947
 42
0.013758
 10
3.989421
 20
16.138017
 42
0.018456
 10
3.850845
 20
15.884824
 42
0.01514
 10
3.71259
 20
15.586203
 42
0.028064
 10
3.621721
 20
15.335089
 42
0.033532
 10
3.570386
 20
15.109809
 42
0.039273
 10
3.5532
 20
14.891345
 42
0.023356
 10
3.562236
 20
14.698003
 42
0.049254
 10
3.590843
 20
14.550714
 42
0.062776
 10
3.641247
 20
14.436514
 42
0.073681
 10
3.716337
 20
14.345187
 42
0.052451
 10
3.796948
 20
14.286319
 42
0.065097
 10
3.882564
 20
14.25053
 42
0.069603
 10
3.9696
 20
14.239421
 42
0.073959
 10
4.054461
 20
14.253088
 42
0.100208
 10
4.135947
 20
14.298356
 42
0.029023
 10
4.240254
 20
14.398464
 42
0.027924
 10
4.347284
 20
14.527599
 42
0.026543
 10
4.441223
 20
14.669996
 42
0.011904
 10
4.522311
 20
14.816234
 42
0.014556
 10
4.590791
 20
14.956788
 42
0.013074
 10
4.641373
 20
15.077061
 42
0.093259
 10
4.653
 20
15.138854
 42
0.164493
 10
4.638546
 20
15.1816
 42
0.166296
 10
4.601178
 20
15.206571
 42
0.094694
 10
4.537202
 20
15.211101
 42
0.031953
 10
4.444885
 20
15.194109
 42
-0.047058
 10
4.340816
 20
15.178183
 42
-0.107622
 10
4.262813
 20
15.1905
 42
-0.116639
 10
4.200905
 20
15.23315
 42
-0.061054
 10
4.146737
 20
15.310102
 42
-0.066516
 10
4.116252
 20
15.391447
 42
-0.0355
 10
4.099667
 20
15.497762
 42
-0.034606
 10
4.098019
 20
15.610632
 42
-0.045238
 10
4.112925
 20
15.712714
 42
-0.018508
 10
4.142473
 20
15.818479
 42
-0.010733
 10
4.185347
 20
15.943281
 42
-0.010719
 10
4.233772
 20
16.066735
 42
-0.017718
 10
4.280519
 20
16.168483
 42
-0.023531
 10
4.343216
 20
16.279744
 42
-0.007417
 10
4.447065
 20
16.439976
 42
-0.00739
 10
4.568373
 20
16.615528
 42
-0.008132
 10
4.691088
 20
16.781833
 42
0.012772
 10
4.799961
 20
16.932282
 42
0.024771
 10
4.877679
 20
17.05866
 42
0.029445
 10
4.921501
 20
17.151035
 42
0.531742
  0
LWPOLYLINE
  5
B40
330
1D
100
AcDbEntity
  8
0
100
AcDbPolyline
 90
       42
 70
     1
 43
0.0
 10
16.260639
 20
16.8354
 42
0.171364
 10
16.220334
 20
16.821168
 42
0.00852
 10
16.11093
 20
16.729782
 42
0.012919
 10
15.983384
 20
16.613607
 42
0.008911
 10
15.844808
 20
16.47585
 42
0.026678
 10
15.692304
 20
16.300984
 42
0.014163
 10
15.521642
 20
16.069614
 42
0.014058
 10
15.360105
 20
15.822567
 42
0.021156
 10
15.234783
 20
15.59782
 42
0.018208
 10
15.131046
 20
15.371599
 42
0.01447
 10
15.035217
 20
15.12052
 42
0.014711
 10
14.959917
 20
14.882374
 42
0.035167
 10
14.921928
 20
14.701048
 42
0.025308
 10
14.907564
 20
14.533674
 42
0.030002
 10
14.911528
 20
14.375028
 42
0.033099
 10
14.932466
 20
14.237548
 42
0.068628
 10
14.970059
 20
14.135937
 42
0.061004
 10
15.032849
 20
14.046718
 42
0.106702
 10
15.105912
 20
13.994216
 42
0.091229
 10
15.202357
 20
13.971784
 42
0.035803
 10
15.339371
 20
13.975209
 42
0.060841
 10
15.489384
 20
14.008457
 42
0.0988
 10
15.601199
 20
14.074966
 42
0.068291
 10
15.704777
 20
14.197723
 42
0.017116
 10
15.837612
 20
14.4243
 10
16.066525
 20
14.8473
 10
15.796273
 20
14.8896
 42
-0.039322
 10
15.678376
 20
14.917686
 42
-0.068221
 10
15.587837
 20
14.961276
 42
-0.085879
 10
15.526821
 20
15.018836
 42
-0.114031
 10
15.49608
 20
15.088399
 42
-0.044549
 10
15.488121
 20
15.167733
 42
-0.015831
 10
15.490483
 20
15.281807
 42
-0.015565
 10
15.501006
 20
15.407545
 42
-0.017708
 10
15.519071
 20
15.527047
 42
-0.060494
 10
15.564087
 20
15.669394
 42
-0.0173
 10
15.667411
 20
15.877039
 42
-0.017145
 10
15.801251
 20
16.10515
 42
-0.017424
 10
15.949727
 20
16.322299
 42
0.007936
 10
16.089889
 20
16.519166
 42
0.014515
 10
16.196868
 20
16.684677
 42
0.010343
 10
16.272443
 20
16.815425
 42
0.57064
  0
LWPOLYLINE
  5
B6C
330
1D
100
AcDbEntity
  8
0
100
AcDbPolyline
 90
       62
 70
     1
 43
0.0
 10
2.864389
 20
16.4124
 42
0.159826
 10
2.833217
 20
16.402175
 42
0.041985
 10
2.79311
 20
16.367149
 42
0.038241
 10
2.751767
 20
16.317319
 42
0.031191
 10
2.715311
 20
16.258355
 42
0.040777
 10
2.673509
 20
16.162149
 42
0.005488
 10
2.604641
 20
15.952511
 42
0.006306
 10
2.528731
 20
15.701632
 42
0.005272
 10
2.454333
 20
15.433505
 42
0.015566
 10
2.382316
 20
15.124523
 42
0.008904
 10
2.313722
 20
14.747688
 42
0.008887
 10
2.258172
 20
14.365862
 42
0.014583
 10
2.226365
 20
14.040789
 42
0.012308
 10
2.210094
 20
13.66916
 42
0.023642
 10
2.218482
 20
13.37109
 42
0.027272
 10
2.253204
 20
13.105384
 42
0.024615
 10
2.317419
 20
12.835616
 42
0.028249
 10
2.390531
 20
12.628533
 42
0.02019
 10
2.494391
 20
12.405758
 42
0.020473
 10
2.611036
 20
12.200878
 42
0.040529
 10
2.722594
 20
12.050893
 42
0.028404
 10
2.848633
 20
11.922802
 42
0.017749
 10
3.009487
 20
11.786991
 42
0.0178
 10
3.178068
 20
11.664052
 42
0.030698
 10
3.327566
 20
11.575831
 42
0.035721
 10
3.49238
 20
11.506084
 42
0.017704
 10
3.709859
 20
11.440352
 42
0.017474
 10
3.941222
 20
11.387845
 42
0.024453
 10
4.15114
 20
11.358407
 42
0.016673
 10
4.370572
 20
11.345867
 42
0.009974
 10
4.631873
 20
11.344875
 42
0.009981
 10
4.892335
 20
11.354285
 42
0.017058
 10
5.109015
 20
11.373879
 10
5.5836
 20
11.433175
 10
5.582305
 20
11.871238
 42
0.013004
 10
5.577259
 20
12.045376
 42
0.0163
 10
5.563132
 20
12.206302
 42
0.014541
 10
5.543202
 20
12.338847
 42
0.110365
 10
5.518855
 20
12.396731
 42
0.201551
 10
5.462566
 20
12.431631
 42
0.012571
 10
5.264249
 20
12.457984
 42
0.016762
 10
5.016947
 20
12.476179
 42
0.010956
 10
4.730966
 20
12.481331
 42
-0.009719
 10
4.299611
 20
12.488034
 42
-0.045904
 10
4.054414
 20
12.519272
 42
-0.059817
 10
3.850395
 20
12.590972
 42
-0.024076
 10
3.591482
 20
12.734302
 42
-0.029365
 10
3.414352
 20
12.858747
 42
-0.018943
 10
3.223949
 20
13.022085
 42
-0.019045
 10
3.049314
 20
13.196582
 42
-0.033733
 10
2.921316
 20
13.35478
 42
-0.029253
 10
2.779207
 20
13.584326
 42
-0.061125
 10
2.702591
 20
13.779682
 42
-0.044502
 10
2.662427
 20
14.02435
 42
-0.009636
 10
2.639068
 20
14.452578
 42
-0.014352
 10
2.63666
 20
14.822076
 42
-0.019082
 10
2.656918
 20
15.157378
 42
-0.019999
 10
2.701468
 20
15.476995
 42
-0.018752
 10
2.77213
 20
15.79905
 42
0.009563
 10
2.82829
 20
16.034278
 42
0.016486
 10
2.864775
 20
16.232228
 42
0.010874
 10
2.88495
 20
16.38954
 42
0.445554
  0
LWPOLYLINE
  5
BAC
330
1D
100
AcDbEntity
  8
0
100
AcDbPolyline
 90
       96
 70
     1
 43
0.0
 10
20.304
 20
16.051161
 42
0.084481
 10
20.23952
 20
16.050105
 42
0.027008
 10
20.146036
 20
16.027332
 42
0.02608
 10
20.042837
 20
15.990233
 42
0.026368
 10
19.94445
 20
15.94271
 42
0.016057
 10
19.855326
 20
15.889913
 42
0.02294
 10
19.780141
 20
15.837052
 42
0.020127
 10
19.723715
 20
15.78963
 42
0.210958
 10
19.7118
 20
15.762647
 42
0.190964
 10
19.725983
 20
15.726866
 42
0.000456
 10
20.115722
 20
15.313245
 42
0.002816
 10
20.559684
 20
14.848214
 42
0.001737
 10
21.086854
 20
14.305999
 42
-0.002204
 10
21.672178
 20
13.702847
 42
-0.001793
 10
22.293984
 20
13.051768
 42
-0.001811
 10
22.862399
 20
12.447937
 42
-0.00473
 10
23.265304
 20
12.008551
 42
-0.00572
 10
23.619683
 20
11.60549
 42
-0.003687
 10
24.021494
 20
11.130758
 42
-0.003706
 10
24.407657
 20
10.660591
 42
-0.006968
 10
24.711395
 20
10.274251
 42
-0.002899
 10
24.964369
 20
9.939072
 42
-0.00373
 10
25.192813
 20
9.627899
 42
-0.002864
 10
25.3807
 20
9.364766
 42
-0.032223
 10
25.447757
 20
9.255377
 42
-0.078568
 10
25.483855
 20
9.149537
 42
-0.144389
 10
25.473502
 20
9.059842
 42
-0.084498
 10
25.408727
 20
8.958853
 42
-0.01553
 10
25.253996
 20
8.799268
 42
-0.030871
 10
25.091229
 20
8.659915
 42
-0.055272
 10
24.940044
 20
8.570131
 42
-0.054123
 10
24.770665
 20
8.514503
 42
-0.028355
 10
24.551119
 20
8.480763
 42
-0.023776
 10
24.372897
 20
8.472157
 42
-0.025696
 10
24.199258
 20
8.480963
 42
-0.027506
 10
24.048728
 20
8.504801
 42
-0.069951
 10
23.945121
 20
8.542823
 42
-0.051525
 10
23.851743
 20
8.605935
 42
-0.121806
 10
23.802529
 20
8.673282
 42
-0.10968
 10
23.78754
 20
8.76052
 42
-0.037285
 10
23.803397
 20
8.888935
 42
-0.054234
 10
23.844186
 20
9.018155
 42
-0.012454
 10
23.941568
 20
9.225531
 42
-0.012731
 10
24.066495
 20
9.460086
 42
-0.012112
 10
24.205203
 20
9.69197
 10
24.558182
 20
10.250873
 10
24.336902
 20
10.472153
 10
24.115622
 20
10.693433
 10
23.813745
 20
10.040059
 42
0.018297
 10
23.681579
 20
9.724136
 42
0.01619
 10
23.566911
 20
9.38634
 42
0.016444
 10
23.476277
 20
9.048352
 42
0.021097
 10
23.416449
 20
8.732016
 42
0.009068
 10
23.371352
 20
8.377704
 42
0.034148
 10
23.362361
 20
8.154126
 42
0.052227
 10
23.384881
 20
7.985077
 42
0.052366
 10
23.441934
 20
7.824524
 42
0.056719
 10
23.516681
 20
7.705136
 42
0.055481
 10
23.61684
 20
7.604607
 42
0.050588
 10
23.745261
 20
7.521327
 42
0.035153
 10
23.904368
 20
7.453317
 42
0.03086
 10
24.067729
 20
7.40776
 42
0.029612
 10
24.237723
 20
7.381884
 42
0.030476
 10
24.404124
 20
7.376737
 42
0.038878
 10
24.556659
 20
7.393234
 42
0.043187
 10
24.695103
 20
7.431813
 42
0.024508
 10
24.85497
 20
7.500744
 42
0.024317
 10
25.010387
 20
7.586604
 42
0.036556
 10
25.135799
 20
7.677359
 42
0.042357
 10
25.252852
 20
7.794125
 42
0.020166
 10
25.383676
 20
7.962121
 42
0.019825
 10
25.507101
 20
8.149825
 42
0.026561
 10
25.602763
 20
8.329643
 42
0.026691
 10
25.695204
 20
8.559462
 42
0.032112
 10
25.756157
 20
8.784191
 42
0.030289
 10
25.790186
 20
9.025499
 42
0.019887
 10
25.801347
 20
9.306
 42
0.020111
 10
25.789868
 20
9.59128
 42
0.0316
 10
25.75477
 20
9.833988
 42
0.03289
 10
25.690699
 20
10.063219
 42
0.024352
 10
25.591344
 20
10.307004
 42
0.011344
 10
25.49801
 20
10.496155
 42
0.009653
 10
25.391215
 20
10.691467
 42
0.009767
 10
25.287085
 20
10.865491
 42
0.026949
 10
25.204953
 20
10.982349
 42
0.015455
 10
25.08953
 20
11.120101
 42
0.001551
 10
24.802993
 20
11.439361
 42
0.001947
 10
24.458779
 20
11.817528
 42
0.001547
 10
24.084272
 20
12.223244
 42
0.002209
 10
23.627118
 20
12.71109
 42
0.000979
 10
23.01947
 20
13.351303
 42
0.000968
 10
22.373106
 20
14.027017
 42
0.001306
 10
21.78544
 20
14.6358
 42
0.003722
 10
21.257111
 20
15.172212
 42
0.005738
 10
20.791519
 20
15.627371
 42
0.002146
 10
20.386541
 20
16.010975
 42
0.151604
  0
LWPOLYLINE
  5
C0E
330
1D
100
AcDbEntity
  8
0
100
AcDbPolyline
 90
       20
 70
     1
 43
0.0
 10
27.848789
 20
15.734444
 42
0.229891
 10
27.811914
 20
15.71562
 42
0.000409
 10
27.381971
 20
15.145427
 42
0.002847
 10
26.900892
 20
14.498698
 42
0.001744
 10
26.340632
 20
13.730904
 10
24.890165
 20
11.72852
 10
25.067428
 20
11.488759
 42
0.021791
 10
25.140371
 20
11.398596
 42
0.031469
 10
25.212952
 20
11.326204
 42
0.032282
 10
25.276611
 20
11.277141
 42
0.23252
 10
25.313906
 20
11.272069
 42
0.153254
 10
25.358481
 20
11.30429
 42
0.000476
 10
25.781157
 20
11.872214
 42
0.002636
 10
26.256367
 20
12.519091
 42
0.001639
 10
26.807356
 20
13.28272
 10
28.231591
 20
15.2703
 10
28.069035
 20
15.50295
 42
0.015728
 10
28.002565
 20
15.591981
 42
0.021937
 10
27.937283
 20
15.666919
 42
0.019218
 10
27.879765
 20
15.722901
 42
0.190628
  0
LWPOLYLINE
  5
C24
330
1D
100
AcDbEntity
  8
0
100
AcDbPolyline
 90
       36
 70
     1
 43
0.0
 10
28.324843
 20
15.054119
 42
0.12348
 10
28.298604
 20
15.049728
 42
0.054677
 10
28.267925
 20
15.032131
 42
0.04947
 10
28.237859
 20
15.005285
 42
0.047407
 10
28.213168
 20
14.972693
 42
0.143867
 10
28.193471
 20
14.900908
 42
0.00123
 10
28.205298
 20
14.322105
 42
0.00419
 10
28.226176
 20
13.65464
 42
0.002673
 10
28.261105
 20
12.878843
 42
-0.003495
 10
28.296532
 20
12.062098
 42
-0.003813
 10
28.319347
 20
11.268277
 42
-0.003577
 10
28.328831
 20
10.588616
 42
-0.018807
 10
28.31733
 20
10.21545
 42
0.009903
 10
28.304283
 20
9.947299
 42
0.021081
 10
28.307054
 20
9.739716
 42
0.019064
 10
28.321275
 20
9.588261
 42
0.376131
 10
28.353757
 20
9.5598
 42
0.226368
 10
28.394089
 20
9.579046
 42
0.023177
 10
28.458452
 20
9.666586
 42
0.02531
 10
28.528398
 20
9.784062
 42
0.01749
 10
28.595919
 20
9.923327
 42
0.026787
 10
28.664497
 20
10.103922
 42
0.011226
 10
28.738127
 20
10.353485
 42
0.01107
 10
28.805127
 20
10.624557
 42
0.014126
 10
28.85422
 20
10.877209
 42
0.02534
 10
28.894994
 20
11.236508
 42
0.01338
 10
28.91096
 20
11.68512
 42
0.010348
 10
28.904193
 20
12.254703
 42
0.004708
 10
28.872923
 20
12.99896
 42
0.002611
 10
28.819848
 20
13.935218
 42
0.023887
 10
28.775236
 20
14.340569
 42
0.056637
 10
28.707097
 20
14.586268
 42
0.071578
 10
28.588716
 20
14.789897
 42
0.012054
 10
28.505772
 20
14.889657
 42
0.016755
 10
28.426469
 20
14.974573
 42
0.013238
 10
28.357519
 20
15.040053
 42
0.164769
  0
LWPOLYLINE
  5
C4A
330
1D
100
AcDbEntity
  8
0
100
AcDbPolyline
 90
      296
 70
     1
 43
0.0
 10
11.578491
 20
14.805
 42
0.345295
 10
11.551294
 20
14.783676
 42
0.009195
 10
11.515356
 20
14.624828
 42
0.015438
 10
11.480703
 20
14.426794
 42
0.009472
 10
11.451535
 20
14.19165
 42
0.004678
 10
11.428532
 20
13.950538
 42
0.006452
 10
11.4127
 20
13.73362
 42
0.004246
 10
11.403337
 20
13.551828
 42
0.075642
 10
11.409641
 20
13.4937
 42
0.024731
 10
11.429473
 20
13.43146
 42
0.000389
 10
11.560259
 20
13.082631
 42
0.00103
 10
11.713437
 20
12.677576
 42
0.000683
 10
11.890903
 20
12.213115
 42
-0.00557
 10
12.081703
 20
11.698731
 42
-0.00449
 10
12.275578
 20
11.141949
 42
-0.004539
 10
12.445333
 20
10.624534
 42
-0.011613
 10
12.556099
 20
10.246062
 42
-0.006752
 10
12.639089
 20
9.918296
 42
-0.005783
 10
12.717804
 20
9.571057
 42
-0.005832
 10
12.781998
 20
9.25387
 42
-0.016553
 10
12.816812
 20
9.030947
 42
-0.021118
 10
12.837983
 20
8.765495
 42
-0.071578
 10
12.819721
 20
8.593127
 42
-0.067513
 10
12.752993
 20
8.427642
 42
-0.017409
 10
12.601446
 20
8.182078
 42
-0.0291
 10
12.455291
 20
7.988185
 42
-0.01068
 10
12.227596
 20
7.73142
 42
-0.010545
 10
11.966285
 20
7.460807
 42
-0.012446
 10
11.707534
 20
7.216397
 42
-0.008505
 10
11.415251
 20
6.962617
 42
-0.004663
 10
11.049146
 20
6.661276
 42
-0.004646
 10
10.671663
 20
6.362183
 42
-0.007398
 10
10.342725
 20
6.114213
 42
-0.01274
 10
10.003893
 20
5.879564
 42
-0.00796
 10
9.595997
 20
5.621391
 42
-0.007987
 10
9.185681
 20
5.379657
 42
-0.014377
 10
8.8407
 20
5.196679
 42
-0.012866
 10
8.516153
 20
5.046582
 42
-0.011358
 10
8.170637
 20
4.906676
 42
-0.011485
 10
7.853439
 20
4.794809
 42
-0.033619
 10
7.628836
 20
4.737728
 42
-0.021868
 10
7.420403
 20
4.708795
 42
-0.021408
 10
7.208749
 20
4.697909
 42
-0.022456
 10
7.009798
 20
4.705138
 42
-0.034961
 10
6.840231
 20
4.73096
 42
-0.028339
 10
6.698172
 20
4.771453
 42
-0.022939
 10
6.550951
 20
4.830291
 42
-0.023512
 10
6.419912
 20
4.897365
 42
-0.053915
 10
6.330284
 20
4.962418
 42
-0.03169
 10
6.255451
 20
5.039303
 42
-0.016724
 10
6.172185
 20
5.143315
 42
-0.016575
 10
6.09376
 20
5.255887
 42
-0.024526
 10
6.033335
 20
5.359899
 42
-0.066254
 10
5.976281
 20
5.518691
 42
-0.026402
 10
5.939387
 20
5.747562
 42
-0.020062
 10
5.918908
 20
6.053135
 42
-0.008707
 10
5.915084
 20
6.46045
 42
-0.012425
 10
5.929845
 20
6.909266
 42
-0.018926
 10
5.96705
 20
7.29737
 42
-0.019546
 10
6.032356
 20
7.672174
 42
-0.014569
 10
6.132437
 20
8.079852
 42
0.003374
 10
6.213132
 20
8.379431
 42
0.004633
 10
6.281384
 20
8.649993
 42
0.003026
 10
6.335138
 20
8.877737
 42
0.054133
 10
6.343949
 20
8.952334
 42
0.159441
 10
6.330265
 20
8.995528
 42
0.132641
 10
6.292751
 20
9.026114
 42
0.09304
 10
6.232534
 20
9.040515
 42
0.047603
 10
6.15465
 20
9.036934
 42
0.143127
 10
6.047213
 20
8.988258
 42
0.133719
 10
5.979461
 20
8.8882
 42
0.048283
 10
5.931613
 20
8.686443
 42
0.005109
 10
5.870707
 20
8.2062
 42
-0.00693
 10
5.82474
 20
7.854023
 42
-0.004896
 10
5.763759
 20
7.459722
 42
-0.004941
 10
5.698041
 20
7.083901
 42
-0.010382
 10
5.638057
 20
6.793599
 42
0.012781
 10
5.584804
 20
6.529485
 42
0.009872
 10
5.539848
 20
6.239223
 42
0.010004
 10
5.508628
 20
5.96633
 42
0.02348
 10
5.499
 20
5.761414
 42
0.016876
 10
5.505505
 20
5.568751
 42
0.009819
 10
5.525641
 20
5.338247
 42
0.009809
 10
5.554918
 20
5.107836
 42
0.016315
 10
5.589692
 20
4.915248
 42
0.032353
 10
5.642744
 20
4.727895
 42
0.0196
 10
5.728226
 20
4.513768
 42
0.019601
 10
5.830201
 20
4.307017
 42
0.032386
 10
5.933943
 20
4.142339
 42
0.034844
 10
6.065728
 20
3.984785
 42
0.030604
 10
6.223654
 20
3.839604
 42
0.030703
 10
6.397519
 20
3.71527
 42
0.035751
 10
6.57694
 20
3.620043
 42
0.027564
 10
6.796476
 20
3.537068
 42
0.041661
 10
6.995641
 20
3.49191
 42
0.037434
 10
7.214553
 20
3.47769
 42
0.017535
 10
7.498362
 20
3.490479
 42
0.028857
 10
7.796591
 20
3.531836
 42
0.029763
 10
8.084941
 20
3.607002
 42
0.024377
 10
8.40747
 20
3.729603
 42
0.011142
 10
8.816224
 20
3.91919
 42
0.015962
 10
9.171604
 20
4.108057
 42
0.008874
 10
9.592934
 20
4.35956
 42
0.008843
 10
10.010781
 20
4.629508
 42
0.014128
 10
10.356772
 20
4.876269
 42
0.008512
 10
10.679565
 20
5.129285
 42
0.00643
 10
11.02563
 20
5.417644
 42
0.006505
 10
11.343795
 20
5.69701
 42
0.014954
 10
11.573983
 20
5.917319
 42
0.005353
 10
11.772524
 20
6.123423
 42
0.004018
 10
11.986763
 20
6.35433
 42
0.004062
 10
12.184869
 20
6.574891
 42
0.009301
 10
12.32967
 20
6.745042
 42
0.025258
 10
12.455758
 20
6.915821
 42
0.014028
 10
12.592743
 20
7.135573
 42
0.013962
 10
12.719271
 20
7.366388
 42
0.021875
 10
12.813583
 20
7.57215
 10
13.004348
 20
8.041517
 10
13.149418
 20
7.299008
 42
0.01163
 10
13.225588
 20
6.952206
 42
0.005846
 10
13.337007
 20
6.517946
 42
0.005801
 10
13.462731
 20
6.071406
 42
0.008556
 10
13.584305
 20
5.682745
 42
0.013108
 10
13.716802
 20
5.315773
 42
0.011149
 10
13.875272
 20
4.935666
 42
0.011296
 10
14.035105
 20
4.596058
 42
0.030888
 10
14.16785
 20
4.366472
 42
0.020778
 10
14.305424
 20
4.176808
 42
0.014164
 10
14.476544
 20
3.972578
 42
0.014294
 10
14.653123
 20
3.784671
 42
0.027741
 10
14.806255
 20
3.646964
 42
0.024084
 10
14.97556
 20
3.523835
 42
0.011497
 10
15.203988
 20
3.381374
 42
0.011368
 10
15.449906
 20
3.243201
 42
0.015871
 10
15.676223
 20
3.131795
 42
0.019754
 10
15.927155
 20
3.029763
 42
0.009844
 10
16.252068
 20
2.91956
 42
0.009756
 10
16.593552
 20
2.818474
 42
0.014156
 10
16.898903
 20
2.743755
 42
0.008205
 10
17.169987
 20
2.69014
 42
0.012524
 10
17.406927
 20
2.653407
 42
0.007089
 10
17.60432
 20
2.63069
 42
0.225144
 10
17.649032
 20
2.646632
 42
0.196341
 10
17.666642
 20
2.68856
 42
0.01221
 10
17.664647
 20
2.825952
 42
0.016593
 10
17.652514
 20
2.993892
 42
0.011446
 10
17.628135
 20
3.183027
 10
17.5545
 20
3.666684
 10
17.001378
 20
3.845762
 42
-0.012871
 10
16.766707
 20
3.92847
 42
-0.010377
 10
16.518934
 20
4.028972
 42
-0.010521
 10
16.293935
 20
4.131383
 42
-0.026355
 10
16.135742
 20
4.217984
 42
-0.026581
 10
16.003211
 20
4.309968
 42
-0.018431
 10
15.86331
 20
4.427025
 42
-0.018637
 10
15.736941
 20
4.54977
 42
-0.035989
 10
15.647164
 20
4.658387
 42
-0.028967
 10
15.583696
 20
4.759428
 42
-0.038036
 10
15.538605
 20
4.858555
 42
-0.042
 10
15.515531
 20
4.942939
 42
-0.186245
 10
15.524839
 20
4.992596
 42
-0.076157
 10
15.568781
 20
5.044178
 42
-0.004578
 10
15.724595
 20
5.176493
 42
-0.006775
 10
15.91449
 20
5.330468
 42
-0.004948
 10
16.129396
 20
5.496527
 42
-0.016959
 10
16.398292
 20
5.686094
 42
-0.007911
 10
16.758653
 20
5.914199
 42
-0.007828
 10
17.144664
 20
6.141849
 42
-0.010853
 10
17.498057
 20
6.332844
 42
-0.010962
 10
17.875376
 20
6.515976
 42
-0.006337
 10
18.336597
 20
6.720433
 42
-0.00633
 10
18.804802
 20
6.913949
 42
-0.01056
 10
19.2042
 20
7.063441
 42
-0.007314
 10
19.620154
 20
7.202394
 42
-0.003818
 10
20.142203
 20
7.363962
 42
-0.003796
 10
20.680438
 20
7.521601
 42
-0.005794
 10
21.15
 20
7.649402
 10
22.2075
 20
7.924103
 10
22.732666
 20
8.593902
 42
0.005544
 10
22.934158
 20
8.856838
 42
0.00818
 10
23.104617
 20
9.092399
 42
0.004356
 10
23.242928
 20
9.293988
 42
0.1387
 10
23.261416
 20
9.350345
 42
0.389974
 10
23.230154
 20
9.387286
 42
0.021607
 10
23.066049
 20
9.400707
 42
0.020417
 10
22.825508
 20
9.400122
 42
0.007274
 10
22.48245
 20
9.380268
 42
-0.003147
 10
22.064052
 20
9.352587
 42
-0.000833
 10
21.395472
 20
9.313696
 42
-0.000845
 10
20.634766
 20
9.272008
 42
-0.000869
 10
19.881
 20
9.233291
 42
-0.000698
 10
19.08586
 20
9.194949
 42
-0.000505
 10
18.199455
 20
9.154342
 42
-0.00051
 10
17.3571
 20
9.117466
 42
-0.00111
 10
16.710793
 20
9.09127
 42
-0.001378
 10
15.804492
 20
9.059052
 42
-0.03265
 10
15.549061
 20
9.067357
 42
-0.325117
 10
15.489215
 20
9.120532
 42
-0.242395
 10
15.512689
 20
9.208791
 42
-0.038481
 10
15.605824
 20
9.297012
 42
-0.007636
 10
15.786447
 20
9.438972
 42
-0.008043
 10
16.002489
 20
9.598071
 42
-0.007407
 10
16.229496
 20
9.754665
 42
-0.009848
 10
16.489479
 20
9.921069
 42
-0.005756
 10
16.807092
 20
10.110656
 42
-0.005753
 10
17.129477
 20
10.293162
 42
-0.009714
 10
17.404338
 20
10.437726
 42
-0.002794
 10
17.641898
 20
10.555182
 42
-0.004265
 10
17.849436
 20
10.654173
 42
-0.001596
 10
18.028619
 20
10.737076
 42
-0.107954
 10
18.061232
 20
10.7442
 42
-0.21855
 10
18.086266
 20
10.732708
 42
-0.012327
 10
18.141653
 20
10.664978
 42
-0.017076
 10
18.20474
 20
10.577845
 42
-0.011536
 10
18.270896
 20
10.474509
 10
18.434905
 20
10.204818
 10
18.523452
 20
10.437717
 42
0.018387
 10
18.557353
 20
10.537814
 42
0.015495
 10
18.585989
 20
10.645984
 42
0.015775
 10
18.605952
 20
10.746389
 42
0.041202
 10
18.612
 20
10.819665
 42
-0.209059
 10
18.648641
 20
10.903468
 42
-0.059933
 10
18.766045
 20
10.988479
 42
-0.034999
 10
18.97144
 20
11.084427
 42
-0.009412
 10
19.30995
 20
11.207312
 42
0.012726
 10
19.591716
 20
11.311716
 42
0.01365
 10
19.861211
 20
11.428078
 42
0.013289
 10
20.086674
 20
11.540197
 42
0.060688
 10
20.206483
 20
11.623804
 42
0.035258
 10
20.294028
 20
11.714123
 42
0.016897
 10
20.393798
 20
11.841217
 42
0.016659
 10
20.489436
 20
11.981484
 42
0.022814
 10
20.56529
 20
12.114123
 10
20.725514
 20
12.426546
 10
20.093882
 20
12.942671
 42
0.007364
 10
19.82553
 20
13.155436
 42
0.006629
 10
19.54155
 20
13.367927
 42
0.006658
 10
19.281854
 20
13.551689
 42
0.020783
 10
19.100575
 20
13.665579
 42
0.024426
 10
18.944811
 20
13.744807
 42
0.021726
 10
18.775927
 20
13.811919
 42
0.022308
 10
18.618634
 20
13.858891
 42
0.060389
 10
18.503273
 20
13.873381
 42
0.047936
 10
18.397553
 20
13.863683
 42
0.028141
 10
18.274177
 20
13.833028
 42
0.027947
 10
18.153146
 20
13.788066
 42
0.042143
 10
18.05425
 20
13.734577
 42
0.050495
 10
17.961433
 20
13.659375
 42
0.024465
 10
17.8583
 20
13.546431
 42
0.023976
 10
17.761439
 20
13.417191
 42
0.031698
 10
17.686851
 20
13.290427
 42
0.016986
 10
17.624171
 20
13.155364
 42
0.012273
 10
17.56321
 20
13.000942
 42
0.012421
 10
17.512474
 20
12.851161
 42
0.026208
 10
17.482205
 20
12.7323
 42
0.060733
 10
17.471661
 20
12.593163
 42
0.042845
 10
17.492217
 20
12.437525
 42
0.035572
 10
17.544712
 20
12.260363
 42
0.02054
 10
17.631389
 20
12.0555
 10
17.831217
 20
11.6325
 10
17.203837
 20
11.316656
 42
0.009247
 10
16.925364
 20
11.169947
 42
0.005865
 10
16.606185
 20
10.989265
 42
0.005889
 10
16.296864
 20
10.804431
 42
0.010833
 10
16.050278
 20
10.64566
 42
0.015761
 10
15.807147
 20
10.470154
 42
0.007658
 10
15.507317
 20
10.231596
 42
0.007588
 10
15.20251
 20
9.973518
 42
0.010855
 10
14.940789
 20
9.734804
 42
0.016835
 10
14.687549
 20
9.47674
 42
0.010547
 10
14.408171
 20
9.158978
 42
0.010584
 10
14.145989
 20
8.83406
 42
0.018949
 10
13.946739
 20
8.554895
 42
-0.002366
 10
13.673728
 20
8.144242
 42
-0.07271
 10
13.591401
 20
8.053465
 42
-0.572414
 10
13.549264
 20
8.068882
 42
-0.045004
 10
13.535897
 20
8.216495
 42
0.020115
 10
13.52889
 20
8.389066
 42
0.002655
 10
13.497399
 20
8.753837
 42
0.003077
 10
13.455077
 20
9.186167
 42
0.002576
 10
13.404984
 20
9.6444
 42
0.006237
 10
13.342793
 20
10.133353
 42
0.004996
 10
13.26401
 20
10.658265
 42
0.005052
 10
13.181372
 20
11.142373
 42
0.012776
 10
13.108766
 20
11.492056
 42
0.011271
 10
13.026833
 20
11.809204
 42
0.006835
 10
12.916362
 20
12.180719
 42
0.006846
 10
12.796582
 20
12.546585
 42
0.011973
 10
12.686046
 20
12.845656
 42
0.01376
 10
12.559241
 20
13.141046
 42
0.007547
 10
12.38864
 20
13.495934
 42
0.007517
 10
12.204458
 20
13.851247
 42
0.011904
 10
12.034934
 20
14.14935
 42
0.006566
 10
11.879468
 20
14.400654
 42
0.010253
 10
11.738412
 20
14.612403
 42
0.004765
 10
11.61472
 20
14.786515
 42
0.240371
  0
LWPOLYLINE
  5
D74
330
1D
100
AcDbEntity
  8
0
100
AcDbPolyline
 90
       22
 70
     1
 43
0.0
 10
18.070782
 20
12.7746
 42
-0.086279
 10
18.147246
 20
12.761306
 42
-0.014009
 10
18.288217
 20
12.706259
 42
-0.015091
 10
18.452062
 20
12.631022
 42
-0.012771
 10
18.620596
 20
12.54195
 42
-0.008675
 10
18.779356
 20
12.449125
 42
-0.013317
 10
18.913173
 20
12.362772
 42
-0.007715
 10
19.020543
 20
12.286906
 42
-0.239038
 10
19.034914
 20
12.258683
 42
-0.26018
 10
19.020678
 20
12.233075
 42
-0.013853
 10
18.937141
 20
12.184504
 42
-0.018838
 10
18.829576
 20
12.131041
 42
-0.012327
 10
18.701948
 20
12.077239
 10
18.368896
 20
11.946413
 10
18.152048
 20
12.274093
 42
-0.011191
 10
18.069007
 20
12.405894
 42
-0.01436
 10
17.998899
 20
12.5309
 42
-0.012209
 10
17.946373
 20
12.637457
 42
-0.108819
 10
17.9352
 20
12.688186
 42
-0.154542
 10
17.945636
 20
12.721143
 42
-0.097821
 10
17.975027
 20
12.749216
 42
-0.08024
 10
18.018939
 20
12.76816
 42
-0.061869
  0
LWPOLYLINE
  5
D8C
330
1D
100
AcDbEntity
  8
0
100
AcDbPolyline
 90
       46
 70
     1
 43
0.0
 10
18.189
 20
7.93621
 10
18.9927
 20
7.945
 10
18.169023
 20
7.528271
 42
0.007287
 10
17.811836
 20
7.340969
 42
0.005274
 10
17.419211
 20
7.122338
 42
0.005329
 10
17.050576
 20
6.9067
 42
0.011559
 10
16.773123
 20
6.731566
 42
0.013659
 10
16.522324
 20
6.554969
 42
0.008798
 10
16.241082
 20
6.337413
 42
0.008843
 10
15.973288
 20
6.114726
 42
0.016424
 10
15.765467
 20
5.923352
 42
0.015608
 10
15.588819
 20
5.738428
 42
0.014178
 10
15.418106
 20
5.536957
 42
0.014359
 10
15.27572
 20
5.348047
 42
0.043552
 10
15.194417
 20
5.209321
 42
0.018238
 10
15.142506
 20
5.088761
 42
0.017409
 10
15.098638
 20
4.962872
 42
0.017653
 10
15.06774
 20
4.849104
 42
0.057535
 10
15.0588
 20
4.771669
 42
-0.158151
 10
15.040979
 20
4.716736
 42
-0.353066
 10
15.001303
 20
4.705986
 42
-0.079789
 10
14.923705
 20
4.756105
 42
-0.009268
 10
14.77204
 20
4.897747
 42
-0.026187
 10
14.64683
 20
5.032513
 42
-0.014272
 10
14.506967
 20
5.209869
 42
-0.014187
 10
14.374713
 20
5.398759
 42
-0.021833
 10
14.272348
 20
5.569993
 42
-0.022672
 10
14.174764
 20
5.772105
 42
-0.008233
 10
14.054296
 20
6.066845
 42
-0.008144
 10
13.93286
 20
6.394173
 42
-0.009619
 10
13.829056
 20
6.707698
 42
-0.005513
 10
13.743396
 20
6.995309
 42
-0.008758
 10
13.67713
 20
7.243488
 42
-0.003414
 10
13.626076
 20
7.455246
 42
-0.25938
 10
13.635345
 20
7.487745
 42
-0.118982
 10
13.666017
 20
7.506489
 42
-0.003628
 10
13.809
 20
7.551415
 42
-0.006968
 10
13.979632
 20
7.601082
 42
-0.004741
 10
14.175047
 20
7.653031
 42
-0.028872
 10
14.453735
 20
7.707385
 42
-0.006695
 10
14.927948
 20
7.765288
 42
-0.006888
 10
15.476582
 20
7.817198
 42
-0.006694
 10
16.0317
 20
7.854544
 42
-0.002181
 10
16.608841
 20
7.883092
 42
-0.001806
 10
17.223767
 20
7.908595
 42
-0.001823
 10
17.787765
 20
7.927887
 42
-0.004903
  0
LWPOLYLINE
  5
DBC
330
1D
100
AcDbEntity
  8
0
100
AcDbPolyline
 90
       48
 70
     1
 43
0.0
 10
21.879784
 20
12.665216
 42
0.37432
 10
21.84873
 20
12.667364
 42
0.010955
 10
21.737398
 20
12.579304
 42
0.016926
 10
21.604356
 20
12.461444
 42
0.01021
 10
21.454446
 20
12.31337
 42
0.026482
 10
21.289521
 20
12.124641
 42
0.015165
 10
21.110091
 20
11.88107
 42
0.01512
 10
20.944067
 20
11.624509
 42
0.024243
 10
20.820076
 20
11.395169
 42
0.0157
 10
20.719769
 20
11.167972
 42
0.012737
 10
20.626225
 20
10.91861
 42
0.012935
 10
20.551759
 20
10.684165
 42
0.032309
 10
20.513072
 20
10.508767
 42
0.025038
 10
20.494234
 20
10.325485
 42
0.049501
 10
20.501034
 20
10.179541
 42
0.05798
 10
20.534711
 20
10.053612
 42
0.050767
 10
20.597491
 20
9.932609
 42
0.044677
 10
20.675992
 20
9.833388
 42
0.085255
 10
20.75718
 20
9.772678
 42
0.09073
 10
20.850398
 20
9.744759
 42
0.056316
 10
20.964947
 20
9.745042
 42
0.085284
 10
21.086998
 20
9.780819
 42
0.080281
 10
21.193007
 20
9.855784
 42
0.055333
 10
21.298508
 20
9.985051
 42
0.018679
 10
21.422974
 20
10.1943
 42
0.005328
 10
21.511489
 20
10.360813
 42
0.007534
 10
21.586468
 20
10.511061
 42
0.004653
 10
21.646164
 20
10.638359
 42
0.099573
 10
21.655624
 20
10.678635
 42
0.353865
 10
21.640148
 20
10.699076
 42
0.049195
 10
21.583659
 20
10.707281
 42
0.038652
 10
21.503482
 20
10.704767
 42
0.022202
 10
21.407862
 20
10.690022
 42
-0.029759
 10
21.267032
 20
10.670479
 42
-0.152654
 10
21.191054
 20
10.687834
 42
-0.164688
 10
21.141665
 20
10.74451
 42
-0.03613
 10
21.100667
 20
10.869002
 42
-0.053299
 10
21.085267
 20
10.978757
 42
-0.025329
 10
21.087801
 20
11.121622
 42
-0.024768
 10
21.105639
 20
11.272207
 42
-0.0321
 10
21.137551
 20
11.407514
 42
-0.041648
 10
21.197259
 20
11.55742
 42
-0.015132
 10
21.305549
 20
11.759203
 42
-0.014883
 10
21.437946
 20
11.973905
 42
-0.01719
 10
21.576981
 20
12.170015
 42
0.009757
 10
21.706228
 20
12.346693
 42
0.015814
 10
21.808279
 20
12.502308
 42
0.009642
 10
21.884345
 20
12.632272
 42
0.335736
  0
LWPOLYLINE
  5
DEE
330
1D
100
AcDbEntity
  8
0
100
AcDbPolyline
 90
       92
 70
     1
 43
0.0
 10
10.741362
 20
10.3212
 42
0.117185
 10
10.66848
 20
10.303881
 42
0.036033
 10
10.570801
 20
10.245509
 42
0.033841
 10
10.467354
 20
10.162139
 42
0.031334
 10
10.373223
 20
10.063527
 42
0.046838
 10
10.277823
 20
9.92583
 42
0.017069
 10
10.168524
 20
9.714938
 42
0.01675
 10
10.063969
 20
9.474722
 42
0.019212
 10
9.980841
 20
9.238677
 42
0.008502
 10
9.909982
 20
8.99518
 42
0.006948
 10
9.842267
 20
8.732491
 42
0.007029
 10
9.786714
 20
8.48902
 42
0.018274
 10
9.755639
 20
8.31195
 42
-0.013314
 10
9.732862
 20
8.174152
 42
-0.021293
 10
9.705322
 20
8.058111
 42
-0.016697
 10
9.676758
 20
7.968626
 42
-0.318818
 10
9.654051
 20
7.952717
 42
-0.260051
 10
9.627277
 20
7.967867
 42
-0.011403
 10
9.571677
 20
8.06403
 42
-0.016854
 10
9.509944
 20
8.186254
 42
-0.010964
 10
9.446583
 20
8.331209
 42
0.03426
 10
9.365871
 20
8.494674
 42
0.021737
 10
9.251099
 20
8.673498
 42
0.021815
 10
9.122474
 20
8.840021
 42
0.037254
 10
8.999489
 20
8.965392
 42
0.029797
 10
8.873497
 20
9.063369
 42
0.029363
 10
8.736151
 20
9.146198
 42
0.030705
 10
8.607495
 20
9.20405
 42
0.090542
 10
8.512468
 20
9.2214
 42
0.074112
 10
8.425895
 20
9.208497
 42
0.041835
 10
8.327094
 20
9.169088
 42
0.040678
 10
8.231942
 20
9.111472
 42
0.052412
 10
8.155862
 20
9.043318
 42
0.063955
 10
8.086191
 20
8.943172
 42
0.04768
 10
8.035619
 20
8.818301
 42
0.04218
 10
8.00489
 20
8.670659
 42
0.030234
 10
7.9947
 20
8.5023
 42
0.030234
 10
8.00489
 20
8.333941
 42
0.04218
 10
8.035619
 20
8.186299
 42
0.04768
 10
8.086191
 20
8.061428
 42
0.063955
 10
8.155862
 20
7.961282
 42
0.060352
 10
8.235493
 20
7.892187
 42
0.043153
 10
8.338663
 20
7.834767
 42
0.04328
 10
8.449712
 20
7.796095
 42
0.062231
 10
8.552915
 20
7.7832
 42
0.057373
 10
8.656473
 20
7.795122
 42
0.054498
 10
8.75653
 20
7.830306
 42
0.05635
 10
8.843412
 20
7.884727
 42
0.072025
 10
8.90805
 20
7.953445
 42
-0.146917
 10
8.986646
 20
8.015463
 42
-0.316915
 10
9.057862
 20
7.998223
 42
-0.063872
 10
9.147137
 20
7.865437
 42
-0.004098
 10
9.353302
 20
7.445251
 42
0.010215
 10
9.491882
 20
7.171338
 42
0.025818
 10
9.606734
 20
6.979921
 42
0.037026
 10
9.69467
 20
6.868026
 42
0.513261
 10
9.738056
 20
6.873156
 42
0.070516
 10
9.765786
 20
6.945965
 42
0.005674
 10
9.809019
 20
7.147071
 42
0.007569
 10
9.854422
 20
7.389327
 42
0.005739
 10
9.897138
 20
7.6563
 42
-0.012992
 10
9.947072
 20
7.941782
 42
-0.011086
 10
10.014149
 20
8.239908
 42
-0.01123
 10
10.087282
 20
8.508389
 42
-0.030898
 10
10.154579
 20
8.69265
 42
-0.021476
 10
10.243831
 20
8.875128
 42
-0.075058
 10
10.322662
 20
8.979327
 42
-0.111033
 10
10.410462
 20
9.033414
 42
-0.082929
 10
10.52295
 20
9.0522
 42
-0.036813
 10
10.607652
 20
9.045955
 42
-0.040879
 10
10.687514
 20
9.027349
 42
-0.044863
 10
10.751821
 20
9.000139
 42
-0.132589
 10
10.7865
 20
8.9676
 42
0.056181
 10
10.811918
 20
8.935239
 42
0.049786
 10
10.844884
 20
8.907851
 42
0.052683
 10
10.880042
 20
8.889167
 42
0.096099
 10
10.911832
 20
8.883
 42
0.238448
 10
10.945993
 20
8.900274
 42
0.029241
 10
10.993014
 20
8.972669
 42
0.029499
 10
11.041714
 20
9.071316
 42
0.020208
 10
11.085622
 20
9.188258
 42
0.035028
 10
11.120759
 20
9.326586
 42
0.022667
 10
11.142735
 20
9.490353
 42
0.022788
 10
11.149657
 20
9.65314
 42
0.039472
 10
11.138577
 20
9.788006
 42
0.023311
 10
11.112999
 20
9.909506
 42
0.02172
 10
11.075729
 20
10.03105
 42
0.022284
 10
11.033115
 20
10.136052
 42
0.065753
 10
10.991735
 20
10.201849
 42
0.064092
 10
10.942699
 20
10.247536
 42
0.044335
 10
10.877329
 20
10.286141
 42
0.044502
 10
10.80656
 20
10.312446
 42
0.066834
  0
LWPOLYLINE
  5
E4C
330
1D
100
AcDbEntity
  8
0
100
AcDbPolyline
 90
       76
 70
     1
 43
0.0
 10
28.092566
 20
9.3906
 42
0.079281
 10
28.019314
 20
9.378911
 42
0.02925
 10
27.92169
 20
9.34049
 42
0.028109
 10
27.818129
 20
9.285301
 42
0.030179
 10
27.723952
 20
9.220013
 42
0.031691
 10
27.628278
 20
9.134414
 42
0.016333
 10
27.519312
 20
9.016243
 42
0.016168
 10
27.414747
 20
8.886909
 42
0.023502
 10
27.331843
 20
8.765877
 42
0.028039
 10
27.264762
 20
8.642357
 42
0.024076
 10
27.208078
 20
8.505743
 42
0.02479
 10
27.168715
 20
8.376478
 42
0.061583
 10
27.1566
 20
8.278488
 42
0.052893
 10
27.166371
 20
8.186376
 42
0.029466
 10
27.196534
 20
8.077512
 42
0.02907
 10
27.240483
 20
7.969777
 42
0.041414
 10
27.292547
 20
7.880557
 42
-0.027629
 10
27.367066
 20
7.760571
 42
-0.153767
 10
27.381604
 20
7.687115
 42
-0.140332
 10
27.352083
 20
7.615013
 42
-0.021688
 10
27.250247
 20
7.49673
 42
0.016629
 10
27.181996
 20
7.419059
 42
0.020918
 10
27.12436
 20
7.342586
 42
0.019577
 10
27.082076
 20
7.275867
 42
0.132193
 10
27.072
 20
7.238422
 42
0.331734
 10
27.089142
 20
7.215429
 42
0.055218
 10
27.146878
 20
7.204969
 42
0.042093
 10
27.229174
 20
7.206222
 42
0.024512
 10
27.326902
 20
7.22083
 42
0.047513
 10
27.454519
 20
7.25924
 42
0.014926
 10
27.637072
 20
7.340141
 42
0.014762
 10
27.836526
 20
7.4431
 42
0.015834
 10
28.024852
 20
7.555405
 42
0.018611
 10
28.215051
 20
7.687378
 42
0.012874
 10
28.420441
 20
7.849954
 42
0.013001
 10
28.609984
 20
8.016637
 42
0.025857
 10
28.749384
 20
8.159885
 42
0.019706
 10
28.862935
 20
8.300111
 42
0.043794
 10
28.935151
 20
8.416917
 42
0.063341
 10
28.966885
 20
8.506714
 42
0.254962
 10
28.951029
 20
8.560611
 42
0.19409
 10
28.898895
 20
8.582775
 42
0.068012
 10
28.816511
 20
8.573072
 42
0.049051
 10
28.710444
 20
8.534224
 42
0.0246
 10
28.584945
 20
8.465941
 42
-0.031624
 10
28.457888
 20
8.399105
 42
-0.024822
 10
28.31281
 20
8.342602
 42
-0.025424
 10
28.172126
 20
8.303526
 42
-0.054745
 10
28.060488
 20
8.291116
 42
-0.031934
 10
27.956913
 20
8.2976
 42
-0.022887
 10
27.842578
 20
8.317477
 42
-0.023232
 10
27.735012
 20
8.346594
 42
-0.045179
 10
27.653176
 20
8.3813
 42
-0.03237
 10
27.56759
 20
8.434496
 42
-0.170344
 10
27.536256
 20
8.479088
 42
-0.198499
 10
27.542149
 20
8.52929
 42
-0.046028
 10
27.591205
 20
8.600883
 42
-0.093332
 10
27.659758
 20
8.657687
 42
-0.0821
 10
27.747395
 20
8.688884
 42
-0.059856
 10
27.863629
 20
8.695701
 42
-0.0244
 10
28.021283
 20
8.678325
 42
0.019159
 10
28.209672
 20
8.655561
 42
0.118409
 10
28.305369
 20
8.670395
 42
0.161375
 10
28.368907
 20
8.724951
 42
0.044527
 10
28.427216
 20
8.844949
 42
0.004343
 10
28.459006
 20
8.930801
 42
0.006069
 10
28.485823
 20
9.008132
 42
0.003806
 10
28.507025
 20
9.073404
 42
0.076763
 10
28.5102
 20
9.093965
 42
0.160578
 10
28.504236
 20
9.112055
 42
0.011308
 10
28.471148
 20
9.154734
 42
0.015074
 10
28.428184
 20
9.204492
 42
0.01075
 10
28.377257
 20
9.257657
 42
0.049309
 10
28.315208
 20
9.308542
 42
0.037879
 10
28.23879
 20
9.351548
 42
0.038893
 10
28.160331
 20
9.381003
 42
0.070463
  0
LWPOLYLINE
  5
E9A
330
1D
100
AcDbEntity
  8
0
100
AcDbPolyline
 90
       48
 70
     1
 43
0.0
 10
5.230802
 20
8.46
 42
0.154417
 10
5.176784
 20
8.44291
 42
0.016322
 10
5.069871
 20
8.362397
 42
0.018946
 10
4.946416
 20
8.254989
 42
0.01412
 10
4.818324
 20
8.127733
 42
0.026316
 10
4.680791
 20
7.967014
 42
0.014244
 10
4.5281
 20
7.756139
 42
0.014154
 10
4.384475
 20
7.532023
 42
0.021652
 10
4.274182
 20
7.32932
 42
0.017437
 10
4.1836
 20
7.126561
 42
0.014011
 10
4.100051
 20
6.902729
 42
0.014242
 10
4.034482
 20
6.691324
 42
0.034748
 10
4.001655
 20
6.531683
 42
0.032188
 10
3.991925
 20
6.390836
 42
0.027769
 10
3.999471
 20
6.242695
 42
0.02877
 10
4.021649
 20
6.108632
 42
0.067585
 10
4.056987
 20
6.013725
 42
0.05921
 10
4.116023
 20
5.9292
 42
0.096184
 10
4.185467
 20
5.876292
 42
0.092627
 10
4.271619
 20
5.852026
 42
0.051604
 10
4.381007
 20
5.85348
 42
0.077559
 10
4.488786
 20
5.883449
 42
0.054692
 10
4.597128
 20
5.947702
 42
0.04817
 10
4.701741
 20
6.043384
 42
0.035571
 10
4.798317
 20
6.167161
 42
0.021016
 10
4.872222
 20
6.287853
 42
0.021869
 10
4.934682
 20
6.412761
 42
0.022204
 10
4.97894
 20
6.525015
 42
0.082978
 10
4.9914
 20
6.599579
 42
0.087045
 10
4.979896
 20
6.665159
 42
0.185073
 10
4.946701
 20
6.703521
 42
0.13316
 10
4.887171
 20
6.717253
 42
0.037727
 10
4.791859
 20
6.706392
 42
-0.050625
 10
4.700465
 20
6.698354
 42
-0.095034
 10
4.628097
 20
6.713246
 42
-0.112113
 10
4.574193
 20
6.751383
 42
-0.091594
 10
4.537237
 20
6.811783
 42
-0.082003
 10
4.521632
 20
6.887686
 42
-0.025967
 10
4.523116
 20
7.003686
 42
-0.025144
 10
4.538281
 20
7.134986
 42
-0.02548
 10
4.566511
 20
7.26351
 42
-0.044743
 10
4.62195
 20
7.412333
 42
-0.016426
 10
4.725423
 20
7.611638
 42
-0.01613
 10
4.853381
 20
7.823196
 42
-0.018632
 10
4.989033
 20
8.01585
 42
0.012939
 10
5.111998
 20
8.18633
 42
0.025132
 10
5.199547
 20
8.329531
 42
0.030223
 10
5.248473
 20
8.43398
 42
0.529678
  0
LWPOLYLINE
  5
ECC
330
1D
100
AcDbEntity
  8
0
100
AcDbPolyline
 90
       52
 70
     1
 43
0.0
 10
20.598035
 20
6.5988
 42
0.170306
 10
20.569548
 20
6.588807
 42
0.003855
 10
20.455925
 20
6.496462
 42
0.008219
 10
20.324097
 20
6.383928
 42
0.005417
 10
20.176067
 20
6.250415
 42
0.032783
 10
20.005411
 20
6.071058
 42
0.018325
 10
19.821025
 20
5.83267
 42
0.017829
 10
19.645577
 20
5.568382
 42
0.021635
 10
19.501157
 20
5.308449
 42
0.01486
 10
19.357667
 20
4.998974
 42
0.030983
 10
19.268449
 20
4.748742
 42
0.036831
 10
19.220328
 20
4.519505
 42
0.033334
 10
19.2042
 20
4.277853
 42
0.021317
 10
19.211654
 20
4.103103
 42
0.025273
 10
19.234021
 20
3.939391
 42
0.025342
 10
19.266362
 20
3.805498
 42
0.125078
 10
19.30572
 20
3.73932
 42
0.071569
 10
19.357719
 20
3.700401
 42
0.038812
 10
19.430725
 20
3.667622
 42
0.037716
 10
19.51178
 20
3.645272
 42
0.048451
 10
19.588708
 20
3.6378
 42
0.068953
 10
19.668185
 20
3.648813
 42
0.042027
 10
19.757051
 20
3.682199
 42
0.041352
 10
19.841259
 20
3.731092
 42
0.056694
 10
19.906962
 20
3.788946
 42
0.038308
 10
19.9685
 20
3.868404
 42
0.014768
 10
20.041791
 20
3.987178
 42
0.01452
 10
20.114025
 20
4.12121
 42
0.017373
 10
20.173874
 20
4.251529
 42
0.00455
 10
20.223725
 20
4.37396
 42
0.006408
 10
20.265775
 20
4.484084
 42
0.003932
 10
20.299128
 20
4.577159
 42
0.084253
 10
20.304
 20
4.605868
 42
0.391893
 10
20.290885
 20
4.620031
 42
0.026258
 10
20.230639
 20
4.621495
 42
0.02675
 10
20.15003
 20
4.614896
 42
0.015556
 10
20.054262
 20
4.598822
 42
-0.029209
 10
19.914911
 20
4.579328
 42
-0.146608
 10
19.838747
 20
4.595605
 42
-0.166684
 10
19.789462
 20
4.649715
 42
-0.040657
 10
19.750118
 20
4.765645
 42
-0.056716
 10
19.736198
 20
4.870015
 42
-0.026337
 10
19.740766
 20
5.006827
 42
-0.025684
 10
19.760782
 20
5.151585
 42
-0.032517
 10
19.794681
 20
5.282292
 42
-0.040061
 10
19.857598
 20
5.43158
 42
-0.012684
 10
19.974499
 20
5.643399
 42
-0.012574
 10
20.117334
 20
5.873873
 42
-0.013657
 10
20.26785
 20
6.090485
 42
0.005272
 10
20.408249
 20
6.285477
 42
0.009356
 10
20.519199
 20
6.449483
 42
0.004343
 10
20.605627
 20
6.585101
 42
0.58911
  0
LWPOLYLINE
  5
F02
330
1D
100
AcDbEntity
  8
0
100
AcDbPolyline
 90
       72
 70
     1
 43
0.0
 10
13.207735
 20
5.2452
 42
0.078898
 10
13.139184
 20
5.234315
 42
0.04144
 10
13.05942
 20
5.200801
 42
0.039909
 10
12.981478
 20
5.151894
 42
0.048808
 10
12.917838
 20
5.094054
 42
0.036895
 10
12.856812
 20
5.015714
 42
0.015103
 10
12.785383
 20
4.901237
 42
0.014847
 10
12.715756
 20
4.773163
 42
0.018398
 10
12.659008
 20
4.649904
 42
0.023186
 10
12.60493
 20
4.500975
 42
0.008553
 10
12.542127
 20
4.286487
 42
0.008456
 10
12.481438
 20
4.049624
 42
0.010067
 10
12.432496
 20
3.824192
 10
12.328029
 20
3.291484
 10
12.174986
 20
3.633316
 42
0.023732
 10
12.100923
 20
3.779698
 42
0.01673
 10
12.004617
 20
3.937017
 42
0.01693
 10
11.902145
 20
4.081582
 42
0.03374
 10
11.809917
 20
4.187173
 42
0.042527
 10
11.713661
 20
4.268314
 42
0.03627
 10
11.599959
 20
4.336917
 42
0.037855
 10
11.486649
 20
4.384118
 42
0.079927
 10
11.392904
 20
4.3992
 42
0.054388
 10
11.306653
 20
4.38979
 42
0.043017
 10
11.217048
 20
4.361746
 42
0.044385
 10
11.137529
 20
4.320548
 42
0.077995
 10
11.082099
 20
4.271696
 42
0.08642
 10
11.040702
 20
4.199448
 42
0.02742
 10
11.004703
 20
4.080151
 42
0.026453
 10
10.97848
 20
3.940305
 42
0.026569
 10
10.96722
 20
3.798677
 42
0.026879
 10
10.971856
 20
3.630304
 42
0.05972
 10
10.997381
 20
3.504757
 42
0.07666
 10
11.046194
 20
3.409347
 42
0.078539
 10
11.12115
 20
3.333981
 42
0.046265
 10
11.197501
 20
3.288327
 42
0.030458
 10
11.292404
 20
3.249809
 42
0.030618
 10
11.39022
 20
3.223428
 42
0.050598
 10
11.475266
 20
3.2148
 42
0.06672
 10
11.554295
 20
3.225393
 42
0.054562
 10
11.633693
 20
3.256692
 42
0.056369
 10
11.70156
 20
3.302837
 42
0.087936
 10
11.746201
 20
3.357411
 42
-0.281216
 10
11.801502
 20
3.388512
 42
-0.218235
 10
11.864519
 20
3.356843
 42
-0.052
 10
11.952243
 20
3.220424
 42
-0.006982
 10
12.101988
 20
2.913261
 10
12.377965
 20
2.3265
 10
12.529652
 20
3.025046
 42
-0.007573
 10
12.595946
 20
3.3095
 42
-0.008006
 10
12.669688
 20
3.58656
 42
-0.007707
 10
12.740675
 20
3.823098
 42
-0.035713
 10
12.793365
 20
3.955646
 42
-0.046005
 10
12.858904
 20
4.06456
 42
-0.086621
 10
12.932763
 20
4.135372
 42
-0.091599
 10
13.023258
 20
4.174579
 42
-0.056598
 10
13.138802
 20
4.1877
 42
0.049237
 10
13.234064
 20
4.197104
 42
0.046852
 10
13.327324
 20
4.224977
 42
0.050412
 10
13.405106
 20
4.265947
 42
0.105237
 10
13.452811
 20
4.3146
 42
0.061012
 10
13.483884
 20
4.379929
 42
0.02537
 10
13.510114
 20
4.474198
 42
0.024643
 10
13.528287
 20
4.579201
 42
0.029173
 10
13.534705
 20
4.679712
 42
0.031302
 10
13.528802
 20
4.782894
 42
0.022947
 10
13.509894
 20
4.896018
 42
0.02334
 10
13.481946
 20
5.001857
 42
0.046673
 10
13.448423
 20
5.081562
 42
0.065438
 10
13.403548
 20
5.144145
 42
0.055289
 10
13.341596
 20
5.197131
 42
0.057605
 10
13.272788
 20
5.233129
 42
0.09199
  0
LWPOLYLINE
  5
F4C
330
1D
100
AcDbEntity
  8
0
100
AcDbPolyline
 90
       66
 70
     1
 43
0.0
 10
9.1791
 20
2.58159
 42
0.763131
 10
9.169245
 20
2.566774
 42
0.044506
 10
9.233561
 20
2.505015
 42
0.015682
 10
9.385766
 20
2.390551
 42
0.006173
 10
9.6021
 20
2.2422
 42
0.007412
 10
9.86409
 20
2.072818
 42
0.005288
 10
10.162159
 20
1.890673
 42
0.00534
 10
10.450112
 20
1.723011
 42
0.011357
 10
10.677084
 20
1.600813
 42
0.012999
 10
10.908836
 20
1.490241
 42
0.006225
 10
11.211725
 20
1.359774
 42
0.006166
 10
11.531493
 20
1.231334
 42
0.008749
 10
11.819184
 20
1.125629
 42
0.016278
 10
12.214943
 20
1.002312
 42
0.033502
 10
12.5326
 20
0.937084
 42
0.027635
 10
12.892661
 20
0.90811
 42
0.007962
 10
13.4514
 20
0.903017
 42
0.009913
 10
13.873218
 20
0.914255
 42
0.011358
 10
14.275488
 20
0.942127
 42
0.012069
 10
14.622441
 20
0.982565
 42
0.033621
 10
14.862299
 20
1.033032
 10
15.300297
 20
1.156423
 10
15.440714
 20
0.788746
 42
0.02663
 10
15.505965
 20
0.641866
 42
0.02757
 10
15.585789
 20
0.504506
 42
0.028641
 10
15.667824
 20
0.394053
 42
0.096123
 10
15.737404
 20
0.337434
 42
0.039566
 10
15.810712
 20
0.305372
 42
0.023381
 10
15.902386
 20
0.278368
 42
0.0233
 10
15.997029
 20
0.25986
 42
0.036647
 10
16.079599
 20
0.2538
 42
0.105526
 10
16.169251
 20
0.272934
 42
0.034474
 10
16.289232
 20
0.336849
 42
0.032587
 10
16.41641
 20
0.428324
 42
0.031503
 10
16.53216
 20
0.536519
 42
0.031356
 10
16.641405
 20
0.667959
 42
0.021422
 10
16.749138
 20
0.829589
 42
0.021645
 10
16.839903
 20
0.995027
 42
0.040204
 10
16.896382
 20
1.137196
 42
0.028016
 10
16.933119
 20
1.286176
 42
0.036672
 10
16.948849
 20
1.425484
 42
0.040973
 10
16.94348
 20
1.550917
 42
0.059733
 10
16.916777
 20
1.658177
 42
0.059332
 10
16.867488
 20
1.752427
 42
0.098827
 10
16.803615
 20
1.814787
 42
0.09438
 10
16.718472
 20
1.849606
 42
0.050313
 10
16.604844
 20
1.860944
 42
0.032972
 10
16.465584
 20
1.851598
 42
0.004757
 10
16.18345
 20
1.811136
 42
0.005378
 10
15.850311
 20
1.756447
 42
0.004576
 10
15.49995
 20
1.691744
 42
-0.013485
 10
15.104046
 20
1.625902
 42
-0.009201
 10
14.651078
 20
1.571545
 42
-0.009271
 10
14.20538
 20
1.534697
 42
-0.015988
 10
13.833395
 20
1.5228
 42
-0.016084
 10
13.458814
 20
1.534853
 42
-0.009309
 10
13.009729
 20
1.572189
 42
-0.009216
 10
12.551157
 20
1.627483
 42
-0.013053
 10
12.145643
 20
1.694812
 42
-0.012123
 10
11.735754
 20
1.784271
 42
-0.006575
 10
11.236187
 20
1.913044
 42
-0.006546
 10
10.730962
 20
2.057515
 42
-0.010285
 10
10.301299
 20
2.196182
 42
0.00021
 10
9.923961
 20
2.326414
 42
0.000273
 10
9.578541
 20
2.445256
 42
0.000202
 10
9.288889
 20
2.544603
 42
0.002531
  0
LWPOLYLINE
  5
F90
330
1D
100
AcDbEntity
  8
0
100
AcDbPolyline
 90
       20
 70
     1
 43
0.0
 10
16.161415
 20
1.280778
 42
-0.034673
 10
16.225094
 20
1.192567
 42
-0.030645
 10
16.278924
 20
1.092774
 42
-0.031919
 10
16.316188
 20
0.996586
 42
-0.076595
 10
16.3278
 20
0.921228
 42
-0.0237
 10
16.324895
 20
0.859976
 42
-0.037818
 10
16.316013
 20
0.808349
 42
-0.04408
 10
16.303205
 20
0.77145
 42
-0.295313
 10
16.287673
 20
0.7614
 42
-0.235078
 10
16.266314
 20
0.772029
 42
-0.012882
 10
16.221417
 20
0.83472
 42
-0.017771
 10
16.170841
 20
0.915355
 42
-0.011852
 10
16.118473
 20
1.010999
 42
-0.016988
 10
16.069273
 20
1.114624
 42
-0.017902
 10
16.028142
 20
1.219576
 42
-0.017837
 10
15.999267
 20
1.312254
 42
-0.073119
 10
15.992215
 20
1.370549
 42
-0.314291
 10
16.008931
 20
1.393255
 42
-0.206601
 10
16.042542
 20
1.390549
 42
-0.071787
 10
16.096446
 20
1.351153
 42
-0.025444
  0
ENDSEC
  0
SECTION
  2
OBJECTS
  0
DICTIONARY
  5
C
330
0
100
AcDbDictionary
281
     1
  3
ACAD_DETAILVIEWSTYLE
350
1032
  3
ACAD_GROUP
350
D
  3
ACAD_LAYOUT
350
1A
  3
ACAD_MATERIAL
350
FE5
  3
ACAD_MLEADERSTYLE
350
FEB
  3
ACAD_MLINESTYLE
350
17
  3
ACAD_PLOTSETTINGS
350
19
  3
ACAD_PLOTSTYLENAME
350
E
  3
ACAD_SCALELIST
350
FA6
  3
ACAD_SECTIONVIEWSTYLE
350
1033
  3
ACAD_TABLESTYLE
350
FE9
  3
ACAD_VISUALSTYLE
350
FCC
  3
ACDB_RECOMPOSE_DATA
350
102E
  3
AcDbVariableDictionary
350
FEF
  0
DICTIONARY
  5
FED
330
8
100
AcDbDictionary
280
     1
281
     1
  3
ACAD_XREC_ROUNDTRIP
360
FEE
  0
DICTIONARY
  5
1032
102
{ACAD_REACTORS
330
C
102
}
330
C
100
AcDbDictionary
281
     1
  0
DICTIONARY
  5
D
102
{ACAD_REACTORS
330
C
102
}
330
C
100
AcDbDictionary
281
     1
  0
DICTIONARY
  5
1A
102
{ACAD_REACTORS
330
C
102
}
330
C
100
AcDbDictionary
281
     1
  3
Layout1
350
1C
  3
Model
350
1E
  0
DICTIONARY
  5
FE5
102
{ACAD_REACTORS
330
C
102
}
330
C
100
AcDbDictionary
281
     1
  3
ByBlock
350
FE7
  3
ByLayer
350
FE6
  3
Global
350
FE8
  0
DICTIONARY
  5
FEB
102
{ACAD_REACTORS
330
C
102
}
330
C
100
AcDbDictionary
281
     1
  3
Standard
350
FEC
  0
DICTIONARY
  5
17
102
{ACAD_REACTORS
330
C
102
}
330
C
100
AcDbDictionary
281
     1
  3
Standard
350
18
  0
DICTIONARY
  5
19
102
{ACAD_REACTORS
330
C
102
}
330
C
100
AcDbDictionary
281
     1
  0
ACDBDICTIONARYWDFLT
  5
E
102
{ACAD_REACTORS
330
C
102
}
330
C
100
AcDbDictionary
281
     1
  3
Normal
350
F
100
AcDbDictionaryWithDefault
340
F
  0
DICTIONARY
  5
FA6
102
{ACAD_REACTORS
330
C
102
}
330
C
100
AcDbDictionary
281
     1
  3
A0
350
FA7
  3
A1
350
FA8
  3
A2
350
FA9
  3
A3
350
FAA
  3
A4
350
FAB
  3
A5
350
FAC
  3
A6
350
FAD
  3
A7
350
FAE
  3
A8
350
FAF
  3
A9
350
FB0
  3
B0
350
FB1
  3
B1
350
FB2
  3
B2
350
FB3
  3
B3
350
FB4
  3
B4
350
FB5
  3
B5
350
FB6
  3
B6
350
FB7
  3
B7
350
FB8
  3
B8
350
FB9
  3
B9
350
FBA
  3
C0
350
FBB
  3
C1
350
FBC
  3
C2
350
FBD
  3
C3
350
FBE
  3
C4
350
FBF
  3
C5
350
FC0
  3
C6
350
FC1
  3
C7
350
FC2
  3
C8
350
FC3
  3
C9
350
FC4
  3
D0
350
FC5
  3
D1
350
FC6
  3
D2
350
FC7
  0
DICTIONARY
  5
1033
102
{ACAD_REACTORS
330
C
102
}
330
C
100
AcDbDictionary
281
     1
  0
DICTIONARY
  5
FE9
102
{ACAD_REACTORS
330
C
102
}
330
C
100
AcDbDictionary
281
     1
  3
Standard
350
FEA
  0
DICTIONARY
  5
FCC
102
{ACAD_REACTORS
330
C
102
}
330
C
100
AcDbDictionary
281
     1
  3
2dWireframe
350
FD1
  3
Basic
350
FD4
  3
Brighten
350
FD8
  3
ColorChange
350
FDC
  3
Conceptual
350
FD6
  3
Dim
350
FD7
  3
EdgeColorOff
350
FDF
  3
Facepattern
350
FDB
  3
Flat
350
FCD
  3
FlatWithEdges
350
FCE
  3
Gouraud
350
FCF
  3
GouraudWithEdges
350
FD0
  3
Hidden
350
FD3
  3
JitterOff
350
FDD
  3
Linepattern
350
FDA
  3
OverhangOff
350
FDE
  3
Realistic
350
FD5
  3
Shaded
350
FE4
  3
Shaded with edges
350
FE3
  3
Shades of Gray
350
FE0
  3
Sketchy
350
FE1
  3
Thicken
350
FD9
  3
Wireframe
350
FD2
  3
X-Ray
350
FE2
  0
XRECORD
  5
102E
102
{ACAD_REACTORS
330
C
102
}
330
C
100
AcDbXrecord
280
     1
 90
        1
330
FEA
  0
DICTIONARY
  5
FEF
102
{ACAD_REACTORS
330
C
102
}
330
C
100
AcDbDictionary
281
     1
  3
CANNOSCALE
350
FF0
  3
CMLEADERSTYLE
350
1030
  3
CTABLESTYLE
350
102F
  3
MSLTSCALE
350
1031
  3
XCLIPFRAME
350
FF1
  0
XRECORD
  5
FEE
102
{ACAD_REACTORS
330
FED
102
}
330
FED
100
AcDbXrecord
280
     1
102
VTR_0.000_0.000_1.000_1.000_VISUALSTYLE
340
FD1
102
VTR_0.000_0.000_1.000_1.000_GRIDDISPLAY
 70
     3
102
VTR_0.000_0.000_1.000_1.000_GRIDMAJOR
 70
     5
102
VTR_0.000_0.000_1.000_1.000_DEFAULTLIGHTING
280
     1
102
VTR_0.000_0.000_1.000_1.000_DEFAULTLIGHTINGTYPE
 70
     1
102
VTR_0.000_0.000_1.000_1.000_BRIGHTNESS
141
0.0
102
VTR_0.000_0.000_1.000_1.000_CONTRAST
142
0.0
  0
LAYOUT
  5
1C
102
{ACAD_REACTORS
330
1A
102
}
330
1A
100
AcDbPlotSettings
  1

  2
none_device
  4

  6

 40
0.0
 41
0.0
 42
0.0
 43
0.0
 44
0.0
 45
0.0
 46
0.0
 47
0.0
 48
0.0
 49
0.0
140
0.0
141
0.0
142
1.0
143
1.0
 70
   688
 72
     0
 73
     0
 74
     5
  7

 75
    16
 76
     0
 77
     2
 78
   300
147
1.0
148
0.0
149
0.0
100
AcDbLayout
  1
Layout1
 70
     1
 71
     1
 10
0.0
 20
0.0
 11
12.0
 21
9.0
 12
0.0
 22
0.0
 32
0.0
 14
1.000000000000000E+20
 24
1.000000000000000E+20
 34
1.000000000000000E+20
 15
-1.000000000000000E+20
 25
-1.000000000000000E+20
 35
-1.000000000000000E+20
146
0.0
 13
0.0
 23
0.0
 33
0.0
 16
1.0
 26
0.0
 36
0.0
 17
0.0
 27
1.0
 37
0.0
 76
     0
330
1B
  0
LAYOUT
  5
1E
102
{ACAD_REACTORS
330
1A
102
}
330
1A
100
AcDbPlotSettings
  1

  2
none_device
  4
Letter_(8.50_x_11.00_Inches)
  6

 40
6.35
 41
6.35
 42
6.35000508
 43
6.35000508
 44
215.9
 45
279.4
 46
0.0
 47
0.0
 48
0.0
 49
0.0
140
0.0
141
0.0
142
1.0
143
1.0
 70
  1712
 72
     0
 73
     0
 74
     0
  7

 75
     0
 76
     0
 77
     2
 78
   300
147
1.0
148
0.0
149
0.0
100
AcDbLayout
  1
Model
 70
     1
 71
     0
 10
0.0
 20
0.0
 11
12.0
 21
9.0
 12
0.0
 22
0.0
 32
0.0
 14
0.0
 24
0.0
 34
0.0
 15
33.84
 25
33.84
 35
0.0
146
0.0
 13
0.0
 23
0.0
 33
0.0
 16
1.0
 26
0.0
 36
0.0
 17
0.0
 27
1.0
 37
0.0
 76
     0
330
1D
331
21
  0
MATERIAL
  5
FE7
102
{ACAD_REACTORS
330
FE5
102
}
102
{ACAD_XDICTIONARY
360
1024
102
}
330
FE5
100
AcDbMaterial
  1
ByBlock
  0
MATERIAL
  5
FE6
102
{ACAD_REACTORS
330
FE5
102
}
102
{ACAD_XDICTIONARY
360
1022
102
}
330
FE5
100
AcDbMaterial
  1
ByLayer
  0
MATERIAL
  5
FE8
102
{ACAD_REACTORS
330
FE5
102
}
102
{ACAD_XDICTIONARY
360
1026
102
}
330
FE5
100
AcDbMaterial
  1
Global
  0
MLEADERSTYLE
  5
FEC
102
{ACAD_REACTORS
330
FEB
102
}
102
{ACAD_XDICTIONARY
360
102C
102
}
330
FEB
100
AcDbMLeaderStyle
170
     2
171
     1
172
     0
 90
        2
 40
0.0
 41
0.0
173
     1
 91
-1056964608
340
14
 92
       -2
290
     1
 42
0.09
291
     1
 43
0.36
  3
Standard
341
0
 44
0.18
300

342
11
174
     1
178
     6
175
     1
176
     0
 93
-1056964608
 45
0.18
292
     0
297
     0
 46
0.18
343
0
 94
-1056964608
 47
1.0
 49
1.0
140
1.0
293
     1
141
0.0
294
     1
177
     0
142
1.0
295
     0
296
     0
143
0.125
1001
ACAD_MLEADERVER
1070
     2
  0
MLINESTYLE
  5
18
102
{ACAD_REACTORS
330
17
102
}
330
17
100
AcDbMlineStyle
  2
Standard
 70
     0
  3

 62
   256
 51
90.0
 52
90.0
 71
     2
 49
0.5
 62
   256
  6
BYLAYER
 49
-0.5
 62
   256
  6
BYLAYER
  0
ACDBPLACEHOLDER
  5
F
102
{ACAD_REACTORS
330
E
102
}
330
E
  0
SCALE
  5
FA7
102
{ACAD_REACTORS
330
FA6
102
}
330
FA6
100
AcDbScale
 70
     0
300
1:1
140
1.0
141
1.0
290
     1
  0
SCALE
  5
FA8
102
{ACAD_REACTORS
330
FA6
102
}
330
FA6
100
AcDbScale
 70
     0
300
1:2
140
1.0
141
2.0
290
     0
  0
SCALE
  5
FA9
102
{ACAD_REACTORS
330
FA6
102
}
330
FA6
100
AcDbScale
 70
     0
300
1:4
140
1.0
141
4.0
290
     0
  0
SCALE
  5
FAA
102
{ACAD_REACTORS
330
FA6
102
}
330
FA6
100
AcDbScale
 70
     0
300
1:5
140
1.0
141
5.0
290
     0
  0
SCALE
  5
FAB
102
{ACAD_REACTORS
330
FA6
102
}
330
FA6
100
AcDbScale
 70
     0
300
1:8
140
1.0
141
8.0
290
     0
  0
SCALE
  5
FAC
102
{ACAD_REACTORS
330
FA6
102
}
330
FA6
100
AcDbScale
 70
     0
300
1:10
140
1.0
141
10.0
290
     0
  0
SCALE
  5
FAD
102
{ACAD_REACTORS
330
FA6
102
}
330
FA6
100
AcDbScale
 70
     0
300
1:16
140
1.0
141
16.0
290
     0
  0
SCALE
  5
FAE
102
{ACAD_REACTORS
330
FA6
102
}
330
FA6
100
AcDbScale
 70
     0
300
1:20
140
1.0
141
20.0
290
     0
  0
SCALE
  5
FAF
102
{ACAD_REACTORS
330
FA6
102
}
330
FA6
100
AcDbScale
 70
     0
300
1:30
140
1.0
141
30.0
290
     0
  0
SCALE
  5
FB0
102
{ACAD_REACTORS
330
FA6
102
}
330
FA6
100
AcDbScale
 70
     0
300
1:40
140
1.0
141
40.0
290
     0
  0
SCALE
  5
FB1
102
{ACAD_REACTORS
330
FA6
102
}
330
FA6
100
AcDbScale
 70
     0
300
1:50
140
1.0
141
50.0
290
     0
  0
SCALE
  5
FB2
102
{ACAD_REACTORS
330
FA6
102
}
330
FA6
100
AcDbScale
 70
     0
300
1:100
140
1.0
141
100.0
290
     0
  0
SCALE
  5
FB3
102
{ACAD_REACTORS
330
FA6
102
}
330
FA6
100
AcDbScale
 70
     0
300
2:1
140
2.0
141
1.0
290
     0
  0
SCALE
  5
FB4
102
{ACAD_REACTORS
330
FA6
102
}
330
FA6
100
AcDbScale
 70
     0
300
4:1
140
4.0
141
1.0
290
     0
  0
SCALE
  5
FB5
102
{ACAD_REACTORS
330
FA6
102
}
330
FA6
100
AcDbScale
 70
     0
300
8:1
140
8.0
141
1.0
290
     0
  0
SCALE
  5
FB6
102
{ACAD_REACTORS
330
FA6
102
}
330
FA6
100
AcDbScale
 70
     0
300
10:1
140
10.0
141
1.0
290
     0
  0
SCALE
  5
FB7
102
{ACAD_REACTORS
330
FA6
102
}
330
FA6
100
AcDbScale
 70
     0
300
100:1
140
100.0
141
1.0
290
     0
  0
SCALE
  5
FB8
102
{ACAD_REACTORS
330
FA6
102
}
330
FA6
100
AcDbScale
 70
     0
300
1/128\" = 1\'-0\"
140
0.0078125
141
12.0
290
     0
  0
SCALE
  5
FB9
102
{ACAD_REACTORS
330
FA6
102
}
330
FA6
100
AcDbScale
 70
     0
300
1/64\" = 1\'-0\"
140
0.015625
141
12.0
290
     0
  0
SCALE
  5
FBA
102
{ACAD_REACTORS
330
FA6
102
}
330
FA6
100
AcDbScale
 70
     0
300
1/32\" = 1\'-0\"
140
0.03125
141
12.0
290
     0
  0
SCALE
  5
FBB
102
{ACAD_REACTORS
330
FA6
102
}
330
FA6
100
AcDbScale
 70
     0
300
1/16\" = 1\'-0\"
140
0.0625
141
12.0
290
     0
  0
SCALE
  5
FBC
102
{ACAD_REACTORS
330
FA6
102
}
330
FA6
100
AcDbScale
 70
     0
300
3/32\" = 1\'-0\"
140
0.09375
141
12.0
290
     0
  0
SCALE
  5
FBD
102
{ACAD_REACTORS
330
FA6
102
}
330
FA6
100
AcDbScale
 70
     0
300
1/8\" = 1\'-0\"
140
0.125
141
12.0
290
     0
  0
SCALE
  5
FBE
102
{ACAD_REACTORS
330
FA6
102
}
330
FA6
100
AcDbScale
 70
     0
300
3/16\" = 1\'-0\"
140
0.1875
141
12.0
290
     0
  0
SCALE
  5
FBF
102
{ACAD_REACTORS
330
FA6
102
}
330
FA6
100
AcDbScale
 70
     0
300
1/4\" = 1\'-0\"
140
0.25
141
12.0
290
     0
  0
SCALE
  5
FC0
102
{ACAD_REACTORS
330
FA6
102
}
330
FA6
100
AcDbScale
 70
     0
300
3/8\" = 1\'-0\"
140
0.375
141
12.0
290
     0
  0
SCALE
  5
FC1
102
{ACAD_REACTORS
330
FA6
102
}
330
FA6
100
AcDbScale
 70
     0
300
1/2\" = 1\'-0\"
140
0.5
141
12.0
290
     0
  0
SCALE
  5
FC2
102
{ACAD_REACTORS
330
FA6
102
}
330
FA6
100
AcDbScale
 70
     0
300
3/4\" = 1\'-0\"
140
0.75
141
12.0
290
     0
  0
SCALE
  5
FC3
102
{ACAD_REACTORS
330
FA6
102
}
330
FA6
100
AcDbScale
 70
     0
300
1\" = 1\'-0\"
140
1.0
141
12.0
290
     0
  0
SCALE
  5
FC4
102
{ACAD_REACTORS
330
FA6
102
}
330
FA6
100
AcDbScale
 70
     0
300
1-1/2\" = 1\'-0\"
140
1.5
141
12.0
290
     0
  0
SCALE
  5
FC5
102
{ACAD_REACTORS
330
FA6
102
}
330
FA6
100
AcDbScale
 70
     0
300
3\" = 1\'-0\"
140
3.0
141
12.0
290
     0
  0
SCALE
  5
FC6
102
{ACAD_REACTORS
330
FA6
102
}
330
FA6
100
AcDbScale
 70
     0
300
6\" = 1\'-0\"
140
6.0
141
12.0
290
     0
  0
SCALE
  5
FC7
102
{ACAD_REACTORS
330
FA6
102
}
330
FA6
100
AcDbScale
 70
     0
300
1\'-0\" = 1\'-0\"
140
12.0
141
12.0
290
     0
  0
TABLESTYLE
  5
FEA
102
{ACAD_REACTORS
330
FE9
102
}
102
{ACAD_XDICTIONARY
360
1028
102
}
330
FE9
100
AcDbTableStyle
  3
Standard
 70
     0
 71
     0
 40
0.06
 41
0.06
280
     0
281
     0
  7
Standard
140
0.18
170
     2
 62
     0
 63
   257
283
     0
274
    -2
284
     1
 64
     0
275
    -2
285
     1
 65
     0
276
    -2
286
     1
 66
     0
277
    -2
287
     1
 67
     0
278
    -2
288
     1
 68
     0
279
    -2
289
     1
 69
     0
  7
Standard
140
0.25
170
     5
 62
     0
 63
   257
283
     0
274
    -2
284
     1
 64
     0
275
    -2
285
     1
 65
     0
276
    -2
286
     1
 66
     0
277
    -2
287
     1
 67
     0
278
    -2
288
     1
 68
     0
279
    -2
289
     1
 69
     0
  7
Standard
140
0.18
170
     5
 62
     0
 63
   257
283
     0
274
    -2
284
     1
 64
     0
275
    -2
285
     1
 65
     0
276
    -2
286
     1
 66
     0
277
    -2
287
     1
 67
     0
278
    -2
288
     1
 68
     0
279
    -2
289
     1
 69
     0
  0
VISUALSTYLE
  5
FD1
102
{ACAD_REACTORS
330
FCC
102
}
102
{ACAD_XDICTIONARY
360
FFA
102
}
330
FCC
100
AcDbVisualStyle
  2
2dWireframe
 70
     4
 71
     0
 72
     2
 73
     0
 90
        0
 40
0.6
 41
30.0
 62
     5
 63
     7
421
 16777215
 74
     1
 91
        4
 64
     7
 65
   257
 75
     1
175
     1
 42
1.0
 92
        0
 66
   257
 43
1.0
 76
     1
 77
     6
 78
     2
 67
     7
 79
     5
170
     0
171
     0
290
     0
174
     0
 93
        1
 44
0.0
173
     0
291
     0
 45
0.0
1001
ACAD
1000
AcDbSavedByObjectVersion
1070
     0
  0
VISUALSTYLE
  5
FD4
102
{ACAD_REACTORS
330
FCC
102
}
102
{ACAD_XDICTIONARY
360
1000
102
}
330
FCC
100
AcDbVisualStyle
  2
Basic
 70
     7
 71
     1
 72
     0
 73
     1
 90
        0
 40
0.6
 41
30.0
 62
     5
 63
     7
421
 16777215
 74
     0
 91
        4
 64
     7
 65
   257
 75
     1
175
     1
 42
1.0
 92
        8
 66
     7
 43
1.0
 76
     1
 77
     6
 78
     2
 67
     7
 79
     5
170
     0
171
     0
290
     0
174
     0
 93
        1
 44
0.0
173
     0
291
     1
 45
0.0
1001
ACAD
1000
AcDbSavedByObjectVersion
1070
     0
  0
VISUALSTYLE
  5
FD8
102
{ACAD_REACTORS
330
FCC
102
}
102
{ACAD_XDICTIONARY
360
1008
102
}
330
FCC
100
AcDbVisualStyle
  2
Brighten
 70
    12
 71
     2
 72
     2
 73
     0
 90
        0
 40
0.6
 41
30.0
 62
     5
 63
     7
421
 16777215
 74
     1
 91
        4
 64
     7
 65
   257
 75
     1
175
     1
 42
1.0
 92
        8
 66
     7
 43
1.0
 76
     1
 77
     6
 78
     2
 67
     7
 79
     5
170
     0
171
     0
290
     0
174
     0
 93
        1
 44
50.0
173
     0
291
     1
 45
0.0
1001
ACAD
1000
AcDbSavedByObjectVersion
1070
     0
  0
VISUALSTYLE
  5
FDC
102
{ACAD_REACTORS
330
FCC
102
}
102
{ACAD_XDICTIONARY
360
1010
102
}
330
FCC
100
AcDbVisualStyle
  2
ColorChange
 70
    16
 71
     2
 72
     2
 73
     3
 90
        0
 40
0.6
 41
30.0
 62
     5
 63
     8
421
  8421504
 74
     1
 91
        4
 64
     7
 65
   257
 75
     1
175
     1
 42
1.0
 92
        8
 66
     8
424
  8421504
 43
1.0
 76
     1
 77
     6
 78
     2
 67
     7
 79
     5
170
     0
171
     0
290
     0
174
     0
 93
        1
 44
0.0
173
     0
291
     1
 45
0.0
1001
ACAD
1000
AcDbSavedByObjectVersion
1070
     0
  0
VISUALSTYLE
  5
FD6
102
{ACAD_REACTORS
330
FCC
102
}
102
{ACAD_XDICTIONARY
360
1004
102
}
330
FCC
100
AcDbVisualStyle
  2
Conceptual
 70
     9
 71
     3
 72
     2
 73
     0
 90
        0
 40
0.6
 41
30.0
 62
     5
 63
     7
421
 16777215
 74
     2
 91
        2
 64
     7
 65
   257
 75
     1
175
     1
 42
179.0
 92
        8
 66
     7
 43
1.0
 76
     1
 77
     6
 78
     2
 67
     7
 79
     3
170
     0
171
     0
290
     0
174
     0
 93
        1
 44
0.0
173
     0
291
     0
 45
0.0
1001
ACAD
1000
AcDbSavedByObjectVersion
1070
     0
  0
VISUALSTYLE
  5
FD7
102
{ACAD_REACTORS
330
FCC
102
}
102
{ACAD_XDICTIONARY
360
1006
102
}
330
FCC
100
AcDbVisualStyle
  2
Dim
 70
    11
 71
     2
 72
     2
 73
     0
 90
        0
 40
0.6
 41
30.0
 62
     5
 63
     7
421
 16777215
 74
     1
 91
        4
 64
     7
 65
   257
 75
     1
175
     1
 42
1.0
 92
        8
 66
     7
 43
1.0
 76
     1
 77
     6
 78
     2
 67
     7
 79
     5
170
     0
171
     0
290
     0
174
     0
 93
        1
 44
-50.0
173
     0
291
     1
 45
0.0
1001
ACAD
1000
AcDbSavedByObjectVersion
1070
     0
  0
VISUALSTYLE
  5
FDF
102
{ACAD_REACTORS
330
FCC
102
}
102
{ACAD_XDICTIONARY
360
1016
102
}
330
FCC
100
AcDbVisualStyle
  2
EdgeColorOff
 70
    22
 71
     2
 72
     2
 73
     0
 90
        0
 40
0.6
 41
30.0
 62
     5
 63
     7
421
 16777215
 74
     1
 91
        4
 64
     7
 65
   257
 75
     1
175
     1
 42
1.0
 92
        8
 66
     7
 43
1.0
 76
     1
 77
     6
 78
     2
 67
     7
 79
     5
170
     0
171
     0
290
     0
174
     0
 93
        1
 44
0.0
173
     0
291
     1
 45
0.0
1001
ACAD
1000
AcDbSavedByObjectVersion
1070
     0
  0
VISUALSTYLE
  5
FDB
102
{ACAD_REACTORS
330
FCC
102
}
102
{ACAD_XDICTIONARY
360
100E
102
}
330
FCC
100
AcDbVisualStyle
  2
Facepattern
 70
    15
 71
     2
 72
     2
 73
     0
 90
        0
 40
0.6
 41
30.0
 62
     5
 63
     7
421
 16777215
 74
     1
 91
        4
 64
     7
 65
   257
 75
     1
175
     1
 42
1.0
 92
        8
 66
     7
 43
1.0
 76
     1
 77
     6
 78
     2
 67
     7
 79
     5
170
     0
171
     0
290
     0
174
     0
 93
        1
 44
0.0
173
     0
291
     1
 45
0.0
1001
ACAD
1000
AcDbSavedByObjectVersion
1070
     0
  0
VISUALSTYLE
  5
FCD
102
{ACAD_REACTORS
330
FCC
102
}
102
{ACAD_XDICTIONARY
360
FF2
102
}
330
FCC
100
AcDbVisualStyle
  2
Flat
 70
     0
 71
     2
 72
     1
 73
     1
 90
        2
 40
0.6
 41
30.0
 62
     5
 63
     7
421
 16777215
 74
     0
 91
        0
 64
     7
 65
   257
 75
     1
175
     1
 42
1.0
 92
        8
 66
     7
 43
1.0
 76
     1
 77
     6
 78
     2
 67
     7
 79
     5
170
     0
171
     0
290
     0
174
     0
 93
       13
 44
0.0
173
     0
291
     1
 45
0.0
1001
ACAD
1000
AcDbSavedByObjectVersion
1070
     0
  0
VISUALSTYLE
  5
FCE
102
{ACAD_REACTORS
330
FCC
102
}
102
{ACAD_XDICTIONARY
360
FF4
102
}
330
FCC
100
AcDbVisualStyle
  2
FlatWithEdges
 70
     1
 71
     2
 72
     1
 73
     1
 90
        2
 40
0.6
 41
30.0
 62
     5
 63
     7
421
 16777215
 74
     1
 91
        0
 64
     7
 65
   257
 75
     1
175
     1
 42
1.0
 92
        0
 66
   257
 43
1.0
 76
     1
 77
     6
 78
     2
 67
     7
 79
     5
170
     0
171
     0
290
     0
174
     0
 93
       13
 44
0.0
173
     0
291
     1
 45
0.0
1001
ACAD
1000
AcDbSavedByObjectVersion
1070
     0
  0
VISUALSTYLE
  5
FCF
102
{ACAD_REACTORS
330
FCC
102
}
102
{ACAD_XDICTIONARY
360
FF6
102
}
330
FCC
100
AcDbVisualStyle
  2
Gouraud
 70
     2
 71
     2
 72
     2
 73
     1
 90
        2
 40
0.6
 41
30.0
 62
     5
 63
     7
421
 16777215
 74
     0
 91
        0
 64
     7
 65
   257
 75
     1
175
     1
 42
1.0
 92
        0
 66
     7
 43
1.0
 76
     1
 77
     6
 78
     2
 67
     7
 79
     5
170
     0
171
     0
290
     0
174
     0
 93
       13
 44
0.0
173
     0
291
     1
 45
0.0
1001
ACAD
1000
AcDbSavedByObjectVersion
1070
     0
  0
VISUALSTYLE
  5
FD0
102
{ACAD_REACTORS
330
FCC
102
}
102
{ACAD_XDICTIONARY
360
FF8
102
}
330
FCC
100
AcDbVisualStyle
  2
GouraudWithEdges
 70
     3
 71
     2
 72
     2
 73
     1
 90
        2
 40
0.6
 41
30.0
 62
     5
 63
     7
421
 16777215
 74
     1
 91
        0
 64
     7
 65
   257
 75
     1
175
     1
 42
1.0
 92
        0
 66
   257
 43
1.0
 76
     1
 77
     6
 78
     2
 67
     7
 79
     5
170
     0
171
     0
290
     0
174
     0
 93
       13
 44
0.0
173
     0
291
     1
 45
0.0
1001
ACAD
1000
AcDbSavedByObjectVersion
1070
     0
  0
VISUALSTYLE
  5
FD3
102
{ACAD_REACTORS
330
FCC
102
}
102
{ACAD_XDICTIONARY
360
FFE
102
}
330
FCC
100
AcDbVisualStyle
  2
Hidden
 70
     6
 71
     1
 72
     2
 73
     2
 90
        0
 40
0.6
 41
30.0
 62
     5
 63
     7
421
 16777215
 74
     2
 91
        2
 64
     7
 65
   257
 75
     2
175
     1
 42
40.0
 92
        0
 66
   257
 43
1.0
 76
     1
 77
     6
 78
     2
 67
     7
 79
     3
170
     0
171
     0
290
     0
174
     0
 93
        1
 44
0.0
173
     0
291
     0
 45
0.0
1001
ACAD
1000
AcDbSavedByObjectVersion
1070
     0
  0
VISUALSTYLE
  5
FDD
102
{ACAD_REACTORS
330
FCC
102
}
102
{ACAD_XDICTIONARY
360
1012
102
}
330
FCC
100
AcDbVisualStyle
  2
JitterOff
 70
    20
 71
     2
 72
     2
 73
     0
 90
        0
 40
0.6
 41
30.0
 62
     5
 63
     7
421
 16777215
 74
     1
 91
        4
 64
     7
 65
   257
 75
     1
175
     1
 42
1.0
 92
       10
 66
     7
 43
1.0
 76
     1
 77
     6
 78
     2
 67
     7
 79
     5
170
     0
171
     0
290
     0
174
     0
 93
        1
 44
0.0
173
     0
291
     1
 45
0.0
1001
ACAD
1000
AcDbSavedByObjectVersion
1070
     0
  0
VISUALSTYLE
  5
FDA
102
{ACAD_REACTORS
330
FCC
102
}
102
{ACAD_XDICTIONARY
360
100C
102
}
330
FCC
100
AcDbVisualStyle
  2
Linepattern
 70
    14
 71
     2
 72
     2
 73
     0
 90
        0
 40
0.6
 41
30.0
 62
     5
 63
     7
421
 16777215
 74
     1
 91
        4
 64
     7
 65
   257
 75
     7
175
     7
 42
1.0
 92
        8
 66
     7
 43
1.0
 76
     1
 77
     6
 78
     2
 67
     7
 79
     5
170
     0
171
     0
290
     0
174
     0
 93
        1
 44
0.0
173
     0
291
     1
 45
0.0
1001
ACAD
1000
AcDbSavedByObjectVersion
1070
     0
  0
VISUALSTYLE
  5
FDE
102
{ACAD_REACTORS
330
FCC
102
}
102
{ACAD_XDICTIONARY
360
1014
102
}
330
FCC
100
AcDbVisualStyle
  2
OverhangOff
 70
    21
 71
     2
 72
     2
 73
     0
 90
        0
 40
0.6
 41
30.0
 62
     5
 63
     7
421
 16777215
 74
     1
 91
        4
 64
     7
 65
   257
 75
     1
175
     1
 42
1.0
 92
        9
 66
     7
 43
1.0
 76
     1
 77
     6
 78
     2
 67
     7
 79
     5
170
     0
171
     0
290
     0
174
     0
 93
        1
 44
0.0
173
     0
291
     1
 45
0.0
1001
ACAD
1000
AcDbSavedByObjectVersion
1070
     0
  0
VISUALSTYLE
  5
FD5
102
{ACAD_REACTORS
330
FCC
102
}
102
{ACAD_XDICTIONARY
360
1002
102
}
330
FCC
100
AcDbVisualStyle
  2
Realistic
 70
     8
 71
     2
 72
     3
 73
     0
 90
        2
 40
0.6
 41
30.0
 62
     5
 63
     7
421
 16777215
 74
     0
 91
        0
 64
     7
 65
   257
 75
     1
175
     1
 42
1.0
 92
        8
 66
   257
 43
1.0
 76
     1
 77
     6
 78
     2
 67
     7
 79
     3
170
     0
171
     0
290
     0
174
     0
 93
       13
 44
0.0
173
     0
291
     0
 45
0.0
1001
ACAD
1000
AcDbSavedByObjectVersion
1070
     0
  0
VISUALSTYLE
  5
FE4
102
{ACAD_REACTORS
330
FCC
102
}
102
{ACAD_XDICTIONARY
360
1020
102
}
330
FCC
100
AcDbVisualStyle
  2
Shaded
 70
    27
 71
     2
 72
     2
 73
     1
 90
        2
 40
0.6
 41
30.0
 62
     5
 63
     7
421
 16777215
 74
     0
 91
        4
 64
     7
 65
   257
 75
     1
175
     1
 42
1.0
 92
        8
 66
   257
 43
1.0
 76
     1
 77
     6
 78
     2
 67
     8
425
  7895160
 79
     3
170
     0
171
     0
290
     0
174
     0
 93
        5
 44
0.0
173
     0
291
     0
 45
0.0
1001
ACAD
1000
AcDbSavedByObjectVersion
1070
     0
  0
VISUALSTYLE
  5
FE3
102
{ACAD_REACTORS
330
FCC
102
}
102
{ACAD_XDICTIONARY
360
101E
102
}
330
FCC
100
AcDbVisualStyle
  2
Shaded with edges
 70
    26
 71
     2
 72
     2
 73
     1
 90
        2
 40
0.6
 41
30.0
 62
     5
 63
     7
421
 16777215
 74
     1
 91
       10
 64
     7
 65
   257
 75
     2
175
     1
 42
1.0
 92
        8
 66
   257
 43
1.0
 76
     1
 77
     6
 78
     2
 67
     7
 79
     3
170
     0
171
     0
290
     0
174
     0
 93
        5
 44
0.0
173
     0
291
     0
 45
0.0
1001
ACAD
1000
AcDbSavedByObjectVersion
1070
     0
  0
VISUALSTYLE
  5
FE0
102
{ACAD_REACTORS
330
FCC
102
}
102
{ACAD_XDICTIONARY
360
1018
102
}
330
FCC
100
AcDbVisualStyle
  2
Shades of Gray
 70
    23
 71
     2
 72
     2
 73
     3
 90
        0
 40
0.6
 41
30.0
 62
     5
 63
     7
421
 16777215
 74
     2
 91
        2
 64
     7
 65
     7
 75
     1
175
     1
 42
40.0
 92
        8
 66
     7
 43
1.0
 76
     1
 77
     6
 78
     2
 67
     7
 79
     3
170
     0
171
     0
290
     0
174
     0
 93
        1
 44
0.0
173
     0
291
     0
 45
0.0
1001
ACAD
1000
AcDbSavedByObjectVersion
1070
     0
  0
VISUALSTYLE
  5
FE1
102
{ACAD_REACTORS
330
FCC
102
}
102
{ACAD_XDICTIONARY
360
101A
102
}
330
FCC
100
AcDbVisualStyle
  2
Sketchy
 70
    24
 71
     1
 72
     2
 73
     2
 90
        0
 40
0.6
 41
30.0
 62
     5
 63
     7
421
 16777215
 74
     2
 91
        2
 64
     7
 65
     7
 75
     1
175
     1
 42
40.0
 92
       11
 66
     7
 43
1.0
 76
     1
 77
     6
 78
     2
 67
     7
 79
     6
170
     0
171
     0
290
     0
174
     0
 93
        1
 44
0.0
173
     0
291
     0
 45
0.0
1001
ACAD
1000
AcDbSavedByObjectVersion
1070
     0
  0
VISUALSTYLE
  5
FD9
102
{ACAD_REACTORS
330
FCC
102
}
102
{ACAD_XDICTIONARY
360
100A
102
}
330
FCC
100
AcDbVisualStyle
  2
Thicken
 70
    13
 71
     2
 72
     2
 73
     0
 90
        0
 40
0.6
 41
30.0
 62
     5
 63
     7
421
 16777215
 74
     1
 91
        4
 64
     7
 65
   257
 75
     1
175
     1
 42
1.0
 92
       12
 66
     7
 43
1.0
 76
     1
 77
     6
 78
     2
 67
     7
 79
     5
170
     0
171
     0
290
     0
174
     0
 93
        1
 44
0.0
173
     0
291
     1
 45
0.0
1001
ACAD
1000
AcDbSavedByObjectVersion
1070
     0
  0
VISUALSTYLE
  5
FD2
102
{ACAD_REACTORS
330
FCC
102
}
102
{ACAD_XDICTIONARY
360
FFC
102
}
330
FCC
100
AcDbVisualStyle
  2
Wireframe
 70
     5
 71
     0
 72
     2
 73
     0
 90
        0
 40
0.6
 41
30.0
 62
     5
 63
     7
421
 16777215
 74
     1
 91
        4
 64
     7
 65
   257
 75
     1
175
     1
 42
1.0
 92
        0
 66
   257
 43
1.0
 76
     1
 77
     6
 78
     2
 67
     7
 79
     3
170
     0
171
     0
290
     0
174
     0
 93
        1
 44
0.0
173
     0
291
     0
 45
0.0
1001
ACAD
1000
AcDbSavedByObjectVersion
1070
     0
  0
VISUALSTYLE
  5
FE2
102
{ACAD_REACTORS
330
FCC
102
}
102
{ACAD_XDICTIONARY
360
101C
102
}
330
FCC
100
AcDbVisualStyle
  2
X-Ray
 70
    25
 71
     2
 72
     2
 73
     1
 90
        1
 40
0.5
 41
30.0
 62
     5
 63
     7
421
 16777215
 74
     1
 91
        0
 64
     7
 65
   257
 75
     1
175
     1
 42
1.0
 92
        8
 66
     7
 43
1.0
 76
     1
 77
     6
 78
     2
 67
     7
 79
     3
170
     0
171
     0
290
     0
174
     0
 93
       13
 44
0.0
173
     0
291
     0
 45
0.0
1001
ACAD
1000
AcDbSavedByObjectVersion
1070
     0
  0
DICTIONARYVAR
  5
FF0
102
{ACAD_REACTORS
330
FEF
102
}
330
FEF
100
DictionaryVariables
280
     0
  1
1:1
  0
DICTIONARYVAR
  5
1030
102
{ACAD_REACTORS
330
FEF
102
}
330
FEF
100
DictionaryVariables
280
     0
  1
Standard
  0
DICTIONARYVAR
  5
102F
102
{ACAD_REACTORS
330
FEF
102
}
330
FEF
100
DictionaryVariables
280
     0
  1
Standard
  0
DICTIONARYVAR
  5
1031
102
{ACAD_REACTORS
330
FEF
102
}
330
FEF
100
DictionaryVariables
280
     0
  1
0
  0
DICTIONARYVAR
  5
FF1
102
{ACAD_REACTORS
330
FEF
102
}
330
FEF
100
DictionaryVariables
280
     0
  1
2
  0
DICTIONARY
  5
1024
330
FE7
100
AcDbDictionary
280
     1
281
     1
  3
ACAD_XREC_ROUNDTRIP
360
1025
  0
DICTIONARY
  5
1022
330
FE6
100
AcDbDictionary
280
     1
281
     1
  3
ACAD_XREC_ROUNDTRIP
360
1023
  0
DICTIONARY
  5
1026
330
FE8
100
AcDbDictionary
280
     1
281
     1
  3
ACAD_XREC_ROUNDTRIP
360
1027
  0
DICTIONARY
  5
102C
330
FEC
100
AcDbDictionary
280
     1
281
     1
  3
ACAD_XREC_ROUNDTRIP
360
102D
  0
DICTIONARY
  5
1028
330
FEA
100
AcDbDictionary
280
     1
281
     1
  3
ACAD_ROUNDTRIP_2008_TABLESTYLE_CELLSTYLEMAP
360
102A
  3
ACAD_XREC_ROUNDTRIP
360
1029
  0
DICTIONARY
  5
FFA
330
FD1
100
AcDbDictionary
280
     1
281
     1
  3
ACAD_XREC_ROUNDTRIP
360
FFB
  0
DICTIONARY
  5
1000
330
FD4
100
AcDbDictionary
280
     1
281
     1
  3
ACAD_XREC_ROUNDTRIP
360
1001
  0
DICTIONARY
  5
1008
330
FD8
100
AcDbDictionary
280
     1
281
     1
  3
ACAD_XREC_ROUNDTRIP
360
1009
  0
DICTIONARY
  5
1010
330
FDC
100
AcDbDictionary
280
     1
281
     1
  3
ACAD_XREC_ROUNDTRIP
360
1011
  0
DICTIONARY
  5
1004
330
FD6
100
AcDbDictionary
280
     1
281
     1
  3
ACAD_XREC_ROUNDTRIP
360
1005
  0
DICTIONARY
  5
1006
330
FD7
100
AcDbDictionary
280
     1
281
     1
  3
ACAD_XREC_ROUNDTRIP
360
1007
  0
DICTIONARY
  5
1016
330
FDF
100
AcDbDictionary
280
     1
281
     1
  3
ACAD_XREC_ROUNDTRIP
360
1017
  0
DICTIONARY
  5
100E
330
FDB
100
AcDbDictionary
280
     1
281
     1
  3
ACAD_XREC_ROUNDTRIP
360
100F
  0
DICTIONARY
  5
FF2
330
FCD
100
AcDbDictionary
280
     1
281
     1
  3
ACAD_XREC_ROUNDTRIP
360
FF3
  0
DICTIONARY
  5
FF4
330
FCE
100
AcDbDictionary
280
     1
281
     1
  3
ACAD_XREC_ROUNDTRIP
360
FF5
  0
DICTIONARY
  5
FF6
330
FCF
100
AcDbDictionary
280
     1
281
     1
  3
ACAD_XREC_ROUNDTRIP
360
FF7
  0
DICTIONARY
  5
FF8
330
FD0
100
AcDbDictionary
280
     1
281
     1
  3
ACAD_XREC_ROUNDTRIP
360
FF9
  0
DICTIONARY
  5
FFE
330
FD3
100
AcDbDictionary
280
     1
281
     1
  3
ACAD_XREC_ROUNDTRIP
360
FFF
  0
DICTIONARY
  5
1012
330
FDD
100
AcDbDictionary
280
     1
281
     1
  3
ACAD_XREC_ROUNDTRIP
360
1013
  0
DICTIONARY
  5
100C
330
FDA
100
AcDbDictionary
280
     1
281
     1
  3
ACAD_XREC_ROUNDTRIP
360
100D
  0
DICTIONARY
  5
1014
330
FDE
100
AcDbDictionary
280
     1
281
     1
  3
ACAD_XREC_ROUNDTRIP
360
1015
  0
DICTIONARY
  5
1002
330
FD5
100
AcDbDictionary
280
     1
281
     1
  3
ACAD_XREC_ROUNDTRIP
360
1003
  0
DICTIONARY
  5
1020
330
FE4
100
AcDbDictionary
280
     1
281
     1
  3
ACAD_XREC_ROUNDTRIP
360
1021
  0
DICTIONARY
  5
101E
330
FE3
100
AcDbDictionary
280
     1
281
     1
  3
ACAD_XREC_ROUNDTRIP
360
101F
  0
DICTIONARY
  5
1018
330
FE0
100
AcDbDictionary
280
     1
281
     1
  3
ACAD_XREC_ROUNDTRIP
360
1019
  0
DICTIONARY
  5
101A
330
FE1
100
AcDbDictionary
280
     1
281
     1
  3
ACAD_XREC_ROUNDTRIP
360
101B
  0
DICTIONARY
  5
100A
330
FD9
100
AcDbDictionary
280
     1
281
     1
  3
ACAD_XREC_ROUNDTRIP
360
100B
  0
DICTIONARY
  5
FFC
330
FD2
100
AcDbDictionary
280
     1
281
     1
  3
ACAD_XREC_ROUNDTRIP
360
FFD
  0
DICTIONARY
  5
101C
330
FE2
100
AcDbDictionary
280
     1
281
     1
  3
ACAD_XREC_ROUNDTRIP
360
101D
  0
XRECORD
  5
1025
102
{ACAD_REACTORS
330
1024
102
}
330
1024
100
AcDbXrecord
280
     1
102
MATERIAL
148
0.0
149
0.0
149
0.0
 93
        0
 94
      127
282
     0
 72
     1
 77
     1
171
     1
175
     1
179
     1
273
     0
  0
XRECORD
  5
1023
102
{ACAD_REACTORS
330
1022
102
}
330
1022
100
AcDbXrecord
280
     1
102
MATERIAL
148
0.0
149
0.0
149
0.0
 93
        0
 94
      127
282
     0
 72
     1
 77
     1
171
     1
175
     1
179
     1
273
     0
  0
XRECORD
  5
1027
102
{ACAD_REACTORS
330
1026
102
}
330
1026
100
AcDbXrecord
280
     1
102
MATERIAL
148
0.0
149
0.0
149
0.0
 93
        0
 94
      127
282
     0
 72
     1
 77
     1
171
     1
175
     1
179
     1
273
     0
  0
XRECORD
  5
102D
102
{ACAD_REACTORS
330
102C
102
}
330
102C
100
AcDbXrecord
280
     1
102
ACAD_ROUNDTRIP_2010_MLEADER_STYLE
  0
CELLSTYLEMAP
  5
102A
102
{ACAD_REACTORS
330
1028
102
}
330
1028
100
AcDbCellStyleMap
 90
        3
300
CELLSTYLE
  1
TABLEFORMAT_BEGIN
 90
        5
170
     1
 91
        0
 92
    32768
 62
   257
 93
        1
300
CONTENTFORMAT
  1
CONTENTFORMAT_BEGIN
 90
        0
 91
        0
 92
        4
 93
        0
300

 40
0.0
140
1.0
 94
        5
 62
     0
340
11
144
0.25
309
CONTENTFORMAT_END
171
     1
301
MARGIN
  1
CELLMARGIN_BEGIN
 40
0.06
 40
0.06
 40
0.06
 40
0.06
 40
0.06
 40
0.06
309
CELLMARGIN_END
 94
        6
 95
        1
302
GRIDFORMAT
  1
GRIDFORMAT_BEGIN
 90
        0
 91
        1
 62
     0
 92
       -2
340
14
 93
        0
 40
0.045
309
GRIDFORMAT_END
 95
        2
302
GRIDFORMAT
  1
GRIDFORMAT_BEGIN
 90
        0
 91
        1
 62
     0
 92
       -2
340
14
 93
        0
 40
0.045
309
GRIDFORMAT_END
 95
        4
302
GRIDFORMAT
  1
GRIDFORMAT_BEGIN
 90
        0
 91
        1
 62
     0
 92
       -2
340
14
 93
        0
 40
0.045
309
GRIDFORMAT_END
 95
        8
302
GRIDFORMAT
  1
GRIDFORMAT_BEGIN
 90
        0
 91
        1
 62
     0
 92
       -2
340
14
 93
        0
 40
0.045
309
GRIDFORMAT_END
 95
       16
302
GRIDFORMAT
  1
GRIDFORMAT_BEGIN
 90
        0
 91
        1
 62
     0
 92
       -2
340
14
 93
        0
 40
0.045
309
GRIDFORMAT_END
 95
       32
302
GRIDFORMAT
  1
GRIDFORMAT_BEGIN
 90
        0
 91
        1
 62
     0
 92
       -2
340
14
 93
        0
 40
0.045
309
GRIDFORMAT_END
309
TABLEFORMAT_END
  1
CELLSTYLE_BEGIN
 90
        1
 91
        1
300
_TITLE
309
CELLSTYLE_END
300
CELLSTYLE
  1
TABLEFORMAT_BEGIN
 90
        5
170
     1
 91
        0
 92
        0
 62
   257
 93
        1
300
CONTENTFORMAT
  1
CONTENTFORMAT_BEGIN
 90
        0
 91
        0
 92
        4
 93
        0
300

 40
0.0
140
1.0
 94
        5
 62
     0
340
11
144
0.18
309
CONTENTFORMAT_END
171
     1
301
MARGIN
  1
CELLMARGIN_BEGIN
 40
0.06
 40
0.06
 40
0.06
 40
0.06
 40
0.06
 40
0.06
309
CELLMARGIN_END
 94
        6
 95
        1
302
GRIDFORMAT
  1
GRIDFORMAT_BEGIN
 90
        0
 91
        1
 62
     0
 92
       -2
340
14
 93
        0
 40
0.045
309
GRIDFORMAT_END
 95
        2
302
GRIDFORMAT
  1
GRIDFORMAT_BEGIN
 90
        0
 91
        1
 62
     0
 92
       -2
340
14
 93
        0
 40
0.045
309
GRIDFORMAT_END
 95
        4
302
GRIDFORMAT
  1
GRIDFORMAT_BEGIN
 90
        0
 91
        1
 62
     0
 92
       -2
340
14
 93
        0
 40
0.045
309
GRIDFORMAT_END
 95
        8
302
GRIDFORMAT
  1
GRIDFORMAT_BEGIN
 90
        0
 91
        1
 62
     0
 92
       -2
340
14
 93
        0
 40
0.045
309
GRIDFORMAT_END
 95
       16
302
GRIDFORMAT
  1
GRIDFORMAT_BEGIN
 90
        0
 91
        1
 62
     0
 92
       -2
340
14
 93
        0
 40
0.045
309
GRIDFORMAT_END
 95
       32
302
GRIDFORMAT
  1
GRIDFORMAT_BEGIN
 90
        0
 91
        1
 62
     0
 92
       -2
340
14
 93
        0
 40
0.045
309
GRIDFORMAT_END
309
TABLEFORMAT_END
  1
CELLSTYLE_BEGIN
 90
        2
 91
        1
300
_HEADER
309
CELLSTYLE_END
300
CELLSTYLE
  1
TABLEFORMAT_BEGIN
 90
        5
170
     1
 91
        0
 92
        0
 62
   257
 93
        1
300
CONTENTFORMAT
  1
CONTENTFORMAT_BEGIN
 90
        0
 91
        0
 92
        4
 93
        0
300

 40
0.0
140
1.0
 94
        2
 62
     0
340
11
144
0.18
309
CONTENTFORMAT_END
171
     1
301
MARGIN
  1
CELLMARGIN_BEGIN
 40
0.06
 40
0.06
 40
0.06
 40
0.06
 40
0.06
 40
0.06
309
CELLMARGIN_END
 94
        6
 95
        1
302
GRIDFORMAT
  1
GRIDFORMAT_BEGIN
 90
        0
 91
        1
 62
     0
 92
       -2
340
14
 93
        0
 40
0.045
309
GRIDFORMAT_END
 95
        2
302
GRIDFORMAT
  1
GRIDFORMAT_BEGIN
 90
        0
 91
        1
 62
     0
 92
       -2
340
14
 93
        0
 40
0.045
309
GRIDFORMAT_END
 95
        4
302
GRIDFORMAT
  1
GRIDFORMAT_BEGIN
 90
        0
 91
        1
 62
     0
 92
       -2
340
14
 93
        0
 40
0.045
309
GRIDFORMAT_END
 95
        8
302
GRIDFORMAT
  1
GRIDFORMAT_BEGIN
 90
        0
 91
        1
 62
     0
 92
       -2
340
14
 93
        0
 40
0.045
309
GRIDFORMAT_END
 95
       16
302
GRIDFORMAT
  1
GRIDFORMAT_BEGIN
 90
        0
 91
        1
 62
     0
 92
       -2
340
14
 93
        0
 40
0.045
309
GRIDFORMAT_END
 95
       32
302
GRIDFORMAT
  1
GRIDFORMAT_BEGIN
 90
        0
 91
        1
 62
     0
 92
       -2
340
14
 93
        0
 40
0.045
309
GRIDFORMAT_END
309
TABLEFORMAT_END
  1
CELLSTYLE_BEGIN
 90
        3
 91
        2
300
_DATA
309
CELLSTYLE_END
  0
XRECORD
  5
1029
102
{ACAD_REACTORS
330
1028
102
}
330
1028
100
AcDbXrecord
280
     1
102
ACAD_ROUNDTRIP_PRE2007_TABLESTYLE
 90
        4
 91
        0
  1

 92
        4
 93
        0
  2

 94
        4
 95
        0
  3

  0
XRECORD
  5
FFB
102
{ACAD_REACTORS
330
FFA
102
}
330
FFA
100
AcDbXrecord
280
     1
102
RTVSPropertyOp0
 70
     1
102
RTVSPropertyOp1
 70
     1
102
RTVSPropertyOp2
 70
     1
102
RTVSPropertyOp3
 70
     1
102
RTVSPropertyOp4
 70
     1
102
RTVSPropertyOp5
 70
     1
102
RTVSPropertyOp6
 70
     1
102
RTVSPropertyOp7
 70
     1
102
RTVSPropertyOp8
 70
     1
102
RTVSPropertyOp9
 70
     1
102
RTVSPropertyOp10
 70
     1
102
RTVSPropertyOp11
 70
     1
102
RTVSPropertyOp12
 70
     1
102
RTVSPropertyOp13
 70
     1
102
RTVSPropertyOp14
 70
     1
102
RTVSPropertyOp15
 70
     1
102
RTVSPropertyOp16
 70
     1
102
RTVSPropertyOp17
 70
     1
102
RTVSPropertyOp18
 70
     1
102
RTVSPropertyOp19
 70
     1
102
RTVSPropertyOp20
 70
     1
102
RTVSPropertyOp21
 70
     1
102
RTVSPropertyOp22
 70
     1
102
RTVSPropertyOp23
 70
     1
102
RTVSPropertyOp24
 70
     1
102
RTVSPropertyOp25
 70
     1
102
RTVSPropertyOp26
 70
     1
102
RTVSPropertyOp27
 70
     1
102
RTVSPropertyOp28
 70
     1
102
RTVSPropertyOp29
 70
     1
102
RTVSPropertyOp30
 70
     1
102
RTVSPropertyOp31
 70
     1
102
RTVSPropertyOp32
 70
     1
102
RTVSPropertyOp33
 70
     1
102
RTVSPropertyOp34
 70
     1
102
RTVSPropertyOp35
 70
     1
102
RTVSPropertyOp36
 70
     1
102
RTVSPropertyOp37
 70
     1
102
RTVSPropertyOp38
 70
     1
102
RTVSPropertyOp39
 70
     1
102
RTVSPropertyOp40
 70
     1
102
RTVSPropertyOp41
 70
     1
102
RTVSPropertyOp42
 70
     1
102
RTVSPropertyOp43
 70
     1
102
RTVSPropertyOp44
 70
     1
102
RTVSPropertyOp45
 70
     1
102
RTVSPropertyOp46
 70
     1
102
RTVSPropertyOp47
 70
     1
102
RTVSPropertyOp48
 70
     1
102
RTVSPropertyOp49
 70
     1
102
RTVSPropertyOp50
 70
     1
102
RTVSPropertyOp51
 70
     0
102
RTVSPropertyOp52
 70
     0
102
RTVSPropertyOp53
 70
     1
102
RTVSPropertyOp54
 70
     1
102
RTVSPropertyOp55
 70
     1
102
RTVSPropertyOp56
 70
     1
102
RTVSPropertyOp57
 70
     1
102
RTVSPost2010Prop28
280
     1
102
RTVSPost2010PropOp28
 70
     1
102
RTVSPost2010Prop29
280
     1
102
RTVSPost2010PropOp29
 70
     1
102
RTVSPost2010Prop30
280
     0
102
RTVSPost2010PropOp30
 70
     1
102
RTVSPost2010Prop31
280
     0
102
RTVSPost2010PropOp31
 70
     1
102
RTVSPost2010Prop32
280
     0
102
RTVSPost2010PropOp32
 70
     1
102
RTVSPost2010Prop33
280
     0
102
RTVSPost2010PropOp33
 70
     1
102
RTVSPost2010Prop34
280
     0
102
RTVSPost2010PropOp34
 70
     1
102
RTVSPost2010Prop35
280
     0
102
RTVSPost2010PropOp35
 70
     1
102
RTVSPost2010Prop36
280
     0
102
RTVSPost2010PropOp36
 70
     1
102
RTVSPost2010Prop37
 90
       50
102
RTVSPost2010PropOp37
 70
     1
102
RTVSPost2010Prop38
140
0.0
102
RTVSPost2010PropOp38
 70
     1
102
RTVSPost2010Prop39
140
1.0
102
RTVSPost2010PropOp39
 70
     1
102
RTVSPost2010Prop40
 90
        0
102
RTVSPost2010PropOp40
 70
     1
102
RTVSPost2010Prop41ColorIndex
 90
       18
102
RTVSPost2010Prop41ColorRGB
 90
        0
102
RTVSPost2010PropOp41
 70
     1
102
RTVSPost2010Prop42
 90
       50
102
RTVSPost2010PropOp42
 70
     1
102
RTVSPost2010Prop43
 90
        3
102
RTVSPost2010PropOp43
 70
     1
102
RTVSPost2010Prop44ColorIndex
 90
        5
102
RTVSPost2010Prop44ColorRGB
 90
      255
102
RTVSPost2010PropOp44
 70
     1
102
RTVSPost2010Prop45
280
     0
102
RTVSPost2010PropOp45
 70
     1
102
RTVSPost2010Prop46
 90
       50
102
RTVSPost2010PropOp46
 70
     1
102
RTVSPost2010Prop47
 90
       50
102
RTVSPost2010PropOp47
 70
     1
102
RTVSPost2010Prop48
 90
       50
102
RTVSPost2010PropOp48
 70
     1
102
RTVSPost2010Prop49
280
     0
102
RTVSPost2010PropOp49
 70
     1
102
RTVSPost2010Prop50
 90
       50
102
RTVSPost2010PropOp50
 70
     1
102
RTVSPost2010Prop51ColorIndex
 90
      256
102
RTVSPost2010Prop51ColorRGB
 90
-16777216
102
RTVSPost2010PropOp51
 70
     0
102
RTVSPost2010Prop52
140
1.0
102
RTVSPost2010PropOp52
 70
     0
102
RTVSPost2010Prop53
 90
        2
102
RTVSPost2010PropOp53
 70
     1
102
RTVSPost2010Prop54
  1
strokes_ogs.tif
102
RTVSPost2010PropOp54
 70
     1
102
RTVSPost2010Prop55
280
     0
102
RTVSPost2010PropOp55
 70
     1
102
RTVSPost2010Prop56
140
1.0
102
RTVSPost2010PropOp56
 70
     1
102
RTVSPost2010Prop57
140
1.0
102
RTVSPost2010PropOp57
 70
     1
  0
XRECORD
  5
1001
102
{ACAD_REACTORS
330
1000
102
}
330
1000
100
AcDbXrecord
280
     1
102
RTVSPropertyOp0
 70
     1
102
RTVSPropertyOp1
 70
     1
102
RTVSPropertyOp2
 70
     1
102
RTVSPropertyOp3
 70
     1
102
RTVSPropertyOp4
 70
     1
102
RTVSPropertyOp5
 70
     1
102
RTVSPropertyOp6
 70
     1
102
RTVSPropertyOp7
 70
     1
102
RTVSPropertyOp8
 70
     1
102
RTVSPropertyOp9
 70
     1
102
RTVSPropertyOp10
 70
     1
102
RTVSPropertyOp11
 70
     1
102
RTVSPropertyOp12
 70
     1
102
RTVSPropertyOp13
 70
     1
102
RTVSPropertyOp14
 70
     1
102
RTVSPropertyOp15
 70
     1
102
RTVSPropertyOp16
 70
     1
102
RTVSPropertyOp17
 70
     1
102
RTVSPropertyOp18
 70
     1
102
RTVSPropertyOp19
 70
     1
102
RTVSPropertyOp20
 70
     1
102
RTVSPropertyOp21
 70
     1
102
RTVSPropertyOp22
 70
     1
102
RTVSPropertyOp23
 70
     1
102
RTVSPropertyOp24
 70
     1
102
RTVSPropertyOp25
 70
     1
102
RTVSPropertyOp26
 70
     1
102
RTVSPropertyOp27
 70
     1
102
RTVSPropertyOp28
 70
     1
102
RTVSPropertyOp29
 70
     1
102
RTVSPropertyOp30
 70
     1
102
RTVSPropertyOp31
 70
     1
102
RTVSPropertyOp32
 70
     1
102
RTVSPropertyOp33
 70
     1
102
RTVSPropertyOp34
 70
     1
102
RTVSPropertyOp35
 70
     1
102
RTVSPropertyOp36
 70
     1
102
RTVSPropertyOp37
 70
     1
102
RTVSPropertyOp38
 70
     1
102
RTVSPropertyOp39
 70
     1
102
RTVSPropertyOp40
 70
     1
102
RTVSPropertyOp41
 70
     1
102
RTVSPropertyOp42
 70
     1
102
RTVSPropertyOp43
 70
     1
102
RTVSPropertyOp44
 70
     1
102
RTVSPropertyOp45
 70
     1
102
RTVSPropertyOp46
 70
     1
102
RTVSPropertyOp47
 70
     1
102
RTVSPropertyOp48
 70
     1
102
RTVSPropertyOp49
 70
     1
102
RTVSPropertyOp50
 70
     1
102
RTVSPropertyOp51
 70
     0
102
RTVSPropertyOp52
 70
     0
102
RTVSPropertyOp53
 70
     1
102
RTVSPropertyOp54
 70
     1
102
RTVSPropertyOp55
 70
     1
102
RTVSPropertyOp56
 70
     1
102
RTVSPropertyOp57
 70
     1
102
RTVSPost2010Prop28
280
     0
102
RTVSPost2010PropOp28
 70
     1
102
RTVSPost2010Prop29
280
     1
102
RTVSPost2010PropOp29
 70
     1
102
RTVSPost2010Prop30
280
     1
102
RTVSPost2010PropOp30
 70
     1
102
RTVSPost2010Prop31
280
     0
102
RTVSPost2010PropOp31
 70
     1
102
RTVSPost2010Prop32
280
     0
102
RTVSPost2010PropOp32
 70
     1
102
RTVSPost2010Prop33
280
     0
102
RTVSPost2010PropOp33
 70
     1
102
RTVSPost2010Prop34
280
     0
102
RTVSPost2010PropOp34
 70
     1
102
RTVSPost2010Prop35
280
     0
102
RTVSPost2010PropOp35
 70
     1
102
RTVSPost2010Prop36
280
     0
102
RTVSPost2010PropOp36
 70
     1
102
RTVSPost2010Prop37
 90
       50
102
RTVSPost2010PropOp37
 70
     1
102
RTVSPost2010Prop38
140
0.0
102
RTVSPost2010PropOp38
 70
     1
102
RTVSPost2010Prop39
140
1.0
102
RTVSPost2010PropOp39
 70
     1
102
RTVSPost2010Prop40
 90
        0
102
RTVSPost2010PropOp40
 70
     1
102
RTVSPost2010Prop41ColorIndex
 90
       18
102
RTVSPost2010Prop41ColorRGB
 90
        0
102
RTVSPost2010PropOp41
 70
     1
102
RTVSPost2010Prop42
 90
       50
102
RTVSPost2010PropOp42
 70
     1
102
RTVSPost2010Prop43
 90
        3
102
RTVSPost2010PropOp43
 70
     1
102
RTVSPost2010Prop44ColorIndex
 90
        5
102
RTVSPost2010Prop44ColorRGB
 90
      255
102
RTVSPost2010PropOp44
 70
     1
102
RTVSPost2010Prop45
280
     0
102
RTVSPost2010PropOp45
 70
     1
102
RTVSPost2010Prop46
 90
       50
102
RTVSPost2010PropOp46
 70
     1
102
RTVSPost2010Prop47
 90
       50
102
RTVSPost2010PropOp47
 70
     1
102
RTVSPost2010Prop48
 90
       50
102
RTVSPost2010PropOp48
 70
     1
102
RTVSPost2010Prop49
280
     0
102
RTVSPost2010PropOp49
 70
     1
102
RTVSPost2010Prop50
 90
       50
102
RTVSPost2010PropOp50
 70
     1
102
RTVSPost2010Prop51ColorIndex
 90
      256
102
RTVSPost2010Prop51ColorRGB
 90
-16777216
102
RTVSPost2010PropOp51
 70
     0
102
RTVSPost2010Prop52
140
1.0
102
RTVSPost2010PropOp52
 70
     0
102
RTVSPost2010Prop53
 90
        2
102
RTVSPost2010PropOp53
 70
     1
102
RTVSPost2010Prop54
  1
strokes_ogs.tif
102
RTVSPost2010PropOp54
 70
     1
102
RTVSPost2010Prop55
280
     0
102
RTVSPost2010PropOp55
 70
     1
102
RTVSPost2010Prop56
140
1.0
102
RTVSPost2010PropOp56
 70
     1
102
RTVSPost2010Prop57
140
1.0
102
RTVSPost2010PropOp57
 70
     1
  0
XRECORD
  5
1009
102
{ACAD_REACTORS
330
1008
102
}
330
1008
100
AcDbXrecord
280
     1
102
RTVSPropertyOp0
 70
     1
102
RTVSPropertyOp1
 70
     1
102
RTVSPropertyOp2
 70
     1
102
RTVSPropertyOp3
 70
     1
102
RTVSPropertyOp4
 70
     1
102
RTVSPropertyOp5
 70
     1
102
RTVSPropertyOp6
 70
     1
102
RTVSPropertyOp7
 70
     1
102
RTVSPropertyOp8
 70
     1
102
RTVSPropertyOp9
 70
     1
102
RTVSPropertyOp10
 70
     1
102
RTVSPropertyOp11
 70
     1
102
RTVSPropertyOp12
 70
     1
102
RTVSPropertyOp13
 70
     1
102
RTVSPropertyOp14
 70
     1
102
RTVSPropertyOp15
 70
     1
102
RTVSPropertyOp16
 70
     1
102
RTVSPropertyOp17
 70
     1
102
RTVSPropertyOp18
 70
     1
102
RTVSPropertyOp19
 70
     1
102
RTVSPropertyOp20
 70
     1
102
RTVSPropertyOp21
 70
     1
102
RTVSPropertyOp22
 70
     1
102
RTVSPropertyOp23
 70
     1
102
RTVSPropertyOp24
 70
     1
102
RTVSPropertyOp25
 70
     1
102
RTVSPropertyOp26
 70
     1
102
RTVSPropertyOp27
 70
     1
102
RTVSPropertyOp28
 70
     1
102
RTVSPropertyOp29
 70
     1
102
RTVSPropertyOp30
 70
     1
102
RTVSPropertyOp31
 70
     1
102
RTVSPropertyOp32
 70
     1
102
RTVSPropertyOp33
 70
     1
102
RTVSPropertyOp34
 70
     1
102
RTVSPropertyOp35
 70
     1
102
RTVSPropertyOp36
 70
     1
102
RTVSPropertyOp37
 70
     1
102
RTVSPropertyOp38
 70
     1
102
RTVSPropertyOp39
 70
     1
102
RTVSPropertyOp40
 70
     1
102
RTVSPropertyOp41
 70
     1
102
RTVSPropertyOp42
 70
     1
102
RTVSPropertyOp43
 70
     1
102
RTVSPropertyOp44
 70
     1
102
RTVSPropertyOp45
 70
     1
102
RTVSPropertyOp46
 70
     1
102
RTVSPropertyOp47
 70
     1
102
RTVSPropertyOp48
 70
     1
102
RTVSPropertyOp49
 70
     1
102
RTVSPropertyOp50
 70
     1
102
RTVSPropertyOp51
 70
     0
102
RTVSPropertyOp52
 70
     0
102
RTVSPropertyOp53
 70
     1
102
RTVSPropertyOp54
 70
     1
102
RTVSPropertyOp55
 70
     1
102
RTVSPropertyOp56
 70
     1
102
RTVSPropertyOp57
 70
     1
102
RTVSPost2010Prop28
280
     0
102
RTVSPost2010PropOp28
 70
     1
102
RTVSPost2010Prop29
280
     1
102
RTVSPost2010PropOp29
 70
     1
102
RTVSPost2010Prop30
280
     1
102
RTVSPost2010PropOp30
 70
     1
102
RTVSPost2010Prop31
280
     0
102
RTVSPost2010PropOp31
 70
     1
102
RTVSPost2010Prop32
280
     0
102
RTVSPost2010PropOp32
 70
     1
102
RTVSPost2010Prop33
280
     0
102
RTVSPost2010PropOp33
 70
     1
102
RTVSPost2010Prop34
280
     0
102
RTVSPost2010PropOp34
 70
     1
102
RTVSPost2010Prop35
280
     0
102
RTVSPost2010PropOp35
 70
     1
102
RTVSPost2010Prop36
280
     0
102
RTVSPost2010PropOp36
 70
     1
102
RTVSPost2010Prop37
 90
       50
102
RTVSPost2010PropOp37
 70
     1
102
RTVSPost2010Prop38
140
0.0
102
RTVSPost2010PropOp38
 70
     1
102
RTVSPost2010Prop39
140
1.0
102
RTVSPost2010PropOp39
 70
     1
102
RTVSPost2010Prop40
 90
        0
102
RTVSPost2010PropOp40
 70
     1
102
RTVSPost2010Prop41ColorIndex
 90
       18
102
RTVSPost2010Prop41ColorRGB
 90
        0
102
RTVSPost2010PropOp41
 70
     1
102
RTVSPost2010Prop42
 90
       50
102
RTVSPost2010PropOp42
 70
     1
102
RTVSPost2010Prop43
 90
        3
102
RTVSPost2010PropOp43
 70
     1
102
RTVSPost2010Prop44ColorIndex
 90
        5
102
RTVSPost2010Prop44ColorRGB
 90
      255
102
RTVSPost2010PropOp44
 70
     1
102
RTVSPost2010Prop45
280
     0
102
RTVSPost2010PropOp45
 70
     1
102
RTVSPost2010Prop46
 90
       50
102
RTVSPost2010PropOp46
 70
     1
102
RTVSPost2010Prop47
 90
       50
102
RTVSPost2010PropOp47
 70
     1
102
RTVSPost2010Prop48
 90
       50
102
RTVSPost2010PropOp48
 70
     1
102
RTVSPost2010Prop49
280
     0
102
RTVSPost2010PropOp49
 70
     1
102
RTVSPost2010Prop50
 90
       50
102
RTVSPost2010PropOp50
 70
     1
102
RTVSPost2010Prop51ColorIndex
 90
      256
102
RTVSPost2010Prop51ColorRGB
 90
-16777216
102
RTVSPost2010PropOp51
 70
     0
102
RTVSPost2010Prop52
140
1.0
102
RTVSPost2010PropOp52
 70
     0
102
RTVSPost2010Prop53
 90
        2
102
RTVSPost2010PropOp53
 70
     1
102
RTVSPost2010Prop54
  1
strokes_ogs.tif
102
RTVSPost2010PropOp54
 70
     1
102
RTVSPost2010Prop55
280
     0
102
RTVSPost2010PropOp55
 70
     1
102
RTVSPost2010Prop56
140
1.0
102
RTVSPost2010PropOp56
 70
     1
102
RTVSPost2010Prop57
140
1.0
102
RTVSPost2010PropOp57
 70
     1
  0
XRECORD
  5
1011
102
{ACAD_REACTORS
330
1010
102
}
330
1010
100
AcDbXrecord
280
     1
102
RTVSPropertyOp0
 70
     1
102
RTVSPropertyOp1
 70
     1
102
RTVSPropertyOp2
 70
     1
102
RTVSPropertyOp3
 70
     1
102
RTVSPropertyOp4
 70
     1
102
RTVSPropertyOp5
 70
     1
102
RTVSPropertyOp6
 70
     1
102
RTVSPropertyOp7
 70
     1
102
RTVSPropertyOp8
 70
     1
102
RTVSPropertyOp9
 70
     1
102
RTVSPropertyOp10
 70
     1
102
RTVSPropertyOp11
 70
     1
102
RTVSPropertyOp12
 70
     1
102
RTVSPropertyOp13
 70
     1
102
RTVSPropertyOp14
 70
     1
102
RTVSPropertyOp15
 70
     1
102
RTVSPropertyOp16
 70
     1
102
RTVSPropertyOp17
 70
     1
102
RTVSPropertyOp18
 70
     1
102
RTVSPropertyOp19
 70
     1
102
RTVSPropertyOp20
 70
     1
102
RTVSPropertyOp21
 70
     1
102
RTVSPropertyOp22
 70
     1
102
RTVSPropertyOp23
 70
     1
102
RTVSPropertyOp24
 70
     1
102
RTVSPropertyOp25
 70
     1
102
RTVSPropertyOp26
 70
     1
102
RTVSPropertyOp27
 70
     1
102
RTVSPropertyOp28
 70
     1
102
RTVSPropertyOp29
 70
     1
102
RTVSPropertyOp30
 70
     1
102
RTVSPropertyOp31
 70
     1
102
RTVSPropertyOp32
 70
     1
102
RTVSPropertyOp33
 70
     1
102
RTVSPropertyOp34
 70
     1
102
RTVSPropertyOp35
 70
     1
102
RTVSPropertyOp36
 70
     1
102
RTVSPropertyOp37
 70
     1
102
RTVSPropertyOp38
 70
     1
102
RTVSPropertyOp39
 70
     1
102
RTVSPropertyOp40
 70
     1
102
RTVSPropertyOp41
 70
     1
102
RTVSPropertyOp42
 70
     1
102
RTVSPropertyOp43
 70
     1
102
RTVSPropertyOp44
 70
     1
102
RTVSPropertyOp45
 70
     1
102
RTVSPropertyOp46
 70
     1
102
RTVSPropertyOp47
 70
     1
102
RTVSPropertyOp48
 70
     1
102
RTVSPropertyOp49
 70
     1
102
RTVSPropertyOp50
 70
     1
102
RTVSPropertyOp51
 70
     0
102
RTVSPropertyOp52
 70
     0
102
RTVSPropertyOp53
 70
     1
102
RTVSPropertyOp54
 70
     1
102
RTVSPropertyOp55
 70
     1
102
RTVSPropertyOp56
 70
     1
102
RTVSPropertyOp57
 70
     1
102
RTVSPost2010Prop28
280
     0
102
RTVSPost2010PropOp28
 70
     1
102
RTVSPost2010Prop29
280
     1
102
RTVSPost2010PropOp29
 70
     1
102
RTVSPost2010Prop30
280
     1
102
RTVSPost2010PropOp30
 70
     1
102
RTVSPost2010Prop31
280
     0
102
RTVSPost2010PropOp31
 70
     1
102
RTVSPost2010Prop32
280
     0
102
RTVSPost2010PropOp32
 70
     1
102
RTVSPost2010Prop33
280
     0
102
RTVSPost2010PropOp33
 70
     1
102
RTVSPost2010Prop34
280
     0
102
RTVSPost2010PropOp34
 70
     1
102
RTVSPost2010Prop35
280
     0
102
RTVSPost2010PropOp35
 70
     1
102
RTVSPost2010Prop36
280
     0
102
RTVSPost2010PropOp36
 70
     1
102
RTVSPost2010Prop37
 90
       50
102
RTVSPost2010PropOp37
 70
     1
102
RTVSPost2010Prop38
140
0.0
102
RTVSPost2010PropOp38
 70
     1
102
RTVSPost2010Prop39
140
1.0
102
RTVSPost2010PropOp39
 70
     1
102
RTVSPost2010Prop40
 90
        0
102
RTVSPost2010PropOp40
 70
     1
102
RTVSPost2010Prop41ColorIndex
 90
       18
102
RTVSPost2010Prop41ColorRGB
 90
        0
102
RTVSPost2010PropOp41
 70
     1
102
RTVSPost2010Prop42
 90
       50
102
RTVSPost2010PropOp42
 70
     1
102
RTVSPost2010Prop43
 90
        3
102
RTVSPost2010PropOp43
 70
     1
102
RTVSPost2010Prop44ColorIndex
 90
        5
102
RTVSPost2010Prop44ColorRGB
 90
      255
102
RTVSPost2010PropOp44
 70
     1
102
RTVSPost2010Prop45
280
     0
102
RTVSPost2010PropOp45
 70
     1
102
RTVSPost2010Prop46
 90
       50
102
RTVSPost2010PropOp46
 70
     1
102
RTVSPost2010Prop47
 90
       50
102
RTVSPost2010PropOp47
 70
     1
102
RTVSPost2010Prop48
 90
       50
102
RTVSPost2010PropOp48
 70
     1
102
RTVSPost2010Prop49
280
     0
102
RTVSPost2010PropOp49
 70
     1
102
RTVSPost2010Prop50
 90
       50
102
RTVSPost2010PropOp50
 70
     1
102
RTVSPost2010Prop51ColorIndex
 90
      256
102
RTVSPost2010Prop51ColorRGB
 90
-16777216
102
RTVSPost2010PropOp51
 70
     0
102
RTVSPost2010Prop52
140
1.0
102
RTVSPost2010PropOp52
 70
     0
102
RTVSPost2010Prop53
 90
        2
102
RTVSPost2010PropOp53
 70
     1
102
RTVSPost2010Prop54
  1
strokes_ogs.tif
102
RTVSPost2010PropOp54
 70
     1
102
RTVSPost2010Prop55
280
     0
102
RTVSPost2010PropOp55
 70
     1
102
RTVSPost2010Prop56
140
1.0
102
RTVSPost2010PropOp56
 70
     1
102
RTVSPost2010Prop57
140
1.0
102
RTVSPost2010PropOp57
 70
     1
  0
XRECORD
  5
1005
102
{ACAD_REACTORS
330
1004
102
}
330
1004
100
AcDbXrecord
280
     1
102
RTVSPropertyOp0
 70
     1
102
RTVSPropertyOp1
 70
     1
102
RTVSPropertyOp2
 70
     1
102
RTVSPropertyOp3
 70
     1
102
RTVSPropertyOp4
 70
     1
102
RTVSPropertyOp5
 70
     1
102
RTVSPropertyOp6
 70
     1
102
RTVSPropertyOp7
 70
     1
102
RTVSPropertyOp8
 70
     1
102
RTVSPropertyOp9
 70
     1
102
RTVSPropertyOp10
 70
     1
102
RTVSPropertyOp11
 70
     1
102
RTVSPropertyOp12
 70
     1
102
RTVSPropertyOp13
 70
     1
102
RTVSPropertyOp14
 70
     1
102
RTVSPropertyOp15
 70
     1
102
RTVSPropertyOp16
 70
     1
102
RTVSPropertyOp17
 70
     1
102
RTVSPropertyOp18
 70
     1
102
RTVSPropertyOp19
 70
     1
102
RTVSPropertyOp20
 70
     1
102
RTVSPropertyOp21
 70
     1
102
RTVSPropertyOp22
 70
     1
102
RTVSPropertyOp23
 70
     1
102
RTVSPropertyOp24
 70
     1
102
RTVSPropertyOp25
 70
     1
102
RTVSPropertyOp26
 70
     1
102
RTVSPropertyOp27
 70
     1
102
RTVSPropertyOp28
 70
     1
102
RTVSPropertyOp29
 70
     1
102
RTVSPropertyOp30
 70
     1
102
RTVSPropertyOp31
 70
     1
102
RTVSPropertyOp32
 70
     1
102
RTVSPropertyOp33
 70
     1
102
RTVSPropertyOp34
 70
     1
102
RTVSPropertyOp35
 70
     1
102
RTVSPropertyOp36
 70
     1
102
RTVSPropertyOp37
 70
     1
102
RTVSPropertyOp38
 70
     1
102
RTVSPropertyOp39
 70
     1
102
RTVSPropertyOp40
 70
     1
102
RTVSPropertyOp41
 70
     1
102
RTVSPropertyOp42
 70
     1
102
RTVSPropertyOp43
 70
     1
102
RTVSPropertyOp44
 70
     1
102
RTVSPropertyOp45
 70
     1
102
RTVSPropertyOp46
 70
     1
102
RTVSPropertyOp47
 70
     1
102
RTVSPropertyOp48
 70
     1
102
RTVSPropertyOp49
 70
     1
102
RTVSPropertyOp50
 70
     1
102
RTVSPropertyOp51
 70
     0
102
RTVSPropertyOp52
 70
     0
102
RTVSPropertyOp53
 70
     1
102
RTVSPropertyOp54
 70
     1
102
RTVSPropertyOp55
 70
     1
102
RTVSPropertyOp56
 70
     1
102
RTVSPropertyOp57
 70
     1
102
RTVSPost2010Prop28
280
     0
102
RTVSPost2010PropOp28
 70
     1
102
RTVSPost2010Prop29
280
     1
102
RTVSPost2010PropOp29
 70
     1
102
RTVSPost2010Prop30
280
     1
102
RTVSPost2010PropOp30
 70
     1
102
RTVSPost2010Prop31
280
     0
102
RTVSPost2010PropOp31
 70
     1
102
RTVSPost2010Prop32
280
     0
102
RTVSPost2010PropOp32
 70
     1
102
RTVSPost2010Prop33
280
     0
102
RTVSPost2010PropOp33
 70
     1
102
RTVSPost2010Prop34
280
     0
102
RTVSPost2010PropOp34
 70
     1
102
RTVSPost2010Prop35
280
     0
102
RTVSPost2010PropOp35
 70
     1
102
RTVSPost2010Prop36
280
     0
102
RTVSPost2010PropOp36
 70
     1
102
RTVSPost2010Prop37
 90
       50
102
RTVSPost2010PropOp37
 70
     1
102
RTVSPost2010Prop38
140
0.0
102
RTVSPost2010PropOp38
 70
     1
102
RTVSPost2010Prop39
140
1.0
102
RTVSPost2010PropOp39
 70
     1
102
RTVSPost2010Prop40
 90
        0
102
RTVSPost2010PropOp40
 70
     1
102
RTVSPost2010Prop41ColorIndex
 90
       18
102
RTVSPost2010Prop41ColorRGB
 90
        0
102
RTVSPost2010PropOp41
 70
     1
102
RTVSPost2010Prop42
 90
       50
102
RTVSPost2010PropOp42
 70
     1
102
RTVSPost2010Prop43
 90
        3
102
RTVSPost2010PropOp43
 70
     1
102
RTVSPost2010Prop44ColorIndex
 90
        5
102
RTVSPost2010Prop44ColorRGB
 90
      255
102
RTVSPost2010PropOp44
 70
     1
102
RTVSPost2010Prop45
280
     0
102
RTVSPost2010PropOp45
 70
     1
102
RTVSPost2010Prop46
 90
       50
102
RTVSPost2010PropOp46
 70
     1
102
RTVSPost2010Prop47
 90
       50
102
RTVSPost2010PropOp47
 70
     1
102
RTVSPost2010Prop48
 90
       50
102
RTVSPost2010PropOp48
 70
     1
102
RTVSPost2010Prop49
280
     0
102
RTVSPost2010PropOp49
 70
     1
102
RTVSPost2010Prop50
 90
       50
102
RTVSPost2010PropOp50
 70
     1
102
RTVSPost2010Prop51ColorIndex
 90
      256
102
RTVSPost2010Prop51ColorRGB
 90
-16777216
102
RTVSPost2010PropOp51
 70
     0
102
RTVSPost2010Prop52
140
1.0
102
RTVSPost2010PropOp52
 70
     0
102
RTVSPost2010Prop53
 90
        2
102
RTVSPost2010PropOp53
 70
     1
102
RTVSPost2010Prop54
  1
strokes_ogs.tif
102
RTVSPost2010PropOp54
 70
     1
102
RTVSPost2010Prop55
280
     0
102
RTVSPost2010PropOp55
 70
     1
102
RTVSPost2010Prop56
140
1.0
102
RTVSPost2010PropOp56
 70
     1
102
RTVSPost2010Prop57
140
1.0
102
RTVSPost2010PropOp57
 70
     1
  0
XRECORD
  5
1007
102
{ACAD_REACTORS
330
1006
102
}
330
1006
100
AcDbXrecord
280
     1
102
RTVSPropertyOp0
 70
     1
102
RTVSPropertyOp1
 70
     1
102
RTVSPropertyOp2
 70
     1
102
RTVSPropertyOp3
 70
     1
102
RTVSPropertyOp4
 70
     1
102
RTVSPropertyOp5
 70
     1
102
RTVSPropertyOp6
 70
     1
102
RTVSPropertyOp7
 70
     1
102
RTVSPropertyOp8
 70
     1
102
RTVSPropertyOp9
 70
     1
102
RTVSPropertyOp10
 70
     1
102
RTVSPropertyOp11
 70
     1
102
RTVSPropertyOp12
 70
     1
102
RTVSPropertyOp13
 70
     1
102
RTVSPropertyOp14
 70
     1
102
RTVSPropertyOp15
 70
     1
102
RTVSPropertyOp16
 70
     1
102
RTVSPropertyOp17
 70
     1
102
RTVSPropertyOp18
 70
     1
102
RTVSPropertyOp19
 70
     1
102
RTVSPropertyOp20
 70
     1
102
RTVSPropertyOp21
 70
     1
102
RTVSPropertyOp22
 70
     1
102
RTVSPropertyOp23
 70
     1
102
RTVSPropertyOp24
 70
     1
102
RTVSPropertyOp25
 70
     1
102
RTVSPropertyOp26
 70
     1
102
RTVSPropertyOp27
 70
     1
102
RTVSPropertyOp28
 70
     1
102
RTVSPropertyOp29
 70
     1
102
RTVSPropertyOp30
 70
     1
102
RTVSPropertyOp31
 70
     1
102
RTVSPropertyOp32
 70
     1
102
RTVSPropertyOp33
 70
     1
102
RTVSPropertyOp34
 70
     1
102
RTVSPropertyOp35
 70
     1
102
RTVSPropertyOp36
 70
     1
102
RTVSPropertyOp37
 70
     1
102
RTVSPropertyOp38
 70
     1
102
RTVSPropertyOp39
 70
     1
102
RTVSPropertyOp40
 70
     1
102
RTVSPropertyOp41
 70
     1
102
RTVSPropertyOp42
 70
     1
102
RTVSPropertyOp43
 70
     1
102
RTVSPropertyOp44
 70
     1
102
RTVSPropertyOp45
 70
     1
102
RTVSPropertyOp46
 70
     1
102
RTVSPropertyOp47
 70
     1
102
RTVSPropertyOp48
 70
     1
102
RTVSPropertyOp49
 70
     1
102
RTVSPropertyOp50
 70
     1
102
RTVSPropertyOp51
 70
     0
102
RTVSPropertyOp52
 70
     0
102
RTVSPropertyOp53
 70
     1
102
RTVSPropertyOp54
 70
     1
102
RTVSPropertyOp55
 70
     1
102
RTVSPropertyOp56
 70
     1
102
RTVSPropertyOp57
 70
     1
102
RTVSPost2010Prop28
280
     0
102
RTVSPost2010PropOp28
 70
     1
102
RTVSPost2010Prop29
280
     1
102
RTVSPost2010PropOp29
 70
     1
102
RTVSPost2010Prop30
280
     1
102
RTVSPost2010PropOp30
 70
     1
102
RTVSPost2010Prop31
280
     0
102
RTVSPost2010PropOp31
 70
     1
102
RTVSPost2010Prop32
280
     0
102
RTVSPost2010PropOp32
 70
     1
102
RTVSPost2010Prop33
280
     0
102
RTVSPost2010PropOp33
 70
     1
102
RTVSPost2010Prop34
280
     0
102
RTVSPost2010PropOp34
 70
     1
102
RTVSPost2010Prop35
280
     0
102
RTVSPost2010PropOp35
 70
     1
102
RTVSPost2010Prop36
280
     0
102
RTVSPost2010PropOp36
 70
     1
102
RTVSPost2010Prop37
 90
       50
102
RTVSPost2010PropOp37
 70
     1
102
RTVSPost2010Prop38
140
0.0
102
RTVSPost2010PropOp38
 70
     1
102
RTVSPost2010Prop39
140
1.0
102
RTVSPost2010PropOp39
 70
     1
102
RTVSPost2010Prop40
 90
        0
102
RTVSPost2010PropOp40
 70
     1
102
RTVSPost2010Prop41ColorIndex
 90
       18
102
RTVSPost2010Prop41ColorRGB
 90
        0
102
RTVSPost2010PropOp41
 70
     1
102
RTVSPost2010Prop42
 90
       50
102
RTVSPost2010PropOp42
 70
     1
102
RTVSPost2010Prop43
 90
        3
102
RTVSPost2010PropOp43
 70
     1
102
RTVSPost2010Prop44ColorIndex
 90
        5
102
RTVSPost2010Prop44ColorRGB
 90
      255
102
RTVSPost2010PropOp44
 70
     1
102
RTVSPost2010Prop45
280
     0
102
RTVSPost2010PropOp45
 70
     1
102
RTVSPost2010Prop46
 90
       50
102
RTVSPost2010PropOp46
 70
     1
102
RTVSPost2010Prop47
 90
       50
102
RTVSPost2010PropOp47
 70
     1
102
RTVSPost2010Prop48
 90
       50
102
RTVSPost2010PropOp48
 70
     1
102
RTVSPost2010Prop49
280
     0
102
RTVSPost2010PropOp49
 70
     1
102
RTVSPost2010Prop50
 90
       50
102
RTVSPost2010PropOp50
 70
     1
102
RTVSPost2010Prop51ColorIndex
 90
      256
102
RTVSPost2010Prop51ColorRGB
 90
-16777216
102
RTVSPost2010PropOp51
 70
     0
102
RTVSPost2010Prop52
140
1.0
102
RTVSPost2010PropOp52
 70
     0
102
RTVSPost2010Prop53
 90
        2
102
RTVSPost2010PropOp53
 70
     1
102
RTVSPost2010Prop54
  1
strokes_ogs.tif
102
RTVSPost2010PropOp54
 70
     1
102
RTVSPost2010Prop55
280
     0
102
RTVSPost2010PropOp55
 70
     1
102
RTVSPost2010Prop56
140
1.0
102
RTVSPost2010PropOp56
 70
     1
102
RTVSPost2010Prop57
140
1.0
102
RTVSPost2010PropOp57
 70
     1
  0
XRECORD
  5
1017
102
{ACAD_REACTORS
330
1016
102
}
330
1016
100
AcDbXrecord
280
     1
102
RTVSPropertyOp0
 70
     0
102
RTVSPropertyOp1
 70
     0
102
RTVSPropertyOp2
 70
     0
102
RTVSPropertyOp3
 70
     0
102
RTVSPropertyOp4
 70
     0
102
RTVSPropertyOp5
 70
     0
102
RTVSPropertyOp6
 70
     0
102
RTVSPropertyOp7
 70
     0
102
RTVSPropertyOp8
 70
     0
102
RTVSPropertyOp9
 70
     0
102
RTVSPropertyOp10
 70
     0
102
RTVSPropertyOp11
 70
     0
102
RTVSPropertyOp12
 70
     0
102
RTVSPropertyOp13
 70
     0
102
RTVSPropertyOp14
 70
     2
102
RTVSPropertyOp15
 70
     0
102
RTVSPropertyOp16
 70
     0
102
RTVSPropertyOp17
 70
     0
102
RTVSPropertyOp18
 70
     0
102
RTVSPropertyOp19
 70
     0
102
RTVSPropertyOp20
 70
     0
102
RTVSPropertyOp21
 70
     0
102
RTVSPropertyOp22
 70
     0
102
RTVSPropertyOp23
 70
     0
102
RTVSPropertyOp24
 70
     0
102
RTVSPropertyOp25
 70
     0
102
RTVSPropertyOp26
 70
     0
102
RTVSPropertyOp27
 70
     0
102
RTVSPropertyOp28
 70
     0
102
RTVSPropertyOp29
 70
     0
102
RTVSPropertyOp30
 70
     0
102
RTVSPropertyOp31
 70
     0
102
RTVSPropertyOp32
 70
     0
102
RTVSPropertyOp33
 70
     0
102
RTVSPropertyOp34
 70
     0
102
RTVSPropertyOp35
 70
     0
102
RTVSPropertyOp36
 70
     0
102
RTVSPropertyOp37
 70
     0
102
RTVSPropertyOp38
 70
     0
102
RTVSPropertyOp39
 70
     0
102
RTVSPropertyOp40
 70
     0
102
RTVSPropertyOp41
 70
     0
102
RTVSPropertyOp42
 70
     0
102
RTVSPropertyOp43
 70
     0
102
RTVSPropertyOp44
 70
     0
102
RTVSPropertyOp45
 70
     0
102
RTVSPropertyOp46
 70
     0
102
RTVSPropertyOp47
 70
     0
102
RTVSPropertyOp48
 70
     0
102
RTVSPropertyOp49
 70
     0
102
RTVSPropertyOp50
 70
     0
102
RTVSPropertyOp51
 70
     0
102
RTVSPropertyOp52
 70
     0
102
RTVSPropertyOp53
 70
     0
102
RTVSPropertyOp54
 70
     0
102
RTVSPropertyOp55
 70
     0
102
RTVSPropertyOp56
 70
     0
102
RTVSPropertyOp57
 70
     0
102
RTVSPost2010Prop28
280
     0
102
RTVSPost2010PropOp28
 70
     0
102
RTVSPost2010Prop29
280
     1
102
RTVSPost2010PropOp29
 70
     0
102
RTVSPost2010Prop30
280
     1
102
RTVSPost2010PropOp30
 70
     0
102
RTVSPost2010Prop31
280
     0
102
RTVSPost2010PropOp31
 70
     0
102
RTVSPost2010Prop32
280
     0
102
RTVSPost2010PropOp32
 70
     0
102
RTVSPost2010Prop33
280
     0
102
RTVSPost2010PropOp33
 70
     0
102
RTVSPost2010Prop34
280
     0
102
RTVSPost2010PropOp34
 70
     0
102
RTVSPost2010Prop35
280
     0
102
RTVSPost2010PropOp35
 70
     0
102
RTVSPost2010Prop36
280
     0
102
RTVSPost2010PropOp36
 70
     0
102
RTVSPost2010Prop37
 90
       50
102
RTVSPost2010PropOp37
 70
     0
102
RTVSPost2010Prop38
140
0.0
102
RTVSPost2010PropOp38
 70
     0
102
RTVSPost2010Prop39
140
1.0
102
RTVSPost2010PropOp39
 70
     0
102
RTVSPost2010Prop40
 90
        0
102
RTVSPost2010PropOp40
 70
     0
102
RTVSPost2010Prop41ColorIndex
 90
       18
102
RTVSPost2010Prop41ColorRGB
 90
        0
102
RTVSPost2010PropOp41
 70
     0
102
RTVSPost2010Prop42
 90
       50
102
RTVSPost2010PropOp42
 70
     0
102
RTVSPost2010Prop43
 90
        3
102
RTVSPost2010PropOp43
 70
     0
102
RTVSPost2010Prop44ColorIndex
 90
        5
102
RTVSPost2010Prop44ColorRGB
 90
      255
102
RTVSPost2010PropOp44
 70
     0
102
RTVSPost2010Prop45
280
     0
102
RTVSPost2010PropOp45
 70
     0
102
RTVSPost2010Prop46
 90
       50
102
RTVSPost2010PropOp46
 70
     0
102
RTVSPost2010Prop47
 90
       50
102
RTVSPost2010PropOp47
 70
     0
102
RTVSPost2010Prop48
 90
       50
102
RTVSPost2010PropOp48
 70
     0
102
RTVSPost2010Prop49
280
     0
102
RTVSPost2010PropOp49
 70
     0
102
RTVSPost2010Prop50
 90
       50
102
RTVSPost2010PropOp50
 70
     0
102
RTVSPost2010Prop51ColorIndex
 90
      256
102
RTVSPost2010Prop51ColorRGB
 90
-16777216
102
RTVSPost2010PropOp51
 70
     0
102
RTVSPost2010Prop52
140
1.0
102
RTVSPost2010PropOp52
 70
     0
102
RTVSPost2010Prop53
 90
        2
102
RTVSPost2010PropOp53
 70
     0
102
RTVSPost2010Prop54
  1
strokes_ogs.tif
102
RTVSPost2010PropOp54
 70
     0
102
RTVSPost2010Prop55
280
     0
102
RTVSPost2010PropOp55
 70
     0
102
RTVSPost2010Prop56
140
1.0
102
RTVSPost2010PropOp56
 70
     0
102
RTVSPost2010Prop57
140
1.0
102
RTVSPost2010PropOp57
 70
     0
  0
XRECORD
  5
100F
102
{ACAD_REACTORS
330
100E
102
}
330
100E
100
AcDbXrecord
280
     1
102
RTVSPropertyOp0
 70
     1
102
RTVSPropertyOp1
 70
     1
102
RTVSPropertyOp2
 70
     1
102
RTVSPropertyOp3
 70
     1
102
RTVSPropertyOp4
 70
     1
102
RTVSPropertyOp5
 70
     1
102
RTVSPropertyOp6
 70
     1
102
RTVSPropertyOp7
 70
     1
102
RTVSPropertyOp8
 70
     1
102
RTVSPropertyOp9
 70
     1
102
RTVSPropertyOp10
 70
     1
102
RTVSPropertyOp11
 70
     1
102
RTVSPropertyOp12
 70
     1
102
RTVSPropertyOp13
 70
     1
102
RTVSPropertyOp14
 70
     1
102
RTVSPropertyOp15
 70
     1
102
RTVSPropertyOp16
 70
     1
102
RTVSPropertyOp17
 70
     1
102
RTVSPropertyOp18
 70
     1
102
RTVSPropertyOp19
 70
     1
102
RTVSPropertyOp20
 70
     1
102
RTVSPropertyOp21
 70
     1
102
RTVSPropertyOp22
 70
     1
102
RTVSPropertyOp23
 70
     1
102
RTVSPropertyOp24
 70
     1
102
RTVSPropertyOp25
 70
     1
102
RTVSPropertyOp26
 70
     1
102
RTVSPropertyOp27
 70
     1
102
RTVSPropertyOp28
 70
     1
102
RTVSPropertyOp29
 70
     1
102
RTVSPropertyOp30
 70
     1
102
RTVSPropertyOp31
 70
     1
102
RTVSPropertyOp32
 70
     1
102
RTVSPropertyOp33
 70
     1
102
RTVSPropertyOp34
 70
     1
102
RTVSPropertyOp35
 70
     1
102
RTVSPropertyOp36
 70
     1
102
RTVSPropertyOp37
 70
     1
102
RTVSPropertyOp38
 70
     1
102
RTVSPropertyOp39
 70
     1
102
RTVSPropertyOp40
 70
     1
102
RTVSPropertyOp41
 70
     1
102
RTVSPropertyOp42
 70
     1
102
RTVSPropertyOp43
 70
     1
102
RTVSPropertyOp44
 70
     1
102
RTVSPropertyOp45
 70
     1
102
RTVSPropertyOp46
 70
     1
102
RTVSPropertyOp47
 70
     1
102
RTVSPropertyOp48
 70
     1
102
RTVSPropertyOp49
 70
     1
102
RTVSPropertyOp50
 70
     1
102
RTVSPropertyOp51
 70
     0
102
RTVSPropertyOp52
 70
     0
102
RTVSPropertyOp53
 70
     1
102
RTVSPropertyOp54
 70
     1
102
RTVSPropertyOp55
 70
     1
102
RTVSPropertyOp56
 70
     1
102
RTVSPropertyOp57
 70
     1
102
RTVSPost2010Prop28
280
     0
102
RTVSPost2010PropOp28
 70
     1
102
RTVSPost2010Prop29
280
     1
102
RTVSPost2010PropOp29
 70
     1
102
RTVSPost2010Prop30
280
     1
102
RTVSPost2010PropOp30
 70
     1
102
RTVSPost2010Prop31
280
     0
102
RTVSPost2010PropOp31
 70
     1
102
RTVSPost2010Prop32
280
     0
102
RTVSPost2010PropOp32
 70
     1
102
RTVSPost2010Prop33
280
     0
102
RTVSPost2010PropOp33
 70
     1
102
RTVSPost2010Prop34
280
     0
102
RTVSPost2010PropOp34
 70
     1
102
RTVSPost2010Prop35
280
     0
102
RTVSPost2010PropOp35
 70
     1
102
RTVSPost2010Prop36
280
     0
102
RTVSPost2010PropOp36
 70
     1
102
RTVSPost2010Prop37
 90
       50
102
RTVSPost2010PropOp37
 70
     1
102
RTVSPost2010Prop38
140
0.0
102
RTVSPost2010PropOp38
 70
     1
102
RTVSPost2010Prop39
140
1.0
102
RTVSPost2010PropOp39
 70
     1
102
RTVSPost2010Prop40
 90
        0
102
RTVSPost2010PropOp40
 70
     1
102
RTVSPost2010Prop41ColorIndex
 90
       18
102
RTVSPost2010Prop41ColorRGB
 90
        0
102
RTVSPost2010PropOp41
 70
     1
102
RTVSPost2010Prop42
 90
       50
102
RTVSPost2010PropOp42
 70
     1
102
RTVSPost2010Prop43
 90
        3
102
RTVSPost2010PropOp43
 70
     1
102
RTVSPost2010Prop44ColorIndex
 90
        5
102
RTVSPost2010Prop44ColorRGB
 90
      255
102
RTVSPost2010PropOp44
 70
     1
102
RTVSPost2010Prop45
280
     0
102
RTVSPost2010PropOp45
 70
     1
102
RTVSPost2010Prop46
 90
       50
102
RTVSPost2010PropOp46
 70
     1
102
RTVSPost2010Prop47
 90
       50
102
RTVSPost2010PropOp47
 70
     1
102
RTVSPost2010Prop48
 90
       50
102
RTVSPost2010PropOp48
 70
     1
102
RTVSPost2010Prop49
280
     0
102
RTVSPost2010PropOp49
 70
     1
102
RTVSPost2010Prop50
 90
       50
102
RTVSPost2010PropOp50
 70
     1
102
RTVSPost2010Prop51ColorIndex
 90
      256
102
RTVSPost2010Prop51ColorRGB
 90
-16777216
102
RTVSPost2010PropOp51
 70
     0
102
RTVSPost2010Prop52
140
1.0
102
RTVSPost2010PropOp52
 70
     0
102
RTVSPost2010Prop53
 90
        2
102
RTVSPost2010PropOp53
 70
     1
102
RTVSPost2010Prop54
  1
strokes_ogs.tif
102
RTVSPost2010PropOp54
 70
     1
102
RTVSPost2010Prop55
280
     0
102
RTVSPost2010PropOp55
 70
     1
102
RTVSPost2010Prop56
140
1.0
102
RTVSPost2010PropOp56
 70
     1
102
RTVSPost2010Prop57
140
1.0
102
RTVSPost2010PropOp57
 70
     1
  0
XRECORD
  5
FF3
102
{ACAD_REACTORS
330
FF2
102
}
330
FF2
100
AcDbXrecord
280
     1
102
RTVSPropertyOp0
 70
     1
102
RTVSPropertyOp1
 70
     1
102
RTVSPropertyOp2
 70
     1
102
RTVSPropertyOp3
 70
     1
102
RTVSPropertyOp4
 70
     1
102
RTVSPropertyOp5
 70
     1
102
RTVSPropertyOp6
 70
     1
102
RTVSPropertyOp7
 70
     1
102
RTVSPropertyOp8
 70
     1
102
RTVSPropertyOp9
 70
     1
102
RTVSPropertyOp10
 70
     1
102
RTVSPropertyOp11
 70
     1
102
RTVSPropertyOp12
 70
     1
102
RTVSPropertyOp13
 70
     1
102
RTVSPropertyOp14
 70
     1
102
RTVSPropertyOp15
 70
     1
102
RTVSPropertyOp16
 70
     1
102
RTVSPropertyOp17
 70
     1
102
RTVSPropertyOp18
 70
     1
102
RTVSPropertyOp19
 70
     1
102
RTVSPropertyOp20
 70
     1
102
RTVSPropertyOp21
 70
     1
102
RTVSPropertyOp22
 70
     1
102
RTVSPropertyOp23
 70
     1
102
RTVSPropertyOp24
 70
     1
102
RTVSPropertyOp25
 70
     1
102
RTVSPropertyOp26
 70
     1
102
RTVSPropertyOp27
 70
     1
102
RTVSPropertyOp28
 70
     1
102
RTVSPropertyOp29
 70
     1
102
RTVSPropertyOp30
 70
     1
102
RTVSPropertyOp31
 70
     1
102
RTVSPropertyOp32
 70
     1
102
RTVSPropertyOp33
 70
     1
102
RTVSPropertyOp34
 70
     1
102
RTVSPropertyOp35
 70
     1
102
RTVSPropertyOp36
 70
     1
102
RTVSPropertyOp37
 70
     1
102
RTVSPropertyOp38
 70
     1
102
RTVSPropertyOp39
 70
     1
102
RTVSPropertyOp40
 70
     1
102
RTVSPropertyOp41
 70
     1
102
RTVSPropertyOp42
 70
     1
102
RTVSPropertyOp43
 70
     1
102
RTVSPropertyOp44
 70
     1
102
RTVSPropertyOp45
 70
     1
102
RTVSPropertyOp46
 70
     1
102
RTVSPropertyOp47
 70
     1
102
RTVSPropertyOp48
 70
     1
102
RTVSPropertyOp49
 70
     1
102
RTVSPropertyOp50
 70
     1
102
RTVSPropertyOp51
 70
     0
102
RTVSPropertyOp52
 70
     0
102
RTVSPropertyOp53
 70
     1
102
RTVSPropertyOp54
 70
     1
102
RTVSPropertyOp55
 70
     1
102
RTVSPropertyOp56
 70
     1
102
RTVSPropertyOp57
 70
     1
102
RTVSPost2010Prop28
280
     0
102
RTVSPost2010PropOp28
 70
     1
102
RTVSPost2010Prop29
280
     1
102
RTVSPost2010PropOp29
 70
     1
102
RTVSPost2010Prop30
280
     1
102
RTVSPost2010PropOp30
 70
     1
102
RTVSPost2010Prop31
280
     0
102
RTVSPost2010PropOp31
 70
     1
102
RTVSPost2010Prop32
280
     0
102
RTVSPost2010PropOp32
 70
     1
102
RTVSPost2010Prop33
280
     0
102
RTVSPost2010PropOp33
 70
     1
102
RTVSPost2010Prop34
280
     0
102
RTVSPost2010PropOp34
 70
     1
102
RTVSPost2010Prop35
280
     0
102
RTVSPost2010PropOp35
 70
     1
102
RTVSPost2010Prop36
280
     0
102
RTVSPost2010PropOp36
 70
     1
102
RTVSPost2010Prop37
 90
       50
102
RTVSPost2010PropOp37
 70
     1
102
RTVSPost2010Prop38
140
0.0
102
RTVSPost2010PropOp38
 70
     1
102
RTVSPost2010Prop39
140
1.0
102
RTVSPost2010PropOp39
 70
     1
102
RTVSPost2010Prop40
 90
        0
102
RTVSPost2010PropOp40
 70
     1
102
RTVSPost2010Prop41ColorIndex
 90
       18
102
RTVSPost2010Prop41ColorRGB
 90
        0
102
RTVSPost2010PropOp41
 70
     1
102
RTVSPost2010Prop42
 90
       50
102
RTVSPost2010PropOp42
 70
     1
102
RTVSPost2010Prop43
 90
        3
102
RTVSPost2010PropOp43
 70
     1
102
RTVSPost2010Prop44ColorIndex
 90
        5
102
RTVSPost2010Prop44ColorRGB
 90
      255
102
RTVSPost2010PropOp44
 70
     1
102
RTVSPost2010Prop45
280
     0
102
RTVSPost2010PropOp45
 70
     1
102
RTVSPost2010Prop46
 90
       50
102
RTVSPost2010PropOp46
 70
     1
102
RTVSPost2010Prop47
 90
       50
102
RTVSPost2010PropOp47
 70
     1
102
RTVSPost2010Prop48
 90
       50
102
RTVSPost2010PropOp48
 70
     1
102
RTVSPost2010Prop49
280
     0
102
RTVSPost2010PropOp49
 70
     1
102
RTVSPost2010Prop50
 90
       50
102
RTVSPost2010PropOp50
 70
     1
102
RTVSPost2010Prop51ColorIndex
 90
      256
102
RTVSPost2010Prop51ColorRGB
 90
-16777216
102
RTVSPost2010PropOp51
 70
     0
102
RTVSPost2010Prop52
140
1.0
102
RTVSPost2010PropOp52
 70
     0
102
RTVSPost2010Prop53
 90
        2
102
RTVSPost2010PropOp53
 70
     1
102
RTVSPost2010Prop54
  1
strokes_ogs.tif
102
RTVSPost2010PropOp54
 70
     1
102
RTVSPost2010Prop55
280
     0
102
RTVSPost2010PropOp55
 70
     1
102
RTVSPost2010Prop56
140
1.0
102
RTVSPost2010PropOp56
 70
     1
102
RTVSPost2010Prop57
140
1.0
102
RTVSPost2010PropOp57
 70
     1
  0
XRECORD
  5
FF5
102
{ACAD_REACTORS
330
FF4
102
}
330
FF4
100
AcDbXrecord
280
     1
102
RTVSPropertyOp0
 70
     1
102
RTVSPropertyOp1
 70
     1
102
RTVSPropertyOp2
 70
     1
102
RTVSPropertyOp3
 70
     1
102
RTVSPropertyOp4
 70
     1
102
RTVSPropertyOp5
 70
     1
102
RTVSPropertyOp6
 70
     1
102
RTVSPropertyOp7
 70
     1
102
RTVSPropertyOp8
 70
     1
102
RTVSPropertyOp9
 70
     1
102
RTVSPropertyOp10
 70
     1
102
RTVSPropertyOp11
 70
     1
102
RTVSPropertyOp12
 70
     1
102
RTVSPropertyOp13
 70
     1
102
RTVSPropertyOp14
 70
     1
102
RTVSPropertyOp15
 70
     1
102
RTVSPropertyOp16
 70
     1
102
RTVSPropertyOp17
 70
     1
102
RTVSPropertyOp18
 70
     1
102
RTVSPropertyOp19
 70
     1
102
RTVSPropertyOp20
 70
     1
102
RTVSPropertyOp21
 70
     1
102
RTVSPropertyOp22
 70
     1
102
RTVSPropertyOp23
 70
     1
102
RTVSPropertyOp24
 70
     1
102
RTVSPropertyOp25
 70
     1
102
RTVSPropertyOp26
 70
     1
102
RTVSPropertyOp27
 70
     1
102
RTVSPropertyOp28
 70
     1
102
RTVSPropertyOp29
 70
     1
102
RTVSPropertyOp30
 70
     1
102
RTVSPropertyOp31
 70
     1
102
RTVSPropertyOp32
 70
     1
102
RTVSPropertyOp33
 70
     1
102
RTVSPropertyOp34
 70
     1
102
RTVSPropertyOp35
 70
     1
102
RTVSPropertyOp36
 70
     1
102
RTVSPropertyOp37
 70
     1
102
RTVSPropertyOp38
 70
     1
102
RTVSPropertyOp39
 70
     1
102
RTVSPropertyOp40
 70
     1
102
RTVSPropertyOp41
 70
     1
102
RTVSPropertyOp42
 70
     1
102
RTVSPropertyOp43
 70
     1
102
RTVSPropertyOp44
 70
     1
102
RTVSPropertyOp45
 70
     1
102
RTVSPropertyOp46
 70
     1
102
RTVSPropertyOp47
 70
     1
102
RTVSPropertyOp48
 70
     1
102
RTVSPropertyOp49
 70
     1
102
RTVSPropertyOp50
 70
     1
102
RTVSPropertyOp51
 70
     0
102
RTVSPropertyOp52
 70
     0
102
RTVSPropertyOp53
 70
     1
102
RTVSPropertyOp54
 70
     1
102
RTVSPropertyOp55
 70
     1
102
RTVSPropertyOp56
 70
     1
102
RTVSPropertyOp57
 70
     1
102
RTVSPost2010Prop28
280
     0
102
RTVSPost2010PropOp28
 70
     1
102
RTVSPost2010Prop29
280
     1
102
RTVSPost2010PropOp29
 70
     1
102
RTVSPost2010Prop30
280
     1
102
RTVSPost2010PropOp30
 70
     1
102
RTVSPost2010Prop31
280
     0
102
RTVSPost2010PropOp31
 70
     1
102
RTVSPost2010Prop32
280
     0
102
RTVSPost2010PropOp32
 70
     1
102
RTVSPost2010Prop33
280
     0
102
RTVSPost2010PropOp33
 70
     1
102
RTVSPost2010Prop34
280
     0
102
RTVSPost2010PropOp34
 70
     1
102
RTVSPost2010Prop35
280
     0
102
RTVSPost2010PropOp35
 70
     1
102
RTVSPost2010Prop36
280
     0
102
RTVSPost2010PropOp36
 70
     1
102
RTVSPost2010Prop37
 90
       50
102
RTVSPost2010PropOp37
 70
     1
102
RTVSPost2010Prop38
140
0.0
102
RTVSPost2010PropOp38
 70
     1
102
RTVSPost2010Prop39
140
1.0
102
RTVSPost2010PropOp39
 70
     1
102
RTVSPost2010Prop40
 90
        0
102
RTVSPost2010PropOp40
 70
     1
102
RTVSPost2010Prop41ColorIndex
 90
       18
102
RTVSPost2010Prop41ColorRGB
 90
        0
102
RTVSPost2010PropOp41
 70
     1
102
RTVSPost2010Prop42
 90
       50
102
RTVSPost2010PropOp42
 70
     1
102
RTVSPost2010Prop43
 90
        3
102
RTVSPost2010PropOp43
 70
     1
102
RTVSPost2010Prop44ColorIndex
 90
        5
102
RTVSPost2010Prop44ColorRGB
 90
      255
102
RTVSPost2010PropOp44
 70
     1
102
RTVSPost2010Prop45
280
     0
102
RTVSPost2010PropOp45
 70
     1
102
RTVSPost2010Prop46
 90
       50
102
RTVSPost2010PropOp46
 70
     1
102
RTVSPost2010Prop47
 90
       50
102
RTVSPost2010PropOp47
 70
     1
102
RTVSPost2010Prop48
 90
       50
102
RTVSPost2010PropOp48
 70
     1
102
RTVSPost2010Prop49
280
     0
102
RTVSPost2010PropOp49
 70
     1
102
RTVSPost2010Prop50
 90
       50
102
RTVSPost2010PropOp50
 70
     1
102
RTVSPost2010Prop51ColorIndex
 90
      256
102
RTVSPost2010Prop51ColorRGB
 90
-16777216
102
RTVSPost2010PropOp51
 70
     0
102
RTVSPost2010Prop52
140
1.0
102
RTVSPost2010PropOp52
 70
     0
102
RTVSPost2010Prop53
 90
        2
102
RTVSPost2010PropOp53
 70
     1
102
RTVSPost2010Prop54
  1
strokes_ogs.tif
102
RTVSPost2010PropOp54
 70
     1
102
RTVSPost2010Prop55
280
     0
102
RTVSPost2010PropOp55
 70
     1
102
RTVSPost2010Prop56
140
1.0
102
RTVSPost2010PropOp56
 70
     1
102
RTVSPost2010Prop57
140
1.0
102
RTVSPost2010PropOp57
 70
     1
  0
XRECORD
  5
FF7
102
{ACAD_REACTORS
330
FF6
102
}
330
FF6
100
AcDbXrecord
280
     1
102
RTVSPropertyOp0
 70
     1
102
RTVSPropertyOp1
 70
     1
102
RTVSPropertyOp2
 70
     1
102
RTVSPropertyOp3
 70
     1
102
RTVSPropertyOp4
 70
     1
102
RTVSPropertyOp5
 70
     1
102
RTVSPropertyOp6
 70
     1
102
RTVSPropertyOp7
 70
     1
102
RTVSPropertyOp8
 70
     1
102
RTVSPropertyOp9
 70
     1
102
RTVSPropertyOp10
 70
     1
102
RTVSPropertyOp11
 70
     1
102
RTVSPropertyOp12
 70
     1
102
RTVSPropertyOp13
 70
     1
102
RTVSPropertyOp14
 70
     1
102
RTVSPropertyOp15
 70
     1
102
RTVSPropertyOp16
 70
     1
102
RTVSPropertyOp17
 70
     1
102
RTVSPropertyOp18
 70
     1
102
RTVSPropertyOp19
 70
     1
102
RTVSPropertyOp20
 70
     1
102
RTVSPropertyOp21
 70
     1
102
RTVSPropertyOp22
 70
     1
102
RTVSPropertyOp23
 70
     1
102
RTVSPropertyOp24
 70
     1
102
RTVSPropertyOp25
 70
     1
102
RTVSPropertyOp26
 70
     1
102
RTVSPropertyOp27
 70
     1
102
RTVSPropertyOp28
 70
     1
102
RTVSPropertyOp29
 70
     1
102
RTVSPropertyOp30
 70
     1
102
RTVSPropertyOp31
 70
     1
102
RTVSPropertyOp32
 70
     1
102
RTVSPropertyOp33
 70
     1
102
RTVSPropertyOp34
 70
     1
102
RTVSPropertyOp35
 70
     1
102
RTVSPropertyOp36
 70
     1
102
RTVSPropertyOp37
 70
     1
102
RTVSPropertyOp38
 70
     1
102
RTVSPropertyOp39
 70
     1
102
RTVSPropertyOp40
 70
     1
102
RTVSPropertyOp41
 70
     1
102
RTVSPropertyOp42
 70
     1
102
RTVSPropertyOp43
 70
     1
102
RTVSPropertyOp44
 70
     1
102
RTVSPropertyOp45
 70
     1
102
RTVSPropertyOp46
 70
     1
102
RTVSPropertyOp47
 70
     1
102
RTVSPropertyOp48
 70
     1
102
RTVSPropertyOp49
 70
     1
102
RTVSPropertyOp50
 70
     1
102
RTVSPropertyOp51
 70
     0
102
RTVSPropertyOp52
 70
     0
102
RTVSPropertyOp53
 70
     1
102
RTVSPropertyOp54
 70
     1
102
RTVSPropertyOp55
 70
     1
102
RTVSPropertyOp56
 70
     1
102
RTVSPropertyOp57
 70
     1
102
RTVSPost2010Prop28
280
     0
102
RTVSPost2010PropOp28
 70
     1
102
RTVSPost2010Prop29
280
     1
102
RTVSPost2010PropOp29
 70
     1
102
RTVSPost2010Prop30
280
     1
102
RTVSPost2010PropOp30
 70
     1
102
RTVSPost2010Prop31
280
     0
102
RTVSPost2010PropOp31
 70
     1
102
RTVSPost2010Prop32
280
     0
102
RTVSPost2010PropOp32
 70
     1
102
RTVSPost2010Prop33
280
     0
102
RTVSPost2010PropOp33
 70
     1
102
RTVSPost2010Prop34
280
     0
102
RTVSPost2010PropOp34
 70
     1
102
RTVSPost2010Prop35
280
     0
102
RTVSPost2010PropOp35
 70
     1
102
RTVSPost2010Prop36
280
     0
102
RTVSPost2010PropOp36
 70
     1
102
RTVSPost2010Prop37
 90
       50
102
RTVSPost2010PropOp37
 70
     1
102
RTVSPost2010Prop38
140
0.0
102
RTVSPost2010PropOp38
 70
     1
102
RTVSPost2010Prop39
140
1.0
102
RTVSPost2010PropOp39
 70
     1
102
RTVSPost2010Prop40
 90
        0
102
RTVSPost2010PropOp40
 70
     1
102
RTVSPost2010Prop41ColorIndex
 90
       18
102
RTVSPost2010Prop41ColorRGB
 90
        0
102
RTVSPost2010PropOp41
 70
     1
102
RTVSPost2010Prop42
 90
       50
102
RTVSPost2010PropOp42
 70
     1
102
RTVSPost2010Prop43
 90
        3
102
RTVSPost2010PropOp43
 70
     1
102
RTVSPost2010Prop44ColorIndex
 90
        5
102
RTVSPost2010Prop44ColorRGB
 90
      255
102
RTVSPost2010PropOp44
 70
     1
102
RTVSPost2010Prop45
280
     0
102
RTVSPost2010PropOp45
 70
     1
102
RTVSPost2010Prop46
 90
       50
102
RTVSPost2010PropOp46
 70
     1
102
RTVSPost2010Prop47
 90
       50
102
RTVSPost2010PropOp47
 70
     1
102
RTVSPost2010Prop48
 90
       50
102
RTVSPost2010PropOp48
 70
     1
102
RTVSPost2010Prop49
280
     0
102
RTVSPost2010PropOp49
 70
     1
102
RTVSPost2010Prop50
 90
       50
102
RTVSPost2010PropOp50
 70
     1
102
RTVSPost2010Prop51ColorIndex
 90
      256
102
RTVSPost2010Prop51ColorRGB
 90
-16777216
102
RTVSPost2010PropOp51
 70
     0
102
RTVSPost2010Prop52
140
1.0
102
RTVSPost2010PropOp52
 70
     0
102
RTVSPost2010Prop53
 90
        2
102
RTVSPost2010PropOp53
 70
     1
102
RTVSPost2010Prop54
  1
strokes_ogs.tif
102
RTVSPost2010PropOp54
 70
     1
102
RTVSPost2010Prop55
280
     0
102
RTVSPost2010PropOp55
 70
     1
102
RTVSPost2010Prop56
140
1.0
102
RTVSPost2010PropOp56
 70
     1
102
RTVSPost2010Prop57
140
1.0
102
RTVSPost2010PropOp57
 70
     1
  0
XRECORD
  5
FF9
102
{ACAD_REACTORS
330
FF8
102
}
330
FF8
100
AcDbXrecord
280
     1
102
RTVSPropertyOp0
 70
     1
102
RTVSPropertyOp1
 70
     1
102
RTVSPropertyOp2
 70
     1
102
RTVSPropertyOp3
 70
     1
102
RTVSPropertyOp4
 70
     1
102
RTVSPropertyOp5
 70
     1
102
RTVSPropertyOp6
 70
     1
102
RTVSPropertyOp7
 70
     1
102
RTVSPropertyOp8
 70
     1
102
RTVSPropertyOp9
 70
     1
102
RTVSPropertyOp10
 70
     1
102
RTVSPropertyOp11
 70
     1
102
RTVSPropertyOp12
 70
     1
102
RTVSPropertyOp13
 70
     1
102
RTVSPropertyOp14
 70
     1
102
RTVSPropertyOp15
 70
     1
102
RTVSPropertyOp16
 70
     1
102
RTVSPropertyOp17
 70
     1
102
RTVSPropertyOp18
 70
     1
102
RTVSPropertyOp19
 70
     1
102
RTVSPropertyOp20
 70
     1
102
RTVSPropertyOp21
 70
     1
102
RTVSPropertyOp22
 70
     1
102
RTVSPropertyOp23
 70
     1
102
RTVSPropertyOp24
 70
     1
102
RTVSPropertyOp25
 70
     1
102
RTVSPropertyOp26
 70
     1
102
RTVSPropertyOp27
 70
     1
102
RTVSPropertyOp28
 70
     1
102
RTVSPropertyOp29
 70
     1
102
RTVSPropertyOp30
 70
     1
102
RTVSPropertyOp31
 70
     1
102
RTVSPropertyOp32
 70
     1
102
RTVSPropertyOp33
 70
     1
102
RTVSPropertyOp34
 70
     1
102
RTVSPropertyOp35
 70
     1
102
RTVSPropertyOp36
 70
     1
102
RTVSPropertyOp37
 70
     1
102
RTVSPropertyOp38
 70
     1
102
RTVSPropertyOp39
 70
     1
102
RTVSPropertyOp40
 70
     1
102
RTVSPropertyOp41
 70
     1
102
RTVSPropertyOp42
 70
     1
102
RTVSPropertyOp43
 70
     1
102
RTVSPropertyOp44
 70
     1
102
RTVSPropertyOp45
 70
     1
102
RTVSPropertyOp46
 70
     1
102
RTVSPropertyOp47
 70
     1
102
RTVSPropertyOp48
 70
     1
102
RTVSPropertyOp49
 70
     1
102
RTVSPropertyOp50
 70
     1
102
RTVSPropertyOp51
 70
     0
102
RTVSPropertyOp52
 70
     0
102
RTVSPropertyOp53
 70
     1
102
RTVSPropertyOp54
 70
     1
102
RTVSPropertyOp55
 70
     1
102
RTVSPropertyOp56
 70
     1
102
RTVSPropertyOp57
 70
     1
102
RTVSPost2010Prop28
280
     0
102
RTVSPost2010PropOp28
 70
     1
102
RTVSPost2010Prop29
280
     1
102
RTVSPost2010PropOp29
 70
     1
102
RTVSPost2010Prop30
280
     1
102
RTVSPost2010PropOp30
 70
     1
102
RTVSPost2010Prop31
280
     0
102
RTVSPost2010PropOp31
 70
     1
102
RTVSPost2010Prop32
280
     0
102
RTVSPost2010PropOp32
 70
     1
102
RTVSPost2010Prop33
280
     0
102
RTVSPost2010PropOp33
 70
     1
102
RTVSPost2010Prop34
280
     0
102
RTVSPost2010PropOp34
 70
     1
102
RTVSPost2010Prop35
280
     0
102
RTVSPost2010PropOp35
 70
     1
102
RTVSPost2010Prop36
280
     0
102
RTVSPost2010PropOp36
 70
     1
102
RTVSPost2010Prop37
 90
       50
102
RTVSPost2010PropOp37
 70
     1
102
RTVSPost2010Prop38
140
0.0
102
RTVSPost2010PropOp38
 70
     1
102
RTVSPost2010Prop39
140
1.0
102
RTVSPost2010PropOp39
 70
     1
102
RTVSPost2010Prop40
 90
        0
102
RTVSPost2010PropOp40
 70
     1
102
RTVSPost2010Prop41ColorIndex
 90
       18
102
RTVSPost2010Prop41ColorRGB
 90
        0
102
RTVSPost2010PropOp41
 70
     1
102
RTVSPost2010Prop42
 90
       50
102
RTVSPost2010PropOp42
 70
     1
102
RTVSPost2010Prop43
 90
        3
102
RTVSPost2010PropOp43
 70
     1
102
RTVSPost2010Prop44ColorIndex
 90
        5
102
RTVSPost2010Prop44ColorRGB
 90
      255
102
RTVSPost2010PropOp44
 70
     1
102
RTVSPost2010Prop45
280
     0
102
RTVSPost2010PropOp45
 70
     1
102
RTVSPost2010Prop46
 90
       50
102
RTVSPost2010PropOp46
 70
     1
102
RTVSPost2010Prop47
 90
       50
102
RTVSPost2010PropOp47
 70
     1
102
RTVSPost2010Prop48
 90
       50
102
RTVSPost2010PropOp48
 70
     1
102
RTVSPost2010Prop49
280
     0
102
RTVSPost2010PropOp49
 70
     1
102
RTVSPost2010Prop50
 90
       50
102
RTVSPost2010PropOp50
 70
     1
102
RTVSPost2010Prop51ColorIndex
 90
      256
102
RTVSPost2010Prop51ColorRGB
 90
-16777216
102
RTVSPost2010PropOp51
 70
     0
102
RTVSPost2010Prop52
140
1.0
102
RTVSPost2010PropOp52
 70
     0
102
RTVSPost2010Prop53
 90
        2
102
RTVSPost2010PropOp53
 70
     1
102
RTVSPost2010Prop54
  1
strokes_ogs.tif
102
RTVSPost2010PropOp54
 70
     1
102
RTVSPost2010Prop55
280
     0
102
RTVSPost2010PropOp55
 70
     1
102
RTVSPost2010Prop56
140
1.0
102
RTVSPost2010PropOp56
 70
     1
102
RTVSPost2010Prop57
140
1.0
102
RTVSPost2010PropOp57
 70
     1
  0
XRECORD
  5
FFF
102
{ACAD_REACTORS
330
FFE
102
}
330
FFE
100
AcDbXrecord
280
     1
102
RTVSPropertyOp0
 70
     1
102
RTVSPropertyOp1
 70
     1
102
RTVSPropertyOp2
 70
     1
102
RTVSPropertyOp3
 70
     1
102
RTVSPropertyOp4
 70
     1
102
RTVSPropertyOp5
 70
     1
102
RTVSPropertyOp6
 70
     1
102
RTVSPropertyOp7
 70
     1
102
RTVSPropertyOp8
 70
     1
102
RTVSPropertyOp9
 70
     1
102
RTVSPropertyOp10
 70
     1
102
RTVSPropertyOp11
 70
     1
102
RTVSPropertyOp12
 70
     1
102
RTVSPropertyOp13
 70
     1
102
RTVSPropertyOp14
 70
     1
102
RTVSPropertyOp15
 70
     1
102
RTVSPropertyOp16
 70
     1
102
RTVSPropertyOp17
 70
     1
102
RTVSPropertyOp18
 70
     1
102
RTVSPropertyOp19
 70
     1
102
RTVSPropertyOp20
 70
     1
102
RTVSPropertyOp21
 70
     1
102
RTVSPropertyOp22
 70
     1
102
RTVSPropertyOp23
 70
     1
102
RTVSPropertyOp24
 70
     1
102
RTVSPropertyOp25
 70
     1
102
RTVSPropertyOp26
 70
     1
102
RTVSPropertyOp27
 70
     1
102
RTVSPropertyOp28
 70
     1
102
RTVSPropertyOp29
 70
     1
102
RTVSPropertyOp30
 70
     1
102
RTVSPropertyOp31
 70
     1
102
RTVSPropertyOp32
 70
     1
102
RTVSPropertyOp33
 70
     1
102
RTVSPropertyOp34
 70
     1
102
RTVSPropertyOp35
 70
     1
102
RTVSPropertyOp36
 70
     1
102
RTVSPropertyOp37
 70
     1
102
RTVSPropertyOp38
 70
     1
102
RTVSPropertyOp39
 70
     1
102
RTVSPropertyOp40
 70
     1
102
RTVSPropertyOp41
 70
     1
102
RTVSPropertyOp42
 70
     1
102
RTVSPropertyOp43
 70
     1
102
RTVSPropertyOp44
 70
     1
102
RTVSPropertyOp45
 70
     1
102
RTVSPropertyOp46
 70
     1
102
RTVSPropertyOp47
 70
     1
102
RTVSPropertyOp48
 70
     1
102
RTVSPropertyOp49
 70
     1
102
RTVSPropertyOp50
 70
     1
102
RTVSPropertyOp51
 70
     0
102
RTVSPropertyOp52
 70
     0
102
RTVSPropertyOp53
 70
     1
102
RTVSPropertyOp54
 70
     1
102
RTVSPropertyOp55
 70
     1
102
RTVSPropertyOp56
 70
     1
102
RTVSPropertyOp57
 70
     1
102
RTVSPost2010Prop28
280
     0
102
RTVSPost2010PropOp28
 70
     1
102
RTVSPost2010Prop29
280
     1
102
RTVSPost2010PropOp29
 70
     1
102
RTVSPost2010Prop30
280
     1
102
RTVSPost2010PropOp30
 70
     1
102
RTVSPost2010Prop31
280
     0
102
RTVSPost2010PropOp31
 70
     1
102
RTVSPost2010Prop32
280
     0
102
RTVSPost2010PropOp32
 70
     1
102
RTVSPost2010Prop33
280
     0
102
RTVSPost2010PropOp33
 70
     1
102
RTVSPost2010Prop34
280
     0
102
RTVSPost2010PropOp34
 70
     1
102
RTVSPost2010Prop35
280
     0
102
RTVSPost2010PropOp35
 70
     1
102
RTVSPost2010Prop36
280
     0
102
RTVSPost2010PropOp36
 70
     1
102
RTVSPost2010Prop37
 90
       50
102
RTVSPost2010PropOp37
 70
     1
102
RTVSPost2010Prop38
140
0.0
102
RTVSPost2010PropOp38
 70
     1
102
RTVSPost2010Prop39
140
1.0
102
RTVSPost2010PropOp39
 70
     1
102
RTVSPost2010Prop40
 90
        0
102
RTVSPost2010PropOp40
 70
     1
102
RTVSPost2010Prop41ColorIndex
 90
       18
102
RTVSPost2010Prop41ColorRGB
 90
        0
102
RTVSPost2010PropOp41
 70
     1
102
RTVSPost2010Prop42
 90
       50
102
RTVSPost2010PropOp42
 70
     1
102
RTVSPost2010Prop43
 90
        3
102
RTVSPost2010PropOp43
 70
     1
102
RTVSPost2010Prop44ColorIndex
 90
        5
102
RTVSPost2010Prop44ColorRGB
 90
      255
102
RTVSPost2010PropOp44
 70
     1
102
RTVSPost2010Prop45
280
     0
102
RTVSPost2010PropOp45
 70
     1
102
RTVSPost2010Prop46
 90
       50
102
RTVSPost2010PropOp46
 70
     1
102
RTVSPost2010Prop47
 90
       50
102
RTVSPost2010PropOp47
 70
     1
102
RTVSPost2010Prop48
 90
       50
102
RTVSPost2010PropOp48
 70
     1
102
RTVSPost2010Prop49
280
     0
102
RTVSPost2010PropOp49
 70
     1
102
RTVSPost2010Prop50
 90
       50
102
RTVSPost2010PropOp50
 70
     1
102
RTVSPost2010Prop51ColorIndex
 90
      256
102
RTVSPost2010Prop51ColorRGB
 90
-16777216
102
RTVSPost2010PropOp51
 70
     0
102
RTVSPost2010Prop52
140
1.0
102
RTVSPost2010PropOp52
 70
     0
102
RTVSPost2010Prop53
 90
        2
102
RTVSPost2010PropOp53
 70
     1
102
RTVSPost2010Prop54
  1
strokes_ogs.tif
102
RTVSPost2010PropOp54
 70
     1
102
RTVSPost2010Prop55
280
     0
102
RTVSPost2010PropOp55
 70
     1
102
RTVSPost2010Prop56
140
1.0
102
RTVSPost2010PropOp56
 70
     1
102
RTVSPost2010Prop57
140
1.0
102
RTVSPost2010PropOp57
 70
     1
  0
XRECORD
  5
1013
102
{ACAD_REACTORS
330
1012
102
}
330
1012
100
AcDbXrecord
280
     1
102
RTVSPropertyOp0
 70
     0
102
RTVSPropertyOp1
 70
     0
102
RTVSPropertyOp2
 70
     0
102
RTVSPropertyOp3
 70
     0
102
RTVSPropertyOp4
 70
     0
102
RTVSPropertyOp5
 70
     0
102
RTVSPropertyOp6
 70
     0
102
RTVSPropertyOp7
 70
     0
102
RTVSPropertyOp8
 70
     0
102
RTVSPropertyOp9
 70
     0
102
RTVSPropertyOp10
 70
     0
102
RTVSPropertyOp11
 70
     0
102
RTVSPropertyOp12
 70
     0
102
RTVSPropertyOp13
 70
     0
102
RTVSPropertyOp14
 70
     2
102
RTVSPropertyOp15
 70
     0
102
RTVSPropertyOp16
 70
     0
102
RTVSPropertyOp17
 70
     0
102
RTVSPropertyOp18
 70
     0
102
RTVSPropertyOp19
 70
     0
102
RTVSPropertyOp20
 70
     0
102
RTVSPropertyOp21
 70
     0
102
RTVSPropertyOp22
 70
     0
102
RTVSPropertyOp23
 70
     0
102
RTVSPropertyOp24
 70
     0
102
RTVSPropertyOp25
 70
     0
102
RTVSPropertyOp26
 70
     0
102
RTVSPropertyOp27
 70
     0
102
RTVSPropertyOp28
 70
     0
102
RTVSPropertyOp29
 70
     0
102
RTVSPropertyOp30
 70
     0
102
RTVSPropertyOp31
 70
     0
102
RTVSPropertyOp32
 70
     0
102
RTVSPropertyOp33
 70
     0
102
RTVSPropertyOp34
 70
     0
102
RTVSPropertyOp35
 70
     0
102
RTVSPropertyOp36
 70
     0
102
RTVSPropertyOp37
 70
     0
102
RTVSPropertyOp38
 70
     0
102
RTVSPropertyOp39
 70
     0
102
RTVSPropertyOp40
 70
     0
102
RTVSPropertyOp41
 70
     0
102
RTVSPropertyOp42
 70
     0
102
RTVSPropertyOp43
 70
     0
102
RTVSPropertyOp44
 70
     0
102
RTVSPropertyOp45
 70
     0
102
RTVSPropertyOp46
 70
     0
102
RTVSPropertyOp47
 70
     0
102
RTVSPropertyOp48
 70
     0
102
RTVSPropertyOp49
 70
     0
102
RTVSPropertyOp50
 70
     0
102
RTVSPropertyOp51
 70
     0
102
RTVSPropertyOp52
 70
     0
102
RTVSPropertyOp53
 70
     0
102
RTVSPropertyOp54
 70
     0
102
RTVSPropertyOp55
 70
     0
102
RTVSPropertyOp56
 70
     0
102
RTVSPropertyOp57
 70
     0
102
RTVSPost2010Prop28
280
     0
102
RTVSPost2010PropOp28
 70
     0
102
RTVSPost2010Prop29
280
     1
102
RTVSPost2010PropOp29
 70
     0
102
RTVSPost2010Prop30
280
     1
102
RTVSPost2010PropOp30
 70
     0
102
RTVSPost2010Prop31
280
     0
102
RTVSPost2010PropOp31
 70
     0
102
RTVSPost2010Prop32
280
     0
102
RTVSPost2010PropOp32
 70
     0
102
RTVSPost2010Prop33
280
     0
102
RTVSPost2010PropOp33
 70
     0
102
RTVSPost2010Prop34
280
     0
102
RTVSPost2010PropOp34
 70
     0
102
RTVSPost2010Prop35
280
     0
102
RTVSPost2010PropOp35
 70
     0
102
RTVSPost2010Prop36
280
     0
102
RTVSPost2010PropOp36
 70
     0
102
RTVSPost2010Prop37
 90
       50
102
RTVSPost2010PropOp37
 70
     0
102
RTVSPost2010Prop38
140
0.0
102
RTVSPost2010PropOp38
 70
     0
102
RTVSPost2010Prop39
140
1.0
102
RTVSPost2010PropOp39
 70
     0
102
RTVSPost2010Prop40
 90
        0
102
RTVSPost2010PropOp40
 70
     0
102
RTVSPost2010Prop41ColorIndex
 90
       18
102
RTVSPost2010Prop41ColorRGB
 90
        0
102
RTVSPost2010PropOp41
 70
     0
102
RTVSPost2010Prop42
 90
       50
102
RTVSPost2010PropOp42
 70
     0
102
RTVSPost2010Prop43
 90
        3
102
RTVSPost2010PropOp43
 70
     0
102
RTVSPost2010Prop44ColorIndex
 90
        5
102
RTVSPost2010Prop44ColorRGB
 90
      255
102
RTVSPost2010PropOp44
 70
     0
102
RTVSPost2010Prop45
280
     0
102
RTVSPost2010PropOp45
 70
     0
102
RTVSPost2010Prop46
 90
       50
102
RTVSPost2010PropOp46
 70
     0
102
RTVSPost2010Prop47
 90
       50
102
RTVSPost2010PropOp47
 70
     0
102
RTVSPost2010Prop48
 90
       50
102
RTVSPost2010PropOp48
 70
     0
102
RTVSPost2010Prop49
280
     0
102
RTVSPost2010PropOp49
 70
     0
102
RTVSPost2010Prop50
 90
       50
102
RTVSPost2010PropOp50
 70
     0
102
RTVSPost2010Prop51ColorIndex
 90
      256
102
RTVSPost2010Prop51ColorRGB
 90
-16777216
102
RTVSPost2010PropOp51
 70
     0
102
RTVSPost2010Prop52
140
1.0
102
RTVSPost2010PropOp52
 70
     0
102
RTVSPost2010Prop53
 90
        2
102
RTVSPost2010PropOp53
 70
     0
102
RTVSPost2010Prop54
  1
strokes_ogs.tif
102
RTVSPost2010PropOp54
 70
     0
102
RTVSPost2010Prop55
280
     0
102
RTVSPost2010PropOp55
 70
     0
102
RTVSPost2010Prop56
140
1.0
102
RTVSPost2010PropOp56
 70
     0
102
RTVSPost2010Prop57
140
1.0
102
RTVSPost2010PropOp57
 70
     0
  0
XRECORD
  5
100D
102
{ACAD_REACTORS
330
100C
102
}
330
100C
100
AcDbXrecord
280
     1
102
RTVSPropertyOp0
 70
     1
102
RTVSPropertyOp1
 70
     1
102
RTVSPropertyOp2
 70
     1
102
RTVSPropertyOp3
 70
     1
102
RTVSPropertyOp4
 70
     1
102
RTVSPropertyOp5
 70
     1
102
RTVSPropertyOp6
 70
     1
102
RTVSPropertyOp7
 70
     1
102
RTVSPropertyOp8
 70
     1
102
RTVSPropertyOp9
 70
     1
102
RTVSPropertyOp10
 70
     1
102
RTVSPropertyOp11
 70
     1
102
RTVSPropertyOp12
 70
     1
102
RTVSPropertyOp13
 70
     1
102
RTVSPropertyOp14
 70
     1
102
RTVSPropertyOp15
 70
     1
102
RTVSPropertyOp16
 70
     1
102
RTVSPropertyOp17
 70
     1
102
RTVSPropertyOp18
 70
     1
102
RTVSPropertyOp19
 70
     1
102
RTVSPropertyOp20
 70
     1
102
RTVSPropertyOp21
 70
     1
102
RTVSPropertyOp22
 70
     1
102
RTVSPropertyOp23
 70
     1
102
RTVSPropertyOp24
 70
     1
102
RTVSPropertyOp25
 70
     1
102
RTVSPropertyOp26
 70
     1
102
RTVSPropertyOp27
 70
     1
102
RTVSPropertyOp28
 70
     1
102
RTVSPropertyOp29
 70
     1
102
RTVSPropertyOp30
 70
     1
102
RTVSPropertyOp31
 70
     1
102
RTVSPropertyOp32
 70
     1
102
RTVSPropertyOp33
 70
     1
102
RTVSPropertyOp34
 70
     1
102
RTVSPropertyOp35
 70
     1
102
RTVSPropertyOp36
 70
     1
102
RTVSPropertyOp37
 70
     1
102
RTVSPropertyOp38
 70
     1
102
RTVSPropertyOp39
 70
     1
102
RTVSPropertyOp40
 70
     1
102
RTVSPropertyOp41
 70
     1
102
RTVSPropertyOp42
 70
     1
102
RTVSPropertyOp43
 70
     1
102
RTVSPropertyOp44
 70
     1
102
RTVSPropertyOp45
 70
     1
102
RTVSPropertyOp46
 70
     1
102
RTVSPropertyOp47
 70
     1
102
RTVSPropertyOp48
 70
     1
102
RTVSPropertyOp49
 70
     1
102
RTVSPropertyOp50
 70
     1
102
RTVSPropertyOp51
 70
     0
102
RTVSPropertyOp52
 70
     0
102
RTVSPropertyOp53
 70
     1
102
RTVSPropertyOp54
 70
     1
102
RTVSPropertyOp55
 70
     1
102
RTVSPropertyOp56
 70
     1
102
RTVSPropertyOp57
 70
     1
102
RTVSPost2010Prop28
280
     0
102
RTVSPost2010PropOp28
 70
     1
102
RTVSPost2010Prop29
280
     1
102
RTVSPost2010PropOp29
 70
     1
102
RTVSPost2010Prop30
280
     1
102
RTVSPost2010PropOp30
 70
     1
102
RTVSPost2010Prop31
280
     0
102
RTVSPost2010PropOp31
 70
     1
102
RTVSPost2010Prop32
280
     0
102
RTVSPost2010PropOp32
 70
     1
102
RTVSPost2010Prop33
280
     0
102
RTVSPost2010PropOp33
 70
     1
102
RTVSPost2010Prop34
280
     0
102
RTVSPost2010PropOp34
 70
     1
102
RTVSPost2010Prop35
280
     0
102
RTVSPost2010PropOp35
 70
     1
102
RTVSPost2010Prop36
280
     0
102
RTVSPost2010PropOp36
 70
     1
102
RTVSPost2010Prop37
 90
       50
102
RTVSPost2010PropOp37
 70
     1
102
RTVSPost2010Prop38
140
0.0
102
RTVSPost2010PropOp38
 70
     1
102
RTVSPost2010Prop39
140
1.0
102
RTVSPost2010PropOp39
 70
     1
102
RTVSPost2010Prop40
 90
        0
102
RTVSPost2010PropOp40
 70
     1
102
RTVSPost2010Prop41ColorIndex
 90
       18
102
RTVSPost2010Prop41ColorRGB
 90
        0
102
RTVSPost2010PropOp41
 70
     1
102
RTVSPost2010Prop42
 90
       50
102
RTVSPost2010PropOp42
 70
     1
102
RTVSPost2010Prop43
 90
        3
102
RTVSPost2010PropOp43
 70
     1
102
RTVSPost2010Prop44ColorIndex
 90
        5
102
RTVSPost2010Prop44ColorRGB
 90
      255
102
RTVSPost2010PropOp44
 70
     1
102
RTVSPost2010Prop45
280
     0
102
RTVSPost2010PropOp45
 70
     1
102
RTVSPost2010Prop46
 90
       50
102
RTVSPost2010PropOp46
 70
     1
102
RTVSPost2010Prop47
 90
       50
102
RTVSPost2010PropOp47
 70
     1
102
RTVSPost2010Prop48
 90
       50
102
RTVSPost2010PropOp48
 70
     1
102
RTVSPost2010Prop49
280
     0
102
RTVSPost2010PropOp49
 70
     1
102
RTVSPost2010Prop50
 90
       50
102
RTVSPost2010PropOp50
 70
     1
102
RTVSPost2010Prop51ColorIndex
 90
      256
102
RTVSPost2010Prop51ColorRGB
 90
-16777216
102
RTVSPost2010PropOp51
 70
     0
102
RTVSPost2010Prop52
140
1.0
102
RTVSPost2010PropOp52
 70
     0
102
RTVSPost2010Prop53
 90
        2
102
RTVSPost2010PropOp53
 70
     1
102
RTVSPost2010Prop54
  1
strokes_ogs.tif
102
RTVSPost2010PropOp54
 70
     1
102
RTVSPost2010Prop55
280
     0
102
RTVSPost2010PropOp55
 70
     1
102
RTVSPost2010Prop56
140
1.0
102
RTVSPost2010PropOp56
 70
     1
102
RTVSPost2010Prop57
140
1.0
102
RTVSPost2010PropOp57
 70
     1
  0
XRECORD
  5
1015
102
{ACAD_REACTORS
330
1014
102
}
330
1014
100
AcDbXrecord
280
     1
102
RTVSPropertyOp0
 70
     0
102
RTVSPropertyOp1
 70
     0
102
RTVSPropertyOp2
 70
     0
102
RTVSPropertyOp3
 70
     0
102
RTVSPropertyOp4
 70
     0
102
RTVSPropertyOp5
 70
     0
102
RTVSPropertyOp6
 70
     0
102
RTVSPropertyOp7
 70
     0
102
RTVSPropertyOp8
 70
     0
102
RTVSPropertyOp9
 70
     0
102
RTVSPropertyOp10
 70
     0
102
RTVSPropertyOp11
 70
     0
102
RTVSPropertyOp12
 70
     0
102
RTVSPropertyOp13
 70
     0
102
RTVSPropertyOp14
 70
     2
102
RTVSPropertyOp15
 70
     0
102
RTVSPropertyOp16
 70
     0
102
RTVSPropertyOp17
 70
     0
102
RTVSPropertyOp18
 70
     0
102
RTVSPropertyOp19
 70
     0
102
RTVSPropertyOp20
 70
     0
102
RTVSPropertyOp21
 70
     0
102
RTVSPropertyOp22
 70
     0
102
RTVSPropertyOp23
 70
     0
102
RTVSPropertyOp24
 70
     0
102
RTVSPropertyOp25
 70
     0
102
RTVSPropertyOp26
 70
     0
102
RTVSPropertyOp27
 70
     0
102
RTVSPropertyOp28
 70
     0
102
RTVSPropertyOp29
 70
     0
102
RTVSPropertyOp30
 70
     0
102
RTVSPropertyOp31
 70
     0
102
RTVSPropertyOp32
 70
     0
102
RTVSPropertyOp33
 70
     0
102
RTVSPropertyOp34
 70
     0
102
RTVSPropertyOp35
 70
     0
102
RTVSPropertyOp36
 70
     0
102
RTVSPropertyOp37
 70
     0
102
RTVSPropertyOp38
 70
     0
102
RTVSPropertyOp39
 70
     0
102
RTVSPropertyOp40
 70
     0
102
RTVSPropertyOp41
 70
     0
102
RTVSPropertyOp42
 70
     0
102
RTVSPropertyOp43
 70
     0
102
RTVSPropertyOp44
 70
     0
102
RTVSPropertyOp45
 70
     0
102
RTVSPropertyOp46
 70
     0
102
RTVSPropertyOp47
 70
     0
102
RTVSPropertyOp48
 70
     0
102
RTVSPropertyOp49
 70
     0
102
RTVSPropertyOp50
 70
     0
102
RTVSPropertyOp51
 70
     0
102
RTVSPropertyOp52
 70
     0
102
RTVSPropertyOp53
 70
     0
102
RTVSPropertyOp54
 70
     0
102
RTVSPropertyOp55
 70
     0
102
RTVSPropertyOp56
 70
     0
102
RTVSPropertyOp57
 70
     0
102
RTVSPost2010Prop28
280
     0
102
RTVSPost2010PropOp28
 70
     0
102
RTVSPost2010Prop29
280
     1
102
RTVSPost2010PropOp29
 70
     0
102
RTVSPost2010Prop30
280
     1
102
RTVSPost2010PropOp30
 70
     0
102
RTVSPost2010Prop31
280
     0
102
RTVSPost2010PropOp31
 70
     0
102
RTVSPost2010Prop32
280
     0
102
RTVSPost2010PropOp32
 70
     0
102
RTVSPost2010Prop33
280
     0
102
RTVSPost2010PropOp33
 70
     0
102
RTVSPost2010Prop34
280
     0
102
RTVSPost2010PropOp34
 70
     0
102
RTVSPost2010Prop35
280
     0
102
RTVSPost2010PropOp35
 70
     0
102
RTVSPost2010Prop36
280
     0
102
RTVSPost2010PropOp36
 70
     0
102
RTVSPost2010Prop37
 90
       50
102
RTVSPost2010PropOp37
 70
     0
102
RTVSPost2010Prop38
140
0.0
102
RTVSPost2010PropOp38
 70
     0
102
RTVSPost2010Prop39
140
1.0
102
RTVSPost2010PropOp39
 70
     0
102
RTVSPost2010Prop40
 90
        0
102
RTVSPost2010PropOp40
 70
     0
102
RTVSPost2010Prop41ColorIndex
 90
       18
102
RTVSPost2010Prop41ColorRGB
 90
        0
102
RTVSPost2010PropOp41
 70
     0
102
RTVSPost2010Prop42
 90
       50
102
RTVSPost2010PropOp42
 70
     0
102
RTVSPost2010Prop43
 90
        3
102
RTVSPost2010PropOp43
 70
     0
102
RTVSPost2010Prop44ColorIndex
 90
        5
102
RTVSPost2010Prop44ColorRGB
 90
      255
102
RTVSPost2010PropOp44
 70
     0
102
RTVSPost2010Prop45
280
     0
102
RTVSPost2010PropOp45
 70
     0
102
RTVSPost2010Prop46
 90
       50
102
RTVSPost2010PropOp46
 70
     0
102
RTVSPost2010Prop47
 90
       50
102
RTVSPost2010PropOp47
 70
     0
102
RTVSPost2010Prop48
 90
       50
102
RTVSPost2010PropOp48
 70
     0
102
RTVSPost2010Prop49
280
     0
102
RTVSPost2010PropOp49
 70
     0
102
RTVSPost2010Prop50
 90
       50
102
RTVSPost2010PropOp50
 70
     0
102
RTVSPost2010Prop51ColorIndex
 90
      256
102
RTVSPost2010Prop51ColorRGB
 90
-16777216
102
RTVSPost2010PropOp51
 70
     0
102
RTVSPost2010Prop52
140
1.0
102
RTVSPost2010PropOp52
 70
     0
102
RTVSPost2010Prop53
 90
        2
102
RTVSPost2010PropOp53
 70
     0
102
RTVSPost2010Prop54
  1
strokes_ogs.tif
102
RTVSPost2010PropOp54
 70
     0
102
RTVSPost2010Prop55
280
     0
102
RTVSPost2010PropOp55
 70
     0
102
RTVSPost2010Prop56
140
1.0
102
RTVSPost2010PropOp56
 70
     0
102
RTVSPost2010Prop57
140
1.0
102
RTVSPost2010PropOp57
 70
     0
  0
XRECORD
  5
1003
102
{ACAD_REACTORS
330
1002
102
}
330
1002
100
AcDbXrecord
280
     1
102
RTVSPropertyOp0
 70
     1
102
RTVSPropertyOp1
 70
     1
102
RTVSPropertyOp2
 70
     1
102
RTVSPropertyOp3
 70
     1
102
RTVSPropertyOp4
 70
     1
102
RTVSPropertyOp5
 70
     1
102
RTVSPropertyOp6
 70
     1
102
RTVSPropertyOp7
 70
     1
102
RTVSPropertyOp8
 70
     1
102
RTVSPropertyOp9
 70
     1
102
RTVSPropertyOp10
 70
     1
102
RTVSPropertyOp11
 70
     1
102
RTVSPropertyOp12
 70
     1
102
RTVSPropertyOp13
 70
     1
102
RTVSPropertyOp14
 70
     1
102
RTVSPropertyOp15
 70
     1
102
RTVSPropertyOp16
 70
     1
102
RTVSPropertyOp17
 70
     1
102
RTVSPropertyOp18
 70
     1
102
RTVSPropertyOp19
 70
     1
102
RTVSPropertyOp20
 70
     1
102
RTVSPropertyOp21
 70
     1
102
RTVSPropertyOp22
 70
     1
102
RTVSPropertyOp23
 70
     1
102
RTVSPropertyOp24
 70
     1
102
RTVSPropertyOp25
 70
     1
102
RTVSPropertyOp26
 70
     1
102
RTVSPropertyOp27
 70
     1
102
RTVSPropertyOp28
 70
     1
102
RTVSPropertyOp29
 70
     1
102
RTVSPropertyOp30
 70
     1
102
RTVSPropertyOp31
 70
     1
102
RTVSPropertyOp32
 70
     1
102
RTVSPropertyOp33
 70
     1
102
RTVSPropertyOp34
 70
     1
102
RTVSPropertyOp35
 70
     1
102
RTVSPropertyOp36
 70
     1
102
RTVSPropertyOp37
 70
     1
102
RTVSPropertyOp38
 70
     1
102
RTVSPropertyOp39
 70
     1
102
RTVSPropertyOp40
 70
     1
102
RTVSPropertyOp41
 70
     1
102
RTVSPropertyOp42
 70
     1
102
RTVSPropertyOp43
 70
     1
102
RTVSPropertyOp44
 70
     1
102
RTVSPropertyOp45
 70
     1
102
RTVSPropertyOp46
 70
     1
102
RTVSPropertyOp47
 70
     1
102
RTVSPropertyOp48
 70
     1
102
RTVSPropertyOp49
 70
     1
102
RTVSPropertyOp50
 70
     1
102
RTVSPropertyOp51
 70
     0
102
RTVSPropertyOp52
 70
     0
102
RTVSPropertyOp53
 70
     1
102
RTVSPropertyOp54
 70
     1
102
RTVSPropertyOp55
 70
     1
102
RTVSPropertyOp56
 70
     1
102
RTVSPropertyOp57
 70
     1
102
RTVSPost2010Prop28
280
     0
102
RTVSPost2010PropOp28
 70
     1
102
RTVSPost2010Prop29
280
     1
102
RTVSPost2010PropOp29
 70
     1
102
RTVSPost2010Prop30
280
     1
102
RTVSPost2010PropOp30
 70
     1
102
RTVSPost2010Prop31
280
     0
102
RTVSPost2010PropOp31
 70
     1
102
RTVSPost2010Prop32
280
     0
102
RTVSPost2010PropOp32
 70
     1
102
RTVSPost2010Prop33
280
     0
102
RTVSPost2010PropOp33
 70
     1
102
RTVSPost2010Prop34
280
     0
102
RTVSPost2010PropOp34
 70
     1
102
RTVSPost2010Prop35
280
     0
102
RTVSPost2010PropOp35
 70
     1
102
RTVSPost2010Prop36
280
     0
102
RTVSPost2010PropOp36
 70
     1
102
RTVSPost2010Prop37
 90
       50
102
RTVSPost2010PropOp37
 70
     1
102
RTVSPost2010Prop38
140
0.0
102
RTVSPost2010PropOp38
 70
     1
102
RTVSPost2010Prop39
140
1.0
102
RTVSPost2010PropOp39
 70
     1
102
RTVSPost2010Prop40
 90
        0
102
RTVSPost2010PropOp40
 70
     1
102
RTVSPost2010Prop41ColorIndex
 90
       18
102
RTVSPost2010Prop41ColorRGB
 90
        0
102
RTVSPost2010PropOp41
 70
     1
102
RTVSPost2010Prop42
 90
       50
102
RTVSPost2010PropOp42
 70
     1
102
RTVSPost2010Prop43
 90
        3
102
RTVSPost2010PropOp43
 70
     1
102
RTVSPost2010Prop44ColorIndex
 90
        5
102
RTVSPost2010Prop44ColorRGB
 90
      255
102
RTVSPost2010PropOp44
 70
     1
102
RTVSPost2010Prop45
280
     0
102
RTVSPost2010PropOp45
 70
     1
102
RTVSPost2010Prop46
 90
       50
102
RTVSPost2010PropOp46
 70
     1
102
RTVSPost2010Prop47
 90
       50
102
RTVSPost2010PropOp47
 70
     1
102
RTVSPost2010Prop48
 90
       50
102
RTVSPost2010PropOp48
 70
     1
102
RTVSPost2010Prop49
280
     0
102
RTVSPost2010PropOp49
 70
     1
102
RTVSPost2010Prop50
 90
       50
102
RTVSPost2010PropOp50
 70
     1
102
RTVSPost2010Prop51ColorIndex
 90
      256
102
RTVSPost2010Prop51ColorRGB
 90
-16777216
102
RTVSPost2010PropOp51
 70
     0
102
RTVSPost2010Prop52
140
1.0
102
RTVSPost2010PropOp52
 70
     0
102
RTVSPost2010Prop53
 90
        2
102
RTVSPost2010PropOp53
 70
     1
102
RTVSPost2010Prop54
  1
strokes_ogs.tif
102
RTVSPost2010PropOp54
 70
     1
102
RTVSPost2010Prop55
280
     0
102
RTVSPost2010PropOp55
 70
     1
102
RTVSPost2010Prop56
140
1.0
102
RTVSPost2010PropOp56
 70
     1
102
RTVSPost2010Prop57
140
1.0
102
RTVSPost2010PropOp57
 70
     1
  0
XRECORD
  5
1021
102
{ACAD_REACTORS
330
1020
102
}
330
1020
100
AcDbXrecord
280
     1
102
RTVSPropertyOp0
 70
     1
102
RTVSPropertyOp1
 70
     1
102
RTVSPropertyOp2
 70
     1
102
RTVSPropertyOp3
 70
     1
102
RTVSPropertyOp4
 70
     1
102
RTVSPropertyOp5
 70
     1
102
RTVSPropertyOp6
 70
     1
102
RTVSPropertyOp7
 70
     1
102
RTVSPropertyOp8
 70
     1
102
RTVSPropertyOp9
 70
     1
102
RTVSPropertyOp10
 70
     1
102
RTVSPropertyOp11
 70
     1
102
RTVSPropertyOp12
 70
     1
102
RTVSPropertyOp13
 70
     1
102
RTVSPropertyOp14
 70
     1
102
RTVSPropertyOp15
 70
     1
102
RTVSPropertyOp16
 70
     1
102
RTVSPropertyOp17
 70
     1
102
RTVSPropertyOp18
 70
     1
102
RTVSPropertyOp19
 70
     1
102
RTVSPropertyOp20
 70
     1
102
RTVSPropertyOp21
 70
     1
102
RTVSPropertyOp22
 70
     1
102
RTVSPropertyOp23
 70
     1
102
RTVSPropertyOp24
 70
     1
102
RTVSPropertyOp25
 70
     1
102
RTVSPropertyOp26
 70
     1
102
RTVSPropertyOp27
 70
     1
102
RTVSPropertyOp28
 70
     1
102
RTVSPropertyOp29
 70
     1
102
RTVSPropertyOp30
 70
     1
102
RTVSPropertyOp31
 70
     1
102
RTVSPropertyOp32
 70
     1
102
RTVSPropertyOp33
 70
     1
102
RTVSPropertyOp34
 70
     1
102
RTVSPropertyOp35
 70
     1
102
RTVSPropertyOp36
 70
     1
102
RTVSPropertyOp37
 70
     1
102
RTVSPropertyOp38
 70
     1
102
RTVSPropertyOp39
 70
     1
102
RTVSPropertyOp40
 70
     1
102
RTVSPropertyOp41
 70
     1
102
RTVSPropertyOp42
 70
     1
102
RTVSPropertyOp43
 70
     1
102
RTVSPropertyOp44
 70
     1
102
RTVSPropertyOp45
 70
     1
102
RTVSPropertyOp46
 70
     1
102
RTVSPropertyOp47
 70
     1
102
RTVSPropertyOp48
 70
     1
102
RTVSPropertyOp49
 70
     1
102
RTVSPropertyOp50
 70
     1
102
RTVSPropertyOp51
 70
     0
102
RTVSPropertyOp52
 70
     0
102
RTVSPropertyOp53
 70
     1
102
RTVSPropertyOp54
 70
     1
102
RTVSPropertyOp55
 70
     1
102
RTVSPropertyOp56
 70
     1
102
RTVSPropertyOp57
 70
     1
102
RTVSPost2010Prop28
280
     0
102
RTVSPost2010PropOp28
 70
     1
102
RTVSPost2010Prop29
280
     1
102
RTVSPost2010PropOp29
 70
     1
102
RTVSPost2010Prop30
280
     1
102
RTVSPost2010PropOp30
 70
     1
102
RTVSPost2010Prop31
280
     0
102
RTVSPost2010PropOp31
 70
     1
102
RTVSPost2010Prop32
280
     0
102
RTVSPost2010PropOp32
 70
     1
102
RTVSPost2010Prop33
280
     0
102
RTVSPost2010PropOp33
 70
     1
102
RTVSPost2010Prop34
280
     0
102
RTVSPost2010PropOp34
 70
     1
102
RTVSPost2010Prop35
280
     0
102
RTVSPost2010PropOp35
 70
     1
102
RTVSPost2010Prop36
280
     0
102
RTVSPost2010PropOp36
 70
     1
102
RTVSPost2010Prop37
 90
       50
102
RTVSPost2010PropOp37
 70
     1
102
RTVSPost2010Prop38
140
0.0
102
RTVSPost2010PropOp38
 70
     1
102
RTVSPost2010Prop39
140
1.0
102
RTVSPost2010PropOp39
 70
     1
102
RTVSPost2010Prop40
 90
        0
102
RTVSPost2010PropOp40
 70
     1
102
RTVSPost2010Prop41ColorIndex
 90
       18
102
RTVSPost2010Prop41ColorRGB
 90
        0
102
RTVSPost2010PropOp41
 70
     1
102
RTVSPost2010Prop42
 90
       50
102
RTVSPost2010PropOp42
 70
     1
102
RTVSPost2010Prop43
 90
        3
102
RTVSPost2010PropOp43
 70
     1
102
RTVSPost2010Prop44ColorIndex
 90
        5
102
RTVSPost2010Prop44ColorRGB
 90
      255
102
RTVSPost2010PropOp44
 70
     1
102
RTVSPost2010Prop45
280
     0
102
RTVSPost2010PropOp45
 70
     1
102
RTVSPost2010Prop46
 90
       50
102
RTVSPost2010PropOp46
 70
     1
102
RTVSPost2010Prop47
 90
       50
102
RTVSPost2010PropOp47
 70
     1
102
RTVSPost2010Prop48
 90
       50
102
RTVSPost2010PropOp48
 70
     1
102
RTVSPost2010Prop49
280
     0
102
RTVSPost2010PropOp49
 70
     1
102
RTVSPost2010Prop50
 90
       50
102
RTVSPost2010PropOp50
 70
     1
102
RTVSPost2010Prop51ColorIndex
 90
      256
102
RTVSPost2010Prop51ColorRGB
 90
-16777216
102
RTVSPost2010PropOp51
 70
     0
102
RTVSPost2010Prop52
140
1.0
102
RTVSPost2010PropOp52
 70
     0
102
RTVSPost2010Prop53
 90
        2
102
RTVSPost2010PropOp53
 70
     1
102
RTVSPost2010Prop54
  1
strokes_ogs.tif
102
RTVSPost2010PropOp54
 70
     1
102
RTVSPost2010Prop55
280
     0
102
RTVSPost2010PropOp55
 70
     1
102
RTVSPost2010Prop56
140
1.0
102
RTVSPost2010PropOp56
 70
     1
102
RTVSPost2010Prop57
140
1.0
102
RTVSPost2010PropOp57
 70
     1
  0
XRECORD
  5
101F
102
{ACAD_REACTORS
330
101E
102
}
330
101E
100
AcDbXrecord
280
     1
102
RTVSPropertyOp0
 70
     1
102
RTVSPropertyOp1
 70
     1
102
RTVSPropertyOp2
 70
     1
102
RTVSPropertyOp3
 70
     1
102
RTVSPropertyOp4
 70
     1
102
RTVSPropertyOp5
 70
     1
102
RTVSPropertyOp6
 70
     1
102
RTVSPropertyOp7
 70
     1
102
RTVSPropertyOp8
 70
     1
102
RTVSPropertyOp9
 70
     1
102
RTVSPropertyOp10
 70
     1
102
RTVSPropertyOp11
 70
     1
102
RTVSPropertyOp12
 70
     1
102
RTVSPropertyOp13
 70
     1
102
RTVSPropertyOp14
 70
     1
102
RTVSPropertyOp15
 70
     1
102
RTVSPropertyOp16
 70
     1
102
RTVSPropertyOp17
 70
     1
102
RTVSPropertyOp18
 70
     1
102
RTVSPropertyOp19
 70
     1
102
RTVSPropertyOp20
 70
     1
102
RTVSPropertyOp21
 70
     1
102
RTVSPropertyOp22
 70
     1
102
RTVSPropertyOp23
 70
     1
102
RTVSPropertyOp24
 70
     1
102
RTVSPropertyOp25
 70
     1
102
RTVSPropertyOp26
 70
     1
102
RTVSPropertyOp27
 70
     1
102
RTVSPropertyOp28
 70
     1
102
RTVSPropertyOp29
 70
     1
102
RTVSPropertyOp30
 70
     1
102
RTVSPropertyOp31
 70
     1
102
RTVSPropertyOp32
 70
     1
102
RTVSPropertyOp33
 70
     1
102
RTVSPropertyOp34
 70
     1
102
RTVSPropertyOp35
 70
     1
102
RTVSPropertyOp36
 70
     1
102
RTVSPropertyOp37
 70
     1
102
RTVSPropertyOp38
 70
     1
102
RTVSPropertyOp39
 70
     1
102
RTVSPropertyOp40
 70
     1
102
RTVSPropertyOp41
 70
     1
102
RTVSPropertyOp42
 70
     1
102
RTVSPropertyOp43
 70
     1
102
RTVSPropertyOp44
 70
     1
102
RTVSPropertyOp45
 70
     1
102
RTVSPropertyOp46
 70
     1
102
RTVSPropertyOp47
 70
     1
102
RTVSPropertyOp48
 70
     1
102
RTVSPropertyOp49
 70
     1
102
RTVSPropertyOp50
 70
     1
102
RTVSPropertyOp51
 70
     0
102
RTVSPropertyOp52
 70
     0
102
RTVSPropertyOp53
 70
     1
102
RTVSPropertyOp54
 70
     1
102
RTVSPropertyOp55
 70
     1
102
RTVSPropertyOp56
 70
     1
102
RTVSPropertyOp57
 70
     1
102
RTVSPost2010Prop28
280
     0
102
RTVSPost2010PropOp28
 70
     1
102
RTVSPost2010Prop29
280
     1
102
RTVSPost2010PropOp29
 70
     1
102
RTVSPost2010Prop30
280
     1
102
RTVSPost2010PropOp30
 70
     1
102
RTVSPost2010Prop31
280
     0
102
RTVSPost2010PropOp31
 70
     1
102
RTVSPost2010Prop32
280
     0
102
RTVSPost2010PropOp32
 70
     1
102
RTVSPost2010Prop33
280
     0
102
RTVSPost2010PropOp33
 70
     1
102
RTVSPost2010Prop34
280
     0
102
RTVSPost2010PropOp34
 70
     1
102
RTVSPost2010Prop35
280
     0
102
RTVSPost2010PropOp35
 70
     1
102
RTVSPost2010Prop36
280
     0
102
RTVSPost2010PropOp36
 70
     1
102
RTVSPost2010Prop37
 90
       50
102
RTVSPost2010PropOp37
 70
     1
102
RTVSPost2010Prop38
140
0.0
102
RTVSPost2010PropOp38
 70
     1
102
RTVSPost2010Prop39
140
1.0
102
RTVSPost2010PropOp39
 70
     1
102
RTVSPost2010Prop40
 90
        0
102
RTVSPost2010PropOp40
 70
     1
102
RTVSPost2010Prop41ColorIndex
 90
       18
102
RTVSPost2010Prop41ColorRGB
 90
        0
102
RTVSPost2010PropOp41
 70
     1
102
RTVSPost2010Prop42
 90
       50
102
RTVSPost2010PropOp42
 70
     1
102
RTVSPost2010Prop43
 90
        3
102
RTVSPost2010PropOp43
 70
     1
102
RTVSPost2010Prop44ColorIndex
 90
        5
102
RTVSPost2010Prop44ColorRGB
 90
      255
102
RTVSPost2010PropOp44
 70
     1
102
RTVSPost2010Prop45
280
     0
102
RTVSPost2010PropOp45
 70
     1
102
RTVSPost2010Prop46
 90
       50
102
RTVSPost2010PropOp46
 70
     1
102
RTVSPost2010Prop47
 90
       50
102
RTVSPost2010PropOp47
 70
     1
102
RTVSPost2010Prop48
 90
       50
102
RTVSPost2010PropOp48
 70
     1
102
RTVSPost2010Prop49
280
     0
102
RTVSPost2010PropOp49
 70
     1
102
RTVSPost2010Prop50
 90
       50
102
RTVSPost2010PropOp50
 70
     1
102
RTVSPost2010Prop51ColorIndex
 90
      256
102
RTVSPost2010Prop51ColorRGB
 90
-16777216
102
RTVSPost2010PropOp51
 70
     0
102
RTVSPost2010Prop52
140
1.0
102
RTVSPost2010PropOp52
 70
     0
102
RTVSPost2010Prop53
 90
        2
102
RTVSPost2010PropOp53
 70
     1
102
RTVSPost2010Prop54
  1
strokes_ogs.tif
102
RTVSPost2010PropOp54
 70
     1
102
RTVSPost2010Prop55
280
     0
102
RTVSPost2010PropOp55
 70
     1
102
RTVSPost2010Prop56
140
1.0
102
RTVSPost2010PropOp56
 70
     1
102
RTVSPost2010Prop57
140
1.0
102
RTVSPost2010PropOp57
 70
     1
  0
XRECORD
  5
1019
102
{ACAD_REACTORS
330
1018
102
}
330
1018
100
AcDbXrecord
280
     1
102
RTVSPropertyOp0
 70
     1
102
RTVSPropertyOp1
 70
     1
102
RTVSPropertyOp2
 70
     1
102
RTVSPropertyOp3
 70
     1
102
RTVSPropertyOp4
 70
     1
102
RTVSPropertyOp5
 70
     1
102
RTVSPropertyOp6
 70
     1
102
RTVSPropertyOp7
 70
     1
102
RTVSPropertyOp8
 70
     1
102
RTVSPropertyOp9
 70
     1
102
RTVSPropertyOp10
 70
     1
102
RTVSPropertyOp11
 70
     1
102
RTVSPropertyOp12
 70
     1
102
RTVSPropertyOp13
 70
     1
102
RTVSPropertyOp14
 70
     1
102
RTVSPropertyOp15
 70
     1
102
RTVSPropertyOp16
 70
     1
102
RTVSPropertyOp17
 70
     1
102
RTVSPropertyOp18
 70
     1
102
RTVSPropertyOp19
 70
     1
102
RTVSPropertyOp20
 70
     1
102
RTVSPropertyOp21
 70
     1
102
RTVSPropertyOp22
 70
     1
102
RTVSPropertyOp23
 70
     1
102
RTVSPropertyOp24
 70
     1
102
RTVSPropertyOp25
 70
     1
102
RTVSPropertyOp26
 70
     1
102
RTVSPropertyOp27
 70
     1
102
RTVSPropertyOp28
 70
     1
102
RTVSPropertyOp29
 70
     1
102
RTVSPropertyOp30
 70
     1
102
RTVSPropertyOp31
 70
     1
102
RTVSPropertyOp32
 70
     1
102
RTVSPropertyOp33
 70
     1
102
RTVSPropertyOp34
 70
     1
102
RTVSPropertyOp35
 70
     1
102
RTVSPropertyOp36
 70
     1
102
RTVSPropertyOp37
 70
     1
102
RTVSPropertyOp38
 70
     1
102
RTVSPropertyOp39
 70
     1
102
RTVSPropertyOp40
 70
     1
102
RTVSPropertyOp41
 70
     1
102
RTVSPropertyOp42
 70
     1
102
RTVSPropertyOp43
 70
     1
102
RTVSPropertyOp44
 70
     1
102
RTVSPropertyOp45
 70
     1
102
RTVSPropertyOp46
 70
     1
102
RTVSPropertyOp47
 70
     1
102
RTVSPropertyOp48
 70
     1
102
RTVSPropertyOp49
 70
     1
102
RTVSPropertyOp50
 70
     1
102
RTVSPropertyOp51
 70
     0
102
RTVSPropertyOp52
 70
     0
102
RTVSPropertyOp53
 70
     1
102
RTVSPropertyOp54
 70
     1
102
RTVSPropertyOp55
 70
     1
102
RTVSPropertyOp56
 70
     1
102
RTVSPropertyOp57
 70
     1
102
RTVSPost2010Prop28
280
     0
102
RTVSPost2010PropOp28
 70
     1
102
RTVSPost2010Prop29
280
     1
102
RTVSPost2010PropOp29
 70
     1
102
RTVSPost2010Prop30
280
     1
102
RTVSPost2010PropOp30
 70
     1
102
RTVSPost2010Prop31
280
     0
102
RTVSPost2010PropOp31
 70
     1
102
RTVSPost2010Prop32
280
     0
102
RTVSPost2010PropOp32
 70
     1
102
RTVSPost2010Prop33
280
     0
102
RTVSPost2010PropOp33
 70
     1
102
RTVSPost2010Prop34
280
     0
102
RTVSPost2010PropOp34
 70
     1
102
RTVSPost2010Prop35
280
     0
102
RTVSPost2010PropOp35
 70
     1
102
RTVSPost2010Prop36
280
     0
102
RTVSPost2010PropOp36
 70
     1
102
RTVSPost2010Prop37
 90
       50
102
RTVSPost2010PropOp37
 70
     1
102
RTVSPost2010Prop38
140
0.0
102
RTVSPost2010PropOp38
 70
     1
102
RTVSPost2010Prop39
140
1.0
102
RTVSPost2010PropOp39
 70
     1
102
RTVSPost2010Prop40
 90
        0
102
RTVSPost2010PropOp40
 70
     1
102
RTVSPost2010Prop41ColorIndex
 90
       18
102
RTVSPost2010Prop41ColorRGB
 90
        0
102
RTVSPost2010PropOp41
 70
     1
102
RTVSPost2010Prop42
 90
       50
102
RTVSPost2010PropOp42
 70
     1
102
RTVSPost2010Prop43
 90
        3
102
RTVSPost2010PropOp43
 70
     1
102
RTVSPost2010Prop44ColorIndex
 90
        5
102
RTVSPost2010Prop44ColorRGB
 90
      255
102
RTVSPost2010PropOp44
 70
     1
102
RTVSPost2010Prop45
280
     0
102
RTVSPost2010PropOp45
 70
     1
102
RTVSPost2010Prop46
 90
       50
102
RTVSPost2010PropOp46
 70
     1
102
RTVSPost2010Prop47
 90
       50
102
RTVSPost2010PropOp47
 70
     1
102
RTVSPost2010Prop48
 90
       50
102
RTVSPost2010PropOp48
 70
     1
102
RTVSPost2010Prop49
280
     0
102
RTVSPost2010PropOp49
 70
     1
102
RTVSPost2010Prop50
 90
       50
102
RTVSPost2010PropOp50
 70
     1
102
RTVSPost2010Prop51ColorIndex
 90
      256
102
RTVSPost2010Prop51ColorRGB
 90
-16777216
102
RTVSPost2010PropOp51
 70
     0
102
RTVSPost2010Prop52
140
1.0
102
RTVSPost2010PropOp52
 70
     0
102
RTVSPost2010Prop53
 90
        2
102
RTVSPost2010PropOp53
 70
     1
102
RTVSPost2010Prop54
  1
strokes_ogs.tif
102
RTVSPost2010PropOp54
 70
     1
102
RTVSPost2010Prop55
280
     0
102
RTVSPost2010PropOp55
 70
     1
102
RTVSPost2010Prop56
140
1.0
102
RTVSPost2010PropOp56
 70
     1
102
RTVSPost2010Prop57
140
1.0
102
RTVSPost2010PropOp57
 70
     1
  0
XRECORD
  5
101B
102
{ACAD_REACTORS
330
101A
102
}
330
101A
100
AcDbXrecord
280
     1
102
RTVSPropertyOp0
 70
     1
102
RTVSPropertyOp1
 70
     1
102
RTVSPropertyOp2
 70
     1
102
RTVSPropertyOp3
 70
     1
102
RTVSPropertyOp4
 70
     1
102
RTVSPropertyOp5
 70
     1
102
RTVSPropertyOp6
 70
     1
102
RTVSPropertyOp7
 70
     1
102
RTVSPropertyOp8
 70
     1
102
RTVSPropertyOp9
 70
     1
102
RTVSPropertyOp10
 70
     1
102
RTVSPropertyOp11
 70
     1
102
RTVSPropertyOp12
 70
     1
102
RTVSPropertyOp13
 70
     1
102
RTVSPropertyOp14
 70
     1
102
RTVSPropertyOp15
 70
     1
102
RTVSPropertyOp16
 70
     1
102
RTVSPropertyOp17
 70
     1
102
RTVSPropertyOp18
 70
     1
102
RTVSPropertyOp19
 70
     1
102
RTVSPropertyOp20
 70
     1
102
RTVSPropertyOp21
 70
     1
102
RTVSPropertyOp22
 70
     1
102
RTVSPropertyOp23
 70
     1
102
RTVSPropertyOp24
 70
     1
102
RTVSPropertyOp25
 70
     1
102
RTVSPropertyOp26
 70
     1
102
RTVSPropertyOp27
 70
     1
102
RTVSPropertyOp28
 70
     1
102
RTVSPropertyOp29
 70
     1
102
RTVSPropertyOp30
 70
     1
102
RTVSPropertyOp31
 70
     1
102
RTVSPropertyOp32
 70
     1
102
RTVSPropertyOp33
 70
     1
102
RTVSPropertyOp34
 70
     1
102
RTVSPropertyOp35
 70
     1
102
RTVSPropertyOp36
 70
     1
102
RTVSPropertyOp37
 70
     1
102
RTVSPropertyOp38
 70
     1
102
RTVSPropertyOp39
 70
     1
102
RTVSPropertyOp40
 70
     1
102
RTVSPropertyOp41
 70
     1
102
RTVSPropertyOp42
 70
     1
102
RTVSPropertyOp43
 70
     1
102
RTVSPropertyOp44
 70
     1
102
RTVSPropertyOp45
 70
     1
102
RTVSPropertyOp46
 70
     1
102
RTVSPropertyOp47
 70
     1
102
RTVSPropertyOp48
 70
     1
102
RTVSPropertyOp49
 70
     1
102
RTVSPropertyOp50
 70
     1
102
RTVSPropertyOp51
 70
     0
102
RTVSPropertyOp52
 70
     0
102
RTVSPropertyOp53
 70
     1
102
RTVSPropertyOp54
 70
     1
102
RTVSPropertyOp55
 70
     1
102
RTVSPropertyOp56
 70
     1
102
RTVSPropertyOp57
 70
     1
102
RTVSPost2010Prop28
280
     0
102
RTVSPost2010PropOp28
 70
     1
102
RTVSPost2010Prop29
280
     1
102
RTVSPost2010PropOp29
 70
     1
102
RTVSPost2010Prop30
280
     1
102
RTVSPost2010PropOp30
 70
     1
102
RTVSPost2010Prop31
280
     0
102
RTVSPost2010PropOp31
 70
     1
102
RTVSPost2010Prop32
280
     0
102
RTVSPost2010PropOp32
 70
     1
102
RTVSPost2010Prop33
280
     0
102
RTVSPost2010PropOp33
 70
     1
102
RTVSPost2010Prop34
280
     0
102
RTVSPost2010PropOp34
 70
     1
102
RTVSPost2010Prop35
280
     0
102
RTVSPost2010PropOp35
 70
     1
102
RTVSPost2010Prop36
280
     0
102
RTVSPost2010PropOp36
 70
     1
102
RTVSPost2010Prop37
 90
       50
102
RTVSPost2010PropOp37
 70
     1
102
RTVSPost2010Prop38
140
0.0
102
RTVSPost2010PropOp38
 70
     1
102
RTVSPost2010Prop39
140
1.0
102
RTVSPost2010PropOp39
 70
     1
102
RTVSPost2010Prop40
 90
        0
102
RTVSPost2010PropOp40
 70
     1
102
RTVSPost2010Prop41ColorIndex
 90
       18
102
RTVSPost2010Prop41ColorRGB
 90
        0
102
RTVSPost2010PropOp41
 70
     1
102
RTVSPost2010Prop42
 90
       50
102
RTVSPost2010PropOp42
 70
     1
102
RTVSPost2010Prop43
 90
        3
102
RTVSPost2010PropOp43
 70
     1
102
RTVSPost2010Prop44ColorIndex
 90
        5
102
RTVSPost2010Prop44ColorRGB
 90
      255
102
RTVSPost2010PropOp44
 70
     1
102
RTVSPost2010Prop45
280
     0
102
RTVSPost2010PropOp45
 70
     1
102
RTVSPost2010Prop46
 90
       50
102
RTVSPost2010PropOp46
 70
     1
102
RTVSPost2010Prop47
 90
       50
102
RTVSPost2010PropOp47
 70
     1
102
RTVSPost2010Prop48
 90
       50
102
RTVSPost2010PropOp48
 70
     1
102
RTVSPost2010Prop49
280
     0
102
RTVSPost2010PropOp49
 70
     1
102
RTVSPost2010Prop50
 90
       50
102
RTVSPost2010PropOp50
 70
     1
102
RTVSPost2010Prop51ColorIndex
 90
      256
102
RTVSPost2010Prop51ColorRGB
 90
-16777216
102
RTVSPost2010PropOp51
 70
     0
102
RTVSPost2010Prop52
140
1.0
102
RTVSPost2010PropOp52
 70
     0
102
RTVSPost2010Prop53
 90
        2
102
RTVSPost2010PropOp53
 70
     1
102
RTVSPost2010Prop54
  1
strokes_ogs.tif
102
RTVSPost2010PropOp54
 70
     1
102
RTVSPost2010Prop55
280
     0
102
RTVSPost2010PropOp55
 70
     1
102
RTVSPost2010Prop56
140
1.0
102
RTVSPost2010PropOp56
 70
     1
102
RTVSPost2010Prop57
140
1.0
102
RTVSPost2010PropOp57
 70
     1
  0
XRECORD
  5
100B
102
{ACAD_REACTORS
330
100A
102
}
330
100A
100
AcDbXrecord
280
     1
102
RTVSPropertyOp0
 70
     1
102
RTVSPropertyOp1
 70
     1
102
RTVSPropertyOp2
 70
     1
102
RTVSPropertyOp3
 70
     1
102
RTVSPropertyOp4
 70
     1
102
RTVSPropertyOp5
 70
     1
102
RTVSPropertyOp6
 70
     1
102
RTVSPropertyOp7
 70
     1
102
RTVSPropertyOp8
 70
     1
102
RTVSPropertyOp9
 70
     1
102
RTVSPropertyOp10
 70
     1
102
RTVSPropertyOp11
 70
     1
102
RTVSPropertyOp12
 70
     1
102
RTVSPropertyOp13
 70
     1
102
RTVSPropertyOp14
 70
     1
102
RTVSPropertyOp15
 70
     1
102
RTVSPropertyOp16
 70
     1
102
RTVSPropertyOp17
 70
     1
102
RTVSPropertyOp18
 70
     1
102
RTVSPropertyOp19
 70
     1
102
RTVSPropertyOp20
 70
     1
102
RTVSPropertyOp21
 70
     1
102
RTVSPropertyOp22
 70
     1
102
RTVSPropertyOp23
 70
     1
102
RTVSPropertyOp24
 70
     1
102
RTVSPropertyOp25
 70
     1
102
RTVSPropertyOp26
 70
     1
102
RTVSPropertyOp27
 70
     1
102
RTVSPropertyOp28
 70
     1
102
RTVSPropertyOp29
 70
     1
102
RTVSPropertyOp30
 70
     1
102
RTVSPropertyOp31
 70
     1
102
RTVSPropertyOp32
 70
     1
102
RTVSPropertyOp33
 70
     1
102
RTVSPropertyOp34
 70
     1
102
RTVSPropertyOp35
 70
     1
102
RTVSPropertyOp36
 70
     1
102
RTVSPropertyOp37
 70
     1
102
RTVSPropertyOp38
 70
     1
102
RTVSPropertyOp39
 70
     1
102
RTVSPropertyOp40
 70
     1
102
RTVSPropertyOp41
 70
     1
102
RTVSPropertyOp42
 70
     1
102
RTVSPropertyOp43
 70
     1
102
RTVSPropertyOp44
 70
     1
102
RTVSPropertyOp45
 70
     1
102
RTVSPropertyOp46
 70
     1
102
RTVSPropertyOp47
 70
     1
102
RTVSPropertyOp48
 70
     1
102
RTVSPropertyOp49
 70
     1
102
RTVSPropertyOp50
 70
     1
102
RTVSPropertyOp51
 70
     0
102
RTVSPropertyOp52
 70
     0
102
RTVSPropertyOp53
 70
     1
102
RTVSPropertyOp54
 70
     1
102
RTVSPropertyOp55
 70
     1
102
RTVSPropertyOp56
 70
     1
102
RTVSPropertyOp57
 70
     1
102
RTVSPost2010Prop28
280
     0
102
RTVSPost2010PropOp28
 70
     1
102
RTVSPost2010Prop29
280
     1
102
RTVSPost2010PropOp29
 70
     1
102
RTVSPost2010Prop30
280
     1
102
RTVSPost2010PropOp30
 70
     1
102
RTVSPost2010Prop31
280
     0
102
RTVSPost2010PropOp31
 70
     1
102
RTVSPost2010Prop32
280
     0
102
RTVSPost2010PropOp32
 70
     1
102
RTVSPost2010Prop33
280
     0
102
RTVSPost2010PropOp33
 70
     1
102
RTVSPost2010Prop34
280
     0
102
RTVSPost2010PropOp34
 70
     1
102
RTVSPost2010Prop35
280
     0
102
RTVSPost2010PropOp35
 70
     1
102
RTVSPost2010Prop36
280
     0
102
RTVSPost2010PropOp36
 70
     1
102
RTVSPost2010Prop37
 90
       50
102
RTVSPost2010PropOp37
 70
     1
102
RTVSPost2010Prop38
140
0.0
102
RTVSPost2010PropOp38
 70
     1
102
RTVSPost2010Prop39
140
1.0
102
RTVSPost2010PropOp39
 70
     1
102
RTVSPost2010Prop40
 90
        0
102
RTVSPost2010PropOp40
 70
     1
102
RTVSPost2010Prop41ColorIndex
 90
       18
102
RTVSPost2010Prop41ColorRGB
 90
        0
102
RTVSPost2010PropOp41
 70
     1
102
RTVSPost2010Prop42
 90
       50
102
RTVSPost2010PropOp42
 70
     1
102
RTVSPost2010Prop43
 90
        3
102
RTVSPost2010PropOp43
 70
     1
102
RTVSPost2010Prop44ColorIndex
 90
        5
102
RTVSPost2010Prop44ColorRGB
 90
      255
102
RTVSPost2010PropOp44
 70
     1
102
RTVSPost2010Prop45
280
     0
102
RTVSPost2010PropOp45
 70
     1
102
RTVSPost2010Prop46
 90
       50
102
RTVSPost2010PropOp46
 70
     1
102
RTVSPost2010Prop47
 90
       50
102
RTVSPost2010PropOp47
 70
     1
102
RTVSPost2010Prop48
 90
       50
102
RTVSPost2010PropOp48
 70
     1
102
RTVSPost2010Prop49
280
     0
102
RTVSPost2010PropOp49
 70
     1
102
RTVSPost2010Prop50
 90
       50
102
RTVSPost2010PropOp50
 70
     1
102
RTVSPost2010Prop51ColorIndex
 90
      256
102
RTVSPost2010Prop51ColorRGB
 90
-16777216
102
RTVSPost2010PropOp51
 70
     0
102
RTVSPost2010Prop52
140
1.0
102
RTVSPost2010PropOp52
 70
     0
102
RTVSPost2010Prop53
 90
        2
102
RTVSPost2010PropOp53
 70
     1
102
RTVSPost2010Prop54
  1
strokes_ogs.tif
102
RTVSPost2010PropOp54
 70
     1
102
RTVSPost2010Prop55
280
     0
102
RTVSPost2010PropOp55
 70
     1
102
RTVSPost2010Prop56
140
1.0
102
RTVSPost2010PropOp56
 70
     1
102
RTVSPost2010Prop57
140
1.0
102
RTVSPost2010PropOp57
 70
     1
  0
XRECORD
  5
FFD
102
{ACAD_REACTORS
330
FFC
102
}
330
FFC
100
AcDbXrecord
280
     1
102
RTVSPropertyOp0
 70
     1
102
RTVSPropertyOp1
 70
     1
102
RTVSPropertyOp2
 70
     1
102
RTVSPropertyOp3
 70
     1
102
RTVSPropertyOp4
 70
     1
102
RTVSPropertyOp5
 70
     1
102
RTVSPropertyOp6
 70
     1
102
RTVSPropertyOp7
 70
     1
102
RTVSPropertyOp8
 70
     1
102
RTVSPropertyOp9
 70
     1
102
RTVSPropertyOp10
 70
     1
102
RTVSPropertyOp11
 70
     1
102
RTVSPropertyOp12
 70
     1
102
RTVSPropertyOp13
 70
     1
102
RTVSPropertyOp14
 70
     1
102
RTVSPropertyOp15
 70
     1
102
RTVSPropertyOp16
 70
     1
102
RTVSPropertyOp17
 70
     1
102
RTVSPropertyOp18
 70
     1
102
RTVSPropertyOp19
 70
     1
102
RTVSPropertyOp20
 70
     1
102
RTVSPropertyOp21
 70
     1
102
RTVSPropertyOp22
 70
     1
102
RTVSPropertyOp23
 70
     1
102
RTVSPropertyOp24
 70
     1
102
RTVSPropertyOp25
 70
     1
102
RTVSPropertyOp26
 70
     1
102
RTVSPropertyOp27
 70
     1
102
RTVSPropertyOp28
 70
     1
102
RTVSPropertyOp29
 70
     1
102
RTVSPropertyOp30
 70
     1
102
RTVSPropertyOp31
 70
     1
102
RTVSPropertyOp32
 70
     1
102
RTVSPropertyOp33
 70
     1
102
RTVSPropertyOp34
 70
     1
102
RTVSPropertyOp35
 70
     1
102
RTVSPropertyOp36
 70
     1
102
RTVSPropertyOp37
 70
     1
102
RTVSPropertyOp38
 70
     1
102
RTVSPropertyOp39
 70
     1
102
RTVSPropertyOp40
 70
     1
102
RTVSPropertyOp41
 70
     1
102
RTVSPropertyOp42
 70
     1
102
RTVSPropertyOp43
 70
     1
102
RTVSPropertyOp44
 70
     1
102
RTVSPropertyOp45
 70
     1
102
RTVSPropertyOp46
 70
     1
102
RTVSPropertyOp47
 70
     1
102
RTVSPropertyOp48
 70
     1
102
RTVSPropertyOp49
 70
     1
102
RTVSPropertyOp50
 70
     1
102
RTVSPropertyOp51
 70
     0
102
RTVSPropertyOp52
 70
     0
102
RTVSPropertyOp53
 70
     1
102
RTVSPropertyOp54
 70
     1
102
RTVSPropertyOp55
 70
     1
102
RTVSPropertyOp56
 70
     1
102
RTVSPropertyOp57
 70
     1
102
RTVSPost2010Prop28
280
     0
102
RTVSPost2010PropOp28
 70
     1
102
RTVSPost2010Prop29
280
     1
102
RTVSPost2010PropOp29
 70
     1
102
RTVSPost2010Prop30
280
     1
102
RTVSPost2010PropOp30
 70
     1
102
RTVSPost2010Prop31
280
     0
102
RTVSPost2010PropOp31
 70
     1
102
RTVSPost2010Prop32
280
     0
102
RTVSPost2010PropOp32
 70
     1
102
RTVSPost2010Prop33
280
     0
102
RTVSPost2010PropOp33
 70
     1
102
RTVSPost2010Prop34
280
     0
102
RTVSPost2010PropOp34
 70
     1
102
RTVSPost2010Prop35
280
     0
102
RTVSPost2010PropOp35
 70
     1
102
RTVSPost2010Prop36
280
     0
102
RTVSPost2010PropOp36
 70
     1
102
RTVSPost2010Prop37
 90
       50
102
RTVSPost2010PropOp37
 70
     1
102
RTVSPost2010Prop38
140
0.0
102
RTVSPost2010PropOp38
 70
     1
102
RTVSPost2010Prop39
140
1.0
102
RTVSPost2010PropOp39
 70
     1
102
RTVSPost2010Prop40
 90
        0
102
RTVSPost2010PropOp40
 70
     1
102
RTVSPost2010Prop41ColorIndex
 90
       18
102
RTVSPost2010Prop41ColorRGB
 90
        0
102
RTVSPost2010PropOp41
 70
     1
102
RTVSPost2010Prop42
 90
       50
102
RTVSPost2010PropOp42
 70
     1
102
RTVSPost2010Prop43
 90
        3
102
RTVSPost2010PropOp43
 70
     1
102
RTVSPost2010Prop44ColorIndex
 90
        5
102
RTVSPost2010Prop44ColorRGB
 90
      255
102
RTVSPost2010PropOp44
 70
     1
102
RTVSPost2010Prop45
280
     0
102
RTVSPost2010PropOp45
 70
     1
102
RTVSPost2010Prop46
 90
       50
102
RTVSPost2010PropOp46
 70
     1
102
RTVSPost2010Prop47
 90
       50
102
RTVSPost2010PropOp47
 70
     1
102
RTVSPost2010Prop48
 90
       50
102
RTVSPost2010PropOp48
 70
     1
102
RTVSPost2010Prop49
280
     0
102
RTVSPost2010PropOp49
 70
     1
102
RTVSPost2010Prop50
 90
       50
102
RTVSPost2010PropOp50
 70
     1
102
RTVSPost2010Prop51ColorIndex
 90
      256
102
RTVSPost2010Prop51ColorRGB
 90
-16777216
102
RTVSPost2010PropOp51
 70
     0
102
RTVSPost2010Prop52
140
1.0
102
RTVSPost2010PropOp52
 70
     0
102
RTVSPost2010Prop53
 90
        2
102
RTVSPost2010PropOp53
 70
     1
102
RTVSPost2010Prop54
  1
strokes_ogs.tif
102
RTVSPost2010PropOp54
 70
     1
102
RTVSPost2010Prop55
280
     0
102
RTVSPost2010PropOp55
 70
     1
102
RTVSPost2010Prop56
140
1.0
102
RTVSPost2010PropOp56
 70
     1
102
RTVSPost2010Prop57
140
1.0
102
RTVSPost2010PropOp57
 70
     1
  0
XRECORD
  5
101D
102
{ACAD_REACTORS
330
101C
102
}
330
101C
100
AcDbXrecord
280
     1
102
RTVSPropertyOp0
 70
     1
102
RTVSPropertyOp1
 70
     1
102
RTVSPropertyOp2
 70
     1
102
RTVSPropertyOp3
 70
     1
102
RTVSPropertyOp4
 70
     1
102
RTVSPropertyOp5
 70
     1
102
RTVSPropertyOp6
 70
     1
102
RTVSPropertyOp7
 70
     1
102
RTVSPropertyOp8
 70
     1
102
RTVSPropertyOp9
 70
     1
102
RTVSPropertyOp10
 70
     1
102
RTVSPropertyOp11
 70
     1
102
RTVSPropertyOp12
 70
     1
102
RTVSPropertyOp13
 70
     1
102
RTVSPropertyOp14
 70
     1
102
RTVSPropertyOp15
 70
     1
102
RTVSPropertyOp16
 70
     1
102
RTVSPropertyOp17
 70
     1
102
RTVSPropertyOp18
 70
     1
102
RTVSPropertyOp19
 70
     1
102
RTVSPropertyOp20
 70
     1
102
RTVSPropertyOp21
 70
     1
102
RTVSPropertyOp22
 70
     1
102
RTVSPropertyOp23
 70
     1
102
RTVSPropertyOp24
 70
     1
102
RTVSPropertyOp25
 70
     1
102
RTVSPropertyOp26
 70
     1
102
RTVSPropertyOp27
 70
     1
102
RTVSPropertyOp28
 70
     1
102
RTVSPropertyOp29
 70
     1
102
RTVSPropertyOp30
 70
     1
102
RTVSPropertyOp31
 70
     1
102
RTVSPropertyOp32
 70
     1
102
RTVSPropertyOp33
 70
     1
102
RTVSPropertyOp34
 70
     1
102
RTVSPropertyOp35
 70
     1
102
RTVSPropertyOp36
 70
     1
102
RTVSPropertyOp37
 70
     1
102
RTVSPropertyOp38
 70
     1
102
RTVSPropertyOp39
 70
     1
102
RTVSPropertyOp40
 70
     1
102
RTVSPropertyOp41
 70
     1
102
RTVSPropertyOp42
 70
     1
102
RTVSPropertyOp43
 70
     1
102
RTVSPropertyOp44
 70
     1
102
RTVSPropertyOp45
 70
     1
102
RTVSPropertyOp46
 70
     1
102
RTVSPropertyOp47
 70
     1
102
RTVSPropertyOp48
 70
     1
102
RTVSPropertyOp49
 70
     1
102
RTVSPropertyOp50
 70
     1
102
RTVSPropertyOp51
 70
     0
102
RTVSPropertyOp52
 70
     0
102
RTVSPropertyOp53
 70
     1
102
RTVSPropertyOp54
 70
     1
102
RTVSPropertyOp55
 70
     1
102
RTVSPropertyOp56
 70
     1
102
RTVSPropertyOp57
 70
     1
102
RTVSPost2010Prop28
280
     0
102
RTVSPost2010PropOp28
 70
     1
102
RTVSPost2010Prop29
280
     1
102
RTVSPost2010PropOp29
 70
     1
102
RTVSPost2010Prop30
280
     1
102
RTVSPost2010PropOp30
 70
     1
102
RTVSPost2010Prop31
280
     0
102
RTVSPost2010PropOp31
 70
     1
102
RTVSPost2010Prop32
280
     0
102
RTVSPost2010PropOp32
 70
     1
102
RTVSPost2010Prop33
280
     0
102
RTVSPost2010PropOp33
 70
     1
102
RTVSPost2010Prop34
280
     0
102
RTVSPost2010PropOp34
 70
     1
102
RTVSPost2010Prop35
280
     0
102
RTVSPost2010PropOp35
 70
     1
102
RTVSPost2010Prop36
280
     0
102
RTVSPost2010PropOp36
 70
     1
102
RTVSPost2010Prop37
 90
       50
102
RTVSPost2010PropOp37
 70
     1
102
RTVSPost2010Prop38
140
0.0
102
RTVSPost2010PropOp38
 70
     1
102
RTVSPost2010Prop39
140
1.0
102
RTVSPost2010PropOp39
 70
     1
102
RTVSPost2010Prop40
 90
        0
102
RTVSPost2010PropOp40
 70
     1
102
RTVSPost2010Prop41ColorIndex
 90
       18
102
RTVSPost2010Prop41ColorRGB
 90
        0
102
RTVSPost2010PropOp41
 70
     1
102
RTVSPost2010Prop42
 90
       50
102
RTVSPost2010PropOp42
 70
     1
102
RTVSPost2010Prop43
 90
        3
102
RTVSPost2010PropOp43
 70
     1
102
RTVSPost2010Prop44ColorIndex
 90
        5
102
RTVSPost2010Prop44ColorRGB
 90
      255
102
RTVSPost2010PropOp44
 70
     1
102
RTVSPost2010Prop45
280
     0
102
RTVSPost2010PropOp45
 70
     1
102
RTVSPost2010Prop46
 90
       50
102
RTVSPost2010PropOp46
 70
     1
102
RTVSPost2010Prop47
 90
       50
102
RTVSPost2010PropOp47
 70
     1
102
RTVSPost2010Prop48
 90
       50
102
RTVSPost2010PropOp48
 70
     1
102
RTVSPost2010Prop49
280
     0
102
RTVSPost2010PropOp49
 70
     1
102
RTVSPost2010Prop50
 90
       50
102
RTVSPost2010PropOp50
 70
     1
102
RTVSPost2010Prop51ColorIndex
 90
      256
102
RTVSPost2010Prop51ColorRGB
 90
-16777216
102
RTVSPost2010PropOp51
 70
     0
102
RTVSPost2010Prop52
140
1.0
102
RTVSPost2010PropOp52
 70
     0
102
RTVSPost2010Prop53
 90
        2
102
RTVSPost2010PropOp53
 70
     1
102
RTVSPost2010Prop54
  1
strokes_ogs.tif
102
RTVSPost2010PropOp54
 70
     1
102
RTVSPost2010Prop55
280
     0
102
RTVSPost2010PropOp55
 70
     1
102
RTVSPost2010Prop56
140
1.0
102
RTVSPost2010PropOp56
 70
     1
102
RTVSPost2010Prop57
140
1.0
102
RTVSPost2010PropOp57
 70
     1
  0
ENDSEC
  0
EOF
