0
SECTION
2
HEADER
9
$DIMASZ
40
35.777093
9
$DIMEXO
40
7.155419
9
$DIMGAP
40
7.155419
9
$DIMTXT
40
35.777093
0
ENDSEC
0
SECTION
2
BLOCKS
0
BLOCK
5
3ea
8
0
2
_D1
70
0
10
0.000000
20
0.000000
30
0.000000
3
_D1
1

0
ENDBLK
5
3ea
8
0
0
ENDSEC
0
SECTION
2
ENTITIES
0
LINE
8
0
6
CONTINUOUS
10
111.035673
20
128.649638
11
87.778954
21
158.101604
0
ARC
8
0
6
CONTINUOUS
10
80.709893
20
147.175707
40
13.013333
50
57.097113
51
107.312144
0
LINE
8
0
6
CONTINUOUS
10
76.837421
20
159.599507
11
49.079927
21
144.062831
0
LINE
8
0
6
CONTINUOUS
10
49.079927
20
144.062831
11
49.079927
21
90.333296
0
ARC
8
0
6
CONTINUOUS
10
55.441321
20
99.454157
40
11.120136
50
235.105947
51
308.467815
0
LINE
8
0
6
CONTINUOUS
10
62.358879
20
90.747560
11
110.262268
21
116.470042
0
ARC
8
0
6
CONTINUOUS
10
104.019402
20
122.980819
40
9.020176
50
313.796586
51
398.936590
0
LINE
8
0
6
CONTINUOUS
10
137.902130
20
64.969538
11
97.732976
21
34.747106
0
LINE
8
0
6
CONTINUOUS
10
97.732976
20
34.747106
11
216.417188
21
34.747106
0
LINE
8
0
6
CONTINUOUS
10
216.417188
20
34.747106
11
174.284633
21
67.964182
0
ARC
8
0
6
CONTINUOUS
10
157.833402
20
45.327012
40
27.983646
50
53.992770
51
135.418044
0
ARC
8
0
6
CONTINUOUS
10
136.737055
20
116.717831
40
8.926086
50
116.780953
51
225.339518
0
LINE
8
0
6
CONTINUOUS
10
130.462870
20
110.368843
11
156.163989
21
84.883251
0
ARC
8
0
6
CONTINUOUS
10
166.103027
20
93.059638
40
12.870034
50
219.442551
51
301.020464
0
LINE
8
0
6
CONTINUOUS
10
172.735524
20
82.030234
11
231.170929
21
117.089644
0
ARC
8
0
6
CONTINUOUS
10
224.928064
20
123.600421
40
9.020176
50
313.796586
51
398.936590
0
LINE
8
0
6
CONTINUOUS
10
231.944336
20
129.269240
11
201.969280
21
157.448604
0
ARC
8
0
6
CONTINUOUS
10
194.917720
20
152.988899
40
8.343468
50
32.310998
51
140.228564
0
LINE
8
0
6
CONTINUOUS
10
188.504909
20
158.326438
11
132.715132
21
124.686465
0
LINE
8
0
6
CONTINUOUS
10
119.118653
20
235.324763
11
64.249744
21
205.545179
0
ARC
8
0
6
CONTINUOUS
10
68.085282
20
198.430735
40
8.082492
50
118.329990
51
227.409864
0
LINE
8
0
6
CONTINUOUS
10
62.615462
20
192.480295
11
78.855396
21
171.733445
0
ARC
8
0
6
CONTINUOUS
10
88.174066
20
179.058748
40
11.853172
50
218.170500
51
302.261404
0
LINE
8
0
6
CONTINUOUS
10
94.501086
20
169.035450
11
149.529340
21
198.873408
0
ARC
8
0
6
CONTINUOUS
10
145.534779
20
205.145569
40
7.436164
50
302.491905
51
403.812821
0
LINE
8
0
6
CONTINUOUS
10
150.900754
20
210.293659
11
134.411777
21
232.165923
0
ARC
8
0
6
CONTINUOUS
10
125.410298
20
227.185685
40
10.287341
50
28.954388
51
127.704633
0
LINE
8
0
6
CONTINUOUS
10
96.476873
20
279.732634
11
83.906387
21
300.872154
0
ARC
8
0
6
CONTINUOUS
10
77.895898
20
295.301826
40
8.194787
50
42.823358
51
113.261544
0
LINE
8
0
6
CONTINUOUS
10
74.659539
20
302.830472
11
49.079927
21
291.166670
0
LINE
8
0
6
CONTINUOUS
10
49.079927
20
291.166670
11
49.079927
21
250.190327
0
LINE
8
0
6
CONTINUOUS
10
49.079927
20
250.190327
11
93.709277
21
269.849923
0
ARC
8
0
6
CONTINUOUS
10
88.218653
20
276.716420
40
8.791800
50
308.646697
51
380.064103
0
ARC
8
0
6
CONTINUOUS
10
115.772483
20
270.157677
40
8.528665
50
126.702496
51
217.749840
0
LINE
8
0
6
CONTINUOUS
10
109.028943
20
264.936300
11
122.382574
21
248.393866
0
ARC
8
0
6
CONTINUOUS
10
130.361922
20
253.393280
40
9.416164
50
212.068962
51
303.233253
0
LINE
8
0
6
CONTINUOUS
10
135.522439
20
245.517164
11
184.944350
21
271.281175
0
ARC
8
0
6
CONTINUOUS
10
181.752729
20
277.725462
40
7.191334
50
296.347539
51
400.594532
0
LINE
8
0
6
CONTINUOUS
10
187.213349
20
282.404876
11
168.975653
21
302.030917
0
ARC
8
0
6
CONTINUOUS
10
163.933682
20
296.210781
40
7.700353
50
49.097684
51
123.626090
0
LINE
8
0
6
CONTINUOUS
10
159.669451
20
302.622628
11
110.675241
21
276.995531
0
LINE
8
0
6
CONTINUOUS
10
121.027797
20
362.317473
11
69.738281
21
337.835590
0
ARC
8
0
6
CONTINUOUS
10
73.720410
20
332.852127
40
6.379049
50
128.627250
51
228.526107
0
LINE
8
0
6
CONTINUOUS
10
69.495702
20
328.072575
11
77.158341
21
315.471409
0
ARC
8
0
6
CONTINUOUS
10
85.149193
20
318.420184
40
8.517569
50
200.255017
51
303.474851
0
LINE
8
0
6
CONTINUOUS
10
89.847236
20
311.315442
11
137.061253
21
334.011516
0
ARC
8
0
6
CONTINUOUS
10
131.444101
20
340.119052
40
8.297855
50
312.605003
51
375.915759
0
LINE
8
0
6
CONTINUOUS
10
139.423865
20
342.394521
11
129.814638
21
360.107876
0
ARC
8
0
6
CONTINUOUS
10
123.817478
20
354.835132
40
7.985471
50
41.322154
51
110.447235
0
LINE
8
0
6
CONTINUOUS
10
176.473712
20
396.365764
11
167.036910
21
411.887037
0
ARC
8
0
6
CONTINUOUS
10
162.652002
20
407.585286
40
6.142678
50
44.451528
51
113.377704
0
LINE
8
0
6
CONTINUOUS
10
160.214644
20
413.223705
11
116.449451
21
391.684414
0
ARC
8
0
6
CONTINUOUS
10
120.336796
20
387.075525
40
6.029371
50
130.145781
51
215.900841
0
LINE
8
0
6
CONTINUOUS
10
115.452806
20
383.539996
11
122.790535
21
372.122152
0
ARC
8
0
6
CONTINUOUS
10
130.453347
20
376.878382
40
9.018892
50
211.827464
51
284.142501
0
LINE
8
0
6
CONTINUOUS
10
132.656972
20
368.132844
11
175.104871
21
389.088715
0
ARC
8
0
6
CONTINUOUS
10
172.351840
20
393.373837
40
5.093275
50
302.719230
51
395.974637
0
LINE
8
0
6
CONTINUOUS
10
195.485109
20
363.410938
11
150.912400
21
339.474172
0
ARC
8
0
6
CONTINUOUS
10
156.146095
20
333.825776
40
7.700387
50
132.817596
51
218.208757
0
LINE
8
0
6
CONTINUOUS
10
150.095422
20
329.062867
11
161.893669
21
314.943431
0
ARC
8
0
6
CONTINUOUS
10
171.110765
20
321.384176
40
11.244468
50
214.945178
51
288.211938
0
LINE
8
0
6
CONTINUOUS
10
174.625030
20
310.702978
11
216.442935
21
334.517936
0
ARC
8
0
6
CONTINUOUS
10
212.932002
20
339.958305
40
6.474895
50
302.836115
51
398.412557
0
LINE
8
0
6
CONTINUOUS
10
218.005453
20
343.981283
11
204.260125
21
361.131385
0
ARC
8
0
6
CONTINUOUS
10
198.215566
20
355.892438
40
7.998953
50
40.916175
51
109.959255
0
ARC
8
0
6
CONTINUOUS
10
191.229182
20
389.042879
40
6.063412
50
132.817598
51
218.208758
0
LINE
8
0
6
CONTINUOUS
10
186.464782
20
385.292487
11
196.262423
21
373.327987
0
ARC
8
0
6
CONTINUOUS
10
203.520116
20
378.399537
40
8.854079
50
214.945181
51
288.211933
0
LINE
8
0
6
CONTINUOUS
10
206.287306
20
369.988986
11
243.467852
21
390.240092
0
ARC
8
0
6
CONTINUOUS
10
240.714270
20
394.523194
40
5.091873
50
302.736726
51
395.238610
0
LINE
8
0
6
CONTINUOUS
10
244.873090
20
397.461117
11
232.451505
21
412.959580
0
ARC
8
0
6
CONTINUOUS
10
227.691919
20
408.834343
40
6.298509
50
40.916177
51
109.959237
0
LINE
8
0
6
CONTINUOUS
10
225.541914
20
414.754537
11
187.108084
21
393.490520
0
LINE
8
0
6
CONTINUOUS
10
208.592653
20
444.589653
11
200.461539
21
457.963385
0
ARC
8
0
6
CONTINUOUS
10
196.683331
20
454.256830
40
5.292770
50
44.451526
51
113.377711
0
LINE
8
0
6
CONTINUOUS
10
194.583209
20
459.115111
11
156.873417
21
440.556021
0
ARC
8
0
6
CONTINUOUS
10
160.222905
20
436.584821
40
5.195142
50
130.145788
51
215.900825
0
LINE
8
0
6
CONTINUOUS
10
156.014669
20
433.538474
11
162.337141
21
423.700415
0
ARC
8
0
6
CONTINUOUS
10
168.939716
20
427.798566
40
7.771025
50
211.827454
51
284.142516
0
LINE
8
0
6
CONTINUOUS
10
170.838447
20
420.263072
11
207.398725
21
438.312316
0
ARC
8
0
6
CONTINUOUS
10
205.045060
20
442.012184
40
4.385062
50
302.462409
51
395.999910
0
ARC
8
0
6
CONTINUOUS
10
221.651550
20
436.954365
40
5.899619
50
132.817593
51
218.208764
0
LINE
8
0
6
CONTINUOUS
10
217.015853
20
433.305282
11
225.665249
21
423.497191
0
ARC
8
0
6
CONTINUOUS
10
232.726888
20
428.431740
40
8.614902
50
214.945181
51
288.211944
0
LINE
8
0
6
CONTINUOUS
10
235.419328
20
420.248385
11
268.321196
21
438.169027
0
ARC
8
0
6
CONTINUOUS
10
265.471154
20
442.382770
40
5.087080
50
304.073174
51
395.264233
0
LINE
8
0
6
CONTINUOUS
10
269.624745
20
445.319786
11
258.971337
21
458.903533
0
ARC
8
0
6
CONTINUOUS
10
254.641804
20
455.355149
40
5.597846
50
39.337249
51
118.791939
0
LINE
8
0
6
CONTINUOUS
10
251.945712
20
460.260959
11
217.641777
21
441.281860
0
ARC
8
0
6
CONTINUOUS
10
195.981413
20
478.528701
40
4.468138
50
130.145780
51
215.900839
0
LINE
8
0
6
CONTINUOUS
10
192.362074
20
475.908655
11
197.799787
21
467.447323
0
ARC
8
0
6
CONTINUOUS
10
203.478405
20
470.971985
40
6.683558
50
211.827458
51
284.142510
0
LINE
8
0
6
CONTINUOUS
10
205.111428
20
464.491000
11
236.555358
21
480.014380
0
ARC
8
0
6
CONTINUOUS
10
234.531245
20
483.196568
40
3.771386
50
302.459456
51
396.000212
0
LINE
8
0
6
CONTINUOUS
10
237.582353
20
485.413346
11
230.589098
21
496.915572
0
ARC
8
0
6
CONTINUOUS
10
227.339608
20
493.727706
40
4.552107
50
44.451532
51
113.377691
0
LINE
8
0
6
CONTINUOUS
10
225.533375
20
497.906126
11
193.100650
21
481.944174
0
ARC
8
0
6
CONTINUOUS
10
186.287123
20
244.089339
40
271.071713
50
89.215767
51
92.218564
0
ARC
8
0
6
CONTINUOUS
10
176.042357
20
516.477941
40
1.540311
50
181.094475
51
260.702894
0
ARC
8
0
6
CONTINUOUS
10
0.073999
20
518.484644
40
174.440211
50
359.331209
51
361.710413
0
ARC
8
0
6
CONTINUOUS
10
172.238277
20
523.435185
40
2.213084
50
6.646079
51
177.766018
0
ARC
8
0
6
CONTINUOUS
10
583.535348
20
535.630028
40
413.685719
50
181.677286
51
182.824293
0
ARC
8
0
6
CONTINUOUS
10
167.706019
20
514.908048
40
2.667642
50
-36.255491
51
7.286469
0
ARC
8
0
6
CONTINUOUS
10
158.425498
20
519.099872
40
12.805061
50
292.884459
51
333.220456
0
ARC
8
0
6
CONTINUOUS
10
164.553116
20
505.589447
40
2.062337
50
123.826536
51
237.183942
0
ARC
8
0
6
CONTINUOUS
10
162.711069
20
514.399941
40
10.568567
50
273.930173
51
333.063003
0
ARC
8
0
6
CONTINUOUS
10
173.390806
20
509.063064
40
1.372479
50
79.129483
51
156.412060
0
LINE
8
0
6
CONTINUOUS
10
173.649642
20
510.410915
11
189.941314
21
510.818105
0
ARC
8
0
6
CONTINUOUS
10
189.334059
20
512.985118
40
2.250490
50
285.654281
51
432.860168
0
LINE
8
0
6
CONTINUOUS
10
221.588982
20
535.343961
11
220.822725
21
549.607458
0
ARC
8
0
6
CONTINUOUS
10
219.410992
20
549.570432
40
1.412218
50
1.502402
51
139.317034
0
LINE
8
0
6
CONTINUOUS
10
218.340068
20
550.491018
11
210.606509
21
541.748849
0
ARC
8
0
6
CONTINUOUS
10
218.183520
20
536.762978
40
9.070282
50
146.654037
51
182.924596
0
LINE
8
0
6
CONTINUOUS
10
209.125052
20
536.300196
11
208.478254
21
521.634718
0
ARC
8
0
6
CONTINUOUS
10
209.791788
20
521.337011
40
1.346849
50
167.229875
51
326.078311
0
LINE
8
0
6
CONTINUOUS
10
210.909404
20
520.585390
11
220.928050
21
533.175805
0
ARC
8
0
6
CONTINUOUS
10
217.964687
20
535.263961
40
3.625178
50
324.829283
51
361.264492
0
LINE
8
0
6
CONTINUOUS
10
248.582337
20
530.748157
11
223.024777
21
517.581739
0
ARC
8
0
6
CONTINUOUS
10
226.484568
20
514.223476
40
4.821626
50
135.853131
51
189.784833
0
LINE
8
0
6
CONTINUOUS
10
221.733082
20
513.404048
11
226.676890
21
505.711254
0
ARC
8
0
6
CONTINUOUS
10
231.839722
20
508.915772
40
6.076493
50
211.827458
51
284.142505
0
LINE
8
0
6
CONTINUOUS
10
233.324419
20
503.023452
11
261.303033
21
516.560489
0
ARC
8
0
6
CONTINUOUS
10
259.503537
20
519.470051
40
3.421072
50
301.735813
51
396.072607
0
LINE
8
0
6
CONTINUOUS
10
262.268692
20
521.484413
11
256.277167
21
529.643655
0
ARC
8
0
6
CONTINUOUS
10
251.764476
20
525.561063
40
6.085388
50
42.135365
51
121.527950
0
ARC
8
0
6
CONTINUOUS
10
281.884995
20
551.401416
40
3.022151
50
301.735741
51
396.072620
0
LINE
8
0
6
CONTINUOUS
10
284.327713
20
553.180889
11
279.034840
21
560.388709
0
ARC
8
0
6
CONTINUOUS
10
275.048358
20
556.782174
40
5.375791
50
42.135368
51
121.527938
0
LINE
8
0
6
CONTINUOUS
10
272.237281
20
561.364418
11
249.659904
21
549.733294
0
ARC
8
0
6
CONTINUOUS
10
252.716260
20
546.766628
40
4.259392
50
135.853134
51
189.784832
0
LINE
8
0
6
CONTINUOUS
10
248.518830
20
546.042750
11
252.886157
21
539.246989
0
ARC
8
0
6
CONTINUOUS
10
257.446967
20
542.077838
40
5.367932
50
211.827461
51
284.142516
0
LINE
8
0
6
CONTINUOUS
10
258.758538
20
536.872602
11
283.474653
21
548.831127
0
LINE
8
0
6
CONTINUOUS
10
282.680975
20
504.753826
11
306.282081
21
517.608626
0
ARC
8
0
6
CONTINUOUS
10
304.200983
20
520.608650
40
3.651179
50
304.748806
51
394.850481
0
LINE
8
0
6
CONTINUOUS
10
307.197309
20
522.695068
11
299.088982
21
531.759496
0
ARC
8
0
6
CONTINUOUS
10
296.694487
20
528.448027
40
4.086494
50
54.129609
51
122.153793
0
LINE
8
0
6
CONTINUOUS
10
294.519680
20
531.907746
11
269.945992
21
519.821194
0
ARC
8
0
6
CONTINUOUS
10
272.818403
20
516.721184
40
4.226204
50
132.817598
51
218.208743
0
LINE
8
0
6
CONTINUOUS
10
269.497610
20
514.107157
11
275.693622
21
507.081113
0
ARC
8
0
6
CONTINUOUS
10
280.752240
20
510.615987
40
6.171302
50
214.945176
51
288.211937
0
LINE
8
0
6
CONTINUOUS
10
290.437562
20
486.495083
11
281.377869
21
498.046746
0
ARC
8
0
6
CONTINUOUS
10
277.696020
20
495.029188
40
4.760428
50
39.337242
51
118.791923
0
LINE
8
0
6
CONTINUOUS
10
275.403254
20
499.201105
11
246.231075
21
483.061217
0
ARC
8
0
6
CONTINUOUS
10
249.640999
20
479.381101
40
5.017055
50
132.817588
51
218.208767
0
LINE
8
0
6
CONTINUOUS
10
245.698787
20
476.277908
11
253.054262
21
467.937075
0
ARC
8
0
6
CONTINUOUS
10
259.059504
20
472.133432
40
7.326141
50
214.945174
51
288.211947
0
LINE
8
0
6
CONTINUOUS
10
261.349164
20
465.174281
11
289.366744
21
480.434599
0
ARC
8
0
6
CONTINUOUS
10
286.895148
20
483.996145
40
4.335135
50
304.759376
51
395.200428
0
LINE
8
0
6
CONTINUOUS
10
315.791504
20
466.820687
11
341.202210
21
481.883525
0
ARC
8
0
6
CONTINUOUS
10
338.103800
20
484.559077
40
4.093741
50
319.188594
51
406.170454
0
LINE
8
0
6
CONTINUOUS
10
340.938779
20
487.512314
11
329.916039
21
499.005392
0
ARC
8
0
6
CONTINUOUS
10
326.809635
20
495.100497
40
4.989785
50
51.497210
51
121.846561
0
LINE
8
0
6
CONTINUOUS
10
324.176794
20
499.339140
11
298.624363
21
483.861102
0
ARC
8
0
6
CONTINUOUS
10
301.827818
20
481.048392
40
4.263034
50
138.716096
51
224.187755
0
LINE
8
0
6
CONTINUOUS
10
298.770968
20
478.077006
11
307.759225
21
468.451763
0
ARC
8
0
6
CONTINUOUS
10
312.605784
20
471.725648
40
5.848714
50
214.039299
51
303.003293
0
LINE
8
0
6
CONTINUOUS
10
328.446661
20
445.753268
11
315.139023
21
459.628739
0
ARC
8
0
6
CONTINUOUS
10
311.388694
20
454.914398
40
6.024116
50
51.497216
51
121.846545
0
LINE
8
0
6
CONTINUOUS
10
308.210093
20
460.031669
11
279.013046
21
442.501743
0
ARC
8
0
6
CONTINUOUS
10
282.880544
20
439.105987
40
5.146717
50
138.716094
51
224.187751
0
LINE
8
0
6
CONTINUOUS
10
279.190041
20
435.518665
11
290.041468
21
423.898211
0
ARC
8
0
6
CONTINUOUS
10
295.892668
20
427.850736
40
7.061090
50
214.039301
51
303.003304
0
LINE
8
0
6
CONTINUOUS
10
299.738754
20
421.929030
11
328.764698
21
438.957690
0
ARC
8
0
6
CONTINUOUS
10
325.024022
20
442.187855
40
4.942330
50
319.188594
51
406.170455
0
LINE
8
0
6
CONTINUOUS
10
365.229136
20
462.152286
11
339.784197
21
444.404168
0
ARC
8
0
6
CONTINUOUS
10
343.651695
20
441.008412
40
5.146717
50
138.716094
51
224.187751
0
LINE
8
0
6
CONTINUOUS
10
339.961192
20
437.421090
11
355.101971
21
425.152639
0
ARC
8
0
6
CONTINUOUS
10
360.320839
20
429.032177
40
6.502876
50
216.625917
51
313.660802
0
LINE
8
0
6
CONTINUOUS
10
364.810344
20
424.327739
11
389.118748
21
440.159115
0
ARC
8
0
6
CONTINUOUS
10
385.378071
20
443.389280
40
4.942330
50
319.188594
51
406.170455
0
LINE
8
0
6
CONTINUOUS
10
388.800710
20
446.954693
11
372.158066
21
461.749356
0
ARC
8
0
6
CONTINUOUS
10
368.407737
20
457.035015
40
6.024116
50
51.497216
51
121.846545
0
LINE
8
0
6
CONTINUOUS
10
371.749101
20
499.692227
11
351.411028
21
485.747801
0
ARC
8
0
6
CONTINUOUS
10
354.799099
20
482.214082
40
4.895529
50
133.794568
51
216.595390
0
LINE
8
0
6
CONTINUOUS
10
350.868649
20
479.295562
11
364.551417
21
467.909171
0
ARC
8
0
6
CONTINUOUS
10
369.124881
20
473.211151
40
7.001969
50
229.219092
51
306.228509
0
LINE
8
0
6
CONTINUOUS
10
373.263096
20
467.562898
11
392.805953
21
481.737218
0
ARC
8
0
6
CONTINUOUS
10
389.910757
20
484.930533
40
4.310386
50
312.196794
51
411.062651
0
LINE
8
0
6
CONTINUOUS
10
392.619706
20
488.283298
11
378.536763
21
499.869675
0
ARC
8
0
6
CONTINUOUS
10
375.317038
20
493.121074
40
7.477314
50
64.494419
51
118.500626
0
LINE
8
0
6
CONTINUOUS
10
361.452752
20
516.383550
11
373.355041
21
506.478821
0
ARC
8
0
6
CONTINUOUS
10
377.333381
20
511.090880
40
6.090835
50
229.219098
51
306.228498
0
LINE
8
0
6
CONTINUOUS
10
380.933106
20
506.177608
11
397.235443
21
518.001597
0
ARC
8
0
6
CONTINUOUS
10
394.716986
20
520.779380
40
3.749494
50
312.196795
51
411.062646
0
LINE
8
0
6
CONTINUOUS
10
397.073432
20
523.695863
11
385.068347
21
533.056782
0
ARC
8
0
6
CONTINUOUS
10
381.846578
20
527.396769
40
6.512722
50
60.350782
51
119.491399
0
LINE
8
0
6
CONTINUOUS
10
378.640412
20
533.065633
11
361.924554
21
521.996187
0
ARC
8
0
6
CONTINUOUS
10
364.871751
20
518.922296
40
4.258495
50
133.794567
51
216.595381
0
LINE
8
0
6
CONTINUOUS
10
337.879135
20
533.044214
11
315.997526
21
520.362684
0
ARC
8
0
6
CONTINUOUS
10
318.717617
20
517.974379
40
3.619791
50
138.716107
51
224.187732
0
LINE
8
0
6
CONTINUOUS
10
316.122010
20
515.451343
11
323.754039
21
507.278442
0
ARC
8
0
6
CONTINUOUS
10
327.869306
20
510.058333
40
4.966207
50
214.039297
51
303.003314
0
LINE
8
0
6
CONTINUOUS
10
330.574337
20
505.893478
11
352.150851
21
518.683501
0
ARC
8
0
6
CONTINUOUS
10
349.519957
20
520.955342
40
3.476041
50
319.188586
51
406.170461
0
LINE
8
0
6
CONTINUOUS
10
351.927169
20
523.462969
11
342.261847
21
532.655803
0
ARC
8
0
6
CONTINUOUS
10
339.746068
20
529.189309
40
4.283192
50
54.030030
51
115.840927
0
LINE
8
0
6
CONTINUOUS
10
329.952460
20
547.575898
11
336.770461
21
540.274715
0
ARC
8
0
6
CONTINUOUS
10
340.447086
20
542.759411
40
4.437486
50
214.051164
51
302.480980
0
LINE
8
0
6
CONTINUOUS
10
342.830103
20
539.016082
11
362.138481
21
550.463316
0
ARC
8
0
6
CONTINUOUS
10
359.788197
20
552.492843
40
3.105289
50
319.188593
51
406.170454
0
LINE
8
0
6
CONTINUOUS
10
361.938657
20
554.733008
11
353.304235
21
562.945339
0
ARC
8
0
6
CONTINUOUS
10
351.056786
20
559.848578
40
3.826349
50
54.030035
51
115.840915
0
LINE
8
0
6
CONTINUOUS
10
349.388980
20
563.292322
11
329.841253
21
551.963397
0
ARC
8
0
6
CONTINUOUS
10
332.271219
20
549.829830
40
3.233705
50
138.716100
51
224.187754
0
LINE
8
0
6
CONTINUOUS
10
311.891155
20
561.801921
11
290.521319
21
551.291182
0
ARC
8
0
6
CONTINUOUS
10
293.019231
20
548.595343
40
3.675201
50
132.817587
51
218.208762
0
LINE
8
0
6
CONTINUOUS
10
290.131396
20
546.322125
11
295.519588
21
540.212118
0
ARC
8
0
6
CONTINUOUS
10
299.918677
20
543.286124
40
5.366702
50
214.945171
51
288.211956
0
LINE
8
0
6
CONTINUOUS
10
301.595949
20
538.188255
11
322.120029
21
549.367094
0
ARC
8
0
6
CONTINUOUS
10
320.310230
20
551.975969
40
3.175154
50
304.749374
51
394.850551
0
LINE
8
0
6
CONTINUOUS
10
322.915905
20
553.790372
11
315.864724
21
561.673000
0
ARC
8
0
6
CONTINUOUS
10
313.782417
20
558.793275
40
3.553705
50
54.129592
51
122.153837
0
LINE
8
0
6
CONTINUOUS
10
307.372326
20
573.577503
11
311.800366
21
568.556272
0
ARC
8
0
6
CONTINUOUS
10
315.415555
20
571.082504
40
4.410379
50
214.945178
51
288.211951
0
LINE
8
0
6
CONTINUOUS
10
316.793944
20
566.893054
11
334.646546
21
576.666077
0
ARC
8
0
6
CONTINUOUS
10
333.159321
20
578.810096
40
2.609340
50
304.747590
51
394.850698
0
LINE
8
0
6
CONTINUOUS
10
335.300660
20
580.301177
11
329.505969
21
586.779154
0
ARC
8
0
6
CONTINUOUS
10
327.794720
20
584.412581
40
2.920452
50
54.129602
51
122.153803
0
LINE
8
0
6
CONTINUOUS
10
326.240474
20
586.885102
11
307.692768
21
577.661095
0
ARC
8
0
6
CONTINUOUS
10
309.745562
20
575.445643
40
3.020297
50
132.817601
51
218.208756
0
LINE
8
0
6
CONTINUOUS
10
291.921037
20
597.694546
11
295.232987
21
592.540998
0
ARC
8
0
6
CONTINUOUS
10
298.691666
20
594.687766
40
4.070758
50
211.827458
51
284.142513
0
LINE
8
0
6
CONTINUOUS
10
299.686293
20
590.740388
11
318.429650
21
599.809084
0
ARC
8
0
6
CONTINUOUS
10
317.224196
20
601.758279
40
2.291829
50
301.734178
51
396.072785
0
LINE
8
0
6
CONTINUOUS
10
319.076612
20
603.107736
11
315.062775
21
608.573768
0
ARC
8
0
6
CONTINUOUS
10
312.039637
20
605.838762
40
4.076717
50
42.135374
51
121.527948
0
LINE
8
0
6
CONTINUOUS
10
309.907863
20
609.313695
11
292.786367
21
600.493262
0
ARC
8
0
6
CONTINUOUS
10
295.104143
20
598.243499
40
3.230095
50
135.853106
51
189.784880
0
ARC
8
0
6
CONTINUOUS
10
274.539320
20
621.232707
40
1.624645
50
135.429489
51
290.859224
0
ARC
8
0
6
CONTINUOUS
10
284.484604
20
609.152959
40
14.116792
50
106.742424
51
131.568971
0
ARC
8
0
6
CONTINUOUS
10
279.615097
20
623.992108
40
1.545663
50
301.295045
51
427.311874
0
ARC
8
0
6
CONTINUOUS
10
280.314004
20
616.007481
40
9.411244
50
90.625382
51
137.440225
0
LINE
8
0
6
CONTINUOUS
10
278.690013
20
635.682253
11
278.029302
21
660.701197
0
ARC
8
0
6
CONTINUOUS
10
276.158008
20
660.926307
40
1.884785
50
353.140462
51
553.929362
0
LINE
8
0
6
CONTINUOUS
10
274.328650
20
660.472592
11
274.060857
21
635.420068
0
ARC
8
0
6
CONTINUOUS
10
276.384783
20
635.386118
40
2.324173
50
179.163018
51
367.320266
0
ARC
8
0
6
CONTINUOUS
10
307.553024
20
489.548803
40
148.229492
50
89.215770
51
92.218556
0
ARC
8
0
6
CONTINUOUS
10
301.950925
20
638.498403
40
0.842282
50
181.094513
51
260.702869
0
ARC
8
0
6
CONTINUOUS
10
205.728009
20
639.595719
40
95.387286
50
359.331203
51
361.710434
0
ARC
8
0
6
CONTINUOUS
10
299.870756
20
642.302803
40
1.210171
50
6.646092
51
177.765989
0
ARC
8
0
6
CONTINUOUS
10
524.779725
20
648.971295
40
226.215144
50
181.677288
51
182.824289
0
ARC
8
0
6
CONTINUOUS
10
297.392401
20
637.639946
40
1.458736
50
-36.255458
51
7.286458
0
ARC
8
0
6
CONTINUOUS
10
292.317572
20
639.932145
40
7.002138
50
292.884473
51
333.220451
0
ARC
8
0
6
CONTINUOUS
10
295.668314
20
632.544296
40
1.127739
50
123.826558
51
237.183928
0
ARC
8
0
6
CONTINUOUS
10
294.661035
20
637.362101
40
5.779163
50
273.930175
51
333.063000
0
ARC
8
0
6
CONTINUOUS
10
300.500987
20
634.443760
40
0.750505
50
79.129398
51
156.412069
0
LINE
8
0
6
CONTINUOUS
10
300.642526
20
635.180799
11
309.551229
21
635.403461
0
ARC
8
0
6
CONTINUOUS
10
309.219166
20
636.588439
40
1.230625
50
285.654310
51
432.860179
0
LINE
8
0
6
CONTINUOUS
10
324.172460
20
647.271917
11
323.526044
21
653.382032
0
ARC
8
0
6
CONTINUOUS
10
323.040241
20
653.369290
40
0.485972
50
1.502365
51
139.317081
0
LINE
8
0
6
CONTINUOUS
10
322.671714
20
653.686082
11
319.244998
21
650.416476
0
ARC
8
0
6
CONTINUOUS
10
321.852399
20
648.700739
40
3.121265
50
146.654061
51
182.924551
0
LINE
8
0
6
CONTINUOUS
10
318.735200
20
648.541488
11
318.852826
21
642.449796
0
ARC
8
0
6
CONTINUOUS
10
319.311659
20
642.355613
40
0.468400
50
168.400193
51
311.859483
0
LINE
8
0
6
CONTINUOUS
10
319.624226
20
642.006756
11
323.945020
21
646.525811
0
ARC
8
0
6
CONTINUOUS
10
322.925269
20
647.244387
40
1.247494
50
324.829304
51
361.264502
0
LINE
8
0
6
CONTINUOUS
10
343.886231
20
640.670885
11
341.083167
21
644.488092
0
ARC
8
0
6
CONTINUOUS
10
338.971956
20
642.578099
40
2.846978
50
42.135361
51
121.527957
0
LINE
8
0
6
CONTINUOUS
10
337.483230
20
645.004820
11
325.526424
21
638.845065
0
ARC
8
0
6
CONTINUOUS
10
327.145045
20
637.273942
40
2.255740
50
135.853134
51
189.784882
0
LINE
8
0
6
CONTINUOUS
10
324.922119
20
636.890581
11
327.235023
21
633.291598
0
ARC
8
0
6
CONTINUOUS
10
329.650393
20
634.790794
40
2.842816
50
211.827458
51
284.142511
0
LINE
8
0
6
CONTINUOUS
10
330.344991
20
632.034141
11
343.454766
21
638.377111
0
ARC
8
0
6
CONTINUOUS
10
342.586989
20
639.727809
40
1.605435
50
302.719336
51
395.974634
0
LINE
8
0
6
CONTINUOUS
10
357.300617
20
623.355906
11
352.895228
21
628.280761
0
ARC
8
0
6
CONTINUOUS
10
350.863882
20
626.702808
40
2.572219
50
37.840098
51
117.100524
0
LINE
8
0
6
CONTINUOUS
10
349.692100
20
628.992619
11
335.849488
21
622.108515
0
ARC
8
0
6
CONTINUOUS
10
337.576801
20
620.244335
40
2.541413
50
132.817598
51
218.208764
0
LINE
8
0
6
CONTINUOUS
10
335.579855
20
618.672399
11
339.305804
21
614.447311
0
ARC
8
0
6
CONTINUOUS
10
342.347787
20
616.572996
40
3.711091
50
214.945175
51
288.211936
0
LINE
8
0
6
CONTINUOUS
10
343.507625
20
613.047805
11
356.750232
21
620.297185
0
ARC
8
0
6
CONTINUOUS
10
355.498790
20
622.101248
40
2.195620
50
304.748252
51
394.850491
0
ARC
8
0
6
CONTINUOUS
10
375.249463
20
602.376150
40
2.353505
50
319.188602
51
406.170456
0
LINE
8
0
6
CONTINUOUS
10
376.879301
20
604.073977
11
370.335254
21
610.298121
0
ARC
8
0
6
CONTINUOUS
10
368.631909
20
607.951083
40
2.899995
50
54.030017
51
115.840972
0
LINE
8
0
6
CONTINUOUS
10
367.367873
20
610.561100
11
352.552606
21
601.974883
0
ARC
8
0
6
CONTINUOUS
10
354.394283
20
600.357847
40
2.450832
50
138.716086
51
224.187772
0
LINE
8
0
6
CONTINUOUS
10
352.636891
20
598.649587
11
357.804268
21
593.116004
0
ARC
8
0
6
CONTINUOUS
10
360.590791
20
594.999159
40
3.363180
50
214.051164
51
302.481138
0
LINE
8
0
6
CONTINUOUS
10
362.396893
20
592.162087
11
377.030749
21
600.837968
0
LINE
8
0
6
CONTINUOUS
10
390.563300
20
568.203301
11
403.211926
21
576.717769
0
ARC
8
0
6
CONTINUOUS
10
401.061172
20
578.928702
40
3.084472
50
314.209529
51
398.638318
0
LINE
8
0
6
CONTINUOUS
10
403.470463
20
580.854652
11
395.211790
21
587.829865
0
ARC
8
0
6
CONTINUOUS
10
392.313052
20
583.021430
40
5.614600
50
58.916558
51
118.332053
0
LINE
8
0
6
CONTINUOUS
10
389.648471
20
587.963468
11
377.973553
21
580.123101
0
ARC
8
0
6
CONTINUOUS
10
380.055017
20
577.018273
40
3.737973
50
123.837728
51
230.428615
0
LINE
8
0
6
CONTINUOUS
10
377.673781
20
574.136925
11
384.769856
21
568.792264
0
ARC
8
0
6
CONTINUOUS
10
388.038073
20
572.152059
40
4.687159
50
225.791586
51
302.598869
0
LINE
8
0
6
CONTINUOUS
10
401.250924
20
554.063096
11
391.483362
21
562.312705
0
ARC
8
0
6
CONTINUOUS
10
388.055014
20
556.625754
40
6.640406
50
58.916552
51
118.332069
0
LINE
8
0
6
CONTINUOUS
10
384.903604
20
562.470717
11
369.596320
21
552.515106
0
ARC
8
0
6
CONTINUOUS
10
372.129197
20
549.628908
40
3.840001
50
131.269628
51
214.418487
0
LINE
8
0
6
CONTINUOUS
10
368.961461
20
547.458412
11
379.133649
21
539.796866
0
ARC
8
0
6
CONTINUOUS
10
382.998981
20
543.770504
40
5.543518
50
225.791577
51
302.598886
0
LINE
8
0
6
CONTINUOUS
10
385.985576
20
539.100296
11
400.945152
21
549.170389
0
ARC
8
0
6
CONTINUOUS
10
398.401446
20
551.785267
40
3.648017
50
314.209544
51
398.638289
0
ARC
8
0
6
CONTINUOUS
10
410.790820
20
551.058406
40
2.824772
50
131.863257
51
225.537042
0
LINE
8
0
6
CONTINUOUS
10
408.812215
20
549.042356
11
422.395259
21
539.222298
0
ARC
8
0
6
CONTINUOUS
10
425.410236
20
545.912834
40
7.338484
50
245.742096
51
262.444374
0
ARC
8
0
6
CONTINUOUS
10
423.956994
20
545.039828
40
6.420360
50
274.361973
51
295.027249
0
LINE
8
0
6
CONTINUOUS
10
426.673122
20
539.222297
11
440.256169
21
549.042356
0
ARC
8
0
6
CONTINUOUS
10
438.277563
20
551.058406
40
2.824772
50
314.462944
51
408.136756
0
LINE
8
0
6
CONTINUOUS
10
440.162689
20
553.162126
11
427.210497
21
563.537008
0
LINE
8
0
6
CONTINUOUS
10
427.210497
20
563.537008
11
427.247693
21
563.497290
0
ARC
8
0
6
CONTINUOUS
10
424.078659
20
560.005355
40
4.715547
50
47.775333
51
81.641458
0
ARC
8
0
6
CONTINUOUS
10
424.786147
20
560.352622
40
4.318245
50
90.291934
51
130.525892
0
LINE
8
0
6
CONTINUOUS
10
421.980188
20
563.634974
11
408.905694
21
553.162126
0
ARC
8
0
6
CONTINUOUS
10
424.814943
20
530.206163
40
4.344505
50
44.433398
51
93.705151
0
ARC
8
0
6
CONTINUOUS
10
424.253443
20
530.206157
40
4.344511
50
86.294886
51
135.566566
0
LINE
8
0
6
CONTINUOUS
10
421.151183
20
533.247663
11
406.499264
21
523.059992
0
ARC
8
0
6
CONTINUOUS
10
408.404324
20
520.224729
40
3.415842
50
123.897813
51
227.760665
0
LINE
8
0
6
CONTINUOUS
10
406.108096
20
517.695833
11
421.867372
21
506.287347
0
ARC
8
0
6
CONTINUOUS
10
424.459974
20
511.377725
40
5.712576
50
243.009621
51
270.744406
0
ARC
8
0
6
CONTINUOUS
10
424.608415
20
511.377701
40
5.712552
50
269.255534
51
296.990439
0
LINE
8
0
6
CONTINUOUS
10
427.201010
20
506.287347
11
442.960287
21
517.695833
0
ARC
8
0
6
CONTINUOUS
10
440.664060
20
520.224729
40
3.415842
50
312.239324
51
416.102198
0
LINE
8
0
6
CONTINUOUS
10
442.569120
20
523.059992
11
427.917200
21
533.247663
0
LINE
8
0
6
CONTINUOUS
10
457.585021
20
562.312705
11
447.817458
21
554.063096
0
ARC
8
0
6
CONTINUOUS
10
450.666936
20
551.785267
40
3.648016
50
141.361698
51
225.790469
0
LINE
8
0
6
CONTINUOUS
10
448.123231
20
549.170389
11
463.082807
21
539.100296
0
ARC
8
0
6
CONTINUOUS
10
466.069403
20
543.770505
40
5.543519
50
237.401120
51
314.208417
0
LINE
8
0
6
CONTINUOUS
10
469.934734
20
539.796866
11
480.106923
21
547.458412
0
ARC
8
0
6
CONTINUOUS
10
476.939185
20
549.628908
40
3.840001
50
325.581514
51
408.730371
0
LINE
8
0
6
CONTINUOUS
10
479.472063
20
552.515106
11
464.164779
21
562.470717
0
ARC
8
0
6
CONTINUOUS
10
461.013369
20
556.625752
40
6.640407
50
61.667936
51
121.083443
0
ARC
8
0
6
CONTINUOUS
10
456.755332
20
583.021433
40
5.614598
50
61.667933
51
121.083456
0
LINE
8
0
6
CONTINUOUS
10
453.856593
20
587.829865
11
445.597920
21
580.854652
0
ARC
8
0
6
CONTINUOUS
10
448.007213
20
578.928702
40
3.084473
50
141.361709
51
225.790443
0
LINE
8
0
6
CONTINUOUS
10
445.856457
20
576.717769
11
458.505084
21
568.203301
0
ARC
8
0
6
CONTINUOUS
10
461.030310
20
572.152055
40
4.687157
50
237.401105
51
314.208440
0
LINE
8
0
6
CONTINUOUS
10
464.298527
20
568.792264
11
471.394602
21
574.136925
0
ARC
8
0
6
CONTINUOUS
10
469.013367
20
577.018273
40
3.737973
50
309.571381
51
416.162276
0
LINE
8
0
6
CONTINUOUS
10
471.094830
20
580.123101
11
459.419913
21
587.963468
0
ARC
8
0
6
CONTINUOUS
10
473.818920
20
602.376150
40
2.353505
50
133.829560
51
220.811382
0
LINE
8
0
6
CONTINUOUS
10
472.037635
20
600.837968
11
486.671501
21
592.162080
0
ARC
8
0
6
CONTINUOUS
10
488.477593
20
594.999158
40
3.363179
50
237.519061
51
325.948851
0
LINE
8
0
6
CONTINUOUS
10
491.264115
20
593.116004
11
496.431493
21
598.649587
0
ARC
8
0
6
CONTINUOUS
10
494.674099
20
600.357847
40
2.450833
50
315.812255
51
401.283887
0
LINE
8
0
6
CONTINUOUS
10
496.515777
20
601.974883
11
481.700510
21
610.561100
0
ARC
8
0
6
CONTINUOUS
10
480.436476
20
607.951077
40
2.900001
50
64.159093
51
125.969917
0
LINE
8
0
6
CONTINUOUS
10
478.733130
20
610.298121
11
472.189081
21
604.073977
0
LINE
8
0
6
CONTINUOUS
10
459.654976
20
623.388151
11
450.467311
21
629.558188
0
ARC
8
0
6
CONTINUOUS
10
448.370398
20
625.669012
40
4.418454
50
61.667949
51
121.083423
0
LINE
8
0
6
CONTINUOUS
10
446.089214
20
629.453049
11
439.589989
21
623.963852
0
ARC
8
0
6
CONTINUOUS
10
441.486001
20
622.448210
40
2.427350
50
141.361712
51
225.790433
0
LINE
8
0
6
CONTINUOUS
10
439.793447
20
620.708300
11
449.747379
21
614.007775
0
ARC
8
0
6
CONTINUOUS
10
451.734626
20
617.115278
40
3.688594
50
237.401119
51
314.208414
0
LINE
8
0
6
CONTINUOUS
10
454.306573
20
614.471264
11
459.890884
21
618.677286
0
ARC
8
0
6
CONTINUOUS
10
458.016952
20
620.944784
40
2.941626
50
309.571398
51
416.162272
0
LINE
8
0
6
CONTINUOUS
10
478.040607
20
640.108553
11
467.028507
21
646.490638
0
ARC
8
0
6
CONTINUOUS
10
466.088957
20
644.550624
40
2.155553
50
64.159083
51
125.969942
0
LINE
8
0
6
CONTINUOUS
10
464.822870
20
646.295166
11
459.958718
21
641.668796
0
ARC
8
0
6
CONTINUOUS
10
461.170167
20
640.406812
40
1.749347
50
133.829550
51
220.811394
0
LINE
8
0
6
CONTINUOUS
10
459.846148
20
639.263490
11
470.723433
21
632.814743
0
ARC
8
0
6
CONTINUOUS
10
472.065872
20
634.923539
40
2.499833
50
237.519566
51
325.948817
0
LINE
8
0
6
CONTINUOUS
10
474.137078
20
633.523800
11
477.977959
21
637.636880
0
ARC
8
0
6
CONTINUOUS
10
476.671700
20
638.906618
40
1.821689
50
315.812241
51
401.283908
0
LINE
8
0
6
CONTINUOUS
10
490.030388
20
655.276368
11
480.245261
21
660.142635
0
ARC
8
0
6
CONTINUOUS
10
479.416947
20
658.524000
40
1.818263
50
62.899516
51
142.159856
0
LINE
8
0
6
CONTINUOUS
10
477.981019
20
659.639433
11
474.866920
21
656.158132
0
ARC
8
0
6
CONTINUOUS
10
476.137970
20
655.271552
40
1.549707
50
145.103568
51
235.744380
0
LINE
8
0
6
CONTINUOUS
10
475.265662
20
653.990666
11
484.616970
21
648.871493
0
ARC
8
0
6
CONTINUOUS
10
485.436842
20
651.363396
40
2.623312
50
251.788051
51
325.054814
0
LINE
8
0
6
CONTINUOUS
10
487.587172
20
649.860782
11
490.220987
21
652.847432
0
ARC
8
0
6
CONTINUOUS
10
488.809376
20
653.958609
40
1.796486
50
321.791256
51
407.182375
0
LINE
8
0
6
CONTINUOUS
10
499.200622
20
667.679280
11
490.531328
21
672.145416
0
ARC
8
0
6
CONTINUOUS
10
489.451926
20
670.385919
40
2.064204
50
58.472056
51
137.864646
0
LINE
8
0
6
CONTINUOUS
10
487.921191
20
671.770761
11
485.888827
21
669.003092
0
ARC
8
0
6
CONTINUOUS
10
486.830845
20
668.319313
40
1.164024
50
144.025418
51
237.280260
0
LINE
8
0
6
CONTINUOUS
10
486.201655
20
667.339991
11
495.706915
21
662.741012
0
ARC
8
0
6
CONTINUOUS
10
496.210534
20
664.739725
40
2.061186
50
255.857488
51
328.172569
0
LINE
8
0
6
CONTINUOUS
10
497.961801
20
663.652732
11
499.638773
21
666.262178
0
ARC
8
0
6
CONTINUOUS
10
498.027040
20
666.540134
40
1.635526
50
350.215140
51
404.146887
0
LINE
8
0
6
CONTINUOUS
10
519.393373
20
673.392505
11
500.417888
21
690.629760
0
ARC
8
0
6
CONTINUOUS
10
499.743090
20
689.149512
40
1.626803
50
65.493306
51
210.170768
0
LINE
8
0
6
CONTINUOUS
10
498.336668
20
688.331914
11
517.623186
21
670.695455
0
ARC
8
0
6
CONTINUOUS
10
518.050663
20
672.344332
40
1.703389
50
255.465847
51
397.977000
0
LINE
8
0
6
CONTINUOUS
10
536.514145
20
656.668878
11
536.603599
21
721.194232
0
ARC
8
0
6
CONTINUOUS
10
532.911336
20
721.301256
40
3.693815
50
358.339691
51
415.464640
0
LINE
8
0
6
CONTINUOUS
10
535.005414
20
724.344134
11
532.001220
21
725.625546
0
ARC
8
0
6
CONTINUOUS
10
532.008856
20
723.817639
40
1.807923
50
90.241964
51
185.846274
0
LINE
8
0
6
CONTINUOUS
10
530.210336
20
723.633485
11
530.411190
21
660.792230
0
ARC
8
0
6
CONTINUOUS
10
535.768154
20
661.357315
40
5.386685
50
186.021632
51
206.538608
0
LINE
8
0
6
CONTINUOUS
10
530.949046
20
658.950540
11
533.947404
21
655.016939
0
ARC
8
0
6
CONTINUOUS
10
534.897601
20
656.360582
40
1.645678
50
234.732864
51
370.797383
0
ARC
8
0
6
CONTINUOUS
10
529.756724
20
642.355613
40
0.468400
50
228.140517
51
371.599807
0
LINE
8
0
6
CONTINUOUS
10
530.215557
20
642.449796
11
530.333184
21
648.541488
0
ARC
8
0
6
CONTINUOUS
10
527.215989
20
648.700741
40
3.121260
50
357.075416
51
393.345973
0
LINE
8
0
6
CONTINUOUS
10
529.823385
20
650.416476
11
526.396669
21
653.686082
0
ARC
8
0
6
CONTINUOUS
10
526.028143
20
653.369290
40
0.485972
50
40.682936
51
178.497618
0
LINE
8
0
6
CONTINUOUS
10
525.542338
20
653.382032
11
524.895924
21
647.271917
0
ARC
8
0
6
CONTINUOUS
10
526.143114
20
647.244387
40
1.247494
50
178.735495
51
215.170700
0
LINE
8
0
6
CONTINUOUS
10
525.123363
20
646.525811
11
529.444158
21
642.006756
0
LINE
8
0
6
CONTINUOUS
10
523.541959
20
638.845065
11
511.585153
21
645.004820
0
ARC
8
0
6
CONTINUOUS
10
510.096427
20
642.578098
40
2.846978
50
58.472053
51
137.864630
0
LINE
8
0
6
CONTINUOUS
10
507.985217
20
644.488092
11
505.182151
21
640.670885
0
ARC
8
0
6
CONTINUOUS
10
506.481395
20
639.727809
40
1.605436
50
144.025390
51
237.280640
0
LINE
8
0
6
CONTINUOUS
10
505.613618
20
638.377111
11
518.723392
21
632.034141
0
ARC
8
0
6
CONTINUOUS
10
519.417990
20
634.790794
40
2.842816
50
255.857482
51
328.172549
0
LINE
8
0
6
CONTINUOUS
10
521.833361
20
633.291598
11
524.146263
21
636.890581
0
ARC
8
0
6
CONTINUOUS
10
521.923336
20
637.273942
40
2.255742
50
350.215149
51
404.146835
0
ARC
8
0
6
CONTINUOUS
10
556.750808
20
639.932143
40
7.002135
50
206.779540
51
247.115536
0
ARC
8
0
6
CONTINUOUS
10
551.675984
20
637.639947
40
1.458737
50
172.713561
51
216.255439
0
ARC
8
0
6
CONTINUOUS
10
324.293800
20
648.971093
40
226.209997
50
357.175699
51
358.322726
0
ARC
8
0
6
CONTINUOUS
10
549.197628
20
642.302803
40
1.210171
50
2.233986
51
173.353932
0
ARC
8
0
6
CONTINUOUS
10
643.343351
20
639.595692
40
95.390262
50
178.289604
51
180.668760
0
ARC
8
0
6
CONTINUOUS
10
547.117459
20
638.498403
40
0.842281
50
279.297105
51
358.905513
0
ARC
8
0
6
CONTINUOUS
10
541.515382
20
489.550620
40
148.227674
50
87.781426
51
90.784249
0
ARC
8
0
6
CONTINUOUS
10
539.849216
20
636.588439
40
1.230625
50
107.139800
51
254.345711
0
LINE
8
0
6
CONTINUOUS
10
539.517155
20
635.403461
11
548.425857
21
635.180799
0
ARC
8
0
6
CONTINUOUS
10
548.567395
20
634.443758
40
0.750507
50
23.588037
51
100.870498
0
ARC
8
0
6
CONTINUOUS
10
554.407347
20
637.362100
40
5.779162
50
206.936994
51
266.069831
0
ARC
8
0
6
CONTINUOUS
10
553.400070
20
632.544296
40
1.127738
50
302.816020
51
416.173494
0
LINE
8
0
6
CONTINUOUS
10
575.007526
20
635.420068
11
574.739734
21
660.472592
0
ARC
8
0
6
CONTINUOUS
10
572.910374
20
660.926308
40
1.884785
50
346.070629
51
546.859546
0
LINE
8
0
6
CONTINUOUS
10
571.039081
20
660.701197
11
570.378371
21
635.682253
0
ARC
8
0
6
CONTINUOUS
10
572.683601
20
635.386118
40
2.324173
50
172.679734
51
360.836984
0
ARC
8
0
6
CONTINUOUS
10
568.754380
20
616.007484
40
9.411241
50
42.559766
51
89.374626
0
ARC
8
0
6
CONTINUOUS
10
569.453286
20
623.992108
40
1.545663
50
112.688125
51
238.704957
0
ARC
8
0
6
CONTINUOUS
10
564.583782
20
609.152963
40
14.116788
50
48.431026
51
73.257580
0
ARC
8
0
6
CONTINUOUS
10
574.529062
20
621.232707
40
1.624645
50
249.140793
51
404.570494
0
LINE
8
0
6
CONTINUOUS
10
582.112647
20
612.272956
11
602.555291
21
593.047941
0
ARC
8
0
6
CONTINUOUS
10
603.578252
20
595.014419
40
2.216638
50
242.516576
51
403.079290
0
LINE
8
0
6
CONTINUOUS
10
605.197305
20
596.528404
11
583.823178
21
614.892503
0
ARC
8
0
6
CONTINUOUS
10
583.032766
20
613.540381
40
1.566200
50
59.690681
51
234.021276
0
ARC
8
0
6
CONTINUOUS
10
550.376717
20
594.687766
40
4.070758
50
255.857492
51
328.172537
0
LINE
8
0
6
CONTINUOUS
10
553.835395
20
592.540998
11
557.147347
21
597.694546
0
ARC
8
0
6
CONTINUOUS
10
553.964235
20
598.243498
40
3.230100
50
350.215161
51
404.146854
0
LINE
8
0
6
CONTINUOUS
10
556.282015
20
600.493262
11
539.160520
21
609.313695
0
ARC
8
0
6
CONTINUOUS
10
537.028746
20
605.838761
40
4.076718
50
58.472055
51
137.864623
0
LINE
8
0
6
CONTINUOUS
10
534.005607
20
608.573768
11
529.991772
21
603.107736
0
ARC
8
0
6
CONTINUOUS
10
531.844197
20
601.758278
40
2.291837
50
143.927334
51
238.264798
0
LINE
8
0
6
CONTINUOUS
10
530.638704
20
599.809098
11
549.382090
21
590.740388
0
LINE
8
0
6
CONTINUOUS
10
537.268017
20
568.556272
11
541.696056
21
573.577503
0
ARC
8
0
6
CONTINUOUS
10
539.322821
20
575.445643
40
3.020297
50
321.791239
51
407.182403
0
LINE
8
0
6
CONTINUOUS
10
541.375616
20
577.661095
11
522.827910
21
586.885102
0
ARC
8
0
6
CONTINUOUS
10
521.273664
20
584.412582
40
2.920451
50
57.846185
51
125.870409
0
LINE
8
0
6
CONTINUOUS
10
519.562414
20
586.779154
11
513.767725
21
580.301180
0
ARC
8
0
6
CONTINUOUS
10
515.909045
20
578.810098
40
2.609324
50
145.149041
51
235.254389
0
LINE
8
0
6
CONTINUOUS
10
514.421902
20
576.666041
11
532.274438
21
566.893054
0
ARC
8
0
6
CONTINUOUS
10
533.652827
20
571.082505
40
4.410380
50
251.788059
51
325.054812
0
LINE
8
0
6
CONTINUOUS
10
526.948401
20
549.367068
11
547.472434
21
538.188255
0
ARC
8
0
6
CONTINUOUS
10
549.149706
20
543.286126
40
5.366704
50
251.788057
51
325.054816
0
LINE
8
0
6
CONTINUOUS
10
553.548796
20
540.212118
11
558.936987
21
546.322125
0
ARC
8
0
6
CONTINUOUS
10
556.049152
20
548.595343
40
3.675202
50
321.791243
51
407.182407
0
LINE
8
0
6
CONTINUOUS
10
558.547064
20
551.291182
11
537.177228
21
561.801921
0
ARC
8
0
6
CONTINUOUS
10
535.285966
20
558.793271
40
3.553709
50
57.846203
51
125.870369
0
LINE
8
0
6
CONTINUOUS
10
533.203659
20
561.673000
11
526.152480
21
553.790374
0
ARC
8
0
6
CONTINUOUS
10
528.758142
20
551.975971
40
3.175143
50
145.149311
51
235.251762
0
LINE
8
0
6
CONTINUOUS
10
512.297923
20
540.274715
11
519.115924
21
547.575898
0
ARC
8
0
6
CONTINUOUS
10
516.797163
20
549.829830
40
3.233705
50
315.812255
51
401.283892
0
LINE
8
0
6
CONTINUOUS
10
519.227130
20
551.963397
11
499.679403
21
563.292322
0
ARC
8
0
6
CONTINUOUS
10
498.011597
20
559.848580
40
3.826347
50
64.159068
51
125.969983
0
LINE
8
0
6
CONTINUOUS
10
495.764149
20
562.945339
11
487.129727
21
554.733008
0
ARC
8
0
6
CONTINUOUS
10
489.280187
20
552.492843
40
3.105289
50
133.829549
51
220.811405
0
LINE
8
0
6
CONTINUOUS
10
486.929902
20
550.463316
11
506.238280
21
539.016082
0
ARC
8
0
6
CONTINUOUS
10
508.621297
20
542.759408
40
4.437484
50
237.518994
51
325.948863
0
LINE
8
0
6
CONTINUOUS
10
496.917532
20
518.683501
11
518.494046
21
505.893478
0
ARC
8
0
6
CONTINUOUS
10
521.199077
20
510.058333
40
4.966207
50
236.996690
51
325.960700
0
LINE
8
0
6
CONTINUOUS
10
525.314343
20
507.278442
11
532.946373
21
515.451343
0
ARC
8
0
6
CONTINUOUS
10
530.350768
20
517.974379
40
3.619790
50
315.812251
51
401.283909
0
LINE
8
0
6
CONTINUOUS
10
533.070857
20
520.362684
11
511.189248
21
533.044214
0
ARC
8
0
6
CONTINUOUS
10
509.322316
20
529.189310
40
4.283191
50
64.159068
51
125.969976
0
LINE
8
0
6
CONTINUOUS
10
506.806535
20
532.655803
11
497.141215
21
523.462969
0
ARC
8
0
6
CONTINUOUS
10
499.548427
20
520.955342
40
3.476042
50
133.829554
51
220.811399
0
ARC
8
0
6
CONTINUOUS
10
484.196632
20
518.922296
40
4.258495
50
323.404618
51
406.205435
0
LINE
8
0
6
CONTINUOUS
10
487.143830
20
521.996187
11
470.427971
21
533.065633
0
ARC
8
0
6
CONTINUOUS
10
467.221805
20
527.396775
40
6.512716
50
60.508575
51
119.649243
0
LINE
8
0
6
CONTINUOUS
10
464.000035
20
533.056782
11
451.994952
21
523.695863
0
ARC
8
0
6
CONTINUOUS
10
454.351397
20
520.779380
40
3.749494
50
128.937355
51
227.803205
0
LINE
8
0
6
CONTINUOUS
10
451.832940
20
518.001597
11
468.135277
21
506.177608
0
ARC
8
0
6
CONTINUOUS
10
471.735002
20
511.090876
40
6.090831
50
233.771479
51
310.780926
0
LINE
8
0
6
CONTINUOUS
10
475.713343
20
506.478821
11
487.615631
21
516.383550
0
LINE
8
0
6
CONTINUOUS
10
497.657356
20
485.747801
11
477.319283
21
499.692227
0
ARC
8
0
6
CONTINUOUS
10
473.751345
20
493.121078
40
7.477311
50
61.499363
51
115.505592
0
LINE
8
0
6
CONTINUOUS
10
470.531621
20
499.869675
11
456.448677
21
488.283298
0
ARC
8
0
6
CONTINUOUS
10
459.157627
20
484.930533
40
4.310386
50
128.937350
51
227.803204
0
LINE
8
0
6
CONTINUOUS
10
456.262430
20
481.737218
11
475.805288
21
467.562898
0
ARC
8
0
6
CONTINUOUS
10
479.943501
20
473.211151
40
7.001969
50
233.771490
51
310.780909
0
LINE
8
0
6
CONTINUOUS
10
484.516967
20
467.909171
11
498.199735
21
479.295562
0
ARC
8
0
6
CONTINUOUS
10
494.269282
20
482.214082
40
4.895530
50
323.404620
51
406.205421
0
LINE
8
0
6
CONTINUOUS
10
507.866174
20
481.883525
11
533.276879
21
466.820687
0
ARC
8
0
6
CONTINUOUS
10
536.462599
20
471.725646
40
5.848712
50
236.996688
51
325.960720
0
LINE
8
0
6
CONTINUOUS
10
541.309159
20
468.451763
11
550.297415
21
478.077006
0
ARC
8
0
6
CONTINUOUS
10
547.240564
20
481.048392
40
4.263035
50
315.812254
51
401.283894
0
LINE
8
0
6
CONTINUOUS
10
550.444021
20
483.861102
11
524.891590
21
499.339140
0
ARC
8
0
6
CONTINUOUS
10
522.258748
20
495.100496
40
4.989785
50
58.153441
51
128.502787
0
LINE
8
0
6
CONTINUOUS
10
519.152344
20
499.005392
11
508.129604
21
487.512314
0
ARC
8
0
6
CONTINUOUS
10
510.964584
20
484.559077
40
4.093742
50
133.829561
51
220.811391
0
LINE
8
0
6
CONTINUOUS
10
459.949635
20
440.159115
11
484.258038
21
424.327739
0
ARC
8
0
6
CONTINUOUS
10
488.747544
20
429.032179
40
6.502878
50
226.339215
51
323.374065
0
LINE
8
0
6
CONTINUOUS
10
493.966412
20
425.152639
11
509.107191
21
437.421090
0
ARC
8
0
6
CONTINUOUS
10
505.416687
20
441.008412
40
5.146717
50
315.812249
51
401.283905
0
LINE
8
0
6
CONTINUOUS
10
509.284186
20
444.404168
11
483.839248
21
462.152286
0
ARC
8
0
6
CONTINUOUS
10
480.660647
20
457.035018
40
6.024113
50
58.153438
51
128.502800
0
LINE
8
0
6
CONTINUOUS
10
476.910318
20
461.749356
11
460.267672
21
446.954693
0
ARC
8
0
6
CONTINUOUS
10
463.690313
20
443.389280
40
4.942331
50
133.829555
51
220.811397
0
LINE
8
0
6
CONTINUOUS
10
419.677584
20
461.532925
11
400.332457
21
447.026349
0
ARC
8
0
6
CONTINUOUS
10
404.376500
20
442.688017
40
5.930885
50
132.989288
51
232.996335
0
LINE
8
0
6
CONTINUOUS
10
400.806901
20
437.951630
11
420.295840
21
423.213643
0
ARC
8
0
6
CONTINUOUS
10
424.363809
20
428.935436
40
7.020490
50
234.588669
51
271.390665
0
ARC
8
0
6
CONTINUOUS
10
424.704574
20
428.935434
40
7.020488
50
268.609331
51
305.411335
0
LINE
8
0
6
CONTINUOUS
10
428.772543
20
423.213643
11
448.261482
21
437.951630
0
ARC
8
0
6
CONTINUOUS
10
444.691882
20
442.688018
40
5.930886
50
307.003670
51
407.010708
0
LINE
8
0
6
CONTINUOUS
10
448.735926
20
447.026349
11
429.390800
21
461.532925
0
ARC
8
0
6
CONTINUOUS
10
424.877209
20
457.074491
40
6.344298
50
44.647770
51
93.099327
0
ARC
8
0
6
CONTINUOUS
10
424.191172
20
457.074495
40
6.344294
50
86.900655
51
135.352248
0
ARC
8
0
6
CONTINUOUS
10
424.025623
20
474.905324
40
7.812500
50
273.732406
51
303.608077
0
LINE
8
0
6
CONTINUOUS
10
428.349912
20
468.398736
11
445.112743
21
481.075177
0
ARC
8
0
6
CONTINUOUS
10
442.145012
20
484.343617
40
4.414762
50
312.239326
51
416.102188
0
LINE
8
0
6
CONTINUOUS
10
444.607184
20
488.008017
11
428.906519
21
499.781675
0
ARC
8
0
6
CONTINUOUS
10
424.899678
20
495.855101
40
5.610057
50
44.420332
51
93.735382
0
ARC
8
0
6
CONTINUOUS
10
424.168705
20
495.855098
40
5.610060
50
86.264629
51
135.579656
0
LINE
8
0
6
CONTINUOUS
10
420.161865
20
499.781675
11
404.461200
21
488.008017
0
ARC
8
0
6
CONTINUOUS
10
406.923371
20
484.343617
40
4.414762
50
123.897807
51
227.760680
0
LINE
8
0
6
CONTINUOUS
10
403.955641
20
481.075177
11
420.718471
21
468.398736
0
ARC
8
0
6
CONTINUOUS
10
425.042759
20
474.905320
40
7.812496
50
236.391915
51
266.267602
0
LINE
8
0
6
CONTINUOUS
10
397.265634
20
389.000143
11
420.295840
21
372.191348
0
ARC
8
0
6
CONTINUOUS
10
424.400754
20
377.967668
40
7.086338
50
234.600677
51
271.902197
0
ARC
8
0
6
CONTINUOUS
10
424.683144
20
377.939323
40
7.054247
50
269.616882
51
305.429967
0
LINE
8
0
6
CONTINUOUS
10
428.772543
20
372.191348
11
451.802750
21
389.000143
0
ARC
8
0
6
CONTINUOUS
10
448.233149
20
393.736530
40
5.930886
50
307.003670
51
407.010708
0
LINE
8
0
6
CONTINUOUS
10
452.277193
20
398.074861
11
429.366560
21
416.529395
0
ARC
8
0
6
CONTINUOUS
10
424.621060
20
411.713798
40
6.760898
50
45.420057
51
90.941635
0
ARC
8
0
6
CONTINUOUS
10
424.446157
20
411.714510
40
6.759573
50
89.459251
51
134.577144
0
LINE
8
0
6
CONTINUOUS
10
419.701823
20
416.529395
11
396.791190
21
398.074861
0
ARC
8
0
6
CONTINUOUS
10
400.835233
20
393.736530
40
5.930885
50
132.989288
51
232.996335
0
LINE
8
0
6
CONTINUOUS
10
383.438609
20
399.078710
11
364.536764
21
415.881714
0
ARC
8
0
6
CONTINUOUS
10
360.277336
20
410.527416
40
6.841873
50
51.497206
51
121.846570
0
LINE
8
0
6
CONTINUOUS
10
356.667247
20
416.339342
11
327.113404
21
397.701539
0
ARC
8
0
6
CONTINUOUS
10
330.982515
20
393.858492
40
5.453351
50
135.193639
51
236.457518
0
LINE
8
0
6
CONTINUOUS
10
327.969238
20
389.313252
11
345.165343
21
374.317078
0
ARC
8
0
6
CONTINUOUS
10
351.092661
20
378.723255
40
7.385627
50
216.625925
51
313.660789
0
LINE
8
0
6
CONTINUOUS
10
356.191606
20
373.380198
11
383.799819
21
391.360647
0
ARC
8
0
6
CONTINUOUS
10
379.551354
20
395.029300
40
5.613241
50
319.188603
51
406.170448
0
LINE
8
0
6
CONTINUOUS
10
456.905178
20
344.450599
11
429.366560
21
365.127219
0
ARC
8
0
6
CONTINUOUS
10
424.517751
20
360.148935
40
6.949407
50
45.754846
51
89.536664
0
ARC
8
0
6
CONTINUOUS
10
424.534440
20
360.188300
40
6.909928
50
89.672403
51
134.376716
0
LINE
8
0
6
CONTINUOUS
10
419.701823
20
365.127219
11
392.163206
21
344.450599
0
ARC
8
0
6
CONTINUOUS
10
396.881861
20
339.388562
40
6.920254
50
132.989285
51
232.996328
0
LINE
8
0
6
CONTINUOUS
10
392.716794
20
333.862068
11
419.588814
21
314.249294
0
ARC
8
0
6
CONTINUOUS
10
424.018336
20
320.271765
40
7.476016
50
233.665548
51
273.941012
0
ARC
8
0
6
CONTINUOUS
10
425.049061
20
320.273704
40
7.478163
50
266.036461
51
306.331729
0
LINE
8
0
6
CONTINUOUS
10
429.479569
20
314.249294
11
456.351588
21
333.862068
0
ARC
8
0
6
CONTINUOUS
10
452.186522
20
339.388562
40
6.920254
50
307.003672
51
407.010714
0
LINE
8
0
6
CONTINUOUS
10
503.903039
20
374.317078
11
521.099145
21
389.313252
0
ARC
8
0
6
CONTINUOUS
10
518.085868
20
393.858492
40
5.453351
50
303.542482
51
404.806359
0
LINE
8
0
6
CONTINUOUS
10
521.954979
20
397.701539
11
492.401136
21
416.339342
0
ARC
8
0
6
CONTINUOUS
10
488.791046
20
410.527413
40
6.841876
50
58.153447
51
128.502777
0
LINE
8
0
6
CONTINUOUS
10
484.531620
20
415.881714
11
465.629774
21
399.078710
0
ARC
8
0
6
CONTINUOUS
10
469.517029
20
395.029300
40
5.613241
50
133.829550
51
220.811399
0
LINE
8
0
6
CONTINUOUS
10
465.268564
20
391.360647
11
492.876777
21
373.380198
0
ARC
8
0
6
CONTINUOUS
10
497.975722
20
378.723255
40
7.385627
50
226.339212
51
323.374075
0
ARC
8
0
6
CONTINUOUS
10
499.912035
20
357.407574
40
7.788810
50
58.153440
51
128.502792
0
LINE
8
0
6
CONTINUOUS
10
495.063090
20
363.502924
11
472.523115
21
345.446840
0
ARC
8
0
6
CONTINUOUS
10
478.604234
20
340.533578
40
7.817938
50
141.063402
51
226.203419
0
LINE
8
0
6
CONTINUOUS
10
473.193438
20
334.890578
11
504.622710
21
314.421582
0
ARC
8
0
6
CONTINUOUS
10
510.427364
20
320.504135
40
8.407821
50
226.339211
51
323.374069
0
LINE
8
0
6
CONTINUOUS
10
517.175040
20
315.488128
11
536.751137
21
332.559818
0
ARC
8
0
6
CONTINUOUS
10
533.320816
20
337.734130
40
6.208110
50
303.542476
51
404.806372
0
LINE
8
0
6
CONTINUOUS
10
537.725422
20
342.109067
11
504.021771
21
364.023889
0
LINE
8
0
6
CONTINUOUS
10
549.523848
20
413.915715
11
534.898787
21
398.065638
0
ARC
8
0
6
CONTINUOUS
10
538.838406
20
394.443919
40
5.351398
50
137.407446
51
244.119282
0
LINE
8
0
6
CONTINUOUS
10
536.502526
20
389.629241
11
567.978980
21
371.724373
0
ARC
8
0
6
CONTINUOUS
10
572.655936
20
377.510212
40
7.439747
50
231.049821
51
327.559660
0
LINE
8
0
6
CONTINUOUS
10
578.934713
20
373.519375
11
591.801514
21
386.640212
0
ARC
8
0
6
CONTINUOUS
10
588.526881
20
391.033353
40
5.479316
50
306.700728
51
407.581008
0
LINE
8
0
6
CONTINUOUS
10
592.222938
20
395.078359
11
557.353912
21
414.986215
0
ARC
8
0
6
CONTINUOUS
10
554.202964
20
408.862149
40
6.887137
50
62.773321
51
132.796721
0
LINE
8
0
6
CONTINUOUS
10
570.055338
20
442.501743
11
540.858291
21
460.031669
0
ARC
8
0
6
CONTINUOUS
10
537.679690
20
454.914401
40
6.024113
50
58.153438
51
128.502800
0
LINE
8
0
6
CONTINUOUS
10
533.929360
20
459.628739
11
520.621723
21
445.753268
0
ARC
8
0
6
CONTINUOUS
10
524.044363
20
442.187855
40
4.942331
50
133.829555
51
220.811397
0
LINE
8
0
6
CONTINUOUS
10
520.303685
20
438.957690
11
549.329629
21
421.929030
0
ARC
8
0
6
CONTINUOUS
10
553.175716
20
427.850735
40
7.061089
50
236.996688
51
325.960706
0
LINE
8
0
6
CONTINUOUS
10
559.026914
20
423.898211
11
569.878343
21
435.518665
0
ARC
8
0
6
CONTINUOUS
10
566.187839
20
439.105987
40
5.146717
50
315.812249
51
401.283905
0
LINE
8
0
6
CONTINUOUS
10
590.097047
20
458.903533
11
579.443639
21
445.319785
0
ARC
8
0
6
CONTINUOUS
10
583.597230
20
442.382770
40
5.087080
50
144.735767
51
235.926825
0
LINE
8
0
6
CONTINUOUS
10
580.747187
20
438.169027
11
613.649054
21
420.248385
0
ARC
8
0
6
CONTINUOUS
10
616.341495
20
428.431739
40
8.614901
50
251.788053
51
325.054822
0
LINE
8
0
6
CONTINUOUS
10
623.403135
20
423.497191
11
632.052531
21
433.305282
0
ARC
8
0
6
CONTINUOUS
10
627.416831
20
436.954365
40
5.899620
50
321.791245
51
407.182398
0
LINE
8
0
6
CONTINUOUS
10
631.426606
20
441.281860
11
597.122672
21
460.260959
0
ARC
8
0
6
CONTINUOUS
10
594.426579
20
455.355148
40
5.597847
50
61.208068
51
140.662743
0
LINE
8
0
6
CONTINUOUS
10
602.837308
20
483.061217
11
573.665128
21
499.201105
0
ARC
8
0
6
CONTINUOUS
10
571.372363
20
495.029188
40
4.760427
50
61.208071
51
140.662763
0
LINE
8
0
6
CONTINUOUS
10
567.690514
20
498.046746
11
558.630820
21
486.495082
0
ARC
8
0
6
CONTINUOUS
10
562.173236
20
483.996144
40
4.335135
50
144.799585
51
235.240611
0
LINE
8
0
6
CONTINUOUS
10
559.701639
20
480.434599
11
587.719219
21
465.174281
0
ARC
8
0
6
CONTINUOUS
10
590.008880
20
472.133433
40
7.326141
50
251.788055
51
325.054823
0
LINE
8
0
6
CONTINUOUS
10
596.014121
20
467.937075
11
603.369597
21
476.277908
0
ARC
8
0
6
CONTINUOUS
10
599.427382
20
479.381100
40
5.017056
50
321.791245
51
407.182400
0
LINE
8
0
6
CONTINUOUS
10
618.479286
20
496.915572
11
611.486030
21
485.413346
0
ARC
8
0
6
CONTINUOUS
10
614.537109
20
483.196572
40
3.771361
50
143.999585
51
237.542804
0
LINE
8
0
6
CONTINUOUS
10
612.513135
20
480.014326
11
643.956955
21
464.491000
0
ARC
8
0
6
CONTINUOUS
10
645.589979
20
470.971984
40
6.683558
50
255.857489
51
328.172542
0
LINE
8
0
6
CONTINUOUS
10
651.268597
20
467.447323
11
656.706310
21
475.908655
0
ARC
8
0
6
CONTINUOUS
10
653.086968
20
478.528701
40
4.468139
50
324.099173
51
409.854208
0
LINE
8
0
6
CONTINUOUS
10
655.967733
20
481.944174
11
623.535008
21
497.906126
0
ARC
8
0
6
CONTINUOUS
10
621.728776
20
493.727705
40
4.552108
50
66.622317
51
135.548460
0
LINE
8
0
6
CONTINUOUS
10
626.043606
20
517.581739
11
600.486045
21
530.748157
0
ARC
8
0
6
CONTINUOUS
10
597.303908
20
525.561062
40
6.085389
50
58.472059
51
137.864628
0
LINE
8
0
6
CONTINUOUS
10
592.791216
20
529.643655
11
586.799691
21
521.484413
0
ARC
8
0
6
CONTINUOUS
10
589.564846
20
519.470051
40
3.421072
50
143.927394
51
238.264184
0
LINE
8
0
6
CONTINUOUS
10
587.765351
20
516.560489
11
615.743964
21
503.023452
0
ARC
8
0
6
CONTINUOUS
10
617.228661
20
508.915772
40
6.076493
50
255.857495
51
328.172543
0
LINE
8
0
6
CONTINUOUS
10
622.391492
20
505.711254
11
627.335300
21
513.404048
0
ARC
8
0
6
CONTINUOUS
10
622.583820
20
514.223477
40
4.821622
50
350.215140
51
404.146897
0
LINE
8
0
6
CONTINUOUS
10
640.590130
20
521.634718
11
639.943332
21
536.300196
0
ARC
8
0
6
CONTINUOUS
10
630.884852
20
536.762975
40
9.070293
50
357.075426
51
393.345940
0
LINE
8
0
6
CONTINUOUS
10
638.461874
20
541.748849
11
630.728315
21
550.491018
0
ARC
8
0
6
CONTINUOUS
10
629.657390
20
549.570432
40
1.412218
50
40.682944
51
178.497621
0
LINE
8
0
6
CONTINUOUS
10
628.245658
20
549.607458
11
627.479401
21
535.343961
0
ARC
8
0
6
CONTINUOUS
10
631.103695
20
535.263960
40
3.625176
50
178.735502
51
215.170724
0
LINE
8
0
6
CONTINUOUS
10
628.140332
20
533.175805
11
638.158979
21
520.585390
0
ARC
8
0
6
CONTINUOUS
10
639.276595
20
521.337011
40
1.346849
50
213.921688
51
372.770124
0
ARC
8
0
6
CONTINUOUS
10
690.642889
20
519.099877
40
12.805066
50
206.779554
51
247.115532
0
ARC
8
0
6
CONTINUOUS
10
681.362370
20
514.908050
40
2.667648
50
172.713581
51
216.255441
0
ARC
8
0
6
CONTINUOUS
10
265.537967
20
535.629834
40
413.680784
50
357.175700
51
358.322721
0
ARC
8
0
6
CONTINUOUS
10
676.830106
20
523.435185
40
2.213084
50
2.233982
51
173.353923
0
ARC
8
0
6
CONTINUOUS
10
848.995886
20
518.484631
40
174.441713
50
178.289597
51
180.668780
0
ARC
8
0
6
CONTINUOUS
10
673.026025
20
516.477941
40
1.540312
50
279.297123
51
358.905508
0
ARC
8
0
6
CONTINUOUS
10
662.781275
20
244.090636
40
271.070416
50
87.781429
51
90.784240
0
ARC
8
0
6
CONTINUOUS
10
659.734323
20
512.985118
40
2.250490
50
107.139826
51
254.345724
0
LINE
8
0
6
CONTINUOUS
10
659.127069
20
510.818105
11
675.418741
21
510.410915
0
ARC
8
0
6
CONTINUOUS
10
675.677578
20
509.063064
40
1.372479
50
23.587936
51
100.870522
0
ARC
8
0
6
CONTINUOUS
10
686.357314
20
514.399941
40
10.568567
50
206.936996
51
266.069827
0
ARC
8
0
6
CONTINUOUS
10
684.515266
20
505.589447
40
2.062337
50
302.816062
51
416.173460
0
LINE
8
0
6
CONTINUOUS
10
710.427543
20
489.248985
11
706.804699
21
489.248985
0
ARC
8
0
6
CONTINUOUS
10
707.014685
20
491.091243
40
1.854186
50
174.740712
51
263.497344
0
LINE
8
0
6
CONTINUOUS
10
705.168304
20
491.261203
11
705.168304
21
503.214345
0
ARC
8
0
6
CONTINUOUS
10
703.321924
20
503.384306
40
1.854186
50
354.740712
51
443.497344
0
LINE
8
0
6
CONTINUOUS
10
703.531909
20
505.226563
11
701.895086
21
505.226563
0
ARC
8
0
6
CONTINUOUS
10
702.105071
20
503.384306
40
1.854186
50
96.502656
51
185.259288
0
LINE
8
0
6
CONTINUOUS
10
700.258691
20
503.214345
11
700.258691
21
487.906176
0
ARC
8
0
6
CONTINUOUS
10
702.105071
20
487.736216
40
1.854186
50
174.740712
51
263.497344
0
LINE
8
0
6
CONTINUOUS
10
701.895086
20
485.893958
11
710.528305
21
485.893958
0
ARC
8
0
6
CONTINUOUS
10
710.068118
20
487.559163
40
1.727624
50
285.448376
51
437.992127
0
ARC
8
0
6
CONTINUOUS
10
719.367521
20
487.328044
40
2.116669
50
121.683099
51
247.768056
0
ARC
8
0
6
CONTINUOUS
10
717.508033
20
467.173510
40
18.225989
50
52.678509
51
86.670178
0
ARC
8
0
6
CONTINUOUS
10
728.987052
20
483.727818
40
2.104321
50
258.241249
51
408.329139
0
ARC
8
0
6
CONTINUOUS
10
721.075352
20
476.933878
40
12.517074
50
41.940045
51
103.017946
0
LINE
8
0
6
CONTINUOUS
10
725.807809
20
506.032318
11
726.312048
21
566.669536
0
ARC
8
0
6
CONTINUOUS
10
724.465668
20
566.839497
40
1.854186
50
354.740712
51
443.497344
0
LINE
8
0
6
CONTINUOUS
10
724.675653
20
568.681754
11
722.330105
21
568.681754
0
ARC
8
0
6
CONTINUOUS
10
722.603490
20
566.785772
40
1.915590
50
98.205026
51
184.463667
0
LINE
8
0
6
CONTINUOUS
10
720.693710
20
566.636688
11
721.614130
21
506.290703
0
ARC
8
0
6
CONTINUOUS
10
723.045916
20
506.184417
40
1.435725
50
175.754513
51
255.819999
0
LINE
8
0
6
CONTINUOUS
10
722.694207
20
504.792437
11
724.433294
21
504.534051
0
ARC
8
0
6
CONTINUOUS
10
724.466833
20
505.882908
40
1.349274
50
268.575636
51
366.357577
0
LINE
8
0
6
CONTINUOUS
10
742.206369
20
467.452720
11
785.942992
21
427.499647
0
ARC
8
0
6
CONTINUOUS
10
786.924776
20
428.517650
40
1.414296
50
226.037649
51
322.723341
0
LINE
8
0
6
CONTINUOUS
10
788.050159
20
427.661063
11
789.633242
21
429.523759
0
ARC
8
0
6
CONTINUOUS
10
787.819568
20
430.969618
40
2.319466
50
321.438159
51
404.827873
0
LINE
8
0
6
CONTINUOUS
10
789.464598
20
432.604794
11
745.619812
21
471.827828
0
ARC
8
0
6
CONTINUOUS
10
744.659626
20
470.822580
40
1.390139
50
46.313416
51
128.706658
0
LINE
8
0
6
CONTINUOUS
10
743.790325
20
471.907385
11
742.315406
21
470.774728
0
ARC
8
0
6
CONTINUOUS
10
743.835386
20
469.062045
40
2.289895
50
131.588570
51
224.651609
0
LINE
8
0
6
CONTINUOUS
10
686.731242
20
423.700415
11
693.053715
21
433.538474
0
ARC
8
0
6
CONTINUOUS
10
688.845479
20
436.584821
40
5.195141
50
324.099163
51
409.854224
0
LINE
8
0
6
CONTINUOUS
10
692.194966
20
440.556021
11
654.485174
21
459.115111
0
ARC
8
0
6
CONTINUOUS
10
652.385053
20
454.256826
40
5.292773
50
66.622314
51
135.548450
0
LINE
8
0
6
CONTINUOUS
10
648.606845
20
457.963385
11
640.475729
21
444.589653
0
ARC
8
0
6
CONTINUOUS
10
644.023356
20
442.012181
40
4.385091
50
144.000305
51
237.535537
0
LINE
8
0
6
CONTINUOUS
10
641.669543
20
438.312372
11
678.229937
21
420.263072
0
ARC
8
0
6
CONTINUOUS
10
680.128667
20
427.798567
40
7.771027
50
255.857491
51
328.172538
0
LINE
8
0
6
CONTINUOUS
10
673.980180
20
389.080487
11
716.411412
21
368.132844
0
ARC
8
0
6
CONTINUOUS
10
718.615038
20
376.878379
40
9.018888
50
255.857485
51
328.172551
0
LINE
8
0
6
CONTINUOUS
10
726.277848
20
372.122152
11
733.615578
21
383.539996
0
ARC
8
0
6
CONTINUOUS
10
728.731587
20
387.075525
40
6.029372
50
324.099164
51
409.854215
0
LINE
8
0
6
CONTINUOUS
10
732.618932
20
391.684414
11
688.853739
21
413.223705
0
ARC
8
0
6
CONTINUOUS
10
686.416382
20
407.585282
40
6.142681
50
66.622317
51
135.548450
0
LINE
8
0
6
CONTINUOUS
10
682.031472
20
411.887037
11
672.594672
21
396.365764
0
ARC
8
0
6
CONTINUOUS
10
676.711973
20
393.374403
40
5.089245
50
144.000300
51
237.535450
0
LINE
8
0
6
CONTINUOUS
10
652.805960
20
373.327987
11
662.603601
21
385.292487
0
ARC
8
0
6
CONTINUOUS
10
657.839201
20
389.042879
40
6.063411
50
321.791240
51
407.182406
0
LINE
8
0
6
CONTINUOUS
10
661.960299
20
393.490520
11
623.526469
21
414.754537
0
ARC
8
0
6
CONTINUOUS
10
621.376462
20
408.834347
40
6.298507
50
70.040746
51
139.083840
0
LINE
8
0
6
CONTINUOUS
10
616.616878
20
412.959580
11
604.195300
21
397.461126
0
ARC
8
0
6
CONTINUOUS
10
608.354114
20
394.523194
40
5.091874
50
144.761278
51
237.263266
0
LINE
8
0
6
CONTINUOUS
10
605.600531
20
390.240092
11
642.781076
21
369.988986
0
ARC
8
0
6
CONTINUOUS
10
645.548268
20
378.399534
40
8.854077
50
251.788055
51
325.054831
0
LINE
8
0
6
CONTINUOUS
10
632.625447
20
334.517936
11
674.443353
21
310.702978
0
ARC
8
0
6
CONTINUOUS
10
677.957619
20
321.384174
40
11.244466
50
251.788054
51
325.054828
0
LINE
8
0
6
CONTINUOUS
10
687.174714
20
314.943431
11
698.972962
21
329.062867
0
ARC
8
0
6
CONTINUOUS
10
692.922288
20
333.825776
40
7.700387
50
321.791243
51
407.182404
0
LINE
8
0
6
CONTINUOUS
10
698.155983
20
339.474172
11
653.583274
21
363.410938
0
ARC
8
0
6
CONTINUOUS
10
650.852817
20
355.892436
40
7.998954
50
70.040751
51
139.083819
0
LINE
8
0
6
CONTINUOUS
10
644.808259
20
361.131385
11
631.062931
21
343.981283
0
ARC
8
0
6
CONTINUOUS
10
636.136379
20
339.958305
40
6.474894
50
141.587431
51
237.163897
0
LINE
8
0
6
CONTINUOUS
10
602.715453
20
315.703056
11
617.119039
21
330.274050
0
ARC
8
0
6
CONTINUOUS
10
613.263225
20
335.347411
40
6.372307
50
307.235257
51
407.218209
0
LINE
8
0
6
CONTINUOUS
10
617.591348
20
340.024339
11
579.243326
21
364.386628
0
ARC
8
0
6
CONTINUOUS
10
575.664315
20
357.409622
40
7.841424
50
62.843431
51
132.860008
0
LINE
8
0
6
CONTINUOUS
10
570.330505
20
363.157526
11
551.622561
21
344.275109
0
ARC
8
0
6
CONTINUOUS
10
557.899189
20
339.694822
40
7.770141
50
143.880380
51
229.415440
0
LINE
8
0
6
CONTINUOUS
10
552.844171
20
333.793814
11
589.774059
21
312.966913
0
ARC
8
0
6
CONTINUOUS
10
595.191629
20
319.316056
40
8.346358
50
229.526674
51
334.349314
0
LINE
8
0
6
CONTINUOUS
10
572.976902
20
270.861609
11
615.390465
21
246.281839
0
ARC
8
0
6
CONTINUOUS
10
621.064998
20
253.681923
40
9.325318
50
232.518284
51
324.333957
0
LINE
8
0
6
CONTINUOUS
10
628.641159
20
248.244703
11
646.404821
21
266.555372
0
ARC
8
0
6
CONTINUOUS
10
639.844184
20
272.092090
40
8.584707
50
319.837977
51
410.428243
0
LINE
8
0
6
CONTINUOUS
10
645.313021
20
278.709417
11
602.514400
21
303.448681
0
ARC
8
0
6
CONTINUOUS
10
597.820219
20
297.361270
40
7.687127
50
52.363135
51
126.982489
0
LINE
8
0
6
CONTINUOUS
10
593.195867
20
303.501896
11
571.220574
21
282.124696
0
ARC
8
0
6
CONTINUOUS
10
576.542464
20
277.186092
40
7.260325
50
137.139319
51
240.586953
0
LINE
8
0
6
CONTINUOUS
10
531.055878
20
248.828466
11
553.642374
21
268.525427
0
ARC
8
0
6
CONTINUOUS
10
549.684537
20
274.495444
40
7.162790
50
303.542484
51
404.806361
0
LINE
8
0
6
CONTINUOUS
10
554.766483
20
279.543155
11
515.879908
21
304.828022
0
ARC
8
0
6
CONTINUOUS
10
511.138179
20
297.194256
40
8.986568
50
58.153441
51
128.502788
0
LINE
8
0
6
CONTINUOUS
10
505.543566
20
304.226944
11
479.537408
21
283.394207
0
ARC
8
0
6
CONTINUOUS
10
486.553677
20
277.725388
40
9.020174
50
141.063398
51
226.203427
0
LINE
8
0
6
CONTINUOUS
10
480.310814
20
271.214611
11
516.573258
21
247.597906
0
ARC
8
0
6
CONTINUOUS
10
523.270549
20
254.615830
40
9.700770
50
226.339210
51
323.374071
0
LINE
8
0
6
CONTINUOUS
10
488.568326
20
199.309520
11
528.018038
21
173.609375
0
ARC
8
0
6
CONTINUOUS
10
536.891929
20
183.473540
40
13.268297
50
228.025168
51
314.437140
0
LINE
8
0
6
CONTINUOUS
10
546.181413
20
173.999724
11
571.477375
21
193.729689
0
ARC
8
0
6
CONTINUOUS
10
566.134274
20
202.348542
40
10.140678
50
301.796084
51
422.053427
0
LINE
8
0
6
CONTINUOUS
10
570.886683
20
211.306666
11
528.259638
21
238.754057
0
ARC
8
0
6
CONTINUOUS
10
524.227928
20
231.757317
40
8.075212
50
60.048299
51
131.220437
0
LINE
8
0
6
CONTINUOUS
10
518.906704
20
237.831330
11
487.794920
21
211.489116
0
ARC
8
0
6
CONTINUOUS
10
494.811188
20
205.820296
40
9.020174
50
141.063398
51
226.203427
0
ARC
8
0
6
CONTINUOUS
10
386.408685
20
204.818949
40
8.045584
50
141.259262
51
221.095345
0
LINE
8
0
6
CONTINUOUS
10
380.345397
20
199.530474
11
417.603249
21
172.935446
0
ARC
8
0
6
CONTINUOUS
10
424.492627
20
180.338563
40
10.112847
50
227.058591
51
270.235492
0
ARC
8
0
6
CONTINUOUS
10
424.575754
20
180.338567
40
10.112851
50
269.764518
51
312.941400
0
LINE
8
0
6
CONTINUOUS
10
431.465134
20
172.935446
11
468.722986
21
199.530474
0
ARC
8
0
6
CONTINUOUS
10
462.659699
20
204.818949
40
8.045584
50
318.904652
51
398.740740
0
LINE
8
0
6
CONTINUOUS
10
468.935139
20
209.853856
11
429.092278
21
239.757989
0
ARC
8
0
6
CONTINUOUS
10
424.503093
20
233.209615
40
7.996363
50
54.976731
51
89.777172
0
ARC
8
0
6
CONTINUOUS
10
424.565290
20
233.209617
40
7.996361
50
90.222823
51
125.023273
0
LINE
8
0
6
CONTINUOUS
10
419.976105
20
239.757989
11
380.133244
21
209.853856
0
LINE
8
0
6
CONTINUOUS
10
386.988018
20
271.564690
11
417.394095
21
250.336118
0
ARC
8
0
6
CONTINUOUS
10
424.505781
20
257.600781
40
10.166190
50
225.609654
51
270.160123
0
ARC
8
0
6
CONTINUOUS
10
424.562600
20
257.600786
40
10.166195
50
269.839889
51
314.390334
0
LINE
8
0
6
CONTINUOUS
10
431.674289
20
250.336118
11
462.080365
21
271.564690
0
ARC
8
0
6
CONTINUOUS
10
455.118453
20
276.902116
40
8.772476
50
322.524030
51
389.531035
0
LINE
8
0
6
CONTINUOUS
10
462.751287
20
281.226026
11
429.092278
21
307.393689
0
ARC
8
0
6
CONTINUOUS
10
424.503093
20
300.845314
40
7.996363
50
54.976731
51
89.777172
0
ARC
8
0
6
CONTINUOUS
10
424.565290
20
300.845316
40
7.996361
50
90.222823
51
125.023273
0
LINE
8
0
6
CONTINUOUS
10
419.976105
20
307.393689
11
386.317097
21
281.226026
0
ARC
8
0
6
CONTINUOUS
10
393.949932
20
276.902116
40
8.772477
50
150.468971
51
217.475965
0
LINE
8
0
6
CONTINUOUS
10
333.188475
20
304.828022
11
294.301901
21
279.543155
0
ARC
8
0
6
CONTINUOUS
10
299.383844
20
274.495444
40
7.162789
50
135.193632
51
236.457523
0
LINE
8
0
6
CONTINUOUS
10
295.426010
20
268.525427
11
318.012506
21
248.828466
0
ARC
8
0
6
CONTINUOUS
10
325.797835
20
254.615829
40
9.700769
50
216.625924
51
313.660793
0
LINE
8
0
6
CONTINUOUS
10
332.495125
20
247.597906
11
368.757569
21
271.214611
0
ARC
8
0
6
CONTINUOUS
10
362.514703
20
277.725388
40
9.020176
50
313.796586
51
398.936590
0
LINE
8
0
6
CONTINUOUS
10
369.530974
20
283.394207
11
343.524816
21
304.226944
0
ARC
8
0
6
CONTINUOUS
10
337.930204
20
297.194254
40
8.986569
50
51.497216
51
121.846555
0
LINE
8
0
6
CONTINUOUS
10
312.317245
20
332.559818
11
331.893343
21
315.488128
0
ARC
8
0
6
CONTINUOUS
10
338.641018
20
320.504133
40
8.407820
50
216.625921
51
313.660797
0
LINE
8
0
6
CONTINUOUS
10
344.445673
20
314.421582
11
375.874945
21
334.890578
0
ARC
8
0
6
CONTINUOUS
10
370.464150
20
340.533578
40
7.817938
50
313.796579
51
398.936600
0
LINE
8
0
6
CONTINUOUS
10
376.545269
20
345.446840
11
354.005293
21
363.502924
0
ARC
8
0
6
CONTINUOUS
10
349.156347
20
357.407573
40
7.788811
50
51.497214
51
121.846554
0
LINE
8
0
6
CONTINUOUS
10
345.046611
20
364.023889
11
311.342961
21
342.109067
0
ARC
8
0
6
CONTINUOUS
10
315.747570
20
337.734131
40
6.208111
50
135.193640
51
236.457512
0
LINE
8
0
6
CONTINUOUS
10
269.825057
20
364.386628
11
231.477036
21
340.024339
0
ARC
8
0
6
CONTINUOUS
10
235.805159
20
335.347411
40
6.372307
50
132.781793
51
232.764741
0
LINE
8
0
6
CONTINUOUS
10
231.949345
20
330.274050
11
246.352931
21
315.703056
0
ARC
8
0
6
CONTINUOUS
10
253.876754
20
319.316056
40
8.346358
50
205.650686
51
310.473327
0
LINE
8
0
6
CONTINUOUS
10
259.294324
20
312.966913
11
296.224211
21
333.793814
0
ARC
8
0
6
CONTINUOUS
10
291.169194
20
339.694822
40
7.770141
50
310.584562
51
396.119619
0
LINE
8
0
6
CONTINUOUS
10
297.445822
20
344.275109
11
278.737878
21
363.157526
0
ARC
8
0
6
CONTINUOUS
10
273.404068
20
357.409619
40
7.841427
50
47.140006
51
117.156556
0
LINE
8
0
6
CONTINUOUS
10
281.089403
20
371.724373
11
312.565857
21
389.629241
0
ARC
8
0
6
CONTINUOUS
10
310.229977
20
394.443918
40
5.351397
50
295.880710
51
402.592561
0
LINE
8
0
6
CONTINUOUS
10
314.169596
20
398.065638
11
299.544536
21
413.915715
0
ARC
8
0
6
CONTINUOUS
10
294.865419
20
408.862148
40
6.887138
50
47.203285
51
117.226674
0
LINE
8
0
6
CONTINUOUS
10
291.714470
20
414.986215
11
256.845445
21
395.078359
0
ARC
8
0
6
CONTINUOUS
10
260.541503
20
391.033353
40
5.479317
50
132.418998
51
233.299267
0
LINE
8
0
6
CONTINUOUS
10
257.266869
20
386.640212
11
270.133669
21
373.519375
0
ARC
8
0
6
CONTINUOUS
10
276.412447
20
377.510211
40
7.439746
50
212.440332
51
308.950187
0
LINE
8
0
6
CONTINUOUS
10
233.677919
20
246.281839
11
276.091481
21
270.861609
0
ARC
8
0
6
CONTINUOUS
10
272.525919
20
277.186092
40
7.260326
50
299.413050
51
402.860679
0
LINE
8
0
6
CONTINUOUS
10
277.847810
20
282.124696
11
255.872517
21
303.501896
0
ARC
8
0
6
CONTINUOUS
10
251.248164
20
297.361267
40
7.687129
50
53.017524
51
127.636852
0
LINE
8
0
6
CONTINUOUS
10
246.553983
20
303.448681
11
203.755362
21
278.709417
0
ARC
8
0
6
CONTINUOUS
10
209.224199
20
272.092090
40
8.584707
50
129.571759
51
220.162022
0
LINE
8
0
6
CONTINUOUS
10
202.663562
20
266.555372
11
220.427224
21
248.244703
0
ARC
8
0
6
CONTINUOUS
10
228.003386
20
253.681923
40
9.325319
50
215.666044
51
307.481715
0
LINE
8
0
6
CONTINUOUS
10
257.074234
20
211.140982
11
231.704451
21
235.297428
0
ARC
8
0
6
CONTINUOUS
10
224.652892
20
230.837723
40
8.343468
50
32.310998
51
140.228564
0
LINE
8
0
6
CONTINUOUS
10
218.240082
20
236.175261
11
171.655500
21
209.632690
0
ARC
8
0
6
CONTINUOUS
10
175.677422
20
201.664055
40
8.926086
50
116.780953
51
225.339518
0
LINE
8
0
6
CONTINUOUS
10
169.403238
20
195.315068
11
191.024766
21
172.580766
0
ARC
8
0
6
CONTINUOUS
10
200.963410
20
180.750972
40
12.865804
50
219.422408
51
302.356405
0
LINE
8
0
6
CONTINUOUS
10
207.848985
20
169.882772
11
256.300828
21
198.961386
0
ARC
8
0
6
CONTINUOUS
10
250.057963
20
205.472163
40
9.020176
50
313.796586
51
398.936590
0
LINE
8
0
6
CONTINUOUS
10
321.050346
20
173.609375
11
360.500058
21
199.309520
0
ARC
8
0
6
CONTINUOUS
10
354.257192
20
205.820297
40
9.020176
50
313.796586
51
398.936590
0
LINE
8
0
6
CONTINUOUS
10
361.273463
20
211.489116
11
330.161679
21
237.831330
0
ARC
8
0
6
CONTINUOUS
10
324.840454
20
231.757315
40
8.075215
50
48.779574
51
119.951691
0
LINE
8
0
6
CONTINUOUS
10
320.808746
20
238.754057
11
278.181700
21
211.306666
0
ARC
8
0
6
CONTINUOUS
10
282.934109
20
202.348542
40
10.140678
50
117.946575
51
238.203915
0
LINE
8
0
6
CONTINUOUS
10
277.591009
20
193.729689
11
302.886970
21
173.999724
0
ARC
8
0
6
CONTINUOUS
10
312.176454
20
183.473540
40
13.268297
50
225.562859
51
311.974833
0
LINE
8
0
6
CONTINUOUS
10
303.834569
20
85.235467
11
352.551841
21
116.346009
0
ARC
8
0
6
CONTINUOUS
10
346.308976
20
122.856786
40
9.020176
50
313.796586
51
398.936590
0
LINE
8
0
6
CONTINUOUS
10
353.325248
20
128.525605
11
314.933227
21
160.730922
0
ARC
8
0
6
CONTINUOUS
10
309.612003
20
154.656906
40
8.075215
50
48.779574
51
119.951691
0
LINE
8
0
6
CONTINUOUS
10
305.580294
20
161.653649
11
256.025017
21
128.352324
0
ARC
8
0
6
CONTINUOUS
10
260.777426
20
119.394200
40
10.140678
50
117.946575
51
238.203915
0
LINE
8
0
6
CONTINUOUS
10
255.434326
20
110.775347
11
285.671193
21
85.625816
0
ARC
8
0
6
CONTINUOUS
10
294.960677
20
95.099631
40
13.268297
50
225.562859
51
311.974833
0
ARC
8
0
6
CONTINUOUS
10
290.586812
20
47.297998
40
27.664504
50
53.740498
51
126.259480
0
LINE
8
0
6
CONTINUOUS
10
274.224833
20
69.605181
11
233.769987
21
34.747106
0
LINE
8
0
6
CONTINUOUS
10
233.769987
20
34.747106
11
347.403637
21
34.747106
0
LINE
8
0
6
CONTINUOUS
10
347.403637
20
34.747106
11
306.948799
21
69.605174
0
LINE
8
0
6
CONTINUOUS
10
404.410891
20
68.168042
11
363.969985
21
34.747106
0
LINE
8
0
6
CONTINUOUS
10
363.969985
20
34.747106
11
485.098397
21
34.747106
0
LINE
8
0
6
CONTINUOUS
10
485.098397
20
34.747106
11
444.657491
21
68.168042
0
ARC
8
0
6
CONTINUOUS
10
424.534191
20
48.429262
40
28.188059
50
44.447328
51
135.552671
0
LINE
8
0
6
CONTINUOUS
10
475.084752
20
127.355090
11
429.092278
21
162.513392
0
ARC
8
0
6
CONTINUOUS
10
424.503093
20
155.965018
40
7.996363
50
54.976731
51
89.777172
0
ARC
8
0
6
CONTINUOUS
10
424.565290
20
155.965020
40
7.996361
50
90.222823
51
125.023273
0
LINE
8
0
6
CONTINUOUS
10
419.976105
20
162.513392
11
373.983631
21
127.355090
0
ARC
8
0
6
CONTINUOUS
10
380.259071
20
122.320184
40
8.045584
50
141.259262
51
221.095345
0
LINE
8
0
6
CONTINUOUS
10
374.195784
20
117.031708
11
417.762966
21
85.951731
0
ARC
8
0
6
CONTINUOUS
10
424.130960
20
94.898196
40
10.981374
50
234.557170
51
272.104355
0
ARC
8
0
6
CONTINUOUS
10
424.937425
20
94.898194
40
10.981372
50
267.895640
51
305.442834
0
LINE
8
0
6
CONTINUOUS
10
431.305417
20
85.951731
11
474.872599
21
117.031708
0
ARC
8
0
6
CONTINUOUS
10
468.809312
20
122.320184
40
8.045584
50
318.904652
51
398.740740
0
LINE
8
0
6
CONTINUOUS
10
563.397190
20
85.625816
11
593.634057
21
110.775347
0
ARC
8
0
6
CONTINUOUS
10
588.290957
20
119.394200
40
10.140678
50
301.796084
51
422.053427
0
LINE
8
0
6
CONTINUOUS
10
593.043365
20
128.352324
11
543.488089
21
161.653649
0
ARC
8
0
6
CONTINUOUS
10
539.456380
20
154.656909
40
8.075212
50
60.048299
51
131.220437
0
LINE
8
0
6
CONTINUOUS
10
534.135155
20
160.730922
11
495.743136
21
128.525605
0
ARC
8
0
6
CONTINUOUS
10
502.759405
20
122.856785
40
9.020174
50
141.063398
51
226.203427
0
LINE
8
0
6
CONTINUOUS
10
496.516541
20
116.346009
11
545.233815
21
85.235467
0
ARC
8
0
6
CONTINUOUS
10
554.107706
20
95.099631
40
13.268297
50
228.025168
51
314.437140
0
ARC
8
0
6
CONTINUOUS
10
558.481572
20
47.298003
40
27.664500
50
53.740514
51
126.259508
0
LINE
8
0
6
CONTINUOUS
10
542.119584
20
69.605174
11
501.664746
21
34.747106
0
LINE
8
0
6
CONTINUOUS
10
501.664746
20
34.747106
11
615.298396
21
34.747106
0
LINE
8
0
6
CONTINUOUS
10
615.298396
20
34.747106
11
574.843551
21
69.605181
0
LINE
8
0
6
CONTINUOUS
10
647.099104
20
157.448604
11
617.124048
21
129.269240
0
ARC
8
0
6
CONTINUOUS
10
624.140316
20
123.600421
40
9.020174
50
141.063398
51
226.203427
0
LINE
8
0
6
CONTINUOUS
10
617.897453
20
117.089644
11
676.316896
21
82.039811
0
ARC
8
0
6
CONTINUOUS
10
682.965407
20
93.059196
40
12.869714
50
238.895455
51
320.558823
0
LINE
8
0
6
CONTINUOUS
10
692.904394
20
84.883251
11
718.605512
21
110.368843
0
ARC
8
0
6
CONTINUOUS
10
712.331328
20
116.717831
40
8.926087
50
314.660486
51
423.219044
0
LINE
8
0
6
CONTINUOUS
10
716.353252
20
124.686465
11
660.563475
21
158.326438
0
ARC
8
0
6
CONTINUOUS
10
654.150664
20
152.988898
40
8.343469
50
39.771443
51
147.688995
0
LINE
8
0
6
CONTINUOUS
10
677.412884
20
209.632690
11
630.828302
21
236.175261
0
ARC
8
0
6
CONTINUOUS
10
624.415491
20
230.837721
40
8.343469
50
39.771443
51
147.688995
0
LINE
8
0
6
CONTINUOUS
10
617.363931
20
235.297428
11
591.994149
21
211.140982
0
ARC
8
0
6
CONTINUOUS
10
599.010417
20
205.472163
40
9.020174
50
141.063398
51
226.203427
0
LINE
8
0
6
CONTINUOUS
10
592.767554
20
198.961386
11
641.219397
21
169.882772
0
ARC
8
0
6
CONTINUOUS
10
648.104973
20
180.750975
40
12.865806
50
237.643603
51
320.577584
0
LINE
8
0
6
CONTINUOUS
10
658.043618
20
172.580766
11
679.665144
21
195.315068
0
ARC
8
0
6
CONTINUOUS
10
673.390960
20
201.664054
40
8.926087
50
314.660486
51
423.219044
0
LINE
8
0
6
CONTINUOUS
10
714.656606
20
232.165923
11
698.167629
21
210.293659
0
ARC
8
0
6
CONTINUOUS
10
703.533604
20
205.145569
40
7.436163
50
136.187172
51
237.508102
0
LINE
8
0
6
CONTINUOUS
10
699.539043
20
198.873408
11
754.567297
21
169.035450
0
ARC
8
0
6
CONTINUOUS
10
760.894317
20
179.058751
40
11.853174
50
237.738606
51
321.829488
0
LINE
8
0
6
CONTINUOUS
10
770.212986
20
171.733445
11
786.452921
21
192.480295
0
ARC
8
0
6
CONTINUOUS
10
780.983102
20
198.430735
40
8.082491
50
312.590129
51
421.670018
0
LINE
8
0
6
CONTINUOUS
10
784.818639
20
205.545179
11
729.949730
21
235.324763
0
ARC
8
0
6
CONTINUOUS
10
723.658085
20
227.185685
40
10.287341
50
52.295367
51
151.045613
0
LINE
8
0
6
CONTINUOUS
10
738.393142
20
276.995531
11
689.398931
21
302.622628
0
ARC
8
0
6
CONTINUOUS
10
685.134701
20
296.210781
40
7.700353
50
56.373911
51
130.902316
0
LINE
8
0
6
CONTINUOUS
10
680.092730
20
302.030917
11
661.855035
21
282.404876
0
ARC
8
0
6
CONTINUOUS
10
667.315655
20
277.725462
40
7.191334
50
139.405472
51
243.652457
0
LINE
8
0
6
CONTINUOUS
10
664.124033
20
271.281175
11
713.545944
21
245.517164
0
ARC
8
0
6
CONTINUOUS
10
718.706461
20
253.393281
40
9.416165
50
236.766752
51
327.931034
0
LINE
8
0
6
CONTINUOUS
10
726.685809
20
248.393866
11
740.039440
21
264.936300
0
ARC
8
0
6
CONTINUOUS
10
733.295899
20
270.157677
40
8.528665
50
322.250161
51
413.297502
0
LINE
8
0
6
CONTINUOUS
10
765.161996
20
300.872154
11
752.591510
21
279.732634
0
ARC
8
0
6
CONTINUOUS
10
760.849729
20
276.716420
40
8.791799
50
159.935895
51
231.353306
0
LINE
8
0
6
CONTINUOUS
10
755.359107
20
269.849923
11
799.988455
21
250.375736
0
LINE
8
0
6
CONTINUOUS
10
799.988455
20
250.375736
11
799.988455
21
291.166670
0
LINE
8
0
6
CONTINUOUS
10
799.988455
20
291.166670
11
774.408844
21
302.830472
0
ARC
8
0
6
CONTINUOUS
10
771.172486
20
295.301822
40
8.194791
50
66.738475
51
137.176622
0
LINE
8
0
6
CONTINUOUS
10
771.910042
20
315.471409
11
779.572682
21
328.072575
0
ARC
8
0
6
CONTINUOUS
10
775.347971
20
332.852127
40
6.379050
50
311.473906
51
411.372737
0
LINE
8
0
6
CONTINUOUS
10
779.330102
20
337.835590
11
728.040587
21
362.317473
0
ARC
8
0
6
CONTINUOUS
10
725.250905
20
354.835133
40
7.985470
50
69.552760
51
138.677851
0
LINE
8
0
6
CONTINUOUS
10
719.253746
20
360.107876
11
709.644518
21
342.394521
0
ARC
8
0
6
CONTINUOUS
10
717.624281
20
340.119052
40
8.297854
50
164.084235
51
227.395002
0
LINE
8
0
6
CONTINUOUS
10
712.007130
20
334.011516
11
759.221147
21
311.315442
0
ARC
8
0
6
CONTINUOUS
10
763.919191
20
318.420184
40
8.517569
50
236.525149
51
339.744984
0
LINE
8
0
6
CONTINUOUS
10
738.806116
20
116.470042
11
786.709504
21
90.747560
0
ARC
8
0
6
CONTINUOUS
10
794.040498
20
100.518374
40
12.215248
50
233.119282
51
299.138928
0
LINE
8
0
6
CONTINUOUS
10
799.988455
20
89.849069
11
799.988455
21
144.403750
0
LINE
8
0
6
CONTINUOUS
10
799.988455
20
144.403750
11
772.230962
21
159.599507
0
ARC
8
0
6
CONTINUOUS
10
768.358491
20
147.175697
40
13.013342
50
72.687875
51
122.902868
0
LINE
8
0
6
CONTINUOUS
10
761.289429
20
158.101604
11
738.032709
21
128.649638
0
ARC
8
0
6
CONTINUOUS
10
745.048978
20
122.980818
40
9.020174
50
141.063398
51
226.203427
0
LINE
8
0
6
CONTINUOUS
10
674.783750
20
67.964182
11
632.651195
21
34.747106
0
LINE
8
0
6
CONTINUOUS
10
632.651195
20
34.747106
11
751.335408
21
34.747106
0
LINE
8
0
6
CONTINUOUS
10
751.335408
20
34.747106
11
711.166256
21
64.969535
0
ARC
8
0
6
CONTINUOUS
10
691.234982
20
45.327015
40
27.983644
50
44.581942
51
126.007234
0
LINE
8
0
6
CONTINUOUS
10
579.122391
20
519.821194
11
554.548703
21
531.907746
0
ARC
8
0
6
CONTINUOUS
10
552.373897
20
528.448031
40
4.086491
50
57.846181
51
125.870417
0
LINE
8
0
6
CONTINUOUS
10
549.979401
20
531.759496
11
541.871072
21
522.695065
0
ARC
8
0
6
CONTINUOUS
10
544.858743
20
520.609701
40
3.643477
50
145.085352
51
235.938635
0
LINE
8
0
6
CONTINUOUS
10
542.818103
20
517.591305
11
566.387408
21
504.753826
0
ARC
8
0
6
CONTINUOUS
10
568.316143
20
510.615986
40
6.171301
50
251.788054
51
325.054833
0
LINE
8
0
6
CONTINUOUS
10
573.374762
20
507.081113
11
579.570773
21
514.107157
0
ARC
8
0
6
CONTINUOUS
10
576.249983
20
516.721184
40
4.226202
50
321.791234
51
407.182426
0
LINE
8
0
6
CONTINUOUS
10
599.408478
20
549.733294
11
576.831103
21
561.364418
0
ARC
8
0
6
CONTINUOUS
10
574.020025
20
556.782174
40
5.375791
50
58.472057
51
137.864637
0
LINE
8
0
6
CONTINUOUS
10
570.033543
20
560.388709
11
564.740671
21
553.180889
0
ARC
8
0
6
CONTINUOUS
10
567.183390
20
551.401416
40
3.022152
50
143.927403
51
238.264235
0
LINE
8
0
6
CONTINUOUS
10
565.593730
20
548.831127
11
590.309844
21
536.872602
0
ARC
8
0
6
CONTINUOUS
10
591.621416
20
542.077839
40
5.367933
50
255.857491
51
328.172533
0
LINE
8
0
6
CONTINUOUS
10
596.182226
20
539.246989
11
600.549553
21
546.042750
0
ARC
8
0
6
CONTINUOUS
10
596.352127
20
546.766629
40
4.259388
50
350.215140
51
404.146896
0
LINE
8
0
6
CONTINUOUS
10
630.363476
20
573.185857
11
615.496636
21
586.728004
0
ARC
8
0
6
CONTINUOUS
10
614.499131
20
585.584526
40
1.517418
50
48.900406
51
243.270716
0
LINE
8
0
6
CONTINUOUS
10
613.816633
20
584.229257
11
628.874157
21
569.941871
0
ARC
8
0
6
CONTINUOUS
10
629.016466
20
571.840404
40
1.903859
50
265.713266
51
404.966861
0
ARC
8
0
6
CONTINUOUS
10
649.018896
20
693.207559
40
1.441323
50
356.508257
51
434.366487
0
LINE
8
0
6
CONTINUOUS
10
649.407308
20
694.595560
11
638.628081
21
696.527112
0
ARC
8
0
6
CONTINUOUS
10
638.557047
20
695.186390
40
1.342602
50
86.967200
51
186.773481
0
LINE
8
0
6
CONTINUOUS
10
637.223816
20
695.028038
11
637.639056
21
559.446351
0
ARC
8
0
6
CONTINUOUS
10
639.290971
20
559.419252
40
1.652137
50
179.060184
51
224.678152
0
LINE
8
0
6
CONTINUOUS
10
638.116190
20
558.257596
11
649.853952
21
547.110921
0
ARC
8
0
6
CONTINUOUS
10
650.627059
20
548.068640
40
1.230821
50
231.088191
51
371.924976
0
LINE
8
0
6
CONTINUOUS
10
651.831318
20
548.322965
11
650.457543
21
693.119775
0
ARC
8
0
6
CONTINUOUS
10
674.661808
20
684.888473
40
2.540149
50
0.687611
51
188.997753
0
LINE
8
0
6
CONTINUOUS
10
672.152917
20
684.491205
11
672.994020
21
547.979072
0
ARC
8
0
6
CONTINUOUS
10
676.343787
20
547.941780
40
3.349975
50
179.362161
51
369.480770
0
LINE
8
0
6
CONTINUOUS
10
679.648006
20
548.493576
11
677.201774
21
684.918957
0
ARC
8
0
6
CONTINUOUS
10
700.032180
20
636.756042
40
2.539163
50
0.667751
51
189.021630
0
LINE
8
0
6
CONTINUOUS
10
697.524430
20
636.357883
11
699.705855
21
533.589237
0
ARC
8
0
6
CONTINUOUS
10
702.382367
20
533.498562
40
2.678048
50
178.059671
51
366.491457
0
LINE
8
0
6
CONTINUOUS
10
705.043246
20
533.801329
11
702.571171
21
636.785634
0
LINE
8
0
6
CONTINUOUS
10
737.235026
20
588.218043
11
717.032345
21
588.658438
0
ARC
8
0
6
CONTINUOUS
10
717.031675
20
587.521528
40
1.136910
50
89.966245
51
205.908102
0
LINE
8
0
6
CONTINUOUS
10
716.009030
20
587.024780
11
767.838138
21
557.364960
0
LINE
8
0
6
CONTINUOUS
10
767.838138
20
557.364960
11
773.242630
21
560.132464
0
LINE
8
0
6
CONTINUOUS
10
773.242630
20
560.132464
11
740.099260
21
579.109967
0
ARC
8
0
6
CONTINUOUS
10
738.847261
20
578.638058
40
1.337983
50
20.652615
51
80.439631
0
ARC
8
0
6
CONTINUOUS
10
739.402742
20
581.342924
40
1.424984
50
170.482536
51
256.474984
0
ARC
8
0
6
CONTINUOUS
10
746.440572
20
580.856831
40
8.473989
50
150.433272
51
175.114319
0
ARC
8
0
6
CONTINUOUS
10
736.680629
20
585.778713
40
2.501537
50
342.781331
51
437.195657
0
LINE
8
0
6
CONTINUOUS
10
744.693931
20
600.371068
11
744.575380
21
590.392713
0
ARC
8
0
6
CONTINUOUS
10
746.668250
20
590.291527
40
2.095316
50
177.232020
51
236.447068
0
LINE
8
0
6
CONTINUOUS
10
745.510155
20
588.545342
11
752.886833
21
584.241659
0
ARC
8
0
6
CONTINUOUS
10
753.866046
20
586.753069
40
2.695559
50
248.698917
51
399.680254
0
LINE
8
0
6
CONTINUOUS
10
755.940600
20
588.474190
11
750.552352
21
591.612279
0
ARC
8
0
6
CONTINUOUS
10
751.693936
20
593.347644
40
2.077187
50
179.169067
51
236.661659
0
LINE
8
0
6
CONTINUOUS
10
749.616968
20
593.377766
11
749.772087
21
600.042669
0
ARC
8
0
6
CONTINUOUS
10
747.106980
20
598.258035
40
3.207446
50
33.807424
51
138.792362
0
LINE
8
0
6
CONTINUOUS
10
760.196478
20
608.365144
11
760.058510
21
636.810184
0
ARC
8
0
6
CONTINUOUS
10
757.918937
20
637.368329
40
2.211176
50
345.379270
51
547.382580
0
LINE
8
0
6
CONTINUOUS
10
755.726091
20
637.084206
11
755.189435
21
609.499654
0
ARC
8
0
6
CONTINUOUS
10
757.661527
20
608.793690
40
2.570919
50
164.062063
51
350.404577
0
LINE
8
0
6
CONTINUOUS
10
772.400684
20
603.126850
11
772.262716
21
631.571892
0
ARC
8
0
6
CONTINUOUS
10
770.123143
20
632.130037
40
2.211176
50
345.379270
51
547.382580
0
LINE
8
0
6
CONTINUOUS
10
767.930297
20
631.845914
11
767.393640
21
604.261362
0
ARC
8
0
6
CONTINUOUS
10
769.865733
20
603.555398
40
2.570919
50
164.062063
51
350.404577
0
LINE
8
0
6
CONTINUOUS
10
789.327187
20
596.483972
11
789.189219
21
624.929013
0
ARC
8
0
6
CONTINUOUS
10
787.049646
20
625.487158
40
2.211176
50
345.379270
51
547.382580
0
LINE
8
0
6
CONTINUOUS
10
784.856800
20
625.203035
11
784.320143
21
597.618483
0
ARC
8
0
6
CONTINUOUS
10
786.792236
20
596.912519
40
2.570919
50
164.062063
51
350.404577
0
LINE
8
0
6
CONTINUOUS
10
772.166611
20
575.119475
11
799.988455
21
560.910884
0
LINE
8
0
6
CONTINUOUS
10
799.988455
20
560.910884
11
799.988455
21
566.245651
0
LINE
8
0
6
CONTINUOUS
10
799.988455
20
566.245651
11
775.062360
21
579.299686
0
ARC
8
0
6
CONTINUOUS
10
773.823105
20
577.065064
40
2.555247
50
60.988551
51
229.588588
0
LINE
8
0
6
CONTINUOUS
10
747.555285
20
687.255305
11
745.209738
21
687.255305
0
ARC
8
0
6
CONTINUOUS
10
745.483123
20
685.359323
40
1.915590
50
98.205026
51
184.463666
0
LINE
8
0
6
CONTINUOUS
10
743.573343
20
685.210239
11
744.493763
21
624.864254
0
ARC
8
0
6
CONTINUOUS
10
745.925549
20
624.757968
40
1.435725
50
175.754513
51
255.819999
0
LINE
8
0
6
CONTINUOUS
10
745.573841
20
623.365988
11
747.312926
21
623.107601
0
ARC
8
0
6
CONTINUOUS
10
747.346465
20
624.456458
40
1.349274
50
268.575636
51
366.357577
0
LINE
8
0
6
CONTINUOUS
10
748.687441
20
624.605867
11
749.191680
21
685.243087
0
ARC
8
0
6
CONTINUOUS
10
747.345300
20
685.413047
40
1.854186
50
354.740712
51
443.497344
0
ARC
8
0
6
CONTINUOUS
10
757.791301
20
701.104845
40
2.664937
50
337.898072
51
553.475043
0
LINE
8
0
6
CONTINUOUS
10
755.199725
20
700.483857
11
754.046715
21
654.330347
0
ARC
8
0
6
CONTINUOUS
10
756.942747
20
653.235785
40
3.095975
50
159.295827
51
377.658858
0
LINE
8
0
6
CONTINUOUS
10
759.892838
20
654.174946
11
760.260408
21
700.102148
0
ARC
8
0
6
CONTINUOUS
10
769.588090
20
697.759881
40
2.664937
50
337.898072
51
553.475043
0
LINE
8
0
6
CONTINUOUS
10
766.996514
20
697.138892
11
765.843505
21
650.985381
0
ARC
8
0
6
CONTINUOUS
10
768.739536
20
649.890821
40
3.095975
50
159.295827
51
377.658858
0
LINE
8
0
6
CONTINUOUS
10
771.689628
20
650.829982
11
772.057197
21
696.757184
0
LINE
8
0
6
CONTINUOUS
10
784.237966
20
693.515181
11
783.084956
21
647.361671
0
ARC
8
0
6
CONTINUOUS
10
785.980988
20
646.267111
40
3.095975
50
159.295827
51
377.658858
0
LINE
8
0
6
CONTINUOUS
10
788.931079
20
647.206270
11
789.298648
21
693.133472
0
ARC
8
0
6
CONTINUOUS
10
786.829542
20
694.136170
40
2.664937
50
337.898072
51
553.475043
0
LINE
8
0
6
CONTINUOUS
10
787.571890
20
716.691989
11
787.939460
21
762.619191
0
ARC
8
0
6
CONTINUOUS
10
785.470353
20
763.621888
40
2.664937
50
337.898072
51
553.475043
0
LINE
8
0
6
CONTINUOUS
10
782.878777
20
763.000900
11
781.725768
21
716.847389
0
ARC
8
0
6
CONTINUOUS
10
784.621799
20
715.752829
40
3.095975
50
159.295827
51
377.658858
0
LINE
8
0
6
CONTINUOUS
10
770.784162
20
718.349548
11
771.151730
21
764.276750
0
ARC
8
0
6
CONTINUOUS
10
768.682624
20
765.279448
40
2.664937
50
337.898072
51
553.475043
0
LINE
8
0
6
CONTINUOUS
10
766.091049
20
764.658459
11
764.938039
21
718.504948
0
ARC
8
0
6
CONTINUOUS
10
767.834070
20
717.410388
40
3.095975
50
159.295827
51
377.658858
0
LINE
8
0
6
CONTINUOUS
10
758.987372
20
718.364470
11
759.354941
21
764.291672
0
ARC
8
0
6
CONTINUOUS
10
756.885834
20
765.294369
40
2.664937
50
337.898072
51
553.475043
0
LINE
8
0
6
CONTINUOUS
10
754.294259
20
764.673381
11
753.141249
21
718.519869
0
ARC
8
0
6
CONTINUOUS
10
756.037280
20
717.425309
40
3.095975
50
159.295827
51
377.658858
0
LINE
8
0
6
CONTINUOUS
10
702.690359
20
661.733565
11
702.674179
21
804.503086
0
ARC
8
0
6
CONTINUOUS
10
700.135188
20
804.473494
40
2.539163
50
0.667751
51
189.021630
0
LINE
8
0
6
CONTINUOUS
10
697.627437
20
804.075334
11
697.450687
21
661.673206
0
ARC
8
0
6
CONTINUOUS
10
700.068336
20
661.893200
40
2.626877
50
184.804016
51
356.515983
0
LINE
8
0
6
CONTINUOUS
10
602.695087
20
651.963377
11
624.897459
21
638.509345
0
ARC
8
0
6
CONTINUOUS
10
625.638309
20
640.252668
40
1.894210
50
246.976237
51
425.364892
0
LINE
8
0
6
CONTINUOUS
10
626.427887
20
641.974469
11
604.627777
21
654.702593
0
ARC
8
0
6
CONTINUOUS
10
603.979072
20
653.108869
40
1.720690
50
67.851855
51
221.737361
0
ARC
8
0
6
CONTINUOUS
10
592.381733
20
659.391329
40
1.717041
50
260.736137
51
406.681426
0
LINE
8
0
6
CONTINUOUS
10
593.559716
20
660.640563
11
580.909349
21
668.428825
0
ARC
8
0
6
CONTINUOUS
10
580.542376
20
667.849344
40
0.685906
50
57.654770
51
126.216933
0
ARC
8
0
6
CONTINUOUS
10
579.759339
20
668.965478
40
0.677794
50
198.436334
51
303.873191
0
ARC
8
0
6
CONTINUOUS
10
584.108358
20
670.967708
40
5.462011
50
179.808412
51
203.942410
0
ARC
8
0
6
CONTINUOUS
10
576.949916
20
671.078082
40
1.698960
50
356.892185
51
454.906402
0
LINE
8
0
6
CONTINUOUS
10
576.804607
20
672.770816
11
570.991040
21
673.143727
0
ARC
8
0
6
CONTINUOUS
10
571.220029
20
672.033276
40
1.133815
50
101.651792
51
221.519931
0
LINE
8
0
6
CONTINUOUS
10
570.371113
20
671.281692
11
592.105321
21
657.696683
0
ARC
8
0
6
CONTINUOUS
10
561.351648
20
647.954137
40
2.103672
50
170.050592
51
227.814393
0
LINE
8
0
6
CONTINUOUS
10
559.938958
20
646.395371
11
562.096688
21
644.644347
0
ARC
8
0
6
CONTINUOUS
10
562.130227
20
645.993204
40
1.349274
50
268.575636
51
366.357577
0
LINE
8
0
6
CONTINUOUS
10
563.471203
20
646.142614
11
563.471203
21
694.902752
0
ARC
8
0
6
CONTINUOUS
10
560.509695
20
695.119416
40
2.969424
50
355.815703
51
402.363603
0
LINE
8
0
6
CONTINUOUS
10
562.703753
20
697.120312
11
561.291435
21
697.761247
0
ARC
8
0
6
CONTINUOUS
10
561.015715
20
696.030139
40
1.752928
50
80.950306
51
187.434973
0
LINE
8
0
6
CONTINUOUS
10
559.277525
20
695.803308
11
559.279612
21
648.317606
0
LINE
8
0
6
CONTINUOUS
10
546.863837
20
652.224335
11
547.881563
21
651.423400
0
ARC
8
0
6
CONTINUOUS
10
548.775013
20
652.814390
40
1.653211
50
237.286843
51
370.590620
0
LINE
8
0
6
CONTINUOUS
10
550.400062
20
653.118234
11
550.400062
21
720.501663
0
ARC
8
0
6
CONTINUOUS
10
548.298539
20
720.573102
40
2.102737
50
358.053040
51
415.097186
0
LINE
8
0
6
CONTINUOUS
10
549.501696
20
722.297606
11
548.483970
21
722.929996
0
ARC
8
0
6
CONTINUOUS
10
547.762509
20
721.416254
40
1.676879
50
64.517168
51
189.688389
0
LINE
8
0
6
CONTINUOUS
10
546.109546
20
721.134052
11
546.109546
21
653.919169
0
ARC
8
0
6
CONTINUOUS
10
548.266631
20
653.863919
40
2.157792
50
178.532785
51
229.450395
0
LINE
8
0
6
CONTINUOUS
10
496.173154
20
628.280761
11
491.767764
21
623.355904
0
ARC
8
0
6
CONTINUOUS
10
493.565877
20
622.101701
40
2.192313
50
145.103807
51
235.743319
0
LINE
8
0
6
CONTINUOUS
10
492.331822
20
620.289702
11
505.560758
21
613.047805
0
ARC
8
0
6
CONTINUOUS
10
506.720596
20
616.572995
40
3.711090
50
251.788054
51
325.054836
0
LINE
8
0
6
CONTINUOUS
10
509.762578
20
614.447311
11
513.488528
21
618.672399
0
ARC
8
0
6
CONTINUOUS
10
511.491582
20
620.244335
40
2.541413
50
321.791243
51
407.182395
0
LINE
8
0
6
CONTINUOUS
10
513.218895
20
622.108515
11
499.376284
21
628.992619
0
ARC
8
0
6
CONTINUOUS
10
498.204503
20
626.702805
40
2.572221
50
62.899520
51
142.159860
0
ARC
8
0
6
CONTINUOUS
10
455.991404
20
671.612660
40
1.610289
50
64.159084
51
125.969982
0
LINE
8
0
6
CONTINUOUS
10
455.045582
20
672.915907
11
451.411853
21
669.459811
0
ARC
8
0
6
CONTINUOUS
10
452.316857
20
668.517055
40
1.306837
50
133.829571
51
220.811391
0
LINE
8
0
6
CONTINUOUS
10
451.327758
20
667.662945
11
459.453543
21
662.845462
0
ARC
8
0
6
CONTINUOUS
10
460.456414
20
664.420816
40
1.867482
50
237.519148
51
325.948814
0
LINE
8
0
6
CONTINUOUS
10
462.003693
20
663.375151
11
464.872995
21
666.447797
0
ARC
8
0
6
CONTINUOUS
10
463.897164
20
667.396346
40
1.360880
50
315.812246
51
401.283933
0
LINE
8
0
6
CONTINUOUS
10
464.919796
20
668.294242
11
456.693287
21
673.061931
0
ARC
8
0
6
CONTINUOUS
10
466.187296
20
682.431071
40
1.293463
50
62.899487
51
142.159915
0
LINE
8
0
6
CONTINUOUS
10
465.165814
20
683.224558
11
462.950534
21
680.748060
0
ARC
8
0
6
CONTINUOUS
10
463.856582
20
680.117136
40
1.104078
50
145.148650
51
235.254211
0
LINE
8
0
6
CONTINUOUS
10
463.227327
20
679.209927
11
469.886453
21
675.564532
0
ARC
8
0
6
CONTINUOUS
10
470.469688
20
677.337204
40
1.866153
50
251.788041
51
325.054847
0
LINE
8
0
6
CONTINUOUS
10
471.999376
20
676.268286
11
473.873002
21
678.392909
0
ARC
8
0
6
CONTINUOUS
10
472.868820
20
679.183370
40
1.277972
50
321.791232
51
407.182374
0
LINE
8
0
6
CONTINUOUS
10
473.737415
20
680.120789
11
466.776536
21
683.582522
0
LINE
8
0
6
CONTINUOUS
10
471.132150
20
689.330882
11
477.734067
21
686.136642
0
ARC
8
0
6
CONTINUOUS
10
478.083859
20
687.524863
40
1.431612
50
255.857486
51
328.172502
0
LINE
8
0
6
CONTINUOUS
10
479.300213
20
686.769884
11
480.464965
21
688.582292
0
ARC
8
0
6
CONTINUOUS
10
479.345522
20
688.775348
40
1.135967
50
350.215175
51
404.146805
0
LINE
8
0
6
CONTINUOUS
10
480.160644
20
689.566549
11
474.139328
21
692.668534
0
ARC
8
0
6
CONTINUOUS
10
473.389622
20
691.446462
40
1.433707
50
58.472044
51
137.864590
0
LINE
8
0
6
CONTINUOUS
10
472.326440
20
692.408315
11
470.914847
21
690.486012
0
ARC
8
0
6
CONTINUOUS
10
471.569126
20
690.011090
40
0.808475
50
144.025167
51
237.282685
0
LINE
8
0
6
CONTINUOUS
10
453.536269
20
698.099538
11
459.183137
21
695.367384
0
ARC
8
0
6
CONTINUOUS
10
459.482791
20
696.556623
40
1.226410
50
255.857499
51
328.172460
0
LINE
8
0
6
CONTINUOUS
10
460.524797
20
695.909859
11
461.522597
21
697.462483
0
ARC
8
0
6
CONTINUOUS
10
460.563614
20
697.627867
40
0.973139
50
350.215117
51
404.146912
0
LINE
8
0
6
CONTINUOUS
10
461.261896
20
698.305659
11
456.103657
21
700.963014
0
ARC
8
0
6
CONTINUOUS
10
455.461412
20
699.916114
40
1.228202
50
58.472012
51
137.864722
0
LINE
8
0
6
CONTINUOUS
10
454.550623
20
700.740095
11
453.341364
21
699.093329
0
ARC
8
0
6
CONTINUOUS
10
453.899449
20
698.686774
40
0.690468
50
143.927340
51
238.265054
0
LINE
8
0
6
CONTINUOUS
10
447.215606
20
692.799433
11
445.481750
21
690.861127
0
ARC
8
0
6
CONTINUOUS
10
446.189403
20
690.367503
40
0.862808
50
145.102253
51
235.756771
0
LINE
8
0
6
CONTINUOUS
10
445.703894
20
689.654257
11
450.910350
21
686.804094
0
ARC
8
0
6
CONTINUOUS
10
451.366836
20
688.191528
40
1.460599
50
251.788041
51
325.054838
0
LINE
8
0
6
CONTINUOUS
10
452.564089
20
687.354908
11
454.030537
21
689.017805
0
ARC
8
0
6
CONTINUOUS
10
453.244585
20
689.636482
40
1.000241
50
321.791242
51
407.182382
0
LINE
8
0
6
CONTINUOUS
10
453.924415
20
690.370180
11
448.476284
21
693.079604
0
ARC
8
0
6
CONTINUOUS
10
448.015098
20
692.178387
40
1.012366
50
62.899509
51
142.159898
0
LINE
8
0
6
CONTINUOUS
10
442.810667
20
706.313825
11
446.681034
21
704.019226
0
ARC
8
0
6
CONTINUOUS
10
447.158717
20
704.769572
40
0.889495
50
237.518517
51
325.948926
0
LINE
8
0
6
CONTINUOUS
10
447.895698
20
704.271516
11
449.262369
21
705.735042
0
ARC
8
0
6
CONTINUOUS
10
448.797573
20
706.186842
40
0.648197
50
315.812274
51
401.283937
0
LINE
8
0
6
CONTINUOUS
10
449.284660
20
706.614518
11
445.366310
21
708.885405
0
ARC
8
0
6
CONTINUOUS
10
445.031998
20
708.195103
40
0.766995
50
64.159114
51
125.969830
0
LINE
8
0
6
CONTINUOUS
10
444.581496
20
708.815852
11
442.850722
21
707.169687
0
ARC
8
0
6
CONTINUOUS
10
443.281782
20
706.720645
40
0.622456
50
133.829508
51
220.811446
0
LINE
8
0
6
CONTINUOUS
10
432.621907
20
698.330607
11
436.492274
21
696.036007
0
ARC
8
0
6
CONTINUOUS
10
436.969957
20
696.786353
40
0.889495
50
237.518517
51
325.948926
0
LINE
8
0
6
CONTINUOUS
10
437.706938
20
696.288297
11
439.073609
21
697.751822
0
ARC
8
0
6
CONTINUOUS
10
438.608813
20
698.203624
40
0.648197
50
315.812274
51
401.283937
0
LINE
8
0
6
CONTINUOUS
10
439.095900
20
698.631298
11
435.177550
21
700.902186
0
ARC
8
0
6
CONTINUOUS
10
434.843238
20
700.211884
40
0.766995
50
64.159114
51
125.969830
0
LINE
8
0
6
CONTINUOUS
10
434.392736
20
700.832634
11
432.661962
21
699.186468
0
ARC
8
0
6
CONTINUOUS
10
433.093022
20
698.737426
40
0.622456
50
133.829508
51
220.811446
0
LINE
8
0
6
CONTINUOUS
10
428.948726
20
690.473420
11
425.772118
21
692.615547
0
ARC
8
0
6
CONTINUOUS
10
424.488199
20
691.217694
40
1.898009
50
47.432715
51
88.611473
0
ARC
8
0
6
CONTINUOUS
10
424.580184
20
691.217693
40
1.898010
50
91.388538
51
132.567275
0
LINE
8
0
6
CONTINUOUS
10
423.296266
20
692.615547
11
420.119657
21
690.473420
0
ARC
8
0
6
CONTINUOUS
10
420.797815
20
689.543223
40
1.151158
50
126.093847
51
224.388228
0
LINE
8
0
6
CONTINUOUS
10
419.975179
20
688.737969
11
423.478859
21
686.071085
0
ARC
8
0
6
CONTINUOUS
10
424.578702
20
687.821063
40
2.066901
50
237.851076
51
268.766052
0
ARC
8
0
6
CONTINUOUS
10
424.489682
20
687.821060
40
2.066897
50
271.233915
51
302.149093
0
LINE
8
0
6
CONTINUOUS
10
425.589528
20
686.071088
11
429.093204
21
688.737969
0
ARC
8
0
6
CONTINUOUS
10
428.270569
20
689.543223
40
1.151157
50
315.611732
51
413.906192
0
LINE
8
0
6
CONTINUOUS
10
433.722785
20
679.820032
11
440.135859
21
676.017955
0
ARC
8
0
6
CONTINUOUS
10
440.927362
20
677.261258
40
1.473866
50
237.518640
51
325.948848
0
LINE
8
0
6
CONTINUOUS
10
442.148516
20
676.435992
11
444.413046
21
678.861006
0
ARC
8
0
6
CONTINUOUS
10
443.642893
20
679.609626
40
1.074043
50
315.812266
51
401.283910
0
LINE
8
0
6
CONTINUOUS
10
444.449982
20
680.318269
11
437.957403
21
684.081056
0
ARC
8
0
6
CONTINUOUS
10
437.403458
20
682.937255
40
1.270881
50
64.159066
51
125.970043
0
LINE
8
0
6
CONTINUOUS
10
436.656990
20
683.965809
11
433.789155
21
681.238168
0
ARC
8
0
6
CONTINUOUS
10
434.503409
20
680.494120
40
1.031390
50
133.829556
51
220.811387
0
ARC
8
0
6
CONTINUOUS
10
419.838773
20
668.256669
40
1.639339
50
126.093830
51
224.388219
0
LINE
8
0
6
CONTINUOUS
10
418.667275
20
667.109925
11
423.078669
21
663.276027
0
ARC
8
0
6
CONTINUOUS
10
424.595937
20
665.788380
40
2.934966
50
238.871271
51
268.794522
0
ARC
8
0
6
CONTINUOUS
10
424.472443
20
665.788392
40
2.934978
50
271.205538
51
301.128667
0
LINE
8
0
6
CONTINUOUS
10
425.989714
20
663.276027
11
430.401109
21
667.109925
0
ARC
8
0
6
CONTINUOUS
10
429.229610
20
668.256669
40
1.639339
50
315.611770
51
413.906182
0
LINE
8
0
6
CONTINUOUS
10
430.195360
20
669.581343
11
426.297096
21
672.624532
0
ARC
8
0
6
CONTINUOUS
10
424.468698
20
670.633886
40
2.702909
50
47.432702
51
88.611532
0
ARC
8
0
6
CONTINUOUS
10
424.599690
20
670.633873
40
2.702921
50
91.388567
51
132.567197
0
LINE
8
0
6
CONTINUOUS
10
422.771287
20
672.624532
11
418.873023
21
669.581343
0
LINE
8
0
6
CONTINUOUS
10
411.110981
20
684.081056
11
404.618401
21
680.318269
0
ARC
8
0
6
CONTINUOUS
10
405.425490
20
679.609626
40
1.074043
50
138.716109
51
224.187715
0
LINE
8
0
6
CONTINUOUS
10
404.655338
20
678.861006
11
406.919867
21
676.435992
0
ARC
8
0
6
CONTINUOUS
10
408.141021
20
677.261257
40
1.473865
50
214.051125
51
302.481387
0
LINE
8
0
6
CONTINUOUS
10
408.932524
20
676.017955
11
415.345598
21
679.820032
0
ARC
8
0
6
CONTINUOUS
10
414.564975
20
680.494120
40
1.031390
50
319.188607
51
406.170451
0
LINE
8
0
6
CONTINUOUS
10
415.279228
20
681.238168
11
412.411393
21
683.965809
0
ARC
8
0
6
CONTINUOUS
10
411.664925
20
682.937250
40
1.270885
50
54.030070
51
115.840820
0
LINE
8
0
6
CONTINUOUS
10
409.994775
20
697.751822
11
411.361446
21
696.288297
0
ARC
8
0
6
CONTINUOUS
10
412.098427
20
696.786356
40
0.889497
50
214.051192
51
302.481366
0
LINE
8
0
6
CONTINUOUS
10
412.576109
20
696.036007
11
416.446476
21
698.330607
0
ARC
8
0
6
CONTINUOUS
10
415.975360
20
698.737426
40
0.622457
50
319.188677
51
406.170369
0
LINE
8
0
6
CONTINUOUS
10
416.406421
20
699.186468
11
414.675647
21
700.832634
0
ARC
8
0
6
CONTINUOUS
10
414.225146
20
700.211889
40
0.766991
50
54.029998
51
115.841058
0
LINE
8
0
6
CONTINUOUS
10
413.890833
20
700.902186
11
409.972483
21
698.631298
0
ARC
8
0
6
CONTINUOUS
10
410.459572
20
698.203624
40
0.648198
50
138.716134
51
224.187657
0
ARC
8
0
6
CONTINUOUS
10
404.036386
20
708.195107
40
0.766991
50
54.029998
51
115.841058
0
LINE
8
0
6
CONTINUOUS
10
403.702073
20
708.885405
11
399.783723
21
706.614518
0
ARC
8
0
6
CONTINUOUS
10
400.270811
20
706.186842
40
0.648198
50
138.716134
51
224.187657
0
LINE
8
0
6
CONTINUOUS
10
399.806014
20
705.735042
11
401.172685
21
704.271516
0
ARC
8
0
6
CONTINUOUS
10
401.909667
20
704.769575
40
0.889497
50
214.051192
51
302.481366
0
LINE
8
0
6
CONTINUOUS
10
402.387349
20
704.019226
11
406.257715
21
706.313825
0
ARC
8
0
6
CONTINUOUS
10
405.786599
20
706.720645
40
0.622457
50
319.188677
51
406.170369
0
LINE
8
0
6
CONTINUOUS
10
406.217661
20
707.169687
11
404.486887
21
708.815852
0
ARC
8
0
6
CONTINUOUS
10
416.152952
20
716.362673
40
0.470929
50
319.188648
51
406.170445
0
LINE
8
0
6
CONTINUOUS
10
416.479078
20
716.702403
11
415.169632
21
717.947837
0
ARC
8
0
6
CONTINUOUS
10
414.828797
20
717.478200
40
0.580283
50
54.030099
51
115.840852
0
LINE
8
0
6
CONTINUOUS
10
414.575867
20
718.000459
11
411.611373
21
716.282381
0
ARC
8
0
6
CONTINUOUS
10
411.979888
20
715.958816
40
0.490404
50
138.716026
51
224.187775
0
LINE
8
0
6
CONTINUOUS
10
411.628239
20
715.616998
11
412.662216
21
714.509743
0
ARC
8
0
6
CONTINUOUS
10
413.219792
20
714.886557
40
0.672963
50
214.051152
51
302.480442
0
LINE
8
0
6
CONTINUOUS
10
413.581180
20
714.318863
11
416.509382
21
716.054886
0
LINE
8
0
6
CONTINUOUS
10
427.969034
20
710.392419
11
425.497391
21
712.059155
0
ARC
8
0
6
CONTINUOUS
10
424.498405
20
710.971518
40
1.476797
50
47.432739
51
88.611433
0
ARC
8
0
6
CONTINUOUS
10
424.569977
20
710.971521
40
1.476793
50
91.388517
51
132.567311
0
LINE
8
0
6
CONTINUOUS
10
423.570991
20
712.059155
11
421.099350
21
710.392419
0
ARC
8
0
6
CONTINUOUS
10
421.627007
20
709.668655
40
0.895687
50
126.093790
51
224.388245
0
LINE
8
0
6
CONTINUOUS
10
420.986935
20
709.042107
11
423.713055
21
706.967075
0
ARC
8
0
6
CONTINUOUS
10
424.568822
20
708.328682
40
1.608201
50
237.850724
51
268.766134
0
ARC
8
0
6
CONTINUOUS
10
424.499560
20
708.328687
40
1.608207
50
271.233922
51
302.149044
0
LINE
8
0
6
CONTINUOUS
10
425.355324
20
706.967072
11
428.081448
21
709.042107
0
ARC
8
0
6
CONTINUOUS
10
427.441375
20
709.668655
40
0.895688
50
315.611788
51
413.906178
0
ARC
8
0
6
CONTINUOUS
10
434.239586
20
717.478202
40
0.580281
50
64.159036
51
125.970014
0
LINE
8
0
6
CONTINUOUS
10
433.898751
20
717.947837
11
432.589305
21
716.702403
0
ARC
8
0
6
CONTINUOUS
10
432.915432
20
716.362673
40
0.470930
50
133.829607
51
220.811300
0
LINE
8
0
6
CONTINUOUS
10
432.559001
20
716.054886
11
435.487202
21
714.318863
0
ARC
8
0
6
CONTINUOUS
10
435.848591
20
714.886558
40
0.672964
50
237.519622
51
325.948784
0
LINE
8
0
6
CONTINUOUS
10
436.406166
20
714.509743
11
437.440145
21
715.616998
0
ARC
8
0
6
CONTINUOUS
10
437.088495
20
715.958816
40
0.490405
50
315.812303
51
401.283896
0
LINE
8
0
6
CONTINUOUS
10
437.457009
20
716.282381
11
434.492516
21
718.000459
0
ARC
8
0
6
CONTINUOUS
10
466.687112
20
743.638849
40
0.649880
50
352.042797
51
462.755209
0
LINE
8
0
6
CONTINUOUS
10
466.543628
20
744.272691
11
464.447357
21
743.206477
0
ARC
8
0
6
CONTINUOUS
10
464.757266
20
742.522248
40
0.751142
50
114.367312
51
183.020374
0
LINE
8
0
6
CONTINUOUS
10
464.007167
20
742.482670
11
464.179943
21
721.310337
0
ARC
8
0
6
CONTINUOUS
10
465.412237
20
721.202877
40
1.236972
50
175.016301
51
248.564020
0
LINE
8
0
6
CONTINUOUS
10
464.960172
20
720.051472
11
466.903443
21
719.215689
0
ARC
8
0
6
CONTINUOUS
10
466.648714
20
719.907441
40
0.737163
50
290.215651
51
363.500188
0
LINE
8
0
6
CONTINUOUS
10
467.384501
20
719.952446
11
467.330735
21
743.548883
0
ARC
8
0
6
CONTINUOUS
10
480.816467
20
739.373319
40
0.851069
50
351.289739
51
469.042497
0
LINE
8
0
6
CONTINUOUS
10
480.538789
20
740.177816
11
478.585565
21
739.228556
0
ARC
8
0
6
CONTINUOUS
10
479.093347
20
738.336810
40
1.026184
50
119.658262
51
182.453824
0
LINE
8
0
6
CONTINUOUS
10
478.068104
20
738.292875
11
478.454713
21
708.805813
0
ARC
8
0
6
CONTINUOUS
10
480.213766
20
708.348191
40
1.817605
50
165.417574
51
235.253994
0
LINE
8
0
6
CONTINUOUS
10
479.177842
20
706.854688
11
480.829063
21
705.789280
0
ARC
8
0
6
CONTINUOUS
10
480.415589
20
707.024350
40
1.302443
50
288.509415
51
358.695309
0
LINE
8
0
6
CONTINUOUS
10
481.717694
20
706.994694
11
481.657721
21
739.244435
0
LINE
8
0
6
CONTINUOUS
10
489.717316
20
737.722461
11
488.241870
21
736.999735
0
ARC
8
0
6
CONTINUOUS
10
488.915072
20
735.617451
40
1.537501
50
115.967089
51
180.829138
0
LINE
8
0
6
CONTINUOUS
10
487.377733
20
735.595202
11
486.902104
21
705.026732
0
ARC
8
0
6
CONTINUOUS
10
487.965788
20
704.977030
40
1.064844
50
177.324786
51
233.073674
0
LINE
8
0
6
CONTINUOUS
10
487.326042
20
704.125784
11
490.008679
21
702.312644
0
ARC
8
0
6
CONTINUOUS
10
489.552380
20
703.216679
40
1.012664
50
296.781697
51
362.755266
0
LINE
8
0
6
CONTINUOUS
10
490.563873
20
703.265358
11
490.563873
21
737.052806
0
ARC
8
0
6
CONTINUOUS
10
489.872310
20
737.048476
40
0.691577
50
0.358822
51
102.950849
0
ARC
8
0
6
CONTINUOUS
10
488.264313
20
746.217162
40
0.801030
50
168.431502
51
295.152930
0
LINE
8
0
6
CONTINUOUS
10
488.604780
20
745.492088
11
490.268311
21
746.272545
0
ARC
8
0
6
CONTINUOUS
10
489.381883
20
747.714523
40
1.692647
50
301.580314
51
354.391480
0
LINE
8
0
6
CONTINUOUS
10
491.066428
20
747.549099
11
491.066428
21
783.608122
0
ARC
8
0
6
CONTINUOUS
10
490.325131
20
783.725147
40
0.750477
50
351.029058
51
474.834448
0
LINE
8
0
6
CONTINUOUS
10
490.009933
20
784.406223
11
488.091309
21
783.712928
0
ARC
8
0
6
CONTINUOUS
10
488.448251
20
782.590813
40
1.177519
50
107.645706
51
180.656887
0
LINE
8
0
6
CONTINUOUS
10
487.270809
20
782.577313
11
487.479555
21
746.377800
0
ARC
8
0
6
CONTINUOUS
10
479.038552
20
753.587262
40
0.973810
50
175.237304
51
259.796005
0
LINE
8
0
6
CONTINUOUS
10
478.866038
20
752.628854
11
480.767243
21
752.921197
0
ARC
8
0
6
CONTINUOUS
10
480.597723
20
753.966203
40
1.058667
50
279.214214
51
362.961390
0
LINE
8
0
6
CONTINUOUS
10
481.654976
20
754.020897
11
481.654976
21
775.540407
0
ARC
8
0
6
CONTINUOUS
10
480.699788
20
775.628333
40
0.959226
50
354.740712
51
443.497344
0
LINE
8
0
6
CONTINUOUS
10
480.808420
20
776.581389
11
478.914660
21
775.831093
0
ARC
8
0
6
CONTINUOUS
10
479.505511
20
774.518773
40
1.439197
50
114.238881
51
177.142091
0
LINE
8
0
6
CONTINUOUS
10
478.068104
20
774.590530
11
478.068104
21
753.668116
0
LINE
8
0
6
CONTINUOUS
10
466.366158
20
772.272831
11
464.580155
21
771.055944
0
ARC
8
0
6
CONTINUOUS
10
464.776096
20
770.520640
40
0.570038
50
110.104443
51
184.363651
0
LINE
8
0
6
CONTINUOUS
10
464.207711
20
770.477268
11
464.096490
21
756.012919
0
ARC
8
0
6
CONTINUOUS
10
464.626676
20
755.981482
40
0.531117
50
176.606577
51
263.791866
0
LINE
8
0
6
CONTINUOUS
10
464.569240
20
755.453480
11
466.512005
21
754.552208
0
ARC
8
0
6
CONTINUOUS
10
466.451008
20
755.085223
40
0.536493
50
276.528454
51
365.421793
0
LINE
8
0
6
CONTINUOUS
10
466.985100
20
755.135915
11
466.939834
21
771.706332
0
ARC
8
0
6
CONTINUOUS
10
466.435257
20
771.769083
40
0.508465
50
352.910786
51
457.810439
0
ARC
8
0
6
CONTINUOUS
10
466.790109
20
819.279312
40
0.311444
50
347.445577
51
503.316054
0
LINE
8
0
6
CONTINUOUS
10
466.540348
20
819.465369
11
463.888989
21
816.901608
0
ARC
8
0
6
CONTINUOUS
10
464.594224
20
816.405926
40
0.862008
50
144.898116
51
181.305067
0
LINE
8
0
6
CONTINUOUS
10
463.732440
20
816.386293
11
464.107103
21
786.143119
0
ARC
8
0
6
CONTINUOUS
10
464.731763
20
786.050140
40
0.631542
50
171.533800
51
292.258933
0
LINE
8
0
6
CONTINUOUS
10
464.970986
20
785.465659
11
466.745135
21
786.440302
0
ARC
8
0
6
CONTINUOUS
10
466.490630
20
786.763683
40
0.411519
50
308.203155
51
361.685656
0
LINE
8
0
6
CONTINUOUS
10
466.901971
20
786.775787
11
467.094106
21
819.211613
0
LINE
8
0
6
CONTINUOUS
10
481.732996
20
795.170495
11
481.732996
21
837.869007
0
ARC
8
0
6
CONTINUOUS
10
480.765594
20
837.896344
40
0.967788
50
358.381391
51
469.914425
0
LINE
8
0
6
CONTINUOUS
10
480.435950
20
838.806259
11
478.744729
21
837.886973
0
ARC
8
0
6
CONTINUOUS
10
479.426694
20
836.514821
40
1.532278
50
116.427557
51
175.986799
0
LINE
8
0
6
CONTINUOUS
10
477.898172
20
836.622059
11
477.898172
21
793.834905
0
ARC
8
0
6
CONTINUOUS
10
478.580615
20
793.663597
40
0.703616
50
165.908612
51
279.447304
0
LINE
8
0
6
CONTINUOUS
10
478.696106
20
792.969524
11
480.837817
21
793.907100
0
ARC
8
0
6
CONTINUOUS
10
480.277418
20
795.253007
40
1.457914
50
292.605513
51
356.755583
0
ARC
8
0
6
CONTINUOUS
10
489.038111
20
849.033994
40
1.749922
50
15.284661
51
165.591264
0
LINE
8
0
6
CONTINUOUS
10
487.343233
20
849.469441
11
487.162916
21
793.567091
0
ARC
8
0
6
CONTINUOUS
10
489.058519
20
793.657958
40
1.897780
50
182.744419
51
361.192789
0
LINE
8
0
6
CONTINUOUS
10
490.955887
20
793.697463
11
490.726135
21
849.495300
0
LINE
8
0
6
CONTINUOUS
10
534.026566
20
796.128932
11
530.231428
21
795.113571
0
ARC
8
0
6
CONTINUOUS
10
530.739731
20
793.724902
40
1.478774
50
110.104473
51
184.363601
0
LINE
8
0
6
CONTINUOUS
10
529.265243
20
793.612388
11
529.865117
21
751.641299
0
ARC
8
0
6
CONTINUOUS
10
531.245810
20
751.534897
40
1.384787
50
175.593294
51
263.632229
0
LINE
8
0
6
CONTINUOUS
10
531.092224
20
750.158654
11
534.404919
21
750.158654
0
ARC
8
0
6
CONTINUOUS
10
534.246681
20
751.541383
40
1.391754
50
276.528452
51
365.421845
0
LINE
8
0
6
CONTINUOUS
10
535.632208
20
751.672887
11
535.514779
21
794.659338
0
ARC
8
0
6
CONTINUOUS
10
534.205822
20
794.822128
40
1.319041
50
352.910787
51
457.810540
0
ARC
8
0
6
CONTINUOUS
10
548.683313
20
811.546170
40
1.854186
50
354.740712
51
443.497344
0
LINE
8
0
6
CONTINUOUS
10
548.893298
20
813.388427
11
547.715309
21
813.388427
0
ARC
8
0
6
CONTINUOUS
10
547.925294
20
811.546170
40
1.854186
50
96.502656
51
185.259288
0
LINE
8
0
6
CONTINUOUS
10
546.078914
20
811.376209
11
546.078914
21
737.101083
0
ARC
8
0
6
CONTINUOUS
10
547.954791
20
736.944791
40
1.882377
50
175.237295
51
259.796015
0
LINE
8
0
6
CONTINUOUS
10
547.621322
20
735.092187
11
548.799311
21
735.008852
0
ARC
8
0
6
CONTINUOUS
10
548.711836
20
736.833889
40
1.827131
50
272.744114
51
365.775305
0
LINE
8
0
6
CONTINUOUS
10
550.529693
20
737.017748
11
550.529693
21
811.376209
0
LINE
8
0
6
CONTINUOUS
10
562.898175
20
796.640741
11
562.898175
21
888.587101
0
ARC
8
0
6
CONTINUOUS
10
560.374309
20
888.536498
40
2.524374
50
1.148615
51
177.503779
0
LINE
8
0
6
CONTINUOUS
10
557.852330
20
888.646443
11
558.354107
21
796.640741
0
ARC
8
0
6
CONTINUOUS
10
560.626141
20
797.725181
40
2.517568
50
205.515120
51
334.484879
0
LINE
8
0
6
CONTINUOUS
10
558.557171
20
779.503746
11
558.557171
21
708.879535
0
ARC
8
0
6
CONTINUOUS
10
560.828193
20
708.781798
40
2.273125
50
177.535708
51
362.464287
0
LINE
8
0
6
CONTINUOUS
10
563.099215
20
708.879534
11
562.790844
21
779.545196
0
ARC
8
0
6
CONTINUOUS
10
560.677842
20
779.132839
40
2.152862
50
11.042606
51
170.079264
0
ARC
8
0
6
CONTINUOUS
10
548.062566
20
827.455462
40
2.780836
50
159.768682
51
379.329948
0
LINE
8
0
6
CONTINUOUS
10
550.686641
20
828.375940
11
550.214630
21
943.008788
0
ARC
8
0
6
CONTINUOUS
10
548.029182
20
942.595986
40
2.224093
50
10.696394
51
172.829740
0
LINE
8
0
6
CONTINUOUS
10
545.822482
20
942.873594
11
545.453296
21
828.417106
0
ARC
8
0
6
CONTINUOUS
10
530.763242
20
830.861203
40
0.831037
50
169.833618
51
299.684219
0
LINE
8
0
6
CONTINUOUS
10
531.174788
20
830.139224
11
535.009697
21
832.881737
0
ARC
8
0
6
CONTINUOUS
10
534.349469
20
833.720642
40
1.067549
50
308.203167
51
361.685614
0
LINE
8
0
6
CONTINUOUS
10
535.416556
20
833.752044
11
535.375667
21
919.944297
0
ARC
8
0
6
CONTINUOUS
10
534.587045
20
920.119916
40
0.807940
50
347.445590
51
503.315973
0
LINE
8
0
6
CONTINUOUS
10
533.939123
20
920.602580
11
530.073766
21
915.117346
0
ARC
8
0
6
CONTINUOUS
10
531.024535
20
914.469193
40
1.150680
50
145.717195
51
180.586318
0
LINE
8
0
6
CONTINUOUS
10
529.873915
20
914.457418
11
529.945252
21
831.007887
0
LINE
8
0
6
CONTINUOUS
10
458.511541
20
865.682020
11
456.413456
21
863.527592
0
ARC
8
0
6
CONTINUOUS
10
457.510681
20
862.556454
40
1.465268
50
138.488425
51
211.679010
0
ARC
8
0
6
CONTINUOUS
10
412.654645
20
834.858636
40
51.253164
50
-2.760538
51
31.695051
0
ARC
8
0
6
CONTINUOUS
10
464.956963
20
832.208624
40
1.123401
50
170.698993
51
274.566611
0
LINE
8
0
6
CONTINUOUS
10
465.046406
20
831.088790
11
466.685843
21
831.442194
0
ARC
8
0
6
CONTINUOUS
10
466.314349
20
832.606745
40
1.222370
50
287.692798
51
365.289023
0
ARC
8
0
6
CONTINUOUS
10
384.916067
20
830.952255
40
82.634344
50
1.225386
51
24.591559
0
ARC
8
0
6
CONTINUOUS
10
459.180778
20
865.047574
40
0.922170
50
18.506041
51
136.528777
0
ARC
8
0
6
CONTINUOUS
10
469.140627
20
897.455411
40
1.110347
50
26.219989
51
158.346696
0
LINE
8
0
6
CONTINUOUS
10
468.108633
20
897.865118
11
466.910155
21
895.541446
0
ARC
8
0
6
CONTINUOUS
10
468.515248
20
894.735418
40
1.796108
50
153.335598
51
211.294408
0
ARC
8
0
6
CONTINUOUS
10
406.299853
20
856.197202
40
71.388309
50
-0.304199
51
31.787507
0
ARC
8
0
6
CONTINUOUS
10
478.977944
20
855.643874
40
1.302504
50
172.309237
51
281.862523
0
LINE
8
0
6
CONTINUOUS
10
479.245692
20
854.369186
11
480.649394
21
854.853008
0
ARC
8
0
6
CONTINUOUS
10
480.045387
20
856.229967
40
1.503609
50
293.684827
51
364.076231
0
ARC
8
0
6
CONTINUOUS
10
396.817629
20
855.474658
40
84.731949
50
0.583024
51
30.082293
0
ARC
8
0
6
CONTINUOUS
10
488.083408
20
860.020189
40
0.831909
50
182.186475
51
259.262305
0
LINE
8
0
6
CONTINUOUS
10
487.928413
20
859.202846
11
490.072921
21
859.783389
0
ARC
8
0
6
CONTINUOUS
10
490.013276
20
860.490644
40
0.709767
50
274.820468
51
363.871837
0
LINE
8
0
6
CONTINUOUS
10
490.721423
20
860.538572
11
491.498163
21
890.347970
0
ARC
8
0
6
CONTINUOUS
10
490.861147
20
890.346485
40
0.637018
50
0.133595
51
84.597800
0
LINE
8
0
6
CONTINUOUS
10
490.921120
20
890.980674
11
488.055064
21
889.856332
0
ARC
8
0
6
CONTINUOUS
10
488.237056
20
889.031711
40
0.844463
50
102.445502
51
181.021283
0
LINE
8
0
6
CONTINUOUS
10
487.392726
20
889.016660
11
487.252104
21
859.988450
0
LINE
8
0
6
CONTINUOUS
10
433.979871
20
881.867795
11
433.685530
21
877.939260
0
ARC
8
0
6
CONTINUOUS
10
435.154586
20
877.726737
40
1.484349
50
171.768303
51
252.279646
0
ARC
8
0
6
CONTINUOUS
10
428.441616
20
847.877852
40
29.116138
50
44.676732
51
77.582039
0
ARC
8
0
6
CONTINUOUS
10
449.939055
20
869.215200
40
1.174205
50
227.493000
51
359.894245
0
LINE
8
0
6
CONTINUOUS
10
451.113258
20
869.213032
11
451.873913
21
873.603350
0
ARC
8
0
6
CONTINUOUS
10
450.212158
20
873.926863
40
1.692954
50
348.983371
51
406.045295
0
ARC
8
0
6
CONTINUOUS
10
428.467879
20
849.624623
40
34.301844
50
48.074295
51
78.347701
0
ARC
8
0
6
CONTINUOUS
10
435.286211
20
881.916896
40
1.307262
50
85.187217
51
182.152575
0
ARC
8
0
6
CONTINUOUS
10
421.625374
20
881.773242
40
1.984089
50
133.820017
51
238.495532
0
ARC
8
0
6
CONTINUOUS
10
425.283247
20
888.697452
40
9.811873
50
241.414464
51
265.621679
0
ARC
8
0
6
CONTINUOUS
10
423.785141
20
888.697438
40
9.811859
50
274.378303
51
298.585554
0
ARC
8
0
6
CONTINUOUS
10
427.443010
20
881.773242
40
1.984088
50
301.504443
51
406.180007
0
ARC
8
0
6
CONTINUOUS
10
424.159792
20
876.906367
40
7.833123
50
53.521187
51
87.260391
0
ARC
8
0
6
CONTINUOUS
10
424.908591
20
876.906366
40
7.833123
50
92.739611
51
126.478812
0
ARC
8
0
6
CONTINUOUS
10
398.486790
20
893.937937
40
2.597326
50
247.900549
51
300.266684
0
LINE
8
0
6
CONTINUOUS
10
397.509636
20
891.531431
11
395.489822
21
893.830555
0
ARC
8
0
6
CONTINUOUS
10
394.516372
20
893.136565
40
1.195503
50
35.485733
51
87.059858
0
ARC
8
0
6
CONTINUOUS
10
391.118349
20
865.551922
40
28.985742
50
83.145620
51
99.459668
0
ARC
8
0
6
CONTINUOUS
10
386.523969
20
893.455227
40
0.708845
50
103.836520
51
181.676578
0
LINE
8
0
6
CONTINUOUS
10
385.815426
20
893.434487
11
385.766127
21
892.295199
0
ARC
8
0
6
CONTINUOUS
10
386.460881
20
892.276753
40
0.694999
50
178.479197
51
274.211736
0
ARC
8
0
6
CONTINUOUS
10
392.131507
20
869.568879
40
22.720673
50
86.429500
51
104.319779
0
ARC
8
0
6
CONTINUOUS
10
393.267341
20
891.049495
40
1.228099
50
27.816375
51
76.862498
0
LINE
8
0
6
CONTINUOUS
10
394.353530
20
891.622574
11
395.614596
21
889.411575
0
ARC
8
0
6
CONTINUOUS
10
397.985127
20
891.031824
40
2.871345
50
214.352453
51
301.767072
0
ARC
8
0
6
CONTINUOUS
10
422.690868
20
845.660115
40
48.795422
50
87.835048
51
118.381031
0
ARC
8
0
6
CONTINUOUS
10
426.377514
20
845.660112
40
48.795425
50
61.618971
51
92.164952
0
ARC
8
0
6
CONTINUOUS
10
451.083256
20
891.031823
40
2.871344
50
238.232919
51
325.647557
0
LINE
8
0
6
CONTINUOUS
10
453.453786
20
889.411575
11
454.714852
21
891.622574
0
ARC
8
0
6
CONTINUOUS
10
455.801049
20
891.049487
40
1.228108
50
103.137702
51
152.183426
0
ARC
8
0
6
CONTINUOUS
10
456.936873
20
869.568842
40
22.720711
50
75.680237
51
93.570486
0
ARC
8
0
6
CONTINUOUS
10
462.607502
20
892.276754
40
0.695000
50
265.788322
51
361.520746
0
LINE
8
0
6
CONTINUOUS
10
463.302257
20
892.295199
11
463.252957
21
893.434487
0
ARC
8
0
6
CONTINUOUS
10
462.544413
20
893.455226
40
0.708847
50
358.323517
51
436.163384
0
ARC
8
0
6
CONTINUOUS
10
457.950035
20
865.551958
40
28.985707
50
80.540322
51
96.854390
0
ARC
8
0
6
CONTINUOUS
10
454.552014
20
893.136562
40
1.195506
50
92.940210
51
144.514200
0
LINE
8
0
6
CONTINUOUS
10
453.578562
20
893.830555
11
451.558748
21
891.531431
0
ARC
8
0
6
CONTINUOUS
10
450.581593
20
893.937931
40
2.597320
50
239.733255
51
292.099513
0
ARC
8
0
6
CONTINUOUS
10
422.445360
20
834.068204
40
63.564943
50
65.036386
51
88.116842
0
ARC
8
0
6
CONTINUOUS
10
426.623021
20
834.068212
40
63.564936
50
91.883156
51
114.963615
0
ARC
8
0
6
CONTINUOUS
10
425.239671
20
925.634136
40
9.906422
50
223.714090
51
265.916259
0
ARC
8
0
6
CONTINUOUS
10
423.828711
20
925.634139
40
9.906425
50
274.083748
51
316.285905
0
ARC
8
0
6
CONTINUOUS
10
429.699779
20
919.956790
40
1.740059
50
317.810915
51
402.298207
0
ARC
8
0
6
CONTINUOUS
10
424.002642
20
914.425582
40
9.679817
50
43.819928
51
86.852125
0
ARC
8
0
6
CONTINUOUS
10
425.065741
20
914.425581
40
9.679818
50
93.147877
51
136.180069
0
ARC
8
0
6
CONTINUOUS
10
419.368604
20
919.956790
40
1.740060
50
137.701816
51
222.189063
0
ARC
8
0
6
CONTINUOUS
10
424.391930
20
868.407626
40
68.086095
50
89.880283
51
121.999018
0
ARC
8
0
6
CONTINUOUS
10
424.676455
20
868.407633
40
68.086088
50
58.000980
51
90.119718
0
ARC
8
0
6
CONTINUOUS
10
461.189748
20
927.387641
40
1.312969
50
250.690937
51
342.943803
0
ARC
8
0
6
CONTINUOUS
10
423.846596
20
942.967263
40
41.769690
50
337.529454
51
345.023978
0
ARC
8
0
6
CONTINUOUS
10
466.601755
20
931.825706
40
2.429221
50
65.222507
51
171.772003
0
LINE
8
0
6
CONTINUOUS
10
467.619830
20
934.031298
11
472.744930
21
932.371252
0
ARC
8
0
6
CONTINUOUS
10
472.617878
20
933.944861
40
1.578730
50
274.615952
51
356.990245
0
LINE
8
0
6
CONTINUOUS
10
474.194430
20
933.861968
11
476.625791
21
944.547108
0
ARC
8
0
6
CONTINUOUS
10
475.078247
20
944.996817
40
1.611562
50
343.796363
51
428.040092
0
ARC
8
0
6
CONTINUOUS
10
475.158935
20
945.355978
40
1.249701
50
65.312175
51
178.746267
0
LINE
8
0
6
CONTINUOUS
10
473.909533
20
945.383322
11
472.448891
21
936.169768
0
ARC
8
0
6
CONTINUOUS
10
471.731619
20
936.220575
40
0.719069
50
272.699607
51
355.948310
0
LINE
8
0
6
CONTINUOUS
10
471.765487
20
935.502304
11
466.418967
21
936.280237
0
ARC
8
0
6
CONTINUOUS
10
465.439665
20
933.102312
40
3.325392
50
72.872903
51
163.340378
0
ARC
8
0
6
CONTINUOUS
10
432.711163
20
942.308578
40
30.673793
50
339.992996
51
344.391985
0
ARC
8
0
6
CONTINUOUS
10
460.096036
20
932.315270
40
1.522657
50
231.057737
51
340.779267
0
ARC
8
0
6
CONTINUOUS
10
423.082353
20
861.665033
40
78.266203
50
62.568211
51
88.937103
0
ARC
8
0
6
CONTINUOUS
10
425.986029
20
861.665032
40
78.266204
50
91.062898
51
117.431789
0
ARC
8
0
6
CONTINUOUS
10
388.972347
20
932.315271
40
1.522657
50
199.220754
51
308.942242
0
ARC
8
0
6
CONTINUOUS
10
416.357098
20
942.308538
40
30.673665
50
195.608006
51
200.007014
0
ARC
8
0
6
CONTINUOUS
10
383.628718
20
933.102313
40
3.325391
50
16.659605
51
107.127113
0
LINE
8
0
6
CONTINUOUS
10
382.649416
20
936.280237
11
377.302896
21
935.502304
0
ARC
8
0
6
CONTINUOUS
10
377.336765
20
936.220576
40
0.719070
50
184.051761
51
267.300321
0
LINE
8
0
6
CONTINUOUS
10
376.619493
20
936.169768
11
375.158850
21
945.383322
0
ARC
8
0
6
CONTINUOUS
10
373.909448
20
945.355979
40
1.249701
50
1.253717
51
114.687842
0
ARC
8
0
6
CONTINUOUS
10
373.990136
20
944.996817
40
1.611561
50
111.959901
51
196.203643
0
LINE
8
0
6
CONTINUOUS
10
372.442592
20
944.547108
11
374.873953
21
933.861968
0
ARC
8
0
6
CONTINUOUS
10
376.450504
20
933.944861
40
1.578730
50
183.009752
51
265.384051
0
LINE
8
0
6
CONTINUOUS
10
376.323454
20
932.371252
11
381.448553
21
934.031298
0
ARC
8
0
6
CONTINUOUS
10
382.466629
20
931.825706
40
2.429221
50
8.227992
51
114.777499
0
ARC
8
0
6
CONTINUOUS
10
425.221722
20
942.967241
40
41.769621
50
194.976016
51
202.470552
0
ARC
8
0
6
CONTINUOUS
10
387.878635
20
927.387641
40
1.312968
50
197.056166
51
289.309094
0
ARC
8
0
6
CONTINUOUS
10
388.752552
20
908.822451
40
1.429493
50
135.196277
51
194.653262
0
LINE
8
0
6
CONTINUOUS
10
387.369553
20
908.460834
11
388.515000
21
903.753232
0
ARC
8
0
6
CONTINUOUS
10
389.478468
20
903.839380
40
0.967310
50
185.109400
51
307.941998
0
ARC
8
0
6
CONTINUOUS
10
430.905831
20
856.224953
40
62.147978
50
108.253993
51
131.073161
0
ARC
8
0
6
CONTINUOUS
10
410.940877
20
916.411413
40
1.267972
50
293.142833
51
367.794336
0
LINE
8
0
6
CONTINUOUS
10
412.197135
20
916.583373
11
411.853924
21
920.928109
0
ARC
8
0
6
CONTINUOUS
10
410.771349
20
920.967314
40
1.083284
50
357.925914
51
456.155381
0
ARC
8
0
6
CONTINUOUS
10
421.891010
20
873.358203
40
49.965835
50
102.995232
51
133.119437
0
ARC
8
0
6
CONTINUOUS
10
335.886193
20
920.318225
40
40.123667
50
-1.422396
51
9.844636
0
ARC
8
0
6
CONTINUOUS
10
376.701538
20
919.046563
40
0.756089
50
158.616651
51
330.690283
0
ARC
8
0
6
CONTINUOUS
10
398.570847
20
899.822075
40
28.378713
50
121.880012
51
138.364927
0
ARC
8
0
6
CONTINUOUS
10
382.876378
20
924.701885
40
1.053759
50
312.100594
51
402.392577
0
ARC
8
0
6
CONTINUOUS
10
407.858171
20
939.649547
40
28.080417
50
202.346572
51
210.465246
0
ARC
8
0
6
CONTINUOUS
10
380.957439
20
928.642365
40
0.986251
50
19.596355
51
113.107856
0
ARC
8
0
6
CONTINUOUS
10
372.666675
20
949.927624
40
21.857193
50
279.446434
51
291.198871
0
ARC
8
0
6
CONTINUOUS
10
376.280746
20
927.460522
40
0.906698
50
91.690540
51
198.125210
0
LINE
8
0
6
CONTINUOUS
10
351.211687
20
943.227530
11
350.176458
21
943.116940
0
ARC
8
0
6
CONTINUOUS
10
350.575260
20
941.622465
40
1.546771
50
104.941302
51
204.790868
0
ARC
8
0
6
CONTINUOUS
10
284.579429
20
916.527156
40
69.063147
50
7.481009
51
20.730734
0
ARC
8
0
6
CONTINUOUS
10
119.287339
20
887.878890
40
236.778304
50
3.059500
51
9.146987
0
ARC
8
0
6
CONTINUOUS
10
357.051791
20
900.595896
40
1.326023
50
183.434746
51
275.372827
0
LINE
8
0
6
CONTINUOUS
10
357.175954
20
899.275699
11
358.479144
21
899.319336
0
ARC
8
0
6
CONTINUOUS
10
358.039916
20
900.778496
40
1.523833
50
286.752578
51
362.669127
0
ARC
8
0
6
CONTINUOUS
10
83.255592
20
884.039981
40
276.817345
50
3.481375
51
8.007513
0
ARC
8
0
6
CONTINUOUS
10
268.631313
20
910.898241
40
89.510976
50
7.512709
51
20.577664
0
ARC
8
0
6
CONTINUOUS
10
351.267226
20
942.014994
40
1.213806
50
16.476930
51
92.622536
0
LINE
8
0
6
CONTINUOUS
10
364.263729
20
971.256961
11
364.263729
21
971.210858
0
LINE
8
0
6
CONTINUOUS
10
364.263729
20
971.210858
11
369.671341
21
955.888810
0
ARC
8
0
6
CONTINUOUS
10
370.413970
20
956.063408
40
0.762877
50
193.230412
51
266.210840
0
LINE
8
0
6
CONTINUOUS
10
370.363555
20
955.302198
11
371.961901
21
955.302198
0
ARC
8
0
6
CONTINUOUS
10
371.808011
20
956.203751
40
0.914592
50
279.686709
51
385.555895
0
LINE
8
0
6
CONTINUOUS
10
372.633125
20
956.598297
11
366.731122
21
972.147487
0
ARC
8
0
6
CONTINUOUS
10
366.054545
20
971.964307
40
0.700935
50
15.149346
51
108.439288
0
LINE
8
0
6
CONTINUOUS
10
365.832839
20
972.629256
11
364.728884
21
972.448219
0
ARC
8
0
6
CONTINUOUS
10
365.180682
20
971.585359
40
0.973986
50
117.636815
51
199.704466
0
ARC
8
0
6
CONTINUOUS
10
333.826563
20
973.909935
40
2.130704
50
52.517592
51
221.836513
0
ARC
8
0
6
CONTINUOUS
10
212.825152
20
883.145152
40
149.137395
50
27.646017
51
36.803248
0
ARC
8
0
6
CONTINUOUS
10
345.875251
20
952.939694
40
1.111377
50
212.286888
51
319.605629
0
LINE
8
0
6
CONTINUOUS
10
346.721678
20
952.219471
11
347.513368
21
953.080226
0
ARC
8
0
6
CONTINUOUS
10
346.120874
20
954.254562
40
1.821567
50
319.857962
51
394.553135
0
ARC
8
0
6
CONTINUOUS
10
226.493337
20
894.762839
40
135.407526
50
26.550280
51
36.655130
0
LINE
8
0
6
CONTINUOUS
10
356.769953
20
990.073356
11
355.855198
21
989.313427
0
ARC
8
0
6
CONTINUOUS
10
356.576190
20
988.552394
40
1.048333
50
133.452463
51
213.434183
0
ARC
8
0
6
CONTINUOUS
10
291.935651
20
944.704813
40
77.060711
50
28.907773
51
34.159940
0
ARC
8
0
6
CONTINUOUS
10
359.999178
20
982.219710
40
0.659645
50
203.559533
51
311.238038
0
LINE
8
0
6
CONTINUOUS
10
360.434009
20
981.723672
11
361.306466
21
982.480163
0
ARC
8
0
6
CONTINUOUS
10
360.574586
20
983.230201
40
1.047954
50
314.298035
51
385.491887
0
ARC
8
0
6
CONTINUOUS
10
330.441808
20
969.119662
40
34.320916
50
25.104884
51
37.354247
0
ARC
8
0
6
CONTINUOUS
10
357.189082
20
989.584985
40
0.643563
50
33.862305
51
130.636837
0
ARC
8
0
6
CONTINUOUS
10
359.054960
20
1026.091541
40
19.004788
50
241.118045
51
288.720940
0
ARC
8
0
6
CONTINUOUS
10
365.799650
20
1006.963958
40
1.299596
50
-24.827034
51
119.752486
0
ARC
8
0
6
CONTINUOUS
10
371.268319
20
1005.857238
40
4.325720
50
172.547749
51
279.171850
0
ARC
8
0
6
CONTINUOUS
10
371.016135
20
1003.365899
40
2.012929
50
297.892853
51
355.256359
0
ARC
8
0
6
CONTINUOUS
10
378.564143
20
1002.832624
40
5.554100
50
102.523050
51
176.213264
0
ARC
8
0
6
CONTINUOUS
10
381.826614
20
989.414944
40
19.361927
50
86.292924
51
103.338235
0
ARC
8
0
6
CONTINUOUS
10
383.172538
20
1009.860755
40
1.128325
50
265.217717
51
436.774657
0
ARC
8
0
6
CONTINUOUS
10
384.063011
20
1045.724785
40
34.771380
50
258.885018
51
268.957992
0
ARC
8
0
6
CONTINUOUS
10
378.564144
20
1017.027598
40
5.554101
50
183.786747
51
257.476939
0
ARC
8
0
6
CONTINUOUS
10
371.016135
20
1016.494323
40
2.012930
50
4.743649
51
62.107139
0
ARC
8
0
6
CONTINUOUS
10
371.268319
20
1014.002984
40
4.325720
50
80.828150
51
187.452252
0
ARC
8
0
6
CONTINUOUS
10
365.799650
20
1012.896263
40
1.299596
50
-119.752496
51
24.827044
0
ARC
8
0
6
CONTINUOUS
10
359.054961
20
993.768675
40
19.004793
50
71.279068
51
118.881948
0
ARC
8
0
6
CONTINUOUS
10
350.196355
20
1009.932941
40
0.574568
50
123.944618
51
236.515121
0
LINE
8
0
6
CONTINUOUS
10
349.879356
20
1009.453733
11
349.875521
21
1009.450632
0
LINE
8
0
6
CONTINUOUS
10
406.579844
20
1001.018169
11
411.401925
21
1003.548269
0
LINE
8
0
6
CONTINUOUS
10
411.401925
20
1003.548269
11
416.222386
21
1006.083037
0
ARC
8
0
6
CONTINUOUS
10
415.395837
20
1007.321239
40
1.488736
50
303.725676
51
435.306297
0
ARC
8
0
6
CONTINUOUS
10
417.136843
20
960.373665
40
48.406826
50
91.613958
51
133.961446
0
ARC
8
0
6
CONTINUOUS
10
389.142117
20
989.778903
40
7.811892
50
135.880159
51
207.628084
0
ARC
8
0
6
CONTINUOUS
10
383.638787
20
986.929844
40
1.615117
50
208.616568
51
365.416907
0
ARC
8
0
6
CONTINUOUS
10
396.236138
20
985.158845
40
11.156508
50
105.328136
51
170.072159
0
ARC
8
0
6
CONTINUOUS
10
393.014413
20
996.633704
40
0.765380
50
290.859819
51
380.285941
0
ARC
8
0
6
CONTINUOUS
10
397.232050
20
998.410515
40
3.812163
50
149.630919
51
203.358353
0
ARC
8
0
6
CONTINUOUS
10
400.263249
20
996.418424
40
7.436912
50
55.861471
51
148.195693
0
ARC
8
0
6
CONTINUOUS
10
401.654790
20
999.798617
40
3.929563
50
26.310855
51
44.929809
0
ARC
8
0
6
CONTINUOUS
10
406.069772
20
1001.792876
40
0.927546
50
195.797655
51
303.359821
0
ARC
8
0
6
CONTINUOUS
10
421.156816
20
1004.738248
40
1.048925
50
331.687742
51
492.881386
0
ARC
8
0
6
CONTINUOUS
10
159.905043
20
1299.669813
40
392.952784
50
309.926360
51
311.531080
0
LINE
8
0
6
CONTINUOUS
10
412.103124
20
998.326126
11
411.857715
21
998.129053
0
LINE
8
0
6
CONTINUOUS
10
411.857715
20
998.129053
11
411.612895
21
997.930877
0
LINE
8
0
6
CONTINUOUS
10
411.612895
20
997.930877
11
411.368667
21
997.731599
0
ARC
8
0
6
CONTINUOUS
10
411.575598
20
997.568537
40
0.263457
50
141.761876
51
265.243427
0
ARC
8
0
6
CONTINUOUS
10
411.530382
20
994.013651
40
3.292420
50
-49.436145
51
89.593304
0
ARC
8
0
6
CONTINUOUS
10
406.935977
20
998.696117
40
9.847395
50
256.494111
51
313.155665
0
ARC
8
0
6
CONTINUOUS
10
404.424965
20
988.091333
40
1.051146
50
78.409056
51
132.265267
0
ARC
8
0
6
CONTINUOUS
10
390.279580
20
999.865974
40
17.364323
50
289.483760
51
320.706304
0
ARC
8
0
6
CONTINUOUS
10
396.569642
20
982.284596
40
1.309913
50
112.362279
51
246.760371
0
ARC
8
0
6
CONTINUOUS
10
393.056302
20
1010.653495
40
29.723953
50
275.785827
51
347.540893
0
ARC
8
0
6
CONTINUOUS
10
424.404182
20
985.923186
40
0.796414
50
80.604788
51
168.214763
0
ARC
8
0
6
CONTINUOUS
10
411.175799
20
987.516199
40
12.530661
50
331.400994
51
353.445512
0
ARC
8
0
6
CONTINUOUS
10
412.499837
20
988.582118
40
11.981658
50
270.940610
51
323.873340
0
ARC
8
0
6
CONTINUOUS
10
416.505134
20
976.748666
40
3.811427
50
182.204208
51
290.918531
0
ARC
8
0
6
CONTINUOUS
10
418.789402
20
970.783265
40
2.576368
50
55.157019
51
111.003515
0
ARC
8
0
6
CONTINUOUS
10
418.334578
20
971.114815
40
2.625131
50
-21.289761
51
42.779343
0
ARC
8
0
6
CONTINUOUS
10
425.989586
20
967.489036
40
5.854650
50
152.838669
51
255.606034
0
ARC
8
0
6
CONTINUOUS
10
423.078797
20
967.489036
40
5.854650
50
284.393958
51
387.161340
0
ARC
8
0
6
CONTINUOUS
10
430.733804
20
971.114815
40
2.625130
50
137.220636
51
201.289783
0
ARC
8
0
6
CONTINUOUS
10
430.278981
20
970.783263
40
2.576370
50
68.996503
51
124.842962
0
ARC
8
0
6
CONTINUOUS
10
432.563248
20
976.748667
40
3.811428
50
249.081485
51
357.795777
0
ARC
8
0
6
CONTINUOUS
10
436.568546
20
988.582117
40
11.981657
50
216.126659
51
269.059391
0
ARC
8
0
6
CONTINUOUS
10
437.892584
20
987.516199
40
12.530660
50
186.554487
51
208.599006
0
ARC
8
0
6
CONTINUOUS
10
424.664200
20
985.923184
40
0.796416
50
11.785340
51
99.395110
0
ARC
8
0
6
CONTINUOUS
10
427.911567
20
1004.738249
40
1.048924
50
47.118165
51
208.312332
0
ARC
8
0
6
CONTINUOUS
10
456.012081
20
1010.653495
40
29.723953
50
192.459107
51
264.214174
0
ARC
8
0
6
CONTINUOUS
10
452.498741
20
982.284596
40
1.309914
50
293.239650
51
427.637725
0
ARC
8
0
6
CONTINUOUS
10
458.788804
20
999.865974
40
17.364324
50
219.293697
51
250.516240
0
ARC
8
0
6
CONTINUOUS
10
444.643420
20
988.091336
40
1.051143
50
47.734649
51
101.591027
0
ARC
8
0
6
CONTINUOUS
10
442.132405
20
998.696112
40
9.847390
50
226.844318
51
283.505905
0
ARC
8
0
6
CONTINUOUS
10
437.538001
20
994.013651
40
3.292420
50
90.406699
51
229.436140
0
ARC
8
0
6
CONTINUOUS
10
437.492785
20
997.568538
40
0.263457
50
274.756644
51
398.238054
0
LINE
8
0
6
CONTINUOUS
10
437.699716
20
997.731599
11
437.455488
21
997.930877
0
LINE
8
0
6
CONTINUOUS
10
437.455488
20
997.930877
11
437.210668
21
998.129053
0
LINE
8
0
6
CONTINUOUS
10
437.210668
20
998.129053
11
436.965260
21
998.326126
0
ARC
8
0
6
CONTINUOUS
10
689.165145
20
1299.671910
40
392.955549
50
228.468927
51
230.073635
0
ARC
8
0
6
CONTINUOUS
10
433.672546
20
1007.321239
40
1.488736
50
104.693714
51
236.274314
0
LINE
8
0
6
CONTINUOUS
10
432.845997
20
1006.083037
11
437.666458
21
1003.548269
0
LINE
8
0
6
CONTINUOUS
10
437.666458
20
1003.548269
11
442.488540
21
1001.018169
0
ARC
8
0
6
CONTINUOUS
10
442.998611
20
1001.792876
40
0.927546
50
236.640155
51
344.202369
0
ARC
8
0
6
CONTINUOUS
10
447.413615
20
999.798601
40
3.929590
50
135.070254
51
153.689081
0
ARC
8
0
6
CONTINUOUS
10
448.805134
20
996.418423
40
7.436912
50
31.804309
51
124.138526
0
ARC
8
0
6
CONTINUOUS
10
451.836336
20
998.410515
40
3.812160
50
-23.358373
51
30.369102
0
ARC
8
0
6
CONTINUOUS
10
456.053972
20
996.633704
40
0.765381
50
159.714140
51
249.140100
0
ARC
8
0
6
CONTINUOUS
10
452.832244
20
985.158844
40
11.156510
50
9.927846
51
74.671859
0
ARC
8
0
6
CONTINUOUS
10
465.429596
20
986.929844
40
1.615117
50
174.583108
51
331.383419
0
ARC
8
0
6
CONTINUOUS
10
459.926266
20
989.778903
40
7.811892
50
332.371913
51
404.119843
0
ARC
8
0
6
CONTINUOUS
10
431.931540
20
960.373664
40
48.406827
50
46.038554
51
88.386041
0
ARC
8
0
6
CONTINUOUS
10
432.439250
20
1059.381309
40
47.670222
50
270.607065
51
314.138926
0
ARC
8
0
6
CONTINUOUS
10
460.028775
20
1030.608952
40
7.811892
50
315.880159
51
387.628084
0
ARC
8
0
6
CONTINUOUS
10
465.532105
20
1033.458010
40
1.615117
50
28.616568
51
185.416907
0
ARC
8
0
6
CONTINUOUS
10
452.934754
20
1035.229009
40
11.156508
50
285.328136
51
350.072159
0
ARC
8
0
6
CONTINUOUS
10
456.156480
20
1023.754150
40
0.765380
50
110.859819
51
200.285941
0
ARC
8
0
6
CONTINUOUS
10
451.938843
20
1021.977339
40
3.812163
50
-30.369081
51
23.358353
0
ARC
8
0
6
CONTINUOUS
10
448.907643
20
1023.969430
40
7.436912
50
235.861471
51
328.195693
0
ARC
8
0
6
CONTINUOUS
10
447.516103
20
1020.589238
40
3.929563
50
206.310855
51
224.929809
0
ARC
8
0
6
CONTINUOUS
10
443.101120
20
1018.594978
40
0.927546
50
15.797655
51
123.359821
0
LINE
8
0
6
CONTINUOUS
10
442.591049
20
1019.369687
11
437.558940
21
1016.729261
0
LINE
8
0
6
CONTINUOUS
10
437.558940
20
1016.729261
11
432.541791
21
1014.090692
0
ARC
8
0
6
CONTINUOUS
10
433.163227
20
1012.973382
40
1.278501
50
119.082350
51
260.141133
0
ARC
8
0
6
CONTINUOUS
10
427.681324
20
1015.061406
40
0.911047
50
145.935680
51
287.219214
0
ARC
8
0
6
CONTINUOUS
10
689.465421
20
720.484314
40
393.260108
50
129.926802
51
131.681628
0
LINE
8
0
6
CONTINUOUS
10
437.067769
20
1022.061729
11
437.313177
21
1022.258801
0
LINE
8
0
6
CONTINUOUS
10
437.313177
20
1022.258801
11
437.557997
21
1022.456978
0
LINE
8
0
6
CONTINUOUS
10
437.557997
20
1022.456978
11
437.802226
21
1022.656256
0
ARC
8
0
6
CONTINUOUS
10
437.595295
20
1022.819317
40
0.263457
50
321.761876
51
445.243427
0
ARC
8
0
6
CONTINUOUS
10
437.640510
20
1026.374203
40
3.292420
50
130.563855
51
269.593304
0
ARC
8
0
6
CONTINUOUS
10
440.759417
20
1024.438480
40
6.881372
50
54.776468
51
139.851449
0
ARC
8
0
6
CONTINUOUS
10
445.140162
20
1030.772277
40
0.822808
50
239.968819
51
327.625818
0
ARC
8
0
6
CONTINUOUS
10
455.175173
20
1027.184016
40
9.856232
50
88.872017
51
161.375732
0
ARC
8
0
6
CONTINUOUS
10
458.026341
20
956.230609
40
80.851403
50
88.854482
51
91.883336
0
ARC
8
0
6
CONTINUOUS
10
459.637337
20
1037.824727
40
0.758892
50
270.404912
51
439.154128
0
ARC
8
0
6
CONTINUOUS
10
454.777460
20
1010.751384
40
28.264919
50
79.805376
51
170.180740
0
ARC
8
0
6
CONTINUOUS
10
421.387059
20
1015.061406
40
0.911048
50
252.780816
51
394.064291
0
ARC
8
0
6
CONTINUOUS
10
394.290922
20
1010.751383
40
28.264920
50
9.819261
51
100.194622
0
ARC
8
0
6
CONTINUOUS
10
389.431046
20
1037.824727
40
0.758892
50
100.845860
51
269.595099
0
ARC
8
0
6
CONTINUOUS
10
391.042035
20
956.229617
40
80.852395
50
88.116683
51
91.145500
0
ARC
8
0
6
CONTINUOUS
10
393.893209
20
1027.184014
40
9.856234
50
18.624275
51
91.127977
0
ARC
8
0
6
CONTINUOUS
10
403.928221
20
1030.772277
40
0.822808
50
212.374170
51
300.031193
0
ARC
8
0
6
CONTINUOUS
10
408.308967
20
1024.438479
40
6.881373
50
40.148561
51
125.223521
0
ARC
8
0
6
CONTINUOUS
10
411.427872
20
1026.374204
40
3.292420
50
-89.593301
51
49.436140
0
ARC
8
0
6
CONTINUOUS
10
411.473089
20
1022.819317
40
0.263457
50
94.756644
51
218.238054
0
LINE
8
0
6
CONTINUOUS
10
411.266158
20
1022.656256
11
411.510386
21
1022.456978
0
LINE
8
0
6
CONTINUOUS
10
411.510386
20
1022.456978
11
411.755206
21
1022.258801
0
LINE
8
0
6
CONTINUOUS
10
411.755206
20
1022.258801
11
412.000614
21
1022.061729
0
ARC
8
0
6
CONTINUOUS
10
159.604992
20
720.486666
40
393.257001
50
48.318365
51
50.073205
0
ARC
8
0
6
CONTINUOUS
10
401.552259
20
1020.589254
40
3.929590
50
315.070254
51
333.689081
0
ARC
8
0
6
CONTINUOUS
10
400.160739
20
1023.969430
40
7.436912
50
211.804309
51
304.138526
0
ARC
8
0
6
CONTINUOUS
10
397.129537
20
1021.977339
40
3.812160
50
156.641627
51
210.369102
0
ARC
8
0
6
CONTINUOUS
10
392.911902
20
1023.754149
40
0.765381
50
339.714140
51
429.140100
0
ARC
8
0
6
CONTINUOUS
10
396.133629
20
1035.229010
40
11.156510
50
189.927846
51
254.671859
0
ARC
8
0
6
CONTINUOUS
10
383.536277
20
1033.458010
40
1.615117
50
354.583108
51
511.383419
0
ARC
8
0
6
CONTINUOUS
10
389.039607
20
1030.608952
40
7.811892
50
152.371913
51
224.119843
0
ARC
8
0
6
CONTINUOUS
10
416.629134
20
1059.381312
40
47.670226
50
225.861076
51
269.392934
0
ARC
8
0
6
CONTINUOUS
10
415.905156
20
1012.973383
40
1.278501
50
279.858869
51
420.917297
0
LINE
8
0
6
CONTINUOUS
10
416.526599
20
1014.090689
11
411.509444
21
1016.729261
0
LINE
8
0
6
CONTINUOUS
10
411.509444
20
1016.729261
11
406.477334
21
1019.369687
0
ARC
8
0
6
CONTINUOUS
10
405.967262
20
1018.594979
40
0.927546
50
56.640155
51
164.202369
0
ARC
8
0
6
CONTINUOUS
10
418.334579
20
1049.327698
40
2.625130
50
-42.779364
51
21.289783
0
ARC
8
0
6
CONTINUOUS
10
418.789402
20
1049.659251
40
2.576370
50
248.996503
51
304.842962
0
ARC
8
0
6
CONTINUOUS
10
416.743848
20
1042.475911
40
4.908141
50
76.783918
51
172.901283
0
ARC
8
0
6
CONTINUOUS
10
414.164027
20
1033.912288
40
9.451945
50
32.024262
51
104.025397
0
ARC
8
0
6
CONTINUOUS
10
410.456569
20
1032.567096
40
13.334118
50
-6.884283
51
28.474880
0
ARC
8
0
6
CONTINUOUS
10
424.456205
20
1030.949607
40
0.761895
50
178.555903
51
275.874965
0
ARC
8
0
6
CONTINUOUS
10
424.612179
20
1030.949606
40
0.761894
50
264.124935
51
361.444197
0
ARC
8
0
6
CONTINUOUS
10
438.611803
20
1032.567098
40
13.334109
50
151.525107
51
186.884296
0
ARC
8
0
6
CONTINUOUS
10
434.904355
20
1033.912291
40
9.451943
50
75.974595
51
147.975747
0
ARC
8
0
6
CONTINUOUS
10
432.324535
20
1042.475911
40
4.908142
50
7.098722
51
103.216077
0
ARC
8
0
6
CONTINUOUS
10
430.278981
20
1049.659250
40
2.576368
50
235.157019
51
291.003515
0
ARC
8
0
6
CONTINUOUS
10
430.733806
20
1049.327698
40
2.625131
50
158.710239
51
222.779343
0
ARC
8
0
6
CONTINUOUS
10
423.078796
20
1052.953477
40
5.854650
50
332.838669
51
435.606034
0
ARC
8
0
6
CONTINUOUS
10
425.989585
20
1052.953478
40
5.854650
50
104.393958
51
207.161340
0
ARC
8
0
6
CONTINUOUS
10
425.243226
20
1088.895497
40
18.610822
50
222.057152
51
267.816618
0
ARC
8
0
6
CONTINUOUS
10
423.825157
20
1088.895497
40
18.610821
50
272.183381
51
317.942848
0
ARC
8
0
6
CONTINUOUS
10
435.444018
20
1078.336241
40
2.911294
50
319.061964
51
400.781764
0
ARC
8
0
6
CONTINUOUS
10
423.938549
20
1067.966048
40
18.399958
50
41.831837
51
88.144899
0
ARC
8
0
6
CONTINUOUS
10
425.129831
20
1067.966054
40
18.399952
50
91.855093
51
138.168171
0
ARC
8
0
6
CONTINUOUS
10
413.624364
20
1078.336241
40
2.911293
50
139.218217
51
220.938055
0
ARC
8
0
6
CONTINUOUS
10
416.805893
20
994.603499
40
89.366513
50
100.601872
51
135.750210
0
ARC
8
0
6
CONTINUOUS
10
354.071208
20
1055.786829
40
1.737123
50
137.412563
51
197.206723
0
LINE
8
0
6
CONTINUOUS
10
352.411833
20
1055.272953
11
355.425041
21
1045.108362
0
ARC
8
0
6
CONTINUOUS
10
356.556240
20
1045.273689
40
1.143216
50
188.315017
51
311.992667
0
ARC
8
0
6
CONTINUOUS
10
426.389944
20
972.109986
40
99.999126
50
104.463272
51
133.685114
0
ARC
8
0
6
CONTINUOUS
10
400.915941
20
1070.345341
40
1.491127
50
289.521933
51
367.151708
0
LINE
8
0
6
CONTINUOUS
10
402.395467
20
1070.530982
11
401.759939
21
1081.061895
0
ARC
8
0
6
CONTINUOUS
10
400.442986
20
1081.128214
40
1.318623
50
357.117140
51
453.437020
0
LINE
8
0
6
CONTINUOUS
10
414.062704
20
1112.314784
11
414.063556
21
1112.291442
0
ARC
8
0
6
CONTINUOUS
10
411.365710
20
1112.465007
40
2.703423
50
356.318973
51
448.359485
0
ARC
8
0
6
CONTINUOUS
10
423.033769
20
984.583819
40
131.096891
50
95.072312
51
120.552038
0
ARC
8
0
6
CONTINUOUS
10
354.544531
20
1099.769482
40
2.943299
50
199.220744
51
308.942244
0
ARC
8
0
6
CONTINUOUS
10
407.763693
20
1119.180542
40
59.591654
50
194.213229
51
199.998436
0
ARC
8
0
6
CONTINUOUS
10
343.929961
20
1103.624474
40
6.136294
50
8.664809
51
100.211577
0
LINE
8
0
6
CONTINUOUS
10
342.842097
20
1109.663568
11
332.507265
21
1108.159822
0
ARC
8
0
6
CONTINUOUS
10
332.572733
20
1109.548242
40
1.389963
50
184.051742
51
267.300346
0
LINE
8
0
6
CONTINUOUS
10
331.186244
20
1109.450032
11
328.643411
21
1124.762864
0
ARC
8
0
6
CONTINUOUS
10
326.144974
20
1124.639416
40
2.501485
50
2.828696
51
100.915615
0
LINE
8
0
6
CONTINUOUS
10
325.671285
20
1127.095641
11
325.446701
21
1127.030056
0
ARC
8
0
6
CONTINUOUS
10
326.652137
20
1124.147145
40
3.124781
50
112.691352
51
196.109482
0
LINE
8
0
6
CONTINUOUS
10
323.650057
20
1123.280100
11
327.812112
21
1104.989050
0
ARC
8
0
6
CONTINUOUS
10
330.859591
20
1105.149283
40
3.051687
50
183.009767
51
265.384035
0
LINE
8
0
6
CONTINUOUS
10
330.614000
20
1102.107493
11
340.520827
21
1105.316365
0
ARC
8
0
6
CONTINUOUS
10
342.488769
20
1101.052953
40
4.695688
50
8.227995
51
114.777496
0
ARC
8
0
6
CONTINUOUS
10
425.134420
20
1122.589554
40
80.740732
50
194.976016
51
202.470555
0
ARC
8
0
6
CONTINUOUS
10
352.950186
20
1092.474164
40
2.537970
50
197.056178
51
289.309090
0
ARC
8
0
6
CONTINUOUS
10
422.031992
20
980.396214
40
129.179548
50
94.560939
51
121.889116
0
ARC
8
0
6
CONTINUOUS
10
411.227566
20
1111.972408
40
2.855736
50
280.739562
51
366.885790
0
ARC
8
0
6
CONTINUOUS
10
423.933798
20
1122.589610
40
80.740904
50
337.529454
51
345.023976
0
ARC
8
0
6
CONTINUOUS
10
506.579615
20
1101.052953
40
4.695689
50
65.222509
51
171.772000
0
LINE
8
0
6
CONTINUOUS
10
508.547557
20
1105.316365
11
518.454382
21
1102.107493
0
ARC
8
0
6
CONTINUOUS
10
518.208793
20
1105.149283
40
3.051686
50
274.615954
51
356.990243
0
LINE
8
0
6
CONTINUOUS
10
521.256270
20
1104.989050
11
525.418326
21
1123.280100
0
ARC
8
0
6
CONTINUOUS
10
522.416245
20
1124.147145
40
3.124781
50
343.890521
51
427.308646
0
LINE
8
0
6
CONTINUOUS
10
523.621683
20
1127.030056
11
523.397097
21
1127.095641
0
ARC
8
0
6
CONTINUOUS
10
522.923409
20
1124.639415
40
2.501485
50
79.084394
51
177.171295
0
LINE
8
0
6
CONTINUOUS
10
520.424972
20
1124.762864
11
517.882139
21
1109.450032
0
ARC
8
0
6
CONTINUOUS
10
516.495651
20
1109.548242
40
1.389962
50
272.699619
51
355.948293
0
LINE
8
0
6
CONTINUOUS
10
516.561118
20
1108.159822
11
506.226287
21
1109.663568
0
ARC
8
0
6
CONTINUOUS
10
505.138422
20
1103.624475
40
6.136293
50
79.788420
51
171.335192
0
ARC
8
0
6
CONTINUOUS
10
441.304703
20
1119.180537
40
59.591640
50
340.001563
51
345.786772
0
ARC
8
0
6
CONTINUOUS
10
494.523852
20
1099.769482
40
2.943299
50
231.057759
51
340.779253
0
ARC
8
0
6
CONTINUOUS
10
426.034622
20
984.583842
40
131.096867
50
59.447960
51
84.927690
0
ARC
8
0
6
CONTINUOUS
10
437.702673
20
1112.465007
40
2.703423
50
91.640519
51
183.681024
0
LINE
8
0
6
CONTINUOUS
10
435.004827
20
1112.291442
11
435.005680
21
1112.314784
0
ARC
8
0
6
CONTINUOUS
10
437.840814
20
1111.972406
40
2.855734
50
173.114171
51
259.260476
0
ARC
8
0
6
CONTINUOUS
10
427.036396
20
980.396232
40
129.179529
50
58.110883
51
85.439064
0
ARC
8
0
6
CONTINUOUS
10
496.118197
20
1092.474166
40
2.537972
50
250.690948
51
342.943783
0
ARC
8
0
6
CONTINUOUS
10
448.625399
20
1081.128213
40
1.318623
50
86.563020
51
182.882819
0
LINE
8
0
6
CONTINUOUS
10
447.308444
20
1081.061895
11
446.672916
21
1070.530982
0
ARC
8
0
6
CONTINUOUS
10
448.152441
20
1070.345340
40
1.491126
50
172.848237
51
250.478122
0
ARC
8
0
6
CONTINUOUS
10
422.678443
20
972.109992
40
99.999119
50
46.314885
51
75.536729
0
ARC
8
0
6
CONTINUOUS
10
492.512143
20
1045.273689
40
1.143216
50
228.007343
51
351.684972
0
LINE
8
0
6
CONTINUOUS
10
493.643342
20
1045.108362
11
496.656550
21
1055.272953
0
ARC
8
0
6
CONTINUOUS
10
494.997175
20
1055.786829
40
1.737122
50
342.793273
51
402.587441
0
ARC
8
0
6
CONTINUOUS
10
432.262492
20
994.603502
40
89.366509
50
44.249790
51
79.398129
0
ARC
8
0
6
CONTINUOUS
10
596.619704
20
1078.808967
40
77.559144
50
170.155366
51
181.422395
0
ARC
8
0
6
CONTINUOUS
10
518.536937
20
1092.615046
40
1.752649
50
341.874776
51
448.309452
0
ARC
8
0
6
CONTINUOUS
10
525.522940
20
1136.043968
40
42.249969
50
248.801119
51
260.553563
0
ARC
8
0
6
CONTINUOUS
10
509.496880
20
1094.899548
40
1.906426
50
66.892137
51
160.403618
0
ARC
8
0
6
CONTINUOUS
10
457.497713
20
1116.176448
40
54.279500
50
329.534760
51
337.653434
0
ARC
8
0
6
CONTINUOUS
10
505.787572
20
1087.282593
40
2.036921
50
137.607483
51
227.899343
0
ARC
8
0
6
CONTINUOUS
10
475.450176
20
1039.189923
40
54.856039
50
41.635068
51
58.120003
0
ARC
8
0
6
CONTINUOUS
10
517.723545
20
1076.350844
40
1.461522
50
209.309716
51
381.383342
0
ARC
8
0
6
CONTINUOUS
10
691.687913
20
1070.040596
40
132.340702
50
156.676888
51
172.560896
0
ARC
8
0
6
CONTINUOUS
10
567.414107
20
1124.648184
40
3.526833
50
321.161066
51
395.286095
0
LINE
8
0
6
CONTINUOUS
10
570.292983
20
1126.685493
11
570.055930
21
1127.002529
0
ARC
8
0
6
CONTINUOUS
10
568.256411
20
1125.829190
40
2.148254
50
33.105529
51
141.189386
0
ARC
8
0
6
CONTINUOUS
10
724.310568
20
1059.736126
40
171.540796
50
156.850004
51
172.528154
0
ARC
8
0
6
CONTINUOUS
10
1084.297482
20
1007.481230
40
535.289534
50
171.993084
51
176.826184
0
LINE
8
0
6
CONTINUOUS
10
549.828991
20
1037.117657
11
549.876818
21
1037.411204
0
ARC
8
0
6
CONTINUOUS
10
552.819728
20
1036.717610
40
3.023539
50
166.738379
51
252.341200
0
LINE
8
0
6
CONTINUOUS
10
551.902544
20
1033.836541
11
552.367997
21
1033.746601
0
ARC
8
0
6
CONTINUOUS
10
552.613211
20
1036.281918
40
2.547147
50
264.475544
51
356.775294
0
ARC
8
0
6
CONTINUOUS
10
1012.529450
20
1014.392583
40
457.889796
50
170.853930
51
177.277891
0
ARC
8
0
6
CONTINUOUS
10
732.065503
20
1041.309902
40
160.544710
50
146.203103
51
171.176809
0
ARC
8
0
6
CONTINUOUS
10
595.903412
20
1132.824789
40
3.526833
50
321.161066
51
395.286095
0
LINE
8
0
6
CONTINUOUS
10
598.782288
20
1134.862097
11
598.545235
21
1135.179134
0
ARC
8
0
6
CONTINUOUS
10
596.745716
20
1134.005795
40
2.148254
50
33.105529
51
141.189386
0
ARC
8
0
6
CONTINUOUS
10
732.728182
20
1041.556777
40
166.573938
50
145.730524
51
171.141687
0
ARC
8
0
6
CONTINUOUS
10
571.084020
20
1066.514160
40
3.023539
50
166.738379
51
252.341200
0
LINE
8
0
6
CONTINUOUS
10
570.166837
20
1063.633090
11
570.632289
21
1063.543151
0
ARC
8
0
6
CONTINUOUS
10
570.877503
20
1066.078468
40
2.547147
50
264.475544
51
356.775294
0
ARC
8
0
6
CONTINUOUS
10
560.641226
20
971.704121
40
3.023539
50
166.738379
51
252.341200
0
LINE
8
0
6
CONTINUOUS
10
559.724042
20
968.823050
11
560.189495
21
968.733111
0
ARC
8
0
6
CONTINUOUS
10
560.434709
20
971.268428
40
2.547147
50
264.475544
51
356.775294
0
ARC
8
0
6
CONTINUOUS
10
958.239891
20
970.918278
40
395.262122
50
168.675349
51
179.970013
0
ARC
8
0
6
CONTINUOUS
10
568.260145
20
1048.962200
40
2.450773
50
349.964151
51
532.140156
0
ARC
8
0
6
CONTINUOUS
10
1046.315600
20
959.594087
40
488.785008
50
169.424972
51
178.498977
0
LINE
8
0
6
CONTINUOUS
10
545.922624
20
1019.508017
11
545.615253
21
956.057979
0
ARC
8
0
6
CONTINUOUS
10
547.009732
20
955.927265
40
1.400592
50
174.644911
51
262.033572
0
LINE
8
0
6
CONTINUOUS
10
546.815620
20
954.540188
11
549.658696
21
954.463523
0
ARC
8
0
6
CONTINUOUS
10
549.543403
20
955.830651
40
1.371980
50
274.820477
51
363.871865
0
LINE
8
0
6
CONTINUOUS
10
550.912251
20
955.923293
11
552.586154
21
1019.246475
0
ARC
8
0
6
CONTINUOUS
10
551.179428
20
1019.406259
40
1.415771
50
353.519756
51
440.720534
0
LINE
8
0
6
CONTINUOUS
10
551.407722
20
1020.803503
11
547.198116
21
1021.007026
0
ARC
8
0
6
CONTINUOUS
10
547.291403
20
1019.635494
40
1.374701
50
93.891076
51
185.320714
0
ARC
8
0
6
CONTINUOUS
10
530.772313
20
948.543512
40
1.591786
50
171.486261
51
328.933425
0
LINE
8
0
6
CONTINUOUS
10
532.135786
20
947.722097
11
535.254553
21
953.425175
0
ARC
8
0
6
CONTINUOUS
10
533.758812
20
954.320515
40
1.743237
50
329.095580
51
359.497912
0
ARC
8
0
6
CONTINUOUS
10
380.899035
20
956.896443
40
154.624660
50
359.039790
51
391.830810
0
ARC
8
0
6
CONTINUOUS
10
510.966953
20
1037.702024
40
1.500827
50
29.780737
51
166.742567
0
LINE
8
0
6
CONTINUOUS
10
509.506124
20
1038.046203
11
507.038296
21
1028.379807
0
ARC
8
0
6
CONTINUOUS
10
509.289241
20
1027.532480
40
2.405144
50
159.372066
51
209.672238
0
ARC
8
0
6
CONTINUOUS
10
356.776224
20
941.777295
40
172.563955
50
2.325445
51
29.343708
0
ARC
8
0
6
CONTINUOUS
10
483.268732
20
1012.896264
40
1.299596
50
155.172966
51
299.752486
0
ARC
8
0
6
CONTINUOUS
10
477.800064
20
1014.002984
40
4.325720
50
352.547749
51
459.171850
0
ARC
8
0
6
CONTINUOUS
10
478.052248
20
1016.494323
40
2.012929
50
117.892853
51
175.256359
0
ARC
8
0
6
CONTINUOUS
10
470.504240
20
1017.027597
40
5.554100
50
282.523050
51
356.213264
0
ARC
8
0
6
CONTINUOUS
10
465.005358
20
1045.724925
40
34.771520
50
271.042028
51
281.114961
0
ARC
8
0
6
CONTINUOUS
10
465.895846
20
1009.860755
40
1.128325
50
103.225345
51
274.782280
0
ARC
8
0
6
CONTINUOUS
10
467.241773
20
989.414984
40
19.361888
50
76.661747
51
93.707092
0
ARC
8
0
6
CONTINUOUS
10
470.504239
20
1002.832623
40
5.554101
50
3.786747
51
77.476939
0
ARC
8
0
6
CONTINUOUS
10
478.052249
20
1003.365899
40
2.012930
50
184.743649
51
242.107139
0
ARC
8
0
6
CONTINUOUS
10
477.800064
20
1005.857238
40
4.325720
50
260.828150
51
367.452252
0
ARC
8
0
6
CONTINUOUS
10
483.268732
20
1006.963958
40
1.299596
50
60.247504
51
204.827044
0
ARC
8
0
6
CONTINUOUS
10
490.013422
20
1026.091547
40
19.004793
50
251.279068
51
298.881948
0
LINE
8
0
6
CONTINUOUS
10
499.192861
20
1009.450632
11
499.189027
21
1009.453733
0
ARC
8
0
6
CONTINUOUS
10
498.872027
20
1009.932941
40
0.574569
50
303.484945
51
416.055316
0
ARC
8
0
6
CONTINUOUS
10
490.013422
20
993.768681
40
19.004788
50
61.118045
51
108.720940
0
ARC
8
0
6
CONTINUOUS
10
557.133130
20
944.704569
40
77.061177
50
145.840075
51
151.092211
0
ARC
8
0
6
CONTINUOUS
10
492.492193
20
988.552394
40
1.048332
50
326.565778
51
406.547576
0
LINE
8
0
6
CONTINUOUS
10
493.213186
20
989.313427
11
492.298430
21
990.073356
0
ARC
8
0
6
CONTINUOUS
10
491.879302
20
989.584985
40
0.643563
50
49.363185
51
146.137673
0
ARC
8
0
6
CONTINUOUS
10
518.626665
20
969.119607
40
34.321020
50
142.645771
51
154.895097
0
ARC
8
0
6
CONTINUOUS
10
488.493802
20
983.230202
40
1.047957
50
154.508253
51
225.701825
0
LINE
8
0
6
CONTINUOUS
10
487.761917
20
982.480163
11
488.634375
21
981.723672
0
ARC
8
0
6
CONTINUOUS
10
489.069205
20
982.219709
40
0.659644
50
228.761873
51
336.440555
0
LINE
8
0
6
CONTINUOUS
10
484.804655
20
971.210858
11
484.804655
21
971.256961
0
ARC
8
0
6
CONTINUOUS
10
483.887700
20
971.585359
40
0.973987
50
340.295573
51
422.363145
0
LINE
8
0
6
CONTINUOUS
10
484.339499
20
972.448219
11
483.235543
21
972.629256
0
ARC
8
0
6
CONTINUOUS
10
483.013837
20
971.964308
40
0.700934
50
71.560620
51
164.850747
0
LINE
8
0
6
CONTINUOUS
10
482.337261
20
972.147487
11
476.435258
21
956.598297
0
ARC
8
0
6
CONTINUOUS
10
477.260373
20
956.203751
40
0.914593
50
154.444180
51
260.313216
0
LINE
8
0
6
CONTINUOUS
10
477.106481
20
955.302198
11
478.704828
21
955.302198
0
ARC
8
0
6
CONTINUOUS
10
478.654414
20
956.063406
40
0.762876
50
273.789074
51
346.769676
0
LINE
8
0
6
CONTINUOUS
10
479.397042
20
955.888810
11
484.804655
21
971.210858
0
ARC
8
0
6
CONTINUOUS
10
636.243215
20
883.145161
40
149.137377
50
143.196752
51
152.353984
0
ARC
8
0
6
CONTINUOUS
10
515.241820
20
973.909935
40
2.130704
50
318.163505
51
487.482390
0
ARC
8
0
6
CONTINUOUS
10
622.575231
20
894.762725
40
135.407743
50
143.344878
51
153.449712
0
ARC
8
0
6
CONTINUOUS
10
502.947510
20
954.254562
40
1.821568
50
145.446895
51
220.142010
0
LINE
8
0
6
CONTINUOUS
10
501.555015
20
953.080226
11
502.346705
21
952.219471
0
ARC
8
0
6
CONTINUOUS
10
503.193132
20
952.939693
40
1.111377
50
220.394326
51
327.713157
0
ARC
8
0
6
CONTINUOUS
10
491.028467
20
900.778496
40
1.523834
50
177.330880
51
253.247417
0
LINE
8
0
6
CONTINUOUS
10
490.589238
20
899.319336
11
491.892428
21
899.275699
0
ARC
8
0
6
CONTINUOUS
10
492.016593
20
900.595896
40
1.326023
50
264.627179
51
356.565249
0
ARC
8
0
6
CONTINUOUS
10
729.781079
20
887.878886
40
236.778338
50
170.853013
51
176.940499
0
ARC
8
0
6
CONTINUOUS
10
564.488953
20
916.527156
40
69.063145
50
159.269266
51
172.518991
0
ARC
8
0
6
CONTINUOUS
10
498.493125
20
941.622466
40
1.546769
50
335.209071
51
435.058758
0
LINE
8
0
6
CONTINUOUS
10
498.891926
20
943.116940
11
497.856696
21
943.227530
0
ARC
8
0
6
CONTINUOUS
10
497.801158
20
942.014993
40
1.213807
50
87.377509
51
163.523026
0
ARC
8
0
6
CONTINUOUS
10
580.437085
20
910.898238
40
89.510991
50
159.422337
51
172.487290
0
ARC
8
0
6
CONTINUOUS
10
765.812668
20
884.039993
40
276.817222
50
171.992486
51
176.518626
0
ARC
8
0
6
CONTINUOUS
10
450.497578
20
899.822125
40
28.378648
50
41.635055
51
58.120008
0
ARC
8
0
6
CONTINUOUS
10
472.366845
20
919.046562
40
0.756089
50
209.309669
51
381.383395
0
ARC
8
0
6
CONTINUOUS
10
513.182208
20
920.318224
40
40.123685
50
170.155367
51
181.422394
0
ARC
8
0
6
CONTINUOUS
10
472.787638
20
927.460523
40
0.906698
50
341.874738
51
448.309513
0
ARC
8
0
6
CONTINUOUS
10
476.401718
20
949.927660
40
21.857230
50
248.801139
51
260.553556
0
ARC
8
0
6
CONTINUOUS
10
468.110944
20
928.642365
40
0.986251
50
66.892151
51
160.403636
0
ARC
8
0
6
CONTINUOUS
10
441.210283
20
939.649512
40
28.080339
50
329.534743
51
337.653439
0
ARC
8
0
6
CONTINUOUS
10
466.192008
20
924.701885
40
1.053761
50
137.607511
51
227.899318
0
ARC
8
0
6
CONTINUOUS
10
418.162559
20
856.224965
40
62.147964
50
48.926837
51
71.746010
0
ARC
8
0
6
CONTINUOUS
10
459.589916
20
903.839379
40
0.967310
50
232.057970
51
354.890633
0
LINE
8
0
6
CONTINUOUS
10
460.553382
20
903.753232
11
461.698830
21
908.460834
0
ARC
8
0
6
CONTINUOUS
10
460.315833
20
908.822452
40
1.429492
50
345.346717
51
404.803745
0
ARC
8
0
6
CONTINUOUS
10
427.177375
20
873.358206
40
49.965832
50
46.880562
51
77.004769
0
ARC
8
0
6
CONTINUOUS
10
438.297033
20
920.967314
40
1.083284
50
83.844583
51
182.074122
0
LINE
8
0
6
CONTINUOUS
10
437.214460
20
920.928109
11
436.871249
21
916.583373
0
ARC
8
0
6
CONTINUOUS
10
438.127506
20
916.411412
40
1.267972
50
172.205638
51
246.857192
0
ARC
8
0
6
CONTINUOUS
10
420.626767
20
847.877853
40
29.116136
50
102.417961
51
135.323270
0
ARC
8
0
6
CONTINUOUS
10
413.913796
20
877.726737
40
1.484349
50
287.720359
51
368.231692
0
LINE
8
0
6
CONTINUOUS
10
415.382852
20
877.939260
11
415.088512
21
881.867795
0
ARC
8
0
6
CONTINUOUS
10
413.782173
20
881.916897
40
1.307262
50
357.847400
51
454.812810
0
ARC
8
0
6
CONTINUOUS
10
420.600501
20
849.624630
40
34.301836
50
101.652295
51
131.925709
0
ARC
8
0
6
CONTINUOUS
10
398.856222
20
873.926864
40
1.692950
50
133.954644
51
191.016691
0
LINE
8
0
6
CONTINUOUS
10
397.194470
20
873.603350
11
397.955125
21
869.213032
0
ARC
8
0
6
CONTINUOUS
10
399.129329
20
869.215200
40
1.174205
50
180.105757
51
312.506998
0
ARC
8
0
6
CONTINUOUS
10
369.022995
20
856.229966
40
1.503607
50
175.923723
51
246.315219
0
LINE
8
0
6
CONTINUOUS
10
368.418989
20
854.853008
11
369.822690
21
854.369186
0
ARC
8
0
6
CONTINUOUS
10
370.090439
20
855.643874
40
1.302505
50
258.137486
51
367.690755
0
ARC
8
0
6
CONTINUOUS
10
442.768519
20
856.197205
40
71.388298
50
148.212490
51
180.304202
0
ARC
8
0
6
CONTINUOUS
10
380.553134
20
894.735418
40
1.796109
50
328.705613
51
386.664382
0
LINE
8
0
6
CONTINUOUS
10
382.158228
20
895.541446
11
380.959751
21
897.865118
0
ARC
8
0
6
CONTINUOUS
10
379.927756
20
897.455411
40
1.110347
50
21.653300
51
153.780015
0
ARC
8
0
6
CONTINUOUS
10
452.250743
20
855.474661
40
84.731939
50
149.917705
51
179.416978
0
LINE
8
0
6
CONTINUOUS
10
358.995462
20
859.783389
11
361.139970
21
859.202846
0
ARC
8
0
6
CONTINUOUS
10
360.984974
20
860.020189
40
0.831910
50
280.737715
51
357.813504
0
LINE
8
0
6
CONTINUOUS
10
361.816278
20
859.988450
11
361.675657
21
889.016660
0
ARC
8
0
6
CONTINUOUS
10
360.831331
20
889.031713
40
0.844461
50
358.978557
51
437.554658
0
LINE
8
0
6
CONTINUOUS
10
361.013319
20
889.856332
11
358.147264
21
890.980674
0
ARC
8
0
6
CONTINUOUS
10
358.207237
20
890.346484
40
0.637019
50
95.402235
51
179.866368
0
LINE
8
0
6
CONTINUOUS
10
357.570220
20
890.347970
11
358.346960
21
860.538572
0
ARC
8
0
6
CONTINUOUS
10
359.055106
20
860.490644
40
0.709767
50
176.128137
51
265.179558
0
LINE
8
0
6
CONTINUOUS
10
314.058686
20
832.881737
11
317.893595
21
830.139224
0
ARC
8
0
6
CONTINUOUS
10
318.305141
20
830.861202
40
0.831037
50
240.315773
51
370.166391
0
LINE
8
0
6
CONTINUOUS
10
319.123130
20
831.007887
11
319.194468
21
914.457418
0
ARC
8
0
6
CONTINUOUS
10
318.043833
20
914.469188
40
1.150694
50
359.413897
51
394.282590
0
LINE
8
0
6
CONTINUOUS
10
318.994617
20
915.117346
11
315.129260
21
920.602580
0
ARC
8
0
6
CONTINUOUS
10
314.481339
20
920.119916
40
0.807940
50
36.684011
51
192.554426
0
LINE
8
0
6
CONTINUOUS
10
313.692716
20
919.944297
11
313.651827
21
833.752044
0
ARC
8
0
6
CONTINUOUS
10
314.718910
20
833.720640
40
1.067545
50
178.314282
51
231.796936
0
LINE
8
0
6
CONTINUOUS
10
290.714276
20
796.640741
11
291.216052
21
888.646443
0
ARC
8
0
6
CONTINUOUS
10
288.694075
20
888.536499
40
2.524374
50
2.496202
51
178.851404
0
LINE
8
0
6
CONTINUOUS
10
286.170208
20
888.587101
11
286.170208
21
796.640741
0
ARC
8
0
6
CONTINUOUS
10
288.442242
20
797.725181
40
2.517568
50
205.515120
51
334.484879
0
ARC
8
0
6
CONTINUOUS
10
301.143089
20
811.546170
40
1.854186
50
354.740712
51
443.497344
0
LINE
8
0
6
CONTINUOUS
10
301.353075
20
813.388427
11
300.175085
21
813.388427
0
ARC
8
0
6
CONTINUOUS
10
300.385070
20
811.546170
40
1.854186
50
96.502656
51
185.259288
0
LINE
8
0
6
CONTINUOUS
10
298.538690
20
811.376209
11
298.538690
21
737.017748
0
ARC
8
0
6
CONTINUOUS
10
300.356546
20
736.833888
40
1.827130
50
174.224667
51
267.255914
0
LINE
8
0
6
CONTINUOUS
10
300.269072
20
735.008852
11
301.447062
21
735.092187
0
ARC
8
0
6
CONTINUOUS
10
301.113591
20
736.944792
40
1.882378
50
280.204018
51
364.762673
0
LINE
8
0
6
CONTINUOUS
10
302.989470
20
737.101083
11
302.989470
21
811.376209
0
ARC
8
0
6
CONTINUOUS
10
318.328651
20
793.724902
40
1.478775
50
355.636421
51
429.895506
0
LINE
8
0
6
CONTINUOUS
10
318.836956
20
795.113571
11
315.041816
21
796.128932
0
ARC
8
0
6
CONTINUOUS
10
314.862563
20
794.822127
40
1.319042
50
82.189517
51
187.089156
0
LINE
8
0
6
CONTINUOUS
10
313.553604
20
794.659338
11
313.436175
21
751.672887
0
ARC
8
0
6
CONTINUOUS
10
314.821701
20
751.541383
40
1.391753
50
174.578114
51
263.471589
0
LINE
8
0
6
CONTINUOUS
10
314.663464
20
750.158654
11
317.976159
21
750.158654
0
ARC
8
0
6
CONTINUOUS
10
317.822573
20
751.534897
40
1.384786
50
276.367731
51
364.406746
0
LINE
8
0
6
CONTINUOUS
10
319.203266
20
751.641299
11
319.803140
21
793.612388
0
ARC
8
0
6
CONTINUOUS
10
360.030272
20
849.033994
40
1.749922
50
14.408746
51
164.715329
0
LINE
8
0
6
CONTINUOUS
10
358.342247
20
849.495300
11
358.112495
21
793.697463
0
ARC
8
0
6
CONTINUOUS
10
360.009864
20
793.657958
40
1.897780
50
178.807214
51
357.255577
0
LINE
8
0
6
CONTINUOUS
10
361.905467
20
793.567091
11
361.725151
21
849.469441
0
LINE
8
0
6
CONTINUOUS
10
371.170211
20
793.834905
11
371.170211
21
836.622059
0
ARC
8
0
6
CONTINUOUS
10
369.641690
20
836.514821
40
1.532278
50
4.013200
51
63.572445
0
LINE
8
0
6
CONTINUOUS
10
370.323655
20
837.886973
11
368.632434
21
838.806259
0
ARC
8
0
6
CONTINUOUS
10
368.302789
20
837.896344
40
0.967788
50
70.085571
51
181.618612
0
LINE
8
0
6
CONTINUOUS
10
367.335388
20
837.869007
11
367.335388
21
795.170495
0
ARC
8
0
6
CONTINUOUS
10
368.790968
20
795.253009
40
1.457917
50
183.244479
51
247.394424
0
LINE
8
0
6
CONTINUOUS
10
368.230566
20
793.907100
11
370.372277
21
792.969524
0
ARC
8
0
6
CONTINUOUS
10
370.487767
20
793.663598
40
0.703616
50
260.552742
51
374.091342
0
LINE
8
0
6
CONTINUOUS
10
384.961280
20
786.143119
11
385.335943
21
816.386293
0
ARC
8
0
6
CONTINUOUS
10
384.474158
20
816.405926
40
0.862008
50
358.694949
51
395.101867
0
LINE
8
0
6
CONTINUOUS
10
385.179395
20
816.901608
11
382.528036
21
819.465369
0
ARC
8
0
6
CONTINUOUS
10
382.278274
20
819.279311
40
0.311445
50
36.684051
51
192.554316
0
LINE
8
0
6
CONTINUOUS
10
381.974276
20
819.211613
11
382.166412
21
786.775787
0
ARC
8
0
6
CONTINUOUS
10
382.577751
20
786.763682
40
0.411517
50
178.314253
51
231.796936
0
LINE
8
0
6
CONTINUOUS
10
382.323248
20
786.440302
11
384.097397
21
785.465659
0
ARC
8
0
6
CONTINUOUS
10
384.336620
20
786.050141
40
0.631542
50
247.741122
51
368.466146
0
LINE
8
0
6
CONTINUOUS
10
382.556378
20
754.552208
11
384.499142
21
755.453480
0
ARC
8
0
6
CONTINUOUS
10
384.441704
20
755.981486
40
0.531121
50
276.208412
51
363.395191
0
LINE
8
0
6
CONTINUOUS
10
384.971893
20
756.012940
11
384.860673
21
770.477268
0
ARC
8
0
6
CONTINUOUS
10
384.292286
20
770.520640
40
0.570039
50
355.636380
51
429.895526
0
LINE
8
0
6
CONTINUOUS
10
384.488228
20
771.055944
11
382.702225
21
772.272831
0
ARC
8
0
6
CONTINUOUS
10
382.633126
20
771.769083
40
0.508465
50
82.189539
51
187.089237
0
LINE
8
0
6
CONTINUOUS
10
382.128549
20
771.706332
11
382.083282
21
755.135915
0
ARC
8
0
6
CONTINUOUS
10
382.617375
20
755.085222
40
0.536493
50
174.578140
51
263.471613
0
LINE
8
0
6
CONTINUOUS
10
368.301139
20
752.921197
11
370.202345
21
752.628854
0
ARC
8
0
6
CONTINUOUS
10
370.029831
20
753.587262
40
0.973810
50
280.203997
51
364.762695
0
LINE
8
0
6
CONTINUOUS
10
371.000279
20
753.668116
11
371.000279
21
774.590530
0
ARC
8
0
6
CONTINUOUS
10
369.562871
20
774.518773
40
1.439197
50
2.857919
51
65.761109
0
LINE
8
0
6
CONTINUOUS
10
370.153723
20
775.831093
11
368.259963
21
776.581389
0
ARC
8
0
6
CONTINUOUS
10
368.368594
20
775.628333
40
0.959226
50
96.502656
51
185.259288
0
LINE
8
0
6
CONTINUOUS
10
367.413406
20
775.540407
11
367.413406
21
754.020897
0
ARC
8
0
6
CONTINUOUS
10
368.470658
20
753.966202
40
1.058665
50
177.038543
51
260.785854
0
LINE
8
0
6
CONTINUOUS
10
361.588828
20
746.377800
11
361.797574
21
782.577313
0
ARC
8
0
6
CONTINUOUS
10
360.620132
20
782.590813
40
1.177519
50
359.343127
51
432.354280
0
LINE
8
0
6
CONTINUOUS
10
360.977074
20
783.712928
11
359.058450
21
784.406223
0
ARC
8
0
6
CONTINUOUS
10
358.743252
20
783.725147
40
0.750477
50
65.165557
51
188.970937
0
LINE
8
0
6
CONTINUOUS
10
358.001956
20
783.608122
11
358.001956
21
747.549099
0
ARC
8
0
6
CONTINUOUS
10
359.686500
20
747.714523
40
1.692647
50
185.608514
51
238.419694
0
LINE
8
0
6
CONTINUOUS
10
358.800072
20
746.272545
11
360.463604
21
745.492088
0
ARC
8
0
6
CONTINUOUS
10
360.804071
20
746.217162
40
0.801030
50
244.847040
51
371.568528
0
LINE
8
0
6
CONTINUOUS
10
382.164939
20
719.215689
11
384.108211
21
720.051472
0
ARC
8
0
6
CONTINUOUS
10
383.656146
20
721.202877
40
1.236971
50
291.435950
51
364.983730
0
LINE
8
0
6
CONTINUOUS
10
384.888441
20
721.310337
11
385.061215
21
742.482670
0
ARC
8
0
6
CONTINUOUS
10
384.311117
20
742.522248
40
0.751141
50
356.979611
51
425.632705
0
LINE
8
0
6
CONTINUOUS
10
384.621027
20
743.206477
11
382.524755
21
744.272691
0
ARC
8
0
6
CONTINUOUS
10
382.381271
20
743.638849
40
0.649880
50
77.244795
51
187.957199
0
LINE
8
0
6
CONTINUOUS
10
381.737648
20
743.548883
11
381.683882
21
719.952446
0
ARC
8
0
6
CONTINUOUS
10
382.419671
20
719.907442
40
0.737164
50
176.499912
51
249.784250
0
LINE
8
0
6
CONTINUOUS
10
368.239319
20
705.789280
11
369.890542
21
706.854688
0
ARC
8
0
6
CONTINUOUS
10
368.854614
20
708.348192
40
1.817607
50
304.746056
51
374.582375
0
LINE
8
0
6
CONTINUOUS
10
370.613671
20
708.805813
11
371.000279
21
738.292875
0
ARC
8
0
6
CONTINUOUS
10
369.975035
20
738.336809
40
1.026185
50
357.546209
51
420.341704
0
LINE
8
0
6
CONTINUOUS
10
370.482819
20
739.228556
11
368.529595
21
740.177816
0
ARC
8
0
6
CONTINUOUS
10
368.251915
20
739.373320
40
0.851069
50
70.957447
51
188.710318
0
LINE
8
0
6
CONTINUOUS
10
367.410662
20
739.244435
11
367.350688
21
706.994694
0
ARC
8
0
6
CONTINUOUS
10
368.652794
20
707.024350
40
1.302444
50
181.304710
51
251.490566
0
LINE
8
0
6
CONTINUOUS
10
362.166279
20
705.026732
11
361.690651
21
735.595202
0
ARC
8
0
6
CONTINUOUS
10
360.153313
20
735.617453
40
1.537499
50
359.170819
51
424.032954
0
LINE
8
0
6
CONTINUOUS
10
360.826513
20
736.999735
11
359.351066
21
737.722461
0
ARC
8
0
6
CONTINUOUS
10
359.196074
20
737.048476
40
0.691577
50
77.049193
51
179.641137
0
LINE
8
0
6
CONTINUOUS
10
358.504510
20
737.052806
11
358.504510
21
703.265358
0
ARC
8
0
6
CONTINUOUS
10
359.516002
20
703.216679
40
1.012663
50
177.244692
51
243.218344
0
LINE
8
0
6
CONTINUOUS
10
359.059704
20
702.312644
11
361.742341
21
704.125784
0
ARC
8
0
6
CONTINUOUS
10
361.102595
20
704.977030
40
1.064845
50
306.926352
51
362.675188
0
LINE
8
0
6
CONTINUOUS
10
378.153536
20
690.486012
11
376.741943
21
692.408315
0
ARC
8
0
6
CONTINUOUS
10
375.678761
20
691.446464
40
1.433706
50
42.135359
51
121.528006
0
LINE
8
0
6
CONTINUOUS
10
374.929055
20
692.668534
11
368.907739
21
689.566549
0
ARC
8
0
6
CONTINUOUS
10
369.722858
20
688.775349
40
1.135965
50
135.853135
51
189.784885
0
LINE
8
0
6
CONTINUOUS
10
368.603418
20
688.582292
11
369.768171
21
686.769884
0
ARC
8
0
6
CONTINUOUS
10
370.984524
20
687.524861
40
1.431610
50
211.827448
51
284.142565
0
LINE
8
0
6
CONTINUOUS
10
371.334316
20
686.136642
11
377.936234
21
689.330882
0
ARC
8
0
6
CONTINUOUS
10
377.499257
20
690.011090
40
0.808475
50
302.717342
51
395.974805
0
LINE
8
0
6
CONTINUOUS
10
382.291847
20
683.582522
11
375.330968
21
680.120789
0
ARC
8
0
6
CONTINUOUS
10
376.199563
20
679.183370
40
1.277971
50
132.817598
51
218.208796
0
LINE
8
0
6
CONTINUOUS
10
375.195380
20
678.392909
11
377.069007
21
676.268286
0
ARC
8
0
6
CONTINUOUS
10
378.598696
20
677.337206
40
1.866155
50
214.945192
51
288.211920
0
LINE
8
0
6
CONTINUOUS
10
379.181929
20
675.564532
11
385.841055
21
679.209927
0
ARC
8
0
6
CONTINUOUS
10
385.211801
20
680.117136
40
1.104078
50
304.745786
51
394.851339
0
LINE
8
0
6
CONTINUOUS
10
386.117849
20
680.748060
11
383.902568
21
683.224558
0
ARC
8
0
6
CONTINUOUS
10
382.881087
20
682.431069
40
1.293464
50
37.840134
51
117.100463
0
ARC
8
0
6
CONTINUOUS
10
395.166522
20
698.686480
40
0.692591
50
302.717885
51
395.974851
0
LINE
8
0
6
CONTINUOUS
10
395.727020
20
699.093329
11
394.517760
21
700.740095
0
ARC
8
0
6
CONTINUOUS
10
393.606970
20
699.916111
40
1.228205
50
42.135392
51
121.527873
0
LINE
8
0
6
CONTINUOUS
10
392.964726
20
700.963014
11
387.806486
21
698.305659
0
ARC
8
0
6
CONTINUOUS
10
388.504771
20
697.627866
40
0.973142
50
135.853163
51
189.784808
0
LINE
8
0
6
CONTINUOUS
10
387.545787
20
697.462483
11
388.543587
21
695.909859
0
ARC
8
0
6
CONTINUOUS
10
389.585591
20
696.556619
40
1.226406
50
211.827430
51
284.142610
0
LINE
8
0
6
CONTINUOUS
10
389.885246
20
695.367384
11
395.540870
21
698.103774
0
LINE
8
0
6
CONTINUOUS
10
398.158033
20
686.804094
11
403.364550
21
689.654290
0
ARC
8
0
6
CONTINUOUS
10
402.878964
20
690.367501
40
0.862823
50
304.248790
51
394.896928
0
LINE
8
0
6
CONTINUOUS
10
403.586636
20
690.861123
11
401.852776
21
692.799433
0
ARC
8
0
6
CONTINUOUS
10
401.053285
20
692.178387
40
1.012366
50
37.840132
51
117.100461
0
LINE
8
0
6
CONTINUOUS
10
400.592099
20
693.079604
11
395.143967
21
690.370180
0
ARC
8
0
6
CONTINUOUS
10
395.823798
20
689.636482
40
1.000241
50
132.817624
51
218.208753
0
LINE
8
0
6
CONTINUOUS
10
395.037846
20
689.017805
11
396.504294
21
687.354908
0
ARC
8
0
6
CONTINUOUS
10
397.701548
20
688.191528
40
1.460600
50
214.945177
51
288.211943
0
LINE
8
0
6
CONTINUOUS
10
397.656530
20
669.459811
11
394.022800
21
672.915907
0
ARC
8
0
6
CONTINUOUS
10
393.076979
20
671.612660
40
1.610289
50
54.030030
51
115.840905
0
LINE
8
0
6
CONTINUOUS
10
392.375096
20
673.061931
11
384.148587
21
668.294242
0
ARC
8
0
6
CONTINUOUS
10
385.171220
20
667.396346
40
1.360881
50
138.716101
51
224.187720
0
LINE
8
0
6
CONTINUOUS
10
384.195387
20
666.447797
11
387.064690
21
663.375151
0
ARC
8
0
6
CONTINUOUS
10
388.611968
20
664.420814
40
1.867481
50
214.051155
51
302.480494
0
LINE
8
0
6
CONTINUOUS
10
389.614829
20
662.845456
11
397.740624
21
667.662945
0
ARC
8
0
6
CONTINUOUS
10
396.751525
20
668.517055
40
1.306837
50
319.188610
51
406.170428
0
ARC
8
0
6
CONTINUOUS
10
411.597598
20
655.694685
40
1.901072
50
314.209539
51
398.638301
0
LINE
8
0
6
CONTINUOUS
10
413.082532
20
656.881718
11
407.992412
21
661.180796
0
ARC
8
0
6
CONTINUOUS
10
406.205814
20
658.217184
40
3.460480
50
58.916554
51
118.332074
0
LINE
8
0
6
CONTINUOUS
10
404.563536
20
661.263140
11
397.367861
21
656.430837
0
ARC
8
0
6
CONTINUOUS
10
398.650741
20
654.517219
40
2.303848
50
123.837732
51
230.428607
0
LINE
8
0
6
CONTINUOUS
10
397.183101
20
652.741339
11
401.556669
21
649.447231
0
ARC
8
0
6
CONTINUOUS
10
403.570990
20
651.517994
40
2.888866
50
225.791589
51
302.598859
0
LINE
8
0
6
CONTINUOUS
10
405.127378
20
649.084231
11
412.923186
21
654.332007
0
LINE
8
0
6
CONTINUOUS
10
416.059510
20
638.576088
11
423.601467
21
633.557184
0
ARC
8
0
6
CONTINUOUS
10
424.594961
20
635.587174
40
2.260064
50
243.922468
51
267.567878
0
ARC
8
0
6
CONTINUOUS
10
424.497997
20
635.501598
40
2.172453
50
270.027873
51
296.487509
0
LINE
8
0
6
CONTINUOUS
10
425.466916
20
633.557184
11
433.008874
21
638.576088
0
ARC
8
0
6
CONTINUOUS
10
431.344291
20
639.937806
40
2.150606
50
320.714996
51
399.189408
0
LINE
8
0
6
CONTINUOUS
10
433.011143
20
641.296744
11
425.717405
21
646.421704
0
ARC
8
0
6
CONTINUOUS
10
424.424644
20
645.038071
40
1.893587
50
46.944645
51
86.683488
0
ARC
8
0
6
CONTINUOUS
10
424.643743
20
645.038059
40
1.893599
50
93.316638
51
133.055228
0
LINE
8
0
6
CONTINUOUS
10
423.350978
20
646.421704
11
416.057240
21
641.296744
0
ARC
8
0
6
CONTINUOUS
10
417.724091
20
639.937806
40
2.150605
50
140.810572
51
219.285025
0
LINE
8
0
6
CONTINUOUS
10
389.177499
20
618.677286
11
394.761809
21
614.471264
0
ARC
8
0
6
CONTINUOUS
10
397.333758
20
617.115278
40
3.688595
50
225.791589
51
302.598876
0
LINE
8
0
6
CONTINUOUS
10
399.321004
20
614.007775
11
409.274937
21
620.708300
0
ARC
8
0
6
CONTINUOUS
10
407.582385
20
622.448210
40
2.427349
50
314.209529
51
398.638326
0
LINE
8
0
6
CONTINUOUS
10
409.478394
20
623.963852
11
402.979168
21
629.453049
0
ARC
8
0
6
CONTINUOUS
10
400.697986
20
625.669018
40
4.418449
50
58.916541
51
118.332088
0
LINE
8
0
6
CONTINUOUS
10
398.601072
20
629.558188
11
389.413408
21
623.388151
0
ARC
8
0
6
CONTINUOUS
10
391.051430
20
620.944784
40
2.941626
50
123.837718
51
230.428611
0
LINE
8
0
6
CONTINUOUS
10
371.090424
20
637.636880
11
374.931306
21
633.523800
0
ARC
8
0
6
CONTINUOUS
10
377.002511
20
634.923538
40
2.499831
50
214.051153
51
302.480753
0
LINE
8
0
6
CONTINUOUS
10
378.344961
20
632.814750
11
389.222236
21
639.263490
0
ARC
8
0
6
CONTINUOUS
10
387.898216
20
640.406812
40
1.749346
50
319.188585
51
406.170472
0
LINE
8
0
6
CONTINUOUS
10
389.109666
20
641.668796
11
384.245513
21
646.295166
0
ARC
8
0
6
CONTINUOUS
10
382.979426
20
644.550626
40
2.155550
50
54.030021
51
115.840955
0
LINE
8
0
6
CONTINUOUS
10
382.039877
20
646.490638
11
371.027776
21
640.108553
0
ARC
8
0
6
CONTINUOUS
10
372.396684
20
638.906618
40
1.821690
50
138.716113
51
224.187736
0
LINE
8
0
6
CONTINUOUS
10
358.847395
20
652.847432
11
361.481212
21
649.860782
0
ARC
8
0
6
CONTINUOUS
10
363.631541
20
651.363395
40
2.623312
50
214.945174
51
288.211960
0
LINE
8
0
6
CONTINUOUS
10
364.451413
20
648.871493
11
373.802721
21
653.990666
0
ARC
8
0
6
CONTINUOUS
10
372.930414
20
655.271552
40
1.549707
50
304.255593
51
394.896339
0
LINE
8
0
6
CONTINUOUS
10
374.201465
20
656.158130
11
371.087364
21
659.639433
0
ARC
8
0
6
CONTINUOUS
10
369.651436
20
658.524002
40
1.818261
50
37.840103
51
117.100525
0
LINE
8
0
6
CONTINUOUS
10
368.823121
20
660.142635
11
359.037995
21
655.276368
0
ARC
8
0
6
CONTINUOUS
10
360.259005
20
653.958609
40
1.796485
50
132.817592
51
218.208776
0
LINE
8
0
6
CONTINUOUS
10
349.429610
20
666.262178
11
351.106582
21
663.652732
0
ARC
8
0
6
CONTINUOUS
10
352.857849
20
664.739727
40
2.061187
50
211.827465
51
284.142479
0
LINE
8
0
6
CONTINUOUS
10
353.361468
20
662.741012
11
362.866698
21
667.339977
0
ARC
8
0
6
CONTINUOUS
10
362.237546
20
668.319314
40
1.164017
50
302.717762
51
395.974761
0
LINE
8
0
6
CONTINUOUS
10
363.179556
20
669.003092
11
361.147191
21
671.770761
0
ARC
8
0
6
CONTINUOUS
10
359.616456
20
670.385918
40
2.064205
50
42.135374
51
121.527924
0
LINE
8
0
6
CONTINUOUS
10
358.537055
20
672.145416
11
349.867761
21
667.679280
0
ARC
8
0
6
CONTINUOUS
10
351.041345
20
666.540134
40
1.635528
50
135.853149
51
189.784824
0
LINE
8
0
6
CONTINUOUS
10
331.445197
20
670.695455
11
350.731714
21
688.331914
0
ARC
8
0
6
CONTINUOUS
10
349.325292
20
689.149511
40
1.626803
50
329.829259
51
474.506668
0
LINE
8
0
6
CONTINUOUS
10
348.650496
20
690.629760
11
329.675010
21
673.392505
0
ARC
8
0
6
CONTINUOUS
10
331.017720
20
672.344333
40
1.703389
50
142.023007
51
284.534145
0
ARC
8
0
6
CONTINUOUS
10
314.170782
20
656.360583
40
1.645678
50
169.202628
51
305.267126
0
LINE
8
0
6
CONTINUOUS
10
315.120979
20
655.016939
11
318.119338
21
658.950540
0
ARC
8
0
6
CONTINUOUS
10
313.300250
20
661.357309
40
5.386664
50
333.461350
51
353.978409
0
LINE
8
0
6
CONTINUOUS
10
318.657192
20
660.792230
11
318.858047
21
723.633485
0
ARC
8
0
6
CONTINUOUS
10
317.059528
20
723.817639
40
1.807923
50
354.153733
51
449.758029
0
LINE
8
0
6
CONTINUOUS
10
317.067163
20
725.625546
11
314.062970
21
724.344134
0
ARC
8
0
6
CONTINUOUS
10
316.157049
20
721.301255
40
3.693816
50
124.535368
51
181.660301
0
LINE
8
0
6
CONTINUOUS
10
312.464784
20
721.194232
11
312.554239
21
656.668878
0
ARC
8
0
6
CONTINUOUS
10
300.293369
20
652.814389
40
1.653211
50
169.409375
51
302.713161
0
LINE
8
0
6
CONTINUOUS
10
301.186821
20
651.423400
11
302.204546
21
652.224335
0
ARC
8
0
6
CONTINUOUS
10
300.801752
20
653.863919
40
2.157792
50
310.549608
51
361.467211
0
LINE
8
0
6
CONTINUOUS
10
302.958836
20
653.919169
11
302.958836
21
721.134052
0
ARC
8
0
6
CONTINUOUS
10
301.305873
20
721.416253
40
1.676879
50
350.311623
51
475.482821
0
LINE
8
0
6
CONTINUOUS
10
300.584413
20
722.929996
11
299.566687
21
722.297606
0
ARC
8
0
6
CONTINUOUS
10
300.769843
20
720.573102
40
2.102736
50
124.902798
51
181.946975
0
LINE
8
0
6
CONTINUOUS
10
298.668320
20
720.501663
11
298.668320
21
653.118234
0
ARC
8
0
6
CONTINUOUS
10
286.938155
20
645.993204
40
1.349274
50
173.642408
51
271.424379
0
LINE
8
0
6
CONTINUOUS
10
286.971695
20
644.644347
11
289.129424
21
646.395371
0
ARC
8
0
6
CONTINUOUS
10
287.716736
20
647.954137
40
2.103672
50
312.185607
51
369.949407
0
LINE
8
0
6
CONTINUOUS
10
289.788770
20
648.317606
11
289.790858
21
695.803308
0
ARC
8
0
6
CONTINUOUS
10
288.052668
20
696.030139
40
1.752927
50
352.565007
51
459.049714
0
LINE
8
0
6
CONTINUOUS
10
287.776948
20
697.761247
11
286.364629
21
697.120312
0
ARC
8
0
6
CONTINUOUS
10
288.558695
20
695.119414
40
2.969430
50
137.636447
51
184.184247
0
LINE
8
0
6
CONTINUOUS
10
285.597180
20
694.902752
11
285.597180
21
646.142614
0
LINE
8
0
6
CONTINUOUS
10
256.963062
20
657.696683
11
278.697271
21
671.281692
0
ARC
8
0
6
CONTINUOUS
10
277.848356
20
672.033277
40
1.133815
50
318.480017
51
438.348260
0
LINE
8
0
6
CONTINUOUS
10
278.077344
20
673.143727
11
272.263775
21
672.770816
0
ARC
8
0
6
CONTINUOUS
10
272.118467
20
671.078081
40
1.698960
50
85.093621
51
183.107793
0
ARC
8
0
6
CONTINUOUS
10
264.960048
20
670.967704
40
5.461989
50
-23.942461
51
0.191639
0
ARC
8
0
6
CONTINUOUS
10
269.309044
20
668.965479
40
0.677795
50
236.126877
51
341.563599
0
ARC
8
0
6
CONTINUOUS
10
268.526007
20
667.849341
40
0.685909
50
53.783202
51
122.345095
0
LINE
8
0
6
CONTINUOUS
10
268.159034
20
668.428825
11
255.508667
21
660.640563
0
ARC
8
0
6
CONTINUOUS
10
256.686649
20
659.391329
40
1.717041
50
133.318539
51
279.263899
0
LINE
8
0
6
CONTINUOUS
10
224.170925
20
638.509345
11
246.373296
21
651.963377
0
ARC
8
0
6
CONTINUOUS
10
245.089310
20
653.108869
40
1.720690
50
318.262643
51
472.148142
0
LINE
8
0
6
CONTINUOUS
10
244.440607
20
654.702593
11
222.640496
21
641.974469
0
ARC
8
0
6
CONTINUOUS
10
223.430075
20
640.252668
40
1.894210
50
114.635111
51
293.023761
0
LINE
8
0
6
CONTINUOUS
10
246.513092
20
593.047941
11
266.955735
21
612.272956
0
ARC
8
0
6
CONTINUOUS
10
266.035616
20
613.540381
40
1.566200
50
305.978717
51
480.309325
0
LINE
8
0
6
CONTINUOUS
10
265.245205
20
614.892503
11
243.871078
21
596.528404
0
ARC
8
0
6
CONTINUOUS
10
245.490131
20
595.014419
40
2.216638
50
136.920705
51
297.483429
0
LINE
8
0
6
CONTINUOUS
10
220.194226
20
569.941871
11
235.251750
21
584.229257
0
ARC
8
0
6
CONTINUOUS
10
234.569251
20
585.584525
40
1.517418
50
296.729313
51
491.099565
0
LINE
8
0
6
CONTINUOUS
10
233.571748
20
586.728004
11
218.704907
21
573.185857
0
ARC
8
0
6
CONTINUOUS
10
220.051917
20
571.840404
40
1.903859
50
135.033133
51
274.286741
0
LINE
8
0
6
CONTINUOUS
10
199.214431
20
547.110921
11
210.952192
21
558.257596
0
ARC
8
0
6
CONTINUOUS
10
209.777418
20
559.419250
40
1.652131
50
315.321762
51
360.939901
0
LINE
8
0
6
CONTINUOUS
10
211.429327
20
559.446351
11
211.844568
21
695.028038
0
ARC
8
0
6
CONTINUOUS
10
210.511335
20
695.186389
40
1.342604
50
353.226587
51
453.032732
0
LINE
8
0
6
CONTINUOUS
10
210.440303
20
696.527112
11
199.661075
21
694.595560
0
ARC
8
0
6
CONTINUOUS
10
200.049486
20
693.207559
40
1.441322
50
105.633478
51
183.491778
0
LINE
8
0
6
CONTINUOUS
10
198.610840
20
693.119775
11
197.237065
21
548.322965
0
ARC
8
0
6
CONTINUOUS
10
198.441324
20
548.068640
40
1.230821
50
168.075037
51
308.911795
0
LINE
8
0
6
CONTINUOUS
10
176.074363
20
547.979072
11
176.915466
21
684.491205
0
ARC
8
0
6
CONTINUOUS
10
174.406575
20
684.888473
40
2.540149
50
351.002239
51
539.312397
0
LINE
8
0
6
CONTINUOUS
10
171.866608
20
684.918957
11
169.420378
21
548.493576
0
ARC
8
0
6
CONTINUOUS
10
172.724596
20
547.941780
40
3.349975
50
170.519242
51
360.637828
0
LINE
8
0
6
CONTINUOUS
10
149.362528
20
533.589237
11
151.543954
21
636.357883
0
ARC
8
0
6
CONTINUOUS
10
149.036202
20
636.756043
40
2.539163
50
350.978364
51
539.332255
0
LINE
8
0
6
CONTINUOUS
10
146.497212
20
636.785634
11
144.025137
21
533.801329
0
ARC
8
0
6
CONTINUOUS
10
146.686016
20
533.498562
40
2.678048
50
173.508552
51
361.940319
0
LINE
8
0
6
CONTINUOUS
10
127.454252
20
506.290703
11
128.374673
21
566.636688
0
ARC
8
0
6
CONTINUOUS
10
126.464893
20
566.785772
40
1.915590
50
355.536338
51
441.794971
0
LINE
8
0
6
CONTINUOUS
10
126.738278
20
568.681754
11
124.392731
21
568.681754
0
ARC
8
0
6
CONTINUOUS
10
124.602716
20
566.839497
40
1.854186
50
96.502656
51
185.259288
0
LINE
8
0
6
CONTINUOUS
10
122.756336
20
566.669536
11
123.260574
21
506.032318
0
ARC
8
0
6
CONTINUOUS
10
124.601550
20
505.882908
40
1.349274
50
173.642408
51
271.424379
0
LINE
8
0
6
CONTINUOUS
10
124.635090
20
504.534051
11
126.374175
21
504.792437
0
ARC
8
0
6
CONTINUOUS
10
126.022467
20
506.184417
40
1.435725
50
284.180019
51
364.245470
0
LINE
8
0
6
CONTINUOUS
10
138.540079
20
485.893958
11
147.173296
21
485.893958
0
ARC
8
0
6
CONTINUOUS
10
146.963311
20
487.736216
40
1.854186
50
276.502656
51
365.259288
0
LINE
8
0
6
CONTINUOUS
10
148.809692
20
487.906176
11
148.809692
21
503.214345
0
ARC
8
0
6
CONTINUOUS
10
146.963311
20
503.384306
40
1.854186
50
354.740712
51
443.497344
0
LINE
8
0
6
CONTINUOUS
10
147.173296
20
505.226563
11
145.536474
21
505.226563
0
ARC
8
0
6
CONTINUOUS
10
145.746460
20
503.384306
40
1.854186
50
96.502656
51
185.259288
0
LINE
8
0
6
CONTINUOUS
10
143.900079
20
503.214345
11
143.900079
21
491.261203
0
ARC
8
0
6
CONTINUOUS
10
142.053699
20
491.091243
40
1.854186
50
-83.497344
51
5.259288
0
LINE
8
0
6
CONTINUOUS
10
142.263684
20
489.248985
11
138.640840
21
489.248985
0
ARC
8
0
6
CONTINUOUS
10
139.000266
20
487.559163
40
1.727624
50
102.007885
51
254.551611
0
ARC
8
0
6
CONTINUOUS
10
131.560353
20
467.173502
40
18.225998
50
93.329831
51
127.321484
0
ARC
8
0
6
CONTINUOUS
10
129.700862
20
487.328044
40
2.116669
50
292.231951
51
418.316893
0
ARC
8
0
6
CONTINUOUS
10
127.993029
20
476.933881
40
12.517071
50
76.982044
51
138.059964
0
ARC
8
0
6
CONTINUOUS
10
120.081331
20
483.727818
40
2.104321
50
131.670838
51
281.758772
0
LINE
8
0
6
CONTINUOUS
10
103.448571
20
471.827828
11
59.603785
21
432.604794
0
ARC
8
0
6
CONTINUOUS
10
61.248816
20
430.969618
40
2.319467
50
135.172145
51
218.561823
0
LINE
8
0
6
CONTINUOUS
10
59.435142
20
429.523759
11
61.018224
21
427.661063
0
ARC
8
0
6
CONTINUOUS
10
62.143607
20
428.517650
40
1.414295
50
217.276642
51
313.962369
0
LINE
8
0
6
CONTINUOUS
10
63.125390
20
427.499647
11
106.862013
21
467.452720
0
ARC
8
0
6
CONTINUOUS
10
105.232998
20
469.062045
40
2.289895
50
315.348385
51
408.411435
0
LINE
8
0
6
CONTINUOUS
10
106.752977
20
470.774728
11
105.278058
21
471.907385
0
ARC
8
0
6
CONTINUOUS
10
104.408758
20
470.822580
40
1.390139
50
51.293339
51
133.686588
0
LINE
8
0
6
CONTINUOUS
10
75.825753
20
560.132464
11
81.230246
21
557.364960
0
LINE
8
0
6
CONTINUOUS
10
81.230246
20
557.364960
11
133.059353
21
587.024780
0
ARC
8
0
6
CONTINUOUS
10
132.036709
20
587.521529
40
1.136909
50
334.091832
51
450.033821
0
LINE
8
0
6
CONTINUOUS
10
132.036037
20
588.658438
11
111.833357
21
588.218043
0
ARC
8
0
6
CONTINUOUS
10
112.387755
20
585.778712
40
2.501538
50
102.804359
51
197.218654
0
ARC
8
0
6
CONTINUOUS
10
102.627801
20
580.856828
40
8.473999
50
4.885696
51
29.566713
0
ARC
8
0
6
CONTINUOUS
10
109.665641
20
581.342924
40
1.424984
50
-76.474988
51
9.517468
0
ARC
8
0
6
CONTINUOUS
10
110.221120
20
578.638061
40
1.337980
50
99.560293
51
159.347462
0
LINE
8
0
6
CONTINUOUS
10
108.969124
20
579.109967
11
75.825753
21
560.132464
0
LINE
8
0
6
CONTINUOUS
10
74.006023
20
579.299686
11
49.079927
21
566.245651
0
LINE
8
0
6
CONTINUOUS
10
49.079927
20
566.245651
11
49.079927
21
560.910884
0
LINE
8
0
6
CONTINUOUS
10
49.079927
20
560.910884
11
76.901772
21
575.119475
0
ARC
8
0
6
CONTINUOUS
10
75.245278
20
577.065064
40
2.555247
50
310.411411
51
479.011451
0
LINE
8
0
6
CONTINUOUS
10
99.296297
20
600.042669
11
99.451415
21
593.377766
0
ARC
8
0
6
CONTINUOUS
10
97.374446
20
593.347644
40
2.077188
50
-56.661645
51
0.830920
0
LINE
8
0
6
CONTINUOUS
10
98.516031
20
591.612279
11
93.127782
21
588.474190
0
ARC
8
0
6
CONTINUOUS
10
95.202337
20
586.753069
40
2.695559
50
140.319739
51
291.301090
0
LINE
8
0
6
CONTINUOUS
10
96.181550
20
584.241659
11
103.558229
21
588.545342
0
ARC
8
0
6
CONTINUOUS
10
102.400128
20
590.291530
40
2.095320
50
303.553002
51
362.767911
0
LINE
8
0
6
CONTINUOUS
10
104.493003
20
590.392713
11
104.374451
21
600.371068
0
ARC
8
0
6
CONTINUOUS
10
101.961403
20
598.258035
40
3.207446
50
41.207641
51
146.192571
0
ARC
8
0
6
CONTINUOUS
10
79.202651
20
603.555398
40
2.570920
50
189.595416
51
375.937944
0
LINE
8
0
6
CONTINUOUS
10
81.674743
20
604.261362
11
81.138087
21
631.845914
0
ARC
8
0
6
CONTINUOUS
10
78.945240
20
632.130036
40
2.211176
50
352.617435
51
554.620716
0
LINE
8
0
6
CONTINUOUS
10
76.805668
20
631.571892
11
76.667700
21
603.126850
0
LINE
8
0
6
CONTINUOUS
10
59.879164
20
624.929013
11
59.741196
21
596.483972
0
ARC
8
0
6
CONTINUOUS
10
62.276147
20
596.912519
40
2.570920
50
189.595416
51
375.937944
0
LINE
8
0
6
CONTINUOUS
10
64.748240
20
597.618483
11
64.211583
21
625.203035
0
ARC
8
0
6
CONTINUOUS
10
62.018737
20
625.487158
40
2.211176
50
352.617435
51
554.620716
0
LINE
8
0
6
CONTINUOUS
10
89.009873
20
636.810184
11
88.871905
21
608.365144
0
ARC
8
0
6
CONTINUOUS
10
91.406856
20
608.793690
40
2.570920
50
189.595416
51
375.937944
0
LINE
8
0
6
CONTINUOUS
10
93.878949
20
609.499654
11
93.342291
21
637.084206
0
ARC
8
0
6
CONTINUOUS
10
91.149446
20
637.368329
40
2.211176
50
352.617435
51
554.620716
0
LINE
8
0
6
CONTINUOUS
10
99.876703
20
685.243087
11
100.380942
21
624.605867
0
ARC
8
0
6
CONTINUOUS
10
101.721918
20
624.456458
40
1.349274
50
173.642408
51
271.424379
0
LINE
8
0
6
CONTINUOUS
10
101.755458
20
623.107601
11
103.494543
21
623.365988
0
ARC
8
0
6
CONTINUOUS
10
103.142834
20
624.757968
40
1.435725
50
284.180019
51
364.245470
0
LINE
8
0
6
CONTINUOUS
10
104.574620
20
624.864254
11
105.495040
21
685.210239
0
ARC
8
0
6
CONTINUOUS
10
103.585260
20
685.359323
40
1.915590
50
355.536336
51
441.794971
0
LINE
8
0
6
CONTINUOUS
10
103.858645
20
687.255305
11
101.513098
21
687.255305
0
ARC
8
0
6
CONTINUOUS
10
101.723083
20
685.413047
40
1.854186
50
96.502656
51
185.259288
0
ARC
8
0
6
CONTINUOUS
10
92.125637
20
653.235786
40
3.095975
50
162.341146
51
380.704169
0
LINE
8
0
6
CONTINUOUS
10
95.021668
20
654.330347
11
93.868658
21
700.483857
0
ARC
8
0
6
CONTINUOUS
10
91.277083
20
701.104846
40
2.664937
50
346.524956
51
562.101929
0
LINE
8
0
6
CONTINUOUS
10
88.807976
20
700.102148
11
89.175544
21
654.174946
0
ARC
8
0
6
CONTINUOUS
10
80.328846
20
649.890821
40
3.095975
50
162.341146
51
380.704169
0
LINE
8
0
6
CONTINUOUS
10
83.224878
20
650.985381
11
82.071868
21
697.138892
0
ARC
8
0
6
CONTINUOUS
10
79.480293
20
697.759881
40
2.664937
50
346.524956
51
562.101929
0
LINE
8
0
6
CONTINUOUS
10
77.011186
20
696.757184
11
77.378755
21
650.829982
0
LINE
8
0
6
CONTINUOUS
10
59.769735
20
693.133472
11
60.137304
21
647.206270
0
ARC
8
0
6
CONTINUOUS
10
63.087395
20
646.267111
40
3.095975
50
162.341146
51
380.704169
0
LINE
8
0
6
CONTINUOUS
10
65.983427
20
647.361671
11
64.830417
21
693.515181
0
ARC
8
0
6
CONTINUOUS
10
62.238842
20
694.136170
40
2.664937
50
346.524956
51
562.101929
0
LINE
8
0
6
CONTINUOUS
10
61.128924
20
762.619191
11
61.496492
21
716.691989
0
ARC
8
0
6
CONTINUOUS
10
64.446584
20
715.752829
40
3.095975
50
162.341146
51
380.704169
0
LINE
8
0
6
CONTINUOUS
10
67.342615
20
716.847389
11
66.189606
21
763.000900
0
ARC
8
0
6
CONTINUOUS
10
63.598031
20
763.621888
40
2.664937
50
346.524956
51
562.101929
0
LINE
8
0
6
CONTINUOUS
10
77.916652
20
764.276750
11
78.284222
21
718.349548
0
ARC
8
0
6
CONTINUOUS
10
81.234313
20
717.410388
40
3.095975
50
162.341146
51
380.704169
0
LINE
8
0
6
CONTINUOUS
10
84.130345
20
718.504948
11
82.977335
21
764.658459
0
ARC
8
0
6
CONTINUOUS
10
80.385759
20
765.279448
40
2.664937
50
346.524956
51
562.101929
0
LINE
8
0
6
CONTINUOUS
10
89.713442
20
764.291672
11
90.081011
21
718.364470
0
ARC
8
0
6
CONTINUOUS
10
93.031102
20
717.425309
40
3.095975
50
162.341146
51
380.704169
0
LINE
8
0
6
CONTINUOUS
10
95.927134
20
718.519869
11
94.774124
21
764.673381
0
ARC
8
0
6
CONTINUOUS
10
92.182549
20
765.294369
40
2.664937
50
346.524956
51
562.101929
0
LINE
8
0
6
CONTINUOUS
10
146.394204
20
804.503086
11
146.378025
21
661.733561
0
ARC
8
0
6
CONTINUOUS
10
149.000047
20
661.893200
40
2.626877
50
183.484087
51
355.195995
0
LINE
8
0
6
CONTINUOUS
10
151.617696
20
661.673206
11
151.440946
21
804.075334
0
ARC
8
0
6
CONTINUOUS
10
148.933194
20
804.473494
40
2.539163
50
350.978364
51
539.332255
0
ARC
8
0
6
CONTINUOUS
10
103.494429
20
711.052841
40
2.623681
50
184.230211
51
355.261392
0
LINE
8
0
6
CONTINUOUS
10
106.109143
20
710.836098
11
105.940116
21
847.015997
0
ARC
8
0
6
CONTINUOUS
10
103.432364
20
847.414156
40
2.539163
50
350.978364
51
539.332255
0
LINE
8
0
6
CONTINUOUS
10
100.893373
20
847.443748
11
100.877895
21
710.859308
0
LINE
8
0
6
CONTINUOUS
10
89.705778
20
824.322818
11
90.073347
21
778.395615
0
ARC
8
0
6
CONTINUOUS
10
93.023438
20
777.456455
40
3.095975
50
162.341146
51
380.704169
0
LINE
8
0
6
CONTINUOUS
10
95.919470
20
778.551015
11
94.766460
21
824.704526
0
ARC
8
0
6
CONTINUOUS
10
92.174884
20
825.325515
40
2.664937
50
346.524956
51
562.101929
0
LINE
8
0
6
CONTINUOUS
10
76.547828
20
825.716555
11
76.915397
21
779.789353
0
ARC
8
0
6
CONTINUOUS
10
79.865489
20
778.850194
40
3.095975
50
162.341146
51
380.704169
0
LINE
8
0
6
CONTINUOUS
10
82.761521
20
779.944754
11
81.608511
21
826.098264
0
ARC
8
0
6
CONTINUOUS
10
79.016935
20
826.719252
40
2.664937
50
346.524956
51
562.101929
0
LINE
8
0
6
CONTINUOUS
10
60.213815
20
828.782771
11
60.581383
21
782.855569
0
ARC
8
0
6
CONTINUOUS
10
63.531475
20
781.916408
40
3.095975
50
162.341146
51
380.704169
0
LINE
8
0
6
CONTINUOUS
10
66.427506
20
783.010968
11
65.274496
21
829.164480
0
ARC
8
0
6
CONTINUOUS
10
62.682922
20
829.785468
40
2.664937
50
346.524956
51
562.101929
0
ARC
8
0
6
CONTINUOUS
10
79.243796
20
889.716091
40
2.664937
50
346.524956
51
562.101929
0
LINE
8
0
6
CONTINUOUS
10
76.774689
20
888.713394
11
77.142259
21
842.786191
0
ARC
8
0
6
CONTINUOUS
10
80.092350
20
841.847032
40
3.095975
50
162.341146
51
380.704169
0
LINE
8
0
6
CONTINUOUS
10
82.988381
20
842.941592
11
81.835372
21
889.095102
0
LINE
8
0
6
CONTINUOUS
10
89.552279
20
883.943135
11
89.887090
21
842.109039
0
ARC
8
0
6
CONTINUOUS
10
92.778656
20
841.864311
40
2.901903
50
175.162285
51
357.242880
0
LINE
8
0
6
CONTINUOUS
10
95.677200
20
841.724723
11
94.612961
21
884.324843
0
ARC
8
0
6
CONTINUOUS
10
92.021386
20
884.945833
40
2.664937
50
346.524956
51
562.101929
0
LINE
8
0
6
CONTINUOUS
10
59.760092
20
895.403327
11
60.127661
21
849.476124
0
ARC
8
0
6
CONTINUOUS
10
63.077753
20
848.536965
40
3.095975
50
162.341146
51
380.704169
0
LINE
8
0
6
CONTINUOUS
10
65.973784
20
849.631525
11
64.820775
21
895.785035
0
ARC
8
0
6
CONTINUOUS
10
62.229199
20
896.406024
40
2.664937
50
346.524956
51
562.101929
0
ARC
8
0
6
CONTINUOUS
10
92.769149
20
905.203389
40
2.901903
50
175.162285
51
357.242880
0
LINE
8
0
6
CONTINUOUS
10
95.667693
20
905.063801
11
94.603455
21
947.663922
0
ARC
8
0
6
CONTINUOUS
10
92.011879
20
948.284911
40
2.664937
50
346.524956
51
562.101929
0
LINE
8
0
6
CONTINUOUS
10
89.542772
20
947.282214
11
89.877582
21
905.448118
0
ARC
8
0
6
CONTINUOUS
10
81.060300
20
910.632370
40
2.901903
50
175.162285
51
357.242880
0
LINE
8
0
6
CONTINUOUS
10
83.958845
20
910.492782
11
82.894606
21
953.092903
0
ARC
8
0
6
CONTINUOUS
10
80.303031
20
953.713892
40
2.664937
50
346.524956
51
562.101929
0
LINE
8
0
6
CONTINUOUS
10
77.833924
20
952.711194
11
78.168735
21
910.877098
0
LINE
8
0
6
CONTINUOUS
10
66.726951
20
918.364808
11
65.662712
21
960.964928
0
ARC
8
0
6
CONTINUOUS
10
63.071137
20
961.585917
40
2.664937
50
346.524956
51
562.101929
0
LINE
8
0
6
CONTINUOUS
10
60.602030
20
960.583220
11
60.936840
21
918.749124
0
ARC
8
0
6
CONTINUOUS
10
63.828407
20
918.504396
40
2.901903
50
175.162285
51
357.242880
0
LINE
8
0
6
CONTINUOUS
10
106.929403
20
870.014787
11
104.869373
21
1024.751137
0
ARC
8
0
6
CONTINUOUS
10
103.489470
20
1024.853684
40
1.383708
50
355.749966
51
443.657020
0
LINE
8
0
6
CONTINUOUS
10
103.642342
20
1026.228921
11
101.388441
21
1026.228921
0
ARC
8
0
6
CONTINUOUS
10
101.545930
20
1024.847228
40
1.390640
50
96.502656
51
185.259288
0
LINE
8
0
6
CONTINUOUS
10
100.161145
20
1024.719758
11
101.645983
21
869.960788
0
ARC
8
0
6
CONTINUOUS
10
103.027299
20
869.851290
40
1.385650
50
175.467627
51
263.612446
0
LINE
8
0
6
CONTINUOUS
10
102.873142
20
868.474243
11
105.702372
21
868.474243
0
ARC
8
0
6
CONTINUOUS
10
105.540239
20
869.862313
40
1.397507
50
276.662239
51
366.263668
0
LINE
8
0
6
CONTINUOUS
10
151.680357
20
840.742352
11
151.452370
21
1024.425220
0
ARC
8
0
6
CONTINUOUS
10
148.944618
20
1024.823380
40
2.539163
50
350.978364
51
539.332255
0
LINE
8
0
6
CONTINUOUS
10
146.405628
20
1024.852972
11
146.384744
21
840.573600
0
ARC
8
0
6
CONTINUOUS
10
149.030077
20
840.735613
40
2.650289
50
183.504655
51
360.145697
0
ARC
8
0
6
CONTINUOUS
10
174.829663
20
871.774718
40
2.539163
50
350.978364
51
539.332255
0
LINE
8
0
6
CONTINUOUS
10
172.290673
20
871.804309
11
172.272936
21
715.293258
0
ARC
8
0
6
CONTINUOUS
10
174.892707
20
715.603624
40
2.638091
50
186.756388
51
360.380175
0
LINE
8
0
6
CONTINUOUS
10
177.530740
20
715.621130
11
177.337415
21
871.376558
0
ARC
8
0
6
CONTINUOUS
10
210.916940
20
834.216552
40
1.996995
50
356.967047
51
426.245276
0
LINE
8
0
6
CONTINUOUS
10
211.721374
20
836.044358
11
201.783149
21
839.511455
0
ARC
8
0
6
CONTINUOUS
10
201.417434
20
837.820201
40
1.730343
50
77.798276
51
187.089208
0
LINE
8
0
6
CONTINUOUS
10
199.700319
20
837.606651
11
198.539116
21
744.977973
0
ARC
8
0
6
CONTINUOUS
10
200.395646
20
744.785966
40
1.866432
50
174.095322
51
262.650572
0
LINE
8
0
6
CONTINUOUS
10
200.156892
20
742.934867
11
211.222935
21
744.305671
0
ARC
8
0
6
CONTINUOUS
10
211.036701
20
746.145578
40
1.849308
50
275.779752
51
365.415547
0
LINE
8
0
6
CONTINUOUS
10
212.877754
20
746.320113
11
212.911138
21
834.110891
0
LINE
8
0
6
CONTINUOUS
10
303.615088
20
828.417106
11
303.245902
21
942.873594
0
ARC
8
0
6
CONTINUOUS
10
301.039201
20
942.595985
40
2.224093
50
7.170270
51
169.303597
0
LINE
8
0
6
CONTINUOUS
10
298.853753
20
943.008788
11
298.381742
21
828.375940
0
ARC
8
0
6
CONTINUOUS
10
301.005817
20
827.455461
40
2.780836
50
160.670047
51
380.231322
0
LINE
8
0
6
CONTINUOUS
10
286.277540
20
779.545196
11
285.969167
21
708.879534
0
ARC
8
0
6
CONTINUOUS
10
288.240190
20
708.781798
40
2.273125
50
177.535712
51
362.464293
0
LINE
8
0
6
CONTINUOUS
10
290.511213
20
708.879535
11
290.511213
21
779.503746
0
ARC
8
0
6
CONTINUOUS
10
288.390542
20
779.132839
40
2.152862
50
9.920733
51
168.957397
0
ARC
8
0
6
CONTINUOUS
10
391.557705
20
862.556455
40
1.465266
50
328.320914
51
401.511651
0
LINE
8
0
6
CONTINUOUS
10
392.654927
20
863.527592
11
390.556843
21
865.682020
0
ARC
8
0
6
CONTINUOUS
10
389.887605
20
865.047572
40
0.922171
50
43.471327
51
161.493856
0
ARC
8
0
6
CONTINUOUS
10
464.152302
20
830.952258
40
82.634331
50
155.408439
51
178.774616
0
ARC
8
0
6
CONTINUOUS
10
382.754035
20
832.606745
40
1.222370
50
174.710969
51
252.307209
0
LINE
8
0
6
CONTINUOUS
10
382.382540
20
831.442194
11
384.021977
21
831.088790
0
ARC
8
0
6
CONTINUOUS
10
384.111421
20
832.208624
40
1.123401
50
265.433380
51
369.301016
0
ARC
8
0
6
CONTINUOUS
10
436.413730
20
834.858638
40
51.253156
50
148.304947
51
182.760541
0
LINE
8
0
6
CONTINUOUS
10
286.169584
20
959.915636
11
286.299889
21
898.731423
0
ARC
8
0
6
CONTINUOUS
10
288.448339
20
898.885802
40
2.153989
50
184.109958
51
365.034592
0
LINE
8
0
6
CONTINUOUS
10
290.594018
20
899.074830
11
290.849187
21
959.836315
0
ARC
8
0
6
CONTINUOUS
10
288.504266
20
959.573946
40
2.359554
50
6.384162
51
171.673639
0
ARC
8
0
6
CONTINUOUS
10
301.776980
20
1019.635493
40
1.374702
50
354.679323
51
446.108889
0
LINE
8
0
6
CONTINUOUS
10
301.870267
20
1021.007026
11
297.660661
21
1020.803503
0
ARC
8
0
6
CONTINUOUS
10
297.888954
20
1019.406260
40
1.415770
50
99.279444
51
186.480265
0
LINE
8
0
6
CONTINUOUS
10
296.482229
20
1019.246475
11
298.156131
21
955.923293
0
ARC
8
0
6
CONTINUOUS
10
299.524979
20
955.830650
40
1.371979
50
176.128110
51
265.179548
0
LINE
8
0
6
CONTINUOUS
10
299.409687
20
954.463523
11
302.252763
21
954.540188
0
ARC
8
0
6
CONTINUOUS
10
302.058651
20
955.927265
40
1.400592
50
277.966435
51
365.355082
0
LINE
8
0
6
CONTINUOUS
10
303.453131
20
956.057979
11
303.145758
21
1019.508017
0
ARC
8
0
6
CONTINUOUS
10
315.309567
20
954.320513
40
1.743233
50
180.502051
51
210.904457
0
LINE
8
0
6
CONTINUOUS
10
313.813829
20
953.425175
11
316.932596
21
947.722097
0
ARC
8
0
6
CONTINUOUS
10
318.296070
20
948.543512
40
1.591786
50
211.066571
51
368.513743
0
ARC
8
0
6
CONTINUOUS
10
492.292138
20
941.777301
40
172.563934
50
150.656289
51
177.674556
0
ARC
8
0
6
CONTINUOUS
10
339.779141
20
1027.532480
40
2.405144
50
330.327767
51
380.627930
0
LINE
8
0
6
CONTINUOUS
10
342.030086
20
1028.379807
11
339.562259
21
1038.046203
0
ARC
8
0
6
CONTINUOUS
10
338.101430
20
1037.702024
40
1.500827
50
13.257408
51
150.219289
0
ARC
8
0
6
CONTINUOUS
10
468.169356
20
956.896441
40
154.624668
50
148.169191
51
180.960209
0
ARC
8
0
6
CONTINUOUS
10
288.633674
20
971.268428
40
2.547147
50
183.224709
51
275.524452
0
LINE
8
0
6
CONTINUOUS
10
288.878889
20
968.733111
11
289.344341
21
968.823050
0
ARC
8
0
6
CONTINUOUS
10
288.427157
20
971.704121
40
3.023539
50
287.658803
51
373.261618
0
ARC
8
0
6
CONTINUOUS
10
-197.247143
20
959.594095
40
488.784933
50
1.501023
51
10.575029
0
ARC
8
0
6
CONTINUOUS
10
280.808239
20
1048.962201
40
2.450773
50
7.859823
51
190.035870
0
ARC
8
0
6
CONTINUOUS
10
-109.171563
20
970.918272
40
395.262177
50
0.029988
51
11.324650
0
ARC
8
0
6
CONTINUOUS
10
202.026408
20
910.902025
40
2.084467
50
178.382801
51
236.588272
0
LINE
8
0
6
CONTINUOUS
10
200.878594
20
909.162047
11
209.751517
21
903.994023
0
ARC
8
0
6
CONTINUOUS
10
210.426960
20
905.538194
40
1.685433
50
246.374722
51
369.681139
0
LINE
8
0
6
CONTINUOUS
10
212.088390
20
905.821625
11
211.458486
21
1077.651880
0
ARC
8
0
6
CONTINUOUS
10
209.142558
20
1077.661847
40
2.315950
50
359.753398
51
392.410896
0
LINE
8
0
6
CONTINUOUS
10
211.097742
20
1078.903168
11
201.407766
21
1093.732753
0
ARC
8
0
6
CONTINUOUS
10
200.069517
20
1092.824906
40
1.617127
50
34.152355
51
193.307878
0
LINE
8
0
6
CONTINUOUS
10
198.495814
20
1092.452669
11
199.942771
21
910.960852
0
ARC
8
0
6
CONTINUOUS
10
174.116610
20
899.895510
40
3.316639
50
187.019525
51
352.980475
0
LINE
8
0
6
CONTINUOUS
10
177.408389
20
899.490192
11
175.842491
21
1134.352265
0
ARC
8
0
6
CONTINUOUS
10
173.356228
20
1134.764265
40
2.520169
50
350.590978
51
553.237650
0
LINE
8
0
6
CONTINUOUS
10
170.903022
20
1134.187171
11
170.824831
21
899.490192
0
LINE
8
0
6
CONTINUOUS
10
89.320889
20
1007.903933
11
89.655700
21
966.069838
0
ARC
8
0
6
CONTINUOUS
10
92.547266
20
965.825108
40
2.901903
50
175.162285
51
357.242880
0
LINE
8
0
6
CONTINUOUS
10
95.445810
20
965.685520
11
94.381572
21
1008.285642
0
ARC
8
0
6
CONTINUOUS
10
91.789996
20
1008.906630
40
2.664937
50
346.524956
51
562.101929
0
LINE
8
0
6
CONTINUOUS
10
76.949279
20
1015.775955
11
77.284090
21
973.941860
0
ARC
8
0
6
CONTINUOUS
10
80.175655
20
973.697130
40
2.901903
50
175.162285
51
357.242880
0
LINE
8
0
6
CONTINUOUS
10
83.074200
20
973.557542
11
82.009961
21
1016.157664
0
ARC
8
0
6
CONTINUOUS
10
79.418385
20
1016.778652
40
2.664937
50
346.524956
51
562.101929
0
LINE
8
0
6
CONTINUOUS
10
60.380147
20
1027.448268
11
60.714958
21
985.614173
0
ARC
8
0
6
CONTINUOUS
10
63.606524
20
985.369443
40
2.901903
50
175.162285
51
357.242880
0
LINE
8
0
6
CONTINUOUS
10
66.505068
20
985.229855
11
65.440829
21
1027.829977
0
ARC
8
0
6
CONTINUOUS
10
62.849254
20
1028.450965
40
2.664937
50
346.524956
51
562.101929
0
LINE
8
0
6
CONTINUOUS
10
88.431916
20
1070.696883
11
88.766726
21
1028.862788
0
ARC
8
0
6
CONTINUOUS
10
91.658292
20
1028.618058
40
2.901903
50
175.162285
51
357.242880
0
LINE
8
0
6
CONTINUOUS
10
94.556837
20
1028.478470
11
93.492598
21
1071.078592
0
ARC
8
0
6
CONTINUOUS
10
90.901023
20
1071.699580
40
2.664937
50
346.524956
51
562.101929
0
LINE
8
0
6
CONTINUOUS
10
76.281223
20
1082.097746
11
76.616035
21
1040.263650
0
ARC
8
0
6
CONTINUOUS
10
79.507600
20
1040.018922
40
2.901903
50
175.162285
51
357.242880
0
LINE
8
0
6
CONTINUOUS
10
82.406145
20
1039.879334
11
81.341906
21
1082.479454
0
ARC
8
0
6
CONTINUOUS
10
78.750330
20
1083.100444
40
2.664937
50
346.524956
51
562.101929
0
LINE
8
0
6
CONTINUOUS
10
59.712092
20
1096.755998
11
60.046902
21
1054.921902
0
ARC
8
0
6
CONTINUOUS
10
62.938469
20
1054.677174
40
2.901903
50
175.162285
51
357.242880
0
LINE
8
0
6
CONTINUOUS
10
65.837013
20
1054.537586
11
64.772774
21
1097.137707
0
ARC
8
0
6
CONTINUOUS
10
62.181199
20
1097.758695
40
2.664937
50
346.524956
51
562.101929
0
ARC
8
0
6
CONTINUOUS
10
102.160359
20
1046.056518
40
1.385650
50
175.467627
51
263.612446
0
LINE
8
0
6
CONTINUOUS
10
102.006202
20
1044.679470
11
104.835432
21
1044.679470
0
ARC
8
0
6
CONTINUOUS
10
104.673299
20
1046.067540
40
1.397507
50
276.662239
51
366.263668
0
LINE
8
0
6
CONTINUOUS
10
106.062463
20
1046.220013
11
104.184729
21
1157.242139
0
ARC
8
0
6
CONTINUOUS
10
102.804826
20
1157.344686
40
1.383708
50
355.749966
51
443.657020
0
LINE
8
0
6
CONTINUOUS
10
102.957698
20
1158.719923
11
100.703796
21
1158.719923
0
ARC
8
0
6
CONTINUOUS
10
100.909005
20
1157.249595
40
1.484579
50
97.945258
51
182.408671
0
LINE
8
0
6
CONTINUOUS
10
99.425737
20
1157.187203
11
100.779043
21
1046.166014
0
LINE
8
0
6
CONTINUOUS
10
87.990308
20
1133.789612
11
88.325118
21
1091.955516
0
ARC
8
0
6
CONTINUOUS
10
91.216684
20
1091.710788
40
2.901903
50
175.162285
51
357.242880
0
LINE
8
0
6
CONTINUOUS
10
94.115229
20
1091.571199
11
93.050989
21
1134.171320
0
ARC
8
0
6
CONTINUOUS
10
90.459415
20
1134.792310
40
2.664937
50
346.524956
51
562.101929
0
LINE
8
0
6
CONTINUOUS
10
75.813677
20
1147.920744
11
76.148487
21
1106.086648
0
ARC
8
0
6
CONTINUOUS
10
79.040053
20
1105.841920
40
2.901903
50
175.162285
51
357.242880
0
LINE
8
0
6
CONTINUOUS
10
81.938598
20
1105.702332
11
80.874359
21
1148.302453
0
ARC
8
0
6
CONTINUOUS
10
78.282784
20
1148.923441
40
2.664937
50
346.524956
51
562.101929
0
LINE
8
0
6
CONTINUOUS
10
57.724580
20
1166.401029
11
58.068922
21
1123.375937
0
ARC
8
0
6
CONTINUOUS
10
60.968218
20
1123.137298
40
2.909100
50
175.294628
51
359.004254
0
LINE
8
0
6
CONTINUOUS
10
63.876878
20
1123.086743
11
62.785262
21
1166.782737
0
ARC
8
0
6
CONTINUOUS
10
60.193687
20
1167.403727
40
2.664937
50
346.524956
51
562.101929
0
LINE
8
0
6
CONTINUOUS
10
86.923031
20
1205.155263
11
87.290601
21
1159.228060
0
ARC
8
0
6
CONTINUOUS
10
90.240692
20
1158.288901
40
3.095975
50
162.341146
51
380.704169
0
LINE
8
0
6
CONTINUOUS
10
93.136723
20
1159.383461
11
91.983714
21
1205.536971
0
ARC
8
0
6
CONTINUOUS
10
89.392138
20
1206.157960
40
2.664937
50
346.524956
51
562.101929
0
LINE
8
0
6
CONTINUOUS
10
75.813677
20
1213.867094
11
76.148487
21
1172.032998
0
ARC
8
0
6
CONTINUOUS
10
79.040053
20
1171.788270
40
2.901903
50
175.162285
51
357.242880
0
LINE
8
0
6
CONTINUOUS
10
81.938598
20
1171.648682
11
80.874359
21
1214.248803
0
ARC
8
0
6
CONTINUOUS
10
78.282784
20
1214.869791
40
2.664937
50
346.524956
51
562.101929
0
LINE
8
0
6
CONTINUOUS
10
57.724580
20
1235.577238
11
58.059847
21
1193.686049
0
ARC
8
0
6
CONTINUOUS
10
60.934901
20
1193.080587
40
2.938115
50
168.107761
51
355.178918
0
LINE
8
0
6
CONTINUOUS
10
63.862621
20
1192.833653
11
62.785262
21
1235.958947
0
ARC
8
0
6
CONTINUOUS
10
60.193687
20
1236.579935
40
2.664937
50
346.524956
51
562.101929
0
LINE
8
0
6
CONTINUOUS
10
85.541618
20
1276.716569
11
56.893166
21
1269.283375
0
ARC
8
0
6
CONTINUOUS
10
57.624194
20
1267.014182
40
2.384038
50
107.856499
51
222.452815
0
LINE
8
0
6
CONTINUOUS
10
55.865172
20
1265.404998
11
87.501750
21
1222.159793
0
ARC
8
0
6
CONTINUOUS
10
89.006402
20
1222.981812
40
1.714554
50
208.648577
51
369.798149
0
LINE
8
0
6
CONTINUOUS
10
90.695947
20
1223.273591
11
88.991560
21
1274.005201
0
ARC
8
0
6
CONTINUOUS
10
86.268971
20
1274.091517
40
2.723957
50
358.184117
51
465.487071
0
ARC
8
0
6
CONTINUOUS
10
-435.401678
20
1220.463587
40
534.274923
50
-3.130915
51
7.164758
0
ARC
8
0
6
CONTINUOUS
10
100.731909
20
1189.793001
40
3.045422
50
150.712792
51
370.349683
0
ARC
8
0
6
CONTINUOUS
10
-745.306504
20
1202.268164
40
849.118068
50
359.195108
51
365.789053
0
ARC
8
0
6
CONTINUOUS
10
96.910960
20
1287.954424
40
2.570397
50
359.131921
51
457.788116
0
LINE
8
0
6
CONTINUOUS
10
96.562645
20
1290.501112
11
96.644376
21
1290.521270
0
ARC
8
0
6
CONTINUOUS
10
97.677514
20
1287.672189
40
3.030616
50
109.931751
51
190.884120
0
LINE
8
0
6
CONTINUOUS
10
175.798944
20
1181.718687
11
175.754959
21
1191.650519
0
LINE
8
0
6
CONTINUOUS
10
175.754959
20
1191.650519
11
175.678430
21
1201.582053
0
LINE
8
0
6
CONTINUOUS
10
175.678430
20
1201.582053
11
175.569358
21
1211.513126
0
LINE
8
0
6
CONTINUOUS
10
175.569358
20
1211.513126
11
175.427745
21
1221.443579
0
LINE
8
0
6
CONTINUOUS
10
175.427745
20
1221.443579
11
175.253594
21
1231.373249
0
LINE
8
0
6
CONTINUOUS
10
175.253594
20
1231.373249
11
175.046907
21
1241.301976
0
LINE
8
0
6
CONTINUOUS
10
175.046907
20
1241.301976
11
174.807688
21
1251.229599
0
LINE
8
0
6
CONTINUOUS
10
174.807688
20
1251.229599
11
174.535940
21
1261.155955
0
LINE
8
0
6
CONTINUOUS
10
174.535940
20
1261.155955
11
174.231668
21
1271.080884
0
LINE
8
0
6
CONTINUOUS
10
174.231668
20
1271.080884
11
173.894877
21
1281.004225
0
LINE
8
0
6
CONTINUOUS
10
173.894877
20
1281.004225
11
173.525573
21
1290.925818
0
ARC
8
0
6
CONTINUOUS
10
171.721715
20
1291.033548
40
1.807074
50
356.581589
51
447.494014
0
LINE
8
0
6
CONTINUOUS
10
171.800727
20
1292.838894
11
166.226211
21
1292.459985
0
ARC
8
0
6
CONTINUOUS
10
166.591654
20
1290.563068
40
1.931797
50
100.904548
51
190.357898
0
LINE
8
0
6
CONTINUOUS
10
164.691338
20
1290.215746
11
165.404221
21
1280.352297
0
LINE
8
0
6
CONTINUOUS
10
165.404221
20
1280.352297
11
166.062204
21
1270.483081
0
LINE
8
0
6
CONTINUOUS
10
166.062204
20
1270.483081
11
166.665257
21
1260.608559
0
LINE
8
0
6
CONTINUOUS
10
166.665257
20
1260.608559
11
167.213351
21
1250.729195
0
LINE
8
0
6
CONTINUOUS
10
167.213351
20
1250.729195
11
167.706459
21
1240.845451
0
LINE
8
0
6
CONTINUOUS
10
167.706459
20
1240.845451
11
168.144560
21
1230.957789
0
LINE
8
0
6
CONTINUOUS
10
168.144560
20
1230.957789
11
168.527633
21
1221.066672
0
LINE
8
0
6
CONTINUOUS
10
168.527633
20
1221.066672
11
168.855659
21
1211.172564
0
LINE
8
0
6
CONTINUOUS
10
168.855659
20
1211.172564
11
169.128624
21
1201.275928
0
LINE
8
0
6
CONTINUOUS
10
169.128624
20
1201.275928
11
169.346515
21
1191.377227
0
LINE
8
0
6
CONTINUOUS
10
169.346515
20
1191.377227
11
169.509321
21
1181.476924
0
LINE
8
0
6
CONTINUOUS
10
169.509321
20
1181.476924
11
169.617034
21
1171.575483
0
LINE
8
0
6
CONTINUOUS
10
169.617034
20
1171.575483
11
169.669651
21
1161.673368
0
ARC
8
0
6
CONTINUOUS
10
171.040441
20
1161.511422
40
1.380323
50
173.261930
51
266.522081
0
LINE
8
0
6
CONTINUOUS
10
170.956704
20
1160.133641
11
174.622037
21
1160.354393
0
ARC
8
0
6
CONTINUOUS
10
174.386789
20
1161.741636
40
1.407048
50
279.624658
51
364.611716
0
LINE
8
0
6
CONTINUOUS
10
175.789281
20
1161.854773
11
175.810385
21
1171.786718
0
LINE
8
0
6
CONTINUOUS
10
175.810385
20
1171.786718
11
175.798944
21
1181.718687
0
LINE
8
0
6
CONTINUOUS
10
222.769332
20
1173.209745
11
222.532279
21
1172.892709
0
ARC
8
0
6
CONTINUOUS
10
225.411156
20
1170.855401
40
3.526834
50
144.713918
51
218.838922
0
ARC
8
0
6
CONTINUOUS
10
84.716696
20
1034.168079
40
192.647719
50
34.948837
51
44.269845
0
ARC
8
0
6
CONTINUOUS
10
244.439210
20
1145.672840
40
2.148294
50
212.286880
51
319.605653
0
LINE
8
0
6
CONTINUOUS
10
246.075356
20
1144.280650
11
246.337741
21
1144.565924
0
ARC
8
0
6
CONTINUOUS
10
243.646046
20
1146.835918
40
3.521093
50
319.857977
51
394.553095
0
ARC
8
0
6
CONTINUOUS
10
121.731418
20
1066.279357
40
149.645531
50
33.481046
51
45.701779
0
ARC
8
0
6
CONTINUOUS
10
224.568851
20
1172.036405
40
2.148255
50
38.810652
51
146.894432
0
LINE
8
0
6
CONTINUOUS
10
230.767501
20
1205.289562
11
230.530448
21
1204.972526
0
ARC
8
0
6
CONTINUOUS
10
233.409324
20
1202.935217
40
3.526834
50
144.713918
51
218.838922
0
ARC
8
0
6
CONTINUOUS
10
23.331798
20
1012.382470
40
280.103950
50
27.531067
51
42.252308
0
ARC
8
0
6
CONTINUOUS
10
273.533003
20
1143.002313
40
2.148294
50
212.286880
51
319.605653
0
LINE
8
0
6
CONTINUOUS
10
275.169148
20
1141.610123
11
275.431533
21
1141.895398
0
ARC
8
0
6
CONTINUOUS
10
272.741892
20
1144.170187
40
3.522618
50
319.776823
51
383.061671
0
ARC
8
0
6
CONTINUOUS
10
44.103819
20
1028.493709
40
259.750158
50
26.785384
51
42.945659
0
ARC
8
0
6
CONTINUOUS
10
232.567020
20
1204.116222
40
2.148255
50
38.810652
51
146.894432
0
ARC
8
0
6
CONTINUOUS
10
276.867302
20
1232.625667
40
2.012997
50
311.037706
51
391.806271
0
ARC
8
0
6
CONTINUOUS
10
108.427700
20
1127.252955
40
200.696921
50
32.027101
51
41.243570
0
ARC
8
0
6
CONTINUOUS
10
258.361286
20
1258.787175
40
1.245654
50
38.622540
51
142.696131
0
LINE
8
0
6
CONTINUOUS
10
257.370452
20
1259.542094
11
255.667872
21
1257.531579
0
ARC
8
0
6
CONTINUOUS
10
257.282542
20
1256.260801
40
2.054759
50
141.796561
51
217.334120
0
LINE
8
0
6
CONTINUOUS
10
255.648769
20
1255.014679
11
260.642365
21
1248.922940
0
LINE
8
0
6
CONTINUOUS
10
260.642365
20
1248.922940
11
265.659646
21
1242.860702
0
LINE
8
0
6
CONTINUOUS
10
265.659646
20
1242.860702
11
270.700498
21
1236.828102
0
LINE
8
0
6
CONTINUOUS
10
270.700498
20
1236.828102
11
275.764806
21
1230.825281
0
ARC
8
0
6
CONTINUOUS
10
276.748714
20
1231.571612
40
1.234945
50
217.181121
51
307.509810
0
LINE
8
0
6
CONTINUOUS
10
277.500669
20
1230.591993
11
278.188946
21
1231.107307
0
LINE
8
0
6
CONTINUOUS
10
291.698505
20
1212.890846
11
289.930280
21
1211.421902
0
ARC
8
0
6
CONTINUOUS
10
291.323958
20
1209.950827
40
2.026426
50
133.452393
51
213.434263
0
ARC
8
0
6
CONTINUOUS
10
166.373575
20
1125.193303
40
148.958621
50
28.907776
51
34.159939
0
ARC
8
0
6
CONTINUOUS
10
297.940601
20
1197.709734
40
1.275094
50
203.559464
51
311.238145
0
LINE
8
0
6
CONTINUOUS
10
298.781130
20
1196.750893
11
300.467592
21
1198.213193
0
ARC
8
0
6
CONTINUOUS
10
299.052860
20
1199.663020
40
2.025701
50
314.298088
51
385.491776
0
ARC
8
0
6
CONTINUOUS
10
240.806096
20
1172.387289
40
66.342456
50
25.104887
51
37.354239
0
ARC
8
0
6
CONTINUOUS
10
292.508680
20
1211.946826
40
1.244009
50
33.862300
51
130.636779
0
ARC
8
0
6
CONTINUOUS
10
301.246951
20
1278.368367
40
36.736294
50
241.118046
51
288.720933
0
ARC
8
0
6
CONTINUOUS
10
314.284448
20
1241.394710
40
2.512120
50
-24.827044
51
119.752491
0
ARC
8
0
6
CONTINUOUS
10
324.855394
20
1239.255418
40
8.361626
50
172.547752
51
279.171849
0
ARC
8
0
6
CONTINUOUS
10
324.367922
20
1234.439654
40
3.890996
50
297.892843
51
355.256345
0
ARC
8
0
6
CONTINUOUS
10
338.958237
20
1233.408833
40
10.736087
50
102.523066
51
176.213255
0
ARC
8
0
6
CONTINUOUS
10
349.025884
20
1182.229297
40
62.893803
50
85.080254
51
101.366694
0
ARC
8
0
6
CONTINUOUS
10
353.945210
20
1247.108741
40
2.267550
50
282.077910
51
434.434042
0
ARC
8
0
6
CONTINUOUS
10
349.563947
20
1316.118249
40
67.011158
50
258.871660
51
274.270285
0
ARC
8
0
6
CONTINUOUS
10
338.958236
20
1260.847741
40
10.736085
50
183.786740
51
257.476938
0
ARC
8
0
6
CONTINUOUS
10
324.367922
20
1259.816921
40
3.890996
50
4.743651
51
62.107161
0
ARC
8
0
6
CONTINUOUS
10
324.855393
20
1255.001159
40
8.361625
50
80.828141
51
187.452258
0
ARC
8
0
6
CONTINUOUS
10
314.284448
20
1252.861865
40
2.512120
50
-119.752494
51
24.827048
0
ARC
8
0
6
CONTINUOUS
10
301.246951
20
1215.888209
40
36.736294
50
71.279066
51
118.881954
0
ARC
8
0
6
CONTINUOUS
10
284.123251
20
1247.133758
40
1.110641
50
123.944637
51
236.515102
0
LINE
8
0
6
CONTINUOUS
10
283.510491
20
1246.207448
11
283.503078
21
1246.201454
0
LINE
8
0
6
CONTINUOUS
10
309.217080
20
1179.171370
11
307.083132
21
1178.821425
0
ARC
8
0
6
CONTINUOUS
10
307.956459
20
1177.153515
40
1.882716
50
117.636817
51
199.704428
0
LINE
8
0
6
CONTINUOUS
10
306.183986
20
1176.518723
11
306.183986
21
1176.429605
0
LINE
8
0
6
CONTINUOUS
10
306.183986
20
1176.429605
11
316.636910
21
1146.812058
0
ARC
8
0
6
CONTINUOUS
10
318.072412
20
1147.149556
40
1.474643
50
193.230374
51
266.210863
0
LINE
8
0
6
CONTINUOUS
10
317.974961
20
1145.678137
11
321.064568
21
1145.678137
0
ARC
8
0
6
CONTINUOUS
10
320.767098
20
1147.420840
40
1.767909
50
279.686732
51
385.555820
0
LINE
8
0
6
CONTINUOUS
10
322.362044
20
1148.183499
11
310.953461
21
1178.240109
0
ARC
8
0
6
CONTINUOUS
10
309.645639
20
1177.886025
40
1.354907
50
15.149273
51
108.439398
0
LINE
8
0
6
CONTINUOUS
10
401.439735
20
1235.995475
11
407.243576
21
1239.047718
0
LINE
8
0
6
CONTINUOUS
10
407.243576
20
1239.047718
11
413.046200
21
1242.103460
0
ARC
8
0
6
CONTINUOUS
10
412.603370
20
1243.316801
40
1.291624
50
290.050936
51
435.740674
0
ARC
8
0
6
CONTINUOUS
10
409.117403
20
1153.178418
40
91.469352
50
87.616445
51
134.258805
0
ARC
8
0
6
CONTINUOUS
10
356.121250
20
1208.175966
40
15.100402
50
135.880165
51
207.628082
0
ARC
8
0
6
CONTINUOUS
10
345.483302
20
1202.668732
40
3.122024
50
208.616571
51
365.416889
0
ARC
8
0
6
CONTINUOUS
10
369.834006
20
1199.245386
40
21.565553
50
105.328142
51
170.072156
0
ARC
8
0
6
CONTINUOUS
10
363.606403
20
1221.426311
40
1.479482
50
290.859867
51
380.285910
0
ARC
8
0
6
CONTINUOUS
10
371.759103
20
1224.860889
40
7.368918
50
149.630919
51
203.358354
0
ARC
8
0
6
CONTINUOUS
10
377.618418
20
1221.010172
40
14.375566
50
55.861477
51
148.195687
0
ARC
8
0
6
CONTINUOUS
10
380.308259
20
1227.544084
40
7.595863
50
26.310872
51
44.929804
0
ARC
8
0
6
CONTINUOUS
10
388.842435
20
1231.398997
40
1.792948
50
195.797627
51
303.359856
0
LINE
8
0
6
CONTINUOUS
10
389.828406
20
1229.901487
11
395.634678
21
1232.946731
0
LINE
8
0
6
CONTINUOUS
10
395.634678
20
1232.946731
11
401.439735
21
1235.995475
0
ARC
8
0
6
CONTINUOUS
10
418.648929
20
1238.229400
40
1.761057
50
325.935697
51
467.219178
0
ARC
8
0
6
CONTINUOUS
10
-87.378026
20
1807.644968
40
760.169197
50
309.926796
51
311.681630
0
LINE
8
0
6
CONTINUOUS
10
400.504915
20
1224.697763
11
400.030540
21
1224.316823
0
LINE
8
0
6
CONTINUOUS
10
400.030540
20
1224.316823
11
399.557303
21
1223.933747
0
LINE
8
0
6
CONTINUOUS
10
399.557303
20
1223.933747
11
399.085209
21
1223.548542
0
ARC
8
0
6
CONTINUOUS
10
399.485209
20
1223.233344
40
0.509263
50
141.761928
51
265.243437
0
ARC
8
0
6
CONTINUOUS
10
399.397804
20
1216.361742
40
6.364253
50
-49.436136
51
89.593299
0
ARC
8
0
6
CONTINUOUS
10
393.368953
20
1220.103499
40
13.301705
50
234.776477
51
319.851446
0
ARC
8
0
6
CONTINUOUS
10
384.900965
20
1207.860256
40
1.590490
50
59.968866
51
147.625798
0
ARC
8
0
6
CONTINUOUS
10
365.503270
20
1214.796375
40
19.052115
50
268.872021
51
341.375732
0
ARC
8
0
6
CONTINUOUS
10
359.991948
20
1351.949916
40
156.286387
50
268.854489
51
271.883334
0
ARC
8
0
6
CONTINUOUS
10
356.877900
20
1194.227859
40
1.466940
50
90.404958
51
259.154145
0
ARC
8
0
6
CONTINUOUS
10
366.272050
20
1246.560680
40
54.636140
50
259.805376
51
350.180739
0
ARC
8
0
6
CONTINUOUS
10
424.300616
20
1207.537364
40
1.568270
50
81.434607
51
180.223707
0
ARC
8
0
6
CONTINUOUS
10
397.839611
20
1204.095039
40
25.128795
50
-28.232750
51
7.859459
0
ARC
8
0
6
CONTINUOUS
10
404.488645
20
1201.896265
40
18.270625
50
255.974598
51
327.975745
0
ARC
8
0
6
CONTINUOUS
10
409.475444
20
1185.342770
40
9.487446
50
187.098720
51
283.216073
0
ARC
8
0
6
CONTINUOUS
10
413.429504
20
1171.457360
40
4.980127
50
55.157033
51
111.003507
0
ARC
8
0
6
CONTINUOUS
10
412.550328
20
1172.098252
40
5.074381
50
-21.289776
51
42.779355
0
ARC
8
0
6
CONTINUOUS
10
427.347472
20
1165.089616
40
11.317049
50
152.838671
51
255.606038
0
ARC
8
0
6
CONTINUOUS
10
421.720912
20
1165.089616
40
11.317048
50
284.393959
51
387.161331
0
ARC
8
0
6
CONTINUOUS
10
436.518055
20
1172.098252
40
5.074382
50
137.220652
51
201.289768
0
ARC
8
0
6
CONTINUOUS
10
435.638879
20
1171.457363
40
4.980125
50
68.996480
51
124.842981
0
ARC
8
0
6
CONTINUOUS
10
439.592940
20
1185.342769
40
9.487445
50
256.783927
51
352.901282
0
ARC
8
0
6
CONTINUOUS
10
444.579738
20
1201.896267
40
18.270626
50
212.024258
51
284.025400
0
ARC
8
0
6
CONTINUOUS
10
451.228775
20
1204.095040
40
25.128798
50
172.140543
51
208.232748
0
ARC
8
0
6
CONTINUOUS
10
424.767767
20
1207.537365
40
1.568270
50
359.776292
51
458.565394
0
ARC
8
0
6
CONTINUOUS
10
482.796333
20
1246.560680
40
54.636139
50
189.819260
51
280.194624
0
ARC
8
0
6
CONTINUOUS
10
492.190484
20
1194.227859
40
1.466940
50
280.845829
51
449.595068
0
ARC
8
0
6
CONTINUOUS
10
489.076441
20
1351.950871
40
156.287342
50
268.116675
51
271.145502
0
ARC
8
0
6
CONTINUOUS
10
483.565115
20
1214.796376
40
19.052116
50
198.624270
51
271.127977
0
ARC
8
0
6
CONTINUOUS
10
464.167419
20
1207.860257
40
1.590489
50
32.374176
51
120.031159
0
ARC
8
0
6
CONTINUOUS
10
455.699430
20
1220.103500
40
13.301705
50
220.148555
51
305.223522
0
ARC
8
0
6
CONTINUOUS
10
449.670579
20
1216.361743
40
6.364253
50
90.406698
51
229.436139
0
ARC
8
0
6
CONTINUOUS
10
449.583175
20
1223.233344
40
0.509263
50
274.756523
51
398.238112
0
LINE
8
0
6
CONTINUOUS
10
449.983173
20
1223.548542
11
449.511080
21
1223.933747
0
LINE
8
0
6
CONTINUOUS
10
449.511080
20
1223.933747
11
449.037843
21
1224.316823
0
LINE
8
0
6
CONTINUOUS
10
449.037843
20
1224.316823
11
448.563467
21
1224.697763
0
ARC
8
0
6
CONTINUOUS
10
936.446771
20
1807.645388
40
760.169751
50
228.318370
51
230.073203
0
ARC
8
0
6
CONTINUOUS
10
430.419454
20
1238.229400
40
1.761056
50
72.780797
51
214.064327
0
ARC
8
0
6
CONTINUOUS
10
436.465013
20
1243.316801
40
1.291624
50
104.259316
51
249.949073
0
LINE
8
0
6
CONTINUOUS
10
436.022184
20
1242.103460
11
441.824807
21
1239.047718
0
LINE
8
0
6
CONTINUOUS
10
441.824807
20
1239.047718
11
447.628648
21
1235.995475
0
LINE
8
0
6
CONTINUOUS
10
447.628648
20
1235.995475
11
453.433706
21
1232.946731
0
LINE
8
0
6
CONTINUOUS
10
453.433706
20
1232.946731
11
459.239978
21
1229.901487
0
ARC
8
0
6
CONTINUOUS
10
460.225947
20
1231.398998
40
1.792948
50
236.640165
51
344.202352
0
ARC
8
0
6
CONTINUOUS
10
468.760148
20
1227.544067
40
7.595893
50
135.070232
51
153.689092
0
ARC
8
0
6
CONTINUOUS
10
471.449966
20
1221.010174
40
14.375564
50
31.804307
51
124.138528
0
ARC
8
0
6
CONTINUOUS
10
477.309286
20
1224.860889
40
7.368913
50
-23.358373
51
30.369100
0
ARC
8
0
6
CONTINUOUS
10
485.461981
20
1221.426311
40
1.479482
50
159.714094
51
249.140129
0
ARC
8
0
6
CONTINUOUS
10
479.234379
20
1199.245388
40
21.565551
50
9.927842
51
74.671862
0
ARC
8
0
6
CONTINUOUS
10
503.585081
20
1202.668731
40
3.122024
50
174.583100
51
331.383440
0
ARC
8
0
6
CONTINUOUS
10
492.947136
20
1208.175966
40
15.100400
50
332.371912
51
404.119842
0
ARC
8
0
6
CONTINUOUS
10
439.950981
20
1153.178419
40
91.469351
50
45.741195
51
92.383555
0
ARC
8
0
6
CONTINUOUS
10
440.149132
20
1342.098072
40
91.469352
50
267.616445
51
314.258805
0
ARC
8
0
6
CONTINUOUS
10
493.145284
20
1287.100524
40
15.100402
50
315.880165
51
387.628082
0
ARC
8
0
6
CONTINUOUS
10
503.783233
20
1292.607759
40
3.122024
50
28.616571
51
185.416889
0
ARC
8
0
6
CONTINUOUS
10
479.432528
20
1296.031104
40
21.565553
50
285.328142
51
350.072156
0
ARC
8
0
6
CONTINUOUS
10
485.660132
20
1273.850179
40
1.479482
50
110.859867
51
200.285910
0
ARC
8
0
6
CONTINUOUS
10
477.507432
20
1270.415601
40
7.368918
50
-30.369081
51
23.358354
0
ARC
8
0
6
CONTINUOUS
10
471.648117
20
1274.266318
40
14.375566
50
235.861477
51
328.195687
0
ARC
8
0
6
CONTINUOUS
10
468.958275
20
1267.732406
40
7.595863
50
206.310872
51
224.929804
0
ARC
8
0
6
CONTINUOUS
10
460.424099
20
1263.877493
40
1.792948
50
15.797627
51
123.359856
0
LINE
8
0
6
CONTINUOUS
10
459.438129
20
1265.375003
11
453.631857
21
1262.329759
0
LINE
8
0
6
CONTINUOUS
10
453.631857
20
1262.329759
11
447.826800
21
1259.281015
0
LINE
8
0
6
CONTINUOUS
10
447.826800
20
1259.281015
11
442.022958
21
1256.228772
0
LINE
8
0
6
CONTINUOUS
10
442.022958
20
1256.228772
11
436.220335
21
1253.173031
0
ARC
8
0
6
CONTINUOUS
10
436.663165
20
1251.959689
40
1.291624
50
110.050936
51
255.740674
0
ARC
8
0
6
CONTINUOUS
10
430.617606
20
1257.047090
40
1.761057
50
145.935697
51
287.219178
0
ARC
8
0
6
CONTINUOUS
10
936.644560
20
687.631522
40
760.169197
50
129.926796
51
131.681630
0
LINE
8
0
6
CONTINUOUS
10
448.761618
20
1270.578727
11
449.235994
21
1270.959667
0
LINE
8
0
6
CONTINUOUS
10
449.235994
20
1270.959667
11
449.709231
21
1271.342743
0
LINE
8
0
6
CONTINUOUS
10
449.709231
20
1271.342743
11
450.181324
21
1271.727948
0
ARC
8
0
6
CONTINUOUS
10
449.781326
20
1272.043146
40
0.509263
50
321.761928
51
445.243437
0
ARC
8
0
6
CONTINUOUS
10
449.868730
20
1278.914748
40
6.364253
50
130.563864
51
269.593299
0
ARC
8
0
6
CONTINUOUS
10
455.897581
20
1275.172991
40
13.301705
50
54.776477
51
139.851446
0
ARC
8
0
6
CONTINUOUS
10
464.365570
20
1287.416234
40
1.590490
50
239.968866
51
327.625798
0
ARC
8
0
6
CONTINUOUS
10
483.763265
20
1280.480115
40
19.052115
50
88.872021
51
161.375732
0
ARC
8
0
6
CONTINUOUS
10
489.274586
20
1143.326574
40
156.286387
50
88.854489
51
91.883334
0
ARC
8
0
6
CONTINUOUS
10
492.388634
20
1301.048631
40
1.466940
50
270.404958
51
439.154145
0
ARC
8
0
6
CONTINUOUS
10
482.994484
20
1248.715810
40
54.636140
50
79.805376
51
170.180739
0
ARC
8
0
6
CONTINUOUS
10
418.450779
20
1257.047090
40
1.761056
50
252.780797
51
394.064327
0
ARC
8
0
6
CONTINUOUS
10
366.073900
20
1248.715810
40
54.636139
50
9.819260
51
100.194624
0
ARC
8
0
6
CONTINUOUS
10
356.679748
20
1301.048631
40
1.466940
50
100.845829
51
269.595068
0
ARC
8
0
6
CONTINUOUS
10
359.793791
20
1143.325619
40
156.287342
50
88.116675
51
91.145502
0
ARC
8
0
6
CONTINUOUS
10
365.305118
20
1280.480114
40
19.052116
50
18.624270
51
91.127977
0
ARC
8
0
6
CONTINUOUS
10
384.702814
20
1287.416233
40
1.590489
50
212.374176
51
300.031159
0
ARC
8
0
6
CONTINUOUS
10
393.170801
20
1275.172990
40
13.301705
50
40.148555
51
125.223522
0
ARC
8
0
6
CONTINUOUS
10
399.199654
20
1278.914747
40
6.364253
50
-89.593302
51
49.436139
0
ARC
8
0
6
CONTINUOUS
10
399.287056
20
1272.043146
40
0.509263
50
94.756523
51
218.238112
0
LINE
8
0
6
CONTINUOUS
10
398.887058
20
1271.727948
11
399.359152
21
1271.342743
0
LINE
8
0
6
CONTINUOUS
10
399.359152
20
1271.342743
11
399.832389
21
1270.959667
0
LINE
8
0
6
CONTINUOUS
10
399.832389
20
1270.959667
11
400.306764
21
1270.578727
0
ARC
8
0
6
CONTINUOUS
10
-87.576539
20
687.631102
40
760.169751
50
48.318370
51
50.073203
0
LINE
8
0
6
CONTINUOUS
10
401.241583
20
1259.281015
11
395.436526
21
1262.329759
0
LINE
8
0
6
CONTINUOUS
10
395.436526
20
1262.329759
11
389.630254
21
1265.375003
0
ARC
8
0
6
CONTINUOUS
10
388.644284
20
1263.877492
40
1.792948
50
56.640165
51
164.202352
0
ARC
8
0
6
CONTINUOUS
10
380.110084
20
1267.732423
40
7.595893
50
315.070232
51
333.689092
0
ARC
8
0
6
CONTINUOUS
10
377.420266
20
1274.266316
40
14.375564
50
211.804307
51
304.138528
0
ARC
8
0
6
CONTINUOUS
10
371.560946
20
1270.415601
40
7.368913
50
156.641627
51
210.369100
0
ARC
8
0
6
CONTINUOUS
10
363.408252
20
1273.850179
40
1.479482
50
339.714094
51
429.140129
0
ARC
8
0
6
CONTINUOUS
10
369.635854
20
1296.031102
40
21.565551
50
189.927842
51
254.671862
0
ARC
8
0
6
CONTINUOUS
10
345.285151
20
1292.607760
40
3.122024
50
354.583100
51
511.383440
0
ARC
8
0
6
CONTINUOUS
10
355.923096
20
1287.100524
40
15.100400
50
152.371912
51
224.119842
0
ARC
8
0
6
CONTINUOUS
10
408.919251
20
1342.098071
40
91.469351
50
225.741195
51
272.383555
0
ARC
8
0
6
CONTINUOUS
10
412.405219
20
1251.959689
40
1.291624
50
284.259316
51
429.949073
0
LINE
8
0
6
CONTINUOUS
10
412.848048
20
1253.173031
11
407.045424
21
1256.228772
0
LINE
8
0
6
CONTINUOUS
10
407.045424
20
1256.228772
11
401.241583
21
1259.281015
0
ARC
8
0
6
CONTINUOUS
10
436.518054
20
1323.283894
40
5.074381
50
158.710224
51
222.779355
0
ARC
8
0
6
CONTINUOUS
10
421.720912
20
1330.292532
40
11.317049
50
332.838671
51
435.606038
0
ARC
8
0
6
CONTINUOUS
10
427.347471
20
1330.292532
40
11.317048
50
104.393959
51
207.161331
0
ARC
8
0
6
CONTINUOUS
10
412.550327
20
1323.283895
40
5.074382
50
-42.779348
51
21.289768
0
ARC
8
0
6
CONTINUOUS
10
413.429504
20
1323.924784
40
4.980125
50
248.996480
51
304.842981
0
ARC
8
0
6
CONTINUOUS
10
409.475444
20
1310.039378
40
9.487445
50
76.783927
51
172.901282
0
ARC
8
0
6
CONTINUOUS
10
404.488645
20
1293.485881
40
18.270626
50
32.024258
51
104.025400
0
ARC
8
0
6
CONTINUOUS
10
397.322128
20
1290.885623
40
25.774868
50
-6.884288
51
28.474882
0
ARC
8
0
6
CONTINUOUS
10
424.383443
20
1287.759012
40
1.472744
50
178.555856
51
275.875018
0
ARC
8
0
6
CONTINUOUS
10
424.684940
20
1287.759011
40
1.472743
50
264.124957
51
361.444170
0
ARC
8
0
6
CONTINUOUS
10
451.746248
20
1290.885624
40
25.774862
50
151.525114
51
186.884292
0
ARC
8
0
6
CONTINUOUS
10
444.579738
20
1293.485882
40
18.270625
50
75.974598
51
147.975745
0
ARC
8
0
6
CONTINUOUS
10
439.592940
20
1310.039378
40
9.487446
50
7.098720
51
103.216073
0
ARC
8
0
6
CONTINUOUS
10
435.638879
20
1323.924786
40
4.980127
50
235.157033
51
291.003507
0
ARC
8
0
6
CONTINUOUS
10
534.783935
20
1252.861865
40
2.512120
50
155.172956
51
299.752491
0
ARC
8
0
6
CONTINUOUS
10
524.212988
20
1255.001157
40
8.361626
50
352.547752
51
459.171849
0
ARC
8
0
6
CONTINUOUS
10
524.700462
20
1259.816921
40
3.890996
50
117.892843
51
175.256345
0
ARC
8
0
6
CONTINUOUS
10
510.110146
20
1260.847742
40
10.736087
50
282.523066
51
356.213255
0
ARC
8
0
6
CONTINUOUS
10
499.504436
20
1316.118253
40
67.011162
50
265.729716
51
281.128340
0
ARC
8
0
6
CONTINUOUS
10
495.123173
20
1247.108741
40
2.267550
50
105.565955
51
257.922093
0
ARC
8
0
6
CONTINUOUS
10
500.042500
20
1182.229314
40
62.893786
50
78.633304
51
94.919749
0
ARC
8
0
6
CONTINUOUS
10
510.110147
20
1233.408834
40
10.736085
50
3.786740
51
77.476938
0
ARC
8
0
6
CONTINUOUS
10
524.700461
20
1234.439654
40
3.890996
50
184.743651
51
242.107161
0
ARC
8
0
6
CONTINUOUS
10
524.212989
20
1239.255417
40
8.361625
50
260.828141
51
367.452258
0
ARC
8
0
6
CONTINUOUS
10
534.783935
20
1241.394710
40
2.512120
50
60.247506
51
204.827048
0
ARC
8
0
6
CONTINUOUS
10
547.821432
20
1278.368366
40
36.736294
50
251.279066
51
298.881954
0
LINE
8
0
6
CONTINUOUS
10
565.565305
20
1246.201454
11
565.557892
21
1246.207448
0
ARC
8
0
6
CONTINUOUS
10
564.945133
20
1247.133758
40
1.110641
50
303.484862
51
416.055399
0
ARC
8
0
6
CONTINUOUS
10
547.821431
20
1215.888208
40
36.736294
50
61.118046
51
108.720933
0
ARC
8
0
6
CONTINUOUS
10
608.262355
20
1172.387248
40
66.342534
50
142.645769
51
154.895106
0
ARC
8
0
6
CONTINUOUS
10
550.015520
20
1199.663019
40
2.025698
50
154.508170
51
225.701965
0
LINE
8
0
6
CONTINUOUS
10
548.600791
20
1198.213193
11
550.287252
21
1196.750893
0
ARC
8
0
6
CONTINUOUS
10
551.127781
20
1197.709735
40
1.275095
50
228.761910
51
336.440480
0
ARC
8
0
6
CONTINUOUS
10
682.695355
20
1125.192968
40
148.959261
50
145.840072
51
151.092212
0
ARC
8
0
6
CONTINUOUS
10
557.744422
20
1209.950826
40
2.026429
50
326.565805
51
406.547540
0
LINE
8
0
6
CONTINUOUS
10
559.138103
20
1211.421902
11
557.369879
21
1212.890846
0
ARC
8
0
6
CONTINUOUS
10
556.559703
20
1211.946826
40
1.244010
50
49.363239
51
146.137683
0
LINE
8
0
6
CONTINUOUS
10
588.426019
20
1248.922940
11
593.419614
21
1255.014679
0
ARC
8
0
6
CONTINUOUS
10
591.785844
20
1256.260801
40
2.054757
50
322.665830
51
398.203491
0
LINE
8
0
6
CONTINUOUS
10
593.400512
20
1257.531579
11
591.697930
21
1259.542094
0
ARC
8
0
6
CONTINUOUS
10
590.707097
20
1258.787173
40
1.245655
50
37.303930
51
141.377399
0
ARC
8
0
6
CONTINUOUS
10
740.640588
20
1127.253026
40
200.696802
50
138.756427
51
147.972902
0
ARC
8
0
6
CONTINUOUS
10
572.201080
20
1232.625667
40
2.012996
50
148.193716
51
228.962307
0
LINE
8
0
6
CONTINUOUS
10
570.879437
20
1231.107307
11
571.567714
21
1230.591993
0
ARC
8
0
6
CONTINUOUS
10
572.319669
20
1231.571614
40
1.234947
50
232.490253
51
322.818816
0
LINE
8
0
6
CONTINUOUS
10
573.303578
20
1230.825281
11
578.367885
21
1236.828102
0
LINE
8
0
6
CONTINUOUS
10
578.367885
20
1236.828102
11
583.408737
21
1242.860702
0
LINE
8
0
6
CONTINUOUS
10
583.408737
20
1242.860702
11
588.426019
21
1248.922940
0
LINE
8
0
6
CONTINUOUS
10
679.939758
20
1201.275928
11
680.212723
21
1211.172564
0
LINE
8
0
6
CONTINUOUS
10
680.212723
20
1211.172564
11
680.540750
21
1221.066672
0
LINE
8
0
6
CONTINUOUS
10
680.540750
20
1221.066672
11
680.923822
21
1230.957789
0
LINE
8
0
6
CONTINUOUS
10
680.923822
20
1230.957789
11
681.361923
21
1240.845451
0
LINE
8
0
6
CONTINUOUS
10
681.361923
20
1240.845451
11
681.855032
21
1250.729195
0
LINE
8
0
6
CONTINUOUS
10
681.855032
20
1250.729195
11
682.403126
21
1260.608559
0
LINE
8
0
6
CONTINUOUS
10
682.403126
20
1260.608559
11
683.006178
21
1270.483081
0
LINE
8
0
6
CONTINUOUS
10
683.006178
20
1270.483081
11
683.664162
21
1280.352297
0
LINE
8
0
6
CONTINUOUS
10
683.664162
20
1280.352297
11
684.377045
21
1290.215746
0
ARC
8
0
6
CONTINUOUS
10
682.476730
20
1290.563069
40
1.931796
50
349.642065
51
439.095491
0
LINE
8
0
6
CONTINUOUS
10
682.842173
20
1292.459985
11
677.267655
21
1292.838894
0
ARC
8
0
6
CONTINUOUS
10
677.346668
20
1291.033547
40
1.807075
50
92.506014
51
183.418382
0
LINE
8
0
6
CONTINUOUS
10
675.542810
20
1290.925818
11
675.173505
21
1281.004225
0
LINE
8
0
6
CONTINUOUS
10
675.173505
20
1281.004225
11
674.836714
21
1271.080884
0
LINE
8
0
6
CONTINUOUS
10
674.836714
20
1271.080884
11
674.532443
21
1261.155955
0
LINE
8
0
6
CONTINUOUS
10
674.532443
20
1261.155955
11
674.260695
21
1251.229599
0
LINE
8
0
6
CONTINUOUS
10
674.260695
20
1251.229599
11
674.021475
21
1241.301976
0
LINE
8
0
6
CONTINUOUS
10
674.021475
20
1241.301976
11
673.814789
21
1231.373249
0
LINE
8
0
6
CONTINUOUS
10
673.814789
20
1231.373249
11
673.640637
21
1221.443579
0
LINE
8
0
6
CONTINUOUS
10
673.640637
20
1221.443579
11
673.499025
21
1211.513126
0
LINE
8
0
6
CONTINUOUS
10
673.499025
20
1211.513126
11
673.389953
21
1201.582053
0
LINE
8
0
6
CONTINUOUS
10
673.389953
20
1201.582053
11
673.313424
21
1191.650519
0
LINE
8
0
6
CONTINUOUS
10
673.313424
20
1191.650519
11
673.269439
21
1181.718687
0
LINE
8
0
6
CONTINUOUS
10
673.269439
20
1181.718687
11
673.257998
21
1171.786718
0
LINE
8
0
6
CONTINUOUS
10
673.257998
20
1171.786718
11
673.279102
21
1161.854773
0
ARC
8
0
6
CONTINUOUS
10
674.681594
20
1161.741636
40
1.407048
50
175.388273
51
260.375352
0
LINE
8
0
6
CONTINUOUS
10
674.446346
20
1160.354393
11
678.111679
21
1160.133641
0
ARC
8
0
6
CONTINUOUS
10
678.027942
20
1161.511423
40
1.380324
50
273.477947
51
366.738042
0
LINE
8
0
6
CONTINUOUS
10
679.398731
20
1161.673368
11
679.451348
21
1171.575483
0
LINE
8
0
6
CONTINUOUS
10
679.451348
20
1171.575483
11
679.559062
21
1181.476924
0
LINE
8
0
6
CONTINUOUS
10
679.559062
20
1181.476924
11
679.721868
21
1191.377227
0
LINE
8
0
6
CONTINUOUS
10
679.721868
20
1191.377227
11
679.939758
21
1201.275928
0
ARC
8
0
6
CONTINUOUS
10
1816.617641
20
1167.752781
40
1112.248592
50
170.305846
51
178.576367
0
ARC
8
0
6
CONTINUOUS
10
717.914702
20
1355.692799
40
2.425204
50
344.458362
51
531.246230
0
ARC
8
0
6
CONTINUOUS
10
1896.853468
20
1154.173190
40
1198.462819
50
170.301919
51
178.004938
0
ARC
8
0
6
CONTINUOUS
10
701.881317
20
1195.273903
40
2.833273
50
167.322215
51
362.268890
0
ARC
8
0
6
CONTINUOUS
10
759.676245
20
1206.157960
40
2.664937
50
337.898072
51
553.475043
0
LINE
8
0
6
CONTINUOUS
10
757.084670
20
1205.536971
11
755.931660
21
1159.383461
0
ARC
8
0
6
CONTINUOUS
10
758.827692
20
1158.288901
40
3.095975
50
159.295827
51
377.658858
0
LINE
8
0
6
CONTINUOUS
10
761.777783
20
1159.228060
11
762.145352
21
1205.155263
0
ARC
8
0
6
CONTINUOUS
10
770.785600
20
1214.869791
40
2.664937
50
337.898072
51
553.475043
0
LINE
8
0
6
CONTINUOUS
10
768.194024
20
1214.248803
11
767.129786
21
1171.648682
0
ARC
8
0
6
CONTINUOUS
10
770.028330
20
1171.788270
40
2.901903
50
182.757121
51
364.837714
0
LINE
8
0
6
CONTINUOUS
10
772.919895
20
1172.032998
11
773.254707
21
1213.867094
0
LINE
8
0
6
CONTINUOUS
10
791.008536
20
1193.686049
11
791.343803
21
1235.577238
0
ARC
8
0
6
CONTINUOUS
10
788.874697
20
1236.579935
40
2.664937
50
337.898072
51
553.475043
0
LINE
8
0
6
CONTINUOUS
10
786.283121
20
1235.958947
11
785.205762
21
1192.833653
0
ARC
8
0
6
CONTINUOUS
10
788.133482
20
1193.080586
40
2.938115
50
184.821071
51
371.892251
0
ARC
8
0
6
CONTINUOUS
10
788.100165
20
1123.137297
40
2.909100
50
180.995736
51
364.705382
0
LINE
8
0
6
CONTINUOUS
10
790.999461
20
1123.375937
11
791.343803
21
1166.401029
0
ARC
8
0
6
CONTINUOUS
10
788.874697
20
1167.403727
40
2.664937
50
337.898072
51
553.475043
0
LINE
8
0
6
CONTINUOUS
10
786.283121
20
1166.782737
11
785.191505
21
1123.086743
0
ARC
8
0
6
CONTINUOUS
10
770.028330
20
1105.841920
40
2.901903
50
182.757121
51
364.837714
0
LINE
8
0
6
CONTINUOUS
10
772.919895
20
1106.086648
11
773.254707
21
1147.920744
0
ARC
8
0
6
CONTINUOUS
10
770.785600
20
1148.923441
40
2.664937
50
337.898072
51
553.475043
0
LINE
8
0
6
CONTINUOUS
10
768.194024
20
1148.302453
11
767.129786
21
1105.702332
0
LINE
8
0
6
CONTINUOUS
10
756.017393
20
1134.171320
11
754.953155
21
1091.571199
0
ARC
8
0
6
CONTINUOUS
10
757.851699
20
1091.710788
40
2.901903
50
182.757121
51
364.837714
0
LINE
8
0
6
CONTINUOUS
10
760.743265
20
1091.955516
11
761.078076
21
1133.789612
0
ARC
8
0
6
CONTINUOUS
10
758.608969
20
1134.792310
40
2.664937
50
337.898072
51
553.475043
0
LINE
8
0
6
CONTINUOUS
10
744.883654
20
1157.242139
11
743.005920
21
1046.220013
0
ARC
8
0
6
CONTINUOUS
10
744.395083
20
1046.067540
40
1.397507
50
173.736307
51
263.337786
0
LINE
8
0
6
CONTINUOUS
10
744.232951
20
1044.679470
11
747.062182
21
1044.679470
0
ARC
8
0
6
CONTINUOUS
10
746.908023
20
1046.056518
40
1.385651
50
276.387598
51
364.532330
0
LINE
8
0
6
CONTINUOUS
10
748.289340
20
1046.166014
11
749.642645
21
1157.187203
0
ARC
8
0
6
CONTINUOUS
10
748.159376
20
1157.249594
40
1.484580
50
357.591365
51
442.054705
0
LINE
8
0
6
CONTINUOUS
10
748.364586
20
1158.719923
11
746.110685
21
1158.719923
0
ARC
8
0
6
CONTINUOUS
10
746.263558
20
1157.344685
40
1.383709
50
96.343011
51
184.250003
0
LINE
8
0
6
CONTINUOUS
10
703.358934
20
1169.498250
11
701.105033
21
1169.498250
0
ARC
8
0
6
CONTINUOUS
10
701.257906
20
1168.123011
40
1.383709
50
96.343011
51
184.250003
0
LINE
8
0
6
CONTINUOUS
10
699.878002
20
1168.020467
11
697.817972
21
1046.220013
0
ARC
8
0
6
CONTINUOUS
10
699.207136
20
1046.067540
40
1.397507
50
173.736307
51
263.337786
0
LINE
8
0
6
CONTINUOUS
10
699.045003
20
1044.679470
11
701.874234
21
1044.679470
0
ARC
8
0
6
CONTINUOUS
10
701.720075
20
1046.056518
40
1.385651
50
276.387598
51
364.532330
0
LINE
8
0
6
CONTINUOUS
10
703.101392
20
1046.166014
11
704.586093
21
1167.966468
0
ARC
8
0
6
CONTINUOUS
10
703.198101
20
1168.111953
40
1.395595
50
354.016295
51
443.382349
0
ARC
8
0
6
CONTINUOUS
10
1594.374803
20
1202.268167
40
849.117984
50
174.210947
51
180.804892
0
ARC
8
0
6
CONTINUOUS
10
748.336474
20
1189.793002
40
3.045421
50
169.650329
51
389.287196
0
ARC
8
0
6
CONTINUOUS
10
1284.470093
20
1220.463586
40
534.274955
50
172.835243
51
183.130915
0
ARC
8
0
6
CONTINUOUS
10
751.390871
20
1287.672191
40
3.030614
50
349.115849
51
430.068281
0
LINE
8
0
6
CONTINUOUS
10
752.424007
20
1290.521270
11
752.505738
21
1290.501112
0
ARC
8
0
6
CONTINUOUS
10
752.157424
20
1287.954422
40
2.570398
50
82.211910
51
180.868053
0
LINE
8
0
6
CONTINUOUS
10
760.076823
20
1274.005201
11
758.372437
21
1223.273591
0
ARC
8
0
6
CONTINUOUS
10
760.061980
20
1222.981811
40
1.714554
50
170.201830
51
331.351444
0
LINE
8
0
6
CONTINUOUS
10
761.566634
20
1222.159793
11
793.203212
21
1265.404998
0
ARC
8
0
6
CONTINUOUS
10
791.444190
20
1267.014182
40
2.384037
50
317.547173
51
432.143514
0
LINE
8
0
6
CONTINUOUS
10
792.175216
20
1269.283375
11
763.526765
21
1276.716569
0
ARC
8
0
6
CONTINUOUS
10
762.799412
20
1274.091517
40
2.723957
50
74.512940
51
181.815872
0
LINE
8
0
6
CONTINUOUS
10
769.217372
20
1337.416257
11
762.286981
21
1293.740480
0
ARC
8
0
6
CONTINUOUS
10
763.631771
20
1293.470542
40
1.371614
50
168.649911
51
235.853008
0
LINE
8
0
6
CONTINUOUS
10
762.861859
20
1292.335394
11
792.548817
21
1284.005955
0
ARC
8
0
6
CONTINUOUS
10
792.613891
20
1285.117101
40
1.113049
50
266.648271
51
393.662910
0
LINE
8
0
6
CONTINUOUS
10
793.540297
20
1285.734070
11
773.077561
21
1337.983821
0
ARC
8
0
6
CONTINUOUS
10
771.168027
20
1337.560202
40
1.955959
50
12.508170
51
184.220416
0
ARC
8
0
6
CONTINUOUS
10
787.649664
20
1365.276449
40
11.758927
50
166.367165
51
196.141571
0
LINE
8
0
6
CONTINUOUS
10
776.354301
20
1362.007330
11
793.084214
21
1322.530516
0
ARC
8
0
6
CONTINUOUS
10
793.919485
20
1323.352149
40
1.171647
50
224.528444
51
372.946170
0
LINE
8
0
6
CONTINUOUS
10
795.061350
20
1323.614638
11
787.992344
21
1400.361725
0
ARC
8
0
6
CONTINUOUS
10
787.117159
20
1400.418173
40
0.877004
50
356.309717
51
529.609530
0
LINE
8
0
6
CONTINUOUS
10
786.254536
20
1400.576345
11
776.222032
21
1368.048017
0
ARC
8
0
6
CONTINUOUS
10
757.749399
20
1329.284151
40
3.049830
50
165.242314
51
353.144651
0
ARC
8
0
6
CONTINUOUS
10
1338.187337
20
1227.086724
40
586.320942
50
159.745095
51
169.998032
0
ARC
8
0
6
CONTINUOUS
10
786.295766
20
1432.098537
40
2.730853
50
312.011924
51
519.844949
0
ARC
8
0
6
CONTINUOUS
10
1385.686446
20
1208.365968
40
642.516284
50
159.532406
51
169.082003
0
LINE
8
0
6
CONTINUOUS
10
692.507361
20
1406.749238
11
691.323110
21
1397.888202
0
LINE
8
0
6
CONTINUOUS
10
691.323110
20
1397.888202
11
690.157028
21
1389.023524
0
LINE
8
0
6
CONTINUOUS
10
690.157028
20
1389.023524
11
689.009123
21
1380.155259
0
LINE
8
0
6
CONTINUOUS
10
689.009123
20
1380.155259
11
687.879402
21
1371.283463
0
LINE
8
0
6
CONTINUOUS
10
687.879402
20
1371.283463
11
686.767872
21
1362.408195
0
LINE
8
0
6
CONTINUOUS
10
686.767872
20
1362.408195
11
685.674541
21
1353.529508
0
LINE
8
0
6
CONTINUOUS
10
685.674541
20
1353.529508
11
684.599414
21
1344.647461
0
LINE
8
0
6
CONTINUOUS
10
684.599414
20
1344.647461
11
683.542499
21
1335.762110
0
LINE
8
0
6
CONTINUOUS
10
683.542499
20
1335.762110
11
682.503803
21
1326.873510
0
ARC
8
0
6
CONTINUOUS
10
685.446716
20
1326.179942
40
3.023539
50
166.738379
51
252.341200
0
LINE
8
0
6
CONTINUOUS
10
684.529533
20
1323.298871
11
684.994985
21
1323.208932
0
ARC
8
0
6
CONTINUOUS
10
685.064797
20
1326.335677
40
3.127525
50
268.720941
51
346.413219
0
LINE
8
0
6
CONTINUOUS
10
688.104799
20
1325.600975
11
688.928578
21
1335.163568
0
LINE
8
0
6
CONTINUOUS
10
688.928578
20
1335.163568
11
689.823152
21
1344.716539
0
LINE
8
0
6
CONTINUOUS
10
689.823152
20
1344.716539
11
690.788447
21
1354.259094
0
LINE
8
0
6
CONTINUOUS
10
690.788447
20
1354.259094
11
691.824382
21
1363.790443
0
LINE
8
0
6
CONTINUOUS
10
691.824382
20
1363.790443
11
692.930871
21
1373.309794
0
LINE
8
0
6
CONTINUOUS
10
692.930871
20
1373.309794
11
694.107823
21
1382.816357
0
LINE
8
0
6
CONTINUOUS
10
694.107823
20
1382.816357
11
695.355140
21
1392.309345
0
LINE
8
0
6
CONTINUOUS
10
695.355140
20
1392.309345
11
696.672719
21
1401.787970
0
LINE
8
0
6
CONTINUOUS
10
696.672719
20
1401.787970
11
698.060450
21
1411.251445
0
LINE
8
0
6
CONTINUOUS
10
698.060450
20
1411.251445
11
699.518218
21
1420.698984
0
LINE
8
0
6
CONTINUOUS
10
699.518218
20
1420.698984
11
701.045902
21
1430.129806
0
LINE
8
0
6
CONTINUOUS
10
701.045902
20
1430.129806
11
702.643375
21
1439.543126
0
ARC
8
0
6
CONTINUOUS
10
1181.884932
20
1353.140610
40
486.968031
50
161.394729
51
169.779926
0
ARC
8
0
6
CONTINUOUS
10
718.445161
20
1509.797814
40
2.315047
50
326.083424
51
527.947795
0
ARC
8
0
6
CONTINUOUS
10
1149.272704
20
1356.777177
40
459.490789
50
160.483749
51
173.756430
0
ARC
8
0
6
CONTINUOUS
10
453.420886
20
1222.531902
40
245.816574
50
48.693201
51
57.164921
0
ARC
8
0
6
CONTINUOUS
10
616.691192
20
1408.156871
40
1.400394
50
223.900612
51
372.432732
0
ARC
8
0
6
CONTINUOUS
10
1614.777073
20
1351.676793
40
998.334398
50
174.598030
51
176.739468
0
ARC
8
0
6
CONTINUOUS
10
618.153251
20
1445.624357
40
2.723566
50
0.803294
51
55.436497
0
ARC
8
0
6
CONTINUOUS
10
633.035627
20
1549.750948
40
102.752997
50
249.748403
51
262.542018
0
ARC
8
0
6
CONTINUOUS
10
597.047910
20
1451.277454
40
2.114734
50
78.531603
51
152.045309
0
LINE
8
0
6
CONTINUOUS
10
595.179923
20
1452.268779
11
592.196849
21
1445.452768
0
LINE
8
0
6
CONTINUOUS
10
592.196849
20
1445.452768
11
589.173975
21
1438.663323
0
LINE
8
0
6
CONTINUOUS
10
589.173975
20
1438.663323
11
586.111459
21
1431.900795
0
ARC
8
0
6
CONTINUOUS
10
589.294994
20
1431.097582
40
3.283298
50
165.839729
51
218.014236
0
ARC
8
0
6
CONTINUOUS
10
894.578959
20
1441.253655
40
277.320630
50
164.370927
51
173.825171
0
ARC
8
0
6
CONTINUOUS
10
615.946531
20
1471.285651
40
2.927749
50
280.607251
51
356.030647
0
LINE
8
0
6
CONTINUOUS
10
616.485459
20
1468.407931
11
586.739630
21
1476.381847
0
ARC
8
0
6
CONTINUOUS
10
586.408433
20
1474.854931
40
1.562422
50
77.761757
51
162.844802
0
LINE
8
0
6
CONTINUOUS
10
584.915523
20
1475.315786
11
574.490576
21
1449.575869
0
ARC
8
0
6
CONTINUOUS
10
570.001724
20
1451.472555
40
4.873110
50
251.809349
51
337.094369
0
ARC
8
0
6
CONTINUOUS
10
416.321129
20
1178.722408
40
308.287367
50
60.424948
51
86.594902
0
ARC
8
0
6
CONTINUOUS
10
437.538328
20
1483.427970
40
4.204027
50
133.736185
51
215.380704
0
ARC
8
0
6
CONTINUOUS
10
417.273811
20
1178.195291
40
303.266258
50
59.121455
51
86.817390
0
ARC
8
0
6
CONTINUOUS
10
573.336659
20
1440.752035
40
2.314836
50
259.532155
51
337.794704
0
LINE
8
0
6
CONTINUOUS
10
575.479816
20
1439.877198
11
587.248121
21
1469.261065
0
ARC
8
0
6
CONTINUOUS
10
588.744775
20
1468.806285
40
1.564224
50
77.795232
51
163.097820
0
LINE
8
0
6
CONTINUOUS
10
589.075463
20
1470.335154
11
619.940403
21
1461.792890
0
ARC
8
0
6
CONTINUOUS
10
620.360971
20
1464.069200
40
2.314836
50
259.532155
51
337.794704
0
ARC
8
0
6
CONTINUOUS
10
1001.343595
20
1421.229054
40
381.156699
50
165.883494
51
173.678927
0
ARC
8
0
6
CONTINUOUS
10
629.776002
20
1515.482803
40
2.315047
50
326.083424
51
527.947795
0
ARC
8
0
6
CONTINUOUS
10
639.218939
20
1548.711047
40
3.957929
50
162.220679
51
259.678945
0
LINE
8
0
6
CONTINUOUS
10
638.509821
20
1544.817160
11
638.972287
21
1544.800987
0
ARC
8
0
6
CONTINUOUS
10
638.807374
20
1548.253620
40
3.456569
50
272.734634
51
353.183100
0
ARC
8
0
6
CONTINUOUS
10
828.663887
20
1502.346863
40
191.895749
50
157.952206
51
166.285174
0
LINE
8
0
6
CONTINUOUS
10
650.801273
20
1574.380666
11
644.428327
21
1574.380666
0
ARC
8
0
6
CONTINUOUS
10
769.060595
20
1514.756894
40
138.160039
50
154.433662
51
165.255618
0
LINE
8
0
6
CONTINUOUS
10
750.899064
20
1574.380666
11
746.059598
21
1574.380666
0
ARC
8
0
6
CONTINUOUS
10
890.314854
20
1480.985278
40
171.849578
50
147.079711
51
156.206416
0
ARC
8
0
6
CONTINUOUS
10
736.037310
20
1548.891667
40
3.290287
50
154.334233
51
240.829112
0
LINE
8
0
6
CONTINUOUS
10
734.433571
20
1546.018688
11
734.761416
21
1545.880804
0
ARC
8
0
6
CONTINUOUS
10
735.550504
20
1548.013768
40
2.274247
50
249.698078
51
340.558829
0
ARC
8
0
6
CONTINUOUS
10
1307.558318
20
1286.621345
40
626.637816
50
152.663758
51
155.422304
0
ARC
8
0
6
CONTINUOUS
10
695.611887
20
1619.587543
40
120.182898
50
324.266600
51
330.282603
0
LINE
8
0
6
CONTINUOUS
10
799.988455
20
1560.010191
11
799.988455
21
1568.350978
0
ARC
8
0
6
CONTINUOUS
10
699.387418
20
1630.890207
40
118.455579
50
319.431849
51
328.132606
0
ARC
8
0
6
CONTINUOUS
10
792.091941
20
1551.670060
40
3.488626
50
141.277289
51
223.313196
0
LINE
8
0
6
CONTINUOUS
10
789.553566
20
1549.276912
11
789.827185
21
1549.015796
0
ARC
8
0
6
CONTINUOUS
10
791.346855
20
1550.528897
40
2.144498
50
224.875891
51
328.204603
0
LINE
8
0
6
CONTINUOUS
10
723.512466
20
1386.520681
11
723.674967
21
1386.484869
0
ARC
8
0
6
CONTINUOUS
10
724.029491
20
1389.434070
40
2.970432
50
263.145357
51
357.843464
0
ARC
8
0
6
CONTINUOUS
10
1062.361811
20
1342.024230
40
338.682910
50
147.733034
51
171.972236
0
ARC
8
0
6
CONTINUOUS
10
772.724366
20
1524.834147
40
3.821871
50
328.463659
51
400.034885
0
LINE
8
0
6
CONTINUOUS
10
775.650593
20
1527.292580
11
775.549571
21
1527.402828
0
ARC
8
0
6
CONTINUOUS
10
773.764499
20
1525.872261
40
2.351407
50
40.610648
51
153.122299
0
ARC
8
0
6
CONTINUOUS
10
1087.163522
20
1332.632797
40
370.528612
50
148.372629
51
170.986038
0
ARC
8
0
6
CONTINUOUS
10
724.665698
20
1389.876348
40
3.548302
50
166.819645
51
251.033850
0
ARC
8
0
6
CONTINUOUS
10
426.616378
20
1463.359169
40
59.596740
50
240.261117
51
267.997798
0
ARC
8
0
6
CONTINUOUS
10
422.452003
20
1463.359177
40
59.596749
50
272.002204
51
299.738881
0
ARC
8
0
6
CONTINUOUS
10
448.657871
20
1415.355987
40
5.028881
50
311.877500
51
401.018362
0
ARC
8
0
6
CONTINUOUS
10
424.520256
20
1384.523217
40
44.105198
50
50.705851
51
89.981896
0
ARC
8
0
6
CONTINUOUS
10
424.548130
20
1384.523208
40
44.105207
50
90.018107
51
129.294145
0
ARC
8
0
6
CONTINUOUS
10
400.410512
20
1415.355987
40
5.028881
50
138.981634
51
228.122504
0
ARC
8
0
6
CONTINUOUS
10
431.794572
20
1178.195288
40
303.266261
50
93.182610
51
120.878545
0
ARC
8
0
6
CONTINUOUS
10
411.530054
20
1483.427970
40
4.204027
50
324.619302
51
406.263809
0
ARC
8
0
6
CONTINUOUS
10
432.747255
20
1178.722407
40
308.287369
50
93.405099
51
119.575052
0
ARC
8
0
6
CONTINUOUS
10
279.066658
20
1451.472552
40
4.873108
50
202.905606
51
288.190676
0
LINE
8
0
6
CONTINUOUS
10
274.577807
20
1449.575869
11
264.152860
21
1475.315786
0
ARC
8
0
6
CONTINUOUS
10
262.659949
20
1474.854928
40
1.562425
50
17.155283
51
102.238158
0
LINE
8
0
6
CONTINUOUS
10
262.328752
20
1476.381847
11
232.582925
21
1468.407931
0
ARC
8
0
6
CONTINUOUS
10
233.121852
20
1471.285650
40
2.927749
50
183.969348
51
259.392754
0
ARC
8
0
6
CONTINUOUS
10
-45.510403
20
1441.253688
40
277.320455
50
6.174826
51
15.629076
0
ARC
8
0
6
CONTINUOUS
10
219.292381
20
1515.482803
40
2.315047
50
12.052207
51
213.916575
0
ARC
8
0
6
CONTINUOUS
10
-152.275173
20
1421.229061
40
381.156659
50
6.321073
51
14.116507
0
ARC
8
0
6
CONTINUOUS
10
228.707413
20
1464.069201
40
2.314836
50
202.205308
51
280.467833
0
LINE
8
0
6
CONTINUOUS
10
229.127980
20
1461.792890
11
259.992921
21
1470.335154
0
ARC
8
0
6
CONTINUOUS
10
260.323609
20
1468.806287
40
1.564223
50
16.902127
51
102.204821
0
LINE
8
0
6
CONTINUOUS
10
261.820261
20
1469.261065
11
273.588567
21
1439.877198
0
ARC
8
0
6
CONTINUOUS
10
275.731725
20
1440.752036
40
2.314836
50
202.205308
51
280.467833
0
ARC
8
0
6
CONTINUOUS
10
395.647370
20
1222.532069
40
245.816365
50
122.835075
51
131.306802
0
ARC
8
0
6
CONTINUOUS
10
259.773389
20
1431.097582
40
3.283298
50
321.985769
51
374.160266
0
LINE
8
0
6
CONTINUOUS
10
262.956923
20
1431.900795
11
259.894407
21
1438.663323
0
LINE
8
0
6
CONTINUOUS
10
259.894407
20
1438.663323
11
256.871534
21
1445.452768
0
LINE
8
0
6
CONTINUOUS
10
256.871534
20
1445.452768
11
253.888460
21
1452.268779
0
ARC
8
0
6
CONTINUOUS
10
252.020473
20
1451.277454
40
2.114734
50
27.954693
51
101.468394
0
ARC
8
0
6
CONTINUOUS
10
216.032768
20
1549.750899
40
102.752947
50
277.457978
51
290.251599
0
ARC
8
0
6
CONTINUOUS
10
230.915135
20
1445.624356
40
2.723569
50
124.563530
51
179.196677
0
ARC
8
0
6
CONTINUOUS
10
-765.710085
20
1351.676688
40
998.335798
50
3.260534
51
5.401969
0
ARC
8
0
6
CONTINUOUS
10
232.377191
20
1408.156872
40
1.400394
50
167.567287
51
316.099370
0
LINE
8
0
6
CONTINUOUS
10
153.713242
20
1392.309345
11
154.960559
21
1382.816357
0
LINE
8
0
6
CONTINUOUS
10
154.960559
20
1382.816357
11
156.137511
21
1373.309794
0
LINE
8
0
6
CONTINUOUS
10
156.137511
20
1373.309794
11
157.244001
21
1363.790443
0
LINE
8
0
6
CONTINUOUS
10
157.244001
20
1363.790443
11
158.279936
21
1354.259094
0
LINE
8
0
6
CONTINUOUS
10
158.279936
20
1354.259094
11
159.245230
21
1344.716539
0
LINE
8
0
6
CONTINUOUS
10
159.245230
20
1344.716539
11
160.139804
21
1335.163568
0
LINE
8
0
6
CONTINUOUS
10
160.139804
20
1335.163568
11
160.963584
21
1325.600975
0
ARC
8
0
6
CONTINUOUS
10
164.003585
20
1326.335677
40
3.127524
50
193.586776
51
271.279064
0
LINE
8
0
6
CONTINUOUS
10
164.073399
20
1323.208932
11
164.538851
21
1323.298871
0
ARC
8
0
6
CONTINUOUS
10
163.621666
20
1326.179942
40
3.023539
50
287.658803
51
373.261618
0
LINE
8
0
6
CONTINUOUS
10
166.564580
20
1326.873510
11
165.525884
21
1335.762110
0
LINE
8
0
6
CONTINUOUS
10
165.525884
20
1335.762110
11
164.468970
21
1344.647461
0
LINE
8
0
6
CONTINUOUS
10
164.468970
20
1344.647461
11
163.393843
21
1353.529508
0
LINE
8
0
6
CONTINUOUS
10
163.393843
20
1353.529508
11
162.300511
21
1362.408195
0
LINE
8
0
6
CONTINUOUS
10
162.300511
20
1362.408195
11
161.188981
21
1371.283463
0
LINE
8
0
6
CONTINUOUS
10
161.188981
20
1371.283463
11
160.059260
21
1380.155259
0
LINE
8
0
6
CONTINUOUS
10
160.059260
20
1380.155259
11
158.911355
21
1389.023524
0
LINE
8
0
6
CONTINUOUS
10
158.911355
20
1389.023524
11
157.745274
21
1397.888202
0
LINE
8
0
6
CONTINUOUS
10
157.745274
20
1397.888202
11
156.561022
21
1406.749238
0
ARC
8
0
6
CONTINUOUS
10
-300.204360
20
1356.777168
40
459.490829
50
6.243570
51
19.516250
0
ARC
8
0
6
CONTINUOUS
10
130.623221
20
1509.797814
40
2.315047
50
12.052207
51
213.916575
0
ARC
8
0
6
CONTINUOUS
10
-332.816437
20
1353.140638
40
486.967917
50
10.220073
51
18.605272
0
LINE
8
0
6
CONTINUOUS
10
146.425007
20
1439.543126
11
148.022481
21
1430.129806
0
LINE
8
0
6
CONTINUOUS
10
148.022481
20
1430.129806
11
149.550165
21
1420.698984
0
LINE
8
0
6
CONTINUOUS
10
149.550165
20
1420.698984
11
151.007933
21
1411.251445
0
LINE
8
0
6
CONTINUOUS
10
151.007933
20
1411.251445
11
152.395664
21
1401.787970
0
LINE
8
0
6
CONTINUOUS
10
152.395664
20
1401.787970
11
153.713242
21
1392.309345
0
LINE
8
0
6
CONTINUOUS
10
125.393417
20
1386.484869
11
125.555917
21
1386.520681
0
ARC
8
0
6
CONTINUOUS
10
124.402683
20
1389.876350
40
3.548304
50
288.966177
51
373.180326
0
ARC
8
0
6
CONTINUOUS
10
-238.095138
20
1332.632798
40
370.528610
50
9.013962
51
31.627371
0
ARC
8
0
6
CONTINUOUS
10
75.303884
20
1525.872261
40
2.351407
50
26.877708
51
139.389347
0
LINE
8
0
6
CONTINUOUS
10
73.518813
20
1527.402828
11
73.417790
21
1527.292580
0
ARC
8
0
6
CONTINUOUS
10
76.344016
20
1524.834147
40
3.821870
50
139.965107
51
211.536349
0
ARC
8
0
6
CONTINUOUS
10
-213.293443
20
1342.024225
40
338.682927
50
8.027764
51
32.266965
0
ARC
8
0
6
CONTINUOUS
10
125.038891
20
1389.434068
40
2.970431
50
182.156512
51
276.854666
0
ARC
8
0
6
CONTINUOUS
10
91.318984
20
1329.284151
40
3.049830
50
186.855355
51
374.757681
0
ARC
8
0
6
CONTINUOUS
10
-536.617925
20
1208.366007
40
642.516141
50
10.917996
51
20.467595
0
ARC
8
0
6
CONTINUOUS
10
62.772617
20
1432.098537
40
2.730853
50
20.155051
51
227.988077
0
ARC
8
0
6
CONTINUOUS
10
-489.119117
20
1227.086680
40
586.321111
50
10.001969
51
20.254904
0
LINE
8
0
6
CONTINUOUS
10
75.990822
20
1337.983821
11
55.528086
21
1285.734070
0
ARC
8
0
6
CONTINUOUS
10
56.454492
20
1285.117101
40
1.113050
50
146.337125
51
273.351695
0
LINE
8
0
6
CONTINUOUS
10
56.519566
20
1284.005955
11
86.206524
21
1292.335394
0
ARC
8
0
6
CONTINUOUS
10
85.436615
20
1293.470541
40
1.371612
50
304.146936
51
371.350144
0
LINE
8
0
6
CONTINUOUS
10
86.781402
20
1293.740480
11
79.851011
21
1337.416257
0
ARC
8
0
6
CONTINUOUS
10
77.900355
20
1337.560201
40
1.955959
50
355.779611
51
527.491802
0
LINE
8
0
6
CONTINUOUS
10
72.846352
20
1368.048017
11
62.813847
21
1400.576345
0
ARC
8
0
6
CONTINUOUS
10
61.951225
20
1400.418172
40
0.877004
50
10.390489
51
183.690265
0
LINE
8
0
6
CONTINUOUS
10
61.076039
20
1400.361725
11
54.007034
21
1323.614638
0
ARC
8
0
6
CONTINUOUS
10
55.148899
20
1323.352149
40
1.171647
50
167.053851
51
315.471535
0
LINE
8
0
6
CONTINUOUS
10
55.984169
20
1322.530516
11
72.714082
21
1362.007330
0
ARC
8
0
6
CONTINUOUS
10
61.418733
20
1365.276448
40
11.758914
50
343.858412
51
373.632852
0
ARC
8
0
6
CONTINUOUS
10
-967.549399
20
1167.752767
40
1112.248733
50
1.423633
51
9.694153
0
ARC
8
0
6
CONTINUOUS
10
147.187065
20
1195.273904
40
2.833273
50
177.731124
51
372.677771
0
ARC
8
0
6
CONTINUOUS
10
-1047.784784
20
1154.173221
40
1198.462517
50
1.995061
51
9.698082
0
ARC
8
0
6
CONTINUOUS
10
131.153681
20
1355.692798
40
2.425204
50
8.753783
51
195.541626
0
ARC
8
0
6
CONTINUOUS
10
113.517879
20
1548.013769
40
2.274247
50
199.441183
51
290.301910
0
LINE
8
0
6
CONTINUOUS
10
114.306968
20
1545.880804
11
114.634811
21
1546.018688
0
ARC
8
0
6
CONTINUOUS
10
113.031073
20
1548.891667
40
3.290286
50
299.170879
51
385.665777
0
ARC
8
0
6
CONTINUOUS
10
-41.246527
20
1480.985248
40
171.849641
50
23.793585
51
32.920287
0
LINE
8
0
6
CONTINUOUS
10
103.008785
20
1574.380666
11
98.169320
21
1574.380666
0
ARC
8
0
6
CONTINUOUS
10
-458.488826
20
1286.621886
40
626.636582
50
24.577693
51
27.336245
0
ARC
8
0
6
CONTINUOUS
10
149.681131
20
1630.890329
40
118.455784
50
211.867402
51
220.568144
0
LINE
8
0
6
CONTINUOUS
10
49.079927
20
1568.350978
11
49.079927
21
1560.010191
0
ARC
8
0
6
CONTINUOUS
10
153.456052
20
1619.587259
40
120.182372
50
209.717383
51
215.733413
0
ARC
8
0
6
CONTINUOUS
10
57.721528
20
1550.528899
40
2.144500
50
211.795434
51
315.124073
0
LINE
8
0
6
CONTINUOUS
10
59.241198
20
1549.015796
11
59.514818
21
1549.276912
0
ARC
8
0
6
CONTINUOUS
10
56.976442
20
1551.670060
40
3.488626
50
316.686804
51
398.722710
0
LINE
8
0
6
CONTINUOUS
10
210.096095
20
1544.800987
11
210.558562
21
1544.817160
0
ARC
8
0
6
CONTINUOUS
10
209.849444
20
1548.711047
40
3.957929
50
280.321056
51
377.779320
0
ARC
8
0
6
CONTINUOUS
10
80.007785
20
1514.756893
40
138.160042
50
14.744382
51
25.566338
0
LINE
8
0
6
CONTINUOUS
10
204.640056
20
1574.380666
11
198.267111
21
1574.380666
0
ARC
8
0
6
CONTINUOUS
10
20.404607
20
1502.346900
40
191.895632
50
13.714823
51
22.047796
0
ARC
8
0
6
CONTINUOUS
10
210.261009
20
1548.253620
40
3.456569
50
186.816898
51
267.265367
0
ARC
8
0
6
CONTINUOUS
10
147.810479
20
1168.123012
40
1.383708
50
355.749966
51
443.657020
0
LINE
8
0
6
CONTINUOUS
10
147.963350
20
1169.498250
11
145.709449
21
1169.498250
0
ARC
8
0
6
CONTINUOUS
10
145.870283
20
1168.111952
40
1.395597
50
96.617696
51
185.983662
0
LINE
8
0
6
CONTINUOUS
10
144.482291
20
1167.966468
11
145.966991
21
1046.166014
0
ARC
8
0
6
CONTINUOUS
10
147.348308
20
1046.056518
40
1.385650
50
175.467627
51
263.612446
0
LINE
8
0
6
CONTINUOUS
10
147.194150
20
1044.679470
11
150.023380
21
1044.679470
0
ARC
8
0
6
CONTINUOUS
10
149.861247
20
1046.067540
40
1.397507
50
276.662239
51
366.263668
0
LINE
8
0
6
CONTINUOUS
10
151.250412
20
1046.220013
11
149.190382
21
1168.020467
0
ARC
8
0
6
CONTINUOUS
10
252.322667
20
1134.005793
40
2.148255
50
38.810652
51
146.894432
0
LINE
8
0
6
CONTINUOUS
10
250.523148
20
1135.179134
11
250.286095
21
1134.862097
0
ARC
8
0
6
CONTINUOUS
10
253.164971
20
1132.824789
40
3.526834
50
144.713918
51
218.838922
0
ARC
8
0
6
CONTINUOUS
10
117.002880
20
1041.309902
40
160.544710
50
8.823191
51
33.796897
0
ARC
8
0
6
CONTINUOUS
10
278.190879
20
1066.078468
40
2.547147
50
183.224709
51
275.524452
0
LINE
8
0
6
CONTINUOUS
10
278.436095
20
1063.543151
11
278.901547
21
1063.633090
0
ARC
8
0
6
CONTINUOUS
10
277.984363
20
1066.514160
40
3.023539
50
287.658803
51
373.261618
0
ARC
8
0
6
CONTINUOUS
10
116.340189
20
1041.556773
40
166.573950
50
8.858315
51
34.269476
0
ARC
8
0
6
CONTINUOUS
10
124.757815
20
1059.736126
40
171.540795
50
7.471846
51
23.149996
0
ARC
8
0
6
CONTINUOUS
10
280.811973
20
1125.829188
40
2.148255
50
38.810652
51
146.894432
0
LINE
8
0
6
CONTINUOUS
10
279.012454
20
1127.002529
11
278.775400
21
1126.685493
0
ARC
8
0
6
CONTINUOUS
10
281.654277
20
1124.648184
40
3.526834
50
144.713918
51
218.838922
0
ARC
8
0
6
CONTINUOUS
10
157.380473
20
1070.040597
40
132.340699
50
7.439103
51
23.323111
0
ARC
8
0
6
CONTINUOUS
10
-163.460850
20
1014.392605
40
457.889579
50
2.722107
51
9.146071
0
ARC
8
0
6
CONTINUOUS
10
296.455172
20
1036.281918
40
2.547147
50
183.224709
51
275.524452
0
LINE
8
0
6
CONTINUOUS
10
296.700387
20
1033.746601
11
297.165839
21
1033.836541
0
ARC
8
0
6
CONTINUOUS
10
296.248654
20
1036.717611
40
3.023539
50
287.658803
51
373.261618
0
LINE
8
0
6
CONTINUOUS
10
299.191564
20
1037.411204
11
299.239391
21
1037.117657
0
ARC
8
0
6
CONTINUOUS
10
-235.229492
20
1007.481191
40
535.289929
50
3.173819
51
8.006915
0
ARC
8
0
6
CONTINUOUS
10
391.570533
20
1116.176380
40
54.279348
50
202.346555
51
210.465252
0
ARC
8
0
6
CONTINUOUS
10
339.571503
20
1094.899549
40
1.906425
50
19.596361
51
113.107883
0
ARC
8
0
6
CONTINUOUS
10
323.545410
20
1136.044086
40
42.250091
50
279.446454
51
291.198864
0
ARC
8
0
6
CONTINUOUS
10
330.531446
20
1092.615046
40
1.752649
50
91.690546
51
198.125226
0
ARC
8
0
6
CONTINUOUS
10
252.448692
20
1078.808968
40
77.559132
50
-1.422396
51
9.844635
0
ARC
8
0
6
CONTINUOUS
10
331.344838
20
1076.350844
40
1.461522
50
158.616648
51
330.690293
0
ARC
8
0
6
CONTINUOUS
10
373.618204
20
1039.189925
40
54.856035
50
121.879996
51
138.364932
0
ARC
8
0
6
CONTINUOUS
10
343.280812
20
1087.282593
40
2.036920
50
312.100634
51
402.392542
0
LINE
8
0
6
CONTINUOUS
10
542.884397
20
1176.429605
11
542.884397
21
1176.518723
0
ARC
8
0
6
CONTINUOUS
10
541.111923
20
1177.153515
40
1.882717
50
340.295588
51
422.363168
0
LINE
8
0
6
CONTINUOUS
10
541.985252
20
1178.821425
11
539.851303
21
1179.171370
0
ARC
8
0
6
CONTINUOUS
10
539.422745
20
1177.886023
40
1.354909
50
71.560659
51
164.850671
0
LINE
8
0
6
CONTINUOUS
10
538.114922
20
1178.240109
11
526.706339
21
1148.183499
0
ARC
8
0
6
CONTINUOUS
10
528.301285
20
1147.420840
40
1.767909
50
154.444160
51
260.313288
0
LINE
8
0
6
CONTINUOUS
10
528.003815
20
1145.678137
11
531.093422
21
1145.678137
0
ARC
8
0
6
CONTINUOUS
10
530.995972
20
1147.149554
40
1.474641
50
273.789084
51
346.769680
0
LINE
8
0
6
CONTINUOUS
10
532.431473
20
1146.812058
11
542.884397
21
1176.429605
0
ARC
8
0
6
CONTINUOUS
10
615.659059
20
1202.935217
40
3.526833
50
321.161066
51
395.286095
0
LINE
8
0
6
CONTINUOUS
10
618.537935
20
1204.972526
11
618.300882
21
1205.289562
0
ARC
8
0
6
CONTINUOUS
10
616.501363
20
1204.116224
40
2.148254
50
33.105529
51
141.189386
0
ARC
8
0
6
CONTINUOUS
10
804.964521
20
1028.493739
40
259.750105
50
137.054340
51
153.214618
0
ARC
8
0
6
CONTINUOUS
10
576.326492
20
1144.170187
40
3.522618
50
156.938334
51
220.223172
0
LINE
8
0
6
CONTINUOUS
10
573.636850
20
1141.895398
11
573.899235
21
1141.610123
0
ARC
8
0
6
CONTINUOUS
10
575.535381
20
1143.002312
40
2.148293
50
220.394330
51
327.713138
0
ARC
8
0
6
CONTINUOUS
10
825.736607
20
1012.382454
40
280.103978
50
137.747693
51
152.468932
0
ARC
8
0
6
CONTINUOUS
10
764.351697
20
1034.168071
40
192.647731
50
135.730155
51
145.051162
0
ARC
8
0
6
CONTINUOUS
10
623.657229
20
1170.855401
40
3.526833
50
321.161066
51
395.286095
0
LINE
8
0
6
CONTINUOUS
10
626.536105
20
1172.892709
11
626.299052
21
1173.209745
0
ARC
8
0
6
CONTINUOUS
10
624.499532
20
1172.036407
40
2.148254
50
33.105529
51
141.189386
0
ARC
8
0
6
CONTINUOUS
10
727.336928
20
1066.279388
40
149.645482
50
134.298218
51
146.518955
0
ARC
8
0
6
CONTINUOUS
10
605.422336
20
1146.835918
40
3.521092
50
145.446892
51
220.142037
0
LINE
8
0
6
CONTINUOUS
10
602.730643
20
1144.565924
11
602.993028
21
1144.280650
0
ARC
8
0
6
CONTINUOUS
10
604.629173
20
1145.672839
40
2.148293
50
220.394330
51
327.713138
0
ARC
8
0
6
CONTINUOUS
10
675.712156
20
1134.764265
40
2.520169
50
346.762347
51
549.409025
0
LINE
8
0
6
CONTINUOUS
10
673.225892
20
1134.352265
11
671.659995
21
899.490192
0
ARC
8
0
6
CONTINUOUS
10
674.951773
20
899.895510
40
3.316639
50
187.019525
51
352.980475
0
LINE
8
0
6
CONTINUOUS
10
678.243552
20
899.490192
11
678.165361
21
1134.187171
0
ARC
8
0
6
CONTINUOUS
10
758.167361
20
1071.699580
40
2.664937
50
337.898072
51
553.475043
0
LINE
8
0
6
CONTINUOUS
10
755.575785
20
1071.078592
11
754.511546
21
1028.478470
0
ARC
8
0
6
CONTINUOUS
10
757.410091
20
1028.618058
40
2.901903
50
182.757121
51
364.837714
0
LINE
8
0
6
CONTINUOUS
10
760.301656
20
1028.862788
11
760.636468
21
1070.696883
0
ARC
8
0
6
CONTINUOUS
10
770.318052
20
1083.100444
40
2.664937
50
337.898072
51
553.475043
0
LINE
8
0
6
CONTINUOUS
10
767.726477
20
1082.479454
11
766.662238
21
1039.879334
0
ARC
8
0
6
CONTINUOUS
10
769.560783
20
1040.018922
40
2.901903
50
182.757121
51
364.837714
0
LINE
8
0
6
CONTINUOUS
10
772.452349
20
1040.263650
11
772.787159
21
1082.097746
0
LINE
8
0
6
CONTINUOUS
10
789.021480
20
1054.921902
11
789.356292
21
1096.755998
0
ARC
8
0
6
CONTINUOUS
10
786.887185
20
1097.758695
40
2.664937
50
337.898072
51
553.475043
0
LINE
8
0
6
CONTINUOUS
10
784.295609
20
1097.137707
11
783.231370
21
1054.537586
0
ARC
8
0
6
CONTINUOUS
10
786.129915
20
1054.677174
40
2.901903
50
182.757121
51
364.837714
0
LINE
8
0
6
CONTINUOUS
10
788.353425
20
985.614173
11
788.688236
21
1027.448268
0
ARC
8
0
6
CONTINUOUS
10
786.219129
20
1028.450965
40
2.664937
50
337.898072
51
553.475043
0
LINE
8
0
6
CONTINUOUS
10
783.627554
20
1027.829977
11
782.563315
21
985.229855
0
ARC
8
0
6
CONTINUOUS
10
785.461860
20
985.369443
40
2.901903
50
182.757121
51
364.837714
0
LINE
8
0
6
CONTINUOUS
10
771.784294
20
973.941860
11
772.119104
21
1015.775955
0
ARC
8
0
6
CONTINUOUS
10
769.649997
20
1016.778652
40
2.664937
50
337.898072
51
553.475043
0
LINE
8
0
6
CONTINUOUS
10
767.058422
20
1016.157664
11
765.994183
21
973.557542
0
ARC
8
0
6
CONTINUOUS
10
768.892727
20
973.697130
40
2.901903
50
182.757121
51
364.837714
0
LINE
8
0
6
CONTINUOUS
10
759.412683
20
966.069838
11
759.747494
21
1007.903933
0
ARC
8
0
6
CONTINUOUS
10
757.278387
20
1008.906630
40
2.664937
50
337.898072
51
553.475043
0
LINE
8
0
6
CONTINUOUS
10
754.686812
20
1008.285642
11
753.622572
21
965.685520
0
ARC
8
0
6
CONTINUOUS
10
756.521117
20
965.825108
40
2.901903
50
182.757121
51
364.837714
0
ARC
8
0
6
CONTINUOUS
10
747.522453
20
1024.847228
40
1.390640
50
354.740712
51
443.497344
0
LINE
8
0
6
CONTINUOUS
10
747.679942
20
1026.228921
11
745.426041
21
1026.228921
0
ARC
8
0
6
CONTINUOUS
10
745.578913
20
1024.853683
40
1.383709
50
96.343011
51
184.250003
0
LINE
8
0
6
CONTINUOUS
10
744.199009
20
1024.751137
11
742.138980
21
870.014787
0
ARC
8
0
6
CONTINUOUS
10
743.528143
20
869.862312
40
1.397507
50
173.736307
51
263.337786
0
LINE
8
0
6
CONTINUOUS
10
743.366011
20
868.474243
11
746.195242
21
868.474243
0
ARC
8
0
6
CONTINUOUS
10
746.041083
20
869.851291
40
1.385651
50
276.387598
51
364.532330
0
LINE
8
0
6
CONTINUOUS
10
747.422400
20
869.960788
11
748.907239
21
1024.719758
0
LINE
8
0
6
CONTINUOUS
10
788.131542
20
918.749124
11
788.466354
21
960.583220
0
ARC
8
0
6
CONTINUOUS
10
785.997247
20
961.585917
40
2.664937
50
337.898072
51
553.475043
0
LINE
8
0
6
CONTINUOUS
10
783.405671
20
960.964928
11
782.341433
21
918.364808
0
ARC
8
0
6
CONTINUOUS
10
785.239977
20
918.504396
40
2.901903
50
182.757121
51
364.837714
0
LINE
8
0
6
CONTINUOUS
10
770.899649
20
910.877098
11
771.234459
21
952.711194
0
ARC
8
0
6
CONTINUOUS
10
768.765352
20
953.713892
40
2.664937
50
337.898072
51
553.475043
0
LINE
8
0
6
CONTINUOUS
10
766.173777
20
953.092903
11
765.109538
21
910.492782
0
ARC
8
0
6
CONTINUOUS
10
768.008082
20
910.632370
40
2.901903
50
182.757121
51
364.837714
0
LINE
8
0
6
CONTINUOUS
10
759.190800
20
905.448118
11
759.525611
21
947.282214
0
ARC
8
0
6
CONTINUOUS
10
757.056504
20
948.284911
40
2.664937
50
337.898072
51
553.475043
0
LINE
8
0
6
CONTINUOUS
10
754.464929
20
947.663922
11
753.400690
21
905.063801
0
ARC
8
0
6
CONTINUOUS
10
756.299235
20
905.203389
40
2.901903
50
182.757121
51
364.837714
0
ARC
8
0
6
CONTINUOUS
10
700.038306
20
840.735612
40
2.650289
50
179.854297
51
356.495350
0
LINE
8
0
6
CONTINUOUS
10
702.683639
20
840.573600
11
702.662755
21
1024.852972
0
ARC
8
0
6
CONTINUOUS
10
700.123765
20
1024.823380
40
2.539163
50
0.667751
51
189.021630
0
LINE
8
0
6
CONTINUOUS
10
697.616013
20
1024.425220
11
697.388025
21
840.742352
0
LINE
8
0
6
CONTINUOUS
10
639.316866
20
903.994023
11
648.189790
21
909.162047
0
ARC
8
0
6
CONTINUOUS
10
647.041973
20
910.902026
40
2.084469
50
303.411760
51
361.617167
0
LINE
8
0
6
CONTINUOUS
10
649.125611
20
910.960852
11
650.572569
21
1092.452669
0
ARC
8
0
6
CONTINUOUS
10
648.998867
20
1092.824906
40
1.617127
50
346.692121
51
505.847646
0
LINE
8
0
6
CONTINUOUS
10
647.660617
20
1093.732753
11
637.970640
21
1078.903168
0
ARC
8
0
6
CONTINUOUS
10
639.925830
20
1077.661845
40
2.315955
50
147.589140
51
180.246565
0
LINE
8
0
6
CONTINUOUS
10
637.609897
20
1077.651880
11
636.979993
21
905.821625
0
ARC
8
0
6
CONTINUOUS
10
638.641423
20
905.538193
40
1.685433
50
170.318831
51
293.625308
0
LINE
8
0
6
CONTINUOUS
10
562.768494
20
898.731423
11
562.898799
21
959.915636
0
ARC
8
0
6
CONTINUOUS
10
560.564117
20
959.573946
40
2.359554
50
8.326353
51
173.615846
0
LINE
8
0
6
CONTINUOUS
10
558.219195
20
959.836315
11
558.474365
21
899.074830
0
ARC
8
0
6
CONTINUOUS
10
560.620045
20
898.885802
40
2.153989
50
174.965434
51
355.890018
0
LINE
8
0
6
CONTINUOUS
10
647.285233
20
839.511455
11
637.347008
21
836.044358
0
ARC
8
0
6
CONTINUOUS
10
638.151442
20
834.216552
40
1.996995
50
113.754728
51
183.032949
0
LINE
8
0
6
CONTINUOUS
10
636.157245
20
834.110891
11
636.190629
21
746.320113
0
ARC
8
0
6
CONTINUOUS
10
638.031680
20
746.145577
40
1.849307
50
174.584412
51
264.220289
0
LINE
8
0
6
CONTINUOUS
10
637.845448
20
744.305671
11
648.911491
21
742.934867
0
ARC
8
0
6
CONTINUOUS
10
648.672737
20
744.785965
40
1.866432
50
277.349414
51
365.904693
0
LINE
8
0
6
CONTINUOUS
10
650.529267
20
744.977973
11
649.368064
21
837.606651
0
ARC
8
0
6
CONTINUOUS
10
647.650948
20
837.820200
40
1.730344
50
352.910834
51
462.201681
0
ARC
8
0
6
CONTINUOUS
10
674.238719
20
871.774717
40
2.539163
50
0.667751
51
189.021630
0
LINE
8
0
6
CONTINUOUS
10
671.730968
20
871.376558
11
671.537644
21
715.621130
0
ARC
8
0
6
CONTINUOUS
10
674.175677
20
715.603624
40
2.638091
50
179.619820
51
353.243618
0
LINE
8
0
6
CONTINUOUS
10
676.795447
20
715.293258
11
676.777710
21
871.804309
0
ARC
8
0
6
CONTINUOUS
10
757.046997
20
884.945833
40
2.664937
50
337.898072
51
553.475043
0
LINE
8
0
6
CONTINUOUS
10
754.455421
20
884.324843
11
753.391183
21
841.724723
0
ARC
8
0
6
CONTINUOUS
10
756.289727
20
841.864311
40
2.901903
50
182.757121
51
364.837714
0
LINE
8
0
6
CONTINUOUS
10
759.181294
20
842.109039
11
759.516104
21
883.943135
0
ARC
8
0
6
CONTINUOUS
10
769.824587
20
889.716091
40
2.664937
50
337.898072
51
553.475043
0
LINE
8
0
6
CONTINUOUS
10
767.233011
20
889.095102
11
766.080002
21
842.941592
0
ARC
8
0
6
CONTINUOUS
10
768.976033
20
841.847031
40
3.095975
50
159.295827
51
377.658858
0
LINE
8
0
6
CONTINUOUS
10
771.926125
20
842.786191
11
772.293694
21
888.713394
0
LINE
8
0
6
CONTINUOUS
10
788.940722
20
849.476124
11
789.308291
21
895.403327
0
ARC
8
0
6
CONTINUOUS
10
786.839184
20
896.406024
40
2.664937
50
337.898072
51
553.475043
0
LINE
8
0
6
CONTINUOUS
10
784.247609
20
895.785035
11
783.094599
21
849.631525
0
ARC
8
0
6
CONTINUOUS
10
785.990631
20
848.536965
40
3.095975
50
159.295827
51
377.658858
0
LINE
8
0
6
CONTINUOUS
10
788.486999
20
782.855569
11
788.854569
21
828.782771
0
ARC
8
0
6
CONTINUOUS
10
786.385462
20
829.785468
40
2.664937
50
337.898072
51
553.475043
0
LINE
8
0
6
CONTINUOUS
10
783.793886
20
829.164480
11
782.640877
21
783.010968
0
ARC
8
0
6
CONTINUOUS
10
785.536908
20
781.916408
40
3.095975
50
159.295827
51
377.658858
0
LINE
8
0
6
CONTINUOUS
10
772.152986
20
779.789353
11
772.520555
21
825.716555
0
ARC
8
0
6
CONTINUOUS
10
770.051448
20
826.719252
40
2.664937
50
337.898072
51
553.475043
0
LINE
8
0
6
CONTINUOUS
10
767.459873
20
826.098264
11
766.306863
21
779.944754
0
ARC
8
0
6
CONTINUOUS
10
769.202894
20
778.850193
40
3.095975
50
159.295827
51
377.658858
0
LINE
8
0
6
CONTINUOUS
10
758.995037
20
778.395615
11
759.362605
21
824.322818
0
ARC
8
0
6
CONTINUOUS
10
756.893498
20
825.325515
40
2.664937
50
337.898072
51
553.475043
0
LINE
8
0
6
CONTINUOUS
10
754.301923
20
824.704526
11
753.148913
21
778.551015
0
ARC
8
0
6
CONTINUOUS
10
756.044945
20
777.456455
40
3.095975
50
159.295827
51
377.658858
0
LINE
8
0
6
CONTINUOUS
10
748.190488
20
710.859308
11
748.175009
21
847.443748
0
ARC
8
0
6
CONTINUOUS
10
745.636019
20
847.414156
40
2.539163
50
0.667751
51
189.021630
0
LINE
8
0
6
CONTINUOUS
10
743.128267
20
847.015997
11
742.959240
21
710.836098
0
ARC
8
0
6
CONTINUOUS
10
745.573954
20
711.052841
40
2.623681
50
184.738612
51
355.769784
0
LINE
8
0
6
CONTINUOUS
10
447.511714
20
649.447231
11
451.885283
21
652.741339
0
ARC
8
0
6
CONTINUOUS
10
450.417641
20
654.517219
40
2.303848
50
309.571402
51
416.162259
0
LINE
8
0
6
CONTINUOUS
10
451.700522
20
656.430837
11
444.504847
21
661.263140
0
ARC
8
0
6
CONTINUOUS
10
442.862569
20
658.217182
40
3.460482
50
61.667946
51
121.083426
0
LINE
8
0
6
CONTINUOUS
10
441.075971
20
661.180796
11
435.985852
21
656.881718
0
ARC
8
0
6
CONTINUOUS
10
437.470786
20
655.694685
40
1.901073
50
141.361719
51
225.790442
0
LINE
8
0
6
CONTINUOUS
10
436.145197
20
654.332007
11
443.941005
21
649.084231
0
ARC
8
0
6
CONTINUOUS
10
445.497394
20
651.517992
40
2.888865
50
237.401119
51
314.208433
0
LINE
8
0
6
CONTINUOUS
10
426.037489
20
592.274429
11
436.495543
21
600.183400
0
ARC
8
0
6
CONTINUOUS
10
434.057339
20
601.468530
40
2.756156
50
332.207148
51
389.198228
0
LINE
8
0
6
CONTINUOUS
10
436.463290
20
602.813074
11
426.441208
21
610.699009
0
ARC
8
0
6
CONTINUOUS
10
424.488649
20
608.671503
40
2.814830
50
46.078774
51
89.749001
0
ARC
8
0
6
CONTINUOUS
10
424.586041
20
608.660335
40
2.827251
50
91.724079
51
133.856291
0
LINE
8
0
6
CONTINUOUS
10
422.627175
20
610.699009
11
412.605092
21
602.813074
0
ARC
8
0
6
CONTINUOUS
10
415.011050
20
601.468530
40
2.756161
50
150.801827
51
207.792797
0
LINE
8
0
6
CONTINUOUS
10
412.572841
20
600.183400
11
423.030894
21
592.274429
0
ARC
8
0
6
CONTINUOUS
10
424.480399
20
595.110934
40
3.185408
50
242.932161
51
270.967626
0
ARC
8
0
6
CONTINUOUS
10
424.587984
20
595.110936
40
3.185410
50
269.032383
51
297.067830
0
LINE
8
0
6
CONTINUOUS
10
340.499366
20
794.413357
11
328.405608
21
799.104860
0
ARC
8
0
6
CONTINUOUS
10
327.880859
20
797.011737
40
2.157899
50
75.925928
51
188.141923
0
LINE
8
0
6
CONTINUOUS
10
325.744711
20
796.706124
11
325.744711
21
709.628788
0
ARC
8
0
6
CONTINUOUS
10
327.843820
20
709.299158
40
2.124833
50
171.075532
51
289.743131
0
LINE
8
0
6
CONTINUOUS
10
328.561598
20
707.299230
11
340.655354
21
713.354540
0
ARC
8
0
6
CONTINUOUS
10
339.359142
20
715.576677
40
2.572557
50
300.255774
51
362.393193
0
LINE
8
0
6
CONTINUOUS
10
341.929455
20
715.684099
11
341.929455
21
792.014619
0
ARC
8
0
6
CONTINUOUS
10
339.415862
20
792.141720
40
2.516805
50
357.105278
51
424.500239
0
ARC
8
0
6
CONTINUOUS
10
327.657234
20
810.858036
40
1.548722
50
177.474623
51
239.180602
0
LINE
8
0
6
CONTINUOUS
10
326.863772
20
809.528014
11
340.062979
21
802.740115
0
ARC
8
0
6
CONTINUOUS
10
340.507720
20
803.929959
40
1.270244
50
249.505265
51
368.575993
0
LINE
8
0
6
CONTINUOUS
10
341.763761
20
804.119379
11
342.225563
21
869.821266
0
ARC
8
0
6
CONTINUOUS
10
210.162649
20
873.542956
40
132.115345
50
358.385764
51
386.137578
0
ARC
8
0
6
CONTINUOUS
10
327.673305
20
931.229792
40
1.208976
50
25.143735
51
192.962043
0
LINE
8
0
6
CONTINUOUS
10
326.495135
20
930.958612
11
326.110016
21
810.926276
0
ARC
8
0
6
CONTINUOUS
10
261.411490
20
829.199428
40
2.679809
50
357.008189
51
413.601096
0
LINE
8
0
6
CONTINUOUS
10
263.001698
20
831.356421
11
227.943074
21
845.885394
0
ARC
8
0
6
CONTINUOUS
10
227.599623
20
844.642985
40
1.289007
50
74.547099
51
188.208234
0
LINE
8
0
6
CONTINUOUS
10
226.323821
20
844.458953
11
225.949894
21
656.288449
0
ARC
8
0
6
CONTINUOUS
10
227.208807
20
656.087284
40
1.274884
50
170.921345
51
289.943073
0
LINE
8
0
6
CONTINUOUS
10
227.643653
20
654.888853
11
262.652346
21
672.578238
0
ARC
8
0
6
CONTINUOUS
10
261.870566
20
673.909406
40
1.543758
50
300.425213
51
362.216159
0
LINE
8
0
6
CONTINUOUS
10
263.413169
20
673.969103
11
264.087647
21
829.059561
0
ARC
8
0
6
CONTINUOUS
10
422.657404
20
819.153070
40
26.842532
50
151.291574
51
182.042867
0
LINE
8
0
6
CONTINUOUS
10
395.831932
20
818.196209
11
395.831932
21
724.344493
0
LINE
8
0
6
CONTINUOUS
10
395.831932
20
724.344493
11
453.236451
21
724.344493
0
LINE
8
0
6
CONTINUOUS
10
453.236451
20
724.344493
11
453.236451
21
818.196209
0
ARC
8
0
6
CONTINUOUS
10
426.410964
20
819.153066
40
26.842546
50
357.957142
51
388.708418
0
ARC
8
0
6
CONTINUOUS
10
425.157860
20
820.977295
40
27.154761
50
24.057326
51
91.316038
0
ARC
8
0
6
CONTINUOUS
10
423.910520
20
820.977300
40
27.154757
50
88.683956
51
155.942680
0
ARC
8
0
6
CONTINUOUS
10
508.560664
20
803.929958
40
1.270244
50
171.423991
51
290.494751
0
LINE
8
0
6
CONTINUOUS
10
509.005404
20
802.740115
11
522.204612
21
809.528014
0
ARC
8
0
6
CONTINUOUS
10
521.411150
20
810.858035
40
1.548721
50
300.819377
51
362.525398
0
LINE
8
0
6
CONTINUOUS
10
522.958367
20
810.926276
11
522.573248
21
930.958612
0
ARC
8
0
6
CONTINUOUS
10
521.395077
20
931.229792
40
1.208976
50
347.037966
51
514.856255
0
ARC
8
0
6
CONTINUOUS
10
638.905747
20
873.542953
40
132.115358
50
153.862423
51
181.614235
0
LINE
8
0
6
CONTINUOUS
10
506.842820
20
869.821266
11
507.304622
21
804.119379
0
ARC
8
0
6
CONTINUOUS
10
587.519450
20
848.667641
40
2.108874
50
171.044726
51
292.302134
0
LINE
8
0
6
CONTINUOUS
10
588.319748
20
846.716520
11
621.123992
21
864.832587
0
ARC
8
0
6
CONTINUOUS
10
619.740907
20
867.024334
40
2.591656
50
302.253665
51
361.730334
0
LINE
8
0
6
CONTINUOUS
10
622.331381
20
867.102590
11
624.315721
21
1117.628151
0
ARC
8
0
6
CONTINUOUS
10
622.679690
20
1118.034588
40
1.685761
50
346.048524
51
513.829324
0
ARC
8
0
6
CONTINUOUS
10
807.042365
20
996.742027
40
222.356798
50
146.713224
51
181.248809
0
LINE
8
0
6
CONTINUOUS
10
584.738381
20
991.895961
11
585.436283
21
848.995915
0
LINE
8
0
6
CONTINUOUS
10
584.980737
20
829.059561
11
585.655214
21
673.969103
0
ARC
8
0
6
CONTINUOUS
10
587.197816
20
673.909405
40
1.543757
50
177.783810
51
239.574818
0
LINE
8
0
6
CONTINUOUS
10
586.416037
20
672.578238
11
621.424731
21
654.888853
0
ARC
8
0
6
CONTINUOUS
10
621.859576
20
656.087284
40
1.274885
50
250.056960
51
369.078623
0
LINE
8
0
6
CONTINUOUS
10
623.118489
20
656.288449
11
622.744562
21
844.458953
0
ARC
8
0
6
CONTINUOUS
10
621.468761
20
844.642985
40
1.289007
50
351.791744
51
465.452923
0
LINE
8
0
6
CONTINUOUS
10
621.125310
20
845.885394
11
586.066685
21
831.356421
0
ARC
8
0
6
CONTINUOUS
10
587.656891
20
829.199429
40
2.679807
50
126.398879
51
182.991834
0
ARC
8
0
6
CONTINUOUS
10
509.709238
20
715.576676
40
2.572555
50
177.606778
51
239.744256
0
LINE
8
0
6
CONTINUOUS
10
508.413029
20
713.354540
11
520.506786
21
707.299230
0
ARC
8
0
6
CONTINUOUS
10
521.224562
20
709.299158
40
2.124833
50
250.256888
51
368.924449
0
LINE
8
0
6
CONTINUOUS
10
523.323671
20
709.628788
11
523.323671
21
796.706124
0
ARC
8
0
6
CONTINUOUS
10
521.187524
20
797.011738
40
2.157898
50
351.858060
51
464.074089
0
LINE
8
0
6
CONTINUOUS
10
520.662774
20
799.104860
11
508.569018
21
794.413357
0
ARC
8
0
6
CONTINUOUS
10
509.652523
20
792.141719
40
2.516807
50
115.499785
51
182.894699
0
LINE
8
0
6
CONTINUOUS
10
507.138927
20
792.014619
11
507.138927
21
715.684099
0
ARC
8
0
6
CONTINUOUS
10
229.327480
20
867.024336
40
2.591659
50
178.269708
51
237.746293
0
LINE
8
0
6
CONTINUOUS
10
227.944391
20
864.832587
11
260.748635
21
846.716520
0
ARC
8
0
6
CONTINUOUS
10
261.548933
20
848.667641
40
2.108874
50
247.697864
51
368.955276
0
LINE
8
0
6
CONTINUOUS
10
263.632100
20
848.995915
11
264.330002
21
991.895961
0
ARC
8
0
6
CONTINUOUS
10
42.026020
20
996.742027
40
222.356796
50
358.751191
51
393.286777
0
ARC
8
0
6
CONTINUOUS
10
226.388693
20
1118.034588
40
1.685761
50
26.170685
51
193.951466
0
LINE
8
0
6
CONTINUOUS
10
224.752662
20
1117.628151
11
226.737002
21
867.102590
0
ARC
8
0
6
CONTINUOUS
10
255.196586
20
1310.373546
40
2.389660
50
327.438592
51
379.225981
0
LINE
8
0
6
CONTINUOUS
10
257.452967
20
1311.160450
11
249.429459
21
1334.203221
0
ARC
8
0
6
CONTINUOUS
10
247.953210
20
1333.910241
40
1.505041
50
11.225149
51
145.442945
0
ARC
8
0
6
CONTINUOUS
10
403.356256
20
1221.014393
40
193.586788
50
144.013869
51
167.279914
0
ARC
8
0
6
CONTINUOUS
10
661.606668
20
1144.943929
40
462.573995
50
165.131650
51
178.191487
0
ARC
8
0
6
CONTINUOUS
10
201.588962
20
1159.448048
40
2.327787
50
177.676568
51
212.548308
0
LINE
8
0
6
CONTINUOUS
10
199.626782
20
1158.195674
11
209.177757
21
1143.701281
0
ARC
8
0
6
CONTINUOUS
10
210.501768
20
1144.562562
40
1.579497
50
213.044366
51
365.778560
0
ARC
8
0
6
CONTINUOUS
10
1083.666278
20
1057.354801
40
875.960834
50
169.166661
51
174.275902
0
ARC
8
0
6
CONTINUOUS
10
442.683254
20
1186.765719
40
222.177170
50
146.594609
51
170.876678
0
ARC
8
0
6
CONTINUOUS
10
277.088057
20
1367.115462
40
2.307872
50
137.236094
51
195.426697
0
LINE
8
0
6
CONTINUOUS
10
274.863335
20
1366.501555
11
281.362110
21
1341.606751
0
ARC
8
0
6
CONTINUOUS
10
282.888407
20
1341.765558
40
1.534537
50
185.940100
51
313.125945
0
ARC
8
0
6
CONTINUOUS
10
428.596043
20
1195.811681
40
204.702155
50
104.410489
51
134.965310
0
ARC
8
0
6
CONTINUOUS
10
376.976480
20
1395.962015
40
2.005905
50
289.691788
51
369.247653
0
LINE
8
0
6
CONTINUOUS
10
378.956313
20
1396.284368
11
376.499681
21
1421.663987
0
ARC
8
0
6
CONTINUOUS
10
374.770757
20
1421.689911
40
1.729118
50
359.140935
51
455.434004
0
ARC
8
0
6
CONTINUOUS
10
416.328261
20
1230.486102
40
197.384851
50
102.202655
51
135.562036
0
ARC
8
0
6
CONTINUOUS
10
474.297628
20
1421.689909
40
1.729120
50
84.566057
51
180.859005
0
LINE
8
0
6
CONTINUOUS
10
472.568703
20
1421.663987
11
470.112070
21
1396.284368
0
ARC
8
0
6
CONTINUOUS
10
472.091902
20
1395.962014
40
2.005903
50
170.752302
51
250.308257
0
ARC
8
0
6
CONTINUOUS
10
420.472342
20
1195.811685
40
204.702150
50
45.034689
51
75.589511
0
ARC
8
0
6
CONTINUOUS
10
566.179976
20
1341.765558
40
1.534537
50
226.874054
51
354.059900
0
LINE
8
0
6
CONTINUOUS
10
567.706274
20
1341.606751
11
574.205049
21
1366.501555
0
ARC
8
0
6
CONTINUOUS
10
571.980330
20
1367.115463
40
2.307868
50
344.573240
51
402.763969
0
ARC
8
0
6
CONTINUOUS
10
432.740118
20
1230.486096
40
197.384857
50
44.437965
51
77.797345
0
ARC
8
0
6
CONTINUOUS
10
445.712126
20
1221.014393
40
193.586790
50
12.720086
51
35.986131
0
ARC
8
0
6
CONTINUOUS
10
601.115173
20
1333.910242
40
1.505040
50
34.557014
51
168.774893
0
LINE
8
0
6
CONTINUOUS
10
599.638924
20
1334.203221
11
591.615416
21
1311.160450
0
ARC
8
0
6
CONTINUOUS
10
593.871797
20
1310.373546
40
2.389659
50
160.774011
51
212.561417
0
ARC
8
0
6
CONTINUOUS
10
406.385144
20
1186.765726
40
222.177153
50
9.123321
51
33.405392
0
ARC
8
0
6
CONTINUOUS
10
-234.597728
20
1057.354825
40
875.960666
50
5.724097
51
10.833339
0
ARC
8
0
6
CONTINUOUS
10
638.566616
20
1144.562562
40
1.579497
50
174.221461
51
326.955613
0
LINE
8
0
6
CONTINUOUS
10
639.890627
20
1143.701281
11
649.441601
21
1158.195674
0
ARC
8
0
6
CONTINUOUS
10
647.479420
20
1159.448048
40
2.327788
50
327.451698
51
362.323424
0
ARC
8
0
6
CONTINUOUS
10
187.461703
20
1144.943927
40
462.574007
50
1.808512
51
14.868349
0
LINE
8
0
6
CONTINUOUS
10
24.534002
20
4.563837
11
24.534002
21
1604.563935
0
LINE
8
0
6
CONTINUOUS
10
24.534002
20
1604.563935
11
824.534381
21
1604.563935
0
LINE
8
0
6
CONTINUOUS
10
824.534381
20
1604.563935
11
824.534381
21
4.563837
0
LINE
8
0
6
CONTINUOUS
10
824.534381
20
4.563837
11
24.534002
21
4.563837
0
CIRCLE
8
0
6
CONTINUOUS
10
327.006369
20
671.923911
40
1.227296
0
CIRCLE
8
0
6
CONTINUOUS
10
522.062015
20
671.923911
40
1.227296
0
ENDSEC
0
EOF
