0
SECTION
2
HEADER
9
$EXTMIN
10
0.141060
20
0.177601
9
$EXTMAX
10
11.844585
20
4.538590
0
ENDSEC
0
SECTION
2
TABLES
0
TABLE
2
LTYPE
70
1
0
LTYPE
2
0
70
0
3
Solid Line
72
65
73
0
40
0.0
0
ENDTAB
0
TABLE
2
LAYER
70
1
0
LAYER
2
1
70
0
62
7
6
0
0
ENDTAB
0
ENDSEC
0
SECTION
2
BLOCKS
0
ENDSEC
0
SECTION
2
ENTITIES
0
LINE
8
1
10
0.685497
20
2.377311
11
0.685497
21
2.377311
0
ARC
8
1
10
0.707238
20
2.587647
40
0.211456
50
-95.901347
51
-62.028078
0
ARC
8
1
10
0.794114
20
2.415296
40
0.018943
50
-49.489142
51
82.115850
0
ARC
8
1
10
0.694184
20
2.192550
40
0.262372
50
66.997430
51
92.291801
0
ARC
8
1
10
0.641110
20
2.394803
40
0.073500
50
54.595387
51
140.876761
0
ARC
8
1
10
0.605775
20
2.395344
40
0.050708
50
115.319530
51
-161.306986
0
LINE
8
1
10
0.557742
20
2.379093
11
0.559277
21
2.376372
0
LINE
8
1
10
0.559277
20
2.376372
11
0.561018
21
2.373689
0
ARC
8
1
10
0.769466
20
2.592480
40
0.302192
50
-133.613243
51
-107.606891
0
LINE
8
1
10
0.678058
20
2.304444
11
0.680892
21
2.303196
0
LINE
8
1
10
0.680892
20
2.303196
11
0.683582
21
2.301989
0
ARC
8
1
10
-0.037648
20
2.358012
40
0.723403
50
-4.441656
51
1.528763
0
LINE
8
1
10
0.938800
20
2.149929
11
0.938800
21
2.149929
0
ARC
8
1
10
1.198762
20
2.427559
40
0.380340
50
-133.117567
51
-87.694596
0
ARC
8
1
10
1.243432
20
3.085538
40
1.038427
50
-91.620770
51
-89.952304
0
ARC
8
1
10
1.113868
20
2.041463
40
0.130551
50
2.479931
51
71.476553
0
ARC
8
1
10
0.893548
20
1.462303
40
0.750114
50
69.573388
51
91.340728
0
ARC
8
1
10
1.547701
20
2.826721
40
0.910389
50
-137.546126
51
-131.977279
0
LINE
8
1
10
0.903995
20
1.963273
11
0.903995
21
1.963273
0
ARC
8
1
10
1.881420
20
7.199700
40
5.326868
50
-100.573081
51
-95.421303
0
ARC
8
1
10
1.416726
20
2.399411
40
0.504230
50
-94.388297
51
-86.550812
0
LINE
8
1
10
1.447062
20
1.896095
11
1.446176
21
1.897186
0
LINE
8
1
10
1.446176
20
1.897186
11
1.444820
21
1.898320
0
LINE
8
1
10
1.444820
20
1.898320
11
1.443005
21
1.899497
0
LINE
8
1
10
1.443005
20
1.899497
11
1.440742
21
1.900716
0
LINE
8
1
10
1.440742
20
1.900716
11
1.438041
21
1.901974
0
LINE
8
1
10
1.438041
20
1.901974
11
1.434913
21
1.903271
0
LINE
8
1
10
1.434913
20
1.903271
11
1.431368
21
1.904606
0
LINE
8
1
10
1.431368
20
1.904606
11
1.427417
21
1.905978
0
LINE
8
1
10
1.427417
20
1.905978
11
1.423069
21
1.907384
0
LINE
8
1
10
1.423069
20
1.907384
11
1.418337
21
1.908824
0
LINE
8
1
10
1.418337
20
1.908824
11
1.413229
21
1.910297
0
LINE
8
1
10
1.413229
20
1.910297
11
1.407757
21
1.911801
0
ARC
8
1
10
0.018108
20
-4.669112
40
6.726035
50
78.076389
51
84.184090
0
ARC
8
1
10
0.693096
20
1.989454
40
0.033499
50
78.675590
51
-170.537572
0
ARC
8
1
10
0.633938
20
0.226253
40
1.757888
50
81.162912
51
89.148794
0
LINE
8
1
10
1.222659
20
2.256314
11
1.222659
21
2.256314
0
ARC
8
1
10
1.284699
20
2.727053
40
0.474809
50
-97.507932
51
-68.505605
0
ARC
8
1
10
5.363844
20
-8.394394
40
11.371256
50
109.150976
51
110.085662
0
LINE
8
1
10
1.633407
20
2.347548
11
1.639479
21
2.348598
0
ARC
8
1
10
1.654290
20
2.306533
40
0.044596
50
-10.999686
51
109.397868
0
ARC
8
1
10
0.913002
20
2.401329
40
0.791833
50
-22.718458
51
-7.496377
0
ARC
8
1
10
1.855443
20
2.006011
40
0.230162
50
157.114031
51
179.252742
0
ARC
8
1
10
1.781788
20
1.302878
40
0.723266
50
88.548059
51
102.495426
0
ARC
8
1
10
1.789886
20
2.160054
40
0.134531
50
-85.639643
51
-19.580243
0
ARC
8
1
10
1.478490
20
2.338473
40
0.491862
50
-27.026615
51
6.464636
0
ARC
8
1
10
1.764660
20
2.357652
40
0.205773
50
10.132272
51
68.743886
0
LINE
8
1
10
1.839261
20
2.549426
11
1.833070
21
2.552459
0
LINE
8
1
10
1.833070
20
2.552459
11
1.826768
21
2.555434
0
LINE
8
1
10
1.826768
20
2.555434
11
1.820360
21
2.558352
0
ARC
8
1
10
1.364646
20
1.375530
40
1.267573
50
68.929482
51
88.046750
0
ARC
8
1
10
-2.903202
20
8.386880
40
7.182242
50
-53.980856
51
-53.113079
0
ARC
8
1
10
1.416771
20
2.497667
40
0.125327
50
140.292220
51
177.086539
0
ARC
8
1
10
1.021911
20
2.587227
40
0.282234
50
-67.482371
51
-17.142922
0
ARC
8
1
10
1.247170
20
2.384926
40
0.130927
50
-153.501436
51
-100.790230
0
LINE
8
1
10
1.857296
20
1.850082
11
1.857296
21
1.850082
0
ARC
8
1
10
0.914416
20
3.698132
40
2.074684
50
-65.735753
51
-62.969191
0
ARC
8
1
10
1.908452
20
1.853714
40
0.149054
50
-161.624734
51
-117.970205
0
ARC
8
1
10
1.831798
20
1.783004
40
0.061306
50
-83.683084
51
-26.362362
0
ARC
8
1
10
2.064531
20
1.630187
40
0.217687
50
112.568663
51
144.763840
0
ARC
8
1
10
2.008095
20
2.582749
40
0.752034
50
-92.065885
51
-68.054312
0
ARC
8
1
10
2.632413
20
0.930779
40
1.014280
50
99.596737
51
109.781231
0
LINE
8
1
10
2.463320
20
1.930865
11
2.463143
21
1.928918
0
ARC
8
1
10
5.227177
20
1.643257
40
2.778756
50
174.099458
51
176.907495
0
ARC
8
1
10
2.438330
20
2.057130
40
0.264343
50
-86.934312
51
-39.666418
0
ARC
8
1
10
2.882057
20
1.692035
40
0.310281
50
104.860325
51
140.739321
0
ARC
8
1
10
2.988997
20
0.310643
40
1.691609
50
83.803194
51
96.330260
0
ARC
8
1
10
3.129130
20
4.277736
40
2.285762
50
-88.935487
51
-80.323785
0
ARC
8
1
10
3.595269
20
1.344978
40
0.684438
50
60.459799
51
96.876502
0
ARC
8
1
10
3.674137
20
1.541493
40
0.475424
50
39.234664
51
57.050505
0
ARC
8
1
10
3.615421
20
0.137956
40
1.756911
50
72.208426
51
75.935232
0
ARC
8
1
10
4.134123
20
1.786275
40
0.030533
50
-44.431339
51
53.572179
0
ARC
8
1
10
3.594920
20
2.111765
40
0.659578
50
-40.282728
51
-31.728095
0
LINE
8
1
10
4.098088
20
1.685308
11
4.097042
21
1.682611
0
LINE
8
1
10
4.097042
20
1.682611
11
4.096130
21
1.679783
0
LINE
8
1
10
4.096130
20
1.679783
11
4.095350
21
1.676826
0
LINE
8
1
10
4.095350
20
1.676826
11
4.094698
21
1.673748
0
LINE
8
1
10
4.094698
20
1.673748
11
4.094175
21
1.670553
0
ARC
8
1
10
4.369521
20
1.672624
40
0.275353
50
-179.569025
51
-132.618195
0
ARC
8
1
10
4.199600
20
1.490030
40
0.025969
50
-129.515856
51
-80.781070
0
ARC
8
1
10
4.458686
20
1.431675
40
0.257017
50
136.605599
51
172.685592
0
ARC
8
1
10
4.371686
20
1.484710
40
0.158790
50
90.123190
51
128.921069
0
ARC
8
1
10
4.335178
20
1.576856
40
0.075825
50
11.614493
51
61.511408
0
ARC
8
1
10
4.503788
20
1.629602
40
0.101510
50
-158.331841
51
-117.137299
0
ARC
8
1
10
4.506609
20
1.524501
40
0.051294
50
92.642762
51
163.270626
0
ARC
8
1
10
4.467831
20
1.487020
40
0.095903
50
30.019079
51
67.685447
0
ARC
8
1
10
4.693077
20
1.798058
40
0.299037
50
-118.395301
51
-93.238604
0
ARC
8
1
10
4.676451
20
1.418505
40
0.080994
50
21.352539
51
90.189570
0
ARC
8
1
10
4.870550
20
1.569037
40
0.169506
50
-134.431643
51
-84.276041
0
ARC
8
1
10
5.093131
20
-1.456634
40
2.864404
50
90.059372
51
94.117606
0
ARC
8
1
10
4.592476
20
-0.200770
40
1.683772
50
70.214827
51
72.807778
0
ARC
8
1
10
5.174671
20
1.468720
40
0.085991
50
-98.188096
51
-40.609607
0
LINE
8
1
10
5.239952
20
1.412749
11
5.241970
21
1.414222
0
ARC
8
1
10
5.333288
20
1.274040
40
0.167301
50
74.535626
51
123.081419
0
ARC
8
1
10
5.066998
20
0.182287
40
1.290992
50
65.195511
51
76.064963
0
ARC
8
1
10
5.694588
20
1.743576
40
0.398779
50
-102.452473
51
-73.599923
0
ARC
8
1
10
5.912256
20
0.900076
40
0.472771
50
90.765314
51
102.841469
0
ARC
8
1
10
6.173846
20
1.592025
40
0.346165
50
-140.707371
51
-97.199914
0
ARC
8
1
10
6.137533
20
1.312898
40
0.064697
50
-96.276313
51
-24.855400
0
ARC
8
1
10
6.273009
20
1.435969
40
0.168741
50
-164.999537
51
-117.062933
0
ARC
8
1
10
6.171498
20
1.399240
40
0.061870
50
79.554425
51
-173.554545
0
ARC
8
1
10
6.413842
20
3.278629
40
1.833173
50
-97.243150
51
-93.093342
0
ARC
8
1
10
6.525005
20
0.693632
40
0.783198
50
83.716523
51
105.559634
0
ARC
8
1
10
6.732983
20
2.626674
40
1.161005
50
-96.044712
51
-81.079763
0
ARC
8
1
10
6.790541
20
1.914274
40
0.451490
50
-74.261277
51
-49.053669
0
ARC
8
1
10
7.209887
20
1.413629
40
0.201798
50
95.891017
51
127.720132
0
ARC
8
1
10
7.421824
20
2.026335
40
0.473126
50
-119.454298
51
-97.882171
0
ARC
8
1
10
7.240815
20
1.090844
40
0.481062
50
73.441805
51
76.030976
0
ARC
8
1
10
7.555249
20
1.489281
40
0.188087
50
128.406456
51
160.535049
0
ARC
8
1
10
7.463132
20
1.560818
40
0.079782
50
50.078588
51
108.057227
0
ARC
8
1
10
7.592912
20
1.760945
40
0.159622
50
-119.491162
51
-68.663648
0
ARC
8
1
10
7.374290
20
2.531034
40
0.959533
50
-73.239716
51
-59.339038
0
ARC
8
1
10
8.623378
20
0.011804
40
1.856433
50
98.024286
51
114.158471
0
ARC
8
1
10
7.907983
20
5.094257
40
3.276122
50
-81.994671
51
-72.488229
0
LINE
8
1
10
8.893774
20
1.969966
11
8.909025
21
1.975499
0
LINE
8
1
10
8.909025
20
1.975499
11
8.918365
21
1.978974
0
LINE
8
1
10
8.918365
20
1.978974
11
8.921824
21
1.980180
0
LINE
8
1
10
8.921824
20
1.980180
11
8.925367
21
1.981329
0
ARC
8
1
10
9.360165
20
-0.402208
40
2.422870
50
95.485040
51
100.338043
0
ARC
8
1
10
9.110542
20
2.165497
40
0.156968
50
-83.404137
51
-38.747362
0
ARC
8
1
10
9.307799
20
1.969792
40
0.122878
50
78.246200
51
127.519020
0
ARC
8
1
10
9.325462
20
2.248816
40
0.158894
50
-87.342174
51
-55.006253
0
ARC
8
1
10
9.435591
20
2.066228
40
0.055758
50
38.861789
51
109.928180
0
ARC
8
1
10
9.526505
20
2.160768
40
0.076175
50
-128.573545
51
-76.013033
0
ARC
8
1
10
9.461575
20
0.104075
40
1.984528
50
80.396807
51
87.593114
0
ARC
8
1
10
9.795677
20
2.069951
40
0.009649
50
-108.343165
51
-28.705597
0
ARC
8
1
10
9.588831
20
2.076449
40
0.215597
50
-2.959758
51
76.150713
0
ARC
8
1
10
9.419809
20
1.434250
40
0.879646
50
75.474231
51
97.728230
0
ARC
8
1
10
9.485108
20
-0.120878
40
2.433719
50
94.326247
51
102.028209
0
ARC
8
1
10
9.014922
20
2.563087
40
0.305922
50
-123.685952
51
-96.943754
0
ARC
8
1
10
8.742009
20
2.113143
40
0.220985
50
62.149685
51
100.085686
0
ARC
8
1
10
8.652680
20
2.646370
40
0.319691
50
-106.107049
51
-80.887659
0
ARC
8
1
10
8.590296
20
2.389523
40
0.056759
50
157.021417
51
-117.613221
0
ARC
8
1
10
9.032160
20
2.292991
40
0.508175
50
163.089044
51
166.493104
0
ARC
8
1
10
8.415648
20
6.480834
40
4.042124
50
-90.661097
51
-88.152548
0
ARC
8
1
10
8.539318
20
2.456728
40
0.171231
50
-174.050606
51
-149.748199
0
ARC
8
1
10
8.334854
20
2.393434
40
0.061039
50
-71.379912
51
-22.108774
0
ARC
8
1
10
8.248696
20
2.468973
40
0.170154
50
-117.788697
51
-51.618686
0
ARC
8
1
10
8.051972
20
2.070171
40
0.274629
50
64.692690
51
102.334491
0
ARC
8
1
10
7.558027
20
4.588830
40
2.292081
50
-85.414343
51
-79.052702
0
LINE
8
1
10
7.741277
20
2.304086
11
7.733099
21
2.304176
0
LINE
8
1
10
7.733099
20
2.304176
11
7.725046
21
2.304461
0
ARC
8
1
10
7.716254
20
2.444406
40
0.140221
50
-168.577951
51
-86.405360
0
ARC
8
1
10
7.395880
20
2.369215
40
0.188977
50
14.533244
51
55.609779
0
ARC
8
1
10
7.455895
20
2.397300
40
0.136131
50
69.926118
51
116.667547
0
ARC
8
1
10
7.343327
20
2.795185
40
0.280990
50
-112.441369
51
-79.445160
0
ARC
8
1
10
7.179892
20
2.337140
40
0.206135
50
74.187175
51
103.541616
0
LINE
8
1
10
7.131625
20
2.537544
11
7.122594
21
2.536769
0
LINE
8
1
10
7.122594
20
2.536769
11
7.113920
21
2.536264
0
ARC
8
1
10
7.095168
20
2.678977
40
0.143940
50
-158.347677
51
-82.514401
0
LINE
8
1
10
6.961384
20
2.625867
11
6.958824
21
2.630439
0
LINE
8
1
10
6.958824
20
2.630439
11
6.956269
21
2.635039
0
LINE
8
1
10
6.956269
20
2.635039
11
6.953707
21
2.639662
0
LINE
8
1
10
6.953707
20
2.639662
11
6.951128
21
2.644299
0
ARC
8
1
10
6.766247
20
2.560619
40
0.202937
50
24.352202
51
97.945249
0
ARC
8
1
10
6.620271
20
4.157006
40
1.400372
50
-92.249042
51
-85.169445
0
ARC
8
1
10
6.356523
20
2.832086
40
0.221644
50
-60.876828
51
-19.606171
0
ARC
8
1
10
6.423449
20
2.760721
40
0.128932
50
-121.519667
51
-71.483633
0
ARC
8
1
10
7.303763
20
4.573001
40
2.143124
50
-118.044377
51
-116.245199
0
ARC
8
1
10
9.567798
20
-12.297935
40
15.332563
50
102.320397
51
102.747202
0
ARC
8
1
10
5.992297
20
2.552411
40
0.218836
50
28.469462
51
68.847594
0
ARC
8
1
10
6.045389
20
2.610753
40
0.148030
50
79.933162
51
125.248384
0
ARC
8
1
10
5.889660
20
2.832188
40
0.122684
50
-93.563587
51
-55.040151
0
ARC
8
1
10
6.090406
20
3.042315
40
0.392459
50
-136.222314
51
-122.068884
0
ARC
8
1
10
5.688277
20
2.630147
40
0.184077
50
49.821067
51
103.598384
0
ARC
8
1
10
5.559602
20
3.615215
40
0.810661
50
-91.318124
51
-83.953224
0
ARC
8
1
10
5.609371
20
2.590661
40
0.224772
50
107.720997
51
137.085038
0
ARC
8
1
10
5.390567
20
2.811987
40
0.087167
50
-126.810060
51
-51.562276
0
ARC
8
1
10
5.206019
20
2.447916
40
0.322664
50
65.789574
51
99.433846
0
ARC
8
1
10
5.087772
20
3.780299
40
1.016187
50
-98.763651
51
-86.312277
0
ARC
8
1
10
4.554227
20
0.006037
40
2.795709
50
82.214507
51
92.674704
0
ARC
8
1
10
4.515911
20
0.925898
40
1.875067
50
92.816818
51
100.772696
0
ARC
8
1
10
4.235524
20
3.356759
40
0.592996
50
-109.801312
51
-96.787868
0
ARC
8
1
10
4.000556
20
2.636975
40
0.165401
50
78.107265
51
113.096226
0
ARC
8
1
10
3.666923
20
4.746633
40
1.975877
50
-87.837761
51
-82.182644
0
ARC
8
1
10
3.826172
20
2.232417
40
0.546352
50
98.918552
51
114.598337
0
LINE
8
1
10
3.598751
20
2.729186
11
3.591798
21
2.727018
0
LINE
8
1
10
3.591798
20
2.727018
11
3.584735
21
2.724914
0
LINE
8
1
10
3.584735
20
2.724914
11
3.577563
21
2.722872
0
LINE
8
1
10
3.577563
20
2.722872
11
3.570287
21
2.720890
0
LINE
8
1
10
3.570287
20
2.720890
11
3.562911
21
2.718970
0
LINE
8
1
10
3.562911
20
2.718970
11
3.555436
21
2.717110
0
LINE
8
1
10
3.555436
20
2.717110
11
3.547868
21
2.715309
0
ARC
8
1
10
3.193045
20
4.652517
40
1.969435
50
-94.724790
51
-79.620619
0
ARC
8
1
10
3.111197
20
1.053891
40
1.637857
50
92.812793
51
102.310573
0
ARC
8
1
10
3.426152
20
9.481010
40
6.859154
50
-97.153926
51
-95.556588
0
ARC
8
1
10
2.566771
20
2.610934
40
0.064527
50
85.401386
51
135.307470
0
ARC
8
1
10
2.447802
20
2.771859
40
0.136724
50
-129.124969
51
-57.680601
0
ARC
8
1
10
1.069915
20
0.984803
40
2.119902
50
52.462620
51
57.916789
0
ARC
8
1
10
2.084014
20
2.573241
40
0.235926
50
61.689439
51
87.309680
0
ARC
8
1
10
2.686331
20
2.418543
40
0.708487
50
146.565427
51
162.548873
0
ARC
8
1
10
2.219263
20
2.594847
40
0.211918
50
170.174046
51
-155.574718
0
ARC
8
1
10
0.937795
20
2.137201
40
1.149687
50
1.563390
51
18.774303
0
ARC
8
1
10
1.772840
20
2.163454
40
0.314256
50
-61.411395
51
0.932494
0
ARC
8
1
10
1.467860
20
2.612688
40
0.856288
50
-62.948153
51
-57.874196
0
LINE
8
1
10
2.438222
20
1.629921
11
2.438222
21
1.629921
0
ARC
8
1
10
2.218854
20
1.315801
40
0.383136
50
55.071081
51
61.784444
0
LINE
8
1
10
2.399997
20
1.653412
11
2.397517
21
1.648632
0
LINE
8
1
10
2.397517
20
1.648632
11
2.395287
21
1.644003
0
LINE
8
1
10
2.395287
20
1.644003
11
2.393299
21
1.639524
0
LINE
8
1
10
2.393299
20
1.639524
11
2.391550
21
1.635193
0
ARC
8
1
10
2.434655
20
1.610162
40
0.049846
50
149.856435
51
-93.686090
0
ARC
8
1
10
2.494720
20
1.818461
40
0.265686
50
-103.776612
51
-85.793718
0
LINE
8
1
10
2.514208
20
1.553491
11
2.513947
21
1.555226
0
ARC
8
1
10
2.340701
20
1.455323
40
0.199987
50
29.969987
51
60.814446
0
LINE
8
1
10
7.907097
20
1.425977
11
7.907097
21
1.425977
0
ARC
8
1
10
8.962821
20
-3.115832
40
4.662895
50
103.085772
51
105.117668
0
LINE
8
1
10
7.746727
20
1.385690
11
7.746863
21
1.384338
0
LINE
8
1
10
7.746863
20
1.384338
11
7.747103
21
1.382968
0
LINE
8
1
10
7.747103
20
1.382968
11
7.747445
21
1.381582
0
LINE
8
1
10
7.747445
20
1.381582
11
7.747889
21
1.380180
0
LINE
8
1
10
7.747889
20
1.380180
11
7.748430
21
1.378763
0
LINE
8
1
10
7.748430
20
1.378763
11
7.749070
21
1.377333
0
LINE
8
1
10
7.749070
20
1.377333
11
7.749804
21
1.375889
0
LINE
8
1
10
7.749804
20
1.375889
11
7.750631
21
1.374433
0
LINE
8
1
10
7.750631
20
1.374433
11
7.751549
21
1.372966
0
LINE
8
1
10
7.751549
20
1.372966
11
7.752557
21
1.371488
0
ARC
8
1
10
7.949000
20
1.579805
40
0.286332
50
-133.319526
51
-89.742181
0
ARC
8
1
10
7.920910
20
1.391424
40
0.102259
50
-73.303940
51
-15.731174
0
ARC
8
1
10
8.084993
20
1.334363
40
0.071911
50
115.222272
51
155.923603
0
ARC
8
1
10
8.071658
20
1.512192
40
0.114095
50
-98.725487
51
-56.117299
0
ARC
8
1
10
8.279127
20
1.313909
40
0.177262
50
113.864725
51
144.250455
0
ARC
8
1
10
8.021693
20
2.480523
40
1.021531
50
-79.525192
51
-65.555415
0
ARC
8
1
10
8.670219
20
0.921622
40
0.668244
50
96.013023
51
109.749320
0
LINE
8
1
10
8.600218
20
1.586189
11
8.603092
21
1.621949
0
LINE
8
1
10
8.603092
20
1.621949
11
8.585754
21
1.651386
0
LINE
8
1
10
8.585754
20
1.651386
11
8.583015
21
1.649465
0
LINE
8
1
10
8.583015
20
1.649465
11
8.580275
21
1.647580
0
LINE
8
1
10
8.580275
20
1.647580
11
8.577539
21
1.645733
0
LINE
8
1
10
8.577539
20
1.645733
11
8.574802
21
1.643924
0
LINE
8
1
10
8.574802
20
1.643924
11
8.572067
21
1.642156
0
LINE
8
1
10
8.572067
20
1.642156
11
8.569334
21
1.640431
0
LINE
8
1
10
8.569334
20
1.640431
11
8.566601
21
1.638749
0
LINE
8
1
10
8.566601
20
1.638749
11
8.563869
21
1.637113
0
ARC
8
1
10
7.395930
20
4.182201
40
2.800278
50
-78.063738
51
-65.349646
0
ARC
8
1
10
2.042300
20
25.754238
40
25.025189
50
-76.446349
51
-76.286156
0
LINE
8
1
10
9.964037
20
2.189391
11
9.964037
21
2.189391
0
ARC
8
1
10
10.057374
20
2.099254
40
0.129755
50
135.999217
51
163.582413
0
LINE
8
1
10
9.932909
20
2.135928
11
9.933792
21
2.135824
0
ARC
8
1
10
9.877275
20
2.042790
40
0.108856
50
26.773820
51
58.721770
0
ARC
8
1
10
10.054265
20
2.181254
40
0.119859
50
-131.745333
51
-68.978967
0
ARC
8
1
10
10.197079
20
1.810326
40
0.277613
50
81.962441
51
111.073317
0
ARC
8
1
10
10.451345
20
2.633574
40
0.589169
50
-111.449748
51
-91.575535
0
ARC
8
1
10
10.419696
20
2.401881
40
0.357587
50
-87.523610
51
-82.803622
0
ARC
8
1
10
10.742789
20
2.072308
40
0.279437
50
-174.826611
51
-147.496507
0
ARC
8
1
10
10.569922
20
1.980023
40
0.085397
50
-137.338360
51
-92.572420
0
ARC
8
1
10
9.113542
20
2.833793
40
1.729673
50
-32.882908
51
-25.925967
0
ARC
8
1
10
10.274794
20
2.209146
40
0.415720
50
-18.452499
51
6.299278
0
ARC
8
1
10
12.573545
20
2.025744
40
1.899399
50
166.774043
51
173.074849
0
ARC
8
1
10
10.556692
20
2.493896
40
0.171162
50
-11.315536
51
63.457933
0
LINE
8
1
10
10.633177
20
2.647018
11
10.625242
21
2.651880
0
LINE
8
1
10
10.625242
20
2.651880
11
10.616896
21
2.656712
0
ARC
8
1
10
10.856581
20
2.630234
40
0.241143
50
173.696306
51
-153.001476
0
ARC
8
1
10
10.452476
20
2.446400
40
0.203329
50
-21.443591
51
21.452399
0
ARC
8
1
10
10.346325
20
2.407683
40
0.297544
50
-36.058429
51
-6.874913
0
ARC
8
1
10
10.496060
20
2.331926
40
0.134617
50
-100.964884
51
-47.582008
0
ARC
8
1
10
30.978127
20
132.362808
40
131.768668
50
-99.080109
51
-98.953559
0
ARC
8
1
10
10.132623
20
1.964256
40
0.285604
50
79.837678
51
120.811518
0
ARC
8
1
10
10.075698
20
2.088300
40
0.150624
50
126.391888
51
137.844189
0
LINE
8
1
10
11.531905
20
2.383454
11
11.531905
21
2.383454
0
ARC
8
1
10
13.636745
20
2.337418
40
2.105344
50
178.747070
51
-162.969604
0
ARC
8
1
10
8.889705
20
0.685662
40
2.923419
50
9.422837
51
20.737524
0
ARC
8
1
10
11.212445
20
1.058912
40
0.571038
50
-16.990285
51
10.633310
0
ARC
8
1
10
11.615873
20
0.943099
40
0.151544
50
-100.726624
51
-19.686060
0
LINE
8
1
10
11.587667
20
0.794203
11
11.575584
21
0.795527
0
LINE
8
1
10
11.575584
20
0.795527
11
11.563063
21
0.797400
0
LINE
8
1
10
11.563063
20
0.797400
11
11.550095
21
0.799833
0
LINE
8
1
10
11.550095
20
0.799833
11
11.536678
21
0.802837
0
LINE
8
1
10
11.536678
20
0.802837
11
11.528578
21
0.804871
0
ARC
8
1
10
11.876248
20
1.886332
40
1.135973
50
-127.913953
51
-107.821667
0
ARC
8
1
10
28.270269
20
24.049116
40
28.702880
50
-127.887818
51
-126.547003
0
ARC
8
1
10
7.181649
20
-3.389314
40
5.906449
50
54.120321
51
57.613593
0
ARC
8
1
10
7.259600
20
-2.270623
40
4.948838
50
51.426373
51
55.943175
0
ARC
8
1
10
9.699179
20
1.291211
40
0.632275
50
58.342397
51
101.884015
0
ARC
8
1
10
20.354572
20
-54.770306
40
57.697303
50
100.773918
51
100.978552
0
ARC
8
1
10
9.429696
20
-1.299625
40
3.171305
50
91.139888
51
95.609785
0
ARC
8
1
10
9.221525
20
1.458892
40
0.410433
50
104.365826
51
124.919747
0
ARC
8
1
10
8.821130
20
2.103351
40
0.349558
50
-64.295042
51
-61.750092
0
LINE
8
1
10
8.972746
20
1.788385
11
8.831083
21
1.668190
0
ARC
8
1
10
8.840436
20
-0.259696
40
1.927909
50
80.758831
51
90.277952
0
ARC
8
1
10
9.144361
20
1.593602
40
0.049913
50
-37.658999
51
83.467859
0
LINE
8
1
10
9.183876
20
1.563107
11
9.182503
21
1.560341
0
ARC
8
1
10
8.268946
20
2.182171
40
1.105106
50
-44.823262
51
-34.241895
0
ARC
8
1
10
12.038890
20
-1.038252
40
3.857114
50
140.730964
51
149.201531
0
ARC
8
1
10
1.918884
20
3.501058
40
7.273875
50
-22.445720
51
-20.643244
0
ARC
8
1
10
8.430806
20
0.820194
40
0.231868
50
-68.848809
51
-24.556046
0
ARC
8
1
10
8.467045
20
0.857830
40
0.258274
50
-125.033023
51
-79.418889
0
LINE
8
1
10
8.318783
20
0.646349
11
8.311563
21
0.650609
0
LINE
8
1
10
8.311563
20
0.650609
11
8.304352
21
0.655006
0
LINE
8
1
10
8.304352
20
0.655006
11
8.297146
21
0.659534
0
ARC
8
1
10
9.318426
20
2.083682
40
1.752487
50
-138.995360
51
-125.644942
0
LINE
8
1
10
7.995901
20
0.933840
11
7.991693
21
0.938283
0
LINE
8
1
10
7.991693
20
0.938283
11
7.987599
21
0.942591
0
ARC
8
1
10
11.836571
20
4.986995
40
5.583170
50
-138.294879
51
-133.581698
0
ARC
8
1
10
7.605224
20
1.233566
40
0.074135
50
31.706229
51
105.086620
0
LINE
8
1
10
7.585928
20
1.305145
11
7.582014
21
1.304804
0
ARC
8
1
10
7.892718
20
-0.318656
40
1.652925
50
100.834477
51
110.321611
0
LINE
8
1
10
7.318675
20
1.231387
11
7.315084
21
1.230338
0
LINE
8
1
10
7.315084
20
1.230338
11
7.311571
21
1.229331
0
LINE
8
1
10
7.311571
20
1.229331
11
7.308137
21
1.228370
0
ARC
8
1
10
4.506189
20
17.858589
40
16.864611
50
-81.856253
51
-80.436321
0
ARC
8
1
10
6.905438
20
1.106576
40
0.058376
50
100.119926
51
-153.121827
0
ARC
8
1
10
6.299841
20
0.847357
40
0.600500
50
-1.478891
51
22.812860
0
ARC
8
1
10
6.477057
20
0.797227
40
0.424500
50
-29.151630
51
4.679546
0
ARC
8
1
10
6.708515
20
0.688138
40
0.170120
50
-104.056461
51
-35.048083
0
ARC
8
1
10
6.082718
20
0.502004
40
0.584859
50
-24.115649
51
2.068218
0
ARC
8
1
10
6.474471
20
0.336889
40
0.160109
50
-69.393907
51
-27.466152
0
ARC
8
1
10
6.486177
20
0.303192
40
0.124450
50
-128.714652
51
-68.978602
0
LINE
8
1
10
6.408340
20
0.206087
11
6.404538
21
0.208430
0
LINE
8
1
10
6.404538
20
0.208430
11
6.400738
21
0.210842
0
LINE
8
1
10
6.400738
20
0.210842
11
6.396944
21
0.213322
0
LINE
8
1
10
6.396944
20
0.213322
11
6.393153
21
0.215866
0
LINE
8
1
10
6.393153
20
0.215866
11
6.389370
21
0.218472
0
LINE
8
1
10
6.389370
20
0.218472
11
6.385595
21
0.221137
0
LINE
8
1
10
6.385595
20
0.221137
11
6.381828
21
0.223858
0
LINE
8
1
10
6.381828
20
0.223858
11
6.378073
21
0.226634
0
LINE
8
1
10
6.378073
20
0.226634
11
6.374328
21
0.229460
0
LINE
8
1
10
6.374328
20
0.229460
11
6.370596
21
0.232334
0
LINE
8
1
10
6.370596
20
0.232334
11
6.366878
21
0.235254
0
LINE
8
1
10
6.366878
20
0.235254
11
6.363174
21
0.238217
0
LINE
8
1
10
6.363174
20
0.238217
11
6.359488
21
0.241221
0
LINE
8
1
10
6.359488
20
0.241221
11
6.355818
21
0.244262
0
LINE
8
1
10
6.355818
20
0.244262
11
6.352167
21
0.247338
0
ARC
8
1
10
7.467024
20
1.428725
40
1.624372
50
-158.322275
51
-133.340399
0
ARC
8
1
10
4.573834
20
0.539566
40
1.413587
50
11.802768
51
18.971635
0
ARC
8
1
10
5.816684
20
0.953484
40
0.104450
50
25.909731
51
99.426241
0
LINE
8
1
10
5.799577
20
1.056523
11
5.794331
21
1.056292
0
LINE
8
1
10
5.794331
20
1.056292
11
5.788936
21
1.055945
0
ARC
8
1
10
5.333906
20
3.765205
40
2.747206
50
-92.264768
51
-80.465948
0
ARC
8
1
10
5.140727
20
-2.049902
40
3.071212
50
88.421219
51
98.394103
0
ARC
8
1
10
4.401484
20
5.453740
40
4.474796
50
-96.008406
51
-86.272601
0
ARC
8
1
10
5.399384
20
24.724520
40
23.766270
50
-95.632751
51
-93.537198
0
LINE
8
1
10
3.066682
20
1.073007
11
3.054127
21
1.074559
0
ARC
8
1
10
3.935605
20
7.264666
40
6.252553
50
-103.497307
51
-98.104490
0
LINE
8
1
10
2.476261
20
1.184803
11
2.469044
21
1.186324
0
LINE
8
1
10
2.469044
20
1.186324
11
2.461825
21
1.187845
0
ARC
8
1
10
2.963208
20
4.022897
40
2.879045
50
-113.391374
51
-100.029125
0
ARC
8
1
10
0.172334
20
-2.754490
40
4.451217
50
68.271713
51
76.305341
0
LINE
8
1
10
1.226149
20
1.570184
11
1.215627
21
1.573232
0
LINE
8
1
10
1.215627
20
1.573232
11
1.205122
21
1.576301
0
LINE
8
1
10
1.205122
20
1.576301
11
1.194633
21
1.579392
0
ARC
8
1
10
5.100202
20
13.839089
40
12.866765
50
-111.751730
51
-107.670302
0
ARC
8
1
10
0.544451
20
2.284946
40
0.449836
50
-148.230284
51
-118.187764
0
ARC
8
1
10
0.220017
20
2.085391
40
0.068954
50
105.555567
51
-147.266600
0
ARC
8
1
10
0.266938
20
1.969350
40
0.193840
50
89.007406
51
109.721962
0
ARC
8
1
10
0.195011
20
2.990122
40
0.830381
50
-84.798195
51
-66.157412
0
ARC
8
1
10
0.516049
20
2.270243
40
0.042248
50
-69.750108
51
-9.642043
0
ARC
8
1
10
1.759237
20
16.096413
40
13.885330
50
-96.004125
51
-94.964172
0
ARC
8
1
10
0.323185
20
2.480346
40
0.193785
50
-142.805821
51
-94.841293
0
ARC
8
1
10
0.366952
20
2.464635
40
0.222590
50
-168.972675
51
-152.889788
0
ARC
8
1
10
0.247167
20
2.457216
40
0.104770
50
133.499264
51
-160.392996
0
ARC
8
1
10
0.725970
20
2.017056
40
0.754940
50
113.888452
51
136.865897
0
ARC
8
1
10
2.928472
20
-2.510133
40
5.789044
50
108.267398
51
115.675275
0
ARC
8
1
10
4.470119
20
-5.697907
40
9.311005
50
98.687400
51
111.128386
0
ARC
8
1
10
3.992099
20
-2.717475
40
6.292604
50
88.831248
51
98.483791
0
ARC
8
1
10
5.040079
20
12.954131
40
9.425283
50
-95.599284
51
-92.452720
0
ARC
8
1
10
4.675654
20
4.401886
40
0.865279
50
-92.578674
51
-65.562866
0
ARC
8
1
10
4.785393
20
4.087431
40
0.534449
50
-62.325669
51
-28.408334
0
ARC
8
1
10
11.262614
20
0.320799
40
6.958617
50
145.089094
51
149.685184
0
ARC
8
1
10
6.168115
20
3.887981
40
0.739466
50
122.285788
51
145.836889
0
ARC
8
1
10
5.862699
20
4.369048
40
0.169644
50
43.608388
51
121.867582
0
ARC
8
1
10
4.963320
20
3.398243
40
1.492735
50
35.601383
51
46.780710
0
ARC
8
1
10
6.960489
20
4.919841
40
1.019654
50
-140.205571
51
-127.993075
0
ARC
8
1
10
7.829732
20
5.595556
40
2.104526
50
-135.339175
51
-125.252471
0
ARC
8
1
10
7.438672
20
5.249311
40
1.600531
50
-120.970600
51
-115.235257
0
ARC
8
1
10
6.665826
20
3.594640
40
0.225808
50
31.765990
51
66.377922
0
ARC
8
1
10
6.800866
20
3.695546
40
0.059711
50
-65.948405
51
17.514901
0
ARC
8
1
10
5.995551
20
5.128524
40
1.703230
50
-68.734245
51
-60.849531
0
ARC
8
1
10
6.691622
20
3.320976
40
0.233802
50
109.571439
51
146.805038
0
ARC
8
1
10
6.535472
20
3.427480
40
0.044972
50
151.439014
51
-168.753744
0
ARC
8
1
10
6.317202
20
0.318412
40
3.105185
50
78.961962
51
86.784736
0
ARC
8
1
10
7.560108
20
8.019896
40
4.698695
50
-97.931700
51
-94.299967
0
ARC
8
1
10
5.579544
20
-7.655886
40
11.110275
50
77.650591
51
81.572674
0
ARC
8
1
10
2.748642
20
-23.303555
40
27.007588
50
77.971555
51
78.883710
0
ARC
8
1
10
8.516241
20
3.753240
40
0.657111
50
-102.238169
51
-72.427763
0
ARC
8
1
10
8.473848
20
3.670498
40
0.594636
50
-66.113895
51
-48.250390
0
ARC
8
1
10
8.959817
20
3.101746
40
0.154133
50
26.482767
51
125.732819
0
ARC
8
1
10
8.928104
20
3.062183
40
0.201287
50
-3.686333
51
32.548543
0
ARC
8
1
10
17.155224
20
-17.035879
40
21.629442
50
111.782224
51
112.190988
0
ARC
8
1
10
8.986154
20
2.986503
40
0.004974
50
93.066630
51
175.730835
0
LINE
8
1
10
8.981194
20
2.986873
11
8.982986
21
2.986804
0
ARC
8
1
10
8.831365
20
2.271920
40
0.730786
50
64.831981
51
78.025415
0
ARC
8
1
10
9.537248
20
4.533265
40
1.647998
50
-103.871462
51
-97.617563
0
ARC
8
1
10
8.907442
20
0.695681
40
2.242185
50
72.348094
51
79.428761
0
ARC
8
1
10
9.718513
20
3.326418
40
0.511236
50
-104.866366
51
-61.400623
0
ARC
8
1
10
13.482819
20
-4.379928
40
8.065891
50
113.559653
51
115.871499
0
ARC
8
1
10
8.977811
20
5.416130
40
2.722699
50
-61.932967
51
-48.562357
0
ARC
8
1
10
14.390907
20
-0.719589
40
5.459518
50
124.728446
51
131.410608
0
LINE
8
1
10
11.280687
20
3.767377
11
11.293375
21
3.775565
0
LINE
8
1
10
11.293375
20
3.775565
11
11.306124
21
3.783663
0
LINE
8
1
10
11.306124
20
3.783663
11
11.318932
21
3.791668
0
LINE
8
1
10
11.318932
20
3.791668
11
11.331804
21
3.799578
0
ARC
8
1
10
11.661501
20
3.327360
40
0.575925
50
91.606080
51
124.922241
0
ARC
8
1
10
11.645676
20
3.715156
40
0.187903
50
7.612096
51
90.096542
0
LINE
8
1
10
11.831923
20
3.740047
11
11.833490
21
3.732697
0
LINE
8
1
10
11.833490
20
3.732697
11
11.834930
21
3.725159
0
ARC
8
1
10
10.913124
20
3.604787
40
0.929632
50
-20.397172
51
7.439747
0
ARC
8
1
10
7.396266
20
4.797175
40
4.642818
50
-25.093279
51
-19.063130
0
ARC
8
1
10
12.327673
20
2.498793
40
0.797946
50
155.618929
51
-176.256243
0
ARC
8
1
10
20.034838
20
2.479061
40
8.503470
50
-179.781889
51
-179.355783
0
ENDSEC
0
EOF
