999
\"DXF R12 Output\" (www.mydxf.blogspot.com)
 0 
SECTION
 2 
HEADER
 9 
$ACADVER
 1 
AC1009
 9 
$EXTMIN
 10 
 0 
 20 
 0 
 9 
$EXTMAX
 10 
 8.5 
 20 
 11 
 0 
ENDSEC
 0 
SECTION
 2 
ENTITIES
0
LINE
8
Layer 1
10
0.000000
20
63.923333
11
0.000000
21
127.846667
0
LINE
8
Layer 1
10
0.000000
20
127.846667
11
84.666667
21
127.846667
0
LINE
8
Layer 1
10
84.666667
20
127.846667
11
169.333333
21
127.846667
0
LINE
8
Layer 1
10
169.333333
20
127.846667
11
169.333333
21
63.923333
0
LINE
8
Layer 1
10
169.333333
20
63.923333
11
169.333333
21
0.000000
0
LINE
8
Layer 1
10
169.333333
20
0.000000
11
84.666667
21
0.000000
0
LINE
8
Layer 1
10
84.666667
20
0.000000
11
0.000000
21
0.000000
0
LINE
8
Layer 1
10
0.000000
20
0.000000
11
0.000000
21
63.923333
0
LINE
8
Layer 1
10
0.000000
20
63.923333
11
0.000000
21
63.923333
0
LINE
8
Layer 1
10
116.565130
20
14.097703
11
115.134997
21
20.505256
0
LINE
8
Layer 1
10
115.134997
20
20.505256
11
114.105861
21
24.853457
0
LINE
8
Layer 1
10
114.105861
20
24.853457
11
114.080559
21
25.348007
0
LINE
8
Layer 1
10
114.080559
20
25.348007
11
114.260447
21
25.400000
0
LINE
8
Layer 1
10
114.260447
20
25.400000
11
114.707677
21
24.529521
0
LINE
8
Layer 1
10
114.707677
20
24.529521
11
115.442162
21
22.436667
0
LINE
8
Layer 1
10
115.442162
20
22.436667
11
116.223002
21
20.158959
0
LINE
8
Layer 1
10
116.223002
20
20.158959
11
116.630361
21
19.494942
0
LINE
8
Layer 1
10
116.630361
20
19.494942
11
116.688828
21
20.460538
0
LINE
8
Layer 1
10
116.688828
20
20.460538
11
116.422997
21
23.071667
0
LINE
8
Layer 1
10
116.422997
20
23.071667
11
116.414536
21
23.685081
0
LINE
8
Layer 1
10
116.414536
20
23.685081
11
116.554889
21
23.955616
0
LINE
8
Layer 1
10
116.554889
20
23.955616
11
116.807337
21
23.866327
0
LINE
8
Layer 1
10
116.807337
20
23.866327
11
117.135159
21
23.400272
0
LINE
8
Layer 1
10
117.135159
20
23.400272
11
117.438959
21
22.940372
0
LINE
8
Layer 1
10
117.438959
20
22.940372
11
117.573810
21
22.981703
0
LINE
8
Layer 1
10
117.573810
20
22.981703
11
117.404935
21
24.260710
0
LINE
8
Layer 1
10
117.404935
20
24.260710
11
116.765076
21
26.622588
0
LINE
8
Layer 1
10
116.765076
20
26.622588
11
115.790774
21
29.452635
0
LINE
8
Layer 1
10
115.790774
20
29.452635
11
114.948185
21
32.068928
0
LINE
8
Layer 1
10
114.948185
20
32.068928
11
115.767598
21
31.127235
0
LINE
8
Layer 1
10
115.767598
20
31.127235
11
117.002650
21
29.210000
0
LINE
8
Layer 1
10
117.002650
20
29.210000
11
118.313714
21
26.952222
0
LINE
8
Layer 1
10
118.313714
20
26.952222
11
119.508578
21
24.612095
0
LINE
8
Layer 1
10
119.508578
20
24.612095
11
119.775723
21
24.161785
0
LINE
8
Layer 1
10
119.775723
20
24.161785
11
120.178872
21
24.104577
0
LINE
8
Layer 1
10
120.178872
20
24.104577
11
120.718542
21
23.923782
0
LINE
8
Layer 1
10
120.718542
20
23.923782
11
121.404888
21
23.058038
0
LINE
8
Layer 1
10
121.404888
20
23.058038
11
123.962963
21
19.343126
0
LINE
8
Layer 1
10
123.962963
20
19.343126
11
124.851324
21
18.258894
0
LINE
8
Layer 1
10
124.851324
20
18.258894
11
125.240463
21
18.004722
0
LINE
8
Layer 1
10
125.240463
20
18.004722
11
124.879614
21
21.188821
0
LINE
8
Layer 1
10
124.879614
20
21.188821
11
124.565876
21
24.188838
0
LINE
8
Layer 1
10
124.565876
20
24.188838
11
124.873699
21
24.198827
0
LINE
8
Layer 1
10
124.873699
20
24.198827
11
125.342064
21
23.765143
0
LINE
8
Layer 1
10
125.342064
20
23.765143
11
126.783787
21
21.538836
0
LINE
8
Layer 1
10
126.783787
20
21.538836
11
127.654048
21
20.139902
0
LINE
8
Layer 1
10
127.654048
20
20.139902
11
128.070610
21
19.721833
0
LINE
8
Layer 1
10
128.070610
20
19.721833
11
127.498307
21
22.134935
0
LINE
8
Layer 1
10
127.498307
20
22.134935
11
125.704614
21
27.932171
0
LINE
8
Layer 1
10
125.704614
20
27.932171
11
125.049893
21
30.346619
0
LINE
8
Layer 1
10
125.049893
20
30.346619
11
125.062418
21
30.721546
0
LINE
8
Layer 1
10
125.062418
20
30.721546
11
125.319158
21
30.427518
0
LINE
8
Layer 1
10
125.319158
20
30.427518
11
127.044804
21
26.327424
0
LINE
8
Layer 1
10
127.044804
20
26.327424
11
129.187366
21
20.503507
0
LINE
8
Layer 1
10
129.187366
20
20.503507
11
129.958546
21
18.466931
0
LINE
8
Layer 1
10
129.958546
20
18.466931
11
130.193138
21
18.085847
0
LINE
8
Layer 1
10
130.193138
20
18.085847
11
130.326419
21
18.127581
0
LINE
8
Layer 1
10
130.326419
20
18.127581
11
130.287099
21
19.473549
0
LINE
8
Layer 1
10
130.287099
20
19.473549
11
129.836700
21
22.492928
0
LINE
8
Layer 1
10
129.836700
20
22.492928
11
129.375129
21
25.370903
0
LINE
8
Layer 1
10
129.375129
20
25.370903
11
129.362071
21
26.440266
0
LINE
8
Layer 1
10
129.362071
20
26.440266
11
129.557240
21
26.322904
0
LINE
8
Layer 1
10
129.557240
20
26.322904
11
129.904746
21
25.784813
0
LINE
8
Layer 1
10
129.904746
20
25.784813
11
131.110375
21
23.488340
0
LINE
8
Layer 1
10
131.110375
20
23.488340
11
132.569102
21
20.997251
0
LINE
8
Layer 1
10
132.569102
20
20.997251
11
132.075888
21
24.654843
0
LINE
8
Layer 1
10
132.075888
20
24.654843
11
131.570343
21
28.527697
0
LINE
8
Layer 1
10
131.570343
20
28.527697
11
131.978288
21
28.351270
0
LINE
8
Layer 1
10
131.978288
20
28.351270
11
132.799291
21
27.447700
0
LINE
8
Layer 1
10
132.799291
20
27.447700
11
136.265570
21
23.032045
0
LINE
8
Layer 1
10
136.265570
20
23.032045
11
138.000188
21
20.917343
0
LINE
8
Layer 1
10
138.000188
20
20.917343
11
138.869070
21
20.037778
0
LINE
8
Layer 1
10
138.869070
20
20.037778
11
139.008082
21
20.239276
0
LINE
8
Layer 1
10
139.008082
20
20.239276
11
138.934603
21
21.012492
0
LINE
8
Layer 1
10
138.934603
20
21.012492
11
137.978380
21
25.286417
0
LINE
8
Layer 1
10
137.978380
20
25.286417
11
137.160000
21
29.086339
0
LINE
8
Layer 1
10
137.160000
20
29.086339
11
137.261129
21
29.279837
0
LINE
8
Layer 1
10
137.261129
20
29.279837
11
137.627407
21
28.971833
0
LINE
8
Layer 1
10
137.627407
20
28.971833
11
139.532741
21
26.428675
0
LINE
8
Layer 1
10
139.532741
20
26.428675
11
140.510806
21
25.136254
0
LINE
8
Layer 1
10
140.510806
20
25.136254
11
140.996614
21
24.756227
0
LINE
8
Layer 1
10
140.996614
20
24.756227
11
141.041005
21
25.304752
0
LINE
8
Layer 1
10
141.041005
20
25.304752
11
140.694822
21
26.797988
0
LINE
8
Layer 1
10
140.694822
20
26.797988
11
140.375555
21
28.427409
0
LINE
8
Layer 1
10
140.375555
20
28.427409
11
140.693626
21
28.446996
0
LINE
8
Layer 1
10
140.693626
20
28.446996
11
141.206646
21
28.061648
0
LINE
8
Layer 1
10
141.206646
20
28.061648
11
142.826463
21
26.067543
0
LINE
8
Layer 1
10
142.826463
20
26.067543
11
144.868781
21
23.327447
0
LINE
8
Layer 1
10
144.868781
20
23.327447
11
145.040958
21
23.162551
0
LINE
8
Layer 1
10
145.040958
20
23.162551
11
145.027948
21
23.287028
0
LINE
8
Layer 1
10
145.027948
20
23.287028
11
144.548589
21
24.221997
0
LINE
8
Layer 1
10
144.548589
20
24.221997
11
142.492095
21
27.561275
0
LINE
8
Layer 1
10
142.492095
20
27.561275
11
141.404887
21
29.513489
0
LINE
8
Layer 1
10
141.404887
20
29.513489
11
141.438499
21
29.849998
0
LINE
8
Layer 1
10
141.438499
20
29.849998
11
141.854823
21
29.761151
0
LINE
8
Layer 1
10
141.854823
20
29.761151
11
143.829310
21
28.310508
0
LINE
8
Layer 1
10
143.829310
20
28.310508
11
147.315758
21
25.167807
0
LINE
8
Layer 1
10
147.315758
20
25.167807
11
149.548257
21
23.300851
0
LINE
8
Layer 1
10
149.548257
20
23.300851
11
148.963606
21
25.327686
0
LINE
8
Layer 1
10
148.963606
20
25.327686
11
147.592601
21
29.351111
0
LINE
8
Layer 1
10
147.592601
20
29.351111
11
146.168127
21
33.302222
0
LINE
8
Layer 1
10
146.168127
20
33.302222
11
145.224783
21
35.790996
0
LINE
8
Layer 1
10
145.224783
20
35.790996
11
145.157270
21
36.272804
0
LINE
8
Layer 1
10
145.157270
20
36.272804
11
145.315113
21
36.406667
0
LINE
8
Layer 1
10
145.315113
20
36.406667
11
145.737948
21
36.048958
0
LINE
8
Layer 1
10
145.737948
20
36.048958
11
146.787491
21
34.753101
0
LINE
8
Layer 1
10
146.787491
20
34.753101
11
151.798666
21
28.010556
0
LINE
8
Layer 1
10
151.798666
20
28.010556
11
153.351550
21
26.058577
0
LINE
8
Layer 1
10
153.351550
20
26.058577
11
153.461142
21
25.990866
0
LINE
8
Layer 1
10
153.461142
20
25.990866
11
153.447673
21
26.101925
0
LINE
8
Layer 1
10
153.447673
20
26.101925
11
153.028340
21
26.881667
0
LINE
8
Layer 1
10
153.028340
20
26.881667
11
150.983081
21
30.480000
0
LINE
8
Layer 1
10
150.983081
20
30.480000
11
148.834377
21
34.126465
0
LINE
8
Layer 1
10
148.834377
20
34.126465
11
146.735164
21
37.341860
0
LINE
8
Layer 1
10
146.735164
20
37.341860
11
144.915293
21
39.793797
0
LINE
8
Layer 1
10
144.915293
20
39.793797
11
143.604618
21
41.149891
0
LINE
8
Layer 1
10
143.604618
20
41.149891
11
143.262221
21
41.592994
0
LINE
8
Layer 1
10
143.262221
20
41.592994
11
143.099831
21
42.174942
0
LINE
8
Layer 1
10
143.099831
20
42.174942
11
143.141275
21
42.681336
0
LINE
8
Layer 1
10
143.141275
20
42.681336
11
143.410378
21
42.897778
0
LINE
8
Layer 1
10
143.410378
20
42.897778
11
144.939540
21
41.910000
0
LINE
8
Layer 1
10
144.939540
20
41.910000
11
146.290535
21
40.922222
0
LINE
8
Layer 1
10
146.290535
20
40.922222
11
149.158497
21
39.063422
0
LINE
8
Layer 1
10
149.158497
20
39.063422
11
152.000639
21
37.324340
0
LINE
8
Layer 1
10
152.000639
20
37.324340
11
151.510761
21
38.351560
0
LINE
8
Layer 1
10
151.510761
20
38.351560
11
150.122500
21
40.500850
0
LINE
8
Layer 1
10
150.122500
20
40.500850
11
148.450232
21
42.865979
0
LINE
8
Layer 1
10
148.450232
20
42.865979
11
147.108333
21
44.540715
0
LINE
8
Layer 1
10
147.108333
20
44.540715
11
146.772007
21
45.150410
0
LINE
8
Layer 1
10
146.772007
20
45.150410
11
146.846911
21
45.395648
0
LINE
8
Layer 1
10
146.846911
20
45.395648
11
147.083718
21
45.607280
0
LINE
8
Layer 1
10
147.083718
20
45.607280
11
147.525423
21
45.516251
0
LINE
8
Layer 1
10
147.525423
20
45.516251
11
148.142051
21
44.972518
0
LINE
8
Layer 1
10
148.142051
20
44.972518
11
151.456027
21
40.807403
0
LINE
8
Layer 1
10
151.456027
20
40.807403
11
154.877968
21
36.179292
0
LINE
8
Layer 1
10
154.877968
20
36.179292
11
156.779355
21
33.790560
0
LINE
8
Layer 1
10
156.779355
20
33.790560
11
156.866090
21
33.785486
0
LINE
8
Layer 1
10
156.866090
20
33.785486
11
156.849800
21
33.920269
0
LINE
8
Layer 1
10
156.849800
20
33.920269
11
156.537639
21
34.564524
0
LINE
8
Layer 1
10
156.537639
20
34.564524
11
155.001446
21
37.037620
0
LINE
8
Layer 1
10
155.001446
20
37.037620
11
149.933194
21
44.208787
0
LINE
8
Layer 1
10
149.933194
20
44.208787
11
148.333166
21
46.507501
0
LINE
8
Layer 1
10
148.333166
20
46.507501
11
148.065832
21
47.138841
0
LINE
8
Layer 1
10
148.065832
20
47.138841
11
148.060486
21
47.593146
0
LINE
8
Layer 1
10
148.060486
20
47.593146
11
148.087033
21
47.989713
0
LINE
8
Layer 1
10
148.087033
20
47.989713
11
147.934922
21
48.416734
0
LINE
8
Layer 1
10
147.934922
20
48.416734
11
146.928959
21
49.665786
0
LINE
8
Layer 1
10
146.928959
20
49.665786
11
146.009215
21
50.749718
0
LINE
8
Layer 1
10
146.009215
20
50.749718
11
145.626667
21
51.400687
0
LINE
8
Layer 1
10
145.626667
20
51.400687
11
146.085662
21
52.241236
0
LINE
8
Layer 1
10
146.085662
20
52.241236
11
146.475207
21
52.618150
0
LINE
8
Layer 1
10
146.475207
20
52.618150
11
146.807719
21
52.775556
0
LINE
8
Layer 1
10
146.807719
20
52.775556
11
154.313422
21
57.939991
0
LINE
8
Layer 1
10
154.313422
20
57.939991
11
165.311667
21
65.746703
0
LINE
8
Layer 1
10
165.311667
20
65.746703
11
169.051111
21
68.388978
0
LINE
8
Layer 1
10
169.051111
20
68.388978
11
169.049209
21
70.389490
0
LINE
8
Layer 1
10
169.049209
20
70.389490
11
169.018790
21
71.537817
0
LINE
8
Layer 1
10
169.018790
20
71.537817
11
168.869475
21
72.366558
0
LINE
8
Layer 1
10
168.869475
20
72.366558
11
168.510165
21
73.167617
0
LINE
8
Layer 1
10
168.510165
20
73.167617
11
167.849764
21
74.232900
0
LINE
8
Layer 1
10
167.849764
20
74.232900
11
166.032231
21
76.687336
0
LINE
8
Layer 1
10
166.032231
20
76.687336
11
164.919629
21
77.558940
0
LINE
8
Layer 1
10
164.919629
20
77.558940
11
163.676298
21
78.089500
0
LINE
8
Layer 1
10
163.676298
20
78.089500
11
162.279152
21
78.274283
0
LINE
8
Layer 1
10
162.279152
20
78.274283
11
160.705100
21
78.108551
0
LINE
8
Layer 1
10
160.705100
20
78.108551
11
158.931057
21
77.587569
0
LINE
8
Layer 1
10
158.931057
20
77.587569
11
156.933932
21
76.706603
0
LINE
8
Layer 1
10
156.933932
20
76.706603
11
154.690639
21
75.460916
0
LINE
8
Layer 1
10
154.690639
20
75.460916
11
152.178089
21
73.845773
0
LINE
8
Layer 1
10
152.178089
20
73.845773
11
148.818064
21
71.684444
0
LINE
8
Layer 1
10
148.818064
20
71.684444
11
147.769972
21
71.026028
0
LINE
8
Layer 1
10
147.769972
20
71.026028
11
144.780000
21
69.148105
0
LINE
8
Layer 1
10
144.780000
20
69.148105
11
140.246159
21
66.267544
0
LINE
8
Layer 1
10
140.246159
20
66.267544
11
138.380808
21
65.111314
0
LINE
8
Layer 1
10
138.380808
20
65.111314
11
137.423937
21
64.786188
0
LINE
8
Layer 1
10
137.423937
20
64.786188
11
136.494068
21
65.567986
0
LINE
8
Layer 1
10
136.494068
20
65.567986
11
135.227325
21
66.988884
0
LINE
8
Layer 1
10
135.227325
20
66.988884
11
134.109118
21
68.460224
0
LINE
8
Layer 1
10
134.109118
20
68.460224
11
133.624859
21
69.393345
0
LINE
8
Layer 1
10
133.624859
20
69.393345
11
133.138214
21
70.459515
0
LINE
8
Layer 1
10
133.138214
20
70.459515
11
131.978530
21
72.140411
0
LINE
8
Layer 1
10
131.978530
20
72.140411
11
130.860562
21
73.739782
0
LINE
8
Layer 1
10
130.860562
20
73.739782
11
130.474209
21
74.609946
0
LINE
8
Layer 1
10
130.474209
20
74.609946
11
130.728004
21
74.912624
0
LINE
8
Layer 1
10
130.728004
20
74.912624
11
131.554399
21
75.403322
0
LINE
8
Layer 1
10
131.554399
20
75.403322
11
136.617171
21
77.837995
0
LINE
8
Layer 1
10
136.617171
20
77.837995
11
140.112415
21
79.642076
0
LINE
8
Layer 1
10
140.112415
20
79.642076
11
143.531615
21
81.635419
0
LINE
8
Layer 1
10
143.531615
20
81.635419
11
147.501541
21
83.985412
0
LINE
8
Layer 1
10
147.501541
20
83.985412
11
150.802798
21
85.549259
0
LINE
8
Layer 1
10
150.802798
20
85.549259
11
153.699963
21
86.431363
0
LINE
8
Layer 1
10
153.699963
20
86.431363
11
156.457613
21
86.736129
0
LINE
8
Layer 1
10
156.457613
20
86.736129
11
158.789069
21
86.659850
0
LINE
8
Layer 1
10
158.789069
20
86.659850
11
159.481395
21
86.458628
0
LINE
8
Layer 1
10
159.481395
20
86.458628
11
160.161111
21
86.096342
0
LINE
8
Layer 1
10
160.161111
20
86.096342
11
161.238081
21
85.295134
0
LINE
8
Layer 1
10
161.238081
20
85.295134
11
162.494020
21
84.124158
0
LINE
8
Layer 1
10
162.494020
20
84.124158
11
165.080402
21
81.138889
0
LINE
8
Layer 1
10
165.080402
20
81.138889
11
167.244139
21
78.738085
0
LINE
8
Layer 1
10
167.244139
20
78.738085
11
168.308798
21
77.738275
0
LINE
8
Layer 1
10
168.308798
20
77.738275
11
168.903695
21
77.328889
0
LINE
8
Layer 1
10
168.903695
20
77.328889
11
169.051111
21
80.394135
0
LINE
8
Layer 1
10
169.051111
20
80.394135
11
169.051111
21
83.459382
0
LINE
8
Layer 1
10
169.051111
20
83.459382
11
167.341829
21
83.614376
0
LINE
8
Layer 1
10
167.341829
20
83.614376
11
165.448145
21
83.963357
0
LINE
8
Layer 1
10
165.448145
20
83.963357
11
163.753318
21
84.722821
0
LINE
8
Layer 1
10
163.753318
20
84.722821
11
162.041460
21
86.023314
0
LINE
8
Layer 1
10
162.041460
20
86.023314
11
160.096680
21
87.995379
0
LINE
8
Layer 1
10
160.096680
20
87.995379
11
155.030160
21
93.392237
0
LINE
8
Layer 1
10
155.030160
20
93.392237
11
153.753368
21
94.478742
0
LINE
8
Layer 1
10
153.753368
20
94.478742
11
152.785044
21
94.997400
0
LINE
8
Layer 1
10
152.785044
20
94.997400
11
151.541361
21
95.290694
0
LINE
8
Layer 1
10
151.541361
20
95.290694
11
150.046672
21
95.322830
0
LINE
8
Layer 1
10
150.046672
20
95.322830
11
148.315051
21
95.097925
0
LINE
8
Layer 1
10
148.315051
20
95.097925
11
146.360572
21
94.620096
0
LINE
8
Layer 1
10
146.360572
20
94.620096
11
144.197309
21
93.893459
0
LINE
8
Layer 1
10
144.197309
20
93.893459
11
141.839336
21
92.922131
0
LINE
8
Layer 1
10
141.839336
20
92.922131
11
136.595556
21
90.261869
0
LINE
8
Layer 1
10
136.595556
20
90.261869
11
130.810000
21
87.432642
0
LINE
8
Layer 1
10
130.810000
20
87.432642
11
124.945448
21
84.648088
0
LINE
8
Layer 1
10
124.945448
20
84.648088
11
122.971235
21
83.820000
0
LINE
8
Layer 1
10
122.971235
20
83.820000
11
122.272637
21
84.305620
0
LINE
8
Layer 1
10
122.272637
20
84.305620
11
121.074677
21
85.473176
0
LINE
8
Layer 1
10
121.074677
20
85.473176
11
119.106992
21
87.283840
0
LINE
8
Layer 1
10
119.106992
20
87.283840
11
116.557778
21
89.315654
0
LINE
8
Layer 1
10
116.557778
20
89.315654
11
113.504353
21
91.742748
0
LINE
8
Layer 1
10
113.504353
20
91.742748
11
113.617273
21
91.974990
0
LINE
8
Layer 1
10
113.617273
20
91.974990
11
114.362861
21
92.360337
0
LINE
8
Layer 1
10
114.362861
20
92.360337
11
119.240021
21
94.237567
0
LINE
8
Layer 1
10
119.240021
20
94.237567
11
125.875546
21
96.887813
0
LINE
8
Layer 1
10
125.875546
20
96.887813
11
128.276326
21
98.078455
0
LINE
8
Layer 1
10
128.276326
20
98.078455
11
130.875295
21
99.548978
0
LINE
8
Layer 1
10
130.875295
20
99.548978
11
135.927830
21
102.371566
0
LINE
8
Layer 1
10
135.927830
20
102.371566
11
137.603230
21
103.106230
0
LINE
8
Layer 1
10
137.603230
20
103.106230
11
139.346426
21
103.701071
0
LINE
8
Layer 1
10
139.346426
20
103.701071
11
141.581947
21
104.314888
0
LINE
8
Layer 1
10
141.581947
20
104.314888
11
143.357205
21
104.589181
0
LINE
8
Layer 1
10
143.357205
20
104.589181
11
144.867656
21
104.537172
0
LINE
8
Layer 1
10
144.867656
20
104.537172
11
146.308758
21
104.172085
0
LINE
8
Layer 1
10
146.308758
20
104.172085
11
147.478433
21
103.675773
0
LINE
8
Layer 1
10
147.478433
20
103.675773
11
148.538492
21
102.912123
0
LINE
8
Layer 1
10
148.538492
20
102.912123
11
149.864389
21
101.545995
0
LINE
8
Layer 1
10
149.864389
20
101.545995
11
151.831579
21
99.242248
0
LINE
8
Layer 1
10
151.831579
20
99.242248
11
153.799374
21
97.057593
0
LINE
8
Layer 1
10
153.799374
20
97.057593
11
155.743673
21
95.229921
0
LINE
8
Layer 1
10
155.743673
20
95.229921
11
157.637919
21
93.781895
0
LINE
8
Layer 1
10
157.637919
20
93.781895
11
159.455556
21
92.736176
0
LINE
8
Layer 1
10
159.455556
20
92.736176
11
161.398076
21
92.017639
0
LINE
8
Layer 1
10
161.398076
20
92.017639
11
163.678551
21
91.764138
0
LINE
8
Layer 1
10
163.678551
20
91.764138
11
165.803743
21
91.788217
0
LINE
8
Layer 1
10
165.803743
20
91.788217
11
167.559107
21
91.993252
0
LINE
8
Layer 1
10
167.559107
20
91.993252
11
169.051111
21
92.327146
0
LINE
8
Layer 1
10
169.051111
20
92.327146
11
169.051111
21
96.954024
0
LINE
8
Layer 1
10
169.051111
20
96.954024
11
169.051111
21
101.580903
0
LINE
8
Layer 1
10
169.051111
20
101.580903
11
167.837666
21
100.761958
0
LINE
8
Layer 1
10
167.837666
20
100.761958
11
166.124303
21
99.776258
0
LINE
8
Layer 1
10
166.124303
20
99.776258
11
164.363732
21
99.097154
0
LINE
8
Layer 1
10
164.363732
20
99.097154
11
162.561796
21
98.724376
0
LINE
8
Layer 1
10
162.561796
20
98.724376
11
160.724337
21
98.657651
0
LINE
8
Layer 1
10
160.724337
20
98.657651
11
158.857199
21
98.896708
0
LINE
8
Layer 1
10
158.857199
20
98.896708
11
156.966225
21
99.441275
0
LINE
8
Layer 1
10
156.966225
20
99.441275
11
155.057256
21
100.291080
0
LINE
8
Layer 1
10
155.057256
20
100.291080
11
153.136137
21
101.445852
0
LINE
8
Layer 1
10
153.136137
20
101.445852
11
150.352107
21
103.708338
0
LINE
8
Layer 1
10
150.352107
20
103.708338
11
146.786137
21
107.024454
0
LINE
8
Layer 1
10
146.786137
20
107.024454
11
143.332190
21
110.255407
0
LINE
8
Layer 1
10
143.332190
20
110.255407
11
141.256303
21
111.765018
0
LINE
8
Layer 1
10
141.256303
20
111.765018
11
139.892792
21
112.256979
0
LINE
8
Layer 1
10
139.892792
20
112.256979
11
138.368990
21
112.522304
0
LINE
8
Layer 1
10
138.368990
20
112.522304
11
136.759892
21
112.553885
0
LINE
8
Layer 1
10
136.759892
20
112.553885
11
135.140497
21
112.344615
0
LINE
8
Layer 1
10
135.140497
20
112.344615
11
133.913276
21
111.986036
0
LINE
8
Layer 1
10
133.913276
20
111.986036
11
131.884216
21
111.097562
0
LINE
8
Layer 1
10
131.884216
20
111.097562
11
121.920000
21
106.069341
0
LINE
8
Layer 1
10
121.920000
20
106.069341
11
115.111052
21
102.861755
0
LINE
8
Layer 1
10
115.111052
20
102.861755
11
108.091111
21
100.134419
0
LINE
8
Layer 1
10
108.091111
20
100.134419
11
104.845556
21
98.810256
0
LINE
8
Layer 1
10
104.845556
20
98.810256
11
102.404302
21
97.684209
0
LINE
8
Layer 1
10
102.404302
20
97.684209
11
100.809716
21
97.041772
0
LINE
8
Layer 1
10
100.809716
20
97.041772
11
99.582080
21
97.809389
0
LINE
8
Layer 1
10
99.582080
20
97.809389
11
97.293732
21
99.408547
0
LINE
8
Layer 1
10
97.293732
20
99.408547
11
93.631712
21
101.604988
0
LINE
8
Layer 1
10
93.631712
20
101.604988
11
91.765009
21
102.657546
0
LINE
8
Layer 1
10
91.765009
20
102.657546
11
90.929872
21
103.271496
0
LINE
8
Layer 1
10
90.929872
20
103.271496
11
91.069096
21
103.619629
0
LINE
8
Layer 1
10
91.069096
20
103.619629
11
91.568994
21
104.174796
0
LINE
8
Layer 1
10
91.568994
20
104.174796
11
93.284071
21
105.551111
0
LINE
8
Layer 1
10
93.284071
20
105.551111
11
99.186915
21
109.502222
0
LINE
8
Layer 1
10
99.186915
20
109.502222
11
100.930809
21
110.502211
0
LINE
8
Layer 1
10
100.930809
20
110.502211
11
103.054425
21
111.497165
0
LINE
8
Layer 1
10
103.054425
20
111.497165
11
105.833333
21
112.485048
0
LINE
8
Layer 1
10
105.833333
20
112.485048
11
113.233482
21
114.855238
0
LINE
8
Layer 1
10
113.233482
20
114.855238
11
115.473388
21
115.738421
0
LINE
8
Layer 1
10
115.473388
20
115.738421
11
117.404444
21
116.660127
0
LINE
8
Layer 1
10
117.404444
20
116.660127
11
124.488431
21
120.143686
0
LINE
8
Layer 1
10
124.488431
20
120.143686
11
126.825099
21
121.020677
0
LINE
8
Layer 1
10
126.825099
20
121.020677
11
129.540000
21
121.824012
0
LINE
8
Layer 1
10
129.540000
20
121.824012
11
131.730952
21
122.317384
0
LINE
8
Layer 1
10
131.730952
20
122.317384
11
133.753030
21
122.554250
0
LINE
8
Layer 1
10
133.753030
20
122.554250
11
135.432482
21
122.524871
0
LINE
8
Layer 1
10
135.432482
20
122.524871
11
136.595556
21
122.219506
0
LINE
8
Layer 1
10
136.595556
20
122.219506
11
137.416422
21
121.700527
0
LINE
8
Layer 1
10
137.416422
20
121.700527
11
138.241647
21
120.885360
0
LINE
8
Layer 1
10
138.241647
20
120.885360
11
141.050845
21
117.032667
0
LINE
8
Layer 1
10
141.050845
20
117.032667
11
143.396019
21
113.840037
0
LINE
8
Layer 1
10
143.396019
20
113.840037
11
145.243465
21
111.640108
0
LINE
8
Layer 1
10
145.243465
20
111.640108
11
147.818305
21
109.459638
0
LINE
8
Layer 1
10
147.818305
20
109.459638
11
150.656368
21
107.706935
0
LINE
8
Layer 1
10
150.656368
20
107.706935
11
153.453354
21
106.539681
0
LINE
8
Layer 1
10
153.453354
20
106.539681
11
154.741350
21
106.224872
0
LINE
8
Layer 1
10
154.741350
20
106.224872
11
155.904966
21
106.115556
0
LINE
8
Layer 1
10
155.904966
20
106.115556
11
158.707183
21
106.486673
0
LINE
8
Layer 1
10
158.707183
20
106.486673
11
161.933625
21
107.363705
0
LINE
8
Layer 1
10
161.933625
20
107.363705
11
163.586691
21
108.194015
0
LINE
8
Layer 1
10
163.586691
20
108.194015
11
165.364759
21
109.494094
0
LINE
8
Layer 1
10
165.364759
20
109.494094
11
167.054325
21
111.085888
0
LINE
8
Layer 1
10
167.054325
20
111.085888
11
168.441886
21
112.791344
0
LINE
8
Layer 1
10
168.441886
20
112.791344
11
168.783245
21
113.439822
0
LINE
8
Layer 1
10
168.783245
20
113.439822
11
168.965314
21
114.533764
0
LINE
8
Layer 1
10
168.965314
20
114.533764
11
169.051111
21
120.623011
0
LINE
8
Layer 1
10
169.051111
20
120.623011
11
168.975022
21
126.594321
0
LINE
8
Layer 1
10
168.975022
20
126.594321
11
168.812388
21
127.417568
0
LINE
8
Layer 1
10
168.812388
20
127.417568
11
168.506676
21
127.564444
0
LINE
8
Layer 1
10
168.506676
20
127.564444
11
168.223173
21
127.494144
0
LINE
8
Layer 1
10
168.223173
20
127.494144
11
168.006302
21
127.241746
0
LINE
8
Layer 1
10
168.006302
20
127.241746
11
167.639376
21
125.941667
0
LINE
8
Layer 1
10
167.639376
20
125.941667
11
167.057286
21
123.958912
0
LINE
8
Layer 1
10
167.057286
20
123.958912
11
166.126169
21
121.933167
0
LINE
8
Layer 1
10
166.126169
20
121.933167
11
164.928541
21
120.017221
0
LINE
8
Layer 1
10
164.928541
20
120.017221
11
163.546917
21
118.363863
0
LINE
8
Layer 1
10
163.546917
20
118.363863
11
162.322874
21
117.230861
0
LINE
8
Layer 1
10
162.322874
20
117.230861
11
161.077319
21
116.309004
0
LINE
8
Layer 1
10
161.077319
20
116.309004
11
159.792194
21
115.592816
0
LINE
8
Layer 1
10
159.792194
20
115.592816
11
158.449438
21
115.076821
0
LINE
8
Layer 1
10
158.449438
20
115.076821
11
157.030990
21
114.755543
0
LINE
8
Layer 1
10
157.030990
20
114.755543
11
155.518790
21
114.623505
0
LINE
8
Layer 1
10
155.518790
20
114.623505
11
153.894778
21
114.675231
0
LINE
8
Layer 1
10
153.894778
20
114.675231
11
152.140895
21
114.905244
0
LINE
8
Layer 1
10
152.140895
20
114.905244
11
150.635497
21
115.233161
0
LINE
8
Layer 1
10
150.635497
20
115.233161
11
149.227294
21
115.705006
0
LINE
8
Layer 1
10
149.227294
20
115.705006
11
145.944438
21
117.383683
0
LINE
8
Layer 1
10
145.944438
20
117.383683
11
143.235920
21
119.136358
0
LINE
8
Layer 1
10
143.235920
20
119.136358
11
140.692110
21
121.106894
0
LINE
8
Layer 1
10
140.692110
20
121.106894
11
138.471619
21
123.161292
0
LINE
8
Layer 1
10
138.471619
20
123.161292
11
136.733063
21
125.165556
0
LINE
8
Layer 1
10
136.733063
20
125.165556
11
135.537222
21
126.667381
0
LINE
8
Layer 1
10
135.537222
20
126.667381
11
135.184444
21
127.302381
0
LINE
8
Layer 1
10
135.184444
20
127.302381
11
132.879205
21
127.491661
0
LINE
8
Layer 1
10
132.879205
20
127.491661
11
126.884187
21
127.564444
0
LINE
8
Layer 1
10
126.884187
20
127.564444
11
118.583933
21
127.564444
0
LINE
8
Layer 1
10
118.583933
20
127.564444
11
115.456397
21
126.153333
0
LINE
8
Layer 1
10
115.456397
20
126.153333
11
112.114985
21
124.740483
0
LINE
8
Layer 1
10
112.114985
20
124.740483
11
111.195556
21
124.374503
0
LINE
8
Layer 1
10
111.195556
20
124.374503
11
108.796667
21
123.511316
0
LINE
8
Layer 1
10
108.796667
20
123.511316
11
104.660668
21
122.243133
0
LINE
8
Layer 1
10
104.660668
20
122.243133
11
101.764824
21
121.187383
0
LINE
8
Layer 1
10
101.764824
20
121.187383
11
99.448648
21
120.068489
0
LINE
8
Layer 1
10
99.448648
20
120.068489
11
97.051656
21
118.610873
0
LINE
8
Layer 1
10
97.051656
20
118.610873
11
91.827231
21
114.544913
0
LINE
8
Layer 1
10
91.827231
20
114.544913
11
84.728315
21
108.424270
0
LINE
8
Layer 1
10
84.728315
20
108.424270
11
82.391072
21
106.312235
0
LINE
8
Layer 1
10
82.391072
20
106.312235
11
79.366093
21
106.076531
0
LINE
8
Layer 1
10
79.366093
20
106.076531
11
71.450835
21
105.388653
0
LINE
8
Layer 1
10
71.450835
20
105.388653
11
67.941347
21
105.129477
0
LINE
8
Layer 1
10
67.941347
20
105.129477
11
66.370835
21
105.141321
0
LINE
8
Layer 1
10
66.370835
20
105.141321
11
66.331950
21
105.320162
0
LINE
8
Layer 1
10
66.331950
20
105.320162
11
66.504882
21
105.462488
0
LINE
8
Layer 1
10
66.504882
20
105.462488
11
69.488391
21
108.175517
0
LINE
8
Layer 1
10
69.488391
20
108.175517
11
75.111644
21
113.582539
0
LINE
8
Layer 1
10
75.111644
20
113.582539
11
78.147243
21
116.284340
0
LINE
8
Layer 1
10
78.147243
20
116.284340
11
80.263910
21
117.991562
0
LINE
8
Layer 1
10
80.263910
20
117.991562
11
82.024463
21
119.317726
0
LINE
8
Layer 1
10
82.024463
20
119.317726
11
84.659337
21
121.069666
0
LINE
8
Layer 1
10
84.659337
20
121.069666
11
93.289433
21
126.322497
0
LINE
8
Layer 1
10
93.289433
20
126.322497
11
94.374364
21
127.040742
0
LINE
8
Layer 1
10
94.374364
20
127.040742
11
94.442095
21
127.261489
0
LINE
8
Layer 1
10
94.442095
20
127.261489
11
94.097319
21
127.409418
0
LINE
8
Layer 1
10
94.097319
20
127.409418
11
91.882195
21
127.545120
0
LINE
8
Layer 1
10
91.882195
20
127.545120
11
87.152886
21
127.564444
0
LINE
8
Layer 1
10
87.152886
20
127.564444
11
79.366217
21
127.564444
0
LINE
8
Layer 1
10
79.366217
20
127.564444
11
76.865886
21
125.920387
0
LINE
8
Layer 1
10
76.865886
20
125.920387
11
72.175510
21
122.611686
0
LINE
8
Layer 1
10
72.175510
20
122.611686
11
68.133335
21
119.346545
0
LINE
8
Layer 1
10
68.133335
20
119.346545
11
64.746669
21
116.434183
0
LINE
8
Layer 1
10
64.746669
20
116.434183
11
60.818325
21
112.748517
0
LINE
8
Layer 1
10
60.818325
20
112.748517
11
59.066601
21
110.868706
0
LINE
8
Layer 1
10
59.066601
20
110.868706
11
57.883589
21
109.401854
0
LINE
8
Layer 1
10
57.883589
20
109.401854
11
57.166420
21
108.476142
0
LINE
8
Layer 1
10
57.166420
20
108.476142
11
56.708542
21
108.091111
0
LINE
8
Layer 1
10
56.708542
20
108.091111
11
56.414900
21
108.311956
0
LINE
8
Layer 1
10
56.414900
20
108.311956
11
55.985055
21
109.126882
0
LINE
8
Layer 1
10
55.985055
20
109.126882
11
54.307305
21
113.453333
0
LINE
8
Layer 1
10
54.307305
20
113.453333
11
53.225185
21
116.476238
0
LINE
8
Layer 1
10
53.225185
20
116.476238
11
52.888180
21
118.211201
0
LINE
8
Layer 1
10
52.888180
20
118.211201
11
53.006855
21
118.833833
0
LINE
8
Layer 1
10
53.006855
20
118.833833
11
53.321122
21
119.420232
0
LINE
8
Layer 1
10
53.321122
20
119.420232
11
54.548842
21
120.865338
0
LINE
8
Layer 1
10
54.548842
20
120.865338
11
58.675250
21
125.236111
0
LINE
8
Layer 1
10
58.675250
20
125.236111
11
60.965757
21
127.564444
0
LINE
8
Layer 1
10
60.965757
20
127.564444
11
54.345868
21
127.564444
0
LINE
8
Layer 1
10
54.345868
20
127.564444
11
47.725979
21
127.564444
0
LINE
8
Layer 1
10
47.725979
20
127.564444
11
48.161019
21
126.082778
0
LINE
8
Layer 1
10
48.161019
20
126.082778
11
49.402602
21
123.048889
0
LINE
8
Layer 1
10
49.402602
20
123.048889
11
51.644042
21
118.120532
0
LINE
8
Layer 1
10
51.644042
20
118.120532
11
53.456010
21
114.310532
0
LINE
8
Layer 1
10
53.456010
20
114.310532
11
54.184683
21
112.747778
0
LINE
8
Layer 1
10
54.184683
20
112.747778
11
55.316402
21
109.873490
0
LINE
8
Layer 1
10
55.316402
20
109.873490
11
56.592583
21
107.244444
0
LINE
8
Layer 1
10
56.592583
20
107.244444
11
58.233433
21
104.058431
0
LINE
8
Layer 1
10
58.233433
20
104.058431
11
58.730988
21
102.784666
0
LINE
8
Layer 1
10
58.730988
20
102.784666
11
58.815391
21
102.175078
0
LINE
8
Layer 1
10
58.815391
20
102.175078
11
55.033333
21
100.621604
0
LINE
8
Layer 1
10
55.033333
20
100.621604
11
50.953193
21
98.983567
0
LINE
8
Layer 1
10
50.953193
20
98.983567
11
45.098267
21
95.982290
0
LINE
8
Layer 1
10
45.098267
20
95.982290
11
41.230982
21
93.950051
0
LINE
8
Layer 1
10
41.230982
20
93.950051
11
39.834845
21
91.072248
0
LINE
8
Layer 1
10
39.834845
20
91.072248
11
38.947565
21
89.299405
0
LINE
8
Layer 1
10
38.947565
20
89.299405
11
38.172365
21
88.241655
0
LINE
8
Layer 1
10
38.172365
20
88.241655
11
36.996310
21
87.399587
0
LINE
8
Layer 1
10
36.996310
20
87.399587
11
34.906466
21
86.273787
0
LINE
8
Layer 1
10
34.906466
20
86.273787
11
33.093415
21
85.059986
0
LINE
8
Layer 1
10
33.093415
20
85.059986
11
31.039192
21
83.357951
0
LINE
8
Layer 1
10
31.039192
20
83.357951
11
29.203006
21
81.773765
0
LINE
8
Layer 1
10
29.203006
20
81.773765
11
27.914163
21
80.843306
0
LINE
8
Layer 1
10
27.914163
20
80.843306
11
27.209689
21
80.583238
0
LINE
8
Layer 1
10
27.209689
20
80.583238
11
26.527596
21
80.622755
0
LINE
8
Layer 1
10
26.527596
20
80.622755
11
25.718592
21
81.003980
0
LINE
8
Layer 1
10
25.718592
20
81.003980
11
24.633385
21
81.769040
0
LINE
8
Layer 1
10
24.633385
20
81.769040
11
24.066108
21
82.232151
0
LINE
8
Layer 1
10
24.066108
20
82.232151
11
23.789407
21
82.640925
0
LINE
8
Layer 1
10
23.789407
20
82.640925
11
23.728714
21
83.211909
0
LINE
8
Layer 1
10
23.728714
20
83.211909
11
23.809457
21
84.161647
0
LINE
8
Layer 1
10
23.809457
20
84.161647
11
23.861332
21
85.315595
0
LINE
8
Layer 1
10
23.861332
20
85.315595
11
23.746236
21
85.795556
0
LINE
8
Layer 1
10
23.746236
20
85.795556
11
22.692230
21
85.090344
0
LINE
8
Layer 1
10
22.692230
20
85.090344
11
21.670376
21
84.384789
0
LINE
8
Layer 1
10
21.670376
20
84.384789
11
20.426785
21
85.299110
0
LINE
8
Layer 1
10
20.426785
20
85.299110
11
19.385040
21
86.213772
0
LINE
8
Layer 1
10
19.385040
20
86.213772
11
19.576968
21
84.517360
0
LINE
8
Layer 1
10
19.576968
20
84.517360
11
19.768895
21
82.820945
0
LINE
8
Layer 1
10
19.768895
20
82.820945
11
17.769363
21
80.216028
0
LINE
8
Layer 1
10
17.769363
20
80.216028
11
16.465906
21
78.377375
0
LINE
8
Layer 1
10
16.465906
20
78.377375
11
16.153994
21
77.818883
0
LINE
8
Layer 1
10
16.153994
20
77.818883
11
16.139916
21
77.614752
0
LINE
8
Layer 1
10
16.139916
20
77.614752
11
18.299033
21
78.179196
0
LINE
8
Layer 1
10
18.299033
20
78.179196
11
20.345144
21
78.740000
0
LINE
8
Layer 1
10
20.345144
20
78.740000
11
20.526706
21
78.209608
0
LINE
8
Layer 1
10
20.526706
20
78.209608
11
20.602222
21
76.934410
0
LINE
8
Layer 1
10
20.602222
20
76.934410
11
20.572534
21
75.874264
0
LINE
8
Layer 1
10
20.572534
20
75.874264
11
20.396983
21
75.111417
0
LINE
8
Layer 1
10
20.396983
20
75.111417
11
19.945838
21
74.325206
0
LINE
8
Layer 1
10
19.945838
20
74.325206
11
19.089371
21
73.194966
0
LINE
8
Layer 1
10
19.089371
20
73.194966
11
17.181477
21
70.430399
0
LINE
8
Layer 1
10
17.181477
20
70.430399
11
15.563966
21
67.414200
0
LINE
8
Layer 1
10
15.563966
20
67.414200
11
14.287049
21
64.253519
0
LINE
8
Layer 1
10
14.287049
20
64.253519
11
13.400937
21
61.055510
0
LINE
8
Layer 1
10
13.400937
20
61.055510
11
13.122109
21
58.836106
0
LINE
8
Layer 1
10
13.122109
20
58.836106
11
13.003234
21
55.941081
0
LINE
8
Layer 1
10
13.003234
20
55.941081
11
13.051514
21
52.968837
0
LINE
8
Layer 1
10
13.051514
20
52.968837
11
13.274146
21
50.517778
0
LINE
8
Layer 1
10
13.274146
20
50.517778
11
13.953692
21
47.457162
0
LINE
8
Layer 1
10
13.953692
20
47.457162
11
15.031412
21
44.308797
0
LINE
8
Layer 1
10
15.031412
20
44.308797
11
16.470771
21
41.164023
0
LINE
8
Layer 1
10
16.470771
20
41.164023
11
18.235237
21
38.114182
0
LINE
8
Layer 1
10
18.235237
20
38.114182
11
19.088216
21
36.921259
0
LINE
8
Layer 1
10
19.088216
20
36.921259
11
19.646953
21
36.436164
0
LINE
8
Layer 1
10
19.646953
20
36.436164
11
19.811899
21
36.460353
0
LINE
8
Layer 1
10
19.811899
20
36.460353
11
19.898385
21
36.663060
0
LINE
8
Layer 1
10
19.898385
20
36.663060
11
19.829446
21
37.606111
0
LINE
8
Layer 1
10
19.829446
20
37.606111
11
19.658493
21
41.829699
0
LINE
8
Layer 1
10
19.658493
20
41.829699
11
19.823829
21
44.242005
0
LINE
8
Layer 1
10
19.823829
20
44.242005
11
20.211397
21
46.463085
0
LINE
8
Layer 1
10
20.211397
20
46.463085
11
20.764613
21
48.251771
0
LINE
8
Layer 1
10
20.764613
20
48.251771
11
21.426893
21
49.366892
0
LINE
8
Layer 1
10
21.426893
20
49.366892
11
22.683897
21
49.946168
0
LINE
8
Layer 1
10
22.683897
20
49.946168
11
25.382598
21
50.930678
0
LINE
8
Layer 1
10
25.382598
20
50.930678
11
32.173333
21
53.097619
0
LINE
8
Layer 1
10
32.173333
20
53.097619
11
34.816406
21
54.017596
0
LINE
8
Layer 1
10
34.816406
20
54.017596
11
38.036511
21
55.364284
0
LINE
8
Layer 1
10
38.036511
20
55.364284
11
40.334658
21
56.162222
0
LINE
8
Layer 1
10
40.334658
20
56.162222
11
43.065830
21
56.618017
0
LINE
8
Layer 1
10
43.065830
20
56.618017
11
45.269813
21
57.073808
0
LINE
8
Layer 1
10
45.269813
20
57.073808
11
45.933724
21
56.265239
0
LINE
8
Layer 1
10
45.933724
20
56.265239
11
46.657031
21
55.260838
0
LINE
8
Layer 1
10
46.657031
20
55.260838
11
47.207891
21
54.257107
0
LINE
8
Layer 1
10
47.207891
20
54.257107
11
47.526364
21
53.383493
0
LINE
8
Layer 1
10
47.526364
20
53.383493
11
47.552506
21
52.769443
0
LINE
8
Layer 1
10
47.552506
20
52.769443
11
46.884826
21
51.909547
0
LINE
8
Layer 1
10
46.884826
20
51.909547
11
45.519546
21
50.598270
0
LINE
8
Layer 1
10
45.519546
20
50.598270
11
43.495929
21
48.622819
0
LINE
8
Layer 1
10
43.495929
20
48.622819
11
41.245449
21
46.166080
0
LINE
8
Layer 1
10
41.245449
20
46.166080
11
38.833408
21
43.366608
0
LINE
8
Layer 1
10
38.833408
20
43.366608
11
37.337817
21
45.012325
0
LINE
8
Layer 1
10
37.337817
20
45.012325
11
36.266681
21
46.368717
0
LINE
8
Layer 1
10
36.266681
20
46.368717
11
35.842222
21
47.284310
0
LINE
8
Layer 1
10
35.842222
20
47.284310
11
36.533153
21
49.746208
0
LINE
8
Layer 1
10
36.533153
20
49.746208
11
36.971205
21
51.092542
0
LINE
8
Layer 1
10
36.971205
20
51.092542
11
37.054152
21
51.751775
0
LINE
8
Layer 1
10
37.054152
20
51.751775
11
36.368030
21
51.566022
0
LINE
8
Layer 1
10
36.368030
20
51.566022
11
34.957046
21
50.880797
0
LINE
8
Layer 1
10
34.957046
20
50.880797
11
33.029872
21
49.839886
0
LINE
8
Layer 1
10
33.029872
20
49.839886
11
32.189697
21
50.461054
0
LINE
8
Layer 1
10
32.189697
20
50.461054
11
31.397932
21
50.975859
0
LINE
8
Layer 1
10
31.397932
20
50.975859
11
30.971919
21
50.986543
0
LINE
8
Layer 1
10
30.971919
20
50.986543
11
30.831496
21
50.413525
0
LINE
8
Layer 1
10
30.831496
20
50.413525
11
30.896501
21
49.177222
0
LINE
8
Layer 1
10
30.896501
20
49.177222
11
31.064959
21
47.272222
0
LINE
8
Layer 1
10
31.064959
20
47.272222
11
28.641712
21
44.064284
0
LINE
8
Layer 1
10
28.641712
20
44.064284
11
26.974099
21
41.754876
0
LINE
8
Layer 1
10
26.974099
20
41.754876
11
26.367589
21
40.707225
0
LINE
8
Layer 1
10
26.367589
20
40.707225
11
28.786667
21
41.204444
0
LINE
8
Layer 1
10
28.786667
20
41.204444
11
31.189876
21
41.717530
0
LINE
8
Layer 1
10
31.189876
20
41.717530
11
31.808753
21
39.274346
0
LINE
8
Layer 1
10
31.808753
20
39.274346
11
32.227647
21
37.668271
0
LINE
8
Layer 1
10
32.227647
20
37.668271
11
32.552838
21
37.050576
0
LINE
8
Layer 1
10
32.552838
20
37.050576
11
33.069151
21
37.919876
0
LINE
8
Layer 1
10
33.069151
20
37.919876
11
33.947552
21
39.888911
0
LINE
8
Layer 1
10
33.947552
20
39.888911
11
35.083804
21
42.641091
0
LINE
8
Layer 1
10
35.083804
20
42.641091
11
36.662459
21
42.557768
0
LINE
8
Layer 1
10
36.662459
20
42.557768
11
37.941620
21
42.396881
0
LINE
8
Layer 1
10
37.941620
20
42.396881
11
38.141628
21
42.228539
0
LINE
8
Layer 1
10
38.141628
20
42.228539
11
38.153363
21
41.959558
0
LINE
8
Layer 1
10
38.153363
20
41.959558
11
37.480949
21
40.635192
0
LINE
8
Layer 1
10
37.480949
20
40.635192
11
35.960396
21
38.566905
0
LINE
8
Layer 1
10
35.960396
20
38.566905
11
33.920005
21
36.166671
0
LINE
8
Layer 1
10
33.920005
20
36.166671
11
31.688078
21
33.846468
0
LINE
8
Layer 1
10
31.688078
20
33.846468
11
29.674251
21
31.986368
0
LINE
8
Layer 1
10
29.674251
20
31.986368
11
27.768172
21
30.522993
0
LINE
8
Layer 1
10
27.768172
20
30.522993
11
25.322851
21
29.014461
0
LINE
8
Layer 1
10
25.322851
20
29.014461
11
21.691297
21
27.018892
0
LINE
8
Layer 1
10
21.691297
20
27.018892
11
20.099260
21
26.163278
0
LINE
8
Layer 1
10
20.099260
20
26.163278
11
18.022408
21
28.169404
0
LINE
8
Layer 1
10
18.022408
20
28.169404
11
11.519998
21
34.272412
0
LINE
8
Layer 1
10
11.519998
20
34.272412
11
9.654180
21
35.814278
0
LINE
8
Layer 1
10
9.654180
20
35.814278
11
8.325556
21
36.689213
0
LINE
8
Layer 1
10
8.325556
20
36.689213
11
6.756898
21
37.595233
0
LINE
8
Layer 1
10
6.756898
20
37.595233
11
5.440396
21
38.522801
0
LINE
8
Layer 1
10
5.440396
20
38.522801
11
2.469444
21
41.305249
0
LINE
8
Layer 1
10
2.469444
20
41.305249
11
0.282222
21
43.544196
0
LINE
8
Layer 1
10
0.282222
20
43.544196
11
0.290449
21
40.751543
0
LINE
8
Layer 1
10
0.290449
20
40.751543
11
0.298675
21
37.958889
0
LINE
8
Layer 1
10
0.298675
20
37.958889
11
1.915266
21
36.786038
0
LINE
8
Layer 1
10
1.915266
20
36.786038
11
5.615800
21
34.567331
0
LINE
8
Layer 1
10
5.615800
20
34.567331
11
9.564871
21
32.316694
0
LINE
8
Layer 1
10
9.564871
20
32.316694
11
14.598942
21
29.359749
0
LINE
8
Layer 1
10
14.598942
20
29.359749
11
16.637122
21
28.335755
0
LINE
8
Layer 1
10
16.637122
20
28.335755
11
17.748480
21
27.939712
0
LINE
8
Layer 1
10
17.748480
20
27.939712
11
18.724329
21
26.509342
0
LINE
8
Layer 1
10
18.724329
20
26.509342
11
19.390480
21
25.461403
0
LINE
8
Layer 1
10
19.390480
20
25.461403
11
19.864156
21
24.950090
0
LINE
8
Layer 1
10
19.864156
20
24.950090
11
21.122131
21
25.441333
0
LINE
8
Layer 1
10
21.122131
20
25.441333
11
23.673938
21
26.803793
0
LINE
8
Layer 1
10
23.673938
20
26.803793
11
26.278413
21
28.204197
0
LINE
8
Layer 1
10
26.278413
20
28.204197
11
27.663013
21
28.786667
0
LINE
8
Layer 1
10
27.663013
20
28.786667
11
28.152577
21
28.943450
0
LINE
8
Layer 1
10
28.152577
20
28.943450
11
28.849898
21
29.368911
0
LINE
8
Layer 1
10
28.849898
20
29.368911
11
30.482348
21
30.756541
0
LINE
8
Layer 1
10
30.482348
20
30.756541
11
31.844322
21
31.938666
0
LINE
8
Layer 1
10
31.844322
20
31.938666
11
32.248630
21
32.053933
0
LINE
8
Layer 1
10
32.248630
20
32.053933
11
32.573798
21
31.910091
0
LINE
8
Layer 1
10
32.573798
20
31.910091
11
32.798747
21
31.773823
0
LINE
8
Layer 1
10
32.798747
20
31.773823
11
32.991970
21
31.800717
0
LINE
8
Layer 1
10
32.991970
20
31.800717
11
33.433007
21
32.435586
0
LINE
8
Layer 1
10
33.433007
20
32.435586
11
34.068922
21
33.251282
0
LINE
8
Layer 1
10
34.068922
20
33.251282
11
34.343958
21
33.246551
0
LINE
8
Layer 1
10
34.343958
20
33.246551
11
34.601864
21
32.972039
0
LINE
8
Layer 1
10
34.601864
20
32.972039
11
34.638950
21
32.768361
0
LINE
8
Layer 1
10
34.638950
20
32.768361
11
34.336296
21
32.822072
0
LINE
8
Layer 1
10
34.336296
20
32.822072
11
33.967859
21
32.819840
0
LINE
8
Layer 1
10
33.967859
20
32.819840
11
33.866667
21
32.335780
0
LINE
8
Layer 1
10
33.866667
20
32.335780
11
33.755086
21
31.880206
0
LINE
8
Layer 1
10
33.755086
20
31.880206
11
33.472921
21
31.547485
0
LINE
8
Layer 1
10
33.472921
20
31.547485
11
33.099040
21
31.395846
0
LINE
8
Layer 1
10
33.099040
20
31.395846
11
32.712310
21
31.483517
0
LINE
8
Layer 1
10
32.712310
20
31.483517
11
32.530977
21
31.471517
0
LINE
8
Layer 1
10
32.530977
20
31.471517
11
32.455556
21
31.219829
0
LINE
8
Layer 1
10
32.455556
20
31.219829
11
31.998640
21
30.688372
0
LINE
8
Layer 1
10
31.998640
20
30.688372
11
30.900099
21
30.003730
0
LINE
8
Layer 1
10
30.900099
20
30.003730
11
28.268706
21
28.347432
0
LINE
8
Layer 1
10
28.268706
20
28.347432
11
27.242287
21
27.533451
0
LINE
8
Layer 1
10
27.242287
20
27.533451
11
26.821795
21
27.030101
0
LINE
8
Layer 1
10
26.821795
20
27.030101
11
27.249489
21
27.146261
0
LINE
8
Layer 1
10
27.249489
20
27.146261
11
28.292778
21
27.712487
0
LINE
8
Layer 1
10
28.292778
20
27.712487
11
31.044444
21
29.280920
0
LINE
8
Layer 1
10
31.044444
20
29.280920
11
32.582556
21
30.221309
0
LINE
8
Layer 1
10
32.582556
20
30.221309
11
32.900294
21
30.445352
0
LINE
8
Layer 1
10
32.900294
20
30.445352
11
33.133038
21
30.454206
0
LINE
8
Layer 1
10
33.133038
20
30.454206
11
33.248557
21
30.264600
0
LINE
8
Layer 1
10
33.248557
20
30.264600
11
33.214618
21
29.893263
0
LINE
8
Layer 1
10
33.214618
20
29.893263
11
33.188582
21
29.466721
0
LINE
8
Layer 1
10
33.188582
20
29.466721
11
33.511916
21
29.479488
0
LINE
8
Layer 1
10
33.511916
20
29.479488
11
33.889552
21
29.505685
0
LINE
8
Layer 1
10
33.889552
20
29.505685
11
34.164541
21
29.325784
0
LINE
8
Layer 1
10
34.164541
20
29.325784
11
34.302223
21
29.280316
0
LINE
8
Layer 1
10
34.302223
20
29.280316
11
34.518995
21
29.439000
0
LINE
8
Layer 1
10
34.518995
20
29.439000
11
35.138614
21
30.316754
0
LINE
8
Layer 1
10
35.138614
20
30.316754
11
35.700168
21
31.163958
0
LINE
8
Layer 1
10
35.700168
20
31.163958
11
36.028769
21
31.459332
0
LINE
8
Layer 1
10
36.028769
20
31.459332
11
36.061516
21
31.197107
0
LINE
8
Layer 1
10
36.061516
20
31.197107
11
35.735508
21
30.371511
0
LINE
8
Layer 1
10
35.735508
20
30.371511
11
35.097666
21
28.521104
0
LINE
8
Layer 1
10
35.097666
20
28.521104
11
34.676882
21
27.494137
0
LINE
8
Layer 1
10
34.676882
20
27.494137
11
34.431441
21
26.865010
0
LINE
8
Layer 1
10
34.431441
20
26.865010
11
34.569671
21
26.891266
0
LINE
8
Layer 1
10
34.569671
20
26.891266
11
34.945796
21
27.315541
0
LINE
8
Layer 1
10
34.945796
20
27.315541
11
36.181973
21
29.068889
0
LINE
8
Layer 1
10
36.181973
20
29.068889
11
37.503720
21
30.930095
0
LINE
8
Layer 1
10
37.503720
20
30.930095
11
37.874263
21
31.300204
0
LINE
8
Layer 1
10
37.874263
20
31.300204
11
38.033133
21
31.275057
0
LINE
8
Layer 1
10
38.033133
20
31.275057
11
37.975660
21
30.690607
0
LINE
8
Layer 1
10
37.975660
20
30.690607
11
37.695708
21
29.952380
0
LINE
8
Layer 1
10
37.695708
20
29.952380
11
37.433518
21
29.230101
0
LINE
8
Layer 1
10
37.433518
20
29.230101
11
37.418744
21
28.683997
0
LINE
8
Layer 1
10
37.418744
20
28.683997
11
37.374408
21
28.028538
0
LINE
8
Layer 1
10
37.374408
20
28.028538
11
37.041142
21
27.043343
0
LINE
8
Layer 1
10
37.041142
20
27.043343
11
36.308973
21
24.976667
0
LINE
8
Layer 1
10
36.308973
20
24.976667
11
36.115825
21
24.130000
0
LINE
8
Layer 1
10
36.115825
20
24.130000
11
36.684579
21
24.796265
0
LINE
8
Layer 1
10
36.684579
20
24.796265
11
37.086262
21
25.423438
0
LINE
8
Layer 1
10
37.086262
20
25.423438
11
37.253333
21
25.995709
0
LINE
8
Layer 1
10
37.253333
20
25.995709
11
37.379740
21
26.372267
0
LINE
8
Layer 1
10
37.379740
20
26.372267
11
37.683652
21
26.528889
0
LINE
8
Layer 1
10
37.683652
20
26.528889
11
38.066363
21
26.736146
0
LINE
8
Layer 1
10
38.066363
20
26.736146
11
38.382222
21
27.234444
0
LINE
8
Layer 1
10
38.382222
20
27.234444
11
38.780757
21
27.923853
0
LINE
8
Layer 1
10
38.780757
20
27.923853
11
38.856666
21
27.845369
0
LINE
8
Layer 1
10
38.856666
20
27.845369
11
38.778061
21
27.446111
0
LINE
8
Layer 1
10
38.778061
20
27.446111
11
38.793320
21
27.382089
0
LINE
8
Layer 1
10
38.793320
20
27.382089
11
38.946405
21
27.572869
0
LINE
8
Layer 1
10
38.946405
20
27.572869
11
39.563032
21
28.571173
0
LINE
8
Layer 1
10
39.563032
20
28.571173
11
40.429278
21
29.905663
0
LINE
8
Layer 1
10
40.429278
20
29.905663
11
40.696435
21
30.146709
0
LINE
8
Layer 1
10
40.696435
20
30.146709
11
40.856958
21
30.096283
0
LINE
8
Layer 1
10
40.856958
20
30.096283
11
40.870135
21
29.098996
0
LINE
8
Layer 1
10
40.870135
20
29.098996
11
40.492878
21
26.869768
0
LINE
8
Layer 1
10
40.492878
20
26.869768
11
39.944223
21
24.159901
0
LINE
8
Layer 1
10
39.944223
20
24.159901
11
39.912323
21
23.737066
0
LINE
8
Layer 1
10
39.912323
20
23.737066
11
40.116718
21
23.967691
0
LINE
8
Layer 1
10
40.116718
20
23.967691
11
40.897336
21
25.806877
0
LINE
8
Layer 1
10
40.897336
20
25.806877
11
41.787228
21
27.766079
0
LINE
8
Layer 1
10
41.787228
20
27.766079
11
41.918914
21
27.875628
0
LINE
8
Layer 1
10
41.918914
20
27.875628
11
41.994985
21
27.809172
0
LINE
8
Layer 1
10
41.994985
20
27.809172
11
41.941682
21
27.100428
0
LINE
8
Layer 1
10
41.941682
20
27.100428
11
41.893315
21
26.660943
0
LINE
8
Layer 1
10
41.893315
20
26.660943
11
42.035573
21
26.668516
0
LINE
8
Layer 1
10
42.035573
20
26.668516
11
43.174364
21
28.299548
0
LINE
8
Layer 1
10
43.174364
20
28.299548
11
44.591111
21
30.761900
0
LINE
8
Layer 1
10
44.591111
20
30.761900
11
44.724452
21
30.961446
0
LINE
8
Layer 1
10
44.724452
20
30.961446
11
45.045040
21
31.044444
0
LINE
8
Layer 1
10
45.045040
20
31.044444
11
45.364038
21
30.884409
0
LINE
8
Layer 1
10
45.364038
20
30.884409
11
45.298541
21
30.268333
0
LINE
8
Layer 1
10
45.298541
20
30.268333
11
44.529207
21
26.657833
0
LINE
8
Layer 1
10
44.529207
20
26.657833
11
44.184965
21
24.300962
0
LINE
8
Layer 1
10
44.184965
20
24.300962
11
44.412708
21
24.406135
0
LINE
8
Layer 1
10
44.412708
20
24.406135
11
44.983879
21
25.068054
0
LINE
8
Layer 1
10
44.983879
20
25.068054
11
47.777070
21
28.847598
0
LINE
8
Layer 1
10
47.777070
20
28.847598
11
50.126940
21
31.891111
0
LINE
8
Layer 1
10
50.126940
20
31.891111
11
50.162502
21
30.646294
0
LINE
8
Layer 1
10
50.162502
20
30.646294
11
49.893086
21
27.672014
0
LINE
8
Layer 1
10
49.893086
20
27.672014
11
48.940573
21
21.096111
0
LINE
8
Layer 1
10
48.940573
20
21.096111
11
48.889813
21
20.377647
0
LINE
8
Layer 1
10
48.889813
20
20.377647
11
49.224791
21
20.574198
0
LINE
8
Layer 1
10
49.224791
20
20.574198
11
51.047388
21
23.706667
0
LINE
8
Layer 1
10
51.047388
20
23.706667
11
52.373674
21
26.098500
0
LINE
8
Layer 1
10
52.373674
20
26.098500
11
53.078216
21
27.093333
0
LINE
8
Layer 1
10
53.078216
20
27.093333
11
53.241113
21
26.711828
0
LINE
8
Layer 1
10
53.241113
20
26.711828
11
53.357747
21
25.793847
0
LINE
8
Layer 1
10
53.357747
20
25.793847
11
53.345091
21
23.707660
0
LINE
8
Layer 1
10
53.345091
20
23.707660
11
53.493588
21
20.559793
0
LINE
8
Layer 1
10
53.493588
20
20.559793
11
53.707488
21
18.877687
0
LINE
8
Layer 1
10
53.707488
20
18.877687
11
53.904687
21
18.203483
0
LINE
8
Layer 1
10
53.904687
20
18.203483
11
55.039542
21
20.532177
0
LINE
8
Layer 1
10
55.039542
20
20.532177
11
56.900112
21
24.771189
0
LINE
8
Layer 1
10
56.900112
20
24.771189
11
57.855556
21
27.240634
0
LINE
8
Layer 1
10
57.855556
20
27.240634
11
57.943315
21
27.533869
0
LINE
8
Layer 1
10
57.943315
20
27.533869
11
58.137443
21
27.650091
0
LINE
8
Layer 1
10
58.137443
20
27.650091
11
58.334208
21
27.577676
0
LINE
8
Layer 1
10
58.334208
20
27.577676
11
58.429883
21
27.305000
0
LINE
8
Layer 1
10
58.429883
20
27.305000
11
58.420339
21
20.672778
0
LINE
8
Layer 1
10
58.420339
20
20.672778
11
58.530879
21
14.393333
0
LINE
8
Layer 1
10
58.530879
20
14.393333
11
59.387886
21
15.966895
0
LINE
8
Layer 1
10
59.387886
20
15.966895
11
60.532462
21
18.626667
0
LINE
8
Layer 1
10
60.532462
20
18.626667
11
62.025507
21
22.013333
0
LINE
8
Layer 1
10
62.025507
20
22.013333
11
63.783588
21
25.890079
0
LINE
8
Layer 1
10
63.783588
20
25.890079
11
64.301213
21
26.888590
0
LINE
8
Layer 1
10
64.301213
20
26.888590
11
64.662005
21
27.213978
0
LINE
8
Layer 1
10
64.662005
20
27.213978
11
64.843238
21
25.928774
0
LINE
8
Layer 1
10
64.843238
20
25.928774
11
64.929159
21
23.055010
0
LINE
8
Layer 1
10
64.929159
20
23.055010
11
65.006287
21
19.842349
0
LINE
8
Layer 1
10
65.006287
20
19.842349
11
65.123263
21
19.563805
0
LINE
8
Layer 1
10
65.123263
20
19.563805
11
65.327002
21
19.896667
0
LINE
8
Layer 1
10
65.327002
20
19.896667
11
66.386282
21
22.512855
0
LINE
8
Layer 1
10
66.386282
20
22.512855
11
66.886667
21
24.167634
0
LINE
8
Layer 1
10
66.886667
20
24.167634
11
66.965846
21
24.490113
0
LINE
8
Layer 1
10
66.965846
20
24.490113
11
67.152244
21
24.536539
0
LINE
8
Layer 1
10
67.152244
20
24.536539
11
67.369157
21
24.336187
0
LINE
8
Layer 1
10
67.369157
20
24.336187
11
67.539876
21
23.918333
0
LINE
8
Layer 1
10
67.539876
20
23.918333
11
67.875060
21
21.025556
0
LINE
8
Layer 1
10
67.875060
20
21.025556
11
68.068126
21
19.065252
0
LINE
8
Layer 1
10
68.068126
20
19.065252
11
68.259136
21
18.176431
0
LINE
8
Layer 1
10
68.259136
20
18.176431
11
68.365683
21
18.111872
0
LINE
8
Layer 1
10
68.365683
20
18.111872
11
68.485891
21
18.288839
0
LINE
8
Layer 1
10
68.485891
20
18.288839
11
68.786192
21
19.332222
0
LINE
8
Layer 1
10
68.786192
20
19.332222
11
69.522374
21
22.979250
0
LINE
8
Layer 1
10
69.522374
20
22.979250
11
69.850938
21
24.389099
0
LINE
8
Layer 1
10
69.850938
20
24.389099
11
70.166854
21
25.035248
0
LINE
8
Layer 1
10
70.166854
20
25.035248
11
70.535729
21
24.486335
0
LINE
8
Layer 1
10
70.535729
20
24.486335
11
71.134997
21
22.931108
0
LINE
8
Layer 1
10
71.134997
20
22.931108
11
72.538209
21
18.203333
0
LINE
8
Layer 1
10
72.538209
20
18.203333
11
72.926068
21
16.900633
0
LINE
8
Layer 1
10
72.926068
20
16.900633
11
73.232078
21
16.506075
0
LINE
8
Layer 1
10
73.232078
20
16.506075
11
73.505423
21
17.030702
0
LINE
8
Layer 1
10
73.505423
20
17.030702
11
73.795289
21
18.485556
0
LINE
8
Layer 1
10
73.795289
20
18.485556
11
76.867817
21
31.171236
0
LINE
8
Layer 1
10
76.867817
20
31.171236
11
77.199191
21
32.158391
0
LINE
8
Layer 1
10
77.199191
20
32.158391
11
77.508234
21
32.603950
0
LINE
8
Layer 1
10
77.508234
20
32.603950
11
77.778288
21
32.498141
0
LINE
8
Layer 1
10
77.778288
20
32.498141
11
77.992695
21
31.831190
0
LINE
8
Layer 1
10
77.992695
20
31.831190
11
79.572005
21
25.519631
0
LINE
8
Layer 1
10
79.572005
20
25.519631
11
81.000242
21
20.320000
0
LINE
8
Layer 1
10
81.000242
20
20.320000
11
81.371756
21
22.695498
0
LINE
8
Layer 1
10
81.371756
20
22.695498
11
81.688835
21
24.298025
0
LINE
8
Layer 1
10
81.688835
20
24.298025
11
81.985556
21
25.013257
0
LINE
8
Layer 1
10
81.985556
20
25.013257
11
82.595129
21
24.127013
0
LINE
8
Layer 1
10
82.595129
20
24.127013
11
83.681601
21
21.868006
0
LINE
8
Layer 1
10
83.681601
20
21.868006
11
84.876304
21
19.055810
0
LINE
8
Layer 1
10
84.876304
20
19.055810
11
85.810567
21
16.510000
0
LINE
8
Layer 1
10
85.810567
20
16.510000
11
86.158702
21
15.645099
0
LINE
8
Layer 1
10
86.158702
20
15.645099
11
86.246415
21
15.615828
0
LINE
8
Layer 1
10
86.246415
20
15.615828
11
86.276432
21
15.820659
0
LINE
8
Layer 1
10
86.276432
20
15.820659
11
85.817651
21
18.460737
0
LINE
8
Layer 1
10
85.817651
20
18.460737
11
85.235432
21
21.498896
0
LINE
8
Layer 1
10
85.235432
20
21.498896
11
85.315241
21
22.118099
0
LINE
8
Layer 1
10
85.315241
20
22.118099
11
85.511678
21
22.578447
0
LINE
8
Layer 1
10
85.511678
20
22.578447
11
85.773574
21
22.803427
0
LINE
8
Layer 1
10
85.773574
20
22.803427
11
86.049762
21
22.716530
0
LINE
8
Layer 1
10
86.049762
20
22.716530
11
86.514487
21
21.603637
0
LINE
8
Layer 1
10
86.514487
20
21.603637
11
87.099792
21
19.400932
0
LINE
8
Layer 1
10
87.099792
20
19.400932
11
87.657520
21
16.738959
0
LINE
8
Layer 1
10
87.657520
20
16.738959
11
88.039516
21
14.248263
0
LINE
8
Layer 1
10
88.039516
20
14.248263
11
88.447739
21
11.364852
0
LINE
8
Layer 1
10
88.447739
20
11.364852
11
88.680404
21
11.717794
0
LINE
8
Layer 1
10
88.680404
20
11.717794
11
88.926677
21
12.888534
0
LINE
8
Layer 1
10
88.926677
20
12.888534
11
89.178508
21
15.926119
0
LINE
8
Layer 1
10
89.178508
20
15.926119
11
89.179898
21
18.720949
0
LINE
8
Layer 1
10
89.179898
20
18.720949
11
89.267324
21
19.098777
0
LINE
8
Layer 1
10
89.267324
20
19.098777
11
89.432057
21
19.035889
0
LINE
8
Layer 1
10
89.432057
20
19.035889
11
91.894287
21
14.463889
0
LINE
8
Layer 1
10
91.894287
20
14.463889
11
94.293097
21
10.160000
0
LINE
8
Layer 1
10
94.293097
20
10.160000
11
94.746841
21
12.092237
0
LINE
8
Layer 1
10
94.746841
20
12.092237
11
95.261983
21
16.227778
0
LINE
8
Layer 1
10
95.261983
20
16.227778
11
95.593987
21
18.975671
0
LINE
8
Layer 1
10
95.593987
20
18.975671
11
95.753887
21
19.573342
0
LINE
8
Layer 1
10
95.753887
20
19.573342
11
95.929018
21
19.755556
0
LINE
8
Layer 1
10
95.929018
20
19.755556
11
97.927933
21
17.220111
0
LINE
8
Layer 1
10
97.927933
20
17.220111
11
99.377108
21
15.184112
0
LINE
8
Layer 1
10
99.377108
20
15.184112
11
100.077081
21
14.483752
0
LINE
8
Layer 1
10
100.077081
20
14.483752
11
100.209103
21
14.628139
0
LINE
8
Layer 1
10
100.209103
20
14.628139
11
100.229409
21
15.098877
0
LINE
8
Layer 1
10
100.229409
20
15.098877
11
100.035648
21
17.009330
0
LINE
8
Layer 1
10
100.035648
20
17.009330
11
99.492918
21
21.945217
0
LINE
8
Layer 1
10
99.492918
20
21.945217
11
99.475321
21
22.699790
0
LINE
8
Layer 1
10
99.475321
20
22.699790
11
99.584671
21
22.860000
0
LINE
8
Layer 1
10
99.584671
20
22.860000
11
102.181928
21
18.912055
0
LINE
8
Layer 1
10
102.181928
20
18.912055
11
103.895813
21
16.218945
0
LINE
8
Layer 1
10
103.895813
20
16.218945
11
104.672330
21
15.287935
0
LINE
8
Layer 1
10
104.672330
20
15.287935
11
104.424711
21
19.306433
0
LINE
8
Layer 1
10
104.424711
20
19.306433
11
104.125128
21
22.866621
0
LINE
8
Layer 1
10
104.125128
20
22.866621
11
104.175744
21
23.340385
0
LINE
8
Layer 1
10
104.175744
20
23.340385
11
104.351667
21
23.409425
0
LINE
8
Layer 1
10
104.351667
20
23.409425
11
104.856355
21
22.704339
0
LINE
8
Layer 1
10
104.856355
20
22.704339
11
105.796592
21
20.995281
0
LINE
8
Layer 1
10
105.796592
20
20.995281
11
107.790883
21
16.842771
0
LINE
8
Layer 1
10
107.790883
20
16.842771
11
108.486029
21
15.336499
0
LINE
8
Layer 1
10
108.486029
20
15.336499
11
108.675996
21
15.074649
0
LINE
8
Layer 1
10
108.675996
20
15.074649
11
108.761550
21
15.144974
0
LINE
8
Layer 1
10
108.761550
20
15.144974
11
108.621384
21
16.296101
0
LINE
8
Layer 1
10
108.621384
20
16.296101
11
108.069467
21
18.817785
0
LINE
8
Layer 1
10
108.069467
20
18.817785
11
107.564597
21
21.135406
0
LINE
8
Layer 1
10
107.564597
20
21.135406
11
107.599205
21
21.413555
0
LINE
8
Layer 1
10
107.599205
20
21.413555
11
107.788394
21
21.448889
0
LINE
8
Layer 1
10
107.788394
20
21.448889
11
108.266447
21
20.928268
0
LINE
8
Layer 1
10
108.266447
20
20.928268
11
108.888723
21
19.628476
0
LINE
8
Layer 1
10
108.888723
20
19.628476
11
109.493643
21
17.942617
0
LINE
8
Layer 1
10
109.493643
20
17.942617
11
109.919629
21
16.263798
0
LINE
8
Layer 1
10
109.919629
20
16.263798
11
110.161304
21
15.176026
0
LINE
8
Layer 1
10
110.161304
20
15.176026
11
110.321902
21
14.948143
0
LINE
8
Layer 1
10
110.321902
20
14.948143
11
110.359365
21
17.003889
0
LINE
8
Layer 1
10
110.359365
20
17.003889
11
110.397334
21
17.973562
0
LINE
8
Layer 1
10
110.397334
20
17.973562
11
110.597287
21
18.344444
0
LINE
8
Layer 1
10
110.597287
20
18.344444
11
111.123123
21
17.867753
0
LINE
8
Layer 1
10
111.123123
20
17.867753
11
111.965684
21
16.721667
0
LINE
8
Layer 1
10
111.965684
20
16.721667
11
114.866341
21
12.417778
0
LINE
8
Layer 1
10
114.866341
20
12.417778
11
116.698889
21
9.736667
0
LINE
8
Layer 1
10
116.698889
20
9.736667
11
116.788463
21
10.993258
0
LINE
8
Layer 1
10
116.788463
20
10.993258
11
116.565130
21
14.097703
0
LINE
8
Layer 1
10
116.565130
20
14.097703
11
116.565130
21
14.097703
0
LINE
8
Layer 1
10
69.600874
20
27.830786
11
69.021517
21
28.725218
0
LINE
8
Layer 1
10
69.021517
20
28.725218
11
69.024196
21
29.010399
0
LINE
8
Layer 1
10
69.024196
20
29.010399
11
69.191928
21
29.294393
0
LINE
8
Layer 1
10
69.191928
20
29.294393
11
69.426920
21
29.632958
0
LINE
8
Layer 1
10
69.426920
20
29.632958
11
69.109582
21
29.416731
0
LINE
8
Layer 1
10
69.109582
20
29.416731
11
68.651232
21
29.252932
0
LINE
8
Layer 1
10
68.651232
20
29.252932
11
68.192359
21
29.759580
0
LINE
8
Layer 1
10
68.192359
20
29.759580
11
67.760673
21
30.583985
0
LINE
8
Layer 1
10
67.760673
20
30.583985
11
67.852351
21
30.726716
0
LINE
8
Layer 1
10
67.852351
20
30.726716
11
68.145671
21
30.762222
0
LINE
8
Layer 1
10
68.145671
20
30.762222
11
68.615336
21
30.948753
0
LINE
8
Layer 1
10
68.615336
20
30.948753
11
69.165498
21
31.397222
0
LINE
8
Layer 1
10
69.165498
20
31.397222
11
69.772982
21
32.032222
0
LINE
8
Layer 1
10
69.772982
20
32.032222
11
69.580805
21
31.397222
0
LINE
8
Layer 1
10
69.580805
20
31.397222
11
69.524047
21
30.943484
0
LINE
8
Layer 1
10
69.524047
20
30.943484
11
69.670851
21
30.762222
0
LINE
8
Layer 1
10
69.670851
20
30.762222
11
69.892223
21
30.659384
0
LINE
8
Layer 1
10
69.892223
20
30.659384
11
70.086112
21
30.293521
0
LINE
8
Layer 1
10
70.086112
20
30.293521
11
70.516064
21
28.428634
0
LINE
8
Layer 1
10
70.516064
20
28.428634
11
70.637206
21
27.443551
0
LINE
8
Layer 1
10
70.637206
20
27.443551
11
70.576271
21
26.965024
0
LINE
8
Layer 1
10
70.576271
20
26.965024
11
70.211126
21
27.170751
0
LINE
8
Layer 1
10
70.211126
20
27.170751
11
69.600874
21
27.830786
0
LINE
8
Layer 1
10
69.600874
20
27.830786
11
69.600874
21
27.830786
0
LINE
8
Layer 1
10
62.118988
20
28.820751
11
61.690813
21
30.070772
0
LINE
8
Layer 1
10
61.690813
20
30.070772
11
61.468704
21
31.142535
0
LINE
8
Layer 1
10
61.468704
20
31.142535
11
61.470170
21
31.891552
0
LINE
8
Layer 1
10
61.470170
20
31.891552
11
61.712721
21
32.173333
0
LINE
8
Layer 1
10
61.712721
20
32.173333
11
61.978389
21
32.261129
0
LINE
8
Layer 1
10
61.978389
20
32.261129
11
62.088889
21
32.472212
0
LINE
8
Layer 1
10
62.088889
20
32.472212
11
61.985260
21
32.630803
0
LINE
8
Layer 1
10
61.985260
20
32.630803
11
61.736111
21
32.592394
0
LINE
8
Layer 1
10
61.736111
20
32.592394
11
61.647878
21
32.596685
0
LINE
8
Layer 1
10
61.647878
20
32.596685
11
61.931135
21
32.857940
0
LINE
8
Layer 1
10
61.931135
20
32.857940
11
62.379000
21
33.107286
0
LINE
8
Layer 1
10
62.379000
20
33.107286
11
62.653833
21
33.019193
0
LINE
8
Layer 1
10
62.653833
20
33.019193
11
62.713695
21
30.604756
0
LINE
8
Layer 1
10
62.713695
20
30.604756
11
62.496426
21
28.256306
0
LINE
8
Layer 1
10
62.496426
20
28.256306
11
62.118988
21
28.820751
0
LINE
8
Layer 1
10
62.118988
20
28.820751
11
62.118988
21
28.820751
0
LINE
8
Layer 1
10
68.015556
20
31.326667
11
68.658375
21
31.594552
0
LINE
8
Layer 1
10
68.658375
20
31.594552
11
68.781719
21
31.527581
0
LINE
8
Layer 1
10
68.781719
20
31.527581
11
68.721111
21
31.326667
0
LINE
8
Layer 1
10
68.721111
20
31.326667
11
68.457737
21
31.128617
0
LINE
8
Layer 1
10
68.457737
20
31.128617
11
68.069454
21
31.048765
0
LINE
8
Layer 1
10
68.069454
20
31.048765
11
67.751468
21
31.100700
0
LINE
8
Layer 1
10
67.751468
20
31.100700
11
68.015556
21
31.326667
0
LINE
8
Layer 1
10
68.015556
20
31.326667
11
68.015556
21
31.326667
0
LINE
8
Layer 1
10
36.419604
20
32.479728
11
36.859509
21
32.943453
0
LINE
8
Layer 1
10
36.859509
20
32.943453
11
36.906604
21
32.695694
0
LINE
8
Layer 1
10
36.906604
20
32.695694
11
36.795870
21
32.343210
0
LINE
8
Layer 1
10
36.795870
20
32.343210
11
36.593714
21
32.027763
0
LINE
8
Layer 1
10
36.593714
20
32.027763
11
36.366543
21
31.891111
0
LINE
8
Layer 1
10
36.366543
20
31.891111
11
36.273997
21
32.063940
0
LINE
8
Layer 1
10
36.273997
20
32.063940
11
36.419604
21
32.479728
0
LINE
8
Layer 1
10
36.419604
20
32.479728
11
36.419604
21
32.479728
0
LINE
8
Layer 1
10
32.596667
20
32.455556
11
32.561275
21
32.654875
0
LINE
8
Layer 1
10
32.561275
20
32.654875
11
32.721121
21
32.737778
0
LINE
8
Layer 1
10
32.721121
20
32.737778
11
32.932204
21
32.654875
0
LINE
8
Layer 1
10
32.932204
20
32.654875
11
33.020000
21
32.455556
0
LINE
8
Layer 1
10
33.020000
20
32.455556
11
32.895546
21
32.173333
0
LINE
8
Layer 1
10
32.895546
20
32.173333
11
32.596667
21
32.455556
0
LINE
8
Layer 1
10
32.596667
20
32.455556
11
32.596667
21
32.455556
0
LINE
8
Layer 1
10
37.253333
20
33.991121
11
37.336236
21
34.301864
0
LINE
8
Layer 1
10
37.336236
20
34.301864
11
37.535556
21
34.431111
0
LINE
8
Layer 1
10
37.535556
20
34.431111
11
37.734875
21
34.353101
0
LINE
8
Layer 1
10
37.734875
20
34.353101
11
37.817778
21
34.165546
0
LINE
8
Layer 1
10
37.817778
20
34.165546
11
37.535556
21
33.725556
0
LINE
8
Layer 1
10
37.535556
20
33.725556
11
37.336236
21
33.731616
0
LINE
8
Layer 1
10
37.336236
20
33.731616
11
37.253333
21
33.991121
0
LINE
8
Layer 1
10
37.253333
20
33.991121
11
37.253333
21
33.991121
0
LINE
8
Layer 1
10
40.976776
20
38.335311
11
42.267440
21
39.925043
0
LINE
8
Layer 1
10
42.267440
20
39.925043
11
43.050804
21
40.581047
0
LINE
8
Layer 1
10
43.050804
20
40.581047
11
42.830869
21
40.073464
0
LINE
8
Layer 1
10
42.830869
20
40.073464
11
42.147656
21
39.132015
0
LINE
8
Layer 1
10
42.147656
20
39.132015
11
41.370432
21
38.224265
0
LINE
8
Layer 1
10
41.370432
20
38.224265
11
40.868465
21
37.817778
0
LINE
8
Layer 1
10
40.868465
20
37.817778
11
40.792837
21
37.969803
0
LINE
8
Layer 1
10
40.792837
20
37.969803
11
40.976776
21
38.335311
0
LINE
8
Layer 1
10
40.976776
20
38.335311
11
40.976776
21
38.335311
0
LINE
8
Layer 1
10
17.504447
20
41.275000
11
15.500300
21
44.878748
0
LINE
8
Layer 1
10
15.500300
20
44.878748
11
14.804379
21
46.522578
0
LINE
8
Layer 1
10
14.804379
20
46.522578
11
14.464827
21
47.737319
0
LINE
8
Layer 1
10
14.464827
20
47.737319
11
14.443781
21
48.645094
0
LINE
8
Layer 1
10
14.443781
20
48.645094
11
14.608471
21
48.791161
0
LINE
8
Layer 1
10
14.608471
20
48.791161
11
14.929475
21
48.824444
0
LINE
8
Layer 1
10
14.929475
20
48.824444
11
15.408151
21
48.700566
0
LINE
8
Layer 1
10
15.408151
20
48.700566
11
15.701764
21
48.402731
0
LINE
8
Layer 1
10
15.701764
20
48.402731
11
15.889319
21
48.150178
0
LINE
8
Layer 1
10
15.889319
20
48.150178
11
16.113006
21
48.135167
0
LINE
8
Layer 1
10
16.113006
20
48.135167
11
16.239786
21
48.115375
0
LINE
8
Layer 1
10
16.239786
20
48.115375
11
16.194351
21
47.851325
0
LINE
8
Layer 1
10
16.194351
20
47.851325
11
16.167421
21
47.541993
0
LINE
8
Layer 1
10
16.167421
20
47.541993
11
16.338694
21
47.413333
0
LINE
8
Layer 1
10
16.338694
20
47.413333
11
16.559339
21
47.484740
0
LINE
8
Layer 1
10
16.559339
20
47.484740
11
16.651111
21
47.656420
0
LINE
8
Layer 1
10
16.651111
20
47.656420
11
16.828514
21
47.772061
0
LINE
8
Layer 1
10
16.828514
20
47.772061
11
17.286998
21
47.783073
0
LINE
8
Layer 1
10
17.286998
20
47.783073
11
18.604851
21
47.521709
0
LINE
8
Layer 1
10
18.604851
20
47.521709
11
18.785322
21
47.327567
0
LINE
8
Layer 1
10
18.785322
20
47.327567
11
18.388462
21
46.960844
0
LINE
8
Layer 1
10
18.388462
20
46.960844
11
18.006377
21
46.567304
0
LINE
8
Layer 1
10
18.006377
20
46.567304
11
17.955444
21
46.228892
0
LINE
8
Layer 1
10
17.955444
20
46.228892
11
18.159604
21
46.129587
0
LINE
8
Layer 1
10
18.159604
20
46.129587
11
18.398567
21
46.391178
0
LINE
8
Layer 1
10
18.398567
20
46.391178
11
18.718597
21
46.695637
0
LINE
8
Layer 1
10
18.718597
20
46.695637
11
19.214083
21
46.554373
0
LINE
8
Layer 1
10
19.214083
20
46.554373
11
19.559791
21
46.245023
0
LINE
8
Layer 1
10
19.559791
20
46.245023
11
19.559253
21
45.917508
0
LINE
8
Layer 1
10
19.559253
20
45.917508
11
19.325652
21
45.296667
0
LINE
8
Layer 1
10
19.325652
20
45.296667
11
19.029379
21
43.786102
0
LINE
8
Layer 1
10
19.029379
20
43.786102
11
18.643533
21
42.767089
0
LINE
8
Layer 1
10
18.643533
20
42.767089
11
18.555003
21
42.260704
0
LINE
8
Layer 1
10
18.555003
20
42.260704
11
18.624930
21
41.217985
0
LINE
8
Layer 1
10
18.624930
20
41.217985
11
18.642103
21
39.793333
0
LINE
8
Layer 1
10
18.642103
20
39.793333
11
17.504447
21
41.275000
0
LINE
8
Layer 1
10
17.504447
20
41.275000
11
17.504447
21
41.275000
0
LINE
8
Layer 1
10
50.376667
20
41.486667
11
50.172827
21
41.885306
0
LINE
8
Layer 1
10
50.172827
20
41.885306
11
49.934314
21
42.051111
0
LINE
8
Layer 1
10
49.934314
20
42.051111
11
49.748428
21
42.175465
0
LINE
8
Layer 1
10
49.748428
20
42.175465
11
49.671111
21
42.474444
0
LINE
8
Layer 1
10
49.671111
20
42.474444
11
49.754014
21
42.773424
0
LINE
8
Layer 1
10
49.754014
20
42.773424
11
49.953333
21
42.897778
0
LINE
8
Layer 1
10
49.953333
20
42.897778
11
50.152653
21
42.773424
0
LINE
8
Layer 1
10
50.152653
20
42.773424
11
50.235556
21
42.474444
0
LINE
8
Layer 1
10
50.235556
20
42.474444
11
50.300817
21
42.175465
0
LINE
8
Layer 1
10
50.300817
20
42.175465
11
50.457721
21
42.051111
0
LINE
8
Layer 1
10
50.457721
20
42.051111
11
50.627113
21
41.885306
0
LINE
8
Layer 1
10
50.627113
20
41.885306
11
50.722403
21
41.486667
0
LINE
8
Layer 1
10
50.722403
20
41.486667
11
50.660368
21
40.922222
0
LINE
8
Layer 1
10
50.660368
20
40.922222
11
50.376667
21
41.486667
0
LINE
8
Layer 1
10
50.376667
20
41.486667
11
50.376667
21
41.486667
0
LINE
8
Layer 1
10
55.205119
20
42.565924
11
55.167064
21
42.828232
0
LINE
8
Layer 1
10
55.167064
20
42.828232
11
55.329729
21
43.047649
0
LINE
8
Layer 1
10
55.329729
20
43.047649
11
55.735963
21
43.114769
0
LINE
8
Layer 1
10
55.735963
20
43.114769
11
55.617711
21
42.647808
0
LINE
8
Layer 1
10
55.617711
20
42.647808
11
55.399127
21
42.444772
0
LINE
8
Layer 1
10
55.399127
20
42.444772
11
55.205119
21
42.565924
0
LINE
8
Layer 1
10
55.205119
20
42.565924
11
55.205119
21
42.565924
0
LINE
8
Layer 1
10
59.571170
20
42.733149
11
59.605521
21
43.065090
0
LINE
8
Layer 1
10
59.605521
20
43.065090
11
59.719399
21
43.103566
0
LINE
8
Layer 1
10
59.719399
20
43.103566
11
59.741678
21
42.562639
0
LINE
8
Layer 1
10
59.741678
20
42.562639
11
59.627718
21
42.440177
0
LINE
8
Layer 1
10
59.627718
20
42.440177
11
59.571170
21
42.733149
0
LINE
8
Layer 1
10
59.571170
20
42.733149
11
59.571170
21
42.733149
0
LINE
8
Layer 1
10
48.824444
20
42.847060
11
48.514100
21
43.126727
0
LINE
8
Layer 1
10
48.514100
20
43.126727
11
48.362418
21
43.529741
0
LINE
8
Layer 1
10
48.362418
20
43.529741
11
48.408636
21
43.830953
0
LINE
8
Layer 1
10
48.408636
20
43.830953
11
48.574085
21
43.865862
0
LINE
8
Layer 1
10
48.574085
20
43.865862
11
48.750902
21
43.844379
0
LINE
8
Layer 1
10
48.750902
20
43.844379
11
48.824444
21
44.010010
0
LINE
8
Layer 1
10
48.824444
20
44.010010
11
48.724961
21
44.221093
0
LINE
8
Layer 1
10
48.724961
20
44.221093
11
48.485778
21
44.308889
0
LINE
8
Layer 1
10
48.485778
20
44.308889
11
48.288223
21
44.379445
0
LINE
8
Layer 1
10
48.288223
20
44.379445
11
48.485778
21
44.647556
0
LINE
8
Layer 1
10
48.485778
20
44.647556
11
48.807659
21
45.215515
0
LINE
8
Layer 1
10
48.807659
20
45.215515
11
48.694446
21
45.379124
0
LINE
8
Layer 1
10
48.694446
20
45.379124
11
48.401111
21
45.437778
0
LINE
8
Layer 1
10
48.401111
20
45.437778
11
48.102132
21
45.562132
0
LINE
8
Layer 1
10
48.102132
20
45.562132
11
47.977778
21
45.861111
0
LINE
8
Layer 1
10
47.977778
20
45.861111
11
47.808115
21
46.163659
0
LINE
8
Layer 1
10
47.808115
20
46.163659
11
47.383138
21
46.284444
0
LINE
8
Layer 1
10
47.383138
20
46.284444
11
46.970040
21
46.385954
0
LINE
8
Layer 1
10
46.970040
20
46.385954
11
46.950949
21
46.707778
0
LINE
8
Layer 1
10
46.950949
20
46.707778
11
46.954602
21
47.017861
0
LINE
8
Layer 1
10
46.954602
20
47.017861
11
46.682265
21
47.131111
0
LINE
8
Layer 1
10
46.682265
20
47.131111
11
46.424638
21
47.206934
0
LINE
8
Layer 1
10
46.424638
20
47.206934
11
46.410657
21
47.389229
0
LINE
8
Layer 1
10
46.410657
20
47.389229
11
46.419178
21
47.613511
0
LINE
8
Layer 1
10
46.419178
20
47.613511
11
46.215647
21
47.790281
0
LINE
8
Layer 1
10
46.215647
20
47.790281
11
46.003983
21
47.908844
0
LINE
8
Layer 1
10
46.003983
20
47.908844
11
46.213889
21
47.955496
0
LINE
8
Layer 1
10
46.213889
20
47.955496
11
46.463038
21
48.139037
0
LINE
8
Layer 1
10
46.463038
20
48.139037
11
46.566667
21
48.549027
0
LINE
8
Layer 1
10
46.566667
20
48.549027
11
46.856826
21
49.374288
0
LINE
8
Layer 1
10
46.856826
20
49.374288
11
47.554444
21
50.556250
0
LINE
8
Layer 1
10
47.554444
20
50.556250
11
48.292304
21
51.839991
0
LINE
8
Layer 1
10
48.292304
20
51.839991
11
48.516996
21
52.944040
0
LINE
8
Layer 1
10
48.516996
20
52.944040
11
48.222018
21
54.075184
0
LINE
8
Layer 1
10
48.222018
20
54.075184
11
47.400868
21
55.440207
0
LINE
8
Layer 1
10
47.400868
20
55.440207
11
46.512108
21
56.872132
0
LINE
8
Layer 1
10
46.512108
20
56.872132
11
46.512343
21
57.188122
0
LINE
8
Layer 1
10
46.512343
20
57.188122
11
46.746919
21
57.425943
0
LINE
8
Layer 1
10
46.746919
20
57.425943
11
47.420095
21
57.672786
0
LINE
8
Layer 1
10
47.420095
20
57.672786
11
48.680385
21
57.902883
0
LINE
8
Layer 1
10
48.680385
20
57.902883
11
52.506183
21
58.247754
0
LINE
8
Layer 1
10
52.506183
20
58.247754
11
54.128961
21
58.525447
0
LINE
8
Layer 1
10
54.128961
20
58.525447
11
54.369035
21
58.596706
0
LINE
8
Layer 1
10
54.369035
20
58.596706
11
54.468889
21
58.473015
0
LINE
8
Layer 1
10
54.468889
20
58.473015
11
54.806261
21
58.244809
0
LINE
8
Layer 1
10
54.806261
20
58.244809
11
55.868316
21
58.045057
0
LINE
8
Layer 1
10
55.868316
20
58.045057
11
60.466111
21
57.691889
0
LINE
8
Layer 1
10
60.466111
20
57.691889
11
63.036855
21
57.628298
0
LINE
8
Layer 1
10
63.036855
20
57.628298
11
63.606338
21
57.699395
0
LINE
8
Layer 1
10
63.606338
20
57.699395
11
63.782222
21
57.842898
0
LINE
8
Layer 1
10
63.782222
20
57.842898
11
63.709682
21
58.029850
0
LINE
8
Layer 1
10
63.709682
20
58.029850
11
63.535278
21
58.018468
0
LINE
8
Layer 1
10
63.535278
20
58.018468
11
63.360873
21
58.118100
0
LINE
8
Layer 1
10
63.360873
20
58.118100
11
63.288333
21
58.571954
0
LINE
8
Layer 1
10
63.288333
20
58.571954
11
63.354125
21
59.056070
0
LINE
8
Layer 1
10
63.354125
20
59.056070
11
63.605833
21
58.912879
0
LINE
8
Layer 1
10
63.605833
20
58.912879
11
64.542185
21
58.031388
0
LINE
8
Layer 1
10
64.542185
20
58.031388
11
65.070678
21
57.671017
0
LINE
8
Layer 1
10
65.070678
20
57.671017
11
65.088959
21
58.191143
0
LINE
8
Layer 1
10
65.088959
20
58.191143
11
64.794624
21
59.226825
0
LINE
8
Layer 1
10
64.794624
20
59.226825
11
64.671183
21
59.660632
0
LINE
8
Layer 1
10
64.671183
20
59.660632
11
65.477315
21
59.527105
0
LINE
8
Layer 1
10
65.477315
20
59.527105
11
67.003161
21
59.026160
0
LINE
8
Layer 1
10
67.003161
20
59.026160
11
68.481459
21
58.436372
0
LINE
8
Layer 1
10
68.481459
20
58.436372
11
69.144950
21
58.036313
0
LINE
8
Layer 1
10
69.144950
20
58.036313
11
69.518354
21
57.573314
0
LINE
8
Layer 1
10
69.518354
20
57.573314
11
70.415410
21
56.912129
0
LINE
8
Layer 1
10
70.415410
20
56.912129
11
71.286908
21
56.239144
0
LINE
8
Layer 1
10
71.286908
20
56.239144
11
71.489618
21
55.783240
0
LINE
8
Layer 1
10
71.489618
20
55.783240
11
71.427135
21
55.601524
0
LINE
8
Layer 1
10
71.427135
20
55.601524
11
71.701654
21
55.786136
0
LINE
8
Layer 1
10
71.701654
20
55.786136
11
72.172257
21
55.963391
0
LINE
8
Layer 1
10
72.172257
20
55.963391
11
72.814163
21
55.725579
0
LINE
8
Layer 1
10
72.814163
20
55.725579
11
73.920000
21
55.325558
0
LINE
8
Layer 1
10
73.920000
20
55.325558
11
74.776412
21
54.903514
0
LINE
8
Layer 1
10
74.776412
20
54.903514
11
75.443087
21
54.588468
0
LINE
8
Layer 1
10
75.443087
20
54.588468
11
76.406587
21
54.409625
0
LINE
8
Layer 1
10
76.406587
20
54.409625
11
77.338035
21
54.231828
0
LINE
8
Layer 1
10
77.338035
20
54.231828
11
77.710975
21
53.833889
0
LINE
8
Layer 1
10
77.710975
20
53.833889
11
77.727304
21
53.485080
0
LINE
8
Layer 1
10
77.727304
20
53.485080
11
77.584689
21
53.340000
0
LINE
8
Layer 1
10
77.584689
20
53.340000
11
77.404030
21
53.420379
0
LINE
8
Layer 1
10
77.404030
20
53.420379
11
77.328889
21
53.613629
0
LINE
8
Layer 1
10
77.328889
20
53.613629
11
77.037012
21
53.795906
0
LINE
8
Layer 1
10
77.037012
20
53.795906
11
76.335266
21
53.849902
0
LINE
8
Layer 1
10
76.335266
20
53.849902
11
75.510690
21
53.944684
0
LINE
8
Layer 1
10
75.510690
20
53.944684
11
74.994711
21
54.280681
0
LINE
8
Layer 1
10
74.994711
20
54.280681
11
74.576536
21
54.603804
0
LINE
8
Layer 1
10
74.576536
20
54.603804
11
73.871667
21
54.343365
0
LINE
8
Layer 1
10
73.871667
20
54.343365
11
73.242620
21
54.087335
0
LINE
8
Layer 1
10
73.242620
20
54.087335
11
73.095556
21
54.320996
0
LINE
8
Layer 1
10
73.095556
20
54.320996
11
73.199184
21
54.633360
0
LINE
8
Layer 1
10
73.199184
20
54.633360
11
73.448333
21
54.846423
0
LINE
8
Layer 1
10
73.448333
20
54.846423
11
73.459835
21
54.953501
0
LINE
8
Layer 1
10
73.459835
20
54.953501
11
72.992099
21
55.011052
0
LINE
8
Layer 1
10
72.992099
20
55.011052
11
72.341640
21
54.910109
0
LINE
8
Layer 1
10
72.341640
20
54.910109
11
72.319250
21
54.321041
0
LINE
8
Layer 1
10
72.319250
20
54.321041
11
72.343631
21
53.773621
0
LINE
8
Layer 1
10
72.343631
20
53.773621
11
72.211040
21
53.457721
0
LINE
8
Layer 1
10
72.211040
20
53.457721
11
72.037182
21
53.542477
0
LINE
8
Layer 1
10
72.037182
20
53.542477
11
71.962346
21
53.958343
0
LINE
8
Layer 1
10
71.962346
20
53.958343
11
71.658028
21
55.033333
0
LINE
8
Layer 1
10
71.658028
20
55.033333
11
71.446217
21
55.206600
0
LINE
8
Layer 1
10
71.446217
20
55.206600
11
71.483389
21
54.673819
0
LINE
8
Layer 1
10
71.483389
20
54.673819
11
71.500139
21
54.076569
0
LINE
8
Layer 1
10
71.500139
20
54.076569
11
71.364373
21
53.739943
0
LINE
8
Layer 1
10
71.364373
20
53.739943
11
71.191785
21
53.765440
0
LINE
8
Layer 1
10
71.191785
20
53.765440
11
71.120000
21
54.038830
0
LINE
8
Layer 1
10
71.120000
20
54.038830
11
71.009654
21
54.338746
0
LINE
8
Layer 1
10
71.009654
20
54.338746
11
70.574109
21
54.196595
0
LINE
8
Layer 1
10
70.574109
20
54.196595
11
69.864947
21
53.930478
0
LINE
8
Layer 1
10
69.864947
20
53.930478
11
69.740372
21
54.054831
0
LINE
8
Layer 1
10
69.740372
20
54.054831
11
69.708889
21
54.362333
0
LINE
8
Layer 1
10
69.708889
20
54.362333
11
69.628408
21
54.656132
0
LINE
8
Layer 1
10
69.628408
20
54.656132
11
69.330144
21
54.505894
0
LINE
8
Layer 1
10
69.330144
20
54.505894
11
69.005970
21
54.340584
0
LINE
8
Layer 1
10
69.005970
20
54.340584
11
68.758427
21
54.384535
0
LINE
8
Layer 1
10
68.758427
20
54.384535
11
68.006282
21
54.662843
0
LINE
8
Layer 1
10
68.006282
20
54.662843
11
65.701582
21
55.457451
0
LINE
8
Layer 1
10
65.701582
20
55.457451
11
64.551992
21
55.857679
0
LINE
8
Layer 1
10
64.551992
20
55.857679
11
63.851312
21
55.925828
0
LINE
8
Layer 1
10
63.851312
20
55.925828
11
63.560606
21
55.653897
0
LINE
8
Layer 1
10
63.560606
20
55.653897
11
63.640936
21
55.033881
0
LINE
8
Layer 1
10
63.640936
20
55.033881
11
64.313729
21
54.021305
0
LINE
8
Layer 1
10
64.313729
20
54.021305
11
65.554858
21
52.706826
0
LINE
8
Layer 1
10
65.554858
20
52.706826
11
66.867298
21
51.567959
0
LINE
8
Layer 1
10
66.867298
20
51.567959
11
67.754026
21
51.082222
0
LINE
8
Layer 1
10
67.754026
20
51.082222
11
68.175267
21
50.963898
0
LINE
8
Layer 1
10
68.175267
20
50.963898
11
68.244675
21
50.591573
0
LINE
8
Layer 1
10
68.244675
20
50.591573
11
68.015774
21
50.178999
0
LINE
8
Layer 1
10
68.015774
20
50.178999
11
67.630850
21
50.005065
0
LINE
8
Layer 1
10
67.630850
20
50.005065
11
67.238647
21
50.087319
0
LINE
8
Layer 1
10
67.238647
20
50.087319
11
66.987914
21
50.443308
0
LINE
8
Layer 1
10
66.987914
20
50.443308
11
65.975096
21
51.518139
0
LINE
8
Layer 1
10
65.975096
20
51.518139
11
63.839274
21
53.248560
0
LINE
8
Layer 1
10
63.839274
20
53.248560
11
61.539758
21
54.902562
0
LINE
8
Layer 1
10
61.539758
20
54.902562
11
60.035861
21
55.748134
0
LINE
8
Layer 1
10
60.035861
20
55.748134
11
59.459083
21
55.817062
0
LINE
8
Layer 1
10
59.459083
20
55.817062
11
59.320485
21
55.596596
0
LINE
8
Layer 1
10
59.320485
20
55.596596
11
59.629777
21
55.042684
0
LINE
8
Layer 1
10
59.629777
20
55.042684
11
60.396670
21
54.111274
0
LINE
8
Layer 1
10
60.396670
20
54.111274
11
61.187539
21
53.044798
0
LINE
8
Layer 1
10
61.187539
20
53.044798
11
61.354253
21
52.378206
0
LINE
8
Layer 1
10
61.354253
20
52.378206
11
61.305452
21
52.067434
0
LINE
8
Layer 1
10
61.305452
20
52.067434
11
61.437624
21
51.943658
0
LINE
8
Layer 1
10
61.437624
20
51.943658
11
62.064163
21
52.281667
0
LINE
8
Layer 1
10
62.064163
20
52.281667
11
62.325441
21
52.442750
0
LINE
8
Layer 1
10
62.325441
20
52.442750
11
62.242703
21
51.999444
0
LINE
8
Layer 1
10
62.242703
20
51.999444
11
62.188372
21
51.518318
0
LINE
8
Layer 1
10
62.188372
20
51.518318
11
62.422648
21
51.360124
0
LINE
8
Layer 1
10
62.422648
20
51.360124
11
62.615954
21
51.295359
0
LINE
8
Layer 1
10
62.615954
20
51.295359
11
62.371111
21
51.082222
0
LINE
8
Layer 1
10
62.371111
20
51.082222
11
61.722731
21
50.824397
0
LINE
8
Layer 1
10
61.722731
20
50.824397
11
61.572343
21
50.940934
0
LINE
8
Layer 1
10
61.572343
20
50.940934
11
61.524444
21
51.223333
0
LINE
8
Layer 1
10
61.524444
20
51.223333
11
61.400090
21
51.522312
0
LINE
8
Layer 1
10
61.400090
20
51.522312
11
61.101111
21
51.646667
0
LINE
8
Layer 1
10
61.101111
20
51.646667
11
60.802132
21
51.558871
0
LINE
8
Layer 1
10
60.802132
20
51.558871
11
60.677778
21
51.347788
0
LINE
8
Layer 1
10
60.677778
20
51.347788
11
60.760681
21
51.187942
0
LINE
8
Layer 1
10
60.760681
20
51.187942
11
60.960000
21
51.223333
0
LINE
8
Layer 1
10
60.960000
20
51.223333
11
61.159319
21
51.258962
0
LINE
8
Layer 1
10
61.159319
20
51.258962
11
61.242222
21
51.099686
0
LINE
8
Layer 1
10
61.242222
20
51.099686
11
60.972788
21
50.776626
0
LINE
8
Layer 1
10
60.972788
20
50.776626
11
60.325000
21
50.418472
0
LINE
8
Layer 1
10
60.325000
20
50.418472
11
59.498919
21
50.176582
0
LINE
8
Layer 1
10
59.498919
20
50.176582
11
58.984444
21
50.417637
0
LINE
8
Layer 1
10
58.984444
20
50.417637
11
56.738125
21
52.481246
0
LINE
8
Layer 1
10
56.738125
20
52.481246
11
55.405822
21
53.623099
0
LINE
8
Layer 1
10
55.405822
20
53.623099
11
54.762569
21
54.007430
0
LINE
8
Layer 1
10
54.762569
20
54.007430
11
55.341013
21
53.248597
0
LINE
8
Layer 1
10
55.341013
20
53.248597
11
56.945987
21
51.641987
0
LINE
8
Layer 1
10
56.945987
20
51.641987
11
58.517707
21
50.032695
0
LINE
8
Layer 1
10
58.517707
20
50.032695
11
59.016203
21
49.267406
0
LINE
8
Layer 1
10
59.016203
20
49.267406
11
58.786515
21
49.255545
0
LINE
8
Layer 1
10
58.786515
20
49.255545
11
58.607497
21
49.457686
0
LINE
8
Layer 1
10
58.607497
20
49.457686
11
58.493850
21
49.622742
0
LINE
8
Layer 1
10
58.493850
20
49.622742
11
58.442281
21
49.386222
0
LINE
8
Layer 1
10
58.442281
20
49.386222
11
58.590035
21
48.983258
0
LINE
8
Layer 1
10
58.590035
20
48.983258
11
58.976559
21
48.612642
0
LINE
8
Layer 1
10
58.976559
20
48.612642
11
59.326720
21
48.255351
0
LINE
8
Layer 1
10
59.326720
20
48.255351
11
59.387049
21
47.884416
0
LINE
8
Layer 1
10
59.387049
20
47.884416
11
59.412014
21
47.509245
0
LINE
8
Layer 1
10
59.412014
20
47.509245
11
59.677156
21
47.141771
0
LINE
8
Layer 1
10
59.677156
20
47.141771
11
60.113333
21
46.521116
0
LINE
8
Layer 1
10
60.113333
20
46.521116
11
59.931791
21
46.507570
0
LINE
8
Layer 1
10
59.931791
20
46.507570
11
59.495315
21
46.838227
0
LINE
8
Layer 1
10
59.495315
20
46.838227
11
58.877299
21
47.413999
0
LINE
8
Layer 1
10
58.877299
20
47.413999
11
58.521163
21
46.567000
0
LINE
8
Layer 1
10
58.521163
20
46.567000
11
58.204084
21
45.941485
0
LINE
8
Layer 1
10
58.204084
20
45.941485
11
57.985108
21
45.752220
0
LINE
8
Layer 1
10
57.985108
20
45.752220
11
57.896174
21
45.993780
0
LINE
8
Layer 1
10
57.896174
20
45.993780
11
57.969223
21
46.660740
0
LINE
8
Layer 1
10
57.969223
20
46.660740
11
58.020028
21
47.389122
0
LINE
8
Layer 1
10
58.020028
20
47.389122
11
57.765445
21
47.601482
0
LINE
8
Layer 1
10
57.765445
20
47.601482
11
57.502271
21
47.350471
0
LINE
8
Layer 1
10
57.502271
20
47.350471
11
57.380238
21
46.759783
0
LINE
8
Layer 1
10
57.380238
20
46.759783
11
57.415824
21
46.072939
0
LINE
8
Layer 1
10
57.415824
20
46.072939
11
57.625508
21
45.533460
0
LINE
8
Layer 1
10
57.625508
20
45.533460
11
57.727607
21
45.239075
0
LINE
8
Layer 1
10
57.727607
20
45.239075
11
57.555483
21
45.003412
0
LINE
8
Layer 1
10
57.555483
20
45.003412
11
57.260014
21
44.977105
0
LINE
8
Layer 1
10
57.260014
20
44.977105
11
56.995016
21
45.185996
0
LINE
8
Layer 1
10
56.995016
20
45.185996
11
56.835473
21
45.532065
0
LINE
8
Layer 1
10
56.835473
20
45.532065
11
56.856370
21
45.917293
0
LINE
8
Layer 1
10
56.856370
20
45.917293
11
56.832707
21
46.118612
0
LINE
8
Layer 1
10
56.832707
20
46.118612
11
56.571182
21
46.098765
0
LINE
8
Layer 1
10
56.571182
20
46.098765
11
56.299537
21
45.847838
0
LINE
8
Layer 1
10
56.299537
20
45.847838
11
56.172944
21
45.453461
0
LINE
8
Layer 1
10
56.172944
20
45.453461
11
56.208569
21
45.063619
0
LINE
8
Layer 1
10
56.208569
20
45.063619
11
56.423577
21
44.826295
0
LINE
8
Layer 1
10
56.423577
20
44.826295
11
56.663275
21
44.537665
0
LINE
8
Layer 1
10
56.663275
20
44.537665
11
56.872559
21
43.975827
0
LINE
8
Layer 1
10
56.872559
20
43.975827
11
56.927776
21
43.373266
0
LINE
8
Layer 1
10
56.927776
20
43.373266
11
56.462176
21
43.375811
0
LINE
8
Layer 1
10
56.462176
20
43.375811
11
56.031050
21
43.625706
0
LINE
8
Layer 1
10
56.031050
20
43.625706
11
56.053905
21
44.129994
0
LINE
8
Layer 1
10
56.053905
20
44.129994
11
56.133906
21
44.563580
0
LINE
8
Layer 1
10
56.133906
20
44.563580
11
55.772778
21
44.337015
0
LINE
8
Layer 1
10
55.772778
20
44.337015
11
55.381198
21
44.107598
0
LINE
8
Layer 1
10
55.381198
20
44.107598
11
55.139427
21
44.131005
0
LINE
8
Layer 1
10
55.139427
20
44.131005
11
55.101846
21
44.358411
0
LINE
8
Layer 1
10
55.101846
20
44.358411
11
55.322834
21
44.740991
0
LINE
8
Layer 1
10
55.322834
20
44.740991
11
55.505878
21
45.056253
0
LINE
8
Layer 1
10
55.505878
20
45.056253
11
54.919849
21
44.834570
0
LINE
8
Layer 1
10
54.919849
20
44.834570
11
54.146927
21
44.482402
0
LINE
8
Layer 1
10
54.146927
20
44.482402
11
54.765640
21
44.015708
0
LINE
8
Layer 1
10
54.765640
20
44.015708
11
55.216762
21
43.588255
0
LINE
8
Layer 1
10
55.216762
20
43.588255
11
54.863512
21
43.349144
0
LINE
8
Layer 1
10
54.863512
20
43.349144
11
54.383153
21
43.323828
0
LINE
8
Layer 1
10
54.383153
20
43.323828
11
53.982445
21
43.641913
0
LINE
8
Layer 1
10
53.982445
20
43.641913
11
53.677670
21
43.963533
0
LINE
8
Layer 1
10
53.677670
20
43.963533
11
53.622222
21
43.516163
0
LINE
8
Layer 1
10
53.622222
20
43.516163
11
53.548896
21
43.071980
0
LINE
8
Layer 1
10
53.548896
20
43.071980
11
53.372458
21
42.915353
0
LINE
8
Layer 1
10
53.372458
20
42.915353
11
53.158219
21
43.049961
0
LINE
8
Layer 1
10
53.158219
20
43.049961
11
52.971488
21
43.479486
0
LINE
8
Layer 1
10
52.971488
20
43.479486
11
52.969098
21
43.945515
0
LINE
8
Layer 1
10
52.969098
20
43.945515
11
53.220795
21
44.215236
0
LINE
8
Layer 1
10
53.220795
20
44.215236
11
53.504303
21
44.451099
0
LINE
8
Layer 1
10
53.504303
20
44.451099
11
53.622222
21
44.801861
0
LINE
8
Layer 1
10
53.622222
20
44.801861
11
53.767302
21
45.217501
0
LINE
8
Layer 1
10
53.767302
20
45.217501
11
54.116111
21
45.609355
0
LINE
8
Layer 1
10
54.116111
20
45.609355
11
54.463273
21
45.929301
0
LINE
8
Layer 1
10
54.463273
20
45.929301
11
54.127106
21
45.993248
0
LINE
8
Layer 1
10
54.127106
20
45.993248
11
53.613315
21
45.814166
0
LINE
8
Layer 1
10
53.613315
20
45.814166
11
53.056141
21
45.371004
0
LINE
8
Layer 1
10
53.056141
20
45.371004
11
52.670695
21
45.033046
0
LINE
8
Layer 1
10
52.670695
20
45.033046
11
52.371222
21
44.988610
0
LINE
8
Layer 1
10
52.371222
20
44.988610
11
52.107085
21
45.257898
0
LINE
8
Layer 1
10
52.107085
20
45.257898
11
51.827644
21
45.861111
0
LINE
8
Layer 1
10
51.827644
20
45.861111
11
51.606897
21
46.009448
0
LINE
8
Layer 1
10
51.606897
20
46.009448
11
51.319369
21
45.745946
0
LINE
8
Layer 1
10
51.319369
20
45.745946
11
51.058077
21
45.206669
0
LINE
8
Layer 1
10
51.058077
20
45.206669
11
50.916041
21
44.527679
0
LINE
8
Layer 1
10
50.916041
20
44.527679
11
50.824251
21
43.391667
0
LINE
8
Layer 1
10
50.824251
20
43.391667
11
50.501121
21
43.180000
0
LINE
8
Layer 1
10
50.501121
20
43.180000
11
50.340689
21
43.261954
0
LINE
8
Layer 1
10
50.340689
20
43.261954
11
50.374669
21
43.458991
0
LINE
8
Layer 1
10
50.374669
20
43.458991
11
50.368176
21
43.609723
0
LINE
8
Layer 1
10
50.368176
20
43.609723
11
50.080618
21
43.558976
0
LINE
8
Layer 1
10
50.080618
20
43.558976
11
49.669173
21
43.545980
0
LINE
8
Layer 1
10
49.669173
20
43.545980
11
49.337578
21
43.773875
0
LINE
8
Layer 1
10
49.337578
20
43.773875
11
49.165087
21
43.894681
0
LINE
8
Layer 1
10
49.165087
20
43.894681
11
49.230328
21
43.391667
0
LINE
8
Layer 1
10
49.230328
20
43.391667
11
49.323710
21
42.635393
0
LINE
8
Layer 1
10
49.323710
20
42.635393
11
48.824444
21
42.847060
0
LINE
8
Layer 1
10
48.824444
20
42.847060
11
48.824444
21
42.847060
0
LINE
8
Layer 1
10
49.613631
20
45.424942
11
49.167566
21
45.848934
0
LINE
8
Layer 1
10
49.167566
20
45.848934
11
49.106135
21
45.693910
0
LINE
8
Layer 1
10
49.106135
20
45.693910
11
49.204056
21
45.308839
0
LINE
8
Layer 1
10
49.204056
20
45.308839
11
49.408290
21
45.001263
0
LINE
8
Layer 1
10
49.408290
20
45.001263
11
49.664645
21
44.873333
0
LINE
8
Layer 1
10
49.664645
20
44.873333
11
49.790556
21
45.018215
0
LINE
8
Layer 1
10
49.790556
20
45.018215
11
49.613631
21
45.424942
0
LINE
8
Layer 1
10
49.613631
20
45.424942
11
49.613631
21
45.424942
0
LINE
8
Layer 1
10
60.677778
20
52.343366
11
60.562982
21
52.600964
0
LINE
8
Layer 1
10
60.562982
20
52.600964
11
60.256064
21
52.596014
0
LINE
8
Layer 1
10
60.256064
20
52.596014
11
60.004099
21
52.407508
0
LINE
8
Layer 1
10
60.004099
20
52.407508
11
59.990499
21
52.181540
0
LINE
8
Layer 1
10
59.990499
20
52.181540
11
60.201783
21
51.974527
0
LINE
8
Layer 1
10
60.201783
20
51.974527
11
60.426491
21
51.941850
0
LINE
8
Layer 1
10
60.426491
20
51.941850
11
60.605023
21
52.069474
0
LINE
8
Layer 1
10
60.605023
20
52.069474
11
60.677778
21
52.343366
0
LINE
8
Layer 1
10
60.677778
20
52.343366
11
60.677778
21
52.343366
0
LINE
8
Layer 1
10
67.874444
20
57.855556
11
67.822040
21
58.054875
0
LINE
8
Layer 1
10
67.822040
20
58.054875
11
67.451111
21
58.137778
0
LINE
8
Layer 1
10
67.451111
20
58.137778
11
67.080182
21
58.054875
0
LINE
8
Layer 1
10
67.080182
20
58.054875
11
67.027778
21
57.855556
0
LINE
8
Layer 1
10
67.027778
20
57.855556
11
67.451111
21
57.573333
0
LINE
8
Layer 1
10
67.451111
20
57.573333
11
67.874444
21
57.855556
0
LINE
8
Layer 1
10
67.874444
20
57.855556
11
67.874444
21
57.855556
0
LINE
8
Layer 1
10
68.862222
20
58.013323
11
68.580000
21
58.137778
0
LINE
8
Layer 1
10
68.580000
20
58.137778
11
68.380681
21
58.049982
0
LINE
8
Layer 1
10
68.380681
20
58.049982
11
68.297778
21
57.838899
0
LINE
8
Layer 1
10
68.297778
20
57.838899
11
68.380681
21
57.679053
0
LINE
8
Layer 1
10
68.380681
20
57.679053
11
68.580000
21
57.714444
0
LINE
8
Layer 1
10
68.580000
20
57.714444
11
68.862222
21
58.013323
0
LINE
8
Layer 1
10
68.862222
20
58.013323
11
68.862222
21
58.013323
0
LINE
8
Layer 1
10
45.437778
20
43.885556
11
45.520681
21
44.184535
0
LINE
8
Layer 1
10
45.520681
20
44.184535
11
45.720000
21
44.308889
0
LINE
8
Layer 1
10
45.720000
20
44.308889
11
45.919319
21
44.184535
0
LINE
8
Layer 1
10
45.919319
20
44.184535
11
46.002222
21
43.885556
0
LINE
8
Layer 1
10
46.002222
20
43.885556
11
45.919319
21
43.586576
0
LINE
8
Layer 1
10
45.919319
20
43.586576
11
45.720000
21
43.462222
0
LINE
8
Layer 1
10
45.720000
20
43.462222
11
45.520681
21
43.586576
0
LINE
8
Layer 1
10
45.520681
20
43.586576
11
45.437778
21
43.885556
0
LINE
8
Layer 1
10
45.437778
20
43.885556
11
45.437778
21
43.885556
0
LINE
8
Layer 1
10
58.420000
20
44.026667
11
58.544454
21
44.308889
0
LINE
8
Layer 1
10
58.544454
20
44.308889
11
58.843333
21
44.026667
0
LINE
8
Layer 1
10
58.843333
20
44.026667
11
58.878725
21
43.827347
0
LINE
8
Layer 1
10
58.878725
20
43.827347
11
58.718879
21
43.744444
0
LINE
8
Layer 1
10
58.718879
20
43.744444
11
58.507796
21
43.827347
0
LINE
8
Layer 1
10
58.507796
20
43.827347
11
58.420000
21
44.026667
0
LINE
8
Layer 1
10
58.420000
20
44.026667
11
58.420000
21
44.026667
0
LINE
8
Layer 1
10
46.927039
20
45.237849
11
46.779180
21
45.770669
0
LINE
8
Layer 1
10
46.779180
20
45.770669
11
47.114689
21
45.923386
0
LINE
8
Layer 1
10
47.114689
20
45.923386
11
47.463156
21
45.811726
0
LINE
8
Layer 1
10
47.463156
20
45.811726
11
47.558503
21
45.422318
0
LINE
8
Layer 1
10
47.558503
20
45.422318
11
47.342055
21
44.751506
0
LINE
8
Layer 1
10
47.342055
20
44.751506
11
47.154555
21
44.848627
0
LINE
8
Layer 1
10
47.154555
20
44.848627
11
46.927039
21
45.237849
0
LINE
8
Layer 1
10
46.927039
20
45.237849
11
46.927039
21
45.237849
0
LINE
8
Layer 1
10
58.420000
20
44.873333
11
58.544354
21
45.072653
0
LINE
8
Layer 1
10
58.544354
20
45.072653
11
58.843333
21
45.155556
0
LINE
8
Layer 1
10
58.843333
20
45.155556
11
59.142312
21
45.072653
0
LINE
8
Layer 1
10
59.142312
20
45.072653
11
59.266667
21
44.873333
0
LINE
8
Layer 1
10
59.266667
20
44.873333
11
59.142312
21
44.674014
0
LINE
8
Layer 1
10
59.142312
20
44.674014
11
58.843333
21
44.591111
0
LINE
8
Layer 1
10
58.843333
20
44.591111
11
58.544354
21
44.674014
0
LINE
8
Layer 1
10
58.544354
20
44.674014
11
58.420000
21
44.873333
0
LINE
8
Layer 1
10
58.420000
20
44.873333
11
58.420000
21
44.873333
0
LINE
8
Layer 1
10
59.831111
20
45.421121
11
59.914014
21
45.632204
0
LINE
8
Layer 1
10
59.914014
20
45.632204
11
60.113333
21
45.720000
0
LINE
8
Layer 1
10
60.113333
20
45.720000
11
60.395556
21
45.595546
0
LINE
8
Layer 1
10
60.395556
20
45.595546
11
60.113333
21
45.296667
0
LINE
8
Layer 1
10
60.113333
20
45.296667
11
59.914014
21
45.261275
0
LINE
8
Layer 1
10
59.914014
20
45.261275
11
59.831111
21
45.421121
0
LINE
8
Layer 1
10
59.831111
20
45.421121
11
59.831111
21
45.421121
0
LINE
8
Layer 1
10
58.420000
20
45.562232
11
58.702222
21
45.861111
0
LINE
8
Layer 1
10
58.702222
20
45.861111
11
58.901542
21
45.896502
0
LINE
8
Layer 1
10
58.901542
20
45.896502
11
58.984444
21
45.736657
0
LINE
8
Layer 1
10
58.984444
20
45.736657
11
58.901542
21
45.525574
0
LINE
8
Layer 1
10
58.901542
20
45.525574
11
58.702222
21
45.437778
0
LINE
8
Layer 1
10
58.702222
20
45.437778
11
58.420000
21
45.562232
0
LINE
8
Layer 1
10
58.420000
20
45.562232
11
58.420000
21
45.562232
0
LINE
8
Layer 1
10
60.591787
20
46.300573
11
60.546294
21
46.705486
0
LINE
8
Layer 1
10
60.546294
20
46.705486
11
60.841091
21
46.548240
0
LINE
8
Layer 1
10
60.841091
20
46.548240
11
61.228117
21
45.994391
0
LINE
8
Layer 1
10
61.228117
20
45.994391
11
61.192923
21
45.797014
0
LINE
8
Layer 1
10
61.192923
20
45.797014
11
60.992916
21
45.720000
0
LINE
8
Layer 1
10
60.992916
20
45.720000
11
60.772245
21
45.890544
0
LINE
8
Layer 1
10
60.772245
20
45.890544
11
60.591787
21
46.300573
0
LINE
8
Layer 1
10
60.591787
20
46.300573
11
60.591787
21
46.300573
0
LINE
8
Layer 1
10
64.933393
20
46.402038
11
64.967743
21
46.733979
0
LINE
8
Layer 1
10
64.967743
20
46.733979
11
65.081621
21
46.772455
0
LINE
8
Layer 1
10
65.081621
20
46.772455
11
65.103900
21
46.231528
0
LINE
8
Layer 1
10
65.103900
20
46.231528
11
64.989940
21
46.109066
0
LINE
8
Layer 1
10
64.989940
20
46.109066
11
64.933393
21
46.402038
0
LINE
8
Layer 1
10
64.933393
20
46.402038
11
64.933393
21
46.402038
0
LINE
8
Layer 1
10
81.638656
20
47.301621
11
82.179583
21
47.323900
0
LINE
8
Layer 1
10
82.179583
20
47.323900
11
82.302045
21
47.209940
0
LINE
8
Layer 1
10
82.302045
20
47.209940
11
82.009073
21
47.153393
0
LINE
8
Layer 1
10
82.009073
20
47.153393
11
81.677132
21
47.187744
0
LINE
8
Layer 1
10
81.677132
20
47.187744
11
81.638656
21
47.301621
0
LINE
8
Layer 1
10
81.638656
20
47.301621
11
81.638656
21
47.301621
0
LINE
8
Layer 1
10
80.903705
20
47.601482
11
80.724138
21
48.236482
0
LINE
8
Layer 1
10
80.724138
20
48.236482
11
80.788587
21
48.498615
0
LINE
8
Layer 1
10
80.788587
20
48.498615
11
81.032229
21
48.168278
0
LINE
8
Layer 1
10
81.032229
20
48.168278
11
81.211044
21
47.559791
0
LINE
8
Layer 1
10
81.211044
20
47.559791
11
81.111779
21
47.471297
0
LINE
8
Layer 1
10
81.111779
20
47.471297
11
80.903705
21
47.601482
0
LINE
8
Layer 1
10
80.903705
20
47.601482
11
80.903705
21
47.601482
0
LINE
8
Layer 1
10
63.076667
20
47.977778
11
63.082727
21
48.177097
0
LINE
8
Layer 1
10
63.082727
20
48.177097
11
63.342232
21
48.260000
0
LINE
8
Layer 1
10
63.342232
20
48.260000
11
63.652975
21
48.177097
0
LINE
8
Layer 1
10
63.652975
20
48.177097
11
63.782222
21
47.977778
0
LINE
8
Layer 1
10
63.782222
20
47.977778
11
63.704212
21
47.778458
0
LINE
8
Layer 1
10
63.704212
20
47.778458
11
63.516657
21
47.695556
0
LINE
8
Layer 1
10
63.516657
20
47.695556
11
63.076667
21
47.977778
0
LINE
8
Layer 1
10
63.076667
20
47.977778
11
63.076667
21
47.977778
0
LINE
8
Layer 1
10
17.937378
20
48.515902
11
17.991600
21
48.653244
0
LINE
8
Layer 1
10
17.991600
20
48.653244
11
18.344055
21
48.624098
0
LINE
8
Layer 1
10
18.344055
20
48.624098
11
18.889301
21
48.377426
0
LINE
8
Layer 1
10
18.889301
20
48.377426
11
18.502211
21
48.260000
0
LINE
8
Layer 1
10
18.502211
20
48.260000
11
17.937378
21
48.515902
0
LINE
8
Layer 1
10
17.937378
20
48.515902
11
17.937378
21
48.515902
0
LINE
8
Layer 1
10
61.279419
20
48.747954
11
61.013862
21
49.059503
0
LINE
8
Layer 1
10
61.013862
20
49.059503
11
60.768185
21
49.106667
0
LINE
8
Layer 1
10
60.768185
20
49.106667
11
60.578183
21
49.193538
0
LINE
8
Layer 1
10
60.578183
20
49.193538
11
60.446483
21
49.600556
0
LINE
8
Layer 1
10
60.446483
20
49.600556
11
60.480190
21
50.049234
0
LINE
8
Layer 1
10
60.480190
20
50.049234
11
60.688344
21
50.235556
0
LINE
8
Layer 1
10
60.688344
20
50.235556
11
60.875513
21
50.112196
0
LINE
8
Layer 1
10
60.875513
20
50.112196
11
60.859241
21
49.815609
0
LINE
8
Layer 1
10
60.859241
20
49.815609
11
60.804623
21
49.527842
0
LINE
8
Layer 1
10
60.804623
20
49.527842
11
60.899602
21
49.425696
0
LINE
8
Layer 1
10
60.899602
20
49.425696
11
61.747035
21
49.373577
0
LINE
8
Layer 1
10
61.747035
20
49.373577
11
61.997859
21
49.214073
0
LINE
8
Layer 1
10
61.997859
20
49.214073
11
62.088889
21
48.982212
0
LINE
8
Layer 1
10
62.088889
20
48.982212
11
62.005748
21
48.598212
0
LINE
8
Layer 1
10
62.005748
20
48.598212
11
61.799725
21
48.418609
0
LINE
8
Layer 1
10
61.799725
20
48.418609
11
61.535916
21
48.462244
0
LINE
8
Layer 1
10
61.535916
20
48.462244
11
61.279419
21
48.747954
0
LINE
8
Layer 1
10
61.279419
20
48.747954
11
61.279419
21
48.747954
0
LINE
8
Layer 1
10
79.868889
20
48.542222
11
79.951792
21
48.741542
0
LINE
8
Layer 1
10
79.951792
20
48.741542
11
80.151111
21
48.824444
0
LINE
8
Layer 1
10
80.151111
20
48.824444
11
80.350431
21
48.741542
0
LINE
8
Layer 1
10
80.350431
20
48.741542
11
80.433333
21
48.542222
0
LINE
8
Layer 1
10
80.433333
20
48.542222
11
80.350431
21
48.342903
0
LINE
8
Layer 1
10
80.350431
20
48.342903
11
80.151111
21
48.260000
0
LINE
8
Layer 1
10
80.151111
20
48.260000
11
79.951792
21
48.342903
0
LINE
8
Layer 1
10
79.951792
20
48.342903
11
79.868889
21
48.542222
0
LINE
8
Layer 1
10
79.868889
20
48.542222
11
79.868889
21
48.542222
0
LINE
8
Layer 1
10
59.266667
20
48.807788
11
59.349569
21
49.018871
0
LINE
8
Layer 1
10
59.349569
20
49.018871
11
59.548889
21
49.106667
0
LINE
8
Layer 1
10
59.548889
20
49.106667
11
59.831111
21
48.982212
0
LINE
8
Layer 1
10
59.831111
20
48.982212
11
59.548889
21
48.683333
0
LINE
8
Layer 1
10
59.548889
20
48.683333
11
59.349569
21
48.647942
0
LINE
8
Layer 1
10
59.349569
20
48.647942
11
59.266667
21
48.807788
0
LINE
8
Layer 1
10
59.266667
20
48.807788
11
59.266667
21
48.807788
0
LINE
8
Layer 1
10
78.105000
20
49.016618
11
77.357552
21
49.396207
0
LINE
8
Layer 1
10
77.357552
20
49.396207
11
77.046667
21
49.701295
0
LINE
8
Layer 1
10
77.046667
20
49.701295
11
76.901587
21
49.880364
0
LINE
8
Layer 1
10
76.901587
20
49.880364
11
76.552778
21
49.956966
0
LINE
8
Layer 1
10
76.552778
20
49.956966
11
74.647778
21
50.666119
0
LINE
8
Layer 1
10
74.647778
20
50.666119
11
73.236667
21
51.371644
0
LINE
8
Layer 1
10
73.236667
20
51.371644
11
74.616612
21
51.226934
0
LINE
8
Layer 1
10
74.616612
20
51.226934
11
78.144390
21
51.077901
0
LINE
8
Layer 1
10
78.144390
20
51.077901
11
79.675941
21
51.009041
0
LINE
8
Layer 1
10
79.675941
20
51.009041
11
79.933072
21
50.923117
0
LINE
8
Layer 1
10
79.933072
20
50.923117
11
79.868889
21
50.800000
0
LINE
8
Layer 1
10
79.868889
20
50.800000
11
79.602545
21
50.573720
0
LINE
8
Layer 1
10
79.602545
20
50.573720
11
79.915927
21
50.522099
0
LINE
8
Layer 1
10
79.915927
20
50.522099
11
80.290173
21
50.622676
0
LINE
8
Layer 1
10
80.290173
20
50.622676
11
80.529441
21
50.870556
0
LINE
8
Layer 1
10
80.529441
20
50.870556
11
80.698991
21
51.069260
0
LINE
8
Layer 1
10
80.698991
20
51.069260
11
80.942129
21
50.838622
0
LINE
8
Layer 1
10
80.942129
20
50.838622
11
81.177247
21
50.614653
0
LINE
8
Layer 1
10
81.177247
20
50.614653
11
81.325616
21
50.795733
0
LINE
8
Layer 1
10
81.325616
20
50.795733
11
81.608438
21
51.004102
0
LINE
8
Layer 1
10
81.608438
20
51.004102
11
82.135890
21
51.019160
0
LINE
8
Layer 1
10
82.135890
20
51.019160
11
82.832222
21
50.900767
0
LINE
8
Layer 1
10
82.832222
20
50.900767
11
82.056111
21
50.575145
0
LINE
8
Layer 1
10
82.056111
20
50.575145
11
81.323780
21
50.041774
0
LINE
8
Layer 1
10
81.323780
20
50.041774
11
81.317977
21
49.775406
0
LINE
8
Layer 1
10
81.317977
20
49.775406
11
81.562222
21
49.530000
0
LINE
8
Layer 1
10
81.562222
20
49.530000
11
81.797796
21
49.303882
0
LINE
8
Layer 1
10
81.797796
20
49.303882
11
81.833981
21
49.095798
0
LINE
8
Layer 1
10
81.833981
20
49.095798
11
81.693104
21
48.975732
0
LINE
8
Layer 1
10
81.693104
20
48.975732
11
81.397495
21
49.013669
0
LINE
8
Layer 1
10
81.397495
20
49.013669
11
81.011125
21
49.309800
0
LINE
8
Layer 1
10
81.011125
20
49.309800
11
80.709829
21
49.780924
0
LINE
8
Layer 1
10
80.709829
20
49.780924
11
80.498629
21
50.211427
0
LINE
8
Layer 1
10
80.498629
20
50.211427
11
80.451223
21
49.725010
0
LINE
8
Layer 1
10
80.451223
20
49.725010
11
80.354773
21
49.305801
0
LINE
8
Layer 1
10
80.354773
20
49.305801
11
80.132335
21
49.259383
0
LINE
8
Layer 1
10
80.132335
20
49.259383
11
79.821640
21
49.264242
0
LINE
8
Layer 1
10
79.821640
20
49.264242
11
79.497335
21
49.014693
0
LINE
8
Layer 1
10
79.497335
20
49.014693
11
79.286883
21
48.797580
0
LINE
8
Layer 1
10
79.286883
20
48.797580
11
79.044644
21
48.725446
0
LINE
8
Layer 1
10
79.044644
20
48.725446
11
78.105000
21
49.016618
0
LINE
8
Layer 1
10
78.105000
20
49.016618
11
78.105000
21
49.016618
0
LINE
8
Layer 1
10
82.914098
20
49.382324
11
82.976455
21
50.522830
0
LINE
8
Layer 1
10
82.976455
20
50.522830
11
83.120704
21
50.399965
0
LINE
8
Layer 1
10
83.120704
20
50.399965
11
83.206804
21
49.682727
0
LINE
8
Layer 1
10
83.206804
20
49.682727
11
83.146497
21
48.579261
0
LINE
8
Layer 1
10
83.146497
20
48.579261
11
82.914098
21
49.382324
0
LINE
8
Layer 1
10
82.914098
20
49.382324
11
82.914098
21
49.382324
0
LINE
8
Layer 1
10
82.126667
20
49.687768
11
82.030955
21
49.839697
0
LINE
8
Layer 1
10
82.030955
20
49.839697
11
81.800838
21
49.785273
0
LINE
8
Layer 1
10
81.800838
20
49.785273
11
81.615496
21
49.725757
0
LINE
8
Layer 1
10
81.615496
20
49.725757
11
81.684853
21
49.923432
0
LINE
8
Layer 1
10
81.684853
20
49.923432
11
81.934789
21
50.120349
0
LINE
8
Layer 1
10
81.934789
20
50.120349
11
82.292904
21
49.932480
0
LINE
8
Layer 1
10
82.292904
20
49.932480
11
82.672204
21
49.514402
0
LINE
8
Layer 1
10
82.672204
20
49.514402
11
82.408889
21
49.388889
0
LINE
8
Layer 1
10
82.408889
20
49.388889
11
82.209569
21
49.476685
0
LINE
8
Layer 1
10
82.209569
20
49.476685
11
82.126667
21
49.687768
0
LINE
8
Layer 1
10
82.126667
20
49.687768
11
82.126667
21
49.687768
0
LINE
8
Layer 1
10
83.961111
20
49.671111
11
84.417755
21
49.953333
0
LINE
8
Layer 1
10
84.417755
20
49.953333
11
84.565839
21
49.870431
0
LINE
8
Layer 1
10
84.565839
20
49.870431
11
84.525556
21
49.671111
0
LINE
8
Layer 1
10
84.525556
20
49.671111
11
84.068912
21
49.388889
0
LINE
8
Layer 1
10
84.068912
20
49.388889
11
83.920828
21
49.471792
0
LINE
8
Layer 1
10
83.920828
20
49.471792
11
83.961111
21
49.671111
0
LINE
8
Layer 1
10
83.961111
20
49.671111
11
83.961111
21
49.671111
0
LINE
8
Layer 1
10
61.242222
20
50.235556
11
61.325125
21
50.434875
0
LINE
8
Layer 1
10
61.325125
20
50.434875
11
61.524444
21
50.517778
0
LINE
8
Layer 1
10
61.524444
20
50.517778
11
61.723764
21
50.434875
0
LINE
8
Layer 1
10
61.723764
20
50.434875
11
61.806667
21
50.235556
0
LINE
8
Layer 1
10
61.806667
20
50.235556
11
61.723764
21
50.036236
0
LINE
8
Layer 1
10
61.723764
20
50.036236
11
61.524444
21
49.953333
0
LINE
8
Layer 1
10
61.524444
20
49.953333
11
61.325125
21
50.036236
0
LINE
8
Layer 1
10
61.325125
20
50.036236
11
61.242222
21
50.235556
0
LINE
8
Layer 1
10
61.242222
20
50.235556
11
61.242222
21
50.235556
0
LINE
8
Layer 1
10
22.295556
20
51.055389
11
24.059444
21
53.101500
0
LINE
8
Layer 1
10
24.059444
20
53.101500
11
25.866851
21
54.684065
0
LINE
8
Layer 1
10
25.866851
20
54.684065
11
27.798889
21
55.670492
0
LINE
8
Layer 1
10
27.798889
20
55.670492
11
29.477400
21
56.219510
0
LINE
8
Layer 1
10
29.477400
20
56.219510
11
30.738784
21
56.446603
0
LINE
8
Layer 1
10
30.738784
20
56.446603
11
32.011144
21
56.738828
0
LINE
8
Layer 1
10
32.011144
20
56.738828
11
33.648390
21
57.521476
0
LINE
8
Layer 1
10
33.648390
20
57.521476
11
35.388915
21
58.646777
0
LINE
8
Layer 1
10
35.388915
20
58.646777
11
36.971111
21
59.966962
0
LINE
8
Layer 1
10
36.971111
20
59.966962
11
38.440431
21
61.209628
0
LINE
8
Layer 1
10
38.440431
20
61.209628
11
39.793333
21
62.090667
0
LINE
8
Layer 1
10
39.793333
20
62.090667
11
41.910000
21
63.482926
0
LINE
8
Layer 1
10
41.910000
20
63.482926
11
42.684842
21
64.033927
0
LINE
8
Layer 1
10
42.684842
20
64.033927
11
43.358824
21
64.279156
0
LINE
8
Layer 1
10
43.358824
20
64.279156
11
43.804384
21
64.222226
0
LINE
8
Layer 1
10
43.804384
20
64.222226
11
43.316449
21
63.662106
0
LINE
8
Layer 1
10
43.316449
20
63.662106
11
42.220402
21
62.844310
0
LINE
8
Layer 1
10
42.220402
20
62.844310
11
41.882240
21
62.633544
0
LINE
8
Layer 1
10
41.882240
20
62.633544
11
41.780490
21
62.408233
0
LINE
8
Layer 1
10
41.780490
20
62.408233
11
41.909290
21
62.251233
0
LINE
8
Layer 1
10
41.909290
20
62.251233
11
42.262778
21
62.245398
0
LINE
8
Layer 1
10
42.262778
20
62.245398
11
44.026667
21
62.489760
0
LINE
8
Layer 1
10
44.026667
20
62.489760
11
47.764418
21
62.973718
0
LINE
8
Layer 1
10
47.764418
20
62.973718
11
50.800000
21
63.644599
0
LINE
8
Layer 1
10
50.800000
20
63.644599
11
60.366346
21
65.918331
0
LINE
8
Layer 1
10
60.366346
20
65.918331
11
60.914773
21
66.085164
0
LINE
8
Layer 1
10
60.914773
20
66.085164
11
61.283568
21
66.372466
0
LINE
8
Layer 1
10
61.283568
20
66.372466
11
61.517703
21
66.586225
0
LINE
8
Layer 1
10
61.517703
20
66.586225
11
61.736111
21
66.428233
0
LINE
8
Layer 1
10
61.736111
20
66.428233
11
62.267819
21
66.092561
0
LINE
8
Layer 1
10
62.267819
20
66.092561
11
63.602511
21
65.885325
0
LINE
8
Layer 1
10
63.602511
20
65.885325
11
70.414444
21
65.713359
0
LINE
8
Layer 1
10
70.414444
20
65.713359
11
77.109925
21
65.817495
0
LINE
8
Layer 1
10
77.109925
20
65.817495
11
78.203300
21
66.071051
0
LINE
8
Layer 1
10
78.203300
20
66.071051
11
78.364438
21
66.266190
0
LINE
8
Layer 1
10
78.364438
20
66.266190
11
78.336369
21
66.513755
0
LINE
8
Layer 1
10
78.336369
20
66.513755
11
78.300849
21
66.720730
0
LINE
8
Layer 1
10
78.300849
20
66.720730
11
78.429546
21
66.820179
0
LINE
8
Layer 1
10
78.429546
20
66.820179
11
79.374292
21
66.738703
0
LINE
8
Layer 1
10
79.374292
20
66.738703
11
80.997586
21
66.303724
0
LINE
8
Layer 1
10
80.997586
20
66.303724
11
81.146962
21
66.125102
0
LINE
8
Layer 1
10
81.146962
20
66.125102
11
80.715556
21
66.044476
0
LINE
8
Layer 1
10
80.715556
20
66.044476
11
78.837796
21
65.623333
0
LINE
8
Layer 1
10
78.837796
20
65.623333
11
77.704174
21
65.328949
0
LINE
8
Layer 1
10
77.704174
20
65.328949
11
76.315258
21
65.187904
0
LINE
8
Layer 1
10
76.315258
20
65.187904
11
71.966667
21
65.331667
0
LINE
8
Layer 1
10
71.966667
20
65.331667
11
68.622113
21
65.391144
0
LINE
8
Layer 1
10
68.622113
20
65.391144
11
64.361400
21
65.234651
0
LINE
8
Layer 1
10
64.361400
20
65.234651
11
60.058043
21
64.911149
0
LINE
8
Layer 1
10
60.058043
20
64.911149
11
56.585556
21
64.469594
0
LINE
8
Layer 1
10
56.585556
20
64.469594
11
50.658889
21
63.212746
0
LINE
8
Layer 1
10
50.658889
20
63.212746
11
44.407291
21
61.848201
0
LINE
8
Layer 1
10
44.407291
20
61.848201
11
42.113825
21
61.311333
0
LINE
8
Layer 1
10
42.113825
20
61.311333
11
40.289127
21
60.702586
0
LINE
8
Layer 1
10
40.289127
20
60.702586
11
39.123981
21
60.099301
0
LINE
8
Layer 1
10
39.123981
20
60.099301
11
38.848359
21
59.823876
0
LINE
8
Layer 1
10
38.848359
20
59.823876
11
38.809168
21
59.578819
0
LINE
8
Layer 1
10
38.809168
20
59.578819
11
38.771060
21
59.140678
0
LINE
8
Layer 1
10
38.771060
20
59.140678
11
38.467244
21
58.640246
0
LINE
8
Layer 1
10
38.467244
20
58.640246
11
38.146786
21
58.196367
0
LINE
8
Layer 1
10
38.146786
20
58.196367
11
38.742662
21
58.288324
0
LINE
8
Layer 1
10
38.742662
20
58.288324
11
39.394462
21
58.321470
0
LINE
8
Layer 1
10
39.394462
20
58.321470
11
39.549544
21
57.674485
0
LINE
8
Layer 1
10
39.549544
20
57.674485
11
39.602902
21
57.118081
0
LINE
8
Layer 1
10
39.602902
20
57.118081
11
39.714122
21
57.532070
0
LINE
8
Layer 1
10
39.714122
20
57.532070
11
39.840267
21
58.196361
0
LINE
8
Layer 1
10
39.840267
20
58.196361
11
40.284679
21
57.561875
0
LINE
8
Layer 1
10
40.284679
20
57.561875
11
40.713938
21
57.100057
0
LINE
8
Layer 1
10
40.713938
20
57.100057
11
41.076166
21
57.402044
0
LINE
8
Layer 1
10
41.076166
20
57.402044
11
41.407655
21
57.713437
0
LINE
8
Layer 1
10
41.407655
20
57.713437
11
41.717256
21
57.795572
0
LINE
8
Layer 1
10
41.717256
20
57.795572
11
42.059403
21
57.904082
0
LINE
8
Layer 1
10
42.059403
20
57.904082
11
42.469139
21
58.278889
0
LINE
8
Layer 1
10
42.469139
20
58.278889
11
42.840756
21
58.673594
0
LINE
8
Layer 1
10
42.840756
20
58.673594
11
42.739558
21
58.137778
0
LINE
8
Layer 1
10
42.739558
20
58.137778
11
42.660130
21
57.637153
0
LINE
8
Layer 1
10
42.660130
20
57.637153
11
42.922503
21
57.785000
0
LINE
8
Layer 1
10
42.922503
20
57.785000
11
43.497484
21
58.124642
0
LINE
8
Layer 1
10
43.497484
20
58.124642
11
43.677520
21
58.075414
0
LINE
8
Layer 1
10
43.677520
20
58.075414
11
43.744444
21
57.875582
0
LINE
8
Layer 1
10
43.744444
20
57.875582
11
43.384188
21
57.611583
0
LINE
8
Layer 1
10
43.384188
20
57.611583
11
42.469452
21
57.257771
0
LINE
8
Layer 1
10
42.469452
20
57.257771
11
39.972728
21
56.613933
0
LINE
8
Layer 1
10
39.972728
20
56.613933
11
36.162728
21
55.205466
0
LINE
8
Layer 1
10
36.162728
20
55.205466
11
33.383994
21
54.136372
0
LINE
8
Layer 1
10
33.383994
20
54.136372
11
30.918243
21
53.341885
0
LINE
8
Layer 1
10
30.918243
20
53.341885
11
25.670302
21
51.771477
0
LINE
8
Layer 1
10
25.670302
20
51.771477
11
22.742722
21
50.874727
0
LINE
8
Layer 1
10
22.742722
20
50.874727
11
22.357782
21
50.861933
0
LINE
8
Layer 1
10
22.357782
20
50.861933
11
22.295556
21
51.055389
0
LINE
8
Layer 1
10
22.295556
20
51.055389
11
22.295556
21
51.055389
0
LINE
8
Layer 1
10
27.263843
20
53.545788
11
27.149965
21
53.507312
0
LINE
8
Layer 1
10
27.149965
20
53.507312
11
27.115614
21
53.175371
0
LINE
8
Layer 1
10
27.115614
20
53.175371
11
27.172162
21
52.882399
0
LINE
8
Layer 1
10
27.172162
20
52.882399
11
27.286123
21
53.004861
0
LINE
8
Layer 1
10
27.286123
20
53.004861
11
27.263843
21
53.545788
0
LINE
8
Layer 1
10
27.263843
20
53.545788
11
27.263843
21
53.545788
0
LINE
8
Layer 1
10
27.379593
20
53.904444
11
28.004941
21
53.817446
0
LINE
8
Layer 1
10
28.004941
20
53.817446
11
28.371950
21
53.608280
0
LINE
8
Layer 1
10
28.371950
20
53.608280
11
28.673440
21
53.573741
0
LINE
8
Layer 1
10
28.673440
20
53.573741
11
29.175021
21
53.981141
0
LINE
8
Layer 1
10
29.175021
20
53.981141
11
29.713577
21
54.420088
0
LINE
8
Layer 1
10
29.713577
20
54.420088
11
30.137718
21
54.535945
0
LINE
8
Layer 1
10
30.137718
20
54.535945
11
30.343162
21
54.570035
0
LINE
8
Layer 1
10
30.343162
20
54.570035
11
30.312445
21
54.859369
0
LINE
8
Layer 1
10
30.312445
20
54.859369
11
30.350057
21
55.196636
0
LINE
8
Layer 1
10
30.350057
20
55.196636
11
30.947253
21
55.260646
0
LINE
8
Layer 1
10
30.947253
20
55.260646
11
32.604902
21
55.424248
0
LINE
8
Layer 1
10
32.604902
20
55.424248
11
33.266586
21
55.669047
0
LINE
8
Layer 1
10
33.266586
20
55.669047
11
33.749358
21
56.004595
0
LINE
8
Layer 1
10
33.749358
20
56.004595
11
34.759511
21
56.751381
0
LINE
8
Layer 1
10
34.759511
20
56.751381
11
35.267306
21
57.075606
0
LINE
8
Layer 1
10
35.267306
20
57.075606
11
35.173832
21
57.147688
0
LINE
8
Layer 1
10
35.173832
20
57.147688
11
33.714670
21
56.608243
0
LINE
8
Layer 1
10
33.714670
20
56.608243
11
32.213544
21
56.100384
0
LINE
8
Layer 1
10
32.213544
20
56.100384
11
30.570723
21
55.802801
0
LINE
8
Layer 1
10
30.570723
20
55.802801
11
28.871708
21
55.488530
0
LINE
8
Layer 1
10
28.871708
20
55.488530
11
27.420600
21
54.922874
0
LINE
8
Layer 1
10
27.420600
20
54.922874
11
26.451396
21
54.227729
0
LINE
8
Layer 1
10
26.451396
20
54.227729
11
26.220633
21
53.869691
0
LINE
8
Layer 1
10
26.220633
20
53.869691
11
26.198096
21
53.524991
0
LINE
8
Layer 1
10
26.198096
20
53.524991
11
26.352947
21
53.122789
0
LINE
8
Layer 1
10
26.352947
20
53.122789
11
26.467614
21
53.410556
0
LINE
8
Layer 1
10
26.467614
20
53.410556
11
26.745638
21
53.781882
0
LINE
8
Layer 1
10
26.745638
20
53.781882
11
27.379593
21
53.904444
0
LINE
8
Layer 1
10
27.379593
20
53.904444
11
27.379593
21
53.904444
0
LINE
8
Layer 1
10
37.817778
20
58.436657
11
37.734875
21
58.596502
0
LINE
8
Layer 1
10
37.734875
20
58.596502
11
37.535556
21
58.561111
0
LINE
8
Layer 1
10
37.535556
20
58.561111
11
37.253333
21
58.262232
0
LINE
8
Layer 1
10
37.253333
20
58.262232
11
37.535556
21
58.137778
0
LINE
8
Layer 1
10
37.535556
20
58.137778
11
37.734875
21
58.225574
0
LINE
8
Layer 1
10
37.734875
20
58.225574
11
37.817778
21
58.436657
0
LINE
8
Layer 1
10
37.817778
20
58.436657
11
37.817778
21
58.436657
0
LINE
8
Layer 1
10
78.269629
20
53.830530
11
78.384247
21
54.353557
0
LINE
8
Layer 1
10
78.384247
20
54.353557
11
78.701684
21
54.721613
0
LINE
8
Layer 1
10
78.701684
20
54.721613
11
79.182315
21
54.907209
0
LINE
8
Layer 1
10
79.182315
20
54.907209
11
79.786517
21
54.882855
0
LINE
8
Layer 1
10
79.786517
20
54.882855
11
81.209444
21
54.586914
0
LINE
8
Layer 1
10
81.209444
20
54.586914
11
81.769728
21
54.405056
0
LINE
8
Layer 1
10
81.769728
20
54.405056
11
81.783254
21
54.228446
0
LINE
8
Layer 1
10
81.783254
20
54.228446
11
80.382051
21
54.032926
0
LINE
8
Layer 1
10
80.382051
20
54.032926
11
79.289796
21
53.930445
0
LINE
8
Layer 1
10
79.289796
20
53.930445
11
78.806345
21
53.680148
0
LINE
8
Layer 1
10
78.806345
20
53.680148
11
78.650569
21
53.409271
0
LINE
8
Layer 1
10
78.650569
20
53.409271
11
78.474063
21
53.353884
0
LINE
8
Layer 1
10
78.474063
20
53.353884
11
78.329519
21
53.499225
0
LINE
8
Layer 1
10
78.329519
20
53.499225
11
78.269629
21
53.830530
0
LINE
8
Layer 1
10
78.269629
20
53.830530
11
78.269629
21
53.830530
0
LINE
8
Layer 1
10
145.556111
20
54.596620
11
144.497778
21
55.959869
0
LINE
8
Layer 1
10
144.497778
20
55.959869
11
147.249444
21
57.719361
0
LINE
8
Layer 1
10
147.249444
20
57.719361
11
152.451397
21
60.891800
0
LINE
8
Layer 1
10
152.451397
20
60.891800
11
157.195901
21
64.095777
0
LINE
8
Layer 1
10
157.195901
20
64.095777
11
160.376919
21
66.221758
0
LINE
8
Layer 1
10
160.376919
20
66.221758
11
162.826445
21
67.640557
0
LINE
8
Layer 1
10
162.826445
20
67.640557
11
164.758151
21
68.461398
0
LINE
8
Layer 1
10
164.758151
20
68.461398
11
166.385706
21
68.793510
0
LINE
8
Layer 1
10
166.385706
20
68.793510
11
167.750874
21
68.826247
0
LINE
8
Layer 1
10
167.750874
20
68.826247
11
168.204444
21
68.631362
0
LINE
8
Layer 1
10
168.204444
20
68.631362
11
167.570262
21
67.991740
0
LINE
8
Layer 1
10
167.570262
20
67.991740
11
165.878290
21
66.691213
0
LINE
8
Layer 1
10
165.878290
20
66.691213
11
160.584444
21
63.035313
0
LINE
8
Layer 1
10
160.584444
20
63.035313
11
156.633333
21
60.320834
0
LINE
8
Layer 1
10
156.633333
20
60.320834
11
153.670000
21
58.191868
0
LINE
8
Layer 1
10
153.670000
20
58.191868
11
149.800341
21
55.364143
0
LINE
8
Layer 1
10
149.800341
20
55.364143
11
146.837008
21
53.349254
0
LINE
8
Layer 1
10
146.837008
20
53.349254
11
145.556111
21
54.596620
0
LINE
8
Layer 1
10
145.556111
20
54.596620
11
145.556111
21
54.596620
0
LINE
8
Layer 1
10
82.742038
20
54.539444
11
82.972176
21
54.975294
0
LINE
8
Layer 1
10
82.972176
20
54.975294
11
83.416629
21
55.202545
0
LINE
8
Layer 1
10
83.416629
20
55.202545
11
83.932058
21
55.189248
0
LINE
8
Layer 1
10
83.932058
20
55.189248
11
84.375123
21
54.903452
0
LINE
8
Layer 1
10
84.375123
20
54.903452
11
84.396962
21
54.670971
0
LINE
8
Layer 1
10
84.396962
20
54.670971
11
83.768136
21
54.698522
0
LINE
8
Layer 1
10
83.768136
20
54.698522
11
83.085263
21
54.715846
0
LINE
8
Layer 1
10
83.085263
20
54.715846
11
83.006520
21
54.594427
0
LINE
8
Layer 1
10
83.006520
20
54.594427
11
83.060565
21
54.366417
0
LINE
8
Layer 1
10
83.060565
20
54.366417
11
83.099700
21
54.040149
0
LINE
8
Layer 1
10
83.099700
20
54.040149
11
82.944846
21
53.904444
0
LINE
8
Layer 1
10
82.944846
20
53.904444
11
82.764412
21
54.090976
0
LINE
8
Layer 1
10
82.764412
20
54.090976
11
82.742038
21
54.539444
0
LINE
8
Layer 1
10
82.742038
20
54.539444
11
82.742038
21
54.539444
0
LINE
8
Layer 1
10
86.501399
20
55.032870
11
86.380993
21
55.289299
0
LINE
8
Layer 1
10
86.380993
20
55.289299
11
86.479320
21
55.406837
0
LINE
8
Layer 1
10
86.479320
20
55.406837
11
87.630000
21
55.294205
0
LINE
8
Layer 1
10
87.630000
20
55.294205
11
88.247527
21
55.154769
0
LINE
8
Layer 1
10
88.247527
20
55.154769
11
88.295491
21
55.103197
0
LINE
8
Layer 1
10
88.295491
20
55.103197
11
88.146972
21
55.073383
0
LINE
8
Layer 1
10
88.146972
20
55.073383
11
87.117185
21
54.872983
0
LINE
8
Layer 1
10
87.117185
20
54.872983
11
86.763927
21
54.853804
0
LINE
8
Layer 1
10
86.763927
20
54.853804
11
86.501399
21
55.032870
0
LINE
8
Layer 1
10
86.501399
20
55.032870
11
86.501399
21
55.032870
0
LINE
8
Layer 1
10
21.629052
20
55.456667
11
22.034670
21
55.880000
0
LINE
8
Layer 1
10
22.034670
20
55.880000
11
22.158690
21
55.755646
0
LINE
8
Layer 1
10
22.158690
20
55.755646
11
22.115392
21
55.456667
0
LINE
8
Layer 1
10
22.115392
20
55.456667
11
21.709774
21
55.033333
0
LINE
8
Layer 1
10
21.709774
20
55.033333
11
21.585754
21
55.157687
0
LINE
8
Layer 1
10
21.585754
20
55.157687
11
21.629052
21
55.456667
0
LINE
8
Layer 1
10
21.629052
20
55.456667
11
21.629052
21
55.456667
0
LINE
8
Layer 1
10
22.789444
20
56.074544
11
22.451663
21
56.204877
0
LINE
8
Layer 1
10
22.451663
20
56.204877
11
22.332200
21
56.394608
0
LINE
8
Layer 1
10
22.332200
20
56.394608
11
22.739008
21
57.148626
0
LINE
8
Layer 1
10
22.739008
20
57.148626
11
23.136203
21
57.536049
0
LINE
8
Layer 1
10
23.136203
20
57.536049
11
23.431266
21
57.289737
0
LINE
8
Layer 1
10
23.431266
20
57.289737
11
23.647972
21
57.024505
0
LINE
8
Layer 1
10
23.647972
20
57.024505
11
23.702345
21
57.267594
0
LINE
8
Layer 1
10
23.702345
20
57.267594
11
23.750883
21
57.504475
0
LINE
8
Layer 1
10
23.750883
20
57.504475
11
23.861513
21
57.512562
0
LINE
8
Layer 1
10
23.861513
20
57.512562
11
23.917313
21
57.172235
0
LINE
8
Layer 1
10
23.917313
20
57.172235
11
23.827380
21
56.621547
0
LINE
8
Layer 1
10
23.827380
20
56.621547
11
23.655236
21
56.116410
0
LINE
8
Layer 1
10
23.655236
20
56.116410
11
23.464405
21
55.912738
0
LINE
8
Layer 1
10
23.464405
20
55.912738
11
22.789444
21
56.074544
0
LINE
8
Layer 1
10
22.789444
20
56.074544
11
22.789444
21
56.074544
0
LINE
8
Layer 1
10
27.985158
20
58.073056
11
27.780852
21
58.599005
0
LINE
8
Layer 1
10
27.780852
20
58.599005
11
27.786028
21
58.963633
0
LINE
8
Layer 1
10
27.786028
20
58.963633
11
28.127971
21
59.061715
0
LINE
8
Layer 1
10
28.127971
20
59.061715
11
28.652090
21
58.874549
0
LINE
8
Layer 1
10
28.652090
20
58.874549
11
29.128328
21
58.525462
0
LINE
8
Layer 1
10
29.128328
20
58.525462
11
29.326628
21
58.137778
0
LINE
8
Layer 1
10
29.326628
20
58.137778
11
29.276704
21
57.903888
0
LINE
8
Layer 1
10
29.276704
20
57.903888
11
29.164201
21
58.067222
0
LINE
8
Layer 1
10
29.164201
20
58.067222
11
28.981458
21
58.341192
0
LINE
8
Layer 1
10
28.981458
20
58.341192
11
28.771158
21
58.403316
0
LINE
8
Layer 1
10
28.771158
20
58.403316
11
28.576889
21
58.262116
0
LINE
8
Layer 1
10
28.576889
20
58.262116
11
28.442237
21
57.926111
0
LINE
8
Layer 1
10
28.442237
20
57.926111
11
28.294447
21
57.632906
0
LINE
8
Layer 1
10
28.294447
20
57.632906
11
27.985158
21
58.073056
0
LINE
8
Layer 1
10
27.985158
20
58.073056
11
27.985158
21
58.073056
0
LINE
8
Layer 1
10
30.499188
20
58.067222
11
30.206133
21
58.403464
0
LINE
8
Layer 1
10
30.206133
20
58.403464
11
29.905548
21
58.137778
0
LINE
8
Layer 1
10
29.905548
20
58.137778
11
29.676401
21
57.900090
0
LINE
8
Layer 1
10
29.676401
20
57.900090
11
29.691028
21
58.278889
0
LINE
8
Layer 1
10
29.691028
20
58.278889
11
29.977078
21
58.736360
0
LINE
8
Layer 1
10
29.977078
20
58.736360
11
30.764534
21
58.922948
0
LINE
8
Layer 1
10
30.764534
20
58.922948
11
31.418744
21
58.920333
0
LINE
8
Layer 1
10
31.418744
20
58.920333
11
31.474843
21
58.852970
0
LINE
8
Layer 1
10
31.474843
20
58.852970
11
31.356097
21
58.739766
0
LINE
8
Layer 1
10
31.356097
20
58.739766
11
31.128835
21
58.421442
0
LINE
8
Layer 1
10
31.128835
20
58.421442
11
31.135574
21
58.025149
0
LINE
8
Layer 1
10
31.135574
20
58.025149
11
31.186171
21
57.687364
0
LINE
8
Layer 1
10
31.186171
20
57.687364
11
31.041898
21
57.585423
0
LINE
8
Layer 1
10
31.041898
20
57.585423
11
30.785367
21
57.713863
0
LINE
8
Layer 1
10
30.785367
20
57.713863
11
30.499188
21
58.067222
0
LINE
8
Layer 1
10
30.499188
20
58.067222
11
30.499188
21
58.067222
0
LINE
8
Layer 1
10
25.117778
20
58.248694
11
25.248774
21
58.548837
0
LINE
8
Layer 1
10
25.248774
20
58.548837
11
25.556133
21
58.798973
0
LINE
8
Layer 1
10
25.556133
20
58.798973
11
25.911411
21
58.925995
0
LINE
8
Layer 1
10
25.911411
20
58.925995
11
26.186166
21
58.856795
0
LINE
8
Layer 1
10
26.186166
20
58.856795
11
26.180034
21
58.624348
0
LINE
8
Layer 1
10
26.180034
20
58.624348
11
25.966301
21
58.288617
0
LINE
8
Layer 1
10
25.966301
20
58.288617
11
25.365443
21
57.855556
0
LINE
8
Layer 1
10
25.365443
20
57.855556
11
25.190530
21
57.971041
0
LINE
8
Layer 1
10
25.190530
20
57.971041
11
25.117778
21
58.248694
0
LINE
8
Layer 1
10
25.117778
20
58.248694
11
25.117778
21
58.248694
0
LINE
8
Layer 1
10
32.737778
20
57.980010
11
33.020000
21
58.278889
0
LINE
8
Layer 1
10
33.020000
20
58.278889
11
33.219319
21
58.314280
0
LINE
8
Layer 1
10
33.219319
20
58.314280
11
33.302222
21
58.154435
0
LINE
8
Layer 1
10
33.302222
20
58.154435
11
33.219319
21
57.943351
0
LINE
8
Layer 1
10
33.219319
20
57.943351
11
33.020000
21
57.855556
0
LINE
8
Layer 1
10
33.020000
20
57.855556
11
32.737778
21
57.980010
0
LINE
8
Layer 1
10
32.737778
20
57.980010
11
32.737778
21
57.980010
0
LINE
8
Layer 1
10
26.670000
20
58.702222
11
26.634609
21
58.901542
0
LINE
8
Layer 1
10
26.634609
20
58.901542
11
26.794455
21
58.984444
0
LINE
8
Layer 1
10
26.794455
20
58.984444
11
27.005538
21
58.901542
0
LINE
8
Layer 1
10
27.005538
20
58.901542
11
27.093333
21
58.702222
0
LINE
8
Layer 1
10
27.093333
20
58.702222
11
26.968878
21
58.420000
0
LINE
8
Layer 1
10
26.968878
20
58.420000
11
26.670000
21
58.702222
0
LINE
8
Layer 1
10
26.670000
20
58.702222
11
26.670000
21
58.702222
0
LINE
8
Layer 1
10
70.414444
20
58.890278
11
70.034325
21
59.234981
0
LINE
8
Layer 1
10
70.034325
20
59.234981
11
70.366972
21
59.163523
0
LINE
8
Layer 1
10
70.366972
20
59.163523
11
71.143083
21
58.984444
0
LINE
8
Layer 1
10
71.143083
20
58.984444
11
71.326099
21
58.901542
0
LINE
8
Layer 1
10
71.326099
20
58.901542
11
71.402222
21
58.702222
0
LINE
8
Layer 1
10
71.402222
20
58.702222
11
71.339878
21
58.489260
0
LINE
8
Layer 1
10
71.339878
20
58.489260
11
71.153656
21
58.449770
0
LINE
8
Layer 1
10
71.153656
20
58.449770
11
70.414444
21
58.890278
0
LINE
8
Layer 1
10
70.414444
20
58.890278
11
70.414444
21
58.890278
0
LINE
8
Layer 1
10
69.038199
20
59.136466
11
68.881660
21
59.777501
0
LINE
8
Layer 1
10
68.881660
20
59.777501
11
69.178895
21
59.457167
0
LINE
8
Layer 1
10
69.178895
20
59.457167
11
69.346290
21
58.809994
0
LINE
8
Layer 1
10
69.346290
20
58.809994
11
69.201290
21
58.851398
0
LINE
8
Layer 1
10
69.201290
20
58.851398
11
69.038199
21
59.136466
0
LINE
8
Layer 1
10
69.038199
20
59.136466
11
69.038199
21
59.136466
0
LINE
8
Layer 1
10
34.632875
20
59.746286
11
34.794251
21
59.993773
0
LINE
8
Layer 1
10
34.794251
20
59.993773
11
34.923039
21
59.907548
0
LINE
8
Layer 1
10
34.923039
20
59.907548
11
35.242502
21
59.938569
0
LINE
8
Layer 1
10
35.242502
20
59.938569
11
35.861554
21
60.460213
0
LINE
8
Layer 1
10
35.861554
20
60.460213
11
36.510811
21
61.013994
0
LINE
8
Layer 1
10
36.510811
20
61.013994
11
36.902892
21
61.122292
0
LINE
8
Layer 1
10
36.902892
20
61.122292
11
36.779772
21
60.732872
0
LINE
8
Layer 1
10
36.779772
20
60.732872
11
36.190352
21
60.090010
0
LINE
8
Layer 1
10
36.190352
20
60.090010
11
35.469119
21
59.538989
0
LINE
8
Layer 1
10
35.469119
20
59.538989
11
34.913821
21
59.285823
0
LINE
8
Layer 1
10
34.913821
20
59.285823
11
34.607419
21
59.348819
0
LINE
8
Layer 1
10
34.607419
20
59.348819
11
34.632875
21
59.746286
0
LINE
8
Layer 1
10
34.632875
20
59.746286
11
34.632875
21
59.746286
0
LINE
8
Layer 1
10
65.757778
20
60.322389
11
63.112458
21
61.302925
0
LINE
8
Layer 1
10
63.112458
20
61.302925
11
61.567946
21
61.495139
0
LINE
8
Layer 1
10
61.567946
20
61.495139
11
58.596903
21
61.578510
0
LINE
8
Layer 1
10
58.596903
20
61.578510
11
55.643469
21
61.627884
0
LINE
8
Layer 1
10
55.643469
20
61.627884
11
55.506274
21
61.659994
0
LINE
8
Layer 1
10
55.506274
20
61.659994
11
55.580276
21
61.703212
0
LINE
8
Layer 1
10
55.580276
20
61.703212
11
56.303333
21
61.829374
0
LINE
8
Layer 1
10
56.303333
20
61.829374
11
61.095977
21
62.539299
0
LINE
8
Layer 1
10
61.095977
20
62.539299
11
64.857266
21
62.830232
0
LINE
8
Layer 1
10
64.857266
20
62.830232
11
68.976354
21
62.782818
0
LINE
8
Layer 1
10
68.976354
20
62.782818
11
72.296258
21
62.455361
0
LINE
8
Layer 1
10
72.296258
20
62.455361
11
73.294961
21
62.204836
0
LINE
8
Layer 1
10
73.294961
20
62.204836
11
73.660000
21
61.906164
0
LINE
8
Layer 1
10
73.660000
20
61.906164
11
73.846531
21
61.541286
0
LINE
8
Layer 1
10
73.846531
20
61.541286
11
74.295000
21
61.225597
0
LINE
8
Layer 1
10
74.295000
20
61.225597
11
74.676852
21
61.019293
0
LINE
8
Layer 1
10
74.676852
20
61.019293
11
74.083333
21
61.099477
0
LINE
8
Layer 1
10
74.083333
20
61.099477
11
71.261111
21
61.782692
0
LINE
8
Layer 1
10
71.261111
20
61.782692
11
69.974170
21
62.061421
0
LINE
8
Layer 1
10
69.974170
20
62.061421
11
69.137851
21
62.084791
0
LINE
8
Layer 1
10
69.137851
20
62.084791
11
68.740411
21
61.850798
0
LINE
8
Layer 1
10
68.740411
20
61.850798
11
68.770102
21
61.357437
0
LINE
8
Layer 1
10
68.770102
20
61.357437
11
68.742256
21
61.082695
0
LINE
8
Layer 1
10
68.742256
20
61.082695
11
68.118324
21
61.238604
0
LINE
8
Layer 1
10
68.118324
20
61.238604
11
67.514854
21
61.419866
0
LINE
8
Layer 1
10
67.514854
20
61.419866
11
67.857830
21
61.102756
0
LINE
8
Layer 1
10
67.857830
20
61.102756
11
68.211978
21
60.781146
0
LINE
8
Layer 1
10
68.211978
20
60.781146
11
68.150215
21
60.699765
0
LINE
8
Layer 1
10
68.150215
20
60.699765
11
66.886667
21
61.242222
0
LINE
8
Layer 1
10
66.886667
20
61.242222
11
65.470143
21
61.806667
0
LINE
8
Layer 1
10
65.470143
20
61.806667
11
65.248308
21
61.705992
0
LINE
8
Layer 1
10
65.248308
20
61.705992
11
65.431506
21
61.440786
0
LINE
8
Layer 1
10
65.431506
20
61.440786
11
66.767772
21
60.637699
0
LINE
8
Layer 1
10
66.767772
20
60.637699
11
67.649019
21
60.149692
0
LINE
8
Layer 1
10
67.649019
20
60.149692
11
68.015556
21
59.800030
0
LINE
8
Layer 1
10
68.015556
20
59.800030
11
67.945000
21
59.580232
0
LINE
8
Layer 1
10
67.945000
20
59.580232
11
65.757778
21
60.322389
0
LINE
8
Layer 1
10
65.757778
20
60.322389
11
65.757778
21
60.322389
0
LINE
8
Layer 1
10
62.794444
20
60.395556
11
62.759053
21
60.594875
0
LINE
8
Layer 1
10
62.759053
20
60.594875
11
62.918899
21
60.677778
0
LINE
8
Layer 1
10
62.918899
20
60.677778
11
63.129982
21
60.594875
0
LINE
8
Layer 1
10
63.129982
20
60.594875
11
63.217778
21
60.395556
0
LINE
8
Layer 1
10
63.217778
20
60.395556
11
63.093323
21
60.113333
0
LINE
8
Layer 1
10
63.093323
20
60.113333
11
62.794444
21
60.395556
0
LINE
8
Layer 1
10
62.794444
20
60.395556
11
62.794444
21
60.395556
0
LINE
8
Layer 1
10
80.010000
20
64.064444
11
81.098356
21
65.061042
0
LINE
8
Layer 1
10
81.098356
20
65.061042
11
81.763280
21
65.475556
0
LINE
8
Layer 1
10
81.763280
20
65.475556
11
82.038700
21
65.445898
0
LINE
8
Layer 1
10
82.038700
20
65.445898
11
82.031603
21
65.271325
0
LINE
8
Layer 1
10
82.031603
20
65.271325
11
80.861414
21
63.973823
0
LINE
8
Layer 1
10
80.861414
20
63.973823
11
79.824472
21
63.041228
0
LINE
8
Layer 1
10
79.824472
20
63.041228
11
79.108136
21
62.653333
0
LINE
8
Layer 1
10
79.108136
20
62.653333
11
78.967549
21
62.734634
0
LINE
8
Layer 1
10
78.967549
20
62.734634
11
79.065122
21
62.987727
0
LINE
8
Layer 1
10
79.065122
20
62.987727
11
80.010000
21
64.064444
0
LINE
8
Layer 1
10
80.010000
20
64.064444
11
80.010000
21
64.064444
0
LINE
8
Layer 1
10
81.280000
20
63.465445
11
81.684447
21
64.048770
0
LINE
8
Layer 1
10
81.684447
20
64.048770
11
82.154677
21
64.217842
0
LINE
8
Layer 1
10
82.154677
20
64.217842
11
82.813336
21
63.909756
0
LINE
8
Layer 1
10
82.813336
20
63.909756
11
83.537778
21
63.326431
0
LINE
8
Layer 1
10
83.537778
20
63.326431
11
82.408889
21
63.217778
0
LINE
8
Layer 1
10
82.408889
20
63.217778
11
81.611611
21
63.290530
0
LINE
8
Layer 1
10
81.611611
20
63.290530
11
81.280000
21
63.465445
0
LINE
8
Layer 1
10
81.280000
20
63.465445
11
81.280000
21
63.465445
0
LINE
8
Layer 1
10
87.630000
20
64.064444
11
87.594609
21
64.263764
0
LINE
8
Layer 1
10
87.594609
20
64.263764
11
87.754454
21
64.346667
0
LINE
8
Layer 1
10
87.754454
20
64.346667
11
87.965538
21
64.263764
0
LINE
8
Layer 1
10
87.965538
20
64.263764
11
88.053333
21
64.064444
0
LINE
8
Layer 1
10
88.053333
20
64.064444
11
87.928879
21
63.782222
0
LINE
8
Layer 1
10
87.928879
20
63.782222
11
87.630000
21
64.064444
0
LINE
8
Layer 1
10
87.630000
20
64.064444
11
87.630000
21
64.064444
0
LINE
8
Layer 1
10
91.087222
20
64.251355
11
91.792778
21
64.251355
0
LINE
8
Layer 1
10
91.792778
20
64.251355
11
91.834670
21
64.150820
0
LINE
8
Layer 1
10
91.834670
20
64.150820
11
91.440000
21
64.109005
0
LINE
8
Layer 1
10
91.440000
20
64.109005
11
91.045330
21
64.150820
0
LINE
8
Layer 1
10
91.045330
20
64.150820
11
91.087222
21
64.251355
0
LINE
8
Layer 1
10
91.087222
20
64.251355
11
91.087222
21
64.251355
0
LINE
8
Layer 1
10
43.202281
20
65.310927
11
43.236632
21
65.642868
0
LINE
8
Layer 1
10
43.236632
20
65.642868
11
43.350510
21
65.681344
0
LINE
8
Layer 1
10
43.350510
20
65.681344
11
43.372789
21
65.140417
0
LINE
8
Layer 1
10
43.372789
20
65.140417
11
43.258829
21
65.017955
0
LINE
8
Layer 1
10
43.258829
20
65.017955
11
43.202281
21
65.310927
0
LINE
8
Layer 1
10
43.202281
20
65.310927
11
43.202281
21
65.310927
0
LINE
8
Layer 1
10
82.973333
20
65.193333
11
83.072072
21
65.394058
0
LINE
8
Layer 1
10
83.072072
20
65.394058
11
83.330712
21
65.460967
0
LINE
8
Layer 1
10
83.330712
20
65.460967
11
84.102222
21
65.193333
0
LINE
8
Layer 1
10
84.102222
20
65.193333
11
84.276333
21
64.975702
0
LINE
8
Layer 1
10
84.276333
20
64.975702
11
83.749444
21
64.915432
0
LINE
8
Layer 1
10
83.749444
20
64.915432
11
83.201316
21
64.995283
0
LINE
8
Layer 1
10
83.201316
20
64.995283
11
82.973333
21
65.193333
0
LINE
8
Layer 1
10
82.973333
20
65.193333
11
82.973333
21
65.193333
0
LINE
8
Layer 1
10
43.918911
20
67.791420
11
44.185711
21
69.073873
0
LINE
8
Layer 1
10
44.185711
20
69.073873
11
44.308889
21
68.079247
0
LINE
8
Layer 1
10
44.308889
20
68.079247
11
44.230331
21
67.211962
0
LINE
8
Layer 1
10
44.230331
20
67.211962
11
44.041458
21
66.754697
0
LINE
8
Layer 1
10
44.041458
20
66.754697
11
43.887384
21
66.965321
0
LINE
8
Layer 1
10
43.887384
20
66.965321
11
43.918911
21
67.791420
0
LINE
8
Layer 1
10
43.918911
20
67.791420
11
43.918911
21
67.791420
0
LINE
8
Layer 1
10
79.586667
20
67.011121
11
79.868889
21
67.310000
0
LINE
8
Layer 1
10
79.868889
20
67.310000
11
80.068208
21
67.345391
0
LINE
8
Layer 1
10
80.068208
20
67.345391
11
80.151111
21
67.185546
0
LINE
8
Layer 1
10
80.151111
20
67.185546
11
80.068208
21
66.974462
0
LINE
8
Layer 1
10
80.068208
20
66.974462
11
79.868889
21
66.886667
0
LINE
8
Layer 1
10
79.868889
20
66.886667
11
79.586667
21
67.011121
0
LINE
8
Layer 1
10
79.586667
20
67.011121
11
79.586667
21
67.011121
0
LINE
8
Layer 1
10
65.757778
20
68.297778
11
65.882232
21
68.580000
0
LINE
8
Layer 1
10
65.882232
20
68.580000
11
66.181111
21
68.297778
0
LINE
8
Layer 1
10
66.181111
20
68.297778
11
66.216502
21
68.098458
0
LINE
8
Layer 1
10
66.216502
20
68.098458
11
66.056657
21
68.015556
0
LINE
8
Layer 1
10
66.056657
20
68.015556
11
65.845574
21
68.098458
0
LINE
8
Layer 1
10
65.845574
20
68.098458
11
65.757778
21
68.297778
0
LINE
8
Layer 1
10
65.757778
20
68.297778
11
65.757778
21
68.297778
0
LINE
8
Layer 1
10
80.433333
20
70.680010
11
80.715556
21
70.978889
0
LINE
8
Layer 1
10
80.715556
20
70.978889
11
80.914875
21
71.014280
0
LINE
8
Layer 1
10
80.914875
20
71.014280
11
80.997778
21
70.854435
0
LINE
8
Layer 1
10
80.997778
20
70.854435
11
80.914875
21
70.643351
0
LINE
8
Layer 1
10
80.914875
20
70.643351
11
80.715556
21
70.555556
0
LINE
8
Layer 1
10
80.715556
20
70.555556
11
80.433333
21
70.680010
0
LINE
8
Layer 1
10
80.433333
20
70.680010
11
80.433333
21
70.680010
0
LINE
8
Layer 1
10
85.372222
20
70.837778
11
85.562949
21
71.042900
0
LINE
8
Layer 1
10
85.562949
20
71.042900
11
86.360000
21
71.120000
0
LINE
8
Layer 1
10
86.360000
20
71.120000
11
87.157051
21
71.042900
0
LINE
8
Layer 1
10
87.157051
20
71.042900
11
87.347778
21
70.837778
0
LINE
8
Layer 1
10
87.347778
20
70.837778
11
86.985668
21
70.638458
0
LINE
8
Layer 1
10
86.985668
20
70.638458
11
86.360000
21
70.555556
0
LINE
8
Layer 1
10
86.360000
20
70.555556
11
85.734332
21
70.638458
0
LINE
8
Layer 1
10
85.734332
20
70.638458
11
85.372222
21
70.837778
0
LINE
8
Layer 1
10
85.372222
20
70.837778
11
85.372222
21
70.837778
0
LINE
8
Layer 1
10
67.027778
20
72.531111
11
67.484422
21
72.813333
0
LINE
8
Layer 1
10
67.484422
20
72.813333
11
67.632505
21
72.730431
0
LINE
8
Layer 1
10
67.632505
20
72.730431
11
67.592222
21
72.531111
0
LINE
8
Layer 1
10
67.592222
20
72.531111
11
67.135578
21
72.248889
0
LINE
8
Layer 1
10
67.135578
20
72.248889
11
66.987495
21
72.331792
0
LINE
8
Layer 1
10
66.987495
20
72.331792
11
67.027778
21
72.531111
0
LINE
8
Layer 1
10
67.027778
20
72.531111
11
67.027778
21
72.531111
0
LINE
8
Layer 1
10
51.505556
20
72.813333
11
51.470164
21
73.012653
0
LINE
8
Layer 1
10
51.470164
20
73.012653
11
51.630010
21
73.095556
0
LINE
8
Layer 1
10
51.630010
20
73.095556
11
51.841093
21
73.012653
0
LINE
8
Layer 1
10
51.841093
20
73.012653
11
51.928889
21
72.813333
0
LINE
8
Layer 1
10
51.928889
20
72.813333
11
51.804435
21
72.531111
0
LINE
8
Layer 1
10
51.804435
20
72.531111
11
51.505556
21
72.813333
0
LINE
8
Layer 1
10
51.505556
20
72.813333
11
51.505556
21
72.813333
0
LINE
8
Layer 1
10
81.138889
20
72.813333
11
81.578879
21
73.095556
0
LINE
8
Layer 1
10
81.578879
20
73.095556
11
81.766435
21
73.012653
0
LINE
8
Layer 1
10
81.766435
20
73.012653
11
81.844444
21
72.813333
0
LINE
8
Layer 1
10
81.844444
20
72.813333
11
81.715197
21
72.614014
0
LINE
8
Layer 1
10
81.715197
20
72.614014
11
81.404454
21
72.531111
0
LINE
8
Layer 1
10
81.404454
20
72.531111
11
81.144949
21
72.614014
0
LINE
8
Layer 1
10
81.144949
20
72.614014
11
81.138889
21
72.813333
0
LINE
8
Layer 1
10
81.138889
20
72.813333
11
81.138889
21
72.813333
0
LINE
8
Layer 1
10
65.070366
20
73.295050
11
64.987404
21
73.628622
0
LINE
8
Layer 1
10
64.987404
20
73.628622
11
65.228354
21
73.453038
0
LINE
8
Layer 1
10
65.228354
20
73.453038
11
65.429616
21
73.160801
0
LINE
8
Layer 1
10
65.429616
20
73.160801
11
65.421050
21
72.946977
0
LINE
8
Layer 1
10
65.421050
20
72.946977
11
65.252867
21
72.984053
0
LINE
8
Layer 1
10
65.252867
20
72.984053
11
65.070366
21
73.295050
0
LINE
8
Layer 1
10
65.070366
20
73.295050
11
65.070366
21
73.295050
0
LINE
8
Layer 1
10
48.024028
20
73.463158
11
47.264969
21
74.914328
0
LINE
8
Layer 1
10
47.264969
20
74.914328
11
46.933846
21
76.096808
0
LINE
8
Layer 1
10
46.933846
20
76.096808
11
47.783750
21
74.735972
0
LINE
8
Layer 1
10
47.783750
20
74.735972
11
48.400347
21
73.276476
0
LINE
8
Layer 1
10
48.400347
20
73.276476
11
48.338220
21
73.153886
0
LINE
8
Layer 1
10
48.338220
20
73.153886
11
48.024028
21
73.463158
0
LINE
8
Layer 1
10
48.024028
20
73.463158
11
48.024028
21
73.463158
0
LINE
8
Layer 1
10
61.720264
20
73.558253
11
61.692728
21
73.986190
0
LINE
8
Layer 1
10
61.692728
20
73.986190
11
61.874829
21
74.109623
0
LINE
8
Layer 1
10
61.874829
20
74.109623
11
62.099567
21
74.067865
0
LINE
8
Layer 1
10
62.099567
20
74.067865
11
62.290482
21
73.899557
0
LINE
8
Layer 1
10
62.290482
20
73.899557
11
62.371111
21
73.643343
0
LINE
8
Layer 1
10
62.371111
20
73.643343
11
62.146313
21
73.386393
0
LINE
8
Layer 1
10
62.146313
20
73.386393
11
61.720264
21
73.558253
0
LINE
8
Layer 1
10
61.720264
20
73.558253
11
61.720264
21
73.558253
0
LINE
8
Layer 1
10
62.653333
20
73.660000
11
62.736236
21
73.859319
0
LINE
8
Layer 1
10
62.736236
20
73.859319
11
62.935556
21
73.942222
0
LINE
8
Layer 1
10
62.935556
20
73.942222
11
63.134875
21
73.859319
0
LINE
8
Layer 1
10
63.134875
20
73.859319
11
63.217778
21
73.660000
0
LINE
8
Layer 1
10
63.217778
20
73.660000
11
63.134875
21
73.460681
0
LINE
8
Layer 1
10
63.134875
20
73.460681
11
62.935556
21
73.377778
0
LINE
8
Layer 1
10
62.935556
20
73.377778
11
62.736236
21
73.460681
0
LINE
8
Layer 1
10
62.736236
20
73.460681
11
62.653333
21
73.660000
0
LINE
8
Layer 1
10
62.653333
20
73.660000
11
62.653333
21
73.660000
0
LINE
8
Layer 1
10
66.322222
20
73.502232
11
66.604444
21
73.801111
0
LINE
8
Layer 1
10
66.604444
20
73.801111
11
66.803764
21
73.836502
0
LINE
8
Layer 1
10
66.803764
20
73.836502
11
66.886667
21
73.676657
0
LINE
8
Layer 1
10
66.886667
20
73.676657
11
66.803764
21
73.465574
0
LINE
8
Layer 1
10
66.803764
20
73.465574
11
66.604444
21
73.377778
0
LINE
8
Layer 1
10
66.604444
20
73.377778
11
66.322222
21
73.502232
0
LINE
8
Layer 1
10
66.322222
20
73.502232
11
66.322222
21
73.502232
0
LINE
8
Layer 1
10
69.285556
20
73.660000
11
69.250164
21
73.859319
0
LINE
8
Layer 1
10
69.250164
20
73.859319
11
69.410010
21
73.942222
0
LINE
8
Layer 1
10
69.410010
20
73.942222
11
69.621093
21
73.859319
0
LINE
8
Layer 1
10
69.621093
20
73.859319
11
69.708889
21
73.660000
0
LINE
8
Layer 1
10
69.708889
20
73.660000
11
69.584435
21
73.377778
0
LINE
8
Layer 1
10
69.584435
20
73.377778
11
69.285556
21
73.660000
0
LINE
8
Layer 1
10
69.285556
20
73.660000
11
69.285556
21
73.660000
0
LINE
8
Layer 1
10
70.273333
20
74.224312
11
69.690893
21
74.740324
0
LINE
8
Layer 1
10
69.690893
20
74.740324
11
69.360432
21
74.691040
0
LINE
8
Layer 1
10
69.360432
20
74.691040
11
69.204960
21
74.570646
0
LINE
8
Layer 1
10
69.204960
20
74.570646
11
69.148765
21
74.842788
0
LINE
8
Layer 1
10
69.148765
20
74.842788
11
69.251162
21
75.319600
0
LINE
8
Layer 1
10
69.251162
20
75.319600
11
69.524871
21
75.520032
0
LINE
8
Layer 1
10
69.524871
20
75.520032
11
69.903071
21
75.432509
0
LINE
8
Layer 1
10
69.903071
20
75.432509
11
70.318940
21
75.045460
0
LINE
8
Layer 1
10
70.318940
20
75.045460
11
71.117090
21
74.027696
0
LINE
8
Layer 1
10
71.117090
20
74.027696
11
71.333288
21
73.645738
0
LINE
8
Layer 1
10
71.333288
20
73.645738
11
71.170197
21
73.573216
0
LINE
8
Layer 1
10
71.170197
20
73.573216
11
70.769614
21
73.777088
0
LINE
8
Layer 1
10
70.769614
20
73.777088
11
70.273333
21
74.224312
0
LINE
8
Layer 1
10
70.273333
20
74.224312
11
70.273333
21
74.224312
0
LINE
8
Layer 1
10
75.423807
20
73.589473
11
75.165530
21
73.758352
0
LINE
8
Layer 1
10
75.165530
20
73.758352
11
75.079460
21
73.976183
0
LINE
8
Layer 1
10
75.079460
20
73.976183
11
75.165584
21
74.154135
0
LINE
8
Layer 1
10
75.165584
20
74.154135
11
75.423889
21
74.203377
0
LINE
8
Layer 1
10
75.423889
20
74.203377
11
76.545265
21
74.216581
0
LINE
8
Layer 1
10
76.545265
20
74.216581
11
76.909353
21
74.333721
0
LINE
8
Layer 1
10
76.909353
20
74.333721
11
77.046667
21
74.506667
0
LINE
8
Layer 1
10
77.046667
20
74.506667
11
76.927206
21
74.705986
0
LINE
8
Layer 1
10
76.927206
20
74.705986
11
76.639990
21
74.788889
0
LINE
8
Layer 1
10
76.639990
20
74.788889
11
76.072494
21
75.069810
0
LINE
8
Layer 1
10
76.072494
20
75.069810
11
75.936703
21
75.309862
0
LINE
8
Layer 1
10
75.936703
20
75.309862
11
75.987924
21
75.517553
0
LINE
8
Layer 1
10
75.987924
20
75.517553
11
77.002039
21
75.271077
0
LINE
8
Layer 1
10
77.002039
20
75.271077
11
77.614854
21
74.913185
0
LINE
8
Layer 1
10
77.614854
20
74.913185
11
77.675024
21
74.752783
0
LINE
8
Layer 1
10
77.675024
20
74.752783
11
77.582672
21
74.591116
0
LINE
8
Layer 1
10
77.582672
20
74.591116
11
77.536090
21
74.452532
0
LINE
8
Layer 1
10
77.536090
20
74.452532
11
77.741912
21
74.365579
0
LINE
8
Layer 1
10
77.741912
20
74.365579
11
78.995707
21
74.330927
0
LINE
8
Layer 1
10
78.995707
20
74.330927
11
80.644998
21
74.199606
0
LINE
8
Layer 1
10
80.644998
20
74.199606
11
80.574321
21
74.019013
0
LINE
8
Layer 1
10
80.574321
20
74.019013
11
79.850347
21
73.797039
0
LINE
8
Layer 1
10
79.850347
20
73.797039
11
77.419944
21
73.545597
0
LINE
8
Layer 1
10
77.419944
20
73.545597
11
75.423807
21
73.589473
0
LINE
8
Layer 1
10
75.423807
20
73.589473
11
75.423807
21
73.589473
0
LINE
8
Layer 1
10
34.995556
20
73.925565
11
35.078458
21
74.136649
0
LINE
8
Layer 1
10
35.078458
20
74.136649
11
35.277778
21
74.224444
0
LINE
8
Layer 1
10
35.277778
20
74.224444
11
35.560000
21
74.099990
0
LINE
8
Layer 1
10
35.560000
20
74.099990
11
35.277778
21
73.801111
0
LINE
8
Layer 1
10
35.277778
20
73.801111
11
35.078458
21
73.765720
0
LINE
8
Layer 1
10
35.078458
20
73.765720
11
34.995556
21
73.925565
0
LINE
8
Layer 1
10
34.995556
20
73.925565
11
34.995556
21
73.925565
0
LINE
8
Layer 1
10
72.899626
20
74.380558
11
72.107778
21
75.101117
0
LINE
8
Layer 1
10
72.107778
20
75.101117
11
73.033289
21
74.651249
0
LINE
8
Layer 1
10
73.033289
20
74.651249
11
73.766449
21
74.382672
0
LINE
8
Layer 1
10
73.766449
20
74.382672
11
74.229499
21
74.368680
0
LINE
8
Layer 1
10
74.229499
20
74.368680
11
74.372421
21
74.359709
0
LINE
8
Layer 1
10
74.372421
20
74.359709
11
74.332129
21
74.097992
0
LINE
8
Layer 1
10
74.332129
20
74.097992
11
74.138874
21
73.768729
0
LINE
8
Layer 1
10
74.138874
20
73.768729
11
73.872152
21
73.698880
0
LINE
8
Layer 1
10
73.872152
20
73.698880
11
72.899626
21
74.380558
0
LINE
8
Layer 1
10
72.899626
20
74.380558
11
72.899626
21
74.380558
0
LINE
8
Layer 1
10
65.219936
20
74.083333
11
65.468125
21
74.786530
0
LINE
8
Layer 1
10
65.468125
20
74.786530
11
65.751240
21
75.052187
0
LINE
8
Layer 1
10
65.751240
20
75.052187
11
66.084693
21
74.857085
0
LINE
8
Layer 1
10
66.084693
20
74.857085
11
66.272689
21
74.577223
0
LINE
8
Layer 1
10
66.272689
20
74.577223
11
65.978851
21
74.506667
0
LINE
8
Layer 1
10
65.978851
20
74.506667
11
65.614804
21
74.403038
0
LINE
8
Layer 1
10
65.614804
20
74.403038
11
65.380243
21
74.153889
0
LINE
8
Layer 1
10
65.380243
20
74.153889
11
65.274434
21
73.987642
0
LINE
8
Layer 1
10
65.274434
20
73.987642
11
65.219936
21
74.083333
0
LINE
8
Layer 1
10
65.219936
20
74.083333
11
65.219936
21
74.083333
0
LINE
8
Layer 1
10
67.460086
20
74.544307
11
67.301724
21
75.158548
0
LINE
8
Layer 1
10
67.301724
20
75.158548
11
66.816111
21
75.490301
0
LINE
8
Layer 1
10
66.816111
20
75.490301
11
65.479801
21
75.806431
0
LINE
8
Layer 1
10
65.479801
20
75.806431
11
65.250047
21
75.689684
0
LINE
8
Layer 1
10
65.250047
20
75.689684
11
65.193333
21
75.381756
0
LINE
8
Layer 1
10
65.193333
20
75.381756
11
65.087660
21
75.007536
0
LINE
8
Layer 1
10
65.087660
20
75.007536
11
64.831521
21
74.729223
0
LINE
8
Layer 1
10
64.831521
20
74.729223
11
64.516243
21
74.610302
0
LINE
8
Layer 1
10
64.516243
20
74.610302
11
64.233148
21
74.714261
0
LINE
8
Layer 1
10
64.233148
20
74.714261
11
64.065030
21
75.014196
0
LINE
8
Layer 1
10
64.065030
20
75.014196
11
64.071885
21
75.316527
0
LINE
8
Layer 1
10
64.071885
20
75.316527
11
64.223029
21
75.522533
0
LINE
8
Layer 1
10
64.223029
20
75.522533
11
64.487778
21
75.533496
0
LINE
8
Layer 1
10
64.487778
20
75.533496
11
64.796145
21
75.527724
0
LINE
8
Layer 1
10
64.796145
20
75.527724
11
64.911111
21
75.785523
0
LINE
8
Layer 1
10
64.911111
20
75.785523
11
65.023360
21
76.078247
0
LINE
8
Layer 1
10
65.023360
20
76.078247
11
65.293234
21
76.200000
0
LINE
8
Layer 1
10
65.293234
20
76.200000
11
65.786741
21
76.407257
0
LINE
8
Layer 1
10
65.786741
20
76.407257
11
66.436663
21
76.905556
0
LINE
8
Layer 1
10
66.436663
20
76.905556
11
67.282512
21
77.575805
0
LINE
8
Layer 1
10
67.282512
20
77.575805
11
67.413095
21
77.574043
0
LINE
8
Layer 1
10
67.413095
20
77.574043
11
67.310000
21
77.328889
0
LINE
8
Layer 1
10
67.310000
20
77.328889
11
67.265739
21
77.129569
0
LINE
8
Layer 1
10
67.265739
20
77.129569
11
67.404259
21
77.046667
0
LINE
8
Layer 1
10
67.404259
20
77.046667
11
67.797798
21
77.413534
0
LINE
8
Layer 1
10
67.797798
20
77.413534
11
68.015556
21
78.076546
0
LINE
8
Layer 1
10
68.015556
20
78.076546
11
67.430675
21
78.027959
0
LINE
8
Layer 1
10
67.430675
20
78.027959
11
66.986546
21
77.985148
0
LINE
8
Layer 1
10
66.986546
20
77.985148
11
67.289564
21
78.700480
0
LINE
8
Layer 1
10
67.289564
20
78.700480
11
67.618401
21
79.383989
0
LINE
8
Layer 1
10
67.618401
20
79.383989
11
67.677542
21
79.731982
0
LINE
8
Layer 1
10
67.677542
20
79.731982
11
67.435423
21
79.819610
0
LINE
8
Layer 1
10
67.435423
20
79.819610
11
66.860476
21
79.722026
0
LINE
8
Layer 1
10
66.860476
20
79.722026
11
66.092732
21
79.331688
0
LINE
8
Layer 1
10
66.092732
20
79.331688
11
65.180835
21
78.608023
0
LINE
8
Layer 1
10
65.180835
20
78.608023
11
64.435115
21
77.831826
0
LINE
8
Layer 1
10
64.435115
20
77.831826
11
64.165903
21
77.283894
0
LINE
8
Layer 1
10
64.165903
20
77.283894
11
63.965757
21
76.959777
0
LINE
8
Layer 1
10
63.965757
20
76.959777
11
63.440949
21
76.502470
0
LINE
8
Layer 1
10
63.440949
20
76.502470
11
62.374134
21
75.917778
0
LINE
8
Layer 1
10
62.374134
20
75.917778
11
62.310008
21
76.208907
0
LINE
8
Layer 1
10
62.310008
20
76.208907
11
62.682749
21
76.976111
0
LINE
8
Layer 1
10
62.682749
20
76.976111
11
63.322646
21
78.034444
0
LINE
8
Layer 1
10
63.322646
20
78.034444
11
62.657914
21
77.470000
0
LINE
8
Layer 1
10
62.657914
20
77.470000
11
62.103894
21
77.046667
0
LINE
8
Layer 1
10
62.103894
20
77.046667
11
62.214165
21
77.470000
0
LINE
8
Layer 1
10
62.214165
20
77.470000
11
62.577156
21
78.528333
0
LINE
8
Layer 1
10
62.577156
20
78.528333
11
62.759553
21
78.877142
0
LINE
8
Layer 1
10
62.759553
20
78.877142
11
62.998666
21
79.022222
0
LINE
8
Layer 1
10
62.998666
20
79.022222
11
63.148345
21
78.897868
0
LINE
8
Layer 1
10
63.148345
20
78.897868
11
63.115718
21
78.598889
0
LINE
8
Layer 1
10
63.115718
20
78.598889
11
63.078095
21
78.299910
0
LINE
8
Layer 1
10
63.078095
20
78.299910
11
63.215757
21
78.175556
0
LINE
8
Layer 1
10
63.215757
20
78.175556
11
63.491900
21
78.527892
0
LINE
8
Layer 1
10
63.491900
20
78.527892
11
63.787220
21
79.375000
0
LINE
8
Layer 1
10
63.787220
20
79.375000
11
64.390671
21
81.510576
0
LINE
8
Layer 1
10
64.390671
20
81.510576
11
64.523801
21
82.608050
0
LINE
8
Layer 1
10
64.523801
20
82.608050
11
64.334679
21
82.494424
0
LINE
8
Layer 1
10
64.334679
20
82.494424
11
64.087901
21
82.032047
0
LINE
8
Layer 1
10
64.087901
20
82.032047
11
63.782222
21
80.894738
0
LINE
8
Layer 1
10
63.782222
20
80.894738
11
63.459949
21
80.234960
0
LINE
8
Layer 1
10
63.459949
20
80.234960
11
62.879111
21
79.868889
0
LINE
8
Layer 1
10
62.879111
20
79.868889
11
62.653333
21
80.167768
0
LINE
8
Layer 1
10
62.653333
20
80.167768
11
62.730309
21
80.331276
0
LINE
8
Layer 1
10
62.730309
20
80.331276
11
62.915379
21
80.304694
0
LINE
8
Layer 1
10
62.915379
20
80.304694
11
63.146083
21
80.371421
0
LINE
8
Layer 1
10
63.146083
20
80.371421
11
63.269741
21
80.864594
0
LINE
8
Layer 1
10
63.269741
20
80.864594
11
63.163182
21
82.800523
0
LINE
8
Layer 1
10
63.163182
20
82.800523
11
63.076667
21
83.804446
0
LINE
8
Layer 1
10
63.076667
20
83.804446
11
63.238171
21
84.622114
0
LINE
8
Layer 1
10
63.238171
20
84.622114
11
63.749468
21
85.511794
0
LINE
8
Layer 1
10
63.749468
20
85.511794
11
64.712334
21
86.731757
0
LINE
8
Layer 1
10
64.712334
20
86.731757
11
65.640208
21
87.701533
0
LINE
8
Layer 1
10
65.640208
20
87.701533
11
65.906537
21
87.820292
0
LINE
8
Layer 1
10
65.906537
20
87.820292
11
66.075024
21
87.719535
0
LINE
8
Layer 1
10
66.075024
20
87.719535
11
66.116338
21
87.381730
0
LINE
8
Layer 1
10
66.116338
20
87.381730
11
65.787643
21
87.109498
0
LINE
8
Layer 1
10
65.787643
20
87.109498
11
65.252744
21
86.637437
0
LINE
8
Layer 1
10
65.252744
20
86.637437
11
64.690186
21
85.824215
0
LINE
8
Layer 1
10
64.690186
20
85.824215
11
64.250925
21
84.927486
0
LINE
8
Layer 1
10
64.250925
20
84.927486
11
64.085916
21
84.204909
0
LINE
8
Layer 1
10
64.085916
20
84.204909
11
64.184939
21
84.024992
0
LINE
8
Layer 1
10
64.184939
20
84.024992
11
64.438694
21
84.535628
0
LINE
8
Layer 1
10
64.438694
20
84.535628
11
65.255064
21
85.996622
0
LINE
8
Layer 1
10
65.255064
20
85.996622
11
65.788158
21
86.512957
0
LINE
8
Layer 1
10
65.788158
20
86.512957
11
66.436240
21
86.924444
0
LINE
8
Layer 1
10
66.436240
20
86.924444
11
67.183692
21
87.451406
0
LINE
8
Layer 1
10
67.183692
20
87.451406
11
67.829870
21
88.123889
0
LINE
8
Layer 1
10
67.829870
20
88.123889
11
68.323580
21
88.696743
0
LINE
8
Layer 1
10
68.323580
20
88.696743
11
68.626899
21
88.874965
0
LINE
8
Layer 1
10
68.626899
20
88.874965
11
68.685770
21
88.663513
0
LINE
8
Layer 1
10
68.685770
20
88.663513
11
68.446136
21
88.067348
0
LINE
8
Layer 1
10
68.446136
20
88.067348
11
68.060862
21
87.047335
0
LINE
8
Layer 1
10
68.060862
20
87.047335
11
68.862222
21
87.630000
0
LINE
8
Layer 1
10
68.862222
20
87.630000
11
69.491944
21
88.156334
0
LINE
8
Layer 1
10
69.491944
20
88.156334
11
69.688319
21
88.168823
0
LINE
8
Layer 1
10
69.688319
20
88.168823
11
68.810957
21
87.012664
0
LINE
8
Layer 1
10
68.810957
20
87.012664
11
68.226414
21
86.308752
0
LINE
8
Layer 1
10
68.226414
20
86.308752
11
68.081946
21
85.917312
0
LINE
8
Layer 1
10
68.081946
20
85.917312
11
68.594011
21
85.971750
0
LINE
8
Layer 1
10
68.594011
20
85.971750
11
69.587937
21
86.339841
0
LINE
8
Layer 1
10
69.587937
20
86.339841
11
70.999865
21
86.799615
0
LINE
8
Layer 1
10
70.999865
20
86.799615
11
71.073223
21
86.697180
0
LINE
8
Layer 1
10
71.073223
20
86.697180
11
70.571823
21
86.368707
0
LINE
8
Layer 1
10
70.571823
20
86.368707
11
70.151192
21
86.030286
0
LINE
8
Layer 1
10
70.151192
20
86.030286
11
70.193154
21
85.763724
0
LINE
8
Layer 1
10
70.193154
20
85.763724
11
70.642356
21
85.615742
0
LINE
8
Layer 1
10
70.642356
20
85.615742
11
71.443441
21
85.633060
0
LINE
8
Layer 1
10
71.443441
20
85.633060
11
72.367944
21
85.873651
0
LINE
8
Layer 1
10
72.367944
20
85.873651
11
73.613785
21
86.427932
0
LINE
8
Layer 1
10
73.613785
20
86.427932
11
77.328889
21
88.608727
0
LINE
8
Layer 1
10
77.328889
20
88.608727
11
79.304444
21
89.595785
0
LINE
8
Layer 1
10
79.304444
20
89.595785
11
79.835274
21
89.689734
0
LINE
8
Layer 1
10
79.835274
20
89.689734
11
79.462170
21
89.337947
0
LINE
8
Layer 1
10
79.462170
20
89.337947
11
79.154383
21
88.958493
0
LINE
8
Layer 1
10
79.154383
20
88.958493
11
80.026614
21
88.866579
0
LINE
8
Layer 1
10
80.026614
20
88.866579
11
81.350556
21
88.866579
0
LINE
8
Layer 1
10
81.350556
20
88.866579
11
81.500045
21
88.765828
0
LINE
8
Layer 1
10
81.500045
20
88.765828
11
81.562222
21
88.476667
0
LINE
8
Layer 1
10
81.562222
20
88.476667
11
81.726852
21
88.176806
0
LINE
8
Layer 1
10
81.726852
20
88.176806
11
82.126667
21
88.053333
0
LINE
8
Layer 1
10
82.126667
20
88.053333
11
82.525306
21
87.953850
0
LINE
8
Layer 1
10
82.525306
20
87.953850
11
82.691111
21
87.714667
0
LINE
8
Layer 1
10
82.691111
20
87.714667
11
82.761667
21
87.517112
0
LINE
8
Layer 1
10
82.761667
20
87.517112
11
83.029778
21
87.714667
0
LINE
8
Layer 1
10
83.029778
20
87.714667
11
83.597073
21
88.044809
0
LINE
8
Layer 1
10
83.597073
20
88.044809
11
83.745886
21
88.000737
0
LINE
8
Layer 1
10
83.745886
20
88.000737
11
83.698718
21
87.803197
0
LINE
8
Layer 1
10
83.698718
20
87.803197
11
83.747573
21
87.615362
0
LINE
8
Layer 1
10
83.747573
20
87.615362
11
84.047575
21
87.410070
0
LINE
8
Layer 1
10
84.047575
20
87.410070
11
85.090000
21
87.103520
0
LINE
8
Layer 1
10
85.090000
20
87.103520
11
85.444062
21
86.762636
0
LINE
8
Layer 1
10
85.444062
20
86.762636
11
85.715883
21
86.043908
0
LINE
8
Layer 1
10
85.715883
20
86.043908
11
85.827458
21
85.254235
0
LINE
8
Layer 1
10
85.827458
20
85.254235
11
85.700783
21
84.700516
0
LINE
8
Layer 1
10
85.700783
20
84.700516
11
85.616371
21
84.422858
0
LINE
8
Layer 1
10
85.616371
20
84.422858
11
86.294982
21
84.511275
0
LINE
8
Layer 1
10
86.294982
20
84.511275
11
86.882528
21
84.576615
0
LINE
8
Layer 1
10
86.882528
20
84.576615
11
87.171734
21
84.467571
0
LINE
8
Layer 1
10
87.171734
20
84.467571
11
87.145428
21
84.208205
0
LINE
8
Layer 1
10
87.145428
20
84.208205
11
86.786441
21
83.822580
0
LINE
8
Layer 1
10
86.786441
20
83.822580
11
86.531425
21
83.508687
0
LINE
8
Layer 1
10
86.531425
20
83.508687
11
86.508404
21
83.243756
0
LINE
8
Layer 1
10
86.508404
20
83.243756
11
86.421912
21
83.054618
0
LINE
8
Layer 1
10
86.421912
20
83.054618
11
86.014292
21
82.922954
0
LINE
8
Layer 1
10
86.014292
20
82.922954
11
85.534893
21
82.704357
0
LINE
8
Layer 1
10
85.534893
20
82.704357
11
85.277418
21
82.304910
0
LINE
8
Layer 1
10
85.277418
20
82.304910
11
85.280496
21
81.978294
0
LINE
8
Layer 1
10
85.280496
20
81.978294
11
85.429121
21
81.933511
0
LINE
8
Layer 1
10
85.429121
20
81.933511
11
85.717913
21
81.975254
0
LINE
8
Layer 1
10
85.717913
20
81.975254
11
86.057986
21
81.856676
0
LINE
8
Layer 1
10
86.057986
20
81.856676
11
86.202412
21
81.629632
0
LINE
8
Layer 1
10
86.202412
20
81.629632
11
85.762290
21
81.416946
0
LINE
8
Layer 1
10
85.762290
20
81.416946
11
84.585116
21
80.680537
0
LINE
8
Layer 1
10
84.585116
20
80.680537
11
84.108180
21
80.338704
0
LINE
8
Layer 1
10
84.108180
20
80.338704
11
83.579140
21
80.168002
0
LINE
8
Layer 1
10
83.579140
20
80.168002
11
83.150143
21
80.191767
0
LINE
8
Layer 1
10
83.150143
20
80.191767
11
82.973333
21
80.433333
0
LINE
8
Layer 1
10
82.973333
20
80.433333
11
83.061129
21
80.632653
0
LINE
8
Layer 1
10
83.061129
20
80.632653
11
83.272212
21
80.715556
0
LINE
8
Layer 1
10
83.272212
20
80.715556
11
83.432058
21
80.798458
0
LINE
8
Layer 1
10
83.432058
20
80.798458
11
83.396667
21
80.997778
0
LINE
8
Layer 1
10
83.396667
20
80.997778
11
83.464904
21
81.206714
0
LINE
8
Layer 1
10
83.464904
20
81.206714
11
83.873899
21
81.312738
0
LINE
8
Layer 1
10
83.873899
20
81.312738
11
84.267975
21
81.367136
0
LINE
8
Layer 1
10
84.267975
20
81.367136
11
84.031667
21
81.474544
0
LINE
8
Layer 1
10
84.031667
20
81.474544
11
83.710634
21
81.634099
0
LINE
8
Layer 1
10
83.710634
20
81.634099
11
83.550205
21
81.851859
0
LINE
8
Layer 1
10
83.550205
20
81.851859
11
83.577591
21
82.043993
0
LINE
8
Layer 1
10
83.577591
20
82.043993
11
83.820000
21
82.126667
0
LINE
8
Layer 1
10
83.820000
20
82.126667
11
83.987005
21
82.217788
0
LINE
8
Layer 1
10
83.987005
20
82.217788
11
84.082835
21
82.468112
0
LINE
8
Layer 1
10
84.082835
20
82.468112
11
84.078475
21
83.308127
0
LINE
8
Layer 1
10
84.078475
20
83.308127
11
83.841935
21
84.370232
0
LINE
8
Layer 1
10
83.841935
20
84.370232
11
83.408232
21
85.377946
0
LINE
8
Layer 1
10
83.408232
20
85.377946
11
82.726057
21
86.348863
0
LINE
8
Layer 1
10
82.726057
20
86.348863
11
81.982489
21
87.003268
0
LINE
8
Layer 1
10
81.982489
20
87.003268
11
81.128236
21
87.372748
0
LINE
8
Layer 1
10
81.128236
20
87.372748
11
80.114005
21
87.488889
0
LINE
8
Layer 1
10
80.114005
20
87.488889
11
79.351270
21
87.445842
0
LINE
8
Layer 1
10
79.351270
20
87.445842
11
79.191361
21
87.289179
0
LINE
8
Layer 1
10
79.191361
20
87.289179
11
80.789492
21
86.469855
0
LINE
8
Layer 1
10
80.789492
20
86.469855
11
81.849850
21
85.922161
0
LINE
8
Layer 1
10
81.849850
20
85.922161
11
82.350237
21
85.471522
0
LINE
8
Layer 1
10
82.350237
20
85.471522
11
82.362459
21
85.272635
0
LINE
8
Layer 1
10
82.362459
20
85.272635
11
82.163497
21
85.505160
0
LINE
8
Layer 1
10
82.163497
20
85.505160
11
81.867273
21
85.789382
0
LINE
8
Layer 1
10
81.867273
20
85.789382
11
81.687989
21
85.691558
0
LINE
8
Layer 1
10
81.687989
20
85.691558
11
81.653380
21
85.278000
0
LINE
8
Layer 1
10
81.653380
20
85.278000
11
81.791183
21
84.615020
0
LINE
8
Layer 1
10
81.791183
20
84.615020
11
82.215578
21
82.120791
0
LINE
8
Layer 1
10
82.215578
20
82.120791
11
82.198593
21
80.638904
0
LINE
8
Layer 1
10
82.198593
20
80.638904
11
81.594655
21
79.443470
0
LINE
8
Layer 1
10
81.594655
20
79.443470
11
80.867764
21
78.545058
0
LINE
8
Layer 1
10
80.867764
20
78.545058
11
80.021448
21
77.803535
0
LINE
8
Layer 1
10
80.021448
20
77.803535
11
79.069953
21
77.223246
0
LINE
8
Layer 1
10
79.069953
20
77.223246
11
78.027523
21
76.808538
0
LINE
8
Layer 1
10
78.027523
20
76.808538
11
76.908402
21
76.563757
0
LINE
8
Layer 1
10
76.908402
20
76.563757
11
75.726835
21
76.493249
0
LINE
8
Layer 1
10
75.726835
20
76.493249
11
74.497067
21
76.601359
0
LINE
8
Layer 1
10
74.497067
20
76.601359
11
73.233342
21
76.892435
0
LINE
8
Layer 1
10
73.233342
20
76.892435
11
72.201313
21
77.139265
0
LINE
8
Layer 1
10
72.201313
20
77.139265
11
71.634099
21
77.156663
0
LINE
8
Layer 1
10
71.634099
20
77.156663
11
71.337639
21
77.183202
0
LINE
8
Layer 1
10
71.337639
20
77.183202
11
70.956565
21
77.452006
0
LINE
8
Layer 1
10
70.956565
20
77.452006
11
70.391940
21
77.763693
0
LINE
8
Layer 1
10
70.391940
20
77.763693
11
69.654174
21
77.893333
0
LINE
8
Layer 1
10
69.654174
20
77.893333
11
69.012071
21
77.816878
0
LINE
8
Layer 1
10
69.012071
20
77.816878
11
69.144444
21
77.470000
0
LINE
8
Layer 1
10
69.144444
20
77.470000
11
69.497110
21
77.171021
0
LINE
8
Layer 1
10
69.497110
20
77.171021
11
69.851640
21
77.046667
0
LINE
8
Layer 1
10
69.851640
20
77.046667
11
70.154141
21
76.901587
0
LINE
8
Layer 1
10
70.154141
20
76.901587
11
70.381709
21
76.552778
0
LINE
8
Layer 1
10
70.381709
20
76.552778
11
70.738080
21
75.635556
0
LINE
8
Layer 1
10
70.738080
20
75.635556
11
70.717777
21
75.457362
0
LINE
8
Layer 1
10
70.717777
20
75.457362
11
70.291427
21
75.770794
0
LINE
8
Layer 1
10
70.291427
20
75.770794
11
69.718341
21
76.170164
0
LINE
8
Layer 1
10
69.718341
20
76.170164
11
69.396062
21
75.853070
0
LINE
8
Layer 1
10
69.396062
20
75.853070
11
69.071557
21
75.550361
0
LINE
8
Layer 1
10
69.071557
20
75.550361
11
68.643091
21
75.559006
0
LINE
8
Layer 1
10
68.643091
20
75.559006
11
68.307126
21
75.627860
0
LINE
8
Layer 1
10
68.307126
20
75.627860
11
68.544000
21
75.265063
0
LINE
8
Layer 1
10
68.544000
20
75.265063
11
68.755666
21
74.788889
0
LINE
8
Layer 1
10
68.755666
20
74.788889
11
68.247076
21
74.679564
0
LINE
8
Layer 1
10
68.247076
20
74.679564
11
67.812864
21
74.252449
0
LINE
8
Layer 1
10
67.812864
20
74.252449
11
67.527733
21
74.010426
0
LINE
8
Layer 1
10
67.527733
20
74.010426
11
67.460086
21
74.544307
0
LINE
8
Layer 1
10
67.460086
20
74.544307
11
67.460086
21
74.544307
0
LINE
8
Layer 1
10
77.750772
20
78.052027
11
78.591466
21
78.540525
0
LINE
8
Layer 1
10
78.591466
20
78.540525
11
79.400120
21
79.235600
0
LINE
8
Layer 1
10
79.400120
20
79.235600
11
80.038022
21
79.997539
0
LINE
8
Layer 1
10
80.038022
20
79.997539
11
80.366464
21
80.686631
0
LINE
8
Layer 1
10
80.366464
20
80.686631
11
80.625275
21
82.338333
0
LINE
8
Layer 1
10
80.625275
20
82.338333
11
80.667382
21
83.331636
0
LINE
8
Layer 1
10
80.667382
20
83.331636
11
80.529569
21
83.507150
0
LINE
8
Layer 1
10
80.529569
20
83.507150
11
80.258370
21
83.560059
0
LINE
8
Layer 1
10
80.258370
20
83.560059
11
79.983727
21
83.617128
0
LINE
8
Layer 1
10
79.983727
20
83.617128
11
80.080556
21
83.724688
0
LINE
8
Layer 1
10
80.080556
20
83.724688
11
80.329705
21
83.973968
0
LINE
8
Layer 1
10
80.329705
20
83.973968
11
80.433333
21
84.373407
0
LINE
8
Layer 1
10
80.433333
20
84.373407
11
80.345986
21
84.794712
0
LINE
8
Layer 1
10
80.345986
20
84.794712
11
80.076935
21
85.137162
0
LINE
8
Layer 1
10
80.076935
20
85.137162
11
78.951667
21
85.620905
0
LINE
8
Layer 1
10
78.951667
20
85.620905
11
78.386191
21
85.675243
0
LINE
8
Layer 1
10
78.386191
20
85.675243
11
78.175556
21
85.508781
0
LINE
8
Layer 1
10
78.175556
20
85.508781
11
78.040939
21
85.354364
0
LINE
8
Layer 1
10
78.040939
20
85.354364
11
77.611978
21
85.512870
0
LINE
8
Layer 1
10
77.611978
20
85.512870
11
77.002433
21
85.652808
0
LINE
8
Layer 1
10
77.002433
20
85.652808
11
76.271422
21
85.365466
0
LINE
8
Layer 1
10
76.271422
20
85.365466
11
75.744346
21
85.019084
0
LINE
8
Layer 1
10
75.744346
20
85.019084
11
76.129444
21
85.047356
0
LINE
8
Layer 1
10
76.129444
20
85.047356
11
76.599406
21
85.046409
0
LINE
8
Layer 1
10
76.599406
20
85.046409
11
76.764444
21
84.801840
0
LINE
8
Layer 1
10
76.764444
20
84.801840
11
76.974480
21
84.370775
0
LINE
8
Layer 1
10
76.974480
20
84.370775
11
77.479457
21
83.862982
0
LINE
8
Layer 1
10
77.479457
20
83.862982
11
77.911748
21
83.407881
0
LINE
8
Layer 1
10
77.911748
20
83.407881
11
77.902791
21
83.120289
0
LINE
8
Layer 1
10
77.902791
20
83.120289
11
77.696792
21
82.755176
0
LINE
8
Layer 1
10
77.696792
20
82.755176
11
77.611111
21
82.130494
0
LINE
8
Layer 1
10
77.611111
20
82.130494
11
77.415567
21
81.403967
0
LINE
8
Layer 1
10
77.415567
20
81.403967
11
76.900146
21
80.769915
0
LINE
8
Layer 1
10
76.900146
20
80.769915
11
76.171661
21
80.321307
0
LINE
8
Layer 1
10
76.171661
20
80.321307
11
75.336928
21
80.151111
0
LINE
8
Layer 1
10
75.336928
20
80.151111
11
74.424817
21
80.365742
0
LINE
8
Layer 1
10
74.424817
20
80.365742
11
73.614865
21
80.927043
0
LINE
8
Layer 1
10
73.614865
20
80.927043
11
73.035045
21
81.711126
0
LINE
8
Layer 1
10
73.035045
20
81.711126
11
72.813333
21
82.594106
0
LINE
8
Layer 1
10
72.813333
20
82.594106
11
72.711584
21
83.386308
0
LINE
8
Layer 1
10
72.711584
20
83.386308
11
72.520272
21
83.454751
0
LINE
8
Layer 1
10
72.520272
20
83.454751
11
72.178333
21
83.374837
0
LINE
8
Layer 1
10
72.178333
20
83.374837
11
71.449268
21
83.061657
0
LINE
8
Layer 1
10
71.449268
20
83.061657
11
70.847942
21
82.647248
0
LINE
8
Layer 1
10
70.847942
20
82.647248
11
70.437778
21
82.186485
0
LINE
8
Layer 1
10
70.437778
20
82.186485
11
70.282201
21
81.734245
0
LINE
8
Layer 1
10
70.282201
20
81.734245
11
70.474278
21
80.788631
0
LINE
8
Layer 1
10
70.474278
20
80.788631
11
71.004531
21
79.775855
0
LINE
8
Layer 1
10
71.004531
20
79.775855
11
71.761286
21
78.863001
0
LINE
8
Layer 1
10
71.761286
20
78.863001
11
72.632872
21
78.217155
0
LINE
8
Layer 1
10
72.632872
20
78.217155
11
73.816082
21
77.798375
0
LINE
8
Layer 1
10
73.816082
20
77.798375
11
75.156916
21
77.628245
0
LINE
8
Layer 1
10
75.156916
20
77.628245
11
76.515202
21
77.711288
0
LINE
8
Layer 1
10
76.515202
20
77.711288
11
77.750772
21
78.052027
0
LINE
8
Layer 1
10
77.750772
20
78.052027
11
77.750772
21
78.052027
0
LINE
8
Layer 1
10
78.457778
20
80.134454
11
78.540681
21
80.345538
0
LINE
8
Layer 1
10
78.540681
20
80.345538
11
78.740000
21
80.433333
0
LINE
8
Layer 1
10
78.740000
20
80.433333
11
79.022222
21
80.308879
0
LINE
8
Layer 1
10
79.022222
20
80.308879
11
78.740000
21
80.010000
0
LINE
8
Layer 1
10
78.740000
20
80.010000
11
78.540681
21
79.974609
0
LINE
8
Layer 1
10
78.540681
20
79.974609
11
78.457778
21
80.134454
0
LINE
8
Layer 1
10
78.457778
20
80.134454
11
78.457778
21
80.134454
0
LINE
8
Layer 1
10
75.917778
20
82.832222
11
75.793424
21
83.131201
0
LINE
8
Layer 1
10
75.793424
20
83.131201
11
75.494444
21
83.255556
0
LINE
8
Layer 1
10
75.494444
20
83.255556
11
75.226106
21
83.198328
0
LINE
8
Layer 1
10
75.226106
20
83.198328
11
75.089810
21
83.048072
0
LINE
8
Layer 1
10
75.089810
20
83.048072
11
75.259260
21
82.597038
0
LINE
8
Layer 1
10
75.259260
20
82.597038
11
75.710294
21
82.427588
0
LINE
8
Layer 1
10
75.710294
20
82.427588
11
75.860550
21
82.563884
0
LINE
8
Layer 1
10
75.860550
20
82.563884
11
75.917778
21
82.832222
0
LINE
8
Layer 1
10
75.917778
20
82.832222
11
75.917778
21
82.832222
0
LINE
8
Layer 1
10
75.071111
20
84.102222
11
74.988208
21
84.301542
0
LINE
8
Layer 1
10
74.988208
20
84.301542
11
74.788889
21
84.384444
0
LINE
8
Layer 1
10
74.788889
20
84.384444
11
74.589569
21
84.301542
0
LINE
8
Layer 1
10
74.589569
20
84.301542
11
74.506667
21
84.102222
0
LINE
8
Layer 1
10
74.506667
20
84.102222
11
74.589569
21
83.902903
0
LINE
8
Layer 1
10
74.589569
20
83.902903
11
74.788889
21
83.820000
0
LINE
8
Layer 1
10
74.788889
20
83.820000
11
74.988208
21
83.902903
0
LINE
8
Layer 1
10
74.988208
20
83.902903
11
75.071111
21
84.102222
0
LINE
8
Layer 1
10
75.071111
20
84.102222
11
75.071111
21
84.102222
0
LINE
8
Layer 1
10
63.500000
20
74.647778
11
63.610916
21
75.071111
0
LINE
8
Layer 1
10
63.610916
20
75.071111
11
63.884282
21
74.647778
0
LINE
8
Layer 1
10
63.884282
20
74.647778
11
63.918709
21
74.348799
0
LINE
8
Layer 1
10
63.918709
20
74.348799
11
63.773366
21
74.224444
0
LINE
8
Layer 1
10
63.773366
20
74.224444
11
63.580301
21
74.348799
0
LINE
8
Layer 1
10
63.580301
20
74.348799
11
63.500000
21
74.647778
0
LINE
8
Layer 1
10
63.500000
20
74.647778
11
63.500000
21
74.647778
0
LINE
8
Layer 1
10
41.193562
20
75.575544
11
38.839312
21
77.139354
0
LINE
8
Layer 1
10
38.839312
20
77.139354
11
36.510979
21
78.596075
0
LINE
8
Layer 1
10
36.510979
20
78.596075
11
35.740138
21
79.011758
0
LINE
8
Layer 1
10
35.740138
20
79.011758
11
35.564672
21
79.323741
0
LINE
8
Layer 1
10
35.564672
20
79.323741
11
35.959754
21
79.479184
0
LINE
8
Layer 1
10
35.959754
20
79.479184
11
36.900556
21
79.425244
0
LINE
8
Layer 1
10
36.900556
20
79.425244
11
38.891340
21
78.954016
0
LINE
8
Layer 1
10
38.891340
20
78.954016
11
40.626409
21
78.223072
0
LINE
8
Layer 1
10
40.626409
20
78.223072
11
41.862316
21
77.362799
0
LINE
8
Layer 1
10
41.862316
20
77.362799
11
42.217007
21
76.924910
0
LINE
8
Layer 1
10
42.217007
20
76.924910
11
42.355615
21
76.503584
0
LINE
8
Layer 1
10
42.355615
20
76.503584
11
42.409480
21
76.273900
0
LINE
8
Layer 1
10
42.409480
20
76.273900
11
42.515028
21
76.396020
0
LINE
8
Layer 1
10
42.515028
20
76.396020
11
42.516882
21
76.811622
0
LINE
8
Layer 1
10
42.516882
20
76.811622
11
42.328770
21
77.337415
0
LINE
8
Layer 1
10
42.328770
20
77.337415
11
42.148546
21
78.084844
0
LINE
8
Layer 1
10
42.148546
20
78.084844
11
42.385521
21
77.923224
0
LINE
8
Layer 1
10
42.385521
20
77.923224
11
42.754225
21
77.333610
0
LINE
8
Layer 1
10
42.754225
20
77.333610
11
43.074047
21
76.472169
0
LINE
8
Layer 1
10
43.074047
20
76.472169
11
42.768528
21
75.755161
0
LINE
8
Layer 1
10
42.768528
20
75.755161
11
42.465345
21
75.296208
0
LINE
8
Layer 1
10
42.465345
20
75.296208
11
42.229484
21
75.127850
0
LINE
8
Layer 1
10
42.229484
20
75.127850
11
41.193562
21
75.575544
0
LINE
8
Layer 1
10
41.193562
20
75.575544
11
41.193562
21
75.575544
0
LINE
8
Layer 1
10
78.251352
20
75.336380
11
76.916484
21
75.704737
0
LINE
8
Layer 1
10
76.916484
20
75.704737
11
76.815482
21
75.856385
0
LINE
8
Layer 1
10
76.815482
20
75.856385
11
77.211295
21
75.919516
0
LINE
8
Layer 1
10
77.211295
20
75.919516
11
78.495644
21
76.309152
0
LINE
8
Layer 1
10
78.495644
20
76.309152
11
79.141986
21
76.525623
0
LINE
8
Layer 1
10
79.141986
20
76.525623
11
79.624532
21
76.452849
0
LINE
8
Layer 1
10
79.624532
20
76.452849
11
80.087654
21
76.250787
0
LINE
8
Layer 1
10
80.087654
20
76.250787
11
80.550331
21
76.234731
0
LINE
8
Layer 1
10
80.550331
20
76.234731
11
81.018276
21
76.405633
0
LINE
8
Layer 1
10
81.018276
20
76.405633
11
81.497207
21
76.764444
0
LINE
8
Layer 1
10
81.497207
20
76.764444
11
82.380432
21
77.328889
0
LINE
8
Layer 1
10
82.380432
20
77.328889
11
82.850874
21
77.641289
0
LINE
8
Layer 1
10
82.850874
20
77.641289
11
82.886093
21
77.770404
0
LINE
8
Layer 1
10
82.886093
20
77.770404
11
82.786709
21
77.832587
0
LINE
8
Layer 1
10
82.786709
20
77.832587
11
82.161975
21
77.759978
0
LINE
8
Layer 1
10
82.161975
20
77.759978
11
81.509956
21
77.696199
0
LINE
8
Layer 1
10
81.509956
20
77.696199
11
81.280000
21
77.870908
0
LINE
8
Layer 1
10
81.280000
20
77.870908
11
81.483357
21
78.086066
0
LINE
8
Layer 1
10
81.483357
20
78.086066
11
81.972277
21
78.175556
0
LINE
8
Layer 1
10
81.972277
20
78.175556
11
82.721215
21
78.271450
0
LINE
8
Layer 1
10
82.721215
20
78.271450
11
83.400004
21
78.528216
0
LINE
8
Layer 1
10
83.400004
20
78.528216
11
83.920109
21
78.899475
0
LINE
8
Layer 1
10
83.920109
20
78.899475
11
84.192993
21
79.338847
0
LINE
8
Layer 1
10
84.192993
20
79.338847
11
84.372007
21
79.680479
0
LINE
8
Layer 1
10
84.372007
20
79.680479
11
84.625079
21
79.855838
0
LINE
8
Layer 1
10
84.625079
20
79.855838
11
84.851082
21
79.832776
0
LINE
8
Layer 1
10
84.851082
20
79.832776
11
84.948889
21
79.579145
0
LINE
8
Layer 1
10
84.948889
20
79.579145
11
84.250167
21
78.530411
0
LINE
8
Layer 1
10
84.250167
20
78.530411
11
82.432672
21
76.545934
0
LINE
8
Layer 1
10
82.432672
20
76.545934
11
80.985394
21
75.550059
0
LINE
8
Layer 1
10
80.985394
20
75.550059
11
80.208312
21
75.206396
0
LINE
8
Layer 1
10
80.208312
20
75.206396
11
79.666287
21
75.106437
0
LINE
8
Layer 1
10
79.666287
20
75.106437
11
78.251352
21
75.336380
0
LINE
8
Layer 1
10
78.251352
20
75.336380
11
78.251352
21
75.336380
0
LINE
8
Layer 1
10
21.199602
20
75.800066
11
22.095779
21
77.551447
0
LINE
8
Layer 1
10
22.095779
20
77.551447
11
22.646201
21
78.472226
0
LINE
8
Layer 1
10
22.646201
20
78.472226
11
23.222996
21
79.059921
0
LINE
8
Layer 1
10
23.222996
20
79.059921
11
23.991682
21
79.432684
0
LINE
8
Layer 1
10
23.991682
20
79.432684
11
25.117778
21
79.708669
0
LINE
8
Layer 1
10
25.117778
20
79.708669
11
26.105556
21
79.902581
0
LINE
8
Layer 1
10
26.105556
20
79.902581
11
24.412222
21
78.330710
0
LINE
8
Layer 1
10
24.412222
20
78.330710
11
22.038383
21
76.263131
0
LINE
8
Layer 1
10
22.038383
20
76.263131
11
21.365476
21
75.782484
0
LINE
8
Layer 1
10
21.365476
20
75.782484
11
21.211456
21
75.722927
0
LINE
8
Layer 1
10
21.211456
20
75.722927
11
21.199602
21
75.800066
0
LINE
8
Layer 1
10
21.199602
20
75.800066
11
21.199602
21
75.800066
0
LINE
8
Layer 1
10
48.698435
20
77.752222
11
48.055899
21
78.649160
0
LINE
8
Layer 1
10
48.055899
20
78.649160
11
47.972441
21
79.022222
0
LINE
8
Layer 1
10
47.972441
20
79.022222
11
47.941990
21
79.389496
0
LINE
8
Layer 1
10
47.941990
20
79.389496
11
47.426891
21
80.272517
0
LINE
8
Layer 1
10
47.426891
20
80.272517
11
46.719740
21
81.409709
0
LINE
8
Layer 1
10
46.719740
20
81.409709
11
46.555293
21
81.990729
0
LINE
8
Layer 1
10
46.555293
20
81.990729
11
46.938401
21
82.029314
0
LINE
8
Layer 1
10
46.938401
20
82.029314
11
47.873912
21
81.539204
0
LINE
8
Layer 1
10
47.873912
20
81.539204
11
48.790412
21
80.752357
0
LINE
8
Layer 1
10
48.790412
20
80.752357
11
48.690989
21
80.592417
0
LINE
8
Layer 1
10
48.690989
20
80.592417
11
48.197211
21
80.650201
0
LINE
8
Layer 1
10
48.197211
20
80.650201
11
47.875822
21
80.711667
0
LINE
8
Layer 1
10
47.875822
20
80.711667
11
47.797321
21
80.621232
0
LINE
8
Layer 1
10
47.797321
20
80.621232
11
48.440763
21
79.706557
0
LINE
8
Layer 1
10
48.440763
20
79.706557
11
49.642301
21
77.918300
0
LINE
8
Layer 1
10
49.642301
20
77.918300
11
50.235556
21
76.637348
0
LINE
8
Layer 1
10
50.235556
20
76.637348
11
50.125228
21
76.460235
0
LINE
8
Layer 1
10
50.125228
20
76.460235
11
49.813256
21
76.600798
0
LINE
8
Layer 1
10
49.813256
20
76.600798
11
48.698435
21
77.752222
0
LINE
8
Layer 1
10
48.698435
20
77.752222
11
48.698435
21
77.752222
0
LINE
8
Layer 1
10
80.151111
20
76.888899
11
80.238256
21
77.076592
0
LINE
8
Layer 1
10
80.238256
20
77.076592
11
80.442056
21
77.179535
0
LINE
8
Layer 1
10
80.442056
20
77.179535
11
80.676061
21
77.177752
0
LINE
8
Layer 1
10
80.676061
20
77.177752
11
80.853822
21
77.051270
0
LINE
8
Layer 1
10
80.853822
20
77.051270
11
80.849771
21
76.848699
0
LINE
8
Layer 1
10
80.849771
20
76.848699
11
80.591101
21
76.764444
0
LINE
8
Layer 1
10
80.591101
20
76.764444
11
80.151111
21
76.888899
0
LINE
8
Layer 1
10
80.151111
20
76.888899
11
80.151111
21
76.888899
0
LINE
8
Layer 1
10
93.415556
20
77.046667
11
93.498458
21
77.245986
0
LINE
8
Layer 1
10
93.498458
20
77.245986
11
93.697778
21
77.328889
0
LINE
8
Layer 1
10
93.697778
20
77.328889
11
93.897097
21
77.245986
0
LINE
8
Layer 1
10
93.897097
20
77.245986
11
93.980000
21
77.046667
0
LINE
8
Layer 1
10
93.980000
20
77.046667
11
93.897097
21
76.847347
0
LINE
8
Layer 1
10
93.897097
20
76.847347
11
93.697778
21
76.764444
0
LINE
8
Layer 1
10
93.697778
20
76.764444
11
93.498458
21
76.847347
0
LINE
8
Layer 1
10
93.498458
20
76.847347
11
93.415556
21
77.046667
0
LINE
8
Layer 1
10
93.415556
20
77.046667
11
93.415556
21
77.046667
0
LINE
8
Layer 1
10
60.960000
20
78.175556
11
61.030556
21
78.641222
0
LINE
8
Layer 1
10
61.030556
20
78.641222
11
61.298667
21
78.514222
0
LINE
8
Layer 1
10
61.298667
20
78.514222
11
61.496222
21
78.175556
0
LINE
8
Layer 1
10
61.496222
20
78.175556
11
61.298667
21
77.836889
0
LINE
8
Layer 1
10
61.298667
20
77.836889
11
61.030556
21
77.709889
0
LINE
8
Layer 1
10
61.030556
20
77.709889
11
60.960000
21
78.175556
0
LINE
8
Layer 1
10
60.960000
20
78.175556
11
60.960000
21
78.175556
0
LINE
8
Layer 1
10
50.235556
20
79.022222
11
49.706249
21
79.798511
0
LINE
8
Layer 1
10
49.706249
20
79.798511
11
49.638111
21
80.128132
0
LINE
8
Layer 1
10
49.638111
20
80.128132
11
49.968257
21
79.969939
0
LINE
8
Layer 1
10
49.968257
20
79.969939
11
50.633802
21
79.282790
0
LINE
8
Layer 1
10
50.633802
20
79.282790
11
51.304928
21
78.294470
0
LINE
8
Layer 1
10
51.304928
20
78.294470
11
51.376014
21
78.000339
0
LINE
8
Layer 1
10
51.376014
20
78.000339
11
51.247048
21
77.893333
0
LINE
8
Layer 1
10
51.247048
20
77.893333
11
50.235556
21
79.022222
0
LINE
8
Layer 1
10
50.235556
20
79.022222
11
50.235556
21
79.022222
0
LINE
8
Layer 1
10
44.878995
20
78.592068
11
44.696904
21
78.907728
0
LINE
8
Layer 1
10
44.696904
20
78.907728
11
44.822121
21
79.022222
0
LINE
8
Layer 1
10
44.822121
20
79.022222
11
45.294932
21
78.730041
0
LINE
8
Layer 1
10
45.294932
20
78.730041
11
45.410831
21
78.487882
0
LINE
8
Layer 1
10
45.410831
20
78.487882
11
45.365145
21
78.291069
0
LINE
8
Layer 1
10
45.365145
20
78.291069
11
44.878995
21
78.592068
0
LINE
8
Layer 1
10
44.878995
20
78.592068
11
44.878995
21
78.592068
0
LINE
8
Layer 1
10
87.065556
20
79.022222
11
87.663311
21
79.304444
0
LINE
8
Layer 1
10
87.663311
20
79.304444
11
87.911054
21
79.221542
0
LINE
8
Layer 1
10
87.911054
20
79.221542
11
87.912222
21
79.022222
0
LINE
8
Layer 1
10
87.912222
20
79.022222
11
87.314467
21
78.740000
0
LINE
8
Layer 1
10
87.314467
20
78.740000
11
87.066724
21
78.822903
0
LINE
8
Layer 1
10
87.066724
20
78.822903
11
87.065556
21
79.022222
0
LINE
8
Layer 1
10
87.065556
20
79.022222
11
87.065556
21
79.022222
0
LINE
8
Layer 1
10
102.805323
20
78.910510
11
103.346250
21
78.932789
0
LINE
8
Layer 1
10
103.346250
20
78.932789
11
103.468712
21
78.818829
0
LINE
8
Layer 1
10
103.468712
20
78.818829
11
103.175740
21
78.762281
0
LINE
8
Layer 1
10
103.175740
20
78.762281
11
102.843799
21
78.796632
0
LINE
8
Layer 1
10
102.843799
20
78.796632
11
102.805323
21
78.910510
0
LINE
8
Layer 1
10
102.805323
20
78.910510
11
102.805323
21
78.910510
0
LINE
8
Layer 1
10
85.633842
20
79.451615
11
86.264951
21
79.738503
0
LINE
8
Layer 1
10
86.264951
20
79.738503
11
86.348526
21
79.614844
0
LINE
8
Layer 1
10
86.348526
20
79.614844
11
86.230494
21
79.323221
0
LINE
8
Layer 1
10
86.230494
20
79.323221
11
85.958923
21
79.113277
0
LINE
8
Layer 1
10
85.958923
20
79.113277
11
85.567232
21
79.031197
0
LINE
8
Layer 1
10
85.567232
20
79.031197
11
85.264355
21
79.108898
0
LINE
8
Layer 1
10
85.264355
20
79.108898
11
85.633842
21
79.451615
0
LINE
8
Layer 1
10
85.633842
20
79.451615
11
85.633842
21
79.451615
0
LINE
8
Layer 1
10
90.170000
20
79.586667
11
90.963039
21
80.151111
0
LINE
8
Layer 1
10
90.963039
20
80.151111
11
91.012306
21
79.985306
0
LINE
8
Layer 1
10
91.012306
20
79.985306
11
90.734444
21
79.586667
0
LINE
8
Layer 1
10
90.734444
20
79.586667
11
89.941406
21
79.022222
0
LINE
8
Layer 1
10
89.941406
20
79.022222
11
89.892138
21
79.188028
0
LINE
8
Layer 1
10
89.892138
20
79.188028
11
90.170000
21
79.586667
0
LINE
8
Layer 1
10
90.170000
20
79.586667
11
90.170000
21
79.586667
0
LINE
8
Layer 1
10
35.771667
20
80.055799
11
36.477222
21
80.055799
0
LINE
8
Layer 1
10
36.477222
20
80.055799
11
36.519115
21
79.955265
0
LINE
8
Layer 1
10
36.519115
20
79.955265
11
36.124444
21
79.913449
0
LINE
8
Layer 1
10
36.124444
20
79.913449
11
35.729774
21
79.955265
0
LINE
8
Layer 1
10
35.729774
20
79.955265
11
35.771667
21
80.055799
0
LINE
8
Layer 1
10
35.771667
20
80.055799
11
35.771667
21
80.055799
0
LINE
8
Layer 1
10
103.011111
20
79.977084
11
103.575556
21
80.232885
0
LINE
8
Layer 1
10
103.575556
20
80.232885
11
103.974194
21
80.261990
0
LINE
8
Layer 1
10
103.974194
20
80.261990
11
104.140000
21
80.124689
0
LINE
8
Layer 1
10
104.140000
20
80.124689
11
103.974194
21
79.944030
0
LINE
8
Layer 1
10
103.974194
20
79.944030
11
103.575556
21
79.868889
0
LINE
8
Layer 1
10
103.575556
20
79.868889
11
103.011111
21
79.977084
0
LINE
8
Layer 1
10
103.011111
20
79.977084
11
103.011111
21
79.977084
0
LINE
8
Layer 1
10
85.513333
20
80.541529
11
85.679139
21
80.860620
0
LINE
8
Layer 1
10
85.679139
20
80.860620
11
86.077778
21
81.079552
0
LINE
8
Layer 1
10
86.077778
20
81.079552
11
86.452344
21
81.128644
0
LINE
8
Layer 1
10
86.452344
20
81.128644
11
86.618683
21
81.036642
0
LINE
8
Layer 1
10
86.618683
20
81.036642
11
86.303556
21
80.489778
0
LINE
8
Layer 1
10
86.303556
20
80.489778
11
85.739383
21
80.166458
0
LINE
8
Layer 1
10
85.739383
20
80.166458
11
85.573408
21
80.267394
0
LINE
8
Layer 1
10
85.573408
20
80.267394
11
85.513333
21
80.541529
0
LINE
8
Layer 1
10
85.513333
20
80.541529
11
85.513333
21
80.541529
0
LINE
8
Layer 1
10
51.787778
20
80.715556
11
51.752386
21
80.914875
0
LINE
8
Layer 1
10
51.752386
20
80.914875
11
51.912232
21
80.997778
0
LINE
8
Layer 1
10
51.912232
20
80.997778
11
52.123315
21
80.914875
0
LINE
8
Layer 1
10
52.123315
20
80.914875
11
52.211111
21
80.715556
0
LINE
8
Layer 1
10
52.211111
20
80.715556
11
52.086657
21
80.433333
0
LINE
8
Layer 1
10
52.086657
20
80.433333
11
51.787778
21
80.715556
0
LINE
8
Layer 1
10
51.787778
20
80.715556
11
51.787778
21
80.715556
0
LINE
8
Layer 1
10
59.407778
20
80.715556
11
59.372386
21
80.914875
0
LINE
8
Layer 1
10
59.372386
20
80.914875
11
59.532232
21
80.997778
0
LINE
8
Layer 1
10
59.532232
20
80.997778
11
59.743315
21
80.914875
0
LINE
8
Layer 1
10
59.743315
20
80.914875
11
59.831111
21
80.715556
0
LINE
8
Layer 1
10
59.831111
20
80.715556
11
59.706657
21
80.433333
0
LINE
8
Layer 1
10
59.706657
20
80.433333
11
59.407778
21
80.715556
0
LINE
8
Layer 1
10
59.407778
20
80.715556
11
59.407778
21
80.715556
0
LINE
8
Layer 1
10
88.053333
20
80.856667
11
88.253642
21
81.186634
0
LINE
8
Layer 1
10
88.253642
20
81.186634
11
88.071235
21
81.280000
0
LINE
8
Layer 1
10
88.071235
20
81.280000
11
87.886982
21
81.362903
0
LINE
8
Layer 1
10
87.886982
20
81.362903
11
87.912222
21
81.562222
0
LINE
8
Layer 1
10
87.912222
20
81.562222
11
88.368866
21
81.844444
0
LINE
8
Layer 1
10
88.368866
20
81.844444
11
88.520490
21
81.767270
0
LINE
8
Layer 1
10
88.520490
20
81.767270
11
88.488720
21
81.581724
0
LINE
8
Layer 1
10
88.488720
20
81.581724
11
88.467150
21
81.338633
0
LINE
8
Layer 1
10
88.467150
20
81.338633
11
88.643305
21
81.123113
0
LINE
8
Layer 1
10
88.643305
20
81.123113
11
88.796281
21
80.916272
0
LINE
8
Layer 1
10
88.796281
20
80.916272
11
88.577352
21
80.684599
0
LINE
8
Layer 1
10
88.577352
20
80.684599
11
87.942815
21
80.452539
0
LINE
8
Layer 1
10
87.942815
20
80.452539
11
87.887799
21
80.580708
0
LINE
8
Layer 1
10
87.887799
20
80.580708
11
88.053333
21
80.856667
0
LINE
8
Layer 1
10
88.053333
20
80.856667
11
88.053333
21
80.856667
0
LINE
8
Layer 1
10
62.088889
20
81.138889
11
61.925528
21
81.480172
0
LINE
8
Layer 1
10
61.925528
20
81.480172
11
62.407111
21
81.539941
0
LINE
8
Layer 1
10
62.407111
20
81.539941
11
62.775840
21
81.482219
0
LINE
8
Layer 1
10
62.775840
20
81.482219
11
62.722131
21
81.374725
0
LINE
8
Layer 1
10
62.722131
20
81.374725
11
62.518600
21
81.197956
0
LINE
8
Layer 1
10
62.518600
20
81.197956
11
62.527121
21
80.973673
0
LINE
8
Layer 1
10
62.527121
20
80.973673
11
62.620623
21
80.759697
0
LINE
8
Layer 1
10
62.620623
20
80.759697
11
62.547926
21
80.727530
0
LINE
8
Layer 1
10
62.547926
20
80.727530
11
62.088889
21
81.138889
0
LINE
8
Layer 1
10
62.088889
20
81.138889
11
62.088889
21
81.138889
0
LINE
8
Layer 1
10
53.340000
20
81.562222
11
53.464454
21
81.844444
0
LINE
8
Layer 1
10
53.464454
20
81.844444
11
53.763333
21
81.562222
0
LINE
8
Layer 1
10
53.763333
20
81.562222
11
53.798725
21
81.362903
0
LINE
8
Layer 1
10
53.798725
20
81.362903
11
53.638879
21
81.280000
0
LINE
8
Layer 1
10
53.638879
20
81.280000
11
53.427796
21
81.362903
0
LINE
8
Layer 1
10
53.427796
20
81.362903
11
53.340000
21
81.562222
0
LINE
8
Layer 1
10
53.340000
20
81.562222
11
53.340000
21
81.562222
0
LINE
8
Layer 1
10
58.137778
20
81.562222
11
58.220681
21
81.761542
0
LINE
8
Layer 1
10
58.220681
20
81.761542
11
58.420000
21
81.844444
0
LINE
8
Layer 1
10
58.420000
20
81.844444
11
58.619319
21
81.761542
0
LINE
8
Layer 1
10
58.619319
20
81.761542
11
58.702222
21
81.562222
0
LINE
8
Layer 1
10
58.702222
20
81.562222
11
58.619319
21
81.362903
0
LINE
8
Layer 1
10
58.619319
20
81.362903
11
58.420000
21
81.280000
0
LINE
8
Layer 1
10
58.420000
20
81.280000
11
58.220681
21
81.362903
0
LINE
8
Layer 1
10
58.220681
20
81.362903
11
58.137778
21
81.562222
0
LINE
8
Layer 1
10
58.137778
20
81.562222
11
58.137778
21
81.562222
0
LINE
8
Layer 1
10
98.663890
20
81.606269
11
98.701410
21
81.746811
0
LINE
8
Layer 1
10
98.701410
20
81.746811
11
98.590454
21
81.819870
0
LINE
8
Layer 1
10
98.590454
20
81.819870
11
97.880215
21
81.772644
0
LINE
8
Layer 1
10
97.880215
20
81.772644
11
97.125366
21
81.722295
0
LINE
8
Layer 1
10
97.125366
20
81.722295
11
96.587926
21
81.829551
0
LINE
8
Layer 1
10
96.587926
20
81.829551
11
96.323161
21
82.070428
0
LINE
8
Layer 1
10
96.323161
20
82.070428
11
96.386337
21
82.420943
0
LINE
8
Layer 1
10
96.386337
20
82.420943
11
96.466912
21
82.636185
0
LINE
8
Layer 1
10
96.466912
20
82.636185
11
96.269020
21
82.569310
0
LINE
8
Layer 1
10
96.269020
20
82.569310
11
95.928199
21
82.506326
0
LINE
8
Layer 1
10
95.928199
20
82.506326
11
95.583680
21
82.648405
0
LINE
8
Layer 1
10
95.583680
20
82.648405
11
94.746719
21
82.766862
0
LINE
8
Layer 1
10
94.746719
20
82.766862
11
93.237630
21
82.686933
0
LINE
8
Layer 1
10
93.237630
20
82.686933
11
91.697377
21
82.470842
0
LINE
8
Layer 1
10
91.697377
20
82.470842
11
90.766925
21
82.180811
0
LINE
8
Layer 1
10
90.766925
20
82.180811
11
90.273229
21
81.978062
0
LINE
8
Layer 1
10
90.273229
20
81.978062
11
89.653916
21
81.905415
0
LINE
8
Layer 1
10
89.653916
20
81.905415
11
89.124377
21
81.965269
0
LINE
8
Layer 1
10
89.124377
20
81.965269
11
88.900000
21
82.160023
0
LINE
8
Layer 1
10
88.900000
20
82.160023
11
89.024354
21
82.330715
0
LINE
8
Layer 1
10
89.024354
20
82.330715
11
89.323333
21
82.306829
0
LINE
8
Layer 1
10
89.323333
20
82.306829
11
89.622312
21
82.256024
0
LINE
8
Layer 1
10
89.622312
20
82.256024
11
89.746667
21
82.361995
0
LINE
8
Layer 1
10
89.746667
20
82.361995
11
90.160974
21
82.664668
0
LINE
8
Layer 1
10
90.160974
20
82.664668
11
91.157072
21
83.086784
0
LINE
8
Layer 1
10
91.157072
20
83.086784
11
92.077688
21
83.492527
0
LINE
8
Layer 1
10
92.077688
20
83.492527
11
92.384694
21
83.794921
0
LINE
8
Layer 1
10
92.384694
20
83.794921
11
92.078052
21
83.945823
0
LINE
8
Layer 1
10
92.078052
20
83.945823
11
91.157724
21
83.897089
0
LINE
8
Layer 1
10
91.157724
20
83.897089
11
90.419046
21
83.858299
0
LINE
8
Layer 1
10
90.419046
20
83.858299
11
90.078196
21
83.980019
0
LINE
8
Layer 1
10
90.078196
20
83.980019
11
90.148106
21
84.243847
0
LINE
8
Layer 1
10
90.148106
20
84.243847
11
90.641709
21
84.631380
0
LINE
8
Layer 1
10
90.641709
20
84.631380
11
91.372311
21
84.884738
0
LINE
8
Layer 1
10
91.372311
20
84.884738
11
92.321140
21
84.988325
0
LINE
8
Layer 1
10
92.321140
20
84.988325
11
93.187465
21
84.933981
0
LINE
8
Layer 1
10
93.187465
20
84.933981
11
93.670557
21
84.713549
0
LINE
8
Layer 1
10
93.670557
20
84.713549
11
96.096667
21
83.655597
0
LINE
8
Layer 1
10
96.096667
20
83.655597
11
98.511815
21
83.005953
0
LINE
8
Layer 1
10
98.511815
20
83.005953
11
101.521782
21
82.880900
0
LINE
8
Layer 1
10
101.521782
20
82.880900
11
103.714620
21
82.819257
0
LINE
8
Layer 1
10
103.714620
20
82.819257
11
104.539014
21
82.651764
0
LINE
8
Layer 1
10
104.539014
20
82.651764
11
103.888159
21
82.408889
0
LINE
8
Layer 1
10
103.888159
20
82.408889
11
103.192303
21
82.213783
0
LINE
8
Layer 1
10
103.192303
20
82.213783
11
102.086932
21
81.995061
0
LINE
8
Layer 1
10
102.086932
20
81.995061
11
101.441137
21
81.884591
0
LINE
8
Layer 1
10
101.441137
20
81.884591
11
101.247222
21
81.625722
0
LINE
8
Layer 1
10
101.247222
20
81.625722
11
101.240728
21
81.376834
0
LINE
8
Layer 1
10
101.240728
20
81.376834
11
101.087453
21
81.306275
0
LINE
8
Layer 1
10
101.087453
20
81.306275
11
100.366127
21
81.698042
0
LINE
8
Layer 1
10
100.366127
20
81.698042
11
99.858778
21
81.955867
0
LINE
8
Layer 1
10
99.858778
20
81.955867
11
99.428746
21
81.689064
0
LINE
8
Layer 1
10
99.428746
20
81.689064
11
98.755847
21
81.290534
0
LINE
8
Layer 1
10
98.755847
20
81.290534
11
98.593577
21
81.354391
0
LINE
8
Layer 1
10
98.593577
20
81.354391
11
98.663890
21
81.606269
0
LINE
8
Layer 1
10
98.663890
20
81.606269
11
98.663890
21
81.606269
0
LINE
8
Layer 1
10
30.454687
20
81.955059
11
30.905391
21
82.333642
0
LINE
8
Layer 1
10
30.905391
20
82.333642
11
31.406950
21
82.486080
0
LINE
8
Layer 1
10
31.406950
20
82.486080
11
31.904244
21
82.408256
0
LINE
8
Layer 1
10
31.904244
20
82.408256
11
32.342150
21
82.096051
0
LINE
8
Layer 1
10
32.342150
20
82.096051
11
32.592487
21
81.719035
0
LINE
8
Layer 1
10
32.592487
20
81.719035
11
32.515951
21
81.562222
0
LINE
8
Layer 1
10
32.515951
20
81.562222
11
32.031751
21
81.845206
0
LINE
8
Layer 1
10
32.031751
20
81.845206
11
31.768628
21
81.987082
0
LINE
8
Layer 1
10
31.768628
20
81.987082
11
31.328092
21
81.845206
0
LINE
8
Layer 1
10
31.328092
20
81.845206
11
30.439229
21
81.557644
0
LINE
8
Layer 1
10
30.439229
20
81.557644
11
30.309056
21
81.673856
0
LINE
8
Layer 1
10
30.309056
20
81.673856
11
30.454687
21
81.955059
0
LINE
8
Layer 1
10
30.454687
20
81.955059
11
30.454687
21
81.955059
0
LINE
8
Layer 1
10
57.008889
20
81.844444
11
57.091792
21
82.043764
0
LINE
8
Layer 1
10
57.091792
20
82.043764
11
57.291111
21
82.126667
0
LINE
8
Layer 1
10
57.291111
20
82.126667
11
57.490431
21
82.043764
0
LINE
8
Layer 1
10
57.490431
20
82.043764
11
57.573333
21
81.844444
0
LINE
8
Layer 1
10
57.573333
20
81.844444
11
57.490431
21
81.645125
0
LINE
8
Layer 1
10
57.490431
20
81.645125
11
57.291111
21
81.562222
0
LINE
8
Layer 1
10
57.291111
20
81.562222
11
57.091792
21
81.645125
0
LINE
8
Layer 1
10
57.091792
20
81.645125
11
57.008889
21
81.844444
0
LINE
8
Layer 1
10
57.008889
20
81.844444
11
57.008889
21
81.844444
0
LINE
8
Layer 1
10
59.548889
20
81.844444
11
59.673343
21
82.126667
0
LINE
8
Layer 1
10
59.673343
20
82.126667
11
59.972222
21
81.844444
0
LINE
8
Layer 1
10
59.972222
20
81.844444
11
60.007614
21
81.645125
0
LINE
8
Layer 1
10
60.007614
20
81.645125
11
59.847768
21
81.562222
0
LINE
8
Layer 1
10
59.847768
20
81.562222
11
59.636685
21
81.645125
0
LINE
8
Layer 1
10
59.636685
20
81.645125
11
59.548889
21
81.844444
0
LINE
8
Layer 1
10
59.548889
20
81.844444
11
59.548889
21
81.844444
0
LINE
8
Layer 1
10
60.530125
20
82.711722
11
60.290791
21
83.147617
0
LINE
8
Layer 1
10
60.290791
20
83.147617
11
59.763293
21
82.782277
0
LINE
8
Layer 1
10
59.763293
20
82.782277
11
59.282128
21
82.433809
0
LINE
8
Layer 1
10
59.282128
20
82.433809
11
59.365693
21
83.023162
0
LINE
8
Layer 1
10
59.365693
20
83.023162
11
59.380018
21
83.562487
0
LINE
8
Layer 1
10
59.380018
20
83.562487
11
59.128145
21
83.870898
0
LINE
8
Layer 1
10
59.128145
20
83.870898
11
58.641297
21
83.932745
0
LINE
8
Layer 1
10
58.641297
20
83.932745
11
57.950701
21
83.732376
0
LINE
8
Layer 1
10
57.950701
20
83.732376
11
57.384658
21
83.622325
0
LINE
8
Layer 1
10
57.384658
20
83.622325
11
56.918592
21
83.856457
0
LINE
8
Layer 1
10
56.918592
20
83.856457
11
56.714470
21
84.094978
0
LINE
8
Layer 1
10
56.714470
20
84.094978
11
56.667668
21
84.356654
0
LINE
8
Layer 1
10
56.667668
20
84.356654
11
57.087081
21
85.301667
0
LINE
8
Layer 1
10
57.087081
20
85.301667
11
57.900276
21
86.360000
0
LINE
8
Layer 1
10
57.900276
20
86.360000
11
58.531910
21
87.136111
0
LINE
8
Layer 1
10
58.531910
20
87.136111
11
59.719319
21
88.700881
0
LINE
8
Layer 1
10
59.719319
20
88.700881
11
61.359666
21
90.302619
0
LINE
8
Layer 1
10
61.359666
20
90.302619
11
61.509125
21
90.375525
0
LINE
8
Layer 1
10
61.509125
20
90.375525
11
61.493795
21
90.226968
0
LINE
8
Layer 1
10
61.493795
20
90.226968
11
60.993144
21
89.330143
0
LINE
8
Layer 1
10
60.993144
20
89.330143
11
60.142545
21
87.728919
0
LINE
8
Layer 1
10
60.142545
20
87.728919
11
60.163991
21
87.536643
0
LINE
8
Layer 1
10
60.163991
20
87.536643
11
60.540996
21
87.928837
0
LINE
8
Layer 1
10
60.540996
20
87.928837
11
60.879169
21
88.277656
0
LINE
8
Layer 1
10
60.879169
20
88.277656
11
60.782059
21
87.658462
0
LINE
8
Layer 1
10
60.782059
20
87.658462
11
60.714997
21
87.078889
0
LINE
8
Layer 1
10
60.714997
20
87.078889
11
60.918841
21
87.040116
0
LINE
8
Layer 1
10
60.918841
20
87.040116
11
61.147229
21
87.083323
0
LINE
8
Layer 1
10
61.147229
20
87.083323
11
61.242222
21
86.906543
0
LINE
8
Layer 1
10
61.242222
20
86.906543
11
61.354670
21
86.742841
0
LINE
8
Layer 1
10
61.354670
20
86.742841
11
61.719731
21
86.960445
0
LINE
8
Layer 1
10
61.719731
20
86.960445
11
62.028191
21
87.166308
0
LINE
8
Layer 1
10
62.028191
20
87.166308
11
61.985296
21
86.995000
0
LINE
8
Layer 1
10
61.985296
20
86.995000
11
61.846834
21
86.643838
0
LINE
8
Layer 1
10
61.846834
20
86.643838
11
62.020765
21
86.661121
0
LINE
8
Layer 1
10
62.020765
20
86.661121
11
62.794444
21
87.488889
0
LINE
8
Layer 1
10
62.794444
20
87.488889
11
63.508728
21
88.294693
0
LINE
8
Layer 1
10
63.508728
20
88.294693
11
63.636525
21
88.136556
0
LINE
8
Layer 1
10
63.636525
20
88.136556
11
63.624545
21
87.606245
0
LINE
8
Layer 1
10
63.624545
20
87.606245
11
63.441185
21
86.973937
0
LINE
8
Layer 1
10
63.441185
20
86.973937
11
63.083912
21
86.390334
0
LINE
8
Layer 1
10
63.083912
20
86.390334
11
62.637383
21
85.962013
0
LINE
8
Layer 1
10
62.637383
20
85.962013
11
62.186258
21
85.795556
0
LINE
8
Layer 1
10
62.186258
20
85.795556
11
61.918172
21
85.629750
0
LINE
8
Layer 1
10
61.918172
20
85.629750
11
61.806667
21
85.231111
0
LINE
8
Layer 1
10
61.806667
20
85.231111
11
61.849582
21
84.824200
0
LINE
8
Layer 1
10
61.849582
20
84.824200
11
61.992991
21
84.699123
0
LINE
8
Layer 1
10
61.992991
20
84.699123
11
62.669262
21
85.301667
0
LINE
8
Layer 1
10
62.669262
20
85.301667
11
63.075604
21
85.689950
0
LINE
8
Layer 1
10
63.075604
20
85.689950
11
63.199414
21
85.513333
0
LINE
8
Layer 1
10
63.199414
20
85.513333
11
63.070112
21
85.010649
0
LINE
8
Layer 1
10
63.070112
20
85.010649
11
62.745803
21
84.508084
0
LINE
8
Layer 1
10
62.745803
20
84.508084
11
62.323237
21
84.120897
0
LINE
8
Layer 1
10
62.323237
20
84.120897
11
61.899165
21
83.964348
0
LINE
8
Layer 1
10
61.899165
20
83.964348
11
61.460300
21
83.801477
0
LINE
8
Layer 1
10
61.460300
20
83.801477
11
61.123354
21
83.433905
0
LINE
8
Layer 1
10
61.123354
20
83.433905
11
60.992880
21
83.033425
0
LINE
8
Layer 1
10
60.992880
20
83.033425
11
61.173425
21
82.771832
0
LINE
8
Layer 1
10
61.173425
20
82.771832
11
61.376956
21
82.604953
0
LINE
8
Layer 1
10
61.376956
20
82.604953
11
61.368435
21
82.384784
0
LINE
8
Layer 1
10
61.368435
20
82.384784
11
61.151613
21
82.165975
0
LINE
8
Layer 1
10
61.151613
20
82.165975
11
60.921820
21
82.154470
0
LINE
8
Layer 1
10
60.921820
20
82.154470
11
60.530125
21
82.711722
0
LINE
8
Layer 1
10
60.530125
20
82.711722
11
60.530125
21
82.711722
0
LINE
8
Layer 1
10
59.941093
20
86.501111
11
60.022871
21
87.060586
0
LINE
8
Layer 1
10
60.022871
20
87.060586
11
59.844006
21
86.924444
0
LINE
8
Layer 1
10
59.844006
20
86.924444
11
59.553210
21
85.960184
0
LINE
8
Layer 1
10
59.553210
20
85.960184
11
59.578741
21
85.594162
0
LINE
8
Layer 1
10
59.578741
20
85.594162
11
59.657943
21
85.570738
0
LINE
8
Layer 1
10
59.657943
20
85.570738
11
59.941093
21
86.501111
0
LINE
8
Layer 1
10
59.941093
20
86.501111
11
59.941093
21
86.501111
0
LINE
8
Layer 1
10
51.231275
20
83.678889
11
51.647612
21
85.335838
0
LINE
8
Layer 1
10
51.647612
20
85.335838
11
51.735914
21
85.337062
0
LINE
8
Layer 1
10
51.735914
20
85.337062
11
51.773302
21
85.135663
0
LINE
8
Layer 1
10
51.773302
20
85.135663
11
51.722720
21
84.340636
0
LINE
8
Layer 1
10
51.722720
20
84.340636
11
51.311787
21
82.691111
0
LINE
8
Layer 1
10
51.311787
20
82.691111
11
51.212453
21
82.603146
0
LINE
8
Layer 1
10
51.212453
20
82.603146
11
51.165560
21
82.742898
0
LINE
8
Layer 1
10
51.165560
20
82.742898
11
51.231275
21
83.678889
0
LINE
8
Layer 1
10
51.231275
20
83.678889
11
51.231275
21
83.678889
0
LINE
8
Layer 1
10
61.806667
20
82.674454
11
61.887478
21
82.959502
0
LINE
8
Layer 1
10
61.887478
20
82.959502
11
62.077757
21
83.092750
0
LINE
8
Layer 1
10
62.077757
20
83.092750
11
62.299272
21
83.055887
0
LINE
8
Layer 1
10
62.299272
20
83.055887
11
62.473792
21
82.830602
0
LINE
8
Layer 1
10
62.473792
20
82.830602
11
62.478741
21
82.523685
0
LINE
8
Layer 1
10
62.478741
20
82.523685
11
62.221144
21
82.408889
0
LINE
8
Layer 1
10
62.221144
20
82.408889
11
61.928419
21
82.486899
0
LINE
8
Layer 1
10
61.928419
20
82.486899
11
61.806667
21
82.674454
0
LINE
8
Layer 1
10
61.806667
20
82.674454
11
61.806667
21
82.674454
0
LINE
8
Layer 1
10
82.746130
20
83.114444
11
82.780033
21
83.610352
0
LINE
8
Layer 1
10
82.780033
20
83.610352
11
82.876232
21
83.613704
0
LINE
8
Layer 1
10
82.876232
20
83.613704
11
82.886688
21
82.767037
0
LINE
8
Layer 1
10
82.886688
20
82.767037
11
82.791733
21
82.663143
0
LINE
8
Layer 1
10
82.791733
20
82.663143
11
82.746130
21
83.114444
0
LINE
8
Layer 1
10
82.746130
20
83.114444
11
82.746130
21
83.114444
0
LINE
8
Layer 1
10
55.880000
20
83.043847
11
55.968418
21
83.423805
0
LINE
8
Layer 1
10
55.968418
20
83.423805
11
56.180998
21
83.690494
0
LINE
8
Layer 1
10
56.180998
20
83.690494
11
56.461486
21
83.812339
0
LINE
8
Layer 1
10
56.461486
20
83.812339
11
56.574226
21
83.744405
0
LINE
8
Layer 1
10
56.574226
20
83.744405
11
56.280259
21
83.130616
0
LINE
8
Layer 1
10
56.280259
20
83.130616
11
55.954601
21
82.771102
0
LINE
8
Layer 1
10
55.954601
20
82.771102
11
55.880000
21
83.043847
0
LINE
8
Layer 1
10
55.880000
20
83.043847
11
55.880000
21
83.043847
0
LINE
8
Layer 1
10
54.640003
20
83.655306
11
54.842065
21
83.970941
0
LINE
8
Layer 1
10
54.842065
20
83.970941
11
55.087046
21
84.102222
0
LINE
8
Layer 1
10
55.087046
20
84.102222
11
55.258615
21
83.999802
0
LINE
8
Layer 1
10
55.258615
20
83.999802
11
55.242751
21
83.763930
0
LINE
8
Layer 1
10
55.242751
20
83.763930
11
55.078232
21
83.501690
0
LINE
8
Layer 1
10
55.078232
20
83.501690
11
54.803836
21
83.320168
0
LINE
8
Layer 1
10
54.803836
20
83.320168
11
54.605029
21
83.358886
0
LINE
8
Layer 1
10
54.605029
20
83.358886
11
54.640003
21
83.655306
0
LINE
8
Layer 1
10
54.640003
20
83.655306
11
54.640003
21
83.655306
0
LINE
8
Layer 1
10
106.397778
20
83.961111
11
106.780837
21
84.257454
0
LINE
8
Layer 1
10
106.780837
20
84.257454
11
107.208444
21
84.375470
0
LINE
8
Layer 1
10
107.208444
20
84.375470
11
107.481493
21
84.291514
0
LINE
8
Layer 1
10
107.481493
20
84.291514
11
107.119948
21
83.952136
0
LINE
8
Layer 1
10
107.119948
20
83.952136
11
106.322606
21
83.550909
0
LINE
8
Layer 1
10
106.322606
20
83.550909
11
106.220372
21
83.654963
0
LINE
8
Layer 1
10
106.220372
20
83.654963
11
106.397778
21
83.961111
0
LINE
8
Layer 1
10
106.397778
20
83.961111
11
106.397778
21
83.961111
0
LINE
8
Layer 1
10
47.290366
20
84.583939
11
47.207404
21
84.917511
0
LINE
8
Layer 1
10
47.207404
20
84.917511
11
47.448354
21
84.741927
0
LINE
8
Layer 1
10
47.448354
20
84.741927
11
47.649616
21
84.449690
0
LINE
8
Layer 1
10
47.649616
20
84.449690
11
47.641050
21
84.235866
0
LINE
8
Layer 1
10
47.641050
20
84.235866
11
47.472867
21
84.272942
0
LINE
8
Layer 1
10
47.472867
20
84.272942
11
47.290366
21
84.583939
0
LINE
8
Layer 1
10
47.290366
20
84.583939
11
47.290366
21
84.583939
0
LINE
8
Layer 1
10
56.072210
20
85.241615
11
56.456945
21
85.765600
0
LINE
8
Layer 1
10
56.456945
20
85.765600
11
56.670914
21
85.821706
0
LINE
8
Layer 1
10
56.670914
20
85.821706
11
56.646785
21
85.433859
0
LINE
8
Layer 1
10
56.646785
20
85.433859
11
56.441748
21
84.957942
0
LINE
8
Layer 1
10
56.441748
20
84.957942
11
56.147095
21
84.554592
0
LINE
8
Layer 1
10
56.147095
20
84.554592
11
55.854115
21
84.384444
0
LINE
8
Layer 1
10
55.854115
20
84.384444
11
55.799278
21
84.636239
0
LINE
8
Layer 1
10
55.799278
20
84.636239
11
56.072210
21
85.241615
0
LINE
8
Layer 1
10
56.072210
20
85.241615
11
56.072210
21
85.241615
0
LINE
8
Layer 1
10
54.017308
20
85.061846
11
53.999272
21
85.623927
0
LINE
8
Layer 1
10
53.999272
20
85.623927
11
54.219721
21
86.287839
0
LINE
8
Layer 1
10
54.219721
20
86.287839
11
54.610000
21
87.024264
0
LINE
8
Layer 1
10
54.610000
20
87.024264
11
54.701113
21
86.091801
0
LINE
8
Layer 1
10
54.701113
20
86.091801
11
54.680521
21
85.368978
0
LINE
8
Layer 1
10
54.680521
20
85.368978
11
54.510650
21
84.882513
0
LINE
8
Layer 1
10
54.510650
20
84.882513
11
54.265059
21
84.743204
0
LINE
8
Layer 1
10
54.265059
20
84.743204
11
54.017308
21
85.061846
0
LINE
8
Layer 1
10
54.017308
20
85.061846
11
54.017308
21
85.061846
0
LINE
8
Layer 1
10
46.283400
20
85.937779
11
45.875438
21
86.474554
0
LINE
8
Layer 1
10
45.875438
20
86.474554
11
45.882153
21
86.601360
0
LINE
8
Layer 1
10
45.882153
20
86.601360
11
46.026251
21
86.642222
0
LINE
8
Layer 1
10
46.026251
20
86.642222
11
46.385962
21
86.470751
0
LINE
8
Layer 1
10
46.385962
20
86.470751
11
46.773727
21
86.076934
0
LINE
8
Layer 1
10
46.773727
20
86.076934
11
47.045619
21
85.641669
0
LINE
8
Layer 1
10
47.045619
20
85.641669
11
47.057705
21
85.345851
0
LINE
8
Layer 1
10
47.057705
20
85.345851
11
46.283400
21
85.937779
0
LINE
8
Layer 1
10
46.283400
20
85.937779
11
46.283400
21
85.937779
0
LINE
8
Layer 1
10
93.632429
20
85.560874
11
93.951764
21
85.735216
0
LINE
8
Layer 1
10
93.951764
20
85.735216
11
94.300805
21
85.735657
0
LINE
8
Layer 1
10
94.300805
20
85.735657
11
94.374086
21
85.597568
0
LINE
8
Layer 1
10
94.374086
20
85.597568
11
94.002623
21
85.437475
0
LINE
8
Layer 1
10
94.002623
20
85.437475
11
93.562952
21
85.374604
0
LINE
8
Layer 1
10
93.562952
20
85.374604
11
93.632429
21
85.560874
0
LINE
8
Layer 1
10
93.632429
20
85.560874
11
93.632429
21
85.560874
0
LINE
8
Layer 1
10
89.017721
20
85.757707
11
89.323186
21
85.866023
0
LINE
8
Layer 1
10
89.323186
20
85.866023
11
89.858217
21
85.864690
0
LINE
8
Layer 1
10
89.858217
20
85.864690
11
90.366903
21
85.775825
0
LINE
8
Layer 1
10
90.366903
20
85.775825
11
90.593333
21
85.621543
0
LINE
8
Layer 1
10
90.593333
20
85.621543
11
89.730010
21
85.513333
0
LINE
8
Layer 1
10
89.730010
20
85.513333
11
89.164654
21
85.585118
0
LINE
8
Layer 1
10
89.164654
20
85.585118
11
89.017721
21
85.757707
0
LINE
8
Layer 1
10
89.017721
20
85.757707
11
89.017721
21
85.757707
0
LINE
8
Layer 1
10
96.520000
20
86.603086
11
96.727257
21
86.735146
0
LINE
8
Layer 1
10
96.727257
20
86.735146
11
97.225556
21
86.711296
0
LINE
8
Layer 1
10
97.225556
20
86.711296
11
97.931111
21
86.468210
0
LINE
8
Layer 1
10
97.931111
20
86.468210
11
97.225556
21
86.360000
0
LINE
8
Layer 1
10
97.225556
20
86.360000
11
96.727257
21
86.431407
0
LINE
8
Layer 1
10
96.727257
20
86.431407
11
96.520000
21
86.603086
0
LINE
8
Layer 1
10
96.520000
20
86.603086
11
96.520000
21
86.603086
0
LINE
8
Layer 1
10
45.155556
20
87.048899
11
45.437778
21
87.347778
0
LINE
8
Layer 1
10
45.437778
20
87.347778
11
45.637097
21
87.383169
0
LINE
8
Layer 1
10
45.637097
20
87.383169
11
45.720000
21
87.223323
0
LINE
8
Layer 1
10
45.720000
20
87.223323
11
45.637097
21
87.012240
0
LINE
8
Layer 1
10
45.637097
20
87.012240
11
45.437778
21
86.924444
0
LINE
8
Layer 1
10
45.437778
20
86.924444
11
45.155556
21
87.048899
0
LINE
8
Layer 1
10
45.155556
20
87.048899
11
45.155556
21
87.048899
0
LINE
8
Layer 1
10
42.333333
20
87.697231
11
41.637779
21
87.868134
0
LINE
8
Layer 1
10
41.637779
20
87.868134
11
41.001668
21
88.170907
0
LINE
8
Layer 1
10
41.001668
20
88.170907
11
40.537501
21
88.537144
0
LINE
8
Layer 1
10
40.537501
20
88.537144
11
40.357778
21
88.898439
0
LINE
8
Layer 1
10
40.357778
20
88.898439
11
41.018944
21
89.386393
0
LINE
8
Layer 1
10
41.018944
20
89.386393
11
41.914422
21
89.746667
0
LINE
8
Layer 1
10
41.914422
20
89.746667
11
41.858348
21
89.290502
0
LINE
8
Layer 1
10
41.858348
20
89.290502
11
41.814559
21
88.978671
0
LINE
8
Layer 1
10
41.814559
20
88.978671
11
42.020574
21
88.988374
0
LINE
8
Layer 1
10
42.020574
20
88.988374
11
42.938550
21
89.733898
0
LINE
8
Layer 1
10
42.938550
20
89.733898
11
44.125341
21
91.050098
0
LINE
8
Layer 1
10
44.125341
20
91.050098
11
45.094014
21
92.459999
0
LINE
8
Layer 1
10
45.094014
20
92.459999
11
45.417462
21
92.919786
0
LINE
8
Layer 1
10
45.417462
20
92.919786
11
45.708527
21
93.113549
0
LINE
8
Layer 1
10
45.708527
20
93.113549
11
45.895317
21
93.025398
0
LINE
8
Layer 1
10
45.895317
20
93.025398
11
45.905936
21
92.639444
0
LINE
8
Layer 1
10
45.905936
20
92.639444
11
45.681245
21
91.855215
0
LINE
8
Layer 1
10
45.681245
20
91.855215
11
45.358449
21
91.238288
0
LINE
8
Layer 1
10
45.358449
20
91.238288
11
44.989548
21
90.863236
0
LINE
8
Layer 1
10
44.989548
20
90.863236
11
44.626541
21
90.804636
0
LINE
8
Layer 1
10
44.626541
20
90.804636
11
44.332532
21
90.844914
0
LINE
8
Layer 1
10
44.332532
20
90.844914
11
44.661667
21
90.407298
0
LINE
8
Layer 1
10
44.661667
20
90.407298
11
45.138261
21
89.671229
0
LINE
8
Layer 1
10
45.138261
20
89.671229
11
45.104969
21
89.527459
0
LINE
8
Layer 1
10
45.104969
20
89.527459
11
44.871341
21
89.606789
0
LINE
8
Layer 1
10
44.871341
20
89.606789
11
44.621060
21
89.601711
0
LINE
8
Layer 1
10
44.621060
20
89.601711
11
44.418433
21
89.342843
0
LINE
8
Layer 1
10
44.418433
20
89.342843
11
44.226329
21
89.077470
0
LINE
8
Layer 1
10
44.226329
20
89.077470
11
44.001343
21
89.056760
0
LINE
8
Layer 1
10
44.001343
20
89.056760
11
43.876478
21
88.912355
0
LINE
8
Layer 1
10
43.876478
20
88.912355
11
43.925084
21
88.349585
0
LINE
8
Layer 1
10
43.925084
20
88.349585
11
43.972254
21
87.690970
0
LINE
8
Layer 1
10
43.972254
20
87.690970
11
43.709167
21
87.534056
0
LINE
8
Layer 1
10
43.709167
20
87.534056
11
42.333333
21
87.697231
0
LINE
8
Layer 1
10
42.333333
20
87.697231
11
42.333333
21
87.697231
0
LINE
8
Layer 1
10
66.908948
20
88.453149
11
66.943299
21
88.785090
0
LINE
8
Layer 1
10
66.943299
20
88.785090
11
67.057177
21
88.823566
0
LINE
8
Layer 1
10
67.057177
20
88.823566
11
67.079455
21
88.282639
0
LINE
8
Layer 1
10
67.079455
20
88.282639
11
66.965496
21
88.160177
0
LINE
8
Layer 1
10
66.965496
20
88.160177
11
66.908948
21
88.453149
0
LINE
8
Layer 1
10
66.908948
20
88.453149
11
66.908948
21
88.453149
0
LINE
8
Layer 1
10
84.666667
20
88.610722
11
84.927639
21
88.757920
0
LINE
8
Layer 1
10
84.927639
20
88.757920
11
85.583889
21
88.711295
0
LINE
8
Layer 1
10
85.583889
20
88.711295
11
86.578578
21
88.431617
0
LINE
8
Layer 1
10
86.578578
20
88.431617
11
85.701482
21
88.335556
0
LINE
8
Layer 1
10
85.701482
20
88.335556
11
84.970644
21
88.416386
0
LINE
8
Layer 1
10
84.970644
20
88.416386
11
84.666667
21
88.610722
0
LINE
8
Layer 1
10
84.666667
20
88.610722
11
84.666667
21
88.610722
0
LINE
8
Layer 1
10
52.940461
20
89.080871
11
52.861837
21
89.572794
0
LINE
8
Layer 1
10
52.861837
20
89.572794
11
52.936123
21
90.062002
0
LINE
8
Layer 1
10
52.936123
20
90.062002
11
53.117544
21
90.400343
0
LINE
8
Layer 1
10
53.117544
20
90.400343
11
53.360320
21
90.439663
0
LINE
8
Layer 1
10
53.360320
20
90.439663
11
53.550410
21
90.067524
0
LINE
8
Layer 1
10
53.550410
20
90.067524
11
53.616442
21
89.450970
0
LINE
8
Layer 1
10
53.616442
20
89.450970
11
53.556883
21
88.873291
0
LINE
8
Layer 1
10
53.556883
20
88.873291
11
53.370195
21
88.617778
0
LINE
8
Layer 1
10
53.370195
20
88.617778
11
53.139999
21
88.753811
0
LINE
8
Layer 1
10
53.139999
20
88.753811
11
52.940461
21
89.080871
0
LINE
8
Layer 1
10
52.940461
20
89.080871
11
52.940461
21
89.080871
0
LINE
8
Layer 1
10
63.500000
20
92.568889
11
63.582903
21
92.768208
0
LINE
8
Layer 1
10
63.582903
20
92.768208
11
63.782222
21
92.851111
0
LINE
8
Layer 1
10
63.782222
20
92.851111
11
63.981542
21
92.768208
0
LINE
8
Layer 1
10
63.981542
20
92.768208
11
64.064444
21
92.568889
0
LINE
8
Layer 1
10
64.064444
20
92.568889
11
63.981542
21
92.369569
0
LINE
8
Layer 1
10
63.981542
20
92.369569
11
63.782222
21
92.286667
0
LINE
8
Layer 1
10
63.782222
20
92.286667
11
63.582903
21
92.369569
0
LINE
8
Layer 1
10
63.582903
20
92.369569
11
63.500000
21
92.568889
0
LINE
8
Layer 1
10
63.500000
20
92.568889
11
63.500000
21
92.568889
0
LINE
8
Layer 1
10
45.720000
20
93.540010
11
46.002222
21
93.838889
0
LINE
8
Layer 1
10
46.002222
20
93.838889
11
46.201542
21
93.874280
0
LINE
8
Layer 1
10
46.201542
20
93.874280
11
46.284444
21
93.714435
0
LINE
8
Layer 1
10
46.284444
20
93.714435
11
46.201542
21
93.503351
0
LINE
8
Layer 1
10
46.201542
20
93.503351
11
46.002222
21
93.415556
0
LINE
8
Layer 1
10
46.002222
20
93.415556
11
45.720000
21
93.540010
0
LINE
8
Layer 1
10
45.720000
20
93.540010
11
45.720000
21
93.540010
0
LINE
8
Layer 1
10
5.630183
20
49.741667
11
6.969374
21
51.286392
0
LINE
8
Layer 1
10
6.969374
20
51.286392
11
7.726897
21
51.928889
0
LINE
8
Layer 1
10
7.726897
20
51.928889
11
9.999048
21
50.941111
0
LINE
8
Layer 1
10
9.999048
20
50.941111
11
12.031724
21
49.953333
0
LINE
8
Layer 1
10
12.031724
20
49.953333
11
12.134920
21
50.049423
0
LINE
8
Layer 1
10
12.134920
20
50.049423
11
12.067237
21
50.320132
0
LINE
8
Layer 1
10
12.067237
20
50.320132
11
11.492957
21
51.280041
0
LINE
8
Layer 1
10
11.492957
20
51.280041
11
9.104826
21
54.136270
0
LINE
8
Layer 1
10
9.104826
20
54.136270
11
8.833682
21
54.506516
0
LINE
8
Layer 1
10
8.833682
20
54.506516
11
8.842098
21
54.979642
0
LINE
8
Layer 1
10
8.842098
20
54.979642
11
9.989905
21
57.269191
0
LINE
8
Layer 1
10
9.989905
20
57.269191
11
11.099897
21
59.643806
0
LINE
8
Layer 1
10
11.099897
20
59.643806
11
8.973108
21
58.544358
0
LINE
8
Layer 1
10
8.973108
20
58.544358
11
7.195941
21
57.568947
0
LINE
8
Layer 1
10
7.195941
20
57.568947
11
6.763036
21
57.534922
0
LINE
8
Layer 1
10
6.763036
20
57.534922
11
6.389208
21
57.725832
0
LINE
8
Layer 1
10
6.389208
20
57.725832
11
5.772605
21
58.070638
0
LINE
8
Layer 1
10
5.772605
20
58.070638
11
5.364532
21
58.037045
0
LINE
8
Layer 1
10
5.364532
20
58.037045
11
5.104119
21
57.580414
0
LINE
8
Layer 1
10
5.104119
20
57.580414
11
4.930498
21
56.656111
0
LINE
8
Layer 1
10
4.930498
20
56.656111
11
4.740381
21
55.174444
0
LINE
8
Layer 1
10
4.740381
20
55.174444
11
2.511302
21
53.822199
0
LINE
8
Layer 1
10
2.511302
20
53.822199
11
0.982328
21
52.797172
0
LINE
8
Layer 1
10
0.982328
20
52.797172
11
0.314248
21
52.108014
0
LINE
8
Layer 1
10
0.314248
20
52.108014
11
0.305586
21
51.894963
0
LINE
8
Layer 1
10
0.305586
20
51.894963
11
0.515199
21
51.772572
0
LINE
8
Layer 1
10
0.515199
20
51.772572
11
1.593315
21
51.808693
0
LINE
8
Layer 1
10
1.593315
20
51.808693
11
2.894726
21
51.990427
0
LINE
8
Layer 1
10
2.894726
20
51.990427
11
3.549067
21
51.978155
0
LINE
8
Layer 1
10
3.549067
20
51.978155
11
3.775337
21
51.699534
0
LINE
8
Layer 1
10
3.775337
20
51.699534
11
3.792538
21
51.082222
0
LINE
8
Layer 1
10
3.792538
20
51.082222
11
3.543429
21
48.717889
0
LINE
8
Layer 1
10
3.543429
20
48.717889
11
3.443346
21
47.720850
0
LINE
8
Layer 1
10
3.443346
20
47.720850
11
3.594278
21
47.447889
0
LINE
8
Layer 1
10
3.594278
20
47.447889
11
5.630183
21
49.741667
0
LINE
8
Layer 1
10
5.630183
20
49.741667
11
5.630183
21
49.741667
0
LINE
8
Layer 1
10
3.526334
20
68.368333
11
4.209077
21
70.352176
0
LINE
8
Layer 1
10
4.209077
20
70.352176
11
4.899751
21
71.466891
0
LINE
8
Layer 1
10
4.899751
20
71.466891
11
5.962411
21
72.068938
0
LINE
8
Layer 1
10
5.962411
20
72.068938
11
7.761111
21
72.514779
0
LINE
8
Layer 1
10
7.761111
20
72.514779
11
9.913398
21
73.031631
0
LINE
8
Layer 1
10
9.913398
20
73.031631
11
10.104988
21
73.201318
0
LINE
8
Layer 1
10
10.104988
20
73.201318
11
9.954969
21
73.413476
0
LINE
8
Layer 1
10
9.954969
20
73.413476
11
7.438332
21
75.043343
0
LINE
8
Layer 1
10
7.438332
20
75.043343
11
5.862057
21
76.081803
0
LINE
8
Layer 1
10
5.862057
20
76.081803
11
5.185833
21
76.710230
0
LINE
8
Layer 1
10
5.185833
20
76.710230
11
5.105423
21
78.810556
0
LINE
8
Layer 1
10
5.105423
20
78.810556
11
5.060292
21
80.574444
0
LINE
8
Layer 1
10
5.060292
20
80.574444
11
3.911887
21
79.233889
0
LINE
8
Layer 1
10
3.911887
20
79.233889
11
3.122977
21
78.384846
0
LINE
8
Layer 1
10
3.122977
20
78.384846
11
2.513116
21
77.988974
0
LINE
8
Layer 1
10
2.513116
20
77.988974
11
1.903387
21
77.988067
0
LINE
8
Layer 1
10
1.903387
20
77.988067
11
1.114874
21
78.323914
0
LINE
8
Layer 1
10
1.114874
20
78.323914
11
0.282222
21
78.754495
0
LINE
8
Layer 1
10
0.282222
20
78.754495
11
0.282222
21
74.513914
0
LINE
8
Layer 1
10
0.282222
20
74.513914
11
0.362270
21
70.868340
0
LINE
8
Layer 1
10
0.362270
20
70.868340
11
0.532727
21
70.363943
0
LINE
8
Layer 1
10
0.532727
20
70.363943
11
0.852717
21
70.273333
0
LINE
8
Layer 1
10
0.852717
20
70.273333
11
1.205798
21
70.216775
0
LINE
8
Layer 1
10
1.205798
20
70.216775
11
1.499550
21
69.928483
0
LINE
8
Layer 1
10
1.499550
20
69.928483
11
2.374109
21
67.945000
0
LINE
8
Layer 1
10
2.374109
20
67.945000
11
2.926251
21
66.886667
0
LINE
8
Layer 1
10
2.926251
20
66.886667
11
3.526334
21
68.368333
0
LINE
8
Layer 1
10
3.526334
20
68.368333
11
3.526334
21
68.368333
0
LINE
8
Layer 1
10
17.703628
20
89.276013
11
18.362195
21
90.114214
0
LINE
8
Layer 1
10
18.362195
20
90.114214
11
18.974364
21
90.507366
0
LINE
8
Layer 1
10
18.974364
20
90.507366
11
19.735669
21
90.512113
0
LINE
8
Layer 1
10
19.735669
20
90.512113
11
20.841640
21
90.185102
0
LINE
8
Layer 1
10
20.841640
20
90.185102
11
21.653323
21
89.971648
0
LINE
8
Layer 1
10
21.653323
20
89.971648
11
22.099267
21
90.031091
0
LINE
8
Layer 1
10
22.099267
20
90.031091
11
22.176746
21
90.361403
0
LINE
8
Layer 1
10
22.176746
20
90.361403
11
21.883036
21
90.960555
0
LINE
8
Layer 1
10
21.883036
20
90.960555
11
21.011268
21
93.093405
0
LINE
8
Layer 1
10
21.011268
20
93.093405
11
20.777871
21
94.054329
0
LINE
8
Layer 1
10
20.777871
20
94.054329
11
20.835989
21
94.795474
0
LINE
8
Layer 1
10
20.835989
20
94.795474
11
21.281206
21
95.612788
0
LINE
8
Layer 1
10
21.281206
20
95.612788
11
22.209103
21
96.802222
0
LINE
8
Layer 1
10
22.209103
20
96.802222
11
24.137991
21
99.399405
0
LINE
8
Layer 1
10
24.137991
20
99.399405
11
24.227450
21
99.828834
0
LINE
8
Layer 1
10
24.227450
20
99.828834
11
23.777222
21
99.761160
0
LINE
8
Layer 1
10
23.777222
20
99.761160
11
19.477983
21
98.213333
0
LINE
8
Layer 1
10
19.477983
20
98.213333
11
18.326929
21
100.040169
0
LINE
8
Layer 1
10
18.326929
20
100.040169
11
17.669950
21
101.186951
0
LINE
8
Layer 1
10
17.669950
20
101.186951
11
17.438406
21
101.439544
0
LINE
8
Layer 1
10
17.438406
20
101.439544
11
17.251467
21
101.468123
0
LINE
8
Layer 1
10
17.251467
20
101.468123
11
16.951321
21
100.822796
0
LINE
8
Layer 1
10
16.951321
20
100.822796
11
16.649349
21
99.190079
0
LINE
8
Layer 1
10
16.649349
20
99.190079
11
16.340687
21
97.710232
0
LINE
8
Layer 1
10
16.340687
20
97.710232
11
16.034393
21
96.880347
0
LINE
8
Layer 1
10
16.034393
20
96.880347
11
13.230143
21
95.176103
0
LINE
8
Layer 1
10
13.230143
20
95.176103
11
11.491102
21
94.150033
0
LINE
8
Layer 1
10
11.491102
20
94.150033
11
10.820139
21
93.560889
0
LINE
8
Layer 1
10
10.820139
20
93.560889
11
11.167111
21
93.293079
0
LINE
8
Layer 1
10
11.167111
20
93.293079
11
11.875445
21
93.039585
0
LINE
8
Layer 1
10
11.875445
20
93.039585
11
14.469807
21
92.222630
0
LINE
8
Layer 1
10
14.469807
20
92.222630
11
15.855838
21
91.606748
0
LINE
8
Layer 1
10
15.855838
20
91.606748
11
16.006438
21
91.276683
0
LINE
8
Layer 1
10
16.006438
20
91.276683
11
15.963338
21
90.768376
0
LINE
8
Layer 1
10
15.963338
20
90.768376
11
15.665816
21
88.194444
0
LINE
8
Layer 1
10
15.665816
20
88.194444
11
15.503457
21
86.501111
0
LINE
8
Layer 1
10
15.503457
20
86.501111
11
16.147840
21
87.229902
0
LINE
8
Layer 1
10
16.147840
20
87.229902
11
17.703628
21
89.276013
0
LINE
8
Layer 1
10
17.703628
20
89.276013
11
17.703628
21
89.276013
0
LINE
8
Layer 1
10
3.386667
20
91.094585
11
4.926257
21
91.331331
0
LINE
8
Layer 1
10
4.926257
20
91.331331
11
5.503333
21
91.622189
0
LINE
8
Layer 1
10
5.503333
20
91.622189
11
4.964441
21
92.418771
0
LINE
8
Layer 1
10
4.964441
20
92.418771
11
3.668808
21
93.879966
0
LINE
8
Layer 1
10
3.668808
20
93.879966
11
1.229301
21
96.590556
0
LINE
8
Layer 1
10
1.229301
20
96.590556
11
0.453271
21
97.366667
0
LINE
8
Layer 1
10
0.453271
20
97.366667
11
0.282222
21
94.006422
0
LINE
8
Layer 1
10
0.282222
20
94.006422
11
0.360585
21
91.198696
0
LINE
8
Layer 1
10
0.360585
20
91.198696
11
0.509287
21
90.797215
0
LINE
8
Layer 1
10
0.509287
20
90.797215
11
0.776111
21
90.768229
0
LINE
8
Layer 1
10
0.776111
20
90.768229
11
3.386667
21
91.094585
0
LINE
8
Layer 1
10
3.386667
20
91.094585
11
3.386667
21
91.094585
0
LINE
8
Layer 1
10
34.439171
20
99.216670
11
35.343826
21
100.720509
0
LINE
8
Layer 1
10
35.343826
20
100.720509
11
35.672363
21
100.928168
0
LINE
8
Layer 1
10
35.672363
20
100.928168
11
36.043441
21
100.904577
0
LINE
8
Layer 1
10
36.043441
20
100.904577
11
38.124269
21
100.555337
0
LINE
8
Layer 1
10
38.124269
20
100.555337
11
38.914202
21
100.519029
0
LINE
8
Layer 1
10
38.914202
20
100.519029
11
39.228889
21
100.604014
0
LINE
8
Layer 1
10
39.228889
20
100.604014
11
38.100000
21
102.231463
0
LINE
8
Layer 1
10
38.100000
20
102.231463
11
37.393345
21
103.190362
0
LINE
8
Layer 1
10
37.393345
20
103.190362
11
37.055822
21
103.922366
0
LINE
8
Layer 1
10
37.055822
20
103.922366
11
37.036879
21
104.631904
0
LINE
8
Layer 1
10
37.036879
20
104.631904
11
37.285964
21
105.523403
0
LINE
8
Layer 1
10
37.285964
20
105.523403
11
37.476135
21
106.262544
0
LINE
8
Layer 1
10
37.476135
20
106.262544
11
37.390639
21
106.565472
0
LINE
8
Layer 1
10
37.390639
20
106.565472
11
37.044554
21
106.426460
0
LINE
8
Layer 1
10
37.044554
20
106.426460
11
36.452960
21
105.839782
0
LINE
8
Layer 1
10
36.452960
20
105.839782
11
35.644390
21
104.913687
0
LINE
8
Layer 1
10
35.644390
20
104.913687
11
34.865239
21
105.935205
0
LINE
8
Layer 1
10
34.865239
20
105.935205
11
34.294392
21
106.575071
0
LINE
8
Layer 1
10
34.294392
20
106.575071
11
33.895310
21
106.766012
0
LINE
8
Layer 1
10
33.895310
20
106.766012
11
33.660994
21
106.507280
0
LINE
8
Layer 1
10
33.660994
20
106.507280
11
33.584444
21
105.798124
0
LINE
8
Layer 1
10
33.584444
20
105.798124
11
33.505436
21
104.997715
0
LINE
8
Layer 1
10
33.505436
20
104.997715
11
33.199368
21
104.343387
0
LINE
8
Layer 1
10
33.199368
20
104.343387
11
32.562681
21
103.691671
0
LINE
8
Layer 1
10
32.562681
20
103.691671
11
31.491812
21
102.899096
0
LINE
8
Layer 1
10
31.491812
20
102.899096
11
30.378581
21
102.056297
0
LINE
8
Layer 1
10
30.378581
20
102.056297
11
29.915556
21
101.554468
0
LINE
8
Layer 1
10
29.915556
20
101.554468
11
30.433698
21
101.395541
0
LINE
8
Layer 1
10
30.433698
20
101.395541
11
31.679444
21
101.377169
0
LINE
8
Layer 1
10
31.679444
20
101.377169
11
32.806644
21
101.413447
0
LINE
8
Layer 1
10
32.806644
20
101.413447
11
33.128885
21
101.353546
0
LINE
8
Layer 1
10
33.128885
20
101.353546
11
33.318077
21
101.194107
0
LINE
8
Layer 1
10
33.318077
20
101.194107
11
33.380885
21
100.434089
0
LINE
8
Layer 1
10
33.380885
20
100.434089
11
33.162212
21
98.848333
0
LINE
8
Layer 1
10
33.162212
20
98.848333
11
33.079146
21
97.772304
0
LINE
8
Layer 1
10
33.079146
20
97.772304
11
33.214011
21
97.366667
0
LINE
8
Layer 1
10
33.214011
20
97.366667
11
33.683926
21
97.910105
0
LINE
8
Layer 1
10
33.683926
20
97.910105
11
34.439171
21
99.216670
0
LINE
8
Layer 1
10
34.439171
20
99.216670
11
34.439171
21
99.216670
0
LINE
8
Layer 1
10
49.191534
20
102.641458
11
50.458571
21
103.618033
0
LINE
8
Layer 1
10
50.458571
20
103.618033
11
51.758644
21
103.911458
0
LINE
8
Layer 1
10
51.758644
20
103.911458
11
53.068674
21
103.998889
0
LINE
8
Layer 1
10
53.068674
20
103.998889
11
52.333621
21
105.077642
0
LINE
8
Layer 1
10
52.333621
20
105.077642
11
51.949827
21
105.711350
0
LINE
8
Layer 1
10
51.949827
20
105.711350
11
51.734785
21
106.319816
0
LINE
8
Layer 1
10
51.734785
20
106.319816
11
51.652833
21
108.182087
0
LINE
8
Layer 1
10
51.652833
20
108.182087
11
51.676884
21
110.442462
0
LINE
8
Layer 1
10
51.676884
20
110.442462
11
51.376323
21
110.435641
0
LINE
8
Layer 1
10
51.376323
20
110.435641
11
50.696134
21
110.089684
0
LINE
8
Layer 1
10
50.696134
20
110.089684
11
49.449934
21
109.502222
0
LINE
8
Layer 1
10
49.449934
20
109.502222
11
48.930271
21
109.830261
0
LINE
8
Layer 1
10
48.930271
20
109.830261
11
48.096060
21
110.618949
0
LINE
8
Layer 1
10
48.096060
20
110.618949
11
47.289532
21
111.371068
0
LINE
8
Layer 1
10
47.289532
20
111.371068
11
46.836426
21
111.611186
0
LINE
8
Layer 1
10
46.836426
20
111.611186
11
46.735807
21
111.153826
0
LINE
8
Layer 1
10
46.735807
20
111.153826
11
46.776753
21
110.229032
0
LINE
8
Layer 1
10
46.776753
20
110.229032
11
46.831550
21
109.072576
0
LINE
8
Layer 1
10
46.831550
20
109.072576
11
46.625580
21
108.140746
0
LINE
8
Layer 1
10
46.625580
20
108.140746
11
46.059585
21
107.191705
0
LINE
8
Layer 1
10
46.059585
20
107.191705
11
45.034307
21
105.983616
0
LINE
8
Layer 1
10
45.034307
20
105.983616
11
43.994175
21
104.729306
0
LINE
8
Layer 1
10
43.994175
20
104.729306
11
43.641270
21
104.078616
0
LINE
8
Layer 1
10
43.641270
20
104.078616
11
44.271639
21
103.922649
0
LINE
8
Layer 1
10
44.271639
20
103.922649
11
45.595546
21
103.857778
0
LINE
8
Layer 1
10
45.595546
20
103.857778
11
47.413333
21
103.857778
0
LINE
8
Layer 1
10
47.413333
20
103.857778
11
47.413333
21
102.564259
0
LINE
8
Layer 1
10
47.413333
20
102.564259
11
47.489873
21
101.678346
0
LINE
8
Layer 1
10
47.489873
20
101.678346
11
47.673895
21
101.364815
0
LINE
8
Layer 1
10
47.673895
20
101.364815
11
49.191534
21
102.641458
0
LINE
8
Layer 1
10
49.191534
20
102.641458
11
49.191534
21
102.641458
0
LINE
8
Layer 1
10
4.070585
20
106.468333
11
4.372319
21
108.232222
0
LINE
8
Layer 1
10
4.372319
20
108.232222
11
4.669573
21
109.838282
0
LINE
8
Layer 1
10
4.669573
20
109.838282
11
5.130640
21
110.795448
0
LINE
8
Layer 1
10
5.130640
20
110.795448
11
6.039664
21
111.434823
0
LINE
8
Layer 1
10
6.039664
20
111.434823
11
7.680783
21
112.087511
0
LINE
8
Layer 1
10
7.680783
20
112.087511
11
9.531598
21
112.852766
0
LINE
8
Layer 1
10
9.531598
20
112.852766
11
10.367318
21
113.369138
0
LINE
8
Layer 1
10
10.367318
20
113.369138
11
9.929579
21
113.870026
0
LINE
8
Layer 1
10
9.929579
20
113.870026
11
8.697305
21
114.604328
0
LINE
8
Layer 1
10
8.697305
20
114.604328
11
6.121546
21
116.060251
0
LINE
8
Layer 1
10
6.121546
20
116.060251
11
5.328647
21
116.620121
0
LINE
8
Layer 1
10
5.328647
20
116.620121
11
5.525060
21
119.552283
0
LINE
8
Layer 1
10
5.525060
20
119.552283
11
5.606351
21
122.484444
0
LINE
8
Layer 1
10
5.606351
20
122.484444
11
3.951111
21
120.508889
0
LINE
8
Layer 1
10
3.951111
20
120.508889
11
2.783259
21
119.113653
0
LINE
8
Layer 1
10
2.783259
20
119.113653
11
2.138162
21
118.533333
0
LINE
8
Layer 1
10
2.138162
20
118.533333
11
1.073776
21
119.291690
0
LINE
8
Layer 1
10
1.073776
20
119.291690
11
0.282222
21
120.050047
0
LINE
8
Layer 1
10
0.282222
20
120.050047
11
0.282222
21
114.357367
0
LINE
8
Layer 1
10
0.282222
20
114.357367
11
0.282222
21
108.664687
0
LINE
8
Layer 1
10
0.282222
20
108.664687
11
1.286679
21
109.143679
0
LINE
8
Layer 1
10
1.286679
20
109.143679
11
1.997024
21
109.422049
0
LINE
8
Layer 1
10
1.997024
20
109.422049
11
2.441118
21
109.312291
0
LINE
8
Layer 1
10
2.441118
20
109.312291
11
2.763833
21
108.672863
0
LINE
8
Layer 1
10
2.763833
20
108.672863
11
3.110043
21
107.362219
0
LINE
8
Layer 1
10
3.110043
20
107.362219
11
3.393220
21
106.392933
0
LINE
8
Layer 1
10
3.393220
20
106.392933
11
3.654599
21
105.914439
0
LINE
8
Layer 1
10
3.654599
20
105.914439
11
3.883836
21
105.936363
0
LINE
8
Layer 1
10
3.883836
20
105.936363
11
4.070585
21
106.468333
0
LINE
8
Layer 1
10
4.070585
20
106.468333
11
4.070585
21
106.468333
0
LINE
8
Layer 1
10
20.473627
20
111.987619
11
21.332810
21
112.950663
0
LINE
8
Layer 1
10
21.332810
20
112.950663
11
23.091872
21
112.457095
0
LINE
8
Layer 1
10
23.091872
20
112.457095
11
24.391261
21
112.165564
0
LINE
8
Layer 1
10
24.391261
20
112.165564
11
25.045151
21
112.157744
0
LINE
8
Layer 1
10
25.045151
20
112.157744
11
24.863554
21
112.891913
0
LINE
8
Layer 1
10
24.863554
20
112.891913
11
24.154218
21
114.384314
0
LINE
8
Layer 1
10
24.154218
20
114.384314
11
23.069068
21
116.416667
0
LINE
8
Layer 1
10
23.069068
20
116.416667
11
23.881756
21
117.721521
0
LINE
8
Layer 1
10
23.881756
20
117.721521
11
25.226563
21
119.776440
0
LINE
8
Layer 1
10
25.226563
20
119.776440
11
25.634669
21
120.650516
0
LINE
8
Layer 1
10
25.634669
20
120.650516
11
23.409218
21
119.915796
0
LINE
8
Layer 1
10
23.409218
20
119.915796
11
22.018213
21
119.401978
0
LINE
8
Layer 1
10
22.018213
20
119.401978
11
21.139960
21
119.289122
0
LINE
8
Layer 1
10
21.139960
20
119.289122
11
20.550008
21
119.608853
0
LINE
8
Layer 1
10
20.550008
20
119.608853
11
20.023911
21
120.392798
0
LINE
8
Layer 1
10
20.023911
20
120.392798
11
19.626130
21
120.959668
0
LINE
8
Layer 1
10
19.626130
20
120.959668
11
19.309258
21
121.168766
0
LINE
8
Layer 1
10
19.309258
20
121.168766
11
18.996693
21
120.566230
0
LINE
8
Layer 1
10
18.996693
20
120.566230
11
18.609272
21
119.181721
0
LINE
8
Layer 1
10
18.609272
20
119.181721
11
17.957955
21
116.899614
0
LINE
8
Layer 1
10
17.957955
20
116.899614
11
16.208374
21
115.830815
0
LINE
8
Layer 1
10
16.208374
20
115.830815
11
15.273545
21
115.336283
0
LINE
8
Layer 1
10
15.273545
20
115.336283
11
14.886651
21
114.972275
0
LINE
8
Layer 1
10
14.886651
20
114.972275
11
15.031041
21
114.694739
0
LINE
8
Layer 1
10
15.031041
20
114.694739
11
15.690063
21
114.459621
0
LINE
8
Layer 1
10
15.690063
20
114.459621
11
17.103840
21
113.831454
0
LINE
8
Layer 1
10
17.103840
20
113.831454
11
17.471151
21
113.528010
0
LINE
8
Layer 1
10
17.471151
20
113.528010
11
17.676470
21
113.098348
0
LINE
8
Layer 1
10
17.676470
20
113.098348
11
17.794854
21
111.092542
0
LINE
8
Layer 1
10
17.794854
20
111.092542
11
17.809709
21
108.796667
0
LINE
8
Layer 1
10
17.809709
20
108.796667
11
18.712077
21
109.910621
0
LINE
8
Layer 1
10
18.712077
20
109.910621
11
20.473627
21
111.987619
0
LINE
8
Layer 1
10
20.473627
20
111.987619
11
20.473627
21
111.987619
0
LINE
8
Layer 1
10
33.133747
20
115.869305
11
33.953049
21
117.437269
0
LINE
8
Layer 1
10
33.953049
20
117.437269
11
36.315382
21
117.380454
0
LINE
8
Layer 1
10
36.315382
20
117.380454
11
38.848109
21
117.494034
0
LINE
8
Layer 1
10
38.848109
20
117.494034
11
38.460482
21
118.114517
0
LINE
8
Layer 1
10
38.460482
20
118.114517
11
37.289252
21
119.367040
0
LINE
8
Layer 1
10
37.289252
20
119.367040
11
36.202690
21
120.522068
0
LINE
8
Layer 1
10
36.202690
20
120.522068
11
35.679551
21
121.396785
0
LINE
8
Layer 1
10
35.679551
20
121.396785
11
35.644020
21
122.221868
0
LINE
8
Layer 1
10
35.644020
20
122.221868
11
36.020279
21
123.227995
0
LINE
8
Layer 1
10
36.020279
20
123.227995
11
36.296792
21
123.961593
0
LINE
8
Layer 1
10
36.296792
20
123.961593
11
36.315249
21
124.363269
0
LINE
8
Layer 1
10
36.315249
20
124.363269
11
35.813163
21
124.254194
0
LINE
8
Layer 1
10
35.813163
20
124.254194
11
34.838149
21
123.759816
0
LINE
8
Layer 1
10
34.838149
20
123.759816
11
33.526360
21
122.991055
0
LINE
8
Layer 1
10
33.526360
20
122.991055
11
32.485169
21
124.007750
0
LINE
8
Layer 1
10
32.485169
20
124.007750
11
31.244213
21
125.024444
0
LINE
8
Layer 1
10
31.244213
20
125.024444
11
31.103127
21
124.488191
0
LINE
8
Layer 1
10
31.103127
20
124.488191
11
31.044444
21
123.198902
0
LINE
8
Layer 1
10
31.044444
20
123.198902
11
31.044444
21
121.373360
0
LINE
8
Layer 1
10
31.044444
20
121.373360
11
29.484566
21
120.221010
0
LINE
8
Layer 1
10
29.484566
20
120.221010
11
28.427034
21
119.335749
0
LINE
8
Layer 1
10
28.427034
20
119.335749
11
28.074932
21
118.825553
0
LINE
8
Layer 1
10
28.074932
20
118.825553
11
28.532947
21
118.595567
0
LINE
8
Layer 1
10
28.532947
20
118.595567
11
29.423146
21
118.384005
0
LINE
8
Layer 1
10
29.423146
20
118.384005
11
30.602939
21
118.136002
0
LINE
8
Layer 1
10
30.602939
20
118.136002
11
31.261147
21
117.785153
0
LINE
8
Layer 1
10
31.261147
20
117.785153
11
31.546790
21
117.180617
0
LINE
8
Layer 1
10
31.546790
20
117.180617
11
31.608889
21
116.171552
0
LINE
8
Layer 1
10
31.608889
20
116.171552
11
31.728403
21
114.712802
0
LINE
8
Layer 1
10
31.728403
20
114.712802
11
31.895478
21
114.396294
0
LINE
8
Layer 1
10
31.895478
20
114.396294
11
32.149816
21
114.300671
0
LINE
8
Layer 1
10
32.149816
20
114.300671
11
33.133747
21
115.869305
0
LINE
8
Layer 1
10
33.133747
20
115.869305
11
33.133747
21
115.869305
0
LINE
8
Layer 1
10
14.119167
20
123.048889
11
16.194641
21
125.501115
0
LINE
8
Layer 1
10
16.194641
20
125.501115
11
17.299711
21
126.714212
0
LINE
8
Layer 1
10
17.299711
20
126.714212
11
17.524684
21
127.081780
0
LINE
8
Layer 1
10
17.524684
20
127.081780
11
17.503767
21
127.324515
0
LINE
8
Layer 1
10
17.503767
20
127.324515
11
16.641716
21
127.538950
0
LINE
8
Layer 1
10
16.641716
20
127.538950
11
14.548468
21
127.564444
0
LINE
8
Layer 1
10
14.548468
20
127.564444
11
12.141374
21
127.487522
0
LINE
8
Layer 1
10
12.141374
20
127.487522
11
11.288889
21
127.270324
0
LINE
8
Layer 1
10
11.288889
20
127.270324
11
11.762141
21
124.702544
0
LINE
8
Layer 1
10
11.762141
20
124.702544
11
12.444957
21
121.989623
0
LINE
8
Layer 1
10
12.444957
20
121.989623
11
12.704965
21
121.552576
0
LINE
8
Layer 1
10
12.704965
20
121.552576
11
12.942492
21
121.521265
0
LINE
8
Layer 1
10
12.942492
20
121.521265
11
14.119167
21
123.048889
0
LINE
8
Layer 1
10
14.119167
20
123.048889
11
14.119167
21
123.048889
0
LINE
8
Layer 1
10
156.652666
20
122.930640
11
157.491755
21
123.229984
0
LINE
8
Layer 1
10
157.491755
20
123.229984
11
158.230657
21
123.646309
0
LINE
8
Layer 1
10
158.230657
20
123.646309
11
159.949444
21
125.203211
0
LINE
8
Layer 1
10
159.949444
20
125.203211
11
161.713333
21
127.297015
0
LINE
8
Layer 1
10
161.713333
20
127.297015
11
158.962279
21
127.492032
0
LINE
8
Layer 1
10
158.962279
20
127.492032
11
151.553333
21
127.564444
0
LINE
8
Layer 1
10
151.553333
20
127.564444
11
141.393333
21
127.417636
0
LINE
8
Layer 1
10
141.393333
20
127.417636
11
143.506179
21
125.891547
0
LINE
8
Layer 1
10
143.506179
20
125.891547
11
146.810774
21
124.113773
0
LINE
8
Layer 1
10
146.810774
20
124.113773
11
150.424444
21
122.806868
0
LINE
8
Layer 1
10
150.424444
20
122.806868
11
151.813858
21
122.577965
0
LINE
8
Layer 1
10
151.813858
20
122.577965
11
153.488193
21
122.525734
0
LINE
8
Layer 1
10
153.488193
20
122.525734
11
155.187710
21
122.645013
0
LINE
8
Layer 1
10
155.187710
20
122.645013
11
156.652666
21
122.930640
0
LINE
8
Layer 1
10
156.652666
20
122.930640
11
156.652666
21
122.930640
0
LINE
8
Layer 1
10
44.133897
20
126.321028
11
45.228908
21
127.564444
0
LINE
8
Layer 1
10
45.228908
20
127.564444
11
44.054485
21
127.564444
0
LINE
8
Layer 1
10
44.054485
20
127.564444
11
43.333839
21
127.531306
0
LINE
8
Layer 1
10
43.333839
20
127.531306
11
42.922412
21
127.340843
0
LINE
8
Layer 1
10
42.922412
20
127.340843
11
42.689881
21
126.856486
0
LINE
8
Layer 1
10
42.689881
20
126.856486
11
42.505921
21
125.941667
0
LINE
8
Layer 1
10
42.505921
20
125.941667
11
42.478752
21
125.252032
0
LINE
8
Layer 1
10
42.478752
20
125.252032
11
42.733154
21
125.083546
0
LINE
8
Layer 1
10
42.733154
20
125.083546
11
43.280933
21
125.438961
0
LINE
8
Layer 1
10
43.280933
20
125.438961
11
44.133897
21
126.321028
0
LINE
8
Layer 1
10
44.133897
20
126.321028
11
44.133897
21
126.321028
 0 
ENDSEC
 0 
EOF
