  0
SECTION
  2
HEADER
  9
$ACADVER
  1
AC1018
  9
$ACADMAINTVER
 70
     0
  9
$DWGCODEPAGE
  3
ANSI_1256
  9
$INSBASE
 10
0.0
 20
0.0
 30
0.0
  9
$EXTMIN
 10
0.0
 20
0.0
 30
0.0
  9
$EXTMAX
 10
47.7144
 20
47.7144
 30
0.0
  9
$LIMMIN
 10
0.0
 20
0.0
  9
$LIMMAX
 10
12.0
 20
9.0
  9
$ORTHOMODE
 70
     0
  9
$REGENMODE
 70
     1
  9
$FILLMODE
 70
     1
  9
$QTEXTMODE
 70
     0
  9
$MIRRTEXT
 70
     1
  9
$LTSCALE
 40
1.0
  9
$ATTMODE
 70
     1
  9
$TEXTSIZE
 40
0.2
  9
$TRACEWID
 40
0.05
  9
$TEXTSTYLE
  7
Standard
  9
$CLAYER
  8
0
  9
$CELTYPE
  6
ByBlock
  9
$CECOLOR
 62
   256
  9
$CELTSCALE
 40
1.0
  9
$DISPSILH
 70
     0
  9
$DIMSCALE
 40
1.0
  9
$DIMASZ
 40
0.18
  9
$DIMEXO
 40
0.0625
  9
$DIMDLI
 40
0.38
  9
$DIMRND
 40
0.0
  9
$DIMDLE
 40
0.0
  9
$DIMEXE
 40
0.18
  9
$DIMTP
 40
0.0
  9
$DIMTM
 40
0.0
  9
$DIMTXT
 40
0.18
  9
$DIMCEN
 40
0.09
  9
$DIMTSZ
 40
0.0
  9
$DIMTOL
 70
     0
  9
$DIMLIM
 70
     0
  9
$DIMTIH
 70
     1
  9
$DIMTOH
 70
     1
  9
$DIMSE1
 70
     0
  9
$DIMSE2
 70
     0
  9
$DIMTAD
 70
     0
  9
$DIMZIN
 70
     0
  9
$DIMBLK
  1

  9
$DIMASO
 70
     1
  9
$DIMSHO
 70
     1
  9
$DIMPOST
  1

  9
$DIMAPOST
  1

  9
$DIMALT
 70
     0
  9
$DIMALTD
 70
     2
  9
$DIMALTF
 40
25.4
  9
$DIMLFAC
 40
1.0
  9
$DIMTOFL
 70
     0
  9
$DIMTVP
 40
0.0
  9
$DIMTIX
 70
     0
  9
$DIMSOXD
 70
     0
  9
$DIMSAH
 70
     0
  9
$DIMBLK1
  1

  9
$DIMBLK2
  1

  9
$DIMSTYLE
  2
Standard
  9
$DIMCLRD
 70
     0
  9
$DIMCLRE
 70
     0
  9
$DIMCLRT
 70
     0
  9
$DIMTFAC
 40
1.0
  9
$DIMGAP
 40
0.09
  9
$DIMJUST
 70
     0
  9
$DIMSD1
 70
     0
  9
$DIMSD2
 70
     0
  9
$DIMTOLJ
 70
     1
  9
$DIMTZIN
 70
     0
  9
$DIMALTZ
 70
     0
  9
$DIMALTTZ
 70
     0
  9
$DIMUPT
 70
     0
  9
$DIMDEC
 70
     4
  9
$DIMTDEC
 70
     4
  9
$DIMALTU
 70
     2
  9
$DIMALTTD
 70
     2
  9
$DIMTXSTY
  7
Standard
  9
$DIMAUNIT
 70
     0
  9
$DIMADEC
 70
     0
  9
$DIMALTRND
 40
0.0
  9
$DIMAZIN
 70
     0
  9
$DIMDSEP
 70
    46
  9
$DIMATFIT
 70
     3
  9
$DIMFRAC
 70
     0
  9
$DIMLDRBLK
  1

  9
$DIMLUNIT
 70
     2
  9
$DIMLWD
 70
    -2
  9
$DIMLWE
 70
    -2
  9
$DIMTMOVE
 70
     2
  9
$LUNITS
 70
     2
  9
$LUPREC
 70
     4
  9
$SKETCHINC
 40
0.1
  9
$FILLETRAD
 40
0.5
  9
$AUNITS
 70
     0
  9
$AUPREC
 70
     0
  9
$MENU
  1
.
  9
$ELEVATION
 40
0.0
  9
$PELEVATION
 40
0.0
  9
$THICKNESS
 40
0.0
  9
$LIMCHECK
 70
     0
  9
$CHAMFERA
 40
0.0
  9
$CHAMFERB
 40
0.0
  9
$CHAMFERC
 40
0.0
  9
$CHAMFERD
 40
0.0
  9
$SKPOLY
 70
     0
  9
$TDCREATE
 40
2457958.699163924
  9
$TDUCREATE
 40
2457958.574163924
  9
$TDUPDATE
 40
2457958.699164502
  9
$TDUUPDATE
 40
2457958.574164502
  9
$TDINDWG
 40
0.0000000116
  9
$TDUSRTIMER
 40
0.0000000116
  9
$USRTIMER
 70
     1
  9
$ANGBASE
 50
0.0
  9
$ANGDIR
 70
     0
  9
$PDMODE
 70
     0
  9
$PDSIZE
 40
0.0
  9
$PLINEWID
 40
0.0
  9
$SPLFRAME
 70
     0
  9
$SPLINETYPE
 70
     6
  9
$SPLINESEGS
 70
     8
  9
$HANDSEED
  5
F1A
  9
$SURFTAB1
 70
     6
  9
$SURFTAB2
 70
     6
  9
$SURFTYPE
 70
     6
  9
$SURFU
 70
     6
  9
$SURFV
 70
     6
  9
$UCSBASE
  2

  9
$UCSNAME
  2

  9
$UCSORG
 10
0.0
 20
0.0
 30
0.0
  9
$UCSXDIR
 10
1.0
 20
0.0
 30
0.0
  9
$UCSYDIR
 10
0.0
 20
1.0
 30
0.0
  9
$UCSORTHOREF
  2

  9
$UCSORTHOVIEW
 70
     0
  9
$UCSORGTOP
 10
0.0
 20
0.0
 30
0.0
  9
$UCSORGBOTTOM
 10
0.0
 20
0.0
 30
0.0
  9
$UCSORGLEFT
 10
0.0
 20
0.0
 30
0.0
  9
$UCSORGRIGHT
 10
0.0
 20
0.0
 30
0.0
  9
$UCSORGFRONT
 10
0.0
 20
0.0
 30
0.0
  9
$UCSORGBACK
 10
0.0
 20
0.0
 30
0.0
  9
$PUCSBASE
  2

  9
$PUCSNAME
  2

  9
$PUCSORG
 10
0.0
 20
0.0
 30
0.0
  9
$PUCSXDIR
 10
1.0
 20
0.0
 30
0.0
  9
$PUCSYDIR
 10
0.0
 20
1.0
 30
0.0
  9
$PUCSORTHOREF
  2

  9
$PUCSORTHOVIEW
 70
     0
  9
$PUCSORGTOP
 10
0.0
 20
0.0
 30
0.0
  9
$PUCSORGBOTTOM
 10
0.0
 20
0.0
 30
0.0
  9
$PUCSORGLEFT
 10
0.0
 20
0.0
 30
0.0
  9
$PUCSORGRIGHT
 10
0.0
 20
0.0
 30
0.0
  9
$PUCSORGFRONT
 10
0.0
 20
0.0
 30
0.0
  9
$PUCSORGBACK
 10
0.0
 20
0.0
 30
0.0
  9
$USERI1
 70
     0
  9
$USERI2
 70
     0
  9
$USERI3
 70
     0
  9
$USERI4
 70
     0
  9
$USERI5
 70
     0
  9
$USERR1
 40
0.0
  9
$USERR2
 40
0.0
  9
$USERR3
 40
0.0
  9
$USERR4
 40
0.0
  9
$USERR5
 40
0.0
  9
$WORLDVIEW
 70
     1
  9
$SHADEDGE
 70
     3
  9
$SHADEDIF
 70
    70
  9
$TILEMODE
 70
     1
  9
$MAXACTVP
 70
    64
  9
$PINSBASE
 10
0.0
 20
0.0
 30
0.0
  9
$PLIMCHECK
 70
     0
  9
$PEXTMIN
 10
1.000000000000000E+20
 20
1.000000000000000E+20
 30
1.000000000000000E+20
  9
$PEXTMAX
 10
-1.000000000000000E+20
 20
-1.000000000000000E+20
 30
-1.000000000000000E+20
  9
$PLIMMIN
 10
0.0
 20
0.0
  9
$PLIMMAX
 10
12.0
 20
9.0
  9
$UNITMODE
 70
     0
  9
$VISRETAIN
 70
     1
  9
$PLINEGEN
 70
     0
  9
$PSLTSCALE
 70
     1
  9
$TREEDEPTH
 70
  3020
  9
$CMLSTYLE
  2
Standard
  9
$CMLJUST
 70
     0
  9
$CMLSCALE
 40
1.0
  9
$PROXYGRAPHICS
 70
     1
  9
$MEASUREMENT
 70
     0
  9
$CELWEIGHT
370
    -1
  9
$ENDCAPS
280
     0
  9
$JOINSTYLE
280
     0
  9
$LWDISPLAY
290
     0
  9
$INSUNITS
 70
     0
  9
$HYPERLINKBASE
  1

  9
$STYLESHEET
  1

  9
$XEDIT
290
     1
  9
$CEPSNTYPE
380
     0
  9
$PSTYLEMODE
290
     1
  9
$FINGERPRINTGUID
  2
{C993E42E-E645-4958-B9F5-38914A83CE22}
  9
$VERSIONGUID
  2
{FAEB1C32-E019-11D5-929B-00C0DF256EC4}
  9
$EXTNAMES
290
     1
  9
$PSVPSCALE
 40
0.0
  9
$OLESTARTUP
290
     0
  9
$SORTENTS
280
   127
  9
$INDEXCTL
280
     0
  9
$HIDETEXT
280
     1
  9
$XCLIPFRAME
290
     0
  9
$HALOGAP
280
     0
  9
$OBSCOLOR
 70
   257
  9
$OBSLTYPE
280
     0
  9
$INTERSECTIONDISPLAY
280
     0
  9
$INTERSECTIONCOLOR
 70
   257
  9
$DIMASSOC
280
     2
  9
$PROJECTNAME
  1

  0
ENDSEC
  0
SECTION
  2
CLASSES
  0
CLASS
  1
ACDBDICTIONARYWDFLT
  2
AcDbDictionaryWithDefault
  3
ObjectDBX Classes
 90
        0
 91
        4
280
     0
281
     0
  0
CLASS
  1
SCALE
  2
AcDbScale
  3
ObjectDBX Classes
 90
     1153
 91
        4
280
     0
281
     0
  0
CLASS
  1
VISUALSTYLE
  2
AcDbVisualStyle
  3
ObjectDBX Classes
 90
     4095
 91
        4
280
     0
281
     0
  0
CLASS
  1
MATERIAL
  2
AcDbMaterial
  3
ObjectDBX Classes
 90
     1153
 91
        4
280
     0
281
     0
  0
CLASS
  1
TABLESTYLE
  2
AcDbTableStyle
  3
ObjectDBX Classes
 90
     4095
 91
        4
280
     0
281
     0
  0
CLASS
  1
MLEADERSTYLE
  2
AcDbMLeaderStyle
  3
ACDB_MLEADERSTYLE_CLASS
 90
     4095
 91
        4
280
     0
281
     0
  0
CLASS
  1
DICTIONARYVAR
  2
AcDbDictionaryVar
  3
ObjectDBX Classes
 90
        0
 91
        4
280
     0
281
     0
  0
CLASS
  1
CELLSTYLEMAP
  2
AcDbCellStyleMap
  3
ObjectDBX Classes
 90
     1152
 91
        4
280
     0
281
     0
  0
ENDSEC
  0
SECTION
  2
TABLES
  0
TABLE
  2
VPORT
  5
8
102
{ACAD_XDICTIONARY
360
ED3
102
}
330
0
100
AcDbSymbolTable
 70
     1
  0
VPORT
  5
21
330
8
100
AcDbSymbolTableRecord
100
AcDbViewportTableRecord
  2
*Active
 70
     0
 10
0.0
 20
0.0
 11
1.0
 21
1.0
 12
10.42990654205607
 22
4.5
 13
0.0
 23
0.0
 14
0.5
 24
0.5
 15
0.5
 25
0.5
 16
0.0
 26
0.0
 36
1.0
 17
0.0
 27
0.0
 37
0.0
 40
9.0
 41
1.972972972850329
 42
50.0
 43
0.0
 44
0.0
 50
0.0
 51
0.0
 71
     0
 72
   100
 73
     1
 74
     3
 75
     0
 76
     0
 77
     0
 78
     0
281
     0
 65
     1
110
0.0
120
0.0
130
0.0
111
1.0
121
0.0
131
0.0
112
0.0
122
1.0
132
0.0
 79
     0
146
0.0
  0
ENDTAB
  0
TABLE
  2
LTYPE
  5
5
330
0
100
AcDbSymbolTable
 70
     1
  0
LTYPE
  5
14
330
5
100
AcDbSymbolTableRecord
100
AcDbLinetypeTableRecord
  2
ByBlock
 70
     0
  3

 72
    65
 73
     0
 40
0.0
  0
LTYPE
  5
15
330
5
100
AcDbSymbolTableRecord
100
AcDbLinetypeTableRecord
  2
ByLayer
 70
     0
  3

 72
    65
 73
     0
 40
0.0
  0
LTYPE
  5
16
330
5
100
AcDbSymbolTableRecord
100
AcDbLinetypeTableRecord
  2
Continuous
 70
     0
  3
Solid line
 72
    65
 73
     0
 40
0.0
  0
ENDTAB
  0
TABLE
  2
LAYER
  5
2
330
0
100
AcDbSymbolTable
 70
     1
  0
LAYER
  5
10
330
2
100
AcDbSymbolTableRecord
100
AcDbLayerTableRecord
  2
0
 70
     0
 62
     7
  6
Continuous
370
    -3
390
F
  0
ENDTAB
  0
TABLE
  2
STYLE
  5
3
330
0
100
AcDbSymbolTable
 70
     1
  0
STYLE
  5
11
330
3
100
AcDbSymbolTableRecord
100
AcDbTextStyleTableRecord
  2
Standard
 70
     0
 40
0.0
 41
1.0
 50
0.0
 71
     0
 42
0.2
  3
txt
  4

  0
ENDTAB
  0
TABLE
  2
VIEW
  5
6
330
0
100
AcDbSymbolTable
 70
     0
  0
ENDTAB
  0
TABLE
  2
UCS
  5
7
330
0
100
AcDbSymbolTable
 70
     0
  0
ENDTAB
  0
TABLE
  2
APPID
  5
9
330
0
100
AcDbSymbolTable
 70
     2
  0
APPID
  5
12
330
9
100
AcDbSymbolTableRecord
100
AcDbRegAppTableRecord
  2
ACAD
 70
     0
  0
APPID
  5
F11
330
9
100
AcDbSymbolTableRecord
100
AcDbRegAppTableRecord
  2
ACAD_MLEADERVER
 70
     0
  0
ENDTAB
  0
TABLE
  2
DIMSTYLE
  5
A
330
0
100
AcDbSymbolTable
 70
     1
100
AcDbDimStyleTable
  0
DIMSTYLE
105
20
330
A
100
AcDbSymbolTableRecord
100
AcDbDimStyleTableRecord
  2
Standard
 70
     0
178
     0
340
11
  0
ENDTAB
  0
TABLE
  2
BLOCK_RECORD
  5
1
330
0
100
AcDbSymbolTable
 70
     0
  0
BLOCK_RECORD
  5
1D
330
1
100
AcDbSymbolTableRecord
100
AcDbBlockTableRecord
  2
*Model_Space
340
1E
  0
BLOCK_RECORD
  5
1B
330
1
100
AcDbSymbolTableRecord
100
AcDbBlockTableRecord
  2
*Paper_Space
340
1C
  0
ENDTAB
  0
ENDSEC
  0
SECTION
  2
BLOCKS
  0
BLOCK
  5
EAE
330
1D
100
AcDbEntity
  8
0
100
AcDbBlockBegin
  2
*Model_Space
 70
     0
 10
0.0
 20
0.0
 30
0.0
  3
*Model_Space
  1

  0
ENDBLK
  5
EAF
330
1D
100
AcDbEntity
  8
0
100
AcDbBlockEnd
  0
BLOCK
  5
EB0
330
1B
100
AcDbEntity
 67
     1
  8
0
100
AcDbBlockBegin
  2
*Paper_Space
 70
     0
 10
0.0
 20
0.0
 30
0.0
  3
*Paper_Space
  1

  0
ENDBLK
  5
EB1
330
1B
100
AcDbEntity
 67
     1
  8
0
100
AcDbBlockEnd
  0
ENDSEC
  0
SECTION
  2
ENTITIES
  0
LWPOLYLINE
  5
22
330
1D
100
AcDbEntity
  8
0
100
AcDbPolyline
 90
        8
 70
     1
 43
0.0
 10
23.8995
 20
43.146
 10
4.4838
 20
43.146
 10
4.4838
 20
23.7726
 10
4.4838
 20
4.3992
 10
23.8995
 20
4.3992
 10
43.3152
 20
4.3992
 10
43.3152
 20
23.7726
 10
43.3152
 20
43.146
  0
LWPOLYLINE
  5
2C
330
1D
100
AcDbEntity
  8
0
100
AcDbPolyline
 90
        8
 70
     1
 43
0.0
 10
23.8995
 20
41.6232
 10
41.792794
 20
41.6232
 10
41.771447
 20
23.79375
 10
41.7501
 20
5.9643
 10
23.8995
 20
5.9643
 10
6.0489
 20
5.9643
 10
6.027553
 20
23.79375
 10
6.006206
 20
41.6232
  0
LWPOLYLINE
  5
36
330
1D
100
AcDbEntity
  8
0
100
AcDbPolyline
 90
      232
 70
     1
 43
0.0
 10
12.8592
 20
40.185
 10
7.4448
 20
40.185
 10
7.4448
 20
34.802325
 10
7.4448
 20
29.41965
 10
7.710433
 20
29.472777
 42
0.04776
 10
7.867184
 20
29.520039
 42
0.0061
 10
8.191628
 20
29.657399
 42
0.007095
 10
8.573385
 20
29.831041
 42
0.005853
 10
8.975529
 20
30.026676
 42
-0.008915
 10
9.445183
 20
30.251609
 42
-0.015804
 10
9.841012
 20
30.417666
 42
-0.019119
 10
10.170881
 20
30.529688
 42
-0.041235
 10
10.433177
 20
30.584696
 42
-0.027818
 10
10.682276
 20
30.60183
 42
-0.026935
 10
10.934461
 20
30.591534
 42
-0.023715
 10
11.211482
 20
30.551907
 42
-0.014099
 10
11.537049
 20
30.47989
 10
12.182736
 20
30.317838
 10
12.02225
 20
30.492669
 42
-0.020927
 10
11.948224
 20
30.580415
 42
-0.009017
 10
11.856689
 20
30.703123
 42
-0.008904
 10
11.763799
 20
30.837433
 42
-0.011645
 10
11.683999
 20
30.9636
 42
-0.018951
 10
11.615932
 20
31.087375
 42
-0.019687
 10
11.558358
 20
31.21441
 42
-0.019825
 10
11.517417
 20
31.327798
 42
-0.076306
 10
11.505916
 20
31.401621
 42
-0.225461
 10
11.532809
 20
31.458556
 42
-0.228102
 10
11.593724
 20
31.473301
 42
-0.057785
 10
11.720454
 20
31.430389
 42
-0.006596
 10
11.99205
 20
31.297472
 42
0.02648
 10
12.258571
 20
31.179929
 42
0.024427
 10
12.543227
 20
31.087622
 42
0.021878
 10
12.863888
 20
31.015586
 42
0.014178
 10
13.2399
 20
30.959189
 42
-0.007682
 10
13.582716
 20
30.912316
 42
-0.004711
 10
13.985297
 20
30.847071
 42
-0.004722
 10
14.382626
 20
30.774959
 42
-0.008392
 10
14.70822
 20
30.707001
 42
-0.022388
 10
15.059045
 20
30.610919
 42
-0.011448
 10
15.49027
 20
30.460809
 42
-0.010949
 10
15.950031
 20
30.277296
 42
-0.011637
 10
16.39197
 20
30.077312
 42
0.003843
 10
16.768878
 20
29.899627
 42
0.006265
 10
17.091645
 20
29.755367
 42
0.001663
 10
17.372471
 20
29.635157
 42
0.30565
 10
17.402126
 20
29.640926
 42
0.412717
 10
17.402193
 20
29.667217
 42
0.000989
 10
17.107657
 20
29.963606
 42
0.004959
 10
16.765597
 20
30.299725
 42
0.002971
 10
16.352877
 20
30.69261
 42
0.00213
 10
15.909364
 20
31.106264
 42
0.002276
 10
15.471955
 20
31.507077
 42
0.002159
 10
15.092832
 20
31.848344
 42
0.01064
 10
14.87421
 20
32.035233
 42
0.011483
 10
14.68967
 20
32.17936
 42
0.006558
 10
14.460624
 20
32.345303
 42
0.006547
 10
14.225672
 20
32.506307
 42
0.010789
 10
14.02247
 20
32.635437
 42
0.015799
 10
13.811702
 20
32.754142
 42
0.009333
 10
13.553246
 20
32.883052
 42
0.009333
 10
13.290132
 20
33.002238
 42
0.015784
 10
13.06496
 20
33.090897
 42
0.023725
 10
12.809855
 20
33.168719
 42
0.02155
 10
12.540236
 20
33.224935
 42
0.020985
 10
12.25945
 20
33.258934
 42
0.01972
 10
11.9709
 20
33.270222
 42
0.01883
 10
11.684634
 20
33.259341
 42
0.022299
 10
11.415851
 20
33.226866
 42
0.023605
 10
11.165504
 20
33.172976
 42
0.027658
 10
10.93455
 20
33.097839
 42
-0.005648
 10
10.764206
 20
33.034006
 42
-0.009739
 10
10.620869
 20
32.985267
 42
-0.00405
 10
10.501342
 20
32.948268
 42
-0.502594
 10
10.4904
 20
32.956404
 42
-0.184515
 10
10.49773
 20
32.97559
 42
-0.005127
 10
10.558741
 20
33.042395
 42
-0.009879
 10
10.633894
 20
33.119881
 42
-0.006546
 10
10.72305
 20
33.205959
 42
-0.016188
 10
10.832997
 20
33.302852
 42
-0.009075
 10
10.97244
 20
33.413746
 42
-0.009048
 10
11.117528
 20
33.520782
 42
-0.01456
 10
11.245337
 20
33.606059
 42
-0.031573
 10
11.392138
 20
33.685524
 42
-0.012833
 10
11.600899
 20
33.775604
 42
-0.012638
 10
11.830996
 20
33.861274
 42
-0.01573
 10
12.049037
 20
33.928648
 10
12.5631
 20
34.069941
 10
12.267
 20
34.134495
 42
-0.022134
 10
12.131311
 20
34.170434
 42
-0.011788
 10
11.96678
 20
34.226193
 42
-0.011712
 10
11.801067
 20
34.291183
 42
-0.017841
 10
11.660775
 20
34.356009
 42
-0.032474
 10
11.530012
 20
34.433233
 42
-0.022909
 10
11.393498
 20
34.535766
 42
-0.02322
 10
11.27152
 20
34.646348
 42
-0.044286
 10
11.186392
 20
34.747535
 42
-0.051827
 10
11.108888
 20
34.886964
 42
-0.010565
 10
11.003307
 20
35.149283
 42
-0.011027
 10
10.89326
 20
35.460907
 42
-0.010146
 10
10.793782
 20
35.7858
 42
0.013947
 10
10.684918
 20
36.131926
 42
0.010385
 10
10.546328
 20
36.507641
 42
0.010516
 10
10.400728
 20
36.856693
 42
0.023338
 10
10.272054
 20
37.114531
 42
0.007266
 10
10.153665
 20
37.319355
 42
0.009892
 10
10.040612
 20
37.500318
 42
0.007117
 10
9.941525
 20
37.647535
 42
0.103004
 10
9.89614
 20
37.690573
 42
-0.062571
 10
9.864567
 20
37.71603
 42
-0.051431
 10
9.837846
 20
37.750141
 42
-0.053345
 10
9.819661
 20
37.7873
 42
-0.087357
 10
9.8136
 20
37.821723
 42
-0.505332
 10
9.834828
 20
37.837364
 42
-0.038076
 10
9.912687
 20
37.806543
 42
-0.028788
 10
10.021438
 20
37.745625
 42
-0.014687
 10
10.150917
 20
37.65751
 42
0.023541
 10
10.317545
 20
37.548379
 42
0.010705
 10
10.544786
 20
37.420865
 42
0.010573
 10
10.790531
 20
37.296406
 42
0.014283
 10
11.018067
 20
37.195044
 42
0.009657
 10
11.266189
 20
37.098461
 42
0.005103
 10
11.577471
 20
36.987757
 42
0.005075
 10
11.898434
 20
36.880917
 42
0.007814
 10
12.1784
 20
36.795675
 42
-0.016639
 10
12.482391
 20
36.697223
 42
-0.029577
 10
12.724134
 20
36.593412
 42
-0.035299
 10
12.918985
 20
36.477848
 42
-0.044907
 10
13.079382
 20
36.343938
 42
-0.040041
 10
13.190811
 20
36.213075
 42
-0.024195
 10
13.301939
 20
36.042319
 42
-0.024153
 10
13.396479
 20
35.860839
 42
-0.03858
 10
13.457194
 20
35.696978
 42
0.010648
 10
13.503443
 20
35.546945
 42
0.012648
 10
13.553657
 20
35.407482
 42
0.011492
 10
13.601434
 20
35.292523
 42
0.07566
 10
13.634862
 20
35.24013
 42
0.304785
 10
13.661544
 20
35.233027
 42
0.214445
 10
13.68492
 20
35.254979
 42
0.073409
 10
13.700571
 20
35.316851
 42
0.025239
 10
13.705267
 20
35.40933
 42
-0.062047
 10
13.721409
 20
35.538625
 42
-0.017349
 10
13.778392
 20
35.734696
 42
-0.017221
 10
13.858879
 20
35.953853
 42
-0.017325
 10
13.95411
 20
36.1665
 42
-0.014016
 10
14.065546
 20
36.378614
 42
-0.011906
 10
14.194667
 20
36.596201
 42
-0.012072
 10
14.321788
 20
36.788746
 42
-0.032786
 10
14.423682
 20
36.916511
 42
-0.015835
 10
14.511144
 20
37.006632
 42
-0.026189
 10
14.591096
 20
37.076237
 42
-0.024414
 10
14.656958
 20
37.122775
 42
-0.351411
 10
14.683549
 20
37.119851
 42
-0.255121
 10
14.692456
 20
37.089541
 42
-0.015738
 10
14.668856
 20
36.995249
 42
-0.020239
 10
14.630996
 20
36.87992
 42
-0.013356
 10
14.578663
 20
36.750539
 42
0.043122
 10
14.51487
 20
36.561148
 42
0.02461
 10
14.46936
 20
36.323862
 42
0.020799
 10
14.441109
 20
36.038543
 42
0.012809
 10
14.430484
 20
35.7012
 42
0.012667
 10
14.43814
 20
35.307864
 42
0.031398
 10
14.469068
 20
35.021466
 42
0.035653
 10
14.532681
 20
34.763333
 42
0.021171
 10
14.642931
 20
34.466142
 42
0.018295
 10
14.754812
 20
34.224843
 42
0.008609
 10
14.915964
 20
33.921222
 42
0.008518
 10
15.095873
 20
33.60861
 42
0.011866
 10
15.268151
 20
33.335633
 42
0.024339
 10
15.499948
 20
33.021281
 42
0.006706
 10
15.894621
 20
32.550284
 42
0.006759
 10
16.356712
 20
32.028063
 42
0.007017
 10
16.827102
 20
31.525091
 42
0.001617
 10
17.273012
 20
31.064499
 42
0.002535
 10
17.659729
 20
30.671632
 42
0.000669
 10
17.999161
 20
30.331193
 42
0.093858
 10
18.046125
 20
30.299175
 42
0.674409
 10
18.060495
 20
30.313263
 42
0.004848
 10
17.970962
 20
30.5244
 42
0.008791
 10
17.85048
 20
30.788257
 42
0.004795
 10
17.693885
 20
31.107921
 42
-0.007566
 10
17.519929
 20
31.468061
 42
-0.006258
 10
17.345272
 20
31.856736
 42
-0.006326
 10
17.194047
 20
32.217266
 42
-0.016829
 10
17.098118
 20
32.479369
 42
-0.022537
 10
17.021827
 20
32.75276
 42
-0.007769
 10
16.935648
 20
33.154074
 42
-0.007701
 10
16.854222
 20
33.600056
 42
-0.008855
 10
16.790636
 20
34.028084
 42
0.009045
 10
16.728085
 20
34.448039
 42
0.008774
 10
16.649822
 20
34.869754
 42
0.008716
 10
16.568041
 20
35.238104
 42
0.031814
 10
16.497448
 20
35.466705
 42
0.015329
 10
16.425348
 20
35.64024
 42
0.014547
 10
16.341563
 20
35.812138
 42
0.014669
 10
16.258631
 20
35.959722
 42
0.048607
 10
16.192309
 20
36.049093
 42
-0.025848
 10
16.137727
 20
36.116056
 42
-0.090939
 10
16.11361
 20
36.165878
 42
-0.24426
 10
16.119902
 20
36.195442
 42
-0.224134
 10
16.148205
 20
36.2088
 42
-0.061805
 10
16.203585
 20
36.201928
 42
-0.01254
 10
16.299102
 20
36.175289
 42
-0.013047
 10
16.409278
 20
36.138392
 42
-0.011894
 10
16.520867
 20
36.09472
 42
-0.027663
 10
16.644845
 20
36.034505
 42
-0.014077
 10
16.793898
 20
35.946048
 42
-0.013941
 10
16.942927
 20
35.845913
 42
-0.02026
 10
17.06805
 20
35.7488
 42
0.011593
 10
17.173589
 20
35.663915
 42
0.022562
 10
17.262233
 20
35.602085
 42
0.025778
 10
17.327562
 20
35.565338
 42
0.556619
 10
17.343
 20
35.574909
 42
0.0608
 10
17.338147
 20
35.61467
 42
0.002548
 10
17.303088
 20
35.753128
 42
0.004367
 10
17.259183
 20
35.916967
 42
0.003087
 10
17.20713
 20
36.100236
 42
-0.025357
 10
17.151464
 20
36.335636
 42
-0.020732
 10
17.115347
 20
36.591846
 42
-0.020079
 10
17.0997
 20
36.859295
 42
-0.019786
 10
17.10543
 20
37.128456
 42
-0.030925
 10
17.148343
 20
37.476484
 42
-0.03886
 10
17.232534
 20
37.790195
 42
-0.024956
 10
17.392463
 20
38.179515
 42
-0.005525
 10
17.7066
 20
38.828623
 42
0.003542
 10
17.923875
 20
39.273079
 42
0.005279
 10
18.107044
 20
39.66515
 42
0.002419
 10
18.257592
 20
40.000779
 42
0.104582
 10
18.2736
 20
40.076473
 42
0.406222
 10
18.212409
 20
40.139362
 42
0.00183
 10
17.197276
 20
40.163426
 42
0.004263
 10
15.691831
 20
40.180764
 42
0.000748
  0
LWPOLYLINE
  5
120
330
1D
100
AcDbEntity
  8
0
100
AcDbPolyline
 90
       16
 70
     1
 43
0.0
 10
18.853274
 20
40.185
 10
18.345919
 20
40.185
 10
18.52126
 20
39.962091
 42
-0.029612
 10
18.588367
 20
39.865524
 42
-0.027871
 10
18.645094
 20
39.759777
 42
-0.028998
 10
18.684626
 20
39.660417
 42
-0.080345
 10
18.6966
 20
39.586384
 42
0.038297
 10
18.701285
 20
39.525303
 42
0.043051
 10
18.715238
 20
39.468077
 42
0.047716
 10
18.735659
 20
39.422421
 42
0.137408
 10
18.76005
 20
39.398207
 42
0.332079
 10
18.797402
 20
39.403188
 42
0.018308
 10
18.883752
 20
39.493977
 42
0.022409
 10
18.984536
 20
39.618881
 42
0.013857
 10
19.092064
 20
39.773914
 10
19.360628
 20
40.185
  0
LWPOLYLINE
  5
132
330
1D
100
AcDbEntity
  8
0
100
AcDbPolyline
 90
       14
 70
     1
 43
0.0
 10
23.8995
 20
40.185
 10
22.724274
 20
40.185
 10
23.114175
 20
39.937732
 42
-0.0216
 10
23.277667
 20
39.823862
 42
-0.016514
 10
23.446522
 20
39.68603
 42
-0.01679
 10
23.596273
 20
39.546191
 42
-0.037366
 10
23.69805
 20
39.4281
 10
23.892025
 20
39.165735
 10
24.101181
 20
39.432987
 42
-0.03319
 10
24.208375
 20
39.552669
 42
-0.015682
 10
24.361168
 20
39.692933
 42
-0.015464
 10
24.53089
 20
39.830289
 42
-0.021075
 10
24.692532
 20
39.94262
 10
25.074726
 20
40.185
  0
LWPOLYLINE
  5
142
330
1D
100
AcDbEntity
  8
0
100
AcDbPolyline
 90
       24
 70
     1
 43
0.0
 10
28.884838
 20
40.185
 42
0.004737
 10
28.581038
 20
40.182122
 42
0.094403
 10
28.490542
 20
40.163098
 42
0.431194
 10
28.474445
 20
40.12048
 42
0.067735
 10
28.530171
 20
40.03695
 42
-0.021215
 10
28.592372
 20
39.960216
 42
-0.007774
 10
28.673886
 20
39.846806
 42
-0.00769
 10
28.759241
 20
39.71995
 42
-0.009139
 10
28.835745
 20
39.59755
 42
0.008321
 10
28.939753
 20
39.430536
 42
0.122747
 10
28.989804
 20
39.383637
 42
0.400197
 10
29.027559
 20
39.393387
 42
0.061561
 10
29.063345
 20
39.47065
 42
-0.011381
 10
29.090362
 20
39.548623
 42
-0.005242
 10
29.128894
 20
39.648921
 42
-0.005189
 10
29.171639
 20
39.753608
 42
-0.007165
 10
29.212318
 20
39.8466
 42
-0.000734
 10
29.251397
 20
39.932226
 42
-0.00082
 10
29.289307
 20
40.01461
 42
-0.000754
 10
29.321827
 20
40.084699
 42
-0.004363
 10
29.339385
 20
40.12155
 42
0.483356
 10
29.327445
 20
40.146451
 42
0.02113
 10
29.218614
 20
40.166362
 42
0.022375
 10
29.068876
 20
40.180471
 42
0.012303
  0
LWPOLYLINE
  5
15C
330
1D
100
AcDbEntity
  8
0
100
AcDbPolyline
 90
      224
 70
     1
 43
0.0
 10
34.9398
 20
40.185
 42
0.000755
 10
32.120863
 20
40.180741
 42
0.004217
 10
30.609761
 20
40.163429
 42
0.001759
 10
29.585914
 20
40.139459
 42
0.406349
 10
29.5254
 20
40.077294
 42
0.103728
 10
29.541178
 20
40.002059
 42
0.002373
 10
29.690382
 20
39.666309
 42
0.005206
 10
29.87182
 20
39.274155
 42
0.003491
 10
30.087042
 20
38.829444
 42
-0.005822
 10
30.39055
 20
38.19478
 42
-0.023292
 10
30.553427
 20
37.796104
 42
-0.035311
 10
30.642487
 20
37.475159
 42
-0.031699
 10
30.68955
 20
37.133058
 42
-0.019488
 10
30.698955
 20
36.859495
 42
-0.022209
 10
30.686117
 20
36.597779
 42
-0.022987
 10
30.650884
 20
36.346657
 42
-0.024393
 10
30.593208
 20
36.104838
 42
0.003489
 10
30.540647
 20
35.919212
 42
0.004837
 10
30.496305
 20
35.75204
 42
0.003067
 10
30.461315
 20
35.611177
 42
0.059404
 10
30.456
 20
35.566602
 42
0.542257
 10
30.471854
 20
35.556281
 42
0.043949
 10
30.524341
 20
35.585267
 42
0.02889
 10
30.599307
 20
35.642276
 42
0.013984
 10
30.68865
 20
35.723184
 42
-0.03005
 10
30.800441
 20
35.81807
 42
-0.017297
 10
30.945353
 20
35.91916
 42
-0.01724
 10
31.098464
 20
36.010949
 42
-0.027476
 10
31.235833
 20
36.077412
 42
-0.00878
 10
31.362474
 20
36.12772
 42
-0.010672
 10
31.482872
 20
36.170205
 42
-0.009349
 10
31.5851
 20
36.201737
 42
-0.070238
 10
31.635133
 20
36.2088
 42
-0.464518
 10
31.653196
 20
36.187402
 42
-0.053691
 10
31.633661
 20
36.118411
 42
-0.035459
 10
31.585241
 20
36.019214
 42
-0.017814
 10
31.511086
 20
35.901094
 42
0.023748
 10
31.424825
 20
35.760001
 42
0.015484
 10
31.338305
 20
35.589797
 42
0.01558
 10
31.26408
 20
35.418163
 42
0.028502
 10
31.216123
 20
35.273457
 42
0.020894
 10
31.17494
 20
35.090368
 42
0.004035
 10
31.117019
 20
34.755755
 42
0.004287
 10
31.05591
 20
34.364036
 42
0.003945
 10
30.999722
 20
33.960331
 42
-0.009363
 10
30.936915
 20
33.54229
 42
-0.008178
 10
30.855908
 20
33.107512
 42
-0.008249
 10
30.769767
 20
32.71691
 42
-0.024076
 10
30.69305
 20
32.451818
 42
-0.015248
 10
30.597245
 20
32.197552
 42
-0.005674
 10
30.447718
 20
31.846026
 42
-0.005616
 10
30.275911
 20
31.466169
 42
-0.006758
 10
30.105615
 20
31.113187
 42
0.002136
 10
29.948076
 20
30.794214
 42
0.003328
 10
29.815336
 20
30.517887
 42
0.000986
 10
29.702236
 20
30.277145
 42
0.109743
 10
29.6946
 20
30.242774
 42
0.664356
 10
29.707814
 20
30.237219
 42
0.00076
 10
29.994356
 20
30.518609
 42
0.003625
 10
30.323665
 20
30.847721
 42
0.002098
 10
30.715047
 20
31.247927
 42
0.004231
 10
31.139091
 20
31.692656
 42
0.003846
 10
31.569363
 20
32.158766
 42
0.00385
 10
31.947776
 20
32.581573
 42
0.012379
 10
32.190389
 20
32.871028
 42
0.011342
 10
32.383309
 20
33.124721
 42
0.008221
 10
32.586953
 20
33.415455
 42
0.008311
 10
32.771285
 20
33.698059
 42
0.017914
 10
32.901604
 20
33.922779
 42
0.0176
 10
33.009204
 20
34.142995
 42
0.010899
 10
33.120681
 20
34.408509
 42
0.010929
 10
33.219431
 20
34.675839
 42
0.019299
 10
33.287461
 20
34.901015
 42
0.012791
 10
33.337058
 20
35.113578
 42
0.010756
 10
33.378948
 20
35.341025
 42
0.010898
 10
33.408205
 20
35.550413
 42
0.029267
 10
33.417
 20
35.700538
 42
0.027473
 10
33.409006
 20
35.845912
 42
0.011999
 10
33.383217
 20
36.037418
 42
0.011833
 10
33.346038
 20
36.239981
 42
0.015479
 10
33.301994
 20
36.423013
 42
0.004119
 10
33.25303
 20
36.59633
 42
0.004068
 10
33.201018
 20
36.769543
 42
0.003998
 10
33.153032
 20
36.920467
 42
0.015614
 10
33.119743
 20
37.0125
 42
-0.050671
 10
33.099175
 20
37.084833
 42
-0.578745
 10
33.117338
 20
37.100047
 42
-0.093435
 10
33.172132
 20
37.067327
 42
-0.006134
 10
33.309254
 20
36.942893
 42
-0.031626
 10
33.423714
 20
36.822073
 42
-0.014789
 10
33.556862
 20
36.652471
 42
-0.014587
 10
33.686479
 20
36.465754
 42
-0.019806
 10
33.79162
 20
36.289568
 42
-0.020955
 10
33.882535
 20
36.104456
 42
-0.015003
 10
33.969081
 20
35.890645
 42
-0.01519
 10
34.039329
 20
35.681636
 42
-0.031205
 10
34.07893
 20
35.513621
 10
34.140631
 20
35.152192
 10
34.331316
 20
35.675163
 42
-0.022586
 10
34.427393
 20
35.905741
 42
-0.026128
 10
34.53983
 20
36.115421
 42
-0.028552
 10
34.659907
 20
36.290357
 42
-0.053215
 10
34.778829
 20
36.414242
 42
-0.051112
 10
34.918591
 20
36.50932
 42
-0.017419
 10
35.138733
 20
36.618498
 42
-0.01711
 10
35.391875
 20
36.722953
 42
-0.018901
 10
35.643379
 20
36.806113
 42
0.00763
 10
35.914577
 20
36.889052
 42
0.004833
 10
36.22822
 20
36.99359
 42
0.004853
 10
36.534349
 20
37.102256
 42
0.008932
 10
36.780933
 20
37.197517
 42
0.014543
 10
37.008469
 20
37.297932
 42
0.010758
 10
37.254214
 20
37.421592
 42
0.010893
 10
37.481448
 20
37.54855
 42
0.02391
 10
37.648083
 20
37.65751
 42
-0.008861
 10
37.777512
 20
37.747815
 42
-0.016344
 10
37.886313
 20
37.815843
 42
-0.012971
 10
37.971048
 20
37.862152
 42
-0.561005
 10
37.9854
 20
37.853386
 42
-0.134577
 10
37.977106
 20
37.823129
 42
-0.007692
 10
37.92611
 20
37.740042
 42
-0.0113
 10
37.860885
 20
37.6423
 42
-0.008026
 10
37.783563
 20
37.535605
 42
0.015816
 10
37.693508
 20
37.407175
 42
0.008208
 10
37.588887
 20
37.241589
 42
0.008153
 10
37.486894
 20
37.06782
 42
0.012283
 10
37.404267
 20
36.912871
 42
0.02259
 10
37.32191
 20
36.728531
 42
0.007465
 10
37.217414
 20
36.450965
 42
0.007416
 10
37.110572
 20
36.139343
 42
0.008351
 10
37.017373
 20
35.836729
 42
-0.006745
 10
36.927322
 20
35.540968
 42
-0.006896
 10
36.829957
 20
35.249923
 42
-0.006719
 10
36.73857
 20
34.999614
 42
-0.028445
 10
36.673462
 20
34.853966
 42
-0.044729
 10
36.602399
 20
34.742276
 42
-0.025966
 10
36.498928
 20
34.621399
 42
-0.025796
 10
36.381682
 20
34.510112
 42
-0.039162
 10
36.268143
 20
34.427423
 42
-0.023986
 10
36.140074
 20
34.356923
 42
-0.013217
 10
35.977455
 20
34.282574
 42
-0.013152
 10
35.808184
 20
34.215732
 42
-0.020532
 10
35.6589
 20
34.168122
 10
35.3205
 20
34.075316
 10
35.799643
 20
33.926774
 42
-0.014121
 10
36.003766
 20
33.857117
 42
-0.011092
 10
36.220951
 20
33.770551
 42
-0.01125
 10
36.4194
 20
33.680983
 42
-0.026941
 10
36.561043
 20
33.603542
 42
-0.021379
 10
36.687329
 20
33.517709
 42
-0.011788
 10
36.834455
 20
33.402748
 42
-0.011735
 10
36.978404
 20
33.278938
 42
-0.018433
 10
37.095447
 20
33.165297
 10
37.347593
 20
32.901741
 10
37.027375
 20
33.035537
 42
0.019651
 10
36.873823
 20
33.092718
 42
0.009544
 10
36.673641
 20
33.154225
 42
0.00945
 10
36.462515
 20
33.210415
 42
0.013449
 10
36.272841
 20
33.251699
 42
0.025327
 10
36.049353
 20
33.282459
 42
0.024146
 10
35.820295
 20
33.291134
 42
0.023092
 10
35.581822
 20
33.277621
 42
0.019153
 10
35.330085
 20
33.241868
 42
0.020836
 10
35.098463
 20
33.189817
 42
0.011567
 10
34.820607
 20
33.108155
 42
0.01152
 10
34.542636
 20
33.012316
 42
0.018221
 10
34.309672
 20
32.916147
 42
0.021767
 10
34.069903
 20
32.79391
 42
0.009907
 10
33.767092
 20
32.614529
 42
0.009789
 10
33.454868
 20
32.412551
 42
0.013264
 10
33.18153
 20
32.217291
 42
0.013756
 10
32.871114
 20
31.969166
 42
0.004391
 10
32.422969
 20
31.583487
 42
0.004378
 10
31.931134
 20
31.144961
 42
0.004872
 10
31.464453
 20
30.713106
 42
0.003274
 10
31.044998
 20
30.31207
 42
0.005465
 10
30.697925
 20
29.968429
 42
0.001199
 10
30.400794
 20
29.666287
 42
0.411066
 10
30.400952
 20
29.636848
 42
0.304032
 10
30.433343
 20
29.630447
 42
0.003254
 10
30.65318
 20
29.723838
 42
0.008835
 10
30.909675
 20
29.8402
 42
0.005466
 10
31.207071
 20
29.985513
 42
-0.008944
 10
31.546302
 20
30.148353
 42
-0.006428
 10
31.930589
 20
30.318493
 42
-0.006494
 10
32.300589
 20
30.470996
 42
-0.013915
 10
32.590642
 20
30.576919
 42
-0.022052
 10
32.899405
 20
30.665109
 42
-0.008454
 10
33.335526
 20
30.761357
 42
-0.008352
 10
33.813062
 20
30.85003
 42
-0.010168
 10
34.263
 20
30.916449
 42
0.008276
 10
34.799122
 20
30.993517
 42
0.019333
 10
35.196448
 20
31.073226
 42
0.024892
 10
35.516769
 20
31.167567
 42
0.029779
 10
35.80695
 20
31.288797
 42
-0.009438
 10
36.042772
 20
31.398782
 42
-0.043888
 10
36.184715
 20
31.44737
 42
-0.118005
 10
36.262397
 20
31.447926
 42
-0.348971
 10
36.2934
 20
31.408914
 42
-0.056623
 10
36.286808
 20
31.350894
 42
-0.020819
 10
36.264953
 20
31.271269
 42
-0.020324
 10
36.233629
 20
31.185498
 42
-0.022983
 10
36.196559
 20
31.106088
 42
-0.021892
 10
36.14346
 20
31.01473
 42
-0.007526
 10
36.058958
 20
30.887237
 42
-0.007463
 10
35.961421
 20
30.749246
 42
-0.008574
 10
35.86412
 20
30.620552
 10
35.628521
 20
30.319803
 10
36.235911
 20
30.47795
 42
-0.016163
 10
36.534822
 20
30.545544
 42
-0.021905
 10
36.808666
 20
30.585887
 42
-0.02385
 10
37.064377
 20
30.599907
 42
-0.027395
 10
37.3086
 20
30.58825
 42
-0.040621
 10
37.581581
 20
30.53754
 42
-0.023121
 10
37.90141
 20
30.434702
 42
-0.017836
 10
38.292618
 20
30.272518
 42
-0.00815
 10
38.79179
 20
30.034478
 42
0.005829
 10
39.201474
 20
29.836774
 42
0.007048
 10
39.590651
 20
29.661174
 42
0.006077
 10
39.921464
 20
29.52224
 42
0.04705
 10
40.08194
 20
29.474102
 10
40.3542
 20
29.41965
 10
40.3542
 20
34.802325
 10
40.3542
 20
40.185
  0
LWPOLYLINE
  5
23E
330
1D
100
AcDbEntity
  8
0
100
AcDbPolyline
 90
      480
 70
     1
 43
0.0
 10
21.420786
 20
39.498931
 42
0.007879
 10
21.381609
 20
39.492171
 42
0.000537
 10
21.270732
 20
39.471114
 42
0.000769
 10
21.138599
 20
39.445662
 42
0.000577
 10
20.993216
 20
39.417251
 42
0.03015
 10
20.824364
 20
39.37334
 42
0.015641
 10
20.619332
 20
39.29943
 42
0.015494
 10
20.412745
 20
39.210071
 42
0.022718
 10
20.237582
 20
39.117839
 42
0.023532
 10
20.063347
 20
39.004395
 42
0.012527
 10
19.858351
 20
38.848797
 42
0.012443
 10
19.65643
 20
38.679
 42
0.018896
 10
19.490521
 20
38.520721
 42
0.025997
 10
19.334352
 20
38.342361
 42
0.014372
 10
19.161739
 20
38.109766
 42
0.014299
 10
18.99992
 20
37.863369
 42
0.022277
 10
18.876388
 20
37.641462
 42
0.021572
 10
18.768517
 20
37.400087
 42
0.011333
 10
18.654407
 20
37.091771
 42
0.011254
 10
18.551596
 20
36.770041
 42
0.016972
 10
18.477983
 20
36.485142
 42
0.018396
 10
18.410493
 20
36.118682
 42
0.021777
 10
18.374704
 20
35.768306
 42
0.0185
 10
18.366297
 20
35.372664
 42
0.008639
 10
18.383229
 20
34.860133
 42
0.00605
 10
18.407548
 20
34.470928
 42
0.007551
 10
18.439953
 20
34.110245
 42
0.006253
 10
18.475406
 20
33.809164
 42
0.056288
 10
18.507201
 20
33.680448
 42
0.013922
 10
18.558317
 20
33.553386
 42
0.415088
 10
18.587574
 20
33.541917
 42
0.189129
 10
18.618967
 20
33.57342
 42
0.004645
 10
18.700103
 20
33.765048
 42
-0.038905
 10
18.768687
 20
33.9004
 42
-0.015486
 10
18.882439
 20
34.074881
 42
-0.015215
 10
19.017347
 20
34.256403
 42
-0.018501
 10
19.154893
 20
34.417545
 42
-0.016089
 10
19.30117
 20
34.566676
 42
-0.014349
 10
19.462284
 20
34.71208
 42
-0.014557
 10
19.614667
 20
34.834396
 42
-0.042531
 10
19.728615
 20
34.906195
 42
-0.032733
 10
19.849542
 20
34.959014
 42
-0.012537
 10
20.02379
 20
35.017008
 42
-0.012352
 10
20.216672
 20
35.070705
 42
-0.014849
 10
20.40053
 20
35.111262
 42
-0.021782
 10
20.614822
 20
35.142306
 42
-0.027869
 10
20.814007
 20
35.151192
 42
-0.02965
 10
21.002085
 20
35.137925
 42
-0.031705
 10
21.183027
 20
35.102545
 42
-0.028566
 10
21.339474
 20
35.05181
 42
-0.016045
 10
21.523335
 20
34.973467
 42
-0.015972
 10
21.704511
 20
34.882157
 42
-0.025045
 10
21.853299
 20
34.79117
 42
-0.036828
 10
21.992493
 20
34.680314
 42
-0.020893
 10
22.144507
 20
34.52752
 42
-0.020772
 10
22.285575
 20
34.359876
 42
-0.031984
 10
22.391635
 20
34.202848
 42
-0.020604
 10
22.479864
 20
34.036991
 42
-0.01419
 10
22.566538
 20
33.842542
 42
-0.01433
 10
22.639364
 20
33.65039
 42
-0.028157
 10
22.684101
 20
33.493222
 42
-0.031352
 10
22.711309
 20
33.32282
 42
-0.030519
 10
22.717337
 20
33.148802
 42
-0.030162
 10
22.702089
 20
32.973355
 42
-0.029016
 10
22.665768
 20
32.798687
 42
-0.022924
 10
22.617148
 20
32.646313
 42
-0.016283
 10
22.549405
 20
32.480224
 42
-0.016485
 10
22.474185
 20
32.325617
 42
-0.033263
 10
22.403128
 20
32.21031
 42
-0.044909
 10
22.315548
 20
32.108115
 42
-0.022537
 10
22.188455
 20
31.994961
 42
-0.022179
 10
22.045464
 20
31.888937
 42
-0.030492
 10
21.907646
 20
31.807685
 42
-0.029276
 10
21.76173
 20
31.743708
 42
-0.021803
 10
21.594306
 20
31.689879
 42
-0.022196
 10
21.431448
 20
31.652932
 42
-0.045745
 10
21.30142
 20
31.641555
 42
-0.015209
 10
21.180931
 20
31.645722
 42
-0.011468
 10
21.048941
 20
31.657356
 42
-0.011623
 10
20.925298
 20
31.674036
 42
-0.02613
 10
20.83275
 20
31.693722
 42
-0.034423
 10
20.759878
 20
31.718736
 42
-0.046111
 10
20.698315
 20
31.751702
 42
-0.054218
 10
20.655478
 20
31.787211
 42
-0.195004
 10
20.6424
 20
31.819467
 42
-0.16952
 10
20.652353
 20
31.847979
 42
-0.094519
 10
20.680551
 20
31.872247
 42
-0.075139
 10
20.722595
 20
31.888659
 42
-0.055596
 10
20.772277
 20
31.8942
 42
0.072476
 10
20.836633
 20
31.903578
 42
0.02427
 10
20.926526
 20
31.935167
 42
0.023568
 10
21.023975
 20
31.980284
 42
0.024836
 10
21.115001
 20
32.033663
 42
0.041277
 10
21.205435
 20
32.104219
 42
0.024499
 10
21.301331
 20
32.201788
 42
0.02441
 10
21.388022
 20
32.309221
 42
0.038242
 10
21.450424
 20
32.410162
 42
0.036508
 10
21.497403
 20
32.51997
 42
0.022633
 10
21.536993
 20
32.65459
 42
0.022662
 10
21.564155
 20
32.791785
 42
0.037551
 10
21.573
 20
32.9094
 42
0.038939
 10
21.563766
 20
33.027788
 42
0.02267
 10
21.535302
 20
33.167479
 42
0.022569
 10
21.493844
 20
33.305666
 42
0.035177
 10
21.444668
 20
33.419769
 42
0.047307
 10
21.377485
 20
33.524171
 42
0.029774
 10
21.281135
 20
33.632735
 42
0.029774
 10
21.172571
 20
33.729085
 42
0.047307
 10
21.068169
 20
33.796268
 42
0.033323
 10
20.955245
 20
33.845433
 42
0.022422
 10
20.820789
 20
33.886902
 42
0.022625
 10
20.686442
 20
33.91541
 42
0.040985
 10
20.574512
 20
33.9246
 42
0.058982
 10
20.460173
 20
33.911065
 42
0.027845
 10
20.317616
 20
33.868317
 42
0.02713
 10
20.171565
 20
33.806351
 42
0.034386
 10
20.044705
 20
33.732999
 42
0.033041
 10
19.918846
 20
33.63551
 42
0.017166
 10
19.774681
 20
33.498643
 42
0.016993
 10
19.635684
 20
33.347344
 42
0.024763
 10
19.524731
 20
33.204249
 42
0.037514
 10
19.424664
 20
33.035419
 42
0.021995
 10
19.32967
 20
32.820433
 42
0.02144
 10
19.250237
 20
32.587928
 42
0.026324
 10
19.197113
 20
32.364766
 42
0.020677
 10
19.166098
 20
32.144222
 42
0.014965
 10
19.149126
 20
31.896616
 42
0.015161
 10
19.147189
 20
31.660055
 42
0.0316
 10
19.16289
 20
31.476466
 42
0.018248
 10
19.19883
 20
31.284396
 42
0.006656
 10
19.263211
 20
31.015246
 42
0.006589
 10
19.341488
 20
30.722496
 42
0.007828
 10
19.42333
 20
30.448349
 42
0.017296
 10
19.51945
 20
30.176925
 42
0.013957
 10
19.640724
 20
29.892351
 42
0.014188
 10
19.767578
 20
29.635757
 42
0.034864
 10
19.878748
 20
29.457334
 42
0.025417
 10
19.993927
 20
29.314241
 42
0.020618
 10
20.131038
 20
29.172781
 42
0.021088
 10
20.268579
 20
29.052729
 42
0.049588
 10
20.382731
 20
28.978535
 42
0.028805
 10
20.494251
 20
28.928779
 42
0.021763
 10
20.621643
 20
28.886768
 42
0.022179
 10
20.745156
 20
28.857761
 42
0.046614
 10
20.843208
 20
28.8486
 42
0.075909
 10
20.941405
 20
28.863594
 42
0.032404
 10
21.065717
 20
28.911501
 42
0.031125
 10
21.194094
 20
28.980779
 42
0.035621
 10
21.3069
 20
29.062732
 42
0.045836
 10
21.42592
 20
29.183121
 42
0.014956
 10
21.578863
 20
29.380936
 42
0.014764
 10
21.736484
 20
29.61196
 42
0.01613
 10
21.875376
 20
29.845282
 42
-0.010554
 10
22.017318
 20
30.089894
 42
-0.007758
 10
22.184476
 20
30.35509
 42
-0.007846
 10
22.350527
 20
30.601159
 42
-0.017273
 10
22.486706
 20
30.782595
 42
-0.018719
 10
22.619714
 20
30.935526
 42
-0.015051
 10
22.773553
 20
31.089991
 42
-0.015313
 10
22.924524
 20
31.224204
 42
-0.03714
 10
23.045671
 20
31.311028
 42
-0.050586
 10
23.199802
 20
31.384818
 42
-0.03919
 10
23.379405
 20
31.433961
 42
-0.031444
 10
23.600284
 20
31.461911
 42
-0.015615
 10
23.882551
 20
31.470884
 42
-0.017401
 10
24.129236
 20
31.462432
 42
-0.02009
 10
24.363098
 20
31.436788
 42
-0.021505
 10
24.562152
 20
31.398011
 42
-0.060536
 10
24.694843
 20
31.348622
 42
-0.039735
 10
24.804549
 20
31.280348
 42
-0.016681
 10
24.941
 20
31.172362
 42
-0.01638
 10
25.079955
 20
31.046604
 42
-0.020483
 10
25.19996
 20
30.920721
 42
-0.024096
 10
25.329414
 20
30.758108
 42
-0.007873
 10
25.504666
 20
30.506517
 42
-0.007825
 10
25.69077
 20
30.22061
 42
-0.008754
 10
25.860809
 20
29.939415
 42
0.012445
 10
26.029274
 20
29.665411
 42
0.012572
 10
26.210615
 20
29.401073
 42
0.012455
 10
26.379821
 20
29.179108
 42
0.048801
 10
26.500082
 20
29.056016
 42
0.040615
 10
26.611688
 20
28.976622
 42
0.032536
 10
26.743091
 20
28.909528
 42
0.033569
 10
26.873623
 20
28.863366
 42
0.068309
 10
26.981198
 20
28.8486
 42
0.07511
 10
27.095302
 20
28.865838
 42
0.027212
 10
27.249354
 20
28.922821
 42
0.026259
 10
27.413839
 20
29.004561
 42
0.028309
 10
27.564609
 20
29.101266
 42
0.031502
 10
27.710015
 20
29.221249
 42
0.022051
 10
27.858523
 20
29.373237
 42
0.022331
 10
27.988368
 20
29.532148
 42
0.042481
 10
28.075371
 20
29.672316
 42
0.019719
 10
28.149859
 20
29.834236
 42
0.00731
 10
28.242262
 20
30.067538
 42
0.007231
 10
28.33577
 20
30.325279
 42
0.008657
 10
28.416069
 20
30.570661
 42
0.020438
 10
28.493063
 20
30.862353
 42
0.018378
 10
28.549162
 20
31.169851
 42
0.018046
 10
28.583376
 20
31.486567
 42
0.017883
 10
28.5948
 20
31.805887
 42
0.013004
 10
28.587726
 20
32.07785
 42
0.01244
 10
28.566517
 20
32.353142
 42
0.012474
 10
28.535701
 20
32.595029
 42
0.042881
 10
28.498516
 20
32.748726
 42
0.027704
 10
28.446651
 20
32.879158
 42
0.01472
 10
28.368942
 20
33.034707
 42
0.014609
 10
28.279921
 20
33.18948
 42
0.021947
 10
28.192617
 20
33.318453
 42
0.027124
 10
28.093063
 20
33.438295
 42
0.017911
 10
27.966688
 20
33.565217
 42
0.018042
 10
27.834543
 20
33.680106
 42
0.033013
 10
27.717851
 20
33.762286
 42
0.033632
 10
27.598986
 20
33.824219
 42
0.025241
 10
27.461013
 20
33.876567
 42
0.025754
 10
27.325567
 20
33.912693
 42
0.052003
 10
27.215849
 20
33.924284
 42
0.042238
 10
27.107263
 20
33.91524
 42
0.022638
 10
26.975674
 20
33.88681
 42
0.022382
 10
26.843142
 20
33.845404
 42
0.032431
 10
26.730831
 20
33.796268
 42
0.047307
 10
26.626429
 20
33.729085
 42
0.029774
 10
26.517865
 20
33.632735
 42
0.029774
 10
26.421515
 20
33.524171
 42
0.047307
 10
26.354332
 20
33.419769
 42
0.037087
 10
26.305166
 20
33.304481
 42
0.022706
 10
26.26379
 20
33.162501
 42
0.022707
 10
26.235465
 20
33.017376
 42
0.037137
 10
26.226316
 20
32.892451
 42
0.047891
 10
26.238666
 20
32.765327
 42
0.026081
 10
26.276693
 20
32.613039
 42
0.025752
 10
26.331951
 20
32.460879
 42
0.036934
 10
26.397369
 20
32.333259
 42
0.048648
 10
26.486223
 20
32.215089
 42
0.031109
 10
26.610053
 20
32.095817
 42
0.030958
 10
26.748913
 20
31.991878
 42
0.045338
 10
26.883502
 20
31.920081
 42
-0.007515
 10
27.06714
 20
31.839291
 42
-0.128497
 10
27.117709
 20
31.79797
 42
-0.42943
 10
27.111094
 20
31.761846
 42
-0.049978
 10
27.0297
 20
31.719618
 42
-0.044308
 10
26.941779
 20
31.693368
 42
-0.01523
 10
26.810798
 20
31.670731
 42
-0.014999
 10
26.664069
 20
31.654425
 42
-0.016808
 10
26.5221
 20
31.647738
 42
-0.041656
 10
26.361912
 20
31.658938
 42
-0.028922
 10
26.18439
 20
31.696942
 42
-0.028294
 10
26.007215
 20
31.7567
 42
-0.033378
 10
25.847802
 20
31.83343
 42
-0.03115
 10
25.70593
 20
31.925897
 42
-0.021567
 10
25.557317
 20
32.046819
 42
-0.021818
 10
25.42412
 20
32.175919
 42
-0.041121
 10
25.330605
 20
32.292705
 42
-0.034113
 10
25.257456
 20
32.419054
 42
-0.020657
 10
25.187699
 20
32.57726
 42
-0.020651
 10
25.131186
 20
32.740814
 42
-0.033876
 10
25.098703
 20
32.883617
 42
-0.029474
 10
25.084487
 20
33.02971
 42
-0.017877
 10
25.084084
 20
33.20343
 42
-0.017886
 10
25.096076
 20
33.376451
 42
-0.029895
 10
25.119996
 20
33.520335
 42
-0.030484
 10
25.163399
 20
33.668228
 42
-0.013895
 10
25.237052
 20
33.855784
 42
-0.0137
 10
25.32586
 20
34.049743
 42
-0.01833
 10
25.417522
 20
34.22018
 42
-0.030872
 10
25.526715
 20
34.382623
 42
-0.021401
 10
25.668692
 20
34.552443
 42
-0.021652
 10
25.819712
 20
34.704362
 42
-0.04092
 10
25.955726
 20
34.810639
 42
-0.029013
 10
26.102607
 20
34.895416
 42
-0.017049
 10
26.286922
 20
34.980253
 42
-0.01702
 10
26.477595
 20
35.052728
 42
-0.027702
 10
26.644269
 20
35.099541
 42
-0.029015
 10
26.830791
 20
35.12972
 42
-0.024262
 10
27.031102
 20
35.140524
 42
-0.023736
 10
27.23638
 20
35.131877
 42
-0.02447
 10
27.437814
 20
35.103801
 42
-0.022967
 10
27.617949
 20
35.060987
 42
-0.016675
 10
27.814075
 20
34.997596
 42
-0.016907
 10
27.996544
 20
34.924763
 42
-0.035011
 10
28.13232
 20
34.853457
 42
-0.027119
 10
28.258756
 20
34.765502
 42
-0.012949
 10
28.411769
 20
34.639749
 42
-0.012795
 10
28.565219
 20
34.499803
 42
-0.017775
 10
28.694757
 20
34.366282
 42
-0.020537
 10
28.812747
 20
34.224379
 42
-0.015379
 10
28.931176
 20
34.059128
 42
-0.015611
 10
29.03318
 20
33.896372
 42
-0.033994
 10
29.098661
 20
33.764428
 42
0.004648
 10
29.179995
 20
33.57312
 42
0.18956
 10
29.211403
 20
33.541747
 42
0.414231
 10
29.240653
 20
33.55327
 42
0.013867
 10
29.291799
 20
33.680448
 42
0.05678
 10
29.323427
 20
33.809028
 42
0.006357
 10
29.358065
 20
34.108795
 42
0.007657
 10
29.38939
 20
34.467884
 42
0.006142
 10
29.412429
 20
34.8552
 42
0.009011
 10
29.426736
 20
35.346559
 42
0.016351
 10
29.418049
 20
35.748426
 42
0.019016
 10
29.385202
 20
36.103126
 42
0.020043
 10
29.32583
 20
36.44807
 42
0.014346
 10
29.259722
 20
36.719119
 42
0.00996
 10
29.17022
 20
37.021437
 42
0.010054
 10
29.072586
 20
37.308486
 42
0.020345
 10
28.982142
 20
37.529361
 42
0.033038
 10
28.867267
 20
37.741964
 42
0.015163
 10
28.691457
 20
38.003544
 42
0.014942
 10
28.489091
 20
38.268659
 42
0.019984
 10
28.289153
 20
38.495788
 42
0.020454
 10
28.065873
 20
38.711482
 42
0.017122
 10
27.812409
 20
38.921945
 42
0.017641
 10
27.560368
 20
39.103197
 42
0.033303
 10
27.343345
 20
39.227917
 42
0.02197
 10
27.090793
 20
39.338009
 42
0.036221
 10
26.868074
 20
39.405622
 42
0.036207
 10
26.637866
 20
39.440401
 42
0.021932
 10
26.362313
 20
39.449693
 42
0.022627
 10
26.139668
 20
39.437347
 42
0.017333
 10
25.898107
 20
39.404462
 42
0.017634
 10
25.673784
 20
39.357768
 42
0.039126
 10
25.508055
 20
39.303085
 42
0.021755
 10
25.364328
 20
39.235348
 42
0.016035
 10
25.211259
 20
39.14852
 42
0.016268
 10
25.071607
 20
39.056907
 42
0.034514
 10
24.971266
 20
38.975412
 42
0.025365
 10
24.886196
 20
38.887497
 42
0.01588
 10
24.795424
 20
38.776722
 42
0.015931
 10
24.712755
 20
38.661624
 42
0.027819
 10
24.652862
 20
38.560651
 42
0.053885
 10
24.607135
 20
38.443484
 42
0.021185
 10
24.568916
 20
38.274211
 42
0.020676
 10
24.542728
 20
38.086139
 42
0.024257
 10
24.534
 20
37.906336
 42
0.023499
 10
24.544889
 20
37.674772
 42
0.059872
 10
24.580468
 20
37.510725
 42
0.065776
 10
24.651523
 20
37.368933
 42
0.033339
 10
24.774561
 20
37.211235
 42
0.031264
 10
24.900726
 20
37.086655
 42
0.056357
 10
25.0202
 20
37.00422
 42
0.064705
 10
25.142785
 20
36.957778
 42
0.058295
 10
25.277653
 20
36.942
 42
0.036398
 10
25.387808
 20
36.950029
 42
0.031148
 10
25.501667
 20
36.974036
 42
0.032358
 10
25.602668
 20
37.009171
 42
0.073447
 10
25.671592
 20
37.051059
 42
0.070953
 10
25.721914
 20
37.10657
 42
0.044601
 10
25.764399
 20
37.183315
 42
0.043956
 10
25.793324
 20
37.268152
 42
0.060257
 10
25.803
 20
37.348147
 42
0.068269
 10
25.79172
 20
37.430375
 42
0.042033
 10
25.757554
 20
37.522071
 42
0.041427
 10
25.707509
 20
37.608771
 42
0.057296
 10
25.648289
 20
37.676188
 42
0.034181
 10
25.580217
 20
37.729812
 42
0.031581
 10
25.503703
 20
37.775235
 42
0.033077
 10
25.430294
 20
37.806834
 42
0.084126
 10
25.373339
 20
37.816757
 42
-0.374267
 10
25.353976
 20
37.833771
 42
-0.203616
 10
25.362974
 20
37.866526
 42
-0.058681
 10
25.417238
 20
37.920611
 42
-0.020391
 10
25.5069
 20
37.9854
 42
-0.036356
 10
25.621421
 20
38.049801
 42
-0.02714
 10
25.755721
 20
38.104274
 42
-0.027697
 10
25.888598
 20
38.141863
 42
-0.054541
 10
25.997551
 20
38.154043
 42
-0.040863
 10
26.105379
 20
38.145471
 42
-0.022754
 10
26.234457
 20
38.11843
 42
-0.022565
 10
26.36341
 20
38.078944
 42
-0.033762
 10
26.471438
 20
38.032024
 42
-0.03572
 10
26.571584
 20
37.970809
 42
-0.024215
 10
26.676553
 20
37.887905
 42
-0.024452
 10
26.770616
 20
37.797458
 42
-0.044044
 10
26.836842
 20
37.713533
 42
-0.031988
 10
26.890269
 20
37.619368
 42
-0.017018
 10
26.944705
 20
37.496846
 42
-0.016873
 10
26.992014
 20
37.367372
 42
-0.025099
 10
27.023772
 20
37.250988
 42
-0.047479
 10
27.039375
 20
37.123007
 42
-0.022195
 10
27.036374
 20
36.955885
 42
-0.021758
 10
27.017637
 20
36.779523
 42
-0.028428
 10
26.984437
 20
36.620796
 42
-0.042294
 10
26.923432
 20
36.452403
 42
-0.028342
 10
26.827203
 20
36.27146
 42
-0.027627
 10
26.707204
 20
36.096317
 42
-0.032379
 10
26.574353
 20
35.945047
 42
-0.032373
 10
26.422466
 20
35.81165
 42
-0.027914
 10
26.247158
 20
35.691681
 42
-0.028627
 10
26.065679
 20
35.59556
 42
-0.041727
 10
25.895515
 20
35.534131
 42
-0.026777
 10
25.695044
 20
35.491509
 42
-0.040018
 10
25.516529
 20
35.477923
 42
-0.037572
 10
25.330064
 20
35.492711
 42
-0.020302
 10
25.104003
 20
35.537325
 42
-0.034479
 10
24.881755
 20
35.607142
 42
-0.040706
 10
24.683797
 20
35.703911
 42
-0.036804
 10
24.488944
 20
35.839987
 42
-0.021289
 10
24.275056
 20
36.029774
 10
23.870971
 20
36.4203
 10
23.615797
 20
36.115305
 42
-0.030425
 10
23.494608
 20
35.987164
 42
-0.019937
 10
23.340769
 20
35.854246
 42
-0.02007
 10
23.179933
 20
35.736343
 42
-0.03593
 10
23.037862
 20
35.654884
 42
-0.038572
 10
22.879803
 20
35.593274
 42
-0.023803
 10
22.686232
 20
35.544472
 42
-0.023291
 10
22.481745
 20
35.512981
 42
-0.02909
 10
22.289905
 20
35.503754
 42
-0.026756
 10
22.107862
 20
35.515348
 42
-0.02097
 10
21.912449
 20
35.546691
 42
-0.021415
 10
21.732715
 20
35.591397
 42
-0.047695
 10
21.602032
 20
35.643887
 42
-0.034298
 10
21.485603
 20
35.714602
 42
-0.018499
 10
21.352081
 20
35.816397
 42
-0.018344
 10
21.22312
 20
35.930664
 42
-0.027394
 10
21.120002
 20
36.040408
 42
-0.034982
 10
21.029281
 20
36.164947
 42
-0.020641
 10
20.938062
 20
36.324872
 42
-0.02059
 10
20.859777
 20
36.492939
 42
-0.032938
 10
20.808658
 20
36.642726
 42
-0.02999
 10
20.777707
 20
36.793039
 42
-0.022055
 10
20.760891
 20
36.962326
 42
-0.022431
 10
20.759262
 20
37.124444
 42
-0.045381
 10
20.775228
 20
37.250988
 42
-0.025099
 10
20.806986
 20
37.367372
 42
-0.016873
 10
20.854295
 20
37.496846
 42
-0.017018
 10
20.908731
 20
37.619368
 42
-0.031988
 10
20.962158
 20
37.713533
 42
-0.044044
 10
21.028384
 20
37.797458
 42
-0.024452
 10
21.122447
 20
37.887905
 42
-0.024215
 10
21.227416
 20
37.970809
 42
-0.03572
 10
21.327562
 20
38.032024
 42
-0.031584
 10
21.434384
 20
38.078974
 42
-0.022221
 10
21.559565
 20
38.118593
 42
-0.022515
 10
21.683237
 20
38.145868
 42
-0.043037
 10
21.7845
 20
38.1546
 42
-0.046339
 10
21.887422
 20
38.145041
 42
-0.022211
 10
22.016756
 20
38.114808
 42
-0.021803
 10
22.149965
 20
38.071011
 42
-0.029008
 10
22.266359
 20
38.019137
 10
22.528315
 20
37.883674
 10
22.268294
 20
37.757743
 42
0.028723
 10
22.165234
 20
37.700304
 42
0.029601
 10
22.070516
 20
37.631957
 42
0.030987
 10
21.996095
 20
37.563153
 42
0.099383
 10
21.96014
 20
37.506377
 42
0.082222
 10
21.947895
 20
37.446685
 42
0.042637
 10
21.951478
 20
37.370456
 42
0.04089
 10
21.968798
 20
37.290729
 42
0.048974
 10
21.998242
 20
37.21981
 42
0.046239
 10
22.043274
 20
37.151646
 42
0.02832
 10
22.107769
 20
37.079988
 42
0.028253
 10
22.180321
 20
37.015732
 42
0.044266
 10
22.250003
 20
36.970091
 42
0.061641
 10
22.328304
 20
36.939877
 42
0.03638
 10
22.427187
 20
36.922657
 42
0.035881
 10
22.530041
 20
36.919781
 42
0.050576
 10
22.620741
 20
36.93301
 42
0.05456
 10
22.713085
 20
36.967234
 42
0.026974
 10
22.821885
 20
37.02922
 42
0.026397
 10
22.929013
 20
37.106443
 42
0.034826
 10
23.017313
 20
37.188207
 42
0.056911
 10
23.106218
 20
37.307494
 42
0.047797
 10
23.172174
 20
37.450826
 42
0.040276
 10
23.218002
 20
37.626457
 42
0.023002
 10
23.246164
 20
37.844011
 42
0.021395
 10
23.254987
 20
38.064713
 42
0.034342
 10
23.241535
 20
38.25256
 42
0.039298
 10
23.205056
 20
38.416693
 42
0.045028
 10
23.144393
 20
38.56543
 42
0.046352
 10
23.067027
 20
38.686162
 42
0.021565
 10
22.946267
 20
38.827902
 42
0.021148
 10
22.805729
 20
38.966856
 42
0.027641
 10
22.665481
 20
39.080776
 42
0.033168
 10
22.504821
 20
39.181637
 42
0.019613
 10
22.301383
 20
39.281183
 42
0.019575
 10
22.089577
 20
39.364972
 42
0.031584
 10
21.902952
 20
39.417508
 42
0.004609
 10
21.736643
 20
39.451575
 42
0.006384
 10
21.586878
 20
39.478837
 42
0.004142
 10
21.461021
 20
39.499019
 42
0.076602
  0
LWPOLYLINE
  5
420
330
1D
100
AcDbEntity
  8
0
100
AcDbPolyline
 90
      198
 70
     1
 43
0.0
 10
23.890264
 20
30.879
 42
0.160242
 10
23.833439
 20
30.860308
 42
0.019333
 10
23.72911
 20
30.776933
 42
0.021406
 10
23.609903
 20
30.664606
 42
0.01609
 10
23.48837
 20
30.531538
 42
0.037482
 10
23.355314
 20
30.3502
 42
0.017733
 10
23.210432
 20
30.098693
 42
0.017124
 10
23.073109
 20
29.816518
 42
0.019513
 10
22.961773
 20
29.537488
 42
-0.002755
 10
22.863427
 20
29.264809
 42
-0.002395
 10
22.757441
 20
28.980168
 42
-0.00241
 10
22.659045
 20
28.72348
 42
-0.007092
 10
22.588007
 20
28.548202
 42
-0.027778
 10
22.512631
 20
28.394049
 42
-0.014998
 10
22.403894
 20
28.212778
 42
-0.014897
 10
22.281721
 20
28.034238
 42
-0.022664
 10
22.164271
 20
27.887568
 42
-0.025991
 10
22.033936
 20
27.753827
 42
-0.017563
 10
21.872566
 20
27.614787
 42
-0.017723
 10
21.706625
 20
27.491073
 42
-0.033375
 10
21.56323
 20
27.405416
 42
-0.038078
 10
21.411532
 20
27.34206
 42
-0.022743
 10
21.223196
 20
27.289119
 42
-0.022632
 10
21.028582
 20
27.253042
 42
-0.034523
 10
20.85727
 20
27.2412
 10
20.4732
 20
27.2412
 10
20.4732
 20
26.900083
 42
-0.030785
 10
20.463744
 20
26.74664
 42
-0.018597
 10
20.434664
 20
26.566775
 42
-0.018598
 10
20.392305
 20
26.389599
 42
-0.030831
 10
20.342012
 20
26.244433
 42
-0.032068
 10
20.272374
 20
26.103617
 42
-0.017291
 10
20.169854
 20
25.93935
 42
-0.017156
 10
20.05339
 20
25.778553
 42
-0.025779
 10
19.940162
 20
25.647537
 42
-0.024855
 10
19.812549
 20
25.527008
 42
-0.015452
 10
19.651901
 20
25.398091
 42
-0.015495
 10
19.485117
 20
25.280436
 42
-0.026922
 10
19.338926
 20
25.19487
 42
-0.016991
 10
19.181542
 20
25.120443
 42
-0.008618
 10
18.978903
 20
25.037024
 42
-0.008551
 10
18.766589
 20
24.958032
 42
-0.012628
 10
18.577526
 20
24.896671
 42
0.015983
 10
18.379144
 20
24.830811
 42
0.008379
 10
18.136573
 20
24.736934
 42
0.008325
 10
17.890912
 20
24.632297
 42
0.012645
 10
17.6814
 20
24.532482
 42
0.018743
 10
17.48604
 20
24.423878
 42
0.014968
 10
17.283792
 20
24.292873
 42
0.015225
 10
17.103724
 20
24.160152
 42
0.036552
 10
16.981242
 20
24.04861
 10
16.746384
 20
23.801032
 10
16.923979
 20
23.575256
 42
0.038628
 10
17.016909
 20
23.474242
 42
0.01732
 10
17.153206
 20
23.35585
 42
0.017026
 10
17.306634
 20
23.240054
 42
0.022181
 10
17.454937
 20
23.145389
 42
0.023391
 10
17.64079
 20
23.049343
 42
0.007566
 10
17.924263
 20
22.92442
 42
0.007525
 10
18.244089
 20
22.794855
 42
0.008382
 10
18.556429
 20
22.679747
 42
-0.01414
 10
18.870146
 20
22.560012
 42
-0.012037
 10
19.194119
 20
22.416517
 42
-0.012206
 10
19.482702
 20
22.271579
 42
-0.03325
 10
19.676724
 20
22.150927
 42
-0.033586
 10
19.8464
 20
22.010902
 42
-0.028305
 10
20.006403
 20
21.84158
 42
-0.02808
 10
20.147605
 20
21.653649
 42
-0.03149
 10
20.261045
 20
21.457918
 42
-0.02607
 10
20.344506
 20
21.265984
 42
-0.022164
 10
20.412697
 20
21.055802
 42
-0.022921
 10
20.458594
 20
20.853948
 42
-0.044397
 10
20.473292
 20
20.689239
 10
20.473384
 20
20.3463
 10
20.895689
 20
20.333542
 42
-0.030747
 10
21.104453
 20
20.31435
 42
-0.032421
 10
21.305539
 20
20.269812
 42
-0.032224
 10
21.500287
 20
20.199338
 42
-0.029622
 10
21.690127
 20
20.1027
 42
-0.0378
 10
21.851414
 20
19.991013
 42
-0.021587
 10
22.028971
 20
19.833901
 42
-0.021466
 10
22.194911
 20
19.659422
 42
-0.033105
 10
22.321069
 20
19.493886
 42
-0.025036
 10
22.433504
 20
19.304154
 42
-0.012299
 10
22.558231
 20
19.052603
 42
-0.01217
 10
22.675251
 20
18.784368
 42
-0.017319
 10
22.764996
 20
18.540329
 42
0.008953
 10
22.850116
 20
18.29634
 42
0.006536
 10
22.953034
 20
18.02833
 42
0.006607
 10
23.057289
 20
17.776802
 42
0.01446
 10
23.145171
 20
17.58771
 42
0.015382
 10
23.236162
 20
17.41905
 42
0.010722
 10
23.348644
 20
17.234325
 42
0.010827
 10
23.464275
 20
17.061642
 42
0.021956
 10
23.563934
 20
16.93206
 42
0.022696
 10
23.657785
 20
16.83028
 42
0.027634
 10
23.754786
 20
16.744296
 42
0.028034
 10
23.842373
 20
16.682562
 42
0.140388
 10
23.8995
 20
16.6662
 42
0.140388
 10
23.956627
 20
16.682562
 42
0.028034
 10
24.044214
 20
16.744296
 42
0.027634
 10
24.141215
 20
16.83028
 42
0.022696
 10
24.235066
 20
16.93206
 42
0.021956
 10
24.334725
 20
17.061642
 42
0.010827
 10
24.450356
 20
17.234325
 42
0.010722
 10
24.562838
 20
17.41905
 42
0.015382
 10
24.653829
 20
17.58771
 42
0.01446
 10
24.741711
 20
17.776802
 42
0.006607
 10
24.845966
 20
18.02833
 42
0.006536
 10
24.948884
 20
18.29634
 42
0.008953
 10
25.034004
 20
18.540329
 42
-0.017319
 10
25.123749
 20
18.784368
 42
-0.01217
 10
25.240769
 20
19.052603
 42
-0.012299
 10
25.365496
 20
19.304154
 42
-0.025036
 10
25.477931
 20
19.493886
 42
-0.033105
 10
25.604089
 20
19.659422
 42
-0.021466
 10
25.770029
 20
19.833901
 42
-0.021587
 10
25.947586
 20
19.991013
 42
-0.0378
 10
26.108873
 20
20.1027
 42
-0.029622
 10
26.298713
 20
20.199338
 42
-0.032224
 10
26.493461
 20
20.269812
 42
-0.032421
 10
26.694547
 20
20.31435
 42
-0.030747
 10
26.903311
 20
20.333542
 10
27.325616
 20
20.3463
 10
27.325708
 20
20.689239
 42
-0.044898
 10
27.340777
 20
20.856214
 42
-0.023447
 10
27.387746
 20
21.059908
 42
-0.022462
 10
27.458254
 20
21.2738
 42
-0.024745
 10
27.545733
 20
21.473527
 42
-0.028876
 10
27.662499
 20
21.677443
 42
-0.030013
 10
27.800617
 20
21.863811
 42
-0.031021
 10
27.955047
 20
22.026352
 42
-0.036596
 10
28.120554
 20
22.159045
 42
-0.031764
 10
28.312541
 20
22.273901
 42
-0.009558
 10
28.618128
 20
22.423977
 42
-0.009538
 10
28.968206
 20
22.579606
 42
-0.010218
 10
29.316071
 20
22.718067
 42
0.004921
 10
29.653539
 20
22.848264
 42
0.005689
 10
29.972364
 20
22.979106
 42
0.00512
 10
30.239759
 20
23.095657
 42
0.033047
 10
30.3698
 20
23.164578
 42
0.013569
 10
30.465178
 20
23.227143
 42
0.007916
 10
30.576217
 20
23.307009
 42
0.007911
 10
30.684947
 20
23.390559
 42
0.013268
 10
30.77325
 20
23.464566
 42
0.038556
 10
30.846087
 20
23.539735
 42
0.036922
 10
30.907685
 20
23.626244
 42
0.039226
 10
30.950284
 20
23.710831
 42
0.097337
 10
30.9636
 20
23.778583
 42
0.124118
 10
30.945378
 20
23.850857
 42
0.031852
 10
30.881117
 20
23.953897
 42
0.030438
 10
30.790282
 20
24.065727
 42
0.026815
 10
30.682808
 20
24.170811
 42
0.036595
 10
30.537331
 20
24.280802
 42
0.014848
 10
30.324681
 20
24.409583
 42
0.014598
 10
30.086839
 20
24.535116
 42
0.018009
 10
29.857958
 20
24.637447
 42
0.001305
 10
29.612931
 20
24.735828
 42
0.000813
 10
29.325151
 20
24.849962
 42
0.000815
 10
29.040986
 20
24.961594
 42
0.001478
 10
28.808145
 20
25.051832
 42
-0.024514
 10
28.590222
 20
25.148054
 42
-0.016928
 10
28.353337
 20
25.277054
 42
-0.017107
 10
28.133523
 20
25.416935
 42
-0.03319
 10
27.970072
 20
25.545711
 42
-0.02745
 10
27.831552
 20
25.685104
 42
-0.018989
 10
27.6901
 20
25.856701
 42
-0.019201
 10
27.566415
 20
26.032531
 42
-0.036833
 10
27.483635
 20
26.1837
 42
-0.031252
 10
27.424436
 20
26.338677
 42
-0.019849
 10
27.374243
 20
26.525326
 42
-0.019928
 10
27.339442
 20
26.713198
 42
-0.034511
 10
27.327658
 20
26.871482
 10
27.3258
 20
27.220864
 10
26.826471
 20
27.256982
 42
-0.021236
 10
26.568038
 20
27.286748
 42
-0.041971
 10
26.367637
 20
27.336008
 42
-0.046965
 10
26.193336
 20
27.413592
 42
-0.034753
 10
26.016987
 20
27.529667
 42
-0.024002
 10
25.880619
 20
27.644435
 42
-0.013649
 10
25.726538
 20
27.79531
 42
-0.013606
 10
25.579322
 20
27.956085
 42
-0.021823
 10
25.463761
 20
28.101784
 42
-0.031677
 10
25.357393
 20
28.270102
 42
-0.013946
 10
25.237484
 20
28.504788
 42
-0.013738
 10
25.123744
 20
28.761554
 42
-0.017938
 10
25.034788
 20
29.002517
 42
0.009183
 10
24.948391
 20
29.249787
 42
0.006383
 10
24.842149
 20
29.525934
 42
0.006439
 10
24.73334
 20
29.788462
 42
0.0132
 10
24.640051
 20
29.9907
 42
0.016693
 10
24.544123
 20
30.169695
 42
0.012996
 10
24.428455
 20
30.357785
 42
0.013193
 10
24.311366
 20
30.527574
 42
0.030843
 10
24.212981
 20
30.64635
 42
0.021951
 10
24.121765
 20
30.735414
 42
0.026241
 10
24.02816
 20
30.810659
 42
0.026449
 10
23.944189
 20
30.864688
 42
0.130446
  0
LWPOLYLINE
  5
4E8
330
1D
100
AcDbEntity
  8
0
100
AcDbPolyline
 90
      382
 70
     1
 43
0.0
 10
23.8625
 20
28.5948
 42
-0.148502
 10
23.91043
 20
28.580243
 42
-0.020778
 10
23.99501
 20
28.518413
 42
-0.022243
 10
24.0914
 20
28.434337
 42
-0.017226
 10
24.188847
 20
28.334761
 42
-0.033519
 10
24.286828
 20
28.211881
 42
-0.021193
 10
24.384824
 20
28.056865
 42
-0.021265
 10
24.468534
 20
27.895615
 42
-0.03632
 10
24.522478
 20
27.753895
 42
-0.015819
 10
24.559008
 20
27.616278
 42
-0.013196
 10
24.589273
 20
27.468067
 42
-0.013404
 10
24.609755
 20
27.330912
 42
-0.034975
 10
24.614887
 20
27.231385
 42
-0.036784
 10
24.605733
 20
27.132108
 42
-0.014038
 10
24.579006
 20
26.995753
 42
-0.013813
 10
24.541575
 20
26.848699
 42
-0.016478
 10
24.497956
 20
26.71245
 42
0.006279
 10
24.456249
 20
26.590776
 42
0.010831
 10
24.425025
 20
26.488392
 42
0.004943
 10
24.402092
 20
26.403706
 42
0.490901
 10
24.408669
 20
26.3952
 42
0.103619
 10
24.426308
 20
26.398895
 42
0.000825
 10
24.558506
 20
26.457085
 42
0.002956
 10
24.709958
 20
26.525122
 42
0.001891
 10
24.88515
 20
26.605874
 42
-0.013987
 10
25.072004
 20
26.68658
 42
-0.014901
 10
25.259212
 20
26.754905
 42
-0.014617
 10
25.423216
 20
26.804009
 42
-0.064395
 10
25.523057
 20
26.817374
 42
-0.040176
 10
25.597678
 20
26.811703
 42
-0.043044
 10
25.66867
 20
26.794164
 42
-0.04725
 10
25.726259
 20
26.768263
 42
-0.125689
 10
25.758473
 20
26.737203
 42
-0.273443
 10
25.759275
 20
26.696571
 42
-0.065156
 10
25.716977
 20
26.640258
 42
-0.049219
 10
25.643527
 20
26.578632
 42
-0.030628
 10
25.546912
 20
26.520917
 42
0.028121
 10
25.422469
 20
26.447421
 42
0.011228
 10
25.260339
 20
26.333583
 42
0.01107
 10
25.090579
 20
26.202712
 42
0.013701
 10
24.938723
 20
26.073164
 42
0.026496
 10
24.794742
 20
25.928815
 42
0.018858
 10
24.648686
 20
25.753081
 42
0.019109
 10
24.521751
 20
25.574337
 42
0.038
 10
24.438035
 20
25.4223
 42
0.022311
 10
24.378893
 20
25.2754
 42
0.018302
 10
24.328643
 20
25.113834
 42
0.018683
 10
24.293417
 20
24.961728
 42
0.04562
 10
24.282058
 20
24.847405
 42
0.065987
 10
24.295721
 20
24.73772
 42
0.044577
 10
24.338388
 20
24.618919
 42
0.042616
 10
24.404398
 20
24.503384
 42
0.045316
 10
24.487855
 20
24.403255
 42
0.044669
 10
24.595932
 20
24.312937
 42
0.0517
 10
24.713381
 20
24.248234
 42
0.052621
 10
24.839757
 20
24.209822
 42
0.04919
 10
24.974305
 20
24.197458
 42
0.040971
 10
25.105438
 20
24.209102
 42
0.019386
 10
25.271637
 20
24.244391
 42
0.019066
 10
25.443695
 20
24.295008
 42
0.025538
 10
25.595
 20
24.35462
 42
0.033576
 10
25.742887
 20
24.434167
 42
0.021007
 10
25.904904
 20
24.545636
 42
0.021059
 10
26.055937
 20
24.669466
 42
0.035622
 10
26.169877
 20
24.786801
 42
0.014646
 10
26.272593
 20
24.916394
 42
0.008389
 10
26.389209
 20
25.078317
 42
0.008375
 10
26.501095
 20
25.245198
 42
0.01378
 10
26.589378
 20
25.390388
 42
-0.013587
 10
26.66545
 20
25.515606
 42
-0.019764
 10
26.739747
 20
25.621318
 42
-0.015803
 10
26.805631
 20
25.702168
 42
-0.214494
 10
26.83935
 20
25.717748
 42
-0.325701
 10
26.864023
 20
25.700154
 42
-0.031738
 10
26.883862
 20
25.625016
 42
-0.030656
 10
26.897592
 20
25.522711
 42
-0.018833
 10
26.901781
 20
25.40115
 42
-0.048217
 10
26.886741
 20
25.250605
 42
-0.025847
 10
26.840919
 20
25.069348
 42
-0.025033
 10
26.773045
 20
24.88303
 42
-0.02999
 10
26.690281
 20
24.715715
 42
0.003447
 10
26.609618
 20
24.572328
 42
0.005225
 10
26.541629
 20
24.44641
 42
0.002149
 10
26.485153
 20
24.33802
 42
0.119576
 10
26.4798
 20
24.315958
 42
0.461067
 10
26.489872
 20
24.307358
 42
0.018318
 10
26.543546
 20
24.317898
 42
0.02124
 10
26.613567
 20
24.337505
 42
0.011958
 10
26.696807
 20
24.366894
 42
-0.047428
 10
26.812181
 20
24.398643
 42
-0.014514
 10
26.991346
 20
24.424755
 42
-0.014385
 10
27.194709
 20
24.442478
 42
-0.015266
 10
27.394757
 20
24.448008
 42
-0.022745
 10
27.634135
 20
24.436419
 42
-0.034167
 10
27.840404
 20
24.402673
 42
-0.037125
 10
28.026811
 20
24.344052
 42
-0.035202
 10
28.205988
 20
24.257658
 42
-0.018993
 10
28.339056
 20
24.174669
 42
-0.018849
 10
28.465791
 20
24.081621
 42
-0.019086
 10
28.570206
 20
23.992023
 42
-0.066648
 10
28.626614
 20
23.923727
 42
-0.099914
 10
28.658461
 20
23.838628
 42
-0.132336
 10
28.649893
 20
23.756717
 42
-0.079839
 10
28.594205
 20
23.660951
 42
-0.019487
 10
28.472722
 20
23.523833
 42
-0.033802
 10
28.357914
 20
23.419164
 42
-0.02293
 10
28.214456
 20
23.315485
 42
-0.023155
 10
28.06597
 20
23.227754
 42
-0.042169
 10
27.936483
 20
23.17254
 42
-0.040993
 10
27.796644
 20
23.138788
 42
-0.020292
 10
27.615106
 20
23.117944
 42
-0.01999
 10
27.423928
 20
23.111488
 42
-0.02756
 10
27.252487
 20
23.122014
 42
-0.008061
 10
27.088208
 20
23.143917
 42
-0.007245
 10
26.918753
 20
23.171814
 42
-0.007282
 10
26.767475
 20
23.201255
 42
-0.022597
 10
26.666821
 20
23.227167
 10
26.473142
 20
23.286475
 10
26.687971
 20
22.882437
 42
-0.025225
 10
26.770212
 20
22.70695
 42
-0.021243
 10
26.839694
 20
22.513808
 42
-0.021775
 10
26.887971
 20
22.331822
 42
-0.053993
 10
26.9028
 20
22.1949
 42
-0.02751
 10
26.896819
 20
22.086272
 42
-0.043261
 10
26.878587
 20
21.994678
 42
-0.053468
 10
26.85215
 20
21.930323
 42
-0.275192
 10
26.820373
 20
21.9114
 42
-0.188574
 10
26.780282
 20
21.927077
 42
-0.032314
 10
26.722837
 20
21.987438
 42
-0.031314
 10
26.661374
 20
22.07113
 42
-0.0234
 10
26.604087
 20
22.170254
 42
0.028357
 10
26.531167
 20
22.293589
 42
0.011212
 10
26.417763
 20
22.454789
 42
0.011054
 10
26.287208
 20
22.623843
 42
0.013602
 10
26.157764
 20
22.775387
 42
0.023263
 10
26.01817
 20
22.916318
 42
0.0192
 10
25.857118
 20
23.053424
 42
0.019623
 10
25.699345
 20
23.167884
 42
0.048014
 10
25.573067
 20
23.235633
 42
0.034337
 10
25.444509
 20
23.279355
 42
0.018625
 10
25.281568
 20
23.316122
 42
0.018475
 10
25.112213
 20
23.341326
 42
0.027706
 10
24.963013
 20
23.3496
 42
0.032603
 10
24.798602
 20
23.338868
 42
0.054474
 10
24.66407
 20
23.306059
 42
0.061356
 10
24.55132
 20
23.248699
 42
0.056963
 10
24.452696
 20
23.164448
 42
0.056993
 10
24.385717
 20
23.073763
 42
0.038893
 10
24.330557
 20
22.957967
 42
0.03876
 10
24.293776
 20
22.834404
 42
0.054808
 10
24.282058
 20
22.720298
 42
0.042877
 10
24.293535
 20
22.597084
 42
0.019109
 10
24.328626
 20
22.437762
 42
0.018751
 10
24.378849
 20
22.270986
 42
0.024108
 10
24.437977
 20
22.122174
 42
0.03656
 10
24.519894
 20
21.97205
 42
0.019971
 10
24.640559
 20
21.800331
 42
0.019806
 10
24.777774
 20
21.634777
 42
0.029655
 10
24.911275
 20
21.502756
 42
0.016999
 10
25.054419
 20
21.385445
 42
0.012417
 10
25.220819
 20
21.264702
 42
0.012574
 10
25.384409
 20
21.158054
 42
0.026909
 10
25.516755
 20
21.085963
 42
-0.01592
 10
25.626419
 20
21.029315
 42
-0.02317
 10
25.718916
 20
20.971969
 42
-0.020166
 10
25.788536
 20
20.919957
 42
-0.22594
 10
25.803
 20
20.889582
 42
-0.161561
 10
25.794254
 20
20.863221
 42
-0.054538
 10
25.76632
 20
20.833217
 42
-0.047481
 10
25.725917
 20
20.804539
 42
-0.039012
 10
25.678132
 20
20.781786
 42
-0.10425
 10
25.606183
 20
20.770274
 42
-0.020987
 10
25.476362
 20
20.782129
 42
-0.021323
 10
25.323791
 20
20.809209
 42
-0.018509
 10
25.166601
 20
20.850238
 42
-0.014052
 10
25.009403
 20
20.902408
 42
-0.014433
 10
24.856798
 20
20.962901
 42
-0.014307
 10
24.727724
 20
21.02286
 42
-0.057372
 10
24.654925
 20
21.070359
 42
0.034225
 10
24.604003
 20
21.107044
 42
0.049911
 10
24.554388
 20
21.131388
 42
0.06233
 10
24.513004
 20
21.14116
 42
0.226982
 10
24.488222
 20
21.132422
 42
0.217561
 10
24.475669
 20
21.098763
 42
0.011393
 10
24.486784
 20
20.981214
 42
0.016286
 10
24.508364
 20
20.838072
 42
0.010968
 10
24.541871
 20
20.676216
 42
-0.021502
 10
24.582063
 20
20.459134
 42
-0.035719
 10
24.594827
 20
20.273539
 42
-0.037696
 10
24.580873
 20
20.095241
 42
-0.027627
 10
24.539745
 20
19.901039
 42
-0.037243
 10
24.483523
 20
19.741281
 42
-0.021639
 10
24.393907
 20
19.558621
 42
-0.021549
 10
24.287658
 20
19.382359
 42
-0.033756
 10
24.180142
 20
19.24182
 10
23.918004
 20
18.943261
 10
23.707242
 20
19.137181
 42
-0.037605
 10
23.615293
 20
19.235521
 42
-0.018281
 10
23.512512
 20
19.373541
 42
-0.018018
 10
23.415493
 20
19.525743
 42
-0.024771
 10
23.340298
 20
19.6695
 42
-0.024705
 10
23.280357
 20
19.818275
 42
-0.01909
 10
23.229449
 20
19.985553
 42
-0.019452
 10
23.193901
 20
20.145757
 42
-0.04312
 10
23.182258
 20
20.270226
 42
-0.028698
 10
23.188299
 20
20.39022
 42
-0.016045
 10
23.20867
 20
20.535024
 42
-0.015967
 10
23.238744
 20
20.680551
 42
-0.024933
 10
23.274781
 20
20.803294
 42
0.017177
 10
23.307923
 20
20.910025
 42
0.024671
 10
23.329271
 20
21.006673
 42
0.022379
 10
23.338979
 20
21.085
 42
0.219412
 10
23.327744
 20
21.115456
 42
0.269624
 10
23.297166
 20
21.123547
 42
0.02163
 10
23.214593
 20
21.096979
 42
0.024571
 10
23.113161
 20
21.053653
 42
0.016107
 10
23.000712
 20
20.994391
 42
-0.021922
 10
22.872537
 20
20.928733
 42
-0.015442
 10
22.723274
 20
20.865857
 42
-0.015621
 10
22.576478
 20
20.814497
 42
-0.031345
 10
22.457316
 20
20.785001
 42
-0.036178
 10
22.3496
 20
20.773359
 42
-0.0341
 10
22.239149
 20
20.776988
 42
-0.03596
 10
22.141795
 20
20.793991
 42
-0.090983
 10
22.076616
 20
20.823589
 42
-0.027293
 10
22.018624
 20
20.868811
 42
-0.186322
 10
22.002008
 20
20.900301
 42
-0.276497
 10
22.013981
 20
20.926938
 42
-0.056194
 10
22.061435
 20
20.952652
 42
0.037136
 10
22.124558
 20
20.983813
 42
0.004747
 10
22.254196
 20
21.061925
 42
0.005535
 10
22.406385
 20
21.157946
 42
0.004584
 10
22.566357
 20
21.263462
 42
0.02568
 10
22.735604
 20
21.390424
 42
0.017244
 10
22.915913
 20
21.551604
 42
0.017391
 10
23.080096
 20
21.720215
 42
0.032574
 10
23.198582
 20
21.8691
 42
0.034724
 10
23.292621
 20
22.026822
 42
0.022755
 10
23.379463
 20
22.219871
 42
0.02288
 10
23.447433
 20
22.417362
 42
0.038889
 10
23.483484
 20
22.5882
 42
0.020915
 10
23.501851
 20
22.795398
 42
0.06767
 10
23.489663
 20
22.932688
 42
0.08556
 10
23.443493
 20
23.043624
 42
0.04797
 10
23.353578
 20
23.15925
 42
0.055099
 10
23.24699
 20
23.249739
 42
0.066822
 10
23.129631
 20
23.307937
 42
0.055875
 10
22.984778
 20
23.339611
 42
0.025917
 10
22.792203
 20
23.3496
 42
0.027215
 10
22.62889
 20
23.340704
 42
0.021419
 10
22.45372
 20
23.313932
 42
0.021886
 10
22.292714
 20
23.274828
 42
0.048845
 10
22.175791
 20
23.228177
 42
0.041569
 10
22.064584
 20
23.158403
 42
0.015393
 10
21.92004
 20
23.042892
 42
0.015131
 10
21.769296
 20
22.906554
 42
0.017643
 10
21.634878
 20
22.767931
 42
0.013889
 10
21.507869
 20
22.619246
 42
0.01115
 10
21.37937
 20
22.452598
 42
0.01131
 10
21.26745
 20
22.293127
 42
0.028026
 10
21.194913
 20
22.170254
 42
-0.0234
 10
21.137626
 20
22.07113
 42
-0.031314
 10
21.076163
 20
21.987438
 42
-0.032314
 10
21.018718
 20
21.927077
 42
-0.188574
 10
20.978627
 20
21.9114
 42
-0.275192
 10
20.94685
 20
21.930323
 42
-0.053468
 10
20.920413
 20
21.994678
 42
-0.043261
 10
20.902181
 20
22.086272
 42
-0.02751
 10
20.8962
 20
22.1949
 42
-0.053993
 10
20.911029
 20
22.331822
 42
-0.021775
 10
20.959306
 20
22.513808
 42
-0.021243
 10
21.028788
 20
22.70695
 42
-0.025225
 10
21.111029
 20
22.882437
 10
21.325858
 20
23.286475
 10
21.132179
 20
23.229028
 42
-0.014651
 10
21.036261
 20
23.203611
 42
-0.005883
 10
20.903775
 20
23.174265
 42
-0.005815
 10
20.760207
 20
23.145972
 42
-0.007319
 10
20.626609
 20
23.12327
 42
-0.026042
 10
20.485181
 20
23.108851
 42
-0.015872
 10
20.31725
 20
23.105863
 42
-0.015892
 10
20.150154
 20
23.11351
 42
-0.02699
 10
20.01145
 20
23.131852
 42
-0.049755
 10
19.874141
 20
23.172062
 42
-0.025305
 10
19.710819
 20
23.247936
 42
-0.024862
 10
19.548759
 20
23.344027
 42
-0.033915
 10
19.413891
 20
23.447137
 42
-0.019161
 10
19.301209
 20
23.55399
 42
-0.024269
 10
19.206048
 20
23.661378
 42
-0.023483
 10
19.136714
 20
23.756548
 42
-0.146703
 10
19.1196
 20
23.813623
 42
-0.160076
 10
19.138054
 20
23.869787
 42
-0.025086
 10
19.212792
 20
23.961255
 42
-0.025734
 10
19.315371
 20
24.063568
 42
-0.019908
 10
19.43685
 20
24.164409
 42
-0.031679
 10
19.636312
 20
24.297869
 42
-0.069279
 10
19.806146
 20
24.367285
 42
-0.05125
 10
20.018603
 20
24.398801
 42
-0.011214
 10
20.3886
 20
24.4071
 42
-0.010858
 10
20.642929
 20
24.401576
 42
-0.01292
 10
20.882398
 20
24.384962
 42
-0.011744
 10
21.082492
 20
24.361119
 42
-0.077451
 10
21.178613
 20
24.331735
 42
0.117473
 10
21.245167
 20
24.317034
 42
0.461754
 10
21.26848
 20
24.34533
 42
0.068383
 10
21.237702
 20
24.440567
 42
0.004974
 10
21.115163
 20
24.688473
 42
-0.024172
 10
21.031338
 20
24.875834
 42
-0.020334
 10
20.96052
 20
25.081451
 42
-0.020819
 10
20.911292
 20
25.274733
 42
-0.051988
 10
20.8962
 20
25.419488
 42
-0.021745
 10
20.901185
 20
25.534051
 42
-0.034934
 10
20.916448
 20
25.630594
 42
-0.03905
 10
20.938381
 20
25.700333
 42
-0.306061
 10
20.965131
 20
25.7184
 42
-0.215921
 10
20.999468
 20
25.702847
 42
-0.024425
 10
21.053911
 20
25.634316
 42
-0.026071
 10
21.113255
 20
25.541804
 42
-0.018318
 10
21.170563
 20
25.432155
 42
0.026909
 10
21.242654
 20
25.299809
 42
0.012574
 10
21.349302
 20
25.136219
 42
0.012417
 10
21.470045
 20
24.969819
 42
0.016999
 10
21.587356
 20
24.826675
 42
0.029655
 10
21.719377
 20
24.693174
 42
0.019806
 10
21.884931
 20
24.555959
 42
0.019971
 10
22.05665
 20
24.435294
 42
0.03656
 10
22.206774
 20
24.353377
 42
0.025734
 10
22.357028
 20
24.294241
 42
0.019104
 10
22.528235
 20
24.244026
 42
0.019418
 10
22.693862
 20
24.209024
 42
0.040715
 10
22.82489
 20
24.197458
 42
0.048829
 10
22.963281
 20
24.210076
 42
0.059978
 10
23.086823
 20
24.24942
 42
0.057824
 10
23.200948
 20
24.318398
 42
0.041078
 10
23.31134
 20
24.419454
 42
0.027451
 10
23.390705
 20
24.515123
 42
0.028828
 10
23.45772
 20
24.617411
 42
0.030076
 10
23.50476
 20
24.711827
 42
0.101739
 10
23.518328
 20
24.779004
 42
0.038198
 10
23.512499
 20
24.851861
 42
0.009485
 10
23.491629
 20
24.96979
 42
0.009643
 10
23.462493
 20
25.104233
 42
0.00954
 10
23.428098
 20
25.237938
 42
0.045381
 10
23.372173
 20
25.385817
 42
0.021515
 10
23.275247
 20
25.565246
 42
0.021121
 10
23.156981
 20
25.745545
 42
0.027992
 10
23.033796
 20
25.898269
 42
0.022717
 10
22.890583
 20
26.042997
 42
0.014252
 10
22.71101
 20
26.199459
 42
0.014302
 10
22.525044
 20
26.343678
 42
0.02524
 10
22.362608
 20
26.450231
 42
-0.01995
 10
22.225486
 20
26.538119
 42
-0.032472
 10
22.117563
 20
26.624468
 42
-0.034941
 10
22.046192
 20
26.699377
 42
-0.32169
 10
22.043275
 20
26.741649
 42
-0.130513
 10
22.074324
 20
26.771022
 42
-0.045896
 10
22.131137
 20
26.79547
 42
-0.041774
 10
22.201523
 20
26.812036
 42
-0.038046
 10
22.275943
 20
26.817374
 42
-0.063796
 10
22.375383
 20
26.804183
 42
-0.014818
 10
22.53732
 20
26.756048
 42
-0.015055
 10
22.721811
 20
26.688981
 42
-0.014237
 10
22.90545
 20
26.609766
 42
0.010325
 10
23.075799
 20
26.534696
 42
0.01851
 10
23.218992
 20
26.481221
 42
0.014669
 10
23.33021
 20
26.447905
 42
0.495585
 10
23.349128
 20
26.462542
 42
0.052071
 10
23.344817
 20
26.500885
 42
0.004045
 10
23.321843
 20
26.601678
 42
0.005491
 10
23.292079
 20
26.721649
 42
0.004167
 10
23.256904
 20
26.852562
 42
-0.034287
 10
23.225604
 20
27.005179
 42
-0.019812
 10
23.207984
 20
27.191849
 42
-0.019735
 10
23.205134
 20
27.381452
 42
-0.031114
 10
23.219212
 20
27.543529
 42
-0.04193
 10
23.257829
 20
27.706504
 42
-0.022626
 10
23.330887
 20
27.899592
 42
-0.022382
 10
23.42369
 20
28.090867
 42
-0.03262
 10
23.523467
 20
28.249417
 42
-0.015688
 10
23.625775
 20
28.381707
 42
-0.021619
 10
23.726263
 20
28.493344
 42
-0.01902
 10
23.81472
 20
28.576854
 42
-0.181609
  0
LWPOLYLINE
  5
668
330
1D
100
AcDbEntity
  8
0
100
AcDbPolyline
 90
       16
 70
     1
 43
0.0
 10
7.660273
 20
29.19899
 10
7.4448
 20
29.368481
 10
7.4448
 20
28.85474
 42
0.006372
 10
7.44731
 20
28.657755
 42
0.010594
 10
7.455057
 20
28.491911
 42
0.004435
 10
7.465667
 20
28.353895
 42
0.389359
 10
7.479716
 20
28.341
 42
0.135758
 10
7.503981
 20
28.347712
 42
0.001977
 10
7.632786
 20
28.425569
 42
0.005259
 10
7.78171
 20
28.518555
 42
0.003426
 10
7.951776
 20
28.628893
 10
8.388919
 20
28.916787
 10
8.132333
 20
28.973143
 42
-0.036201
 10
8.018446
 20
29.006951
 42
-0.021327
 10
7.887823
 20
29.062732
 42
-0.021266
 10
7.761419
 20
29.129955
 42
-0.033819
  0
LWPOLYLINE
  5
67A
330
1D
100
AcDbEntity
  8
0
100
AcDbPolyline
 90
      464
 70
     1
 43
0.0
 10
12.7323
 20
29.30011
 42
0.011237
 10
12.406691
 20
29.311204
 42
0.009159
 10
12.057879
 20
29.308855
 42
0.009277
 10
11.736717
 20
29.294842
 42
0.023802
 10
11.5056
 20
29.269373
 42
0.014615
 10
11.293209
 20
29.229279
 42
0.008209
 10
11.037662
 20
29.168844
 42
0.008186
 10
10.781379
 20
29.09929
 42
0.013227
 10
10.56602
 20
29.030817
 42
0.015495
 10
10.358645
 20
28.951508
 42
0.010482
 10
10.127234
 20
28.848935
 42
0.010567
 10
9.907559
 20
28.740282
 42
0.020663
 10
9.738291
 20
28.642965
 42
0.019122
 10
9.578981
 20
28.533662
 42
0.010315
 10
9.390958
 20
28.387675
 42
0.010259
 10
9.205261
 20
28.230834
 42
0.015883
 10
9.052211
 20
28.087211
 42
0.025075
 10
8.909134
 20
27.929016
 42
0.014799
 10
8.753816
 20
27.727031
 42
0.014786
 10
8.610298
 20
27.515604
 42
0.024446
 10
8.503499
 20
27.328166
 42
0.02137
 10
8.417014
 20
27.137729
 42
0.015194
 10
8.335913
 20
26.917721
 42
0.015378
 10
8.271259
 20
26.702656
 42
0.031275
 10
8.236424
 20
26.529698
 42
0.032895
 10
8.224191
 20
26.356352
 42
0.017384
 10
8.230679
 20
26.14075
 42
0.017225
 10
8.252701
 20
25.919689
 42
0.025432
 10
8.288477
 20
25.728083
 42
0.02865
 10
8.345305
 20
25.53953
 42
0.018336
 10
8.431598
 20
25.327602
 42
0.018424
 10
8.531763
 20
25.125531
 42
0.03248
 10
8.63099
 20
24.967955
 42
0.036037
 10
8.759
 20
24.815653
 42
0.036574
 10
8.906959
 20
24.684123
 42
0.03652
 10
9.072723
 20
24.575387
 42
0.035701
 10
9.253777
 20
24.490993
 42
0.025144
 10
9.443876
 20
24.429148
 42
0.034708
 10
9.61989
 20
24.394407
 42
0.037666
 10
9.786821
 20
24.386023
 42
0.040105
 10
9.94958
 20
24.403222
 42
0.048781
 10
10.086767
 20
24.443106
 42
0.028959
 10
10.241082
 20
24.515438
 42
0.028778
 10
10.388038
 20
24.606298
 42
0.043553
 10
10.503129
 20
24.702914
 42
0.035935
 10
10.607353
 20
24.823301
 42
0.047231
 10
10.682945
 20
24.947337
 42
0.051822
 10
10.728726
 20
25.072994
 42
0.061536
 10
10.7442
 20
25.198249
 42
0.045631
 10
10.734405
 20
25.305356
 42
0.037099
 10
10.705148
 20
25.416876
 42
0.038448
 10
10.662244
 20
25.516245
 42
0.075381
 10
10.611257
 20
25.585457
 42
0.06477
 10
10.545092
 20
25.636389
 42
0.039123
 10
10.455814
 20
25.679348
 42
0.038588
 10
10.358748
 20
25.708645
 42
0.054051
 10
10.268773
 20
25.7184
 42
0.070662
 10
10.164935
 20
25.703652
 42
0.099565
 10
10.082254
 20
25.660538
 42
0.084632
 10
10.013637
 20
25.582745
 42
0.038998
 10
9.951569
 20
25.462345
 42
-0.010324
 10
9.878885
 20
25.299004
 42
-0.197607
 10
9.838627
 20
25.26215
 42
-0.283383
 10
9.792334
 20
25.271591
 42
-0.020443
 10
9.696671
 20
25.368982
 42
-0.072677
 10
9.637834
 20
25.456768
 42
-0.037344
 10
9.589762
 20
25.580447
 42
-0.035014
 10
9.557104
 20
25.722443
 42
-0.03558
 10
9.544811
 20
25.866846
 42
-0.038258
 10
9.55393
 20
26.012143
 42
-0.02809
 10
9.585272
 20
26.170565
 42
-0.028613
 10
9.632383
 20
26.318299
 42
-0.053585
 10
9.689456
 20
26.429832
 42
-0.039092
 10
9.763822
 20
26.526013
 42
-0.02445
 10
9.864507
 20
26.626734
 42
-0.024489
 10
9.974124
 20
26.716785
 42
-0.040397
 10
10.075762
 20
26.780224
 42
-0.044348
 10
10.190665
 20
26.827269
 42
-0.022412
 10
10.34219
 20
26.866793
 42
-0.022068
 10
10.503484
 20
26.893852
 42
-0.03053
 10
10.649891
 20
26.9028
 42
-0.022397
 10
10.796376
 20
26.896235
 42
-0.0164
 10
10.957923
 20
26.876368
 42
-0.016635
 10
11.109956
 20
26.847376
 42
-0.034901
 10
11.225143
 20
26.812818
 42
-0.037346
 10
11.333736
 20
26.762237
 42
-0.018075
 10
11.464743
 20
26.682508
 42
-0.017814
 10
11.595896
 20
26.589178
 42
-0.024434
 10
11.706369
 20
26.495568
 42
-0.029386
 10
11.807958
 20
26.388732
 42
-0.019394
 10
11.912253
 20
26.255092
 42
-0.019535
 10
12.003851
 20
26.116749
 42
-0.035383
 10
12.065919
 20
25.996067
 42
-0.038622
 10
12.110645
 20
25.864243
 42
-0.018739
 10
12.148184
 20
25.690184
 42
-0.018461
 10
12.1739
 20
25.505053
 42
-0.025281
 10
12.1824
 20
25.337047
 42
-0.034129
 10
12.170589
 20
25.164207
 42
-0.022814
 10
12.134669
 20
24.969123
 42
-0.022948
 10
12.081774
 20
24.780633
 42
-0.038085
 10
12.018184
 20
24.62837
 42
-0.032147
 10
11.933549
 20
24.485892
 42
-0.017776
 10
11.813301
 20
24.322975
 42
-0.017663
 10
11.679191
 20
24.165904
 42
-0.027065
 10
11.55131
 20
24.040742
 10
11.248651
 20
23.775005
 10
11.579929
 20
23.475714
 42
-0.02437
 10
11.717386
 20
23.338794
 42
-0.017892
 10
11.856472
 20
23.174616
 42
-0.018163
 10
11.977149
 20
23.009362
 42
-0.037857
 10
12.056152
 20
22.870977
 42
-0.0395
 10
12.120268
 20
22.702738
 42
-0.036973
 10
12.158862
 20
22.522755
 42
-0.032521
 10
12.173633
 20
22.318806
 42
-0.019875
 10
12.165798
 20
22.077536
 42
-0.022144
 10
12.136522
 20
21.827348
 42
-0.041308
 10
12.087394
 20
21.629459
 42
-0.045888
 10
12.010701
 20
21.456617
 42
-0.035583
 10
11.897749
 20
21.28439
 42
-0.03382
 10
11.784668
 20
21.155256
 42
-0.021134
 10
11.636393
 20
21.019404
 42
-0.021184
 10
11.478199
 20
20.897366
 42
-0.035759
 10
11.334869
 20
20.810819
 42
-0.031443
 10
11.185985
 20
20.746307
 42
-0.021981
 10
11.011289
 20
20.691873
 42
-0.022257
 10
10.838548
 20
20.654404
 42
-0.042298
 10
10.696906
 20
20.6424
 42
-0.035676
 10
10.557961
 20
20.652327
 42
-0.020968
 10
10.394116
 20
20.682916
 42
-0.020906
 10
10.232078
 20
20.727467
 42
-0.03325
 10
10.09841
 20
20.780328
 42
-0.031301
 10
9.980466
 20
20.845628
 42
-0.027668
 10
9.866411
 20
20.927666
 42
-0.028687
 10
9.771897
 20
21.013314
 42
-0.071575
 10
9.716787
 20
21.08822
 42
-0.021136
 10
9.676727
 20
21.171334
 42
-0.009591
 10
9.631064
 20
21.283157
 42
-0.009477
 10
9.58734
 20
21.403107
 42
-0.012825
 10
9.552698
 20
21.513163
 42
-0.044114
 10
9.526765
 20
21.647193
 42
-0.054116
 10
9.527423
 20
21.774633
 42
-0.05052
 10
9.555957
 20
21.905771
 42
-0.031977
 10
9.613925
 20
22.05127
 42
-0.020169
 10
9.670852
 20
22.159715
 42
-0.028228
 10
9.730832
 20
22.251231
 42
-0.027632
 10
9.786405
 20
22.31831
 42
-0.208882
 10
9.823239
 20
22.3344
 42
-0.149861
 10
9.851826
 20
22.325635
 42
-0.098633
 10
9.87618
 20
22.300975
 42
-0.081851
 10
9.892604
 20
22.264116
 42
-0.064048
 10
9.8982
 20
22.220612
 42
0.099381
 10
9.908932
 20
22.167153
 42
0.037821
 10
9.943646
 20
22.099121
 42
0.035602
 10
9.99371
 20
22.028788
 42
0.036379
 10
10.052911
 20
21.966812
 42
0.036471
 10
10.121575
 20
21.913229
 42
0.032585
 10
10.199858
 20
21.867929
 42
0.034074
 10
10.275786
 20
21.8366
 42
0.080977
 10
10.3359
 20
21.8268
 42
0.091503
 10
10.395032
 20
21.837713
 42
0.039542
 10
10.467623
 20
21.872246
 42
0.037406
 10
10.54114
 20
21.922311
 42
0.040672
 10
10.604188
 20
21.981511
 42
0.065032
 10
10.657861
 20
22.059017
 42
0.036143
 10
10.703071
 20
22.1649
 42
0.035375
 10
10.733921
 20
22.280601
 42
0.047498
 10
10.7442
 20
22.388559
 42
0.058057
 10
10.731301
 20
22.499275
 42
0.037276
 10
10.692234
 20
22.622726
 42
0.037136
 10
10.634935
 20
22.739772
 42
0.055192
 10
10.566876
 20
22.83123
 42
0.031394
 10
10.483749
 20
22.909923
 42
0.021389
 10
10.380281
 20
22.988983
 42
0.021606
 10
10.273468
 20
23.056919
 42
0.040012
 10
10.180669
 20
23.100983
 42
0.037138
 10
10.078048
 20
23.131503
 42
0.016476
 10
9.939033
 20
23.157071
 42
0.016202
 10
9.789365
 20
23.174593
 42
0.021037
 10
9.651403
 20
23.1804
 42
0.043766
 10
9.501272
 20
23.167233
 42
0.033137
 10
9.340591
 20
23.127707
 42
0.032691
 10
9.183887
 20
23.06642
 42
0.038725
 10
9.045574
 20
22.988037
 42
0.03004
 10
8.922268
 20
22.893703
 42
0.018095
 10
8.787417
 20
22.768252
 42
0.018094
 10
8.661969
 20
22.633355
 42
0.029996
 10
8.567583
 20
22.509959
 42
0.026629
 10
8.487032
 20
22.375502
 42
0.015432
 10
8.404122
 20
22.206309
 42
0.015397
 10
8.331248
 20
22.031016
 42
0.024934
 10
8.281498
 20
21.877472
 42
0.032614
 10
8.249003
 20
21.715736
 42
0.017886
 10
8.229365
 20
21.514545
 42
0.017762
 10
8.223993
 20
21.308032
 42
0.027004
 10
8.235382
 20
21.128934
 42
0.023813
 10
8.265579
 20
20.94772
 42
0.013968
 10
8.317995
 20
20.734145
 42
0.013953
 10
8.382498
 20
20.523017
 42
0.023019
 10
8.450021
 20
20.349156
 42
0.034207
 10
8.542371
 20
20.173853
 42
0.015194
 10
8.686448
 20
19.955678
 42
0.014957
 10
8.853581
 20
19.733032
 42
0.019548
 10
9.020071
 20
19.540479
 42
0.024279
 10
9.211412
 20
19.354857
 42
0.01456
 10
9.45515
 20
19.152642
 42
0.014564
 10
9.709989
 20
18.965145
 42
0.024493
 10
9.935504
 20
18.824946
 42
0.018732
 10
10.169535
 20
18.706132
 42
0.011881
 10
10.45022
 20
18.584619
 42
0.011932
 10
10.731886
 20
18.4783
 42
0.02154
 10
10.967912
 20
18.406839
 42
0.026304
 10
11.237322
 20
18.352697
 42
0.012773
 10
11.586064
 20
18.31058
 42
0.01206
 10
11.973154
 20
18.283237
 42
0.011811
 10
12.363812
 20
18.274335
 42
0.005281
 10
12.731801
 20
18.278531
 42
0.004745
 10
13.113018
 20
18.290526
 42
0.00476
 10
13.454831
 20
18.307789
 42
0.014891
 10
13.68405
 20
18.328419
 42
0.012486
 10
13.854307
 20
18.353196
 42
0.020082
 10
13.997731
 20
18.383712
 42
0.015015
 10
14.10924
 20
18.415756
 42
0.32611
 10
14.1282
 20
18.441735
 42
0.240945
 10
14.112494
 20
18.472435
 42
0.016218
 10
14.028258
 20
18.529155
 42
0.020447
 10
13.918337
 20
18.591987
 42
0.013692
 10
13.787971
 20
18.655125
 42
-0.037983
 10
13.63438
 20
18.738945
 42
-0.018696
 10
13.452227
 20
18.867038
 42
-0.018434
 10
13.272061
 20
19.014869
 42
-0.025528
 10
13.122782
 20
19.161087
 42
-0.031924
 10
12.985773
 20
19.330207
 42
-0.020708
 10
12.848718
 20
19.541396
 42
-0.020734
 10
12.729945
 20
19.762591
 42
-0.03267
 10
12.648837
 20
19.962177
 42
-0.022949
 10
12.584457
 20
20.190536
 42
-0.029337
 10
12.547432
 20
20.405908
 42
-0.030236
 10
12.536544
 20
20.618656
 42
-0.027148
 10
12.550581
 20
20.839049
 42
-0.033385
 10
12.58729
 20
21.035608
 42
-0.022319
 10
12.654074
 20
21.254593
 42
-0.022204
 10
12.740838
 20
21.468683
 42
-0.031083
 10
12.838241
 20
21.650599
 42
-0.035312
 10
12.959669
 20
21.819141
 42
-0.023596
 10
13.120444
 20
21.994475
 42
-0.023505
 10
13.298193
 20
22.154994
 42
-0.033455
 10
13.471258
 20
22.278708
 42
-0.029145
 10
13.650587
 20
22.375621
 42
-0.020468
 10
13.862308
 20
22.464202
 42
-0.020727
 10
14.0727
 20
22.532497
 42
-0.040068
 10
14.246287
 20
22.566301
 42
-0.01956
 10
14.41342
 20
22.578545
 42
-0.01362
 10
14.602618
 20
22.579826
 42
-0.013762
 10
14.784473
 20
22.571093
 42
-0.027491
 10
14.927197
 20
22.552364
 42
-0.056006
 10
15.071206
 20
22.508236
 42
-0.030361
 10
15.236557
 20
22.424256
 42
-0.028638
 10
15.404583
 20
22.312263
 42
-0.029143
 10
15.557683
 20
22.182407
 42
-0.031422
 10
15.697556
 20
22.031136
 42
-0.027179
 10
15.824814
 20
21.856268
 42
-0.028
 10
15.92764
 20
21.676166
 42
-0.043225
 10
15.993491
 20
21.50955
 42
-0.023753
 10
16.042535
 20
21.311284
 42
-0.048143
 10
16.05837
 20
21.151506
 42
-0.048665
 10
16.043294
 20
20.992757
 42
-0.024795
 10
15.995321
 20
20.798003
 10
15.88986
 20
20.446005
 10
15.733049
 20
20.796255
 42
0.038604
 10
15.651256
 20
20.946648
 42
0.03061
 10
15.541267
 20
21.095461
 42
0.03128
 10
15.417986
 20
21.22511
 42
0.050171
 10
15.296369
 20
21.317136
 42
0.032091
 10
15.171856
 20
21.382489
 42
0.024928
 10
15.029136
 20
21.437737
 42
0.02551
 10
14.890339
 20
21.475925
 42
0.054088
 10
14.779649
 20
21.488084
 42
0.040779
 10
14.671821
 20
21.47942
 42
0.022703
 10
14.542743
 20
21.4523
 42
0.022514
 10
14.413789
 20
21.412762
 42
0.033693
 10
14.305762
 20
21.365824
 42
0.038242
 10
14.204821
 20
21.303422
 42
0.02441
 10
14.097388
 20
21.216731
 42
0.024499
 10
13.999819
 20
21.120835
 42
0.041277
 10
13.929263
 20
21.030401
 42
0.051293
 10
13.875774
 20
20.927038
 42
0.027792
 10
13.830767
 20
20.790989
 42
0.027387
 10
13.799986
 20
20.645969
 42
0.038616
 10
13.7898
 20
20.514275
 42
0.035
 10
13.799222
 20
20.379844
 42
0.022557
 10
13.827968
 20
20.226276
 42
0.022669
 10
13.869915
 20
20.077885
 42
0.039128
 10
13.919735
 20
19.959731
 42
0.048405
 10
13.993186
 20
19.846137
 42
0.021277
 10
14.110474
 20
19.710579
 42
0.020821
 10
14.248074
 20
19.576256
 42
0.026205
 10
14.386597
 20
19.464395
 42
0.032101
 10
14.546756
 20
19.363373
 42
0.018429
 10
14.751234
 20
19.261631
 42
0.018358
 10
14.965128
 20
19.174175
 42
0.029002
 10
15.154784
 20
19.116869
 42
0.028124
 10
15.357178
 20
19.080204
 42
0.014788
 10
15.611796
 20
19.056352
 42
0.014666
 10
15.87484
 20
19.047272
 42
0.021832
 10
16.104972
 20
19.056133
 42
0.024155
 10
16.351666
 20
19.088497
 42
0.011018
 10
16.670275
 20
19.153341
 42
0.010882
 10
17.003628
 20
19.236538
 42
0.014718
 10
17.3007
 20
19.32706
 42
0.013695
 10
17.580037
 20
19.429849
 42
0.012812
 10
17.859686
 20
19.549937
 42
0.012902
 10
18.102334
 20
19.669262
 42
0.042077
 10
18.253231
 20
19.765333
 42
0.036993
 10
18.371179
 20
19.86983
 42
0.021208
 10
18.497923
 20
20.011618
 42
0.021099
 10
18.613874
 20
20.165791
 42
0.032735
 10
18.699028
 20
20.30876
 42
0.028454
 10
18.763727
 20
20.455664
 42
0.032822
 10
18.807829
 20
20.602203
 42
0.036058
 10
18.828319
 20
20.733654
 42
0.084051
 10
18.819872
 20
20.832609
 42
0.039337
 10
18.790189
 20
20.918846
 42
0.020415
 10
18.74053
 20
21.021398
 42
0.020169
 10
18.680609
 20
21.123173
 42
0.028849
 10
18.618892
 20
21.207796
 42
0.058811
 10
18.518877
 20
21.303908
 42
0.009426
 10
18.299467
 20
21.463602
 42
0.010314
 10
18.032352
 20
21.642329
 42
0.008884
 10
17.744595
 20
21.819264
 42
-0.00627
 10
17.447834
 20
21.999605
 42
-0.006143
 10
17.153647
 20
22.188538
 42
-0.006064
 10
16.899648
 20
22.360561
 42
-0.023023
 10
16.747489
 20
22.477068
 42
-0.035858
 10
16.631042
 20
22.590253
 42
-0.02106
 10
16.507956
 20
22.740668
 42
-0.020996
 10
16.397007
 20
22.90225
 42
-0.03335
 10
16.31762
 20
23.05
 42
-0.027004
 10
16.258034
 20
23.202548
 42
-0.019391
 10
16.207529
 20
23.378446
 42
-0.019665
 10
16.17246
 20
23.550124
 42
-0.039395
 10
16.16093
 20
23.688
 42
-0.024262
 10
16.166968
 20
23.825662
 42
-0.012599
 10
16.187145
 20
23.996526
 42
-0.012498
 10
16.216748
 20
24.171352
 42
-0.018578
 10
16.252119
 20
24.3225
 42
-0.04997
 10
16.31686
 20
24.490968
 42
-0.031995
 10
16.423047
 20
24.671903
 42
-0.028909
 10
16.565139
 20
24.857854
 42
-0.023008
 10
16.73849
 20
25.0416
 42
-0.023835
 10
16.927778
 20
25.207897
 42
-0.01311
 10
17.173836
 20
25.393772
 42
-0.013044
 10
17.43391
 20
25.569662
 42
-0.020339
 10
17.66753
 20
25.705882
 42
0.012212
 10
17.892998
 20
25.832485
 42
0.009988
 10
18.127877
 20
25.978448
 42
0.010122
 10
18.338599
 20
26.121455
 42
0.026015
 10
18.483045
 20
26.235545
 42
0.028351
 10
18.5941
 20
26.344797
 42
0.025657
 10
18.696079
 20
26.469474
 42
0.02654
 10
18.775714
 20
26.590701
 42
0.070679
 10
18.814696
 20
26.686341
 42
0.054083
 10
18.827959
 20
26.781948
 42
0.029141
 10
18.824567
 20
26.900988
 42
0.028663
 10
18.806829
 20
27.02327
 42
0.039814
 10
18.776149
 20
27.129579
 42
0.042875
 10
18.723132
 20
27.240397
 42
0.018327
 10
18.63462
 20
27.378919
 42
0.017975
 10
18.528908
 20
27.520551
 42
0.022563
 10
18.420627
 20
27.64345
 42
0.048584
 10
18.266069
 20
27.775317
 42
0.022835
 10
18.043827
 20
27.915764
 42
0.020607
 10
17.774723
 20
28.05474
 42
0.016415
 10
17.474066
 20
28.182807
 42
0.016067
 10
17.110115
 20
28.310617
 42
0.023128
 10
16.780147
 20
28.398163
 42
0.022997
 10
16.442084
 20
28.455188
 42
0.015632
 10
16.053399
 20
28.49021
 42
0.010542
 10
15.666809
 20
28.504721
 42
0.027061
 10
15.387271
 20
28.494185
 42
0.034919
 10
15.156271
 20
28.456529
 42
0.033364
 10
14.929108
 20
28.38673
 42
0.021928
 10
14.763332
 20
28.314943
 42
0.015346
 10
14.583026
 20
28.220341
 42
0.015517
 10
14.415552
 20
28.118829
 42
0.0309
 10
14.29102
 20
28.02655
 42
0.025967
 10
14.184896
 20
27.927401
 42
0.018178
 10
14.075603
 20
27.805544
 42
0.018394
 10
13.97919
 20
27.680792
 42
0.035998
 10
13.913661
 20
27.573724
 42
0.036203
 10
13.866191
 20
27.462956
 42
0.022621
 10
13.826184
 20
27.32754
 42
0.022666
 10
13.798733
 20
27.189788
 42
0.037864
 10
13.7898
 20
27.072
 42
0.037696
 10
13.798686
 20
26.954305
 42
0.022664
 10
13.825982
 20
26.816851
 42
0.022628
 10
13.865766
 20
26.681861
 42
0.036366
 10
13.912973
 20
26.571607
 42
0.060156
 10
13.982247
 20
26.469786
 42
0.03131
 10
14.090455
 20
26.360444
 42
0.030615
 10
14.217227
 20
26.260666
 42
0.040654
 10
14.344198
 20
26.187236
 42
0.032742
 10
14.492481
 20
26.128421
 42
0.036823
 10
14.641508
 20
26.092183
 42
0.039056
 10
14.785557
 20
26.079642
 42
0.049031
 10
14.918975
 20
26.091575
 42
0.041479
 10
15.038192
 20
26.124582
 42
0.023324
 10
15.17666
 20
26.183067
 42
0.023141
 10
15.311868
 20
26.255631
 42
0.034792
 10
15.421649
 20
26.332097
 42
0.049414
 10
15.520471
 20
26.429213
 42
0.026877
 10
15.622428
 20
26.565692
 42
0.026517
 10
15.712087
 20
26.717027
 42
0.03777
 10
15.773818
 20
26.8605
 10
15.890038
 20
27.1989
 10
15.957838
 20
26.9451
 42
-0.027128
 10
15.983536
 20
26.822615
 42
-0.012522
 10
16.004249
 20
26.661063
 42
-0.012361
 10
16.0176
 20
26.48971
 42
-0.016774
 10
16.020624
 20
26.334564
 42
-0.039078
 10
16.004099
 20
26.15579
 42
-0.037996
 10
15.959921
 20
25.980024
 42
-0.036209
 10
15.887198
 20
25.805389
 42
-0.029416
 10
15.785409
 20
25.629972
 42
-0.03559
 10
15.66618
 20
25.474994
 42
-0.031903
 10
15.522003
 20
25.332334
 42
-0.032379
 10
15.363444
 20
25.211399
 42
-0.040188
 10
15.201255
 20
25.121417
 42
-0.025361
 10
15.044784
 20
25.059739
 42
-0.019031
 10
14.867178
 20
25.007376
 42
-0.019358
 10
14.695859
 20
24.970872
 42
-0.041208
 10
14.561015
 20
24.958858
 42
-0.02785
 10
14.426521
 20
24.96548
 42
-0.013673
 10
14.256538
 20
24.988088
 42
-0.013521
 10
14.080745
 20
25.021279
 42
-0.019131
 10
13.926515
 20
25.060974
 42
-0.049882
 10
13.754119
 20
25.131807
 42
-0.025847
 10
13.554359
 20
25.251878
 42
-0.023773
 10
13.344876
 20
25.407988
 42
-0.020939
 10
13.141735
 20
25.589724
 42
-0.018857
 10
12.933657
 20
25.808047
 42
-0.033738
 10
12.782506
 20
26.004333
 42
-0.039508
 10
12.675917
 20
26.194982
 42
-0.04271
 10
12.603863
 20
26.3952
 42
-0.029752
 10
12.568388
 20
26.569673
 42
-0.017748
 10
12.546048
 20
26.780413
 42
-0.017735
 10
12.538689
 20
26.992683
 42
-0.029179
 10
12.549307
 20
27.171964
 42
-0.026024
 10
12.579292
 20
27.347135
 42
-0.016747
 10
12.631293
 20
27.546576
 42
-0.016835
 10
12.695472
 20
27.738814
 42
-0.030139
 10
12.76276
 20
27.891064
 42
-0.03013
 10
12.849713
 20
28.037233
 42
-0.01514
 10
12.975792
 20
28.211187
 42
-0.014976
 10
13.117472
 20
28.383765
 42
-0.021447
 10
13.253881
 20
28.527219
 42
-0.023728
 10
13.402781
 20
28.657874
 42
-0.016466
 10
13.582407
 20
28.791572
 42
-0.016645
 10
13.763804
 20
28.908775
 42
-0.032582
 10
13.9167
 20
28.987446
 10
14.2551
 20
29.134553
 10
13.8744
 20
29.195787
 42
0.012991
 10
13.67732
 20
29.222254
 42
0.004107
 10
13.381869
 20
29.251691
 42
0.004098
 10
13.051727
 20
29.27912
 42
0.004542
  0
LWPOLYLINE
  5
84C
330
1D
100
AcDbEntity
  8
0
100
AcDbPolyline
 90
      474
 70
     1
 43
0.0
 10
35.65422
 20
29.30477
 42
0.011984
 10
35.321262
 20
29.313949
 42
0.008382
 10
34.945828
 20
29.309006
 42
0.008461
 10
34.586003
 20
29.292134
 42
0.017384
 10
34.3053
 20
29.264384
 42
0.00274
 10
34.072299
 20
29.231838
 42
0.003712
 10
33.862207
 20
29.199723
 42
0.002506
 10
33.68641
 20
29.170609
 42
0.040804
 10
33.6285
 20
29.155779
 42
0.504338
 10
33.621654
 20
29.133982
 42
0.079988
 10
33.659199
 20
29.096747
 42
0.03816
 10
33.739371
 20
29.048107
 42
0.016855
 10
33.851807
 20
28.995814
 42
-0.03394
 10
33.994814
 20
28.923264
 42
-0.015081
 10
34.173216
 20
28.809544
 42
-0.014848
 10
34.355564
 20
28.67733
 42
-0.01942
 10
34.513584
 20
28.545341
 42
-0.023059
 10
34.661355
 20
28.398917
 42
-0.016624
 10
34.812779
 20
28.222967
 42
-0.016847
 10
34.94582
 20
28.045646
 42
-0.034576
 10
35.035198
 20
27.896835
 42
-0.029404
 10
35.102884
 20
27.742352
 42
-0.016617
 10
35.1674
 20
27.548271
 42
-0.016545
 10
35.219642
 20
27.347542
 42
-0.026014
 10
35.249693
 20
27.171964
 42
-0.029179
 10
35.260311
 20
26.992683
 42
-0.017735
 10
35.252952
 20
26.780413
 42
-0.017748
 10
35.230612
 20
26.569673
 42
-0.029752
 10
35.195137
 20
26.3952
 42
-0.04271
 10
35.123083
 20
26.194982
 42
-0.039508
 10
35.016494
 20
26.004333
 42
-0.033738
 10
34.865343
 20
25.808047
 42
-0.018857
 10
34.657265
 20
25.589724
 42
-0.020939
 10
34.454124
 20
25.407988
 42
-0.023773
 10
34.244641
 20
25.251878
 42
-0.025847
 10
34.044881
 20
25.131807
 42
-0.049882
 10
33.872485
 20
25.060974
 42
-0.018412
 10
33.718653
 20
25.021146
 42
-0.013173
 10
33.544095
 20
24.987542
 42
-0.013329
 10
33.375869
 20
24.96432
 42
-0.027637
 10
33.243545
 20
24.957
 42
-0.046709
 10
33.109798
 20
24.969522
 42
-0.020529
 10
32.936392
 20
25.009713
 42
-0.020106
 10
32.754626
 20
25.067741
 42
-0.025411
 10
32.592128
 20
25.136449
 42
-0.036621
 10
32.432165
 20
25.2289
 42
-0.027556
 10
32.270649
 20
25.352286
 42
-0.027966
 10
32.127411
 20
25.489349
 42
-0.044598
 10
32.023254
 20
25.622899
 42
-0.022751
 10
31.943322
 20
25.76003
 42
-0.016776
 10
31.867072
 20
25.918406
 42
-0.017026
 10
31.805007
 20
26.0733
 42
-0.035969
 10
31.769869
 20
26.197771
 42
-0.046273
 10
31.755574
 20
26.326307
 42
-0.021552
 10
31.759741
 20
26.494129
 42
-0.021137
 10
31.77933
 20
26.671183
 42
-0.027651
 10
31.81291
 20
26.830492
 10
31.911154
 20
27.195343
 10
32.026112
 20
26.858721
 42
0.033939
 10
32.085866
 20
26.716176
 42
0.024573
 10
32.170545
 20
26.566175
 42
0.024978
 10
32.26557
 20
26.431083
 42
0.048485
 10
32.356369
 20
26.335521
 42
0.041744
 10
32.459665
 20
26.260109
 42
0.025259
 10
32.592889
 20
26.187904
 42
0.025207
 10
32.73342
 20
26.129189
 42
0.039998
 10
32.859209
 20
26.094999
 42
0.042858
 10
33.00482
 20
26.080421
 42
0.041965
 10
33.151837
 20
26.090694
 42
0.039986
 10
33.301447
 20
26.126289
 42
0.032402
 10
33.454802
 20
26.187236
 42
0.040654
 10
33.581773
 20
26.260666
 42
0.030615
 10
33.708545
 20
26.360444
 42
0.03131
 10
33.816753
 20
26.469786
 42
0.060156
 10
33.886027
 20
26.571607
 42
0.039159
 10
33.933255
 20
26.683633
 42
0.022669
 10
33.973018
 20
26.824367
 42
0.022556
 10
34.000268
 20
26.970038
 42
0.034971
 10
34.0092
 20
27.097588
 42
0.052242
 10
33.995452
 20
27.22881
 42
0.028755
 10
33.952935
 20
27.384693
 42
0.028284
 10
33.890802
 20
27.54011
 42
0.039051
 10
33.816837
 20
27.670826
 42
0.03004
 10
33.722503
 20
27.794132
 42
0.018095
 10
33.597052
 20
27.928983
 42
0.018094
 10
33.462155
 20
28.054431
 42
0.029996
 10
33.338759
 20
28.148817
 42
0.026492
 10
33.204304
 20
28.229417
 42
0.015343
 10
33.035109
 20
28.31248
 42
0.015308
 10
32.859816
 20
28.385575
 42
0.024787
 10
32.706272
 20
28.435588
 42
0.039652
 10
32.52603
 20
28.469516
 42
0.013983
 10
32.263702
 20
28.49024
 42
0.013652
 10
31.969895
 20
28.497166
 42
0.014604
 10
31.6827
 20
28.487703
 42
0.018512
 10
31.334017
 20
28.453012
 42
0.021288
 10
31.00492
 20
28.393551
 42
0.020777
 10
30.675312
 20
28.304855
 42
0.016165
 10
30.324934
 20
28.182195
 42
0.016395
 10
30.023896
 20
28.054258
 42
0.0207
 10
29.754974
 20
27.915606
 42
0.022974
 10
29.533041
 20
27.775419
 42
0.048567
 10
29.378373
 20
27.64345
 42
0.022563
 10
29.270092
 20
27.520551
 42
0.017975
 10
29.16438
 20
27.378919
 42
0.018327
 10
29.075868
 20
27.240397
 42
0.042875
 10
29.022851
 20
27.129579
 42
0.038419
 10
28.992026
 20
27.023872
 42
0.028445
 10
28.973816
 20
26.903443
 42
0.029014
 10
28.969721
 20
26.78706
 42
0.055825
 10
28.982206
 20
26.694699
 42
0.06124
 10
29.016932
 20
26.604697
 42
0.026671
 10
29.083343
 20
26.494878
 42
0.025906
 10
29.167235
 20
26.384299
 42
0.031323
 10
29.257295
 20
26.290196
 42
0.031022
 10
29.388829
 20
26.18324
 42
0.006828
 10
29.628005
 20
26.017134
 42
0.007078
 10
29.910337
 20
25.832478
 42
0.006753
 10
30.2022
 20
25.652913
 42
-0.009773
 10
30.493805
 20
25.47107
 42
-0.010046
 10
30.775369
 20
25.279588
 42
-0.009834
 10
31.012683
 20
25.104008
 42
-0.041322
 10
31.143613
 20
24.984638
 42
-0.014748
 10
31.235688
 20
24.879543
 42
-0.011879
 10
31.328509
 20
24.761465
 42
-0.012056
 10
31.409059
 20
24.648239
 42
-0.029917
 10
31.460863
 20
24.560712
 42
-0.073476
 10
31.497693
 20
24.452449
 42
-0.015283
 10
31.527912
 20
24.253378
 42
-0.01574
 10
31.548827
 20
24.017969
 42
-0.014285
 10
31.5558
 20
23.77396
 42
-0.016134
 10
31.547348
 20
23.512104
 42
-0.020406
 10
31.521883
 20
23.271246
 42
-0.022374
 10
31.482832
 20
23.069162
 42
-0.06048
 10
31.431939
 20
22.932476
 42
-0.03745
 10
31.365497
 20
22.824619
 42
-0.018265
 10
31.265886
 20
22.697197
 42
-0.018005
 10
31.152073
 20
22.571555
 42
-0.024816
 10
31.040586
 20
22.467875
 42
-0.024844
 10
30.887589
 20
22.351608
 42
-0.005625
 10
30.616227
 20
22.170348
 42
-0.005813
 10
30.298058
 20
21.968191
 42
-0.005614
 10
29.971588
 20
21.771085
 42
0.008718
 10
29.559583
 20
21.518834
 42
0.030781
 10
29.308594
 20
21.336464
 42
0.0484
 10
29.14988
 20
21.17736
 42
0.073047
 10
29.049134
 20
21.009904
 42
0.029152
 10
28.987681
 20
20.834783
 42
0.085528
 10
28.973879
 20
20.708151
 42
0.072055
 10
29.002263
 20
20.572276
 42
0.016671
 10
29.08984
 20
20.354991
 42
0.03596
 10
29.172496
 20
20.199413
 42
0.024079
 10
29.287727
 20
20.033978
 42
0.024284
 10
29.415599
 20
19.883727
 42
0.04319
 10
29.536496
 20
19.775358
 42
0.036388
 10
29.687791
 20
19.678012
 42
0.012555
 10
29.919299
 20
19.55928
 42
0.012399
 10
30.181954
 20
19.440729
 42
0.014067
 10
30.439436
 20
19.340549
 42
0.017761
 10
30.717979
 20
19.252121
 42
0.011557
 10
31.04519
 20
19.168998
 42
0.011626
 10
31.368637
 20
19.102621
 42
0.021624
 10
31.633838
 20
19.066352
 42
0.018111
 10
31.900882
 20
19.05126
 42
0.017488
 10
32.171468
 20
19.055247
 42
0.018275
 10
32.425748
 20
19.077234
 42
0.02817
 10
32.64289
 20
19.116551
 42
0.02893
 10
32.833056
 20
19.173981
 42
0.018354
 10
33.047376
 20
19.261538
 42
0.018428
 10
33.252153
 20
19.36335
 42
0.032178
 10
33.412403
 20
19.464395
 42
0.026205
 10
33.550926
 20
19.576256
 42
0.020821
 10
33.688526
 20
19.710579
 42
0.021277
 10
33.805814
 20
19.846137
 42
0.048405
 10
33.879265
 20
19.959731
 42
0.034822
 10
33.929053
 20
20.075029
 42
0.022546
 10
33.971032
 20
20.21421
 42
0.022667
 10
33.999859
 20
20.354598
 42
0.03932
 10
34.0092
 20
20.4732
 42
0.038939
 10
33.999966
 20
20.591588
 42
0.02267
 10
33.971502
 20
20.731279
 42
0.022569
 10
33.930044
 20
20.869466
 42
0.035177
 10
33.880868
 20
20.983569
 42
0.047307
 10
33.813685
 20
21.087971
 42
0.029774
 10
33.717335
 20
21.196535
 42
0.029774
 10
33.608771
 20
21.292885
 42
0.047307
 10
33.504369
 20
21.360068
 42
0.030381
 10
33.39327
 20
21.409217
 42
0.022045
 10
33.264505
 20
21.450702
 42
0.022395
 10
33.138309
 20
21.479296
 42
0.044537
 10
33.0363
 20
21.4884
 42
0.041878
 10
32.935604
 20
21.479951
 42
0.022585
 10
32.813828
 20
21.453667
 42
0.022341
 10
32.691346
 20
21.415455
 42
0.032552
 10
32.587749
 20
21.370161
 42
0.026011
 10
32.488698
 20
21.312224
 42
0.016706
 10
32.379905
 20
21.235426
 42
0.016792
 10
32.278176
 20
21.152881
 42
0.030005
 10
32.201274
 20
21.077526
 42
0.046659
 10
32.136353
 20
20.990751
 42
0.02462
 10
32.071819
 20
20.872574
 42
0.024274
 10
32.017178
 20
20.744074
 42
0.034265
 10
31.982206
 20
20.624715
 10
31.920964
 20
20.3463
 10
31.816094
 20
20.719321
 42
-0.027053
 10
31.779688
 20
20.882147
 42
-0.020774
 10
31.757084
 20
21.063012
 42
-0.021184
 10
31.750151
 20
21.234392
 42
-0.045911
 10
31.762472
 20
21.365516
 42
-0.037062
 10
31.795531
 20
21.490022
 42
-0.019317
 10
31.853976
 20
21.639705
 42
-0.019103
 10
31.92615
 20
21.789467
 42
-0.027594
 10
32.00201
 20
21.915317
 42
-0.022551
 10
32.090354
 20
22.033299
 42
-0.015466
 10
32.200492
 20
22.159191
 42
-0.015618
 10
32.314339
 20
22.274064
 42
-0.030315
 10
32.413286
 20
22.357074
 42
-0.052401
 10
32.526033
 20
22.423547
 42
-0.024412
 10
32.683886
 20
22.486448
 42
-0.023868
 10
32.857573
 20
22.536891
 42
-0.030681
 10
33.02135
 20
22.565609
 42
-0.018611
 10
33.189929
 20
22.578281
 42
-0.013476
 10
33.378272
 20
22.580325
 42
-0.013646
 10
33.557501
 20
22.572544
 42
-0.0287
 10
33.695654
 20
22.554755
 42
-0.044148
 10
33.834065
 20
22.515899
 42
-0.017634
 10
34.015852
 20
22.439643
 42
-0.017288
 10
34.207237
 20
22.343142
 42
-0.020861
 10
34.379547
 20
22.239078
 42
-0.03216
 10
34.546205
 20
22.112562
 42
-0.02139
 10
34.720748
 20
21.947861
 42
-0.02156
 10
34.877038
 20
21.772696
 42
-0.038847
 10
34.986867
 20
21.614798
 42
-0.032287
 10
35.07198
 20
21.445373
 42
-0.019436
 10
35.151685
 20
21.234973
 42
-0.019427
 10
35.214897
 20
21.018741
 42
-0.031929
 10
35.249333
 20
20.831331
 42
-0.027553
 10
35.26265
 20
20.619544
 42
-0.028649
 10
35.252269
 20
20.410343
 42
-0.02824
 10
35.217761
 20
20.200947
 42
-0.025227
 10
35.158929
 20
19.988567
 42
-0.030009
 10
35.08449
 20
19.802565
 42
-0.018209
 10
34.975623
 20
19.59196
 42
-0.018218
 10
34.851903
 20
19.39014
 42
-0.030403
 10
34.731812
 20
19.231233
 42
-0.029115
 10
34.593929
 20
19.087939
 42
-0.017619
 10
34.415493
 20
18.934198
 42
-0.017626
 10
34.226911
 20
18.793583
 42
-0.029437
 10
34.057857
 20
18.690724
 42
0.009764
 10
33.909524
 20
18.608282
 42
0.014901
 10
33.784498
 20
18.530488
 42
0.009398
 10
33.685282
 20
18.46185
 42
0.241223
 10
33.6708
 20
18.433579
 42
0.334706
 10
33.687849
 20
18.410963
 42
0.011593
 10
33.801269
 20
18.381316
 42
0.017455
 10
33.944683
 20
18.352606
 42
0.010784
 10
34.11495
 20
18.328419
 42
0.0144
 10
34.341521
 20
18.307803
 42
0.004875
 10
34.672238
 20
18.290526
 42
0.004843
 10
35.038327
 20
18.278529
 42
0.005546
 10
35.388399
 20
18.274335
 42
0.013416
 10
35.748331
 20
18.283675
 42
0.010008
 10
36.144425
 20
18.312557
 42
0.010133
 10
36.516888
 20
18.354851
 42
0.022581
 10
36.797556
 20
18.405486
 42
0.024145
 10
37.055486
 20
18.477404
 42
0.014772
 10
37.352293
 20
18.585661
 42
0.014797
 10
37.640553
 20
18.710564
 42
0.02537
 10
37.871756
 20
18.833648
 42
0.01651
 10
38.087516
 20
18.972842
 42
0.01074
 10
38.327658
 20
19.146995
 42
0.010803
 10
38.554915
 20
19.327236
 42
0.020153
 10
38.729578
 20
19.484312
 42
0.025768
 10
38.884258
 20
19.651508
 42
0.016022
 10
39.048754
 20
19.862165
 42
0.016065
 10
39.198082
 20
20.080999
 42
0.02783
 10
39.30572
 20
20.272967
 42
0.026518
 10
39.390519
 20
20.472224
 42
0.01663
 10
39.469276
 20
20.71304
 42
0.016685
 10
39.531171
 20
20.955993
 42
0.029069
 10
39.56387
 20
21.161267
 42
0.025324
 10
39.575862
 20
21.404766
 42
0.035796
 10
39.560034
 20
21.621231
 42
0.034026
 10
39.512535
 20
21.841297
 42
0.020063
 10
39.427708
 20
22.096646
 42
0.026662
 10
39.333718
 20
22.310462
 42
0.025629
 10
39.216386
 20
22.515997
 42
0.026887
 10
39.08675
 20
22.696158
 42
0.04322
 10
38.95594
 20
22.832724
 42
0.033812
 10
38.823059
 20
22.934357
 42
0.024844
 10
38.66353
 20
23.029044
 42
0.025293
 10
38.50286
 20
23.103785
 42
0.049888
 10
38.367909
 20
23.143342
 42
0.028075
 10
38.233022
 20
23.160883
 42
0.01739
 10
38.073317
 20
23.167018
 42
0.01743
 10
37.914693
 20
23.162063
 42
0.029848
 10
37.783382
 20
23.14546
 42
0.048757
 10
37.657558
 20
23.108886
 42
0.028959
 10
37.516044
 20
23.042572
 42
0.02878
 10
37.381295
 20
22.959276
 42
0.043575
 10
37.275782
 20
22.870709
 42
0.040863
 10
37.179593
 20
22.757367
 42
0.050096
 10
37.110385
 20
22.637032
 42
0.052517
 10
37.068852
 20
22.510379
 42
0.053036
 10
37.0548
 20
22.378276
 42
0.047432
 10
37.065907
 20
22.261455
 42
0.042542
 10
37.098913
 20
22.144302
 42
0.044585
 10
37.148578
 20
22.041162
 42
0.074478
 10
37.209511
 20
21.966812
 42
0.036471
 10
37.278175
 20
21.913229
 42
0.032585
 10
37.356458
 20
21.867929
 42
0.034074
 10
37.432386
 20
21.8366
 42
0.080977
 10
37.4925
 20
21.8268
 42
0.091503
 10
37.551632
 20
21.837713
 42
0.039542
 10
37.624223
 20
21.872246
 42
0.037406
 10
37.69774
 20
21.922311
 42
0.040672
 10
37.760788
 20
21.981511
 42
0.028703
 10
37.814373
 20
22.048023
 42
0.029174
 10
37.859671
 20
22.119884
 42
0.030498
 10
37.891405
 20
22.186744
 42
0.095833
 10
37.9008
 20
22.235311
 42
-0.052656
 10
37.904804
 20
22.273222
 42
-0.072502
 10
37.916699
 20
22.305293
 42
-0.092402
 10
37.934268
 20
22.326833
 42
-0.177403
 10
37.954923
 20
22.3344
 42
-0.155757
 10
37.982663
 20
22.325544
 42
-0.027186
 10
38.026162
 20
22.29091
 42
-0.027231
 10
38.074437
 20
22.243036
 42
-0.021457
 10
38.121433
 20
22.18635
 42
-0.073823
 10
38.164846
 20
22.107246
 42
-0.028553
 10
38.201596
 20
21.987363
 42
-0.027514
 10
38.227206
 20
21.85078
 42
-0.030502
 10
38.236509
 20
21.716849
 42
-0.032447
 10
38.228563
 20
21.576361
 42
-0.022673
 10
38.202227
 20
21.419855
 42
-0.022959
 10
38.163092
 20
21.271523
 42
-0.043372
 10
38.116027
 20
21.157207
 42
-0.057662
 10
38.04786
 20
21.055935
 42
-0.031491
 10
37.943419
 20
20.948356
 42
-0.030938
 10
37.822011
 20
20.851104
 42
-0.042638
 10
37.701391
 20
20.780708
 42
-0.031444
 10
37.569138
 20
20.727854
 42
-0.021065
 10
37.412322
 20
20.683574
 42
-0.021247
 10
37.25614
 20
20.65344
 42
-0.038686
 10
37.126614
 20
20.644258
 42
-0.040856
 10
36.993949
 20
20.655993
 42
-0.019761
 10
36.827119
 20
20.691449
 42
-0.01945
 10
36.655188
 20
20.742347
 42
-0.026427
 10
36.5049
 20
20.802298
 42
-0.023914
 10
36.361809
 20
20.876832
 42
-0.01793
 10
36.211645
 20
20.971795
 42
-0.018226
 10
36.076501
 20
21.071619
 42
-0.039072
 10
35.981785
 20
21.15999
 42
-0.027998
 10
35.904465
 20
21.254449
 42
-0.017782
 10
35.824824
 20
21.372265
 42
-0.017857
 10
35.754688
 20
21.493871
 42
-0.031326
 10
35.706835
 20
21.599657
 42
-0.037917
 10
35.672147
 20
21.717456
 42
-0.016288
 10
35.643107
 20
21.878867
 42
-0.016007
 10
35.623204
 20
22.053588
 42
-0.020356
 10
35.6166
 20
22.215725
 42
-0.025911
 10
35.625136
 20
22.380324
 42
-0.01863
 10
35.650985
 20
22.562592
 42
-0.018891
 10
35.688716
 20
22.734623
 42
-0.038116
 10
35.733654
 20
22.865867
 42
-0.043865
 10
35.802128
 20
22.993091
 42
-0.017698
 10
35.91631
 20
23.154111
 42
-0.017352
 10
36.052188
 20
23.319785
 42
-0.021061
 10
36.191089
 20
23.46484
 10
36.531471
 20
23.79158
 10
36.238251
 20
24.04903
 42
-0.027772
 10
36.113993
 20
24.17099
 42
-0.017714
 10
35.982927
 20
24.325409
 42
-0.017794
 10
35.864815
 20
24.486464
 42
-0.031371
 10
35.780816
 20
24.62837
 42
-0.037992
 10
35.717858
 20
24.779042
 42
-0.022395
 10
35.664838
 20
24.966907
 42
-0.022322
 10
35.628492
 20
25.160438
 42
-0.035267
 10
35.6166
 20
25.328822
 42
-0.020268
 10
35.623185
 20
25.491209
 42
-0.015956
 10
35.643032
 20
25.666141
 42
-0.016236
 10
35.67199
 20
25.827704
 42
-0.037874
 10
35.706582
 20
25.945543
 42
-0.037346
 10
35.757163
 20
26.054136
 42
-0.018075
 10
35.836892
 20
26.185143
 42
-0.017814
 10
35.930222
 20
26.316296
 42
-0.024434
 10
36.023832
 20
26.426769
 42
-0.029386
 10
36.130668
 20
26.528358
 42
-0.019394
 10
36.264308
 20
26.632653
 42
-0.019535
 10
36.402651
 20
26.724251
 42
-0.035383
 10
36.523333
 20
26.786319
 42
-0.035502
 10
36.652405
 20
26.83101
 42
-0.018983
 10
36.817034
 20
26.868584
 42
-0.018809
 10
36.988802
 20
26.894335
 42
-0.027807
 10
37.140884
 20
26.9028
 42
-0.030705
 10
37.290981
 20
26.893574
 42
-0.022095
 10
37.456576
 20
26.865665
 42
-0.022431
 10
37.612317
 20
26.8249
 42
-0.044126
 10
37.730666
 20
26.776383
 42
-0.032317
 10
37.833927
 20
26.714224
 42
-0.02253
 10
37.942103
 20
26.631727
 42
-0.02281
 10
38.039067
 20
26.542801
 42
-0.043022
 10
38.107164
 20
26.461459
 42
-0.064851
 10
38.157895
 20
26.364369
 42
-0.028157
 10
38.200415
 20
26.224778
 42
-0.027281
 10
38.229494
 20
26.069238
 42
-0.032581
 10
38.2392
 20
25.920448
 42
-0.033079
 10
38.228396
 20
25.757329
 42
-0.040116
 10
38.196084
 20
25.607536
 42
-0.043568
 10
38.14367
 20
25.476205
 42
-0.057007
 10
38.072815
 20
25.368222
 42
-0.010974
 10
37.983275
 20
25.265417
 42
-0.126565
 10
37.938881
 20
25.236298
 42
-0.423783
 10
37.913357
 20
25.249359
 42
-0.069198
 10
37.903615
 20
25.310507
 42
0.072399
 10
37.893
 20
25.374503
 42
0.03745
 10
37.862575
 20
25.449852
 42
0.03626
 10
37.818947
 20
25.524121
 42
0.045477
 10
37.767857
 20
25.585457
 42
0.05083
 10
37.705419
 20
25.636345
 42
0.038141
 10
37.627814
 20
25.679348
 42
0.039005
 10
37.547634
 20
25.708779
 42
0.068562
 10
37.4778
 20
25.7184
 42
0.068562
 10
37.407966
 20
25.708779
 42
0.039005
 10
37.327786
 20
25.679348
 42
0.038141
 10
37.250181
 20
25.636345
 42
0.05083
 10
37.187743
 20
25.585457
 42
0.075381
 10
37.136756
 20
25.516245
 42
0.038448
 10
37.093852
 20
25.416876
 42
0.037099
 10
37.064595
 20
25.305356
 42
0.045631
 10
37.0548
 20
25.198249
 42
0.061536
 10
37.070274
 20
25.072994
 42
0.051822
 10
37.116055
 20
24.947337
 42
0.047231
 10
37.191647
 20
24.823301
 42
0.035935
 10
37.295871
 20
24.702914
 42
0.043553
 10
37.410962
 20
24.606298
 42
0.028778
 10
37.557918
 20
24.515438
 42
0.028959
 10
37.712233
 20
24.443106
 42
0.048781
 10
37.84942
 20
24.403222
 42
0.040105
 10
38.012179
 20
24.386023
 42
0.037666
 10
38.17911
 20
24.394407
 42
0.034708
 10
38.355124
 20
24.429148
 42
0.025144
 10
38.545223
 20
24.490993
 42
0.035701
 10
38.726277
 20
24.575387
 42
0.03652
 10
38.892041
 20
24.684123
 42
0.036574
 10
39.04
 20
24.815653
 42
0.036037
 10
39.16801
 20
24.967955
 42
0.032352
 10
39.267199
 20
25.125382
 42
0.018426
 10
39.367248
 20
25.326962
 42
0.018344
 10
39.453376
 20
25.538188
 42
0.028768
 10
39.51
 20
25.725901
 42
0.025653
 10
39.545288
 20
25.91536
 42
0.017942
 10
39.566326
 20
26.13161
 42
0.018153
 10
39.571515
 20
26.340844
 42
0.035542
 10
39.557775
 20
26.506889
 42
0.029343
 10
39.521883
 20
26.67342
 42
0.013555
 10
39.456792
 20
26.885296
 42
0.013374
 10
39.376132
 20
27.104959
 42
0.01809
 10
39.290888
 20
27.298523
 42
0.035759
 10
39.172143
 20
27.504717
 42
0.018757
 10
38.997315
 20
27.743744
 42
0.018089
 10
38.791915
 20
27.985055
 42
0.020638
 10
38.578085
 20
28.200074
 42
0.018747
 10
38.35364
 20
28.392761
 42
0.014025
 10
38.09293
 20
28.588446
 42
0.014226
 10
37.836655
 20
28.759065
 42
0.031193
 10
37.629559
 20
28.871279
 42
0.012929
 10
37.429974
 20
28.95763
 42
0.008939
 10
37.200053
 20
29.045384
 42
0.00902
 10
36.975893
 20
29.121836
 42
0.018225
 10
36.79632
 20
29.172348
 42
0.023014
 10
36.597428
 20
29.210957
 42
0.007572
 10
36.301859
 20
29.249772
 42
0.007524
 10
35.972198
 20
29.282976
 42
0.008452
  0
LWPOLYLINE
  5
A28
330
1D
100
AcDbEntity
  8
0
100
AcDbPolyline
 90
       22
 70
     1
 43
0.0
 10
40.274593
 20
29.2716
 42
0.0876
 10
40.240385
 20
29.26556
 42
0.053335
 10
40.203435
 20
29.247434
 42
0.05139
 10
40.169494
 20
29.220801
 42
0.06238
 10
40.144141
 20
29.189332
 42
-0.124535
 10
40.105135
 20
29.151552
 42
-0.019803
 10
40.010095
 20
29.101827
 42
-0.020898
 10
39.890852
 20
29.051322
 42
-0.016941
 10
39.759213
 20
29.00697
 10
39.425129
 20
28.906876
 10
39.854749
 20
28.623938
 42
0.003486
 10
40.021929
 20
28.5155
 42
0.005343
 10
40.168424
 20
28.424113
 42
0.002039
 10
40.295055
 20
28.347691
 42
0.135549
 10
40.319284
 20
28.341
 42
0.386253
 10
40.333301
 20
28.353727
 42
0.005375
 10
40.343943
 20
28.477682
 42
0.011689
 10
40.351689
 20
28.62789
 42
0.007036
 10
40.3542
 20
28.8063
 42
0.016088
 10
40.348459
 20
28.984672
 42
0.026281
 10
40.330815
 20
29.134918
 42
0.024394
 10
40.305784
 20
29.247795
 42
0.338004
  0
LWPOLYLINE
  5
A40
330
1D
100
AcDbEntity
  8
0
100
AcDbPolyline
 90
       26
 70
     1
 43
0.0
 10
7.484927
 20
24.957
 42
0.403073
 10
7.468589
 20
24.941274
 42
0.001115
 10
7.456587
 20
24.607616
 42
0.00527
 10
7.447684
 20
24.223676
 42
0.003162
 10
7.4448
 20
23.767607
 42
0.004845
 10
7.449771
 20
23.254631
 42
0.013722
 10
7.466525
 20
22.897068
 42
0.011908
 10
7.490936
 20
22.64897
 42
0.547107
 10
7.5294
 20
22.6305
 42
0.084841
 10
7.561782
 20
22.659065
 42
0.053423
 10
7.589149
 20
22.701581
 42
0.051839
 10
7.607727
 20
22.750701
 42
0.064592
 10
7.614
 20
22.799054
 42
-0.151343
 10
7.634744
 20
22.866018
 42
-0.013708
 10
7.738883
 20
23.009381
 42
-0.016801
 10
7.876299
 20
23.176135
 42
-0.012351
 10
8.039134
 20
23.35179
 10
8.464267
 20
23.788259
 10
8.128192
 20
24.114408
 42
-0.016946
 10
7.989732
 20
24.258204
 42
-0.013918
 10
7.851615
 20
24.420604
 42
-0.014148
 10
7.733017
 20
24.577052
 42
-0.03579
 10
7.658586
 20
24.698779
 42
0.011457
 10
7.604509
 20
24.797729
 42
0.017243
 10
7.552492
 20
24.881148
 42
0.012206
 10
7.506366
 20
24.946246
 42
0.236763
  0
LWPOLYLINE
  5
A5C
330
1D
100
AcDbEntity
  8
0
100
AcDbPolyline
 90
       18
 70
     1
 43
0.0
 10
40.336756
 20
24.38595
 10
40.3119
 20
24.9993
 10
40.159391
 20
24.719929
 42
-0.032248
 10
40.076552
 20
24.589013
 42
-0.013332
 10
39.948744
 20
24.422725
 42
-0.013126
 10
39.8018
 20
24.251146
 42
-0.016483
 10
39.656454
 20
24.100479
 10
39.306026
 20
23.7604
 10
39.576363
 20
23.548829
 42
-0.036498
 10
39.69655
 20
23.439744
 42
-0.017277
 10
39.835615
 20
23.283176
 42
-0.01702
 10
39.970483
 20
23.108564
 42
-0.023054
 10
40.0793
 20
22.941579
 10
40.3119
 20
22.5459
 10
40.336756
 20
23.15925
 42
0.006379
 10
40.344505
 20
23.438471
 42
0.003747
 10
40.34701
 20
23.7726
 42
0.003747
 10
40.344505
 20
24.106729
 42
0.006379
  0
LWPOLYLINE
  5
A70
330
1D
100
AcDbEntity
  8
0
100
AcDbPolyline
 90
       22
 70
     1
 43
0.0
 10
7.71975
 20
19.100251
 10
7.4448
 20
19.308882
 10
7.4448
 20
18.791241
 42
0.007292
 10
7.447695
 20
18.592762
 42
0.012111
 10
7.456625
 20
18.425657
 42
0.005758
 10
7.468909
 20
18.288198
 42
0.385034
 10
7.485055
 20
18.2736
 42
0.117594
 10
7.511337
 20
18.279868
 42
0.005239
 10
7.594853
 20
18.32321
 42
0.008579
 10
7.693258
 20
18.377781
 42
0.006006
 10
7.802305
 20
18.442484
 42
-0.028503
 10
7.923871
 20
18.507409
 42
-0.023485
 10
8.060061
 20
18.562846
 42
-0.024111
 10
8.19022
 20
18.601886
 42
-0.05648
 10
8.2908
 20
18.615071
 42
0.006917
 10
8.430346
 20
18.619446
 42
0.488862
 10
8.442042
 20
18.635962
 42
0.195854
 10
8.422029
 20
18.660711
 42
0.002698
 10
8.2485
 20
18.755197
 42
-0.014069
 10
8.131611
 20
18.822333
 42
-0.007176
 10
7.988487
 20
18.912832
 42
-0.007124
 10
7.843509
 20
19.010415
 42
-0.010606
  0
LWPOLYLINE
  5
A88
330
1D
100
AcDbEntity
  8
0
100
AcDbPolyline
 90
       22
 70
     1
 43
0.0
 10
40.337558
 20
18.812012
 10
40.3119
 20
19.285008
 10
40.0581
 20
19.087703
 42
-0.012203
 10
39.942482
 20
19.002264
 42
-0.00781
 10
39.8043
 20
18.908462
 42
-0.007847
 10
39.665959
 20
18.820749
 42
-0.01451
 10
39.5505
 20
18.754586
 42
0.002691
 10
39.377009
 20
18.660545
 42
0.196032
 10
39.357017
 20
18.6359
 42
0.489285
 10
39.368665
 20
18.619435
 42
0.006879
 10
39.5082
 20
18.615071
 42
-0.057522
 10
39.609254
 20
18.60161
 42
-0.023927
 10
39.741141
 20
18.561507
 42
-0.023291
 10
39.879753
 20
18.504593
 42
-0.027834
 10
40.004191
 20
18.437925
 42
0.014408
 10
40.115918
 20
18.37415
 42
0.022378
 10
40.21606
 20
18.326378
 42
0.018359
 10
40.297945
 20
18.295215
 42
0.285481
 10
40.325949
 20
18.301749
 42
0.186069
 10
40.339893
 20
18.333187
 42
0.006698
 10
40.344732
 20
18.467012
 42
0.01151
 10
40.344688
 20
18.628062
 42
0.007726
  0
LWPOLYLINE
  5
AA0
330
1D
100
AcDbEntity
  8
0
100
AcDbPolyline
 90
      464
 70
     1
 43
0.0
 10
20.865206
 20
18.694027
 42
0.029424
 10
20.751309
 20
18.686209
 42
0.022506
 10
20.628272
 20
18.664789
 42
0.022968
 10
20.514552
 20
18.634134
 42
0.048771
 10
20.4309
 20
18.598104
 42
0.027238
 10
20.350029
 20
18.547557
 42
0.010586
 10
20.243699
 20
18.469335
 42
0.010443
 10
20.131862
 20
18.379576
 42
0.012742
 10
20.031222
 20
18.290829
 42
0.055432
 10
19.925867
 20
18.168722
 42
0.017146
 10
19.79531
 20
17.963612
 42
0.016916
 10
19.664013
 20
17.722546
 42
0.017833
 10
19.551767
 20
17.477303
 42
0.014908
 10
19.449217
 20
17.20793
 42
0.009886
 10
19.346982
 20
16.893297
 42
0.009955
 10
19.259744
 20
16.583505
 42
0.019051
 10
19.204253
 20
16.331192
 42
0.018699
 10
19.170563
 20
16.093833
 42
0.014311
 10
19.150923
 20
15.832394
 42
0.014532
 10
19.146666
 20
15.586288
 42
0.03286
 10
19.16108
 20
15.400592
 42
0.025671
 10
19.196148
 20
15.222562
 42
0.013003
 10
19.257509
 20
15.002413
 42
0.012881
 10
19.332809
 20
14.777888
 42
0.018732
 10
19.411602
 20
14.584451
 42
0.030532
 10
19.507361
 20
14.402878
 42
0.023181
 10
19.633118
 20
14.216154
 42
0.02366
 10
19.76835
 20
14.05109
 42
0.048181
 10
19.89193
 20
13.938065
 42
0.027268
 10
20.020719
 20
13.851832
 42
0.019964
 10
20.172084
 20
13.770011
 42
0.02028
 10
20.322113
 20
13.703894
 42
0.041479
 10
20.445195
 20
13.666948
 42
0.048497
 10
20.58674
 20
13.651058
 42
0.04968
 10
20.727523
 20
13.66297
 42
0.044413
 10
20.876196
 20
13.704509
 42
0.027638
 10
21.041874
 20
13.777798
 42
0.035964
 10
21.175092
 20
13.858314
 42
0.030298
 10
21.303684
 20
13.961478
 42
0.031392
 10
21.409722
 20
14.070539
 42
0.070378
 10
21.471729
 20
14.167695
 42
0.041173
 10
21.510615
 20
14.275825
 42
0.019826
 10
21.543252
 20
14.419555
 42
0.019508
 10
21.565604
 20
14.573034
 42
0.026408
 10
21.573
 20
14.712972
 42
0.040281
 10
21.560806
 20
14.864091
 42
0.039464
 10
21.52453
 20
15.012374
 42
0.040301
 10
21.466432
 20
15.150031
 42
0.046681
 10
21.389299
 20
15.269519
 42
0.043573
 10
21.295364
 20
15.369625
 42
0.022818
 10
21.162887
 20
15.477737
 42
0.022518
 10
21.015944
 20
15.576937
 42
0.03197
 10
20.876496
 20
15.650401
 42
-0.005248
 10
20.673135
 20
15.744023
 42
-0.135685
 10
20.627699
 20
15.783208
 42
-0.476062
 10
20.637474
 20
15.814894
 42
-0.030326
 10
20.742946
 20
15.850117
 42
-0.027755
 10
20.839644
 20
15.870342
 42
-0.011389
 10
20.97263
 20
15.887445
 42
-0.011228
 10
21.116562
 20
15.899371
 42
-0.014129
 10
21.250243
 20
15.903645
 42
-0.02423
 10
21.386995
 20
15.897522
 42
-0.016853
 10
21.54037
 20
15.877954
 42
-0.017039
 10
21.686621
 20
15.849118
 42
-0.033369
 10
21.800143
 20
15.814565
 42
-0.031747
 10
21.905711
 20
15.766703
 42
-0.018238
 10
22.026618
 20
15.696576
 42
-0.01817
 10
22.143429
 20
15.616935
 42
-0.028754
 10
22.236688
 20
15.539615
 42
-0.027073
 10
22.321912
 20
15.451186
 42
-0.016005
 10
22.414201
 20
15.337247
 42
-0.015989
 10
22.49929
 20
15.217255
 42
-0.026321
 10
22.562398
 20
15.110091
 42
-0.055851
 10
22.611409
 20
14.982977
 42
-0.020765
 10
22.652319
 20
14.795541
 42
-0.020272
 10
22.680365
 20
14.585637
 42
-0.023076
 10
22.68972
 20
14.383054
 42
-0.023416
 10
22.678945
 20
14.1531
 42
-0.02822
 10
22.646609
 20
13.939256
 42
-0.030215
 10
22.59326
 20
13.744147
 42
-0.037115
 10
22.519473
 20
13.570363
 42
-0.026929
 10
22.433929
 20
13.424215
 42
-0.015495
 10
22.316293
 20
13.257466
 42
-0.015452
 10
22.187388
 20
13.096844
 42
-0.024848
 10
22.066863
 20
12.969238
 42
-0.025779
 10
21.935847
 20
12.85601
 42
-0.017156
 10
21.77505
 20
12.739546
 42
-0.017291
 10
21.610783
 20
12.637026
 42
-0.032068
 10
21.469967
 20
12.567388
 42
-0.038259
 10
21.317674
 20
12.517144
 42
-0.018487
 10
21.116561
 20
12.475282
 42
-0.018213
 10
20.902671
 20
12.44692
 42
-0.024897
 10
20.708567
 20
12.438058
 42
-0.028134
 10
20.510612
 20
12.450031
 42
-0.020159
 10
20.291567
 20
12.484701
 42
-0.020433
 10
20.082859
 20
12.535366
 42
-0.03685
 10
19.917769
 20
12.596129
 42
-0.024436
 10
19.763949
 20
12.675273
 42
-0.013736
 10
19.584972
 20
12.785384
 42
-0.013683
 10
19.409955
 20
12.906764
 42
-0.021703
 10
19.267808
 20
13.021039
 42
-0.033594
 10
19.135571
 20
13.153886
 42
-0.018211
 10
18.990643
 20
13.333281
 42
-0.018067
 10
18.855832
 20
13.527416
 42
-0.027141
 10
18.754012
 20
13.70667
 42
0.003556
 10
18.615062
 20
13.980609
 42
0.118624
 10
18.567286
 20
14.035894
 42
0.500941
 10
18.531451
 20
14.024541
 42
0.027786
 10
18.493752
 20
13.893251
 42
0.030828
 10
18.470575
 20
13.751811
 42
0.003933
 10
18.441963
 20
13.444776
 42
0.004593
 10
18.414189
 20
13.079389
 42
0.003809
 10
18.391163
 20
12.69
 42
0.008854
 10
18.374558
 20
12.198022
 42
0.016541
 10
18.381351
 20
11.799605
 42
0.019432
 10
18.412509
 20
11.450372
 42
0.020629
 10
18.470349
 20
11.111585
 42
0.015872
 10
18.536111
 20
10.845266
 42
0.010629
 10
18.627376
 20
10.545015
 42
0.01071
 10
18.72832
 20
10.257605
 42
0.020677
 10
18.823365
 20
10.033133
 42
0.027555
 10
18.940211
 20
9.817701
 42
0.013806
 10
19.109948
 20
9.558445
 42
0.013664
 10
19.300836
 20
9.299158
 42
0.019634
 10
19.484784
 20
9.0813
 42
0.021704
 10
19.705936
 20
8.85947
 42
0.023335
 10
19.940402
 20
8.663235
 42
0.024178
 10
20.183497
 20
8.496261
 42
0.027913
 10
20.430484
 20
8.362069
 42
0.019729
 10
20.70223
 20
8.246396
 42
0.032978
 10
20.939704
 20
8.173704
 42
0.034263
 10
21.178137
 20
8.134586
 42
0.023501
 10
21.45208
 20
8.121667
 42
0.022345
 10
21.725163
 20
8.133841
 42
0.036377
 10
21.954067
 20
8.171242
 42
0.036339
 10
22.175301
 20
8.241457
 42
0.022241
 10
22.424892
 20
8.35425
 42
0.026656
 10
22.620806
 20
8.467001
 42
0.024899
 10
22.8083
 20
8.602362
 42
0.026141
 10
22.967288
 20
8.743889
 42
0.051562
 10
23.074562
 20
8.874361
 42
0.039054
 10
23.160685
 20
9.029406
 42
0.041401
 10
23.219703
 20
9.193011
 42
0.038672
 10
23.253742
 20
9.373753
 42
0.027218
 10
23.265
 20
9.580408
 42
0.027845
 10
23.254825
 20
9.76297
 42
0.025463
 10
23.22439
 20
9.948887
 42
0.026652
 10
23.178657
 20
10.116429
 42
0.053501
 10
23.121978
 20
10.241111
 42
0.045153
 10
23.050165
 20
10.340897
 42
0.030983
 10
22.952413
 20
10.440503
 42
0.031306
 10
22.84536
 20
10.525362
 42
0.053794
 10
22.745577
 20
10.579897
 42
0.042197
 10
22.630485
 20
10.616556
 42
0.045018
 10
22.513351
 20
10.63235
 42
0.045645
 10
22.396773
 20
10.626847
 42
0.04587
 10
22.283329
 20
10.600276
 42
0.053451
 10
22.190939
 20
10.558066
 42
0.043572
 10
22.10254
 20
10.494631
 42
0.045234
 10
22.030847
 20
10.420822
 42
0.081716
 10
21.98927
 20
10.347764
 42
0.067343
 10
21.969938
 20
10.261245
 42
0.063371
 10
21.973668
 20
10.170827
 42
0.060144
 10
22.00055
 20
10.080063
 42
0.050774
 10
22.049438
 20
9.992571
 42
0.06047
 10
22.111119
 20
9.923897
 42
0.047398
 10
22.192477
 20
9.865387
 42
0.048725
 10
22.280123
 20
9.825045
 42
0.08007
 10
22.360347
 20
9.810927
 42
-0.02439
 10
22.468667
 20
9.804074
 42
-0.452313
 10
22.486095
 20
9.779101
 42
-0.148444
 10
22.460332
 20
9.735629
 42
-0.004888
 10
22.308532
 20
9.599427
 42
-0.03931
 10
22.201842
 20
9.519502
 42
-0.033012
 10
22.077692
 20
9.451943
 42
-0.034283
 10
21.955412
 20
9.405382
 42
-0.073954
 10
21.856018
 20
9.3906
 42
-0.047385
 10
21.752602
 20
9.400423
 42
-0.01992
 10
21.616396
 20
9.432204
 42
-0.019496
 10
21.472449
 20
9.478006
 42
-0.02401
 10
21.342403
 20
9.532232
 42
-0.046324
 10
21.201002
 20
9.616158
 42
-0.047655
 10
21.078925
 20
9.723979
 42
-0.045509
 10
20.97492
 20
9.857674
 42
-0.035979
 10
20.887326
 20
10.018682
 42
-0.020177
 10
20.827374
 20
10.166216
 42
-0.017806
 10
20.77672
 20
10.324338
 42
-0.018168
 10
20.741324
 20
10.47019
 42
-0.05048
 10
20.730716
 20
10.575
 42
-0.05044
 10
20.741314
 20
10.679784
 42
-0.018177
 10
20.776663
 20
10.825535
 42
-0.017815
 10
20.827255
 20
10.983517
 42
-0.020201
 10
20.887132
 20
11.130885
 42
-0.038284
 10
20.970275
 20
11.282047
 42
-0.021546
 10
21.092453
 20
11.452292
 42
-0.0214
 10
21.231374
 20
11.614454
 42
-0.032579
 10
21.366449
 20
11.741432
 42
-0.032804
 10
21.526423
 20
11.856557
 42
-0.031213
 10
21.702691
 20
11.951893
 42
-0.031937
 10
21.884903
 20
12.022471
 42
-0.039231
 10
22.062595
 20
12.063565
 42
-0.030608
 10
22.235239
 20
12.078737
 42
-0.022736
 10
22.426675
 20
12.075098
 42
-0.022912
 10
22.614623
 20
12.054284
 42
-0.03376
 10
22.776494
 20
12.017475
 42
-0.049086
 10
22.934997
 20
11.952471
 42
-0.020799
 10
23.133592
 20
11.83641
 42
-0.02034
 10
23.336949
 20
11.693933
 42
-0.025056
 10
23.513782
 20
11.544407
 10
23.910417
 20
11.173401
 10
24.198559
 20
11.478887
 42
-0.027602
 10
24.333692
 20
11.607174
 42
-0.018119
 10
24.502199
 20
11.740125
 42
-0.018243
 10
24.676232
 20
11.857985
 42
-0.033115
 10
24.827601
 20
11.939228
 42
-0.027363
 10
24.979765
 20
11.998541
 42
-0.019625
 10
25.15534
 20
12.048595
 42
-0.019902
 10
25.326788
 20
12.083113
 42
-0.03974
 10
25.4646
 20
12.094084
 42
-0.039825
 10
25.602479
 20
12.083085
 42
-0.019894
 10
25.774154
 20
12.048464
 42
-0.019613
 10
25.950051
 20
11.998264
 42
-0.027294
 10
26.1026
 20
11.93878
 42
-0.032868
 10
26.250059
 20
11.859732
 42
-0.02097
 10
26.410726
 20
11.749877
 42
-0.021059
 10
26.559836
 20
11.628364
 42
-0.036367
 10
26.671425
 20
11.513792
 42
-0.033488
 10
26.764912
 20
11.386257
 42
-0.020611
 10
26.858153
 20
11.225052
 42
-0.020635
 10
26.937544
 20
11.057247
 42
-0.034416
 10
26.988436
 20
10.909553
 42
-0.029123
 10
27.023627
 20
10.740135
 42
-0.035254
 10
27.035966
 20
10.578296
 42
-0.035743
 10
27.025411
 20
10.418223
 42
-0.031444
 10
26.992116
 20
10.254114
 42
-0.031047
 10
26.94597
 20
10.117209
 42
-0.022526
 10
26.878576
 20
9.971119
 42
-0.022888
 10
26.801681
 20
9.837762
 42
-0.045335
 10
26.726931
 20
9.741332
 42
-0.031181
 10
26.643243
 20
9.66204
 42
-0.021365
 10
26.539309
 20
9.582476
 42
-0.021593
 10
26.432168
 20
9.514185
 42
-0.040262
 10
26.339269
 20
9.470017
 42
-0.026083
 10
26.24464
 20
9.439584
 42
-0.01694
 10
26.13262
 20
9.413929
 42
-0.017041
 10
26.021254
 20
9.396279
 42
-0.030785
 10
25.92911
 20
9.3906
 42
-0.077562
 10
25.835127
 20
9.405267
 42
-0.033687
 10
25.717233
 20
9.451943
 42
-0.032311
 10
25.596141
 20
9.519505
 42
-0.037016
 10
25.490468
 20
9.599427
 42
-0.006186
 10
25.347784
 20
9.72812
 42
-0.133525
 10
25.318039
 20
9.775664
 42
-0.451779
 10
25.334697
 20
9.802526
 42
-0.037924
 10
25.42653
 20
9.810927
 42
0.049529
 10
25.500378
 20
9.819411
 42
0.037234
 10
25.578836
 20
9.842636
 42
0.038094
 10
25.650037
 20
9.876015
 42
0.06782
 10
25.70148
 20
9.91512
 42
0.074082
 10
25.740409
 20
9.96768
 42
0.038586
 10
25.773179
 20
10.042567
 42
0.037318
 10
25.795522
 20
10.126311
 42
0.046568
 10
25.803
 20
10.206423
 42
0.082957
 10
25.78925
 20
10.288729
 42
0.049578
 10
25.747768
 20
10.379143
 42
0.047979
 10
25.686911
 20
10.463474
 42
0.059769
 10
25.614976
 20
10.527903
 42
0.034305
 10
25.531333
 20
10.578318
 42
0.027751
 10
25.435526
 20
10.620914
 42
0.028567
 10
25.342358
 20
10.650323
 42
0.062239
 10
25.268116
 20
10.6596
 42
0.114512
 10
25.188188
 20
10.641051
 42
0.029073
 10
25.071444
 20
10.575106
 42
0.0281
 10
24.943422
 20
10.482056
 42
0.025183
 10
24.82164
 20
10.37196
 42
0.025863
 10
24.662188
 20
10.1951
 42
0.078977
 10
24.581529
 20
10.055633
 42
0.072403
 10
24.544415
 20
9.891334
 42
0.019405
 10
24.534
 20
9.623071
 42
0.02266
 10
24.544532
 20
9.390807
 42
0.039632
 10
24.577063
 20
9.20112
 42
0.044506
 10
24.63553
 20
9.034796
 42
0.039551
 10
24.724438
 20
8.874361
 42
0.051562
 10
24.831712
 20
8.743889
 42
0.026141
 10
24.9907
 20
8.602362
 42
0.024899
 10
25.178194
 20
8.467001
 42
0.026656
 10
25.374108
 20
8.35425
 42
0.02226
 10
25.624891
 20
8.240929
 42
0.036745
 10
25.846455
 20
8.170825
 42
0.036542
 10
26.076766
 20
8.133675
 42
0.021723
 10
26.354558
 20
8.1216
 42
0.022612
 10
26.639525
 20
8.134494
 42
0.038358
 10
26.874833
 20
8.174187
 42
0.036521
 10
27.109093
 20
8.250988
 42
0.018402
 10
27.39237
 20
8.379746
 42
0.027241
 10
27.633447
 20
8.5171
 42
0.020455
 10
27.883202
 20
8.692871
 42
0.020181
 10
28.122043
 20
8.891816
 42
0.023869
 10
28.330433
 20
9.099044
 42
0.02026
 10
28.508162
 20
9.310072
 42
0.013741
 10
28.693816
 20
9.563658
 42
0.013862
 10
28.859854
 20
9.818889
 42
0.026795
 10
28.975635
 20
10.033133
 42
0.020651
 10
29.070694
 20
10.257605
 42
0.010695
 10
29.171681
 20
10.545015
 42
0.010615
 10
29.263007
 20
10.845266
 42
0.01585
 10
29.328844
 20
11.111585
 42
0.020536
 10
29.387058
 20
11.451561
 42
0.0199
 10
29.417944
 20
11.798753
 42
0.016862
 10
29.423977
 20
12.195351
 42
0.008767
 10
29.40614
 20
12.69
 42
0.003685
 10
29.382342
 20
13.079977
 42
0.004399
 10
29.35397
 20
13.447151
 42
0.003811
 10
29.324987
 20
13.756108
 42
0.02855
 10
29.301813
 20
13.901334
 10
29.249664
 20
14.139768
 10
29.102561
 20
13.811203
 42
-0.027014
 10
29.025853
 20
13.662032
 42
-0.0139
 10
28.914815
 20
13.483649
 42
-0.013775
 10
28.790051
 20
13.305945
 42
-0.020217
 10
28.669995
 20
13.157514
 42
-0.034294
 10
28.530127
 20
13.018676
 42
-0.01955
 10
28.343949
 20
12.869947
 42
-0.019456
 10
28.143929
 20
12.734265
 42
-0.030339
 10
27.960916
 20
12.635121
 42
-0.026781
 10
27.750734
 20
12.550619
 42
-0.026246
 10
27.531315
 20
12.488417
 42
-0.026533
 10
27.309067
 20
12.450106
 42
-0.028959
 10
27.090433
 20
12.437026
 42
-0.024757
 10
26.89633
 20
12.446283
 42
-0.018104
 10
26.682439
 20
12.474979
 42
-0.018375
 10
26.481324
 20
12.517071
 42
-0.03804
 10
26.329033
 20
12.567388
 42
-0.032068
 10
26.188217
 20
12.637026
 42
-0.017291
 10
26.02395
 20
12.739546
 42
-0.017156
 10
25.863153
 20
12.85601
 42
-0.025779
 10
25.732137
 20
12.969238
 42
-0.025195
 10
25.611262
 20
13.097392
 42
-0.015378
 10
25.481257
 20
13.259798
 42
-0.015399
 10
25.362052
 20
13.429092
 42
-0.026257
 10
25.27459
 20
13.5783
 42
-0.035605
 10
25.198902
 20
13.754119
 42
-0.030109
 10
25.143896
 20
13.948976
 42
-0.028586
 10
25.11041
 20
14.159447
 42
-0.025016
 10
25.099141
 20
14.382
 42
-0.024446
 10
25.108705
 20
14.579832
 42
-0.021177
 10
25.137607
 20
14.785609
 42
-0.021813
 10
25.180104
 20
14.970854
 42
-0.053073
 10
25.231399
 20
15.1011
 42
-0.025435
 10
25.296524
 20
15.211723
 42
-0.01588
 10
25.383271
 20
15.334606
 42
-0.015928
 10
25.476724
 20
15.450572
 42
-0.027735
 10
25.562312
 20
15.539615
 42
-0.028754
 10
25.655571
 20
15.616935
 42
-0.01817
 10
25.772382
 20
15.696576
 42
-0.018238
 10
25.893289
 20
15.766703
 42
-0.031747
 10
25.998857
 20
15.814565
 42
-0.036591
 10
26.115142
 20
15.849142
 42
-0.016703
 10
26.271056
 20
15.877913
 42
-0.016438
 10
26.438071
 20
15.897407
 42
-0.021749
 10
26.591057
 20
15.903505
 42
-0.01796
 10
26.734773
 20
15.897814
 42
-0.019478
 10
26.873841
 20
15.881829
 42
-0.019378
 10
26.991273
 20
15.858982
 42
-0.083749
 10
27.056559
 20
15.831533
 42
-0.155335
 10
27.089365
 20
15.792385
 42
-0.278457
 10
27.083149
 20
15.752312
 42
-0.101848
 10
27.027179
 20
15.707899
 42
-0.01877
 10
26.906796
 20
15.652655
 42
0.041494
 10
26.791588
 20
15.593314
 42
0.022676
 10
26.660683
 20
15.503001
 42
0.022453
 10
26.535159
 20
15.398519
 42
0.033068
 10
26.435787
 20
15.295136
 42
0.039804
 10
26.34106
 20
15.162431
 42
0.04911
 10
26.27604
 20
15.025116
 42
0.048541
 10
26.238534
 20
14.876427
 42
0.037538
 10
26.226
 20
14.709708
 42
0.02999
 10
26.234743
 20
14.564081
 42
0.02198
 10
26.261157
 20
14.404344
 42
0.022348
 10
26.299741
 20
14.254809
 42
0.045041
 10
26.345682
 20
14.142157
 42
0.042328
 10
26.405962
 20
14.046404
 42
0.030244
 10
26.488244
 20
13.950079
 42
0.030723
 10
26.578575
 20
13.867272
 42
0.055645
 10
26.662932
 20
13.813276
 42
0.013069
 10
26.751977
 20
13.772216
 42
0.008561
 10
26.856556
 20
13.729374
 42
0.008614
 10
26.959936
 20
13.691115
 42
0.016323
 10
27.04464
 20
13.664487
 42
0.079677
 10
27.137569
 20
13.653948
 42
0.02925
 10
27.269366
 20
13.667782
 42
0.028106
 10
27.414168
 20
13.700049
 42
0.030091
 10
27.551085
 20
13.747808
 42
0.021472
 10
27.688008
 20
13.812054
 42
0.016128
 10
27.83296
 20
13.893878
 42
0.01638
 10
27.964534
 20
13.979878
 42
0.035644
 10
28.058058
 20
14.055962
 42
0.049732
 10
28.141722
 20
14.151887
 42
0.017195
 10
28.24311
 20
14.305478
 42
0.016889
 10
28.343944
 20
14.483526
 42
0.018818
 10
28.428702
 20
14.661761
 42
0.027535
 10
28.514233
 20
14.895204
 42
0.029262
 10
28.571581
 20
15.131973
 42
0.02695
 10
28.604117
 20
15.390398
 42
0.017771
 10
28.614844
 20
15.689787
 42
0.014123
 10
28.607685
 20
15.945749
 42
0.01111
 10
28.585948
 20
16.22234
 42
0.011268
 10
28.554213
 20
16.478655
 42
0.027041
 10
28.516238
 20
16.6662
 42
0.010538
 10
28.465763
 20
16.845145
 42
0.005114
 10
28.394115
 20
17.071751
 42
0.00507
 10
28.314677
 20
17.306271
 42
0.007282
 10
28.239203
 20
17.5122
 42
0.020464
 10
28.15487
 20
17.707952
 42
0.016424
 10
28.048821
 20
17.911378
 42
0.016728
 10
27.938167
 20
18.093142
 42
0.040056
 10
27.84142
 20
18.217703
 42
0.022539
 10
27.740694
 20
18.318406
 42
0.015971
 10
27.619277
 20
18.422404
 42
0.016164
 10
27.496675
 20
18.514454
 42
0.032577
 10
27.393451
 20
18.577253
 42
0.036611
 10
27.287702
 20
18.622993
 42
0.022834
 10
27.158233
 20
18.661542
 42
0.022874
 10
27.026396
 20
18.68799
 42
0.03808
 10
26.913509
 20
18.6966
 42
0.062575
 10
26.790094
 20
18.681094
 42
0.051206
 10
26.665175
 20
18.63517
 42
0.046739
 10
26.541757
 20
18.559836
 42
0.036348
 10
26.422858
 20
18.456787
 42
0.036556
 10
26.308639
 20
18.324157
 42
0.01121
 10
26.15593
 20
18.108181
 42
0.011153
 10
25.995312
 20
17.857996
 42
0.011993
 10
25.850006
 20
17.606804
 42
-0.010818
 10
25.701962
 20
17.349486
 42
-0.008859
 10
25.533006
 20
17.080857
 42
-0.008971
 10
25.368789
 20
16.839321
 42
-0.02323
 10
25.239449
 20
16.673182
 42
-0.02592
 10
25.1122
 20
16.539239
 42
-0.019139
 10
24.958572
 20
16.404246
 42
-0.019447
 10
24.803141
 20
16.28761
 42
-0.040473
 10
24.672058
 20
16.211865
 42
-0.045804
 10
24.526387
 20
16.15844
 42
-0.020567
 10
24.327222
 20
16.114143
 42
-0.020039
 10
24.109783
 20
16.084023
 42
-0.024398
 10
23.904494
 20
16.074
 42
-0.023976
 10
23.678011
 20
16.084866
 42
-0.02769
 10
23.464393
 20
16.117425
 42
-0.02944
 10
23.268404
 20
16.170714
 42
-0.036867
 10
23.094776
 20
16.243722
 42
-0.047756
 10
22.94383
 20
16.339875
 42
-0.020807
 10
22.762521
 20
16.493905
 42
-0.020365
 10
22.582066
 20
16.674781
 42
-0.025549
 10
22.43087
 20
16.857072
 42
-0.010759
 10
22.290707
 20
17.053479
 42
-0.007878
 10
22.143367
 20
17.277122
 42
-0.007966
 10
22.010482
 20
17.493447
 42
-0.017433
 10
21.917259
 20
17.664062
 42
0.022896
 10
21.825715
 20
17.827343
 42
0.01255
 10
21.699653
 20
18.018972
 42
0.012487
 10
21.561635
 20
18.207498
 42
0.019452
 10
21.432592
 20
18.362012
 42
0.02144
 10
21.27125
 20
18.525895
 42
0.055281
 10
21.138214
 20
18.624923
 42
0.07197
 10
21.009518
 20
18.677186
 42
0.063023
  0
LWPOLYLINE
  5
C72
330
1D
100
AcDbEntity
  8
0
100
AcDbPolyline
 90
      230
 70
     1
 43
0.0
 10
7.63515
 20
18.149403
 10
7.4448
 20
18.200402
 10
7.4448
 20
12.780301
 10
7.4448
 20
7.3602
 10
12.868371
 20
7.3602
 10
18.291943
 20
7.3602
 10
18.233769
 20
7.59285
 42
0.041748
 10
18.185491
 20
7.734501
 42
0.004354
 10
18.041957
 20
8.055374
 42
0.005379
 10
17.863227
 20
8.434928
 42
0.004283
 10
17.662483
 20
8.8407
 42
-0.006848
 10
17.387403
 20
9.403982
 42
-0.025291
 10
17.236925
 20
9.770041
 42
-0.036501
 10
17.153869
 20
10.074311
 42
-0.030261
 10
17.109332
 20
10.407191
 42
-0.021017
 10
17.101069
 20
10.678235
 42
-0.019572
 10
17.115141
 20
10.955573
 42
-0.019534
 10
17.15091
 20
11.231535
 42
-0.020712
 10
17.207628
 20
11.498459
 42
0.008932
 10
17.257474
 20
11.708566
 42
0.013623
 10
17.292467
 20
11.892679
 42
0.00813
 10
17.314685
 20
12.045557
 42
0.232419
 10
17.302182
 20
12.082218
 42
0.176285
 10
17.285672
 20
12.089918
 42
0.255709
 10
17.271261
 20
12.083599
 42
0.122683
 10
17.261413
 20
12.061108
 42
0.042164
 10
17.2584
 20
12.025437
 42
-0.192511
 10
17.237334
 20
11.97275
 42
-0.021077
 10
17.141704
 20
11.880408
 42
-0.023345
 10
17.013301
 20
11.776767
 42
-0.016809
 10
16.861137
 20
11.672937
 42
-0.015423
 10
16.698147
 20
11.576488
 42
-0.017769
 10
16.536923
 20
11.495006
 42
-0.017075
 10
16.39662
 20
11.435973
 42
-0.091283
 10
16.315288
 20
11.421
 42
-0.149243
 10
16.248485
 20
11.441394
 42
-0.293181
 10
16.227318
 20
11.490385
 42
-0.072807
 10
16.260084
 20
11.593411
 42
-0.006329
 10
16.383969
 20
11.839774
 42
0.0349
 10
16.489431
 20
12.083209
 42
0.022734
 10
16.578117
 20
12.376554
 42
0.018806
 10
16.654338
 20
12.73325
 42
0.010499
 10
16.721543
 20
13.172224
 42
-0.007015
 10
16.779614
 20
13.570044
 42
-0.005119
 10
16.854849
 20
14.010403
 42
-0.005172
 10
16.934774
 20
14.426443
 42
-0.01135
 10
17.006409
 20
14.742566
 42
-0.021764
 10
17.100181
 20
15.05788
 42
-0.009167
 10
17.252212
 20
15.473189
 42
-0.009049
 10
17.431142
 20
15.911786
 42
-0.011655
 10
17.612104
 20
16.307666
 42
0.000888
 10
17.783339
 20
16.66189
 42
0.001303
 10
17.932579
 20
16.974099
 42
0.00061
 10
18.058675
 20
17.240503
 42
0.024046
 10
18.083615
 20
17.3007
 42
0.790699
 10
18.070824
 20
17.309033
 42
0.002169
 10
17.826701
 20
17.074659
 42
0.004722
 10
17.527804
 20
16.779675
 42
0.002576
 10
17.166364
 20
16.4124
 42
0.004174
 10
16.770603
 20
15.999237
 42
0.003691
 10
16.365087
 20
15.562336
 42
0.003708
 10
16.005561
 20
15.163299
 42
0.011262
 10
15.769321
 20
14.884764
 42
0.009326
 10
15.575148
 20
14.635732
 42
0.006325
 10
15.362965
 20
14.345294
 42
0.006374
 10
15.165096
 20
14.059486
 42
0.01267
 10
15.017079
 20
13.827264
 42
0.018403
 10
14.889015
 20
13.59578
 42
0.011265
 10
14.75441
 20
13.314249
 42
0.011287
 10
14.633542
 20
13.029075
 42
0.019662
 10
14.548127
 20
12.786839
 42
0.015899
 10
14.484518
 20
12.555093
 42
0.012939
 10
14.4308
 20
12.303318
 42
0.013142
 10
14.393405
 20
12.068689
 42
0.032953
 10
14.382
 20
11.895825
 42
0.024569
 10
14.390131
 20
11.730452
 42
0.01233
 10
14.415783
 20
11.522811
 42
0.012212
 10
14.452945
 20
11.308887
 42
0.017671
 10
14.497006
 20
11.122187
 42
0.004119
 10
14.54597
 20
10.94887
 42
0.004068
 10
14.597982
 20
10.775657
 42
0.003998
 10
14.645968
 20
10.624733
 42
0.015614
 10
14.679257
 20
10.5327
 42
-0.067032
 10
14.695824
 20
10.466277
 42
-0.567732
 10
14.676119
 20
10.451339
 42
-0.084909
 10
14.616081
 20
10.488435
 42
-0.006753
 10
14.477145
 20
10.614379
 42
-0.038176
 10
14.356184
 20
10.745639
 42
-0.015949
 10
14.213094
 20
10.939284
 42
-0.015671
 10
14.072437
 20
11.157218
 42
-0.0196
 10
13.956494
 20
11.368141
 42
-0.01742
 10
13.860305
 20
11.578668
 42
-0.017426
 10
13.779018
 20
11.795354
 42
-0.017546
 10
13.721442
 20
11.989032
 42
-0.063551
 10
13.7052
 20
12.116305
 42
0.030049
 10
13.699533
 20
12.210507
 42
0.073373
 10
13.681264
 20
12.277394
 42
0.152065
 10
13.65357
 20
12.309292
 42
0.284204
 10
13.6206
 20
12.3093
 42
0.097275
 10
13.588193
 20
12.27926
 42
0.05255
 10
13.560851
 20
12.231984
 42
0.049542
 10
13.542275
 20
12.17599
 42
0.055388
 10
13.536
 20
12.119517
 42
-0.070326
 10
13.525347
 20
12.044149
 42
-0.014294
 10
13.484165
 20
11.915333
 42
-0.014808
 10
13.427091
 20
11.767141
 42
-0.013401
 10
13.359539
 20
11.617501
 42
-0.029813
 10
13.274362
 20
11.465386
 42
-0.022828
 10
13.164257
 20
11.309747
 42
-0.023303
 10
13.047348
 20
11.173165
 42
-0.049409
 10
12.942545
 20
11.081706
 42
-0.052099
 10
12.798096
 20
11.000019
 42
-0.01012
 10
12.520722
 20
10.885896
 42
-0.010657
 10
12.190324
 20
10.765748
 42
-0.009674
 10
11.844323
 20
10.655632
 42
0.011526
 10
11.483799
 20
10.53942
 42
0.009876
 10
11.10978
 20
10.400927
 42
0.009991
 10
10.774933
 20
10.261575
 42
0.027887
 10
10.548167
 20
10.146356
 42
0.003556
 10
10.366278
 20
10.039056
 42
0.003355
 10
10.182345
 20
9.927094
 42
0.003334
 10
10.020743
 20
9.825738
 42
0.011658
 10
9.918536
 20
9.757281
 42
-0.128868
 10
9.858213
 20
9.734771
 42
-0.561529
 10
9.839936
 20
9.758897
 42
-0.048498
 10
9.898196
 20
9.87305
 42
-0.004987
 10
10.063938
 20
10.126693
 42
0.015878
 10
10.204956
 20
10.353118
 42
0.011002
 10
10.350435
 20
10.617364
 42
0.011107
 10
10.479074
 20
10.877631
 42
0.022329
 10
10.566622
 20
11.089302
 42
0.00626
 10
10.642489
 20
11.307228
 42
0.003031
 10
10.734345
 20
11.587767
 42
0.003005
 10
10.826517
 20
11.8812
 42
0.00432
 10
10.904324
 20
12.142216
 42
-0.01822
 10
10.993803
 20
12.414504
 42
-0.027287
 10
11.093212
 20
12.644168
 42
-0.031701
 10
11.200929
 20
12.829521
 42
-0.054302
 10
11.315783
 20
12.966347
 42
-0.044853
 10
11.440139
 20
13.06575
 42
-0.019633
 10
11.620737
 20
13.175344
 42
-0.019243
 10
11.822836
 20
13.277416
 42
-0.024373
 10
12.017079
 20
13.355105
 10
12.4785
 20
13.514048
 10
12.0978
 20
13.617346
 42
-0.020026
 10
11.923558
 20
13.672203
 42
-0.010695
 10
11.712696
 20
13.753126
 42
-0.010631
 10
11.500609
 20
13.845075
 42
-0.016294
 10
11.321407
 20
13.934517
 42
-0.018473
 10
11.153619
 20
14.033382
 42
-0.013922
 10
10.976602
 20
14.153771
 42
-0.014126
 10
10.816375
 20
14.276423
 42
-0.031317
 10
10.703256
 20
14.380585
 10
10.480798
 20
14.612781
 10
10.972049
 20
14.446228
 42
0.023245
 10
11.248554
 20
14.3666
 42
0.031049
 10
11.505843
 20
14.321949
 42
0.027276
 10
11.79116
 20
14.306179
 42
0.013051
 10
12.158235
 20
14.315514
 42
0.015622
 10
12.562773
 20
14.349072
 42
0.038825
 10
12.854214
 20
14.405612
 42
0.036201
 10
13.145036
 20
14.509009
 42
0.012091
 10
13.554135
 20
14.700682
 42
0.016294
 10
13.865511
 20
14.868737
 42
0.009874
 10
14.22315
 20
15.086656
 42
0.009889
 10
14.569936
 20
15.31723
 42
0.017132
 10
14.8473
 20
15.524089
 42
0.012294
 10
15.141419
 20
15.771648
 42
0.004239
 10
15.554566
 20
16.143408
 42
0.004209
 10
16.003294
 20
16.561118
 42
0.00487
 10
16.423414
 20
16.966683
 42
0.003412
 10
16.795721
 20
17.3382
 42
0.006021
 10
17.097285
 20
17.650698
 42
0.002076
 10
17.344471
 20
17.915291
 42
0.65447
 10
17.335776
 20
17.9352
 42
0.109147
 10
17.288132
 20
17.924674
 42
0.004309
 10
17.125803
 20
17.847561
 42
0.007446
 10
16.934602
 20
17.75116
 42
0.005176
 10
16.72145
 20
17.636854
 42
-0.013914
 10
16.463034
 20
17.504035
 42
-0.007002
 10
16.130144
 20
17.350181
 42
-0.006947
 10
15.781346
 20
17.200637
 42
-0.010233
 10
15.470688
 20
17.079903
 42
-0.018909
 10
15.110688
 20
16.963633
 42
-0.012753
 10
14.692257
 20
16.857199
 42
-0.012168
 10
14.24316
 20
16.766518
 42
-0.012137
 10
13.7898
 20
16.697706
 42
0.005974
 10
13.385724
 20
16.641461
 42
0.005676
 10
12.976136
 20
16.574686
 42
0.005643
 10
12.615361
 20
16.507452
 42
0.019918
 10
12.386082
 20
16.452469
 42
0.020947
 10
12.204656
 20
16.392934
 42
0.017066
 10
12.015772
 20
16.314607
 42
0.017398
 10
11.846641
 20
16.230386
 42
0.042451
 10
11.730432
 20
16.153972
 42
-0.009986
 10
11.603735
 20
16.058345
 42
-0.11353
 10
11.546353
 20
16.034052
 42
-0.367303
 10
11.516271
 20
16.051662
 42
-0.084492
 10
11.5056
 20
16.114361
 42
-0.062754
 10
11.514501
 20
16.185005
 42
-0.018077
 10
11.545714
 20
16.29082
 42
-0.017881
 10
11.589887
 20
16.408624
 42
-0.01816
 10
11.642158
 20
16.522351
 42
-0.023213
 10
11.710132
 20
16.642865
 42
-0.013304
 10
11.802543
 20
16.781908
 42
-0.01327
 10
11.903094
 20
16.917037
 42
-0.021473
 10
11.996386
 20
17.02575
 42
0.010238
 10
12.076574
 20
17.115054
 42
0.019916
 10
12.136165
 20
17.190059
 42
0.021322
 10
12.173535
 20
17.246005
 42
0.58493
 10
12.166564
 20
17.2584
 42
0.073471
 10
12.134289
 20
17.253632
 42
0.003153
 10
12.024281
 20
17.219643
 42
0.005334
 10
11.89416
 20
17.177008
 42
0.003768
 10
11.748886
 20
17.126461
 42
-0.036559
 10
11.564114
 20
17.075465
 42
-0.015745
 10
11.311829
 20
17.033529
 42
-0.015396
 10
11.037316
 20
17.005309
 42
-0.018727
 10
10.778986
 20
16.996471
 42
-0.013187
 10
10.531321
 20
17.003809
 42
-0.012983
 10
10.283091
 20
17.024199
 42
-0.012959
 10
10.066736
 20
17.05333
 42
-0.047424
 10
9.932986
 20
17.088128
 42
-0.019358
 10
9.78685
 20
17.14786
 42
-0.00261
 10
9.485683
 20
17.286693
 42
-0.003009
 10
9.130455
 20
17.455313
 42
-0.00253
 10
8.7561
 20
17.63812
 42
0.003431
 10
8.385804
 20
17.81812
 42
0.004418
 10
8.042948
 20
17.978176
 42
0.003399
 10
7.753832
 20
18.10768
 42
0.038158
  0
LWPOLYLINE
  5
D5A
330
1D
100
AcDbEntity
  8
0
100
AcDbPolyline
 90
      242
 70
     1
 43
0.0
 10
40.29075
 20
18.186992
 42
0.076598
 10
40.24812
 20
18.179035
 42
0.003447
 10
40.107202
 20
18.1285
 42
0.005714
 10
39.940556
 20
18.06527
 42
0.004052
 10
39.755006
 20
17.99069
 42
0.010508
 10
39.535321
 20
17.894868
 42
0.005286
 10
39.26197
 20
17.765216
 42
0.005246
 10
38.982091
 20
17.625171
 42
0.00775
 10
38.739806
 20
17.495958
 42
-0.00909
 10
38.508484
 20
17.373387
 42
-0.007952
 10
38.262382
 20
17.25354
 42
-0.008019
 10
38.03656
 20
17.15236
 42
-0.023503
 10
37.876911
 20
17.092596
 42
-0.035937
 10
37.715035
 20
17.053092
 42
-0.013533
 10
37.483978
 20
17.020424
 42
-0.013324
 10
37.229657
 20
16.998308
 42
-0.015803
 10
36.988611
 20
16.991438
 42
-0.019628
 10
36.743914
 20
17.00181
 42
-0.015149
 10
36.478499
 20
17.031637
 42
-0.015396
 10
36.231966
 20
17.074716
 42
-0.035057
 10
36.050114
 20
17.125803
 42
0.003783
 10
35.904839
 20
17.176602
 42
0.005355
 10
35.774719
 20
17.21945
 42
0.003164
 10
35.664706
 20
17.253609
 42
0.073819
 10
35.632436
 20
17.2584
 42
0.58493
 10
35.625465
 20
17.246005
 42
0.021322
 10
35.662835
 20
17.190059
 42
0.019916
 10
35.722426
 20
17.115054
 42
0.010238
 10
35.802614
 20
17.02575
 42
-0.021473
 10
35.895906
 20
16.917037
 42
-0.01327
 10
35.996457
 20
16.781908
 42
-0.013304
 10
36.088868
 20
16.642865
 42
-0.023213
 10
36.156842
 20
16.522351
 42
-0.017552
 10
36.209113
 20
16.408987
 42
-0.017568
 10
36.253286
 20
16.292271
 42
-0.017695
 10
36.284572
 20
16.187921
 42
-0.064063
 10
36.2934
 20
16.119301
 42
-0.194819
 10
36.27328
 20
16.069622
 42
-0.269085
 10
36.228011
 20
16.056828
 42
-0.073599
 10
36.138661
 20
16.094311
 42
-0.010116
 10
35.967642
 20
16.202576
 42
0.042349
 10
35.79491
 20
16.29693
 42
0.019832
 10
35.557731
 20
16.390469
 42
0.018803
 10
35.288885
 20
16.473159
 42
0.019081
 10
35.015892
 20
16.534961
 42
0.004089
 10
34.72489
 20
16.586803
 42
0.002176
 10
34.363937
 20
16.64645
 42
0.002165
 10
33.994571
 20
16.704198
 42
0.003366
 10
33.675525
 20
16.750468
 42
-0.016531
 10
33.35354
 20
16.805855
 42
-0.009877
 10
32.974589
 20
16.891854
 42
-0.009883
 10
32.600202
 20
16.992523
 42
-0.016875
 10
32.292525
 20
17.093185
 42
-0.011383
 10
31.991168
 20
17.211007
 42
-0.006706
 10
31.636347
 20
17.36475
 42
-0.006706
 10
31.285795
 20
17.527945
 42
-0.011389
 10
30.997649
 20
17.674998
 42
0.004769
 10
30.757452
 20
17.801616
 42
0.008283
 10
30.555361
 20
17.901495
 42
0.003117
 10
30.385437
 20
17.980709
 42
0.546556
 10
30.3714
 20
17.971703
 42
0.197831
 10
30.38283
 20
17.943946
 42
0.000588
 10
30.663402
 20
17.661694
 42
0.003247
 10
30.984356
 20
17.343735
 42
0.002009
 10
31.36545
 20
16.974053
 42
0.00141
 10
31.770839
 20
16.586148
 42
0.001538
 10
32.166903
 20
16.211614
 42
0.00144
 10
32.507881
 20
15.892995
 42
0.007611
 10
32.6979
 20
15.721773
 42
0.010278
 10
32.856522
 20
15.588807
 42
0.005675
 10
33.055446
 20
15.432586
 42
0.005656
 10
33.260764
 20
15.278738
 42
0.009049
 10
33.439879
 20
15.152573
 42
0.01496
 10
33.634642
 20
15.02893
 42
0.007209
 10
33.891017
 20
14.881695
 42
0.007141
 10
34.162957
 20
14.735733
 42
0.010161
 10
34.408939
 20
14.614471
 42
0.018762
 10
34.723963
 20
14.48122
 42
0.031662
 10
34.997913
 20
14.396675
 42
0.03039
 10
35.288079
 20
14.345288
 42
0.015749
 10
35.65506
 20
14.31475
 42
0.013382
 10
36.020278
 20
14.305705
 42
0.029346
 10
36.299259
 20
14.322652
 42
0.032976
 10
36.553385
 20
14.370282
 42
0.022009
 10
36.836765
 20
14.456458
 10
37.337829
 20
14.633267
 10
37.090565
 20
14.372845
 42
-0.030424
 10
36.968526
 20
14.259045
 42
-0.015806
 10
36.803687
 20
14.13163
 42
-0.015658
 10
36.625548
 20
14.011031
 42
-0.022969
 10
36.461183
 20
13.917386
 42
-0.014889
 10
36.28733
 20
13.835079
 42
-0.009387
 10
36.079899
 20
13.748935
 42
-0.009424
 10
35.872568
 20
13.671841
 42
-0.017057
 10
35.699783
 20
13.617817
 10
35.3205
 20
13.513285
 10
35.722856
 20
13.376196
 42
-0.02443
 10
35.898336
 20
13.30667
 42
-0.016038
 10
36.093331
 20
13.210507
 42
-0.016146
 10
36.277596
 20
13.104388
 42
-0.029675
 10
36.419038
 20
13.004658
 42
-0.043594
 10
36.574121
 20
12.857081
 42
-0.053742
 10
36.689346
 20
12.694195
 42
-0.041515
 10
36.786867
 20
12.478897
 42
-0.015002
 10
36.890143
 20
12.159054
 42
0.003902
 10
36.97042
 20
11.89017
 42
0.002693
 10
37.065321
 20
11.586951
 42
0.002716
 10
37.159732
 20
11.296362
 42
0.005554
 10
37.237547
 20
11.069684
 42
0.019138
 10
37.323171
 20
10.855344
 42
0.011199
 10
37.441122
 20
10.605269
 42
0.01119
 10
37.570543
 20
10.359979
 42
0.018628
 10
37.691672
 20
10.160234
 42
-0.007892
 10
37.796924
 20
9.994791
 42
-0.014277
 10
37.876995
 20
9.855675
 42
-0.009637
 10
37.933787
 20
9.745091
 42
-0.55476
 10
37.923748
 20
9.729
 42
-0.12406
 10
37.895754
 20
9.736055
 42
-0.020867
 10
37.847842
 20
9.764479
 42
-0.021724
 10
37.793204
 20
9.803536
 42
-0.017782
 10
37.738261
 20
9.849778
 42
0.04453
 10
37.656104
 20
9.911741
 42
0.007979
 10
37.491437
 20
10.01072
 42
0.00856
 10
37.294108
 20
10.120617
 42
0.00764
 10
37.085563
 20
10.228063
 42
0.017187
 10
36.834954
 20
10.341815
 42
0.008124
 10
36.504583
 20
10.47204
 42
0.00804
 10
36.154061
 20
10.597276
 42
0.011252
 10
35.83676
 20
10.697018
 42
-0.004608
 10
35.545483
 20
10.784345
 42
-0.005566
 10
35.273738
 20
10.87188
 42
-0.004772
 10
35.046766
 20
10.950208
 42
-0.037405
 10
34.94473
 20
10.995362
 42
-0.050111
 10
34.870959
 20
11.044919
 42
-0.021016
 10
34.782004
 20
11.125122
 42
-0.020541
 10
34.69331
 20
11.219569
 42
-0.025105
 10
34.618768
 20
11.315078
 42
-0.026927
 10
34.547949
 20
11.428369
 42
-0.013348
 10
34.469928
 20
11.578914
 42
-0.013207
 10
34.39714
 20
11.739725
 42
-0.018852
 10
34.341814
 20
11.8863
 42
0.007945
 10
34.294334
 20
12.020904
 42
0.009632
 10
34.245403
 20
12.14548
 42
0.008402
 10
34.200618
 20
12.248426
 42
0.063537
 10
34.172784
 20
12.293415
 42
0.494657
 10
34.147189
 20
12.292676
 42
0.063186
 10
34.116553
 20
12.236195
 42
0.036047
 10
34.085567
 20
12.135566
 42
0.017025
 10
34.059542
 20
12.002127
 42
-0.031522
 10
34.022024
 20
11.835591
 42
-0.015751
 10
33.954853
 20
11.630226
 42
-0.015571
 10
33.871687
 20
11.421246
 42
-0.022139
 10
33.783993
 20
11.241619
 42
-0.020392
 10
33.681787
 20
11.070806
 42
-0.014688
 10
33.554621
 20
10.888613
 42
-0.014874
 10
33.423208
 20
10.722222
 42
-0.030854
 10
33.309254
 20
10.602307
 42
-0.006134
 10
33.172132
 20
10.477873
 42
-0.093435
 10
33.117338
 20
10.445153
 42
-0.578745
 10
33.099175
 20
10.460367
 42
-0.050671
 10
33.119743
 20
10.5327
 42
0.014184
 10
33.153372
 20
10.624849
 42
0.003591
 10
33.202668
 20
10.776454
 42
0.00366
 10
33.256496
 20
10.950545
 42
0.003692
 10
33.30761
 20
11.1249
 42
0.028147
 10
33.354937
 20
11.335054
 42
0.020703
 10
33.384428
 20
11.572002
 42
0.020101
 10
33.394881
 20
11.819369
 42
0.021545
 10
33.384953
 20
12.061084
 42
0.021291
 10
33.355512
 20
12.292182
 42
0.012766
 10
33.301934
 20
12.563712
 42
0.012773
 10
33.234691
 20
12.831643
 42
0.02165
 10
33.163111
 20
13.051518
 42
0.023086
 10
33.066317
 20
13.277811
 42
0.010002
 10
32.917861
 20
13.56981
 42
0.009873
 10
32.747335
 20
13.874596
 42
0.012926
 10
32.578966
 20
14.145734
 42
0.01969
 10
32.360392
 20
14.451302
 42
0.006628
 10
32.018521
 20
14.879681
 42
0.006582
 10
31.62747
 20
15.343979
 42
0.007493
 10
31.240611
 20
15.7779
 42
0.002191
 10
30.86022
 20
16.188283
 42
0.00242
 10
30.488596
 20
16.581864
 42
0.002247
 10
30.168154
 20
16.914956
 42
0.012404
 10
29.990409
 20
17.0892
 42
0.008472
 10
29.870685
 20
17.197144
 42
0.019313
 10
29.77594
 20
17.273469
 42
0.036737
 10
29.71734
 20
17.310707
 42
0.69748
 10
29.706055
 20
17.3007
 42
0.018515
 10
29.732197
 20
17.240509
 42
0.000496
 10
29.857307
 20
16.980013
 42
0.001035
 10
30.005286
 20
16.674304
 42
0.000709
 10
30.174506
 20
16.3278
 42
-0.007162
 10
30.350952
 20
15.954352
 42
-0.006658
 10
30.521103
 20
15.56685
 42
-0.006654
 10
30.663207
 20
15.218298
 42
-0.02225
 10
30.743034
 20
14.984732
 42
-0.020418
 10
30.802943
 20
14.744095
 42
-0.005973
 10
30.875418
 20
14.369725
 42
-0.00599
 10
30.946974
 20
13.946011
 42
-0.006388
 10
31.006722
 20
13.529702
 42
0.006618
 10
31.065417
 20
13.122057
 42
0.007035
 10
31.133815
 20
12.724343
 42
0.006739
 10
31.202068
 20
12.383895
 42
0.031973
 10
31.256073
 20
12.19268
 42
0.015381
 10
31.312645
 20
12.0468
 42
0.010917
 10
31.384615
 20
11.886732
 42
0.011035
 10
31.460107
 20
11.736796
 42
0.022887
 10
31.526815
 20
11.624051
 10
31.678742
 20
11.392182
 10
31.385818
 20
11.450766
 42
-0.048829
 10
31.249901
 20
11.492063
 42
-0.022034
 10
31.080903
 20
11.570927
 42
-0.021566
 10
30.908393
 20
11.670573
 42
-0.027511
 10
30.759148
 20
11.777557
 42
0.007195
 10
30.58822
 20
11.910916
 42
0.070424
 10
30.508412
 20
11.955301
 42
0.483798
 10
30.481674
 20
11.939481
 42
0.126094
 10
30.488389
 20
11.88162
 42
-0.021958
 10
30.51841
 20
11.791784
 42
-0.005534
 10
30.559179
 20
11.643038
 42
-0.005637
 10
30.602019
 20
11.471824
 42
-0.005661
 10
30.640926
 20
11.299925
 42
-0.026386
 10
30.672372
 20
11.103189
 42
-0.013503
 10
30.69204
 20
10.853917
 42
-0.01338
 10
30.698498
 20
10.595372
 42
-0.019581
 10
30.689182
 20
10.367948
 42
-0.034392
 10
30.642861
 20
10.05907
 42
-0.032944
 10
30.554237
 20
9.754856
 42
-0.023086
 10
30.3991
 20
9.383273
 42
-0.007162
 10
30.132403
 20
8.839511
 42
0.004561
 10
29.930987
 20
8.434194
 42
0.005738
 10
29.752206
 20
8.055025
 42
0.004641
 10
29.609083
 20
7.734392
 42
0.044703
 10
29.561987
 20
7.59285
 10
29.507057
 20
7.3602
 10
34.930629
 20
7.3602
 10
40.3542
 20
7.3602
 10
40.3542
 20
12.7746
 42
0.001098
 10
40.349641
 20
14.850617
 42
0.001833
 10
40.335562
 20
16.59793
 42
0.000136
 10
40.316801
 20
18.16206
 42
0.419899
  0
LWPOLYLINE
  5
E4E
330
1D
100
AcDbEntity
  8
0
100
AcDbPolyline
 90
       20
 70
     1
 43
0.0
 10
24.1956
 20
8.0426
 10
23.8995
 20
8.360866
 10
23.543081
 20
7.98653
 42
-0.016844
 10
23.38932
 20
7.835563
 42
-0.015673
 10
23.2221
 20
7.691483
 42
-0.015878
 10
23.065445
 20
7.572861
 42
-0.049908
 10
22.950881
 20
7.50778
 42
0.041381
 10
22.841834
 20
7.448263
 42
0.623888
 10
22.846021
 20
7.415501
 42
0.069168
 10
22.948188
 20
7.395856
 42
0.002692
 10
23.332151
 20
7.378002
 42
0.006263
 10
23.60961
 20
7.370077
 42
0.003916
 10
23.934602
 20
7.367412
 42
0.00393
 10
24.254875
 20
7.369812
 42
0.007141
 10
24.516551
 20
7.377569
 10
25.0839
 20
7.4025
 10
24.7878
 20
7.563417
 42
-0.030719
 10
24.653225
 20
7.647643
 42
-0.014916
 10
24.4917
 20
7.770555
 42
-0.014732
 10
24.330592
 20
7.908965
 42
-0.020562
  0
LWPOLYLINE
  5
E64
330
1D
100
AcDbEntity
  8
0
100
AcDbPolyline
 90
       16
 70
     1
 43
0.0
 10
18.845896
 20
8.2062
 42
0.035401
 10
18.820568
 20
8.264232
 42
0.38951
 10
18.798668
 20
8.272118
 42
0.201491
 10
18.775989
 20
8.249004
 42
0.014886
 10
18.74507
 20
8.1639
 42
-0.018313
 10
18.713087
 20
8.077714
 42
-0.005759
 10
18.659083
 20
7.95121
 42
-0.005744
 10
18.595521
 20
7.811321
 42
-0.006335
 10
18.530749
 20
7.67745
 10
18.372257
 20
7.3602
 10
18.876893
 20
7.3602
 10
19.381528
 20
7.3602
 10
19.136211
 20
7.71975
 42
-0.007153
 10
19.038993
 20
7.866711
 42
-0.008017
 10
18.949738
 20
8.010959
 42
-0.007457
 10
18.877645
 20
8.135957
 42
-0.041895
  0
LWPOLYLINE
  5
E76
330
1D
100
AcDbEntity
  8
0
100
AcDbPolyline
 90
       20
 70
     1
 43
0.0
 10
29.0178
 20
8.2485
 42
0.089747
 10
28.985504
 20
8.261196
 42
0.168519
 10
28.958051
 20
8.257374
 42
0.176815
 10
28.939737
 20
8.237656
 42
0.09996
 10
28.9332
 20
8.205286
 42
-0.113951
 10
28.920186
 20
8.148926
 42
-0.011924
 10
28.857452
 20
8.027743
 42
-0.014289
 10
28.774088
 20
7.885502
 42
-0.010987
 10
28.675336
 20
7.734993
 10
28.417472
 20
7.3602
 10
28.927892
 20
7.3602
 10
29.438313
 20
7.3602
 10
29.270673
 20
7.63515
 42
-0.020628
 10
29.206483
 20
7.750914
 42
-0.020746
 10
29.152184
 20
7.871356
 42
-0.021091
 10
29.113772
 20
7.979985
 42
-0.074009
 10
29.102716
 20
8.053157
 42
0.053293
 10
29.096322
 20
8.111757
 42
0.048759
 10
29.077642
 20
8.16955
 42
0.052013
 10
29.050239
 20
8.218084
 42
0.100157
  0
ENDSEC
  0
SECTION
  2
OBJECTS
  0
DICTIONARY
  5
C
330
0
100
AcDbDictionary
281
     1
  3
ACAD_DETAILVIEWSTYLE
350
F18
  3
ACAD_GROUP
350
D
  3
ACAD_LAYOUT
350
1A
  3
ACAD_MATERIAL
350
ECB
  3
ACAD_MLEADERSTYLE
350
ED1
  3
ACAD_MLINESTYLE
350
17
  3
ACAD_PLOTSETTINGS
350
19
  3
ACAD_PLOTSTYLENAME
350
E
  3
ACAD_SCALELIST
350
E8C
  3
ACAD_SECTIONVIEWSTYLE
350
F19
  3
ACAD_TABLESTYLE
350
ECF
  3
ACAD_VISUALSTYLE
350
EB2
  3
ACDB_RECOMPOSE_DATA
350
F14
  3
AcDbVariableDictionary
350
ED5
  0
DICTIONARY
  5
ED3
330
8
100
AcDbDictionary
280
     1
281
     1
  3
ACAD_XREC_ROUNDTRIP
360
ED4
  0
DICTIONARY
  5
F18
102
{ACAD_REACTORS
330
C
102
}
330
C
100
AcDbDictionary
281
     1
  0
DICTIONARY
  5
D
102
{ACAD_REACTORS
330
C
102
}
330
C
100
AcDbDictionary
281
     1
  0
DICTIONARY
  5
1A
102
{ACAD_REACTORS
330
C
102
}
330
C
100
AcDbDictionary
281
     1
  3
Layout1
350
1C
  3
Model
350
1E
  0
DICTIONARY
  5
ECB
102
{ACAD_REACTORS
330
C
102
}
330
C
100
AcDbDictionary
281
     1
  3
ByBlock
350
ECD
  3
ByLayer
350
ECC
  3
Global
350
ECE
  0
DICTIONARY
  5
ED1
102
{ACAD_REACTORS
330
C
102
}
330
C
100
AcDbDictionary
281
     1
  3
Standard
350
ED2
  0
DICTIONARY
  5
17
102
{ACAD_REACTORS
330
C
102
}
330
C
100
AcDbDictionary
281
     1
  3
Standard
350
18
  0
DICTIONARY
  5
19
102
{ACAD_REACTORS
330
C
102
}
330
C
100
AcDbDictionary
281
     1
  0
ACDBDICTIONARYWDFLT
  5
E
102
{ACAD_REACTORS
330
C
102
}
330
C
100
AcDbDictionary
281
     1
  3
Normal
350
F
100
AcDbDictionaryWithDefault
340
F
  0
DICTIONARY
  5
E8C
102
{ACAD_REACTORS
330
C
102
}
330
C
100
AcDbDictionary
281
     1
  3
A0
350
E8D
  3
A1
350
E8E
  3
A2
350
E8F
  3
A3
350
E90
  3
A4
350
E91
  3
A5
350
E92
  3
A6
350
E93
  3
A7
350
E94
  3
A8
350
E95
  3
A9
350
E96
  3
B0
350
E97
  3
B1
350
E98
  3
B2
350
E99
  3
B3
350
E9A
  3
B4
350
E9B
  3
B5
350
E9C
  3
B6
350
E9D
  3
B7
350
E9E
  3
B8
350
E9F
  3
B9
350
EA0
  3
C0
350
EA1
  3
C1
350
EA2
  3
C2
350
EA3
  3
C3
350
EA4
  3
C4
350
EA5
  3
C5
350
EA6
  3
C6
350
EA7
  3
C7
350
EA8
  3
C8
350
EA9
  3
C9
350
EAA
  3
D0
350
EAB
  3
D1
350
EAC
  3
D2
350
EAD
  0
DICTIONARY
  5
F19
102
{ACAD_REACTORS
330
C
102
}
330
C
100
AcDbDictionary
281
     1
  0
DICTIONARY
  5
ECF
102
{ACAD_REACTORS
330
C
102
}
330
C
100
AcDbDictionary
281
     1
  3
Standard
350
ED0
  0
DICTIONARY
  5
EB2
102
{ACAD_REACTORS
330
C
102
}
330
C
100
AcDbDictionary
281
     1
  3
2dWireframe
350
EB7
  3
Basic
350
EBA
  3
Brighten
350
EBE
  3
ColorChange
350
EC2
  3
Conceptual
350
EBC
  3
Dim
350
EBD
  3
EdgeColorOff
350
EC5
  3
Facepattern
350
EC1
  3
Flat
350
EB3
  3
FlatWithEdges
350
EB4
  3
Gouraud
350
EB5
  3
GouraudWithEdges
350
EB6
  3
Hidden
350
EB9
  3
JitterOff
350
EC3
  3
Linepattern
350
EC0
  3
OverhangOff
350
EC4
  3
Realistic
350
EBB
  3
Shaded
350
ECA
  3
Shaded with edges
350
EC9
  3
Shades of Gray
350
EC6
  3
Sketchy
350
EC7
  3
Thicken
350
EBF
  3
Wireframe
350
EB8
  3
X-Ray
350
EC8
  0
XRECORD
  5
F14
102
{ACAD_REACTORS
330
C
102
}
330
C
100
AcDbXrecord
280
     1
 90
        1
330
ED0
  0
DICTIONARY
  5
ED5
102
{ACAD_REACTORS
330
C
102
}
330
C
100
AcDbDictionary
281
     1
  3
CANNOSCALE
350
ED6
  3
CMLEADERSTYLE
350
F16
  3
CTABLESTYLE
350
F15
  3
MSLTSCALE
350
F17
  3
XCLIPFRAME
350
ED7
  0
XRECORD
  5
ED4
102
{ACAD_REACTORS
330
ED3
102
}
330
ED3
100
AcDbXrecord
280
     1
102
VTR_0.000_0.000_1.000_1.000_VISUALSTYLE
340
EB7
102
VTR_0.000_0.000_1.000_1.000_GRIDDISPLAY
 70
     3
102
VTR_0.000_0.000_1.000_1.000_GRIDMAJOR
 70
     5
102
VTR_0.000_0.000_1.000_1.000_DEFAULTLIGHTING
280
     1
102
VTR_0.000_0.000_1.000_1.000_DEFAULTLIGHTINGTYPE
 70
     1
102
VTR_0.000_0.000_1.000_1.000_BRIGHTNESS
141
0.0
102
VTR_0.000_0.000_1.000_1.000_CONTRAST
142
0.0
  0
LAYOUT
  5
1C
102
{ACAD_REACTORS
330
1A
102
}
330
1A
100
AcDbPlotSettings
  1

  2
none_device
  4

  6

 40
0.0
 41
0.0
 42
0.0
 43
0.0
 44
0.0
 45
0.0
 46
0.0
 47
0.0
 48
0.0
 49
0.0
140
0.0
141
0.0
142
1.0
143
1.0
 70
   688
 72
     0
 73
     0
 74
     5
  7

 75
    16
 76
     0
 77
     2
 78
   300
147
1.0
148
0.0
149
0.0
100
AcDbLayout
  1
Layout1
 70
     1
 71
     1
 10
0.0
 20
0.0
 11
12.0
 21
9.0
 12
0.0
 22
0.0
 32
0.0
 14
1.000000000000000E+20
 24
1.000000000000000E+20
 34
1.000000000000000E+20
 15
-1.000000000000000E+20
 25
-1.000000000000000E+20
 35
-1.000000000000000E+20
146
0.0
 13
0.0
 23
0.0
 33
0.0
 16
1.0
 26
0.0
 36
0.0
 17
0.0
 27
1.0
 37
0.0
 76
     0
330
1B
  0
LAYOUT
  5
1E
102
{ACAD_REACTORS
330
1A
102
}
330
1A
100
AcDbPlotSettings
  1

  2
none_device
  4
Letter_(8.50_x_11.00_Inches)
  6

 40
6.35
 41
6.35
 42
6.35000508
 43
6.35000508
 44
215.9
 45
279.4
 46
0.0
 47
0.0
 48
0.0
 49
0.0
140
0.0
141
0.0
142
1.0
143
1.0
 70
  1712
 72
     0
 73
     0
 74
     0
  7

 75
     0
 76
     0
 77
     2
 78
   300
147
1.0
148
0.0
149
0.0
100
AcDbLayout
  1
Model
 70
     1
 71
     0
 10
0.0
 20
0.0
 11
12.0
 21
9.0
 12
0.0
 22
0.0
 32
0.0
 14
0.0
 24
0.0
 34
0.0
 15
47.7144
 25
47.7144
 35
0.0
146
0.0
 13
0.0
 23
0.0
 33
0.0
 16
1.0
 26
0.0
 36
0.0
 17
0.0
 27
1.0
 37
0.0
 76
     0
330
1D
331
21
  0
MATERIAL
  5
ECD
102
{ACAD_REACTORS
330
ECB
102
}
102
{ACAD_XDICTIONARY
360
F0A
102
}
330
ECB
100
AcDbMaterial
  1
ByBlock
  0
MATERIAL
  5
ECC
102
{ACAD_REACTORS
330
ECB
102
}
102
{ACAD_XDICTIONARY
360
F08
102
}
330
ECB
100
AcDbMaterial
  1
ByLayer
  0
MATERIAL
  5
ECE
102
{ACAD_REACTORS
330
ECB
102
}
102
{ACAD_XDICTIONARY
360
F0C
102
}
330
ECB
100
AcDbMaterial
  1
Global
  0
MLEADERSTYLE
  5
ED2
102
{ACAD_REACTORS
330
ED1
102
}
102
{ACAD_XDICTIONARY
360
F12
102
}
330
ED1
100
AcDbMLeaderStyle
170
     2
171
     1
172
     0
 90
        2
 40
0.0
 41
0.0
173
     1
 91
-1056964608
340
14
 92
       -2
290
     1
 42
0.09
291
     1
 43
0.36
  3
Standard
341
0
 44
0.18
300

342
11
174
     1
178
     6
175
     1
176
     0
 93
-1056964608
 45
0.18
292
     0
297
     0
 46
0.18
343
0
 94
-1056964608
 47
1.0
 49
1.0
140
1.0
293
     1
141
0.0
294
     1
177
     0
142
1.0
295
     0
296
     0
143
0.125
1001
ACAD_MLEADERVER
1070
     2
  0
MLINESTYLE
  5
18
102
{ACAD_REACTORS
330
17
102
}
330
17
100
AcDbMlineStyle
  2
Standard
 70
     0
  3

 62
   256
 51
90.0
 52
90.0
 71
     2
 49
0.5
 62
   256
  6
BYLAYER
 49
-0.5
 62
   256
  6
BYLAYER
  0
ACDBPLACEHOLDER
  5
F
102
{ACAD_REACTORS
330
E
102
}
330
E
  0
SCALE
  5
E8D
102
{ACAD_REACTORS
330
E8C
102
}
330
E8C
100
AcDbScale
 70
     0
300
1:1
140
1.0
141
1.0
290
     1
  0
SCALE
  5
E8E
102
{ACAD_REACTORS
330
E8C
102
}
330
E8C
100
AcDbScale
 70
     0
300
1:2
140
1.0
141
2.0
290
     0
  0
SCALE
  5
E8F
102
{ACAD_REACTORS
330
E8C
102
}
330
E8C
100
AcDbScale
 70
     0
300
1:4
140
1.0
141
4.0
290
     0
  0
SCALE
  5
E90
102
{ACAD_REACTORS
330
E8C
102
}
330
E8C
100
AcDbScale
 70
     0
300
1:5
140
1.0
141
5.0
290
     0
  0
SCALE
  5
E91
102
{ACAD_REACTORS
330
E8C
102
}
330
E8C
100
AcDbScale
 70
     0
300
1:8
140
1.0
141
8.0
290
     0
  0
SCALE
  5
E92
102
{ACAD_REACTORS
330
E8C
102
}
330
E8C
100
AcDbScale
 70
     0
300
1:10
140
1.0
141
10.0
290
     0
  0
SCALE
  5
E93
102
{ACAD_REACTORS
330
E8C
102
}
330
E8C
100
AcDbScale
 70
     0
300
1:16
140
1.0
141
16.0
290
     0
  0
SCALE
  5
E94
102
{ACAD_REACTORS
330
E8C
102
}
330
E8C
100
AcDbScale
 70
     0
300
1:20
140
1.0
141
20.0
290
     0
  0
SCALE
  5
E95
102
{ACAD_REACTORS
330
E8C
102
}
330
E8C
100
AcDbScale
 70
     0
300
1:30
140
1.0
141
30.0
290
     0
  0
SCALE
  5
E96
102
{ACAD_REACTORS
330
E8C
102
}
330
E8C
100
AcDbScale
 70
     0
300
1:40
140
1.0
141
40.0
290
     0
  0
SCALE
  5
E97
102
{ACAD_REACTORS
330
E8C
102
}
330
E8C
100
AcDbScale
 70
     0
300
1:50
140
1.0
141
50.0
290
     0
  0
SCALE
  5
E98
102
{ACAD_REACTORS
330
E8C
102
}
330
E8C
100
AcDbScale
 70
     0
300
1:100
140
1.0
141
100.0
290
     0
  0
SCALE
  5
E99
102
{ACAD_REACTORS
330
E8C
102
}
330
E8C
100
AcDbScale
 70
     0
300
2:1
140
2.0
141
1.0
290
     0
  0
SCALE
  5
E9A
102
{ACAD_REACTORS
330
E8C
102
}
330
E8C
100
AcDbScale
 70
     0
300
4:1
140
4.0
141
1.0
290
     0
  0
SCALE
  5
E9B
102
{ACAD_REACTORS
330
E8C
102
}
330
E8C
100
AcDbScale
 70
     0
300
8:1
140
8.0
141
1.0
290
     0
  0
SCALE
  5
E9C
102
{ACAD_REACTORS
330
E8C
102
}
330
E8C
100
AcDbScale
 70
     0
300
10:1
140
10.0
141
1.0
290
     0
  0
SCALE
  5
E9D
102
{ACAD_REACTORS
330
E8C
102
}
330
E8C
100
AcDbScale
 70
     0
300
100:1
140
100.0
141
1.0
290
     0
  0
SCALE
  5
E9E
102
{ACAD_REACTORS
330
E8C
102
}
330
E8C
100
AcDbScale
 70
     0
300
1/128\" = 1\'-0\"
140
0.0078125
141
12.0
290
     0
  0
SCALE
  5
E9F
102
{ACAD_REACTORS
330
E8C
102
}
330
E8C
100
AcDbScale
 70
     0
300
1/64\" = 1\'-0\"
140
0.015625
141
12.0
290
     0
  0
SCALE
  5
EA0
102
{ACAD_REACTORS
330
E8C
102
}
330
E8C
100
AcDbScale
 70
     0
300
1/32\" = 1\'-0\"
140
0.03125
141
12.0
290
     0
  0
SCALE
  5
EA1
102
{ACAD_REACTORS
330
E8C
102
}
330
E8C
100
AcDbScale
 70
     0
300
1/16\" = 1\'-0\"
140
0.0625
141
12.0
290
     0
  0
SCALE
  5
EA2
102
{ACAD_REACTORS
330
E8C
102
}
330
E8C
100
AcDbScale
 70
     0
300
3/32\" = 1\'-0\"
140
0.09375
141
12.0
290
     0
  0
SCALE
  5
EA3
102
{ACAD_REACTORS
330
E8C
102
}
330
E8C
100
AcDbScale
 70
     0
300
1/8\" = 1\'-0\"
140
0.125
141
12.0
290
     0
  0
SCALE
  5
EA4
102
{ACAD_REACTORS
330
E8C
102
}
330
E8C
100
AcDbScale
 70
     0
300
3/16\" = 1\'-0\"
140
0.1875
141
12.0
290
     0
  0
SCALE
  5
EA5
102
{ACAD_REACTORS
330
E8C
102
}
330
E8C
100
AcDbScale
 70
     0
300
1/4\" = 1\'-0\"
140
0.25
141
12.0
290
     0
  0
SCALE
  5
EA6
102
{ACAD_REACTORS
330
E8C
102
}
330
E8C
100
AcDbScale
 70
     0
300
3/8\" = 1\'-0\"
140
0.375
141
12.0
290
     0
  0
SCALE
  5
EA7
102
{ACAD_REACTORS
330
E8C
102
}
330
E8C
100
AcDbScale
 70
     0
300
1/2\" = 1\'-0\"
140
0.5
141
12.0
290
     0
  0
SCALE
  5
EA8
102
{ACAD_REACTORS
330
E8C
102
}
330
E8C
100
AcDbScale
 70
     0
300
3/4\" = 1\'-0\"
140
0.75
141
12.0
290
     0
  0
SCALE
  5
EA9
102
{ACAD_REACTORS
330
E8C
102
}
330
E8C
100
AcDbScale
 70
     0
300
1\" = 1\'-0\"
140
1.0
141
12.0
290
     0
  0
SCALE
  5
EAA
102
{ACAD_REACTORS
330
E8C
102
}
330
E8C
100
AcDbScale
 70
     0
300
1-1/2\" = 1\'-0\"
140
1.5
141
12.0
290
     0
  0
SCALE
  5
EAB
102
{ACAD_REACTORS
330
E8C
102
}
330
E8C
100
AcDbScale
 70
     0
300
3\" = 1\'-0\"
140
3.0
141
12.0
290
     0
  0
SCALE
  5
EAC
102
{ACAD_REACTORS
330
E8C
102
}
330
E8C
100
AcDbScale
 70
     0
300
6\" = 1\'-0\"
140
6.0
141
12.0
290
     0
  0
SCALE
  5
EAD
102
{ACAD_REACTORS
330
E8C
102
}
330
E8C
100
AcDbScale
 70
     0
300
1\'-0\" = 1\'-0\"
140
12.0
141
12.0
290
     0
  0
TABLESTYLE
  5
ED0
102
{ACAD_REACTORS
330
ECF
102
}
102
{ACAD_XDICTIONARY
360
F0E
102
}
330
ECF
100
AcDbTableStyle
  3
Standard
 70
     0
 71
     0
 40
0.06
 41
0.06
280
     0
281
     0
  7
Standard
140
0.18
170
     2
 62
     0
 63
   257
283
     0
274
    -2
284
     1
 64
     0
275
    -2
285
     1
 65
     0
276
    -2
286
     1
 66
     0
277
    -2
287
     1
 67
     0
278
    -2
288
     1
 68
     0
279
    -2
289
     1
 69
     0
  7
Standard
140
0.25
170
     5
 62
     0
 63
   257
283
     0
274
    -2
284
     1
 64
     0
275
    -2
285
     1
 65
     0
276
    -2
286
     1
 66
     0
277
    -2
287
     1
 67
     0
278
    -2
288
     1
 68
     0
279
    -2
289
     1
 69
     0
  7
Standard
140
0.18
170
     5
 62
     0
 63
   257
283
     0
274
    -2
284
     1
 64
     0
275
    -2
285
     1
 65
     0
276
    -2
286
     1
 66
     0
277
    -2
287
     1
 67
     0
278
    -2
288
     1
 68
     0
279
    -2
289
     1
 69
     0
  0
VISUALSTYLE
  5
EB7
102
{ACAD_REACTORS
330
EB2
102
}
102
{ACAD_XDICTIONARY
360
EE0
102
}
330
EB2
100
AcDbVisualStyle
  2
2dWireframe
 70
     4
 71
     0
 72
     2
 73
     0
 90
        0
 40
0.6
 41
30.0
 62
     5
 63
     7
421
 16777215
 74
     1
 91
        4
 64
     7
 65
   257
 75
     1
175
     1
 42
1.0
 92
        0
 66
   257
 43
1.0
 76
     1
 77
     6
 78
     2
 67
     7
 79
     5
170
     0
171
     0
290
     0
174
     0
 93
        1
 44
0.0
173
     0
291
     0
 45
0.0
1001
ACAD
1000
AcDbSavedByObjectVersion
1070
     0
  0
VISUALSTYLE
  5
EBA
102
{ACAD_REACTORS
330
EB2
102
}
102
{ACAD_XDICTIONARY
360
EE6
102
}
330
EB2
100
AcDbVisualStyle
  2
Basic
 70
     7
 71
     1
 72
     0
 73
     1
 90
        0
 40
0.6
 41
30.0
 62
     5
 63
     7
421
 16777215
 74
     0
 91
        4
 64
     7
 65
   257
 75
     1
175
     1
 42
1.0
 92
        8
 66
     7
 43
1.0
 76
     1
 77
     6
 78
     2
 67
     7
 79
     5
170
     0
171
     0
290
     0
174
     0
 93
        1
 44
0.0
173
     0
291
     1
 45
0.0
1001
ACAD
1000
AcDbSavedByObjectVersion
1070
     0
  0
VISUALSTYLE
  5
EBE
102
{ACAD_REACTORS
330
EB2
102
}
102
{ACAD_XDICTIONARY
360
EEE
102
}
330
EB2
100
AcDbVisualStyle
  2
Brighten
 70
    12
 71
     2
 72
     2
 73
     0
 90
        0
 40
0.6
 41
30.0
 62
     5
 63
     7
421
 16777215
 74
     1
 91
        4
 64
     7
 65
   257
 75
     1
175
     1
 42
1.0
 92
        8
 66
     7
 43
1.0
 76
     1
 77
     6
 78
     2
 67
     7
 79
     5
170
     0
171
     0
290
     0
174
     0
 93
        1
 44
50.0
173
     0
291
     1
 45
0.0
1001
ACAD
1000
AcDbSavedByObjectVersion
1070
     0
  0
VISUALSTYLE
  5
EC2
102
{ACAD_REACTORS
330
EB2
102
}
102
{ACAD_XDICTIONARY
360
EF6
102
}
330
EB2
100
AcDbVisualStyle
  2
ColorChange
 70
    16
 71
     2
 72
     2
 73
     3
 90
        0
 40
0.6
 41
30.0
 62
     5
 63
     8
421
  8421504
 74
     1
 91
        4
 64
     7
 65
   257
 75
     1
175
     1
 42
1.0
 92
        8
 66
     8
424
  8421504
 43
1.0
 76
     1
 77
     6
 78
     2
 67
     7
 79
     5
170
     0
171
     0
290
     0
174
     0
 93
        1
 44
0.0
173
     0
291
     1
 45
0.0
1001
ACAD
1000
AcDbSavedByObjectVersion
1070
     0
  0
VISUALSTYLE
  5
EBC
102
{ACAD_REACTORS
330
EB2
102
}
102
{ACAD_XDICTIONARY
360
EEA
102
}
330
EB2
100
AcDbVisualStyle
  2
Conceptual
 70
     9
 71
     3
 72
     2
 73
     0
 90
        0
 40
0.6
 41
30.0
 62
     5
 63
     7
421
 16777215
 74
     2
 91
        2
 64
     7
 65
   257
 75
     1
175
     1
 42
179.0
 92
        8
 66
     7
 43
1.0
 76
     1
 77
     6
 78
     2
 67
     7
 79
     3
170
     0
171
     0
290
     0
174
     0
 93
        1
 44
0.0
173
     0
291
     0
 45
0.0
1001
ACAD
1000
AcDbSavedByObjectVersion
1070
     0
  0
VISUALSTYLE
  5
EBD
102
{ACAD_REACTORS
330
EB2
102
}
102
{ACAD_XDICTIONARY
360
EEC
102
}
330
EB2
100
AcDbVisualStyle
  2
Dim
 70
    11
 71
     2
 72
     2
 73
     0
 90
        0
 40
0.6
 41
30.0
 62
     5
 63
     7
421
 16777215
 74
     1
 91
        4
 64
     7
 65
   257
 75
     1
175
     1
 42
1.0
 92
        8
 66
     7
 43
1.0
 76
     1
 77
     6
 78
     2
 67
     7
 79
     5
170
     0
171
     0
290
     0
174
     0
 93
        1
 44
-50.0
173
     0
291
     1
 45
0.0
1001
ACAD
1000
AcDbSavedByObjectVersion
1070
     0
  0
VISUALSTYLE
  5
EC5
102
{ACAD_REACTORS
330
EB2
102
}
102
{ACAD_XDICTIONARY
360
EFC
102
}
330
EB2
100
AcDbVisualStyle
  2
EdgeColorOff
 70
    22
 71
     2
 72
     2
 73
     0
 90
        0
 40
0.6
 41
30.0
 62
     5
 63
     7
421
 16777215
 74
     1
 91
        4
 64
     7
 65
   257
 75
     1
175
     1
 42
1.0
 92
        8
 66
     7
 43
1.0
 76
     1
 77
     6
 78
     2
 67
     7
 79
     5
170
     0
171
     0
290
     0
174
     0
 93
        1
 44
0.0
173
     0
291
     1
 45
0.0
1001
ACAD
1000
AcDbSavedByObjectVersion
1070
     0
  0
VISUALSTYLE
  5
EC1
102
{ACAD_REACTORS
330
EB2
102
}
102
{ACAD_XDICTIONARY
360
EF4
102
}
330
EB2
100
AcDbVisualStyle
  2
Facepattern
 70
    15
 71
     2
 72
     2
 73
     0
 90
        0
 40
0.6
 41
30.0
 62
     5
 63
     7
421
 16777215
 74
     1
 91
        4
 64
     7
 65
   257
 75
     1
175
     1
 42
1.0
 92
        8
 66
     7
 43
1.0
 76
     1
 77
     6
 78
     2
 67
     7
 79
     5
170
     0
171
     0
290
     0
174
     0
 93
        1
 44
0.0
173
     0
291
     1
 45
0.0
1001
ACAD
1000
AcDbSavedByObjectVersion
1070
     0
  0
VISUALSTYLE
  5
EB3
102
{ACAD_REACTORS
330
EB2
102
}
102
{ACAD_XDICTIONARY
360
ED8
102
}
330
EB2
100
AcDbVisualStyle
  2
Flat
 70
     0
 71
     2
 72
     1
 73
     1
 90
        2
 40
0.6
 41
30.0
 62
     5
 63
     7
421
 16777215
 74
     0
 91
        0
 64
     7
 65
   257
 75
     1
175
     1
 42
1.0
 92
        8
 66
     7
 43
1.0
 76
     1
 77
     6
 78
     2
 67
     7
 79
     5
170
     0
171
     0
290
     0
174
     0
 93
       13
 44
0.0
173
     0
291
     1
 45
0.0
1001
ACAD
1000
AcDbSavedByObjectVersion
1070
     0
  0
VISUALSTYLE
  5
EB4
102
{ACAD_REACTORS
330
EB2
102
}
102
{ACAD_XDICTIONARY
360
EDA
102
}
330
EB2
100
AcDbVisualStyle
  2
FlatWithEdges
 70
     1
 71
     2
 72
     1
 73
     1
 90
        2
 40
0.6
 41
30.0
 62
     5
 63
     7
421
 16777215
 74
     1
 91
        0
 64
     7
 65
   257
 75
     1
175
     1
 42
1.0
 92
        0
 66
   257
 43
1.0
 76
     1
 77
     6
 78
     2
 67
     7
 79
     5
170
     0
171
     0
290
     0
174
     0
 93
       13
 44
0.0
173
     0
291
     1
 45
0.0
1001
ACAD
1000
AcDbSavedByObjectVersion
1070
     0
  0
VISUALSTYLE
  5
EB5
102
{ACAD_REACTORS
330
EB2
102
}
102
{ACAD_XDICTIONARY
360
EDC
102
}
330
EB2
100
AcDbVisualStyle
  2
Gouraud
 70
     2
 71
     2
 72
     2
 73
     1
 90
        2
 40
0.6
 41
30.0
 62
     5
 63
     7
421
 16777215
 74
     0
 91
        0
 64
     7
 65
   257
 75
     1
175
     1
 42
1.0
 92
        0
 66
     7
 43
1.0
 76
     1
 77
     6
 78
     2
 67
     7
 79
     5
170
     0
171
     0
290
     0
174
     0
 93
       13
 44
0.0
173
     0
291
     1
 45
0.0
1001
ACAD
1000
AcDbSavedByObjectVersion
1070
     0
  0
VISUALSTYLE
  5
EB6
102
{ACAD_REACTORS
330
EB2
102
}
102
{ACAD_XDICTIONARY
360
EDE
102
}
330
EB2
100
AcDbVisualStyle
  2
GouraudWithEdges
 70
     3
 71
     2
 72
     2
 73
     1
 90
        2
 40
0.6
 41
30.0
 62
     5
 63
     7
421
 16777215
 74
     1
 91
        0
 64
     7
 65
   257
 75
     1
175
     1
 42
1.0
 92
        0
 66
   257
 43
1.0
 76
     1
 77
     6
 78
     2
 67
     7
 79
     5
170
     0
171
     0
290
     0
174
     0
 93
       13
 44
0.0
173
     0
291
     1
 45
0.0
1001
ACAD
1000
AcDbSavedByObjectVersion
1070
     0
  0
VISUALSTYLE
  5
EB9
102
{ACAD_REACTORS
330
EB2
102
}
102
{ACAD_XDICTIONARY
360
EE4
102
}
330
EB2
100
AcDbVisualStyle
  2
Hidden
 70
     6
 71
     1
 72
     2
 73
     2
 90
        0
 40
0.6
 41
30.0
 62
     5
 63
     7
421
 16777215
 74
     2
 91
        2
 64
     7
 65
   257
 75
     2
175
     1
 42
40.0
 92
        0
 66
   257
 43
1.0
 76
     1
 77
     6
 78
     2
 67
     7
 79
     3
170
     0
171
     0
290
     0
174
     0
 93
        1
 44
0.0
173
     0
291
     0
 45
0.0
1001
ACAD
1000
AcDbSavedByObjectVersion
1070
     0
  0
VISUALSTYLE
  5
EC3
102
{ACAD_REACTORS
330
EB2
102
}
102
{ACAD_XDICTIONARY
360
EF8
102
}
330
EB2
100
AcDbVisualStyle
  2
JitterOff
 70
    20
 71
     2
 72
     2
 73
     0
 90
        0
 40
0.6
 41
30.0
 62
     5
 63
     7
421
 16777215
 74
     1
 91
        4
 64
     7
 65
   257
 75
     1
175
     1
 42
1.0
 92
       10
 66
     7
 43
1.0
 76
     1
 77
     6
 78
     2
 67
     7
 79
     5
170
     0
171
     0
290
     0
174
     0
 93
        1
 44
0.0
173
     0
291
     1
 45
0.0
1001
ACAD
1000
AcDbSavedByObjectVersion
1070
     0
  0
VISUALSTYLE
  5
EC0
102
{ACAD_REACTORS
330
EB2
102
}
102
{ACAD_XDICTIONARY
360
EF2
102
}
330
EB2
100
AcDbVisualStyle
  2
Linepattern
 70
    14
 71
     2
 72
     2
 73
     0
 90
        0
 40
0.6
 41
30.0
 62
     5
 63
     7
421
 16777215
 74
     1
 91
        4
 64
     7
 65
   257
 75
     7
175
     7
 42
1.0
 92
        8
 66
     7
 43
1.0
 76
     1
 77
     6
 78
     2
 67
     7
 79
     5
170
     0
171
     0
290
     0
174
     0
 93
        1
 44
0.0
173
     0
291
     1
 45
0.0
1001
ACAD
1000
AcDbSavedByObjectVersion
1070
     0
  0
VISUALSTYLE
  5
EC4
102
{ACAD_REACTORS
330
EB2
102
}
102
{ACAD_XDICTIONARY
360
EFA
102
}
330
EB2
100
AcDbVisualStyle
  2
OverhangOff
 70
    21
 71
     2
 72
     2
 73
     0
 90
        0
 40
0.6
 41
30.0
 62
     5
 63
     7
421
 16777215
 74
     1
 91
        4
 64
     7
 65
   257
 75
     1
175
     1
 42
1.0
 92
        9
 66
     7
 43
1.0
 76
     1
 77
     6
 78
     2
 67
     7
 79
     5
170
     0
171
     0
290
     0
174
     0
 93
        1
 44
0.0
173
     0
291
     1
 45
0.0
1001
ACAD
1000
AcDbSavedByObjectVersion
1070
     0
  0
VISUALSTYLE
  5
EBB
102
{ACAD_REACTORS
330
EB2
102
}
102
{ACAD_XDICTIONARY
360
EE8
102
}
330
EB2
100
AcDbVisualStyle
  2
Realistic
 70
     8
 71
     2
 72
     3
 73
     0
 90
        2
 40
0.6
 41
30.0
 62
     5
 63
     7
421
 16777215
 74
     0
 91
        0
 64
     7
 65
   257
 75
     1
175
     1
 42
1.0
 92
        8
 66
   257
 43
1.0
 76
     1
 77
     6
 78
     2
 67
     7
 79
     3
170
     0
171
     0
290
     0
174
     0
 93
       13
 44
0.0
173
     0
291
     0
 45
0.0
1001
ACAD
1000
AcDbSavedByObjectVersion
1070
     0
  0
VISUALSTYLE
  5
ECA
102
{ACAD_REACTORS
330
EB2
102
}
102
{ACAD_XDICTIONARY
360
F06
102
}
330
EB2
100
AcDbVisualStyle
  2
Shaded
 70
    27
 71
     2
 72
     2
 73
     1
 90
        2
 40
0.6
 41
30.0
 62
     5
 63
     7
421
 16777215
 74
     0
 91
        4
 64
     7
 65
   257
 75
     1
175
     1
 42
1.0
 92
        8
 66
   257
 43
1.0
 76
     1
 77
     6
 78
     2
 67
     8
425
  7895160
 79
     3
170
     0
171
     0
290
     0
174
     0
 93
        5
 44
0.0
173
     0
291
     0
 45
0.0
1001
ACAD
1000
AcDbSavedByObjectVersion
1070
     0
  0
VISUALSTYLE
  5
EC9
102
{ACAD_REACTORS
330
EB2
102
}
102
{ACAD_XDICTIONARY
360
F04
102
}
330
EB2
100
AcDbVisualStyle
  2
Shaded with edges
 70
    26
 71
     2
 72
     2
 73
     1
 90
        2
 40
0.6
 41
30.0
 62
     5
 63
     7
421
 16777215
 74
     1
 91
       10
 64
     7
 65
   257
 75
     2
175
     1
 42
1.0
 92
        8
 66
   257
 43
1.0
 76
     1
 77
     6
 78
     2
 67
     7
 79
     3
170
     0
171
     0
290
     0
174
     0
 93
        5
 44
0.0
173
     0
291
     0
 45
0.0
1001
ACAD
1000
AcDbSavedByObjectVersion
1070
     0
  0
VISUALSTYLE
  5
EC6
102
{ACAD_REACTORS
330
EB2
102
}
102
{ACAD_XDICTIONARY
360
EFE
102
}
330
EB2
100
AcDbVisualStyle
  2
Shades of Gray
 70
    23
 71
     2
 72
     2
 73
     3
 90
        0
 40
0.6
 41
30.0
 62
     5
 63
     7
421
 16777215
 74
     2
 91
        2
 64
     7
 65
     7
 75
     1
175
     1
 42
40.0
 92
        8
 66
     7
 43
1.0
 76
     1
 77
     6
 78
     2
 67
     7
 79
     3
170
     0
171
     0
290
     0
174
     0
 93
        1
 44
0.0
173
     0
291
     0
 45
0.0
1001
ACAD
1000
AcDbSavedByObjectVersion
1070
     0
  0
VISUALSTYLE
  5
EC7
102
{ACAD_REACTORS
330
EB2
102
}
102
{ACAD_XDICTIONARY
360
F00
102
}
330
EB2
100
AcDbVisualStyle
  2
Sketchy
 70
    24
 71
     1
 72
     2
 73
     2
 90
        0
 40
0.6
 41
30.0
 62
     5
 63
     7
421
 16777215
 74
     2
 91
        2
 64
     7
 65
     7
 75
     1
175
     1
 42
40.0
 92
       11
 66
     7
 43
1.0
 76
     1
 77
     6
 78
     2
 67
     7
 79
     6
170
     0
171
     0
290
     0
174
     0
 93
        1
 44
0.0
173
     0
291
     0
 45
0.0
1001
ACAD
1000
AcDbSavedByObjectVersion
1070
     0
  0
VISUALSTYLE
  5
EBF
102
{ACAD_REACTORS
330
EB2
102
}
102
{ACAD_XDICTIONARY
360
EF0
102
}
330
EB2
100
AcDbVisualStyle
  2
Thicken
 70
    13
 71
     2
 72
     2
 73
     0
 90
        0
 40
0.6
 41
30.0
 62
     5
 63
     7
421
 16777215
 74
     1
 91
        4
 64
     7
 65
   257
 75
     1
175
     1
 42
1.0
 92
       12
 66
     7
 43
1.0
 76
     1
 77
     6
 78
     2
 67
     7
 79
     5
170
     0
171
     0
290
     0
174
     0
 93
        1
 44
0.0
173
     0
291
     1
 45
0.0
1001
ACAD
1000
AcDbSavedByObjectVersion
1070
     0
  0
VISUALSTYLE
  5
EB8
102
{ACAD_REACTORS
330
EB2
102
}
102
{ACAD_XDICTIONARY
360
EE2
102
}
330
EB2
100
AcDbVisualStyle
  2
Wireframe
 70
     5
 71
     0
 72
     2
 73
     0
 90
        0
 40
0.6
 41
30.0
 62
     5
 63
     7
421
 16777215
 74
     1
 91
        4
 64
     7
 65
   257
 75
     1
175
     1
 42
1.0
 92
        0
 66
   257
 43
1.0
 76
     1
 77
     6
 78
     2
 67
     7
 79
     3
170
     0
171
     0
290
     0
174
     0
 93
        1
 44
0.0
173
     0
291
     0
 45
0.0
1001
ACAD
1000
AcDbSavedByObjectVersion
1070
     0
  0
VISUALSTYLE
  5
EC8
102
{ACAD_REACTORS
330
EB2
102
}
102
{ACAD_XDICTIONARY
360
F02
102
}
330
EB2
100
AcDbVisualStyle
  2
X-Ray
 70
    25
 71
     2
 72
     2
 73
     1
 90
        1
 40
0.5
 41
30.0
 62
     5
 63
     7
421
 16777215
 74
     1
 91
        0
 64
     7
 65
   257
 75
     1
175
     1
 42
1.0
 92
        8
 66
     7
 43
1.0
 76
     1
 77
     6
 78
     2
 67
     7
 79
     3
170
     0
171
     0
290
     0
174
     0
 93
       13
 44
0.0
173
     0
291
     0
 45
0.0
1001
ACAD
1000
AcDbSavedByObjectVersion
1070
     0
  0
DICTIONARYVAR
  5
ED6
102
{ACAD_REACTORS
330
ED5
102
}
330
ED5
100
DictionaryVariables
280
     0
  1
1:1
  0
DICTIONARYVAR
  5
F16
102
{ACAD_REACTORS
330
ED5
102
}
330
ED5
100
DictionaryVariables
280
     0
  1
Standard
  0
DICTIONARYVAR
  5
F15
102
{ACAD_REACTORS
330
ED5
102
}
330
ED5
100
DictionaryVariables
280
     0
  1
Standard
  0
DICTIONARYVAR
  5
F17
102
{ACAD_REACTORS
330
ED5
102
}
330
ED5
100
DictionaryVariables
280
     0
  1
0
  0
DICTIONARYVAR
  5
ED7
102
{ACAD_REACTORS
330
ED5
102
}
330
ED5
100
DictionaryVariables
280
     0
  1
2
  0
DICTIONARY
  5
F0A
330
ECD
100
AcDbDictionary
280
     1
281
     1
  3
ACAD_XREC_ROUNDTRIP
360
F0B
  0
DICTIONARY
  5
F08
330
ECC
100
AcDbDictionary
280
     1
281
     1
  3
ACAD_XREC_ROUNDTRIP
360
F09
  0
DICTIONARY
  5
F0C
330
ECE
100
AcDbDictionary
280
     1
281
     1
  3
ACAD_XREC_ROUNDTRIP
360
F0D
  0
DICTIONARY
  5
F12
330
ED2
100
AcDbDictionary
280
     1
281
     1
  3
ACAD_XREC_ROUNDTRIP
360
F13
  0
DICTIONARY
  5
F0E
330
ED0
100
AcDbDictionary
280
     1
281
     1
  3
ACAD_ROUNDTRIP_2008_TABLESTYLE_CELLSTYLEMAP
360
F10
  3
ACAD_XREC_ROUNDTRIP
360
F0F
  0
DICTIONARY
  5
EE0
330
EB7
100
AcDbDictionary
280
     1
281
     1
  3
ACAD_XREC_ROUNDTRIP
360
EE1
  0
DICTIONARY
  5
EE6
330
EBA
100
AcDbDictionary
280
     1
281
     1
  3
ACAD_XREC_ROUNDTRIP
360
EE7
  0
DICTIONARY
  5
EEE
330
EBE
100
AcDbDictionary
280
     1
281
     1
  3
ACAD_XREC_ROUNDTRIP
360
EEF
  0
DICTIONARY
  5
EF6
330
EC2
100
AcDbDictionary
280
     1
281
     1
  3
ACAD_XREC_ROUNDTRIP
360
EF7
  0
DICTIONARY
  5
EEA
330
EBC
100
AcDbDictionary
280
     1
281
     1
  3
ACAD_XREC_ROUNDTRIP
360
EEB
  0
DICTIONARY
  5
EEC
330
EBD
100
AcDbDictionary
280
     1
281
     1
  3
ACAD_XREC_ROUNDTRIP
360
EED
  0
DICTIONARY
  5
EFC
330
EC5
100
AcDbDictionary
280
     1
281
     1
  3
ACAD_XREC_ROUNDTRIP
360
EFD
  0
DICTIONARY
  5
EF4
330
EC1
100
AcDbDictionary
280
     1
281
     1
  3
ACAD_XREC_ROUNDTRIP
360
EF5
  0
DICTIONARY
  5
ED8
330
EB3
100
AcDbDictionary
280
     1
281
     1
  3
ACAD_XREC_ROUNDTRIP
360
ED9
  0
DICTIONARY
  5
EDA
330
EB4
100
AcDbDictionary
280
     1
281
     1
  3
ACAD_XREC_ROUNDTRIP
360
EDB
  0
DICTIONARY
  5
EDC
330
EB5
100
AcDbDictionary
280
     1
281
     1
  3
ACAD_XREC_ROUNDTRIP
360
EDD
  0
DICTIONARY
  5
EDE
330
EB6
100
AcDbDictionary
280
     1
281
     1
  3
ACAD_XREC_ROUNDTRIP
360
EDF
  0
DICTIONARY
  5
EE4
330
EB9
100
AcDbDictionary
280
     1
281
     1
  3
ACAD_XREC_ROUNDTRIP
360
EE5
  0
DICTIONARY
  5
EF8
330
EC3
100
AcDbDictionary
280
     1
281
     1
  3
ACAD_XREC_ROUNDTRIP
360
EF9
  0
DICTIONARY
  5
EF2
330
EC0
100
AcDbDictionary
280
     1
281
     1
  3
ACAD_XREC_ROUNDTRIP
360
EF3
  0
DICTIONARY
  5
EFA
330
EC4
100
AcDbDictionary
280
     1
281
     1
  3
ACAD_XREC_ROUNDTRIP
360
EFB
  0
DICTIONARY
  5
EE8
330
EBB
100
AcDbDictionary
280
     1
281
     1
  3
ACAD_XREC_ROUNDTRIP
360
EE9
  0
DICTIONARY
  5
F06
330
ECA
100
AcDbDictionary
280
     1
281
     1
  3
ACAD_XREC_ROUNDTRIP
360
F07
  0
DICTIONARY
  5
F04
330
EC9
100
AcDbDictionary
280
     1
281
     1
  3
ACAD_XREC_ROUNDTRIP
360
F05
  0
DICTIONARY
  5
EFE
330
EC6
100
AcDbDictionary
280
     1
281
     1
  3
ACAD_XREC_ROUNDTRIP
360
EFF
  0
DICTIONARY
  5
F00
330
EC7
100
AcDbDictionary
280
     1
281
     1
  3
ACAD_XREC_ROUNDTRIP
360
F01
  0
DICTIONARY
  5
EF0
330
EBF
100
AcDbDictionary
280
     1
281
     1
  3
ACAD_XREC_ROUNDTRIP
360
EF1
  0
DICTIONARY
  5
EE2
330
EB8
100
AcDbDictionary
280
     1
281
     1
  3
ACAD_XREC_ROUNDTRIP
360
EE3
  0
DICTIONARY
  5
F02
330
EC8
100
AcDbDictionary
280
     1
281
     1
  3
ACAD_XREC_ROUNDTRIP
360
F03
  0
XRECORD
  5
F0B
102
{ACAD_REACTORS
330
F0A
102
}
330
F0A
100
AcDbXrecord
280
     1
102
MATERIAL
148
0.0
149
0.0
149
0.0
 93
        0
 94
      127
282
     0
 72
     1
 77
     1
171
     1
175
     1
179
     1
273
     0
  0
XRECORD
  5
F09
102
{ACAD_REACTORS
330
F08
102
}
330
F08
100
AcDbXrecord
280
     1
102
MATERIAL
148
0.0
149
0.0
149
0.0
 93
        0
 94
      127
282
     0
 72
     1
 77
     1
171
     1
175
     1
179
     1
273
     0
  0
XRECORD
  5
F0D
102
{ACAD_REACTORS
330
F0C
102
}
330
F0C
100
AcDbXrecord
280
     1
102
MATERIAL
148
0.0
149
0.0
149
0.0
 93
        0
 94
      127
282
     0
 72
     1
 77
     1
171
     1
175
     1
179
     1
273
     0
  0
XRECORD
  5
F13
102
{ACAD_REACTORS
330
F12
102
}
330
F12
100
AcDbXrecord
280
     1
102
ACAD_ROUNDTRIP_2010_MLEADER_STYLE
  0
CELLSTYLEMAP
  5
F10
102
{ACAD_REACTORS
330
F0E
102
}
330
F0E
100
AcDbCellStyleMap
 90
        3
300
CELLSTYLE
  1
TABLEFORMAT_BEGIN
 90
        5
170
     1
 91
        0
 92
    32768
 62
   257
 93
        1
300
CONTENTFORMAT
  1
CONTENTFORMAT_BEGIN
 90
        0
 91
        0
 92
        4
 93
        0
300

 40
0.0
140
1.0
 94
        5
 62
     0
340
11
144
0.25
309
CONTENTFORMAT_END
171
     1
301
MARGIN
  1
CELLMARGIN_BEGIN
 40
0.06
 40
0.06
 40
0.06
 40
0.06
 40
0.06
 40
0.06
309
CELLMARGIN_END
 94
        6
 95
        1
302
GRIDFORMAT
  1
GRIDFORMAT_BEGIN
 90
        0
 91
        1
 62
     0
 92
       -2
340
14
 93
        0
 40
0.045
309
GRIDFORMAT_END
 95
        2
302
GRIDFORMAT
  1
GRIDFORMAT_BEGIN
 90
        0
 91
        1
 62
     0
 92
       -2
340
14
 93
        0
 40
0.045
309
GRIDFORMAT_END
 95
        4
302
GRIDFORMAT
  1
GRIDFORMAT_BEGIN
 90
        0
 91
        1
 62
     0
 92
       -2
340
14
 93
        0
 40
0.045
309
GRIDFORMAT_END
 95
        8
302
GRIDFORMAT
  1
GRIDFORMAT_BEGIN
 90
        0
 91
        1
 62
     0
 92
       -2
340
14
 93
        0
 40
0.045
309
GRIDFORMAT_END
 95
       16
302
GRIDFORMAT
  1
GRIDFORMAT_BEGIN
 90
        0
 91
        1
 62
     0
 92
       -2
340
14
 93
        0
 40
0.045
309
GRIDFORMAT_END
 95
       32
302
GRIDFORMAT
  1
GRIDFORMAT_BEGIN
 90
        0
 91
        1
 62
     0
 92
       -2
340
14
 93
        0
 40
0.045
309
GRIDFORMAT_END
309
TABLEFORMAT_END
  1
CELLSTYLE_BEGIN
 90
        1
 91
        1
300
_TITLE
309
CELLSTYLE_END
300
CELLSTYLE
  1
TABLEFORMAT_BEGIN
 90
        5
170
     1
 91
        0
 92
        0
 62
   257
 93
        1
300
CONTENTFORMAT
  1
CONTENTFORMAT_BEGIN
 90
        0
 91
        0
 92
        4
 93
        0
300

 40
0.0
140
1.0
 94
        5
 62
     0
340
11
144
0.18
309
CONTENTFORMAT_END
171
     1
301
MARGIN
  1
CELLMARGIN_BEGIN
 40
0.06
 40
0.06
 40
0.06
 40
0.06
 40
0.06
 40
0.06
309
CELLMARGIN_END
 94
        6
 95
        1
302
GRIDFORMAT
  1
GRIDFORMAT_BEGIN
 90
        0
 91
        1
 62
     0
 92
       -2
340
14
 93
        0
 40
0.045
309
GRIDFORMAT_END
 95
        2
302
GRIDFORMAT
  1
GRIDFORMAT_BEGIN
 90
        0
 91
        1
 62
     0
 92
       -2
340
14
 93
        0
 40
0.045
309
GRIDFORMAT_END
 95
        4
302
GRIDFORMAT
  1
GRIDFORMAT_BEGIN
 90
        0
 91
        1
 62
     0
 92
       -2
340
14
 93
        0
 40
0.045
309
GRIDFORMAT_END
 95
        8
302
GRIDFORMAT
  1
GRIDFORMAT_BEGIN
 90
        0
 91
        1
 62
     0
 92
       -2
340
14
 93
        0
 40
0.045
309
GRIDFORMAT_END
 95
       16
302
GRIDFORMAT
  1
GRIDFORMAT_BEGIN
 90
        0
 91
        1
 62
     0
 92
       -2
340
14
 93
        0
 40
0.045
309
GRIDFORMAT_END
 95
       32
302
GRIDFORMAT
  1
GRIDFORMAT_BEGIN
 90
        0
 91
        1
 62
     0
 92
       -2
340
14
 93
        0
 40
0.045
309
GRIDFORMAT_END
309
TABLEFORMAT_END
  1
CELLSTYLE_BEGIN
 90
        2
 91
        1
300
_HEADER
309
CELLSTYLE_END
300
CELLSTYLE
  1
TABLEFORMAT_BEGIN
 90
        5
170
     1
 91
        0
 92
        0
 62
   257
 93
        1
300
CONTENTFORMAT
  1
CONTENTFORMAT_BEGIN
 90
        0
 91
        0
 92
        4
 93
        0
300

 40
0.0
140
1.0
 94
        2
 62
     0
340
11
144
0.18
309
CONTENTFORMAT_END
171
     1
301
MARGIN
  1
CELLMARGIN_BEGIN
 40
0.06
 40
0.06
 40
0.06
 40
0.06
 40
0.06
 40
0.06
309
CELLMARGIN_END
 94
        6
 95
        1
302
GRIDFORMAT
  1
GRIDFORMAT_BEGIN
 90
        0
 91
        1
 62
     0
 92
       -2
340
14
 93
        0
 40
0.045
309
GRIDFORMAT_END
 95
        2
302
GRIDFORMAT
  1
GRIDFORMAT_BEGIN
 90
        0
 91
        1
 62
     0
 92
       -2
340
14
 93
        0
 40
0.045
309
GRIDFORMAT_END
 95
        4
302
GRIDFORMAT
  1
GRIDFORMAT_BEGIN
 90
        0
 91
        1
 62
     0
 92
       -2
340
14
 93
        0
 40
0.045
309
GRIDFORMAT_END
 95
        8
302
GRIDFORMAT
  1
GRIDFORMAT_BEGIN
 90
        0
 91
        1
 62
     0
 92
       -2
340
14
 93
        0
 40
0.045
309
GRIDFORMAT_END
 95
       16
302
GRIDFORMAT
  1
GRIDFORMAT_BEGIN
 90
        0
 91
        1
 62
     0
 92
       -2
340
14
 93
        0
 40
0.045
309
GRIDFORMAT_END
 95
       32
302
GRIDFORMAT
  1
GRIDFORMAT_BEGIN
 90
        0
 91
        1
 62
     0
 92
       -2
340
14
 93
        0
 40
0.045
309
GRIDFORMAT_END
309
TABLEFORMAT_END
  1
CELLSTYLE_BEGIN
 90
        3
 91
        2
300
_DATA
309
CELLSTYLE_END
  0
XRECORD
  5
F0F
102
{ACAD_REACTORS
330
F0E
102
}
330
F0E
100
AcDbXrecord
280
     1
102
ACAD_ROUNDTRIP_PRE2007_TABLESTYLE
 90
        4
 91
        0
  1

 92
        4
 93
        0
  2

 94
        4
 95
        0
  3

  0
XRECORD
  5
EE1
102
{ACAD_REACTORS
330
EE0
102
}
330
EE0
100
AcDbXrecord
280
     1
102
RTVSPropertyOp0
 70
     1
102
RTVSPropertyOp1
 70
     1
102
RTVSPropertyOp2
 70
     1
102
RTVSPropertyOp3
 70
     1
102
RTVSPropertyOp4
 70
     1
102
RTVSPropertyOp5
 70
     1
102
RTVSPropertyOp6
 70
     1
102
RTVSPropertyOp7
 70
     1
102
RTVSPropertyOp8
 70
     1
102
RTVSPropertyOp9
 70
     1
102
RTVSPropertyOp10
 70
     1
102
RTVSPropertyOp11
 70
     1
102
RTVSPropertyOp12
 70
     1
102
RTVSPropertyOp13
 70
     1
102
RTVSPropertyOp14
 70
     1
102
RTVSPropertyOp15
 70
     1
102
RTVSPropertyOp16
 70
     1
102
RTVSPropertyOp17
 70
     1
102
RTVSPropertyOp18
 70
     1
102
RTVSPropertyOp19
 70
     1
102
RTVSPropertyOp20
 70
     1
102
RTVSPropertyOp21
 70
     1
102
RTVSPropertyOp22
 70
     1
102
RTVSPropertyOp23
 70
     1
102
RTVSPropertyOp24
 70
     1
102
RTVSPropertyOp25
 70
     1
102
RTVSPropertyOp26
 70
     1
102
RTVSPropertyOp27
 70
     1
102
RTVSPropertyOp28
 70
     1
102
RTVSPropertyOp29
 70
     1
102
RTVSPropertyOp30
 70
     1
102
RTVSPropertyOp31
 70
     1
102
RTVSPropertyOp32
 70
     1
102
RTVSPropertyOp33
 70
     1
102
RTVSPropertyOp34
 70
     1
102
RTVSPropertyOp35
 70
     1
102
RTVSPropertyOp36
 70
     1
102
RTVSPropertyOp37
 70
     1
102
RTVSPropertyOp38
 70
     1
102
RTVSPropertyOp39
 70
     1
102
RTVSPropertyOp40
 70
     1
102
RTVSPropertyOp41
 70
     1
102
RTVSPropertyOp42
 70
     1
102
RTVSPropertyOp43
 70
     1
102
RTVSPropertyOp44
 70
     1
102
RTVSPropertyOp45
 70
     1
102
RTVSPropertyOp46
 70
     1
102
RTVSPropertyOp47
 70
     1
102
RTVSPropertyOp48
 70
     1
102
RTVSPropertyOp49
 70
     1
102
RTVSPropertyOp50
 70
     1
102
RTVSPropertyOp51
 70
     0
102
RTVSPropertyOp52
 70
     0
102
RTVSPropertyOp53
 70
     1
102
RTVSPropertyOp54
 70
     1
102
RTVSPropertyOp55
 70
     1
102
RTVSPropertyOp56
 70
     1
102
RTVSPropertyOp57
 70
     1
102
RTVSPost2010Prop28
280
     1
102
RTVSPost2010PropOp28
 70
     1
102
RTVSPost2010Prop29
280
     1
102
RTVSPost2010PropOp29
 70
     1
102
RTVSPost2010Prop30
280
     0
102
RTVSPost2010PropOp30
 70
     1
102
RTVSPost2010Prop31
280
     0
102
RTVSPost2010PropOp31
 70
     1
102
RTVSPost2010Prop32
280
     0
102
RTVSPost2010PropOp32
 70
     1
102
RTVSPost2010Prop33
280
     0
102
RTVSPost2010PropOp33
 70
     1
102
RTVSPost2010Prop34
280
     0
102
RTVSPost2010PropOp34
 70
     1
102
RTVSPost2010Prop35
280
     0
102
RTVSPost2010PropOp35
 70
     1
102
RTVSPost2010Prop36
280
     0
102
RTVSPost2010PropOp36
 70
     1
102
RTVSPost2010Prop37
 90
       50
102
RTVSPost2010PropOp37
 70
     1
102
RTVSPost2010Prop38
140
0.0
102
RTVSPost2010PropOp38
 70
     1
102
RTVSPost2010Prop39
140
1.0
102
RTVSPost2010PropOp39
 70
     1
102
RTVSPost2010Prop40
 90
        0
102
RTVSPost2010PropOp40
 70
     1
102
RTVSPost2010Prop41ColorIndex
 90
       18
102
RTVSPost2010Prop41ColorRGB
 90
        0
102
RTVSPost2010PropOp41
 70
     1
102
RTVSPost2010Prop42
 90
       50
102
RTVSPost2010PropOp42
 70
     1
102
RTVSPost2010Prop43
 90
        3
102
RTVSPost2010PropOp43
 70
     1
102
RTVSPost2010Prop44ColorIndex
 90
        5
102
RTVSPost2010Prop44ColorRGB
 90
      255
102
RTVSPost2010PropOp44
 70
     1
102
RTVSPost2010Prop45
280
     0
102
RTVSPost2010PropOp45
 70
     1
102
RTVSPost2010Prop46
 90
       50
102
RTVSPost2010PropOp46
 70
     1
102
RTVSPost2010Prop47
 90
       50
102
RTVSPost2010PropOp47
 70
     1
102
RTVSPost2010Prop48
 90
       50
102
RTVSPost2010PropOp48
 70
     1
102
RTVSPost2010Prop49
280
     0
102
RTVSPost2010PropOp49
 70
     1
102
RTVSPost2010Prop50
 90
       50
102
RTVSPost2010PropOp50
 70
     1
102
RTVSPost2010Prop51ColorIndex
 90
      256
102
RTVSPost2010Prop51ColorRGB
 90
-16777216
102
RTVSPost2010PropOp51
 70
     0
102
RTVSPost2010Prop52
140
1.0
102
RTVSPost2010PropOp52
 70
     0
102
RTVSPost2010Prop53
 90
        2
102
RTVSPost2010PropOp53
 70
     1
102
RTVSPost2010Prop54
  1
strokes_ogs.tif
102
RTVSPost2010PropOp54
 70
     1
102
RTVSPost2010Prop55
280
     0
102
RTVSPost2010PropOp55
 70
     1
102
RTVSPost2010Prop56
140
1.0
102
RTVSPost2010PropOp56
 70
     1
102
RTVSPost2010Prop57
140
1.0
102
RTVSPost2010PropOp57
 70
     1
  0
XRECORD
  5
EE7
102
{ACAD_REACTORS
330
EE6
102
}
330
EE6
100
AcDbXrecord
280
     1
102
RTVSPropertyOp0
 70
     1
102
RTVSPropertyOp1
 70
     1
102
RTVSPropertyOp2
 70
     1
102
RTVSPropertyOp3
 70
     1
102
RTVSPropertyOp4
 70
     1
102
RTVSPropertyOp5
 70
     1
102
RTVSPropertyOp6
 70
     1
102
RTVSPropertyOp7
 70
     1
102
RTVSPropertyOp8
 70
     1
102
RTVSPropertyOp9
 70
     1
102
RTVSPropertyOp10
 70
     1
102
RTVSPropertyOp11
 70
     1
102
RTVSPropertyOp12
 70
     1
102
RTVSPropertyOp13
 70
     1
102
RTVSPropertyOp14
 70
     1
102
RTVSPropertyOp15
 70
     1
102
RTVSPropertyOp16
 70
     1
102
RTVSPropertyOp17
 70
     1
102
RTVSPropertyOp18
 70
     1
102
RTVSPropertyOp19
 70
     1
102
RTVSPropertyOp20
 70
     1
102
RTVSPropertyOp21
 70
     1
102
RTVSPropertyOp22
 70
     1
102
RTVSPropertyOp23
 70
     1
102
RTVSPropertyOp24
 70
     1
102
RTVSPropertyOp25
 70
     1
102
RTVSPropertyOp26
 70
     1
102
RTVSPropertyOp27
 70
     1
102
RTVSPropertyOp28
 70
     1
102
RTVSPropertyOp29
 70
     1
102
RTVSPropertyOp30
 70
     1
102
RTVSPropertyOp31
 70
     1
102
RTVSPropertyOp32
 70
     1
102
RTVSPropertyOp33
 70
     1
102
RTVSPropertyOp34
 70
     1
102
RTVSPropertyOp35
 70
     1
102
RTVSPropertyOp36
 70
     1
102
RTVSPropertyOp37
 70
     1
102
RTVSPropertyOp38
 70
     1
102
RTVSPropertyOp39
 70
     1
102
RTVSPropertyOp40
 70
     1
102
RTVSPropertyOp41
 70
     1
102
RTVSPropertyOp42
 70
     1
102
RTVSPropertyOp43
 70
     1
102
RTVSPropertyOp44
 70
     1
102
RTVSPropertyOp45
 70
     1
102
RTVSPropertyOp46
 70
     1
102
RTVSPropertyOp47
 70
     1
102
RTVSPropertyOp48
 70
     1
102
RTVSPropertyOp49
 70
     1
102
RTVSPropertyOp50
 70
     1
102
RTVSPropertyOp51
 70
     0
102
RTVSPropertyOp52
 70
     0
102
RTVSPropertyOp53
 70
     1
102
RTVSPropertyOp54
 70
     1
102
RTVSPropertyOp55
 70
     1
102
RTVSPropertyOp56
 70
     1
102
RTVSPropertyOp57
 70
     1
102
RTVSPost2010Prop28
280
     0
102
RTVSPost2010PropOp28
 70
     1
102
RTVSPost2010Prop29
280
     1
102
RTVSPost2010PropOp29
 70
     1
102
RTVSPost2010Prop30
280
     1
102
RTVSPost2010PropOp30
 70
     1
102
RTVSPost2010Prop31
280
     0
102
RTVSPost2010PropOp31
 70
     1
102
RTVSPost2010Prop32
280
     0
102
RTVSPost2010PropOp32
 70
     1
102
RTVSPost2010Prop33
280
     0
102
RTVSPost2010PropOp33
 70
     1
102
RTVSPost2010Prop34
280
     0
102
RTVSPost2010PropOp34
 70
     1
102
RTVSPost2010Prop35
280
     0
102
RTVSPost2010PropOp35
 70
     1
102
RTVSPost2010Prop36
280
     0
102
RTVSPost2010PropOp36
 70
     1
102
RTVSPost2010Prop37
 90
       50
102
RTVSPost2010PropOp37
 70
     1
102
RTVSPost2010Prop38
140
0.0
102
RTVSPost2010PropOp38
 70
     1
102
RTVSPost2010Prop39
140
1.0
102
RTVSPost2010PropOp39
 70
     1
102
RTVSPost2010Prop40
 90
        0
102
RTVSPost2010PropOp40
 70
     1
102
RTVSPost2010Prop41ColorIndex
 90
       18
102
RTVSPost2010Prop41ColorRGB
 90
        0
102
RTVSPost2010PropOp41
 70
     1
102
RTVSPost2010Prop42
 90
       50
102
RTVSPost2010PropOp42
 70
     1
102
RTVSPost2010Prop43
 90
        3
102
RTVSPost2010PropOp43
 70
     1
102
RTVSPost2010Prop44ColorIndex
 90
        5
102
RTVSPost2010Prop44ColorRGB
 90
      255
102
RTVSPost2010PropOp44
 70
     1
102
RTVSPost2010Prop45
280
     0
102
RTVSPost2010PropOp45
 70
     1
102
RTVSPost2010Prop46
 90
       50
102
RTVSPost2010PropOp46
 70
     1
102
RTVSPost2010Prop47
 90
       50
102
RTVSPost2010PropOp47
 70
     1
102
RTVSPost2010Prop48
 90
       50
102
RTVSPost2010PropOp48
 70
     1
102
RTVSPost2010Prop49
280
     0
102
RTVSPost2010PropOp49
 70
     1
102
RTVSPost2010Prop50
 90
       50
102
RTVSPost2010PropOp50
 70
     1
102
RTVSPost2010Prop51ColorIndex
 90
      256
102
RTVSPost2010Prop51ColorRGB
 90
-16777216
102
RTVSPost2010PropOp51
 70
     0
102
RTVSPost2010Prop52
140
1.0
102
RTVSPost2010PropOp52
 70
     0
102
RTVSPost2010Prop53
 90
        2
102
RTVSPost2010PropOp53
 70
     1
102
RTVSPost2010Prop54
  1
strokes_ogs.tif
102
RTVSPost2010PropOp54
 70
     1
102
RTVSPost2010Prop55
280
     0
102
RTVSPost2010PropOp55
 70
     1
102
RTVSPost2010Prop56
140
1.0
102
RTVSPost2010PropOp56
 70
     1
102
RTVSPost2010Prop57
140
1.0
102
RTVSPost2010PropOp57
 70
     1
  0
XRECORD
  5
EEF
102
{ACAD_REACTORS
330
EEE
102
}
330
EEE
100
AcDbXrecord
280
     1
102
RTVSPropertyOp0
 70
     1
102
RTVSPropertyOp1
 70
     1
102
RTVSPropertyOp2
 70
     1
102
RTVSPropertyOp3
 70
     1
102
RTVSPropertyOp4
 70
     1
102
RTVSPropertyOp5
 70
     1
102
RTVSPropertyOp6
 70
     1
102
RTVSPropertyOp7
 70
     1
102
RTVSPropertyOp8
 70
     1
102
RTVSPropertyOp9
 70
     1
102
RTVSPropertyOp10
 70
     1
102
RTVSPropertyOp11
 70
     1
102
RTVSPropertyOp12
 70
     1
102
RTVSPropertyOp13
 70
     1
102
RTVSPropertyOp14
 70
     1
102
RTVSPropertyOp15
 70
     1
102
RTVSPropertyOp16
 70
     1
102
RTVSPropertyOp17
 70
     1
102
RTVSPropertyOp18
 70
     1
102
RTVSPropertyOp19
 70
     1
102
RTVSPropertyOp20
 70
     1
102
RTVSPropertyOp21
 70
     1
102
RTVSPropertyOp22
 70
     1
102
RTVSPropertyOp23
 70
     1
102
RTVSPropertyOp24
 70
     1
102
RTVSPropertyOp25
 70
     1
102
RTVSPropertyOp26
 70
     1
102
RTVSPropertyOp27
 70
     1
102
RTVSPropertyOp28
 70
     1
102
RTVSPropertyOp29
 70
     1
102
RTVSPropertyOp30
 70
     1
102
RTVSPropertyOp31
 70
     1
102
RTVSPropertyOp32
 70
     1
102
RTVSPropertyOp33
 70
     1
102
RTVSPropertyOp34
 70
     1
102
RTVSPropertyOp35
 70
     1
102
RTVSPropertyOp36
 70
     1
102
RTVSPropertyOp37
 70
     1
102
RTVSPropertyOp38
 70
     1
102
RTVSPropertyOp39
 70
     1
102
RTVSPropertyOp40
 70
     1
102
RTVSPropertyOp41
 70
     1
102
RTVSPropertyOp42
 70
     1
102
RTVSPropertyOp43
 70
     1
102
RTVSPropertyOp44
 70
     1
102
RTVSPropertyOp45
 70
     1
102
RTVSPropertyOp46
 70
     1
102
RTVSPropertyOp47
 70
     1
102
RTVSPropertyOp48
 70
     1
102
RTVSPropertyOp49
 70
     1
102
RTVSPropertyOp50
 70
     1
102
RTVSPropertyOp51
 70
     0
102
RTVSPropertyOp52
 70
     0
102
RTVSPropertyOp53
 70
     1
102
RTVSPropertyOp54
 70
     1
102
RTVSPropertyOp55
 70
     1
102
RTVSPropertyOp56
 70
     1
102
RTVSPropertyOp57
 70
     1
102
RTVSPost2010Prop28
280
     0
102
RTVSPost2010PropOp28
 70
     1
102
RTVSPost2010Prop29
280
     1
102
RTVSPost2010PropOp29
 70
     1
102
RTVSPost2010Prop30
280
     1
102
RTVSPost2010PropOp30
 70
     1
102
RTVSPost2010Prop31
280
     0
102
RTVSPost2010PropOp31
 70
     1
102
RTVSPost2010Prop32
280
     0
102
RTVSPost2010PropOp32
 70
     1
102
RTVSPost2010Prop33
280
     0
102
RTVSPost2010PropOp33
 70
     1
102
RTVSPost2010Prop34
280
     0
102
RTVSPost2010PropOp34
 70
     1
102
RTVSPost2010Prop35
280
     0
102
RTVSPost2010PropOp35
 70
     1
102
RTVSPost2010Prop36
280
     0
102
RTVSPost2010PropOp36
 70
     1
102
RTVSPost2010Prop37
 90
       50
102
RTVSPost2010PropOp37
 70
     1
102
RTVSPost2010Prop38
140
0.0
102
RTVSPost2010PropOp38
 70
     1
102
RTVSPost2010Prop39
140
1.0
102
RTVSPost2010PropOp39
 70
     1
102
RTVSPost2010Prop40
 90
        0
102
RTVSPost2010PropOp40
 70
     1
102
RTVSPost2010Prop41ColorIndex
 90
       18
102
RTVSPost2010Prop41ColorRGB
 90
        0
102
RTVSPost2010PropOp41
 70
     1
102
RTVSPost2010Prop42
 90
       50
102
RTVSPost2010PropOp42
 70
     1
102
RTVSPost2010Prop43
 90
        3
102
RTVSPost2010PropOp43
 70
     1
102
RTVSPost2010Prop44ColorIndex
 90
        5
102
RTVSPost2010Prop44ColorRGB
 90
      255
102
RTVSPost2010PropOp44
 70
     1
102
RTVSPost2010Prop45
280
     0
102
RTVSPost2010PropOp45
 70
     1
102
RTVSPost2010Prop46
 90
       50
102
RTVSPost2010PropOp46
 70
     1
102
RTVSPost2010Prop47
 90
       50
102
RTVSPost2010PropOp47
 70
     1
102
RTVSPost2010Prop48
 90
       50
102
RTVSPost2010PropOp48
 70
     1
102
RTVSPost2010Prop49
280
     0
102
RTVSPost2010PropOp49
 70
     1
102
RTVSPost2010Prop50
 90
       50
102
RTVSPost2010PropOp50
 70
     1
102
RTVSPost2010Prop51ColorIndex
 90
      256
102
RTVSPost2010Prop51ColorRGB
 90
-16777216
102
RTVSPost2010PropOp51
 70
     0
102
RTVSPost2010Prop52
140
1.0
102
RTVSPost2010PropOp52
 70
     0
102
RTVSPost2010Prop53
 90
        2
102
RTVSPost2010PropOp53
 70
     1
102
RTVSPost2010Prop54
  1
strokes_ogs.tif
102
RTVSPost2010PropOp54
 70
     1
102
RTVSPost2010Prop55
280
     0
102
RTVSPost2010PropOp55
 70
     1
102
RTVSPost2010Prop56
140
1.0
102
RTVSPost2010PropOp56
 70
     1
102
RTVSPost2010Prop57
140
1.0
102
RTVSPost2010PropOp57
 70
     1
  0
XRECORD
  5
EF7
102
{ACAD_REACTORS
330
EF6
102
}
330
EF6
100
AcDbXrecord
280
     1
102
RTVSPropertyOp0
 70
     1
102
RTVSPropertyOp1
 70
     1
102
RTVSPropertyOp2
 70
     1
102
RTVSPropertyOp3
 70
     1
102
RTVSPropertyOp4
 70
     1
102
RTVSPropertyOp5
 70
     1
102
RTVSPropertyOp6
 70
     1
102
RTVSPropertyOp7
 70
     1
102
RTVSPropertyOp8
 70
     1
102
RTVSPropertyOp9
 70
     1
102
RTVSPropertyOp10
 70
     1
102
RTVSPropertyOp11
 70
     1
102
RTVSPropertyOp12
 70
     1
102
RTVSPropertyOp13
 70
     1
102
RTVSPropertyOp14
 70
     1
102
RTVSPropertyOp15
 70
     1
102
RTVSPropertyOp16
 70
     1
102
RTVSPropertyOp17
 70
     1
102
RTVSPropertyOp18
 70
     1
102
RTVSPropertyOp19
 70
     1
102
RTVSPropertyOp20
 70
     1
102
RTVSPropertyOp21
 70
     1
102
RTVSPropertyOp22
 70
     1
102
RTVSPropertyOp23
 70
     1
102
RTVSPropertyOp24
 70
     1
102
RTVSPropertyOp25
 70
     1
102
RTVSPropertyOp26
 70
     1
102
RTVSPropertyOp27
 70
     1
102
RTVSPropertyOp28
 70
     1
102
RTVSPropertyOp29
 70
     1
102
RTVSPropertyOp30
 70
     1
102
RTVSPropertyOp31
 70
     1
102
RTVSPropertyOp32
 70
     1
102
RTVSPropertyOp33
 70
     1
102
RTVSPropertyOp34
 70
     1
102
RTVSPropertyOp35
 70
     1
102
RTVSPropertyOp36
 70
     1
102
RTVSPropertyOp37
 70
     1
102
RTVSPropertyOp38
 70
     1
102
RTVSPropertyOp39
 70
     1
102
RTVSPropertyOp40
 70
     1
102
RTVSPropertyOp41
 70
     1
102
RTVSPropertyOp42
 70
     1
102
RTVSPropertyOp43
 70
     1
102
RTVSPropertyOp44
 70
     1
102
RTVSPropertyOp45
 70
     1
102
RTVSPropertyOp46
 70
     1
102
RTVSPropertyOp47
 70
     1
102
RTVSPropertyOp48
 70
     1
102
RTVSPropertyOp49
 70
     1
102
RTVSPropertyOp50
 70
     1
102
RTVSPropertyOp51
 70
     0
102
RTVSPropertyOp52
 70
     0
102
RTVSPropertyOp53
 70
     1
102
RTVSPropertyOp54
 70
     1
102
RTVSPropertyOp55
 70
     1
102
RTVSPropertyOp56
 70
     1
102
RTVSPropertyOp57
 70
     1
102
RTVSPost2010Prop28
280
     0
102
RTVSPost2010PropOp28
 70
     1
102
RTVSPost2010Prop29
280
     1
102
RTVSPost2010PropOp29
 70
     1
102
RTVSPost2010Prop30
280
     1
102
RTVSPost2010PropOp30
 70
     1
102
RTVSPost2010Prop31
280
     0
102
RTVSPost2010PropOp31
 70
     1
102
RTVSPost2010Prop32
280
     0
102
RTVSPost2010PropOp32
 70
     1
102
RTVSPost2010Prop33
280
     0
102
RTVSPost2010PropOp33
 70
     1
102
RTVSPost2010Prop34
280
     0
102
RTVSPost2010PropOp34
 70
     1
102
RTVSPost2010Prop35
280
     0
102
RTVSPost2010PropOp35
 70
     1
102
RTVSPost2010Prop36
280
     0
102
RTVSPost2010PropOp36
 70
     1
102
RTVSPost2010Prop37
 90
       50
102
RTVSPost2010PropOp37
 70
     1
102
RTVSPost2010Prop38
140
0.0
102
RTVSPost2010PropOp38
 70
     1
102
RTVSPost2010Prop39
140
1.0
102
RTVSPost2010PropOp39
 70
     1
102
RTVSPost2010Prop40
 90
        0
102
RTVSPost2010PropOp40
 70
     1
102
RTVSPost2010Prop41ColorIndex
 90
       18
102
RTVSPost2010Prop41ColorRGB
 90
        0
102
RTVSPost2010PropOp41
 70
     1
102
RTVSPost2010Prop42
 90
       50
102
RTVSPost2010PropOp42
 70
     1
102
RTVSPost2010Prop43
 90
        3
102
RTVSPost2010PropOp43
 70
     1
102
RTVSPost2010Prop44ColorIndex
 90
        5
102
RTVSPost2010Prop44ColorRGB
 90
      255
102
RTVSPost2010PropOp44
 70
     1
102
RTVSPost2010Prop45
280
     0
102
RTVSPost2010PropOp45
 70
     1
102
RTVSPost2010Prop46
 90
       50
102
RTVSPost2010PropOp46
 70
     1
102
RTVSPost2010Prop47
 90
       50
102
RTVSPost2010PropOp47
 70
     1
102
RTVSPost2010Prop48
 90
       50
102
RTVSPost2010PropOp48
 70
     1
102
RTVSPost2010Prop49
280
     0
102
RTVSPost2010PropOp49
 70
     1
102
RTVSPost2010Prop50
 90
       50
102
RTVSPost2010PropOp50
 70
     1
102
RTVSPost2010Prop51ColorIndex
 90
      256
102
RTVSPost2010Prop51ColorRGB
 90
-16777216
102
RTVSPost2010PropOp51
 70
     0
102
RTVSPost2010Prop52
140
1.0
102
RTVSPost2010PropOp52
 70
     0
102
RTVSPost2010Prop53
 90
        2
102
RTVSPost2010PropOp53
 70
     1
102
RTVSPost2010Prop54
  1
strokes_ogs.tif
102
RTVSPost2010PropOp54
 70
     1
102
RTVSPost2010Prop55
280
     0
102
RTVSPost2010PropOp55
 70
     1
102
RTVSPost2010Prop56
140
1.0
102
RTVSPost2010PropOp56
 70
     1
102
RTVSPost2010Prop57
140
1.0
102
RTVSPost2010PropOp57
 70
     1
  0
XRECORD
  5
EEB
102
{ACAD_REACTORS
330
EEA
102
}
330
EEA
100
AcDbXrecord
280
     1
102
RTVSPropertyOp0
 70
     1
102
RTVSPropertyOp1
 70
     1
102
RTVSPropertyOp2
 70
     1
102
RTVSPropertyOp3
 70
     1
102
RTVSPropertyOp4
 70
     1
102
RTVSPropertyOp5
 70
     1
102
RTVSPropertyOp6
 70
     1
102
RTVSPropertyOp7
 70
     1
102
RTVSPropertyOp8
 70
     1
102
RTVSPropertyOp9
 70
     1
102
RTVSPropertyOp10
 70
     1
102
RTVSPropertyOp11
 70
     1
102
RTVSPropertyOp12
 70
     1
102
RTVSPropertyOp13
 70
     1
102
RTVSPropertyOp14
 70
     1
102
RTVSPropertyOp15
 70
     1
102
RTVSPropertyOp16
 70
     1
102
RTVSPropertyOp17
 70
     1
102
RTVSPropertyOp18
 70
     1
102
RTVSPropertyOp19
 70
     1
102
RTVSPropertyOp20
 70
     1
102
RTVSPropertyOp21
 70
     1
102
RTVSPropertyOp22
 70
     1
102
RTVSPropertyOp23
 70
     1
102
RTVSPropertyOp24
 70
     1
102
RTVSPropertyOp25
 70
     1
102
RTVSPropertyOp26
 70
     1
102
RTVSPropertyOp27
 70
     1
102
RTVSPropertyOp28
 70
     1
102
RTVSPropertyOp29
 70
     1
102
RTVSPropertyOp30
 70
     1
102
RTVSPropertyOp31
 70
     1
102
RTVSPropertyOp32
 70
     1
102
RTVSPropertyOp33
 70
     1
102
RTVSPropertyOp34
 70
     1
102
RTVSPropertyOp35
 70
     1
102
RTVSPropertyOp36
 70
     1
102
RTVSPropertyOp37
 70
     1
102
RTVSPropertyOp38
 70
     1
102
RTVSPropertyOp39
 70
     1
102
RTVSPropertyOp40
 70
     1
102
RTVSPropertyOp41
 70
     1
102
RTVSPropertyOp42
 70
     1
102
RTVSPropertyOp43
 70
     1
102
RTVSPropertyOp44
 70
     1
102
RTVSPropertyOp45
 70
     1
102
RTVSPropertyOp46
 70
     1
102
RTVSPropertyOp47
 70
     1
102
RTVSPropertyOp48
 70
     1
102
RTVSPropertyOp49
 70
     1
102
RTVSPropertyOp50
 70
     1
102
RTVSPropertyOp51
 70
     0
102
RTVSPropertyOp52
 70
     0
102
RTVSPropertyOp53
 70
     1
102
RTVSPropertyOp54
 70
     1
102
RTVSPropertyOp55
 70
     1
102
RTVSPropertyOp56
 70
     1
102
RTVSPropertyOp57
 70
     1
102
RTVSPost2010Prop28
280
     0
102
RTVSPost2010PropOp28
 70
     1
102
RTVSPost2010Prop29
280
     1
102
RTVSPost2010PropOp29
 70
     1
102
RTVSPost2010Prop30
280
     1
102
RTVSPost2010PropOp30
 70
     1
102
RTVSPost2010Prop31
280
     0
102
RTVSPost2010PropOp31
 70
     1
102
RTVSPost2010Prop32
280
     0
102
RTVSPost2010PropOp32
 70
     1
102
RTVSPost2010Prop33
280
     0
102
RTVSPost2010PropOp33
 70
     1
102
RTVSPost2010Prop34
280
     0
102
RTVSPost2010PropOp34
 70
     1
102
RTVSPost2010Prop35
280
     0
102
RTVSPost2010PropOp35
 70
     1
102
RTVSPost2010Prop36
280
     0
102
RTVSPost2010PropOp36
 70
     1
102
RTVSPost2010Prop37
 90
       50
102
RTVSPost2010PropOp37
 70
     1
102
RTVSPost2010Prop38
140
0.0
102
RTVSPost2010PropOp38
 70
     1
102
RTVSPost2010Prop39
140
1.0
102
RTVSPost2010PropOp39
 70
     1
102
RTVSPost2010Prop40
 90
        0
102
RTVSPost2010PropOp40
 70
     1
102
RTVSPost2010Prop41ColorIndex
 90
       18
102
RTVSPost2010Prop41ColorRGB
 90
        0
102
RTVSPost2010PropOp41
 70
     1
102
RTVSPost2010Prop42
 90
       50
102
RTVSPost2010PropOp42
 70
     1
102
RTVSPost2010Prop43
 90
        3
102
RTVSPost2010PropOp43
 70
     1
102
RTVSPost2010Prop44ColorIndex
 90
        5
102
RTVSPost2010Prop44ColorRGB
 90
      255
102
RTVSPost2010PropOp44
 70
     1
102
RTVSPost2010Prop45
280
     0
102
RTVSPost2010PropOp45
 70
     1
102
RTVSPost2010Prop46
 90
       50
102
RTVSPost2010PropOp46
 70
     1
102
RTVSPost2010Prop47
 90
       50
102
RTVSPost2010PropOp47
 70
     1
102
RTVSPost2010Prop48
 90
       50
102
RTVSPost2010PropOp48
 70
     1
102
RTVSPost2010Prop49
280
     0
102
RTVSPost2010PropOp49
 70
     1
102
RTVSPost2010Prop50
 90
       50
102
RTVSPost2010PropOp50
 70
     1
102
RTVSPost2010Prop51ColorIndex
 90
      256
102
RTVSPost2010Prop51ColorRGB
 90
-16777216
102
RTVSPost2010PropOp51
 70
     0
102
RTVSPost2010Prop52
140
1.0
102
RTVSPost2010PropOp52
 70
     0
102
RTVSPost2010Prop53
 90
        2
102
RTVSPost2010PropOp53
 70
     1
102
RTVSPost2010Prop54
  1
strokes_ogs.tif
102
RTVSPost2010PropOp54
 70
     1
102
RTVSPost2010Prop55
280
     0
102
RTVSPost2010PropOp55
 70
     1
102
RTVSPost2010Prop56
140
1.0
102
RTVSPost2010PropOp56
 70
     1
102
RTVSPost2010Prop57
140
1.0
102
RTVSPost2010PropOp57
 70
     1
  0
XRECORD
  5
EED
102
{ACAD_REACTORS
330
EEC
102
}
330
EEC
100
AcDbXrecord
280
     1
102
RTVSPropertyOp0
 70
     1
102
RTVSPropertyOp1
 70
     1
102
RTVSPropertyOp2
 70
     1
102
RTVSPropertyOp3
 70
     1
102
RTVSPropertyOp4
 70
     1
102
RTVSPropertyOp5
 70
     1
102
RTVSPropertyOp6
 70
     1
102
RTVSPropertyOp7
 70
     1
102
RTVSPropertyOp8
 70
     1
102
RTVSPropertyOp9
 70
     1
102
RTVSPropertyOp10
 70
     1
102
RTVSPropertyOp11
 70
     1
102
RTVSPropertyOp12
 70
     1
102
RTVSPropertyOp13
 70
     1
102
RTVSPropertyOp14
 70
     1
102
RTVSPropertyOp15
 70
     1
102
RTVSPropertyOp16
 70
     1
102
RTVSPropertyOp17
 70
     1
102
RTVSPropertyOp18
 70
     1
102
RTVSPropertyOp19
 70
     1
102
RTVSPropertyOp20
 70
     1
102
RTVSPropertyOp21
 70
     1
102
RTVSPropertyOp22
 70
     1
102
RTVSPropertyOp23
 70
     1
102
RTVSPropertyOp24
 70
     1
102
RTVSPropertyOp25
 70
     1
102
RTVSPropertyOp26
 70
     1
102
RTVSPropertyOp27
 70
     1
102
RTVSPropertyOp28
 70
     1
102
RTVSPropertyOp29
 70
     1
102
RTVSPropertyOp30
 70
     1
102
RTVSPropertyOp31
 70
     1
102
RTVSPropertyOp32
 70
     1
102
RTVSPropertyOp33
 70
     1
102
RTVSPropertyOp34
 70
     1
102
RTVSPropertyOp35
 70
     1
102
RTVSPropertyOp36
 70
     1
102
RTVSPropertyOp37
 70
     1
102
RTVSPropertyOp38
 70
     1
102
RTVSPropertyOp39
 70
     1
102
RTVSPropertyOp40
 70
     1
102
RTVSPropertyOp41
 70
     1
102
RTVSPropertyOp42
 70
     1
102
RTVSPropertyOp43
 70
     1
102
RTVSPropertyOp44
 70
     1
102
RTVSPropertyOp45
 70
     1
102
RTVSPropertyOp46
 70
     1
102
RTVSPropertyOp47
 70
     1
102
RTVSPropertyOp48
 70
     1
102
RTVSPropertyOp49
 70
     1
102
RTVSPropertyOp50
 70
     1
102
RTVSPropertyOp51
 70
     0
102
RTVSPropertyOp52
 70
     0
102
RTVSPropertyOp53
 70
     1
102
RTVSPropertyOp54
 70
     1
102
RTVSPropertyOp55
 70
     1
102
RTVSPropertyOp56
 70
     1
102
RTVSPropertyOp57
 70
     1
102
RTVSPost2010Prop28
280
     0
102
RTVSPost2010PropOp28
 70
     1
102
RTVSPost2010Prop29
280
     1
102
RTVSPost2010PropOp29
 70
     1
102
RTVSPost2010Prop30
280
     1
102
RTVSPost2010PropOp30
 70
     1
102
RTVSPost2010Prop31
280
     0
102
RTVSPost2010PropOp31
 70
     1
102
RTVSPost2010Prop32
280
     0
102
RTVSPost2010PropOp32
 70
     1
102
RTVSPost2010Prop33
280
     0
102
RTVSPost2010PropOp33
 70
     1
102
RTVSPost2010Prop34
280
     0
102
RTVSPost2010PropOp34
 70
     1
102
RTVSPost2010Prop35
280
     0
102
RTVSPost2010PropOp35
 70
     1
102
RTVSPost2010Prop36
280
     0
102
RTVSPost2010PropOp36
 70
     1
102
RTVSPost2010Prop37
 90
       50
102
RTVSPost2010PropOp37
 70
     1
102
RTVSPost2010Prop38
140
0.0
102
RTVSPost2010PropOp38
 70
     1
102
RTVSPost2010Prop39
140
1.0
102
RTVSPost2010PropOp39
 70
     1
102
RTVSPost2010Prop40
 90
        0
102
RTVSPost2010PropOp40
 70
     1
102
RTVSPost2010Prop41ColorIndex
 90
       18
102
RTVSPost2010Prop41ColorRGB
 90
        0
102
RTVSPost2010PropOp41
 70
     1
102
RTVSPost2010Prop42
 90
       50
102
RTVSPost2010PropOp42
 70
     1
102
RTVSPost2010Prop43
 90
        3
102
RTVSPost2010PropOp43
 70
     1
102
RTVSPost2010Prop44ColorIndex
 90
        5
102
RTVSPost2010Prop44ColorRGB
 90
      255
102
RTVSPost2010PropOp44
 70
     1
102
RTVSPost2010Prop45
280
     0
102
RTVSPost2010PropOp45
 70
     1
102
RTVSPost2010Prop46
 90
       50
102
RTVSPost2010PropOp46
 70
     1
102
RTVSPost2010Prop47
 90
       50
102
RTVSPost2010PropOp47
 70
     1
102
RTVSPost2010Prop48
 90
       50
102
RTVSPost2010PropOp48
 70
     1
102
RTVSPost2010Prop49
280
     0
102
RTVSPost2010PropOp49
 70
     1
102
RTVSPost2010Prop50
 90
       50
102
RTVSPost2010PropOp50
 70
     1
102
RTVSPost2010Prop51ColorIndex
 90
      256
102
RTVSPost2010Prop51ColorRGB
 90
-16777216
102
RTVSPost2010PropOp51
 70
     0
102
RTVSPost2010Prop52
140
1.0
102
RTVSPost2010PropOp52
 70
     0
102
RTVSPost2010Prop53
 90
        2
102
RTVSPost2010PropOp53
 70
     1
102
RTVSPost2010Prop54
  1
strokes_ogs.tif
102
RTVSPost2010PropOp54
 70
     1
102
RTVSPost2010Prop55
280
     0
102
RTVSPost2010PropOp55
 70
     1
102
RTVSPost2010Prop56
140
1.0
102
RTVSPost2010PropOp56
 70
     1
102
RTVSPost2010Prop57
140
1.0
102
RTVSPost2010PropOp57
 70
     1
  0
XRECORD
  5
EFD
102
{ACAD_REACTORS
330
EFC
102
}
330
EFC
100
AcDbXrecord
280
     1
102
RTVSPropertyOp0
 70
     0
102
RTVSPropertyOp1
 70
     0
102
RTVSPropertyOp2
 70
     0
102
RTVSPropertyOp3
 70
     0
102
RTVSPropertyOp4
 70
     0
102
RTVSPropertyOp5
 70
     0
102
RTVSPropertyOp6
 70
     0
102
RTVSPropertyOp7
 70
     0
102
RTVSPropertyOp8
 70
     0
102
RTVSPropertyOp9
 70
     0
102
RTVSPropertyOp10
 70
     0
102
RTVSPropertyOp11
 70
     0
102
RTVSPropertyOp12
 70
     0
102
RTVSPropertyOp13
 70
     0
102
RTVSPropertyOp14
 70
     2
102
RTVSPropertyOp15
 70
     0
102
RTVSPropertyOp16
 70
     0
102
RTVSPropertyOp17
 70
     0
102
RTVSPropertyOp18
 70
     0
102
RTVSPropertyOp19
 70
     0
102
RTVSPropertyOp20
 70
     0
102
RTVSPropertyOp21
 70
     0
102
RTVSPropertyOp22
 70
     0
102
RTVSPropertyOp23
 70
     0
102
RTVSPropertyOp24
 70
     0
102
RTVSPropertyOp25
 70
     0
102
RTVSPropertyOp26
 70
     0
102
RTVSPropertyOp27
 70
     0
102
RTVSPropertyOp28
 70
     0
102
RTVSPropertyOp29
 70
     0
102
RTVSPropertyOp30
 70
     0
102
RTVSPropertyOp31
 70
     0
102
RTVSPropertyOp32
 70
     0
102
RTVSPropertyOp33
 70
     0
102
RTVSPropertyOp34
 70
     0
102
RTVSPropertyOp35
 70
     0
102
RTVSPropertyOp36
 70
     0
102
RTVSPropertyOp37
 70
     0
102
RTVSPropertyOp38
 70
     0
102
RTVSPropertyOp39
 70
     0
102
RTVSPropertyOp40
 70
     0
102
RTVSPropertyOp41
 70
     0
102
RTVSPropertyOp42
 70
     0
102
RTVSPropertyOp43
 70
     0
102
RTVSPropertyOp44
 70
     0
102
RTVSPropertyOp45
 70
     0
102
RTVSPropertyOp46
 70
     0
102
RTVSPropertyOp47
 70
     0
102
RTVSPropertyOp48
 70
     0
102
RTVSPropertyOp49
 70
     0
102
RTVSPropertyOp50
 70
     0
102
RTVSPropertyOp51
 70
     0
102
RTVSPropertyOp52
 70
     0
102
RTVSPropertyOp53
 70
     0
102
RTVSPropertyOp54
 70
     0
102
RTVSPropertyOp55
 70
     0
102
RTVSPropertyOp56
 70
     0
102
RTVSPropertyOp57
 70
     0
102
RTVSPost2010Prop28
280
     0
102
RTVSPost2010PropOp28
 70
     0
102
RTVSPost2010Prop29
280
     1
102
RTVSPost2010PropOp29
 70
     0
102
RTVSPost2010Prop30
280
     1
102
RTVSPost2010PropOp30
 70
     0
102
RTVSPost2010Prop31
280
     0
102
RTVSPost2010PropOp31
 70
     0
102
RTVSPost2010Prop32
280
     0
102
RTVSPost2010PropOp32
 70
     0
102
RTVSPost2010Prop33
280
     0
102
RTVSPost2010PropOp33
 70
     0
102
RTVSPost2010Prop34
280
     0
102
RTVSPost2010PropOp34
 70
     0
102
RTVSPost2010Prop35
280
     0
102
RTVSPost2010PropOp35
 70
     0
102
RTVSPost2010Prop36
280
     0
102
RTVSPost2010PropOp36
 70
     0
102
RTVSPost2010Prop37
 90
       50
102
RTVSPost2010PropOp37
 70
     0
102
RTVSPost2010Prop38
140
0.0
102
RTVSPost2010PropOp38
 70
     0
102
RTVSPost2010Prop39
140
1.0
102
RTVSPost2010PropOp39
 70
     0
102
RTVSPost2010Prop40
 90
        0
102
RTVSPost2010PropOp40
 70
     0
102
RTVSPost2010Prop41ColorIndex
 90
       18
102
RTVSPost2010Prop41ColorRGB
 90
        0
102
RTVSPost2010PropOp41
 70
     0
102
RTVSPost2010Prop42
 90
       50
102
RTVSPost2010PropOp42
 70
     0
102
RTVSPost2010Prop43
 90
        3
102
RTVSPost2010PropOp43
 70
     0
102
RTVSPost2010Prop44ColorIndex
 90
        5
102
RTVSPost2010Prop44ColorRGB
 90
      255
102
RTVSPost2010PropOp44
 70
     0
102
RTVSPost2010Prop45
280
     0
102
RTVSPost2010PropOp45
 70
     0
102
RTVSPost2010Prop46
 90
       50
102
RTVSPost2010PropOp46
 70
     0
102
RTVSPost2010Prop47
 90
       50
102
RTVSPost2010PropOp47
 70
     0
102
RTVSPost2010Prop48
 90
       50
102
RTVSPost2010PropOp48
 70
     0
102
RTVSPost2010Prop49
280
     0
102
RTVSPost2010PropOp49
 70
     0
102
RTVSPost2010Prop50
 90
       50
102
RTVSPost2010PropOp50
 70
     0
102
RTVSPost2010Prop51ColorIndex
 90
      256
102
RTVSPost2010Prop51ColorRGB
 90
-16777216
102
RTVSPost2010PropOp51
 70
     0
102
RTVSPost2010Prop52
140
1.0
102
RTVSPost2010PropOp52
 70
     0
102
RTVSPost2010Prop53
 90
        2
102
RTVSPost2010PropOp53
 70
     0
102
RTVSPost2010Prop54
  1
strokes_ogs.tif
102
RTVSPost2010PropOp54
 70
     0
102
RTVSPost2010Prop55
280
     0
102
RTVSPost2010PropOp55
 70
     0
102
RTVSPost2010Prop56
140
1.0
102
RTVSPost2010PropOp56
 70
     0
102
RTVSPost2010Prop57
140
1.0
102
RTVSPost2010PropOp57
 70
     0
  0
XRECORD
  5
EF5
102
{ACAD_REACTORS
330
EF4
102
}
330
EF4
100
AcDbXrecord
280
     1
102
RTVSPropertyOp0
 70
     1
102
RTVSPropertyOp1
 70
     1
102
RTVSPropertyOp2
 70
     1
102
RTVSPropertyOp3
 70
     1
102
RTVSPropertyOp4
 70
     1
102
RTVSPropertyOp5
 70
     1
102
RTVSPropertyOp6
 70
     1
102
RTVSPropertyOp7
 70
     1
102
RTVSPropertyOp8
 70
     1
102
RTVSPropertyOp9
 70
     1
102
RTVSPropertyOp10
 70
     1
102
RTVSPropertyOp11
 70
     1
102
RTVSPropertyOp12
 70
     1
102
RTVSPropertyOp13
 70
     1
102
RTVSPropertyOp14
 70
     1
102
RTVSPropertyOp15
 70
     1
102
RTVSPropertyOp16
 70
     1
102
RTVSPropertyOp17
 70
     1
102
RTVSPropertyOp18
 70
     1
102
RTVSPropertyOp19
 70
     1
102
RTVSPropertyOp20
 70
     1
102
RTVSPropertyOp21
 70
     1
102
RTVSPropertyOp22
 70
     1
102
RTVSPropertyOp23
 70
     1
102
RTVSPropertyOp24
 70
     1
102
RTVSPropertyOp25
 70
     1
102
RTVSPropertyOp26
 70
     1
102
RTVSPropertyOp27
 70
     1
102
RTVSPropertyOp28
 70
     1
102
RTVSPropertyOp29
 70
     1
102
RTVSPropertyOp30
 70
     1
102
RTVSPropertyOp31
 70
     1
102
RTVSPropertyOp32
 70
     1
102
RTVSPropertyOp33
 70
     1
102
RTVSPropertyOp34
 70
     1
102
RTVSPropertyOp35
 70
     1
102
RTVSPropertyOp36
 70
     1
102
RTVSPropertyOp37
 70
     1
102
RTVSPropertyOp38
 70
     1
102
RTVSPropertyOp39
 70
     1
102
RTVSPropertyOp40
 70
     1
102
RTVSPropertyOp41
 70
     1
102
RTVSPropertyOp42
 70
     1
102
RTVSPropertyOp43
 70
     1
102
RTVSPropertyOp44
 70
     1
102
RTVSPropertyOp45
 70
     1
102
RTVSPropertyOp46
 70
     1
102
RTVSPropertyOp47
 70
     1
102
RTVSPropertyOp48
 70
     1
102
RTVSPropertyOp49
 70
     1
102
RTVSPropertyOp50
 70
     1
102
RTVSPropertyOp51
 70
     0
102
RTVSPropertyOp52
 70
     0
102
RTVSPropertyOp53
 70
     1
102
RTVSPropertyOp54
 70
     1
102
RTVSPropertyOp55
 70
     1
102
RTVSPropertyOp56
 70
     1
102
RTVSPropertyOp57
 70
     1
102
RTVSPost2010Prop28
280
     0
102
RTVSPost2010PropOp28
 70
     1
102
RTVSPost2010Prop29
280
     1
102
RTVSPost2010PropOp29
 70
     1
102
RTVSPost2010Prop30
280
     1
102
RTVSPost2010PropOp30
 70
     1
102
RTVSPost2010Prop31
280
     0
102
RTVSPost2010PropOp31
 70
     1
102
RTVSPost2010Prop32
280
     0
102
RTVSPost2010PropOp32
 70
     1
102
RTVSPost2010Prop33
280
     0
102
RTVSPost2010PropOp33
 70
     1
102
RTVSPost2010Prop34
280
     0
102
RTVSPost2010PropOp34
 70
     1
102
RTVSPost2010Prop35
280
     0
102
RTVSPost2010PropOp35
 70
     1
102
RTVSPost2010Prop36
280
     0
102
RTVSPost2010PropOp36
 70
     1
102
RTVSPost2010Prop37
 90
       50
102
RTVSPost2010PropOp37
 70
     1
102
RTVSPost2010Prop38
140
0.0
102
RTVSPost2010PropOp38
 70
     1
102
RTVSPost2010Prop39
140
1.0
102
RTVSPost2010PropOp39
 70
     1
102
RTVSPost2010Prop40
 90
        0
102
RTVSPost2010PropOp40
 70
     1
102
RTVSPost2010Prop41ColorIndex
 90
       18
102
RTVSPost2010Prop41ColorRGB
 90
        0
102
RTVSPost2010PropOp41
 70
     1
102
RTVSPost2010Prop42
 90
       50
102
RTVSPost2010PropOp42
 70
     1
102
RTVSPost2010Prop43
 90
        3
102
RTVSPost2010PropOp43
 70
     1
102
RTVSPost2010Prop44ColorIndex
 90
        5
102
RTVSPost2010Prop44ColorRGB
 90
      255
102
RTVSPost2010PropOp44
 70
     1
102
RTVSPost2010Prop45
280
     0
102
RTVSPost2010PropOp45
 70
     1
102
RTVSPost2010Prop46
 90
       50
102
RTVSPost2010PropOp46
 70
     1
102
RTVSPost2010Prop47
 90
       50
102
RTVSPost2010PropOp47
 70
     1
102
RTVSPost2010Prop48
 90
       50
102
RTVSPost2010PropOp48
 70
     1
102
RTVSPost2010Prop49
280
     0
102
RTVSPost2010PropOp49
 70
     1
102
RTVSPost2010Prop50
 90
       50
102
RTVSPost2010PropOp50
 70
     1
102
RTVSPost2010Prop51ColorIndex
 90
      256
102
RTVSPost2010Prop51ColorRGB
 90
-16777216
102
RTVSPost2010PropOp51
 70
     0
102
RTVSPost2010Prop52
140
1.0
102
RTVSPost2010PropOp52
 70
     0
102
RTVSPost2010Prop53
 90
        2
102
RTVSPost2010PropOp53
 70
     1
102
RTVSPost2010Prop54
  1
strokes_ogs.tif
102
RTVSPost2010PropOp54
 70
     1
102
RTVSPost2010Prop55
280
     0
102
RTVSPost2010PropOp55
 70
     1
102
RTVSPost2010Prop56
140
1.0
102
RTVSPost2010PropOp56
 70
     1
102
RTVSPost2010Prop57
140
1.0
102
RTVSPost2010PropOp57
 70
     1
  0
XRECORD
  5
ED9
102
{ACAD_REACTORS
330
ED8
102
}
330
ED8
100
AcDbXrecord
280
     1
102
RTVSPropertyOp0
 70
     1
102
RTVSPropertyOp1
 70
     1
102
RTVSPropertyOp2
 70
     1
102
RTVSPropertyOp3
 70
     1
102
RTVSPropertyOp4
 70
     1
102
RTVSPropertyOp5
 70
     1
102
RTVSPropertyOp6
 70
     1
102
RTVSPropertyOp7
 70
     1
102
RTVSPropertyOp8
 70
     1
102
RTVSPropertyOp9
 70
     1
102
RTVSPropertyOp10
 70
     1
102
RTVSPropertyOp11
 70
     1
102
RTVSPropertyOp12
 70
     1
102
RTVSPropertyOp13
 70
     1
102
RTVSPropertyOp14
 70
     1
102
RTVSPropertyOp15
 70
     1
102
RTVSPropertyOp16
 70
     1
102
RTVSPropertyOp17
 70
     1
102
RTVSPropertyOp18
 70
     1
102
RTVSPropertyOp19
 70
     1
102
RTVSPropertyOp20
 70
     1
102
RTVSPropertyOp21
 70
     1
102
RTVSPropertyOp22
 70
     1
102
RTVSPropertyOp23
 70
     1
102
RTVSPropertyOp24
 70
     1
102
RTVSPropertyOp25
 70
     1
102
RTVSPropertyOp26
 70
     1
102
RTVSPropertyOp27
 70
     1
102
RTVSPropertyOp28
 70
     1
102
RTVSPropertyOp29
 70
     1
102
RTVSPropertyOp30
 70
     1
102
RTVSPropertyOp31
 70
     1
102
RTVSPropertyOp32
 70
     1
102
RTVSPropertyOp33
 70
     1
102
RTVSPropertyOp34
 70
     1
102
RTVSPropertyOp35
 70
     1
102
RTVSPropertyOp36
 70
     1
102
RTVSPropertyOp37
 70
     1
102
RTVSPropertyOp38
 70
     1
102
RTVSPropertyOp39
 70
     1
102
RTVSPropertyOp40
 70
     1
102
RTVSPropertyOp41
 70
     1
102
RTVSPropertyOp42
 70
     1
102
RTVSPropertyOp43
 70
     1
102
RTVSPropertyOp44
 70
     1
102
RTVSPropertyOp45
 70
     1
102
RTVSPropertyOp46
 70
     1
102
RTVSPropertyOp47
 70
     1
102
RTVSPropertyOp48
 70
     1
102
RTVSPropertyOp49
 70
     1
102
RTVSPropertyOp50
 70
     1
102
RTVSPropertyOp51
 70
     0
102
RTVSPropertyOp52
 70
     0
102
RTVSPropertyOp53
 70
     1
102
RTVSPropertyOp54
 70
     1
102
RTVSPropertyOp55
 70
     1
102
RTVSPropertyOp56
 70
     1
102
RTVSPropertyOp57
 70
     1
102
RTVSPost2010Prop28
280
     0
102
RTVSPost2010PropOp28
 70
     1
102
RTVSPost2010Prop29
280
     1
102
RTVSPost2010PropOp29
 70
     1
102
RTVSPost2010Prop30
280
     1
102
RTVSPost2010PropOp30
 70
     1
102
RTVSPost2010Prop31
280
     0
102
RTVSPost2010PropOp31
 70
     1
102
RTVSPost2010Prop32
280
     0
102
RTVSPost2010PropOp32
 70
     1
102
RTVSPost2010Prop33
280
     0
102
RTVSPost2010PropOp33
 70
     1
102
RTVSPost2010Prop34
280
     0
102
RTVSPost2010PropOp34
 70
     1
102
RTVSPost2010Prop35
280
     0
102
RTVSPost2010PropOp35
 70
     1
102
RTVSPost2010Prop36
280
     0
102
RTVSPost2010PropOp36
 70
     1
102
RTVSPost2010Prop37
 90
       50
102
RTVSPost2010PropOp37
 70
     1
102
RTVSPost2010Prop38
140
0.0
102
RTVSPost2010PropOp38
 70
     1
102
RTVSPost2010Prop39
140
1.0
102
RTVSPost2010PropOp39
 70
     1
102
RTVSPost2010Prop40
 90
        0
102
RTVSPost2010PropOp40
 70
     1
102
RTVSPost2010Prop41ColorIndex
 90
       18
102
RTVSPost2010Prop41ColorRGB
 90
        0
102
RTVSPost2010PropOp41
 70
     1
102
RTVSPost2010Prop42
 90
       50
102
RTVSPost2010PropOp42
 70
     1
102
RTVSPost2010Prop43
 90
        3
102
RTVSPost2010PropOp43
 70
     1
102
RTVSPost2010Prop44ColorIndex
 90
        5
102
RTVSPost2010Prop44ColorRGB
 90
      255
102
RTVSPost2010PropOp44
 70
     1
102
RTVSPost2010Prop45
280
     0
102
RTVSPost2010PropOp45
 70
     1
102
RTVSPost2010Prop46
 90
       50
102
RTVSPost2010PropOp46
 70
     1
102
RTVSPost2010Prop47
 90
       50
102
RTVSPost2010PropOp47
 70
     1
102
RTVSPost2010Prop48
 90
       50
102
RTVSPost2010PropOp48
 70
     1
102
RTVSPost2010Prop49
280
     0
102
RTVSPost2010PropOp49
 70
     1
102
RTVSPost2010Prop50
 90
       50
102
RTVSPost2010PropOp50
 70
     1
102
RTVSPost2010Prop51ColorIndex
 90
      256
102
RTVSPost2010Prop51ColorRGB
 90
-16777216
102
RTVSPost2010PropOp51
 70
     0
102
RTVSPost2010Prop52
140
1.0
102
RTVSPost2010PropOp52
 70
     0
102
RTVSPost2010Prop53
 90
        2
102
RTVSPost2010PropOp53
 70
     1
102
RTVSPost2010Prop54
  1
strokes_ogs.tif
102
RTVSPost2010PropOp54
 70
     1
102
RTVSPost2010Prop55
280
     0
102
RTVSPost2010PropOp55
 70
     1
102
RTVSPost2010Prop56
140
1.0
102
RTVSPost2010PropOp56
 70
     1
102
RTVSPost2010Prop57
140
1.0
102
RTVSPost2010PropOp57
 70
     1
  0
XRECORD
  5
EDB
102
{ACAD_REACTORS
330
EDA
102
}
330
EDA
100
AcDbXrecord
280
     1
102
RTVSPropertyOp0
 70
     1
102
RTVSPropertyOp1
 70
     1
102
RTVSPropertyOp2
 70
     1
102
RTVSPropertyOp3
 70
     1
102
RTVSPropertyOp4
 70
     1
102
RTVSPropertyOp5
 70
     1
102
RTVSPropertyOp6
 70
     1
102
RTVSPropertyOp7
 70
     1
102
RTVSPropertyOp8
 70
     1
102
RTVSPropertyOp9
 70
     1
102
RTVSPropertyOp10
 70
     1
102
RTVSPropertyOp11
 70
     1
102
RTVSPropertyOp12
 70
     1
102
RTVSPropertyOp13
 70
     1
102
RTVSPropertyOp14
 70
     1
102
RTVSPropertyOp15
 70
     1
102
RTVSPropertyOp16
 70
     1
102
RTVSPropertyOp17
 70
     1
102
RTVSPropertyOp18
 70
     1
102
RTVSPropertyOp19
 70
     1
102
RTVSPropertyOp20
 70
     1
102
RTVSPropertyOp21
 70
     1
102
RTVSPropertyOp22
 70
     1
102
RTVSPropertyOp23
 70
     1
102
RTVSPropertyOp24
 70
     1
102
RTVSPropertyOp25
 70
     1
102
RTVSPropertyOp26
 70
     1
102
RTVSPropertyOp27
 70
     1
102
RTVSPropertyOp28
 70
     1
102
RTVSPropertyOp29
 70
     1
102
RTVSPropertyOp30
 70
     1
102
RTVSPropertyOp31
 70
     1
102
RTVSPropertyOp32
 70
     1
102
RTVSPropertyOp33
 70
     1
102
RTVSPropertyOp34
 70
     1
102
RTVSPropertyOp35
 70
     1
102
RTVSPropertyOp36
 70
     1
102
RTVSPropertyOp37
 70
     1
102
RTVSPropertyOp38
 70
     1
102
RTVSPropertyOp39
 70
     1
102
RTVSPropertyOp40
 70
     1
102
RTVSPropertyOp41
 70
     1
102
RTVSPropertyOp42
 70
     1
102
RTVSPropertyOp43
 70
     1
102
RTVSPropertyOp44
 70
     1
102
RTVSPropertyOp45
 70
     1
102
RTVSPropertyOp46
 70
     1
102
RTVSPropertyOp47
 70
     1
102
RTVSPropertyOp48
 70
     1
102
RTVSPropertyOp49
 70
     1
102
RTVSPropertyOp50
 70
     1
102
RTVSPropertyOp51
 70
     0
102
RTVSPropertyOp52
 70
     0
102
RTVSPropertyOp53
 70
     1
102
RTVSPropertyOp54
 70
     1
102
RTVSPropertyOp55
 70
     1
102
RTVSPropertyOp56
 70
     1
102
RTVSPropertyOp57
 70
     1
102
RTVSPost2010Prop28
280
     0
102
RTVSPost2010PropOp28
 70
     1
102
RTVSPost2010Prop29
280
     1
102
RTVSPost2010PropOp29
 70
     1
102
RTVSPost2010Prop30
280
     1
102
RTVSPost2010PropOp30
 70
     1
102
RTVSPost2010Prop31
280
     0
102
RTVSPost2010PropOp31
 70
     1
102
RTVSPost2010Prop32
280
     0
102
RTVSPost2010PropOp32
 70
     1
102
RTVSPost2010Prop33
280
     0
102
RTVSPost2010PropOp33
 70
     1
102
RTVSPost2010Prop34
280
     0
102
RTVSPost2010PropOp34
 70
     1
102
RTVSPost2010Prop35
280
     0
102
RTVSPost2010PropOp35
 70
     1
102
RTVSPost2010Prop36
280
     0
102
RTVSPost2010PropOp36
 70
     1
102
RTVSPost2010Prop37
 90
       50
102
RTVSPost2010PropOp37
 70
     1
102
RTVSPost2010Prop38
140
0.0
102
RTVSPost2010PropOp38
 70
     1
102
RTVSPost2010Prop39
140
1.0
102
RTVSPost2010PropOp39
 70
     1
102
RTVSPost2010Prop40
 90
        0
102
RTVSPost2010PropOp40
 70
     1
102
RTVSPost2010Prop41ColorIndex
 90
       18
102
RTVSPost2010Prop41ColorRGB
 90
        0
102
RTVSPost2010PropOp41
 70
     1
102
RTVSPost2010Prop42
 90
       50
102
RTVSPost2010PropOp42
 70
     1
102
RTVSPost2010Prop43
 90
        3
102
RTVSPost2010PropOp43
 70
     1
102
RTVSPost2010Prop44ColorIndex
 90
        5
102
RTVSPost2010Prop44ColorRGB
 90
      255
102
RTVSPost2010PropOp44
 70
     1
102
RTVSPost2010Prop45
280
     0
102
RTVSPost2010PropOp45
 70
     1
102
RTVSPost2010Prop46
 90
       50
102
RTVSPost2010PropOp46
 70
     1
102
RTVSPost2010Prop47
 90
       50
102
RTVSPost2010PropOp47
 70
     1
102
RTVSPost2010Prop48
 90
       50
102
RTVSPost2010PropOp48
 70
     1
102
RTVSPost2010Prop49
280
     0
102
RTVSPost2010PropOp49
 70
     1
102
RTVSPost2010Prop50
 90
       50
102
RTVSPost2010PropOp50
 70
     1
102
RTVSPost2010Prop51ColorIndex
 90
      256
102
RTVSPost2010Prop51ColorRGB
 90
-16777216
102
RTVSPost2010PropOp51
 70
     0
102
RTVSPost2010Prop52
140
1.0
102
RTVSPost2010PropOp52
 70
     0
102
RTVSPost2010Prop53
 90
        2
102
RTVSPost2010PropOp53
 70
     1
102
RTVSPost2010Prop54
  1
strokes_ogs.tif
102
RTVSPost2010PropOp54
 70
     1
102
RTVSPost2010Prop55
280
     0
102
RTVSPost2010PropOp55
 70
     1
102
RTVSPost2010Prop56
140
1.0
102
RTVSPost2010PropOp56
 70
     1
102
RTVSPost2010Prop57
140
1.0
102
RTVSPost2010PropOp57
 70
     1
  0
XRECORD
  5
EDD
102
{ACAD_REACTORS
330
EDC
102
}
330
EDC
100
AcDbXrecord
280
     1
102
RTVSPropertyOp0
 70
     1
102
RTVSPropertyOp1
 70
     1
102
RTVSPropertyOp2
 70
     1
102
RTVSPropertyOp3
 70
     1
102
RTVSPropertyOp4
 70
     1
102
RTVSPropertyOp5
 70
     1
102
RTVSPropertyOp6
 70
     1
102
RTVSPropertyOp7
 70
     1
102
RTVSPropertyOp8
 70
     1
102
RTVSPropertyOp9
 70
     1
102
RTVSPropertyOp10
 70
     1
102
RTVSPropertyOp11
 70
     1
102
RTVSPropertyOp12
 70
     1
102
RTVSPropertyOp13
 70
     1
102
RTVSPropertyOp14
 70
     1
102
RTVSPropertyOp15
 70
     1
102
RTVSPropertyOp16
 70
     1
102
RTVSPropertyOp17
 70
     1
102
RTVSPropertyOp18
 70
     1
102
RTVSPropertyOp19
 70
     1
102
RTVSPropertyOp20
 70
     1
102
RTVSPropertyOp21
 70
     1
102
RTVSPropertyOp22
 70
     1
102
RTVSPropertyOp23
 70
     1
102
RTVSPropertyOp24
 70
     1
102
RTVSPropertyOp25
 70
     1
102
RTVSPropertyOp26
 70
     1
102
RTVSPropertyOp27
 70
     1
102
RTVSPropertyOp28
 70
     1
102
RTVSPropertyOp29
 70
     1
102
RTVSPropertyOp30
 70
     1
102
RTVSPropertyOp31
 70
     1
102
RTVSPropertyOp32
 70
     1
102
RTVSPropertyOp33
 70
     1
102
RTVSPropertyOp34
 70
     1
102
RTVSPropertyOp35
 70
     1
102
RTVSPropertyOp36
 70
     1
102
RTVSPropertyOp37
 70
     1
102
RTVSPropertyOp38
 70
     1
102
RTVSPropertyOp39
 70
     1
102
RTVSPropertyOp40
 70
     1
102
RTVSPropertyOp41
 70
     1
102
RTVSPropertyOp42
 70
     1
102
RTVSPropertyOp43
 70
     1
102
RTVSPropertyOp44
 70
     1
102
RTVSPropertyOp45
 70
     1
102
RTVSPropertyOp46
 70
     1
102
RTVSPropertyOp47
 70
     1
102
RTVSPropertyOp48
 70
     1
102
RTVSPropertyOp49
 70
     1
102
RTVSPropertyOp50
 70
     1
102
RTVSPropertyOp51
 70
     0
102
RTVSPropertyOp52
 70
     0
102
RTVSPropertyOp53
 70
     1
102
RTVSPropertyOp54
 70
     1
102
RTVSPropertyOp55
 70
     1
102
RTVSPropertyOp56
 70
     1
102
RTVSPropertyOp57
 70
     1
102
RTVSPost2010Prop28
280
     0
102
RTVSPost2010PropOp28
 70
     1
102
RTVSPost2010Prop29
280
     1
102
RTVSPost2010PropOp29
 70
     1
102
RTVSPost2010Prop30
280
     1
102
RTVSPost2010PropOp30
 70
     1
102
RTVSPost2010Prop31
280
     0
102
RTVSPost2010PropOp31
 70
     1
102
RTVSPost2010Prop32
280
     0
102
RTVSPost2010PropOp32
 70
     1
102
RTVSPost2010Prop33
280
     0
102
RTVSPost2010PropOp33
 70
     1
102
RTVSPost2010Prop34
280
     0
102
RTVSPost2010PropOp34
 70
     1
102
RTVSPost2010Prop35
280
     0
102
RTVSPost2010PropOp35
 70
     1
102
RTVSPost2010Prop36
280
     0
102
RTVSPost2010PropOp36
 70
     1
102
RTVSPost2010Prop37
 90
       50
102
RTVSPost2010PropOp37
 70
     1
102
RTVSPost2010Prop38
140
0.0
102
RTVSPost2010PropOp38
 70
     1
102
RTVSPost2010Prop39
140
1.0
102
RTVSPost2010PropOp39
 70
     1
102
RTVSPost2010Prop40
 90
        0
102
RTVSPost2010PropOp40
 70
     1
102
RTVSPost2010Prop41ColorIndex
 90
       18
102
RTVSPost2010Prop41ColorRGB
 90
        0
102
RTVSPost2010PropOp41
 70
     1
102
RTVSPost2010Prop42
 90
       50
102
RTVSPost2010PropOp42
 70
     1
102
RTVSPost2010Prop43
 90
        3
102
RTVSPost2010PropOp43
 70
     1
102
RTVSPost2010Prop44ColorIndex
 90
        5
102
RTVSPost2010Prop44ColorRGB
 90
      255
102
RTVSPost2010PropOp44
 70
     1
102
RTVSPost2010Prop45
280
     0
102
RTVSPost2010PropOp45
 70
     1
102
RTVSPost2010Prop46
 90
       50
102
RTVSPost2010PropOp46
 70
     1
102
RTVSPost2010Prop47
 90
       50
102
RTVSPost2010PropOp47
 70
     1
102
RTVSPost2010Prop48
 90
       50
102
RTVSPost2010PropOp48
 70
     1
102
RTVSPost2010Prop49
280
     0
102
RTVSPost2010PropOp49
 70
     1
102
RTVSPost2010Prop50
 90
       50
102
RTVSPost2010PropOp50
 70
     1
102
RTVSPost2010Prop51ColorIndex
 90
      256
102
RTVSPost2010Prop51ColorRGB
 90
-16777216
102
RTVSPost2010PropOp51
 70
     0
102
RTVSPost2010Prop52
140
1.0
102
RTVSPost2010PropOp52
 70
     0
102
RTVSPost2010Prop53
 90
        2
102
RTVSPost2010PropOp53
 70
     1
102
RTVSPost2010Prop54
  1
strokes_ogs.tif
102
RTVSPost2010PropOp54
 70
     1
102
RTVSPost2010Prop55
280
     0
102
RTVSPost2010PropOp55
 70
     1
102
RTVSPost2010Prop56
140
1.0
102
RTVSPost2010PropOp56
 70
     1
102
RTVSPost2010Prop57
140
1.0
102
RTVSPost2010PropOp57
 70
     1
  0
XRECORD
  5
EDF
102
{ACAD_REACTORS
330
EDE
102
}
330
EDE
100
AcDbXrecord
280
     1
102
RTVSPropertyOp0
 70
     1
102
RTVSPropertyOp1
 70
     1
102
RTVSPropertyOp2
 70
     1
102
RTVSPropertyOp3
 70
     1
102
RTVSPropertyOp4
 70
     1
102
RTVSPropertyOp5
 70
     1
102
RTVSPropertyOp6
 70
     1
102
RTVSPropertyOp7
 70
     1
102
RTVSPropertyOp8
 70
     1
102
RTVSPropertyOp9
 70
     1
102
RTVSPropertyOp10
 70
     1
102
RTVSPropertyOp11
 70
     1
102
RTVSPropertyOp12
 70
     1
102
RTVSPropertyOp13
 70
     1
102
RTVSPropertyOp14
 70
     1
102
RTVSPropertyOp15
 70
     1
102
RTVSPropertyOp16
 70
     1
102
RTVSPropertyOp17
 70
     1
102
RTVSPropertyOp18
 70
     1
102
RTVSPropertyOp19
 70
     1
102
RTVSPropertyOp20
 70
     1
102
RTVSPropertyOp21
 70
     1
102
RTVSPropertyOp22
 70
     1
102
RTVSPropertyOp23
 70
     1
102
RTVSPropertyOp24
 70
     1
102
RTVSPropertyOp25
 70
     1
102
RTVSPropertyOp26
 70
     1
102
RTVSPropertyOp27
 70
     1
102
RTVSPropertyOp28
 70
     1
102
RTVSPropertyOp29
 70
     1
102
RTVSPropertyOp30
 70
     1
102
RTVSPropertyOp31
 70
     1
102
RTVSPropertyOp32
 70
     1
102
RTVSPropertyOp33
 70
     1
102
RTVSPropertyOp34
 70
     1
102
RTVSPropertyOp35
 70
     1
102
RTVSPropertyOp36
 70
     1
102
RTVSPropertyOp37
 70
     1
102
RTVSPropertyOp38
 70
     1
102
RTVSPropertyOp39
 70
     1
102
RTVSPropertyOp40
 70
     1
102
RTVSPropertyOp41
 70
     1
102
RTVSPropertyOp42
 70
     1
102
RTVSPropertyOp43
 70
     1
102
RTVSPropertyOp44
 70
     1
102
RTVSPropertyOp45
 70
     1
102
RTVSPropertyOp46
 70
     1
102
RTVSPropertyOp47
 70
     1
102
RTVSPropertyOp48
 70
     1
102
RTVSPropertyOp49
 70
     1
102
RTVSPropertyOp50
 70
     1
102
RTVSPropertyOp51
 70
     0
102
RTVSPropertyOp52
 70
     0
102
RTVSPropertyOp53
 70
     1
102
RTVSPropertyOp54
 70
     1
102
RTVSPropertyOp55
 70
     1
102
RTVSPropertyOp56
 70
     1
102
RTVSPropertyOp57
 70
     1
102
RTVSPost2010Prop28
280
     0
102
RTVSPost2010PropOp28
 70
     1
102
RTVSPost2010Prop29
280
     1
102
RTVSPost2010PropOp29
 70
     1
102
RTVSPost2010Prop30
280
     1
102
RTVSPost2010PropOp30
 70
     1
102
RTVSPost2010Prop31
280
     0
102
RTVSPost2010PropOp31
 70
     1
102
RTVSPost2010Prop32
280
     0
102
RTVSPost2010PropOp32
 70
     1
102
RTVSPost2010Prop33
280
     0
102
RTVSPost2010PropOp33
 70
     1
102
RTVSPost2010Prop34
280
     0
102
RTVSPost2010PropOp34
 70
     1
102
RTVSPost2010Prop35
280
     0
102
RTVSPost2010PropOp35
 70
     1
102
RTVSPost2010Prop36
280
     0
102
RTVSPost2010PropOp36
 70
     1
102
RTVSPost2010Prop37
 90
       50
102
RTVSPost2010PropOp37
 70
     1
102
RTVSPost2010Prop38
140
0.0
102
RTVSPost2010PropOp38
 70
     1
102
RTVSPost2010Prop39
140
1.0
102
RTVSPost2010PropOp39
 70
     1
102
RTVSPost2010Prop40
 90
        0
102
RTVSPost2010PropOp40
 70
     1
102
RTVSPost2010Prop41ColorIndex
 90
       18
102
RTVSPost2010Prop41ColorRGB
 90
        0
102
RTVSPost2010PropOp41
 70
     1
102
RTVSPost2010Prop42
 90
       50
102
RTVSPost2010PropOp42
 70
     1
102
RTVSPost2010Prop43
 90
        3
102
RTVSPost2010PropOp43
 70
     1
102
RTVSPost2010Prop44ColorIndex
 90
        5
102
RTVSPost2010Prop44ColorRGB
 90
      255
102
RTVSPost2010PropOp44
 70
     1
102
RTVSPost2010Prop45
280
     0
102
RTVSPost2010PropOp45
 70
     1
102
RTVSPost2010Prop46
 90
       50
102
RTVSPost2010PropOp46
 70
     1
102
RTVSPost2010Prop47
 90
       50
102
RTVSPost2010PropOp47
 70
     1
102
RTVSPost2010Prop48
 90
       50
102
RTVSPost2010PropOp48
 70
     1
102
RTVSPost2010Prop49
280
     0
102
RTVSPost2010PropOp49
 70
     1
102
RTVSPost2010Prop50
 90
       50
102
RTVSPost2010PropOp50
 70
     1
102
RTVSPost2010Prop51ColorIndex
 90
      256
102
RTVSPost2010Prop51ColorRGB
 90
-16777216
102
RTVSPost2010PropOp51
 70
     0
102
RTVSPost2010Prop52
140
1.0
102
RTVSPost2010PropOp52
 70
     0
102
RTVSPost2010Prop53
 90
        2
102
RTVSPost2010PropOp53
 70
     1
102
RTVSPost2010Prop54
  1
strokes_ogs.tif
102
RTVSPost2010PropOp54
 70
     1
102
RTVSPost2010Prop55
280
     0
102
RTVSPost2010PropOp55
 70
     1
102
RTVSPost2010Prop56
140
1.0
102
RTVSPost2010PropOp56
 70
     1
102
RTVSPost2010Prop57
140
1.0
102
RTVSPost2010PropOp57
 70
     1
  0
XRECORD
  5
EE5
102
{ACAD_REACTORS
330
EE4
102
}
330
EE4
100
AcDbXrecord
280
     1
102
RTVSPropertyOp0
 70
     1
102
RTVSPropertyOp1
 70
     1
102
RTVSPropertyOp2
 70
     1
102
RTVSPropertyOp3
 70
     1
102
RTVSPropertyOp4
 70
     1
102
RTVSPropertyOp5
 70
     1
102
RTVSPropertyOp6
 70
     1
102
RTVSPropertyOp7
 70
     1
102
RTVSPropertyOp8
 70
     1
102
RTVSPropertyOp9
 70
     1
102
RTVSPropertyOp10
 70
     1
102
RTVSPropertyOp11
 70
     1
102
RTVSPropertyOp12
 70
     1
102
RTVSPropertyOp13
 70
     1
102
RTVSPropertyOp14
 70
     1
102
RTVSPropertyOp15
 70
     1
102
RTVSPropertyOp16
 70
     1
102
RTVSPropertyOp17
 70
     1
102
RTVSPropertyOp18
 70
     1
102
RTVSPropertyOp19
 70
     1
102
RTVSPropertyOp20
 70
     1
102
RTVSPropertyOp21
 70
     1
102
RTVSPropertyOp22
 70
     1
102
RTVSPropertyOp23
 70
     1
102
RTVSPropertyOp24
 70
     1
102
RTVSPropertyOp25
 70
     1
102
RTVSPropertyOp26
 70
     1
102
RTVSPropertyOp27
 70
     1
102
RTVSPropertyOp28
 70
     1
102
RTVSPropertyOp29
 70
     1
102
RTVSPropertyOp30
 70
     1
102
RTVSPropertyOp31
 70
     1
102
RTVSPropertyOp32
 70
     1
102
RTVSPropertyOp33
 70
     1
102
RTVSPropertyOp34
 70
     1
102
RTVSPropertyOp35
 70
     1
102
RTVSPropertyOp36
 70
     1
102
RTVSPropertyOp37
 70
     1
102
RTVSPropertyOp38
 70
     1
102
RTVSPropertyOp39
 70
     1
102
RTVSPropertyOp40
 70
     1
102
RTVSPropertyOp41
 70
     1
102
RTVSPropertyOp42
 70
     1
102
RTVSPropertyOp43
 70
     1
102
RTVSPropertyOp44
 70
     1
102
RTVSPropertyOp45
 70
     1
102
RTVSPropertyOp46
 70
     1
102
RTVSPropertyOp47
 70
     1
102
RTVSPropertyOp48
 70
     1
102
RTVSPropertyOp49
 70
     1
102
RTVSPropertyOp50
 70
     1
102
RTVSPropertyOp51
 70
     0
102
RTVSPropertyOp52
 70
     0
102
RTVSPropertyOp53
 70
     1
102
RTVSPropertyOp54
 70
     1
102
RTVSPropertyOp55
 70
     1
102
RTVSPropertyOp56
 70
     1
102
RTVSPropertyOp57
 70
     1
102
RTVSPost2010Prop28
280
     0
102
RTVSPost2010PropOp28
 70
     1
102
RTVSPost2010Prop29
280
     1
102
RTVSPost2010PropOp29
 70
     1
102
RTVSPost2010Prop30
280
     1
102
RTVSPost2010PropOp30
 70
     1
102
RTVSPost2010Prop31
280
     0
102
RTVSPost2010PropOp31
 70
     1
102
RTVSPost2010Prop32
280
     0
102
RTVSPost2010PropOp32
 70
     1
102
RTVSPost2010Prop33
280
     0
102
RTVSPost2010PropOp33
 70
     1
102
RTVSPost2010Prop34
280
     0
102
RTVSPost2010PropOp34
 70
     1
102
RTVSPost2010Prop35
280
     0
102
RTVSPost2010PropOp35
 70
     1
102
RTVSPost2010Prop36
280
     0
102
RTVSPost2010PropOp36
 70
     1
102
RTVSPost2010Prop37
 90
       50
102
RTVSPost2010PropOp37
 70
     1
102
RTVSPost2010Prop38
140
0.0
102
RTVSPost2010PropOp38
 70
     1
102
RTVSPost2010Prop39
140
1.0
102
RTVSPost2010PropOp39
 70
     1
102
RTVSPost2010Prop40
 90
        0
102
RTVSPost2010PropOp40
 70
     1
102
RTVSPost2010Prop41ColorIndex
 90
       18
102
RTVSPost2010Prop41ColorRGB
 90
        0
102
RTVSPost2010PropOp41
 70
     1
102
RTVSPost2010Prop42
 90
       50
102
RTVSPost2010PropOp42
 70
     1
102
RTVSPost2010Prop43
 90
        3
102
RTVSPost2010PropOp43
 70
     1
102
RTVSPost2010Prop44ColorIndex
 90
        5
102
RTVSPost2010Prop44ColorRGB
 90
      255
102
RTVSPost2010PropOp44
 70
     1
102
RTVSPost2010Prop45
280
     0
102
RTVSPost2010PropOp45
 70
     1
102
RTVSPost2010Prop46
 90
       50
102
RTVSPost2010PropOp46
 70
     1
102
RTVSPost2010Prop47
 90
       50
102
RTVSPost2010PropOp47
 70
     1
102
RTVSPost2010Prop48
 90
       50
102
RTVSPost2010PropOp48
 70
     1
102
RTVSPost2010Prop49
280
     0
102
RTVSPost2010PropOp49
 70
     1
102
RTVSPost2010Prop50
 90
       50
102
RTVSPost2010PropOp50
 70
     1
102
RTVSPost2010Prop51ColorIndex
 90
      256
102
RTVSPost2010Prop51ColorRGB
 90
-16777216
102
RTVSPost2010PropOp51
 70
     0
102
RTVSPost2010Prop52
140
1.0
102
RTVSPost2010PropOp52
 70
     0
102
RTVSPost2010Prop53
 90
        2
102
RTVSPost2010PropOp53
 70
     1
102
RTVSPost2010Prop54
  1
strokes_ogs.tif
102
RTVSPost2010PropOp54
 70
     1
102
RTVSPost2010Prop55
280
     0
102
RTVSPost2010PropOp55
 70
     1
102
RTVSPost2010Prop56
140
1.0
102
RTVSPost2010PropOp56
 70
     1
102
RTVSPost2010Prop57
140
1.0
102
RTVSPost2010PropOp57
 70
     1
  0
XRECORD
  5
EF9
102
{ACAD_REACTORS
330
EF8
102
}
330
EF8
100
AcDbXrecord
280
     1
102
RTVSPropertyOp0
 70
     0
102
RTVSPropertyOp1
 70
     0
102
RTVSPropertyOp2
 70
     0
102
RTVSPropertyOp3
 70
     0
102
RTVSPropertyOp4
 70
     0
102
RTVSPropertyOp5
 70
     0
102
RTVSPropertyOp6
 70
     0
102
RTVSPropertyOp7
 70
     0
102
RTVSPropertyOp8
 70
     0
102
RTVSPropertyOp9
 70
     0
102
RTVSPropertyOp10
 70
     0
102
RTVSPropertyOp11
 70
     0
102
RTVSPropertyOp12
 70
     0
102
RTVSPropertyOp13
 70
     0
102
RTVSPropertyOp14
 70
     2
102
RTVSPropertyOp15
 70
     0
102
RTVSPropertyOp16
 70
     0
102
RTVSPropertyOp17
 70
     0
102
RTVSPropertyOp18
 70
     0
102
RTVSPropertyOp19
 70
     0
102
RTVSPropertyOp20
 70
     0
102
RTVSPropertyOp21
 70
     0
102
RTVSPropertyOp22
 70
     0
102
RTVSPropertyOp23
 70
     0
102
RTVSPropertyOp24
 70
     0
102
RTVSPropertyOp25
 70
     0
102
RTVSPropertyOp26
 70
     0
102
RTVSPropertyOp27
 70
     0
102
RTVSPropertyOp28
 70
     0
102
RTVSPropertyOp29
 70
     0
102
RTVSPropertyOp30
 70
     0
102
RTVSPropertyOp31
 70
     0
102
RTVSPropertyOp32
 70
     0
102
RTVSPropertyOp33
 70
     0
102
RTVSPropertyOp34
 70
     0
102
RTVSPropertyOp35
 70
     0
102
RTVSPropertyOp36
 70
     0
102
RTVSPropertyOp37
 70
     0
102
RTVSPropertyOp38
 70
     0
102
RTVSPropertyOp39
 70
     0
102
RTVSPropertyOp40
 70
     0
102
RTVSPropertyOp41
 70
     0
102
RTVSPropertyOp42
 70
     0
102
RTVSPropertyOp43
 70
     0
102
RTVSPropertyOp44
 70
     0
102
RTVSPropertyOp45
 70
     0
102
RTVSPropertyOp46
 70
     0
102
RTVSPropertyOp47
 70
     0
102
RTVSPropertyOp48
 70
     0
102
RTVSPropertyOp49
 70
     0
102
RTVSPropertyOp50
 70
     0
102
RTVSPropertyOp51
 70
     0
102
RTVSPropertyOp52
 70
     0
102
RTVSPropertyOp53
 70
     0
102
RTVSPropertyOp54
 70
     0
102
RTVSPropertyOp55
 70
     0
102
RTVSPropertyOp56
 70
     0
102
RTVSPropertyOp57
 70
     0
102
RTVSPost2010Prop28
280
     0
102
RTVSPost2010PropOp28
 70
     0
102
RTVSPost2010Prop29
280
     1
102
RTVSPost2010PropOp29
 70
     0
102
RTVSPost2010Prop30
280
     1
102
RTVSPost2010PropOp30
 70
     0
102
RTVSPost2010Prop31
280
     0
102
RTVSPost2010PropOp31
 70
     0
102
RTVSPost2010Prop32
280
     0
102
RTVSPost2010PropOp32
 70
     0
102
RTVSPost2010Prop33
280
     0
102
RTVSPost2010PropOp33
 70
     0
102
RTVSPost2010Prop34
280
     0
102
RTVSPost2010PropOp34
 70
     0
102
RTVSPost2010Prop35
280
     0
102
RTVSPost2010PropOp35
 70
     0
102
RTVSPost2010Prop36
280
     0
102
RTVSPost2010PropOp36
 70
     0
102
RTVSPost2010Prop37
 90
       50
102
RTVSPost2010PropOp37
 70
     0
102
RTVSPost2010Prop38
140
0.0
102
RTVSPost2010PropOp38
 70
     0
102
RTVSPost2010Prop39
140
1.0
102
RTVSPost2010PropOp39
 70
     0
102
RTVSPost2010Prop40
 90
        0
102
RTVSPost2010PropOp40
 70
     0
102
RTVSPost2010Prop41ColorIndex
 90
       18
102
RTVSPost2010Prop41ColorRGB
 90
        0
102
RTVSPost2010PropOp41
 70
     0
102
RTVSPost2010Prop42
 90
       50
102
RTVSPost2010PropOp42
 70
     0
102
RTVSPost2010Prop43
 90
        3
102
RTVSPost2010PropOp43
 70
     0
102
RTVSPost2010Prop44ColorIndex
 90
        5
102
RTVSPost2010Prop44ColorRGB
 90
      255
102
RTVSPost2010PropOp44
 70
     0
102
RTVSPost2010Prop45
280
     0
102
RTVSPost2010PropOp45
 70
     0
102
RTVSPost2010Prop46
 90
       50
102
RTVSPost2010PropOp46
 70
     0
102
RTVSPost2010Prop47
 90
       50
102
RTVSPost2010PropOp47
 70
     0
102
RTVSPost2010Prop48
 90
       50
102
RTVSPost2010PropOp48
 70
     0
102
RTVSPost2010Prop49
280
     0
102
RTVSPost2010PropOp49
 70
     0
102
RTVSPost2010Prop50
 90
       50
102
RTVSPost2010PropOp50
 70
     0
102
RTVSPost2010Prop51ColorIndex
 90
      256
102
RTVSPost2010Prop51ColorRGB
 90
-16777216
102
RTVSPost2010PropOp51
 70
     0
102
RTVSPost2010Prop52
140
1.0
102
RTVSPost2010PropOp52
 70
     0
102
RTVSPost2010Prop53
 90
        2
102
RTVSPost2010PropOp53
 70
     0
102
RTVSPost2010Prop54
  1
strokes_ogs.tif
102
RTVSPost2010PropOp54
 70
     0
102
RTVSPost2010Prop55
280
     0
102
RTVSPost2010PropOp55
 70
     0
102
RTVSPost2010Prop56
140
1.0
102
RTVSPost2010PropOp56
 70
     0
102
RTVSPost2010Prop57
140
1.0
102
RTVSPost2010PropOp57
 70
     0
  0
XRECORD
  5
EF3
102
{ACAD_REACTORS
330
EF2
102
}
330
EF2
100
AcDbXrecord
280
     1
102
RTVSPropertyOp0
 70
     1
102
RTVSPropertyOp1
 70
     1
102
RTVSPropertyOp2
 70
     1
102
RTVSPropertyOp3
 70
     1
102
RTVSPropertyOp4
 70
     1
102
RTVSPropertyOp5
 70
     1
102
RTVSPropertyOp6
 70
     1
102
RTVSPropertyOp7
 70
     1
102
RTVSPropertyOp8
 70
     1
102
RTVSPropertyOp9
 70
     1
102
RTVSPropertyOp10
 70
     1
102
RTVSPropertyOp11
 70
     1
102
RTVSPropertyOp12
 70
     1
102
RTVSPropertyOp13
 70
     1
102
RTVSPropertyOp14
 70
     1
102
RTVSPropertyOp15
 70
     1
102
RTVSPropertyOp16
 70
     1
102
RTVSPropertyOp17
 70
     1
102
RTVSPropertyOp18
 70
     1
102
RTVSPropertyOp19
 70
     1
102
RTVSPropertyOp20
 70
     1
102
RTVSPropertyOp21
 70
     1
102
RTVSPropertyOp22
 70
     1
102
RTVSPropertyOp23
 70
     1
102
RTVSPropertyOp24
 70
     1
102
RTVSPropertyOp25
 70
     1
102
RTVSPropertyOp26
 70
     1
102
RTVSPropertyOp27
 70
     1
102
RTVSPropertyOp28
 70
     1
102
RTVSPropertyOp29
 70
     1
102
RTVSPropertyOp30
 70
     1
102
RTVSPropertyOp31
 70
     1
102
RTVSPropertyOp32
 70
     1
102
RTVSPropertyOp33
 70
     1
102
RTVSPropertyOp34
 70
     1
102
RTVSPropertyOp35
 70
     1
102
RTVSPropertyOp36
 70
     1
102
RTVSPropertyOp37
 70
     1
102
RTVSPropertyOp38
 70
     1
102
RTVSPropertyOp39
 70
     1
102
RTVSPropertyOp40
 70
     1
102
RTVSPropertyOp41
 70
     1
102
RTVSPropertyOp42
 70
     1
102
RTVSPropertyOp43
 70
     1
102
RTVSPropertyOp44
 70
     1
102
RTVSPropertyOp45
 70
     1
102
RTVSPropertyOp46
 70
     1
102
RTVSPropertyOp47
 70
     1
102
RTVSPropertyOp48
 70
     1
102
RTVSPropertyOp49
 70
     1
102
RTVSPropertyOp50
 70
     1
102
RTVSPropertyOp51
 70
     0
102
RTVSPropertyOp52
 70
     0
102
RTVSPropertyOp53
 70
     1
102
RTVSPropertyOp54
 70
     1
102
RTVSPropertyOp55
 70
     1
102
RTVSPropertyOp56
 70
     1
102
RTVSPropertyOp57
 70
     1
102
RTVSPost2010Prop28
280
     0
102
RTVSPost2010PropOp28
 70
     1
102
RTVSPost2010Prop29
280
     1
102
RTVSPost2010PropOp29
 70
     1
102
RTVSPost2010Prop30
280
     1
102
RTVSPost2010PropOp30
 70
     1
102
RTVSPost2010Prop31
280
     0
102
RTVSPost2010PropOp31
 70
     1
102
RTVSPost2010Prop32
280
     0
102
RTVSPost2010PropOp32
 70
     1
102
RTVSPost2010Prop33
280
     0
102
RTVSPost2010PropOp33
 70
     1
102
RTVSPost2010Prop34
280
     0
102
RTVSPost2010PropOp34
 70
     1
102
RTVSPost2010Prop35
280
     0
102
RTVSPost2010PropOp35
 70
     1
102
RTVSPost2010Prop36
280
     0
102
RTVSPost2010PropOp36
 70
     1
102
RTVSPost2010Prop37
 90
       50
102
RTVSPost2010PropOp37
 70
     1
102
RTVSPost2010Prop38
140
0.0
102
RTVSPost2010PropOp38
 70
     1
102
RTVSPost2010Prop39
140
1.0
102
RTVSPost2010PropOp39
 70
     1
102
RTVSPost2010Prop40
 90
        0
102
RTVSPost2010PropOp40
 70
     1
102
RTVSPost2010Prop41ColorIndex
 90
       18
102
RTVSPost2010Prop41ColorRGB
 90
        0
102
RTVSPost2010PropOp41
 70
     1
102
RTVSPost2010Prop42
 90
       50
102
RTVSPost2010PropOp42
 70
     1
102
RTVSPost2010Prop43
 90
        3
102
RTVSPost2010PropOp43
 70
     1
102
RTVSPost2010Prop44ColorIndex
 90
        5
102
RTVSPost2010Prop44ColorRGB
 90
      255
102
RTVSPost2010PropOp44
 70
     1
102
RTVSPost2010Prop45
280
     0
102
RTVSPost2010PropOp45
 70
     1
102
RTVSPost2010Prop46
 90
       50
102
RTVSPost2010PropOp46
 70
     1
102
RTVSPost2010Prop47
 90
       50
102
RTVSPost2010PropOp47
 70
     1
102
RTVSPost2010Prop48
 90
       50
102
RTVSPost2010PropOp48
 70
     1
102
RTVSPost2010Prop49
280
     0
102
RTVSPost2010PropOp49
 70
     1
102
RTVSPost2010Prop50
 90
       50
102
RTVSPost2010PropOp50
 70
     1
102
RTVSPost2010Prop51ColorIndex
 90
      256
102
RTVSPost2010Prop51ColorRGB
 90
-16777216
102
RTVSPost2010PropOp51
 70
     0
102
RTVSPost2010Prop52
140
1.0
102
RTVSPost2010PropOp52
 70
     0
102
RTVSPost2010Prop53
 90
        2
102
RTVSPost2010PropOp53
 70
     1
102
RTVSPost2010Prop54
  1
strokes_ogs.tif
102
RTVSPost2010PropOp54
 70
     1
102
RTVSPost2010Prop55
280
     0
102
RTVSPost2010PropOp55
 70
     1
102
RTVSPost2010Prop56
140
1.0
102
RTVSPost2010PropOp56
 70
     1
102
RTVSPost2010Prop57
140
1.0
102
RTVSPost2010PropOp57
 70
     1
  0
XRECORD
  5
EFB
102
{ACAD_REACTORS
330
EFA
102
}
330
EFA
100
AcDbXrecord
280
     1
102
RTVSPropertyOp0
 70
     0
102
RTVSPropertyOp1
 70
     0
102
RTVSPropertyOp2
 70
     0
102
RTVSPropertyOp3
 70
     0
102
RTVSPropertyOp4
 70
     0
102
RTVSPropertyOp5
 70
     0
102
RTVSPropertyOp6
 70
     0
102
RTVSPropertyOp7
 70
     0
102
RTVSPropertyOp8
 70
     0
102
RTVSPropertyOp9
 70
     0
102
RTVSPropertyOp10
 70
     0
102
RTVSPropertyOp11
 70
     0
102
RTVSPropertyOp12
 70
     0
102
RTVSPropertyOp13
 70
     0
102
RTVSPropertyOp14
 70
     2
102
RTVSPropertyOp15
 70
     0
102
RTVSPropertyOp16
 70
     0
102
RTVSPropertyOp17
 70
     0
102
RTVSPropertyOp18
 70
     0
102
RTVSPropertyOp19
 70
     0
102
RTVSPropertyOp20
 70
     0
102
RTVSPropertyOp21
 70
     0
102
RTVSPropertyOp22
 70
     0
102
RTVSPropertyOp23
 70
     0
102
RTVSPropertyOp24
 70
     0
102
RTVSPropertyOp25
 70
     0
102
RTVSPropertyOp26
 70
     0
102
RTVSPropertyOp27
 70
     0
102
RTVSPropertyOp28
 70
     0
102
RTVSPropertyOp29
 70
     0
102
RTVSPropertyOp30
 70
     0
102
RTVSPropertyOp31
 70
     0
102
RTVSPropertyOp32
 70
     0
102
RTVSPropertyOp33
 70
     0
102
RTVSPropertyOp34
 70
     0
102
RTVSPropertyOp35
 70
     0
102
RTVSPropertyOp36
 70
     0
102
RTVSPropertyOp37
 70
     0
102
RTVSPropertyOp38
 70
     0
102
RTVSPropertyOp39
 70
     0
102
RTVSPropertyOp40
 70
     0
102
RTVSPropertyOp41
 70
     0
102
RTVSPropertyOp42
 70
     0
102
RTVSPropertyOp43
 70
     0
102
RTVSPropertyOp44
 70
     0
102
RTVSPropertyOp45
 70
     0
102
RTVSPropertyOp46
 70
     0
102
RTVSPropertyOp47
 70
     0
102
RTVSPropertyOp48
 70
     0
102
RTVSPropertyOp49
 70
     0
102
RTVSPropertyOp50
 70
     0
102
RTVSPropertyOp51
 70
     0
102
RTVSPropertyOp52
 70
     0
102
RTVSPropertyOp53
 70
     0
102
RTVSPropertyOp54
 70
     0
102
RTVSPropertyOp55
 70
     0
102
RTVSPropertyOp56
 70
     0
102
RTVSPropertyOp57
 70
     0
102
RTVSPost2010Prop28
280
     0
102
RTVSPost2010PropOp28
 70
     0
102
RTVSPost2010Prop29
280
     1
102
RTVSPost2010PropOp29
 70
     0
102
RTVSPost2010Prop30
280
     1
102
RTVSPost2010PropOp30
 70
     0
102
RTVSPost2010Prop31
280
     0
102
RTVSPost2010PropOp31
 70
     0
102
RTVSPost2010Prop32
280
     0
102
RTVSPost2010PropOp32
 70
     0
102
RTVSPost2010Prop33
280
     0
102
RTVSPost2010PropOp33
 70
     0
102
RTVSPost2010Prop34
280
     0
102
RTVSPost2010PropOp34
 70
     0
102
RTVSPost2010Prop35
280
     0
102
RTVSPost2010PropOp35
 70
     0
102
RTVSPost2010Prop36
280
     0
102
RTVSPost2010PropOp36
 70
     0
102
RTVSPost2010Prop37
 90
       50
102
RTVSPost2010PropOp37
 70
     0
102
RTVSPost2010Prop38
140
0.0
102
RTVSPost2010PropOp38
 70
     0
102
RTVSPost2010Prop39
140
1.0
102
RTVSPost2010PropOp39
 70
     0
102
RTVSPost2010Prop40
 90
        0
102
RTVSPost2010PropOp40
 70
     0
102
RTVSPost2010Prop41ColorIndex
 90
       18
102
RTVSPost2010Prop41ColorRGB
 90
        0
102
RTVSPost2010PropOp41
 70
     0
102
RTVSPost2010Prop42
 90
       50
102
RTVSPost2010PropOp42
 70
     0
102
RTVSPost2010Prop43
 90
        3
102
RTVSPost2010PropOp43
 70
     0
102
RTVSPost2010Prop44ColorIndex
 90
        5
102
RTVSPost2010Prop44ColorRGB
 90
      255
102
RTVSPost2010PropOp44
 70
     0
102
RTVSPost2010Prop45
280
     0
102
RTVSPost2010PropOp45
 70
     0
102
RTVSPost2010Prop46
 90
       50
102
RTVSPost2010PropOp46
 70
     0
102
RTVSPost2010Prop47
 90
       50
102
RTVSPost2010PropOp47
 70
     0
102
RTVSPost2010Prop48
 90
       50
102
RTVSPost2010PropOp48
 70
     0
102
RTVSPost2010Prop49
280
     0
102
RTVSPost2010PropOp49
 70
     0
102
RTVSPost2010Prop50
 90
       50
102
RTVSPost2010PropOp50
 70
     0
102
RTVSPost2010Prop51ColorIndex
 90
      256
102
RTVSPost2010Prop51ColorRGB
 90
-16777216
102
RTVSPost2010PropOp51
 70
     0
102
RTVSPost2010Prop52
140
1.0
102
RTVSPost2010PropOp52
 70
     0
102
RTVSPost2010Prop53
 90
        2
102
RTVSPost2010PropOp53
 70
     0
102
RTVSPost2010Prop54
  1
strokes_ogs.tif
102
RTVSPost2010PropOp54
 70
     0
102
RTVSPost2010Prop55
280
     0
102
RTVSPost2010PropOp55
 70
     0
102
RTVSPost2010Prop56
140
1.0
102
RTVSPost2010PropOp56
 70
     0
102
RTVSPost2010Prop57
140
1.0
102
RTVSPost2010PropOp57
 70
     0
  0
XRECORD
  5
EE9
102
{ACAD_REACTORS
330
EE8
102
}
330
EE8
100
AcDbXrecord
280
     1
102
RTVSPropertyOp0
 70
     1
102
RTVSPropertyOp1
 70
     1
102
RTVSPropertyOp2
 70
     1
102
RTVSPropertyOp3
 70
     1
102
RTVSPropertyOp4
 70
     1
102
RTVSPropertyOp5
 70
     1
102
RTVSPropertyOp6
 70
     1
102
RTVSPropertyOp7
 70
     1
102
RTVSPropertyOp8
 70
     1
102
RTVSPropertyOp9
 70
     1
102
RTVSPropertyOp10
 70
     1
102
RTVSPropertyOp11
 70
     1
102
RTVSPropertyOp12
 70
     1
102
RTVSPropertyOp13
 70
     1
102
RTVSPropertyOp14
 70
     1
102
RTVSPropertyOp15
 70
     1
102
RTVSPropertyOp16
 70
     1
102
RTVSPropertyOp17
 70
     1
102
RTVSPropertyOp18
 70
     1
102
RTVSPropertyOp19
 70
     1
102
RTVSPropertyOp20
 70
     1
102
RTVSPropertyOp21
 70
     1
102
RTVSPropertyOp22
 70
     1
102
RTVSPropertyOp23
 70
     1
102
RTVSPropertyOp24
 70
     1
102
RTVSPropertyOp25
 70
     1
102
RTVSPropertyOp26
 70
     1
102
RTVSPropertyOp27
 70
     1
102
RTVSPropertyOp28
 70
     1
102
RTVSPropertyOp29
 70
     1
102
RTVSPropertyOp30
 70
     1
102
RTVSPropertyOp31
 70
     1
102
RTVSPropertyOp32
 70
     1
102
RTVSPropertyOp33
 70
     1
102
RTVSPropertyOp34
 70
     1
102
RTVSPropertyOp35
 70
     1
102
RTVSPropertyOp36
 70
     1
102
RTVSPropertyOp37
 70
     1
102
RTVSPropertyOp38
 70
     1
102
RTVSPropertyOp39
 70
     1
102
RTVSPropertyOp40
 70
     1
102
RTVSPropertyOp41
 70
     1
102
RTVSPropertyOp42
 70
     1
102
RTVSPropertyOp43
 70
     1
102
RTVSPropertyOp44
 70
     1
102
RTVSPropertyOp45
 70
     1
102
RTVSPropertyOp46
 70
     1
102
RTVSPropertyOp47
 70
     1
102
RTVSPropertyOp48
 70
     1
102
RTVSPropertyOp49
 70
     1
102
RTVSPropertyOp50
 70
     1
102
RTVSPropertyOp51
 70
     0
102
RTVSPropertyOp52
 70
     0
102
RTVSPropertyOp53
 70
     1
102
RTVSPropertyOp54
 70
     1
102
RTVSPropertyOp55
 70
     1
102
RTVSPropertyOp56
 70
     1
102
RTVSPropertyOp57
 70
     1
102
RTVSPost2010Prop28
280
     0
102
RTVSPost2010PropOp28
 70
     1
102
RTVSPost2010Prop29
280
     1
102
RTVSPost2010PropOp29
 70
     1
102
RTVSPost2010Prop30
280
     1
102
RTVSPost2010PropOp30
 70
     1
102
RTVSPost2010Prop31
280
     0
102
RTVSPost2010PropOp31
 70
     1
102
RTVSPost2010Prop32
280
     0
102
RTVSPost2010PropOp32
 70
     1
102
RTVSPost2010Prop33
280
     0
102
RTVSPost2010PropOp33
 70
     1
102
RTVSPost2010Prop34
280
     0
102
RTVSPost2010PropOp34
 70
     1
102
RTVSPost2010Prop35
280
     0
102
RTVSPost2010PropOp35
 70
     1
102
RTVSPost2010Prop36
280
     0
102
RTVSPost2010PropOp36
 70
     1
102
RTVSPost2010Prop37
 90
       50
102
RTVSPost2010PropOp37
 70
     1
102
RTVSPost2010Prop38
140
0.0
102
RTVSPost2010PropOp38
 70
     1
102
RTVSPost2010Prop39
140
1.0
102
RTVSPost2010PropOp39
 70
     1
102
RTVSPost2010Prop40
 90
        0
102
RTVSPost2010PropOp40
 70
     1
102
RTVSPost2010Prop41ColorIndex
 90
       18
102
RTVSPost2010Prop41ColorRGB
 90
        0
102
RTVSPost2010PropOp41
 70
     1
102
RTVSPost2010Prop42
 90
       50
102
RTVSPost2010PropOp42
 70
     1
102
RTVSPost2010Prop43
 90
        3
102
RTVSPost2010PropOp43
 70
     1
102
RTVSPost2010Prop44ColorIndex
 90
        5
102
RTVSPost2010Prop44ColorRGB
 90
      255
102
RTVSPost2010PropOp44
 70
     1
102
RTVSPost2010Prop45
280
     0
102
RTVSPost2010PropOp45
 70
     1
102
RTVSPost2010Prop46
 90
       50
102
RTVSPost2010PropOp46
 70
     1
102
RTVSPost2010Prop47
 90
       50
102
RTVSPost2010PropOp47
 70
     1
102
RTVSPost2010Prop48
 90
       50
102
RTVSPost2010PropOp48
 70
     1
102
RTVSPost2010Prop49
280
     0
102
RTVSPost2010PropOp49
 70
     1
102
RTVSPost2010Prop50
 90
       50
102
RTVSPost2010PropOp50
 70
     1
102
RTVSPost2010Prop51ColorIndex
 90
      256
102
RTVSPost2010Prop51ColorRGB
 90
-16777216
102
RTVSPost2010PropOp51
 70
     0
102
RTVSPost2010Prop52
140
1.0
102
RTVSPost2010PropOp52
 70
     0
102
RTVSPost2010Prop53
 90
        2
102
RTVSPost2010PropOp53
 70
     1
102
RTVSPost2010Prop54
  1
strokes_ogs.tif
102
RTVSPost2010PropOp54
 70
     1
102
RTVSPost2010Prop55
280
     0
102
RTVSPost2010PropOp55
 70
     1
102
RTVSPost2010Prop56
140
1.0
102
RTVSPost2010PropOp56
 70
     1
102
RTVSPost2010Prop57
140
1.0
102
RTVSPost2010PropOp57
 70
     1
  0
XRECORD
  5
F07
102
{ACAD_REACTORS
330
F06
102
}
330
F06
100
AcDbXrecord
280
     1
102
RTVSPropertyOp0
 70
     1
102
RTVSPropertyOp1
 70
     1
102
RTVSPropertyOp2
 70
     1
102
RTVSPropertyOp3
 70
     1
102
RTVSPropertyOp4
 70
     1
102
RTVSPropertyOp5
 70
     1
102
RTVSPropertyOp6
 70
     1
102
RTVSPropertyOp7
 70
     1
102
RTVSPropertyOp8
 70
     1
102
RTVSPropertyOp9
 70
     1
102
RTVSPropertyOp10
 70
     1
102
RTVSPropertyOp11
 70
     1
102
RTVSPropertyOp12
 70
     1
102
RTVSPropertyOp13
 70
     1
102
RTVSPropertyOp14
 70
     1
102
RTVSPropertyOp15
 70
     1
102
RTVSPropertyOp16
 70
     1
102
RTVSPropertyOp17
 70
     1
102
RTVSPropertyOp18
 70
     1
102
RTVSPropertyOp19
 70
     1
102
RTVSPropertyOp20
 70
     1
102
RTVSPropertyOp21
 70
     1
102
RTVSPropertyOp22
 70
     1
102
RTVSPropertyOp23
 70
     1
102
RTVSPropertyOp24
 70
     1
102
RTVSPropertyOp25
 70
     1
102
RTVSPropertyOp26
 70
     1
102
RTVSPropertyOp27
 70
     1
102
RTVSPropertyOp28
 70
     1
102
RTVSPropertyOp29
 70
     1
102
RTVSPropertyOp30
 70
     1
102
RTVSPropertyOp31
 70
     1
102
RTVSPropertyOp32
 70
     1
102
RTVSPropertyOp33
 70
     1
102
RTVSPropertyOp34
 70
     1
102
RTVSPropertyOp35
 70
     1
102
RTVSPropertyOp36
 70
     1
102
RTVSPropertyOp37
 70
     1
102
RTVSPropertyOp38
 70
     1
102
RTVSPropertyOp39
 70
     1
102
RTVSPropertyOp40
 70
     1
102
RTVSPropertyOp41
 70
     1
102
RTVSPropertyOp42
 70
     1
102
RTVSPropertyOp43
 70
     1
102
RTVSPropertyOp44
 70
     1
102
RTVSPropertyOp45
 70
     1
102
RTVSPropertyOp46
 70
     1
102
RTVSPropertyOp47
 70
     1
102
RTVSPropertyOp48
 70
     1
102
RTVSPropertyOp49
 70
     1
102
RTVSPropertyOp50
 70
     1
102
RTVSPropertyOp51
 70
     0
102
RTVSPropertyOp52
 70
     0
102
RTVSPropertyOp53
 70
     1
102
RTVSPropertyOp54
 70
     1
102
RTVSPropertyOp55
 70
     1
102
RTVSPropertyOp56
 70
     1
102
RTVSPropertyOp57
 70
     1
102
RTVSPost2010Prop28
280
     0
102
RTVSPost2010PropOp28
 70
     1
102
RTVSPost2010Prop29
280
     1
102
RTVSPost2010PropOp29
 70
     1
102
RTVSPost2010Prop30
280
     1
102
RTVSPost2010PropOp30
 70
     1
102
RTVSPost2010Prop31
280
     0
102
RTVSPost2010PropOp31
 70
     1
102
RTVSPost2010Prop32
280
     0
102
RTVSPost2010PropOp32
 70
     1
102
RTVSPost2010Prop33
280
     0
102
RTVSPost2010PropOp33
 70
     1
102
RTVSPost2010Prop34
280
     0
102
RTVSPost2010PropOp34
 70
     1
102
RTVSPost2010Prop35
280
     0
102
RTVSPost2010PropOp35
 70
     1
102
RTVSPost2010Prop36
280
     0
102
RTVSPost2010PropOp36
 70
     1
102
RTVSPost2010Prop37
 90
       50
102
RTVSPost2010PropOp37
 70
     1
102
RTVSPost2010Prop38
140
0.0
102
RTVSPost2010PropOp38
 70
     1
102
RTVSPost2010Prop39
140
1.0
102
RTVSPost2010PropOp39
 70
     1
102
RTVSPost2010Prop40
 90
        0
102
RTVSPost2010PropOp40
 70
     1
102
RTVSPost2010Prop41ColorIndex
 90
       18
102
RTVSPost2010Prop41ColorRGB
 90
        0
102
RTVSPost2010PropOp41
 70
     1
102
RTVSPost2010Prop42
 90
       50
102
RTVSPost2010PropOp42
 70
     1
102
RTVSPost2010Prop43
 90
        3
102
RTVSPost2010PropOp43
 70
     1
102
RTVSPost2010Prop44ColorIndex
 90
        5
102
RTVSPost2010Prop44ColorRGB
 90
      255
102
RTVSPost2010PropOp44
 70
     1
102
RTVSPost2010Prop45
280
     0
102
RTVSPost2010PropOp45
 70
     1
102
RTVSPost2010Prop46
 90
       50
102
RTVSPost2010PropOp46
 70
     1
102
RTVSPost2010Prop47
 90
       50
102
RTVSPost2010PropOp47
 70
     1
102
RTVSPost2010Prop48
 90
       50
102
RTVSPost2010PropOp48
 70
     1
102
RTVSPost2010Prop49
280
     0
102
RTVSPost2010PropOp49
 70
     1
102
RTVSPost2010Prop50
 90
       50
102
RTVSPost2010PropOp50
 70
     1
102
RTVSPost2010Prop51ColorIndex
 90
      256
102
RTVSPost2010Prop51ColorRGB
 90
-16777216
102
RTVSPost2010PropOp51
 70
     0
102
RTVSPost2010Prop52
140
1.0
102
RTVSPost2010PropOp52
 70
     0
102
RTVSPost2010Prop53
 90
        2
102
RTVSPost2010PropOp53
 70
     1
102
RTVSPost2010Prop54
  1
strokes_ogs.tif
102
RTVSPost2010PropOp54
 70
     1
102
RTVSPost2010Prop55
280
     0
102
RTVSPost2010PropOp55
 70
     1
102
RTVSPost2010Prop56
140
1.0
102
RTVSPost2010PropOp56
 70
     1
102
RTVSPost2010Prop57
140
1.0
102
RTVSPost2010PropOp57
 70
     1
  0
XRECORD
  5
F05
102
{ACAD_REACTORS
330
F04
102
}
330
F04
100
AcDbXrecord
280
     1
102
RTVSPropertyOp0
 70
     1
102
RTVSPropertyOp1
 70
     1
102
RTVSPropertyOp2
 70
     1
102
RTVSPropertyOp3
 70
     1
102
RTVSPropertyOp4
 70
     1
102
RTVSPropertyOp5
 70
     1
102
RTVSPropertyOp6
 70
     1
102
RTVSPropertyOp7
 70
     1
102
RTVSPropertyOp8
 70
     1
102
RTVSPropertyOp9
 70
     1
102
RTVSPropertyOp10
 70
     1
102
RTVSPropertyOp11
 70
     1
102
RTVSPropertyOp12
 70
     1
102
RTVSPropertyOp13
 70
     1
102
RTVSPropertyOp14
 70
     1
102
RTVSPropertyOp15
 70
     1
102
RTVSPropertyOp16
 70
     1
102
RTVSPropertyOp17
 70
     1
102
RTVSPropertyOp18
 70
     1
102
RTVSPropertyOp19
 70
     1
102
RTVSPropertyOp20
 70
     1
102
RTVSPropertyOp21
 70
     1
102
RTVSPropertyOp22
 70
     1
102
RTVSPropertyOp23
 70
     1
102
RTVSPropertyOp24
 70
     1
102
RTVSPropertyOp25
 70
     1
102
RTVSPropertyOp26
 70
     1
102
RTVSPropertyOp27
 70
     1
102
RTVSPropertyOp28
 70
     1
102
RTVSPropertyOp29
 70
     1
102
RTVSPropertyOp30
 70
     1
102
RTVSPropertyOp31
 70
     1
102
RTVSPropertyOp32
 70
     1
102
RTVSPropertyOp33
 70
     1
102
RTVSPropertyOp34
 70
     1
102
RTVSPropertyOp35
 70
     1
102
RTVSPropertyOp36
 70
     1
102
RTVSPropertyOp37
 70
     1
102
RTVSPropertyOp38
 70
     1
102
RTVSPropertyOp39
 70
     1
102
RTVSPropertyOp40
 70
     1
102
RTVSPropertyOp41
 70
     1
102
RTVSPropertyOp42
 70
     1
102
RTVSPropertyOp43
 70
     1
102
RTVSPropertyOp44
 70
     1
102
RTVSPropertyOp45
 70
     1
102
RTVSPropertyOp46
 70
     1
102
RTVSPropertyOp47
 70
     1
102
RTVSPropertyOp48
 70
     1
102
RTVSPropertyOp49
 70
     1
102
RTVSPropertyOp50
 70
     1
102
RTVSPropertyOp51
 70
     0
102
RTVSPropertyOp52
 70
     0
102
RTVSPropertyOp53
 70
     1
102
RTVSPropertyOp54
 70
     1
102
RTVSPropertyOp55
 70
     1
102
RTVSPropertyOp56
 70
     1
102
RTVSPropertyOp57
 70
     1
102
RTVSPost2010Prop28
280
     0
102
RTVSPost2010PropOp28
 70
     1
102
RTVSPost2010Prop29
280
     1
102
RTVSPost2010PropOp29
 70
     1
102
RTVSPost2010Prop30
280
     1
102
RTVSPost2010PropOp30
 70
     1
102
RTVSPost2010Prop31
280
     0
102
RTVSPost2010PropOp31
 70
     1
102
RTVSPost2010Prop32
280
     0
102
RTVSPost2010PropOp32
 70
     1
102
RTVSPost2010Prop33
280
     0
102
RTVSPost2010PropOp33
 70
     1
102
RTVSPost2010Prop34
280
     0
102
RTVSPost2010PropOp34
 70
     1
102
RTVSPost2010Prop35
280
     0
102
RTVSPost2010PropOp35
 70
     1
102
RTVSPost2010Prop36
280
     0
102
RTVSPost2010PropOp36
 70
     1
102
RTVSPost2010Prop37
 90
       50
102
RTVSPost2010PropOp37
 70
     1
102
RTVSPost2010Prop38
140
0.0
102
RTVSPost2010PropOp38
 70
     1
102
RTVSPost2010Prop39
140
1.0
102
RTVSPost2010PropOp39
 70
     1
102
RTVSPost2010Prop40
 90
        0
102
RTVSPost2010PropOp40
 70
     1
102
RTVSPost2010Prop41ColorIndex
 90
       18
102
RTVSPost2010Prop41ColorRGB
 90
        0
102
RTVSPost2010PropOp41
 70
     1
102
RTVSPost2010Prop42
 90
       50
102
RTVSPost2010PropOp42
 70
     1
102
RTVSPost2010Prop43
 90
        3
102
RTVSPost2010PropOp43
 70
     1
102
RTVSPost2010Prop44ColorIndex
 90
        5
102
RTVSPost2010Prop44ColorRGB
 90
      255
102
RTVSPost2010PropOp44
 70
     1
102
RTVSPost2010Prop45
280
     0
102
RTVSPost2010PropOp45
 70
     1
102
RTVSPost2010Prop46
 90
       50
102
RTVSPost2010PropOp46
 70
     1
102
RTVSPost2010Prop47
 90
       50
102
RTVSPost2010PropOp47
 70
     1
102
RTVSPost2010Prop48
 90
       50
102
RTVSPost2010PropOp48
 70
     1
102
RTVSPost2010Prop49
280
     0
102
RTVSPost2010PropOp49
 70
     1
102
RTVSPost2010Prop50
 90
       50
102
RTVSPost2010PropOp50
 70
     1
102
RTVSPost2010Prop51ColorIndex
 90
      256
102
RTVSPost2010Prop51ColorRGB
 90
-16777216
102
RTVSPost2010PropOp51
 70
     0
102
RTVSPost2010Prop52
140
1.0
102
RTVSPost2010PropOp52
 70
     0
102
RTVSPost2010Prop53
 90
        2
102
RTVSPost2010PropOp53
 70
     1
102
RTVSPost2010Prop54
  1
strokes_ogs.tif
102
RTVSPost2010PropOp54
 70
     1
102
RTVSPost2010Prop55
280
     0
102
RTVSPost2010PropOp55
 70
     1
102
RTVSPost2010Prop56
140
1.0
102
RTVSPost2010PropOp56
 70
     1
102
RTVSPost2010Prop57
140
1.0
102
RTVSPost2010PropOp57
 70
     1
  0
XRECORD
  5
EFF
102
{ACAD_REACTORS
330
EFE
102
}
330
EFE
100
AcDbXrecord
280
     1
102
RTVSPropertyOp0
 70
     1
102
RTVSPropertyOp1
 70
     1
102
RTVSPropertyOp2
 70
     1
102
RTVSPropertyOp3
 70
     1
102
RTVSPropertyOp4
 70
     1
102
RTVSPropertyOp5
 70
     1
102
RTVSPropertyOp6
 70
     1
102
RTVSPropertyOp7
 70
     1
102
RTVSPropertyOp8
 70
     1
102
RTVSPropertyOp9
 70
     1
102
RTVSPropertyOp10
 70
     1
102
RTVSPropertyOp11
 70
     1
102
RTVSPropertyOp12
 70
     1
102
RTVSPropertyOp13
 70
     1
102
RTVSPropertyOp14
 70
     1
102
RTVSPropertyOp15
 70
     1
102
RTVSPropertyOp16
 70
     1
102
RTVSPropertyOp17
 70
     1
102
RTVSPropertyOp18
 70
     1
102
RTVSPropertyOp19
 70
     1
102
RTVSPropertyOp20
 70
     1
102
RTVSPropertyOp21
 70
     1
102
RTVSPropertyOp22
 70
     1
102
RTVSPropertyOp23
 70
     1
102
RTVSPropertyOp24
 70
     1
102
RTVSPropertyOp25
 70
     1
102
RTVSPropertyOp26
 70
     1
102
RTVSPropertyOp27
 70
     1
102
RTVSPropertyOp28
 70
     1
102
RTVSPropertyOp29
 70
     1
102
RTVSPropertyOp30
 70
     1
102
RTVSPropertyOp31
 70
     1
102
RTVSPropertyOp32
 70
     1
102
RTVSPropertyOp33
 70
     1
102
RTVSPropertyOp34
 70
     1
102
RTVSPropertyOp35
 70
     1
102
RTVSPropertyOp36
 70
     1
102
RTVSPropertyOp37
 70
     1
102
RTVSPropertyOp38
 70
     1
102
RTVSPropertyOp39
 70
     1
102
RTVSPropertyOp40
 70
     1
102
RTVSPropertyOp41
 70
     1
102
RTVSPropertyOp42
 70
     1
102
RTVSPropertyOp43
 70
     1
102
RTVSPropertyOp44
 70
     1
102
RTVSPropertyOp45
 70
     1
102
RTVSPropertyOp46
 70
     1
102
RTVSPropertyOp47
 70
     1
102
RTVSPropertyOp48
 70
     1
102
RTVSPropertyOp49
 70
     1
102
RTVSPropertyOp50
 70
     1
102
RTVSPropertyOp51
 70
     0
102
RTVSPropertyOp52
 70
     0
102
RTVSPropertyOp53
 70
     1
102
RTVSPropertyOp54
 70
     1
102
RTVSPropertyOp55
 70
     1
102
RTVSPropertyOp56
 70
     1
102
RTVSPropertyOp57
 70
     1
102
RTVSPost2010Prop28
280
     0
102
RTVSPost2010PropOp28
 70
     1
102
RTVSPost2010Prop29
280
     1
102
RTVSPost2010PropOp29
 70
     1
102
RTVSPost2010Prop30
280
     1
102
RTVSPost2010PropOp30
 70
     1
102
RTVSPost2010Prop31
280
     0
102
RTVSPost2010PropOp31
 70
     1
102
RTVSPost2010Prop32
280
     0
102
RTVSPost2010PropOp32
 70
     1
102
RTVSPost2010Prop33
280
     0
102
RTVSPost2010PropOp33
 70
     1
102
RTVSPost2010Prop34
280
     0
102
RTVSPost2010PropOp34
 70
     1
102
RTVSPost2010Prop35
280
     0
102
RTVSPost2010PropOp35
 70
     1
102
RTVSPost2010Prop36
280
     0
102
RTVSPost2010PropOp36
 70
     1
102
RTVSPost2010Prop37
 90
       50
102
RTVSPost2010PropOp37
 70
     1
102
RTVSPost2010Prop38
140
0.0
102
RTVSPost2010PropOp38
 70
     1
102
RTVSPost2010Prop39
140
1.0
102
RTVSPost2010PropOp39
 70
     1
102
RTVSPost2010Prop40
 90
        0
102
RTVSPost2010PropOp40
 70
     1
102
RTVSPost2010Prop41ColorIndex
 90
       18
102
RTVSPost2010Prop41ColorRGB
 90
        0
102
RTVSPost2010PropOp41
 70
     1
102
RTVSPost2010Prop42
 90
       50
102
RTVSPost2010PropOp42
 70
     1
102
RTVSPost2010Prop43
 90
        3
102
RTVSPost2010PropOp43
 70
     1
102
RTVSPost2010Prop44ColorIndex
 90
        5
102
RTVSPost2010Prop44ColorRGB
 90
      255
102
RTVSPost2010PropOp44
 70
     1
102
RTVSPost2010Prop45
280
     0
102
RTVSPost2010PropOp45
 70
     1
102
RTVSPost2010Prop46
 90
       50
102
RTVSPost2010PropOp46
 70
     1
102
RTVSPost2010Prop47
 90
       50
102
RTVSPost2010PropOp47
 70
     1
102
RTVSPost2010Prop48
 90
       50
102
RTVSPost2010PropOp48
 70
     1
102
RTVSPost2010Prop49
280
     0
102
RTVSPost2010PropOp49
 70
     1
102
RTVSPost2010Prop50
 90
       50
102
RTVSPost2010PropOp50
 70
     1
102
RTVSPost2010Prop51ColorIndex
 90
      256
102
RTVSPost2010Prop51ColorRGB
 90
-16777216
102
RTVSPost2010PropOp51
 70
     0
102
RTVSPost2010Prop52
140
1.0
102
RTVSPost2010PropOp52
 70
     0
102
RTVSPost2010Prop53
 90
        2
102
RTVSPost2010PropOp53
 70
     1
102
RTVSPost2010Prop54
  1
strokes_ogs.tif
102
RTVSPost2010PropOp54
 70
     1
102
RTVSPost2010Prop55
280
     0
102
RTVSPost2010PropOp55
 70
     1
102
RTVSPost2010Prop56
140
1.0
102
RTVSPost2010PropOp56
 70
     1
102
RTVSPost2010Prop57
140
1.0
102
RTVSPost2010PropOp57
 70
     1
  0
XRECORD
  5
F01
102
{ACAD_REACTORS
330
F00
102
}
330
F00
100
AcDbXrecord
280
     1
102
RTVSPropertyOp0
 70
     1
102
RTVSPropertyOp1
 70
     1
102
RTVSPropertyOp2
 70
     1
102
RTVSPropertyOp3
 70
     1
102
RTVSPropertyOp4
 70
     1
102
RTVSPropertyOp5
 70
     1
102
RTVSPropertyOp6
 70
     1
102
RTVSPropertyOp7
 70
     1
102
RTVSPropertyOp8
 70
     1
102
RTVSPropertyOp9
 70
     1
102
RTVSPropertyOp10
 70
     1
102
RTVSPropertyOp11
 70
     1
102
RTVSPropertyOp12
 70
     1
102
RTVSPropertyOp13
 70
     1
102
RTVSPropertyOp14
 70
     1
102
RTVSPropertyOp15
 70
     1
102
RTVSPropertyOp16
 70
     1
102
RTVSPropertyOp17
 70
     1
102
RTVSPropertyOp18
 70
     1
102
RTVSPropertyOp19
 70
     1
102
RTVSPropertyOp20
 70
     1
102
RTVSPropertyOp21
 70
     1
102
RTVSPropertyOp22
 70
     1
102
RTVSPropertyOp23
 70
     1
102
RTVSPropertyOp24
 70
     1
102
RTVSPropertyOp25
 70
     1
102
RTVSPropertyOp26
 70
     1
102
RTVSPropertyOp27
 70
     1
102
RTVSPropertyOp28
 70
     1
102
RTVSPropertyOp29
 70
     1
102
RTVSPropertyOp30
 70
     1
102
RTVSPropertyOp31
 70
     1
102
RTVSPropertyOp32
 70
     1
102
RTVSPropertyOp33
 70
     1
102
RTVSPropertyOp34
 70
     1
102
RTVSPropertyOp35
 70
     1
102
RTVSPropertyOp36
 70
     1
102
RTVSPropertyOp37
 70
     1
102
RTVSPropertyOp38
 70
     1
102
RTVSPropertyOp39
 70
     1
102
RTVSPropertyOp40
 70
     1
102
RTVSPropertyOp41
 70
     1
102
RTVSPropertyOp42
 70
     1
102
RTVSPropertyOp43
 70
     1
102
RTVSPropertyOp44
 70
     1
102
RTVSPropertyOp45
 70
     1
102
RTVSPropertyOp46
 70
     1
102
RTVSPropertyOp47
 70
     1
102
RTVSPropertyOp48
 70
     1
102
RTVSPropertyOp49
 70
     1
102
RTVSPropertyOp50
 70
     1
102
RTVSPropertyOp51
 70
     0
102
RTVSPropertyOp52
 70
     0
102
RTVSPropertyOp53
 70
     1
102
RTVSPropertyOp54
 70
     1
102
RTVSPropertyOp55
 70
     1
102
RTVSPropertyOp56
 70
     1
102
RTVSPropertyOp57
 70
     1
102
RTVSPost2010Prop28
280
     0
102
RTVSPost2010PropOp28
 70
     1
102
RTVSPost2010Prop29
280
     1
102
RTVSPost2010PropOp29
 70
     1
102
RTVSPost2010Prop30
280
     1
102
RTVSPost2010PropOp30
 70
     1
102
RTVSPost2010Prop31
280
     0
102
RTVSPost2010PropOp31
 70
     1
102
RTVSPost2010Prop32
280
     0
102
RTVSPost2010PropOp32
 70
     1
102
RTVSPost2010Prop33
280
     0
102
RTVSPost2010PropOp33
 70
     1
102
RTVSPost2010Prop34
280
     0
102
RTVSPost2010PropOp34
 70
     1
102
RTVSPost2010Prop35
280
     0
102
RTVSPost2010PropOp35
 70
     1
102
RTVSPost2010Prop36
280
     0
102
RTVSPost2010PropOp36
 70
     1
102
RTVSPost2010Prop37
 90
       50
102
RTVSPost2010PropOp37
 70
     1
102
RTVSPost2010Prop38
140
0.0
102
RTVSPost2010PropOp38
 70
     1
102
RTVSPost2010Prop39
140
1.0
102
RTVSPost2010PropOp39
 70
     1
102
RTVSPost2010Prop40
 90
        0
102
RTVSPost2010PropOp40
 70
     1
102
RTVSPost2010Prop41ColorIndex
 90
       18
102
RTVSPost2010Prop41ColorRGB
 90
        0
102
RTVSPost2010PropOp41
 70
     1
102
RTVSPost2010Prop42
 90
       50
102
RTVSPost2010PropOp42
 70
     1
102
RTVSPost2010Prop43
 90
        3
102
RTVSPost2010PropOp43
 70
     1
102
RTVSPost2010Prop44ColorIndex
 90
        5
102
RTVSPost2010Prop44ColorRGB
 90
      255
102
RTVSPost2010PropOp44
 70
     1
102
RTVSPost2010Prop45
280
     0
102
RTVSPost2010PropOp45
 70
     1
102
RTVSPost2010Prop46
 90
       50
102
RTVSPost2010PropOp46
 70
     1
102
RTVSPost2010Prop47
 90
       50
102
RTVSPost2010PropOp47
 70
     1
102
RTVSPost2010Prop48
 90
       50
102
RTVSPost2010PropOp48
 70
     1
102
RTVSPost2010Prop49
280
     0
102
RTVSPost2010PropOp49
 70
     1
102
RTVSPost2010Prop50
 90
       50
102
RTVSPost2010PropOp50
 70
     1
102
RTVSPost2010Prop51ColorIndex
 90
      256
102
RTVSPost2010Prop51ColorRGB
 90
-16777216
102
RTVSPost2010PropOp51
 70
     0
102
RTVSPost2010Prop52
140
1.0
102
RTVSPost2010PropOp52
 70
     0
102
RTVSPost2010Prop53
 90
        2
102
RTVSPost2010PropOp53
 70
     1
102
RTVSPost2010Prop54
  1
strokes_ogs.tif
102
RTVSPost2010PropOp54
 70
     1
102
RTVSPost2010Prop55
280
     0
102
RTVSPost2010PropOp55
 70
     1
102
RTVSPost2010Prop56
140
1.0
102
RTVSPost2010PropOp56
 70
     1
102
RTVSPost2010Prop57
140
1.0
102
RTVSPost2010PropOp57
 70
     1
  0
XRECORD
  5
EF1
102
{ACAD_REACTORS
330
EF0
102
}
330
EF0
100
AcDbXrecord
280
     1
102
RTVSPropertyOp0
 70
     1
102
RTVSPropertyOp1
 70
     1
102
RTVSPropertyOp2
 70
     1
102
RTVSPropertyOp3
 70
     1
102
RTVSPropertyOp4
 70
     1
102
RTVSPropertyOp5
 70
     1
102
RTVSPropertyOp6
 70
     1
102
RTVSPropertyOp7
 70
     1
102
RTVSPropertyOp8
 70
     1
102
RTVSPropertyOp9
 70
     1
102
RTVSPropertyOp10
 70
     1
102
RTVSPropertyOp11
 70
     1
102
RTVSPropertyOp12
 70
     1
102
RTVSPropertyOp13
 70
     1
102
RTVSPropertyOp14
 70
     1
102
RTVSPropertyOp15
 70
     1
102
RTVSPropertyOp16
 70
     1
102
RTVSPropertyOp17
 70
     1
102
RTVSPropertyOp18
 70
     1
102
RTVSPropertyOp19
 70
     1
102
RTVSPropertyOp20
 70
     1
102
RTVSPropertyOp21
 70
     1
102
RTVSPropertyOp22
 70
     1
102
RTVSPropertyOp23
 70
     1
102
RTVSPropertyOp24
 70
     1
102
RTVSPropertyOp25
 70
     1
102
RTVSPropertyOp26
 70
     1
102
RTVSPropertyOp27
 70
     1
102
RTVSPropertyOp28
 70
     1
102
RTVSPropertyOp29
 70
     1
102
RTVSPropertyOp30
 70
     1
102
RTVSPropertyOp31
 70
     1
102
RTVSPropertyOp32
 70
     1
102
RTVSPropertyOp33
 70
     1
102
RTVSPropertyOp34
 70
     1
102
RTVSPropertyOp35
 70
     1
102
RTVSPropertyOp36
 70
     1
102
RTVSPropertyOp37
 70
     1
102
RTVSPropertyOp38
 70
     1
102
RTVSPropertyOp39
 70
     1
102
RTVSPropertyOp40
 70
     1
102
RTVSPropertyOp41
 70
     1
102
RTVSPropertyOp42
 70
     1
102
RTVSPropertyOp43
 70
     1
102
RTVSPropertyOp44
 70
     1
102
RTVSPropertyOp45
 70
     1
102
RTVSPropertyOp46
 70
     1
102
RTVSPropertyOp47
 70
     1
102
RTVSPropertyOp48
 70
     1
102
RTVSPropertyOp49
 70
     1
102
RTVSPropertyOp50
 70
     1
102
RTVSPropertyOp51
 70
     0
102
RTVSPropertyOp52
 70
     0
102
RTVSPropertyOp53
 70
     1
102
RTVSPropertyOp54
 70
     1
102
RTVSPropertyOp55
 70
     1
102
RTVSPropertyOp56
 70
     1
102
RTVSPropertyOp57
 70
     1
102
RTVSPost2010Prop28
280
     0
102
RTVSPost2010PropOp28
 70
     1
102
RTVSPost2010Prop29
280
     1
102
RTVSPost2010PropOp29
 70
     1
102
RTVSPost2010Prop30
280
     1
102
RTVSPost2010PropOp30
 70
     1
102
RTVSPost2010Prop31
280
     0
102
RTVSPost2010PropOp31
 70
     1
102
RTVSPost2010Prop32
280
     0
102
RTVSPost2010PropOp32
 70
     1
102
RTVSPost2010Prop33
280
     0
102
RTVSPost2010PropOp33
 70
     1
102
RTVSPost2010Prop34
280
     0
102
RTVSPost2010PropOp34
 70
     1
102
RTVSPost2010Prop35
280
     0
102
RTVSPost2010PropOp35
 70
     1
102
RTVSPost2010Prop36
280
     0
102
RTVSPost2010PropOp36
 70
     1
102
RTVSPost2010Prop37
 90
       50
102
RTVSPost2010PropOp37
 70
     1
102
RTVSPost2010Prop38
140
0.0
102
RTVSPost2010PropOp38
 70
     1
102
RTVSPost2010Prop39
140
1.0
102
RTVSPost2010PropOp39
 70
     1
102
RTVSPost2010Prop40
 90
        0
102
RTVSPost2010PropOp40
 70
     1
102
RTVSPost2010Prop41ColorIndex
 90
       18
102
RTVSPost2010Prop41ColorRGB
 90
        0
102
RTVSPost2010PropOp41
 70
     1
102
RTVSPost2010Prop42
 90
       50
102
RTVSPost2010PropOp42
 70
     1
102
RTVSPost2010Prop43
 90
        3
102
RTVSPost2010PropOp43
 70
     1
102
RTVSPost2010Prop44ColorIndex
 90
        5
102
RTVSPost2010Prop44ColorRGB
 90
      255
102
RTVSPost2010PropOp44
 70
     1
102
RTVSPost2010Prop45
280
     0
102
RTVSPost2010PropOp45
 70
     1
102
RTVSPost2010Prop46
 90
       50
102
RTVSPost2010PropOp46
 70
     1
102
RTVSPost2010Prop47
 90
       50
102
RTVSPost2010PropOp47
 70
     1
102
RTVSPost2010Prop48
 90
       50
102
RTVSPost2010PropOp48
 70
     1
102
RTVSPost2010Prop49
280
     0
102
RTVSPost2010PropOp49
 70
     1
102
RTVSPost2010Prop50
 90
       50
102
RTVSPost2010PropOp50
 70
     1
102
RTVSPost2010Prop51ColorIndex
 90
      256
102
RTVSPost2010Prop51ColorRGB
 90
-16777216
102
RTVSPost2010PropOp51
 70
     0
102
RTVSPost2010Prop52
140
1.0
102
RTVSPost2010PropOp52
 70
     0
102
RTVSPost2010Prop53
 90
        2
102
RTVSPost2010PropOp53
 70
     1
102
RTVSPost2010Prop54
  1
strokes_ogs.tif
102
RTVSPost2010PropOp54
 70
     1
102
RTVSPost2010Prop55
280
     0
102
RTVSPost2010PropOp55
 70
     1
102
RTVSPost2010Prop56
140
1.0
102
RTVSPost2010PropOp56
 70
     1
102
RTVSPost2010Prop57
140
1.0
102
RTVSPost2010PropOp57
 70
     1
  0
XRECORD
  5
EE3
102
{ACAD_REACTORS
330
EE2
102
}
330
EE2
100
AcDbXrecord
280
     1
102
RTVSPropertyOp0
 70
     1
102
RTVSPropertyOp1
 70
     1
102
RTVSPropertyOp2
 70
     1
102
RTVSPropertyOp3
 70
     1
102
RTVSPropertyOp4
 70
     1
102
RTVSPropertyOp5
 70
     1
102
RTVSPropertyOp6
 70
     1
102
RTVSPropertyOp7
 70
     1
102
RTVSPropertyOp8
 70
     1
102
RTVSPropertyOp9
 70
     1
102
RTVSPropertyOp10
 70
     1
102
RTVSPropertyOp11
 70
     1
102
RTVSPropertyOp12
 70
     1
102
RTVSPropertyOp13
 70
     1
102
RTVSPropertyOp14
 70
     1
102
RTVSPropertyOp15
 70
     1
102
RTVSPropertyOp16
 70
     1
102
RTVSPropertyOp17
 70
     1
102
RTVSPropertyOp18
 70
     1
102
RTVSPropertyOp19
 70
     1
102
RTVSPropertyOp20
 70
     1
102
RTVSPropertyOp21
 70
     1
102
RTVSPropertyOp22
 70
     1
102
RTVSPropertyOp23
 70
     1
102
RTVSPropertyOp24
 70
     1
102
RTVSPropertyOp25
 70
     1
102
RTVSPropertyOp26
 70
     1
102
RTVSPropertyOp27
 70
     1
102
RTVSPropertyOp28
 70
     1
102
RTVSPropertyOp29
 70
     1
102
RTVSPropertyOp30
 70
     1
102
RTVSPropertyOp31
 70
     1
102
RTVSPropertyOp32
 70
     1
102
RTVSPropertyOp33
 70
     1
102
RTVSPropertyOp34
 70
     1
102
RTVSPropertyOp35
 70
     1
102
RTVSPropertyOp36
 70
     1
102
RTVSPropertyOp37
 70
     1
102
RTVSPropertyOp38
 70
     1
102
RTVSPropertyOp39
 70
     1
102
RTVSPropertyOp40
 70
     1
102
RTVSPropertyOp41
 70
     1
102
RTVSPropertyOp42
 70
     1
102
RTVSPropertyOp43
 70
     1
102
RTVSPropertyOp44
 70
     1
102
RTVSPropertyOp45
 70
     1
102
RTVSPropertyOp46
 70
     1
102
RTVSPropertyOp47
 70
     1
102
RTVSPropertyOp48
 70
     1
102
RTVSPropertyOp49
 70
     1
102
RTVSPropertyOp50
 70
     1
102
RTVSPropertyOp51
 70
     0
102
RTVSPropertyOp52
 70
     0
102
RTVSPropertyOp53
 70
     1
102
RTVSPropertyOp54
 70
     1
102
RTVSPropertyOp55
 70
     1
102
RTVSPropertyOp56
 70
     1
102
RTVSPropertyOp57
 70
     1
102
RTVSPost2010Prop28
280
     0
102
RTVSPost2010PropOp28
 70
     1
102
RTVSPost2010Prop29
280
     1
102
RTVSPost2010PropOp29
 70
     1
102
RTVSPost2010Prop30
280
     1
102
RTVSPost2010PropOp30
 70
     1
102
RTVSPost2010Prop31
280
     0
102
RTVSPost2010PropOp31
 70
     1
102
RTVSPost2010Prop32
280
     0
102
RTVSPost2010PropOp32
 70
     1
102
RTVSPost2010Prop33
280
     0
102
RTVSPost2010PropOp33
 70
     1
102
RTVSPost2010Prop34
280
     0
102
RTVSPost2010PropOp34
 70
     1
102
RTVSPost2010Prop35
280
     0
102
RTVSPost2010PropOp35
 70
     1
102
RTVSPost2010Prop36
280
     0
102
RTVSPost2010PropOp36
 70
     1
102
RTVSPost2010Prop37
 90
       50
102
RTVSPost2010PropOp37
 70
     1
102
RTVSPost2010Prop38
140
0.0
102
RTVSPost2010PropOp38
 70
     1
102
RTVSPost2010Prop39
140
1.0
102
RTVSPost2010PropOp39
 70
     1
102
RTVSPost2010Prop40
 90
        0
102
RTVSPost2010PropOp40
 70
     1
102
RTVSPost2010Prop41ColorIndex
 90
       18
102
RTVSPost2010Prop41ColorRGB
 90
        0
102
RTVSPost2010PropOp41
 70
     1
102
RTVSPost2010Prop42
 90
       50
102
RTVSPost2010PropOp42
 70
     1
102
RTVSPost2010Prop43
 90
        3
102
RTVSPost2010PropOp43
 70
     1
102
RTVSPost2010Prop44ColorIndex
 90
        5
102
RTVSPost2010Prop44ColorRGB
 90
      255
102
RTVSPost2010PropOp44
 70
     1
102
RTVSPost2010Prop45
280
     0
102
RTVSPost2010PropOp45
 70
     1
102
RTVSPost2010Prop46
 90
       50
102
RTVSPost2010PropOp46
 70
     1
102
RTVSPost2010Prop47
 90
       50
102
RTVSPost2010PropOp47
 70
     1
102
RTVSPost2010Prop48
 90
       50
102
RTVSPost2010PropOp48
 70
     1
102
RTVSPost2010Prop49
280
     0
102
RTVSPost2010PropOp49
 70
     1
102
RTVSPost2010Prop50
 90
       50
102
RTVSPost2010PropOp50
 70
     1
102
RTVSPost2010Prop51ColorIndex
 90
      256
102
RTVSPost2010Prop51ColorRGB
 90
-16777216
102
RTVSPost2010PropOp51
 70
     0
102
RTVSPost2010Prop52
140
1.0
102
RTVSPost2010PropOp52
 70
     0
102
RTVSPost2010Prop53
 90
        2
102
RTVSPost2010PropOp53
 70
     1
102
RTVSPost2010Prop54
  1
strokes_ogs.tif
102
RTVSPost2010PropOp54
 70
     1
102
RTVSPost2010Prop55
280
     0
102
RTVSPost2010PropOp55
 70
     1
102
RTVSPost2010Prop56
140
1.0
102
RTVSPost2010PropOp56
 70
     1
102
RTVSPost2010Prop57
140
1.0
102
RTVSPost2010PropOp57
 70
     1
  0
XRECORD
  5
F03
102
{ACAD_REACTORS
330
F02
102
}
330
F02
100
AcDbXrecord
280
     1
102
RTVSPropertyOp0
 70
     1
102
RTVSPropertyOp1
 70
     1
102
RTVSPropertyOp2
 70
     1
102
RTVSPropertyOp3
 70
     1
102
RTVSPropertyOp4
 70
     1
102
RTVSPropertyOp5
 70
     1
102
RTVSPropertyOp6
 70
     1
102
RTVSPropertyOp7
 70
     1
102
RTVSPropertyOp8
 70
     1
102
RTVSPropertyOp9
 70
     1
102
RTVSPropertyOp10
 70
     1
102
RTVSPropertyOp11
 70
     1
102
RTVSPropertyOp12
 70
     1
102
RTVSPropertyOp13
 70
     1
102
RTVSPropertyOp14
 70
     1
102
RTVSPropertyOp15
 70
     1
102
RTVSPropertyOp16
 70
     1
102
RTVSPropertyOp17
 70
     1
102
RTVSPropertyOp18
 70
     1
102
RTVSPropertyOp19
 70
     1
102
RTVSPropertyOp20
 70
     1
102
RTVSPropertyOp21
 70
     1
102
RTVSPropertyOp22
 70
     1
102
RTVSPropertyOp23
 70
     1
102
RTVSPropertyOp24
 70
     1
102
RTVSPropertyOp25
 70
     1
102
RTVSPropertyOp26
 70
     1
102
RTVSPropertyOp27
 70
     1
102
RTVSPropertyOp28
 70
     1
102
RTVSPropertyOp29
 70
     1
102
RTVSPropertyOp30
 70
     1
102
RTVSPropertyOp31
 70
     1
102
RTVSPropertyOp32
 70
     1
102
RTVSPropertyOp33
 70
     1
102
RTVSPropertyOp34
 70
     1
102
RTVSPropertyOp35
 70
     1
102
RTVSPropertyOp36
 70
     1
102
RTVSPropertyOp37
 70
     1
102
RTVSPropertyOp38
 70
     1
102
RTVSPropertyOp39
 70
     1
102
RTVSPropertyOp40
 70
     1
102
RTVSPropertyOp41
 70
     1
102
RTVSPropertyOp42
 70
     1
102
RTVSPropertyOp43
 70
     1
102
RTVSPropertyOp44
 70
     1
102
RTVSPropertyOp45
 70
     1
102
RTVSPropertyOp46
 70
     1
102
RTVSPropertyOp47
 70
     1
102
RTVSPropertyOp48
 70
     1
102
RTVSPropertyOp49
 70
     1
102
RTVSPropertyOp50
 70
     1
102
RTVSPropertyOp51
 70
     0
102
RTVSPropertyOp52
 70
     0
102
RTVSPropertyOp53
 70
     1
102
RTVSPropertyOp54
 70
     1
102
RTVSPropertyOp55
 70
     1
102
RTVSPropertyOp56
 70
     1
102
RTVSPropertyOp57
 70
     1
102
RTVSPost2010Prop28
280
     0
102
RTVSPost2010PropOp28
 70
     1
102
RTVSPost2010Prop29
280
     1
102
RTVSPost2010PropOp29
 70
     1
102
RTVSPost2010Prop30
280
     1
102
RTVSPost2010PropOp30
 70
     1
102
RTVSPost2010Prop31
280
     0
102
RTVSPost2010PropOp31
 70
     1
102
RTVSPost2010Prop32
280
     0
102
RTVSPost2010PropOp32
 70
     1
102
RTVSPost2010Prop33
280
     0
102
RTVSPost2010PropOp33
 70
     1
102
RTVSPost2010Prop34
280
     0
102
RTVSPost2010PropOp34
 70
     1
102
RTVSPost2010Prop35
280
     0
102
RTVSPost2010PropOp35
 70
     1
102
RTVSPost2010Prop36
280
     0
102
RTVSPost2010PropOp36
 70
     1
102
RTVSPost2010Prop37
 90
       50
102
RTVSPost2010PropOp37
 70
     1
102
RTVSPost2010Prop38
140
0.0
102
RTVSPost2010PropOp38
 70
     1
102
RTVSPost2010Prop39
140
1.0
102
RTVSPost2010PropOp39
 70
     1
102
RTVSPost2010Prop40
 90
        0
102
RTVSPost2010PropOp40
 70
     1
102
RTVSPost2010Prop41ColorIndex
 90
       18
102
RTVSPost2010Prop41ColorRGB
 90
        0
102
RTVSPost2010PropOp41
 70
     1
102
RTVSPost2010Prop42
 90
       50
102
RTVSPost2010PropOp42
 70
     1
102
RTVSPost2010Prop43
 90
        3
102
RTVSPost2010PropOp43
 70
     1
102
RTVSPost2010Prop44ColorIndex
 90
        5
102
RTVSPost2010Prop44ColorRGB
 90
      255
102
RTVSPost2010PropOp44
 70
     1
102
RTVSPost2010Prop45
280
     0
102
RTVSPost2010PropOp45
 70
     1
102
RTVSPost2010Prop46
 90
       50
102
RTVSPost2010PropOp46
 70
     1
102
RTVSPost2010Prop47
 90
       50
102
RTVSPost2010PropOp47
 70
     1
102
RTVSPost2010Prop48
 90
       50
102
RTVSPost2010PropOp48
 70
     1
102
RTVSPost2010Prop49
280
     0
102
RTVSPost2010PropOp49
 70
     1
102
RTVSPost2010Prop50
 90
       50
102
RTVSPost2010PropOp50
 70
     1
102
RTVSPost2010Prop51ColorIndex
 90
      256
102
RTVSPost2010Prop51ColorRGB
 90
-16777216
102
RTVSPost2010PropOp51
 70
     0
102
RTVSPost2010Prop52
140
1.0
102
RTVSPost2010PropOp52
 70
     0
102
RTVSPost2010Prop53
 90
        2
102
RTVSPost2010PropOp53
 70
     1
102
RTVSPost2010Prop54
  1
strokes_ogs.tif
102
RTVSPost2010PropOp54
 70
     1
102
RTVSPost2010Prop55
280
     0
102
RTVSPost2010PropOp55
 70
     1
102
RTVSPost2010Prop56
140
1.0
102
RTVSPost2010PropOp56
 70
     1
102
RTVSPost2010Prop57
140
1.0
102
RTVSPost2010PropOp57
 70
     1
  0
ENDSEC
  0
EOF
