  0
SECTION
  2
HEADER
  9
$ACADVER
  1
AC1014
  9
$ACADMAINTVER
 70
     0
  9
$DWGCODEPAGE
  3
ANSI_1252
  9
$INSBASE
 10
0.0
 20
0.0
 30
0.0
  9
$EXTMIN
 10
-0.939693
 20
-0.984808
 30
0.0
  9
$EXTMAX
 10
13.0
 20
12.984808
 30
0.0
  9
$LIMMIN
 10
0.0
 20
0.0
  9
$LIMMAX
 10
0.0
 20
0.0
  9
$ORTHOMODE
 70
     0
  9
$REGENMODE
 70
     1
  9
$FILLMODE
 70
     1
  9
$QTEXTMODE
 70
     0
  9
$MIRRTEXT
 70
     1
  9
$DRAGMODE
 70
     2
  9
$LTSCALE
 40
1.0
  9
$OSMODE
 70
     0
  9
$ATTMODE
 70
     1
  9
$TEXTSIZE
 40
0.2
  9
$TRACEWID
 40
0.05
  9
$TEXTSTYLE
  7
STANDARD
  9
$CLAYER
  8
0
  9
$CELTYPE
  6
CONTINUOUS
  9
$CECOLOR
 62
   256
  9
$CELTSCALE
 40
1.0
  9
$DELOBJ
 70
     1
  9
$DISPSILH
 70
     0
  9
$DIMSCALE
 40
1.0
  9
$DIMASZ
 40
0.18
  9
$DIMEXO
 40
0.0625
  9
$DIMDLI
 40
0.38
  9
$DIMRND
 40
0.0
  9
$DIMDLE
 40
0.0
  9
$DIMEXE
 40
0.18
  9
$DIMTP
 40
0.0
  9
$DIMTM
 40
0.0
  9
$DIMTXT
 40
0.18
  9
$DIMCEN
 40
0.09
  9
$DIMTSZ
 40
0.0
  9
$DIMTOL
 70
     0
  9
$DIMLIM
 70
     0
  9
$DIMTIH
 70
     1
  9
$DIMTOH
 70
     1
  9
$DIMSE1
 70
     0
  9
$DIMSE2
 70
     0
  9
$DIMTAD
 70
     0
  9
$DIMZIN
 70
     0
  9
$DIMBLK
  1

  9
$DIMASO
 70
     1
  9
$DIMSHO
 70
     1
  9
$DIMPOST
  1

  9
$DIMAPOST
  1

  9
$DIMALT
 70
     0
  9
$DIMALTD
 70
     2
  9
$DIMALTF
 40
25.4
  9
$DIMLFAC
 40
1.0
  9
$DIMTOFL
 70
     0
  9
$DIMTVP
 40
0.0
  9
$DIMTIX
 70
     0
  9
$DIMSOXD
 70
     0
  9
$DIMSAH
 70
     0
  9
$DIMBLK1
  1

  9
$DIMBLK2
  1

  9
$DIMSTYLE
  2
STANDARD
  9
$DIMCLRD
 70
     0
  9
$DIMCLRE
 70
     0
  9
$DIMCLRT
 70
     0
  9
$DIMTFAC
 40
1.0
  9
$DIMGAP
 40
0.09
  9
$DIMJUST
 70
     0
  9
$DIMSD1
 70
     0
  9
$DIMSD2
 70
     0
  9
$DIMTOLJ
 70
     1
  9
$DIMTZIN
 70
     0
  9
$DIMALTZ
 70
     0
  9
$DIMALTTZ
 70
     0
  9
$DIMFIT
 70
     3
  9
$DIMUPT
 70
     0
  9
$DIMUNIT
 70
     2
  9
$DIMDEC
 70
     4
  9
$DIMTDEC
 70
     4
  9
$DIMALTU
 70
     2
  9
$DIMALTTD
 70
     2
  9
$DIMTXSTY
  7
STANDARD
  9
$DIMAUNIT
 70
     0
  9
$LUNITS
 70
     2
  9
$LUPREC
 70
     4
  9
$SKETCHINC
 40
0.1
  9
$FILLETRAD
 40
0.0
  9
$AUNITS
 70
     0
  9
$AUPREC
 70
     0
  9
$MENU
  1
acad
  9
$ELEVATION
 40
0.0
  9
$PELEVATION
 40
0.0
  9
$THICKNESS
 40
0.0
  9
$LIMCHECK
 70
     0
  9
$BLIPMODE
 70
     1
  9
$CHAMFERA
 40
0.0
  9
$CHAMFERB
 40
0.0
  9
$CHAMFERC
 40
0.0
  9
$CHAMFERD
 40
0.0
  9
$SKPOLY
 70
     0
  9
$TDCREATE
 40
2456257.403784722
  9
$TDUPDATE
 40
2456257.403784722
  9
$TDINDWG
 40
0.0000000000
  9
$TDUSRTIMER
 40
0.0000000000
  9
$USRTIMER
 70
     1
  9
$ANGBASE
 50
0.0
  9
$ANGDIR
 70
     0
  9
$PDMODE
 70
     0
  9
$PDSIZE
 40
0.0
  9
$PLINEWID
 40
0.0
  9
$COORDS
 70
     0
  9
$SPLFRAME
 70
     0
  9
$SPLINETYPE
 70
     6
  9
$SPLINESEGS
 70
     8
  9
$ATTDIA
 70
     0
  9
$ATTREQ
 70
     1
  9
$HANDLING
 70
     1
  9
$HANDSEED
  5
535
  9
$SURFTAB1
 70
     6
  9
$SURFTAB2
 70
     6
  9
$SURFTYPE
 70
     6
  9
$SURFU
 70
     6
  9
$SURFV
 70
     6
  9
$UCSNAME
  2

  9
$UCSORG
 10
0.0
 20
0.0
 30
0.0
  9
$UCSXDIR
 10
1.0
 20
0.0
 30
0.0
  9
$UCSYDIR
 10
0.0
 20
1.0
 30
0.0
  9
$PUCSNAME
  2

  9
$PUCSORG
 10
0.0
 20
0.0
 30
0.0
  9
$PUCSXDIR
 10
1.0
 20
0.0
 30
0.0
  9
$PUCSYDIR
 10
0.0
 20
1.0
 30
0.0
  9
$USERI1
 70
     0
  9
$USERI2
 70
     0
  9
$USERI3
 70
     0
  9
$USERI4
 70
     0
  9
$USERI5
 70
     0
  9
$USERR1
 40
0.0
  9
$USERR2
 40
0.0
  9
$USERR3
 40
0.0
  9
$USERR4
 40
0.0
  9
$USERR5
 40
0.0
  9
$WORLDVIEW
 70
     1
  9
$SHADEDGE
 70
     3
  9
$SHADEDIF
 70
    70
  9
$TILEMODE
 70
     1
  9
$MAXACTVP
 70
    16
  9
$PINSBASE
 10
0.0
 20
0.0
 30
0.0
  9
$PLIMCHECK
 70
     0
  9
$PEXTMIN
 10
1.000000E 20
 20
1.000000E 20
 30
1.000000E 20
  9
$PEXTMAX
 10
-1.000000E 20
 20
-1.000000E 20
 30
-1.000000E 20
  9
$PLIMMIN
 10
0.0
 20
0.0
  9
$PLIMMAX
 10
12.0
 20
9.0
  9
$UNITMODE
 70
     0
  9
$VISRETAIN
 70
     0
  9
$PLINEGEN
 70
     1
  9
$PSLTSCALE
 70
     0
  9
$TREEDEPTH
 70
  3020
  9
$PICKSTYLE
 70
     1
  9
$CMLSTYLE
  2
STANDARD
  9
$CMLJUST
 70
     0
  9
$CMLSCALE
 40
1.0
  9
$PROXYGRAPHICS
 70
     0
  9
$MEASUREMENT
 70
     0
  0
ENDSEC
  0
SECTION
  2
CLASSES
  0
CLASS
  1
LWPOLYLINE
  2
AcDbPolyline
  3
\"AutoCAD\"
 90
        0
280
     0
281
     1
  0
CLASS
  1
IMAGE
  2
AcDbRasterImage
  3
ISM
 90
      127
280
     0
281
     1
  0
CLASS
  1
OLE2FRAME
  2
AcDbOle2Frame
  3
\"\"
 90
        0
280
     0
281
     1
  0
CLASS
  1
HATCH
  2
AcDbHatch
  3
\"ACAD_SEDONA\"
 90
        0
280
     0
281
     1
  0
CLASS
  1
DICTIONARYVAR
  2
AcDbDictionaryVar
  3
\"AutoCAD\"
 90
        0
280
     0
281
     0
  0
CLASS
  1
RASTERVARIABLES
  2
AcDbRasterVariables
  3
ISM
 90
        0
280
     0
281
     0
  0
CLASS
  1
IMAGEDEF
  2
AcDbRasterImageDef
  3
ISM
 90
        0
280
     0
281
     0
  0
CLASS
  1
IMAGEDEF_REACTOR
  2
AcDbRasterImageDefReactor
  3
ISM
 90
        1
280
     0
281
     0
  0
CLASS
  1
IDBUFFER
  2
AcDbIdBuffer
  3
\"Acad\"
 90
        0
280
     0
281
     0
  0
CLASS
  1
SPATIAL_FILTER
  2
AcDbSpatialFilter
  3
\"Acad\"
 90
        0
280
     0
281
     0
  0
CLASS
  1
XRECORD
  2
AcDbXrecord
  3
\"<Built In>\"
 90
        0
280
     0
281
     0
  0
CLASS
  1
SORTENTSTABLE
  2
AcDbSortentsTable
  3
\"AutoCAD\"
 90
        0
280
     0
281
     0
  0
CLASS
  1
LAYER_INDEX
  2
AcDbLayerIndex
  3
\"Acad\"
 90
        0
280
     0
281
     0
  0
CLASS
  1
SPATIAL_INDEX
  2
AcDbSpatialIndex
  3
\"Acad\"
 90
        0
280
     0
281
     0
  0
CLASS
  1
OBJECT_PTR
  2
CAseDLPNTableRecord
  3
\"ASE-LPNTableRecord\"
 90
        1
280
     0
281
     0
  0
CLASS
  1
LAYOUT
  2
AcDbLayout
  3
\"AutoCAD 2000\"
 90
        0
280
     0
281
     0
  0
CLASS
  1
PLOTSETTINGS
  2
AcDbPlotSettings
  3
\"AutoCAD 2000\"
 90
        0
280
     0
281
     0
  0
CLASS
  1
ACDBDICTIONARYWDFLT
  2
AcDbDictionaryWithDefault
  3
\"AutoCAD 2000\"
 90
        0
280
     0
281
     0
  0
CLASS
  1
ACDBPLACEHOLDER
  2
AcDbPlaceHolder
  3
\"AutoCAD 2000\"
 90
        0
280
     0
281
     0
  0
CLASS
  1
VBA_PROJECT
  2
AcDbVbaProject
  3
\"acadvba\"
 90
        0
280
     0
281
     0
  0
CLASS
  1
WIPEOUT
  2
AcDbWipeout
  3
WipeOut|AutoCAD Express Tool|expresstools@autodesk.com
 90
      127
280
     0
281
     1
  0
CLASS
  1
WIPEOUTVARIABLES
  2
AcDbWipeoutVariables
  3
WipeOut|AutoCAD Express Tool|expresstools@autodesk.com
 90
        0
280
     0
281
     0
  0
CLASS
  1
RTEXT
  2
RText
  3
RText|AutoCAD Express Tool|expresstools@autodesk.com
 90
        0
280
     0
281
     1
  0
CLASS
  1
ARCALIGNEDTEXT
  2
AcDbArcAlignedText
  3
ATEXT|AutoCAD Express Tool|expresstools@autodesk.com
 90
        0
280
     0
281
     1
  0
ENDSEC
  0
SECTION
  2
TABLES
  0
TABLE
  2
VPORT
  5
7
100
AcDbSymbolTable
 70
     1
  0
VPORT
  5
15
100
AcDbSymbolTableRecord
100
AcDbViewportTableRecord
  2
*ACTIVE
 70
     0
 10
0.0
 20
0.0
 11
1.0
 21
1.0
 12
6.591288
 22
4.579184
 13
0.0
 23
0.0
 14
1.0
 24
1.0
 15
0.0
 25
0.0
 16
0.0
 26
0.0
 36
1.0
 17
0.0
 27
0.0
 37
0.0
 40
9.158369
 41
0.688564
 42
50.0
 43
0.0
 44
0.0
 50
0.0
 51
0.0
 71
     0
 72
   100
 73
     1
 74
     1
 75
     0
 76
     0
 77
     0
 78
     0
  0
ENDTAB
  0
TABLE
  2
LTYPE
  5
4
100
AcDbSymbolTable
 70
     7
  0
LTYPE
  5
11
100
AcDbSymbolTableRecord
100
AcDbLinetypeTableRecord
  2
BYBLOCK
 70
    64
  3

 72
    65
 73
     0
 40
0.0
  0
LTYPE
  5
12
100
AcDbSymbolTableRecord
100
AcDbLinetypeTableRecord
  2
BYLAYER
 70
    64
  3

 72
    65
 73
     0
 40
0.0
  0
LTYPE
  5
13
100
AcDbSymbolTableRecord
100
AcDbLinetypeTableRecord
  2
CONTINUOUS
 70
    64
  3
Solid line
 72
    65
 73
     0
 40
0.0
  0
LTYPE
  5
1D
100
AcDbSymbolTableRecord
100
AcDbLinetypeTableRecord
  2
CONTINUOUS2
 70
     0
  3
Solid line
 72
    65
 73
     0
 40
0.0
  0
LTYPE
  5
1E
100
AcDbSymbolTableRecord
100
AcDbLinetypeTableRecord
  2
DASHED
 70
    64
  3
__ __ __ __ __ __ __ __ __ __ __ __ __ __ __ __
 72
    65
 73
     2
 40
0.5
 49
0.375
 74
     0
 49
-0.125
 74
     0
  0
LTYPE
  5
1F
100
AcDbSymbolTableRecord
100
AcDbLinetypeTableRecord
  2
CENTER
 70
    64
  3
____ _ ____ _ ____ _ ____ _ ____ _ ____ _ ____ _
 72
    65
 73
     4
 40
1.0
 49
0.625
 74
     0
 49
-0.125
 74
     0
 49
0.125
 74
     0
 49
-0.125
 74
     0
  0
LTYPE
  5
20
100
AcDbSymbolTableRecord
100
AcDbLinetypeTableRecord
  2
PHANTOM
 70
    64
  3
___ _ _ ___ _ _ ___ _ _ ___ _ _ ___ _ _ ___ _ _ 
 72
    65
 73
     6
 40
1.0
 49
0.5
 74
     0
 49
-0.1
 74
     0
 49
0.1
 74
     0
 49
-0.1
 74
     0
 49
0.1
 74
     0
 49
-0.1
 74
     0
  0
ENDTAB
  0
TABLE
  2
LAYER
  5
2
100
AcDbSymbolTable
 70
     2
  0
LAYER
  5
14
100
AcDbSymbolTableRecord
100
AcDbLayerTableRecord
  2
0
 70
     0
 62
     7
  6
CONTINUOUS
  0
LAYER
  5
21
100
AcDbSymbolTableRecord
100
AcDbLayerTableRecord
  2
LOGO
 70
     0
 62
     1
  6
CONTINUOUS
  0
ENDTAB
  0
TABLE
  2
STYLE
  5
3
100
AcDbSymbolTable
 70
     1
  0
STYLE
  5
17
100
AcDbSymbolTableRecord
100
AcDbTextStyleTableRecord
  2
STANDARD
 70
     0
 40
0.0
 41
1.0
 50
0.0
 71
     0
 42
0.0
  3
txt
  4

  0
ENDTAB
  0
TABLE
  2
VIEW
  5
5
100
AcDbSymbolTable
 70
     0
  0
ENDTAB
  0
TABLE
  2
UCS
  5
6
100
AcDbSymbolTable
 70
     0
  0
ENDTAB
  0
TABLE
  2
APPID
  5
8
100
AcDbSymbolTable
 70
     1
  0
APPID
  5
16
100
AcDbSymbolTableRecord
100
AcDbRegAppTableRecord
  2
ACAD
 70
     0
  0
ENDTAB
  0
TABLE
  2
DIMSTYLE
  5
9
100
AcDbSymbolTable
 70
     1
  0
DIMSTYLE
105
18
100
AcDbSymbolTableRecord
100
AcDbDimStyleTableRecord
  2
STANDARD
 70
     0
  3

  4

  5

  6

  7

 40
1.0
 41
0.18
 42
0.0625
 43
0.38
 44
0.18
 45
0.0
 46
0.0
 47
0.0
 48
0.0
 71
     0
 72
     0
 73
     1
 74
     1
 75
     0
 76
     0
 77
     0
 78
     0
140
0.18
141
0.09
142
0.0
143
25.4
144
1.0
145
0.0
146
1.0
147
0.09
170
     0
171
     2
172
     0
173
     0
174
     0
175
     0
176
     0
177
     0
178
     0
270
     2
271
     4
272
     4
273
     2
274
     2
275
     0
280
     0
281
     0
282
     0
283
     1
284
     0
285
     0
286
     0
287
     3
288
     0
340
17
  0
ENDTAB
  0
TABLE
  2
BLOCK_RECORD
  5
1
100
AcDbSymbolTable
 70
     0
  0
BLOCK_RECORD
  5
A
100
AcDbSymbolTableRecord
100
AcDbBlockTableRecord
  2
*MODEL_SPACE
  0
BLOCK_RECORD
  5
B
100
AcDbSymbolTableRecord
100
AcDbBlockTableRecord
  2
*PAPER_SPACE
  0
ENDTAB
  0
ENDSEC
  0
SECTION
  2
BLOCKS
  0
BLOCK
  5
D
100
AcDbEntity
  8
0
100
AcDbBlockBegin
  2
*MODEL_SPACE
 70
     0
 10
0.0
 20
0.0
 30
0.0
  3
*MODEL_SPACE
  1

  0
ENDBLK
  5
E
100
AcDbEntity
  8
0
100
AcDbBlockEnd
  0
BLOCK
  5
F
100
AcDbEntity
 67
     1
  8
0
100
AcDbBlockBegin
  2
*PAPER_SPACE
 70
     0
 10
0.0
 20
0.0
 30
0.0
  3
*PAPER_SPACE
  1

  0
ENDBLK
  5
10
100
AcDbEntity
 67
     1
  8
0
100
AcDbBlockEnd
  0
ENDSEC
  0
SECTION
  2
ENTITIES
  0
LINE
  5
22
100
AcDbEntity
  8
LOGO
  6
CONTINUOUS2
 62
     7
100
AcDbLine
 10
4.090266
 20
9.689247
 30
0.0
 11
3.917494
 21
9.575366
 31
0.0
  0
LINE
  5
23
100
AcDbEntity
  8
LOGO
  6
CONTINUOUS2
 62
     7
100
AcDbLine
 10
4.111832
 20
9.717479
 30
0.0
 11
4.090266
 21
9.689247
 31
0.0
  0
LINE
  5
24
100
AcDbEntity
  8
LOGO
  6
CONTINUOUS2
 62
     7
100
AcDbLine
 10
4.16188
 20
9.739893
 30
0.0
 11
4.111832
 21
9.717479
 31
0.0
  0
LINE
  5
25
100
AcDbEntity
  8
LOGO
  6
CONTINUOUS2
 62
     7
100
AcDbLine
 10
4.291957
 20
9.878875
 30
0.0
 11
4.16188
 21
9.739893
 31
0.0
  0
LINE
  5
26
100
AcDbEntity
  8
LOGO
  6
CONTINUOUS2
 62
     7
100
AcDbLine
 10
4.425625
 20
9.878754
 30
0.0
 11
4.291957
 21
9.878875
 31
0.0
  0
LINE
  5
27
100
AcDbEntity
  8
LOGO
  6
CONTINUOUS2
 62
     7
100
AcDbLine
 10
4.57191
 20
9.898283
 30
0.0
 11
4.425625
 21
9.878754
 31
0.0
  0
LINE
  5
28
100
AcDbEntity
  8
LOGO
  6
CONTINUOUS2
 62
     7
100
AcDbLine
 10
4.794014
 20
9.947019
 30
0.0
 11
4.57191
 21
9.898283
 31
0.0
  0
LINE
  5
29
100
AcDbEntity
  8
LOGO
  6
CONTINUOUS2
 62
     7
100
AcDbLine
 10
5.424109
 20
10.203792
 30
0.0
 11
4.794014
 21
9.947019
 31
0.0
  0
LINE
  5
2A
100
AcDbEntity
  8
LOGO
  6
CONTINUOUS2
 62
     7
100
AcDbLine
 10
5.733518
 20
10.342931
 30
0.0
 11
5.424109
 21
10.203792
 31
0.0
  0
LINE
  5
2B
100
AcDbEntity
  8
LOGO
  6
CONTINUOUS2
 62
     7
100
AcDbLine
 10
5.762043
 20
10.37088
 30
0.0
 11
5.733518
 21
10.342931
 31
0.0
  0
LINE
  5
2C
100
AcDbEntity
  8
LOGO
  6
CONTINUOUS2
 62
     7
100
AcDbLine
 10
5.779594
 20
10.366903
 30
0.0
 11
5.762043
 21
10.37088
 31
0.0
  0
LINE
  5
2D
100
AcDbEntity
  8
LOGO
  6
CONTINUOUS2
 62
     7
100
AcDbLine
 10
5.789186
 20
10.351693
 30
0.0
 11
5.779594
 21
10.366903
 31
0.0
  0
LINE
  5
2E
100
AcDbEntity
  8
LOGO
  6
CONTINUOUS2
 62
     7
100
AcDbLine
 10
5.765944
 20
10.303901
 30
0.0
 11
5.789186
 21
10.351693
 31
0.0
  0
LINE
  5
2F
100
AcDbEntity
  8
LOGO
  6
CONTINUOUS2
 62
     7
100
AcDbLine
 10
5.801981
 20
10.134574
 30
0.0
 11
5.765944
 21
10.303901
 31
0.0
  0
LINE
  5
30
100
AcDbEntity
  8
LOGO
  6
CONTINUOUS2
 62
     7
100
AcDbLine
 10
5.854602
 20
9.978033
 30
0.0
 11
5.801981
 21
10.134574
 31
0.0
  0
LINE
  5
31
100
AcDbEntity
  8
LOGO
  6
CONTINUOUS2
 62
     7
100
AcDbLine
 10
5.928515
 20
9.826374
 30
0.0
 11
5.854602
 21
9.978033
 31
0.0
  0
LINE
  5
32
100
AcDbEntity
  8
LOGO
  6
CONTINUOUS2
 62
     7
100
AcDbLine
 10
5.856414
 20
9.804331
 30
0.0
 11
5.928515
 21
9.826374
 31
0.0
  0
LINE
  5
33
100
AcDbEntity
  8
LOGO
  6
CONTINUOUS2
 62
     7
100
AcDbLine
 10
5.856668
 20
9.783191
 30
0.0
 11
5.856414
 21
9.804331
 31
0.0
  0
LINE
  5
34
100
AcDbEntity
  8
LOGO
  6
CONTINUOUS2
 62
     7
100
AcDbLine
 10
5.77889
 20
9.759412
 30
0.0
 11
5.856668
 21
9.783191
 31
0.0
  0
LINE
  5
35
100
AcDbEntity
  8
LOGO
  6
CONTINUOUS2
 62
     7
100
AcDbLine
 10
5.792524
 20
9.714818
 30
0.0
 11
5.77889
 21
9.759412
 31
0.0
  0
LINE
  5
36
100
AcDbEntity
  8
LOGO
  6
CONTINUOUS2
 62
     7
100
AcDbLine
 10
5.783852
 20
9.678713
 30
0.0
 11
5.792524
 21
9.714818
 31
0.0
  0
LINE
  5
37
100
AcDbEntity
  8
LOGO
  6
CONTINUOUS2
 62
     7
100
AcDbLine
 10
5.820149
 20
9.276682
 30
0.0
 11
5.783852
 21
9.678713
 31
0.0
  0
LINE
  5
38
100
AcDbEntity
  8
LOGO
  6
CONTINUOUS2
 62
     7
100
AcDbLine
 10
5.941415
 20
8.961266
 30
0.0
 11
5.820149
 21
9.276682
 31
0.0
  0
LINE
  5
39
100
AcDbEntity
  8
LOGO
  6
CONTINUOUS2
 62
     7
100
AcDbLine
 10
6.080357
 20
8.796819
 30
0.0
 11
5.941415
 21
8.961266
 31
0.0
  0
LINE
  5
3A
100
AcDbEntity
  8
LOGO
  6
CONTINUOUS2
 62
     7
100
AcDbLine
 10
6.178668
 20
8.720911
 30
0.0
 11
6.080357
 21
8.796819
 31
0.0
  0
LINE
  5
3B
100
AcDbEntity
  8
LOGO
  6
CONTINUOUS2
 62
     7
100
AcDbLine
 10
6.25956
 20
8.694288
 30
0.0
 11
6.178668
 21
8.720911
 31
0.0
  0
LINE
  5
3C
100
AcDbEntity
  8
LOGO
  6
CONTINUOUS2
 62
     7
100
AcDbLine
 10
6.438951
 20
8.664085
 30
0.0
 11
6.25956
 21
8.694288
 31
0.0
  0
LINE
  5
3D
100
AcDbEntity
  8
LOGO
  6
CONTINUOUS2
 62
     7
100
AcDbLine
 10
6.684185
 20
8.696506
 30
0.0
 11
6.438951
 21
8.664085
 31
0.0
  0
LINE
  5
3E
100
AcDbEntity
  8
LOGO
  6
CONTINUOUS2
 62
     7
100
AcDbLine
 10
6.859952
 20
8.759586
 30
0.0
 11
6.684185
 21
8.696506
 31
0.0
  0
LINE
  5
3F
100
AcDbEntity
  8
LOGO
  6
CONTINUOUS2
 62
     7
100
AcDbLine
 10
10.294928
 20
10.289496
 30
0.0
 11
6.859952
 21
8.759586
 31
0.0
  0
LINE
  5
40
100
AcDbEntity
  8
LOGO
  6
CONTINUOUS2
 62
     7
100
AcDbLine
 10
10.396488
 20
10.328743
 30
0.0
 11
10.294928
 21
10.289496
 31
0.0
  0
LINE
  5
41
100
AcDbEntity
  8
LOGO
  6
CONTINUOUS2
 62
     7
100
AcDbLine
 10
10.522183
 20
10.393935
 30
0.0
 11
10.396488
 21
10.328743
 31
0.0
  0
LINE
  5
42
100
AcDbEntity
  8
LOGO
  6
CONTINUOUS2
 62
     7
100
AcDbLine
 10
10.893433
 20
10.557526
 30
0.0
 11
10.522183
 21
10.393935
 31
0.0
  0
LINE
  5
43
100
AcDbEntity
  8
LOGO
  6
CONTINUOUS2
 62
     7
100
AcDbLine
 10
11.013657
 20
10.603745
 30
0.0
 11
10.893433
 21
10.557526
 31
0.0
  0
LINE
  5
44
100
AcDbEntity
  8
LOGO
  6
CONTINUOUS2
 62
     7
100
AcDbLine
 10
11.51138
 20
10.83156
 30
0.0
 11
11.013657
 21
10.603745
 31
0.0
  0
LINE
  5
45
100
AcDbEntity
  8
LOGO
  6
CONTINUOUS2
 62
     7
100
AcDbLine
 10
11.612956
 20
10.870752
 30
0.0
 11
11.51138
 21
10.83156
 31
0.0
  0
LINE
  5
46
100
AcDbEntity
  8
LOGO
  6
CONTINUOUS2
 62
     7
100
AcDbLine
 10
11.651684
 20
10.894708
 30
0.0
 11
11.612956
 21
10.870752
 31
0.0
  0
LINE
  5
47
100
AcDbEntity
  8
LOGO
  6
CONTINUOUS2
 62
     7
100
AcDbLine
 10
12.25951
 20
11.166552
 30
0.0
 11
11.651684
 21
10.894708
 31
0.0
  0
LINE
  5
48
100
AcDbEntity
  8
LOGO
  6
CONTINUOUS2
 62
     7
100
AcDbLine
 10
12.379733
 20
11.212772
 30
0.0
 11
12.25951
 21
11.166552
 31
0.0
  0
LINE
  5
49
100
AcDbEntity
  8
LOGO
  6
CONTINUOUS2
 62
     7
100
AcDbLine
 10
13.199841
 20
11.581644
 30
0.0
 11
12.379733
 21
11.212772
 31
0.0
  0
LINE
  5
4A
100
AcDbEntity
  8
LOGO
  6
CONTINUOUS2
 62
     7
100
AcDbLine
 10
13.254523
 20
11.598362
 30
0.0
 11
13.199841
 21
11.581644
 31
0.0
  0
LINE
  5
4B
100
AcDbEntity
  8
LOGO
  6
CONTINUOUS2
 62
     7
100
AcDbLine
 10
13.240889
 20
11.642956
 30
0.0
 11
13.254523
 21
11.598362
 31
0.0
  0
LINE
  5
4C
100
AcDbEntity
  8
LOGO
  6
CONTINUOUS2
 62
     7
100
AcDbLine
 10
13.242933
 20
11.84683
 30
0.0
 11
13.240889
 21
11.642956
 31
0.0
  0
LINE
  5
4D
100
AcDbEntity
  8
LOGO
  6
CONTINUOUS2
 62
     7
100
AcDbLine
 10
13.25489
 20
11.944937
 30
0.0
 11
13.242933
 21
11.84683
 31
0.0
  0
LINE
  5
4E
100
AcDbEntity
  8
LOGO
  6
CONTINUOUS2
 62
     7
100
AcDbLine
 10
13.242099
 20
12.028969
 30
0.0
 11
13.25489
 21
11.944937
 31
0.0
  0
LINE
  5
4F
100
AcDbEntity
  8
LOGO
  6
CONTINUOUS2
 62
     7
100
AcDbLine
 10
13.243066
 20
12.308521
 30
0.0
 11
13.242099
 21
12.028969
 31
0.0
  0
LINE
  5
50
100
AcDbEntity
  8
LOGO
  6
CONTINUOUS2
 62
     7
100
AcDbLine
 10
13.234805
 20
12.395082
 30
0.0
 11
13.243066
 21
12.308521
 31
0.0
  0
LINE
  5
51
100
AcDbEntity
  8
LOGO
  6
CONTINUOUS2
 62
     7
100
AcDbLine
 10
13.238518
 20
12.833033
 30
0.0
 11
13.234805
 21
12.395082
 31
0.0
  0
LINE
  5
52
100
AcDbEntity
  8
LOGO
  6
CONTINUOUS2
 62
     7
100
AcDbLine
 10
13.222539
 20
12.881553
 30
0.0
 11
13.238518
 21
12.833033
 31
0.0
  0
LINE
  5
53
100
AcDbEntity
  8
LOGO
  6
CONTINUOUS2
 62
     7
100
AcDbLine
 10
13.225325
 20
13.618067
 30
0.0
 11
13.222539
 21
12.881553
 31
0.0
  0
LINE
  5
54
100
AcDbEntity
  8
LOGO
  6
CONTINUOUS2
 62
     7
100
AcDbLine
 10
13.342823
 20
13.890269
 30
0.0
 11
13.225325
 21
13.618067
 31
0.0
  0
LINE
  5
55
100
AcDbEntity
  8
LOGO
  6
CONTINUOUS2
 62
     7
100
AcDbLine
 10
13.389883
 20
13.96011
 30
0.0
 11
13.342823
 21
13.890269
 31
0.0
  0
LINE
  5
56
100
AcDbEntity
  8
LOGO
  6
CONTINUOUS2
 62
     7
100
AcDbLine
 10
13.472025
 20
14.155924
 30
0.0
 11
13.389883
 21
13.96011
 31
0.0
  0
LINE
  5
57
100
AcDbEntity
  8
LOGO
  6
CONTINUOUS2
 62
     7
100
AcDbLine
 10
13.466952
 20
14.172516
 30
0.0
 11
13.472025
 21
14.155924
 31
0.0
  0
LINE
  5
58
100
AcDbEntity
  8
LOGO
  6
CONTINUOUS2
 62
     7
100
AcDbLine
 10
13.484011
 20
14.172909
 30
0.0
 11
13.466952
 21
14.172516
 31
0.0
  0
LINE
  5
59
100
AcDbEntity
  8
LOGO
  6
CONTINUOUS2
 62
     7
100
AcDbLine
 10
13.501356
 20
14.193462
 30
0.0
 11
13.484011
 21
14.172909
 31
0.0
  0
LINE
  5
5A
100
AcDbEntity
  8
LOGO
  6
CONTINUOUS2
 62
     7
100
AcDbLine
 10
13.4969
 20
14.213558
 30
0.0
 11
13.501356
 21
14.193462
 31
0.0
  0
LINE
  5
5B
100
AcDbEntity
  8
LOGO
  6
CONTINUOUS2
 62
     7
100
AcDbLine
 10
13.513696
 20
14.223093
 30
0.0
 11
13.4969
 21
14.213558
 31
0.0
  0
LINE
  5
5C
100
AcDbEntity
  8
LOGO
  6
CONTINUOUS2
 62
     7
100
AcDbLine
 10
13.574076
 20
14.378499
 30
0.0
 11
13.513696
 21
14.223093
 31
0.0
  0
LINE
  5
5D
100
AcDbEntity
  8
LOGO
  6
CONTINUOUS2
 62
     7
100
AcDbLine
 10
13.569003
 20
14.395091
 30
0.0
 11
13.574076
 21
14.378499
 31
0.0
  0
LINE
  5
5E
100
AcDbEntity
  8
LOGO
  6
CONTINUOUS2
 62
     7
100
AcDbLine
 10
13.598164
 20
14.404006
 30
0.0
 11
13.569003
 21
14.395091
 31
0.0
  0
LINE
  5
5F
100
AcDbEntity
  8
LOGO
  6
CONTINUOUS2
 62
     7
100
AcDbLine
 10
13.594746
 20
14.419718
 30
0.0
 11
13.598164
 21
14.404006
 31
0.0
  0
LINE
  5
60
100
AcDbEntity
  8
LOGO
  6
CONTINUOUS2
 62
     7
100
AcDbLine
 10
13.601326
 20
14.439993
 30
0.0
 11
13.594746
 21
14.419718
 31
0.0
  0
LINE
  5
61
100
AcDbEntity
  8
LOGO
  6
CONTINUOUS2
 62
     7
100
AcDbLine
 10
13.651508
 20
14.518745
 30
0.0
 11
13.601326
 21
14.439993
 31
0.0
  0
LINE
  5
62
100
AcDbEntity
  8
LOGO
  6
CONTINUOUS2
 62
     7
100
AcDbLine
 10
13.664241
 20
14.579417
 30
0.0
 11
13.651508
 21
14.518745
 31
0.0
  0
LINE
  5
63
100
AcDbEntity
  8
LOGO
  6
CONTINUOUS2
 62
     7
100
AcDbLine
 10
13.648354
 20
14.590774
 30
0.0
 11
13.664241
 21
14.579417
 31
0.0
  0
LINE
  5
64
100
AcDbEntity
  8
LOGO
  6
CONTINUOUS2
 62
     7
100
AcDbLine
 10
13.630574
 20
14.582686
 30
0.0
 11
13.648354
 21
14.590774
 31
0.0
  0
LINE
  5
65
100
AcDbEntity
  8
LOGO
  6
CONTINUOUS2
 62
     7
100
AcDbLine
 10
13.624631
 20
14.560918
 30
0.0
 11
13.630574
 21
14.582686
 31
0.0
  0
LINE
  5
66
100
AcDbEntity
  8
LOGO
  6
CONTINUOUS2
 62
     7
100
AcDbLine
 10
12.707396
 20
14.152888
 30
0.0
 11
13.624631
 21
14.560918
 31
0.0
  0
LINE
  5
67
100
AcDbEntity
  8
LOGO
  6
CONTINUOUS2
 62
     7
100
AcDbLine
 10
12.605818
 20
14.113695
 30
0.0
 11
12.707396
 21
14.152888
 31
0.0
  0
LINE
  5
68
100
AcDbEntity
  8
LOGO
  6
CONTINUOUS2
 62
     7
100
AcDbLine
 10
12.480125
 20
14.048505
 30
0.0
 11
12.605818
 21
14.113695
 31
0.0
  0
LINE
  5
69
100
AcDbEntity
  8
LOGO
  6
CONTINUOUS2
 62
     7
100
AcDbLine
 10
11.809657
 20
13.750879
 30
0.0
 11
12.480125
 21
14.048505
 31
0.0
  0
LINE
  5
6A
100
AcDbEntity
  8
LOGO
  6
CONTINUOUS2
 62
     7
100
AcDbLine
 10
11.689434
 20
13.70466
 30
0.0
 11
11.809657
 21
13.750879
 31
0.0
  0
LINE
  5
6B
100
AcDbEntity
  8
LOGO
  6
CONTINUOUS2
 62
     7
100
AcDbLine
 10
11.33639
 20
13.54362
 30
0.0
 11
11.689434
 21
13.70466
 31
0.0
  0
LINE
  5
6C
100
AcDbEntity
  8
LOGO
  6
CONTINUOUS2
 62
     7
100
AcDbLine
 10
11.311985
 20
13.537485
 30
0.0
 11
11.33639
 21
13.54362
 31
0.0
  0
LINE
  5
6D
100
AcDbEntity
  8
LOGO
  6
CONTINUOUS2
 62
     7
100
AcDbLine
 10
11.211153
 20
13.482849
 30
0.0
 11
11.311985
 21
13.537485
 31
0.0
  0
LINE
  5
6E
100
AcDbEntity
  8
LOGO
  6
CONTINUOUS2
 62
     7
100
AcDbLine
 10
11.009577
 20
13.40561
 30
0.0
 11
11.211153
 21
13.482849
 31
0.0
  0
LINE
  5
6F
100
AcDbEntity
  8
LOGO
  6
CONTINUOUS2
 62
     7
100
AcDbLine
 10
10.5917
 20
13.229511
 30
0.0
 11
11.009577
 21
13.40561
 31
0.0
  0
LINE
  5
70
100
AcDbEntity
  8
LOGO
  6
CONTINUOUS2
 62
     7
100
AcDbLine
 10
10.478409
 20
13.171066
 30
0.0
 11
10.5917
 21
13.229511
 31
0.0
  0
LINE
  5
71
100
AcDbEntity
  8
LOGO
  6
CONTINUOUS2
 62
     7
100
AcDbLine
 10
9.399641
 20
12.69165
 30
0.0
 11
10.478409
 21
13.171066
 31
0.0
  0
LINE
  5
72
100
AcDbEntity
  8
LOGO
  6
CONTINUOUS2
 62
     7
100
AcDbLine
 10
9.366477
 20
12.66626
 30
0.0
 11
9.399641
 21
12.69165
 31
0.0
  0
LINE
  5
73
100
AcDbEntity
  8
LOGO
  6
CONTINUOUS2
 62
     7
100
AcDbLine
 10
9.345268
 20
12.662488
 30
0.0
 11
9.366477
 21
12.66626
 31
0.0
  0
LINE
  5
74
100
AcDbEntity
  8
LOGO
  6
CONTINUOUS2
 62
     7
100
AcDbLine
 10
9.31554
 20
13.129576
 30
0.0
 11
9.345268
 21
12.662488
 31
0.0
  0
LINE
  5
75
100
AcDbEntity
  8
LOGO
  6
CONTINUOUS2
 62
     7
100
AcDbLine
 10
9.320314
 20
13.182571
 30
0.0
 11
9.31554
 21
13.129576
 31
0.0
  0
LINE
  5
76
100
AcDbEntity
  8
LOGO
  6
CONTINUOUS2
 62
     7
100
AcDbLine
 10
9.306525
 20
13.367258
 30
0.0
 11
9.320314
 21
13.182571
 31
0.0
  0
LINE
  5
77
100
AcDbEntity
  8
LOGO
  6
CONTINUOUS2
 62
     7
100
AcDbLine
 10
9.325254
 20
13.405956
 30
0.0
 11
9.306525
 21
13.367258
 31
0.0
  0
LINE
  5
78
100
AcDbEntity
  8
LOGO
  6
CONTINUOUS2
 62
     7
100
AcDbLine
 10
9.294963
 20
13.421046
 30
0.0
 11
9.325254
 21
13.405956
 31
0.0
  0
LINE
  5
79
100
AcDbEntity
  8
LOGO
  6
CONTINUOUS2
 62
     7
100
AcDbLine
 10
9.297639
 20
13.490759
 30
0.0
 11
9.294963
 21
13.421046
 31
0.0
  0
LINE
  5
7A
100
AcDbEntity
  8
LOGO
  6
CONTINUOUS2
 62
     7
100
AcDbLine
 10
9.286782
 20
13.517397
 30
0.0
 11
9.297639
 21
13.490759
 31
0.0
  0
LINE
  5
7B
100
AcDbEntity
  8
LOGO
  6
CONTINUOUS2
 62
     7
100
AcDbLine
 10
9.293202
 20
13.687045
 30
0.0
 11
9.286782
 21
13.517397
 31
0.0
  0
LINE
  5
7C
100
AcDbEntity
  8
LOGO
  6
CONTINUOUS2
 62
     7
100
AcDbLine
 10
9.22613
 20
14.708643
 30
0.0
 11
9.293202
 21
13.687045
 31
0.0
  0
LINE
  5
7D
100
AcDbEntity
  8
LOGO
  6
CONTINUOUS2
 62
     7
100
AcDbLine
 10
9.243181
 20
14.752432
 30
0.0
 11
9.22613
 21
14.708643
 31
0.0
  0
LINE
  5
7E
100
AcDbEntity
  8
LOGO
  6
CONTINUOUS2
 62
     7
100
AcDbLine
 10
9.113674
 20
14.711934
 30
0.0
 11
9.243181
 21
14.752432
 31
0.0
  0
LINE
  5
7F
100
AcDbEntity
  8
LOGO
  6
CONTINUOUS2
 62
     7
100
AcDbLine
 10
9.007514
 20
14.657175
 30
0.0
 11
9.113674
 21
14.711934
 31
0.0
  0
LINE
  5
80
100
AcDbEntity
  8
LOGO
  6
CONTINUOUS2
 62
     7
100
AcDbLine
 10
8.968762
 20
14.647498
 30
0.0
 11
9.007514
 21
14.657175
 31
0.0
  0
LINE
  5
81
100
AcDbEntity
  8
LOGO
  6
CONTINUOUS2
 62
     7
100
AcDbLine
 10
8.87378
 20
14.594228
 30
0.0
 11
8.968762
 21
14.647498
 31
0.0
  0
LINE
  5
82
100
AcDbEntity
  8
LOGO
  6
CONTINUOUS2
 62
     7
100
AcDbLine
 10
8.090511
 20
14.251145
 30
0.0
 11
8.87378
 21
14.594228
 31
0.0
  0
LINE
  5
83
100
AcDbEntity
  8
LOGO
  6
CONTINUOUS2
 62
     7
100
AcDbLine
 10
8.08108
 20
14.226985
 30
0.0
 11
8.090511
 21
14.251145
 31
0.0
  0
LINE
  5
84
100
AcDbEntity
  8
LOGO
  6
CONTINUOUS2
 62
     7
100
AcDbLine
 10
8.051921
 20
14.21807
 30
0.0
 11
8.08108
 21
14.226985
 31
0.0
  0
LINE
  5
85
100
AcDbEntity
  8
LOGO
  6
CONTINUOUS2
 62
     7
100
AcDbLine
 10
8.034074
 20
14.276445
 30
0.0
 11
8.051921
 21
14.21807
 31
0.0
  0
LINE
  5
86
100
AcDbEntity
  8
LOGO
  6
CONTINUOUS2
 62
     7
100
AcDbLine
 10
7.995156
 20
14.264546
 30
0.0
 11
8.034074
 21
14.276445
 31
0.0
  0
LINE
  5
87
100
AcDbEntity
  8
LOGO
  6
CONTINUOUS2
 62
     7
100
AcDbLine
 10
7.94473
 20
14.335444
 30
0.0
 11
7.995156
 21
14.264546
 31
0.0
  0
LINE
  5
88
100
AcDbEntity
  8
LOGO
  6
CONTINUOUS2
 62
     7
100
AcDbLine
 10
7.787493
 20
14.457409
 30
0.0
 11
7.94473
 21
14.335444
 31
0.0
  0
LINE
  5
89
100
AcDbEntity
  8
LOGO
  6
CONTINUOUS2
 62
     7
100
AcDbLine
 10
7.598373
 20
14.651722
 30
0.0
 11
7.787493
 21
14.457409
 31
0.0
  0
LINE
  5
8A
100
AcDbEntity
  8
LOGO
  6
CONTINUOUS2
 62
     7
100
AcDbLine
 10
7.427084
 20
14.875053
 30
0.0
 11
7.598373
 21
14.651722
 31
0.0
  0
LINE
  5
8B
100
AcDbEntity
  8
LOGO
  6
CONTINUOUS2
 62
     7
100
AcDbLine
 10
7.413264
 20
14.915915
 30
0.0
 11
7.427084
 21
14.875053
 31
0.0
  0
LINE
  5
8C
100
AcDbEntity
  8
LOGO
  6
CONTINUOUS2
 62
     7
100
AcDbLine
 10
7.477318
 20
14.935498
 30
0.0
 11
7.413264
 21
14.915915
 31
0.0
  0
LINE
  5
8D
100
AcDbEntity
  8
LOGO
  6
CONTINUOUS2
 62
     7
100
AcDbLine
 10
7.502669
 20
14.921972
 30
0.0
 11
7.477318
 21
14.935498
 31
0.0
  0
LINE
  5
8E
100
AcDbEntity
  8
LOGO
  6
CONTINUOUS2
 62
     7
100
AcDbLine
 10
7.869809
 20
15.016797
 30
0.0
 11
7.502669
 21
14.921972
 31
0.0
  0
LINE
  5
8F
100
AcDbEntity
  8
LOGO
  6
CONTINUOUS2
 62
     7
100
AcDbLine
 10
8.171593
 20
15.143419
 30
0.0
 11
7.869809
 21
15.016797
 31
0.0
  0
LINE
  5
90
100
AcDbEntity
  8
LOGO
  6
CONTINUOUS2
 62
     7
100
AcDbLine
 10
8.356302
 20
15.188679
 30
0.0
 11
8.171593
 21
15.143419
 31
0.0
  0
LINE
  5
91
100
AcDbEntity
  8
LOGO
  6
CONTINUOUS2
 62
     7
100
AcDbLine
 10
8.723373
 20
15.136653
 30
0.0
 11
8.356302
 21
15.188679
 31
0.0
  0
LINE
  5
92
100
AcDbEntity
  8
LOGO
  6
CONTINUOUS2
 62
     7
100
AcDbLine
 10
8.862229
 20
15.096106
 30
0.0
 11
8.723373
 21
15.136653
 31
0.0
  0
LINE
  5
93
100
AcDbEntity
  8
LOGO
  6
CONTINUOUS2
 62
     7
100
AcDbLine
 10
8.921032
 20
15.090275
 30
0.0
 11
8.862229
 21
15.096106
 31
0.0
  0
LINE
  5
94
100
AcDbEntity
  8
LOGO
  6
CONTINUOUS2
 62
     7
100
AcDbLine
 10
9.648339
 20
14.880822
 30
0.0
 11
8.921032
 21
15.090275
 31
0.0
  0
LINE
  5
95
100
AcDbEntity
  8
LOGO
  6
CONTINUOUS2
 62
     7
100
AcDbLine
 10
9.676724
 20
14.884979
 30
0.0
 11
9.648339
 21
14.880822
 31
0.0
  0
LINE
  5
96
100
AcDbEntity
  8
LOGO
  6
CONTINUOUS2
 62
     7
100
AcDbLine
 10
9.698002
 20
14.830365
 30
0.0
 11
9.676724
 21
14.884979
 31
0.0
  0
LINE
  5
97
100
AcDbEntity
  8
LOGO
  6
CONTINUOUS2
 62
     7
100
AcDbLine
 10
9.713555
 20
14.823065
 30
0.0
 11
9.698002
 21
14.830365
 31
0.0
  0
LINE
  5
98
100
AcDbEntity
  8
LOGO
  6
CONTINUOUS2
 62
     7
100
AcDbLine
 10
9.721209
 20
14.809071
 30
0.0
 11
9.713555
 21
14.823065
 31
0.0
  0
LINE
  5
99
100
AcDbEntity
  8
LOGO
  6
CONTINUOUS2
 62
     7
100
AcDbLine
 10
9.851026
 20
14.703255
 30
0.0
 11
9.721209
 21
14.809071
 31
0.0
  0
LINE
  5
9A
100
AcDbEntity
  8
LOGO
  6
CONTINUOUS2
 62
     7
100
AcDbLine
 10
9.886796
 20
14.68128
 30
0.0
 11
9.851026
 21
14.703255
 31
0.0
  0
LINE
  5
9B
100
AcDbEntity
  8
LOGO
  6
CONTINUOUS2
 62
     7
100
AcDbLine
 10
10.067618
 20
14.600462
 30
0.0
 11
9.886796
 21
14.68128
 31
0.0
  0
LINE
  5
9C
100
AcDbEntity
  8
LOGO
  6
CONTINUOUS2
 62
     7
100
AcDbLine
 10
10.174591
 20
14.576266
 30
0.0
 11
10.067618
 21
14.600462
 31
0.0
  0
LINE
  5
9D
100
AcDbEntity
  8
LOGO
  6
CONTINUOUS2
 62
     7
100
AcDbLine
 10
10.414466
 20
14.5789
 30
0.0
 11
10.174591
 21
14.576266
 31
0.0
  0
LINE
  5
9E
100
AcDbEntity
  8
LOGO
  6
CONTINUOUS2
 62
     7
100
AcDbLine
 10
10.759435
 20
14.689069
 30
0.0
 11
10.414466
 21
14.5789
 31
0.0
  0
LINE
  5
9F
100
AcDbEntity
  8
LOGO
  6
CONTINUOUS2
 62
     7
100
AcDbLine
 10
11.305836
 20
14.93924
 30
0.0
 11
10.759435
 21
14.689069
 31
0.0
  0
LINE
  5
A0
100
AcDbEntity
  8
LOGO
  6
CONTINUOUS2
 62
     7
100
AcDbLine
 10
11.436247
 20
15.058011
 30
0.0
 11
11.305836
 21
14.93924
 31
0.0
  0
LINE
  5
A1
100
AcDbEntity
  8
LOGO
  6
CONTINUOUS2
 62
     7
100
AcDbLine
 10
11.477205
 20
15.116463
 30
0.0
 11
11.436247
 21
15.058011
 31
0.0
  0
LINE
  5
A2
100
AcDbEntity
  8
LOGO
  6
CONTINUOUS2
 62
     7
100
AcDbLine
 10
11.529847
 20
15.132558
 30
0.0
 11
11.477205
 21
15.116463
 31
0.0
  0
LINE
  5
A3
100
AcDbEntity
  8
LOGO
  6
CONTINUOUS2
 62
     7
100
AcDbLine
 10
11.601297
 20
15.266937
 30
0.0
 11
11.529847
 21
15.132558
 31
0.0
  0
LINE
  5
A4
100
AcDbEntity
  8
LOGO
  6
CONTINUOUS2
 62
     7
100
AcDbLine
 10
11.591152
 20
15.300121
 30
0.0
 11
11.601297
 21
15.266937
 31
0.0
  0
LINE
  5
A5
100
AcDbEntity
  8
LOGO
  6
CONTINUOUS2
 62
     7
100
AcDbLine
 10
11.61116
 20
15.304671
 30
0.0
 11
11.591152
 21
15.300121
 31
0.0
  0
LINE
  5
A6
100
AcDbEntity
  8
LOGO
  6
CONTINUOUS2
 62
     7
100
AcDbLine
 10
11.625947
 20
15.319981
 30
0.0
 11
11.61116
 21
15.304671
 31
0.0
  0
LINE
  5
A7
100
AcDbEntity
  8
LOGO
  6
CONTINUOUS2
 62
     7
100
AcDbLine
 10
11.628108
 20
15.348007
 30
0.0
 11
11.625947
 21
15.319981
 31
0.0
  0
LINE
  5
A8
100
AcDbEntity
  8
LOGO
  6
CONTINUOUS2
 62
     7
100
AcDbLine
 10
11.719025
 20
15.452232
 30
0.0
 11
11.628108
 21
15.348007
 31
0.0
  0
LINE
  5
A9
100
AcDbEntity
  8
LOGO
  6
CONTINUOUS2
 62
     7
100
AcDbLine
 10
11.833866
 20
15.564555
 30
0.0
 11
11.719025
 21
15.452232
 31
0.0
  0
LINE
  5
AA
100
AcDbEntity
  8
LOGO
  6
CONTINUOUS2
 62
     7
100
AcDbLine
 10
11.841419
 20
15.591698
 30
0.0
 11
11.833866
 21
15.564555
 31
0.0
  0
LINE
  5
AB
100
AcDbEntity
  8
LOGO
  6
CONTINUOUS2
 62
     7
100
AcDbLine
 10
11.88324
 20
15.648907
 30
0.0
 11
11.841419
 21
15.591698
 31
0.0
  0
LINE
  5
AC
100
AcDbEntity
  8
LOGO
  6
CONTINUOUS2
 62
     7
100
AcDbLine
 10
11.963706
 20
15.869524
 30
0.0
 11
11.88324
 21
15.648907
 31
0.0
  0
LINE
  5
AD
100
AcDbEntity
  8
LOGO
  6
CONTINUOUS2
 62
     7
100
AcDbLine
 10
11.925174
 20
16.504801
 30
0.0
 11
11.963706
 21
15.869524
 31
0.0
  0
LINE
  5
AE
100
AcDbEntity
  8
LOGO
  6
CONTINUOUS2
 62
     7
100
AcDbLine
 10
11.937132
 20
16.602909
 30
0.0
 11
11.925174
 21
16.504801
 31
0.0
  0
LINE
  5
AF
100
AcDbEntity
  8
LOGO
  6
CONTINUOUS2
 62
     7
100
AcDbLine
 10
11.87727
 20
16.861995
 30
0.0
 11
11.937132
 21
16.602909
 31
0.0
  0
LINE
  5
B0
100
AcDbEntity
  8
LOGO
  6
CONTINUOUS2
 62
     7
100
AcDbLine
 10
11.815906
 20
16.990547
 30
0.0
 11
11.87727
 21
16.861995
 31
0.0
  0
LINE
  5
B1
100
AcDbEntity
  8
LOGO
  6
CONTINUOUS2
 62
     7
100
AcDbLine
 10
11.705414
 20
17.112217
 30
0.0
 11
11.815906
 21
16.990547
 31
0.0
  0
LINE
  5
B2
100
AcDbEntity
  8
LOGO
  6
CONTINUOUS2
 62
     7
100
AcDbLine
 10
11.579573
 20
17.202853
 30
0.0
 11
11.705414
 21
17.112217
 31
0.0
  0
LINE
  5
B3
100
AcDbEntity
  8
LOGO
  6
CONTINUOUS2
 62
     7
100
AcDbLine
 10
11.479818
 20
17.243661
 30
0.0
 11
11.579573
 21
17.202853
 31
0.0
  0
LINE
  5
B4
100
AcDbEntity
  8
LOGO
  6
CONTINUOUS2
 62
     7
100
AcDbLine
 10
11.345294
 20
17.266305
 30
0.0
 11
11.479818
 21
17.243661
 31
0.0
  0
LINE
  5
B5
100
AcDbEntity
  8
LOGO
  6
CONTINUOUS2
 62
     7
100
AcDbLine
 10
11.21656
 20
17.300362
 30
0.0
 11
11.345294
 21
17.266305
 31
0.0
  0
LINE
  5
B6
100
AcDbEntity
  8
LOGO
  6
CONTINUOUS2
 62
     7
100
AcDbLine
 10
11.170021
 20
17.300781
 30
0.0
 11
11.21656
 21
17.300362
 31
0.0
  0
LINE
  5
B7
100
AcDbEntity
  8
LOGO
  6
CONTINUOUS2
 62
     7
100
AcDbLine
 10
11.047353
 20
17.338261
 30
0.0
 11
11.170021
 21
17.300781
 31
0.0
  0
LINE
  5
B8
100
AcDbEntity
  8
LOGO
  6
CONTINUOUS2
 62
     7
100
AcDbLine
 10
11.01174
 20
17.334485
 30
0.0
 11
11.047353
 21
17.338261
 31
0.0
  0
LINE
  5
B9
100
AcDbEntity
  8
LOGO
  6
CONTINUOUS2
 62
     7
100
AcDbLine
 10
11.002825
 20
17.363645
 30
0.0
 11
11.01174
 21
17.334485
 31
0.0
  0
LINE
  5
BA
100
AcDbEntity
  8
LOGO
  6
CONTINUOUS2
 62
     7
100
AcDbLine
 10
10.492268
 20
17.622187
 30
0.0
 11
11.002825
 21
17.363645
 31
0.0
  0
LINE
  5
BB
100
AcDbEntity
  8
LOGO
  6
CONTINUOUS2
 62
     7
100
AcDbLine
 10
10.45359
 20
17.625672
 30
0.0
 11
10.492268
 21
17.622187
 31
0.0
  0
LINE
  5
BC
100
AcDbEntity
  8
LOGO
  6
CONTINUOUS2
 62
     7
100
AcDbLine
 10
10.436265
 20
17.637192
 30
0.0
 11
10.45359
 21
17.625672
 31
0.0
  0
LINE
  5
BD
100
AcDbEntity
  8
LOGO
  6
CONTINUOUS2
 62
     7
100
AcDbLine
 10
10.423531
 20
17.658735
 30
0.0
 11
10.436265
 21
17.637192
 31
0.0
  0
LINE
  5
BE
100
AcDbEntity
  8
LOGO
  6
CONTINUOUS2
 62
     7
100
AcDbLine
 10
10.365303
 20
17.689695
 30
0.0
 11
10.423531
 21
17.658735
 31
0.0
  0
LINE
  5
BF
100
AcDbEntity
  8
LOGO
  6
CONTINUOUS2
 62
     7
100
AcDbLine
 10
10.332118
 20
17.67955
 30
0.0
 11
10.365303
 21
17.689695
 31
0.0
  0
LINE
  5
C0
100
AcDbEntity
  8
LOGO
  6
CONTINUOUS2
 62
     7
100
AcDbLine
 10
10.321972
 20
17.712734
 30
0.0
 11
10.332118
 21
17.67955
 31
0.0
  0
LINE
  5
C1
100
AcDbEntity
  8
LOGO
  6
CONTINUOUS2
 62
     7
100
AcDbLine
 10
10.097591
 20
17.8205
 30
0.0
 11
10.321972
 21
17.712734
 31
0.0
  0
LINE
  5
C2
100
AcDbEntity
  8
LOGO
  6
CONTINUOUS2
 62
     7
100
AcDbLine
 10
9.979145
 20
18.13931
 30
0.0
 11
10.097591
 21
17.8205
 31
0.0
  0
LINE
  5
C3
100
AcDbEntity
  8
LOGO
  6
CONTINUOUS2
 62
     7
100
AcDbLine
 10
9.8695
 20
18.308675
 30
0.0
 11
9.979145
 21
18.13931
 31
0.0
  0
LINE
  5
C4
100
AcDbEntity
  8
LOGO
  6
CONTINUOUS2
 62
     7
100
AcDbLine
 10
9.723905
 20
18.425882
 30
0.0
 11
9.8695
 21
18.308675
 31
0.0
  0
LINE
  5
C5
100
AcDbEntity
  8
LOGO
  6
CONTINUOUS2
 62
     7
100
AcDbLine
 10
9.565499
 20
18.512047
 30
0.0
 11
9.723905
 21
18.425882
 31
0.0
  0
LINE
  5
C6
100
AcDbEntity
  8
LOGO
  6
CONTINUOUS2
 62
     7
100
AcDbLine
 10
9.382784
 20
18.558835
 30
0.0
 11
9.565499
 21
18.512047
 31
0.0
  0
LINE
  5
C7
100
AcDbEntity
  8
LOGO
  6
CONTINUOUS2
 62
     7
100
AcDbLine
 10
9.372537
 20
18.59669
 30
0.0
 11
9.382784
 21
18.558835
 31
0.0
  0
LINE
  5
C8
100
AcDbEntity
  8
LOGO
  6
CONTINUOUS2
 62
     7
100
AcDbLine
 10
9.311286
 20
18.69116
 30
0.0
 11
9.372537
 21
18.59669
 31
0.0
  0
LINE
  5
C9
100
AcDbEntity
  8
LOGO
  6
CONTINUOUS2
 62
     7
100
AcDbLine
 10
9.207469
 20
18.879908
 30
0.0
 11
9.311286
 21
18.69116
 31
0.0
  0
LINE
  5
CA
100
AcDbEntity
  8
LOGO
  6
CONTINUOUS2
 62
     7
100
AcDbLine
 10
9.109447
 20
19.008104
 30
0.0
 11
9.207469
 21
18.879908
 31
0.0
  0
LINE
  5
CB
100
AcDbEntity
  8
LOGO
  6
CONTINUOUS2
 62
     7
100
AcDbLine
 10
9.05968
 20
19.061662
 30
0.0
 11
9.109447
 21
19.008104
 31
0.0
  0
LINE
  5
CC
100
AcDbEntity
  8
LOGO
  6
CONTINUOUS2
 62
     7
100
AcDbLine
 10
9.050608
 20
19.088966
 30
0.0
 11
9.05968
 21
19.061662
 31
0.0
  0
LINE
  5
CD
100
AcDbEntity
  8
LOGO
  6
CONTINUOUS2
 62
     7
100
AcDbLine
 10
8.999399
 20
19.115503
 30
0.0
 11
9.050608
 21
19.088966
 31
0.0
  0
LINE
  5
CE
100
AcDbEntity
  8
LOGO
  6
CONTINUOUS2
 62
     7
100
AcDbLine
 10
8.788048
 20
19.289275
 30
0.0
 11
8.999399
 21
19.115503
 31
0.0
  0
LINE
  5
CF
100
AcDbEntity
  8
LOGO
  6
CONTINUOUS2
 62
     7
100
AcDbLine
 10
8.767394
 20
19.28507
 30
0.0
 11
8.788048
 21
19.289275
 31
0.0
  0
LINE
  5
D0
100
AcDbEntity
  8
LOGO
  6
CONTINUOUS2
 62
     7
100
AcDbLine
 10
8.695959
 20
19.341288
 30
0.0
 11
8.767394
 21
19.28507
 31
0.0
  0
LINE
  5
D1
100
AcDbEntity
  8
LOGO
  6
CONTINUOUS2
 62
     7
100
AcDbLine
 10
8.636063
 20
19.359563
 30
0.0
 11
8.695959
 21
19.341288
 31
0.0
  0
LINE
  5
D2
100
AcDbEntity
  8
LOGO
  6
CONTINUOUS2
 62
     7
100
AcDbLine
 10
8.589715
 20
19.391685
 30
0.0
 11
8.636063
 21
19.359563
 31
0.0
  0
LINE
  5
D3
100
AcDbEntity
  8
LOGO
  6
CONTINUOUS2
 62
     7
100
AcDbLine
 10
8.227012
 20
19.511047
 30
0.0
 11
8.589715
 21
19.391685
 31
0.0
  0
LINE
  5
D4
100
AcDbEntity
  8
LOGO
  6
CONTINUOUS2
 62
     7
100
AcDbLine
 10
8.115316
 20
19.512641
 30
0.0
 11
8.227012
 21
19.511047
 31
0.0
  0
LINE
  5
D5
100
AcDbEntity
  8
LOGO
  6
CONTINUOUS2
 62
     7
100
AcDbLine
 10
8.02998
 20
19.538027
 30
0.0
 11
8.115316
 21
19.512641
 31
0.0
  0
LINE
  5
D6
100
AcDbEntity
  8
LOGO
  6
CONTINUOUS2
 62
     7
100
AcDbLine
 10
7.853382
 20
19.537801
 30
0.0
 11
8.02998
 21
19.538027
 31
0.0
  0
LINE
  5
D7
100
AcDbEntity
  8
LOGO
  6
CONTINUOUS2
 62
     7
100
AcDbLine
 10
7.755274
 20
19.549758
 30
0.0
 11
7.853382
 21
19.537801
 31
0.0
  0
LINE
  5
D8
100
AcDbEntity
  8
LOGO
  6
CONTINUOUS2
 62
     7
100
AcDbLine
 10
7.480134
 20
19.515789
 30
0.0
 11
7.755274
 21
19.549758
 31
0.0
  0
LINE
  5
D9
100
AcDbEntity
  8
LOGO
  6
CONTINUOUS2
 62
     7
100
AcDbLine
 10
7.426693
 20
19.526755
 30
0.0
 11
7.480134
 21
19.515789
 31
0.0
  0
LINE
  5
DA
100
AcDbEntity
  8
LOGO
  6
CONTINUOUS2
 62
     7
100
AcDbLine
 10
7.415071
 20
19.535196
 30
0.0
 11
7.426693
 21
19.526755
 31
0.0
  0
LINE
  5
DB
100
AcDbEntity
  8
LOGO
  6
CONTINUOUS2
 62
     7
100
AcDbLine
 10
7.412548
 20
19.508748
 30
0.0
 11
7.415071
 21
19.535196
 31
0.0
  0
LINE
  5
DC
100
AcDbEntity
  8
LOGO
  6
CONTINUOUS2
 62
     7
100
AcDbLine
 10
7.358126
 20
19.495123
 30
0.0
 11
7.412548
 21
19.508748
 31
0.0
  0
LINE
  5
DD
100
AcDbEntity
  8
LOGO
  6
CONTINUOUS2
 62
     7
100
AcDbLine
 10
7.298349
 20
19.494087
 30
0.0
 11
7.358126
 21
19.495123
 31
0.0
  0
LINE
  5
DE
100
AcDbEntity
  8
LOGO
  6
CONTINUOUS2
 62
     7
100
AcDbLine
 10
7.212355
 20
19.450255
 30
0.0
 11
7.298349
 21
19.494087
 31
0.0
  0
LINE
  5
DF
100
AcDbEntity
  8
LOGO
  6
CONTINUOUS2
 62
     7
100
AcDbLine
 10
7.183354
 20
19.423668
 30
0.0
 11
7.212355
 21
19.450255
 31
0.0
  0
LINE
  5
E0
100
AcDbEntity
  8
LOGO
  6
CONTINUOUS2
 62
     7
100
AcDbLine
 10
7.241582
 20
19.392707
 30
0.0
 11
7.183354
 21
19.423668
 31
0.0
  0
LINE
  5
E1
100
AcDbEntity
  8
LOGO
  6
CONTINUOUS2
 62
     7
100
AcDbLine
 10
7.274766
 20
19.402853
 30
0.0
 11
7.241582
 21
19.392707
 31
0.0
  0
LINE
  5
E2
100
AcDbEntity
  8
LOGO
  6
CONTINUOUS2
 62
     7
100
AcDbLine
 10
7.284912
 20
19.369669
 30
0.0
 11
7.274766
 21
19.402853
 31
0.0
  0
LINE
  5
E3
100
AcDbEntity
  8
LOGO
  6
CONTINUOUS2
 62
     7
100
AcDbLine
 10
7.444698
 20
19.284708
 30
0.0
 11
7.284912
 21
19.369669
 31
0.0
  0
LINE
  5
E4
100
AcDbEntity
  8
LOGO
  6
CONTINUOUS2
 62
     7
100
AcDbLine
 10
7.477937
 20
19.29487
 30
0.0
 11
7.444698
 21
19.284708
 31
0.0
  0
LINE
  5
E5
100
AcDbEntity
  8
LOGO
  6
CONTINUOUS2
 62
     7
100
AcDbLine
 10
7.482216
 20
19.263328
 30
0.0
 11
7.477937
 21
19.29487
 31
0.0
  0
LINE
  5
E6
100
AcDbEntity
  8
LOGO
  6
CONTINUOUS2
 62
     7
100
AcDbLine
 10
7.404183
 20
19.272321
 30
0.0
 11
7.482216
 21
19.263328
 31
0.0
  0
LINE
  5
E7
100
AcDbEntity
  8
LOGO
  6
CONTINUOUS2
 62
     7
100
AcDbLine
 10
7.061751
 20
19.275101
 30
0.0
 11
7.404183
 21
19.272321
 31
0.0
  0
LINE
  5
E8
100
AcDbEntity
  8
LOGO
  6
CONTINUOUS2
 62
     7
100
AcDbLine
 10
6.898326
 20
19.286798
 30
0.0
 11
7.061751
 21
19.275101
 31
0.0
  0
LINE
  5
E9
100
AcDbEntity
  8
LOGO
  6
CONTINUOUS2
 62
     7
100
AcDbLine
 10
6.87761
 20
19.27944
 30
0.0
 11
6.898326
 21
19.286798
 31
0.0
  0
LINE
  5
EA
100
AcDbEntity
  8
LOGO
  6
CONTINUOUS2
 62
     7
100
AcDbLine
 10
6.673413
 20
19.280964
 30
0.0
 11
6.87761
 21
19.27944
 31
0.0
  0
LINE
  5
EB
100
AcDbEntity
  8
LOGO
  6
CONTINUOUS2
 62
     7
100
AcDbLine
 10
6.644374
 20
19.2754
 30
0.0
 11
6.673413
 21
19.280964
 31
0.0
  0
LINE
  5
EC
100
AcDbEntity
  8
LOGO
  6
CONTINUOUS2
 62
     7
100
AcDbLine
 10
6.386384
 20
19.288445
 30
0.0
 11
6.644374
 21
19.2754
 31
0.0
  0
LINE
  5
ED
100
AcDbEntity
  8
LOGO
  6
CONTINUOUS2
 62
     7
100
AcDbLine
 10
6.36591
 20
19.295084
 30
0.0
 11
6.386384
 21
19.288445
 31
0.0
  0
LINE
  5
EE
100
AcDbEntity
  8
LOGO
  6
CONTINUOUS2
 62
     7
100
AcDbLine
 10
6.293291
 20
19.282226
 30
0.0
 11
6.36591
 21
19.295084
 31
0.0
  0
LINE
  5
EF
100
AcDbEntity
  8
LOGO
  6
CONTINUOUS2
 62
     7
100
AcDbLine
 10
6.028297
 20
19.276191
 30
0.0
 11
6.293291
 21
19.282226
 31
0.0
  0
LINE
  5
F0
100
AcDbEntity
  8
LOGO
  6
CONTINUOUS2
 62
     7
100
AcDbLine
 10
6.007478
 20
19.27055
 30
0.0
 11
6.028297
 21
19.276191
 31
0.0
  0
LINE
  5
F1
100
AcDbEntity
  8
LOGO
  6
CONTINUOUS2
 62
     7
100
AcDbLine
 10
5.964592
 20
19.257438
 30
0.0
 11
6.007478
 21
19.27055
 31
0.0
  0
LINE
  5
F2
100
AcDbEntity
  8
LOGO
  6
CONTINUOUS2
 62
     7
100
AcDbLine
 10
6.279631
 20
19.076126
 30
0.0
 11
5.964592
 21
19.257438
 31
0.0
  0
LINE
  5
F3
100
AcDbEntity
  8
LOGO
  6
CONTINUOUS2
 62
     7
100
AcDbLine
 10
6.314349
 20
19.066668
 30
0.0
 11
6.279631
 21
19.076126
 31
0.0
  0
LINE
  5
F4
100
AcDbEntity
  8
LOGO
  6
CONTINUOUS2
 62
     7
100
AcDbLine
 10
6.261255
 20
19.054415
 30
0.0
 11
6.314349
 21
19.066668
 31
0.0
  0
LINE
  5
F5
100
AcDbEntity
  8
LOGO
  6
CONTINUOUS2
 62
     7
100
AcDbLine
 10
6.22508
 20
19.056616
 30
0.0
 11
6.261255
 21
19.054415
 31
0.0
  0
LINE
  5
F6
100
AcDbEntity
  8
LOGO
  6
CONTINUOUS2
 62
     7
100
AcDbLine
 10
6.136649
 20
19.010111
 30
0.0
 11
6.22508
 21
19.056616
 31
0.0
  0
LINE
  5
F7
100
AcDbEntity
  8
LOGO
  6
CONTINUOUS2
 62
     7
100
AcDbLine
 10
5.330295
 20
18.789261
 30
0.0
 11
6.136649
 21
19.010111
 31
0.0
  0
LINE
  5
F8
100
AcDbEntity
  8
LOGO
  6
CONTINUOUS2
 62
     7
100
AcDbLine
 10
4.775399
 20
18.573381
 30
0.0
 11
5.330295
 21
18.789261
 31
0.0
  0
LINE
  5
F9
100
AcDbEntity
  8
LOGO
  6
CONTINUOUS2
 62
     7
100
AcDbLine
 10
4.527452
 20
18.455202
 30
0.0
 11
4.775399
 21
18.573381
 31
0.0
  0
LINE
  5
FA
100
AcDbEntity
  8
LOGO
  6
CONTINUOUS2
 62
     7
100
AcDbLine
 10
3.914595
 20
18.117988
 30
0.0
 11
4.527452
 21
18.455202
 31
0.0
  0
LINE
  5
FB
100
AcDbEntity
  8
LOGO
  6
CONTINUOUS2
 62
     7
100
AcDbLine
 10
3.853336
 20
18.058513
 30
0.0
 11
3.914595
 21
18.117988
 31
0.0
  0
LINE
  5
FC
100
AcDbEntity
  8
LOGO
  6
CONTINUOUS2
 62
     7
100
AcDbLine
 10
3.554505
 20
17.85323
 30
0.0
 11
3.853336
 21
18.058513
 31
0.0
  0
LINE
  5
FD
100
AcDbEntity
  8
LOGO
  6
CONTINUOUS2
 62
     7
100
AcDbLine
 10
3.539044
 20
17.829275
 30
0.0
 11
3.554505
 21
17.85323
 31
0.0
  0
LINE
  5
FE
100
AcDbEntity
  8
LOGO
  6
CONTINUOUS2
 62
     7
100
AcDbLine
 10
3.556564
 20
17.80805
 30
0.0
 11
3.539044
 21
17.829275
 31
0.0
  0
LINE
  5
FF
100
AcDbEntity
  8
LOGO
  6
CONTINUOUS2
 62
     7
100
AcDbLine
 10
3.583733
 20
17.812439
 30
0.0
 11
3.556564
 21
17.80805
 31
0.0
  0
LINE
  5
100
100
AcDbEntity
  8
LOGO
  6
CONTINUOUS2
 62
     7
100
AcDbLine
 10
3.593805
 20
17.830949
 30
0.0
 11
3.583733
 21
17.812439
 31
0.0
  0
LINE
  5
101
100
AcDbEntity
  8
LOGO
  6
CONTINUOUS2
 62
     7
100
AcDbLine
 10
4.004821
 20
17.822677
 30
0.0
 11
3.593805
 21
17.830949
 31
0.0
  0
LINE
  5
102
100
AcDbEntity
  8
LOGO
  6
CONTINUOUS2
 62
     7
100
AcDbLine
 10
4.327349
 20
17.799828
 30
0.0
 11
4.004821
 21
17.822677
 31
0.0
  0
LINE
  5
103
100
AcDbEntity
  8
LOGO
  6
CONTINUOUS2
 62
     7
100
AcDbLine
 10
4.451687
 20
17.779556
 30
0.0
 11
4.327349
 21
17.799828
 31
0.0
  0
LINE
  5
104
100
AcDbEntity
  8
LOGO
  6
CONTINUOUS2
 62
     7
100
AcDbLine
 10
4.363397
 20
17.703017
 30
0.0
 11
4.451687
 21
17.779556
 31
0.0
  0
LINE
  5
105
100
AcDbEntity
  8
LOGO
  6
CONTINUOUS2
 62
     7
100
AcDbLine
 10
4.318061
 20
17.649616
 30
0.0
 11
4.363397
 21
17.703017
 31
0.0
  0
LINE
  5
106
100
AcDbEntity
  8
LOGO
  6
CONTINUOUS2
 62
     7
100
AcDbLine
 10
4.265028
 20
17.618634
 30
0.0
 11
4.318061
 21
17.649616
 31
0.0
  0
LINE
  5
107
100
AcDbEntity
  8
LOGO
  6
CONTINUOUS2
 62
     7
100
AcDbLine
 10
4.213685
 20
17.552546
 30
0.0
 11
4.265028
 21
17.618634
 31
0.0
  0
LINE
  5
108
100
AcDbEntity
  8
LOGO
  6
CONTINUOUS2
 62
     7
100
AcDbLine
 10
4.145701
 20
17.505603
 30
0.0
 11
4.213685
 21
17.552546
 31
0.0
  0
LINE
  5
109
100
AcDbEntity
  8
LOGO
  6
CONTINUOUS2
 62
     7
100
AcDbLine
 10
4.092401
 20
17.437048
 30
0.0
 11
4.145701
 21
17.505603
 31
0.0
  0
LINE
  5
10A
100
AcDbEntity
  8
LOGO
  6
CONTINUOUS2
 62
     7
100
AcDbLine
 10
3.968008
 20
17.326988
 30
0.0
 11
4.092401
 21
17.437048
 31
0.0
  0
LINE
  5
10B
100
AcDbEntity
  8
LOGO
  6
CONTINUOUS2
 62
     7
100
AcDbLine
 10
3.852192
 20
17.198333
 30
0.0
 11
3.968008
 21
17.326988
 31
0.0
  0
LINE
  5
10C
100
AcDbEntity
  8
LOGO
  6
CONTINUOUS2
 62
     7
100
AcDbLine
 10
3.827045
 20
17.184376
 30
0.0
 11
3.852192
 21
17.198333
 31
0.0
  0
LINE
  5
10D
100
AcDbEntity
  8
LOGO
  6
CONTINUOUS2
 62
     7
100
AcDbLine
 10
3.570337
 20
16.891192
 30
0.0
 11
3.827045
 21
17.184376
 31
0.0
  0
LINE
  5
10E
100
AcDbEntity
  8
LOGO
  6
CONTINUOUS2
 62
     7
100
AcDbLine
 10
3.551604
 20
16.880703
 30
0.0
 11
3.570337
 21
16.891192
 31
0.0
  0
LINE
  5
10F
100
AcDbEntity
  8
LOGO
  6
CONTINUOUS2
 62
     7
100
AcDbLine
 10
3.489667
 20
16.805108
 30
0.0
 11
3.551604
 21
16.880703
 31
0.0
  0
LINE
  5
110
100
AcDbEntity
  8
LOGO
  6
CONTINUOUS2
 62
     7
100
AcDbLine
 10
3.477961
 20
16.781095
 30
0.0
 11
3.489667
 21
16.805108
 31
0.0
  0
LINE
  5
111
100
AcDbEntity
  8
LOGO
  6
CONTINUOUS2
 62
     7
100
AcDbLine
 10
3.412224
 20
16.722662
 30
0.0
 11
3.477961
 21
16.781095
 31
0.0
  0
LINE
  5
112
100
AcDbEntity
  8
LOGO
  6
CONTINUOUS2
 62
     7
100
AcDbLine
 10
3.390497
 20
16.685098
 30
0.0
 11
3.412224
 21
16.722662
 31
0.0
  0
LINE
  5
113
100
AcDbEntity
  8
LOGO
  6
CONTINUOUS2
 62
     7
100
AcDbLine
 10
3.293107
 20
16.577206
 30
0.0
 11
3.390497
 21
16.685098
 31
0.0
  0
LINE
  5
114
100
AcDbEntity
  8
LOGO
  6
CONTINUOUS2
 62
     7
100
AcDbLine
 10
3.221698
 20
16.468517
 30
0.0
 11
3.293107
 21
16.577206
 31
0.0
  0
LINE
  5
115
100
AcDbEntity
  8
LOGO
  6
CONTINUOUS2
 62
     7
100
AcDbLine
 10
2.99658
 20
16.161121
 30
0.0
 11
3.221698
 21
16.468517
 31
0.0
  0
LINE
  5
116
100
AcDbEntity
  8
LOGO
  6
CONTINUOUS2
 62
     7
100
AcDbLine
 10
2.92271
 20
16.043724
 30
0.0
 11
2.99658
 21
16.161121
 31
0.0
  0
LINE
  5
117
100
AcDbEntity
  8
LOGO
  6
CONTINUOUS2
 62
     7
100
AcDbLine
 10
2.892175
 20
16.012689
 30
0.0
 11
2.92271
 21
16.043724
 31
0.0
  0
LINE
  5
118
100
AcDbEntity
  8
LOGO
  6
CONTINUOUS2
 62
     7
100
AcDbLine
 10
2.8793
 20
15.971803
 30
0.0
 11
2.892175
 21
16.012689
 31
0.0
  0
LINE
  5
119
100
AcDbEntity
  8
LOGO
  6
CONTINUOUS2
 62
     7
100
AcDbLine
 10
2.802031
 20
15.85409
 30
0.0
 11
2.8793
 21
15.971803
 31
0.0
  0
LINE
  5
11A
100
AcDbEntity
  8
LOGO
  6
CONTINUOUS2
 62
     7
100
AcDbLine
 10
2.778451
 20
15.837961
 30
0.0
 11
2.802031
 21
15.85409
 31
0.0
  0
LINE
  5
11B
100
AcDbEntity
  8
LOGO
  6
CONTINUOUS2
 62
     7
100
AcDbLine
 10
2.477439
 20
15.271925
 30
0.0
 11
2.778451
 21
15.837961
 31
0.0
  0
LINE
  5
11C
100
AcDbEntity
  8
LOGO
  6
CONTINUOUS2
 62
     7
100
AcDbLine
 10
2.487601
 20
15.238686
 30
0.0
 11
2.477439
 21
15.271925
 31
0.0
  0
LINE
  5
11D
100
AcDbEntity
  8
LOGO
  6
CONTINUOUS2
 62
     7
100
AcDbLine
 10
2.458112
 20
15.228284
 30
0.0
 11
2.487601
 21
15.238686
 31
0.0
  0
LINE
  5
11E
100
AcDbEntity
  8
LOGO
  6
CONTINUOUS2
 62
     7
100
AcDbLine
 10
2.444889
 20
15.211403
 30
0.0
 11
2.458112
 21
15.228284
 31
0.0
  0
LINE
  5
11F
100
AcDbEntity
  8
LOGO
  6
CONTINUOUS2
 62
     7
100
AcDbLine
 10
2.442898
 20
15.176317
 30
0.0
 11
2.444889
 21
15.211403
 31
0.0
  0
LINE
  5
120
100
AcDbEntity
  8
LOGO
  6
CONTINUOUS2
 62
     7
100
AcDbLine
 10
2.353458
 20
14.964348
 30
0.0
 11
2.442898
 21
15.176317
 31
0.0
  0
LINE
  5
121
100
AcDbEntity
  8
LOGO
  6
CONTINUOUS2
 62
     7
100
AcDbLine
 10
2.34891
 20
14.92836
 30
0.0
 11
2.353458
 21
14.964348
 31
0.0
  0
LINE
  5
122
100
AcDbEntity
  8
LOGO
  6
CONTINUOUS2
 62
     7
100
AcDbLine
 10
2.356943
 20
14.901099
 30
0.0
 11
2.34891
 21
14.92836
 31
0.0
  0
LINE
  5
123
100
AcDbEntity
  8
LOGO
  6
CONTINUOUS2
 62
     7
100
AcDbLine
 10
2.998631
 20
15.097283
 30
0.0
 11
2.356943
 21
14.901099
 31
0.0
  0
LINE
  5
124
100
AcDbEntity
  8
LOGO
  6
CONTINUOUS2
 62
     7
100
AcDbLine
 10
3.006332
 20
15.072092
 30
0.0
 11
2.998631
 21
15.097283
 31
0.0
  0
LINE
  5
125
100
AcDbEntity
  8
LOGO
  6
CONTINUOUS2
 62
     7
100
AcDbLine
 10
2.891599
 20
14.804652
 30
0.0
 11
3.006332
 21
15.072092
 31
0.0
  0
LINE
  5
126
100
AcDbEntity
  8
LOGO
  6
CONTINUOUS2
 62
     7
100
AcDbLine
 10
2.875691
 20
14.734451
 30
0.0
 11
2.891599
 21
14.804652
 31
0.0
  0
LINE
  5
127
100
AcDbEntity
  8
LOGO
  6
CONTINUOUS2
 62
     7
100
AcDbLine
 10
2.806537
 20
14.514881
 30
0.0
 11
2.875691
 21
14.734451
 31
0.0
  0
LINE
  5
128
100
AcDbEntity
  8
LOGO
  6
CONTINUOUS2
 62
     7
100
AcDbLine
 10
2.734443
 20
14.193933
 30
0.0
 11
2.806537
 21
14.514881
 31
0.0
  0
LINE
  5
129
100
AcDbEntity
  8
LOGO
  6
CONTINUOUS2
 62
     7
100
AcDbLine
 10
2.722284
 20
14.167854
 30
0.0
 11
2.734443
 21
14.193933
 31
0.0
  0
LINE
  5
12A
100
AcDbEntity
  8
LOGO
  6
CONTINUOUS2
 62
     7
100
AcDbLine
 10
2.718579
 20
14.113137
 30
0.0
 11
2.722284
 21
14.167854
 31
0.0
  0
LINE
  5
12B
100
AcDbEntity
  8
LOGO
  6
CONTINUOUS2
 62
     7
100
AcDbLine
 10
2.704013
 20
14.044067
 30
0.0
 11
2.718579
 21
14.113137
 31
0.0
  0
LINE
  5
12C
100
AcDbEntity
  8
LOGO
  6
CONTINUOUS2
 62
     7
100
AcDbLine
 10
2.699448
 20
13.979744
 30
0.0
 11
2.704013
 21
14.044067
 31
0.0
  0
LINE
  5
12D
100
AcDbEntity
  8
LOGO
  6
CONTINUOUS2
 62
     7
100
AcDbLine
 10
2.683328
 20
13.938229
 30
0.0
 11
2.699448
 21
13.979744
 31
0.0
  0
LINE
  5
12E
100
AcDbEntity
  8
LOGO
  6
CONTINUOUS2
 62
     7
100
AcDbLine
 10
2.681315
 20
13.909525
 30
0.0
 11
2.683328
 21
13.938229
 31
0.0
  0
LINE
  5
12F
100
AcDbEntity
  8
LOGO
  6
CONTINUOUS2
 62
     7
100
AcDbLine
 10
2.687264
 20
13.890066
 30
0.0
 11
2.681315
 21
13.909525
 31
0.0
  0
LINE
  5
130
100
AcDbEntity
  8
LOGO
  6
CONTINUOUS2
 62
     7
100
AcDbLine
 10
2.665391
 20
13.787722
 30
0.0
 11
2.687264
 21
13.890066
 31
0.0
  0
LINE
  5
131
100
AcDbEntity
  8
LOGO
  6
CONTINUOUS2
 62
     7
100
AcDbLine
 10
2.64358
 20
13.43893
 30
0.0
 11
2.665391
 21
13.787722
 31
0.0
  0
LINE
  5
132
100
AcDbEntity
  8
LOGO
  6
CONTINUOUS2
 62
     7
100
AcDbLine
 10
2.662007
 20
12.801002
 30
0.0
 11
2.64358
 21
13.43893
 31
0.0
  0
LINE
  5
133
100
AcDbEntity
  8
LOGO
  6
CONTINUOUS2
 62
     7
100
AcDbLine
 10
2.742651
 20
12.248399
 30
0.0
 11
2.662007
 21
12.801002
 31
0.0
  0
LINE
  5
134
100
AcDbEntity
  8
LOGO
  6
CONTINUOUS2
 62
     7
100
AcDbLine
 10
2.804504
 20
12.0244
 30
0.0
 11
2.742651
 21
12.248399
 31
0.0
  0
LINE
  5
135
100
AcDbEntity
  8
LOGO
  6
CONTINUOUS2
 62
     7
100
AcDbLine
 10
2.821324
 20
11.919901
 30
0.0
 11
2.804504
 21
12.0244
 31
0.0
  0
LINE
  5
136
100
AcDbEntity
  8
LOGO
  6
CONTINUOUS2
 62
     7
100
AcDbLine
 10
2.834404
 20
11.878693
 30
0.0
 11
2.821324
 21
11.919901
 31
0.0
  0
LINE
  5
137
100
AcDbEntity
  8
LOGO
  6
CONTINUOUS2
 62
     7
100
AcDbLine
 10
2.723442
 20
11.844769
 30
0.0
 11
2.834404
 21
11.878693
 31
0.0
  0
LINE
  5
138
100
AcDbEntity
  8
LOGO
  6
CONTINUOUS2
 62
     7
100
AcDbLine
 10
2.36585
 20
11.692887
 30
0.0
 11
2.723442
 21
11.844769
 31
0.0
  0
LINE
  5
139
100
AcDbEntity
  8
LOGO
  6
CONTINUOUS2
 62
     7
100
AcDbLine
 10
2.267025
 20
11.640553
 30
0.0
 11
2.36585
 21
11.692887
 31
0.0
  0
LINE
  5
13A
100
AcDbEntity
  8
LOGO
  6
CONTINUOUS2
 62
     7
100
AcDbLine
 10
1.819733
 20
11.462091
 30
0.0
 11
2.267025
 21
11.640553
 31
0.0
  0
LINE
  5
13B
100
AcDbEntity
  8
LOGO
  6
CONTINUOUS2
 62
     7
100
AcDbLine
 10
1.471806
 20
11.311718
 30
0.0
 11
1.819733
 21
11.462091
 31
0.0
  0
LINE
  5
13C
100
AcDbEntity
  8
LOGO
  6
CONTINUOUS2
 62
     7
100
AcDbLine
 10
1.406354
 20
11.26832
 30
0.0
 11
1.471806
 21
11.311718
 31
0.0
  0
LINE
  5
13D
100
AcDbEntity
  8
LOGO
  6
CONTINUOUS2
 62
     7
100
AcDbLine
 10
1.505361
 20
11.185995
 30
0.0
 11
1.406354
 21
11.26832
 31
0.0
  0
LINE
  5
13E
100
AcDbEntity
  8
LOGO
  6
CONTINUOUS2
 62
     7
100
AcDbLine
 10
1.828157
 20
10.996266
 30
0.0
 11
1.505361
 21
11.185995
 31
0.0
  0
LINE
  5
13F
100
AcDbEntity
  8
LOGO
  6
CONTINUOUS2
 62
     7
100
AcDbLine
 10
1.837824
 20
10.998558
 30
0.0
 11
1.828157
 21
10.996266
 31
0.0
  0
LINE
  5
140
100
AcDbEntity
  8
LOGO
  6
CONTINUOUS2
 62
     7
100
AcDbLine
 10
2.078527
 20
10.850817
 30
0.0
 11
1.837824
 21
10.998558
 31
0.0
  0
LINE
  5
141
100
AcDbEntity
  8
LOGO
  6
CONTINUOUS2
 62
     7
100
AcDbLine
 10
2.134271
 20
10.824039
 30
0.0
 11
2.078527
 21
10.850817
 31
0.0
  0
LINE
  5
142
100
AcDbEntity
  8
LOGO
  6
CONTINUOUS2
 62
     7
100
AcDbLine
 10
2.14176
 20
10.805654
 30
0.0
 11
2.134271
 21
10.824039
 31
0.0
  0
LINE
  5
143
100
AcDbEntity
  8
LOGO
  6
CONTINUOUS2
 62
     7
100
AcDbLine
 10
2.198014
 20
10.789038
 30
0.0
 11
2.14176
 21
10.805654
 31
0.0
  0
LINE
  5
144
100
AcDbEntity
  8
LOGO
  6
CONTINUOUS2
 62
     7
100
AcDbLine
 10
2.228475
 20
10.741451
 30
0.0
 11
2.198014
 21
10.789038
 31
0.0
  0
LINE
  5
145
100
AcDbEntity
  8
LOGO
  6
CONTINUOUS2
 62
     7
100
AcDbLine
 10
2.228066
 20
10.661762
 30
0.0
 11
2.228475
 21
10.741451
 31
0.0
  0
LINE
  5
146
100
AcDbEntity
  8
LOGO
  6
CONTINUOUS2
 62
     7
100
AcDbLine
 10
2.242125
 20
10.551899
 30
0.0
 11
2.228066
 21
10.661762
 31
0.0
  0
LINE
  5
147
100
AcDbEntity
  8
LOGO
  6
CONTINUOUS2
 62
     7
100
AcDbLine
 10
2.235647
 20
10.498563
 30
0.0
 11
2.242125
 21
10.551899
 31
0.0
  0
LINE
  5
148
100
AcDbEntity
  8
LOGO
  6
CONTINUOUS2
 62
     7
100
AcDbLine
 10
2.248561
 20
10.425962
 30
0.0
 11
2.235647
 21
10.498563
 31
0.0
  0
LINE
  5
149
100
AcDbEntity
  8
LOGO
  6
CONTINUOUS2
 62
     7
100
AcDbLine
 10
2.245513
 20
10.345044
 30
0.0
 11
2.248561
 21
10.425962
 31
0.0
  0
LINE
  5
14A
100
AcDbEntity
  8
LOGO
  6
CONTINUOUS2
 62
     7
100
AcDbLine
 10
2.25544
 20
10.07895
 30
0.0
 11
2.245513
 21
10.345044
 31
0.0
  0
LINE
  5
14B
100
AcDbEntity
  8
LOGO
  6
CONTINUOUS2
 62
     7
100
AcDbLine
 10
2.272648
 20
9.947747
 30
0.0
 11
2.25544
 21
10.07895
 31
0.0
  0
LINE
  5
14C
100
AcDbEntity
  8
LOGO
  6
CONTINUOUS2
 62
     7
100
AcDbLine
 10
2.283536
 20
9.735289
 30
0.0
 11
2.272648
 21
9.947747
 31
0.0
  0
LINE
  5
14D
100
AcDbEntity
  8
LOGO
  6
CONTINUOUS2
 62
     7
100
AcDbLine
 10
2.278051
 20
9.677918
 30
0.0
 11
2.283536
 21
9.735289
 31
0.0
  0
LINE
  5
14E
100
AcDbEntity
  8
LOGO
  6
CONTINUOUS2
 62
     7
100
AcDbLine
 10
2.2957
 20
9.539556
 30
0.0
 11
2.278051
 21
9.677918
 31
0.0
  0
LINE
  5
14F
100
AcDbEntity
  8
LOGO
  6
CONTINUOUS2
 62
     7
100
AcDbLine
 10
2.292
 20
9.503947
 30
0.0
 11
2.2957
 21
9.539556
 31
0.0
  0
LINE
  5
150
100
AcDbEntity
  8
LOGO
  6
CONTINUOUS2
 62
     7
100
AcDbLine
 10
2.317237
 20
8.995946
 30
0.0
 11
2.292
 21
9.503947
 31
0.0
  0
LINE
  5
151
100
AcDbEntity
  8
LOGO
  6
CONTINUOUS2
 62
     7
100
AcDbLine
 10
2.334148
 20
8.855069
 30
0.0
 11
2.317237
 21
8.995946
 31
0.0
  0
LINE
  5
152
100
AcDbEntity
  8
LOGO
  6
CONTINUOUS2
 62
     7
100
AcDbLine
 10
2.365278
 20
8.864044
 30
0.0
 11
2.334148
 21
8.855069
 31
0.0
  0
LINE
  5
153
100
AcDbEntity
  8
LOGO
  6
CONTINUOUS2
 62
     7
100
AcDbLine
 10
2.480798
 20
8.934322
 30
0.0
 11
2.365278
 21
8.864044
 31
0.0
  0
LINE
  5
154
100
AcDbEntity
  8
LOGO
  6
CONTINUOUS2
 62
     7
100
AcDbLine
 10
3.744202
 20
9.485858
 30
0.0
 11
2.480798
 21
8.934322
 31
0.0
  0
LINE
  5
155
100
AcDbEntity
  8
LOGO
  6
CONTINUOUS2
 62
     7
100
AcDbLine
 10
3.917494
 20
9.575366
 30
0.0
 11
3.744202
 21
9.485858
 31
0.0
  0
LINE
  5
156
100
AcDbEntity
  8
LOGO
  6
CONTINUOUS2
 62
     7
100
AcDbLine
 10
3.244734
 20
9.771419
 30
0.0
 11
3.631332
 21
9.955193
 31
0.0
  0
LINE
  5
157
100
AcDbEntity
  8
LOGO
  6
CONTINUOUS2
 62
     7
100
AcDbLine
 10
2.941661
 20
9.6567
 30
0.0
 11
3.244734
 21
9.771419
 31
0.0
  0
LINE
  5
158
100
AcDbEntity
  8
LOGO
  6
CONTINUOUS2
 62
     7
100
AcDbLine
 10
2.816856
 20
9.595698
 30
0.0
 11
2.941661
 21
9.6567
 31
0.0
  0
LINE
  5
159
100
AcDbEntity
  8
LOGO
  6
CONTINUOUS2
 62
     7
100
AcDbLine
 10
2.795637
 20
9.591562
 30
0.0
 11
2.816856
 21
9.595698
 31
0.0
  0
LINE
  5
15A
100
AcDbEntity
  8
LOGO
  6
CONTINUOUS2
 62
     7
100
AcDbLine
 10
2.786152
 20
9.567385
 30
0.0
 11
2.795637
 21
9.591562
 31
0.0
  0
LINE
  5
15B
100
AcDbEntity
  8
LOGO
  6
CONTINUOUS2
 62
     7
100
AcDbLine
 10
2.756992
 20
9.55847
 30
0.0
 11
2.786152
 21
9.567385
 31
0.0
  0
LINE
  5
15C
100
AcDbEntity
  8
LOGO
  6
CONTINUOUS2
 62
     7
100
AcDbLine
 10
2.737409
 20
9.622522
 30
0.0
 11
2.756992
 21
9.55847
 31
0.0
  0
LINE
  5
15D
100
AcDbEntity
  8
LOGO
  6
CONTINUOUS2
 62
     7
100
AcDbLine
 10
2.740924
 20
9.760664
 30
0.0
 11
2.737409
 21
9.622522
 31
0.0
  0
LINE
  5
15E
100
AcDbEntity
  8
LOGO
  6
CONTINUOUS2
 62
     7
100
AcDbLine
 10
2.715732
 20
10.041199
 30
0.0
 11
2.740924
 21
9.760664
 31
0.0
  0
LINE
  5
15F
100
AcDbEntity
  8
LOGO
  6
CONTINUOUS2
 62
     7
100
AcDbLine
 10
2.710374
 20
10.454015
 30
0.0
 11
2.715732
 21
10.041199
 31
0.0
  0
LINE
  5
160
100
AcDbEntity
  8
LOGO
  6
CONTINUOUS2
 62
     7
100
AcDbLine
 10
2.671385
 20
11.0208
 30
0.0
 11
2.710374
 21
10.454015
 31
0.0
  0
LINE
  5
161
100
AcDbEntity
  8
LOGO
  6
CONTINUOUS2
 62
     7
100
AcDbLine
 10
2.661239
 20
11.053984
 30
0.0
 11
2.671385
 21
11.0208
 31
0.0
  0
LINE
  5
162
100
AcDbEntity
  8
LOGO
  6
CONTINUOUS2
 62
     7
100
AcDbLine
 10
2.476101
 20
11.15247
 30
0.0
 11
2.661239
 21
11.053984
 31
0.0
  0
LINE
  5
163
100
AcDbEntity
  8
LOGO
  6
CONTINUOUS2
 62
     7
100
AcDbLine
 10
2.442861
 20
11.142308
 30
0.0
 11
2.476101
 21
11.15247
 31
0.0
  0
LINE
  5
164
100
AcDbEntity
  8
LOGO
  6
CONTINUOUS2
 62
     7
100
AcDbLine
 10
2.430963
 20
11.181225
 30
0.0
 11
2.442861
 21
11.142308
 31
0.0
  0
LINE
  5
165
100
AcDbEntity
  8
LOGO
  6
CONTINUOUS2
 62
     7
100
AcDbLine
 10
2.561439
 20
11.221116
 30
0.0
 11
2.430963
 21
11.181225
 31
0.0
  0
LINE
  5
166
100
AcDbEntity
  8
LOGO
  6
CONTINUOUS2
 62
     7
100
AcDbLine
 10
2.561185
 20
11.242255
 30
0.0
 11
2.561439
 21
11.221116
 31
0.0
  0
LINE
  5
167
100
AcDbEntity
  8
LOGO
  6
CONTINUOUS2
 62
     7
100
AcDbLine
 10
2.623483
 20
11.259493
 30
0.0
 11
2.561185
 21
11.242255
 31
0.0
  0
LINE
  5
168
100
AcDbEntity
  8
LOGO
  6
CONTINUOUS2
 62
     7
100
AcDbLine
 10
3.010065
 20
11.443323
 30
0.0
 11
2.623483
 21
11.259493
 31
0.0
  0
LINE
  5
169
100
AcDbEntity
  8
LOGO
  6
CONTINUOUS2
 62
     7
100
AcDbLine
 10
3.313104
 20
11.558152
 30
0.0
 11
3.010065
 21
11.443323
 31
0.0
  0
LINE
  5
16A
100
AcDbEntity
  8
LOGO
  6
CONTINUOUS2
 62
     7
100
AcDbLine
 10
3.414499
 20
11.611936
 30
0.0
 11
3.313104
 21
11.558152
 31
0.0
  0
LINE
  5
16B
100
AcDbEntity
  8
LOGO
  6
CONTINUOUS2
 62
     7
100
AcDbLine
 10
3.435695
 20
11.615946
 30
0.0
 11
3.414499
 21
11.611936
 31
0.0
  0
LINE
  5
16C
100
AcDbEntity
  8
LOGO
  6
CONTINUOUS2
 62
     7
100
AcDbLine
 10
3.458906
 20
11.644319
 30
0.0
 11
3.435695
 21
11.615946
 31
0.0
  0
LINE
  5
16D
100
AcDbEntity
  8
LOGO
  6
CONTINUOUS2
 62
     7
100
AcDbLine
 10
3.726794
 20
11.706149
 30
0.0
 11
3.458906
 21
11.644319
 31
0.0
  0
LINE
  5
16E
100
AcDbEntity
  8
LOGO
  6
CONTINUOUS2
 62
     7
100
AcDbLine
 10
3.738958
 20
11.716438
 30
0.0
 11
3.726794
 21
11.706149
 31
0.0
  0
LINE
  5
16F
100
AcDbEntity
  8
LOGO
  6
CONTINUOUS2
 62
     7
100
AcDbLine
 10
3.760008
 20
11.718955
 30
0.0
 11
3.738958
 21
11.716438
 31
0.0
  0
LINE
  5
170
100
AcDbEntity
  8
LOGO
  6
CONTINUOUS2
 62
     7
100
AcDbLine
 10
3.893117
 20
11.660136
 30
0.0
 11
3.760008
 21
11.718955
 31
0.0
  0
LINE
  5
171
100
AcDbEntity
  8
LOGO
  6
CONTINUOUS2
 62
     7
100
AcDbLine
 10
3.953734
 20
11.625505
 30
0.0
 11
3.893117
 21
11.660136
 31
0.0
  0
LINE
  5
172
100
AcDbEntity
  8
LOGO
  6
CONTINUOUS2
 62
     7
100
AcDbLine
 10
3.998488
 20
11.456252
 30
0.0
 11
3.953734
 21
11.625505
 31
0.0
  0
LINE
  5
173
100
AcDbEntity
  8
LOGO
  6
CONTINUOUS2
 62
     7
100
AcDbLine
 10
4.005148
 20
11.299221
 30
0.0
 11
3.998488
 21
11.456252
 31
0.0
  0
LINE
  5
174
100
AcDbEntity
  8
LOGO
  6
CONTINUOUS2
 62
     7
100
AcDbLine
 10
3.970061
 20
11.17819
 30
0.0
 11
4.005148
 21
11.299221
 31
0.0
  0
LINE
  5
175
100
AcDbEntity
  8
LOGO
  6
CONTINUOUS2
 62
     7
100
AcDbLine
 10
3.973837
 20
11.142576
 30
0.0
 11
3.970061
 21
11.17819
 31
0.0
  0
LINE
  5
176
100
AcDbEntity
  8
LOGO
  6
CONTINUOUS2
 62
     7
100
AcDbLine
 10
3.944677
 20
11.133661
 30
0.0
 11
3.973837
 21
11.142576
 31
0.0
  0
LINE
  5
177
100
AcDbEntity
  8
LOGO
  6
CONTINUOUS2
 62
     7
100
AcDbLine
 10
3.944728
 20
11.10806
 30
0.0
 11
3.944677
 21
11.133661
 31
0.0
  0
LINE
  5
178
100
AcDbEntity
  8
LOGO
  6
CONTINUOUS2
 62
     7
100
AcDbLine
 10
3.853163
 20
10.993932
 30
0.0
 11
3.944728
 21
11.10806
 31
0.0
  0
LINE
  5
179
100
AcDbEntity
  8
LOGO
  6
CONTINUOUS2
 62
     7
100
AcDbLine
 10
3.83945
 20
10.968402
 30
0.0
 11
3.853163
 21
10.993932
 31
0.0
  0
LINE
  5
17A
100
AcDbEntity
  8
LOGO
  6
CONTINUOUS2
 62
     7
100
AcDbLine
 10
3.818695
 20
10.948555
 30
0.0
 11
3.83945
 21
10.968402
 31
0.0
  0
LINE
  5
17B
100
AcDbEntity
  8
LOGO
  6
CONTINUOUS2
 62
     7
100
AcDbLine
 10
3.774699
 20
10.928232
 30
0.0
 11
3.818695
 21
10.948555
 31
0.0
  0
LINE
  5
17C
100
AcDbEntity
  8
LOGO
  6
CONTINUOUS2
 62
     7
100
AcDbLine
 10
3.767354
 20
10.911641
 30
0.0
 11
3.774699
 21
10.928232
 31
0.0
  0
LINE
  5
17D
100
AcDbEntity
  8
LOGO
  6
CONTINUOUS2
 62
     7
100
AcDbLine
 10
3.770283
 20
10.899698
 30
0.0
 11
3.767354
 21
10.911641
 31
0.0
  0
LINE
  5
17E
100
AcDbEntity
  8
LOGO
  6
CONTINUOUS2
 62
     7
100
AcDbLine
 10
3.785482
 20
10.889216
 30
0.0
 11
3.770283
 21
10.899698
 31
0.0
  0
LINE
  5
17F
100
AcDbEntity
  8
LOGO
  6
CONTINUOUS2
 62
     7
100
AcDbLine
 10
3.86949
 20
10.877046
 30
0.0
 11
3.785482
 21
10.889216
 31
0.0
  0
LINE
  5
180
100
AcDbEntity
  8
LOGO
  6
CONTINUOUS2
 62
     7
100
AcDbLine
 10
3.960351
 20
10.799283
 30
0.0
 11
3.86949
 21
10.877046
 31
0.0
  0
LINE
  5
181
100
AcDbEntity
  8
LOGO
  6
CONTINUOUS2
 62
     7
100
AcDbLine
 10
3.981859
 20
10.771321
 30
0.0
 11
3.960351
 21
10.799283
 31
0.0
  0
LINE
  5
182
100
AcDbEntity
  8
LOGO
  6
CONTINUOUS2
 62
     7
100
AcDbLine
 10
4.042448
 20
10.640964
 30
0.0
 11
3.981859
 21
10.771321
 31
0.0
  0
LINE
  5
183
100
AcDbEntity
  8
LOGO
  6
CONTINUOUS2
 62
     7
100
AcDbLine
 10
4.034648
 20
10.488252
 30
0.0
 11
4.042448
 21
10.640964
 31
0.0
  0
LINE
  5
184
100
AcDbEntity
  8
LOGO
  6
CONTINUOUS2
 62
     7
100
AcDbLine
 10
3.946591
 20
10.225232
 30
0.0
 11
4.034648
 21
10.488252
 31
0.0
  0
LINE
  5
185
100
AcDbEntity
  8
LOGO
  6
CONTINUOUS2
 62
     7
100
AcDbLine
 10
3.744818
 20
10.016351
 30
0.0
 11
3.946591
 21
10.225232
 31
0.0
  0
LINE
  5
186
100
AcDbEntity
  8
LOGO
  6
CONTINUOUS2
 62
     7
100
AcDbLine
 10
3.69363
 20
9.972432
 30
0.0
 11
3.744818
 21
10.016351
 31
0.0
  0
LINE
  5
187
100
AcDbEntity
  8
LOGO
  6
CONTINUOUS2
 62
     7
100
AcDbLine
 10
3.631332
 20
9.955193
 30
0.0
 11
3.69363
 21
9.972432
 31
0.0
  0
LINE
  5
188
100
AcDbEntity
  8
LOGO
  6
CONTINUOUS2
 62
     7
100
AcDbLine
 10
3.214936
 20
10.052234
 30
0.0
 11
3.197332
 21
10.416582
 31
0.0
  0
LINE
  5
189
100
AcDbEntity
  8
LOGO
  6
CONTINUOUS2
 62
     7
100
AcDbLine
 10
3.198587
 20
10.012456
 30
0.0
 11
3.214936
 21
10.052234
 31
0.0
  0
LINE
  5
18A
100
AcDbEntity
  8
LOGO
  6
CONTINUOUS2
 62
     7
100
AcDbLine
 10
3.303872
 20
10.044645
 30
0.0
 11
3.198587
 21
10.012456
 31
0.0
  0
LINE
  5
18B
100
AcDbEntity
  8
LOGO
  6
CONTINUOUS2
 62
     7
100
AcDbLine
 10
3.45245
 20
10.12075
 30
0.0
 11
3.303872
 21
10.044645
 31
0.0
  0
LINE
  5
18C
100
AcDbEntity
  8
LOGO
  6
CONTINUOUS2
 62
     7
100
AcDbLine
 10
3.532887
 20
10.199711
 30
0.0
 11
3.45245
 21
10.12075
 31
0.0
  0
LINE
  5
18D
100
AcDbEntity
  8
LOGO
  6
CONTINUOUS2
 62
     7
100
AcDbLine
 10
3.577302
 20
10.28333
 30
0.0
 11
3.532887
 21
10.199711
 31
0.0
  0
LINE
  5
18E
100
AcDbEntity
  8
LOGO
  6
CONTINUOUS2
 62
     7
100
AcDbLine
 10
3.562652
 20
10.373242
 30
0.0
 11
3.577302
 21
10.28333
 31
0.0
  0
LINE
  5
18F
100
AcDbEntity
  8
LOGO
  6
CONTINUOUS2
 62
     7
100
AcDbLine
 10
3.565014
 20
10.444969
 30
0.0
 11
3.562652
 21
10.373242
 31
0.0
  0
LINE
  5
190
100
AcDbEntity
  8
LOGO
  6
CONTINUOUS2
 62
     7
100
AcDbLine
 10
3.536347
 20
10.626073
 30
0.0
 11
3.565014
 21
10.444969
 31
0.0
  0
LINE
  5
191
100
AcDbEntity
  8
LOGO
  6
CONTINUOUS2
 62
     7
100
AcDbLine
 10
3.379331
 20
10.601817
 30
0.0
 11
3.536347
 21
10.626073
 31
0.0
  0
LINE
  5
192
100
AcDbEntity
  8
LOGO
  6
CONTINUOUS2
 62
     7
100
AcDbLine
 10
3.345625
 20
10.58904
 30
0.0
 11
3.379331
 21
10.601817
 31
0.0
  0
LINE
  5
193
100
AcDbEntity
  8
LOGO
  6
CONTINUOUS2
 62
     7
100
AcDbLine
 10
3.28438
 20
10.551992
 30
0.0
 11
3.345625
 21
10.58904
 31
0.0
  0
LINE
  5
194
100
AcDbEntity
  8
LOGO
  6
CONTINUOUS2
 62
     7
100
AcDbLine
 10
3.186315
 20
10.519057
 30
0.0
 11
3.28438
 21
10.551992
 31
0.0
  0
LINE
  5
195
100
AcDbEntity
  8
LOGO
  6
CONTINUOUS2
 62
     7
100
AcDbLine
 10
3.205898
 20
10.455004
 30
0.0
 11
3.186315
 21
10.519057
 31
0.0
  0
LINE
  5
196
100
AcDbEntity
  8
LOGO
  6
CONTINUOUS2
 62
     7
100
AcDbLine
 10
3.197332
 20
10.416582
 30
0.0
 11
3.205898
 21
10.455004
 31
0.0
  0
LINE
  5
197
100
AcDbEntity
  8
LOGO
  6
CONTINUOUS2
 62
     7
100
AcDbLine
 10
3.453327
 20
10.877114
 30
0.0
 11
3.233879
 21
10.770602
 31
0.0
  0
LINE
  5
198
100
AcDbEntity
  8
LOGO
  6
CONTINUOUS2
 62
     7
100
AcDbLine
 10
3.467732
 20
10.914971
 30
0.0
 11
3.453327
 21
10.877114
 31
0.0
  0
LINE
  5
199
100
AcDbEntity
  8
LOGO
  6
CONTINUOUS2
 62
     7
100
AcDbLine
 10
3.516638
 20
10.979168
 30
0.0
 11
3.467732
 21
10.914971
 31
0.0
  0
LINE
  5
19A
100
AcDbEntity
  8
LOGO
  6
CONTINUOUS2
 62
     7
100
AcDbLine
 10
3.526179
 20
11.006316
 30
0.0
 11
3.516638
 21
10.979168
 31
0.0
  0
LINE
  5
19B
100
AcDbEntity
  8
LOGO
  6
CONTINUOUS2
 62
     7
100
AcDbLine
 10
3.543061
 20
11.021483
 30
0.0
 11
3.526179
 21
11.006316
 31
0.0
  0
LINE
  5
19C
100
AcDbEntity
  8
LOGO
  6
CONTINUOUS2
 62
     7
100
AcDbLine
 10
3.543533
 20
11.138622
 30
0.0
 11
3.543061
 21
11.021483
 31
0.0
  0
LINE
  5
19D
100
AcDbEntity
  8
LOGO
  6
CONTINUOUS2
 62
     7
100
AcDbLine
 10
3.524094
 20
11.292108
 30
0.0
 11
3.543533
 21
11.138622
 31
0.0
  0
LINE
  5
19E
100
AcDbEntity
  8
LOGO
  6
CONTINUOUS2
 62
     7
100
AcDbLine
 10
3.510966
 20
11.335048
 30
0.0
 11
3.524094
 21
11.292108
 31
0.0
  0
LINE
  5
19F
100
AcDbEntity
  8
LOGO
  6
CONTINUOUS2
 62
     7
100
AcDbLine
 10
3.452737
 20
11.366009
 30
0.0
 11
3.510966
 21
11.335048
 31
0.0
  0
LINE
  5
1A0
100
AcDbEntity
  8
LOGO
  6
CONTINUOUS2
 62
     7
100
AcDbLine
 10
3.273697
 20
11.311272
 30
0.0
 11
3.452737
 21
11.366009
 31
0.0
  0
LINE
  5
1A1
100
AcDbEntity
  8
LOGO
  6
CONTINUOUS2
 62
     7
100
AcDbLine
 10
3.194688
 20
11.265296
 30
0.0
 11
3.273697
 21
11.311272
 31
0.0
  0
LINE
  5
1A2
100
AcDbEntity
  8
LOGO
  6
CONTINUOUS2
 62
     7
100
AcDbLine
 10
3.153249
 20
11.253169
 30
0.0
 11
3.194688
 21
11.265296
 31
0.0
  0
LINE
  5
1A3
100
AcDbEntity
  8
LOGO
  6
CONTINUOUS2
 62
     7
100
AcDbLine
 10
3.172815
 20
11.189172
 30
0.0
 11
3.153249
 21
11.253169
 31
0.0
  0
LINE
  5
1A4
100
AcDbEntity
  8
LOGO
  6
CONTINUOUS2
 62
     7
100
AcDbLine
 10
3.184861
 20
10.821316
 30
0.0
 11
3.172815
 21
11.189172
 31
0.0
  0
LINE
  5
1A5
100
AcDbEntity
  8
LOGO
  6
CONTINUOUS2
 62
     7
100
AcDbLine
 10
3.20885
 20
10.72353
 30
0.0
 11
3.184861
 21
10.821316
 31
0.0
  0
LINE
  5
1A6
100
AcDbEntity
  8
LOGO
  6
CONTINUOUS2
 62
     7
100
AcDbLine
 10
3.233879
 20
10.770602
 30
0.0
 11
3.20885
 21
10.72353
 31
0.0
  0
LINE
  5
1A7
100
AcDbEntity
  8
LOGO
  6
CONTINUOUS2
 62
     7
100
AcDbLine
 10
4.429814
 20
12.425469
 30
0.0
 11
4.271506
 21
13.08187
 31
0.0
  0
LINE
  5
1A8
100
AcDbEntity
  8
LOGO
  6
CONTINUOUS2
 62
     7
100
AcDbLine
 10
4.446879
 20
12.377342
 30
0.0
 11
4.429814
 21
12.425469
 31
0.0
  0
LINE
  5
1A9
100
AcDbEntity
  8
LOGO
  6
CONTINUOUS2
 62
     7
100
AcDbLine
 10
4.543064
 20
12.354912
 30
0.0
 11
4.446879
 21
12.377342
 31
0.0
  0
LINE
  5
1AA
100
AcDbEntity
  8
LOGO
  6
CONTINUOUS2
 62
     7
100
AcDbLine
 10
4.571253
 20
12.360697
 30
0.0
 11
4.543064
 21
12.354912
 31
0.0
  0
LINE
  5
1AB
100
AcDbEntity
  8
LOGO
  6
CONTINUOUS2
 62
     7
100
AcDbLine
 10
4.724766
 20
12.43801
 30
0.0
 11
4.571253
 21
12.360697
 31
0.0
  0
LINE
  5
1AC
100
AcDbEntity
  8
LOGO
  6
CONTINUOUS2
 62
     7
100
AcDbLine
 10
4.939841
 20
12.524319
 30
0.0
 11
4.724766
 21
12.43801
 31
0.0
  0
LINE
  5
1AD
100
AcDbEntity
  8
LOGO
  6
CONTINUOUS2
 62
     7
100
AcDbLine
 10
5.150425
 20
12.629266
 30
0.0
 11
4.939841
 21
12.524319
 31
0.0
  0
LINE
  5
1AE
100
AcDbEntity
  8
LOGO
  6
CONTINUOUS2
 62
     7
100
AcDbLine
 10
5.126114
 20
12.642146
 30
0.0
 11
5.150425
 21
12.629266
 31
0.0
  0
LINE
  5
1AF
100
AcDbEntity
  8
LOGO
  6
CONTINUOUS2
 62
     7
100
AcDbLine
 10
5.064048
 20
12.78266
 30
0.0
 11
5.126114
 21
12.642146
 31
0.0
  0
LINE
  5
1B0
100
AcDbEntity
  8
LOGO
  6
CONTINUOUS2
 62
     7
100
AcDbLine
 10
5.045788
 20
12.804924
 30
0.0
 11
5.064048
 21
12.78266
 31
0.0
  0
LINE
  5
1B1
100
AcDbEntity
  8
LOGO
  6
CONTINUOUS2
 62
     7
100
AcDbLine
 10
4.910224
 20
13.087459
 30
0.0
 11
5.045788
 21
12.804924
 31
0.0
  0
LINE
  5
1B2
100
AcDbEntity
  8
LOGO
  6
CONTINUOUS2
 62
     7
100
AcDbLine
 10
4.707967
 20
13.818607
 30
0.0
 11
4.910224
 21
13.087459
 31
0.0
  0
LINE
  5
1B3
100
AcDbEntity
  8
LOGO
  6
CONTINUOUS2
 62
     7
100
AcDbLine
 10
4.666832
 20
14.231334
 30
0.0
 11
4.707967
 21
13.818607
 31
0.0
  0
LINE
  5
1B4
100
AcDbEntity
  8
LOGO
  6
CONTINUOUS2
 62
     7
100
AcDbLine
 10
4.686189
 20
14.778406
 30
0.0
 11
4.666832
 21
14.231334
 31
0.0
  0
LINE
  5
1B5
100
AcDbEntity
  8
LOGO
  6
CONTINUOUS2
 62
     7
100
AcDbLine
 10
4.761468
 20
15.292004
 30
0.0
 11
4.686189
 21
14.778406
 31
0.0
  0
LINE
  5
1B6
100
AcDbEntity
  8
LOGO
  6
CONTINUOUS2
 62
     7
100
AcDbLine
 10
4.812926
 20
15.524306
 30
0.0
 11
4.761468
 21
15.292004
 31
0.0
  0
LINE
  5
1B7
100
AcDbEntity
  8
LOGO
  6
CONTINUOUS2
 62
     7
100
AcDbLine
 10
4.799603
 20
15.605342
 30
0.0
 11
4.812926
 21
15.524306
 31
0.0
  0
LINE
  5
1B8
100
AcDbEntity
  8
LOGO
  6
CONTINUOUS2
 62
     7
100
AcDbLine
 10
4.725632
 20
15.604003
 30
0.0
 11
4.799603
 21
15.605342
 31
0.0
  0
LINE
  5
1B9
100
AcDbEntity
  8
LOGO
  6
CONTINUOUS2
 62
     7
100
AcDbLine
 10
4.655672
 20
15.54006
 30
0.0
 11
4.725632
 21
15.604003
 31
0.0
  0
LINE
  5
1BA
100
AcDbEntity
  8
LOGO
  6
CONTINUOUS2
 62
     7
100
AcDbLine
 10
4.530223
 20
15.304123
 30
0.0
 11
4.655672
 21
15.54006
 31
0.0
  0
LINE
  5
1BB
100
AcDbEntity
  8
LOGO
  6
CONTINUOUS2
 62
     7
100
AcDbLine
 10
4.540368
 20
15.270939
 30
0.0
 11
4.530223
 21
15.304123
 31
0.0
  0
LINE
  5
1BC
100
AcDbEntity
  8
LOGO
  6
CONTINUOUS2
 62
     7
100
AcDbLine
 10
4.507184
 20
15.260794
 30
0.0
 11
4.540368
 21
15.270939
 31
0.0
  0
LINE
  5
1BD
100
AcDbEntity
  8
LOGO
  6
CONTINUOUS2
 62
     7
100
AcDbLine
 10
4.476223
 20
15.202565
 30
0.0
 11
4.507184
 21
15.260794
 31
0.0
  0
LINE
  5
1BE
100
AcDbEntity
  8
LOGO
  6
CONTINUOUS2
 62
     7
100
AcDbLine
 10
4.486386
 20
15.169326
 30
0.0
 11
4.476223
 21
15.202565
 31
0.0
  0
LINE
  5
1BF
100
AcDbEntity
  8
LOGO
  6
CONTINUOUS2
 62
     7
100
AcDbLine
 10
4.456841
 20
15.158907
 30
0.0
 11
4.486386
 21
15.169326
 31
0.0
  0
LINE
  5
1C0
100
AcDbEntity
  8
LOGO
  6
CONTINUOUS2
 62
     7
100
AcDbLine
 10
4.443674
 20
15.142042
 30
0.0
 11
4.456841
 21
15.158907
 31
0.0
  0
LINE
  5
1C1
100
AcDbEntity
  8
LOGO
  6
CONTINUOUS2
 62
     7
100
AcDbLine
 10
4.423255
 20
15.05485
 30
0.0
 11
4.443674
 21
15.142042
 31
0.0
  0
LINE
  5
1C2
100
AcDbEntity
  8
LOGO
  6
CONTINUOUS2
 62
     7
100
AcDbLine
 10
4.386071
 20
14.941074
 30
0.0
 11
4.423255
 21
15.05485
 31
0.0
  0
LINE
  5
1C3
100
AcDbEntity
  8
LOGO
  6
CONTINUOUS2
 62
     7
100
AcDbLine
 10
4.332072
 20
14.839516
 30
0.0
 11
4.386071
 21
14.941074
 31
0.0
  0
LINE
  5
1C4
100
AcDbEntity
  8
LOGO
  6
CONTINUOUS2
 62
     7
100
AcDbLine
 10
4.33474
 20
14.793136
 30
0.0
 11
4.332072
 21
14.839516
 31
0.0
  0
LINE
  5
1C5
100
AcDbEntity
  8
LOGO
  6
CONTINUOUS2
 62
     7
100
AcDbLine
 10
4.261333
 20
14.546468
 30
0.0
 11
4.33474
 21
14.793136
 31
0.0
  0
LINE
  5
1C6
100
AcDbEntity
  8
LOGO
  6
CONTINUOUS2
 62
     7
100
AcDbLine
 10
4.260765
 20
14.510672
 30
0.0
 11
4.261333
 21
14.546468
 31
0.0
  0
LINE
  5
1C7
100
AcDbEntity
  8
LOGO
  6
CONTINUOUS2
 62
     7
100
AcDbLine
 10
4.245429
 20
14.452398
 30
0.0
 11
4.260765
 21
14.510672
 31
0.0
  0
LINE
  5
1C8
100
AcDbEntity
  8
LOGO
  6
CONTINUOUS2
 62
     7
100
AcDbLine
 10
4.238138
 20
14.344747
 30
0.0
 11
4.245429
 21
14.452398
 31
0.0
  0
LINE
  5
1C9
100
AcDbEntity
  8
LOGO
  6
CONTINUOUS2
 62
     7
100
AcDbLine
 10
4.21572
 20
14.284007
 30
0.0
 11
4.238138
 21
14.344747
 31
0.0
  0
LINE
  5
1CA
100
AcDbEntity
  8
LOGO
  6
CONTINUOUS2
 62
     7
100
AcDbLine
 10
4.191287
 20
13.722786
 30
0.0
 11
4.21572
 21
14.284007
 31
0.0
  0
LINE
  5
1CB
100
AcDbEntity
  8
LOGO
  6
CONTINUOUS2
 62
     7
100
AcDbLine
 10
4.21533
 20
13.434968
 30
0.0
 11
4.191287
 21
13.722786
 31
0.0
  0
LINE
  5
1CC
100
AcDbEntity
  8
LOGO
  6
CONTINUOUS2
 62
     7
100
AcDbLine
 10
4.271506
 20
13.08187
 30
0.0
 11
4.21533
 21
13.434968
 31
0.0
  0
LINE
  5
1CD
100
AcDbEntity
  8
LOGO
  6
CONTINUOUS2
 62
     7
100
AcDbLine
 10
4.307906
 20
11.87019
 30
0.0
 11
4.222083
 21
11.661377
 31
0.0
  0
LINE
  5
1CE
100
AcDbEntity
  8
LOGO
  6
CONTINUOUS2
 62
     7
100
AcDbLine
 10
4.222083
 20
11.661377
 30
0.0
 11
4.201989
 21
11.648241
 31
0.0
  0
LINE
  5
1CF
100
AcDbEntity
  8
LOGO
  6
CONTINUOUS2
 62
     7
100
AcDbLine
 10
4.201989
 20
11.648241
 30
0.0
 11
4.198001
 21
11.591689
 31
0.0
  0
LINE
  5
1D0
100
AcDbEntity
  8
LOGO
  6
CONTINUOUS2
 62
     7
100
AcDbLine
 10
4.198001
 20
11.591689
 30
0.0
 11
4.238435
 21
10.690938
 31
0.0
  0
LINE
  5
1D1
100
AcDbEntity
  8
LOGO
  6
CONTINUOUS2
 62
     7
100
AcDbLine
 10
4.238435
 20
10.690938
 30
0.0
 11
4.268058
 21
10.53707
 31
0.0
  0
LINE
  5
1D2
100
AcDbEntity
  8
LOGO
  6
CONTINUOUS2
 62
     7
100
AcDbLine
 10
4.268058
 20
10.53707
 30
0.0
 11
4.307414
 21
10.470443
 31
0.0
  0
LINE
  5
1D3
100
AcDbEntity
  8
LOGO
  6
CONTINUOUS2
 62
     7
100
AcDbLine
 10
4.307414
 20
10.470443
 30
0.0
 11
4.316406
 21
10.439257
 31
0.0
  0
LINE
  5
1D4
100
AcDbEntity
  8
LOGO
  6
CONTINUOUS2
 62
     7
100
AcDbLine
 10
4.316406
 20
10.439257
 30
0.0
 11
4.437174
 21
10.394386
 31
0.0
  0
LINE
  5
1D5
100
AcDbEntity
  8
LOGO
  6
CONTINUOUS2
 62
     7
100
AcDbLine
 10
4.437174
 20
10.394386
 30
0.0
 11
4.580996
 21
10.392004
 31
0.0
  0
LINE
  5
1D6
100
AcDbEntity
  8
LOGO
  6
CONTINUOUS2
 62
     7
100
AcDbLine
 10
4.580996
 20
10.392004
 30
0.0
 11
5.003286
 21
10.561556
 31
0.0
  0
LINE
  5
1D7
100
AcDbEntity
  8
LOGO
  6
CONTINUOUS2
 62
     7
100
AcDbLine
 10
5.003286
 20
10.561556
 30
0.0
 11
5.252903
 21
10.684525
 31
0.0
  0
LINE
  5
1D8
100
AcDbEntity
  8
LOGO
  6
CONTINUOUS2
 62
     7
100
AcDbLine
 10
5.252903
 20
10.684525
 30
0.0
 11
5.341247
 21
10.758128
 31
0.0
  0
LINE
  5
1D9
100
AcDbEntity
  8
LOGO
  6
CONTINUOUS2
 62
     7
100
AcDbLine
 10
5.341247
 20
10.758128
 30
0.0
 11
5.397636
 21
10.82841
 31
0.0
  0
LINE
  5
1DA
100
AcDbEntity
  8
LOGO
  6
CONTINUOUS2
 62
     7
100
AcDbLine
 10
5.397636
 20
10.82841
 30
0.0
 11
5.517605
 21
11.066107
 31
0.0
  0
LINE
  5
1DB
100
AcDbEntity
  8
LOGO
  6
CONTINUOUS2
 62
     7
100
AcDbLine
 10
5.517605
 20
11.066107
 30
0.0
 11
5.541082
 21
11.15315
 31
0.0
  0
LINE
  5
1DC
100
AcDbEntity
  8
LOGO
  6
CONTINUOUS2
 62
     7
100
AcDbLine
 10
5.541082
 20
11.15315
 30
0.0
 11
5.541228
 21
11.257953
 31
0.0
  0
LINE
  5
1DD
100
AcDbEntity
  8
LOGO
  6
CONTINUOUS2
 62
     7
100
AcDbLine
 10
5.541228
 20
11.257953
 30
0.0
 11
5.527629
 21
11.360001
 31
0.0
  0
LINE
  5
1DE
100
AcDbEntity
  8
LOGO
  6
CONTINUOUS2
 62
     7
100
AcDbLine
 10
5.527629
 20
11.360001
 30
0.0
 11
5.531945
 21
11.585424
 31
0.0
  0
LINE
  5
1DF
100
AcDbEntity
  8
LOGO
  6
CONTINUOUS2
 62
     7
100
AcDbLine
 10
5.531945
 20
11.585424
 30
0.0
 11
5.493105
 21
12.200415
 31
0.0
  0
LINE
  5
1E0
100
AcDbEntity
  8
LOGO
  6
CONTINUOUS2
 62
     7
100
AcDbLine
 10
5.493105
 20
12.200415
 30
0.0
 11
5.478683
 21
12.240489
 31
0.0
  0
LINE
  5
1E1
100
AcDbEntity
  8
LOGO
  6
CONTINUOUS2
 62
     7
100
AcDbLine
 10
5.478683
 20
12.240489
 30
0.0
 11
5.324095
 21
12.364831
 31
0.0
  0
LINE
  5
1E2
100
AcDbEntity
  8
LOGO
  6
CONTINUOUS2
 62
     7
100
AcDbLine
 10
5.324095
 20
12.364831
 30
0.0
 11
5.302923
 21
12.362517
 31
0.0
  0
LINE
  5
1E3
100
AcDbEntity
  8
LOGO
  6
CONTINUOUS2
 62
     7
100
AcDbLine
 10
5.302923
 20
12.362517
 30
0.0
 11
5.289866
 21
12.35298
 31
0.0
  0
LINE
  5
1E4
100
AcDbEntity
  8
LOGO
  6
CONTINUOUS2
 62
     7
100
AcDbLine
 10
5.289866
 20
12.35298
 30
0.0
 11
5.258472
 21
12.36261
 31
0.0
  0
LINE
  5
1E5
100
AcDbEntity
  8
LOGO
  6
CONTINUOUS2
 62
     7
100
AcDbLine
 10
5.258472
 20
12.36261
 30
0.0
 11
5.159706
 21
12.373763
 31
0.0
  0
LINE
  5
1E6
100
AcDbEntity
  8
LOGO
  6
CONTINUOUS2
 62
     7
100
AcDbLine
 10
5.159706
 20
12.373763
 30
0.0
 11
5.013508
 21
12.33226
 31
0.0
  0
LINE
  5
1E7
100
AcDbEntity
  8
LOGO
  6
CONTINUOUS2
 62
     7
100
AcDbLine
 10
5.013508
 20
12.33226
 30
0.0
 11
4.990297
 21
12.303887
 31
0.0
  0
LINE
  5
1E8
100
AcDbEntity
  8
LOGO
  6
CONTINUOUS2
 62
     7
100
AcDbLine
 10
4.990297
 20
12.303887
 30
0.0
 11
4.519589
 21
12.089636
 31
0.0
  0
LINE
  5
1E9
100
AcDbEntity
  8
LOGO
  6
CONTINUOUS2
 62
     7
100
AcDbLine
 10
4.519589
 20
12.089636
 30
0.0
 11
4.477004
 21
12.047744
 31
0.0
  0
LINE
  5
1EA
100
AcDbEntity
  8
LOGO
  6
CONTINUOUS2
 62
     7
100
AcDbLine
 10
4.477004
 20
12.047744
 30
0.0
 11
4.426901
 21
12.025313
 31
0.0
  0
LINE
  5
1EB
100
AcDbEntity
  8
LOGO
  6
CONTINUOUS2
 62
     7
100
AcDbLine
 10
4.426901
 20
12.025313
 30
0.0
 11
4.307906
 21
11.87019
 31
0.0
  0
LINE
  5
1EC
100
AcDbEntity
  8
LOGO
  6
CONTINUOUS2
 62
     7
100
AcDbLine
 10
4.720045
 20
10.800328
 30
0.0
 11
4.678717
 21
11.658071
 31
0.0
  0
LINE
  5
1ED
100
AcDbEntity
  8
LOGO
  6
CONTINUOUS2
 62
     7
100
AcDbLine
 10
4.727873
 20
10.762698
 30
0.0
 11
4.720045
 21
10.800328
 31
0.0
  0
LINE
  5
1EE
100
AcDbEntity
  8
LOGO
  6
CONTINUOUS2
 62
     7
100
AcDbLine
 10
4.859153
 20
10.754614
 30
0.0
 11
4.727873
 21
10.762698
 31
0.0
  0
LINE
  5
1EF
100
AcDbEntity
  8
LOGO
  6
CONTINUOUS2
 62
     7
100
AcDbLine
 10
4.943485
 20
10.781602
 30
0.0
 11
4.859153
 21
10.754614
 31
0.0
  0
LINE
  5
1F0
100
AcDbEntity
  8
LOGO
  6
CONTINUOUS2
 62
     7
100
AcDbLine
 10
4.992393
 20
10.816024
 30
0.0
 11
4.943485
 21
10.781602
 31
0.0
  0
LINE
  5
1F1
100
AcDbEntity
  8
LOGO
  6
CONTINUOUS2
 62
     7
100
AcDbLine
 10
5.044548
 20
10.874524
 30
0.0
 11
4.992393
 21
10.816024
 31
0.0
  0
LINE
  5
1F2
100
AcDbEntity
  8
LOGO
  6
CONTINUOUS2
 62
     7
100
AcDbLine
 10
5.074607
 20
11.008846
 30
0.0
 11
5.044548
 21
10.874524
 31
0.0
  0
LINE
  5
1F3
100
AcDbEntity
  8
LOGO
  6
CONTINUOUS2
 62
     7
100
AcDbLine
 10
5.05452
 20
11.231872
 30
0.0
 11
5.074607
 21
11.008846
 31
0.0
  0
LINE
  5
1F4
100
AcDbEntity
  8
LOGO
  6
CONTINUOUS2
 62
     7
100
AcDbLine
 10
5.045741
 20
11.724291
 30
0.0
 11
5.05452
 21
11.231872
 31
0.0
  0
LINE
  5
1F5
100
AcDbEntity
  8
LOGO
  6
CONTINUOUS2
 62
     7
100
AcDbLine
 10
5.064398
 20
11.763026
 30
0.0
 11
5.045741
 21
11.724291
 31
0.0
  0
LINE
  5
1F6
100
AcDbEntity
  8
LOGO
  6
CONTINUOUS2
 62
     7
100
AcDbLine
 10
5.037779
 20
11.776949
 30
0.0
 11
5.064398
 21
11.763026
 31
0.0
  0
LINE
  5
1F7
100
AcDbEntity
  8
LOGO
  6
CONTINUOUS2
 62
     7
100
AcDbLine
 10
5.035354
 20
11.804597
 30
0.0
 11
5.037779
 21
11.776949
 31
0.0
  0
LINE
  5
1F8
100
AcDbEntity
  8
LOGO
  6
CONTINUOUS2
 62
     7
100
AcDbLine
 10
5.043757
 20
11.816147
 30
0.0
 11
5.035354
 21
11.804597
 31
0.0
  0
LINE
  5
1F9
100
AcDbEntity
  8
LOGO
  6
CONTINUOUS2
 62
     7
100
AcDbLine
 10
5.031901
 20
11.861827
 30
0.0
 11
5.043757
 21
11.816147
 31
0.0
  0
LINE
  5
1FA
100
AcDbEntity
  8
LOGO
  6
CONTINUOUS2
 62
     7
100
AcDbLine
 10
5.038239
 20
11.903788
 30
0.0
 11
5.031901
 21
11.861827
 31
0.0
  0
LINE
  5
1FB
100
AcDbEntity
  8
LOGO
  6
CONTINUOUS2
 62
     7
100
AcDbLine
 10
4.999562
 20
12.030296
 30
0.0
 11
5.038239
 21
11.903788
 31
0.0
  0
LINE
  5
1FC
100
AcDbEntity
  8
LOGO
  6
CONTINUOUS2
 62
     7
100
AcDbLine
 10
4.867724
 20
12.013195
 30
0.0
 11
4.999562
 21
12.030296
 31
0.0
  0
LINE
  5
1FD
100
AcDbEntity
  8
LOGO
  6
CONTINUOUS2
 62
     7
100
AcDbLine
 10
4.847758
 20
12.005162
 30
0.0
 11
4.867724
 21
12.013195
 31
0.0
  0
LINE
  5
1FE
100
AcDbEntity
  8
LOGO
  6
CONTINUOUS2
 62
     7
100
AcDbLine
 10
4.757654
 20
11.933372
 30
0.0
 11
4.847758
 21
12.005162
 31
0.0
  0
LINE
  5
1FF
100
AcDbEntity
  8
LOGO
  6
CONTINUOUS2
 62
     7
100
AcDbLine
 10
4.678641
 20
11.835559
 30
0.0
 11
4.757654
 21
11.933372
 31
0.0
  0
LINE
  5
200
100
AcDbEntity
  8
LOGO
  6
CONTINUOUS2
 62
     7
100
AcDbLine
 10
4.665858
 20
11.730689
 30
0.0
 11
4.678641
 21
11.835559
 31
0.0
  0
LINE
  5
201
100
AcDbEntity
  8
LOGO
  6
CONTINUOUS2
 62
     7
100
AcDbLine
 10
4.678717
 20
11.658071
 30
0.0
 11
4.665858
 21
11.730689
 31
0.0
  0
LINE
  5
202
100
AcDbEntity
  8
LOGO
  6
CONTINUOUS2
 62
     7
100
AcDbLine
 10
6.251422
 20
11.34362
 30
0.0
 11
6.203121
 21
12.753524
 31
0.0
  0
LINE
  5
203
100
AcDbEntity
  8
LOGO
  6
CONTINUOUS2
 62
     7
100
AcDbLine
 10
6.203121
 20
12.753524
 30
0.0
 11
6.177605
 21
12.836981
 31
0.0
  0
LINE
  5
204
100
AcDbEntity
  8
LOGO
  6
CONTINUOUS2
 62
     7
100
AcDbLine
 10
6.177605
 20
12.836981
 30
0.0
 11
6.144069
 21
12.824437
 31
0.0
  0
LINE
  5
205
100
AcDbEntity
  8
LOGO
  6
CONTINUOUS2
 62
     7
100
AcDbLine
 10
6.144069
 20
12.824437
 30
0.0
 11
6.115461
 21
12.796764
 31
0.0
  0
LINE
  5
206
100
AcDbEntity
  8
LOGO
  6
CONTINUOUS2
 62
     7
100
AcDbLine
 10
6.115461
 20
12.796764
 30
0.0
 11
5.804588
 21
12.661818
 31
0.0
  0
LINE
  5
207
100
AcDbEntity
  8
LOGO
  6
CONTINUOUS2
 62
     7
100
AcDbLine
 10
5.804588
 20
12.661818
 30
0.0
 11
5.598088
 21
12.56264
 31
0.0
  0
LINE
  5
208
100
AcDbEntity
  8
LOGO
  6
CONTINUOUS2
 62
     7
100
AcDbLine
 10
5.598088
 20
12.56264
 30
0.0
 11
5.569484
 21
12.561369
 31
0.0
  0
LINE
  5
209
100
AcDbEntity
  8
LOGO
  6
CONTINUOUS2
 62
     7
100
AcDbLine
 10
5.569484
 20
12.561369
 30
0.0
 11
5.545663
 21
12.542875
 31
0.0
  0
LINE
  5
20A
100
AcDbEntity
  8
LOGO
  6
CONTINUOUS2
 62
     7
100
AcDbLine
 10
5.545663
 20
12.542875
 30
0.0
 11
5.527788
 21
12.545548
 31
0.0
  0
LINE
  5
20B
100
AcDbEntity
  8
LOGO
  6
CONTINUOUS2
 62
     7
100
AcDbLine
 10
5.527788
 20
12.545548
 30
0.0
 11
5.5144
 21
12.538079
 31
0.0
  0
LINE
  5
20C
100
AcDbEntity
  8
LOGO
  6
CONTINUOUS2
 62
     7
100
AcDbLine
 10
5.5144
 20
12.538079
 30
0.0
 11
5.51022
 21
12.52336
 31
0.0
  0
LINE
  5
20D
100
AcDbEntity
  8
LOGO
  6
CONTINUOUS2
 62
     7
100
AcDbLine
 10
5.51022
 20
12.52336
 30
0.0
 11
5.517689
 21
12.509972
 31
0.0
  0
LINE
  5
20E
100
AcDbEntity
  8
LOGO
  6
CONTINUOUS2
 62
     7
100
AcDbLine
 10
5.517689
 20
12.509972
 30
0.0
 11
5.530671
 21
12.508516
 31
0.0
  0
LINE
  5
20F
100
AcDbEntity
  8
LOGO
  6
CONTINUOUS2
 62
     7
100
AcDbLine
 10
5.530671
 20
12.508516
 30
0.0
 11
5.712123
 21
12.412037
 31
0.0
  0
LINE
  5
210
100
AcDbEntity
  8
LOGO
  6
CONTINUOUS2
 62
     7
100
AcDbLine
 10
5.712123
 20
12.412037
 30
0.0
 11
5.750261
 21
12.287293
 31
0.0
  0
LINE
  5
211
100
AcDbEntity
  8
LOGO
  6
CONTINUOUS2
 62
     7
100
AcDbLine
 10
5.750261
 20
12.287293
 30
0.0
 11
5.742257
 21
12.207994
 31
0.0
  0
LINE
  5
212
100
AcDbEntity
  8
LOGO
  6
CONTINUOUS2
 62
     7
100
AcDbLine
 10
5.742257
 20
12.207994
 30
0.0
 11
5.786203
 21
10.98741
 31
0.0
  0
LINE
  5
213
100
AcDbEntity
  8
LOGO
  6
CONTINUOUS2
 62
     7
100
AcDbLine
 10
5.786203
 20
10.98741
 30
0.0
 11
5.816494
 21
10.97232
 31
0.0
  0
LINE
  5
214
100
AcDbEntity
  8
LOGO
  6
CONTINUOUS2
 62
     7
100
AcDbLine
 10
5.816494
 20
10.97232
 30
0.0
 11
5.801028
 21
10.948183
 31
0.0
  0
LINE
  5
215
100
AcDbEntity
  8
LOGO
  6
CONTINUOUS2
 62
     7
100
AcDbLine
 10
5.801028
 20
10.948183
 30
0.0
 11
5.798593
 21
10.894637
 31
0.0
  0
LINE
  5
216
100
AcDbEntity
  8
LOGO
  6
CONTINUOUS2
 62
     7
100
AcDbLine
 10
5.798593
 20
10.894637
 30
0.0
 11
5.858256
 21
10.950068
 31
0.0
  0
LINE
  5
217
100
AcDbEntity
  8
LOGO
  6
CONTINUOUS2
 62
     7
100
AcDbLine
 10
5.858256
 20
10.950068
 30
0.0
 11
5.878037
 21
10.941951
 31
0.0
  0
LINE
  5
218
100
AcDbEntity
  8
LOGO
  6
CONTINUOUS2
 62
     7
100
AcDbLine
 10
5.878037
 20
10.941951
 30
0.0
 11
5.899235
 21
10.944574
 31
0.0
  0
LINE
  5
219
100
AcDbEntity
  8
LOGO
  6
CONTINUOUS2
 62
     7
100
AcDbLine
 10
5.899235
 20
10.944574
 30
0.0
 11
5.916367
 21
10.957346
 31
0.0
  0
LINE
  5
21A
100
AcDbEntity
  8
LOGO
  6
CONTINUOUS2
 62
     7
100
AcDbLine
 10
5.916367
 20
10.957346
 30
0.0
 11
5.924299
 21
10.973394
 31
0.0
  0
LINE
  5
21B
100
AcDbEntity
  8
LOGO
  6
CONTINUOUS2
 62
     7
100
AcDbLine
 10
5.924299
 20
10.973394
 30
0.0
 11
6.276175
 21
11.123467
 31
0.0
  0
LINE
  5
21C
100
AcDbEntity
  8
LOGO
  6
CONTINUOUS2
 62
     7
100
AcDbLine
 10
6.276175
 20
11.123467
 30
0.0
 11
6.259098
 21
11.17834
 31
0.0
  0
LINE
  5
21D
100
AcDbEntity
  8
LOGO
  6
CONTINUOUS2
 62
     7
100
AcDbLine
 10
6.259098
 20
11.17834
 30
0.0
 11
6.26396
 21
11.266925
 31
0.0
  0
LINE
  5
21E
100
AcDbEntity
  8
LOGO
  6
CONTINUOUS2
 62
     7
100
AcDbLine
 10
6.26396
 20
11.266925
 30
0.0
 11
6.251422
 21
11.34362
 31
0.0
  0
LINE
  5
21F
100
AcDbEntity
  8
LOGO
  6
CONTINUOUS2
 62
     7
100
AcDbLine
 10
6.467852
 20
12.264977
 30
0.0
 11
7.044893
 21
11.94768
 31
0.0
  0
LINE
  5
220
100
AcDbEntity
  8
LOGO
  6
CONTINUOUS2
 62
     7
100
AcDbLine
 10
6.406511
 20
12.356589
 30
0.0
 11
6.467852
 21
12.264977
 31
0.0
  0
LINE
  5
221
100
AcDbEntity
  8
LOGO
  6
CONTINUOUS2
 62
     7
100
AcDbLine
 10
6.385042
 20
12.645254
 30
0.0
 11
6.406511
 21
12.356589
 31
0.0
  0
LINE
  5
222
100
AcDbEntity
  8
LOGO
  6
CONTINUOUS2
 62
     7
100
AcDbLine
 10
6.403828
 20
12.646899
 30
0.0
 11
6.385042
 21
12.645254
 31
0.0
  0
LINE
  5
223
100
AcDbEntity
  8
LOGO
  6
CONTINUOUS2
 62
     7
100
AcDbLine
 10
6.469082
 20
12.790112
 30
0.0
 11
6.403828
 21
12.646899
 31
0.0
  0
LINE
  5
224
100
AcDbEntity
  8
LOGO
  6
CONTINUOUS2
 62
     7
100
AcDbLine
 10
6.460111
 20
12.817086
 30
0.0
 11
6.469082
 21
12.790112
 31
0.0
  0
LINE
  5
225
100
AcDbEntity
  8
LOGO
  6
CONTINUOUS2
 62
     7
100
AcDbLine
 10
6.506889
 20
12.850193
 30
0.0
 11
6.460111
 21
12.817086
 31
0.0
  0
LINE
  5
226
100
AcDbEntity
  8
LOGO
  6
CONTINUOUS2
 62
     7
100
AcDbLine
 10
6.531205
 20
12.896445
 30
0.0
 11
6.506889
 21
12.850193
 31
0.0
  0
LINE
  5
227
100
AcDbEntity
  8
LOGO
  6
CONTINUOUS2
 62
     7
100
AcDbLine
 10
6.58496
 20
12.961341
 30
0.0
 11
6.531205
 21
12.896445
 31
0.0
  0
LINE
  5
228
100
AcDbEntity
  8
LOGO
  6
CONTINUOUS2
 62
     7
100
AcDbLine
 10
6.813419
 20
13.108762
 30
0.0
 11
6.58496
 21
12.961341
 31
0.0
  0
LINE
  5
229
100
AcDbEntity
  8
LOGO
  6
CONTINUOUS2
 62
     7
100
AcDbLine
 10
7.032713
 20
13.204739
 30
0.0
 11
6.813419
 21
13.108762
 31
0.0
  0
LINE
  5
22A
100
AcDbEntity
  8
LOGO
  6
CONTINUOUS2
 62
     7
100
AcDbLine
 10
7.150312
 20
13.250276
 30
0.0
 11
7.032713
 21
13.204739
 31
0.0
  0
LINE
  5
22B
100
AcDbEntity
  8
LOGO
  6
CONTINUOUS2
 62
     7
100
AcDbLine
 10
7.236369
 20
13.263145
 30
0.0
 11
7.150312
 21
13.250276
 31
0.0
  0
LINE
  5
22C
100
AcDbEntity
  8
LOGO
  6
CONTINUOUS2
 62
     7
100
AcDbLine
 10
7.381345
 20
13.210064
 30
0.0
 11
7.236369
 21
13.263145
 31
0.0
  0
LINE
  5
22D
100
AcDbEntity
  8
LOGO
  6
CONTINUOUS2
 62
     7
100
AcDbLine
 10
7.435016
 20
13.137627
 30
0.0
 11
7.381345
 21
13.210064
 31
0.0
  0
LINE
  5
22E
100
AcDbEntity
  8
LOGO
  6
CONTINUOUS2
 62
     7
100
AcDbLine
 10
7.479556
 20
13.023882
 30
0.0
 11
7.435016
 21
13.137627
 31
0.0
  0
LINE
  5
22F
100
AcDbEntity
  8
LOGO
  6
CONTINUOUS2
 62
     7
100
AcDbLine
 10
7.482115
 20
13.002302
 30
0.0
 11
7.479556
 21
13.023882
 31
0.0
  0
LINE
  5
230
100
AcDbEntity
  8
LOGO
  6
CONTINUOUS2
 62
     7
100
AcDbLine
 10
7.456174
 20
12.969056
 30
0.0
 11
7.482115
 21
13.002302
 31
0.0
  0
LINE
  5
231
100
AcDbEntity
  8
LOGO
  6
CONTINUOUS2
 62
     7
100
AcDbLine
 10
7.313326
 20
12.916401
 30
0.0
 11
7.456174
 21
12.969056
 31
0.0
  0
LINE
  5
232
100
AcDbEntity
  8
LOGO
  6
CONTINUOUS2
 62
     7
100
AcDbLine
 10
7.242743
 20
12.875594
 30
0.0
 11
7.313326
 21
12.916401
 31
0.0
  0
LINE
  5
233
100
AcDbEntity
  8
LOGO
  6
CONTINUOUS2
 62
     7
100
AcDbLine
 10
7.23314
 20
12.862049
 30
0.0
 11
7.242743
 21
12.875594
 31
0.0
  0
LINE
  5
234
100
AcDbEntity
  8
LOGO
  6
CONTINUOUS2
 62
     7
100
AcDbLine
 10
7.186921
 20
12.982273
 30
0.0
 11
7.23314
 21
12.862049
 31
0.0
  0
LINE
  5
235
100
AcDbEntity
  8
LOGO
  6
CONTINUOUS2
 62
     7
100
AcDbLine
 10
7.166123
 20
13.011658
 30
0.0
 11
7.186921
 21
12.982273
 31
0.0
  0
LINE
  5
236
100
AcDbEntity
  8
LOGO
  6
CONTINUOUS2
 62
     7
100
AcDbLine
 10
6.974961
 20
12.932298
 30
0.0
 11
7.166123
 21
13.011658
 31
0.0
  0
LINE
  5
237
100
AcDbEntity
  8
LOGO
  6
CONTINUOUS2
 62
     7
100
AcDbLine
 10
6.909235
 20
12.884477
 30
0.0
 11
6.974961
 21
12.932298
 31
0.0
  0
LINE
  5
238
100
AcDbEntity
  8
LOGO
  6
CONTINUOUS2
 62
     7
100
AcDbLine
 10
6.86925
 20
12.832109
 30
0.0
 11
6.909235
 21
12.884477
 31
0.0
  0
LINE
  5
239
100
AcDbEntity
  8
LOGO
  6
CONTINUOUS2
 62
     7
100
AcDbLine
 10
6.851893
 20
12.717945
 30
0.0
 11
6.86925
 21
12.832109
 31
0.0
  0
LINE
  5
23A
100
AcDbEntity
  8
LOGO
  6
CONTINUOUS2
 62
     7
100
AcDbLine
 10
6.872184
 20
12.651577
 30
0.0
 11
6.851893
 21
12.717945
 31
0.0
  0
LINE
  5
23B
100
AcDbEntity
  8
LOGO
  6
CONTINUOUS2
 62
     7
100
AcDbLine
 10
7.451195
 20
12.337895
 30
0.0
 11
6.872184
 21
12.651577
 31
0.0
  0
LINE
  5
23C
100
AcDbEntity
  8
LOGO
  6
CONTINUOUS2
 62
     7
100
AcDbLine
 10
7.512729
 20
12.250382
 30
0.0
 11
7.451195
 21
12.337895
 31
0.0
  0
LINE
  5
23D
100
AcDbEntity
  8
LOGO
  6
CONTINUOUS2
 62
     7
100
AcDbLine
 10
7.522151
 20
12.106793
 30
0.0
 11
7.512729
 21
12.250382
 31
0.0
  0
LINE
  5
23E
100
AcDbEntity
  8
LOGO
  6
CONTINUOUS2
 62
     7
100
AcDbLine
 10
7.494085
 20
11.904246
 30
0.0
 11
7.522151
 21
12.106793
 31
0.0
  0
LINE
  5
23F
100
AcDbEntity
  8
LOGO
  6
CONTINUOUS2
 62
     7
100
AcDbLine
 10
7.478941
 20
11.860919
 30
0.0
 11
7.494085
 21
11.904246
 31
0.0
  0
LINE
  5
240
100
AcDbEntity
  8
LOGO
  6
CONTINUOUS2
 62
     7
100
AcDbLine
 10
7.483985
 20
11.832987
 30
0.0
 11
7.478941
 21
11.860919
 31
0.0
  0
LINE
  5
241
100
AcDbEntity
  8
LOGO
  6
CONTINUOUS2
 62
     7
100
AcDbLine
 10
7.450801
 20
11.822841
 30
0.0
 11
7.483985
 21
11.832987
 31
0.0
  0
LINE
  5
242
100
AcDbEntity
  8
LOGO
  6
CONTINUOUS2
 62
     7
100
AcDbLine
 10
7.292042
 20
11.613248
 30
0.0
 11
7.450801
 21
11.822841
 31
0.0
  0
LINE
  5
243
100
AcDbEntity
  8
LOGO
  6
CONTINUOUS2
 62
     7
100
AcDbLine
 10
7.250712
 20
11.571981
 30
0.0
 11
7.292042
 21
11.613248
 31
0.0
  0
LINE
  5
244
100
AcDbEntity
  8
LOGO
  6
CONTINUOUS2
 62
     7
100
AcDbLine
 10
7.230096
 20
11.561338
 30
0.0
 11
7.250712
 21
11.571981
 31
0.0
  0
LINE
  5
245
100
AcDbEntity
  8
LOGO
  6
CONTINUOUS2
 62
     7
100
AcDbLine
 10
7.216336
 20
11.544835
 30
0.0
 11
7.230096
 21
11.561338
 31
0.0
  0
LINE
  5
246
100
AcDbEntity
  8
LOGO
  6
CONTINUOUS2
 62
     7
100
AcDbLine
 10
7.140984
 20
11.494192
 30
0.0
 11
7.216336
 21
11.544835
 31
0.0
  0
LINE
  5
247
100
AcDbEntity
  8
LOGO
  6
CONTINUOUS2
 62
     7
100
AcDbLine
 10
7.012033
 20
11.442411
 30
0.0
 11
7.140984
 21
11.494192
 31
0.0
  0
LINE
  5
248
100
AcDbEntity
  8
LOGO
  6
CONTINUOUS2
 62
     7
100
AcDbLine
 10
6.987428
 20
11.426088
 30
0.0
 11
7.012033
 21
11.442411
 31
0.0
  0
LINE
  5
249
100
AcDbEntity
  8
LOGO
  6
CONTINUOUS2
 62
     7
100
AcDbLine
 10
6.661844
 20
11.337095
 30
0.0
 11
6.987428
 21
11.426088
 31
0.0
  0
LINE
  5
24A
100
AcDbEntity
  8
LOGO
  6
CONTINUOUS2
 62
     7
100
AcDbLine
 10
6.577967
 20
11.353765
 30
0.0
 11
6.661844
 21
11.337095
 31
0.0
  0
LINE
  5
24B
100
AcDbEntity
  8
LOGO
  6
CONTINUOUS2
 62
     7
100
AcDbLine
 10
6.457429
 20
11.458018
 30
0.0
 11
6.577967
 21
11.353765
 31
0.0
  0
LINE
  5
24C
100
AcDbEntity
  8
LOGO
  6
CONTINUOUS2
 62
     7
100
AcDbLine
 10
6.43389
 20
11.586863
 30
0.0
 11
6.457429
 21
11.458018
 31
0.0
  0
LINE
  5
24D
100
AcDbEntity
  8
LOGO
  6
CONTINUOUS2
 62
     7
100
AcDbLine
 10
6.45655
 20
11.646411
 30
0.0
 11
6.43389
 21
11.586863
 31
0.0
  0
LINE
  5
24E
100
AcDbEntity
  8
LOGO
  6
CONTINUOUS2
 62
     7
100
AcDbLine
 10
6.676257
 20
11.745769
 30
0.0
 11
6.45655
 21
11.646411
 31
0.0
  0
LINE
  5
24F
100
AcDbEntity
  8
LOGO
  6
CONTINUOUS2
 62
     7
100
AcDbLine
 10
6.693202
 20
11.759148
 30
0.0
 11
6.676257
 21
11.745769
 31
0.0
  0
LINE
  5
250
100
AcDbEntity
  8
LOGO
  6
CONTINUOUS2
 62
     7
100
AcDbLine
 10
6.692818
 20
11.708158
 30
0.0
 11
6.693202
 21
11.759148
 31
0.0
  0
LINE
  5
251
100
AcDbEntity
  8
LOGO
  6
CONTINUOUS2
 62
     7
100
AcDbLine
 10
6.725547
 20
11.601109
 30
0.0
 11
6.692818
 21
11.708158
 31
0.0
  0
LINE
  5
252
100
AcDbEntity
  8
LOGO
  6
CONTINUOUS2
 62
     7
100
AcDbLine
 10
6.770142
 20
11.614743
 30
0.0
 11
6.725547
 21
11.601109
 31
0.0
  0
LINE
  5
253
100
AcDbEntity
  8
LOGO
  6
CONTINUOUS2
 62
     7
100
AcDbLine
 10
6.795549
 20
11.601233
 30
0.0
 11
6.770142
 21
11.614743
 31
0.0
  0
LINE
  5
254
100
AcDbEntity
  8
LOGO
  6
CONTINUOUS2
 62
     7
100
AcDbLine
 10
6.873406
 20
11.631064
 30
0.0
 11
6.795549
 21
11.601233
 31
0.0
  0
LINE
  5
255
100
AcDbEntity
  8
LOGO
  6
CONTINUOUS2
 62
     7
100
AcDbLine
 10
6.979282
 20
11.699961
 30
0.0
 11
6.873406
 21
11.631064
 31
0.0
  0
LINE
  5
256
100
AcDbEntity
  8
LOGO
  6
CONTINUOUS2
 62
     7
100
AcDbLine
 10
7.005631
 20
11.708017
 30
0.0
 11
6.979282
 21
11.699961
 31
0.0
  0
LINE
  5
257
100
AcDbEntity
  8
LOGO
  6
CONTINUOUS2
 62
     7
100
AcDbLine
 10
7.034695
 20
11.762591
 30
0.0
 11
7.005631
 21
11.708017
 31
0.0
  0
LINE
  5
258
100
AcDbEntity
  8
LOGO
  6
CONTINUOUS2
 62
     7
100
AcDbLine
 10
7.032303
 20
11.789345
 30
0.0
 11
7.034695
 21
11.762591
 31
0.0
  0
LINE
  5
259
100
AcDbEntity
  8
LOGO
  6
CONTINUOUS2
 62
     7
100
AcDbLine
 10
7.063982
 20
11.860994
 30
0.0
 11
7.032303
 21
11.789345
 31
0.0
  0
LINE
  5
25A
100
AcDbEntity
  8
LOGO
  6
CONTINUOUS2
 62
     7
100
AcDbLine
 10
7.044893
 20
11.94768
 30
0.0
 11
7.063982
 21
11.860994
 31
0.0
  0
LINE
  5
25B
100
AcDbEntity
  8
LOGO
  6
CONTINUOUS2
 62
     7
100
AcDbLine
 10
6.846771
 20
10.75411
 30
0.0
 11
7.343276
 21
10.997345
 31
0.0
  0
LINE
  5
25C
100
AcDbEntity
  8
LOGO
  6
CONTINUOUS2
 62
     7
100
AcDbLine
 10
6.809931
 20
10.709394
 30
0.0
 11
6.846771
 21
10.75411
 31
0.0
  0
LINE
  5
25D
100
AcDbEntity
  8
LOGO
  6
CONTINUOUS2
 62
     7
100
AcDbLine
 10
6.78096
 20
10.654909
 30
0.0
 11
6.809931
 21
10.709394
 31
0.0
  0
LINE
  5
25E
100
AcDbEntity
  8
LOGO
  6
CONTINUOUS2
 62
     7
100
AcDbLine
 10
6.80133
 20
10.514546
 30
0.0
 11
6.78096
 21
10.654909
 31
0.0
  0
LINE
  5
25F
100
AcDbEntity
  8
LOGO
  6
CONTINUOUS2
 62
     7
100
AcDbLine
 10
6.848819
 20
10.469031
 30
0.0
 11
6.80133
 21
10.514546
 31
0.0
  0
LINE
  5
260
100
AcDbEntity
  8
LOGO
  6
CONTINUOUS2
 62
     7
100
AcDbLine
 10
7.356141
 20
10.216732
 30
0.0
 11
6.848819
 21
10.469031
 31
0.0
  0
LINE
  5
261
100
AcDbEntity
  8
LOGO
  6
CONTINUOUS2
 62
     7
100
AcDbLine
 10
7.36716
 20
10.198041
 30
0.0
 11
7.356141
 21
10.216732
 31
0.0
  0
LINE
  5
262
100
AcDbEntity
  8
LOGO
  6
CONTINUOUS2
 62
     7
100
AcDbLine
 10
7.425697
 20
10.140834
 30
0.0
 11
7.36716
 21
10.198041
 31
0.0
  0
LINE
  5
263
100
AcDbEntity
  8
LOGO
  6
CONTINUOUS2
 62
     7
100
AcDbLine
 10
7.444813
 20
10.042823
 30
0.0
 11
7.425697
 21
10.140834
 31
0.0
  0
LINE
  5
264
100
AcDbEntity
  8
LOGO
  6
CONTINUOUS2
 62
     7
100
AcDbLine
 10
7.446581
 20
9.998398
 30
0.0
 11
7.444813
 21
10.042823
 31
0.0
  0
LINE
  5
265
100
AcDbEntity
  8
LOGO
  6
CONTINUOUS2
 62
     7
100
AcDbLine
 10
7.421523
 20
9.77694
 30
0.0
 11
7.446581
 21
9.998398
 31
0.0
  0
LINE
  5
266
100
AcDbEntity
  8
LOGO
  6
CONTINUOUS2
 62
     7
100
AcDbLine
 10
7.406342
 20
9.733542
 30
0.0
 11
7.421523
 21
9.77694
 31
0.0
  0
LINE
  5
267
100
AcDbEntity
  8
LOGO
  6
CONTINUOUS2
 62
     7
100
AcDbLine
 10
7.411385
 20
9.705609
 30
0.0
 11
7.406342
 21
9.733542
 31
0.0
  0
LINE
  5
268
100
AcDbEntity
  8
LOGO
  6
CONTINUOUS2
 62
     7
100
AcDbLine
 10
7.391434
 20
9.701076
 30
0.0
 11
7.411385
 21
9.705609
 31
0.0
  0
LINE
  5
269
100
AcDbEntity
  8
LOGO
  6
CONTINUOUS2
 62
     7
100
AcDbLine
 10
7.377976
 20
9.687921
 30
0.0
 11
7.391434
 21
9.701076
 31
0.0
  0
LINE
  5
26A
100
AcDbEntity
  8
LOGO
  6
CONTINUOUS2
 62
     7
100
AcDbLine
 10
7.370714
 20
9.653513
 30
0.0
 11
7.377976
 21
9.687921
 31
0.0
  0
LINE
  5
26B
100
AcDbEntity
  8
LOGO
  6
CONTINUOUS2
 62
     7
100
AcDbLine
 10
7.162133
 20
9.415246
 30
0.0
 11
7.370714
 21
9.653513
 31
0.0
  0
LINE
  5
26C
100
AcDbEntity
  8
LOGO
  6
CONTINUOUS2
 62
     7
100
AcDbLine
 10
7.060369
 20
9.372923
 30
0.0
 11
7.162133
 21
9.415246
 31
0.0
  0
LINE
  5
26D
100
AcDbEntity
  8
LOGO
  6
CONTINUOUS2
 62
     7
100
AcDbLine
 10
6.901238
 20
9.291903
 30
0.0
 11
7.060369
 21
9.372923
 31
0.0
  0
LINE
  5
26E
100
AcDbEntity
  8
LOGO
  6
CONTINUOUS2
 62
     7
100
AcDbLine
 10
6.620786
 20
9.187776
 30
0.0
 11
6.901238
 21
9.291903
 31
0.0
  0
LINE
  5
26F
100
AcDbEntity
  8
LOGO
  6
CONTINUOUS2
 62
     7
100
AcDbLine
 10
6.535023
 20
9.183014
 30
0.0
 11
6.620786
 21
9.187776
 31
0.0
  0
LINE
  5
270
100
AcDbEntity
  8
LOGO
  6
CONTINUOUS2
 62
     7
100
AcDbLine
 10
6.449768
 20
9.213066
 30
0.0
 11
6.535023
 21
9.183014
 31
0.0
  0
LINE
  5
271
100
AcDbEntity
  8
LOGO
  6
CONTINUOUS2
 62
     7
100
AcDbLine
 10
6.414799
 20
9.209547
 30
0.0
 11
6.449768
 21
9.213066
 31
0.0
  0
LINE
  5
272
100
AcDbEntity
  8
LOGO
  6
CONTINUOUS2
 62
     7
100
AcDbLine
 10
6.403633
 20
9.236211
 30
0.0
 11
6.414799
 21
9.209547
 31
0.0
  0
LINE
  5
273
100
AcDbEntity
  8
LOGO
  6
CONTINUOUS2
 62
     7
100
AcDbLine
 10
6.384372
 20
9.250515
 30
0.0
 11
6.403633
 21
9.236211
 31
0.0
  0
LINE
  5
274
100
AcDbEntity
  8
LOGO
  6
CONTINUOUS2
 62
     7
100
AcDbLine
 10
6.371424
 20
9.27591
 30
0.0
 11
6.384372
 21
9.250515
 31
0.0
  0
LINE
  5
275
100
AcDbEntity
  8
LOGO
  6
CONTINUOUS2
 62
     7
100
AcDbLine
 10
6.346153
 20
9.294886
 30
0.0
 11
6.371424
 21
9.27591
 31
0.0
  0
LINE
  5
276
100
AcDbEntity
  8
LOGO
  6
CONTINUOUS2
 62
     7
100
AcDbLine
 10
6.331266
 20
9.36586
 30
0.0
 11
6.346153
 21
9.294886
 31
0.0
  0
LINE
  5
277
100
AcDbEntity
  8
LOGO
  6
CONTINUOUS2
 62
     7
100
AcDbLine
 10
6.331563
 20
9.4818
 30
0.0
 11
6.331266
 21
9.36586
 31
0.0
  0
LINE
  5
278
100
AcDbEntity
  8
LOGO
  6
CONTINUOUS2
 62
     7
100
AcDbLine
 10
6.517122
 20
9.547151
 30
0.0
 11
6.331563
 21
9.4818
 31
0.0
  0
LINE
  5
279
100
AcDbEntity
  8
LOGO
  6
CONTINUOUS2
 62
     7
100
AcDbLine
 10
6.559886
 20
9.575053
 30
0.0
 11
6.517122
 21
9.547151
 31
0.0
  0
LINE
  5
27A
100
AcDbEntity
  8
LOGO
  6
CONTINUOUS2
 62
     7
100
AcDbLine
 10
6.597866
 20
9.584495
 30
0.0
 11
6.559886
 21
9.575053
 31
0.0
  0
LINE
  5
27B
100
AcDbEntity
  8
LOGO
  6
CONTINUOUS2
 62
     7
100
AcDbLine
 10
6.592042
 20
9.533951
 30
0.0
 11
6.597866
 21
9.584495
 31
0.0
  0
LINE
  5
27C
100
AcDbEntity
  8
LOGO
  6
CONTINUOUS2
 62
     7
100
AcDbLine
 10
6.620034
 20
9.442392
 30
0.0
 11
6.592042
 21
9.533951
 31
0.0
  0
LINE
  5
27D
100
AcDbEntity
  8
LOGO
  6
CONTINUOUS2
 62
     7
100
AcDbLine
 10
6.684087
 20
9.461975
 30
0.0
 11
6.620034
 21
9.442392
 31
0.0
  0
LINE
  5
27E
100
AcDbEntity
  8
LOGO
  6
CONTINUOUS2
 62
     7
100
AcDbLine
 10
6.709478
 20
9.44852
 30
0.0
 11
6.684087
 21
9.461975
 31
0.0
  0
LINE
  5
27F
100
AcDbEntity
  8
LOGO
  6
CONTINUOUS2
 62
     7
100
AcDbLine
 10
6.775095
 20
9.475212
 30
0.0
 11
6.709478
 21
9.44852
 31
0.0
  0
LINE
  5
280
100
AcDbEntity
  8
LOGO
  6
CONTINUOUS2
 62
     7
100
AcDbLine
 10
6.893229
 20
9.547193
 30
0.0
 11
6.775095
 21
9.475212
 31
0.0
  0
LINE
  5
281
100
AcDbEntity
  8
LOGO
  6
CONTINUOUS2
 62
     7
100
AcDbLine
 10
6.919522
 20
9.555231
 30
0.0
 11
6.893229
 21
9.547193
 31
0.0
  0
LINE
  5
282
100
AcDbEntity
  8
LOGO
  6
CONTINUOUS2
 62
     7
100
AcDbLine
 10
6.950483
 20
9.61346
 30
0.0
 11
6.919522
 21
9.555231
 31
0.0
  0
LINE
  5
283
100
AcDbEntity
  8
LOGO
  6
CONTINUOUS2
 62
     7
100
AcDbLine
 10
6.964221
 20
9.749904
 30
0.0
 11
6.950483
 21
9.61346
 31
0.0
  0
LINE
  5
284
100
AcDbEntity
  8
LOGO
  6
CONTINUOUS2
 62
     7
100
AcDbLine
 10
6.928713
 20
9.823856
 30
0.0
 11
6.964221
 21
9.749904
 31
0.0
  0
LINE
  5
285
100
AcDbEntity
  8
LOGO
  6
CONTINUOUS2
 62
     7
100
AcDbLine
 10
6.370044
 20
10.106687
 30
0.0
 11
6.928713
 21
9.823856
 31
0.0
  0
LINE
  5
286
100
AcDbEntity
  8
LOGO
  6
CONTINUOUS2
 62
     7
100
AcDbLine
 10
6.33626
 20
10.156272
 30
0.0
 11
6.370044
 21
10.106687
 31
0.0
  0
LINE
  5
287
100
AcDbEntity
  8
LOGO
  6
CONTINUOUS2
 62
     7
100
AcDbLine
 10
6.331572
 20
10.177322
 30
0.0
 11
6.33626
 21
10.156272
 31
0.0
  0
LINE
  5
288
100
AcDbEntity
  8
LOGO
  6
CONTINUOUS2
 62
     7
100
AcDbLine
 10
6.312318
 20
10.188252
 30
0.0
 11
6.331572
 21
10.177322
 31
0.0
  0
LINE
  5
289
100
AcDbEntity
  8
LOGO
  6
CONTINUOUS2
 62
     7
100
AcDbLine
 10
6.301345
 20
10.206597
 30
0.0
 11
6.312318
 21
10.188252
 31
0.0
  0
LINE
  5
28A
100
AcDbEntity
  8
LOGO
  6
CONTINUOUS2
 62
     7
100
AcDbLine
 10
6.29945
 20
10.407579
 30
0.0
 11
6.301345
 21
10.206597
 31
0.0
  0
LINE
  5
28B
100
AcDbEntity
  8
LOGO
  6
CONTINUOUS2
 62
     7
100
AcDbLine
 10
6.372255
 20
10.64261
 30
0.0
 11
6.29945
 21
10.407579
 31
0.0
  0
LINE
  5
28C
100
AcDbEntity
  8
LOGO
  6
CONTINUOUS2
 62
     7
100
AcDbLine
 10
6.403217
 20
10.673232
 30
0.0
 11
6.372255
 21
10.64261
 31
0.0
  0
LINE
  5
28D
100
AcDbEntity
  8
LOGO
  6
CONTINUOUS2
 62
     7
100
AcDbLine
 10
6.402314
 20
10.691762
 30
0.0
 11
6.403217
 21
10.673232
 31
0.0
  0
LINE
  5
28E
100
AcDbEntity
  8
LOGO
  6
CONTINUOUS2
 62
     7
100
AcDbLine
 10
6.410973
 20
10.711347
 30
0.0
 11
6.402314
 21
10.691762
 31
0.0
  0
LINE
  5
28F
100
AcDbEntity
  8
LOGO
  6
CONTINUOUS2
 62
     7
100
AcDbLine
 10
6.535469
 20
10.842957
 30
0.0
 11
6.410973
 21
10.711347
 31
0.0
  0
LINE
  5
290
100
AcDbEntity
  8
LOGO
  6
CONTINUOUS2
 62
     7
100
AcDbLine
 10
6.546308
 20
10.86586
 30
0.0
 11
6.535469
 21
10.842957
 31
0.0
  0
LINE
  5
291
100
AcDbEntity
  8
LOGO
  6
CONTINUOUS2
 62
     7
100
AcDbLine
 10
6.585308
 20
10.876699
 30
0.0
 11
6.546308
 21
10.86586
 31
0.0
  0
LINE
  5
292
100
AcDbEntity
  8
LOGO
  6
CONTINUOUS2
 62
     7
100
AcDbLine
 10
6.988467
 20
11.076687
 30
0.0
 11
6.585308
 21
10.876699
 31
0.0
  0
LINE
  5
293
100
AcDbEntity
  8
LOGO
  6
CONTINUOUS2
 62
     7
100
AcDbLine
 10
8.423409
 20
11.716171
 30
0.0
 11
6.988467
 21
11.076687
 31
0.0
  0
LINE
  5
294
100
AcDbEntity
  8
LOGO
  6
CONTINUOUS2
 62
     7
100
AcDbLine
 10
8.515896
 20
11.767352
 30
0.0
 11
8.423409
 21
11.716171
 31
0.0
  0
LINE
  5
295
100
AcDbEntity
  8
LOGO
  6
CONTINUOUS2
 62
     7
100
AcDbLine
 10
8.543858
 20
11.774273
 30
0.0
 11
8.515896
 21
11.767352
 31
0.0
  0
LINE
  5
296
100
AcDbEntity
  8
LOGO
  6
CONTINUOUS2
 62
     7
100
AcDbLine
 10
8.557492
 20
11.729678
 30
0.0
 11
8.543858
 21
11.774273
 31
0.0
  0
LINE
  5
297
100
AcDbEntity
  8
LOGO
  6
CONTINUOUS2
 62
     7
100
AcDbLine
 10
8.547876
 20
11.635542
 30
0.0
 11
8.557492
 21
11.729678
 31
0.0
  0
LINE
  5
298
100
AcDbEntity
  8
LOGO
  6
CONTINUOUS2
 62
     7
100
AcDbLine
 10
8.550943
 20
11.54251
 30
0.0
 11
8.547876
 21
11.635542
 31
0.0
  0
LINE
  5
299
100
AcDbEntity
  8
LOGO
  6
CONTINUOUS2
 62
     7
100
AcDbLine
 10
8.519775
 20
11.533463
 30
0.0
 11
8.550943
 21
11.54251
 31
0.0
  0
LINE
  5
29A
100
AcDbEntity
  8
LOGO
  6
CONTINUOUS2
 62
     7
100
AcDbLine
 10
8.483629
 20
11.502642
 30
0.0
 11
8.519775
 21
11.533463
 31
0.0
  0
LINE
  5
29B
100
AcDbEntity
  8
LOGO
  6
CONTINUOUS2
 62
     7
100
AcDbLine
 10
8.179826
 20
11.365277
 30
0.0
 11
8.483629
 21
11.502642
 31
0.0
  0
LINE
  5
29C
100
AcDbEntity
  8
LOGO
  6
CONTINUOUS2
 62
     7
100
AcDbLine
 10
8.19346
 20
11.320682
 30
0.0
 11
8.179826
 21
11.365277
 31
0.0
  0
LINE
  5
29D
100
AcDbEntity
  8
LOGO
  6
CONTINUOUS2
 62
     7
100
AcDbLine
 10
8.185293
 20
11.288048
 30
0.0
 11
8.19346
 21
11.320682
 31
0.0
  0
LINE
  5
29E
100
AcDbEntity
  8
LOGO
  6
CONTINUOUS2
 62
     7
100
AcDbLine
 10
8.198976
 20
11.161674
 30
0.0
 11
8.185293
 21
11.288048
 31
0.0
  0
LINE
  5
29F
100
AcDbEntity
  8
LOGO
  6
CONTINUOUS2
 62
     7
100
AcDbLine
 10
8.187035
 20
11.063512
 30
0.0
 11
8.198976
 21
11.161674
 31
0.0
  0
LINE
  5
2A0
100
AcDbEntity
  8
LOGO
  6
CONTINUOUS2
 62
     7
100
AcDbLine
 10
8.217142
 20
10.482016
 30
0.0
 11
8.187035
 21
11.063512
 31
0.0
  0
LINE
  5
2A1
100
AcDbEntity
  8
LOGO
  6
CONTINUOUS2
 62
     7
100
AcDbLine
 10
8.234253
 20
9.94736
 30
0.0
 11
8.217142
 21
10.482016
 31
0.0
  0
LINE
  5
2A2
100
AcDbEntity
  8
LOGO
  6
CONTINUOUS2
 62
     7
100
AcDbLine
 10
8.251923
 20
9.877539
 30
0.0
 11
8.234253
 21
9.94736
 31
0.0
  0
LINE
  5
2A3
100
AcDbEntity
  8
LOGO
  6
CONTINUOUS2
 62
     7
100
AcDbLine
 10
8.102043
 20
9.831716
 30
0.0
 11
8.251923
 21
9.877539
 31
0.0
  0
LINE
  5
2A4
100
AcDbEntity
  8
LOGO
  6
CONTINUOUS2
 62
     7
100
AcDbLine
 10
7.80281
 20
9.697737
 30
0.0
 11
8.102043
 21
9.831716
 31
0.0
  0
LINE
  5
2A5
100
AcDbEntity
  8
LOGO
  6
CONTINUOUS2
 62
     7
100
AcDbLine
 10
7.793325
 20
9.67356
 30
0.0
 11
7.80281
 21
9.697737
 31
0.0
  0
LINE
  5
2A6
100
AcDbEntity
  8
LOGO
  6
CONTINUOUS2
 62
     7
100
AcDbLine
 10
7.764165
 20
9.664644
 30
0.0
 11
7.793325
 21
9.67356
 31
0.0
  0
LINE
  5
2A7
100
AcDbEntity
  8
LOGO
  6
CONTINUOUS2
 62
     7
100
AcDbLine
 10
7.744599
 20
9.728642
 30
0.0
 11
7.764165
 21
9.664644
 31
0.0
  0
LINE
  5
2A8
100
AcDbEntity
  8
LOGO
  6
CONTINUOUS2
 62
     7
100
AcDbLine
 10
7.74924
 20
9.772013
 30
0.0
 11
7.744599
 21
9.728642
 31
0.0
  0
LINE
  5
2A9
100
AcDbEntity
  8
LOGO
  6
CONTINUOUS2
 62
     7
100
AcDbLine
 10
7.721846
 20
10.601527
 30
0.0
 11
7.74924
 21
9.772013
 31
0.0
  0
LINE
  5
2AA
100
AcDbEntity
  8
LOGO
  6
CONTINUOUS2
 62
     7
100
AcDbLine
 10
7.711081
 20
10.695099
 30
0.0
 11
7.721846
 21
10.601527
 31
0.0
  0
LINE
  5
2AB
100
AcDbEntity
  8
LOGO
  6
CONTINUOUS2
 62
     7
100
AcDbLine
 10
7.693823
 20
11.136584
 30
0.0
 11
7.711081
 21
10.695099
 31
0.0
  0
LINE
  5
2AC
100
AcDbEntity
  8
LOGO
  6
CONTINUOUS2
 62
     7
100
AcDbLine
 10
7.686135
 20
11.171786
 30
0.0
 11
7.693823
 21
11.136584
 31
0.0
  0
LINE
  5
2AD
100
AcDbEntity
  8
LOGO
  6
CONTINUOUS2
 62
     7
100
AcDbLine
 10
7.666422
 20
11.165879
 30
0.0
 11
7.686135
 21
11.171786
 31
0.0
  0
LINE
  5
2AE
100
AcDbEntity
  8
LOGO
  6
CONTINUOUS2
 62
     7
100
AcDbLine
 10
7.642125
 20
11.139284
 30
0.0
 11
7.666422
 21
11.165879
 31
0.0
  0
LINE
  5
2AF
100
AcDbEntity
  8
LOGO
  6
CONTINUOUS2
 62
     7
100
AcDbLine
 10
7.635791
 20
11.114261
 30
0.0
 11
7.642125
 21
11.139284
 31
0.0
  0
LINE
  5
2B0
100
AcDbEntity
  8
LOGO
  6
CONTINUOUS2
 62
     7
100
AcDbLine
 10
7.475426
 20
11.051671
 30
0.0
 11
7.635791
 21
11.114261
 31
0.0
  0
LINE
  5
2B1
100
AcDbEntity
  8
LOGO
  6
CONTINUOUS2
 62
     7
100
AcDbLine
 10
7.451171
 20
11.036179
 30
0.0
 11
7.475426
 21
11.051671
 31
0.0
  0
LINE
  5
2B2
100
AcDbEntity
  8
LOGO
  6
CONTINUOUS2
 62
     7
100
AcDbLine
 10
7.343276
 20
10.997345
 30
0.0
 11
7.451171
 21
11.036179
 31
0.0
  0
LINE
  5
2B3
100
AcDbEntity
  8
LOGO
  6
CONTINUOUS2
 62
     7
100
AcDbLine
 10
9.409927
 20
11.912177
 30
0.0
 11
9.506584
 21
11.892543
 31
0.0
  0
LINE
  5
2B4
100
AcDbEntity
  8
LOGO
  6
CONTINUOUS2
 62
     7
100
AcDbLine
 10
9.506584
 20
11.892543
 30
0.0
 11
9.513175
 21
11.864481
 31
0.0
  0
LINE
  5
2B5
100
AcDbEntity
  8
LOGO
  6
CONTINUOUS2
 62
     7
100
AcDbLine
 10
9.513175
 20
11.864481
 30
0.0
 11
9.536272
 21
11.474869
 31
0.0
  0
LINE
  5
2B6
100
AcDbEntity
  8
LOGO
  6
CONTINUOUS2
 62
     7
100
AcDbLine
 10
9.536272
 20
11.474869
 30
0.0
 11
9.507517
 21
11.443535
 31
0.0
  0
LINE
  5
2B7
100
AcDbEntity
  8
LOGO
  6
CONTINUOUS2
 62
     7
100
AcDbLine
 10
9.507517
 20
11.443535
 30
0.0
 11
9.485958
 21
11.443273
 31
0.0
  0
LINE
  5
2B8
100
AcDbEntity
  8
LOGO
  6
CONTINUOUS2
 62
     7
100
AcDbLine
 10
9.485958
 20
11.443273
 30
0.0
 11
9.30565
 21
11.369221
 31
0.0
  0
LINE
  5
2B9
100
AcDbEntity
  8
LOGO
  6
CONTINUOUS2
 62
     7
100
AcDbLine
 10
9.30565
 20
11.369221
 30
0.0
 11
9.305867
 21
11.34801
 31
0.0
  0
LINE
  5
2BA
100
AcDbEntity
  8
LOGO
  6
CONTINUOUS2
 62
     7
100
AcDbLine
 10
9.305867
 20
11.34801
 30
0.0
 11
9.175446
 21
11.308136
 31
0.0
  0
LINE
  5
2BB
100
AcDbEntity
  8
LOGO
  6
CONTINUOUS2
 62
     7
100
AcDbLine
 10
9.175446
 20
11.308136
 30
0.0
 11
9.169401
 21
11.328891
 31
0.0
  0
LINE
  5
2BC
100
AcDbEntity
  8
LOGO
  6
CONTINUOUS2
 62
     7
100
AcDbLine
 10
9.169401
 20
11.328891
 30
0.0
 11
9.157061
 21
11.655126
 31
0.0
  0
LINE
  5
2BD
100
AcDbEntity
  8
LOGO
  6
CONTINUOUS2
 62
     7
100
AcDbLine
 10
9.157061
 20
11.655126
 30
0.0
 11
9.181059
 21
11.739677
 31
0.0
  0
LINE
  5
2BE
100
AcDbEntity
  8
LOGO
  6
CONTINUOUS2
 62
     7
100
AcDbLine
 10
9.181059
 20
11.739677
 30
0.0
 11
9.24956
 21
11.829092
 31
0.0
  0
LINE
  5
2BF
100
AcDbEntity
  8
LOGO
  6
CONTINUOUS2
 62
     7
100
AcDbLine
 10
9.24956
 20
11.829092
 30
0.0
 11
9.328216
 21
11.886472
 31
0.0
  0
LINE
  5
2C0
100
AcDbEntity
  8
LOGO
  6
CONTINUOUS2
 62
     7
100
AcDbLine
 10
9.328216
 20
11.886472
 30
0.0
 11
9.409927
 21
11.912177
 31
0.0
  0
LINE
  5
2C1
100
AcDbEntity
  8
LOGO
  6
CONTINUOUS2
 62
     7
100
AcDbLine
 10
9.555757
 20
11.211817
 30
0.0
 11
9.56847
 21
10.509576
 31
0.0
  0
LINE
  5
2C2
100
AcDbEntity
  8
LOGO
  6
CONTINUOUS2
 62
     7
100
AcDbLine
 10
9.56847
 20
10.509576
 30
0.0
 11
9.583366
 21
10.478206
 31
0.0
  0
LINE
  5
2C3
100
AcDbEntity
  8
LOGO
  6
CONTINUOUS2
 62
     7
100
AcDbLine
 10
9.583366
 20
10.478206
 30
0.0
 11
9.590845
 21
10.490016
 31
0.0
  0
LINE
  5
2C4
100
AcDbEntity
  8
LOGO
  6
CONTINUOUS2
 62
     7
100
AcDbLine
 10
9.590845
 20
10.490016
 30
0.0
 11
9.78685
 21
10.580742
 31
0.0
  0
LINE
  5
2C5
100
AcDbEntity
  8
LOGO
  6
CONTINUOUS2
 62
     7
100
AcDbLine
 10
9.78685
 20
10.580742
 30
0.0
 11
9.93673
 21
10.626565
 31
0.0
  0
LINE
  5
2C6
100
AcDbEntity
  8
LOGO
  6
CONTINUOUS2
 62
     7
100
AcDbLine
 10
9.93673
 20
10.626565
 30
0.0
 11
9.920635
 21
10.679207
 31
0.0
  0
LINE
  5
2C7
100
AcDbEntity
  8
LOGO
  6
CONTINUOUS2
 62
     7
100
AcDbLine
 10
9.920635
 20
10.679207
 30
0.0
 11
9.975211
 21
10.662561
 31
0.0
  0
LINE
  5
2C8
100
AcDbEntity
  8
LOGO
  6
CONTINUOUS2
 62
     7
100
AcDbLine
 10
9.975211
 20
10.662561
 30
0.0
 11
10.047421
 21
10.681684
 31
0.0
  0
LINE
  5
2C9
100
AcDbEntity
  8
LOGO
  6
CONTINUOUS2
 62
     7
100
AcDbLine
 10
10.047421
 20
10.681684
 30
0.0
 11
10.053587
 21
10.884889
 31
0.0
  0
LINE
  5
2CA
100
AcDbEntity
  8
LOGO
  6
CONTINUOUS2
 62
     7
100
AcDbLine
 10
10.053587
 20
10.884889
 30
0.0
 11
10.016643
 21
12.025398
 31
0.0
  0
LINE
  5
2CB
100
AcDbEntity
  8
LOGO
  6
CONTINUOUS2
 62
     7
100
AcDbLine
 10
10.016643
 20
12.025398
 30
0.0
 11
10.004156
 21
12.075708
 31
0.0
  0
LINE
  5
2CC
100
AcDbEntity
  8
LOGO
  6
CONTINUOUS2
 62
     7
100
AcDbLine
 10
10.004156
 20
12.075708
 30
0.0
 11
9.928793
 21
12.182622
 31
0.0
  0
LINE
  5
2CD
100
AcDbEntity
  8
LOGO
  6
CONTINUOUS2
 62
     7
100
AcDbLine
 10
9.928793
 20
12.182622
 30
0.0
 11
9.912699
 21
12.235264
 31
0.0
  0
LINE
  5
2CE
100
AcDbEntity
  8
LOGO
  6
CONTINUOUS2
 62
     7
100
AcDbLine
 10
9.912699
 20
12.235264
 30
0.0
 11
9.896107
 21
12.230191
 31
0.0
  0
LINE
  5
2CF
100
AcDbEntity
  8
LOGO
  6
CONTINUOUS2
 62
     7
100
AcDbLine
 10
9.896107
 20
12.230191
 30
0.0
 11
9.687439
 21
12.262112
 31
0.0
  0
LINE
  5
2D0
100
AcDbEntity
  8
LOGO
  6
CONTINUOUS2
 62
     7
100
AcDbLine
 10
9.687439
 20
12.262112
 30
0.0
 11
9.53294
 21
12.225486
 31
0.0
  0
LINE
  5
2D1
100
AcDbEntity
  8
LOGO
  6
CONTINUOUS2
 62
     7
100
AcDbLine
 10
9.53294
 20
12.225486
 30
0.0
 11
9.509728
 21
12.197112
 31
0.0
  0
LINE
  5
2D2
100
AcDbEntity
  8
LOGO
  6
CONTINUOUS2
 62
     7
100
AcDbLine
 10
9.509728
 20
12.197112
 30
0.0
 11
9.159504
 21
12.039467
 31
0.0
  0
LINE
  5
2D3
100
AcDbEntity
  8
LOGO
  6
CONTINUOUS2
 62
     7
100
AcDbLine
 10
9.159504
 20
12.039467
 30
0.0
 11
9.022051
 21
11.987498
 31
0.0
  0
LINE
  5
2D4
100
AcDbEntity
  8
LOGO
  6
CONTINUOUS2
 62
     7
100
AcDbLine
 10
9.022051
 20
11.987498
 30
0.0
 11
8.961095
 21
11.921907
 31
0.0
  0
LINE
  5
2D5
100
AcDbEntity
  8
LOGO
  6
CONTINUOUS2
 62
     7
100
AcDbLine
 10
8.961095
 20
11.921907
 30
0.0
 11
8.923625
 21
11.908824
 31
0.0
  0
LINE
  5
2D6
100
AcDbEntity
  8
LOGO
  6
CONTINUOUS2
 62
     7
100
AcDbLine
 10
8.923625
 20
11.908824
 30
0.0
 11
8.841334
 21
11.824294
 31
0.0
  0
LINE
  5
2D7
100
AcDbEntity
  8
LOGO
  6
CONTINUOUS2
 62
     7
100
AcDbLine
 10
8.841334
 20
11.824294
 30
0.0
 11
8.79092
 21
11.741372
 31
0.0
  0
LINE
  5
2D8
100
AcDbEntity
  8
LOGO
  6
CONTINUOUS2
 62
     7
100
AcDbLine
 10
8.79092
 20
11.741372
 30
0.0
 11
8.769171
 21
11.727731
 31
0.0
  0
LINE
  5
2D9
100
AcDbEntity
  8
LOGO
  6
CONTINUOUS2
 62
     7
100
AcDbLine
 10
8.769171
 20
11.727731
 30
0.0
 11
8.770267
 21
11.719024
 31
0.0
  0
LINE
  5
2DA
100
AcDbEntity
  8
LOGO
  6
CONTINUOUS2
 62
     7
100
AcDbLine
 10
8.770267
 20
11.719024
 30
0.0
 11
8.693152
 21
11.573993
 31
0.0
  0
LINE
  5
2DB
100
AcDbEntity
  8
LOGO
  6
CONTINUOUS2
 62
     7
100
AcDbLine
 10
8.693152
 20
11.573993
 30
0.0
 11
8.70071
 21
11.539415
 31
0.0
  0
LINE
  5
2DC
100
AcDbEntity
  8
LOGO
  6
CONTINUOUS2
 62
     7
100
AcDbLine
 10
8.70071
 20
11.539415
 30
0.0
 11
8.694749
 21
11.528551
 31
0.0
  0
LINE
  5
2DD
100
AcDbEntity
  8
LOGO
  6
CONTINUOUS2
 62
     7
100
AcDbLine
 10
8.694749
 20
11.528551
 30
0.0
 11
8.677534
 21
11.521179
 31
0.0
  0
LINE
  5
2DE
100
AcDbEntity
  8
LOGO
  6
CONTINUOUS2
 62
     7
100
AcDbLine
 10
8.677534
 20
11.521179
 30
0.0
 11
8.669217
 21
11.501457
 31
0.0
  0
LINE
  5
2DF
100
AcDbEntity
  8
LOGO
  6
CONTINUOUS2
 62
     7
100
AcDbLine
 10
8.669217
 20
11.501457
 30
0.0
 11
8.689305
 21
10.877418
 31
0.0
  0
LINE
  5
2E0
100
AcDbEntity
  8
LOGO
  6
CONTINUOUS2
 62
     7
100
AcDbLine
 10
8.689305
 20
10.877418
 30
0.0
 11
8.716269
 21
10.514787
 31
0.0
  0
LINE
  5
2E1
100
AcDbEntity
  8
LOGO
  6
CONTINUOUS2
 62
     7
100
AcDbLine
 10
8.716269
 20
10.514787
 30
0.0
 11
8.709828
 21
10.257672
 31
0.0
  0
LINE
  5
2E2
100
AcDbEntity
  8
LOGO
  6
CONTINUOUS2
 62
     7
100
AcDbLine
 10
8.709828
 20
10.257672
 30
0.0
 11
8.728055
 21
10.108155
 31
0.0
  0
LINE
  5
2E3
100
AcDbEntity
  8
LOGO
  6
CONTINUOUS2
 62
     7
100
AcDbLine
 10
8.728055
 20
10.108155
 30
0.0
 11
9.168837
 21
10.306928
 31
0.0
  0
LINE
  5
2E4
100
AcDbEntity
  8
LOGO
  6
CONTINUOUS2
 62
     7
100
AcDbLine
 10
9.168837
 20
10.306928
 30
0.0
 11
9.22153
 21
10.322858
 31
0.0
  0
LINE
  5
2E5
100
AcDbEntity
  8
LOGO
  6
CONTINUOUS2
 62
     7
100
AcDbLine
 10
9.22153
 20
10.322858
 30
0.0
 11
9.207418
 21
10.36369
 31
0.0
  0
LINE
  5
2E6
100
AcDbEntity
  8
LOGO
  6
CONTINUOUS2
 62
     7
100
AcDbLine
 10
9.207418
 20
10.36369
 30
0.0
 11
9.188587
 21
10.986967
 31
0.0
  0
LINE
  5
2E7
100
AcDbEntity
  8
LOGO
  6
CONTINUOUS2
 62
     7
100
AcDbLine
 10
9.188587
 20
10.986967
 30
0.0
 11
9.169005
 21
11.05102
 31
0.0
  0
LINE
  5
2E8
100
AcDbEntity
  8
LOGO
  6
CONTINUOUS2
 62
     7
100
AcDbLine
 10
9.169005
 20
11.05102
 30
0.0
 11
9.555757
 21
11.211817
 31
0.0
  0
LINE
  5
2E9
100
AcDbEntity
  8
LOGO
  6
CONTINUOUS2
 62
     7
100
AcDbLine
 10
7.791916
 20
11.799527
 30
0.0
 11
8.676183
 21
12.176201
 31
0.0
  0
LINE
  5
2EA
100
AcDbEntity
  8
LOGO
  6
CONTINUOUS2
 62
     7
100
AcDbLine
 10
7.778282
 20
11.844122
 30
0.0
 11
7.791916
 21
11.799527
 31
0.0
  0
LINE
  5
2EB
100
AcDbEntity
  8
LOGO
  6
CONTINUOUS2
 62
     7
100
AcDbLine
 10
7.784907
 20
11.996535
 30
0.0
 11
7.778282
 21
11.844122
 31
0.0
  0
LINE
  5
2EC
100
AcDbEntity
  8
LOGO
  6
CONTINUOUS2
 62
     7
100
AcDbLine
 10
7.732946
 20
13.244324
 30
0.0
 11
7.784907
 21
11.996535
 31
0.0
  0
LINE
  5
2ED
100
AcDbEntity
  8
LOGO
  6
CONTINUOUS2
 62
     7
100
AcDbLine
 10
7.721571
 20
13.281533
 30
0.0
 11
7.732946
 21
13.244324
 31
0.0
  0
LINE
  5
2EE
100
AcDbEntity
  8
LOGO
  6
CONTINUOUS2
 62
     7
100
AcDbLine
 10
7.61627
 20
13.337522
 30
0.0
 11
7.721571
 21
13.281533
 31
0.0
  0
LINE
  5
2EF
100
AcDbEntity
  8
LOGO
  6
CONTINUOUS2
 62
     7
100
AcDbLine
 10
7.607563
 20
13.336427
 30
0.0
 11
7.61627
 21
13.337522
 31
0.0
  0
LINE
  5
2F0
100
AcDbEntity
  8
LOGO
  6
CONTINUOUS2
 62
     7
100
AcDbLine
 10
7.576232
 20
13.371874
 30
0.0
 11
7.607563
 21
13.336427
 31
0.0
  0
LINE
  5
2F1
100
AcDbEntity
  8
LOGO
  6
CONTINUOUS2
 62
     7
100
AcDbLine
 10
7.557508
 20
13.380676
 30
0.0
 11
7.576232
 21
13.371874
 31
0.0
  0
LINE
  5
2F2
100
AcDbEntity
  8
LOGO
  6
CONTINUOUS2
 62
     7
100
AcDbLine
 10
7.522651
 20
13.375805
 30
0.0
 11
7.557508
 21
13.380676
 31
0.0
  0
LINE
  5
2F3
100
AcDbEntity
  8
LOGO
  6
CONTINUOUS2
 62
     7
100
AcDbLine
 10
7.504804
 20
13.434181
 30
0.0
 11
7.522651
 21
13.375805
 31
0.0
  0
LINE
  5
2F4
100
AcDbEntity
  8
LOGO
  6
CONTINUOUS2
 62
     7
100
AcDbLine
 10
7.654684
 20
13.480004
 30
0.0
 11
7.504804
 21
13.434181
 31
0.0
  0
LINE
  5
2F5
100
AcDbEntity
  8
LOGO
  6
CONTINUOUS2
 62
     7
100
AcDbLine
 10
7.973257
 20
13.620318
 30
0.0
 11
7.654684
 21
13.480004
 31
0.0
  0
LINE
  5
2F6
100
AcDbEntity
  8
LOGO
  6
CONTINUOUS2
 62
     7
100
AcDbLine
 10
8.087917
 20
13.67882
 30
0.0
 11
7.973257
 21
13.620318
 31
0.0
  0
LINE
  5
2F7
100
AcDbEntity
  8
LOGO
  6
CONTINUOUS2
 62
     7
100
AcDbLine
 10
8.717465
 20
13.953749
 30
0.0
 11
8.087917
 21
13.67882
 31
0.0
  0
LINE
  5
2F8
100
AcDbEntity
  8
LOGO
  6
CONTINUOUS2
 62
     7
100
AcDbLine
 10
8.784811
 20
13.997846
 30
0.0
 11
8.717465
 21
13.953749
 31
0.0
  0
LINE
  5
2F9
100
AcDbEntity
  8
LOGO
  6
CONTINUOUS2
 62
     7
100
AcDbLine
 10
8.799051
 20
13.99997
 30
0.0
 11
8.784811
 21
13.997846
 31
0.0
  0
LINE
  5
2FA
100
AcDbEntity
  8
LOGO
  6
CONTINUOUS2
 62
     7
100
AcDbLine
 10
8.800689
 20
13.966415
 30
0.0
 11
8.799051
 21
13.99997
 31
0.0
  0
LINE
  5
2FB
100
AcDbEntity
  8
LOGO
  6
CONTINUOUS2
 62
     7
100
AcDbLine
 10
8.795216
 20
13.953168
 30
0.0
 11
8.800689
 21
13.966415
 31
0.0
  0
LINE
  5
2FC
100
AcDbEntity
  8
LOGO
  6
CONTINUOUS2
 62
     7
100
AcDbLine
 10
8.816418
 20
13.931924
 30
0.0
 11
8.795216
 21
13.953168
 31
0.0
  0
LINE
  5
2FD
100
AcDbEntity
  8
LOGO
  6
CONTINUOUS2
 62
     7
100
AcDbLine
 10
8.820752
 20
13.78901
 30
0.0
 11
8.816418
 21
13.931924
 31
0.0
  0
LINE
  5
2FE
100
AcDbEntity
  8
LOGO
  6
CONTINUOUS2
 62
     7
100
AcDbLine
 10
8.831488
 20
13.75468
 30
0.0
 11
8.820752
 21
13.78901
 31
0.0
  0
LINE
  5
2FF
100
AcDbEntity
  8
LOGO
  6
CONTINUOUS2
 62
     7
100
AcDbLine
 10
8.681609
 20
13.708857
 30
0.0
 11
8.831488
 21
13.75468
 31
0.0
  0
LINE
  5
300
100
AcDbEntity
  8
LOGO
  6
CONTINUOUS2
 62
     7
100
AcDbLine
 10
8.681864
 20
13.687718
 30
0.0
 11
8.681609
 21
13.708857
 31
0.0
  0
LINE
  5
301
100
AcDbEntity
  8
LOGO
  6
CONTINUOUS2
 62
     7
100
AcDbLine
 10
8.56164
 20
13.641499
 30
0.0
 11
8.681864
 21
13.687718
 31
0.0
  0
LINE
  5
302
100
AcDbEntity
  8
LOGO
  6
CONTINUOUS2
 62
     7
100
AcDbLine
 10
8.532255
 20
13.620701
 30
0.0
 11
8.56164
 21
13.641499
 31
0.0
  0
LINE
  5
303
100
AcDbEntity
  8
LOGO
  6
CONTINUOUS2
 62
     7
100
AcDbLine
 10
8.378678
 20
13.552471
 30
0.0
 11
8.532255
 21
13.620701
 31
0.0
  0
LINE
  5
304
100
AcDbEntity
  8
LOGO
  6
CONTINUOUS2
 62
     7
100
AcDbLine
 10
8.188118
 20
13.49421
 30
0.0
 11
8.378678
 21
13.552471
 31
0.0
  0
LINE
  5
305
100
AcDbEntity
  8
LOGO
  6
CONTINUOUS2
 62
     7
100
AcDbLine
 10
8.207701
 20
13.430158
 30
0.0
 11
8.188118
 21
13.49421
 31
0.0
  0
LINE
  5
306
100
AcDbEntity
  8
LOGO
  6
CONTINUOUS2
 62
     7
100
AcDbLine
 10
8.214316
 20
13.143943
 30
0.0
 11
8.207701
 21
13.430158
 31
0.0
  0
LINE
  5
307
100
AcDbEntity
  8
LOGO
  6
CONTINUOUS2
 62
     7
100
AcDbLine
 10
8.211104
 20
13.014272
 30
0.0
 11
8.214316
 21
13.143943
 31
0.0
  0
LINE
  5
308
100
AcDbEntity
  8
LOGO
  6
CONTINUOUS2
 62
     7
100
AcDbLine
 10
8.200389
 20
12.98761
 30
0.0
 11
8.211104
 21
13.014272
 31
0.0
  0
LINE
  5
309
100
AcDbEntity
  8
LOGO
  6
CONTINUOUS2
 62
     7
100
AcDbLine
 10
8.591832
 20
13.150804
 30
0.0
 11
8.200389
 21
12.98761
 31
0.0
  0
LINE
  5
30A
100
AcDbEntity
  8
LOGO
  6
CONTINUOUS2
 62
     7
100
AcDbLine
 10
8.630082
 20
13.161535
 30
0.0
 11
8.591832
 21
13.150804
 31
0.0
  0
LINE
  5
30B
100
AcDbEntity
  8
LOGO
  6
CONTINUOUS2
 62
     7
100
AcDbLine
 10
8.643716
 20
13.11694
 30
0.0
 11
8.630082
 21
13.161535
 31
0.0
  0
LINE
  5
30C
100
AcDbEntity
  8
LOGO
  6
CONTINUOUS2
 62
     7
100
AcDbLine
 10
8.6467
 20
12.970358
 30
0.0
 11
8.643716
 21
13.11694
 31
0.0
  0
LINE
  5
30D
100
AcDbEntity
  8
LOGO
  6
CONTINUOUS2
 62
     7
100
AcDbLine
 10
8.656571
 20
12.935703
 30
0.0
 11
8.6467
 21
12.970358
 31
0.0
  0
LINE
  5
30E
100
AcDbEntity
  8
LOGO
  6
CONTINUOUS2
 62
     7
100
AcDbLine
 10
8.603928
 20
12.919609
 30
0.0
 11
8.656571
 21
12.935703
 31
0.0
  0
LINE
  5
30F
100
AcDbEntity
  8
LOGO
  6
CONTINUOUS2
 62
     7
100
AcDbLine
 10
8.604199
 20
12.898415
 30
0.0
 11
8.603928
 21
12.919609
 31
0.0
  0
LINE
  5
310
100
AcDbEntity
  8
LOGO
  6
CONTINUOUS2
 62
     7
100
AcDbLine
 10
8.227132
 20
12.74064
 30
0.0
 11
8.604199
 21
12.898415
 31
0.0
  0
LINE
  5
311
100
AcDbEntity
  8
LOGO
  6
CONTINUOUS2
 62
     7
100
AcDbLine
 10
8.240766
 20
12.696045
 30
0.0
 11
8.227132
 21
12.74064
 31
0.0
  0
LINE
  5
312
100
AcDbEntity
  8
LOGO
  6
CONTINUOUS2
 62
     7
100
AcDbLine
 10
8.231774
 20
12.615842
 30
0.0
 11
8.240766
 21
12.696045
 31
0.0
  0
LINE
  5
313
100
AcDbEntity
  8
LOGO
  6
CONTINUOUS2
 62
     7
100
AcDbLine
 10
8.238725
 20
12.538102
 30
0.0
 11
8.231774
 21
12.615842
 31
0.0
  0
LINE
  5
314
100
AcDbEntity
  8
LOGO
  6
CONTINUOUS2
 62
     7
100
AcDbLine
 10
8.232006
 20
12.46643
 30
0.0
 11
8.238725
 21
12.538102
 31
0.0
  0
LINE
  5
315
100
AcDbEntity
  8
LOGO
  6
CONTINUOUS2
 62
     7
100
AcDbLine
 10
8.245798
 20
12.276017
 30
0.0
 11
8.232006
 21
12.46643
 31
0.0
  0
LINE
  5
316
100
AcDbEntity
  8
LOGO
  6
CONTINUOUS2
 62
     7
100
AcDbLine
 10
8.241602
 20
12.24755
 30
0.0
 11
8.245798
 21
12.276017
 31
0.0
  0
LINE
  5
317
100
AcDbEntity
  8
LOGO
  6
CONTINUOUS2
 62
     7
100
AcDbLine
 10
8.260349
 20
12.234536
 30
0.0
 11
8.241602
 21
12.24755
 31
0.0
  0
LINE
  5
318
100
AcDbEntity
  8
LOGO
  6
CONTINUOUS2
 62
     7
100
AcDbLine
 10
8.272644
 20
12.244985
 30
0.0
 11
8.260349
 21
12.234536
 31
0.0
  0
LINE
  5
319
100
AcDbEntity
  8
LOGO
  6
CONTINUOUS2
 62
     7
100
AcDbLine
 10
8.266639
 20
12.263643
 30
0.0
 11
8.272644
 21
12.244985
 31
0.0
  0
LINE
  5
31A
100
AcDbEntity
  8
LOGO
  6
CONTINUOUS2
 62
     7
100
AcDbLine
 10
8.824189
 20
12.498839
 30
0.0
 11
8.266639
 21
12.263643
 31
0.0
  0
LINE
  5
31B
100
AcDbEntity
  8
LOGO
  6
CONTINUOUS2
 62
     7
100
AcDbLine
 10
8.871148
 20
12.512231
 30
0.0
 11
8.824189
 21
12.498839
 31
0.0
  0
LINE
  5
31C
100
AcDbEntity
  8
LOGO
  6
CONTINUOUS2
 62
     7
100
AcDbLine
 10
8.884516
 20
12.463577
 30
0.0
 11
8.871148
 21
12.512231
 31
0.0
  0
LINE
  5
31D
100
AcDbEntity
  8
LOGO
  6
CONTINUOUS2
 62
     7
100
AcDbLine
 10
8.877977
 20
12.357603
 30
0.0
 11
8.884516
 21
12.463577
 31
0.0
  0
LINE
  5
31E
100
AcDbEntity
  8
LOGO
  6
CONTINUOUS2
 62
     7
100
AcDbLine
 10
8.887475
 20
12.31964
 30
0.0
 11
8.877977
 21
12.357603
 31
0.0
  0
LINE
  5
31F
100
AcDbEntity
  8
LOGO
  6
CONTINUOUS2
 62
     7
100
AcDbLine
 10
8.851728
 20
12.25814
 30
0.0
 11
8.887475
 21
12.31964
 31
0.0
  0
LINE
  5
320
100
AcDbEntity
  8
LOGO
  6
CONTINUOUS2
 62
     7
100
AcDbLine
 10
8.676183
 20
12.176201
 30
0.0
 11
8.851728
 21
12.25814
 31
0.0
  0
LINE
  5
321
100
AcDbEntity
  8
LOGO
  6
CONTINUOUS2
 62
     7
100
AcDbLine
 10
10.531496
 20
11.952914
 30
0.0
 11
10.566903
 21
11.208186
 31
0.0
  0
LINE
  5
322
100
AcDbEntity
  8
LOGO
  6
CONTINUOUS2
 62
     7
100
AcDbLine
 10
10.566903
 20
11.208186
 30
0.0
 11
10.555001
 21
11.110095
 31
0.0
  0
LINE
  5
323
100
AcDbEntity
  8
LOGO
  6
CONTINUOUS2
 62
     7
100
AcDbLine
 10
10.555001
 20
11.110095
 30
0.0
 11
10.559623
 21
11.042734
 31
0.0
  0
LINE
  5
324
100
AcDbEntity
  8
LOGO
  6
CONTINUOUS2
 62
     7
100
AcDbLine
 10
10.559623
 20
11.042734
 30
0.0
 11
10.579559
 21
11.017546
 31
0.0
  0
LINE
  5
325
100
AcDbEntity
  8
LOGO
  6
CONTINUOUS2
 62
     7
100
AcDbLine
 10
10.579559
 20
11.017546
 30
0.0
 11
10.578341
 21
10.909944
 31
0.0
  0
LINE
  5
326
100
AcDbEntity
  8
LOGO
  6
CONTINUOUS2
 62
     7
100
AcDbLine
 10
10.578341
 20
10.909944
 30
0.0
 11
10.76408
 21
10.994818
 31
0.0
  0
LINE
  5
327
100
AcDbEntity
  8
LOGO
  6
CONTINUOUS2
 62
     7
100
AcDbLine
 10
10.76408
 20
10.994818
 30
0.0
 11
10.901965
 21
11.066268
 31
0.0
  0
LINE
  5
328
100
AcDbEntity
  8
LOGO
  6
CONTINUOUS2
 62
     7
100
AcDbLine
 10
10.901965
 20
11.066268
 30
0.0
 11
11.003535
 21
11.10154
 31
0.0
  0
LINE
  5
329
100
AcDbEntity
  8
LOGO
  6
CONTINUOUS2
 62
     7
100
AcDbLine
 10
11.003535
 20
11.10154
 30
0.0
 11
11.003319
 21
11.122751
 31
0.0
  0
LINE
  5
32A
100
AcDbEntity
  8
LOGO
  6
CONTINUOUS2
 62
     7
100
AcDbLine
 10
11.003319
 20
11.122751
 30
0.0
 11
11.055962
 21
11.138846
 31
0.0
  0
LINE
  5
32B
100
AcDbEntity
  8
LOGO
  6
CONTINUOUS2
 62
     7
100
AcDbLine
 10
11.055962
 20
11.138846
 30
0.0
 11
11.028967
 21
11.661861
 31
0.0
  0
LINE
  5
32C
100
AcDbEntity
  8
LOGO
  6
CONTINUOUS2
 62
     7
100
AcDbLine
 10
11.028967
 20
11.661861
 30
0.0
 11
11.032583
 21
11.710162
 31
0.0
  0
LINE
  5
32D
100
AcDbEntity
  8
LOGO
  6
CONTINUOUS2
 62
     7
100
AcDbLine
 10
11.032583
 20
11.710162
 30
0.0
 11
11.004066
 21
12.551629
 31
0.0
  0
LINE
  5
32E
100
AcDbEntity
  8
LOGO
  6
CONTINUOUS2
 62
     7
100
AcDbLine
 10
11.004066
 20
12.551629
 30
0.0
 11
10.996445
 21
12.576363
 31
0.0
  0
LINE
  5
32F
100
AcDbEntity
  8
LOGO
  6
CONTINUOUS2
 62
     7
100
AcDbLine
 10
10.996445
 20
12.576363
 30
0.0
 11
11.008999
 21
12.634269
 31
0.0
  0
LINE
  5
330
100
AcDbEntity
  8
LOGO
  6
CONTINUOUS2
 62
     7
100
AcDbLine
 10
11.008999
 20
12.634269
 30
0.0
 11
11.030235
 21
12.63835
 31
0.0
  0
LINE
  5
331
100
AcDbEntity
  8
LOGO
  6
CONTINUOUS2
 62
     7
100
AcDbLine
 10
11.030235
 20
12.63835
 30
0.0
 11
11.153806
 21
12.698853
 31
0.0
  0
LINE
  5
332
100
AcDbEntity
  8
LOGO
  6
CONTINUOUS2
 62
     7
100
AcDbLine
 10
11.153806
 20
12.698853
 30
0.0
 11
11.419251
 21
12.802189
 31
0.0
  0
LINE
  5
333
100
AcDbEntity
  8
LOGO
  6
CONTINUOUS2
 62
     7
100
AcDbLine
 10
11.419251
 20
12.802189
 30
0.0
 11
11.412625
 21
12.959893
 31
0.0
  0
LINE
  5
334
100
AcDbEntity
  8
LOGO
  6
CONTINUOUS2
 62
     7
100
AcDbLine
 10
11.412625
 20
12.959893
 30
0.0
 11
11.4183
 21
13.05174
 31
0.0
  0
LINE
  5
335
100
AcDbEntity
  8
LOGO
  6
CONTINUOUS2
 62
     7
100
AcDbLine
 10
11.4183
 20
13.05174
 30
0.0
 11
11.389977
 21
13.04718
 31
0.0
  0
LINE
  5
336
100
AcDbEntity
  8
LOGO
  6
CONTINUOUS2
 62
     7
100
AcDbLine
 10
11.389977
 20
13.04718
 30
0.0
 11
11.364484
 21
13.033961
 31
0.0
  0
LINE
  5
337
100
AcDbEntity
  8
LOGO
  6
CONTINUOUS2
 62
     7
100
AcDbLine
 10
11.364484
 20
13.033961
 30
0.0
 11
11.344088
 21
13.013139
 31
0.0
  0
LINE
  5
338
100
AcDbEntity
  8
LOGO
  6
CONTINUOUS2
 62
     7
100
AcDbLine
 10
11.344088
 20
13.013139
 30
0.0
 11
10.151001
 21
12.47864
 31
0.0
  0
LINE
  5
339
100
AcDbEntity
  8
LOGO
  6
CONTINUOUS2
 62
     7
100
AcDbLine
 10
10.151001
 20
12.47864
 30
0.0
 11
10.079001
 21
12.456265
 31
0.0
  0
LINE
  5
33A
100
AcDbEntity
  8
LOGO
  6
CONTINUOUS2
 62
     7
100
AcDbLine
 10
10.079001
 20
12.456265
 30
0.0
 11
10.08597
 21
12.248939
 31
0.0
  0
LINE
  5
33B
100
AcDbEntity
  8
LOGO
  6
CONTINUOUS2
 62
     7
100
AcDbLine
 10
10.08597
 20
12.248939
 30
0.0
 11
10.105451
 21
12.231749
 31
0.0
  0
LINE
  5
33C
100
AcDbEntity
  8
LOGO
  6
CONTINUOUS2
 62
     7
100
AcDbLine
 10
10.105451
 20
12.231749
 30
0.0
 11
10.124909
 21
12.235528
 31
0.0
  0
LINE
  5
33D
100
AcDbEntity
  8
LOGO
  6
CONTINUOUS2
 62
     7
100
AcDbLine
 10
10.124909
 20
12.235528
 30
0.0
 11
10.136523
 21
12.258066
 31
0.0
  0
LINE
  5
33E
100
AcDbEntity
  8
LOGO
  6
CONTINUOUS2
 62
     7
100
AcDbLine
 10
10.136523
 20
12.258066
 30
0.0
 11
10.186281
 21
12.260922
 31
0.0
  0
LINE
  5
33F
100
AcDbEntity
  8
LOGO
  6
CONTINUOUS2
 62
     7
100
AcDbLine
 10
10.186281
 20
12.260922
 30
0.0
 11
10.391308
 21
12.339095
 31
0.0
  0
LINE
  5
340
100
AcDbEntity
  8
LOGO
  6
CONTINUOUS2
 62
     7
100
AcDbLine
 10
10.391308
 20
12.339095
 30
0.0
 11
10.406193
 21
12.354676
 31
0.0
  0
LINE
  5
341
100
AcDbEntity
  8
LOGO
  6
CONTINUOUS2
 62
     7
100
AcDbLine
 10
10.406193
 20
12.354676
 30
0.0
 11
10.48254
 21
12.388265
 31
0.0
  0
LINE
  5
342
100
AcDbEntity
  8
LOGO
  6
CONTINUOUS2
 62
     7
100
AcDbLine
 10
10.48254
 20
12.388265
 30
0.0
 11
10.506123
 21
12.3616
 31
0.0
  0
LINE
  5
343
100
AcDbEntity
  8
LOGO
  6
CONTINUOUS2
 62
     7
100
AcDbLine
 10
10.506123
 20
12.3616
 30
0.0
 11
10.533264
 21
12.20619
 31
0.0
  0
LINE
  5
344
100
AcDbEntity
  8
LOGO
  6
CONTINUOUS2
 62
     7
100
AcDbLine
 10
10.533264
 20
12.20619
 30
0.0
 11
10.531496
 21
11.952914
 31
0.0
  0
LINE
  5
345
100
AcDbEntity
  8
LOGO
  6
CONTINUOUS2
 62
     7
100
AcDbLine
 10
12.100889
 20
11.878191
 30
0.0
 11
12.1056
 21
12.257679
 31
0.0
  0
LINE
  5
346
100
AcDbEntity
  8
LOGO
  6
CONTINUOUS2
 62
     7
100
AcDbLine
 10
12.096006
 20
11.860846
 30
0.0
 11
12.100889
 21
11.878191
 31
0.0
  0
LINE
  5
347
100
AcDbEntity
  8
LOGO
  6
CONTINUOUS2
 62
     7
100
AcDbLine
 10
12.248501
 20
11.918619
 30
0.0
 11
12.096006
 21
11.860846
 31
0.0
  0
LINE
  5
348
100
AcDbEntity
  8
LOGO
  6
CONTINUOUS2
 62
     7
100
AcDbLine
 10
12.278853
 20
11.938025
 30
0.0
 11
12.248501
 21
11.918619
 31
0.0
  0
LINE
  5
349
100
AcDbEntity
  8
LOGO
  6
CONTINUOUS2
 62
     7
100
AcDbLine
 10
12.607561
 20
12.069443
 30
0.0
 11
12.278853
 21
11.938025
 31
0.0
  0
LINE
  5
34A
100
AcDbEntity
  8
LOGO
  6
CONTINUOUS2
 62
     7
100
AcDbLine
 10
12.737551
 20
12.131426
 30
0.0
 11
12.607561
 21
12.069443
 31
0.0
  0
LINE
  5
34B
100
AcDbEntity
  8
LOGO
  6
CONTINUOUS2
 62
     7
100
AcDbLine
 10
12.747153
 20
12.14497
 30
0.0
 11
12.737551
 21
12.131426
 31
0.0
  0
LINE
  5
34C
100
AcDbEntity
  8
LOGO
  6
CONTINUOUS2
 62
     7
100
AcDbLine
 10
12.757941
 20
12.015843
 30
0.0
 11
12.747153
 21
12.14497
 31
0.0
  0
LINE
  5
34D
100
AcDbEntity
  8
LOGO
  6
CONTINUOUS2
 62
     7
100
AcDbLine
 10
12.756668
 20
11.94903
 30
0.0
 11
12.757941
 21
12.015843
 31
0.0
  0
LINE
  5
34E
100
AcDbEntity
  8
LOGO
  6
CONTINUOUS2
 62
     7
100
AcDbLine
 10
12.766235
 20
11.921878
 30
0.0
 11
12.756668
 21
11.94903
 31
0.0
  0
LINE
  5
34F
100
AcDbEntity
  8
LOGO
  6
CONTINUOUS2
 62
     7
100
AcDbLine
 10
12.756448
 20
11.892184
 30
0.0
 11
12.766235
 21
11.921878
 31
0.0
  0
LINE
  5
350
100
AcDbEntity
  8
LOGO
  6
CONTINUOUS2
 62
     7
100
AcDbLine
 10
12.687493
 20
11.861819
 30
0.0
 11
12.756448
 21
11.892184
 31
0.0
  0
LINE
  5
351
100
AcDbEntity
  8
LOGO
  6
CONTINUOUS2
 62
     7
100
AcDbLine
 10
12.668883
 20
11.844617
 30
0.0
 11
12.687493
 21
11.861819
 31
0.0
  0
LINE
  5
352
100
AcDbEntity
  8
LOGO
  6
CONTINUOUS2
 62
     7
100
AcDbLine
 10
12.54866
 20
11.798398
 30
0.0
 11
12.668883
 21
11.844617
 31
0.0
  0
LINE
  5
353
100
AcDbEntity
  8
LOGO
  6
CONTINUOUS2
 62
     7
100
AcDbLine
 10
12.369612
 20
11.710566
 30
0.0
 11
12.54866
 21
11.798398
 31
0.0
  0
LINE
  5
354
100
AcDbEntity
  8
LOGO
  6
CONTINUOUS2
 62
     7
100
AcDbLine
 10
12.070124
 20
11.597727
 30
0.0
 11
12.369612
 21
11.710566
 31
0.0
  0
LINE
  5
355
100
AcDbEntity
  8
LOGO
  6
CONTINUOUS2
 62
     7
100
AcDbLine
 10
11.648733
 20
11.405123
 30
0.0
 11
12.070124
 21
11.597727
 31
0.0
  0
LINE
  5
356
100
AcDbEntity
  8
LOGO
  6
CONTINUOUS2
 62
     7
100
AcDbLine
 10
11.628934
 20
11.490387
 30
0.0
 11
11.648733
 21
11.405123
 31
0.0
  0
LINE
  5
357
100
AcDbEntity
  8
LOGO
  6
CONTINUOUS2
 62
     7
100
AcDbLine
 10
11.603187
 20
12.435169
 30
0.0
 11
11.628934
 21
11.490387
 31
0.0
  0
LINE
  5
358
100
AcDbEntity
  8
LOGO
  6
CONTINUOUS2
 62
     7
100
AcDbLine
 10
11.60657
 20
12.55127
 30
0.0
 11
11.603187
 21
12.435169
 31
0.0
  0
LINE
  5
359
100
AcDbEntity
  8
LOGO
  6
CONTINUOUS2
 62
     7
100
AcDbLine
 10
11.620168
 20
12.576584
 30
0.0
 11
11.60657
 21
12.55127
 31
0.0
  0
LINE
  5
35A
100
AcDbEntity
  8
LOGO
  6
CONTINUOUS2
 62
     7
100
AcDbLine
 10
11.589932
 20
12.591691
 30
0.0
 11
11.620168
 21
12.576584
 31
0.0
  0
LINE
  5
35B
100
AcDbEntity
  8
LOGO
  6
CONTINUOUS2
 62
     7
100
AcDbLine
 10
11.586628
 20
13.003507
 30
0.0
 11
11.589932
 21
12.591691
 31
0.0
  0
LINE
  5
35C
100
AcDbEntity
  8
LOGO
  6
CONTINUOUS2
 62
     7
100
AcDbLine
 10
11.5753
 20
13.126322
 30
0.0
 11
11.586628
 21
13.003507
 31
0.0
  0
LINE
  5
35D
100
AcDbEntity
  8
LOGO
  6
CONTINUOUS2
 62
     7
100
AcDbLine
 10
11.6706
 20
13.155879
 30
0.0
 11
11.5753
 21
13.126322
 31
0.0
  0
LINE
  5
35E
100
AcDbEntity
  8
LOGO
  6
CONTINUOUS2
 62
     7
100
AcDbLine
 10
11.804072
 20
13.219289
 30
0.0
 11
11.6706
 21
13.155879
 31
0.0
  0
LINE
  5
35F
100
AcDbEntity
  8
LOGO
  6
CONTINUOUS2
 62
     7
100
AcDbLine
 10
11.835993
 20
13.22706
 30
0.0
 11
11.804072
 21
13.219289
 31
0.0
  0
LINE
  5
360
100
AcDbEntity
  8
LOGO
  6
CONTINUOUS2
 62
     7
100
AcDbLine
 10
12.135024
 20
13.3617
 30
0.0
 11
11.835993
 21
13.22706
 31
0.0
  0
LINE
  5
361
100
AcDbEntity
  8
LOGO
  6
CONTINUOUS2
 62
     7
100
AcDbLine
 10
12.222413
 20
13.411021
 30
0.0
 11
12.135024
 21
13.3617
 31
0.0
  0
LINE
  5
362
100
AcDbEntity
  8
LOGO
  6
CONTINUOUS2
 62
     7
100
AcDbLine
 10
12.358699
 20
13.462271
 30
0.0
 11
12.222413
 21
13.411021
 31
0.0
  0
LINE
  5
363
100
AcDbEntity
  8
LOGO
  6
CONTINUOUS2
 62
     7
100
AcDbLine
 10
12.560557
 20
13.555148
 30
0.0
 11
12.358699
 21
13.462271
 31
0.0
  0
LINE
  5
364
100
AcDbEntity
  8
LOGO
  6
CONTINUOUS2
 62
     7
100
AcDbLine
 10
12.599111
 20
13.582426
 30
0.0
 11
12.560557
 21
13.555148
 31
0.0
  0
LINE
  5
365
100
AcDbEntity
  8
LOGO
  6
CONTINUOUS2
 62
     7
100
AcDbLine
 10
12.700463
 20
13.619199
 30
0.0
 11
12.599111
 21
13.582426
 31
0.0
  0
LINE
  5
366
100
AcDbEntity
  8
LOGO
  6
CONTINUOUS2
 62
     7
100
AcDbLine
 10
12.714097
 20
13.574604
 30
0.0
 11
12.700463
 21
13.619199
 31
0.0
  0
LINE
  5
367
100
AcDbEntity
  8
LOGO
  6
CONTINUOUS2
 62
     7
100
AcDbLine
 10
12.703012
 20
13.457475
 30
0.0
 11
12.714097
 21
13.574604
 31
0.0
  0
LINE
  5
368
100
AcDbEntity
  8
LOGO
  6
CONTINUOUS2
 62
     7
100
AcDbLine
 10
12.704331
 20
13.403088
 30
0.0
 11
12.703012
 21
13.457475
 31
0.0
  0
LINE
  5
369
100
AcDbEntity
  8
LOGO
  6
CONTINUOUS2
 62
     7
100
AcDbLine
 10
12.69404
 20
13.362029
 30
0.0
 11
12.704331
 21
13.403088
 31
0.0
  0
LINE
  5
36A
100
AcDbEntity
  8
LOGO
  6
CONTINUOUS2
 62
     7
100
AcDbLine
 10
12.573799
 20
13.315864
 30
0.0
 11
12.69404
 21
13.362029
 31
0.0
  0
LINE
  5
36B
100
AcDbEntity
  8
LOGO
  6
CONTINUOUS2
 62
     7
100
AcDbLine
 10
12.544414
 20
13.295066
 30
0.0
 11
12.573799
 21
13.315864
 31
0.0
  0
LINE
  5
36C
100
AcDbEntity
  8
LOGO
  6
CONTINUOUS2
 62
     7
100
AcDbLine
 10
12.241198
 20
13.180424
 30
0.0
 11
12.544414
 21
13.295066
 31
0.0
  0
LINE
  5
36D
100
AcDbEntity
  8
LOGO
  6
CONTINUOUS2
 62
     7
100
AcDbLine
 10
12.096972
 20
13.113545
 30
0.0
 11
12.241198
 21
13.180424
 31
0.0
  0
LINE
  5
36E
100
AcDbEntity
  8
LOGO
  6
CONTINUOUS2
 62
     7
100
AcDbLine
 10
12.075804
 20
13.109244
 30
0.0
 11
12.096972
 21
13.113545
 31
0.0
  0
LINE
  5
36F
100
AcDbEntity
  8
LOGO
  6
CONTINUOUS2
 62
     7
100
AcDbLine
 10
12.063233
 20
13.051394
 30
0.0
 11
12.075804
 21
13.109244
 31
0.0
  0
LINE
  5
370
100
AcDbEntity
  8
LOGO
  6
CONTINUOUS2
 62
     7
100
AcDbLine
 10
12.084298
 20
12.821614
 30
0.0
 11
12.063233
 21
13.051394
 31
0.0
  0
LINE
  5
371
100
AcDbEntity
  8
LOGO
  6
CONTINUOUS2
 62
     7
100
AcDbLine
 10
12.078995
 20
12.747481
 30
0.0
 11
12.084298
 21
12.821614
 31
0.0
  0
LINE
  5
372
100
AcDbEntity
  8
LOGO
  6
CONTINUOUS2
 62
     7
100
AcDbLine
 10
12.082355
 20
12.626089
 30
0.0
 11
12.078995
 21
12.747481
 31
0.0
  0
LINE
  5
373
100
AcDbEntity
  8
LOGO
  6
CONTINUOUS2
 62
     7
100
AcDbLine
 10
12.098082
 20
12.603231
 30
0.0
 11
12.082355
 21
12.626089
 31
0.0
  0
LINE
  5
374
100
AcDbEntity
  8
LOGO
  6
CONTINUOUS2
 62
     7
100
AcDbLine
 10
12.12126
 20
12.612788
 30
0.0
 11
12.098082
 21
12.603231
 31
0.0
  0
LINE
  5
375
100
AcDbEntity
  8
LOGO
  6
CONTINUOUS2
 62
     7
100
AcDbLine
 10
12.133982
 20
12.600946
 30
0.0
 11
12.12126
 21
12.612788
 31
0.0
  0
LINE
  5
376
100
AcDbEntity
  8
LOGO
  6
CONTINUOUS2
 62
     7
100
AcDbLine
 10
12.150575
 20
12.606019
 30
0.0
 11
12.133982
 21
12.600946
 31
0.0
  0
LINE
  5
377
100
AcDbEntity
  8
LOGO
  6
CONTINUOUS2
 62
     7
100
AcDbLine
 10
12.154499
 20
12.62295
 30
0.0
 11
12.150575
 21
12.606019
 31
0.0
  0
LINE
  5
378
100
AcDbEntity
  8
LOGO
  6
CONTINUOUS2
 62
     7
100
AcDbLine
 10
12.185614
 20
12.631981
 30
0.0
 11
12.154499
 21
12.62295
 31
0.0
  0
LINE
  5
379
100
AcDbEntity
  8
LOGO
  6
CONTINUOUS2
 62
     7
100
AcDbLine
 10
12.241164
 20
12.672472
 30
0.0
 11
12.185614
 21
12.631981
 31
0.0
  0
LINE
  5
37A
100
AcDbEntity
  8
LOGO
  6
CONTINUOUS2
 62
     7
100
AcDbLine
 10
12.52946
 20
12.801419
 30
0.0
 11
12.241164
 21
12.672472
 31
0.0
  0
LINE
  5
37B
100
AcDbEntity
  8
LOGO
  6
CONTINUOUS2
 62
     7
100
AcDbLine
 10
12.720019
 20
12.859679
 30
0.0
 11
12.52946
 21
12.801419
 31
0.0
  0
LINE
  5
37C
100
AcDbEntity
  8
LOGO
  6
CONTINUOUS2
 62
     7
100
AcDbLine
 10
12.733166
 20
12.819637
 30
0.0
 11
12.720019
 21
12.859679
 31
0.0
  0
LINE
  5
37D
100
AcDbEntity
  8
LOGO
  6
CONTINUOUS2
 62
     7
100
AcDbLine
 10
12.737154
 20
12.676075
 30
0.0
 11
12.733166
 21
12.819637
 31
0.0
  0
LINE
  5
37E
100
AcDbEntity
  8
LOGO
  6
CONTINUOUS2
 62
     7
100
AcDbLine
 10
12.746563
 20
12.633865
 30
0.0
 11
12.737154
 21
12.676075
 31
0.0
  0
LINE
  5
37F
100
AcDbEntity
  8
LOGO
  6
CONTINUOUS2
 62
     7
100
AcDbLine
 10
12.596684
 20
12.588043
 30
0.0
 11
12.746563
 21
12.633865
 31
0.0
  0
LINE
  5
380
100
AcDbEntity
  8
LOGO
  6
CONTINUOUS2
 62
     7
100
AcDbLine
 10
12.596901
 20
12.566832
 30
0.0
 11
12.596684
 21
12.588043
 31
0.0
  0
LINE
  5
381
100
AcDbEntity
  8
LOGO
  6
CONTINUOUS2
 62
     7
100
AcDbLine
 10
12.467949
 20
12.515051
 30
0.0
 11
12.596901
 21
12.566832
 31
0.0
  0
LINE
  5
382
100
AcDbEntity
  8
LOGO
  6
CONTINUOUS2
 62
     7
100
AcDbLine
 10
12.443501
 20
12.498414
 30
0.0
 11
12.467949
 21
12.515051
 31
0.0
  0
LINE
  5
383
100
AcDbEntity
  8
LOGO
  6
CONTINUOUS2
 62
     7
100
AcDbLine
 10
12.124481
 20
12.381049
 30
0.0
 11
12.443501
 21
12.498414
 31
0.0
  0
LINE
  5
384
100
AcDbEntity
  8
LOGO
  6
CONTINUOUS2
 62
     7
100
AcDbLine
 10
12.09543
 20
12.350288
 30
0.0
 11
12.124481
 21
12.381049
 31
0.0
  0
LINE
  5
385
100
AcDbEntity
  8
LOGO
  6
CONTINUOUS2
 62
     7
100
AcDbLine
 10
12.1056
 20
12.257679
 30
0.0
 11
12.09543
 21
12.350288
 31
0.0
  0
LINE
  5
386
100
AcDbEntity
  8
LOGO
  6
CONTINUOUS2
 62
     7
100
AcDbLine
 10
5.632796
 20
15.946992
 30
0.0
 11
5.662536
 21
15.906296
 31
0.0
  0
LINE
  5
387
100
AcDbEntity
  8
LOGO
  6
CONTINUOUS2
 62
     7
100
AcDbLine
 10
5.662536
 20
15.906296
 30
0.0
 11
5.788151
 21
15.655317
 31
0.0
  0
LINE
  5
388
100
AcDbEntity
  8
LOGO
  6
CONTINUOUS2
 62
     7
100
AcDbLine
 10
5.788151
 20
15.655317
 30
0.0
 11
5.866597
 21
15.571046
 31
0.0
  0
LINE
  5
389
100
AcDbEntity
  8
LOGO
  6
CONTINUOUS2
 62
     7
100
AcDbLine
 10
5.866597
 20
15.571046
 30
0.0
 11
5.898197
 21
15.515791
 31
0.0
  0
LINE
  5
38A
100
AcDbEntity
  8
LOGO
  6
CONTINUOUS2
 62
     7
100
AcDbLine
 10
5.898197
 20
15.515791
 30
0.0
 11
5.928124
 21
15.50288
 31
0.0
  0
LINE
  5
38B
100
AcDbEntity
  8
LOGO
  6
CONTINUOUS2
 62
     7
100
AcDbLine
 10
5.928124
 20
15.50288
 30
0.0
 11
6.078071
 21
15.383267
 31
0.0
  0
LINE
  5
38C
100
AcDbEntity
  8
LOGO
  6
CONTINUOUS2
 62
     7
100
AcDbLine
 10
6.078071
 20
15.383267
 30
0.0
 11
6.331442
 21
15.25501
 31
0.0
  0
LINE
  5
38D
100
AcDbEntity
  8
LOGO
  6
CONTINUOUS2
 62
     7
100
AcDbLine
 10
6.331442
 20
15.25501
 30
0.0
 11
6.358776
 21
15.233228
 31
0.0
  0
LINE
  5
38E
100
AcDbEntity
  8
LOGO
  6
CONTINUOUS2
 62
     7
100
AcDbLine
 10
6.358776
 20
15.233228
 30
0.0
 11
6.380147
 21
15.233313
 31
0.0
  0
LINE
  5
38F
100
AcDbEntity
  8
LOGO
  6
CONTINUOUS2
 62
     7
100
AcDbLine
 10
6.380147
 20
15.233313
 30
0.0
 11
6.398677
 21
15.24368
 31
0.0
  0
LINE
  5
390
100
AcDbEntity
  8
LOGO
  6
CONTINUOUS2
 62
     7
100
AcDbLine
 10
6.398677
 20
15.24368
 30
0.0
 11
6.415816
 21
15.213056
 31
0.0
  0
LINE
  5
391
100
AcDbEntity
  8
LOGO
  6
CONTINUOUS2
 62
     7
100
AcDbLine
 10
6.415816
 20
15.213056
 30
0.0
 11
6.435247
 21
15.204108
 31
0.0
  0
LINE
  5
392
100
AcDbEntity
  8
LOGO
  6
CONTINUOUS2
 62
     7
100
AcDbLine
 10
6.435247
 20
15.204108
 30
0.0
 11
6.464062
 21
15.205082
 31
0.0
  0
LINE
  5
393
100
AcDbEntity
  8
LOGO
  6
CONTINUOUS2
 62
     7
100
AcDbLine
 10
6.464062
 20
15.205082
 30
0.0
 11
6.770362
 21
15.155272
 31
0.0
  0
LINE
  5
394
100
AcDbEntity
  8
LOGO
  6
CONTINUOUS2
 62
     7
100
AcDbLine
 10
6.770362
 20
15.155272
 30
0.0
 11
6.959018
 21
15.151348
 31
0.0
  0
LINE
  5
395
100
AcDbEntity
  8
LOGO
  6
CONTINUOUS2
 62
     7
100
AcDbLine
 10
6.959018
 20
15.151348
 30
0.0
 11
7.158428
 21
15.16765
 31
0.0
  0
LINE
  5
396
100
AcDbEntity
  8
LOGO
  6
CONTINUOUS2
 62
     7
100
AcDbLine
 10
7.158428
 20
15.16765
 30
0.0
 11
7.463431
 21
15.205867
 31
0.0
  0
LINE
  5
397
100
AcDbEntity
  8
LOGO
  6
CONTINUOUS2
 62
     7
100
AcDbLine
 10
7.463431
 20
15.205867
 30
0.0
 11
8.275363
 21
15.434691
 31
0.0
  0
LINE
  5
398
100
AcDbEntity
  8
LOGO
  6
CONTINUOUS2
 62
     7
100
AcDbLine
 10
8.275363
 20
15.434691
 30
0.0
 11
8.289606
 21
15.450799
 31
0.0
  0
LINE
  5
399
100
AcDbEntity
  8
LOGO
  6
CONTINUOUS2
 62
     7
100
AcDbLine
 10
8.289606
 20
15.450799
 30
0.0
 11
8.329948
 21
15.463555
 31
0.0
  0
LINE
  5
39A
100
AcDbEntity
  8
LOGO
  6
CONTINUOUS2
 62
     7
100
AcDbLine
 10
8.329948
 20
15.463555
 30
0.0
 11
8.498843
 21
15.445211
 31
0.0
  0
LINE
  5
39B
100
AcDbEntity
  8
LOGO
  6
CONTINUOUS2
 62
     7
100
AcDbLine
 10
8.498843
 20
15.445211
 30
0.0
 11
8.634872
 21
15.422185
 31
0.0
  0
LINE
  5
39C
100
AcDbEntity
  8
LOGO
  6
CONTINUOUS2
 62
     7
100
AcDbLine
 10
8.634872
 20
15.422185
 30
0.0
 11
8.676386
 21
15.392864
 31
0.0
  0
LINE
  5
39D
100
AcDbEntity
  8
LOGO
  6
CONTINUOUS2
 62
     7
100
AcDbLine
 10
8.676386
 20
15.392864
 30
0.0
 11
8.714851
 21
15.396185
 31
0.0
  0
LINE
  5
39E
100
AcDbEntity
  8
LOGO
  6
CONTINUOUS2
 62
     7
100
AcDbLine
 10
8.714851
 20
15.396185
 30
0.0
 11
8.815968
 21
15.370442
 31
0.0
  0
LINE
  5
39F
100
AcDbEntity
  8
LOGO
  6
CONTINUOUS2
 62
     7
100
AcDbLine
 10
8.815968
 20
15.370442
 30
0.0
 11
8.824115
 21
15.38342
 31
0.0
  0
LINE
  5
3A0
100
AcDbEntity
  8
LOGO
  6
CONTINUOUS2
 62
     7
100
AcDbLine
 10
8.824115
 20
15.38342
 30
0.0
 11
8.839097
 21
15.386856
 31
0.0
  0
LINE
  5
3A1
100
AcDbEntity
  8
LOGO
  6
CONTINUOUS2
 62
     7
100
AcDbLine
 10
8.839097
 20
15.386856
 30
0.0
 11
8.852043
 21
15.378819
 31
0.0
  0
LINE
  5
3A2
100
AcDbEntity
  8
LOGO
  6
CONTINUOUS2
 62
     7
100
AcDbLine
 10
8.852043
 20
15.378819
 30
0.0
 11
8.852307
 21
15.355874
 31
0.0
  0
LINE
  5
3A3
100
AcDbEntity
  8
LOGO
  6
CONTINUOUS2
 62
     7
100
AcDbLine
 10
8.852307
 20
15.355874
 30
0.0
 11
8.868899
 21
15.360947
 31
0.0
  0
LINE
  5
3A4
100
AcDbEntity
  8
LOGO
  6
CONTINUOUS2
 62
     7
100
AcDbLine
 10
8.868899
 20
15.360947
 30
0.0
 11
9.185843
 21
15.287749
 31
0.0
  0
LINE
  5
3A5
100
AcDbEntity
  8
LOGO
  6
CONTINUOUS2
 62
     7
100
AcDbLine
 10
9.185843
 20
15.287749
 30
0.0
 11
9.382713
 21
15.224433
 31
0.0
  0
LINE
  5
3A6
100
AcDbEntity
  8
LOGO
  6
CONTINUOUS2
 62
     7
100
AcDbLine
 10
9.382713
 20
15.224433
 30
0.0
 11
9.629196
 21
15.164051
 31
0.0
  0
LINE
  5
3A7
100
AcDbEntity
  8
LOGO
  6
CONTINUOUS2
 62
     7
100
AcDbLine
 10
9.629196
 20
15.164051
 30
0.0
 11
9.752643
 21
15.117708
 31
0.0
  0
LINE
  5
3A8
100
AcDbEntity
  8
LOGO
  6
CONTINUOUS2
 62
     7
100
AcDbLine
 10
9.752643
 20
15.117708
 30
0.0
 11
9.772841
 21
15.126957
 31
0.0
  0
LINE
  5
3A9
100
AcDbEntity
  8
LOGO
  6
CONTINUOUS2
 62
     7
100
AcDbLine
 10
9.772841
 20
15.126957
 30
0.0
 11
9.784723
 21
15.088096
 31
0.0
  0
LINE
  5
3AA
100
AcDbEntity
  8
LOGO
  6
CONTINUOUS2
 62
     7
100
AcDbLine
 10
9.784723
 20
15.088096
 30
0.0
 11
9.823639
 21
15.099994
 31
0.0
  0
LINE
  5
3AB
100
AcDbEntity
  8
LOGO
  6
CONTINUOUS2
 62
     7
100
AcDbLine
 10
9.823639
 20
15.099994
 30
0.0
 11
9.835589
 21
15.066035
 31
0.0
  0
LINE
  5
3AC
100
AcDbEntity
  8
LOGO
  6
CONTINUOUS2
 62
     7
100
AcDbLine
 10
9.835589
 20
15.066035
 30
0.0
 11
9.898502
 21
14.974603
 31
0.0
  0
LINE
  5
3AD
100
AcDbEntity
  8
LOGO
  6
CONTINUOUS2
 62
     7
100
AcDbLine
 10
9.898502
 20
14.974603
 30
0.0
 11
10.107515
 21
14.846528
 31
0.0
  0
LINE
  5
3AE
100
AcDbEntity
  8
LOGO
  6
CONTINUOUS2
 62
     7
100
AcDbLine
 10
10.107515
 20
14.846528
 30
0.0
 11
10.219164
 21
14.81906
 31
0.0
  0
LINE
  5
3AF
100
AcDbEntity
  8
LOGO
  6
CONTINUOUS2
 62
     7
100
AcDbLine
 10
10.219164
 20
14.81906
 30
0.0
 11
10.355537
 21
14.812654
 31
0.0
  0
LINE
  5
3B0
100
AcDbEntity
  8
LOGO
  6
CONTINUOUS2
 62
     7
100
AcDbLine
 10
10.355537
 20
14.812654
 30
0.0
 11
10.620116
 21
14.877812
 31
0.0
  0
LINE
  5
3B1
100
AcDbEntity
  8
LOGO
  6
CONTINUOUS2
 62
     7
100
AcDbLine
 10
10.620116
 20
14.877812
 30
0.0
 11
10.787991
 21
14.949751
 31
0.0
  0
LINE
  5
3B2
100
AcDbEntity
  8
LOGO
  6
CONTINUOUS2
 62
     7
100
AcDbLine
 10
10.787991
 20
14.949751
 30
0.0
 11
10.862498
 21
14.971023
 31
0.0
  0
LINE
  5
3B3
100
AcDbEntity
  8
LOGO
  6
CONTINUOUS2
 62
     7
100
AcDbLine
 10
10.862498
 20
14.971023
 30
0.0
 11
10.877573
 21
14.986181
 31
0.0
  0
LINE
  5
3B4
100
AcDbEntity
  8
LOGO
  6
CONTINUOUS2
 62
     7
100
AcDbLine
 10
10.877573
 20
14.986181
 30
0.0
 11
11.196219
 21
15.185406
 31
0.0
  0
LINE
  5
3B5
100
AcDbEntity
  8
LOGO
  6
CONTINUOUS2
 62
     7
100
AcDbLine
 10
11.196219
 20
15.185406
 30
0.0
 11
11.21708
 21
15.219691
 31
0.0
  0
LINE
  5
3B6
100
AcDbEntity
  8
LOGO
  6
CONTINUOUS2
 62
     7
100
AcDbLine
 10
11.21708
 20
15.219691
 30
0.0
 11
11.268139
 21
15.243921
 31
0.0
  0
LINE
  5
3B7
100
AcDbEntity
  8
LOGO
  6
CONTINUOUS2
 62
     7
100
AcDbLine
 10
11.268139
 20
15.243921
 30
0.0
 11
11.377874
 21
15.441359
 31
0.0
  0
LINE
  5
3B8
100
AcDbEntity
  8
LOGO
  6
CONTINUOUS2
 62
     7
100
AcDbLine
 10
11.377874
 20
15.441359
 30
0.0
 11
11.358308
 21
15.505357
 31
0.0
  0
LINE
  5
3B9
100
AcDbEntity
  8
LOGO
  6
CONTINUOUS2
 62
     7
100
AcDbLine
 10
11.358308
 20
15.505357
 30
0.0
 11
11.387468
 21
15.514272
 31
0.0
  0
LINE
  5
3BA
100
AcDbEntity
  8
LOGO
  6
CONTINUOUS2
 62
     7
100
AcDbLine
 10
11.387468
 20
15.514272
 30
0.0
 11
11.494998
 21
15.576381
 31
0.0
  0
LINE
  5
3BB
100
AcDbEntity
  8
LOGO
  6
CONTINUOUS2
 62
     7
100
AcDbLine
 10
11.494998
 20
15.576381
 30
0.0
 11
11.541752
 21
15.615086
 31
0.0
  0
LINE
  5
3BC
100
AcDbEntity
  8
LOGO
  6
CONTINUOUS2
 62
     7
100
AcDbLine
 10
11.541752
 20
15.615086
 30
0.0
 11
11.558037
 21
15.647189
 31
0.0
  0
LINE
  5
3BD
100
AcDbEntity
  8
LOGO
  6
CONTINUOUS2
 62
     7
100
AcDbLine
 10
11.558037
 20
15.647189
 30
0.0
 11
11.632087
 21
15.747042
 31
0.0
  0
LINE
  5
3BE
100
AcDbEntity
  8
LOGO
  6
CONTINUOUS2
 62
     7
100
AcDbLine
 10
11.632087
 20
15.747042
 30
0.0
 11
11.708835
 21
15.997563
 31
0.0
  0
LINE
  5
3BF
100
AcDbEntity
  8
LOGO
  6
CONTINUOUS2
 62
     7
100
AcDbLine
 10
11.708835
 20
15.997563
 30
0.0
 11
11.695976
 21
16.070182
 31
0.0
  0
LINE
  5
3C0
100
AcDbEntity
  8
LOGO
  6
CONTINUOUS2
 62
     7
100
AcDbLine
 10
11.695976
 20
16.070182
 30
0.0
 11
11.656511
 21
16.745378
 31
0.0
  0
LINE
  5
3C1
100
AcDbEntity
  8
LOGO
  6
CONTINUOUS2
 62
     7
100
AcDbLine
 10
11.656511
 20
16.745378
 30
0.0
 11
11.631354
 21
16.805979
 31
0.0
  0
LINE
  5
3C2
100
AcDbEntity
  8
LOGO
  6
CONTINUOUS2
 62
     7
100
AcDbLine
 10
11.631354
 20
16.805979
 30
0.0
 11
11.548748
 21
16.902479
 31
0.0
  0
LINE
  5
3C3
100
AcDbEntity
  8
LOGO
  6
CONTINUOUS2
 62
     7
100
AcDbLine
 10
11.548748
 20
16.902479
 30
0.0
 11
11.455936
 21
16.970062
 31
0.0
  0
LINE
  5
3C4
100
AcDbEntity
  8
LOGO
  6
CONTINUOUS2
 62
     7
100
AcDbLine
 10
11.455936
 20
16.970062
 30
0.0
 11
11.227955
 21
17.044842
 31
0.0
  0
LINE
  5
3C5
100
AcDbEntity
  8
LOGO
  6
CONTINUOUS2
 62
     7
100
AcDbLine
 10
11.227955
 20
17.044842
 30
0.0
 11
11.165967
 21
17.049458
 31
0.0
  0
LINE
  5
3C6
100
AcDbEntity
  8
LOGO
  6
CONTINUOUS2
 62
     7
100
AcDbLine
 10
11.165967
 20
17.049458
 30
0.0
 11
11.017071
 21
17.088744
 31
0.0
  0
LINE
  5
3C7
100
AcDbEntity
  8
LOGO
  6
CONTINUOUS2
 62
     7
100
AcDbLine
 10
11.017071
 20
17.088744
 30
0.0
 11
10.952973
 21
17.127072
 31
0.0
  0
LINE
  5
3C8
100
AcDbEntity
  8
LOGO
  6
CONTINUOUS2
 62
     7
100
AcDbLine
 10
10.952973
 20
17.127072
 30
0.0
 11
10.90072
 21
17.141054
 31
0.0
  0
LINE
  5
3C9
100
AcDbEntity
  8
LOGO
  6
CONTINUOUS2
 62
     7
100
AcDbLine
 10
10.90072
 20
17.141054
 30
0.0
 11
10.891805
 21
17.170213
 31
0.0
  0
LINE
  5
3CA
100
AcDbEntity
  8
LOGO
  6
CONTINUOUS2
 62
     7
100
AcDbLine
 10
10.891805
 20
17.170213
 30
0.0
 11
10.855038
 21
17.161927
 31
0.0
  0
LINE
  5
3CB
100
AcDbEntity
  8
LOGO
  6
CONTINUOUS2
 62
     7
100
AcDbLine
 10
10.855038
 20
17.161927
 30
0.0
 11
10.282502
 21
17.448715
 31
0.0
  0
LINE
  5
3CC
100
AcDbEntity
  8
LOGO
  6
CONTINUOUS2
 62
     7
100
AcDbLine
 10
10.282502
 20
17.448715
 30
0.0
 11
10.246741
 21
17.459421
 31
0.0
  0
LINE
  5
3CD
100
AcDbEntity
  8
LOGO
  6
CONTINUOUS2
 62
     7
100
AcDbLine
 10
10.246741
 20
17.459421
 30
0.0
 11
10.22592
 21
17.478431
 31
0.0
  0
LINE
  5
3CE
100
AcDbEntity
  8
LOGO
  6
CONTINUOUS2
 62
     7
100
AcDbLine
 10
10.22592
 20
17.478431
 30
0.0
 11
10.207359
 21
17.481376
 31
0.0
  0
LINE
  5
3CF
100
AcDbEntity
  8
LOGO
  6
CONTINUOUS2
 62
     7
100
AcDbLine
 10
10.207359
 20
17.481376
 30
0.0
 11
10.175357
 21
17.511133
 31
0.0
  0
LINE
  5
3D0
100
AcDbEntity
  8
LOGO
  6
CONTINUOUS2
 62
     7
100
AcDbLine
 10
10.175357
 20
17.511133
 30
0.0
 11
10.084569
 21
17.544495
 31
0.0
  0
LINE
  5
3D1
100
AcDbEntity
  8
LOGO
  6
CONTINUOUS2
 62
     7
100
AcDbLine
 10
10.084569
 20
17.544495
 30
0.0
 11
10.064441
 21
17.564984
 31
0.0
  0
LINE
  5
3D2
100
AcDbEntity
  8
LOGO
  6
CONTINUOUS2
 62
     7
100
AcDbLine
 10
10.064441
 20
17.564984
 30
0.0
 11
10.011442
 21
17.584162
 31
0.0
  0
LINE
  5
3D3
100
AcDbEntity
  8
LOGO
  6
CONTINUOUS2
 62
     7
100
AcDbLine
 10
10.011442
 20
17.584162
 30
0.0
 11
9.847436
 21
17.66518
 31
0.0
  0
LINE
  5
3D4
100
AcDbEntity
  8
LOGO
  6
CONTINUOUS2
 62
     7
100
AcDbLine
 10
9.847436
 20
17.66518
 30
0.0
 11
9.809298
 21
17.789923
 31
0.0
  0
LINE
  5
3D5
100
AcDbEntity
  8
LOGO
  6
CONTINUOUS2
 62
     7
100
AcDbLine
 10
9.809298
 20
17.789923
 30
0.0
 11
9.809268
 21
17.90733
 31
0.0
  0
LINE
  5
3D6
100
AcDbEntity
  8
LOGO
  6
CONTINUOUS2
 62
     7
100
AcDbLine
 10
9.809268
 20
17.90733
 30
0.0
 11
9.762144
 21
18.026373
 31
0.0
  0
LINE
  5
3D7
100
AcDbEntity
  8
LOGO
  6
CONTINUOUS2
 62
     7
100
AcDbLine
 10
9.762144
 20
18.026373
 30
0.0
 11
9.705973
 21
18.103832
 31
0.0
  0
LINE
  5
3D8
100
AcDbEntity
  8
LOGO
  6
CONTINUOUS2
 62
     7
100
AcDbLine
 10
9.705973
 20
18.103832
 30
0.0
 11
9.667805
 21
18.126943
 31
0.0
  0
LINE
  5
3D9
100
AcDbEntity
  8
LOGO
  6
CONTINUOUS2
 62
     7
100
AcDbLine
 10
9.667805
 20
18.126943
 30
0.0
 11
9.568694
 21
18.210201
 31
0.0
  0
LINE
  5
3DA
100
AcDbEntity
  8
LOGO
  6
CONTINUOUS2
 62
     7
100
AcDbLine
 10
9.568694
 20
18.210201
 30
0.0
 11
9.449582
 21
18.270948
 31
0.0
  0
LINE
  5
3DB
100
AcDbEntity
  8
LOGO
  6
CONTINUOUS2
 62
     7
100
AcDbLine
 10
9.449582
 20
18.270948
 30
0.0
 11
9.440667
 21
18.300108
 31
0.0
  0
LINE
  5
3DC
100
AcDbEntity
  8
LOGO
  6
CONTINUOUS2
 62
     7
100
AcDbLine
 10
9.440667
 20
18.300108
 30
0.0
 11
9.397965
 21
18.29724
 31
0.0
  0
LINE
  5
3DD
100
AcDbEntity
  8
LOGO
  6
CONTINUOUS2
 62
     7
100
AcDbLine
 10
9.397965
 20
18.29724
 30
0.0
 11
9.299766
 21
18.338282
 31
0.0
  0
LINE
  5
3DE
100
AcDbEntity
  8
LOGO
  6
CONTINUOUS2
 62
     7
100
AcDbLine
 10
9.299766
 20
18.338282
 30
0.0
 11
9.241601
 21
18.345574
 31
0.0
  0
LINE
  5
3DF
100
AcDbEntity
  8
LOGO
  6
CONTINUOUS2
 62
     7
100
AcDbLine
 10
9.241601
 20
18.345574
 30
0.0
 11
9.183372
 21
18.376534
 31
0.0
  0
LINE
  5
3E0
100
AcDbEntity
  8
LOGO
  6
CONTINUOUS2
 62
     7
100
AcDbLine
 10
9.183372
 20
18.376534
 30
0.0
 11
9.143477
 21
18.501705
 31
0.0
  0
LINE
  5
3E1
100
AcDbEntity
  8
LOGO
  6
CONTINUOUS2
 62
     7
100
AcDbLine
 10
9.143477
 20
18.501705
 30
0.0
 11
8.992549
 21
18.764896
 31
0.0
  0
LINE
  5
3E2
100
AcDbEntity
  8
LOGO
  6
CONTINUOUS2
 62
     7
100
AcDbLine
 10
8.992549
 20
18.764896
 30
0.0
 11
8.91321
 21
18.841841
 31
0.0
  0
LINE
  5
3E3
100
AcDbEntity
  8
LOGO
  6
CONTINUOUS2
 62
     7
100
AcDbLine
 10
8.91321
 20
18.841841
 30
0.0
 11
8.907889
 21
18.860227
 31
0.0
  0
LINE
  5
3E4
100
AcDbEntity
  8
LOGO
  6
CONTINUOUS2
 62
     7
100
AcDbLine
 10
8.907889
 20
18.860227
 30
0.0
 11
8.869027
 21
18.848345
 31
0.0
  0
LINE
  5
3E5
100
AcDbEntity
  8
LOGO
  6
CONTINUOUS2
 62
     7
100
AcDbLine
 10
8.869027
 20
18.848345
 30
0.0
 11
8.851197
 21
18.906666
 31
0.0
  0
LINE
  5
3E6
100
AcDbEntity
  8
LOGO
  6
CONTINUOUS2
 62
     7
100
AcDbLine
 10
8.851197
 20
18.906666
 30
0.0
 11
8.824002
 21
18.915771
 31
0.0
  0
LINE
  5
3E7
100
AcDbEntity
  8
LOGO
  6
CONTINUOUS2
 62
     7
100
AcDbLine
 10
8.824002
 20
18.915771
 30
0.0
 11
8.703589
 21
19.011924
 31
0.0
  0
LINE
  5
3E8
100
AcDbEntity
  8
LOGO
  6
CONTINUOUS2
 62
     7
100
AcDbLine
 10
8.703589
 20
19.011924
 30
0.0
 11
8.518133
 21
19.09193
 31
0.0
  0
LINE
  5
3E9
100
AcDbEntity
  8
LOGO
  6
CONTINUOUS2
 62
     7
100
AcDbLine
 10
8.518133
 20
19.09193
 30
0.0
 11
8.509218
 21
19.121089
 31
0.0
  0
LINE
  5
3EA
100
AcDbEntity
  8
LOGO
  6
CONTINUOUS2
 62
     7
100
AcDbLine
 10
8.509218
 20
19.121089
 30
0.0
 11
8.479893
 21
19.112123
 31
0.0
  0
LINE
  5
3EB
100
AcDbEntity
  8
LOGO
  6
CONTINUOUS2
 62
     7
100
AcDbLine
 10
8.479893
 20
19.112123
 30
0.0
 11
8.403427
 21
19.149504
 31
0.0
  0
LINE
  5
3EC
100
AcDbEntity
  8
LOGO
  6
CONTINUOUS2
 62
     7
100
AcDbLine
 10
8.403427
 20
19.149504
 30
0.0
 11
8.38289
 21
19.139789
 31
0.0
  0
LINE
  5
3ED
100
AcDbEntity
  8
LOGO
  6
CONTINUOUS2
 62
     7
100
AcDbLine
 10
8.38289
 20
19.139789
 30
0.0
 11
8.380348
 21
19.123461
 31
0.0
  0
LINE
  5
3EE
100
AcDbEntity
  8
LOGO
  6
CONTINUOUS2
 62
     7
100
AcDbLine
 10
8.380348
 20
19.123461
 30
0.0
 11
8.390041
 21
19.11009
 31
0.0
  0
LINE
  5
3EF
100
AcDbEntity
  8
LOGO
  6
CONTINUOUS2
 62
     7
100
AcDbLine
 10
8.390041
 20
19.11009
 30
0.0
 11
8.422249
 21
19.097996
 31
0.0
  0
LINE
  5
3F0
100
AcDbEntity
  8
LOGO
  6
CONTINUOUS2
 62
     7
100
AcDbLine
 10
8.422249
 20
19.097996
 30
0.0
 11
8.619033
 21
18.96142
 31
0.0
  0
LINE
  5
3F1
100
AcDbEntity
  8
LOGO
  6
CONTINUOUS2
 62
     7
100
AcDbLine
 10
8.619033
 20
18.96142
 30
0.0
 11
8.667058
 21
18.912573
 31
0.0
  0
LINE
  5
3F2
100
AcDbEntity
  8
LOGO
  6
CONTINUOUS2
 62
     7
100
AcDbLine
 10
8.667058
 20
18.912573
 30
0.0
 11
8.697734
 21
18.894647
 31
0.0
  0
LINE
  5
3F3
100
AcDbEntity
  8
LOGO
  6
CONTINUOUS2
 62
     7
100
AcDbLine
 10
8.697734
 20
18.894647
 30
0.0
 11
8.715328
 21
18.871997
 31
0.0
  0
LINE
  5
3F4
100
AcDbEntity
  8
LOGO
  6
CONTINUOUS2
 62
     7
100
AcDbLine
 10
8.715328
 20
18.871997
 30
0.0
 11
8.72504
 21
18.845552
 31
0.0
  0
LINE
  5
3F5
100
AcDbEntity
  8
LOGO
  6
CONTINUOUS2
 62
     7
100
AcDbLine
 10
8.72504
 20
18.845552
 30
0.0
 11
8.746699
 21
18.826556
 31
0.0
  0
LINE
  5
3F6
100
AcDbEntity
  8
LOGO
  6
CONTINUOUS2
 62
     7
100
AcDbLine
 10
8.746699
 20
18.826556
 30
0.0
 11
8.815928
 21
18.735368
 31
0.0
  0
LINE
  5
3F7
100
AcDbEntity
  8
LOGO
  6
CONTINUOUS2
 62
     7
100
AcDbLine
 10
8.815928
 20
18.735368
 30
0.0
 11
8.888393
 21
18.598698
 31
0.0
  0
LINE
  5
3F8
100
AcDbEntity
  8
LOGO
  6
CONTINUOUS2
 62
     7
100
AcDbLine
 10
8.888393
 20
18.598698
 30
0.0
 11
8.954974
 21
18.42804
 31
0.0
  0
LINE
  5
3F9
100
AcDbEntity
  8
LOGO
  6
CONTINUOUS2
 62
     7
100
AcDbLine
 10
8.954974
 20
18.42804
 30
0.0
 11
8.976168
 21
18.428312
 31
0.0
  0
LINE
  5
3FA
100
AcDbEntity
  8
LOGO
  6
CONTINUOUS2
 62
     7
100
AcDbLine
 10
8.976168
 20
18.428312
 30
0.0
 11
9.016041
 21
18.29789
 31
0.0
  0
LINE
  5
3FB
100
AcDbEntity
  8
LOGO
  6
CONTINUOUS2
 62
     7
100
AcDbLine
 10
9.016041
 20
18.29789
 30
0.0
 11
9.045202
 21
18.306806
 31
0.0
  0
LINE
  5
3FC
100
AcDbEntity
  8
LOGO
  6
CONTINUOUS2
 62
     7
100
AcDbLine
 10
9.045202
 20
18.306806
 30
0.0
 11
9.060414
 21
18.291747
 31
0.0
  0
LINE
  5
3FD
100
AcDbEntity
  8
LOGO
  6
CONTINUOUS2
 62
     7
100
AcDbLine
 10
9.060414
 20
18.291747
 30
0.0
 11
9.066857
 21
18.270872
 31
0.0
  0
LINE
  5
3FE
100
AcDbEntity
  8
LOGO
  6
CONTINUOUS2
 62
     7
100
AcDbLine
 10
9.066857
 20
18.270872
 30
0.0
 11
9.108942
 21
18.2797
 31
0.0
  0
LINE
  5
3FF
100
AcDbEntity
  8
LOGO
  6
CONTINUOUS2
 62
     7
100
AcDbLine
 10
9.108942
 20
18.2797
 30
0.0
 11
9.315699
 21
18.216574
 31
0.0
  0
LINE
  5
400
100
AcDbEntity
  8
LOGO
  6
CONTINUOUS2
 62
     7
100
AcDbLine
 10
9.315699
 20
18.216574
 30
0.0
 11
9.33587
 21
18.225514
 31
0.0
  0
LINE
  5
401
100
AcDbEntity
  8
LOGO
  6
CONTINUOUS2
 62
     7
100
AcDbLine
 10
9.33587
 20
18.225514
 30
0.0
 11
9.34422
 21
18.202932
 31
0.0
  0
LINE
  5
402
100
AcDbEntity
  8
LOGO
  6
CONTINUOUS2
 62
     7
100
AcDbLine
 10
9.34422
 20
18.202932
 30
0.0
 11
9.432887
 21
18.14457
 31
0.0
  0
LINE
  5
403
100
AcDbEntity
  8
LOGO
  6
CONTINUOUS2
 62
     7
100
AcDbLine
 10
9.432887
 20
18.14457
 30
0.0
 11
9.451465
 21
18.122644
 31
0.0
  0
LINE
  5
404
100
AcDbEntity
  8
LOGO
  6
CONTINUOUS2
 62
     7
100
AcDbLine
 10
9.451465
 20
18.122644
 30
0.0
 11
9.537964
 21
17.937703
 31
0.0
  0
LINE
  5
405
100
AcDbEntity
  8
LOGO
  6
CONTINUOUS2
 62
     7
100
AcDbLine
 10
9.537964
 20
17.937703
 30
0.0
 11
9.521186
 21
17.86404
 31
0.0
  0
LINE
  5
406
100
AcDbEntity
  8
LOGO
  6
CONTINUOUS2
 62
     7
100
AcDbLine
 10
9.521186
 20
17.86404
 30
0.0
 11
9.457351
 21
17.75857
 31
0.0
  0
LINE
  5
407
100
AcDbEntity
  8
LOGO
  6
CONTINUOUS2
 62
     7
100
AcDbLine
 10
9.457351
 20
17.75857
 30
0.0
 11
9.464924
 21
17.74642
 31
0.0
  0
LINE
  5
408
100
AcDbEntity
  8
LOGO
  6
CONTINUOUS2
 62
     7
100
AcDbLine
 10
9.464924
 20
17.74642
 30
0.0
 11
9.603956
 21
17.677296
 31
0.0
  0
LINE
  5
409
100
AcDbEntity
  8
LOGO
  6
CONTINUOUS2
 62
     7
100
AcDbLine
 10
9.603956
 20
17.677296
 30
0.0
 11
9.638409
 21
17.666732
 31
0.0
  0
LINE
  5
40A
100
AcDbEntity
  8
LOGO
  6
CONTINUOUS2
 62
     7
100
AcDbLine
 10
9.638409
 20
17.666732
 30
0.0
 11
9.931396
 21
17.529552
 31
0.0
  0
LINE
  5
40B
100
AcDbEntity
  8
LOGO
  6
CONTINUOUS2
 62
     7
100
AcDbLine
 10
9.931396
 20
17.529552
 30
0.0
 11
9.962086
 21
17.4962
 31
0.0
  0
LINE
  5
40C
100
AcDbEntity
  8
LOGO
  6
CONTINUOUS2
 62
     7
100
AcDbLine
 10
9.962086
 20
17.4962
 30
0.0
 11
10.022085
 21
17.487841
 31
0.0
  0
LINE
  5
40D
100
AcDbEntity
  8
LOGO
  6
CONTINUOUS2
 62
     7
100
AcDbLine
 10
10.022085
 20
17.487841
 30
0.0
 11
10.035723
 21
17.478328
 31
0.0
  0
LINE
  5
40E
100
AcDbEntity
  8
LOGO
  6
CONTINUOUS2
 62
     7
100
AcDbLine
 10
10.035723
 20
17.478328
 30
0.0
 11
10.037167
 21
17.461771
 31
0.0
  0
LINE
  5
40F
100
AcDbEntity
  8
LOGO
  6
CONTINUOUS2
 62
     7
100
AcDbLine
 10
10.037167
 20
17.461771
 30
0.0
 11
10.064503
 21
17.453192
 31
0.0
  0
LINE
  5
410
100
AcDbEntity
  8
LOGO
  6
CONTINUOUS2
 62
     7
100
AcDbLine
 10
10.064503
 20
17.453192
 30
0.0
 11
10.13628
 21
17.405518
 31
0.0
  0
LINE
  5
411
100
AcDbEntity
  8
LOGO
  6
CONTINUOUS2
 62
     7
100
AcDbLine
 10
10.13628
 20
17.405518
 30
0.0
 11
10.247174
 21
17.35588
 31
0.0
  0
LINE
  5
412
100
AcDbEntity
  8
LOGO
  6
CONTINUOUS2
 62
     7
100
AcDbLine
 10
10.247174
 20
17.35588
 30
0.0
 11
10.278974
 21
17.326785
 31
0.0
  0
LINE
  5
413
100
AcDbEntity
  8
LOGO
  6
CONTINUOUS2
 62
     7
100
AcDbLine
 10
10.278974
 20
17.326785
 30
0.0
 11
10.301437
 21
17.328227
 31
0.0
  0
LINE
  5
414
100
AcDbEntity
  8
LOGO
  6
CONTINUOUS2
 62
     7
100
AcDbLine
 10
10.301437
 20
17.328227
 30
0.0
 11
10.322012
 21
17.31101
 31
0.0
  0
LINE
  5
415
100
AcDbEntity
  8
LOGO
  6
CONTINUOUS2
 62
     7
100
AcDbLine
 10
10.322012
 20
17.31101
 30
0.0
 11
10.322438
 21
17.293842
 31
0.0
  0
LINE
  5
416
100
AcDbEntity
  8
LOGO
  6
CONTINUOUS2
 62
     7
100
AcDbLine
 10
10.322438
 20
17.293842
 30
0.0
 11
10.355622
 21
17.303987
 31
0.0
  0
LINE
  5
417
100
AcDbEntity
  8
LOGO
  6
CONTINUOUS2
 62
     7
100
AcDbLine
 10
10.355622
 20
17.303987
 30
0.0
 11
10.413851
 21
17.273026
 31
0.0
  0
LINE
  5
418
100
AcDbEntity
  8
LOGO
  6
CONTINUOUS2
 62
     7
100
AcDbLine
 10
10.413851
 20
17.273026
 30
0.0
 11
10.419041
 21
17.260387
 31
0.0
  0
LINE
  5
419
100
AcDbEntity
  8
LOGO
  6
CONTINUOUS2
 62
     7
100
AcDbLine
 10
10.419041
 20
17.260387
 30
0.0
 11
10.782468
 21
17.041068
 31
0.0
  0
LINE
  5
41A
100
AcDbEntity
  8
LOGO
  6
CONTINUOUS2
 62
     7
100
AcDbLine
 10
10.782468
 20
17.041068
 30
0.0
 11
11.012866
 21
16.925257
 31
0.0
  0
LINE
  5
41B
100
AcDbEntity
  8
LOGO
  6
CONTINUOUS2
 62
     7
100
AcDbLine
 10
11.012866
 20
16.925257
 30
0.0
 11
11.255929
 21
16.919041
 31
0.0
  0
LINE
  5
41C
100
AcDbEntity
  8
LOGO
  6
CONTINUOUS2
 62
     7
100
AcDbLine
 10
11.255929
 20
16.919041
 30
0.0
 11
11.310261
 21
16.894122
 31
0.0
  0
LINE
  5
41D
100
AcDbEntity
  8
LOGO
  6
CONTINUOUS2
 62
     7
100
AcDbLine
 10
11.310261
 20
16.894122
 30
0.0
 11
11.319963
 21
16.897088
 31
0.0
  0
LINE
  5
41E
100
AcDbEntity
  8
LOGO
  6
CONTINUOUS2
 62
     7
100
AcDbLine
 10
11.319963
 20
16.897088
 30
0.0
 11
11.373845
 21
16.876794
 31
0.0
  0
LINE
  5
41F
100
AcDbEntity
  8
LOGO
  6
CONTINUOUS2
 62
     7
100
AcDbLine
 10
11.373845
 20
16.876794
 30
0.0
 11
11.465761
 21
16.808394
 31
0.0
  0
LINE
  5
420
100
AcDbEntity
  8
LOGO
  6
CONTINUOUS2
 62
     7
100
AcDbLine
 10
11.465761
 20
16.808394
 30
0.0
 11
11.511777
 21
16.723732
 31
0.0
  0
LINE
  5
421
100
AcDbEntity
  8
LOGO
  6
CONTINUOUS2
 62
     7
100
AcDbLine
 10
11.511777
 20
16.723732
 30
0.0
 11
11.601845
 21
16.184859
 31
0.0
  0
LINE
  5
422
100
AcDbEntity
  8
LOGO
  6
CONTINUOUS2
 62
     7
100
AcDbLine
 10
11.601845
 20
16.184859
 30
0.0
 11
11.599571
 21
15.968137
 31
0.0
  0
LINE
  5
423
100
AcDbEntity
  8
LOGO
  6
CONTINUOUS2
 62
     7
100
AcDbLine
 10
11.599571
 20
15.968137
 30
0.0
 11
11.547636
 21
15.871067
 31
0.0
  0
LINE
  5
424
100
AcDbEntity
  8
LOGO
  6
CONTINUOUS2
 62
     7
100
AcDbLine
 10
11.547636
 20
15.871067
 30
0.0
 11
11.524619
 21
15.856255
 31
0.0
  0
LINE
  5
425
100
AcDbEntity
  8
LOGO
  6
CONTINUOUS2
 62
     7
100
AcDbLine
 10
11.524619
 20
15.856255
 30
0.0
 11
11.469745
 21
15.84647
 31
0.0
  0
LINE
  5
426
100
AcDbEntity
  8
LOGO
  6
CONTINUOUS2
 62
     7
100
AcDbLine
 10
11.469745
 20
15.84647
 30
0.0
 11
11.445896
 21
15.873415
 31
0.0
  0
LINE
  5
427
100
AcDbEntity
  8
LOGO
  6
CONTINUOUS2
 62
     7
100
AcDbLine
 10
11.445896
 20
15.873415
 30
0.0
 11
11.408461
 21
15.967271
 31
0.0
  0
LINE
  5
428
100
AcDbEntity
  8
LOGO
  6
CONTINUOUS2
 62
     7
100
AcDbLine
 10
11.408461
 20
15.967271
 30
0.0
 11
11.32879
 21
15.795902
 31
0.0
  0
LINE
  5
429
100
AcDbEntity
  8
LOGO
  6
CONTINUOUS2
 62
     7
100
AcDbLine
 10
11.32879
 20
15.795902
 30
0.0
 11
11.23884
 21
15.75279
 31
0.0
  0
LINE
  5
42A
100
AcDbEntity
  8
LOGO
  6
CONTINUOUS2
 62
     7
100
AcDbLine
 10
11.23884
 20
15.75279
 30
0.0
 11
11.19503
 21
15.843251
 31
0.0
  0
LINE
  5
42B
100
AcDbEntity
  8
LOGO
  6
CONTINUOUS2
 62
     7
100
AcDbLine
 10
11.19503
 20
15.843251
 30
0.0
 11
11.158183
 21
16.205874
 31
0.0
  0
LINE
  5
42C
100
AcDbEntity
  8
LOGO
  6
CONTINUOUS2
 62
     7
100
AcDbLine
 10
11.158183
 20
16.205874
 30
0.0
 11
11.127258
 21
16.309194
 31
0.0
  0
LINE
  5
42D
100
AcDbEntity
  8
LOGO
  6
CONTINUOUS2
 62
     7
100
AcDbLine
 10
11.127258
 20
16.309194
 30
0.0
 11
11.097195
 21
16.359616
 31
0.0
  0
LINE
  5
42E
100
AcDbEntity
  8
LOGO
  6
CONTINUOUS2
 62
     7
100
AcDbLine
 10
11.097195
 20
16.359616
 30
0.0
 11
11.000791
 21
16.456299
 31
0.0
  0
LINE
  5
42F
100
AcDbEntity
  8
LOGO
  6
CONTINUOUS2
 62
     7
100
AcDbLine
 10
11.000791
 20
16.456299
 30
0.0
 11
10.920458
 21
16.508891
 31
0.0
  0
LINE
  5
430
100
AcDbEntity
  8
LOGO
  6
CONTINUOUS2
 62
     7
100
AcDbLine
 10
10.920458
 20
16.508891
 30
0.0
 11
10.676689
 21
16.572816
 31
0.0
  0
LINE
  5
431
100
AcDbEntity
  8
LOGO
  6
CONTINUOUS2
 62
     7
100
AcDbLine
 10
10.676689
 20
16.572816
 30
0.0
 11
10.481232
 21
16.551274
 31
0.0
  0
LINE
  5
432
100
AcDbEntity
  8
LOGO
  6
CONTINUOUS2
 62
     7
100
AcDbLine
 10
10.481232
 20
16.551274
 30
0.0
 11
10.400182
 21
16.524987
 31
0.0
  0
LINE
  5
433
100
AcDbEntity
  8
LOGO
  6
CONTINUOUS2
 62
     7
100
AcDbLine
 10
10.400182
 20
16.524987
 30
0.0
 11
10.273789
 21
16.533842
 31
0.0
  0
LINE
  5
434
100
AcDbEntity
  8
LOGO
  6
CONTINUOUS2
 62
     7
100
AcDbLine
 10
10.273789
 20
16.533842
 30
0.0
 11
10.075866
 21
16.664284
 31
0.0
  0
LINE
  5
435
100
AcDbEntity
  8
LOGO
  6
CONTINUOUS2
 62
     7
100
AcDbLine
 10
10.075866
 20
16.664284
 30
0.0
 11
10.064954
 21
16.682827
 31
0.0
  0
LINE
  5
436
100
AcDbEntity
  8
LOGO
  6
CONTINUOUS2
 62
     7
100
AcDbLine
 10
10.064954
 20
16.682827
 30
0.0
 11
9.824971
 21
16.83314
 31
0.0
  0
LINE
  5
437
100
AcDbEntity
  8
LOGO
  6
CONTINUOUS2
 62
     7
100
AcDbLine
 10
9.824971
 20
16.83314
 30
0.0
 11
9.61343
 21
16.914875
 31
0.0
  0
LINE
  5
438
100
AcDbEntity
  8
LOGO
  6
CONTINUOUS2
 62
     7
100
AcDbLine
 10
9.61343
 20
16.914875
 30
0.0
 11
9.593819
 21
16.939981
 31
0.0
  0
LINE
  5
439
100
AcDbEntity
  8
LOGO
  6
CONTINUOUS2
 62
     7
100
AcDbLine
 10
9.593819
 20
16.939981
 30
0.0
 11
9.573561
 21
16.946506
 31
0.0
  0
LINE
  5
43A
100
AcDbEntity
  8
LOGO
  6
CONTINUOUS2
 62
     7
100
AcDbLine
 10
9.573561
 20
16.946506
 30
0.0
 11
9.557833
 21
16.943144
 31
0.0
  0
LINE
  5
43B
100
AcDbEntity
  8
LOGO
  6
CONTINUOUS2
 62
     7
100
AcDbLine
 10
9.557833
 20
16.943144
 30
0.0
 11
9.537691
 21
16.967424
 31
0.0
  0
LINE
  5
43C
100
AcDbEntity
  8
LOGO
  6
CONTINUOUS2
 62
     7
100
AcDbLine
 10
9.537691
 20
16.967424
 30
0.0
 11
9.477796
 21
16.98353
 31
0.0
  0
LINE
  5
43D
100
AcDbEntity
  8
LOGO
  6
CONTINUOUS2
 62
     7
100
AcDbLine
 10
9.477796
 20
16.98353
 30
0.0
 11
9.367981
 21
17.03398
 31
0.0
  0
LINE
  5
43E
100
AcDbEntity
  8
LOGO
  6
CONTINUOUS2
 62
     7
100
AcDbLine
 10
9.367981
 20
17.03398
 30
0.0
 11
9.353591
 21
17.049894
 31
0.0
  0
LINE
  5
43F
100
AcDbEntity
  8
LOGO
  6
CONTINUOUS2
 62
     7
100
AcDbLine
 10
9.353591
 20
17.049894
 30
0.0
 11
9.244448
 21
17.082768
 31
0.0
  0
LINE
  5
440
100
AcDbEntity
  8
LOGO
  6
CONTINUOUS2
 62
     7
100
AcDbLine
 10
9.244448
 20
17.082768
 30
0.0
 11
8.845497
 21
17.23059
 31
0.0
  0
LINE
  5
441
100
AcDbEntity
  8
LOGO
  6
CONTINUOUS2
 62
     7
100
AcDbLine
 10
8.845497
 20
17.23059
 30
0.0
 11
8.798193
 21
17.260913
 31
0.0
  0
LINE
  5
442
100
AcDbEntity
  8
LOGO
  6
CONTINUOUS2
 62
     7
100
AcDbLine
 10
8.798193
 20
17.260913
 30
0.0
 11
8.779564
 21
17.33249
 31
0.0
  0
LINE
  5
443
100
AcDbEntity
  8
LOGO
  6
CONTINUOUS2
 62
     7
100
AcDbLine
 10
8.779564
 20
17.33249
 30
0.0
 11
8.795109
 21
17.337243
 31
0.0
  0
LINE
  5
444
100
AcDbEntity
  8
LOGO
  6
CONTINUOUS2
 62
     7
100
AcDbLine
 10
8.795109
 20
17.337243
 30
0.0
 11
8.813499
 21
17.359501
 31
0.0
  0
LINE
  5
445
100
AcDbEntity
  8
LOGO
  6
CONTINUOUS2
 62
     7
100
AcDbLine
 10
8.813499
 20
17.359501
 30
0.0
 11
8.851449
 21
17.375745
 31
0.0
  0
LINE
  5
446
100
AcDbEntity
  8
LOGO
  6
CONTINUOUS2
 62
     7
100
AcDbLine
 10
8.851449
 20
17.375745
 30
0.0
 11
8.860279
 21
17.410149
 31
0.0
  0
LINE
  5
447
100
AcDbEntity
  8
LOGO
  6
CONTINUOUS2
 62
     7
100
AcDbLine
 10
8.860279
 20
17.410149
 30
0.0
 11
8.894366
 21
17.436664
 31
0.0
  0
LINE
  5
448
100
AcDbEntity
  8
LOGO
  6
CONTINUOUS2
 62
     7
100
AcDbLine
 10
8.894366
 20
17.436664
 30
0.0
 11
8.878159
 21
17.447682
 31
0.0
  0
LINE
  5
449
100
AcDbEntity
  8
LOGO
  6
CONTINUOUS2
 62
     7
100
AcDbLine
 10
8.878159
 20
17.447682
 30
0.0
 11
8.789787
 21
17.423256
 31
0.0
  0
LINE
  5
44A
100
AcDbEntity
  8
LOGO
  6
CONTINUOUS2
 62
     7
100
AcDbLine
 10
8.789787
 20
17.423256
 30
0.0
 11
8.430086
 21
17.396766
 31
0.0
  0
LINE
  5
44B
100
AcDbEntity
  8
LOGO
  6
CONTINUOUS2
 62
     7
100
AcDbLine
 10
8.430086
 20
17.396766
 30
0.0
 11
8.170506
 21
17.505705
 31
0.0
  0
LINE
  5
44C
100
AcDbEntity
  8
LOGO
  6
CONTINUOUS2
 62
     7
100
AcDbLine
 10
8.170506
 20
17.505705
 30
0.0
 11
8.16099
 21
17.518889
 31
0.0
  0
LINE
  5
44D
100
AcDbEntity
  8
LOGO
  6
CONTINUOUS2
 62
     7
100
AcDbLine
 10
8.16099
 20
17.518889
 30
0.0
 11
8.131458
 21
17.536623
 31
0.0
  0
LINE
  5
44E
100
AcDbEntity
  8
LOGO
  6
CONTINUOUS2
 62
     7
100
AcDbLine
 10
8.131458
 20
17.536623
 30
0.0
 11
7.843004
 21
17.656806
 31
0.0
  0
LINE
  5
44F
100
AcDbEntity
  8
LOGO
  6
CONTINUOUS2
 62
     7
100
AcDbLine
 10
7.843004
 20
17.656806
 30
0.0
 11
7.770726
 21
17.661952
 31
0.0
  0
LINE
  5
450
100
AcDbEntity
  8
LOGO
  6
CONTINUOUS2
 62
     7
100
AcDbLine
 10
7.770726
 20
17.661952
 30
0.0
 11
7.662659
 21
17.687561
 31
0.0
  0
LINE
  5
451
100
AcDbEntity
  8
LOGO
  6
CONTINUOUS2
 62
     7
100
AcDbLine
 10
7.662659
 20
17.687561
 30
0.0
 11
7.494922
 21
17.694626
 31
0.0
  0
LINE
  5
452
100
AcDbEntity
  8
LOGO
  6
CONTINUOUS2
 62
     7
100
AcDbLine
 10
7.494922
 20
17.694626
 30
0.0
 11
7.478341
 21
17.700165
 31
0.0
  0
LINE
  5
453
100
AcDbEntity
  8
LOGO
  6
CONTINUOUS2
 62
     7
100
AcDbLine
 10
7.478341
 20
17.700165
 30
0.0
 11
7.427849
 21
17.684728
 31
0.0
  0
LINE
  5
454
100
AcDbEntity
  8
LOGO
  6
CONTINUOUS2
 62
     7
100
AcDbLine
 10
7.427849
 20
17.684728
 30
0.0
 11
7.365706
 21
17.714492
 31
0.0
  0
LINE
  5
455
100
AcDbEntity
  8
LOGO
  6
CONTINUOUS2
 62
     7
100
AcDbLine
 10
7.365706
 20
17.714492
 30
0.0
 11
7.348524
 21
17.795734
 31
0.0
  0
LINE
  5
456
100
AcDbEntity
  8
LOGO
  6
CONTINUOUS2
 62
     7
100
AcDbLine
 10
7.348524
 20
17.795734
 30
0.0
 11
7.370118
 21
17.908059
 31
0.0
  0
LINE
  5
457
100
AcDbEntity
  8
LOGO
  6
CONTINUOUS2
 62
     7
100
AcDbLine
 10
7.370118
 20
17.908059
 30
0.0
 11
7.367545
 21
17.995335
 31
0.0
  0
LINE
  5
458
100
AcDbEntity
  8
LOGO
  6
CONTINUOUS2
 62
     7
100
AcDbLine
 10
7.367545
 20
17.995335
 30
0.0
 11
7.296831
 21
18.129828
 31
0.0
  0
LINE
  5
459
100
AcDbEntity
  8
LOGO
  6
CONTINUOUS2
 62
     7
100
AcDbLine
 10
7.296831
 20
18.129828
 30
0.0
 11
7.21105
 21
18.221141
 31
0.0
  0
LINE
  5
45A
100
AcDbEntity
  8
LOGO
  6
CONTINUOUS2
 62
     7
100
AcDbLine
 10
7.21105
 20
18.221141
 30
0.0
 11
7.116988
 21
18.270138
 31
0.0
  0
LINE
  5
45B
100
AcDbEntity
  8
LOGO
  6
CONTINUOUS2
 62
     7
100
AcDbLine
 10
7.116988
 20
18.270138
 30
0.0
 11
7.09753
 21
18.264189
 31
0.0
  0
LINE
  5
45C
100
AcDbEntity
  8
LOGO
  6
CONTINUOUS2
 62
     7
100
AcDbLine
 10
7.09753
 20
18.264189
 30
0.0
 11
7.054758
 21
18.27673
 31
0.0
  0
LINE
  5
45D
100
AcDbEntity
  8
LOGO
  6
CONTINUOUS2
 62
     7
100
AcDbLine
 10
7.054758
 20
18.27673
 30
0.0
 11
6.715902
 21
18.318877
 31
0.0
  0
LINE
  5
45E
100
AcDbEntity
  8
LOGO
  6
CONTINUOUS2
 62
     7
100
AcDbLine
 10
6.715902
 20
18.318877
 30
0.0
 11
6.151113
 21
18.229986
 31
0.0
  0
LINE
  5
45F
100
AcDbEntity
  8
LOGO
  6
CONTINUOUS2
 62
     7
100
AcDbLine
 10
6.151113
 20
18.229986
 30
0.0
 11
6.119445
 21
18.238146
 31
0.0
  0
LINE
  5
460
100
AcDbEntity
  8
LOGO
  6
CONTINUOUS2
 62
     7
100
AcDbLine
 10
6.119445
 20
18.238146
 30
0.0
 11
5.977555
 21
18.237562
 31
0.0
  0
LINE
  5
461
100
AcDbEntity
  8
LOGO
  6
CONTINUOUS2
 62
     7
100
AcDbLine
 10
5.977555
 20
18.237562
 30
0.0
 11
5.743136
 21
18.316642
 31
0.0
  0
LINE
  5
462
100
AcDbEntity
  8
LOGO
  6
CONTINUOUS2
 62
     7
100
AcDbLine
 10
5.743136
 20
18.316642
 30
0.0
 11
5.724246
 21
18.358123
 31
0.0
  0
LINE
  5
463
100
AcDbEntity
  8
LOGO
  6
CONTINUOUS2
 62
     7
100
AcDbLine
 10
5.724246
 20
18.358123
 30
0.0
 11
5.728834
 21
18.402261
 31
0.0
  0
LINE
  5
464
100
AcDbEntity
  8
LOGO
  6
CONTINUOUS2
 62
     7
100
AcDbLine
 10
5.728834
 20
18.402261
 30
0.0
 11
5.696191
 21
18.431158
 31
0.0
  0
LINE
  5
465
100
AcDbEntity
  8
LOGO
  6
CONTINUOUS2
 62
     7
100
AcDbLine
 10
5.696191
 20
18.431158
 30
0.0
 11
5.744927
 21
18.443467
 31
0.0
  0
LINE
  5
466
100
AcDbEntity
  8
LOGO
  6
CONTINUOUS2
 62
     7
100
AcDbLine
 10
5.744927
 20
18.443467
 30
0.0
 11
5.913934
 21
18.423771
 31
0.0
  0
LINE
  5
467
100
AcDbEntity
  8
LOGO
  6
CONTINUOUS2
 62
     7
100
AcDbLine
 10
5.913934
 20
18.423771
 30
0.0
 11
6.148425
 21
18.447362
 31
0.0
  0
LINE
  5
468
100
AcDbEntity
  8
LOGO
  6
CONTINUOUS2
 62
     7
100
AcDbLine
 10
6.148425
 20
18.447362
 30
0.0
 11
6.816083
 21
18.574573
 31
0.0
  0
LINE
  5
469
100
AcDbEntity
  8
LOGO
  6
CONTINUOUS2
 62
     7
100
AcDbLine
 10
6.816083
 20
18.574573
 30
0.0
 11
6.956742
 21
18.590816
 31
0.0
  0
LINE
  5
46A
100
AcDbEntity
  8
LOGO
  6
CONTINUOUS2
 62
     7
100
AcDbLine
 10
6.956742
 20
18.590816
 30
0.0
 11
7.062886
 21
18.61507
 31
0.0
  0
LINE
  5
46B
100
AcDbEntity
  8
LOGO
  6
CONTINUOUS2
 62
     7
100
AcDbLine
 10
7.062886
 20
18.61507
 30
0.0
 11
7.20364
 21
18.603011
 31
0.0
  0
LINE
  5
46C
100
AcDbEntity
  8
LOGO
  6
CONTINUOUS2
 62
     7
100
AcDbLine
 10
7.20364
 20
18.603011
 30
0.0
 11
7.417202
 21
18.563363
 31
0.0
  0
LINE
  5
46D
100
AcDbEntity
  8
LOGO
  6
CONTINUOUS2
 62
     7
100
AcDbLine
 10
7.417202
 20
18.563363
 30
0.0
 11
7.555939
 21
18.483179
 31
0.0
  0
LINE
  5
46E
100
AcDbEntity
  8
LOGO
  6
CONTINUOUS2
 62
     7
100
AcDbLine
 10
7.555939
 20
18.483179
 30
0.0
 11
7.570837
 21
18.43445
 31
0.0
  0
LINE
  5
46F
100
AcDbEntity
  8
LOGO
  6
CONTINUOUS2
 62
     7
100
AcDbLine
 10
7.570837
 20
18.43445
 30
0.0
 11
7.613083
 21
18.398001
 31
0.0
  0
LINE
  5
470
100
AcDbEntity
  8
LOGO
  6
CONTINUOUS2
 62
     7
100
AcDbLine
 10
7.613083
 20
18.398001
 30
0.0
 11
7.722178
 21
18.078623
 31
0.0
  0
LINE
  5
471
100
AcDbEntity
  8
LOGO
  6
CONTINUOUS2
 62
     7
100
AcDbLine
 10
7.722178
 20
18.078623
 30
0.0
 11
7.708669
 21
18.053215
 31
0.0
  0
LINE
  5
472
100
AcDbEntity
  8
LOGO
  6
CONTINUOUS2
 62
     7
100
AcDbLine
 10
7.708669
 20
18.053215
 30
0.0
 11
7.722286
 21
18.008675
 31
0.0
  0
LINE
  5
473
100
AcDbEntity
  8
LOGO
  6
CONTINUOUS2
 62
     7
100
AcDbLine
 10
7.722286
 20
18.008675
 30
0.0
 11
7.869874
 21
18.026312
 31
0.0
  0
LINE
  5
474
100
AcDbEntity
  8
LOGO
  6
CONTINUOUS2
 62
     7
100
AcDbLine
 10
7.869874
 20
18.026312
 30
0.0
 11
8.097501
 21
18.010253
 31
0.0
  0
LINE
  5
475
100
AcDbEntity
  8
LOGO
  6
CONTINUOUS2
 62
     7
100
AcDbLine
 10
8.097501
 20
18.010253
 30
0.0
 11
8.147128
 21
17.989682
 31
0.0
  0
LINE
  5
476
100
AcDbEntity
  8
LOGO
  6
CONTINUOUS2
 62
     7
100
AcDbLine
 10
8.147128
 20
17.989682
 30
0.0
 11
8.37133
 21
17.951902
 31
0.0
  0
LINE
  5
477
100
AcDbEntity
  8
LOGO
  6
CONTINUOUS2
 62
     7
100
AcDbLine
 10
8.37133
 20
17.951902
 30
0.0
 11
8.476012
 21
17.904644
 31
0.0
  0
LINE
  5
478
100
AcDbEntity
  8
LOGO
  6
CONTINUOUS2
 62
     7
100
AcDbLine
 10
8.476012
 20
17.904644
 30
0.0
 11
8.497388
 21
17.885984
 31
0.0
  0
LINE
  5
479
100
AcDbEntity
  8
LOGO
  6
CONTINUOUS2
 62
     7
100
AcDbLine
 10
8.497388
 20
17.885984
 30
0.0
 11
8.556769
 21
17.882801
 31
0.0
  0
LINE
  5
47A
100
AcDbEntity
  8
LOGO
  6
CONTINUOUS2
 62
     7
100
AcDbLine
 10
8.556769
 20
17.882801
 30
0.0
 11
8.612239
 21
17.855337
 31
0.0
  0
LINE
  5
47B
100
AcDbEntity
  8
LOGO
  6
CONTINUOUS2
 62
     7
100
AcDbLine
 10
8.612239
 20
17.855337
 30
0.0
 11
8.633563
 21
17.856372
 31
0.0
  0
LINE
  5
47C
100
AcDbEntity
  8
LOGO
  6
CONTINUOUS2
 62
     7
100
AcDbLine
 10
8.633563
 20
17.856372
 30
0.0
 11
8.648868
 21
17.865451
 31
0.0
  0
LINE
  5
47D
100
AcDbEntity
  8
LOGO
  6
CONTINUOUS2
 62
     7
100
AcDbLine
 10
8.648868
 20
17.865451
 30
0.0
 11
8.683329
 21
17.860978
 31
0.0
  0
LINE
  5
47E
100
AcDbEntity
  8
LOGO
  6
CONTINUOUS2
 62
     7
100
AcDbLine
 10
8.683329
 20
17.860978
 30
0.0
 11
8.741685
 21
17.873756
 31
0.0
  0
LINE
  5
47F
100
AcDbEntity
  8
LOGO
  6
CONTINUOUS2
 62
     7
100
AcDbLine
 10
8.741685
 20
17.873756
 30
0.0
 11
8.763555
 21
17.952652
 31
0.0
  0
LINE
  5
480
100
AcDbEntity
  8
LOGO
  6
CONTINUOUS2
 62
     7
100
AcDbLine
 10
8.763555
 20
17.952652
 30
0.0
 11
8.733659
 21
18.15749
 31
0.0
  0
LINE
  5
481
100
AcDbEntity
  8
LOGO
  6
CONTINUOUS2
 62
     7
100
AcDbLine
 10
8.733659
 20
18.15749
 30
0.0
 11
8.670823
 21
18.383721
 31
0.0
  0
LINE
  5
482
100
AcDbEntity
  8
LOGO
  6
CONTINUOUS2
 62
     7
100
AcDbLine
 10
8.670823
 20
18.383721
 30
0.0
 11
8.600009
 21
18.479307
 31
0.0
  0
LINE
  5
483
100
AcDbEntity
  8
LOGO
  6
CONTINUOUS2
 62
     7
100
AcDbLine
 10
8.600009
 20
18.479307
 30
0.0
 11
8.568041
 21
18.509737
 31
0.0
  0
LINE
  5
484
100
AcDbEntity
  8
LOGO
  6
CONTINUOUS2
 62
     7
100
AcDbLine
 10
8.568041
 20
18.509737
 30
0.0
 11
8.558995
 21
18.540907
 31
0.0
  0
LINE
  5
485
100
AcDbEntity
  8
LOGO
  6
CONTINUOUS2
 62
     7
100
AcDbLine
 10
8.558995
 20
18.540907
 30
0.0
 11
8.544611
 21
18.54103
 31
0.0
  0
LINE
  5
486
100
AcDbEntity
  8
LOGO
  6
CONTINUOUS2
 62
     7
100
AcDbLine
 10
8.544611
 20
18.54103
 30
0.0
 11
8.507918
 21
18.561878
 31
0.0
  0
LINE
  5
487
100
AcDbEntity
  8
LOGO
  6
CONTINUOUS2
 62
     7
100
AcDbLine
 10
8.507918
 20
18.561878
 30
0.0
 11
8.501806
 21
18.58207
 31
0.0
  0
LINE
  5
488
100
AcDbEntity
  8
LOGO
  6
CONTINUOUS2
 62
     7
100
AcDbLine
 10
8.501806
 20
18.58207
 30
0.0
 11
8.436624
 21
18.662983
 31
0.0
  0
LINE
  5
489
100
AcDbEntity
  8
LOGO
  6
CONTINUOUS2
 62
     7
100
AcDbLine
 10
8.436624
 20
18.662983
 30
0.0
 11
8.279549
 21
18.75938
 31
0.0
  0
LINE
  5
48A
100
AcDbEntity
  8
LOGO
  6
CONTINUOUS2
 62
     7
100
AcDbLine
 10
8.279549
 20
18.75938
 30
0.0
 11
8.274414
 21
18.772036
 31
0.0
  0
LINE
  5
48B
100
AcDbEntity
  8
LOGO
  6
CONTINUOUS2
 62
     7
100
AcDbLine
 10
8.274414
 20
18.772036
 30
0.0
 11
8.233469
 21
18.801469
 31
0.0
  0
LINE
  5
48C
100
AcDbEntity
  8
LOGO
  6
CONTINUOUS2
 62
     7
100
AcDbLine
 10
8.233469
 20
18.801469
 30
0.0
 11
7.908579
 21
18.929439
 31
0.0
  0
LINE
  5
48D
100
AcDbEntity
  8
LOGO
  6
CONTINUOUS2
 62
     7
100
AcDbLine
 10
7.908579
 20
18.929439
 30
0.0
 11
7.566065
 21
18.992227
 31
0.0
  0
LINE
  5
48E
100
AcDbEntity
  8
LOGO
  6
CONTINUOUS2
 62
     7
100
AcDbLine
 10
7.566065
 20
18.992227
 30
0.0
 11
6.842147
 21
19.026954
 31
0.0
  0
LINE
  5
48F
100
AcDbEntity
  8
LOGO
  6
CONTINUOUS2
 62
     7
100
AcDbLine
 10
6.842147
 20
19.026954
 30
0.0
 11
6.841777
 21
19.014364
 31
0.0
  0
LINE
  5
490
100
AcDbEntity
  8
LOGO
  6
CONTINUOUS2
 62
     7
100
AcDbLine
 10
6.841777
 20
19.014364
 30
0.0
 11
6.852739
 21
18.999211
 31
0.0
  0
LINE
  5
491
100
AcDbEntity
  8
LOGO
  6
CONTINUOUS2
 62
     7
100
AcDbLine
 10
6.852739
 20
18.999211
 30
0.0
 11
6.867676
 21
18.9957
 31
0.0
  0
LINE
  5
492
100
AcDbEntity
  8
LOGO
  6
CONTINUOUS2
 62
     7
100
AcDbLine
 10
6.867676
 20
18.9957
 30
0.0
 11
6.877282
 21
18.96862
 31
0.0
  0
LINE
  5
493
100
AcDbEntity
  8
LOGO
  6
CONTINUOUS2
 62
     7
100
AcDbLine
 10
6.877282
 20
18.96862
 30
0.0
 11
6.872075
 21
18.912901
 31
0.0
  0
LINE
  5
494
100
AcDbEntity
  8
LOGO
  6
CONTINUOUS2
 62
     7
100
AcDbLine
 10
6.872075
 20
18.912901
 30
0.0
 11
6.845595
 21
18.879249
 31
0.0
  0
LINE
  5
495
100
AcDbEntity
  8
LOGO
  6
CONTINUOUS2
 62
     7
100
AcDbLine
 10
6.845595
 20
18.879249
 30
0.0
 11
6.820346
 21
18.865622
 31
0.0
  0
LINE
  5
496
100
AcDbEntity
  8
LOGO
  6
CONTINUOUS2
 62
     7
100
AcDbLine
 10
6.820346
 20
18.865622
 30
0.0
 11
6.792071
 21
18.860714
 31
0.0
  0
LINE
  5
497
100
AcDbEntity
  8
LOGO
  6
CONTINUOUS2
 62
     7
100
AcDbLine
 10
6.792071
 20
18.860714
 30
0.0
 11
6.765582
 21
18.864551
 31
0.0
  0
LINE
  5
498
100
AcDbEntity
  8
LOGO
  6
CONTINUOUS2
 62
     7
100
AcDbLine
 10
6.765582
 20
18.864551
 30
0.0
 11
6.583664
 21
18.85432
 31
0.0
  0
LINE
  5
499
100
AcDbEntity
  8
LOGO
  6
CONTINUOUS2
 62
     7
100
AcDbLine
 10
6.583664
 20
18.85432
 30
0.0
 11
6.210043
 21
18.795486
 31
0.0
  0
LINE
  5
49A
100
AcDbEntity
  8
LOGO
  6
CONTINUOUS2
 62
     7
100
AcDbLine
 10
6.210043
 20
18.795486
 30
0.0
 11
5.323694
 21
18.551204
 31
0.0
  0
LINE
  5
49B
100
AcDbEntity
  8
LOGO
  6
CONTINUOUS2
 62
     7
100
AcDbLine
 10
5.323694
 20
18.551204
 30
0.0
 11
4.927186
 21
18.387425
 31
0.0
  0
LINE
  5
49C
100
AcDbEntity
  8
LOGO
  6
CONTINUOUS2
 62
     7
100
AcDbLine
 10
4.927186
 20
18.387425
 30
0.0
 11
4.469742
 21
18.153841
 31
0.0
  0
LINE
  5
49D
100
AcDbEntity
  8
LOGO
  6
CONTINUOUS2
 62
     7
100
AcDbLine
 10
4.469742
 20
18.153841
 30
0.0
 11
4.382273
 21
18.093345
 31
0.0
  0
LINE
  5
49E
100
AcDbEntity
  8
LOGO
  6
CONTINUOUS2
 62
     7
100
AcDbLine
 10
4.382273
 20
18.093345
 30
0.0
 11
4.340579
 21
18.080477
 31
0.0
  0
LINE
  5
49F
100
AcDbEntity
  8
LOGO
  6
CONTINUOUS2
 62
     7
100
AcDbLine
 10
4.340579
 20
18.080477
 30
0.0
 11
4.378017
 21
18.059556
 31
0.0
  0
LINE
  5
4A0
100
AcDbEntity
  8
LOGO
  6
CONTINUOUS2
 62
     7
100
AcDbLine
 10
4.378017
 20
18.059556
 30
0.0
 11
4.42384
 21
18.058919
 31
0.0
  0
LINE
  5
4A1
100
AcDbEntity
  8
LOGO
  6
CONTINUOUS2
 62
     7
100
AcDbLine
 10
4.42384
 20
18.058919
 30
0.0
 11
4.501359
 21
18.039582
 31
0.0
  0
LINE
  5
4A2
100
AcDbEntity
  8
LOGO
  6
CONTINUOUS2
 62
     7
100
AcDbLine
 10
4.501359
 20
18.039582
 30
0.0
 11
4.73348
 21
18.016518
 31
0.0
  0
LINE
  5
4A3
100
AcDbEntity
  8
LOGO
  6
CONTINUOUS2
 62
     7
100
AcDbLine
 10
4.73348
 20
18.016518
 30
0.0
 11
5.368564
 21
18.160956
 31
0.0
  0
LINE
  5
4A4
100
AcDbEntity
  8
LOGO
  6
CONTINUOUS2
 62
     7
100
AcDbLine
 10
5.368564
 20
18.160956
 30
0.0
 11
5.376683
 21
18.157471
 31
0.0
  0
LINE
  5
4A5
100
AcDbEntity
  8
LOGO
  6
CONTINUOUS2
 62
     7
100
AcDbLine
 10
5.376683
 20
18.157471
 30
0.0
 11
5.376475
 21
18.141193
 31
0.0
  0
LINE
  5
4A6
100
AcDbEntity
  8
LOGO
  6
CONTINUOUS2
 62
     7
100
AcDbLine
 10
11.310386
 20
15.453516
 30
0.0
 11
11.210406
 21
15.376175
 31
0.0
  0
LINE
  5
4A7
100
AcDbEntity
  8
LOGO
  6
CONTINUOUS2
 62
     7
100
AcDbLine
 10
11.210406
 20
15.376175
 30
0.0
 11
10.838849
 21
15.195251
 31
0.0
  0
LINE
  5
4A8
100
AcDbEntity
  8
LOGO
  6
CONTINUOUS2
 62
     7
100
AcDbLine
 10
10.838849
 20
15.195251
 30
0.0
 11
10.544134
 21
15.130283
 31
0.0
  0
LINE
  5
4A9
100
AcDbEntity
  8
LOGO
  6
CONTINUOUS2
 62
     7
100
AcDbLine
 10
10.544134
 20
15.130283
 30
0.0
 11
10.357363
 21
15.117001
 31
0.0
  0
LINE
  5
4AA
100
AcDbEntity
  8
LOGO
  6
CONTINUOUS2
 62
     7
100
AcDbLine
 10
10.357363
 20
15.117001
 30
0.0
 11
10.279994
 21
15.17725
 31
0.0
  0
LINE
  5
4AB
100
AcDbEntity
  8
LOGO
  6
CONTINUOUS2
 62
     7
100
AcDbLine
 10
10.279994
 20
15.17725
 30
0.0
 11
10.151246
 21
15.210761
 31
0.0
  0
LINE
  5
4AC
100
AcDbEntity
  8
LOGO
  6
CONTINUOUS2
 62
     7
100
AcDbLine
 10
10.151246
 20
15.210761
 30
0.0
 11
10.142331
 21
15.239921
 31
0.0
  0
LINE
  5
4AD
100
AcDbEntity
  8
LOGO
  6
CONTINUOUS2
 62
     7
100
AcDbLine
 10
10.142331
 20
15.239921
 30
0.0
 11
10.113946
 21
15.235764
 31
0.0
  0
LINE
  5
4AE
100
AcDbEntity
  8
LOGO
  6
CONTINUOUS2
 62
     7
100
AcDbLine
 10
10.113946
 20
15.235764
 30
0.0
 11
9.936561
 21
15.290751
 31
0.0
  0
LINE
  5
4AF
100
AcDbEntity
  8
LOGO
  6
CONTINUOUS2
 62
     7
100
AcDbLine
 10
9.936561
 20
15.290751
 30
0.0
 11
9.629386
 21
15.338305
 31
0.0
  0
LINE
  5
4B0
100
AcDbEntity
  8
LOGO
  6
CONTINUOUS2
 62
     7
100
AcDbLine
 10
9.629386
 20
15.338305
 30
0.0
 11
9.5491
 21
15.370238
 31
0.0
  0
LINE
  5
4B1
100
AcDbEntity
  8
LOGO
  6
CONTINUOUS2
 62
     7
100
AcDbLine
 10
9.5491
 20
15.370238
 30
0.0
 11
9.555109
 21
15.381537
 31
0.0
  0
LINE
  5
4B2
100
AcDbEntity
  8
LOGO
  6
CONTINUOUS2
 62
     7
100
AcDbLine
 10
9.555109
 20
15.381537
 30
0.0
 11
9.551931
 21
15.400215
 31
0.0
  0
LINE
  5
4B3
100
AcDbEntity
  8
LOGO
  6
CONTINUOUS2
 62
     7
100
AcDbLine
 10
9.551931
 20
15.400215
 30
0.0
 11
9.537159
 21
15.41107
 31
0.0
  0
LINE
  5
4B4
100
AcDbEntity
  8
LOGO
  6
CONTINUOUS2
 62
     7
100
AcDbLine
 10
9.537159
 20
15.41107
 30
0.0
 11
9.571053
 21
15.432101
 31
0.0
  0
LINE
  5
4B5
100
AcDbEntity
  8
LOGO
  6
CONTINUOUS2
 62
     7
100
AcDbLine
 10
9.571053
 20
15.432101
 30
0.0
 11
9.55724
 21
15.436075
 31
0.0
  0
LINE
  5
4B6
100
AcDbEntity
  8
LOGO
  6
CONTINUOUS2
 62
     7
100
AcDbLine
 10
9.55724
 20
15.436075
 30
0.0
 11
9.53348
 21
15.457803
 31
0.0
  0
LINE
  5
4B7
100
AcDbEntity
  8
LOGO
  6
CONTINUOUS2
 62
     7
100
AcDbLine
 10
9.53348
 20
15.457803
 30
0.0
 11
9.639303
 21
15.492568
 31
0.0
  0
LINE
  5
4B8
100
AcDbEntity
  8
LOGO
  6
CONTINUOUS2
 62
     7
100
AcDbLine
 10
9.639303
 20
15.492568
 30
0.0
 11
9.996552
 21
15.578343
 31
0.0
  0
LINE
  5
4B9
100
AcDbEntity
  8
LOGO
  6
CONTINUOUS2
 62
     7
100
AcDbLine
 10
9.996552
 20
15.578343
 30
0.0
 11
10.214906
 21
15.538594
 31
0.0
  0
LINE
  5
4BA
100
AcDbEntity
  8
LOGO
  6
CONTINUOUS2
 62
     7
100
AcDbLine
 10
10.214906
 20
15.538594
 30
0.0
 11
10.371727
 21
15.481478
 31
0.0
  0
LINE
  5
4BB
100
AcDbEntity
  8
LOGO
  6
CONTINUOUS2
 62
     7
100
AcDbLine
 10
10.371727
 20
15.481478
 30
0.0
 11
10.532416
 21
15.442061
 31
0.0
  0
LINE
  5
4BC
100
AcDbEntity
  8
LOGO
  6
CONTINUOUS2
 62
     7
100
AcDbLine
 10
10.532416
 20
15.442061
 30
0.0
 11
10.538823
 21
15.403756
 31
0.0
  0
LINE
  5
4BD
100
AcDbEntity
  8
LOGO
  6
CONTINUOUS2
 62
     7
100
AcDbLine
 10
10.538823
 20
15.403756
 30
0.0
 11
10.574292
 21
15.407608
 31
0.0
  0
LINE
  5
4BE
100
AcDbEntity
  8
LOGO
  6
CONTINUOUS2
 62
     7
100
AcDbLine
 10
10.574292
 20
15.407608
 30
0.0
 11
10.618498
 21
15.395506
 31
0.0
  0
LINE
  5
4BF
100
AcDbEntity
  8
LOGO
  6
CONTINUOUS2
 62
     7
100
AcDbLine
 10
10.618498
 20
15.395506
 30
0.0
 11
11.033869
 21
15.471565
 31
0.0
  0
LINE
  5
4C0
100
AcDbEntity
  8
LOGO
  6
CONTINUOUS2
 62
     7
100
AcDbLine
 10
11.033869
 20
15.471565
 30
0.0
 11
11.252925
 21
15.53697
 31
0.0
  0
LINE
  5
4C1
100
AcDbEntity
  8
LOGO
  6
CONTINUOUS2
 62
     7
100
AcDbLine
 10
9.80851
 20
16.074122
 30
0.0
 11
9.657754
 21
16.101748
 31
0.0
  0
LINE
  5
4C2
100
AcDbEntity
  8
LOGO
  6
CONTINUOUS2
 62
     7
100
AcDbLine
 10
9.822405
 20
16.077767
 30
0.0
 11
9.80851
 21
16.074122
 31
0.0
  0
LINE
  5
4C3
100
AcDbEntity
  8
LOGO
  6
CONTINUOUS2
 62
     7
100
AcDbLine
 10
9.83132
 20
16.048607
 30
0.0
 11
9.822405
 21
16.077767
 31
0.0
  0
LINE
  5
4C4
100
AcDbEntity
  8
LOGO
  6
CONTINUOUS2
 62
     7
100
AcDbLine
 10
9.981798
 20
16.036085
 30
0.0
 11
9.83132
 21
16.048607
 31
0.0
  0
LINE
  5
4C5
100
AcDbEntity
  8
LOGO
  6
CONTINUOUS2
 62
     7
100
AcDbLine
 10
9.964882
 20
16.060267
 30
0.0
 11
9.981798
 21
16.036085
 31
0.0
  0
LINE
  5
4C6
100
AcDbEntity
  8
LOGO
  6
CONTINUOUS2
 62
     7
100
AcDbLine
 10
9.929059
 20
16.083792
 30
0.0
 11
9.964882
 21
16.060267
 31
0.0
  0
LINE
  5
4C7
100
AcDbEntity
  8
LOGO
  6
CONTINUOUS2
 62
     7
100
AcDbLine
 10
9.959608
 20
16.089938
 30
0.0
 11
9.929059
 21
16.083792
 31
0.0
  0
LINE
  5
4C8
100
AcDbEntity
  8
LOGO
  6
CONTINUOUS2
 62
     7
100
AcDbLine
 10
9.985284
 20
16.082056
 30
0.0
 11
9.959608
 21
16.089938
 31
0.0
  0
LINE
  5
4C9
100
AcDbEntity
  8
LOGO
  6
CONTINUOUS2
 62
     7
100
AcDbLine
 10
9.970688
 20
16.121714
 30
0.0
 11
9.985284
 21
16.082056
 31
0.0
  0
LINE
  5
4CA
100
AcDbEntity
  8
LOGO
  6
CONTINUOUS2
 62
     7
100
AcDbLine
 10
9.953587
 20
16.135654
 30
0.0
 11
9.970688
 21
16.121714
 31
0.0
  0
LINE
  5
4CB
100
AcDbEntity
  8
LOGO
  6
CONTINUOUS2
 62
     7
100
AcDbLine
 10
9.93013
 20
16.142587
 30
0.0
 11
9.953587
 21
16.135654
 31
0.0
  0
LINE
  5
4CC
100
AcDbEntity
  8
LOGO
  6
CONTINUOUS2
 62
     7
100
AcDbLine
 10
9.789413
 20
16.239104
 30
0.0
 11
9.93013
 21
16.142587
 31
0.0
  0
LINE
  5
4CD
100
AcDbEntity
  8
LOGO
  6
CONTINUOUS2
 62
     7
100
AcDbLine
 10
9.525202
 20
16.343673
 30
0.0
 11
9.789413
 21
16.239104
 31
0.0
  0
LINE
  5
4CE
100
AcDbEntity
  8
LOGO
  6
CONTINUOUS2
 62
     7
100
AcDbLine
 10
9.214829
 20
16.444859
 30
0.0
 11
9.525202
 21
16.343673
 31
0.0
  0
LINE
  5
4CF
100
AcDbEntity
  8
LOGO
  6
CONTINUOUS2
 62
     7
100
AcDbLine
 10
9.130343
 20
16.454651
 30
0.0
 11
9.214829
 21
16.444859
 31
0.0
  0
LINE
  5
4D0
100
AcDbEntity
  8
LOGO
  6
CONTINUOUS2
 62
     7
100
AcDbLine
 10
8.872546
 20
16.53213
 30
0.0
 11
9.130343
 21
16.454651
 31
0.0
  0
LINE
  5
4D1
100
AcDbEntity
  8
LOGO
  6
CONTINUOUS2
 62
     7
100
AcDbLine
 10
8.841438
 20
16.561918
 30
0.0
 11
8.872546
 21
16.53213
 31
0.0
  0
LINE
  5
4D2
100
AcDbEntity
  8
LOGO
  6
CONTINUOUS2
 62
     7
100
AcDbLine
 10
8.806698
 20
16.617782
 30
0.0
 11
8.841438
 21
16.561918
 31
0.0
  0
LINE
  5
4D3
100
AcDbEntity
  8
LOGO
  6
CONTINUOUS2
 62
     7
100
AcDbLine
 10
8.77171
 20
16.697919
 30
0.0
 11
8.806698
 21
16.617782
 31
0.0
  0
LINE
  5
4D4
100
AcDbEntity
  8
LOGO
  6
CONTINUOUS2
 62
     7
100
AcDbLine
 10
8.617555
 20
16.843912
 30
0.0
 11
8.77171
 21
16.697919
 31
0.0
  0
LINE
  5
4D5
100
AcDbEntity
  8
LOGO
  6
CONTINUOUS2
 62
     7
100
AcDbLine
 10
8.588615
 20
16.853991
 30
0.0
 11
8.617555
 21
16.843912
 31
0.0
  0
LINE
  5
4D6
100
AcDbEntity
  8
LOGO
  6
CONTINUOUS2
 62
     7
100
AcDbLine
 10
8.533337
 20
16.854992
 30
0.0
 11
8.588615
 21
16.853991
 31
0.0
  0
LINE
  5
4D7
100
AcDbEntity
  8
LOGO
  6
CONTINUOUS2
 62
     7
100
AcDbLine
 10
8.513337
 20
16.84707
 30
0.0
 11
8.533337
 21
16.854992
 31
0.0
  0
LINE
  5
4D8
100
AcDbEntity
  8
LOGO
  6
CONTINUOUS2
 62
     7
100
AcDbLine
 10
8.494204
 20
16.838086
 30
0.0
 11
8.513337
 21
16.84707
 31
0.0
  0
LINE
  5
4D9
100
AcDbEntity
  8
LOGO
  6
CONTINUOUS2
 62
     7
100
AcDbLine
 10
8.480748
 20
16.821375
 30
0.0
 11
8.494204
 21
16.838086
 31
0.0
  0
LINE
  5
4DA
100
AcDbEntity
  8
LOGO
  6
CONTINUOUS2
 62
     7
100
AcDbLine
 10
8.476617
 20
16.793289
 30
0.0
 11
8.480748
 21
16.821375
 31
0.0
  0
LINE
  5
4DB
100
AcDbEntity
  8
LOGO
  6
CONTINUOUS2
 62
     7
100
AcDbLine
 10
8.566404
 20
16.647869
 30
0.0
 11
8.476617
 21
16.793289
 31
0.0
  0
LINE
  5
4DC
100
AcDbEntity
  8
LOGO
  6
CONTINUOUS2
 62
     7
100
AcDbLine
 10
8.596903
 20
16.480285
 30
0.0
 11
8.566404
 21
16.647869
 31
0.0
  0
LINE
  5
4DD
100
AcDbEntity
  8
LOGO
  6
CONTINUOUS2
 62
     7
100
AcDbLine
 10
8.59907
 20
16.355695
 30
0.0
 11
8.596903
 21
16.480285
 31
0.0
  0
LINE
  5
4DE
100
AcDbEntity
  8
LOGO
  6
CONTINUOUS2
 62
     7
100
AcDbLine
 10
8.553536
 20
16.193918
 30
0.0
 11
8.59907
 21
16.355695
 31
0.0
  0
LINE
  5
4DF
100
AcDbEntity
  8
LOGO
  6
CONTINUOUS2
 62
     7
100
AcDbLine
 10
8.462149
 20
16.011191
 30
0.0
 11
8.553536
 21
16.193918
 31
0.0
  0
LINE
  5
4E0
100
AcDbEntity
  8
LOGO
  6
CONTINUOUS2
 62
     7
100
AcDbLine
 10
8.392125
 20
15.921431
 30
0.0
 11
8.462149
 21
16.011191
 31
0.0
  0
LINE
  5
4E1
100
AcDbEntity
  8
LOGO
  6
CONTINUOUS2
 62
     7
100
AcDbLine
 10
8.364395
 20
15.908432
 30
0.0
 11
8.392125
 21
15.921431
 31
0.0
  0
LINE
  5
4E2
100
AcDbEntity
  8
LOGO
  6
CONTINUOUS2
 62
     7
100
AcDbLine
 10
8.373322
 20
15.868787
 30
0.0
 11
8.364395
 21
15.908432
 31
0.0
  0
LINE
  5
4E3
100
AcDbEntity
  8
LOGO
  6
CONTINUOUS2
 62
     7
100
AcDbLine
 10
8.389017
 20
15.854117
 30
0.0
 11
8.373322
 21
15.868787
 31
0.0
  0
LINE
  5
4E4
100
AcDbEntity
  8
LOGO
  6
CONTINUOUS2
 62
     7
100
AcDbLine
 10
8.423569
 20
15.846778
 30
0.0
 11
8.389017
 21
15.854117
 31
0.0
  0
LINE
  5
4E5
100
AcDbEntity
  8
LOGO
  6
CONTINUOUS2
 62
     7
100
AcDbLine
 10
8.389657
 20
15.825802
 30
0.0
 11
8.423569
 21
15.846778
 31
0.0
  0
LINE
  5
4E6
100
AcDbEntity
  8
LOGO
  6
CONTINUOUS2
 62
     7
100
AcDbLine
 10
8.497632
 20
15.840911
 30
0.0
 11
8.389657
 21
15.825802
 31
0.0
  0
LINE
  5
4E7
100
AcDbEntity
  8
LOGO
  6
CONTINUOUS2
 62
     7
100
AcDbLine
 10
8.602369
 20
15.912353
 30
0.0
 11
8.497632
 21
15.840911
 31
0.0
  0
LINE
  5
4E8
100
AcDbEntity
  8
LOGO
  6
CONTINUOUS2
 62
     7
100
AcDbLine
 10
8.635019
 20
15.927398
 30
0.0
 11
8.602369
 21
15.912353
 31
0.0
  0
LINE
  5
4E9
100
AcDbEntity
  8
LOGO
  6
CONTINUOUS2
 62
     7
100
AcDbLine
 10
8.63046
 20
15.941917
 30
0.0
 11
8.635019
 21
15.927398
 31
0.0
  0
LINE
  5
4EA
100
AcDbEntity
  8
LOGO
  6
CONTINUOUS2
 62
     7
100
AcDbLine
 10
8.637542
 20
15.956017
 30
0.0
 11
8.63046
 21
15.941917
 31
0.0
  0
LINE
  5
4EB
100
AcDbEntity
  8
LOGO
  6
CONTINUOUS2
 62
     7
100
AcDbLine
 10
8.656678
 20
15.966569
 30
0.0
 11
8.637542
 21
15.956017
 31
0.0
  0
LINE
  5
4EC
100
AcDbEntity
  8
LOGO
  6
CONTINUOUS2
 62
     7
100
AcDbLine
 10
8.664256
 20
15.97865
 30
0.0
 11
8.656678
 21
15.966569
 31
0.0
  0
LINE
  5
4ED
100
AcDbEntity
  8
LOGO
  6
CONTINUOUS2
 62
     7
100
AcDbLine
 10
8.656107
 20
15.997617
 30
0.0
 11
8.664256
 21
15.97865
 31
0.0
  0
LINE
  5
4EE
100
AcDbEntity
  8
LOGO
  6
CONTINUOUS2
 62
     7
100
AcDbLine
 10
8.68277
 20
16.008782
 30
0.0
 11
8.656107
 21
15.997617
 31
0.0
  0
LINE
  5
4EF
100
AcDbEntity
  8
LOGO
  6
CONTINUOUS2
 62
     7
100
AcDbLine
 10
8.689019
 20
16.028957
 30
0.0
 11
8.68277
 21
16.008782
 31
0.0
  0
LINE
  5
4F0
100
AcDbEntity
  8
LOGO
  6
CONTINUOUS2
 62
     7
100
AcDbLine
 10
8.747394
 20
16.046804
 30
0.0
 11
8.689019
 21
16.028957
 31
0.0
  0
LINE
  5
4F1
100
AcDbEntity
  8
LOGO
  6
CONTINUOUS2
 62
     7
100
AcDbLine
 10
8.735513
 20
16.085665
 30
0.0
 11
8.747394
 21
16.046804
 31
0.0
  0
LINE
  5
4F2
100
AcDbEntity
  8
LOGO
  6
CONTINUOUS2
 62
     7
100
AcDbLine
 10
8.757812
 20
16.092181
 30
0.0
 11
8.735513
 21
16.085665
 31
0.0
  0
LINE
  5
4F3
100
AcDbEntity
  8
LOGO
  6
CONTINUOUS2
 62
     7
100
AcDbLine
 10
8.835167
 20
16.193646
 30
0.0
 11
8.757812
 21
16.092181
 31
0.0
  0
LINE
  5
4F4
100
AcDbEntity
  8
LOGO
  6
CONTINUOUS2
 62
     7
100
AcDbLine
 10
8.853035
 20
16.234371
 30
0.0
 11
8.835167
 21
16.193646
 31
0.0
  0
LINE
  5
4F5
100
AcDbEntity
  8
LOGO
  6
CONTINUOUS2
 62
     7
100
AcDbLine
 10
8.849444
 20
16.269378
 30
0.0
 11
8.853035
 21
16.234371
 31
0.0
  0
LINE
  5
4F6
100
AcDbEntity
  8
LOGO
  6
CONTINUOUS2
 62
     7
100
AcDbLine
 10
9.003396
 20
16.257918
 30
0.0
 11
8.849444
 21
16.269378
 31
0.0
  0
LINE
  5
4F7
100
AcDbEntity
  8
LOGO
  6
CONTINUOUS2
 62
     7
100
AcDbLine
 10
9.621202
 20
16.123121
 30
0.0
 11
9.003396
 21
16.257918
 31
0.0
  0
LINE
  5
4F8
100
AcDbEntity
  8
LOGO
  6
CONTINUOUS2
 62
     7
100
AcDbLine
 10
9.657754
 20
16.101748
 30
0.0
 11
9.621202
 21
16.123121
 31
0.0
  0
LINE
  5
4F9
100
AcDbEntity
  8
LOGO
  6
CONTINUOUS2
 62
     7
100
AcDbLine
 10
10.506575
 20
16.133417
 30
0.0
 11
10.508241
 21
16.204268
 31
0.0
  0
LINE
  5
4FA
100
AcDbEntity
  8
LOGO
  6
CONTINUOUS2
 62
     7
100
AcDbLine
 10
10.508241
 20
16.204268
 30
0.0
 11
10.529457
 21
16.278202
 31
0.0
  0
LINE
  5
4FB
100
AcDbEntity
  8
LOGO
  6
CONTINUOUS2
 62
     7
100
AcDbLine
 10
10.529457
 20
16.278202
 30
0.0
 11
10.584595
 21
16.332069
 31
0.0
  0
LINE
  5
4FC
100
AcDbEntity
  8
LOGO
  6
CONTINUOUS2
 62
     7
100
AcDbLine
 10
10.584595
 20
16.332069
 30
0.0
 11
10.610837
 21
16.343829
 31
0.0
  0
LINE
  5
4FD
100
AcDbEntity
  8
LOGO
  6
CONTINUOUS2
 62
     7
100
AcDbLine
 10
10.610837
 20
16.343829
 30
0.0
 11
10.748655
 21
16.35872
 31
0.0
  0
LINE
  5
4FE
100
AcDbEntity
  8
LOGO
  6
CONTINUOUS2
 62
     7
100
AcDbLine
 10
10.748655
 20
16.35872
 30
0.0
 11
10.906064
 21
16.304799
 31
0.0
  0
LINE
  5
4FF
100
AcDbEntity
  8
LOGO
  6
CONTINUOUS2
 62
     7
100
AcDbLine
 10
10.906064
 20
16.304799
 30
0.0
 11
11.000267
 21
16.225766
 31
0.0
  0
LINE
  5
500
100
AcDbEntity
  8
LOGO
  6
CONTINUOUS2
 62
     7
100
AcDbLine
 10
11.000267
 20
16.225766
 30
0.0
 11
11.02515
 21
16.174544
 31
0.0
  0
LINE
  5
501
100
AcDbEntity
  8
LOGO
  6
CONTINUOUS2
 62
     7
100
AcDbLine
 10
11.02515
 20
16.174544
 30
0.0
 11
11.014581
 21
16.132616
 31
0.0
  0
LINE
  5
502
100
AcDbEntity
  8
LOGO
  6
CONTINUOUS2
 62
     7
100
AcDbLine
 10
11.014581
 20
16.132616
 30
0.0
 11
10.983805
 21
16.115975
 31
0.0
  0
LINE
  5
503
100
AcDbEntity
  8
LOGO
  6
CONTINUOUS2
 62
     7
100
AcDbLine
 10
10.983805
 20
16.115975
 30
0.0
 11
10.931294
 21
16.111674
 31
0.0
  0
LINE
  5
504
100
AcDbEntity
  8
LOGO
  6
CONTINUOUS2
 62
     7
100
AcDbLine
 10
10.931294
 20
16.111674
 30
0.0
 11
10.881009
 21
16.136564
 31
0.0
  0
LINE
  5
505
100
AcDbEntity
  8
LOGO
  6
CONTINUOUS2
 62
     7
100
AcDbLine
 10
10.881009
 20
16.136564
 30
0.0
 11
10.85572
 21
16.140225
 31
0.0
  0
LINE
  5
506
100
AcDbEntity
  8
LOGO
  6
CONTINUOUS2
 62
     7
100
AcDbLine
 10
10.85572
 20
16.140225
 30
0.0
 11
10.835145
 21
16.157441
 31
0.0
  0
LINE
  5
507
100
AcDbEntity
  8
LOGO
  6
CONTINUOUS2
 62
     7
100
AcDbLine
 10
10.835145
 20
16.157441
 30
0.0
 11
10.834719
 21
16.17461
 31
0.0
  0
LINE
  5
508
100
AcDbEntity
  8
LOGO
  6
CONTINUOUS2
 62
     7
100
AcDbLine
 10
10.834719
 20
16.17461
 30
0.0
 11
10.722891
 21
16.157117
 31
0.0
  0
LINE
  5
509
100
AcDbEntity
  8
LOGO
  6
CONTINUOUS2
 62
     7
100
AcDbLine
 10
10.722891
 20
16.157117
 30
0.0
 11
10.707645
 21
16.140943
 31
0.0
  0
LINE
  5
50A
100
AcDbEntity
  8
LOGO
  6
CONTINUOUS2
 62
     7
100
AcDbLine
 10
10.707645
 20
16.140943
 30
0.0
 11
10.70675
 21
16.105228
 31
0.0
  0
LINE
  5
50B
100
AcDbEntity
  8
LOGO
  6
CONTINUOUS2
 62
     7
100
AcDbLine
 10
10.70675
 20
16.105228
 30
0.0
 11
10.759734
 21
16.01709
 31
0.0
  0
LINE
  5
50C
100
AcDbEntity
  8
LOGO
  6
CONTINUOUS2
 62
     7
100
AcDbLine
 10
10.759734
 20
16.01709
 30
0.0
 11
10.757311
 21
15.97494
 31
0.0
  0
LINE
  5
50D
100
AcDbEntity
  8
LOGO
  6
CONTINUOUS2
 62
     7
100
AcDbLine
 10
10.757311
 20
15.97494
 30
0.0
 11
10.742371
 21
15.955002
 31
0.0
  0
LINE
  5
50E
100
AcDbEntity
  8
LOGO
  6
CONTINUOUS2
 62
     7
100
AcDbLine
 10
10.742371
 20
15.955002
 30
0.0
 11
10.716544
 21
15.987431
 31
0.0
  0
LINE
  5
50F
100
AcDbEntity
  8
LOGO
  6
CONTINUOUS2
 62
     7
100
AcDbLine
 10
10.716544
 20
15.987431
 30
0.0
 11
10.707016
 21
15.953536
 31
0.0
  0
LINE
  5
510
100
AcDbEntity
  8
LOGO
  6
CONTINUOUS2
 62
     7
100
AcDbLine
 10
10.707016
 20
15.953536
 30
0.0
 11
10.680027
 21
15.935941
 31
0.0
  0
LINE
  5
511
100
AcDbEntity
  8
LOGO
  6
CONTINUOUS2
 62
     7
100
AcDbLine
 10
10.680027
 20
15.935941
 30
0.0
 11
10.647171
 21
15.950549
 31
0.0
  0
LINE
  5
512
100
AcDbEntity
  8
LOGO
  6
CONTINUOUS2
 62
     7
100
AcDbLine
 10
10.647171
 20
15.950549
 30
0.0
 11
10.612853
 21
15.976644
 31
0.0
  0
LINE
  5
513
100
AcDbEntity
  8
LOGO
  6
CONTINUOUS2
 62
     7
100
AcDbLine
 10
10.612853
 20
15.976644
 30
0.0
 11
10.528294
 21
16.109497
 31
0.0
  0
LINE
  5
514
100
AcDbEntity
  8
LOGO
  6
CONTINUOUS2
 62
     7
100
AcDbLine
 10
10.528294
 20
16.109497
 30
0.0
 11
10.506575
 21
16.133417
 31
0.0
  0
LINE
  5
515
100
AcDbEntity
  8
LOGO
  6
CONTINUOUS2
 62
     7
100
AcDbLine
 10
8.099482
 20
17.33523
 30
0.0
 11
8.273271
 21
17.295358
 31
0.0
  0
LINE
  5
516
100
AcDbEntity
  8
LOGO
  6
CONTINUOUS2
 62
     7
100
AcDbLine
 10
8.07842
 20
17.330781
 30
0.0
 11
8.099482
 21
17.33523
 31
0.0
  0
LINE
  5
517
100
AcDbEntity
  8
LOGO
  6
CONTINUOUS2
 62
     7
100
AcDbLine
 10
8.076793
 20
17.349511
 30
0.0
 11
8.07842
 21
17.330781
 31
0.0
  0
LINE
  5
518
100
AcDbEntity
  8
LOGO
  6
CONTINUOUS2
 62
     7
100
AcDbLine
 10
8.05485
 20
17.364502
 30
0.0
 11
8.076793
 21
17.349511
 31
0.0
  0
LINE
  5
519
100
AcDbEntity
  8
LOGO
  6
CONTINUOUS2
 62
     7
100
AcDbLine
 10
8.041348
 20
17.361941
 30
0.0
 11
8.05485
 21
17.364502
 31
0.0
  0
LINE
  5
51A
100
AcDbEntity
  8
LOGO
  6
CONTINUOUS2
 62
     7
100
AcDbLine
 10
7.88903
 20
17.442976
 30
0.0
 11
8.041348
 21
17.361941
 31
0.0
  0
LINE
  5
51B
100
AcDbEntity
  8
LOGO
  6
CONTINUOUS2
 62
     7
100
AcDbLine
 10
7.830654
 20
17.425129
 30
0.0
 11
7.88903
 21
17.442976
 31
0.0
  0
LINE
  5
51C
100
AcDbEntity
  8
LOGO
  6
CONTINUOUS2
 62
     7
100
AcDbLine
 10
7.80899
 20
17.436648
 30
0.0
 11
7.830654
 21
17.425129
 31
0.0
  0
LINE
  5
51D
100
AcDbEntity
  8
LOGO
  6
CONTINUOUS2
 62
     7
100
AcDbLine
 10
7.777836
 20
17.386739
 30
0.0
 11
7.80899
 21
17.436648
 31
0.0
  0
LINE
  5
51E
100
AcDbEntity
  8
LOGO
  6
CONTINUOUS2
 62
     7
100
AcDbLine
 10
7.795956
 20
17.222784
 30
0.0
 11
7.777836
 21
17.386739
 31
0.0
  0
LINE
  5
51F
100
AcDbEntity
  8
LOGO
  6
CONTINUOUS2
 62
     7
100
AcDbLine
 10
7.854831
 20
17.096063
 30
0.0
 11
7.795956
 21
17.222784
 31
0.0
  0
LINE
  5
520
100
AcDbEntity
  8
LOGO
  6
CONTINUOUS2
 62
     7
100
AcDbLine
 10
7.910461
 20
17.013073
 30
0.0
 11
7.854831
 21
17.096063
 31
0.0
  0
LINE
  5
521
100
AcDbEntity
  8
LOGO
  6
CONTINUOUS2
 62
     7
100
AcDbLine
 10
7.999036
 20
16.938649
 30
0.0
 11
7.910461
 21
17.013073
 31
0.0
  0
LINE
  5
522
100
AcDbEntity
  8
LOGO
  6
CONTINUOUS2
 62
     7
100
AcDbLine
 10
8.084676
 20
16.926859
 30
0.0
 11
7.999036
 21
16.938649
 31
0.0
  0
LINE
  5
523
100
AcDbEntity
  8
LOGO
  6
CONTINUOUS2
 62
     7
100
AcDbLine
 10
8.203172
 20
16.936143
 30
0.0
 11
8.084676
 21
16.926859
 31
0.0
  0
LINE
  5
524
100
AcDbEntity
  8
LOGO
  6
CONTINUOUS2
 62
     7
100
AcDbLine
 10
8.263891
 20
16.950066
 30
0.0
 11
8.203172
 21
16.936143
 31
0.0
  0
LINE
  5
525
100
AcDbEntity
  8
LOGO
  6
CONTINUOUS2
 62
     7
100
AcDbLine
 10
8.538955
 20
17.0734
 30
0.0
 11
8.263891
 21
16.950066
 31
0.0
  0
LINE
  5
526
100
AcDbEntity
  8
LOGO
  6
CONTINUOUS2
 62
     7
100
AcDbLine
 10
8.587855
 20
17.124998
 30
0.0
 11
8.538955
 21
17.0734
 31
0.0
  0
LINE
  5
527
100
AcDbEntity
  8
LOGO
  6
CONTINUOUS2
 62
     7
100
AcDbLine
 10
8.646175
 20
17.142828
 30
0.0
 11
8.587855
 21
17.124998
 31
0.0
  0
LINE
  5
528
100
AcDbEntity
  8
LOGO
  6
CONTINUOUS2
 62
     7
100
AcDbLine
 10
8.610498
 20
17.259525
 30
0.0
 11
8.646175
 21
17.142828
 31
0.0
  0
LINE
  5
529
100
AcDbEntity
  8
LOGO
  6
CONTINUOUS2
 62
     7
100
AcDbLine
 10
8.565903
 20
17.24589
 30
0.0
 11
8.610498
 21
17.259525
 31
0.0
  0
LINE
  5
52A
100
AcDbEntity
  8
LOGO
  6
CONTINUOUS2
 62
     7
100
AcDbLine
 10
8.450836
 20
17.274482
 30
0.0
 11
8.565903
 21
17.24589
 31
0.0
  0
LINE
  5
52B
100
AcDbEntity
  8
LOGO
  6
CONTINUOUS2
 62
     7
100
AcDbLine
 10
8.273271
 20
17.295358
 30
0.0
 11
8.450836
 21
17.274482
 31
0.0
  0
LINE
  5
52C
100
AcDbEntity
  8
LOGO
  6
CONTINUOUS2
 62
     7
100
AcDbLine
 10
5.576428
 20
15.77708
 30
0.0
 11
5.549093
 21
15.866489
 31
0.0
  0
LINE
  5
52D
100
AcDbEntity
  8
LOGO
  6
CONTINUOUS2
 62
     7
100
AcDbLine
 10
5.564115
 20
15.747759
 30
0.0
 11
5.576428
 21
15.77708
 31
0.0
  0
LINE
  5
52E
100
AcDbEntity
  8
LOGO
  6
CONTINUOUS2
 62
     7
100
AcDbLine
 10
5.689719
 20
15.273637
 30
0.0
 11
5.564115
 21
15.747759
 31
0.0
  0
LINE
  5
52F
100
AcDbEntity
  8
LOGO
  6
CONTINUOUS2
 62
     7
100
AcDbLine
 10
5.727309
 20
15.185193
 30
0.0
 11
5.689719
 21
15.273637
 31
0.0
  0
LINE
  5
530
100
AcDbEntity
  8
LOGO
  6
CONTINUOUS2
 62
     7
100
AcDbLine
 10
5.688602
 20
15.037558
 30
0.0
 11
5.727309
 21
15.185193
 31
0.0
  0
LINE
  5
531
100
AcDbEntity
  8
LOGO
  6
CONTINUOUS2
 62
     7
100
AcDbLine
 10
5.684797
 20
14.79469
 30
0.0
 11
5.688602
 21
15.037558
 31
0.0
  0
LINE
  5
532
100
AcDbEntity
  8
LOGO
  6
CONTINUOUS2
 62
     7
100
AcDbLine
 10
5.672856
 20
14.696528
 30
0.0
 11
5.684797
 21
14.79469
 31
0.0
  0
LINE
  5
533
100
AcDbEntity
  8
LOGO
  6
CONTINUOUS2
 62
     7
100
AcDbLine
 10
5.721551
 20
14.328666
 30
0.0
 11
5.672856
 21
14.696528
 31
0.0
  0
LINE
  5
534
100
AcDbEntity
  8
LOGO
  6
CONTINUOUS2
 62
     7
100
AcDbLine
 10
5.802731
 20
14.074771
 30
0.0
 11
5.721551
 21
14.328666
 31
0.0
  0
ENDSEC
  0
SECTION
  2
OBJECTS
  0
DICTIONARY
  5
19
100
AcDbDictionary
  3
ACAD_GROUP
350
1A
  3
ACAD_MLINESTYLE
350
1B
  0
DICTIONARY
  5
1A
102
{ACAD_REACTORS
330
19
102
}
100
AcDbDictionary
  0
DICTIONARY
  5
1B
102
{ACAD_REACTORS
330
19
102
}
100
AcDbDictionary
  3
STANDARD
350
1C
  0
MLINESTYLE
  5
1C
102
{ACAD_REACTORS
330
1B
102
}
100
AcDbMlineStyle
  2
STANDARD
 70
     0
  3

 62
     0
 51
90.0
 52
90.0
 71
     2
 49
0.5
 62
   256
  6
BYLAYER
 49
-0.5
 62
   256
  6
BYLAYER
  0
ENDSEC
  0
EOF
