  0
SECTION
  2
BLOCKS
  0
ENDSEC
  0
SECTION
  2
ENTITIES
  0
LINE
  8
0
 10
-103.203
 11
-103.203
 20
14.323
 21
19.533
  0
LINE
  8
0
 10
-103.203
 11
-100.203
 20
19.533
 21
19.533
  0
LINE
  8
0
 10
-100.203
 11
-100.203
 20
19.533
 21
25.677
  0
LINE
  8
0
 10
-100.203
 11
-103.203
 20
25.677
 21
25.677
  0
LINE
  8
0
 10
-103.203
 11
-103.203
 20
25.677
 21
30.887
  0
LINE
  8
0
 10
-103.203
 11
-100.203
 20
30.887
 21
30.887
  0
LINE
  8
0
 10
-100.203
 11
-100.203
 20
30.887
 21
33.96
  0
LINE
  8
0
 10
-100.203
 11
-100.181
 20
33.96
 21
33.96
  0
LINE
  8
0
 10
-100.181
 11
-100.203
 20
33.96
 21
34.17
  0
LINE
  8
0
 10
-100.203
 11
-99.881
 20
34.17
 21
37.233
  0
LINE
  8
0
 10
-99.881
 11
-98.929
 20
37.233
 21
40.163
  0
LINE
  8
0
 10
-98.929
 11
-97.389
 20
40.163
 21
42.83
  0
LINE
  8
0
 10
-97.389
 11
-95.328
 20
42.83
 21
45.119
  0
LINE
  8
0
 10
-95.328
 11
-92.836
 20
45.119
 21
46.93
  0
LINE
  8
0
 10
-92.836
 11
-90.022
 20
46.93
 21
48.183
  0
LINE
  8
0
 10
-90.022
 11
-87.009
 20
48.183
 21
48.823
  0
LINE
  8
0
 10
-87.009
 11
-85.259
 20
48.823
 21
48.823
  0
LINE
  8
0
 10
-85.259
 11
-85.259
 20
48.823
 21
48.904
  0
LINE
  8
0
 10
-85.259
 11
-82.186
 20
48.904
 21
48.904
  0
LINE
  8
0
 10
-82.186
 11
-82.186
 20
48.904
 21
51.904
  0
LINE
  8
0
 10
-82.186
 11
-76.976
 20
51.904
 21
51.904
  0
LINE
  8
0
 10
-76.976
 11
-76.976
 20
51.904
 21
48.904
  0
LINE
  8
0
 10
-76.976
 11
-70.832
 20
48.904
 21
48.904
  0
LINE
  8
0
 10
-70.832
 11
-70.832
 20
48.904
 21
51.904
  0
LINE
  8
0
 10
-70.832
 11
-65.622
 20
51.904
 21
51.904
  0
LINE
  8
0
 10
-65.622
 11
-65.622
 20
51.904
 21
48.904
  0
LINE
  8
0
 10
-65.622
 11
-62.549
 20
48.904
 21
48.904
  0
LINE
  8
0
 10
-62.549
 11
-62.549
 20
48.904
 21
48.823
  0
LINE
  8
0
 10
-62.549
 11
-60.799
 20
48.823
 21
48.823
  0
LINE
  8
0
 10
-60.799
 11
-57.786
 20
48.823
 21
48.183
  0
LINE
  8
0
 10
-57.786
 11
-54.972
 20
48.183
 21
46.93
  0
LINE
  8
0
 10
-54.972
 11
-52.48
 20
46.93
 21
45.119
  0
LINE
  8
0
 10
-52.48
 11
-50.419
 20
45.119
 21
42.83
  0
LINE
  8
0
 10
-50.419
 11
-48.879
 20
42.83
 21
40.163
  0
LINE
  8
0
 10
-48.879
 11
-47.927
 20
40.163
 21
37.233
  0
LINE
  8
0
 10
-47.927
 11
-47.605
 20
37.233
 21
34.17
  0
LINE
  8
0
 10
-47.605
 11
-47.627
 20
34.17
 21
33.96
  0
LINE
  8
0
 10
-47.627
 11
-47.605
 20
33.96
 21
33.96
  0
LINE
  8
0
 10
-47.605
 11
-47.605
 20
33.96
 21
30.887
  0
LINE
  8
0
 10
-47.605
 11
-44.605
 20
30.887
 21
30.887
  0
LINE
  8
0
 10
-44.605
 11
-44.605
 20
30.887
 21
25.677
  0
LINE
  8
0
 10
-44.605
 11
-47.605
 20
25.677
 21
25.677
  0
LINE
  8
0
 10
-47.605
 11
-47.605
 20
25.677
 21
19.533
  0
LINE
  8
0
 10
-47.605
 11
-44.605
 20
19.533
 21
19.533
  0
LINE
  8
0
 10
-44.605
 11
-44.605
 20
19.533
 21
14.323
  0
LINE
  8
0
 10
-44.605
 11
-47.605
 20
14.323
 21
14.323
  0
LINE
  8
0
 10
-47.605
 11
-47.605
 20
14.323
 21
11.25
  0
LINE
  8
0
 10
-47.605
 11
-47.627
 20
11.25
 21
11.25
  0
LINE
  8
0
 10
-47.627
 11
-47.605
 20
11.25
 21
11.04
  0
LINE
  8
0
 10
-47.605
 11
-47.927
 20
11.04
 21
7.977
  0
LINE
  8
0
 10
-47.927
 11
-48.879
 20
7.977
 21
5.047
  0
LINE
  8
0
 10
-48.879
 11
-50.419
 20
5.047
 21
2.38
  0
LINE
  8
0
 10
-50.419
 11
-52.48
 20
2.38
 21
0.091
  0
LINE
  8
0
 10
-52.48
 11
-54.972
 20
0.091
 21
-1.72
  0
LINE
  8
0
 10
-54.972
 11
-57.786
 20
-1.72
 21
-2.973
  0
LINE
  8
0
 10
-57.786
 11
-60.799
 20
-2.973
 21
-3.613
  0
LINE
  8
0
 10
-60.799
 11
-62.549
 20
-3.613
 21
-3.613
  0
LINE
  8
0
 10
-62.549
 11
-62.549
 20
-3.613
 21
-3.694
  0
LINE
  8
0
 10
-62.549
 11
-65.622
 20
-3.694
 21
-3.694
  0
LINE
  8
0
 10
-65.622
 11
-65.622
 20
-3.694
 21
-6.694
  0
LINE
  8
0
 10
-65.622
 11
-70.832
 20
-6.694
 21
-6.694
  0
LINE
  8
0
 10
-70.832
 11
-70.832
 20
-6.694
 21
-3.694
  0
LINE
  8
0
 10
-70.832
 11
-76.976
 20
-3.694
 21
-3.694
  0
LINE
  8
0
 10
-76.976
 11
-76.976
 20
-3.694
 21
-6.694
  0
LINE
  8
0
 10
-76.976
 11
-82.186
 20
-6.694
 21
-6.694
  0
LINE
  8
0
 10
-82.186
 11
-82.186
 20
-6.694
 21
-3.694
  0
LINE
  8
0
 10
-82.186
 11
-85.259
 20
-3.694
 21
-3.694
  0
LINE
  8
0
 10
-85.259
 11
-85.259
 20
-3.694
 21
-3.613
  0
LINE
  8
0
 10
-85.259
 11
-87.009
 20
-3.613
 21
-3.613
  0
LINE
  8
0
 10
-87.009
 11
-90.022
 20
-3.613
 21
-2.973
  0
LINE
  8
0
 10
-90.022
 11
-92.836
 20
-2.973
 21
-1.72
  0
LINE
  8
0
 10
-92.836
 11
-95.328
 20
-1.72
 21
0.091
  0
LINE
  8
0
 10
-95.328
 11
-97.389
 20
0.091
 21
2.38
  0
LINE
  8
0
 10
-97.389
 11
-98.929
 20
2.38
 21
5.047
  0
LINE
  8
0
 10
-98.929
 11
-99.881
 20
5.047
 21
7.977
  0
LINE
  8
0
 10
-99.881
 11
-100.203
 20
7.977
 21
11.04
  0
LINE
  8
0
 10
-100.203
 11
-100.181
 20
11.04
 21
11.25
  0
LINE
  8
0
 10
-100.181
 11
-100.203
 20
11.25
 21
11.25
  0
LINE
  8
0
 10
-100.203
 11
-100.203
 20
11.25
 21
14.323
  0
LINE
  8
0
 10
-100.203
 11
-103.203
 20
14.323
 21
14.323
  0
LINE
  8
0
 10
-37.605
 11
-37.605
 20
-24.105
 21
-19.322
  0
LINE
  8
0
 10
-37.605
 11
-34.605
 20
-19.322
 21
-19.322
  0
LINE
  8
0
 10
-34.605
 11
-34.605
 20
-19.322
 21
-14.532
  0
LINE
  8
0
 10
-34.605
 11
-37.605
 20
-14.532
 21
-14.532
  0
LINE
  8
0
 10
-37.605
 11
-37.605
 20
-14.532
 21
-12.25
  0
LINE
  8
0
 10
-37.605
 11
-13.868
 20
-12.25
 21
-12.25
  0
LINE
  8
0
 10
-13.868
 11
-13.868
 20
-12.25
 21
-11.75
  0
LINE
  8
0
 10
-13.868
 11
-37.605
 20
-11.75
 21
-11.75
  0
LINE
  8
0
 10
-37.605
 11
-37.605
 20
-11.75
 21
-10.75
  0
LINE
  8
0
 10
-37.605
 11
-26.07
 20
-10.75
 21
-10.75
  0
LINE
  8
0
 10
-26.07
 11
-26.07
 20
-10.75
 21
-10.25
  0
LINE
  8
0
 10
-26.07
 11
-37.605
 20
-10.25
 21
-10.25
  0
LINE
  8
0
 10
-37.605
 11
-37.605
 20
-10.25
 21
-9.25
  0
LINE
  8
0
 10
-37.605
 11
-13.868
 20
-9.25
 21
-9.25
  0
LINE
  8
0
 10
-13.868
 11
-13.868
 20
-9.25
 21
-8.75
  0
LINE
  8
0
 10
-13.868
 11
-37.605
 20
-8.75
 21
-8.75
  0
LINE
  8
0
 10
-37.605
 11
-37.605
 20
-8.75
 21
-7.75
  0
LINE
  8
0
 10
-37.605
 11
-26.07
 20
-7.75
 21
-7.75
  0
LINE
  8
0
 10
-26.07
 11
-26.07
 20
-7.75
 21
-7.25
  0
LINE
  8
0
 10
-26.07
 11
-37.605
 20
-7.25
 21
-7.25
  0
LINE
  8
0
 10
-37.605
 11
-37.605
 20
-7.25
 21
-6.25
  0
LINE
  8
0
 10
-37.605
 11
-13.868
 20
-6.25
 21
-6.25
  0
LINE
  8
0
 10
-13.868
 11
-13.868
 20
-6.25
 21
-5.75
  0
LINE
  8
0
 10
-13.868
 11
-37.605
 20
-5.75
 21
-5.75
  0
LINE
  8
0
 10
-37.605
 11
-37.605
 20
-5.75
 21
-4.75
  0
LINE
  8
0
 10
-37.605
 11
-26.07
 20
-4.75
 21
-4.75
  0
LINE
  8
0
 10
-26.07
 11
-26.07
 20
-4.75
 21
-4.25
  0
LINE
  8
0
 10
-26.07
 11
-37.605
 20
-4.25
 21
-4.25
  0
LINE
  8
0
 10
-37.605
 11
-37.605
 20
-4.25
 21
-3.25
  0
LINE
  8
0
 10
-37.605
 11
-13.868
 20
-3.25
 21
-3.25
  0
LINE
  8
0
 10
-13.868
 11
-13.868
 20
-3.25
 21
-2.75
  0
LINE
  8
0
 10
-13.868
 11
-37.605
 20
-2.75
 21
-2.75
  0
LINE
  8
0
 10
-37.605
 11
-37.605
 20
-2.75
 21
-1.75
  0
LINE
  8
0
 10
-37.605
 11
-26.07
 20
-1.75
 21
-1.75
  0
LINE
  8
0
 10
-26.07
 11
-26.07
 20
-1.75
 21
-1.25
  0
LINE
  8
0
 10
-26.07
 11
-37.605
 20
-1.25
 21
-1.25
  0
LINE
  8
0
 10
-37.605
 11
-37.605
 20
-1.25
 21
-0.25
  0
LINE
  8
0
 10
-37.605
 11
-13.868
 20
-0.25
 21
-0.25
  0
LINE
  8
0
 10
-13.868
 11
-13.868
 20
-0.25
 21
0.25
  0
LINE
  8
0
 10
-13.868
 11
-37.605
 20
0.25
 21
0.25
  0
LINE
  8
0
 10
-37.605
 11
-37.605
 20
0.25
 21
1.25
  0
LINE
  8
0
 10
-37.605
 11
-26.07
 20
1.25
 21
1.25
  0
LINE
  8
0
 10
-26.07
 11
-26.07
 20
1.25
 21
1.75
  0
LINE
  8
0
 10
-26.07
 11
-37.605
 20
1.75
 21
1.75
  0
LINE
  8
0
 10
-37.605
 11
-37.605
 20
1.75
 21
2.75
  0
LINE
  8
0
 10
-37.605
 11
-13.868
 20
2.75
 21
2.75
  0
LINE
  8
0
 10
-13.868
 11
-13.868
 20
2.75
 21
3.25
  0
LINE
  8
0
 10
-13.868
 11
-37.605
 20
3.25
 21
3.25
  0
LINE
  8
0
 10
-37.605
 11
-37.605
 20
3.25
 21
4.25
  0
LINE
  8
0
 10
-37.605
 11
-26.07
 20
4.25
 21
4.25
  0
LINE
  8
0
 10
-26.07
 11
-26.07
 20
4.25
 21
4.75
  0
LINE
  8
0
 10
-26.07
 11
-37.605
 20
4.75
 21
4.75
  0
LINE
  8
0
 10
-37.605
 11
-37.605
 20
4.75
 21
5.75
  0
LINE
  8
0
 10
-37.605
 11
-13.868
 20
5.75
 21
5.75
  0
LINE
  8
0
 10
-13.868
 11
-13.868
 20
5.75
 21
6.25
  0
LINE
  8
0
 10
-13.868
 11
-37.605
 20
6.25
 21
6.25
  0
LINE
  8
0
 10
-37.605
 11
-37.605
 20
6.25
 21
7.25
  0
LINE
  8
0
 10
-37.605
 11
-26.07
 20
7.25
 21
7.25
  0
LINE
  8
0
 10
-26.07
 11
-26.07
 20
7.25
 21
7.75
  0
LINE
  8
0
 10
-26.07
 11
-37.605
 20
7.75
 21
7.75
  0
LINE
  8
0
 10
-37.605
 11
-37.605
 20
7.75
 21
8.75
  0
LINE
  8
0
 10
-37.605
 11
-13.868
 20
8.75
 21
8.75
  0
LINE
  8
0
 10
-13.868
 11
-13.868
 20
8.75
 21
9.25
  0
LINE
  8
0
 10
-13.868
 11
-37.605
 20
9.25
 21
9.25
  0
LINE
  8
0
 10
-37.605
 11
-37.605
 20
9.25
 21
10.25
  0
LINE
  8
0
 10
-37.605
 11
-26.07
 20
10.25
 21
10.25
  0
LINE
  8
0
 10
-26.07
 11
-26.07
 20
10.25
 21
10.75
  0
LINE
  8
0
 10
-26.07
 11
-37.605
 20
10.75
 21
10.75
  0
LINE
  8
0
 10
-37.605
 11
-37.605
 20
10.75
 21
11.75
  0
LINE
  8
0
 10
-37.605
 11
-13.868
 20
11.75
 21
11.75
  0
LINE
  8
0
 10
-13.868
 11
-13.868
 20
11.75
 21
12.25
  0
LINE
  8
0
 10
-13.868
 11
-37.605
 20
12.25
 21
12.25
  0
LINE
  8
0
 10
-37.605
 11
-37.605
 20
12.25
 21
14.532
  0
LINE
  8
0
 10
-37.605
 11
-34.605
 20
14.532
 21
14.532
  0
LINE
  8
0
 10
-34.605
 11
-34.605
 20
14.532
 21
19.322
  0
LINE
  8
0
 10
-34.605
 11
-37.605
 20
19.322
 21
19.322
  0
LINE
  8
0
 10
-37.605
 11
-37.605
 20
19.322
 21
24.105
  0
LINE
  8
0
 10
-37.605
 11
-37.395
 20
24.105
 21
24.105
  0
LINE
  8
0
 10
-37.395
 11
-37.395
 20
24.105
 21
21.105
  0
LINE
  8
0
 10
-37.395
 11
-32.605
 20
21.105
 21
21.105
  0
LINE
  8
0
 10
-32.605
 11
-32.605
 20
21.105
 21
24.105
  0
LINE
  8
0
 10
-32.605
 11
-27.395
 20
24.105
 21
24.105
  0
LINE
  8
0
 10
-27.395
 11
-27.395
 20
24.105
 21
21.105
  0
LINE
  8
0
 10
-27.395
 11
-22.605
 20
21.105
 21
21.105
  0
LINE
  8
0
 10
-22.605
 11
-22.605
 20
21.105
 21
24.105
  0
LINE
  8
0
 10
-22.605
 11
-17.395
 20
24.105
 21
24.105
  0
LINE
  8
0
 10
-17.395
 11
-17.395
 20
24.105
 21
21.105
  0
LINE
  8
0
 10
-17.395
 11
-12.605
 20
21.105
 21
21.105
  0
LINE
  8
0
 10
-12.605
 11
-12.605
 20
21.105
 21
24.105
  0
LINE
  8
0
 10
-12.605
 11
-7.395
 20
24.105
 21
24.105
  0
LINE
  8
0
 10
-7.395
 11
-7.395
 20
24.105
 21
21.105
  0
LINE
  8
0
 10
-7.395
 11
-2.605
 20
21.105
 21
21.105
  0
LINE
  8
0
 10
-2.605
 11
-2.605
 20
21.105
 21
24.105
  0
LINE
  8
0
 10
-2.605
 11
2.605
 20
24.105
 21
24.105
  0
LINE
  8
0
 10
2.605
 11
2.605
 20
24.105
 21
21.105
  0
LINE
  8
0
 10
2.605
 11
7.395
 20
21.105
 21
21.105
  0
LINE
  8
0
 10
7.395
 11
7.395
 20
21.105
 21
24.105
  0
LINE
  8
0
 10
7.395
 11
12.605
 20
24.105
 21
24.105
  0
LINE
  8
0
 10
12.605
 11
12.605
 20
24.105
 21
21.105
  0
LINE
  8
0
 10
12.605
 11
17.395
 20
21.105
 21
21.105
  0
LINE
  8
0
 10
17.395
 11
17.395
 20
21.105
 21
24.105
  0
LINE
  8
0
 10
17.395
 11
22.605
 20
24.105
 21
24.105
  0
LINE
  8
0
 10
22.605
 11
22.605
 20
24.105
 21
21.105
  0
LINE
  8
0
 10
22.605
 11
27.395
 20
21.105
 21
21.105
  0
LINE
  8
0
 10
27.395
 11
27.395
 20
21.105
 21
24.105
  0
LINE
  8
0
 10
27.395
 11
32.605
 20
24.105
 21
24.105
  0
LINE
  8
0
 10
32.605
 11
32.605
 20
24.105
 21
21.105
  0
LINE
  8
0
 10
32.605
 11
37.605
 20
21.105
 21
21.105
  0
LINE
  8
0
 10
37.605
 11
37.605
 20
21.105
 21
19.322
  0
LINE
  8
0
 10
37.605
 11
34.605
 20
19.322
 21
19.322
  0
LINE
  8
0
 10
34.605
 11
34.605
 20
19.322
 21
14.532
  0
LINE
  8
0
 10
34.605
 11
37.605
 20
14.532
 21
14.532
  0
LINE
  8
0
 10
37.605
 11
37.605
 20
14.532
 21
12.25
  0
LINE
  8
0
 10
37.605
 11
13.868
 20
12.25
 21
12.25
  0
LINE
  8
0
 10
13.868
 11
13.868
 20
12.25
 21
11.75
  0
LINE
  8
0
 10
13.868
 11
37.605
 20
11.75
 21
11.75
  0
LINE
  8
0
 10
37.605
 11
37.605
 20
11.75
 21
10.75
  0
LINE
  8
0
 10
37.605
 11
26.07
 20
10.75
 21
10.75
  0
LINE
  8
0
 10
26.07
 11
26.07
 20
10.75
 21
10.25
  0
LINE
  8
0
 10
26.07
 11
37.605
 20
10.25
 21
10.25
  0
LINE
  8
0
 10
37.605
 11
37.605
 20
10.25
 21
9.25
  0
LINE
  8
0
 10
37.605
 11
13.868
 20
9.25
 21
9.25
  0
LINE
  8
0
 10
13.868
 11
13.868
 20
9.25
 21
8.75
  0
LINE
  8
0
 10
13.868
 11
37.605
 20
8.75
 21
8.75
  0
LINE
  8
0
 10
37.605
 11
37.605
 20
8.75
 21
7.75
  0
LINE
  8
0
 10
37.605
 11
26.07
 20
7.75
 21
7.75
  0
LINE
  8
0
 10
26.07
 11
26.07
 20
7.75
 21
7.25
  0
LINE
  8
0
 10
26.07
 11
37.605
 20
7.25
 21
7.25
  0
LINE
  8
0
 10
37.605
 11
37.605
 20
7.25
 21
6.25
  0
LINE
  8
0
 10
37.605
 11
13.868
 20
6.25
 21
6.25
  0
LINE
  8
0
 10
13.868
 11
13.868
 20
6.25
 21
5.75
  0
LINE
  8
0
 10
13.868
 11
37.605
 20
5.75
 21
5.75
  0
LINE
  8
0
 10
37.605
 11
37.605
 20
5.75
 21
4.75
  0
LINE
  8
0
 10
37.605
 11
26.07
 20
4.75
 21
4.75
  0
LINE
  8
0
 10
26.07
 11
26.07
 20
4.75
 21
4.25
  0
LINE
  8
0
 10
26.07
 11
37.605
 20
4.25
 21
4.25
  0
LINE
  8
0
 10
37.605
 11
37.605
 20
4.25
 21
3.25
  0
LINE
  8
0
 10
37.605
 11
13.868
 20
3.25
 21
3.25
  0
LINE
  8
0
 10
13.868
 11
13.868
 20
3.25
 21
2.75
  0
LINE
  8
0
 10
13.868
 11
37.605
 20
2.75
 21
2.75
  0
LINE
  8
0
 10
37.605
 11
37.605
 20
2.75
 21
1.75
  0
LINE
  8
0
 10
37.605
 11
26.07
 20
1.75
 21
1.75
  0
LINE
  8
0
 10
26.07
 11
26.07
 20
1.75
 21
1.25
  0
LINE
  8
0
 10
26.07
 11
37.605
 20
1.25
 21
1.25
  0
LINE
  8
0
 10
37.605
 11
37.605
 20
1.25
 21
0.25
  0
LINE
  8
0
 10
37.605
 11
13.868
 20
0.25
 21
0.25
  0
LINE
  8
0
 10
13.868
 11
13.868
 20
0.25
 21
-0.25
  0
LINE
  8
0
 10
13.868
 11
37.605
 20
-0.25
 21
-0.25
  0
LINE
  8
0
 10
37.605
 11
37.605
 20
-0.25
 21
-1.25
  0
LINE
  8
0
 10
37.605
 11
26.07
 20
-1.25
 21
-1.25
  0
LINE
  8
0
 10
26.07
 11
26.07
 20
-1.25
 21
-1.75
  0
LINE
  8
0
 10
26.07
 11
37.605
 20
-1.75
 21
-1.75
  0
LINE
  8
0
 10
37.605
 11
37.605
 20
-1.75
 21
-2.75
  0
LINE
  8
0
 10
37.605
 11
13.868
 20
-2.75
 21
-2.75
  0
LINE
  8
0
 10
13.868
 11
13.868
 20
-2.75
 21
-3.25
  0
LINE
  8
0
 10
13.868
 11
37.605
 20
-3.25
 21
-3.25
  0
LINE
  8
0
 10
37.605
 11
37.605
 20
-3.25
 21
-4.25
  0
LINE
  8
0
 10
37.605
 11
26.07
 20
-4.25
 21
-4.25
  0
LINE
  8
0
 10
26.07
 11
26.07
 20
-4.25
 21
-4.75
  0
LINE
  8
0
 10
26.07
 11
37.605
 20
-4.75
 21
-4.75
  0
LINE
  8
0
 10
37.605
 11
37.605
 20
-4.75
 21
-5.75
  0
LINE
  8
0
 10
37.605
 11
13.868
 20
-5.75
 21
-5.75
  0
LINE
  8
0
 10
13.868
 11
13.868
 20
-5.75
 21
-6.25
  0
LINE
  8
0
 10
13.868
 11
37.605
 20
-6.25
 21
-6.25
  0
LINE
  8
0
 10
37.605
 11
37.605
 20
-6.25
 21
-7.25
  0
LINE
  8
0
 10
37.605
 11
26.07
 20
-7.25
 21
-7.25
  0
LINE
  8
0
 10
26.07
 11
26.07
 20
-7.25
 21
-7.75
  0
LINE
  8
0
 10
26.07
 11
37.605
 20
-7.75
 21
-7.75
  0
LINE
  8
0
 10
37.605
 11
37.605
 20
-7.75
 21
-8.75
  0
LINE
  8
0
 10
37.605
 11
13.868
 20
-8.75
 21
-8.75
  0
LINE
  8
0
 10
13.868
 11
13.868
 20
-8.75
 21
-9.25
  0
LINE
  8
0
 10
13.868
 11
37.605
 20
-9.25
 21
-9.25
  0
LINE
  8
0
 10
37.605
 11
37.605
 20
-9.25
 21
-10.25
  0
LINE
  8
0
 10
37.605
 11
26.07
 20
-10.25
 21
-10.25
  0
LINE
  8
0
 10
26.07
 11
26.07
 20
-10.25
 21
-10.75
  0
LINE
  8
0
 10
26.07
 11
37.605
 20
-10.75
 21
-10.75
  0
LINE
  8
0
 10
37.605
 11
37.605
 20
-10.75
 21
-11.75
  0
LINE
  8
0
 10
37.605
 11
13.868
 20
-11.75
 21
-11.75
  0
LINE
  8
0
 10
13.868
 11
13.868
 20
-11.75
 21
-12.25
  0
LINE
  8
0
 10
13.868
 11
37.605
 20
-12.25
 21
-12.25
  0
LINE
  8
0
 10
37.605
 11
37.605
 20
-12.25
 21
-14.532
  0
LINE
  8
0
 10
37.605
 11
34.605
 20
-14.532
 21
-14.532
  0
LINE
  8
0
 10
34.605
 11
34.605
 20
-14.532
 21
-19.322
  0
LINE
  8
0
 10
34.605
 11
37.605
 20
-19.322
 21
-19.322
  0
LINE
  8
0
 10
37.605
 11
37.605
 20
-19.322
 21
-24.105
  0
LINE
  8
0
 10
37.605
 11
32.395
 20
-24.105
 21
-24.105
  0
LINE
  8
0
 10
32.395
 11
32.395
 20
-24.105
 21
-21.105
  0
LINE
  8
0
 10
32.395
 11
27.605
 20
-21.105
 21
-21.105
  0
LINE
  8
0
 10
27.605
 11
27.605
 20
-21.105
 21
-24.105
  0
LINE
  8
0
 10
27.605
 11
22.395
 20
-24.105
 21
-24.105
  0
LINE
  8
0
 10
22.395
 11
22.395
 20
-24.105
 21
-21.105
  0
LINE
  8
0
 10
22.395
 11
17.605
 20
-21.105
 21
-21.105
  0
LINE
  8
0
 10
17.605
 11
17.605
 20
-21.105
 21
-24.105
  0
LINE
  8
0
 10
17.605
 11
12.395
 20
-24.105
 21
-24.105
  0
LINE
  8
0
 10
12.395
 11
12.395
 20
-24.105
 21
-21.105
  0
LINE
  8
0
 10
12.395
 11
7.605
 20
-21.105
 21
-21.105
  0
LINE
  8
0
 10
7.605
 11
7.605
 20
-21.105
 21
-24.105
  0
LINE
  8
0
 10
7.605
 11
2.395
 20
-24.105
 21
-24.105
  0
LINE
  8
0
 10
2.395
 11
2.395
 20
-24.105
 21
-21.105
  0
LINE
  8
0
 10
2.395
 11
-2.395
 20
-21.105
 21
-21.105
  0
LINE
  8
0
 10
-2.395
 11
-2.395
 20
-21.105
 21
-24.105
  0
LINE
  8
0
 10
-2.395
 11
-7.605
 20
-24.105
 21
-24.105
  0
LINE
  8
0
 10
-7.605
 11
-7.605
 20
-24.105
 21
-21.105
  0
LINE
  8
0
 10
-7.605
 11
-12.395
 20
-21.105
 21
-21.105
  0
LINE
  8
0
 10
-12.395
 11
-12.395
 20
-21.105
 21
-24.105
  0
LINE
  8
0
 10
-12.395
 11
-17.605
 20
-24.105
 21
-24.105
  0
LINE
  8
0
 10
-17.605
 11
-17.605
 20
-24.105
 21
-21.105
  0
LINE
  8
0
 10
-17.605
 11
-22.395
 20
-21.105
 21
-21.105
  0
LINE
  8
0
 10
-22.395
 11
-22.395
 20
-21.105
 21
-24.105
  0
LINE
  8
0
 10
-22.395
 11
-27.605
 20
-24.105
 21
-24.105
  0
LINE
  8
0
 10
-27.605
 11
-27.605
 20
-24.105
 21
-21.105
  0
LINE
  8
0
 10
-27.605
 11
-32.395
 20
-21.105
 21
-21.105
  0
LINE
  8
0
 10
-32.395
 11
-32.395
 20
-21.105
 21
-24.105
  0
LINE
  8
0
 10
-32.395
 11
-37.605
 20
-24.105
 21
-24.105
  0
LINE
  8
0
 10
-37.605
 11
-37.605
 20
34.105
 21
38.888
  0
LINE
  8
0
 10
-37.605
 11
-34.605
 20
38.888
 21
38.888
  0
LINE
  8
0
 10
-34.605
 11
-34.605
 20
38.888
 21
43.678
  0
LINE
  8
0
 10
-34.605
 11
-37.605
 20
43.678
 21
43.678
  0
LINE
  8
0
 10
-37.605
 11
-37.605
 20
43.678
 21
45.96
  0
LINE
  8
0
 10
-37.605
 11
-13.868
 20
45.96
 21
45.96
  0
LINE
  8
0
 10
-13.868
 11
-13.868
 20
45.96
 21
46.46
  0
LINE
  8
0
 10
-13.868
 11
-37.605
 20
46.46
 21
46.46
  0
LINE
  8
0
 10
-37.605
 11
-37.605
 20
46.46
 21
47.46
  0
LINE
  8
0
 10
-37.605
 11
-26.07
 20
47.46
 21
47.46
  0
LINE
  8
0
 10
-26.07
 11
-26.07
 20
47.46
 21
47.96
  0
LINE
  8
0
 10
-26.07
 11
-37.605
 20
47.96
 21
47.96
  0
LINE
  8
0
 10
-37.605
 11
-37.605
 20
47.96
 21
48.96
  0
LINE
  8
0
 10
-37.605
 11
-13.868
 20
48.96
 21
48.96
  0
LINE
  8
0
 10
-13.868
 11
-13.868
 20
48.96
 21
49.46
  0
LINE
  8
0
 10
-13.868
 11
-37.605
 20
49.46
 21
49.46
  0
LINE
  8
0
 10
-37.605
 11
-37.605
 20
49.46
 21
50.46
  0
LINE
  8
0
 10
-37.605
 11
-26.07
 20
50.46
 21
50.46
  0
LINE
  8
0
 10
-26.07
 11
-26.07
 20
50.46
 21
50.96
  0
LINE
  8
0
 10
-26.07
 11
-37.605
 20
50.96
 21
50.96
  0
LINE
  8
0
 10
-37.605
 11
-37.605
 20
50.96
 21
51.96
  0
LINE
  8
0
 10
-37.605
 11
-13.868
 20
51.96
 21
51.96
  0
LINE
  8
0
 10
-13.868
 11
-13.868
 20
51.96
 21
52.46
  0
LINE
  8
0
 10
-13.868
 11
-37.605
 20
52.46
 21
52.46
  0
LINE
  8
0
 10
-37.605
 11
-37.605
 20
52.46
 21
53.46
  0
LINE
  8
0
 10
-37.605
 11
-26.07
 20
53.46
 21
53.46
  0
LINE
  8
0
 10
-26.07
 11
-26.07
 20
53.46
 21
53.96
  0
LINE
  8
0
 10
-26.07
 11
-37.605
 20
53.96
 21
53.96
  0
LINE
  8
0
 10
-37.605
 11
-37.605
 20
53.96
 21
54.96
  0
LINE
  8
0
 10
-37.605
 11
-13.868
 20
54.96
 21
54.96
  0
LINE
  8
0
 10
-13.868
 11
-13.868
 20
54.96
 21
55.46
  0
LINE
  8
0
 10
-13.868
 11
-37.605
 20
55.46
 21
55.46
  0
LINE
  8
0
 10
-37.605
 11
-37.605
 20
55.46
 21
56.46
  0
LINE
  8
0
 10
-37.605
 11
-26.07
 20
56.46
 21
56.46
  0
LINE
  8
0
 10
-26.07
 11
-26.07
 20
56.46
 21
56.96
  0
LINE
  8
0
 10
-26.07
 11
-37.605
 20
56.96
 21
56.96
  0
LINE
  8
0
 10
-37.605
 11
-37.605
 20
56.96
 21
57.96
  0
LINE
  8
0
 10
-37.605
 11
-13.868
 20
57.96
 21
57.96
  0
LINE
  8
0
 10
-13.868
 11
-13.868
 20
57.96
 21
58.46
  0
LINE
  8
0
 10
-13.868
 11
-37.605
 20
58.46
 21
58.46
  0
LINE
  8
0
 10
-37.605
 11
-37.605
 20
58.46
 21
59.46
  0
LINE
  8
0
 10
-37.605
 11
-26.07
 20
59.46
 21
59.46
  0
LINE
  8
0
 10
-26.07
 11
-26.07
 20
59.46
 21
59.96
  0
LINE
  8
0
 10
-26.07
 11
-37.605
 20
59.96
 21
59.96
  0
LINE
  8
0
 10
-37.605
 11
-37.605
 20
59.96
 21
60.96
  0
LINE
  8
0
 10
-37.605
 11
-13.868
 20
60.96
 21
60.96
  0
LINE
  8
0
 10
-13.868
 11
-13.868
 20
60.96
 21
61.46
  0
LINE
  8
0
 10
-13.868
 11
-37.605
 20
61.46
 21
61.46
  0
LINE
  8
0
 10
-37.605
 11
-37.605
 20
61.46
 21
62.46
  0
LINE
  8
0
 10
-37.605
 11
-26.07
 20
62.46
 21
62.46
  0
LINE
  8
0
 10
-26.07
 11
-26.07
 20
62.46
 21
62.96
  0
LINE
  8
0
 10
-26.07
 11
-37.605
 20
62.96
 21
62.96
  0
LINE
  8
0
 10
-37.605
 11
-37.605
 20
62.96
 21
63.96
  0
LINE
  8
0
 10
-37.605
 11
-13.868
 20
63.96
 21
63.96
  0
LINE
  8
0
 10
-13.868
 11
-13.868
 20
63.96
 21
64.46
  0
LINE
  8
0
 10
-13.868
 11
-37.605
 20
64.46
 21
64.46
  0
LINE
  8
0
 10
-37.605
 11
-37.605
 20
64.46
 21
65.46
  0
LINE
  8
0
 10
-37.605
 11
-26.07
 20
65.46
 21
65.46
  0
LINE
  8
0
 10
-26.07
 11
-26.07
 20
65.46
 21
65.96
  0
LINE
  8
0
 10
-26.07
 11
-37.605
 20
65.96
 21
65.96
  0
LINE
  8
0
 10
-37.605
 11
-37.605
 20
65.96
 21
66.96
  0
LINE
  8
0
 10
-37.605
 11
-13.868
 20
66.96
 21
66.96
  0
LINE
  8
0
 10
-13.868
 11
-13.868
 20
66.96
 21
67.46
  0
LINE
  8
0
 10
-13.868
 11
-37.605
 20
67.46
 21
67.46
  0
LINE
  8
0
 10
-37.605
 11
-37.605
 20
67.46
 21
68.46
  0
LINE
  8
0
 10
-37.605
 11
-26.07
 20
68.46
 21
68.46
  0
LINE
  8
0
 10
-26.07
 11
-26.07
 20
68.46
 21
68.96
  0
LINE
  8
0
 10
-26.07
 11
-37.605
 20
68.96
 21
68.96
  0
LINE
  8
0
 10
-37.605
 11
-37.605
 20
68.96
 21
69.96
  0
LINE
  8
0
 10
-37.605
 11
-13.868
 20
69.96
 21
69.96
  0
LINE
  8
0
 10
-13.868
 11
-13.868
 20
69.96
 21
70.46
  0
LINE
  8
0
 10
-13.868
 11
-37.605
 20
70.46
 21
70.46
  0
LINE
  8
0
 10
-37.605
 11
-37.605
 20
70.46
 21
72.742
  0
LINE
  8
0
 10
-37.605
 11
-34.605
 20
72.742
 21
72.742
  0
LINE
  8
0
 10
-34.605
 11
-34.605
 20
72.742
 21
77.532
  0
LINE
  8
0
 10
-34.605
 11
-37.605
 20
77.532
 21
77.532
  0
LINE
  8
0
 10
-37.605
 11
-37.605
 20
77.532
 21
82.315
  0
LINE
  8
0
 10
-37.605
 11
-37.395
 20
82.315
 21
82.315
  0
LINE
  8
0
 10
-37.395
 11
-37.395
 20
82.315
 21
79.315
  0
LINE
  8
0
 10
-37.395
 11
-32.605
 20
79.315
 21
79.315
  0
LINE
  8
0
 10
-32.605
 11
-32.605
 20
79.315
 21
82.315
  0
LINE
  8
0
 10
-32.605
 11
-27.395
 20
82.315
 21
82.315
  0
LINE
  8
0
 10
-27.395
 11
-27.395
 20
82.315
 21
79.315
  0
LINE
  8
0
 10
-27.395
 11
-22.605
 20
79.315
 21
79.315
  0
LINE
  8
0
 10
-22.605
 11
-22.605
 20
79.315
 21
82.315
  0
LINE
  8
0
 10
-22.605
 11
-17.395
 20
82.315
 21
82.315
  0
LINE
  8
0
 10
-17.395
 11
-17.395
 20
82.315
 21
79.315
  0
LINE
  8
0
 10
-17.395
 11
-12.605
 20
79.315
 21
79.315
  0
LINE
  8
0
 10
-12.605
 11
-12.605
 20
79.315
 21
82.315
  0
LINE
  8
0
 10
-12.605
 11
-7.395
 20
82.315
 21
82.315
  0
LINE
  8
0
 10
-7.395
 11
-7.395
 20
82.315
 21
79.315
  0
LINE
  8
0
 10
-7.395
 11
-2.605
 20
79.315
 21
79.315
  0
LINE
  8
0
 10
-2.605
 11
-2.605
 20
79.315
 21
82.315
  0
LINE
  8
0
 10
-2.605
 11
2.605
 20
82.315
 21
82.315
  0
LINE
  8
0
 10
2.605
 11
2.605
 20
82.315
 21
79.315
  0
LINE
  8
0
 10
2.605
 11
7.395
 20
79.315
 21
79.315
  0
LINE
  8
0
 10
7.395
 11
7.395
 20
79.315
 21
82.315
  0
LINE
  8
0
 10
7.395
 11
12.605
 20
82.315
 21
82.315
  0
LINE
  8
0
 10
12.605
 11
12.605
 20
82.315
 21
79.315
  0
LINE
  8
0
 10
12.605
 11
17.395
 20
79.315
 21
79.315
  0
LINE
  8
0
 10
17.395
 11
17.395
 20
79.315
 21
82.315
  0
LINE
  8
0
 10
17.395
 11
22.605
 20
82.315
 21
82.315
  0
LINE
  8
0
 10
22.605
 11
22.605
 20
82.315
 21
79.315
  0
LINE
  8
0
 10
22.605
 11
27.395
 20
79.315
 21
79.315
  0
LINE
  8
0
 10
27.395
 11
27.395
 20
79.315
 21
82.315
  0
LINE
  8
0
 10
27.395
 11
32.605
 20
82.315
 21
82.315
  0
LINE
  8
0
 10
32.605
 11
32.605
 20
82.315
 21
79.315
  0
LINE
  8
0
 10
32.605
 11
37.605
 20
79.315
 21
79.315
  0
LINE
  8
0
 10
37.605
 11
37.605
 20
79.315
 21
77.532
  0
LINE
  8
0
 10
37.605
 11
34.605
 20
77.532
 21
77.532
  0
LINE
  8
0
 10
34.605
 11
34.605
 20
77.532
 21
72.742
  0
LINE
  8
0
 10
34.605
 11
37.605
 20
72.742
 21
72.742
  0
LINE
  8
0
 10
37.605
 11
37.605
 20
72.742
 21
70.46
  0
LINE
  8
0
 10
37.605
 11
13.868
 20
70.46
 21
70.46
  0
LINE
  8
0
 10
13.868
 11
13.868
 20
70.46
 21
69.96
  0
LINE
  8
0
 10
13.868
 11
37.605
 20
69.96
 21
69.96
  0
LINE
  8
0
 10
37.605
 11
37.605
 20
69.96
 21
68.96
  0
LINE
  8
0
 10
37.605
 11
26.07
 20
68.96
 21
68.96
  0
LINE
  8
0
 10
26.07
 11
26.07
 20
68.96
 21
68.46
  0
LINE
  8
0
 10
26.07
 11
37.605
 20
68.46
 21
68.46
  0
LINE
  8
0
 10
37.605
 11
37.605
 20
68.46
 21
67.46
  0
LINE
  8
0
 10
37.605
 11
13.868
 20
67.46
 21
67.46
  0
LINE
  8
0
 10
13.868
 11
13.868
 20
67.46
 21
66.96
  0
LINE
  8
0
 10
13.868
 11
37.605
 20
66.96
 21
66.96
  0
LINE
  8
0
 10
37.605
 11
37.605
 20
66.96
 21
65.96
  0
LINE
  8
0
 10
37.605
 11
26.07
 20
65.96
 21
65.96
  0
LINE
  8
0
 10
26.07
 11
26.07
 20
65.96
 21
65.46
  0
LINE
  8
0
 10
26.07
 11
37.605
 20
65.46
 21
65.46
  0
LINE
  8
0
 10
37.605
 11
37.605
 20
65.46
 21
64.46
  0
LINE
  8
0
 10
37.605
 11
13.868
 20
64.46
 21
64.46
  0
LINE
  8
0
 10
13.868
 11
13.868
 20
64.46
 21
63.96
  0
LINE
  8
0
 10
13.868
 11
37.605
 20
63.96
 21
63.96
  0
LINE
  8
0
 10
37.605
 11
37.605
 20
63.96
 21
62.96
  0
LINE
  8
0
 10
37.605
 11
26.07
 20
62.96
 21
62.96
  0
LINE
  8
0
 10
26.07
 11
26.07
 20
62.96
 21
62.46
  0
LINE
  8
0
 10
26.07
 11
37.605
 20
62.46
 21
62.46
  0
LINE
  8
0
 10
37.605
 11
37.605
 20
62.46
 21
61.46
  0
LINE
  8
0
 10
37.605
 11
13.868
 20
61.46
 21
61.46
  0
LINE
  8
0
 10
13.868
 11
13.868
 20
61.46
 21
60.96
  0
LINE
  8
0
 10
13.868
 11
37.605
 20
60.96
 21
60.96
  0
LINE
  8
0
 10
37.605
 11
37.605
 20
60.96
 21
59.96
  0
LINE
  8
0
 10
37.605
 11
26.07
 20
59.96
 21
59.96
  0
LINE
  8
0
 10
26.07
 11
26.07
 20
59.96
 21
59.46
  0
LINE
  8
0
 10
26.07
 11
37.605
 20
59.46
 21
59.46
  0
LINE
  8
0
 10
37.605
 11
37.605
 20
59.46
 21
58.46
  0
LINE
  8
0
 10
37.605
 11
13.868
 20
58.46
 21
58.46
  0
LINE
  8
0
 10
13.868
 11
13.868
 20
58.46
 21
57.96
  0
LINE
  8
0
 10
13.868
 11
37.605
 20
57.96
 21
57.96
  0
LINE
  8
0
 10
37.605
 11
37.605
 20
57.96
 21
56.96
  0
LINE
  8
0
 10
37.605
 11
26.07
 20
56.96
 21
56.96
  0
LINE
  8
0
 10
26.07
 11
26.07
 20
56.96
 21
56.46
  0
LINE
  8
0
 10
26.07
 11
37.605
 20
56.46
 21
56.46
  0
LINE
  8
0
 10
37.605
 11
37.605
 20
56.46
 21
55.46
  0
LINE
  8
0
 10
37.605
 11
13.868
 20
55.46
 21
55.46
  0
LINE
  8
0
 10
13.868
 11
13.868
 20
55.46
 21
54.96
  0
LINE
  8
0
 10
13.868
 11
37.605
 20
54.96
 21
54.96
  0
LINE
  8
0
 10
37.605
 11
37.605
 20
54.96
 21
53.96
  0
LINE
  8
0
 10
37.605
 11
26.07
 20
53.96
 21
53.96
  0
LINE
  8
0
 10
26.07
 11
26.07
 20
53.96
 21
53.46
  0
LINE
  8
0
 10
26.07
 11
37.605
 20
53.46
 21
53.46
  0
LINE
  8
0
 10
37.605
 11
37.605
 20
53.46
 21
52.46
  0
LINE
  8
0
 10
37.605
 11
13.868
 20
52.46
 21
52.46
  0
LINE
  8
0
 10
13.868
 11
13.868
 20
52.46
 21
51.96
  0
LINE
  8
0
 10
13.868
 11
37.605
 20
51.96
 21
51.96
  0
LINE
  8
0
 10
37.605
 11
37.605
 20
51.96
 21
50.96
  0
LINE
  8
0
 10
37.605
 11
26.07
 20
50.96
 21
50.96
  0
LINE
  8
0
 10
26.07
 11
26.07
 20
50.96
 21
50.46
  0
LINE
  8
0
 10
26.07
 11
37.605
 20
50.46
 21
50.46
  0
LINE
  8
0
 10
37.605
 11
37.605
 20
50.46
 21
49.46
  0
LINE
  8
0
 10
37.605
 11
13.868
 20
49.46
 21
49.46
  0
LINE
  8
0
 10
13.868
 11
13.868
 20
49.46
 21
48.96
  0
LINE
  8
0
 10
13.868
 11
37.605
 20
48.96
 21
48.96
  0
LINE
  8
0
 10
37.605
 11
37.605
 20
48.96
 21
47.96
  0
LINE
  8
0
 10
37.605
 11
26.07
 20
47.96
 21
47.96
  0
LINE
  8
0
 10
26.07
 11
26.07
 20
47.96
 21
47.46
  0
LINE
  8
0
 10
26.07
 11
37.605
 20
47.46
 21
47.46
  0
LINE
  8
0
 10
37.605
 11
37.605
 20
47.46
 21
46.46
  0
LINE
  8
0
 10
37.605
 11
13.868
 20
46.46
 21
46.46
  0
LINE
  8
0
 10
13.868
 11
13.868
 20
46.46
 21
45.96
  0
LINE
  8
0
 10
13.868
 11
37.605
 20
45.96
 21
45.96
  0
LINE
  8
0
 10
37.605
 11
37.605
 20
45.96
 21
43.678
  0
LINE
  8
0
 10
37.605
 11
34.605
 20
43.678
 21
43.678
  0
LINE
  8
0
 10
34.605
 11
34.605
 20
43.678
 21
38.888
  0
LINE
  8
0
 10
34.605
 11
37.605
 20
38.888
 21
38.888
  0
LINE
  8
0
 10
37.605
 11
37.605
 20
38.888
 21
34.105
  0
LINE
  8
0
 10
37.605
 11
32.395
 20
34.105
 21
34.105
  0
LINE
  8
0
 10
32.395
 11
32.395
 20
34.105
 21
37.105
  0
LINE
  8
0
 10
32.395
 11
27.605
 20
37.105
 21
37.105
  0
LINE
  8
0
 10
27.605
 11
27.605
 20
37.105
 21
34.105
  0
LINE
  8
0
 10
27.605
 11
22.395
 20
34.105
 21
34.105
  0
LINE
  8
0
 10
22.395
 11
22.395
 20
34.105
 21
37.105
  0
LINE
  8
0
 10
22.395
 11
17.605
 20
37.105
 21
37.105
  0
LINE
  8
0
 10
17.605
 11
17.605
 20
37.105
 21
34.105
  0
LINE
  8
0
 10
17.605
 11
12.395
 20
34.105
 21
34.105
  0
LINE
  8
0
 10
12.395
 11
12.395
 20
34.105
 21
37.105
  0
LINE
  8
0
 10
12.395
 11
7.605
 20
37.105
 21
37.105
  0
LINE
  8
0
 10
7.605
 11
7.605
 20
37.105
 21
34.105
  0
LINE
  8
0
 10
7.605
 11
2.395
 20
34.105
 21
34.105
  0
LINE
  8
0
 10
2.395
 11
2.395
 20
34.105
 21
37.105
  0
LINE
  8
0
 10
2.395
 11
-2.395
 20
37.105
 21
37.105
  0
LINE
  8
0
 10
-2.395
 11
-2.395
 20
37.105
 21
34.105
  0
LINE
  8
0
 10
-2.395
 11
-7.605
 20
34.105
 21
34.105
  0
LINE
  8
0
 10
-7.605
 11
-7.605
 20
34.105
 21
37.105
  0
LINE
  8
0
 10
-7.605
 11
-12.395
 20
37.105
 21
37.105
  0
LINE
  8
0
 10
-12.395
 11
-12.395
 20
37.105
 21
34.105
  0
LINE
  8
0
 10
-12.395
 11
-17.605
 20
34.105
 21
34.105
  0
LINE
  8
0
 10
-17.605
 11
-17.605
 20
34.105
 21
37.105
  0
LINE
  8
0
 10
-17.605
 11
-22.395
 20
37.105
 21
37.105
  0
LINE
  8
0
 10
-22.395
 11
-22.395
 20
37.105
 21
34.105
  0
LINE
  8
0
 10
-22.395
 11
-27.605
 20
34.105
 21
34.105
  0
LINE
  8
0
 10
-27.605
 11
-27.605
 20
34.105
 21
37.105
  0
LINE
  8
0
 10
-27.605
 11
-32.395
 20
37.105
 21
37.105
  0
LINE
  8
0
 10
-32.395
 11
-32.395
 20
37.105
 21
34.105
  0
LINE
  8
0
 10
-32.395
 11
-37.605
 20
34.105
 21
34.105
  0
LINE
  8
0
 10
-37.605
 11
-37.605
 20
92.315
 21
97.098
  0
LINE
  8
0
 10
-37.605
 11
-34.605
 20
97.098
 21
97.098
  0
LINE
  8
0
 10
-34.605
 11
-34.605
 20
97.098
 21
101.888
  0
LINE
  8
0
 10
-34.605
 11
-37.605
 20
101.888
 21
101.888
  0
LINE
  8
0
 10
-37.605
 11
-37.605
 20
101.888
 21
104.17
  0
LINE
  8
0
 10
-37.605
 11
-13.868
 20
104.17
 21
104.17
  0
LINE
  8
0
 10
-13.868
 11
-13.868
 20
104.17
 21
104.67
  0
LINE
  8
0
 10
-13.868
 11
-37.605
 20
104.67
 21
104.67
  0
LINE
  8
0
 10
-37.605
 11
-37.605
 20
104.67
 21
105.67
  0
LINE
  8
0
 10
-37.605
 11
-26.07
 20
105.67
 21
105.67
  0
LINE
  8
0
 10
-26.07
 11
-26.07
 20
105.67
 21
106.17
  0
LINE
  8
0
 10
-26.07
 11
-37.605
 20
106.17
 21
106.17
  0
LINE
  8
0
 10
-37.605
 11
-37.605
 20
106.17
 21
107.17
  0
LINE
  8
0
 10
-37.605
 11
-13.868
 20
107.17
 21
107.17
  0
LINE
  8
0
 10
-13.868
 11
-13.868
 20
107.17
 21
107.67
  0
LINE
  8
0
 10
-13.868
 11
-37.605
 20
107.67
 21
107.67
  0
LINE
  8
0
 10
-37.605
 11
-37.605
 20
107.67
 21
108.67
  0
LINE
  8
0
 10
-37.605
 11
-26.07
 20
108.67
 21
108.67
  0
LINE
  8
0
 10
-26.07
 11
-26.07
 20
108.67
 21
109.17
  0
LINE
  8
0
 10
-26.07
 11
-37.605
 20
109.17
 21
109.17
  0
LINE
  8
0
 10
-37.605
 11
-37.605
 20
109.17
 21
110.17
  0
LINE
  8
0
 10
-37.605
 11
-13.868
 20
110.17
 21
110.17
  0
LINE
  8
0
 10
-13.868
 11
-13.868
 20
110.17
 21
110.67
  0
LINE
  8
0
 10
-13.868
 11
-37.605
 20
110.67
 21
110.67
  0
LINE
  8
0
 10
-37.605
 11
-37.605
 20
110.67
 21
111.67
  0
LINE
  8
0
 10
-37.605
 11
-26.07
 20
111.67
 21
111.67
  0
LINE
  8
0
 10
-26.07
 11
-26.07
 20
111.67
 21
112.17
  0
LINE
  8
0
 10
-26.07
 11
-37.605
 20
112.17
 21
112.17
  0
LINE
  8
0
 10
-37.605
 11
-37.605
 20
112.17
 21
113.17
  0
LINE
  8
0
 10
-37.605
 11
-13.868
 20
113.17
 21
113.17
  0
LINE
  8
0
 10
-13.868
 11
-13.868
 20
113.17
 21
113.67
  0
LINE
  8
0
 10
-13.868
 11
-37.605
 20
113.67
 21
113.67
  0
LINE
  8
0
 10
-37.605
 11
-37.605
 20
113.67
 21
114.67
  0
LINE
  8
0
 10
-37.605
 11
-26.07
 20
114.67
 21
114.67
  0
LINE
  8
0
 10
-26.07
 11
-26.07
 20
114.67
 21
115.17
  0
LINE
  8
0
 10
-26.07
 11
-37.605
 20
115.17
 21
115.17
  0
LINE
  8
0
 10
-37.605
 11
-37.605
 20
115.17
 21
116.17
  0
LINE
  8
0
 10
-37.605
 11
-13.868
 20
116.17
 21
116.17
  0
LINE
  8
0
 10
-13.868
 11
-13.868
 20
116.17
 21
116.67
  0
LINE
  8
0
 10
-13.868
 11
-37.605
 20
116.67
 21
116.67
  0
LINE
  8
0
 10
-37.605
 11
-37.605
 20
116.67
 21
117.67
  0
LINE
  8
0
 10
-37.605
 11
-26.07
 20
117.67
 21
117.67
  0
LINE
  8
0
 10
-26.07
 11
-26.07
 20
117.67
 21
118.17
  0
LINE
  8
0
 10
-26.07
 11
-37.605
 20
118.17
 21
118.17
  0
LINE
  8
0
 10
-37.605
 11
-37.605
 20
118.17
 21
119.17
  0
LINE
  8
0
 10
-37.605
 11
-13.868
 20
119.17
 21
119.17
  0
LINE
  8
0
 10
-13.868
 11
-13.868
 20
119.17
 21
119.67
  0
LINE
  8
0
 10
-13.868
 11
-37.605
 20
119.67
 21
119.67
  0
LINE
  8
0
 10
-37.605
 11
-37.605
 20
119.67
 21
120.67
  0
LINE
  8
0
 10
-37.605
 11
-26.07
 20
120.67
 21
120.67
  0
LINE
  8
0
 10
-26.07
 11
-26.07
 20
120.67
 21
121.17
  0
LINE
  8
0
 10
-26.07
 11
-37.605
 20
121.17
 21
121.17
  0
LINE
  8
0
 10
-37.605
 11
-37.605
 20
121.17
 21
122.17
  0
LINE
  8
0
 10
-37.605
 11
-13.868
 20
122.17
 21
122.17
  0
LINE
  8
0
 10
-13.868
 11
-13.868
 20
122.17
 21
122.67
  0
LINE
  8
0
 10
-13.868
 11
-37.605
 20
122.67
 21
122.67
  0
LINE
  8
0
 10
-37.605
 11
-37.605
 20
122.67
 21
123.67
  0
LINE
  8
0
 10
-37.605
 11
-26.07
 20
123.67
 21
123.67
  0
LINE
  8
0
 10
-26.07
 11
-26.07
 20
123.67
 21
124.17
  0
LINE
  8
0
 10
-26.07
 11
-37.605
 20
124.17
 21
124.17
  0
LINE
  8
0
 10
-37.605
 11
-37.605
 20
124.17
 21
125.17
  0
LINE
  8
0
 10
-37.605
 11
-13.868
 20
125.17
 21
125.17
  0
LINE
  8
0
 10
-13.868
 11
-13.868
 20
125.17
 21
125.67
  0
LINE
  8
0
 10
-13.868
 11
-37.605
 20
125.67
 21
125.67
  0
LINE
  8
0
 10
-37.605
 11
-37.605
 20
125.67
 21
126.67
  0
LINE
  8
0
 10
-37.605
 11
-26.07
 20
126.67
 21
126.67
  0
LINE
  8
0
 10
-26.07
 11
-26.07
 20
126.67
 21
127.17
  0
LINE
  8
0
 10
-26.07
 11
-37.605
 20
127.17
 21
127.17
  0
LINE
  8
0
 10
-37.605
 11
-37.605
 20
127.17
 21
128.17
  0
LINE
  8
0
 10
-37.605
 11
-13.868
 20
128.17
 21
128.17
  0
LINE
  8
0
 10
-13.868
 11
-13.868
 20
128.17
 21
128.67
  0
LINE
  8
0
 10
-13.868
 11
-37.605
 20
128.67
 21
128.67
  0
LINE
  8
0
 10
-37.605
 11
-37.605
 20
128.67
 21
130.952
  0
LINE
  8
0
 10
-37.605
 11
-34.605
 20
130.952
 21
130.952
  0
LINE
  8
0
 10
-34.605
 11
-34.605
 20
130.952
 21
135.742
  0
LINE
  8
0
 10
-34.605
 11
-37.605
 20
135.742
 21
135.742
  0
LINE
  8
0
 10
-37.605
 11
-37.605
 20
135.742
 21
140.525
  0
LINE
  8
0
 10
-37.605
 11
-37.395
 20
140.525
 21
140.525
  0
LINE
  8
0
 10
-37.395
 11
-37.395
 20
140.525
 21
137.525
  0
LINE
  8
0
 10
-37.395
 11
-32.605
 20
137.525
 21
137.525
  0
LINE
  8
0
 10
-32.605
 11
-32.605
 20
137.525
 21
140.525
  0
LINE
  8
0
 10
-32.605
 11
-27.395
 20
140.525
 21
140.525
  0
LINE
  8
0
 10
-27.395
 11
-27.395
 20
140.525
 21
137.525
  0
LINE
  8
0
 10
-27.395
 11
-22.605
 20
137.525
 21
137.525
  0
LINE
  8
0
 10
-22.605
 11
-22.605
 20
137.525
 21
140.525
  0
LINE
  8
0
 10
-22.605
 11
-17.395
 20
140.525
 21
140.525
  0
LINE
  8
0
 10
-17.395
 11
-17.395
 20
140.525
 21
137.525
  0
LINE
  8
0
 10
-17.395
 11
-12.605
 20
137.525
 21
137.525
  0
LINE
  8
0
 10
-12.605
 11
-12.605
 20
137.525
 21
140.525
  0
LINE
  8
0
 10
-12.605
 11
-7.395
 20
140.525
 21
140.525
  0
LINE
  8
0
 10
-7.395
 11
-7.395
 20
140.525
 21
137.525
  0
LINE
  8
0
 10
-7.395
 11
-2.605
 20
137.525
 21
137.525
  0
LINE
  8
0
 10
-2.605
 11
-2.605
 20
137.525
 21
140.525
  0
LINE
  8
0
 10
-2.605
 11
2.605
 20
140.525
 21
140.525
  0
LINE
  8
0
 10
2.605
 11
2.605
 20
140.525
 21
137.525
  0
LINE
  8
0
 10
2.605
 11
7.395
 20
137.525
 21
137.525
  0
LINE
  8
0
 10
7.395
 11
7.395
 20
137.525
 21
140.525
  0
LINE
  8
0
 10
7.395
 11
12.605
 20
140.525
 21
140.525
  0
LINE
  8
0
 10
12.605
 11
12.605
 20
140.525
 21
137.525
  0
LINE
  8
0
 10
12.605
 11
17.395
 20
137.525
 21
137.525
  0
LINE
  8
0
 10
17.395
 11
17.395
 20
137.525
 21
140.525
  0
LINE
  8
0
 10
17.395
 11
22.605
 20
140.525
 21
140.525
  0
LINE
  8
0
 10
22.605
 11
22.605
 20
140.525
 21
137.525
  0
LINE
  8
0
 10
22.605
 11
27.395
 20
137.525
 21
137.525
  0
LINE
  8
0
 10
27.395
 11
27.395
 20
137.525
 21
140.525
  0
LINE
  8
0
 10
27.395
 11
32.605
 20
140.525
 21
140.525
  0
LINE
  8
0
 10
32.605
 11
32.605
 20
140.525
 21
137.525
  0
LINE
  8
0
 10
32.605
 11
37.605
 20
137.525
 21
137.525
  0
LINE
  8
0
 10
37.605
 11
37.605
 20
137.525
 21
135.742
  0
LINE
  8
0
 10
37.605
 11
34.605
 20
135.742
 21
135.742
  0
LINE
  8
0
 10
34.605
 11
34.605
 20
135.742
 21
130.952
  0
LINE
  8
0
 10
34.605
 11
37.605
 20
130.952
 21
130.952
  0
LINE
  8
0
 10
37.605
 11
37.605
 20
130.952
 21
128.67
  0
LINE
  8
0
 10
37.605
 11
13.868
 20
128.67
 21
128.67
  0
LINE
  8
0
 10
13.868
 11
13.868
 20
128.67
 21
128.17
  0
LINE
  8
0
 10
13.868
 11
37.605
 20
128.17
 21
128.17
  0
LINE
  8
0
 10
37.605
 11
37.605
 20
128.17
 21
127.17
  0
LINE
  8
0
 10
37.605
 11
26.07
 20
127.17
 21
127.17
  0
LINE
  8
0
 10
26.07
 11
26.07
 20
127.17
 21
126.67
  0
LINE
  8
0
 10
26.07
 11
37.605
 20
126.67
 21
126.67
  0
LINE
  8
0
 10
37.605
 11
37.605
 20
126.67
 21
125.67
  0
LINE
  8
0
 10
37.605
 11
13.868
 20
125.67
 21
125.67
  0
LINE
  8
0
 10
13.868
 11
13.868
 20
125.67
 21
125.17
  0
LINE
  8
0
 10
13.868
 11
37.605
 20
125.17
 21
125.17
  0
LINE
  8
0
 10
37.605
 11
37.605
 20
125.17
 21
124.17
  0
LINE
  8
0
 10
37.605
 11
26.07
 20
124.17
 21
124.17
  0
LINE
  8
0
 10
26.07
 11
26.07
 20
124.17
 21
123.67
  0
LINE
  8
0
 10
26.07
 11
37.605
 20
123.67
 21
123.67
  0
LINE
  8
0
 10
37.605
 11
37.605
 20
123.67
 21
122.67
  0
LINE
  8
0
 10
37.605
 11
13.868
 20
122.67
 21
122.67
  0
LINE
  8
0
 10
13.868
 11
13.868
 20
122.67
 21
122.17
  0
LINE
  8
0
 10
13.868
 11
37.605
 20
122.17
 21
122.17
  0
LINE
  8
0
 10
37.605
 11
37.605
 20
122.17
 21
121.17
  0
LINE
  8
0
 10
37.605
 11
26.07
 20
121.17
 21
121.17
  0
LINE
  8
0
 10
26.07
 11
26.07
 20
121.17
 21
120.67
  0
LINE
  8
0
 10
26.07
 11
37.605
 20
120.67
 21
120.67
  0
LINE
  8
0
 10
37.605
 11
37.605
 20
120.67
 21
119.67
  0
LINE
  8
0
 10
37.605
 11
13.868
 20
119.67
 21
119.67
  0
LINE
  8
0
 10
13.868
 11
13.868
 20
119.67
 21
119.17
  0
LINE
  8
0
 10
13.868
 11
37.605
 20
119.17
 21
119.17
  0
LINE
  8
0
 10
37.605
 11
37.605
 20
119.17
 21
118.17
  0
LINE
  8
0
 10
37.605
 11
26.07
 20
118.17
 21
118.17
  0
LINE
  8
0
 10
26.07
 11
26.07
 20
118.17
 21
117.67
  0
LINE
  8
0
 10
26.07
 11
37.605
 20
117.67
 21
117.67
  0
LINE
  8
0
 10
37.605
 11
37.605
 20
117.67
 21
116.67
  0
LINE
  8
0
 10
37.605
 11
13.868
 20
116.67
 21
116.67
  0
LINE
  8
0
 10
13.868
 11
13.868
 20
116.67
 21
116.17
  0
LINE
  8
0
 10
13.868
 11
37.605
 20
116.17
 21
116.17
  0
LINE
  8
0
 10
37.605
 11
37.605
 20
116.17
 21
115.17
  0
LINE
  8
0
 10
37.605
 11
26.07
 20
115.17
 21
115.17
  0
LINE
  8
0
 10
26.07
 11
26.07
 20
115.17
 21
114.67
  0
LINE
  8
0
 10
26.07
 11
37.605
 20
114.67
 21
114.67
  0
LINE
  8
0
 10
37.605
 11
37.605
 20
114.67
 21
113.67
  0
LINE
  8
0
 10
37.605
 11
13.868
 20
113.67
 21
113.67
  0
LINE
  8
0
 10
13.868
 11
13.868
 20
113.67
 21
113.17
  0
LINE
  8
0
 10
13.868
 11
37.605
 20
113.17
 21
113.17
  0
LINE
  8
0
 10
37.605
 11
37.605
 20
113.17
 21
112.17
  0
LINE
  8
0
 10
37.605
 11
26.07
 20
112.17
 21
112.17
  0
LINE
  8
0
 10
26.07
 11
26.07
 20
112.17
 21
111.67
  0
LINE
  8
0
 10
26.07
 11
37.605
 20
111.67
 21
111.67
  0
LINE
  8
0
 10
37.605
 11
37.605
 20
111.67
 21
110.67
  0
LINE
  8
0
 10
37.605
 11
13.868
 20
110.67
 21
110.67
  0
LINE
  8
0
 10
13.868
 11
13.868
 20
110.67
 21
110.17
  0
LINE
  8
0
 10
13.868
 11
37.605
 20
110.17
 21
110.17
  0
LINE
  8
0
 10
37.605
 11
37.605
 20
110.17
 21
109.17
  0
LINE
  8
0
 10
37.605
 11
26.07
 20
109.17
 21
109.17
  0
LINE
  8
0
 10
26.07
 11
26.07
 20
109.17
 21
108.67
  0
LINE
  8
0
 10
26.07
 11
37.605
 20
108.67
 21
108.67
  0
LINE
  8
0
 10
37.605
 11
37.605
 20
108.67
 21
107.67
  0
LINE
  8
0
 10
37.605
 11
13.868
 20
107.67
 21
107.67
  0
LINE
  8
0
 10
13.868
 11
13.868
 20
107.67
 21
107.17
  0
LINE
  8
0
 10
13.868
 11
37.605
 20
107.17
 21
107.17
  0
LINE
  8
0
 10
37.605
 11
37.605
 20
107.17
 21
106.17
  0
LINE
  8
0
 10
37.605
 11
26.07
 20
106.17
 21
106.17
  0
LINE
  8
0
 10
26.07
 11
26.07
 20
106.17
 21
105.67
  0
LINE
  8
0
 10
26.07
 11
37.605
 20
105.67
 21
105.67
  0
LINE
  8
0
 10
37.605
 11
37.605
 20
105.67
 21
104.67
  0
LINE
  8
0
 10
37.605
 11
13.868
 20
104.67
 21
104.67
  0
LINE
  8
0
 10
13.868
 11
13.868
 20
104.67
 21
104.17
  0
LINE
  8
0
 10
13.868
 11
37.605
 20
104.17
 21
104.17
  0
LINE
  8
0
 10
37.605
 11
37.605
 20
104.17
 21
101.888
  0
LINE
  8
0
 10
37.605
 11
34.605
 20
101.888
 21
101.888
  0
LINE
  8
0
 10
34.605
 11
34.605
 20
101.888
 21
97.098
  0
LINE
  8
0
 10
34.605
 11
37.605
 20
97.098
 21
97.098
  0
LINE
  8
0
 10
37.605
 11
37.605
 20
97.098
 21
92.315
  0
LINE
  8
0
 10
37.605
 11
32.395
 20
92.315
 21
92.315
  0
LINE
  8
0
 10
32.395
 11
32.395
 20
92.315
 21
95.315
  0
LINE
  8
0
 10
32.395
 11
27.605
 20
95.315
 21
95.315
  0
LINE
  8
0
 10
27.605
 11
27.605
 20
95.315
 21
92.315
  0
LINE
  8
0
 10
27.605
 11
22.395
 20
92.315
 21
92.315
  0
LINE
  8
0
 10
22.395
 11
22.395
 20
92.315
 21
95.315
  0
LINE
  8
0
 10
22.395
 11
17.605
 20
95.315
 21
95.315
  0
LINE
  8
0
 10
17.605
 11
17.605
 20
95.315
 21
92.315
  0
LINE
  8
0
 10
17.605
 11
12.395
 20
92.315
 21
92.315
  0
LINE
  8
0
 10
12.395
 11
12.395
 20
92.315
 21
95.315
  0
LINE
  8
0
 10
12.395
 11
7.605
 20
95.315
 21
95.315
  0
LINE
  8
0
 10
7.605
 11
7.605
 20
95.315
 21
92.315
  0
LINE
  8
0
 10
7.605
 11
2.395
 20
92.315
 21
92.315
  0
LINE
  8
0
 10
2.395
 11
2.395
 20
92.315
 21
95.315
  0
LINE
  8
0
 10
2.395
 11
-2.395
 20
95.315
 21
95.315
  0
LINE
  8
0
 10
-2.395
 11
-2.395
 20
95.315
 21
92.315
  0
LINE
  8
0
 10
-2.395
 11
-7.605
 20
92.315
 21
92.315
  0
LINE
  8
0
 10
-7.605
 11
-7.605
 20
92.315
 21
95.315
  0
LINE
  8
0
 10
-7.605
 11
-12.395
 20
95.315
 21
95.315
  0
LINE
  8
0
 10
-12.395
 11
-12.395
 20
95.315
 21
92.315
  0
LINE
  8
0
 10
-12.395
 11
-17.605
 20
92.315
 21
92.315
  0
LINE
  8
0
 10
-17.605
 11
-17.605
 20
92.315
 21
95.315
  0
LINE
  8
0
 10
-17.605
 11
-22.395
 20
95.315
 21
95.315
  0
LINE
  8
0
 10
-22.395
 11
-22.395
 20
95.315
 21
92.315
  0
LINE
  8
0
 10
-22.395
 11
-27.605
 20
92.315
 21
92.315
  0
LINE
  8
0
 10
-27.605
 11
-27.605
 20
92.315
 21
95.315
  0
LINE
  8
0
 10
-27.605
 11
-32.395
 20
95.315
 21
95.315
  0
LINE
  8
0
 10
-32.395
 11
-32.395
 20
95.315
 21
92.315
  0
LINE
  8
0
 10
-32.395
 11
-37.605
 20
92.315
 21
92.315
  0
LINE
  8
0
 10
-37.605
 11
-37.605
 20
150.525
 21
155.308
  0
LINE
  8
0
 10
-37.605
 11
-34.605
 20
155.308
 21
155.308
  0
LINE
  8
0
 10
-34.605
 11
-34.605
 20
155.308
 21
160.098
  0
LINE
  8
0
 10
-34.605
 11
-37.605
 20
160.098
 21
160.098
  0
LINE
  8
0
 10
-37.605
 11
-37.605
 20
160.098
 21
162.38
  0
LINE
  8
0
 10
-37.605
 11
-13.868
 20
162.38
 21
162.38
  0
LINE
  8
0
 10
-13.868
 11
-13.868
 20
162.38
 21
162.88
  0
LINE
  8
0
 10
-13.868
 11
-37.605
 20
162.88
 21
162.88
  0
LINE
  8
0
 10
-37.605
 11
-37.605
 20
162.88
 21
163.88
  0
LINE
  8
0
 10
-37.605
 11
-26.07
 20
163.88
 21
163.88
  0
LINE
  8
0
 10
-26.07
 11
-26.07
 20
163.88
 21
164.38
  0
LINE
  8
0
 10
-26.07
 11
-37.605
 20
164.38
 21
164.38
  0
LINE
  8
0
 10
-37.605
 11
-37.605
 20
164.38
 21
165.38
  0
LINE
  8
0
 10
-37.605
 11
-13.868
 20
165.38
 21
165.38
  0
LINE
  8
0
 10
-13.868
 11
-13.868
 20
165.38
 21
165.88
  0
LINE
  8
0
 10
-13.868
 11
-37.605
 20
165.88
 21
165.88
  0
LINE
  8
0
 10
-37.605
 11
-37.605
 20
165.88
 21
166.88
  0
LINE
  8
0
 10
-37.605
 11
-26.07
 20
166.88
 21
166.88
  0
LINE
  8
0
 10
-26.07
 11
-26.07
 20
166.88
 21
167.38
  0
LINE
  8
0
 10
-26.07
 11
-37.605
 20
167.38
 21
167.38
  0
LINE
  8
0
 10
-37.605
 11
-37.605
 20
167.38
 21
168.38
  0
LINE
  8
0
 10
-37.605
 11
-13.868
 20
168.38
 21
168.38
  0
LINE
  8
0
 10
-13.868
 11
-13.868
 20
168.38
 21
168.88
  0
LINE
  8
0
 10
-13.868
 11
-37.605
 20
168.88
 21
168.88
  0
LINE
  8
0
 10
-37.605
 11
-37.605
 20
168.88
 21
169.88
  0
LINE
  8
0
 10
-37.605
 11
-26.07
 20
169.88
 21
169.88
  0
LINE
  8
0
 10
-26.07
 11
-26.07
 20
169.88
 21
170.38
  0
LINE
  8
0
 10
-26.07
 11
-37.605
 20
170.38
 21
170.38
  0
LINE
  8
0
 10
-37.605
 11
-37.605
 20
170.38
 21
171.38
  0
LINE
  8
0
 10
-37.605
 11
-13.868
 20
171.38
 21
171.38
  0
LINE
  8
0
 10
-13.868
 11
-13.868
 20
171.38
 21
171.88
  0
LINE
  8
0
 10
-13.868
 11
-37.605
 20
171.88
 21
171.88
  0
LINE
  8
0
 10
-37.605
 11
-37.605
 20
171.88
 21
172.88
  0
LINE
  8
0
 10
-37.605
 11
-26.07
 20
172.88
 21
172.88
  0
LINE
  8
0
 10
-26.07
 11
-26.07
 20
172.88
 21
173.38
  0
LINE
  8
0
 10
-26.07
 11
-37.605
 20
173.38
 21
173.38
  0
LINE
  8
0
 10
-37.605
 11
-37.605
 20
173.38
 21
174.38
  0
LINE
  8
0
 10
-37.605
 11
-13.868
 20
174.38
 21
174.38
  0
LINE
  8
0
 10
-13.868
 11
-13.868
 20
174.38
 21
174.88
  0
LINE
  8
0
 10
-13.868
 11
-37.605
 20
174.88
 21
174.88
  0
LINE
  8
0
 10
-37.605
 11
-37.605
 20
174.88
 21
175.88
  0
LINE
  8
0
 10
-37.605
 11
-26.07
 20
175.88
 21
175.88
  0
LINE
  8
0
 10
-26.07
 11
-26.07
 20
175.88
 21
176.38
  0
LINE
  8
0
 10
-26.07
 11
-37.605
 20
176.38
 21
176.38
  0
LINE
  8
0
 10
-37.605
 11
-37.605
 20
176.38
 21
177.38
  0
LINE
  8
0
 10
-37.605
 11
-13.868
 20
177.38
 21
177.38
  0
LINE
  8
0
 10
-13.868
 11
-13.868
 20
177.38
 21
177.88
  0
LINE
  8
0
 10
-13.868
 11
-37.605
 20
177.88
 21
177.88
  0
LINE
  8
0
 10
-37.605
 11
-37.605
 20
177.88
 21
178.88
  0
LINE
  8
0
 10
-37.605
 11
-26.07
 20
178.88
 21
178.88
  0
LINE
  8
0
 10
-26.07
 11
-26.07
 20
178.88
 21
179.38
  0
LINE
  8
0
 10
-26.07
 11
-37.605
 20
179.38
 21
179.38
  0
LINE
  8
0
 10
-37.605
 11
-37.605
 20
179.38
 21
180.38
  0
LINE
  8
0
 10
-37.605
 11
-13.868
 20
180.38
 21
180.38
  0
LINE
  8
0
 10
-13.868
 11
-13.868
 20
180.38
 21
180.88
  0
LINE
  8
0
 10
-13.868
 11
-37.605
 20
180.88
 21
180.88
  0
LINE
  8
0
 10
-37.605
 11
-37.605
 20
180.88
 21
181.88
  0
LINE
  8
0
 10
-37.605
 11
-26.07
 20
181.88
 21
181.88
  0
LINE
  8
0
 10
-26.07
 11
-26.07
 20
181.88
 21
182.38
  0
LINE
  8
0
 10
-26.07
 11
-37.605
 20
182.38
 21
182.38
  0
LINE
  8
0
 10
-37.605
 11
-37.605
 20
182.38
 21
183.38
  0
LINE
  8
0
 10
-37.605
 11
-13.868
 20
183.38
 21
183.38
  0
LINE
  8
0
 10
-13.868
 11
-13.868
 20
183.38
 21
183.88
  0
LINE
  8
0
 10
-13.868
 11
-37.605
 20
183.88
 21
183.88
  0
LINE
  8
0
 10
-37.605
 11
-37.605
 20
183.88
 21
184.88
  0
LINE
  8
0
 10
-37.605
 11
-26.07
 20
184.88
 21
184.88
  0
LINE
  8
0
 10
-26.07
 11
-26.07
 20
184.88
 21
185.38
  0
LINE
  8
0
 10
-26.07
 11
-37.605
 20
185.38
 21
185.38
  0
LINE
  8
0
 10
-37.605
 11
-37.605
 20
185.38
 21
186.38
  0
LINE
  8
0
 10
-37.605
 11
-13.868
 20
186.38
 21
186.38
  0
LINE
  8
0
 10
-13.868
 11
-13.868
 20
186.38
 21
186.88
  0
LINE
  8
0
 10
-13.868
 11
-37.605
 20
186.88
 21
186.88
  0
LINE
  8
0
 10
-37.605
 11
-37.605
 20
186.88
 21
189.162
  0
LINE
  8
0
 10
-37.605
 11
-34.605
 20
189.162
 21
189.162
  0
LINE
  8
0
 10
-34.605
 11
-34.605
 20
189.162
 21
193.952
  0
LINE
  8
0
 10
-34.605
 11
-37.605
 20
193.952
 21
193.952
  0
LINE
  8
0
 10
-37.605
 11
-37.605
 20
193.952
 21
198.735
  0
LINE
  8
0
 10
-37.605
 11
-37.395
 20
198.735
 21
198.735
  0
LINE
  8
0
 10
-37.395
 11
-37.395
 20
198.735
 21
195.735
  0
LINE
  8
0
 10
-37.395
 11
-32.605
 20
195.735
 21
195.735
  0
LINE
  8
0
 10
-32.605
 11
-32.605
 20
195.735
 21
198.735
  0
LINE
  8
0
 10
-32.605
 11
-27.395
 20
198.735
 21
198.735
  0
LINE
  8
0
 10
-27.395
 11
-27.395
 20
198.735
 21
195.735
  0
LINE
  8
0
 10
-27.395
 11
-22.605
 20
195.735
 21
195.735
  0
LINE
  8
0
 10
-22.605
 11
-22.605
 20
195.735
 21
198.735
  0
LINE
  8
0
 10
-22.605
 11
-17.395
 20
198.735
 21
198.735
  0
LINE
  8
0
 10
-17.395
 11
-17.395
 20
198.735
 21
195.735
  0
LINE
  8
0
 10
-17.395
 11
-12.605
 20
195.735
 21
195.735
  0
LINE
  8
0
 10
-12.605
 11
-12.605
 20
195.735
 21
198.735
  0
LINE
  8
0
 10
-12.605
 11
-7.395
 20
198.735
 21
198.735
  0
LINE
  8
0
 10
-7.395
 11
-7.395
 20
198.735
 21
195.735
  0
LINE
  8
0
 10
-7.395
 11
-2.605
 20
195.735
 21
195.735
  0
LINE
  8
0
 10
-2.605
 11
-2.605
 20
195.735
 21
198.735
  0
LINE
  8
0
 10
-2.605
 11
2.605
 20
198.735
 21
198.735
  0
LINE
  8
0
 10
2.605
 11
2.605
 20
198.735
 21
195.735
  0
LINE
  8
0
 10
2.605
 11
7.395
 20
195.735
 21
195.735
  0
LINE
  8
0
 10
7.395
 11
7.395
 20
195.735
 21
198.735
  0
LINE
  8
0
 10
7.395
 11
12.605
 20
198.735
 21
198.735
  0
LINE
  8
0
 10
12.605
 11
12.605
 20
198.735
 21
195.735
  0
LINE
  8
0
 10
12.605
 11
17.395
 20
195.735
 21
195.735
  0
LINE
  8
0
 10
17.395
 11
17.395
 20
195.735
 21
198.735
  0
LINE
  8
0
 10
17.395
 11
22.605
 20
198.735
 21
198.735
  0
LINE
  8
0
 10
22.605
 11
22.605
 20
198.735
 21
195.735
  0
LINE
  8
0
 10
22.605
 11
27.395
 20
195.735
 21
195.735
  0
LINE
  8
0
 10
27.395
 11
27.395
 20
195.735
 21
198.735
  0
LINE
  8
0
 10
27.395
 11
32.605
 20
198.735
 21
198.735
  0
LINE
  8
0
 10
32.605
 11
32.605
 20
198.735
 21
195.735
  0
LINE
  8
0
 10
32.605
 11
37.605
 20
195.735
 21
195.735
  0
LINE
  8
0
 10
37.605
 11
37.605
 20
195.735
 21
193.952
  0
LINE
  8
0
 10
37.605
 11
34.605
 20
193.952
 21
193.952
  0
LINE
  8
0
 10
34.605
 11
34.605
 20
193.952
 21
189.162
  0
LINE
  8
0
 10
34.605
 11
37.605
 20
189.162
 21
189.162
  0
LINE
  8
0
 10
37.605
 11
37.605
 20
189.162
 21
186.88
  0
LINE
  8
0
 10
37.605
 11
13.868
 20
186.88
 21
186.88
  0
LINE
  8
0
 10
13.868
 11
13.868
 20
186.88
 21
186.38
  0
LINE
  8
0
 10
13.868
 11
37.605
 20
186.38
 21
186.38
  0
LINE
  8
0
 10
37.605
 11
37.605
 20
186.38
 21
185.38
  0
LINE
  8
0
 10
37.605
 11
26.07
 20
185.38
 21
185.38
  0
LINE
  8
0
 10
26.07
 11
26.07
 20
185.38
 21
184.88
  0
LINE
  8
0
 10
26.07
 11
37.605
 20
184.88
 21
184.88
  0
LINE
  8
0
 10
37.605
 11
37.605
 20
184.88
 21
183.88
  0
LINE
  8
0
 10
37.605
 11
13.868
 20
183.88
 21
183.88
  0
LINE
  8
0
 10
13.868
 11
13.868
 20
183.88
 21
183.38
  0
LINE
  8
0
 10
13.868
 11
37.605
 20
183.38
 21
183.38
  0
LINE
  8
0
 10
37.605
 11
37.605
 20
183.38
 21
182.38
  0
LINE
  8
0
 10
37.605
 11
26.07
 20
182.38
 21
182.38
  0
LINE
  8
0
 10
26.07
 11
26.07
 20
182.38
 21
181.88
  0
LINE
  8
0
 10
26.07
 11
37.605
 20
181.88
 21
181.88
  0
LINE
  8
0
 10
37.605
 11
37.605
 20
181.88
 21
180.88
  0
LINE
  8
0
 10
37.605
 11
13.868
 20
180.88
 21
180.88
  0
LINE
  8
0
 10
13.868
 11
13.868
 20
180.88
 21
180.38
  0
LINE
  8
0
 10
13.868
 11
37.605
 20
180.38
 21
180.38
  0
LINE
  8
0
 10
37.605
 11
37.605
 20
180.38
 21
179.38
  0
LINE
  8
0
 10
37.605
 11
26.07
 20
179.38
 21
179.38
  0
LINE
  8
0
 10
26.07
 11
26.07
 20
179.38
 21
178.88
  0
LINE
  8
0
 10
26.07
 11
37.605
 20
178.88
 21
178.88
  0
LINE
  8
0
 10
37.605
 11
37.605
 20
178.88
 21
177.88
  0
LINE
  8
0
 10
37.605
 11
13.868
 20
177.88
 21
177.88
  0
LINE
  8
0
 10
13.868
 11
13.868
 20
177.88
 21
177.38
  0
LINE
  8
0
 10
13.868
 11
37.605
 20
177.38
 21
177.38
  0
LINE
  8
0
 10
37.605
 11
37.605
 20
177.38
 21
176.38
  0
LINE
  8
0
 10
37.605
 11
26.07
 20
176.38
 21
176.38
  0
LINE
  8
0
 10
26.07
 11
26.07
 20
176.38
 21
175.88
  0
LINE
  8
0
 10
26.07
 11
37.605
 20
175.88
 21
175.88
  0
LINE
  8
0
 10
37.605
 11
37.605
 20
175.88
 21
174.88
  0
LINE
  8
0
 10
37.605
 11
13.868
 20
174.88
 21
174.88
  0
LINE
  8
0
 10
13.868
 11
13.868
 20
174.88
 21
174.38
  0
LINE
  8
0
 10
13.868
 11
37.605
 20
174.38
 21
174.38
  0
LINE
  8
0
 10
37.605
 11
37.605
 20
174.38
 21
173.38
  0
LINE
  8
0
 10
37.605
 11
26.07
 20
173.38
 21
173.38
  0
LINE
  8
0
 10
26.07
 11
26.07
 20
173.38
 21
172.88
  0
LINE
  8
0
 10
26.07
 11
37.605
 20
172.88
 21
172.88
  0
LINE
  8
0
 10
37.605
 11
37.605
 20
172.88
 21
171.88
  0
LINE
  8
0
 10
37.605
 11
13.868
 20
171.88
 21
171.88
  0
LINE
  8
0
 10
13.868
 11
13.868
 20
171.88
 21
171.38
  0
LINE
  8
0
 10
13.868
 11
37.605
 20
171.38
 21
171.38
  0
LINE
  8
0
 10
37.605
 11
37.605
 20
171.38
 21
170.38
  0
LINE
  8
0
 10
37.605
 11
26.07
 20
170.38
 21
170.38
  0
LINE
  8
0
 10
26.07
 11
26.07
 20
170.38
 21
169.88
  0
LINE
  8
0
 10
26.07
 11
37.605
 20
169.88
 21
169.88
  0
LINE
  8
0
 10
37.605
 11
37.605
 20
169.88
 21
168.88
  0
LINE
  8
0
 10
37.605
 11
13.868
 20
168.88
 21
168.88
  0
LINE
  8
0
 10
13.868
 11
13.868
 20
168.88
 21
168.38
  0
LINE
  8
0
 10
13.868
 11
37.605
 20
168.38
 21
168.38
  0
LINE
  8
0
 10
37.605
 11
37.605
 20
168.38
 21
167.38
  0
LINE
  8
0
 10
37.605
 11
26.07
 20
167.38
 21
167.38
  0
LINE
  8
0
 10
26.07
 11
26.07
 20
167.38
 21
166.88
  0
LINE
  8
0
 10
26.07
 11
37.605
 20
166.88
 21
166.88
  0
LINE
  8
0
 10
37.605
 11
37.605
 20
166.88
 21
165.88
  0
LINE
  8
0
 10
37.605
 11
13.868
 20
165.88
 21
165.88
  0
LINE
  8
0
 10
13.868
 11
13.868
 20
165.88
 21
165.38
  0
LINE
  8
0
 10
13.868
 11
37.605
 20
165.38
 21
165.38
  0
LINE
  8
0
 10
37.605
 11
37.605
 20
165.38
 21
164.38
  0
LINE
  8
0
 10
37.605
 11
26.07
 20
164.38
 21
164.38
  0
LINE
  8
0
 10
26.07
 11
26.07
 20
164.38
 21
163.88
  0
LINE
  8
0
 10
26.07
 11
37.605
 20
163.88
 21
163.88
  0
LINE
  8
0
 10
37.605
 11
37.605
 20
163.88
 21
162.88
  0
LINE
  8
0
 10
37.605
 11
13.868
 20
162.88
 21
162.88
  0
LINE
  8
0
 10
13.868
 11
13.868
 20
162.88
 21
162.38
  0
LINE
  8
0
 10
13.868
 11
37.605
 20
162.38
 21
162.38
  0
LINE
  8
0
 10
37.605
 11
37.605
 20
162.38
 21
160.098
  0
LINE
  8
0
 10
37.605
 11
34.605
 20
160.098
 21
160.098
  0
LINE
  8
0
 10
34.605
 11
34.605
 20
160.098
 21
155.308
  0
LINE
  8
0
 10
34.605
 11
37.605
 20
155.308
 21
155.308
  0
LINE
  8
0
 10
37.605
 11
37.605
 20
155.308
 21
150.525
  0
LINE
  8
0
 10
37.605
 11
32.395
 20
150.525
 21
150.525
  0
LINE
  8
0
 10
32.395
 11
32.395
 20
150.525
 21
153.525
  0
LINE
  8
0
 10
32.395
 11
27.605
 20
153.525
 21
153.525
  0
LINE
  8
0
 10
27.605
 11
27.605
 20
153.525
 21
150.525
  0
LINE
  8
0
 10
27.605
 11
22.395
 20
150.525
 21
150.525
  0
LINE
  8
0
 10
22.395
 11
22.395
 20
150.525
 21
153.525
  0
LINE
  8
0
 10
22.395
 11
17.605
 20
153.525
 21
153.525
  0
LINE
  8
0
 10
17.605
 11
17.605
 20
153.525
 21
150.525
  0
LINE
  8
0
 10
17.605
 11
12.395
 20
150.525
 21
150.525
  0
LINE
  8
0
 10
12.395
 11
12.395
 20
150.525
 21
153.525
  0
LINE
  8
0
 10
12.395
 11
7.605
 20
153.525
 21
153.525
  0
LINE
  8
0
 10
7.605
 11
7.605
 20
153.525
 21
150.525
  0
LINE
  8
0
 10
7.605
 11
2.395
 20
150.525
 21
150.525
  0
LINE
  8
0
 10
2.395
 11
2.395
 20
150.525
 21
153.525
  0
LINE
  8
0
 10
2.395
 11
-2.395
 20
153.525
 21
153.525
  0
LINE
  8
0
 10
-2.395
 11
-2.395
 20
153.525
 21
150.525
  0
LINE
  8
0
 10
-2.395
 11
-7.605
 20
150.525
 21
150.525
  0
LINE
  8
0
 10
-7.605
 11
-7.605
 20
150.525
 21
153.525
  0
LINE
  8
0
 10
-7.605
 11
-12.395
 20
153.525
 21
153.525
  0
LINE
  8
0
 10
-12.395
 11
-12.395
 20
153.525
 21
150.525
  0
LINE
  8
0
 10
-12.395
 11
-17.605
 20
150.525
 21
150.525
  0
LINE
  8
0
 10
-17.605
 11
-17.605
 20
150.525
 21
153.525
  0
LINE
  8
0
 10
-17.605
 11
-22.395
 20
153.525
 21
153.525
  0
LINE
  8
0
 10
-22.395
 11
-22.395
 20
153.525
 21
150.525
  0
LINE
  8
0
 10
-22.395
 11
-27.605
 20
150.525
 21
150.525
  0
LINE
  8
0
 10
-27.605
 11
-27.605
 20
150.525
 21
153.525
  0
LINE
  8
0
 10
-27.605
 11
-32.395
 20
153.525
 21
153.525
  0
LINE
  8
0
 10
-32.395
 11
-32.395
 20
153.525
 21
150.525
  0
LINE
  8
0
 10
-32.395
 11
-37.605
 20
150.525
 21
150.525
  0
LINE
  8
0
 10
-24.07
 11
-24.07
 20
-10.75
 21
-10.25
  0
LINE
  8
0
 10
-24.07
 11
-1
 20
-10.25
 21
-10.25
  0
LINE
  8
0
 10
-1
 11
-1
 20
-10.25
 21
-10.75
  0
LINE
  8
0
 10
-1
 11
-24.07
 20
-10.75
 21
-10.75
  0
LINE
  8
0
 10
-24.07
 11
-24.07
 20
-7.75
 21
-7.25
  0
LINE
  8
0
 10
-24.07
 11
-1
 20
-7.25
 21
-7.25
  0
LINE
  8
0
 10
-1
 11
-1
 20
-7.25
 21
-7.75
  0
LINE
  8
0
 10
-1
 11
-24.07
 20
-7.75
 21
-7.75
  0
LINE
  8
0
 10
-24.07
 11
-24.07
 20
-4.75
 21
-4.25
  0
LINE
  8
0
 10
-24.07
 11
-1
 20
-4.25
 21
-4.25
  0
LINE
  8
0
 10
-1
 11
-1
 20
-4.25
 21
-4.75
  0
LINE
  8
0
 10
-1
 11
-24.07
 20
-4.75
 21
-4.75
  0
LINE
  8
0
 10
-24.07
 11
-24.07
 20
-1.75
 21
-1.25
  0
LINE
  8
0
 10
-24.07
 11
-1
 20
-1.25
 21
-1.25
  0
LINE
  8
0
 10
-1
 11
-1
 20
-1.25
 21
-1.75
  0
LINE
  8
0
 10
-1
 11
-24.07
 20
-1.75
 21
-1.75
  0
LINE
  8
0
 10
-24.07
 11
-24.07
 20
1.25
 21
1.75
  0
LINE
  8
0
 10
-24.07
 11
-1
 20
1.75
 21
1.75
  0
LINE
  8
0
 10
-1
 11
-1
 20
1.75
 21
1.25
  0
LINE
  8
0
 10
-1
 11
-24.07
 20
1.25
 21
1.25
  0
LINE
  8
0
 10
-24.07
 11
-24.07
 20
4.25
 21
4.75
  0
LINE
  8
0
 10
-24.07
 11
-1
 20
4.75
 21
4.75
  0
LINE
  8
0
 10
-1
 11
-1
 20
4.75
 21
4.25
  0
LINE
  8
0
 10
-1
 11
-24.07
 20
4.25
 21
4.25
  0
LINE
  8
0
 10
-24.07
 11
-24.07
 20
7.25
 21
7.75
  0
LINE
  8
0
 10
-24.07
 11
-1
 20
7.75
 21
7.75
  0
LINE
  8
0
 10
-1
 11
-1
 20
7.75
 21
7.25
  0
LINE
  8
0
 10
-1
 11
-24.07
 20
7.25
 21
7.25
  0
LINE
  8
0
 10
-24.07
 11
-24.07
 20
10.25
 21
10.75
  0
LINE
  8
0
 10
-24.07
 11
-1
 20
10.75
 21
10.75
  0
LINE
  8
0
 10
-1
 11
-1
 20
10.75
 21
10.25
  0
LINE
  8
0
 10
-1
 11
-24.07
 20
10.25
 21
10.25
  0
LINE
  8
0
 10
-24.07
 11
-24.07
 20
47.46
 21
47.96
  0
LINE
  8
0
 10
-24.07
 11
-1
 20
47.96
 21
47.96
  0
LINE
  8
0
 10
-1
 11
-1
 20
47.96
 21
47.46
  0
LINE
  8
0
 10
-1
 11
-24.07
 20
47.46
 21
47.46
  0
LINE
  8
0
 10
-24.07
 11
-24.07
 20
50.46
 21
50.96
  0
LINE
  8
0
 10
-24.07
 11
-1
 20
50.96
 21
50.96
  0
LINE
  8
0
 10
-1
 11
-1
 20
50.96
 21
50.46
  0
LINE
  8
0
 10
-1
 11
-24.07
 20
50.46
 21
50.46
  0
LINE
  8
0
 10
-24.07
 11
-24.07
 20
53.46
 21
53.96
  0
LINE
  8
0
 10
-24.07
 11
-1
 20
53.96
 21
53.96
  0
LINE
  8
0
 10
-1
 11
-1
 20
53.96
 21
53.46
  0
LINE
  8
0
 10
-1
 11
-24.07
 20
53.46
 21
53.46
  0
LINE
  8
0
 10
-24.07
 11
-24.07
 20
56.46
 21
56.96
  0
LINE
  8
0
 10
-24.07
 11
-1
 20
56.96
 21
56.96
  0
LINE
  8
0
 10
-1
 11
-1
 20
56.96
 21
56.46
  0
LINE
  8
0
 10
-1
 11
-24.07
 20
56.46
 21
56.46
  0
LINE
  8
0
 10
-24.07
 11
-24.07
 20
59.46
 21
59.96
  0
LINE
  8
0
 10
-24.07
 11
-1
 20
59.96
 21
59.96
  0
LINE
  8
0
 10
-1
 11
-1
 20
59.96
 21
59.46
  0
LINE
  8
0
 10
-1
 11
-24.07
 20
59.46
 21
59.46
  0
LINE
  8
0
 10
-24.07
 11
-24.07
 20
62.46
 21
62.96
  0
LINE
  8
0
 10
-24.07
 11
-1
 20
62.96
 21
62.96
  0
LINE
  8
0
 10
-1
 11
-1
 20
62.96
 21
62.46
  0
LINE
  8
0
 10
-1
 11
-24.07
 20
62.46
 21
62.46
  0
LINE
  8
0
 10
-24.07
 11
-24.07
 20
65.46
 21
65.96
  0
LINE
  8
0
 10
-24.07
 11
-1
 20
65.96
 21
65.96
  0
LINE
  8
0
 10
-1
 11
-1
 20
65.96
 21
65.46
  0
LINE
  8
0
 10
-1
 11
-24.07
 20
65.46
 21
65.46
  0
LINE
  8
0
 10
-24.07
 11
-24.07
 20
68.46
 21
68.96
  0
LINE
  8
0
 10
-24.07
 11
-1
 20
68.96
 21
68.96
  0
LINE
  8
0
 10
-1
 11
-1
 20
68.96
 21
68.46
  0
LINE
  8
0
 10
-1
 11
-24.07
 20
68.46
 21
68.46
  0
LINE
  8
0
 10
-24.07
 11
-24.07
 20
105.67
 21
106.17
  0
LINE
  8
0
 10
-24.07
 11
-1
 20
106.17
 21
106.17
  0
LINE
  8
0
 10
-1
 11
-1
 20
106.17
 21
105.67
  0
LINE
  8
0
 10
-1
 11
-24.07
 20
105.67
 21
105.67
  0
LINE
  8
0
 10
-24.07
 11
-24.07
 20
108.67
 21
109.17
  0
LINE
  8
0
 10
-24.07
 11
-1
 20
109.17
 21
109.17
  0
LINE
  8
0
 10
-1
 11
-1
 20
109.17
 21
108.67
  0
LINE
  8
0
 10
-1
 11
-24.07
 20
108.67
 21
108.67
  0
LINE
  8
0
 10
-24.07
 11
-24.07
 20
111.67
 21
112.17
  0
LINE
  8
0
 10
-24.07
 11
-1
 20
112.17
 21
112.17
  0
LINE
  8
0
 10
-1
 11
-1
 20
112.17
 21
111.67
  0
LINE
  8
0
 10
-1
 11
-24.07
 20
111.67
 21
111.67
  0
LINE
  8
0
 10
-24.07
 11
-24.07
 20
114.67
 21
115.17
  0
LINE
  8
0
 10
-24.07
 11
-1
 20
115.17
 21
115.17
  0
LINE
  8
0
 10
-1
 11
-1
 20
115.17
 21
114.67
  0
LINE
  8
0
 10
-1
 11
-24.07
 20
114.67
 21
114.67
  0
LINE
  8
0
 10
-24.07
 11
-24.07
 20
117.67
 21
118.17
  0
LINE
  8
0
 10
-24.07
 11
-1
 20
118.17
 21
118.17
  0
LINE
  8
0
 10
-1
 11
-1
 20
118.17
 21
117.67
  0
LINE
  8
0
 10
-1
 11
-24.07
 20
117.67
 21
117.67
  0
LINE
  8
0
 10
-24.07
 11
-24.07
 20
120.67
 21
121.17
  0
LINE
  8
0
 10
-24.07
 11
-1
 20
121.17
 21
121.17
  0
LINE
  8
0
 10
-1
 11
-1
 20
121.17
 21
120.67
  0
LINE
  8
0
 10
-1
 11
-24.07
 20
120.67
 21
120.67
  0
LINE
  8
0
 10
-24.07
 11
-24.07
 20
123.67
 21
124.17
  0
LINE
  8
0
 10
-24.07
 11
-1
 20
124.17
 21
124.17
  0
LINE
  8
0
 10
-1
 11
-1
 20
124.17
 21
123.67
  0
LINE
  8
0
 10
-1
 11
-24.07
 20
123.67
 21
123.67
  0
LINE
  8
0
 10
-24.07
 11
-24.07
 20
126.67
 21
127.17
  0
LINE
  8
0
 10
-24.07
 11
-1
 20
127.17
 21
127.17
  0
LINE
  8
0
 10
-1
 11
-1
 20
127.17
 21
126.67
  0
LINE
  8
0
 10
-1
 11
-24.07
 20
126.67
 21
126.67
  0
LINE
  8
0
 10
-24.07
 11
-24.07
 20
163.88
 21
164.38
  0
LINE
  8
0
 10
-24.07
 11
-1
 20
164.38
 21
164.38
  0
LINE
  8
0
 10
-1
 11
-1
 20
164.38
 21
163.88
  0
LINE
  8
0
 10
-1
 11
-24.07
 20
163.88
 21
163.88
  0
LINE
  8
0
 10
-24.07
 11
-24.07
 20
166.88
 21
167.38
  0
LINE
  8
0
 10
-24.07
 11
-1
 20
167.38
 21
167.38
  0
LINE
  8
0
 10
-1
 11
-1
 20
167.38
 21
166.88
  0
LINE
  8
0
 10
-1
 11
-24.07
 20
166.88
 21
166.88
  0
LINE
  8
0
 10
-24.07
 11
-24.07
 20
169.88
 21
170.38
  0
LINE
  8
0
 10
-24.07
 11
-1
 20
170.38
 21
170.38
  0
LINE
  8
0
 10
-1
 11
-1
 20
170.38
 21
169.88
  0
LINE
  8
0
 10
-1
 11
-24.07
 20
169.88
 21
169.88
  0
LINE
  8
0
 10
-24.07
 11
-24.07
 20
172.88
 21
173.38
  0
LINE
  8
0
 10
-24.07
 11
-1
 20
173.38
 21
173.38
  0
LINE
  8
0
 10
-1
 11
-1
 20
173.38
 21
172.88
  0
LINE
  8
0
 10
-1
 11
-24.07
 20
172.88
 21
172.88
  0
LINE
  8
0
 10
-24.07
 11
-24.07
 20
175.88
 21
176.38
  0
LINE
  8
0
 10
-24.07
 11
-1
 20
176.38
 21
176.38
  0
LINE
  8
0
 10
-1
 11
-1
 20
176.38
 21
175.88
  0
LINE
  8
0
 10
-1
 11
-24.07
 20
175.88
 21
175.88
  0
LINE
  8
0
 10
-24.07
 11
-24.07
 20
178.88
 21
179.38
  0
LINE
  8
0
 10
-24.07
 11
-1
 20
179.38
 21
179.38
  0
LINE
  8
0
 10
-1
 11
-1
 20
179.38
 21
178.88
  0
LINE
  8
0
 10
-1
 11
-24.07
 20
178.88
 21
178.88
  0
LINE
  8
0
 10
-24.07
 11
-24.07
 20
181.88
 21
182.38
  0
LINE
  8
0
 10
-24.07
 11
-1
 20
182.38
 21
182.38
  0
LINE
  8
0
 10
-1
 11
-1
 20
182.38
 21
181.88
  0
LINE
  8
0
 10
-1
 11
-24.07
 20
181.88
 21
181.88
  0
LINE
  8
0
 10
-24.07
 11
-24.07
 20
184.88
 21
185.38
  0
LINE
  8
0
 10
-24.07
 11
-1
 20
185.38
 21
185.38
  0
LINE
  8
0
 10
-1
 11
-1
 20
185.38
 21
184.88
  0
LINE
  8
0
 10
-1
 11
-24.07
 20
184.88
 21
184.88
  0
LINE
  8
0
 10
-11.868
 11
-11.868
 20
-12.25
 21
-11.75
  0
LINE
  8
0
 10
-11.868
 11
11.869
 20
-11.75
 21
-11.75
  0
LINE
  8
0
 10
11.869
 11
11.869
 20
-11.75
 21
-12.25
  0
LINE
  8
0
 10
11.869
 11
-11.868
 20
-12.25
 21
-12.25
  0
LINE
  8
0
 10
-11.868
 11
-11.868
 20
-9.25
 21
-8.75
  0
LINE
  8
0
 10
-11.868
 11
11.869
 20
-8.75
 21
-8.75
  0
LINE
  8
0
 10
11.869
 11
11.869
 20
-8.75
 21
-9.25
  0
LINE
  8
0
 10
11.869
 11
-11.868
 20
-9.25
 21
-9.25
  0
LINE
  8
0
 10
-11.868
 11
-11.868
 20
-6.25
 21
-5.75
  0
LINE
  8
0
 10
-11.868
 11
11.869
 20
-5.75
 21
-5.75
  0
LINE
  8
0
 10
11.869
 11
11.869
 20
-5.75
 21
-6.25
  0
LINE
  8
0
 10
11.869
 11
-11.868
 20
-6.25
 21
-6.25
  0
LINE
  8
0
 10
-11.868
 11
-11.868
 20
-3.25
 21
-2.75
  0
LINE
  8
0
 10
-11.868
 11
11.869
 20
-2.75
 21
-2.75
  0
LINE
  8
0
 10
11.869
 11
11.869
 20
-2.75
 21
-3.25
  0
LINE
  8
0
 10
11.869
 11
-11.868
 20
-3.25
 21
-3.25
  0
LINE
  8
0
 10
-11.868
 11
-11.868
 20
-0.25
 21
0.25
  0
LINE
  8
0
 10
-11.868
 11
11.869
 20
0.25
 21
0.25
  0
LINE
  8
0
 10
11.869
 11
11.869
 20
0.25
 21
-0.25
  0
LINE
  8
0
 10
11.869
 11
-11.868
 20
-0.25
 21
-0.25
  0
LINE
  8
0
 10
-11.868
 11
-11.868
 20
2.75
 21
3.25
  0
LINE
  8
0
 10
-11.868
 11
11.869
 20
3.25
 21
3.25
  0
LINE
  8
0
 10
11.869
 11
11.869
 20
3.25
 21
2.75
  0
LINE
  8
0
 10
11.869
 11
-11.868
 20
2.75
 21
2.75
  0
LINE
  8
0
 10
-11.868
 11
-11.868
 20
5.75
 21
6.25
  0
LINE
  8
0
 10
-11.868
 11
11.869
 20
6.25
 21
6.25
  0
LINE
  8
0
 10
11.869
 11
11.869
 20
6.25
 21
5.75
  0
LINE
  8
0
 10
11.869
 11
-11.868
 20
5.75
 21
5.75
  0
LINE
  8
0
 10
-11.868
 11
-11.868
 20
8.75
 21
9.25
  0
LINE
  8
0
 10
-11.868
 11
11.869
 20
9.25
 21
9.25
  0
LINE
  8
0
 10
11.869
 11
11.869
 20
9.25
 21
8.75
  0
LINE
  8
0
 10
11.869
 11
-11.868
 20
8.75
 21
8.75
  0
LINE
  8
0
 10
-11.868
 11
-11.868
 20
11.75
 21
12.25
  0
LINE
  8
0
 10
-11.868
 11
11.869
 20
12.25
 21
12.25
  0
LINE
  8
0
 10
11.869
 11
11.869
 20
12.25
 21
11.75
  0
LINE
  8
0
 10
11.869
 11
-11.868
 20
11.75
 21
11.75
  0
LINE
  8
0
 10
-11.868
 11
-11.868
 20
45.96
 21
46.46
  0
LINE
  8
0
 10
-11.868
 11
11.869
 20
46.46
 21
46.46
  0
LINE
  8
0
 10
11.869
 11
11.869
 20
46.46
 21
45.96
  0
LINE
  8
0
 10
11.869
 11
-11.868
 20
45.96
 21
45.96
  0
LINE
  8
0
 10
-11.868
 11
-11.868
 20
48.96
 21
49.46
  0
LINE
  8
0
 10
-11.868
 11
11.869
 20
49.46
 21
49.46
  0
LINE
  8
0
 10
11.869
 11
11.869
 20
49.46
 21
48.96
  0
LINE
  8
0
 10
11.869
 11
-11.868
 20
48.96
 21
48.96
  0
LINE
  8
0
 10
-11.868
 11
-11.868
 20
51.96
 21
52.46
  0
LINE
  8
0
 10
-11.868
 11
11.869
 20
52.46
 21
52.46
  0
LINE
  8
0
 10
11.869
 11
11.869
 20
52.46
 21
51.96
  0
LINE
  8
0
 10
11.869
 11
-11.868
 20
51.96
 21
51.96
  0
LINE
  8
0
 10
-11.868
 11
-11.868
 20
54.96
 21
55.46
  0
LINE
  8
0
 10
-11.868
 11
11.869
 20
55.46
 21
55.46
  0
LINE
  8
0
 10
11.869
 11
11.869
 20
55.46
 21
54.96
  0
LINE
  8
0
 10
11.869
 11
-11.868
 20
54.96
 21
54.96
  0
LINE
  8
0
 10
-11.868
 11
-11.868
 20
57.96
 21
58.46
  0
LINE
  8
0
 10
-11.868
 11
11.869
 20
58.46
 21
58.46
  0
LINE
  8
0
 10
11.869
 11
11.869
 20
58.46
 21
57.96
  0
LINE
  8
0
 10
11.869
 11
-11.868
 20
57.96
 21
57.96
  0
LINE
  8
0
 10
-11.868
 11
-11.868
 20
60.96
 21
61.46
  0
LINE
  8
0
 10
-11.868
 11
11.869
 20
61.46
 21
61.46
  0
LINE
  8
0
 10
11.869
 11
11.869
 20
61.46
 21
60.96
  0
LINE
  8
0
 10
11.869
 11
-11.868
 20
60.96
 21
60.96
  0
LINE
  8
0
 10
-11.868
 11
-11.868
 20
63.96
 21
64.46
  0
LINE
  8
0
 10
-11.868
 11
11.869
 20
64.46
 21
64.46
  0
LINE
  8
0
 10
11.869
 11
11.869
 20
64.46
 21
63.96
  0
LINE
  8
0
 10
11.869
 11
-11.868
 20
63.96
 21
63.96
  0
LINE
  8
0
 10
-11.868
 11
-11.868
 20
66.96
 21
67.46
  0
LINE
  8
0
 10
-11.868
 11
11.869
 20
67.46
 21
67.46
  0
LINE
  8
0
 10
11.869
 11
11.869
 20
67.46
 21
66.96
  0
LINE
  8
0
 10
11.869
 11
-11.868
 20
66.96
 21
66.96
  0
LINE
  8
0
 10
-11.868
 11
-11.868
 20
69.96
 21
70.46
  0
LINE
  8
0
 10
-11.868
 11
11.869
 20
70.46
 21
70.46
  0
LINE
  8
0
 10
11.869
 11
11.869
 20
70.46
 21
69.96
  0
LINE
  8
0
 10
11.869
 11
-11.868
 20
69.96
 21
69.96
  0
LINE
  8
0
 10
-11.868
 11
-11.868
 20
104.17
 21
104.67
  0
LINE
  8
0
 10
-11.868
 11
11.869
 20
104.67
 21
104.67
  0
LINE
  8
0
 10
11.869
 11
11.869
 20
104.67
 21
104.17
  0
LINE
  8
0
 10
11.869
 11
-11.868
 20
104.17
 21
104.17
  0
LINE
  8
0
 10
-11.868
 11
-11.868
 20
107.17
 21
107.67
  0
LINE
  8
0
 10
-11.868
 11
11.869
 20
107.67
 21
107.67
  0
LINE
  8
0
 10
11.869
 11
11.869
 20
107.67
 21
107.17
  0
LINE
  8
0
 10
11.869
 11
-11.868
 20
107.17
 21
107.17
  0
LINE
  8
0
 10
-11.868
 11
-11.868
 20
110.17
 21
110.67
  0
LINE
  8
0
 10
-11.868
 11
11.869
 20
110.67
 21
110.67
  0
LINE
  8
0
 10
11.869
 11
11.869
 20
110.67
 21
110.17
  0
LINE
  8
0
 10
11.869
 11
-11.868
 20
110.17
 21
110.17
  0
LINE
  8
0
 10
-11.868
 11
-11.868
 20
113.17
 21
113.67
  0
LINE
  8
0
 10
-11.868
 11
11.869
 20
113.67
 21
113.67
  0
LINE
  8
0
 10
11.869
 11
11.869
 20
113.67
 21
113.17
  0
LINE
  8
0
 10
11.869
 11
-11.868
 20
113.17
 21
113.17
  0
LINE
  8
0
 10
-11.868
 11
-11.868
 20
116.17
 21
116.67
  0
LINE
  8
0
 10
-11.868
 11
11.869
 20
116.67
 21
116.67
  0
LINE
  8
0
 10
11.869
 11
11.869
 20
116.67
 21
116.17
  0
LINE
  8
0
 10
11.869
 11
-11.868
 20
116.17
 21
116.17
  0
LINE
  8
0
 10
-11.868
 11
-11.868
 20
119.17
 21
119.67
  0
LINE
  8
0
 10
-11.868
 11
11.869
 20
119.67
 21
119.67
  0
LINE
  8
0
 10
11.869
 11
11.869
 20
119.67
 21
119.17
  0
LINE
  8
0
 10
11.869
 11
-11.868
 20
119.17
 21
119.17
  0
LINE
  8
0
 10
-11.868
 11
-11.868
 20
122.17
 21
122.67
  0
LINE
  8
0
 10
-11.868
 11
11.869
 20
122.67
 21
122.67
  0
LINE
  8
0
 10
11.869
 11
11.869
 20
122.67
 21
122.17
  0
LINE
  8
0
 10
11.869
 11
-11.868
 20
122.17
 21
122.17
  0
LINE
  8
0
 10
-11.868
 11
-11.868
 20
125.17
 21
125.67
  0
LINE
  8
0
 10
-11.868
 11
11.869
 20
125.67
 21
125.67
  0
LINE
  8
0
 10
11.869
 11
11.869
 20
125.67
 21
125.17
  0
LINE
  8
0
 10
11.869
 11
-11.868
 20
125.17
 21
125.17
  0
LINE
  8
0
 10
-11.868
 11
-11.868
 20
128.17
 21
128.67
  0
LINE
  8
0
 10
-11.868
 11
11.869
 20
128.67
 21
128.67
  0
LINE
  8
0
 10
11.869
 11
11.869
 20
128.67
 21
128.17
  0
LINE
  8
0
 10
11.869
 11
-11.868
 20
128.17
 21
128.17
  0
LINE
  8
0
 10
-11.868
 11
-11.868
 20
162.38
 21
162.88
  0
LINE
  8
0
 10
-11.868
 11
11.869
 20
162.88
 21
162.88
  0
LINE
  8
0
 10
11.869
 11
11.869
 20
162.88
 21
162.38
  0
LINE
  8
0
 10
11.869
 11
-11.868
 20
162.38
 21
162.38
  0
LINE
  8
0
 10
-11.868
 11
-11.868
 20
165.38
 21
165.88
  0
LINE
  8
0
 10
-11.868
 11
11.869
 20
165.88
 21
165.88
  0
LINE
  8
0
 10
11.869
 11
11.869
 20
165.88
 21
165.38
  0
LINE
  8
0
 10
11.869
 11
-11.868
 20
165.38
 21
165.38
  0
LINE
  8
0
 10
-11.868
 11
-11.868
 20
168.38
 21
168.88
  0
LINE
  8
0
 10
-11.868
 11
11.869
 20
168.88
 21
168.88
  0
LINE
  8
0
 10
11.869
 11
11.869
 20
168.88
 21
168.38
  0
LINE
  8
0
 10
11.869
 11
-11.868
 20
168.38
 21
168.38
  0
LINE
  8
0
 10
-11.868
 11
-11.868
 20
171.38
 21
171.88
  0
LINE
  8
0
 10
-11.868
 11
11.869
 20
171.88
 21
171.88
  0
LINE
  8
0
 10
11.869
 11
11.869
 20
171.88
 21
171.38
  0
LINE
  8
0
 10
11.869
 11
-11.868
 20
171.38
 21
171.38
  0
LINE
  8
0
 10
-11.868
 11
-11.868
 20
174.38
 21
174.88
  0
LINE
  8
0
 10
-11.868
 11
11.869
 20
174.88
 21
174.88
  0
LINE
  8
0
 10
11.869
 11
11.869
 20
174.88
 21
174.38
  0
LINE
  8
0
 10
11.869
 11
-11.868
 20
174.38
 21
174.38
  0
LINE
  8
0
 10
-11.868
 11
-11.868
 20
177.38
 21
177.88
  0
LINE
  8
0
 10
-11.868
 11
11.869
 20
177.88
 21
177.88
  0
LINE
  8
0
 10
11.869
 11
11.869
 20
177.88
 21
177.38
  0
LINE
  8
0
 10
11.869
 11
-11.868
 20
177.38
 21
177.38
  0
LINE
  8
0
 10
-11.868
 11
-11.868
 20
180.38
 21
180.88
  0
LINE
  8
0
 10
-11.868
 11
11.869
 20
180.88
 21
180.88
  0
LINE
  8
0
 10
11.869
 11
11.869
 20
180.88
 21
180.38
  0
LINE
  8
0
 10
11.869
 11
-11.868
 20
180.38
 21
180.38
  0
LINE
  8
0
 10
-11.868
 11
-11.868
 20
183.38
 21
183.88
  0
LINE
  8
0
 10
-11.868
 11
11.869
 20
183.88
 21
183.88
  0
LINE
  8
0
 10
11.869
 11
11.869
 20
183.88
 21
183.38
  0
LINE
  8
0
 10
11.869
 11
-11.868
 20
183.38
 21
183.38
  0
LINE
  8
0
 10
-11.868
 11
-11.868
 20
186.38
 21
186.88
  0
LINE
  8
0
 10
-11.868
 11
11.869
 20
186.88
 21
186.88
  0
LINE
  8
0
 10
11.869
 11
11.869
 20
186.88
 21
186.38
  0
LINE
  8
0
 10
11.869
 11
-11.868
 20
186.38
 21
186.38
  0
LINE
  8
0
 10
1
 11
1
 20
-10.75
 21
-10.25
  0
LINE
  8
0
 10
1
 11
24.07
 20
-10.25
 21
-10.25
  0
LINE
  8
0
 10
24.07
 11
24.07
 20
-10.25
 21
-10.75
  0
LINE
  8
0
 10
24.07
 11
1
 20
-10.75
 21
-10.75
  0
LINE
  8
0
 10
1
 11
1
 20
-7.75
 21
-7.25
  0
LINE
  8
0
 10
1
 11
24.07
 20
-7.25
 21
-7.25
  0
LINE
  8
0
 10
24.07
 11
24.07
 20
-7.25
 21
-7.75
  0
LINE
  8
0
 10
24.07
 11
1
 20
-7.75
 21
-7.75
  0
LINE
  8
0
 10
1
 11
1
 20
-4.75
 21
-4.25
  0
LINE
  8
0
 10
1
 11
24.07
 20
-4.25
 21
-4.25
  0
LINE
  8
0
 10
24.07
 11
24.07
 20
-4.25
 21
-4.75
  0
LINE
  8
0
 10
24.07
 11
1
 20
-4.75
 21
-4.75
  0
LINE
  8
0
 10
1
 11
1
 20
-1.75
 21
-1.25
  0
LINE
  8
0
 10
1
 11
24.07
 20
-1.25
 21
-1.25
  0
LINE
  8
0
 10
24.07
 11
24.07
 20
-1.25
 21
-1.75
  0
LINE
  8
0
 10
24.07
 11
1
 20
-1.75
 21
-1.75
  0
LINE
  8
0
 10
1
 11
1
 20
1.25
 21
1.75
  0
LINE
  8
0
 10
1
 11
24.07
 20
1.75
 21
1.75
  0
LINE
  8
0
 10
24.07
 11
24.07
 20
1.75
 21
1.25
  0
LINE
  8
0
 10
24.07
 11
1
 20
1.25
 21
1.25
  0
LINE
  8
0
 10
1
 11
1
 20
4.25
 21
4.75
  0
LINE
  8
0
 10
1
 11
24.07
 20
4.75
 21
4.75
  0
LINE
  8
0
 10
24.07
 11
24.07
 20
4.75
 21
4.25
  0
LINE
  8
0
 10
24.07
 11
1
 20
4.25
 21
4.25
  0
LINE
  8
0
 10
1
 11
1
 20
7.25
 21
7.75
  0
LINE
  8
0
 10
1
 11
24.07
 20
7.75
 21
7.75
  0
LINE
  8
0
 10
24.07
 11
24.07
 20
7.75
 21
7.25
  0
LINE
  8
0
 10
24.07
 11
1
 20
7.25
 21
7.25
  0
LINE
  8
0
 10
1
 11
1
 20
10.25
 21
10.75
  0
LINE
  8
0
 10
1
 11
24.07
 20
10.75
 21
10.75
  0
LINE
  8
0
 10
24.07
 11
24.07
 20
10.75
 21
10.25
  0
LINE
  8
0
 10
24.07
 11
1
 20
10.25
 21
10.25
  0
LINE
  8
0
 10
1
 11
1
 20
47.46
 21
47.96
  0
LINE
  8
0
 10
1
 11
24.07
 20
47.96
 21
47.96
  0
LINE
  8
0
 10
24.07
 11
24.07
 20
47.96
 21
47.46
  0
LINE
  8
0
 10
24.07
 11
1
 20
47.46
 21
47.46
  0
LINE
  8
0
 10
1
 11
1
 20
50.46
 21
50.96
  0
LINE
  8
0
 10
1
 11
24.07
 20
50.96
 21
50.96
  0
LINE
  8
0
 10
24.07
 11
24.07
 20
50.96
 21
50.46
  0
LINE
  8
0
 10
24.07
 11
1
 20
50.46
 21
50.46
  0
LINE
  8
0
 10
1
 11
1
 20
53.46
 21
53.96
  0
LINE
  8
0
 10
1
 11
24.07
 20
53.96
 21
53.96
  0
LINE
  8
0
 10
24.07
 11
24.07
 20
53.96
 21
53.46
  0
LINE
  8
0
 10
24.07
 11
1
 20
53.46
 21
53.46
  0
LINE
  8
0
 10
1
 11
1
 20
56.46
 21
56.96
  0
LINE
  8
0
 10
1
 11
24.07
 20
56.96
 21
56.96
  0
LINE
  8
0
 10
24.07
 11
24.07
 20
56.96
 21
56.46
  0
LINE
  8
0
 10
24.07
 11
1
 20
56.46
 21
56.46
  0
LINE
  8
0
 10
1
 11
1
 20
59.46
 21
59.96
  0
LINE
  8
0
 10
1
 11
24.07
 20
59.96
 21
59.96
  0
LINE
  8
0
 10
24.07
 11
24.07
 20
59.96
 21
59.46
  0
LINE
  8
0
 10
24.07
 11
1
 20
59.46
 21
59.46
  0
LINE
  8
0
 10
1
 11
1
 20
62.46
 21
62.96
  0
LINE
  8
0
 10
1
 11
24.07
 20
62.96
 21
62.96
  0
LINE
  8
0
 10
24.07
 11
24.07
 20
62.96
 21
62.46
  0
LINE
  8
0
 10
24.07
 11
1
 20
62.46
 21
62.46
  0
LINE
  8
0
 10
1
 11
1
 20
65.46
 21
65.96
  0
LINE
  8
0
 10
1
 11
24.07
 20
65.96
 21
65.96
  0
LINE
  8
0
 10
24.07
 11
24.07
 20
65.96
 21
65.46
  0
LINE
  8
0
 10
24.07
 11
1
 20
65.46
 21
65.46
  0
LINE
  8
0
 10
1
 11
1
 20
68.46
 21
68.96
  0
LINE
  8
0
 10
1
 11
24.07
 20
68.96
 21
68.96
  0
LINE
  8
0
 10
24.07
 11
24.07
 20
68.96
 21
68.46
  0
LINE
  8
0
 10
24.07
 11
1
 20
68.46
 21
68.46
  0
LINE
  8
0
 10
1
 11
1
 20
105.67
 21
106.17
  0
LINE
  8
0
 10
1
 11
24.07
 20
106.17
 21
106.17
  0
LINE
  8
0
 10
24.07
 11
24.07
 20
106.17
 21
105.67
  0
LINE
  8
0
 10
24.07
 11
1
 20
105.67
 21
105.67
  0
LINE
  8
0
 10
1
 11
1
 20
108.67
 21
109.17
  0
LINE
  8
0
 10
1
 11
24.07
 20
109.17
 21
109.17
  0
LINE
  8
0
 10
24.07
 11
24.07
 20
109.17
 21
108.67
  0
LINE
  8
0
 10
24.07
 11
1
 20
108.67
 21
108.67
  0
LINE
  8
0
 10
1
 11
1
 20
111.67
 21
112.17
  0
LINE
  8
0
 10
1
 11
24.07
 20
112.17
 21
112.17
  0
LINE
  8
0
 10
24.07
 11
24.07
 20
112.17
 21
111.67
  0
LINE
  8
0
 10
24.07
 11
1
 20
111.67
 21
111.67
  0
LINE
  8
0
 10
1
 11
1
 20
114.67
 21
115.17
  0
LINE
  8
0
 10
1
 11
24.07
 20
115.17
 21
115.17
  0
LINE
  8
0
 10
24.07
 11
24.07
 20
115.17
 21
114.67
  0
LINE
  8
0
 10
24.07
 11
1
 20
114.67
 21
114.67
  0
LINE
  8
0
 10
1
 11
1
 20
117.67
 21
118.17
  0
LINE
  8
0
 10
1
 11
24.07
 20
118.17
 21
118.17
  0
LINE
  8
0
 10
24.07
 11
24.07
 20
118.17
 21
117.67
  0
LINE
  8
0
 10
24.07
 11
1
 20
117.67
 21
117.67
  0
LINE
  8
0
 10
1
 11
1
 20
120.67
 21
121.17
  0
LINE
  8
0
 10
1
 11
24.07
 20
121.17
 21
121.17
  0
LINE
  8
0
 10
24.07
 11
24.07
 20
121.17
 21
120.67
  0
LINE
  8
0
 10
24.07
 11
1
 20
120.67
 21
120.67
  0
LINE
  8
0
 10
1
 11
1
 20
123.67
 21
124.17
  0
LINE
  8
0
 10
1
 11
24.07
 20
124.17
 21
124.17
  0
LINE
  8
0
 10
24.07
 11
24.07
 20
124.17
 21
123.67
  0
LINE
  8
0
 10
24.07
 11
1
 20
123.67
 21
123.67
  0
LINE
  8
0
 10
1
 11
1
 20
126.67
 21
127.17
  0
LINE
  8
0
 10
1
 11
24.07
 20
127.17
 21
127.17
  0
LINE
  8
0
 10
24.07
 11
24.07
 20
127.17
 21
126.67
  0
LINE
  8
0
 10
24.07
 11
1
 20
126.67
 21
126.67
  0
LINE
  8
0
 10
1
 11
1
 20
163.88
 21
164.38
  0
LINE
  8
0
 10
1
 11
24.07
 20
164.38
 21
164.38
  0
LINE
  8
0
 10
24.07
 11
24.07
 20
164.38
 21
163.88
  0
LINE
  8
0
 10
24.07
 11
1
 20
163.88
 21
163.88
  0
LINE
  8
0
 10
1
 11
1
 20
166.88
 21
167.38
  0
LINE
  8
0
 10
1
 11
24.07
 20
167.38
 21
167.38
  0
LINE
  8
0
 10
24.07
 11
24.07
 20
167.38
 21
166.88
  0
LINE
  8
0
 10
24.07
 11
1
 20
166.88
 21
166.88
  0
LINE
  8
0
 10
1
 11
1
 20
169.88
 21
170.38
  0
LINE
  8
0
 10
1
 11
24.07
 20
170.38
 21
170.38
  0
LINE
  8
0
 10
24.07
 11
24.07
 20
170.38
 21
169.88
  0
LINE
  8
0
 10
24.07
 11
1
 20
169.88
 21
169.88
  0
LINE
  8
0
 10
1
 11
1
 20
172.88
 21
173.38
  0
LINE
  8
0
 10
1
 11
24.07
 20
173.38
 21
173.38
  0
LINE
  8
0
 10
24.07
 11
24.07
 20
173.38
 21
172.88
  0
LINE
  8
0
 10
24.07
 11
1
 20
172.88
 21
172.88
  0
LINE
  8
0
 10
1
 11
1
 20
175.88
 21
176.38
  0
LINE
  8
0
 10
1
 11
24.07
 20
176.38
 21
176.38
  0
LINE
  8
0
 10
24.07
 11
24.07
 20
176.38
 21
175.88
  0
LINE
  8
0
 10
24.07
 11
1
 20
175.88
 21
175.88
  0
LINE
  8
0
 10
1
 11
1
 20
178.88
 21
179.38
  0
LINE
  8
0
 10
1
 11
24.07
 20
179.38
 21
179.38
  0
LINE
  8
0
 10
24.07
 11
24.07
 20
179.38
 21
178.88
  0
LINE
  8
0
 10
24.07
 11
1
 20
178.88
 21
178.88
  0
LINE
  8
0
 10
1
 11
1
 20
181.88
 21
182.38
  0
LINE
  8
0
 10
1
 11
24.07
 20
182.38
 21
182.38
  0
LINE
  8
0
 10
24.07
 11
24.07
 20
182.38
 21
181.88
  0
LINE
  8
0
 10
24.07
 11
1
 20
181.88
 21
181.88
  0
LINE
  8
0
 10
1
 11
1
 20
184.88
 21
185.38
  0
LINE
  8
0
 10
1
 11
24.07
 20
185.38
 21
185.38
  0
LINE
  8
0
 10
24.07
 11
24.07
 20
185.38
 21
184.88
  0
LINE
  8
0
 10
24.07
 11
1
 20
184.88
 21
184.88
  0
LINE
  8
0
 10
44.605
 11
44.605
 20
14.323
 21
19.533
  0
LINE
  8
0
 10
44.605
 11
47.605
 20
19.533
 21
19.533
  0
LINE
  8
0
 10
47.605
 11
47.605
 20
19.533
 21
25.677
  0
LINE
  8
0
 10
47.605
 11
44.605
 20
25.677
 21
25.677
  0
LINE
  8
0
 10
44.605
 11
44.605
 20
25.677
 21
30.887
  0
LINE
  8
0
 10
44.605
 11
47.605
 20
30.887
 21
30.887
  0
LINE
  8
0
 10
47.605
 11
47.605
 20
30.887
 21
33.96
  0
LINE
  8
0
 10
47.605
 11
47.627
 20
33.96
 21
33.96
  0
LINE
  8
0
 10
47.627
 11
47.605
 20
33.96
 21
34.17
  0
LINE
  8
0
 10
47.605
 11
47.927
 20
34.17
 21
37.233
  0
LINE
  8
0
 10
47.927
 11
48.879
 20
37.233
 21
40.163
  0
LINE
  8
0
 10
48.879
 11
50.419
 20
40.163
 21
42.83
  0
LINE
  8
0
 10
50.419
 11
52.48
 20
42.83
 21
45.119
  0
LINE
  8
0
 10
52.48
 11
54.972
 20
45.119
 21
46.93
  0
LINE
  8
0
 10
54.972
 11
57.786
 20
46.93
 21
48.183
  0
LINE
  8
0
 10
57.786
 11
60.799
 20
48.183
 21
48.823
  0
LINE
  8
0
 10
60.799
 11
62.549
 20
48.823
 21
48.823
  0
LINE
  8
0
 10
62.549
 11
62.549
 20
48.823
 21
48.904
  0
LINE
  8
0
 10
62.549
 11
65.622
 20
48.904
 21
48.904
  0
LINE
  8
0
 10
65.622
 11
65.622
 20
48.904
 21
51.904
  0
LINE
  8
0
 10
65.622
 11
70.832
 20
51.904
 21
51.904
  0
LINE
  8
0
 10
70.832
 11
70.832
 20
51.904
 21
48.904
  0
LINE
  8
0
 10
70.832
 11
76.976
 20
48.904
 21
48.904
  0
LINE
  8
0
 10
76.976
 11
76.976
 20
48.904
 21
51.904
  0
LINE
  8
0
 10
76.976
 11
82.186
 20
51.904
 21
51.904
  0
LINE
  8
0
 10
82.186
 11
82.186
 20
51.904
 21
48.904
  0
LINE
  8
0
 10
82.186
 11
85.259
 20
48.904
 21
48.904
  0
LINE
  8
0
 10
85.259
 11
85.259
 20
48.904
 21
48.823
  0
LINE
  8
0
 10
85.259
 11
87.009
 20
48.823
 21
48.823
  0
LINE
  8
0
 10
87.009
 11
90.022
 20
48.823
 21
48.183
  0
LINE
  8
0
 10
90.022
 11
92.836
 20
48.183
 21
46.93
  0
LINE
  8
0
 10
92.836
 11
95.328
 20
46.93
 21
45.119
  0
LINE
  8
0
 10
95.328
 11
97.389
 20
45.119
 21
42.83
  0
LINE
  8
0
 10
97.389
 11
98.929
 20
42.83
 21
40.163
  0
LINE
  8
0
 10
98.929
 11
99.881
 20
40.163
 21
37.233
  0
LINE
  8
0
 10
99.881
 11
100.203
 20
37.233
 21
34.17
  0
LINE
  8
0
 10
100.203
 11
100.181
 20
34.17
 21
33.96
  0
LINE
  8
0
 10
100.181
 11
100.203
 20
33.96
 21
33.96
  0
LINE
  8
0
 10
100.203
 11
100.203
 20
33.96
 21
30.887
  0
LINE
  8
0
 10
100.203
 11
103.203
 20
30.887
 21
30.887
  0
LINE
  8
0
 10
103.203
 11
103.203
 20
30.887
 21
25.677
  0
LINE
  8
0
 10
103.203
 11
100.203
 20
25.677
 21
25.677
  0
LINE
  8
0
 10
100.203
 11
100.203
 20
25.677
 21
19.533
  0
LINE
  8
0
 10
100.203
 11
103.203
 20
19.533
 21
19.533
  0
LINE
  8
0
 10
103.203
 11
103.203
 20
19.533
 21
14.323
  0
LINE
  8
0
 10
103.203
 11
100.203
 20
14.323
 21
14.323
  0
LINE
  8
0
 10
100.203
 11
100.203
 20
14.323
 21
11.25
  0
LINE
  8
0
 10
100.203
 11
100.181
 20
11.25
 21
11.25
  0
LINE
  8
0
 10
100.181
 11
100.203
 20
11.25
 21
11.04
  0
LINE
  8
0
 10
100.203
 11
99.881
 20
11.04
 21
7.977
  0
LINE
  8
0
 10
99.881
 11
98.929
 20
7.977
 21
5.047
  0
LINE
  8
0
 10
98.929
 11
97.389
 20
5.047
 21
2.38
  0
LINE
  8
0
 10
97.389
 11
95.328
 20
2.38
 21
0.091
  0
LINE
  8
0
 10
95.328
 11
92.836
 20
0.091
 21
-1.72
  0
LINE
  8
0
 10
92.836
 11
90.022
 20
-1.72
 21
-2.973
  0
LINE
  8
0
 10
90.022
 11
87.009
 20
-2.973
 21
-3.613
  0
LINE
  8
0
 10
87.009
 11
85.259
 20
-3.613
 21
-3.613
  0
LINE
  8
0
 10
85.259
 11
85.259
 20
-3.613
 21
-3.694
  0
LINE
  8
0
 10
85.259
 11
82.186
 20
-3.694
 21
-3.694
  0
LINE
  8
0
 10
82.186
 11
82.186
 20
-3.694
 21
-6.694
  0
LINE
  8
0
 10
82.186
 11
76.976
 20
-6.694
 21
-6.694
  0
LINE
  8
0
 10
76.976
 11
76.976
 20
-6.694
 21
-3.694
  0
LINE
  8
0
 10
76.976
 11
70.832
 20
-3.694
 21
-3.694
  0
LINE
  8
0
 10
70.832
 11
70.832
 20
-3.694
 21
-6.694
  0
LINE
  8
0
 10
70.832
 11
65.622
 20
-6.694
 21
-6.694
  0
LINE
  8
0
 10
65.622
 11
65.622
 20
-6.694
 21
-3.694
  0
LINE
  8
0
 10
65.622
 11
62.549
 20
-3.694
 21
-3.694
  0
LINE
  8
0
 10
62.549
 11
62.549
 20
-3.694
 21
-3.613
  0
LINE
  8
0
 10
62.549
 11
60.799
 20
-3.613
 21
-3.613
  0
LINE
  8
0
 10
60.799
 11
57.786
 20
-3.613
 21
-2.973
  0
LINE
  8
0
 10
57.786
 11
54.972
 20
-2.973
 21
-1.72
  0
LINE
  8
0
 10
54.972
 11
52.48
 20
-1.72
 21
0.091
  0
LINE
  8
0
 10
52.48
 11
50.419
 20
0.091
 21
2.38
  0
LINE
  8
0
 10
50.419
 11
48.879
 20
2.38
 21
5.047
  0
LINE
  8
0
 10
48.879
 11
47.927
 20
5.047
 21
7.977
  0
LINE
  8
0
 10
47.927
 11
47.605
 20
7.977
 21
11.04
  0
LINE
  8
0
 10
47.605
 11
47.627
 20
11.04
 21
11.25
  0
LINE
  8
0
 10
47.627
 11
47.605
 20
11.25
 21
11.25
  0
LINE
  8
0
 10
47.605
 11
47.605
 20
11.25
 21
14.323
  0
LINE
  8
0
 10
47.605
 11
44.605
 20
14.323
 21
14.323
  0
LINE
  8
0
 10
50.605
 11
50.732
 20
11.04
 21
12.25
  0
LINE
  8
0
 10
50.732
 11
50.605
 20
12.25
 21
12.25
  0
LINE
  8
0
 10
50.605
 11
50.605
 20
12.25
 21
32.96
  0
LINE
  8
0
 10
50.605
 11
50.732
 20
32.96
 21
32.96
  0
LINE
  8
0
 10
50.732
 11
50.605
 20
32.96
 21
34.17
  0
LINE
  8
0
 10
50.605
 11
50.862
 20
34.17
 21
36.61
  0
LINE
  8
0
 10
50.862
 11
51.62
 20
36.61
 21
38.943
  0
LINE
  8
0
 10
51.62
 11
52.846
 20
38.943
 21
41.067
  0
LINE
  8
0
 10
52.846
 11
54.488
 20
41.067
 21
42.89
  0
LINE
  8
0
 10
54.488
 11
56.472
 20
42.89
 21
44.332
  0
LINE
  8
0
 10
56.472
 11
58.713
 20
44.332
 21
45.33
  0
LINE
  8
0
 10
58.713
 11
61.112
 20
45.33
 21
45.84
  0
LINE
  8
0
 10
61.112
 11
63.549
 20
45.84
 21
45.84
  0
LINE
  8
0
 10
63.549
 11
63.549
 20
45.84
 21
45.904
  0
LINE
  8
0
 10
63.549
 11
84.259
 20
45.904
 21
45.904
  0
LINE
  8
0
 10
84.259
 11
84.259
 20
45.904
 21
45.84
  0
LINE
  8
0
 10
84.259
 11
86.696
 20
45.84
 21
45.84
  0
LINE
  8
0
 10
86.696
 11
89.095
 20
45.84
 21
45.33
  0
LINE
  8
0
 10
89.095
 11
91.336
 20
45.33
 21
44.332
  0
LINE
  8
0
 10
91.336
 11
93.32
 20
44.332
 21
42.89
  0
LINE
  8
0
 10
93.32
 11
94.962
 20
42.89
 21
41.067
  0
LINE
  8
0
 10
94.962
 11
96.188
 20
41.067
 21
38.943
  0
LINE
  8
0
 10
96.188
 11
96.946
 20
38.943
 21
36.61
  0
LINE
  8
0
 10
96.946
 11
97.203
 20
36.61
 21
34.17
  0
LINE
  8
0
 10
97.203
 11
97.076
 20
34.17
 21
32.96
  0
LINE
  8
0
 10
97.076
 11
97.203
 20
32.96
 21
32.96
  0
LINE
  8
0
 10
97.203
 11
97.203
 20
32.96
 21
12.25
  0
LINE
  8
0
 10
97.203
 11
97.076
 20
12.25
 21
12.25
  0
LINE
  8
0
 10
97.076
 11
97.203
 20
12.25
 21
11.04
  0
LINE
  8
0
 10
97.203
 11
96.946
 20
11.04
 21
8.6
  0
LINE
  8
0
 10
96.946
 11
96.188
 20
8.6
 21
6.267
  0
LINE
  8
0
 10
96.188
 11
94.962
 20
6.267
 21
4.143
  0
LINE
  8
0
 10
94.962
 11
93.32
 20
4.143
 21
2.32
  0
LINE
  8
0
 10
93.32
 11
91.336
 20
2.32
 21
0.878
  0
LINE
  8
0
 10
91.336
 11
89.095
 20
0.878
 21
-0.12
  0
LINE
  8
0
 10
89.095
 11
86.696
 20
-0.12
 21
-0.63
  0
LINE
  8
0
 10
86.696
 11
84.259
 20
-0.63
 21
-0.63
  0
LINE
  8
0
 10
84.259
 11
84.259
 20
-0.63
 21
-0.694
  0
LINE
  8
0
 10
84.259
 11
63.549
 20
-0.694
 21
-0.694
  0
LINE
  8
0
 10
63.549
 11
63.549
 20
-0.694
 21
-0.63
  0
LINE
  8
0
 10
63.549
 11
61.112
 20
-0.63
 21
-0.63
  0
LINE
  8
0
 10
61.112
 11
58.713
 20
-0.63
 21
-0.12
  0
LINE
  8
0
 10
58.713
 11
56.472
 20
-0.12
 21
0.878
  0
LINE
  8
0
 10
56.472
 11
54.488
 20
0.878
 21
2.32
  0
LINE
  8
0
 10
54.488
 11
52.846
 20
2.32
 21
4.143
  0
LINE
  8
0
 10
52.846
 11
51.62
 20
4.143
 21
6.267
  0
LINE
  8
0
 10
51.62
 11
50.862
 20
6.267
 21
8.6
  0
LINE
  8
0
 10
50.862
 11
50.605
 20
8.6
 21
11.04
  0
ENDSEC
  0
SECTION
  2
OBJECTS
  0
DICTIONARY
  0
ENDSEC
  0
EOF
