  0
SECTION
  2
ENTITIES
  0
POLYLINE
  5
3E8
  100
AcDbEntity
  8
CUT
  62
0
  100
AcDb2dPolyline
 66
     1
  10
0
  20
0
  30
0
  70
1
  0
VERTEX
  5
3E9
  100
AcDbEntity
  8
CUT
  62
0
  100
AcDb2dVertex
  10
13.22222
  20
0.31944
  30
0.00000
  70
32
  0
VERTEX
  5
3EA
  100
AcDbEntity
  8
CUT
  62
0
  100
AcDb2dVertex
  10
6.97917
  20
0.32872
  30
0.00000
  42
-0.1171256015
  70
32
  0
VERTEX
  5
3EB
  100
AcDbEntity
  8
CUT
  62
0
  100
AcDb2dVertex
  10
3.93534
  20
1.29816
  30
0.00000
  42
-0.1672533921
  70
32
  0
VERTEX
  5
3EC
  100
AcDbEntity
  8
CUT
  62
0
  100
AcDb2dVertex
  10
1.59716
  20
4.14666
  30
0.00000
  42
-0.0849942952
  70
32
  0
VERTEX
  5
3ED
  100
AcDbEntity
  8
CUT
  62
0
  100
AcDb2dVertex
  10
1.20334
  20
6.07181
  30
0.00000
  42
-0.0320395359
  70
32
  0
VERTEX
  5
3EE
  100
AcDbEntity
  8
CUT
  62
0
  100
AcDb2dVertex
  10
1.23365
  20
7.05057
  30
0.00000
  42
-0.1409099413
  70
32
  0
VERTEX
  5
3EF
  100
AcDbEntity
  8
CUT
  62
0
  100
AcDb2dVertex
  10
2.48210
  20
10.07548
  30
0.00000
  42
-0.0548929302
  70
32
  0
VERTEX
  5
3F0
  100
AcDbEntity
  8
CUT
  62
0
  100
AcDb2dVertex
  10
3.59151
  20
11.15076
  30
0.00000
  42
-0.0970302469
  70
32
  0
VERTEX
  5
3F1
  100
AcDbEntity
  8
CUT
  62
0
  100
AcDb2dVertex
  10
5.74012
  20
12.14134
  30
0.00000
  42
-0.0468588748
  70
32
  0
VERTEX
  5
3F2
  100
AcDbEntity
  8
CUT
  62
0
  100
AcDb2dVertex
  10
6.99350
  20
12.34550
  30
0.00000
  42
-0.0028809151
  70
32
  0
VERTEX
  5
3F3
  100
AcDbEntity
  8
CUT
  62
0
  100
AcDb2dVertex
  10
10.89308
  20
12.36219
  30
0.00000
  42
0.0893838269
  70
32
  0
VERTEX
  5
3F4
  100
AcDbEntity
  8
CUT
  62
0
  100
AcDb2dVertex
  10
10.66897
  20
12.06872
  30
0.00000
  42
0.4430823869
  70
32
  0
VERTEX
  5
3F5
  100
AcDbEntity
  8
CUT
  62
0
  100
AcDb2dVertex
  10
10.87819
  20
11.55069
  30
0.00000
  42
0.1593913367
  70
32
  0
VERTEX
  5
3F6
  100
AcDbEntity
  8
CUT
  62
0
  100
AcDb2dVertex
  10
11.27083
  20
11.59592
  30
0.00000
  42
-0.0415979908
  70
32
  0
VERTEX
  5
3F7
  100
AcDbEntity
  8
CUT
  62
0
  100
AcDb2dVertex
  10
11.64313
  20
11.70833
  30
0.00000
  42
-0.3284807416
  70
32
  0
VERTEX
  5
3F8
  100
AcDbEntity
  8
CUT
  62
0
  100
AcDb2dVertex
  10
11.74680
  20
11.59293
  30
0.00000
  42
-0.6554037251
  70
32
  0
VERTEX
  5
3F9
  100
AcDbEntity
  8
CUT
  62
0
  100
AcDb2dVertex
  10
11.42161
  20
11.50628
  30
0.00000
  70
32
  0
VERTEX
  5
3FA
  100
AcDbEntity
  8
CUT
  62
0
  100
AcDb2dVertex
  10
11.40919
  20
11.51389
  30
0.00000
  42
0.0185088985
  70
32
  0
VERTEX
  5
3FB
  100
AcDbEntity
  8
CUT
  62
0
  100
AcDb2dVertex
  10
11.00865
  20
11.23381
  30
0.00000
  42
0.2272187729
  70
32
  0
VERTEX
  5
3FC
  100
AcDbEntity
  8
CUT
  62
0
  100
AcDb2dVertex
  10
11.28651
  20
11.02415
  30
0.00000
  42
0.1865860040
  70
32
  0
VERTEX
  5
3FD
  100
AcDbEntity
  8
CUT
  62
0
  100
AcDb2dVertex
  10
11.68490
  20
11.11609
  30
0.00000
  42
0.0937336816
  70
32
  0
VERTEX
  5
3FE
  100
AcDbEntity
  8
CUT
  62
0
  100
AcDb2dVertex
  10
12.08561
  20
11.43430
  30
0.00000
  42
0.2524696600
  70
32
  0
VERTEX
  5
3FF
  100
AcDbEntity
  8
CUT
  62
0
  100
AcDb2dVertex
  10
12.18067
  20
11.86020
  30
0.00000
  42
0.2006964616
  70
32
  0
VERTEX
  5
400
  100
AcDbEntity
  8
CUT
  62
0
  100
AcDb2dVertex
  10
11.91592
  20
12.14270
  30
0.00000
  42
0.1373799563
  70
32
  0
VERTEX
  5
401
  100
AcDbEntity
  8
CUT
  62
0
  100
AcDb2dVertex
  10
11.69252
  20
12.13068
  30
0.00000
  42
0.0201801377
  70
32
  0
VERTEX
  5
402
  100
AcDbEntity
  8
CUT
  62
0
  100
AcDb2dVertex
  10
11.29821
  20
11.99249
  30
0.00000
  42
-0.1023571142
  70
32
  0
VERTEX
  5
403
  100
AcDbEntity
  8
CUT
  62
0
  100
AcDb2dVertex
  10
11.14304
  20
11.96204
  30
0.00000
  42
-0.6001339016
  70
32
  0
VERTEX
  5
404
  100
AcDbEntity
  8
CUT
  62
0
  100
AcDb2dVertex
  10
11.13860
  20
12.14744
  30
0.00000
  42
-0.3136555363
  70
32
  0
VERTEX
  5
405
  100
AcDbEntity
  8
CUT
  62
0
  100
AcDb2dVertex
  10
11.32533
  20
12.17412
  30
0.00000
  42
0.1484146681
  70
32
  0
VERTEX
  5
406
  100
AcDbEntity
  8
CUT
  62
0
  100
AcDb2dVertex
  10
11.39389
  20
12.12984
  30
0.00000
  70
32
  0
VERTEX
  5
407
  100
AcDbEntity
  8
CUT
  62
0
  100
AcDb2dVertex
  10
11.72781
  20
12.36111
  30
0.00000
  70
32
  0
VERTEX
  5
408
  100
AcDbEntity
  8
CUT
  62
0
  100
AcDb2dVertex
  10
13.22222
  20
12.36111
  30
0.00000
  70
32
  0
VERTEX
  5
409
  100
AcDbEntity
  8
CUT
  62
0
  100
AcDb2dVertex
  10
13.22222
  20
7.93056
  30
0.00000
  70
32
  0
VERTEX
  5
40A
  100
AcDbEntity
  8
CUT
  62
0
  100
AcDb2dVertex
  10
8.43921
  20
7.92693
  30
0.00000
  42
0.0298515764
  70
32
  0
VERTEX
  5
40B
  100
AcDbEntity
  8
CUT
  62
0
  100
AcDb2dVertex
  10
7.65671
  20
7.88930
  30
0.00000
  42
0.1155731060
  70
32
  0
VERTEX
  5
40C
  100
AcDbEntity
  8
CUT
  62
0
  100
AcDb2dVertex
  10
6.75298
  20
7.50930
  30
0.00000
  42
0.2151374247
  70
32
  0
VERTEX
  5
40D
  100
AcDbEntity
  8
CUT
  62
0
  100
AcDb2dVertex
  10
6.21439
  20
6.47879
  30
0.00000
  42
0.1471850496
  70
32
  0
VERTEX
  5
40E
  100
AcDbEntity
  8
CUT
  62
0
  100
AcDb2dVertex
  10
6.40577
  20
5.54361
  30
0.00000
  42
0.1601490318
  70
32
  0
VERTEX
  5
40F
  100
AcDbEntity
  8
CUT
  62
0
  100
AcDb2dVertex
  10
7.10171
  20
4.94673
  30
0.00000
  42
0.0738924056
  70
32
  0
VERTEX
  5
410
  100
AcDbEntity
  8
CUT
  62
0
  100
AcDb2dVertex
  10
7.72126
  20
4.77109
  30
0.00000
  42
0.0069875264
  70
32
  0
VERTEX
  5
411
  100
AcDbEntity
  8
CUT
  62
0
  100
AcDb2dVertex
  10
8.87584
  20
4.75605
  30
0.00000
  70
32
  0
VERTEX
  5
412
  100
AcDbEntity
  8
CUT
  62
0
  100
AcDb2dVertex
  10
13.22222
  20
4.74946
  30
0.00000
  70
32
  0
VERTEX
  5
413
  100
AcDbEntity
  8
CUT
  62
0
  100
AcDb2dVertex
  10
13.22222
  20
0.31944
  30
0.00000
  70
32
  0
SEQEND
  5
414
  100
AcDbEntity
  8
CUT
  62
0
  0
POLYLINE
  5
415
  100
AcDbEntity
  8
CUT
  62
0
  100
AcDb2dPolyline
 66
     1
  10
0
  20
0
  30
0
  70
1
  0
VERTEX
  5
416
  100
AcDbEntity
  8
CUT
  62
0
  100
AcDb2dVertex
  10
13.89313
  20
0.32351
  30
0.00000
  42
-0.2757321260
  70
32
  0
VERTEX
  5
417
  100
AcDbEntity
  8
CUT
  62
0
  100
AcDb2dVertex
  10
13.61141
  20
0.50310
  30
0.00000
  42
-0.7664231680
  70
32
  0
VERTEX
  5
418
  100
AcDbEntity
  8
CUT
  62
0
  100
AcDb2dVertex
  10
14.10213
  20
0.96326
  30
0.00000
  42
-0.8132426050
  70
32
  0
VERTEX
  5
419
  100
AcDbEntity
  8
CUT
  62
0
  100
AcDb2dVertex
  10
13.89313
  20
0.32351
  30
0.00000
  70
32
  0
SEQEND
  5
41A
  100
AcDbEntity
  8
CUT
  62
0
  0
POLYLINE
  5
41B
  100
AcDbEntity
  8
CUT
  62
0
  100
AcDb2dPolyline
 66
     1
  10
0
  20
0
  30
0
  70
1
  0
VERTEX
  5
41C
  100
AcDbEntity
  8
CUT
  62
0
  100
AcDb2dVertex
  10
13.90090
  20
0.36943
  30
0.00000
  42
0.3061085044
  70
32
  0
VERTEX
  5
41D
  100
AcDbEntity
  8
CUT
  62
0
  100
AcDb2dVertex
  10
14.18971
  20
0.54906
  30
0.00000
  42
0.0793528441
  70
32
  0
VERTEX
  5
41E
  100
AcDbEntity
  8
CUT
  62
0
  100
AcDb2dVertex
  10
14.19839
  20
0.74973
  30
0.00000
  42
0.3396864702
  70
32
  0
VERTEX
  5
41F
  100
AcDbEntity
  8
CUT
  62
0
  100
AcDb2dVertex
  10
13.92087
  20
0.95833
  30
0.00000
  42
0.9585439066
  70
32
  0
VERTEX
  5
420
  100
AcDbEntity
  8
CUT
  62
0
  100
AcDb2dVertex
  10
13.90090
  20
0.36943
  30
0.00000
  70
32
  0
SEQEND
  5
421
  100
AcDbEntity
  8
CUT
  62
0
  0
POLYLINE
  5
422
  100
AcDbEntity
  8
CUT
  62
0
  100
AcDb2dPolyline
 66
     1
  10
0
  20
0
  30
0
  70
1
  0
VERTEX
  5
423
  100
AcDbEntity
  8
CUT
  62
0
  100
AcDb2dVertex
  10
13.81322
  20
0.45945
  30
0.00000
  42
-0.1093176574
  70
32
  0
VERTEX
  5
424
  100
AcDbEntity
  8
CUT
  62
0
  100
AcDb2dVertex
  10
13.79712
  20
0.54519
  30
0.00000
  70
32
  0
VERTEX
  5
425
  100
AcDbEntity
  8
CUT
  62
0
  100
AcDb2dVertex
  10
13.79024
  20
0.86111
  30
0.00000
  42
-0.0586945684
  70
32
  0
VERTEX
  5
426
  100
AcDbEntity
  8
CUT
  62
0
  100
AcDb2dVertex
  10
14.01639
  20
0.85153
  30
0.00000
  42
-0.7370757629
  70
32
  0
VERTEX
  5
427
  100
AcDbEntity
  8
CUT
  62
0
  100
AcDb2dVertex
  10
13.99581
  20
0.65215
  30
0.00000
  42
0.4427944660
  70
32
  0
VERTEX
  5
428
  100
AcDbEntity
  8
CUT
  62
0
  100
AcDb2dVertex
  10
13.99350
  20
0.61974
  30
0.00000
  70
32
  0
VERTEX
  5
429
  100
AcDbEntity
  8
CUT
  62
0
  100
AcDb2dVertex
  10
14.07509
  20
0.47552
  30
0.00000
  42
-0.5713610108
  70
32
  0
VERTEX
  5
42A
  100
AcDbEntity
  8
CUT
  62
0
  100
AcDb2dVertex
  10
14.04547
  20
0.46723
  30
0.00000
  42
-0.1034802220
  70
32
  0
VERTEX
  5
42B
  100
AcDbEntity
  8
CUT
  62
0
  100
AcDb2dVertex
  10
13.94525
  20
0.60044
  30
0.00000
  42
0.3699942993
  70
32
  0
VERTEX
  5
42C
  100
AcDbEntity
  8
CUT
  62
0
  100
AcDb2dVertex
  10
13.85767
  20
0.63408
  30
0.00000
  42
0.0967032874
  70
32
  0
VERTEX
  5
42D
  100
AcDbEntity
  8
CUT
  62
0
  100
AcDb2dVertex
  10
13.84167
  20
0.51164
  30
0.00000
  42
-0.2928023517
  70
32
  0
VERTEX
  5
42E
  100
AcDbEntity
  8
CUT
  62
0
  100
AcDb2dVertex
  10
13.81322
  20
0.45945
  30
0.00000
  70
32
  0
SEQEND
  5
42F
  100
AcDbEntity
  8
CUT
  62
0
  0
POLYLINE
  5
430
  100
AcDbEntity
  8
CUT
  62
0
  100
AcDb2dPolyline
 66
     1
  10
0
  20
0
  30
0
  70
1
  0
VERTEX
  5
431
  100
AcDbEntity
  8
CUT
  62
0
  100
AcDb2dVertex
  10
13.89493
  20
0.68056
  30
0.00000
  70
32
  0
VERTEX
  5
432
  100
AcDbEntity
  8
CUT
  62
0
  100
AcDb2dVertex
  10
13.96180
  20
0.68879
  30
0.00000
  42
0.5732305016
  70
32
  0
VERTEX
  5
433
  100
AcDbEntity
  8
CUT
  62
0
  100
AcDb2dVertex
  10
14.00968
  20
0.79065
  30
0.00000
  42
0.1819075769
  70
32
  0
VERTEX
  5
434
  100
AcDbEntity
  8
CUT
  62
0
  100
AcDb2dVertex
  10
13.84722
  20
0.81944
  30
0.00000
  70
32
  0
VERTEX
  5
435
  100
AcDbEntity
  8
CUT
  62
0
  100
AcDb2dVertex
  10
13.84722
  20
0.68056
  30
0.00000
  70
32
  0
VERTEX
  5
436
  100
AcDbEntity
  8
CUT
  62
0
  100
AcDb2dVertex
  10
13.89493
  20
0.68056
  30
0.00000
  70
32
  0
SEQEND
  5
437
  100
AcDbEntity
  8
CUT
  62
0
  0
POLYLINE
  5
438
  100
AcDbEntity
  8
CUT
  62
0
  100
AcDb2dPolyline
 66
     1
  10
0
  20
0
  30
0
  70
1
  0
VERTEX
  5
439
  100
AcDbEntity
  8
CUT
  62
0
  100
AcDb2dVertex
  10
2.42118
  20
4.90789
  30
0.00000
  42
0.1176717010
  70
32
  0
VERTEX
  5
43A
  100
AcDbEntity
  8
CUT
  62
0
  100
AcDb2dVertex
  10
2.84216
  20
4.99538
  30
0.00000
  42
0.0347121369
  70
32
  0
VERTEX
  5
43B
  100
AcDbEntity
  8
CUT
  62
0
  100
AcDb2dVertex
  10
3.42225
  20
5.37426
  30
0.00000
  42
0.0417309981
  70
32
  0
VERTEX
  5
43C
  100
AcDbEntity
  8
CUT
  62
0
  100
AcDb2dVertex
  10
3.58811
  20
5.49280
  30
0.00000
  42
0.0295268167
  70
32
  0
VERTEX
  5
43D
  100
AcDbEntity
  8
CUT
  62
0
  100
AcDb2dVertex
  10
3.27924
  20
5.94853
  30
0.00000
  70
32
  0
VERTEX
  5
43E
  100
AcDbEntity
  8
CUT
  62
0
  100
AcDb2dVertex
  10
3.22643
  20
5.92284
  30
0.00000
  70
32
  0
VERTEX
  5
43F
  100
AcDbEntity
  8
CUT
  62
0
  100
AcDb2dVertex
  10
2.69349
  20
5.56609
  30
0.00000
  42
-0.1282821780
  70
32
  0
VERTEX
  5
440
  100
AcDbEntity
  8
CUT
  62
0
  100
AcDb2dVertex
  10
2.54109
  20
5.52192
  30
0.00000
  42
-0.6333330380
  70
32
  0
VERTEX
  5
441
  100
AcDbEntity
  8
CUT
  62
0
  100
AcDb2dVertex
  10
2.15766
  20
6.18686
  30
0.00000
  42
-0.0498112148
  70
32
  0
VERTEX
  5
442
  100
AcDbEntity
  8
CUT
  62
0
  100
AcDb2dVertex
  10
2.39416
  20
6.38383
  30
0.00000
  70
32
  0
VERTEX
  5
443
  100
AcDbEntity
  8
CUT
  62
0
  100
AcDb2dVertex
  10
2.77124
  20
6.65344
  30
0.00000
  42
0.0373058070
  70
32
  0
VERTEX
  5
444
  100
AcDbEntity
  8
CUT
  62
0
  100
AcDb2dVertex
  10
2.46111
  20
7.11630
  30
0.00000
  42
0.0269301502
  70
32
  0
VERTEX
  5
445
  100
AcDbEntity
  8
CUT
  62
0
  100
AcDb2dVertex
  10
1.87225
  20
6.71457
  30
0.00000
  42
0.1502336738
  70
32
  0
VERTEX
  5
446
  100
AcDbEntity
  8
CUT
  62
0
  100
AcDb2dVertex
  10
1.50583
  20
6.24636
  30
0.00000
  42
0.5185914485
  70
32
  0
VERTEX
  5
447
  100
AcDbEntity
  8
CUT
  62
0
  100
AcDb2dVertex
  10
2.42118
  20
4.90789
  30
0.00000
  70
32
  0
SEQEND
  5
448
  100
AcDbEntity
  8
CUT
  62
0
  0
POLYLINE
  5
449
  100
AcDbEntity
  8
CUT
  62
0
  100
AcDb2dPolyline
 66
     1
  10
0
  20
0
  30
0
  70
1
  0
VERTEX
  5
44A
  100
AcDbEntity
  8
CUT
  62
0
  100
AcDb2dVertex
  10
3.80957
  20
5.73949
  30
0.00000
  70
32
  0
VERTEX
  5
44B
  100
AcDbEntity
  8
CUT
  62
0
  100
AcDb2dVertex
  10
3.92463
  20
5.74384
  30
0.00000
  42
0.3172504731
  70
32
  0
VERTEX
  5
44C
  100
AcDbEntity
  8
CUT
  62
0
  100
AcDb2dVertex
  10
4.41187
  20
6.24054
  30
0.00000
  42
0.0860613231
  70
32
  0
VERTEX
  5
44D
  100
AcDbEntity
  8
CUT
  62
0
  100
AcDb2dVertex
  10
4.50285
  20
6.13889
  30
0.00000
  42
0.0405616704
  70
32
  0
VERTEX
  5
44E
  100
AcDbEntity
  8
CUT
  62
0
  100
AcDb2dVertex
  10
4.93019
  20
6.43596
  30
0.00000
  70
32
  0
VERTEX
  5
44F
  100
AcDbEntity
  8
CUT
  62
0
  100
AcDb2dVertex
  10
4.85696
  20
6.54013
  30
0.00000
  70
32
  0
VERTEX
  5
450
  100
AcDbEntity
  8
CUT
  62
0
  100
AcDb2dVertex
  10
4.12634
  20
7.56167
  30
0.00000
  70
32
  0
VERTEX
  5
451
  100
AcDbEntity
  8
CUT
  62
0
  100
AcDb2dVertex
  10
4.11689
  20
7.56063
  30
0.00000
  42
0.0279544367
  70
32
  0
VERTEX
  5
452
  100
AcDbEntity
  8
CUT
  62
0
  100
AcDb2dVertex
  10
3.69444
  20
7.26688
  30
0.00000
  70
32
  0
VERTEX
  5
453
  100
AcDbEntity
  8
CUT
  62
0
  100
AcDb2dVertex
  10
4.18295
  20
6.55633
  30
0.00000
  42
-0.5430976435
  70
32
  0
VERTEX
  5
454
  100
AcDbEntity
  8
CUT
  62
0
  100
AcDb2dVertex
  10
4.07585
  20
6.20374
  30
0.00000
  42
-0.2688595360
  70
32
  0
VERTEX
  5
455
  100
AcDbEntity
  8
CUT
  62
0
  100
AcDb2dVertex
  10
3.87368
  20
6.27797
  30
0.00000
  42
-0.0246607357
  70
32
  0
VERTEX
  5
456
  100
AcDbEntity
  8
CUT
  62
0
  100
AcDb2dVertex
  10
3.66734
  20
6.55200
  30
0.00000
  42
0.0297444283
  70
32
  0
VERTEX
  5
457
  100
AcDbEntity
  8
CUT
  62
0
  100
AcDb2dVertex
  10
3.32746
  20
7.00920
  30
0.00000
  70
32
  0
VERTEX
  5
458
  100
AcDbEntity
  8
CUT
  62
0
  100
AcDb2dVertex
  10
2.90253
  20
6.71992
  30
0.00000
  42
0.0173091393
  70
32
  0
VERTEX
  5
459
  100
AcDbEntity
  8
CUT
  62
0
  100
AcDb2dVertex
  10
3.51268
  20
5.87345
  30
0.00000
  42
0.2109273891
  70
32
  0
VERTEX
  5
45A
  100
AcDbEntity
  8
CUT
  62
0
  100
AcDb2dVertex
  10
3.80957
  20
5.73949
  30
0.00000
  70
32
  0
SEQEND
  5
45B
  100
AcDbEntity
  8
CUT
  62
0
  0
POLYLINE
  5
45C
  100
AcDbEntity
  8
CUT
  62
0
  100
AcDb2dPolyline
 66
     1
  10
0
  20
0
  30
0
  70
1
  0
VERTEX
  5
45D
  100
AcDbEntity
  8
CUT
  62
0
  100
AcDb2dVertex
  10
5.06652
  20
6.53152
  30
0.00000
  42
0.0371260114
  70
32
  0
VERTEX
  5
45E
  100
AcDbEntity
  8
CUT
  62
0
  100
AcDb2dVertex
  10
5.48543
  20
6.82284
  30
0.00000
  70
32
  0
VERTEX
  5
45F
  100
AcDbEntity
  8
CUT
  62
0
  100
AcDb2dVertex
  10
4.99281
  20
7.54377
  30
0.00000
  42
-0.5707736796
  70
32
  0
VERTEX
  5
460
  100
AcDbEntity
  8
CUT
  62
0
  100
AcDb2dVertex
  10
5.13034
  20
7.89020
  30
0.00000
  42
-0.2174845140
  70
32
  0
VERTEX
  5
461
  100
AcDbEntity
  8
CUT
  62
0
  100
AcDb2dVertex
  10
5.33471
  20
7.78718
  30
0.00000
  70
32
  0
VERTEX
  5
462
  100
AcDbEntity
  8
CUT
  62
0
  100
AcDb2dVertex
  10
5.84729
  20
7.07054
  30
0.00000
  70
32
  0
VERTEX
  5
463
  100
AcDbEntity
  8
CUT
  62
0
  100
AcDb2dVertex
  10
6.27535
  20
7.36794
  30
0.00000
  70
32
  0
VERTEX
  5
464
  100
AcDbEntity
  8
CUT
  62
0
  100
AcDb2dVertex
  10
5.78864
  20
8.08126
  30
0.00000
  42
-0.2919965092
  70
32
  0
VERTEX
  5
465
  100
AcDbEntity
  8
CUT
  62
0
  100
AcDb2dVertex
  10
5.75934
  20
8.32090
  30
0.00000
  42
-0.5309063661
  70
32
  0
VERTEX
  5
466
  100
AcDbEntity
  8
CUT
  62
0
  100
AcDb2dVertex
  10
6.08207
  20
8.37443
  30
0.00000
  42
-0.0278406457
  70
32
  0
VERTEX
  5
467
  100
AcDbEntity
  8
CUT
  62
0
  100
AcDb2dVertex
  10
6.29325
  20
8.10076
  30
0.00000
  42
0.0183240939
  70
32
  0
VERTEX
  5
468
  100
AcDbEntity
  8
CUT
  62
0
  100
AcDb2dVertex
  10
6.63957
  20
7.62780
  30
0.00000
  42
0.0318010214
  70
32
  0
VERTEX
  5
469
  100
AcDbEntity
  8
CUT
  62
0
  100
AcDb2dVertex
  10
7.05486
  20
7.92465
  30
0.00000
  42
0.0168455358
  70
32
  0
VERTEX
  5
46A
  100
AcDbEntity
  8
CUT
  62
0
  100
AcDb2dVertex
  10
6.49794
  20
8.72385
  30
0.00000
  42
0.1378598717
  70
32
  0
VERTEX
  5
46B
  100
AcDbEntity
  8
CUT
  62
0
  100
AcDb2dVertex
  10
6.28068
  20
8.88498
  30
0.00000
  42
0.0596083677
  70
32
  0
VERTEX
  5
46C
  100
AcDbEntity
  8
CUT
  62
0
  100
AcDb2dVertex
  10
6.02335
  20
8.89282
  30
0.00000
  42
0.3472381707
  70
32
  0
VERTEX
  5
46D
  100
AcDbEntity
  8
CUT
  62
0
  100
AcDb2dVertex
  10
5.55187
  20
8.30812
  30
0.00000
  42
0.1085633169
  70
32
  0
VERTEX
  5
46E
  100
AcDbEntity
  8
CUT
  62
0
  100
AcDb2dVertex
  10
5.36573
  20
8.36119
  30
0.00000
  42
0.4108837007
  70
32
  0
VERTEX
  5
46F
  100
AcDbEntity
  8
CUT
  62
0
  100
AcDb2dVertex
  10
4.80187
  20
7.77972
  30
0.00000
  42
0.0503884263
  70
32
  0
VERTEX
  5
470
  100
AcDbEntity
  8
CUT
  62
0
  100
AcDb2dVertex
  10
4.66913
  20
7.94444
  30
0.00000
  42
0.0173077904
  70
32
  0
VERTEX
  5
471
  100
AcDbEntity
  8
CUT
  62
0
  100
AcDb2dVertex
  10
4.25328
  20
7.66068
  30
0.00000
  70
32
  0
VERTEX
  5
472
  100
AcDbEntity
  8
CUT
  62
0
  100
AcDb2dVertex
  10
4.32518
  20
7.55075
  30
0.00000
  70
32
  0
VERTEX
  5
473
  100
AcDbEntity
  8
CUT
  62
0
  100
AcDb2dVertex
  10
4.77778
  20
6.91827
  30
0.00000
  42
0.0333366431
  70
32
  0
VERTEX
  5
474
  100
AcDbEntity
  8
CUT
  62
0
  100
AcDb2dVertex
  10
5.06652
  20
6.53152
  30
0.00000
  70
32
  0
SEQEND
  5
475
  100
AcDbEntity
  8
CUT
  62
0
  0
POLYLINE
  5
476
  100
AcDbEntity
  8
CUT
  62
0
  100
AcDb2dPolyline
 66
     1
  10
0
  20
0
  30
0
  70
1
  0
VERTEX
  5
477
  100
AcDbEntity
  8
CUT
  62
0
  100
AcDb2dVertex
  10
7.23739
  20
8.04441
  30
0.00000
  42
0.0300711726
  70
32
  0
VERTEX
  5
478
  100
AcDbEntity
  8
CUT
  62
0
  100
AcDb2dVertex
  10
7.65210
  20
8.33831
  30
0.00000
  70
32
  0
VERTEX
  5
479
  100
AcDbEntity
  8
CUT
  62
0
  100
AcDb2dVertex
  10
7.15943
  20
9.06736
  30
0.00000
  42
-0.1234006725
  70
32
  0
VERTEX
  5
47A
  100
AcDbEntity
  8
CUT
  62
0
  100
AcDb2dVertex
  10
7.11398
  20
9.19085
  30
0.00000
  42
-0.2398066592
  70
32
  0
VERTEX
  5
47B
  100
AcDbEntity
  8
CUT
  62
0
  100
AcDb2dVertex
  10
7.23481
  20
9.38635
  30
0.00000
  42
-0.3606310053
  70
32
  0
VERTEX
  5
47C
  100
AcDbEntity
  8
CUT
  62
0
  100
AcDb2dVertex
  10
7.49713
  20
9.30532
  30
0.00000
  42
-0.0158407680
  70
32
  0
VERTEX
  5
47D
  100
AcDbEntity
  8
CUT
  62
0
  100
AcDb2dVertex
  10
7.89301
  20
8.75714
  30
0.00000
  42
0.0772615635
  70
32
  0
VERTEX
  5
47E
  100
AcDbEntity
  8
CUT
  62
0
  100
AcDb2dVertex
  10
8.02681
  20
8.60113
  30
0.00000
  42
0.0430485001
  70
32
  0
VERTEX
  5
47F
  100
AcDbEntity
  8
CUT
  62
0
  100
AcDb2dVertex
  10
8.43731
  20
8.89151
  30
0.00000
  70
32
  0
VERTEX
  5
480
  100
AcDbEntity
  8
CUT
  62
0
  100
AcDb2dVertex
  10
8.38221
  20
8.98244
  30
0.00000
  42
-0.0109816950
  70
32
  0
VERTEX
  5
481
  100
AcDbEntity
  8
CUT
  62
0
  100
AcDb2dVertex
  10
7.93417
  20
9.63777
  30
0.00000
  42
-0.7339189822
  70
32
  0
VERTEX
  5
482
  100
AcDbEntity
  8
CUT
  62
0
  100
AcDb2dVertex
  10
8.19352
  20
9.93099
  30
0.00000
  42
-0.0842351701
  70
32
  0
VERTEX
  5
483
  100
AcDbEntity
  8
CUT
  62
0
  100
AcDb2dVertex
  10
8.37312
  20
9.74246
  30
0.00000
  70
32
  0
VERTEX
  5
484
  100
AcDbEntity
  8
CUT
  62
0
  100
AcDb2dVertex
  10
8.79897
  20
9.14108
  30
0.00000
  42
0.0337290917
  70
32
  0
VERTEX
  5
485
  100
AcDbEntity
  8
CUT
  62
0
  100
AcDb2dVertex
  10
9.20874
  20
9.42713
  30
0.00000
  70
32
  0
VERTEX
  5
486
  100
AcDbEntity
  8
CUT
  62
0
  100
AcDb2dVertex
  10
9.21660
  20
9.44564
  30
0.00000
  42
0.0218552361
  70
32
  0
VERTEX
  5
487
  100
AcDbEntity
  8
CUT
  62
0
  100
AcDb2dVertex
  10
8.90177
  20
9.91580
  30
0.00000
  42
0.0676812576
  70
32
  0
VERTEX
  5
488
  100
AcDbEntity
  8
CUT
  62
0
  100
AcDb2dVertex
  10
8.57684
  20
10.32201
  30
0.00000
  42
0.1467544898
  70
32
  0
VERTEX
  5
489
  100
AcDbEntity
  8
CUT
  62
0
  100
AcDb2dVertex
  10
8.36833
  20
10.41718
  30
0.00000
  42
0.4359359281
  70
32
  0
VERTEX
  5
48A
  100
AcDbEntity
  8
CUT
  62
0
  100
AcDb2dVertex
  10
7.71866
  20
9.82258
  30
0.00000
  70
32
  0
VERTEX
  5
48B
  100
AcDbEntity
  8
CUT
  62
0
  100
AcDb2dVertex
  10
7.63722
  20
9.85829
  30
0.00000
  42
0.2644680818
  70
32
  0
VERTEX
  5
48C
  100
AcDbEntity
  8
CUT
  62
0
  100
AcDb2dVertex
  10
7.16512
  20
9.72654
  30
0.00000
  42
0.1848054547
  70
32
  0
VERTEX
  5
48D
  100
AcDbEntity
  8
CUT
  62
0
  100
AcDb2dVertex
  10
6.98436
  20
9.42010
  30
0.00000
  70
32
  0
VERTEX
  5
48E
  100
AcDbEntity
  8
CUT
  62
0
  100
AcDb2dVertex
  10
6.97116
  20
9.30566
  30
0.00000
  70
32
  0
VERTEX
  5
48F
  100
AcDbEntity
  8
CUT
  62
0
  100
AcDb2dVertex
  10
6.84323
  20
9.47109
  30
0.00000
  70
32
  0
VERTEX
  5
490
  100
AcDbEntity
  8
CUT
  62
0
  100
AcDb2dVertex
  10
6.41253
  20
9.17037
  30
0.00000
  70
32
  0
VERTEX
  5
491
  100
AcDbEntity
  8
CUT
  62
0
  100
AcDb2dVertex
  10
6.57812
  20
8.95693
  30
0.00000
  70
32
  0
VERTEX
  5
492
  100
AcDbEntity
  8
CUT
  62
0
  100
AcDb2dVertex
  10
7.19942
  20
8.07801
  30
0.00000
  70
32
  0
VERTEX
  5
493
  100
AcDbEntity
  8
CUT
  62
0
  100
AcDb2dVertex
  10
7.23739
  20
8.04441
  30
0.00000
  70
32
  0
SEQEND
  5
494
  100
AcDbEntity
  8
CUT
  62
0
  0
POLYLINE
  5
495
  100
AcDbEntity
  8
CUT
  62
0
  100
AcDb2dPolyline
 66
     1
  10
0
  20
0
  30
0
  70
1
  0
VERTEX
  5
496
  100
AcDbEntity
  8
CUT
  62
0
  100
AcDb2dVertex
  10
9.37746
  20
9.54167
  30
0.00000
  42
0.0201775394
  70
32
  0
VERTEX
  5
497
  100
AcDbEntity
  8
CUT
  62
0
  100
AcDb2dVertex
  10
9.80529
  20
9.84028
  30
0.00000
  70
32
  0
VERTEX
  5
498
  100
AcDbEntity
  8
CUT
  62
0
  100
AcDb2dVertex
  10
9.26005
  20
10.61874
  30
0.00000
  42
0.0279223558
  70
32
  0
VERTEX
  5
499
  100
AcDbEntity
  8
CUT
  62
0
  100
AcDb2dVertex
  10
9.00311
  20
10.96519
  30
0.00000
  42
0.0505085794
  70
32
  0
VERTEX
  5
49A
  100
AcDbEntity
  8
CUT
  62
0
  100
AcDb2dVertex
  10
8.57784
  20
10.68267
  30
0.00000
  70
32
  0
VERTEX
  5
49B
  100
AcDbEntity
  8
CUT
  62
0
  100
AcDb2dVertex
  10
8.59239
  20
10.65522
  30
0.00000
  70
32
  0
VERTEX
  5
49C
  100
AcDbEntity
  8
CUT
  62
0
  100
AcDb2dVertex
  10
9.22046
  20
9.75000
  30
0.00000
  42
0.0488801401
  70
32
  0
VERTEX
  5
49D
  100
AcDbEntity
  8
CUT
  62
0
  100
AcDb2dVertex
  10
9.37746
  20
9.54167
  30
0.00000
  70
32
  0
SEQEND
  5
49E
  100
AcDbEntity
  8
CUT
  62
0
  0
POLYLINE
  5
49F
  100
AcDbEntity
  8
CUT
  62
0
  100
AcDb2dPolyline
 66
     1
  10
0
  20
0
  30
0
  70
1
  0
VERTEX
  5
4A0
  100
AcDbEntity
  8
CUT
  62
0
  100
AcDb2dVertex
  10
9.94633
  20
9.94444
  30
0.00000
  42
0.0245943468
  70
32
  0
VERTEX
  5
4A1
  100
AcDbEntity
  8
CUT
  62
0
  100
AcDb2dVertex
  10
10.35001
  20
10.21928
  30
0.00000
  42
0.4040256167
  70
32
  0
VERTEX
  5
4A2
  100
AcDbEntity
  8
CUT
  62
0
  100
AcDb2dVertex
  10
10.36391
  20
10.25383
  30
0.00000
  70
32
  0
VERTEX
  5
4A3
  100
AcDbEntity
  8
CUT
  62
0
  100
AcDb2dVertex
  10
9.88553
  20
10.94495
  30
0.00000
  42
-0.4998266060
  70
32
  0
VERTEX
  5
4A4
  100
AcDbEntity
  8
CUT
  62
0
  100
AcDb2dVertex
  10
9.96567
  20
11.28902
  30
0.00000
  42
-0.3516323046
  70
32
  0
VERTEX
  5
4A5
  100
AcDbEntity
  8
CUT
  62
0
  100
AcDb2dVertex
  10
10.23473
  20
11.18162
  30
0.00000
  70
32
  0
VERTEX
  5
4A6
  100
AcDbEntity
  8
CUT
  62
0
  100
AcDb2dVertex
  10
10.72151
  20
10.49584
  30
0.00000
  42
0.0535055421
  70
32
  0
VERTEX
  5
4A7
  100
AcDbEntity
  8
CUT
  62
0
  100
AcDb2dVertex
  10
11.13436
  20
10.77186
  30
0.00000
  70
32
  0
VERTEX
  5
4A8
  100
AcDbEntity
  8
CUT
  62
0
  100
AcDb2dVertex
  10
11.14768
  20
10.79219
  30
0.00000
  42
0.0241953750
  70
32
  0
VERTEX
  5
4A9
  100
AcDbEntity
  8
CUT
  62
0
  100
AcDb2dVertex
  10
10.59774
  20
11.58595
  30
0.00000
  42
0.2215176921
  70
32
  0
VERTEX
  5
4AA
  100
AcDbEntity
  8
CUT
  62
0
  100
AcDb2dVertex
  10
10.23710
  20
11.77394
  30
0.00000
  42
0.3662761480
  70
32
  0
VERTEX
  5
4AB
  100
AcDbEntity
  8
CUT
  62
0
  100
AcDb2dVertex
  10
9.65811
  20
11.26304
  30
0.00000
  42
0.1199201230
  70
32
  0
VERTEX
  5
4AC
  100
AcDbEntity
  8
CUT
  62
0
  100
AcDb2dVertex
  10
9.56037
  20
11.36822
  30
0.00000
  42
0.0159422567
  70
32
  0
VERTEX
  5
4AD
  100
AcDbEntity
  8
CUT
  62
0
  100
AcDb2dVertex
  10
9.12592
  20
11.06790
  30
0.00000
  42
-0.0169987701
  70
32
  0
VERTEX
  5
4AE
  100
AcDbEntity
  8
CUT
  62
0
  100
AcDb2dVertex
  10
9.47738
  20
10.59659
  30
0.00000
  42
0.0112859417
  70
32
  0
VERTEX
  5
4AF
  100
AcDbEntity
  8
CUT
  62
0
  100
AcDb2dVertex
  10
9.94633
  20
9.94444
  30
0.00000
  70
32
  0
SEQEND
  5
4B0
  100
AcDbEntity
  8
CUT
  62
0
  0
POLYLINE
  5
4B1
  100
AcDbEntity
  8
CUT
  62
0
  100
AcDb2dPolyline
 66
     1
  10
0
  20
0
  30
0
  70
1
  0
VERTEX
  5
4B2
  100
AcDbEntity
  8
CUT
  62
0
  100
AcDb2dVertex
  10
8.43282
  20
10.87370
  30
0.00000
  42
0.0381585901
  70
32
  0
VERTEX
  5
4B3
  100
AcDbEntity
  8
CUT
  62
0
  100
AcDb2dVertex
  10
8.86111
  20
11.18201
  30
0.00000
  70
32
  0
VERTEX
  5
4B4
  100
AcDbEntity
  8
CUT
  62
0
  100
AcDb2dVertex
  10
8.80186
  20
11.27690
  30
0.00000
  42
0.0828517191
  70
32
  0
VERTEX
  5
4B5
  100
AcDbEntity
  8
CUT
  62
0
  100
AcDb2dVertex
  10
8.64376
  20
11.46947
  30
0.00000
  42
0.0405710124
  70
32
  0
VERTEX
  5
4B6
  100
AcDbEntity
  8
CUT
  62
0
  100
AcDb2dVertex
  10
8.22290
  20
11.17549
  30
0.00000
  42
0.0286973795
  70
32
  0
VERTEX
  5
4B7
  100
AcDbEntity
  8
CUT
  62
0
  100
AcDb2dVertex
  10
8.43282
  20
10.87370
  30
0.00000
  70
32
  0
SEQEND
  5
4B8
  100
AcDbEntity
  8
CUT
  62
0
 0
ENDSEC
 0
EOF
