  0
SECTION
  2
HEADER
  9
$ACADVER
  1
AC1021
  9
$ACADMAINTVER
 70
    25
  9
$DWGCODEPAGE
  3
ANSI_1251
  9
$INSBASE
 10
0.0
 20
0.0
 30
0.0
  9
$EXTMIN
 10
-100.84598
 20
-11.47802
 30
0.0
  9
$EXTMAX
 10
95.91845
 20
115.86316
 30
0.0
  9
$LIMMIN
 10
0.0
 20
0.0
  9
$LIMMAX
 10
12.0
 20
9.0
  9
$ORTHOMODE
 70
     0
  9
$REGENMODE
 70
     1
  9
$FILLMODE
 70
     1
  9
$QTEXTMODE
 70
     0
  9
$MIRRTEXT
 70
     1
  9
$LTSCALE
 40
1.0
  9
$ATTMODE
 70
     1
  9
$TEXTSIZE
 40
0.2
  9
$TRACEWID
 40
0.05
  9
$TEXTSTYLE
  7
Standard
  9
$CLAYER
  8
0
  9
$CELTYPE
  6
ByLayer
  9
$CECOLOR
 62
   256
  9
$CELTSCALE
 40
1.0
  9
$DISPSILH
 70
     0
  9
$DIMSCALE
 40
1.0
  9
$DIMASZ
 40
0.18
  9
$DIMEXO
 40
0.0625
  9
$DIMDLI
 40
0.38
  9
$DIMRND
 40
0.0
  9
$DIMDLE
 40
0.0
  9
$DIMEXE
 40
0.18
  9
$DIMTP
 40
0.0
  9
$DIMTM
 40
0.0
  9
$DIMTXT
 40
0.18
  9
$DIMCEN
 40
0.09
  9
$DIMTSZ
 40
0.0
  9
$DIMTOL
 70
     0
  9
$DIMLIM
 70
     0
  9
$DIMTIH
 70
     1
  9
$DIMTOH
 70
     1
  9
$DIMSE1
 70
     0
  9
$DIMSE2
 70
     0
  9
$DIMTAD
 70
     0
  9
$DIMZIN
 70
     0
  9
$DIMBLK
  1

  9
$DIMASO
 70
     1
  9
$DIMSHO
 70
     1
  9
$DIMPOST
  1

  9
$DIMAPOST
  1

  9
$DIMALT
 70
     0
  9
$DIMALTD
 70
     2
  9
$DIMALTF
 40
25.4
  9
$DIMLFAC
 40
1.0
  9
$DIMTOFL
 70
     0
  9
$DIMTVP
 40
0.0
  9
$DIMTIX
 70
     0
  9
$DIMSOXD
 70
     0
  9
$DIMSAH
 70
     0
  9
$DIMBLK1
  1

  9
$DIMBLK2
  1

  9
$DIMSTYLE
  2
Standard
  9
$DIMCLRD
 70
     0
  9
$DIMCLRE
 70
     0
  9
$DIMCLRT
 70
     0
  9
$DIMTFAC
 40
1.0
  9
$DIMGAP
 40
0.09
  9
$DIMJUST
 70
     0
  9
$DIMSD1
 70
     0
  9
$DIMSD2
 70
     0
  9
$DIMTOLJ
 70
     1
  9
$DIMTZIN
 70
     0
  9
$DIMALTZ
 70
     0
  9
$DIMALTTZ
 70
     0
  9
$DIMUPT
 70
     0
  9
$DIMDEC
 70
     4
  9
$DIMTDEC
 70
     4
  9
$DIMALTU
 70
     2
  9
$DIMALTTD
 70
     2
  9
$DIMTXSTY
  7
Standard
  9
$DIMAUNIT
 70
     0
  9
$DIMADEC
 70
     0
  9
$DIMALTRND
 40
0.0
  9
$DIMAZIN
 70
     0
  9
$DIMDSEP
 70
    46
  9
$DIMATFIT
 70
     3
  9
$DIMFRAC
 70
     0
  9
$DIMLDRBLK
  1

  9
$DIMLUNIT
 70
     2
  9
$DIMLWD
 70
    -2
  9
$DIMLWE
 70
    -2
  9
$DIMTMOVE
 70
     0
  9
$DIMFXL
 40
1.0
  9
$DIMFXLON
 70
     0
  9
$DIMJOGANG
 40
0.7853981633974483
  9
$DIMTFILL
 70
     0
  9
$DIMTFILLCLR
 70
     0
  9
$DIMARCSYM
 70
     0
  9
$DIMLTYPE
  6

  9
$DIMLTEX1
  6

  9
$DIMLTEX2
  6

  9
$LUNITS
 70
     2
  9
$LUPREC
 70
     4
  9
$SKETCHINC
 40
0.1
  9
$FILLETRAD
 40
0.5
  9
$AUNITS
 70
     0
  9
$AUPREC
 70
     0
  9
$MENU
  1
.
  9
$ELEVATION
 40
0.0
  9
$PELEVATION
 40
0.0
  9
$THICKNESS
 40
0.0
  9
$LIMCHECK
 70
     0
  9
$CHAMFERA
 40
0.0
  9
$CHAMFERB
 40
0.0
  9
$CHAMFERC
 40
0.0
  9
$CHAMFERD
 40
0.0
  9
$SKPOLY
 70
     0
  9
$TDCREATE
 40
2458520.632316805
  9
$TDUCREATE
 40
2458520.382316805
  9
$TDUPDATE
 40
2458520.632316991
  9
$TDUUPDATE
 40
2458520.382316991
  9
$TDINDWG
 40
0.0000000116
  9
$TDUSRTIMER
 40
0.0000000116
  9
$USRTIMER
 70
     1
  9
$ANGBASE
 50
0.0
  9
$ANGDIR
 70
     0
  9
$PDMODE
 70
     0
  9
$PDSIZE
 40
0.0
  9
$PLINEWID
 40
0.0
  9
$SPLFRAME
 70
     0
  9
$SPLINETYPE
 70
     6
  9
$SPLINESEGS
 70
     8
  9
$HANDSEED
  5
FC
  9
$SURFTAB1
 70
     6
  9
$SURFTAB2
 70
     6
  9
$SURFTYPE
 70
     6
  9
$SURFU
 70
     6
  9
$SURFV
 70
     6
  9
$UCSBASE
  2

  9
$UCSNAME
  2

  9
$UCSORG
 10
0.0
 20
0.0
 30
0.0
  9
$UCSXDIR
 10
1.0
 20
0.0
 30
0.0
  9
$UCSYDIR
 10
0.0
 20
1.0
 30
0.0
  9
$UCSORTHOREF
  2

  9
$UCSORTHOVIEW
 70
     0
  9
$UCSORGTOP
 10
0.0
 20
0.0
 30
0.0
  9
$UCSORGBOTTOM
 10
0.0
 20
0.0
 30
0.0
  9
$UCSORGLEFT
 10
0.0
 20
0.0
 30
0.0
  9
$UCSORGRIGHT
 10
0.0
 20
0.0
 30
0.0
  9
$UCSORGFRONT
 10
0.0
 20
0.0
 30
0.0
  9
$UCSORGBACK
 10
0.0
 20
0.0
 30
0.0
  9
$PUCSBASE
  2

  9
$PUCSNAME
  2

  9
$PUCSORG
 10
0.0
 20
0.0
 30
0.0
  9
$PUCSXDIR
 10
1.0
 20
0.0
 30
0.0
  9
$PUCSYDIR
 10
0.0
 20
1.0
 30
0.0
  9
$PUCSORTHOREF
  2

  9
$PUCSORTHOVIEW
 70
     0
  9
$PUCSORGTOP
 10
0.0
 20
0.0
 30
0.0
  9
$PUCSORGBOTTOM
 10
0.0
 20
0.0
 30
0.0
  9
$PUCSORGLEFT
 10
0.0
 20
0.0
 30
0.0
  9
$PUCSORGRIGHT
 10
0.0
 20
0.0
 30
0.0
  9
$PUCSORGFRONT
 10
0.0
 20
0.0
 30
0.0
  9
$PUCSORGBACK
 10
0.0
 20
0.0
 30
0.0
  9
$USERI1
 70
     0
  9
$USERI2
 70
     0
  9
$USERI3
 70
     0
  9
$USERI4
 70
     0
  9
$USERI5
 70
     0
  9
$USERR1
 40
0.0
  9
$USERR2
 40
0.0
  9
$USERR3
 40
0.0
  9
$USERR4
 40
0.0
  9
$USERR5
 40
0.0
  9
$WORLDVIEW
 70
     1
  9
$SHADEDGE
 70
     3
  9
$SHADEDIF
 70
    70
  9
$TILEMODE
 70
     1
  9
$MAXACTVP
 70
    64
  9
$PINSBASE
 10
0.0
 20
0.0
 30
0.0
  9
$PLIMCHECK
 70
     0
  9
$PEXTMIN
 10
1.000000000000000E+20
 20
1.000000000000000E+20
 30
1.000000000000000E+20
  9
$PEXTMAX
 10
-1.000000000000000E+20
 20
-1.000000000000000E+20
 30
-1.000000000000000E+20
  9
$PLIMMIN
 10
0.0
 20
0.0
  9
$PLIMMAX
 10
12.0
 20
9.0
  9
$UNITMODE
 70
     0
  9
$VISRETAIN
 70
     1
  9
$PLINEGEN
 70
     0
  9
$PSLTSCALE
 70
     1
  9
$TREEDEPTH
 70
  3020
  9
$CMLSTYLE
  2
Standard
  9
$CMLJUST
 70
     0
  9
$CMLSCALE
 40
1.0
  9
$PROXYGRAPHICS
 70
     1
  9
$MEASUREMENT
 70
     0
  9
$CELWEIGHT
370
    -1
  9
$ENDCAPS
280
     0
  9
$JOINSTYLE
280
     0
  9
$LWDISPLAY
290
     0
  9
$INSUNITS
 70
     5
  9
$HYPERLINKBASE
  1

  9
$STYLESHEET
  1

  9
$XEDIT
290
     1
  9
$CEPSNTYPE
380
     0
  9
$PSTYLEMODE
290
     1
  9
$FINGERPRINTGUID
  2
{D9B5912D-6F31-4461-BDBA-C160CF96680F}
  9
$VERSIONGUID
  2
{FAEB1C32-E019-11D5-929B-00C0DF256EC4}
  9
$EXTNAMES
290
     1
  9
$PSVPSCALE
 40
0.0
  9
$OLESTARTUP
290
     0
  9
$SORTENTS
280
   127
  9
$INDEXCTL
280
     0
  9
$HIDETEXT
280
     1
  9
$XCLIPFRAME
290
     0
  9
$HALOGAP
280
     0
  9
$OBSCOLOR
 70
   257
  9
$OBSLTYPE
280
     0
  9
$INTERSECTIONDISPLAY
280
     0
  9
$INTERSECTIONCOLOR
 70
   257
  9
$DIMASSOC
280
     2
  9
$PROJECTNAME
  1

  9
$CAMERADISPLAY
290
     0
  9
$LENSLENGTH
 40
50.0
  9
$CAMERAHEIGHT
 40
0.0
  9
$STEPSPERSEC
 40
2.0
  9
$STEPSIZE
 40
6.0
  9
$3DDWFPREC
 40
2.0
  9
$PSOLWIDTH
 40
0.25
  9
$PSOLHEIGHT
 40
4.0
  9
$LOFTANG1
 40
1.570796326794897
  9
$LOFTANG2
 40
1.570796326794897
  9
$LOFTMAG1
 40
0.0
  9
$LOFTMAG2
 40
0.0
  9
$LOFTPARAM
 70
     7
  9
$LOFTNORMALS
280
     1
  9
$LATITUDE
 40
37.795
  9
$LONGITUDE
 40
-122.394
  9
$NORTHDIRECTION
 40
0.0
  9
$TIMEZONE
 70
 -8000
  9
$LIGHTGLYPHDISPLAY
280
     1
  9
$TILEMODELIGHTSYNCH
280
     1
  9
$CMATERIAL
347
44
  9
$SOLIDHIST
280
     0
  9
$SHOWHIST
280
     1
  9
$DWFFRAME
280
     2
  9
$DGNFRAME
280
     2
  9
$REALWORLDSCALE
290
     1
  9
$INTERFERECOLOR
 62
   256
  9
$CSHADOW
280
     0
  9
$SHADOWPLANELOCATION
 40
0.0
  0
ENDSEC
  0
SECTION
  2
CLASSES
  0
CLASS
  1
ACDBDICTIONARYWDFLT
  2
AcDbDictionaryWithDefault
  3
ObjectDBX Classes
 90
        0
 91
        4
280
     0
281
     0
  0
CLASS
  1
VISUALSTYLE
  2
AcDbVisualStyle
  3
ObjectDBX Classes
 90
     4095
 91
        4
280
     0
281
     0
  0
CLASS
  1
MATERIAL
  2
AcDbMaterial
  3
ObjectDBX Classes
 90
     1153
 91
        4
280
     0
281
     0
  0
CLASS
  1
SCALE
  2
AcDbScale
  3
ObjectDBX Classes
 90
     1153
 91
        4
280
     0
281
     0
  0
CLASS
  1
TABLESTYLE
  2
AcDbTableStyle
  3
ObjectDBX Classes
 90
     4095
 91
        4
280
     0
281
     0
  0
CLASS
  1
MLEADERSTYLE
  2
AcDbMLeaderStyle
  3
ACDB_MLEADERSTYLE_CLASS
 90
     4095
 91
        4
280
     0
281
     0
  0
CLASS
  1
SUN
  2
AcDbSun
  3
SCENEOE
 90
     1153
 91
        4
280
     0
281
     0
  0
CLASS
  1
DICTIONARYVAR
  2
AcDbDictionaryVar
  3
ObjectDBX Classes
 90
        0
 91
        4
280
     0
281
     0
  0
CLASS
  1
CELLSTYLEMAP
  2
AcDbCellStyleMap
  3
ObjectDBX Classes
 90
     1152
 91
        4
280
     0
281
     0
  0
ENDSEC
  0
SECTION
  2
TABLES
  0
TABLE
  2
VPORT
  5
8
330
0
100
AcDbSymbolTable
 70
     1
  0
VPORT
  5
29
330
8
100
AcDbSymbolTableRecord
100
AcDbViewportTableRecord
  2
*Active
 70
     0
 10
0.0
 20
0.0
 11
1.0
 21
1.0
 12
10.42990654205607
 22
4.5
 13
0.0
 23
0.0
 14
0.5
 24
0.5
 15
0.5
 25
0.5
 16
0.0
 26
0.0
 36
1.0
 17
0.0
 27
0.0
 37
0.0
 40
9.0
 41
1.972972972850329
 42
50.0
 43
0.0
 44
0.0
 50
0.0
 51
0.0
 71
     0
 72
   100
 73
     1
 74
     3
 75
     0
 76
     0
 77
     0
 78
     0
281
     0
 65
     1
110
0.0
120
0.0
130
0.0
111
1.0
121
0.0
131
0.0
112
0.0
122
1.0
132
0.0
 79
     0
146
0.0
348
2F
 60
     3
 61
     5
292
     1
282
     1
141
0.0
142
0.0
 63
   250
361
6D
  0
ENDTAB
  0
TABLE
  2
LTYPE
  5
5
330
0
100
AcDbSymbolTable
 70
     1
  0
LTYPE
  5
14
330
5
100
AcDbSymbolTableRecord
100
AcDbLinetypeTableRecord
  2
ByBlock
 70
     0
  3

 72
    65
 73
     0
 40
0.0
  0
LTYPE
  5
15
330
5
100
AcDbSymbolTableRecord
100
AcDbLinetypeTableRecord
  2
ByLayer
 70
     0
  3

 72
    65
 73
     0
 40
0.0
  0
LTYPE
  5
16
330
5
100
AcDbSymbolTableRecord
100
AcDbLinetypeTableRecord
  2
Continuous
 70
     0
  3
Solid line
 72
    65
 73
     0
 40
0.0
  0
ENDTAB
  0
TABLE
  2
LAYER
  5
2
330
0
100
AcDbSymbolTable
 70
     2
  0
LAYER
  5
10
330
2
100
AcDbSymbolTableRecord
100
AcDbLayerTableRecord
  2
0
 70
     0
 62
     7
  6
Continuous
370
    -3
390
F
347
46
  0
LAYER
  5
6F
330
2
100
AcDbSymbolTableRecord
100
AcDbLayerTableRecord
  2
layer 1
 70
     0
 62
     7
  6
Continuous
370
    -3
390
F
347
46
  0
ENDTAB
  0
TABLE
  2
STYLE
  5
3
330
0
100
AcDbSymbolTable
 70
     1
  0
STYLE
  5
11
330
3
100
AcDbSymbolTableRecord
100
AcDbTextStyleTableRecord
  2
Standard
 70
     0
 40
0.0
 41
1.0
 50
0.0
 71
     0
 42
0.2
  3
txt
  4

  0
ENDTAB
  0
TABLE
  2
VIEW
  5
6
330
0
100
AcDbSymbolTable
 70
     0
  0
ENDTAB
  0
TABLE
  2
UCS
  5
7
330
0
100
AcDbSymbolTable
 70
     0
  0
ENDTAB
  0
TABLE
  2
APPID
  5
9
330
0
100
AcDbSymbolTable
 70
     3
  0
APPID
  5
12
330
9
100
AcDbSymbolTableRecord
100
AcDbRegAppTableRecord
  2
ACAD
 70
     0
  0
APPID
  5
6E
330
9
100
AcDbSymbolTableRecord
100
AcDbRegAppTableRecord
  2
ODA
 70
     0
  0
APPID
  5
F4
330
9
100
AcDbSymbolTableRecord
100
AcDbRegAppTableRecord
  2
ACAD_MLEADERVER
 70
     0
  0
ENDTAB
  0
TABLE
  2
DIMSTYLE
  5
A
330
0
100
AcDbSymbolTable
 70
     1
100
AcDbDimStyleTable
  0
DIMSTYLE
105
27
330
A
100
AcDbSymbolTableRecord
100
AcDbDimStyleTableRecord
  2
Standard
 70
     0
178
     0
340
11
  0
ENDTAB
  0
TABLE
  2
BLOCK_RECORD
  5
1
330
0
100
AcDbSymbolTable
 70
     1
  0
BLOCK_RECORD
  5
1F
330
1
100
AcDbSymbolTableRecord
100
AcDbBlockTableRecord
  2
*Model_Space
340
22
 70
     0
280
     1
281
     0
  0
BLOCK_RECORD
  5
1B
330
1
100
AcDbSymbolTableRecord
100
AcDbBlockTableRecord
  2
*Paper_Space
340
1E
 70
     0
280
     1
281
     0
  0
BLOCK_RECORD
  5
23
330
1
100
AcDbSymbolTableRecord
100
AcDbBlockTableRecord
  2
*Paper_Space0
340
26
 70
     0
280
     1
281
     0
  0
ENDTAB
  0
ENDSEC
  0
SECTION
  2
BLOCKS
  0
BLOCK
  5
20
330
1F
100
AcDbEntity
  8
0
100
AcDbBlockBegin
  2
*Model_Space
 70
     0
 10
0.0
 20
0.0
 30
0.0
  3
*Model_Space
  1

  0
ENDBLK
  5
21
330
1F
100
AcDbEntity
  8
0
100
AcDbBlockEnd
  0
BLOCK
  5
1C
330
1B
100
AcDbEntity
 67
     1
  8
0
100
AcDbBlockBegin
  2
*Paper_Space
 70
     0
 10
0.0
 20
0.0
 30
0.0
  3
*Paper_Space
  1

  0
ENDBLK
  5
1D
330
1B
100
AcDbEntity
 67
     1
  8
0
100
AcDbBlockEnd
  0
BLOCK
  5
24
330
23
100
AcDbEntity
  8
0
100
AcDbBlockBegin
  2
*Paper_Space0
 70
     0
 10
0.0
 20
0.0
 30
0.0
  3
*Paper_Space0
  1

  0
ENDBLK
  5
25
330
23
100
AcDbEntity
  8
0
100
AcDbBlockEnd
  0
ENDSEC
  0
SECTION
  2
ENTITIES
  0
SPLINE
  5
70
330
1F
100
AcDbEntity
  8
layer 1
 62
   242
370
     9
100
AcDbSpline
210
0.0
220
0.0
230
1.0
 70
    11
 71
     3
 72
   244
 73
   240
 74
     0
 42
0.000000001
 43
0.0000000001
 40
0.0
 40
0.0
 40
0.0
 40
0.0
 40
0.0163934426229508
 40
0.0163934426229508
 40
0.0163934426229508
 40
0.0163934426229508
 40
0.0327868852459016
 40
0.0327868852459016
 40
0.0327868852459016
 40
0.0327868852459016
 40
0.0491803278688525
 40
0.0491803278688525
 40
0.0491803278688525
 40
0.0491803278688525
 40
0.0655737704918033
 40
0.0655737704918033
 40
0.0655737704918033
 40
0.0655737704918033
 40
0.0819672131147541
 40
0.0819672131147541
 40
0.0819672131147541
 40
0.0819672131147541
 40
0.0983606557377049
 40
0.0983606557377049
 40
0.0983606557377049
 40
0.0983606557377049
 40
0.1147540983606557
 40
0.1147540983606557
 40
0.1147540983606557
 40
0.1147540983606557
 40
0.1311475409836066
 40
0.1311475409836066
 40
0.1311475409836066
 40
0.1311475409836066
 40
0.1475409836065574
 40
0.1475409836065574
 40
0.1475409836065574
 40
0.1475409836065574
 40
0.1639344262295082
 40
0.1639344262295082
 40
0.1639344262295082
 40
0.1639344262295082
 40
0.180327868852459
 40
0.180327868852459
 40
0.180327868852459
 40
0.180327868852459
 40
0.1967213114754098
 40
0.1967213114754098
 40
0.1967213114754098
 40
0.1967213114754098
 40
0.2131147540983606
 40
0.2131147540983606
 40
0.2131147540983606
 40
0.2131147540983606
 40
0.2295081967213115
 40
0.2295081967213115
 40
0.2295081967213115
 40
0.2295081967213115
 40
0.2459016393442623
 40
0.2459016393442623
 40
0.2459016393442623
 40
0.2459016393442623
 40
0.2622950819672131
 40
0.2622950819672131
 40
0.2622950819672131
 40
0.2622950819672131
 40
0.2786885245901639
 40
0.2786885245901639
 40
0.2786885245901639
 40
0.2786885245901639
 40
0.2950819672131147
 40
0.2950819672131147
 40
0.2950819672131147
 40
0.2950819672131147
 40
0.3114754098360656
 40
0.3114754098360656
 40
0.3114754098360656
 40
0.3114754098360656
 40
0.3278688524590164
 40
0.3278688524590164
 40
0.3278688524590164
 40
0.3278688524590164
 40
0.3442622950819672
 40
0.3442622950819672
 40
0.3442622950819672
 40
0.3442622950819672
 40
0.360655737704918
 40
0.360655737704918
 40
0.360655737704918
 40
0.360655737704918
 40
0.3770491803278688
 40
0.3770491803278688
 40
0.3770491803278688
 40
0.3770491803278688
 40
0.3934426229508197
 40
0.3934426229508197
 40
0.3934426229508197
 40
0.3934426229508197
 40
0.4098360655737705
 40
0.4098360655737705
 40
0.4098360655737705
 40
0.4098360655737705
 40
0.4262295081967213
 40
0.4262295081967213
 40
0.4262295081967213
 40
0.4262295081967213
 40
0.4426229508196721
 40
0.4426229508196721
 40
0.4426229508196721
 40
0.4426229508196721
 40
0.459016393442623
 40
0.459016393442623
 40
0.459016393442623
 40
0.459016393442623
 40
0.4754098360655737
 40
0.4754098360655737
 40
0.4754098360655737
 40
0.4754098360655737
 40
0.4918032786885246
 40
0.4918032786885246
 40
0.4918032786885246
 40
0.4918032786885246
 40
0.5081967213114754
 40
0.5081967213114754
 40
0.5081967213114754
 40
0.5081967213114754
 40
0.5245901639344263
 40
0.5245901639344263
 40
0.5245901639344263
 40
0.5245901639344263
 40
0.5409836065573771
 40
0.5409836065573771
 40
0.5409836065573771
 40
0.5409836065573771
 40
0.5573770491803278
 40
0.5573770491803278
 40
0.5573770491803278
 40
0.5573770491803278
 40
0.5737704918032787
 40
0.5737704918032787
 40
0.5737704918032787
 40
0.5737704918032787
 40
0.5901639344262295
 40
0.5901639344262295
 40
0.5901639344262295
 40
0.5901639344262295
 40
0.6065573770491803
 40
0.6065573770491803
 40
0.6065573770491803
 40
0.6065573770491803
 40
0.6229508196721312
 40
0.6229508196721312
 40
0.6229508196721312
 40
0.6229508196721312
 40
0.639344262295082
 40
0.639344262295082
 40
0.639344262295082
 40
0.639344262295082
 40
0.6557377049180327
 40
0.6557377049180327
 40
0.6557377049180327
 40
0.6557377049180327
 40
0.6721311475409836
 40
0.6721311475409836
 40
0.6721311475409836
 40
0.6721311475409836
 40
0.6885245901639344
 40
0.6885245901639344
 40
0.6885245901639344
 40
0.6885245901639344
 40
0.7049180327868853
 40
0.7049180327868853
 40
0.7049180327868853
 40
0.7049180327868853
 40
0.7213114754098361
 40
0.7213114754098361
 40
0.7213114754098361
 40
0.7213114754098361
 40
0.7377049180327869
 40
0.7377049180327869
 40
0.7377049180327869
 40
0.7377049180327869
 40
0.7540983606557377
 40
0.7540983606557377
 40
0.7540983606557377
 40
0.7540983606557377
 40
0.7704918032786885
 40
0.7704918032786885
 40
0.7704918032786885
 40
0.7704918032786885
 40
0.7868852459016393
 40
0.7868852459016393
 40
0.7868852459016393
 40
0.7868852459016393
 40
0.8032786885245902
 40
0.8032786885245902
 40
0.8032786885245902
 40
0.8032786885245902
 40
0.819672131147541
 40
0.819672131147541
 40
0.819672131147541
 40
0.819672131147541
 40
0.8360655737704918
 40
0.8360655737704918
 40
0.8360655737704918
 40
0.8360655737704918
 40
0.8524590163934426
 40
0.8524590163934426
 40
0.8524590163934426
 40
0.8524590163934426
 40
0.8688524590163934
 40
0.8688524590163934
 40
0.8688524590163934
 40
0.8688524590163934
 40
0.8852459016393442
 40
0.8852459016393442
 40
0.8852459016393442
 40
0.8852459016393442
 40
0.9016393442622951
 40
0.9016393442622951
 40
0.9016393442622951
 40
0.9016393442622951
 40
0.9180327868852459
 40
0.9180327868852459
 40
0.9180327868852459
 40
0.9180327868852459
 40
0.9344262295081968
 40
0.9344262295081968
 40
0.9344262295081968
 40
0.9344262295081968
 40
0.9508196721311475
 40
0.9508196721311475
 40
0.9508196721311475
 40
0.9508196721311475
 40
0.9672131147540983
 40
0.9672131147540983
 40
0.9672131147540983
 40
0.9672131147540983
 40
1.0
 40
1.0
 40
1.0
 40
1.0
 10
-22.24851
 20
106.05935
 30
0.0
 10
-22.24851
 20
106.05935
 30
0.0
 10
-18.24851
 20
106.05935
 30
0.0
 10
-18.24851
 20
106.05935
 30
0.0
 10
-18.24851
 20
106.05935
 30
0.0
 10
-18.24851
 20
106.05935
 30
0.0
 10
-18.24851
 20
106.45935
 30
0.0
 10
-18.24851
 20
106.45935
 30
0.0
 10
-18.24851
 20
106.45935
 30
0.0
 10
-18.24851
 20
106.45935
 30
0.0
 10
-14.5562
 20
106.45935
 30
0.0
 10
-14.5562
 20
106.45935
 30
0.0
 10
-14.5562
 20
106.45935
 30
0.0
 10
-14.5562
 20
106.45935
 30
0.0
 10
-14.5562
 20
106.05935
 30
0.0
 10
-14.5562
 20
106.05935
 30
0.0
 10
-14.5562
 20
106.05935
 30
0.0
 10
-14.5562
 20
106.05935
 30
0.0
 10
-10.5562
 20
106.05935
 30
0.0
 10
-10.5562
 20
106.05935
 30
0.0
 10
-10.5562
 20
106.05935
 30
0.0
 10
-10.5562
 20
106.05935
 30
0.0
 10
-10.5562
 20
106.45935
 30
0.0
 10
-10.5562
 20
106.45935
 30
0.0
 10
-10.5562
 20
106.45935
 30
0.0
 10
-10.5562
 20
106.45935
 30
0.0
 10
-6.8639
 20
106.45935
 30
0.0
 10
-6.8639
 20
106.45935
 30
0.0
 10
-6.8639
 20
106.45935
 30
0.0
 10
-6.8639
 20
106.45935
 30
0.0
 10
-6.8639
 20
106.05935
 30
0.0
 10
-6.8639
 20
106.05935
 30
0.0
 10
-6.8639
 20
106.05935
 30
0.0
 10
-6.8639
 20
106.05935
 30
0.0
 10
-2.8639
 20
106.05935
 30
0.0
 10
-2.8639
 20
106.05935
 30
0.0
 10
-2.8639
 20
106.05935
 30
0.0
 10
-2.8639
 20
106.05935
 30
0.0
 10
-2.8639
 20
106.45935
 30
0.0
 10
-2.8639
 20
106.45935
 30
0.0
 10
-2.8639
 20
106.45935
 30
0.0
 10
-2.8639
 20
106.45935
 30
0.0
 10
0.82841
 20
106.45935
 30
0.0
 10
0.82841
 20
106.45935
 30
0.0
 10
0.82841
 20
106.45935
 30
0.0
 10
0.82841
 20
106.45935
 30
0.0
 10
0.82841
 20
106.05935
 30
0.0
 10
0.82841
 20
106.05935
 30
0.0
 10
0.82841
 20
106.05935
 30
0.0
 10
0.82841
 20
106.05935
 30
0.0
 10
4.82841
 20
106.05935
 30
0.0
 10
4.82841
 20
106.05935
 30
0.0
 10
4.82841
 20
106.05935
 30
0.0
 10
4.82841
 20
106.05935
 30
0.0
 10
4.82841
 20
106.45935
 30
0.0
 10
4.82841
 20
106.45935
 30
0.0
 10
4.82841
 20
106.45935
 30
0.0
 10
4.82841
 20
106.45935
 30
0.0
 10
8.52072
 20
106.45935
 30
0.0
 10
8.52072
 20
106.45935
 30
0.0
 10
8.52072
 20
106.45935
 30
0.0
 10
8.52072
 20
106.45935
 30
0.0
 10
8.52072
 20
106.05935
 30
0.0
 10
8.52072
 20
106.05935
 30
0.0
 10
8.52072
 20
106.05935
 30
0.0
 10
8.52072
 20
106.05935
 30
0.0
 10
12.52072
 20
106.05935
 30
0.0
 10
12.52072
 20
106.05935
 30
0.0
 10
12.52072
 20
106.05935
 30
0.0
 10
12.52072
 20
106.05935
 30
0.0
 10
12.52072
 20
106.45935
 30
0.0
 10
12.52072
 20
106.45935
 30
0.0
 10
12.52072
 20
106.45935
 30
0.0
 10
12.52072
 20
106.45935
 30
0.0
 10
16.21303
 20
106.45935
 30
0.0
 10
16.21303
 20
106.45935
 30
0.0
 10
16.21303
 20
106.45935
 30
0.0
 10
16.21303
 20
106.45935
 30
0.0
 10
16.21303
 20
106.05935
 30
0.0
 10
16.21303
 20
106.05935
 30
0.0
 10
16.21303
 20
106.05935
 30
0.0
 10
16.21303
 20
106.05935
 30
0.0
 10
20.21303
 20
106.05935
 30
0.0
 10
20.21303
 20
106.05935
 30
0.0
 10
20.21303
 20
106.05935
 30
0.0
 10
20.21303
 20
106.05935
 30
0.0
 10
20.21303
 20
106.45935
 30
0.0
 10
20.21303
 20
106.45935
 30
0.0
 10
20.21303
 20
106.45935
 30
0.0
 10
20.21303
 20
106.45935
 30
0.0
 10
23.90533
 20
106.45935
 30
0.0
 10
23.90533
 20
106.45935
 30
0.0
 10
23.90533
 20
106.45935
 30
0.0
 10
23.90533
 20
106.45935
 30
0.0
 10
23.90533
 20
106.05935
 30
0.0
 10
23.90533
 20
106.05935
 30
0.0
 10
23.90533
 20
106.05935
 30
0.0
 10
23.90533
 20
106.05935
 30
0.0
 10
27.90533
 20
106.05935
 30
0.0
 10
27.90533
 20
106.05935
 30
0.0
 10
27.90533
 20
106.05935
 30
0.0
 10
27.90533
 20
106.05935
 30
0.0
 10
27.90533
 20
106.45935
 30
0.0
 10
27.90533
 20
106.45935
 30
0.0
 10
27.90533
 20
106.45935
 30
0.0
 10
27.90533
 20
106.45935
 30
0.0
 10
31.59764
 20
106.45935
 30
0.0
 10
31.59764
 20
106.45935
 30
0.0
 10
31.59764
 20
106.45935
 30
0.0
 10
31.59764
 20
106.45935
 30
0.0
 10
31.59764
 20
106.05935
 30
0.0
 10
31.59764
 20
106.05935
 30
0.0
 10
31.59764
 20
106.05935
 30
0.0
 10
31.59764
 20
106.05935
 30
0.0
 10
35.59764
 20
106.05935
 30
0.0
 10
35.59764
 20
106.05935
 30
0.0
 10
35.59764
 20
106.05935
 30
0.0
 10
35.59764
 20
106.05935
 30
0.0
 10
35.59764
 20
106.45935
 30
0.0
 10
35.59764
 20
106.45935
 30
0.0
 10
35.59764
 20
106.45935
 30
0.0
 10
35.59764
 20
106.45935
 30
0.0
 10
39.28995
 20
106.45935
 30
0.0
 10
39.28995
 20
106.45935
 30
0.0
 10
39.28995
 20
106.45935
 30
0.0
 10
39.28995
 20
106.45935
 30
0.0
 10
39.28995
 20
106.05935
 30
0.0
 10
39.28995
 20
106.05935
 30
0.0
 10
39.28995
 20
106.05935
 30
0.0
 10
39.28995
 20
106.05935
 30
0.0
 10
43.28995
 20
106.05935
 30
0.0
 10
43.28995
 20
106.05935
 30
0.0
 10
43.28995
 20
106.05935
 30
0.0
 10
43.28995
 20
106.05935
 30
0.0
 10
43.28995
 20
106.45935
 30
0.0
 10
43.28995
 20
106.45935
 30
0.0
 10
43.28995
 20
106.45935
 30
0.0
 10
43.28995
 20
106.45935
 30
0.0
 10
46.98226
 20
106.45935
 30
0.0
 10
46.98226
 20
106.45935
 30
0.0
 10
46.98226
 20
106.45935
 30
0.0
 10
46.98226
 20
106.45935
 30
0.0
 10
46.98226
 20
106.05935
 30
0.0
 10
46.98226
 20
106.05935
 30
0.0
 10
46.98226
 20
106.05935
 30
0.0
 10
46.98226
 20
106.05935
 30
0.0
 10
50.98226
 20
106.05935
 30
0.0
 10
50.98226
 20
106.05935
 30
0.0
 10
50.98226
 20
106.05935
 30
0.0
 10
50.98226
 20
106.05935
 30
0.0
 10
50.98226
 20
106.45935
 30
0.0
 10
50.98226
 20
106.45935
 30
0.0
 10
50.98226
 20
106.45935
 30
0.0
 10
50.98226
 20
106.45935
 30
0.0
 10
54.67456
 20
106.45935
 30
0.0
 10
54.67456
 20
106.45935
 30
0.0
 10
54.67456
 20
106.45935
 30
0.0
 10
54.67456
 20
106.45935
 30
0.0
 10
54.67456
 20
106.05935
 30
0.0
 10
54.67456
 20
106.05935
 30
0.0
 10
54.67456
 20
106.05935
 30
0.0
 10
54.67456
 20
106.05935
 30
0.0
 10
58.67455
 20
106.05935
 30
0.0
 10
58.67455
 20
106.05935
 30
0.0
 10
58.67455
 20
106.05935
 30
0.0
 10
58.67455
 20
106.05935
 30
0.0
 10
58.67455
 20
106.45935
 30
0.0
 10
58.67455
 20
106.45935
 30
0.0
 10
58.67455
 20
106.45935
 30
0.0
 10
58.67455
 20
106.45935
 30
0.0
 10
62.36686
 20
106.45935
 30
0.0
 10
62.36686
 20
106.45935
 30
0.0
 10
62.36686
 20
106.45935
 30
0.0
 10
62.36686
 20
106.45935
 30
0.0
 10
62.36686
 20
106.05935
 30
0.0
 10
62.36686
 20
106.05935
 30
0.0
 10
62.36686
 20
106.05935
 30
0.0
 10
62.36686
 20
106.05935
 30
0.0
 10
66.36686
 20
106.05935
 30
0.0
 10
66.36686
 20
106.05935
 30
0.0
 10
66.36686
 20
106.05935
 30
0.0
 10
66.36686
 20
106.05935
 30
0.0
 10
66.36686
 20
106.45935
 30
0.0
 10
66.36686
 20
106.45935
 30
0.0
 10
66.36686
 20
106.45935
 30
0.0
 10
66.36686
 20
106.45935
 30
0.0
 10
69.45917
 20
106.45935
 30
0.0
 10
69.45917
 20
106.45935
 30
0.0
 10
69.45917
 20
106.45935
 30
0.0
 10
69.45917
 20
106.45935
 30
0.0
 10
69.45917
 20
109.15935
 30
0.0
 10
69.45917
 20
109.15935
 30
0.0
 10
69.45917
 20
109.15935
 30
0.0
 10
69.45917
 20
109.15935
 30
0.0
 10
69.86917
 20
109.15935
 30
0.0
 10
69.86917
 20
109.15935
 30
0.0
 10
69.86917
 20
109.15935
 30
0.0
 10
69.86917
 20
109.15935
 30
0.0
 10
69.86917
 20
113.15935
 30
0.0
 10
69.86917
 20
113.15935
 30
0.0
 10
69.86917
 20
113.15935
 30
0.0
 10
69.86917
 20
113.15935
 30
0.0
 10
69.45917
 20
113.15935
 30
0.0
 10
69.45917
 20
113.15935
 30
0.0
 10
69.45917
 20
113.15935
 30
0.0
 10
69.45917
 20
113.15935
 30
0.0
 10
69.45917
 20
115.85935
 30
0.0
 10
69.45917
 20
115.85935
 30
0.0
 10
69.45917
 20
115.85935
 30
0.0
 10
69.45917
 20
115.85935
 30
0.0
 10
-25.35082
 20
115.85935
 30
0.0
 10
-25.35082
 20
115.85935
 30
0.0
 10
-25.35082
 20
115.85935
 30
0.0
 10
-25.35082
 20
115.85935
 30
0.0
 10
-25.35082
 20
113.15935
 30
0.0
 10
-25.35082
 20
113.15935
 30
0.0
 10
-25.35082
 20
113.15935
 30
0.0
 10
-25.35082
 20
113.15935
 30
0.0
 10
-25.74082
 20
113.15935
 30
0.0
 10
-25.74082
 20
113.15935
 30
0.0
 10
-25.74082
 20
113.15935
 30
0.0
 10
-25.74082
 20
113.15935
 30
0.0
 10
-25.74082
 20
109.15935
 30
0.0
 10
-25.74082
 20
109.15935
 30
0.0
 10
-25.74082
 20
109.15935
 30
0.0
 10
-25.74082
 20
109.15935
 30
0.0
 10
-25.35082
 20
109.15935
 30
0.0
 10
-25.35082
 20
109.15935
 30
0.0
 10
-25.35082
 20
109.15935
 30
0.0
 10
-25.35082
 20
109.15935
 30
0.0
 10
-25.35082
 20
106.45935
 30
0.0
 10
-25.35082
 20
106.45935
 30
0.0
 10
-25.35082
 20
106.45935
 30
0.0
 10
-25.35082
 20
106.45935
 30
0.0
 10
-22.24851
 20
106.45935
 30
0.0
 10
-22.24851
 20
106.45935
 30
0.0
 10
-22.24851
 20
106.45935
 30
0.0
 10
-22.24851
 20
106.45935
 30
0.0
 10
-22.24851
 20
106.05935
 30
0.0
 10
-22.24851
 20
106.05935
 30
0.0
  0
SPLINE
  5
71
330
1F
100
AcDbEntity
  8
layer 1
 62
   250
370
     9
100
AcDbSpline
210
0.0
220
0.0
230
1.0
 70
    11
 71
     3
 72
    20
 73
    16
 74
     0
 42
0.000000001
 43
0.0000000001
 40
0.0
 40
0.0
 40
0.0
 40
0.0
 40
0.2
 40
0.2
 40
0.2
 40
0.2
 40
0.4
 40
0.4
 40
0.4
 40
0.4
 40
0.6
 40
0.6
 40
0.6
 40
0.6
 40
1.0
 40
1.0
 40
1.0
 40
1.0
 10
85.15216
 20
55.00468
 30
0.0
 10
85.15216
 20
55.00468
 30
0.0
 10
85.15216
 20
55.41468
 30
0.0
 10
85.15216
 20
55.41468
 30
0.0
 10
85.15216
 20
55.41468
 30
0.0
 10
85.15216
 20
55.41468
 30
0.0
 10
89.21216
 20
55.41468
 30
0.0
 10
89.21216
 20
55.41468
 30
0.0
 10
89.21216
 20
55.41468
 30
0.0
 10
89.21216
 20
55.41468
 30
0.0
 10
89.21216
 20
55.00468
 30
0.0
 10
89.21216
 20
55.00468
 30
0.0
 10
89.21216
 20
55.00468
 30
0.0
 10
89.21216
 20
55.00468
 30
0.0
 10
85.15216
 20
55.00468
 30
0.0
 10
85.15216
 20
55.00468
 30
0.0
  0
SPLINE
  5
72
330
1F
100
AcDbEntity
  8
layer 1
 62
   250
370
     9
100
AcDbSpline
210
0.0
220
0.0
230
1.0
 70
    11
 71
     3
 72
    20
 73
    16
 74
     0
 42
0.000000001
 43
0.0000000001
 40
0.0
 40
0.0
 40
0.0
 40
0.0
 40
0.2
 40
0.2
 40
0.2
 40
0.2
 40
0.4
 40
0.4
 40
0.4
 40
0.4
 40
0.6
 40
0.6
 40
0.6
 40
0.6
 40
1.0
 40
1.0
 40
1.0
 40
1.0
 10
46.70455
 20
55.00468
 30
0.0
 10
46.70455
 20
55.00468
 30
0.0
 10
46.70455
 20
55.41468
 30
0.0
 10
46.70455
 20
55.41468
 30
0.0
 10
46.70455
 20
55.41468
 30
0.0
 10
46.70455
 20
55.41468
 30
0.0
 10
50.76455
 20
55.41468
 30
0.0
 10
50.76455
 20
55.41468
 30
0.0
 10
50.76455
 20
55.41468
 30
0.0
 10
50.76455
 20
55.41468
 30
0.0
 10
50.76455
 20
55.00468
 30
0.0
 10
50.76455
 20
55.00468
 30
0.0
 10
50.76455
 20
55.00468
 30
0.0
 10
50.76455
 20
55.00468
 30
0.0
 10
46.70455
 20
55.00468
 30
0.0
 10
46.70455
 20
55.00468
 30
0.0
  0
SPLINE
  5
73
330
1F
100
AcDbEntity
  8
layer 1
 62
   250
370
     9
100
AcDbSpline
210
0.0
220
0.0
230
1.0
 70
    11
 71
     3
 72
    20
 73
    16
 74
     0
 42
0.000000001
 43
0.0000000001
 40
0.0
 40
0.0
 40
0.0
 40
0.0
 40
0.2
 40
0.2
 40
0.2
 40
0.2
 40
0.4
 40
0.4
 40
0.4
 40
0.4
 40
0.6
 40
0.6
 40
0.6
 40
0.6
 40
1.0
 40
1.0
 40
1.0
 40
1.0
 10
39.00151
 20
55.00468
 30
0.0
 10
39.00151
 20
55.00468
 30
0.0
 10
39.00151
 20
55.41468
 30
0.0
 10
39.00151
 20
55.41468
 30
0.0
 10
39.00151
 20
55.41468
 30
0.0
 10
39.00151
 20
55.41468
 30
0.0
 10
43.06151
 20
55.41468
 30
0.0
 10
43.06151
 20
55.41468
 30
0.0
 10
43.06151
 20
55.41468
 30
0.0
 10
43.06151
 20
55.41468
 30
0.0
 10
43.06151
 20
55.00468
 30
0.0
 10
43.06151
 20
55.00468
 30
0.0
 10
43.06151
 20
55.00468
 30
0.0
 10
43.06151
 20
55.00468
 30
0.0
 10
39.00151
 20
55.00468
 30
0.0
 10
39.00151
 20
55.00468
 30
0.0
  0
SPLINE
  5
74
330
1F
100
AcDbEntity
  8
layer 1
 62
   250
370
     9
100
AcDbSpline
210
0.0
220
0.0
230
1.0
 70
    11
 71
     3
 72
    20
 73
    16
 74
     0
 42
0.000000001
 43
0.0000000001
 40
0.0
 40
0.0
 40
0.0
 40
0.0
 40
0.2
 40
0.2
 40
0.2
 40
0.2
 40
0.4
 40
0.4
 40
0.4
 40
0.4
 40
0.6
 40
0.6
 40
0.6
 40
0.6
 40
1.0
 40
1.0
 40
1.0
 40
1.0
 10
77.46935
 20
55.00468
 30
0.0
 10
77.46935
 20
55.00468
 30
0.0
 10
77.46935
 20
55.41468
 30
0.0
 10
77.46935
 20
55.41468
 30
0.0
 10
77.46935
 20
55.41468
 30
0.0
 10
77.46935
 20
55.41468
 30
0.0
 10
81.52935
 20
55.41468
 30
0.0
 10
81.52935
 20
55.41468
 30
0.0
 10
81.52935
 20
55.41468
 30
0.0
 10
81.52935
 20
55.41468
 30
0.0
 10
81.52935
 20
55.00468
 30
0.0
 10
81.52935
 20
55.00468
 30
0.0
 10
81.52935
 20
55.00468
 30
0.0
 10
81.52935
 20
55.00468
 30
0.0
 10
77.46935
 20
55.00468
 30
0.0
 10
77.46935
 20
55.00468
 30
0.0
  0
SPLINE
  5
75
330
1F
100
AcDbEntity
  8
layer 1
 62
   250
370
     9
100
AcDbSpline
210
0.0
220
0.0
230
1.0
 70
    11
 71
     3
 72
    20
 73
    16
 74
     0
 42
0.000000001
 43
0.0000000001
 40
0.0
 40
0.0
 40
0.0
 40
0.0
 40
0.2
 40
0.2
 40
0.2
 40
0.2
 40
0.4
 40
0.4
 40
0.4
 40
0.4
 40
0.6
 40
0.6
 40
0.6
 40
0.6
 40
1.0
 40
1.0
 40
1.0
 40
1.0
 10
69.76631
 20
55.00468
 30
0.0
 10
69.76631
 20
55.00468
 30
0.0
 10
69.76631
 20
55.41468
 30
0.0
 10
69.76631
 20
55.41468
 30
0.0
 10
69.76631
 20
55.41468
 30
0.0
 10
69.76631
 20
55.41468
 30
0.0
 10
73.82631
 20
55.41468
 30
0.0
 10
73.82631
 20
55.41468
 30
0.0
 10
73.82631
 20
55.41468
 30
0.0
 10
73.82631
 20
55.41468
 30
0.0
 10
73.82631
 20
55.00468
 30
0.0
 10
73.82631
 20
55.00468
 30
0.0
 10
73.82631
 20
55.00468
 30
0.0
 10
73.82631
 20
55.00468
 30
0.0
 10
69.76631
 20
55.00468
 30
0.0
 10
69.76631
 20
55.00468
 30
0.0
  0
SPLINE
  5
76
330
1F
100
AcDbEntity
  8
layer 1
 62
   250
370
     9
100
AcDbSpline
210
0.0
220
0.0
230
1.0
 70
    11
 71
     3
 72
    20
 73
    16
 74
     0
 42
0.000000001
 43
0.0000000001
 40
0.0
 40
0.0
 40
0.0
 40
0.0
 40
0.2
 40
0.2
 40
0.2
 40
0.2
 40
0.4
 40
0.4
 40
0.4
 40
0.4
 40
0.6
 40
0.6
 40
0.6
 40
0.6
 40
1.0
 40
1.0
 40
1.0
 40
1.0
 10
62.07948
 20
55.00468
 30
0.0
 10
62.07948
 20
55.00468
 30
0.0
 10
62.07948
 20
55.41468
 30
0.0
 10
62.07948
 20
55.41468
 30
0.0
 10
62.07948
 20
55.41468
 30
0.0
 10
62.07948
 20
55.41468
 30
0.0
 10
66.13948
 20
55.41468
 30
0.0
 10
66.13948
 20
55.41468
 30
0.0
 10
66.13948
 20
55.41468
 30
0.0
 10
66.13948
 20
55.41468
 30
0.0
 10
66.13948
 20
55.00468
 30
0.0
 10
66.13948
 20
55.00468
 30
0.0
 10
66.13948
 20
55.00468
 30
0.0
 10
66.13948
 20
55.00468
 30
0.0
 10
62.07948
 20
55.00468
 30
0.0
 10
62.07948
 20
55.00468
 30
0.0
  0
SPLINE
  5
77
330
1F
100
AcDbEntity
  8
layer 1
 62
   250
370
     9
100
AcDbSpline
210
0.0
220
0.0
230
1.0
 70
    11
 71
     3
 72
    20
 73
    16
 74
     0
 42
0.000000001
 43
0.0000000001
 40
0.0
 40
0.0
 40
0.0
 40
0.0
 40
0.2
 40
0.2
 40
0.2
 40
0.2
 40
0.4
 40
0.4
 40
0.4
 40
0.4
 40
0.6
 40
0.6
 40
0.6
 40
0.6
 40
1.0
 40
1.0
 40
1.0
 40
1.0
 10
54.38696
 20
55.00468
 30
0.0
 10
54.38696
 20
55.00468
 30
0.0
 10
54.38696
 20
55.41468
 30
0.0
 10
54.38696
 20
55.41468
 30
0.0
 10
54.38696
 20
55.41468
 30
0.0
 10
54.38696
 20
55.41468
 30
0.0
 10
58.44696
 20
55.41468
 30
0.0
 10
58.44696
 20
55.41468
 30
0.0
 10
58.44696
 20
55.41468
 30
0.0
 10
58.44696
 20
55.41468
 30
0.0
 10
58.44696
 20
55.00468
 30
0.0
 10
58.44696
 20
55.00468
 30
0.0
 10
58.44696
 20
55.00468
 30
0.0
 10
58.44696
 20
55.00468
 30
0.0
 10
54.38696
 20
55.00468
 30
0.0
 10
54.38696
 20
55.00468
 30
0.0
  0
SPLINE
  5
78
330
1F
100
AcDbEntity
  8
layer 1
 62
   250
370
     9
100
AcDbSpline
210
0.0
220
0.0
230
1.0
 70
    11
 71
     3
 72
    20
 73
    16
 74
     0
 42
0.000000001
 43
0.0000000001
 40
0.0
 40
0.0
 40
0.0
 40
0.0
 40
0.2
 40
0.2
 40
0.2
 40
0.2
 40
0.4
 40
0.4
 40
0.4
 40
0.4
 40
0.6
 40
0.6
 40
0.6
 40
0.6
 40
1.0
 40
1.0
 40
1.0
 40
1.0
 10
31.30601
 20
55.00468
 30
0.0
 10
31.30601
 20
55.00468
 30
0.0
 10
31.30601
 20
55.41468
 30
0.0
 10
31.30601
 20
55.41468
 30
0.0
 10
31.30601
 20
55.41468
 30
0.0
 10
31.30601
 20
55.41468
 30
0.0
 10
35.36601
 20
55.41468
 30
0.0
 10
35.36601
 20
55.41468
 30
0.0
 10
35.36601
 20
55.41468
 30
0.0
 10
35.36601
 20
55.41468
 30
0.0
 10
35.36601
 20
55.00468
 30
0.0
 10
35.36601
 20
55.00468
 30
0.0
 10
35.36601
 20
55.00468
 30
0.0
 10
35.36601
 20
55.00468
 30
0.0
 10
31.30601
 20
55.00468
 30
0.0
 10
31.30601
 20
55.00468
 30
0.0
  0
SPLINE
  5
79
330
1F
100
AcDbEntity
  8
layer 1
 62
   250
370
     9
100
AcDbSpline
210
0.0
220
0.0
230
1.0
 70
    11
 71
     3
 72
    20
 73
    16
 74
     0
 42
0.000000001
 43
0.0000000001
 40
0.0
 40
0.0
 40
0.0
 40
0.0
 40
0.2
 40
0.2
 40
0.2
 40
0.2
 40
0.4
 40
0.4
 40
0.4
 40
0.4
 40
0.6
 40
0.6
 40
0.6
 40
0.6
 40
1.0
 40
1.0
 40
1.0
 40
1.0
 10
23.60297
 20
55.00468
 30
0.0
 10
23.60297
 20
55.00468
 30
0.0
 10
23.60297
 20
55.41468
 30
0.0
 10
23.60297
 20
55.41468
 30
0.0
 10
23.60297
 20
55.41468
 30
0.0
 10
23.60297
 20
55.41468
 30
0.0
 10
27.66297
 20
55.41468
 30
0.0
 10
27.66297
 20
55.41468
 30
0.0
 10
27.66297
 20
55.41468
 30
0.0
 10
27.66297
 20
55.41468
 30
0.0
 10
27.66297
 20
55.00468
 30
0.0
 10
27.66297
 20
55.00468
 30
0.0
 10
27.66297
 20
55.00468
 30
0.0
 10
27.66297
 20
55.00468
 30
0.0
 10
23.60297
 20
55.00468
 30
0.0
 10
23.60297
 20
55.00468
 30
0.0
  0
SPLINE
  5
7A
330
1F
100
AcDbEntity
  8
layer 1
 62
   250
370
     9
100
AcDbSpline
210
0.0
220
0.0
230
1.0
 70
    11
 71
     3
 72
    20
 73
    16
 74
     0
 42
0.000000001
 43
0.0000000001
 40
0.0
 40
0.0
 40
0.0
 40
0.0
 40
0.2
 40
0.2
 40
0.2
 40
0.2
 40
0.4
 40
0.4
 40
0.4
 40
0.4
 40
0.6
 40
0.6
 40
0.6
 40
0.6
 40
1.0
 40
1.0
 40
1.0
 40
1.0
 10
15.91614
 20
55.00468
 30
0.0
 10
15.91614
 20
55.00468
 30
0.0
 10
15.91614
 20
55.41468
 30
0.0
 10
15.91614
 20
55.41468
 30
0.0
 10
15.91614
 20
55.41468
 30
0.0
 10
15.91614
 20
55.41468
 30
0.0
 10
19.97614
 20
55.41468
 30
0.0
 10
19.97614
 20
55.41468
 30
0.0
 10
19.97614
 20
55.41468
 30
0.0
 10
19.97614
 20
55.41468
 30
0.0
 10
19.97614
 20
55.00468
 30
0.0
 10
19.97614
 20
55.00468
 30
0.0
 10
19.97614
 20
55.00468
 30
0.0
 10
19.97614
 20
55.00468
 30
0.0
 10
15.91614
 20
55.00468
 30
0.0
 10
15.91614
 20
55.00468
 30
0.0
  0
SPLINE
  5
7B
330
1F
100
AcDbEntity
  8
layer 1
 62
   250
370
     9
100
AcDbSpline
210
0.0
220
0.0
230
1.0
 70
    11
 71
     3
 72
    20
 73
    16
 74
     0
 42
0.000000001
 43
0.0000000001
 40
0.0
 40
0.0
 40
0.0
 40
0.0
 40
0.2
 40
0.2
 40
0.2
 40
0.2
 40
0.4
 40
0.4
 40
0.4
 40
0.4
 40
0.6
 40
0.6
 40
0.6
 40
0.6
 40
1.0
 40
1.0
 40
1.0
 40
1.0
 10
8.22362
 20
55.00468
 30
0.0
 10
8.22362
 20
55.00468
 30
0.0
 10
8.22362
 20
55.41468
 30
0.0
 10
8.22362
 20
55.41468
 30
0.0
 10
8.22362
 20
55.41468
 30
0.0
 10
8.22362
 20
55.41468
 30
0.0
 10
12.28362
 20
55.41468
 30
0.0
 10
12.28362
 20
55.41468
 30
0.0
 10
12.28362
 20
55.41468
 30
0.0
 10
12.28362
 20
55.41468
 30
0.0
 10
12.28362
 20
55.00468
 30
0.0
 10
12.28362
 20
55.00468
 30
0.0
 10
12.28362
 20
55.00468
 30
0.0
 10
12.28362
 20
55.00468
 30
0.0
 10
8.22362
 20
55.00468
 30
0.0
 10
8.22362
 20
55.00468
 30
0.0
  0
SPLINE
  5
7C
330
1F
100
AcDbEntity
  8
layer 1
 62
   250
370
     9
100
AcDbSpline
210
0.0
220
0.0
230
1.0
 70
    11
 71
     3
 72
    20
 73
    16
 74
     0
 42
0.000000001
 43
0.0000000001
 40
0.0
 40
0.0
 40
0.0
 40
0.0
 40
0.2
 40
0.2
 40
0.2
 40
0.2
 40
0.4
 40
0.4
 40
0.4
 40
0.4
 40
0.6
 40
0.6
 40
0.6
 40
0.6
 40
1.0
 40
1.0
 40
1.0
 40
1.0
 10
0.53679
 20
55.00468
 30
0.0
 10
0.53679
 20
55.00468
 30
0.0
 10
0.53679
 20
55.41468
 30
0.0
 10
0.53679
 20
55.41468
 30
0.0
 10
0.53679
 20
55.41468
 30
0.0
 10
0.53679
 20
55.41468
 30
0.0
 10
4.59679
 20
55.41468
 30
0.0
 10
4.59679
 20
55.41468
 30
0.0
 10
4.59679
 20
55.41468
 30
0.0
 10
4.59679
 20
55.41468
 30
0.0
 10
4.59679
 20
55.00468
 30
0.0
 10
4.59679
 20
55.00468
 30
0.0
 10
4.59679
 20
55.00468
 30
0.0
 10
4.59679
 20
55.00468
 30
0.0
 10
0.53679
 20
55.00468
 30
0.0
 10
0.53679
 20
55.00468
 30
0.0
  0
SPLINE
  5
7D
330
1F
100
AcDbEntity
  8
layer 1
 62
   250
370
     9
100
AcDbSpline
210
0.0
220
0.0
230
1.0
 70
    11
 71
     3
 72
    20
 73
    16
 74
     0
 42
0.000000001
 43
0.0000000001
 40
0.0
 40
0.0
 40
0.0
 40
0.0
 40
0.2
 40
0.2
 40
0.2
 40
0.2
 40
0.4
 40
0.4
 40
0.4
 40
0.4
 40
0.6
 40
0.6
 40
0.6
 40
0.6
 40
1.0
 40
1.0
 40
1.0
 40
1.0
 10
85.15216
 20
45.93535
 30
0.0
 10
85.15216
 20
45.93535
 30
0.0
 10
85.15216
 20
46.34535
 30
0.0
 10
85.15216
 20
46.34535
 30
0.0
 10
85.15216
 20
46.34535
 30
0.0
 10
85.15216
 20
46.34535
 30
0.0
 10
89.21216
 20
46.34535
 30
0.0
 10
89.21216
 20
46.34535
 30
0.0
 10
89.21216
 20
46.34535
 30
0.0
 10
89.21216
 20
46.34535
 30
0.0
 10
89.21216
 20
45.93535
 30
0.0
 10
89.21216
 20
45.93535
 30
0.0
 10
89.21216
 20
45.93535
 30
0.0
 10
89.21216
 20
45.93535
 30
0.0
 10
85.15216
 20
45.93535
 30
0.0
 10
85.15216
 20
45.93535
 30
0.0
  0
SPLINE
  5
7E
330
1F
100
AcDbEntity
  8
layer 1
 62
   250
370
     9
100
AcDbSpline
210
0.0
220
0.0
230
1.0
 70
    11
 71
     3
 72
    20
 73
    16
 74
     0
 42
0.000000001
 43
0.0000000001
 40
0.0
 40
0.0
 40
0.0
 40
0.0
 40
0.2
 40
0.2
 40
0.2
 40
0.2
 40
0.4
 40
0.4
 40
0.4
 40
0.4
 40
0.6
 40
0.6
 40
0.6
 40
0.6
 40
1.0
 40
1.0
 40
1.0
 40
1.0
 10
46.70455
 20
45.93535
 30
0.0
 10
46.70455
 20
45.93535
 30
0.0
 10
46.70455
 20
46.34535
 30
0.0
 10
46.70455
 20
46.34535
 30
0.0
 10
46.70455
 20
46.34535
 30
0.0
 10
46.70455
 20
46.34535
 30
0.0
 10
50.76455
 20
46.34535
 30
0.0
 10
50.76455
 20
46.34535
 30
0.0
 10
50.76455
 20
46.34535
 30
0.0
 10
50.76455
 20
46.34535
 30
0.0
 10
50.76455
 20
45.93535
 30
0.0
 10
50.76455
 20
45.93535
 30
0.0
 10
50.76455
 20
45.93535
 30
0.0
 10
50.76455
 20
45.93535
 30
0.0
 10
46.70455
 20
45.93535
 30
0.0
 10
46.70455
 20
45.93535
 30
0.0
  0
SPLINE
  5
7F
330
1F
100
AcDbEntity
  8
layer 1
 62
   250
370
     9
100
AcDbSpline
210
0.0
220
0.0
230
1.0
 70
    11
 71
     3
 72
    20
 73
    16
 74
     0
 42
0.000000001
 43
0.0000000001
 40
0.0
 40
0.0
 40
0.0
 40
0.0
 40
0.2
 40
0.2
 40
0.2
 40
0.2
 40
0.4
 40
0.4
 40
0.4
 40
0.4
 40
0.6
 40
0.6
 40
0.6
 40
0.6
 40
1.0
 40
1.0
 40
1.0
 40
1.0
 10
39.00151
 20
45.93535
 30
0.0
 10
39.00151
 20
45.93535
 30
0.0
 10
39.00151
 20
46.34535
 30
0.0
 10
39.00151
 20
46.34535
 30
0.0
 10
39.00151
 20
46.34535
 30
0.0
 10
39.00151
 20
46.34535
 30
0.0
 10
43.06151
 20
46.34535
 30
0.0
 10
43.06151
 20
46.34535
 30
0.0
 10
43.06151
 20
46.34535
 30
0.0
 10
43.06151
 20
46.34535
 30
0.0
 10
43.06151
 20
45.93535
 30
0.0
 10
43.06151
 20
45.93535
 30
0.0
 10
43.06151
 20
45.93535
 30
0.0
 10
43.06151
 20
45.93535
 30
0.0
 10
39.00151
 20
45.93535
 30
0.0
 10
39.00151
 20
45.93535
 30
0.0
  0
SPLINE
  5
80
330
1F
100
AcDbEntity
  8
layer 1
 62
   250
370
     9
100
AcDbSpline
210
0.0
220
0.0
230
1.0
 70
    11
 71
     3
 72
    20
 73
    16
 74
     0
 42
0.000000001
 43
0.0000000001
 40
0.0
 40
0.0
 40
0.0
 40
0.0
 40
0.2
 40
0.2
 40
0.2
 40
0.2
 40
0.4
 40
0.4
 40
0.4
 40
0.4
 40
0.6
 40
0.6
 40
0.6
 40
0.6
 40
1.0
 40
1.0
 40
1.0
 40
1.0
 10
77.46935
 20
45.93535
 30
0.0
 10
77.46935
 20
45.93535
 30
0.0
 10
77.46935
 20
46.34535
 30
0.0
 10
77.46935
 20
46.34535
 30
0.0
 10
77.46935
 20
46.34535
 30
0.0
 10
77.46935
 20
46.34535
 30
0.0
 10
81.52935
 20
46.34535
 30
0.0
 10
81.52935
 20
46.34535
 30
0.0
 10
81.52935
 20
46.34535
 30
0.0
 10
81.52935
 20
46.34535
 30
0.0
 10
81.52935
 20
45.93535
 30
0.0
 10
81.52935
 20
45.93535
 30
0.0
 10
81.52935
 20
45.93535
 30
0.0
 10
81.52935
 20
45.93535
 30
0.0
 10
77.46935
 20
45.93535
 30
0.0
 10
77.46935
 20
45.93535
 30
0.0
  0
SPLINE
  5
81
330
1F
100
AcDbEntity
  8
layer 1
 62
   250
370
     9
100
AcDbSpline
210
0.0
220
0.0
230
1.0
 70
    11
 71
     3
 72
    20
 73
    16
 74
     0
 42
0.000000001
 43
0.0000000001
 40
0.0
 40
0.0
 40
0.0
 40
0.0
 40
0.2
 40
0.2
 40
0.2
 40
0.2
 40
0.4
 40
0.4
 40
0.4
 40
0.4
 40
0.6
 40
0.6
 40
0.6
 40
0.6
 40
1.0
 40
1.0
 40
1.0
 40
1.0
 10
69.76631
 20
45.93535
 30
0.0
 10
69.76631
 20
45.93535
 30
0.0
 10
69.76631
 20
46.34535
 30
0.0
 10
69.76631
 20
46.34535
 30
0.0
 10
69.76631
 20
46.34535
 30
0.0
 10
69.76631
 20
46.34535
 30
0.0
 10
73.82631
 20
46.34535
 30
0.0
 10
73.82631
 20
46.34535
 30
0.0
 10
73.82631
 20
46.34535
 30
0.0
 10
73.82631
 20
46.34535
 30
0.0
 10
73.82631
 20
45.93535
 30
0.0
 10
73.82631
 20
45.93535
 30
0.0
 10
73.82631
 20
45.93535
 30
0.0
 10
73.82631
 20
45.93535
 30
0.0
 10
69.76631
 20
45.93535
 30
0.0
 10
69.76631
 20
45.93535
 30
0.0
  0
SPLINE
  5
82
330
1F
100
AcDbEntity
  8
layer 1
 62
   250
370
     9
100
AcDbSpline
210
0.0
220
0.0
230
1.0
 70
    11
 71
     3
 72
    20
 73
    16
 74
     0
 42
0.000000001
 43
0.0000000001
 40
0.0
 40
0.0
 40
0.0
 40
0.0
 40
0.2
 40
0.2
 40
0.2
 40
0.2
 40
0.4
 40
0.4
 40
0.4
 40
0.4
 40
0.6
 40
0.6
 40
0.6
 40
0.6
 40
1.0
 40
1.0
 40
1.0
 40
1.0
 10
62.07948
 20
45.93535
 30
0.0
 10
62.07948
 20
45.93535
 30
0.0
 10
62.07948
 20
46.34535
 30
0.0
 10
62.07948
 20
46.34535
 30
0.0
 10
62.07948
 20
46.34535
 30
0.0
 10
62.07948
 20
46.34535
 30
0.0
 10
66.13948
 20
46.34535
 30
0.0
 10
66.13948
 20
46.34535
 30
0.0
 10
66.13948
 20
46.34535
 30
0.0
 10
66.13948
 20
46.34535
 30
0.0
 10
66.13948
 20
45.93535
 30
0.0
 10
66.13948
 20
45.93535
 30
0.0
 10
66.13948
 20
45.93535
 30
0.0
 10
66.13948
 20
45.93535
 30
0.0
 10
62.07948
 20
45.93535
 30
0.0
 10
62.07948
 20
45.93535
 30
0.0
  0
SPLINE
  5
83
330
1F
100
AcDbEntity
  8
layer 1
 62
   250
370
     9
100
AcDbSpline
210
0.0
220
0.0
230
1.0
 70
    11
 71
     3
 72
    20
 73
    16
 74
     0
 42
0.000000001
 43
0.0000000001
 40
0.0
 40
0.0
 40
0.0
 40
0.0
 40
0.2
 40
0.2
 40
0.2
 40
0.2
 40
0.4
 40
0.4
 40
0.4
 40
0.4
 40
0.6
 40
0.6
 40
0.6
 40
0.6
 40
1.0
 40
1.0
 40
1.0
 40
1.0
 10
54.38696
 20
45.93535
 30
0.0
 10
54.38696
 20
45.93535
 30
0.0
 10
54.38696
 20
46.34535
 30
0.0
 10
54.38696
 20
46.34535
 30
0.0
 10
54.38696
 20
46.34535
 30
0.0
 10
54.38696
 20
46.34535
 30
0.0
 10
58.44696
 20
46.34535
 30
0.0
 10
58.44696
 20
46.34535
 30
0.0
 10
58.44696
 20
46.34535
 30
0.0
 10
58.44696
 20
46.34535
 30
0.0
 10
58.44696
 20
45.93535
 30
0.0
 10
58.44696
 20
45.93535
 30
0.0
 10
58.44696
 20
45.93535
 30
0.0
 10
58.44696
 20
45.93535
 30
0.0
 10
54.38696
 20
45.93535
 30
0.0
 10
54.38696
 20
45.93535
 30
0.0
  0
SPLINE
  5
84
330
1F
100
AcDbEntity
  8
layer 1
 62
   250
370
     9
100
AcDbSpline
210
0.0
220
0.0
230
1.0
 70
    11
 71
     3
 72
    20
 73
    16
 74
     0
 42
0.000000001
 43
0.0000000001
 40
0.0
 40
0.0
 40
0.0
 40
0.0
 40
0.2
 40
0.2
 40
0.2
 40
0.2
 40
0.4
 40
0.4
 40
0.4
 40
0.4
 40
0.6
 40
0.6
 40
0.6
 40
0.6
 40
1.0
 40
1.0
 40
1.0
 40
1.0
 10
31.30601
 20
45.93535
 30
0.0
 10
31.30601
 20
45.93535
 30
0.0
 10
31.30601
 20
46.34535
 30
0.0
 10
31.30601
 20
46.34535
 30
0.0
 10
31.30601
 20
46.34535
 30
0.0
 10
31.30601
 20
46.34535
 30
0.0
 10
35.36601
 20
46.34535
 30
0.0
 10
35.36601
 20
46.34535
 30
0.0
 10
35.36601
 20
46.34535
 30
0.0
 10
35.36601
 20
46.34535
 30
0.0
 10
35.36601
 20
45.93535
 30
0.0
 10
35.36601
 20
45.93535
 30
0.0
 10
35.36601
 20
45.93535
 30
0.0
 10
35.36601
 20
45.93535
 30
0.0
 10
31.30601
 20
45.93535
 30
0.0
 10
31.30601
 20
45.93535
 30
0.0
  0
SPLINE
  5
85
330
1F
100
AcDbEntity
  8
layer 1
 62
   250
370
     9
100
AcDbSpline
210
0.0
220
0.0
230
1.0
 70
    11
 71
     3
 72
    20
 73
    16
 74
     0
 42
0.000000001
 43
0.0000000001
 40
0.0
 40
0.0
 40
0.0
 40
0.0
 40
0.2
 40
0.2
 40
0.2
 40
0.2
 40
0.4
 40
0.4
 40
0.4
 40
0.4
 40
0.6
 40
0.6
 40
0.6
 40
0.6
 40
1.0
 40
1.0
 40
1.0
 40
1.0
 10
23.60297
 20
45.93535
 30
0.0
 10
23.60297
 20
45.93535
 30
0.0
 10
23.60297
 20
46.34535
 30
0.0
 10
23.60297
 20
46.34535
 30
0.0
 10
23.60297
 20
46.34535
 30
0.0
 10
23.60297
 20
46.34535
 30
0.0
 10
27.66297
 20
46.34535
 30
0.0
 10
27.66297
 20
46.34535
 30
0.0
 10
27.66297
 20
46.34535
 30
0.0
 10
27.66297
 20
46.34535
 30
0.0
 10
27.66297
 20
45.93535
 30
0.0
 10
27.66297
 20
45.93535
 30
0.0
 10
27.66297
 20
45.93535
 30
0.0
 10
27.66297
 20
45.93535
 30
0.0
 10
23.60297
 20
45.93535
 30
0.0
 10
23.60297
 20
45.93535
 30
0.0
  0
SPLINE
  5
86
330
1F
100
AcDbEntity
  8
layer 1
 62
   250
370
     9
100
AcDbSpline
210
0.0
220
0.0
230
1.0
 70
    11
 71
     3
 72
    20
 73
    16
 74
     0
 42
0.000000001
 43
0.0000000001
 40
0.0
 40
0.0
 40
0.0
 40
0.0
 40
0.2
 40
0.2
 40
0.2
 40
0.2
 40
0.4
 40
0.4
 40
0.4
 40
0.4
 40
0.6
 40
0.6
 40
0.6
 40
0.6
 40
1.0
 40
1.0
 40
1.0
 40
1.0
 10
15.91614
 20
45.93535
 30
0.0
 10
15.91614
 20
45.93535
 30
0.0
 10
15.91614
 20
46.34535
 30
0.0
 10
15.91614
 20
46.34535
 30
0.0
 10
15.91614
 20
46.34535
 30
0.0
 10
15.91614
 20
46.34535
 30
0.0
 10
19.97614
 20
46.34535
 30
0.0
 10
19.97614
 20
46.34535
 30
0.0
 10
19.97614
 20
46.34535
 30
0.0
 10
19.97614
 20
46.34535
 30
0.0
 10
19.97614
 20
45.93535
 30
0.0
 10
19.97614
 20
45.93535
 30
0.0
 10
19.97614
 20
45.93535
 30
0.0
 10
19.97614
 20
45.93535
 30
0.0
 10
15.91614
 20
45.93535
 30
0.0
 10
15.91614
 20
45.93535
 30
0.0
  0
SPLINE
  5
87
330
1F
100
AcDbEntity
  8
layer 1
 62
   250
370
     9
100
AcDbSpline
210
0.0
220
0.0
230
1.0
 70
    11
 71
     3
 72
    20
 73
    16
 74
     0
 42
0.000000001
 43
0.0000000001
 40
0.0
 40
0.0
 40
0.0
 40
0.0
 40
0.2
 40
0.2
 40
0.2
 40
0.2
 40
0.4
 40
0.4
 40
0.4
 40
0.4
 40
0.6
 40
0.6
 40
0.6
 40
0.6
 40
1.0
 40
1.0
 40
1.0
 40
1.0
 10
8.22362
 20
45.93535
 30
0.0
 10
8.22362
 20
45.93535
 30
0.0
 10
8.22362
 20
46.34535
 30
0.0
 10
8.22362
 20
46.34535
 30
0.0
 10
8.22362
 20
46.34535
 30
0.0
 10
8.22362
 20
46.34535
 30
0.0
 10
12.28362
 20
46.34535
 30
0.0
 10
12.28362
 20
46.34535
 30
0.0
 10
12.28362
 20
46.34535
 30
0.0
 10
12.28362
 20
46.34535
 30
0.0
 10
12.28362
 20
45.93535
 30
0.0
 10
12.28362
 20
45.93535
 30
0.0
 10
12.28362
 20
45.93535
 30
0.0
 10
12.28362
 20
45.93535
 30
0.0
 10
8.22362
 20
45.93535
 30
0.0
 10
8.22362
 20
45.93535
 30
0.0
  0
SPLINE
  5
88
330
1F
100
AcDbEntity
  8
layer 1
 62
   250
370
     9
100
AcDbSpline
210
0.0
220
0.0
230
1.0
 70
    11
 71
     3
 72
    20
 73
    16
 74
     0
 42
0.000000001
 43
0.0000000001
 40
0.0
 40
0.0
 40
0.0
 40
0.0
 40
0.2
 40
0.2
 40
0.2
 40
0.2
 40
0.4
 40
0.4
 40
0.4
 40
0.4
 40
0.6
 40
0.6
 40
0.6
 40
0.6
 40
1.0
 40
1.0
 40
1.0
 40
1.0
 10
0.53679
 20
45.93535
 30
0.0
 10
0.53679
 20
45.93535
 30
0.0
 10
0.53679
 20
46.34535
 30
0.0
 10
0.53679
 20
46.34535
 30
0.0
 10
0.53679
 20
46.34535
 30
0.0
 10
0.53679
 20
46.34535
 30
0.0
 10
4.59679
 20
46.34535
 30
0.0
 10
4.59679
 20
46.34535
 30
0.0
 10
4.59679
 20
46.34535
 30
0.0
 10
4.59679
 20
46.34535
 30
0.0
 10
4.59679
 20
45.93535
 30
0.0
 10
4.59679
 20
45.93535
 30
0.0
 10
4.59679
 20
45.93535
 30
0.0
 10
4.59679
 20
45.93535
 30
0.0
 10
0.53679
 20
45.93535
 30
0.0
 10
0.53679
 20
45.93535
 30
0.0
  0
SPLINE
  5
89
330
1F
100
AcDbEntity
  8
layer 1
 62
   250
370
     9
100
AcDbSpline
210
0.0
220
0.0
230
1.0
 70
    11
 71
     3
 72
    20
 73
    16
 74
     0
 42
0.000000001
 43
0.0000000001
 40
0.0
 40
0.0
 40
0.0
 40
0.0
 40
0.2
 40
0.2
 40
0.2
 40
0.2
 40
0.4
 40
0.4
 40
0.4
 40
0.4
 40
0.6
 40
0.6
 40
0.6
 40
0.6
 40
1.0
 40
1.0
 40
1.0
 40
1.0
 10
85.15216
 20
36.87601
 30
0.0
 10
85.15216
 20
36.87601
 30
0.0
 10
85.15216
 20
37.28601
 30
0.0
 10
85.15216
 20
37.28601
 30
0.0
 10
85.15216
 20
37.28601
 30
0.0
 10
85.15216
 20
37.28601
 30
0.0
 10
89.21216
 20
37.28601
 30
0.0
 10
89.21216
 20
37.28601
 30
0.0
 10
89.21216
 20
37.28601
 30
0.0
 10
89.21216
 20
37.28601
 30
0.0
 10
89.21216
 20
36.87601
 30
0.0
 10
89.21216
 20
36.87601
 30
0.0
 10
89.21216
 20
36.87601
 30
0.0
 10
89.21216
 20
36.87601
 30
0.0
 10
85.15216
 20
36.87601
 30
0.0
 10
85.15216
 20
36.87601
 30
0.0
  0
SPLINE
  5
8A
330
1F
100
AcDbEntity
  8
layer 1
 62
   250
370
     9
100
AcDbSpline
210
0.0
220
0.0
230
1.0
 70
    11
 71
     3
 72
    20
 73
    16
 74
     0
 42
0.000000001
 43
0.0000000001
 40
0.0
 40
0.0
 40
0.0
 40
0.0
 40
0.2
 40
0.2
 40
0.2
 40
0.2
 40
0.4
 40
0.4
 40
0.4
 40
0.4
 40
0.6
 40
0.6
 40
0.6
 40
0.6
 40
1.0
 40
1.0
 40
1.0
 40
1.0
 10
46.70455
 20
36.87601
 30
0.0
 10
46.70455
 20
36.87601
 30
0.0
 10
46.70455
 20
37.28601
 30
0.0
 10
46.70455
 20
37.28601
 30
0.0
 10
46.70455
 20
37.28601
 30
0.0
 10
46.70455
 20
37.28601
 30
0.0
 10
50.76455
 20
37.28601
 30
0.0
 10
50.76455
 20
37.28601
 30
0.0
 10
50.76455
 20
37.28601
 30
0.0
 10
50.76455
 20
37.28601
 30
0.0
 10
50.76455
 20
36.87601
 30
0.0
 10
50.76455
 20
36.87601
 30
0.0
 10
50.76455
 20
36.87601
 30
0.0
 10
50.76455
 20
36.87601
 30
0.0
 10
46.70455
 20
36.87601
 30
0.0
 10
46.70455
 20
36.87601
 30
0.0
  0
SPLINE
  5
8B
330
1F
100
AcDbEntity
  8
layer 1
 62
   250
370
     9
100
AcDbSpline
210
0.0
220
0.0
230
1.0
 70
    11
 71
     3
 72
    20
 73
    16
 74
     0
 42
0.000000001
 43
0.0000000001
 40
0.0
 40
0.0
 40
0.0
 40
0.0
 40
0.2
 40
0.2
 40
0.2
 40
0.2
 40
0.4
 40
0.4
 40
0.4
 40
0.4
 40
0.6
 40
0.6
 40
0.6
 40
0.6
 40
1.0
 40
1.0
 40
1.0
 40
1.0
 10
39.00151
 20
36.87601
 30
0.0
 10
39.00151
 20
36.87601
 30
0.0
 10
39.00151
 20
37.28601
 30
0.0
 10
39.00151
 20
37.28601
 30
0.0
 10
39.00151
 20
37.28601
 30
0.0
 10
39.00151
 20
37.28601
 30
0.0
 10
43.06151
 20
37.28601
 30
0.0
 10
43.06151
 20
37.28601
 30
0.0
 10
43.06151
 20
37.28601
 30
0.0
 10
43.06151
 20
37.28601
 30
0.0
 10
43.06151
 20
36.87601
 30
0.0
 10
43.06151
 20
36.87601
 30
0.0
 10
43.06151
 20
36.87601
 30
0.0
 10
43.06151
 20
36.87601
 30
0.0
 10
39.00151
 20
36.87601
 30
0.0
 10
39.00151
 20
36.87601
 30
0.0
  0
SPLINE
  5
8C
330
1F
100
AcDbEntity
  8
layer 1
 62
   250
370
     9
100
AcDbSpline
210
0.0
220
0.0
230
1.0
 70
    11
 71
     3
 72
    20
 73
    16
 74
     0
 42
0.000000001
 43
0.0000000001
 40
0.0
 40
0.0
 40
0.0
 40
0.0
 40
0.2
 40
0.2
 40
0.2
 40
0.2
 40
0.4
 40
0.4
 40
0.4
 40
0.4
 40
0.6
 40
0.6
 40
0.6
 40
0.6
 40
1.0
 40
1.0
 40
1.0
 40
1.0
 10
77.46935
 20
36.87601
 30
0.0
 10
77.46935
 20
36.87601
 30
0.0
 10
77.46935
 20
37.28601
 30
0.0
 10
77.46935
 20
37.28601
 30
0.0
 10
77.46935
 20
37.28601
 30
0.0
 10
77.46935
 20
37.28601
 30
0.0
 10
81.52935
 20
37.28601
 30
0.0
 10
81.52935
 20
37.28601
 30
0.0
 10
81.52935
 20
37.28601
 30
0.0
 10
81.52935
 20
37.28601
 30
0.0
 10
81.52935
 20
36.87601
 30
0.0
 10
81.52935
 20
36.87601
 30
0.0
 10
81.52935
 20
36.87601
 30
0.0
 10
81.52935
 20
36.87601
 30
0.0
 10
77.46935
 20
36.87601
 30
0.0
 10
77.46935
 20
36.87601
 30
0.0
  0
SPLINE
  5
8D
330
1F
100
AcDbEntity
  8
layer 1
 62
   250
370
     9
100
AcDbSpline
210
0.0
220
0.0
230
1.0
 70
    11
 71
     3
 72
    20
 73
    16
 74
     0
 42
0.000000001
 43
0.0000000001
 40
0.0
 40
0.0
 40
0.0
 40
0.0
 40
0.2
 40
0.2
 40
0.2
 40
0.2
 40
0.4
 40
0.4
 40
0.4
 40
0.4
 40
0.6
 40
0.6
 40
0.6
 40
0.6
 40
1.0
 40
1.0
 40
1.0
 40
1.0
 10
69.76631
 20
36.87601
 30
0.0
 10
69.76631
 20
36.87601
 30
0.0
 10
69.76631
 20
37.28601
 30
0.0
 10
69.76631
 20
37.28601
 30
0.0
 10
69.76631
 20
37.28601
 30
0.0
 10
69.76631
 20
37.28601
 30
0.0
 10
73.82631
 20
37.28601
 30
0.0
 10
73.82631
 20
37.28601
 30
0.0
 10
73.82631
 20
37.28601
 30
0.0
 10
73.82631
 20
37.28601
 30
0.0
 10
73.82631
 20
36.87601
 30
0.0
 10
73.82631
 20
36.87601
 30
0.0
 10
73.82631
 20
36.87601
 30
0.0
 10
73.82631
 20
36.87601
 30
0.0
 10
69.76631
 20
36.87601
 30
0.0
 10
69.76631
 20
36.87601
 30
0.0
  0
SPLINE
  5
8E
330
1F
100
AcDbEntity
  8
layer 1
 62
   250
370
     9
100
AcDbSpline
210
0.0
220
0.0
230
1.0
 70
    11
 71
     3
 72
    20
 73
    16
 74
     0
 42
0.000000001
 43
0.0000000001
 40
0.0
 40
0.0
 40
0.0
 40
0.0
 40
0.2
 40
0.2
 40
0.2
 40
0.2
 40
0.4
 40
0.4
 40
0.4
 40
0.4
 40
0.6
 40
0.6
 40
0.6
 40
0.6
 40
1.0
 40
1.0
 40
1.0
 40
1.0
 10
62.07948
 20
36.87601
 30
0.0
 10
62.07948
 20
36.87601
 30
0.0
 10
62.07948
 20
37.28601
 30
0.0
 10
62.07948
 20
37.28601
 30
0.0
 10
62.07948
 20
37.28601
 30
0.0
 10
62.07948
 20
37.28601
 30
0.0
 10
66.13948
 20
37.28601
 30
0.0
 10
66.13948
 20
37.28601
 30
0.0
 10
66.13948
 20
37.28601
 30
0.0
 10
66.13948
 20
37.28601
 30
0.0
 10
66.13948
 20
36.87601
 30
0.0
 10
66.13948
 20
36.87601
 30
0.0
 10
66.13948
 20
36.87601
 30
0.0
 10
66.13948
 20
36.87601
 30
0.0
 10
62.07948
 20
36.87601
 30
0.0
 10
62.07948
 20
36.87601
 30
0.0
  0
SPLINE
  5
8F
330
1F
100
AcDbEntity
  8
layer 1
 62
   250
370
     9
100
AcDbSpline
210
0.0
220
0.0
230
1.0
 70
    11
 71
     3
 72
    20
 73
    16
 74
     0
 42
0.000000001
 43
0.0000000001
 40
0.0
 40
0.0
 40
0.0
 40
0.0
 40
0.2
 40
0.2
 40
0.2
 40
0.2
 40
0.4
 40
0.4
 40
0.4
 40
0.4
 40
0.6
 40
0.6
 40
0.6
 40
0.6
 40
1.0
 40
1.0
 40
1.0
 40
1.0
 10
54.38696
 20
36.87601
 30
0.0
 10
54.38696
 20
36.87601
 30
0.0
 10
54.38696
 20
37.28601
 30
0.0
 10
54.38696
 20
37.28601
 30
0.0
 10
54.38696
 20
37.28601
 30
0.0
 10
54.38696
 20
37.28601
 30
0.0
 10
58.44696
 20
37.28601
 30
0.0
 10
58.44696
 20
37.28601
 30
0.0
 10
58.44696
 20
37.28601
 30
0.0
 10
58.44696
 20
37.28601
 30
0.0
 10
58.44696
 20
36.87601
 30
0.0
 10
58.44696
 20
36.87601
 30
0.0
 10
58.44696
 20
36.87601
 30
0.0
 10
58.44696
 20
36.87601
 30
0.0
 10
54.38696
 20
36.87601
 30
0.0
 10
54.38696
 20
36.87601
 30
0.0
  0
SPLINE
  5
90
330
1F
100
AcDbEntity
  8
layer 1
 62
   250
370
     9
100
AcDbSpline
210
0.0
220
0.0
230
1.0
 70
    11
 71
     3
 72
    20
 73
    16
 74
     0
 42
0.000000001
 43
0.0000000001
 40
0.0
 40
0.0
 40
0.0
 40
0.0
 40
0.2
 40
0.2
 40
0.2
 40
0.2
 40
0.4
 40
0.4
 40
0.4
 40
0.4
 40
0.6
 40
0.6
 40
0.6
 40
0.6
 40
1.0
 40
1.0
 40
1.0
 40
1.0
 10
31.30601
 20
36.87601
 30
0.0
 10
31.30601
 20
36.87601
 30
0.0
 10
31.30601
 20
37.28601
 30
0.0
 10
31.30601
 20
37.28601
 30
0.0
 10
31.30601
 20
37.28601
 30
0.0
 10
31.30601
 20
37.28601
 30
0.0
 10
35.36601
 20
37.28601
 30
0.0
 10
35.36601
 20
37.28601
 30
0.0
 10
35.36601
 20
37.28601
 30
0.0
 10
35.36601
 20
37.28601
 30
0.0
 10
35.36601
 20
36.87601
 30
0.0
 10
35.36601
 20
36.87601
 30
0.0
 10
35.36601
 20
36.87601
 30
0.0
 10
35.36601
 20
36.87601
 30
0.0
 10
31.30601
 20
36.87601
 30
0.0
 10
31.30601
 20
36.87601
 30
0.0
  0
SPLINE
  5
91
330
1F
100
AcDbEntity
  8
layer 1
 62
   250
370
     9
100
AcDbSpline
210
0.0
220
0.0
230
1.0
 70
    11
 71
     3
 72
    20
 73
    16
 74
     0
 42
0.000000001
 43
0.0000000001
 40
0.0
 40
0.0
 40
0.0
 40
0.0
 40
0.2
 40
0.2
 40
0.2
 40
0.2
 40
0.4
 40
0.4
 40
0.4
 40
0.4
 40
0.6
 40
0.6
 40
0.6
 40
0.6
 40
1.0
 40
1.0
 40
1.0
 40
1.0
 10
23.60297
 20
36.87601
 30
0.0
 10
23.60297
 20
36.87601
 30
0.0
 10
23.60297
 20
37.28601
 30
0.0
 10
23.60297
 20
37.28601
 30
0.0
 10
23.60297
 20
37.28601
 30
0.0
 10
23.60297
 20
37.28601
 30
0.0
 10
27.66297
 20
37.28601
 30
0.0
 10
27.66297
 20
37.28601
 30
0.0
 10
27.66297
 20
37.28601
 30
0.0
 10
27.66297
 20
37.28601
 30
0.0
 10
27.66297
 20
36.87601
 30
0.0
 10
27.66297
 20
36.87601
 30
0.0
 10
27.66297
 20
36.87601
 30
0.0
 10
27.66297
 20
36.87601
 30
0.0
 10
23.60297
 20
36.87601
 30
0.0
 10
23.60297
 20
36.87601
 30
0.0
  0
SPLINE
  5
92
330
1F
100
AcDbEntity
  8
layer 1
 62
   250
370
     9
100
AcDbSpline
210
0.0
220
0.0
230
1.0
 70
    11
 71
     3
 72
    20
 73
    16
 74
     0
 42
0.000000001
 43
0.0000000001
 40
0.0
 40
0.0
 40
0.0
 40
0.0
 40
0.2
 40
0.2
 40
0.2
 40
0.2
 40
0.4
 40
0.4
 40
0.4
 40
0.4
 40
0.6
 40
0.6
 40
0.6
 40
0.6
 40
1.0
 40
1.0
 40
1.0
 40
1.0
 10
15.91614
 20
36.87601
 30
0.0
 10
15.91614
 20
36.87601
 30
0.0
 10
15.91614
 20
37.28601
 30
0.0
 10
15.91614
 20
37.28601
 30
0.0
 10
15.91614
 20
37.28601
 30
0.0
 10
15.91614
 20
37.28601
 30
0.0
 10
19.97614
 20
37.28601
 30
0.0
 10
19.97614
 20
37.28601
 30
0.0
 10
19.97614
 20
37.28601
 30
0.0
 10
19.97614
 20
37.28601
 30
0.0
 10
19.97614
 20
36.87601
 30
0.0
 10
19.97614
 20
36.87601
 30
0.0
 10
19.97614
 20
36.87601
 30
0.0
 10
19.97614
 20
36.87601
 30
0.0
 10
15.91614
 20
36.87601
 30
0.0
 10
15.91614
 20
36.87601
 30
0.0
  0
SPLINE
  5
93
330
1F
100
AcDbEntity
  8
layer 1
 62
   250
370
     9
100
AcDbSpline
210
0.0
220
0.0
230
1.0
 70
    11
 71
     3
 72
    20
 73
    16
 74
     0
 42
0.000000001
 43
0.0000000001
 40
0.0
 40
0.0
 40
0.0
 40
0.0
 40
0.2
 40
0.2
 40
0.2
 40
0.2
 40
0.4
 40
0.4
 40
0.4
 40
0.4
 40
0.6
 40
0.6
 40
0.6
 40
0.6
 40
1.0
 40
1.0
 40
1.0
 40
1.0
 10
8.22362
 20
36.87601
 30
0.0
 10
8.22362
 20
36.87601
 30
0.0
 10
8.22362
 20
37.28601
 30
0.0
 10
8.22362
 20
37.28601
 30
0.0
 10
8.22362
 20
37.28601
 30
0.0
 10
8.22362
 20
37.28601
 30
0.0
 10
12.28362
 20
37.28601
 30
0.0
 10
12.28362
 20
37.28601
 30
0.0
 10
12.28362
 20
37.28601
 30
0.0
 10
12.28362
 20
37.28601
 30
0.0
 10
12.28362
 20
36.87601
 30
0.0
 10
12.28362
 20
36.87601
 30
0.0
 10
12.28362
 20
36.87601
 30
0.0
 10
12.28362
 20
36.87601
 30
0.0
 10
8.22362
 20
36.87601
 30
0.0
 10
8.22362
 20
36.87601
 30
0.0
  0
SPLINE
  5
94
330
1F
100
AcDbEntity
  8
layer 1
 62
   250
370
     9
100
AcDbSpline
210
0.0
220
0.0
230
1.0
 70
    11
 71
     3
 72
    20
 73
    16
 74
     0
 42
0.000000001
 43
0.0000000001
 40
0.0
 40
0.0
 40
0.0
 40
0.0
 40
0.2
 40
0.2
 40
0.2
 40
0.2
 40
0.4
 40
0.4
 40
0.4
 40
0.4
 40
0.6
 40
0.6
 40
0.6
 40
0.6
 40
1.0
 40
1.0
 40
1.0
 40
1.0
 10
0.53679
 20
36.87601
 30
0.0
 10
0.53679
 20
36.87601
 30
0.0
 10
0.53679
 20
37.28601
 30
0.0
 10
0.53679
 20
37.28601
 30
0.0
 10
0.53679
 20
37.28601
 30
0.0
 10
0.53679
 20
37.28601
 30
0.0
 10
4.59679
 20
37.28601
 30
0.0
 10
4.59679
 20
37.28601
 30
0.0
 10
4.59679
 20
37.28601
 30
0.0
 10
4.59679
 20
37.28601
 30
0.0
 10
4.59679
 20
36.87601
 30
0.0
 10
4.59679
 20
36.87601
 30
0.0
 10
4.59679
 20
36.87601
 30
0.0
 10
4.59679
 20
36.87601
 30
0.0
 10
0.53679
 20
36.87601
 30
0.0
 10
0.53679
 20
36.87601
 30
0.0
  0
SPLINE
  5
95
330
1F
100
AcDbEntity
  8
layer 1
 62
   250
370
     9
100
AcDbSpline
210
0.0
220
0.0
230
1.0
 70
    11
 71
     3
 72
    20
 73
    16
 74
     0
 42
0.000000001
 43
0.0000000001
 40
0.0
 40
0.0
 40
0.0
 40
0.0
 40
0.2
 40
0.2
 40
0.2
 40
0.2
 40
0.4
 40
0.4
 40
0.4
 40
0.4
 40
0.6
 40
0.6
 40
0.6
 40
0.6
 40
1.0
 40
1.0
 40
1.0
 40
1.0
 10
85.15216
 20
27.80667
 30
0.0
 10
85.15216
 20
27.80667
 30
0.0
 10
85.15216
 20
28.21667
 30
0.0
 10
85.15216
 20
28.21667
 30
0.0
 10
85.15216
 20
28.21667
 30
0.0
 10
85.15216
 20
28.21667
 30
0.0
 10
89.21216
 20
28.21667
 30
0.0
 10
89.21216
 20
28.21667
 30
0.0
 10
89.21216
 20
28.21667
 30
0.0
 10
89.21216
 20
28.21667
 30
0.0
 10
89.21216
 20
27.80667
 30
0.0
 10
89.21216
 20
27.80667
 30
0.0
 10
89.21216
 20
27.80667
 30
0.0
 10
89.21216
 20
27.80667
 30
0.0
 10
85.15216
 20
27.80667
 30
0.0
 10
85.15216
 20
27.80667
 30
0.0
  0
SPLINE
  5
96
330
1F
100
AcDbEntity
  8
layer 1
 62
   250
370
     9
100
AcDbSpline
210
0.0
220
0.0
230
1.0
 70
    11
 71
     3
 72
    20
 73
    16
 74
     0
 42
0.000000001
 43
0.0000000001
 40
0.0
 40
0.0
 40
0.0
 40
0.0
 40
0.2
 40
0.2
 40
0.2
 40
0.2
 40
0.4
 40
0.4
 40
0.4
 40
0.4
 40
0.6
 40
0.6
 40
0.6
 40
0.6
 40
1.0
 40
1.0
 40
1.0
 40
1.0
 10
46.70455
 20
27.80667
 30
0.0
 10
46.70455
 20
27.80667
 30
0.0
 10
46.70455
 20
28.21667
 30
0.0
 10
46.70455
 20
28.21667
 30
0.0
 10
46.70455
 20
28.21667
 30
0.0
 10
46.70455
 20
28.21667
 30
0.0
 10
50.76455
 20
28.21667
 30
0.0
 10
50.76455
 20
28.21667
 30
0.0
 10
50.76455
 20
28.21667
 30
0.0
 10
50.76455
 20
28.21667
 30
0.0
 10
50.76455
 20
27.80667
 30
0.0
 10
50.76455
 20
27.80667
 30
0.0
 10
50.76455
 20
27.80667
 30
0.0
 10
50.76455
 20
27.80667
 30
0.0
 10
46.70455
 20
27.80667
 30
0.0
 10
46.70455
 20
27.80667
 30
0.0
  0
SPLINE
  5
97
330
1F
100
AcDbEntity
  8
layer 1
 62
   250
370
     9
100
AcDbSpline
210
0.0
220
0.0
230
1.0
 70
    11
 71
     3
 72
    20
 73
    16
 74
     0
 42
0.000000001
 43
0.0000000001
 40
0.0
 40
0.0
 40
0.0
 40
0.0
 40
0.2
 40
0.2
 40
0.2
 40
0.2
 40
0.4
 40
0.4
 40
0.4
 40
0.4
 40
0.6
 40
0.6
 40
0.6
 40
0.6
 40
1.0
 40
1.0
 40
1.0
 40
1.0
 10
39.00151
 20
27.80667
 30
0.0
 10
39.00151
 20
27.80667
 30
0.0
 10
39.00151
 20
28.21667
 30
0.0
 10
39.00151
 20
28.21667
 30
0.0
 10
39.00151
 20
28.21667
 30
0.0
 10
39.00151
 20
28.21667
 30
0.0
 10
43.06151
 20
28.21667
 30
0.0
 10
43.06151
 20
28.21667
 30
0.0
 10
43.06151
 20
28.21667
 30
0.0
 10
43.06151
 20
28.21667
 30
0.0
 10
43.06151
 20
27.80667
 30
0.0
 10
43.06151
 20
27.80667
 30
0.0
 10
43.06151
 20
27.80667
 30
0.0
 10
43.06151
 20
27.80667
 30
0.0
 10
39.00151
 20
27.80667
 30
0.0
 10
39.00151
 20
27.80667
 30
0.0
  0
SPLINE
  5
98
330
1F
100
AcDbEntity
  8
layer 1
 62
   250
370
     9
100
AcDbSpline
210
0.0
220
0.0
230
1.0
 70
    11
 71
     3
 72
    20
 73
    16
 74
     0
 42
0.000000001
 43
0.0000000001
 40
0.0
 40
0.0
 40
0.0
 40
0.0
 40
0.2
 40
0.2
 40
0.2
 40
0.2
 40
0.4
 40
0.4
 40
0.4
 40
0.4
 40
0.6
 40
0.6
 40
0.6
 40
0.6
 40
1.0
 40
1.0
 40
1.0
 40
1.0
 10
77.46935
 20
27.80667
 30
0.0
 10
77.46935
 20
27.80667
 30
0.0
 10
77.46935
 20
28.21667
 30
0.0
 10
77.46935
 20
28.21667
 30
0.0
 10
77.46935
 20
28.21667
 30
0.0
 10
77.46935
 20
28.21667
 30
0.0
 10
81.52935
 20
28.21667
 30
0.0
 10
81.52935
 20
28.21667
 30
0.0
 10
81.52935
 20
28.21667
 30
0.0
 10
81.52935
 20
28.21667
 30
0.0
 10
81.52935
 20
27.80667
 30
0.0
 10
81.52935
 20
27.80667
 30
0.0
 10
81.52935
 20
27.80667
 30
0.0
 10
81.52935
 20
27.80667
 30
0.0
 10
77.46935
 20
27.80667
 30
0.0
 10
77.46935
 20
27.80667
 30
0.0
  0
SPLINE
  5
99
330
1F
100
AcDbEntity
  8
layer 1
 62
   250
370
     9
100
AcDbSpline
210
0.0
220
0.0
230
1.0
 70
    11
 71
     3
 72
    20
 73
    16
 74
     0
 42
0.000000001
 43
0.0000000001
 40
0.0
 40
0.0
 40
0.0
 40
0.0
 40
0.2
 40
0.2
 40
0.2
 40
0.2
 40
0.4
 40
0.4
 40
0.4
 40
0.4
 40
0.6
 40
0.6
 40
0.6
 40
0.6
 40
1.0
 40
1.0
 40
1.0
 40
1.0
 10
69.76631
 20
27.80667
 30
0.0
 10
69.76631
 20
27.80667
 30
0.0
 10
69.76631
 20
28.21667
 30
0.0
 10
69.76631
 20
28.21667
 30
0.0
 10
69.76631
 20
28.21667
 30
0.0
 10
69.76631
 20
28.21667
 30
0.0
 10
73.82631
 20
28.21667
 30
0.0
 10
73.82631
 20
28.21667
 30
0.0
 10
73.82631
 20
28.21667
 30
0.0
 10
73.82631
 20
28.21667
 30
0.0
 10
73.82631
 20
27.80667
 30
0.0
 10
73.82631
 20
27.80667
 30
0.0
 10
73.82631
 20
27.80667
 30
0.0
 10
73.82631
 20
27.80667
 30
0.0
 10
69.76631
 20
27.80667
 30
0.0
 10
69.76631
 20
27.80667
 30
0.0
  0
SPLINE
  5
9A
330
1F
100
AcDbEntity
  8
layer 1
 62
   250
370
     9
100
AcDbSpline
210
0.0
220
0.0
230
1.0
 70
    11
 71
     3
 72
    20
 73
    16
 74
     0
 42
0.000000001
 43
0.0000000001
 40
0.0
 40
0.0
 40
0.0
 40
0.0
 40
0.2
 40
0.2
 40
0.2
 40
0.2
 40
0.4
 40
0.4
 40
0.4
 40
0.4
 40
0.6
 40
0.6
 40
0.6
 40
0.6
 40
1.0
 40
1.0
 40
1.0
 40
1.0
 10
62.07948
 20
27.80667
 30
0.0
 10
62.07948
 20
27.80667
 30
0.0
 10
62.07948
 20
28.21667
 30
0.0
 10
62.07948
 20
28.21667
 30
0.0
 10
62.07948
 20
28.21667
 30
0.0
 10
62.07948
 20
28.21667
 30
0.0
 10
66.13948
 20
28.21667
 30
0.0
 10
66.13948
 20
28.21667
 30
0.0
 10
66.13948
 20
28.21667
 30
0.0
 10
66.13948
 20
28.21667
 30
0.0
 10
66.13948
 20
27.80667
 30
0.0
 10
66.13948
 20
27.80667
 30
0.0
 10
66.13948
 20
27.80667
 30
0.0
 10
66.13948
 20
27.80667
 30
0.0
 10
62.07948
 20
27.80667
 30
0.0
 10
62.07948
 20
27.80667
 30
0.0
  0
SPLINE
  5
9B
330
1F
100
AcDbEntity
  8
layer 1
 62
   250
370
     9
100
AcDbSpline
210
0.0
220
0.0
230
1.0
 70
    11
 71
     3
 72
    20
 73
    16
 74
     0
 42
0.000000001
 43
0.0000000001
 40
0.0
 40
0.0
 40
0.0
 40
0.0
 40
0.2
 40
0.2
 40
0.2
 40
0.2
 40
0.4
 40
0.4
 40
0.4
 40
0.4
 40
0.6
 40
0.6
 40
0.6
 40
0.6
 40
1.0
 40
1.0
 40
1.0
 40
1.0
 10
54.38696
 20
27.80667
 30
0.0
 10
54.38696
 20
27.80667
 30
0.0
 10
54.38696
 20
28.21667
 30
0.0
 10
54.38696
 20
28.21667
 30
0.0
 10
54.38696
 20
28.21667
 30
0.0
 10
54.38696
 20
28.21667
 30
0.0
 10
58.44696
 20
28.21667
 30
0.0
 10
58.44696
 20
28.21667
 30
0.0
 10
58.44696
 20
28.21667
 30
0.0
 10
58.44696
 20
28.21667
 30
0.0
 10
58.44696
 20
27.80667
 30
0.0
 10
58.44696
 20
27.80667
 30
0.0
 10
58.44696
 20
27.80667
 30
0.0
 10
58.44696
 20
27.80667
 30
0.0
 10
54.38696
 20
27.80667
 30
0.0
 10
54.38696
 20
27.80667
 30
0.0
  0
SPLINE
  5
9C
330
1F
100
AcDbEntity
  8
layer 1
 62
   250
370
     9
100
AcDbSpline
210
0.0
220
0.0
230
1.0
 70
    11
 71
     3
 72
    20
 73
    16
 74
     0
 42
0.000000001
 43
0.0000000001
 40
0.0
 40
0.0
 40
0.0
 40
0.0
 40
0.2
 40
0.2
 40
0.2
 40
0.2
 40
0.4
 40
0.4
 40
0.4
 40
0.4
 40
0.6
 40
0.6
 40
0.6
 40
0.6
 40
1.0
 40
1.0
 40
1.0
 40
1.0
 10
31.30601
 20
27.80667
 30
0.0
 10
31.30601
 20
27.80667
 30
0.0
 10
31.30601
 20
28.21667
 30
0.0
 10
31.30601
 20
28.21667
 30
0.0
 10
31.30601
 20
28.21667
 30
0.0
 10
31.30601
 20
28.21667
 30
0.0
 10
35.36601
 20
28.21667
 30
0.0
 10
35.36601
 20
28.21667
 30
0.0
 10
35.36601
 20
28.21667
 30
0.0
 10
35.36601
 20
28.21667
 30
0.0
 10
35.36601
 20
27.80667
 30
0.0
 10
35.36601
 20
27.80667
 30
0.0
 10
35.36601
 20
27.80667
 30
0.0
 10
35.36601
 20
27.80667
 30
0.0
 10
31.30601
 20
27.80667
 30
0.0
 10
31.30601
 20
27.80667
 30
0.0
  0
SPLINE
  5
9D
330
1F
100
AcDbEntity
  8
layer 1
 62
   250
370
     9
100
AcDbSpline
210
0.0
220
0.0
230
1.0
 70
    11
 71
     3
 72
    20
 73
    16
 74
     0
 42
0.000000001
 43
0.0000000001
 40
0.0
 40
0.0
 40
0.0
 40
0.0
 40
0.2
 40
0.2
 40
0.2
 40
0.2
 40
0.4
 40
0.4
 40
0.4
 40
0.4
 40
0.6
 40
0.6
 40
0.6
 40
0.6
 40
1.0
 40
1.0
 40
1.0
 40
1.0
 10
23.60297
 20
27.80667
 30
0.0
 10
23.60297
 20
27.80667
 30
0.0
 10
23.60297
 20
28.21667
 30
0.0
 10
23.60297
 20
28.21667
 30
0.0
 10
23.60297
 20
28.21667
 30
0.0
 10
23.60297
 20
28.21667
 30
0.0
 10
27.66297
 20
28.21667
 30
0.0
 10
27.66297
 20
28.21667
 30
0.0
 10
27.66297
 20
28.21667
 30
0.0
 10
27.66297
 20
28.21667
 30
0.0
 10
27.66297
 20
27.80667
 30
0.0
 10
27.66297
 20
27.80667
 30
0.0
 10
27.66297
 20
27.80667
 30
0.0
 10
27.66297
 20
27.80667
 30
0.0
 10
23.60297
 20
27.80667
 30
0.0
 10
23.60297
 20
27.80667
 30
0.0
  0
SPLINE
  5
9E
330
1F
100
AcDbEntity
  8
layer 1
 62
   250
370
     9
100
AcDbSpline
210
0.0
220
0.0
230
1.0
 70
    11
 71
     3
 72
    20
 73
    16
 74
     0
 42
0.000000001
 43
0.0000000001
 40
0.0
 40
0.0
 40
0.0
 40
0.0
 40
0.2
 40
0.2
 40
0.2
 40
0.2
 40
0.4
 40
0.4
 40
0.4
 40
0.4
 40
0.6
 40
0.6
 40
0.6
 40
0.6
 40
1.0
 40
1.0
 40
1.0
 40
1.0
 10
15.91614
 20
27.80667
 30
0.0
 10
15.91614
 20
27.80667
 30
0.0
 10
15.91614
 20
28.21667
 30
0.0
 10
15.91614
 20
28.21667
 30
0.0
 10
15.91614
 20
28.21667
 30
0.0
 10
15.91614
 20
28.21667
 30
0.0
 10
19.97614
 20
28.21667
 30
0.0
 10
19.97614
 20
28.21667
 30
0.0
 10
19.97614
 20
28.21667
 30
0.0
 10
19.97614
 20
28.21667
 30
0.0
 10
19.97614
 20
27.80667
 30
0.0
 10
19.97614
 20
27.80667
 30
0.0
 10
19.97614
 20
27.80667
 30
0.0
 10
19.97614
 20
27.80667
 30
0.0
 10
15.91614
 20
27.80667
 30
0.0
 10
15.91614
 20
27.80667
 30
0.0
  0
SPLINE
  5
9F
330
1F
100
AcDbEntity
  8
layer 1
 62
   250
370
     9
100
AcDbSpline
210
0.0
220
0.0
230
1.0
 70
    11
 71
     3
 72
    20
 73
    16
 74
     0
 42
0.000000001
 43
0.0000000001
 40
0.0
 40
0.0
 40
0.0
 40
0.0
 40
0.2
 40
0.2
 40
0.2
 40
0.2
 40
0.4
 40
0.4
 40
0.4
 40
0.4
 40
0.6
 40
0.6
 40
0.6
 40
0.6
 40
1.0
 40
1.0
 40
1.0
 40
1.0
 10
8.22362
 20
27.80667
 30
0.0
 10
8.22362
 20
27.80667
 30
0.0
 10
8.22362
 20
28.21667
 30
0.0
 10
8.22362
 20
28.21667
 30
0.0
 10
8.22362
 20
28.21667
 30
0.0
 10
8.22362
 20
28.21667
 30
0.0
 10
12.28362
 20
28.21667
 30
0.0
 10
12.28362
 20
28.21667
 30
0.0
 10
12.28362
 20
28.21667
 30
0.0
 10
12.28362
 20
28.21667
 30
0.0
 10
12.28362
 20
27.80667
 30
0.0
 10
12.28362
 20
27.80667
 30
0.0
 10
12.28362
 20
27.80667
 30
0.0
 10
12.28362
 20
27.80667
 30
0.0
 10
8.22362
 20
27.80667
 30
0.0
 10
8.22362
 20
27.80667
 30
0.0
  0
SPLINE
  5
A0
330
1F
100
AcDbEntity
  8
layer 1
 62
   250
370
     9
100
AcDbSpline
210
0.0
220
0.0
230
1.0
 70
    11
 71
     3
 72
    20
 73
    16
 74
     0
 42
0.000000001
 43
0.0000000001
 40
0.0
 40
0.0
 40
0.0
 40
0.0
 40
0.2
 40
0.2
 40
0.2
 40
0.2
 40
0.4
 40
0.4
 40
0.4
 40
0.4
 40
0.6
 40
0.6
 40
0.6
 40
0.6
 40
1.0
 40
1.0
 40
1.0
 40
1.0
 10
0.53679
 20
27.80667
 30
0.0
 10
0.53679
 20
27.80667
 30
0.0
 10
0.53679
 20
28.21667
 30
0.0
 10
0.53679
 20
28.21667
 30
0.0
 10
0.53679
 20
28.21667
 30
0.0
 10
0.53679
 20
28.21667
 30
0.0
 10
4.59679
 20
28.21667
 30
0.0
 10
4.59679
 20
28.21667
 30
0.0
 10
4.59679
 20
28.21667
 30
0.0
 10
4.59679
 20
28.21667
 30
0.0
 10
4.59679
 20
27.80667
 30
0.0
 10
4.59679
 20
27.80667
 30
0.0
 10
4.59679
 20
27.80667
 30
0.0
 10
4.59679
 20
27.80667
 30
0.0
 10
0.53679
 20
27.80667
 30
0.0
 10
0.53679
 20
27.80667
 30
0.0
  0
SPLINE
  5
A1
330
1F
100
AcDbEntity
  8
layer 1
 62
   250
370
     9
100
AcDbSpline
210
0.0
220
0.0
230
1.0
 70
    11
 71
     3
 72
    20
 73
    16
 74
     0
 42
0.000000001
 43
0.0000000001
 40
0.0
 40
0.0
 40
0.0
 40
0.0
 40
0.2
 40
0.2
 40
0.2
 40
0.2
 40
0.4
 40
0.4
 40
0.4
 40
0.4
 40
0.6
 40
0.6
 40
0.6
 40
0.6
 40
1.0
 40
1.0
 40
1.0
 40
1.0
 10
77.46935
 20
18.66266
 30
0.0
 10
77.46935
 20
18.66266
 30
0.0
 10
77.46935
 20
19.07266
 30
0.0
 10
77.46935
 20
19.07266
 30
0.0
 10
77.46935
 20
19.07266
 30
0.0
 10
77.46935
 20
19.07266
 30
0.0
 10
81.52935
 20
19.07266
 30
0.0
 10
81.52935
 20
19.07266
 30
0.0
 10
81.52935
 20
19.07266
 30
0.0
 10
81.52935
 20
19.07266
 30
0.0
 10
81.52935
 20
18.66266
 30
0.0
 10
81.52935
 20
18.66266
 30
0.0
 10
81.52935
 20
18.66266
 30
0.0
 10
81.52935
 20
18.66266
 30
0.0
 10
77.46935
 20
18.66266
 30
0.0
 10
77.46935
 20
18.66266
 30
0.0
  0
SPLINE
  5
A2
330
1F
100
AcDbEntity
  8
layer 1
 62
   250
370
     9
100
AcDbSpline
210
0.0
220
0.0
230
1.0
 70
    11
 71
     3
 72
    20
 73
    16
 74
     0
 42
0.000000001
 43
0.0000000001
 40
0.0
 40
0.0
 40
0.0
 40
0.0
 40
0.2
 40
0.2
 40
0.2
 40
0.2
 40
0.4
 40
0.4
 40
0.4
 40
0.4
 40
0.6
 40
0.6
 40
0.6
 40
0.6
 40
1.0
 40
1.0
 40
1.0
 40
1.0
 10
69.76631
 20
18.66266
 30
0.0
 10
69.76631
 20
18.66266
 30
0.0
 10
69.76631
 20
19.07266
 30
0.0
 10
69.76631
 20
19.07266
 30
0.0
 10
69.76631
 20
19.07266
 30
0.0
 10
69.76631
 20
19.07266
 30
0.0
 10
73.82631
 20
19.07266
 30
0.0
 10
73.82631
 20
19.07266
 30
0.0
 10
73.82631
 20
19.07266
 30
0.0
 10
73.82631
 20
19.07266
 30
0.0
 10
73.82631
 20
18.66266
 30
0.0
 10
73.82631
 20
18.66266
 30
0.0
 10
73.82631
 20
18.66266
 30
0.0
 10
73.82631
 20
18.66266
 30
0.0
 10
69.76631
 20
18.66266
 30
0.0
 10
69.76631
 20
18.66266
 30
0.0
  0
SPLINE
  5
A3
330
1F
100
AcDbEntity
  8
layer 1
 62
   250
370
     9
100
AcDbSpline
210
0.0
220
0.0
230
1.0
 70
    11
 71
     3
 72
    20
 73
    16
 74
     0
 42
0.000000001
 43
0.0000000001
 40
0.0
 40
0.0
 40
0.0
 40
0.0
 40
0.2
 40
0.2
 40
0.2
 40
0.2
 40
0.4
 40
0.4
 40
0.4
 40
0.4
 40
0.6
 40
0.6
 40
0.6
 40
0.6
 40
1.0
 40
1.0
 40
1.0
 40
1.0
 10
62.07948
 20
18.66266
 30
0.0
 10
62.07948
 20
18.66266
 30
0.0
 10
62.07948
 20
19.07266
 30
0.0
 10
62.07948
 20
19.07266
 30
0.0
 10
62.07948
 20
19.07266
 30
0.0
 10
62.07948
 20
19.07266
 30
0.0
 10
66.13948
 20
19.07266
 30
0.0
 10
66.13948
 20
19.07266
 30
0.0
 10
66.13948
 20
19.07266
 30
0.0
 10
66.13948
 20
19.07266
 30
0.0
 10
66.13948
 20
18.66266
 30
0.0
 10
66.13948
 20
18.66266
 30
0.0
 10
66.13948
 20
18.66266
 30
0.0
 10
66.13948
 20
18.66266
 30
0.0
 10
62.07948
 20
18.66266
 30
0.0
 10
62.07948
 20
18.66266
 30
0.0
  0
SPLINE
  5
A4
330
1F
100
AcDbEntity
  8
layer 1
 62
   250
370
     9
100
AcDbSpline
210
0.0
220
0.0
230
1.0
 70
    11
 71
     3
 72
    20
 73
    16
 74
     0
 42
0.000000001
 43
0.0000000001
 40
0.0
 40
0.0
 40
0.0
 40
0.0
 40
0.2
 40
0.2
 40
0.2
 40
0.2
 40
0.4
 40
0.4
 40
0.4
 40
0.4
 40
0.6
 40
0.6
 40
0.6
 40
0.6
 40
1.0
 40
1.0
 40
1.0
 40
1.0
 10
54.38696
 20
18.66266
 30
0.0
 10
54.38696
 20
18.66266
 30
0.0
 10
54.38696
 20
19.07266
 30
0.0
 10
54.38696
 20
19.07266
 30
0.0
 10
54.38696
 20
19.07266
 30
0.0
 10
54.38696
 20
19.07266
 30
0.0
 10
58.44696
 20
19.07266
 30
0.0
 10
58.44696
 20
19.07266
 30
0.0
 10
58.44696
 20
19.07266
 30
0.0
 10
58.44696
 20
19.07266
 30
0.0
 10
58.44696
 20
18.66266
 30
0.0
 10
58.44696
 20
18.66266
 30
0.0
 10
58.44696
 20
18.66266
 30
0.0
 10
58.44696
 20
18.66266
 30
0.0
 10
54.38696
 20
18.66266
 30
0.0
 10
54.38696
 20
18.66266
 30
0.0
  0
SPLINE
  5
A5
330
1F
100
AcDbEntity
  8
layer 1
 62
   250
370
     9
100
AcDbSpline
210
0.0
220
0.0
230
1.0
 70
    11
 71
     3
 72
    20
 73
    16
 74
     0
 42
0.000000001
 43
0.0000000001
 40
0.0
 40
0.0
 40
0.0
 40
0.0
 40
0.2
 40
0.2
 40
0.2
 40
0.2
 40
0.4
 40
0.4
 40
0.4
 40
0.4
 40
0.6
 40
0.6
 40
0.6
 40
0.6
 40
1.0
 40
1.0
 40
1.0
 40
1.0
 10
31.30601
 20
18.66266
 30
0.0
 10
31.30601
 20
18.66266
 30
0.0
 10
31.30601
 20
19.07266
 30
0.0
 10
31.30601
 20
19.07266
 30
0.0
 10
31.30601
 20
19.07266
 30
0.0
 10
31.30601
 20
19.07266
 30
0.0
 10
35.36601
 20
19.07266
 30
0.0
 10
35.36601
 20
19.07266
 30
0.0
 10
35.36601
 20
19.07266
 30
0.0
 10
35.36601
 20
19.07266
 30
0.0
 10
35.36601
 20
18.66266
 30
0.0
 10
35.36601
 20
18.66266
 30
0.0
 10
35.36601
 20
18.66266
 30
0.0
 10
35.36601
 20
18.66266
 30
0.0
 10
31.30601
 20
18.66266
 30
0.0
 10
31.30601
 20
18.66266
 30
0.0
  0
SPLINE
  5
A6
330
1F
100
AcDbEntity
  8
layer 1
 62
   250
370
     9
100
AcDbSpline
210
0.0
220
0.0
230
1.0
 70
    11
 71
     3
 72
    20
 73
    16
 74
     0
 42
0.000000001
 43
0.0000000001
 40
0.0
 40
0.0
 40
0.0
 40
0.0
 40
0.2
 40
0.2
 40
0.2
 40
0.2
 40
0.4
 40
0.4
 40
0.4
 40
0.4
 40
0.6
 40
0.6
 40
0.6
 40
0.6
 40
1.0
 40
1.0
 40
1.0
 40
1.0
 10
23.60297
 20
18.66266
 30
0.0
 10
23.60297
 20
18.66266
 30
0.0
 10
23.60297
 20
19.07266
 30
0.0
 10
23.60297
 20
19.07266
 30
0.0
 10
23.60297
 20
19.07266
 30
0.0
 10
23.60297
 20
19.07266
 30
0.0
 10
27.66297
 20
19.07266
 30
0.0
 10
27.66297
 20
19.07266
 30
0.0
 10
27.66297
 20
19.07266
 30
0.0
 10
27.66297
 20
19.07266
 30
0.0
 10
27.66297
 20
18.66266
 30
0.0
 10
27.66297
 20
18.66266
 30
0.0
 10
27.66297
 20
18.66266
 30
0.0
 10
27.66297
 20
18.66266
 30
0.0
 10
23.60297
 20
18.66266
 30
0.0
 10
23.60297
 20
18.66266
 30
0.0
  0
SPLINE
  5
A7
330
1F
100
AcDbEntity
  8
layer 1
 62
   250
370
     9
100
AcDbSpline
210
0.0
220
0.0
230
1.0
 70
    11
 71
     3
 72
    20
 73
    16
 74
     0
 42
0.000000001
 43
0.0000000001
 40
0.0
 40
0.0
 40
0.0
 40
0.0
 40
0.2
 40
0.2
 40
0.2
 40
0.2
 40
0.4
 40
0.4
 40
0.4
 40
0.4
 40
0.6
 40
0.6
 40
0.6
 40
0.6
 40
1.0
 40
1.0
 40
1.0
 40
1.0
 10
15.91614
 20
18.66266
 30
0.0
 10
15.91614
 20
18.66266
 30
0.0
 10
15.91614
 20
19.07266
 30
0.0
 10
15.91614
 20
19.07266
 30
0.0
 10
15.91614
 20
19.07266
 30
0.0
 10
15.91614
 20
19.07266
 30
0.0
 10
19.97614
 20
19.07266
 30
0.0
 10
19.97614
 20
19.07266
 30
0.0
 10
19.97614
 20
19.07266
 30
0.0
 10
19.97614
 20
19.07266
 30
0.0
 10
19.97614
 20
18.66266
 30
0.0
 10
19.97614
 20
18.66266
 30
0.0
 10
19.97614
 20
18.66266
 30
0.0
 10
19.97614
 20
18.66266
 30
0.0
 10
15.91614
 20
18.66266
 30
0.0
 10
15.91614
 20
18.66266
 30
0.0
  0
SPLINE
  5
A8
330
1F
100
AcDbEntity
  8
layer 1
 62
   250
370
     9
100
AcDbSpline
210
0.0
220
0.0
230
1.0
 70
    11
 71
     3
 72
    20
 73
    16
 74
     0
 42
0.000000001
 43
0.0000000001
 40
0.0
 40
0.0
 40
0.0
 40
0.0
 40
0.2
 40
0.2
 40
0.2
 40
0.2
 40
0.4
 40
0.4
 40
0.4
 40
0.4
 40
0.6
 40
0.6
 40
0.6
 40
0.6
 40
1.0
 40
1.0
 40
1.0
 40
1.0
 10
8.22362
 20
18.66266
 30
0.0
 10
8.22362
 20
18.66266
 30
0.0
 10
8.22362
 20
19.07266
 30
0.0
 10
8.22362
 20
19.07266
 30
0.0
 10
8.22362
 20
19.07266
 30
0.0
 10
8.22362
 20
19.07266
 30
0.0
 10
12.28362
 20
19.07266
 30
0.0
 10
12.28362
 20
19.07266
 30
0.0
 10
12.28362
 20
19.07266
 30
0.0
 10
12.28362
 20
19.07266
 30
0.0
 10
12.28362
 20
18.66266
 30
0.0
 10
12.28362
 20
18.66266
 30
0.0
 10
12.28362
 20
18.66266
 30
0.0
 10
12.28362
 20
18.66266
 30
0.0
 10
8.22362
 20
18.66266
 30
0.0
 10
8.22362
 20
18.66266
 30
0.0
  0
SPLINE
  5
A9
330
1F
100
AcDbEntity
  8
layer 1
 62
   242
370
     9
100
AcDbSpline
210
0.0
220
0.0
230
1.0
 70
    11
 71
     3
 72
    20
 73
    16
 74
     0
 42
0.000000001
 43
0.0000000001
 40
0.0
 40
0.0
 40
0.0
 40
0.0
 40
0.2
 40
0.2
 40
0.2
 40
0.2
 40
0.4
 40
0.4
 40
0.4
 40
0.4
 40
0.6
 40
0.6
 40
0.6
 40
0.6
 40
1.0
 40
1.0
 40
1.0
 40
1.0
 10
-23.31387
 20
62.38876
 30
0.0
 10
-23.31387
 20
62.38876
 30
0.0
 10
-27.31387
 20
62.38876
 30
0.0
 10
-27.31387
 20
62.38876
 30
0.0
 10
-27.31387
 20
62.38876
 30
0.0
 10
-27.31387
 20
62.38876
 30
0.0
 10
-27.31387
 20
61.96876
 30
0.0
 10
-27.31387
 20
61.96876
 30
0.0
 10
-27.31387
 20
61.96876
 30
0.0
 10
-27.31387
 20
61.96876
 30
0.0
 10
-23.31387
 20
61.96876
 30
0.0
 10
-23.31387
 20
61.96876
 30
0.0
 10
-23.31387
 20
61.96876
 30
0.0
 10
-23.31387
 20
61.96876
 30
0.0
 10
-23.31387
 20
62.38876
 30
0.0
 10
-23.31387
 20
62.38876
 30
0.0
  0
SPLINE
  5
AA
330
1F
100
AcDbEntity
  8
layer 1
 62
   242
370
     9
100
AcDbSpline
210
0.0
220
0.0
230
1.0
 70
    11
 71
     3
 72
    20
 73
    16
 74
     0
 42
0.000000001
 43
0.0000000001
 40
0.0
 40
0.0
 40
0.0
 40
0.0
 40
0.2
 40
0.2
 40
0.2
 40
0.2
 40
0.4
 40
0.4
 40
0.4
 40
0.4
 40
0.6
 40
0.6
 40
0.6
 40
0.6
 40
1.0
 40
1.0
 40
1.0
 40
1.0
 10
-23.31387
 20
71.4546
 30
0.0
 10
-23.31387
 20
71.4546
 30
0.0
 10
-27.31387
 20
71.4546
 30
0.0
 10
-27.31387
 20
71.4546
 30
0.0
 10
-27.31387
 20
71.4546
 30
0.0
 10
-27.31387
 20
71.4546
 30
0.0
 10
-27.31387
 20
71.0346
 30
0.0
 10
-27.31387
 20
71.0346
 30
0.0
 10
-27.31387
 20
71.0346
 30
0.0
 10
-27.31387
 20
71.0346
 30
0.0
 10
-23.31387
 20
71.0346
 30
0.0
 10
-23.31387
 20
71.0346
 30
0.0
 10
-23.31387
 20
71.0346
 30
0.0
 10
-23.31387
 20
71.0346
 30
0.0
 10
-23.31387
 20
71.4546
 30
0.0
 10
-23.31387
 20
71.4546
 30
0.0
  0
SPLINE
  5
AB
330
1F
100
AcDbEntity
  8
layer 1
 62
   242
370
     9
100
AcDbSpline
210
0.0
220
0.0
230
1.0
 70
    11
 71
     3
 72
    20
 73
    16
 74
     0
 42
0.000000001
 43
0.0000000001
 40
0.0
 40
0.0
 40
0.0
 40
0.0
 40
0.2
 40
0.2
 40
0.2
 40
0.2
 40
0.4
 40
0.4
 40
0.4
 40
0.4
 40
0.6
 40
0.6
 40
0.6
 40
0.6
 40
1.0
 40
1.0
 40
1.0
 40
1.0
 10
-23.31387
 20
80.51708
 30
0.0
 10
-23.31387
 20
80.51708
 30
0.0
 10
-27.31387
 20
80.51708
 30
0.0
 10
-27.31387
 20
80.51708
 30
0.0
 10
-27.31387
 20
80.51708
 30
0.0
 10
-27.31387
 20
80.51708
 30
0.0
 10
-27.31387
 20
80.09708
 30
0.0
 10
-27.31387
 20
80.09708
 30
0.0
 10
-27.31387
 20
80.09708
 30
0.0
 10
-27.31387
 20
80.09708
 30
0.0
 10
-23.31387
 20
80.09708
 30
0.0
 10
-23.31387
 20
80.09708
 30
0.0
 10
-23.31387
 20
80.09708
 30
0.0
 10
-23.31387
 20
80.09708
 30
0.0
 10
-23.31387
 20
80.51708
 30
0.0
 10
-23.31387
 20
80.51708
 30
0.0
  0
SPLINE
  5
AC
330
1F
100
AcDbEntity
  8
layer 1
 62
   242
370
     9
100
AcDbSpline
210
0.0
220
0.0
230
1.0
 70
    11
 71
     3
 72
    20
 73
    16
 74
     0
 42
0.000000001
 43
0.0000000001
 40
0.0
 40
0.0
 40
0.0
 40
0.0
 40
0.2
 40
0.2
 40
0.2
 40
0.2
 40
0.4
 40
0.4
 40
0.4
 40
0.4
 40
0.6
 40
0.6
 40
0.6
 40
0.6
 40
1.0
 40
1.0
 40
1.0
 40
1.0
 10
-23.31387
 20
89.58292
 30
0.0
 10
-23.31387
 20
89.58292
 30
0.0
 10
-27.31387
 20
89.58292
 30
0.0
 10
-27.31387
 20
89.58292
 30
0.0
 10
-27.31387
 20
89.58292
 30
0.0
 10
-27.31387
 20
89.58292
 30
0.0
 10
-27.31387
 20
89.16292
 30
0.0
 10
-27.31387
 20
89.16292
 30
0.0
 10
-27.31387
 20
89.16292
 30
0.0
 10
-27.31387
 20
89.16292
 30
0.0
 10
-23.31387
 20
89.16292
 30
0.0
 10
-23.31387
 20
89.16292
 30
0.0
 10
-23.31387
 20
89.16292
 30
0.0
 10
-23.31387
 20
89.16292
 30
0.0
 10
-23.31387
 20
89.58292
 30
0.0
 10
-23.31387
 20
89.58292
 30
0.0
  0
SPLINE
  5
AD
330
1F
100
AcDbEntity
  8
layer 1
 62
   242
370
     9
100
AcDbSpline
210
0.0
220
0.0
230
1.0
 70
    11
 71
     3
 72
   132
 73
   128
 74
     0
 42
0.000000001
 43
0.0000000001
 40
0.0
 40
0.0
 40
0.0
 40
0.0
 40
0.0303030303030303
 40
0.0303030303030303
 40
0.0303030303030303
 40
0.0303030303030303
 40
0.0606060606060606
 40
0.0606060606060606
 40
0.0606060606060606
 40
0.0606060606060606
 40
0.0909090909090909
 40
0.0909090909090909
 40
0.0909090909090909
 40
0.0909090909090909
 40
0.1212121212121212
 40
0.1212121212121212
 40
0.1212121212121212
 40
0.1212121212121212
 40
0.1515151515151515
 40
0.1515151515151515
 40
0.1515151515151515
 40
0.1515151515151515
 40
0.1818181818181818
 40
0.1818181818181818
 40
0.1818181818181818
 40
0.1818181818181818
 40
0.2121212121212121
 40
0.2121212121212121
 40
0.2121212121212121
 40
0.2121212121212121
 40
0.2424242424242424
 40
0.2424242424242424
 40
0.2424242424242424
 40
0.2424242424242424
 40
0.2727272727272727
 40
0.2727272727272727
 40
0.2727272727272727
 40
0.2727272727272727
 40
0.303030303030303
 40
0.303030303030303
 40
0.303030303030303
 40
0.303030303030303
 40
0.3333333333333333
 40
0.3333333333333333
 40
0.3333333333333333
 40
0.3333333333333333
 40
0.3636363636363636
 40
0.3636363636363636
 40
0.3636363636363636
 40
0.3636363636363636
 40
0.3939393939393939
 40
0.3939393939393939
 40
0.3939393939393939
 40
0.3939393939393939
 40
0.4242424242424243
 40
0.4242424242424243
 40
0.4242424242424243
 40
0.4242424242424243
 40
0.4545454545454545
 40
0.4545454545454545
 40
0.4545454545454545
 40
0.4545454545454545
 40
0.4848484848484849
 40
0.4848484848484849
 40
0.4848484848484849
 40
0.4848484848484849
 40
0.5151515151515151
 40
0.5151515151515151
 40
0.5151515151515151
 40
0.5151515151515151
 40
0.5454545454545454
 40
0.5454545454545454
 40
0.5454545454545454
 40
0.5454545454545454
 40
0.5757575757575758
 40
0.5757575757575758
 40
0.5757575757575758
 40
0.5757575757575758
 40
0.6060606060606061
 40
0.6060606060606061
 40
0.6060606060606061
 40
0.6060606060606061
 40
0.6363636363636364
 40
0.6363636363636364
 40
0.6363636363636364
 40
0.6363636363636364
 40
0.6666666666666666
 40
0.6666666666666666
 40
0.6666666666666666
 40
0.6666666666666666
 40
0.696969696969697
 40
0.696969696969697
 40
0.696969696969697
 40
0.696969696969697
 40
0.7272727272727273
 40
0.7272727272727273
 40
0.7272727272727273
 40
0.7272727272727273
 40
0.7575757575757576
 40
0.7575757575757576
 40
0.7575757575757576
 40
0.7575757575757576
 40
0.7878787878787878
 40
0.7878787878787878
 40
0.7878787878787878
 40
0.7878787878787878
 40
0.8181818181818182
 40
0.8181818181818182
 40
0.8181818181818182
 40
0.8181818181818182
 40
0.8484848484848485
 40
0.8484848484848485
 40
0.8484848484848485
 40
0.8484848484848485
 40
0.8787878787878788
 40
0.8787878787878788
 40
0.8787878787878788
 40
0.8787878787878788
 40
0.9090909090909091
 40
0.9090909090909091
 40
0.9090909090909091
 40
0.9090909090909091
 40
0.9393939393939394
 40
0.9393939393939394
 40
0.9393939393939394
 40
0.9393939393939394
 40
1.0
 40
1.0
 40
1.0
 40
1.0
 10
-30.40784
 20
57.16636
 30
0.0
 10
-30.40784
 20
57.16636
 30
0.0
 10
-30.40784
 20
61.16636
 30
0.0
 10
-30.40784
 20
61.16636
 30
0.0
 10
-30.40784
 20
61.16636
 30
0.0
 10
-30.40784
 20
61.16636
 30
0.0
 10
-30.00784
 20
61.16636
 30
0.0
 10
-30.00784
 20
61.16636
 30
0.0
 10
-30.00784
 20
61.16636
 30
0.0
 10
-30.00784
 20
61.16636
 30
0.0
 10
-30.00784
 20
65.4997
 30
0.0
 10
-30.00784
 20
65.4997
 30
0.0
 10
-30.00784
 20
65.4997
 30
0.0
 10
-30.00784
 20
65.4997
 30
0.0
 10
-30.40784
 20
65.4997
 30
0.0
 10
-30.40784
 20
65.4997
 30
0.0
 10
-30.40784
 20
65.4997
 30
0.0
 10
-30.40784
 20
65.4997
 30
0.0
 10
-30.40784
 20
69.4997
 30
0.0
 10
-30.40784
 20
69.4997
 30
0.0
 10
-30.40784
 20
69.4997
 30
0.0
 10
-30.40784
 20
69.4997
 30
0.0
 10
-30.00784
 20
69.4997
 30
0.0
 10
-30.00784
 20
69.4997
 30
0.0
 10
-30.00784
 20
69.4997
 30
0.0
 10
-30.00784
 20
69.4997
 30
0.0
 10
-30.00784
 20
73.83303
 30
0.0
 10
-30.00784
 20
73.83303
 30
0.0
 10
-30.00784
 20
73.83303
 30
0.0
 10
-30.00784
 20
73.83303
 30
0.0
 10
-30.40784
 20
73.83303
 30
0.0
 10
-30.40784
 20
73.83303
 30
0.0
 10
-30.40784
 20
73.83303
 30
0.0
 10
-30.40784
 20
73.83303
 30
0.0
 10
-30.40784
 20
77.83303
 30
0.0
 10
-30.40784
 20
77.83303
 30
0.0
 10
-30.40784
 20
77.83303
 30
0.0
 10
-30.40784
 20
77.83303
 30
0.0
 10
-30.00784
 20
77.83303
 30
0.0
 10
-30.00784
 20
77.83303
 30
0.0
 10
-30.00784
 20
77.83303
 30
0.0
 10
-30.00784
 20
77.83303
 30
0.0
 10
-30.00784
 20
82.16635
 30
0.0
 10
-30.00784
 20
82.16635
 30
0.0
 10
-30.00784
 20
82.16635
 30
0.0
 10
-30.00784
 20
82.16635
 30
0.0
 10
-30.40784
 20
82.16635
 30
0.0
 10
-30.40784
 20
82.16635
 30
0.0
 10
-30.40784
 20
82.16635
 30
0.0
 10
-30.40784
 20
82.16635
 30
0.0
 10
-30.40784
 20
86.16635
 30
0.0
 10
-30.40784
 20
86.16635
 30
0.0
 10
-30.40784
 20
86.16635
 30
0.0
 10
-30.40784
 20
86.16635
 30
0.0
 10
-30.00784
 20
86.16635
 30
0.0
 10
-30.00784
 20
86.16635
 30
0.0
 10
-30.00784
 20
86.16635
 30
0.0
 10
-30.00784
 20
86.16635
 30
0.0
 10
-30.00784
 20
90.49969
 30
0.0
 10
-30.00784
 20
90.49969
 30
0.0
 10
-30.00784
 20
90.49969
 30
0.0
 10
-30.00784
 20
90.49969
 30
0.0
 10
-30.40784
 20
90.49969
 30
0.0
 10
-30.40784
 20
90.49969
 30
0.0
 10
-30.40784
 20
90.49969
 30
0.0
 10
-30.40784
 20
90.49969
 30
0.0
 10
-30.40784
 20
94.49969
 30
0.0
 10
-30.40784
 20
94.49969
 30
0.0
 10
-30.40784
 20
94.49969
 30
0.0
 10
-30.40784
 20
94.49969
 30
0.0
 10
-30.00784
 20
94.49969
 30
0.0
 10
-30.00784
 20
94.49969
 30
0.0
 10
-30.00784
 20
94.49969
 30
0.0
 10
-30.00784
 20
94.49969
 30
0.0
 10
-30.00784
 20
98.23302
 30
0.0
 10
-30.00784
 20
98.23302
 30
0.0
 10
-30.00784
 20
98.23302
 30
0.0
 10
-30.00784
 20
98.23302
 30
0.0
 10
-27.30784
 20
98.23302
 30
0.0
 10
-27.30784
 20
98.23302
 30
0.0
 10
-27.30784
 20
98.23302
 30
0.0
 10
-27.30784
 20
98.23302
 30
0.0
 10
-27.30784
 20
98.63302
 30
0.0
 10
-27.30784
 20
98.63302
 30
0.0
 10
-27.30784
 20
98.63302
 30
0.0
 10
-27.30784
 20
98.63302
 30
0.0
 10
-23.30784
 20
98.63302
 30
0.0
 10
-23.30784
 20
98.63302
 30
0.0
 10
-23.30784
 20
98.63302
 30
0.0
 10
-23.30784
 20
98.63302
 30
0.0
 10
-23.30784
 20
98.23302
 30
0.0
 10
-23.30784
 20
98.23302
 30
0.0
 10
-23.30784
 20
98.23302
 30
0.0
 10
-23.30784
 20
98.23302
 30
0.0
 10
-20.60784
 20
98.23302
 30
0.0
 10
-20.60784
 20
98.23302
 30
0.0
 10
-20.60784
 20
98.23302
 30
0.0
 10
-20.60784
 20
98.23302
 30
0.0
 10
-20.60784
 20
53.24303
 30
0.0
 10
-20.60784
 20
53.24303
 30
0.0
 10
-20.60784
 20
53.24303
 30
0.0
 10
-20.60784
 20
53.24303
 30
0.0
 10
-23.30784
 20
53.24303
 30
0.0
 10
-23.30784
 20
53.24303
 30
0.0
 10
-23.30784
 20
53.24303
 30
0.0
 10
-23.30784
 20
53.24303
 30
0.0
 10
-23.30784
 20
52.84303
 30
0.0
 10
-23.30784
 20
52.84303
 30
0.0
 10
-23.30784
 20
52.84303
 30
0.0
 10
-23.30784
 20
52.84303
 30
0.0
 10
-27.30784
 20
52.84303
 30
0.0
 10
-27.30784
 20
52.84303
 30
0.0
 10
-27.30784
 20
52.84303
 30
0.0
 10
-27.30784
 20
52.84303
 30
0.0
 10
-27.30784
 20
53.24303
 30
0.0
 10
-27.30784
 20
53.24303
 30
0.0
 10
-27.30784
 20
53.24303
 30
0.0
 10
-27.30784
 20
53.24303
 30
0.0
 10
-30.00784
 20
53.24303
 30
0.0
 10
-30.00784
 20
53.24303
 30
0.0
 10
-30.00784
 20
53.24303
 30
0.0
 10
-30.00784
 20
53.24303
 30
0.0
 10
-30.00784
 20
57.16636
 30
0.0
 10
-30.00784
 20
57.16636
 30
0.0
 10
-30.00784
 20
57.16636
 30
0.0
 10
-30.00784
 20
57.16636
 30
0.0
 10
-30.40784
 20
57.16636
 30
0.0
 10
-30.40784
 20
57.16636
 30
0.0
  0
SPLINE
  5
AE
330
1F
100
AcDbEntity
  8
layer 1
 62
   242
370
     9
100
AcDbSpline
210
0.0
220
0.0
230
1.0
 70
    11
 71
     3
 72
    20
 73
    16
 74
     0
 42
0.000000001
 43
0.0000000001
 40
0.0
 40
0.0
 40
0.0
 40
0.0
 40
0.2
 40
0.2
 40
0.2
 40
0.2
 40
0.4
 40
0.4
 40
0.4
 40
0.4
 40
0.6
 40
0.6
 40
0.6
 40
0.6
 40
1.0
 40
1.0
 40
1.0
 40
1.0
 10
-45.44468
 20
30.81437
 30
0.0
 10
-45.44468
 20
30.81437
 30
0.0
 10
-41.44468
 20
30.81437
 30
0.0
 10
-41.44468
 20
30.81437
 30
0.0
 10
-41.44468
 20
30.81437
 30
0.0
 10
-41.44468
 20
30.81437
 30
0.0
 10
-41.44468
 20
30.39437
 30
0.0
 10
-41.44468
 20
30.39437
 30
0.0
 10
-41.44468
 20
30.39437
 30
0.0
 10
-41.44468
 20
30.39437
 30
0.0
 10
-45.44468
 20
30.39437
 30
0.0
 10
-45.44468
 20
30.39437
 30
0.0
 10
-45.44468
 20
30.39437
 30
0.0
 10
-45.44468
 20
30.39437
 30
0.0
 10
-45.44468
 20
30.81437
 30
0.0
 10
-45.44468
 20
30.81437
 30
0.0
  0
SPLINE
  5
AF
330
1F
100
AcDbEntity
  8
layer 1
 62
   242
370
     9
100
AcDbSpline
210
0.0
220
0.0
230
1.0
 70
    11
 71
     3
 72
    20
 73
    16
 74
     0
 42
0.000000001
 43
0.0000000001
 40
0.0
 40
0.0
 40
0.0
 40
0.0
 40
0.2
 40
0.2
 40
0.2
 40
0.2
 40
0.4
 40
0.4
 40
0.4
 40
0.4
 40
0.6
 40
0.6
 40
0.6
 40
0.6
 40
1.0
 40
1.0
 40
1.0
 40
1.0
 10
-45.44468
 20
39.88021
 30
0.0
 10
-45.44468
 20
39.88021
 30
0.0
 10
-41.44468
 20
39.88021
 30
0.0
 10
-41.44468
 20
39.88021
 30
0.0
 10
-41.44468
 20
39.88021
 30
0.0
 10
-41.44468
 20
39.88021
 30
0.0
 10
-41.44468
 20
39.46021
 30
0.0
 10
-41.44468
 20
39.46021
 30
0.0
 10
-41.44468
 20
39.46021
 30
0.0
 10
-41.44468
 20
39.46021
 30
0.0
 10
-45.44468
 20
39.46021
 30
0.0
 10
-45.44468
 20
39.46021
 30
0.0
 10
-45.44468
 20
39.46021
 30
0.0
 10
-45.44468
 20
39.46021
 30
0.0
 10
-45.44468
 20
39.88021
 30
0.0
 10
-45.44468
 20
39.88021
 30
0.0
  0
SPLINE
  5
B0
330
1F
100
AcDbEntity
  8
layer 1
 62
   242
370
     9
100
AcDbSpline
210
0.0
220
0.0
230
1.0
 70
    11
 71
     3
 72
    20
 73
    16
 74
     0
 42
0.000000001
 43
0.0000000001
 40
0.0
 40
0.0
 40
0.0
 40
0.0
 40
0.2
 40
0.2
 40
0.2
 40
0.2
 40
0.4
 40
0.4
 40
0.4
 40
0.4
 40
0.6
 40
0.6
 40
0.6
 40
0.6
 40
1.0
 40
1.0
 40
1.0
 40
1.0
 10
-45.44468
 20
48.94269
 30
0.0
 10
-45.44468
 20
48.94269
 30
0.0
 10
-41.44468
 20
48.94269
 30
0.0
 10
-41.44468
 20
48.94269
 30
0.0
 10
-41.44468
 20
48.94269
 30
0.0
 10
-41.44468
 20
48.94269
 30
0.0
 10
-41.44468
 20
48.52269
 30
0.0
 10
-41.44468
 20
48.52269
 30
0.0
 10
-41.44468
 20
48.52269
 30
0.0
 10
-41.44468
 20
48.52269
 30
0.0
 10
-45.44468
 20
48.52269
 30
0.0
 10
-45.44468
 20
48.52269
 30
0.0
 10
-45.44468
 20
48.52269
 30
0.0
 10
-45.44468
 20
48.52269
 30
0.0
 10
-45.44468
 20
48.94269
 30
0.0
 10
-45.44468
 20
48.94269
 30
0.0
  0
SPLINE
  5
B1
330
1F
100
AcDbEntity
  8
layer 1
 62
   242
370
     9
100
AcDbSpline
210
0.0
220
0.0
230
1.0
 70
    11
 71
     3
 72
    20
 73
    16
 74
     0
 42
0.000000001
 43
0.0000000001
 40
0.0
 40
0.0
 40
0.0
 40
0.0
 40
0.2
 40
0.2
 40
0.2
 40
0.2
 40
0.4
 40
0.4
 40
0.4
 40
0.4
 40
0.6
 40
0.6
 40
0.6
 40
0.6
 40
1.0
 40
1.0
 40
1.0
 40
1.0
 10
-45.44468
 20
58.00853
 30
0.0
 10
-45.44468
 20
58.00853
 30
0.0
 10
-41.44468
 20
58.00853
 30
0.0
 10
-41.44468
 20
58.00853
 30
0.0
 10
-41.44468
 20
58.00853
 30
0.0
 10
-41.44468
 20
58.00853
 30
0.0
 10
-41.44468
 20
57.58853
 30
0.0
 10
-41.44468
 20
57.58853
 30
0.0
 10
-41.44468
 20
57.58853
 30
0.0
 10
-41.44468
 20
57.58853
 30
0.0
 10
-45.44468
 20
57.58853
 30
0.0
 10
-45.44468
 20
57.58853
 30
0.0
 10
-45.44468
 20
57.58853
 30
0.0
 10
-45.44468
 20
57.58853
 30
0.0
 10
-45.44468
 20
58.00853
 30
0.0
 10
-45.44468
 20
58.00853
 30
0.0
  0
SPLINE
  5
B2
330
1F
100
AcDbEntity
  8
layer 1
 62
   242
370
     9
100
AcDbSpline
210
0.0
220
0.0
230
1.0
 70
    11
 71
     3
 72
   132
 73
   128
 74
     0
 42
0.000000001
 43
0.0000000001
 40
0.0
 40
0.0
 40
0.0
 40
0.0
 40
0.0303030303030303
 40
0.0303030303030303
 40
0.0303030303030303
 40
0.0303030303030303
 40
0.0606060606060606
 40
0.0606060606060606
 40
0.0606060606060606
 40
0.0606060606060606
 40
0.0909090909090909
 40
0.0909090909090909
 40
0.0909090909090909
 40
0.0909090909090909
 40
0.1212121212121212
 40
0.1212121212121212
 40
0.1212121212121212
 40
0.1212121212121212
 40
0.1515151515151515
 40
0.1515151515151515
 40
0.1515151515151515
 40
0.1515151515151515
 40
0.1818181818181818
 40
0.1818181818181818
 40
0.1818181818181818
 40
0.1818181818181818
 40
0.2121212121212121
 40
0.2121212121212121
 40
0.2121212121212121
 40
0.2121212121212121
 40
0.2424242424242424
 40
0.2424242424242424
 40
0.2424242424242424
 40
0.2424242424242424
 40
0.2727272727272727
 40
0.2727272727272727
 40
0.2727272727272727
 40
0.2727272727272727
 40
0.303030303030303
 40
0.303030303030303
 40
0.303030303030303
 40
0.303030303030303
 40
0.3333333333333333
 40
0.3333333333333333
 40
0.3333333333333333
 40
0.3333333333333333
 40
0.3636363636363636
 40
0.3636363636363636
 40
0.3636363636363636
 40
0.3636363636363636
 40
0.3939393939393939
 40
0.3939393939393939
 40
0.3939393939393939
 40
0.3939393939393939
 40
0.4242424242424243
 40
0.4242424242424243
 40
0.4242424242424243
 40
0.4242424242424243
 40
0.4545454545454545
 40
0.4545454545454545
 40
0.4545454545454545
 40
0.4545454545454545
 40
0.4848484848484849
 40
0.4848484848484849
 40
0.4848484848484849
 40
0.4848484848484849
 40
0.5151515151515151
 40
0.5151515151515151
 40
0.5151515151515151
 40
0.5151515151515151
 40
0.5454545454545454
 40
0.5454545454545454
 40
0.5454545454545454
 40
0.5454545454545454
 40
0.5757575757575758
 40
0.5757575757575758
 40
0.5757575757575758
 40
0.5757575757575758
 40
0.6060606060606061
 40
0.6060606060606061
 40
0.6060606060606061
 40
0.6060606060606061
 40
0.6363636363636364
 40
0.6363636363636364
 40
0.6363636363636364
 40
0.6363636363636364
 40
0.6666666666666666
 40
0.6666666666666666
 40
0.6666666666666666
 40
0.6666666666666666
 40
0.696969696969697
 40
0.696969696969697
 40
0.696969696969697
 40
0.696969696969697
 40
0.7272727272727273
 40
0.7272727272727273
 40
0.7272727272727273
 40
0.7272727272727273
 40
0.7575757575757576
 40
0.7575757575757576
 40
0.7575757575757576
 40
0.7575757575757576
 40
0.7878787878787878
 40
0.7878787878787878
 40
0.7878787878787878
 40
0.7878787878787878
 40
0.8181818181818182
 40
0.8181818181818182
 40
0.8181818181818182
 40
0.8181818181818182
 40
0.8484848484848485
 40
0.8484848484848485
 40
0.8484848484848485
 40
0.8484848484848485
 40
0.8787878787878788
 40
0.8787878787878788
 40
0.8787878787878788
 40
0.8787878787878788
 40
0.9090909090909091
 40
0.9090909090909091
 40
0.9090909090909091
 40
0.9090909090909091
 40
0.9393939393939394
 40
0.9393939393939394
 40
0.9393939393939394
 40
0.9393939393939394
 40
1.0
 40
1.0
 40
1.0
 40
1.0
 10
-38.35071
 20
25.59197
 30
0.0
 10
-38.35071
 20
25.59197
 30
0.0
 10
-38.35071
 20
29.59197
 30
0.0
 10
-38.35071
 20
29.59197
 30
0.0
 10
-38.35071
 20
29.59197
 30
0.0
 10
-38.35071
 20
29.59197
 30
0.0
 10
-38.75071
 20
29.59197
 30
0.0
 10
-38.75071
 20
29.59197
 30
0.0
 10
-38.75071
 20
29.59197
 30
0.0
 10
-38.75071
 20
29.59197
 30
0.0
 10
-38.75071
 20
33.92531
 30
0.0
 10
-38.75071
 20
33.92531
 30
0.0
 10
-38.75071
 20
33.92531
 30
0.0
 10
-38.75071
 20
33.92531
 30
0.0
 10
-38.35071
 20
33.92531
 30
0.0
 10
-38.35071
 20
33.92531
 30
0.0
 10
-38.35071
 20
33.92531
 30
0.0
 10
-38.35071
 20
33.92531
 30
0.0
 10
-38.35071
 20
37.92531
 30
0.0
 10
-38.35071
 20
37.92531
 30
0.0
 10
-38.35071
 20
37.92531
 30
0.0
 10
-38.35071
 20
37.92531
 30
0.0
 10
-38.75071
 20
37.92531
 30
0.0
 10
-38.75071
 20
37.92531
 30
0.0
 10
-38.75071
 20
37.92531
 30
0.0
 10
-38.75071
 20
37.92531
 30
0.0
 10
-38.75071
 20
42.25864
 30
0.0
 10
-38.75071
 20
42.25864
 30
0.0
 10
-38.75071
 20
42.25864
 30
0.0
 10
-38.75071
 20
42.25864
 30
0.0
 10
-38.35071
 20
42.25864
 30
0.0
 10
-38.35071
 20
42.25864
 30
0.0
 10
-38.35071
 20
42.25864
 30
0.0
 10
-38.35071
 20
42.25864
 30
0.0
 10
-38.35071
 20
46.25864
 30
0.0
 10
-38.35071
 20
46.25864
 30
0.0
 10
-38.35071
 20
46.25864
 30
0.0
 10
-38.35071
 20
46.25864
 30
0.0
 10
-38.75071
 20
46.25864
 30
0.0
 10
-38.75071
 20
46.25864
 30
0.0
 10
-38.75071
 20
46.25864
 30
0.0
 10
-38.75071
 20
46.25864
 30
0.0
 10
-38.75071
 20
50.59196
 30
0.0
 10
-38.75071
 20
50.59196
 30
0.0
 10
-38.75071
 20
50.59196
 30
0.0
 10
-38.75071
 20
50.59196
 30
0.0
 10
-38.35071
 20
50.59196
 30
0.0
 10
-38.35071
 20
50.59196
 30
0.0
 10
-38.35071
 20
50.59196
 30
0.0
 10
-38.35071
 20
50.59196
 30
0.0
 10
-38.35071
 20
54.59196
 30
0.0
 10
-38.35071
 20
54.59196
 30
0.0
 10
-38.35071
 20
54.59196
 30
0.0
 10
-38.35071
 20
54.59196
 30
0.0
 10
-38.75071
 20
54.59196
 30
0.0
 10
-38.75071
 20
54.59196
 30
0.0
 10
-38.75071
 20
54.59196
 30
0.0
 10
-38.75071
 20
54.59196
 30
0.0
 10
-38.75071
 20
58.9253
 30
0.0
 10
-38.75071
 20
58.9253
 30
0.0
 10
-38.75071
 20
58.9253
 30
0.0
 10
-38.75071
 20
58.9253
 30
0.0
 10
-38.35071
 20
58.9253
 30
0.0
 10
-38.35071
 20
58.9253
 30
0.0
 10
-38.35071
 20
58.9253
 30
0.0
 10
-38.35071
 20
58.9253
 30
0.0
 10
-38.35071
 20
62.9253
 30
0.0
 10
-38.35071
 20
62.9253
 30
0.0
 10
-38.35071
 20
62.9253
 30
0.0
 10
-38.35071
 20
62.9253
 30
0.0
 10
-38.75071
 20
62.9253
 30
0.0
 10
-38.75071
 20
62.9253
 30
0.0
 10
-38.75071
 20
62.9253
 30
0.0
 10
-38.75071
 20
62.9253
 30
0.0
 10
-38.75071
 20
66.65863
 30
0.0
 10
-38.75071
 20
66.65863
 30
0.0
 10
-38.75071
 20
66.65863
 30
0.0
 10
-38.75071
 20
66.65863
 30
0.0
 10
-41.45071
 20
66.65863
 30
0.0
 10
-41.45071
 20
66.65863
 30
0.0
 10
-41.45071
 20
66.65863
 30
0.0
 10
-41.45071
 20
66.65863
 30
0.0
 10
-41.45071
 20
67.05863
 30
0.0
 10
-41.45071
 20
67.05863
 30
0.0
 10
-41.45071
 20
67.05863
 30
0.0
 10
-41.45071
 20
67.05863
 30
0.0
 10
-45.45071
 20
67.05863
 30
0.0
 10
-45.45071
 20
67.05863
 30
0.0
 10
-45.45071
 20
67.05863
 30
0.0
 10
-45.45071
 20
67.05863
 30
0.0
 10
-45.45071
 20
66.65863
 30
0.0
 10
-45.45071
 20
66.65863
 30
0.0
 10
-45.45071
 20
66.65863
 30
0.0
 10
-45.45071
 20
66.65863
 30
0.0
 10
-48.15071
 20
66.65863
 30
0.0
 10
-48.15071
 20
66.65863
 30
0.0
 10
-48.15071
 20
66.65863
 30
0.0
 10
-48.15071
 20
66.65863
 30
0.0
 10
-48.15071
 20
21.66864
 30
0.0
 10
-48.15071
 20
21.66864
 30
0.0
 10
-48.15071
 20
21.66864
 30
0.0
 10
-48.15071
 20
21.66864
 30
0.0
 10
-45.45071
 20
21.66864
 30
0.0
 10
-45.45071
 20
21.66864
 30
0.0
 10
-45.45071
 20
21.66864
 30
0.0
 10
-45.45071
 20
21.66864
 30
0.0
 10
-45.45071
 20
21.26864
 30
0.0
 10
-45.45071
 20
21.26864
 30
0.0
 10
-45.45071
 20
21.26864
 30
0.0
 10
-45.45071
 20
21.26864
 30
0.0
 10
-41.45071
 20
21.26864
 30
0.0
 10
-41.45071
 20
21.26864
 30
0.0
 10
-41.45071
 20
21.26864
 30
0.0
 10
-41.45071
 20
21.26864
 30
0.0
 10
-41.45071
 20
21.66864
 30
0.0
 10
-41.45071
 20
21.66864
 30
0.0
 10
-41.45071
 20
21.66864
 30
0.0
 10
-41.45071
 20
21.66864
 30
0.0
 10
-38.75071
 20
21.66864
 30
0.0
 10
-38.75071
 20
21.66864
 30
0.0
 10
-38.75071
 20
21.66864
 30
0.0
 10
-38.75071
 20
21.66864
 30
0.0
 10
-38.75071
 20
25.59197
 30
0.0
 10
-38.75071
 20
25.59197
 30
0.0
 10
-38.75071
 20
25.59197
 30
0.0
 10
-38.75071
 20
25.59197
 30
0.0
 10
-38.35071
 20
25.59197
 30
0.0
 10
-38.35071
 20
25.59197
 30
0.0
  0
SPLINE
  5
B3
330
1F
100
AcDbEntity
  8
layer 1
 62
   242
370
     9
100
AcDbSpline
210
0.0
220
0.0
230
1.0
 70
    11
 71
     3
 72
   244
 73
   240
 74
     0
 42
0.000000001
 43
0.0000000001
 40
0.0
 40
0.0
 40
0.0
 40
0.0
 40
0.0163934426229508
 40
0.0163934426229508
 40
0.0163934426229508
 40
0.0163934426229508
 40
0.0327868852459016
 40
0.0327868852459016
 40
0.0327868852459016
 40
0.0327868852459016
 40
0.0491803278688525
 40
0.0491803278688525
 40
0.0491803278688525
 40
0.0491803278688525
 40
0.0655737704918033
 40
0.0655737704918033
 40
0.0655737704918033
 40
0.0655737704918033
 40
0.0819672131147541
 40
0.0819672131147541
 40
0.0819672131147541
 40
0.0819672131147541
 40
0.0983606557377049
 40
0.0983606557377049
 40
0.0983606557377049
 40
0.0983606557377049
 40
0.1147540983606557
 40
0.1147540983606557
 40
0.1147540983606557
 40
0.1147540983606557
 40
0.1311475409836066
 40
0.1311475409836066
 40
0.1311475409836066
 40
0.1311475409836066
 40
0.1475409836065574
 40
0.1475409836065574
 40
0.1475409836065574
 40
0.1475409836065574
 40
0.1639344262295082
 40
0.1639344262295082
 40
0.1639344262295082
 40
0.1639344262295082
 40
0.180327868852459
 40
0.180327868852459
 40
0.180327868852459
 40
0.180327868852459
 40
0.1967213114754098
 40
0.1967213114754098
 40
0.1967213114754098
 40
0.1967213114754098
 40
0.2131147540983606
 40
0.2131147540983606
 40
0.2131147540983606
 40
0.2131147540983606
 40
0.2295081967213115
 40
0.2295081967213115
 40
0.2295081967213115
 40
0.2295081967213115
 40
0.2459016393442623
 40
0.2459016393442623
 40
0.2459016393442623
 40
0.2459016393442623
 40
0.2622950819672131
 40
0.2622950819672131
 40
0.2622950819672131
 40
0.2622950819672131
 40
0.2786885245901639
 40
0.2786885245901639
 40
0.2786885245901639
 40
0.2786885245901639
 40
0.2950819672131147
 40
0.2950819672131147
 40
0.2950819672131147
 40
0.2950819672131147
 40
0.3114754098360656
 40
0.3114754098360656
 40
0.3114754098360656
 40
0.3114754098360656
 40
0.3278688524590164
 40
0.3278688524590164
 40
0.3278688524590164
 40
0.3278688524590164
 40
0.3442622950819672
 40
0.3442622950819672
 40
0.3442622950819672
 40
0.3442622950819672
 40
0.360655737704918
 40
0.360655737704918
 40
0.360655737704918
 40
0.360655737704918
 40
0.3770491803278688
 40
0.3770491803278688
 40
0.3770491803278688
 40
0.3770491803278688
 40
0.3934426229508197
 40
0.3934426229508197
 40
0.3934426229508197
 40
0.3934426229508197
 40
0.4098360655737705
 40
0.4098360655737705
 40
0.4098360655737705
 40
0.4098360655737705
 40
0.4262295081967213
 40
0.4262295081967213
 40
0.4262295081967213
 40
0.4262295081967213
 40
0.4426229508196721
 40
0.4426229508196721
 40
0.4426229508196721
 40
0.4426229508196721
 40
0.459016393442623
 40
0.459016393442623
 40
0.459016393442623
 40
0.459016393442623
 40
0.4754098360655737
 40
0.4754098360655737
 40
0.4754098360655737
 40
0.4754098360655737
 40
0.4918032786885246
 40
0.4918032786885246
 40
0.4918032786885246
 40
0.4918032786885246
 40
0.5081967213114754
 40
0.5081967213114754
 40
0.5081967213114754
 40
0.5081967213114754
 40
0.5245901639344263
 40
0.5245901639344263
 40
0.5245901639344263
 40
0.5245901639344263
 40
0.5409836065573771
 40
0.5409836065573771
 40
0.5409836065573771
 40
0.5409836065573771
 40
0.5573770491803278
 40
0.5573770491803278
 40
0.5573770491803278
 40
0.5573770491803278
 40
0.5737704918032787
 40
0.5737704918032787
 40
0.5737704918032787
 40
0.5737704918032787
 40
0.5901639344262295
 40
0.5901639344262295
 40
0.5901639344262295
 40
0.5901639344262295
 40
0.6065573770491803
 40
0.6065573770491803
 40
0.6065573770491803
 40
0.6065573770491803
 40
0.6229508196721312
 40
0.6229508196721312
 40
0.6229508196721312
 40
0.6229508196721312
 40
0.639344262295082
 40
0.639344262295082
 40
0.639344262295082
 40
0.639344262295082
 40
0.6557377049180327
 40
0.6557377049180327
 40
0.6557377049180327
 40
0.6557377049180327
 40
0.6721311475409836
 40
0.6721311475409836
 40
0.6721311475409836
 40
0.6721311475409836
 40
0.6885245901639344
 40
0.6885245901639344
 40
0.6885245901639344
 40
0.6885245901639344
 40
0.7049180327868853
 40
0.7049180327868853
 40
0.7049180327868853
 40
0.7049180327868853
 40
0.7213114754098361
 40
0.7213114754098361
 40
0.7213114754098361
 40
0.7213114754098361
 40
0.7377049180327869
 40
0.7377049180327869
 40
0.7377049180327869
 40
0.7377049180327869
 40
0.7540983606557377
 40
0.7540983606557377
 40
0.7540983606557377
 40
0.7540983606557377
 40
0.7704918032786885
 40
0.7704918032786885
 40
0.7704918032786885
 40
0.7704918032786885
 40
0.7868852459016393
 40
0.7868852459016393
 40
0.7868852459016393
 40
0.7868852459016393
 40
0.8032786885245902
 40
0.8032786885245902
 40
0.8032786885245902
 40
0.8032786885245902
 40
0.819672131147541
 40
0.819672131147541
 40
0.819672131147541
 40
0.819672131147541
 40
0.8360655737704918
 40
0.8360655737704918
 40
0.8360655737704918
 40
0.8360655737704918
 40
0.8524590163934426
 40
0.8524590163934426
 40
0.8524590163934426
 40
0.8524590163934426
 40
0.8688524590163934
 40
0.8688524590163934
 40
0.8688524590163934
 40
0.8688524590163934
 40
0.8852459016393442
 40
0.8852459016393442
 40
0.8852459016393442
 40
0.8852459016393442
 40
0.9016393442622951
 40
0.9016393442622951
 40
0.9016393442622951
 40
0.9016393442622951
 40
0.9180327868852459
 40
0.9180327868852459
 40
0.9180327868852459
 40
0.9180327868852459
 40
0.9344262295081968
 40
0.9344262295081968
 40
0.9344262295081968
 40
0.9344262295081968
 40
0.9508196721311475
 40
0.9508196721311475
 40
0.9508196721311475
 40
0.9508196721311475
 40
0.9672131147540983
 40
0.9672131147540983
 40
0.9672131147540983
 40
0.9672131147540983
 40
1.0
 40
1.0
 40
1.0
 40
1.0
 10
-24.84888
 20
4.92238
 30
0.0
 10
-24.84888
 20
4.92238
 30
0.0
 10
-20.84888
 20
4.92238
 30
0.0
 10
-20.84888
 20
4.92238
 30
0.0
 10
-20.84888
 20
4.92238
 30
0.0
 10
-20.84888
 20
4.92238
 30
0.0
 10
-20.84888
 20
4.52238
 30
0.0
 10
-20.84888
 20
4.52238
 30
0.0
 10
-20.84888
 20
4.52238
 30
0.0
 10
-20.84888
 20
4.52238
 30
0.0
 10
-17.15657
 20
4.52238
 30
0.0
 10
-17.15657
 20
4.52238
 30
0.0
 10
-17.15657
 20
4.52238
 30
0.0
 10
-17.15657
 20
4.52238
 30
0.0
 10
-17.15657
 20
4.92238
 30
0.0
 10
-17.15657
 20
4.92238
 30
0.0
 10
-17.15657
 20
4.92238
 30
0.0
 10
-17.15657
 20
4.92238
 30
0.0
 10
-13.15657
 20
4.92238
 30
0.0
 10
-13.15657
 20
4.92238
 30
0.0
 10
-13.15657
 20
4.92238
 30
0.0
 10
-13.15657
 20
4.92238
 30
0.0
 10
-13.15657
 20
4.52238
 30
0.0
 10
-13.15657
 20
4.52238
 30
0.0
 10
-13.15657
 20
4.52238
 30
0.0
 10
-13.15657
 20
4.52238
 30
0.0
 10
-9.46427
 20
4.52238
 30
0.0
 10
-9.46427
 20
4.52238
 30
0.0
 10
-9.46427
 20
4.52238
 30
0.0
 10
-9.46427
 20
4.52238
 30
0.0
 10
-9.46427
 20
4.92238
 30
0.0
 10
-9.46427
 20
4.92238
 30
0.0
 10
-9.46427
 20
4.92238
 30
0.0
 10
-9.46427
 20
4.92238
 30
0.0
 10
-5.46427
 20
4.92238
 30
0.0
 10
-5.46427
 20
4.92238
 30
0.0
 10
-5.46427
 20
4.92238
 30
0.0
 10
-5.46427
 20
4.92238
 30
0.0
 10
-5.46427
 20
4.52238
 30
0.0
 10
-5.46427
 20
4.52238
 30
0.0
 10
-5.46427
 20
4.52238
 30
0.0
 10
-5.46427
 20
4.52238
 30
0.0
 10
-1.77196
 20
4.52238
 30
0.0
 10
-1.77196
 20
4.52238
 30
0.0
 10
-1.77196
 20
4.52238
 30
0.0
 10
-1.77196
 20
4.52238
 30
0.0
 10
-1.77196
 20
4.92238
 30
0.0
 10
-1.77196
 20
4.92238
 30
0.0
 10
-1.77196
 20
4.92238
 30
0.0
 10
-1.77196
 20
4.92238
 30
0.0
 10
2.22804
 20
4.92238
 30
0.0
 10
2.22804
 20
4.92238
 30
0.0
 10
2.22804
 20
4.92238
 30
0.0
 10
2.22804
 20
4.92238
 30
0.0
 10
2.22804
 20
4.52238
 30
0.0
 10
2.22804
 20
4.52238
 30
0.0
 10
2.22804
 20
4.52238
 30
0.0
 10
2.22804
 20
4.52238
 30
0.0
 10
5.92035
 20
4.52238
 30
0.0
 10
5.92035
 20
4.52238
 30
0.0
 10
5.92035
 20
4.52238
 30
0.0
 10
5.92035
 20
4.52238
 30
0.0
 10
5.92035
 20
4.92238
 30
0.0
 10
5.92035
 20
4.92238
 30
0.0
 10
5.92035
 20
4.92238
 30
0.0
 10
5.92035
 20
4.92238
 30
0.0
 10
9.92035
 20
4.92238
 30
0.0
 10
9.92035
 20
4.92238
 30
0.0
 10
9.92035
 20
4.92238
 30
0.0
 10
9.92035
 20
4.92238
 30
0.0
 10
9.92035
 20
4.52238
 30
0.0
 10
9.92035
 20
4.52238
 30
0.0
 10
9.92035
 20
4.52238
 30
0.0
 10
9.92035
 20
4.52238
 30
0.0
 10
13.61266
 20
4.52238
 30
0.0
 10
13.61266
 20
4.52238
 30
0.0
 10
13.61266
 20
4.52238
 30
0.0
 10
13.61266
 20
4.52238
 30
0.0
 10
13.61266
 20
4.92238
 30
0.0
 10
13.61266
 20
4.92238
 30
0.0
 10
13.61266
 20
4.92238
 30
0.0
 10
13.61266
 20
4.92238
 30
0.0
 10
17.61266
 20
4.92238
 30
0.0
 10
17.61266
 20
4.92238
 30
0.0
 10
17.61266
 20
4.92238
 30
0.0
 10
17.61266
 20
4.92238
 30
0.0
 10
17.61266
 20
4.52238
 30
0.0
 10
17.61266
 20
4.52238
 30
0.0
 10
17.61266
 20
4.52238
 30
0.0
 10
17.61266
 20
4.52238
 30
0.0
 10
21.30496
 20
4.52238
 30
0.0
 10
21.30496
 20
4.52238
 30
0.0
 10
21.30496
 20
4.52238
 30
0.0
 10
21.30496
 20
4.52238
 30
0.0
 10
21.30496
 20
4.92238
 30
0.0
 10
21.30496
 20
4.92238
 30
0.0
 10
21.30496
 20
4.92238
 30
0.0
 10
21.30496
 20
4.92238
 30
0.0
 10
25.30496
 20
4.92238
 30
0.0
 10
25.30496
 20
4.92238
 30
0.0
 10
25.30496
 20
4.92238
 30
0.0
 10
25.30496
 20
4.92238
 30
0.0
 10
25.30496
 20
4.52238
 30
0.0
 10
25.30496
 20
4.52238
 30
0.0
 10
25.30496
 20
4.52238
 30
0.0
 10
25.30496
 20
4.52238
 30
0.0
 10
28.99727
 20
4.52238
 30
0.0
 10
28.99727
 20
4.52238
 30
0.0
 10
28.99727
 20
4.52238
 30
0.0
 10
28.99727
 20
4.52238
 30
0.0
 10
28.99727
 20
4.92238
 30
0.0
 10
28.99727
 20
4.92238
 30
0.0
 10
28.99727
 20
4.92238
 30
0.0
 10
28.99727
 20
4.92238
 30
0.0
 10
32.99727
 20
4.92238
 30
0.0
 10
32.99727
 20
4.92238
 30
0.0
 10
32.99727
 20
4.92238
 30
0.0
 10
32.99727
 20
4.92238
 30
0.0
 10
32.99727
 20
4.52238
 30
0.0
 10
32.99727
 20
4.52238
 30
0.0
 10
32.99727
 20
4.52238
 30
0.0
 10
32.99727
 20
4.52238
 30
0.0
 10
36.68958
 20
4.52238
 30
0.0
 10
36.68958
 20
4.52238
 30
0.0
 10
36.68958
 20
4.52238
 30
0.0
 10
36.68958
 20
4.52238
 30
0.0
 10
36.68958
 20
4.92238
 30
0.0
 10
36.68958
 20
4.92238
 30
0.0
 10
36.68958
 20
4.92238
 30
0.0
 10
36.68958
 20
4.92238
 30
0.0
 10
40.68958
 20
4.92238
 30
0.0
 10
40.68958
 20
4.92238
 30
0.0
 10
40.68958
 20
4.92238
 30
0.0
 10
40.68958
 20
4.92238
 30
0.0
 10
40.68958
 20
4.52238
 30
0.0
 10
40.68958
 20
4.52238
 30
0.0
 10
40.68958
 20
4.52238
 30
0.0
 10
40.68958
 20
4.52238
 30
0.0
 10
44.38189
 20
4.52238
 30
0.0
 10
44.38189
 20
4.52238
 30
0.0
 10
44.38189
 20
4.52238
 30
0.0
 10
44.38189
 20
4.52238
 30
0.0
 10
44.38189
 20
4.92238
 30
0.0
 10
44.38189
 20
4.92238
 30
0.0
 10
44.38189
 20
4.92238
 30
0.0
 10
44.38189
 20
4.92238
 30
0.0
 10
48.38189
 20
4.92238
 30
0.0
 10
48.38189
 20
4.92238
 30
0.0
 10
48.38189
 20
4.92238
 30
0.0
 10
48.38189
 20
4.92238
 30
0.0
 10
48.38189
 20
4.52238
 30
0.0
 10
48.38189
 20
4.52238
 30
0.0
 10
48.38189
 20
4.52238
 30
0.0
 10
48.38189
 20
4.52238
 30
0.0
 10
52.07419
 20
4.52238
 30
0.0
 10
52.07419
 20
4.52238
 30
0.0
 10
52.07419
 20
4.52238
 30
0.0
 10
52.07419
 20
4.52238
 30
0.0
 10
52.07419
 20
4.92238
 30
0.0
 10
52.07419
 20
4.92238
 30
0.0
 10
52.07419
 20
4.92238
 30
0.0
 10
52.07419
 20
4.92238
 30
0.0
 10
56.07418
 20
4.92238
 30
0.0
 10
56.07418
 20
4.92238
 30
0.0
 10
56.07418
 20
4.92238
 30
0.0
 10
56.07418
 20
4.92238
 30
0.0
 10
56.07418
 20
4.52238
 30
0.0
 10
56.07418
 20
4.52238
 30
0.0
 10
56.07418
 20
4.52238
 30
0.0
 10
56.07418
 20
4.52238
 30
0.0
 10
59.76649
 20
4.52238
 30
0.0
 10
59.76649
 20
4.52238
 30
0.0
 10
59.76649
 20
4.52238
 30
0.0
 10
59.76649
 20
4.52238
 30
0.0
 10
59.76649
 20
4.92238
 30
0.0
 10
59.76649
 20
4.92238
 30
0.0
 10
59.76649
 20
4.92238
 30
0.0
 10
59.76649
 20
4.92238
 30
0.0
 10
63.76649
 20
4.92238
 30
0.0
 10
63.76649
 20
4.92238
 30
0.0
 10
63.76649
 20
4.92238
 30
0.0
 10
63.76649
 20
4.92238
 30
0.0
 10
63.76649
 20
4.52238
 30
0.0
 10
63.76649
 20
4.52238
 30
0.0
 10
63.76649
 20
4.52238
 30
0.0
 10
63.76649
 20
4.52238
 30
0.0
 10
67.2688
 20
4.52238
 30
0.0
 10
67.2688
 20
4.52238
 30
0.0
 10
67.2688
 20
4.52238
 30
0.0
 10
67.2688
 20
4.52238
 30
0.0
 10
67.2688
 20
1.82238
 30
0.0
 10
67.2688
 20
1.82238
 30
0.0
 10
67.2688
 20
1.82238
 30
0.0
 10
67.2688
 20
1.82238
 30
0.0
 10
66.8588
 20
1.82238
 30
0.0
 10
66.8588
 20
1.82238
 30
0.0
 10
66.8588
 20
1.82238
 30
0.0
 10
66.8588
 20
1.82238
 30
0.0
 10
66.8588
 20
-2.17762
 30
0.0
 10
66.8588
 20
-2.17762
 30
0.0
 10
66.8588
 20
-2.17762
 30
0.0
 10
66.8588
 20
-2.17762
 30
0.0
 10
67.2688
 20
-2.17762
 30
0.0
 10
67.2688
 20
-2.17762
 30
0.0
 10
67.2688
 20
-2.17762
 30
0.0
 10
67.2688
 20
-2.17762
 30
0.0
 10
67.2688
 20
-4.87762
 30
0.0
 10
67.2688
 20
-4.87762
 30
0.0
 10
67.2688
 20
-4.87762
 30
0.0
 10
67.2688
 20
-4.87762
 30
0.0
 10
-28.35119
 20
-4.87762
 30
0.0
 10
-28.35119
 20
-4.87762
 30
0.0
 10
-28.35119
 20
-4.87762
 30
0.0
 10
-28.35119
 20
-4.87762
 30
0.0
 10
-28.35119
 20
-2.17762
 30
0.0
 10
-28.35119
 20
-2.17762
 30
0.0
 10
-28.35119
 20
-2.17762
 30
0.0
 10
-28.35119
 20
-2.17762
 30
0.0
 10
-27.94119
 20
-2.17762
 30
0.0
 10
-27.94119
 20
-2.17762
 30
0.0
 10
-27.94119
 20
-2.17762
 30
0.0
 10
-27.94119
 20
-2.17762
 30
0.0
 10
-27.94119
 20
1.82238
 30
0.0
 10
-27.94119
 20
1.82238
 30
0.0
 10
-27.94119
 20
1.82238
 30
0.0
 10
-27.94119
 20
1.82238
 30
0.0
 10
-28.35119
 20
1.82238
 30
0.0
 10
-28.35119
 20
1.82238
 30
0.0
 10
-28.35119
 20
1.82238
 30
0.0
 10
-28.35119
 20
1.82238
 30
0.0
 10
-28.35119
 20
4.52238
 30
0.0
 10
-28.35119
 20
4.52238
 30
0.0
 10
-28.35119
 20
4.52238
 30
0.0
 10
-28.35119
 20
4.52238
 30
0.0
 10
-24.84888
 20
4.52238
 30
0.0
 10
-24.84888
 20
4.52238
 30
0.0
 10
-24.84888
 20
4.52238
 30
0.0
 10
-24.84888
 20
4.52238
 30
0.0
 10
-24.84888
 20
4.92238
 30
0.0
 10
-24.84888
 20
4.92238
 30
0.0
  0
SPLINE
  5
B4
330
1F
100
AcDbEntity
  8
layer 1
 62
   250
370
     9
100
AcDbSpline
210
0.0
220
0.0
230
1.0
 70
    11
 71
     3
 72
   584
 73
   580
 74
     0
 42
0.000000001
 43
0.0000000001
 40
0.0
 40
0.0
 40
0.0
 40
0.0
 40
0.0068493150684932
 40
0.0068493150684932
 40
0.0068493150684932
 40
0.0068493150684932
 40
0.0136986301369863
 40
0.0136986301369863
 40
0.0136986301369863
 40
0.0136986301369863
 40
0.0205479452054795
 40
0.0205479452054795
 40
0.0205479452054795
 40
0.0205479452054795
 40
0.0273972602739726
 40
0.0273972602739726
 40
0.0273972602739726
 40
0.0273972602739726
 40
0.0342465753424658
 40
0.0342465753424658
 40
0.0342465753424658
 40
0.0342465753424658
 40
0.0410958904109589
 40
0.0410958904109589
 40
0.0410958904109589
 40
0.0410958904109589
 40
0.0479452054794521
 40
0.0479452054794521
 40
0.0479452054794521
 40
0.0479452054794521
 40
0.0547945205479452
 40
0.0547945205479452
 40
0.0547945205479452
 40
0.0547945205479452
 40
0.0616438356164384
 40
0.0616438356164384
 40
0.0616438356164384
 40
0.0616438356164384
 40
0.0684931506849315
 40
0.0684931506849315
 40
0.0684931506849315
 40
0.0684931506849315
 40
0.0753424657534247
 40
0.0753424657534247
 40
0.0753424657534247
 40
0.0753424657534247
 40
0.0821917808219178
 40
0.0821917808219178
 40
0.0821917808219178
 40
0.0821917808219178
 40
0.089041095890411
 40
0.089041095890411
 40
0.089041095890411
 40
0.089041095890411
 40
0.0958904109589041
 40
0.0958904109589041
 40
0.0958904109589041
 40
0.0958904109589041
 40
0.1027397260273973
 40
0.1027397260273973
 40
0.1027397260273973
 40
0.1027397260273973
 40
0.1095890410958904
 40
0.1095890410958904
 40
0.1095890410958904
 40
0.1095890410958904
 40
0.1164383561643836
 40
0.1164383561643836
 40
0.1164383561643836
 40
0.1164383561643836
 40
0.1232876712328767
 40
0.1232876712328767
 40
0.1232876712328767
 40
0.1232876712328767
 40
0.1301369863013699
 40
0.1301369863013699
 40
0.1301369863013699
 40
0.1301369863013699
 40
0.136986301369863
 40
0.136986301369863
 40
0.136986301369863
 40
0.136986301369863
 40
0.1438356164383562
 40
0.1438356164383562
 40
0.1438356164383562
 40
0.1438356164383562
 40
0.1506849315068493
 40
0.1506849315068493
 40
0.1506849315068493
 40
0.1506849315068493
 40
0.1575342465753425
 40
0.1575342465753425
 40
0.1575342465753425
 40
0.1575342465753425
 40
0.1643835616438356
 40
0.1643835616438356
 40
0.1643835616438356
 40
0.1643835616438356
 40
0.1712328767123288
 40
0.1712328767123288
 40
0.1712328767123288
 40
0.1712328767123288
 40
0.1780821917808219
 40
0.1780821917808219
 40
0.1780821917808219
 40
0.1780821917808219
 40
0.1849315068493151
 40
0.1849315068493151
 40
0.1849315068493151
 40
0.1849315068493151
 40
0.1917808219178082
 40
0.1917808219178082
 40
0.1917808219178082
 40
0.1917808219178082
 40
0.1986301369863014
 40
0.1986301369863014
 40
0.1986301369863014
 40
0.1986301369863014
 40
0.2054794520547945
 40
0.2054794520547945
 40
0.2054794520547945
 40
0.2054794520547945
 40
0.2123287671232877
 40
0.2123287671232877
 40
0.2123287671232877
 40
0.2123287671232877
 40
0.2191780821917808
 40
0.2191780821917808
 40
0.2191780821917808
 40
0.2191780821917808
 40
0.226027397260274
 40
0.226027397260274
 40
0.226027397260274
 40
0.226027397260274
 40
0.2328767123287671
 40
0.2328767123287671
 40
0.2328767123287671
 40
0.2328767123287671
 40
0.2397260273972603
 40
0.2397260273972603
 40
0.2397260273972603
 40
0.2397260273972603
 40
0.2465753424657534
 40
0.2465753424657534
 40
0.2465753424657534
 40
0.2465753424657534
 40
0.2534246575342466
 40
0.2534246575342466
 40
0.2534246575342466
 40
0.2534246575342466
 40
0.2602739726027397
 40
0.2602739726027397
 40
0.2602739726027397
 40
0.2602739726027397
 40
0.2671232876712329
 40
0.2671232876712329
 40
0.2671232876712329
 40
0.2671232876712329
 40
0.273972602739726
 40
0.273972602739726
 40
0.273972602739726
 40
0.273972602739726
 40
0.2808219178082192
 40
0.2808219178082192
 40
0.2808219178082192
 40
0.2808219178082192
 40
0.2876712328767123
 40
0.2876712328767123
 40
0.2876712328767123
 40
0.2876712328767123
 40
0.2945205479452055
 40
0.2945205479452055
 40
0.2945205479452055
 40
0.2945205479452055
 40
0.3013698630136986
 40
0.3013698630136986
 40
0.3013698630136986
 40
0.3013698630136986
 40
0.3082191780821918
 40
0.3082191780821918
 40
0.3082191780821918
 40
0.3082191780821918
 40
0.3150684931506849
 40
0.3150684931506849
 40
0.3150684931506849
 40
0.3150684931506849
 40
0.3219178082191781
 40
0.3219178082191781
 40
0.3219178082191781
 40
0.3219178082191781
 40
0.3287671232876712
 40
0.3287671232876712
 40
0.3287671232876712
 40
0.3287671232876712
 40
0.3356164383561644
 40
0.3356164383561644
 40
0.3356164383561644
 40
0.3356164383561644
 40
0.3424657534246575
 40
0.3424657534246575
 40
0.3424657534246575
 40
0.3424657534246575
 40
0.3493150684931507
 40
0.3493150684931507
 40
0.3493150684931507
 40
0.3493150684931507
 40
0.3561643835616438
 40
0.3561643835616438
 40
0.3561643835616438
 40
0.3561643835616438
 40
0.363013698630137
 40
0.363013698630137
 40
0.363013698630137
 40
0.363013698630137
 40
0.3698630136986301
 40
0.3698630136986301
 40
0.3698630136986301
 40
0.3698630136986301
 40
0.3767123287671233
 40
0.3767123287671233
 40
0.3767123287671233
 40
0.3767123287671233
 40
0.3835616438356164
 40
0.3835616438356164
 40
0.3835616438356164
 40
0.3835616438356164
 40
0.3904109589041096
 40
0.3904109589041096
 40
0.3904109589041096
 40
0.3904109589041096
 40
0.3972602739726027
 40
0.3972602739726027
 40
0.3972602739726027
 40
0.3972602739726027
 40
0.4041095890410959
 40
0.4041095890410959
 40
0.4041095890410959
 40
0.4041095890410959
 40
0.410958904109589
 40
0.410958904109589
 40
0.410958904109589
 40
0.410958904109589
 40
0.4178082191780822
 40
0.4178082191780822
 40
0.4178082191780822
 40
0.4178082191780822
 40
0.4246575342465753
 40
0.4246575342465753
 40
0.4246575342465753
 40
0.4246575342465753
 40
0.4315068493150685
 40
0.4315068493150685
 40
0.4315068493150685
 40
0.4315068493150685
 40
0.4383561643835616
 40
0.4383561643835616
 40
0.4383561643835616
 40
0.4383561643835616
 40
0.4452054794520548
 40
0.4452054794520548
 40
0.4452054794520548
 40
0.4452054794520548
 40
0.4520547945205479
 40
0.4520547945205479
 40
0.4520547945205479
 40
0.4520547945205479
 40
0.4589041095890411
 40
0.4589041095890411
 40
0.4589041095890411
 40
0.4589041095890411
 40
0.4657534246575342
 40
0.4657534246575342
 40
0.4657534246575342
 40
0.4657534246575342
 40
0.4726027397260274
 40
0.4726027397260274
 40
0.4726027397260274
 40
0.4726027397260274
 40
0.4794520547945205
 40
0.4794520547945205
 40
0.4794520547945205
 40
0.4794520547945205
 40
0.4863013698630137
 40
0.4863013698630137
 40
0.4863013698630137
 40
0.4863013698630137
 40
0.4931506849315068
 40
0.4931506849315068
 40
0.4931506849315068
 40
0.4931506849315068
 40
0.5
 40
0.5
 40
0.5
 40
0.5
 40
0.5068493150684932
 40
0.5068493150684932
 40
0.5068493150684932
 40
0.5068493150684932
 40
0.5136986301369864
 40
0.5136986301369864
 40
0.5136986301369864
 40
0.5136986301369864
 40
0.5205479452054794
 40
0.5205479452054794
 40
0.5205479452054794
 40
0.5205479452054794
 40
0.5273972602739726
 40
0.5273972602739726
 40
0.5273972602739726
 40
0.5273972602739726
 40
0.5342465753424658
 40
0.5342465753424658
 40
0.5342465753424658
 40
0.5342465753424658
 40
0.541095890410959
 40
0.541095890410959
 40
0.541095890410959
 40
0.541095890410959
 40
0.547945205479452
 40
0.547945205479452
 40
0.547945205479452
 40
0.547945205479452
 40
0.5547945205479452
 40
0.5547945205479452
 40
0.5547945205479452
 40
0.5547945205479452
 40
0.5616438356164384
 40
0.5616438356164384
 40
0.5616438356164384
 40
0.5616438356164384
 40
0.5684931506849316
 40
0.5684931506849316
 40
0.5684931506849316
 40
0.5684931506849316
 40
0.5753424657534246
 40
0.5753424657534246
 40
0.5753424657534246
 40
0.5753424657534246
 40
0.5821917808219178
 40
0.5821917808219178
 40
0.5821917808219178
 40
0.5821917808219178
 40
0.589041095890411
 40
0.589041095890411
 40
0.589041095890411
 40
0.589041095890411
 40
0.5958904109589042
 40
0.5958904109589042
 40
0.5958904109589042
 40
0.5958904109589042
 40
0.6027397260273972
 40
0.6027397260273972
 40
0.6027397260273972
 40
0.6027397260273972
 40
0.6095890410958904
 40
0.6095890410958904
 40
0.6095890410958904
 40
0.6095890410958904
 40
0.6164383561643836
 40
0.6164383561643836
 40
0.6164383561643836
 40
0.6164383561643836
 40
0.6232876712328768
 40
0.6232876712328768
 40
0.6232876712328768
 40
0.6232876712328768
 40
0.6301369863013698
 40
0.6301369863013698
 40
0.6301369863013698
 40
0.6301369863013698
 40
0.636986301369863
 40
0.636986301369863
 40
0.636986301369863
 40
0.636986301369863
 40
0.6438356164383562
 40
0.6438356164383562
 40
0.6438356164383562
 40
0.6438356164383562
 40
0.6506849315068494
 40
0.6506849315068494
 40
0.6506849315068494
 40
0.6506849315068494
 40
0.6575342465753424
 40
0.6575342465753424
 40
0.6575342465753424
 40
0.6575342465753424
 40
0.6643835616438356
 40
0.6643835616438356
 40
0.6643835616438356
 40
0.6643835616438356
 40
0.6712328767123288
 40
0.6712328767123288
 40
0.6712328767123288
 40
0.6712328767123288
 40
0.678082191780822
 40
0.678082191780822
 40
0.678082191780822
 40
0.678082191780822
 40
0.684931506849315
 40
0.684931506849315
 40
0.684931506849315
 40
0.684931506849315
 40
0.6917808219178082
 40
0.6917808219178082
 40
0.6917808219178082
 40
0.6917808219178082
 40
0.6986301369863014
 40
0.6986301369863014
 40
0.6986301369863014
 40
0.6986301369863014
 40
0.7054794520547946
 40
0.7054794520547946
 40
0.7054794520547946
 40
0.7054794520547946
 40
0.7123287671232876
 40
0.7123287671232876
 40
0.7123287671232876
 40
0.7123287671232876
 40
0.7191780821917808
 40
0.7191780821917808
 40
0.7191780821917808
 40
0.7191780821917808
 40
0.726027397260274
 40
0.726027397260274
 40
0.726027397260274
 40
0.726027397260274
 40
0.7328767123287672
 40
0.7328767123287672
 40
0.7328767123287672
 40
0.7328767123287672
 40
0.7397260273972602
 40
0.7397260273972602
 40
0.7397260273972602
 40
0.7397260273972602
 40
0.7465753424657534
 40
0.7465753424657534
 40
0.7465753424657534
 40
0.7465753424657534
 40
0.7534246575342466
 40
0.7534246575342466
 40
0.7534246575342466
 40
0.7534246575342466
 40
0.7602739726027398
 40
0.7602739726027398
 40
0.7602739726027398
 40
0.7602739726027398
 40
0.7671232876712328
 40
0.7671232876712328
 40
0.7671232876712328
 40
0.7671232876712328
 40
0.773972602739726
 40
0.773972602739726
 40
0.773972602739726
 40
0.773972602739726
 40
0.7808219178082192
 40
0.7808219178082192
 40
0.7808219178082192
 40
0.7808219178082192
 40
0.7876712328767124
 40
0.7876712328767124
 40
0.7876712328767124
 40
0.7876712328767124
 40
0.7945205479452054
 40
0.7945205479452054
 40
0.7945205479452054
 40
0.7945205479452054
 40
0.8013698630136986
 40
0.8013698630136986
 40
0.8013698630136986
 40
0.8013698630136986
 40
0.8082191780821918
 40
0.8082191780821918
 40
0.8082191780821918
 40
0.8082191780821918
 40
0.815068493150685
 40
0.815068493150685
 40
0.815068493150685
 40
0.815068493150685
 40
0.821917808219178
 40
0.821917808219178
 40
0.821917808219178
 40
0.821917808219178
 40
0.8287671232876712
 40
0.8287671232876712
 40
0.8287671232876712
 40
0.8287671232876712
 40
0.8356164383561644
 40
0.8356164383561644
 40
0.8356164383561644
 40
0.8356164383561644
 40
0.8424657534246576
 40
0.8424657534246576
 40
0.8424657534246576
 40
0.8424657534246576
 40
0.8493150684931506
 40
0.8493150684931506
 40
0.8493150684931506
 40
0.8493150684931506
 40
0.8561643835616438
 40
0.8561643835616438
 40
0.8561643835616438
 40
0.8561643835616438
 40
0.863013698630137
 40
0.863013698630137
 40
0.863013698630137
 40
0.863013698630137
 40
0.8698630136986302
 40
0.8698630136986302
 40
0.8698630136986302
 40
0.8698630136986302
 40
0.8767123287671232
 40
0.8767123287671232
 40
0.8767123287671232
 40
0.8767123287671232
 40
0.8835616438356164
 40
0.8835616438356164
 40
0.8835616438356164
 40
0.8835616438356164
 40
0.8904109589041096
 40
0.8904109589041096
 40
0.8904109589041096
 40
0.8904109589041096
 40
0.8972602739726028
 40
0.8972602739726028
 40
0.8972602739726028
 40
0.8972602739726028
 40
0.9041095890410958
 40
0.9041095890410958
 40
0.9041095890410958
 40
0.9041095890410958
 40
0.910958904109589
 40
0.910958904109589
 40
0.910958904109589
 40
0.910958904109589
 40
0.9178082191780822
 40
0.9178082191780822
 40
0.9178082191780822
 40
0.9178082191780822
 40
0.9246575342465754
 40
0.9246575342465754
 40
0.9246575342465754
 40
0.9246575342465754
 40
0.9315068493150684
 40
0.9315068493150684
 40
0.9315068493150684
 40
0.9315068493150684
 40
0.9383561643835616
 40
0.9383561643835616
 40
0.9383561643835616
 40
0.9383561643835616
 40
0.9452054794520548
 40
0.9452054794520548
 40
0.9452054794520548
 40
0.9452054794520548
 40
0.952054794520548
 40
0.952054794520548
 40
0.952054794520548
 40
0.952054794520548
 40
0.958904109589041
 40
0.958904109589041
 40
0.958904109589041
 40
0.958904109589041
 40
0.9657534246575342
 40
0.9657534246575342
 40
0.9657534246575342
 40
0.9657534246575342
 40
0.9726027397260274
 40
0.9726027397260274
 40
0.9726027397260274
 40
0.9726027397260274
 40
0.9794520547945206
 40
0.9794520547945206
 40
0.9794520547945206
 40
0.9794520547945206
 40
0.9863013698630136
 40
0.9863013698630136
 40
0.9863013698630136
 40
0.9863013698630136
 40
1.0
 40
1.0
 40
1.0
 40
1.0
 10
54.41293
 20
11.76467
 30
0.0
 10
54.41293
 20
11.76467
 30
0.0
 10
54.41456
 20
11.76467
 30
0.0
 10
54.41456
 20
11.76467
 30
0.0
 10
54.41456
 20
11.76467
 30
0.0
 10
54.41456
 20
11.76467
 30
0.0
 10
55.55063
 20
11.76467
 30
0.0
 10
55.55063
 20
11.76467
 30
0.0
 10
55.55063
 20
11.76467
 30
0.0
 10
66.22579
 20
11.76467
 30
0.0
 10
75.95235
 20
11.76467
 30
0.0
 10
86.21832
 20
11.76467
 30
0.0
 10
86.21832
 20
11.76467
 30
0.0
 10
86.838
 20
11.76467
 30
0.0
 10
87.35844
 20
12.33918
 30
0.0
 10
87.35844
 20
12.96182
 30
0.0
 10
87.35844
 20
12.96182
 30
0.0
 10
87.35844
 20
12.96182
 30
0.0
 10
87.35844
 20
17.46551
 30
0.0
 10
87.35844
 20
17.46551
 30
0.0
 10
87.35844
 20
17.46551
 30
0.0
 10
87.35844
 20
18.09729
 30
0.0
 10
86.79319
 20
18.66266
 30
0.0
 10
86.16129
 20
18.66266
 30
0.0
 10
86.16129
 20
18.66266
 30
0.0
 10
86.16129
 20
18.66266
 30
0.0
 10
85.17216
 20
18.66266
 30
0.0
 10
85.17216
 20
18.66266
 30
0.0
 10
85.17216
 20
18.66266
 30
0.0
 10
85.17216
 20
18.66266
 30
0.0
 10
85.17216
 20
19.07266
 30
0.0
 10
85.17216
 20
19.07266
 30
0.0
 10
85.17216
 20
19.07266
 30
0.0
 10
85.17216
 20
19.07266
 30
0.0
 10
89.19216
 20
19.07266
 30
0.0
 10
89.19216
 20
19.07266
 30
0.0
 10
89.19216
 20
19.07266
 30
0.0
 10
89.19216
 20
19.07266
 30
0.0
 10
89.19216
 20
18.66266
 30
0.0
 10
89.19216
 20
18.66266
 30
0.0
 10
89.19216
 20
18.66266
 30
0.0
 10
89.19216
 20
18.66266
 30
0.0
 10
92.70447
 20
18.66266
 30
0.0
 10
92.70447
 20
18.66266
 30
0.0
 10
92.70447
 20
18.66266
 30
0.0
 10
92.70447
 20
18.66266
 30
0.0
 10
92.70447
 20
22.97599
 30
0.0
 10
92.70447
 20
22.97599
 30
0.0
 10
92.70447
 20
22.97599
 30
0.0
 10
92.70447
 20
22.97599
 30
0.0
 10
92.27447
 20
22.97599
 30
0.0
 10
92.27447
 20
22.97599
 30
0.0
 10
92.27447
 20
22.97599
 30
0.0
 10
92.27447
 20
22.97599
 30
0.0
 10
92.27447
 20
27.00599
 30
0.0
 10
92.27447
 20
27.00599
 30
0.0
 10
92.27447
 20
27.00599
 30
0.0
 10
92.27447
 20
27.00599
 30
0.0
 10
92.70447
 20
27.00599
 30
0.0
 10
92.70447
 20
27.00599
 30
0.0
 10
92.70447
 20
27.00599
 30
0.0
 10
92.70447
 20
27.00599
 30
0.0
 10
92.70447
 20
31.30933
 30
0.0
 10
92.70447
 20
31.30933
 30
0.0
 10
92.70447
 20
31.30933
 30
0.0
 10
92.70447
 20
31.30933
 30
0.0
 10
92.27447
 20
31.30933
 30
0.0
 10
92.27447
 20
31.30933
 30
0.0
 10
92.27447
 20
31.30933
 30
0.0
 10
92.27447
 20
31.30933
 30
0.0
 10
92.27447
 20
35.34933
 30
0.0
 10
92.27447
 20
35.34933
 30
0.0
 10
92.27447
 20
35.34933
 30
0.0
 10
92.27447
 20
35.34933
 30
0.0
 10
92.70447
 20
35.34933
 30
0.0
 10
92.70447
 20
35.34933
 30
0.0
 10
92.70447
 20
35.34933
 30
0.0
 10
92.70447
 20
35.34933
 30
0.0
 10
92.70447
 20
39.64266
 30
0.0
 10
92.70447
 20
39.64266
 30
0.0
 10
92.70447
 20
39.64266
 30
0.0
 10
92.70447
 20
39.64266
 30
0.0
 10
92.27447
 20
39.64266
 30
0.0
 10
92.27447
 20
39.64266
 30
0.0
 10
92.27447
 20
39.64266
 30
0.0
 10
92.27447
 20
39.64266
 30
0.0
 10
92.27447
 20
43.68266
 30
0.0
 10
92.27447
 20
43.68266
 30
0.0
 10
92.27447
 20
43.68266
 30
0.0
 10
92.27447
 20
43.68266
 30
0.0
 10
92.70447
 20
43.68266
 30
0.0
 10
92.70447
 20
43.68266
 30
0.0
 10
92.70447
 20
43.68266
 30
0.0
 10
92.70447
 20
43.68266
 30
0.0
 10
92.70447
 20
47.97599
 30
0.0
 10
92.70447
 20
47.97599
 30
0.0
 10
92.70447
 20
47.97599
 30
0.0
 10
92.70447
 20
47.97599
 30
0.0
 10
92.27447
 20
47.97599
 30
0.0
 10
92.27447
 20
47.97599
 30
0.0
 10
92.27447
 20
47.97599
 30
0.0
 10
92.27447
 20
47.97599
 30
0.0
 10
92.27447
 20
52.01599
 30
0.0
 10
92.27447
 20
52.01599
 30
0.0
 10
92.27447
 20
52.01599
 30
0.0
 10
92.27447
 20
52.01599
 30
0.0
 10
92.70447
 20
52.01599
 30
0.0
 10
92.70447
 20
52.01599
 30
0.0
 10
92.70447
 20
52.01599
 30
0.0
 10
92.70447
 20
52.01599
 30
0.0
 10
92.70447
 20
56.30933
 30
0.0
 10
92.70447
 20
56.30933
 30
0.0
 10
92.70447
 20
56.30933
 30
0.0
 10
92.70447
 20
56.30933
 30
0.0
 10
92.27447
 20
56.30933
 30
0.0
 10
92.27447
 20
56.30933
 30
0.0
 10
92.27447
 20
56.30933
 30
0.0
 10
92.27447
 20
56.30933
 30
0.0
 10
92.27447
 20
60.34933
 30
0.0
 10
92.27447
 20
60.34933
 30
0.0
 10
92.27447
 20
60.34933
 30
0.0
 10
92.27447
 20
60.34933
 30
0.0
 10
92.70447
 20
60.34933
 30
0.0
 10
92.70447
 20
60.34933
 30
0.0
 10
92.70447
 20
60.34933
 30
0.0
 10
92.70447
 20
60.34933
 30
0.0
 10
92.70447
 20
64.47266
 30
0.0
 10
92.70447
 20
64.47266
 30
0.0
 10
92.70447
 20
64.47266
 30
0.0
 10
92.70447
 20
64.47266
 30
0.0
 10
89.19216
 20
64.47266
 30
0.0
 10
89.19216
 20
64.47266
 30
0.0
 10
89.19216
 20
64.47266
 30
0.0
 10
89.19216
 20
64.47266
 30
0.0
 10
89.19216
 20
64.06266
 30
0.0
 10
89.19216
 20
64.06266
 30
0.0
 10
89.19216
 20
64.06266
 30
0.0
 10
89.19216
 20
64.06266
 30
0.0
 10
85.17216
 20
64.06266
 30
0.0
 10
85.17216
 20
64.06266
 30
0.0
 10
85.17216
 20
64.06266
 30
0.0
 10
85.17216
 20
64.06266
 30
0.0
 10
85.17216
 20
64.47266
 30
0.0
 10
85.17216
 20
64.47266
 30
0.0
 10
85.17216
 20
64.47266
 30
0.0
 10
85.17216
 20
64.47266
 30
0.0
 10
81.49985
 20
64.47266
 30
0.0
 10
81.49985
 20
64.47266
 30
0.0
 10
81.49985
 20
64.47266
 30
0.0
 10
81.49985
 20
64.47266
 30
0.0
 10
81.49985
 20
64.06266
 30
0.0
 10
81.49985
 20
64.06266
 30
0.0
 10
81.49985
 20
64.06266
 30
0.0
 10
81.49985
 20
64.06266
 30
0.0
 10
77.47985
 20
64.06266
 30
0.0
 10
77.47985
 20
64.06266
 30
0.0
 10
77.47985
 20
64.06266
 30
0.0
 10
77.47985
 20
64.06266
 30
0.0
 10
77.47985
 20
64.47266
 30
0.0
 10
77.47985
 20
64.47266
 30
0.0
 10
77.47985
 20
64.47266
 30
0.0
 10
77.47985
 20
64.47266
 30
0.0
 10
73.80755
 20
64.47266
 30
0.0
 10
73.80755
 20
64.47266
 30
0.0
 10
73.80755
 20
64.47266
 30
0.0
 10
73.80755
 20
64.47266
 30
0.0
 10
73.80755
 20
64.06266
 30
0.0
 10
73.80755
 20
64.06266
 30
0.0
 10
73.80755
 20
64.06266
 30
0.0
 10
73.80755
 20
64.06266
 30
0.0
 10
69.78755
 20
64.06266
 30
0.0
 10
69.78755
 20
64.06266
 30
0.0
 10
69.78755
 20
64.06266
 30
0.0
 10
69.78755
 20
64.06266
 30
0.0
 10
69.78755
 20
64.47266
 30
0.0
 10
69.78755
 20
64.47266
 30
0.0
 10
69.78755
 20
64.47266
 30
0.0
 10
69.78755
 20
64.47266
 30
0.0
 10
66.11524
 20
64.47266
 30
0.0
 10
66.11524
 20
64.47266
 30
0.0
 10
66.11524
 20
64.47266
 30
0.0
 10
66.11524
 20
64.47266
 30
0.0
 10
66.11524
 20
64.06266
 30
0.0
 10
66.11524
 20
64.06266
 30
0.0
 10
66.11524
 20
64.06266
 30
0.0
 10
66.11524
 20
64.06266
 30
0.0
 10
62.09524
 20
64.06266
 30
0.0
 10
62.09524
 20
64.06266
 30
0.0
 10
62.09524
 20
64.06266
 30
0.0
 10
62.09524
 20
64.06266
 30
0.0
 10
62.09524
 20
64.47266
 30
0.0
 10
62.09524
 20
64.47266
 30
0.0
 10
62.09524
 20
64.47266
 30
0.0
 10
62.09524
 20
64.47266
 30
0.0
 10
58.42293
 20
64.47266
 30
0.0
 10
58.42293
 20
64.47266
 30
0.0
 10
58.42293
 20
64.47266
 30
0.0
 10
58.42293
 20
64.47266
 30
0.0
 10
58.42293
 20
64.06266
 30
0.0
 10
58.42293
 20
64.06266
 30
0.0
 10
58.42293
 20
64.06266
 30
0.0
 10
58.42293
 20
64.06266
 30
0.0
 10
54.40293
 20
64.06266
 30
0.0
 10
54.40293
 20
64.06266
 30
0.0
 10
54.40293
 20
64.06266
 30
0.0
 10
54.40293
 20
64.06266
 30
0.0
 10
54.40293
 20
64.47266
 30
0.0
 10
54.40293
 20
64.47266
 30
0.0
 10
54.40293
 20
64.47266
 30
0.0
 10
54.40293
 20
64.47266
 30
0.0
 10
50.73062
 20
64.47266
 30
0.0
 10
50.73062
 20
64.47266
 30
0.0
 10
50.73062
 20
64.47266
 30
0.0
 10
50.73062
 20
64.47266
 30
0.0
 10
50.73062
 20
64.06266
 30
0.0
 10
50.73062
 20
64.06266
 30
0.0
 10
50.73062
 20
64.06266
 30
0.0
 10
50.73062
 20
64.06266
 30
0.0
 10
46.71062
 20
64.06266
 30
0.0
 10
46.71062
 20
64.06266
 30
0.0
 10
46.71062
 20
64.06266
 30
0.0
 10
46.71062
 20
64.06266
 30
0.0
 10
46.71062
 20
64.47266
 30
0.0
 10
46.71062
 20
64.47266
 30
0.0
 10
46.71062
 20
64.47266
 30
0.0
 10
46.71062
 20
64.47266
 30
0.0
 10
43.03832
 20
64.47266
 30
0.0
 10
43.03832
 20
64.47266
 30
0.0
 10
43.03832
 20
64.47266
 30
0.0
 10
43.03832
 20
64.47266
 30
0.0
 10
43.03832
 20
64.06266
 30
0.0
 10
43.03832
 20
64.06266
 30
0.0
 10
43.03832
 20
64.06266
 30
0.0
 10
43.03832
 20
64.06266
 30
0.0
 10
39.01832
 20
64.06266
 30
0.0
 10
39.01832
 20
64.06266
 30
0.0
 10
39.01832
 20
64.06266
 30
0.0
 10
39.01832
 20
64.06266
 30
0.0
 10
39.01832
 20
64.47266
 30
0.0
 10
39.01832
 20
64.47266
 30
0.0
 10
39.01832
 20
64.47266
 30
0.0
 10
39.01832
 20
64.47266
 30
0.0
 10
35.34601
 20
64.47266
 30
0.0
 10
35.34601
 20
64.47266
 30
0.0
 10
35.34601
 20
64.47266
 30
0.0
 10
35.34601
 20
64.47266
 30
0.0
 10
35.34601
 20
64.06266
 30
0.0
 10
35.34601
 20
64.06266
 30
0.0
 10
35.34601
 20
64.06266
 30
0.0
 10
35.34601
 20
64.06266
 30
0.0
 10
31.32601
 20
64.06266
 30
0.0
 10
31.32601
 20
64.06266
 30
0.0
 10
31.32601
 20
64.06266
 30
0.0
 10
31.32601
 20
64.06266
 30
0.0
 10
31.32601
 20
64.47266
 30
0.0
 10
31.32601
 20
64.47266
 30
0.0
 10
31.32601
 20
64.47266
 30
0.0
 10
31.32601
 20
64.47266
 30
0.0
 10
27.6537
 20
64.47266
 30
0.0
 10
27.6537
 20
64.47266
 30
0.0
 10
27.6537
 20
64.47266
 30
0.0
 10
27.6537
 20
64.47266
 30
0.0
 10
27.6537
 20
64.06266
 30
0.0
 10
27.6537
 20
64.06266
 30
0.0
 10
27.6537
 20
64.06266
 30
0.0
 10
27.6537
 20
64.06266
 30
0.0
 10
23.6337
 20
64.06266
 30
0.0
 10
23.6337
 20
64.06266
 30
0.0
 10
23.6337
 20
64.06266
 30
0.0
 10
23.6337
 20
64.06266
 30
0.0
 10
23.6337
 20
64.47266
 30
0.0
 10
23.6337
 20
64.47266
 30
0.0
 10
23.6337
 20
64.47266
 30
0.0
 10
23.6337
 20
64.47266
 30
0.0
 10
19.96139
 20
64.47266
 30
0.0
 10
19.96139
 20
64.47266
 30
0.0
 10
19.96139
 20
64.47266
 30
0.0
 10
19.96139
 20
64.47266
 30
0.0
 10
19.96139
 20
64.06266
 30
0.0
 10
19.96139
 20
64.06266
 30
0.0
 10
19.96139
 20
64.06266
 30
0.0
 10
19.96139
 20
64.06266
 30
0.0
 10
15.94139
 20
64.06266
 30
0.0
 10
15.94139
 20
64.06266
 30
0.0
 10
15.94139
 20
64.06266
 30
0.0
 10
15.94139
 20
64.06266
 30
0.0
 10
15.94139
 20
64.47266
 30
0.0
 10
15.94139
 20
64.47266
 30
0.0
 10
15.94139
 20
64.47266
 30
0.0
 10
15.94139
 20
64.47266
 30
0.0
 10
12.26909
 20
64.47266
 30
0.0
 10
12.26909
 20
64.47266
 30
0.0
 10
12.26909
 20
64.47266
 30
0.0
 10
12.26909
 20
64.47266
 30
0.0
 10
12.26909
 20
64.06266
 30
0.0
 10
12.26909
 20
64.06266
 30
0.0
 10
12.26909
 20
64.06266
 30
0.0
 10
12.26909
 20
64.06266
 30
0.0
 10
8.23909
 20
64.06266
 30
0.0
 10
8.23909
 20
64.06266
 30
0.0
 10
8.23909
 20
64.06266
 30
0.0
 10
8.23909
 20
64.06266
 30
0.0
 10
8.23909
 20
64.47266
 30
0.0
 10
8.23909
 20
64.47266
 30
0.0
 10
8.23909
 20
64.47266
 30
0.0
 10
8.23909
 20
64.47266
 30
0.0
 10
4.58679
 20
64.47266
 30
0.0
 10
4.58679
 20
64.47266
 30
0.0
 10
4.58679
 20
64.47266
 30
0.0
 10
4.58679
 20
64.47266
 30
0.0
 10
4.58679
 20
64.06266
 30
0.0
 10
4.58679
 20
64.06266
 30
0.0
 10
4.58679
 20
64.06266
 30
0.0
 10
4.58679
 20
64.06266
 30
0.0
 10
0.54679
 20
64.06266
 30
0.0
 10
0.54679
 20
64.06266
 30
0.0
 10
0.54679
 20
64.06266
 30
0.0
 10
0.54679
 20
64.06266
 30
0.0
 10
0.54679
 20
64.47266
 30
0.0
 10
0.54679
 20
64.47266
 30
0.0
 10
0.54679
 20
64.47266
 30
0.0
 10
0.54679
 20
64.47266
 30
0.0
 10
-2.91553
 20
64.47266
 30
0.0
 10
-2.91553
 20
64.47266
 30
0.0
 10
-2.91553
 20
64.47266
 30
0.0
 10
-2.91553
 20
64.47266
 30
0.0
 10
-2.91553
 20
60.34933
 30
0.0
 10
-2.91553
 20
60.34933
 30
0.0
 10
-2.91553
 20
60.34933
 30
0.0
 10
-2.91553
 20
60.34933
 30
0.0
 10
-2.52553
 20
60.34933
 30
0.0
 10
-2.52553
 20
60.34933
 30
0.0
 10
-2.52553
 20
60.34933
 30
0.0
 10
-2.52553
 20
60.34933
 30
0.0
 10
-2.52553
 20
56.30933
 30
0.0
 10
-2.52553
 20
56.30933
 30
0.0
 10
-2.52553
 20
56.30933
 30
0.0
 10
-2.52553
 20
56.30933
 30
0.0
 10
-2.91553
 20
56.30933
 30
0.0
 10
-2.91553
 20
56.30933
 30
0.0
 10
-2.91553
 20
56.30933
 30
0.0
 10
-2.91553
 20
56.30933
 30
0.0
 10
-2.91553
 20
52.01599
 30
0.0
 10
-2.91553
 20
52.01599
 30
0.0
 10
-2.91553
 20
52.01599
 30
0.0
 10
-2.91553
 20
52.01599
 30
0.0
 10
-2.52553
 20
52.01599
 30
0.0
 10
-2.52553
 20
52.01599
 30
0.0
 10
-2.52553
 20
52.01599
 30
0.0
 10
-2.52553
 20
52.01599
 30
0.0
 10
-2.52553
 20
47.97599
 30
0.0
 10
-2.52553
 20
47.97599
 30
0.0
 10
-2.52553
 20
47.97599
 30
0.0
 10
-2.52553
 20
47.97599
 30
0.0
 10
-2.91553
 20
47.97599
 30
0.0
 10
-2.91553
 20
47.97599
 30
0.0
 10
-2.91553
 20
47.97599
 30
0.0
 10
-2.91553
 20
47.97599
 30
0.0
 10
-2.91553
 20
43.68266
 30
0.0
 10
-2.91553
 20
43.68266
 30
0.0
 10
-2.91553
 20
43.68266
 30
0.0
 10
-2.91553
 20
43.68266
 30
0.0
 10
-2.52553
 20
43.68266
 30
0.0
 10
-2.52553
 20
43.68266
 30
0.0
 10
-2.52553
 20
43.68266
 30
0.0
 10
-2.52553
 20
43.68266
 30
0.0
 10
-2.52553
 20
39.64266
 30
0.0
 10
-2.52553
 20
39.64266
 30
0.0
 10
-2.52553
 20
39.64266
 30
0.0
 10
-2.52553
 20
39.64266
 30
0.0
 10
-2.91553
 20
39.64266
 30
0.0
 10
-2.91553
 20
39.64266
 30
0.0
 10
-2.91553
 20
39.64266
 30
0.0
 10
-2.91553
 20
39.64266
 30
0.0
 10
-2.91553
 20
35.33933
 30
0.0
 10
-2.91553
 20
35.33933
 30
0.0
 10
-2.91553
 20
35.33933
 30
0.0
 10
-2.91553
 20
35.33933
 30
0.0
 10
-2.52553
 20
35.33933
 30
0.0
 10
-2.52553
 20
35.33933
 30
0.0
 10
-2.52553
 20
35.33933
 30
0.0
 10
-2.52553
 20
35.33933
 30
0.0
 10
-2.52553
 20
31.31933
 30
0.0
 10
-2.52553
 20
31.31933
 30
0.0
 10
-2.52553
 20
31.31933
 30
0.0
 10
-2.52553
 20
31.31933
 30
0.0
 10
-2.91553
 20
31.31933
 30
0.0
 10
-2.91553
 20
31.31933
 30
0.0
 10
-2.91553
 20
31.31933
 30
0.0
 10
-2.91553
 20
31.31933
 30
0.0
 10
-2.91553
 20
27.00599
 30
0.0
 10
-2.91553
 20
27.00599
 30
0.0
 10
-2.91553
 20
27.00599
 30
0.0
 10
-2.91553
 20
27.00599
 30
0.0
 10
-2.52553
 20
27.00599
 30
0.0
 10
-2.52553
 20
27.00599
 30
0.0
 10
-2.52553
 20
27.00599
 30
0.0
 10
-2.52553
 20
27.00599
 30
0.0
 10
-2.52553
 20
22.98599
 30
0.0
 10
-2.52553
 20
22.98599
 30
0.0
 10
-2.52553
 20
22.98599
 30
0.0
 10
-2.52553
 20
22.98599
 30
0.0
 10
-2.91553
 20
22.98599
 30
0.0
 10
-2.91553
 20
22.98599
 30
0.0
 10
-2.91553
 20
22.98599
 30
0.0
 10
-2.91553
 20
22.98599
 30
0.0
 10
-2.91553
 20
18.66266
 30
0.0
 10
-2.91553
 20
18.66266
 30
0.0
 10
-2.91553
 20
18.66266
 30
0.0
 10
-2.91553
 20
18.66266
 30
0.0
 10
-5.38084
 20
18.66266
 30
0.0
 10
-5.38084
 20
18.66266
 30
0.0
 10
-5.38084
 20
18.66266
 30
0.0
 10
-5.38084
 20
18.66266
 30
0.0
 10
-5.38084
 20
36.05006
 30
0.0
 10
-5.38084
 20
36.05006
 30
0.0
 10
-5.38084
 20
36.05006
 30
0.0
 10
-5.38084
 20
36.82862
 30
0.0
 10
-5.75622
 20
36.85405
 30
0.0
 10
-6.52095
 20
36.84812
 30
0.0
 10
-6.52095
 20
36.84812
 30
0.0
 10
-6.91832
 20
36.84516
 30
0.0
 10
-7.11138
 20
36.8975
 30
0.0
 10
-7.43122
 20
36.907
 30
0.0
 10
-7.43122
 20
36.907
 30
0.0
 10
-8.2515
 20
36.93157
 30
0.0
 10
-13.85889
 20
36.93651
 30
0.0
 10
-14.20156
 20
36.8896
 30
0.0
 10
-14.20156
 20
36.8896
 30
0.0
 10
-14.93937
 20
36.7885
 30
0.0
 10
-15.93667
 20
36.9275
 30
0.0
 10
-16.71708
 20
36.83985
 30
0.0
 10
-16.71708
 20
36.83985
 30
0.0
 10
-17.48674
 20
36.75344
 30
0.0
 10
-18.3506
 20
36.77899
 30
0.0
 10
-19.17705
 20
36.73443
 30
0.0
 10
-19.17705
 20
36.73443
 30
0.0
 10
-19.17705
 20
36.73443
 30
0.0
 10
-21.60529
 20
36.54026
 30
0.0
 10
-21.60529
 20
36.54026
 30
0.0
 10
-21.60529
 20
36.54026
 30
0.0
 10
-23.6495
 20
36.25807
 30
0.0
 10
-24.24573
 20
34.70503
 30
0.0
 10
-25.06737
 20
32.93338
 30
0.0
 10
-25.06737
 20
32.93338
 30
0.0
 10
-25.06737
 20
32.93338
 30
0.0
 10
-25.4909
 20
32.04398
 30
0.0
 10
-25.4909
 20
32.04398
 30
0.0
 10
-25.4909
 20
32.04398
 30
0.0
 10
-25.76518
 20
31.46528
 30
0.0
 10
-25.48645
 20
31.37541
 30
0.0
 10
-24.42151
 20
31.37541
 30
0.0
 10
-24.42151
 20
31.37541
 30
0.0
 10
-24.44163
 20
31.13284
 30
0.0
 10
-24.54323
 20
30.9362
 30
0.0
 10
-24.62544
 20
30.72425
 30
0.0
 10
-24.62544
 20
30.72425
 30
0.0
 10
-24.71531
 20
30.49242
 30
0.0
 10
-24.76209
 20
30.32442
 30
0.0
 10
-24.84208
 20
30.0858
 30
0.0
 10
-24.84208
 20
30.0858
 30
0.0
 10
-25.21129
 20
28.98519
 30
0.0
 10
-25.30326
 20
28.35909
 30
0.0
 10
-25.55064
 20
27.31686
 30
0.0
 10
-25.55064
 20
27.31686
 30
0.0
 10
-25.83529
 20
26.11811
 30
0.0
 10
-26.20082
 20
23.22794
 30
0.0
 10
-26.29957
 20
21.96586
 30
0.0
 10
-26.29957
 20
21.96586
 30
0.0
 10
-26.34043
 20
21.44395
 30
0.0
 10
-26.37623
 20
19.66402
 30
0.0
 10
-26.47375
 20
19.46071
 30
0.0
 10
-26.47375
 20
19.46071
 30
0.0
 10
-26.20957
 20
19.46071
 30
0.0
 10
-25.90368
 20
19.54256
 30
0.0
 10
-25.90368
 20
19.28975
 30
0.0
 10
-25.90368
 20
19.28975
 30
0.0
 10
-25.90368
 20
19.28975
 30
0.0
 10
-25.90368
 20
15.75521
 30
0.0
 10
-25.90368
 20
15.75521
 30
0.0
 10
-25.90368
 20
15.75521
 30
0.0
 10
-25.90368
 20
15.75521
 30
0.0
 10
-26.81581
 20
15.75521
 30
0.0
 10
-26.81581
 20
15.75521
 30
0.0
 10
-26.81581
 20
15.75521
 30
0.0
 10
-26.81581
 20
15.42994
 30
0.0
 10
-26.87284
 20
15.36093
 30
0.0
 10
-26.87284
 20
15.01406
 30
0.0
 10
-26.87284
 20
15.01406
 30
0.0
 10
-26.87284
 20
15.01406
 30
0.0
 10
-26.87284
 20
14.15897
 30
0.0
 10
-26.87284
 20
14.15897
 30
0.0
 10
-26.87284
 20
14.15897
 30
0.0
 10
-25.57274
 20
14.15897
 30
0.0
 10
-25.84666
 20
14.59509
 30
0.0
 10
-25.84666
 20
11.93564
 30
0.0
 10
-25.84666
 20
11.93564
 30
0.0
 10
-26.09564
 20
11.87775
 30
0.0
 10
-26.63003
 20
11.81911
 30
0.0
 10
-26.87284
 20
11.93564
 30
0.0
 10
-26.87284
 20
11.93564
 30
0.0
 10
-26.87284
 20
11.48051
 30
0.0
 10
-26.83161
 20
11.26535
 30
0.0
 10
-26.61545
 20
10.99587
 30
0.0
 10
-26.61545
 20
10.99587
 30
0.0
 10
-26.48066
 20
10.82762
 30
0.0
 10
-26.10947
 20
10.56753
 30
0.0
 10
-25.84666
 20
10.56753
 30
0.0
 10
-25.84666
 20
10.56753
 30
0.0
 10
-25.84666
 20
10.56753
 30
0.0
 10
-19.68982
 20
10.56753
 30
0.0
 10
-19.68982
 20
10.56753
 30
0.0
 10
-19.68982
 20
10.56753
 30
0.0
 10
-19.68982
 20
10.56753
 30
0.0
 10
-8.28828
 20
11.76467
 30
0.0
 10
-8.28828
 20
11.76467
 30
0.0
 10
-8.28828
 20
11.76467
 30
0.0
 10
13.42913
 20
11.76467
 30
0.0
 10
24.19087
 20
11.76467
 30
0.0
 10
39.08535
 20
11.76467
 30
0.0
 10
39.08535
 20
11.76467
 30
0.0
 10
39.70503
 20
11.76467
 30
0.0
 10
40.22547
 20
12.33918
 30
0.0
 10
40.22547
 20
12.96182
 30
0.0
 10
40.22547
 20
12.96182
 30
0.0
 10
40.22547
 20
12.96182
 30
0.0
 10
40.22547
 20
17.46551
 30
0.0
 10
40.22547
 20
17.46551
 30
0.0
 10
40.22547
 20
17.46551
 30
0.0
 10
40.22547
 20
18.09729
 30
0.0
 10
39.64022
 20
18.66266
 30
0.0
 10
39.00832
 20
18.66266
 30
0.0
 10
39.00832
 20
18.66266
 30
0.0
 10
39.00832
 20
18.66266
 30
0.0
 10
39.00832
 20
19.07266
 30
0.0
 10
39.00832
 20
19.07266
 30
0.0
 10
39.00832
 20
19.07266
 30
0.0
 10
39.00832
 20
19.07266
 30
0.0
 10
43.04832
 20
19.07266
 30
0.0
 10
43.04832
 20
19.07266
 30
0.0
 10
43.04832
 20
19.07266
 30
0.0
 10
43.04832
 20
19.07266
 30
0.0
 10
43.04832
 20
18.66266
 30
0.0
 10
43.04832
 20
18.66266
 30
0.0
 10
43.04832
 20
18.66266
 30
0.0
 10
43.04832
 20
18.66266
 30
0.0
 10
46.71062
 20
18.66266
 30
0.0
 10
46.71062
 20
18.66266
 30
0.0
 10
46.71062
 20
18.66266
 30
0.0
 10
46.71062
 20
18.66266
 30
0.0
 10
46.71062
 20
19.07266
 30
0.0
 10
46.71062
 20
19.07266
 30
0.0
 10
46.71062
 20
19.07266
 30
0.0
 10
46.71062
 20
19.07266
 30
0.0
 10
50.74062
 20
19.07266
 30
0.0
 10
50.74062
 20
19.07266
 30
0.0
 10
50.74062
 20
19.07266
 30
0.0
 10
50.74062
 20
19.07266
 30
0.0
 10
50.74062
 20
18.66266
 30
0.0
 10
50.74062
 20
18.66266
 30
0.0
 10
50.74062
 20
18.66266
 30
0.0
 10
50.74062
 20
18.66266
 30
0.0
 10
54.35753
 20
18.66266
 30
0.0
 10
54.35753
 20
18.66266
 30
0.0
 10
54.35753
 20
18.66266
 30
0.0
 10
53.73785
 20
18.66266
 30
0.0
 10
53.21741
 20
18.08815
 30
0.0
 10
53.21741
 20
17.46551
 30
0.0
 10
53.21741
 20
17.46551
 30
0.0
 10
53.21741
 20
17.46551
 30
0.0
 10
53.21741
 20
12.96182
 30
0.0
 10
53.21741
 20
12.96182
 30
0.0
 10
53.21741
 20
12.96182
 30
0.0
 10
53.21741
 20
12.33058
 30
0.0
 10
53.78169
 20
11.76566
 30
0.0
 10
54.41293
 20
11.76469
 30
0.0
 10
54.41293
 20
11.76469
 30
0.0
 10
54.41293
 20
11.76469
 30
0.0
 10
54.41293
 20
11.76467
 30
0.0
 10
54.41293
 20
11.76467
 30
0.0
  0
SPLINE
  5
B5
330
1F
100
AcDbEntity
  8
layer 1
 62
   250
370
     9
100
AcDbSpline
210
0.0
220
0.0
230
1.0
 70
    11
 71
     3
 72
    20
 73
    16
 74
     0
 42
0.000000001
 43
0.0000000001
 40
0.0
 40
0.0
 40
0.0
 40
0.0
 40
0.2
 40
0.2
 40
0.2
 40
0.2
 40
0.4
 40
0.4
 40
0.4
 40
0.4
 40
0.6
 40
0.6
 40
0.6
 40
0.6
 40
1.0
 40
1.0
 40
1.0
 40
1.0
 10
0.53679
 20
18.66266
 30
0.0
 10
0.53679
 20
18.66266
 30
0.0
 10
0.53679
 20
19.07266
 30
0.0
 10
0.53679
 20
19.07266
 30
0.0
 10
0.53679
 20
19.07266
 30
0.0
 10
0.53679
 20
19.07266
 30
0.0
 10
4.59679
 20
19.07266
 30
0.0
 10
4.59679
 20
19.07266
 30
0.0
 10
4.59679
 20
19.07266
 30
0.0
 10
4.59679
 20
19.07266
 30
0.0
 10
4.59679
 20
18.66266
 30
0.0
 10
4.59679
 20
18.66266
 30
0.0
 10
4.59679
 20
18.66266
 30
0.0
 10
4.59679
 20
18.66266
 30
0.0
 10
0.53679
 20
18.66266
 30
0.0
 10
0.53679
 20
18.66266
 30
0.0
  0
SPLINE
  5
B6
330
1F
100
AcDbEntity
  8
layer 1
 62
   250
370
     9
100
AcDbSpline
210
0.0
220
0.0
230
1.0
 70
    11
 71
     3
 72
    56
 73
    52
 74
     0
 42
0.000000001
 43
0.0000000001
 40
0.0
 40
0.0
 40
0.0
 40
0.0
 40
0.0714285714285714
 40
0.0714285714285714
 40
0.0714285714285714
 40
0.0714285714285714
 40
0.1428571428571428
 40
0.1428571428571428
 40
0.1428571428571428
 40
0.1428571428571428
 40
0.2142857142857143
 40
0.2142857142857143
 40
0.2142857142857143
 40
0.2142857142857143
 40
0.2857142857142857
 40
0.2857142857142857
 40
0.2857142857142857
 40
0.2857142857142857
 40
0.3571428571428572
 40
0.3571428571428572
 40
0.3571428571428572
 40
0.3571428571428572
 40
0.4285714285714285
 40
0.4285714285714285
 40
0.4285714285714285
 40
0.4285714285714285
 40
0.5
 40
0.5
 40
0.5
 40
0.5
 40
0.5714285714285714
 40
0.5714285714285714
 40
0.5714285714285714
 40
0.5714285714285714
 40
0.6428571428571429
 40
0.6428571428571429
 40
0.6428571428571429
 40
0.6428571428571429
 40
0.7142857142857143
 40
0.7142857142857143
 40
0.7142857142857143
 40
0.7142857142857143
 40
0.7857142857142857
 40
0.7857142857142857
 40
0.7857142857142857
 40
0.7857142857142857
 40
0.8571428571428571
 40
0.8571428571428571
 40
0.8571428571428571
 40
0.8571428571428571
 40
1.0
 40
1.0
 40
1.0
 40
1.0
 10
-67.73673
 20
-6.45044
 30
0.0
 10
-67.73673
 20
-7.93755
 30
0.0
 10
-67.18728
 20
-9.02088
 30
0.0
 10
-66.27603
 20
-10.00645
 30
0.0
 10
-66.27603
 20
-10.00645
 30
0.0
 10
-66.26801
 20
-10.01509
 30
0.0
 10
-66.2569
 20
-10.02768
 30
0.0
 10
-66.24875
 20
-10.0362
 30
0.0
 10
-66.24875
 20
-10.0362
 30
0.0
 10
-66.2406
 20
-10.04472
 30
0.0
 10
-66.229
 20
-10.05682
 30
0.0
 10
-66.22073
 20
-10.06521
 30
0.0
 10
-66.22073
 20
-10.06521
 30
0.0
 10
-66.18937
 20
-10.09669
 30
0.0
 10
-66.16333
 20
-10.11891
 30
0.0
 10
-66.1321
 20
-10.14755
 30
0.0
 10
-66.1321
 20
-10.14755
 30
0.0
 10
-65.70103
 20
-10.54293
 30
0.0
 10
-65.36589
 20
-10.74772
 30
0.0
 10
-64.83014
 20
-11.01202
 30
0.0
 10
-64.83014
 20
-11.01202
 30
0.0
 10
-62.98369
 20
-11.9229
 30
0.0
 10
-60.65951
 20
-11.43666
 30
0.0
 10
-59.22819
 20
-9.99929
 30
0.0
 10
-59.22819
 20
-9.99929
 30
0.0
 10
-59.124
 20
-9.89461
 30
0.0
 10
-59.03944
 20
-9.82227
 30
0.0
 10
-58.94316
 20
-9.71426
 30
0.0
 10
-58.94316
 20
-9.71426
 30
0.0
 10
-58.48124
 20
-9.1958
 30
0.0
 10
-58.06338
 20
-8.33121
 30
0.0
 10
-57.89957
 20
-7.6224
 30
0.0
 10
-57.89957
 20
-7.6224
 30
0.0
 10
-57.00708
 20
-3.76062
 30
0.0
 10
-60.82369
 20
-0.29039
 30
0.0
 10
-64.73262
 20
-1.92947
 30
0.0
 10
-64.73262
 20
-1.92947
 30
0.0
 10
-65.46908
 20
-2.23832
 30
0.0
 10
-65.91447
 20
-2.62272
 30
0.0
 10
-66.44934
 20
-3.17723
 30
0.0
 10
-66.44934
 20
-3.17723
 30
0.0
 10
-66.44934
 20
-3.17723
 30
0.0
 10
-66.53366
 20
-3.26388
 30
0.0
 10
-66.53366
 20
-3.26388
 30
0.0
 10
-66.53366
 20
-3.26388
 30
0.0
 10
-66.74845
 20
-3.49275
 30
0.0
 10
-67.17642
 20
-4.17551
 30
0.0
 10
-67.27357
 20
-4.40524
 30
0.0
 10
-67.27357
 20
-4.40524
 30
0.0
 10
-67.52626
 20
-5.00233
 30
0.0
 10
-67.73673
 20
-5.60831
 30
0.0
 10
-67.73673
 20
-6.45044
 30
0.0
  0
SPLINE
  5
B7
330
1F
100
AcDbEntity
  8
layer 1
 62
   250
370
     9
100
AcDbSpline
210
0.0
220
0.0
230
1.0
 70
    11
 71
     3
 72
    32
 73
    28
 74
     0
 42
0.000000001
 43
0.0000000001
 40
0.0
 40
0.0
 40
0.0
 40
0.0
 40
0.125
 40
0.125
 40
0.125
 40
0.125
 40
0.25
 40
0.25
 40
0.25
 40
0.25
 40
0.375
 40
0.375
 40
0.375
 40
0.375
 40
0.5
 40
0.5
 40
0.5
 40
0.5
 40
0.625
 40
0.625
 40
0.625
 40
0.625
 40
0.75
 40
0.75
 40
0.75
 40
0.75
 40
1.0
 40
1.0
 40
1.0
 40
1.0
 10
-48.69605
 20
-11.46715
 30
0.0
 10
-44.58825
 20
-11.46715
 30
0.0
 10
-42.56564
 20
-7.1906
 30
0.0
 10
-44.15348
 20
-4.24525
 30
0.0
 10
-44.15348
 20
-4.24525
 30
0.0
 10
-44.7223
 20
-3.18994
 30
0.0
 10
-45.45358
 20
-2.45175
 30
0.0
 10
-46.58419
 20
-1.94428
 30
0.0
 10
-46.58419
 20
-1.94428
 30
0.0
 10
-48.2724
 20
-1.18671
 30
0.0
 10
-50.44128
 20
-1.46915
 30
0.0
 10
-51.78916
 20
-2.67321
 30
0.0
 10
-51.78916
 20
-2.67321
 30
0.0
 10
-52.297
 20
-3.12686
 30
0.0
 10
-52.01
 20
-2.81048
 30
0.0
 10
-52.49871
 20
-3.38881
 30
0.0
 10
-52.49871
 20
-3.38881
 30
0.0
 10
-52.58067
 20
-3.48583
 30
0.0
 10
-52.6219
 20
-3.56397
 30
0.0
 10
-52.68733
 20
-3.65643
 30
0.0
 10
-52.68733
 20
-3.65643
 30
0.0
 10
-54.55934
 20
-6.30008
 30
0.0
 10
-53.37972
 20
-10.04114
 30
0.0
 10
-50.29315
 20
-11.18311
 30
0.0
 10
-50.29315
 20
-11.18311
 30
0.0
 10
-49.89369
 20
-11.33087
 30
0.0
 10
-49.24414
 20
-11.46715
 30
0.0
 10
-48.69605
 20
-11.46715
 30
0.0
  0
SPLINE
  5
B8
330
1F
100
AcDbEntity
  8
layer 1
 62
   250
370
     9
100
AcDbSpline
210
0.0
220
0.0
230
1.0
 70
    11
 71
     3
 72
   100
 73
    96
 74
     0
 42
0.000000001
 43
0.0000000001
 40
0.0
 40
0.0
 40
0.0
 40
0.0
 40
0.04
 40
0.04
 40
0.04
 40
0.04
 40
0.08
 40
0.08
 40
0.08
 40
0.08
 40
0.12
 40
0.12
 40
0.12
 40
0.12
 40
0.16
 40
0.16
 40
0.16
 40
0.16
 40
0.2
 40
0.2
 40
0.2
 40
0.2
 40
0.24
 40
0.24
 40
0.24
 40
0.24
 40
0.28
 40
0.28
 40
0.28
 40
0.28
 40
0.32
 40
0.32
 40
0.32
 40
0.32
 40
0.36
 40
0.36
 40
0.36
 40
0.36
 40
0.4
 40
0.4
 40
0.4
 40
0.4
 40
0.44
 40
0.44
 40
0.44
 40
0.44
 40
0.48
 40
0.48
 40
0.48
 40
0.48
 40
0.52
 40
0.52
 40
0.52
 40
0.52
 40
0.56
 40
0.56
 40
0.56
 40
0.56
 40
0.6
 40
0.6
 40
0.6
 40
0.6
 40
0.64
 40
0.64
 40
0.64
 40
0.64
 40
0.68
 40
0.68
 40
0.68
 40
0.68
 40
0.72
 40
0.72
 40
0.72
 40
0.72
 40
0.76
 40
0.76
 40
0.76
 40
0.76
 40
0.8
 40
0.8
 40
0.8
 40
0.8
 40
0.84
 40
0.84
 40
0.84
 40
0.84
 40
0.88
 40
0.88
 40
0.88
 40
0.88
 40
0.92
 40
0.92
 40
0.92
 40
0.92
 40
1.0
 40
1.0
 40
1.0
 40
1.0
 10
-73.13729
 20
-6.20036
 30
0.0
 10
-73.13729
 20
-6.20036
 30
0.0
 10
-73.13566
 20
-6.20036
 30
0.0
 10
-73.13566
 20
-6.20036
 30
0.0
 10
-73.13566
 20
-6.20036
 30
0.0
 10
-73.13566
 20
-6.20036
 30
0.0
 10
-71.99959
 20
-6.20036
 30
0.0
 10
-71.99959
 20
-6.20036
 30
0.0
 10
-71.99959
 20
-6.20036
 30
0.0
 10
-71.99959
 20
-6.20036
 30
0.0
 10
-68.58165
 20
-6.20036
 30
0.0
 10
-68.58165
 20
-6.20036
 30
0.0
 10
-68.58165
 20
-6.20036
 30
0.0
 10
-68.58165
 20
-5.36712
 30
0.0
 10
-68.23687
 20
-4.25823
 30
0.0
 10
-67.81716
 20
-3.54436
 30
0.0
 10
-67.81716
 20
-3.54436
 30
0.0
 10
-67.50473
 20
-3.01282
 30
0.0
 10
-66.99689
 20
-2.44535
 30
0.0
 10
-66.51694
 20
-2.05132
 30
0.0
 10
-66.51694
 20
-2.05132
 30
0.0
 10
-65.70629
 20
-1.38584
 30
0.0
 10
-66.03181
 20
-1.67902
 30
0.0
 10
-65.26363
 20
-1.25228
 30
0.0
 10
-65.26363
 20
-1.25228
 30
0.0
 10
-63.90082
 20
-0.49545
 30
0.0
 10
-61.85117
 20
-0.62926
 30
0.0
 10
-60.48713
 20
-1.24129
 30
0.0
 10
-60.48713
 20
-1.24129
 30
0.0
 10
-58.56451
 20
-2.10415
 30
0.0
 10
-57.12307
 20
-4.14034
 30
0.0
 10
-57.12307
 20
-6.20036
 30
0.0
 10
-57.12307
 20
-6.20036
 30
0.0
 10
-57.12307
 20
-6.20036
 30
0.0
 10
-54.44374
 20
-6.20036
 30
0.0
 10
-54.44374
 20
-6.20036
 30
0.0
 10
-54.44374
 20
-6.20036
 30
0.0
 10
-54.44374
 20
-5.41489
 30
0.0
 10
-54.15921
 20
-4.56795
 30
0.0
 10
-53.89344
 20
-4.01431
 30
0.0
 10
-53.89344
 20
-4.01431
 30
0.0
 10
-53.44855
 20
-3.08775
 30
0.0
 10
-53.12118
 20
-2.72396
 30
0.0
 10
-52.40521
 20
-2.08193
 30
0.0
 10
-52.40521
 20
-2.08193
 30
0.0
 10
-49.75057
 20
0.29854
 30
0.0
 10
-45.24084
 20
-0.54606
 30
0.0
 10
-43.57288
 20
-3.88062
 30
0.0
 10
-43.57288
 20
-3.88062
 30
0.0
 10
-43.2602
 20
-4.50573
 30
0.0
 10
-42.98517
 20
-5.36638
 30
0.0
 10
-42.98517
 20
-6.20036
 30
0.0
 10
-42.98517
 20
-6.20036
 30
0.0
 10
-42.98517
 20
-6.20036
 30
0.0
 10
-41.3319
 20
-6.20036
 30
0.0
 10
-41.3319
 20
-6.20036
 30
0.0
 10
-41.3319
 20
-6.20036
 30
0.0
 10
-40.71222
 20
-6.20036
 30
0.0
 10
-40.19178
 20
-5.62585
 30
0.0
 10
-40.19178
 20
-5.00321
 30
0.0
 10
-40.19178
 20
-5.00321
 30
0.0
 10
-40.19178
 20
-5.00321
 30
0.0
 10
-40.19178
 20
-0.49952
 30
0.0
 10
-40.19178
 20
-0.49952
 30
0.0
 10
-40.19178
 20
-0.49952
 30
0.0
 10
-40.19178
 20
0.13226
 30
0.0
 10
-40.75703
 20
0.69763
 30
0.0
 10
-41.38893
 20
0.69763
 30
0.0
 10
-41.38893
 20
0.69763
 30
0.0
 10
-41.38893
 20
0.69763
 30
0.0
 10
-71.99959
 20
0.69763
 30
0.0
 10
-71.99959
 20
0.69763
 30
0.0
 10
-71.99959
 20
0.69763
 30
0.0
 10
-71.99959
 20
0.69763
 30
0.0
 10
-73.13729
 20
0.69763
 30
0.0
 10
-73.13729
 20
0.69763
 30
0.0
 10
-73.13729
 20
0.69763
 30
0.0
 10
-73.13729
 20
0.69763
 30
0.0
 10
-73.19269
 20
0.69763
 30
0.0
 10
-73.19269
 20
0.69763
 30
0.0
 10
-73.19269
 20
0.69763
 30
0.0
 10
-73.81237
 20
0.69763
 30
0.0
 10
-74.33281
 20
0.12312
 30
0.0
 10
-74.33281
 20
-0.49952
 30
0.0
 10
-74.33281
 20
-0.49952
 30
0.0
 10
-74.33281
 20
-0.49952
 30
0.0
 10
-74.33281
 20
-5.00321
 30
0.0
 10
-74.33281
 20
-5.00321
 30
0.0
 10
-74.33281
 20
-5.00321
 30
0.0
 10
-74.33281
 20
-5.63445
 30
0.0
 10
-73.76853
 20
-6.19937
 30
0.0
 10
-73.13729
 20
-6.20034
 30
0.0
 10
-73.13729
 20
-6.20034
 30
0.0
 10
-73.13729
 20
-6.20034
 30
0.0
 10
-73.13729
 20
-6.20036
 30
0.0
 10
-73.13729
 20
-6.20036
 30
0.0
  0
SPLINE
  5
B9
330
1F
100
AcDbEntity
  8
layer 1
 62
   250
370
     9
100
AcDbSpline
210
0.0
220
0.0
230
1.0
 70
    11
 71
     3
 72
    56
 73
    52
 74
     0
 42
0.000000001
 43
0.0000000001
 40
0.0
 40
0.0
 40
0.0
 40
0.0
 40
0.0714285714285714
 40
0.0714285714285714
 40
0.0714285714285714
 40
0.0714285714285714
 40
0.1428571428571428
 40
0.1428571428571428
 40
0.1428571428571428
 40
0.1428571428571428
 40
0.2142857142857143
 40
0.2142857142857143
 40
0.2142857142857143
 40
0.2142857142857143
 40
0.2857142857142857
 40
0.2857142857142857
 40
0.2857142857142857
 40
0.2857142857142857
 40
0.3571428571428572
 40
0.3571428571428572
 40
0.3571428571428572
 40
0.3571428571428572
 40
0.4285714285714285
 40
0.4285714285714285
 40
0.4285714285714285
 40
0.4285714285714285
 40
0.5
 40
0.5
 40
0.5
 40
0.5
 40
0.5714285714285714
 40
0.5714285714285714
 40
0.5714285714285714
 40
0.5714285714285714
 40
0.6428571428571429
 40
0.6428571428571429
 40
0.6428571428571429
 40
0.6428571428571429
 40
0.7142857142857143
 40
0.7142857142857143
 40
0.7142857142857143
 40
0.7142857142857143
 40
0.7857142857142857
 40
0.7857142857142857
 40
0.7857142857142857
 40
0.7857142857142857
 40
0.8571428571428571
 40
0.8571428571428571
 40
0.8571428571428571
 40
0.8571428571428571
 40
1.0
 40
1.0
 40
1.0
 40
1.0
 10
-61.28881
 20
7.52281
 30
0.0
 10
-61.28881
 20
6.0357
 30
0.0
 10
-60.73936
 20
4.95237
 30
0.0
 10
-59.82811
 20
3.9668
 30
0.0
 10
-59.82811
 20
3.9668
 30
0.0
 10
-59.82009
 20
3.95816
 30
0.0
 10
-59.80898
 20
3.94557
 30
0.0
 10
-59.80083
 20
3.93705
 30
0.0
 10
-59.80083
 20
3.93705
 30
0.0
 10
-59.79268
 20
3.92853
 30
0.0
 10
-59.78108
 20
3.91643
 30
0.0
 10
-59.77281
 20
3.90804
 30
0.0
 10
-59.77281
 20
3.90804
 30
0.0
 10
-59.74145
 20
3.87656
 30
0.0
 10
-59.71541
 20
3.85434
 30
0.0
 10
-59.68418
 20
3.8257
 30
0.0
 10
-59.68418
 20
3.8257
 30
0.0
 10
-59.25311
 20
3.43032
 30
0.0
 10
-58.91797
 20
3.22553
 30
0.0
 10
-58.38222
 20
2.96123
 30
0.0
 10
-58.38222
 20
2.96123
 30
0.0
 10
-56.53577
 20
2.05035
 30
0.0
 10
-54.21159
 20
2.53659
 30
0.0
 10
-52.78027
 20
3.97396
 30
0.0
 10
-52.78027
 20
3.97396
 30
0.0
 10
-52.67608
 20
4.07864
 30
0.0
 10
-52.59152
 20
4.15098
 30
0.0
 10
-52.49524
 20
4.25899
 30
0.0
 10
-52.49524
 20
4.25899
 30
0.0
 10
-52.03332
 20
4.77745
 30
0.0
 10
-51.61546
 20
5.64204
 30
0.0
 10
-51.45165
 20
6.35085
 30
0.0
 10
-51.45165
 20
6.35085
 30
0.0
 10
-50.55916
 20
10.21263
 30
0.0
 10
-54.37577
 20
13.68286
 30
0.0
 10
-58.2847
 20
12.04378
 30
0.0
 10
-58.2847
 20
12.04378
 30
0.0
 10
-59.02116
 20
11.73493
 30
0.0
 10
-59.46655
 20
11.35053
 30
0.0
 10
-60.00142
 20
10.79602
 30
0.0
 10
-60.00142
 20
10.79602
 30
0.0
 10
-60.00142
 20
10.79602
 30
0.0
 10
-60.08574
 20
10.70937
 30
0.0
 10
-60.08574
 20
10.70937
 30
0.0
 10
-60.08574
 20
10.70937
 30
0.0
 10
-60.30053
 20
10.4805
 30
0.0
 10
-60.7285
 20
9.79774
 30
0.0
 10
-60.82565
 20
9.56801
 30
0.0
 10
-60.82565
 20
9.56801
 30
0.0
 10
-61.07834
 20
8.97092
 30
0.0
 10
-61.28881
 20
8.36494
 30
0.0
 10
-61.28881
 20
7.52281
 30
0.0
  0
SPLINE
  5
BA
330
1F
100
AcDbEntity
  8
layer 1
 62
   250
370
     9
100
AcDbSpline
210
0.0
220
0.0
230
1.0
 70
    11
 71
     3
 72
    44
 73
    40
 74
     0
 42
0.000000001
 43
0.0000000001
 40
0.0
 40
0.0
 40
0.0
 40
0.0
 40
0.0909090909090909
 40
0.0909090909090909
 40
0.0909090909090909
 40
0.0909090909090909
 40
0.1818181818181818
 40
0.1818181818181818
 40
0.1818181818181818
 40
0.1818181818181818
 40
0.2727272727272727
 40
0.2727272727272727
 40
0.2727272727272727
 40
0.2727272727272727
 40
0.3636363636363636
 40
0.3636363636363636
 40
0.3636363636363636
 40
0.3636363636363636
 40
0.4545454545454545
 40
0.4545454545454545
 40
0.4545454545454545
 40
0.4545454545454545
 40
0.5454545454545454
 40
0.5454545454545454
 40
0.5454545454545454
 40
0.5454545454545454
 40
0.6363636363636364
 40
0.6363636363636364
 40
0.6363636363636364
 40
0.6363636363636364
 40
0.7272727272727273
 40
0.7272727272727273
 40
0.7272727272727273
 40
0.7272727272727273
 40
0.8181818181818182
 40
0.8181818181818182
 40
0.8181818181818182
 40
0.8181818181818182
 40
1.0
 40
1.0
 40
1.0
 40
1.0
 10
-92.87115
 20
7.52281
 30
0.0
 10
-92.87115
 20
5.992
 30
0.0
 10
-92.07037
 20
4.32244
 30
0.0
 10
-90.82768
 20
3.46649
 30
0.0
 10
-90.82768
 20
3.46649
 30
0.0
 10
-89.01122
 20
2.21527
 30
0.0
 10
-86.92516
 20
2.17663
 30
0.0
 10
-85.06376
 20
3.3639
 30
0.0
 10
-85.06376
 20
3.3639
 30
0.0
 10
-84.85737
 20
3.49562
 30
0.0
 10
-84.59048
 20
3.72818
 30
0.0
 10
-84.41087
 20
3.90816
 30
0.0
 10
-84.41087
 20
3.90816
 30
0.0
 10
-82.88302
 20
5.43799
 30
0.0
 10
-82.45085
 20
7.62626
 30
0.0
 10
-83.36939
 20
9.61344
 30
0.0
 10
-83.36939
 20
9.61344
 30
0.0
 10
-83.49876
 20
9.89316
 30
0.0
 10
-83.64615
 20
10.1356
 30
0.0
 10
-83.81502
 20
10.36508
 30
0.0
 10
-83.81502
 20
10.36508
 30
0.0
 10
-84.41839
 20
11.18573
 30
0.0
 10
-84.84786
 20
11.52841
 30
0.0
 10
-85.85836
 20
12.02724
 30
0.0
 10
-85.85836
 20
12.02724
 30
0.0
 10
-86.33485
 20
12.26252
 30
0.0
 10
-87.39239
 20
12.50422
 30
0.0
 10
-87.90295
 20
12.47435
 30
0.0
 10
-87.90295
 20
12.47435
 30
0.0
 10
-89.64792
 20
12.37251
 30
0.0
 10
-90.9489
 20
11.71394
 30
0.0
 10
-91.93508
 20
10.34928
 30
0.0
 10
-91.93508
 20
10.34928
 30
0.0
 10
-92.14
 20
10.06561
 30
0.0
 10
-92.23492
 20
9.87909
 30
0.0
 10
-92.39688
 20
9.55678
 30
0.0
 10
-92.39688
 20
9.55678
 30
0.0
 10
-92.62389
 20
9.10486
 30
0.0
 10
-92.87115
 20
8.17373
 30
0.0
 10
-92.87115
 20
7.52281
 30
0.0
  0
SPLINE
  5
BB
330
1F
100
AcDbEntity
  8
layer 1
 62
   250
370
     9
100
AcDbSpline
210
0.0
220
0.0
230
1.0
 70
    11
 71
     3
 72
    32
 73
    28
 74
     0
 42
0.000000001
 43
0.0000000001
 40
0.0
 40
0.0
 40
0.0
 40
0.0
 40
0.125
 40
0.125
 40
0.125
 40
0.125
 40
0.25
 40
0.25
 40
0.25
 40
0.25
 40
0.375
 40
0.375
 40
0.375
 40
0.375
 40
0.5
 40
0.5
 40
0.5
 40
0.5
 40
0.625
 40
0.625
 40
0.625
 40
0.625
 40
0.75
 40
0.75
 40
0.75
 40
0.75
 40
1.0
 40
1.0
 40
1.0
 40
1.0
 10
-42.24813
 20
2.5061
 30
0.0
 10
-38.14033
 20
2.5061
 30
0.0
 10
-36.11772
 20
6.78265
 30
0.0
 10
-37.70556
 20
9.728
 30
0.0
 10
-37.70556
 20
9.728
 30
0.0
 10
-38.27438
 20
10.78331
 30
0.0
 10
-39.00566
 20
11.5215
 30
0.0
 10
-40.13627
 20
12.02897
 30
0.0
 10
-40.13627
 20
12.02897
 30
0.0
 10
-41.82448
 20
12.78654
 30
0.0
 10
-43.99336
 20
12.5041
 30
0.0
 10
-45.34124
 20
11.30004
 30
0.0
 10
-45.34124
 20
11.30004
 30
0.0
 10
-45.84908
 20
10.84639
 30
0.0
 10
-45.56208
 20
11.16277
 30
0.0
 10
-46.05079
 20
10.58444
 30
0.0
 10
-46.05079
 20
10.58444
 30
0.0
 10
-46.13275
 20
10.48742
 30
0.0
 10
-46.17398
 20
10.40928
 30
0.0
 10
-46.23941
 20
10.31682
 30
0.0
 10
-46.23941
 20
10.31682
 30
0.0
 10
-48.11142
 20
7.67317
 30
0.0
 10
-46.9318
 20
3.93211
 30
0.0
 10
-43.84523
 20
2.79014
 30
0.0
 10
-43.84523
 20
2.79014
 30
0.0
 10
-43.44577
 20
2.64238
 30
0.0
 10
-42.79622
 20
2.5061
 30
0.0
 10
-42.24813
 20
2.5061
 30
0.0
  0
SPLINE
  5
BC
330
1F
100
AcDbEntity
  8
layer 1
 62
   250
370
     9
100
AcDbSpline
210
0.0
220
0.0
230
1.0
 70
    11
 71
     3
 72
   204
 73
   200
 74
     0
 42
0.000000001
 43
0.0000000001
 40
0.0
 40
0.0
 40
0.0
 40
0.0
 40
0.0196078431372549
 40
0.0196078431372549
 40
0.0196078431372549
 40
0.0196078431372549
 40
0.0392156862745098
 40
0.0392156862745098
 40
0.0392156862745098
 40
0.0392156862745098
 40
0.0588235294117647
 40
0.0588235294117647
 40
0.0588235294117647
 40
0.0588235294117647
 40
0.0784313725490196
 40
0.0784313725490196
 40
0.0784313725490196
 40
0.0784313725490196
 40
0.0980392156862745
 40
0.0980392156862745
 40
0.0980392156862745
 40
0.0980392156862745
 40
0.1176470588235294
 40
0.1176470588235294
 40
0.1176470588235294
 40
0.1176470588235294
 40
0.1372549019607843
 40
0.1372549019607843
 40
0.1372549019607843
 40
0.1372549019607843
 40
0.1568627450980392
 40
0.1568627450980392
 40
0.1568627450980392
 40
0.1568627450980392
 40
0.1764705882352941
 40
0.1764705882352941
 40
0.1764705882352941
 40
0.1764705882352941
 40
0.196078431372549
 40
0.196078431372549
 40
0.196078431372549
 40
0.196078431372549
 40
0.2156862745098039
 40
0.2156862745098039
 40
0.2156862745098039
 40
0.2156862745098039
 40
0.2352941176470588
 40
0.2352941176470588
 40
0.2352941176470588
 40
0.2352941176470588
 40
0.2549019607843137
 40
0.2549019607843137
 40
0.2549019607843137
 40
0.2549019607843137
 40
0.2745098039215687
 40
0.2745098039215687
 40
0.2745098039215687
 40
0.2745098039215687
 40
0.2941176470588235
 40
0.2941176470588235
 40
0.2941176470588235
 40
0.2941176470588235
 40
0.3137254901960784
 40
0.3137254901960784
 40
0.3137254901960784
 40
0.3137254901960784
 40
0.3333333333333333
 40
0.3333333333333333
 40
0.3333333333333333
 40
0.3333333333333333
 40
0.3529411764705883
 40
0.3529411764705883
 40
0.3529411764705883
 40
0.3529411764705883
 40
0.3725490196078431
 40
0.3725490196078431
 40
0.3725490196078431
 40
0.3725490196078431
 40
0.392156862745098
 40
0.392156862745098
 40
0.392156862745098
 40
0.392156862745098
 40
0.4117647058823529
 40
0.4117647058823529
 40
0.4117647058823529
 40
0.4117647058823529
 40
0.4313725490196079
 40
0.4313725490196079
 40
0.4313725490196079
 40
0.4313725490196079
 40
0.4509803921568628
 40
0.4509803921568628
 40
0.4509803921568628
 40
0.4509803921568628
 40
0.4705882352941176
 40
0.4705882352941176
 40
0.4705882352941176
 40
0.4705882352941176
 40
0.4901960784313725
 40
0.4901960784313725
 40
0.4901960784313725
 40
0.4901960784313725
 40
0.5098039215686274
 40
0.5098039215686274
 40
0.5098039215686274
 40
0.5098039215686274
 40
0.5294117647058824
 40
0.5294117647058824
 40
0.5294117647058824
 40
0.5294117647058824
 40
0.5490196078431373
 40
0.5490196078431373
 40
0.5490196078431373
 40
0.5490196078431373
 40
0.5686274509803921
 40
0.5686274509803921
 40
0.5686274509803921
 40
0.5686274509803921
 40
0.5882352941176471
 40
0.5882352941176471
 40
0.5882352941176471
 40
0.5882352941176471
 40
0.6078431372549019
 40
0.6078431372549019
 40
0.6078431372549019
 40
0.6078431372549019
 40
0.6274509803921569
 40
0.6274509803921569
 40
0.6274509803921569
 40
0.6274509803921569
 40
0.6470588235294118
 40
0.6470588235294118
 40
0.6470588235294118
 40
0.6470588235294118
 40
0.6666666666666666
 40
0.6666666666666666
 40
0.6666666666666666
 40
0.6666666666666666
 40
0.6862745098039216
 40
0.6862745098039216
 40
0.6862745098039216
 40
0.6862745098039216
 40
0.7058823529411765
 40
0.7058823529411765
 40
0.7058823529411765
 40
0.7058823529411765
 40
0.7254901960784313
 40
0.7254901960784313
 40
0.7254901960784313
 40
0.7254901960784313
 40
0.7450980392156863
 40
0.7450980392156863
 40
0.7450980392156863
 40
0.7450980392156863
 40
0.7647058823529411
 40
0.7647058823529411
 40
0.7647058823529411
 40
0.7647058823529411
 40
0.7843137254901961
 40
0.7843137254901961
 40
0.7843137254901961
 40
0.7843137254901961
 40
0.803921568627451
 40
0.803921568627451
 40
0.803921568627451
 40
0.803921568627451
 40
0.8235294117647058
 40
0.8235294117647058
 40
0.8235294117647058
 40
0.8235294117647058
 40
0.8431372549019608
 40
0.8431372549019608
 40
0.8431372549019608
 40
0.8431372549019608
 40
0.8627450980392157
 40
0.8627450980392157
 40
0.8627450980392157
 40
0.8627450980392157
 40
0.8823529411764706
 40
0.8823529411764706
 40
0.8823529411764706
 40
0.8823529411764706
 40
0.9019607843137255
 40
0.9019607843137255
 40
0.9019607843137255
 40
0.9019607843137255
 40
0.9215686274509803
 40
0.9215686274509803
 40
0.9215686274509803
 40
0.9215686274509803
 40
0.9411764705882353
 40
0.9411764705882353
 40
0.9411764705882353
 40
0.9411764705882353
 40
0.9607843137254902
 40
0.9607843137254902
 40
0.9607843137254902
 40
0.9607843137254902
 40
1.0
 40
1.0
 40
1.0
 40
1.0
 10
-98.39084
 20
27.38363
 30
0.0
 10
-98.41096
 20
27.14106
 30
0.0
 10
-98.51256
 20
26.94442
 30
0.0
 10
-98.59477
 20
26.73247
 30
0.0
 10
-98.59477
 20
26.73247
 30
0.0
 10
-98.68464
 20
26.50064
 30
0.0
 10
-98.73142
 20
26.33264
 30
0.0
 10
-98.81141
 20
26.09402
 30
0.0
 10
-98.81141
 20
26.09402
 30
0.0
 10
-99.18062
 20
24.99341
 30
0.0
 10
-99.27259
 20
24.36731
 30
0.0
 10
-99.51997
 20
23.32508
 30
0.0
 10
-99.51997
 20
23.32508
 30
0.0
 10
-99.80463
 20
22.12633
 30
0.0
 10
-100.17015
 20
19.23616
 30
0.0
 10
-100.2689
 20
17.97408
 30
0.0
 10
-100.2689
 20
17.97408
 30
0.0
 10
-100.30976
 20
17.45217
 30
0.0
 10
-100.34556
 20
15.67224
 30
0.0
 10
-100.44308
 20
15.46893
 30
0.0
 10
-100.44308
 20
15.46893
 30
0.0
 10
-100.1789
 20
15.46893
 30
0.0
 10
-99.87301
 20
15.55078
 30
0.0
 10
-99.87301
 20
15.29797
 30
0.0
 10
-99.87301
 20
15.29797
 30
0.0
 10
-99.87301
 20
15.29797
 30
0.0
 10
-99.87301
 20
11.76343
 30
0.0
 10
-99.87301
 20
11.76343
 30
0.0
 10
-99.87301
 20
11.76343
 30
0.0
 10
-99.87301
 20
11.76343
 30
0.0
 10
-100.78514
 20
11.76343
 30
0.0
 10
-100.78514
 20
11.76343
 30
0.0
 10
-100.78514
 20
11.76343
 30
0.0
 10
-100.78514
 20
11.43816
 30
0.0
 10
-100.84217
 20
11.36915
 30
0.0
 10
-100.84217
 20
11.02228
 30
0.0
 10
-100.84217
 20
11.02228
 30
0.0
 10
-100.84217
 20
11.02228
 30
0.0
 10
-100.84217
 20
10.16719
 30
0.0
 10
-100.84217
 20
10.16719
 30
0.0
 10
-100.84217
 20
10.16719
 30
0.0
 10
-99.54207
 20
10.16719
 30
0.0
 10
-99.81599
 20
10.60331
 30
0.0
 10
-99.81599
 20
7.94386
 30
0.0
 10
-99.81599
 20
7.94386
 30
0.0
 10
-100.06497
 20
7.88597
 30
0.0
 10
-100.59936
 20
7.82733
 30
0.0
 10
-100.84217
 20
7.94386
 30
0.0
 10
-100.84217
 20
7.94386
 30
0.0
 10
-100.84217
 20
7.48873
 30
0.0
 10
-100.80094
 20
7.27357
 30
0.0
 10
-100.58479
 20
7.00409
 30
0.0
 10
-100.58479
 20
7.00409
 30
0.0
 10
-100.44999
 20
6.83584
 30
0.0
 10
-100.0788
 20
6.57575
 30
0.0
 10
-99.81599
 20
6.57575
 30
0.0
 10
-99.81599
 20
6.57575
 30
0.0
 10
-99.81599
 20
6.57575
 30
0.0
 10
-93.65916
 20
6.57575
 30
0.0
 10
-93.65916
 20
6.57575
 30
0.0
 10
-93.65916
 20
6.57575
 30
0.0
 10
-93.65916
 20
6.57575
 30
0.0
 10
-93.71619
 20
7.65883
 30
0.0
 10
-93.71619
 20
7.65883
 30
0.0
 10
-93.71619
 20
7.65883
 30
0.0
 10
-93.71619
 20
8.77327
 30
0.0
 10
-93.27735
 20
9.93364
 30
0.0
 10
-92.71396
 20
10.7612
 30
0.0
 10
-92.71396
 20
10.7612
 30
0.0
 10
-92.60594
 20
10.91982
 30
0.0
 10
-92.54126
 20
10.99561
 30
0.0
 10
-92.42868
 20
11.16004
 30
0.0
 10
-92.42868
 20
11.16004
 30
0.0
 10
-92.21993
 20
11.46519
 30
0.0
 10
-91.66617
 20
11.90341
 30
0.0
 10
-91.3546
 20
12.1382
 30
0.0
 10
-91.3546
 20
12.1382
 30
0.0
 10
-90.79701
 20
12.55852
 30
0.0
 10
-90.20634
 20
12.83146
 30
0.0
 10
-89.51889
 20
13.03884
 30
0.0
 10
-89.51889
 20
13.03884
 30
0.0
 10
-88.19645
 20
13.43768
 30
0.0
 10
-86.75019
 20
13.25857
 30
0.0
 10
-85.54415
 20
12.69542
 30
0.0
 10
-85.54415
 20
12.69542
 30
0.0
 10
-85.34208
 20
12.60099
 30
0.0
 10
-85.2753
 20
12.57778
 30
0.0
 10
-85.0889
 20
12.46668
 30
0.0
 10
-85.0889
 20
12.46668
 30
0.0
 10
-83.51377
 20
11.52741
 30
0.0
 10
-82.25761
 20
9.77797
 30
0.0
 10
-82.25761
 20
7.77289
 30
0.0
 10
-82.25761
 20
7.77289
 30
0.0
 10
-82.25761
 20
7.77289
 30
0.0
 10
-62.13373
 20
7.77289
 30
0.0
 10
-62.13373
 20
7.77289
 30
0.0
 10
-62.13373
 20
7.77289
 30
0.0
 10
-62.13373
 20
8.60613
 30
0.0
 10
-61.78895
 20
9.71502
 30
0.0
 10
-61.36924
 20
10.42889
 30
0.0
 10
-61.36924
 20
10.42889
 30
0.0
 10
-61.05681
 20
10.96043
 30
0.0
 10
-60.54897
 20
11.5279
 30
0.0
 10
-60.06902
 20
11.92193
 30
0.0
 10
-60.06902
 20
11.92193
 30
0.0
 10
-59.25837
 20
12.58741
 30
0.0
 10
-59.58389
 20
12.29423
 30
0.0
 10
-58.81571
 20
12.72097
 30
0.0
 10
-58.81571
 20
12.72097
 30
0.0
 10
-57.4529
 20
13.4778
 30
0.0
 10
-55.40325
 20
13.34399
 30
0.0
 10
-54.03921
 20
12.73196
 30
0.0
 10
-54.03921
 20
12.73196
 30
0.0
 10
-52.11659
 20
11.8691
 30
0.0
 10
-50.67515
 20
9.83291
 30
0.0
 10
-50.67515
 20
7.77289
 30
0.0
 10
-50.67515
 20
7.77289
 30
0.0
 10
-50.67515
 20
7.77289
 30
0.0
 10
-47.99582
 20
7.77289
 30
0.0
 10
-47.99582
 20
7.77289
 30
0.0
 10
-47.99582
 20
7.77289
 30
0.0
 10
-47.99582
 20
8.55836
 30
0.0
 10
-47.71129
 20
9.4053
 30
0.0
 10
-47.44552
 20
9.95894
 30
0.0
 10
-47.44552
 20
9.95894
 30
0.0
 10
-47.00063
 20
10.8855
 30
0.0
 10
-46.67326
 20
11.24929
 30
0.0
 10
-45.95729
 20
11.89132
 30
0.0
 10
-45.95729
 20
11.89132
 30
0.0
 10
-43.30265
 20
14.27179
 30
0.0
 10
-38.79292
 20
13.42719
 30
0.0
 10
-37.12496
 20
10.09263
 30
0.0
 10
-37.12496
 20
10.09263
 30
0.0
 10
-36.81228
 20
9.46752
 30
0.0
 10
-36.53725
 20
8.60687
 30
0.0
 10
-36.53725
 20
7.77289
 30
0.0
 10
-36.53725
 20
7.77289
 30
0.0
 10
-36.53725
 20
7.77289
 30
0.0
 10
-34.88398
 20
7.77289
 30
0.0
 10
-34.88398
 20
7.77289
 30
0.0
 10
-34.88398
 20
7.77289
 30
0.0
 10
-34.2643
 20
7.77289
 30
0.0
 10
-33.74386
 20
8.3474
 30
0.0
 10
-33.74386
 20
8.97004
 30
0.0
 10
-33.74386
 20
8.97004
 30
0.0
 10
-33.74386
 20
8.97004
 30
0.0
 10
-33.74386
 20
13.47373
 30
0.0
 10
-33.74386
 20
13.47373
 30
0.0
 10
-33.74386
 20
13.47373
 30
0.0
 10
-33.74386
 20
14.10551
 30
0.0
 10
-34.30911
 20
14.67088
 30
0.0
 10
-34.94101
 20
14.67088
 30
0.0
 10
-34.94101
 20
14.67088
 30
0.0
 10
-34.94101
 20
14.67088
 30
0.0
 10
-67.61545
 20
14.67088
 30
0.0
 10
-67.61545
 20
14.67088
 30
0.0
 10
-67.61545
 20
14.67088
 30
0.0
 10
-67.61545
 20
14.67088
 30
0.0
 10
-79.35017
 20
14.67088
 30
0.0
 10
-79.35017
 20
14.67088
 30
0.0
 10
-79.35017
 20
14.67088
 30
0.0
 10
-79.35017
 20
14.67088
 30
0.0
 10
-79.35017
 20
32.05828
 30
0.0
 10
-79.35017
 20
32.05828
 30
0.0
 10
-79.35017
 20
32.05828
 30
0.0
 10
-79.35017
 20
32.83684
 30
0.0
 10
-79.72555
 20
32.86227
 30
0.0
 10
-80.49028
 20
32.85634
 30
0.0
 10
-80.49028
 20
32.85634
 30
0.0
 10
-80.88765
 20
32.85338
 30
0.0
 10
-81.08071
 20
32.90572
 30
0.0
 10
-81.40055
 20
32.91522
 30
0.0
 10
-81.40055
 20
32.91522
 30
0.0
 10
-82.22083
 20
32.93979
 30
0.0
 10
-87.82822
 20
32.94473
 30
0.0
 10
-88.17089
 20
32.89782
 30
0.0
 10
-88.17089
 20
32.89782
 30
0.0
 10
-88.9087
 20
32.79672
 30
0.0
 10
-89.906
 20
32.93572
 30
0.0
 10
-90.68641
 20
32.84807
 30
0.0
 10
-90.68641
 20
32.84807
 30
0.0
 10
-91.45607
 20
32.76166
 30
0.0
 10
-92.31993
 20
32.78721
 30
0.0
 10
-93.14638
 20
32.74265
 30
0.0
 10
-93.14638
 20
32.74265
 30
0.0
 10
-93.14638
 20
32.74265
 30
0.0
 10
-95.57462
 20
32.54848
 30
0.0
 10
-95.57462
 20
32.54848
 30
0.0
 10
-95.57462
 20
32.54848
 30
0.0
 10
-97.61883
 20
32.26629
 30
0.0
 10
-98.21506
 20
30.71325
 30
0.0
 10
-99.03669
 20
28.9416
 30
0.0
 10
-99.03669
 20
28.9416
 30
0.0
 10
-99.03669
 20
28.9416
 30
0.0
 10
-99.46023
 20
28.0522
 30
0.0
 10
-99.46023
 20
28.0522
 30
0.0
 10
-99.46023
 20
28.0522
 30
0.0
 10
-99.73452
 20
27.4735
 30
0.0
 10
-99.45578
 20
27.38363
 30
0.0
 10
-98.39084
 20
27.38363
 30
0.0
  0
SPLINE
  5
BD
330
1F
100
AcDbEntity
  8
layer 1
 62
   250
370
     9
100
AcDbSpline
210
0.0
220
0.0
230
1.0
 70
    11
 71
     3
 72
    80
 73
    76
 74
     0
 42
0.000000001
 43
0.0000000001
 40
0.0
 40
0.0
 40
0.0
 40
0.0
 40
0.05
 40
0.05
 40
0.05
 40
0.05
 40
0.1
 40
0.1
 40
0.1
 40
0.1
 40
0.15
 40
0.15
 40
0.15
 40
0.15
 40
0.2
 40
0.2
 40
0.2
 40
0.2
 40
0.25
 40
0.25
 40
0.25
 40
0.25
 40
0.3
 40
0.3
 40
0.3
 40
0.3
 40
0.35
 40
0.35
 40
0.35
 40
0.35
 40
0.4
 40
0.4
 40
0.4
 40
0.4
 40
0.45
 40
0.45
 40
0.45
 40
0.45
 40
0.5
 40
0.5
 40
0.5
 40
0.5
 40
0.55
 40
0.55
 40
0.55
 40
0.55
 40
0.6
 40
0.6
 40
0.6
 40
0.6
 40
0.65
 40
0.65
 40
0.65
 40
0.65
 40
0.7
 40
0.7
 40
0.7
 40
0.7
 40
0.75
 40
0.75
 40
0.75
 40
0.75
 40
0.8
 40
0.8
 40
0.8
 40
0.8
 40
0.85
 40
0.85
 40
0.85
 40
0.85
 40
0.9
 40
0.9
 40
0.9
 40
0.9
 40
1.0
 40
1.0
 40
1.0
 40
1.0
 10
-96.39551
 20
21.05571
 30
0.0
 10
-96.39551
 20
21.50701
 30
0.0
 10
-96.20615
 20
22.52393
 30
0.0
 10
-96.1274
 20
23.01092
 30
0.0
 10
-96.1274
 20
23.01092
 30
0.0
 10
-96.07999
 20
23.30311
 30
0.0
 10
-96.04062
 20
23.36372
 30
0.0
 10
-95.99593
 20
23.62048
 30
0.0
 10
-95.99593
 20
23.62048
 30
0.0
 10
-95.85397
 20
24.43569
 30
0.0
 10
-95.61202
 20
25.20375
 30
0.0
 10
-95.34835
 20
25.93725
 30
0.0
 10
-95.34835
 20
25.93725
 30
0.0
 10
-95.05825
 20
26.74432
 30
0.0
 10
-94.04714
 20
29.32193
 30
0.0
 10
-92.80407
 20
29.32193
 30
0.0
 10
-92.80407
 20
29.32193
 30
0.0
 10
-92.80407
 20
29.32193
 30
0.0
 10
-83.22676
 20
29.32193
 30
0.0
 10
-83.22676
 20
29.32193
 30
0.0
 10
-83.22676
 20
29.32193
 30
0.0
 10
-82.95099
 20
29.32193
 30
0.0
 10
-82.77064
 20
29.14158
 30
0.0
 10
-82.77064
 20
28.86581
 30
0.0
 10
-82.77064
 20
28.86581
 30
0.0
 10
-82.77064
 20
28.86581
 30
0.0
 10
-82.77064
 20
20.20062
 30
0.0
 10
-82.77064
 20
20.20062
 30
0.0
 10
-82.77064
 20
20.20062
 30
0.0
 10
-82.77064
 20
19.74252
 30
0.0
 10
-83.10665
 20
19.7403
 30
0.0
 10
-83.33663
 20
19.74042
 30
0.0
 10
-83.33663
 20
19.74042
 30
0.0
 10
-83.33663
 20
19.74042
 30
0.0
 10
-86.24815
 20
19.68759
 30
0.0
 10
-86.24815
 20
19.68759
 30
0.0
 10
-86.24815
 20
19.68759
 30
0.0
 10
-87.73242
 20
19.68759
 30
0.0
 10
-87.64021
 20
19.74647
 30
0.0
 10
-88.84611
 20
19.26406
 30
0.0
 10
-88.84611
 20
19.26406
 30
0.0
 10
-89.10548
 20
19.16037
 30
0.0
 10
-89.28941
 20
19.09334
 30
0.0
 10
-89.54666
 20
18.99557
 30
0.0
 10
-89.54666
 20
18.99557
 30
0.0
 10
-89.54666
 20
18.99557
 30
0.0
 10
-90.97193
 20
18.42551
 30
0.0
 10
-90.97193
 20
18.42551
 30
0.0
 10
-90.97193
 20
18.42551
 30
0.0
 10
-91.21413
 20
18.33774
 30
0.0
 10
-91.49693
 20
18.24356
 30
0.0
 10
-91.7295
 20
18.1569
 30
0.0
 10
-91.7295
 20
18.1569
 30
0.0
 10
-92.28993
 20
17.94816
 30
0.0
 10
-93.41882
 20
17.52771
 30
0.0
 10
-93.91938
 20
17.38242
 30
0.0
 10
-93.91938
 20
17.38242
 30
0.0
 10
-94.33698
 20
17.26132
 30
0.0
 10
-95.05048
 20
16.95111
 30
0.0
 10
-95.4834
 20
16.95111
 30
0.0
 10
-95.4834
 20
16.95111
 30
0.0
 10
-95.4834
 20
17.27638
 30
0.0
 10
-95.42636
 20
17.34551
 30
0.0
 10
-95.42636
 20
17.69226
 30
0.0
 10
-95.42636
 20
17.69226
 30
0.0
 10
-95.42636
 20
17.69226
 30
0.0
 10
-95.42612
 20
19.34578
 30
0.0
 10
-95.42612
 20
19.34578
 30
0.0
 10
-95.42612
 20
19.34578
 30
0.0
 10
-95.44217
 20
19.6429
 30
0.0
 10
-95.48735
 20
19.82041
 30
0.0
 10
-95.48278
 20
20.20124
 30
0.0
 10
-95.48278
 20
20.20124
 30
0.0
 10
-95.47179
 20
21.122
 30
0.0
 10
-95.71929
 20
21.112
 30
0.0
 10
-96.39551
 20
21.05571
 30
0.0
  0
SPLINE
  5
BE
330
1F
100
AcDbEntity
  8
layer 1
 62
   242
370
     9
100
AcDbSpline
210
0.0
220
0.0
230
1.0
 70
    11
 71
     3
 72
   244
 73
   240
 74
     0
 42
0.000000001
 43
0.0000000001
 40
0.0
 40
0.0
 40
0.0
 40
0.0
 40
0.0163934426229508
 40
0.0163934426229508
 40
0.0163934426229508
 40
0.0163934426229508
 40
0.0327868852459016
 40
0.0327868852459016
 40
0.0327868852459016
 40
0.0327868852459016
 40
0.0491803278688525
 40
0.0491803278688525
 40
0.0491803278688525
 40
0.0491803278688525
 40
0.0655737704918033
 40
0.0655737704918033
 40
0.0655737704918033
 40
0.0655737704918033
 40
0.0819672131147541
 40
0.0819672131147541
 40
0.0819672131147541
 40
0.0819672131147541
 40
0.0983606557377049
 40
0.0983606557377049
 40
0.0983606557377049
 40
0.0983606557377049
 40
0.1147540983606557
 40
0.1147540983606557
 40
0.1147540983606557
 40
0.1147540983606557
 40
0.1311475409836066
 40
0.1311475409836066
 40
0.1311475409836066
 40
0.1311475409836066
 40
0.1475409836065574
 40
0.1475409836065574
 40
0.1475409836065574
 40
0.1475409836065574
 40
0.1639344262295082
 40
0.1639344262295082
 40
0.1639344262295082
 40
0.1639344262295082
 40
0.180327868852459
 40
0.180327868852459
 40
0.180327868852459
 40
0.180327868852459
 40
0.1967213114754098
 40
0.1967213114754098
 40
0.1967213114754098
 40
0.1967213114754098
 40
0.2131147540983606
 40
0.2131147540983606
 40
0.2131147540983606
 40
0.2131147540983606
 40
0.2295081967213115
 40
0.2295081967213115
 40
0.2295081967213115
 40
0.2295081967213115
 40
0.2459016393442623
 40
0.2459016393442623
 40
0.2459016393442623
 40
0.2459016393442623
 40
0.2622950819672131
 40
0.2622950819672131
 40
0.2622950819672131
 40
0.2622950819672131
 40
0.2786885245901639
 40
0.2786885245901639
 40
0.2786885245901639
 40
0.2786885245901639
 40
0.2950819672131147
 40
0.2950819672131147
 40
0.2950819672131147
 40
0.2950819672131147
 40
0.3114754098360656
 40
0.3114754098360656
 40
0.3114754098360656
 40
0.3114754098360656
 40
0.3278688524590164
 40
0.3278688524590164
 40
0.3278688524590164
 40
0.3278688524590164
 40
0.3442622950819672
 40
0.3442622950819672
 40
0.3442622950819672
 40
0.3442622950819672
 40
0.360655737704918
 40
0.360655737704918
 40
0.360655737704918
 40
0.360655737704918
 40
0.3770491803278688
 40
0.3770491803278688
 40
0.3770491803278688
 40
0.3770491803278688
 40
0.3934426229508197
 40
0.3934426229508197
 40
0.3934426229508197
 40
0.3934426229508197
 40
0.4098360655737705
 40
0.4098360655737705
 40
0.4098360655737705
 40
0.4098360655737705
 40
0.4262295081967213
 40
0.4262295081967213
 40
0.4262295081967213
 40
0.4262295081967213
 40
0.4426229508196721
 40
0.4426229508196721
 40
0.4426229508196721
 40
0.4426229508196721
 40
0.459016393442623
 40
0.459016393442623
 40
0.459016393442623
 40
0.459016393442623
 40
0.4754098360655737
 40
0.4754098360655737
 40
0.4754098360655737
 40
0.4754098360655737
 40
0.4918032786885246
 40
0.4918032786885246
 40
0.4918032786885246
 40
0.4918032786885246
 40
0.5081967213114754
 40
0.5081967213114754
 40
0.5081967213114754
 40
0.5081967213114754
 40
0.5245901639344263
 40
0.5245901639344263
 40
0.5245901639344263
 40
0.5245901639344263
 40
0.5409836065573771
 40
0.5409836065573771
 40
0.5409836065573771
 40
0.5409836065573771
 40
0.5573770491803278
 40
0.5573770491803278
 40
0.5573770491803278
 40
0.5573770491803278
 40
0.5737704918032787
 40
0.5737704918032787
 40
0.5737704918032787
 40
0.5737704918032787
 40
0.5901639344262295
 40
0.5901639344262295
 40
0.5901639344262295
 40
0.5901639344262295
 40
0.6065573770491803
 40
0.6065573770491803
 40
0.6065573770491803
 40
0.6065573770491803
 40
0.6229508196721312
 40
0.6229508196721312
 40
0.6229508196721312
 40
0.6229508196721312
 40
0.639344262295082
 40
0.639344262295082
 40
0.639344262295082
 40
0.639344262295082
 40
0.6557377049180327
 40
0.6557377049180327
 40
0.6557377049180327
 40
0.6557377049180327
 40
0.6721311475409836
 40
0.6721311475409836
 40
0.6721311475409836
 40
0.6721311475409836
 40
0.6885245901639344
 40
0.6885245901639344
 40
0.6885245901639344
 40
0.6885245901639344
 40
0.7049180327868853
 40
0.7049180327868853
 40
0.7049180327868853
 40
0.7049180327868853
 40
0.7213114754098361
 40
0.7213114754098361
 40
0.7213114754098361
 40
0.7213114754098361
 40
0.7377049180327869
 40
0.7377049180327869
 40
0.7377049180327869
 40
0.7377049180327869
 40
0.7540983606557377
 40
0.7540983606557377
 40
0.7540983606557377
 40
0.7540983606557377
 40
0.7704918032786885
 40
0.7704918032786885
 40
0.7704918032786885
 40
0.7704918032786885
 40
0.7868852459016393
 40
0.7868852459016393
 40
0.7868852459016393
 40
0.7868852459016393
 40
0.8032786885245902
 40
0.8032786885245902
 40
0.8032786885245902
 40
0.8032786885245902
 40
0.819672131147541
 40
0.819672131147541
 40
0.819672131147541
 40
0.819672131147541
 40
0.8360655737704918
 40
0.8360655737704918
 40
0.8360655737704918
 40
0.8360655737704918
 40
0.8524590163934426
 40
0.8524590163934426
 40
0.8524590163934426
 40
0.8524590163934426
 40
0.8688524590163934
 40
0.8688524590163934
 40
0.8688524590163934
 40
0.8688524590163934
 40
0.8852459016393442
 40
0.8852459016393442
 40
0.8852459016393442
 40
0.8852459016393442
 40
0.9016393442622951
 40
0.9016393442622951
 40
0.9016393442622951
 40
0.9016393442622951
 40
0.9180327868852459
 40
0.9180327868852459
 40
0.9180327868852459
 40
0.9180327868852459
 40
0.9344262295081968
 40
0.9344262295081968
 40
0.9344262295081968
 40
0.9344262295081968
 40
0.9508196721311475
 40
0.9508196721311475
 40
0.9508196721311475
 40
0.9508196721311475
 40
0.9672131147540983
 40
0.9672131147540983
 40
0.9672131147540983
 40
0.9672131147540983
 40
1.0
 40
1.0
 40
1.0
 40
1.0
 10
3.79696
 20
71.52162
 30
0.0
 10
3.79696
 20
71.52162
 30
0.0
 10
7.79696
 20
71.52162
 30
0.0
 10
7.79696
 20
71.52162
 30
0.0
 10
7.79696
 20
71.52162
 30
0.0
 10
7.79696
 20
71.52162
 30
0.0
 10
7.79696
 20
71.92162
 30
0.0
 10
7.79696
 20
71.92162
 30
0.0
 10
7.79696
 20
71.92162
 30
0.0
 10
7.79696
 20
71.92162
 30
0.0
 10
11.48927
 20
71.92162
 30
0.0
 10
11.48927
 20
71.92162
 30
0.0
 10
11.48927
 20
71.92162
 30
0.0
 10
11.48927
 20
71.92162
 30
0.0
 10
11.48927
 20
71.52162
 30
0.0
 10
11.48927
 20
71.52162
 30
0.0
 10
11.48927
 20
71.52162
 30
0.0
 10
11.48927
 20
71.52162
 30
0.0
 10
15.48927
 20
71.52162
 30
0.0
 10
15.48927
 20
71.52162
 30
0.0
 10
15.48927
 20
71.52162
 30
0.0
 10
15.48927
 20
71.52162
 30
0.0
 10
15.48927
 20
71.92162
 30
0.0
 10
15.48927
 20
71.92162
 30
0.0
 10
15.48927
 20
71.92162
 30
0.0
 10
15.48927
 20
71.92162
 30
0.0
 10
19.18157
 20
71.92162
 30
0.0
 10
19.18157
 20
71.92162
 30
0.0
 10
19.18157
 20
71.92162
 30
0.0
 10
19.18157
 20
71.92162
 30
0.0
 10
19.18157
 20
71.52162
 30
0.0
 10
19.18157
 20
71.52162
 30
0.0
 10
19.18157
 20
71.52162
 30
0.0
 10
19.18157
 20
71.52162
 30
0.0
 10
23.18157
 20
71.52162
 30
0.0
 10
23.18157
 20
71.52162
 30
0.0
 10
23.18157
 20
71.52162
 30
0.0
 10
23.18157
 20
71.52162
 30
0.0
 10
23.18157
 20
71.92162
 30
0.0
 10
23.18157
 20
71.92162
 30
0.0
 10
23.18157
 20
71.92162
 30
0.0
 10
23.18157
 20
71.92162
 30
0.0
 10
26.87388
 20
71.92162
 30
0.0
 10
26.87388
 20
71.92162
 30
0.0
 10
26.87388
 20
71.92162
 30
0.0
 10
26.87388
 20
71.92162
 30
0.0
 10
26.87388
 20
71.52162
 30
0.0
 10
26.87388
 20
71.52162
 30
0.0
 10
26.87388
 20
71.52162
 30
0.0
 10
26.87388
 20
71.52162
 30
0.0
 10
30.87388
 20
71.52162
 30
0.0
 10
30.87388
 20
71.52162
 30
0.0
 10
30.87388
 20
71.52162
 30
0.0
 10
30.87388
 20
71.52162
 30
0.0
 10
30.87388
 20
71.92162
 30
0.0
 10
30.87388
 20
71.92162
 30
0.0
 10
30.87388
 20
71.92162
 30
0.0
 10
30.87388
 20
71.92162
 30
0.0
 10
34.56619
 20
71.92162
 30
0.0
 10
34.56619
 20
71.92162
 30
0.0
 10
34.56619
 20
71.92162
 30
0.0
 10
34.56619
 20
71.92162
 30
0.0
 10
34.56619
 20
71.52162
 30
0.0
 10
34.56619
 20
71.52162
 30
0.0
 10
34.56619
 20
71.52162
 30
0.0
 10
34.56619
 20
71.52162
 30
0.0
 10
38.56619
 20
71.52162
 30
0.0
 10
38.56619
 20
71.52162
 30
0.0
 10
38.56619
 20
71.52162
 30
0.0
 10
38.56619
 20
71.52162
 30
0.0
 10
38.56619
 20
71.92162
 30
0.0
 10
38.56619
 20
71.92162
 30
0.0
 10
38.56619
 20
71.92162
 30
0.0
 10
38.56619
 20
71.92162
 30
0.0
 10
42.2585
 20
71.92162
 30
0.0
 10
42.2585
 20
71.92162
 30
0.0
 10
42.2585
 20
71.92162
 30
0.0
 10
42.2585
 20
71.92162
 30
0.0
 10
42.2585
 20
71.52162
 30
0.0
 10
42.2585
 20
71.52162
 30
0.0
 10
42.2585
 20
71.52162
 30
0.0
 10
42.2585
 20
71.52162
 30
0.0
 10
46.2585
 20
71.52162
 30
0.0
 10
46.2585
 20
71.52162
 30
0.0
 10
46.2585
 20
71.52162
 30
0.0
 10
46.2585
 20
71.52162
 30
0.0
 10
46.2585
 20
71.92162
 30
0.0
 10
46.2585
 20
71.92162
 30
0.0
 10
46.2585
 20
71.92162
 30
0.0
 10
46.2585
 20
71.92162
 30
0.0
 10
49.9508
 20
71.92162
 30
0.0
 10
49.9508
 20
71.92162
 30
0.0
 10
49.9508
 20
71.92162
 30
0.0
 10
49.9508
 20
71.92162
 30
0.0
 10
49.9508
 20
71.52162
 30
0.0
 10
49.9508
 20
71.52162
 30
0.0
 10
49.9508
 20
71.52162
 30
0.0
 10
49.9508
 20
71.52162
 30
0.0
 10
53.9508
 20
71.52162
 30
0.0
 10
53.9508
 20
71.52162
 30
0.0
 10
53.9508
 20
71.52162
 30
0.0
 10
53.9508
 20
71.52162
 30
0.0
 10
53.9508
 20
71.92162
 30
0.0
 10
53.9508
 20
71.92162
 30
0.0
 10
53.9508
 20
71.92162
 30
0.0
 10
53.9508
 20
71.92162
 30
0.0
 10
57.64311
 20
71.92162
 30
0.0
 10
57.64311
 20
71.92162
 30
0.0
 10
57.64311
 20
71.92162
 30
0.0
 10
57.64311
 20
71.92162
 30
0.0
 10
57.64311
 20
71.52162
 30
0.0
 10
57.64311
 20
71.52162
 30
0.0
 10
57.64311
 20
71.52162
 30
0.0
 10
57.64311
 20
71.52162
 30
0.0
 10
61.64311
 20
71.52162
 30
0.0
 10
61.64311
 20
71.52162
 30
0.0
 10
61.64311
 20
71.52162
 30
0.0
 10
61.64311
 20
71.52162
 30
0.0
 10
61.64311
 20
71.92162
 30
0.0
 10
61.64311
 20
71.92162
 30
0.0
 10
61.64311
 20
71.92162
 30
0.0
 10
61.64311
 20
71.92162
 30
0.0
 10
65.33542
 20
71.92162
 30
0.0
 10
65.33542
 20
71.92162
 30
0.0
 10
65.33542
 20
71.92162
 30
0.0
 10
65.33542
 20
71.92162
 30
0.0
 10
65.33542
 20
71.52162
 30
0.0
 10
65.33542
 20
71.52162
 30
0.0
 10
65.33542
 20
71.52162
 30
0.0
 10
65.33542
 20
71.52162
 30
0.0
 10
69.33542
 20
71.52162
 30
0.0
 10
69.33542
 20
71.52162
 30
0.0
 10
69.33542
 20
71.52162
 30
0.0
 10
69.33542
 20
71.52162
 30
0.0
 10
69.33542
 20
71.92162
 30
0.0
 10
69.33542
 20
71.92162
 30
0.0
 10
69.33542
 20
71.92162
 30
0.0
 10
69.33542
 20
71.92162
 30
0.0
 10
73.02773
 20
71.92162
 30
0.0
 10
73.02773
 20
71.92162
 30
0.0
 10
73.02773
 20
71.92162
 30
0.0
 10
73.02773
 20
71.92162
 30
0.0
 10
73.02773
 20
71.52162
 30
0.0
 10
73.02773
 20
71.52162
 30
0.0
 10
73.02773
 20
71.52162
 30
0.0
 10
73.02773
 20
71.52162
 30
0.0
 10
77.02773
 20
71.52162
 30
0.0
 10
77.02773
 20
71.52162
 30
0.0
 10
77.02773
 20
71.52162
 30
0.0
 10
77.02773
 20
71.52162
 30
0.0
 10
77.02773
 20
71.92162
 30
0.0
 10
77.02773
 20
71.92162
 30
0.0
 10
77.02773
 20
71.92162
 30
0.0
 10
77.02773
 20
71.92162
 30
0.0
 10
80.72003
 20
71.92162
 30
0.0
 10
80.72003
 20
71.92162
 30
0.0
 10
80.72003
 20
71.92162
 30
0.0
 10
80.72003
 20
71.92162
 30
0.0
 10
80.72003
 20
71.52162
 30
0.0
 10
80.72003
 20
71.52162
 30
0.0
 10
80.72003
 20
71.52162
 30
0.0
 10
80.72003
 20
71.52162
 30
0.0
 10
84.72002
 20
71.52162
 30
0.0
 10
84.72002
 20
71.52162
 30
0.0
 10
84.72002
 20
71.52162
 30
0.0
 10
84.72002
 20
71.52162
 30
0.0
 10
84.72002
 20
71.92162
 30
0.0
 10
84.72002
 20
71.92162
 30
0.0
 10
84.72002
 20
71.92162
 30
0.0
 10
84.72002
 20
71.92162
 30
0.0
 10
88.41233
 20
71.92162
 30
0.0
 10
88.41233
 20
71.92162
 30
0.0
 10
88.41233
 20
71.92162
 30
0.0
 10
88.41233
 20
71.92162
 30
0.0
 10
88.41233
 20
71.52162
 30
0.0
 10
88.41233
 20
71.52162
 30
0.0
 10
88.41233
 20
71.52162
 30
0.0
 10
88.41233
 20
71.52162
 30
0.0
 10
92.41233
 20
71.52162
 30
0.0
 10
92.41233
 20
71.52162
 30
0.0
 10
92.41233
 20
71.52162
 30
0.0
 10
92.41233
 20
71.52162
 30
0.0
 10
92.41233
 20
71.92162
 30
0.0
 10
92.41233
 20
71.92162
 30
0.0
 10
92.41233
 20
71.92162
 30
0.0
 10
92.41233
 20
71.92162
 30
0.0
 10
95.91464
 20
71.92162
 30
0.0
 10
95.91464
 20
71.92162
 30
0.0
 10
95.91464
 20
71.92162
 30
0.0
 10
95.91464
 20
71.92162
 30
0.0
 10
95.91464
 20
74.62162
 30
0.0
 10
95.91464
 20
74.62162
 30
0.0
 10
95.91464
 20
74.62162
 30
0.0
 10
95.91464
 20
74.62162
 30
0.0
 10
95.50464
 20
74.62162
 30
0.0
 10
95.50464
 20
74.62162
 30
0.0
 10
95.50464
 20
74.62162
 30
0.0
 10
95.50464
 20
74.62162
 30
0.0
 10
95.50464
 20
78.62162
 30
0.0
 10
95.50464
 20
78.62162
 30
0.0
 10
95.50464
 20
78.62162
 30
0.0
 10
95.50464
 20
78.62162
 30
0.0
 10
95.91464
 20
78.62162
 30
0.0
 10
95.91464
 20
78.62162
 30
0.0
 10
95.91464
 20
78.62162
 30
0.0
 10
95.91464
 20
78.62162
 30
0.0
 10
95.91464
 20
81.32162
 30
0.0
 10
95.91464
 20
81.32162
 30
0.0
 10
95.91464
 20
81.32162
 30
0.0
 10
95.91464
 20
81.32162
 30
0.0
 10
0.29465
 20
81.32162
 30
0.0
 10
0.29465
 20
81.32162
 30
0.0
 10
0.29465
 20
81.32162
 30
0.0
 10
0.29465
 20
81.32162
 30
0.0
 10
0.29465
 20
78.62162
 30
0.0
 10
0.29465
 20
78.62162
 30
0.0
 10
0.29465
 20
78.62162
 30
0.0
 10
0.29465
 20
78.62162
 30
0.0
 10
0.70465
 20
78.62162
 30
0.0
 10
0.70465
 20
78.62162
 30
0.0
 10
0.70465
 20
78.62162
 30
0.0
 10
0.70465
 20
78.62162
 30
0.0
 10
0.70465
 20
74.62162
 30
0.0
 10
0.70465
 20
74.62162
 30
0.0
 10
0.70465
 20
74.62162
 30
0.0
 10
0.70465
 20
74.62162
 30
0.0
 10
0.29465
 20
74.62162
 30
0.0
 10
0.29465
 20
74.62162
 30
0.0
 10
0.29465
 20
74.62162
 30
0.0
 10
0.29465
 20
74.62162
 30
0.0
 10
0.29465
 20
71.92162
 30
0.0
 10
0.29465
 20
71.92162
 30
0.0
 10
0.29465
 20
71.92162
 30
0.0
 10
0.29465
 20
71.92162
 30
0.0
 10
3.79696
 20
71.92162
 30
0.0
 10
3.79696
 20
71.92162
 30
0.0
 10
3.79696
 20
71.92162
 30
0.0
 10
3.79696
 20
71.92162
 30
0.0
 10
3.79696
 20
71.52162
 30
0.0
 10
3.79696
 20
71.52162
 30
0.0
  0
ENDSEC
  0
SECTION
  2
OBJECTS
  0
DICTIONARY
  5
C
330
0
100
AcDbDictionary
281
     1
  3
ACAD_DETAILVIEWSTYLE
350
FA
  3
ACAD_GROUP
350
D
  3
ACAD_LAYOUT
350
1A
  3
ACAD_MATERIAL
350
43
  3
ACAD_MLEADERSTYLE
350
6B
  3
ACAD_MLINESTYLE
350
17
  3
ACAD_PLOTSETTINGS
350
19
  3
ACAD_PLOTSTYLENAME
350
E
  3
ACAD_SCALELIST
350
47
  3
ACAD_SECTIONVIEWSTYLE
350
FB
  3
ACAD_TABLESTYLE
350
69
  3
ACAD_VISUALSTYLE
350
2A
  3
ACDB_RECOMPOSE_DATA
350
F7
  3
AcDbVariableDictionary
350
BF
  0
SUN
  5
6D
330
29
100
AcDbSun
 90
        1
290
     0
 63
     7
421
 16777215
 40
1.0
291
     1
 91
  2455826
 92
 54000000
292
     0
 70
     2
 71
   256
280
     1
  0
DICTIONARY
  5
FA
102
{ACAD_REACTORS
330
C
102
}
330
C
100
AcDbDictionary
281
     1
  0
DICTIONARY
  5
D
102
{ACAD_REACTORS
330
C
102
}
330
C
100
AcDbDictionary
281
     1
  0
DICTIONARY
  5
1A
102
{ACAD_REACTORS
330
C
102
}
330
C
100
AcDbDictionary
281
     1
  3
Layout1
350
1E
  3
Layout2
350
26
  3
Model
350
22
  0
DICTIONARY
  5
43
102
{ACAD_REACTORS
330
C
102
}
330
C
100
AcDbDictionary
281
     1
  3
ByBlock
350
45
  3
ByLayer
350
44
  3
Global
350
46
  0
DICTIONARY
  5
6B
102
{ACAD_REACTORS
330
C
102
}
330
C
100
AcDbDictionary
281
     1
  3
Standard
350
6C
  0
DICTIONARY
  5
17
102
{ACAD_REACTORS
330
C
102
}
330
C
100
AcDbDictionary
281
     1
  3
Standard
350
18
  0
DICTIONARY
  5
19
102
{ACAD_REACTORS
330
C
102
}
330
C
100
AcDbDictionary
281
     1
  0
ACDBDICTIONARYWDFLT
  5
E
102
{ACAD_REACTORS
330
C
102
}
330
C
100
AcDbDictionary
281
     1
  3
Normal
350
F
100
AcDbDictionaryWithDefault
340
F
  0
DICTIONARY
  5
47
102
{ACAD_REACTORS
330
C
102
}
330
C
100
AcDbDictionary
281
     1
  3
A0
350
48
  3
A1
350
49
  3
A2
350
4A
  3
A3
350
4B
  3
A4
350
4C
  3
A5
350
4D
  3
A6
350
4E
  3
A7
350
4F
  3
A8
350
50
  3
A9
350
51
  3
B0
350
52
  3
B1
350
53
  3
B2
350
54
  3
B3
350
55
  3
B4
350
56
  3
B5
350
57
  3
B6
350
58
  3
B7
350
59
  3
B8
350
5A
  3
B9
350
5B
  3
C0
350
5C
  3
C1
350
5D
  3
C2
350
5E
  3
C3
350
5F
  3
C4
350
60
  3
C5
350
61
  3
C6
350
62
  3
C7
350
63
  3
C8
350
64
  3
C9
350
65
  3
D0
350
66
  3
D1
350
67
  3
D2
350
68
  0
DICTIONARY
  5
FB
102
{ACAD_REACTORS
330
C
102
}
330
C
100
AcDbDictionary
281
     1
  0
DICTIONARY
  5
69
102
{ACAD_REACTORS
330
C
102
}
330
C
100
AcDbDictionary
281
     1
  3
Standard
350
6A
  0
DICTIONARY
  5
2A
102
{ACAD_REACTORS
330
C
102
}
330
C
100
AcDbDictionary
281
     1
  3
2dWireframe
350
2F
  3
Basic
350
32
  3
Brighten
350
36
  3
ColorChange
350
3A
  3
Conceptual
350
34
  3
Dim
350
35
  3
EdgeColorOff
350
3D
  3
Facepattern
350
39
  3
Flat
350
2B
  3
FlatWithEdges
350
2C
  3
Gouraud
350
2D
  3
GouraudWithEdges
350
2E
  3
Hidden
350
31
  3
JitterOff
350
3B
  3
Linepattern
350
38
  3
OverhangOff
350
3C
  3
Realistic
350
33
  3
Shaded
350
42
  3
Shaded with edges
350
41
  3
Shades of Gray
350
3E
  3
Sketchy
350
3F
  3
Thicken
350
37
  3
Wireframe
350
30
  3
X-Ray
350
40
  0
XRECORD
  5
F7
102
{ACAD_REACTORS
330
C
102
}
330
C
100
AcDbXrecord
280
     1
 90
        1
330
6A
  0
DICTIONARY
  5
BF
102
{ACAD_REACTORS
330
C
102
}
330
C
100
AcDbDictionary
281
     1
  3
CANNOSCALE
350
C0
  3
CMLEADERSTYLE
350
F9
  3
CTABLESTYLE
350
F8
  3
XCLIPFRAME
350
C1
  0
LAYOUT
  5
1E
102
{ACAD_REACTORS
330
1A
102
}
330
1A
100
AcDbPlotSettings
  1

  2
none_device
  4

  6

 40
0.0
 41
0.0
 42
0.0
 43
0.0
 44
0.0
 45
0.0
 46
0.0
 47
0.0
 48
0.0
 49
0.0
140
0.0
141
0.0
142
1.0
143
1.0
 70
   688
 72
     0
 73
     0
 74
     5
  7

 75
    16
 76
     0
 77
     2
 78
   300
147
1.0
148
0.0
149
0.0
100
AcDbLayout
  1
Layout1
 70
     1
 71
     1
 10
0.0
 20
0.0
 11
12.0
 21
9.0
 12
0.0
 22
0.0
 32
0.0
 14
1.000000000000000E+20
 24
1.000000000000000E+20
 34
1.000000000000000E+20
 15
-1.000000000000000E+20
 25
-1.000000000000000E+20
 35
-1.000000000000000E+20
146
0.0
 13
0.0
 23
0.0
 33
0.0
 16
1.0
 26
0.0
 36
0.0
 17
0.0
 27
1.0
 37
0.0
 76
     0
330
1B
  0
LAYOUT
  5
26
102
{ACAD_REACTORS
330
1A
102
}
330
1A
100
AcDbPlotSettings
  1

  2
none_device
  4

  6

 40
0.0
 41
0.0
 42
0.0
 43
0.0
 44
0.0
 45
0.0
 46
0.0
 47
0.0
 48
0.0
 49
0.0
140
0.0
141
0.0
142
1.0
143
1.0
 70
   688
 72
     0
 73
     0
 74
     5
  7

 75
    16
 76
     0
 77
     2
 78
   300
147
1.0
148
0.0
149
0.0
100
AcDbLayout
  1
Layout2
 70
     1
 71
     2
 10
0.0
 20
0.0
 11
0.0
 21
0.0
 12
0.0
 22
0.0
 32
0.0
 14
0.0
 24
0.0
 34
0.0
 15
0.0
 25
0.0
 35
0.0
146
0.0
 13
0.0
 23
0.0
 33
0.0
 16
1.0
 26
0.0
 36
0.0
 17
0.0
 27
1.0
 37
0.0
 76
     0
330
23
  0
LAYOUT
  5
22
102
{ACAD_REACTORS
330
1A
102
}
330
1A
100
AcDbPlotSettings
  1

  2
none_device
  4
Letter_(8.50_x_11.00_Inches)
  6

 40
6.35
 41
6.35
 42
6.35000508
 43
6.35000508
 44
215.9
 45
279.4
 46
0.0
 47
0.0
 48
0.0
 49
0.0
140
0.0
141
0.0
142
1.0
143
1.0
 70
  1712
 72
     0
 73
     0
 74
     0
  7

 75
     0
 76
     0
 77
     2
 78
   300
147
1.0
148
0.0
149
0.0
100
AcDbLayout
  1
Model
 70
     1
 71
     0
 10
0.0
 20
0.0
 11
12.0
 21
9.0
 12
0.0
 22
0.0
 32
0.0
 14
-100.84598
 24
-11.47802
 34
0.0
 15
95.91845
 25
115.86316
 35
0.0
146
0.0
 13
0.0
 23
0.0
 33
0.0
 16
1.0
 26
0.0
 36
0.0
 17
0.0
 27
1.0
 37
0.0
 76
     0
330
1F
331
29
  0
MATERIAL
  5
45
102
{ACAD_REACTORS
330
43
102
}
330
43
100
AcDbMaterial
  1
ByBlock
 72
     1
 94
      127
  0
MATERIAL
  5
44
102
{ACAD_REACTORS
330
43
102
}
330
43
100
AcDbMaterial
  1
ByLayer
 72
     1
 94
      127
  0
MATERIAL
  5
46
102
{ACAD_REACTORS
330
43
102
}
330
43
100
AcDbMaterial
  1
Global
 72
     1
 94
      127
  0
MLEADERSTYLE
  5
6C
102
{ACAD_REACTORS
330
6B
102
}
102
{ACAD_XDICTIONARY
360
F5
102
}
330
6B
100
AcDbMLeaderStyle
170
     2
171
     1
172
     0
 90
        2
 40
0.0
 41
0.0
173
     1
 91
-1056964608
340
14
 92
       -2
290
     1
 42
0.09
291
     1
 43
0.36
  3
Standard
341
0
 44
0.18
300

342
11
174
     1
178
     6
175
     1
176
     0
 93
-1056964608
 45
0.18
292
     0
297
     0
 46
0.18
343
0
 94
-1056964608
 47
1.0
 49
1.0
140
1.0
293
     1
141
0.0
294
     1
177
     0
142
1.0
295
     0
296
     0
143
0.125
1001
ACAD_MLEADERVER
1070
     2
  0
MLINESTYLE
  5
18
102
{ACAD_REACTORS
330
17
102
}
330
17
100
AcDbMlineStyle
  2
Standard
 70
     0
  3

 62
   256
 51
90.0
 52
90.0
 71
     2
 49
0.5
 62
   256
  6
BYLAYER
 49
-0.5
 62
   256
  6
BYLAYER
  0
ACDBPLACEHOLDER
  5
F
102
{ACAD_REACTORS
330
E
102
}
330
E
  0
SCALE
  5
48
102
{ACAD_REACTORS
330
47
102
}
330
47
100
AcDbScale
 70
     0
300
1:1
140
1.0
141
1.0
290
     1
  0
SCALE
  5
49
102
{ACAD_REACTORS
330
47
102
}
330
47
100
AcDbScale
 70
     0
300
1:2
140
1.0
141
2.0
290
     0
  0
SCALE
  5
4A
102
{ACAD_REACTORS
330
47
102
}
330
47
100
AcDbScale
 70
     0
300
1:4
140
1.0
141
4.0
290
     0
  0
SCALE
  5
4B
102
{ACAD_REACTORS
330
47
102
}
330
47
100
AcDbScale
 70
     0
300
1:5
140
1.0
141
5.0
290
     0
  0
SCALE
  5
4C
102
{ACAD_REACTORS
330
47
102
}
330
47
100
AcDbScale
 70
     0
300
1:8
140
1.0
141
8.0
290
     0
  0
SCALE
  5
4D
102
{ACAD_REACTORS
330
47
102
}
330
47
100
AcDbScale
 70
     0
300
1:10
140
1.0
141
10.0
290
     0
  0
SCALE
  5
4E
102
{ACAD_REACTORS
330
47
102
}
330
47
100
AcDbScale
 70
     0
300
1:16
140
1.0
141
16.0
290
     0
  0
SCALE
  5
4F
102
{ACAD_REACTORS
330
47
102
}
330
47
100
AcDbScale
 70
     0
300
1:20
140
1.0
141
20.0
290
     0
  0
SCALE
  5
50
102
{ACAD_REACTORS
330
47
102
}
330
47
100
AcDbScale
 70
     0
300
1:30
140
1.0
141
30.0
290
     0
  0
SCALE
  5
51
102
{ACAD_REACTORS
330
47
102
}
330
47
100
AcDbScale
 70
     0
300
1:40
140
1.0
141
40.0
290
     0
  0
SCALE
  5
52
102
{ACAD_REACTORS
330
47
102
}
330
47
100
AcDbScale
 70
     0
300
1:50
140
1.0
141
50.0
290
     0
  0
SCALE
  5
53
102
{ACAD_REACTORS
330
47
102
}
330
47
100
AcDbScale
 70
     0
300
1:100
140
1.0
141
100.0
290
     0
  0
SCALE
  5
54
102
{ACAD_REACTORS
330
47
102
}
330
47
100
AcDbScale
 70
     0
300
2:1
140
2.0
141
1.0
290
     0
  0
SCALE
  5
55
102
{ACAD_REACTORS
330
47
102
}
330
47
100
AcDbScale
 70
     0
300
4:1
140
4.0
141
1.0
290
     0
  0
SCALE
  5
56
102
{ACAD_REACTORS
330
47
102
}
330
47
100
AcDbScale
 70
     0
300
8:1
140
8.0
141
1.0
290
     0
  0
SCALE
  5
57
102
{ACAD_REACTORS
330
47
102
}
330
47
100
AcDbScale
 70
     0
300
10:1
140
10.0
141
1.0
290
     0
  0
SCALE
  5
58
102
{ACAD_REACTORS
330
47
102
}
330
47
100
AcDbScale
 70
     0
300
100:1
140
100.0
141
1.0
290
     0
  0
SCALE
  5
59
102
{ACAD_REACTORS
330
47
102
}
330
47
100
AcDbScale
 70
     0
300
1/128" = 1'-0"
140
0.0078125
141
12.0
290
     0
  0
SCALE
  5
5A
102
{ACAD_REACTORS
330
47
102
}
330
47
100
AcDbScale
 70
     0
300
1/64" = 1'-0"
140
0.015625
141
12.0
290
     0
  0
SCALE
  5
5B
102
{ACAD_REACTORS
330
47
102
}
330
47
100
AcDbScale
 70
     0
300
1/32" = 1'-0"
140
0.03125
141
12.0
290
     0
  0
SCALE
  5
5C
102
{ACAD_REACTORS
330
47
102
}
330
47
100
AcDbScale
 70
     0
300
1/16" = 1'-0"
140
0.0625
141
12.0
290
     0
  0
SCALE
  5
5D
102
{ACAD_REACTORS
330
47
102
}
330
47
100
AcDbScale
 70
     0
300
3/32" = 1'-0"
140
0.09375
141
12.0
290
     0
  0
SCALE
  5
5E
102
{ACAD_REACTORS
330
47
102
}
330
47
100
AcDbScale
 70
     0
300
1/8" = 1'-0"
140
0.125
141
12.0
290
     0
  0
SCALE
  5
5F
102
{ACAD_REACTORS
330
47
102
}
330
47
100
AcDbScale
 70
     0
300
3/16" = 1'-0"
140
0.1875
141
12.0
290
     0
  0
SCALE
  5
60
102
{ACAD_REACTORS
330
47
102
}
330
47
100
AcDbScale
 70
     0
300
1/4" = 1'-0"
140
0.25
141
12.0
290
     0
  0
SCALE
  5
61
102
{ACAD_REACTORS
330
47
102
}
330
47
100
AcDbScale
 70
     0
300
3/8" = 1'-0"
140
0.375
141
12.0
290
     0
  0
SCALE
  5
62
102
{ACAD_REACTORS
330
47
102
}
330
47
100
AcDbScale
 70
     0
300
1/2" = 1'-0"
140
0.5
141
12.0
290
     0
  0
SCALE
  5
63
102
{ACAD_REACTORS
330
47
102
}
330
47
100
AcDbScale
 70
     0
300
3/4" = 1'-0"
140
0.75
141
12.0
290
     0
  0
SCALE
  5
64
102
{ACAD_REACTORS
330
47
102
}
330
47
100
AcDbScale
 70
     0
300
1" = 1'-0"
140
1.0
141
12.0
290
     0
  0
SCALE
  5
65
102
{ACAD_REACTORS
330
47
102
}
330
47
100
AcDbScale
 70
     0
300
1-1/2" = 1'-0"
140
1.5
141
12.0
290
     0
  0
SCALE
  5
66
102
{ACAD_REACTORS
330
47
102
}
330
47
100
AcDbScale
 70
     0
300
3" = 1'-0"
140
3.0
141
12.0
290
     0
  0
SCALE
  5
67
102
{ACAD_REACTORS
330
47
102
}
330
47
100
AcDbScale
 70
     0
300
6" = 1'-0"
140
6.0
141
12.0
290
     0
  0
SCALE
  5
68
102
{ACAD_REACTORS
330
47
102
}
330
47
100
AcDbScale
 70
     0
300
1'-0" = 1'-0"
140
12.0
141
12.0
290
     0
  0
TABLESTYLE
  5
6A
102
{ACAD_REACTORS
330
69
102
}
102
{ACAD_XDICTIONARY
360
F2
102
}
330
69
100
AcDbTableStyle
  3
Standard
 70
     0
 71
     0
 40
0.06
 41
0.06
280
     0
281
     0
  7
Standard
140
0.18
170
     2
 62
     0
 63
   257
283
     0
 90
        4
 91
        0
  1

274
    -2
284
     1
 64
     0
275
    -2
285
     1
 65
     0
276
    -2
286
     1
 66
     0
277
    -2
287
     1
 67
     0
278
    -2
288
     1
 68
     0
279
    -2
289
     1
 69
     0
  7
Standard
140
0.25
170
     5
 62
     0
 63
   257
283
     0
 90
        4
 91
        0
  1

274
    -2
284
     1
 64
     0
275
    -2
285
     1
 65
     0
276
    -2
286
     1
 66
     0
277
    -2
287
     1
 67
     0
278
    -2
288
     1
 68
     0
279
    -2
289
     1
 69
     0
  7
Standard
140
0.18
170
     5
 62
     0
 63
   257
283
     0
 90
        4
 91
        0
  1

274
    -2
284
     1
 64
     0
275
    -2
285
     1
 65
     0
276
    -2
286
     1
 66
     0
277
    -2
287
     1
 67
     0
278
    -2
288
     1
 68
     0
279
    -2
289
     1
 69
     0
  0
VISUALSTYLE
  5
2F
102
{ACAD_REACTORS
330
2A
102
}
102
{ACAD_XDICTIONARY
360
CA
102
}
330
2A
100
AcDbVisualStyle
  2
2dWireframe
 70
     4
 71
     0
 72
     2
 73
     0
 90
        0
 40
0.6
 41
30.0
 62
     5
 63
     7
421
 16777215
 74
     1
 91
        4
 64
     7
 65
   257
 75
     1
175
     1
 42
1.0
 92
        0
 66
   257
 43
1.0
 76
     1
 77
     6
 78
     2
 67
     7
 79
     5
170
     0
171
     0
290
     0
174
     0
 93
        1
 44
0.0
173
     0
291
     0
 45
0.0
  0
VISUALSTYLE
  5
32
102
{ACAD_REACTORS
330
2A
102
}
102
{ACAD_XDICTIONARY
360
D0
102
}
330
2A
100
AcDbVisualStyle
  2
Basic
 70
     7
 71
     1
 72
     0
 73
     1
 90
        0
 40
0.6
 41
30.0
 62
     5
 63
     7
421
 16777215
 74
     0
 91
        4
 64
     7
 65
   257
 75
     1
175
     1
 42
1.0
 92
        8
 66
     7
 43
1.0
 76
     1
 77
     6
 78
     2
 67
     7
 79
     5
170
     0
171
     0
290
     0
174
     0
 93
        1
 44
0.0
173
     0
291
     1
 45
0.0
  0
VISUALSTYLE
  5
36
102
{ACAD_REACTORS
330
2A
102
}
102
{ACAD_XDICTIONARY
360
D8
102
}
330
2A
100
AcDbVisualStyle
  2
Brighten
 70
    12
 71
     2
 72
     2
 73
     0
 90
        0
 40
0.6
 41
30.0
 62
     5
 63
     7
421
 16777215
 74
     1
 91
        4
 64
     7
 65
   257
 75
     1
175
     1
 42
1.0
 92
        8
 66
     7
 43
1.0
 76
     1
 77
     6
 78
     2
 67
     7
 79
     5
170
     0
171
     0
290
     0
174
     0
 93
        1
 44
50.0
173
     0
291
     1
 45
0.0
  0
VISUALSTYLE
  5
3A
102
{ACAD_REACTORS
330
2A
102
}
102
{ACAD_XDICTIONARY
360
E0
102
}
330
2A
100
AcDbVisualStyle
  2
ColorChange
 70
    16
 71
     2
 72
     2
 73
     3
 90
        0
 40
0.6
 41
30.0
 62
     5
 63
     8
421
  8421504
 74
     1
 91
        4
 64
     7
 65
   257
 75
     1
175
     1
 42
1.0
 92
        8
 66
     8
424
  8421504
 43
1.0
 76
     1
 77
     6
 78
     2
 67
     7
 79
     5
170
     0
171
     0
290
     0
174
     0
 93
        1
 44
0.0
173
     0
291
     1
 45
0.0
  0
VISUALSTYLE
  5
34
102
{ACAD_REACTORS
330
2A
102
}
102
{ACAD_XDICTIONARY
360
D4
102
}
330
2A
100
AcDbVisualStyle
  2
Conceptual
 70
     9
 71
     3
 72
     2
 73
     0
 90
        0
 40
0.6
 41
30.0
 62
     5
 63
     7
421
 16777215
 74
     2
 91
        2
 64
     7
 65
   257
 75
     1
175
     1
 42
179.0
 92
        8
 66
     7
 43
1.0
 76
     1
 77
     6
 78
     2
 67
     7
 79
     3
170
     0
171
     0
290
     0
174
     0
 93
        1
 44
0.0
173
     0
291
     0
 45
0.0
  0
VISUALSTYLE
  5
35
102
{ACAD_REACTORS
330
2A
102
}
102
{ACAD_XDICTIONARY
360
D6
102
}
330
2A
100
AcDbVisualStyle
  2
Dim
 70
    11
 71
     2
 72
     2
 73
     0
 90
        0
 40
0.6
 41
30.0
 62
     5
 63
     7
421
 16777215
 74
     1
 91
        4
 64
     7
 65
   257
 75
     1
175
     1
 42
1.0
 92
        8
 66
     7
 43
1.0
 76
     1
 77
     6
 78
     2
 67
     7
 79
     5
170
     0
171
     0
290
     0
174
     0
 93
        1
 44
-50.0
173
     0
291
     1
 45
0.0
  0
VISUALSTYLE
  5
3D
102
{ACAD_REACTORS
330
2A
102
}
102
{ACAD_XDICTIONARY
360
E6
102
}
330
2A
100
AcDbVisualStyle
  2
EdgeColorOff
 70
    22
 71
     2
 72
     2
 73
     0
 90
        0
 40
0.6
 41
30.0
 62
     5
 63
     7
421
 16777215
 74
     1
 91
        4
 64
     7
 65
   257
 75
     1
175
     1
 42
1.0
 92
        8
 66
     7
 43
1.0
 76
     1
 77
     6
 78
     2
 67
     7
 79
     5
170
     0
171
     0
290
     0
174
     0
 93
        1
 44
0.0
173
     0
291
     1
 45
0.0
  0
VISUALSTYLE
  5
39
102
{ACAD_REACTORS
330
2A
102
}
102
{ACAD_XDICTIONARY
360
DE
102
}
330
2A
100
AcDbVisualStyle
  2
Facepattern
 70
    15
 71
     2
 72
     2
 73
     0
 90
        0
 40
0.6
 41
30.0
 62
     5
 63
     7
421
 16777215
 74
     1
 91
        4
 64
     7
 65
   257
 75
     1
175
     1
 42
1.0
 92
        8
 66
     7
 43
1.0
 76
     1
 77
     6
 78
     2
 67
     7
 79
     5
170
     0
171
     0
290
     0
174
     0
 93
        1
 44
0.0
173
     0
291
     1
 45
0.0
  0
VISUALSTYLE
  5
2B
102
{ACAD_REACTORS
330
2A
102
}
102
{ACAD_XDICTIONARY
360
C2
102
}
330
2A
100
AcDbVisualStyle
  2
Flat
 70
     0
 71
     2
 72
     1
 73
     1
 90
        2
 40
0.6
 41
30.0
 62
     5
 63
     7
421
 16777215
 74
     0
 91
        0
 64
     7
 65
   257
 75
     1
175
     1
 42
1.0
 92
        8
 66
     7
 43
1.0
 76
     1
 77
     6
 78
     2
 67
     7
 79
     5
170
     0
171
     0
290
     0
174
     0
 93
       13
 44
0.0
173
     0
291
     1
 45
0.0
  0
VISUALSTYLE
  5
2C
102
{ACAD_REACTORS
330
2A
102
}
102
{ACAD_XDICTIONARY
360
C4
102
}
330
2A
100
AcDbVisualStyle
  2
FlatWithEdges
 70
     1
 71
     2
 72
     1
 73
     1
 90
        2
 40
0.6
 41
30.0
 62
     5
 63
     7
421
 16777215
 74
     1
 91
        0
 64
     7
 65
   257
 75
     1
175
     1
 42
1.0
 92
        0
 66
   257
 43
1.0
 76
     1
 77
     6
 78
     2
 67
     7
 79
     5
170
     0
171
     0
290
     0
174
     0
 93
       13
 44
0.0
173
     0
291
     1
 45
0.0
  0
VISUALSTYLE
  5
2D
102
{ACAD_REACTORS
330
2A
102
}
102
{ACAD_XDICTIONARY
360
C6
102
}
330
2A
100
AcDbVisualStyle
  2
Gouraud
 70
     2
 71
     2
 72
     2
 73
     1
 90
        2
 40
0.6
 41
30.0
 62
     5
 63
     7
421
 16777215
 74
     0
 91
        0
 64
     7
 65
   257
 75
     1
175
     1
 42
1.0
 92
        0
 66
     7
 43
1.0
 76
     1
 77
     6
 78
     2
 67
     7
 79
     5
170
     0
171
     0
290
     0
174
     0
 93
       13
 44
0.0
173
     0
291
     1
 45
0.0
  0
VISUALSTYLE
  5
2E
102
{ACAD_REACTORS
330
2A
102
}
102
{ACAD_XDICTIONARY
360
C8
102
}
330
2A
100
AcDbVisualStyle
  2
GouraudWithEdges
 70
     3
 71
     2
 72
     2
 73
     1
 90
        2
 40
0.6
 41
30.0
 62
     5
 63
     7
421
 16777215
 74
     1
 91
        0
 64
     7
 65
   257
 75
     1
175
     1
 42
1.0
 92
        0
 66
   257
 43
1.0
 76
     1
 77
     6
 78
     2
 67
     7
 79
     5
170
     0
171
     0
290
     0
174
     0
 93
       13
 44
0.0
173
     0
291
     1
 45
0.0
  0
VISUALSTYLE
  5
31
102
{ACAD_REACTORS
330
2A
102
}
102
{ACAD_XDICTIONARY
360
CE
102
}
330
2A
100
AcDbVisualStyle
  2
Hidden
 70
     6
 71
     1
 72
     2
 73
     2
 90
        0
 40
0.6
 41
30.0
 62
     5
 63
     7
421
 16777215
 74
     2
 91
        2
 64
     7
 65
   257
 75
     2
175
     1
 42
40.0
 92
        0
 66
   257
 43
1.0
 76
     1
 77
     6
 78
     2
 67
     7
 79
     3
170
     0
171
     0
290
     0
174
     0
 93
        1
 44
0.0
173
     0
291
     0
 45
0.0
  0
VISUALSTYLE
  5
3B
102
{ACAD_REACTORS
330
2A
102
}
102
{ACAD_XDICTIONARY
360
E2
102
}
330
2A
100
AcDbVisualStyle
  2
JitterOff
 70
    20
 71
     2
 72
     2
 73
     0
 90
        0
 40
0.6
 41
30.0
 62
     5
 63
     7
421
 16777215
 74
     1
 91
        4
 64
     7
 65
   257
 75
     1
175
     1
 42
1.0
 92
       10
 66
     7
 43
1.0
 76
     1
 77
     6
 78
     2
 67
     7
 79
     5
170
     0
171
     0
290
     0
174
     0
 93
        1
 44
0.0
173
     0
291
     1
 45
0.0
  0
VISUALSTYLE
  5
38
102
{ACAD_REACTORS
330
2A
102
}
102
{ACAD_XDICTIONARY
360
DC
102
}
330
2A
100
AcDbVisualStyle
  2
Linepattern
 70
    14
 71
     2
 72
     2
 73
     0
 90
        0
 40
0.6
 41
30.0
 62
     5
 63
     7
421
 16777215
 74
     1
 91
        4
 64
     7
 65
   257
 75
     7
175
     7
 42
1.0
 92
        8
 66
     7
 43
1.0
 76
     1
 77
     6
 78
     2
 67
     7
 79
     5
170
     0
171
     0
290
     0
174
     0
 93
        1
 44
0.0
173
     0
291
     1
 45
0.0
  0
VISUALSTYLE
  5
3C
102
{ACAD_REACTORS
330
2A
102
}
102
{ACAD_XDICTIONARY
360
E4
102
}
330
2A
100
AcDbVisualStyle
  2
OverhangOff
 70
    21
 71
     2
 72
     2
 73
     0
 90
        0
 40
0.6
 41
30.0
 62
     5
 63
     7
421
 16777215
 74
     1
 91
        4
 64
     7
 65
   257
 75
     1
175
     1
 42
1.0
 92
        9
 66
     7
 43
1.0
 76
     1
 77
     6
 78
     2
 67
     7
 79
     5
170
     0
171
     0
290
     0
174
     0
 93
        1
 44
0.0
173
     0
291
     1
 45
0.0
  0
VISUALSTYLE
  5
33
102
{ACAD_REACTORS
330
2A
102
}
102
{ACAD_XDICTIONARY
360
D2
102
}
330
2A
100
AcDbVisualStyle
  2
Realistic
 70
     8
 71
     2
 72
     3
 73
     0
 90
        2
 40
0.6
 41
30.0
 62
     5
 63
     7
421
 16777215
 74
     0
 91
        0
 64
     7
 65
   257
 75
     1
175
     1
 42
1.0
 92
        8
 66
   257
 43
1.0
 76
     1
 77
     6
 78
     2
 67
     7
 79
     3
170
     0
171
     0
290
     0
174
     0
 93
       13
 44
0.0
173
     0
291
     0
 45
0.0
  0
VISUALSTYLE
  5
42
102
{ACAD_REACTORS
330
2A
102
}
102
{ACAD_XDICTIONARY
360
F0
102
}
330
2A
100
AcDbVisualStyle
  2
Shaded
 70
    27
 71
     2
 72
     2
 73
     1
 90
        2
 40
0.6
 41
30.0
 62
     5
 63
     7
421
 16777215
 74
     0
 91
        4
 64
     7
 65
   257
 75
     1
175
     1
 42
1.0
 92
        8
 66
   257
 43
1.0
 76
     1
 77
     6
 78
     2
 67
     8
425
  7895160
 79
     3
170
     0
171
     0
290
     0
174
     0
 93
        5
 44
0.0
173
     0
291
     0
 45
0.0
  0
VISUALSTYLE
  5
41
102
{ACAD_REACTORS
330
2A
102
}
102
{ACAD_XDICTIONARY
360
EE
102
}
330
2A
100
AcDbVisualStyle
  2
Shaded with edges
 70
    26
 71
     2
 72
     2
 73
     1
 90
        2
 40
0.6
 41
30.0
 62
     5
 63
     7
421
 16777215
 74
     1
 91
       10
 64
     7
 65
   257
 75
     2
175
     1
 42
1.0
 92
        8
 66
   257
 43
1.0
 76
     1
 77
     6
 78
     2
 67
     7
 79
     3
170
     0
171
     0
290
     0
174
     0
 93
        5
 44
0.0
173
     0
291
     0
 45
0.0
  0
VISUALSTYLE
  5
3E
102
{ACAD_REACTORS
330
2A
102
}
102
{ACAD_XDICTIONARY
360
E8
102
}
330
2A
100
AcDbVisualStyle
  2
Shades of Gray
 70
    23
 71
     2
 72
     2
 73
     3
 90
        0
 40
0.6
 41
30.0
 62
     5
 63
     7
421
 16777215
 74
     2
 91
        2
 64
     7
 65
     7
 75
     1
175
     1
 42
40.0
 92
        8
 66
     7
 43
1.0
 76
     1
 77
     6
 78
     2
 67
     7
 79
     3
170
     0
171
     0
290
     0
174
     0
 93
        1
 44
0.0
173
     0
291
     0
 45
0.0
  0
VISUALSTYLE
  5
3F
102
{ACAD_REACTORS
330
2A
102
}
102
{ACAD_XDICTIONARY
360
EA
102
}
330
2A
100
AcDbVisualStyle
  2
Sketchy
 70
    24
 71
     1
 72
     2
 73
     2
 90
        0
 40
0.6
 41
30.0
 62
     5
 63
     7
421
 16777215
 74
     2
 91
        2
 64
     7
 65
     7
 75
     1
175
     1
 42
40.0
 92
       11
 66
     7
 43
1.0
 76
     1
 77
     6
 78
     2
 67
     7
 79
     6
170
     0
171
     0
290
     0
174
     0
 93
        1
 44
0.0
173
     0
291
     0
 45
0.0
  0
VISUALSTYLE
  5
37
102
{ACAD_REACTORS
330
2A
102
}
102
{ACAD_XDICTIONARY
360
DA
102
}
330
2A
100
AcDbVisualStyle
  2
Thicken
 70
    13
 71
     2
 72
     2
 73
     0
 90
        0
 40
0.6
 41
30.0
 62
     5
 63
     7
421
 16777215
 74
     1
 91
        4
 64
     7
 65
   257
 75
     1
175
     1
 42
1.0
 92
       12
 66
     7
 43
1.0
 76
     1
 77
     6
 78
     2
 67
     7
 79
     5
170
     0
171
     0
290
     0
174
     0
 93
        1
 44
0.0
173
     0
291
     1
 45
0.0
  0
VISUALSTYLE
  5
30
102
{ACAD_REACTORS
330
2A
102
}
102
{ACAD_XDICTIONARY
360
CC
102
}
330
2A
100
AcDbVisualStyle
  2
Wireframe
 70
     5
 71
     0
 72
     2
 73
     0
 90
        0
 40
0.6
 41
30.0
 62
     5
 63
     7
421
 16777215
 74
     1
 91
        4
 64
     7
 65
   257
 75
     1
175
     1
 42
1.0
 92
        0
 66
   257
 43
1.0
 76
     1
 77
     6
 78
     2
 67
     7
 79
     3
170
     0
171
     0
290
     0
174
     0
 93
        1
 44
0.0
173
     0
291
     0
 45
0.0
  0
VISUALSTYLE
  5
40
102
{ACAD_REACTORS
330
2A
102
}
102
{ACAD_XDICTIONARY
360
EC
102
}
330
2A
100
AcDbVisualStyle
  2
X-Ray
 70
    25
 71
     2
 72
     2
 73
     1
 90
        1
 40
0.5
 41
30.0
 62
     5
 63
     7
421
 16777215
 74
     1
 91
        0
 64
     7
 65
   257
 75
     1
175
     1
 42
1.0
 92
        8
 66
     7
 43
1.0
 76
     1
 77
     6
 78
     2
 67
     7
 79
     3
170
     0
171
     0
290
     0
174
     0
 93
       13
 44
0.0
173
     0
291
     0
 45
0.0
  0
DICTIONARYVAR
  5
C0
102
{ACAD_REACTORS
330
BF
102
}
330
BF
100
DictionaryVariables
280
     0
  1
1:1
  0
DICTIONARYVAR
  5
F9
102
{ACAD_REACTORS
330
BF
102
}
330
BF
100
DictionaryVariables
280
     0
  1
Standard
  0
DICTIONARYVAR
  5
F8
102
{ACAD_REACTORS
330
BF
102
}
330
BF
100
DictionaryVariables
280
     0
  1
Standard
  0
DICTIONARYVAR
  5
C1
102
{ACAD_REACTORS
330
BF
102
}
330
BF
100
DictionaryVariables
280
     0
  1
2
  0
DICTIONARY
  5
F5
330
6C
100
AcDbDictionary
280
     1
281
     1
  3
ACAD_XREC_ROUNDTRIP
360
F6
  0
DICTIONARY
  5
F2
330
6A
100
AcDbDictionary
280
     1
281
     1
  3
ACAD_ROUNDTRIP_2008_TABLESTYLE_CELLSTYLEMAP
360
F3
  0
DICTIONARY
  5
CA
330
2F
100
AcDbDictionary
280
     1
281
     1
  3
ACAD_XREC_ROUNDTRIP
360
CB
  0
DICTIONARY
  5
D0
330
32
100
AcDbDictionary
280
     1
281
     1
  3
ACAD_XREC_ROUNDTRIP
360
D1
  0
DICTIONARY
  5
D8
330
36
100
AcDbDictionary
280
     1
281
     1
  3
ACAD_XREC_ROUNDTRIP
360
D9
  0
DICTIONARY
  5
E0
330
3A
100
AcDbDictionary
280
     1
281
     1
  3
ACAD_XREC_ROUNDTRIP
360
E1
  0
DICTIONARY
  5
D4
330
34
100
AcDbDictionary
280
     1
281
     1
  3
ACAD_XREC_ROUNDTRIP
360
D5
  0
DICTIONARY
  5
D6
330
35
100
AcDbDictionary
280
     1
281
     1
  3
ACAD_XREC_ROUNDTRIP
360
D7
  0
DICTIONARY
  5
E6
330
3D
100
AcDbDictionary
280
     1
281
     1
  3
ACAD_XREC_ROUNDTRIP
360
E7
  0
DICTIONARY
  5
DE
330
39
100
AcDbDictionary
280
     1
281
     1
  3
ACAD_XREC_ROUNDTRIP
360
DF
  0
DICTIONARY
  5
C2
330
2B
100
AcDbDictionary
280
     1
281
     1
  3
ACAD_XREC_ROUNDTRIP
360
C3
  0
DICTIONARY
  5
C4
330
2C
100
AcDbDictionary
280
     1
281
     1
  3
ACAD_XREC_ROUNDTRIP
360
C5
  0
DICTIONARY
  5
C6
330
2D
100
AcDbDictionary
280
     1
281
     1
  3
ACAD_XREC_ROUNDTRIP
360
C7
  0
DICTIONARY
  5
C8
330
2E
100
AcDbDictionary
280
     1
281
     1
  3
ACAD_XREC_ROUNDTRIP
360
C9
  0
DICTIONARY
  5
CE
330
31
100
AcDbDictionary
280
     1
281
     1
  3
ACAD_XREC_ROUNDTRIP
360
CF
  0
DICTIONARY
  5
E2
330
3B
100
AcDbDictionary
280
     1
281
     1
  3
ACAD_XREC_ROUNDTRIP
360
E3
  0
DICTIONARY
  5
DC
330
38
100
AcDbDictionary
280
     1
281
     1
  3
ACAD_XREC_ROUNDTRIP
360
DD
  0
DICTIONARY
  5
E4
330
3C
100
AcDbDictionary
280
     1
281
     1
  3
ACAD_XREC_ROUNDTRIP
360
E5
  0
DICTIONARY
  5
D2
330
33
100
AcDbDictionary
280
     1
281
     1
  3
ACAD_XREC_ROUNDTRIP
360
D3
  0
DICTIONARY
  5
F0
330
42
100
AcDbDictionary
280
     1
281
     1
  3
ACAD_XREC_ROUNDTRIP
360
F1
  0
DICTIONARY
  5
EE
330
41
100
AcDbDictionary
280
     1
281
     1
  3
ACAD_XREC_ROUNDTRIP
360
EF
  0
DICTIONARY
  5
E8
330
3E
100
AcDbDictionary
280
     1
281
     1
  3
ACAD_XREC_ROUNDTRIP
360
E9
  0
DICTIONARY
  5
EA
330
3F
100
AcDbDictionary
280
     1
281
     1
  3
ACAD_XREC_ROUNDTRIP
360
EB
  0
DICTIONARY
  5
DA
330
37
100
AcDbDictionary
280
     1
281
     1
  3
ACAD_XREC_ROUNDTRIP
360
DB
  0
DICTIONARY
  5
CC
330
30
100
AcDbDictionary
280
     1
281
     1
  3
ACAD_XREC_ROUNDTRIP
360
CD
  0
DICTIONARY
  5
EC
330
40
100
AcDbDictionary
280
     1
281
     1
  3
ACAD_XREC_ROUNDTRIP
360
ED
  0
XRECORD
  5
F6
102
{ACAD_REACTORS
330
F5
102
}
330
F5
100
AcDbXrecord
280
     1
102
ACAD_ROUNDTRIP_2010_MLEADER_STYLE
  0
CELLSTYLEMAP
  5
F3
102
{ACAD_REACTORS
330
F2
102
}
330
F2
100
AcDbCellStyleMap
 90
        3
300
CELLSTYLE
  1
TABLEFORMAT_BEGIN
 90
        5
170
     1
 91
        0
 92
    32768
 62
   257
 93
        1
300
CONTENTFORMAT
  1
CONTENTFORMAT_BEGIN
 90
        0
 91
        0
 92
        4
 93
        0
300

 40
0.0
140
1.0
 94
        5
 62
     0
340
11
144
0.25
309
CONTENTFORMAT_END
171
     1
301
MARGIN
  1
CELLMARGIN_BEGIN
 40
0.06
 40
0.06
 40
0.06
 40
0.06
 40
0.06
 40
0.06
309
CELLMARGIN_END
 94
        6
 95
        1
302
GRIDFORMAT
  1
GRIDFORMAT_BEGIN
 90
        0
 91
        1
 62
     0
 92
       -2
340
14
 93
        0
 40
0.045
309
GRIDFORMAT_END
 95
        2
302
GRIDFORMAT
  1
GRIDFORMAT_BEGIN
 90
        0
 91
        1
 62
     0
 92
       -2
340
14
 93
        0
 40
0.045
309
GRIDFORMAT_END
 95
        4
302
GRIDFORMAT
  1
GRIDFORMAT_BEGIN
 90
        0
 91
        1
 62
     0
 92
       -2
340
14
 93
        0
 40
0.045
309
GRIDFORMAT_END
 95
        8
302
GRIDFORMAT
  1
GRIDFORMAT_BEGIN
 90
        0
 91
        1
 62
     0
 92
       -2
340
14
 93
        0
 40
0.045
309
GRIDFORMAT_END
 95
       16
302
GRIDFORMAT
  1
GRIDFORMAT_BEGIN
 90
        0
 91
        1
 62
     0
 92
       -2
340
14
 93
        0
 40
0.045
309
GRIDFORMAT_END
 95
       32
302
GRIDFORMAT
  1
GRIDFORMAT_BEGIN
 90
        0
 91
        1
 62
     0
 92
       -2
340
14
 93
        0
 40
0.045
309
GRIDFORMAT_END
309
TABLEFORMAT_END
  1
CELLSTYLE_BEGIN
 90
        1
 91
        1
300
_TITLE
309
CELLSTYLE_END
300
CELLSTYLE
  1
TABLEFORMAT_BEGIN
 90
        5
170
     1
 91
        0
 92
        0
 62
   257
 93
        1
300
CONTENTFORMAT
  1
CONTENTFORMAT_BEGIN
 90
        0
 91
        0
 92
        4
 93
        0
300

 40
0.0
140
1.0
 94
        5
 62
     0
340
11
144
0.18
309
CONTENTFORMAT_END
171
     1
301
MARGIN
  1
CELLMARGIN_BEGIN
 40
0.06
 40
0.06
 40
0.06
 40
0.06
 40
0.06
 40
0.06
309
CELLMARGIN_END
 94
        6
 95
        1
302
GRIDFORMAT
  1
GRIDFORMAT_BEGIN
 90
        0
 91
        1
 62
     0
 92
       -2
340
14
 93
        0
 40
0.045
309
GRIDFORMAT_END
 95
        2
302
GRIDFORMAT
  1
GRIDFORMAT_BEGIN
 90
        0
 91
        1
 62
     0
 92
       -2
340
14
 93
        0
 40
0.045
309
GRIDFORMAT_END
 95
        4
302
GRIDFORMAT
  1
GRIDFORMAT_BEGIN
 90
        0
 91
        1
 62
     0
 92
       -2
340
14
 93
        0
 40
0.045
309
GRIDFORMAT_END
 95
        8
302
GRIDFORMAT
  1
GRIDFORMAT_BEGIN
 90
        0
 91
        1
 62
     0
 92
       -2
340
14
 93
        0
 40
0.045
309
GRIDFORMAT_END
 95
       16
302
GRIDFORMAT
  1
GRIDFORMAT_BEGIN
 90
        0
 91
        1
 62
     0
 92
       -2
340
14
 93
        0
 40
0.045
309
GRIDFORMAT_END
 95
       32
302
GRIDFORMAT
  1
GRIDFORMAT_BEGIN
 90
        0
 91
        1
 62
     0
 92
       -2
340
14
 93
        0
 40
0.045
309
GRIDFORMAT_END
309
TABLEFORMAT_END
  1
CELLSTYLE_BEGIN
 90
        2
 91
        1
300
_HEADER
309
CELLSTYLE_END
300
CELLSTYLE
  1
TABLEFORMAT_BEGIN
 90
        5
170
     1
 91
        0
 92
        0
 62
   257
 93
        1
300
CONTENTFORMAT
  1
CONTENTFORMAT_BEGIN
 90
        0
 91
        0
 92
        4
 93
        0
300

 40
0.0
140
1.0
 94
        2
 62
     0
340
11
144
0.18
309
CONTENTFORMAT_END
171
     1
301
MARGIN
  1
CELLMARGIN_BEGIN
 40
0.06
 40
0.06
 40
0.06
 40
0.06
 40
0.06
 40
0.06
309
CELLMARGIN_END
 94
        6
 95
        1
302
GRIDFORMAT
  1
GRIDFORMAT_BEGIN
 90
        0
 91
        1
 62
     0
 92
       -2
340
14
 93
        0
 40
0.045
309
GRIDFORMAT_END
 95
        2
302
GRIDFORMAT
  1
GRIDFORMAT_BEGIN
 90
        0
 91
        1
 62
     0
 92
       -2
340
14
 93
        0
 40
0.045
309
GRIDFORMAT_END
 95
        4
302
GRIDFORMAT
  1
GRIDFORMAT_BEGIN
 90
        0
 91
        1
 62
     0
 92
       -2
340
14
 93
        0
 40
0.045
309
GRIDFORMAT_END
 95
        8
302
GRIDFORMAT
  1
GRIDFORMAT_BEGIN
 90
        0
 91
        1
 62
     0
 92
       -2
340
14
 93
        0
 40
0.045
309
GRIDFORMAT_END
 95
       16
302
GRIDFORMAT
  1
GRIDFORMAT_BEGIN
 90
        0
 91
        1
 62
     0
 92
       -2
340
14
 93
        0
 40
0.045
309
GRIDFORMAT_END
 95
       32
302
GRIDFORMAT
  1
GRIDFORMAT_BEGIN
 90
        0
 91
        1
 62
     0
 92
       -2
340
14
 93
        0
 40
0.045
309
GRIDFORMAT_END
309
TABLEFORMAT_END
  1
CELLSTYLE_BEGIN
 90
        3
 91
        2
300
_DATA
309
CELLSTYLE_END
  0
XRECORD
  5
CB
102
{ACAD_REACTORS
330
CA
102
}
330
CA
100
AcDbXrecord
280
     1
102
RTVSPropertyOp0
 70
     1
102
RTVSPropertyOp1
 70
     1
102
RTVSPropertyOp2
 70
     1
102
RTVSPropertyOp3
 70
     1
102
RTVSPropertyOp4
 70
     1
102
RTVSPropertyOp5
 70
     1
102
RTVSPropertyOp6
 70
     1
102
RTVSPropertyOp7
 70
     1
102
RTVSPropertyOp8
 70
     1
102
RTVSPropertyOp9
 70
     1
102
RTVSPropertyOp10
 70
     1
102
RTVSPropertyOp11
 70
     1
102
RTVSPropertyOp12
 70
     1
102
RTVSPropertyOp13
 70
     1
102
RTVSPropertyOp14
 70
     1
102
RTVSPropertyOp15
 70
     1
102
RTVSPropertyOp16
 70
     1
102
RTVSPropertyOp17
 70
     1
102
RTVSPropertyOp18
 70
     1
102
RTVSPropertyOp19
 70
     1
102
RTVSPropertyOp20
 70
     1
102
RTVSPropertyOp21
 70
     1
102
RTVSPropertyOp22
 70
     1
102
RTVSPropertyOp23
 70
     1
102
RTVSPropertyOp24
 70
     1
102
RTVSPropertyOp25
 70
     1
102
RTVSPropertyOp26
 70
     1
102
RTVSPropertyOp27
 70
     1
102
RTVSPropertyOp28
 70
     1
102
RTVSPropertyOp29
 70
     1
102
RTVSPropertyOp30
 70
     1
102
RTVSPropertyOp31
 70
     1
102
RTVSPropertyOp32
 70
     1
102
RTVSPropertyOp33
 70
     1
102
RTVSPropertyOp34
 70
     1
102
RTVSPropertyOp35
 70
     1
102
RTVSPropertyOp36
 70
     1
102
RTVSPropertyOp37
 70
     1
102
RTVSPropertyOp38
 70
     1
102
RTVSPropertyOp39
 70
     1
102
RTVSPropertyOp40
 70
     1
102
RTVSPropertyOp41
 70
     1
102
RTVSPropertyOp42
 70
     1
102
RTVSPropertyOp43
 70
     1
102
RTVSPropertyOp44
 70
     1
102
RTVSPropertyOp45
 70
     1
102
RTVSPropertyOp46
 70
     1
102
RTVSPropertyOp47
 70
     1
102
RTVSPropertyOp48
 70
     1
102
RTVSPropertyOp49
 70
     1
102
RTVSPropertyOp50
 70
     1
102
RTVSPropertyOp51
 70
     0
102
RTVSPropertyOp52
 70
     0
102
RTVSPropertyOp53
 70
     1
102
RTVSPropertyOp54
 70
     1
102
RTVSPropertyOp55
 70
     1
102
RTVSPropertyOp56
 70
     1
102
RTVSPropertyOp57
 70
     1
102
RTVSPost2010Prop28
280
     1
102
RTVSPost2010PropOp28
 70
     1
102
RTVSPost2010Prop29
280
     1
102
RTVSPost2010PropOp29
 70
     1
102
RTVSPost2010Prop30
280
     0
102
RTVSPost2010PropOp30
 70
     1
102
RTVSPost2010Prop31
280
     0
102
RTVSPost2010PropOp31
 70
     1
102
RTVSPost2010Prop32
280
     0
102
RTVSPost2010PropOp32
 70
     1
102
RTVSPost2010Prop33
280
     0
102
RTVSPost2010PropOp33
 70
     1
102
RTVSPost2010Prop34
280
     0
102
RTVSPost2010PropOp34
 70
     1
102
RTVSPost2010Prop35
280
     0
102
RTVSPost2010PropOp35
 70
     1
102
RTVSPost2010Prop36
280
     0
102
RTVSPost2010PropOp36
 70
     1
102
RTVSPost2010Prop37
 90
       50
102
RTVSPost2010PropOp37
 70
     1
102
RTVSPost2010Prop38
140
0.0
102
RTVSPost2010PropOp38
 70
     1
102
RTVSPost2010Prop39
140
1.0
102
RTVSPost2010PropOp39
 70
     1
102
RTVSPost2010Prop40
 90
        0
102
RTVSPost2010PropOp40
 70
     1
102
RTVSPost2010Prop41ColorIndex
 90
       18
102
RTVSPost2010Prop41ColorRGB
 90
        0
102
RTVSPost2010PropOp41
 70
     1
102
RTVSPost2010Prop42
 90
       50
102
RTVSPost2010PropOp42
 70
     1
102
RTVSPost2010Prop43
 90
        3
102
RTVSPost2010PropOp43
 70
     1
102
RTVSPost2010Prop44ColorIndex
 90
        5
102
RTVSPost2010Prop44ColorRGB
 90
      255
102
RTVSPost2010PropOp44
 70
     1
102
RTVSPost2010Prop45
280
     0
102
RTVSPost2010PropOp45
 70
     1
102
RTVSPost2010Prop46
 90
       50
102
RTVSPost2010PropOp46
 70
     1
102
RTVSPost2010Prop47
 90
       50
102
RTVSPost2010PropOp47
 70
     1
102
RTVSPost2010Prop48
 90
       50
102
RTVSPost2010PropOp48
 70
     1
102
RTVSPost2010Prop49
280
     0
102
RTVSPost2010PropOp49
 70
     1
102
RTVSPost2010Prop50
 90
       50
102
RTVSPost2010PropOp50
 70
     1
102
RTVSPost2010Prop51ColorIndex
 90
      256
102
RTVSPost2010Prop51ColorRGB
 90
-16777216
102
RTVSPost2010PropOp51
 70
     0
102
RTVSPost2010Prop52
140
1.0
102
RTVSPost2010PropOp52
 70
     0
102
RTVSPost2010Prop53
 90
        2
102
RTVSPost2010PropOp53
 70
     1
102
RTVSPost2010Prop54
  1
strokes_ogs.tif
102
RTVSPost2010PropOp54
 70
     1
102
RTVSPost2010Prop55
280
     0
102
RTVSPost2010PropOp55
 70
     1
102
RTVSPost2010Prop56
140
1.0
102
RTVSPost2010PropOp56
 70
     1
102
RTVSPost2010Prop57
140
1.0
102
RTVSPost2010PropOp57
 70
     1
  0
XRECORD
  5
D1
102
{ACAD_REACTORS
330
D0
102
}
330
D0
100
AcDbXrecord
280
     1
102
RTVSPropertyOp0
 70
     1
102
RTVSPropertyOp1
 70
     1
102
RTVSPropertyOp2
 70
     1
102
RTVSPropertyOp3
 70
     1
102
RTVSPropertyOp4
 70
     1
102
RTVSPropertyOp5
 70
     1
102
RTVSPropertyOp6
 70
     1
102
RTVSPropertyOp7
 70
     1
102
RTVSPropertyOp8
 70
     1
102
RTVSPropertyOp9
 70
     1
102
RTVSPropertyOp10
 70
     1
102
RTVSPropertyOp11
 70
     1
102
RTVSPropertyOp12
 70
     1
102
RTVSPropertyOp13
 70
     1
102
RTVSPropertyOp14
 70
     1
102
RTVSPropertyOp15
 70
     1
102
RTVSPropertyOp16
 70
     1
102
RTVSPropertyOp17
 70
     1
102
RTVSPropertyOp18
 70
     1
102
RTVSPropertyOp19
 70
     1
102
RTVSPropertyOp20
 70
     1
102
RTVSPropertyOp21
 70
     1
102
RTVSPropertyOp22
 70
     1
102
RTVSPropertyOp23
 70
     1
102
RTVSPropertyOp24
 70
     1
102
RTVSPropertyOp25
 70
     1
102
RTVSPropertyOp26
 70
     1
102
RTVSPropertyOp27
 70
     1
102
RTVSPropertyOp28
 70
     1
102
RTVSPropertyOp29
 70
     1
102
RTVSPropertyOp30
 70
     1
102
RTVSPropertyOp31
 70
     1
102
RTVSPropertyOp32
 70
     1
102
RTVSPropertyOp33
 70
     1
102
RTVSPropertyOp34
 70
     1
102
RTVSPropertyOp35
 70
     1
102
RTVSPropertyOp36
 70
     1
102
RTVSPropertyOp37
 70
     1
102
RTVSPropertyOp38
 70
     1
102
RTVSPropertyOp39
 70
     1
102
RTVSPropertyOp40
 70
     1
102
RTVSPropertyOp41
 70
     1
102
RTVSPropertyOp42
 70
     1
102
RTVSPropertyOp43
 70
     1
102
RTVSPropertyOp44
 70
     1
102
RTVSPropertyOp45
 70
     1
102
RTVSPropertyOp46
 70
     1
102
RTVSPropertyOp47
 70
     1
102
RTVSPropertyOp48
 70
     1
102
RTVSPropertyOp49
 70
     1
102
RTVSPropertyOp50
 70
     1
102
RTVSPropertyOp51
 70
     0
102
RTVSPropertyOp52
 70
     0
102
RTVSPropertyOp53
 70
     1
102
RTVSPropertyOp54
 70
     1
102
RTVSPropertyOp55
 70
     1
102
RTVSPropertyOp56
 70
     1
102
RTVSPropertyOp57
 70
     1
102
RTVSPost2010Prop28
280
     0
102
RTVSPost2010PropOp28
 70
     1
102
RTVSPost2010Prop29
280
     1
102
RTVSPost2010PropOp29
 70
     1
102
RTVSPost2010Prop30
280
     1
102
RTVSPost2010PropOp30
 70
     1
102
RTVSPost2010Prop31
280
     0
102
RTVSPost2010PropOp31
 70
     1
102
RTVSPost2010Prop32
280
     0
102
RTVSPost2010PropOp32
 70
     1
102
RTVSPost2010Prop33
280
     0
102
RTVSPost2010PropOp33
 70
     1
102
RTVSPost2010Prop34
280
     0
102
RTVSPost2010PropOp34
 70
     1
102
RTVSPost2010Prop35
280
     0
102
RTVSPost2010PropOp35
 70
     1
102
RTVSPost2010Prop36
280
     0
102
RTVSPost2010PropOp36
 70
     1
102
RTVSPost2010Prop37
 90
       50
102
RTVSPost2010PropOp37
 70
     1
102
RTVSPost2010Prop38
140
0.0
102
RTVSPost2010PropOp38
 70
     1
102
RTVSPost2010Prop39
140
1.0
102
RTVSPost2010PropOp39
 70
     1
102
RTVSPost2010Prop40
 90
        0
102
RTVSPost2010PropOp40
 70
     1
102
RTVSPost2010Prop41ColorIndex
 90
       18
102
RTVSPost2010Prop41ColorRGB
 90
        0
102
RTVSPost2010PropOp41
 70
     1
102
RTVSPost2010Prop42
 90
       50
102
RTVSPost2010PropOp42
 70
     1
102
RTVSPost2010Prop43
 90
        3
102
RTVSPost2010PropOp43
 70
     1
102
RTVSPost2010Prop44ColorIndex
 90
        5
102
RTVSPost2010Prop44ColorRGB
 90
      255
102
RTVSPost2010PropOp44
 70
     1
102
RTVSPost2010Prop45
280
     0
102
RTVSPost2010PropOp45
 70
     1
102
RTVSPost2010Prop46
 90
       50
102
RTVSPost2010PropOp46
 70
     1
102
RTVSPost2010Prop47
 90
       50
102
RTVSPost2010PropOp47
 70
     1
102
RTVSPost2010Prop48
 90
       50
102
RTVSPost2010PropOp48
 70
     1
102
RTVSPost2010Prop49
280
     0
102
RTVSPost2010PropOp49
 70
     1
102
RTVSPost2010Prop50
 90
       50
102
RTVSPost2010PropOp50
 70
     1
102
RTVSPost2010Prop51ColorIndex
 90
      256
102
RTVSPost2010Prop51ColorRGB
 90
-16777216
102
RTVSPost2010PropOp51
 70
     0
102
RTVSPost2010Prop52
140
1.0
102
RTVSPost2010PropOp52
 70
     0
102
RTVSPost2010Prop53
 90
        2
102
RTVSPost2010PropOp53
 70
     1
102
RTVSPost2010Prop54
  1
strokes_ogs.tif
102
RTVSPost2010PropOp54
 70
     1
102
RTVSPost2010Prop55
280
     0
102
RTVSPost2010PropOp55
 70
     1
102
RTVSPost2010Prop56
140
1.0
102
RTVSPost2010PropOp56
 70
     1
102
RTVSPost2010Prop57
140
1.0
102
RTVSPost2010PropOp57
 70
     1
  0
XRECORD
  5
D9
102
{ACAD_REACTORS
330
D8
102
}
330
D8
100
AcDbXrecord
280
     1
102
RTVSPropertyOp0
 70
     1
102
RTVSPropertyOp1
 70
     1
102
RTVSPropertyOp2
 70
     1
102
RTVSPropertyOp3
 70
     1
102
RTVSPropertyOp4
 70
     1
102
RTVSPropertyOp5
 70
     1
102
RTVSPropertyOp6
 70
     1
102
RTVSPropertyOp7
 70
     1
102
RTVSPropertyOp8
 70
     1
102
RTVSPropertyOp9
 70
     1
102
RTVSPropertyOp10
 70
     1
102
RTVSPropertyOp11
 70
     1
102
RTVSPropertyOp12
 70
     1
102
RTVSPropertyOp13
 70
     1
102
RTVSPropertyOp14
 70
     1
102
RTVSPropertyOp15
 70
     1
102
RTVSPropertyOp16
 70
     1
102
RTVSPropertyOp17
 70
     1
102
RTVSPropertyOp18
 70
     1
102
RTVSPropertyOp19
 70
     1
102
RTVSPropertyOp20
 70
     1
102
RTVSPropertyOp21
 70
     1
102
RTVSPropertyOp22
 70
     1
102
RTVSPropertyOp23
 70
     1
102
RTVSPropertyOp24
 70
     1
102
RTVSPropertyOp25
 70
     1
102
RTVSPropertyOp26
 70
     1
102
RTVSPropertyOp27
 70
     1
102
RTVSPropertyOp28
 70
     1
102
RTVSPropertyOp29
 70
     1
102
RTVSPropertyOp30
 70
     1
102
RTVSPropertyOp31
 70
     1
102
RTVSPropertyOp32
 70
     1
102
RTVSPropertyOp33
 70
     1
102
RTVSPropertyOp34
 70
     1
102
RTVSPropertyOp35
 70
     1
102
RTVSPropertyOp36
 70
     1
102
RTVSPropertyOp37
 70
     1
102
RTVSPropertyOp38
 70
     1
102
RTVSPropertyOp39
 70
     1
102
RTVSPropertyOp40
 70
     1
102
RTVSPropertyOp41
 70
     1
102
RTVSPropertyOp42
 70
     1
102
RTVSPropertyOp43
 70
     1
102
RTVSPropertyOp44
 70
     1
102
RTVSPropertyOp45
 70
     1
102
RTVSPropertyOp46
 70
     1
102
RTVSPropertyOp47
 70
     1
102
RTVSPropertyOp48
 70
     1
102
RTVSPropertyOp49
 70
     1
102
RTVSPropertyOp50
 70
     1
102
RTVSPropertyOp51
 70
     0
102
RTVSPropertyOp52
 70
     0
102
RTVSPropertyOp53
 70
     1
102
RTVSPropertyOp54
 70
     1
102
RTVSPropertyOp55
 70
     1
102
RTVSPropertyOp56
 70
     1
102
RTVSPropertyOp57
 70
     1
102
RTVSPost2010Prop28
280
     0
102
RTVSPost2010PropOp28
 70
     1
102
RTVSPost2010Prop29
280
     1
102
RTVSPost2010PropOp29
 70
     1
102
RTVSPost2010Prop30
280
     1
102
RTVSPost2010PropOp30
 70
     1
102
RTVSPost2010Prop31
280
     0
102
RTVSPost2010PropOp31
 70
     1
102
RTVSPost2010Prop32
280
     0
102
RTVSPost2010PropOp32
 70
     1
102
RTVSPost2010Prop33
280
     0
102
RTVSPost2010PropOp33
 70
     1
102
RTVSPost2010Prop34
280
     0
102
RTVSPost2010PropOp34
 70
     1
102
RTVSPost2010Prop35
280
     0
102
RTVSPost2010PropOp35
 70
     1
102
RTVSPost2010Prop36
280
     0
102
RTVSPost2010PropOp36
 70
     1
102
RTVSPost2010Prop37
 90
       50
102
RTVSPost2010PropOp37
 70
     1
102
RTVSPost2010Prop38
140
0.0
102
RTVSPost2010PropOp38
 70
     1
102
RTVSPost2010Prop39
140
1.0
102
RTVSPost2010PropOp39
 70
     1
102
RTVSPost2010Prop40
 90
        0
102
RTVSPost2010PropOp40
 70
     1
102
RTVSPost2010Prop41ColorIndex
 90
       18
102
RTVSPost2010Prop41ColorRGB
 90
        0
102
RTVSPost2010PropOp41
 70
     1
102
RTVSPost2010Prop42
 90
       50
102
RTVSPost2010PropOp42
 70
     1
102
RTVSPost2010Prop43
 90
        3
102
RTVSPost2010PropOp43
 70
     1
102
RTVSPost2010Prop44ColorIndex
 90
        5
102
RTVSPost2010Prop44ColorRGB
 90
      255
102
RTVSPost2010PropOp44
 70
     1
102
RTVSPost2010Prop45
280
     0
102
RTVSPost2010PropOp45
 70
     1
102
RTVSPost2010Prop46
 90
       50
102
RTVSPost2010PropOp46
 70
     1
102
RTVSPost2010Prop47
 90
       50
102
RTVSPost2010PropOp47
 70
     1
102
RTVSPost2010Prop48
 90
       50
102
RTVSPost2010PropOp48
 70
     1
102
RTVSPost2010Prop49
280
     0
102
RTVSPost2010PropOp49
 70
     1
102
RTVSPost2010Prop50
 90
       50
102
RTVSPost2010PropOp50
 70
     1
102
RTVSPost2010Prop51ColorIndex
 90
      256
102
RTVSPost2010Prop51ColorRGB
 90
-16777216
102
RTVSPost2010PropOp51
 70
     0
102
RTVSPost2010Prop52
140
1.0
102
RTVSPost2010PropOp52
 70
     0
102
RTVSPost2010Prop53
 90
        2
102
RTVSPost2010PropOp53
 70
     1
102
RTVSPost2010Prop54
  1
strokes_ogs.tif
102
RTVSPost2010PropOp54
 70
     1
102
RTVSPost2010Prop55
280
     0
102
RTVSPost2010PropOp55
 70
     1
102
RTVSPost2010Prop56
140
1.0
102
RTVSPost2010PropOp56
 70
     1
102
RTVSPost2010Prop57
140
1.0
102
RTVSPost2010PropOp57
 70
     1
  0
XRECORD
  5
E1
102
{ACAD_REACTORS
330
E0
102
}
330
E0
100
AcDbXrecord
280
     1
102
RTVSPropertyOp0
 70
     1
102
RTVSPropertyOp1
 70
     1
102
RTVSPropertyOp2
 70
     1
102
RTVSPropertyOp3
 70
     1
102
RTVSPropertyOp4
 70
     1
102
RTVSPropertyOp5
 70
     1
102
RTVSPropertyOp6
 70
     1
102
RTVSPropertyOp7
 70
     1
102
RTVSPropertyOp8
 70
     1
102
RTVSPropertyOp9
 70
     1
102
RTVSPropertyOp10
 70
     1
102
RTVSPropertyOp11
 70
     1
102
RTVSPropertyOp12
 70
     1
102
RTVSPropertyOp13
 70
     1
102
RTVSPropertyOp14
 70
     1
102
RTVSPropertyOp15
 70
     1
102
RTVSPropertyOp16
 70
     1
102
RTVSPropertyOp17
 70
     1
102
RTVSPropertyOp18
 70
     1
102
RTVSPropertyOp19
 70
     1
102
RTVSPropertyOp20
 70
     1
102
RTVSPropertyOp21
 70
     1
102
RTVSPropertyOp22
 70
     1
102
RTVSPropertyOp23
 70
     1
102
RTVSPropertyOp24
 70
     1
102
RTVSPropertyOp25
 70
     1
102
RTVSPropertyOp26
 70
     1
102
RTVSPropertyOp27
 70
     1
102
RTVSPropertyOp28
 70
     1
102
RTVSPropertyOp29
 70
     1
102
RTVSPropertyOp30
 70
     1
102
RTVSPropertyOp31
 70
     1
102
RTVSPropertyOp32
 70
     1
102
RTVSPropertyOp33
 70
     1
102
RTVSPropertyOp34
 70
     1
102
RTVSPropertyOp35
 70
     1
102
RTVSPropertyOp36
 70
     1
102
RTVSPropertyOp37
 70
     1
102
RTVSPropertyOp38
 70
     1
102
RTVSPropertyOp39
 70
     1
102
RTVSPropertyOp40
 70
     1
102
RTVSPropertyOp41
 70
     1
102
RTVSPropertyOp42
 70
     1
102
RTVSPropertyOp43
 70
     1
102
RTVSPropertyOp44
 70
     1
102
RTVSPropertyOp45
 70
     1
102
RTVSPropertyOp46
 70
     1
102
RTVSPropertyOp47
 70
     1
102
RTVSPropertyOp48
 70
     1
102
RTVSPropertyOp49
 70
     1
102
RTVSPropertyOp50
 70
     1
102
RTVSPropertyOp51
 70
     0
102
RTVSPropertyOp52
 70
     0
102
RTVSPropertyOp53
 70
     1
102
RTVSPropertyOp54
 70
     1
102
RTVSPropertyOp55
 70
     1
102
RTVSPropertyOp56
 70
     1
102
RTVSPropertyOp57
 70
     1
102
RTVSPost2010Prop28
280
     0
102
RTVSPost2010PropOp28
 70
     1
102
RTVSPost2010Prop29
280
     1
102
RTVSPost2010PropOp29
 70
     1
102
RTVSPost2010Prop30
280
     1
102
RTVSPost2010PropOp30
 70
     1
102
RTVSPost2010Prop31
280
     0
102
RTVSPost2010PropOp31
 70
     1
102
RTVSPost2010Prop32
280
     0
102
RTVSPost2010PropOp32
 70
     1
102
RTVSPost2010Prop33
280
     0
102
RTVSPost2010PropOp33
 70
     1
102
RTVSPost2010Prop34
280
     0
102
RTVSPost2010PropOp34
 70
     1
102
RTVSPost2010Prop35
280
     0
102
RTVSPost2010PropOp35
 70
     1
102
RTVSPost2010Prop36
280
     0
102
RTVSPost2010PropOp36
 70
     1
102
RTVSPost2010Prop37
 90
       50
102
RTVSPost2010PropOp37
 70
     1
102
RTVSPost2010Prop38
140
0.0
102
RTVSPost2010PropOp38
 70
     1
102
RTVSPost2010Prop39
140
1.0
102
RTVSPost2010PropOp39
 70
     1
102
RTVSPost2010Prop40
 90
        0
102
RTVSPost2010PropOp40
 70
     1
102
RTVSPost2010Prop41ColorIndex
 90
       18
102
RTVSPost2010Prop41ColorRGB
 90
        0
102
RTVSPost2010PropOp41
 70
     1
102
RTVSPost2010Prop42
 90
       50
102
RTVSPost2010PropOp42
 70
     1
102
RTVSPost2010Prop43
 90
        3
102
RTVSPost2010PropOp43
 70
     1
102
RTVSPost2010Prop44ColorIndex
 90
        5
102
RTVSPost2010Prop44ColorRGB
 90
      255
102
RTVSPost2010PropOp44
 70
     1
102
RTVSPost2010Prop45
280
     0
102
RTVSPost2010PropOp45
 70
     1
102
RTVSPost2010Prop46
 90
       50
102
RTVSPost2010PropOp46
 70
     1
102
RTVSPost2010Prop47
 90
       50
102
RTVSPost2010PropOp47
 70
     1
102
RTVSPost2010Prop48
 90
       50
102
RTVSPost2010PropOp48
 70
     1
102
RTVSPost2010Prop49
280
     0
102
RTVSPost2010PropOp49
 70
     1
102
RTVSPost2010Prop50
 90
       50
102
RTVSPost2010PropOp50
 70
     1
102
RTVSPost2010Prop51ColorIndex
 90
      256
102
RTVSPost2010Prop51ColorRGB
 90
-16777216
102
RTVSPost2010PropOp51
 70
     0
102
RTVSPost2010Prop52
140
1.0
102
RTVSPost2010PropOp52
 70
     0
102
RTVSPost2010Prop53
 90
        2
102
RTVSPost2010PropOp53
 70
     1
102
RTVSPost2010Prop54
  1
strokes_ogs.tif
102
RTVSPost2010PropOp54
 70
     1
102
RTVSPost2010Prop55
280
     0
102
RTVSPost2010PropOp55
 70
     1
102
RTVSPost2010Prop56
140
1.0
102
RTVSPost2010PropOp56
 70
     1
102
RTVSPost2010Prop57
140
1.0
102
RTVSPost2010PropOp57
 70
     1
  0
XRECORD
  5
D5
102
{ACAD_REACTORS
330
D4
102
}
330
D4
100
AcDbXrecord
280
     1
102
RTVSPropertyOp0
 70
     1
102
RTVSPropertyOp1
 70
     1
102
RTVSPropertyOp2
 70
     1
102
RTVSPropertyOp3
 70
     1
102
RTVSPropertyOp4
 70
     1
102
RTVSPropertyOp5
 70
     1
102
RTVSPropertyOp6
 70
     1
102
RTVSPropertyOp7
 70
     1
102
RTVSPropertyOp8
 70
     1
102
RTVSPropertyOp9
 70
     1
102
RTVSPropertyOp10
 70
     1
102
RTVSPropertyOp11
 70
     1
102
RTVSPropertyOp12
 70
     1
102
RTVSPropertyOp13
 70
     1
102
RTVSPropertyOp14
 70
     1
102
RTVSPropertyOp15
 70
     1
102
RTVSPropertyOp16
 70
     1
102
RTVSPropertyOp17
 70
     1
102
RTVSPropertyOp18
 70
     1
102
RTVSPropertyOp19
 70
     1
102
RTVSPropertyOp20
 70
     1
102
RTVSPropertyOp21
 70
     1
102
RTVSPropertyOp22
 70
     1
102
RTVSPropertyOp23
 70
     1
102
RTVSPropertyOp24
 70
     1
102
RTVSPropertyOp25
 70
     1
102
RTVSPropertyOp26
 70
     1
102
RTVSPropertyOp27
 70
     1
102
RTVSPropertyOp28
 70
     1
102
RTVSPropertyOp29
 70
     1
102
RTVSPropertyOp30
 70
     1
102
RTVSPropertyOp31
 70
     1
102
RTVSPropertyOp32
 70
     1
102
RTVSPropertyOp33
 70
     1
102
RTVSPropertyOp34
 70
     1
102
RTVSPropertyOp35
 70
     1
102
RTVSPropertyOp36
 70
     1
102
RTVSPropertyOp37
 70
     1
102
RTVSPropertyOp38
 70
     1
102
RTVSPropertyOp39
 70
     1
102
RTVSPropertyOp40
 70
     1
102
RTVSPropertyOp41
 70
     1
102
RTVSPropertyOp42
 70
     1
102
RTVSPropertyOp43
 70
     1
102
RTVSPropertyOp44
 70
     1
102
RTVSPropertyOp45
 70
     1
102
RTVSPropertyOp46
 70
     1
102
RTVSPropertyOp47
 70
     1
102
RTVSPropertyOp48
 70
     1
102
RTVSPropertyOp49
 70
     1
102
RTVSPropertyOp50
 70
     1
102
RTVSPropertyOp51
 70
     0
102
RTVSPropertyOp52
 70
     0
102
RTVSPropertyOp53
 70
     1
102
RTVSPropertyOp54
 70
     1
102
RTVSPropertyOp55
 70
     1
102
RTVSPropertyOp56
 70
     1
102
RTVSPropertyOp57
 70
     1
102
RTVSPost2010Prop28
280
     0
102
RTVSPost2010PropOp28
 70
     1
102
RTVSPost2010Prop29
280
     1
102
RTVSPost2010PropOp29
 70
     1
102
RTVSPost2010Prop30
280
     1
102
RTVSPost2010PropOp30
 70
     1
102
RTVSPost2010Prop31
280
     0
102
RTVSPost2010PropOp31
 70
     1
102
RTVSPost2010Prop32
280
     0
102
RTVSPost2010PropOp32
 70
     1
102
RTVSPost2010Prop33
280
     0
102
RTVSPost2010PropOp33
 70
     1
102
RTVSPost2010Prop34
280
     0
102
RTVSPost2010PropOp34
 70
     1
102
RTVSPost2010Prop35
280
     0
102
RTVSPost2010PropOp35
 70
     1
102
RTVSPost2010Prop36
280
     0
102
RTVSPost2010PropOp36
 70
     1
102
RTVSPost2010Prop37
 90
       50
102
RTVSPost2010PropOp37
 70
     1
102
RTVSPost2010Prop38
140
0.0
102
RTVSPost2010PropOp38
 70
     1
102
RTVSPost2010Prop39
140
1.0
102
RTVSPost2010PropOp39
 70
     1
102
RTVSPost2010Prop40
 90
        0
102
RTVSPost2010PropOp40
 70
     1
102
RTVSPost2010Prop41ColorIndex
 90
       18
102
RTVSPost2010Prop41ColorRGB
 90
        0
102
RTVSPost2010PropOp41
 70
     1
102
RTVSPost2010Prop42
 90
       50
102
RTVSPost2010PropOp42
 70
     1
102
RTVSPost2010Prop43
 90
        3
102
RTVSPost2010PropOp43
 70
     1
102
RTVSPost2010Prop44ColorIndex
 90
        5
102
RTVSPost2010Prop44ColorRGB
 90
      255
102
RTVSPost2010PropOp44
 70
     1
102
RTVSPost2010Prop45
280
     0
102
RTVSPost2010PropOp45
 70
     1
102
RTVSPost2010Prop46
 90
       50
102
RTVSPost2010PropOp46
 70
     1
102
RTVSPost2010Prop47
 90
       50
102
RTVSPost2010PropOp47
 70
     1
102
RTVSPost2010Prop48
 90
       50
102
RTVSPost2010PropOp48
 70
     1
102
RTVSPost2010Prop49
280
     0
102
RTVSPost2010PropOp49
 70
     1
102
RTVSPost2010Prop50
 90
       50
102
RTVSPost2010PropOp50
 70
     1
102
RTVSPost2010Prop51ColorIndex
 90
      256
102
RTVSPost2010Prop51ColorRGB
 90
-16777216
102
RTVSPost2010PropOp51
 70
     0
102
RTVSPost2010Prop52
140
1.0
102
RTVSPost2010PropOp52
 70
     0
102
RTVSPost2010Prop53
 90
        2
102
RTVSPost2010PropOp53
 70
     1
102
RTVSPost2010Prop54
  1
strokes_ogs.tif
102
RTVSPost2010PropOp54
 70
     1
102
RTVSPost2010Prop55
280
     0
102
RTVSPost2010PropOp55
 70
     1
102
RTVSPost2010Prop56
140
1.0
102
RTVSPost2010PropOp56
 70
     1
102
RTVSPost2010Prop57
140
1.0
102
RTVSPost2010PropOp57
 70
     1
  0
XRECORD
  5
D7
102
{ACAD_REACTORS
330
D6
102
}
330
D6
100
AcDbXrecord
280
     1
102
RTVSPropertyOp0
 70
     1
102
RTVSPropertyOp1
 70
     1
102
RTVSPropertyOp2
 70
     1
102
RTVSPropertyOp3
 70
     1
102
RTVSPropertyOp4
 70
     1
102
RTVSPropertyOp5
 70
     1
102
RTVSPropertyOp6
 70
     1
102
RTVSPropertyOp7
 70
     1
102
RTVSPropertyOp8
 70
     1
102
RTVSPropertyOp9
 70
     1
102
RTVSPropertyOp10
 70
     1
102
RTVSPropertyOp11
 70
     1
102
RTVSPropertyOp12
 70
     1
102
RTVSPropertyOp13
 70
     1
102
RTVSPropertyOp14
 70
     1
102
RTVSPropertyOp15
 70
     1
102
RTVSPropertyOp16
 70
     1
102
RTVSPropertyOp17
 70
     1
102
RTVSPropertyOp18
 70
     1
102
RTVSPropertyOp19
 70
     1
102
RTVSPropertyOp20
 70
     1
102
RTVSPropertyOp21
 70
     1
102
RTVSPropertyOp22
 70
     1
102
RTVSPropertyOp23
 70
     1
102
RTVSPropertyOp24
 70
     1
102
RTVSPropertyOp25
 70
     1
102
RTVSPropertyOp26
 70
     1
102
RTVSPropertyOp27
 70
     1
102
RTVSPropertyOp28
 70
     1
102
RTVSPropertyOp29
 70
     1
102
RTVSPropertyOp30
 70
     1
102
RTVSPropertyOp31
 70
     1
102
RTVSPropertyOp32
 70
     1
102
RTVSPropertyOp33
 70
     1
102
RTVSPropertyOp34
 70
     1
102
RTVSPropertyOp35
 70
     1
102
RTVSPropertyOp36
 70
     1
102
RTVSPropertyOp37
 70
     1
102
RTVSPropertyOp38
 70
     1
102
RTVSPropertyOp39
 70
     1
102
RTVSPropertyOp40
 70
     1
102
RTVSPropertyOp41
 70
     1
102
RTVSPropertyOp42
 70
     1
102
RTVSPropertyOp43
 70
     1
102
RTVSPropertyOp44
 70
     1
102
RTVSPropertyOp45
 70
     1
102
RTVSPropertyOp46
 70
     1
102
RTVSPropertyOp47
 70
     1
102
RTVSPropertyOp48
 70
     1
102
RTVSPropertyOp49
 70
     1
102
RTVSPropertyOp50
 70
     1
102
RTVSPropertyOp51
 70
     0
102
RTVSPropertyOp52
 70
     0
102
RTVSPropertyOp53
 70
     1
102
RTVSPropertyOp54
 70
     1
102
RTVSPropertyOp55
 70
     1
102
RTVSPropertyOp56
 70
     1
102
RTVSPropertyOp57
 70
     1
102
RTVSPost2010Prop28
280
     0
102
RTVSPost2010PropOp28
 70
     1
102
RTVSPost2010Prop29
280
     1
102
RTVSPost2010PropOp29
 70
     1
102
RTVSPost2010Prop30
280
     1
102
RTVSPost2010PropOp30
 70
     1
102
RTVSPost2010Prop31
280
     0
102
RTVSPost2010PropOp31
 70
     1
102
RTVSPost2010Prop32
280
     0
102
RTVSPost2010PropOp32
 70
     1
102
RTVSPost2010Prop33
280
     0
102
RTVSPost2010PropOp33
 70
     1
102
RTVSPost2010Prop34
280
     0
102
RTVSPost2010PropOp34
 70
     1
102
RTVSPost2010Prop35
280
     0
102
RTVSPost2010PropOp35
 70
     1
102
RTVSPost2010Prop36
280
     0
102
RTVSPost2010PropOp36
 70
     1
102
RTVSPost2010Prop37
 90
       50
102
RTVSPost2010PropOp37
 70
     1
102
RTVSPost2010Prop38
140
0.0
102
RTVSPost2010PropOp38
 70
     1
102
RTVSPost2010Prop39
140
1.0
102
RTVSPost2010PropOp39
 70
     1
102
RTVSPost2010Prop40
 90
        0
102
RTVSPost2010PropOp40
 70
     1
102
RTVSPost2010Prop41ColorIndex
 90
       18
102
RTVSPost2010Prop41ColorRGB
 90
        0
102
RTVSPost2010PropOp41
 70
     1
102
RTVSPost2010Prop42
 90
       50
102
RTVSPost2010PropOp42
 70
     1
102
RTVSPost2010Prop43
 90
        3
102
RTVSPost2010PropOp43
 70
     1
102
RTVSPost2010Prop44ColorIndex
 90
        5
102
RTVSPost2010Prop44ColorRGB
 90
      255
102
RTVSPost2010PropOp44
 70
     1
102
RTVSPost2010Prop45
280
     0
102
RTVSPost2010PropOp45
 70
     1
102
RTVSPost2010Prop46
 90
       50
102
RTVSPost2010PropOp46
 70
     1
102
RTVSPost2010Prop47
 90
       50
102
RTVSPost2010PropOp47
 70
     1
102
RTVSPost2010Prop48
 90
       50
102
RTVSPost2010PropOp48
 70
     1
102
RTVSPost2010Prop49
280
     0
102
RTVSPost2010PropOp49
 70
     1
102
RTVSPost2010Prop50
 90
       50
102
RTVSPost2010PropOp50
 70
     1
102
RTVSPost2010Prop51ColorIndex
 90
      256
102
RTVSPost2010Prop51ColorRGB
 90
-16777216
102
RTVSPost2010PropOp51
 70
     0
102
RTVSPost2010Prop52
140
1.0
102
RTVSPost2010PropOp52
 70
     0
102
RTVSPost2010Prop53
 90
        2
102
RTVSPost2010PropOp53
 70
     1
102
RTVSPost2010Prop54
  1
strokes_ogs.tif
102
RTVSPost2010PropOp54
 70
     1
102
RTVSPost2010Prop55
280
     0
102
RTVSPost2010PropOp55
 70
     1
102
RTVSPost2010Prop56
140
1.0
102
RTVSPost2010PropOp56
 70
     1
102
RTVSPost2010Prop57
140
1.0
102
RTVSPost2010PropOp57
 70
     1
  0
XRECORD
  5
E7
102
{ACAD_REACTORS
330
E6
102
}
330
E6
100
AcDbXrecord
280
     1
102
RTVSPropertyOp0
 70
     0
102
RTVSPropertyOp1
 70
     0
102
RTVSPropertyOp2
 70
     0
102
RTVSPropertyOp3
 70
     0
102
RTVSPropertyOp4
 70
     0
102
RTVSPropertyOp5
 70
     0
102
RTVSPropertyOp6
 70
     0
102
RTVSPropertyOp7
 70
     0
102
RTVSPropertyOp8
 70
     0
102
RTVSPropertyOp9
 70
     0
102
RTVSPropertyOp10
 70
     0
102
RTVSPropertyOp11
 70
     0
102
RTVSPropertyOp12
 70
     0
102
RTVSPropertyOp13
 70
     0
102
RTVSPropertyOp14
 70
     2
102
RTVSPropertyOp15
 70
     0
102
RTVSPropertyOp16
 70
     0
102
RTVSPropertyOp17
 70
     0
102
RTVSPropertyOp18
 70
     0
102
RTVSPropertyOp19
 70
     0
102
RTVSPropertyOp20
 70
     0
102
RTVSPropertyOp21
 70
     0
102
RTVSPropertyOp22
 70
     0
102
RTVSPropertyOp23
 70
     0
102
RTVSPropertyOp24
 70
     0
102
RTVSPropertyOp25
 70
     0
102
RTVSPropertyOp26
 70
     0
102
RTVSPropertyOp27
 70
     0
102
RTVSPropertyOp28
 70
     0
102
RTVSPropertyOp29
 70
     0
102
RTVSPropertyOp30
 70
     0
102
RTVSPropertyOp31
 70
     0
102
RTVSPropertyOp32
 70
     0
102
RTVSPropertyOp33
 70
     0
102
RTVSPropertyOp34
 70
     0
102
RTVSPropertyOp35
 70
     0
102
RTVSPropertyOp36
 70
     0
102
RTVSPropertyOp37
 70
     0
102
RTVSPropertyOp38
 70
     0
102
RTVSPropertyOp39
 70
     0
102
RTVSPropertyOp40
 70
     0
102
RTVSPropertyOp41
 70
     0
102
RTVSPropertyOp42
 70
     0
102
RTVSPropertyOp43
 70
     0
102
RTVSPropertyOp44
 70
     0
102
RTVSPropertyOp45
 70
     0
102
RTVSPropertyOp46
 70
     0
102
RTVSPropertyOp47
 70
     0
102
RTVSPropertyOp48
 70
     0
102
RTVSPropertyOp49
 70
     0
102
RTVSPropertyOp50
 70
     0
102
RTVSPropertyOp51
 70
     0
102
RTVSPropertyOp52
 70
     0
102
RTVSPropertyOp53
 70
     0
102
RTVSPropertyOp54
 70
     0
102
RTVSPropertyOp55
 70
     0
102
RTVSPropertyOp56
 70
     0
102
RTVSPropertyOp57
 70
     0
102
RTVSPost2010Prop28
280
     0
102
RTVSPost2010PropOp28
 70
     0
102
RTVSPost2010Prop29
280
     1
102
RTVSPost2010PropOp29
 70
     0
102
RTVSPost2010Prop30
280
     1
102
RTVSPost2010PropOp30
 70
     0
102
RTVSPost2010Prop31
280
     0
102
RTVSPost2010PropOp31
 70
     0
102
RTVSPost2010Prop32
280
     0
102
RTVSPost2010PropOp32
 70
     0
102
RTVSPost2010Prop33
280
     0
102
RTVSPost2010PropOp33
 70
     0
102
RTVSPost2010Prop34
280
     0
102
RTVSPost2010PropOp34
 70
     0
102
RTVSPost2010Prop35
280
     0
102
RTVSPost2010PropOp35
 70
     0
102
RTVSPost2010Prop36
280
     0
102
RTVSPost2010PropOp36
 70
     0
102
RTVSPost2010Prop37
 90
       50
102
RTVSPost2010PropOp37
 70
     0
102
RTVSPost2010Prop38
140
0.0
102
RTVSPost2010PropOp38
 70
     0
102
RTVSPost2010Prop39
140
1.0
102
RTVSPost2010PropOp39
 70
     0
102
RTVSPost2010Prop40
 90
        0
102
RTVSPost2010PropOp40
 70
     0
102
RTVSPost2010Prop41ColorIndex
 90
       18
102
RTVSPost2010Prop41ColorRGB
 90
        0
102
RTVSPost2010PropOp41
 70
     0
102
RTVSPost2010Prop42
 90
       50
102
RTVSPost2010PropOp42
 70
     0
102
RTVSPost2010Prop43
 90
        3
102
RTVSPost2010PropOp43
 70
     0
102
RTVSPost2010Prop44ColorIndex
 90
        5
102
RTVSPost2010Prop44ColorRGB
 90
      255
102
RTVSPost2010PropOp44
 70
     0
102
RTVSPost2010Prop45
280
     0
102
RTVSPost2010PropOp45
 70
     0
102
RTVSPost2010Prop46
 90
       50
102
RTVSPost2010PropOp46
 70
     0
102
RTVSPost2010Prop47
 90
       50
102
RTVSPost2010PropOp47
 70
     0
102
RTVSPost2010Prop48
 90
       50
102
RTVSPost2010PropOp48
 70
     0
102
RTVSPost2010Prop49
280
     0
102
RTVSPost2010PropOp49
 70
     0
102
RTVSPost2010Prop50
 90
       50
102
RTVSPost2010PropOp50
 70
     0
102
RTVSPost2010Prop51ColorIndex
 90
      256
102
RTVSPost2010Prop51ColorRGB
 90
-16777216
102
RTVSPost2010PropOp51
 70
     0
102
RTVSPost2010Prop52
140
1.0
102
RTVSPost2010PropOp52
 70
     0
102
RTVSPost2010Prop53
 90
        2
102
RTVSPost2010PropOp53
 70
     0
102
RTVSPost2010Prop54
  1
strokes_ogs.tif
102
RTVSPost2010PropOp54
 70
     0
102
RTVSPost2010Prop55
280
     0
102
RTVSPost2010PropOp55
 70
     0
102
RTVSPost2010Prop56
140
1.0
102
RTVSPost2010PropOp56
 70
     0
102
RTVSPost2010Prop57
140
1.0
102
RTVSPost2010PropOp57
 70
     0
  0
XRECORD
  5
DF
102
{ACAD_REACTORS
330
DE
102
}
330
DE
100
AcDbXrecord
280
     1
102
RTVSPropertyOp0
 70
     1
102
RTVSPropertyOp1
 70
     1
102
RTVSPropertyOp2
 70
     1
102
RTVSPropertyOp3
 70
     1
102
RTVSPropertyOp4
 70
     1
102
RTVSPropertyOp5
 70
     1
102
RTVSPropertyOp6
 70
     1
102
RTVSPropertyOp7
 70
     1
102
RTVSPropertyOp8
 70
     1
102
RTVSPropertyOp9
 70
     1
102
RTVSPropertyOp10
 70
     1
102
RTVSPropertyOp11
 70
     1
102
RTVSPropertyOp12
 70
     1
102
RTVSPropertyOp13
 70
     1
102
RTVSPropertyOp14
 70
     1
102
RTVSPropertyOp15
 70
     1
102
RTVSPropertyOp16
 70
     1
102
RTVSPropertyOp17
 70
     1
102
RTVSPropertyOp18
 70
     1
102
RTVSPropertyOp19
 70
     1
102
RTVSPropertyOp20
 70
     1
102
RTVSPropertyOp21
 70
     1
102
RTVSPropertyOp22
 70
     1
102
RTVSPropertyOp23
 70
     1
102
RTVSPropertyOp24
 70
     1
102
RTVSPropertyOp25
 70
     1
102
RTVSPropertyOp26
 70
     1
102
RTVSPropertyOp27
 70
     1
102
RTVSPropertyOp28
 70
     1
102
RTVSPropertyOp29
 70
     1
102
RTVSPropertyOp30
 70
     1
102
RTVSPropertyOp31
 70
     1
102
RTVSPropertyOp32
 70
     1
102
RTVSPropertyOp33
 70
     1
102
RTVSPropertyOp34
 70
     1
102
RTVSPropertyOp35
 70
     1
102
RTVSPropertyOp36
 70
     1
102
RTVSPropertyOp37
 70
     1
102
RTVSPropertyOp38
 70
     1
102
RTVSPropertyOp39
 70
     1
102
RTVSPropertyOp40
 70
     1
102
RTVSPropertyOp41
 70
     1
102
RTVSPropertyOp42
 70
     1
102
RTVSPropertyOp43
 70
     1
102
RTVSPropertyOp44
 70
     1
102
RTVSPropertyOp45
 70
     1
102
RTVSPropertyOp46
 70
     1
102
RTVSPropertyOp47
 70
     1
102
RTVSPropertyOp48
 70
     1
102
RTVSPropertyOp49
 70
     1
102
RTVSPropertyOp50
 70
     1
102
RTVSPropertyOp51
 70
     0
102
RTVSPropertyOp52
 70
     0
102
RTVSPropertyOp53
 70
     1
102
RTVSPropertyOp54
 70
     1
102
RTVSPropertyOp55
 70
     1
102
RTVSPropertyOp56
 70
     1
102
RTVSPropertyOp57
 70
     1
102
RTVSPost2010Prop28
280
     0
102
RTVSPost2010PropOp28
 70
     1
102
RTVSPost2010Prop29
280
     1
102
RTVSPost2010PropOp29
 70
     1
102
RTVSPost2010Prop30
280
     1
102
RTVSPost2010PropOp30
 70
     1
102
RTVSPost2010Prop31
280
     0
102
RTVSPost2010PropOp31
 70
     1
102
RTVSPost2010Prop32
280
     0
102
RTVSPost2010PropOp32
 70
     1
102
RTVSPost2010Prop33
280
     0
102
RTVSPost2010PropOp33
 70
     1
102
RTVSPost2010Prop34
280
     0
102
RTVSPost2010PropOp34
 70
     1
102
RTVSPost2010Prop35
280
     0
102
RTVSPost2010PropOp35
 70
     1
102
RTVSPost2010Prop36
280
     0
102
RTVSPost2010PropOp36
 70
     1
102
RTVSPost2010Prop37
 90
       50
102
RTVSPost2010PropOp37
 70
     1
102
RTVSPost2010Prop38
140
0.0
102
RTVSPost2010PropOp38
 70
     1
102
RTVSPost2010Prop39
140
1.0
102
RTVSPost2010PropOp39
 70
     1
102
RTVSPost2010Prop40
 90
        0
102
RTVSPost2010PropOp40
 70
     1
102
RTVSPost2010Prop41ColorIndex
 90
       18
102
RTVSPost2010Prop41ColorRGB
 90
        0
102
RTVSPost2010PropOp41
 70
     1
102
RTVSPost2010Prop42
 90
       50
102
RTVSPost2010PropOp42
 70
     1
102
RTVSPost2010Prop43
 90
        3
102
RTVSPost2010PropOp43
 70
     1
102
RTVSPost2010Prop44ColorIndex
 90
        5
102
RTVSPost2010Prop44ColorRGB
 90
      255
102
RTVSPost2010PropOp44
 70
     1
102
RTVSPost2010Prop45
280
     0
102
RTVSPost2010PropOp45
 70
     1
102
RTVSPost2010Prop46
 90
       50
102
RTVSPost2010PropOp46
 70
     1
102
RTVSPost2010Prop47
 90
       50
102
RTVSPost2010PropOp47
 70
     1
102
RTVSPost2010Prop48
 90
       50
102
RTVSPost2010PropOp48
 70
     1
102
RTVSPost2010Prop49
280
     0
102
RTVSPost2010PropOp49
 70
     1
102
RTVSPost2010Prop50
 90
       50
102
RTVSPost2010PropOp50
 70
     1
102
RTVSPost2010Prop51ColorIndex
 90
      256
102
RTVSPost2010Prop51ColorRGB
 90
-16777216
102
RTVSPost2010PropOp51
 70
     0
102
RTVSPost2010Prop52
140
1.0
102
RTVSPost2010PropOp52
 70
     0
102
RTVSPost2010Prop53
 90
        2
102
RTVSPost2010PropOp53
 70
     1
102
RTVSPost2010Prop54
  1
strokes_ogs.tif
102
RTVSPost2010PropOp54
 70
     1
102
RTVSPost2010Prop55
280
     0
102
RTVSPost2010PropOp55
 70
     1
102
RTVSPost2010Prop56
140
1.0
102
RTVSPost2010PropOp56
 70
     1
102
RTVSPost2010Prop57
140
1.0
102
RTVSPost2010PropOp57
 70
     1
  0
XRECORD
  5
C3
102
{ACAD_REACTORS
330
C2
102
}
330
C2
100
AcDbXrecord
280
     1
102
RTVSPropertyOp0
 70
     1
102
RTVSPropertyOp1
 70
     1
102
RTVSPropertyOp2
 70
     1
102
RTVSPropertyOp3
 70
     1
102
RTVSPropertyOp4
 70
     1
102
RTVSPropertyOp5
 70
     1
102
RTVSPropertyOp6
 70
     1
102
RTVSPropertyOp7
 70
     1
102
RTVSPropertyOp8
 70
     1
102
RTVSPropertyOp9
 70
     1
102
RTVSPropertyOp10
 70
     1
102
RTVSPropertyOp11
 70
     1
102
RTVSPropertyOp12
 70
     1
102
RTVSPropertyOp13
 70
     1
102
RTVSPropertyOp14
 70
     1
102
RTVSPropertyOp15
 70
     1
102
RTVSPropertyOp16
 70
     1
102
RTVSPropertyOp17
 70
     1
102
RTVSPropertyOp18
 70
     1
102
RTVSPropertyOp19
 70
     1
102
RTVSPropertyOp20
 70
     1
102
RTVSPropertyOp21
 70
     1
102
RTVSPropertyOp22
 70
     1
102
RTVSPropertyOp23
 70
     1
102
RTVSPropertyOp24
 70
     1
102
RTVSPropertyOp25
 70
     1
102
RTVSPropertyOp26
 70
     1
102
RTVSPropertyOp27
 70
     1
102
RTVSPropertyOp28
 70
     1
102
RTVSPropertyOp29
 70
     1
102
RTVSPropertyOp30
 70
     1
102
RTVSPropertyOp31
 70
     1
102
RTVSPropertyOp32
 70
     1
102
RTVSPropertyOp33
 70
     1
102
RTVSPropertyOp34
 70
     1
102
RTVSPropertyOp35
 70
     1
102
RTVSPropertyOp36
 70
     1
102
RTVSPropertyOp37
 70
     1
102
RTVSPropertyOp38
 70
     1
102
RTVSPropertyOp39
 70
     1
102
RTVSPropertyOp40
 70
     1
102
RTVSPropertyOp41
 70
     1
102
RTVSPropertyOp42
 70
     1
102
RTVSPropertyOp43
 70
     1
102
RTVSPropertyOp44
 70
     1
102
RTVSPropertyOp45
 70
     1
102
RTVSPropertyOp46
 70
     1
102
RTVSPropertyOp47
 70
     1
102
RTVSPropertyOp48
 70
     1
102
RTVSPropertyOp49
 70
     1
102
RTVSPropertyOp50
 70
     1
102
RTVSPropertyOp51
 70
     0
102
RTVSPropertyOp52
 70
     0
102
RTVSPropertyOp53
 70
     1
102
RTVSPropertyOp54
 70
     1
102
RTVSPropertyOp55
 70
     1
102
RTVSPropertyOp56
 70
     1
102
RTVSPropertyOp57
 70
     1
102
RTVSPost2010Prop28
280
     0
102
RTVSPost2010PropOp28
 70
     1
102
RTVSPost2010Prop29
280
     1
102
RTVSPost2010PropOp29
 70
     1
102
RTVSPost2010Prop30
280
     1
102
RTVSPost2010PropOp30
 70
     1
102
RTVSPost2010Prop31
280
     0
102
RTVSPost2010PropOp31
 70
     1
102
RTVSPost2010Prop32
280
     0
102
RTVSPost2010PropOp32
 70
     1
102
RTVSPost2010Prop33
280
     0
102
RTVSPost2010PropOp33
 70
     1
102
RTVSPost2010Prop34
280
     0
102
RTVSPost2010PropOp34
 70
     1
102
RTVSPost2010Prop35
280
     0
102
RTVSPost2010PropOp35
 70
     1
102
RTVSPost2010Prop36
280
     0
102
RTVSPost2010PropOp36
 70
     1
102
RTVSPost2010Prop37
 90
       50
102
RTVSPost2010PropOp37
 70
     1
102
RTVSPost2010Prop38
140
0.0
102
RTVSPost2010PropOp38
 70
     1
102
RTVSPost2010Prop39
140
1.0
102
RTVSPost2010PropOp39
 70
     1
102
RTVSPost2010Prop40
 90
        0
102
RTVSPost2010PropOp40
 70
     1
102
RTVSPost2010Prop41ColorIndex
 90
       18
102
RTVSPost2010Prop41ColorRGB
 90
        0
102
RTVSPost2010PropOp41
 70
     1
102
RTVSPost2010Prop42
 90
       50
102
RTVSPost2010PropOp42
 70
     1
102
RTVSPost2010Prop43
 90
        3
102
RTVSPost2010PropOp43
 70
     1
102
RTVSPost2010Prop44ColorIndex
 90
        5
102
RTVSPost2010Prop44ColorRGB
 90
      255
102
RTVSPost2010PropOp44
 70
     1
102
RTVSPost2010Prop45
280
     0
102
RTVSPost2010PropOp45
 70
     1
102
RTVSPost2010Prop46
 90
       50
102
RTVSPost2010PropOp46
 70
     1
102
RTVSPost2010Prop47
 90
       50
102
RTVSPost2010PropOp47
 70
     1
102
RTVSPost2010Prop48
 90
       50
102
RTVSPost2010PropOp48
 70
     1
102
RTVSPost2010Prop49
280
     0
102
RTVSPost2010PropOp49
 70
     1
102
RTVSPost2010Prop50
 90
       50
102
RTVSPost2010PropOp50
 70
     1
102
RTVSPost2010Prop51ColorIndex
 90
      256
102
RTVSPost2010Prop51ColorRGB
 90
-16777216
102
RTVSPost2010PropOp51
 70
     0
102
RTVSPost2010Prop52
140
1.0
102
RTVSPost2010PropOp52
 70
     0
102
RTVSPost2010Prop53
 90
        2
102
RTVSPost2010PropOp53
 70
     1
102
RTVSPost2010Prop54
  1
strokes_ogs.tif
102
RTVSPost2010PropOp54
 70
     1
102
RTVSPost2010Prop55
280
     0
102
RTVSPost2010PropOp55
 70
     1
102
RTVSPost2010Prop56
140
1.0
102
RTVSPost2010PropOp56
 70
     1
102
RTVSPost2010Prop57
140
1.0
102
RTVSPost2010PropOp57
 70
     1
  0
XRECORD
  5
C5
102
{ACAD_REACTORS
330
C4
102
}
330
C4
100
AcDbXrecord
280
     1
102
RTVSPropertyOp0
 70
     1
102
RTVSPropertyOp1
 70
     1
102
RTVSPropertyOp2
 70
     1
102
RTVSPropertyOp3
 70
     1
102
RTVSPropertyOp4
 70
     1
102
RTVSPropertyOp5
 70
     1
102
RTVSPropertyOp6
 70
     1
102
RTVSPropertyOp7
 70
     1
102
RTVSPropertyOp8
 70
     1
102
RTVSPropertyOp9
 70
     1
102
RTVSPropertyOp10
 70
     1
102
RTVSPropertyOp11
 70
     1
102
RTVSPropertyOp12
 70
     1
102
RTVSPropertyOp13
 70
     1
102
RTVSPropertyOp14
 70
     1
102
RTVSPropertyOp15
 70
     1
102
RTVSPropertyOp16
 70
     1
102
RTVSPropertyOp17
 70
     1
102
RTVSPropertyOp18
 70
     1
102
RTVSPropertyOp19
 70
     1
102
RTVSPropertyOp20
 70
     1
102
RTVSPropertyOp21
 70
     1
102
RTVSPropertyOp22
 70
     1
102
RTVSPropertyOp23
 70
     1
102
RTVSPropertyOp24
 70
     1
102
RTVSPropertyOp25
 70
     1
102
RTVSPropertyOp26
 70
     1
102
RTVSPropertyOp27
 70
     1
102
RTVSPropertyOp28
 70
     1
102
RTVSPropertyOp29
 70
     1
102
RTVSPropertyOp30
 70
     1
102
RTVSPropertyOp31
 70
     1
102
RTVSPropertyOp32
 70
     1
102
RTVSPropertyOp33
 70
     1
102
RTVSPropertyOp34
 70
     1
102
RTVSPropertyOp35
 70
     1
102
RTVSPropertyOp36
 70
     1
102
RTVSPropertyOp37
 70
     1
102
RTVSPropertyOp38
 70
     1
102
RTVSPropertyOp39
 70
     1
102
RTVSPropertyOp40
 70
     1
102
RTVSPropertyOp41
 70
     1
102
RTVSPropertyOp42
 70
     1
102
RTVSPropertyOp43
 70
     1
102
RTVSPropertyOp44
 70
     1
102
RTVSPropertyOp45
 70
     1
102
RTVSPropertyOp46
 70
     1
102
RTVSPropertyOp47
 70
     1
102
RTVSPropertyOp48
 70
     1
102
RTVSPropertyOp49
 70
     1
102
RTVSPropertyOp50
 70
     1
102
RTVSPropertyOp51
 70
     0
102
RTVSPropertyOp52
 70
     0
102
RTVSPropertyOp53
 70
     1
102
RTVSPropertyOp54
 70
     1
102
RTVSPropertyOp55
 70
     1
102
RTVSPropertyOp56
 70
     1
102
RTVSPropertyOp57
 70
     1
102
RTVSPost2010Prop28
280
     0
102
RTVSPost2010PropOp28
 70
     1
102
RTVSPost2010Prop29
280
     1
102
RTVSPost2010PropOp29
 70
     1
102
RTVSPost2010Prop30
280
     1
102
RTVSPost2010PropOp30
 70
     1
102
RTVSPost2010Prop31
280
     0
102
RTVSPost2010PropOp31
 70
     1
102
RTVSPost2010Prop32
280
     0
102
RTVSPost2010PropOp32
 70
     1
102
RTVSPost2010Prop33
280
     0
102
RTVSPost2010PropOp33
 70
     1
102
RTVSPost2010Prop34
280
     0
102
RTVSPost2010PropOp34
 70
     1
102
RTVSPost2010Prop35
280
     0
102
RTVSPost2010PropOp35
 70
     1
102
RTVSPost2010Prop36
280
     0
102
RTVSPost2010PropOp36
 70
     1
102
RTVSPost2010Prop37
 90
       50
102
RTVSPost2010PropOp37
 70
     1
102
RTVSPost2010Prop38
140
0.0
102
RTVSPost2010PropOp38
 70
     1
102
RTVSPost2010Prop39
140
1.0
102
RTVSPost2010PropOp39
 70
     1
102
RTVSPost2010Prop40
 90
        0
102
RTVSPost2010PropOp40
 70
     1
102
RTVSPost2010Prop41ColorIndex
 90
       18
102
RTVSPost2010Prop41ColorRGB
 90
        0
102
RTVSPost2010PropOp41
 70
     1
102
RTVSPost2010Prop42
 90
       50
102
RTVSPost2010PropOp42
 70
     1
102
RTVSPost2010Prop43
 90
        3
102
RTVSPost2010PropOp43
 70
     1
102
RTVSPost2010Prop44ColorIndex
 90
        5
102
RTVSPost2010Prop44ColorRGB
 90
      255
102
RTVSPost2010PropOp44
 70
     1
102
RTVSPost2010Prop45
280
     0
102
RTVSPost2010PropOp45
 70
     1
102
RTVSPost2010Prop46
 90
       50
102
RTVSPost2010PropOp46
 70
     1
102
RTVSPost2010Prop47
 90
       50
102
RTVSPost2010PropOp47
 70
     1
102
RTVSPost2010Prop48
 90
       50
102
RTVSPost2010PropOp48
 70
     1
102
RTVSPost2010Prop49
280
     0
102
RTVSPost2010PropOp49
 70
     1
102
RTVSPost2010Prop50
 90
       50
102
RTVSPost2010PropOp50
 70
     1
102
RTVSPost2010Prop51ColorIndex
 90
      256
102
RTVSPost2010Prop51ColorRGB
 90
-16777216
102
RTVSPost2010PropOp51
 70
     0
102
RTVSPost2010Prop52
140
1.0
102
RTVSPost2010PropOp52
 70
     0
102
RTVSPost2010Prop53
 90
        2
102
RTVSPost2010PropOp53
 70
     1
102
RTVSPost2010Prop54
  1
strokes_ogs.tif
102
RTVSPost2010PropOp54
 70
     1
102
RTVSPost2010Prop55
280
     0
102
RTVSPost2010PropOp55
 70
     1
102
RTVSPost2010Prop56
140
1.0
102
RTVSPost2010PropOp56
 70
     1
102
RTVSPost2010Prop57
140
1.0
102
RTVSPost2010PropOp57
 70
     1
  0
XRECORD
  5
C7
102
{ACAD_REACTORS
330
C6
102
}
330
C6
100
AcDbXrecord
280
     1
102
RTVSPropertyOp0
 70
     1
102
RTVSPropertyOp1
 70
     1
102
RTVSPropertyOp2
 70
     1
102
RTVSPropertyOp3
 70
     1
102
RTVSPropertyOp4
 70
     1
102
RTVSPropertyOp5
 70
     1
102
RTVSPropertyOp6
 70
     1
102
RTVSPropertyOp7
 70
     1
102
RTVSPropertyOp8
 70
     1
102
RTVSPropertyOp9
 70
     1
102
RTVSPropertyOp10
 70
     1
102
RTVSPropertyOp11
 70
     1
102
RTVSPropertyOp12
 70
     1
102
RTVSPropertyOp13
 70
     1
102
RTVSPropertyOp14
 70
     1
102
RTVSPropertyOp15
 70
     1
102
RTVSPropertyOp16
 70
     1
102
RTVSPropertyOp17
 70
     1
102
RTVSPropertyOp18
 70
     1
102
RTVSPropertyOp19
 70
     1
102
RTVSPropertyOp20
 70
     1
102
RTVSPropertyOp21
 70
     1
102
RTVSPropertyOp22
 70
     1
102
RTVSPropertyOp23
 70
     1
102
RTVSPropertyOp24
 70
     1
102
RTVSPropertyOp25
 70
     1
102
RTVSPropertyOp26
 70
     1
102
RTVSPropertyOp27
 70
     1
102
RTVSPropertyOp28
 70
     1
102
RTVSPropertyOp29
 70
     1
102
RTVSPropertyOp30
 70
     1
102
RTVSPropertyOp31
 70
     1
102
RTVSPropertyOp32
 70
     1
102
RTVSPropertyOp33
 70
     1
102
RTVSPropertyOp34
 70
     1
102
RTVSPropertyOp35
 70
     1
102
RTVSPropertyOp36
 70
     1
102
RTVSPropertyOp37
 70
     1
102
RTVSPropertyOp38
 70
     1
102
RTVSPropertyOp39
 70
     1
102
RTVSPropertyOp40
 70
     1
102
RTVSPropertyOp41
 70
     1
102
RTVSPropertyOp42
 70
     1
102
RTVSPropertyOp43
 70
     1
102
RTVSPropertyOp44
 70
     1
102
RTVSPropertyOp45
 70
     1
102
RTVSPropertyOp46
 70
     1
102
RTVSPropertyOp47
 70
     1
102
RTVSPropertyOp48
 70
     1
102
RTVSPropertyOp49
 70
     1
102
RTVSPropertyOp50
 70
     1
102
RTVSPropertyOp51
 70
     0
102
RTVSPropertyOp52
 70
     0
102
RTVSPropertyOp53
 70
     1
102
RTVSPropertyOp54
 70
     1
102
RTVSPropertyOp55
 70
     1
102
RTVSPropertyOp56
 70
     1
102
RTVSPropertyOp57
 70
     1
102
RTVSPost2010Prop28
280
     0
102
RTVSPost2010PropOp28
 70
     1
102
RTVSPost2010Prop29
280
     1
102
RTVSPost2010PropOp29
 70
     1
102
RTVSPost2010Prop30
280
     1
102
RTVSPost2010PropOp30
 70
     1
102
RTVSPost2010Prop31
280
     0
102
RTVSPost2010PropOp31
 70
     1
102
RTVSPost2010Prop32
280
     0
102
RTVSPost2010PropOp32
 70
     1
102
RTVSPost2010Prop33
280
     0
102
RTVSPost2010PropOp33
 70
     1
102
RTVSPost2010Prop34
280
     0
102
RTVSPost2010PropOp34
 70
     1
102
RTVSPost2010Prop35
280
     0
102
RTVSPost2010PropOp35
 70
     1
102
RTVSPost2010Prop36
280
     0
102
RTVSPost2010PropOp36
 70
     1
102
RTVSPost2010Prop37
 90
       50
102
RTVSPost2010PropOp37
 70
     1
102
RTVSPost2010Prop38
140
0.0
102
RTVSPost2010PropOp38
 70
     1
102
RTVSPost2010Prop39
140
1.0
102
RTVSPost2010PropOp39
 70
     1
102
RTVSPost2010Prop40
 90
        0
102
RTVSPost2010PropOp40
 70
     1
102
RTVSPost2010Prop41ColorIndex
 90
       18
102
RTVSPost2010Prop41ColorRGB
 90
        0
102
RTVSPost2010PropOp41
 70
     1
102
RTVSPost2010Prop42
 90
       50
102
RTVSPost2010PropOp42
 70
     1
102
RTVSPost2010Prop43
 90
        3
102
RTVSPost2010PropOp43
 70
     1
102
RTVSPost2010Prop44ColorIndex
 90
        5
102
RTVSPost2010Prop44ColorRGB
 90
      255
102
RTVSPost2010PropOp44
 70
     1
102
RTVSPost2010Prop45
280
     0
102
RTVSPost2010PropOp45
 70
     1
102
RTVSPost2010Prop46
 90
       50
102
RTVSPost2010PropOp46
 70
     1
102
RTVSPost2010Prop47
 90
       50
102
RTVSPost2010PropOp47
 70
     1
102
RTVSPost2010Prop48
 90
       50
102
RTVSPost2010PropOp48
 70
     1
102
RTVSPost2010Prop49
280
     0
102
RTVSPost2010PropOp49
 70
     1
102
RTVSPost2010Prop50
 90
       50
102
RTVSPost2010PropOp50
 70
     1
102
RTVSPost2010Prop51ColorIndex
 90
      256
102
RTVSPost2010Prop51ColorRGB
 90
-16777216
102
RTVSPost2010PropOp51
 70
     0
102
RTVSPost2010Prop52
140
1.0
102
RTVSPost2010PropOp52
 70
     0
102
RTVSPost2010Prop53
 90
        2
102
RTVSPost2010PropOp53
 70
     1
102
RTVSPost2010Prop54
  1
strokes_ogs.tif
102
RTVSPost2010PropOp54
 70
     1
102
RTVSPost2010Prop55
280
     0
102
RTVSPost2010PropOp55
 70
     1
102
RTVSPost2010Prop56
140
1.0
102
RTVSPost2010PropOp56
 70
     1
102
RTVSPost2010Prop57
140
1.0
102
RTVSPost2010PropOp57
 70
     1
  0
XRECORD
  5
C9
102
{ACAD_REACTORS
330
C8
102
}
330
C8
100
AcDbXrecord
280
     1
102
RTVSPropertyOp0
 70
     1
102
RTVSPropertyOp1
 70
     1
102
RTVSPropertyOp2
 70
     1
102
RTVSPropertyOp3
 70
     1
102
RTVSPropertyOp4
 70
     1
102
RTVSPropertyOp5
 70
     1
102
RTVSPropertyOp6
 70
     1
102
RTVSPropertyOp7
 70
     1
102
RTVSPropertyOp8
 70
     1
102
RTVSPropertyOp9
 70
     1
102
RTVSPropertyOp10
 70
     1
102
RTVSPropertyOp11
 70
     1
102
RTVSPropertyOp12
 70
     1
102
RTVSPropertyOp13
 70
     1
102
RTVSPropertyOp14
 70
     1
102
RTVSPropertyOp15
 70
     1
102
RTVSPropertyOp16
 70
     1
102
RTVSPropertyOp17
 70
     1
102
RTVSPropertyOp18
 70
     1
102
RTVSPropertyOp19
 70
     1
102
RTVSPropertyOp20
 70
     1
102
RTVSPropertyOp21
 70
     1
102
RTVSPropertyOp22
 70
     1
102
RTVSPropertyOp23
 70
     1
102
RTVSPropertyOp24
 70
     1
102
RTVSPropertyOp25
 70
     1
102
RTVSPropertyOp26
 70
     1
102
RTVSPropertyOp27
 70
     1
102
RTVSPropertyOp28
 70
     1
102
RTVSPropertyOp29
 70
     1
102
RTVSPropertyOp30
 70
     1
102
RTVSPropertyOp31
 70
     1
102
RTVSPropertyOp32
 70
     1
102
RTVSPropertyOp33
 70
     1
102
RTVSPropertyOp34
 70
     1
102
RTVSPropertyOp35
 70
     1
102
RTVSPropertyOp36
 70
     1
102
RTVSPropertyOp37
 70
     1
102
RTVSPropertyOp38
 70
     1
102
RTVSPropertyOp39
 70
     1
102
RTVSPropertyOp40
 70
     1
102
RTVSPropertyOp41
 70
     1
102
RTVSPropertyOp42
 70
     1
102
RTVSPropertyOp43
 70
     1
102
RTVSPropertyOp44
 70
     1
102
RTVSPropertyOp45
 70
     1
102
RTVSPropertyOp46
 70
     1
102
RTVSPropertyOp47
 70
     1
102
RTVSPropertyOp48
 70
     1
102
RTVSPropertyOp49
 70
     1
102
RTVSPropertyOp50
 70
     1
102
RTVSPropertyOp51
 70
     0
102
RTVSPropertyOp52
 70
     0
102
RTVSPropertyOp53
 70
     1
102
RTVSPropertyOp54
 70
     1
102
RTVSPropertyOp55
 70
     1
102
RTVSPropertyOp56
 70
     1
102
RTVSPropertyOp57
 70
     1
102
RTVSPost2010Prop28
280
     0
102
RTVSPost2010PropOp28
 70
     1
102
RTVSPost2010Prop29
280
     1
102
RTVSPost2010PropOp29
 70
     1
102
RTVSPost2010Prop30
280
     1
102
RTVSPost2010PropOp30
 70
     1
102
RTVSPost2010Prop31
280
     0
102
RTVSPost2010PropOp31
 70
     1
102
RTVSPost2010Prop32
280
     0
102
RTVSPost2010PropOp32
 70
     1
102
RTVSPost2010Prop33
280
     0
102
RTVSPost2010PropOp33
 70
     1
102
RTVSPost2010Prop34
280
     0
102
RTVSPost2010PropOp34
 70
     1
102
RTVSPost2010Prop35
280
     0
102
RTVSPost2010PropOp35
 70
     1
102
RTVSPost2010Prop36
280
     0
102
RTVSPost2010PropOp36
 70
     1
102
RTVSPost2010Prop37
 90
       50
102
RTVSPost2010PropOp37
 70
     1
102
RTVSPost2010Prop38
140
0.0
102
RTVSPost2010PropOp38
 70
     1
102
RTVSPost2010Prop39
140
1.0
102
RTVSPost2010PropOp39
 70
     1
102
RTVSPost2010Prop40
 90
        0
102
RTVSPost2010PropOp40
 70
     1
102
RTVSPost2010Prop41ColorIndex
 90
       18
102
RTVSPost2010Prop41ColorRGB
 90
        0
102
RTVSPost2010PropOp41
 70
     1
102
RTVSPost2010Prop42
 90
       50
102
RTVSPost2010PropOp42
 70
     1
102
RTVSPost2010Prop43
 90
        3
102
RTVSPost2010PropOp43
 70
     1
102
RTVSPost2010Prop44ColorIndex
 90
        5
102
RTVSPost2010Prop44ColorRGB
 90
      255
102
RTVSPost2010PropOp44
 70
     1
102
RTVSPost2010Prop45
280
     0
102
RTVSPost2010PropOp45
 70
     1
102
RTVSPost2010Prop46
 90
       50
102
RTVSPost2010PropOp46
 70
     1
102
RTVSPost2010Prop47
 90
       50
102
RTVSPost2010PropOp47
 70
     1
102
RTVSPost2010Prop48
 90
       50
102
RTVSPost2010PropOp48
 70
     1
102
RTVSPost2010Prop49
280
     0
102
RTVSPost2010PropOp49
 70
     1
102
RTVSPost2010Prop50
 90
       50
102
RTVSPost2010PropOp50
 70
     1
102
RTVSPost2010Prop51ColorIndex
 90
      256
102
RTVSPost2010Prop51ColorRGB
 90
-16777216
102
RTVSPost2010PropOp51
 70
     0
102
RTVSPost2010Prop52
140
1.0
102
RTVSPost2010PropOp52
 70
     0
102
RTVSPost2010Prop53
 90
        2
102
RTVSPost2010PropOp53
 70
     1
102
RTVSPost2010Prop54
  1
strokes_ogs.tif
102
RTVSPost2010PropOp54
 70
     1
102
RTVSPost2010Prop55
280
     0
102
RTVSPost2010PropOp55
 70
     1
102
RTVSPost2010Prop56
140
1.0
102
RTVSPost2010PropOp56
 70
     1
102
RTVSPost2010Prop57
140
1.0
102
RTVSPost2010PropOp57
 70
     1
  0
XRECORD
  5
CF
102
{ACAD_REACTORS
330
CE
102
}
330
CE
100
AcDbXrecord
280
     1
102
RTVSPropertyOp0
 70
     1
102
RTVSPropertyOp1
 70
     1
102
RTVSPropertyOp2
 70
     1
102
RTVSPropertyOp3
 70
     1
102
RTVSPropertyOp4
 70
     1
102
RTVSPropertyOp5
 70
     1
102
RTVSPropertyOp6
 70
     1
102
RTVSPropertyOp7
 70
     1
102
RTVSPropertyOp8
 70
     1
102
RTVSPropertyOp9
 70
     1
102
RTVSPropertyOp10
 70
     1
102
RTVSPropertyOp11
 70
     1
102
RTVSPropertyOp12
 70
     1
102
RTVSPropertyOp13
 70
     1
102
RTVSPropertyOp14
 70
     1
102
RTVSPropertyOp15
 70
     1
102
RTVSPropertyOp16
 70
     1
102
RTVSPropertyOp17
 70
     1
102
RTVSPropertyOp18
 70
     1
102
RTVSPropertyOp19
 70
     1
102
RTVSPropertyOp20
 70
     1
102
RTVSPropertyOp21
 70
     1
102
RTVSPropertyOp22
 70
     1
102
RTVSPropertyOp23
 70
     1
102
RTVSPropertyOp24
 70
     1
102
RTVSPropertyOp25
 70
     1
102
RTVSPropertyOp26
 70
     1
102
RTVSPropertyOp27
 70
     1
102
RTVSPropertyOp28
 70
     1
102
RTVSPropertyOp29
 70
     1
102
RTVSPropertyOp30
 70
     1
102
RTVSPropertyOp31
 70
     1
102
RTVSPropertyOp32
 70
     1
102
RTVSPropertyOp33
 70
     1
102
RTVSPropertyOp34
 70
     1
102
RTVSPropertyOp35
 70
     1
102
RTVSPropertyOp36
 70
     1
102
RTVSPropertyOp37
 70
     1
102
RTVSPropertyOp38
 70
     1
102
RTVSPropertyOp39
 70
     1
102
RTVSPropertyOp40
 70
     1
102
RTVSPropertyOp41
 70
     1
102
RTVSPropertyOp42
 70
     1
102
RTVSPropertyOp43
 70
     1
102
RTVSPropertyOp44
 70
     1
102
RTVSPropertyOp45
 70
     1
102
RTVSPropertyOp46
 70
     1
102
RTVSPropertyOp47
 70
     1
102
RTVSPropertyOp48
 70
     1
102
RTVSPropertyOp49
 70
     1
102
RTVSPropertyOp50
 70
     1
102
RTVSPropertyOp51
 70
     0
102
RTVSPropertyOp52
 70
     0
102
RTVSPropertyOp53
 70
     1
102
RTVSPropertyOp54
 70
     1
102
RTVSPropertyOp55
 70
     1
102
RTVSPropertyOp56
 70
     1
102
RTVSPropertyOp57
 70
     1
102
RTVSPost2010Prop28
280
     0
102
RTVSPost2010PropOp28
 70
     1
102
RTVSPost2010Prop29
280
     1
102
RTVSPost2010PropOp29
 70
     1
102
RTVSPost2010Prop30
280
     1
102
RTVSPost2010PropOp30
 70
     1
102
RTVSPost2010Prop31
280
     0
102
RTVSPost2010PropOp31
 70
     1
102
RTVSPost2010Prop32
280
     0
102
RTVSPost2010PropOp32
 70
     1
102
RTVSPost2010Prop33
280
     0
102
RTVSPost2010PropOp33
 70
     1
102
RTVSPost2010Prop34
280
     0
102
RTVSPost2010PropOp34
 70
     1
102
RTVSPost2010Prop35
280
     0
102
RTVSPost2010PropOp35
 70
     1
102
RTVSPost2010Prop36
280
     0
102
RTVSPost2010PropOp36
 70
     1
102
RTVSPost2010Prop37
 90
       50
102
RTVSPost2010PropOp37
 70
     1
102
RTVSPost2010Prop38
140
0.0
102
RTVSPost2010PropOp38
 70
     1
102
RTVSPost2010Prop39
140
1.0
102
RTVSPost2010PropOp39
 70
     1
102
RTVSPost2010Prop40
 90
        0
102
RTVSPost2010PropOp40
 70
     1
102
RTVSPost2010Prop41ColorIndex
 90
       18
102
RTVSPost2010Prop41ColorRGB
 90
        0
102
RTVSPost2010PropOp41
 70
     1
102
RTVSPost2010Prop42
 90
       50
102
RTVSPost2010PropOp42
 70
     1
102
RTVSPost2010Prop43
 90
        3
102
RTVSPost2010PropOp43
 70
     1
102
RTVSPost2010Prop44ColorIndex
 90
        5
102
RTVSPost2010Prop44ColorRGB
 90
      255
102
RTVSPost2010PropOp44
 70
     1
102
RTVSPost2010Prop45
280
     0
102
RTVSPost2010PropOp45
 70
     1
102
RTVSPost2010Prop46
 90
       50
102
RTVSPost2010PropOp46
 70
     1
102
RTVSPost2010Prop47
 90
       50
102
RTVSPost2010PropOp47
 70
     1
102
RTVSPost2010Prop48
 90
       50
102
RTVSPost2010PropOp48
 70
     1
102
RTVSPost2010Prop49
280
     0
102
RTVSPost2010PropOp49
 70
     1
102
RTVSPost2010Prop50
 90
       50
102
RTVSPost2010PropOp50
 70
     1
102
RTVSPost2010Prop51ColorIndex
 90
      256
102
RTVSPost2010Prop51ColorRGB
 90
-16777216
102
RTVSPost2010PropOp51
 70
     0
102
RTVSPost2010Prop52
140
1.0
102
RTVSPost2010PropOp52
 70
     0
102
RTVSPost2010Prop53
 90
        2
102
RTVSPost2010PropOp53
 70
     1
102
RTVSPost2010Prop54
  1
strokes_ogs.tif
102
RTVSPost2010PropOp54
 70
     1
102
RTVSPost2010Prop55
280
     0
102
RTVSPost2010PropOp55
 70
     1
102
RTVSPost2010Prop56
140
1.0
102
RTVSPost2010PropOp56
 70
     1
102
RTVSPost2010Prop57
140
1.0
102
RTVSPost2010PropOp57
 70
     1
  0
XRECORD
  5
E3
102
{ACAD_REACTORS
330
E2
102
}
330
E2
100
AcDbXrecord
280
     1
102
RTVSPropertyOp0
 70
     0
102
RTVSPropertyOp1
 70
     0
102
RTVSPropertyOp2
 70
     0
102
RTVSPropertyOp3
 70
     0
102
RTVSPropertyOp4
 70
     0
102
RTVSPropertyOp5
 70
     0
102
RTVSPropertyOp6
 70
     0
102
RTVSPropertyOp7
 70
     0
102
RTVSPropertyOp8
 70
     0
102
RTVSPropertyOp9
 70
     0
102
RTVSPropertyOp10
 70
     0
102
RTVSPropertyOp11
 70
     0
102
RTVSPropertyOp12
 70
     0
102
RTVSPropertyOp13
 70
     0
102
RTVSPropertyOp14
 70
     2
102
RTVSPropertyOp15
 70
     0
102
RTVSPropertyOp16
 70
     0
102
RTVSPropertyOp17
 70
     0
102
RTVSPropertyOp18
 70
     0
102
RTVSPropertyOp19
 70
     0
102
RTVSPropertyOp20
 70
     0
102
RTVSPropertyOp21
 70
     0
102
RTVSPropertyOp22
 70
     0
102
RTVSPropertyOp23
 70
     0
102
RTVSPropertyOp24
 70
     0
102
RTVSPropertyOp25
 70
     0
102
RTVSPropertyOp26
 70
     0
102
RTVSPropertyOp27
 70
     0
102
RTVSPropertyOp28
 70
     0
102
RTVSPropertyOp29
 70
     0
102
RTVSPropertyOp30
 70
     0
102
RTVSPropertyOp31
 70
     0
102
RTVSPropertyOp32
 70
     0
102
RTVSPropertyOp33
 70
     0
102
RTVSPropertyOp34
 70
     0
102
RTVSPropertyOp35
 70
     0
102
RTVSPropertyOp36
 70
     0
102
RTVSPropertyOp37
 70
     0
102
RTVSPropertyOp38
 70
     0
102
RTVSPropertyOp39
 70
     0
102
RTVSPropertyOp40
 70
     0
102
RTVSPropertyOp41
 70
     0
102
RTVSPropertyOp42
 70
     0
102
RTVSPropertyOp43
 70
     0
102
RTVSPropertyOp44
 70
     0
102
RTVSPropertyOp45
 70
     0
102
RTVSPropertyOp46
 70
     0
102
RTVSPropertyOp47
 70
     0
102
RTVSPropertyOp48
 70
     0
102
RTVSPropertyOp49
 70
     0
102
RTVSPropertyOp50
 70
     0
102
RTVSPropertyOp51
 70
     0
102
RTVSPropertyOp52
 70
     0
102
RTVSPropertyOp53
 70
     0
102
RTVSPropertyOp54
 70
     0
102
RTVSPropertyOp55
 70
     0
102
RTVSPropertyOp56
 70
     0
102
RTVSPropertyOp57
 70
     0
102
RTVSPost2010Prop28
280
     0
102
RTVSPost2010PropOp28
 70
     0
102
RTVSPost2010Prop29
280
     1
102
RTVSPost2010PropOp29
 70
     0
102
RTVSPost2010Prop30
280
     1
102
RTVSPost2010PropOp30
 70
     0
102
RTVSPost2010Prop31
280
     0
102
RTVSPost2010PropOp31
 70
     0
102
RTVSPost2010Prop32
280
     0
102
RTVSPost2010PropOp32
 70
     0
102
RTVSPost2010Prop33
280
     0
102
RTVSPost2010PropOp33
 70
     0
102
RTVSPost2010Prop34
280
     0
102
RTVSPost2010PropOp34
 70
     0
102
RTVSPost2010Prop35
280
     0
102
RTVSPost2010PropOp35
 70
     0
102
RTVSPost2010Prop36
280
     0
102
RTVSPost2010PropOp36
 70
     0
102
RTVSPost2010Prop37
 90
       50
102
RTVSPost2010PropOp37
 70
     0
102
RTVSPost2010Prop38
140
0.0
102
RTVSPost2010PropOp38
 70
     0
102
RTVSPost2010Prop39
140
1.0
102
RTVSPost2010PropOp39
 70
     0
102
RTVSPost2010Prop40
 90
        0
102
RTVSPost2010PropOp40
 70
     0
102
RTVSPost2010Prop41ColorIndex
 90
       18
102
RTVSPost2010Prop41ColorRGB
 90
        0
102
RTVSPost2010PropOp41
 70
     0
102
RTVSPost2010Prop42
 90
       50
102
RTVSPost2010PropOp42
 70
     0
102
RTVSPost2010Prop43
 90
        3
102
RTVSPost2010PropOp43
 70
     0
102
RTVSPost2010Prop44ColorIndex
 90
        5
102
RTVSPost2010Prop44ColorRGB
 90
      255
102
RTVSPost2010PropOp44
 70
     0
102
RTVSPost2010Prop45
280
     0
102
RTVSPost2010PropOp45
 70
     0
102
RTVSPost2010Prop46
 90
       50
102
RTVSPost2010PropOp46
 70
     0
102
RTVSPost2010Prop47
 90
       50
102
RTVSPost2010PropOp47
 70
     0
102
RTVSPost2010Prop48
 90
       50
102
RTVSPost2010PropOp48
 70
     0
102
RTVSPost2010Prop49
280
     0
102
RTVSPost2010PropOp49
 70
     0
102
RTVSPost2010Prop50
 90
       50
102
RTVSPost2010PropOp50
 70
     0
102
RTVSPost2010Prop51ColorIndex
 90
      256
102
RTVSPost2010Prop51ColorRGB
 90
-16777216
102
RTVSPost2010PropOp51
 70
     0
102
RTVSPost2010Prop52
140
1.0
102
RTVSPost2010PropOp52
 70
     0
102
RTVSPost2010Prop53
 90
        2
102
RTVSPost2010PropOp53
 70
     0
102
RTVSPost2010Prop54
  1
strokes_ogs.tif
102
RTVSPost2010PropOp54
 70
     0
102
RTVSPost2010Prop55
280
     0
102
RTVSPost2010PropOp55
 70
     0
102
RTVSPost2010Prop56
140
1.0
102
RTVSPost2010PropOp56
 70
     0
102
RTVSPost2010Prop57
140
1.0
102
RTVSPost2010PropOp57
 70
     0
  0
XRECORD
  5
DD
102
{ACAD_REACTORS
330
DC
102
}
330
DC
100
AcDbXrecord
280
     1
102
RTVSPropertyOp0
 70
     1
102
RTVSPropertyOp1
 70
     1
102
RTVSPropertyOp2
 70
     1
102
RTVSPropertyOp3
 70
     1
102
RTVSPropertyOp4
 70
     1
102
RTVSPropertyOp5
 70
     1
102
RTVSPropertyOp6
 70
     1
102
RTVSPropertyOp7
 70
     1
102
RTVSPropertyOp8
 70
     1
102
RTVSPropertyOp9
 70
     1
102
RTVSPropertyOp10
 70
     1
102
RTVSPropertyOp11
 70
     1
102
RTVSPropertyOp12
 70
     1
102
RTVSPropertyOp13
 70
     1
102
RTVSPropertyOp14
 70
     1
102
RTVSPropertyOp15
 70
     1
102
RTVSPropertyOp16
 70
     1
102
RTVSPropertyOp17
 70
     1
102
RTVSPropertyOp18
 70
     1
102
RTVSPropertyOp19
 70
     1
102
RTVSPropertyOp20
 70
     1
102
RTVSPropertyOp21
 70
     1
102
RTVSPropertyOp22
 70
     1
102
RTVSPropertyOp23
 70
     1
102
RTVSPropertyOp24
 70
     1
102
RTVSPropertyOp25
 70
     1
102
RTVSPropertyOp26
 70
     1
102
RTVSPropertyOp27
 70
     1
102
RTVSPropertyOp28
 70
     1
102
RTVSPropertyOp29
 70
     1
102
RTVSPropertyOp30
 70
     1
102
RTVSPropertyOp31
 70
     1
102
RTVSPropertyOp32
 70
     1
102
RTVSPropertyOp33
 70
     1
102
RTVSPropertyOp34
 70
     1
102
RTVSPropertyOp35
 70
     1
102
RTVSPropertyOp36
 70
     1
102
RTVSPropertyOp37
 70
     1
102
RTVSPropertyOp38
 70
     1
102
RTVSPropertyOp39
 70
     1
102
RTVSPropertyOp40
 70
     1
102
RTVSPropertyOp41
 70
     1
102
RTVSPropertyOp42
 70
     1
102
RTVSPropertyOp43
 70
     1
102
RTVSPropertyOp44
 70
     1
102
RTVSPropertyOp45
 70
     1
102
RTVSPropertyOp46
 70
     1
102
RTVSPropertyOp47
 70
     1
102
RTVSPropertyOp48
 70
     1
102
RTVSPropertyOp49
 70
     1
102
RTVSPropertyOp50
 70
     1
102
RTVSPropertyOp51
 70
     0
102
RTVSPropertyOp52
 70
     0
102
RTVSPropertyOp53
 70
     1
102
RTVSPropertyOp54
 70
     1
102
RTVSPropertyOp55
 70
     1
102
RTVSPropertyOp56
 70
     1
102
RTVSPropertyOp57
 70
     1
102
RTVSPost2010Prop28
280
     0
102
RTVSPost2010PropOp28
 70
     1
102
RTVSPost2010Prop29
280
     1
102
RTVSPost2010PropOp29
 70
     1
102
RTVSPost2010Prop30
280
     1
102
RTVSPost2010PropOp30
 70
     1
102
RTVSPost2010Prop31
280
     0
102
RTVSPost2010PropOp31
 70
     1
102
RTVSPost2010Prop32
280
     0
102
RTVSPost2010PropOp32
 70
     1
102
RTVSPost2010Prop33
280
     0
102
RTVSPost2010PropOp33
 70
     1
102
RTVSPost2010Prop34
280
     0
102
RTVSPost2010PropOp34
 70
     1
102
RTVSPost2010Prop35
280
     0
102
RTVSPost2010PropOp35
 70
     1
102
RTVSPost2010Prop36
280
     0
102
RTVSPost2010PropOp36
 70
     1
102
RTVSPost2010Prop37
 90
       50
102
RTVSPost2010PropOp37
 70
     1
102
RTVSPost2010Prop38
140
0.0
102
RTVSPost2010PropOp38
 70
     1
102
RTVSPost2010Prop39
140
1.0
102
RTVSPost2010PropOp39
 70
     1
102
RTVSPost2010Prop40
 90
        0
102
RTVSPost2010PropOp40
 70
     1
102
RTVSPost2010Prop41ColorIndex
 90
       18
102
RTVSPost2010Prop41ColorRGB
 90
        0
102
RTVSPost2010PropOp41
 70
     1
102
RTVSPost2010Prop42
 90
       50
102
RTVSPost2010PropOp42
 70
     1
102
RTVSPost2010Prop43
 90
        3
102
RTVSPost2010PropOp43
 70
     1
102
RTVSPost2010Prop44ColorIndex
 90
        5
102
RTVSPost2010Prop44ColorRGB
 90
      255
102
RTVSPost2010PropOp44
 70
     1
102
RTVSPost2010Prop45
280
     0
102
RTVSPost2010PropOp45
 70
     1
102
RTVSPost2010Prop46
 90
       50
102
RTVSPost2010PropOp46
 70
     1
102
RTVSPost2010Prop47
 90
       50
102
RTVSPost2010PropOp47
 70
     1
102
RTVSPost2010Prop48
 90
       50
102
RTVSPost2010PropOp48
 70
     1
102
RTVSPost2010Prop49
280
     0
102
RTVSPost2010PropOp49
 70
     1
102
RTVSPost2010Prop50
 90
       50
102
RTVSPost2010PropOp50
 70
     1
102
RTVSPost2010Prop51ColorIndex
 90
      256
102
RTVSPost2010Prop51ColorRGB
 90
-16777216
102
RTVSPost2010PropOp51
 70
     0
102
RTVSPost2010Prop52
140
1.0
102
RTVSPost2010PropOp52
 70
     0
102
RTVSPost2010Prop53
 90
        2
102
RTVSPost2010PropOp53
 70
     1
102
RTVSPost2010Prop54
  1
strokes_ogs.tif
102
RTVSPost2010PropOp54
 70
     1
102
RTVSPost2010Prop55
280
     0
102
RTVSPost2010PropOp55
 70
     1
102
RTVSPost2010Prop56
140
1.0
102
RTVSPost2010PropOp56
 70
     1
102
RTVSPost2010Prop57
140
1.0
102
RTVSPost2010PropOp57
 70
     1
  0
XRECORD
  5
E5
102
{ACAD_REACTORS
330
E4
102
}
330
E4
100
AcDbXrecord
280
     1
102
RTVSPropertyOp0
 70
     0
102
RTVSPropertyOp1
 70
     0
102
RTVSPropertyOp2
 70
     0
102
RTVSPropertyOp3
 70
     0
102
RTVSPropertyOp4
 70
     0
102
RTVSPropertyOp5
 70
     0
102
RTVSPropertyOp6
 70
     0
102
RTVSPropertyOp7
 70
     0
102
RTVSPropertyOp8
 70
     0
102
RTVSPropertyOp9
 70
     0
102
RTVSPropertyOp10
 70
     0
102
RTVSPropertyOp11
 70
     0
102
RTVSPropertyOp12
 70
     0
102
RTVSPropertyOp13
 70
     0
102
RTVSPropertyOp14
 70
     2
102
RTVSPropertyOp15
 70
     0
102
RTVSPropertyOp16
 70
     0
102
RTVSPropertyOp17
 70
     0
102
RTVSPropertyOp18
 70
     0
102
RTVSPropertyOp19
 70
     0
102
RTVSPropertyOp20
 70
     0
102
RTVSPropertyOp21
 70
     0
102
RTVSPropertyOp22
 70
     0
102
RTVSPropertyOp23
 70
     0
102
RTVSPropertyOp24
 70
     0
102
RTVSPropertyOp25
 70
     0
102
RTVSPropertyOp26
 70
     0
102
RTVSPropertyOp27
 70
     0
102
RTVSPropertyOp28
 70
     0
102
RTVSPropertyOp29
 70
     0
102
RTVSPropertyOp30
 70
     0
102
RTVSPropertyOp31
 70
     0
102
RTVSPropertyOp32
 70
     0
102
RTVSPropertyOp33
 70
     0
102
RTVSPropertyOp34
 70
     0
102
RTVSPropertyOp35
 70
     0
102
RTVSPropertyOp36
 70
     0
102
RTVSPropertyOp37
 70
     0
102
RTVSPropertyOp38
 70
     0
102
RTVSPropertyOp39
 70
     0
102
RTVSPropertyOp40
 70
     0
102
RTVSPropertyOp41
 70
     0
102
RTVSPropertyOp42
 70
     0
102
RTVSPropertyOp43
 70
     0
102
RTVSPropertyOp44
 70
     0
102
RTVSPropertyOp45
 70
     0
102
RTVSPropertyOp46
 70
     0
102
RTVSPropertyOp47
 70
     0
102
RTVSPropertyOp48
 70
     0
102
RTVSPropertyOp49
 70
     0
102
RTVSPropertyOp50
 70
     0
102
RTVSPropertyOp51
 70
     0
102
RTVSPropertyOp52
 70
     0
102
RTVSPropertyOp53
 70
     0
102
RTVSPropertyOp54
 70
     0
102
RTVSPropertyOp55
 70
     0
102
RTVSPropertyOp56
 70
     0
102
RTVSPropertyOp57
 70
     0
102
RTVSPost2010Prop28
280
     0
102
RTVSPost2010PropOp28
 70
     0
102
RTVSPost2010Prop29
280
     1
102
RTVSPost2010PropOp29
 70
     0
102
RTVSPost2010Prop30
280
     1
102
RTVSPost2010PropOp30
 70
     0
102
RTVSPost2010Prop31
280
     0
102
RTVSPost2010PropOp31
 70
     0
102
RTVSPost2010Prop32
280
     0
102
RTVSPost2010PropOp32
 70
     0
102
RTVSPost2010Prop33
280
     0
102
RTVSPost2010PropOp33
 70
     0
102
RTVSPost2010Prop34
280
     0
102
RTVSPost2010PropOp34
 70
     0
102
RTVSPost2010Prop35
280
     0
102
RTVSPost2010PropOp35
 70
     0
102
RTVSPost2010Prop36
280
     0
102
RTVSPost2010PropOp36
 70
     0
102
RTVSPost2010Prop37
 90
       50
102
RTVSPost2010PropOp37
 70
     0
102
RTVSPost2010Prop38
140
0.0
102
RTVSPost2010PropOp38
 70
     0
102
RTVSPost2010Prop39
140
1.0
102
RTVSPost2010PropOp39
 70
     0
102
RTVSPost2010Prop40
 90
        0
102
RTVSPost2010PropOp40
 70
     0
102
RTVSPost2010Prop41ColorIndex
 90
       18
102
RTVSPost2010Prop41ColorRGB
 90
        0
102
RTVSPost2010PropOp41
 70
     0
102
RTVSPost2010Prop42
 90
       50
102
RTVSPost2010PropOp42
 70
     0
102
RTVSPost2010Prop43
 90
        3
102
RTVSPost2010PropOp43
 70
     0
102
RTVSPost2010Prop44ColorIndex
 90
        5
102
RTVSPost2010Prop44ColorRGB
 90
      255
102
RTVSPost2010PropOp44
 70
     0
102
RTVSPost2010Prop45
280
     0
102
RTVSPost2010PropOp45
 70
     0
102
RTVSPost2010Prop46
 90
       50
102
RTVSPost2010PropOp46
 70
     0
102
RTVSPost2010Prop47
 90
       50
102
RTVSPost2010PropOp47
 70
     0
102
RTVSPost2010Prop48
 90
       50
102
RTVSPost2010PropOp48
 70
     0
102
RTVSPost2010Prop49
280
     0
102
RTVSPost2010PropOp49
 70
     0
102
RTVSPost2010Prop50
 90
       50
102
RTVSPost2010PropOp50
 70
     0
102
RTVSPost2010Prop51ColorIndex
 90
      256
102
RTVSPost2010Prop51ColorRGB
 90
-16777216
102
RTVSPost2010PropOp51
 70
     0
102
RTVSPost2010Prop52
140
1.0
102
RTVSPost2010PropOp52
 70
     0
102
RTVSPost2010Prop53
 90
        2
102
RTVSPost2010PropOp53
 70
     0
102
RTVSPost2010Prop54
  1
strokes_ogs.tif
102
RTVSPost2010PropOp54
 70
     0
102
RTVSPost2010Prop55
280
     0
102
RTVSPost2010PropOp55
 70
     0
102
RTVSPost2010Prop56
140
1.0
102
RTVSPost2010PropOp56
 70
     0
102
RTVSPost2010Prop57
140
1.0
102
RTVSPost2010PropOp57
 70
     0
  0
XRECORD
  5
D3
102
{ACAD_REACTORS
330
D2
102
}
330
D2
100
AcDbXrecord
280
     1
102
RTVSPropertyOp0
 70
     1
102
RTVSPropertyOp1
 70
     1
102
RTVSPropertyOp2
 70
     1
102
RTVSPropertyOp3
 70
     1
102
RTVSPropertyOp4
 70
     1
102
RTVSPropertyOp5
 70
     1
102
RTVSPropertyOp6
 70
     1
102
RTVSPropertyOp7
 70
     1
102
RTVSPropertyOp8
 70
     1
102
RTVSPropertyOp9
 70
     1
102
RTVSPropertyOp10
 70
     1
102
RTVSPropertyOp11
 70
     1
102
RTVSPropertyOp12
 70
     1
102
RTVSPropertyOp13
 70
     1
102
RTVSPropertyOp14
 70
     1
102
RTVSPropertyOp15
 70
     1
102
RTVSPropertyOp16
 70
     1
102
RTVSPropertyOp17
 70
     1
102
RTVSPropertyOp18
 70
     1
102
RTVSPropertyOp19
 70
     1
102
RTVSPropertyOp20
 70
     1
102
RTVSPropertyOp21
 70
     1
102
RTVSPropertyOp22
 70
     1
102
RTVSPropertyOp23
 70
     1
102
RTVSPropertyOp24
 70
     1
102
RTVSPropertyOp25
 70
     1
102
RTVSPropertyOp26
 70
     1
102
RTVSPropertyOp27
 70
     1
102
RTVSPropertyOp28
 70
     1
102
RTVSPropertyOp29
 70
     1
102
RTVSPropertyOp30
 70
     1
102
RTVSPropertyOp31
 70
     1
102
RTVSPropertyOp32
 70
     1
102
RTVSPropertyOp33
 70
     1
102
RTVSPropertyOp34
 70
     1
102
RTVSPropertyOp35
 70
     1
102
RTVSPropertyOp36
 70
     1
102
RTVSPropertyOp37
 70
     1
102
RTVSPropertyOp38
 70
     1
102
RTVSPropertyOp39
 70
     1
102
RTVSPropertyOp40
 70
     1
102
RTVSPropertyOp41
 70
     1
102
RTVSPropertyOp42
 70
     1
102
RTVSPropertyOp43
 70
     1
102
RTVSPropertyOp44
 70
     1
102
RTVSPropertyOp45
 70
     1
102
RTVSPropertyOp46
 70
     1
102
RTVSPropertyOp47
 70
     1
102
RTVSPropertyOp48
 70
     1
102
RTVSPropertyOp49
 70
     1
102
RTVSPropertyOp50
 70
     1
102
RTVSPropertyOp51
 70
     0
102
RTVSPropertyOp52
 70
     0
102
RTVSPropertyOp53
 70
     1
102
RTVSPropertyOp54
 70
     1
102
RTVSPropertyOp55
 70
     1
102
RTVSPropertyOp56
 70
     1
102
RTVSPropertyOp57
 70
     1
102
RTVSPost2010Prop28
280
     0
102
RTVSPost2010PropOp28
 70
     1
102
RTVSPost2010Prop29
280
     1
102
RTVSPost2010PropOp29
 70
     1
102
RTVSPost2010Prop30
280
     1
102
RTVSPost2010PropOp30
 70
     1
102
RTVSPost2010Prop31
280
     0
102
RTVSPost2010PropOp31
 70
     1
102
RTVSPost2010Prop32
280
     0
102
RTVSPost2010PropOp32
 70
     1
102
RTVSPost2010Prop33
280
     0
102
RTVSPost2010PropOp33
 70
     1
102
RTVSPost2010Prop34
280
     0
102
RTVSPost2010PropOp34
 70
     1
102
RTVSPost2010Prop35
280
     0
102
RTVSPost2010PropOp35
 70
     1
102
RTVSPost2010Prop36
280
     0
102
RTVSPost2010PropOp36
 70
     1
102
RTVSPost2010Prop37
 90
       50
102
RTVSPost2010PropOp37
 70
     1
102
RTVSPost2010Prop38
140
0.0
102
RTVSPost2010PropOp38
 70
     1
102
RTVSPost2010Prop39
140
1.0
102
RTVSPost2010PropOp39
 70
     1
102
RTVSPost2010Prop40
 90
        0
102
RTVSPost2010PropOp40
 70
     1
102
RTVSPost2010Prop41ColorIndex
 90
       18
102
RTVSPost2010Prop41ColorRGB
 90
        0
102
RTVSPost2010PropOp41
 70
     1
102
RTVSPost2010Prop42
 90
       50
102
RTVSPost2010PropOp42
 70
     1
102
RTVSPost2010Prop43
 90
        3
102
RTVSPost2010PropOp43
 70
     1
102
RTVSPost2010Prop44ColorIndex
 90
        5
102
RTVSPost2010Prop44ColorRGB
 90
      255
102
RTVSPost2010PropOp44
 70
     1
102
RTVSPost2010Prop45
280
     0
102
RTVSPost2010PropOp45
 70
     1
102
RTVSPost2010Prop46
 90
       50
102
RTVSPost2010PropOp46
 70
     1
102
RTVSPost2010Prop47
 90
       50
102
RTVSPost2010PropOp47
 70
     1
102
RTVSPost2010Prop48
 90
       50
102
RTVSPost2010PropOp48
 70
     1
102
RTVSPost2010Prop49
280
     0
102
RTVSPost2010PropOp49
 70
     1
102
RTVSPost2010Prop50
 90
       50
102
RTVSPost2010PropOp50
 70
     1
102
RTVSPost2010Prop51ColorIndex
 90
      256
102
RTVSPost2010Prop51ColorRGB
 90
-16777216
102
RTVSPost2010PropOp51
 70
     0
102
RTVSPost2010Prop52
140
1.0
102
RTVSPost2010PropOp52
 70
     0
102
RTVSPost2010Prop53
 90
        2
102
RTVSPost2010PropOp53
 70
     1
102
RTVSPost2010Prop54
  1
strokes_ogs.tif
102
RTVSPost2010PropOp54
 70
     1
102
RTVSPost2010Prop55
280
     0
102
RTVSPost2010PropOp55
 70
     1
102
RTVSPost2010Prop56
140
1.0
102
RTVSPost2010PropOp56
 70
     1
102
RTVSPost2010Prop57
140
1.0
102
RTVSPost2010PropOp57
 70
     1
  0
XRECORD
  5
F1
102
{ACAD_REACTORS
330
F0
102
}
330
F0
100
AcDbXrecord
280
     1
102
RTVSPropertyOp0
 70
     1
102
RTVSPropertyOp1
 70
     1
102
RTVSPropertyOp2
 70
     1
102
RTVSPropertyOp3
 70
     1
102
RTVSPropertyOp4
 70
     1
102
RTVSPropertyOp5
 70
     1
102
RTVSPropertyOp6
 70
     1
102
RTVSPropertyOp7
 70
     1
102
RTVSPropertyOp8
 70
     1
102
RTVSPropertyOp9
 70
     1
102
RTVSPropertyOp10
 70
     1
102
RTVSPropertyOp11
 70
     1
102
RTVSPropertyOp12
 70
     1
102
RTVSPropertyOp13
 70
     1
102
RTVSPropertyOp14
 70
     1
102
RTVSPropertyOp15
 70
     1
102
RTVSPropertyOp16
 70
     1
102
RTVSPropertyOp17
 70
     1
102
RTVSPropertyOp18
 70
     1
102
RTVSPropertyOp19
 70
     1
102
RTVSPropertyOp20
 70
     1
102
RTVSPropertyOp21
 70
     1
102
RTVSPropertyOp22
 70
     1
102
RTVSPropertyOp23
 70
     1
102
RTVSPropertyOp24
 70
     1
102
RTVSPropertyOp25
 70
     1
102
RTVSPropertyOp26
 70
     1
102
RTVSPropertyOp27
 70
     1
102
RTVSPropertyOp28
 70
     1
102
RTVSPropertyOp29
 70
     1
102
RTVSPropertyOp30
 70
     1
102
RTVSPropertyOp31
 70
     1
102
RTVSPropertyOp32
 70
     1
102
RTVSPropertyOp33
 70
     1
102
RTVSPropertyOp34
 70
     1
102
RTVSPropertyOp35
 70
     1
102
RTVSPropertyOp36
 70
     1
102
RTVSPropertyOp37
 70
     1
102
RTVSPropertyOp38
 70
     1
102
RTVSPropertyOp39
 70
     1
102
RTVSPropertyOp40
 70
     1
102
RTVSPropertyOp41
 70
     1
102
RTVSPropertyOp42
 70
     1
102
RTVSPropertyOp43
 70
     1
102
RTVSPropertyOp44
 70
     1
102
RTVSPropertyOp45
 70
     1
102
RTVSPropertyOp46
 70
     1
102
RTVSPropertyOp47
 70
     1
102
RTVSPropertyOp48
 70
     1
102
RTVSPropertyOp49
 70
     1
102
RTVSPropertyOp50
 70
     1
102
RTVSPropertyOp51
 70
     0
102
RTVSPropertyOp52
 70
     0
102
RTVSPropertyOp53
 70
     1
102
RTVSPropertyOp54
 70
     1
102
RTVSPropertyOp55
 70
     1
102
RTVSPropertyOp56
 70
     1
102
RTVSPropertyOp57
 70
     1
102
RTVSPost2010Prop28
280
     0
102
RTVSPost2010PropOp28
 70
     1
102
RTVSPost2010Prop29
280
     1
102
RTVSPost2010PropOp29
 70
     1
102
RTVSPost2010Prop30
280
     1
102
RTVSPost2010PropOp30
 70
     1
102
RTVSPost2010Prop31
280
     0
102
RTVSPost2010PropOp31
 70
     1
102
RTVSPost2010Prop32
280
     0
102
RTVSPost2010PropOp32
 70
     1
102
RTVSPost2010Prop33
280
     0
102
RTVSPost2010PropOp33
 70
     1
102
RTVSPost2010Prop34
280
     0
102
RTVSPost2010PropOp34
 70
     1
102
RTVSPost2010Prop35
280
     0
102
RTVSPost2010PropOp35
 70
     1
102
RTVSPost2010Prop36
280
     0
102
RTVSPost2010PropOp36
 70
     1
102
RTVSPost2010Prop37
 90
       50
102
RTVSPost2010PropOp37
 70
     1
102
RTVSPost2010Prop38
140
0.0
102
RTVSPost2010PropOp38
 70
     1
102
RTVSPost2010Prop39
140
1.0
102
RTVSPost2010PropOp39
 70
     1
102
RTVSPost2010Prop40
 90
        0
102
RTVSPost2010PropOp40
 70
     1
102
RTVSPost2010Prop41ColorIndex
 90
       18
102
RTVSPost2010Prop41ColorRGB
 90
        0
102
RTVSPost2010PropOp41
 70
     1
102
RTVSPost2010Prop42
 90
       50
102
RTVSPost2010PropOp42
 70
     1
102
RTVSPost2010Prop43
 90
        3
102
RTVSPost2010PropOp43
 70
     1
102
RTVSPost2010Prop44ColorIndex
 90
        5
102
RTVSPost2010Prop44ColorRGB
 90
      255
102
RTVSPost2010PropOp44
 70
     1
102
RTVSPost2010Prop45
280
     0
102
RTVSPost2010PropOp45
 70
     1
102
RTVSPost2010Prop46
 90
       50
102
RTVSPost2010PropOp46
 70
     1
102
RTVSPost2010Prop47
 90
       50
102
RTVSPost2010PropOp47
 70
     1
102
RTVSPost2010Prop48
 90
       50
102
RTVSPost2010PropOp48
 70
     1
102
RTVSPost2010Prop49
280
     0
102
RTVSPost2010PropOp49
 70
     1
102
RTVSPost2010Prop50
 90
       50
102
RTVSPost2010PropOp50
 70
     1
102
RTVSPost2010Prop51ColorIndex
 90
      256
102
RTVSPost2010Prop51ColorRGB
 90
-16777216
102
RTVSPost2010PropOp51
 70
     0
102
RTVSPost2010Prop52
140
1.0
102
RTVSPost2010PropOp52
 70
     0
102
RTVSPost2010Prop53
 90
        2
102
RTVSPost2010PropOp53
 70
     1
102
RTVSPost2010Prop54
  1
strokes_ogs.tif
102
RTVSPost2010PropOp54
 70
     1
102
RTVSPost2010Prop55
280
     0
102
RTVSPost2010PropOp55
 70
     1
102
RTVSPost2010Prop56
140
1.0
102
RTVSPost2010PropOp56
 70
     1
102
RTVSPost2010Prop57
140
1.0
102
RTVSPost2010PropOp57
 70
     1
  0
XRECORD
  5
EF
102
{ACAD_REACTORS
330
EE
102
}
330
EE
100
AcDbXrecord
280
     1
102
RTVSPropertyOp0
 70
     1
102
RTVSPropertyOp1
 70
     1
102
RTVSPropertyOp2
 70
     1
102
RTVSPropertyOp3
 70
     1
102
RTVSPropertyOp4
 70
     1
102
RTVSPropertyOp5
 70
     1
102
RTVSPropertyOp6
 70
     1
102
RTVSPropertyOp7
 70
     1
102
RTVSPropertyOp8
 70
     1
102
RTVSPropertyOp9
 70
     1
102
RTVSPropertyOp10
 70
     1
102
RTVSPropertyOp11
 70
     1
102
RTVSPropertyOp12
 70
     1
102
RTVSPropertyOp13
 70
     1
102
RTVSPropertyOp14
 70
     1
102
RTVSPropertyOp15
 70
     1
102
RTVSPropertyOp16
 70
     1
102
RTVSPropertyOp17
 70
     1
102
RTVSPropertyOp18
 70
     1
102
RTVSPropertyOp19
 70
     1
102
RTVSPropertyOp20
 70
     1
102
RTVSPropertyOp21
 70
     1
102
RTVSPropertyOp22
 70
     1
102
RTVSPropertyOp23
 70
     1
102
RTVSPropertyOp24
 70
     1
102
RTVSPropertyOp25
 70
     1
102
RTVSPropertyOp26
 70
     1
102
RTVSPropertyOp27
 70
     1
102
RTVSPropertyOp28
 70
     1
102
RTVSPropertyOp29
 70
     1
102
RTVSPropertyOp30
 70
     1
102
RTVSPropertyOp31
 70
     1
102
RTVSPropertyOp32
 70
     1
102
RTVSPropertyOp33
 70
     1
102
RTVSPropertyOp34
 70
     1
102
RTVSPropertyOp35
 70
     1
102
RTVSPropertyOp36
 70
     1
102
RTVSPropertyOp37
 70
     1
102
RTVSPropertyOp38
 70
     1
102
RTVSPropertyOp39
 70
     1
102
RTVSPropertyOp40
 70
     1
102
RTVSPropertyOp41
 70
     1
102
RTVSPropertyOp42
 70
     1
102
RTVSPropertyOp43
 70
     1
102
RTVSPropertyOp44
 70
     1
102
RTVSPropertyOp45
 70
     1
102
RTVSPropertyOp46
 70
     1
102
RTVSPropertyOp47
 70
     1
102
RTVSPropertyOp48
 70
     1
102
RTVSPropertyOp49
 70
     1
102
RTVSPropertyOp50
 70
     1
102
RTVSPropertyOp51
 70
     0
102
RTVSPropertyOp52
 70
     0
102
RTVSPropertyOp53
 70
     1
102
RTVSPropertyOp54
 70
     1
102
RTVSPropertyOp55
 70
     1
102
RTVSPropertyOp56
 70
     1
102
RTVSPropertyOp57
 70
     1
102
RTVSPost2010Prop28
280
     0
102
RTVSPost2010PropOp28
 70
     1
102
RTVSPost2010Prop29
280
     1
102
RTVSPost2010PropOp29
 70
     1
102
RTVSPost2010Prop30
280
     1
102
RTVSPost2010PropOp30
 70
     1
102
RTVSPost2010Prop31
280
     0
102
RTVSPost2010PropOp31
 70
     1
102
RTVSPost2010Prop32
280
     0
102
RTVSPost2010PropOp32
 70
     1
102
RTVSPost2010Prop33
280
     0
102
RTVSPost2010PropOp33
 70
     1
102
RTVSPost2010Prop34
280
     0
102
RTVSPost2010PropOp34
 70
     1
102
RTVSPost2010Prop35
280
     0
102
RTVSPost2010PropOp35
 70
     1
102
RTVSPost2010Prop36
280
     0
102
RTVSPost2010PropOp36
 70
     1
102
RTVSPost2010Prop37
 90
       50
102
RTVSPost2010PropOp37
 70
     1
102
RTVSPost2010Prop38
140
0.0
102
RTVSPost2010PropOp38
 70
     1
102
RTVSPost2010Prop39
140
1.0
102
RTVSPost2010PropOp39
 70
     1
102
RTVSPost2010Prop40
 90
        0
102
RTVSPost2010PropOp40
 70
     1
102
RTVSPost2010Prop41ColorIndex
 90
       18
102
RTVSPost2010Prop41ColorRGB
 90
        0
102
RTVSPost2010PropOp41
 70
     1
102
RTVSPost2010Prop42
 90
       50
102
RTVSPost2010PropOp42
 70
     1
102
RTVSPost2010Prop43
 90
        3
102
RTVSPost2010PropOp43
 70
     1
102
RTVSPost2010Prop44ColorIndex
 90
        5
102
RTVSPost2010Prop44ColorRGB
 90
      255
102
RTVSPost2010PropOp44
 70
     1
102
RTVSPost2010Prop45
280
     0
102
RTVSPost2010PropOp45
 70
     1
102
RTVSPost2010Prop46
 90
       50
102
RTVSPost2010PropOp46
 70
     1
102
RTVSPost2010Prop47
 90
       50
102
RTVSPost2010PropOp47
 70
     1
102
RTVSPost2010Prop48
 90
       50
102
RTVSPost2010PropOp48
 70
     1
102
RTVSPost2010Prop49
280
     0
102
RTVSPost2010PropOp49
 70
     1
102
RTVSPost2010Prop50
 90
       50
102
RTVSPost2010PropOp50
 70
     1
102
RTVSPost2010Prop51ColorIndex
 90
      256
102
RTVSPost2010Prop51ColorRGB
 90
-16777216
102
RTVSPost2010PropOp51
 70
     0
102
RTVSPost2010Prop52
140
1.0
102
RTVSPost2010PropOp52
 70
     0
102
RTVSPost2010Prop53
 90
        2
102
RTVSPost2010PropOp53
 70
     1
102
RTVSPost2010Prop54
  1
strokes_ogs.tif
102
RTVSPost2010PropOp54
 70
     1
102
RTVSPost2010Prop55
280
     0
102
RTVSPost2010PropOp55
 70
     1
102
RTVSPost2010Prop56
140
1.0
102
RTVSPost2010PropOp56
 70
     1
102
RTVSPost2010Prop57
140
1.0
102
RTVSPost2010PropOp57
 70
     1
  0
XRECORD
  5
E9
102
{ACAD_REACTORS
330
E8
102
}
330
E8
100
AcDbXrecord
280
     1
102
RTVSPropertyOp0
 70
     1
102
RTVSPropertyOp1
 70
     1
102
RTVSPropertyOp2
 70
     1
102
RTVSPropertyOp3
 70
     1
102
RTVSPropertyOp4
 70
     1
102
RTVSPropertyOp5
 70
     1
102
RTVSPropertyOp6
 70
     1
102
RTVSPropertyOp7
 70
     1
102
RTVSPropertyOp8
 70
     1
102
RTVSPropertyOp9
 70
     1
102
RTVSPropertyOp10
 70
     1
102
RTVSPropertyOp11
 70
     1
102
RTVSPropertyOp12
 70
     1
102
RTVSPropertyOp13
 70
     1
102
RTVSPropertyOp14
 70
     1
102
RTVSPropertyOp15
 70
     1
102
RTVSPropertyOp16
 70
     1
102
RTVSPropertyOp17
 70
     1
102
RTVSPropertyOp18
 70
     1
102
RTVSPropertyOp19
 70
     1
102
RTVSPropertyOp20
 70
     1
102
RTVSPropertyOp21
 70
     1
102
RTVSPropertyOp22
 70
     1
102
RTVSPropertyOp23
 70
     1
102
RTVSPropertyOp24
 70
     1
102
RTVSPropertyOp25
 70
     1
102
RTVSPropertyOp26
 70
     1
102
RTVSPropertyOp27
 70
     1
102
RTVSPropertyOp28
 70
     1
102
RTVSPropertyOp29
 70
     1
102
RTVSPropertyOp30
 70
     1
102
RTVSPropertyOp31
 70
     1
102
RTVSPropertyOp32
 70
     1
102
RTVSPropertyOp33
 70
     1
102
RTVSPropertyOp34
 70
     1
102
RTVSPropertyOp35
 70
     1
102
RTVSPropertyOp36
 70
     1
102
RTVSPropertyOp37
 70
     1
102
RTVSPropertyOp38
 70
     1
102
RTVSPropertyOp39
 70
     1
102
RTVSPropertyOp40
 70
     1
102
RTVSPropertyOp41
 70
     1
102
RTVSPropertyOp42
 70
     1
102
RTVSPropertyOp43
 70
     1
102
RTVSPropertyOp44
 70
     1
102
RTVSPropertyOp45
 70
     1
102
RTVSPropertyOp46
 70
     1
102
RTVSPropertyOp47
 70
     1
102
RTVSPropertyOp48
 70
     1
102
RTVSPropertyOp49
 70
     1
102
RTVSPropertyOp50
 70
     1
102
RTVSPropertyOp51
 70
     0
102
RTVSPropertyOp52
 70
     0
102
RTVSPropertyOp53
 70
     1
102
RTVSPropertyOp54
 70
     1
102
RTVSPropertyOp55
 70
     1
102
RTVSPropertyOp56
 70
     1
102
RTVSPropertyOp57
 70
     1
102
RTVSPost2010Prop28
280
     0
102
RTVSPost2010PropOp28
 70
     1
102
RTVSPost2010Prop29
280
     1
102
RTVSPost2010PropOp29
 70
     1
102
RTVSPost2010Prop30
280
     1
102
RTVSPost2010PropOp30
 70
     1
102
RTVSPost2010Prop31
280
     0
102
RTVSPost2010PropOp31
 70
     1
102
RTVSPost2010Prop32
280
     0
102
RTVSPost2010PropOp32
 70
     1
102
RTVSPost2010Prop33
280
     0
102
RTVSPost2010PropOp33
 70
     1
102
RTVSPost2010Prop34
280
     0
102
RTVSPost2010PropOp34
 70
     1
102
RTVSPost2010Prop35
280
     0
102
RTVSPost2010PropOp35
 70
     1
102
RTVSPost2010Prop36
280
     0
102
RTVSPost2010PropOp36
 70
     1
102
RTVSPost2010Prop37
 90
       50
102
RTVSPost2010PropOp37
 70
     1
102
RTVSPost2010Prop38
140
0.0
102
RTVSPost2010PropOp38
 70
     1
102
RTVSPost2010Prop39
140
1.0
102
RTVSPost2010PropOp39
 70
     1
102
RTVSPost2010Prop40
 90
        0
102
RTVSPost2010PropOp40
 70
     1
102
RTVSPost2010Prop41ColorIndex
 90
       18
102
RTVSPost2010Prop41ColorRGB
 90
        0
102
RTVSPost2010PropOp41
 70
     1
102
RTVSPost2010Prop42
 90
       50
102
RTVSPost2010PropOp42
 70
     1
102
RTVSPost2010Prop43
 90
        3
102
RTVSPost2010PropOp43
 70
     1
102
RTVSPost2010Prop44ColorIndex
 90
        5
102
RTVSPost2010Prop44ColorRGB
 90
      255
102
RTVSPost2010PropOp44
 70
     1
102
RTVSPost2010Prop45
280
     0
102
RTVSPost2010PropOp45
 70
     1
102
RTVSPost2010Prop46
 90
       50
102
RTVSPost2010PropOp46
 70
     1
102
RTVSPost2010Prop47
 90
       50
102
RTVSPost2010PropOp47
 70
     1
102
RTVSPost2010Prop48
 90
       50
102
RTVSPost2010PropOp48
 70
     1
102
RTVSPost2010Prop49
280
     0
102
RTVSPost2010PropOp49
 70
     1
102
RTVSPost2010Prop50
 90
       50
102
RTVSPost2010PropOp50
 70
     1
102
RTVSPost2010Prop51ColorIndex
 90
      256
102
RTVSPost2010Prop51ColorRGB
 90
-16777216
102
RTVSPost2010PropOp51
 70
     0
102
RTVSPost2010Prop52
140
1.0
102
RTVSPost2010PropOp52
 70
     0
102
RTVSPost2010Prop53
 90
        2
102
RTVSPost2010PropOp53
 70
     1
102
RTVSPost2010Prop54
  1
strokes_ogs.tif
102
RTVSPost2010PropOp54
 70
     1
102
RTVSPost2010Prop55
280
     0
102
RTVSPost2010PropOp55
 70
     1
102
RTVSPost2010Prop56
140
1.0
102
RTVSPost2010PropOp56
 70
     1
102
RTVSPost2010Prop57
140
1.0
102
RTVSPost2010PropOp57
 70
     1
  0
XRECORD
  5
EB
102
{ACAD_REACTORS
330
EA
102
}
330
EA
100
AcDbXrecord
280
     1
102
RTVSPropertyOp0
 70
     1
102
RTVSPropertyOp1
 70
     1
102
RTVSPropertyOp2
 70
     1
102
RTVSPropertyOp3
 70
     1
102
RTVSPropertyOp4
 70
     1
102
RTVSPropertyOp5
 70
     1
102
RTVSPropertyOp6
 70
     1
102
RTVSPropertyOp7
 70
     1
102
RTVSPropertyOp8
 70
     1
102
RTVSPropertyOp9
 70
     1
102
RTVSPropertyOp10
 70
     1
102
RTVSPropertyOp11
 70
     1
102
RTVSPropertyOp12
 70
     1
102
RTVSPropertyOp13
 70
     1
102
RTVSPropertyOp14
 70
     1
102
RTVSPropertyOp15
 70
     1
102
RTVSPropertyOp16
 70
     1
102
RTVSPropertyOp17
 70
     1
102
RTVSPropertyOp18
 70
     1
102
RTVSPropertyOp19
 70
     1
102
RTVSPropertyOp20
 70
     1
102
RTVSPropertyOp21
 70
     1
102
RTVSPropertyOp22
 70
     1
102
RTVSPropertyOp23
 70
     1
102
RTVSPropertyOp24
 70
     1
102
RTVSPropertyOp25
 70
     1
102
RTVSPropertyOp26
 70
     1
102
RTVSPropertyOp27
 70
     1
102
RTVSPropertyOp28
 70
     1
102
RTVSPropertyOp29
 70
     1
102
RTVSPropertyOp30
 70
     1
102
RTVSPropertyOp31
 70
     1
102
RTVSPropertyOp32
 70
     1
102
RTVSPropertyOp33
 70
     1
102
RTVSPropertyOp34
 70
     1
102
RTVSPropertyOp35
 70
     1
102
RTVSPropertyOp36
 70
     1
102
RTVSPropertyOp37
 70
     1
102
RTVSPropertyOp38
 70
     1
102
RTVSPropertyOp39
 70
     1
102
RTVSPropertyOp40
 70
     1
102
RTVSPropertyOp41
 70
     1
102
RTVSPropertyOp42
 70
     1
102
RTVSPropertyOp43
 70
     1
102
RTVSPropertyOp44
 70
     1
102
RTVSPropertyOp45
 70
     1
102
RTVSPropertyOp46
 70
     1
102
RTVSPropertyOp47
 70
     1
102
RTVSPropertyOp48
 70
     1
102
RTVSPropertyOp49
 70
     1
102
RTVSPropertyOp50
 70
     1
102
RTVSPropertyOp51
 70
     0
102
RTVSPropertyOp52
 70
     0
102
RTVSPropertyOp53
 70
     1
102
RTVSPropertyOp54
 70
     1
102
RTVSPropertyOp55
 70
     1
102
RTVSPropertyOp56
 70
     1
102
RTVSPropertyOp57
 70
     1
102
RTVSPost2010Prop28
280
     0
102
RTVSPost2010PropOp28
 70
     1
102
RTVSPost2010Prop29
280
     1
102
RTVSPost2010PropOp29
 70
     1
102
RTVSPost2010Prop30
280
     1
102
RTVSPost2010PropOp30
 70
     1
102
RTVSPost2010Prop31
280
     0
102
RTVSPost2010PropOp31
 70
     1
102
RTVSPost2010Prop32
280
     0
102
RTVSPost2010PropOp32
 70
     1
102
RTVSPost2010Prop33
280
     0
102
RTVSPost2010PropOp33
 70
     1
102
RTVSPost2010Prop34
280
     0
102
RTVSPost2010PropOp34
 70
     1
102
RTVSPost2010Prop35
280
     0
102
RTVSPost2010PropOp35
 70
     1
102
RTVSPost2010Prop36
280
     0
102
RTVSPost2010PropOp36
 70
     1
102
RTVSPost2010Prop37
 90
       50
102
RTVSPost2010PropOp37
 70
     1
102
RTVSPost2010Prop38
140
0.0
102
RTVSPost2010PropOp38
 70
     1
102
RTVSPost2010Prop39
140
1.0
102
RTVSPost2010PropOp39
 70
     1
102
RTVSPost2010Prop40
 90
        0
102
RTVSPost2010PropOp40
 70
     1
102
RTVSPost2010Prop41ColorIndex
 90
       18
102
RTVSPost2010Prop41ColorRGB
 90
        0
102
RTVSPost2010PropOp41
 70
     1
102
RTVSPost2010Prop42
 90
       50
102
RTVSPost2010PropOp42
 70
     1
102
RTVSPost2010Prop43
 90
        3
102
RTVSPost2010PropOp43
 70
     1
102
RTVSPost2010Prop44ColorIndex
 90
        5
102
RTVSPost2010Prop44ColorRGB
 90
      255
102
RTVSPost2010PropOp44
 70
     1
102
RTVSPost2010Prop45
280
     0
102
RTVSPost2010PropOp45
 70
     1
102
RTVSPost2010Prop46
 90
       50
102
RTVSPost2010PropOp46
 70
     1
102
RTVSPost2010Prop47
 90
       50
102
RTVSPost2010PropOp47
 70
     1
102
RTVSPost2010Prop48
 90
       50
102
RTVSPost2010PropOp48
 70
     1
102
RTVSPost2010Prop49
280
     0
102
RTVSPost2010PropOp49
 70
     1
102
RTVSPost2010Prop50
 90
       50
102
RTVSPost2010PropOp50
 70
     1
102
RTVSPost2010Prop51ColorIndex
 90
      256
102
RTVSPost2010Prop51ColorRGB
 90
-16777216
102
RTVSPost2010PropOp51
 70
     0
102
RTVSPost2010Prop52
140
1.0
102
RTVSPost2010PropOp52
 70
     0
102
RTVSPost2010Prop53
 90
        2
102
RTVSPost2010PropOp53
 70
     1
102
RTVSPost2010Prop54
  1
strokes_ogs.tif
102
RTVSPost2010PropOp54
 70
     1
102
RTVSPost2010Prop55
280
     0
102
RTVSPost2010PropOp55
 70
     1
102
RTVSPost2010Prop56
140
1.0
102
RTVSPost2010PropOp56
 70
     1
102
RTVSPost2010Prop57
140
1.0
102
RTVSPost2010PropOp57
 70
     1
  0
XRECORD
  5
DB
102
{ACAD_REACTORS
330
DA
102
}
330
DA
100
AcDbXrecord
280
     1
102
RTVSPropertyOp0
 70
     1
102
RTVSPropertyOp1
 70
     1
102
RTVSPropertyOp2
 70
     1
102
RTVSPropertyOp3
 70
     1
102
RTVSPropertyOp4
 70
     1
102
RTVSPropertyOp5
 70
     1
102
RTVSPropertyOp6
 70
     1
102
RTVSPropertyOp7
 70
     1
102
RTVSPropertyOp8
 70
     1
102
RTVSPropertyOp9
 70
     1
102
RTVSPropertyOp10
 70
     1
102
RTVSPropertyOp11
 70
     1
102
RTVSPropertyOp12
 70
     1
102
RTVSPropertyOp13
 70
     1
102
RTVSPropertyOp14
 70
     1
102
RTVSPropertyOp15
 70
     1
102
RTVSPropertyOp16
 70
     1
102
RTVSPropertyOp17
 70
     1
102
RTVSPropertyOp18
 70
     1
102
RTVSPropertyOp19
 70
     1
102
RTVSPropertyOp20
 70
     1
102
RTVSPropertyOp21
 70
     1
102
RTVSPropertyOp22
 70
     1
102
RTVSPropertyOp23
 70
     1
102
RTVSPropertyOp24
 70
     1
102
RTVSPropertyOp25
 70
     1
102
RTVSPropertyOp26
 70
     1
102
RTVSPropertyOp27
 70
     1
102
RTVSPropertyOp28
 70
     1
102
RTVSPropertyOp29
 70
     1
102
RTVSPropertyOp30
 70
     1
102
RTVSPropertyOp31
 70
     1
102
RTVSPropertyOp32
 70
     1
102
RTVSPropertyOp33
 70
     1
102
RTVSPropertyOp34
 70
     1
102
RTVSPropertyOp35
 70
     1
102
RTVSPropertyOp36
 70
     1
102
RTVSPropertyOp37
 70
     1
102
RTVSPropertyOp38
 70
     1
102
RTVSPropertyOp39
 70
     1
102
RTVSPropertyOp40
 70
     1
102
RTVSPropertyOp41
 70
     1
102
RTVSPropertyOp42
 70
     1
102
RTVSPropertyOp43
 70
     1
102
RTVSPropertyOp44
 70
     1
102
RTVSPropertyOp45
 70
     1
102
RTVSPropertyOp46
 70
     1
102
RTVSPropertyOp47
 70
     1
102
RTVSPropertyOp48
 70
     1
102
RTVSPropertyOp49
 70
     1
102
RTVSPropertyOp50
 70
     1
102
RTVSPropertyOp51
 70
     0
102
RTVSPropertyOp52
 70
     0
102
RTVSPropertyOp53
 70
     1
102
RTVSPropertyOp54
 70
     1
102
RTVSPropertyOp55
 70
     1
102
RTVSPropertyOp56
 70
     1
102
RTVSPropertyOp57
 70
     1
102
RTVSPost2010Prop28
280
     0
102
RTVSPost2010PropOp28
 70
     1
102
RTVSPost2010Prop29
280
     1
102
RTVSPost2010PropOp29
 70
     1
102
RTVSPost2010Prop30
280
     1
102
RTVSPost2010PropOp30
 70
     1
102
RTVSPost2010Prop31
280
     0
102
RTVSPost2010PropOp31
 70
     1
102
RTVSPost2010Prop32
280
     0
102
RTVSPost2010PropOp32
 70
     1
102
RTVSPost2010Prop33
280
     0
102
RTVSPost2010PropOp33
 70
     1
102
RTVSPost2010Prop34
280
     0
102
RTVSPost2010PropOp34
 70
     1
102
RTVSPost2010Prop35
280
     0
102
RTVSPost2010PropOp35
 70
     1
102
RTVSPost2010Prop36
280
     0
102
RTVSPost2010PropOp36
 70
     1
102
RTVSPost2010Prop37
 90
       50
102
RTVSPost2010PropOp37
 70
     1
102
RTVSPost2010Prop38
140
0.0
102
RTVSPost2010PropOp38
 70
     1
102
RTVSPost2010Prop39
140
1.0
102
RTVSPost2010PropOp39
 70
     1
102
RTVSPost2010Prop40
 90
        0
102
RTVSPost2010PropOp40
 70
     1
102
RTVSPost2010Prop41ColorIndex
 90
       18
102
RTVSPost2010Prop41ColorRGB
 90
        0
102
RTVSPost2010PropOp41
 70
     1
102
RTVSPost2010Prop42
 90
       50
102
RTVSPost2010PropOp42
 70
     1
102
RTVSPost2010Prop43
 90
        3
102
RTVSPost2010PropOp43
 70
     1
102
RTVSPost2010Prop44ColorIndex
 90
        5
102
RTVSPost2010Prop44ColorRGB
 90
      255
102
RTVSPost2010PropOp44
 70
     1
102
RTVSPost2010Prop45
280
     0
102
RTVSPost2010PropOp45
 70
     1
102
RTVSPost2010Prop46
 90
       50
102
RTVSPost2010PropOp46
 70
     1
102
RTVSPost2010Prop47
 90
       50
102
RTVSPost2010PropOp47
 70
     1
102
RTVSPost2010Prop48
 90
       50
102
RTVSPost2010PropOp48
 70
     1
102
RTVSPost2010Prop49
280
     0
102
RTVSPost2010PropOp49
 70
     1
102
RTVSPost2010Prop50
 90
       50
102
RTVSPost2010PropOp50
 70
     1
102
RTVSPost2010Prop51ColorIndex
 90
      256
102
RTVSPost2010Prop51ColorRGB
 90
-16777216
102
RTVSPost2010PropOp51
 70
     0
102
RTVSPost2010Prop52
140
1.0
102
RTVSPost2010PropOp52
 70
     0
102
RTVSPost2010Prop53
 90
        2
102
RTVSPost2010PropOp53
 70
     1
102
RTVSPost2010Prop54
  1
strokes_ogs.tif
102
RTVSPost2010PropOp54
 70
     1
102
RTVSPost2010Prop55
280
     0
102
RTVSPost2010PropOp55
 70
     1
102
RTVSPost2010Prop56
140
1.0
102
RTVSPost2010PropOp56
 70
     1
102
RTVSPost2010Prop57
140
1.0
102
RTVSPost2010PropOp57
 70
     1
  0
XRECORD
  5
CD
102
{ACAD_REACTORS
330
CC
102
}
330
CC
100
AcDbXrecord
280
     1
102
RTVSPropertyOp0
 70
     1
102
RTVSPropertyOp1
 70
     1
102
RTVSPropertyOp2
 70
     1
102
RTVSPropertyOp3
 70
     1
102
RTVSPropertyOp4
 70
     1
102
RTVSPropertyOp5
 70
     1
102
RTVSPropertyOp6
 70
     1
102
RTVSPropertyOp7
 70
     1
102
RTVSPropertyOp8
 70
     1
102
RTVSPropertyOp9
 70
     1
102
RTVSPropertyOp10
 70
     1
102
RTVSPropertyOp11
 70
     1
102
RTVSPropertyOp12
 70
     1
102
RTVSPropertyOp13
 70
     1
102
RTVSPropertyOp14
 70
     1
102
RTVSPropertyOp15
 70
     1
102
RTVSPropertyOp16
 70
     1
102
RTVSPropertyOp17
 70
     1
102
RTVSPropertyOp18
 70
     1
102
RTVSPropertyOp19
 70
     1
102
RTVSPropertyOp20
 70
     1
102
RTVSPropertyOp21
 70
     1
102
RTVSPropertyOp22
 70
     1
102
RTVSPropertyOp23
 70
     1
102
RTVSPropertyOp24
 70
     1
102
RTVSPropertyOp25
 70
     1
102
RTVSPropertyOp26
 70
     1
102
RTVSPropertyOp27
 70
     1
102
RTVSPropertyOp28
 70
     1
102
RTVSPropertyOp29
 70
     1
102
RTVSPropertyOp30
 70
     1
102
RTVSPropertyOp31
 70
     1
102
RTVSPropertyOp32
 70
     1
102
RTVSPropertyOp33
 70
     1
102
RTVSPropertyOp34
 70
     1
102
RTVSPropertyOp35
 70
     1
102
RTVSPropertyOp36
 70
     1
102
RTVSPropertyOp37
 70
     1
102
RTVSPropertyOp38
 70
     1
102
RTVSPropertyOp39
 70
     1
102
RTVSPropertyOp40
 70
     1
102
RTVSPropertyOp41
 70
     1
102
RTVSPropertyOp42
 70
     1
102
RTVSPropertyOp43
 70
     1
102
RTVSPropertyOp44
 70
     1
102
RTVSPropertyOp45
 70
     1
102
RTVSPropertyOp46
 70
     1
102
RTVSPropertyOp47
 70
     1
102
RTVSPropertyOp48
 70
     1
102
RTVSPropertyOp49
 70
     1
102
RTVSPropertyOp50
 70
     1
102
RTVSPropertyOp51
 70
     0
102
RTVSPropertyOp52
 70
     0
102
RTVSPropertyOp53
 70
     1
102
RTVSPropertyOp54
 70
     1
102
RTVSPropertyOp55
 70
     1
102
RTVSPropertyOp56
 70
     1
102
RTVSPropertyOp57
 70
     1
102
RTVSPost2010Prop28
280
     0
102
RTVSPost2010PropOp28
 70
     1
102
RTVSPost2010Prop29
280
     1
102
RTVSPost2010PropOp29
 70
     1
102
RTVSPost2010Prop30
280
     1
102
RTVSPost2010PropOp30
 70
     1
102
RTVSPost2010Prop31
280
     0
102
RTVSPost2010PropOp31
 70
     1
102
RTVSPost2010Prop32
280
     0
102
RTVSPost2010PropOp32
 70
     1
102
RTVSPost2010Prop33
280
     0
102
RTVSPost2010PropOp33
 70
     1
102
RTVSPost2010Prop34
280
     0
102
RTVSPost2010PropOp34
 70
     1
102
RTVSPost2010Prop35
280
     0
102
RTVSPost2010PropOp35
 70
     1
102
RTVSPost2010Prop36
280
     0
102
RTVSPost2010PropOp36
 70
     1
102
RTVSPost2010Prop37
 90
       50
102
RTVSPost2010PropOp37
 70
     1
102
RTVSPost2010Prop38
140
0.0
102
RTVSPost2010PropOp38
 70
     1
102
RTVSPost2010Prop39
140
1.0
102
RTVSPost2010PropOp39
 70
     1
102
RTVSPost2010Prop40
 90
        0
102
RTVSPost2010PropOp40
 70
     1
102
RTVSPost2010Prop41ColorIndex
 90
       18
102
RTVSPost2010Prop41ColorRGB
 90
        0
102
RTVSPost2010PropOp41
 70
     1
102
RTVSPost2010Prop42
 90
       50
102
RTVSPost2010PropOp42
 70
     1
102
RTVSPost2010Prop43
 90
        3
102
RTVSPost2010PropOp43
 70
     1
102
RTVSPost2010Prop44ColorIndex
 90
        5
102
RTVSPost2010Prop44ColorRGB
 90
      255
102
RTVSPost2010PropOp44
 70
     1
102
RTVSPost2010Prop45
280
     0
102
RTVSPost2010PropOp45
 70
     1
102
RTVSPost2010Prop46
 90
       50
102
RTVSPost2010PropOp46
 70
     1
102
RTVSPost2010Prop47
 90
       50
102
RTVSPost2010PropOp47
 70
     1
102
RTVSPost2010Prop48
 90
       50
102
RTVSPost2010PropOp48
 70
     1
102
RTVSPost2010Prop49
280
     0
102
RTVSPost2010PropOp49
 70
     1
102
RTVSPost2010Prop50
 90
       50
102
RTVSPost2010PropOp50
 70
     1
102
RTVSPost2010Prop51ColorIndex
 90
      256
102
RTVSPost2010Prop51ColorRGB
 90
-16777216
102
RTVSPost2010PropOp51
 70
     0
102
RTVSPost2010Prop52
140
1.0
102
RTVSPost2010PropOp52
 70
     0
102
RTVSPost2010Prop53
 90
        2
102
RTVSPost2010PropOp53
 70
     1
102
RTVSPost2010Prop54
  1
strokes_ogs.tif
102
RTVSPost2010PropOp54
 70
     1
102
RTVSPost2010Prop55
280
     0
102
RTVSPost2010PropOp55
 70
     1
102
RTVSPost2010Prop56
140
1.0
102
RTVSPost2010PropOp56
 70
     1
102
RTVSPost2010Prop57
140
1.0
102
RTVSPost2010PropOp57
 70
     1
  0
XRECORD
  5
ED
102
{ACAD_REACTORS
330
EC
102
}
330
EC
100
AcDbXrecord
280
     1
102
RTVSPropertyOp0
 70
     1
102
RTVSPropertyOp1
 70
     1
102
RTVSPropertyOp2
 70
     1
102
RTVSPropertyOp3
 70
     1
102
RTVSPropertyOp4
 70
     1
102
RTVSPropertyOp5
 70
     1
102
RTVSPropertyOp6
 70
     1
102
RTVSPropertyOp7
 70
     1
102
RTVSPropertyOp8
 70
     1
102
RTVSPropertyOp9
 70
     1
102
RTVSPropertyOp10
 70
     1
102
RTVSPropertyOp11
 70
     1
102
RTVSPropertyOp12
 70
     1
102
RTVSPropertyOp13
 70
     1
102
RTVSPropertyOp14
 70
     1
102
RTVSPropertyOp15
 70
     1
102
RTVSPropertyOp16
 70
     1
102
RTVSPropertyOp17
 70
     1
102
RTVSPropertyOp18
 70
     1
102
RTVSPropertyOp19
 70
     1
102
RTVSPropertyOp20
 70
     1
102
RTVSPropertyOp21
 70
     1
102
RTVSPropertyOp22
 70
     1
102
RTVSPropertyOp23
 70
     1
102
RTVSPropertyOp24
 70
     1
102
RTVSPropertyOp25
 70
     1
102
RTVSPropertyOp26
 70
     1
102
RTVSPropertyOp27
 70
     1
102
RTVSPropertyOp28
 70
     1
102
RTVSPropertyOp29
 70
     1
102
RTVSPropertyOp30
 70
     1
102
RTVSPropertyOp31
 70
     1
102
RTVSPropertyOp32
 70
     1
102
RTVSPropertyOp33
 70
     1
102
RTVSPropertyOp34
 70
     1
102
RTVSPropertyOp35
 70
     1
102
RTVSPropertyOp36
 70
     1
102
RTVSPropertyOp37
 70
     1
102
RTVSPropertyOp38
 70
     1
102
RTVSPropertyOp39
 70
     1
102
RTVSPropertyOp40
 70
     1
102
RTVSPropertyOp41
 70
     1
102
RTVSPropertyOp42
 70
     1
102
RTVSPropertyOp43
 70
     1
102
RTVSPropertyOp44
 70
     1
102
RTVSPropertyOp45
 70
     1
102
RTVSPropertyOp46
 70
     1
102
RTVSPropertyOp47
 70
     1
102
RTVSPropertyOp48
 70
     1
102
RTVSPropertyOp49
 70
     1
102
RTVSPropertyOp50
 70
     1
102
RTVSPropertyOp51
 70
     0
102
RTVSPropertyOp52
 70
     0
102
RTVSPropertyOp53
 70
     1
102
RTVSPropertyOp54
 70
     1
102
RTVSPropertyOp55
 70
     1
102
RTVSPropertyOp56
 70
     1
102
RTVSPropertyOp57
 70
     1
102
RTVSPost2010Prop28
280
     0
102
RTVSPost2010PropOp28
 70
     1
102
RTVSPost2010Prop29
280
     1
102
RTVSPost2010PropOp29
 70
     1
102
RTVSPost2010Prop30
280
     1
102
RTVSPost2010PropOp30
 70
     1
102
RTVSPost2010Prop31
280
     0
102
RTVSPost2010PropOp31
 70
     1
102
RTVSPost2010Prop32
280
     0
102
RTVSPost2010PropOp32
 70
     1
102
RTVSPost2010Prop33
280
     0
102
RTVSPost2010PropOp33
 70
     1
102
RTVSPost2010Prop34
280
     0
102
RTVSPost2010PropOp34
 70
     1
102
RTVSPost2010Prop35
280
     0
102
RTVSPost2010PropOp35
 70
     1
102
RTVSPost2010Prop36
280
     0
102
RTVSPost2010PropOp36
 70
     1
102
RTVSPost2010Prop37
 90
       50
102
RTVSPost2010PropOp37
 70
     1
102
RTVSPost2010Prop38
140
0.0
102
RTVSPost2010PropOp38
 70
     1
102
RTVSPost2010Prop39
140
1.0
102
RTVSPost2010PropOp39
 70
     1
102
RTVSPost2010Prop40
 90
        0
102
RTVSPost2010PropOp40
 70
     1
102
RTVSPost2010Prop41ColorIndex
 90
       18
102
RTVSPost2010Prop41ColorRGB
 90
        0
102
RTVSPost2010PropOp41
 70
     1
102
RTVSPost2010Prop42
 90
       50
102
RTVSPost2010PropOp42
 70
     1
102
RTVSPost2010Prop43
 90
        3
102
RTVSPost2010PropOp43
 70
     1
102
RTVSPost2010Prop44ColorIndex
 90
        5
102
RTVSPost2010Prop44ColorRGB
 90
      255
102
RTVSPost2010PropOp44
 70
     1
102
RTVSPost2010Prop45
280
     0
102
RTVSPost2010PropOp45
 70
     1
102
RTVSPost2010Prop46
 90
       50
102
RTVSPost2010PropOp46
 70
     1
102
RTVSPost2010Prop47
 90
       50
102
RTVSPost2010PropOp47
 70
     1
102
RTVSPost2010Prop48
 90
       50
102
RTVSPost2010PropOp48
 70
     1
102
RTVSPost2010Prop49
280
     0
102
RTVSPost2010PropOp49
 70
     1
102
RTVSPost2010Prop50
 90
       50
102
RTVSPost2010PropOp50
 70
     1
102
RTVSPost2010Prop51ColorIndex
 90
      256
102
RTVSPost2010Prop51ColorRGB
 90
-16777216
102
RTVSPost2010PropOp51
 70
     0
102
RTVSPost2010Prop52
140
1.0
102
RTVSPost2010PropOp52
 70
     0
102
RTVSPost2010Prop53
 90
        2
102
RTVSPost2010PropOp53
 70
     1
102
RTVSPost2010Prop54
  1
strokes_ogs.tif
102
RTVSPost2010PropOp54
 70
     1
102
RTVSPost2010Prop55
280
     0
102
RTVSPost2010PropOp55
 70
     1
102
RTVSPost2010Prop56
140
1.0
102
RTVSPost2010PropOp56
 70
     1
102
RTVSPost2010Prop57
140
1.0
102
RTVSPost2010PropOp57
 70
     1
  0
ENDSEC
  0
EOF
