999
DXF created by Inkscape
  0
SECTION
  2
HEADER
  9
$ACADVER
  1
AC1014
  9
$HANDSEED
  5
FFFF
  9
$MEASUREMENT
 70
     1
  0
ENDSEC
  0
SECTION
  2
TABLES
  0
TABLE
  2
VPORT
  5
8
330
0
100
AcDbSymbolTable
 70
     4
  0
VPORT
  5
2E
330
8
100
AcDbSymbolTableRecord
100
AcDbViewportTableRecord
  2
*ACTIVE
 70
     0
 10
0.0
 20
0.0
 11
1.0
 21
1.0
 12
210.0
 22
148.5
 13
0.0
 23
0.0
 14
10.0
 24
10.0
 15
10.0
 25
10.0
 16
0.0
 26
0.0
 36
1.0
 17
0.0
 27
0.0
 37
0.0
 40
341.0
 41
1.24
 42
50.0
 43
0.0
 44
0.0
 50
0.0
 51
0.0
 71
     0
 72
   100
 73
     1
 74
     3
 75
     0
 76
     0
 77
     0
 78
     0
  0
ENDTAB
  0
TABLE
  2
LTYPE
  5
5
330
0
100
AcDbSymbolTable
 70
     1
  0
LTYPE
  5
14
330
5
100
AcDbSymbolTableRecord
100
AcDbLinetypeTableRecord
  2
BYBLOCK
 70
     0
  3

 72
    65
 73
     0
 40
0.0
  0
LTYPE
  5
15
330
5
100
AcDbSymbolTableRecord
100
AcDbLinetypeTableRecord
  2
BYLAYER
 70
     0
  3

 72
    65
 73
     0
 40
0.0
  0
LTYPE
  5
16
330
5
100
AcDbSymbolTableRecord
100
AcDbLinetypeTableRecord
  2
CONTINUOUS
 70
     0
  3
Solid line
 72
    65
 73
     0
 40
0.0
  0
ENDTAB
  0
TABLE
  2
LAYER
  5
2
100
AcDbSymbolTable
 70
2
  0
LAYER
  5
50
100
AcDbSymbolTableRecord
100
AcDbLayerTableRecord
  2
0
 70
0
  6
CONTINUOUS
  0
LAYER
  5
51
100
AcDbSymbolTableRecord
100
AcDbLayerTableRecord
  2
Layer_1
 70
0
  6
CONTINUOUS
  0
ENDTAB
  0
TABLE
  2
STYLE
  5
3
330
0
100
AcDbSymbolTable
 70
     1
  0
STYLE
  5
11
330
3
100
AcDbSymbolTableRecord
100
AcDbTextStyleTableRecord
  2
STANDARD
 70
     0
 40
0.0
 41
1.0
 50
0.0
 71
     0
 42
2.5
  3
txt
  4

  0
ENDTAB
  0
TABLE
  2
VIEW
  5
6
330
0
100
AcDbSymbolTable
 70
     0
  0
ENDTAB
  0
TABLE
  2
UCS
  5
7
330
0
100
AcDbSymbolTable
 70
     0
  0
ENDTAB
  0
TABLE
  2
APPID
  5
9
330
0
100
AcDbSymbolTable
 70
     2
  0
APPID
  5
12
330
9
100
AcDbSymbolTableRecord
100
AcDbRegAppTableRecord
  2
ACAD
 70
     0
  0
ENDTAB
  0
TABLE
  2
DIMSTYLE
  5
A
330
0
100
AcDbSymbolTable
 70
     1
  0
DIMSTYLE
105
27
330
A
100
AcDbSymbolTableRecord
100
AcDbDimStyleTableRecord
  2
ISO-25
 70
     0
  3

  4

  5

  6

  7

 40
1.0
 41
2.5
 42
0.625
 43
3.75
 44
1.25
 45
0.0
 46
0.0
 47
0.0
 48
0.0
140
2.5
141
2.5
142
0.0
143
0.03937007874016
144
1.0
145
0.0
146
1.0
147
0.625
 71
     0
 72
     0
 73
     0
 74
     0
 75
     0
 76
     0
 77
     1
 78
     8
170
     0
171
     3
172
     1
173
     0
174
     0
175
     0
176
     0
177
     0
178
     0
270
     2
271
     2
272
     2
273
     2
274
     3
340
11
275
     0
280
     0
281
     0
282
     0
283
     0
284
     8
285
     0
286
     0
287
     3
288
     0
  0
ENDTAB
  0
TABLE
  2
BLOCK_RECORD
  5
1
330
0
100
AcDbSymbolTable
 70
     1
  0
BLOCK_RECORD
  5
1F
330
1
100
AcDbSymbolTableRecord
100
AcDbBlockTableRecord
  2
*MODEL_SPACE
  0
BLOCK_RECORD
  5
1B
330
1
100
AcDbSymbolTableRecord
100
AcDbBlockTableRecord
  2
*PAPER_SPACE
  0
ENDTAB
  0
ENDSEC
  0
SECTION
  2
BLOCKS
  0
BLOCK
  5
20
330
1F
100
AcDbEntity
  8
0
100
AcDbBlockBegin
  2
*MODEL_SPACE
 70
     0
 10
0.0
 20
0.0
 30
0.0
  3
*MODEL_SPACE
  1

  0
ENDBLK
  5
21
330
1F
100
AcDbEntity
  8
0
100
AcDbBlockEnd
  0
BLOCK
  5
1C
330
1B
100
AcDbEntity
 67
     1
  8
0
100
AcDbBlockBegin
  2
*PAPER_SPACE
  1

  0
ENDBLK
  5
1D
330
1B
100
AcDbEntity
 67
     1
  8
0
100
AcDbBlockEnd
  0
ENDSEC
  0
SECTION
  2
ENTITIES
  0
LINE
  5
100
100
AcDbEntity
  8
Layer_1
 62
7
100
AcDbLine
 10
5.951425
 20
130.196257
 30
0.0
 11
13.779564
 21
130.196257
 31
0.0
  0
LINE
  5
101
100
AcDbEntity
  8
Layer_1
 62
7
100
AcDbLine
 10
13.779564
 20
133.293646
 30
0.0
 11
13.779564
 21
130.196257
 31
0.0
  0
LINE
  5
102
100
AcDbEntity
  8
Layer_1
 62
7
100
AcDbLine
 10
13.779564
 20
133.293646
 30
0.0
 11
21.604175
 21
133.293646
 31
0.0
  0
LINE
  5
103
100
AcDbEntity
  8
Layer_1
 62
7
100
AcDbLine
 10
21.604175
 20
133.293646
 30
0.0
 11
21.604175
 21
130.196257
 31
0.0
  0
LINE
  5
104
100
AcDbEntity
  8
Layer_1
 62
7
100
AcDbLine
 10
21.604175
 20
130.196257
 30
0.0
 11
29.432318
 21
130.196257
 31
0.0
  0
LINE
  5
105
100
AcDbEntity
  8
Layer_1
 62
7
100
AcDbLine
 10
29.432318
 20
133.293646
 30
0.0
 11
29.432318
 21
130.196257
 31
0.0
  0
LINE
  5
106
100
AcDbEntity
  8
Layer_1
 62
7
100
AcDbLine
 10
29.432318
 20
133.293646
 30
0.0
 11
37.256929
 21
133.293646
 31
0.0
  0
LINE
  5
107
100
AcDbEntity
  8
Layer_1
 62
7
100
AcDbLine
 10
37.256929
 20
133.293646
 30
0.0
 11
37.256929
 21
130.196257
 31
0.0
  0
LINE
  5
108
100
AcDbEntity
  8
Layer_1
 62
7
100
AcDbLine
 10
37.256929
 20
130.196257
 30
0.0
 11
45.081540
 21
130.196257
 31
0.0
  0
LINE
  5
109
100
AcDbEntity
  8
Layer_1
 62
7
100
AcDbLine
 10
45.081540
 20
133.293646
 30
0.0
 11
45.081540
 21
130.196257
 31
0.0
  0
LINE
  5
10a
100
AcDbEntity
  8
Layer_1
 62
7
100
AcDbLine
 10
45.081540
 20
133.293646
 30
0.0
 11
52.909679
 21
133.293646
 31
0.0
  0
LINE
  5
10b
100
AcDbEntity
  8
Layer_1
 62
7
100
AcDbLine
 10
52.909679
 20
133.293646
 30
0.0
 11
52.909679
 21
130.196257
 31
0.0
  0
LINE
  5
10c
100
AcDbEntity
  8
Layer_1
 62
7
100
AcDbLine
 10
52.909679
 20
130.196257
 30
0.0
 11
60.734290
 21
130.196257
 31
0.0
  0
LINE
  5
10d
100
AcDbEntity
  8
Layer_1
 62
7
100
AcDbLine
 10
60.734290
 20
133.293646
 30
0.0
 11
60.734290
 21
130.196257
 31
0.0
  0
LINE
  5
10e
100
AcDbEntity
  8
Layer_1
 62
7
100
AcDbLine
 10
60.734290
 20
133.293646
 30
0.0
 11
68.562429
 21
133.293646
 31
0.0
  0
LINE
  5
10f
100
AcDbEntity
  8
Layer_1
 62
7
100
AcDbLine
 10
68.562429
 20
133.293646
 30
0.0
 11
68.562429
 21
130.196257
 31
0.0
  0
LINE
  5
110
100
AcDbEntity
  8
Layer_1
 62
7
100
AcDbLine
 10
68.562429
 20
130.196257
 30
0.0
 11
76.387040
 21
130.196257
 31
0.0
  0
LINE
  5
111
100
AcDbEntity
  8
Layer_1
 62
7
100
AcDbLine
 10
76.387040
 20
133.293646
 30
0.0
 11
76.387040
 21
130.196257
 31
0.0
  0
LINE
  5
112
100
AcDbEntity
  8
Layer_1
 62
7
100
AcDbLine
 10
76.387040
 20
133.293646
 30
0.0
 11
84.211651
 21
133.293646
 31
0.0
  0
LINE
  5
113
100
AcDbEntity
  8
Layer_1
 62
7
100
AcDbLine
 10
84.211651
 20
133.293646
 30
0.0
 11
84.211651
 21
130.196257
 31
0.0
  0
LINE
  5
114
100
AcDbEntity
  8
Layer_1
 62
7
100
AcDbLine
 10
84.211651
 20
130.196257
 30
0.0
 11
92.039790
 21
130.196257
 31
0.0
  0
LINE
  5
115
100
AcDbEntity
  8
Layer_1
 62
7
100
AcDbLine
 10
92.039790
 20
133.293646
 30
0.0
 11
92.039790
 21
130.196257
 31
0.0
  0
LINE
  5
116
100
AcDbEntity
  8
Layer_1
 62
7
100
AcDbLine
 10
92.039790
 20
133.293646
 30
0.0
 11
99.864401
 21
133.293646
 31
0.0
  0
LINE
  5
117
100
AcDbEntity
  8
Layer_1
 62
7
100
AcDbLine
 10
99.864401
 20
133.293646
 30
0.0
 11
99.864401
 21
130.196257
 31
0.0
  0
LINE
  5
118
100
AcDbEntity
  8
Layer_1
 62
7
100
AcDbLine
 10
99.864401
 20
130.196257
 30
0.0
 11
107.692540
 21
130.196257
 31
0.0
  0
LINE
  5
119
100
AcDbEntity
  8
Layer_1
 62
7
100
AcDbLine
 10
107.692540
 20
133.293646
 30
0.0
 11
107.692540
 21
130.196257
 31
0.0
  0
LINE
  5
11a
100
AcDbEntity
  8
Layer_1
 62
7
100
AcDbLine
 10
107.692540
 20
133.293646
 30
0.0
 11
115.517151
 21
133.293646
 31
0.0
  0
LINE
  5
11b
100
AcDbEntity
  8
Layer_1
 62
7
100
AcDbLine
 10
115.517151
 20
133.293646
 30
0.0
 11
115.517151
 21
130.196257
 31
0.0
  0
LINE
  5
11c
100
AcDbEntity
  8
Layer_1
 62
7
100
AcDbLine
 10
115.517151
 20
130.196257
 30
0.0
 11
123.345290
 21
130.196257
 31
0.0
  0
LINE
  5
11d
100
AcDbEntity
  8
Layer_1
 62
7
100
AcDbLine
 10
123.345290
 20
133.293646
 30
0.0
 11
123.345290
 21
130.196257
 31
0.0
  0
LINE
  5
11e
100
AcDbEntity
  8
Layer_1
 62
7
100
AcDbLine
 10
123.345290
 20
133.293646
 30
0.0
 11
131.169901
 21
133.293646
 31
0.0
  0
LINE
  5
11f
100
AcDbEntity
  8
Layer_1
 62
7
100
AcDbLine
 10
131.169901
 20
133.293646
 30
0.0
 11
131.169901
 21
130.196257
 31
0.0
  0
LINE
  5
120
100
AcDbEntity
  8
Layer_1
 62
7
100
AcDbLine
 10
131.169901
 20
130.196257
 30
0.0
 11
138.994512
 21
130.196257
 31
0.0
  0
LINE
  5
121
100
AcDbEntity
  8
Layer_1
 62
7
100
AcDbLine
 10
138.994512
 20
133.293646
 30
0.0
 11
138.994512
 21
130.196257
 31
0.0
  0
LINE
  5
122
100
AcDbEntity
  8
Layer_1
 62
7
100
AcDbLine
 10
138.994512
 20
133.293646
 30
0.0
 11
146.822651
 21
133.293646
 31
0.0
  0
LINE
  5
123
100
AcDbEntity
  8
Layer_1
 62
7
100
AcDbLine
 10
146.822651
 20
133.293646
 30
0.0
 11
146.822651
 21
130.196257
 31
0.0
  0
LINE
  5
124
100
AcDbEntity
  8
Layer_1
 62
7
100
AcDbLine
 10
146.822651
 20
130.196257
 30
0.0
 11
154.647262
 21
130.196257
 31
0.0
  0
LINE
  5
125
100
AcDbEntity
  8
Layer_1
 62
7
100
AcDbLine
 10
154.647262
 20
133.293646
 30
0.0
 11
154.647262
 21
130.196257
 31
0.0
  0
LINE
  5
126
100
AcDbEntity
  8
Layer_1
 62
7
100
AcDbLine
 10
154.647262
 20
133.293646
 30
0.0
 11
162.475401
 21
133.293646
 31
0.0
  0
LINE
  5
127
100
AcDbEntity
  8
Layer_1
 62
7
100
AcDbLine
 10
162.475401
 20
133.293646
 30
0.0
 11
162.475401
 21
130.196257
 31
0.0
  0
LINE
  5
128
100
AcDbEntity
  8
Layer_1
 62
7
100
AcDbLine
 10
162.475401
 20
130.196257
 30
0.0
 11
170.300012
 21
130.196257
 31
0.0
  0
LINE
  5
129
100
AcDbEntity
  8
Layer_1
 62
7
100
AcDbLine
 10
170.300012
 20
133.293646
 30
0.0
 11
170.300012
 21
130.196257
 31
0.0
  0
LINE
  5
12a
100
AcDbEntity
  8
Layer_1
 62
7
100
AcDbLine
 10
170.300012
 20
133.293646
 30
0.0
 11
178.124623
 21
133.293646
 31
0.0
  0
LINE
  5
12b
100
AcDbEntity
  8
Layer_1
 62
7
100
AcDbLine
 10
178.124623
 20
133.293646
 30
0.0
 11
178.124623
 21
130.196257
 31
0.0
  0
LINE
  5
12c
100
AcDbEntity
  8
Layer_1
 62
7
100
AcDbLine
 10
178.124623
 20
130.196257
 30
0.0
 11
182.851846
 21
130.196257
 31
0.0
  0
LINE
  5
12d
100
AcDbEntity
  8
Layer_1
 62
7
100
AcDbLine
 10
5.951425
 20
174.695646
 30
0.0
 11
13.779564
 21
174.695646
 31
0.0
  0
LINE
  5
12e
100
AcDbEntity
  8
Layer_1
 62
7
100
AcDbLine
 10
13.779564
 20
174.695646
 30
0.0
 11
13.779564
 21
171.594729
 31
0.0
  0
LINE
  5
12f
100
AcDbEntity
  8
Layer_1
 62
7
100
AcDbLine
 10
13.779564
 20
171.594729
 30
0.0
 11
21.604175
 21
171.594729
 31
0.0
  0
LINE
  5
130
100
AcDbEntity
  8
Layer_1
 62
7
100
AcDbLine
 10
21.604175
 20
174.695646
 30
0.0
 11
21.604175
 21
171.594729
 31
0.0
  0
LINE
  5
131
100
AcDbEntity
  8
Layer_1
 62
7
100
AcDbLine
 10
21.604175
 20
174.695646
 30
0.0
 11
29.432318
 21
174.695646
 31
0.0
  0
LINE
  5
132
100
AcDbEntity
  8
Layer_1
 62
7
100
AcDbLine
 10
29.432318
 20
174.695646
 30
0.0
 11
29.432318
 21
171.594729
 31
0.0
  0
LINE
  5
133
100
AcDbEntity
  8
Layer_1
 62
7
100
AcDbLine
 10
29.432318
 20
171.594729
 30
0.0
 11
37.256929
 21
171.594729
 31
0.0
  0
LINE
  5
134
100
AcDbEntity
  8
Layer_1
 62
7
100
AcDbLine
 10
37.256929
 20
174.695646
 30
0.0
 11
37.256929
 21
171.594729
 31
0.0
  0
LINE
  5
135
100
AcDbEntity
  8
Layer_1
 62
7
100
AcDbLine
 10
37.256929
 20
174.695646
 30
0.0
 11
45.081540
 21
174.695646
 31
0.0
  0
LINE
  5
136
100
AcDbEntity
  8
Layer_1
 62
7
100
AcDbLine
 10
45.081540
 20
174.695646
 30
0.0
 11
45.081540
 21
171.594729
 31
0.0
  0
LINE
  5
137
100
AcDbEntity
  8
Layer_1
 62
7
100
AcDbLine
 10
45.081540
 20
171.594729
 30
0.0
 11
52.909679
 21
171.594729
 31
0.0
  0
LINE
  5
138
100
AcDbEntity
  8
Layer_1
 62
7
100
AcDbLine
 10
52.909679
 20
174.695646
 30
0.0
 11
52.909679
 21
171.594729
 31
0.0
  0
LINE
  5
139
100
AcDbEntity
  8
Layer_1
 62
7
100
AcDbLine
 10
52.909679
 20
174.695646
 30
0.0
 11
60.734290
 21
174.695646
 31
0.0
  0
LINE
  5
13a
100
AcDbEntity
  8
Layer_1
 62
7
100
AcDbLine
 10
60.734290
 20
174.695646
 30
0.0
 11
60.734290
 21
171.594729
 31
0.0
  0
LINE
  5
13b
100
AcDbEntity
  8
Layer_1
 62
7
100
AcDbLine
 10
60.734290
 20
171.594729
 30
0.0
 11
68.562429
 21
171.594729
 31
0.0
  0
LINE
  5
13c
100
AcDbEntity
  8
Layer_1
 62
7
100
AcDbLine
 10
68.562429
 20
174.695646
 30
0.0
 11
68.562429
 21
171.594729
 31
0.0
  0
LINE
  5
13d
100
AcDbEntity
  8
Layer_1
 62
7
100
AcDbLine
 10
68.562429
 20
174.695646
 30
0.0
 11
76.387040
 21
174.695646
 31
0.0
  0
LINE
  5
13e
100
AcDbEntity
  8
Layer_1
 62
7
100
AcDbLine
 10
76.387040
 20
174.695646
 30
0.0
 11
76.387040
 21
171.594729
 31
0.0
  0
LINE
  5
13f
100
AcDbEntity
  8
Layer_1
 62
7
100
AcDbLine
 10
76.387040
 20
171.594729
 30
0.0
 11
84.211651
 21
171.594729
 31
0.0
  0
LINE
  5
140
100
AcDbEntity
  8
Layer_1
 62
7
100
AcDbLine
 10
84.211651
 20
174.695646
 30
0.0
 11
84.211651
 21
171.594729
 31
0.0
  0
LINE
  5
141
100
AcDbEntity
  8
Layer_1
 62
7
100
AcDbLine
 10
84.211651
 20
174.695646
 30
0.0
 11
92.039790
 21
174.695646
 31
0.0
  0
LINE
  5
142
100
AcDbEntity
  8
Layer_1
 62
7
100
AcDbLine
 10
92.039790
 20
174.695646
 30
0.0
 11
92.039790
 21
171.594729
 31
0.0
  0
LINE
  5
143
100
AcDbEntity
  8
Layer_1
 62
7
100
AcDbLine
 10
92.039790
 20
171.594729
 30
0.0
 11
99.864401
 21
171.594729
 31
0.0
  0
LINE
  5
144
100
AcDbEntity
  8
Layer_1
 62
7
100
AcDbLine
 10
99.864401
 20
174.695646
 30
0.0
 11
99.864401
 21
171.594729
 31
0.0
  0
LINE
  5
145
100
AcDbEntity
  8
Layer_1
 62
7
100
AcDbLine
 10
99.864401
 20
174.695646
 30
0.0
 11
107.692540
 21
174.695646
 31
0.0
  0
LINE
  5
146
100
AcDbEntity
  8
Layer_1
 62
7
100
AcDbLine
 10
107.692540
 20
174.695646
 30
0.0
 11
107.692540
 21
171.594729
 31
0.0
  0
LINE
  5
147
100
AcDbEntity
  8
Layer_1
 62
7
100
AcDbLine
 10
107.692540
 20
171.594729
 30
0.0
 11
115.517151
 21
171.594729
 31
0.0
  0
LINE
  5
148
100
AcDbEntity
  8
Layer_1
 62
7
100
AcDbLine
 10
115.517151
 20
174.695646
 30
0.0
 11
115.517151
 21
171.594729
 31
0.0
  0
LINE
  5
149
100
AcDbEntity
  8
Layer_1
 62
7
100
AcDbLine
 10
115.517151
 20
174.695646
 30
0.0
 11
123.345290
 21
174.695646
 31
0.0
  0
LINE
  5
14a
100
AcDbEntity
  8
Layer_1
 62
7
100
AcDbLine
 10
123.345290
 20
174.695646
 30
0.0
 11
123.345290
 21
171.594729
 31
0.0
  0
LINE
  5
14b
100
AcDbEntity
  8
Layer_1
 62
7
100
AcDbLine
 10
123.345290
 20
171.594729
 30
0.0
 11
131.169901
 21
171.594729
 31
0.0
  0
LINE
  5
14c
100
AcDbEntity
  8
Layer_1
 62
7
100
AcDbLine
 10
131.169901
 20
174.695646
 30
0.0
 11
131.169901
 21
171.594729
 31
0.0
  0
LINE
  5
14d
100
AcDbEntity
  8
Layer_1
 62
7
100
AcDbLine
 10
131.169901
 20
174.695646
 30
0.0
 11
138.994512
 21
174.695646
 31
0.0
  0
LINE
  5
14e
100
AcDbEntity
  8
Layer_1
 62
7
100
AcDbLine
 10
138.994512
 20
174.695646
 30
0.0
 11
138.994512
 21
171.594729
 31
0.0
  0
LINE
  5
14f
100
AcDbEntity
  8
Layer_1
 62
7
100
AcDbLine
 10
138.994512
 20
171.594729
 30
0.0
 11
146.822651
 21
171.594729
 31
0.0
  0
LINE
  5
150
100
AcDbEntity
  8
Layer_1
 62
7
100
AcDbLine
 10
146.822651
 20
174.695646
 30
0.0
 11
146.822651
 21
171.594729
 31
0.0
  0
LINE
  5
151
100
AcDbEntity
  8
Layer_1
 62
7
100
AcDbLine
 10
146.822651
 20
174.695646
 30
0.0
 11
154.647262
 21
174.695646
 31
0.0
  0
LINE
  5
152
100
AcDbEntity
  8
Layer_1
 62
7
100
AcDbLine
 10
154.647262
 20
174.695646
 30
0.0
 11
154.647262
 21
171.594729
 31
0.0
  0
LINE
  5
153
100
AcDbEntity
  8
Layer_1
 62
7
100
AcDbLine
 10
154.647262
 20
171.594729
 30
0.0
 11
162.475401
 21
171.594729
 31
0.0
  0
LINE
  5
154
100
AcDbEntity
  8
Layer_1
 62
7
100
AcDbLine
 10
162.475401
 20
174.695646
 30
0.0
 11
162.475401
 21
171.594729
 31
0.0
  0
LINE
  5
155
100
AcDbEntity
  8
Layer_1
 62
7
100
AcDbLine
 10
162.475401
 20
174.695646
 30
0.0
 11
170.300012
 21
174.695646
 31
0.0
  0
LINE
  5
156
100
AcDbEntity
  8
Layer_1
 62
7
100
AcDbLine
 10
170.300012
 20
174.695646
 30
0.0
 11
170.300012
 21
171.594729
 31
0.0
  0
LINE
  5
157
100
AcDbEntity
  8
Layer_1
 62
7
100
AcDbLine
 10
170.300012
 20
171.594729
 30
0.0
 11
178.124623
 21
171.594729
 31
0.0
  0
LINE
  5
158
100
AcDbEntity
  8
Layer_1
 62
7
100
AcDbLine
 10
178.124623
 20
174.695646
 30
0.0
 11
178.124623
 21
171.594729
 31
0.0
  0
LINE
  5
159
100
AcDbEntity
  8
Layer_1
 62
7
100
AcDbLine
 10
178.124623
 20
174.695646
 30
0.0
 11
182.851846
 21
174.695646
 31
0.0
  0
LINE
  5
15a
100
AcDbEntity
  8
Layer_1
 62
7
100
AcDbLine
 10
5.951425
 20
130.196257
 30
0.0
 11
5.951425
 21
139.093313
 31
0.0
  0
LINE
  5
15b
100
AcDbEntity
  8
Layer_1
 62
7
100
AcDbLine
 10
9.052342
 20
139.093313
 30
0.0
 11
5.951425
 21
139.093313
 31
0.0
  0
LINE
  5
15c
100
AcDbEntity
  8
Layer_1
 62
7
100
AcDbLine
 10
9.052342
 20
139.093313
 30
0.0
 11
9.052342
 21
147.993896
 31
0.0
  0
LINE
  5
15d
100
AcDbEntity
  8
Layer_1
 62
7
100
AcDbLine
 10
9.052342
 20
147.993896
 30
0.0
 11
5.951425
 21
147.993896
 31
0.0
  0
LINE
  5
15e
100
AcDbEntity
  8
Layer_1
 62
7
100
AcDbLine
 10
5.951425
 20
147.993896
 30
0.0
 11
5.951425
 21
156.894479
 31
0.0
  0
LINE
  5
15f
100
AcDbEntity
  8
Layer_1
 62
7
100
AcDbLine
 10
9.052342
 20
156.894479
 30
0.0
 11
5.951425
 21
156.894479
 31
0.0
  0
LINE
  5
160
100
AcDbEntity
  8
Layer_1
 62
7
100
AcDbLine
 10
9.052342
 20
156.894479
 30
0.0
 11
9.052342
 21
165.795063
 31
0.0
  0
LINE
  5
161
100
AcDbEntity
  8
Layer_1
 62
7
100
AcDbLine
 10
9.052342
 20
165.795063
 30
0.0
 11
5.951425
 21
165.795063
 31
0.0
  0
LINE
  5
162
100
AcDbEntity
  8
Layer_1
 62
7
100
AcDbLine
 10
5.951425
 20
165.795063
 30
0.0
 11
5.951425
 21
174.695646
 31
0.0
  0
LINE
  5
163
100
AcDbEntity
  8
Layer_1
 62
7
100
AcDbLine
 10
182.851846
 20
130.196257
 30
0.0
 11
182.851846
 21
139.093313
 31
0.0
  0
LINE
  5
164
100
AcDbEntity
  8
Layer_1
 62
7
100
AcDbLine
 10
185.952762
 20
139.093313
 30
0.0
 11
182.851846
 21
139.093313
 31
0.0
  0
LINE
  5
165
100
AcDbEntity
  8
Layer_1
 62
7
100
AcDbLine
 10
185.952762
 20
139.093313
 30
0.0
 11
185.952762
 21
147.993896
 31
0.0
  0
LINE
  5
166
100
AcDbEntity
  8
Layer_1
 62
7
100
AcDbLine
 10
185.952762
 20
147.993896
 30
0.0
 11
182.851846
 21
147.993896
 31
0.0
  0
LINE
  5
167
100
AcDbEntity
  8
Layer_1
 62
7
100
AcDbLine
 10
182.851846
 20
147.993896
 30
0.0
 11
182.851846
 21
156.894479
 31
0.0
  0
LINE
  5
168
100
AcDbEntity
  8
Layer_1
 62
7
100
AcDbLine
 10
185.952762
 20
156.894479
 30
0.0
 11
182.851846
 21
156.894479
 31
0.0
  0
LINE
  5
169
100
AcDbEntity
  8
Layer_1
 62
7
100
AcDbLine
 10
185.952762
 20
156.894479
 30
0.0
 11
185.952762
 21
165.795063
 31
0.0
  0
LINE
  5
16a
100
AcDbEntity
  8
Layer_1
 62
7
100
AcDbLine
 10
185.952762
 20
165.795063
 30
0.0
 11
182.851846
 21
165.795063
 31
0.0
  0
LINE
  5
16b
100
AcDbEntity
  8
Layer_1
 62
7
100
AcDbLine
 10
182.851846
 20
165.795063
 30
0.0
 11
182.851846
 21
174.695646
 31
0.0
  0
LINE
  5
16c
100
AcDbEntity
  8
Layer_1
 62
7
100
AcDbLine
 10
47.874078
 20
95.913440
 30
0.0
 11
47.874078
 21
106.496787
 31
0.0
  0
LINE
  5
16d
100
AcDbEntity
  8
Layer_1
 62
7
100
AcDbLine
 10
44.773161
 20
106.496787
 30
0.0
 11
47.874078
 21
106.496787
 31
0.0
  0
LINE
  5
16e
100
AcDbEntity
  8
Layer_1
 62
7
100
AcDbLine
 10
44.773161
 20
106.496787
 30
0.0
 11
44.773161
 21
117.080120
 31
0.0
  0
LINE
  5
16f
100
AcDbEntity
  8
Layer_1
 62
7
100
AcDbLine
 10
44.773161
 20
117.080120
 30
0.0
 11
47.874078
 21
117.080120
 31
0.0
  0
LINE
  5
170
100
AcDbEntity
  8
Layer_1
 62
7
100
AcDbLine
 10
47.874078
 20
117.080120
 30
0.0
 11
47.874078
 21
124.562537
 31
0.0
  0
LINE
  5
171
100
AcDbEntity
  8
Layer_1
 62
7
100
AcDbLine
 10
3.371149
 20
95.913440
 30
0.0
 11
3.371149
 21
106.496787
 31
0.0
  0
LINE
  5
172
100
AcDbEntity
  8
Layer_1
 62
7
100
AcDbLine
 10
3.371149
 20
106.496787
 30
0.0
 11
6.472066
 21
106.496787
 31
0.0
  0
LINE
  5
173
100
AcDbEntity
  8
Layer_1
 62
7
100
AcDbLine
 10
6.472066
 20
106.496787
 30
0.0
 11
6.472066
 21
117.080120
 31
0.0
  0
LINE
  5
174
100
AcDbEntity
  8
Layer_1
 62
7
100
AcDbLine
 10
3.371149
 20
117.080120
 30
0.0
 11
6.472066
 21
117.080120
 31
0.0
  0
LINE
  5
175
100
AcDbEntity
  8
Layer_1
 62
7
100
AcDbLine
 10
3.371149
 20
117.080120
 30
0.0
 11
3.371149
 21
124.562537
 31
0.0
  0
LINE
  5
176
100
AcDbEntity
  8
Layer_1
 62
7
100
AcDbLine
 10
47.874078
 20
95.913440
 30
0.0
 11
38.973495
 21
95.913440
 31
0.0
  0
LINE
  5
177
100
AcDbEntity
  8
Layer_1
 62
7
100
AcDbLine
 10
38.973495
 20
99.010828
 30
0.0
 11
38.973495
 21
95.913440
 31
0.0
  0
LINE
  5
178
100
AcDbEntity
  8
Layer_1
 62
7
100
AcDbLine
 10
38.973495
 20
99.010828
 30
0.0
 11
30.072911
 21
99.010828
 31
0.0
  0
LINE
  5
179
100
AcDbEntity
  8
Layer_1
 62
7
100
AcDbLine
 10
30.072911
 20
99.010828
 30
0.0
 11
30.072911
 21
95.913440
 31
0.0
  0
LINE
  5
17a
100
AcDbEntity
  8
Layer_1
 62
7
100
AcDbLine
 10
30.072911
 20
95.913440
 30
0.0
 11
21.172327
 21
95.913440
 31
0.0
  0
LINE
  5
17b
100
AcDbEntity
  8
Layer_1
 62
7
100
AcDbLine
 10
21.172327
 20
99.010828
 30
0.0
 11
21.172327
 21
95.913440
 31
0.0
  0
LINE
  5
17c
100
AcDbEntity
  8
Layer_1
 62
7
100
AcDbLine
 10
21.172327
 20
99.010828
 30
0.0
 11
12.271744
 21
99.010828
 31
0.0
  0
LINE
  5
17d
100
AcDbEntity
  8
Layer_1
 62
7
100
AcDbLine
 10
12.271744
 20
99.010828
 30
0.0
 11
12.271744
 21
95.913440
 31
0.0
  0
LINE
  5
17e
100
AcDbEntity
  8
Layer_1
 62
7
100
AcDbLine
 10
12.271744
 20
95.913440
 30
0.0
 11
3.371149
 21
95.913440
 31
0.0
  0
LINE
  5
17f
100
AcDbEntity
  8
Layer_1
 62
7
100
AcDbLine
 10
47.874078
 20
124.562537
 30
0.0
 11
38.973495
 21
124.562537
 31
0.0
  0
LINE
  5
180
100
AcDbEntity
  8
Layer_1
 62
7
100
AcDbLine
 10
38.973495
 20
127.663454
 30
0.0
 11
38.973495
 21
124.562537
 31
0.0
  0
LINE
  5
181
100
AcDbEntity
  8
Layer_1
 62
7
100
AcDbLine
 10
38.973495
 20
127.663454
 30
0.0
 11
30.072911
 21
127.663454
 31
0.0
  0
LINE
  5
182
100
AcDbEntity
  8
Layer_1
 62
7
100
AcDbLine
 10
30.072911
 20
127.663454
 30
0.0
 11
30.072911
 21
124.562537
 31
0.0
  0
LINE
  5
183
100
AcDbEntity
  8
Layer_1
 62
7
100
AcDbLine
 10
30.072911
 20
124.562537
 30
0.0
 11
21.172327
 21
124.562537
 31
0.0
  0
LINE
  5
184
100
AcDbEntity
  8
Layer_1
 62
7
100
AcDbLine
 10
21.172327
 20
127.663454
 30
0.0
 11
21.172327
 21
124.562537
 31
0.0
  0
LINE
  5
185
100
AcDbEntity
  8
Layer_1
 62
7
100
AcDbLine
 10
21.172327
 20
127.663454
 30
0.0
 11
12.271744
 21
127.663454
 31
0.0
  0
LINE
  5
186
100
AcDbEntity
  8
Layer_1
 62
7
100
AcDbLine
 10
12.271744
 20
127.663454
 30
0.0
 11
12.271744
 21
124.562537
 31
0.0
  0
LINE
  5
187
100
AcDbEntity
  8
Layer_1
 62
7
100
AcDbLine
 10
12.271744
 20
124.562537
 30
0.0
 11
3.371149
 21
124.562537
 31
0.0
  0
LINE
  5
188
100
AcDbEntity
  8
Layer_1
 62
7
100
AcDbLine
 10
9.052342
 20
179.892063
 30
0.0
 11
13.779564
 21
179.892063
 31
0.0
  0
LINE
  5
189
100
AcDbEntity
  8
Layer_1
 62
7
100
AcDbLine
 10
13.779564
 20
179.892063
 30
0.0
 11
13.779564
 21
176.791146
 31
0.0
  0
LINE
  5
18a
100
AcDbEntity
  8
Layer_1
 62
7
100
AcDbLine
 10
13.779564
 20
176.791146
 30
0.0
 11
21.604175
 21
176.791146
 31
0.0
  0
LINE
  5
18b
100
AcDbEntity
  8
Layer_1
 62
7
100
AcDbLine
 10
21.604175
 20
179.892063
 30
0.0
 11
21.604175
 21
176.791146
 31
0.0
  0
LINE
  5
18c
100
AcDbEntity
  8
Layer_1
 62
7
100
AcDbLine
 10
21.604175
 20
179.892063
 30
0.0
 11
29.432318
 21
179.892063
 31
0.0
  0
LINE
  5
18d
100
AcDbEntity
  8
Layer_1
 62
7
100
AcDbLine
 10
29.432318
 20
179.892063
 30
0.0
 11
29.432318
 21
176.791146
 31
0.0
  0
LINE
  5
18e
100
AcDbEntity
  8
Layer_1
 62
7
100
AcDbLine
 10
29.432318
 20
176.791146
 30
0.0
 11
37.256929
 21
176.791146
 31
0.0
  0
LINE
  5
18f
100
AcDbEntity
  8
Layer_1
 62
7
100
AcDbLine
 10
37.256929
 20
179.892063
 30
0.0
 11
37.256929
 21
176.791146
 31
0.0
  0
LINE
  5
190
100
AcDbEntity
  8
Layer_1
 62
7
100
AcDbLine
 10
37.256929
 20
179.892063
 30
0.0
 11
45.081540
 21
179.892063
 31
0.0
  0
LINE
  5
191
100
AcDbEntity
  8
Layer_1
 62
7
100
AcDbLine
 10
45.081540
 20
179.892063
 30
0.0
 11
45.081540
 21
176.791146
 31
0.0
  0
LINE
  5
192
100
AcDbEntity
  8
Layer_1
 62
7
100
AcDbLine
 10
45.081540
 20
176.791146
 30
0.0
 11
52.909679
 21
176.791146
 31
0.0
  0
LINE
  5
193
100
AcDbEntity
  8
Layer_1
 62
7
100
AcDbLine
 10
52.909679
 20
179.892063
 30
0.0
 11
52.909679
 21
176.791146
 31
0.0
  0
LINE
  5
194
100
AcDbEntity
  8
Layer_1
 62
7
100
AcDbLine
 10
52.909679
 20
179.892063
 30
0.0
 11
60.734290
 21
179.892063
 31
0.0
  0
LINE
  5
195
100
AcDbEntity
  8
Layer_1
 62
7
100
AcDbLine
 10
60.734290
 20
179.892063
 30
0.0
 11
60.734290
 21
176.791146
 31
0.0
  0
LINE
  5
196
100
AcDbEntity
  8
Layer_1
 62
7
100
AcDbLine
 10
60.734290
 20
176.791146
 30
0.0
 11
68.562429
 21
176.791146
 31
0.0
  0
LINE
  5
197
100
AcDbEntity
  8
Layer_1
 62
7
100
AcDbLine
 10
68.562429
 20
179.892063
 30
0.0
 11
68.562429
 21
176.791146
 31
0.0
  0
LINE
  5
198
100
AcDbEntity
  8
Layer_1
 62
7
100
AcDbLine
 10
68.562429
 20
179.892063
 30
0.0
 11
76.387040
 21
179.892063
 31
0.0
  0
LINE
  5
199
100
AcDbEntity
  8
Layer_1
 62
7
100
AcDbLine
 10
76.387040
 20
179.892063
 30
0.0
 11
76.387040
 21
176.791146
 31
0.0
  0
LINE
  5
19a
100
AcDbEntity
  8
Layer_1
 62
7
100
AcDbLine
 10
76.387040
 20
176.791146
 30
0.0
 11
84.211651
 21
176.791146
 31
0.0
  0
LINE
  5
19b
100
AcDbEntity
  8
Layer_1
 62
7
100
AcDbLine
 10
84.211651
 20
179.892063
 30
0.0
 11
84.211651
 21
176.791146
 31
0.0
  0
LINE
  5
19c
100
AcDbEntity
  8
Layer_1
 62
7
100
AcDbLine
 10
84.211651
 20
179.892063
 30
0.0
 11
92.039790
 21
179.892063
 31
0.0
  0
LINE
  5
19d
100
AcDbEntity
  8
Layer_1
 62
7
100
AcDbLine
 10
92.039790
 20
179.892063
 30
0.0
 11
92.039790
 21
176.791146
 31
0.0
  0
LINE
  5
19e
100
AcDbEntity
  8
Layer_1
 62
7
100
AcDbLine
 10
92.039790
 20
176.791146
 30
0.0
 11
99.864401
 21
176.791146
 31
0.0
  0
LINE
  5
19f
100
AcDbEntity
  8
Layer_1
 62
7
100
AcDbLine
 10
99.864401
 20
179.892063
 30
0.0
 11
99.864401
 21
176.791146
 31
0.0
  0
LINE
  5
1a0
100
AcDbEntity
  8
Layer_1
 62
7
100
AcDbLine
 10
99.864401
 20
179.892063
 30
0.0
 11
107.692540
 21
179.892063
 31
0.0
  0
LINE
  5
1a1
100
AcDbEntity
  8
Layer_1
 62
7
100
AcDbLine
 10
107.692540
 20
179.892063
 30
0.0
 11
107.692540
 21
176.791146
 31
0.0
  0
LINE
  5
1a2
100
AcDbEntity
  8
Layer_1
 62
7
100
AcDbLine
 10
107.692540
 20
176.791146
 30
0.0
 11
115.517151
 21
176.791146
 31
0.0
  0
LINE
  5
1a3
100
AcDbEntity
  8
Layer_1
 62
7
100
AcDbLine
 10
115.517151
 20
179.892063
 30
0.0
 11
115.517151
 21
176.791146
 31
0.0
  0
LINE
  5
1a4
100
AcDbEntity
  8
Layer_1
 62
7
100
AcDbLine
 10
115.517151
 20
179.892063
 30
0.0
 11
123.345290
 21
179.892063
 31
0.0
  0
LINE
  5
1a5
100
AcDbEntity
  8
Layer_1
 62
7
100
AcDbLine
 10
123.345290
 20
179.892063
 30
0.0
 11
123.345290
 21
176.791146
 31
0.0
  0
LINE
  5
1a6
100
AcDbEntity
  8
Layer_1
 62
7
100
AcDbLine
 10
123.345290
 20
176.791146
 30
0.0
 11
131.169901
 21
176.791146
 31
0.0
  0
LINE
  5
1a7
100
AcDbEntity
  8
Layer_1
 62
7
100
AcDbLine
 10
131.169901
 20
179.892063
 30
0.0
 11
131.169901
 21
176.791146
 31
0.0
  0
LINE
  5
1a8
100
AcDbEntity
  8
Layer_1
 62
7
100
AcDbLine
 10
131.169901
 20
179.892063
 30
0.0
 11
138.994512
 21
179.892063
 31
0.0
  0
LINE
  5
1a9
100
AcDbEntity
  8
Layer_1
 62
7
100
AcDbLine
 10
138.994512
 20
179.892063
 30
0.0
 11
138.994512
 21
176.791146
 31
0.0
  0
LINE
  5
1aa
100
AcDbEntity
  8
Layer_1
 62
7
100
AcDbLine
 10
138.994512
 20
176.791146
 30
0.0
 11
146.822651
 21
176.791146
 31
0.0
  0
LINE
  5
1ab
100
AcDbEntity
  8
Layer_1
 62
7
100
AcDbLine
 10
146.822651
 20
179.892063
 30
0.0
 11
146.822651
 21
176.791146
 31
0.0
  0
LINE
  5
1ac
100
AcDbEntity
  8
Layer_1
 62
7
100
AcDbLine
 10
146.822651
 20
179.892063
 30
0.0
 11
154.647262
 21
179.892063
 31
0.0
  0
LINE
  5
1ad
100
AcDbEntity
  8
Layer_1
 62
7
100
AcDbLine
 10
154.647262
 20
179.892063
 30
0.0
 11
154.647262
 21
176.791146
 31
0.0
  0
LINE
  5
1ae
100
AcDbEntity
  8
Layer_1
 62
7
100
AcDbLine
 10
154.647262
 20
176.791146
 30
0.0
 11
162.475401
 21
176.791146
 31
0.0
  0
LINE
  5
1af
100
AcDbEntity
  8
Layer_1
 62
7
100
AcDbLine
 10
162.475401
 20
179.892063
 30
0.0
 11
162.475401
 21
176.791146
 31
0.0
  0
LINE
  5
1b0
100
AcDbEntity
  8
Layer_1
 62
7
100
AcDbLine
 10
162.475401
 20
179.892063
 30
0.0
 11
170.300012
 21
179.892063
 31
0.0
  0
LINE
  5
1b1
100
AcDbEntity
  8
Layer_1
 62
7
100
AcDbLine
 10
170.300012
 20
179.892063
 30
0.0
 11
170.300012
 21
176.791146
 31
0.0
  0
LINE
  5
1b2
100
AcDbEntity
  8
Layer_1
 62
7
100
AcDbLine
 10
170.300012
 20
176.791146
 30
0.0
 11
178.124623
 21
176.791146
 31
0.0
  0
LINE
  5
1b3
100
AcDbEntity
  8
Layer_1
 62
7
100
AcDbLine
 10
178.124623
 20
179.892063
 30
0.0
 11
178.124623
 21
176.791146
 31
0.0
  0
LINE
  5
1b4
100
AcDbEntity
  8
Layer_1
 62
7
100
AcDbLine
 10
178.124623
 20
179.892063
 30
0.0
 11
182.851846
 21
179.892063
 31
0.0
  0
LINE
  5
1b5
100
AcDbEntity
  8
Layer_1
 62
7
100
AcDbLine
 10
9.052342
 20
205.443757
 30
0.0
 11
13.779564
 21
205.443757
 31
0.0
  0
LINE
  5
1b6
100
AcDbEntity
  8
Layer_1
 62
7
100
AcDbLine
 10
13.779564
 20
208.541146
 30
0.0
 11
13.779564
 21
205.443757
 31
0.0
  0
LINE
  5
1b7
100
AcDbEntity
  8
Layer_1
 62
7
100
AcDbLine
 10
13.779564
 20
208.541146
 30
0.0
 11
21.604175
 21
208.541146
 31
0.0
  0
LINE
  5
1b8
100
AcDbEntity
  8
Layer_1
 62
7
100
AcDbLine
 10
21.604175
 20
208.541146
 30
0.0
 11
21.604175
 21
205.443757
 31
0.0
  0
LINE
  5
1b9
100
AcDbEntity
  8
Layer_1
 62
7
100
AcDbLine
 10
21.604175
 20
205.443757
 30
0.0
 11
29.432318
 21
205.443757
 31
0.0
  0
LINE
  5
1ba
100
AcDbEntity
  8
Layer_1
 62
7
100
AcDbLine
 10
29.432318
 20
208.541146
 30
0.0
 11
29.432318
 21
205.443757
 31
0.0
  0
LINE
  5
1bb
100
AcDbEntity
  8
Layer_1
 62
7
100
AcDbLine
 10
29.432318
 20
208.541146
 30
0.0
 11
37.256929
 21
208.541146
 31
0.0
  0
LINE
  5
1bc
100
AcDbEntity
  8
Layer_1
 62
7
100
AcDbLine
 10
37.256929
 20
208.541146
 30
0.0
 11
37.256929
 21
205.443757
 31
0.0
  0
LINE
  5
1bd
100
AcDbEntity
  8
Layer_1
 62
7
100
AcDbLine
 10
37.256929
 20
205.443757
 30
0.0
 11
45.081540
 21
205.443757
 31
0.0
  0
LINE
  5
1be
100
AcDbEntity
  8
Layer_1
 62
7
100
AcDbLine
 10
45.081540
 20
208.541146
 30
0.0
 11
45.081540
 21
205.443757
 31
0.0
  0
LINE
  5
1bf
100
AcDbEntity
  8
Layer_1
 62
7
100
AcDbLine
 10
45.081540
 20
208.541146
 30
0.0
 11
52.909679
 21
208.541146
 31
0.0
  0
LINE
  5
1c0
100
AcDbEntity
  8
Layer_1
 62
7
100
AcDbLine
 10
52.909679
 20
208.541146
 30
0.0
 11
52.909679
 21
205.443757
 31
0.0
  0
LINE
  5
1c1
100
AcDbEntity
  8
Layer_1
 62
7
100
AcDbLine
 10
52.909679
 20
205.443757
 30
0.0
 11
60.734290
 21
205.443757
 31
0.0
  0
LINE
  5
1c2
100
AcDbEntity
  8
Layer_1
 62
7
100
AcDbLine
 10
60.734290
 20
208.541146
 30
0.0
 11
60.734290
 21
205.443757
 31
0.0
  0
LINE
  5
1c3
100
AcDbEntity
  8
Layer_1
 62
7
100
AcDbLine
 10
60.734290
 20
208.541146
 30
0.0
 11
68.562429
 21
208.541146
 31
0.0
  0
LINE
  5
1c4
100
AcDbEntity
  8
Layer_1
 62
7
100
AcDbLine
 10
68.562429
 20
208.541146
 30
0.0
 11
68.562429
 21
205.443757
 31
0.0
  0
LINE
  5
1c5
100
AcDbEntity
  8
Layer_1
 62
7
100
AcDbLine
 10
68.562429
 20
205.443757
 30
0.0
 11
76.387040
 21
205.443757
 31
0.0
  0
LINE
  5
1c6
100
AcDbEntity
  8
Layer_1
 62
7
100
AcDbLine
 10
76.387040
 20
208.541146
 30
0.0
 11
76.387040
 21
205.443757
 31
0.0
  0
LINE
  5
1c7
100
AcDbEntity
  8
Layer_1
 62
7
100
AcDbLine
 10
76.387040
 20
208.541146
 30
0.0
 11
84.211651
 21
208.541146
 31
0.0
  0
LINE
  5
1c8
100
AcDbEntity
  8
Layer_1
 62
7
100
AcDbLine
 10
84.211651
 20
208.541146
 30
0.0
 11
84.211651
 21
205.443757
 31
0.0
  0
LINE
  5
1c9
100
AcDbEntity
  8
Layer_1
 62
7
100
AcDbLine
 10
84.211651
 20
205.443757
 30
0.0
 11
92.039790
 21
205.443757
 31
0.0
  0
LINE
  5
1ca
100
AcDbEntity
  8
Layer_1
 62
7
100
AcDbLine
 10
92.039790
 20
208.541146
 30
0.0
 11
92.039790
 21
205.443757
 31
0.0
  0
LINE
  5
1cb
100
AcDbEntity
  8
Layer_1
 62
7
100
AcDbLine
 10
92.039790
 20
208.541146
 30
0.0
 11
99.864401
 21
208.541146
 31
0.0
  0
LINE
  5
1cc
100
AcDbEntity
  8
Layer_1
 62
7
100
AcDbLine
 10
99.864401
 20
208.541146
 30
0.0
 11
99.864401
 21
205.443757
 31
0.0
  0
LINE
  5
1cd
100
AcDbEntity
  8
Layer_1
 62
7
100
AcDbLine
 10
99.864401
 20
205.443757
 30
0.0
 11
107.692540
 21
205.443757
 31
0.0
  0
LINE
  5
1ce
100
AcDbEntity
  8
Layer_1
 62
7
100
AcDbLine
 10
107.692540
 20
208.541146
 30
0.0
 11
107.692540
 21
205.443757
 31
0.0
  0
LINE
  5
1cf
100
AcDbEntity
  8
Layer_1
 62
7
100
AcDbLine
 10
107.692540
 20
208.541146
 30
0.0
 11
115.517151
 21
208.541146
 31
0.0
  0
LINE
  5
1d0
100
AcDbEntity
  8
Layer_1
 62
7
100
AcDbLine
 10
115.517151
 20
208.541146
 30
0.0
 11
115.517151
 21
205.443757
 31
0.0
  0
LINE
  5
1d1
100
AcDbEntity
  8
Layer_1
 62
7
100
AcDbLine
 10
115.517151
 20
205.443757
 30
0.0
 11
123.345290
 21
205.443757
 31
0.0
  0
LINE
  5
1d2
100
AcDbEntity
  8
Layer_1
 62
7
100
AcDbLine
 10
123.345290
 20
208.541146
 30
0.0
 11
123.345290
 21
205.443757
 31
0.0
  0
LINE
  5
1d3
100
AcDbEntity
  8
Layer_1
 62
7
100
AcDbLine
 10
123.345290
 20
208.541146
 30
0.0
 11
131.169901
 21
208.541146
 31
0.0
  0
LINE
  5
1d4
100
AcDbEntity
  8
Layer_1
 62
7
100
AcDbLine
 10
131.169901
 20
208.541146
 30
0.0
 11
131.169901
 21
205.443757
 31
0.0
  0
LINE
  5
1d5
100
AcDbEntity
  8
Layer_1
 62
7
100
AcDbLine
 10
131.169901
 20
205.443757
 30
0.0
 11
138.994512
 21
205.443757
 31
0.0
  0
LINE
  5
1d6
100
AcDbEntity
  8
Layer_1
 62
7
100
AcDbLine
 10
138.994512
 20
208.541146
 30
0.0
 11
138.994512
 21
205.443757
 31
0.0
  0
LINE
  5
1d7
100
AcDbEntity
  8
Layer_1
 62
7
100
AcDbLine
 10
138.994512
 20
208.541146
 30
0.0
 11
146.822651
 21
208.541146
 31
0.0
  0
LINE
  5
1d8
100
AcDbEntity
  8
Layer_1
 62
7
100
AcDbLine
 10
146.822651
 20
208.541146
 30
0.0
 11
146.822651
 21
205.443757
 31
0.0
  0
LINE
  5
1d9
100
AcDbEntity
  8
Layer_1
 62
7
100
AcDbLine
 10
146.822651
 20
205.443757
 30
0.0
 11
154.647262
 21
205.443757
 31
0.0
  0
LINE
  5
1da
100
AcDbEntity
  8
Layer_1
 62
7
100
AcDbLine
 10
154.647262
 20
208.541146
 30
0.0
 11
154.647262
 21
205.443757
 31
0.0
  0
LINE
  5
1db
100
AcDbEntity
  8
Layer_1
 62
7
100
AcDbLine
 10
154.647262
 20
208.541146
 30
0.0
 11
162.475401
 21
208.541146
 31
0.0
  0
LINE
  5
1dc
100
AcDbEntity
  8
Layer_1
 62
7
100
AcDbLine
 10
162.475401
 20
208.541146
 30
0.0
 11
162.475401
 21
205.443757
 31
0.0
  0
LINE
  5
1dd
100
AcDbEntity
  8
Layer_1
 62
7
100
AcDbLine
 10
162.475401
 20
205.443757
 30
0.0
 11
170.300012
 21
205.443757
 31
0.0
  0
LINE
  5
1de
100
AcDbEntity
  8
Layer_1
 62
7
100
AcDbLine
 10
170.300012
 20
208.541146
 30
0.0
 11
170.300012
 21
205.443757
 31
0.0
  0
LINE
  5
1df
100
AcDbEntity
  8
Layer_1
 62
7
100
AcDbLine
 10
170.300012
 20
208.541146
 30
0.0
 11
178.124623
 21
208.541146
 31
0.0
  0
LINE
  5
1e0
100
AcDbEntity
  8
Layer_1
 62
7
100
AcDbLine
 10
178.124623
 20
208.541146
 30
0.0
 11
178.124623
 21
205.443757
 31
0.0
  0
LINE
  5
1e1
100
AcDbEntity
  8
Layer_1
 62
7
100
AcDbLine
 10
178.124623
 20
205.443757
 30
0.0
 11
182.851846
 21
205.443757
 31
0.0
  0
LINE
  5
1e2
100
AcDbEntity
  8
Layer_1
 62
7
100
AcDbLine
 10
9.052342
 20
179.892063
 30
0.0
 11
9.052342
 21
187.374479
 31
0.0
  0
LINE
  5
1e3
100
AcDbEntity
  8
Layer_1
 62
7
100
AcDbLine
 10
9.052342
 20
187.374479
 30
0.0
 11
5.951425
 21
187.374479
 31
0.0
  0
LINE
  5
1e4
100
AcDbEntity
  8
Layer_1
 62
7
100
AcDbLine
 10
5.951425
 20
187.374479
 30
0.0
 11
5.951425
 21
197.957813
 31
0.0
  0
LINE
  5
1e5
100
AcDbEntity
  8
Layer_1
 62
7
100
AcDbLine
 10
9.052342
 20
197.957813
 30
0.0
 11
5.951425
 21
197.957813
 31
0.0
  0
LINE
  5
1e6
100
AcDbEntity
  8
Layer_1
 62
7
100
AcDbLine
 10
9.052342
 20
197.957813
 30
0.0
 11
9.052342
 21
205.443757
 31
0.0
  0
LINE
  5
1e7
100
AcDbEntity
  8
Layer_1
 62
7
100
AcDbLine
 10
182.851846
 20
179.892063
 30
0.0
 11
182.851846
 21
187.374479
 31
0.0
  0
LINE
  5
1e8
100
AcDbEntity
  8
Layer_1
 62
7
100
AcDbLine
 10
185.952762
 20
187.374479
 30
0.0
 11
182.851846
 21
187.374479
 31
0.0
  0
LINE
  5
1e9
100
AcDbEntity
  8
Layer_1
 62
7
100
AcDbLine
 10
185.952762
 20
187.374479
 30
0.0
 11
185.952762
 21
197.957813
 31
0.0
  0
LINE
  5
1ea
100
AcDbEntity
  8
Layer_1
 62
7
100
AcDbLine
 10
185.952762
 20
197.957813
 30
0.0
 11
182.851846
 21
197.957813
 31
0.0
  0
LINE
  5
1eb
100
AcDbEntity
  8
Layer_1
 62
7
100
AcDbLine
 10
182.851846
 20
197.957813
 30
0.0
 11
182.851846
 21
205.443757
 31
0.0
  0
LINE
  5
1ec
100
AcDbEntity
  8
Layer_1
 62
7
100
AcDbLine
 10
94.718310
 20
95.934211
 30
0.0
 11
94.718310
 21
106.517559
 31
0.0
  0
LINE
  5
1ed
100
AcDbEntity
  8
Layer_1
 62
7
100
AcDbLine
 10
91.617394
 20
106.517559
 30
0.0
 11
94.718310
 21
106.517559
 31
0.0
  0
LINE
  5
1ee
100
AcDbEntity
  8
Layer_1
 62
7
100
AcDbLine
 10
91.617394
 20
106.517559
 30
0.0
 11
91.617394
 21
117.100892
 31
0.0
  0
LINE
  5
1ef
100
AcDbEntity
  8
Layer_1
 62
7
100
AcDbLine
 10
91.617394
 20
117.100892
 30
0.0
 11
94.718310
 21
117.100892
 31
0.0
  0
LINE
  5
1f0
100
AcDbEntity
  8
Layer_1
 62
7
100
AcDbLine
 10
94.718310
 20
117.100892
 30
0.0
 11
94.718310
 21
124.583309
 31
0.0
  0
LINE
  5
1f1
100
AcDbEntity
  8
Layer_1
 62
7
100
AcDbLine
 10
50.215394
 20
95.934211
 30
0.0
 11
50.215394
 21
106.517559
 31
0.0
  0
LINE
  5
1f2
100
AcDbEntity
  8
Layer_1
 62
7
100
AcDbLine
 10
50.215394
 20
106.517559
 30
0.0
 11
53.316310
 21
106.517559
 31
0.0
  0
LINE
  5
1f3
100
AcDbEntity
  8
Layer_1
 62
7
100
AcDbLine
 10
53.316310
 20
106.517559
 30
0.0
 11
53.316310
 21
117.100892
 31
0.0
  0
LINE
  5
1f4
100
AcDbEntity
  8
Layer_1
 62
7
100
AcDbLine
 10
50.215394
 20
117.100892
 30
0.0
 11
53.316310
 21
117.100892
 31
0.0
  0
LINE
  5
1f5
100
AcDbEntity
  8
Layer_1
 62
7
100
AcDbLine
 10
50.215394
 20
117.100892
 30
0.0
 11
50.215394
 21
124.583309
 31
0.0
  0
LINE
  5
1f6
100
AcDbEntity
  8
Layer_1
 62
7
100
AcDbLine
 10
94.718310
 20
95.934211
 30
0.0
 11
85.817727
 21
95.934211
 31
0.0
  0
LINE
  5
1f7
100
AcDbEntity
  8
Layer_1
 62
7
100
AcDbLine
 10
85.817727
 20
99.031628
 30
0.0
 11
85.817727
 21
95.934239
 31
0.0
  0
LINE
  5
1f8
100
AcDbEntity
  8
Layer_1
 62
7
100
AcDbLine
 10
85.817727
 20
99.031628
 30
0.0
 11
76.917144
 21
99.031628
 31
0.0
  0
LINE
  5
1f9
100
AcDbEntity
  8
Layer_1
 62
7
100
AcDbLine
 10
76.917144
 20
99.031628
 30
0.0
 11
76.917144
 21
95.934239
 31
0.0
  0
LINE
  5
1fa
100
AcDbEntity
  8
Layer_1
 62
7
100
AcDbLine
 10
76.917144
 20
95.934211
 30
0.0
 11
68.016560
 21
95.934211
 31
0.0
  0
LINE
  5
1fb
100
AcDbEntity
  8
Layer_1
 62
7
100
AcDbLine
 10
68.016560
 20
99.031628
 30
0.0
 11
68.016560
 21
95.934239
 31
0.0
  0
LINE
  5
1fc
100
AcDbEntity
  8
Layer_1
 62
7
100
AcDbLine
 10
68.016560
 20
99.031628
 30
0.0
 11
59.115977
 21
99.031628
 31
0.0
  0
LINE
  5
1fd
100
AcDbEntity
  8
Layer_1
 62
7
100
AcDbLine
 10
59.115977
 20
99.031628
 30
0.0
 11
59.115977
 21
95.934239
 31
0.0
  0
LINE
  5
1fe
100
AcDbEntity
  8
Layer_1
 62
7
100
AcDbLine
 10
59.115977
 20
95.934211
 30
0.0
 11
50.215394
 21
95.934211
 31
0.0
  0
LINE
  5
1ff
100
AcDbEntity
  8
Layer_1
 62
7
100
AcDbLine
 10
94.718310
 20
124.583309
 30
0.0
 11
85.817727
 21
124.583309
 31
0.0
  0
LINE
  5
200
100
AcDbEntity
  8
Layer_1
 62
7
100
AcDbLine
 10
85.817727
 20
127.684225
 30
0.0
 11
85.817727
 21
124.583309
 31
0.0
  0
LINE
  5
201
100
AcDbEntity
  8
Layer_1
 62
7
100
AcDbLine
 10
85.817727
 20
127.684225
 30
0.0
 11
76.917144
 21
127.684225
 31
0.0
  0
LINE
  5
202
100
AcDbEntity
  8
Layer_1
 62
7
100
AcDbLine
 10
76.917144
 20
127.684225
 30
0.0
 11
76.917144
 21
124.583309
 31
0.0
  0
LINE
  5
203
100
AcDbEntity
  8
Layer_1
 62
7
100
AcDbLine
 10
76.917144
 20
124.583309
 30
0.0
 11
68.016560
 21
124.583309
 31
0.0
  0
LINE
  5
204
100
AcDbEntity
  8
Layer_1
 62
7
100
AcDbLine
 10
68.016560
 20
127.684225
 30
0.0
 11
68.016560
 21
124.583309
 31
0.0
  0
LINE
  5
205
100
AcDbEntity
  8
Layer_1
 62
7
100
AcDbLine
 10
68.016560
 20
127.684225
 30
0.0
 11
59.115977
 21
127.684225
 31
0.0
  0
LINE
  5
206
100
AcDbEntity
  8
Layer_1
 62
7
100
AcDbLine
 10
59.115977
 20
127.684225
 30
0.0
 11
59.115977
 21
124.583309
 31
0.0
  0
LINE
  5
207
100
AcDbEntity
  8
Layer_1
 62
7
100
AcDbLine
 10
59.115977
 20
124.583309
 30
0.0
 11
50.215394
 21
124.583309
 31
0.0
  0
LINE
  5
208
100
AcDbEntity
  8
Layer_1
 62
7
100
AcDbLine
 10
5.951425
 20
211.204618
 30
0.0
 11
13.779564
 21
211.204618
 31
0.0
  0
LINE
  5
209
100
AcDbEntity
  8
Layer_1
 62
7
100
AcDbLine
 10
13.779564
 20
214.305535
 30
0.0
 11
13.779564
 21
211.204618
 31
0.0
  0
LINE
  5
20a
100
AcDbEntity
  8
Layer_1
 62
7
100
AcDbLine
 10
13.779564
 20
214.305535
 30
0.0
 11
21.604175
 21
214.305535
 31
0.0
  0
LINE
  5
20b
100
AcDbEntity
  8
Layer_1
 62
7
100
AcDbLine
 10
21.604175
 20
214.305535
 30
0.0
 11
21.604175
 21
211.204618
 31
0.0
  0
LINE
  5
20c
100
AcDbEntity
  8
Layer_1
 62
7
100
AcDbLine
 10
21.604175
 20
211.204618
 30
0.0
 11
29.432318
 21
211.204618
 31
0.0
  0
LINE
  5
20d
100
AcDbEntity
  8
Layer_1
 62
7
100
AcDbLine
 10
29.432318
 20
214.305535
 30
0.0
 11
29.432318
 21
211.204618
 31
0.0
  0
LINE
  5
20e
100
AcDbEntity
  8
Layer_1
 62
7
100
AcDbLine
 10
29.432318
 20
214.305535
 30
0.0
 11
37.256929
 21
214.305535
 31
0.0
  0
LINE
  5
20f
100
AcDbEntity
  8
Layer_1
 62
7
100
AcDbLine
 10
37.256929
 20
214.305535
 30
0.0
 11
37.256929
 21
211.204618
 31
0.0
  0
LINE
  5
210
100
AcDbEntity
  8
Layer_1
 62
7
100
AcDbLine
 10
37.256929
 20
211.204618
 30
0.0
 11
45.081540
 21
211.204618
 31
0.0
  0
LINE
  5
211
100
AcDbEntity
  8
Layer_1
 62
7
100
AcDbLine
 10
45.081540
 20
214.305535
 30
0.0
 11
45.081540
 21
211.204618
 31
0.0
  0
LINE
  5
212
100
AcDbEntity
  8
Layer_1
 62
7
100
AcDbLine
 10
45.081540
 20
214.305535
 30
0.0
 11
52.909679
 21
214.305535
 31
0.0
  0
LINE
  5
213
100
AcDbEntity
  8
Layer_1
 62
7
100
AcDbLine
 10
52.909679
 20
214.305535
 30
0.0
 11
52.909679
 21
211.204618
 31
0.0
  0
LINE
  5
214
100
AcDbEntity
  8
Layer_1
 62
7
100
AcDbLine
 10
52.909679
 20
211.204618
 30
0.0
 11
60.734290
 21
211.204618
 31
0.0
  0
LINE
  5
215
100
AcDbEntity
  8
Layer_1
 62
7
100
AcDbLine
 10
60.734290
 20
214.305535
 30
0.0
 11
60.734290
 21
211.204618
 31
0.0
  0
LINE
  5
216
100
AcDbEntity
  8
Layer_1
 62
7
100
AcDbLine
 10
60.734290
 20
214.305535
 30
0.0
 11
68.562429
 21
214.305535
 31
0.0
  0
LINE
  5
217
100
AcDbEntity
  8
Layer_1
 62
7
100
AcDbLine
 10
68.562429
 20
214.305535
 30
0.0
 11
68.562429
 21
211.204618
 31
0.0
  0
LINE
  5
218
100
AcDbEntity
  8
Layer_1
 62
7
100
AcDbLine
 10
68.562429
 20
211.204618
 30
0.0
 11
76.387040
 21
211.204618
 31
0.0
  0
LINE
  5
219
100
AcDbEntity
  8
Layer_1
 62
7
100
AcDbLine
 10
76.387040
 20
214.305535
 30
0.0
 11
76.387040
 21
211.204618
 31
0.0
  0
LINE
  5
21a
100
AcDbEntity
  8
Layer_1
 62
7
100
AcDbLine
 10
76.387040
 20
214.305535
 30
0.0
 11
84.211651
 21
214.305535
 31
0.0
  0
LINE
  5
21b
100
AcDbEntity
  8
Layer_1
 62
7
100
AcDbLine
 10
84.211651
 20
214.305535
 30
0.0
 11
84.211651
 21
211.204618
 31
0.0
  0
LINE
  5
21c
100
AcDbEntity
  8
Layer_1
 62
7
100
AcDbLine
 10
84.211651
 20
211.204618
 30
0.0
 11
92.039790
 21
211.204618
 31
0.0
  0
LINE
  5
21d
100
AcDbEntity
  8
Layer_1
 62
7
100
AcDbLine
 10
92.039790
 20
214.305535
 30
0.0
 11
92.039790
 21
211.204618
 31
0.0
  0
LINE
  5
21e
100
AcDbEntity
  8
Layer_1
 62
7
100
AcDbLine
 10
92.039790
 20
214.305535
 30
0.0
 11
99.864401
 21
214.305535
 31
0.0
  0
LINE
  5
21f
100
AcDbEntity
  8
Layer_1
 62
7
100
AcDbLine
 10
99.864401
 20
214.305535
 30
0.0
 11
99.864401
 21
211.204618
 31
0.0
  0
LINE
  5
220
100
AcDbEntity
  8
Layer_1
 62
7
100
AcDbLine
 10
99.864401
 20
211.204618
 30
0.0
 11
107.692540
 21
211.204618
 31
0.0
  0
LINE
  5
221
100
AcDbEntity
  8
Layer_1
 62
7
100
AcDbLine
 10
107.692540
 20
214.305535
 30
0.0
 11
107.692540
 21
211.204618
 31
0.0
  0
LINE
  5
222
100
AcDbEntity
  8
Layer_1
 62
7
100
AcDbLine
 10
107.692540
 20
214.305535
 30
0.0
 11
115.517151
 21
214.305535
 31
0.0
  0
LINE
  5
223
100
AcDbEntity
  8
Layer_1
 62
7
100
AcDbLine
 10
115.517151
 20
214.305535
 30
0.0
 11
115.517151
 21
211.204618
 31
0.0
  0
LINE
  5
224
100
AcDbEntity
  8
Layer_1
 62
7
100
AcDbLine
 10
115.517151
 20
211.204618
 30
0.0
 11
123.345290
 21
211.204618
 31
0.0
  0
LINE
  5
225
100
AcDbEntity
  8
Layer_1
 62
7
100
AcDbLine
 10
123.345290
 20
214.305535
 30
0.0
 11
123.345290
 21
211.204618
 31
0.0
  0
LINE
  5
226
100
AcDbEntity
  8
Layer_1
 62
7
100
AcDbLine
 10
123.345290
 20
214.305535
 30
0.0
 11
131.169901
 21
214.305535
 31
0.0
  0
LINE
  5
227
100
AcDbEntity
  8
Layer_1
 62
7
100
AcDbLine
 10
131.169901
 20
214.305535
 30
0.0
 11
131.169901
 21
211.204618
 31
0.0
  0
LINE
  5
228
100
AcDbEntity
  8
Layer_1
 62
7
100
AcDbLine
 10
131.169901
 20
211.204618
 30
0.0
 11
138.994512
 21
211.204618
 31
0.0
  0
LINE
  5
229
100
AcDbEntity
  8
Layer_1
 62
7
100
AcDbLine
 10
138.994512
 20
214.305535
 30
0.0
 11
138.994512
 21
211.204618
 31
0.0
  0
LINE
  5
22a
100
AcDbEntity
  8
Layer_1
 62
7
100
AcDbLine
 10
138.994512
 20
214.305535
 30
0.0
 11
146.822651
 21
214.305535
 31
0.0
  0
LINE
  5
22b
100
AcDbEntity
  8
Layer_1
 62
7
100
AcDbLine
 10
146.822651
 20
214.305535
 30
0.0
 11
146.822651
 21
211.204618
 31
0.0
  0
LINE
  5
22c
100
AcDbEntity
  8
Layer_1
 62
7
100
AcDbLine
 10
146.822651
 20
211.204618
 30
0.0
 11
154.647262
 21
211.204618
 31
0.0
  0
LINE
  5
22d
100
AcDbEntity
  8
Layer_1
 62
7
100
AcDbLine
 10
154.647262
 20
214.305535
 30
0.0
 11
154.647262
 21
211.204618
 31
0.0
  0
LINE
  5
22e
100
AcDbEntity
  8
Layer_1
 62
7
100
AcDbLine
 10
154.647262
 20
214.305535
 30
0.0
 11
162.475401
 21
214.305535
 31
0.0
  0
LINE
  5
22f
100
AcDbEntity
  8
Layer_1
 62
7
100
AcDbLine
 10
162.475401
 20
214.305535
 30
0.0
 11
162.475401
 21
211.204618
 31
0.0
  0
LINE
  5
230
100
AcDbEntity
  8
Layer_1
 62
7
100
AcDbLine
 10
162.475401
 20
211.204618
 30
0.0
 11
170.300012
 21
211.204618
 31
0.0
  0
LINE
  5
231
100
AcDbEntity
  8
Layer_1
 62
7
100
AcDbLine
 10
170.300012
 20
214.305535
 30
0.0
 11
170.300012
 21
211.204618
 31
0.0
  0
LINE
  5
232
100
AcDbEntity
  8
Layer_1
 62
7
100
AcDbLine
 10
170.300012
 20
214.305535
 30
0.0
 11
178.124623
 21
214.305535
 31
0.0
  0
LINE
  5
233
100
AcDbEntity
  8
Layer_1
 62
7
100
AcDbLine
 10
178.124623
 20
214.305535
 30
0.0
 11
178.124623
 21
211.204618
 31
0.0
  0
LINE
  5
234
100
AcDbEntity
  8
Layer_1
 62
7
100
AcDbLine
 10
178.124623
 20
211.204618
 30
0.0
 11
182.851846
 21
211.204618
 31
0.0
  0
LINE
  5
235
100
AcDbEntity
  8
Layer_1
 62
7
100
AcDbLine
 10
5.951425
 20
255.704007
 30
0.0
 11
13.779564
 21
255.704007
 31
0.0
  0
LINE
  5
236
100
AcDbEntity
  8
Layer_1
 62
7
100
AcDbLine
 10
13.779564
 20
255.704007
 30
0.0
 11
13.779564
 21
252.606618
 31
0.0
  0
LINE
  5
237
100
AcDbEntity
  8
Layer_1
 62
7
100
AcDbLine
 10
13.779564
 20
252.606618
 30
0.0
 11
21.604175
 21
252.606618
 31
0.0
  0
LINE
  5
238
100
AcDbEntity
  8
Layer_1
 62
7
100
AcDbLine
 10
21.604175
 20
255.704007
 30
0.0
 11
21.604175
 21
252.606618
 31
0.0
  0
LINE
  5
239
100
AcDbEntity
  8
Layer_1
 62
7
100
AcDbLine
 10
21.604175
 20
255.704007
 30
0.0
 11
29.432318
 21
255.704007
 31
0.0
  0
LINE
  5
23a
100
AcDbEntity
  8
Layer_1
 62
7
100
AcDbLine
 10
29.432318
 20
255.704007
 30
0.0
 11
29.432318
 21
252.606618
 31
0.0
  0
LINE
  5
23b
100
AcDbEntity
  8
Layer_1
 62
7
100
AcDbLine
 10
29.432318
 20
252.606618
 30
0.0
 11
37.256929
 21
252.606618
 31
0.0
  0
LINE
  5
23c
100
AcDbEntity
  8
Layer_1
 62
7
100
AcDbLine
 10
37.256929
 20
255.704007
 30
0.0
 11
37.256929
 21
252.606618
 31
0.0
  0
LINE
  5
23d
100
AcDbEntity
  8
Layer_1
 62
7
100
AcDbLine
 10
37.256929
 20
255.704007
 30
0.0
 11
45.081540
 21
255.704007
 31
0.0
  0
LINE
  5
23e
100
AcDbEntity
  8
Layer_1
 62
7
100
AcDbLine
 10
45.081540
 20
255.704007
 30
0.0
 11
45.081540
 21
252.606618
 31
0.0
  0
LINE
  5
23f
100
AcDbEntity
  8
Layer_1
 62
7
100
AcDbLine
 10
45.081540
 20
252.606618
 30
0.0
 11
52.909679
 21
252.606618
 31
0.0
  0
LINE
  5
240
100
AcDbEntity
  8
Layer_1
 62
7
100
AcDbLine
 10
52.909679
 20
255.704007
 30
0.0
 11
52.909679
 21
252.606618
 31
0.0
  0
LINE
  5
241
100
AcDbEntity
  8
Layer_1
 62
7
100
AcDbLine
 10
52.909679
 20
255.704007
 30
0.0
 11
60.734290
 21
255.704007
 31
0.0
  0
LINE
  5
242
100
AcDbEntity
  8
Layer_1
 62
7
100
AcDbLine
 10
60.734290
 20
255.704007
 30
0.0
 11
60.734290
 21
252.606618
 31
0.0
  0
LINE
  5
243
100
AcDbEntity
  8
Layer_1
 62
7
100
AcDbLine
 10
60.734290
 20
252.606618
 30
0.0
 11
68.562429
 21
252.606618
 31
0.0
  0
LINE
  5
244
100
AcDbEntity
  8
Layer_1
 62
7
100
AcDbLine
 10
68.562429
 20
255.704007
 30
0.0
 11
68.562429
 21
252.606618
 31
0.0
  0
LINE
  5
245
100
AcDbEntity
  8
Layer_1
 62
7
100
AcDbLine
 10
68.562429
 20
255.704007
 30
0.0
 11
76.387040
 21
255.704007
 31
0.0
  0
LINE
  5
246
100
AcDbEntity
  8
Layer_1
 62
7
100
AcDbLine
 10
76.387040
 20
255.704007
 30
0.0
 11
76.387040
 21
252.606618
 31
0.0
  0
LINE
  5
247
100
AcDbEntity
  8
Layer_1
 62
7
100
AcDbLine
 10
76.387040
 20
252.606618
 30
0.0
 11
84.211651
 21
252.606618
 31
0.0
  0
LINE
  5
248
100
AcDbEntity
  8
Layer_1
 62
7
100
AcDbLine
 10
84.211651
 20
255.704007
 30
0.0
 11
84.211651
 21
252.606618
 31
0.0
  0
LINE
  5
249
100
AcDbEntity
  8
Layer_1
 62
7
100
AcDbLine
 10
84.211651
 20
255.704007
 30
0.0
 11
92.039790
 21
255.704007
 31
0.0
  0
LINE
  5
24a
100
AcDbEntity
  8
Layer_1
 62
7
100
AcDbLine
 10
92.039790
 20
255.704007
 30
0.0
 11
92.039790
 21
252.606618
 31
0.0
  0
LINE
  5
24b
100
AcDbEntity
  8
Layer_1
 62
7
100
AcDbLine
 10
92.039790
 20
252.606618
 30
0.0
 11
99.864401
 21
252.606618
 31
0.0
  0
LINE
  5
24c
100
AcDbEntity
  8
Layer_1
 62
7
100
AcDbLine
 10
99.864401
 20
255.704007
 30
0.0
 11
99.864401
 21
252.606618
 31
0.0
  0
LINE
  5
24d
100
AcDbEntity
  8
Layer_1
 62
7
100
AcDbLine
 10
99.864401
 20
255.704007
 30
0.0
 11
107.692540
 21
255.704007
 31
0.0
  0
LINE
  5
24e
100
AcDbEntity
  8
Layer_1
 62
7
100
AcDbLine
 10
107.692540
 20
255.704007
 30
0.0
 11
107.692540
 21
252.606618
 31
0.0
  0
LINE
  5
24f
100
AcDbEntity
  8
Layer_1
 62
7
100
AcDbLine
 10
107.692540
 20
252.606618
 30
0.0
 11
115.517151
 21
252.606618
 31
0.0
  0
LINE
  5
250
100
AcDbEntity
  8
Layer_1
 62
7
100
AcDbLine
 10
115.517151
 20
255.704007
 30
0.0
 11
115.517151
 21
252.606618
 31
0.0
  0
LINE
  5
251
100
AcDbEntity
  8
Layer_1
 62
7
100
AcDbLine
 10
115.517151
 20
255.704007
 30
0.0
 11
123.345290
 21
255.704007
 31
0.0
  0
LINE
  5
252
100
AcDbEntity
  8
Layer_1
 62
7
100
AcDbLine
 10
123.345290
 20
255.704007
 30
0.0
 11
123.345290
 21
252.606618
 31
0.0
  0
LINE
  5
253
100
AcDbEntity
  8
Layer_1
 62
7
100
AcDbLine
 10
123.345290
 20
252.606618
 30
0.0
 11
131.169901
 21
252.606618
 31
0.0
  0
LINE
  5
254
100
AcDbEntity
  8
Layer_1
 62
7
100
AcDbLine
 10
131.169901
 20
255.704007
 30
0.0
 11
131.169901
 21
252.606618
 31
0.0
  0
LINE
  5
255
100
AcDbEntity
  8
Layer_1
 62
7
100
AcDbLine
 10
131.169901
 20
255.704007
 30
0.0
 11
138.994512
 21
255.704007
 31
0.0
  0
LINE
  5
256
100
AcDbEntity
  8
Layer_1
 62
7
100
AcDbLine
 10
138.994512
 20
255.704007
 30
0.0
 11
138.994512
 21
252.606618
 31
0.0
  0
LINE
  5
257
100
AcDbEntity
  8
Layer_1
 62
7
100
AcDbLine
 10
138.994512
 20
252.606618
 30
0.0
 11
146.822651
 21
252.606618
 31
0.0
  0
LINE
  5
258
100
AcDbEntity
  8
Layer_1
 62
7
100
AcDbLine
 10
146.822651
 20
255.704007
 30
0.0
 11
146.822651
 21
252.606618
 31
0.0
  0
LINE
  5
259
100
AcDbEntity
  8
Layer_1
 62
7
100
AcDbLine
 10
146.822651
 20
255.704007
 30
0.0
 11
154.647262
 21
255.704007
 31
0.0
  0
LINE
  5
25a
100
AcDbEntity
  8
Layer_1
 62
7
100
AcDbLine
 10
154.647262
 20
255.704007
 30
0.0
 11
154.647262
 21
252.606618
 31
0.0
  0
LINE
  5
25b
100
AcDbEntity
  8
Layer_1
 62
7
100
AcDbLine
 10
154.647262
 20
252.606618
 30
0.0
 11
162.475401
 21
252.606618
 31
0.0
  0
LINE
  5
25c
100
AcDbEntity
  8
Layer_1
 62
7
100
AcDbLine
 10
162.475401
 20
255.704007
 30
0.0
 11
162.475401
 21
252.606618
 31
0.0
  0
LINE
  5
25d
100
AcDbEntity
  8
Layer_1
 62
7
100
AcDbLine
 10
162.475401
 20
255.704007
 30
0.0
 11
170.300012
 21
255.704007
 31
0.0
  0
LINE
  5
25e
100
AcDbEntity
  8
Layer_1
 62
7
100
AcDbLine
 10
170.300012
 20
255.704007
 30
0.0
 11
170.300012
 21
252.606618
 31
0.0
  0
LINE
  5
25f
100
AcDbEntity
  8
Layer_1
 62
7
100
AcDbLine
 10
170.300012
 20
252.606618
 30
0.0
 11
178.124623
 21
252.606618
 31
0.0
  0
LINE
  5
260
100
AcDbEntity
  8
Layer_1
 62
7
100
AcDbLine
 10
178.124623
 20
255.704007
 30
0.0
 11
178.124623
 21
252.606618
 31
0.0
  0
LINE
  5
261
100
AcDbEntity
  8
Layer_1
 62
7
100
AcDbLine
 10
178.124623
 20
255.704007
 30
0.0
 11
182.851846
 21
255.704007
 31
0.0
  0
LINE
  5
262
100
AcDbEntity
  8
Layer_1
 62
7
100
AcDbLine
 10
5.951425
 20
211.204618
 30
0.0
 11
5.951425
 21
220.105201
 31
0.0
  0
LINE
  5
263
100
AcDbEntity
  8
Layer_1
 62
7
100
AcDbLine
 10
9.052342
 20
220.105201
 30
0.0
 11
5.951425
 21
220.105201
 31
0.0
  0
LINE
  5
264
100
AcDbEntity
  8
Layer_1
 62
7
100
AcDbLine
 10
9.052342
 20
220.105201
 30
0.0
 11
9.052342
 21
229.005785
 31
0.0
  0
LINE
  5
265
100
AcDbEntity
  8
Layer_1
 62
7
100
AcDbLine
 10
9.052342
 20
229.005785
 30
0.0
 11
5.951425
 21
229.005785
 31
0.0
  0
LINE
  5
266
100
AcDbEntity
  8
Layer_1
 62
7
100
AcDbLine
 10
5.951425
 20
229.005785
 30
0.0
 11
5.951425
 21
237.906368
 31
0.0
  0
LINE
  5
267
100
AcDbEntity
  8
Layer_1
 62
7
100
AcDbLine
 10
9.052342
 20
237.906368
 30
0.0
 11
5.951425
 21
237.906368
 31
0.0
  0
LINE
  5
268
100
AcDbEntity
  8
Layer_1
 62
7
100
AcDbLine
 10
9.052342
 20
237.906368
 30
0.0
 11
9.052342
 21
246.803424
 31
0.0
  0
LINE
  5
269
100
AcDbEntity
  8
Layer_1
 62
7
100
AcDbLine
 10
9.052342
 20
246.803424
 30
0.0
 11
5.951425
 21
246.803424
 31
0.0
  0
LINE
  5
26a
100
AcDbEntity
  8
Layer_1
 62
7
100
AcDbLine
 10
5.951425
 20
246.803424
 30
0.0
 11
5.951425
 21
255.704007
 31
0.0
  0
LINE
  5
26b
100
AcDbEntity
  8
Layer_1
 62
7
100
AcDbLine
 10
182.851846
 20
211.204618
 30
0.0
 11
182.851846
 21
220.105201
 31
0.0
  0
LINE
  5
26c
100
AcDbEntity
  8
Layer_1
 62
7
100
AcDbLine
 10
185.952762
 20
220.105201
 30
0.0
 11
182.851846
 21
220.105201
 31
0.0
  0
LINE
  5
26d
100
AcDbEntity
  8
Layer_1
 62
7
100
AcDbLine
 10
185.952762
 20
220.105201
 30
0.0
 11
185.952762
 21
229.005785
 31
0.0
  0
LINE
  5
26e
100
AcDbEntity
  8
Layer_1
 62
7
100
AcDbLine
 10
185.952762
 20
229.005785
 30
0.0
 11
182.851846
 21
229.005785
 31
0.0
  0
LINE
  5
26f
100
AcDbEntity
  8
Layer_1
 62
7
100
AcDbLine
 10
182.851846
 20
229.005785
 30
0.0
 11
182.851846
 21
237.906368
 31
0.0
  0
LINE
  5
270
100
AcDbEntity
  8
Layer_1
 62
7
100
AcDbLine
 10
185.952762
 20
237.906368
 30
0.0
 11
182.851846
 21
237.906368
 31
0.0
  0
LINE
  5
271
100
AcDbEntity
  8
Layer_1
 62
7
100
AcDbLine
 10
185.952762
 20
237.906368
 30
0.0
 11
185.952762
 21
246.803424
 31
0.0
  0
LINE
  5
272
100
AcDbEntity
  8
Layer_1
 62
7
100
AcDbLine
 10
185.952762
 20
246.803424
 30
0.0
 11
182.851846
 21
246.803424
 31
0.0
  0
LINE
  5
273
100
AcDbEntity
  8
Layer_1
 62
7
100
AcDbLine
 10
182.851846
 20
246.803424
 30
0.0
 11
182.851846
 21
255.704007
 31
0.0
  0
LINE
  5
274
100
AcDbEntity
  8
Layer_1
 62
7
100
AcDbLine
 10
8.487898
 20
261.468396
 30
0.0
 11
13.215120
 21
261.468396
 31
0.0
  0
LINE
  5
275
100
AcDbEntity
  8
Layer_1
 62
7
100
AcDbLine
 10
13.215120
 20
261.468396
 30
0.0
 11
13.215120
 21
258.367479
 31
0.0
  0
LINE
  5
276
100
AcDbEntity
  8
Layer_1
 62
7
100
AcDbLine
 10
13.215120
 20
258.367479
 30
0.0
 11
21.039731
 21
258.367479
 31
0.0
  0
LINE
  5
277
100
AcDbEntity
  8
Layer_1
 62
7
100
AcDbLine
 10
21.039731
 20
261.468396
 30
0.0
 11
21.039731
 21
258.367479
 31
0.0
  0
LINE
  5
278
100
AcDbEntity
  8
Layer_1
 62
7
100
AcDbLine
 10
21.039731
 20
261.468396
 30
0.0
 11
28.867870
 21
261.468396
 31
0.0
  0
LINE
  5
279
100
AcDbEntity
  8
Layer_1
 62
7
100
AcDbLine
 10
28.867870
 20
261.468396
 30
0.0
 11
28.867870
 21
258.367479
 31
0.0
  0
LINE
  5
27a
100
AcDbEntity
  8
Layer_1
 62
7
100
AcDbLine
 10
28.867870
 20
258.367479
 30
0.0
 11
36.692484
 21
258.367479
 31
0.0
  0
LINE
  5
27b
100
AcDbEntity
  8
Layer_1
 62
7
100
AcDbLine
 10
36.692484
 20
261.468396
 30
0.0
 11
36.692484
 21
258.367479
 31
0.0
  0
LINE
  5
27c
100
AcDbEntity
  8
Layer_1
 62
7
100
AcDbLine
 10
36.692484
 20
261.468396
 30
0.0
 11
44.517096
 21
261.468396
 31
0.0
  0
LINE
  5
27d
100
AcDbEntity
  8
Layer_1
 62
7
100
AcDbLine
 10
44.517096
 20
261.468396
 30
0.0
 11
44.517096
 21
258.367479
 31
0.0
  0
LINE
  5
27e
100
AcDbEntity
  8
Layer_1
 62
7
100
AcDbLine
 10
44.517096
 20
258.367479
 30
0.0
 11
52.345234
 21
258.367479
 31
0.0
  0
LINE
  5
27f
100
AcDbEntity
  8
Layer_1
 62
7
100
AcDbLine
 10
52.345234
 20
261.468396
 30
0.0
 11
52.345234
 21
258.367479
 31
0.0
  0
LINE
  5
280
100
AcDbEntity
  8
Layer_1
 62
7
100
AcDbLine
 10
52.345234
 20
261.468396
 30
0.0
 11
60.169846
 21
261.468396
 31
0.0
  0
LINE
  5
281
100
AcDbEntity
  8
Layer_1
 62
7
100
AcDbLine
 10
60.169846
 20
261.468396
 30
0.0
 11
60.169846
 21
258.367479
 31
0.0
  0
LINE
  5
282
100
AcDbEntity
  8
Layer_1
 62
7
100
AcDbLine
 10
60.169846
 20
258.367479
 30
0.0
 11
67.997984
 21
258.367479
 31
0.0
  0
LINE
  5
283
100
AcDbEntity
  8
Layer_1
 62
7
100
AcDbLine
 10
67.997984
 20
261.468396
 30
0.0
 11
67.997984
 21
258.367479
 31
0.0
  0
LINE
  5
284
100
AcDbEntity
  8
Layer_1
 62
7
100
AcDbLine
 10
67.997984
 20
261.468396
 30
0.0
 11
75.822596
 21
261.468396
 31
0.0
  0
LINE
  5
285
100
AcDbEntity
  8
Layer_1
 62
7
100
AcDbLine
 10
75.822596
 20
261.468396
 30
0.0
 11
75.822596
 21
258.367479
 31
0.0
  0
LINE
  5
286
100
AcDbEntity
  8
Layer_1
 62
7
100
AcDbLine
 10
75.822596
 20
258.367479
 30
0.0
 11
83.647207
 21
258.367479
 31
0.0
  0
LINE
  5
287
100
AcDbEntity
  8
Layer_1
 62
7
100
AcDbLine
 10
83.647207
 20
261.468396
 30
0.0
 11
83.647207
 21
258.367479
 31
0.0
  0
LINE
  5
288
100
AcDbEntity
  8
Layer_1
 62
7
100
AcDbLine
 10
83.647207
 20
261.468396
 30
0.0
 11
91.475346
 21
261.468396
 31
0.0
  0
LINE
  5
289
100
AcDbEntity
  8
Layer_1
 62
7
100
AcDbLine
 10
91.475346
 20
261.468396
 30
0.0
 11
91.475346
 21
258.367479
 31
0.0
  0
LINE
  5
28a
100
AcDbEntity
  8
Layer_1
 62
7
100
AcDbLine
 10
91.475346
 20
258.367479
 30
0.0
 11
99.299957
 21
258.367479
 31
0.0
  0
LINE
  5
28b
100
AcDbEntity
  8
Layer_1
 62
7
100
AcDbLine
 10
99.299957
 20
261.468396
 30
0.0
 11
99.299957
 21
258.367479
 31
0.0
  0
LINE
  5
28c
100
AcDbEntity
  8
Layer_1
 62
7
100
AcDbLine
 10
99.299957
 20
261.468396
 30
0.0
 11
107.128096
 21
261.468396
 31
0.0
  0
LINE
  5
28d
100
AcDbEntity
  8
Layer_1
 62
7
100
AcDbLine
 10
107.128096
 20
261.468396
 30
0.0
 11
107.128096
 21
258.367479
 31
0.0
  0
LINE
  5
28e
100
AcDbEntity
  8
Layer_1
 62
7
100
AcDbLine
 10
107.128096
 20
258.367479
 30
0.0
 11
114.952707
 21
258.367479
 31
0.0
  0
LINE
  5
28f
100
AcDbEntity
  8
Layer_1
 62
7
100
AcDbLine
 10
114.952707
 20
261.468396
 30
0.0
 11
114.952707
 21
258.367479
 31
0.0
  0
LINE
  5
290
100
AcDbEntity
  8
Layer_1
 62
7
100
AcDbLine
 10
114.952707
 20
261.468396
 30
0.0
 11
122.780846
 21
261.468396
 31
0.0
  0
LINE
  5
291
100
AcDbEntity
  8
Layer_1
 62
7
100
AcDbLine
 10
122.780846
 20
261.468396
 30
0.0
 11
122.780846
 21
258.367479
 31
0.0
  0
LINE
  5
292
100
AcDbEntity
  8
Layer_1
 62
7
100
AcDbLine
 10
122.780846
 20
258.367479
 30
0.0
 11
130.605457
 21
258.367479
 31
0.0
  0
LINE
  5
293
100
AcDbEntity
  8
Layer_1
 62
7
100
AcDbLine
 10
130.605457
 20
261.468396
 30
0.0
 11
130.605457
 21
258.367479
 31
0.0
  0
LINE
  5
294
100
AcDbEntity
  8
Layer_1
 62
7
100
AcDbLine
 10
130.605457
 20
261.468396
 30
0.0
 11
138.430068
 21
261.468396
 31
0.0
  0
LINE
  5
295
100
AcDbEntity
  8
Layer_1
 62
7
100
AcDbLine
 10
138.430068
 20
261.468396
 30
0.0
 11
138.430068
 21
258.367479
 31
0.0
  0
LINE
  5
296
100
AcDbEntity
  8
Layer_1
 62
7
100
AcDbLine
 10
138.430068
 20
258.367479
 30
0.0
 11
146.258207
 21
258.367479
 31
0.0
  0
LINE
  5
297
100
AcDbEntity
  8
Layer_1
 62
7
100
AcDbLine
 10
146.258207
 20
261.468396
 30
0.0
 11
146.258207
 21
258.367479
 31
0.0
  0
LINE
  5
298
100
AcDbEntity
  8
Layer_1
 62
7
100
AcDbLine
 10
146.258207
 20
261.468396
 30
0.0
 11
154.082818
 21
261.468396
 31
0.0
  0
LINE
  5
299
100
AcDbEntity
  8
Layer_1
 62
7
100
AcDbLine
 10
154.082818
 20
261.468396
 30
0.0
 11
154.082818
 21
258.367479
 31
0.0
  0
LINE
  5
29a
100
AcDbEntity
  8
Layer_1
 62
7
100
AcDbLine
 10
154.082818
 20
258.367479
 30
0.0
 11
161.910957
 21
258.367479
 31
0.0
  0
LINE
  5
29b
100
AcDbEntity
  8
Layer_1
 62
7
100
AcDbLine
 10
161.910957
 20
261.468396
 30
0.0
 11
161.910957
 21
258.367479
 31
0.0
  0
LINE
  5
29c
100
AcDbEntity
  8
Layer_1
 62
7
100
AcDbLine
 10
161.910957
 20
261.468396
 30
0.0
 11
169.735568
 21
261.468396
 31
0.0
  0
LINE
  5
29d
100
AcDbEntity
  8
Layer_1
 62
7
100
AcDbLine
 10
169.735568
 20
261.468396
 30
0.0
 11
169.735568
 21
258.367479
 31
0.0
  0
LINE
  5
29e
100
AcDbEntity
  8
Layer_1
 62
7
100
AcDbLine
 10
169.735568
 20
258.367479
 30
0.0
 11
177.560179
 21
258.367479
 31
0.0
  0
LINE
  5
29f
100
AcDbEntity
  8
Layer_1
 62
7
100
AcDbLine
 10
177.560179
 20
261.468396
 30
0.0
 11
177.560179
 21
258.367479
 31
0.0
  0
LINE
  5
2a0
100
AcDbEntity
  8
Layer_1
 62
7
100
AcDbLine
 10
177.560179
 20
261.468396
 30
0.0
 11
182.287401
 21
261.468396
 31
0.0
  0
LINE
  5
2a1
100
AcDbEntity
  8
Layer_1
 62
7
100
AcDbLine
 10
8.487898
 20
287.016561
 30
0.0
 11
13.215120
 21
287.016561
 31
0.0
  0
LINE
  5
2a2
100
AcDbEntity
  8
Layer_1
 62
7
100
AcDbLine
 10
13.215120
 20
290.117478
 30
0.0
 11
13.215120
 21
287.016561
 31
0.0
  0
LINE
  5
2a3
100
AcDbEntity
  8
Layer_1
 62
7
100
AcDbLine
 10
13.215120
 20
290.117478
 30
0.0
 11
21.039731
 21
290.117478
 31
0.0
  0
LINE
  5
2a4
100
AcDbEntity
  8
Layer_1
 62
7
100
AcDbLine
 10
21.039731
 20
290.117478
 30
0.0
 11
21.039731
 21
287.016561
 31
0.0
  0
LINE
  5
2a5
100
AcDbEntity
  8
Layer_1
 62
7
100
AcDbLine
 10
21.039731
 20
287.016561
 30
0.0
 11
28.867870
 21
287.016561
 31
0.0
  0
LINE
  5
2a6
100
AcDbEntity
  8
Layer_1
 62
7
100
AcDbLine
 10
28.867870
 20
290.117478
 30
0.0
 11
28.867870
 21
287.016561
 31
0.0
  0
LINE
  5
2a7
100
AcDbEntity
  8
Layer_1
 62
7
100
AcDbLine
 10
28.867870
 20
290.117478
 30
0.0
 11
36.692484
 21
290.117478
 31
0.0
  0
LINE
  5
2a8
100
AcDbEntity
  8
Layer_1
 62
7
100
AcDbLine
 10
36.692484
 20
290.117478
 30
0.0
 11
36.692484
 21
287.016561
 31
0.0
  0
LINE
  5
2a9
100
AcDbEntity
  8
Layer_1
 62
7
100
AcDbLine
 10
36.692484
 20
287.016561
 30
0.0
 11
44.517096
 21
287.016561
 31
0.0
  0
LINE
  5
2aa
100
AcDbEntity
  8
Layer_1
 62
7
100
AcDbLine
 10
44.517096
 20
290.117478
 30
0.0
 11
44.517096
 21
287.016561
 31
0.0
  0
LINE
  5
2ab
100
AcDbEntity
  8
Layer_1
 62
7
100
AcDbLine
 10
44.517096
 20
290.117478
 30
0.0
 11
52.345234
 21
290.117478
 31
0.0
  0
LINE
  5
2ac
100
AcDbEntity
  8
Layer_1
 62
7
100
AcDbLine
 10
52.345234
 20
290.117478
 30
0.0
 11
52.345234
 21
287.016561
 31
0.0
  0
LINE
  5
2ad
100
AcDbEntity
  8
Layer_1
 62
7
100
AcDbLine
 10
52.345234
 20
287.016561
 30
0.0
 11
60.169846
 21
287.016561
 31
0.0
  0
LINE
  5
2ae
100
AcDbEntity
  8
Layer_1
 62
7
100
AcDbLine
 10
60.169846
 20
290.117478
 30
0.0
 11
60.169846
 21
287.016561
 31
0.0
  0
LINE
  5
2af
100
AcDbEntity
  8
Layer_1
 62
7
100
AcDbLine
 10
60.169846
 20
290.117478
 30
0.0
 11
67.997984
 21
290.117478
 31
0.0
  0
LINE
  5
2b0
100
AcDbEntity
  8
Layer_1
 62
7
100
AcDbLine
 10
67.997984
 20
290.117478
 30
0.0
 11
67.997984
 21
287.016561
 31
0.0
  0
LINE
  5
2b1
100
AcDbEntity
  8
Layer_1
 62
7
100
AcDbLine
 10
67.997984
 20
287.016561
 30
0.0
 11
75.822596
 21
287.016561
 31
0.0
  0
LINE
  5
2b2
100
AcDbEntity
  8
Layer_1
 62
7
100
AcDbLine
 10
75.822596
 20
290.117478
 30
0.0
 11
75.822596
 21
287.016561
 31
0.0
  0
LINE
  5
2b3
100
AcDbEntity
  8
Layer_1
 62
7
100
AcDbLine
 10
75.822596
 20
290.117478
 30
0.0
 11
83.647207
 21
290.117478
 31
0.0
  0
LINE
  5
2b4
100
AcDbEntity
  8
Layer_1
 62
7
100
AcDbLine
 10
83.647207
 20
290.117478
 30
0.0
 11
83.647207
 21
287.016561
 31
0.0
  0
LINE
  5
2b5
100
AcDbEntity
  8
Layer_1
 62
7
100
AcDbLine
 10
83.647207
 20
287.016561
 30
0.0
 11
91.475346
 21
287.016561
 31
0.0
  0
LINE
  5
2b6
100
AcDbEntity
  8
Layer_1
 62
7
100
AcDbLine
 10
91.475346
 20
290.117478
 30
0.0
 11
91.475346
 21
287.016561
 31
0.0
  0
LINE
  5
2b7
100
AcDbEntity
  8
Layer_1
 62
7
100
AcDbLine
 10
91.475346
 20
290.117478
 30
0.0
 11
99.299957
 21
290.117478
 31
0.0
  0
LINE
  5
2b8
100
AcDbEntity
  8
Layer_1
 62
7
100
AcDbLine
 10
99.299957
 20
290.117478
 30
0.0
 11
99.299957
 21
287.016561
 31
0.0
  0
LINE
  5
2b9
100
AcDbEntity
  8
Layer_1
 62
7
100
AcDbLine
 10
99.299957
 20
287.016561
 30
0.0
 11
107.128096
 21
287.016561
 31
0.0
  0
LINE
  5
2ba
100
AcDbEntity
  8
Layer_1
 62
7
100
AcDbLine
 10
107.128096
 20
290.117478
 30
0.0
 11
107.128096
 21
287.016561
 31
0.0
  0
LINE
  5
2bb
100
AcDbEntity
  8
Layer_1
 62
7
100
AcDbLine
 10
107.128096
 20
290.117478
 30
0.0
 11
114.952707
 21
290.117478
 31
0.0
  0
LINE
  5
2bc
100
AcDbEntity
  8
Layer_1
 62
7
100
AcDbLine
 10
114.952707
 20
290.117478
 30
0.0
 11
114.952707
 21
287.016561
 31
0.0
  0
LINE
  5
2bd
100
AcDbEntity
  8
Layer_1
 62
7
100
AcDbLine
 10
114.952707
 20
287.016561
 30
0.0
 11
122.780846
 21
287.016561
 31
0.0
  0
LINE
  5
2be
100
AcDbEntity
  8
Layer_1
 62
7
100
AcDbLine
 10
122.780846
 20
290.117478
 30
0.0
 11
122.780846
 21
287.016561
 31
0.0
  0
LINE
  5
2bf
100
AcDbEntity
  8
Layer_1
 62
7
100
AcDbLine
 10
122.780846
 20
290.117478
 30
0.0
 11
130.605457
 21
290.117478
 31
0.0
  0
LINE
  5
2c0
100
AcDbEntity
  8
Layer_1
 62
7
100
AcDbLine
 10
130.605457
 20
290.117478
 30
0.0
 11
130.605457
 21
287.016561
 31
0.0
  0
LINE
  5
2c1
100
AcDbEntity
  8
Layer_1
 62
7
100
AcDbLine
 10
130.605457
 20
287.016561
 30
0.0
 11
138.430068
 21
287.016561
 31
0.0
  0
LINE
  5
2c2
100
AcDbEntity
  8
Layer_1
 62
7
100
AcDbLine
 10
138.430068
 20
290.117478
 30
0.0
 11
138.430068
 21
287.016561
 31
0.0
  0
LINE
  5
2c3
100
AcDbEntity
  8
Layer_1
 62
7
100
AcDbLine
 10
138.430068
 20
290.117478
 30
0.0
 11
146.258207
 21
290.117478
 31
0.0
  0
LINE
  5
2c4
100
AcDbEntity
  8
Layer_1
 62
7
100
AcDbLine
 10
146.258207
 20
290.117478
 30
0.0
 11
146.258207
 21
287.016561
 31
0.0
  0
LINE
  5
2c5
100
AcDbEntity
  8
Layer_1
 62
7
100
AcDbLine
 10
146.258207
 20
287.016561
 30
0.0
 11
154.082818
 21
287.016561
 31
0.0
  0
LINE
  5
2c6
100
AcDbEntity
  8
Layer_1
 62
7
100
AcDbLine
 10
154.082818
 20
290.117478
 30
0.0
 11
154.082818
 21
287.016561
 31
0.0
  0
LINE
  5
2c7
100
AcDbEntity
  8
Layer_1
 62
7
100
AcDbLine
 10
154.082818
 20
290.117478
 30
0.0
 11
161.910957
 21
290.117478
 31
0.0
  0
LINE
  5
2c8
100
AcDbEntity
  8
Layer_1
 62
7
100
AcDbLine
 10
161.910957
 20
290.117478
 30
0.0
 11
161.910957
 21
287.016561
 31
0.0
  0
LINE
  5
2c9
100
AcDbEntity
  8
Layer_1
 62
7
100
AcDbLine
 10
161.910957
 20
287.016561
 30
0.0
 11
169.735568
 21
287.016561
 31
0.0
  0
LINE
  5
2ca
100
AcDbEntity
  8
Layer_1
 62
7
100
AcDbLine
 10
169.735568
 20
290.117478
 30
0.0
 11
169.735568
 21
287.016561
 31
0.0
  0
LINE
  5
2cb
100
AcDbEntity
  8
Layer_1
 62
7
100
AcDbLine
 10
169.735568
 20
290.117478
 30
0.0
 11
177.560179
 21
290.117478
 31
0.0
  0
LINE
  5
2cc
100
AcDbEntity
  8
Layer_1
 62
7
100
AcDbLine
 10
177.560179
 20
290.117478
 30
0.0
 11
177.560179
 21
287.016561
 31
0.0
  0
LINE
  5
2cd
100
AcDbEntity
  8
Layer_1
 62
7
100
AcDbLine
 10
177.560179
 20
287.016561
 30
0.0
 11
182.287401
 21
287.016561
 31
0.0
  0
LINE
  5
2ce
100
AcDbEntity
  8
Layer_1
 62
7
100
AcDbLine
 10
8.487898
 20
261.468396
 30
0.0
 11
8.487898
 21
268.950811
 31
0.0
  0
LINE
  5
2cf
100
AcDbEntity
  8
Layer_1
 62
7
100
AcDbLine
 10
8.487898
 20
268.950811
 30
0.0
 11
5.386981
 21
268.950811
 31
0.0
  0
LINE
  5
2d0
100
AcDbEntity
  8
Layer_1
 62
7
100
AcDbLine
 10
5.386981
 20
268.950811
 30
0.0
 11
5.386981
 21
279.534144
 31
0.0
  0
LINE
  5
2d1
100
AcDbEntity
  8
Layer_1
 62
7
100
AcDbLine
 10
8.487898
 20
279.534144
 30
0.0
 11
5.386981
 21
279.534144
 31
0.0
  0
LINE
  5
2d2
100
AcDbEntity
  8
Layer_1
 62
7
100
AcDbLine
 10
8.487898
 20
279.534144
 30
0.0
 11
8.487898
 21
287.016561
 31
0.0
  0
LINE
  5
2d3
100
AcDbEntity
  8
Layer_1
 62
7
100
AcDbLine
 10
182.287401
 20
261.468396
 30
0.0
 11
182.287401
 21
268.950811
 31
0.0
  0
LINE
  5
2d4
100
AcDbEntity
  8
Layer_1
 62
7
100
AcDbLine
 10
185.388318
 20
268.950811
 30
0.0
 11
182.287401
 21
268.950811
 31
0.0
  0
LINE
  5
2d5
100
AcDbEntity
  8
Layer_1
 62
7
100
AcDbLine
 10
185.388318
 20
268.950811
 30
0.0
 11
185.388318
 21
279.534144
 31
0.0
  0
LINE
  5
2d6
100
AcDbEntity
  8
Layer_1
 62
7
100
AcDbLine
 10
185.388318
 20
279.534144
 30
0.0
 11
182.287401
 21
279.534144
 31
0.0
  0
LINE
  5
2d7
100
AcDbEntity
  8
Layer_1
 62
7
100
AcDbLine
 10
182.287401
 20
279.534144
 30
0.0
 11
182.287401
 21
287.016561
 31
0.0
  0
LINE
  5
2d8
100
AcDbEntity
  8
Layer_1
 62
7
100
AcDbLine
 10
236.191532
 20
291.810356
 30
0.0
 11
236.191532
 21
111.809109
 31
0.0
  0
LINE
  5
2d9
100
AcDbEntity
  8
Layer_1
 62
7
100
AcDbLine
 10
236.191532
 20
111.809109
 30
0.0
 11
191.692268
 21
111.809109
 31
0.0
  0
LINE
  5
2da
100
AcDbEntity
  8
Layer_1
 62
7
100
AcDbLine
 10
191.692268
 20
111.809109
 30
0.0
 11
191.692268
 21
291.810356
 31
0.0
  0
LINE
  5
2db
100
AcDbEntity
  8
Layer_1
 62
7
100
AcDbLine
 10
191.692268
 20
291.810356
 30
0.0
 11
236.191532
 21
291.810356
 31
0.0
  0
LINE
  5
2dc
100
AcDbEntity
  8
Layer_1
 62
7
100
AcDbLine
 10
285.347015
 20
291.927233
 30
0.0
 11
285.347015
 21
111.925972
 31
0.0
  0
LINE
  5
2dd
100
AcDbEntity
  8
Layer_1
 62
7
100
AcDbLine
 10
285.347015
 20
111.925972
 30
0.0
 11
240.847761
 21
111.925972
 31
0.0
  0
LINE
  5
2de
100
AcDbEntity
  8
Layer_1
 62
7
100
AcDbLine
 10
240.847761
 20
111.925972
 30
0.0
 11
240.847761
 21
291.927233
 31
0.0
  0
LINE
  5
2df
100
AcDbEntity
  8
Layer_1
 62
7
100
AcDbLine
 10
240.847761
 20
291.927233
 30
0.0
 11
285.347015
 21
291.927233
 31
0.0
  0
SPLINE
  5
2e0
100
AcDbEntity
  8
Layer_1
 62
7
100
AcDbSpline
 70
8
 71
3
 72
8
 73
4
 74
0
 40
0
 40
0
 40
0
 40
0
 40
1
 40
1
 40
1
 40
1
 10
37.219872
 20
75.755107
 30
0.0
 10
37.219872
 20
66.933382
 30
0.0
 10
30.068448
 20
59.781959
 30
0.0
 10
21.246722
 20
59.781959
 30
0.0
  0
SPLINE
  5
2e1
100
AcDbEntity
  8
Layer_1
 62
7
100
AcDbSpline
 70
8
 71
3
 72
8
 73
4
 74
0
 40
0
 40
0
 40
0
 40
0
 40
1
 40
1
 40
1
 40
1
 10
21.246722
 20
59.781959
 30
0.0
 10
12.424997
 20
59.781959
 30
0.0
 10
5.273575
 20
66.933382
 30
0.0
 10
5.273575
 20
75.755107
 30
0.0
  0
SPLINE
  5
2e2
100
AcDbEntity
  8
Layer_1
 62
7
100
AcDbSpline
 70
8
 71
3
 72
8
 73
4
 74
0
 40
0
 40
0
 40
0
 40
0
 40
1
 40
1
 40
1
 40
1
 10
5.273575
 20
75.755107
 30
0.0
 10
5.273575
 20
84.576833
 30
0.0
 10
12.424997
 20
91.728255
 30
0.0
 10
21.246722
 20
91.728255
 30
0.0
  0
SPLINE
  5
2e3
100
AcDbEntity
  8
Layer_1
 62
7
100
AcDbSpline
 70
8
 71
3
 72
8
 73
4
 74
0
 40
0
 40
0
 40
0
 40
0
 40
1
 40
1
 40
1
 40
1
 10
21.246722
 20
91.728255
 30
0.0
 10
30.068448
 20
91.728255
 30
0.0
 10
37.219872
 20
84.576833
 30
0.0
 10
37.219872
 20
75.755107
 30
0.0
  0
LINE
  5
2e4
100
AcDbEntity
  8
Layer_1
 62
7
100
AcDbLine
 10
37.219872
 20
75.755107
 30
0.0
 11
37.219872
 21
75.755107
 31
0.0
  0
SPLINE
  5
2e5
100
AcDbEntity
  8
Layer_1
 62
7
100
AcDbSpline
 70
8
 71
3
 72
8
 73
4
 74
0
 40
0
 40
0
 40
0
 40
0
 40
1
 40
1
 40
1
 40
1
 10
21.981758
 20
75.628341
 30
0.0
 10
21.981758
 20
75.210172
 30
0.0
 10
21.642765
 20
74.871178
 30
0.0
 10
21.224595
 20
74.871178
 30
0.0
  0
SPLINE
  5
2e6
100
AcDbEntity
  8
Layer_1
 62
7
100
AcDbSpline
 70
8
 71
3
 72
8
 73
4
 74
0
 40
0
 40
0
 40
0
 40
0
 40
1
 40
1
 40
1
 40
1
 10
21.224595
 20
74.871178
 30
0.0
 10
20.806425
 20
74.871178
 30
0.0
 10
20.467432
 20
75.210172
 30
0.0
 10
20.467432
 20
75.628341
 30
0.0
  0
SPLINE
  5
2e7
100
AcDbEntity
  8
Layer_1
 62
7
100
AcDbSpline
 70
8
 71
3
 72
8
 73
4
 74
0
 40
0
 40
0
 40
0
 40
0
 40
1
 40
1
 40
1
 40
1
 10
20.467432
 20
75.628341
 30
0.0
 10
20.467432
 20
76.046511
 30
0.0
 10
20.806425
 20
76.385505
 30
0.0
 10
21.224595
 20
76.385505
 30
0.0
  0
SPLINE
  5
2e8
100
AcDbEntity
  8
Layer_1
 62
7
100
AcDbSpline
 70
8
 71
3
 72
8
 73
4
 74
0
 40
0
 40
0
 40
0
 40
0
 40
1
 40
1
 40
1
 40
1
 10
21.224595
 20
76.385505
 30
0.0
 10
21.642765
 20
76.385505
 30
0.0
 10
21.981758
 20
76.046511
 30
0.0
 10
21.981758
 20
75.628341
 30
0.0
  0
LINE
  5
2e9
100
AcDbEntity
  8
Layer_1
 62
7
100
AcDbLine
 10
21.981758
 20
75.628341
 30
0.0
 11
21.981758
 21
75.628341
 31
0.0
  0
SPLINE
  5
2ea
100
AcDbEntity
  8
Layer_1
 62
7
100
AcDbSpline
 70
8
 71
3
 72
8
 73
4
 74
0
 40
0
 40
0
 40
0
 40
0
 40
1
 40
1
 40
1
 40
1
 10
70.526537
 20
75.755107
 30
0.0
 10
70.526537
 20
66.933382
 30
0.0
 10
63.375114
 20
59.781959
 30
0.0
 10
54.553388
 20
59.781959
 30
0.0
  0
SPLINE
  5
2eb
100
AcDbEntity
  8
Layer_1
 62
7
100
AcDbSpline
 70
8
 71
3
 72
8
 73
4
 74
0
 40
0
 40
0
 40
0
 40
0
 40
1
 40
1
 40
1
 40
1
 10
54.553388
 20
59.781959
 30
0.0
 10
45.731663
 20
59.781959
 30
0.0
 10
38.580241
 20
66.933382
 30
0.0
 10
38.580241
 20
75.755107
 30
0.0
  0
SPLINE
  5
2ec
100
AcDbEntity
  8
Layer_1
 62
7
100
AcDbSpline
 70
8
 71
3
 72
8
 73
4
 74
0
 40
0
 40
0
 40
0
 40
0
 40
1
 40
1
 40
1
 40
1
 10
38.580241
 20
75.755107
 30
0.0
 10
38.580241
 20
84.576833
 30
0.0
 10
45.731663
 20
91.728255
 30
0.0
 10
54.553388
 20
91.728255
 30
0.0
  0
SPLINE
  5
2ed
100
AcDbEntity
  8
Layer_1
 62
7
100
AcDbSpline
 70
8
 71
3
 72
8
 73
4
 74
0
 40
0
 40
0
 40
0
 40
0
 40
1
 40
1
 40
1
 40
1
 10
54.553388
 20
91.728255
 30
0.0
 10
63.375114
 20
91.728255
 30
0.0
 10
70.526537
 20
84.576833
 30
0.0
 10
70.526537
 20
75.755107
 30
0.0
  0
LINE
  5
2ee
100
AcDbEntity
  8
Layer_1
 62
7
100
AcDbLine
 10
70.526537
 20
75.755107
 30
0.0
 11
70.526537
 21
75.755107
 31
0.0
  0
SPLINE
  5
2ef
100
AcDbEntity
  8
Layer_1
 62
7
100
AcDbSpline
 70
8
 71
3
 72
8
 73
4
 74
0
 40
0
 40
0
 40
0
 40
0
 40
1
 40
1
 40
1
 40
1
 10
55.288424
 20
75.628341
 30
0.0
 10
55.288424
 20
75.210172
 30
0.0
 10
54.949431
 20
74.871178
 30
0.0
 10
54.531261
 20
74.871178
 30
0.0
  0
SPLINE
  5
2f0
100
AcDbEntity
  8
Layer_1
 62
7
100
AcDbSpline
 70
8
 71
3
 72
8
 73
4
 74
0
 40
0
 40
0
 40
0
 40
0
 40
1
 40
1
 40
1
 40
1
 10
54.531261
 20
74.871178
 30
0.0
 10
54.113091
 20
74.871178
 30
0.0
 10
53.774098
 20
75.210172
 30
0.0
 10
53.774098
 20
75.628341
 30
0.0
  0
SPLINE
  5
2f1
100
AcDbEntity
  8
Layer_1
 62
7
100
AcDbSpline
 70
8
 71
3
 72
8
 73
4
 74
0
 40
0
 40
0
 40
0
 40
0
 40
1
 40
1
 40
1
 40
1
 10
53.774098
 20
75.628341
 30
0.0
 10
53.774098
 20
76.046511
 30
0.0
 10
54.113091
 20
76.385505
 30
0.0
 10
54.531261
 20
76.385505
 30
0.0
  0
SPLINE
  5
2f2
100
AcDbEntity
  8
Layer_1
 62
7
100
AcDbSpline
 70
8
 71
3
 72
8
 73
4
 74
0
 40
0
 40
0
 40
0
 40
0
 40
1
 40
1
 40
1
 40
1
 10
54.531261
 20
76.385505
 30
0.0
 10
54.949431
 20
76.385505
 30
0.0
 10
55.288424
 20
76.046511
 30
0.0
 10
55.288424
 20
75.628341
 30
0.0
  0
LINE
  5
2f3
100
AcDbEntity
  8
Layer_1
 62
7
100
AcDbLine
 10
55.288424
 20
75.628341
 30
0.0
 11
55.288424
 21
75.628341
 31
0.0
  0
SPLINE
  5
2f4
100
AcDbEntity
  8
Layer_1
 62
7
100
AcDbSpline
 70
8
 71
3
 72
8
 73
4
 74
0
 40
0
 40
0
 40
0
 40
0
 40
1
 40
1
 40
1
 40
1
 10
104.195428
 20
75.755107
 30
0.0
 10
104.195428
 20
66.933382
 30
0.0
 10
97.044005
 20
59.781959
 30
0.0
 10
88.222279
 20
59.781959
 30
0.0
  0
SPLINE
  5
2f5
100
AcDbEntity
  8
Layer_1
 62
7
100
AcDbSpline
 70
8
 71
3
 72
8
 73
4
 74
0
 40
0
 40
0
 40
0
 40
0
 40
1
 40
1
 40
1
 40
1
 10
88.222279
 20
59.781959
 30
0.0
 10
79.400554
 20
59.781959
 30
0.0
 10
72.249132
 20
66.933382
 30
0.0
 10
72.249132
 20
75.755107
 30
0.0
  0
SPLINE
  5
2f6
100
AcDbEntity
  8
Layer_1
 62
7
100
AcDbSpline
 70
8
 71
3
 72
8
 73
4
 74
0
 40
0
 40
0
 40
0
 40
0
 40
1
 40
1
 40
1
 40
1
 10
72.249132
 20
75.755107
 30
0.0
 10
72.249132
 20
84.576833
 30
0.0
 10
79.400554
 20
91.728255
 30
0.0
 10
88.222279
 20
91.728255
 30
0.0
  0
SPLINE
  5
2f7
100
AcDbEntity
  8
Layer_1
 62
7
100
AcDbSpline
 70
8
 71
3
 72
8
 73
4
 74
0
 40
0
 40
0
 40
0
 40
0
 40
1
 40
1
 40
1
 40
1
 10
88.222279
 20
91.728255
 30
0.0
 10
97.044005
 20
91.728255
 30
0.0
 10
104.195428
 20
84.576833
 30
0.0
 10
104.195428
 20
75.755107
 30
0.0
  0
LINE
  5
2f8
100
AcDbEntity
  8
Layer_1
 62
7
100
AcDbLine
 10
104.195428
 20
75.755107
 30
0.0
 11
104.195428
 21
75.755107
 31
0.0
  0
SPLINE
  5
2f9
100
AcDbEntity
  8
Layer_1
 62
7
100
AcDbSpline
 70
8
 71
3
 72
8
 73
4
 74
0
 40
0
 40
0
 40
0
 40
0
 40
1
 40
1
 40
1
 40
1
 10
88.957315
 20
75.628341
 30
0.0
 10
88.957315
 20
75.210172
 30
0.0
 10
88.618322
 20
74.871178
 30
0.0
 10
88.200152
 20
74.871178
 30
0.0
  0
SPLINE
  5
2fa
100
AcDbEntity
  8
Layer_1
 62
7
100
AcDbSpline
 70
8
 71
3
 72
8
 73
4
 74
0
 40
0
 40
0
 40
0
 40
0
 40
1
 40
1
 40
1
 40
1
 10
88.200152
 20
74.871178
 30
0.0
 10
87.781982
 20
74.871178
 30
0.0
 10
87.442989
 20
75.210172
 30
0.0
 10
87.442989
 20
75.628341
 30
0.0
  0
SPLINE
  5
2fb
100
AcDbEntity
  8
Layer_1
 62
7
100
AcDbSpline
 70
8
 71
3
 72
8
 73
4
 74
0
 40
0
 40
0
 40
0
 40
0
 40
1
 40
1
 40
1
 40
1
 10
87.442989
 20
75.628341
 30
0.0
 10
87.442989
 20
76.046511
 30
0.0
 10
87.781982
 20
76.385505
 30
0.0
 10
88.200152
 20
76.385505
 30
0.0
  0
SPLINE
  5
2fc
100
AcDbEntity
  8
Layer_1
 62
7
100
AcDbSpline
 70
8
 71
3
 72
8
 73
4
 74
0
 40
0
 40
0
 40
0
 40
0
 40
1
 40
1
 40
1
 40
1
 10
88.200152
 20
76.385505
 30
0.0
 10
88.618322
 20
76.385505
 30
0.0
 10
88.957315
 20
76.046511
 30
0.0
 10
88.957315
 20
75.628341
 30
0.0
  0
LINE
  5
2fd
100
AcDbEntity
  8
Layer_1
 62
7
100
AcDbLine
 10
88.957315
 20
75.628341
 30
0.0
 11
88.957315
 21
75.628341
 31
0.0
  0
SPLINE
  5
2fe
100
AcDbEntity
  8
Layer_1
 62
7
100
AcDbSpline
 70
8
 71
3
 72
8
 73
4
 74
0
 40
0
 40
0
 40
0
 40
0
 40
1
 40
1
 40
1
 40
1
 10
137.502093
 20
75.755107
 30
0.0
 10
137.502093
 20
66.933382
 30
0.0
 10
130.350670
 20
59.781959
 30
0.0
 10
121.528944
 20
59.781959
 30
0.0
  0
SPLINE
  5
2ff
100
AcDbEntity
  8
Layer_1
 62
7
100
AcDbSpline
 70
8
 71
3
 72
8
 73
4
 74
0
 40
0
 40
0
 40
0
 40
0
 40
1
 40
1
 40
1
 40
1
 10
121.528944
 20
59.781959
 30
0.0
 10
112.707218
 20
59.781959
 30
0.0
 10
105.555796
 20
66.933382
 30
0.0
 10
105.555796
 20
75.755107
 30
0.0
  0
SPLINE
  5
300
100
AcDbEntity
  8
Layer_1
 62
7
100
AcDbSpline
 70
8
 71
3
 72
8
 73
4
 74
0
 40
0
 40
0
 40
0
 40
0
 40
1
 40
1
 40
1
 40
1
 10
105.555796
 20
75.755107
 30
0.0
 10
105.555796
 20
84.576833
 30
0.0
 10
112.707218
 20
91.728255
 30
0.0
 10
121.528944
 20
91.728255
 30
0.0
  0
SPLINE
  5
301
100
AcDbEntity
  8
Layer_1
 62
7
100
AcDbSpline
 70
8
 71
3
 72
8
 73
4
 74
0
 40
0
 40
0
 40
0
 40
0
 40
1
 40
1
 40
1
 40
1
 10
121.528944
 20
91.728255
 30
0.0
 10
130.350670
 20
91.728255
 30
0.0
 10
137.502093
 20
84.576833
 30
0.0
 10
137.502093
 20
75.755107
 30
0.0
  0
LINE
  5
302
100
AcDbEntity
  8
Layer_1
 62
7
100
AcDbLine
 10
137.502093
 20
75.755107
 30
0.0
 11
137.502093
 21
75.755107
 31
0.0
  0
SPLINE
  5
303
100
AcDbEntity
  8
Layer_1
 62
7
100
AcDbSpline
 70
8
 71
3
 72
8
 73
4
 74
0
 40
0
 40
0
 40
0
 40
0
 40
1
 40
1
 40
1
 40
1
 10
122.263979
 20
75.628341
 30
0.0
 10
122.263979
 20
75.210172
 30
0.0
 10
121.924986
 20
74.871178
 30
0.0
 10
121.506816
 20
74.871178
 30
0.0
  0
SPLINE
  5
304
100
AcDbEntity
  8
Layer_1
 62
7
100
AcDbSpline
 70
8
 71
3
 72
8
 73
4
 74
0
 40
0
 40
0
 40
0
 40
0
 40
1
 40
1
 40
1
 40
1
 10
121.506816
 20
74.871178
 30
0.0
 10
121.088646
 20
74.871178
 30
0.0
 10
120.749653
 20
75.210172
 30
0.0
 10
120.749653
 20
75.628341
 30
0.0
  0
SPLINE
  5
305
100
AcDbEntity
  8
Layer_1
 62
7
100
AcDbSpline
 70
8
 71
3
 72
8
 73
4
 74
0
 40
0
 40
0
 40
0
 40
0
 40
1
 40
1
 40
1
 40
1
 10
120.749653
 20
75.628341
 30
0.0
 10
120.749653
 20
76.046511
 30
0.0
 10
121.088646
 20
76.385505
 30
0.0
 10
121.506816
 20
76.385505
 30
0.0
  0
SPLINE
  5
306
100
AcDbEntity
  8
Layer_1
 62
7
100
AcDbSpline
 70
8
 71
3
 72
8
 73
4
 74
0
 40
0
 40
0
 40
0
 40
0
 40
1
 40
1
 40
1
 40
1
 10
121.506816
 20
76.385505
 30
0.0
 10
121.924986
 20
76.385505
 30
0.0
 10
122.263979
 20
76.046511
 30
0.0
 10
122.263979
 20
75.628341
 30
0.0
  0
LINE
  5
307
100
AcDbEntity
  8
Layer_1
 62
7
100
AcDbLine
 10
122.263979
 20
75.628341
 30
0.0
 11
122.263979
 21
75.628341
 31
0.0
  0
SPLINE
  5
308
100
AcDbEntity
  8
Layer_1
 62
7
100
AcDbSpline
 70
8
 71
3
 72
8
 73
4
 74
0
 40
0
 40
0
 40
0
 40
0
 40
1
 40
1
 40
1
 40
1
 10
170.728761
 20
75.755107
 30
0.0
 10
170.728761
 20
66.933382
 30
0.0
 10
163.577338
 20
59.781959
 30
0.0
 10
154.755612
 20
59.781959
 30
0.0
  0
SPLINE
  5
309
100
AcDbEntity
  8
Layer_1
 62
7
100
AcDbSpline
 70
8
 71
3
 72
8
 73
4
 74
0
 40
0
 40
0
 40
0
 40
0
 40
1
 40
1
 40
1
 40
1
 10
154.755612
 20
59.781959
 30
0.0
 10
145.933886
 20
59.781959
 30
0.0
 10
138.782465
 20
66.933382
 30
0.0
 10
138.782465
 20
75.755107
 30
0.0
  0
SPLINE
  5
30a
100
AcDbEntity
  8
Layer_1
 62
7
100
AcDbSpline
 70
8
 71
3
 72
8
 73
4
 74
0
 40
0
 40
0
 40
0
 40
0
 40
1
 40
1
 40
1
 40
1
 10
138.782465
 20
75.755107
 30
0.0
 10
138.782465
 20
84.576833
 30
0.0
 10
145.933886
 20
91.728255
 30
0.0
 10
154.755612
 20
91.728255
 30
0.0
  0
SPLINE
  5
30b
100
AcDbEntity
  8
Layer_1
 62
7
100
AcDbSpline
 70
8
 71
3
 72
8
 73
4
 74
0
 40
0
 40
0
 40
0
 40
0
 40
1
 40
1
 40
1
 40
1
 10
154.755612
 20
91.728255
 30
0.0
 10
163.577338
 20
91.728255
 30
0.0
 10
170.728761
 20
84.576833
 30
0.0
 10
170.728761
 20
75.755107
 30
0.0
  0
LINE
  5
30c
100
AcDbEntity
  8
Layer_1
 62
7
100
AcDbLine
 10
170.728761
 20
75.755107
 30
0.0
 11
170.728761
 21
75.755107
 31
0.0
  0
SPLINE
  5
30d
100
AcDbEntity
  8
Layer_1
 62
7
100
AcDbSpline
 70
8
 71
3
 72
8
 73
4
 74
0
 40
0
 40
0
 40
0
 40
0
 40
1
 40
1
 40
1
 40
1
 10
155.490648
 20
75.628341
 30
0.0
 10
155.490648
 20
75.210172
 30
0.0
 10
155.151655
 20
74.871178
 30
0.0
 10
154.733485
 20
74.871178
 30
0.0
  0
SPLINE
  5
30e
100
AcDbEntity
  8
Layer_1
 62
7
100
AcDbSpline
 70
8
 71
3
 72
8
 73
4
 74
0
 40
0
 40
0
 40
0
 40
0
 40
1
 40
1
 40
1
 40
1
 10
154.733485
 20
74.871178
 30
0.0
 10
154.315315
 20
74.871178
 30
0.0
 10
153.976321
 20
75.210172
 30
0.0
 10
153.976321
 20
75.628341
 30
0.0
  0
SPLINE
  5
30f
100
AcDbEntity
  8
Layer_1
 62
7
100
AcDbSpline
 70
8
 71
3
 72
8
 73
4
 74
0
 40
0
 40
0
 40
0
 40
0
 40
1
 40
1
 40
1
 40
1
 10
153.976321
 20
75.628341
 30
0.0
 10
153.976321
 20
76.046511
 30
0.0
 10
154.315315
 20
76.385505
 30
0.0
 10
154.733485
 20
76.385505
 30
0.0
  0
SPLINE
  5
310
100
AcDbEntity
  8
Layer_1
 62
7
100
AcDbSpline
 70
8
 71
3
 72
8
 73
4
 74
0
 40
0
 40
0
 40
0
 40
0
 40
1
 40
1
 40
1
 40
1
 10
154.733485
 20
76.385505
 30
0.0
 10
155.151655
 20
76.385505
 30
0.0
 10
155.490648
 20
76.046511
 30
0.0
 10
155.490648
 20
75.628341
 30
0.0
  0
LINE
  5
311
100
AcDbEntity
  8
Layer_1
 62
7
100
AcDbLine
 10
155.490648
 20
75.628341
 30
0.0
 11
155.490648
 21
75.628341
 31
0.0
  0
SPLINE
  5
312
100
AcDbEntity
  8
Layer_1
 62
7
100
AcDbSpline
 70
8
 71
3
 72
8
 73
4
 74
0
 40
0
 40
0
 40
0
 40
0
 40
1
 40
1
 40
1
 40
1
 10
204.035426
 20
75.755107
 30
0.0
 10
204.035426
 20
66.933382
 30
0.0
 10
196.884002
 20
59.781959
 30
0.0
 10
188.062276
 20
59.781959
 30
0.0
  0
SPLINE
  5
313
100
AcDbEntity
  8
Layer_1
 62
7
100
AcDbSpline
 70
8
 71
3
 72
8
 73
4
 74
0
 40
0
 40
0
 40
0
 40
0
 40
1
 40
1
 40
1
 40
1
 10
188.062276
 20
59.781959
 30
0.0
 10
179.240551
 20
59.781959
 30
0.0
 10
172.089129
 20
66.933382
 30
0.0
 10
172.089129
 20
75.755107
 30
0.0
  0
SPLINE
  5
314
100
AcDbEntity
  8
Layer_1
 62
7
100
AcDbSpline
 70
8
 71
3
 72
8
 73
4
 74
0
 40
0
 40
0
 40
0
 40
0
 40
1
 40
1
 40
1
 40
1
 10
172.089129
 20
75.755107
 30
0.0
 10
172.089129
 20
84.576833
 30
0.0
 10
179.240551
 20
91.728255
 30
0.0
 10
188.062276
 20
91.728255
 30
0.0
  0
SPLINE
  5
315
100
AcDbEntity
  8
Layer_1
 62
7
100
AcDbSpline
 70
8
 71
3
 72
8
 73
4
 74
0
 40
0
 40
0
 40
0
 40
0
 40
1
 40
1
 40
1
 40
1
 10
188.062276
 20
91.728255
 30
0.0
 10
196.884002
 20
91.728255
 30
0.0
 10
204.035426
 20
84.576833
 30
0.0
 10
204.035426
 20
75.755107
 30
0.0
  0
LINE
  5
316
100
AcDbEntity
  8
Layer_1
 62
7
100
AcDbLine
 10
204.035426
 20
75.755107
 30
0.0
 11
204.035426
 21
75.755107
 31
0.0
  0
SPLINE
  5
317
100
AcDbEntity
  8
Layer_1
 62
7
100
AcDbSpline
 70
8
 71
3
 72
8
 73
4
 74
0
 40
0
 40
0
 40
0
 40
0
 40
1
 40
1
 40
1
 40
1
 10
188.797312
 20
75.628341
 30
0.0
 10
188.797312
 20
75.210172
 30
0.0
 10
188.458319
 20
74.871178
 30
0.0
 10
188.040149
 20
74.871178
 30
0.0
  0
SPLINE
  5
318
100
AcDbEntity
  8
Layer_1
 62
7
100
AcDbSpline
 70
8
 71
3
 72
8
 73
4
 74
0
 40
0
 40
0
 40
0
 40
0
 40
1
 40
1
 40
1
 40
1
 10
188.040149
 20
74.871178
 30
0.0
 10
187.621979
 20
74.871178
 30
0.0
 10
187.282986
 20
75.210172
 30
0.0
 10
187.282986
 20
75.628341
 30
0.0
  0
SPLINE
  5
319
100
AcDbEntity
  8
Layer_1
 62
7
100
AcDbSpline
 70
8
 71
3
 72
8
 73
4
 74
0
 40
0
 40
0
 40
0
 40
0
 40
1
 40
1
 40
1
 40
1
 10
187.282986
 20
75.628341
 30
0.0
 10
187.282986
 20
76.046511
 30
0.0
 10
187.621979
 20
76.385505
 30
0.0
 10
188.040149
 20
76.385505
 30
0.0
  0
SPLINE
  5
31a
100
AcDbEntity
  8
Layer_1
 62
7
100
AcDbSpline
 70
8
 71
3
 72
8
 73
4
 74
0
 40
0
 40
0
 40
0
 40
0
 40
1
 40
1
 40
1
 40
1
 10
188.040149
 20
76.385505
 30
0.0
 10
188.458319
 20
76.385505
 30
0.0
 10
188.797312
 20
76.046511
 30
0.0
 10
188.797312
 20
75.628341
 30
0.0
  0
LINE
  5
31b
100
AcDbEntity
  8
Layer_1
 62
7
100
AcDbLine
 10
188.797312
 20
75.628341
 30
0.0
 11
188.797312
 21
75.628341
 31
0.0
  0
SPLINE
  5
31c
100
AcDbEntity
  8
Layer_1
 62
7
100
AcDbSpline
 70
8
 71
3
 72
8
 73
4
 74
0
 40
0
 40
0
 40
0
 40
0
 40
1
 40
1
 40
1
 40
1
 10
36.937649
 20
42.730662
 30
0.0
 10
36.937649
 20
33.908937
 30
0.0
 10
29.786226
 20
26.757514
 30
0.0
 10
20.964500
 20
26.757514
 30
0.0
  0
SPLINE
  5
31d
100
AcDbEntity
  8
Layer_1
 62
7
100
AcDbSpline
 70
8
 71
3
 72
8
 73
4
 74
0
 40
0
 40
0
 40
0
 40
0
 40
1
 40
1
 40
1
 40
1
 10
20.964500
 20
26.757514
 30
0.0
 10
12.142775
 20
26.757514
 30
0.0
 10
4.991353
 20
33.908937
 30
0.0
 10
4.991353
 20
42.730662
 30
0.0
  0
SPLINE
  5
31e
100
AcDbEntity
  8
Layer_1
 62
7
100
AcDbSpline
 70
8
 71
3
 72
8
 73
4
 74
0
 40
0
 40
0
 40
0
 40
0
 40
1
 40
1
 40
1
 40
1
 10
4.991353
 20
42.730662
 30
0.0
 10
4.991353
 20
51.552388
 30
0.0
 10
12.142775
 20
58.703810
 30
0.0
 10
20.964500
 20
58.703810
 30
0.0
  0
SPLINE
  5
31f
100
AcDbEntity
  8
Layer_1
 62
7
100
AcDbSpline
 70
8
 71
3
 72
8
 73
4
 74
0
 40
0
 40
0
 40
0
 40
0
 40
1
 40
1
 40
1
 40
1
 10
20.964500
 20
58.703810
 30
0.0
 10
29.786226
 20
58.703810
 30
0.0
 10
36.937649
 20
51.552388
 30
0.0
 10
36.937649
 20
42.730662
 30
0.0
  0
LINE
  5
320
100
AcDbEntity
  8
Layer_1
 62
7
100
AcDbLine
 10
36.937649
 20
42.730662
 30
0.0
 11
36.937649
 21
42.730662
 31
0.0
  0
SPLINE
  5
321
100
AcDbEntity
  8
Layer_1
 62
7
100
AcDbSpline
 70
8
 71
3
 72
8
 73
4
 74
0
 40
0
 40
0
 40
0
 40
0
 40
1
 40
1
 40
1
 40
1
 10
21.699536
 20
42.603896
 30
0.0
 10
21.699536
 20
42.185727
 30
0.0
 10
21.360543
 20
41.846733
 30
0.0
 10
20.942373
 20
41.846733
 30
0.0
  0
SPLINE
  5
322
100
AcDbEntity
  8
Layer_1
 62
7
100
AcDbSpline
 70
8
 71
3
 72
8
 73
4
 74
0
 40
0
 40
0
 40
0
 40
0
 40
1
 40
1
 40
1
 40
1
 10
20.942373
 20
41.846733
 30
0.0
 10
20.524203
 20
41.846733
 30
0.0
 10
20.185210
 20
42.185727
 30
0.0
 10
20.185210
 20
42.603896
 30
0.0
  0
SPLINE
  5
323
100
AcDbEntity
  8
Layer_1
 62
7
100
AcDbSpline
 70
8
 71
3
 72
8
 73
4
 74
0
 40
0
 40
0
 40
0
 40
0
 40
1
 40
1
 40
1
 40
1
 10
20.185210
 20
42.603896
 30
0.0
 10
20.185210
 20
43.022066
 30
0.0
 10
20.524203
 20
43.361060
 30
0.0
 10
20.942373
 20
43.361060
 30
0.0
  0
SPLINE
  5
324
100
AcDbEntity
  8
Layer_1
 62
7
100
AcDbSpline
 70
8
 71
3
 72
8
 73
4
 74
0
 40
0
 40
0
 40
0
 40
0
 40
1
 40
1
 40
1
 40
1
 10
20.942373
 20
43.361060
 30
0.0
 10
21.360543
 20
43.361060
 30
0.0
 10
21.699536
 20
43.022066
 30
0.0
 10
21.699536
 20
42.603896
 30
0.0
  0
LINE
  5
325
100
AcDbEntity
  8
Layer_1
 62
7
100
AcDbLine
 10
21.699536
 20
42.603896
 30
0.0
 11
21.699536
 21
42.603896
 31
0.0
  0
SPLINE
  5
326
100
AcDbEntity
  8
Layer_1
 62
7
100
AcDbSpline
 70
8
 71
3
 72
8
 73
4
 74
0
 40
0
 40
0
 40
0
 40
0
 40
1
 40
1
 40
1
 40
1
 10
70.244318
 20
42.730662
 30
0.0
 10
70.244318
 20
33.908937
 30
0.0
 10
63.092895
 20
26.757514
 30
0.0
 10
54.271169
 20
26.757514
 30
0.0
  0
SPLINE
  5
327
100
AcDbEntity
  8
Layer_1
 62
7
100
AcDbSpline
 70
8
 71
3
 72
8
 73
4
 74
0
 40
0
 40
0
 40
0
 40
0
 40
1
 40
1
 40
1
 40
1
 10
54.271169
 20
26.757514
 30
0.0
 10
45.449443
 20
26.757514
 30
0.0
 10
38.298022
 20
33.908937
 30
0.0
 10
38.298022
 20
42.730662
 30
0.0
  0
SPLINE
  5
328
100
AcDbEntity
  8
Layer_1
 62
7
100
AcDbSpline
 70
8
 71
3
 72
8
 73
4
 74
0
 40
0
 40
0
 40
0
 40
0
 40
1
 40
1
 40
1
 40
1
 10
38.298022
 20
42.730662
 30
0.0
 10
38.298022
 20
51.552388
 30
0.0
 10
45.449443
 20
58.703810
 30
0.0
 10
54.271169
 20
58.703810
 30
0.0
  0
SPLINE
  5
329
100
AcDbEntity
  8
Layer_1
 62
7
100
AcDbSpline
 70
8
 71
3
 72
8
 73
4
 74
0
 40
0
 40
0
 40
0
 40
0
 40
1
 40
1
 40
1
 40
1
 10
54.271169
 20
58.703810
 30
0.0
 10
63.092895
 20
58.703810
 30
0.0
 10
70.244318
 20
51.552388
 30
0.0
 10
70.244318
 20
42.730662
 30
0.0
  0
LINE
  5
32a
100
AcDbEntity
  8
Layer_1
 62
7
100
AcDbLine
 10
70.244318
 20
42.730662
 30
0.0
 11
70.244318
 21
42.730662
 31
0.0
  0
SPLINE
  5
32b
100
AcDbEntity
  8
Layer_1
 62
7
100
AcDbSpline
 70
8
 71
3
 72
8
 73
4
 74
0
 40
0
 40
0
 40
0
 40
0
 40
1
 40
1
 40
1
 40
1
 10
55.006204
 20
42.603896
 30
0.0
 10
55.006204
 20
42.185727
 30
0.0
 10
54.667211
 20
41.846733
 30
0.0
 10
54.249041
 20
41.846733
 30
0.0
  0
SPLINE
  5
32c
100
AcDbEntity
  8
Layer_1
 62
7
100
AcDbSpline
 70
8
 71
3
 72
8
 73
4
 74
0
 40
0
 40
0
 40
0
 40
0
 40
1
 40
1
 40
1
 40
1
 10
54.249041
 20
41.846733
 30
0.0
 10
53.830872
 20
41.846733
 30
0.0
 10
53.491878
 20
42.185727
 30
0.0
 10
53.491878
 20
42.603896
 30
0.0
  0
SPLINE
  5
32d
100
AcDbEntity
  8
Layer_1
 62
7
100
AcDbSpline
 70
8
 71
3
 72
8
 73
4
 74
0
 40
0
 40
0
 40
0
 40
0
 40
1
 40
1
 40
1
 40
1
 10
53.491878
 20
42.603896
 30
0.0
 10
53.491878
 20
43.022066
 30
0.0
 10
53.830872
 20
43.361060
 30
0.0
 10
54.249041
 20
43.361060
 30
0.0
  0
SPLINE
  5
32e
100
AcDbEntity
  8
Layer_1
 62
7
100
AcDbSpline
 70
8
 71
3
 72
8
 73
4
 74
0
 40
0
 40
0
 40
0
 40
0
 40
1
 40
1
 40
1
 40
1
 10
54.249041
 20
43.361060
 30
0.0
 10
54.667211
 20
43.361060
 30
0.0
 10
55.006204
 20
43.022066
 30
0.0
 10
55.006204
 20
42.603896
 30
0.0
  0
LINE
  5
32f
100
AcDbEntity
  8
Layer_1
 62
7
100
AcDbLine
 10
55.006204
 20
42.603896
 30
0.0
 11
55.006204
 21
42.603896
 31
0.0
  0
SPLINE
  5
330
100
AcDbEntity
  8
Layer_1
 62
7
100
AcDbSpline
 70
8
 71
3
 72
8
 73
4
 74
0
 40
0
 40
0
 40
0
 40
0
 40
1
 40
1
 40
1
 40
1
 10
103.913209
 20
42.730662
 30
0.0
 10
103.913209
 20
33.908937
 30
0.0
 10
96.761786
 20
26.757514
 30
0.0
 10
87.940060
 20
26.757514
 30
0.0
  0
SPLINE
  5
331
100
AcDbEntity
  8
Layer_1
 62
7
100
AcDbSpline
 70
8
 71
3
 72
8
 73
4
 74
0
 40
0
 40
0
 40
0
 40
0
 40
1
 40
1
 40
1
 40
1
 10
87.940060
 20
26.757514
 30
0.0
 10
79.118334
 20
26.757514
 30
0.0
 10
71.966913
 20
33.908937
 30
0.0
 10
71.966913
 20
42.730662
 30
0.0
  0
SPLINE
  5
332
100
AcDbEntity
  8
Layer_1
 62
7
100
AcDbSpline
 70
8
 71
3
 72
8
 73
4
 74
0
 40
0
 40
0
 40
0
 40
0
 40
1
 40
1
 40
1
 40
1
 10
71.966913
 20
42.730662
 30
0.0
 10
71.966913
 20
51.552388
 30
0.0
 10
79.118334
 20
58.703810
 30
0.0
 10
87.940060
 20
58.703810
 30
0.0
  0
SPLINE
  5
333
100
AcDbEntity
  8
Layer_1
 62
7
100
AcDbSpline
 70
8
 71
3
 72
8
 73
4
 74
0
 40
0
 40
0
 40
0
 40
0
 40
1
 40
1
 40
1
 40
1
 10
87.940060
 20
58.703810
 30
0.0
 10
96.761786
 20
58.703810
 30
0.0
 10
103.913209
 20
51.552388
 30
0.0
 10
103.913209
 20
42.730662
 30
0.0
  0
LINE
  5
334
100
AcDbEntity
  8
Layer_1
 62
7
100
AcDbLine
 10
103.913209
 20
42.730662
 30
0.0
 11
103.913209
 21
42.730662
 31
0.0
  0
SPLINE
  5
335
100
AcDbEntity
  8
Layer_1
 62
7
100
AcDbSpline
 70
8
 71
3
 72
8
 73
4
 74
0
 40
0
 40
0
 40
0
 40
0
 40
1
 40
1
 40
1
 40
1
 10
88.675095
 20
42.603896
 30
0.0
 10
88.675095
 20
42.185727
 30
0.0
 10
88.336102
 20
41.846733
 30
0.0
 10
87.917932
 20
41.846733
 30
0.0
  0
SPLINE
  5
336
100
AcDbEntity
  8
Layer_1
 62
7
100
AcDbSpline
 70
8
 71
3
 72
8
 73
4
 74
0
 40
0
 40
0
 40
0
 40
0
 40
1
 40
1
 40
1
 40
1
 10
87.917932
 20
41.846733
 30
0.0
 10
87.499763
 20
41.846733
 30
0.0
 10
87.160769
 20
42.185727
 30
0.0
 10
87.160769
 20
42.603896
 30
0.0
  0
SPLINE
  5
337
100
AcDbEntity
  8
Layer_1
 62
7
100
AcDbSpline
 70
8
 71
3
 72
8
 73
4
 74
0
 40
0
 40
0
 40
0
 40
0
 40
1
 40
1
 40
1
 40
1
 10
87.160769
 20
42.603896
 30
0.0
 10
87.160769
 20
43.022066
 30
0.0
 10
87.499763
 20
43.361060
 30
0.0
 10
87.917932
 20
43.361060
 30
0.0
  0
SPLINE
  5
338
100
AcDbEntity
  8
Layer_1
 62
7
100
AcDbSpline
 70
8
 71
3
 72
8
 73
4
 74
0
 40
0
 40
0
 40
0
 40
0
 40
1
 40
1
 40
1
 40
1
 10
87.917932
 20
43.361060
 30
0.0
 10
88.336102
 20
43.361060
 30
0.0
 10
88.675095
 20
43.022066
 30
0.0
 10
88.675095
 20
42.603896
 30
0.0
  0
LINE
  5
339
100
AcDbEntity
  8
Layer_1
 62
7
100
AcDbLine
 10
88.675095
 20
42.603896
 30
0.0
 11
88.675095
 21
42.603896
 31
0.0
  0
SPLINE
  5
33a
100
AcDbEntity
  8
Layer_1
 62
7
100
AcDbSpline
 70
8
 71
3
 72
8
 73
4
 74
0
 40
0
 40
0
 40
0
 40
0
 40
1
 40
1
 40
1
 40
1
 10
137.219871
 20
42.730662
 30
0.0
 10
137.219871
 20
33.908937
 30
0.0
 10
130.068447
 20
26.757514
 30
0.0
 10
121.246721
 20
26.757514
 30
0.0
  0
SPLINE
  5
33b
100
AcDbEntity
  8
Layer_1
 62
7
100
AcDbSpline
 70
8
 71
3
 72
8
 73
4
 74
0
 40
0
 40
0
 40
0
 40
0
 40
1
 40
1
 40
1
 40
1
 10
121.246721
 20
26.757514
 30
0.0
 10
112.424996
 20
26.757514
 30
0.0
 10
105.273574
 20
33.908937
 30
0.0
 10
105.273574
 20
42.730662
 30
0.0
  0
SPLINE
  5
33c
100
AcDbEntity
  8
Layer_1
 62
7
100
AcDbSpline
 70
8
 71
3
 72
8
 73
4
 74
0
 40
0
 40
0
 40
0
 40
0
 40
1
 40
1
 40
1
 40
1
 10
105.273574
 20
42.730662
 30
0.0
 10
105.273574
 20
51.552388
 30
0.0
 10
112.424996
 20
58.703810
 30
0.0
 10
121.246721
 20
58.703810
 30
0.0
  0
SPLINE
  5
33d
100
AcDbEntity
  8
Layer_1
 62
7
100
AcDbSpline
 70
8
 71
3
 72
8
 73
4
 74
0
 40
0
 40
0
 40
0
 40
0
 40
1
 40
1
 40
1
 40
1
 10
121.246721
 20
58.703810
 30
0.0
 10
130.068447
 20
58.703810
 30
0.0
 10
137.219871
 20
51.552388
 30
0.0
 10
137.219871
 20
42.730662
 30
0.0
  0
LINE
  5
33e
100
AcDbEntity
  8
Layer_1
 62
7
100
AcDbLine
 10
137.219871
 20
42.730662
 30
0.0
 11
137.219871
 21
42.730662
 31
0.0
  0
SPLINE
  5
33f
100
AcDbEntity
  8
Layer_1
 62
7
100
AcDbSpline
 70
8
 71
3
 72
8
 73
4
 74
0
 40
0
 40
0
 40
0
 40
0
 40
1
 40
1
 40
1
 40
1
 10
121.981757
 20
42.603896
 30
0.0
 10
121.981757
 20
42.185727
 30
0.0
 10
121.642764
 20
41.846733
 30
0.0
 10
121.224594
 20
41.846733
 30
0.0
  0
SPLINE
  5
340
100
AcDbEntity
  8
Layer_1
 62
7
100
AcDbSpline
 70
8
 71
3
 72
8
 73
4
 74
0
 40
0
 40
0
 40
0
 40
0
 40
1
 40
1
 40
1
 40
1
 10
121.224594
 20
41.846733
 30
0.0
 10
120.806424
 20
41.846733
 30
0.0
 10
120.467431
 20
42.185727
 30
0.0
 10
120.467431
 20
42.603896
 30
0.0
  0
SPLINE
  5
341
100
AcDbEntity
  8
Layer_1
 62
7
100
AcDbSpline
 70
8
 71
3
 72
8
 73
4
 74
0
 40
0
 40
0
 40
0
 40
0
 40
1
 40
1
 40
1
 40
1
 10
120.467431
 20
42.603896
 30
0.0
 10
120.467431
 20
43.022066
 30
0.0
 10
120.806424
 20
43.361060
 30
0.0
 10
121.224594
 20
43.361060
 30
0.0
  0
SPLINE
  5
342
100
AcDbEntity
  8
Layer_1
 62
7
100
AcDbSpline
 70
8
 71
3
 72
8
 73
4
 74
0
 40
0
 40
0
 40
0
 40
0
 40
1
 40
1
 40
1
 40
1
 10
121.224594
 20
43.361060
 30
0.0
 10
121.642764
 20
43.361060
 30
0.0
 10
121.981757
 20
43.022066
 30
0.0
 10
121.981757
 20
42.603896
 30
0.0
  0
LINE
  5
343
100
AcDbEntity
  8
Layer_1
 62
7
100
AcDbLine
 10
121.981757
 20
42.603896
 30
0.0
 11
121.981757
 21
42.603896
 31
0.0
  0
SPLINE
  5
344
100
AcDbEntity
  8
Layer_1
 62
7
100
AcDbSpline
 70
8
 71
3
 72
8
 73
4
 74
0
 40
0
 40
0
 40
0
 40
0
 40
1
 40
1
 40
1
 40
1
 10
170.446542
 20
42.730662
 30
0.0
 10
170.446542
 20
33.908937
 30
0.0
 10
163.295119
 20
26.757514
 30
0.0
 10
154.473393
 20
26.757514
 30
0.0
  0
SPLINE
  5
345
100
AcDbEntity
  8
Layer_1
 62
7
100
AcDbSpline
 70
8
 71
3
 72
8
 73
4
 74
0
 40
0
 40
0
 40
0
 40
0
 40
1
 40
1
 40
1
 40
1
 10
154.473393
 20
26.757514
 30
0.0
 10
145.651667
 20
26.757514
 30
0.0
 10
138.500246
 20
33.908937
 30
0.0
 10
138.500246
 20
42.730662
 30
0.0
  0
SPLINE
  5
346
100
AcDbEntity
  8
Layer_1
 62
7
100
AcDbSpline
 70
8
 71
3
 72
8
 73
4
 74
0
 40
0
 40
0
 40
0
 40
0
 40
1
 40
1
 40
1
 40
1
 10
138.500246
 20
42.730662
 30
0.0
 10
138.500246
 20
51.552388
 30
0.0
 10
145.651667
 20
58.703810
 30
0.0
 10
154.473393
 20
58.703810
 30
0.0
  0
SPLINE
  5
347
100
AcDbEntity
  8
Layer_1
 62
7
100
AcDbSpline
 70
8
 71
3
 72
8
 73
4
 74
0
 40
0
 40
0
 40
0
 40
0
 40
1
 40
1
 40
1
 40
1
 10
154.473393
 20
58.703810
 30
0.0
 10
163.295119
 20
58.703810
 30
0.0
 10
170.446542
 20
51.552388
 30
0.0
 10
170.446542
 20
42.730662
 30
0.0
  0
LINE
  5
348
100
AcDbEntity
  8
Layer_1
 62
7
100
AcDbLine
 10
170.446542
 20
42.730662
 30
0.0
 11
170.446542
 21
42.730662
 31
0.0
  0
SPLINE
  5
349
100
AcDbEntity
  8
Layer_1
 62
7
100
AcDbSpline
 70
8
 71
3
 72
8
 73
4
 74
0
 40
0
 40
0
 40
0
 40
0
 40
1
 40
1
 40
1
 40
1
 10
155.208428
 20
42.603896
 30
0.0
 10
155.208428
 20
42.185727
 30
0.0
 10
154.869435
 20
41.846733
 30
0.0
 10
154.451265
 20
41.846733
 30
0.0
  0
SPLINE
  5
34a
100
AcDbEntity
  8
Layer_1
 62
7
100
AcDbSpline
 70
8
 71
3
 72
8
 73
4
 74
0
 40
0
 40
0
 40
0
 40
0
 40
1
 40
1
 40
1
 40
1
 10
154.451265
 20
41.846733
 30
0.0
 10
154.033096
 20
41.846733
 30
0.0
 10
153.694102
 20
42.185727
 30
0.0
 10
153.694102
 20
42.603896
 30
0.0
  0
SPLINE
  5
34b
100
AcDbEntity
  8
Layer_1
 62
7
100
AcDbSpline
 70
8
 71
3
 72
8
 73
4
 74
0
 40
0
 40
0
 40
0
 40
0
 40
1
 40
1
 40
1
 40
1
 10
153.694102
 20
42.603896
 30
0.0
 10
153.694102
 20
43.022066
 30
0.0
 10
154.033096
 20
43.361060
 30
0.0
 10
154.451265
 20
43.361060
 30
0.0
  0
SPLINE
  5
34c
100
AcDbEntity
  8
Layer_1
 62
7
100
AcDbSpline
 70
8
 71
3
 72
8
 73
4
 74
0
 40
0
 40
0
 40
0
 40
0
 40
1
 40
1
 40
1
 40
1
 10
154.451265
 20
43.361060
 30
0.0
 10
154.869435
 20
43.361060
 30
0.0
 10
155.208428
 20
43.022066
 30
0.0
 10
155.208428
 20
42.603896
 30
0.0
  0
LINE
  5
34d
100
AcDbEntity
  8
Layer_1
 62
7
100
AcDbLine
 10
155.208428
 20
42.603896
 30
0.0
 11
155.208428
 21
42.603896
 31
0.0
  0
SPLINE
  5
34e
100
AcDbEntity
  8
Layer_1
 62
7
100
AcDbSpline
 70
8
 71
3
 72
8
 73
4
 74
0
 40
0
 40
0
 40
0
 40
0
 40
1
 40
1
 40
1
 40
1
 10
203.753206
 20
42.730662
 30
0.0
 10
203.753206
 20
33.908937
 30
0.0
 10
196.601783
 20
26.757514
 30
0.0
 10
187.780057
 20
26.757514
 30
0.0
  0
SPLINE
  5
34f
100
AcDbEntity
  8
Layer_1
 62
7
100
AcDbSpline
 70
8
 71
3
 72
8
 73
4
 74
0
 40
0
 40
0
 40
0
 40
0
 40
1
 40
1
 40
1
 40
1
 10
187.780057
 20
26.757514
 30
0.0
 10
178.958331
 20
26.757514
 30
0.0
 10
171.806910
 20
33.908937
 30
0.0
 10
171.806910
 20
42.730662
 30
0.0
  0
SPLINE
  5
350
100
AcDbEntity
  8
Layer_1
 62
7
100
AcDbSpline
 70
8
 71
3
 72
8
 73
4
 74
0
 40
0
 40
0
 40
0
 40
0
 40
1
 40
1
 40
1
 40
1
 10
171.806910
 20
42.730662
 30
0.0
 10
171.806910
 20
51.552388
 30
0.0
 10
178.958331
 20
58.703810
 30
0.0
 10
187.780057
 20
58.703810
 30
0.0
  0
SPLINE
  5
351
100
AcDbEntity
  8
Layer_1
 62
7
100
AcDbSpline
 70
8
 71
3
 72
8
 73
4
 74
0
 40
0
 40
0
 40
0
 40
0
 40
1
 40
1
 40
1
 40
1
 10
187.780057
 20
58.703810
 30
0.0
 10
196.601783
 20
58.703810
 30
0.0
 10
203.753206
 20
51.552388
 30
0.0
 10
203.753206
 20
42.730662
 30
0.0
  0
LINE
  5
352
100
AcDbEntity
  8
Layer_1
 62
7
100
AcDbLine
 10
203.753206
 20
42.730662
 30
0.0
 11
203.753206
 21
42.730662
 31
0.0
  0
SPLINE
  5
353
100
AcDbEntity
  8
Layer_1
 62
7
100
AcDbSpline
 70
8
 71
3
 72
8
 73
4
 74
0
 40
0
 40
0
 40
0
 40
0
 40
1
 40
1
 40
1
 40
1
 10
188.515093
 20
42.603896
 30
0.0
 10
188.515093
 20
42.185727
 30
0.0
 10
188.176100
 20
41.846733
 30
0.0
 10
187.757930
 20
41.846733
 30
0.0
  0
SPLINE
  5
354
100
AcDbEntity
  8
Layer_1
 62
7
100
AcDbSpline
 70
8
 71
3
 72
8
 73
4
 74
0
 40
0
 40
0
 40
0
 40
0
 40
1
 40
1
 40
1
 40
1
 10
187.757930
 20
41.846733
 30
0.0
 10
187.339760
 20
41.846733
 30
0.0
 10
187.000766
 20
42.185727
 30
0.0
 10
187.000766
 20
42.603896
 30
0.0
  0
SPLINE
  5
355
100
AcDbEntity
  8
Layer_1
 62
7
100
AcDbSpline
 70
8
 71
3
 72
8
 73
4
 74
0
 40
0
 40
0
 40
0
 40
0
 40
1
 40
1
 40
1
 40
1
 10
187.000766
 20
42.603896
 30
0.0
 10
187.000766
 20
43.022066
 30
0.0
 10
187.339760
 20
43.361060
 30
0.0
 10
187.757930
 20
43.361060
 30
0.0
  0
SPLINE
  5
356
100
AcDbEntity
  8
Layer_1
 62
7
100
AcDbSpline
 70
8
 71
3
 72
8
 73
4
 74
0
 40
0
 40
0
 40
0
 40
0
 40
1
 40
1
 40
1
 40
1
 10
187.757930
 20
43.361060
 30
0.0
 10
188.176100
 20
43.361060
 30
0.0
 10
188.515093
 20
43.022066
 30
0.0
 10
188.515093
 20
42.603896
 30
0.0
  0
LINE
  5
357
100
AcDbEntity
  8
Layer_1
 62
7
100
AcDbLine
 10
188.515093
 20
42.603896
 30
0.0
 11
188.515093
 21
42.603896
 31
0.0
  0
ENDSEC
  0
SECTION
  2
OBJECTS
  0
DICTIONARY
  5
C
330
0
100
AcDbDictionary
  3
ACAD_GROUP
350
D
  3
ACAD_MLINESTYLE
350
17
  0
DICTIONARY
  5
D
330
C
100
AcDbDictionary
  0
DICTIONARY
  5
1A
330
C
100
AcDbDictionary
  0
DICTIONARY
  5
17
330
C
100
AcDbDictionary
  3
STANDARD
350
18
  0
DICTIONARY
  5
19
330
C
100
AcDbDictionary
  0
ENDSEC
  0
EOF
