  0
SECTION
  2
HEADER
  9
$ACADVER
  1
AC1021
  9
$ACADMAINTVER
 70
    25
  9
$DWGCODEPAGE
  3
ANSI_1251
  9
$INSBASE
 10
0.0
 20
0.0
 30
0.0
  9
$EXTMIN
 10
-314.38901
 20
-28.47787
 30
0.0
  9
$EXTMAX
 10
34.01959
 20
259.50681
 30
0.0
  9
$LIMMIN
 10
0.0
 20
0.0
  9
$LIMMAX
 10
12.0
 20
9.0
  9
$ORTHOMODE
 70
     0
  9
$REGENMODE
 70
     1
  9
$FILLMODE
 70
     1
  9
$QTEXTMODE
 70
     0
  9
$MIRRTEXT
 70
     1
  9
$LTSCALE
 40
1.0
  9
$ATTMODE
 70
     1
  9
$TEXTSIZE
 40
0.2
  9
$TRACEWID
 40
0.05
  9
$TEXTSTYLE
  7
Standard
  9
$CLAYER
  8
0
  9
$CELTYPE
  6
ByLayer
  9
$CECOLOR
 62
   256
  9
$CELTSCALE
 40
1.0
  9
$DISPSILH
 70
     0
  9
$DIMSCALE
 40
1.0
  9
$DIMASZ
 40
0.18
  9
$DIMEXO
 40
0.0625
  9
$DIMDLI
 40
0.38
  9
$DIMRND
 40
0.0
  9
$DIMDLE
 40
0.0
  9
$DIMEXE
 40
0.18
  9
$DIMTP
 40
0.0
  9
$DIMTM
 40
0.0
  9
$DIMTXT
 40
0.18
  9
$DIMCEN
 40
0.09
  9
$DIMTSZ
 40
0.0
  9
$DIMTOL
 70
     0
  9
$DIMLIM
 70
     0
  9
$DIMTIH
 70
     1
  9
$DIMTOH
 70
     1
  9
$DIMSE1
 70
     0
  9
$DIMSE2
 70
     0
  9
$DIMTAD
 70
     0
  9
$DIMZIN
 70
     0
  9
$DIMBLK
  1

  9
$DIMASO
 70
     1
  9
$DIMSHO
 70
     1
  9
$DIMPOST
  1

  9
$DIMAPOST
  1

  9
$DIMALT
 70
     0
  9
$DIMALTD
 70
     2
  9
$DIMALTF
 40
25.4
  9
$DIMLFAC
 40
1.0
  9
$DIMTOFL
 70
     0
  9
$DIMTVP
 40
0.0
  9
$DIMTIX
 70
     0
  9
$DIMSOXD
 70
     0
  9
$DIMSAH
 70
     0
  9
$DIMBLK1
  1

  9
$DIMBLK2
  1

  9
$DIMSTYLE
  2
Standard
  9
$DIMCLRD
 70
     0
  9
$DIMCLRE
 70
     0
  9
$DIMCLRT
 70
     0
  9
$DIMTFAC
 40
1.0
  9
$DIMGAP
 40
0.09
  9
$DIMJUST
 70
     0
  9
$DIMSD1
 70
     0
  9
$DIMSD2
 70
     0
  9
$DIMTOLJ
 70
     1
  9
$DIMTZIN
 70
     0
  9
$DIMALTZ
 70
     0
  9
$DIMALTTZ
 70
     0
  9
$DIMUPT
 70
     0
  9
$DIMDEC
 70
     4
  9
$DIMTDEC
 70
     4
  9
$DIMALTU
 70
     2
  9
$DIMALTTD
 70
     2
  9
$DIMTXSTY
  7
Standard
  9
$DIMAUNIT
 70
     0
  9
$DIMADEC
 70
     0
  9
$DIMALTRND
 40
0.0
  9
$DIMAZIN
 70
     0
  9
$DIMDSEP
 70
    46
  9
$DIMATFIT
 70
     3
  9
$DIMFRAC
 70
     0
  9
$DIMLDRBLK
  1

  9
$DIMLUNIT
 70
     2
  9
$DIMLWD
 70
    -2
  9
$DIMLWE
 70
    -2
  9
$DIMTMOVE
 70
     0
  9
$DIMFXL
 40
1.0
  9
$DIMFXLON
 70
     0
  9
$DIMJOGANG
 40
0.7853981633974483
  9
$DIMTFILL
 70
     0
  9
$DIMTFILLCLR
 70
     0
  9
$DIMARCSYM
 70
     0
  9
$DIMLTYPE
  6

  9
$DIMLTEX1
  6

  9
$DIMLTEX2
  6

  9
$LUNITS
 70
     2
  9
$LUPREC
 70
     4
  9
$SKETCHINC
 40
0.1
  9
$FILLETRAD
 40
0.5
  9
$AUNITS
 70
     0
  9
$AUPREC
 70
     0
  9
$MENU
  1
.
  9
$ELEVATION
 40
0.0
  9
$PELEVATION
 40
0.0
  9
$THICKNESS
 40
0.0
  9
$LIMCHECK
 70
     0
  9
$CHAMFERA
 40
0.0
  9
$CHAMFERB
 40
0.0
  9
$CHAMFERC
 40
0.0
  9
$CHAMFERD
 40
0.0
  9
$SKPOLY
 70
     0
  9
$TDCREATE
 40
2458372.510081933
  9
$TDUCREATE
 40
2458372.385081933
  9
$TDUPDATE
 40
2458372.510094653
  9
$TDUUPDATE
 40
2458372.385094653
  9
$TDINDWG
 40
0.0000000116
  9
$TDUSRTIMER
 40
0.0000000116
  9
$USRTIMER
 70
     1
  9
$ANGBASE
 50
0.0
  9
$ANGDIR
 70
     0
  9
$PDMODE
 70
     0
  9
$PDSIZE
 40
0.0
  9
$PLINEWID
 40
0.0
  9
$SPLFRAME
 70
     0
  9
$SPLINETYPE
 70
     6
  9
$SPLINESEGS
 70
     8
  9
$HANDSEED
  5
131
  9
$SURFTAB1
 70
     6
  9
$SURFTAB2
 70
     6
  9
$SURFTYPE
 70
     6
  9
$SURFU
 70
     6
  9
$SURFV
 70
     6
  9
$UCSBASE
  2

  9
$UCSNAME
  2

  9
$UCSORG
 10
0.0
 20
0.0
 30
0.0
  9
$UCSXDIR
 10
1.0
 20
0.0
 30
0.0
  9
$UCSYDIR
 10
0.0
 20
1.0
 30
0.0
  9
$UCSORTHOREF
  2

  9
$UCSORTHOVIEW
 70
     0
  9
$UCSORGTOP
 10
0.0
 20
0.0
 30
0.0
  9
$UCSORGBOTTOM
 10
0.0
 20
0.0
 30
0.0
  9
$UCSORGLEFT
 10
0.0
 20
0.0
 30
0.0
  9
$UCSORGRIGHT
 10
0.0
 20
0.0
 30
0.0
  9
$UCSORGFRONT
 10
0.0
 20
0.0
 30
0.0
  9
$UCSORGBACK
 10
0.0
 20
0.0
 30
0.0
  9
$PUCSBASE
  2

  9
$PUCSNAME
  2

  9
$PUCSORG
 10
0.0
 20
0.0
 30
0.0
  9
$PUCSXDIR
 10
1.0
 20
0.0
 30
0.0
  9
$PUCSYDIR
 10
0.0
 20
1.0
 30
0.0
  9
$PUCSORTHOREF
  2

  9
$PUCSORTHOVIEW
 70
     0
  9
$PUCSORGTOP
 10
0.0
 20
0.0
 30
0.0
  9
$PUCSORGBOTTOM
 10
0.0
 20
0.0
 30
0.0
  9
$PUCSORGLEFT
 10
0.0
 20
0.0
 30
0.0
  9
$PUCSORGRIGHT
 10
0.0
 20
0.0
 30
0.0
  9
$PUCSORGFRONT
 10
0.0
 20
0.0
 30
0.0
  9
$PUCSORGBACK
 10
0.0
 20
0.0
 30
0.0
  9
$USERI1
 70
     0
  9
$USERI2
 70
     0
  9
$USERI3
 70
     0
  9
$USERI4
 70
     0
  9
$USERI5
 70
     0
  9
$USERR1
 40
0.0
  9
$USERR2
 40
0.0
  9
$USERR3
 40
0.0
  9
$USERR4
 40
0.0
  9
$USERR5
 40
0.0
  9
$WORLDVIEW
 70
     1
  9
$SHADEDGE
 70
     3
  9
$SHADEDIF
 70
    70
  9
$TILEMODE
 70
     1
  9
$MAXACTVP
 70
    64
  9
$PINSBASE
 10
0.0
 20
0.0
 30
0.0
  9
$PLIMCHECK
 70
     0
  9
$PEXTMIN
 10
1.000000000000000E+20
 20
1.000000000000000E+20
 30
1.000000000000000E+20
  9
$PEXTMAX
 10
-1.000000000000000E+20
 20
-1.000000000000000E+20
 30
-1.000000000000000E+20
  9
$PLIMMIN
 10
0.0
 20
0.0
  9
$PLIMMAX
 10
12.0
 20
9.0
  9
$UNITMODE
 70
     0
  9
$VISRETAIN
 70
     1
  9
$PLINEGEN
 70
     0
  9
$PSLTSCALE
 70
     1
  9
$TREEDEPTH
 70
  3020
  9
$CMLSTYLE
  2
Standard
  9
$CMLJUST
 70
     0
  9
$CMLSCALE
 40
1.0
  9
$PROXYGRAPHICS
 70
     1
  9
$MEASUREMENT
 70
     0
  9
$CELWEIGHT
370
    -1
  9
$ENDCAPS
280
     0
  9
$JOINSTYLE
280
     0
  9
$LWDISPLAY
290
     0
  9
$INSUNITS
 70
     5
  9
$HYPERLINKBASE
  1

  9
$STYLESHEET
  1

  9
$XEDIT
290
     1
  9
$CEPSNTYPE
380
     0
  9
$PSTYLEMODE
290
     1
  9
$FINGERPRINTGUID
  2
{4a60f879-5807-4757-b136-cc47008a8bff}
  9
$VERSIONGUID
  2
{FAEB1C32-E019-11D5-929B-00C0DF256EC4}
  9
$EXTNAMES
290
     1
  9
$PSVPSCALE
 40
0.0
  9
$OLESTARTUP
290
     0
  9
$SORTENTS
280
   127
  9
$INDEXCTL
280
     0
  9
$HIDETEXT
280
     1
  9
$XCLIPFRAME
290
     0
  9
$HALOGAP
280
     0
  9
$OBSCOLOR
 70
   257
  9
$OBSLTYPE
280
     0
  9
$INTERSECTIONDISPLAY
280
     0
  9
$INTERSECTIONCOLOR
 70
   257
  9
$DIMASSOC
280
     2
  9
$PROJECTNAME
  1

  9
$CAMERADISPLAY
290
     0
  9
$LENSLENGTH
 40
50.0
  9
$CAMERAHEIGHT
 40
0.0
  9
$STEPSPERSEC
 40
2.0
  9
$STEPSIZE
 40
6.0
  9
$3DDWFPREC
 40
2.0
  9
$PSOLWIDTH
 40
0.25
  9
$PSOLHEIGHT
 40
4.0
  9
$LOFTANG1
 40
1.570796326794897
  9
$LOFTANG2
 40
1.570796326794897
  9
$LOFTMAG1
 40
0.0
  9
$LOFTMAG2
 40
0.0
  9
$LOFTPARAM
 70
     7
  9
$LOFTNORMALS
280
     1
  9
$LATITUDE
 40
37.795
  9
$LONGITUDE
 40
-122.394
  9
$NORTHDIRECTION
 40
0.0
  9
$TIMEZONE
 70
 -8000
  9
$LIGHTGLYPHDISPLAY
280
     1
  9
$TILEMODELIGHTSYNCH
280
     1
  9
$CMATERIAL
347
44
  9
$SOLIDHIST
280
     0
  9
$SHOWHIST
280
     1
  9
$DWFFRAME
280
     2
  9
$DGNFRAME
280
     2
  9
$REALWORLDSCALE
290
     1
  9
$INTERFERECOLOR
 62
   256
  9
$CSHADOW
280
     0
  9
$SHADOWPLANELOCATION
 40
0.0
  0
ENDSEC
  0
SECTION
  2
CLASSES
  0
CLASS
  1
ACDBDICTIONARYWDFLT
  2
AcDbDictionaryWithDefault
  3
ObjectDBX Classes
 90
        0
 91
        3
280
     0
281
     0
  0
CLASS
  1
VISUALSTYLE
  2
AcDbVisualStyle
  3
ObjectDBX Classes
 90
     4095
 91
        3
280
     0
281
     0
  0
CLASS
  1
MATERIAL
  2
AcDbMaterial
  3
ObjectDBX Classes
 90
     1153
 91
        3
280
     0
281
     0
  0
CLASS
  1
SCALE
  2
AcDbScale
  3
ObjectDBX Classes
 90
     1153
 91
        3
280
     0
281
     0
  0
CLASS
  1
TABLESTYLE
  2
AcDbTableStyle
  3
ObjectDBX Classes
 90
     4095
 91
        3
280
     0
281
     0
  0
CLASS
  1
MLEADERSTYLE
  2
AcDbMLeaderStyle
  3
ACDB_MLEADERSTYLE_CLASS
 90
     4095
 91
        3
280
     0
281
     0
  0
CLASS
  1
SUN
  2
AcDbSun
  3
SCENEOE
 90
     1153
 91
        3
280
     0
281
     0
  0
CLASS
  1
IMAGEDEF
  2
AcDbRasterImageDef
  3
ISM
 90
        0
 91
        3
280
     0
281
     0
  0
CLASS
  1
IMAGE
  2
AcDbRasterImage
  3
ISM
 90
      127
 91
        4
280
     0
281
     1
  0
CLASS
  1
IMAGEDEF_REACTOR
  2
AcDbRasterImageDefReactor
  3
ISM
 90
        1
 91
        3
280
     0
281
     0
  0
CLASS
  1
DICTIONARYVAR
  2
AcDbDictionaryVar
  3
ObjectDBX Classes
 90
        0
 91
        3
280
     0
281
     0
  0
CLASS
  1
CELLSTYLEMAP
  2
AcDbCellStyleMap
  3
ObjectDBX Classes
 90
     1152
 91
        3
280
     0
281
     0
  0
ENDSEC
  0
SECTION
  2
TABLES
  0
TABLE
  2
VPORT
  5
8
330
0
100
AcDbSymbolTable
 70
     1
  0
VPORT
  5
29
330
8
100
AcDbSymbolTableRecord
100
AcDbViewportTableRecord
  2
*Active
 70
     0
 10
0.0
 20
0.0
 11
1.0
 21
1.0
 12
10.42990654205607
 22
4.5
 13
0.0
 23
0.0
 14
0.5
 24
0.5
 15
0.5
 25
0.5
 16
0.0
 26
0.0
 36
1.0
 17
0.0
 27
0.0
 37
0.0
 40
9.0
 41
1.972972972850329
 42
50.0
 43
0.0
 44
0.0
 50
0.0
 51
0.0
 71
     0
 72
   100
 73
     1
 74
     3
 75
     0
 76
     0
 77
     0
 78
     0
281
     0
 65
     1
110
0.0
120
0.0
130
0.0
111
1.0
121
0.0
131
0.0
112
0.0
122
1.0
132
0.0
 79
     0
146
0.0
348
2F
 60
     3
 61
     5
292
     1
282
     1
141
0.0
142
0.0
 63
   250
361
6D
  0
ENDTAB
  0
TABLE
  2
LTYPE
  5
5
330
0
100
AcDbSymbolTable
 70
     1
  0
LTYPE
  5
14
330
5
100
AcDbSymbolTableRecord
100
AcDbLinetypeTableRecord
  2
ByBlock
 70
     0
  3

 72
    65
 73
     0
 40
0.0
  0
LTYPE
  5
15
330
5
100
AcDbSymbolTableRecord
100
AcDbLinetypeTableRecord
  2
ByLayer
 70
     0
  3

 72
    65
 73
     0
 40
0.0
  0
LTYPE
  5
16
330
5
100
AcDbSymbolTableRecord
100
AcDbLinetypeTableRecord
  2
Continuous
 70
     0
  3
Solid line
 72
    65
 73
     0
 40
0.0
  0
ENDTAB
  0
TABLE
  2
LAYER
  5
2
330
0
100
AcDbSymbolTable
 70
     2
  0
LAYER
  5
10
330
2
100
AcDbSymbolTableRecord
100
AcDbLayerTableRecord
  2
0
 70
     0
 62
     7
  6
Continuous
370
    -3
390
F
347
46
  0
LAYER
  5
6F
330
2
100
AcDbSymbolTableRecord
100
AcDbLayerTableRecord
  2
layer 1
 70
     0
 62
     7
  6
Continuous
370
    -3
390
F
347
46
  0
ENDTAB
  0
TABLE
  2
STYLE
  5
3
330
0
100
AcDbSymbolTable
 70
     1
  0
STYLE
  5
11
330
3
100
AcDbSymbolTableRecord
100
AcDbTextStyleTableRecord
  2
Standard
 70
     0
 40
0.0
 41
1.0
 50
0.0
 71
     0
 42
0.2
  3
txt
  4

  0
ENDTAB
  0
TABLE
  2
VIEW
  5
6
330
0
100
AcDbSymbolTable
 70
     0
  0
ENDTAB
  0
TABLE
  2
UCS
  5
7
330
0
100
AcDbSymbolTable
 70
     0
  0
ENDTAB
  0
TABLE
  2
APPID
  5
9
330
0
100
AcDbSymbolTable
 70
     3
  0
APPID
  5
12
330
9
100
AcDbSymbolTableRecord
100
AcDbRegAppTableRecord
  2
ACAD
 70
     0
  0
APPID
  5
6E
330
9
100
AcDbSymbolTableRecord
100
AcDbRegAppTableRecord
  2
ODA
 70
     0
  0
APPID
  5
129
330
9
100
AcDbSymbolTableRecord
100
AcDbRegAppTableRecord
  2
ACAD_MLEADERVER
 70
     0
  0
ENDTAB
  0
TABLE
  2
DIMSTYLE
  5
A
330
0
100
AcDbSymbolTable
 70
     1
100
AcDbDimStyleTable
  0
DIMSTYLE
105
27
330
A
100
AcDbSymbolTableRecord
100
AcDbDimStyleTableRecord
  2
Standard
 70
     0
178
     0
340
11
  0
ENDTAB
  0
TABLE
  2
BLOCK_RECORD
  5
1
330
0
100
AcDbSymbolTable
 70
     1
  0
BLOCK_RECORD
  5
1F
330
1
100
AcDbSymbolTableRecord
100
AcDbBlockTableRecord
  2
*Model_Space
340
22
 70
     0
280
     1
281
     0
  0
BLOCK_RECORD
  5
1B
330
1
100
AcDbSymbolTableRecord
100
AcDbBlockTableRecord
  2
*Paper_Space
340
1E
 70
     0
280
     1
281
     0
  0
BLOCK_RECORD
  5
23
330
1
100
AcDbSymbolTableRecord
100
AcDbBlockTableRecord
  2
*Paper_Space0
340
26
 70
     0
280
     1
281
     0
  0
ENDTAB
  0
ENDSEC
  0
SECTION
  2
BLOCKS
  0
BLOCK
  5
20
330
1F
100
AcDbEntity
  8
0
100
AcDbBlockBegin
  2
*Model_Space
 70
     0
 10
0.0
 20
0.0
 30
0.0
  3
*Model_Space
  1

  0
ENDBLK
  5
21
330
1F
100
AcDbEntity
  8
0
100
AcDbBlockEnd
  0
BLOCK
  5
1C
330
1B
100
AcDbEntity
 67
     1
  8
0
100
AcDbBlockBegin
  2
*Paper_Space
 70
     0
 10
0.0
 20
0.0
 30
0.0
  3
*Paper_Space
  1

  0
ENDBLK
  5
1D
330
1B
100
AcDbEntity
 67
     1
  8
0
100
AcDbBlockEnd
  0
BLOCK
  5
24
330
23
100
AcDbEntity
  8
0
100
AcDbBlockBegin
  2
*Paper_Space0
 70
     0
 10
0.0
 20
0.0
 30
0.0
  3
*Paper_Space0
  1

  0
ENDBLK
  5
25
330
23
100
AcDbEntity
  8
0
100
AcDbBlockEnd
  0
ENDSEC
  0
SECTION
  2
ENTITIES
  0
SPLINE
  5
70
330
1F
100
AcDbEntity
  8
layer 1
370
     9
100
AcDbSpline
210
0.0
220
0.0
230
1.0
 70
    11
 71
     3
 72
   184
 73
   180
 74
     0
 42
0.000000001
 43
0.0000000001
 40
0.0
 40
0.0
 40
0.0
 40
0.0
 40
0.0217391304347826
 40
0.0217391304347826
 40
0.0217391304347826
 40
0.0217391304347826
 40
0.0434782608695652
 40
0.0434782608695652
 40
0.0434782608695652
 40
0.0434782608695652
 40
0.0652173913043478
 40
0.0652173913043478
 40
0.0652173913043478
 40
0.0652173913043478
 40
0.0869565217391304
 40
0.0869565217391304
 40
0.0869565217391304
 40
0.0869565217391304
 40
0.108695652173913
 40
0.108695652173913
 40
0.108695652173913
 40
0.108695652173913
 40
0.1304347826086956
 40
0.1304347826086956
 40
0.1304347826086956
 40
0.1304347826086956
 40
0.1521739130434783
 40
0.1521739130434783
 40
0.1521739130434783
 40
0.1521739130434783
 40
0.1739130434782609
 40
0.1739130434782609
 40
0.1739130434782609
 40
0.1739130434782609
 40
0.1956521739130435
 40
0.1956521739130435
 40
0.1956521739130435
 40
0.1956521739130435
 40
0.2173913043478261
 40
0.2173913043478261
 40
0.2173913043478261
 40
0.2173913043478261
 40
0.2391304347826087
 40
0.2391304347826087
 40
0.2391304347826087
 40
0.2391304347826087
 40
0.2608695652173913
 40
0.2608695652173913
 40
0.2608695652173913
 40
0.2608695652173913
 40
0.2826086956521739
 40
0.2826086956521739
 40
0.2826086956521739
 40
0.2826086956521739
 40
0.3043478260869565
 40
0.3043478260869565
 40
0.3043478260869565
 40
0.3043478260869565
 40
0.3260869565217391
 40
0.3260869565217391
 40
0.3260869565217391
 40
0.3260869565217391
 40
0.3478260869565217
 40
0.3478260869565217
 40
0.3478260869565217
 40
0.3478260869565217
 40
0.3695652173913043
 40
0.3695652173913043
 40
0.3695652173913043
 40
0.3695652173913043
 40
0.391304347826087
 40
0.391304347826087
 40
0.391304347826087
 40
0.391304347826087
 40
0.4130434782608696
 40
0.4130434782608696
 40
0.4130434782608696
 40
0.4130434782608696
 40
0.4347826086956522
 40
0.4347826086956522
 40
0.4347826086956522
 40
0.4347826086956522
 40
0.4565217391304348
 40
0.4565217391304348
 40
0.4565217391304348
 40
0.4565217391304348
 40
0.4782608695652174
 40
0.4782608695652174
 40
0.4782608695652174
 40
0.4782608695652174
 40
0.5
 40
0.5
 40
0.5
 40
0.5
 40
0.5217391304347826
 40
0.5217391304347826
 40
0.5217391304347826
 40
0.5217391304347826
 40
0.5434782608695652
 40
0.5434782608695652
 40
0.5434782608695652
 40
0.5434782608695652
 40
0.5652173913043478
 40
0.5652173913043478
 40
0.5652173913043478
 40
0.5652173913043478
 40
0.5869565217391305
 40
0.5869565217391305
 40
0.5869565217391305
 40
0.5869565217391305
 40
0.6086956521739131
 40
0.6086956521739131
 40
0.6086956521739131
 40
0.6086956521739131
 40
0.6304347826086957
 40
0.6304347826086957
 40
0.6304347826086957
 40
0.6304347826086957
 40
0.6521739130434783
 40
0.6521739130434783
 40
0.6521739130434783
 40
0.6521739130434783
 40
0.6739130434782609
 40
0.6739130434782609
 40
0.6739130434782609
 40
0.6739130434782609
 40
0.6956521739130435
 40
0.6956521739130435
 40
0.6956521739130435
 40
0.6956521739130435
 40
0.717391304347826
 40
0.717391304347826
 40
0.717391304347826
 40
0.717391304347826
 40
0.7391304347826086
 40
0.7391304347826086
 40
0.7391304347826086
 40
0.7391304347826086
 40
0.7608695652173914
 40
0.7608695652173914
 40
0.7608695652173914
 40
0.7608695652173914
 40
0.782608695652174
 40
0.782608695652174
 40
0.782608695652174
 40
0.782608695652174
 40
0.8043478260869565
 40
0.8043478260869565
 40
0.8043478260869565
 40
0.8043478260869565
 40
0.8260869565217391
 40
0.8260869565217391
 40
0.8260869565217391
 40
0.8260869565217391
 40
0.8478260869565217
 40
0.8478260869565217
 40
0.8478260869565217
 40
0.8478260869565217
 40
0.8695652173913043
 40
0.8695652173913043
 40
0.8695652173913043
 40
0.8695652173913043
 40
0.8913043478260869
 40
0.8913043478260869
 40
0.8913043478260869
 40
0.8913043478260869
 40
0.9130434782608695
 40
0.9130434782608695
 40
0.9130434782608695
 40
0.9130434782608695
 40
0.9347826086956522
 40
0.9347826086956522
 40
0.9347826086956522
 40
0.9347826086956522
 40
0.9565217391304348
 40
0.9565217391304348
 40
0.9565217391304348
 40
0.9565217391304348
 40
1.0
 40
1.0
 40
1.0
 40
1.0
 10
-34.01578
 20
28.47406
 30
0.0
 10
-34.01578
 20
28.47406
 30
0.0
 10
-30.6142
 20
28.47406
 30
0.0
 10
-30.6142
 20
28.47406
 30
0.0
 10
-30.6142
 20
28.47406
 30
0.0
 10
-30.6142
 20
28.47406
 30
0.0
 10
-30.6142
 20
27.62367
 30
0.0
 10
-30.6142
 20
27.62367
 30
0.0
 10
-30.6142
 20
27.62367
 30
0.0
 10
-30.6142
 20
27.62367
 30
0.0
 10
-27.21262
 20
27.62367
 30
0.0
 10
-27.21262
 20
27.62367
 30
0.0
 10
-27.21262
 20
27.62367
 30
0.0
 10
-27.21262
 20
27.62367
 30
0.0
 10
-27.21262
 20
28.47406
 30
0.0
 10
-27.21262
 20
28.47406
 30
0.0
 10
-27.21262
 20
28.47406
 30
0.0
 10
-27.21262
 20
28.47406
 30
0.0
 10
-24.9449
 20
28.47406
 30
0.0
 10
-24.9449
 20
28.47406
 30
0.0
 10
-24.9449
 20
28.47406
 30
0.0
 10
-24.9449
 20
28.47406
 30
0.0
 10
-24.9449
 20
27.62367
 30
0.0
 10
-24.9449
 20
27.62367
 30
0.0
 10
-24.9449
 20
27.62367
 30
0.0
 10
-24.9449
 20
27.62367
 30
0.0
 10
-22.67718
 20
27.62367
 30
0.0
 10
-22.67718
 20
27.62367
 30
0.0
 10
-22.67718
 20
27.62367
 30
0.0
 10
-22.67718
 20
27.62367
 30
0.0
 10
-22.67718
 20
28.47406
 30
0.0
 10
-22.67718
 20
28.47406
 30
0.0
 10
-22.67718
 20
28.47406
 30
0.0
 10
-22.67718
 20
28.47406
 30
0.0
 10
-20.40947
 20
28.47406
 30
0.0
 10
-20.40947
 20
28.47406
 30
0.0
 10
-20.40947
 20
28.47406
 30
0.0
 10
-20.40947
 20
28.47406
 30
0.0
 10
-20.40947
 20
27.62367
 30
0.0
 10
-20.40947
 20
27.62367
 30
0.0
 10
-20.40947
 20
27.62367
 30
0.0
 10
-20.40947
 20
27.62367
 30
0.0
 10
-18.14175
 20
27.62367
 30
0.0
 10
-18.14175
 20
27.62367
 30
0.0
 10
-18.14175
 20
27.62367
 30
0.0
 10
-18.14175
 20
27.62367
 30
0.0
 10
-18.14175
 20
28.47406
 30
0.0
 10
-18.14175
 20
28.47406
 30
0.0
 10
-18.14175
 20
28.47406
 30
0.0
 10
-18.14175
 20
28.47406
 30
0.0
 10
-15.87403
 20
28.47406
 30
0.0
 10
-15.87403
 20
28.47406
 30
0.0
 10
-15.87403
 20
28.47406
 30
0.0
 10
-15.87403
 20
28.47406
 30
0.0
 10
-15.87403
 20
27.62367
 30
0.0
 10
-15.87403
 20
27.62367
 30
0.0
 10
-15.87403
 20
27.62367
 30
0.0
 10
-15.87403
 20
27.62367
 30
0.0
 10
-13.60631
 20
27.62367
 30
0.0
 10
-13.60631
 20
27.62367
 30
0.0
 10
-13.60631
 20
27.62367
 30
0.0
 10
-13.60631
 20
27.62367
 30
0.0
 10
-13.60631
 20
28.47406
 30
0.0
 10
-13.60631
 20
28.47406
 30
0.0
 10
-13.60631
 20
28.47406
 30
0.0
 10
-13.60631
 20
28.47406
 30
0.0
 10
-11.33859
 20
28.47406
 30
0.0
 10
-11.33859
 20
28.47406
 30
0.0
 10
-11.33859
 20
28.47406
 30
0.0
 10
-11.33859
 20
28.47406
 30
0.0
 10
-11.33859
 20
27.62367
 30
0.0
 10
-11.33859
 20
27.62367
 30
0.0
 10
-11.33859
 20
27.62367
 30
0.0
 10
-11.33859
 20
27.62367
 30
0.0
 10
-9.07087
 20
27.62367
 30
0.0
 10
-9.07087
 20
27.62367
 30
0.0
 10
-9.07087
 20
27.62367
 30
0.0
 10
-9.07087
 20
27.62367
 30
0.0
 10
-9.07087
 20
28.47406
 30
0.0
 10
-9.07087
 20
28.47406
 30
0.0
 10
-9.07087
 20
28.47406
 30
0.0
 10
-9.07087
 20
28.47406
 30
0.0
 10
-6.80316
 20
28.47406
 30
0.0
 10
-6.80316
 20
28.47406
 30
0.0
 10
-6.80316
 20
28.47406
 30
0.0
 10
-6.80316
 20
28.47406
 30
0.0
 10
-6.80316
 20
27.62367
 30
0.0
 10
-6.80316
 20
27.62367
 30
0.0
 10
-6.80316
 20
27.62367
 30
0.0
 10
-6.80316
 20
27.62367
 30
0.0
 10
-3.40158
 20
27.62367
 30
0.0
 10
-3.40158
 20
27.62367
 30
0.0
 10
-3.40158
 20
27.62367
 30
0.0
 10
-3.40158
 20
27.62367
 30
0.0
 10
-3.40158
 20
28.47406
 30
0.0
 10
-3.40158
 20
28.47406
 30
0.0
 10
-3.40158
 20
28.47406
 30
0.0
 10
-3.40158
 20
28.47406
 30
0.0
 10
0.0
 20
28.47406
 30
0.0
 10
0.0
 20
28.47406
 30
0.0
 10
0.0
 20
28.47406
 30
0.0
 10
0.0
 20
28.47406
 30
0.0
 10
0.0
 20
25.49768
 30
0.0
 10
0.0
 20
25.49768
 30
0.0
 10
0.0
 20
25.49768
 30
0.0
 10
0.0
 20
25.49768
 30
0.0
 10
-0.85039
 20
25.49768
 30
0.0
 10
-0.85039
 20
25.49768
 30
0.0
 10
-0.85039
 20
25.49768
 30
0.0
 10
-0.85039
 20
25.49768
 30
0.0
 10
-0.85039
 20
22.5213
 30
0.0
 10
-0.85039
 20
22.5213
 30
0.0
 10
-0.85039
 20
22.5213
 30
0.0
 10
-0.85039
 20
22.5213
 30
0.0
 10
0.0
 20
22.5213
 30
0.0
 10
0.0
 20
22.5213
 30
0.0
 10
0.0
 20
22.5213
 30
0.0
 10
0.0
 20
22.5213
 30
0.0
 10
0.0
 20
20.25359
 30
0.0
 10
0.0
 20
20.25359
 30
0.0
 10
0.0
 20
20.25359
 30
0.0
 10
0.0
 20
20.25359
 30
0.0
 10
-0.85039
 20
20.25359
 30
0.0
 10
-0.85039
 20
20.25359
 30
0.0
 10
-0.85039
 20
20.25359
 30
0.0
 10
-0.85039
 20
20.25359
 30
0.0
 10
-0.85039
 20
17.27721
 30
0.0
 10
-0.85039
 20
17.27721
 30
0.0
 10
-0.85039
 20
17.27721
 30
0.0
 10
-0.85039
 20
17.27721
 30
0.0
 10
0.0
 20
17.27721
 30
0.0
 10
0.0
 20
17.27721
 30
0.0
 10
0.0
 20
17.27721
 30
0.0
 10
0.0
 20
17.27721
 30
0.0
 10
0.0
 20
14.30082
 30
0.0
 10
0.0
 20
14.30082
 30
0.0
 10
0.0
 20
14.30082
 30
0.0
 10
0.0
 20
14.30082
 30
0.0
 10
-34.01578
 20
14.30082
 30
0.0
 10
-34.01578
 20
14.30082
 30
0.0
 10
-34.01578
 20
14.30082
 30
0.0
 10
-34.01578
 20
14.30082
 30
0.0
 10
-34.01578
 20
17.27721
 30
0.0
 10
-34.01578
 20
17.27721
 30
0.0
 10
-34.01578
 20
17.27721
 30
0.0
 10
-34.01578
 20
17.27721
 30
0.0
 10
-33.16538
 20
17.27721
 30
0.0
 10
-33.16538
 20
17.27721
 30
0.0
 10
-33.16538
 20
17.27721
 30
0.0
 10
-33.16538
 20
17.27721
 30
0.0
 10
-33.16538
 20
20.25359
 30
0.0
 10
-33.16538
 20
20.25359
 30
0.0
 10
-33.16538
 20
20.25359
 30
0.0
 10
-33.16538
 20
20.25359
 30
0.0
 10
-34.01578
 20
20.25359
 30
0.0
 10
-34.01578
 20
20.25359
 30
0.0
 10
-34.01578
 20
20.25359
 30
0.0
 10
-34.01578
 20
20.25359
 30
0.0
 10
-34.01578
 20
22.5213
 30
0.0
 10
-34.01578
 20
22.5213
 30
0.0
 10
-34.01578
 20
22.5213
 30
0.0
 10
-34.01578
 20
22.5213
 30
0.0
 10
-33.16538
 20
22.5213
 30
0.0
 10
-33.16538
 20
22.5213
 30
0.0
 10
-33.16538
 20
22.5213
 30
0.0
 10
-33.16538
 20
22.5213
 30
0.0
 10
-33.16538
 20
25.49768
 30
0.0
 10
-33.16538
 20
25.49768
 30
0.0
 10
-33.16538
 20
25.49768
 30
0.0
 10
-33.16538
 20
25.49768
 30
0.0
 10
-34.01578
 20
25.49768
 30
0.0
 10
-34.01578
 20
25.49768
 30
0.0
 10
-34.01578
 20
25.49768
 30
0.0
 10
-34.01578
 20
25.49768
 30
0.0
 10
-34.01578
 20
28.47406
 30
0.0
 10
-34.01578
 20
28.47406
 30
0.0
 10
-34.01578
 20
28.47406
 30
0.0
 10
-34.01578
 20
28.47406
 30
0.0
 10
-34.01578
 20
28.47406
 30
0.0
 10
-34.01578
 20
28.47406
 30
0.0
  0
SPLINE
  5
71
330
1F
100
AcDbEntity
  8
layer 1
370
     9
100
AcDbSpline
210
0.0
220
0.0
230
1.0
 70
    11
 71
     3
 72
   184
 73
   180
 74
     0
 42
0.000000001
 43
0.0000000001
 40
0.0
 40
0.0
 40
0.0
 40
0.0
 40
0.0217391304347826
 40
0.0217391304347826
 40
0.0217391304347826
 40
0.0217391304347826
 40
0.0434782608695652
 40
0.0434782608695652
 40
0.0434782608695652
 40
0.0434782608695652
 40
0.0652173913043478
 40
0.0652173913043478
 40
0.0652173913043478
 40
0.0652173913043478
 40
0.0869565217391304
 40
0.0869565217391304
 40
0.0869565217391304
 40
0.0869565217391304
 40
0.108695652173913
 40
0.108695652173913
 40
0.108695652173913
 40
0.108695652173913
 40
0.1304347826086956
 40
0.1304347826086956
 40
0.1304347826086956
 40
0.1304347826086956
 40
0.1521739130434783
 40
0.1521739130434783
 40
0.1521739130434783
 40
0.1521739130434783
 40
0.1739130434782609
 40
0.1739130434782609
 40
0.1739130434782609
 40
0.1739130434782609
 40
0.1956521739130435
 40
0.1956521739130435
 40
0.1956521739130435
 40
0.1956521739130435
 40
0.2173913043478261
 40
0.2173913043478261
 40
0.2173913043478261
 40
0.2173913043478261
 40
0.2391304347826087
 40
0.2391304347826087
 40
0.2391304347826087
 40
0.2391304347826087
 40
0.2608695652173913
 40
0.2608695652173913
 40
0.2608695652173913
 40
0.2608695652173913
 40
0.2826086956521739
 40
0.2826086956521739
 40
0.2826086956521739
 40
0.2826086956521739
 40
0.3043478260869565
 40
0.3043478260869565
 40
0.3043478260869565
 40
0.3043478260869565
 40
0.3260869565217391
 40
0.3260869565217391
 40
0.3260869565217391
 40
0.3260869565217391
 40
0.3478260869565217
 40
0.3478260869565217
 40
0.3478260869565217
 40
0.3478260869565217
 40
0.3695652173913043
 40
0.3695652173913043
 40
0.3695652173913043
 40
0.3695652173913043
 40
0.391304347826087
 40
0.391304347826087
 40
0.391304347826087
 40
0.391304347826087
 40
0.4130434782608696
 40
0.4130434782608696
 40
0.4130434782608696
 40
0.4130434782608696
 40
0.4347826086956522
 40
0.4347826086956522
 40
0.4347826086956522
 40
0.4347826086956522
 40
0.4565217391304348
 40
0.4565217391304348
 40
0.4565217391304348
 40
0.4565217391304348
 40
0.4782608695652174
 40
0.4782608695652174
 40
0.4782608695652174
 40
0.4782608695652174
 40
0.5
 40
0.5
 40
0.5
 40
0.5
 40
0.5217391304347826
 40
0.5217391304347826
 40
0.5217391304347826
 40
0.5217391304347826
 40
0.5434782608695652
 40
0.5434782608695652
 40
0.5434782608695652
 40
0.5434782608695652
 40
0.5652173913043478
 40
0.5652173913043478
 40
0.5652173913043478
 40
0.5652173913043478
 40
0.5869565217391305
 40
0.5869565217391305
 40
0.5869565217391305
 40
0.5869565217391305
 40
0.6086956521739131
 40
0.6086956521739131
 40
0.6086956521739131
 40
0.6086956521739131
 40
0.6304347826086957
 40
0.6304347826086957
 40
0.6304347826086957
 40
0.6304347826086957
 40
0.6521739130434783
 40
0.6521739130434783
 40
0.6521739130434783
 40
0.6521739130434783
 40
0.6739130434782609
 40
0.6739130434782609
 40
0.6739130434782609
 40
0.6739130434782609
 40
0.6956521739130435
 40
0.6956521739130435
 40
0.6956521739130435
 40
0.6956521739130435
 40
0.717391304347826
 40
0.717391304347826
 40
0.717391304347826
 40
0.717391304347826
 40
0.7391304347826086
 40
0.7391304347826086
 40
0.7391304347826086
 40
0.7391304347826086
 40
0.7608695652173914
 40
0.7608695652173914
 40
0.7608695652173914
 40
0.7608695652173914
 40
0.782608695652174
 40
0.782608695652174
 40
0.782608695652174
 40
0.782608695652174
 40
0.8043478260869565
 40
0.8043478260869565
 40
0.8043478260869565
 40
0.8043478260869565
 40
0.8260869565217391
 40
0.8260869565217391
 40
0.8260869565217391
 40
0.8260869565217391
 40
0.8478260869565217
 40
0.8478260869565217
 40
0.8478260869565217
 40
0.8478260869565217
 40
0.8695652173913043
 40
0.8695652173913043
 40
0.8695652173913043
 40
0.8695652173913043
 40
0.8913043478260869
 40
0.8913043478260869
 40
0.8913043478260869
 40
0.8913043478260869
 40
0.9130434782608695
 40
0.9130434782608695
 40
0.9130434782608695
 40
0.9130434782608695
 40
0.9347826086956522
 40
0.9347826086956522
 40
0.9347826086956522
 40
0.9347826086956522
 40
0.9565217391304348
 40
0.9565217391304348
 40
0.9565217391304348
 40
0.9565217391304348
 40
1.0
 40
1.0
 40
1.0
 40
1.0
 10
0.0
 20
28.47406
 30
0.0
 10
0.0
 20
28.47406
 30
0.0
 10
3.40158
 20
28.47406
 30
0.0
 10
3.40158
 20
28.47406
 30
0.0
 10
3.40158
 20
28.47406
 30
0.0
 10
3.40158
 20
28.47406
 30
0.0
 10
3.40158
 20
27.62367
 30
0.0
 10
3.40158
 20
27.62367
 30
0.0
 10
3.40158
 20
27.62367
 30
0.0
 10
3.40158
 20
27.62367
 30
0.0
 10
6.80316
 20
27.62367
 30
0.0
 10
6.80316
 20
27.62367
 30
0.0
 10
6.80316
 20
27.62367
 30
0.0
 10
6.80316
 20
27.62367
 30
0.0
 10
6.80316
 20
28.47406
 30
0.0
 10
6.80316
 20
28.47406
 30
0.0
 10
6.80316
 20
28.47406
 30
0.0
 10
6.80316
 20
28.47406
 30
0.0
 10
9.07087
 20
28.47406
 30
0.0
 10
9.07087
 20
28.47406
 30
0.0
 10
9.07087
 20
28.47406
 30
0.0
 10
9.07087
 20
28.47406
 30
0.0
 10
9.07087
 20
27.62367
 30
0.0
 10
9.07087
 20
27.62367
 30
0.0
 10
9.07087
 20
27.62367
 30
0.0
 10
9.07087
 20
27.62367
 30
0.0
 10
11.33859
 20
27.62367
 30
0.0
 10
11.33859
 20
27.62367
 30
0.0
 10
11.33859
 20
27.62367
 30
0.0
 10
11.33859
 20
27.62367
 30
0.0
 10
11.33859
 20
28.47406
 30
0.0
 10
11.33859
 20
28.47406
 30
0.0
 10
11.33859
 20
28.47406
 30
0.0
 10
11.33859
 20
28.47406
 30
0.0
 10
13.60631
 20
28.47406
 30
0.0
 10
13.60631
 20
28.47406
 30
0.0
 10
13.60631
 20
28.47406
 30
0.0
 10
13.60631
 20
28.47406
 30
0.0
 10
13.60631
 20
27.62367
 30
0.0
 10
13.60631
 20
27.62367
 30
0.0
 10
13.60631
 20
27.62367
 30
0.0
 10
13.60631
 20
27.62367
 30
0.0
 10
15.87403
 20
27.62367
 30
0.0
 10
15.87403
 20
27.62367
 30
0.0
 10
15.87403
 20
27.62367
 30
0.0
 10
15.87403
 20
27.62367
 30
0.0
 10
15.87403
 20
28.47406
 30
0.0
 10
15.87403
 20
28.47406
 30
0.0
 10
15.87403
 20
28.47406
 30
0.0
 10
15.87403
 20
28.47406
 30
0.0
 10
18.14175
 20
28.47406
 30
0.0
 10
18.14175
 20
28.47406
 30
0.0
 10
18.14175
 20
28.47406
 30
0.0
 10
18.14175
 20
28.47406
 30
0.0
 10
18.14175
 20
27.62367
 30
0.0
 10
18.14175
 20
27.62367
 30
0.0
 10
18.14175
 20
27.62367
 30
0.0
 10
18.14175
 20
27.62367
 30
0.0
 10
20.40947
 20
27.62367
 30
0.0
 10
20.40947
 20
27.62367
 30
0.0
 10
20.40947
 20
27.62367
 30
0.0
 10
20.40947
 20
27.62367
 30
0.0
 10
20.40947
 20
28.47406
 30
0.0
 10
20.40947
 20
28.47406
 30
0.0
 10
20.40947
 20
28.47406
 30
0.0
 10
20.40947
 20
28.47406
 30
0.0
 10
22.67718
 20
28.47406
 30
0.0
 10
22.67718
 20
28.47406
 30
0.0
 10
22.67718
 20
28.47406
 30
0.0
 10
22.67718
 20
28.47406
 30
0.0
 10
22.67718
 20
27.62367
 30
0.0
 10
22.67718
 20
27.62367
 30
0.0
 10
22.67718
 20
27.62367
 30
0.0
 10
22.67718
 20
27.62367
 30
0.0
 10
24.9449
 20
27.62367
 30
0.0
 10
24.9449
 20
27.62367
 30
0.0
 10
24.9449
 20
27.62367
 30
0.0
 10
24.9449
 20
27.62367
 30
0.0
 10
24.9449
 20
28.47406
 30
0.0
 10
24.9449
 20
28.47406
 30
0.0
 10
24.9449
 20
28.47406
 30
0.0
 10
24.9449
 20
28.47406
 30
0.0
 10
27.21262
 20
28.47406
 30
0.0
 10
27.21262
 20
28.47406
 30
0.0
 10
27.21262
 20
28.47406
 30
0.0
 10
27.21262
 20
28.47406
 30
0.0
 10
27.21262
 20
27.62367
 30
0.0
 10
27.21262
 20
27.62367
 30
0.0
 10
27.21262
 20
27.62367
 30
0.0
 10
27.21262
 20
27.62367
 30
0.0
 10
30.6142
 20
27.62367
 30
0.0
 10
30.6142
 20
27.62367
 30
0.0
 10
30.6142
 20
27.62367
 30
0.0
 10
30.6142
 20
27.62367
 30
0.0
 10
30.6142
 20
28.47406
 30
0.0
 10
30.6142
 20
28.47406
 30
0.0
 10
30.6142
 20
28.47406
 30
0.0
 10
30.6142
 20
28.47406
 30
0.0
 10
34.01578
 20
28.47406
 30
0.0
 10
34.01578
 20
28.47406
 30
0.0
 10
34.01578
 20
28.47406
 30
0.0
 10
34.01578
 20
28.47406
 30
0.0
 10
34.01578
 20
25.49768
 30
0.0
 10
34.01578
 20
25.49768
 30
0.0
 10
34.01578
 20
25.49768
 30
0.0
 10
34.01578
 20
25.49768
 30
0.0
 10
33.16538
 20
25.49768
 30
0.0
 10
33.16538
 20
25.49768
 30
0.0
 10
33.16538
 20
25.49768
 30
0.0
 10
33.16538
 20
25.49768
 30
0.0
 10
33.16538
 20
22.5213
 30
0.0
 10
33.16538
 20
22.5213
 30
0.0
 10
33.16538
 20
22.5213
 30
0.0
 10
33.16538
 20
22.5213
 30
0.0
 10
34.01578
 20
22.5213
 30
0.0
 10
34.01578
 20
22.5213
 30
0.0
 10
34.01578
 20
22.5213
 30
0.0
 10
34.01578
 20
22.5213
 30
0.0
 10
34.01578
 20
20.25359
 30
0.0
 10
34.01578
 20
20.25359
 30
0.0
 10
34.01578
 20
20.25359
 30
0.0
 10
34.01578
 20
20.25359
 30
0.0
 10
33.16538
 20
20.25359
 30
0.0
 10
33.16538
 20
20.25359
 30
0.0
 10
33.16538
 20
20.25359
 30
0.0
 10
33.16538
 20
20.25359
 30
0.0
 10
33.16538
 20
17.27721
 30
0.0
 10
33.16538
 20
17.27721
 30
0.0
 10
33.16538
 20
17.27721
 30
0.0
 10
33.16538
 20
17.27721
 30
0.0
 10
34.01578
 20
17.27721
 30
0.0
 10
34.01578
 20
17.27721
 30
0.0
 10
34.01578
 20
17.27721
 30
0.0
 10
34.01578
 20
17.27721
 30
0.0
 10
34.01578
 20
14.30082
 30
0.0
 10
34.01578
 20
14.30082
 30
0.0
 10
34.01578
 20
14.30082
 30
0.0
 10
34.01578
 20
14.30082
 30
0.0
 10
0.0
 20
14.30082
 30
0.0
 10
0.0
 20
14.30082
 30
0.0
 10
0.0
 20
14.30082
 30
0.0
 10
0.0
 20
14.30082
 30
0.0
 10
0.0
 20
17.27721
 30
0.0
 10
0.0
 20
17.27721
 30
0.0
 10
0.0
 20
17.27721
 30
0.0
 10
0.0
 20
17.27721
 30
0.0
 10
0.85039
 20
17.27721
 30
0.0
 10
0.85039
 20
17.27721
 30
0.0
 10
0.85039
 20
17.27721
 30
0.0
 10
0.85039
 20
17.27721
 30
0.0
 10
0.85039
 20
20.25359
 30
0.0
 10
0.85039
 20
20.25359
 30
0.0
 10
0.85039
 20
20.25359
 30
0.0
 10
0.85039
 20
20.25359
 30
0.0
 10
0.0
 20
20.25359
 30
0.0
 10
0.0
 20
20.25359
 30
0.0
 10
0.0
 20
20.25359
 30
0.0
 10
0.0
 20
20.25359
 30
0.0
 10
0.0
 20
22.5213
 30
0.0
 10
0.0
 20
22.5213
 30
0.0
 10
0.0
 20
22.5213
 30
0.0
 10
0.0
 20
22.5213
 30
0.0
 10
0.85039
 20
22.5213
 30
0.0
 10
0.85039
 20
22.5213
 30
0.0
 10
0.85039
 20
22.5213
 30
0.0
 10
0.85039
 20
22.5213
 30
0.0
 10
0.85039
 20
25.49768
 30
0.0
 10
0.85039
 20
25.49768
 30
0.0
 10
0.85039
 20
25.49768
 30
0.0
 10
0.85039
 20
25.49768
 30
0.0
 10
0.0
 20
25.49768
 30
0.0
 10
0.0
 20
25.49768
 30
0.0
 10
0.0
 20
25.49768
 30
0.0
 10
0.0
 20
25.49768
 30
0.0
 10
0.0
 20
28.47406
 30
0.0
 10
0.0
 20
28.47406
 30
0.0
 10
0.0
 20
28.47406
 30
0.0
 10
0.0
 20
28.47406
 30
0.0
 10
0.0
 20
28.47406
 30
0.0
 10
0.0
 20
28.47406
 30
0.0
  0
SPLINE
  5
72
330
1F
100
AcDbEntity
  8
layer 1
370
     9
100
AcDbSpline
210
0.0
220
0.0
230
1.0
 70
    11
 71
     3
 72
   216
 73
   212
 74
     0
 42
0.000000001
 43
0.0000000001
 40
0.0
 40
0.0
 40
0.0
 40
0.0
 40
0.0185185185185185
 40
0.0185185185185185
 40
0.0185185185185185
 40
0.0185185185185185
 40
0.037037037037037
 40
0.037037037037037
 40
0.037037037037037
 40
0.037037037037037
 40
0.0555555555555556
 40
0.0555555555555556
 40
0.0555555555555556
 40
0.0555555555555556
 40
0.0740740740740741
 40
0.0740740740740741
 40
0.0740740740740741
 40
0.0740740740740741
 40
0.0925925925925926
 40
0.0925925925925926
 40
0.0925925925925926
 40
0.0925925925925926
 40
0.1111111111111111
 40
0.1111111111111111
 40
0.1111111111111111
 40
0.1111111111111111
 40
0.1296296296296296
 40
0.1296296296296296
 40
0.1296296296296296
 40
0.1296296296296296
 40
0.1481481481481481
 40
0.1481481481481481
 40
0.1481481481481481
 40
0.1481481481481481
 40
0.1666666666666667
 40
0.1666666666666667
 40
0.1666666666666667
 40
0.1666666666666667
 40
0.1851851851851852
 40
0.1851851851851852
 40
0.1851851851851852
 40
0.1851851851851852
 40
0.2037037037037037
 40
0.2037037037037037
 40
0.2037037037037037
 40
0.2037037037037037
 40
0.2222222222222222
 40
0.2222222222222222
 40
0.2222222222222222
 40
0.2222222222222222
 40
0.2407407407407407
 40
0.2407407407407407
 40
0.2407407407407407
 40
0.2407407407407407
 40
0.2592592592592592
 40
0.2592592592592592
 40
0.2592592592592592
 40
0.2592592592592592
 40
0.2777777777777778
 40
0.2777777777777778
 40
0.2777777777777778
 40
0.2777777777777778
 40
0.2962962962962963
 40
0.2962962962962963
 40
0.2962962962962963
 40
0.2962962962962963
 40
0.3148148148148148
 40
0.3148148148148148
 40
0.3148148148148148
 40
0.3148148148148148
 40
0.3333333333333333
 40
0.3333333333333333
 40
0.3333333333333333
 40
0.3333333333333333
 40
0.3518518518518519
 40
0.3518518518518519
 40
0.3518518518518519
 40
0.3518518518518519
 40
0.3703703703703703
 40
0.3703703703703703
 40
0.3703703703703703
 40
0.3703703703703703
 40
0.3888888888888889
 40
0.3888888888888889
 40
0.3888888888888889
 40
0.3888888888888889
 40
0.4074074074074074
 40
0.4074074074074074
 40
0.4074074074074074
 40
0.4074074074074074
 40
0.4259259259259259
 40
0.4259259259259259
 40
0.4259259259259259
 40
0.4259259259259259
 40
0.4444444444444444
 40
0.4444444444444444
 40
0.4444444444444444
 40
0.4444444444444444
 40
0.462962962962963
 40
0.462962962962963
 40
0.462962962962963
 40
0.462962962962963
 40
0.4814814814814815
 40
0.4814814814814815
 40
0.4814814814814815
 40
0.4814814814814815
 40
0.5
 40
0.5
 40
0.5
 40
0.5
 40
0.5185185185185185
 40
0.5185185185185185
 40
0.5185185185185185
 40
0.5185185185185185
 40
0.5370370370370371
 40
0.5370370370370371
 40
0.5370370370370371
 40
0.5370370370370371
 40
0.5555555555555556
 40
0.5555555555555556
 40
0.5555555555555556
 40
0.5555555555555556
 40
0.5740740740740741
 40
0.5740740740740741
 40
0.5740740740740741
 40
0.5740740740740741
 40
0.5925925925925926
 40
0.5925925925925926
 40
0.5925925925925926
 40
0.5925925925925926
 40
0.6111111111111112
 40
0.6111111111111112
 40
0.6111111111111112
 40
0.6111111111111112
 40
0.6296296296296297
 40
0.6296296296296297
 40
0.6296296296296297
 40
0.6296296296296297
 40
0.6481481481481481
 40
0.6481481481481481
 40
0.6481481481481481
 40
0.6481481481481481
 40
0.6666666666666666
 40
0.6666666666666666
 40
0.6666666666666666
 40
0.6666666666666666
 40
0.6851851851851852
 40
0.6851851851851852
 40
0.6851851851851852
 40
0.6851851851851852
 40
0.7037037037037037
 40
0.7037037037037037
 40
0.7037037037037037
 40
0.7037037037037037
 40
0.7222222222222222
 40
0.7222222222222222
 40
0.7222222222222222
 40
0.7222222222222222
 40
0.7407407407407407
 40
0.7407407407407407
 40
0.7407407407407407
 40
0.7407407407407407
 40
0.7592592592592593
 40
0.7592592592592593
 40
0.7592592592592593
 40
0.7592592592592593
 40
0.7777777777777778
 40
0.7777777777777778
 40
0.7777777777777778
 40
0.7777777777777778
 40
0.7962962962962963
 40
0.7962962962962963
 40
0.7962962962962963
 40
0.7962962962962963
 40
0.8148148148148148
 40
0.8148148148148148
 40
0.8148148148148148
 40
0.8148148148148148
 40
0.8333333333333334
 40
0.8333333333333334
 40
0.8333333333333334
 40
0.8333333333333334
 40
0.8518518518518519
 40
0.8518518518518519
 40
0.8518518518518519
 40
0.8518518518518519
 40
0.8703703703703703
 40
0.8703703703703703
 40
0.8703703703703703
 40
0.8703703703703703
 40
0.8888888888888888
 40
0.8888888888888888
 40
0.8888888888888888
 40
0.8888888888888888
 40
0.9074074074074074
 40
0.9074074074074074
 40
0.9074074074074074
 40
0.9074074074074074
 40
0.9259259259259259
 40
0.9259259259259259
 40
0.9259259259259259
 40
0.9259259259259259
 40
0.9444444444444444
 40
0.9444444444444444
 40
0.9444444444444444
 40
0.9444444444444444
 40
0.9629629629629629
 40
0.9629629629629629
 40
0.9629629629629629
 40
0.9629629629629629
 40
1.0
 40
1.0
 40
1.0
 40
1.0
 10
15.53272
 20
-27.62367
 30
0.0
 10
15.53272
 20
-27.62367
 30
0.0
 10
15.53272
 20
-25.21422
 30
0.0
 10
15.53272
 20
-25.21422
 30
0.0
 10
15.53272
 20
-25.21422
 30
0.0
 10
15.53272
 20
-25.21422
 30
0.0
 10
16.38312
 20
-25.21422
 30
0.0
 10
16.38312
 20
-25.21422
 30
0.0
 10
16.38312
 20
-25.21422
 30
0.0
 10
16.38312
 20
-25.21422
 30
0.0
 10
16.38312
 20
-21.95437
 30
0.0
 10
16.38312
 20
-21.95437
 30
0.0
 10
16.38312
 20
-21.95437
 30
0.0
 10
16.38312
 20
-21.95437
 30
0.0
 10
15.53272
 20
-21.95437
 30
0.0
 10
15.53272
 20
-21.95437
 30
0.0
 10
15.53272
 20
-21.95437
 30
0.0
 10
15.53272
 20
-21.95437
 30
0.0
 10
15.53272
 20
-19.68666
 30
0.0
 10
15.53272
 20
-19.68666
 30
0.0
 10
15.53272
 20
-19.68666
 30
0.0
 10
15.53272
 20
-19.68666
 30
0.0
 10
16.38312
 20
-19.68666
 30
0.0
 10
16.38312
 20
-19.68666
 30
0.0
 10
16.38312
 20
-19.68666
 30
0.0
 10
16.38312
 20
-19.68666
 30
0.0
 10
16.38312
 20
-17.41894
 30
0.0
 10
16.38312
 20
-17.41894
 30
0.0
 10
16.38312
 20
-17.41894
 30
0.0
 10
16.38312
 20
-17.41894
 30
0.0
 10
15.53272
 20
-17.41894
 30
0.0
 10
15.53272
 20
-17.41894
 30
0.0
 10
15.53272
 20
-17.41894
 30
0.0
 10
15.53272
 20
-17.41894
 30
0.0
 10
15.53272
 20
-15.15122
 30
0.0
 10
15.53272
 20
-15.15122
 30
0.0
 10
15.53272
 20
-15.15122
 30
0.0
 10
15.53272
 20
-15.15122
 30
0.0
 10
16.38312
 20
-15.15122
 30
0.0
 10
16.38312
 20
-15.15122
 30
0.0
 10
16.38312
 20
-15.15122
 30
0.0
 10
16.38312
 20
-15.15122
 30
0.0
 10
16.38312
 20
-12.8835
 30
0.0
 10
16.38312
 20
-12.8835
 30
0.0
 10
16.38312
 20
-12.8835
 30
0.0
 10
16.38312
 20
-12.8835
 30
0.0
 10
15.53272
 20
-12.8835
 30
0.0
 10
15.53272
 20
-12.8835
 30
0.0
 10
15.53272
 20
-12.8835
 30
0.0
 10
15.53272
 20
-12.8835
 30
0.0
 10
15.53272
 20
-10.61578
 30
0.0
 10
15.53272
 20
-10.61578
 30
0.0
 10
15.53272
 20
-10.61578
 30
0.0
 10
15.53272
 20
-10.61578
 30
0.0
 10
16.38312
 20
-10.61578
 30
0.0
 10
16.38312
 20
-10.61578
 30
0.0
 10
16.38312
 20
-10.61578
 30
0.0
 10
16.38312
 20
-10.61578
 30
0.0
 10
16.38312
 20
-8.34806
 30
0.0
 10
16.38312
 20
-8.34806
 30
0.0
 10
16.38312
 20
-8.34806
 30
0.0
 10
16.38312
 20
-8.34806
 30
0.0
 10
15.53272
 20
-8.34806
 30
0.0
 10
15.53272
 20
-8.34806
 30
0.0
 10
15.53272
 20
-8.34806
 30
0.0
 10
15.53272
 20
-8.34806
 30
0.0
 10
15.53272
 20
-6.08035
 30
0.0
 10
15.53272
 20
-6.08035
 30
0.0
 10
15.53272
 20
-6.08035
 30
0.0
 10
15.53272
 20
-6.08035
 30
0.0
 10
16.38312
 20
-6.08035
 30
0.0
 10
16.38312
 20
-6.08035
 30
0.0
 10
16.38312
 20
-6.08035
 30
0.0
 10
16.38312
 20
-6.08035
 30
0.0
 10
16.38312
 20
-3.81263
 30
0.0
 10
16.38312
 20
-3.81263
 30
0.0
 10
16.38312
 20
-3.81263
 30
0.0
 10
16.38312
 20
-3.81263
 30
0.0
 10
15.53272
 20
-3.81263
 30
0.0
 10
15.53272
 20
-3.81263
 30
0.0
 10
15.53272
 20
-3.81263
 30
0.0
 10
15.53272
 20
-3.81263
 30
0.0
 10
15.53272
 20
-1.54491
 30
0.0
 10
15.53272
 20
-1.54491
 30
0.0
 10
15.53272
 20
-1.54491
 30
0.0
 10
15.53272
 20
-1.54491
 30
0.0
 10
16.38312
 20
-1.54491
 30
0.0
 10
16.38312
 20
-1.54491
 30
0.0
 10
16.38312
 20
-1.54491
 30
0.0
 10
16.38312
 20
-1.54491
 30
0.0
 10
16.38312
 20
0.72281
 30
0.0
 10
16.38312
 20
0.72281
 30
0.0
 10
16.38312
 20
0.72281
 30
0.0
 10
16.38312
 20
0.72281
 30
0.0
 10
15.53272
 20
0.72281
 30
0.0
 10
15.53272
 20
0.72281
 30
0.0
 10
15.53272
 20
0.72281
 30
0.0
 10
15.53272
 20
0.72281
 30
0.0
 10
15.53272
 20
2.99053
 30
0.0
 10
15.53272
 20
2.99053
 30
0.0
 10
15.53272
 20
2.99053
 30
0.0
 10
15.53272
 20
2.99053
 30
0.0
 10
16.38312
 20
2.99053
 30
0.0
 10
16.38312
 20
2.99053
 30
0.0
 10
16.38312
 20
2.99053
 30
0.0
 10
16.38312
 20
2.99053
 30
0.0
 10
16.38312
 20
5.25825
 30
0.0
 10
16.38312
 20
5.25825
 30
0.0
 10
16.38312
 20
5.25825
 30
0.0
 10
16.38312
 20
5.25825
 30
0.0
 10
15.53272
 20
5.25825
 30
0.0
 10
15.53272
 20
5.25825
 30
0.0
 10
15.53272
 20
5.25825
 30
0.0
 10
15.53272
 20
5.25825
 30
0.0
 10
15.53272
 20
7.52596
 30
0.0
 10
15.53272
 20
7.52596
 30
0.0
 10
15.53272
 20
7.52596
 30
0.0
 10
15.53272
 20
7.52596
 30
0.0
 10
16.38312
 20
7.52596
 30
0.0
 10
16.38312
 20
7.52596
 30
0.0
 10
16.38312
 20
7.52596
 30
0.0
 10
16.38312
 20
7.52596
 30
0.0
 10
16.38312
 20
10.78581
 30
0.0
 10
16.38312
 20
10.78581
 30
0.0
 10
16.38312
 20
10.78581
 30
0.0
 10
16.38312
 20
10.78581
 30
0.0
 10
15.53272
 20
10.78581
 30
0.0
 10
15.53272
 20
10.78581
 30
0.0
 10
15.53272
 20
10.78581
 30
0.0
 10
15.53272
 20
10.78581
 30
0.0
 10
15.53272
 20
13.19526
 30
0.0
 10
15.53272
 20
13.19526
 30
0.0
 10
15.53272
 20
13.19526
 30
0.0
 10
15.53272
 20
13.19526
 30
0.0
 10
18.50911
 20
13.19526
 30
0.0
 10
18.50911
 20
13.19526
 30
0.0
 10
18.50911
 20
13.19526
 30
0.0
 10
18.50911
 20
13.19526
 30
0.0
 10
18.50911
 20
14.04566
 30
0.0
 10
18.50911
 20
14.04566
 30
0.0
 10
18.50911
 20
14.04566
 30
0.0
 10
18.50911
 20
14.04566
 30
0.0
 10
21.48549
 20
14.04566
 30
0.0
 10
21.48549
 20
14.04566
 30
0.0
 10
21.48549
 20
14.04566
 30
0.0
 10
21.48549
 20
14.04566
 30
0.0
 10
21.48549
 20
13.19526
 30
0.0
 10
21.48549
 20
13.19526
 30
0.0
 10
21.48549
 20
13.19526
 30
0.0
 10
21.48549
 20
13.19526
 30
0.0
 10
23.7532
 20
13.19526
 30
0.0
 10
23.7532
 20
13.19526
 30
0.0
 10
23.7532
 20
13.19526
 30
0.0
 10
23.7532
 20
13.19526
 30
0.0
 10
23.7532
 20
14.04566
 30
0.0
 10
23.7532
 20
14.04566
 30
0.0
 10
23.7532
 20
14.04566
 30
0.0
 10
23.7532
 20
14.04566
 30
0.0
 10
26.72958
 20
14.04566
 30
0.0
 10
26.72958
 20
14.04566
 30
0.0
 10
26.72958
 20
14.04566
 30
0.0
 10
26.72958
 20
14.04566
 30
0.0
 10
26.72958
 20
13.19526
 30
0.0
 10
26.72958
 20
13.19526
 30
0.0
 10
26.72958
 20
13.19526
 30
0.0
 10
26.72958
 20
13.19526
 30
0.0
 10
29.70596
 20
13.19526
 30
0.0
 10
29.70596
 20
13.19526
 30
0.0
 10
29.70596
 20
13.19526
 30
0.0
 10
29.70596
 20
13.19526
 30
0.0
 10
29.70596
 20
-27.62367
 30
0.0
 10
29.70596
 20
-27.62367
 30
0.0
 10
29.70596
 20
-27.62367
 30
0.0
 10
29.70596
 20
-27.62367
 30
0.0
 10
26.72958
 20
-27.62367
 30
0.0
 10
26.72958
 20
-27.62367
 30
0.0
 10
26.72958
 20
-27.62367
 30
0.0
 10
26.72958
 20
-27.62367
 30
0.0
 10
26.72958
 20
-28.47406
 30
0.0
 10
26.72958
 20
-28.47406
 30
0.0
 10
26.72958
 20
-28.47406
 30
0.0
 10
26.72958
 20
-28.47406
 30
0.0
 10
23.7532
 20
-28.47406
 30
0.0
 10
23.7532
 20
-28.47406
 30
0.0
 10
23.7532
 20
-28.47406
 30
0.0
 10
23.7532
 20
-28.47406
 30
0.0
 10
23.7532
 20
-27.62367
 30
0.0
 10
23.7532
 20
-27.62367
 30
0.0
 10
23.7532
 20
-27.62367
 30
0.0
 10
23.7532
 20
-27.62367
 30
0.0
 10
21.48549
 20
-27.62367
 30
0.0
 10
21.48549
 20
-27.62367
 30
0.0
 10
21.48549
 20
-27.62367
 30
0.0
 10
21.48549
 20
-27.62367
 30
0.0
 10
21.48549
 20
-28.47406
 30
0.0
 10
21.48549
 20
-28.47406
 30
0.0
 10
21.48549
 20
-28.47406
 30
0.0
 10
21.48549
 20
-28.47406
 30
0.0
 10
18.50911
 20
-28.47406
 30
0.0
 10
18.50911
 20
-28.47406
 30
0.0
 10
18.50911
 20
-28.47406
 30
0.0
 10
18.50911
 20
-28.47406
 30
0.0
 10
18.50911
 20
-27.62367
 30
0.0
 10
18.50911
 20
-27.62367
 30
0.0
 10
18.50911
 20
-27.62367
 30
0.0
 10
18.50911
 20
-27.62367
 30
0.0
 10
15.53272
 20
-27.62367
 30
0.0
 10
15.53272
 20
-27.62367
 30
0.0
 10
15.53272
 20
-27.62367
 30
0.0
 10
15.53272
 20
-27.62367
 30
0.0
 10
15.53272
 20
-27.62367
 30
0.0
 10
15.53272
 20
-27.62367
 30
0.0
  0
SPLINE
  5
73
330
1F
100
AcDbEntity
  8
layer 1
370
     9
100
AcDbSpline
210
0.0
220
0.0
230
1.0
 70
    11
 71
     3
 72
   472
 73
   468
 74
     0
 42
0.000000001
 43
0.0000000001
 40
0.0
 40
0.0
 40
0.0
 40
0.0
 40
0.0084745762711864
 40
0.0084745762711864
 40
0.0084745762711864
 40
0.0084745762711864
 40
0.0169491525423729
 40
0.0169491525423729
 40
0.0169491525423729
 40
0.0169491525423729
 40
0.0254237288135593
 40
0.0254237288135593
 40
0.0254237288135593
 40
0.0254237288135593
 40
0.0338983050847458
 40
0.0338983050847458
 40
0.0338983050847458
 40
0.0338983050847458
 40
0.0423728813559322
 40
0.0423728813559322
 40
0.0423728813559322
 40
0.0423728813559322
 40
0.0508474576271186
 40
0.0508474576271186
 40
0.0508474576271186
 40
0.0508474576271186
 40
0.0593220338983051
 40
0.0593220338983051
 40
0.0593220338983051
 40
0.0593220338983051
 40
0.0677966101694915
 40
0.0677966101694915
 40
0.0677966101694915
 40
0.0677966101694915
 40
0.076271186440678
 40
0.076271186440678
 40
0.076271186440678
 40
0.076271186440678
 40
0.0847457627118644
 40
0.0847457627118644
 40
0.0847457627118644
 40
0.0847457627118644
 40
0.0932203389830508
 40
0.0932203389830508
 40
0.0932203389830508
 40
0.0932203389830508
 40
0.1016949152542373
 40
0.1016949152542373
 40
0.1016949152542373
 40
0.1016949152542373
 40
0.1101694915254237
 40
0.1101694915254237
 40
0.1101694915254237
 40
0.1101694915254237
 40
0.1186440677966102
 40
0.1186440677966102
 40
0.1186440677966102
 40
0.1186440677966102
 40
0.1271186440677966
 40
0.1271186440677966
 40
0.1271186440677966
 40
0.1271186440677966
 40
0.1355932203389831
 40
0.1355932203389831
 40
0.1355932203389831
 40
0.1355932203389831
 40
0.1440677966101695
 40
0.1440677966101695
 40
0.1440677966101695
 40
0.1440677966101695
 40
0.1525423728813559
 40
0.1525423728813559
 40
0.1525423728813559
 40
0.1525423728813559
 40
0.1610169491525424
 40
0.1610169491525424
 40
0.1610169491525424
 40
0.1610169491525424
 40
0.1694915254237288
 40
0.1694915254237288
 40
0.1694915254237288
 40
0.1694915254237288
 40
0.1779661016949153
 40
0.1779661016949153
 40
0.1779661016949153
 40
0.1779661016949153
 40
0.1864406779661017
 40
0.1864406779661017
 40
0.1864406779661017
 40
0.1864406779661017
 40
0.1949152542372881
 40
0.1949152542372881
 40
0.1949152542372881
 40
0.1949152542372881
 40
0.2033898305084746
 40
0.2033898305084746
 40
0.2033898305084746
 40
0.2033898305084746
 40
0.211864406779661
 40
0.211864406779661
 40
0.211864406779661
 40
0.211864406779661
 40
0.2203389830508475
 40
0.2203389830508475
 40
0.2203389830508475
 40
0.2203389830508475
 40
0.2288135593220339
 40
0.2288135593220339
 40
0.2288135593220339
 40
0.2288135593220339
 40
0.2372881355932203
 40
0.2372881355932203
 40
0.2372881355932203
 40
0.2372881355932203
 40
0.2457627118644068
 40
0.2457627118644068
 40
0.2457627118644068
 40
0.2457627118644068
 40
0.2542372881355932
 40
0.2542372881355932
 40
0.2542372881355932
 40
0.2542372881355932
 40
0.2627118644067797
 40
0.2627118644067797
 40
0.2627118644067797
 40
0.2627118644067797
 40
0.2711864406779661
 40
0.2711864406779661
 40
0.2711864406779661
 40
0.2711864406779661
 40
0.2796610169491525
 40
0.2796610169491525
 40
0.2796610169491525
 40
0.2796610169491525
 40
0.288135593220339
 40
0.288135593220339
 40
0.288135593220339
 40
0.288135593220339
 40
0.2966101694915254
 40
0.2966101694915254
 40
0.2966101694915254
 40
0.2966101694915254
 40
0.3050847457627119
 40
0.3050847457627119
 40
0.3050847457627119
 40
0.3050847457627119
 40
0.3135593220338983
 40
0.3135593220338983
 40
0.3135593220338983
 40
0.3135593220338983
 40
0.3220338983050847
 40
0.3220338983050847
 40
0.3220338983050847
 40
0.3220338983050847
 40
0.3305084745762712
 40
0.3305084745762712
 40
0.3305084745762712
 40
0.3305084745762712
 40
0.3389830508474576
 40
0.3389830508474576
 40
0.3389830508474576
 40
0.3389830508474576
 40
0.3474576271186441
 40
0.3474576271186441
 40
0.3474576271186441
 40
0.3474576271186441
 40
0.3559322033898305
 40
0.3559322033898305
 40
0.3559322033898305
 40
0.3559322033898305
 40
0.3644067796610169
 40
0.3644067796610169
 40
0.3644067796610169
 40
0.3644067796610169
 40
0.3728813559322034
 40
0.3728813559322034
 40
0.3728813559322034
 40
0.3728813559322034
 40
0.3813559322033898
 40
0.3813559322033898
 40
0.3813559322033898
 40
0.3813559322033898
 40
0.3898305084745763
 40
0.3898305084745763
 40
0.3898305084745763
 40
0.3898305084745763
 40
0.3983050847457627
 40
0.3983050847457627
 40
0.3983050847457627
 40
0.3983050847457627
 40
0.4067796610169492
 40
0.4067796610169492
 40
0.4067796610169492
 40
0.4067796610169492
 40
0.4152542372881356
 40
0.4152542372881356
 40
0.4152542372881356
 40
0.4152542372881356
 40
0.423728813559322
 40
0.423728813559322
 40
0.423728813559322
 40
0.423728813559322
 40
0.4322033898305085
 40
0.4322033898305085
 40
0.4322033898305085
 40
0.4322033898305085
 40
0.4406779661016949
 40
0.4406779661016949
 40
0.4406779661016949
 40
0.4406779661016949
 40
0.4491525423728814
 40
0.4491525423728814
 40
0.4491525423728814
 40
0.4491525423728814
 40
0.4576271186440678
 40
0.4576271186440678
 40
0.4576271186440678
 40
0.4576271186440678
 40
0.4661016949152542
 40
0.4661016949152542
 40
0.4661016949152542
 40
0.4661016949152542
 40
0.4745762711864407
 40
0.4745762711864407
 40
0.4745762711864407
 40
0.4745762711864407
 40
0.4830508474576271
 40
0.4830508474576271
 40
0.4830508474576271
 40
0.4830508474576271
 40
0.4915254237288136
 40
0.4915254237288136
 40
0.4915254237288136
 40
0.4915254237288136
 40
0.5
 40
0.5
 40
0.5
 40
0.5
 40
0.5084745762711864
 40
0.5084745762711864
 40
0.5084745762711864
 40
0.5084745762711864
 40
0.5169491525423728
 40
0.5169491525423728
 40
0.5169491525423728
 40
0.5169491525423728
 40
0.5254237288135594
 40
0.5254237288135594
 40
0.5254237288135594
 40
0.5254237288135594
 40
0.5338983050847458
 40
0.5338983050847458
 40
0.5338983050847458
 40
0.5338983050847458
 40
0.5423728813559322
 40
0.5423728813559322
 40
0.5423728813559322
 40
0.5423728813559322
 40
0.5508474576271186
 40
0.5508474576271186
 40
0.5508474576271186
 40
0.5508474576271186
 40
0.559322033898305
 40
0.559322033898305
 40
0.559322033898305
 40
0.559322033898305
 40
0.5677966101694916
 40
0.5677966101694916
 40
0.5677966101694916
 40
0.5677966101694916
 40
0.576271186440678
 40
0.576271186440678
 40
0.576271186440678
 40
0.576271186440678
 40
0.5847457627118644
 40
0.5847457627118644
 40
0.5847457627118644
 40
0.5847457627118644
 40
0.5932203389830508
 40
0.5932203389830508
 40
0.5932203389830508
 40
0.5932203389830508
 40
0.6016949152542372
 40
0.6016949152542372
 40
0.6016949152542372
 40
0.6016949152542372
 40
0.6101694915254238
 40
0.6101694915254238
 40
0.6101694915254238
 40
0.6101694915254238
 40
0.6186440677966102
 40
0.6186440677966102
 40
0.6186440677966102
 40
0.6186440677966102
 40
0.6271186440677966
 40
0.6271186440677966
 40
0.6271186440677966
 40
0.6271186440677966
 40
0.635593220338983
 40
0.635593220338983
 40
0.635593220338983
 40
0.635593220338983
 40
0.6440677966101694
 40
0.6440677966101694
 40
0.6440677966101694
 40
0.6440677966101694
 40
0.652542372881356
 40
0.652542372881356
 40
0.652542372881356
 40
0.652542372881356
 40
0.6610169491525424
 40
0.6610169491525424
 40
0.6610169491525424
 40
0.6610169491525424
 40
0.6694915254237288
 40
0.6694915254237288
 40
0.6694915254237288
 40
0.6694915254237288
 40
0.6779661016949152
 40
0.6779661016949152
 40
0.6779661016949152
 40
0.6779661016949152
 40
0.6864406779661016
 40
0.6864406779661016
 40
0.6864406779661016
 40
0.6864406779661016
 40
0.6949152542372882
 40
0.6949152542372882
 40
0.6949152542372882
 40
0.6949152542372882
 40
0.7033898305084746
 40
0.7033898305084746
 40
0.7033898305084746
 40
0.7033898305084746
 40
0.711864406779661
 40
0.711864406779661
 40
0.711864406779661
 40
0.711864406779661
 40
0.7203389830508474
 40
0.7203389830508474
 40
0.7203389830508474
 40
0.7203389830508474
 40
0.7288135593220338
 40
0.7288135593220338
 40
0.7288135593220338
 40
0.7288135593220338
 40
0.7372881355932204
 40
0.7372881355932204
 40
0.7372881355932204
 40
0.7372881355932204
 40
0.7457627118644068
 40
0.7457627118644068
 40
0.7457627118644068
 40
0.7457627118644068
 40
0.7542372881355932
 40
0.7542372881355932
 40
0.7542372881355932
 40
0.7542372881355932
 40
0.7627118644067796
 40
0.7627118644067796
 40
0.7627118644067796
 40
0.7627118644067796
 40
0.7711864406779662
 40
0.7711864406779662
 40
0.7711864406779662
 40
0.7711864406779662
 40
0.7796610169491526
 40
0.7796610169491526
 40
0.7796610169491526
 40
0.7796610169491526
 40
0.788135593220339
 40
0.788135593220339
 40
0.788135593220339
 40
0.788135593220339
 40
0.7966101694915254
 40
0.7966101694915254
 40
0.7966101694915254
 40
0.7966101694915254
 40
0.8050847457627118
 40
0.8050847457627118
 40
0.8050847457627118
 40
0.8050847457627118
 40
0.8135593220338984
 40
0.8135593220338984
 40
0.8135593220338984
 40
0.8135593220338984
 40
0.8220338983050848
 40
0.8220338983050848
 40
0.8220338983050848
 40
0.8220338983050848
 40
0.8305084745762712
 40
0.8305084745762712
 40
0.8305084745762712
 40
0.8305084745762712
 40
0.8389830508474576
 40
0.8389830508474576
 40
0.8389830508474576
 40
0.8389830508474576
 40
0.847457627118644
 40
0.847457627118644
 40
0.847457627118644
 40
0.847457627118644
 40
0.8559322033898306
 40
0.8559322033898306
 40
0.8559322033898306
 40
0.8559322033898306
 40
0.864406779661017
 40
0.864406779661017
 40
0.864406779661017
 40
0.864406779661017
 40
0.8728813559322034
 40
0.8728813559322034
 40
0.8728813559322034
 40
0.8728813559322034
 40
0.8813559322033898
 40
0.8813559322033898
 40
0.8813559322033898
 40
0.8813559322033898
 40
0.8898305084745762
 40
0.8898305084745762
 40
0.8898305084745762
 40
0.8898305084745762
 40
0.8983050847457628
 40
0.8983050847457628
 40
0.8983050847457628
 40
0.8983050847457628
 40
0.9067796610169492
 40
0.9067796610169492
 40
0.9067796610169492
 40
0.9067796610169492
 40
0.9152542372881356
 40
0.9152542372881356
 40
0.9152542372881356
 40
0.9152542372881356
 40
0.923728813559322
 40
0.923728813559322
 40
0.923728813559322
 40
0.923728813559322
 40
0.9322033898305084
 40
0.9322033898305084
 40
0.9322033898305084
 40
0.9322033898305084
 40
0.940677966101695
 40
0.940677966101695
 40
0.940677966101695
 40
0.940677966101695
 40
0.9491525423728814
 40
0.9491525423728814
 40
0.9491525423728814
 40
0.9491525423728814
 40
0.9576271186440678
 40
0.9576271186440678
 40
0.9576271186440678
 40
0.9576271186440678
 40
0.9661016949152542
 40
0.9661016949152542
 40
0.9661016949152542
 40
0.9661016949152542
 40
0.9745762711864406
 40
0.9745762711864406
 40
0.9745762711864406
 40
0.9745762711864406
 40
0.9830508474576272
 40
0.9830508474576272
 40
0.9830508474576272
 40
0.9830508474576272
 40
1.0
 40
1.0
 40
1.0
 40
1.0
 10
-33.16538
 20
13.45043
 30
0.0
 10
-33.16538
 20
13.45043
 30
0.0
 10
-30.6142
 20
13.45043
 30
0.0
 10
-30.6142
 20
13.45043
 30
0.0
 10
-30.6142
 20
13.45043
 30
0.0
 10
-30.6142
 20
13.45043
 30
0.0
 10
-30.6142
 20
14.30082
 30
0.0
 10
-30.6142
 20
14.30082
 30
0.0
 10
-30.6142
 20
14.30082
 30
0.0
 10
-30.6142
 20
14.30082
 30
0.0
 10
-27.21262
 20
14.30082
 30
0.0
 10
-27.21262
 20
14.30082
 30
0.0
 10
-27.21262
 20
14.30082
 30
0.0
 10
-27.21262
 20
14.30082
 30
0.0
 10
-27.21262
 20
13.45043
 30
0.0
 10
-27.21262
 20
13.45043
 30
0.0
 10
-27.21262
 20
13.45043
 30
0.0
 10
-27.21262
 20
13.45043
 30
0.0
 10
-24.9449
 20
13.45043
 30
0.0
 10
-24.9449
 20
13.45043
 30
0.0
 10
-24.9449
 20
13.45043
 30
0.0
 10
-24.9449
 20
13.45043
 30
0.0
 10
-24.9449
 20
14.30082
 30
0.0
 10
-24.9449
 20
14.30082
 30
0.0
 10
-24.9449
 20
14.30082
 30
0.0
 10
-24.9449
 20
14.30082
 30
0.0
 10
-22.67718
 20
14.30082
 30
0.0
 10
-22.67718
 20
14.30082
 30
0.0
 10
-22.67718
 20
14.30082
 30
0.0
 10
-22.67718
 20
14.30082
 30
0.0
 10
-22.67718
 20
13.45043
 30
0.0
 10
-22.67718
 20
13.45043
 30
0.0
 10
-22.67718
 20
13.45043
 30
0.0
 10
-22.67718
 20
13.45043
 30
0.0
 10
-20.40947
 20
13.45043
 30
0.0
 10
-20.40947
 20
13.45043
 30
0.0
 10
-20.40947
 20
13.45043
 30
0.0
 10
-20.40947
 20
13.45043
 30
0.0
 10
-20.40947
 20
14.30082
 30
0.0
 10
-20.40947
 20
14.30082
 30
0.0
 10
-20.40947
 20
14.30082
 30
0.0
 10
-20.40947
 20
14.30082
 30
0.0
 10
-18.14175
 20
14.30082
 30
0.0
 10
-18.14175
 20
14.30082
 30
0.0
 10
-18.14175
 20
14.30082
 30
0.0
 10
-18.14175
 20
14.30082
 30
0.0
 10
-18.14175
 20
13.45043
 30
0.0
 10
-18.14175
 20
13.45043
 30
0.0
 10
-18.14175
 20
13.45043
 30
0.0
 10
-18.14175
 20
13.45043
 30
0.0
 10
-15.87403
 20
13.45043
 30
0.0
 10
-15.87403
 20
13.45043
 30
0.0
 10
-15.87403
 20
13.45043
 30
0.0
 10
-15.87403
 20
13.45043
 30
0.0
 10
-15.87403
 20
14.30082
 30
0.0
 10
-15.87403
 20
14.30082
 30
0.0
 10
-15.87403
 20
14.30082
 30
0.0
 10
-15.87403
 20
14.30082
 30
0.0
 10
-13.60631
 20
14.30082
 30
0.0
 10
-13.60631
 20
14.30082
 30
0.0
 10
-13.60631
 20
14.30082
 30
0.0
 10
-13.60631
 20
14.30082
 30
0.0
 10
-13.60631
 20
13.45043
 30
0.0
 10
-13.60631
 20
13.45043
 30
0.0
 10
-13.60631
 20
13.45043
 30
0.0
 10
-13.60631
 20
13.45043
 30
0.0
 10
-11.33859
 20
13.45043
 30
0.0
 10
-11.33859
 20
13.45043
 30
0.0
 10
-11.33859
 20
13.45043
 30
0.0
 10
-11.33859
 20
13.45043
 30
0.0
 10
-11.33859
 20
14.30082
 30
0.0
 10
-11.33859
 20
14.30082
 30
0.0
 10
-11.33859
 20
14.30082
 30
0.0
 10
-11.33859
 20
14.30082
 30
0.0
 10
-9.07087
 20
14.30082
 30
0.0
 10
-9.07087
 20
14.30082
 30
0.0
 10
-9.07087
 20
14.30082
 30
0.0
 10
-9.07087
 20
14.30082
 30
0.0
 10
-9.07087
 20
13.45043
 30
0.0
 10
-9.07087
 20
13.45043
 30
0.0
 10
-9.07087
 20
13.45043
 30
0.0
 10
-9.07087
 20
13.45043
 30
0.0
 10
-6.80316
 20
13.45043
 30
0.0
 10
-6.80316
 20
13.45043
 30
0.0
 10
-6.80316
 20
13.45043
 30
0.0
 10
-6.80316
 20
13.45043
 30
0.0
 10
-6.80316
 20
14.30082
 30
0.0
 10
-6.80316
 20
14.30082
 30
0.0
 10
-6.80316
 20
14.30082
 30
0.0
 10
-6.80316
 20
14.30082
 30
0.0
 10
-3.40158
 20
14.30082
 30
0.0
 10
-3.40158
 20
14.30082
 30
0.0
 10
-3.40158
 20
14.30082
 30
0.0
 10
-3.40158
 20
14.30082
 30
0.0
 10
-3.40158
 20
13.45043
 30
0.0
 10
-3.40158
 20
13.45043
 30
0.0
 10
-3.40158
 20
13.45043
 30
0.0
 10
-3.40158
 20
13.45043
 30
0.0
 10
-0.85039
 20
13.45043
 30
0.0
 10
-0.85039
 20
13.45043
 30
0.0
 10
-0.85039
 20
13.45043
 30
0.0
 10
-0.85039
 20
13.45043
 30
0.0
 10
-0.85039
 20
11.04098
 30
0.0
 10
-0.85039
 20
11.04098
 30
0.0
 10
-0.85039
 20
11.04098
 30
0.0
 10
-0.85039
 20
11.04098
 30
0.0
 10
0.0
 20
11.04098
 30
0.0
 10
0.0
 20
11.04098
 30
0.0
 10
0.0
 20
11.04098
 30
0.0
 10
0.0
 20
11.04098
 30
0.0
 10
0.0
 20
7.78113
 30
0.0
 10
0.0
 20
7.78113
 30
0.0
 10
0.0
 20
7.78113
 30
0.0
 10
0.0
 20
7.78113
 30
0.0
 10
-0.85039
 20
7.78113
 30
0.0
 10
-0.85039
 20
7.78113
 30
0.0
 10
-0.85039
 20
7.78113
 30
0.0
 10
-0.85039
 20
7.78113
 30
0.0
 10
-0.85039
 20
5.51342
 30
0.0
 10
-0.85039
 20
5.51342
 30
0.0
 10
-0.85039
 20
5.51342
 30
0.0
 10
-0.85039
 20
5.51342
 30
0.0
 10
0.0
 20
5.51342
 30
0.0
 10
0.0
 20
5.51342
 30
0.0
 10
0.0
 20
5.51342
 30
0.0
 10
0.0
 20
5.51342
 30
0.0
 10
0.0
 20
3.2457
 30
0.0
 10
0.0
 20
3.2457
 30
0.0
 10
0.0
 20
3.2457
 30
0.0
 10
0.0
 20
3.2457
 30
0.0
 10
-0.85039
 20
3.2457
 30
0.0
 10
-0.85039
 20
3.2457
 30
0.0
 10
-0.85039
 20
3.2457
 30
0.0
 10
-0.85039
 20
3.2457
 30
0.0
 10
-0.85039
 20
0.97798
 30
0.0
 10
-0.85039
 20
0.97798
 30
0.0
 10
-0.85039
 20
0.97798
 30
0.0
 10
-0.85039
 20
0.97798
 30
0.0
 10
0.0
 20
0.97798
 30
0.0
 10
0.0
 20
0.97798
 30
0.0
 10
0.0
 20
0.97798
 30
0.0
 10
0.0
 20
0.97798
 30
0.0
 10
0.0
 20
-1.28974
 30
0.0
 10
0.0
 20
-1.28974
 30
0.0
 10
0.0
 20
-1.28974
 30
0.0
 10
0.0
 20
-1.28974
 30
0.0
 10
-0.85039
 20
-1.28974
 30
0.0
 10
-0.85039
 20
-1.28974
 30
0.0
 10
-0.85039
 20
-1.28974
 30
0.0
 10
-0.85039
 20
-1.28974
 30
0.0
 10
-0.85039
 20
-3.55746
 30
0.0
 10
-0.85039
 20
-3.55746
 30
0.0
 10
-0.85039
 20
-3.55746
 30
0.0
 10
-0.85039
 20
-3.55746
 30
0.0
 10
0.0
 20
-3.55746
 30
0.0
 10
0.0
 20
-3.55746
 30
0.0
 10
0.0
 20
-3.55746
 30
0.0
 10
0.0
 20
-3.55746
 30
0.0
 10
0.0
 20
-5.82518
 30
0.0
 10
0.0
 20
-5.82518
 30
0.0
 10
0.0
 20
-5.82518
 30
0.0
 10
0.0
 20
-5.82518
 30
0.0
 10
-0.85039
 20
-5.82518
 30
0.0
 10
-0.85039
 20
-5.82518
 30
0.0
 10
-0.85039
 20
-5.82518
 30
0.0
 10
-0.85039
 20
-5.82518
 30
0.0
 10
-0.85039
 20
-8.09289
 30
0.0
 10
-0.85039
 20
-8.09289
 30
0.0
 10
-0.85039
 20
-8.09289
 30
0.0
 10
-0.85039
 20
-8.09289
 30
0.0
 10
0.0
 20
-8.09289
 30
0.0
 10
0.0
 20
-8.09289
 30
0.0
 10
0.0
 20
-8.09289
 30
0.0
 10
0.0
 20
-8.09289
 30
0.0
 10
0.0
 20
-10.36061
 30
0.0
 10
0.0
 20
-10.36061
 30
0.0
 10
0.0
 20
-10.36061
 30
0.0
 10
0.0
 20
-10.36061
 30
0.0
 10
-0.85039
 20
-10.36061
 30
0.0
 10
-0.85039
 20
-10.36061
 30
0.0
 10
-0.85039
 20
-10.36061
 30
0.0
 10
-0.85039
 20
-10.36061
 30
0.0
 10
-0.85039
 20
-12.62833
 30
0.0
 10
-0.85039
 20
-12.62833
 30
0.0
 10
-0.85039
 20
-12.62833
 30
0.0
 10
-0.85039
 20
-12.62833
 30
0.0
 10
0.0
 20
-12.62833
 30
0.0
 10
0.0
 20
-12.62833
 30
0.0
 10
0.0
 20
-12.62833
 30
0.0
 10
0.0
 20
-12.62833
 30
0.0
 10
0.0
 20
-14.89605
 30
0.0
 10
0.0
 20
-14.89605
 30
0.0
 10
0.0
 20
-14.89605
 30
0.0
 10
0.0
 20
-14.89605
 30
0.0
 10
-0.85039
 20
-14.89605
 30
0.0
 10
-0.85039
 20
-14.89605
 30
0.0
 10
-0.85039
 20
-14.89605
 30
0.0
 10
-0.85039
 20
-14.89605
 30
0.0
 10
-0.85039
 20
-17.16377
 30
0.0
 10
-0.85039
 20
-17.16377
 30
0.0
 10
-0.85039
 20
-17.16377
 30
0.0
 10
-0.85039
 20
-17.16377
 30
0.0
 10
0.0
 20
-17.16377
 30
0.0
 10
0.0
 20
-17.16377
 30
0.0
 10
0.0
 20
-17.16377
 30
0.0
 10
0.0
 20
-17.16377
 30
0.0
 10
0.0
 20
-19.43149
 30
0.0
 10
0.0
 20
-19.43149
 30
0.0
 10
0.0
 20
-19.43149
 30
0.0
 10
0.0
 20
-19.43149
 30
0.0
 10
-0.85039
 20
-19.43149
 30
0.0
 10
-0.85039
 20
-19.43149
 30
0.0
 10
-0.85039
 20
-19.43149
 30
0.0
 10
-0.85039
 20
-19.43149
 30
0.0
 10
-0.85039
 20
-21.6992
 30
0.0
 10
-0.85039
 20
-21.6992
 30
0.0
 10
-0.85039
 20
-21.6992
 30
0.0
 10
-0.85039
 20
-21.6992
 30
0.0
 10
0.0
 20
-21.6992
 30
0.0
 10
0.0
 20
-21.6992
 30
0.0
 10
0.0
 20
-21.6992
 30
0.0
 10
0.0
 20
-21.6992
 30
0.0
 10
0.0
 20
-24.95905
 30
0.0
 10
0.0
 20
-24.95905
 30
0.0
 10
0.0
 20
-24.95905
 30
0.0
 10
0.0
 20
-24.95905
 30
0.0
 10
-0.85039
 20
-24.95905
 30
0.0
 10
-0.85039
 20
-24.95905
 30
0.0
 10
-0.85039
 20
-24.95905
 30
0.0
 10
-0.85039
 20
-24.95905
 30
0.0
 10
-0.85039
 20
-27.3685
 30
0.0
 10
-0.85039
 20
-27.3685
 30
0.0
 10
-0.85039
 20
-27.3685
 30
0.0
 10
-0.85039
 20
-27.3685
 30
0.0
 10
-3.40158
 20
-27.3685
 30
0.0
 10
-3.40158
 20
-27.3685
 30
0.0
 10
-3.40158
 20
-27.3685
 30
0.0
 10
-3.40158
 20
-27.3685
 30
0.0
 10
-3.40158
 20
-28.2189
 30
0.0
 10
-3.40158
 20
-28.2189
 30
0.0
 10
-3.40158
 20
-28.2189
 30
0.0
 10
-3.40158
 20
-28.2189
 30
0.0
 10
-6.80316
 20
-28.2189
 30
0.0
 10
-6.80316
 20
-28.2189
 30
0.0
 10
-6.80316
 20
-28.2189
 30
0.0
 10
-6.80316
 20
-28.2189
 30
0.0
 10
-6.80316
 20
-27.3685
 30
0.0
 10
-6.80316
 20
-27.3685
 30
0.0
 10
-6.80316
 20
-27.3685
 30
0.0
 10
-6.80316
 20
-27.3685
 30
0.0
 10
-9.07087
 20
-27.3685
 30
0.0
 10
-9.07087
 20
-27.3685
 30
0.0
 10
-9.07087
 20
-27.3685
 30
0.0
 10
-9.07087
 20
-27.3685
 30
0.0
 10
-9.07087
 20
-28.2189
 30
0.0
 10
-9.07087
 20
-28.2189
 30
0.0
 10
-9.07087
 20
-28.2189
 30
0.0
 10
-9.07087
 20
-28.2189
 30
0.0
 10
-11.33859
 20
-28.2189
 30
0.0
 10
-11.33859
 20
-28.2189
 30
0.0
 10
-11.33859
 20
-28.2189
 30
0.0
 10
-11.33859
 20
-28.2189
 30
0.0
 10
-11.33859
 20
-27.3685
 30
0.0
 10
-11.33859
 20
-27.3685
 30
0.0
 10
-11.33859
 20
-27.3685
 30
0.0
 10
-11.33859
 20
-27.3685
 30
0.0
 10
-13.60631
 20
-27.3685
 30
0.0
 10
-13.60631
 20
-27.3685
 30
0.0
 10
-13.60631
 20
-27.3685
 30
0.0
 10
-13.60631
 20
-27.3685
 30
0.0
 10
-13.60631
 20
-28.2189
 30
0.0
 10
-13.60631
 20
-28.2189
 30
0.0
 10
-13.60631
 20
-28.2189
 30
0.0
 10
-13.60631
 20
-28.2189
 30
0.0
 10
-15.87403
 20
-28.2189
 30
0.0
 10
-15.87403
 20
-28.2189
 30
0.0
 10
-15.87403
 20
-28.2189
 30
0.0
 10
-15.87403
 20
-28.2189
 30
0.0
 10
-15.87403
 20
-27.3685
 30
0.0
 10
-15.87403
 20
-27.3685
 30
0.0
 10
-15.87403
 20
-27.3685
 30
0.0
 10
-15.87403
 20
-27.3685
 30
0.0
 10
-18.14175
 20
-27.3685
 30
0.0
 10
-18.14175
 20
-27.3685
 30
0.0
 10
-18.14175
 20
-27.3685
 30
0.0
 10
-18.14175
 20
-27.3685
 30
0.0
 10
-18.14175
 20
-28.2189
 30
0.0
 10
-18.14175
 20
-28.2189
 30
0.0
 10
-18.14175
 20
-28.2189
 30
0.0
 10
-18.14175
 20
-28.2189
 30
0.0
 10
-20.40947
 20
-28.2189
 30
0.0
 10
-20.40947
 20
-28.2189
 30
0.0
 10
-20.40947
 20
-28.2189
 30
0.0
 10
-20.40947
 20
-28.2189
 30
0.0
 10
-20.40947
 20
-27.3685
 30
0.0
 10
-20.40947
 20
-27.3685
 30
0.0
 10
-20.40947
 20
-27.3685
 30
0.0
 10
-20.40947
 20
-27.3685
 30
0.0
 10
-22.67718
 20
-27.3685
 30
0.0
 10
-22.67718
 20
-27.3685
 30
0.0
 10
-22.67718
 20
-27.3685
 30
0.0
 10
-22.67718
 20
-27.3685
 30
0.0
 10
-22.67718
 20
-28.2189
 30
0.0
 10
-22.67718
 20
-28.2189
 30
0.0
 10
-22.67718
 20
-28.2189
 30
0.0
 10
-22.67718
 20
-28.2189
 30
0.0
 10
-24.9449
 20
-28.2189
 30
0.0
 10
-24.9449
 20
-28.2189
 30
0.0
 10
-24.9449
 20
-28.2189
 30
0.0
 10
-24.9449
 20
-28.2189
 30
0.0
 10
-24.9449
 20
-27.3685
 30
0.0
 10
-24.9449
 20
-27.3685
 30
0.0
 10
-24.9449
 20
-27.3685
 30
0.0
 10
-24.9449
 20
-27.3685
 30
0.0
 10
-27.21262
 20
-27.3685
 30
0.0
 10
-27.21262
 20
-27.3685
 30
0.0
 10
-27.21262
 20
-27.3685
 30
0.0
 10
-27.21262
 20
-27.3685
 30
0.0
 10
-27.21262
 20
-28.2189
 30
0.0
 10
-27.21262
 20
-28.2189
 30
0.0
 10
-27.21262
 20
-28.2189
 30
0.0
 10
-27.21262
 20
-28.2189
 30
0.0
 10
-30.6142
 20
-28.2189
 30
0.0
 10
-30.6142
 20
-28.2189
 30
0.0
 10
-30.6142
 20
-28.2189
 30
0.0
 10
-30.6142
 20
-28.2189
 30
0.0
 10
-30.6142
 20
-27.3685
 30
0.0
 10
-30.6142
 20
-27.3685
 30
0.0
 10
-30.6142
 20
-27.3685
 30
0.0
 10
-30.6142
 20
-27.3685
 30
0.0
 10
-33.16538
 20
-27.3685
 30
0.0
 10
-33.16538
 20
-27.3685
 30
0.0
 10
-33.16538
 20
-27.3685
 30
0.0
 10
-33.16538
 20
-27.3685
 30
0.0
 10
-33.16538
 20
-24.95905
 30
0.0
 10
-33.16538
 20
-24.95905
 30
0.0
 10
-33.16538
 20
-24.95905
 30
0.0
 10
-33.16538
 20
-24.95905
 30
0.0
 10
-34.01578
 20
-24.95905
 30
0.0
 10
-34.01578
 20
-24.95905
 30
0.0
 10
-34.01578
 20
-24.95905
 30
0.0
 10
-34.01578
 20
-24.95905
 30
0.0
 10
-34.01578
 20
-21.6992
 30
0.0
 10
-34.01578
 20
-21.6992
 30
0.0
 10
-34.01578
 20
-21.6992
 30
0.0
 10
-34.01578
 20
-21.6992
 30
0.0
 10
-33.16538
 20
-21.6992
 30
0.0
 10
-33.16538
 20
-21.6992
 30
0.0
 10
-33.16538
 20
-21.6992
 30
0.0
 10
-33.16538
 20
-21.6992
 30
0.0
 10
-33.16538
 20
-19.43149
 30
0.0
 10
-33.16538
 20
-19.43149
 30
0.0
 10
-33.16538
 20
-19.43149
 30
0.0
 10
-33.16538
 20
-19.43149
 30
0.0
 10
-34.01578
 20
-19.43149
 30
0.0
 10
-34.01578
 20
-19.43149
 30
0.0
 10
-34.01578
 20
-19.43149
 30
0.0
 10
-34.01578
 20
-19.43149
 30
0.0
 10
-34.01578
 20
-17.16377
 30
0.0
 10
-34.01578
 20
-17.16377
 30
0.0
 10
-34.01578
 20
-17.16377
 30
0.0
 10
-34.01578
 20
-17.16377
 30
0.0
 10
-33.16538
 20
-17.16377
 30
0.0
 10
-33.16538
 20
-17.16377
 30
0.0
 10
-33.16538
 20
-17.16377
 30
0.0
 10
-33.16538
 20
-17.16377
 30
0.0
 10
-33.16538
 20
-14.89605
 30
0.0
 10
-33.16538
 20
-14.89605
 30
0.0
 10
-33.16538
 20
-14.89605
 30
0.0
 10
-33.16538
 20
-14.89605
 30
0.0
 10
-34.01578
 20
-14.89605
 30
0.0
 10
-34.01578
 20
-14.89605
 30
0.0
 10
-34.01578
 20
-14.89605
 30
0.0
 10
-34.01578
 20
-14.89605
 30
0.0
 10
-34.01578
 20
-12.62833
 30
0.0
 10
-34.01578
 20
-12.62833
 30
0.0
 10
-34.01578
 20
-12.62833
 30
0.0
 10
-34.01578
 20
-12.62833
 30
0.0
 10
-33.16538
 20
-12.62833
 30
0.0
 10
-33.16538
 20
-12.62833
 30
0.0
 10
-33.16538
 20
-12.62833
 30
0.0
 10
-33.16538
 20
-12.62833
 30
0.0
 10
-33.16538
 20
-10.36061
 30
0.0
 10
-33.16538
 20
-10.36061
 30
0.0
 10
-33.16538
 20
-10.36061
 30
0.0
 10
-33.16538
 20
-10.36061
 30
0.0
 10
-34.01578
 20
-10.36061
 30
0.0
 10
-34.01578
 20
-10.36061
 30
0.0
 10
-34.01578
 20
-10.36061
 30
0.0
 10
-34.01578
 20
-10.36061
 30
0.0
 10
-34.01578
 20
-8.09289
 30
0.0
 10
-34.01578
 20
-8.09289
 30
0.0
 10
-34.01578
 20
-8.09289
 30
0.0
 10
-34.01578
 20
-8.09289
 30
0.0
 10
-33.16538
 20
-8.09289
 30
0.0
 10
-33.16538
 20
-8.09289
 30
0.0
 10
-33.16538
 20
-8.09289
 30
0.0
 10
-33.16538
 20
-8.09289
 30
0.0
 10
-33.16538
 20
-5.82518
 30
0.0
 10
-33.16538
 20
-5.82518
 30
0.0
 10
-33.16538
 20
-5.82518
 30
0.0
 10
-33.16538
 20
-5.82518
 30
0.0
 10
-34.01578
 20
-5.82518
 30
0.0
 10
-34.01578
 20
-5.82518
 30
0.0
 10
-34.01578
 20
-5.82518
 30
0.0
 10
-34.01578
 20
-5.82518
 30
0.0
 10
-34.01578
 20
-3.55746
 30
0.0
 10
-34.01578
 20
-3.55746
 30
0.0
 10
-34.01578
 20
-3.55746
 30
0.0
 10
-34.01578
 20
-3.55746
 30
0.0
 10
-33.16538
 20
-3.55746
 30
0.0
 10
-33.16538
 20
-3.55746
 30
0.0
 10
-33.16538
 20
-3.55746
 30
0.0
 10
-33.16538
 20
-3.55746
 30
0.0
 10
-33.16538
 20
-1.28974
 30
0.0
 10
-33.16538
 20
-1.28974
 30
0.0
 10
-33.16538
 20
-1.28974
 30
0.0
 10
-33.16538
 20
-1.28974
 30
0.0
 10
-34.01578
 20
-1.28974
 30
0.0
 10
-34.01578
 20
-1.28974
 30
0.0
 10
-34.01578
 20
-1.28974
 30
0.0
 10
-34.01578
 20
-1.28974
 30
0.0
 10
-34.01578
 20
0.97798
 30
0.0
 10
-34.01578
 20
0.97798
 30
0.0
 10
-34.01578
 20
0.97798
 30
0.0
 10
-34.01578
 20
0.97798
 30
0.0
 10
-33.16538
 20
0.97798
 30
0.0
 10
-33.16538
 20
0.97798
 30
0.0
 10
-33.16538
 20
0.97798
 30
0.0
 10
-33.16538
 20
0.97798
 30
0.0
 10
-33.16538
 20
3.2457
 30
0.0
 10
-33.16538
 20
3.2457
 30
0.0
 10
-33.16538
 20
3.2457
 30
0.0
 10
-33.16538
 20
3.2457
 30
0.0
 10
-34.01578
 20
3.2457
 30
0.0
 10
-34.01578
 20
3.2457
 30
0.0
 10
-34.01578
 20
3.2457
 30
0.0
 10
-34.01578
 20
3.2457
 30
0.0
 10
-34.01578
 20
5.51342
 30
0.0
 10
-34.01578
 20
5.51342
 30
0.0
 10
-34.01578
 20
5.51342
 30
0.0
 10
-34.01578
 20
5.51342
 30
0.0
 10
-33.16538
 20
5.51342
 30
0.0
 10
-33.16538
 20
5.51342
 30
0.0
 10
-33.16538
 20
5.51342
 30
0.0
 10
-33.16538
 20
5.51342
 30
0.0
 10
-33.16538
 20
7.78113
 30
0.0
 10
-33.16538
 20
7.78113
 30
0.0
 10
-33.16538
 20
7.78113
 30
0.0
 10
-33.16538
 20
7.78113
 30
0.0
 10
-34.01578
 20
7.78113
 30
0.0
 10
-34.01578
 20
7.78113
 30
0.0
 10
-34.01578
 20
7.78113
 30
0.0
 10
-34.01578
 20
7.78113
 30
0.0
 10
-34.01578
 20
11.04098
 30
0.0
 10
-34.01578
 20
11.04098
 30
0.0
 10
-34.01578
 20
11.04098
 30
0.0
 10
-34.01578
 20
11.04098
 30
0.0
 10
-33.16538
 20
11.04098
 30
0.0
 10
-33.16538
 20
11.04098
 30
0.0
 10
-33.16538
 20
11.04098
 30
0.0
 10
-33.16538
 20
11.04098
 30
0.0
 10
-33.16538
 20
13.45043
 30
0.0
 10
-33.16538
 20
13.45043
 30
0.0
 10
-33.16538
 20
13.45043
 30
0.0
 10
-33.16538
 20
13.45043
 30
0.0
 10
-33.16538
 20
13.45043
 30
0.0
 10
-33.16538
 20
13.45043
 30
0.0
  0
SPLINE
  5
74
330
1F
100
AcDbEntity
  8
layer 1
370
     9
100
AcDbSpline
210
0.0
220
0.0
230
1.0
 70
     8
 71
     3
 72
   216
 73
   212
 74
     0
 42
0.000000001
 43
0.0000000001
 40
0.0
 40
0.0
 40
0.0
 40
0.0
 40
0.0185185185185185
 40
0.0185185185185185
 40
0.0185185185185185
 40
0.0185185185185185
 40
0.037037037037037
 40
0.037037037037037
 40
0.037037037037037
 40
0.037037037037037
 40
0.0555555555555556
 40
0.0555555555555556
 40
0.0555555555555556
 40
0.0555555555555556
 40
0.0740740740740741
 40
0.0740740740740741
 40
0.0740740740740741
 40
0.0740740740740741
 40
0.0925925925925926
 40
0.0925925925925926
 40
0.0925925925925926
 40
0.0925925925925926
 40
0.1111111111111111
 40
0.1111111111111111
 40
0.1111111111111111
 40
0.1111111111111111
 40
0.1296296296296296
 40
0.1296296296296296
 40
0.1296296296296296
 40
0.1296296296296296
 40
0.1481481481481481
 40
0.1481481481481481
 40
0.1481481481481481
 40
0.1481481481481481
 40
0.1666666666666667
 40
0.1666666666666667
 40
0.1666666666666667
 40
0.1666666666666667
 40
0.1851851851851852
 40
0.1851851851851852
 40
0.1851851851851852
 40
0.1851851851851852
 40
0.2037037037037037
 40
0.2037037037037037
 40
0.2037037037037037
 40
0.2037037037037037
 40
0.2222222222222222
 40
0.2222222222222222
 40
0.2222222222222222
 40
0.2222222222222222
 40
0.2407407407407407
 40
0.2407407407407407
 40
0.2407407407407407
 40
0.2407407407407407
 40
0.2592592592592592
 40
0.2592592592592592
 40
0.2592592592592592
 40
0.2592592592592592
 40
0.2777777777777778
 40
0.2777777777777778
 40
0.2777777777777778
 40
0.2777777777777778
 40
0.2962962962962963
 40
0.2962962962962963
 40
0.2962962962962963
 40
0.2962962962962963
 40
0.3148148148148148
 40
0.3148148148148148
 40
0.3148148148148148
 40
0.3148148148148148
 40
0.3333333333333333
 40
0.3333333333333333
 40
0.3333333333333333
 40
0.3333333333333333
 40
0.3518518518518519
 40
0.3518518518518519
 40
0.3518518518518519
 40
0.3518518518518519
 40
0.3703703703703703
 40
0.3703703703703703
 40
0.3703703703703703
 40
0.3703703703703703
 40
0.3888888888888889
 40
0.3888888888888889
 40
0.3888888888888889
 40
0.3888888888888889
 40
0.4074074074074074
 40
0.4074074074074074
 40
0.4074074074074074
 40
0.4074074074074074
 40
0.4259259259259259
 40
0.4259259259259259
 40
0.4259259259259259
 40
0.4259259259259259
 40
0.4444444444444444
 40
0.4444444444444444
 40
0.4444444444444444
 40
0.4444444444444444
 40
0.462962962962963
 40
0.462962962962963
 40
0.462962962962963
 40
0.462962962962963
 40
0.4814814814814815
 40
0.4814814814814815
 40
0.4814814814814815
 40
0.4814814814814815
 40
0.5
 40
0.5
 40
0.5
 40
0.5
 40
0.5185185185185185
 40
0.5185185185185185
 40
0.5185185185185185
 40
0.5185185185185185
 40
0.5370370370370371
 40
0.5370370370370371
 40
0.5370370370370371
 40
0.5370370370370371
 40
0.5555555555555556
 40
0.5555555555555556
 40
0.5555555555555556
 40
0.5555555555555556
 40
0.5740740740740741
 40
0.5740740740740741
 40
0.5740740740740741
 40
0.5740740740740741
 40
0.5925925925925926
 40
0.5925925925925926
 40
0.5925925925925926
 40
0.5925925925925926
 40
0.6111111111111112
 40
0.6111111111111112
 40
0.6111111111111112
 40
0.6111111111111112
 40
0.6296296296296297
 40
0.6296296296296297
 40
0.6296296296296297
 40
0.6296296296296297
 40
0.6481481481481481
 40
0.6481481481481481
 40
0.6481481481481481
 40
0.6481481481481481
 40
0.6666666666666666
 40
0.6666666666666666
 40
0.6666666666666666
 40
0.6666666666666666
 40
0.6851851851851852
 40
0.6851851851851852
 40
0.6851851851851852
 40
0.6851851851851852
 40
0.7037037037037037
 40
0.7037037037037037
 40
0.7037037037037037
 40
0.7037037037037037
 40
0.7222222222222222
 40
0.7222222222222222
 40
0.7222222222222222
 40
0.7222222222222222
 40
0.7407407407407407
 40
0.7407407407407407
 40
0.7407407407407407
 40
0.7407407407407407
 40
0.7592592592592593
 40
0.7592592592592593
 40
0.7592592592592593
 40
0.7592592592592593
 40
0.7777777777777778
 40
0.7777777777777778
 40
0.7777777777777778
 40
0.7777777777777778
 40
0.7962962962962963
 40
0.7962962962962963
 40
0.7962962962962963
 40
0.7962962962962963
 40
0.8148148148148148
 40
0.8148148148148148
 40
0.8148148148148148
 40
0.8148148148148148
 40
0.8333333333333334
 40
0.8333333333333334
 40
0.8333333333333334
 40
0.8333333333333334
 40
0.8518518518518519
 40
0.8518518518518519
 40
0.8518518518518519
 40
0.8518518518518519
 40
0.8703703703703703
 40
0.8703703703703703
 40
0.8703703703703703
 40
0.8703703703703703
 40
0.8888888888888888
 40
0.8888888888888888
 40
0.8888888888888888
 40
0.8888888888888888
 40
0.9074074074074074
 40
0.9074074074074074
 40
0.9074074074074074
 40
0.9074074074074074
 40
0.9259259259259259
 40
0.9259259259259259
 40
0.9259259259259259
 40
0.9259259259259259
 40
0.9444444444444444
 40
0.9444444444444444
 40
0.9444444444444444
 40
0.9444444444444444
 40
0.9629629629629629
 40
0.9629629629629629
 40
0.9629629629629629
 40
0.9629629629629629
 40
1.0
 40
1.0
 40
1.0
 40
1.0
 10
14.80242
 20
-0.15522
 30
0.0
 10
14.80242
 20
-0.15522
 30
0.0
 10
14.80242
 20
-27.44129
 30
0.0
 10
14.80242
 20
-27.44129
 30
0.0
 10
14.80242
 20
-27.44129
 30
0.0
 10
14.80242
 20
-27.44129
 30
0.0
 10
11.82604
 20
-27.44129
 30
0.0
 10
11.82604
 20
-27.44129
 30
0.0
 10
11.82604
 20
-27.44129
 30
0.0
 10
11.82604
 20
-27.44129
 30
0.0
 10
11.82604
 20
-28.29168
 30
0.0
 10
11.82604
 20
-28.29168
 30
0.0
 10
11.82604
 20
-28.29168
 30
0.0
 10
11.82604
 20
-28.29168
 30
0.0
 10
8.84966
 20
-28.29168
 30
0.0
 10
8.84966
 20
-28.29168
 30
0.0
 10
8.84966
 20
-28.29168
 30
0.0
 10
8.84966
 20
-28.29168
 30
0.0
 10
8.84966
 20
-27.44129
 30
0.0
 10
8.84966
 20
-27.44129
 30
0.0
 10
8.84966
 20
-27.44129
 30
0.0
 10
8.84966
 20
-27.44129
 30
0.0
 10
6.58195
 20
-27.44129
 30
0.0
 10
6.58195
 20
-27.44129
 30
0.0
 10
6.58195
 20
-27.44129
 30
0.0
 10
6.58195
 20
-27.44129
 30
0.0
 10
6.58195
 20
-28.29168
 30
0.0
 10
6.58195
 20
-28.29168
 30
0.0
 10
6.58195
 20
-28.29168
 30
0.0
 10
6.58195
 20
-28.29168
 30
0.0
 10
3.60557
 20
-28.29168
 30
0.0
 10
3.60557
 20
-28.29168
 30
0.0
 10
3.60557
 20
-28.29168
 30
0.0
 10
3.60557
 20
-28.29168
 30
0.0
 10
3.60557
 20
-27.44129
 30
0.0
 10
3.60557
 20
-27.44129
 30
0.0
 10
3.60557
 20
-27.44129
 30
0.0
 10
3.60557
 20
-27.44129
 30
0.0
 10
0.62918
 20
-27.44129
 30
0.0
 10
0.62918
 20
-27.44129
 30
0.0
 10
0.62918
 20
-27.44129
 30
0.0
 10
0.62918
 20
-27.44129
 30
0.0
 10
0.62918
 20
-25.03184
 30
0.0
 10
0.62918
 20
-25.03184
 30
0.0
 10
0.62918
 20
-25.03184
 30
0.0
 10
0.62918
 20
-25.03184
 30
0.0
 10
1.47958
 20
-25.03184
 30
0.0
 10
1.47958
 20
-25.03184
 30
0.0
 10
1.47958
 20
-25.03184
 30
0.0
 10
1.47958
 20
-25.03184
 30
0.0
 10
1.47958
 20
-21.77199
 30
0.0
 10
1.47958
 20
-21.77199
 30
0.0
 10
1.47958
 20
-21.77199
 30
0.0
 10
1.47958
 20
-21.77199
 30
0.0
 10
0.62918
 20
-21.77199
 30
0.0
 10
0.62918
 20
-21.77199
 30
0.0
 10
0.62918
 20
-21.77199
 30
0.0
 10
0.62918
 20
-21.77199
 30
0.0
 10
0.62918
 20
-19.50428
 30
0.0
 10
0.62918
 20
-19.50428
 30
0.0
 10
0.62918
 20
-19.50428
 30
0.0
 10
0.62918
 20
-19.50428
 30
0.0
 10
1.47958
 20
-19.50428
 30
0.0
 10
1.47958
 20
-19.50428
 30
0.0
 10
1.47958
 20
-19.50428
 30
0.0
 10
1.47958
 20
-19.50428
 30
0.0
 10
1.47958
 20
-17.23656
 30
0.0
 10
1.47958
 20
-17.23656
 30
0.0
 10
1.47958
 20
-17.23656
 30
0.0
 10
1.47958
 20
-17.23656
 30
0.0
 10
0.62918
 20
-17.23656
 30
0.0
 10
0.62918
 20
-17.23656
 30
0.0
 10
0.62918
 20
-17.23656
 30
0.0
 10
0.62918
 20
-17.23656
 30
0.0
 10
0.62918
 20
-14.96884
 30
0.0
 10
0.62918
 20
-14.96884
 30
0.0
 10
0.62918
 20
-14.96884
 30
0.0
 10
0.62918
 20
-14.96884
 30
0.0
 10
1.47958
 20
-14.96884
 30
0.0
 10
1.47958
 20
-14.96884
 30
0.0
 10
1.47958
 20
-14.96884
 30
0.0
 10
1.47958
 20
-14.96884
 30
0.0
 10
1.47958
 20
-12.70112
 30
0.0
 10
1.47958
 20
-12.70112
 30
0.0
 10
1.47958
 20
-12.70112
 30
0.0
 10
1.47958
 20
-12.70112
 30
0.0
 10
0.62918
 20
-12.70112
 30
0.0
 10
0.62918
 20
-12.70112
 30
0.0
 10
0.62918
 20
-12.70112
 30
0.0
 10
0.62918
 20
-12.70112
 30
0.0
 10
0.62918
 20
-10.4334
 30
0.0
 10
0.62918
 20
-10.4334
 30
0.0
 10
0.62918
 20
-10.4334
 30
0.0
 10
0.62918
 20
-10.4334
 30
0.0
 10
1.47958
 20
-10.4334
 30
0.0
 10
1.47958
 20
-10.4334
 30
0.0
 10
1.47958
 20
-10.4334
 30
0.0
 10
1.47958
 20
-10.4334
 30
0.0
 10
1.47958
 20
-8.16568
 30
0.0
 10
1.47958
 20
-8.16568
 30
0.0
 10
1.47958
 20
-8.16568
 30
0.0
 10
1.47958
 20
-8.16568
 30
0.0
 10
0.62918
 20
-8.16568
 30
0.0
 10
0.62918
 20
-8.16568
 30
0.0
 10
0.62918
 20
-8.16568
 30
0.0
 10
0.62918
 20
-8.16568
 30
0.0
 10
0.62918
 20
-5.89796
 30
0.0
 10
0.62918
 20
-5.89796
 30
0.0
 10
0.62918
 20
-5.89796
 30
0.0
 10
0.62918
 20
-5.89796
 30
0.0
 10
1.47958
 20
-5.89796
 30
0.0
 10
1.47958
 20
-5.89796
 30
0.0
 10
1.47958
 20
-5.89796
 30
0.0
 10
1.47958
 20
-5.89796
 30
0.0
 10
1.47958
 20
-3.63025
 30
0.0
 10
1.47958
 20
-3.63025
 30
0.0
 10
1.47958
 20
-3.63025
 30
0.0
 10
1.47958
 20
-3.63025
 30
0.0
 10
0.62918
 20
-3.63025
 30
0.0
 10
0.62918
 20
-3.63025
 30
0.0
 10
0.62918
 20
-3.63025
 30
0.0
 10
0.62918
 20
-3.63025
 30
0.0
 10
0.62918
 20
-1.36253
 30
0.0
 10
0.62918
 20
-1.36253
 30
0.0
 10
0.62918
 20
-1.36253
 30
0.0
 10
0.62918
 20
-1.36253
 30
0.0
 10
1.47958
 20
-1.36253
 30
0.0
 10
1.47958
 20
-1.36253
 30
0.0
 10
1.47958
 20
-1.36253
 30
0.0
 10
1.47958
 20
-1.36253
 30
0.0
 10
1.47958
 20
0.90519
 30
0.0
 10
1.47958
 20
0.90519
 30
0.0
 10
1.47958
 20
0.90519
 30
0.0
 10
1.47958
 20
0.90519
 30
0.0
 10
0.62918
 20
0.90519
 30
0.0
 10
0.62918
 20
0.90519
 30
0.0
 10
0.62918
 20
0.90519
 30
0.0
 10
0.62918
 20
0.90519
 30
0.0
 10
0.62918
 20
3.17291
 30
0.0
 10
0.62918
 20
3.17291
 30
0.0
 10
0.62918
 20
3.17291
 30
0.0
 10
0.62918
 20
3.17291
 30
0.0
 10
1.47958
 20
3.17291
 30
0.0
 10
1.47958
 20
3.17291
 30
0.0
 10
1.47958
 20
3.17291
 30
0.0
 10
1.47958
 20
3.17291
 30
0.0
 10
1.47958
 20
5.44063
 30
0.0
 10
1.47958
 20
5.44063
 30
0.0
 10
1.47958
 20
5.44063
 30
0.0
 10
1.47958
 20
5.44063
 30
0.0
 10
0.62918
 20
5.44063
 30
0.0
 10
0.62918
 20
5.44063
 30
0.0
 10
0.62918
 20
5.44063
 30
0.0
 10
0.62918
 20
5.44063
 30
0.0
 10
0.62918
 20
7.70835
 30
0.0
 10
0.62918
 20
7.70835
 30
0.0
 10
0.62918
 20
7.70835
 30
0.0
 10
0.62918
 20
7.70835
 30
0.0
 10
1.47958
 20
7.70835
 30
0.0
 10
1.47958
 20
7.70835
 30
0.0
 10
1.47958
 20
7.70835
 30
0.0
 10
1.47958
 20
7.70835
 30
0.0
 10
1.47958
 20
10.96819
 30
0.0
 10
1.47958
 20
10.96819
 30
0.0
 10
1.47958
 20
10.96819
 30
0.0
 10
1.47958
 20
10.96819
 30
0.0
 10
0.62918
 20
10.96819
 30
0.0
 10
0.62918
 20
10.96819
 30
0.0
 10
0.62918
 20
10.96819
 30
0.0
 10
0.62918
 20
10.96819
 30
0.0
 10
0.62918
 20
13.37764
 30
0.0
 10
0.62918
 20
13.37764
 30
0.0
 10
0.62918
 20
13.37764
 30
0.0
 10
0.62918
 20
13.37764
 30
0.0
 10
3.60557
 20
13.37764
 30
0.0
 10
3.60557
 20
13.37764
 30
0.0
 10
3.60557
 20
13.37764
 30
0.0
 10
3.60557
 20
13.37764
 30
0.0
 10
3.60557
 20
14.22804
 30
0.0
 10
3.60557
 20
14.22804
 30
0.0
 10
3.60557
 20
14.22804
 30
0.0
 10
3.60557
 20
14.22804
 30
0.0
 10
6.58195
 20
14.22804
 30
0.0
 10
6.58195
 20
14.22804
 30
0.0
 10
6.58195
 20
14.22804
 30
0.0
 10
6.58195
 20
14.22804
 30
0.0
 10
6.58195
 20
13.37764
 30
0.0
 10
6.58195
 20
13.37764
 30
0.0
 10
6.58195
 20
13.37764
 30
0.0
 10
6.58195
 20
13.37764
 30
0.0
 10
8.84966
 20
13.37764
 30
0.0
 10
8.84966
 20
13.37764
 30
0.0
 10
8.84966
 20
13.37764
 30
0.0
 10
8.84966
 20
13.37764
 30
0.0
 10
8.84966
 20
14.22804
 30
0.0
 10
8.84966
 20
14.22804
 30
0.0
 10
8.84966
 20
14.22804
 30
0.0
 10
8.84966
 20
14.22804
 30
0.0
 10
11.82604
 20
14.22804
 30
0.0
 10
11.82604
 20
14.22804
 30
0.0
 10
11.82604
 20
14.22804
 30
0.0
 10
11.82604
 20
14.22804
 30
0.0
 10
11.82604
 20
13.37764
 30
0.0
 10
11.82604
 20
13.37764
 30
0.0
 10
11.82604
 20
13.37764
 30
0.0
 10
11.82604
 20
13.37764
 30
0.0
 10
14.80242
 20
13.37764
 30
0.0
 10
14.80242
 20
13.37764
 30
0.0
 10
14.80242
 20
13.37764
 30
0.0
 10
14.80242
 20
13.37764
 30
0.0
 10
14.80242
 20
9.80404
 30
0.0
 10
14.80242
 20
9.80404
 30
0.0
  0
SPLINE
  5
75
330
1F
100
AcDbEntity
  8
layer 1
370
     9
100
AcDbSpline
210
0.0
220
0.0
230
1.0
 70
    24
 71
     3
 72
     8
 73
     4
 74
     0
 42
0.000000001
 43
0.0000000001
 40
0.0
 40
0.0
 40
0.0
 40
0.0
 40
1.0
 40
1.0
 40
1.0
 40
1.0
 10
14.7886
 20
-0.11999
 30
0.0
 10
14.7886
 20
-0.11999
 30
0.0
 10
9.56173
 20
-0.11999
 30
0.0
 10
9.56173
 20
-0.11999
 30
0.0
  0
SPLINE
  5
76
330
1F
100
AcDbEntity
  8
layer 1
370
     9
100
AcDbSpline
210
0.0
220
0.0
230
1.0
 70
     8
 71
     3
 72
    16
 73
    12
 74
     0
 42
0.000000001
 43
0.0000000001
 40
0.0
 40
0.0
 40
0.0
 40
0.0
 40
0.25
 40
0.25
 40
0.25
 40
0.25
 40
0.5
 40
0.5
 40
0.5
 40
0.5
 40
1.0
 40
1.0
 40
1.0
 40
1.0
 10
9.56173
 20
-0.11999
 30
0.0
 10
7.8424
 20
0.52893
 30
0.0
 10
6.12307
 20
1.17785
 30
0.0
 10
5.33237
 20
2.62551
 30
0.0
 10
5.33237
 20
2.62551
 30
0.0
 10
4.6144
 20
3.94002
 30
0.0
 10
4.66208
 20
5.91309
 30
0.0
 10
5.44088
 20
7.20279
 30
0.0
 10
5.44088
 20
7.20279
 30
0.0
 10
6.2666
 20
8.57018
 30
0.0
 10
7.91417
 20
9.1694
 30
0.0
 10
9.56173
 20
9.76862
 30
0.0
  0
SPLINE
  5
77
330
1F
100
AcDbEntity
  8
layer 1
 62
     3
370
     9
100
AcDbSpline
210
0.0
220
0.0
230
1.0
 70
     8
 71
     3
 72
    16
 73
    12
 74
     0
 42
0.000000001
 43
0.0000000001
 40
0.0
 40
0.0
 40
0.0
 40
0.0
 40
0.25
 40
0.25
 40
0.25
 40
0.25
 40
0.5
 40
0.5
 40
0.5
 40
0.5
 40
1.0
 40
1.0
 40
1.0
 40
1.0
 10
14.54136
 20
-1.60328
 30
0.0
 10
14.40136
 20
-1.69272
 30
0.0
 10
14.26137
 20
-1.78217
 30
0.0
 10
14.10579
 20
-1.81619
 30
0.0
 10
14.10579
 20
-1.81619
 30
0.0
 10
13.96588
 20
-1.84678
 30
0.0
 10
13.81337
 20
-1.83256
 30
0.0
 10
13.67022
 20
-1.79751
 30
0.0
 10
13.67022
 20
-1.79751
 30
0.0
 10
13.51797
 20
-1.76024
 30
0.0
 10
13.37631
 20
-1.69942
 30
0.0
 10
13.23465
 20
-1.6386
 30
0.0
  0
SPLINE
  5
78
330
1F
100
AcDbEntity
  8
layer 1
 62
     3
370
     9
100
AcDbSpline
210
0.0
220
0.0
230
1.0
 70
     8
 71
     3
 72
    16
 73
    12
 74
     0
 42
0.000000001
 43
0.0000000001
 40
0.0
 40
0.0
 40
0.0
 40
0.0
 40
0.25
 40
0.25
 40
0.25
 40
0.25
 40
0.5
 40
0.5
 40
0.5
 40
0.5
 40
1.0
 40
1.0
 40
1.0
 40
1.0
 10
13.23465
 20
-1.6386
 30
0.0
 10
13.07037
 20
-1.72642
 30
0.0
 10
12.90609
 20
-1.81425
 30
0.0
 10
12.72845
 20
-1.84984
 30
0.0
 10
12.72845
 20
-1.84984
 30
0.0
 10
12.56444
 20
-1.8827
 30
0.0
 10
12.38903
 20
-1.87103
 30
0.0
 10
12.22224
 20
-1.83596
 30
0.0
 10
12.22224
 20
-1.83596
 30
0.0
 10
12.04718
 20
-1.79914
 30
0.0
 10
11.88161
 20
-1.73653
 30
0.0
 10
11.71604
 20
-1.67391
 30
0.0
  0
SPLINE
  5
79
330
1F
100
AcDbEntity
  8
layer 1
 62
     3
370
     9
100
AcDbSpline
210
0.0
220
0.0
230
1.0
 70
     8
 71
     3
 72
    16
 73
    12
 74
     0
 42
0.000000001
 43
0.0000000001
 40
0.0
 40
0.0
 40
0.0
 40
0.0
 40
0.25
 40
0.25
 40
0.25
 40
0.25
 40
0.5
 40
0.5
 40
0.5
 40
0.5
 40
1.0
 40
1.0
 40
1.0
 40
1.0
 10
11.71604
 20
-1.67391
 30
0.0
 10
11.50285
 20
-1.73043
 30
0.0
 10
11.28965
 20
-1.78695
 30
0.0
 10
11.06963
 20
-1.8344
 30
0.0
 10
11.06963
 20
-1.8344
 30
0.0
 10
10.85045
 20
-1.88167
 30
0.0
 10
10.62448
 20
-1.91994
 30
0.0
 10
10.40875
 20
-1.89355
 30
0.0
 10
10.40875
 20
-1.89355
 30
0.0
 10
10.16478
 20
-1.8637
 30
0.0
 10
9.93389
 20
-1.75115
 30
0.0
 10
9.703
 20
-1.6386
 30
0.0
  0
SPLINE
  5
7A
330
1F
100
AcDbEntity
  8
layer 1
 62
     3
370
     9
100
AcDbSpline
210
0.0
220
0.0
230
1.0
 70
     8
 71
     3
 72
    16
 73
    12
 74
     0
 42
0.000000001
 43
0.0000000001
 40
0.0
 40
0.0
 40
0.0
 40
0.0
 40
0.25
 40
0.25
 40
0.25
 40
0.25
 40
0.5
 40
0.5
 40
0.5
 40
0.5
 40
1.0
 40
1.0
 40
1.0
 40
1.0
 10
9.703
 20
-1.6386
 30
0.0
 10
9.53122
 20
-1.70676
 30
0.0
 10
9.35945
 20
-1.77493
 30
0.0
 10
9.17721
 20
-1.81934
 30
0.0
 10
9.17721
 20
-1.81934
 30
0.0
 10
8.99764
 20
-1.8631
 30
0.0
 10
8.80791
 20
-1.8838
 30
0.0
 10
8.63036
 20
-1.85266
 30
0.0
 10
8.63036
 20
-1.85266
 30
0.0
 10
8.4236
 20
-1.8164
 30
0.0
 10
8.23336
 20
-1.70984
 30
0.0
 10
8.04312
 20
-1.60328
 30
0.0
  0
SPLINE
  5
7B
330
1F
100
AcDbEntity
  8
layer 1
 62
     3
370
     9
100
AcDbSpline
210
0.0
220
0.0
230
1.0
 70
     8
 71
     3
 72
    16
 73
    12
 74
     0
 42
0.000000001
 43
0.0000000001
 40
0.0
 40
0.0
 40
0.0
 40
0.0
 40
0.25
 40
0.25
 40
0.25
 40
0.25
 40
0.5
 40
0.5
 40
0.5
 40
0.5
 40
1.0
 40
1.0
 40
1.0
 40
1.0
 10
8.04312
 20
-1.60328
 30
0.0
 10
7.87076
 20
-1.62159
 30
0.0
 10
7.69839
 20
-1.6399
 30
0.0
 10
7.52532
 20
-1.62033
 30
0.0
 10
7.52532
 20
-1.62033
 30
0.0
 10
7.3603
 20
-1.60168
 30
0.0
 10
7.19463
 20
-1.54859
 30
0.0
 10
7.05885
 20
-1.45773
 30
0.0
 10
7.05885
 20
-1.45773
 30
0.0
 10
6.90084
 20
-1.35199
 30
0.0
 10
6.78331
 20
-1.1951
 30
0.0
 10
6.66578
 20
-1.03822
 30
0.0
  0
SPLINE
  5
7C
330
1F
100
AcDbEntity
  8
layer 1
 62
     3
370
     9
100
AcDbSpline
210
0.0
220
0.0
230
1.0
 70
     8
 71
     3
 72
    16
 73
    12
 74
     0
 42
0.000000001
 43
0.0000000001
 40
0.0
 40
0.0
 40
0.0
 40
0.0
 40
0.25
 40
0.25
 40
0.25
 40
0.25
 40
0.5
 40
0.5
 40
0.5
 40
0.5
 40
1.0
 40
1.0
 40
1.0
 40
1.0
 10
6.66578
 20
-1.03822
 30
0.0
 10
6.44316
 20
-1.00009
 30
0.0
 10
6.22054
 20
-0.96197
 30
0.0
 10
6.01162
 20
-0.8747
 30
0.0
 10
6.01162
 20
-0.8747
 30
0.0
 10
5.8125
 20
-0.79153
 30
0.0
 10
5.62584
 20
-0.66371
 30
0.0
 10
5.48906
 20
-0.50062
 30
0.0
 10
5.48906
 20
-0.50062
 30
0.0
 10
5.33027
 20
-0.31127
 30
0.0
 10
5.23872
 20
-0.07436
 30
0.0
 10
5.14717
 20
0.16254
 30
0.0
  0
SPLINE
  5
7D
330
1F
100
AcDbEntity
  8
layer 1
 62
     3
370
     9
100
AcDbSpline
210
0.0
220
0.0
230
1.0
 70
     8
 71
     3
 72
    16
 73
    12
 74
     0
 42
0.000000001
 43
0.0000000001
 40
0.0
 40
0.0
 40
0.0
 40
0.0
 40
0.25
 40
0.25
 40
0.25
 40
0.25
 40
0.5
 40
0.5
 40
0.5
 40
0.5
 40
1.0
 40
1.0
 40
1.0
 40
1.0
 10
5.14717
 20
0.16254
 30
0.0
 10
4.97855
 20
0.26863
 30
0.0
 10
4.80993
 20
0.37472
 30
0.0
 10
4.65606
 20
0.50919
 30
0.0
 10
4.65606
 20
0.50919
 30
0.0
 10
4.51542
 20
0.63211
 30
0.0
 10
4.3871
 20
0.77874
 30
0.0
 10
4.32279
 20
0.94605
 30
0.0
 10
4.32279
 20
0.94605
 30
0.0
 10
4.25295
 20
1.12774
 30
0.0
 10
4.25861
 20
1.33381
 30
0.0
 10
4.26426
 20
1.53989
 30
0.0
  0
SPLINE
  5
7E
330
1F
100
AcDbEntity
  8
layer 1
 62
     3
370
     9
100
AcDbSpline
210
0.0
220
0.0
230
1.0
 70
     8
 71
     3
 72
    16
 73
    12
 74
     0
 42
0.000000001
 43
0.0000000001
 40
0.0
 40
0.0
 40
0.0
 40
0.0
 40
0.25
 40
0.25
 40
0.25
 40
0.25
 40
0.5
 40
0.5
 40
0.5
 40
0.5
 40
1.0
 40
1.0
 40
1.0
 40
1.0
 10
4.26426
 20
1.53989
 30
0.0
 10
4.17014
 20
1.70361
 30
0.0
 10
4.07602
 20
1.86734
 30
0.0
 10
4.00043
 20
2.04125
 30
0.0
 10
4.00043
 20
2.04125
 30
0.0
 10
3.91748
 20
2.2321
 30
0.0
 10
3.85685
 20
2.43522
 30
0.0
 10
3.8344
 20
2.6404
 30
0.0
 10
3.8344
 20
2.6404
 30
0.0
 10
3.80524
 20
2.90694
 30
0.0
 10
3.84051
 20
3.17696
 30
0.0
 10
3.87578
 20
3.44698
 30
0.0
  0
SPLINE
  5
7F
330
1F
100
AcDbEntity
  8
layer 1
 62
     3
370
     9
100
AcDbSpline
210
0.0
220
0.0
230
1.0
 70
     8
 71
     3
 72
    16
 73
    12
 74
     0
 42
0.000000001
 43
0.0000000001
 40
0.0
 40
0.0
 40
0.0
 40
0.0
 40
0.25
 40
0.25
 40
0.25
 40
0.25
 40
0.5
 40
0.5
 40
0.5
 40
0.5
 40
1.0
 40
1.0
 40
1.0
 40
1.0
 10
3.87578
 20
3.44698
 30
0.0
 10
3.80249
 20
3.62276
 30
0.0
 10
3.7292
 20
3.79854
 30
0.0
 10
3.67566
 20
3.98513
 30
0.0
 10
3.67566
 20
3.98513
 30
0.0
 10
3.62333
 20
4.16755
 30
0.0
 10
3.58988
 20
4.36031
 30
0.0
 10
3.6131
 20
4.54294
 30
0.0
 10
3.6131
 20
4.54294
 30
0.0
 10
3.63963
 20
4.75148
 30
0.0
 10
3.74004
 20
4.94682
 30
0.0
 10
3.84046
 20
5.14217
 30
0.0
  0
SPLINE
  5
80
330
1F
100
AcDbEntity
  8
layer 1
 62
     3
370
     9
100
AcDbSpline
210
0.0
220
0.0
230
1.0
 70
     8
 71
     3
 72
    16
 73
    12
 74
     0
 42
0.000000001
 43
0.0000000001
 40
0.0
 40
0.0
 40
0.0
 40
0.0
 40
0.25
 40
0.25
 40
0.25
 40
0.25
 40
0.5
 40
0.5
 40
0.5
 40
0.5
 40
1.0
 40
1.0
 40
1.0
 40
1.0
 10
3.84046
 20
5.14217
 30
0.0
 10
3.77783
 20
5.34966
 30
0.0
 10
3.7152
 20
5.55715
 30
0.0
 10
3.69774
 20
5.77167
 30
0.0
 10
3.69774
 20
5.77167
 30
0.0
 10
3.68371
 20
5.9441
 30
0.0
 10
3.69887
 20
6.12107
 30
0.0
 10
3.74279
 20
6.28852
 30
0.0
 10
3.74279
 20
6.28852
 30
0.0
 10
3.7829
 20
6.44144
 30
0.0
 10
3.847
 20
6.58642
 30
0.0
 10
3.9111
 20
6.73141
 30
0.0
  0
SPLINE
  5
81
330
1F
100
AcDbEntity
  8
layer 1
 62
     3
370
     9
100
AcDbSpline
210
0.0
220
0.0
230
1.0
 70
     8
 71
     3
 72
    16
 73
    12
 74
     0
 42
0.000000001
 43
0.0000000001
 40
0.0
 40
0.0
 40
0.0
 40
0.0
 40
0.25
 40
0.25
 40
0.25
 40
0.25
 40
0.5
 40
0.5
 40
0.5
 40
0.5
 40
1.0
 40
1.0
 40
1.0
 40
1.0
 10
3.9111
 20
6.73141
 30
0.0
 10
3.90573
 20
7.09979
 30
0.0
 10
3.90036
 20
7.46818
 30
0.0
 10
4.08098
 20
7.74867
 30
0.0
 10
4.08098
 20
7.74867
 30
0.0
 10
4.15669
 20
7.86624
 30
0.0
 10
4.26507
 20
7.96837
 30
0.0
 10
4.36628
 20
8.07346
 30
0.0
 10
4.36628
 20
8.07346
 30
0.0
 10
4.46645
 20
8.17747
 30
0.0
 10
4.5596
 20
8.28437
 30
0.0
 10
4.65274
 20
8.39128
 30
0.0
  0
SPLINE
  5
82
330
1F
100
AcDbEntity
  8
layer 1
 62
     3
370
     9
100
AcDbSpline
210
0.0
220
0.0
230
1.0
 70
     8
 71
     3
 72
    16
 73
    12
 74
     0
 42
0.000000001
 43
0.0000000001
 40
0.0
 40
0.0
 40
0.0
 40
0.0
 40
0.25
 40
0.25
 40
0.25
 40
0.25
 40
0.5
 40
0.5
 40
0.5
 40
0.5
 40
1.0
 40
1.0
 40
1.0
 40
1.0
 10
4.65274
 20
8.39128
 30
0.0
 10
4.7199
 20
8.53728
 30
0.0
 10
4.78706
 20
8.68327
 30
0.0
 10
4.85766
 20
8.83479
 30
0.0
 10
4.85766
 20
8.83479
 30
0.0
 10
4.92662
 20
8.98278
 30
0.0
 10
4.99885
 20
9.13603
 30
0.0
 10
5.11324
 20
9.23777
 30
0.0
 10
5.11324
 20
9.23777
 30
0.0
 10
5.24199
 20
9.35228
 30
0.0
 10
5.42414
 20
9.40153
 30
0.0
 10
5.60629
 20
9.45078
 30
0.0
  0
SPLINE
  5
83
330
1F
100
AcDbEntity
  8
layer 1
 62
     3
370
     9
100
AcDbSpline
210
0.0
220
0.0
230
1.0
 70
     8
 71
     3
 72
    16
 73
    12
 74
     0
 42
0.000000001
 43
0.0000000001
 40
0.0
 40
0.0
 40
0.0
 40
0.0
 40
0.25
 40
0.25
 40
0.25
 40
0.25
 40
0.5
 40
0.5
 40
0.5
 40
0.5
 40
1.0
 40
1.0
 40
1.0
 40
1.0
 10
5.60629
 20
9.45078
 30
0.0
 10
5.69292
 20
9.58109
 30
0.0
 10
5.77956
 20
9.71141
 30
0.0
 10
5.87554
 20
9.84046
 30
0.0
 10
5.87554
 20
9.84046
 30
0.0
 10
5.97179
 20
9.96989
 30
0.0
 10
6.07743
 20
10.09804
 30
0.0
 10
6.20893
 20
10.17884
 30
0.0
 10
6.20893
 20
10.17884
 30
0.0
 10
6.37051
 20
10.27813
 30
0.0
 10
6.57112
 20
10.30591
 30
0.0
 10
6.77173
 20
10.33369
 30
0.0
  0
SPLINE
  5
84
330
1F
100
AcDbEntity
  8
layer 1
 62
     3
370
     9
100
AcDbSpline
210
0.0
220
0.0
230
1.0
 70
     8
 71
     3
 72
    16
 73
    12
 74
     0
 42
0.000000001
 43
0.0000000001
 40
0.0
 40
0.0
 40
0.0
 40
0.0
 40
0.25
 40
0.25
 40
0.25
 40
0.25
 40
0.5
 40
0.5
 40
0.5
 40
0.5
 40
1.0
 40
1.0
 40
1.0
 40
1.0
 10
6.77173
 20
10.33369
 30
0.0
 10
6.88916
 20
10.44747
 30
0.0
 10
7.00658
 20
10.56125
 30
0.0
 10
7.14067
 20
10.65605
 30
0.0
 10
7.14067
 20
10.65605
 30
0.0
 10
7.28712
 20
10.7596
 30
0.0
 10
7.45345
 20
10.8405
 30
0.0
 10
7.62605
 20
10.88138
 30
0.0
 10
7.62605
 20
10.88138
 30
0.0
 10
7.86314
 20
10.93753
 30
0.0
 10
8.11206
 20
10.91814
 30
0.0
 10
8.36097
 20
10.89875
 30
0.0
  0
SPLINE
  5
85
330
1F
100
AcDbEntity
  8
layer 1
 62
     3
370
     9
100
AcDbSpline
210
0.0
220
0.0
230
1.0
 70
     8
 71
     3
 72
    16
 73
    12
 74
     0
 42
0.000000001
 43
0.0000000001
 40
0.0
 40
0.0
 40
0.0
 40
0.0
 40
0.25
 40
0.25
 40
0.25
 40
0.25
 40
0.5
 40
0.5
 40
0.5
 40
0.5
 40
1.0
 40
1.0
 40
1.0
 40
1.0
 10
8.36097
 20
10.89875
 30
0.0
 10
8.5408
 20
10.97344
 30
0.0
 10
8.72062
 20
11.04812
 30
0.0
 10
8.91051
 20
11.09185
 30
0.0
 10
8.91051
 20
11.09185
 30
0.0
 10
9.07961
 20
11.1308
 30
0.0
 10
9.2567
 20
11.14519
 30
0.0
 10
9.42815
 20
11.1255
 30
0.0
 10
9.42815
 20
11.1255
 30
0.0
 10
9.59391
 20
11.10647
 30
0.0
 10
9.7544
 20
11.05559
 30
0.0
 10
9.9149
 20
11.0047
 30
0.0
  0
SPLINE
  5
86
330
1F
100
AcDbEntity
  8
layer 1
 62
     3
370
     9
100
AcDbSpline
210
0.0
220
0.0
230
1.0
 70
     8
 71
     3
 72
    16
 73
    12
 74
     0
 42
0.000000001
 43
0.0000000001
 40
0.0
 40
0.0
 40
0.0
 40
0.0
 40
0.25
 40
0.25
 40
0.25
 40
0.25
 40
0.5
 40
0.5
 40
0.5
 40
0.5
 40
1.0
 40
1.0
 40
1.0
 40
1.0
 10
9.9149
 20
11.0047
 30
0.0
 10
10.07917
 20
11.04601
 30
0.0
 10
10.24345
 20
11.08732
 30
0.0
 10
10.41024
 20
11.1188
 30
0.0
 10
10.41024
 20
11.1188
 30
0.0
 10
10.59763
 20
11.15416
 30
0.0
 10
10.78818
 20
11.17711
 30
0.0
 10
10.97821
 20
11.17842
 30
0.0
 10
10.97821
 20
11.17842
 30
0.0
 10
11.22475
 20
11.18012
 30
0.0
 10
11.47039
 20
11.14538
 30
0.0
 10
11.71604
 20
11.11065
 30
0.0
  0
SPLINE
  5
87
330
1F
100
AcDbEntity
  8
layer 1
 62
     3
370
     9
100
AcDbSpline
210
0.0
220
0.0
230
1.0
 70
     8
 71
     3
 72
    16
 73
    12
 74
     0
 42
0.000000001
 43
0.0000000001
 40
0.0
 40
0.0
 40
0.0
 40
0.0
 40
0.25
 40
0.25
 40
0.25
 40
0.25
 40
0.5
 40
0.5
 40
0.5
 40
0.5
 40
1.0
 40
1.0
 40
1.0
 40
1.0
 10
11.71604
 20
11.11065
 30
0.0
 10
11.93715
 20
11.18083
 30
0.0
 10
12.15826
 20
11.25101
 30
0.0
 10
12.38523
 20
11.26223
 30
0.0
 10
12.38523
 20
11.26223
 30
0.0
 10
12.52987
 20
11.26938
 30
0.0
 10
12.67688
 20
11.25259
 30
0.0
 10
12.82106
 20
11.22713
 30
0.0
 10
12.82106
 20
11.22713
 30
0.0
 10
12.94863
 20
11.2046
 30
0.0
 10
13.07398
 20
11.17529
 30
0.0
 10
13.19933
 20
11.14598
 30
0.0
  0
SPLINE
  5
88
330
1F
100
AcDbEntity
  8
layer 1
370
     9
100
AcDbSpline
210
0.0
220
0.0
230
1.0
 70
    24
 71
     3
 72
     8
 73
     4
 74
     0
 42
0.000000001
 43
0.0000000001
 40
0.0
 40
0.0
 40
0.0
 40
0.0
 40
1.0
 40
1.0
 40
1.0
 40
1.0
 10
9.56173
 20
9.76862
 30
0.0
 10
9.56173
 20
9.76862
 30
0.0
 10
14.75328
 20
9.76862
 30
0.0
 10
14.75328
 20
9.76862
 30
0.0
  0
SPLINE
  5
89
330
1F
100
AcDbEntity
  8
layer 1
 62
     3
370
     9
100
AcDbSpline
210
0.0
220
0.0
230
1.0
 70
    24
 71
     3
 72
     8
 73
     4
 74
     0
 42
0.000000001
 43
0.0000000001
 40
0.0
 40
0.0
 40
0.0
 40
0.0
 40
1.0
 40
1.0
 40
1.0
 40
1.0
 10
13.19933
 20
-1.60328
 30
0.0
 10
13.19933
 20
-1.60328
 30
0.0
 10
13.19933
 20
-0.11999
 30
0.0
 10
13.19933
 20
-0.11999
 30
0.0
  0
SPLINE
  5
8A
330
1F
100
AcDbEntity
  8
layer 1
 62
     3
370
     9
100
AcDbSpline
210
0.0
220
0.0
230
1.0
 70
    24
 71
     3
 72
     8
 73
     4
 74
     0
 42
0.000000001
 43
0.0000000001
 40
0.0
 40
0.0
 40
0.0
 40
0.0
 40
1.0
 40
1.0
 40
1.0
 40
1.0
 10
11.71604
 20
-1.70923
 30
0.0
 10
11.71604
 20
-1.70923
 30
0.0
 10
11.68072
 20
-0.1553
 30
0.0
 10
11.68072
 20
-0.1553
 30
0.0
  0
SPLINE
  5
8B
330
1F
100
AcDbEntity
  8
layer 1
 62
     3
370
     9
100
AcDbSpline
210
0.0
220
0.0
230
1.0
 70
    24
 71
     3
 72
     8
 73
     4
 74
     0
 42
0.000000001
 43
0.0000000001
 40
0.0
 40
0.0
 40
0.0
 40
0.0
 40
1.0
 40
1.0
 40
1.0
 40
1.0
 10
9.63237
 20
-1.60328
 30
0.0
 10
9.63237
 20
-1.60328
 30
0.0
 10
9.73832
 20
-0.22594
 30
0.0
 10
9.73832
 20
-0.22594
 30
0.0
  0
SPLINE
  5
8C
330
1F
100
AcDbEntity
  8
layer 1
 62
     3
370
     9
100
AcDbSpline
210
0.0
220
0.0
230
1.0
 70
    24
 71
     3
 72
     8
 73
     4
 74
     0
 42
0.000000001
 43
0.0000000001
 40
0.0
 40
0.0
 40
0.0
 40
0.0
 40
1.0
 40
1.0
 40
1.0
 40
1.0
 10
7.97249
 20
-1.60328
 30
0.0
 10
7.97249
 20
-1.60328
 30
0.0
 10
8.50224
 20
0.02128
 30
0.0
 10
8.50224
 20
0.02128
 30
0.0
  0
SPLINE
  5
8D
330
1F
100
AcDbEntity
  8
layer 1
 62
     3
370
     9
100
AcDbSpline
210
0.0
220
0.0
230
1.0
 70
    24
 71
     3
 72
     8
 73
     4
 74
     0
 42
0.000000001
 43
0.0000000001
 40
0.0
 40
0.0
 40
0.0
 40
0.0
 40
1.0
 40
1.0
 40
1.0
 40
1.0
 10
6.59515
 20
-1.03822
 30
0.0
 10
6.59515
 20
-1.03822
 30
0.0
 10
7.30148
 20
0.40976
 30
0.0
 10
7.30148
 20
0.40976
 30
0.0
  0
SPLINE
  5
8E
330
1F
100
AcDbEntity
  8
layer 1
 62
     3
370
     9
100
AcDbSpline
210
0.0
220
0.0
230
1.0
 70
    24
 71
     3
 72
     8
 73
     4
 74
     0
 42
0.000000001
 43
0.0000000001
 40
0.0
 40
0.0
 40
0.0
 40
0.0
 40
1.0
 40
1.0
 40
1.0
 40
1.0
 10
5.14717
 20
0.23318
 30
0.0
 10
5.14717
 20
0.23318
 30
0.0
 10
6.38325
 20
1.1514
 30
0.0
 10
6.38325
 20
1.1514
 30
0.0
  0
SPLINE
  5
8F
330
1F
100
AcDbEntity
  8
layer 1
 62
     3
370
     9
100
AcDbSpline
210
0.0
220
0.0
230
1.0
 70
    24
 71
     3
 72
     8
 73
     4
 74
     0
 42
0.000000001
 43
0.0000000001
 40
0.0
 40
0.0
 40
0.0
 40
0.0
 40
1.0
 40
1.0
 40
1.0
 40
1.0
 10
4.22894
 20
1.53989
 30
0.0
 10
4.22894
 20
1.53989
 30
0.0
 10
5.50034
 20
2.10495
 30
0.0
 10
5.50034
 20
2.10495
 30
0.0
  0
SPLINE
  5
90
330
1F
100
AcDbEntity
  8
layer 1
 62
     3
370
     9
100
AcDbSpline
210
0.0
220
0.0
230
1.0
 70
    24
 71
     3
 72
     8
 73
     4
 74
     0
 42
0.000000001
 43
0.0000000001
 40
0.0
 40
0.0
 40
0.0
 40
0.0
 40
1.0
 40
1.0
 40
1.0
 40
1.0
 10
3.9111
 20
3.48229
 30
0.0
 10
3.9111
 20
3.48229
 30
0.0
 10
4.82932
 20
3.69419
 30
0.0
 10
4.82932
 20
3.69419
 30
0.0
  0
SPLINE
  5
91
330
1F
100
AcDbEntity
  8
layer 1
 62
     3
370
     9
100
AcDbSpline
210
0.0
220
0.0
230
1.0
 70
    24
 71
     3
 72
     8
 73
     4
 74
     0
 42
0.000000001
 43
0.0000000001
 40
0.0
 40
0.0
 40
0.0
 40
0.0
 40
1.0
 40
1.0
 40
1.0
 40
1.0
 10
3.9111
 20
5.17748
 30
0.0
 10
3.9111
 20
5.17748
 30
0.0
 10
4.79401
 20
5.10685
 30
0.0
 10
4.79401
 20
5.10685
 30
0.0
  0
SPLINE
  5
92
330
1F
100
AcDbEntity
  8
layer 1
 62
     3
370
     9
100
AcDbSpline
210
0.0
220
0.0
230
1.0
 70
     8
 71
     3
 72
    16
 73
    12
 74
     0
 42
0.000000001
 43
0.0000000001
 40
0.0
 40
0.0
 40
0.0
 40
0.0
 40
0.25
 40
0.25
 40
0.25
 40
0.25
 40
0.5
 40
0.5
 40
0.5
 40
0.5
 40
1.0
 40
1.0
 40
1.0
 40
1.0
 10
13.19933
 20
11.14598
 30
0.0
 10
13.37977
 20
11.16242
 30
0.0
 10
13.56022
 20
11.17886
 30
0.0
 10
13.74093
 20
11.18137
 30
0.0
 10
13.74093
 20
11.18137
 30
0.0
 10
13.90465
 20
11.18365
 30
0.0
 10
14.06859
 20
11.17449
 30
0.0
 10
14.23241
 20
11.16664
 30
0.0
 10
14.23241
 20
11.16664
 30
0.0
 10
14.39433
 20
11.15889
 30
0.0
 10
14.55613
 20
11.15243
 30
0.0
 10
14.71794
 20
11.14597
 30
0.0
  0
SPLINE
  5
93
330
1F
100
AcDbEntity
  8
layer 1
 62
     3
370
     9
100
AcDbSpline
210
0.0
220
0.0
230
1.0
 70
    24
 71
     3
 72
     8
 73
     4
 74
     0
 42
0.000000001
 43
0.0000000001
 40
0.0
 40
0.0
 40
0.0
 40
0.0
 40
1.0
 40
1.0
 40
1.0
 40
1.0
 10
3.87578
 20
6.83736
 30
0.0
 10
3.87578
 20
6.83736
 30
0.0
 10
5.04122
 20
6.51951
 30
0.0
 10
5.04122
 20
6.51951
 30
0.0
  0
SPLINE
  5
94
330
1F
100
AcDbEntity
  8
layer 1
 62
     3
370
     9
100
AcDbSpline
210
0.0
220
0.0
230
1.0
 70
     8
 71
     3
 72
    16
 73
    12
 74
     0
 42
0.000000001
 43
0.0000000001
 40
0.0
 40
0.0
 40
0.0
 40
0.0
 40
0.25
 40
0.25
 40
0.25
 40
0.25
 40
0.5
 40
0.5
 40
0.5
 40
0.5
 40
1.0
 40
1.0
 40
1.0
 40
1.0
 10
4.51148
 20
8.14406
 30
0.0
 10
4.62143
 20
8.09722
 30
0.0
 10
4.73139
 20
8.05038
 30
0.0
 10
4.83979
 20
8.00018
 30
0.0
 10
4.83979
 20
8.00018
 30
0.0
 10
4.99581
 20
7.92794
 30
0.0
 10
5.1486
 20
7.84874
 30
0.0
 10
5.30152
 20
7.76998
 30
0.0
 10
5.30152
 20
7.76998
 30
0.0
 10
5.37954
 20
7.72979
 30
0.0
 10
5.4576
 20
7.68971
 30
0.0
 10
5.53565
 20
7.64964
 30
0.0
  0
SPLINE
  5
95
330
1F
100
AcDbEntity
  8
layer 1
 62
     3
370
     9
100
AcDbSpline
210
0.0
220
0.0
230
1.0
 70
    24
 71
     3
 72
     8
 73
     4
 74
     0
 42
0.000000001
 43
0.0000000001
 40
0.0
 40
0.0
 40
0.0
 40
0.0
 40
1.0
 40
1.0
 40
1.0
 40
1.0
 10
5.57097
 20
9.41546
 30
0.0
 10
5.57097
 20
9.41546
 30
0.0
 10
6.4892
 20
8.67382
 30
0.0
 10
6.4892
 20
8.67382
 30
0.0
  0
SPLINE
  5
96
330
1F
100
AcDbEntity
  8
layer 1
 62
     3
370
     9
100
AcDbSpline
210
0.0
220
0.0
230
1.0
 70
    24
 71
     3
 72
     8
 73
     4
 74
     0
 42
0.000000001
 43
0.0000000001
 40
0.0
 40
0.0
 40
0.0
 40
0.0
 40
1.0
 40
1.0
 40
1.0
 40
1.0
 10
8.29034
 20
10.82812
 30
0.0
 10
8.29034
 20
10.82812
 30
0.0
 10
8.60819
 20
9.62736
 30
0.0
 10
8.60819
 20
9.62736
 30
0.0
  0
SPLINE
  5
97
330
1F
100
AcDbEntity
  8
layer 1
 62
     3
370
     9
100
AcDbSpline
210
0.0
220
0.0
230
1.0
 70
    24
 71
     3
 72
     8
 73
     4
 74
     0
 42
0.000000001
 43
0.0000000001
 40
0.0
 40
0.0
 40
0.0
 40
0.0
 40
1.0
 40
1.0
 40
1.0
 40
1.0
 10
9.95022
 20
10.93407
 30
0.0
 10
9.95022
 20
10.93407
 30
0.0
 10
10.02085
 20
9.83926
 30
0.0
 10
10.02085
 20
9.83926
 30
0.0
  0
SPLINE
  5
98
330
1F
100
AcDbEntity
  8
layer 1
 62
     3
370
     9
100
AcDbSpline
210
0.0
220
0.0
230
1.0
 70
    24
 71
     3
 72
     8
 73
     4
 74
     0
 42
0.000000001
 43
0.0000000001
 40
0.0
 40
0.0
 40
0.0
 40
0.0
 40
1.0
 40
1.0
 40
1.0
 40
1.0
 10
11.61009
 20
11.07534
 30
0.0
 10
11.61009
 20
11.07534
 30
0.0
 10
11.64541
 20
9.76862
 30
0.0
 10
11.64541
 20
9.76862
 30
0.0
  0
SPLINE
  5
99
330
1F
100
AcDbEntity
  8
layer 1
 62
     3
370
     9
100
AcDbSpline
210
0.0
220
0.0
230
1.0
 70
     8
 71
     3
 72
    16
 73
    12
 74
     0
 42
0.000000001
 43
0.0000000001
 40
0.0
 40
0.0
 40
0.0
 40
0.0
 40
0.25
 40
0.25
 40
0.25
 40
0.25
 40
0.5
 40
0.5
 40
0.5
 40
0.5
 40
1.0
 40
1.0
 40
1.0
 40
1.0
 10
6.73642
 20
10.33369
 30
0.0
 10
6.82929
 20
10.23465
 30
0.0
 10
6.92217
 20
10.1356
 30
0.0
 10
7.00717
 20
10.03023
 30
0.0
 10
7.00717
 20
10.03023
 30
0.0
 10
7.12277
 20
9.88694
 30
0.0
 10
7.22382
 20
9.73194
 30
0.0
 10
7.32502
 20
9.57766
 30
0.0
 10
7.32502
 20
9.57766
 30
0.0
 10
7.37601
 20
9.49993
 30
0.0
 10
7.42704
 20
9.42238
 30
0.0
 10
7.47806
 20
9.34483
 30
0.0
  0
SPLINE
  5
9A
330
1F
100
AcDbEntity
  8
layer 1
 62
     3
370
     9
100
AcDbSpline
210
0.0
220
0.0
230
1.0
 70
     8
 71
     3
 72
    28
 73
    24
 74
     0
 42
0.000000001
 43
0.0000000001
 40
0.0
 40
0.0
 40
0.0
 40
0.0
 40
0.1428571428571428
 40
0.1428571428571428
 40
0.1428571428571428
 40
0.1428571428571428
 40
0.2857142857142857
 40
0.2857142857142857
 40
0.2857142857142857
 40
0.2857142857142857
 40
0.4285714285714285
 40
0.4285714285714285
 40
0.4285714285714285
 40
0.4285714285714285
 40
0.5714285714285714
 40
0.5714285714285714
 40
0.5714285714285714
 40
0.5714285714285714
 40
0.7142857142857143
 40
0.7142857142857143
 40
0.7142857142857143
 40
0.7142857142857143
 40
1.0
 40
1.0
 40
1.0
 40
1.0
 10
-16.19754
 20
6.18756
 30
0.0
 10
-15.39285
 20
6.3025
 30
0.0
 10
-14.58817
 20
6.41745
 30
0.0
 10
-13.75805
 20
6.45383
 30
0.0
 10
-13.75805
 20
6.45383
 30
0.0
 10
-13.15111
 20
6.48042
 30
0.0
 10
-12.53056
 20
6.46502
 30
0.0
 10
-11.97864
 20
6.22365
 30
0.0
 10
-11.97864
 20
6.22365
 30
0.0
 10
-11.57997
 20
6.0493
 30
0.0
 10
-11.21711
 20
5.75706
 30
0.0
 10
-10.97659
 20
5.40172
 30
0.0
 10
-10.97659
 20
5.40172
 30
0.0
 10
-10.61255
 20
4.86386
 30
0.0
 10
-10.52882
 20
4.18143
 30
0.0
 10
-10.41571
 20
3.52192
 30
0.0
 10
-10.41571
 20
3.52192
 30
0.0
 10
-10.26032
 20
2.61581
 30
0.0
 10
-10.04946
 20
1.75296
 30
0.0
 10
-9.95032
 20
0.86723
 30
0.0
 10
-9.95032
 20
0.86723
 30
0.0
 10
-9.87443
 20
0.18924
 30
0.0
 10
-9.864
 20
-0.50215
 30
0.0
 10
-9.85356
 20
-1.19355
 30
0.0
  0
SPLINE
  5
9B
330
1F
100
AcDbEntity
  8
layer 1
 62
     3
370
     9
100
AcDbSpline
210
0.0
220
0.0
230
1.0
 70
     8
 71
     3
 72
    28
 73
    24
 74
     0
 42
0.000000001
 43
0.0000000001
 40
0.0
 40
0.0
 40
0.0
 40
0.0
 40
0.1428571428571428
 40
0.1428571428571428
 40
0.1428571428571428
 40
0.1428571428571428
 40
0.2857142857142857
 40
0.2857142857142857
 40
0.2857142857142857
 40
0.2857142857142857
 40
0.4285714285714285
 40
0.4285714285714285
 40
0.4285714285714285
 40
0.4285714285714285
 40
0.5714285714285714
 40
0.5714285714285714
 40
0.5714285714285714
 40
0.5714285714285714
 40
0.7142857142857143
 40
0.7142857142857143
 40
0.7142857142857143
 40
0.7142857142857143
 40
1.0
 40
1.0
 40
1.0
 40
1.0
 10
-22.2928
 20
5.00614
 30
0.0
 10
-23.1294
 20
3.74205
 30
0.0
 10
-23.966
 20
2.47797
 30
0.0
 10
-24.5856
 20
1.12491
 30
0.0
 10
-24.5856
 20
1.12491
 30
0.0
 10
-25.25922
 20
-0.34612
 30
0.0
 10
-25.67636
 20
-1.92231
 30
0.0
 10
-25.99717
 20
-3.56829
 30
0.0
 10
-25.99717
 20
-3.56829
 30
0.0
 10
-26.2758
 20
-4.99785
 30
0.0
 10
-26.48178
 20
-6.48007
 30
0.0
 10
-26.08889
 20
-7.82381
 30
0.0
 10
-26.08889
 20
-7.82381
 30
0.0
 10
-25.82576
 20
-8.72374
 30
0.0
 10
-25.29402
 20
-9.56157
 30
0.0
 10
-24.63411
 20
-10.27535
 30
0.0
 10
-24.63411
 20
-10.27535
 30
0.0
 10
-23.81787
 20
-11.15821
 30
0.0
 10
-22.80554
 20
-11.85128
 30
0.0
 10
-21.70478
 20
-12.23792
 30
0.0
 10
-21.70478
 20
-12.23792
 30
0.0
 10
-20.54859
 20
-12.64402
 30
0.0
 10
-19.29485
 20
-12.71204
 30
0.0
 10
-18.04111
 20
-12.78007
 30
0.0
  0
SPLINE
  5
9C
330
1F
100
AcDbEntity
  8
layer 1
 62
     3
370
     9
100
AcDbSpline
210
0.0
220
0.0
230
1.0
 70
     8
 71
     3
 72
    28
 73
    24
 74
     0
 42
0.000000001
 43
0.0000000001
 40
0.0
 40
0.0
 40
0.0
 40
0.0
 40
0.1428571428571428
 40
0.1428571428571428
 40
0.1428571428571428
 40
0.1428571428571428
 40
0.2857142857142857
 40
0.2857142857142857
 40
0.2857142857142857
 40
0.2857142857142857
 40
0.4285714285714285
 40
0.4285714285714285
 40
0.4285714285714285
 40
0.4285714285714285
 40
0.5714285714285714
 40
0.5714285714285714
 40
0.5714285714285714
 40
0.5714285714285714
 40
0.7142857142857143
 40
0.7142857142857143
 40
0.7142857142857143
 40
0.7142857142857143
 40
1.0
 40
1.0
 40
1.0
 40
1.0
 10
-18.04111
 20
-12.78007
 30
0.0
 10
-17.55653
 20
-12.57597
 30
0.0
 10
-17.07196
 20
-12.37188
 30
0.0
 10
-16.82168
 20
-11.98927
 30
0.0
 10
-16.82168
 20
-11.98927
 30
0.0
 10
-16.6157
 20
-11.67438
 30
0.0
 10
-16.56842
 20
-11.23858
 30
0.0
 10
-16.54631
 20
-10.82524
 30
0.0
 10
-16.54631
 20
-10.82524
 30
0.0
 10
-16.52376
 20
-10.40358
 30
0.0
 10
-16.52739
 20
-10.0053
 30
0.0
 10
-16.49832
 20
-9.60596
 30
0.0
 10
-16.49832
 20
-9.60596
 30
0.0
 10
-16.44041
 20
-8.81022
 30
0.0
 10
-16.25268
 20
-8.01024
 30
0.0
 10
-16.15687
 20
-7.19862
 30
0.0
 10
-16.15687
 20
-7.19862
 30
0.0
 10
-16.05656
 20
-6.34887
 30
0.0
 10
-16.057
 20
-5.48636
 30
0.0
 10
-16.19844
 20
-4.65329
 30
0.0
 10
-16.19844
 20
-4.65329
 30
0.0
 10
-16.36897
 20
-3.6489
 30
0.0
 10
-16.74444
 20
-2.68729
 30
0.0
 10
-17.11991
 20
-1.72569
 30
0.0
  0
SPLINE
  5
9D
330
1F
100
AcDbEntity
  8
layer 1
 62
     3
370
     9
100
AcDbSpline
210
0.0
220
0.0
230
1.0
 70
     8
 71
     3
 72
    16
 73
    12
 74
     0
 42
0.000000001
 43
0.0000000001
 40
0.0
 40
0.0
 40
0.0
 40
0.0
 40
0.25
 40
0.25
 40
0.25
 40
0.25
 40
0.5
 40
0.5
 40
0.5
 40
0.5
 40
1.0
 40
1.0
 40
1.0
 40
1.0
 10
-21.71666
 20
5.60876
 30
0.0
 10
-20.29629
 20
6.21941
 30
0.0
 10
-18.87592
 20
6.83007
 30
0.0
 10
-17.59145
 20
6.49299
 30
0.0
 10
-17.59145
 20
6.49299
 30
0.0
 10
-16.58152
 20
6.22795
 30
0.0
 10
-15.6556
 20
5.37702
 30
0.0
 10
-14.97797
 20
4.45013
 30
0.0
 10
-14.97797
 20
4.45013
 30
0.0
 10
-14.34503
 20
3.58436
 30
0.0
 10
-13.92871
 20
2.65232
 30
0.0
 10
-13.51238
 20
1.72027
 30
0.0
  0
SPLINE
  5
9E
330
1F
100
AcDbEntity
  8
layer 1
 62
     3
370
     9
100
AcDbSpline
210
0.0
220
0.0
230
1.0
 70
     8
 71
     3
 72
    16
 73
    12
 74
     0
 42
0.000000001
 43
0.0000000001
 40
0.0
 40
0.0
 40
0.0
 40
0.0
 40
0.25
 40
0.25
 40
0.25
 40
0.25
 40
0.5
 40
0.5
 40
0.5
 40
0.5
 40
1.0
 40
1.0
 40
1.0
 40
1.0
 10
-21.25564
 20
-0.45909
 30
0.0
 10
-21.17048
 20
0.62732
 30
0.0
 10
-21.08532
 20
1.71372
 30
0.0
 10
-20.24472
 20
2.42934
 30
0.0
 10
-20.24472
 20
2.42934
 30
0.0
 10
-19.94701
 20
2.6828
 30
0.0
 10
-19.55454
 20
2.88974
 30
0.0
 10
-19.23698
 20
2.8283
 30
0.0
 10
-19.23698
 20
2.8283
 30
0.0
 10
-18.91344
 20
2.7657
 30
0.0
 10
-18.66766
 20
2.42452
 30
0.0
 10
-18.42187
 20
2.08333
 30
0.0
  0
SPLINE
  5
9F
330
1F
100
AcDbEntity
  8
layer 1
 62
     3
370
     9
100
AcDbSpline
210
0.0
220
0.0
230
1.0
 70
     8
 71
     3
 72
    16
 73
    12
 74
     0
 42
0.000000001
 43
0.0000000001
 40
0.0
 40
0.0
 40
0.0
 40
0.0
 40
0.25
 40
0.25
 40
0.25
 40
0.25
 40
0.5
 40
0.5
 40
0.5
 40
0.5
 40
1.0
 40
1.0
 40
1.0
 40
1.0
 10
-21.51897
 20
-1.50799
 30
0.0
 10
-21.77812
 20
-2.34489
 30
0.0
 10
-22.03727
 20
-3.1818
 30
0.0
 10
-22.18831
 20
-4.10016
 30
0.0
 10
-22.18831
 20
-4.10016
 30
0.0
 10
-22.32697
 20
-4.94322
 30
0.0
 10
-22.37453
 20
-5.85492
 30
0.0
 10
-22.05741
 20
-6.55436
 30
0.0
 10
-22.05741
 20
-6.55436
 30
0.0
 10
-21.63643
 20
-7.48288
 30
0.0
 10
-20.57279
 20
-8.03733
 30
0.0
 10
-19.50915
 20
-8.59178
 30
0.0
  0
SPLINE
  5
A0
330
1F
100
AcDbEntity
  8
layer 1
 62
     3
370
     9
100
AcDbSpline
210
0.0
220
0.0
230
1.0
 70
     8
 71
     3
 72
    16
 73
    12
 74
     0
 42
0.000000001
 43
0.0000000001
 40
0.0
 40
0.0
 40
0.0
 40
0.0
 40
0.25
 40
0.25
 40
0.25
 40
0.25
 40
0.5
 40
0.5
 40
0.5
 40
0.5
 40
1.0
 40
1.0
 40
1.0
 40
1.0
 10
-19.50915
 20
-8.59178
 30
0.0
 10
-19.32658
 20
-8.62021
 30
0.0
 10
-19.14401
 20
-8.64863
 30
0.0
 10
-18.96147
 20
-8.67819
 30
0.0
 10
-18.96147
 20
-8.67819
 30
0.0
 10
-18.78203
 20
-8.70725
 30
0.0
 10
-18.60262
 20
-8.7374
 30
0.0
 10
-18.42205
 20
-8.75634
 30
0.0
 10
-18.42205
 20
-8.75634
 30
0.0
 10
-18.25789
 20
-8.77356
 30
0.0
 10
-18.09277
 20
-8.78151
 30
0.0
 10
-17.92765
 20
-8.78947
 30
0.0
  0
SPLINE
  5
A1
330
1F
100
AcDbEntity
  8
layer 1
 62
     3
370
     9
100
AcDbSpline
210
0.0
220
0.0
230
1.0
 70
     8
 71
     3
 72
    16
 73
    12
 74
     0
 42
0.000000001
 43
0.0000000001
 40
0.0
 40
0.0
 40
0.0
 40
0.0
 40
0.25
 40
0.25
 40
0.25
 40
0.25
 40
0.5
 40
0.5
 40
0.5
 40
0.5
 40
1.0
 40
1.0
 40
1.0
 40
1.0
 10
-17.92765
 20
-8.78947
 30
0.0
 10
-17.66883
 20
-8.63814
 30
0.0
 10
-17.41001
 20
-8.48682
 30
0.0
 10
-17.22382
 20
-8.25693
 30
0.0
 10
-17.22382
 20
-8.25693
 30
0.0
 10
-16.99319
 20
-7.97217
 30
0.0
 10
-16.87401
 20
-7.56687
 30
0.0
 10
-16.91161
 20
-7.20921
 30
0.0
 10
-16.91161
 20
-7.20921
 30
0.0
 10
-16.96596
 20
-6.69214
 30
0.0
 10
-17.34796
 20
-6.27462
 30
0.0
 10
-17.72997
 20
-5.85711
 30
0.0
  0
SPLINE
  5
A2
330
1F
100
AcDbEntity
  8
layer 1
 62
     3
370
     9
100
AcDbSpline
210
0.0
220
0.0
230
1.0
 70
     8
 71
     3
 72
    16
 73
    12
 74
     0
 42
0.000000001
 43
0.0000000001
 40
0.0
 40
0.0
 40
0.0
 40
0.0
 40
0.25
 40
0.25
 40
0.25
 40
0.25
 40
0.5
 40
0.5
 40
0.5
 40
0.5
 40
1.0
 40
1.0
 40
1.0
 40
1.0
 10
-17.72997
 20
-5.85711
 30
0.0
 10
-18.14184
 20
-5.57004
 30
0.0
 10
-18.55371
 20
-5.28297
 30
0.0
 10
-18.97984
 20
-4.99177
 30
0.0
 10
-18.97984
 20
-4.99177
 30
0.0
 10
-19.41121
 20
-4.69699
 30
0.0
 10
-19.85721
 20
-4.39796
 30
0.0
 10
-20.15659
 20
-4.00011
 30
0.0
 10
-20.15659
 20
-4.00011
 30
0.0
 10
-20.54236
 20
-3.48746
 30
0.0
 10
-20.68472
 20
-2.81073
 30
0.0
 10
-20.82707
 20
-2.134
 30
0.0
  0
SPLINE
  5
A3
330
1F
100
AcDbEntity
  8
layer 1
 62
     3
370
     9
100
AcDbSpline
210
0.0
220
0.0
230
1.0
 70
     8
 71
     3
 72
    16
 73
    12
 74
     0
 42
0.000000001
 43
0.0000000001
 40
0.0
 40
0.0
 40
0.0
 40
0.0
 40
0.25
 40
0.25
 40
0.25
 40
0.25
 40
0.5
 40
0.5
 40
0.5
 40
0.5
 40
1.0
 40
1.0
 40
1.0
 40
1.0
 10
-20.82707
 20
-2.134
 30
0.0
 10
-20.8438
 20
-1.78504
 30
0.0
 10
-20.86052
 20
-1.43607
 30
0.0
 10
-20.85866
 20
-1.0804
 30
0.0
 10
-20.85866
 20
-1.0804
 30
0.0
 10
-20.85677
 20
-0.71757
 30
0.0
 10
-20.83553
 20
-0.34775
 30
0.0
 10
-20.72179
 20
-0.01385
 30
0.0
 10
-20.72179
 20
-0.01385
 30
0.0
 10
-20.58392
 20
0.39092
 30
0.0
 10
-20.31012
 20
0.74291
 30
0.0
 10
-20.03632
 20
1.0949
 30
0.0
  0
SPLINE
  5
A4
330
1F
100
AcDbEntity
  8
layer 1
 62
     3
370
     9
100
AcDbSpline
210
0.0
220
0.0
230
1.0
 70
     8
 71
     3
 72
    16
 73
    12
 74
     0
 42
0.000000001
 43
0.0000000001
 40
0.0
 40
0.0
 40
0.0
 40
0.0
 40
0.25
 40
0.25
 40
0.25
 40
0.25
 40
0.5
 40
0.5
 40
0.5
 40
0.5
 40
1.0
 40
1.0
 40
1.0
 40
1.0
 10
-20.03632
 20
1.0949
 30
0.0
 10
-19.67179
 20
1.33044
 30
0.0
 10
-19.30725
 20
1.56598
 30
0.0
 10
-18.89318
 20
1.64854
 30
0.0
 10
-18.89318
 20
1.64854
 30
0.0
 10
-18.59035
 20
1.70892
 30
0.0
 10
-18.26103
 20
1.68748
 30
0.0
 10
-17.96612
 20
1.58996
 30
0.0
 10
-17.96612
 20
1.58996
 30
0.0
 10
-17.67894
 20
1.495
 30
0.0
 10
-17.4244
 20
1.3279
 30
0.0
 10
-17.16985
 20
1.16079
 30
0.0
  0
SPLINE
  5
A5
330
1F
100
AcDbEntity
  8
layer 1
 62
     3
370
     9
100
AcDbSpline
210
0.0
220
0.0
230
1.0
 70
     8
 71
     3
 72
    16
 73
    12
 74
     0
 42
0.000000001
 43
0.0000000001
 40
0.0
 40
0.0
 40
0.0
 40
0.0
 40
0.25
 40
0.25
 40
0.25
 40
0.25
 40
0.5
 40
0.5
 40
0.5
 40
0.5
 40
1.0
 40
1.0
 40
1.0
 40
1.0
 10
-17.16985
 20
1.16079
 30
0.0
 10
-16.81092
 20
1.16165
 30
0.0
 10
-16.45199
 20
1.16251
 30
0.0
 10
-16.10431
 20
1.09802
 30
0.0
 10
-16.10431
 20
1.09802
 30
0.0
 10
-15.67205
 20
1.01786
 30
0.0
 10
-15.25716
 20
0.83669
 30
0.0
 10
-14.86373
 20
0.62684
 30
0.0
 10
-14.86373
 20
0.62684
 30
0.0
 10
-14.36877
 20
0.36283
 30
0.0
 10
-13.90776
 20
0.05343
 30
0.0
 10
-13.44674
 20
-0.25597
 30
0.0
  0
SPLINE
  5
A6
330
1F
100
AcDbEntity
  8
layer 1
 62
     3
370
     9
100
AcDbSpline
210
0.0
220
0.0
230
1.0
 70
     8
 71
     3
 72
    16
 73
    12
 74
     0
 42
0.000000001
 43
0.0000000001
 40
0.0
 40
0.0
 40
0.0
 40
0.0
 40
0.25
 40
0.25
 40
0.25
 40
0.25
 40
0.5
 40
0.5
 40
0.5
 40
0.5
 40
1.0
 40
1.0
 40
1.0
 40
1.0
 10
-13.44674
 20
-0.25597
 30
0.0
 10
-13.32208
 20
-0.54134
 30
0.0
 10
-13.19742
 20
-0.82671
 30
0.0
 10
-13.24743
 20
-1.1362
 30
0.0
 10
-13.24743
 20
-1.1362
 30
0.0
 10
-13.27529
 20
-1.30857
 30
0.0
 10
-13.35733
 20
-1.48843
 30
0.0
 10
-13.48577
 20
-1.57879
 30
0.0
 10
-13.48577
 20
-1.57879
 30
0.0
 10
-13.64492
 20
-1.69075
 30
0.0
 10
-13.87531
 20
-1.66526
 30
0.0
 10
-14.1057
 20
-1.63978
 30
0.0
  0
SPLINE
  5
A7
330
1F
100
AcDbEntity
  8
layer 1
 62
     3
370
     9
100
AcDbSpline
210
0.0
220
0.0
230
1.0
 70
     8
 71
     3
 72
    16
 73
    12
 74
     0
 42
0.000000001
 43
0.0000000001
 40
0.0
 40
0.0
 40
0.0
 40
0.0
 40
0.25
 40
0.25
 40
0.25
 40
0.25
 40
0.5
 40
0.5
 40
0.5
 40
0.5
 40
1.0
 40
1.0
 40
1.0
 40
1.0
 10
-13.41409
 20
1.42518
 30
0.0
 10
-12.64046
 20
-0.58284
 30
0.0
 10
-11.86683
 20
-2.59087
 30
0.0
 10
-11.62764
 20
-4.69201
 30
0.0
 10
-11.62764
 20
-4.69201
 30
0.0
 10
-11.42284
 20
-6.49098
 30
0.0
 10
-11.60983
 20
-8.35822
 30
0.0
 10
-12.05523
 20
-10.13147
 30
0.0
 10
-12.05523
 20
-10.13147
 30
0.0
 10
-12.47551
 20
-11.80466
 30
0.0
 10
-13.12586
 20
-13.39416
 30
0.0
 10
-13.77622
 20
-14.98367
 30
0.0
  0
SPLINE
  5
A8
330
1F
100
AcDbEntity
  8
layer 1
 62
     3
370
     9
100
AcDbSpline
210
0.0
220
0.0
230
1.0
 70
     8
 71
     3
 72
    16
 73
    12
 74
     0
 42
0.000000001
 43
0.0000000001
 40
0.0
 40
0.0
 40
0.0
 40
0.0
 40
0.25
 40
0.25
 40
0.25
 40
0.25
 40
0.5
 40
0.5
 40
0.5
 40
0.5
 40
1.0
 40
1.0
 40
1.0
 40
1.0
 10
-20.86002
 20
-2.52937
 30
0.0
 10
-20.99203
 20
-2.93375
 30
0.0
 10
-21.12405
 20
-3.33813
 30
0.0
 10
-21.30144
 20
-3.72926
 30
0.0
 10
-21.30144
 20
-3.72926
 30
0.0
 10
-21.4754
 20
-4.11283
 30
0.0
 10
-21.69298
 20
-4.48365
 30
0.0
 10
-21.79916
 20
-4.88003
 30
0.0
 10
-21.79916
 20
-4.88003
 30
0.0
 10
-21.93219
 20
-5.37666
 30
0.0
 10
-21.89032
 20
-5.91342
 30
0.0
 10
-21.84845
 20
-6.45017
 30
0.0
  0
SPLINE
  5
A9
330
1F
100
AcDbEntity
  8
layer 1
 62
     3
370
     9
100
AcDbSpline
210
0.0
220
0.0
230
1.0
 70
     8
 71
     3
 72
    16
 73
    12
 74
     0
 42
0.000000001
 43
0.0000000001
 40
0.0
 40
0.0
 40
0.0
 40
0.0
 40
0.25
 40
0.25
 40
0.25
 40
0.25
 40
0.5
 40
0.5
 40
0.5
 40
0.5
 40
1.0
 40
1.0
 40
1.0
 40
1.0
 10
-23.89177
 20
-11.19298
 30
0.0
 10
-23.42257
 20
-12.40684
 30
0.0
 10
-22.95337
 20
-13.6207
 30
0.0
 10
-22.22503
 20
-14.74661
 30
0.0
 10
-22.22503
 20
-14.74661
 30
0.0
 10
-21.53756
 20
-15.80935
 30
0.0
 10
-20.61922
 20
-16.79374
 30
0.0
 10
-19.51105
 20
-17.26856
 30
0.0
 10
-19.51105
 20
-17.26856
 30
0.0
 10
-18.4963
 20
-17.70335
 30
0.0
 10
-17.32239
 20
-17.71085
 30
0.0
 10
-16.14847
 20
-17.71835
 30
0.0
  0
SPLINE
  5
AA
330
1F
100
AcDbEntity
  8
layer 1
 62
     3
370
     9
100
AcDbSpline
210
0.0
220
0.0
230
1.0
 70
     8
 71
     3
 72
    16
 73
    12
 74
     0
 42
0.000000001
 43
0.0000000001
 40
0.0
 40
0.0
 40
0.0
 40
0.0
 40
0.25
 40
0.25
 40
0.25
 40
0.25
 40
0.5
 40
0.5
 40
0.5
 40
0.5
 40
1.0
 40
1.0
 40
1.0
 40
1.0
 10
-9.79842
 20
-1.64874
 30
0.0
 10
-9.60454
 20
-3.47884
 30
0.0
 10
-9.41065
 20
-5.30895
 30
0.0
 10
-9.5277
 20
-7.14297
 30
0.0
 10
-9.5277
 20
-7.14297
 30
0.0
 10
-9.63905
 20
-8.88751
 30
0.0
 10
-10.03174
 20
-10.6356
 30
0.0
 10
-10.72149
 20
-12.23749
 30
0.0
 10
-10.72149
 20
-12.23749
 30
0.0
 10
-11.28053
 20
-13.5358
 30
0.0
 10
-12.0347
 20
-14.73807
 30
0.0
 10
-12.78888
 20
-15.94034
 30
0.0
  0
SPLINE
  5
AB
330
1F
100
AcDbEntity
  8
layer 1
 62
     3
370
     9
100
AcDbSpline
210
0.0
220
0.0
230
1.0
 70
     8
 71
     3
 72
    16
 73
    12
 74
     0
 42
0.000000001
 43
0.0000000001
 40
0.0
 40
0.0
 40
0.0
 40
0.0
 40
0.25
 40
0.25
 40
0.25
 40
0.25
 40
0.5
 40
0.5
 40
0.5
 40
0.5
 40
1.0
 40
1.0
 40
1.0
 40
1.0
 10
-14.00618
 20
-15.44435
 30
0.0
 10
-14.34533
 20
-15.79833
 30
0.0
 10
-14.68448
 20
-16.15231
 30
0.0
 10
-15.00414
 20
-16.52568
 30
0.0
 10
-15.00414
 20
-16.52568
 30
0.0
 10
-15.32626
 20
-16.90192
 30
0.0
 10
-15.6286
 20
-17.29785
 30
0.0
 10
-15.87703
 20
-17.7243
 30
0.0
 10
-15.87703
 20
-17.7243
 30
0.0
 10
-16.07916
 20
-18.07127
 30
0.0
 10
-16.24561
 20
-18.43845
 30
0.0
 10
-16.41205
 20
-18.80563
 30
0.0
  0
SPLINE
  5
AC
330
1F
100
AcDbEntity
  8
layer 1
 62
     3
370
     9
100
AcDbSpline
210
0.0
220
0.0
230
1.0
 70
     8
 71
     3
 72
    16
 73
    12
 74
     0
 42
0.000000001
 43
0.0000000001
 40
0.0
 40
0.0
 40
0.0
 40
0.0
 40
0.25
 40
0.25
 40
0.25
 40
0.25
 40
0.5
 40
0.5
 40
0.5
 40
0.5
 40
1.0
 40
1.0
 40
1.0
 40
1.0
 10
-16.41205
 20
-18.80563
 30
0.0
 10
-16.64296
 20
-18.92218
 30
0.0
 10
-16.87386
 20
-19.03874
 30
0.0
 10
-17.15467
 20
-19.09395
 30
0.0
 10
-17.15467
 20
-19.09395
 30
0.0
 10
-17.43245
 20
-19.14857
 30
0.0
 10
-17.75906
 20
-19.14317
 30
0.0
 10
-17.91097
 20
-19.31538
 30
0.0
 10
-17.91097
 20
-19.31538
 30
0.0
 10
-18.0137
 20
-19.43184
 30
0.0
 10
-18.03653
 20
-19.62955
 30
0.0
 10
-18.05936
 20
-19.82726
 30
0.0
  0
SPLINE
  5
AD
330
1F
100
AcDbEntity
  8
layer 1
 62
     3
370
     9
100
AcDbSpline
210
0.0
220
0.0
230
1.0
 70
     8
 71
     3
 72
    16
 73
    12
 74
     0
 42
0.000000001
 43
0.0000000001
 40
0.0
 40
0.0
 40
0.0
 40
0.0
 40
0.25
 40
0.25
 40
0.25
 40
0.25
 40
0.5
 40
0.5
 40
0.5
 40
0.5
 40
1.0
 40
1.0
 40
1.0
 40
1.0
 10
-13.1497
 20
-16.36731
 30
0.0
 10
-13.59902
 20
-17.09458
 30
0.0
 10
-14.04834
 20
-17.82184
 30
0.0
 10
-14.61226
 20
-18.50692
 30
0.0
 10
-14.61226
 20
-18.50692
 30
0.0
 10
-14.99407
 20
-18.97076
 30
0.0
 10
-15.42843
 20
-19.41527
 30
0.0
 10
-15.94838
 20
-19.64445
 30
0.0
 10
-15.94838
 20
-19.64445
 30
0.0
 10
-16.49106
 20
-19.88364
 30
0.0
 10
-17.12699
 20
-19.88828
 30
0.0
 10
-17.76291
 20
-19.89291
 30
0.0
  0
SPLINE
  5
AE
330
1F
100
AcDbEntity
  8
layer 1
 62
     3
370
     9
100
AcDbSpline
210
0.0
220
0.0
230
1.0
 70
     8
 71
     3
 72
    16
 73
    12
 74
     0
 42
0.000000001
 43
0.0000000001
 40
0.0
 40
0.0
 40
0.0
 40
0.0
 40
0.25
 40
0.25
 40
0.25
 40
0.25
 40
0.5
 40
0.5
 40
0.5
 40
0.5
 40
1.0
 40
1.0
 40
1.0
 40
1.0
 10
-18.81725
 20
-0.71724
 30
0.0
 10
-18.44083
 20
-0.97835
 30
0.0
 10
-18.06441
 20
-1.23947
 30
0.0
 10
-17.66473
 20
-1.48235
 30
0.0
 10
-17.66473
 20
-1.48235
 30
0.0
 10
-17.26443
 20
-1.72561
 30
0.0
 10
-16.8408
 20
-1.95057
 30
0.0
 10
-16.39463
 20
-2.03594
 30
0.0
 10
-16.39463
 20
-2.03594
 30
0.0
 10
-15.93326
 20
-2.1242
 30
0.0
 10
-15.4478
 20
-2.0632
 30
0.0
 10
-14.96234
 20
-2.0022
 30
0.0
  0
SPLINE
  5
AF
330
1F
100
AcDbEntity
  8
layer 1
 62
     3
370
     9
100
AcDbSpline
210
0.0
220
0.0
230
1.0
 70
     8
 71
     3
 72
    16
 73
    12
 74
     0
 42
0.000000001
 43
0.0000000001
 40
0.0
 40
0.0
 40
0.0
 40
0.0
 40
0.25
 40
0.25
 40
0.25
 40
0.25
 40
0.5
 40
0.5
 40
0.5
 40
0.5
 40
1.0
 40
1.0
 40
1.0
 40
1.0
 10
-14.96234
 20
-2.0022
 30
0.0
 10
-14.79095
 20
-1.99425
 30
0.0
 10
-14.61957
 20
-1.98629
 30
0.0
 10
-14.44547
 20
-1.97361
 30
0.0
 10
-14.44547
 20
-1.97361
 30
0.0
 10
-14.31219
 20
-1.9639
 30
0.0
 10
-14.17732
 20
-1.95143
 30
0.0
 10
-14.05487
 20
-1.9066
 30
0.0
 10
-14.05487
 20
-1.9066
 30
0.0
 10
-13.93164
 20
-1.86147
 30
0.0
 10
-13.82098
 20
-1.78357
 30
0.0
 10
-13.71032
 20
-1.70567
 30
0.0
  0
SPLINE
  5
B0
330
1F
100
AcDbEntity
  8
layer 1
 62
     3
370
     9
100
AcDbSpline
210
0.0
220
0.0
230
1.0
 70
    24
 71
     3
 72
     8
 73
     4
 74
     0
 42
0.000000001
 43
0.0000000001
 40
0.0
 40
0.0
 40
0.0
 40
0.0
 40
1.0
 40
1.0
 40
1.0
 40
1.0
 10
13.1287
 20
11.14597
 30
0.0
 10
13.1287
 20
11.14597
 30
0.0
 10
13.1287
 20
9.76862
 30
0.0
 10
13.1287
 20
9.76862
 30
0.0
  0
SPLINE
  5
B1
330
1F
100
AcDbEntity
  8
layer 1
 62
     3
370
     9
100
AcDbSpline
210
0.0
220
0.0
230
1.0
 70
    11
 71
     3
 72
    52
 73
    48
 74
     0
 42
0.000000001
 43
0.0000000001
 40
0.0
 40
0.0
 40
0.0
 40
0.0
 40
0.0769230769230769
 40
0.0769230769230769
 40
0.0769230769230769
 40
0.0769230769230769
 40
0.1538461538461539
 40
0.1538461538461539
 40
0.1538461538461539
 40
0.1538461538461539
 40
0.2307692307692308
 40
0.2307692307692308
 40
0.2307692307692308
 40
0.2307692307692308
 40
0.3076923076923077
 40
0.3076923076923077
 40
0.3076923076923077
 40
0.3076923076923077
 40
0.3846153846153846
 40
0.3846153846153846
 40
0.3846153846153846
 40
0.3846153846153846
 40
0.4615384615384616
 40
0.4615384615384616
 40
0.4615384615384616
 40
0.4615384615384616
 40
0.5384615384615384
 40
0.5384615384615384
 40
0.5384615384615384
 40
0.5384615384615384
 40
0.6153846153846154
 40
0.6153846153846154
 40
0.6153846153846154
 40
0.6153846153846154
 40
0.6923076923076923
 40
0.6923076923076923
 40
0.6923076923076923
 40
0.6923076923076923
 40
0.7692307692307693
 40
0.7692307692307693
 40
0.7692307692307693
 40
0.7692307692307693
 40
0.8461538461538461
 40
0.8461538461538461
 40
0.8461538461538461
 40
0.8461538461538461
 40
1.0
 40
1.0
 40
1.0
 40
1.0
 10
-15.01176
 20
0.04056
 30
0.0
 10
-14.98523
 20
0.04601
 30
0.0
 10
-14.9587
 20
0.05146
 30
0.0
 10
-14.93693
 20
0.0653
 30
0.0
 10
-14.93693
 20
0.0653
 30
0.0
 10
-14.91373
 20
0.08005
 30
0.0
 10
-14.89594
 20
0.10432
 30
0.0
 10
-14.88374
 20
0.13031
 30
0.0
 10
-14.88374
 20
0.13031
 30
0.0
 10
-14.87014
 20
0.15929
 30
0.0
 10
-14.8635
 20
0.19042
 30
0.0
 10
-14.8635
 20
0.22177
 30
0.0
 10
-14.8635
 20
0.22177
 30
0.0
 10
-14.8635
 20
0.25313
 30
0.0
 10
-14.87014
 20
0.28472
 30
0.0
 10
-14.88374
 20
0.31323
 30
0.0
 10
-14.88374
 20
0.31323
 30
0.0
 10
-14.89594
 20
0.3388
 30
0.0
 10
-14.91373
 20
0.3619
 30
0.0
 10
-14.93693
 20
0.37824
 30
0.0
 10
-14.93693
 20
0.37824
 30
0.0
 10
-14.9587
 20
0.39358
 30
0.0
 10
-14.98523
 20
0.40299
 30
0.0
 10
-15.01176
 20
0.40299
 30
0.0
 10
-15.01176
 20
0.40299
 30
0.0
 10
-15.03829
 20
0.40299
 30
0.0
 10
-15.06483
 20
0.39358
 30
0.0
 10
-15.0866
 20
0.37824
 30
0.0
 10
-15.0866
 20
0.37824
 30
0.0
 10
-15.1098
 20
0.3619
 30
0.0
 10
-15.12759
 20
0.3388
 30
0.0
 10
-15.13979
 20
0.31323
 30
0.0
 10
-15.13979
 20
0.31323
 30
0.0
 10
-15.15339
 20
0.28472
 30
0.0
 10
-15.16003
 20
0.25313
 30
0.0
 10
-15.16003
 20
0.22177
 30
0.0
 10
-15.16003
 20
0.22177
 30
0.0
 10
-15.16003
 20
0.19042
 30
0.0
 10
-15.15339
 20
0.15929
 30
0.0
 10
-15.13979
 20
0.13031
 30
0.0
 10
-15.13979
 20
0.13031
 30
0.0
 10
-15.12759
 20
0.10432
 30
0.0
 10
-15.1098
 20
0.08005
 30
0.0
 10
-15.0866
 20
0.0653
 30
0.0
 10
-15.0866
 20
0.0653
 30
0.0
 10
-15.06483
 20
0.05146
 30
0.0
 10
-15.03829
 20
0.04601
 30
0.0
 10
-15.01176
 20
0.04056
 30
0.0
  0
SPLINE
  5
B2
330
1F
100
AcDbEntity
  8
layer 1
 62
     3
370
     9
100
AcDbSpline
210
0.0
220
0.0
230
1.0
 70
    27
 71
     3
 72
    12
 73
     8
 74
     0
 42
0.000000001
 43
0.0000000001
 40
0.0
 40
0.0
 40
0.0
 40
0.0
 40
0.3333333333333333
 40
0.3333333333333333
 40
0.3333333333333333
 40
0.3333333333333333
 40
1.0
 40
1.0
 40
1.0
 40
1.0
 10
-15.01176
 20
0.04056
 30
0.0
 10
-15.01176
 20
0.04056
 30
0.0
 10
-15.01176
 20
0.04056
 30
0.0
 10
-15.01176
 20
0.04056
 30
0.0
 10
-15.01176
 20
0.04056
 30
0.0
 10
-15.01176
 20
0.04056
 30
0.0
 10
-15.01176
 20
0.04056
 30
0.0
 10
-15.01176
 20
0.04056
 30
0.0
  0
SPLINE
  5
B3
330
1F
100
AcDbEntity
  8
layer 1
 62
     3
370
     9
100
AcDbSpline
210
0.0
220
0.0
230
1.0
 70
    11
 71
     3
 72
    52
 73
    48
 74
     0
 42
0.000000001
 43
0.0000000001
 40
0.0
 40
0.0
 40
0.0
 40
0.0
 40
0.0769230769230769
 40
0.0769230769230769
 40
0.0769230769230769
 40
0.0769230769230769
 40
0.1538461538461539
 40
0.1538461538461539
 40
0.1538461538461539
 40
0.1538461538461539
 40
0.2307692307692308
 40
0.2307692307692308
 40
0.2307692307692308
 40
0.2307692307692308
 40
0.3076923076923077
 40
0.3076923076923077
 40
0.3076923076923077
 40
0.3076923076923077
 40
0.3846153846153846
 40
0.3846153846153846
 40
0.3846153846153846
 40
0.3846153846153846
 40
0.4615384615384616
 40
0.4615384615384616
 40
0.4615384615384616
 40
0.4615384615384616
 40
0.5384615384615384
 40
0.5384615384615384
 40
0.5384615384615384
 40
0.5384615384615384
 40
0.6153846153846154
 40
0.6153846153846154
 40
0.6153846153846154
 40
0.6153846153846154
 40
0.6923076923076923
 40
0.6923076923076923
 40
0.6923076923076923
 40
0.6923076923076923
 40
0.7692307692307693
 40
0.7692307692307693
 40
0.7692307692307693
 40
0.7692307692307693
 40
0.8461538461538461
 40
0.8461538461538461
 40
0.8461538461538461
 40
0.8461538461538461
 40
1.0
 40
1.0
 40
1.0
 40
1.0
 10
-15.12706
 20
-1.68924
 30
0.0
 10
-15.10053
 20
-1.68379
 30
0.0
 10
-15.074
 20
-1.67834
 30
0.0
 10
-15.05223
 20
-1.6645
 30
0.0
 10
-15.05223
 20
-1.6645
 30
0.0
 10
-15.02902
 20
-1.64976
 30
0.0
 10
-15.01123
 20
-1.62548
 30
0.0
 10
-14.99904
 20
-1.59949
 30
0.0
 10
-14.99904
 20
-1.59949
 30
0.0
 10
-14.98543
 20
-1.57051
 30
0.0
 10
-14.97879
 20
-1.53939
 30
0.0
 10
-14.97879
 20
-1.50803
 30
0.0
 10
-14.97879
 20
-1.50803
 30
0.0
 10
-14.97879
 20
-1.47667
 30
0.0
 10
-14.98543
 20
-1.44508
 30
0.0
 10
-14.99904
 20
-1.41657
 30
0.0
 10
-14.99904
 20
-1.41657
 30
0.0
 10
-15.01123
 20
-1.391
 30
0.0
 10
-15.02902
 20
-1.36791
 30
0.0
 10
-15.05223
 20
-1.35156
 30
0.0
 10
-15.05223
 20
-1.35156
 30
0.0
 10
-15.074
 20
-1.33622
 30
0.0
 10
-15.10053
 20
-1.32682
 30
0.0
 10
-15.12706
 20
-1.32682
 30
0.0
 10
-15.12706
 20
-1.32682
 30
0.0
 10
-15.15359
 20
-1.32682
 30
0.0
 10
-15.18012
 20
-1.33622
 30
0.0
 10
-15.20189
 20
-1.35156
 30
0.0
 10
-15.20189
 20
-1.35156
 30
0.0
 10
-15.22509
 20
-1.36791
 30
0.0
 10
-15.24288
 20
-1.391
 30
0.0
 10
-15.25508
 20
-1.41657
 30
0.0
 10
-15.25508
 20
-1.41657
 30
0.0
 10
-15.26868
 20
-1.44508
 30
0.0
 10
-15.27532
 20
-1.47667
 30
0.0
 10
-15.27532
 20
-1.50803
 30
0.0
 10
-15.27532
 20
-1.50803
 30
0.0
 10
-15.27532
 20
-1.53939
 30
0.0
 10
-15.26868
 20
-1.57051
 30
0.0
 10
-15.25508
 20
-1.59949
 30
0.0
 10
-15.25508
 20
-1.59949
 30
0.0
 10
-15.24288
 20
-1.62548
 30
0.0
 10
-15.22509
 20
-1.64976
 30
0.0
 10
-15.20189
 20
-1.6645
 30
0.0
 10
-15.20189
 20
-1.6645
 30
0.0
 10
-15.18012
 20
-1.67834
 30
0.0
 10
-15.15359
 20
-1.68379
 30
0.0
 10
-15.12706
 20
-1.68924
 30
0.0
  0
SPLINE
  5
B4
330
1F
100
AcDbEntity
  8
layer 1
 62
     3
370
     9
100
AcDbSpline
210
0.0
220
0.0
230
1.0
 70
     8
 71
     3
 72
    16
 73
    12
 74
     0
 42
0.000000001
 43
0.0000000001
 40
0.0
 40
0.0
 40
0.0
 40
0.0
 40
0.25
 40
0.25
 40
0.25
 40
0.25
 40
0.5
 40
0.5
 40
0.5
 40
0.5
 40
1.0
 40
1.0
 40
1.0
 40
1.0
 10
-14.69876
 20
4.35674
 30
0.0
 10
-14.48787
 20
4.66005
 30
0.0
 10
-14.27699
 20
4.96337
 30
0.0
 10
-13.96003
 20
5.10587
 30
0.0
 10
-13.96003
 20
5.10587
 30
0.0
 10
-13.72741
 20
5.21046
 30
0.0
 10
-13.43766
 20
5.22843
 30
0.0
 10
-13.18962
 20
5.15794
 30
0.0
 10
-13.18962
 20
5.15794
 30
0.0
 10
-12.88076
 20
5.07017
 30
0.0
 10
-12.63658
 20
4.84525
 30
0.0
 10
-12.39241
 20
4.62032
 30
0.0
  0
SPLINE
  5
B5
330
1F
100
AcDbEntity
  8
layer 1
 62
     3
370
     9
100
AcDbSpline
210
0.0
220
0.0
230
1.0
 70
     8
 71
     3
 72
    16
 73
    12
 74
     0
 42
0.000000001
 43
0.0000000001
 40
0.0
 40
0.0
 40
0.0
 40
0.0
 40
0.25
 40
0.25
 40
0.25
 40
0.25
 40
0.5
 40
0.5
 40
0.5
 40
0.5
 40
1.0
 40
1.0
 40
1.0
 40
1.0
 10
-11.96409
 20
3.79662
 30
0.0
 10
-12.00538
 20
3.71223
 30
0.0
 10
-12.04667
 20
3.62784
 30
0.0
 10
-12.08489
 20
3.542
 30
0.0
 10
-12.08489
 20
3.542
 30
0.0
 10
-12.12984
 20
3.44107
 30
0.0
 10
-12.17056
 20
3.33812
 30
0.0
 10
-12.2057
 20
3.23343
 30
0.0
 10
-12.2057
 20
3.23343
 30
0.0
 10
-12.25259
 20
3.09376
 30
0.0
 10
-12.28955
 20
2.95097
 30
0.0
 10
-12.32651
 20
2.80819
 30
0.0
  0
SPLINE
  5
B6
330
1F
100
AcDbEntity
  8
layer 1
 62
     3
370
     9
100
AcDbSpline
210
0.0
220
0.0
230
1.0
 70
     8
 71
     3
 72
    16
 73
    12
 74
     0
 42
0.000000001
 43
0.0000000001
 40
0.0
 40
0.0
 40
0.0
 40
0.0
 40
0.25
 40
0.25
 40
0.25
 40
0.25
 40
0.5
 40
0.5
 40
0.5
 40
0.5
 40
1.0
 40
1.0
 40
1.0
 40
1.0
 10
-12.32651
 20
2.80819
 30
0.0
 10
-12.50797
 20
2.85784
 30
0.0
 10
-12.68943
 20
2.90749
 30
0.0
 10
-12.87564
 20
2.94997
 30
0.0
 10
-12.87564
 20
2.94997
 30
0.0
 10
-13.05714
 20
2.99136
 30
0.0
 10
-13.24316
 20
3.02594
 30
0.0
 10
-13.42478
 20
3.01311
 30
0.0
 10
-13.42478
 20
3.01311
 30
0.0
 10
-13.6109
 20
2.99996
 30
0.0
 10
-13.7924
 20
2.93702
 30
0.0
 10
-13.97391
 20
2.87408
 30
0.0
  0
SPLINE
  5
B7
330
1F
100
AcDbEntity
  8
layer 1
 62
     3
370
     9
100
AcDbSpline
210
0.0
220
0.0
230
1.0
 70
     8
 71
     3
 72
    28
 73
    24
 74
     0
 42
0.000000001
 43
0.0000000001
 40
0.0
 40
0.0
 40
0.0
 40
0.0
 40
0.1428571428571428
 40
0.1428571428571428
 40
0.1428571428571428
 40
0.1428571428571428
 40
0.2857142857142857
 40
0.2857142857142857
 40
0.2857142857142857
 40
0.2857142857142857
 40
0.4285714285714285
 40
0.4285714285714285
 40
0.4285714285714285
 40
0.4285714285714285
 40
0.5714285714285714
 40
0.5714285714285714
 40
0.5714285714285714
 40
0.5714285714285714
 40
0.7142857142857143
 40
0.7142857142857143
 40
0.7142857142857143
 40
0.7142857142857143
 40
1.0
 40
1.0
 40
1.0
 40
1.0
 10
-12.55715
 20
-0.35481
 30
0.0
 10
-12.47751
 20
-0.32696
 30
0.0
 10
-12.39787
 20
-0.29911
 30
0.0
 10
-12.31801
 20
-0.27406
 30
0.0
 10
-12.31801
 20
-0.27406
 30
0.0
 10
-12.15016
 20
-0.22139
 30
0.0
 10
-11.98135
 20
-0.18106
 30
0.0
 10
-11.80064
 20
-0.15669
 30
0.0
 10
-11.80064
 20
-0.15669
 30
0.0
 10
-11.63147
 20
-0.13389
 30
0.0
 10
-11.45187
 20
-0.12508
 30
0.0
 10
-11.30513
 20
-0.19007
 30
0.0
 10
-11.30513
 20
-0.19007
 30
0.0
 10
-11.15645
 20
-0.25592
 30
0.0
 10
-11.0415
 20
-0.39752
 30
0.0
 10
-10.94404
 20
-0.54051
 30
0.0
 10
-10.94404
 20
-0.54051
 30
0.0
 10
-10.83993
 20
-0.69324
 30
0.0
 10
-10.75578
 20
-0.84756
 30
0.0
 10
-10.68162
 20
-1.0096
 30
0.0
 10
-10.68162
 20
-1.0096
 30
0.0
 10
-10.64633
 20
-1.0867
 30
0.0
 10
-10.6133
 20
-1.16555
 30
0.0
 10
-10.58027
 20
-1.2444
 30
0.0
  0
SPLINE
  5
B8
330
1F
100
AcDbEntity
  8
layer 1
 62
     3
370
     9
100
AcDbSpline
210
0.0
220
0.0
230
1.0
 70
     8
 71
     3
 72
    28
 73
    24
 74
     0
 42
0.000000001
 43
0.0000000001
 40
0.0
 40
0.0
 40
0.0
 40
0.0
 40
0.1428571428571428
 40
0.1428571428571428
 40
0.1428571428571428
 40
0.1428571428571428
 40
0.2857142857142857
 40
0.2857142857142857
 40
0.2857142857142857
 40
0.2857142857142857
 40
0.4285714285714285
 40
0.4285714285714285
 40
0.4285714285714285
 40
0.4285714285714285
 40
0.5714285714285714
 40
0.5714285714285714
 40
0.5714285714285714
 40
0.5714285714285714
 40
0.7142857142857143
 40
0.7142857142857143
 40
0.7142857142857143
 40
0.7142857142857143
 40
1.0
 40
1.0
 40
1.0
 40
1.0
 10
-10.58027
 20
-2.56232
 30
0.0
 10
-10.54438
 20
-2.61798
 30
0.0
 10
-10.50848
 20
-2.67364
 30
0.0
 10
-10.47554
 20
-2.72968
 30
0.0
 10
-10.47554
 20
-2.72968
 30
0.0
 10
-10.40672
 20
-2.84674
 30
0.0
 10
-10.3508
 20
-2.96544
 30
0.0
 10
-10.30037
 20
-3.10309
 30
0.0
 10
-10.30037
 20
-3.10309
 30
0.0
 10
-10.2529
 20
-3.23265
 30
0.0
 10
-10.21029
 20
-3.37901
 30
0.0
 10
-10.26334
 20
-3.48955
 30
0.0
 10
-10.26334
 20
-3.48955
 30
0.0
 10
-10.30242
 20
-3.57098
 30
0.0
 10
-10.39342
 20
-3.63298
 30
0.0
 10
-10.48668
 20
-3.6682
 30
0.0
 10
-10.48668
 20
-3.6682
 30
0.0
 10
-10.63123
 20
-3.72278
 30
0.0
 10
-10.78121
 20
-3.71301
 30
0.0
 10
-10.9248
 20
-3.73565
 30
0.0
 10
-10.9248
 20
-3.73565
 30
0.0
 10
-11.13783
 20
-3.76924
 30
0.0
 10
-11.3368
 20
-3.87416
 30
0.0
 10
-11.53576
 20
-3.97908
 30
0.0
  0
SPLINE
  5
B9
330
1F
100
AcDbEntity
  8
layer 1
 62
     3
370
     9
100
AcDbSpline
210
0.0
220
0.0
230
1.0
 70
     8
 71
     3
 72
    28
 73
    24
 74
     0
 42
0.000000001
 43
0.0000000001
 40
0.0
 40
0.0
 40
0.0
 40
0.0
 40
0.1428571428571428
 40
0.1428571428571428
 40
0.1428571428571428
 40
0.1428571428571428
 40
0.2857142857142857
 40
0.2857142857142857
 40
0.2857142857142857
 40
0.2857142857142857
 40
0.4285714285714285
 40
0.4285714285714285
 40
0.4285714285714285
 40
0.4285714285714285
 40
0.5714285714285714
 40
0.5714285714285714
 40
0.5714285714285714
 40
0.5714285714285714
 40
0.7142857142857143
 40
0.7142857142857143
 40
0.7142857142857143
 40
0.7142857142857143
 40
1.0
 40
1.0
 40
1.0
 40
1.0
 10
-11.31679
 20
-6.17619
 30
0.0
 10
-11.23375
 20
-6.17557
 30
0.0
 10
-11.15071
 20
-6.17494
 30
0.0
 10
-11.06828
 20
-6.17662
 30
0.0
 10
-11.06828
 20
-6.17662
 30
0.0
 10
-10.90029
 20
-6.18004
 30
0.0
 10
-10.73482
 20
-6.19303
 30
0.0
 10
-10.56588
 20
-6.24052
 30
0.0
 10
-10.56588
 20
-6.24052
 30
0.0
 10
-10.41582
 20
-6.28269
 30
0.0
 10
-10.26302
 20
-6.35207
 30
0.0
 10
-10.17426
 20
-6.46183
 30
0.0
 10
-10.17426
 20
-6.46183
 30
0.0
 10
-10.02798
 20
-6.64269
 30
0.0
 10
-10.0556
 20
-6.93319
 30
0.0
 10
-10.0824
 20
-7.1974
 30
0.0
 10
-10.0824
 20
-7.1974
 30
0.0
 10
-10.11583
 20
-7.52685
 30
0.0
 10
-10.14798
 20
-7.81543
 30
0.0
 10
-10.20314
 20
-8.11383
 30
0.0
 10
-10.20314
 20
-8.11383
 30
0.0
 10
-10.23053
 20
-8.26203
 30
0.0
 10
-10.2636
 20
-8.41265
 30
0.0
 10
-10.29667
 20
-8.56327
 30
0.0
  0
SPLINE
  5
BA
330
1F
100
AcDbEntity
  8
layer 1
 62
     3
370
     9
100
AcDbSpline
210
0.0
220
0.0
230
1.0
 70
     8
 71
     3
 72
    16
 73
    12
 74
     0
 42
0.000000001
 43
0.0000000001
 40
0.0
 40
0.0
 40
0.0
 40
0.0
 40
0.25
 40
0.25
 40
0.25
 40
0.25
 40
0.5
 40
0.5
 40
0.5
 40
0.5
 40
1.0
 40
1.0
 40
1.0
 40
1.0
 10
-11.54121
 20
-8.97132
 30
0.0
 10
-11.40917
 20
-9.0338
 30
0.0
 10
-11.27712
 20
-9.09629
 30
0.0
 10
-11.13997
 20
-9.1495
 30
0.0
 10
-11.13997
 20
-9.1495
 30
0.0
 10
-11.01011
 20
-9.19988
 30
0.0
 10
-10.87567
 20
-9.24194
 30
0.0
 10
-10.73872
 20
-9.25815
 30
0.0
 10
-10.73872
 20
-9.25815
 30
0.0
 10
-10.60653
 20
-9.2738
 30
0.0
 10
-10.472
 20
-9.26538
 30
0.0
 10
-10.33747
 20
-9.25695
 30
0.0
  0
SPLINE
  5
BB
330
1F
100
AcDbEntity
  8
layer 1
 62
     3
370
     9
100
AcDbSpline
210
0.0
220
0.0
230
1.0
 70
     8
 71
     3
 72
    28
 73
    24
 74
     0
 42
0.000000001
 43
0.0000000001
 40
0.0
 40
0.0
 40
0.0
 40
0.0
 40
0.1428571428571428
 40
0.1428571428571428
 40
0.1428571428571428
 40
0.1428571428571428
 40
0.2857142857142857
 40
0.2857142857142857
 40
0.2857142857142857
 40
0.2857142857142857
 40
0.4285714285714285
 40
0.4285714285714285
 40
0.4285714285714285
 40
0.4285714285714285
 40
0.5714285714285714
 40
0.5714285714285714
 40
0.5714285714285714
 40
0.5714285714285714
 40
0.7142857142857143
 40
0.7142857142857143
 40
0.7142857142857143
 40
0.7142857142857143
 40
1.0
 40
1.0
 40
1.0
 40
1.0
 10
-12.13288
 20
-11.01155
 30
0.0
 10
-12.03316
 20
-11.21337
 30
0.0
 10
-11.93343
 20
-11.41518
 30
0.0
 10
-11.77594
 20
-11.55094
 30
0.0
 10
-11.77594
 20
-11.55094
 30
0.0
 10
-11.64751
 20
-11.66164
 30
0.0
 10
-11.48068
 20
-11.72841
 30
0.0
 10
-11.33347
 20
-11.83795
 30
0.0
 10
-11.33347
 20
-11.83795
 30
0.0
 10
-11.21451
 20
-11.92647
 30
0.0
 10
-11.10836
 20
-12.04291
 30
0.0
 10
-11.07196
 20
-12.17448
 30
0.0
 10
-11.07196
 20
-12.17448
 30
0.0
 10
-11.02571
 20
-12.34169
 30
0.0
 10
-11.0921
 20
-12.53334
 30
0.0
 10
-11.1632
 20
-12.70834
 30
0.0
 10
-11.1632
 20
-12.70834
 30
0.0
 10
-11.23899
 20
-12.89487
 30
0.0
 10
-11.32014
 20
-13.06248
 30
0.0
 10
-11.41682
 20
-13.2269
 30
0.0
 10
-11.41682
 20
-13.2269
 30
0.0
 10
-11.46275
 20
-13.30503
 30
0.0
 10
-11.51218
 20
-13.38243
 30
0.0
 10
-11.56162
 20
-13.45983
 30
0.0
  0
SPLINE
  5
BC
330
1F
100
AcDbEntity
  8
layer 1
 62
     3
370
     9
100
AcDbSpline
210
0.0
220
0.0
230
1.0
 70
     8
 71
     3
 72
    16
 73
    12
 74
     0
 42
0.000000001
 43
0.0000000001
 40
0.0
 40
0.0
 40
0.0
 40
0.0
 40
0.25
 40
0.25
 40
0.25
 40
0.25
 40
0.5
 40
0.5
 40
0.5
 40
0.5
 40
1.0
 40
1.0
 40
1.0
 40
1.0
 10
-12.88777
 20
-13.27621
 30
0.0
 10
-12.77197
 20
-13.36825
 30
0.0
 10
-12.65616
 20
-13.46029
 30
0.0
 10
-12.52733
 20
-13.54721
 30
0.0
 10
-12.52733
 20
-13.54721
 30
0.0
 10
-12.41493
 20
-13.62303
 30
0.0
 10
-12.29262
 20
-13.69495
 30
0.0
 10
-12.16688
 20
-13.70481
 30
0.0
 10
-12.16688
 20
-13.70481
 30
0.0
 10
-12.04875
 20
-13.71407
 30
0.0
 10
-11.9276
 20
-13.66856
 30
0.0
 10
-11.80644
 20
-13.62305
 30
0.0
  0
SPLINE
  5
BD
330
1F
100
AcDbEntity
  8
layer 1
 62
     3
370
     9
100
AcDbSpline
210
0.0
220
0.0
230
1.0
 70
     8
 71
     3
 72
    16
 73
    12
 74
     0
 42
0.000000001
 43
0.0000000001
 40
0.0
 40
0.0
 40
0.0
 40
0.0
 40
0.25
 40
0.25
 40
0.25
 40
0.25
 40
0.5
 40
0.5
 40
0.5
 40
0.5
 40
1.0
 40
1.0
 40
1.0
 40
1.0
 10
-13.41823
 20
-14.35754
 30
0.0
 10
-13.34284
 20
-14.52767
 30
0.0
 10
-13.26745
 20
-14.6978
 30
0.0
 10
-13.18738
 20
-14.86722
 30
0.0
 10
-13.18738
 20
-14.86722
 30
0.0
 10
-13.11377
 20
-15.02295
 30
0.0
 10
-13.03621
 20
-15.17807
 30
0.0
 10
-12.9909
 20
-15.34253
 30
0.0
 10
-12.9909
 20
-15.34253
 30
0.0
 10
-12.96035
 20
-15.45342
 30
0.0
 10
-12.94446
 20
-15.56855
 30
0.0
 10
-12.92857
 20
-15.68369
 30
0.0
  0
SPLINE
  5
BE
330
1F
100
AcDbEntity
  8
layer 1
 62
     3
370
     9
100
AcDbSpline
210
0.0
220
0.0
230
1.0
 70
     8
 71
     3
 72
    16
 73
    12
 74
     0
 42
0.000000001
 43
0.0000000001
 40
0.0
 40
0.0
 40
0.0
 40
0.0
 40
0.25
 40
0.25
 40
0.25
 40
0.25
 40
0.5
 40
0.5
 40
0.5
 40
0.5
 40
1.0
 40
1.0
 40
1.0
 40
1.0
 10
-13.98949
 20
-15.62248
 30
0.0
 10
-13.91259
 20
-15.70337
 30
0.0
 10
-13.83569
 20
-15.78425
 30
0.0
 10
-13.74467
 20
-15.84546
 30
0.0
 10
-13.74467
 20
-15.84546
 30
0.0
 10
-13.66971
 20
-15.89586
 30
0.0
 10
-13.58517
 20
-15.93291
 30
0.0
 10
-13.49984
 20
-15.9656
 30
0.0
 10
-13.49984
 20
-15.9656
 30
0.0
 10
-13.41871
 20
-15.99668
 30
0.0
 10
-13.33686
 20
-16.0238
 30
0.0
 10
-13.25501
 20
-16.05093
 30
0.0
  0
SPLINE
  5
BF
330
1F
100
AcDbEntity
  8
layer 1
 62
     3
370
     9
100
AcDbSpline
210
0.0
220
0.0
230
1.0
 70
     8
 71
     3
 72
    16
 73
    12
 74
     0
 42
0.000000001
 43
0.0000000001
 40
0.0
 40
0.0
 40
0.0
 40
0.0
 40
0.25
 40
0.25
 40
0.25
 40
0.25
 40
0.5
 40
0.5
 40
0.5
 40
0.5
 40
1.0
 40
1.0
 40
1.0
 40
1.0
 10
-14.74438
 20
-16.23455
 30
0.0
 10
-14.74386
 20
-16.39651
 30
0.0
 10
-14.74333
 20
-16.55847
 30
0.0
 10
-14.70175
 20
-16.71044
 30
0.0
 10
-14.70175
 20
-16.71044
 30
0.0
 10
-14.66936
 20
-16.82885
 30
0.0
 10
-14.61205
 20
-16.94119
 30
0.0
 10
-14.56052
 20
-17.05487
 30
0.0
 10
-14.56052
 20
-17.05487
 30
0.0
 10
-14.50916
 20
-17.16819
 30
0.0
 10
-14.46355
 20
-17.28284
 30
0.0
 10
-14.41794
 20
-17.39749
 30
0.0
  0
SPLINE
  5
C0
330
1F
100
AcDbEntity
  8
layer 1
 62
     3
370
     9
100
AcDbSpline
210
0.0
220
0.0
230
1.0
 70
     8
 71
     3
 72
    16
 73
    12
 74
     0
 42
0.000000001
 43
0.0000000001
 40
0.0
 40
0.0
 40
0.0
 40
0.0
 40
0.25
 40
0.25
 40
0.25
 40
0.25
 40
0.5
 40
0.5
 40
0.5
 40
0.5
 40
1.0
 40
1.0
 40
1.0
 40
1.0
 10
-15.63636
 20
-17.45364
 30
0.0
 10
-15.46894
 20
-17.63148
 30
0.0
 10
-15.30152
 20
-17.80933
 30
0.0
 10
-15.0696
 20
-17.82502
 30
0.0
 10
-15.0696
 20
-17.82502
 30
0.0
 10
-14.96734
 20
-17.83194
 30
0.0
 10
-14.85254
 20
-17.80734
 30
0.0
 10
-14.78376
 20
-17.73807
 30
0.0
 10
-14.78376
 20
-17.73807
 30
0.0
 10
-14.75015
 20
-17.70423
 30
0.0
 10
-14.72753
 20
-17.65973
 30
0.0
 10
-14.70491
 20
-17.61522
 30
0.0
  0
SPLINE
  5
C1
330
1F
100
AcDbEntity
  8
layer 1
 62
     3
370
     9
100
AcDbSpline
210
0.0
220
0.0
230
1.0
 70
     8
 71
     3
 72
    16
 73
    12
 74
     0
 42
0.000000001
 43
0.0000000001
 40
0.0
 40
0.0
 40
0.0
 40
0.0
 40
0.25
 40
0.25
 40
0.25
 40
0.25
 40
0.5
 40
0.5
 40
0.5
 40
0.5
 40
1.0
 40
1.0
 40
1.0
 40
1.0
 10
-15.87397
 20
-17.88134
 30
0.0
 10
-15.90247
 20
-18.05253
 30
0.0
 10
-15.93097
 20
-18.22372
 30
0.0
 10
-15.89958
 20
-18.38497
 30
0.0
 10
-15.89958
 20
-18.38497
 30
0.0
 10
-15.87176
 20
-18.52792
 30
0.0
 10
-15.79686
 20
-18.66307
 30
0.0
 10
-15.73246
 20
-18.79964
 30
0.0
 10
-15.73246
 20
-18.79964
 30
0.0
 10
-15.66809
 20
-18.93613
 30
0.0
 10
-15.61421
 20
-19.07406
 30
0.0
 10
-15.56032
 20
-19.21199
 30
0.0
  0
SPLINE
  5
C2
330
1F
100
AcDbEntity
  8
layer 1
 62
     3
370
     9
100
AcDbSpline
210
0.0
220
0.0
230
1.0
 70
     8
 71
     3
 72
    16
 73
    12
 74
     0
 42
0.000000001
 43
0.0000000001
 40
0.0
 40
0.0
 40
0.0
 40
0.0
 40
0.25
 40
0.25
 40
0.25
 40
0.25
 40
0.5
 40
0.5
 40
0.5
 40
0.5
 40
1.0
 40
1.0
 40
1.0
 40
1.0
 10
-16.42524
 20
-18.84131
 30
0.0
 10
-16.40868
 20
-18.92781
 30
0.0
 10
-16.39213
 20
-19.01432
 30
0.0
 10
-16.34701
 20
-19.08875
 30
0.0
 10
-16.34701
 20
-19.08875
 30
0.0
 10
-16.31272
 20
-19.14533
 30
0.0
 10
-16.26192
 20
-19.19493
 30
0.0
 10
-16.20323
 20
-19.2238
 30
0.0
 10
-16.20323
 20
-19.2238
 30
0.0
 10
-16.14332
 20
-19.25327
 30
0.0
 10
-16.07518
 20
-19.26114
 30
0.0
 10
-16.00703
 20
-19.26901
 30
0.0
  0
SPLINE
  5
C3
330
1F
100
AcDbEntity
  8
layer 1
 62
     3
370
     9
100
AcDbSpline
210
0.0
220
0.0
230
1.0
 70
     8
 71
     3
 72
    16
 73
    12
 74
     0
 42
0.000000001
 43
0.0000000001
 40
0.0
 40
0.0
 40
0.0
 40
0.0
 40
0.25
 40
0.25
 40
0.25
 40
0.25
 40
0.5
 40
0.5
 40
0.5
 40
0.5
 40
1.0
 40
1.0
 40
1.0
 40
1.0
 10
-13.5791
 20
-2.25671
 30
0.0
 10
-13.0982
 20
-2.81888
 30
0.0
 10
-12.61731
 20
-3.38104
 30
0.0
 10
-12.70163
 20
-3.96982
 30
0.0
 10
-12.70163
 20
-3.96982
 30
0.0
 10
-12.75791
 20
-4.36285
 30
0.0
 10
-13.06607
 20
-4.76774
 30
0.0
 10
-13.42486
 20
-5.0318
 30
0.0
 10
-13.42486
 20
-5.0318
 30
0.0
 10
-14.00185
 20
-5.45643
 30
0.0
 10
-14.70981
 20
-5.51686
 30
0.0
 10
-15.41777
 20
-5.57729
 30
0.0
  0
SPLINE
  5
C4
330
1F
100
AcDbEntity
  8
layer 1
 62
     3
370
     9
100
AcDbSpline
210
0.0
220
0.0
230
1.0
 70
     8
 71
     3
 72
    16
 73
    12
 74
     0
 42
0.000000001
 43
0.0000000001
 40
0.0
 40
0.0
 40
0.0
 40
0.0
 40
0.25
 40
0.25
 40
0.25
 40
0.25
 40
0.5
 40
0.5
 40
0.5
 40
0.5
 40
1.0
 40
1.0
 40
1.0
 40
1.0
 10
-15.55498
 20
-7.03176
 30
0.0
 10
-15.41818
 20
-7.18294
 30
0.0
 10
-15.28137
 20
-7.33413
 30
0.0
 10
-15.09874
 20
-7.39978
 30
0.0
 10
-15.09874
 20
-7.39978
 30
0.0
 10
-14.96315
 20
-7.44852
 30
0.0
 10
-14.80231
 20
-7.45012
 30
0.0
 10
-14.66366
 20
-7.40789
 30
0.0
 10
-14.66366
 20
-7.40789
 30
0.0
 10
-14.44995
 20
-7.34279
 30
0.0
 10
-14.28895
 20
-7.17356
 30
0.0
 10
-14.12796
 20
-7.00432
 30
0.0
  0
SPLINE
  5
C5
330
1F
100
AcDbEntity
  8
layer 1
 62
     3
370
     9
100
AcDbSpline
210
0.0
220
0.0
230
1.0
 70
     8
 71
     3
 72
    16
 73
    12
 74
     0
 42
0.000000001
 43
0.0000000001
 40
0.0
 40
0.0
 40
0.0
 40
0.0
 40
0.25
 40
0.25
 40
0.25
 40
0.25
 40
0.5
 40
0.5
 40
0.5
 40
0.5
 40
1.0
 40
1.0
 40
1.0
 40
1.0
 10
-14.12796
 20
-7.00432
 30
0.0
 10
-13.69124
 20
-6.86029
 30
0.0
 10
-13.25453
 20
-6.71626
 30
0.0
 10
-13.00847
 20
-6.88343
 30
0.0
 10
-13.00847
 20
-6.88343
 30
0.0
 10
-12.75273
 20
-7.05717
 30
0.0
 10
-12.70295
 20
-7.5671
 30
0.0
 10
-12.68091
 20
-8.00698
 30
0.0
 10
-12.68091
 20
-8.00698
 30
0.0
 10
-12.65742
 20
-8.47594
 30
0.0
 10
-12.66545
 20
-8.86529
 30
0.0
 10
-12.67349
 20
-9.25463
 30
0.0
  0
SPLINE
  5
C6
330
1F
100
AcDbEntity
  8
layer 1
 62
     3
370
     9
100
AcDbSpline
210
0.0
220
0.0
230
1.0
 70
     8
 71
     3
 72
    16
 73
    12
 74
     0
 42
0.000000001
 43
0.0000000001
 40
0.0
 40
0.0
 40
0.0
 40
0.0
 40
0.25
 40
0.25
 40
0.25
 40
0.25
 40
0.5
 40
0.5
 40
0.5
 40
0.5
 40
1.0
 40
1.0
 40
1.0
 40
1.0
 10
-13.08513
 20
-9.63884
 30
0.0
 10
-13.26747
 20
-9.84878
 30
0.0
 10
-13.44981
 20
-10.05873
 30
0.0
 10
-13.66489
 20
-10.25461
 30
0.0
 10
-13.66489
 20
-10.25461
 30
0.0
 10
-13.88023
 20
-10.45072
 30
0.0
 10
-14.12839
 20
-10.63273
 30
0.0
 10
-14.38808
 20
-10.69509
 30
0.0
 10
-14.38808
 20
-10.69509
 30
0.0
 10
-14.82816
 20
-10.80078
 30
0.0
 10
-15.30134
 20
-10.56284
 30
0.0
 10
-15.77453
 20
-10.32491
 30
0.0
  0
SPLINE
  5
C7
330
1F
100
AcDbEntity
  8
layer 1
 62
     3
370
     9
100
AcDbSpline
210
0.0
220
0.0
230
1.0
 70
     8
 71
     3
 72
    16
 73
    12
 74
     0
 42
0.000000001
 43
0.0000000001
 40
0.0
 40
0.0
 40
0.0
 40
0.0
 40
0.25
 40
0.25
 40
0.25
 40
0.25
 40
0.5
 40
0.5
 40
0.5
 40
0.5
 40
1.0
 40
1.0
 40
1.0
 40
1.0
 10
-16.21361
 20
-11.28541
 30
0.0
 10
-16.07277
 20
-11.72609
 30
0.0
 10
-15.93192
 20
-12.16677
 30
0.0
 10
-15.63877
 20
-12.54009
 30
0.0
 10
-15.63877
 20
-12.54009
 30
0.0
 10
-15.36258
 20
-12.89181
 30
0.0
 10
-14.95119
 20
-13.18374
 30
0.0
 10
-14.81639
 20
-13.54723
 30
0.0
 10
-14.81639
 20
-13.54723
 30
0.0
 10
-14.6485
 20
-13.99995
 30
0.0
 10
-14.90964
 20
-14.56368
 30
0.0
 10
-15.17079
 20
-15.12741
 30
0.0
  0
SPLINE
  5
C8
330
1F
100
AcDbEntity
  8
layer 1
 62
     3
370
     9
100
AcDbSpline
210
0.0
220
0.0
230
1.0
 70
     8
 71
     3
 72
    16
 73
    12
 74
     0
 42
0.000000001
 43
0.0000000001
 40
0.0
 40
0.0
 40
0.0
 40
0.0
 40
0.25
 40
0.25
 40
0.25
 40
0.25
 40
0.5
 40
0.5
 40
0.5
 40
0.5
 40
1.0
 40
1.0
 40
1.0
 40
1.0
 10
-18.10717
 20
-13.70038
 30
0.0
 10
-17.99809
 20
-14.00526
 30
0.0
 10
-17.889
 20
-14.31013
 30
0.0
 10
-17.73203
 20
-14.61847
 30
0.0
 10
-17.73203
 20
-14.61847
 30
0.0
 10
-17.5906
 20
-14.89626
 30
0.0
 10
-17.4103
 20
-15.17687
 30
0.0
 10
-17.16599
 20
-15.30986
 30
0.0
 10
-17.16599
 20
-15.30986
 30
0.0
 10
-16.8604
 20
-15.47619
 30
0.0
 10
-16.45468
 20
-15.41157
 30
0.0
 10
-16.04896
 20
-15.34695
 30
0.0
  0
SPLINE
  5
C9
330
1F
100
AcDbEntity
  8
layer 1
 62
     3
370
     9
100
AcDbSpline
210
0.0
220
0.0
230
1.0
 70
     8
 71
     3
 72
    16
 73
    12
 74
     0
 42
0.000000001
 43
0.0000000001
 40
0.0
 40
0.0
 40
0.0
 40
0.0
 40
0.25
 40
0.25
 40
0.25
 40
0.25
 40
0.5
 40
0.5
 40
0.5
 40
0.5
 40
1.0
 40
1.0
 40
1.0
 40
1.0
 10
-18.79324
 20
-13.42595
 30
0.0
 10
-19.00306
 20
-13.8988
 30
0.0
 10
-19.21287
 20
-14.37165
 30
0.0
 10
-19.103
 20
-14.79651
 30
0.0
 10
-19.103
 20
-14.79651
 30
0.0
 10
-19.0293
 20
-15.08153
 30
0.0
 10
-18.81173
 20
-15.34495
 30
0.0
 10
-18.65516
 20
-15.62594
 30
0.0
 10
-18.65516
 20
-15.62594
 30
0.0
 10
-18.47132
 20
-15.95588
 30
0.0
 10
-18.37158
 20
-16.31004
 30
0.0
 10
-18.27183
 20
-16.66421
 30
0.0
  0
SPLINE
  5
CA
330
1F
100
AcDbEntity
  8
layer 1
 62
     3
370
     9
100
AcDbSpline
210
0.0
220
0.0
230
1.0
 70
     8
 71
     3
 72
    16
 73
    12
 74
     0
 42
0.000000001
 43
0.0000000001
 40
0.0
 40
0.0
 40
0.0
 40
0.0
 40
0.25
 40
0.25
 40
0.25
 40
0.25
 40
0.5
 40
0.5
 40
0.5
 40
0.5
 40
1.0
 40
1.0
 40
1.0
 40
1.0
 10
-20.00073
 20
-16.22512
 30
0.0
 10
-19.83154
 20
-16.39746
 30
0.0
 10
-19.66234
 20
-16.5698
 30
0.0
 10
-19.45442
 20
-16.68807
 30
0.0
 10
-19.45442
 20
-16.68807
 30
0.0
 10
-19.3062
 20
-16.77237
 30
0.0
 10
-19.13831
 20
-16.8292
 30
0.0
 10
-18.96908
 20
-16.84614
 30
0.0
 10
-18.96908
 20
-16.84614
 30
0.0
 10
-18.81969
 20
-16.8611
 30
0.0
 10
-18.66925
 20
-16.84498
 30
0.0
 10
-18.51881
 20
-16.82886
 30
0.0
  0
SPLINE
  5
CB
330
1F
100
AcDbEntity
  8
layer 1
 62
     3
370
     9
100
AcDbSpline
210
0.0
220
0.0
230
1.0
 70
     8
 71
     3
 72
    16
 73
    12
 74
     0
 42
0.000000001
 43
0.0000000001
 40
0.0
 40
0.0
 40
0.0
 40
0.0
 40
0.25
 40
0.25
 40
0.25
 40
0.25
 40
0.5
 40
0.5
 40
0.5
 40
0.5
 40
1.0
 40
1.0
 40
1.0
 40
1.0
 10
-20.46726
 20
-13.37107
 30
0.0
 10
-20.63208
 20
-13.69863
 30
0.0
 10
-20.79691
 20
-14.02619
 30
0.0
 10
-20.91993
 20
-14.39361
 30
0.0
 10
-20.91993
 20
-14.39361
 30
0.0
 10
-21.02375
 20
-14.70369
 30
0.0
 10
-21.09779
 20
-15.04215
 30
0.0
 10
-21.01957
 20
-15.33209
 30
0.0
 10
-21.01957
 20
-15.33209
 30
0.0
 10
-20.94014
 20
-15.62654
 30
0.0
 10
-20.7037
 20
-15.87094
 30
0.0
 10
-20.46726
 20
-16.11535
 30
0.0
  0
SPLINE
  5
CC
330
1F
100
AcDbEntity
  8
layer 1
 62
     3
370
     9
100
AcDbSpline
210
0.0
220
0.0
230
1.0
 70
     8
 71
     3
 72
    16
 73
    12
 74
     0
 42
0.000000001
 43
0.0000000001
 40
0.0
 40
0.0
 40
0.0
 40
0.0
 40
0.25
 40
0.25
 40
0.25
 40
0.25
 40
0.5
 40
0.5
 40
0.5
 40
0.5
 40
1.0
 40
1.0
 40
1.0
 40
1.0
 10
-21.12589
 20
-12.54778
 30
0.0
 10
-21.36896
 20
-12.58488
 30
0.0
 10
-21.61204
 20
-12.62198
 30
0.0
 10
-21.79466
 20
-12.75555
 30
0.0
 10
-21.79466
 20
-12.75555
 30
0.0
 10
-21.94606
 20
-12.86627
 30
0.0
 10
-22.05591
 20
-13.0433
 30
0.0
 10
-22.1374
 20
-13.22414
 30
0.0
 10
-22.1374
 20
-13.22414
 30
0.0
 10
-22.22414
 20
-13.4166
 30
0.0
 10
-22.27876
 20
-13.61338
 30
0.0
 10
-22.33337
 20
-13.81015
 30
0.0
  0
SPLINE
  5
CD
330
1F
100
AcDbEntity
  8
layer 1
 62
     3
370
     9
100
AcDbSpline
210
0.0
220
0.0
230
1.0
 70
    27
 71
     3
 72
    12
 73
     8
 74
     0
 42
0.000000001
 43
0.0000000001
 40
0.0
 40
0.0
 40
0.0
 40
0.0
 40
0.3333333333333333
 40
0.3333333333333333
 40
0.3333333333333333
 40
0.3333333333333333
 40
1.0
 40
1.0
 40
1.0
 40
1.0
 10
-15.12706
 20
-1.68924
 30
0.0
 10
-15.12706
 20
-1.68924
 30
0.0
 10
-15.12706
 20
-1.68924
 30
0.0
 10
-15.12706
 20
-1.68924
 30
0.0
 10
-15.12706
 20
-1.68924
 30
0.0
 10
-15.12706
 20
-1.68924
 30
0.0
 10
-15.12706
 20
-1.68924
 30
0.0
 10
-15.12706
 20
-1.68924
 30
0.0
  0
SPLINE
  5
CE
330
1F
100
AcDbEntity
  8
layer 1
 62
     3
370
     9
100
AcDbSpline
210
0.0
220
0.0
230
1.0
 70
     8
 71
     3
 72
    16
 73
    12
 74
     0
 42
0.000000001
 43
0.0000000001
 40
0.0
 40
0.0
 40
0.0
 40
0.0
 40
0.25
 40
0.25
 40
0.25
 40
0.25
 40
0.5
 40
0.5
 40
0.5
 40
0.5
 40
1.0
 40
1.0
 40
1.0
 40
1.0
 10
-15.66476
 20
0.46014
 30
0.0
 10
-15.48741
 20
0.21974
 30
0.0
 10
-15.31007
 20
-0.02066
 30
0.0
 10
-15.21562
 20
-0.32701
 30
0.0
 10
-15.21562
 20
-0.32701
 30
0.0
 10
-15.15661
 20
-0.51844
 30
0.0
 10
-15.12996
 20
-0.73561
 30
0.0
 10
-15.20828
 20
-0.89326
 30
0.0
 10
-15.20828
 20
-0.89326
 30
0.0
 10
-15.28469
 20
-1.04705
 30
0.0
 10
-15.461
 20
-1.14419
 30
0.0
 10
-15.63731
 20
-1.24132
 30
0.0
  0
SPLINE
  5
CF
330
1F
100
AcDbEntity
  8
layer 1
 62
     3
370
     9
100
AcDbSpline
210
0.0
220
0.0
230
1.0
 70
     8
 71
     3
 72
    16
 73
    12
 74
     0
 42
0.000000001
 43
0.0000000001
 40
0.0
 40
0.0
 40
0.0
 40
0.0
 40
0.25
 40
0.25
 40
0.25
 40
0.25
 40
0.5
 40
0.5
 40
0.5
 40
0.5
 40
1.0
 40
1.0
 40
1.0
 40
1.0
 10
-17.05653
 20
0.45032
 30
0.0
 10
-16.98333
 20
0.36197
 30
0.0
 10
-16.91013
 20
0.27361
 30
0.0
 10
-16.81896
 20
0.20647
 30
0.0
 10
-16.81896
 20
0.20647
 30
0.0
 10
-16.61345
 20
0.05513
 30
0.0
 10
-16.31664
 20
0.01162
 30
0.0
 10
-16.1397
 20
-0.15068
 30
0.0
 10
-16.1397
 20
-0.15068
 30
0.0
 10
-15.98171
 20
-0.29559
 30
0.0
 10
-15.91928
 20
-0.53519
 30
0.0
 10
-15.85686
 20
-0.77479
 30
0.0
  0
SPLINE
  5
D0
330
1F
100
AcDbEntity
  8
layer 1
 62
     3
370
     9
100
AcDbSpline
210
0.0
220
0.0
230
1.0
 70
     8
 71
     3
 72
    16
 73
    12
 74
     0
 42
0.000000001
 43
0.0000000001
 40
0.0
 40
0.0
 40
0.0
 40
0.0
 40
0.25
 40
0.25
 40
0.25
 40
0.25
 40
0.5
 40
0.5
 40
0.5
 40
0.5
 40
1.0
 40
1.0
 40
1.0
 40
1.0
 10
-15.85686
 20
-0.77479
 30
0.0
 10
-15.9227
 20
-0.83613
 30
0.0
 10
-15.98855
 20
-0.89746
 30
0.0
 10
-16.05913
 20
-0.95318
 30
0.0
 10
-16.05913
 20
-0.95318
 30
0.0
 10
-16.13883
 20
-1.01611
 30
0.0
 10
-16.22457
 20
-1.07187
 30
0.0
 10
-16.31406
 20
-1.11982
 30
0.0
 10
-16.31406
 20
-1.11982
 30
0.0
 10
-16.44631
 20
-1.19066
 30
0.0
 10
-16.58676
 20
-1.24443
 30
0.0
 10
-16.72721
 20
-1.29821
 30
0.0
  0
SPLINE
  5
D1
330
1F
100
AcDbEntity
  8
layer 1
 62
     3
370
     9
100
AcDbSpline
210
0.0
220
0.0
230
1.0
 70
     8
 71
     3
 72
    16
 73
    12
 74
     0
 42
0.000000001
 43
0.0000000001
 40
0.0
 40
0.0
 40
0.0
 40
0.0
 40
0.25
 40
0.25
 40
0.25
 40
0.25
 40
0.5
 40
0.5
 40
0.5
 40
0.5
 40
1.0
 40
1.0
 40
1.0
 40
1.0
 10
-16.72721
 20
-1.29821
 30
0.0
 10
-16.8603
 20
-1.28544
 30
0.0
 10
-16.99338
 20
-1.27268
 30
0.0
 10
-17.12255
 20
-1.30188
 30
0.0
 10
-17.12255
 20
-1.30188
 30
0.0
 10
-17.19465
 20
-1.31818
 30
0.0
 10
-17.26553
 20
-1.34755
 30
0.0
 10
-17.32413
 20
-1.39167
 30
0.0
 10
-17.32413
 20
-1.39167
 30
0.0
 10
-17.37079
 20
-1.42679
 30
0.0
 10
-17.40967
 20
-1.47127
 30
0.0
 10
-17.44854
 20
-1.51575
 30
0.0
  0
SPLINE
  5
D2
330
1F
100
AcDbEntity
  8
layer 1
 62
     3
370
     9
100
AcDbSpline
210
0.0
220
0.0
230
1.0
 70
     8
 71
     3
 72
    16
 73
    12
 74
     0
 42
0.000000001
 43
0.0000000001
 40
0.0
 40
0.0
 40
0.0
 40
0.0
 40
0.25
 40
0.25
 40
0.25
 40
0.25
 40
0.5
 40
0.5
 40
0.5
 40
0.5
 40
1.0
 40
1.0
 40
1.0
 40
1.0
 10
-18.21809
 20
0.01959
 30
0.0
 10
-17.99533
 20
0.01089
 30
0.0
 10
-17.77257
 20
0.00219
 30
0.0
 10
-17.55819
 20
-0.05338
 30
0.0
 10
-17.55819
 20
-0.05338
 30
0.0
 10
-17.37141
 20
-0.1018
 30
0.0
 10
-17.191
 20
-0.18581
 30
0.0
 10
-17.03413
 20
-0.29828
 30
0.0
 10
-17.03413
 20
-0.29828
 30
0.0
 10
-16.8859
 20
-0.40455
 30
0.0
 10
-16.75869
 20
-0.53625
 30
0.0
 10
-16.63149
 20
-0.66794
 30
0.0
  0
SPLINE
  5
D3
330
1F
100
AcDbEntity
  8
layer 1
 62
     3
370
     9
100
AcDbSpline
210
0.0
220
0.0
230
1.0
 70
    24
 71
     3
 72
     8
 73
     4
 74
     0
 42
0.000000001
 43
0.0000000001
 40
0.0
 40
0.0
 40
0.0
 40
0.0
 40
1.0
 40
1.0
 40
1.0
 40
1.0
 10
-16.6527
 20
0.81689
 30
0.0
 10
-16.6527
 20
0.81689
 30
0.0
 10
-17.05653
 20
0.45032
 30
0.0
 10
-17.05653
 20
0.45032
 30
0.0
  0
SPLINE
  5
D4
330
1F
100
AcDbEntity
  8
layer 1
 62
     3
370
     9
100
AcDbSpline
210
0.0
220
0.0
230
1.0
 70
     8
 71
     3
 72
    28
 73
    24
 74
     0
 42
0.000000001
 43
0.0000000001
 40
0.0
 40
0.0
 40
0.0
 40
0.0
 40
0.1428571428571428
 40
0.1428571428571428
 40
0.1428571428571428
 40
0.1428571428571428
 40
0.2857142857142857
 40
0.2857142857142857
 40
0.2857142857142857
 40
0.2857142857142857
 40
0.4285714285714285
 40
0.4285714285714285
 40
0.4285714285714285
 40
0.4285714285714285
 40
0.5714285714285714
 40
0.5714285714285714
 40
0.5714285714285714
 40
0.5714285714285714
 40
0.7142857142857143
 40
0.7142857142857143
 40
0.7142857142857143
 40
0.7142857142857143
 40
1.0
 40
1.0
 40
1.0
 40
1.0
 10
-16.63149
 20
-0.66794
 30
0.0
 10
-16.83473
 20
-0.72452
 30
0.0
 10
-17.03797
 20
-0.78109
 30
0.0
 10
-17.23649
 20
-0.78852
 30
0.0
 10
-17.23649
 20
-0.78852
 30
0.0
 10
-17.4603
 20
-0.79689
 30
0.0
 10
-17.6781
 20
-0.74278
 30
0.0
 10
-17.92609
 20
-0.69817
 30
0.0
 10
-17.92609
 20
-0.69817
 30
0.0
 10
-18.12838
 20
-0.66179
 30
0.0
 10
-18.35076
 20
-0.63173
 30
0.0
 10
-18.44726
 20
-0.47402
 30
0.0
 10
-18.44726
 20
-0.47402
 30
0.0
 10
-18.47799
 20
-0.42381
 30
0.0
 10
-18.49596
 20
-0.36065
 30
0.0
 10
-18.49255
 20
-0.29915
 30
0.0
 10
-18.49255
 20
-0.29915
 30
0.0
 10
-18.48812
 20
-0.21906
 30
0.0
 10
-18.44744
 20
-0.14177
 30
0.0
 10
-18.39028
 20
-0.0873
 30
0.0
 10
-18.39028
 20
-0.0873
 30
0.0
 10
-18.34104
 20
-0.04038
 30
0.0
 10
-18.27956
 20
-0.01039
 30
0.0
 10
-18.21809
 20
0.01959
 30
0.0
  0
SPLINE
  5
D5
330
1F
100
AcDbEntity
  8
layer 1
 62
     3
370
     9
100
AcDbSpline
210
0.0
220
0.0
230
1.0
 70
     8
 71
     3
 72
    16
 73
    12
 74
     0
 42
0.000000001
 43
0.0000000001
 40
0.0
 40
0.0
 40
0.0
 40
0.0
 40
0.25
 40
0.25
 40
0.25
 40
0.25
 40
0.5
 40
0.5
 40
0.5
 40
0.5
 40
1.0
 40
1.0
 40
1.0
 40
1.0
 10
-19.34634
 20
1.4299
 30
0.0
 10
-19.2184
 20
1.38595
 30
0.0
 10
-19.09045
 20
1.34201
 30
0.0
 10
-18.99378
 20
1.25753
 30
0.0
 10
-18.99378
 20
1.25753
 30
0.0
 10
-18.93362
 20
1.20497
 30
0.0
 10
-18.88557
 20
1.13673
 30
0.0
 10
-18.8334
 20
1.07341
 30
0.0
 10
-18.8334
 20
1.07341
 30
0.0
 10
-18.78359
 20
1.01295
 30
0.0
 10
-18.73001
 20
0.957
 30
0.0
 10
-18.67644
 20
0.90104
 30
0.0
  0
SPLINE
  5
D6
330
1F
100
AcDbEntity
  8
layer 1
 62
     3
370
     9
100
AcDbSpline
210
0.0
220
0.0
230
1.0
 70
     8
 71
     3
 72
    16
 73
    12
 74
     0
 42
0.000000001
 43
0.0000000001
 40
0.0
 40
0.0
 40
0.0
 40
0.0
 40
0.25
 40
0.25
 40
0.25
 40
0.25
 40
0.5
 40
0.5
 40
0.5
 40
0.5
 40
1.0
 40
1.0
 40
1.0
 40
1.0
 10
-18.67644
 20
0.90104
 30
0.0
 10
-18.52942
 20
0.89669
 30
0.0
 10
-18.38239
 20
0.89235
 30
0.0
 10
-18.23691
 20
0.90731
 30
0.0
 10
-18.23691
 20
0.90731
 30
0.0
 10
-18.13589
 20
0.9177
 30
0.0
 10
-18.03561
 20
0.9374
 30
0.0
 10
-17.93623
 20
0.95987
 30
0.0
 10
-17.93623
 20
0.95987
 30
0.0
 10
-17.84754
 20
0.97992
 30
0.0
 10
-17.75957
 20
1.00218
 30
0.0
 10
-17.67159
 20
1.02444
 30
0.0
  0
SPLINE
  5
D7
330
1F
100
AcDbEntity
  8
layer 1
 62
     3
370
     9
100
AcDbSpline
210
0.0
220
0.0
230
1.0
 70
     8
 71
     3
 72
    64
 73
    60
 74
     0
 42
0.000000001
 43
0.0000000001
 40
0.0
 40
0.0
 40
0.0
 40
0.0
 40
0.0625
 40
0.0625
 40
0.0625
 40
0.0625
 40
0.125
 40
0.125
 40
0.125
 40
0.125
 40
0.1875
 40
0.1875
 40
0.1875
 40
0.1875
 40
0.25
 40
0.25
 40
0.25
 40
0.25
 40
0.3125
 40
0.3125
 40
0.3125
 40
0.3125
 40
0.375
 40
0.375
 40
0.375
 40
0.375
 40
0.4375
 40
0.4375
 40
0.4375
 40
0.4375
 40
0.5
 40
0.5
 40
0.5
 40
0.5
 40
0.5625
 40
0.5625
 40
0.5625
 40
0.5625
 40
0.625
 40
0.625
 40
0.625
 40
0.625
 40
0.6875
 40
0.6875
 40
0.6875
 40
0.6875
 40
0.75
 40
0.75
 40
0.75
 40
0.75
 40
0.8125
 40
0.8125
 40
0.8125
 40
0.8125
 40
0.875
 40
0.875
 40
0.875
 40
0.875
 40
1.0
 40
1.0
 40
1.0
 40
1.0
 10
-19.11716
 20
-0.36825
 30
0.0
 10
-19.12218
 20
-0.3228
 30
0.0
 10
-19.1272
 20
-0.27736
 30
0.0
 10
-19.13317
 20
-0.23307
 30
0.0
 10
-19.13317
 20
-0.23307
 30
0.0
 10
-19.14481
 20
-0.14678
 30
0.0
 10
-19.16008
 20
-0.06488
 30
0.0
 10
-19.2001
 20
0.02355
 30
0.0
 10
-19.2001
 20
0.02355
 30
0.0
 10
-19.23223
 20
0.09453
 30
0.0
 10
-19.28029
 20
0.16972
 30
0.0
 10
-19.34634
 20
0.17825
 30
0.0
 10
-19.34634
 20
0.17825
 30
0.0
 10
-19.38701
 20
0.1835
 30
0.0
 10
-19.43449
 20
0.16348
 30
0.0
 10
-19.47015
 20
0.1352
 30
0.0
 10
-19.47015
 20
0.1352
 30
0.0
 10
-19.51281
 20
0.10135
 30
0.0
 10
-19.53853
 20
0.05569
 30
0.0
 10
-19.56194
 20
0.00802
 30
0.0
 10
-19.56194
 20
0.00802
 30
0.0
 10
-19.58507
 20
-0.03909
 30
0.0
 10
-19.60595
 20
-0.08815
 30
0.0
 10
-19.61077
 20
-0.13907
 30
0.0
 10
-19.61077
 20
-0.13907
 30
0.0
 10
-19.61704
 20
-0.20518
 30
0.0
 10
-19.59626
 20
-0.27444
 30
0.0
 10
-19.56465
 20
-0.33493
 30
0.0
 10
-19.56465
 20
-0.33493
 30
0.0
 10
-19.52967
 20
-0.40188
 30
0.0
 10
-19.48144
 20
-0.45811
 30
0.0
 10
-19.44785
 20
-0.52456
 30
0.0
 10
-19.44785
 20
-0.52456
 30
0.0
 10
-19.41735
 20
-0.58488
 30
0.0
 10
-19.39892
 20
-0.65363
 30
0.0
 10
-19.39923
 20
-0.72083
 30
0.0
 10
-19.39923
 20
-0.72083
 30
0.0
 10
-19.39974
 20
-0.83199
 30
0.0
 10
-19.45157
 20
-0.9389
 30
0.0
 10
-19.51045
 20
-1.03633
 30
0.0
 10
-19.51045
 20
-1.03633
 30
0.0
 10
-19.57111
 20
-1.13672
 30
0.0
 10
-19.63926
 20
-1.22706
 30
0.0
 10
-19.72133
 20
-1.30897
 30
0.0
 10
-19.72133
 20
-1.30897
 30
0.0
 10
-19.80103
 20
-1.38853
 30
0.0
 10
-19.89387
 20
-1.46013
 30
0.0
 10
-19.99861
 20
-1.4965
 30
0.0
 10
-19.99861
 20
-1.4965
 30
0.0
 10
-20.09721
 20
-1.53073
 30
0.0
 10
-20.20636
 20
-1.53373
 30
0.0
 10
-20.31239
 20
-1.52548
 30
0.0
 10
-20.31239
 20
-1.52548
 30
0.0
 10
-20.42441
 20
-1.51676
 30
0.0
 10
-20.53296
 20
-1.49548
 30
0.0
 10
-20.6403
 20
-1.46789
 30
0.0
 10
-20.6403
 20
-1.46789
 30
0.0
 10
-20.69101
 20
-1.45486
 30
0.0
 10
-20.74146
 20
-1.44042
 30
0.0
 10
-20.79191
 20
-1.42598
 30
0.0
  0
SPLINE
  5
D8
330
1F
100
AcDbEntity
  8
layer 1
 62
     3
370
     9
100
AcDbSpline
210
0.0
220
0.0
230
1.0
 70
     8
 71
     3
 72
    16
 73
    12
 74
     0
 42
0.000000001
 43
0.0000000001
 40
0.0
 40
0.0
 40
0.0
 40
0.0
 40
0.25
 40
0.25
 40
0.25
 40
0.25
 40
0.5
 40
0.5
 40
0.5
 40
0.5
 40
1.0
 40
1.0
 40
1.0
 40
1.0
 10
-18.46489
 20
-1.39072
 30
0.0
 10
-18.4613
 20
-1.84523
 30
0.0
 10
-18.4577
 20
-2.29973
 30
0.0
 10
-18.21344
 20
-2.58227
 30
0.0
 10
-18.21344
 20
-2.58227
 30
0.0
 10
-18.03241
 20
-2.79166
 30
0.0
 10
-17.71921
 20
-2.90661
 30
0.0
 10
-17.44591
 20
-3.05705
 30
0.0
 10
-17.44591
 20
-3.05705
 30
0.0
 10
-17.13388
 20
-3.22881
 30
0.0
 10
-16.87387
 20
-3.44683
 30
0.0
 10
-16.61386
 20
-3.66486
 30
0.0
  0
SPLINE
  5
D9
330
1F
100
AcDbEntity
  8
layer 1
 62
     3
370
     9
100
AcDbSpline
210
0.0
220
0.0
230
1.0
 70
     8
 71
     3
 72
    40
 73
    36
 74
     0
 42
0.000000001
 43
0.0000000001
 40
0.0
 40
0.0
 40
0.0
 40
0.0
 40
0.1
 40
0.1
 40
0.1
 40
0.1
 40
0.2
 40
0.2
 40
0.2
 40
0.2
 40
0.3
 40
0.3
 40
0.3
 40
0.3
 40
0.4
 40
0.4
 40
0.4
 40
0.4
 40
0.5
 40
0.5
 40
0.5
 40
0.5
 40
0.6
 40
0.6
 40
0.6
 40
0.6
 40
0.7
 40
0.7
 40
0.7
 40
0.7
 40
0.8
 40
0.8
 40
0.8
 40
0.8
 40
1.0
 40
1.0
 40
1.0
 40
1.0
 10
-20.58037
 20
-2.71289
 30
0.0
 10
-20.52893
 20
-2.73446
 30
0.0
 10
-20.4775
 20
-2.75603
 30
0.0
 10
-20.42582
 20
-2.77591
 30
0.0
 10
-20.42582
 20
-2.77591
 30
0.0
 10
-20.31402
 20
-2.81889
 30
0.0
 10
-20.20105
 20
-2.85394
 30
0.0
 10
-20.08324
 20
-2.88984
 30
0.0
 10
-20.08324
 20
-2.88984
 30
0.0
 10
-19.96806
 20
-2.92494
 30
0.0
 10
-19.84827
 20
-2.96085
 30
0.0
 10
-19.73418
 20
-2.94207
 30
0.0
 10
-19.73418
 20
-2.94207
 30
0.0
 10
-19.6606
 20
-2.92996
 30
0.0
 10
-19.58939
 20
-2.8951
 30
0.0
 10
-19.52677
 20
-2.84828
 30
0.0
 10
-19.52677
 20
-2.84828
 30
0.0
 10
-19.46055
 20
-2.79876
 30
0.0
 10
-19.40392
 20
-2.73585
 30
0.0
 10
-19.32883
 20
-2.71125
 30
0.0
 10
-19.32883
 20
-2.71125
 30
0.0
 10
-19.2738
 20
-2.69322
 30
0.0
 10
-19.20887
 20
-2.69576
 30
0.0
 10
-19.15242
 20
-2.71289
 30
0.0
 10
-19.15242
 20
-2.71289
 30
0.0
 10
-19.00414
 20
-2.7579
 30
0.0
 10
-18.91449
 20
-2.90359
 30
0.0
 10
-18.81157
 20
-3.0269
 30
0.0
 10
-18.81157
 20
-3.0269
 30
0.0
 10
-18.68543
 20
-3.17802
 30
0.0
 10
-18.53935
 20
-3.29553
 30
0.0
 10
-18.38221
 20
-3.39874
 30
0.0
 10
-18.38221
 20
-3.39874
 30
0.0
 10
-18.22338
 20
-3.50305
 30
0.0
 10
-18.05326
 20
-3.59277
 30
0.0
 10
-17.88314
 20
-3.68248
 30
0.0
  0
SPLINE
  5
DA
330
1F
100
AcDbEntity
  8
layer 1
 62
     3
370
     9
100
AcDbSpline
210
0.0
220
0.0
230
1.0
 70
     8
 71
     3
 72
    28
 73
    24
 74
     0
 42
0.000000001
 43
0.0000000001
 40
0.0
 40
0.0
 40
0.0
 40
0.0
 40
0.1428571428571428
 40
0.1428571428571428
 40
0.1428571428571428
 40
0.1428571428571428
 40
0.2857142857142857
 40
0.2857142857142857
 40
0.2857142857142857
 40
0.2857142857142857
 40
0.4285714285714285
 40
0.4285714285714285
 40
0.4285714285714285
 40
0.4285714285714285
 40
0.5714285714285714
 40
0.5714285714285714
 40
0.5714285714285714
 40
0.5714285714285714
 40
0.7142857142857143
 40
0.7142857142857143
 40
0.7142857142857143
 40
0.7142857142857143
 40
1.0
 40
1.0
 40
1.0
 40
1.0
 10
-17.88314
 20
-3.68248
 30
0.0
 10
-17.93649
 20
-3.8519
 30
0.0
 10
-17.98984
 20
-4.02132
 30
0.0
 10
-18.10525
 20
-4.11684
 30
0.0
 10
-18.10525
 20
-4.11684
 30
0.0
 10
-18.1997
 20
-4.19502
 30
0.0
 10
-18.33572
 20
-4.2237
 30
0.0
 10
-18.46904
 20
-4.28139
 30
0.0
 10
-18.46904
 20
-4.28139
 30
0.0
 10
-18.58495
 20
-4.33155
 30
0.0
 10
-18.69881
 20
-4.40362
 30
0.0
 10
-18.72933
 20
-4.51105
 30
0.0
 10
-18.72933
 20
-4.51105
 30
0.0
 10
-18.74238
 20
-4.557
 30
0.0
 10
-18.74019
 20
-4.60943
 30
0.0
 10
-18.73341
 20
-4.65949
 30
0.0
 10
-18.73341
 20
-4.65949
 30
0.0
 10
-18.7263
 20
-4.71203
 30
0.0
 10
-18.71415
 20
-4.76196
 30
0.0
 10
-18.69905
 20
-4.8115
 30
0.0
 10
-18.69905
 20
-4.8115
 30
0.0
 10
-18.69195
 20
-4.83481
 30
0.0
 10
-18.68419
 20
-4.85803
 30
0.0
 10
-18.67644
 20
-4.88125
 30
0.0
  0
SPLINE
  5
DB
330
1F
100
AcDbEntity
  8
layer 1
 62
     3
370
     9
100
AcDbSpline
210
0.0
220
0.0
230
1.0
 70
    27
 71
     3
 72
    12
 73
     8
 74
     0
 42
0.000000001
 43
0.0000000001
 40
0.0
 40
0.0
 40
0.0
 40
0.0
 40
0.3333333333333333
 40
0.3333333333333333
 40
0.3333333333333333
 40
0.3333333333333333
 40
1.0
 40
1.0
 40
1.0
 40
1.0
 10
-18.21809
 20
0.01959
 30
0.0
 10
-18.21809
 20
0.01959
 30
0.0
 10
-18.21809
 20
0.01959
 30
0.0
 10
-18.21809
 20
0.01959
 30
0.0
 10
-18.21809
 20
0.01959
 30
0.0
 10
-18.21809
 20
0.01959
 30
0.0
 10
-18.21809
 20
0.01959
 30
0.0
 10
-18.21809
 20
0.01959
 30
0.0
  0
SPLINE
  5
DC
330
1F
100
AcDbEntity
  8
layer 1
 62
     3
370
     9
100
AcDbSpline
210
0.0
220
0.0
230
1.0
 70
     8
 71
     3
 72
    16
 73
    12
 74
     0
 42
0.000000001
 43
0.0000000001
 40
0.0
 40
0.0
 40
0.0
 40
0.0
 40
0.25
 40
0.25
 40
0.25
 40
0.25
 40
0.5
 40
0.5
 40
0.5
 40
0.5
 40
1.0
 40
1.0
 40
1.0
 40
1.0
 10
-16.41994
 20
-4.72259
 30
0.0
 10
-16.6097
 20
-4.70725
 30
0.0
 10
-16.79947
 20
-4.6919
 30
0.0
 10
-16.94151
 20
-4.76889
 30
0.0
 10
-16.94151
 20
-4.76889
 30
0.0
 10
-17.12544
 20
-4.86857
 30
0.0
 10
-17.22936
 20
-5.12307
 30
0.0
 10
-17.39772
 20
-5.27049
 30
0.0
 10
-17.39772
 20
-5.27049
 30
0.0
 10
-17.5798
 20
-5.4299
 30
0.0
 10
-17.83724
 20
-5.46409
 30
0.0
 10
-18.09469
 20
-5.49827
 30
0.0
  0
SPLINE
  5
DD
330
1F
100
AcDbEntity
  8
layer 1
 62
     3
370
     9
100
AcDbSpline
210
0.0
220
0.0
230
1.0
 70
     8
 71
     3
 72
    40
 73
    36
 74
     0
 42
0.000000001
 43
0.0000000001
 40
0.0
 40
0.0
 40
0.0
 40
0.0
 40
0.1
 40
0.1
 40
0.1
 40
0.1
 40
0.2
 40
0.2
 40
0.2
 40
0.2
 40
0.3
 40
0.3
 40
0.3
 40
0.3
 40
0.4
 40
0.4
 40
0.4
 40
0.4
 40
0.5
 40
0.5
 40
0.5
 40
0.5
 40
0.6
 40
0.6
 40
0.6
 40
0.6
 40
0.7
 40
0.7
 40
0.7
 40
0.7
 40
0.8
 40
0.8
 40
0.8
 40
0.8
 40
1.0
 40
1.0
 40
1.0
 40
1.0
 10
-20.8448
 20
3.84507
 30
0.0
 10
-20.87609
 20
3.90852
 30
0.0
 10
-20.90738
 20
3.97197
 30
0.0
 10
-20.93626
 20
4.03647
 30
0.0
 10
-20.93626
 20
4.03647
 30
0.0
 10
-20.99783
 20
4.17394
 30
0.0
 10
-21.04848
 20
4.31616
 30
0.0
 10
-21.07474
 20
4.46685
 30
0.0
 10
-21.07474
 20
4.46685
 30
0.0
 10
-21.1011
 20
4.61816
 30
0.0
 10
-21.10287
 20
4.778
 30
0.0
 10
-21.05635
 20
4.92043
 30
0.0
 10
-21.05635
 20
4.92043
 30
0.0
 10
-21.01153
 20
5.05763
 30
0.0
 10
-20.92192
 20
5.17868
 30
0.0
 10
-20.82795
 20
5.29333
 30
0.0
 10
-20.82795
 20
5.29333
 30
0.0
 10
-20.72468
 20
5.41931
 30
0.0
 10
-20.61617
 20
5.53758
 30
0.0
 10
-20.4852
 20
5.63013
 30
0.0
 10
-20.4852
 20
5.63013
 30
0.0
 10
-20.37134
 20
5.71059
 30
0.0
 10
-20.24052
 20
5.77161
 30
0.0
 10
-20.10438
 20
5.80188
 30
0.0
 10
-20.10438
 20
5.80188
 30
0.0
 10
-19.88814
 20
5.84995
 30
0.0
 10
-19.65848
 20
5.82043
 30
0.0
 10
-19.44217
 20
5.7594
 30
0.0
 10
-19.44217
 20
5.7594
 30
0.0
 10
-19.21764
 20
5.69604
 30
0.0
 10
-19.00749
 20
5.59873
 30
0.0
 10
-18.81445
 20
5.4758
 30
0.0
 10
-18.81445
 20
5.4758
 30
0.0
 10
-18.58826
 20
5.33175
 30
0.0
 10
-18.38554
 20
5.15254
 30
0.0
 10
-18.18283
 20
4.97332
 30
0.0
  0
SPLINE
  5
DE
330
1F
100
AcDbEntity
  8
layer 1
 62
     3
370
     9
100
AcDbSpline
210
0.0
220
0.0
230
1.0
 70
     8
 71
     3
 72
    28
 73
    24
 74
     0
 42
0.000000001
 43
0.0000000001
 40
0.0
 40
0.0
 40
0.0
 40
0.0
 40
0.1428571428571428
 40
0.1428571428571428
 40
0.1428571428571428
 40
0.1428571428571428
 40
0.2857142857142857
 40
0.2857142857142857
 40
0.2857142857142857
 40
0.2857142857142857
 40
0.4285714285714285
 40
0.4285714285714285
 40
0.4285714285714285
 40
0.4285714285714285
 40
0.5714285714285714
 40
0.5714285714285714
 40
0.5714285714285714
 40
0.5714285714285714
 40
0.7142857142857143
 40
0.7142857142857143
 40
0.7142857142857143
 40
0.7142857142857143
 40
1.0
 40
1.0
 40
1.0
 40
1.0
 10
-18.18283
 20
4.97332
 30
0.0
 10
-18.22557
 20
4.86691
 30
0.0
 10
-18.26831
 20
4.76049
 30
0.0
 10
-18.3423
 20
4.6883
 30
0.0
 10
-18.3423
 20
4.6883
 30
0.0
 10
-18.44074
 20
4.59224
 30
0.0
 10
-18.59451
 20
4.55675
 30
0.0
 10
-18.7355
 20
4.50336
 30
0.0
 10
-18.7355
 20
4.50336
 30
0.0
 10
-18.87311
 20
4.45125
 30
0.0
 10
-18.99855
 20
4.38208
 30
0.0
 10
-19.09953
 20
4.28579
 30
0.0
 10
-19.09953
 20
4.28579
 30
0.0
 10
-19.1955
 20
4.19429
 30
0.0
 10
-19.26939
 20
4.0783
 30
0.0
 10
-19.34201
 20
3.96391
 30
0.0
 10
-19.34201
 20
3.96391
 30
0.0
 10
-19.41511
 20
3.84875
 30
0.0
 10
-19.48692
 20
3.73522
 30
0.0
 10
-19.55474
 20
3.61851
 30
0.0
 10
-19.55474
 20
3.61851
 30
0.0
 10
-19.58573
 20
3.56519
 30
0.0
 10
-19.61588
 20
3.51121
 30
0.0
 10
-19.64603
 20
3.45723
 30
0.0
  0
SPLINE
  5
DF
330
1F
100
AcDbEntity
  8
layer 1
 62
     3
370
     9
100
AcDbSpline
210
0.0
220
0.0
230
1.0
 70
     8
 71
     3
 72
    16
 73
    12
 74
     0
 42
0.000000001
 43
0.0000000001
 40
0.0
 40
0.0
 40
0.0
 40
0.0
 40
0.25
 40
0.25
 40
0.25
 40
0.25
 40
0.5
 40
0.5
 40
0.5
 40
0.5
 40
1.0
 40
1.0
 40
1.0
 40
1.0
 10
-18.35912
 20
3.4396
 30
0.0
 10
-18.29376
 20
3.50171
 30
0.0
 10
-18.2284
 20
3.56382
 30
0.0
 10
-18.161
 20
3.62427
 30
0.0
 10
-18.161
 20
3.62427
 30
0.0
 10
-18.00914
 20
3.76045
 30
0.0
 10
-17.84688
 20
3.88821
 30
0.0
 10
-17.66906
 20
3.98523
 30
0.0
 10
-17.66906
 20
3.98523
 30
0.0
 10
-17.4712
 20
4.09317
 30
0.0
 10
-17.25408
 20
4.16303
 30
0.0
 10
-17.03695
 20
4.2329
 30
0.0
  0
SPLINE
  5
E0
330
1F
100
AcDbEntity
  8
layer 1
 62
     3
370
     9
100
AcDbSpline
210
0.0
220
0.0
230
1.0
 70
     8
 71
     3
 72
    16
 73
    12
 74
     0
 42
0.000000001
 43
0.0000000001
 40
0.0
 40
0.0
 40
0.0
 40
0.0
 40
0.25
 40
0.25
 40
0.25
 40
0.25
 40
0.5
 40
0.5
 40
0.5
 40
0.5
 40
1.0
 40
1.0
 40
1.0
 40
1.0
 10
-17.03695
 20
4.2329
 30
0.0
 10
-16.76759
 20
4.15117
 30
0.0
 10
-16.49823
 20
4.06944
 30
0.0
 10
-16.25114
 20
3.92938
 30
0.0
 10
-16.25114
 20
3.92938
 30
0.0
 10
-15.99287
 20
3.783
 30
0.0
 10
-15.75894
 20
3.57289
 30
0.0
 10
-15.61654
 20
3.31905
 30
0.0
 10
-15.61654
 20
3.31905
 30
0.0
 10
-15.48766
 20
3.0893
 30
0.0
 10
-15.43374
 20
2.82373
 30
0.0
 10
-15.37983
 20
2.55815
 30
0.0
  0
SPLINE
  5
E1
330
1F
100
AcDbEntity
  8
layer 1
 62
     3
370
     9
100
AcDbSpline
210
0.0
220
0.0
230
1.0
 70
     8
 71
     3
 72
    16
 73
    12
 74
     0
 42
0.000000001
 43
0.0000000001
 40
0.0
 40
0.0
 40
0.0
 40
0.0
 40
0.25
 40
0.25
 40
0.25
 40
0.25
 40
0.5
 40
0.5
 40
0.5
 40
0.5
 40
1.0
 40
1.0
 40
1.0
 40
1.0
 10
-15.37983
 20
2.55815
 30
0.0
 10
-15.5481
 20
2.35375
 30
0.0
 10
-15.71636
 20
2.14935
 30
0.0
 10
-15.9118
 20
1.97476
 30
0.0
 10
-15.9118
 20
1.97476
 30
0.0
 10
-16.13061
 20
1.77928
 30
0.0
 10
-16.38349
 20
1.62116
 30
0.0
 10
-16.63695
 20
1.46924
 30
0.0
 10
-16.63695
 20
1.46924
 30
0.0
 10
-16.75844
 20
1.39641
 30
0.0
 10
-16.88007
 20
1.32501
 30
0.0
 10
-17.00169
 20
1.25361
 30
0.0
  0
SPLINE
  5
E2
330
1F
100
AcDbEntity
  8
layer 1
 62
     3
370
     9
100
AcDbSpline
210
0.0
220
0.0
230
1.0
 70
     8
 71
     3
 72
    16
 73
    12
 74
     0
 42
0.000000001
 43
0.0000000001
 40
0.0
 40
0.0
 40
0.0
 40
0.0
 40
0.25
 40
0.25
 40
0.25
 40
0.25
 40
0.5
 40
0.5
 40
0.5
 40
0.5
 40
1.0
 40
1.0
 40
1.0
 40
1.0
 10
-22.78398
 20
3.75692
 30
0.0
 10
-22.7483
 20
3.63276
 30
0.0
 10
-22.71263
 20
3.50859
 30
0.0
 10
-22.67575
 20
3.38471
 30
0.0
 10
-22.67575
 20
3.38471
 30
0.0
 10
-22.59166
 20
3.10215
 30
0.0
 10
-22.50135
 20
2.82106
 30
0.0
 10
-22.39516
 20
2.5463
 30
0.0
 10
-22.39516
 20
2.5463
 30
0.0
 10
-22.2789
 20
2.2455
 30
0.0
 10
-22.1436
 20
1.95229
 30
0.0
 10
-22.00831
 20
1.65908
 30
0.0
  0
SPLINE
  5
E3
330
1F
100
AcDbEntity
  8
layer 1
 62
     3
370
     9
100
AcDbSpline
210
0.0
220
0.0
230
1.0
 70
     8
 71
     3
 72
    16
 73
    12
 74
     0
 42
0.000000001
 43
0.0000000001
 40
0.0
 40
0.0
 40
0.0
 40
0.0
 40
0.25
 40
0.25
 40
0.25
 40
0.25
 40
0.5
 40
0.5
 40
0.5
 40
0.5
 40
1.0
 40
1.0
 40
1.0
 40
1.0
 10
-22.00831
 20
1.65908
 30
0.0
 10
-22.06474
 20
1.5005
 30
0.0
 10
-22.12116
 20
1.34192
 30
0.0
 10
-22.21114
 20
1.20506
 30
0.0
 10
-22.21114
 20
1.20506
 30
0.0
 10
-22.30661
 20
1.05986
 30
0.0
 10
-22.43985
 20
0.9391
 30
0.0
 10
-22.5678
 20
0.81628
 30
0.0
 10
-22.5678
 20
0.81628
 30
0.0
 10
-22.69009
 20
0.69888
 30
0.0
 10
-22.80755
 20
0.5796
 30
0.0
 10
-22.92501
 20
0.46031
 30
0.0
  0
SPLINE
  5
E4
330
1F
100
AcDbEntity
  8
layer 1
 62
     3
370
     9
100
AcDbSpline
210
0.0
220
0.0
230
1.0
 70
     8
 71
     3
 72
    16
 73
    12
 74
     0
 42
0.000000001
 43
0.0000000001
 40
0.0
 40
0.0
 40
0.0
 40
0.0
 40
0.25
 40
0.25
 40
0.25
 40
0.25
 40
0.5
 40
0.5
 40
0.5
 40
0.5
 40
1.0
 40
1.0
 40
1.0
 40
1.0
 10
-22.92501
 20
0.46031
 30
0.0
 10
-23.14778
 20
0.43387
 30
0.0
 10
-23.37055
 20
0.40742
 30
0.0
 10
-23.59073
 20
0.42429
 30
0.0
 10
-23.59073
 20
0.42429
 30
0.0
 10
-23.82471
 20
0.44223
 30
0.0
 10
-24.05577
 20
0.50908
 30
0.0
 10
-24.28133
 20
0.58236
 30
0.0
 10
-24.28133
 20
0.58236
 30
0.0
 10
-24.3883
 20
0.6171
 30
0.0
 10
-24.49403
 20
0.6533
 30
0.0
 10
-24.59976
 20
0.68949
 30
0.0
  0
SPLINE
  5
E5
330
1F
100
AcDbEntity
  8
layer 1
 62
     3
370
     9
100
AcDbSpline
210
0.0
220
0.0
230
1.0
 70
     8
 71
     3
 72
    28
 73
    24
 74
     0
 42
0.000000001
 43
0.0000000001
 40
0.0
 40
0.0
 40
0.0
 40
0.0
 40
0.1428571428571428
 40
0.1428571428571428
 40
0.1428571428571428
 40
0.1428571428571428
 40
0.2857142857142857
 40
0.2857142857142857
 40
0.2857142857142857
 40
0.2857142857142857
 40
0.4285714285714285
 40
0.4285714285714285
 40
0.4285714285714285
 40
0.4285714285714285
 40
0.5714285714285714
 40
0.5714285714285714
 40
0.5714285714285714
 40
0.5714285714285714
 40
0.7142857142857143
 40
0.7142857142857143
 40
0.7142857142857143
 40
0.7142857142857143
 40
1.0
 40
1.0
 40
1.0
 40
1.0
 10
-25.05811
 20
-0.89711
 30
0.0
 10
-24.67515
 20
-1.07431
 30
0.0
 10
-24.29218
 20
-1.2515
 30
0.0
 10
-23.95226
 20
-1.51604
 30
0.0
 10
-23.95226
 20
-1.51604
 30
0.0
 10
-23.71244
 20
-1.70268
 30
0.0
 10
-23.49404
 20
-1.93281
 30
0.0
 10
-23.39556
 20
-2.21567
 30
0.0
 10
-23.39556
 20
-2.21567
 30
0.0
 10
-23.33113
 20
-2.4007
 30
0.0
 10
-23.31802
 20
-2.60829
 30
0.0
 10
-23.36967
 20
-2.79994
 30
0.0
 10
-23.36967
 20
-2.79994
 30
0.0
 10
-23.45288
 20
-3.10874
 30
0.0
 10
-23.70422
 20
-3.37617
 30
0.0
 10
-23.99339
 20
-3.50629
 30
0.0
 10
-23.99339
 20
-3.50629
 30
0.0
 10
-24.23517
 20
-3.61509
 30
0.0
 10
-24.50339
 20
-3.62789
 30
0.0
 10
-24.76494
 20
-3.66591
 30
0.0
 10
-24.76494
 20
-3.66591
 30
0.0
 10
-25.13606
 20
-3.71986
 30
0.0
 10
-25.49373
 20
-3.82458
 30
0.0
 10
-25.85141
 20
-3.92929
 30
0.0
  0
SPLINE
  5
E6
330
1F
100
AcDbEntity
  8
layer 1
 62
     3
370
     9
100
AcDbSpline
210
0.0
220
0.0
230
1.0
 70
     8
 71
     3
 72
    28
 73
    24
 74
     0
 42
0.000000001
 43
0.0000000001
 40
0.0
 40
0.0
 40
0.0
 40
0.0
 40
0.1428571428571428
 40
0.1428571428571428
 40
0.1428571428571428
 40
0.1428571428571428
 40
0.2857142857142857
 40
0.2857142857142857
 40
0.2857142857142857
 40
0.2857142857142857
 40
0.4285714285714285
 40
0.4285714285714285
 40
0.4285714285714285
 40
0.4285714285714285
 40
0.5714285714285714
 40
0.5714285714285714
 40
0.5714285714285714
 40
0.5714285714285714
 40
0.7142857142857143
 40
0.7142857142857143
 40
0.7142857142857143
 40
0.7142857142857143
 40
1.0
 40
1.0
 40
1.0
 40
1.0
 10
-25.86904
 20
-5.74507
 30
0.0
 10
-25.75694
 20
-5.72279
 30
0.0
 10
-25.64483
 20
-5.70051
 30
0.0
 10
-25.53254
 20
-5.68157
 30
0.0
 10
-25.53254
 20
-5.68157
 30
0.0
 10
-25.29676
 20
-5.64181
 30
0.0
 10
-25.06012
 20
-5.61678
 30
0.0
 10
-24.81603
 20
-5.62199
 30
0.0
 10
-24.81603
 20
-5.62199
 30
0.0
 10
-24.58793
 20
-5.62685
 30
0.0
 10
-24.35331
 20
-5.65812
 30
0.0
 10
-24.15904
 20
-5.7627
 30
0.0
 10
-24.15904
 20
-5.7627
 30
0.0
 10
-23.97478
 20
-5.86189
 30
0.0
 10
-23.82681
 20
-6.02702
 30
0.0
 10
-23.69994
 20
-6.20461
 30
0.0
 10
-23.69994
 20
-6.20461
 30
0.0
 10
-23.56881
 20
-6.38814
 30
0.0
 10
-23.46023
 20
-6.58497
 30
0.0
 10
-23.40886
 20
-6.79537
 30
0.0
 10
-23.40886
 20
-6.79537
 30
0.0
 10
-23.36003
 20
-6.99534
 30
0.0
 10
-23.36288
 20
-7.20758
 30
0.0
 10
-23.36573
 20
-7.41982
 30
0.0
  0
SPLINE
  5
E7
330
1F
100
AcDbEntity
  8
layer 1
 62
     3
370
     9
100
AcDbSpline
210
0.0
220
0.0
230
1.0
 70
     8
 71
     3
 72
    16
 73
    12
 74
     0
 42
0.000000001
 43
0.0000000001
 40
0.0
 40
0.0
 40
0.0
 40
0.0
 40
0.25
 40
0.25
 40
0.25
 40
0.25
 40
0.5
 40
0.5
 40
0.5
 40
0.5
 40
1.0
 40
1.0
 40
1.0
 40
1.0
 10
-23.36573
 20
-7.41982
 30
0.0
 10
-23.7238
 20
-7.65783
 30
0.0
 10
-24.08187
 20
-7.89584
 30
0.0
 10
-24.39588
 20
-8.18552
 30
0.0
 10
-24.39588
 20
-8.18552
 30
0.0
 10
-24.64184
 20
-8.41242
 30
0.0
 10
-24.86077
 20
-8.67102
 30
0.0
 10
-25.05509
 20
-8.94463
 30
0.0
 10
-25.05509
 20
-8.94463
 30
0.0
 10
-25.13528
 20
-9.05754
 30
0.0
 10
-25.21129
 20
-9.17301
 30
0.0
 10
-25.28729
 20
-9.28848
 30
0.0
  0
SPLINE
  5
E8
330
1F
100
AcDbEntity
  8
layer 1
 62
     3
370
     9
100
AcDbSpline
210
0.0
220
0.0
230
1.0
 70
     8
 71
     3
 72
    16
 73
    12
 74
     0
 42
0.000000001
 43
0.0000000001
 40
0.0
 40
0.0
 40
0.0
 40
0.0
 40
0.25
 40
0.25
 40
0.25
 40
0.25
 40
0.5
 40
0.5
 40
0.5
 40
0.5
 40
1.0
 40
1.0
 40
1.0
 40
1.0
 10
-24.45873
 20
-10.36384
 30
0.0
 10
-24.28064
 20
-9.96235
 30
0.0
 10
-24.10255
 20
-9.56085
 30
0.0
 10
-23.82946
 20
-9.19179
 30
0.0
 10
-23.82946
 20
-9.19179
 30
0.0
 10
-23.57724
 20
-8.8509
 30
0.0
 10
-23.24397
 20
-8.53769
 30
0.0
 10
-22.8626
 20
-8.43356
 30
0.0
 10
-22.8626
 20
-8.43356
 30
0.0
 10
-22.53149
 20
-8.34316
 30
0.0
 10
-22.16413
 20
-8.41036
 30
0.0
 10
-21.79676
 20
-8.47755
 30
0.0
  0
SPLINE
  5
E9
330
1F
100
AcDbEntity
  8
layer 1
 62
     3
370
     9
100
AcDbSpline
210
0.0
220
0.0
230
1.0
 70
     8
 71
     3
 72
    16
 73
    12
 74
     0
 42
0.000000001
 43
0.0000000001
 40
0.0
 40
0.0
 40
0.0
 40
0.0
 40
0.25
 40
0.25
 40
0.25
 40
0.25
 40
0.5
 40
0.5
 40
0.5
 40
0.5
 40
1.0
 40
1.0
 40
1.0
 40
1.0
 10
-21.79676
 20
-8.47755
 30
0.0
 10
-21.657
 20
-8.87385
 30
0.0
 10
-21.51725
 20
-9.27014
 30
0.0
 10
-21.59165
 20
-9.63391
 30
0.0
 10
-21.59165
 20
-9.63391
 30
0.0
 10
-21.65813
 20
-9.95894
 30
0.0
 10
-21.89559
 20
-10.25802
 30
0.0
 10
-22.04494
 20
-10.58032
 30
0.0
 10
-22.04494
 20
-10.58032
 30
0.0
 10
-22.1824
 20
-10.877
 30
0.0
 10
-22.2452
 20
-11.19336
 30
0.0
 10
-22.308
 20
-11.50973
 30
0.0
  0
SPLINE
  5
EA
330
1F
100
AcDbEntity
  8
layer 1
 62
     3
370
     9
100
AcDbSpline
210
0.0
220
0.0
230
1.0
 70
     8
 71
     3
 72
    16
 73
    12
 74
     0
 42
0.000000001
 43
0.0000000001
 40
0.0
 40
0.0
 40
0.0
 40
0.0
 40
0.25
 40
0.25
 40
0.25
 40
0.25
 40
0.5
 40
0.5
 40
0.5
 40
0.5
 40
1.0
 40
1.0
 40
1.0
 40
1.0
 10
-21.33841
 20
-12.02097
 30
0.0
 10
-21.32312
 20
-11.74961
 30
0.0
 10
-21.30784
 20
-11.47825
 30
0.0
 10
-21.27551
 20
-11.19757
 30
0.0
 10
-21.27551
 20
-11.19757
 30
0.0
 10
-21.21319
 20
-10.65645
 30
0.0
 10
-21.08753
 20
-10.08071
 30
0.0
 10
-20.75806
 20
-9.69196
 30
0.0
 10
-20.75806
 20
-9.69196
 30
0.0
 10
-20.45519
 20
-9.3346
 30
0.0
 10
-19.9801
 20
-9.13525
 30
0.0
 10
-19.505
 20
-8.9359
 30
0.0
  0
SPLINE
  5
EB
330
1F
100
AcDbEntity
  8
layer 1
 62
     3
370
     9
100
AcDbSpline
210
0.0
220
0.0
230
1.0
 70
    24
 71
     3
 72
     8
 73
     4
 74
     0
 42
0.000000001
 43
0.0000000001
 40
0.0
 40
0.0
 40
0.0
 40
0.0
 40
1.0
 40
1.0
 40
1.0
 40
1.0
 10
-16.77252
 20
-7.31404
 30
0.0
 10
-16.77252
 20
-7.31404
 30
0.0
 10
-16.34942
 20
-7.52559
 30
0.0
 10
-16.34942
 20
-7.52559
 30
0.0
  0
SPLINE
  5
EC
330
1F
100
AcDbEntity
  8
layer 1
 62
     3
370
     9
100
AcDbSpline
210
0.0
220
0.0
230
1.0
 70
     8
 71
     3
 72
    16
 73
    12
 74
     0
 42
0.000000001
 43
0.0000000001
 40
0.0
 40
0.0
 40
0.0
 40
0.0
 40
0.25
 40
0.25
 40
0.25
 40
0.25
 40
0.5
 40
0.5
 40
0.5
 40
0.5
 40
1.0
 40
1.0
 40
1.0
 40
1.0
 10
-19.505
 20
-8.9359
 30
0.0
 10
-19.36172
 20
-9.12537
 30
0.0
 10
-19.21845
 20
-9.31484
 30
0.0
 10
-19.12962
 20
-9.52641
 30
0.0
 10
-19.12962
 20
-9.52641
 30
0.0
 10
-18.98754
 20
-9.86482
 30
0.0
 10
-18.98476
 20
-10.25978
 30
0.0
 10
-18.89527
 20
-10.62082
 30
0.0
 10
-18.89527
 20
-10.62082
 30
0.0
 10
-18.74481
 20
-11.22786
 30
0.0
 10
-18.34924
 20
-11.739
 30
0.0
 10
-17.95366
 20
-12.25014
 30
0.0
  0
SPLINE
  5
ED
330
1F
100
AcDbEntity
  8
layer 1
 62
     3
370
     9
100
AcDbSpline
210
0.0
220
0.0
230
1.0
 70
     8
 71
     3
 72
    16
 73
    12
 74
     0
 42
0.000000001
 43
0.0000000001
 40
0.0
 40
0.0
 40
0.0
 40
0.0
 40
0.25
 40
0.25
 40
0.25
 40
0.25
 40
0.5
 40
0.5
 40
0.5
 40
0.5
 40
1.0
 40
1.0
 40
1.0
 40
1.0
 10
-20.24541
 20
-5.3396
 30
0.0
 10
-20.25872
 20
-5.67995
 30
0.0
 10
-20.27202
 20
-6.02029
 30
0.0
 10
-20.45537
 20
-6.10676
 30
0.0
 10
-20.45537
 20
-6.10676
 30
0.0
 10
-20.61249
 20
-6.18087
 30
0.0
 10
-20.8945
 20
-6.06852
 30
0.0
 10
-21.13593
 20
-6.06877
 30
0.0
 10
-21.13593
 20
-6.06877
 30
0.0
 10
-21.385
 20
-6.06902
 30
0.0
 10
-21.59088
 20
-6.18911
 30
0.0
 10
-21.79676
 20
-6.30919
 30
0.0
  0
SPLINE
  5
EE
330
1F
100
AcDbEntity
  8
layer 1
 62
     3
370
     9
100
AcDbSpline
210
0.0
220
0.0
230
1.0
 70
     8
 71
     3
 72
    16
 73
    12
 74
     0
 42
0.000000001
 43
0.0000000001
 40
0.0
 40
0.0
 40
0.0
 40
0.0
 40
0.25
 40
0.25
 40
0.25
 40
0.25
 40
0.5
 40
0.5
 40
0.5
 40
0.5
 40
1.0
 40
1.0
 40
1.0
 40
1.0
 10
-18.53541
 20
-5.86847
 30
0.0
 10
-18.63057
 20
-6.14637
 30
0.0
 10
-18.72574
 20
-6.42427
 30
0.0
 10
-18.79433
 20
-6.72045
 30
0.0
 10
-18.79433
 20
-6.72045
 30
0.0
 10
-18.86381
 20
-7.02046
 30
0.0
 10
-18.90604
 20
-7.33922
 30
0.0
 10
-18.83968
 20
-7.62125
 30
0.0
 10
-18.83968
 20
-7.62125
 30
0.0
 10
-18.74207
 20
-8.03606
 30
0.0
 10
-18.40956
 20
-8.37139
 30
0.0
 10
-18.07706
 20
-8.70673
 30
0.0
  0
SPLINE
  5
EF
330
1F
100
AcDbEntity
  8
layer 1
 62
     3
370
     9
100
AcDbSpline
210
0.0
220
0.0
230
1.0
 70
    24
 71
     3
 72
     8
 73
     4
 74
     0
 42
0.000000001
 43
0.0000000001
 40
0.0
 40
0.0
 40
0.0
 40
0.0
 40
1.0
 40
1.0
 40
1.0
 40
1.0
 10
-21.12686
 20
-3.6296
 30
0.0
 10
-21.12686
 20
-3.6296
 30
0.0
 10
-20.24541
 20
-5.3396
 30
0.0
 10
-20.24541
 20
-5.3396
 30
0.0
  0
IMAGE
  5
F2
330
1F
100
AcDbEntity
  8
layer 1
 62
     3
 92
      140
310
8C000000010000008400000006000000050000006A8AE857FDEB73C08DB6280C6410704000000000000000006A8AE857FDEB73C01CD429FDA7FC6F4000000000000000000F35C174EEDB73C01CD429FDA7FC6F4000000000000000000F35C174EEDB73C08DB6280C6410704000000000000000006A8AE857FDEB73C08DB628
310
0C641070400000000000000000
100
AcDbRasterImage
 90
        0
 10
-314.38901
 20
178.22683
 30
0.0
 11
0.01389134781772736
 21
0.0
 31
0.0
 12
0.0
 22
0.01388926520847573
 32
0.0
 13
5201.0
 23
5852.0
340
F1
 70
     7
280
     1
281
    50
282
    50
283
     0
360
F3
 71
     1
 91
        2
 14
-314.38901
 24
178.22683
 14
-242.14011
 24
259.50681
  0
ENDSEC
  0
SECTION
  2
OBJECTS
  0
DICTIONARY
  5
C
330
0
100
AcDbDictionary
281
     1
  3
ACAD_DETAILVIEWSTYLE
350
12F
  3
ACAD_GROUP
350
D
  3
ACAD_IMAGE_DICT
350
F0
  3
ACAD_LAYOUT
350
1A
  3
ACAD_MATERIAL
350
43
  3
ACAD_MLEADERSTYLE
350
6B
  3
ACAD_MLINESTYLE
350
17
  3
ACAD_PLOTSETTINGS
350
19
  3
ACAD_PLOTSTYLENAME
350
E
  3
ACAD_SCALELIST
350
47
  3
ACAD_SECTIONVIEWSTYLE
350
130
  3
ACAD_TABLESTYLE
350
69
  3
ACAD_VISUALSTYLE
350
2A
  3
ACDB_RECOMPOSE_DATA
350
12C
  3
AcDbVariableDictionary
350
F4
  0
SUN
  5
6D
330
29
100
AcDbSun
 90
        1
290
     0
 63
     7
421
 16777215
 40
1.0
291
     1
 91
  2455826
 92
 54000000
292
     0
 70
     2
 71
   256
280
     1
  0
IMAGEDEF_REACTOR
  5
F3
330
F2
100
AcDbRasterImageDefReactor
 90
        2
330
F2
  0
DICTIONARY
  5
12F
102
{ACAD_REACTORS
330
C
102
}
330
C
100
AcDbDictionary
281
     1
  0
DICTIONARY
  5
D
102
{ACAD_REACTORS
330
C
102
}
330
C
100
AcDbDictionary
281
     1
  0
DICTIONARY
  5
F0
102
{ACAD_REACTORS
330
C
102
}
330
C
100
AcDbDictionary
281
     1
  3
Image #1
350
F1
  0
DICTIONARY
  5
1A
102
{ACAD_REACTORS
330
C
102
}
330
C
100
AcDbDictionary
281
     1
  3
Layout1
350
1E
  3
Layout2
350
26
  3
Model
350
22
  0
DICTIONARY
  5
43
102
{ACAD_REACTORS
330
C
102
}
330
C
100
AcDbDictionary
281
     1
  3
ByBlock
350
45
  3
ByLayer
350
44
  3
Global
350
46
  0
DICTIONARY
  5
6B
102
{ACAD_REACTORS
330
C
102
}
330
C
100
AcDbDictionary
281
     1
  3
Standard
350
6C
  0
DICTIONARY
  5
17
102
{ACAD_REACTORS
330
C
102
}
330
C
100
AcDbDictionary
281
     1
  3
Standard
350
18
  0
DICTIONARY
  5
19
102
{ACAD_REACTORS
330
C
102
}
330
C
100
AcDbDictionary
281
     1
  0
ACDBDICTIONARYWDFLT
  5
E
102
{ACAD_REACTORS
330
C
102
}
330
C
100
AcDbDictionary
281
     1
  3
Normal
350
F
100
AcDbDictionaryWithDefault
340
F
  0
DICTIONARY
  5
47
102
{ACAD_REACTORS
330
C
102
}
330
C
100
AcDbDictionary
281
     1
  3
A0
350
48
  3
A1
350
49
  3
A2
350
4A
  3
A3
350
4B
  3
A4
350
4C
  3
A5
350
4D
  3
A6
350
4E
  3
A7
350
4F
  3
A8
350
50
  3
A9
350
51
  3
B0
350
52
  3
B1
350
53
  3
B2
350
54
  3
B3
350
55
  3
B4
350
56
  3
B5
350
57
  3
B6
350
58
  3
B7
350
59
  3
B8
350
5A
  3
B9
350
5B
  3
C0
350
5C
  3
C1
350
5D
  3
C2
350
5E
  3
C3
350
5F
  3
C4
350
60
  3
C5
350
61
  3
C6
350
62
  3
C7
350
63
  3
C8
350
64
  3
C9
350
65
  3
D0
350
66
  3
D1
350
67
  3
D2
350
68
  0
DICTIONARY
  5
130
102
{ACAD_REACTORS
330
C
102
}
330
C
100
AcDbDictionary
281
     1
  0
DICTIONARY
  5
69
102
{ACAD_REACTORS
330
C
102
}
330
C
100
AcDbDictionary
281
     1
  3
Standard
350
6A
  0
DICTIONARY
  5
2A
102
{ACAD_REACTORS
330
C
102
}
330
C
100
AcDbDictionary
281
     1
  3
2dWireframe
350
2F
  3
Basic
350
32
  3
Brighten
350
36
  3
ColorChange
350
3A
  3
Conceptual
350
34
  3
Dim
350
35
  3
EdgeColorOff
350
3D
  3
Facepattern
350
39
  3
Flat
350
2B
  3
FlatWithEdges
350
2C
  3
Gouraud
350
2D
  3
GouraudWithEdges
350
2E
  3
Hidden
350
31
  3
JitterOff
350
3B
  3
Linepattern
350
38
  3
OverhangOff
350
3C
  3
Realistic
350
33
  3
Shaded
350
42
  3
Shaded with edges
350
41
  3
Shades of Gray
350
3E
  3
Sketchy
350
3F
  3
Thicken
350
37
  3
Wireframe
350
30
  3
X-Ray
350
40
  0
XRECORD
  5
12C
102
{ACAD_REACTORS
330
C
102
}
330
C
100
AcDbXrecord
280
     1
 90
        1
330
6A
  0
DICTIONARY
  5
F4
102
{ACAD_REACTORS
330
C
102
}
330
C
100
AcDbDictionary
281
     1
  3
CANNOSCALE
350
F5
  3
CMLEADERSTYLE
350
12E
  3
CTABLESTYLE
350
12D
  3
XCLIPFRAME
350
F6
  0
IMAGEDEF
  5
F1
102
{ACAD_REACTORS
330
F0
330
F3
102
}
330
F0
100
AcDbRasterImageDef
 90
        0
  1
C:\Users\TH\Downloads\Hide_ACD_0.jpg
 10
5201.0
 20
5852.0
 11
0.000192270717169775
 21
0.000192270717169775
280
     1
281
     5
  0
LAYOUT
  5
1E
102
{ACAD_REACTORS
330
1A
102
}
330
1A
100
AcDbPlotSettings
  1

  2
none_device
  4

  6

 40
0.0
 41
0.0
 42
0.0
 43
0.0
 44
0.0
 45
0.0
 46
0.0
 47
0.0
 48
0.0
 49
0.0
140
0.0
141
0.0
142
1.0
143
1.0
 70
   688
 72
     0
 73
     0
 74
     5
  7

 75
    16
 76
     0
 77
     2
 78
   300
147
1.0
148
0.0
149
0.0
100
AcDbLayout
  1
Layout1
 70
     1
 71
     1
 10
0.0
 20
0.0
 11
12.0
 21
9.0
 12
0.0
 22
0.0
 32
0.0
 14
1.000000000000000E+20
 24
1.000000000000000E+20
 34
1.000000000000000E+20
 15
-1.000000000000000E+20
 25
-1.000000000000000E+20
 35
-1.000000000000000E+20
146
0.0
 13
0.0
 23
0.0
 33
0.0
 16
1.0
 26
0.0
 36
0.0
 17
0.0
 27
1.0
 37
0.0
 76
     0
330
1B
  0
LAYOUT
  5
26
102
{ACAD_REACTORS
330
1A
102
}
330
1A
100
AcDbPlotSettings
  1

  2
none_device
  4

  6

 40
0.0
 41
0.0
 42
0.0
 43
0.0
 44
0.0
 45
0.0
 46
0.0
 47
0.0
 48
0.0
 49
0.0
140
0.0
141
0.0
142
1.0
143
1.0
 70
   688
 72
     0
 73
     0
 74
     5
  7

 75
    16
 76
     0
 77
     2
 78
   300
147
1.0
148
0.0
149
0.0
100
AcDbLayout
  1
Layout2
 70
     1
 71
     2
 10
0.0
 20
0.0
 11
0.0
 21
0.0
 12
0.0
 22
0.0
 32
0.0
 14
0.0
 24
0.0
 34
0.0
 15
0.0
 25
0.0
 35
0.0
146
0.0
 13
0.0
 23
0.0
 33
0.0
 16
1.0
 26
0.0
 36
0.0
 17
0.0
 27
1.0
 37
0.0
 76
     0
330
23
  0
LAYOUT
  5
22
102
{ACAD_REACTORS
330
1A
102
}
330
1A
100
AcDbPlotSettings
  1

  2
none_device
  4
Letter_(8.50_x_11.00_Inches)
  6

 40
6.35
 41
6.35
 42
6.35000508
 43
6.35000508
 44
215.9
 45
279.4
 46
0.0
 47
0.0
 48
0.0
 49
0.0
140
0.0
141
0.0
142
1.0
143
1.0
 70
  1712
 72
     0
 73
     0
 74
     0
  7

 75
     0
 76
     0
 77
     2
 78
   300
147
1.0
148
0.0
149
0.0
100
AcDbLayout
  1
Model
 70
     1
 71
     0
 10
0.0
 20
0.0
 11
12.0
 21
9.0
 12
0.0
 22
0.0
 32
0.0
 14
-314.38901
 24
-28.47787
 34
0.0
 15
34.01959
 25
259.50681
 35
0.0
146
0.0
 13
0.0
 23
0.0
 33
0.0
 16
1.0
 26
0.0
 36
0.0
 17
0.0
 27
1.0
 37
0.0
 76
     0
330
1F
331
29
  0
MATERIAL
  5
45
102
{ACAD_REACTORS
330
43
102
}
330
43
100
AcDbMaterial
  1
ByBlock
 72
     1
 94
      127
  0
MATERIAL
  5
44
102
{ACAD_REACTORS
330
43
102
}
330
43
100
AcDbMaterial
  1
ByLayer
 72
     1
 94
      127
  0
MATERIAL
  5
46
102
{ACAD_REACTORS
330
43
102
}
330
43
100
AcDbMaterial
  1
Global
 72
     1
 94
      127
  0
MLEADERSTYLE
  5
6C
102
{ACAD_REACTORS
330
6B
102
}
102
{ACAD_XDICTIONARY
360
12A
102
}
330
6B
100
AcDbMLeaderStyle
170
     2
171
     1
172
     0
 90
        2
 40
0.0
 41
0.0
173
     1
 91
-1056964608
340
14
 92
       -2
290
     1
 42
0.09
291
     1
 43
0.36
  3
Standard
341
0
 44
0.18
300

342
11
174
     1
178
     6
175
     1
176
     0
 93
-1056964608
 45
0.18
292
     0
297
     0
 46
0.18
343
0
 94
-1056964608
 47
1.0
 49
1.0
140
1.0
293
     1
141
0.0
294
     1
177
     0
142
1.0
295
     0
296
     0
143
0.125
1001
ACAD_MLEADERVER
1070
     2
  0
MLINESTYLE
  5
18
102
{ACAD_REACTORS
330
17
102
}
330
17
100
AcDbMlineStyle
  2
Standard
 70
     0
  3

 62
   256
 51
90.0
 52
90.0
 71
     2
 49
0.5
 62
   256
  6
BYLAYER
 49
-0.5
 62
   256
  6
BYLAYER
  0
ACDBPLACEHOLDER
  5
F
102
{ACAD_REACTORS
330
E
102
}
330
E
  0
SCALE
  5
48
102
{ACAD_REACTORS
330
47
102
}
330
47
100
AcDbScale
 70
     0
300
1:1
140
1.0
141
1.0
290
     1
  0
SCALE
  5
49
102
{ACAD_REACTORS
330
47
102
}
330
47
100
AcDbScale
 70
     0
300
1:2
140
1.0
141
2.0
290
     0
  0
SCALE
  5
4A
102
{ACAD_REACTORS
330
47
102
}
330
47
100
AcDbScale
 70
     0
300
1:4
140
1.0
141
4.0
290
     0
  0
SCALE
  5
4B
102
{ACAD_REACTORS
330
47
102
}
330
47
100
AcDbScale
 70
     0
300
1:5
140
1.0
141
5.0
290
     0
  0
SCALE
  5
4C
102
{ACAD_REACTORS
330
47
102
}
330
47
100
AcDbScale
 70
     0
300
1:8
140
1.0
141
8.0
290
     0
  0
SCALE
  5
4D
102
{ACAD_REACTORS
330
47
102
}
330
47
100
AcDbScale
 70
     0
300
1:10
140
1.0
141
10.0
290
     0
  0
SCALE
  5
4E
102
{ACAD_REACTORS
330
47
102
}
330
47
100
AcDbScale
 70
     0
300
1:16
140
1.0
141
16.0
290
     0
  0
SCALE
  5
4F
102
{ACAD_REACTORS
330
47
102
}
330
47
100
AcDbScale
 70
     0
300
1:20
140
1.0
141
20.0
290
     0
  0
SCALE
  5
50
102
{ACAD_REACTORS
330
47
102
}
330
47
100
AcDbScale
 70
     0
300
1:30
140
1.0
141
30.0
290
     0
  0
SCALE
  5
51
102
{ACAD_REACTORS
330
47
102
}
330
47
100
AcDbScale
 70
     0
300
1:40
140
1.0
141
40.0
290
     0
  0
SCALE
  5
52
102
{ACAD_REACTORS
330
47
102
}
330
47
100
AcDbScale
 70
     0
300
1:50
140
1.0
141
50.0
290
     0
  0
SCALE
  5
53
102
{ACAD_REACTORS
330
47
102
}
330
47
100
AcDbScale
 70
     0
300
1:100
140
1.0
141
100.0
290
     0
  0
SCALE
  5
54
102
{ACAD_REACTORS
330
47
102
}
330
47
100
AcDbScale
 70
     0
300
2:1
140
2.0
141
1.0
290
     0
  0
SCALE
  5
55
102
{ACAD_REACTORS
330
47
102
}
330
47
100
AcDbScale
 70
     0
300
4:1
140
4.0
141
1.0
290
     0
  0
SCALE
  5
56
102
{ACAD_REACTORS
330
47
102
}
330
47
100
AcDbScale
 70
     0
300
8:1
140
8.0
141
1.0
290
     0
  0
SCALE
  5
57
102
{ACAD_REACTORS
330
47
102
}
330
47
100
AcDbScale
 70
     0
300
10:1
140
10.0
141
1.0
290
     0
  0
SCALE
  5
58
102
{ACAD_REACTORS
330
47
102
}
330
47
100
AcDbScale
 70
     0
300
100:1
140
100.0
141
1.0
290
     0
  0
SCALE
  5
59
102
{ACAD_REACTORS
330
47
102
}
330
47
100
AcDbScale
 70
     0
300
1/128" = 1'-0"
140
0.0078125
141
12.0
290
     0
  0
SCALE
  5
5A
102
{ACAD_REACTORS
330
47
102
}
330
47
100
AcDbScale
 70
     0
300
1/64" = 1'-0"
140
0.015625
141
12.0
290
     0
  0
SCALE
  5
5B
102
{ACAD_REACTORS
330
47
102
}
330
47
100
AcDbScale
 70
     0
300
1/32" = 1'-0"
140
0.03125
141
12.0
290
     0
  0
SCALE
  5
5C
102
{ACAD_REACTORS
330
47
102
}
330
47
100
AcDbScale
 70
     0
300
1/16" = 1'-0"
140
0.0625
141
12.0
290
     0
  0
SCALE
  5
5D
102
{ACAD_REACTORS
330
47
102
}
330
47
100
AcDbScale
 70
     0
300
3/32" = 1'-0"
140
0.09375
141
12.0
290
     0
  0
SCALE
  5
5E
102
{ACAD_REACTORS
330
47
102
}
330
47
100
AcDbScale
 70
     0
300
1/8" = 1'-0"
140
0.125
141
12.0
290
     0
  0
SCALE
  5
5F
102
{ACAD_REACTORS
330
47
102
}
330
47
100
AcDbScale
 70
     0
300
3/16" = 1'-0"
140
0.1875
141
12.0
290
     0
  0
SCALE
  5
60
102
{ACAD_REACTORS
330
47
102
}
330
47
100
AcDbScale
 70
     0
300
1/4" = 1'-0"
140
0.25
141
12.0
290
     0
  0
SCALE
  5
61
102
{ACAD_REACTORS
330
47
102
}
330
47
100
AcDbScale
 70
     0
300
3/8" = 1'-0"
140
0.375
141
12.0
290
     0
  0
SCALE
  5
62
102
{ACAD_REACTORS
330
47
102
}
330
47
100
AcDbScale
 70
     0
300
1/2" = 1'-0"
140
0.5
141
12.0
290
     0
  0
SCALE
  5
63
102
{ACAD_REACTORS
330
47
102
}
330
47
100
AcDbScale
 70
     0
300
3/4" = 1'-0"
140
0.75
141
12.0
290
     0
  0
SCALE
  5
64
102
{ACAD_REACTORS
330
47
102
}
330
47
100
AcDbScale
 70
     0
300
1" = 1'-0"
140
1.0
141
12.0
290
     0
  0
SCALE
  5
65
102
{ACAD_REACTORS
330
47
102
}
330
47
100
AcDbScale
 70
     0
300
1-1/2" = 1'-0"
140
1.5
141
12.0
290
     0
  0
SCALE
  5
66
102
{ACAD_REACTORS
330
47
102
}
330
47
100
AcDbScale
 70
     0
300
3" = 1'-0"
140
3.0
141
12.0
290
     0
  0
SCALE
  5
67
102
{ACAD_REACTORS
330
47
102
}
330
47
100
AcDbScale
 70
     0
300
6" = 1'-0"
140
6.0
141
12.0
290
     0
  0
SCALE
  5
68
102
{ACAD_REACTORS
330
47
102
}
330
47
100
AcDbScale
 70
     0
300
1'-0" = 1'-0"
140
12.0
141
12.0
290
     0
  0
TABLESTYLE
  5
6A
102
{ACAD_REACTORS
330
69
102
}
102
{ACAD_XDICTIONARY
360
127
102
}
330
69
100
AcDbTableStyle
  3
Standard
 70
     0
 71
     0
 40
0.06
 41
0.06
280
     0
281
     0
  7
Standard
140
0.18
170
     2
 62
     0
 63
   257
283
     0
 90
        4
 91
        0
  1

274
    -2
284
     1
 64
     0
275
    -2
285
     1
 65
     0
276
    -2
286
     1
 66
     0
277
    -2
287
     1
 67
     0
278
    -2
288
     1
 68
     0
279
    -2
289
     1
 69
     0
  7
Standard
140
0.25
170
     5
 62
     0
 63
   257
283
     0
 90
        4
 91
        0
  1

274
    -2
284
     1
 64
     0
275
    -2
285
     1
 65
     0
276
    -2
286
     1
 66
     0
277
    -2
287
     1
 67
     0
278
    -2
288
     1
 68
     0
279
    -2
289
     1
 69
     0
  7
Standard
140
0.18
170
     5
 62
     0
 63
   257
283
     0
 90
        4
 91
        0
  1

274
    -2
284
     1
 64
     0
275
    -2
285
     1
 65
     0
276
    -2
286
     1
 66
     0
277
    -2
287
     1
 67
     0
278
    -2
288
     1
 68
     0
279
    -2
289
     1
 69
     0
  0
VISUALSTYLE
  5
2F
102
{ACAD_REACTORS
330
2A
102
}
102
{ACAD_XDICTIONARY
360
FF
102
}
330
2A
100
AcDbVisualStyle
  2
2dWireframe
 70
     4
 71
     0
 72
     2
 73
     0
 90
        0
 40
0.6
 41
30.0
 62
     5
 63
     7
421
 16777215
 74
     1
 91
        4
 64
     7
 65
   257
 75
     1
175
     1
 42
1.0
 92
        0
 66
   257
 43
1.0
 76
     1
 77
     6
 78
     2
 67
     7
 79
     5
170
     0
171
     0
290
     0
174
     0
 93
        1
 44
0.0
173
     0
291
     0
 45
0.0
  0
VISUALSTYLE
  5
32
102
{ACAD_REACTORS
330
2A
102
}
102
{ACAD_XDICTIONARY
360
105
102
}
330
2A
100
AcDbVisualStyle
  2
Basic
 70
     7
 71
     1
 72
     0
 73
     1
 90
        0
 40
0.6
 41
30.0
 62
     5
 63
     7
421
 16777215
 74
     0
 91
        4
 64
     7
 65
   257
 75
     1
175
     1
 42
1.0
 92
        8
 66
     7
 43
1.0
 76
     1
 77
     6
 78
     2
 67
     7
 79
     5
170
     0
171
     0
290
     0
174
     0
 93
        1
 44
0.0
173
     0
291
     1
 45
0.0
  0
VISUALSTYLE
  5
36
102
{ACAD_REACTORS
330
2A
102
}
102
{ACAD_XDICTIONARY
360
10D
102
}
330
2A
100
AcDbVisualStyle
  2
Brighten
 70
    12
 71
     2
 72
     2
 73
     0
 90
        0
 40
0.6
 41
30.0
 62
     5
 63
     7
421
 16777215
 74
     1
 91
        4
 64
     7
 65
   257
 75
     1
175
     1
 42
1.0
 92
        8
 66
     7
 43
1.0
 76
     1
 77
     6
 78
     2
 67
     7
 79
     5
170
     0
171
     0
290
     0
174
     0
 93
        1
 44
50.0
173
     0
291
     1
 45
0.0
  0
VISUALSTYLE
  5
3A
102
{ACAD_REACTORS
330
2A
102
}
102
{ACAD_XDICTIONARY
360
115
102
}
330
2A
100
AcDbVisualStyle
  2
ColorChange
 70
    16
 71
     2
 72
     2
 73
     3
 90
        0
 40
0.6
 41
30.0
 62
     5
 63
     8
421
  8421504
 74
     1
 91
        4
 64
     7
 65
   257
 75
     1
175
     1
 42
1.0
 92
        8
 66
     8
424
  8421504
 43
1.0
 76
     1
 77
     6
 78
     2
 67
     7
 79
     5
170
     0
171
     0
290
     0
174
     0
 93
        1
 44
0.0
173
     0
291
     1
 45
0.0
  0
VISUALSTYLE
  5
34
102
{ACAD_REACTORS
330
2A
102
}
102
{ACAD_XDICTIONARY
360
109
102
}
330
2A
100
AcDbVisualStyle
  2
Conceptual
 70
     9
 71
     3
 72
     2
 73
     0
 90
        0
 40
0.6
 41
30.0
 62
     5
 63
     7
421
 16777215
 74
     2
 91
        2
 64
     7
 65
   257
 75
     1
175
     1
 42
179.0
 92
        8
 66
     7
 43
1.0
 76
     1
 77
     6
 78
     2
 67
     7
 79
     3
170
     0
171
     0
290
     0
174
     0
 93
        1
 44
0.0
173
     0
291
     0
 45
0.0
  0
VISUALSTYLE
  5
35
102
{ACAD_REACTORS
330
2A
102
}
102
{ACAD_XDICTIONARY
360
10B
102
}
330
2A
100
AcDbVisualStyle
  2
Dim
 70
    11
 71
     2
 72
     2
 73
     0
 90
        0
 40
0.6
 41
30.0
 62
     5
 63
     7
421
 16777215
 74
     1
 91
        4
 64
     7
 65
   257
 75
     1
175
     1
 42
1.0
 92
        8
 66
     7
 43
1.0
 76
     1
 77
     6
 78
     2
 67
     7
 79
     5
170
     0
171
     0
290
     0
174
     0
 93
        1
 44
-50.0
173
     0
291
     1
 45
0.0
  0
VISUALSTYLE
  5
3D
102
{ACAD_REACTORS
330
2A
102
}
102
{ACAD_XDICTIONARY
360
11B
102
}
330
2A
100
AcDbVisualStyle
  2
EdgeColorOff
 70
    22
 71
     2
 72
     2
 73
     0
 90
        0
 40
0.6
 41
30.0
 62
     5
 63
     7
421
 16777215
 74
     1
 91
        4
 64
     7
 65
   257
 75
     1
175
     1
 42
1.0
 92
        8
 66
     7
 43
1.0
 76
     1
 77
     6
 78
     2
 67
     7
 79
     5
170
     0
171
     0
290
     0
174
     0
 93
        1
 44
0.0
173
     0
291
     1
 45
0.0
  0
VISUALSTYLE
  5
39
102
{ACAD_REACTORS
330
2A
102
}
102
{ACAD_XDICTIONARY
360
113
102
}
330
2A
100
AcDbVisualStyle
  2
Facepattern
 70
    15
 71
     2
 72
     2
 73
     0
 90
        0
 40
0.6
 41
30.0
 62
     5
 63
     7
421
 16777215
 74
     1
 91
        4
 64
     7
 65
   257
 75
     1
175
     1
 42
1.0
 92
        8
 66
     7
 43
1.0
 76
     1
 77
     6
 78
     2
 67
     7
 79
     5
170
     0
171
     0
290
     0
174
     0
 93
        1
 44
0.0
173
     0
291
     1
 45
0.0
  0
VISUALSTYLE
  5
2B
102
{ACAD_REACTORS
330
2A
102
}
102
{ACAD_XDICTIONARY
360
F7
102
}
330
2A
100
AcDbVisualStyle
  2
Flat
 70
     0
 71
     2
 72
     1
 73
     1
 90
        2
 40
0.6
 41
30.0
 62
     5
 63
     7
421
 16777215
 74
     0
 91
        0
 64
     7
 65
   257
 75
     1
175
     1
 42
1.0
 92
        8
 66
     7
 43
1.0
 76
     1
 77
     6
 78
     2
 67
     7
 79
     5
170
     0
171
     0
290
     0
174
     0
 93
       13
 44
0.0
173
     0
291
     1
 45
0.0
  0
VISUALSTYLE
  5
2C
102
{ACAD_REACTORS
330
2A
102
}
102
{ACAD_XDICTIONARY
360
F9
102
}
330
2A
100
AcDbVisualStyle
  2
FlatWithEdges
 70
     1
 71
     2
 72
     1
 73
     1
 90
        2
 40
0.6
 41
30.0
 62
     5
 63
     7
421
 16777215
 74
     1
 91
        0
 64
     7
 65
   257
 75
     1
175
     1
 42
1.0
 92
        0
 66
   257
 43
1.0
 76
     1
 77
     6
 78
     2
 67
     7
 79
     5
170
     0
171
     0
290
     0
174
     0
 93
       13
 44
0.0
173
     0
291
     1
 45
0.0
  0
VISUALSTYLE
  5
2D
102
{ACAD_REACTORS
330
2A
102
}
102
{ACAD_XDICTIONARY
360
FB
102
}
330
2A
100
AcDbVisualStyle
  2
Gouraud
 70
     2
 71
     2
 72
     2
 73
     1
 90
        2
 40
0.6
 41
30.0
 62
     5
 63
     7
421
 16777215
 74
     0
 91
        0
 64
     7
 65
   257
 75
     1
175
     1
 42
1.0
 92
        0
 66
     7
 43
1.0
 76
     1
 77
     6
 78
     2
 67
     7
 79
     5
170
     0
171
     0
290
     0
174
     0
 93
       13
 44
0.0
173
     0
291
     1
 45
0.0
  0
VISUALSTYLE
  5
2E
102
{ACAD_REACTORS
330
2A
102
}
102
{ACAD_XDICTIONARY
360
FD
102
}
330
2A
100
AcDbVisualStyle
  2
GouraudWithEdges
 70
     3
 71
     2
 72
     2
 73
     1
 90
        2
 40
0.6
 41
30.0
 62
     5
 63
     7
421
 16777215
 74
     1
 91
        0
 64
     7
 65
   257
 75
     1
175
     1
 42
1.0
 92
        0
 66
   257
 43
1.0
 76
     1
 77
     6
 78
     2
 67
     7
 79
     5
170
     0
171
     0
290
     0
174
     0
 93
       13
 44
0.0
173
     0
291
     1
 45
0.0
  0
VISUALSTYLE
  5
31
102
{ACAD_REACTORS
330
2A
102
}
102
{ACAD_XDICTIONARY
360
103
102
}
330
2A
100
AcDbVisualStyle
  2
Hidden
 70
     6
 71
     1
 72
     2
 73
     2
 90
        0
 40
0.6
 41
30.0
 62
     5
 63
     7
421
 16777215
 74
     2
 91
        2
 64
     7
 65
   257
 75
     2
175
     1
 42
40.0
 92
        0
 66
   257
 43
1.0
 76
     1
 77
     6
 78
     2
 67
     7
 79
     3
170
     0
171
     0
290
     0
174
     0
 93
        1
 44
0.0
173
     0
291
     0
 45
0.0
  0
VISUALSTYLE
  5
3B
102
{ACAD_REACTORS
330
2A
102
}
102
{ACAD_XDICTIONARY
360
117
102
}
330
2A
100
AcDbVisualStyle
  2
JitterOff
 70
    20
 71
     2
 72
     2
 73
     0
 90
        0
 40
0.6
 41
30.0
 62
     5
 63
     7
421
 16777215
 74
     1
 91
        4
 64
     7
 65
   257
 75
     1
175
     1
 42
1.0
 92
       10
 66
     7
 43
1.0
 76
     1
 77
     6
 78
     2
 67
     7
 79
     5
170
     0
171
     0
290
     0
174
     0
 93
        1
 44
0.0
173
     0
291
     1
 45
0.0
  0
VISUALSTYLE
  5
38
102
{ACAD_REACTORS
330
2A
102
}
102
{ACAD_XDICTIONARY
360
111
102
}
330
2A
100
AcDbVisualStyle
  2
Linepattern
 70
    14
 71
     2
 72
     2
 73
     0
 90
        0
 40
0.6
 41
30.0
 62
     5
 63
     7
421
 16777215
 74
     1
 91
        4
 64
     7
 65
   257
 75
     7
175
     7
 42
1.0
 92
        8
 66
     7
 43
1.0
 76
     1
 77
     6
 78
     2
 67
     7
 79
     5
170
     0
171
     0
290
     0
174
     0
 93
        1
 44
0.0
173
     0
291
     1
 45
0.0
  0
VISUALSTYLE
  5
3C
102
{ACAD_REACTORS
330
2A
102
}
102
{ACAD_XDICTIONARY
360
119
102
}
330
2A
100
AcDbVisualStyle
  2
OverhangOff
 70
    21
 71
     2
 72
     2
 73
     0
 90
        0
 40
0.6
 41
30.0
 62
     5
 63
     7
421
 16777215
 74
     1
 91
        4
 64
     7
 65
   257
 75
     1
175
     1
 42
1.0
 92
        9
 66
     7
 43
1.0
 76
     1
 77
     6
 78
     2
 67
     7
 79
     5
170
     0
171
     0
290
     0
174
     0
 93
        1
 44
0.0
173
     0
291
     1
 45
0.0
  0
VISUALSTYLE
  5
33
102
{ACAD_REACTORS
330
2A
102
}
102
{ACAD_XDICTIONARY
360
107
102
}
330
2A
100
AcDbVisualStyle
  2
Realistic
 70
     8
 71
     2
 72
     3
 73
     0
 90
        2
 40
0.6
 41
30.0
 62
     5
 63
     7
421
 16777215
 74
     0
 91
        0
 64
     7
 65
   257
 75
     1
175
     1
 42
1.0
 92
        8
 66
   257
 43
1.0
 76
     1
 77
     6
 78
     2
 67
     7
 79
     3
170
     0
171
     0
290
     0
174
     0
 93
       13
 44
0.0
173
     0
291
     0
 45
0.0
  0
VISUALSTYLE
  5
42
102
{ACAD_REACTORS
330
2A
102
}
102
{ACAD_XDICTIONARY
360
125
102
}
330
2A
100
AcDbVisualStyle
  2
Shaded
 70
    27
 71
     2
 72
     2
 73
     1
 90
        2
 40
0.6
 41
30.0
 62
     5
 63
     7
421
 16777215
 74
     0
 91
        4
 64
     7
 65
   257
 75
     1
175
     1
 42
1.0
 92
        8
 66
   257
 43
1.0
 76
     1
 77
     6
 78
     2
 67
     8
425
  7895160
 79
     3
170
     0
171
     0
290
     0
174
     0
 93
        5
 44
0.0
173
     0
291
     0
 45
0.0
  0
VISUALSTYLE
  5
41
102
{ACAD_REACTORS
330
2A
102
}
102
{ACAD_XDICTIONARY
360
123
102
}
330
2A
100
AcDbVisualStyle
  2
Shaded with edges
 70
    26
 71
     2
 72
     2
 73
     1
 90
        2
 40
0.6
 41
30.0
 62
     5
 63
     7
421
 16777215
 74
     1
 91
       10
 64
     7
 65
   257
 75
     2
175
     1
 42
1.0
 92
        8
 66
   257
 43
1.0
 76
     1
 77
     6
 78
     2
 67
     7
 79
     3
170
     0
171
     0
290
     0
174
     0
 93
        5
 44
0.0
173
     0
291
     0
 45
0.0
  0
VISUALSTYLE
  5
3E
102
{ACAD_REACTORS
330
2A
102
}
102
{ACAD_XDICTIONARY
360
11D
102
}
330
2A
100
AcDbVisualStyle
  2
Shades of Gray
 70
    23
 71
     2
 72
     2
 73
     3
 90
        0
 40
0.6
 41
30.0
 62
     5
 63
     7
421
 16777215
 74
     2
 91
        2
 64
     7
 65
     7
 75
     1
175
     1
 42
40.0
 92
        8
 66
     7
 43
1.0
 76
     1
 77
     6
 78
     2
 67
     7
 79
     3
170
     0
171
     0
290
     0
174
     0
 93
        1
 44
0.0
173
     0
291
     0
 45
0.0
  0
VISUALSTYLE
  5
3F
102
{ACAD_REACTORS
330
2A
102
}
102
{ACAD_XDICTIONARY
360
11F
102
}
330
2A
100
AcDbVisualStyle
  2
Sketchy
 70
    24
 71
     1
 72
     2
 73
     2
 90
        0
 40
0.6
 41
30.0
 62
     5
 63
     7
421
 16777215
 74
     2
 91
        2
 64
     7
 65
     7
 75
     1
175
     1
 42
40.0
 92
       11
 66
     7
 43
1.0
 76
     1
 77
     6
 78
     2
 67
     7
 79
     6
170
     0
171
     0
290
     0
174
     0
 93
        1
 44
0.0
173
     0
291
     0
 45
0.0
  0
VISUALSTYLE
  5
37
102
{ACAD_REACTORS
330
2A
102
}
102
{ACAD_XDICTIONARY
360
10F
102
}
330
2A
100
AcDbVisualStyle
  2
Thicken
 70
    13
 71
     2
 72
     2
 73
     0
 90
        0
 40
0.6
 41
30.0
 62
     5
 63
     7
421
 16777215
 74
     1
 91
        4
 64
     7
 65
   257
 75
     1
175
     1
 42
1.0
 92
       12
 66
     7
 43
1.0
 76
     1
 77
     6
 78
     2
 67
     7
 79
     5
170
     0
171
     0
290
     0
174
     0
 93
        1
 44
0.0
173
     0
291
     1
 45
0.0
  0
VISUALSTYLE
  5
30
102
{ACAD_REACTORS
330
2A
102
}
102
{ACAD_XDICTIONARY
360
101
102
}
330
2A
100
AcDbVisualStyle
  2
Wireframe
 70
     5
 71
     0
 72
     2
 73
     0
 90
        0
 40
0.6
 41
30.0
 62
     5
 63
     7
421
 16777215
 74
     1
 91
        4
 64
     7
 65
   257
 75
     1
175
     1
 42
1.0
 92
        0
 66
   257
 43
1.0
 76
     1
 77
     6
 78
     2
 67
     7
 79
     3
170
     0
171
     0
290
     0
174
     0
 93
        1
 44
0.0
173
     0
291
     0
 45
0.0
  0
VISUALSTYLE
  5
40
102
{ACAD_REACTORS
330
2A
102
}
102
{ACAD_XDICTIONARY
360
121
102
}
330
2A
100
AcDbVisualStyle
  2
X-Ray
 70
    25
 71
     2
 72
     2
 73
     1
 90
        1
 40
0.5
 41
30.0
 62
     5
 63
     7
421
 16777215
 74
     1
 91
        0
 64
     7
 65
   257
 75
     1
175
     1
 42
1.0
 92
        8
 66
     7
 43
1.0
 76
     1
 77
     6
 78
     2
 67
     7
 79
     3
170
     0
171
     0
290
     0
174
     0
 93
       13
 44
0.0
173
     0
291
     0
 45
0.0
  0
DICTIONARYVAR
  5
F5
102
{ACAD_REACTORS
330
F4
102
}
330
F4
100
DictionaryVariables
280
     0
  1
1:1
  0
DICTIONARYVAR
  5
12E
102
{ACAD_REACTORS
330
F4
102
}
330
F4
100
DictionaryVariables
280
     0
  1
Standard
  0
DICTIONARYVAR
  5
12D
102
{ACAD_REACTORS
330
F4
102
}
330
F4
100
DictionaryVariables
280
     0
  1
Standard
  0
DICTIONARYVAR
  5
F6
102
{ACAD_REACTORS
330
F4
102
}
330
F4
100
DictionaryVariables
280
     0
  1
2
  0
DICTIONARY
  5
12A
330
6C
100
AcDbDictionary
280
     1
281
     1
  3
ACAD_XREC_ROUNDTRIP
360
12B
  0
DICTIONARY
  5
127
330
6A
100
AcDbDictionary
280
     1
281
     1
  3
ACAD_ROUNDTRIP_2008_TABLESTYLE_CELLSTYLEMAP
360
128
  0
DICTIONARY
  5
FF
330
2F
100
AcDbDictionary
280
     1
281
     1
  3
ACAD_XREC_ROUNDTRIP
360
100
  0
DICTIONARY
  5
105
330
32
100
AcDbDictionary
280
     1
281
     1
  3
ACAD_XREC_ROUNDTRIP
360
106
  0
DICTIONARY
  5
10D
330
36
100
AcDbDictionary
280
     1
281
     1
  3
ACAD_XREC_ROUNDTRIP
360
10E
  0
DICTIONARY
  5
115
330
3A
100
AcDbDictionary
280
     1
281
     1
  3
ACAD_XREC_ROUNDTRIP
360
116
  0
DICTIONARY
  5
109
330
34
100
AcDbDictionary
280
     1
281
     1
  3
ACAD_XREC_ROUNDTRIP
360
10A
  0
DICTIONARY
  5
10B
330
35
100
AcDbDictionary
280
     1
281
     1
  3
ACAD_XREC_ROUNDTRIP
360
10C
  0
DICTIONARY
  5
11B
330
3D
100
AcDbDictionary
280
     1
281
     1
  3
ACAD_XREC_ROUNDTRIP
360
11C
  0
DICTIONARY
  5
113
330
39
100
AcDbDictionary
280
     1
281
     1
  3
ACAD_XREC_ROUNDTRIP
360
114
  0
DICTIONARY
  5
F7
330
2B
100
AcDbDictionary
280
     1
281
     1
  3
ACAD_XREC_ROUNDTRIP
360
F8
  0
DICTIONARY
  5
F9
330
2C
100
AcDbDictionary
280
     1
281
     1
  3
ACAD_XREC_ROUNDTRIP
360
FA
  0
DICTIONARY
  5
FB
330
2D
100
AcDbDictionary
280
     1
281
     1
  3
ACAD_XREC_ROUNDTRIP
360
FC
  0
DICTIONARY
  5
FD
330
2E
100
AcDbDictionary
280
     1
281
     1
  3
ACAD_XREC_ROUNDTRIP
360
FE
  0
DICTIONARY
  5
103
330
31
100
AcDbDictionary
280
     1
281
     1
  3
ACAD_XREC_ROUNDTRIP
360
104
  0
DICTIONARY
  5
117
330
3B
100
AcDbDictionary
280
     1
281
     1
  3
ACAD_XREC_ROUNDTRIP
360
118
  0
DICTIONARY
  5
111
330
38
100
AcDbDictionary
280
     1
281
     1
  3
ACAD_XREC_ROUNDTRIP
360
112
  0
DICTIONARY
  5
119
330
3C
100
AcDbDictionary
280
     1
281
     1
  3
ACAD_XREC_ROUNDTRIP
360
11A
  0
DICTIONARY
  5
107
330
33
100
AcDbDictionary
280
     1
281
     1
  3
ACAD_XREC_ROUNDTRIP
360
108
  0
DICTIONARY
  5
125
330
42
100
AcDbDictionary
280
     1
281
     1
  3
ACAD_XREC_ROUNDTRIP
360
126
  0
DICTIONARY
  5
123
330
41
100
AcDbDictionary
280
     1
281
     1
  3
ACAD_XREC_ROUNDTRIP
360
124
  0
DICTIONARY
  5
11D
330
3E
100
AcDbDictionary
280
     1
281
     1
  3
ACAD_XREC_ROUNDTRIP
360
11E
  0
DICTIONARY
  5
11F
330
3F
100
AcDbDictionary
280
     1
281
     1
  3
ACAD_XREC_ROUNDTRIP
360
120
  0
DICTIONARY
  5
10F
330
37
100
AcDbDictionary
280
     1
281
     1
  3
ACAD_XREC_ROUNDTRIP
360
110
  0
DICTIONARY
  5
101
330
30
100
AcDbDictionary
280
     1
281
     1
  3
ACAD_XREC_ROUNDTRIP
360
102
  0
DICTIONARY
  5
121
330
40
100
AcDbDictionary
280
     1
281
     1
  3
ACAD_XREC_ROUNDTRIP
360
122
  0
XRECORD
  5
12B
102
{ACAD_REACTORS
330
12A
102
}
330
12A
100
AcDbXrecord
280
     1
102
ACAD_ROUNDTRIP_2010_MLEADER_STYLE
  0
CELLSTYLEMAP
  5
128
102
{ACAD_REACTORS
330
127
102
}
330
127
100
AcDbCellStyleMap
 90
        3
300
CELLSTYLE
  1
TABLEFORMAT_BEGIN
 90
        5
170
     1
 91
        0
 92
    32768
 62
   257
 93
        1
300
CONTENTFORMAT
  1
CONTENTFORMAT_BEGIN
 90
        0
 91
        0
 92
        4
 93
        0
300

 40
0.0
140
1.0
 94
        5
 62
     0
340
11
144
0.25
309
CONTENTFORMAT_END
171
     1
301
MARGIN
  1
CELLMARGIN_BEGIN
 40
0.06
 40
0.06
 40
0.06
 40
0.06
 40
0.06
 40
0.06
309
CELLMARGIN_END
 94
        6
 95
        1
302
GRIDFORMAT
  1
GRIDFORMAT_BEGIN
 90
        0
 91
        1
 62
     0
 92
       -2
340
14
 93
        0
 40
0.045
309
GRIDFORMAT_END
 95
        2
302
GRIDFORMAT
  1
GRIDFORMAT_BEGIN
 90
        0
 91
        1
 62
     0
 92
       -2
340
14
 93
        0
 40
0.045
309
GRIDFORMAT_END
 95
        4
302
GRIDFORMAT
  1
GRIDFORMAT_BEGIN
 90
        0
 91
        1
 62
     0
 92
       -2
340
14
 93
        0
 40
0.045
309
GRIDFORMAT_END
 95
        8
302
GRIDFORMAT
  1
GRIDFORMAT_BEGIN
 90
        0
 91
        1
 62
     0
 92
       -2
340
14
 93
        0
 40
0.045
309
GRIDFORMAT_END
 95
       16
302
GRIDFORMAT
  1
GRIDFORMAT_BEGIN
 90
        0
 91
        1
 62
     0
 92
       -2
340
14
 93
        0
 40
0.045
309
GRIDFORMAT_END
 95
       32
302
GRIDFORMAT
  1
GRIDFORMAT_BEGIN
 90
        0
 91
        1
 62
     0
 92
       -2
340
14
 93
        0
 40
0.045
309
GRIDFORMAT_END
309
TABLEFORMAT_END
  1
CELLSTYLE_BEGIN
 90
        1
 91
        1
300
_TITLE
309
CELLSTYLE_END
300
CELLSTYLE
  1
TABLEFORMAT_BEGIN
 90
        5
170
     1
 91
        0
 92
        0
 62
   257
 93
        1
300
CONTENTFORMAT
  1
CONTENTFORMAT_BEGIN
 90
        0
 91
        0
 92
        4
 93
        0
300

 40
0.0
140
1.0
 94
        5
 62
     0
340
11
144
0.18
309
CONTENTFORMAT_END
171
     1
301
MARGIN
  1
CELLMARGIN_BEGIN
 40
0.06
 40
0.06
 40
0.06
 40
0.06
 40
0.06
 40
0.06
309
CELLMARGIN_END
 94
        6
 95
        1
302
GRIDFORMAT
  1
GRIDFORMAT_BEGIN
 90
        0
 91
        1
 62
     0
 92
       -2
340
14
 93
        0
 40
0.045
309
GRIDFORMAT_END
 95
        2
302
GRIDFORMAT
  1
GRIDFORMAT_BEGIN
 90
        0
 91
        1
 62
     0
 92
       -2
340
14
 93
        0
 40
0.045
309
GRIDFORMAT_END
 95
        4
302
GRIDFORMAT
  1
GRIDFORMAT_BEGIN
 90
        0
 91
        1
 62
     0
 92
       -2
340
14
 93
        0
 40
0.045
309
GRIDFORMAT_END
 95
        8
302
GRIDFORMAT
  1
GRIDFORMAT_BEGIN
 90
        0
 91
        1
 62
     0
 92
       -2
340
14
 93
        0
 40
0.045
309
GRIDFORMAT_END
 95
       16
302
GRIDFORMAT
  1
GRIDFORMAT_BEGIN
 90
        0
 91
        1
 62
     0
 92
       -2
340
14
 93
        0
 40
0.045
309
GRIDFORMAT_END
 95
       32
302
GRIDFORMAT
  1
GRIDFORMAT_BEGIN
 90
        0
 91
        1
 62
     0
 92
       -2
340
14
 93
        0
 40
0.045
309
GRIDFORMAT_END
309
TABLEFORMAT_END
  1
CELLSTYLE_BEGIN
 90
        2
 91
        1
300
_HEADER
309
CELLSTYLE_END
300
CELLSTYLE
  1
TABLEFORMAT_BEGIN
 90
        5
170
     1
 91
        0
 92
        0
 62
   257
 93
        1
300
CONTENTFORMAT
  1
CONTENTFORMAT_BEGIN
 90
        0
 91
        0
 92
        4
 93
        0
300

 40
0.0
140
1.0
 94
        2
 62
     0
340
11
144
0.18
309
CONTENTFORMAT_END
171
     1
301
MARGIN
  1
CELLMARGIN_BEGIN
 40
0.06
 40
0.06
 40
0.06
 40
0.06
 40
0.06
 40
0.06
309
CELLMARGIN_END
 94
        6
 95
        1
302
GRIDFORMAT
  1
GRIDFORMAT_BEGIN
 90
        0
 91
        1
 62
     0
 92
       -2
340
14
 93
        0
 40
0.045
309
GRIDFORMAT_END
 95
        2
302
GRIDFORMAT
  1
GRIDFORMAT_BEGIN
 90
        0
 91
        1
 62
     0
 92
       -2
340
14
 93
        0
 40
0.045
309
GRIDFORMAT_END
 95
        4
302
GRIDFORMAT
  1
GRIDFORMAT_BEGIN
 90
        0
 91
        1
 62
     0
 92
       -2
340
14
 93
        0
 40
0.045
309
GRIDFORMAT_END
 95
        8
302
GRIDFORMAT
  1
GRIDFORMAT_BEGIN
 90
        0
 91
        1
 62
     0
 92
       -2
340
14
 93
        0
 40
0.045
309
GRIDFORMAT_END
 95
       16
302
GRIDFORMAT
  1
GRIDFORMAT_BEGIN
 90
        0
 91
        1
 62
     0
 92
       -2
340
14
 93
        0
 40
0.045
309
GRIDFORMAT_END
 95
       32
302
GRIDFORMAT
  1
GRIDFORMAT_BEGIN
 90
        0
 91
        1
 62
     0
 92
       -2
340
14
 93
        0
 40
0.045
309
GRIDFORMAT_END
309
TABLEFORMAT_END
  1
CELLSTYLE_BEGIN
 90
        3
 91
        2
300
_DATA
309
CELLSTYLE_END
  0
XRECORD
  5
100
102
{ACAD_REACTORS
330
FF
102
}
330
FF
100
AcDbXrecord
280
     1
102
RTVSPropertyOp0
 70
     1
102
RTVSPropertyOp1
 70
     1
102
RTVSPropertyOp2
 70
     1
102
RTVSPropertyOp3
 70
     1
102
RTVSPropertyOp4
 70
     1
102
RTVSPropertyOp5
 70
     1
102
RTVSPropertyOp6
 70
     1
102
RTVSPropertyOp7
 70
     1
102
RTVSPropertyOp8
 70
     1
102
RTVSPropertyOp9
 70
     1
102
RTVSPropertyOp10
 70
     1
102
RTVSPropertyOp11
 70
     1
102
RTVSPropertyOp12
 70
     1
102
RTVSPropertyOp13
 70
     1
102
RTVSPropertyOp14
 70
     1
102
RTVSPropertyOp15
 70
     1
102
RTVSPropertyOp16
 70
     1
102
RTVSPropertyOp17
 70
     1
102
RTVSPropertyOp18
 70
     1
102
RTVSPropertyOp19
 70
     1
102
RTVSPropertyOp20
 70
     1
102
RTVSPropertyOp21
 70
     1
102
RTVSPropertyOp22
 70
     1
102
RTVSPropertyOp23
 70
     1
102
RTVSPropertyOp24
 70
     1
102
RTVSPropertyOp25
 70
     1
102
RTVSPropertyOp26
 70
     1
102
RTVSPropertyOp27
 70
     1
102
RTVSPropertyOp28
 70
     1
102
RTVSPropertyOp29
 70
     1
102
RTVSPropertyOp30
 70
     1
102
RTVSPropertyOp31
 70
     1
102
RTVSPropertyOp32
 70
     1
102
RTVSPropertyOp33
 70
     1
102
RTVSPropertyOp34
 70
     1
102
RTVSPropertyOp35
 70
     1
102
RTVSPropertyOp36
 70
     1
102
RTVSPropertyOp37
 70
     1
102
RTVSPropertyOp38
 70
     1
102
RTVSPropertyOp39
 70
     1
102
RTVSPropertyOp40
 70
     1
102
RTVSPropertyOp41
 70
     1
102
RTVSPropertyOp42
 70
     1
102
RTVSPropertyOp43
 70
     1
102
RTVSPropertyOp44
 70
     1
102
RTVSPropertyOp45
 70
     1
102
RTVSPropertyOp46
 70
     1
102
RTVSPropertyOp47
 70
     1
102
RTVSPropertyOp48
 70
     1
102
RTVSPropertyOp49
 70
     1
102
RTVSPropertyOp50
 70
     1
102
RTVSPropertyOp51
 70
     0
102
RTVSPropertyOp52
 70
     0
102
RTVSPropertyOp53
 70
     1
102
RTVSPropertyOp54
 70
     1
102
RTVSPropertyOp55
 70
     1
102
RTVSPropertyOp56
 70
     1
102
RTVSPropertyOp57
 70
     1
102
RTVSPost2010Prop28
280
     1
102
RTVSPost2010PropOp28
 70
     1
102
RTVSPost2010Prop29
280
     1
102
RTVSPost2010PropOp29
 70
     1
102
RTVSPost2010Prop30
280
     0
102
RTVSPost2010PropOp30
 70
     1
102
RTVSPost2010Prop31
280
     0
102
RTVSPost2010PropOp31
 70
     1
102
RTVSPost2010Prop32
280
     0
102
RTVSPost2010PropOp32
 70
     1
102
RTVSPost2010Prop33
280
     0
102
RTVSPost2010PropOp33
 70
     1
102
RTVSPost2010Prop34
280
     0
102
RTVSPost2010PropOp34
 70
     1
102
RTVSPost2010Prop35
280
     0
102
RTVSPost2010PropOp35
 70
     1
102
RTVSPost2010Prop36
280
     0
102
RTVSPost2010PropOp36
 70
     1
102
RTVSPost2010Prop37
 90
       50
102
RTVSPost2010PropOp37
 70
     1
102
RTVSPost2010Prop38
140
0.0
102
RTVSPost2010PropOp38
 70
     1
102
RTVSPost2010Prop39
140
1.0
102
RTVSPost2010PropOp39
 70
     1
102
RTVSPost2010Prop40
 90
        0
102
RTVSPost2010PropOp40
 70
     1
102
RTVSPost2010Prop41ColorIndex
 90
       18
102
RTVSPost2010Prop41ColorRGB
 90
        0
102
RTVSPost2010PropOp41
 70
     1
102
RTVSPost2010Prop42
 90
       50
102
RTVSPost2010PropOp42
 70
     1
102
RTVSPost2010Prop43
 90
        3
102
RTVSPost2010PropOp43
 70
     1
102
RTVSPost2010Prop44ColorIndex
 90
        5
102
RTVSPost2010Prop44ColorRGB
 90
      255
102
RTVSPost2010PropOp44
 70
     1
102
RTVSPost2010Prop45
280
     0
102
RTVSPost2010PropOp45
 70
     1
102
RTVSPost2010Prop46
 90
       50
102
RTVSPost2010PropOp46
 70
     1
102
RTVSPost2010Prop47
 90
       50
102
RTVSPost2010PropOp47
 70
     1
102
RTVSPost2010Prop48
 90
       50
102
RTVSPost2010PropOp48
 70
     1
102
RTVSPost2010Prop49
280
     0
102
RTVSPost2010PropOp49
 70
     1
102
RTVSPost2010Prop50
 90
       50
102
RTVSPost2010PropOp50
 70
     1
102
RTVSPost2010Prop51ColorIndex
 90
      256
102
RTVSPost2010Prop51ColorRGB
 90
-16777216
102
RTVSPost2010PropOp51
 70
     0
102
RTVSPost2010Prop52
140
1.0
102
RTVSPost2010PropOp52
 70
     0
102
RTVSPost2010Prop53
 90
        2
102
RTVSPost2010PropOp53
 70
     1
102
RTVSPost2010Prop54
  1
strokes_ogs.tif
102
RTVSPost2010PropOp54
 70
     1
102
RTVSPost2010Prop55
280
     0
102
RTVSPost2010PropOp55
 70
     1
102
RTVSPost2010Prop56
140
1.0
102
RTVSPost2010PropOp56
 70
     1
102
RTVSPost2010Prop57
140
1.0
102
RTVSPost2010PropOp57
 70
     1
  0
XRECORD
  5
106
102
{ACAD_REACTORS
330
105
102
}
330
105
100
AcDbXrecord
280
     1
102
RTVSPropertyOp0
 70
     1
102
RTVSPropertyOp1
 70
     1
102
RTVSPropertyOp2
 70
     1
102
RTVSPropertyOp3
 70
     1
102
RTVSPropertyOp4
 70
     1
102
RTVSPropertyOp5
 70
     1
102
RTVSPropertyOp6
 70
     1
102
RTVSPropertyOp7
 70
     1
102
RTVSPropertyOp8
 70
     1
102
RTVSPropertyOp9
 70
     1
102
RTVSPropertyOp10
 70
     1
102
RTVSPropertyOp11
 70
     1
102
RTVSPropertyOp12
 70
     1
102
RTVSPropertyOp13
 70
     1
102
RTVSPropertyOp14
 70
     1
102
RTVSPropertyOp15
 70
     1
102
RTVSPropertyOp16
 70
     1
102
RTVSPropertyOp17
 70
     1
102
RTVSPropertyOp18
 70
     1
102
RTVSPropertyOp19
 70
     1
102
RTVSPropertyOp20
 70
     1
102
RTVSPropertyOp21
 70
     1
102
RTVSPropertyOp22
 70
     1
102
RTVSPropertyOp23
 70
     1
102
RTVSPropertyOp24
 70
     1
102
RTVSPropertyOp25
 70
     1
102
RTVSPropertyOp26
 70
     1
102
RTVSPropertyOp27
 70
     1
102
RTVSPropertyOp28
 70
     1
102
RTVSPropertyOp29
 70
     1
102
RTVSPropertyOp30
 70
     1
102
RTVSPropertyOp31
 70
     1
102
RTVSPropertyOp32
 70
     1
102
RTVSPropertyOp33
 70
     1
102
RTVSPropertyOp34
 70
     1
102
RTVSPropertyOp35
 70
     1
102
RTVSPropertyOp36
 70
     1
102
RTVSPropertyOp37
 70
     1
102
RTVSPropertyOp38
 70
     1
102
RTVSPropertyOp39
 70
     1
102
RTVSPropertyOp40
 70
     1
102
RTVSPropertyOp41
 70
     1
102
RTVSPropertyOp42
 70
     1
102
RTVSPropertyOp43
 70
     1
102
RTVSPropertyOp44
 70
     1
102
RTVSPropertyOp45
 70
     1
102
RTVSPropertyOp46
 70
     1
102
RTVSPropertyOp47
 70
     1
102
RTVSPropertyOp48
 70
     1
102
RTVSPropertyOp49
 70
     1
102
RTVSPropertyOp50
 70
     1
102
RTVSPropertyOp51
 70
     0
102
RTVSPropertyOp52
 70
     0
102
RTVSPropertyOp53
 70
     1
102
RTVSPropertyOp54
 70
     1
102
RTVSPropertyOp55
 70
     1
102
RTVSPropertyOp56
 70
     1
102
RTVSPropertyOp57
 70
     1
102
RTVSPost2010Prop28
280
     0
102
RTVSPost2010PropOp28
 70
     1
102
RTVSPost2010Prop29
280
     1
102
RTVSPost2010PropOp29
 70
     1
102
RTVSPost2010Prop30
280
     1
102
RTVSPost2010PropOp30
 70
     1
102
RTVSPost2010Prop31
280
     0
102
RTVSPost2010PropOp31
 70
     1
102
RTVSPost2010Prop32
280
     0
102
RTVSPost2010PropOp32
 70
     1
102
RTVSPost2010Prop33
280
     0
102
RTVSPost2010PropOp33
 70
     1
102
RTVSPost2010Prop34
280
     0
102
RTVSPost2010PropOp34
 70
     1
102
RTVSPost2010Prop35
280
     0
102
RTVSPost2010PropOp35
 70
     1
102
RTVSPost2010Prop36
280
     0
102
RTVSPost2010PropOp36
 70
     1
102
RTVSPost2010Prop37
 90
       50
102
RTVSPost2010PropOp37
 70
     1
102
RTVSPost2010Prop38
140
0.0
102
RTVSPost2010PropOp38
 70
     1
102
RTVSPost2010Prop39
140
1.0
102
RTVSPost2010PropOp39
 70
     1
102
RTVSPost2010Prop40
 90
        0
102
RTVSPost2010PropOp40
 70
     1
102
RTVSPost2010Prop41ColorIndex
 90
       18
102
RTVSPost2010Prop41ColorRGB
 90
        0
102
RTVSPost2010PropOp41
 70
     1
102
RTVSPost2010Prop42
 90
       50
102
RTVSPost2010PropOp42
 70
     1
102
RTVSPost2010Prop43
 90
        3
102
RTVSPost2010PropOp43
 70
     1
102
RTVSPost2010Prop44ColorIndex
 90
        5
102
RTVSPost2010Prop44ColorRGB
 90
      255
102
RTVSPost2010PropOp44
 70
     1
102
RTVSPost2010Prop45
280
     0
102
RTVSPost2010PropOp45
 70
     1
102
RTVSPost2010Prop46
 90
       50
102
RTVSPost2010PropOp46
 70
     1
102
RTVSPost2010Prop47
 90
       50
102
RTVSPost2010PropOp47
 70
     1
102
RTVSPost2010Prop48
 90
       50
102
RTVSPost2010PropOp48
 70
     1
102
RTVSPost2010Prop49
280
     0
102
RTVSPost2010PropOp49
 70
     1
102
RTVSPost2010Prop50
 90
       50
102
RTVSPost2010PropOp50
 70
     1
102
RTVSPost2010Prop51ColorIndex
 90
      256
102
RTVSPost2010Prop51ColorRGB
 90
-16777216
102
RTVSPost2010PropOp51
 70
     0
102
RTVSPost2010Prop52
140
1.0
102
RTVSPost2010PropOp52
 70
     0
102
RTVSPost2010Prop53
 90
        2
102
RTVSPost2010PropOp53
 70
     1
102
RTVSPost2010Prop54
  1
strokes_ogs.tif
102
RTVSPost2010PropOp54
 70
     1
102
RTVSPost2010Prop55
280
     0
102
RTVSPost2010PropOp55
 70
     1
102
RTVSPost2010Prop56
140
1.0
102
RTVSPost2010PropOp56
 70
     1
102
RTVSPost2010Prop57
140
1.0
102
RTVSPost2010PropOp57
 70
     1
  0
XRECORD
  5
10E
102
{ACAD_REACTORS
330
10D
102
}
330
10D
100
AcDbXrecord
280
     1
102
RTVSPropertyOp0
 70
     1
102
RTVSPropertyOp1
 70
     1
102
RTVSPropertyOp2
 70
     1
102
RTVSPropertyOp3
 70
     1
102
RTVSPropertyOp4
 70
     1
102
RTVSPropertyOp5
 70
     1
102
RTVSPropertyOp6
 70
     1
102
RTVSPropertyOp7
 70
     1
102
RTVSPropertyOp8
 70
     1
102
RTVSPropertyOp9
 70
     1
102
RTVSPropertyOp10
 70
     1
102
RTVSPropertyOp11
 70
     1
102
RTVSPropertyOp12
 70
     1
102
RTVSPropertyOp13
 70
     1
102
RTVSPropertyOp14
 70
     1
102
RTVSPropertyOp15
 70
     1
102
RTVSPropertyOp16
 70
     1
102
RTVSPropertyOp17
 70
     1
102
RTVSPropertyOp18
 70
     1
102
RTVSPropertyOp19
 70
     1
102
RTVSPropertyOp20
 70
     1
102
RTVSPropertyOp21
 70
     1
102
RTVSPropertyOp22
 70
     1
102
RTVSPropertyOp23
 70
     1
102
RTVSPropertyOp24
 70
     1
102
RTVSPropertyOp25
 70
     1
102
RTVSPropertyOp26
 70
     1
102
RTVSPropertyOp27
 70
     1
102
RTVSPropertyOp28
 70
     1
102
RTVSPropertyOp29
 70
     1
102
RTVSPropertyOp30
 70
     1
102
RTVSPropertyOp31
 70
     1
102
RTVSPropertyOp32
 70
     1
102
RTVSPropertyOp33
 70
     1
102
RTVSPropertyOp34
 70
     1
102
RTVSPropertyOp35
 70
     1
102
RTVSPropertyOp36
 70
     1
102
RTVSPropertyOp37
 70
     1
102
RTVSPropertyOp38
 70
     1
102
RTVSPropertyOp39
 70
     1
102
RTVSPropertyOp40
 70
     1
102
RTVSPropertyOp41
 70
     1
102
RTVSPropertyOp42
 70
     1
102
RTVSPropertyOp43
 70
     1
102
RTVSPropertyOp44
 70
     1
102
RTVSPropertyOp45
 70
     1
102
RTVSPropertyOp46
 70
     1
102
RTVSPropertyOp47
 70
     1
102
RTVSPropertyOp48
 70
     1
102
RTVSPropertyOp49
 70
     1
102
RTVSPropertyOp50
 70
     1
102
RTVSPropertyOp51
 70
     0
102
RTVSPropertyOp52
 70
     0
102
RTVSPropertyOp53
 70
     1
102
RTVSPropertyOp54
 70
     1
102
RTVSPropertyOp55
 70
     1
102
RTVSPropertyOp56
 70
     1
102
RTVSPropertyOp57
 70
     1
102
RTVSPost2010Prop28
280
     0
102
RTVSPost2010PropOp28
 70
     1
102
RTVSPost2010Prop29
280
     1
102
RTVSPost2010PropOp29
 70
     1
102
RTVSPost2010Prop30
280
     1
102
RTVSPost2010PropOp30
 70
     1
102
RTVSPost2010Prop31
280
     0
102
RTVSPost2010PropOp31
 70
     1
102
RTVSPost2010Prop32
280
     0
102
RTVSPost2010PropOp32
 70
     1
102
RTVSPost2010Prop33
280
     0
102
RTVSPost2010PropOp33
 70
     1
102
RTVSPost2010Prop34
280
     0
102
RTVSPost2010PropOp34
 70
     1
102
RTVSPost2010Prop35
280
     0
102
RTVSPost2010PropOp35
 70
     1
102
RTVSPost2010Prop36
280
     0
102
RTVSPost2010PropOp36
 70
     1
102
RTVSPost2010Prop37
 90
       50
102
RTVSPost2010PropOp37
 70
     1
102
RTVSPost2010Prop38
140
0.0
102
RTVSPost2010PropOp38
 70
     1
102
RTVSPost2010Prop39
140
1.0
102
RTVSPost2010PropOp39
 70
     1
102
RTVSPost2010Prop40
 90
        0
102
RTVSPost2010PropOp40
 70
     1
102
RTVSPost2010Prop41ColorIndex
 90
       18
102
RTVSPost2010Prop41ColorRGB
 90
        0
102
RTVSPost2010PropOp41
 70
     1
102
RTVSPost2010Prop42
 90
       50
102
RTVSPost2010PropOp42
 70
     1
102
RTVSPost2010Prop43
 90
        3
102
RTVSPost2010PropOp43
 70
     1
102
RTVSPost2010Prop44ColorIndex
 90
        5
102
RTVSPost2010Prop44ColorRGB
 90
      255
102
RTVSPost2010PropOp44
 70
     1
102
RTVSPost2010Prop45
280
     0
102
RTVSPost2010PropOp45
 70
     1
102
RTVSPost2010Prop46
 90
       50
102
RTVSPost2010PropOp46
 70
     1
102
RTVSPost2010Prop47
 90
       50
102
RTVSPost2010PropOp47
 70
     1
102
RTVSPost2010Prop48
 90
       50
102
RTVSPost2010PropOp48
 70
     1
102
RTVSPost2010Prop49
280
     0
102
RTVSPost2010PropOp49
 70
     1
102
RTVSPost2010Prop50
 90
       50
102
RTVSPost2010PropOp50
 70
     1
102
RTVSPost2010Prop51ColorIndex
 90
      256
102
RTVSPost2010Prop51ColorRGB
 90
-16777216
102
RTVSPost2010PropOp51
 70
     0
102
RTVSPost2010Prop52
140
1.0
102
RTVSPost2010PropOp52
 70
     0
102
RTVSPost2010Prop53
 90
        2
102
RTVSPost2010PropOp53
 70
     1
102
RTVSPost2010Prop54
  1
strokes_ogs.tif
102
RTVSPost2010PropOp54
 70
     1
102
RTVSPost2010Prop55
280
     0
102
RTVSPost2010PropOp55
 70
     1
102
RTVSPost2010Prop56
140
1.0
102
RTVSPost2010PropOp56
 70
     1
102
RTVSPost2010Prop57
140
1.0
102
RTVSPost2010PropOp57
 70
     1
  0
XRECORD
  5
116
102
{ACAD_REACTORS
330
115
102
}
330
115
100
AcDbXrecord
280
     1
102
RTVSPropertyOp0
 70
     1
102
RTVSPropertyOp1
 70
     1
102
RTVSPropertyOp2
 70
     1
102
RTVSPropertyOp3
 70
     1
102
RTVSPropertyOp4
 70
     1
102
RTVSPropertyOp5
 70
     1
102
RTVSPropertyOp6
 70
     1
102
RTVSPropertyOp7
 70
     1
102
RTVSPropertyOp8
 70
     1
102
RTVSPropertyOp9
 70
     1
102
RTVSPropertyOp10
 70
     1
102
RTVSPropertyOp11
 70
     1
102
RTVSPropertyOp12
 70
     1
102
RTVSPropertyOp13
 70
     1
102
RTVSPropertyOp14
 70
     1
102
RTVSPropertyOp15
 70
     1
102
RTVSPropertyOp16
 70
     1
102
RTVSPropertyOp17
 70
     1
102
RTVSPropertyOp18
 70
     1
102
RTVSPropertyOp19
 70
     1
102
RTVSPropertyOp20
 70
     1
102
RTVSPropertyOp21
 70
     1
102
RTVSPropertyOp22
 70
     1
102
RTVSPropertyOp23
 70
     1
102
RTVSPropertyOp24
 70
     1
102
RTVSPropertyOp25
 70
     1
102
RTVSPropertyOp26
 70
     1
102
RTVSPropertyOp27
 70
     1
102
RTVSPropertyOp28
 70
     1
102
RTVSPropertyOp29
 70
     1
102
RTVSPropertyOp30
 70
     1
102
RTVSPropertyOp31
 70
     1
102
RTVSPropertyOp32
 70
     1
102
RTVSPropertyOp33
 70
     1
102
RTVSPropertyOp34
 70
     1
102
RTVSPropertyOp35
 70
     1
102
RTVSPropertyOp36
 70
     1
102
RTVSPropertyOp37
 70
     1
102
RTVSPropertyOp38
 70
     1
102
RTVSPropertyOp39
 70
     1
102
RTVSPropertyOp40
 70
     1
102
RTVSPropertyOp41
 70
     1
102
RTVSPropertyOp42
 70
     1
102
RTVSPropertyOp43
 70
     1
102
RTVSPropertyOp44
 70
     1
102
RTVSPropertyOp45
 70
     1
102
RTVSPropertyOp46
 70
     1
102
RTVSPropertyOp47
 70
     1
102
RTVSPropertyOp48
 70
     1
102
RTVSPropertyOp49
 70
     1
102
RTVSPropertyOp50
 70
     1
102
RTVSPropertyOp51
 70
     0
102
RTVSPropertyOp52
 70
     0
102
RTVSPropertyOp53
 70
     1
102
RTVSPropertyOp54
 70
     1
102
RTVSPropertyOp55
 70
     1
102
RTVSPropertyOp56
 70
     1
102
RTVSPropertyOp57
 70
     1
102
RTVSPost2010Prop28
280
     0
102
RTVSPost2010PropOp28
 70
     1
102
RTVSPost2010Prop29
280
     1
102
RTVSPost2010PropOp29
 70
     1
102
RTVSPost2010Prop30
280
     1
102
RTVSPost2010PropOp30
 70
     1
102
RTVSPost2010Prop31
280
     0
102
RTVSPost2010PropOp31
 70
     1
102
RTVSPost2010Prop32
280
     0
102
RTVSPost2010PropOp32
 70
     1
102
RTVSPost2010Prop33
280
     0
102
RTVSPost2010PropOp33
 70
     1
102
RTVSPost2010Prop34
280
     0
102
RTVSPost2010PropOp34
 70
     1
102
RTVSPost2010Prop35
280
     0
102
RTVSPost2010PropOp35
 70
     1
102
RTVSPost2010Prop36
280
     0
102
RTVSPost2010PropOp36
 70
     1
102
RTVSPost2010Prop37
 90
       50
102
RTVSPost2010PropOp37
 70
     1
102
RTVSPost2010Prop38
140
0.0
102
RTVSPost2010PropOp38
 70
     1
102
RTVSPost2010Prop39
140
1.0
102
RTVSPost2010PropOp39
 70
     1
102
RTVSPost2010Prop40
 90
        0
102
RTVSPost2010PropOp40
 70
     1
102
RTVSPost2010Prop41ColorIndex
 90
       18
102
RTVSPost2010Prop41ColorRGB
 90
        0
102
RTVSPost2010PropOp41
 70
     1
102
RTVSPost2010Prop42
 90
       50
102
RTVSPost2010PropOp42
 70
     1
102
RTVSPost2010Prop43
 90
        3
102
RTVSPost2010PropOp43
 70
     1
102
RTVSPost2010Prop44ColorIndex
 90
        5
102
RTVSPost2010Prop44ColorRGB
 90
      255
102
RTVSPost2010PropOp44
 70
     1
102
RTVSPost2010Prop45
280
     0
102
RTVSPost2010PropOp45
 70
     1
102
RTVSPost2010Prop46
 90
       50
102
RTVSPost2010PropOp46
 70
     1
102
RTVSPost2010Prop47
 90
       50
102
RTVSPost2010PropOp47
 70
     1
102
RTVSPost2010Prop48
 90
       50
102
RTVSPost2010PropOp48
 70
     1
102
RTVSPost2010Prop49
280
     0
102
RTVSPost2010PropOp49
 70
     1
102
RTVSPost2010Prop50
 90
       50
102
RTVSPost2010PropOp50
 70
     1
102
RTVSPost2010Prop51ColorIndex
 90
      256
102
RTVSPost2010Prop51ColorRGB
 90
-16777216
102
RTVSPost2010PropOp51
 70
     0
102
RTVSPost2010Prop52
140
1.0
102
RTVSPost2010PropOp52
 70
     0
102
RTVSPost2010Prop53
 90
        2
102
RTVSPost2010PropOp53
 70
     1
102
RTVSPost2010Prop54
  1
strokes_ogs.tif
102
RTVSPost2010PropOp54
 70
     1
102
RTVSPost2010Prop55
280
     0
102
RTVSPost2010PropOp55
 70
     1
102
RTVSPost2010Prop56
140
1.0
102
RTVSPost2010PropOp56
 70
     1
102
RTVSPost2010Prop57
140
1.0
102
RTVSPost2010PropOp57
 70
     1
  0
XRECORD
  5
10A
102
{ACAD_REACTORS
330
109
102
}
330
109
100
AcDbXrecord
280
     1
102
RTVSPropertyOp0
 70
     1
102
RTVSPropertyOp1
 70
     1
102
RTVSPropertyOp2
 70
     1
102
RTVSPropertyOp3
 70
     1
102
RTVSPropertyOp4
 70
     1
102
RTVSPropertyOp5
 70
     1
102
RTVSPropertyOp6
 70
     1
102
RTVSPropertyOp7
 70
     1
102
RTVSPropertyOp8
 70
     1
102
RTVSPropertyOp9
 70
     1
102
RTVSPropertyOp10
 70
     1
102
RTVSPropertyOp11
 70
     1
102
RTVSPropertyOp12
 70
     1
102
RTVSPropertyOp13
 70
     1
102
RTVSPropertyOp14
 70
     1
102
RTVSPropertyOp15
 70
     1
102
RTVSPropertyOp16
 70
     1
102
RTVSPropertyOp17
 70
     1
102
RTVSPropertyOp18
 70
     1
102
RTVSPropertyOp19
 70
     1
102
RTVSPropertyOp20
 70
     1
102
RTVSPropertyOp21
 70
     1
102
RTVSPropertyOp22
 70
     1
102
RTVSPropertyOp23
 70
     1
102
RTVSPropertyOp24
 70
     1
102
RTVSPropertyOp25
 70
     1
102
RTVSPropertyOp26
 70
     1
102
RTVSPropertyOp27
 70
     1
102
RTVSPropertyOp28
 70
     1
102
RTVSPropertyOp29
 70
     1
102
RTVSPropertyOp30
 70
     1
102
RTVSPropertyOp31
 70
     1
102
RTVSPropertyOp32
 70
     1
102
RTVSPropertyOp33
 70
     1
102
RTVSPropertyOp34
 70
     1
102
RTVSPropertyOp35
 70
     1
102
RTVSPropertyOp36
 70
     1
102
RTVSPropertyOp37
 70
     1
102
RTVSPropertyOp38
 70
     1
102
RTVSPropertyOp39
 70
     1
102
RTVSPropertyOp40
 70
     1
102
RTVSPropertyOp41
 70
     1
102
RTVSPropertyOp42
 70
     1
102
RTVSPropertyOp43
 70
     1
102
RTVSPropertyOp44
 70
     1
102
RTVSPropertyOp45
 70
     1
102
RTVSPropertyOp46
 70
     1
102
RTVSPropertyOp47
 70
     1
102
RTVSPropertyOp48
 70
     1
102
RTVSPropertyOp49
 70
     1
102
RTVSPropertyOp50
 70
     1
102
RTVSPropertyOp51
 70
     0
102
RTVSPropertyOp52
 70
     0
102
RTVSPropertyOp53
 70
     1
102
RTVSPropertyOp54
 70
     1
102
RTVSPropertyOp55
 70
     1
102
RTVSPropertyOp56
 70
     1
102
RTVSPropertyOp57
 70
     1
102
RTVSPost2010Prop28
280
     0
102
RTVSPost2010PropOp28
 70
     1
102
RTVSPost2010Prop29
280
     1
102
RTVSPost2010PropOp29
 70
     1
102
RTVSPost2010Prop30
280
     1
102
RTVSPost2010PropOp30
 70
     1
102
RTVSPost2010Prop31
280
     0
102
RTVSPost2010PropOp31
 70
     1
102
RTVSPost2010Prop32
280
     0
102
RTVSPost2010PropOp32
 70
     1
102
RTVSPost2010Prop33
280
     0
102
RTVSPost2010PropOp33
 70
     1
102
RTVSPost2010Prop34
280
     0
102
RTVSPost2010PropOp34
 70
     1
102
RTVSPost2010Prop35
280
     0
102
RTVSPost2010PropOp35
 70
     1
102
RTVSPost2010Prop36
280
     0
102
RTVSPost2010PropOp36
 70
     1
102
RTVSPost2010Prop37
 90
       50
102
RTVSPost2010PropOp37
 70
     1
102
RTVSPost2010Prop38
140
0.0
102
RTVSPost2010PropOp38
 70
     1
102
RTVSPost2010Prop39
140
1.0
102
RTVSPost2010PropOp39
 70
     1
102
RTVSPost2010Prop40
 90
        0
102
RTVSPost2010PropOp40
 70
     1
102
RTVSPost2010Prop41ColorIndex
 90
       18
102
RTVSPost2010Prop41ColorRGB
 90
        0
102
RTVSPost2010PropOp41
 70
     1
102
RTVSPost2010Prop42
 90
       50
102
RTVSPost2010PropOp42
 70
     1
102
RTVSPost2010Prop43
 90
        3
102
RTVSPost2010PropOp43
 70
     1
102
RTVSPost2010Prop44ColorIndex
 90
        5
102
RTVSPost2010Prop44ColorRGB
 90
      255
102
RTVSPost2010PropOp44
 70
     1
102
RTVSPost2010Prop45
280
     0
102
RTVSPost2010PropOp45
 70
     1
102
RTVSPost2010Prop46
 90
       50
102
RTVSPost2010PropOp46
 70
     1
102
RTVSPost2010Prop47
 90
       50
102
RTVSPost2010PropOp47
 70
     1
102
RTVSPost2010Prop48
 90
       50
102
RTVSPost2010PropOp48
 70
     1
102
RTVSPost2010Prop49
280
     0
102
RTVSPost2010PropOp49
 70
     1
102
RTVSPost2010Prop50
 90
       50
102
RTVSPost2010PropOp50
 70
     1
102
RTVSPost2010Prop51ColorIndex
 90
      256
102
RTVSPost2010Prop51ColorRGB
 90
-16777216
102
RTVSPost2010PropOp51
 70
     0
102
RTVSPost2010Prop52
140
1.0
102
RTVSPost2010PropOp52
 70
     0
102
RTVSPost2010Prop53
 90
        2
102
RTVSPost2010PropOp53
 70
     1
102
RTVSPost2010Prop54
  1
strokes_ogs.tif
102
RTVSPost2010PropOp54
 70
     1
102
RTVSPost2010Prop55
280
     0
102
RTVSPost2010PropOp55
 70
     1
102
RTVSPost2010Prop56
140
1.0
102
RTVSPost2010PropOp56
 70
     1
102
RTVSPost2010Prop57
140
1.0
102
RTVSPost2010PropOp57
 70
     1
  0
XRECORD
  5
10C
102
{ACAD_REACTORS
330
10B
102
}
330
10B
100
AcDbXrecord
280
     1
102
RTVSPropertyOp0
 70
     1
102
RTVSPropertyOp1
 70
     1
102
RTVSPropertyOp2
 70
     1
102
RTVSPropertyOp3
 70
     1
102
RTVSPropertyOp4
 70
     1
102
RTVSPropertyOp5
 70
     1
102
RTVSPropertyOp6
 70
     1
102
RTVSPropertyOp7
 70
     1
102
RTVSPropertyOp8
 70
     1
102
RTVSPropertyOp9
 70
     1
102
RTVSPropertyOp10
 70
     1
102
RTVSPropertyOp11
 70
     1
102
RTVSPropertyOp12
 70
     1
102
RTVSPropertyOp13
 70
     1
102
RTVSPropertyOp14
 70
     1
102
RTVSPropertyOp15
 70
     1
102
RTVSPropertyOp16
 70
     1
102
RTVSPropertyOp17
 70
     1
102
RTVSPropertyOp18
 70
     1
102
RTVSPropertyOp19
 70
     1
102
RTVSPropertyOp20
 70
     1
102
RTVSPropertyOp21
 70
     1
102
RTVSPropertyOp22
 70
     1
102
RTVSPropertyOp23
 70
     1
102
RTVSPropertyOp24
 70
     1
102
RTVSPropertyOp25
 70
     1
102
RTVSPropertyOp26
 70
     1
102
RTVSPropertyOp27
 70
     1
102
RTVSPropertyOp28
 70
     1
102
RTVSPropertyOp29
 70
     1
102
RTVSPropertyOp30
 70
     1
102
RTVSPropertyOp31
 70
     1
102
RTVSPropertyOp32
 70
     1
102
RTVSPropertyOp33
 70
     1
102
RTVSPropertyOp34
 70
     1
102
RTVSPropertyOp35
 70
     1
102
RTVSPropertyOp36
 70
     1
102
RTVSPropertyOp37
 70
     1
102
RTVSPropertyOp38
 70
     1
102
RTVSPropertyOp39
 70
     1
102
RTVSPropertyOp40
 70
     1
102
RTVSPropertyOp41
 70
     1
102
RTVSPropertyOp42
 70
     1
102
RTVSPropertyOp43
 70
     1
102
RTVSPropertyOp44
 70
     1
102
RTVSPropertyOp45
 70
     1
102
RTVSPropertyOp46
 70
     1
102
RTVSPropertyOp47
 70
     1
102
RTVSPropertyOp48
 70
     1
102
RTVSPropertyOp49
 70
     1
102
RTVSPropertyOp50
 70
     1
102
RTVSPropertyOp51
 70
     0
102
RTVSPropertyOp52
 70
     0
102
RTVSPropertyOp53
 70
     1
102
RTVSPropertyOp54
 70
     1
102
RTVSPropertyOp55
 70
     1
102
RTVSPropertyOp56
 70
     1
102
RTVSPropertyOp57
 70
     1
102
RTVSPost2010Prop28
280
     0
102
RTVSPost2010PropOp28
 70
     1
102
RTVSPost2010Prop29
280
     1
102
RTVSPost2010PropOp29
 70
     1
102
RTVSPost2010Prop30
280
     1
102
RTVSPost2010PropOp30
 70
     1
102
RTVSPost2010Prop31
280
     0
102
RTVSPost2010PropOp31
 70
     1
102
RTVSPost2010Prop32
280
     0
102
RTVSPost2010PropOp32
 70
     1
102
RTVSPost2010Prop33
280
     0
102
RTVSPost2010PropOp33
 70
     1
102
RTVSPost2010Prop34
280
     0
102
RTVSPost2010PropOp34
 70
     1
102
RTVSPost2010Prop35
280
     0
102
RTVSPost2010PropOp35
 70
     1
102
RTVSPost2010Prop36
280
     0
102
RTVSPost2010PropOp36
 70
     1
102
RTVSPost2010Prop37
 90
       50
102
RTVSPost2010PropOp37
 70
     1
102
RTVSPost2010Prop38
140
0.0
102
RTVSPost2010PropOp38
 70
     1
102
RTVSPost2010Prop39
140
1.0
102
RTVSPost2010PropOp39
 70
     1
102
RTVSPost2010Prop40
 90
        0
102
RTVSPost2010PropOp40
 70
     1
102
RTVSPost2010Prop41ColorIndex
 90
       18
102
RTVSPost2010Prop41ColorRGB
 90
        0
102
RTVSPost2010PropOp41
 70
     1
102
RTVSPost2010Prop42
 90
       50
102
RTVSPost2010PropOp42
 70
     1
102
RTVSPost2010Prop43
 90
        3
102
RTVSPost2010PropOp43
 70
     1
102
RTVSPost2010Prop44ColorIndex
 90
        5
102
RTVSPost2010Prop44ColorRGB
 90
      255
102
RTVSPost2010PropOp44
 70
     1
102
RTVSPost2010Prop45
280
     0
102
RTVSPost2010PropOp45
 70
     1
102
RTVSPost2010Prop46
 90
       50
102
RTVSPost2010PropOp46
 70
     1
102
RTVSPost2010Prop47
 90
       50
102
RTVSPost2010PropOp47
 70
     1
102
RTVSPost2010Prop48
 90
       50
102
RTVSPost2010PropOp48
 70
     1
102
RTVSPost2010Prop49
280
     0
102
RTVSPost2010PropOp49
 70
     1
102
RTVSPost2010Prop50
 90
       50
102
RTVSPost2010PropOp50
 70
     1
102
RTVSPost2010Prop51ColorIndex
 90
      256
102
RTVSPost2010Prop51ColorRGB
 90
-16777216
102
RTVSPost2010PropOp51
 70
     0
102
RTVSPost2010Prop52
140
1.0
102
RTVSPost2010PropOp52
 70
     0
102
RTVSPost2010Prop53
 90
        2
102
RTVSPost2010PropOp53
 70
     1
102
RTVSPost2010Prop54
  1
strokes_ogs.tif
102
RTVSPost2010PropOp54
 70
     1
102
RTVSPost2010Prop55
280
     0
102
RTVSPost2010PropOp55
 70
     1
102
RTVSPost2010Prop56
140
1.0
102
RTVSPost2010PropOp56
 70
     1
102
RTVSPost2010Prop57
140
1.0
102
RTVSPost2010PropOp57
 70
     1
  0
XRECORD
  5
11C
102
{ACAD_REACTORS
330
11B
102
}
330
11B
100
AcDbXrecord
280
     1
102
RTVSPropertyOp0
 70
     0
102
RTVSPropertyOp1
 70
     0
102
RTVSPropertyOp2
 70
     0
102
RTVSPropertyOp3
 70
     0
102
RTVSPropertyOp4
 70
     0
102
RTVSPropertyOp5
 70
     0
102
RTVSPropertyOp6
 70
     0
102
RTVSPropertyOp7
 70
     0
102
RTVSPropertyOp8
 70
     0
102
RTVSPropertyOp9
 70
     0
102
RTVSPropertyOp10
 70
     0
102
RTVSPropertyOp11
 70
     0
102
RTVSPropertyOp12
 70
     0
102
RTVSPropertyOp13
 70
     0
102
RTVSPropertyOp14
 70
     2
102
RTVSPropertyOp15
 70
     0
102
RTVSPropertyOp16
 70
     0
102
RTVSPropertyOp17
 70
     0
102
RTVSPropertyOp18
 70
     0
102
RTVSPropertyOp19
 70
     0
102
RTVSPropertyOp20
 70
     0
102
RTVSPropertyOp21
 70
     0
102
RTVSPropertyOp22
 70
     0
102
RTVSPropertyOp23
 70
     0
102
RTVSPropertyOp24
 70
     0
102
RTVSPropertyOp25
 70
     0
102
RTVSPropertyOp26
 70
     0
102
RTVSPropertyOp27
 70
     0
102
RTVSPropertyOp28
 70
     0
102
RTVSPropertyOp29
 70
     0
102
RTVSPropertyOp30
 70
     0
102
RTVSPropertyOp31
 70
     0
102
RTVSPropertyOp32
 70
     0
102
RTVSPropertyOp33
 70
     0
102
RTVSPropertyOp34
 70
     0
102
RTVSPropertyOp35
 70
     0
102
RTVSPropertyOp36
 70
     0
102
RTVSPropertyOp37
 70
     0
102
RTVSPropertyOp38
 70
     0
102
RTVSPropertyOp39
 70
     0
102
RTVSPropertyOp40
 70
     0
102
RTVSPropertyOp41
 70
     0
102
RTVSPropertyOp42
 70
     0
102
RTVSPropertyOp43
 70
     0
102
RTVSPropertyOp44
 70
     0
102
RTVSPropertyOp45
 70
     0
102
RTVSPropertyOp46
 70
     0
102
RTVSPropertyOp47
 70
     0
102
RTVSPropertyOp48
 70
     0
102
RTVSPropertyOp49
 70
     0
102
RTVSPropertyOp50
 70
     0
102
RTVSPropertyOp51
 70
     0
102
RTVSPropertyOp52
 70
     0
102
RTVSPropertyOp53
 70
     0
102
RTVSPropertyOp54
 70
     0
102
RTVSPropertyOp55
 70
     0
102
RTVSPropertyOp56
 70
     0
102
RTVSPropertyOp57
 70
     0
102
RTVSPost2010Prop28
280
     0
102
RTVSPost2010PropOp28
 70
     0
102
RTVSPost2010Prop29
280
     1
102
RTVSPost2010PropOp29
 70
     0
102
RTVSPost2010Prop30
280
     1
102
RTVSPost2010PropOp30
 70
     0
102
RTVSPost2010Prop31
280
     0
102
RTVSPost2010PropOp31
 70
     0
102
RTVSPost2010Prop32
280
     0
102
RTVSPost2010PropOp32
 70
     0
102
RTVSPost2010Prop33
280
     0
102
RTVSPost2010PropOp33
 70
     0
102
RTVSPost2010Prop34
280
     0
102
RTVSPost2010PropOp34
 70
     0
102
RTVSPost2010Prop35
280
     0
102
RTVSPost2010PropOp35
 70
     0
102
RTVSPost2010Prop36
280
     0
102
RTVSPost2010PropOp36
 70
     0
102
RTVSPost2010Prop37
 90
       50
102
RTVSPost2010PropOp37
 70
     0
102
RTVSPost2010Prop38
140
0.0
102
RTVSPost2010PropOp38
 70
     0
102
RTVSPost2010Prop39
140
1.0
102
RTVSPost2010PropOp39
 70
     0
102
RTVSPost2010Prop40
 90
        0
102
RTVSPost2010PropOp40
 70
     0
102
RTVSPost2010Prop41ColorIndex
 90
       18
102
RTVSPost2010Prop41ColorRGB
 90
        0
102
RTVSPost2010PropOp41
 70
     0
102
RTVSPost2010Prop42
 90
       50
102
RTVSPost2010PropOp42
 70
     0
102
RTVSPost2010Prop43
 90
        3
102
RTVSPost2010PropOp43
 70
     0
102
RTVSPost2010Prop44ColorIndex
 90
        5
102
RTVSPost2010Prop44ColorRGB
 90
      255
102
RTVSPost2010PropOp44
 70
     0
102
RTVSPost2010Prop45
280
     0
102
RTVSPost2010PropOp45
 70
     0
102
RTVSPost2010Prop46
 90
       50
102
RTVSPost2010PropOp46
 70
     0
102
RTVSPost2010Prop47
 90
       50
102
RTVSPost2010PropOp47
 70
     0
102
RTVSPost2010Prop48
 90
       50
102
RTVSPost2010PropOp48
 70
     0
102
RTVSPost2010Prop49
280
     0
102
RTVSPost2010PropOp49
 70
     0
102
RTVSPost2010Prop50
 90
       50
102
RTVSPost2010PropOp50
 70
     0
102
RTVSPost2010Prop51ColorIndex
 90
      256
102
RTVSPost2010Prop51ColorRGB
 90
-16777216
102
RTVSPost2010PropOp51
 70
     0
102
RTVSPost2010Prop52
140
1.0
102
RTVSPost2010PropOp52
 70
     0
102
RTVSPost2010Prop53
 90
        2
102
RTVSPost2010PropOp53
 70
     0
102
RTVSPost2010Prop54
  1
strokes_ogs.tif
102
RTVSPost2010PropOp54
 70
     0
102
RTVSPost2010Prop55
280
     0
102
RTVSPost2010PropOp55
 70
     0
102
RTVSPost2010Prop56
140
1.0
102
RTVSPost2010PropOp56
 70
     0
102
RTVSPost2010Prop57
140
1.0
102
RTVSPost2010PropOp57
 70
     0
  0
XRECORD
  5
114
102
{ACAD_REACTORS
330
113
102
}
330
113
100
AcDbXrecord
280
     1
102
RTVSPropertyOp0
 70
     1
102
RTVSPropertyOp1
 70
     1
102
RTVSPropertyOp2
 70
     1
102
RTVSPropertyOp3
 70
     1
102
RTVSPropertyOp4
 70
     1
102
RTVSPropertyOp5
 70
     1
102
RTVSPropertyOp6
 70
     1
102
RTVSPropertyOp7
 70
     1
102
RTVSPropertyOp8
 70
     1
102
RTVSPropertyOp9
 70
     1
102
RTVSPropertyOp10
 70
     1
102
RTVSPropertyOp11
 70
     1
102
RTVSPropertyOp12
 70
     1
102
RTVSPropertyOp13
 70
     1
102
RTVSPropertyOp14
 70
     1
102
RTVSPropertyOp15
 70
     1
102
RTVSPropertyOp16
 70
     1
102
RTVSPropertyOp17
 70
     1
102
RTVSPropertyOp18
 70
     1
102
RTVSPropertyOp19
 70
     1
102
RTVSPropertyOp20
 70
     1
102
RTVSPropertyOp21
 70
     1
102
RTVSPropertyOp22
 70
     1
102
RTVSPropertyOp23
 70
     1
102
RTVSPropertyOp24
 70
     1
102
RTVSPropertyOp25
 70
     1
102
RTVSPropertyOp26
 70
     1
102
RTVSPropertyOp27
 70
     1
102
RTVSPropertyOp28
 70
     1
102
RTVSPropertyOp29
 70
     1
102
RTVSPropertyOp30
 70
     1
102
RTVSPropertyOp31
 70
     1
102
RTVSPropertyOp32
 70
     1
102
RTVSPropertyOp33
 70
     1
102
RTVSPropertyOp34
 70
     1
102
RTVSPropertyOp35
 70
     1
102
RTVSPropertyOp36
 70
     1
102
RTVSPropertyOp37
 70
     1
102
RTVSPropertyOp38
 70
     1
102
RTVSPropertyOp39
 70
     1
102
RTVSPropertyOp40
 70
     1
102
RTVSPropertyOp41
 70
     1
102
RTVSPropertyOp42
 70
     1
102
RTVSPropertyOp43
 70
     1
102
RTVSPropertyOp44
 70
     1
102
RTVSPropertyOp45
 70
     1
102
RTVSPropertyOp46
 70
     1
102
RTVSPropertyOp47
 70
     1
102
RTVSPropertyOp48
 70
     1
102
RTVSPropertyOp49
 70
     1
102
RTVSPropertyOp50
 70
     1
102
RTVSPropertyOp51
 70
     0
102
RTVSPropertyOp52
 70
     0
102
RTVSPropertyOp53
 70
     1
102
RTVSPropertyOp54
 70
     1
102
RTVSPropertyOp55
 70
     1
102
RTVSPropertyOp56
 70
     1
102
RTVSPropertyOp57
 70
     1
102
RTVSPost2010Prop28
280
     0
102
RTVSPost2010PropOp28
 70
     1
102
RTVSPost2010Prop29
280
     1
102
RTVSPost2010PropOp29
 70
     1
102
RTVSPost2010Prop30
280
     1
102
RTVSPost2010PropOp30
 70
     1
102
RTVSPost2010Prop31
280
     0
102
RTVSPost2010PropOp31
 70
     1
102
RTVSPost2010Prop32
280
     0
102
RTVSPost2010PropOp32
 70
     1
102
RTVSPost2010Prop33
280
     0
102
RTVSPost2010PropOp33
 70
     1
102
RTVSPost2010Prop34
280
     0
102
RTVSPost2010PropOp34
 70
     1
102
RTVSPost2010Prop35
280
     0
102
RTVSPost2010PropOp35
 70
     1
102
RTVSPost2010Prop36
280
     0
102
RTVSPost2010PropOp36
 70
     1
102
RTVSPost2010Prop37
 90
       50
102
RTVSPost2010PropOp37
 70
     1
102
RTVSPost2010Prop38
140
0.0
102
RTVSPost2010PropOp38
 70
     1
102
RTVSPost2010Prop39
140
1.0
102
RTVSPost2010PropOp39
 70
     1
102
RTVSPost2010Prop40
 90
        0
102
RTVSPost2010PropOp40
 70
     1
102
RTVSPost2010Prop41ColorIndex
 90
       18
102
RTVSPost2010Prop41ColorRGB
 90
        0
102
RTVSPost2010PropOp41
 70
     1
102
RTVSPost2010Prop42
 90
       50
102
RTVSPost2010PropOp42
 70
     1
102
RTVSPost2010Prop43
 90
        3
102
RTVSPost2010PropOp43
 70
     1
102
RTVSPost2010Prop44ColorIndex
 90
        5
102
RTVSPost2010Prop44ColorRGB
 90
      255
102
RTVSPost2010PropOp44
 70
     1
102
RTVSPost2010Prop45
280
     0
102
RTVSPost2010PropOp45
 70
     1
102
RTVSPost2010Prop46
 90
       50
102
RTVSPost2010PropOp46
 70
     1
102
RTVSPost2010Prop47
 90
       50
102
RTVSPost2010PropOp47
 70
     1
102
RTVSPost2010Prop48
 90
       50
102
RTVSPost2010PropOp48
 70
     1
102
RTVSPost2010Prop49
280
     0
102
RTVSPost2010PropOp49
 70
     1
102
RTVSPost2010Prop50
 90
       50
102
RTVSPost2010PropOp50
 70
     1
102
RTVSPost2010Prop51ColorIndex
 90
      256
102
RTVSPost2010Prop51ColorRGB
 90
-16777216
102
RTVSPost2010PropOp51
 70
     0
102
RTVSPost2010Prop52
140
1.0
102
RTVSPost2010PropOp52
 70
     0
102
RTVSPost2010Prop53
 90
        2
102
RTVSPost2010PropOp53
 70
     1
102
RTVSPost2010Prop54
  1
strokes_ogs.tif
102
RTVSPost2010PropOp54
 70
     1
102
RTVSPost2010Prop55
280
     0
102
RTVSPost2010PropOp55
 70
     1
102
RTVSPost2010Prop56
140
1.0
102
RTVSPost2010PropOp56
 70
     1
102
RTVSPost2010Prop57
140
1.0
102
RTVSPost2010PropOp57
 70
     1
  0
XRECORD
  5
F8
102
{ACAD_REACTORS
330
F7
102
}
330
F7
100
AcDbXrecord
280
     1
102
RTVSPropertyOp0
 70
     1
102
RTVSPropertyOp1
 70
     1
102
RTVSPropertyOp2
 70
     1
102
RTVSPropertyOp3
 70
     1
102
RTVSPropertyOp4
 70
     1
102
RTVSPropertyOp5
 70
     1
102
RTVSPropertyOp6
 70
     1
102
RTVSPropertyOp7
 70
     1
102
RTVSPropertyOp8
 70
     1
102
RTVSPropertyOp9
 70
     1
102
RTVSPropertyOp10
 70
     1
102
RTVSPropertyOp11
 70
     1
102
RTVSPropertyOp12
 70
     1
102
RTVSPropertyOp13
 70
     1
102
RTVSPropertyOp14
 70
     1
102
RTVSPropertyOp15
 70
     1
102
RTVSPropertyOp16
 70
     1
102
RTVSPropertyOp17
 70
     1
102
RTVSPropertyOp18
 70
     1
102
RTVSPropertyOp19
 70
     1
102
RTVSPropertyOp20
 70
     1
102
RTVSPropertyOp21
 70
     1
102
RTVSPropertyOp22
 70
     1
102
RTVSPropertyOp23
 70
     1
102
RTVSPropertyOp24
 70
     1
102
RTVSPropertyOp25
 70
     1
102
RTVSPropertyOp26
 70
     1
102
RTVSPropertyOp27
 70
     1
102
RTVSPropertyOp28
 70
     1
102
RTVSPropertyOp29
 70
     1
102
RTVSPropertyOp30
 70
     1
102
RTVSPropertyOp31
 70
     1
102
RTVSPropertyOp32
 70
     1
102
RTVSPropertyOp33
 70
     1
102
RTVSPropertyOp34
 70
     1
102
RTVSPropertyOp35
 70
     1
102
RTVSPropertyOp36
 70
     1
102
RTVSPropertyOp37
 70
     1
102
RTVSPropertyOp38
 70
     1
102
RTVSPropertyOp39
 70
     1
102
RTVSPropertyOp40
 70
     1
102
RTVSPropertyOp41
 70
     1
102
RTVSPropertyOp42
 70
     1
102
RTVSPropertyOp43
 70
     1
102
RTVSPropertyOp44
 70
     1
102
RTVSPropertyOp45
 70
     1
102
RTVSPropertyOp46
 70
     1
102
RTVSPropertyOp47
 70
     1
102
RTVSPropertyOp48
 70
     1
102
RTVSPropertyOp49
 70
     1
102
RTVSPropertyOp50
 70
     1
102
RTVSPropertyOp51
 70
     0
102
RTVSPropertyOp52
 70
     0
102
RTVSPropertyOp53
 70
     1
102
RTVSPropertyOp54
 70
     1
102
RTVSPropertyOp55
 70
     1
102
RTVSPropertyOp56
 70
     1
102
RTVSPropertyOp57
 70
     1
102
RTVSPost2010Prop28
280
     0
102
RTVSPost2010PropOp28
 70
     1
102
RTVSPost2010Prop29
280
     1
102
RTVSPost2010PropOp29
 70
     1
102
RTVSPost2010Prop30
280
     1
102
RTVSPost2010PropOp30
 70
     1
102
RTVSPost2010Prop31
280
     0
102
RTVSPost2010PropOp31
 70
     1
102
RTVSPost2010Prop32
280
     0
102
RTVSPost2010PropOp32
 70
     1
102
RTVSPost2010Prop33
280
     0
102
RTVSPost2010PropOp33
 70
     1
102
RTVSPost2010Prop34
280
     0
102
RTVSPost2010PropOp34
 70
     1
102
RTVSPost2010Prop35
280
     0
102
RTVSPost2010PropOp35
 70
     1
102
RTVSPost2010Prop36
280
     0
102
RTVSPost2010PropOp36
 70
     1
102
RTVSPost2010Prop37
 90
       50
102
RTVSPost2010PropOp37
 70
     1
102
RTVSPost2010Prop38
140
0.0
102
RTVSPost2010PropOp38
 70
     1
102
RTVSPost2010Prop39
140
1.0
102
RTVSPost2010PropOp39
 70
     1
102
RTVSPost2010Prop40
 90
        0
102
RTVSPost2010PropOp40
 70
     1
102
RTVSPost2010Prop41ColorIndex
 90
       18
102
RTVSPost2010Prop41ColorRGB
 90
        0
102
RTVSPost2010PropOp41
 70
     1
102
RTVSPost2010Prop42
 90
       50
102
RTVSPost2010PropOp42
 70
     1
102
RTVSPost2010Prop43
 90
        3
102
RTVSPost2010PropOp43
 70
     1
102
RTVSPost2010Prop44ColorIndex
 90
        5
102
RTVSPost2010Prop44ColorRGB
 90
      255
102
RTVSPost2010PropOp44
 70
     1
102
RTVSPost2010Prop45
280
     0
102
RTVSPost2010PropOp45
 70
     1
102
RTVSPost2010Prop46
 90
       50
102
RTVSPost2010PropOp46
 70
     1
102
RTVSPost2010Prop47
 90
       50
102
RTVSPost2010PropOp47
 70
     1
102
RTVSPost2010Prop48
 90
       50
102
RTVSPost2010PropOp48
 70
     1
102
RTVSPost2010Prop49
280
     0
102
RTVSPost2010PropOp49
 70
     1
102
RTVSPost2010Prop50
 90
       50
102
RTVSPost2010PropOp50
 70
     1
102
RTVSPost2010Prop51ColorIndex
 90
      256
102
RTVSPost2010Prop51ColorRGB
 90
-16777216
102
RTVSPost2010PropOp51
 70
     0
102
RTVSPost2010Prop52
140
1.0
102
RTVSPost2010PropOp52
 70
     0
102
RTVSPost2010Prop53
 90
        2
102
RTVSPost2010PropOp53
 70
     1
102
RTVSPost2010Prop54
  1
strokes_ogs.tif
102
RTVSPost2010PropOp54
 70
     1
102
RTVSPost2010Prop55
280
     0
102
RTVSPost2010PropOp55
 70
     1
102
RTVSPost2010Prop56
140
1.0
102
RTVSPost2010PropOp56
 70
     1
102
RTVSPost2010Prop57
140
1.0
102
RTVSPost2010PropOp57
 70
     1
  0
XRECORD
  5
FA
102
{ACAD_REACTORS
330
F9
102
}
330
F9
100
AcDbXrecord
280
     1
102
RTVSPropertyOp0
 70
     1
102
RTVSPropertyOp1
 70
     1
102
RTVSPropertyOp2
 70
     1
102
RTVSPropertyOp3
 70
     1
102
RTVSPropertyOp4
 70
     1
102
RTVSPropertyOp5
 70
     1
102
RTVSPropertyOp6
 70
     1
102
RTVSPropertyOp7
 70
     1
102
RTVSPropertyOp8
 70
     1
102
RTVSPropertyOp9
 70
     1
102
RTVSPropertyOp10
 70
     1
102
RTVSPropertyOp11
 70
     1
102
RTVSPropertyOp12
 70
     1
102
RTVSPropertyOp13
 70
     1
102
RTVSPropertyOp14
 70
     1
102
RTVSPropertyOp15
 70
     1
102
RTVSPropertyOp16
 70
     1
102
RTVSPropertyOp17
 70
     1
102
RTVSPropertyOp18
 70
     1
102
RTVSPropertyOp19
 70
     1
102
RTVSPropertyOp20
 70
     1
102
RTVSPropertyOp21
 70
     1
102
RTVSPropertyOp22
 70
     1
102
RTVSPropertyOp23
 70
     1
102
RTVSPropertyOp24
 70
     1
102
RTVSPropertyOp25
 70
     1
102
RTVSPropertyOp26
 70
     1
102
RTVSPropertyOp27
 70
     1
102
RTVSPropertyOp28
 70
     1
102
RTVSPropertyOp29
 70
     1
102
RTVSPropertyOp30
 70
     1
102
RTVSPropertyOp31
 70
     1
102
RTVSPropertyOp32
 70
     1
102
RTVSPropertyOp33
 70
     1
102
RTVSPropertyOp34
 70
     1
102
RTVSPropertyOp35
 70
     1
102
RTVSPropertyOp36
 70
     1
102
RTVSPropertyOp37
 70
     1
102
RTVSPropertyOp38
 70
     1
102
RTVSPropertyOp39
 70
     1
102
RTVSPropertyOp40
 70
     1
102
RTVSPropertyOp41
 70
     1
102
RTVSPropertyOp42
 70
     1
102
RTVSPropertyOp43
 70
     1
102
RTVSPropertyOp44
 70
     1
102
RTVSPropertyOp45
 70
     1
102
RTVSPropertyOp46
 70
     1
102
RTVSPropertyOp47
 70
     1
102
RTVSPropertyOp48
 70
     1
102
RTVSPropertyOp49
 70
     1
102
RTVSPropertyOp50
 70
     1
102
RTVSPropertyOp51
 70
     0
102
RTVSPropertyOp52
 70
     0
102
RTVSPropertyOp53
 70
     1
102
RTVSPropertyOp54
 70
     1
102
RTVSPropertyOp55
 70
     1
102
RTVSPropertyOp56
 70
     1
102
RTVSPropertyOp57
 70
     1
102
RTVSPost2010Prop28
280
     0
102
RTVSPost2010PropOp28
 70
     1
102
RTVSPost2010Prop29
280
     1
102
RTVSPost2010PropOp29
 70
     1
102
RTVSPost2010Prop30
280
     1
102
RTVSPost2010PropOp30
 70
     1
102
RTVSPost2010Prop31
280
     0
102
RTVSPost2010PropOp31
 70
     1
102
RTVSPost2010Prop32
280
     0
102
RTVSPost2010PropOp32
 70
     1
102
RTVSPost2010Prop33
280
     0
102
RTVSPost2010PropOp33
 70
     1
102
RTVSPost2010Prop34
280
     0
102
RTVSPost2010PropOp34
 70
     1
102
RTVSPost2010Prop35
280
     0
102
RTVSPost2010PropOp35
 70
     1
102
RTVSPost2010Prop36
280
     0
102
RTVSPost2010PropOp36
 70
     1
102
RTVSPost2010Prop37
 90
       50
102
RTVSPost2010PropOp37
 70
     1
102
RTVSPost2010Prop38
140
0.0
102
RTVSPost2010PropOp38
 70
     1
102
RTVSPost2010Prop39
140
1.0
102
RTVSPost2010PropOp39
 70
     1
102
RTVSPost2010Prop40
 90
        0
102
RTVSPost2010PropOp40
 70
     1
102
RTVSPost2010Prop41ColorIndex
 90
       18
102
RTVSPost2010Prop41ColorRGB
 90
        0
102
RTVSPost2010PropOp41
 70
     1
102
RTVSPost2010Prop42
 90
       50
102
RTVSPost2010PropOp42
 70
     1
102
RTVSPost2010Prop43
 90
        3
102
RTVSPost2010PropOp43
 70
     1
102
RTVSPost2010Prop44ColorIndex
 90
        5
102
RTVSPost2010Prop44ColorRGB
 90
      255
102
RTVSPost2010PropOp44
 70
     1
102
RTVSPost2010Prop45
280
     0
102
RTVSPost2010PropOp45
 70
     1
102
RTVSPost2010Prop46
 90
       50
102
RTVSPost2010PropOp46
 70
     1
102
RTVSPost2010Prop47
 90
       50
102
RTVSPost2010PropOp47
 70
     1
102
RTVSPost2010Prop48
 90
       50
102
RTVSPost2010PropOp48
 70
     1
102
RTVSPost2010Prop49
280
     0
102
RTVSPost2010PropOp49
 70
     1
102
RTVSPost2010Prop50
 90
       50
102
RTVSPost2010PropOp50
 70
     1
102
RTVSPost2010Prop51ColorIndex
 90
      256
102
RTVSPost2010Prop51ColorRGB
 90
-16777216
102
RTVSPost2010PropOp51
 70
     0
102
RTVSPost2010Prop52
140
1.0
102
RTVSPost2010PropOp52
 70
     0
102
RTVSPost2010Prop53
 90
        2
102
RTVSPost2010PropOp53
 70
     1
102
RTVSPost2010Prop54
  1
strokes_ogs.tif
102
RTVSPost2010PropOp54
 70
     1
102
RTVSPost2010Prop55
280
     0
102
RTVSPost2010PropOp55
 70
     1
102
RTVSPost2010Prop56
140
1.0
102
RTVSPost2010PropOp56
 70
     1
102
RTVSPost2010Prop57
140
1.0
102
RTVSPost2010PropOp57
 70
     1
  0
XRECORD
  5
FC
102
{ACAD_REACTORS
330
FB
102
}
330
FB
100
AcDbXrecord
280
     1
102
RTVSPropertyOp0
 70
     1
102
RTVSPropertyOp1
 70
     1
102
RTVSPropertyOp2
 70
     1
102
RTVSPropertyOp3
 70
     1
102
RTVSPropertyOp4
 70
     1
102
RTVSPropertyOp5
 70
     1
102
RTVSPropertyOp6
 70
     1
102
RTVSPropertyOp7
 70
     1
102
RTVSPropertyOp8
 70
     1
102
RTVSPropertyOp9
 70
     1
102
RTVSPropertyOp10
 70
     1
102
RTVSPropertyOp11
 70
     1
102
RTVSPropertyOp12
 70
     1
102
RTVSPropertyOp13
 70
     1
102
RTVSPropertyOp14
 70
     1
102
RTVSPropertyOp15
 70
     1
102
RTVSPropertyOp16
 70
     1
102
RTVSPropertyOp17
 70
     1
102
RTVSPropertyOp18
 70
     1
102
RTVSPropertyOp19
 70
     1
102
RTVSPropertyOp20
 70
     1
102
RTVSPropertyOp21
 70
     1
102
RTVSPropertyOp22
 70
     1
102
RTVSPropertyOp23
 70
     1
102
RTVSPropertyOp24
 70
     1
102
RTVSPropertyOp25
 70
     1
102
RTVSPropertyOp26
 70
     1
102
RTVSPropertyOp27
 70
     1
102
RTVSPropertyOp28
 70
     1
102
RTVSPropertyOp29
 70
     1
102
RTVSPropertyOp30
 70
     1
102
RTVSPropertyOp31
 70
     1
102
RTVSPropertyOp32
 70
     1
102
RTVSPropertyOp33
 70
     1
102
RTVSPropertyOp34
 70
     1
102
RTVSPropertyOp35
 70
     1
102
RTVSPropertyOp36
 70
     1
102
RTVSPropertyOp37
 70
     1
102
RTVSPropertyOp38
 70
     1
102
RTVSPropertyOp39
 70
     1
102
RTVSPropertyOp40
 70
     1
102
RTVSPropertyOp41
 70
     1
102
RTVSPropertyOp42
 70
     1
102
RTVSPropertyOp43
 70
     1
102
RTVSPropertyOp44
 70
     1
102
RTVSPropertyOp45
 70
     1
102
RTVSPropertyOp46
 70
     1
102
RTVSPropertyOp47
 70
     1
102
RTVSPropertyOp48
 70
     1
102
RTVSPropertyOp49
 70
     1
102
RTVSPropertyOp50
 70
     1
102
RTVSPropertyOp51
 70
     0
102
RTVSPropertyOp52
 70
     0
102
RTVSPropertyOp53
 70
     1
102
RTVSPropertyOp54
 70
     1
102
RTVSPropertyOp55
 70
     1
102
RTVSPropertyOp56
 70
     1
102
RTVSPropertyOp57
 70
     1
102
RTVSPost2010Prop28
280
     0
102
RTVSPost2010PropOp28
 70
     1
102
RTVSPost2010Prop29
280
     1
102
RTVSPost2010PropOp29
 70
     1
102
RTVSPost2010Prop30
280
     1
102
RTVSPost2010PropOp30
 70
     1
102
RTVSPost2010Prop31
280
     0
102
RTVSPost2010PropOp31
 70
     1
102
RTVSPost2010Prop32
280
     0
102
RTVSPost2010PropOp32
 70
     1
102
RTVSPost2010Prop33
280
     0
102
RTVSPost2010PropOp33
 70
     1
102
RTVSPost2010Prop34
280
     0
102
RTVSPost2010PropOp34
 70
     1
102
RTVSPost2010Prop35
280
     0
102
RTVSPost2010PropOp35
 70
     1
102
RTVSPost2010Prop36
280
     0
102
RTVSPost2010PropOp36
 70
     1
102
RTVSPost2010Prop37
 90
       50
102
RTVSPost2010PropOp37
 70
     1
102
RTVSPost2010Prop38
140
0.0
102
RTVSPost2010PropOp38
 70
     1
102
RTVSPost2010Prop39
140
1.0
102
RTVSPost2010PropOp39
 70
     1
102
RTVSPost2010Prop40
 90
        0
102
RTVSPost2010PropOp40
 70
     1
102
RTVSPost2010Prop41ColorIndex
 90
       18
102
RTVSPost2010Prop41ColorRGB
 90
        0
102
RTVSPost2010PropOp41
 70
     1
102
RTVSPost2010Prop42
 90
       50
102
RTVSPost2010PropOp42
 70
     1
102
RTVSPost2010Prop43
 90
        3
102
RTVSPost2010PropOp43
 70
     1
102
RTVSPost2010Prop44ColorIndex
 90
        5
102
RTVSPost2010Prop44ColorRGB
 90
      255
102
RTVSPost2010PropOp44
 70
     1
102
RTVSPost2010Prop45
280
     0
102
RTVSPost2010PropOp45
 70
     1
102
RTVSPost2010Prop46
 90
       50
102
RTVSPost2010PropOp46
 70
     1
102
RTVSPost2010Prop47
 90
       50
102
RTVSPost2010PropOp47
 70
     1
102
RTVSPost2010Prop48
 90
       50
102
RTVSPost2010PropOp48
 70
     1
102
RTVSPost2010Prop49
280
     0
102
RTVSPost2010PropOp49
 70
     1
102
RTVSPost2010Prop50
 90
       50
102
RTVSPost2010PropOp50
 70
     1
102
RTVSPost2010Prop51ColorIndex
 90
      256
102
RTVSPost2010Prop51ColorRGB
 90
-16777216
102
RTVSPost2010PropOp51
 70
     0
102
RTVSPost2010Prop52
140
1.0
102
RTVSPost2010PropOp52
 70
     0
102
RTVSPost2010Prop53
 90
        2
102
RTVSPost2010PropOp53
 70
     1
102
RTVSPost2010Prop54
  1
strokes_ogs.tif
102
RTVSPost2010PropOp54
 70
     1
102
RTVSPost2010Prop55
280
     0
102
RTVSPost2010PropOp55
 70
     1
102
RTVSPost2010Prop56
140
1.0
102
RTVSPost2010PropOp56
 70
     1
102
RTVSPost2010Prop57
140
1.0
102
RTVSPost2010PropOp57
 70
     1
  0
XRECORD
  5
FE
102
{ACAD_REACTORS
330
FD
102
}
330
FD
100
AcDbXrecord
280
     1
102
RTVSPropertyOp0
 70
     1
102
RTVSPropertyOp1
 70
     1
102
RTVSPropertyOp2
 70
     1
102
RTVSPropertyOp3
 70
     1
102
RTVSPropertyOp4
 70
     1
102
RTVSPropertyOp5
 70
     1
102
RTVSPropertyOp6
 70
     1
102
RTVSPropertyOp7
 70
     1
102
RTVSPropertyOp8
 70
     1
102
RTVSPropertyOp9
 70
     1
102
RTVSPropertyOp10
 70
     1
102
RTVSPropertyOp11
 70
     1
102
RTVSPropertyOp12
 70
     1
102
RTVSPropertyOp13
 70
     1
102
RTVSPropertyOp14
 70
     1
102
RTVSPropertyOp15
 70
     1
102
RTVSPropertyOp16
 70
     1
102
RTVSPropertyOp17
 70
     1
102
RTVSPropertyOp18
 70
     1
102
RTVSPropertyOp19
 70
     1
102
RTVSPropertyOp20
 70
     1
102
RTVSPropertyOp21
 70
     1
102
RTVSPropertyOp22
 70
     1
102
RTVSPropertyOp23
 70
     1
102
RTVSPropertyOp24
 70
     1
102
RTVSPropertyOp25
 70
     1
102
RTVSPropertyOp26
 70
     1
102
RTVSPropertyOp27
 70
     1
102
RTVSPropertyOp28
 70
     1
102
RTVSPropertyOp29
 70
     1
102
RTVSPropertyOp30
 70
     1
102
RTVSPropertyOp31
 70
     1
102
RTVSPropertyOp32
 70
     1
102
RTVSPropertyOp33
 70
     1
102
RTVSPropertyOp34
 70
     1
102
RTVSPropertyOp35
 70
     1
102
RTVSPropertyOp36
 70
     1
102
RTVSPropertyOp37
 70
     1
102
RTVSPropertyOp38
 70
     1
102
RTVSPropertyOp39
 70
     1
102
RTVSPropertyOp40
 70
     1
102
RTVSPropertyOp41
 70
     1
102
RTVSPropertyOp42
 70
     1
102
RTVSPropertyOp43
 70
     1
102
RTVSPropertyOp44
 70
     1
102
RTVSPropertyOp45
 70
     1
102
RTVSPropertyOp46
 70
     1
102
RTVSPropertyOp47
 70
     1
102
RTVSPropertyOp48
 70
     1
102
RTVSPropertyOp49
 70
     1
102
RTVSPropertyOp50
 70
     1
102
RTVSPropertyOp51
 70
     0
102
RTVSPropertyOp52
 70
     0
102
RTVSPropertyOp53
 70
     1
102
RTVSPropertyOp54
 70
     1
102
RTVSPropertyOp55
 70
     1
102
RTVSPropertyOp56
 70
     1
102
RTVSPropertyOp57
 70
     1
102
RTVSPost2010Prop28
280
     0
102
RTVSPost2010PropOp28
 70
     1
102
RTVSPost2010Prop29
280
     1
102
RTVSPost2010PropOp29
 70
     1
102
RTVSPost2010Prop30
280
     1
102
RTVSPost2010PropOp30
 70
     1
102
RTVSPost2010Prop31
280
     0
102
RTVSPost2010PropOp31
 70
     1
102
RTVSPost2010Prop32
280
     0
102
RTVSPost2010PropOp32
 70
     1
102
RTVSPost2010Prop33
280
     0
102
RTVSPost2010PropOp33
 70
     1
102
RTVSPost2010Prop34
280
     0
102
RTVSPost2010PropOp34
 70
     1
102
RTVSPost2010Prop35
280
     0
102
RTVSPost2010PropOp35
 70
     1
102
RTVSPost2010Prop36
280
     0
102
RTVSPost2010PropOp36
 70
     1
102
RTVSPost2010Prop37
 90
       50
102
RTVSPost2010PropOp37
 70
     1
102
RTVSPost2010Prop38
140
0.0
102
RTVSPost2010PropOp38
 70
     1
102
RTVSPost2010Prop39
140
1.0
102
RTVSPost2010PropOp39
 70
     1
102
RTVSPost2010Prop40
 90
        0
102
RTVSPost2010PropOp40
 70
     1
102
RTVSPost2010Prop41ColorIndex
 90
       18
102
RTVSPost2010Prop41ColorRGB
 90
        0
102
RTVSPost2010PropOp41
 70
     1
102
RTVSPost2010Prop42
 90
       50
102
RTVSPost2010PropOp42
 70
     1
102
RTVSPost2010Prop43
 90
        3
102
RTVSPost2010PropOp43
 70
     1
102
RTVSPost2010Prop44ColorIndex
 90
        5
102
RTVSPost2010Prop44ColorRGB
 90
      255
102
RTVSPost2010PropOp44
 70
     1
102
RTVSPost2010Prop45
280
     0
102
RTVSPost2010PropOp45
 70
     1
102
RTVSPost2010Prop46
 90
       50
102
RTVSPost2010PropOp46
 70
     1
102
RTVSPost2010Prop47
 90
       50
102
RTVSPost2010PropOp47
 70
     1
102
RTVSPost2010Prop48
 90
       50
102
RTVSPost2010PropOp48
 70
     1
102
RTVSPost2010Prop49
280
     0
102
RTVSPost2010PropOp49
 70
     1
102
RTVSPost2010Prop50
 90
       50
102
RTVSPost2010PropOp50
 70
     1
102
RTVSPost2010Prop51ColorIndex
 90
      256
102
RTVSPost2010Prop51ColorRGB
 90
-16777216
102
RTVSPost2010PropOp51
 70
     0
102
RTVSPost2010Prop52
140
1.0
102
RTVSPost2010PropOp52
 70
     0
102
RTVSPost2010Prop53
 90
        2
102
RTVSPost2010PropOp53
 70
     1
102
RTVSPost2010Prop54
  1
strokes_ogs.tif
102
RTVSPost2010PropOp54
 70
     1
102
RTVSPost2010Prop55
280
     0
102
RTVSPost2010PropOp55
 70
     1
102
RTVSPost2010Prop56
140
1.0
102
RTVSPost2010PropOp56
 70
     1
102
RTVSPost2010Prop57
140
1.0
102
RTVSPost2010PropOp57
 70
     1
  0
XRECORD
  5
104
102
{ACAD_REACTORS
330
103
102
}
330
103
100
AcDbXrecord
280
     1
102
RTVSPropertyOp0
 70
     1
102
RTVSPropertyOp1
 70
     1
102
RTVSPropertyOp2
 70
     1
102
RTVSPropertyOp3
 70
     1
102
RTVSPropertyOp4
 70
     1
102
RTVSPropertyOp5
 70
     1
102
RTVSPropertyOp6
 70
     1
102
RTVSPropertyOp7
 70
     1
102
RTVSPropertyOp8
 70
     1
102
RTVSPropertyOp9
 70
     1
102
RTVSPropertyOp10
 70
     1
102
RTVSPropertyOp11
 70
     1
102
RTVSPropertyOp12
 70
     1
102
RTVSPropertyOp13
 70
     1
102
RTVSPropertyOp14
 70
     1
102
RTVSPropertyOp15
 70
     1
102
RTVSPropertyOp16
 70
     1
102
RTVSPropertyOp17
 70
     1
102
RTVSPropertyOp18
 70
     1
102
RTVSPropertyOp19
 70
     1
102
RTVSPropertyOp20
 70
     1
102
RTVSPropertyOp21
 70
     1
102
RTVSPropertyOp22
 70
     1
102
RTVSPropertyOp23
 70
     1
102
RTVSPropertyOp24
 70
     1
102
RTVSPropertyOp25
 70
     1
102
RTVSPropertyOp26
 70
     1
102
RTVSPropertyOp27
 70
     1
102
RTVSPropertyOp28
 70
     1
102
RTVSPropertyOp29
 70
     1
102
RTVSPropertyOp30
 70
     1
102
RTVSPropertyOp31
 70
     1
102
RTVSPropertyOp32
 70
     1
102
RTVSPropertyOp33
 70
     1
102
RTVSPropertyOp34
 70
     1
102
RTVSPropertyOp35
 70
     1
102
RTVSPropertyOp36
 70
     1
102
RTVSPropertyOp37
 70
     1
102
RTVSPropertyOp38
 70
     1
102
RTVSPropertyOp39
 70
     1
102
RTVSPropertyOp40
 70
     1
102
RTVSPropertyOp41
 70
     1
102
RTVSPropertyOp42
 70
     1
102
RTVSPropertyOp43
 70
     1
102
RTVSPropertyOp44
 70
     1
102
RTVSPropertyOp45
 70
     1
102
RTVSPropertyOp46
 70
     1
102
RTVSPropertyOp47
 70
     1
102
RTVSPropertyOp48
 70
     1
102
RTVSPropertyOp49
 70
     1
102
RTVSPropertyOp50
 70
     1
102
RTVSPropertyOp51
 70
     0
102
RTVSPropertyOp52
 70
     0
102
RTVSPropertyOp53
 70
     1
102
RTVSPropertyOp54
 70
     1
102
RTVSPropertyOp55
 70
     1
102
RTVSPropertyOp56
 70
     1
102
RTVSPropertyOp57
 70
     1
102
RTVSPost2010Prop28
280
     0
102
RTVSPost2010PropOp28
 70
     1
102
RTVSPost2010Prop29
280
     1
102
RTVSPost2010PropOp29
 70
     1
102
RTVSPost2010Prop30
280
     1
102
RTVSPost2010PropOp30
 70
     1
102
RTVSPost2010Prop31
280
     0
102
RTVSPost2010PropOp31
 70
     1
102
RTVSPost2010Prop32
280
     0
102
RTVSPost2010PropOp32
 70
     1
102
RTVSPost2010Prop33
280
     0
102
RTVSPost2010PropOp33
 70
     1
102
RTVSPost2010Prop34
280
     0
102
RTVSPost2010PropOp34
 70
     1
102
RTVSPost2010Prop35
280
     0
102
RTVSPost2010PropOp35
 70
     1
102
RTVSPost2010Prop36
280
     0
102
RTVSPost2010PropOp36
 70
     1
102
RTVSPost2010Prop37
 90
       50
102
RTVSPost2010PropOp37
 70
     1
102
RTVSPost2010Prop38
140
0.0
102
RTVSPost2010PropOp38
 70
     1
102
RTVSPost2010Prop39
140
1.0
102
RTVSPost2010PropOp39
 70
     1
102
RTVSPost2010Prop40
 90
        0
102
RTVSPost2010PropOp40
 70
     1
102
RTVSPost2010Prop41ColorIndex
 90
       18
102
RTVSPost2010Prop41ColorRGB
 90
        0
102
RTVSPost2010PropOp41
 70
     1
102
RTVSPost2010Prop42
 90
       50
102
RTVSPost2010PropOp42
 70
     1
102
RTVSPost2010Prop43
 90
        3
102
RTVSPost2010PropOp43
 70
     1
102
RTVSPost2010Prop44ColorIndex
 90
        5
102
RTVSPost2010Prop44ColorRGB
 90
      255
102
RTVSPost2010PropOp44
 70
     1
102
RTVSPost2010Prop45
280
     0
102
RTVSPost2010PropOp45
 70
     1
102
RTVSPost2010Prop46
 90
       50
102
RTVSPost2010PropOp46
 70
     1
102
RTVSPost2010Prop47
 90
       50
102
RTVSPost2010PropOp47
 70
     1
102
RTVSPost2010Prop48
 90
       50
102
RTVSPost2010PropOp48
 70
     1
102
RTVSPost2010Prop49
280
     0
102
RTVSPost2010PropOp49
 70
     1
102
RTVSPost2010Prop50
 90
       50
102
RTVSPost2010PropOp50
 70
     1
102
RTVSPost2010Prop51ColorIndex
 90
      256
102
RTVSPost2010Prop51ColorRGB
 90
-16777216
102
RTVSPost2010PropOp51
 70
     0
102
RTVSPost2010Prop52
140
1.0
102
RTVSPost2010PropOp52
 70
     0
102
RTVSPost2010Prop53
 90
        2
102
RTVSPost2010PropOp53
 70
     1
102
RTVSPost2010Prop54
  1
strokes_ogs.tif
102
RTVSPost2010PropOp54
 70
     1
102
RTVSPost2010Prop55
280
     0
102
RTVSPost2010PropOp55
 70
     1
102
RTVSPost2010Prop56
140
1.0
102
RTVSPost2010PropOp56
 70
     1
102
RTVSPost2010Prop57
140
1.0
102
RTVSPost2010PropOp57
 70
     1
  0
XRECORD
  5
118
102
{ACAD_REACTORS
330
117
102
}
330
117
100
AcDbXrecord
280
     1
102
RTVSPropertyOp0
 70
     0
102
RTVSPropertyOp1
 70
     0
102
RTVSPropertyOp2
 70
     0
102
RTVSPropertyOp3
 70
     0
102
RTVSPropertyOp4
 70
     0
102
RTVSPropertyOp5
 70
     0
102
RTVSPropertyOp6
 70
     0
102
RTVSPropertyOp7
 70
     0
102
RTVSPropertyOp8
 70
     0
102
RTVSPropertyOp9
 70
     0
102
RTVSPropertyOp10
 70
     0
102
RTVSPropertyOp11
 70
     0
102
RTVSPropertyOp12
 70
     0
102
RTVSPropertyOp13
 70
     0
102
RTVSPropertyOp14
 70
     2
102
RTVSPropertyOp15
 70
     0
102
RTVSPropertyOp16
 70
     0
102
RTVSPropertyOp17
 70
     0
102
RTVSPropertyOp18
 70
     0
102
RTVSPropertyOp19
 70
     0
102
RTVSPropertyOp20
 70
     0
102
RTVSPropertyOp21
 70
     0
102
RTVSPropertyOp22
 70
     0
102
RTVSPropertyOp23
 70
     0
102
RTVSPropertyOp24
 70
     0
102
RTVSPropertyOp25
 70
     0
102
RTVSPropertyOp26
 70
     0
102
RTVSPropertyOp27
 70
     0
102
RTVSPropertyOp28
 70
     0
102
RTVSPropertyOp29
 70
     0
102
RTVSPropertyOp30
 70
     0
102
RTVSPropertyOp31
 70
     0
102
RTVSPropertyOp32
 70
     0
102
RTVSPropertyOp33
 70
     0
102
RTVSPropertyOp34
 70
     0
102
RTVSPropertyOp35
 70
     0
102
RTVSPropertyOp36
 70
     0
102
RTVSPropertyOp37
 70
     0
102
RTVSPropertyOp38
 70
     0
102
RTVSPropertyOp39
 70
     0
102
RTVSPropertyOp40
 70
     0
102
RTVSPropertyOp41
 70
     0
102
RTVSPropertyOp42
 70
     0
102
RTVSPropertyOp43
 70
     0
102
RTVSPropertyOp44
 70
     0
102
RTVSPropertyOp45
 70
     0
102
RTVSPropertyOp46
 70
     0
102
RTVSPropertyOp47
 70
     0
102
RTVSPropertyOp48
 70
     0
102
RTVSPropertyOp49
 70
     0
102
RTVSPropertyOp50
 70
     0
102
RTVSPropertyOp51
 70
     0
102
RTVSPropertyOp52
 70
     0
102
RTVSPropertyOp53
 70
     0
102
RTVSPropertyOp54
 70
     0
102
RTVSPropertyOp55
 70
     0
102
RTVSPropertyOp56
 70
     0
102
RTVSPropertyOp57
 70
     0
102
RTVSPost2010Prop28
280
     0
102
RTVSPost2010PropOp28
 70
     0
102
RTVSPost2010Prop29
280
     1
102
RTVSPost2010PropOp29
 70
     0
102
RTVSPost2010Prop30
280
     1
102
RTVSPost2010PropOp30
 70
     0
102
RTVSPost2010Prop31
280
     0
102
RTVSPost2010PropOp31
 70
     0
102
RTVSPost2010Prop32
280
     0
102
RTVSPost2010PropOp32
 70
     0
102
RTVSPost2010Prop33
280
     0
102
RTVSPost2010PropOp33
 70
     0
102
RTVSPost2010Prop34
280
     0
102
RTVSPost2010PropOp34
 70
     0
102
RTVSPost2010Prop35
280
     0
102
RTVSPost2010PropOp35
 70
     0
102
RTVSPost2010Prop36
280
     0
102
RTVSPost2010PropOp36
 70
     0
102
RTVSPost2010Prop37
 90
       50
102
RTVSPost2010PropOp37
 70
     0
102
RTVSPost2010Prop38
140
0.0
102
RTVSPost2010PropOp38
 70
     0
102
RTVSPost2010Prop39
140
1.0
102
RTVSPost2010PropOp39
 70
     0
102
RTVSPost2010Prop40
 90
        0
102
RTVSPost2010PropOp40
 70
     0
102
RTVSPost2010Prop41ColorIndex
 90
       18
102
RTVSPost2010Prop41ColorRGB
 90
        0
102
RTVSPost2010PropOp41
 70
     0
102
RTVSPost2010Prop42
 90
       50
102
RTVSPost2010PropOp42
 70
     0
102
RTVSPost2010Prop43
 90
        3
102
RTVSPost2010PropOp43
 70
     0
102
RTVSPost2010Prop44ColorIndex
 90
        5
102
RTVSPost2010Prop44ColorRGB
 90
      255
102
RTVSPost2010PropOp44
 70
     0
102
RTVSPost2010Prop45
280
     0
102
RTVSPost2010PropOp45
 70
     0
102
RTVSPost2010Prop46
 90
       50
102
RTVSPost2010PropOp46
 70
     0
102
RTVSPost2010Prop47
 90
       50
102
RTVSPost2010PropOp47
 70
     0
102
RTVSPost2010Prop48
 90
       50
102
RTVSPost2010PropOp48
 70
     0
102
RTVSPost2010Prop49
280
     0
102
RTVSPost2010PropOp49
 70
     0
102
RTVSPost2010Prop50
 90
       50
102
RTVSPost2010PropOp50
 70
     0
102
RTVSPost2010Prop51ColorIndex
 90
      256
102
RTVSPost2010Prop51ColorRGB
 90
-16777216
102
RTVSPost2010PropOp51
 70
     0
102
RTVSPost2010Prop52
140
1.0
102
RTVSPost2010PropOp52
 70
     0
102
RTVSPost2010Prop53
 90
        2
102
RTVSPost2010PropOp53
 70
     0
102
RTVSPost2010Prop54
  1
strokes_ogs.tif
102
RTVSPost2010PropOp54
 70
     0
102
RTVSPost2010Prop55
280
     0
102
RTVSPost2010PropOp55
 70
     0
102
RTVSPost2010Prop56
140
1.0
102
RTVSPost2010PropOp56
 70
     0
102
RTVSPost2010Prop57
140
1.0
102
RTVSPost2010PropOp57
 70
     0
  0
XRECORD
  5
112
102
{ACAD_REACTORS
330
111
102
}
330
111
100
AcDbXrecord
280
     1
102
RTVSPropertyOp0
 70
     1
102
RTVSPropertyOp1
 70
     1
102
RTVSPropertyOp2
 70
     1
102
RTVSPropertyOp3
 70
     1
102
RTVSPropertyOp4
 70
     1
102
RTVSPropertyOp5
 70
     1
102
RTVSPropertyOp6
 70
     1
102
RTVSPropertyOp7
 70
     1
102
RTVSPropertyOp8
 70
     1
102
RTVSPropertyOp9
 70
     1
102
RTVSPropertyOp10
 70
     1
102
RTVSPropertyOp11
 70
     1
102
RTVSPropertyOp12
 70
     1
102
RTVSPropertyOp13
 70
     1
102
RTVSPropertyOp14
 70
     1
102
RTVSPropertyOp15
 70
     1
102
RTVSPropertyOp16
 70
     1
102
RTVSPropertyOp17
 70
     1
102
RTVSPropertyOp18
 70
     1
102
RTVSPropertyOp19
 70
     1
102
RTVSPropertyOp20
 70
     1
102
RTVSPropertyOp21
 70
     1
102
RTVSPropertyOp22
 70
     1
102
RTVSPropertyOp23
 70
     1
102
RTVSPropertyOp24
 70
     1
102
RTVSPropertyOp25
 70
     1
102
RTVSPropertyOp26
 70
     1
102
RTVSPropertyOp27
 70
     1
102
RTVSPropertyOp28
 70
     1
102
RTVSPropertyOp29
 70
     1
102
RTVSPropertyOp30
 70
     1
102
RTVSPropertyOp31
 70
     1
102
RTVSPropertyOp32
 70
     1
102
RTVSPropertyOp33
 70
     1
102
RTVSPropertyOp34
 70
     1
102
RTVSPropertyOp35
 70
     1
102
RTVSPropertyOp36
 70
     1
102
RTVSPropertyOp37
 70
     1
102
RTVSPropertyOp38
 70
     1
102
RTVSPropertyOp39
 70
     1
102
RTVSPropertyOp40
 70
     1
102
RTVSPropertyOp41
 70
     1
102
RTVSPropertyOp42
 70
     1
102
RTVSPropertyOp43
 70
     1
102
RTVSPropertyOp44
 70
     1
102
RTVSPropertyOp45
 70
     1
102
RTVSPropertyOp46
 70
     1
102
RTVSPropertyOp47
 70
     1
102
RTVSPropertyOp48
 70
     1
102
RTVSPropertyOp49
 70
     1
102
RTVSPropertyOp50
 70
     1
102
RTVSPropertyOp51
 70
     0
102
RTVSPropertyOp52
 70
     0
102
RTVSPropertyOp53
 70
     1
102
RTVSPropertyOp54
 70
     1
102
RTVSPropertyOp55
 70
     1
102
RTVSPropertyOp56
 70
     1
102
RTVSPropertyOp57
 70
     1
102
RTVSPost2010Prop28
280
     0
102
RTVSPost2010PropOp28
 70
     1
102
RTVSPost2010Prop29
280
     1
102
RTVSPost2010PropOp29
 70
     1
102
RTVSPost2010Prop30
280
     1
102
RTVSPost2010PropOp30
 70
     1
102
RTVSPost2010Prop31
280
     0
102
RTVSPost2010PropOp31
 70
     1
102
RTVSPost2010Prop32
280
     0
102
RTVSPost2010PropOp32
 70
     1
102
RTVSPost2010Prop33
280
     0
102
RTVSPost2010PropOp33
 70
     1
102
RTVSPost2010Prop34
280
     0
102
RTVSPost2010PropOp34
 70
     1
102
RTVSPost2010Prop35
280
     0
102
RTVSPost2010PropOp35
 70
     1
102
RTVSPost2010Prop36
280
     0
102
RTVSPost2010PropOp36
 70
     1
102
RTVSPost2010Prop37
 90
       50
102
RTVSPost2010PropOp37
 70
     1
102
RTVSPost2010Prop38
140
0.0
102
RTVSPost2010PropOp38
 70
     1
102
RTVSPost2010Prop39
140
1.0
102
RTVSPost2010PropOp39
 70
     1
102
RTVSPost2010Prop40
 90
        0
102
RTVSPost2010PropOp40
 70
     1
102
RTVSPost2010Prop41ColorIndex
 90
       18
102
RTVSPost2010Prop41ColorRGB
 90
        0
102
RTVSPost2010PropOp41
 70
     1
102
RTVSPost2010Prop42
 90
       50
102
RTVSPost2010PropOp42
 70
     1
102
RTVSPost2010Prop43
 90
        3
102
RTVSPost2010PropOp43
 70
     1
102
RTVSPost2010Prop44ColorIndex
 90
        5
102
RTVSPost2010Prop44ColorRGB
 90
      255
102
RTVSPost2010PropOp44
 70
     1
102
RTVSPost2010Prop45
280
     0
102
RTVSPost2010PropOp45
 70
     1
102
RTVSPost2010Prop46
 90
       50
102
RTVSPost2010PropOp46
 70
     1
102
RTVSPost2010Prop47
 90
       50
102
RTVSPost2010PropOp47
 70
     1
102
RTVSPost2010Prop48
 90
       50
102
RTVSPost2010PropOp48
 70
     1
102
RTVSPost2010Prop49
280
     0
102
RTVSPost2010PropOp49
 70
     1
102
RTVSPost2010Prop50
 90
       50
102
RTVSPost2010PropOp50
 70
     1
102
RTVSPost2010Prop51ColorIndex
 90
      256
102
RTVSPost2010Prop51ColorRGB
 90
-16777216
102
RTVSPost2010PropOp51
 70
     0
102
RTVSPost2010Prop52
140
1.0
102
RTVSPost2010PropOp52
 70
     0
102
RTVSPost2010Prop53
 90
        2
102
RTVSPost2010PropOp53
 70
     1
102
RTVSPost2010Prop54
  1
strokes_ogs.tif
102
RTVSPost2010PropOp54
 70
     1
102
RTVSPost2010Prop55
280
     0
102
RTVSPost2010PropOp55
 70
     1
102
RTVSPost2010Prop56
140
1.0
102
RTVSPost2010PropOp56
 70
     1
102
RTVSPost2010Prop57
140
1.0
102
RTVSPost2010PropOp57
 70
     1
  0
XRECORD
  5
11A
102
{ACAD_REACTORS
330
119
102
}
330
119
100
AcDbXrecord
280
     1
102
RTVSPropertyOp0
 70
     0
102
RTVSPropertyOp1
 70
     0
102
RTVSPropertyOp2
 70
     0
102
RTVSPropertyOp3
 70
     0
102
RTVSPropertyOp4
 70
     0
102
RTVSPropertyOp5
 70
     0
102
RTVSPropertyOp6
 70
     0
102
RTVSPropertyOp7
 70
     0
102
RTVSPropertyOp8
 70
     0
102
RTVSPropertyOp9
 70
     0
102
RTVSPropertyOp10
 70
     0
102
RTVSPropertyOp11
 70
     0
102
RTVSPropertyOp12
 70
     0
102
RTVSPropertyOp13
 70
     0
102
RTVSPropertyOp14
 70
     2
102
RTVSPropertyOp15
 70
     0
102
RTVSPropertyOp16
 70
     0
102
RTVSPropertyOp17
 70
     0
102
RTVSPropertyOp18
 70
     0
102
RTVSPropertyOp19
 70
     0
102
RTVSPropertyOp20
 70
     0
102
RTVSPropertyOp21
 70
     0
102
RTVSPropertyOp22
 70
     0
102
RTVSPropertyOp23
 70
     0
102
RTVSPropertyOp24
 70
     0
102
RTVSPropertyOp25
 70
     0
102
RTVSPropertyOp26
 70
     0
102
RTVSPropertyOp27
 70
     0
102
RTVSPropertyOp28
 70
     0
102
RTVSPropertyOp29
 70
     0
102
RTVSPropertyOp30
 70
     0
102
RTVSPropertyOp31
 70
     0
102
RTVSPropertyOp32
 70
     0
102
RTVSPropertyOp33
 70
     0
102
RTVSPropertyOp34
 70
     0
102
RTVSPropertyOp35
 70
     0
102
RTVSPropertyOp36
 70
     0
102
RTVSPropertyOp37
 70
     0
102
RTVSPropertyOp38
 70
     0
102
RTVSPropertyOp39
 70
     0
102
RTVSPropertyOp40
 70
     0
102
RTVSPropertyOp41
 70
     0
102
RTVSPropertyOp42
 70
     0
102
RTVSPropertyOp43
 70
     0
102
RTVSPropertyOp44
 70
     0
102
RTVSPropertyOp45
 70
     0
102
RTVSPropertyOp46
 70
     0
102
RTVSPropertyOp47
 70
     0
102
RTVSPropertyOp48
 70
     0
102
RTVSPropertyOp49
 70
     0
102
RTVSPropertyOp50
 70
     0
102
RTVSPropertyOp51
 70
     0
102
RTVSPropertyOp52
 70
     0
102
RTVSPropertyOp53
 70
     0
102
RTVSPropertyOp54
 70
     0
102
RTVSPropertyOp55
 70
     0
102
RTVSPropertyOp56
 70
     0
102
RTVSPropertyOp57
 70
     0
102
RTVSPost2010Prop28
280
     0
102
RTVSPost2010PropOp28
 70
     0
102
RTVSPost2010Prop29
280
     1
102
RTVSPost2010PropOp29
 70
     0
102
RTVSPost2010Prop30
280
     1
102
RTVSPost2010PropOp30
 70
     0
102
RTVSPost2010Prop31
280
     0
102
RTVSPost2010PropOp31
 70
     0
102
RTVSPost2010Prop32
280
     0
102
RTVSPost2010PropOp32
 70
     0
102
RTVSPost2010Prop33
280
     0
102
RTVSPost2010PropOp33
 70
     0
102
RTVSPost2010Prop34
280
     0
102
RTVSPost2010PropOp34
 70
     0
102
RTVSPost2010Prop35
280
     0
102
RTVSPost2010PropOp35
 70
     0
102
RTVSPost2010Prop36
280
     0
102
RTVSPost2010PropOp36
 70
     0
102
RTVSPost2010Prop37
 90
       50
102
RTVSPost2010PropOp37
 70
     0
102
RTVSPost2010Prop38
140
0.0
102
RTVSPost2010PropOp38
 70
     0
102
RTVSPost2010Prop39
140
1.0
102
RTVSPost2010PropOp39
 70
     0
102
RTVSPost2010Prop40
 90
        0
102
RTVSPost2010PropOp40
 70
     0
102
RTVSPost2010Prop41ColorIndex
 90
       18
102
RTVSPost2010Prop41ColorRGB
 90
        0
102
RTVSPost2010PropOp41
 70
     0
102
RTVSPost2010Prop42
 90
       50
102
RTVSPost2010PropOp42
 70
     0
102
RTVSPost2010Prop43
 90
        3
102
RTVSPost2010PropOp43
 70
     0
102
RTVSPost2010Prop44ColorIndex
 90
        5
102
RTVSPost2010Prop44ColorRGB
 90
      255
102
RTVSPost2010PropOp44
 70
     0
102
RTVSPost2010Prop45
280
     0
102
RTVSPost2010PropOp45
 70
     0
102
RTVSPost2010Prop46
 90
       50
102
RTVSPost2010PropOp46
 70
     0
102
RTVSPost2010Prop47
 90
       50
102
RTVSPost2010PropOp47
 70
     0
102
RTVSPost2010Prop48
 90
       50
102
RTVSPost2010PropOp48
 70
     0
102
RTVSPost2010Prop49
280
     0
102
RTVSPost2010PropOp49
 70
     0
102
RTVSPost2010Prop50
 90
       50
102
RTVSPost2010PropOp50
 70
     0
102
RTVSPost2010Prop51ColorIndex
 90
      256
102
RTVSPost2010Prop51ColorRGB
 90
-16777216
102
RTVSPost2010PropOp51
 70
     0
102
RTVSPost2010Prop52
140
1.0
102
RTVSPost2010PropOp52
 70
     0
102
RTVSPost2010Prop53
 90
        2
102
RTVSPost2010PropOp53
 70
     0
102
RTVSPost2010Prop54
  1
strokes_ogs.tif
102
RTVSPost2010PropOp54
 70
     0
102
RTVSPost2010Prop55
280
     0
102
RTVSPost2010PropOp55
 70
     0
102
RTVSPost2010Prop56
140
1.0
102
RTVSPost2010PropOp56
 70
     0
102
RTVSPost2010Prop57
140
1.0
102
RTVSPost2010PropOp57
 70
     0
  0
XRECORD
  5
108
102
{ACAD_REACTORS
330
107
102
}
330
107
100
AcDbXrecord
280
     1
102
RTVSPropertyOp0
 70
     1
102
RTVSPropertyOp1
 70
     1
102
RTVSPropertyOp2
 70
     1
102
RTVSPropertyOp3
 70
     1
102
RTVSPropertyOp4
 70
     1
102
RTVSPropertyOp5
 70
     1
102
RTVSPropertyOp6
 70
     1
102
RTVSPropertyOp7
 70
     1
102
RTVSPropertyOp8
 70
     1
102
RTVSPropertyOp9
 70
     1
102
RTVSPropertyOp10
 70
     1
102
RTVSPropertyOp11
 70
     1
102
RTVSPropertyOp12
 70
     1
102
RTVSPropertyOp13
 70
     1
102
RTVSPropertyOp14
 70
     1
102
RTVSPropertyOp15
 70
     1
102
RTVSPropertyOp16
 70
     1
102
RTVSPropertyOp17
 70
     1
102
RTVSPropertyOp18
 70
     1
102
RTVSPropertyOp19
 70
     1
102
RTVSPropertyOp20
 70
     1
102
RTVSPropertyOp21
 70
     1
102
RTVSPropertyOp22
 70
     1
102
RTVSPropertyOp23
 70
     1
102
RTVSPropertyOp24
 70
     1
102
RTVSPropertyOp25
 70
     1
102
RTVSPropertyOp26
 70
     1
102
RTVSPropertyOp27
 70
     1
102
RTVSPropertyOp28
 70
     1
102
RTVSPropertyOp29
 70
     1
102
RTVSPropertyOp30
 70
     1
102
RTVSPropertyOp31
 70
     1
102
RTVSPropertyOp32
 70
     1
102
RTVSPropertyOp33
 70
     1
102
RTVSPropertyOp34
 70
     1
102
RTVSPropertyOp35
 70
     1
102
RTVSPropertyOp36
 70
     1
102
RTVSPropertyOp37
 70
     1
102
RTVSPropertyOp38
 70
     1
102
RTVSPropertyOp39
 70
     1
102
RTVSPropertyOp40
 70
     1
102
RTVSPropertyOp41
 70
     1
102
RTVSPropertyOp42
 70
     1
102
RTVSPropertyOp43
 70
     1
102
RTVSPropertyOp44
 70
     1
102
RTVSPropertyOp45
 70
     1
102
RTVSPropertyOp46
 70
     1
102
RTVSPropertyOp47
 70
     1
102
RTVSPropertyOp48
 70
     1
102
RTVSPropertyOp49
 70
     1
102
RTVSPropertyOp50
 70
     1
102
RTVSPropertyOp51
 70
     0
102
RTVSPropertyOp52
 70
     0
102
RTVSPropertyOp53
 70
     1
102
RTVSPropertyOp54
 70
     1
102
RTVSPropertyOp55
 70
     1
102
RTVSPropertyOp56
 70
     1
102
RTVSPropertyOp57
 70
     1
102
RTVSPost2010Prop28
280
     0
102
RTVSPost2010PropOp28
 70
     1
102
RTVSPost2010Prop29
280
     1
102
RTVSPost2010PropOp29
 70
     1
102
RTVSPost2010Prop30
280
     1
102
RTVSPost2010PropOp30
 70
     1
102
RTVSPost2010Prop31
280
     0
102
RTVSPost2010PropOp31
 70
     1
102
RTVSPost2010Prop32
280
     0
102
RTVSPost2010PropOp32
 70
     1
102
RTVSPost2010Prop33
280
     0
102
RTVSPost2010PropOp33
 70
     1
102
RTVSPost2010Prop34
280
     0
102
RTVSPost2010PropOp34
 70
     1
102
RTVSPost2010Prop35
280
     0
102
RTVSPost2010PropOp35
 70
     1
102
RTVSPost2010Prop36
280
     0
102
RTVSPost2010PropOp36
 70
     1
102
RTVSPost2010Prop37
 90
       50
102
RTVSPost2010PropOp37
 70
     1
102
RTVSPost2010Prop38
140
0.0
102
RTVSPost2010PropOp38
 70
     1
102
RTVSPost2010Prop39
140
1.0
102
RTVSPost2010PropOp39
 70
     1
102
RTVSPost2010Prop40
 90
        0
102
RTVSPost2010PropOp40
 70
     1
102
RTVSPost2010Prop41ColorIndex
 90
       18
102
RTVSPost2010Prop41ColorRGB
 90
        0
102
RTVSPost2010PropOp41
 70
     1
102
RTVSPost2010Prop42
 90
       50
102
RTVSPost2010PropOp42
 70
     1
102
RTVSPost2010Prop43
 90
        3
102
RTVSPost2010PropOp43
 70
     1
102
RTVSPost2010Prop44ColorIndex
 90
        5
102
RTVSPost2010Prop44ColorRGB
 90
      255
102
RTVSPost2010PropOp44
 70
     1
102
RTVSPost2010Prop45
280
     0
102
RTVSPost2010PropOp45
 70
     1
102
RTVSPost2010Prop46
 90
       50
102
RTVSPost2010PropOp46
 70
     1
102
RTVSPost2010Prop47
 90
       50
102
RTVSPost2010PropOp47
 70
     1
102
RTVSPost2010Prop48
 90
       50
102
RTVSPost2010PropOp48
 70
     1
102
RTVSPost2010Prop49
280
     0
102
RTVSPost2010PropOp49
 70
     1
102
RTVSPost2010Prop50
 90
       50
102
RTVSPost2010PropOp50
 70
     1
102
RTVSPost2010Prop51ColorIndex
 90
      256
102
RTVSPost2010Prop51ColorRGB
 90
-16777216
102
RTVSPost2010PropOp51
 70
     0
102
RTVSPost2010Prop52
140
1.0
102
RTVSPost2010PropOp52
 70
     0
102
RTVSPost2010Prop53
 90
        2
102
RTVSPost2010PropOp53
 70
     1
102
RTVSPost2010Prop54
  1
strokes_ogs.tif
102
RTVSPost2010PropOp54
 70
     1
102
RTVSPost2010Prop55
280
     0
102
RTVSPost2010PropOp55
 70
     1
102
RTVSPost2010Prop56
140
1.0
102
RTVSPost2010PropOp56
 70
     1
102
RTVSPost2010Prop57
140
1.0
102
RTVSPost2010PropOp57
 70
     1
  0
XRECORD
  5
126
102
{ACAD_REACTORS
330
125
102
}
330
125
100
AcDbXrecord
280
     1
102
RTVSPropertyOp0
 70
     1
102
RTVSPropertyOp1
 70
     1
102
RTVSPropertyOp2
 70
     1
102
RTVSPropertyOp3
 70
     1
102
RTVSPropertyOp4
 70
     1
102
RTVSPropertyOp5
 70
     1
102
RTVSPropertyOp6
 70
     1
102
RTVSPropertyOp7
 70
     1
102
RTVSPropertyOp8
 70
     1
102
RTVSPropertyOp9
 70
     1
102
RTVSPropertyOp10
 70
     1
102
RTVSPropertyOp11
 70
     1
102
RTVSPropertyOp12
 70
     1
102
RTVSPropertyOp13
 70
     1
102
RTVSPropertyOp14
 70
     1
102
RTVSPropertyOp15
 70
     1
102
RTVSPropertyOp16
 70
     1
102
RTVSPropertyOp17
 70
     1
102
RTVSPropertyOp18
 70
     1
102
RTVSPropertyOp19
 70
     1
102
RTVSPropertyOp20
 70
     1
102
RTVSPropertyOp21
 70
     1
102
RTVSPropertyOp22
 70
     1
102
RTVSPropertyOp23
 70
     1
102
RTVSPropertyOp24
 70
     1
102
RTVSPropertyOp25
 70
     1
102
RTVSPropertyOp26
 70
     1
102
RTVSPropertyOp27
 70
     1
102
RTVSPropertyOp28
 70
     1
102
RTVSPropertyOp29
 70
     1
102
RTVSPropertyOp30
 70
     1
102
RTVSPropertyOp31
 70
     1
102
RTVSPropertyOp32
 70
     1
102
RTVSPropertyOp33
 70
     1
102
RTVSPropertyOp34
 70
     1
102
RTVSPropertyOp35
 70
     1
102
RTVSPropertyOp36
 70
     1
102
RTVSPropertyOp37
 70
     1
102
RTVSPropertyOp38
 70
     1
102
RTVSPropertyOp39
 70
     1
102
RTVSPropertyOp40
 70
     1
102
RTVSPropertyOp41
 70
     1
102
RTVSPropertyOp42
 70
     1
102
RTVSPropertyOp43
 70
     1
102
RTVSPropertyOp44
 70
     1
102
RTVSPropertyOp45
 70
     1
102
RTVSPropertyOp46
 70
     1
102
RTVSPropertyOp47
 70
     1
102
RTVSPropertyOp48
 70
     1
102
RTVSPropertyOp49
 70
     1
102
RTVSPropertyOp50
 70
     1
102
RTVSPropertyOp51
 70
     0
102
RTVSPropertyOp52
 70
     0
102
RTVSPropertyOp53
 70
     1
102
RTVSPropertyOp54
 70
     1
102
RTVSPropertyOp55
 70
     1
102
RTVSPropertyOp56
 70
     1
102
RTVSPropertyOp57
 70
     1
102
RTVSPost2010Prop28
280
     0
102
RTVSPost2010PropOp28
 70
     1
102
RTVSPost2010Prop29
280
     1
102
RTVSPost2010PropOp29
 70
     1
102
RTVSPost2010Prop30
280
     1
102
RTVSPost2010PropOp30
 70
     1
102
RTVSPost2010Prop31
280
     0
102
RTVSPost2010PropOp31
 70
     1
102
RTVSPost2010Prop32
280
     0
102
RTVSPost2010PropOp32
 70
     1
102
RTVSPost2010Prop33
280
     0
102
RTVSPost2010PropOp33
 70
     1
102
RTVSPost2010Prop34
280
     0
102
RTVSPost2010PropOp34
 70
     1
102
RTVSPost2010Prop35
280
     0
102
RTVSPost2010PropOp35
 70
     1
102
RTVSPost2010Prop36
280
     0
102
RTVSPost2010PropOp36
 70
     1
102
RTVSPost2010Prop37
 90
       50
102
RTVSPost2010PropOp37
 70
     1
102
RTVSPost2010Prop38
140
0.0
102
RTVSPost2010PropOp38
 70
     1
102
RTVSPost2010Prop39
140
1.0
102
RTVSPost2010PropOp39
 70
     1
102
RTVSPost2010Prop40
 90
        0
102
RTVSPost2010PropOp40
 70
     1
102
RTVSPost2010Prop41ColorIndex
 90
       18
102
RTVSPost2010Prop41ColorRGB
 90
        0
102
RTVSPost2010PropOp41
 70
     1
102
RTVSPost2010Prop42
 90
       50
102
RTVSPost2010PropOp42
 70
     1
102
RTVSPost2010Prop43
 90
        3
102
RTVSPost2010PropOp43
 70
     1
102
RTVSPost2010Prop44ColorIndex
 90
        5
102
RTVSPost2010Prop44ColorRGB
 90
      255
102
RTVSPost2010PropOp44
 70
     1
102
RTVSPost2010Prop45
280
     0
102
RTVSPost2010PropOp45
 70
     1
102
RTVSPost2010Prop46
 90
       50
102
RTVSPost2010PropOp46
 70
     1
102
RTVSPost2010Prop47
 90
       50
102
RTVSPost2010PropOp47
 70
     1
102
RTVSPost2010Prop48
 90
       50
102
RTVSPost2010PropOp48
 70
     1
102
RTVSPost2010Prop49
280
     0
102
RTVSPost2010PropOp49
 70
     1
102
RTVSPost2010Prop50
 90
       50
102
RTVSPost2010PropOp50
 70
     1
102
RTVSPost2010Prop51ColorIndex
 90
      256
102
RTVSPost2010Prop51ColorRGB
 90
-16777216
102
RTVSPost2010PropOp51
 70
     0
102
RTVSPost2010Prop52
140
1.0
102
RTVSPost2010PropOp52
 70
     0
102
RTVSPost2010Prop53
 90
        2
102
RTVSPost2010PropOp53
 70
     1
102
RTVSPost2010Prop54
  1
strokes_ogs.tif
102
RTVSPost2010PropOp54
 70
     1
102
RTVSPost2010Prop55
280
     0
102
RTVSPost2010PropOp55
 70
     1
102
RTVSPost2010Prop56
140
1.0
102
RTVSPost2010PropOp56
 70
     1
102
RTVSPost2010Prop57
140
1.0
102
RTVSPost2010PropOp57
 70
     1
  0
XRECORD
  5
124
102
{ACAD_REACTORS
330
123
102
}
330
123
100
AcDbXrecord
280
     1
102
RTVSPropertyOp0
 70
     1
102
RTVSPropertyOp1
 70
     1
102
RTVSPropertyOp2
 70
     1
102
RTVSPropertyOp3
 70
     1
102
RTVSPropertyOp4
 70
     1
102
RTVSPropertyOp5
 70
     1
102
RTVSPropertyOp6
 70
     1
102
RTVSPropertyOp7
 70
     1
102
RTVSPropertyOp8
 70
     1
102
RTVSPropertyOp9
 70
     1
102
RTVSPropertyOp10
 70
     1
102
RTVSPropertyOp11
 70
     1
102
RTVSPropertyOp12
 70
     1
102
RTVSPropertyOp13
 70
     1
102
RTVSPropertyOp14
 70
     1
102
RTVSPropertyOp15
 70
     1
102
RTVSPropertyOp16
 70
     1
102
RTVSPropertyOp17
 70
     1
102
RTVSPropertyOp18
 70
     1
102
RTVSPropertyOp19
 70
     1
102
RTVSPropertyOp20
 70
     1
102
RTVSPropertyOp21
 70
     1
102
RTVSPropertyOp22
 70
     1
102
RTVSPropertyOp23
 70
     1
102
RTVSPropertyOp24
 70
     1
102
RTVSPropertyOp25
 70
     1
102
RTVSPropertyOp26
 70
     1
102
RTVSPropertyOp27
 70
     1
102
RTVSPropertyOp28
 70
     1
102
RTVSPropertyOp29
 70
     1
102
RTVSPropertyOp30
 70
     1
102
RTVSPropertyOp31
 70
     1
102
RTVSPropertyOp32
 70
     1
102
RTVSPropertyOp33
 70
     1
102
RTVSPropertyOp34
 70
     1
102
RTVSPropertyOp35
 70
     1
102
RTVSPropertyOp36
 70
     1
102
RTVSPropertyOp37
 70
     1
102
RTVSPropertyOp38
 70
     1
102
RTVSPropertyOp39
 70
     1
102
RTVSPropertyOp40
 70
     1
102
RTVSPropertyOp41
 70
     1
102
RTVSPropertyOp42
 70
     1
102
RTVSPropertyOp43
 70
     1
102
RTVSPropertyOp44
 70
     1
102
RTVSPropertyOp45
 70
     1
102
RTVSPropertyOp46
 70
     1
102
RTVSPropertyOp47
 70
     1
102
RTVSPropertyOp48
 70
     1
102
RTVSPropertyOp49
 70
     1
102
RTVSPropertyOp50
 70
     1
102
RTVSPropertyOp51
 70
     0
102
RTVSPropertyOp52
 70
     0
102
RTVSPropertyOp53
 70
     1
102
RTVSPropertyOp54
 70
     1
102
RTVSPropertyOp55
 70
     1
102
RTVSPropertyOp56
 70
     1
102
RTVSPropertyOp57
 70
     1
102
RTVSPost2010Prop28
280
     0
102
RTVSPost2010PropOp28
 70
     1
102
RTVSPost2010Prop29
280
     1
102
RTVSPost2010PropOp29
 70
     1
102
RTVSPost2010Prop30
280
     1
102
RTVSPost2010PropOp30
 70
     1
102
RTVSPost2010Prop31
280
     0
102
RTVSPost2010PropOp31
 70
     1
102
RTVSPost2010Prop32
280
     0
102
RTVSPost2010PropOp32
 70
     1
102
RTVSPost2010Prop33
280
     0
102
RTVSPost2010PropOp33
 70
     1
102
RTVSPost2010Prop34
280
     0
102
RTVSPost2010PropOp34
 70
     1
102
RTVSPost2010Prop35
280
     0
102
RTVSPost2010PropOp35
 70
     1
102
RTVSPost2010Prop36
280
     0
102
RTVSPost2010PropOp36
 70
     1
102
RTVSPost2010Prop37
 90
       50
102
RTVSPost2010PropOp37
 70
     1
102
RTVSPost2010Prop38
140
0.0
102
RTVSPost2010PropOp38
 70
     1
102
RTVSPost2010Prop39
140
1.0
102
RTVSPost2010PropOp39
 70
     1
102
RTVSPost2010Prop40
 90
        0
102
RTVSPost2010PropOp40
 70
     1
102
RTVSPost2010Prop41ColorIndex
 90
       18
102
RTVSPost2010Prop41ColorRGB
 90
        0
102
RTVSPost2010PropOp41
 70
     1
102
RTVSPost2010Prop42
 90
       50
102
RTVSPost2010PropOp42
 70
     1
102
RTVSPost2010Prop43
 90
        3
102
RTVSPost2010PropOp43
 70
     1
102
RTVSPost2010Prop44ColorIndex
 90
        5
102
RTVSPost2010Prop44ColorRGB
 90
      255
102
RTVSPost2010PropOp44
 70
     1
102
RTVSPost2010Prop45
280
     0
102
RTVSPost2010PropOp45
 70
     1
102
RTVSPost2010Prop46
 90
       50
102
RTVSPost2010PropOp46
 70
     1
102
RTVSPost2010Prop47
 90
       50
102
RTVSPost2010PropOp47
 70
     1
102
RTVSPost2010Prop48
 90
       50
102
RTVSPost2010PropOp48
 70
     1
102
RTVSPost2010Prop49
280
     0
102
RTVSPost2010PropOp49
 70
     1
102
RTVSPost2010Prop50
 90
       50
102
RTVSPost2010PropOp50
 70
     1
102
RTVSPost2010Prop51ColorIndex
 90
      256
102
RTVSPost2010Prop51ColorRGB
 90
-16777216
102
RTVSPost2010PropOp51
 70
     0
102
RTVSPost2010Prop52
140
1.0
102
RTVSPost2010PropOp52
 70
     0
102
RTVSPost2010Prop53
 90
        2
102
RTVSPost2010PropOp53
 70
     1
102
RTVSPost2010Prop54
  1
strokes_ogs.tif
102
RTVSPost2010PropOp54
 70
     1
102
RTVSPost2010Prop55
280
     0
102
RTVSPost2010PropOp55
 70
     1
102
RTVSPost2010Prop56
140
1.0
102
RTVSPost2010PropOp56
 70
     1
102
RTVSPost2010Prop57
140
1.0
102
RTVSPost2010PropOp57
 70
     1
  0
XRECORD
  5
11E
102
{ACAD_REACTORS
330
11D
102
}
330
11D
100
AcDbXrecord
280
     1
102
RTVSPropertyOp0
 70
     1
102
RTVSPropertyOp1
 70
     1
102
RTVSPropertyOp2
 70
     1
102
RTVSPropertyOp3
 70
     1
102
RTVSPropertyOp4
 70
     1
102
RTVSPropertyOp5
 70
     1
102
RTVSPropertyOp6
 70
     1
102
RTVSPropertyOp7
 70
     1
102
RTVSPropertyOp8
 70
     1
102
RTVSPropertyOp9
 70
     1
102
RTVSPropertyOp10
 70
     1
102
RTVSPropertyOp11
 70
     1
102
RTVSPropertyOp12
 70
     1
102
RTVSPropertyOp13
 70
     1
102
RTVSPropertyOp14
 70
     1
102
RTVSPropertyOp15
 70
     1
102
RTVSPropertyOp16
 70
     1
102
RTVSPropertyOp17
 70
     1
102
RTVSPropertyOp18
 70
     1
102
RTVSPropertyOp19
 70
     1
102
RTVSPropertyOp20
 70
     1
102
RTVSPropertyOp21
 70
     1
102
RTVSPropertyOp22
 70
     1
102
RTVSPropertyOp23
 70
     1
102
RTVSPropertyOp24
 70
     1
102
RTVSPropertyOp25
 70
     1
102
RTVSPropertyOp26
 70
     1
102
RTVSPropertyOp27
 70
     1
102
RTVSPropertyOp28
 70
     1
102
RTVSPropertyOp29
 70
     1
102
RTVSPropertyOp30
 70
     1
102
RTVSPropertyOp31
 70
     1
102
RTVSPropertyOp32
 70
     1
102
RTVSPropertyOp33
 70
     1
102
RTVSPropertyOp34
 70
     1
102
RTVSPropertyOp35
 70
     1
102
RTVSPropertyOp36
 70
     1
102
RTVSPropertyOp37
 70
     1
102
RTVSPropertyOp38
 70
     1
102
RTVSPropertyOp39
 70
     1
102
RTVSPropertyOp40
 70
     1
102
RTVSPropertyOp41
 70
     1
102
RTVSPropertyOp42
 70
     1
102
RTVSPropertyOp43
 70
     1
102
RTVSPropertyOp44
 70
     1
102
RTVSPropertyOp45
 70
     1
102
RTVSPropertyOp46
 70
     1
102
RTVSPropertyOp47
 70
     1
102
RTVSPropertyOp48
 70
     1
102
RTVSPropertyOp49
 70
     1
102
RTVSPropertyOp50
 70
     1
102
RTVSPropertyOp51
 70
     0
102
RTVSPropertyOp52
 70
     0
102
RTVSPropertyOp53
 70
     1
102
RTVSPropertyOp54
 70
     1
102
RTVSPropertyOp55
 70
     1
102
RTVSPropertyOp56
 70
     1
102
RTVSPropertyOp57
 70
     1
102
RTVSPost2010Prop28
280
     0
102
RTVSPost2010PropOp28
 70
     1
102
RTVSPost2010Prop29
280
     1
102
RTVSPost2010PropOp29
 70
     1
102
RTVSPost2010Prop30
280
     1
102
RTVSPost2010PropOp30
 70
     1
102
RTVSPost2010Prop31
280
     0
102
RTVSPost2010PropOp31
 70
     1
102
RTVSPost2010Prop32
280
     0
102
RTVSPost2010PropOp32
 70
     1
102
RTVSPost2010Prop33
280
     0
102
RTVSPost2010PropOp33
 70
     1
102
RTVSPost2010Prop34
280
     0
102
RTVSPost2010PropOp34
 70
     1
102
RTVSPost2010Prop35
280
     0
102
RTVSPost2010PropOp35
 70
     1
102
RTVSPost2010Prop36
280
     0
102
RTVSPost2010PropOp36
 70
     1
102
RTVSPost2010Prop37
 90
       50
102
RTVSPost2010PropOp37
 70
     1
102
RTVSPost2010Prop38
140
0.0
102
RTVSPost2010PropOp38
 70
     1
102
RTVSPost2010Prop39
140
1.0
102
RTVSPost2010PropOp39
 70
     1
102
RTVSPost2010Prop40
 90
        0
102
RTVSPost2010PropOp40
 70
     1
102
RTVSPost2010Prop41ColorIndex
 90
       18
102
RTVSPost2010Prop41ColorRGB
 90
        0
102
RTVSPost2010PropOp41
 70
     1
102
RTVSPost2010Prop42
 90
       50
102
RTVSPost2010PropOp42
 70
     1
102
RTVSPost2010Prop43
 90
        3
102
RTVSPost2010PropOp43
 70
     1
102
RTVSPost2010Prop44ColorIndex
 90
        5
102
RTVSPost2010Prop44ColorRGB
 90
      255
102
RTVSPost2010PropOp44
 70
     1
102
RTVSPost2010Prop45
280
     0
102
RTVSPost2010PropOp45
 70
     1
102
RTVSPost2010Prop46
 90
       50
102
RTVSPost2010PropOp46
 70
     1
102
RTVSPost2010Prop47
 90
       50
102
RTVSPost2010PropOp47
 70
     1
102
RTVSPost2010Prop48
 90
       50
102
RTVSPost2010PropOp48
 70
     1
102
RTVSPost2010Prop49
280
     0
102
RTVSPost2010PropOp49
 70
     1
102
RTVSPost2010Prop50
 90
       50
102
RTVSPost2010PropOp50
 70
     1
102
RTVSPost2010Prop51ColorIndex
 90
      256
102
RTVSPost2010Prop51ColorRGB
 90
-16777216
102
RTVSPost2010PropOp51
 70
     0
102
RTVSPost2010Prop52
140
1.0
102
RTVSPost2010PropOp52
 70
     0
102
RTVSPost2010Prop53
 90
        2
102
RTVSPost2010PropOp53
 70
     1
102
RTVSPost2010Prop54
  1
strokes_ogs.tif
102
RTVSPost2010PropOp54
 70
     1
102
RTVSPost2010Prop55
280
     0
102
RTVSPost2010PropOp55
 70
     1
102
RTVSPost2010Prop56
140
1.0
102
RTVSPost2010PropOp56
 70
     1
102
RTVSPost2010Prop57
140
1.0
102
RTVSPost2010PropOp57
 70
     1
  0
XRECORD
  5
120
102
{ACAD_REACTORS
330
11F
102
}
330
11F
100
AcDbXrecord
280
     1
102
RTVSPropertyOp0
 70
     1
102
RTVSPropertyOp1
 70
     1
102
RTVSPropertyOp2
 70
     1
102
RTVSPropertyOp3
 70
     1
102
RTVSPropertyOp4
 70
     1
102
RTVSPropertyOp5
 70
     1
102
RTVSPropertyOp6
 70
     1
102
RTVSPropertyOp7
 70
     1
102
RTVSPropertyOp8
 70
     1
102
RTVSPropertyOp9
 70
     1
102
RTVSPropertyOp10
 70
     1
102
RTVSPropertyOp11
 70
     1
102
RTVSPropertyOp12
 70
     1
102
RTVSPropertyOp13
 70
     1
102
RTVSPropertyOp14
 70
     1
102
RTVSPropertyOp15
 70
     1
102
RTVSPropertyOp16
 70
     1
102
RTVSPropertyOp17
 70
     1
102
RTVSPropertyOp18
 70
     1
102
RTVSPropertyOp19
 70
     1
102
RTVSPropertyOp20
 70
     1
102
RTVSPropertyOp21
 70
     1
102
RTVSPropertyOp22
 70
     1
102
RTVSPropertyOp23
 70
     1
102
RTVSPropertyOp24
 70
     1
102
RTVSPropertyOp25
 70
     1
102
RTVSPropertyOp26
 70
     1
102
RTVSPropertyOp27
 70
     1
102
RTVSPropertyOp28
 70
     1
102
RTVSPropertyOp29
 70
     1
102
RTVSPropertyOp30
 70
     1
102
RTVSPropertyOp31
 70
     1
102
RTVSPropertyOp32
 70
     1
102
RTVSPropertyOp33
 70
     1
102
RTVSPropertyOp34
 70
     1
102
RTVSPropertyOp35
 70
     1
102
RTVSPropertyOp36
 70
     1
102
RTVSPropertyOp37
 70
     1
102
RTVSPropertyOp38
 70
     1
102
RTVSPropertyOp39
 70
     1
102
RTVSPropertyOp40
 70
     1
102
RTVSPropertyOp41
 70
     1
102
RTVSPropertyOp42
 70
     1
102
RTVSPropertyOp43
 70
     1
102
RTVSPropertyOp44
 70
     1
102
RTVSPropertyOp45
 70
     1
102
RTVSPropertyOp46
 70
     1
102
RTVSPropertyOp47
 70
     1
102
RTVSPropertyOp48
 70
     1
102
RTVSPropertyOp49
 70
     1
102
RTVSPropertyOp50
 70
     1
102
RTVSPropertyOp51
 70
     0
102
RTVSPropertyOp52
 70
     0
102
RTVSPropertyOp53
 70
     1
102
RTVSPropertyOp54
 70
     1
102
RTVSPropertyOp55
 70
     1
102
RTVSPropertyOp56
 70
     1
102
RTVSPropertyOp57
 70
     1
102
RTVSPost2010Prop28
280
     0
102
RTVSPost2010PropOp28
 70
     1
102
RTVSPost2010Prop29
280
     1
102
RTVSPost2010PropOp29
 70
     1
102
RTVSPost2010Prop30
280
     1
102
RTVSPost2010PropOp30
 70
     1
102
RTVSPost2010Prop31
280
     0
102
RTVSPost2010PropOp31
 70
     1
102
RTVSPost2010Prop32
280
     0
102
RTVSPost2010PropOp32
 70
     1
102
RTVSPost2010Prop33
280
     0
102
RTVSPost2010PropOp33
 70
     1
102
RTVSPost2010Prop34
280
     0
102
RTVSPost2010PropOp34
 70
     1
102
RTVSPost2010Prop35
280
     0
102
RTVSPost2010PropOp35
 70
     1
102
RTVSPost2010Prop36
280
     0
102
RTVSPost2010PropOp36
 70
     1
102
RTVSPost2010Prop37
 90
       50
102
RTVSPost2010PropOp37
 70
     1
102
RTVSPost2010Prop38
140
0.0
102
RTVSPost2010PropOp38
 70
     1
102
RTVSPost2010Prop39
140
1.0
102
RTVSPost2010PropOp39
 70
     1
102
RTVSPost2010Prop40
 90
        0
102
RTVSPost2010PropOp40
 70
     1
102
RTVSPost2010Prop41ColorIndex
 90
       18
102
RTVSPost2010Prop41ColorRGB
 90
        0
102
RTVSPost2010PropOp41
 70
     1
102
RTVSPost2010Prop42
 90
       50
102
RTVSPost2010PropOp42
 70
     1
102
RTVSPost2010Prop43
 90
        3
102
RTVSPost2010PropOp43
 70
     1
102
RTVSPost2010Prop44ColorIndex
 90
        5
102
RTVSPost2010Prop44ColorRGB
 90
      255
102
RTVSPost2010PropOp44
 70
     1
102
RTVSPost2010Prop45
280
     0
102
RTVSPost2010PropOp45
 70
     1
102
RTVSPost2010Prop46
 90
       50
102
RTVSPost2010PropOp46
 70
     1
102
RTVSPost2010Prop47
 90
       50
102
RTVSPost2010PropOp47
 70
     1
102
RTVSPost2010Prop48
 90
       50
102
RTVSPost2010PropOp48
 70
     1
102
RTVSPost2010Prop49
280
     0
102
RTVSPost2010PropOp49
 70
     1
102
RTVSPost2010Prop50
 90
       50
102
RTVSPost2010PropOp50
 70
     1
102
RTVSPost2010Prop51ColorIndex
 90
      256
102
RTVSPost2010Prop51ColorRGB
 90
-16777216
102
RTVSPost2010PropOp51
 70
     0
102
RTVSPost2010Prop52
140
1.0
102
RTVSPost2010PropOp52
 70
     0
102
RTVSPost2010Prop53
 90
        2
102
RTVSPost2010PropOp53
 70
     1
102
RTVSPost2010Prop54
  1
strokes_ogs.tif
102
RTVSPost2010PropOp54
 70
     1
102
RTVSPost2010Prop55
280
     0
102
RTVSPost2010PropOp55
 70
     1
102
RTVSPost2010Prop56
140
1.0
102
RTVSPost2010PropOp56
 70
     1
102
RTVSPost2010Prop57
140
1.0
102
RTVSPost2010PropOp57
 70
     1
  0
XRECORD
  5
110
102
{ACAD_REACTORS
330
10F
102
}
330
10F
100
AcDbXrecord
280
     1
102
RTVSPropertyOp0
 70
     1
102
RTVSPropertyOp1
 70
     1
102
RTVSPropertyOp2
 70
     1
102
RTVSPropertyOp3
 70
     1
102
RTVSPropertyOp4
 70
     1
102
RTVSPropertyOp5
 70
     1
102
RTVSPropertyOp6
 70
     1
102
RTVSPropertyOp7
 70
     1
102
RTVSPropertyOp8
 70
     1
102
RTVSPropertyOp9
 70
     1
102
RTVSPropertyOp10
 70
     1
102
RTVSPropertyOp11
 70
     1
102
RTVSPropertyOp12
 70
     1
102
RTVSPropertyOp13
 70
     1
102
RTVSPropertyOp14
 70
     1
102
RTVSPropertyOp15
 70
     1
102
RTVSPropertyOp16
 70
     1
102
RTVSPropertyOp17
 70
     1
102
RTVSPropertyOp18
 70
     1
102
RTVSPropertyOp19
 70
     1
102
RTVSPropertyOp20
 70
     1
102
RTVSPropertyOp21
 70
     1
102
RTVSPropertyOp22
 70
     1
102
RTVSPropertyOp23
 70
     1
102
RTVSPropertyOp24
 70
     1
102
RTVSPropertyOp25
 70
     1
102
RTVSPropertyOp26
 70
     1
102
RTVSPropertyOp27
 70
     1
102
RTVSPropertyOp28
 70
     1
102
RTVSPropertyOp29
 70
     1
102
RTVSPropertyOp30
 70
     1
102
RTVSPropertyOp31
 70
     1
102
RTVSPropertyOp32
 70
     1
102
RTVSPropertyOp33
 70
     1
102
RTVSPropertyOp34
 70
     1
102
RTVSPropertyOp35
 70
     1
102
RTVSPropertyOp36
 70
     1
102
RTVSPropertyOp37
 70
     1
102
RTVSPropertyOp38
 70
     1
102
RTVSPropertyOp39
 70
     1
102
RTVSPropertyOp40
 70
     1
102
RTVSPropertyOp41
 70
     1
102
RTVSPropertyOp42
 70
     1
102
RTVSPropertyOp43
 70
     1
102
RTVSPropertyOp44
 70
     1
102
RTVSPropertyOp45
 70
     1
102
RTVSPropertyOp46
 70
     1
102
RTVSPropertyOp47
 70
     1
102
RTVSPropertyOp48
 70
     1
102
RTVSPropertyOp49
 70
     1
102
RTVSPropertyOp50
 70
     1
102
RTVSPropertyOp51
 70
     0
102
RTVSPropertyOp52
 70
     0
102
RTVSPropertyOp53
 70
     1
102
RTVSPropertyOp54
 70
     1
102
RTVSPropertyOp55
 70
     1
102
RTVSPropertyOp56
 70
     1
102
RTVSPropertyOp57
 70
     1
102
RTVSPost2010Prop28
280
     0
102
RTVSPost2010PropOp28
 70
     1
102
RTVSPost2010Prop29
280
     1
102
RTVSPost2010PropOp29
 70
     1
102
RTVSPost2010Prop30
280
     1
102
RTVSPost2010PropOp30
 70
     1
102
RTVSPost2010Prop31
280
     0
102
RTVSPost2010PropOp31
 70
     1
102
RTVSPost2010Prop32
280
     0
102
RTVSPost2010PropOp32
 70
     1
102
RTVSPost2010Prop33
280
     0
102
RTVSPost2010PropOp33
 70
     1
102
RTVSPost2010Prop34
280
     0
102
RTVSPost2010PropOp34
 70
     1
102
RTVSPost2010Prop35
280
     0
102
RTVSPost2010PropOp35
 70
     1
102
RTVSPost2010Prop36
280
     0
102
RTVSPost2010PropOp36
 70
     1
102
RTVSPost2010Prop37
 90
       50
102
RTVSPost2010PropOp37
 70
     1
102
RTVSPost2010Prop38
140
0.0
102
RTVSPost2010PropOp38
 70
     1
102
RTVSPost2010Prop39
140
1.0
102
RTVSPost2010PropOp39
 70
     1
102
RTVSPost2010Prop40
 90
        0
102
RTVSPost2010PropOp40
 70
     1
102
RTVSPost2010Prop41ColorIndex
 90
       18
102
RTVSPost2010Prop41ColorRGB
 90
        0
102
RTVSPost2010PropOp41
 70
     1
102
RTVSPost2010Prop42
 90
       50
102
RTVSPost2010PropOp42
 70
     1
102
RTVSPost2010Prop43
 90
        3
102
RTVSPost2010PropOp43
 70
     1
102
RTVSPost2010Prop44ColorIndex
 90
        5
102
RTVSPost2010Prop44ColorRGB
 90
      255
102
RTVSPost2010PropOp44
 70
     1
102
RTVSPost2010Prop45
280
     0
102
RTVSPost2010PropOp45
 70
     1
102
RTVSPost2010Prop46
 90
       50
102
RTVSPost2010PropOp46
 70
     1
102
RTVSPost2010Prop47
 90
       50
102
RTVSPost2010PropOp47
 70
     1
102
RTVSPost2010Prop48
 90
       50
102
RTVSPost2010PropOp48
 70
     1
102
RTVSPost2010Prop49
280
     0
102
RTVSPost2010PropOp49
 70
     1
102
RTVSPost2010Prop50
 90
       50
102
RTVSPost2010PropOp50
 70
     1
102
RTVSPost2010Prop51ColorIndex
 90
      256
102
RTVSPost2010Prop51ColorRGB
 90
-16777216
102
RTVSPost2010PropOp51
 70
     0
102
RTVSPost2010Prop52
140
1.0
102
RTVSPost2010PropOp52
 70
     0
102
RTVSPost2010Prop53
 90
        2
102
RTVSPost2010PropOp53
 70
     1
102
RTVSPost2010Prop54
  1
strokes_ogs.tif
102
RTVSPost2010PropOp54
 70
     1
102
RTVSPost2010Prop55
280
     0
102
RTVSPost2010PropOp55
 70
     1
102
RTVSPost2010Prop56
140
1.0
102
RTVSPost2010PropOp56
 70
     1
102
RTVSPost2010Prop57
140
1.0
102
RTVSPost2010PropOp57
 70
     1
  0
XRECORD
  5
102
102
{ACAD_REACTORS
330
101
102
}
330
101
100
AcDbXrecord
280
     1
102
RTVSPropertyOp0
 70
     1
102
RTVSPropertyOp1
 70
     1
102
RTVSPropertyOp2
 70
     1
102
RTVSPropertyOp3
 70
     1
102
RTVSPropertyOp4
 70
     1
102
RTVSPropertyOp5
 70
     1
102
RTVSPropertyOp6
 70
     1
102
RTVSPropertyOp7
 70
     1
102
RTVSPropertyOp8
 70
     1
102
RTVSPropertyOp9
 70
     1
102
RTVSPropertyOp10
 70
     1
102
RTVSPropertyOp11
 70
     1
102
RTVSPropertyOp12
 70
     1
102
RTVSPropertyOp13
 70
     1
102
RTVSPropertyOp14
 70
     1
102
RTVSPropertyOp15
 70
     1
102
RTVSPropertyOp16
 70
     1
102
RTVSPropertyOp17
 70
     1
102
RTVSPropertyOp18
 70
     1
102
RTVSPropertyOp19
 70
     1
102
RTVSPropertyOp20
 70
     1
102
RTVSPropertyOp21
 70
     1
102
RTVSPropertyOp22
 70
     1
102
RTVSPropertyOp23
 70
     1
102
RTVSPropertyOp24
 70
     1
102
RTVSPropertyOp25
 70
     1
102
RTVSPropertyOp26
 70
     1
102
RTVSPropertyOp27
 70
     1
102
RTVSPropertyOp28
 70
     1
102
RTVSPropertyOp29
 70
     1
102
RTVSPropertyOp30
 70
     1
102
RTVSPropertyOp31
 70
     1
102
RTVSPropertyOp32
 70
     1
102
RTVSPropertyOp33
 70
     1
102
RTVSPropertyOp34
 70
     1
102
RTVSPropertyOp35
 70
     1
102
RTVSPropertyOp36
 70
     1
102
RTVSPropertyOp37
 70
     1
102
RTVSPropertyOp38
 70
     1
102
RTVSPropertyOp39
 70
     1
102
RTVSPropertyOp40
 70
     1
102
RTVSPropertyOp41
 70
     1
102
RTVSPropertyOp42
 70
     1
102
RTVSPropertyOp43
 70
     1
102
RTVSPropertyOp44
 70
     1
102
RTVSPropertyOp45
 70
     1
102
RTVSPropertyOp46
 70
     1
102
RTVSPropertyOp47
 70
     1
102
RTVSPropertyOp48
 70
     1
102
RTVSPropertyOp49
 70
     1
102
RTVSPropertyOp50
 70
     1
102
RTVSPropertyOp51
 70
     0
102
RTVSPropertyOp52
 70
     0
102
RTVSPropertyOp53
 70
     1
102
RTVSPropertyOp54
 70
     1
102
RTVSPropertyOp55
 70
     1
102
RTVSPropertyOp56
 70
     1
102
RTVSPropertyOp57
 70
     1
102
RTVSPost2010Prop28
280
     0
102
RTVSPost2010PropOp28
 70
     1
102
RTVSPost2010Prop29
280
     1
102
RTVSPost2010PropOp29
 70
     1
102
RTVSPost2010Prop30
280
     1
102
RTVSPost2010PropOp30
 70
     1
102
RTVSPost2010Prop31
280
     0
102
RTVSPost2010PropOp31
 70
     1
102
RTVSPost2010Prop32
280
     0
102
RTVSPost2010PropOp32
 70
     1
102
RTVSPost2010Prop33
280
     0
102
RTVSPost2010PropOp33
 70
     1
102
RTVSPost2010Prop34
280
     0
102
RTVSPost2010PropOp34
 70
     1
102
RTVSPost2010Prop35
280
     0
102
RTVSPost2010PropOp35
 70
     1
102
RTVSPost2010Prop36
280
     0
102
RTVSPost2010PropOp36
 70
     1
102
RTVSPost2010Prop37
 90
       50
102
RTVSPost2010PropOp37
 70
     1
102
RTVSPost2010Prop38
140
0.0
102
RTVSPost2010PropOp38
 70
     1
102
RTVSPost2010Prop39
140
1.0
102
RTVSPost2010PropOp39
 70
     1
102
RTVSPost2010Prop40
 90
        0
102
RTVSPost2010PropOp40
 70
     1
102
RTVSPost2010Prop41ColorIndex
 90
       18
102
RTVSPost2010Prop41ColorRGB
 90
        0
102
RTVSPost2010PropOp41
 70
     1
102
RTVSPost2010Prop42
 90
       50
102
RTVSPost2010PropOp42
 70
     1
102
RTVSPost2010Prop43
 90
        3
102
RTVSPost2010PropOp43
 70
     1
102
RTVSPost2010Prop44ColorIndex
 90
        5
102
RTVSPost2010Prop44ColorRGB
 90
      255
102
RTVSPost2010PropOp44
 70
     1
102
RTVSPost2010Prop45
280
     0
102
RTVSPost2010PropOp45
 70
     1
102
RTVSPost2010Prop46
 90
       50
102
RTVSPost2010PropOp46
 70
     1
102
RTVSPost2010Prop47
 90
       50
102
RTVSPost2010PropOp47
 70
     1
102
RTVSPost2010Prop48
 90
       50
102
RTVSPost2010PropOp48
 70
     1
102
RTVSPost2010Prop49
280
     0
102
RTVSPost2010PropOp49
 70
     1
102
RTVSPost2010Prop50
 90
       50
102
RTVSPost2010PropOp50
 70
     1
102
RTVSPost2010Prop51ColorIndex
 90
      256
102
RTVSPost2010Prop51ColorRGB
 90
-16777216
102
RTVSPost2010PropOp51
 70
     0
102
RTVSPost2010Prop52
140
1.0
102
RTVSPost2010PropOp52
 70
     0
102
RTVSPost2010Prop53
 90
        2
102
RTVSPost2010PropOp53
 70
     1
102
RTVSPost2010Prop54
  1
strokes_ogs.tif
102
RTVSPost2010PropOp54
 70
     1
102
RTVSPost2010Prop55
280
     0
102
RTVSPost2010PropOp55
 70
     1
102
RTVSPost2010Prop56
140
1.0
102
RTVSPost2010PropOp56
 70
     1
102
RTVSPost2010Prop57
140
1.0
102
RTVSPost2010PropOp57
 70
     1
  0
XRECORD
  5
122
102
{ACAD_REACTORS
330
121
102
}
330
121
100
AcDbXrecord
280
     1
102
RTVSPropertyOp0
 70
     1
102
RTVSPropertyOp1
 70
     1
102
RTVSPropertyOp2
 70
     1
102
RTVSPropertyOp3
 70
     1
102
RTVSPropertyOp4
 70
     1
102
RTVSPropertyOp5
 70
     1
102
RTVSPropertyOp6
 70
     1
102
RTVSPropertyOp7
 70
     1
102
RTVSPropertyOp8
 70
     1
102
RTVSPropertyOp9
 70
     1
102
RTVSPropertyOp10
 70
     1
102
RTVSPropertyOp11
 70
     1
102
RTVSPropertyOp12
 70
     1
102
RTVSPropertyOp13
 70
     1
102
RTVSPropertyOp14
 70
     1
102
RTVSPropertyOp15
 70
     1
102
RTVSPropertyOp16
 70
     1
102
RTVSPropertyOp17
 70
     1
102
RTVSPropertyOp18
 70
     1
102
RTVSPropertyOp19
 70
     1
102
RTVSPropertyOp20
 70
     1
102
RTVSPropertyOp21
 70
     1
102
RTVSPropertyOp22
 70
     1
102
RTVSPropertyOp23
 70
     1
102
RTVSPropertyOp24
 70
     1
102
RTVSPropertyOp25
 70
     1
102
RTVSPropertyOp26
 70
     1
102
RTVSPropertyOp27
 70
     1
102
RTVSPropertyOp28
 70
     1
102
RTVSPropertyOp29
 70
     1
102
RTVSPropertyOp30
 70
     1
102
RTVSPropertyOp31
 70
     1
102
RTVSPropertyOp32
 70
     1
102
RTVSPropertyOp33
 70
     1
102
RTVSPropertyOp34
 70
     1
102
RTVSPropertyOp35
 70
     1
102
RTVSPropertyOp36
 70
     1
102
RTVSPropertyOp37
 70
     1
102
RTVSPropertyOp38
 70
     1
102
RTVSPropertyOp39
 70
     1
102
RTVSPropertyOp40
 70
     1
102
RTVSPropertyOp41
 70
     1
102
RTVSPropertyOp42
 70
     1
102
RTVSPropertyOp43
 70
     1
102
RTVSPropertyOp44
 70
     1
102
RTVSPropertyOp45
 70
     1
102
RTVSPropertyOp46
 70
     1
102
RTVSPropertyOp47
 70
     1
102
RTVSPropertyOp48
 70
     1
102
RTVSPropertyOp49
 70
     1
102
RTVSPropertyOp50
 70
     1
102
RTVSPropertyOp51
 70
     0
102
RTVSPropertyOp52
 70
     0
102
RTVSPropertyOp53
 70
     1
102
RTVSPropertyOp54
 70
     1
102
RTVSPropertyOp55
 70
     1
102
RTVSPropertyOp56
 70
     1
102
RTVSPropertyOp57
 70
     1
102
RTVSPost2010Prop28
280
     0
102
RTVSPost2010PropOp28
 70
     1
102
RTVSPost2010Prop29
280
     1
102
RTVSPost2010PropOp29
 70
     1
102
RTVSPost2010Prop30
280
     1
102
RTVSPost2010PropOp30
 70
     1
102
RTVSPost2010Prop31
280
     0
102
RTVSPost2010PropOp31
 70
     1
102
RTVSPost2010Prop32
280
     0
102
RTVSPost2010PropOp32
 70
     1
102
RTVSPost2010Prop33
280
     0
102
RTVSPost2010PropOp33
 70
     1
102
RTVSPost2010Prop34
280
     0
102
RTVSPost2010PropOp34
 70
     1
102
RTVSPost2010Prop35
280
     0
102
RTVSPost2010PropOp35
 70
     1
102
RTVSPost2010Prop36
280
     0
102
RTVSPost2010PropOp36
 70
     1
102
RTVSPost2010Prop37
 90
       50
102
RTVSPost2010PropOp37
 70
     1
102
RTVSPost2010Prop38
140
0.0
102
RTVSPost2010PropOp38
 70
     1
102
RTVSPost2010Prop39
140
1.0
102
RTVSPost2010PropOp39
 70
     1
102
RTVSPost2010Prop40
 90
        0
102
RTVSPost2010PropOp40
 70
     1
102
RTVSPost2010Prop41ColorIndex
 90
       18
102
RTVSPost2010Prop41ColorRGB
 90
        0
102
RTVSPost2010PropOp41
 70
     1
102
RTVSPost2010Prop42
 90
       50
102
RTVSPost2010PropOp42
 70
     1
102
RTVSPost2010Prop43
 90
        3
102
RTVSPost2010PropOp43
 70
     1
102
RTVSPost2010Prop44ColorIndex
 90
        5
102
RTVSPost2010Prop44ColorRGB
 90
      255
102
RTVSPost2010PropOp44
 70
     1
102
RTVSPost2010Prop45
280
     0
102
RTVSPost2010PropOp45
 70
     1
102
RTVSPost2010Prop46
 90
       50
102
RTVSPost2010PropOp46
 70
     1
102
RTVSPost2010Prop47
 90
       50
102
RTVSPost2010PropOp47
 70
     1
102
RTVSPost2010Prop48
 90
       50
102
RTVSPost2010PropOp48
 70
     1
102
RTVSPost2010Prop49
280
     0
102
RTVSPost2010PropOp49
 70
     1
102
RTVSPost2010Prop50
 90
       50
102
RTVSPost2010PropOp50
 70
     1
102
RTVSPost2010Prop51ColorIndex
 90
      256
102
RTVSPost2010Prop51ColorRGB
 90
-16777216
102
RTVSPost2010PropOp51
 70
     0
102
RTVSPost2010Prop52
140
1.0
102
RTVSPost2010PropOp52
 70
     0
102
RTVSPost2010Prop53
 90
        2
102
RTVSPost2010PropOp53
 70
     1
102
RTVSPost2010Prop54
  1
strokes_ogs.tif
102
RTVSPost2010PropOp54
 70
     1
102
RTVSPost2010Prop55
280
     0
102
RTVSPost2010PropOp55
 70
     1
102
RTVSPost2010Prop56
140
1.0
102
RTVSPost2010PropOp56
 70
     1
102
RTVSPost2010Prop57
140
1.0
102
RTVSPost2010PropOp57
 70
     1
  0
ENDSEC
  0
EOF
