  0
SECTION
  2
HEADER
  9
$ACADVER
  1
AC1015
  9
$ACADMAINTVER
 70
    20
  9
$DWGCODEPAGE
  3
ANSI_1252
  9
$INSBASE
 10
0.0
 20
0.0
 30
0.0
  9
$EXTMIN
 10
-1145.144443258794
 20
68.19761203920226
 30
0.0
  9
$EXTMAX
 10
-185.2282402847614
 20
443.0671569427472
 30
0.0
  9
$LIMMIN
 10
0.0
 20
0.0
  9
$LIMMAX
 10
12.0
 20
9.0
  9
$ORTHOMODE
 70
     0
  9
$REGENMODE
 70
     1
  9
$FILLMODE
 70
     1
  9
$QTEXTMODE
 70
     0
  9
$MIRRTEXT
 70
     1
  9
$LTSCALE
 40
1.0
  9
$ATTMODE
 70
     1
  9
$TEXTSIZE
 40
0.2
  9
$TRACEWID
 40
0.05
  9
$TEXTSTYLE
  7
STANDARD
  9
$CLAYER
  8
0
  9
$CELTYPE
  6
ByLayer
  9
$CECOLOR
 62
   256
  9
$CELTSCALE
 40
1.0
  9
$DISPSILH
 70
     0
  9
$DIMSCALE
 40
1.0
  9
$DIMASZ
 40
0.18
  9
$DIMEXO
 40
0.0625
  9
$DIMDLI
 40
0.38
  9
$DIMRND
 40
0.0
  9
$DIMDLE
 40
0.0
  9
$DIMEXE
 40
0.18
  9
$DIMTP
 40
0.0
  9
$DIMTM
 40
0.0
  9
$DIMTXT
 40
0.18
  9
$DIMCEN
 40
0.09
  9
$DIMTSZ
 40
0.0
  9
$DIMTOL
 70
     0
  9
$DIMLIM
 70
     0
  9
$DIMTIH
 70
     1
  9
$DIMTOH
 70
     1
  9
$DIMSE1
 70
     0
  9
$DIMSE2
 70
     0
  9
$DIMTAD
 70
     0
  9
$DIMZIN
 70
     0
  9
$DIMBLK
  1

  9
$DIMASO
 70
     1
  9
$DIMSHO
 70
     1
  9
$DIMPOST
  1

  9
$DIMAPOST
  1

  9
$DIMALT
 70
     0
  9
$DIMALTD
 70
     2
  9
$DIMALTF
 40
25.4
  9
$DIMLFAC
 40
1.0
  9
$DIMTOFL
 70
     0
  9
$DIMTVP
 40
0.0
  9
$DIMTIX
 70
     0
  9
$DIMSOXD
 70
     0
  9
$DIMSAH
 70
     0
  9
$DIMBLK1
  1

  9
$DIMBLK2
  1

  9
$DIMSTYLE
  2
STANDARD
  9
$DIMCLRD
 70
     0
  9
$DIMCLRE
 70
     0
  9
$DIMCLRT
 70
     0
  9
$DIMTFAC
 40
1.0
  9
$DIMGAP
 40
0.09
  9
$DIMJUST
 70
     0
  9
$DIMSD1
 70
     0
  9
$DIMSD2
 70
     0
  9
$DIMTOLJ
 70
     1
  9
$DIMTZIN
 70
     0
  9
$DIMALTZ
 70
     0
  9
$DIMALTTZ
 70
     0
  9
$DIMUPT
 70
     0
  9
$DIMDEC
 70
     4
  9
$DIMTDEC
 70
     4
  9
$DIMALTU
 70
     2
  9
$DIMALTTD
 70
     2
  9
$DIMTXSTY
  7
STANDARD
  9
$DIMAUNIT
 70
     0
  9
$DIMADEC
 70
     0
  9
$DIMALTRND
 40
0.0
  9
$DIMAZIN
 70
     0
  9
$DIMDSEP
 70
    46
  9
$DIMATFIT
 70
     3
  9
$DIMFRAC
 70
     0
  9
$DIMLDRBLK
  1

  9
$DIMLUNIT
 70
     2
  9
$DIMLWD
 70
    -2
  9
$DIMLWE
 70
    -2
  9
$DIMTMOVE
 70
     0
  9
$LUNITS
 70
     2
  9
$LUPREC
 70
     4
  9
$SKETCHINC
 40
0.1
  9
$FILLETRAD
 40
0.5
  9
$AUNITS
 70
     0
  9
$AUPREC
 70
     0
  9
$MENU
  1
.
  9
$ELEVATION
 40
0.0
  9
$PELEVATION
 40
0.0
  9
$THICKNESS
 40
0.0
  9
$LIMCHECK
 70
     0
  9
$CHAMFERA
 40
0.5
  9
$CHAMFERB
 40
0.5
  9
$CHAMFERC
 40
0.0
  9
$CHAMFERD
 40
0.0
  9
$SKPOLY
 70
     0
  9
$TDCREATE
 40
2454910.500000000
  9
$TDUCREATE
 40
2454910.708333334
  9
$TDUPDATE
 40
2456234.759557743
  9
$TDUUPDATE
 40
2456234.967891077
  9
$TDINDWG
 40
0.0022822801
  9
$TDUSRTIMER
 40
0.0022820949
  9
$USRTIMER
 70
     1
  9
$ANGBASE
 50
0.0
  9
$ANGDIR
 70
     0
  9
$PDMODE
 70
     0
  9
$PDSIZE
 40
0.0
  9
$PLINEWID
 40
0.0
  9
$SPLFRAME
 70
     0
  9
$SPLINETYPE
 70
     6
  9
$SPLINESEGS
 70
     8
  9
$HANDSEED
  5
BC1
  9
$SURFTAB1
 70
     6
  9
$SURFTAB2
 70
     6
  9
$SURFTYPE
 70
     6
  9
$SURFU
 70
     6
  9
$SURFV
 70
     6
  9
$UCSBASE
  2

  9
$UCSNAME
  2

  9
$UCSORG
 10
0.0
 20
0.0
 30
0.0
  9
$UCSXDIR
 10
1.0
 20
0.0
 30
0.0
  9
$UCSYDIR
 10
0.0
 20
1.0
 30
0.0
  9
$UCSORTHOREF
  2

  9
$UCSORTHOVIEW
 70
     0
  9
$UCSORGTOP
 10
0.0
 20
0.0
 30
0.0
  9
$UCSORGBOTTOM
 10
0.0
 20
0.0
 30
0.0
  9
$UCSORGLEFT
 10
0.0
 20
0.0
 30
0.0
  9
$UCSORGRIGHT
 10
0.0
 20
0.0
 30
0.0
  9
$UCSORGFRONT
 10
0.0
 20
0.0
 30
0.0
  9
$UCSORGBACK
 10
0.0
 20
0.0
 30
0.0
  9
$PUCSBASE
  2

  9
$PUCSNAME
  2

  9
$PUCSORG
 10
0.0
 20
0.0
 30
0.0
  9
$PUCSXDIR
 10
1.0
 20
0.0
 30
0.0
  9
$PUCSYDIR
 10
0.0
 20
1.0
 30
0.0
  9
$PUCSORTHOREF
  2

  9
$PUCSORTHOVIEW
 70
     0
  9
$PUCSORGTOP
 10
0.0
 20
0.0
 30
0.0
  9
$PUCSORGBOTTOM
 10
0.0
 20
0.0
 30
0.0
  9
$PUCSORGLEFT
 10
0.0
 20
0.0
 30
0.0
  9
$PUCSORGRIGHT
 10
0.0
 20
0.0
 30
0.0
  9
$PUCSORGFRONT
 10
0.0
 20
0.0
 30
0.0
  9
$PUCSORGBACK
 10
0.0
 20
0.0
 30
0.0
  9
$USERI1
 70
     0
  9
$USERI2
 70
     0
  9
$USERI3
 70
     0
  9
$USERI4
 70
     0
  9
$USERI5
 70
     0
  9
$USERR1
 40
0.0
  9
$USERR2
 40
0.0
  9
$USERR3
 40
0.0
  9
$USERR4
 40
0.0
  9
$USERR5
 40
0.0
  9
$WORLDVIEW
 70
     1
  9
$SHADEDGE
 70
     3
  9
$SHADEDIF
 70
    70
  9
$TILEMODE
 70
     1
  9
$MAXACTVP
 70
    64
  9
$PINSBASE
 10
0.0
 20
0.0
 30
0.0
  9
$PLIMCHECK
 70
     0
  9
$PEXTMIN
 10
1.000000000000000E+20
 20
1.000000000000000E+20
 30
1.000000000000000E+20
  9
$PEXTMAX
 10
-1.000000000000000E+20
 20
-1.000000000000000E+20
 30
-1.000000000000000E+20
  9
$PLIMMIN
 10
0.0
 20
0.0
  9
$PLIMMAX
 10
12.0
 20
9.0
  9
$UNITMODE
 70
     0
  9
$VISRETAIN
 70
     1
  9
$PLINEGEN
 70
     0
  9
$PSLTSCALE
 70
     1
  9
$TREEDEPTH
 70
  3020
  9
$CMLSTYLE
  2
Standard
  9
$CMLJUST
 70
     0
  9
$CMLSCALE
 40
1.0
  9
$PROXYGRAPHICS
 70
     1
  9
$MEASUREMENT
 70
     0
  9
$CELWEIGHT
370
    -1
  9
$ENDCAPS
280
     0
  9
$JOINSTYLE
280
     0
  9
$LWDISPLAY
290
     0
  9
$INSUNITS
 70
     0
  9
$HYPERLINKBASE
  1

  9
$STYLESHEET
  1

  9
$XEDIT
290
     1
  9
$CEPSNTYPE
380
     0
  9
$PSTYLEMODE
290
     1
  9
$FINGERPRINTGUID
  2
{0C158CD3-4462-4D0A-A319-A697C9B029C8}
  9
$VERSIONGUID
  2
{BAAE6366-5A1B-4D67-BB6B-3FE044C78323}
  9
$EXTNAMES
290
     1
  9
$PSVPSCALE
 40
0.0
  9
$OLESTARTUP
290
     0
  0
ENDSEC
  0
SECTION
  2
CLASSES
  0
CLASS
  1
ACDBDICTIONARYWDFLT
  2
AcDbDictionaryWithDefault
  3
ObjectDBX Classes
 90
        0
280
     0
281
     0
  0
CLASS
  1
MATERIAL
  2
AcDbMaterial
  3
ObjectDBX Classes
 90
     1153
280
     0
281
     0
  0
CLASS
  1
VISUALSTYLE
  2
AcDbVisualStyle
  3
ObjectDBX Classes
 90
     4095
280
     0
281
     0
  0
CLASS
  1
SCALE
  2
AcDbScale
  3
ObjectDBX Classes
 90
     1153
280
     0
281
     0
  0
CLASS
  1
TABLESTYLE
  2
AcDbTableStyle
  3
ObjectDBX Classes
 90
     4095
280
     0
281
     0
  0
CLASS
  1
MLEADERSTYLE
  2
AcDbMLeaderStyle
  3
ACDB_MLEADERSTYLE_CLASS
 90
     4095
280
     0
281
     0
  0
CLASS
  1
ACDBSECTIONVIEWSTYLE
  2
AcDbSectionViewStyle
  3
ObjectDBX Classes
 90
     1025
280
     0
281
     0
  0
CLASS
  1
ACDBDETAILVIEWSTYLE
  2
AcDbDetailViewStyle
  3
ObjectDBX Classes
 90
     1025
280
     0
281
     0
  0
CLASS
  1
SOLID_BACKGROUND
  2
AcDbSolidBackground
  3
SCENEOE
 90
     4095
280
     0
281
     0
  0
CLASS
  1
NPOCOLLECTION
  2
AcDbImpNonPersistentObjectsCollection
  3
ObjectDBX Classes
 90
     1153
280
     0
281
     0
  0
CLASS
  1
DICTIONARYVAR
  2
AcDbDictionaryVar
  3
ObjectDBX Classes
 90
        0
280
     0
281
     0
  0
CLASS
  1
CELLSTYLEMAP
  2
AcDbCellStyleMap
  3
ObjectDBX Classes
 90
     1152
280
     0
281
     0
  0
CLASS
  1
ACDBPLACEHOLDER
  2
AcDbPlaceHolder
  3
ObjectDBX Classes
 90
        0
280
     0
281
     0
  0
CLASS
  1
LAYOUT
  2
AcDbLayout
  3
ObjectDBX Classes
 90
        0
280
     0
281
     0
  0
ENDSEC
  0
SECTION
  2
TABLES
  0
TABLE
  2
VPORT
  5
A05
330
0
100
AcDbSymbolTable
 70
     1
  0
VPORT
  5
A71
330
A05
100
AcDbSymbolTableRecord
100
AcDbViewportTableRecord
  2
*ACTIVE
 70
     0
 10
0.0
 20
0.0
 11
1.0
 21
1.0
 12
-13.16407390115448
 22
-3.043606760120852
 13
0.0
 23
0.0
 14
0.5
 24
0.5
 15
0.5
 25
0.5
 16
0.0
 26
0.0
 36
99.86825730244285
 17
-543.9739685058594
 27
236.1691436767578
 37
0.0
 40
17.31029193528508
 41
1.625
 42
50.0
 43
0.0
 44
0.0
 50
0.0
 51
0.0
 71
     0
 72
   100
 73
     1
 74
     3
 75
     0
 76
     0
 77
     0
 78
     0
281
     0
 65
     1
110
0.0
120
0.0
130
0.0
111
1.0
121
0.0
131
0.0
112
0.0
122
1.0
132
0.0
 79
     0
146
0.0
1001
ACAD_NAV_VCDISPLAY
1070
     3
  0
ENDTAB
  0
TABLE
  2
LTYPE
  5
A02
330
0
100
AcDbSymbolTable
 70
     3
  0
LTYPE
  5
A57
330
A02
100
AcDbSymbolTableRecord
100
AcDbLinetypeTableRecord
  2
ByBlock
 70
     0
  3

 72
    65
 73
     0
 40
0.0
  0
LTYPE
  5
A58
330
A02
100
AcDbSymbolTableRecord
100
AcDbLinetypeTableRecord
  2
ByLayer
 70
     0
  3

 72
    65
 73
     0
 40
0.0
  0
LTYPE
  5
A59
330
A02
100
AcDbSymbolTableRecord
100
AcDbLinetypeTableRecord
  2
CONTINUOUS
 70
     0
  3
Solid line
 72
    65
 73
     0
 40
0.0
  0
LTYPE
  5
A65
330
A02
100
AcDbSymbolTableRecord
100
AcDbLinetypeTableRecord
  2
PHANTOM2
 70
     0
  3
Phantom (.5x) ___ _ _ ___ _ _ ___ _ _ ___ _ _
 72
    65
 73
     6
 40
1.25
 49
0.625
 74
     0
 49
-0.125
 74
     0
 49
0.125
 74
     0
 49
-0.125
 74
     0
 49
0.125
 74
     0
 49
-0.125
 74
     0
  0
LTYPE
  5
A72
330
A02
100
AcDbSymbolTableRecord
100
AcDbLinetypeTableRecord
  2
CONTINUOUS2
 70
     0
  3
Solid Line
 72
    65
 73
     0
 40
0.0
  0
ENDTAB
  0
TABLE
  2
LAYER
  5
9FF
330
0
100
AcDbSymbolTable
 70
     3
  0
LAYER
  5
A51
102
{ACAD_XDICTIONARY
360
A7F
102
}
330
9FF
100
AcDbSymbolTableRecord
100
AcDbLayerTableRecord
  2
0
 70
     0
 62
     7
  6
CONTINUOUS
370
    -3
390
A0C
  0
LAYER
  5
A73
102
{ACAD_XDICTIONARY
360
A81
102
}
330
9FF
100
AcDbSymbolTableRecord
100
AcDbLayerTableRecord
  2
POCKET_1
 70
     0
 62
    80
  6
CONTINUOUS
370
    -3
390
A0C
  0
LAYER
  5
A74
102
{ACAD_XDICTIONARY
360
A83
102
}
330
9FF
100
AcDbSymbolTableRecord
100
AcDbLayerTableRecord
  2
POCKET_2
 70
     0
 62
   230
  6
CONTINUOUS
370
    -3
390
A0C
  0
ENDTAB
  0
TABLE
  2
STYLE
  5
A00
330
0
100
AcDbSymbolTable
 70
     2
  0
STYLE
  5
A52
330
A00
100
AcDbSymbolTableRecord
100
AcDbTextStyleTableRecord
  2
STANDARD
 70
     0
 40
0.0
 41
1.0
 50
0.0
 71
     0
 42
0.2
  3
txt
  4

  0
STYLE
  5
A56
330
A00
100
AcDbSymbolTableRecord
100
AcDbTextStyleTableRecord
  2
Annotative
 70
     0
 40
0.0
 41
1.0
 50
0.0
 71
     0
 42
0.2
  3
txt
  4

1001
AcadAnnotative
1000
AnnotativeData
1002
{
1070
     1
1070
     1
1002
}
  0
ENDTAB
  0
TABLE
  2
VIEW
  5
A03
330
0
100
AcDbSymbolTable
 70
     0
  0
ENDTAB
  0
TABLE
  2
UCS
  5
A04
330
0
100
AcDbSymbolTable
 70
     0
  0
ENDTAB
  0
TABLE
  2
APPID
  5
A06
330
0
100
AcDbSymbolTable
 70
     4
  0
APPID
  5
A53
330
A06
100
AcDbSymbolTableRecord
100
AcDbRegAppTableRecord
  2
ACAD
 70
     0
  0
APPID
  5
A5A
330
A06
100
AcDbSymbolTableRecord
100
AcDbRegAppTableRecord
  2
AcadAnnotative
 70
     0
  0
APPID
  5
A8F
330
A06
100
AcDbSymbolTableRecord
100
AcDbRegAppTableRecord
  2
ACAD_NAV_VCDISPLAY
 70
     0
  0
APPID
  5
BBC
330
A06
100
AcDbSymbolTableRecord
100
AcDbRegAppTableRecord
  2
ACAD_MLEADERVER
 70
     0
  0
ENDTAB
  0
TABLE
  2
DIMSTYLE
  5
A07
330
0
100
AcDbSymbolTable
 70
     2
100
AcDbDimStyleTable
 71
     0
  0
DIMSTYLE
105
A54
330
A07
100
AcDbSymbolTableRecord
100
AcDbDimStyleTableRecord
  2
STANDARD
 70
     0
279
     2
340
A52
  0
DIMSTYLE
105
A55
330
A07
100
AcDbSymbolTableRecord
100
AcDbDimStyleTableRecord
  2
Annotative
 70
     0
340
A52
1001
AcadAnnotative
1000
AnnotativeData
1002
{
1070
     1
1070
     1
1002
}
  0
ENDTAB
  0
TABLE
  2
BLOCK_RECORD
  5
9FE
330
0
100
AcDbSymbolTable
 70
     2
  0
BLOCK_RECORD
  5
A6D
330
9FE
100
AcDbSymbolTableRecord
100
AcDbBlockTableRecord
  2
*Model_Space
340
A70
  0
BLOCK_RECORD
  5
A69
330
9FE
100
AcDbSymbolTableRecord
100
AcDbBlockTableRecord
  2
*Paper_Space
340
A6C
  0
BLOCK_RECORD
  5
A76
330
9FE
100
AcDbSymbolTableRecord
100
AcDbBlockTableRecord
  2
$MODEL_SPACE
340
0
  0
BLOCK_RECORD
  5
A78
330
9FE
100
AcDbSymbolTableRecord
100
AcDbBlockTableRecord
  2
$PAPER_SPACE
340
0
  0
ENDTAB
  0
ENDSEC
  0
SECTION
  2
BLOCKS
  0
BLOCK
  5
A6E
330
A6D
100
AcDbEntity
  8
0
100
AcDbBlockBegin
  2
*Model_Space
 70
     0
 10
0.0
 20
0.0
 30
0.0
  3
*Model_Space
  1

  0
ENDBLK
  5
A6F
330
A6D
100
AcDbEntity
  8
0
100
AcDbBlockEnd
  0
BLOCK
  5
A6A
330
A69
100
AcDbEntity
 67
     1
  8
0
100
AcDbBlockBegin
  2
*Paper_Space
 70
     0
 10
0.0
 20
0.0
 30
0.0
  3
*Paper_Space
  1

  0
ENDBLK
  5
A6B
330
A69
100
AcDbEntity
 67
     1
  8
0
100
AcDbBlockEnd
  0
BLOCK
  5
A77
330
A76
100
AcDbEntity
  8
0
100
AcDbBlockBegin
  2
$MODEL_SPACE
 70
     0
 10
0.0
 20
0.0
 30
0.0
  3
$MODEL_SPACE
  1

  0
ENDBLK
  5
21
330
A76
100
AcDbEntity
  8
0
100
AcDbBlockEnd
  0
BLOCK
  5
A79
330
A78
100
AcDbEntity
  8
0
100
AcDbBlockBegin
  2
$PAPER_SPACE
 70
     0
 10
0.0
 20
0.0
 30
0.0
  3
$PAPER_SPACE
  1

  0
ENDBLK
  5
1D
330
A78
100
AcDbEntity
  8
0
100
AcDbBlockEnd
  0
ENDSEC
  0
SECTION
  2
ENTITIES
  0
LWPOLYLINE
  5
40
330
A6D
100
AcDbEntity
  8
0
100
AcDbPolyline
 90
       32
 70
     1
 43
0.0
 10
-1107.84861966508
 20
347.0274094341412
 10
-985.5676165494967
 20
318.9365384237277
 10
-982.6643062473657
 20
318.9365384237277
 10
-983.8851384124932
 20
328.3889677733019
 10
-984.8849102852915
 20
337.8673277573149
 10
-985.6630766282631
 20
347.3664492391573
 10
-986.2192130591077
 20
356.8811517597038
 10
-986.5530162822004
 20
366.4062463625111
 10
-986.664304253977
 20
375.936538423695
 10
-986.5530162822004
 20
385.4668304848816
 10
-986.2192130591077
 20
394.9919250876888
 10
-985.6630766282631
 20
404.5066276082325
 10
-984.8849102852915
 20
414.0057490900763
 10
-983.8851384124932
 20
423.4841090740866
 10
-982.6643062473657
 20
432.9365384236663
 10
-985.5676165494967
 20
432.9365384236663
 10
-1107.84861966508
 20
404.8456674132474
 10
-1108.102246016991
 20
404.677955424754
 10
-1108.377864648038
 20
404.2568627066791
 10
-1108.945892848089
 20
399.3894219571267
 10
-1109.374107930201
 20
394.7104312656414
 10
-1109.707346892992
 20
390.0237187887237
 10
-1109.945472673816
 20
385.3312121920219
 10
-1110.088387330458
 20
380.6348415243127
 10
-1110.136032081516
 20
375.936538423695
 10
-1110.088387330458
 20
371.2382353230745
 10
-1109.945472673816
 20
366.5418646553653
 10
-1109.707346892992
 20
361.8493580586662
 10
-1109.374107930201
 20
357.1626455817512
 10
-1108.945892848089
 20
352.4836548902591
 10
-1108.42287777343
 20
347.814310473829
 10
-1108.23804727261
 20
347.3462053649398
  0
LWPOLYLINE
  5
41
330
A6D
100
AcDbEntity
  8
0
100
AcDbPolyline
 90
        8
 70
     1
 43
0.0
 10
-1079.271734741156
 20
378.9365384236922
 10
-1015.052836966766
 20
378.9365384236922
 42
-1.0
 10
-1012.931516623214
 20
376.8152180801342
 10
-1012.931516623214
 20
375.0578587672531
 42
-1.0
 10
-1015.052836966766
 20
372.936538423695
 10
-1079.271734741156
 20
372.936538423695
 42
-1.0
 10
-1081.393055084714
 20
375.0578587672531
 10
-1081.393055084714
 20
376.8152180801342
 42
-1.0
  0
LWPOLYLINE
  5
42
330
A6D
100
AcDbEntity
  8
0
100
AcDbPolyline
 90
       56
 70
     1
 43
0.0
 10
-1046.855681424368
 20
321.4828910356938
 10
-1046.729542548572
 20
321.1112978720253
 10
-1046.652985449051
 20
320.72641931224
 10
-1046.627320039014
 20
320.3348407351962
 10
-1046.627320111701
 20
315.4561610787561
 42
1.0
 10
-1044.505999799755
 20
313.3348407035899
 10
-1032.627320143316
 20
313.3348405265904
 10
-1032.627320201117
 20
309.4561608701553
 42
1.0
 10
-1030.505999889171
 20
307.334840494985
 10
-1028.627320232736
 20
307.3348404669907
 10
-1028.653105777007
 20
305.9205843844285
 10
-1028.851479828665
 20
305.5152791310425
 10
-1029.207834085793
 20
305.2384465892059
 10
-1029.423463515715
 20
305.1672075875635
 10
-1035.557332050071
 20
303.999065955632
 10
-1041.727571670928
 20
303.0414433315027
 10
-1047.926959384292
 20
302.2954607255262
 10
-1054.14823807489
 20
301.7619913984183
 10
-1060.384125001466
 20
301.4416598390168
 10
-1066.627320322112
 20
301.3348410332249
 10
-1072.870515639577
 20
301.4416600250708
 10
-1079.106402556619
 20
301.7619917703148
 10
-1085.32768123131
 20
302.29546128283
 10
-1091.527068922438
 20
303.0414440735563
 10
-1097.69730851476
 20
303.9990668815662
 10
-1104.046806442099
 20
305.2384477043687
 10
-1104.403160690987
 20
305.5152802568218
 10
-1104.601534730564
 20
305.9205855161218
 10
-1104.627320232691
 20
307.3348415994535
 10
-1102.748640576251
 20
307.3348415714566
 42
1.0
 10
-1100.62732020108
 20
309.4561618834065
 10
-1100.627320143291
 20
313.3348415398457
 10
-1088.748640486853
 20
313.3348413628448
 42
1.0
 10
-1086.627320111682
 20
315.4561616747934
 10
-1086.62732003899
 20
320.334841331228
 10
-1086.60165461728
 20
320.7264199075051
 10
-1086.525097506289
 20
321.1112984650149
 10
-1086.398958619415
 20
321.4828916249222
 10
-1086.225396227991
 20
321.8348413252404
 10
-1086.007380032647
 20
322.1611256090203
 10
-1085.748640350939
 20
322.4561616616949
 10
-1085.453604290551
 20
322.7149013346151
 10
-1085.127320000274
 20
322.9329175202303
 10
-1084.775370294787
 20
323.1064799011678
 10
-1084.403777131119
 20
323.2326187769607
 10
-1084.018898571333
 20
323.3091758764802
 10
-1083.627319994284
 20
323.3348412865246
 10
-1049.627319994308
 20
323.3348407798969
 10
-1049.235741418028
 20
323.3091753581827
 10
-1048.850862860523
 20
323.2326182471955
 10
-1048.479269700615
 20
323.1064793603264
 10
-1048.127320000301
 20
322.9329169689005
 10
-1047.801035716518
 20
322.7149007735596
 10
-1047.505999663841
 20
322.4561610918482
 10
-1047.247259990923
 20
322.1611250314603
 10
-1047.029243805304
 20
321.8348407411866
  0
LWPOLYLINE
  5
43
330
A6D
100
AcDbEntity
  8
0
100
AcDbPolyline
 90
       65
 70
     1
 43
0.0
 10
-908.6971264686606
 20
270.445133353047
 10
-909.1137366591704
 20
266.588892719159
 42
-1.0
 10
-911.4506363728905
 20
264.7076963636522
 10
-919.2837361191159
 20
265.5539478005603
 10
-919.2837361191159
 20
251.675268144127
 42
-1.0
 10
-921.4050564626795
 20
249.5539478005703
 10
-971.9019237679454
 20
249.5539478005703
 42
-1.0
 10
-973.9888728761483
 20
251.294947989826
 10
-982.6358295534872
 20
298.7438100139441
 10
-992.35919644359
 20
296.9989753298569
 42
-1.0
 10
-994.821846326919
 20
298.7122632659956
 10
-995.506923182169
 20
302.5299622561852
 10
-1038.815154448261
 20
294.7584048446799
 10
-1038.130077593017
 20
290.9407058544945
 42
-1.0
 10
-1039.843365529157
 20
288.4780559711654
 10
-1067.283736119032
 20
283.5539478005521
 10
-1067.283736119032
 20
243.5539478005758
 10
-1031.283736119059
 20
231.5539478005812
 10
-1031.283736119059
 20
247.4326274570123
 42
-1.0
 10
-1029.162415775501
 20
249.5539478005703
 10
-1027.405056462618
 20
249.5539478005703
 42
-1.0
 10
-1025.283736119059
 20
247.4326274570123
 10
-1025.283736119059
 20
231.5539478005812
 10
-1003.283736119072
 20
231.5539478005812
 10
-997.2837361190777
 20
237.5539478005785
 10
-859.2837361191486
 20
237.5539478005785
 10
-853.2837361191541
 20
231.5539478005812
 10
-837.2837361191614
 20
231.5539478005812
 10
-837.2837361191614
 20
247.4326274570123
 42
-1.0
 10
-835.1624157756035
 20
249.5539478005703
 10
-833.4050564627196
 20
249.5539478005703
 42
-1.0
 10
-831.2837361191613
 20
247.4326274570123
 10
-831.2837361191613
 20
231.5539478005812
 10
-787.2837361191923
 20
243.5539478005758
 10
-787.2837361191923
 20
253.5539478005671
 10
-791.1624157756234
 20
253.5539478005671
 42
-1.0
 10
-793.2837361191759
 20
255.6752681441238
 10
-793.2837361191759
 20
257.4326274570077
 42
-1.0
 10
-791.1624157756234
 20
259.5539478005644
 10
-787.2837361191923
 20
259.5539478005644
 10
-787.2837361191923
 20
267.4326274570004
 42
-1.0
 10
-785.1624157756289
 20
269.5539478005585
 10
-781.2837361191868
 20
269.5539478005585
 10
-781.2837361191868
 20
285.5539478005498
 10
-785.1624157756289
 20
285.5539478005498
 42
-1.0
 10
-787.2837361191923
 20
287.6752681441065
 10
-787.2837361191923
 20
295.5539478005453
 10
-817.1624157756035
 20
295.5539478005453
 42
-1.0
 10
-819.2837361191669
 20
297.6752681441034
 10
-819.2837361191669
 20
301.5539478005426
 10
-847.2837361191595
 20
301.5539478005426
 10
-847.2837361191595
 20
297.6752681441034
 42
-1.0
 10
-849.4050564627123
 20
295.5539478005453
 10
-871.2837361191432
 20
295.5539478005453
 10
-871.92083125001
 20
293.7865918528803
 42
-1.0
 10
-874.6358289722108
 20
292.5103523109338
 10
-878.2846722097465
 20
293.8256845522981
 10
-883.7105690937221
 20
278.7737862333445
 10
-880.0617258561862
 20
277.4584539919789
 42
-1.0
 10
-878.7854863142424
 20
274.743456269778
 10
-882.9264890784147
 20
263.2559632566061
 42
-1.0
 10
-885.1499593895971
 20
261.8662943121178
 10
-891.3251038543149
 20
262.5334280198049
 42
-1.0
 10
-893.2063002098205
 20
264.8703277335319
 10
-892.7896900193214
 20
268.7265683674199
  0
LWPOLYLINE
  5
44
330
A6D
100
AcDbEntity
  8
0
100
AcDbPolyline
 90
       77
 70
     1
 43
0.0
 10
-781.2837361191868
 20
94.15426994860027
 10
-785.1624157756289
 20
94.15426994860027
 42
1.0
 10
-787.2837361191923
 20
92.03294960504356
 10
-787.2837361191923
 20
84.15426994860618
 10
-817.1624157756035
 20
84.15426994860618
 42
1.0
 10
-819.2837361191669
 20
82.03294960504948
 10
-819.2837361191669
 20
78.15426994861027
 10
-847.28373611803
 20
78.15426994846567
 10
-847.2837361187558
 20
82.03294960544511
 42
1.0
 10
-849.4050564623194
 20
84.15426994860618
 10
-871.2837361183629
 20
84.15426994860892
 10
-871.9208312495789
 20
85.9216258962248
 42
1.0
 10
-874.6358289721944
 20
87.1978654376093
 10
-878.2846722093372
 20
85.88253319526277
 10
-883.7105690931274
 20
100.9344315147688
 10
-880.0617258556568
 20
102.2497637569216
 42
1.0
 10
-878.7854863141005
 20
104.9647614789806
 10
-882.9264890784147
 20
116.4522544925468
 42
1.0
 10
-885.1499593895971
 20
117.8419234370337
 10
-891.3251038543149
 20
117.1747897293466
 42
1.0
 10
-893.2063002098205
 20
114.8378900156183
 10
-892.7896900209802
 20
110.9816493815093
 10
-908.6971264688134
 20
109.2630843962614
 10
-909.1137366592031
 20
113.1193250299215
 42
1.0
 10
-911.450636372956
 20
115.0005213854707
 10
-919.2837361196179
 20
114.1542699484425
 10
-919.2837361191815
 20
128.0329496049576
 42
1.0
 10
-921.405056462745
 20
130.1542699485811
 10
-951.5502772056567
 20
130.1542699485811
 42
1.0
 10
-953.6715975492205
 20
128.0329496050244
 10
-953.6715975492205
 20
109.0607665161183
 10
-946.0421402363238
 20
101.6544250463447
 10
-931.6363602387644
 20
96.74296597507131
 10
-932.8879998374054
 20
93.07178711912005
 42
1.0
 10
-931.5647098771149
 20
90.37940830458294
 10
-927.893531021165
 20
89.12776870593777
 10
-930.4751097221933
 20
81.55575104811807
 10
-934.1462885781432
 20
82.80739064676325
 42
1.0
 10
-936.8386673926803
 20
81.48410068646999
 10
-938.0903069913268
 20
77.81292183052008
 10
-961.4538696056133
 20
85.77841773276693
 10
-978.7064217894119
 20
102.5264362952676
 10
-982.6358295534872
 20
80.96440773520461
 10
-992.3591964435955
 20
82.70924241929591
 42
1.0
 10
-994.8218463269245
 20
80.99595448315184
 10
-995.506923182169
 20
77.17825549296631
 10
-1038.815154448266
 20
84.94981290447018
 10
-1038.130077593017
 20
88.76751189465844
 42
1.0
 10
-1039.843365529157
 20
91.23016177798886
 10
-1067.283736119032
 20
96.15426994860209
 10
-1067.283736119032
 20
136.1542699485784
 10
-1031.283736119059
 20
148.154269948573
 10
-1031.283736119059
 20
132.2755902921392
 42
1.0
 10
-1029.162415775501
 20
130.1542699485811
 10
-1027.405056462618
 20
130.1542699485811
 42
1.0
 10
-1025.283736119059
 20
132.2755902921392
 10
-1025.283736119059
 20
148.154269948573
 10
-1003.283736119072
 20
148.154269948573
 10
-997.2837361190777
 20
142.1542699485757
 10
-859.2837361191486
 20
142.1542699485757
 10
-853.2837361191541
 20
148.154269948573
 10
-837.2837361191614
 20
148.154269948573
 10
-837.2837361191614
 20
132.2755902921392
 42
1.0
 10
-835.1624157756035
 20
130.1542699485811
 10
-833.4050564627196
 20
130.1542699485811
 42
1.0
 10
-831.2837361191613
 20
132.2755902921392
 10
-831.2837361191613
 20
148.154269948573
 10
-787.2837361191923
 20
136.1542699485784
 10
-787.2837361191923
 20
126.1542699485857
 10
-791.1624157756234
 20
126.1542699485857
 42
1.0
 10
-793.2837361191814
 20
124.0329496050276
 10
-793.2837361191814
 20
122.2755902921465
 42
1.0
 10
-791.1624157756234
 20
120.1542699485884
 10
-787.2837361191923
 20
120.1542699485884
 10
-787.2837361191923
 20
112.2755902921483
 42
1.0
 10
-785.1624157756289
 20
110.154269948593
 10
-781.2837361191868
 20
110.154269948593
  0
LWPOLYLINE
  5
45
330
A6D
100
AcDbEntity
  8
0
100
AcDbPolyline
 90
       29
 70
     1
 43
0.0
 10
-627.3243165296371
 20
219.7519727717871
 10
-628.6436628585804
 20
217.1897648042526
 10
-630.535852581045
 20
215.0160117228839
 10
-632.8917486036484
 20
213.3560905394272
 10
-635.5754683342618
 20
212.3057416392642
 10
-635.5754683342618
 20
221.8033713343237
 42
1.0
 10
-637.6967886778199
 20
223.9246916778817
 10
-639.4541479907038
 20
223.9246916778817
 42
1.0
 10
-641.5754683342618
 20
221.8033713343237
 10
-641.5754683342618
 20
212.3057416392642
 10
-644.2591880648754
 20
213.3560905394272
 10
-646.6150840874732
 20
215.0160117228839
 10
-648.5072738099433
 20
217.1897648042526
 10
-649.826620138881
 20
219.7519727717871
 10
-650.4970262528067
 20
222.5548534412042
 10
-650.4798246894615
 20
225.4367431876737
 10
-649.7760075949313
 20
228.2314213269268
 10
-648.42616949897
 20
230.7776973369608
 10
-646.5081659171237
 20
232.9287079516709
 10
-644.1326228260361
 20
234.560387891781
 10
-641.4365560149435
 20
235.5786256610172
 10
-638.5754683342645
 20
235.9246916778708
 10
-635.7143806535748
 20
235.5786256610172
 10
-633.018313842482
 20
234.560387891781
 10
-630.6427707513947
 20
232.9287079516709
 10
-628.7247671695538
 20
230.7776973369608
 10
-627.3749290735813
 20
228.2314213269281
 10
-626.6711119790568
 20
225.4367431876737
 10
-626.653910415717
 20
222.5548534412069
  0
LWPOLYLINE
  5
46
330
A6D
100
AcDbEntity
  8
0
100
AcDbPolyline
 90
       43
 70
     1
 43
0.0
 10
-663.6702334825965
 20
370.0933271866811
 10
-663.6702335822844
 20
376.7829616291372
 42
-1.0
 10
-661.5489132703331
 20
378.9042820043088
 10
-648.0223231882312
 20
378.9042822058769
 42
-1.0
 10
-645.901002813061
 20
376.7829618939311
 10
-645.9010027133731
 20
370.0933274514696
 10
-640.2565531256107
 20
370.1195236054795
 10
-639.8488039602666
 20
370.3209292683571
 10
-639.5724164417932
 20
370.6820851384626
 10
-639.5027827103913
 20
370.9001293616135
 10
-638.8392860712087
 20
375.9090843096025
 10
-638.8077328716722
 20
380.9616937202724
 10
-639.4086190401576
 20
385.9785446522498
 10
-640.6325003203845
 20
390.8807861878205
 10
-642.4601407088639
 20
395.5913687496286
 10
-644.8628147912154
 20
400.036255105339
 10
-647.8027592256544
 20
404.145584026657
 10
-651.2337662775283
 20
407.8547683131508
 10
-655.1019100761207
 20
411.1055099230911
 10
-659.3463941790924
 20
413.8467162562221
 10
-663.90050712316
 20
416.0353031870699
 10
-668.6926709423939
 20
417.6368722273521
 10
-695.670234570003
 20
443.0671569427472
 10
-703.6702345699993
 20
443.0671568235371
 10
-703.6702343929862
 20
431.1884771671015
 42
-1.0
 10
-705.791554704932
 20
429.0671567919339
 10
-707.5489140178103
 20
429.0671567657459
 42
-1.0
 10
-709.6702343929807
 20
431.1884770776917
 10
-709.6702345699939
 20
443.0671567341273
 10
-719.6702345699921
 20
443.0671565851084
 10
-719.6702338443571
 20
394.3718579344505
 10
-715.0898873980006
 20
395.4002880876298
 10
-710.4145159879708
 20
395.8223595590032
 10
-705.7240395597471
 20
395.6308575358752
 10
-701.0986362612077
 20
394.8290555188821
 10
-696.6173718920388
 20
393.4306593653338
 10
-692.3568483673907
 20
391.4595730038283
 10
-688.3898942986952
 20
388.9494898248414
 10
-684.7843200746888
 20
385.9433167320514
 10
-681.6017587230142
 20
382.4924406995806
 10
-678.8966123665127
 20
378.6558503724208
 10
-676.7151222831878
 20
374.4991277253116
 10
-675.0945784663456
 20
370.0933270164401
  0
LWPOLYLINE
  5
47
330
A6D
100
AcDbEntity
  8
0
100
AcDbPolyline
 90
       40
 70
     1
 43
0.0
 10
-904.7574437030823
 20
214.3871857976316
 10
-904.7574437030878
 20
206.5085061411942
 42
1.0
 10
-902.6361233595295
 20
204.3871857976375
 10
-900.8787640466458
 20
204.3871857976348
 42
1.0
 10
-898.7574437030877
 20
206.5085061411929
 10
-898.7574437030824
 20
230.387185797623
 10
-876.7574437030896
 20
230.3871857976121
 10
-876.7574437030951
 20
222.5085061411747
 42
1.0
 10
-874.6361233595369
 20
220.387185797618
 10
-870.7574437031006
 20
220.3871857976166
 10
-870.7574437031059
 20
206.5085061411792
 42
1.0
 10
-868.6361233595478
 20
204.3871857976212
 10
-864.7574437031114
 20
204.3871857976212
 10
-864.7574437031224
 20
170.3871857976407
 10
-868.6361233595587
 20
170.3871857976434
 42
1.0
 10
-870.7574437031169
 20
168.2658654540867
 10
-870.7574437031224
 20
150.5718011822692
 10
-898.7574437031096
 20
150.5718011822814
 10
-898.7574437031041
 20
168.4504808387102
 42
1.0
 10
-900.8787640466566
 20
170.5718011822696
 10
-902.636123359546
 20
170.5718011822696
 42
1.0
 10
-904.7574437030986
 20
168.4504808387129
 10
-904.7574437031096
 20
150.5718011822814
 10
-984.7574437030678
 20
150.5718011823128
 10
-984.7574437030569
 20
168.265865454129
 42
1.0
 10
-986.8787640466148
 20
170.3871857976857
 10
-990.7574437030515
 20
170.3871857976885
 10
-990.7574437030405
 20
204.3871857976703
 10
-986.8787640465985
 20
204.3871857976676
 42
1.0
 10
-984.7574437030404
 20
206.5085061412256
 10
-984.7574437030404
 20
220.3871857976589
 10
-980.8787640465984
 20
220.3871857976562
 42
1.0
 10
-978.7574437030405
 20
222.508506141217
 10
-978.7574437030405
 20
230.3871857976503
 10
-956.7574437030478
 20
230.3871857976421
 10
-956.7574437030586
 20
206.508506141212
 42
1.0
 10
-954.636123359495
 20
204.3871857976566
 10
-952.8787640466166
 20
204.3871857976539
 42
1.0
 10
-950.757443703064
 20
206.5085061412106
 10
-950.7574437030532
 20
214.3871857976494
  0
LWPOLYLINE
  5
48
330
A6D
100
AcDbEntity
  8
0
100
AcDbPolyline
 90
       20
 70
     1
 43
0.0
 10
-1007.315328518831
 20
198.2778262193049
 10
-1006.811014289866
 20
198.4129568096879
 10
-1006.358858521916
 20
198.6740090640313
 10
-1005.989674883336
 20
199.0431927026198
 10
-1005.728622628986
 20
199.495348470573
 10
-1005.593492038602
 20
199.9996626995376
 10
-1005.584865737879
 20
202.147910720761
 42
-1.0
 10
-1003.463562496497
 20
204.2607129604993
 10
-998.1917723654161
 20
204.2607129604993
 10
-998.1917723654161
 20
224.1187202337828
 10
-1032.64323134535
 20
224.1187202337828
 10
-1032.64323134535
 20
204.2607129604993
 10
-1018.168704835481
 20
204.2607129604993
 42
-1.0
 10
-1016.047401594105
 20
202.1479107207637
 10
-1016.038775293381
 20
199.9996626995376
 10
-1015.903644702997
 20
199.495348470573
 10
-1015.642592448654
 20
199.0431927026198
 10
-1015.273408810073
 20
198.6740090640313
 10
-1014.821253042112
 20
198.4129568096879
 10
-1014.316938813152
 20
198.2778262193049
  0
LWPOLYLINE
  5
49
330
A6D
100
AcDbEntity
  8
0
100
AcDbPolyline
 90
       20
 70
     1
 43
0.0
 10
-1032.901654638061
 20
193.4478979170254
 10
-1033.036785228445
 20
193.9522121459955
 10
-1033.297837482789
 20
194.4043679139528
 10
-1033.667021121369
 20
194.7735515525317
 10
-1034.11917688933
 20
195.0346038068778
 10
-1034.623491118295
 20
195.1697343972636
 10
-1036.771739139518
 20
195.1783606979828
 42
-1.0
 10
-1038.884541379255
 20
197.2996639393644
 10
-1038.884541379255
 20
211.8022233012073
 10
-1058.742548652538
 20
211.8022233012073
 10
-1058.742548652538
 20
168.0919622385354
 10
-1038.884541379255
 20
168.0919622385354
 10
-1038.884541379255
 20
182.5945216003783
 42
-1.0
 10
-1036.771739139518
 20
184.7158248417598
 10
-1034.623491118295
 20
184.7244511424804
 10
-1034.11917688933
 20
184.8595817328648
 10
-1033.667021121369
 20
185.1206339872082
 10
-1033.297837482789
 20
185.4898176257912
 10
-1033.036785228445
 20
185.9419733937513
 10
-1032.901654638061
 20
186.4462876227173
  0
LWPOLYLINE
  5
4A
330
A6D
100
AcDbEntity
  8
0
100
AcDbPolyline
 90
       20
 70
     1
 43
0.0
 10
-1013.475134031649
 20
181.1163259005929
 10
-1013.979448260613
 20
180.9811953102099
 10
-1014.431604028575
 20
180.7201430558651
 10
-1014.800787667155
 20
180.3509594172821
 10
-1015.061839921498
 20
179.8988036493262
 10
-1015.196970511883
 20
179.3944894203589
 10
-1015.205596812601
 20
177.2462413991355
 42
-1.0
 10
-1017.326900053987
 20
175.1334391594014
 10
-1032.642849288485
 20
175.1334391594014
 10
-1032.642849288485
 20
155.2754318861191
 10
-998.1917723654161
 20
155.2754318861191
 10
-998.1917723654161
 20
175.1334391594041
 10
-1002.621757715004
 20
175.1334391594014
 42
-1.0
 10
-1004.743060956391
 20
177.2462413991382
 10
-1004.751687257109
 20
179.3944894203589
 10
-1004.886817847483
 20
179.8988036493262
 10
-1005.147870101837
 20
180.3509594172849
 10
-1005.517053740417
 20
180.7201430558651
 10
-1005.969209508378
 20
180.9811953102099
 10
-1006.473523737338
 20
181.1163259005929
  0
LWPOLYLINE
  5
4B
330
A6D
100
AcDbEntity
  8
0
100
AcDbPolyline
 90
       16
 70
     1
 43
0.0
 10
-507.3060897669129
 20
438.4752957231654
 10
-507.3060897669129
 20
434.5966160667249
 42
-1.0
 10
-509.4274101104656
 20
432.4752957231695
 10
-517.3060897669001
 20
432.4752957231695
 10
-517.3060897669001
 20
318.4752957232296
 10
-509.4274101104656
 20
318.4752957232296
 42
-1.0
 10
-507.3060897669129
 20
316.3539753796715
 10
-507.3060897669129
 20
312.4752957232323
 10
-491.3060897669201
 20
312.4752957232323
 10
-491.3060897669201
 20
316.3539753796715
 42
-1.0
 10
-489.1847694233677
 20
318.4752957232296
 10
-481.3060897669219
 20
318.4752957232296
 10
-481.3060897669219
 20
432.4752957231695
 10
-489.1847694233677
 20
432.4752957231695
 42
-1.0
 10
-491.3060897669201
 20
434.5966160667249
 10
-491.3060897669201
 20
438.4752957231654
  0
LWPOLYLINE
  5
4C
330
A6D
100
AcDbEntity
  8
0
100
AcDbPolyline
 90
        8
 70
     1
 43
0.0
 10
-505.1847694233604
 20
398.4752957231878
 10
-492.9658716489471
 20
398.4752957231878
 42
1.0
 10
-490.8445513053889
 20
400.5966160667444
 10
-490.8445513053889
 20
402.3539753796269
 42
1.0
 10
-492.9658716489471
 20
404.475295723185
 10
-505.1847694233604
 20
404.475295723185
 42
1.0
 10
-507.3060897669184
 20
402.3539753796269
 10
-507.3060897669184
 20
400.5966160667444
 42
1.0
  0
LWPOLYLINE
  5
4D
330
A6D
100
AcDbEntity
  8
0
100
AcDbPolyline
 90
        8
 70
     1
 43
0.0
 10
-505.1847694233604
 20
352.4752957232141
 10
-492.9658716489471
 20
352.4752957232141
 42
-1.0
 10
-490.8445513053889
 20
350.3539753796561
 10
-490.8445513053889
 20
348.5966160667749
 42
-1.0
 10
-492.9658716489471
 20
346.4752957232168
 10
-505.1847694233604
 20
346.4752957232168
 42
-1.0
 10
-507.3060897669184
 20
348.5966160667749
 10
-507.3060897669184
 20
350.3539753796561
 42
-1.0
  0
LWPOLYLINE
  5
4E
330
A6D
100
AcDbEntity
  8
0
100
AcDbPolyline
 90
       21
 70
     1
 43
0.0
 10
-534.2492874158317
 20
365.9247533177014
 10
-534.1053351152051
 20
375.4752957231968
 10
-534.2492874158263
 20
385.025838128699
 10
-534.6810135317325
 20
394.567703515766
 10
-535.4001212239018
 20
404.0922227493606
 10
-536.4059571565803
 20
413.5907424540623
 10
-537.6976074909086
 20
423.0546328759742
 10
-539.2738987151278
 20
432.4752957231695
 10
-611.1110232681514
 20
432.4752957231695
 10
-611.1110232681514
 20
428.5966160667276
 42
-1.0
 10
-613.2323436117096
 20
426.4752957231722
 10
-627.1110232681387
 20
426.4752957231722
 10
-627.1110232681387
 20
324.4752957232296
 10
-613.2323436117096
 20
324.4752957232296
 42
-1.0
 10
-611.1110232681514
 20
322.3539753796715
 10
-611.1110232681514
 20
318.4752957232296
 10
-539.2738987151278
 20
318.4752957232296
 10
-537.6976074909086
 20
327.8959585704248
 10
-536.4059571565803
 20
337.3598489923327
 10
-535.4001212239018
 20
346.8583686970358
 10
-534.6810135317325
 20
356.3828879306317
  0
LWPOLYLINE
  5
4F
330
A6D
100
AcDbEntity
  8
0
100
AcDbPolyline
 90
        8
 70
     1
 43
0.0
 10
-603.3833476023028
 20
398.4752957231878
 10
-579.1644498279004
 20
398.4752957231878
 42
1.0
 10
-577.0431294843421
 20
400.5966160667444
 10
-577.0431294843421
 20
402.3539753796269
 42
1.0
 10
-579.1644498279004
 20
404.475295723185
 10
-603.3833476023028
 20
404.475295723185
 42
1.0
 10
-605.504667945861
 20
402.3539753796269
 10
-605.504667945861
 20
400.5966160667444
 42
1.0
  0
LWPOLYLINE
  5
50
330
A6D
100
AcDbEntity
  8
0
100
AcDbPolyline
 90
        8
 70
     1
 43
0.0
 10
-603.3833476023028
 20
352.4752957232141
 10
-579.1644498279004
 20
352.4752957232141
 42
-1.0
 10
-577.0431294843421
 20
350.3539753796561
 10
-577.0431294843421
 20
348.5966160667749
 42
-1.0
 10
-579.1644498279004
 20
346.4752957232168
 10
-603.3833476023028
 20
346.4752957232168
 42
-1.0
 10
-605.504667945861
 20
348.5966160667749
 10
-605.504667945861
 20
350.3539753796561
 42
-1.0
  0
LWPOLYLINE
  5
51
330
A6D
100
AcDbEntity
  8
0
100
AcDbPolyline
 90
       87
 70
     1
 43
0.0
 10
-1096.812135620387
 20
119.9043780789576
 10
-1097.185990087071
 20
120.3363190886486
 10
-1097.508134778278
 20
120.8080849161909
 10
-1097.77436454352
 20
121.3135173154353
 10
-1097.981204123823
 20
121.846018570013
 10
-1098.125953516396
 20
122.3986376173299
 10
-1100.103992315329
 20
133.1204638285266
 10
-1101.725363696407
 20
143.9019919965464
 10
-1102.98828389528
 20
154.7313607392019
 10
-1103.89136350046
 20
165.5966560421311
 10
-1104.433608981882
 20
176.4859243660804
 10
-1104.614423783959
 20
187.3871857977039
 10
-1104.433608981871
 20
198.2884472293206
 10
-1103.891363500439
 20
209.177715553274
 10
-1102.988283895242
 20
220.0430108562018
 10
-1101.725363696363
 20
230.8723795988573
 10
-1100.103992315263
 20
241.6539077668744
 10
-1098.12595351632
 20
252.375733978067
 10
-1097.981204123741
 20
252.9283530253826
 10
-1097.774364543443
 20
253.4608542799616
 10
-1097.508134778201
 20
253.9662866792074
 10
-1097.185990086984
 20
254.4380525067483
 10
-1096.812135620316
 20
254.8699935164406
 10
-1096.391451527793
 20
255.2564713196924
 10
-1095.929429254625
 20
255.5924409867975
 10
-1095.432099858439
 20
255.8735169014392
 10
-1094.905955282164
 20
256.0960300088313
 10
-1094.357863610804
 20
256.257075710116
 10
-1093.794979418169
 20
256.3545517778473
 10
-1093.22465037379
 20
256.3871857976576
 10
-1082.290827766203
 20
256.3871857976549
 10
-1081.638196805104
 20
256.3444101045222
 10
-1080.996732540694
 20
256.2168149290977
 10
-1080.377410604377
 20
256.0065834602097
 10
-1079.790827766209
 20
255.7173128165754
 10
-1079.247020621162
 20
255.353952499109
 10
-1078.755293860268
 20
254.9227197035831
 10
-1078.324061064749
 20
254.4309929426947
 10
-1077.960700747285
 20
253.8871857976526
 10
-1077.67143010365
 20
253.3006029594778
 10
-1077.461198634764
 20
252.6812810231621
 10
-1077.333603459341
 20
252.0398167587537
 10
-1077.290827766204
 20
250.6179550284205
 10
-1081.169507422646
 20
250.6179550284232
 42
1.0
 10
-1083.29082776621
 20
248.4966346848679
 10
-1083.29082776621
 20
246.7392753719881
 42
1.0
 10
-1081.169507422652
 20
244.6179550284287
 10
-1077.290827766215
 20
244.6179550284259
 10
-1077.290827766215
 20
244.3871857976576
 10
-1065.290827766237
 20
216.3871857976648
 10
-1075.574126700856
 20
216.3871857976703
 42
1.0
 10
-1077.695447044419
 20
214.2658654541122
 10
-1077.695447044419
 20
212.5085061412311
 42
1.0
 10
-1075.574126700867
 20
210.387185797673
 10
-1065.290827766237
 20
210.3871857976649
 10
-1065.29082776627
 20
164.3871857976912
 10
-1075.574126700888
 20
164.3871857976966
 42
1.0
 10
-1077.695447044447
 20
162.2658654541413
 10
-1077.695447044447
 20
160.5085061412616
 42
1.0
 10
-1075.574126700888
 20
158.3871857977021
 10
-1065.29082776627
 20
158.3871857976939
 10
-1077.290827766281
 20
130.3871857977203
 10
-1077.290827766281
 20
130.1564165669505
 10
-1081.169507422717
 20
130.1564165669519
 42
1.0
 10
-1083.290827766275
 20
128.0350962233938
 10
-1083.290827766275
 20
126.2777369105099
 42
1.0
 10
-1081.169507422723
 20
124.1564165669532
 10
-1077.290827766281
 20
124.1564165669519
 10
-1077.333603459412
 20
122.7345548366228
 10
-1077.461198634841
 20
122.0930905722102
 10
-1077.671430103731
 20
121.4737686358986
 10
-1077.960700747362
 20
120.8871857977253
 10
-1078.324061064825
 20
120.3433786526804
 10
-1078.755293860355
 20
119.851651891792
 10
-1079.247020621238
 20
119.4204190962674
 10
-1079.790827766286
 20
119.0570587788038
 10
-1080.377410604459
 20
118.7677881351681
 10
-1080.996732540771
 20
118.5575566662801
 10
-1081.63819680518
 20
118.4299614908556
 10
-1082.290827766285
 20
118.3871857977258
 10
-1093.224650373866
 20
118.3871857977326
 10
-1093.794979418251
 20
118.4198198175428
 10
-1094.357863610891
 20
118.5172958852768
 10
-1094.905955282246
 20
118.6783415865642
 10
-1095.432099858521
 20
118.9008546939591
 10
-1095.929429254712
 20
119.1819306086007
 10
-1096.391451527869
 20
119.5179002757059
  0
LWPOLYLINE
  5
52
330
A6D
100
AcDbEntity
  8
0
100
AcDbPolyline
 90
       48
 70
     1
 43
0.0
 10
-841.1020030690091
 20
173.223321663689
 10
-838.9903048515774
 20
172.181947346607
 10
-836.7607458808567
 20
171.4251140586058
 10
-834.4514745289716
 20
170.9657714270803
 10
-832.1020030690117
 20
170.8117789318101
 10
-829.7525316090521
 20
170.9657714270803
 10
-827.4432602571669
 20
171.4251140586058
 10
-825.2137012864462
 20
172.181947346607
 10
-823.1020030690199
 20
173.223321663689
 10
-821.1442973468532
 20
174.5314188065668
 10
-819.3740810076524
 20
176.0838568704493
 10
-817.8216429437792
 20
177.8540732096501
 10
-816.5135458009014
 20
179.8117789318073
 10
-815.4721714838142
 20
181.9234771492307
 10
-814.715338195813
 20
184.1530361199597
 10
-814.2559955642985
 20
186.4623074718434
 10
-814.1020030690171
 20
188.8117789318019
 10
-814.2559955642985
 20
191.1612503917617
 10
-814.715338195813
 20
193.4705217436441
 10
-815.4721714838142
 20
195.7000807143689
 10
-816.5135458009014
 20
197.8117789317937
 10
-817.8216429437792
 20
199.769484653951
 10
-819.3740810076524
 20
201.539700993153
 10
-821.1442973468532
 20
203.0921390570342
 10
-823.1020030690199
 20
204.4002361999093
 10
-825.2137012864462
 20
205.4416105169968
 10
-827.4432602571669
 20
206.1984438049953
 10
-829.7525316090521
 20
206.6577864365207
 10
-832.1020030690117
 20
206.811778931791
 10
-834.4514745289716
 20
206.6577864365207
 10
-836.7607458808567
 20
206.1984438049953
 10
-838.9903048515774
 20
205.4416105169968
 10
-841.1020030690091
 20
204.4002361999093
 10
-843.0597087911595
 20
203.0921390570342
 10
-844.8299251303602
 20
201.539700993153
 10
-846.3823631942441
 20
199.769484653951
 10
-847.6904603371274
 20
197.8117789317937
 10
-848.7318346542039
 20
195.7000807143689
 10
-849.4886679421997
 20
193.4705217436441
 10
-849.9480105737307
 20
191.1612503917617
 10
-850.1020030690062
 20
188.8117789318019
 10
-849.9480105737307
 20
186.4623074718434
 10
-849.4886679421997
 20
184.1530361199597
 10
-848.7318346542039
 20
181.9234771492307
 10
-847.6904603371274
 20
179.8117789318073
 10
-846.3823631942441
 20
177.8540732096501
 10
-844.8299251303602
 20
176.0838568704493
 10
-843.0597087911595
 20
174.5314188065668
  0
LWPOLYLINE
  5
53
330
A6D
100
AcDbEntity
  8
0
100
AcDbPolyline
 90
        8
 70
     1
 43
0.0
 10
-834.211451956223
 20
185.8117789318046
 10
-829.992554181806
 20
185.8117789318046
 42
1.0
 10
-827.8712338382424
 20
187.9330992753613
 10
-827.8712338382424
 20
189.6904585882411
 42
1.0
 10
-829.992554181806
 20
191.8117789317992
 10
-834.211451956223
 20
191.8117789317992
 42
1.0
 10
-836.332772299781
 20
189.6904585882411
 10
-836.332772299781
 20
187.9330992753613
 42
1.0
  0
LWPOLYLINE
  5
54
330
A6D
100
AcDbEntity
  8
0
100
AcDbPolyline
 90
       31
 70
     1
 43
0.0
 10
-760.8369694186353
 20
366.5071822092959
 10
-760.6809282839774
 20
375.4752957231968
 10
-760.8369694186353
 20
384.4434092371045
 10
-761.3049039175348
 20
393.4006658561076
 10
-762.0841652941209
 20
402.3362218287904
 10
-763.1738101661796
 20
411.2392596747594
 10
-764.5725193978657
 20
420.0990012804254
 10
-766.2785996967186
 20
428.9047209470874
 10
-766.3780423214821
 20
429.1745713537624
 10
-766.7807534052194
 20
429.5768342783894
 10
-808.6289114721937
 20
438.4752927330866
 10
-808.6289114721937
 20
434.5966160667249
 42
-1.0
 10
-810.750231815752
 20
432.4752957231695
 10
-819.1793700405835
 20
432.4752957231695
 42
-1.0
 10
-821.300690384136
 20
434.5966160667249
 10
-821.300690384136
 20
438.4752927330866
 10
-841.3006903841214
 20
438.4752927330866
 10
-841.3006903841214
 20
312.4752987133125
 10
-821.300690384136
 20
312.4752987133125
 10
-821.300690384136
 20
316.3539753796715
 42
-1.0
 10
-819.1793700405835
 20
318.4752957232296
 10
-810.750231815752
 20
318.4752957232296
 42
-1.0
 10
-808.6289114721937
 20
316.3539753796715
 10
-808.6289114721937
 20
312.4752987133125
 10
-767.0507143714278
 20
321.2746150764035
 10
-766.698492143322
 20
321.4235546013926
 10
-766.3362797260352
 20
321.8626375573983
 10
-764.5725193978657
 20
330.8515901659709
 10
-763.1738101661742
 20
339.7113317716411
 10
-762.0841652941209
 20
348.6143696176086
 10
-761.3049039175348
 20
357.5499255902914
  0
LWPOLYLINE
  5
55
330
A6D
100
AcDbEntity
  8
0
100
AcDbPolyline
 90
       27
 70
     1
 43
0.0
 10
-804.8135288501894
 20
430.2681200682193
 10
-804.8025666265298
 20
320.5348087016068
 10
-804.6428980486787
 20
320.1237705973138
 10
-804.3219615703701
 20
319.8213699444857
 10
-803.9021621895658
 20
319.6864075133625
 10
-803.6073586612507
 20
319.7039558438072
 10
-771.8696545179986
 20
326.4344061619774
 10
-771.5144973856292
 20
326.7612184886627
 10
-771.3678106108491
 20
327.119877716102
 10
-769.9388048671112
 20
335.1022427943676
 10
-768.7675916228859
 20
343.1264853875863
 10
-767.8553857355195
 20
351.184282237676
 10
-767.2031334033602
 20
359.2672752819319
 10
-766.8115111842785
 20
367.3670803225383
 10
-766.6809252938971
 20
375.4752957231968
 10
-766.8115111842785
 20
383.5835111238635
 10
-767.2031334033602
 20
391.6833161644658
 10
-767.8553857355195
 20
399.7663092087244
 10
-768.7675916228859
 20
407.8241060588113
 10
-769.9388048671112
 20
415.8483486520315
 10
-771.423615428368
 20
424.0172163819643
 10
-771.708723455338
 20
424.406647118421
 10
-772.0487589742945
 20
424.5924677232401
 10
-803.7541090464417
 20
431.2663526217877
 10
-804.1892354139957
 20
431.1948584108416
 10
-804.443540625728
 20
431.0447054105507
 10
-804.7163056127708
 20
430.6982293799554
  0
LWPOLYLINE
  5
56
330
A6D
100
AcDbEntity
  8
0
100
AcDbPolyline
 90
       43
 70
     1
 43
0.0
 10
-679.0576389768177
 20
304.626787711144
 10
-684.0665939050333
 20
303.9632909226835
 10
-689.1192033147619
 20
303.9317375725647
 10
-694.1360542646464
 20
304.5326235915208
 10
-699.0382958366901
 20
305.7565047256537
 10
-703.748878452963
 20
307.5841449737473
 10
-708.1937648802879
 20
309.9868189236228
 10
-712.3030938892216
 20
312.9267632355937
 10
-716.0122782779719
 20
316.3577701769229
 10
-719.2630200031962
 20
320.2259138786311
 10
-722.0042264628187
 20
324.4703978999079
 10
-724.1928135294031
 20
329.0245107787455
 10
-725.7943827124996
 20
333.8166745502501
 10
-751.2246682319148
 20
360.7942374199585
 10
-751.2246683511278
 20
368.7942374199536
 10
-739.3459886946948
 20
368.7942375969612
 42
1.0
 10
-737.2246683827491
 20
370.9155579721288
 10
-737.2246684089316
 20
372.6729172850127
 42
1.0
 10
-739.3459887841018
 20
374.7942375969612
 10
-751.2246684405401
 20
374.7942374199481
 10
-751.2246685895536
 20
384.7942374199435
 10
-702.5293699388901
 20
384.7942381455784
 10
-703.5577999555605
 20
380.213891668573
 10
-703.9798712875958
 20
375.5385202459729
 10
-703.788369124682
 20
370.8480438234531
 10
-702.986566969827
 20
366.2226405488085
 10
-701.5881706827329
 20
361.7413762213157
 10
-699.6170841942436
 20
357.480852755412
 10
-697.107000897033
 20
353.5138987615233
 10
-694.1008276967815
 20
349.9083246271108
 10
-690.6499515694674
 20
346.7257633782891
 10
-686.8133611616727
 20
344.0206171361247
 10
-682.6566384495588
 20
341.8391271766811
 10
-678.2508376923917
 20
340.2185834911473
 10
-678.2508375221453
 20
328.7942385073982
 10
-684.9404719646067
 20
328.794238407713
 42
1.0
 10
-687.0617922765525
 20
326.6729180325455
 10
-687.061792074983
 20
313.1463279504354
 42
1.0
 10
-684.9404716998183
 20
311.0250076384896
 10
-678.2508372573622
 20
311.0250077381747
 10
-678.2770332431473
 20
305.3805581496332
 10
-678.4784388938724
 20
304.9728089782826
 10
-678.8395947557405
 20
304.6964214490466
  0
LWPOLYLINE
  5
57
330
A6D
100
AcDbEntity
  8
0
100
AcDbPolyline
 90
        8
 70
     1
 43
0.0
 10
-1129.49358851356
 20
223.1593363574679
 10
-1130.511209365923
 20
216.5386844749906
 42
1.0
 10
-1128.73678249834
 20
214.1197158328682
 10
-1126.999821205829
 20
213.852737888338
 42
1.0
 10
-1124.580852563703
 20
215.6271647559242
 10
-1123.563231711334
 20
222.2478166384043
 42
1.0
 10
-1125.337658578917
 20
224.6667852805253
 10
-1127.074619871433
 20
224.9337632250555
 42
1.0
  0
LWPOLYLINE
  5
58
330
A6D
100
AcDbEntity
  8
0
100
AcDbPolyline
 90
        8
 70
     1
 43
0.0
 10
-1129.375237954968
 20
187.5130019656026
 10
-1129.375237954968
 20
180.8146003989439
 42
-1.0
 10
-1131.496558298531
 20
178.6932800553858
 10
-1133.25391761141
 20
178.6932800553858
 42
-1.0
 10
-1135.375237954962
 20
180.8146003989439
 10
-1135.375237954962
 20
187.5130019656026
 42
-1.0
 10
-1133.25391761141
 20
189.6343223091594
 10
-1131.496558298531
 20
189.6343223091594
 42
-1.0
  0
LWPOLYLINE
  5
59
330
A6D
100
AcDbEntity
  8
0
100
AcDbPolyline
 90
      109
 70
     1
 43
0.0
 10
-1115.382090747531
 20
252.3154598525855
 10
-1114.677600209438
 20
252.087736244443
 10
-1114.035478346302
 20
251.7191653925637
 10
-1113.483519962192
 20
251.2257012072554
 10
-1113.045617056454
 20
250.6287037155348
 10
-1112.875576765539
 20
250.2993098692362
 10
-1112.740724637737
 20
247.3945704130076
 10
-1116.834584897884
 20
247.3945704130076
 42
1.0
 10
-1118.955905241437
 20
245.2732500694494
 10
-1118.955905241437
 20
243.5158907565684
 42
1.0
 10
-1116.834584897884
 20
241.3945704130103
 10
-1112.740724637737
 20
241.3945704130103
 10
-1112.740724637737
 20
126.9330319515349
 10
-1116.834584897884
 20
126.9330319515349
 42
1.0
 10
-1118.955905241437
 20
124.8117116079768
 10
-1118.955905241437
 20
123.0543522950916
 42
1.0
 10
-1116.834584897884
 20
120.9330319515349
 10
-1112.740724637737
 20
120.9330319515349
 10
-1112.875576765539
 20
118.028292495309
 10
-1113.045617056454
 20
117.6988986490104
 10
-1113.483519962192
 20
117.101901157287
 10
-1114.035478346302
 20
116.6084369719801
 10
-1114.677600209438
 20
116.2398661200967
 10
-1115.382090747531
 20
116.0121425119583
 10
-1115.748264658464
 20
115.9544305247151
 10
-1116.957314908132
 20
115.9815636175886
 10
-1118.16662653999
 20
115.9917659711505
 10
-1119.375962478783
 20
115.9850355853155
 10
-1120.585085644514
 20
115.9613737795267
 10
-1121.793758998883
 20
115.920785192469
 10
-1123.001745591777
 20
115.8632777812001
 10
-1124.208808607705
 20
115.7888628195503
 10
-1125.414711412268
 20
115.6975548959412
 10
-1126.619217598477
 20
115.5893719105119
 10
-1127.822091033161
 20
115.464335071617
 10
-1129.023095903241
 20
115.3224688916655
 10
-1130.199135674367
 20
115.4946459604226
 10
-1131.343738652287
 20
115.8149559809006
 10
-1132.438325267293
 20
116.2781995761454
 10
-1133.131446418027
 20
116.6628148773724
 10
-1133.46512783163
 20
116.8768572246774
 10
-1134.118528420885
 20
117.3158563034883
 10
-1135.276511739506
 20
118.2495611248717
 10
-1136.348998372302
 20
119.2803387353154
 10
-1137.327878105063
 20
120.4003943269969
 10
-1138.205748585165
 20
121.6012579661628
 10
-1138.975971298496
 20
122.8738486433105
 10
-1139.632721770452
 20
124.2085429443653
 10
-1140.171033610953
 20
125.5952478235917
 10
-1140.586836070583
 20
127.0234769278554
 10
-1140.876984823901
 20
128.4824298951017
 10
-1141.207949937019
 20
130.646967893263
 10
-1141.714525739605
 20
134.191929350361
 10
-1142.186376496761
 20
137.7416797132763
 10
-1142.62345699476
 20
141.2958788374588
 10
-1143.025725351621
 20
144.8541861520545
 10
-1143.393143021156
 20
148.4162606925698
 10
-1143.725674796609
 20
151.9817611335148
 10
-1144.023288814104
 20
155.5503458211233
 10
-1144.285956555631
 20
159.1216728061017
 10
-1144.513652851816
 20
162.6953998763692
 10
-1144.706355884317
 20
166.2711845898732
 10
-1144.864047187925
 20
169.8486843073876
 10
-1144.986711652333
 20
173.4275562253603
 10
-1145.07433752356
 20
177.0074574087372
 10
-1145.126916405115
 20
180.5880448238499
 10
-1145.144443258794
 20
184.1586269932726
 10
-1145.126916405115
 20
187.7395575406952
 10
-1145.07433752356
 20
191.3201449558094
 10
-1144.986711652333
 20
194.9000461391849
 10
-1144.864047187925
 20
198.4789180571575
 10
-1144.706355884317
 20
202.0564177746733
 10
-1144.513652851816
 20
205.6322024881747
 10
-1144.285956555631
 20
209.2059295584408
 10
-1144.023288814104
 20
212.7772565434205
 10
-1143.725674796609
 20
216.3458412310304
 10
-1143.393143021156
 20
219.9113416719753
 10
-1143.025725351621
 20
223.4734162124879
 10
-1142.62345699476
 20
227.0317235270864
 10
-1142.186376496761
 20
230.5859226512689
 10
-1141.714525739605
 20
234.1356730141869
 10
-1141.207949937019
 20
237.6806344712822
 10
-1140.876984823901
 20
239.8451724694421
 10
-1140.586836070583
 20
241.3041254366911
 10
-1140.171033610953
 20
242.7323545409507
 10
-1139.632721770452
 20
244.1190594201784
 10
-1138.975971298496
 20
245.4537537212333
 10
-1138.205748585165
 20
246.7263443983796
 10
-1137.327878105063
 20
247.9272080375483
 10
-1136.348998372302
 20
249.0472636292311
 10
-1135.276511739506
 20
250.0780412396735
 10
-1134.118528420885
 20
251.0117460610541
 10
-1133.46512783163
 20
251.450745139865
 10
-1133.131446418027
 20
251.6647874871714
 10
-1132.08013714413
 20
252.2192812174402
 10
-1130.966858046282
 20
252.6356033722295
 10
-1129.809680234711
 20
252.906996074216
 10
-1129.023095903241
 20
253.005133472877
 10
-1127.822091033161
 20
252.8632672929227
 10
-1126.619217598477
 20
252.7382304540305
 10
-1125.414711412268
 20
252.6300474686013
 10
-1124.208808607705
 20
252.5387395449907
 10
-1123.001745591777
 20
252.4643245833423
 10
-1121.793758998883
 20
252.406817172072
 10
-1120.585085644514
 20
252.3662285850198
 10
-1119.375962478783
 20
252.3425667792269
 10
-1118.16662653999
 20
252.335836393396
 10
-1116.957314908132
 20
252.3460387469565
 10
-1115.748264658464
 20
252.3731718398314
  0
LWPOLYLINE
  5
5A
330
A6D
100
AcDbEntity
  8
0
100
AcDbPolyline
 90
        8
 70
     1
 43
0.0
 10
-1130.500432185666
 20
152.6418783654171
 10
-1129.482811333297
 20
146.0212264829356
 42
1.0
 10
-1127.063842691176
 20
144.2467996153481
 10
-1125.32688139866
 20
144.5137775598797
 42
1.0
 10
-1123.552454531076
 20
146.932746202002
 10
-1124.570075383445
 20
153.5533980844821
 42
1.0
 10
-1126.989044025566
 20
155.3278249520684
 10
-1128.726005318082
 20
155.0608470075381
 42
1.0
  0
LWPOLYLINE
  5
5B
330
A6D
100
AcDbEntity
  8
0
100
AcDbPolyline
 90
        8
 70
     1
 43
0.0
 10
-918.794017749828
 20
352.4752957232141
 10
-878.5751199754384
 20
352.4752957232141
 42
-1.0
 10
-876.4537996318804
 20
350.3539753796561
 10
-876.4537996318804
 20
348.5966160667749
 42
-1.0
 10
-878.5751199754384
 20
346.4752957232168
 10
-918.794017749828
 20
346.4752957232168
 42
-1.0
 10
-920.9153380933917
 20
348.5966160667749
 10
-920.9153380933917
 20
350.3539753796561
 42
-1.0
  0
LWPOLYLINE
  5
5C
330
A6D
100
AcDbEntity
  8
0
100
AcDbPolyline
 90
        8
 70
     1
 43
0.0
 10
-931.486777894579
 20
372.4752957231995
 10
-895.2678801201765
 20
372.4752957231995
 42
1.0
 10
-893.1465597766131
 20
374.5966160667563
 10
-893.1465597766131
 20
376.3539753796415
 42
1.0
 10
-895.2678801201765
 20
378.4752957231982
 10
-931.486777894579
 20
378.4752957231982
 42
1.0
 10
-933.6080982381369
 20
376.3539753796415
 10
-933.6080982381369
 20
374.5966160667563
 42
1.0
  0
LWPOLYLINE
  5
5D
330
A6D
100
AcDbEntity
  8
0
100
AcDbPolyline
 90
        8
 70
     1
 43
0.0
 10
-918.794017749828
 20
404.475295723185
 10
-878.5751199754384
 20
404.475295723185
 42
-1.0
 10
-876.4537996318804
 20
402.3539753796269
 10
-876.4537996318804
 20
400.5966160667444
 42
-1.0
 10
-878.5751199754384
 20
398.4752957231878
 10
-918.794017749828
 20
398.4752957231878
 42
-1.0
 10
-920.9153380933917
 20
400.5966160667444
 10
-920.9153380933917
 20
402.3539753796269
 42
-1.0
  0
LWPOLYLINE
  5
5E
330
A6D
100
AcDbEntity
  8
0
100
AcDbPolyline
 90
       29
 70
     1
 43
0.0
 10
-627.3243165296371
 20
139.1996650795194
 10
-628.6436628585804
 20
136.6374571119836
 10
-630.535852581045
 20
134.4637040306175
 10
-632.8917486036484
 20
132.8037828471622
 10
-635.5754683342618
 20
131.7534339469924
 10
-635.5754683342618
 20
141.2510636420559
 42
1.0
 10
-637.6967886778199
 20
143.372383985614
 10
-639.4541479907038
 20
143.372383985614
 42
1.0
 10
-641.5754683342618
 20
141.2510636420559
 10
-641.5754683342618
 20
131.7534339469924
 10
-644.2591880648754
 20
132.8037828471622
 10
-646.6150840874732
 20
134.4637040306148
 10
-648.5072738099433
 20
136.6374571119836
 10
-649.826620138881
 20
139.1996650795167
 10
-650.4970262528067
 20
142.0025457489351
 10
-650.4798246894615
 20
144.8844354954032
 10
-649.7760075949313
 20
147.6791136346577
 10
-648.42616949897
 20
150.2253896446903
 10
-646.5081659171237
 20
152.3764002593991
 10
-644.1326228260361
 20
154.0080801995092
 10
-641.4365560149435
 20
155.0263179687467
 10
-638.5754683342645
 20
155.3723839856058
 10
-635.7143806535748
 20
155.0263179687467
 10
-633.018313842482
 20
154.0080801995092
 10
-630.6427707513947
 20
152.3764002594018
 10
-628.7247671695538
 20
150.2253896446903
 10
-627.3749290735813
 20
147.6791136346577
 10
-626.6711119790568
 20
144.8844354954032
 10
-626.653910415717
 20
142.0025457489351
  0
LWPOLYLINE
  5
5F
330
A6D
100
AcDbEntity
  8
0
100
AcDbPolyline
 90
       29
 70
     1
 43
0.0
 10
-482.2199088325244
 20
112.5515980019181
 10
-482.2199088325244
 20
122.0492276969776
 42
1.0
 10
-484.3412291760824
 20
124.1705480405329
 10
-486.0985884889608
 20
124.1705480405329
 42
1.0
 10
-488.2199088325189
 20
122.0492276969776
 10
-488.2199088325189
 20
112.5515980019181
 10
-490.9036285631377
 20
113.6019469020852
 10
-493.2595245857357
 20
115.2618680855392
 10
-495.1517143082003
 20
117.4356211669107
 10
-496.4710606371436
 20
119.9978291344383
 10
-497.1414667510637
 20
122.8007098038609
 10
-497.1242651877239
 20
125.6825995503263
 10
-496.4204480931939
 20
128.4772776895807
 10
-495.0706099972324
 20
131.023553699612
 10
-493.1526064153806
 20
133.1745643143262
 10
-490.7770633242985
 20
134.8062442544363
 10
-488.0809965132004
 20
135.8244820236725
 10
-485.2199088325271
 20
136.1705480405275
 10
-482.3588211518372
 20
135.8244820236725
 10
-479.6627543407446
 20
134.8062442544363
 10
-477.287211249657
 20
133.1745643143262
 10
-475.3692076678053
 20
131.023553699612
 10
-474.0193695718492
 20
128.4772776895807
 10
-473.3155524773247
 20
125.6825995503263
 10
-473.298350913974
 20
122.8007098038609
 10
-473.9687570278997
 20
119.997829134441
 10
-475.2881033568374
 20
117.4356211669107
 10
-477.1802930793076
 20
115.2618680855392
 10
-479.5361891019053
 20
113.6019469020852
  0
LWPOLYLINE
  5
60
330
A6D
100
AcDbEntity
  8
0
100
AcDbPolyline
 90
       29
 70
     1
 43
0.0
 10
-482.2199088325244
 20
183.8731364634202
 10
-482.2199088325244
 20
193.3707661584824
 42
1.0
 10
-484.3412291760824
 20
195.4920865020391
 10
-486.0985884889608
 20
195.4920865020391
 42
1.0
 10
-488.2199088325189
 20
193.3707661584824
 10
-488.2199088325189
 20
183.8731364634202
 10
-490.9036285631377
 20
184.9234853635859
 10
-493.2595245857357
 20
186.5834065470426
 10
-495.1517143082003
 20
188.7571596284141
 10
-496.4710606371436
 20
191.3193675959458
 10
-497.1414667510637
 20
194.1222482653643
 10
-497.1242651877239
 20
197.004138011831
 10
-496.4204480931939
 20
199.7988161510855
 10
-495.0706099972324
 20
202.3450921611195
 10
-493.1526064153806
 20
204.496102775831
 10
-490.7770633242985
 20
206.1277827159397
 10
-488.0809965132004
 20
207.1460204851759
 10
-485.2199088325271
 20
207.4920865020323
 10
-482.3588211518372
 20
207.1460204851759
 10
-479.6627543407446
 20
206.1277827159397
 10
-477.287211249657
 20
204.496102775831
 10
-475.3692076678053
 20
202.3450921611195
 10
-474.0193695718492
 20
199.7988161510855
 10
-473.3155524773247
 20
197.004138011831
 10
-473.298350913974
 20
194.1222482653643
 10
-473.9687570278997
 20
191.3193675959458
 10
-475.2881033568374
 20
188.7571596284141
 10
-477.1802930793076
 20
186.5834065470426
 10
-479.5361891019053
 20
184.9234853635859
  0
LWPOLYLINE
  5
61
330
A6D
100
AcDbEntity
  8
0
100
AcDbPolyline
 90
      172
 70
     1
 43
0.0
 10
-252.088117348326
 20
406.3356592145653
 10
-257.8105492556312
 20
405.3209368545855
 10
-258.0720632580736
 20
405.3063939978066
 10
-258.5895858274459
 20
405.3798659992295
 10
-259.0703954967543
 20
405.5849264944582
 10
-259.4816495978447
 20
405.9075684153746
 10
-259.7952565951015
 20
406.325753058901
 10
-259.9897949339987
 20
406.8109154848014
 10
-260.5949159079525
 20
410.2450836850396
 10
-260.6739193086858
 20
413.7312622638472
 10
-260.2249891489529
 20
417.1893172565209
 10
-259.258444622914
 20
420.5397611524581
 10
-257.7965029071034
 20
423.7055800102342
 10
-255.8727684722103
 20
426.6140037146965
 10
-253.5314606443006
 20
429.1981786847085
 10
-250.8263971709771
 20
431.3987045822901
 10
-247.819757156372
 20
433.1649997001071
 10
-244.5806518004253
 20
434.4564636422129
 10
-244.5734723216836
 20
421.706032368885
 42
1.0
 10
-242.4521523460234
 20
419.585906492527
 10
-240.6935988704561
 20
419.58590646632
 42
1.0
 10
-238.5722784952858
 20
421.7072267782685
 10
-238.5722784088583
 20
427.5077525885513
 10
-215.4762332130776
 20
427.5077522443953
 10
-214.471555792289
 20
427.4571553913562
 10
-213.4770450731611
 20
427.3058768703324
 10
-212.5027648752556
 20
427.0554475242902
 10
-211.5585742980619
 20
426.7084015398548
 10
-210.6540279531189
 20
426.2682508029026
 10
-209.7982792774252
 20
425.7394493605633
 10
-208.9999879063965
 20
425.1273483490189
 10
-208.2672320439006
 20
424.4381418434206
 10
-207.607426715869
 20
423.6788041777625
 10
-207.0272487349761
 20
422.8570193690281
 10
-206.5325691354818
 20
421.9811033597958
 10
-206.1283937621167
 20
421.0599198661579
 10
-202.6246192515125
 20
411.3737748462154
 10
-199.4337019971772
 20
401.5801091257363
 10
-196.558933443527
 20
391.6890249115839
 10
-194.0032789262417
 20
381.7107248982146
 10
-191.7693746136061
 20
371.6555017435311
 10
-189.8595247871667
 20
361.5337274519888
 10
-188.27569946496
 20
351.3558426758057
 10
-187.0195323693918
 20
341.1323459454055
 10
-186.092319242028
 20
330.8737828401259
 10
-185.4950165070676
 20
320.5907351104279
 10
-185.2282402847614
 20
310.2938097627423
 10
-185.2922657558939
 20
299.9936281183477
 10
-189.5973889870272
 20
295.8144040319055
 10
-190.4258646050848
 20
294.5616483837439
 10
-191.091363667145
 20
293.2152162235146
 10
-191.5834611209209
 20
291.7961994302038
 10
-191.8112693686704
 20
290.8208043036009
 10
-192.6404871546663
 20
285.027711672999
 10
-193.3220231077831
 20
279.7199150292753
 10
-193.9389552997468
 20
274.4042221170559
 10
-194.4911924743109
 20
269.081419230462
 10
-194.978652944885
 20
263.7522937153197
 10
-195.4012646066057
 20
258.4176338526951
 10
-195.7589649470097
 20
253.0782287422908
 10
-196.0517010552679
 20
247.734868185731
 10
-196.2794296300481
 20
242.3883425697061
 10
-196.4421169858624
 20
237.0394427491142
 10
-196.5397390580919
 20
231.6889599300097
 10
-196.5722814065401
 20
226.3376855526214
 10
-196.5722829388295
 20
123.5077519628681
 10
-196.6150586416904
 20
122.8551210024072
 10
-196.7426538266742
 20
122.2136567398951
 10
-196.9528853047872
 20
121.5943348067171
 10
-197.242155957154
 20
121.0077519728507
 10
-197.6055162827267
 20
120.4639448332219
 10
-198.03674908558
 20
119.972218078759
 10
-198.5284758528968
 20
119.5409852905659
 10
-199.0722830033522
 20
119.1776249812018
 10
-199.658865845842
 20
118.8883543463095
 10
-200.2781877852859
 20
118.6781228866492
 10
-200.9196520515948
 20
118.5505277207826
 10
-201.572283013338
 20
118.5077520373771
 10
-238.5722830133062
 20
118.5077525887191
 10
-238.5722828810129
 20
127.3864322451574
 42
1.0
 10
-240.6936031929588
 20
129.5077526203223
 10
-242.4509625058425
 20
129.507752646513
 42
1.0
 10
-244.5722828810129
 20
127.386432334563
 10
-244.5722830133062
 20
118.5077526781261
 10
-251.5722830133071
 20
118.5077527824347
 10
-252.2249139737679
 20
118.5505284852929
 10
-252.8663782362733
 20
118.6781236702726
 10
-253.4857001694635
 20
118.8883551483911
 10
-254.0722830033204
 20
119.1776258007661
 10
-254.6160901429491
 20
119.5409861263361
 10
-255.1078168974093
 20
119.9722189291838
 10
-255.5390496856161
 20
120.4639456964992
 10
-255.9024099949706
 20
121.0077528469574
 10
-256.1916806298643
 20
121.5943356894431
 10
-256.4019120895273
 20
122.2136576288856
 10
-256.5295072553898
 20
122.8551218952013
 10
-256.5722829387913
 20
123.5077528569378
 10
-256.5515500999999
 20
139.2716559108355
 10
-256.3882593940698
 20
139.8224176054744
 10
-256.0751495678553
 20
140.3040445727981
 10
-255.6380523619625
 20
140.6768023111916
 10
-255.113028547112
 20
140.9099380930062
 10
-254.5433928897736
 20
140.9842180822485
 10
-248.8482188012099
 20
140.508810267641
 10
-243.433673564934
 20
140.8763802996679
 10
-238.1359064118253
 20
142.0536954806799
 10
-233.0753124027017
 20
144.0140005893323
 10
-228.3668966909017
 20
146.7127464700978
 10
-224.1176609583884
 20
150.0886024406113
 10
-220.4241717358936
 20
154.0648500696461
 10
-217.3703658682825
 20
158.551126651294
 10
-215.0256429974437
 20
163.4454787537799
 10
-213.4432884121689
 20
168.6366791747377
 10
-212.6592621067491
 20
174.0067546487436
 10
-212.6913815676914
 20
179.4336668632856
 10
-213.5389168602213
 20
184.7940858554955
 10
-215.182607216517
 20
189.9661927624262
 10
-217.5850987486572
 20
194.8324482306596
 10
-220.6917933390166
 20
199.2822635713635
 10
-224.4320894165075
 20
203.214513957187
 10
-228.7209864213097
 20
206.5398365469969
 10
-233.4610164955628
 20
209.182661312146
 10
-238.5444595011967
 20
211.0829284124789
 10
-243.8557910271988
 20
212.1974530936322
 10
-249.2743077539163
 20
212.5009070875036
 10
-254.6768705111724
 20
211.9863942129269
 10
-260.2465099756074
 20
210.5899758188625
 10
-260.5603995049595
 20
210.5633009675658
 10
-260.8745838239906
 20
210.5862443327369
 10
-261.1812681623435
 20
210.6582366999099
 10
-261.4728438208221
 20
210.7774919711335
 10
-261.7420769396718
 20
210.9410514772632
 10
-261.982287967426
 20
211.144857381184
 10
-262.1875173775163
 20
211.3838533509395
 10
-262.3526735214482
 20
211.6521100050039
 10
-262.4736589502544
 20
211.9429720175564
 10
-262.5474720703577
 20
212.2492232340913
 10
-262.5722816117603
 20
212.5632657009392
 10
-262.572279795474
 20
334.452240191592
 10
-262.5474702447126
 20
334.7662826577005
 10
-262.4736571154798
 20
335.0725338720349
 10
-262.3526716780079
 20
335.363395880979
 10
-262.1875155260816
 20
335.6316525301198
 10
-261.9822861088591
 20
335.8706484937608
 10
-261.7420750750367
 20
336.0744543905289
 10
-261.4728419513138
 20
336.2380138886286
 10
-261.1812662892828
 20
336.3572691511606
 10
-260.8745819487745
 20
336.4292615091973
 10
-260.5603976290721
 20
336.4522048650071
 10
-260.2465081005058
 20
336.4255300043502
 10
-254.5215231667925
 20
335.0027320093263
 10
-248.9592040218416
 20
334.5098321139576
 10
-243.3875752925451
 20
334.8830584261065
 10
-237.9406928792882
 20
336.1134309523631
 10
-232.7496112298273
 20
338.1713463747691
 10
-227.939230110132
 20
341.0072903200066
 10
-223.6252894597453
 20
344.5530286975718
 10
-219.9115846365635
 20
348.7232494427461
 10
-216.8874690537509
 20
353.4176151633693
 10
-214.6257042962941
 20
358.5231773027517
 10
-213.1807094444541
 20
363.9170937328933
 10
-212.5872517261457
 20
369.4695843914893
 10
-212.8552866451596
 20
375.0129096358983
 10
-213.9721595253663
 20
380.4491668458346
 10
-215.911327143785
 20
385.6491597718713
 10
-218.6267038989324
 20
390.4893071416001
 10
-222.0537570656301
 20
394.8545796503593
 10
-226.111040457906
 20
398.6412337087476
 10
-230.7021300514831
 20
401.7592769776672
 10
-235.7179155645314
 20
404.13460709582
 10
-241.0391935357024
 20
405.7107727713331
 10
-246.539500273252
 20
406.450315384087
  0
LWPOLYLINE
  5
62
330
A6D
100
AcDbEntity
  8
0
100
AcDbPolyline
 90
        8
 70
     1
 43
0.0
 10
-226.6817317366156
 20
129.5077524115305
 10
-214.4628339622076
 20
129.5077522294574
 42
-1.0
 10
-212.3415136502563
 20
127.3864318542871
 10
-212.3415136764442
 20
125.6290725414018
 42
-1.0
 10
-214.4628340516145
 20
123.5077522294587
 10
-226.6817318260225
 20
123.5077524115332
 42
-1.0
 10
-228.8030521379684
 20
125.6290727867008
 10
-228.8030521117859
 20
127.3864320995846
 42
-1.0
  0
LWPOLYLINE
  5
63
330
A6D
100
AcDbEntity
  8
0
100
AcDbPolyline
 90
        8
 70
     1
 43
0.0
 10
-248.5722804046608
 20
293.5710477786943
 10
-248.5722808535783
 20
263.4444576965967
 42
1.0
 10
-246.4509605416323
 20
261.3231373214292
 10
-244.6936012287486
 20
261.3231372952398
 42
1.0
 10
-242.5722808535837
 20
263.4444576071884
 10
-242.5722804046662
 20
293.5710476892873
 42
1.0
 10
-244.6936007166176
 20
295.6923680644548
 10
-246.4509600294958
 20
295.6923680906415
 42
1.0
  0
LWPOLYLINE
  5
64
330
A6D
100
AcDbEntity
  8
0
100
AcDbPolyline
 90
        8
 70
     1
 43
0.0
 10
-210.9090722481128
 20
317.7681018485525
 10
-199.6120042090349
 20
306.1307095832098
 42
1.0
 10
-196.6123344479408
 20
306.0861975137309
 10
-195.3513930473818
 20
307.3102639085525
 42
1.0
 10
-195.3068809779071
 20
310.3099336696534
 10
-206.6039490169794
 20
321.9473259349949
 42
1.0
 10
-209.6036187780789
 20
321.9918380044737
 10
-210.8645601786325
 20
320.7677716096507
 42
1.0
  0
LWPOLYLINE
  5
65
330
A6D
100
AcDbEntity
  8
0
100
AcDbPolyline
 90
        8
 70
     1
 43
0.0
 10
-204.968723010896
 20
290.2683405618693
 10
-204.9687231333722
 20
282.0494487676092
 42
1.0
 10
-202.8474028214264
 20
279.9281283924389
 10
-201.0900464986173
 20
279.928128366255
 42
1.0
 10
-198.9687261234525
 20
282.0494486782022
 10
-198.9687260009817
 20
290.268340472461
 42
1.0
 10
-201.0900463129331
 20
292.3896608476299
 10
-202.8474026357367
 20
292.3896608738152
 42
1.0
  0
LWPOLYLINE
  5
66
330
A6D
100
AcDbEntity
  8
0
100
AcDbPolyline
 90
       46
 70
     1
 43
0.0
 10
-752.7676216192362
 20
237.1418883742026
 10
-722.7676216192526
 20
237.1418883742012
 10
-721.9844644659292
 20
237.090557542444
 10
-721.2147073486396
 20
236.9374433319332
 10
-720.471521025057
 20
236.6851655692671
 10
-719.7676216192554
 20
236.3380407969037
 10
-719.1150530452016
 20
235.9020084159462
 10
-718.5249809321365
 20
235.3845290613201
 10
-718.0075015775051
 20
234.7944569482522
 10
-717.5714691965474
 20
234.1418883742039
 10
-717.2243444241869
 20
233.4379889683916
 10
-716.9720666615234
 20
232.6948026448171
 10
-716.8189524510112
 20
231.925045527522
 10
-716.7676216192581
 20
231.1418883742026
 10
-716.7896971470749
 20
194.6276714891082
 10
-716.9653279071358
 20
193.614345354113
 10
-717.3114294149399
 20
192.6458982641578
 10
-717.8178332464608
 20
191.7507830876733
 10
-718.4696613130991
 20
190.9552982095785
 10
-719.2477629783536
 20
190.2828148876395
 10
-719.8159617282467
 20
189.8984769849918
 10
-720.0324382287683
 20
189.634291087761
 10
-720.1473808755647
 20
189.3126632725373
 10
-720.1473808755647
 20
188.9711134759128
 10
-720.0324382287683
 20
188.6494856606904
 10
-719.8159617282467
 20
188.3852997634596
 10
-718.8442771624436
 20
187.6814223010905
 10
-718.1266720445393
 20
186.9447277141027
 10
-717.5454175120192
 20
186.0963061277575
 10
-717.1175907587987
 20
185.1610840744592
 10
-716.8557612875725
 20
184.1665382747391
 10
-716.7676216192581
 20
183.1418883742285
 10
-716.7676216192581
 20
147.1418883742476
 10
-716.8189524510166
 20
146.3587312209294
 10
-716.9720666615234
 20
145.5889741036357
 10
-717.2243444241978
 20
144.8457877800572
 10
-717.5714691965529
 20
144.1418883742476
 10
-718.007501577516
 20
143.4893198001965
 10
-718.5249809321474
 20
142.8992476871286
 10
-719.1150530452071
 20
142.3817683325025
 10
-719.7676216192554
 20
141.9457359515437
 10
-720.4715210250679
 20
141.5986111791844
 10
-721.2147073486451
 20
141.3463334165182
 10
-721.9844644659347
 20
141.1932192060088
 10
-722.7676216192635
 20
141.1418883742476
 10
-752.7676216192471
 20
141.141888374253
  0
LWPOLYLINE
  5
67
330
A6D
100
AcDbEntity
  8
0
100
AcDbPolyline
 90
        8
 70
     1
 43
0.0
 10
-740.8770705064621
 20
160.141888374243
 10
-728.6581727320433
 20
160.141888374243
 42
1.0
 10
-726.5368523884906
 20
162.2632087177984
 10
-726.5368523884906
 20
164.0205680306795
 42
1.0
 10
-728.6581727320433
 20
166.1418883742389
 10
-740.8770705064621
 20
166.1418883742389
 42
1.0
 10
-742.9983908500203
 20
164.0205680306822
 10
-742.9983908500203
 20
162.2632087177984
 42
1.0
  0
LWPOLYLINE
  5
68
330
A6D
100
AcDbEntity
  8
0
100
AcDbPolyline
 90
        8
 70
     1
 43
0.0
 10
-728.6581727320433
 20
218.1418883742085
 10
-740.8770705064567
 20
218.1418883742085
 42
1.0
 10
-742.9983908500148
 20
216.0205680306518
 10
-742.9983908500148
 20
214.263208717772
 42
1.0
 10
-740.8770705064567
 20
212.141888374214
 10
-728.6581727320433
 20
212.141888374214
 42
1.0
 10
-726.5368523884797
 20
214.263208717772
 10
-726.5368523884797
 20
216.0205680306518
 42
1.0
  0
LWPOLYLINE
  5
69
330
A6D
100
AcDbEntity
  8
0
100
AcDbPolyline
 90
       86
 70
     1
 43
0.0
 10
-288.0159303190588
 20
177.8806564339035
 10
-280.7051572413317
 20
178.1552731404057
 10
-273.4355880799176
 20
178.9775757227286
 10
-266.2481945317351
 20
180.3429296376923
 10
-259.183485147387
 20
182.24363967454
 10
-252.2812770226766
 20
184.6689933255783
 10
-245.5804713872401
 20
187.6053211624584
 10
-245.3486061224339
 20
187.7607623371544
 10
-245.0548918947901
 20
188.2291144761964
 10
-245.0159301253738
 20
190.8806557931472
 10
-244.9818559478103
 20
191.1394748377383
 10
-244.809283456591
 20
191.4894172190762
 10
-244.5159301124649
 20
191.7466811894799
 10
-244.1464563028142
 20
191.8721006415646
 10
-236.7851608797088
 20
191.8806556704973
 10
-236.7851609971045
 20
184.0019760140586
 42
1.0
 10
-234.6638406851532
 20
181.880655638891
 10
-232.9064813722748
 20
181.8806556127044
 42
1.0
 10
-230.78516099711
 20
184.001975924653
 10
-230.7851608797142
 20
191.8806555810904
 10
-227.8854039183893
 20
191.8721003992534
 10
-227.5159301124767
 20
191.7466809361579
 10
-227.2225767760175
 20
191.4894169570121
 10
-227.0500042952375
 20
191.1394745705351
 10
-227.0159301253847
 20
190.8806555249263
 10
-227.0159303807599
 20
173.7421511528226
 10
-227.1226205144324
 20
171.8975105613787
 10
-227.4412680120258
 20
170.0774705979425
 10
-227.967623304506
 20
168.3063038067333
 10
-228.6946667756426
 20
166.6076309461404
 10
-229.6127023774441
 20
165.0041059759401
 10
-230.7094869393228
 20
163.5171139379555
 10
-231.9703934463354
 20
162.16648575937
 10
-233.3786061089613
 20
160.9702337821305
 10
-234.9153446230289
 20
159.9443115455011
 10
-236.5601146289108
 20
159.1024010253336
 10
-238.2909810298726
 20
158.4557301675851
 10
-240.0848605243784
 20
158.0129231493534
 10
-248.0476707149968
 20
156.6643493643486
 10
-256.0505638877688
 20
155.5786706592708
 10
-264.0848628732322
 20
154.7570641856763
 10
-272.1418564500775
 20
154.2004207737144
 10
-280.2128087902539
 20
153.9093439662726
 10
-288.2889689309078
 20
153.8841493645575
 10
-296.3615802625709
 20
154.1248642859281
 10
-304.4218900235928
 20
154.6312277342431
 10
-312.4611587903481
 20
155.4026906828786
 10
-320.4706699530169
 20
156.4384166700003
 10
-328.4417391665729
 20
157.7372827054922
 10
-336.3657237668149
 20
159.2978804885781
 10
-338.1134271618259
 20
159.7770279656108
 10
-339.7957382829369
 20
160.4507332078866
 10
-341.3910758862494
 20
161.3103537015561
 10
-342.878974452939
 20
162.3448619504017
 10
-344.2403467277064
 20
163.5409869401847
 10
-345.4577285763897
 20
164.8833843836289
 10
-346.5155030217073
 20
166.3548335619996
 10
-347.4001005829341
 20
167.9364582381955
 10
-348.1001733497717
 20
169.6079688073545
 10
-348.6067405570491
 20
171.347922578637
 10
-348.9133037929391
 20
173.1339988491477
 10
-349.0159303627974
 20
174.9432852413043
 10
-349.0073749847455
 20
191.0111835349608
 10
-348.8819555216474
 20
191.3806573408721
 10
-348.6246915425042
 20
191.6740106773299
 10
-348.2747491560177
 20
191.8465831581113
 10
-348.0159301104171
 20
191.8806573279669
 10
-345.2328767394921
 20
191.8806572864939
 10
-345.2328768568988
 20
184.0019776300579
 42
1.0
 10
-343.1115565449474
 20
181.8806572548903
 10
-341.3541974047603
 20
181.8806572287037
 42
1.0
 10
-339.2328770295955
 20
184.0019775406509
 10
-339.2328769121888
 20
191.8806571970897
 10
-331.8854039183311
 20
191.8721019489792
 10
-331.5159301124185
 20
191.746682485881
 10
-331.2225767759593
 20
191.4894185067365
 10
-331.0500042951793
 20
191.1394761202568
 10
-331.0159301253265
 20
190.880657074648
 10
-330.976968434927
 20
188.2291157565363
 10
-330.6832542212476
 20
187.7607636087412
 10
-330.5334089346642
 20
187.6498350447586
 10
-323.7505834131404
 20
184.668994390552
 10
-316.8483753607129
 20
182.2436405338133
 10
-309.7836660330082
 20
180.3429302864181
 10
-302.5962725255183
 20
178.977576157256
 10
-295.3267033886005
 20
178.1552733582834
  0
LWPOLYLINE
  5
6A
330
A6D
100
AcDbEntity
  8
0
100
AcDbPolyline
 90
       86
 70
     1
 43
0.0
 10
-343.0159282790704
 20
348.2253260393903
 10
-343.0159281616637
 20
356.1040056958264
 42
1.0
 10
-345.137248473615
 20
358.2253260709939
 10
-346.8946077864989
 20
358.2253260971805
 42
1.0
 10
-349.0159281616637
 20
356.104005785232
 10
-349.015928279065
 20
348.2253261287945
 10
-352.7851595466442
 20
348.2253261849604
 10
-353.0439785912298
 20
348.2594003625279
 10
-353.3939209725704
 20
348.4319728537404
 10
-353.6511849429714
 20
348.7253261978652
 10
-353.7766043950575
 20
349.0948000075146
 10
-353.7851591472769
 20
375.0262376481346
 10
-353.6969967355851
 20
376.7035636025966
 10
-353.4334811270692
 20
378.3624049127927
 10
-352.997516343787
 20
379.9844806434845
 10
-352.3939068501158
 20
381.5519150272767
 10
-351.6293046060707
 20
383.0474344610361
 10
-350.7121357606908
 20
384.4545578662184
 10
-349.6525077933054
 20
385.7577783153736
 10
-348.4620981260786
 20
386.9427339231939
 10
-347.1540254352042
 20
387.9963661188567
 10
-345.7427050791681
 20
388.9070635554487
 10
-344.2436902371111
 20
389.6647900705124
 10
-342.673500508027
 20
390.261195287637
 10
-334.4019596645985
 20
392.6810681509691
 10
-326.0163244586796
 20
394.6698604458528
 10
-317.5390450443682
 20
396.2222477463541
 10
-308.9928169271101
 20
397.334073976843
 10
-300.4005202028848
 20
398.0023625386907
 10
-291.7851583032731
 20
398.2253242792771
 10
-283.169796410308
 20
398.0023622819349
 10
-274.5774997060005
 20
397.3340734640162
 10
-266.0312716218772
 20
396.2222469788343
 10
-257.5539922538299
 20
394.6698594256931
 10
-249.1683571071792
 20
392.6810668808993
 10
-240.8968163358754
 20
390.2611937710597
 10
-239.3266266245591
 20
389.6647885071388
 10
-237.827611805083
 20
388.9070619474002
 10
-236.4162914761955
 20
387.9963644687514
 10
-235.1082188167204
 20
386.9427322341013
 10
-233.9178091847948
 20
385.7577765908052
 10
-232.8581812562575
 20
384.4545561100718
 10
-231.9410124528035
 20
383.0474326775584
 10
-231.1764102533309
 20
381.551913221012
 10
-230.5728008063714
 20
379.9844788192282
 10
-230.136836071438
 20
378.3624030755475
 10
-229.8733205123513
 20
376.7035617574933
 10
-229.7851581506562
 20
375.0262358004052
 10
-229.7851585351105
 20
349.2253243521308
 10
-229.8192327126795
 20
348.9665053075384
 10
-229.9918052038933
 20
348.6165629262031
 10
-230.285158548014
 20
348.3592989558021
 10
-230.6546323576701
 20
348.2338795037148
 10
-234.5682122879815
 20
348.2253244234074
 10
-234.5682121705803
 20
356.1040040798407
 42
1.0
 10
-236.6895324825371
 20
358.2253244550096
 10
-238.44689179541
 20
358.2253244811949
 42
1.0
 10
-240.5682121705748
 20
356.104004169249
 10
-240.5682122879815
 20
348.2253245128116
 10
-247.7851590483493
 20
348.2253246203508
 10
-248.0439780929404
 20
348.259398797921
 10
-248.393920474281
 20
348.4319712891294
 10
-248.6511844446875
 20
348.7253246332542
 10
-248.7766038967735
 20
349.0947984429049
 10
-248.7851589980588
 20
351.6004506069403
 10
-248.854072419485
 20
351.9652488992566
 10
-249.1901667916193
 20
352.404182090853
 10
-256.0505057456279
 20
355.4369873193451
 10
-262.9527137980661
 20
357.8623411760825
 10
-270.0174231257709
 20
359.7630514234749
 10
-277.2048166332607
 20
361.128405552637
 10
-284.4743857701677
 20
361.9507083516111
 10
-291.7851588397094
 20
362.2253252759896
 10
-299.0959319174365
 20
361.9507085694873
 10
-306.3655010788561
 20
361.1284059871617
 10
-313.5528946270332
 20
359.763052072198
 10
-320.6176040113812
 20
357.8623420353531
 10
-327.5198121361026
 20
355.4369883843147
 10
-334.2206177715281
 20
352.5006605474278
 10
-334.4524830363342
 20
352.3452193727333
 10
-334.7461972639836
 20
351.8768672336911
 10
-334.7851590334
 20
349.2253259167404
 10
-334.819233210969
 20
348.9665068721452
 10
-334.9918057021826
 20
348.6165644908114
 10
-335.2851590463034
 20
348.3593005204077
 10
-335.6546328559541
 20
348.2338810683258
  0
LWPOLYLINE
  5
6B
330
A6D
100
AcDbEntity
  8
0
100
AcDbPolyline
 90
       16
 70
     1
 43
0.0
 10
-313.9601683307968
 20
248.6971244088385
 10
-308.1314944355902
 20
251.0270719234186
 42
1.0
 10
-306.9491157812266
 20
253.7842408913437
 10
-307.6014141771391
 20
255.4160521696432
 42
1.0
 10
-310.3585831450737
 20
256.598430824004
 10
-313.9601682345141
 20
255.1587372713087
 10
-313.9601681703183
 20
259.4664791796214
 10
-298.7332419298551
 20
265.5532734636263
 10
-298.7332419642286
 20
263.2465171729549
 42
1.0
 10
-296.6119216522827
 20
261.1251967977846
 10
-292.7332449859156
 20
261.1251967399885
 10
-292.7332451647295
 20
249.1252027201517
 10
-296.6119218310912
 20
249.1252027779478
 42
1.0
 10
-298.7332422062615
 20
247.003882466002
 10
-298.7332422406295
 20
244.6971261753305
 10
-313.9601683903978
 20
244.6971264022299
  0
LWPOLYLINE
  5
6C
330
A6D
100
AcDbEntity
  8
0
100
AcDbPolyline
 90
      127
 70
     1
 43
0.0
 10
-810.477657332588
 20
157.7050223918294
 10
-810.1257076296871
 20
157.5314600056518
 10
-809.754114467896
 20
157.4053211243173
 10
-809.3692359092511
 20
157.328764019064
 10
-808.9776573325893
 20
157.3030986031847
 10
-804.0989776761518
 20
157.3030986031847
 42
-1.0
 10
-801.9776573325939
 20
155.1817782596266
 10
-801.9776573325939
 20
153.3088746643746
 10
-801.9448041504888
 20
152.8661108886979
 10
-801.7742892404944
 20
152.2231260877027
 10
-801.4662717736154
 20
151.6335245027858
 10
-801.035896105883
 20
151.126295192254
 10
-799.5721546061647
 20
149.9586331736323
 10
-798.2458626116251
 20
148.9761627361573
 10
-796.8910384402574
 20
148.0334273120002
 10
-795.5088721360334
 20
147.1312549765948
 10
-794.100577759603
 20
146.2704381757733
 10
-792.6673923218302
 20
145.4517330296786
 10
-791.2105746972923
 20
144.675858668625
 10
-789.7314045185027
 20
143.9434966014311
 10
-788.2311810518906
 20
143.2552901167767
 10
-786.7112220565784
 20
142.6118437181994
 10
-785.172862626878
 20
142.0137225930617
 10
-783.5398244864807
 20
141.4363486222748
 10
-760.1522370038576
 20
141.3030986031893
 10
-760.1522370038467
 20
237.3030986031402
 10
-782.6556612962674
 20
237.3030986031402
 10
-785.1728626268725
 20
236.5924746132718
 10
-786.7112220565729
 20
235.9943534881355
 10
-788.2311810518797
 20
235.3509070895554
 10
-789.7314045185027
 20
234.6627006049065
 10
-791.2105746972923
 20
233.9303385377085
 10
-792.6673923218247
 20
233.1544641766535
 10
-794.1005777595976
 20
232.3357590305616
 10
-795.5088721360334
 20
231.4749422297401
 10
-796.8910384402574
 20
230.5727698943374
 10
-798.2458626116251
 20
229.6300344701803
 10
-799.5721546061647
 20
228.6475640326997
 10
-801.035896105883
 20
227.4799020140823
 10
-801.4662717736154
 20
226.9726727035519
 10
-801.7742892404836
 20
226.3830711186308
 10
-801.9448041504888
 20
225.7400863176397
 10
-801.9620665501511
 20
223.4087122966804
 42
-1.0
 10
-804.08332874544
 20
221.3030986031502
 10
-808.9776573325893
 20
221.3030986031502
 10
-809.3692359092511
 20
221.2774331872722
 10
-809.754114467896
 20
221.2008760820203
 10
-810.1257076296871
 20
221.0747372006859
 10
-810.477657332588
 20
220.9011748145027
 10
-810.803941619612
 20
220.6831586240241
 10
-811.0989776761419
 20
220.424418946711
 10
-811.3577173534576
 20
220.1293828901785
 10
-811.5757335439392
 20
219.8030986031515
 10
-811.7492959301197
 20
219.4511489002481
 10
-811.8754348114538
 20
219.0795557384609
 10
-811.95199191671
 20
218.6946771798147
 10
-811.9776573325866
 20
218.3030986031529
 10
-811.9776573325866
 20
208.3030986031574
 10
-811.95199191671
 20
207.9115200264984
 10
-811.8754348114538
 20
207.5266414678481
 10
-811.7492959301197
 20
207.1550483060636
 10
-811.5757335439392
 20
206.8030986031588
 10
-811.3577173534576
 20
206.4768143161319
 10
-811.0989776761419
 20
206.1817782596008
 10
-810.803941619612
 20
205.9230385822863
 10
-810.477657332588
 20
205.7050223918049
 10
-810.1257076296871
 20
205.5314600056258
 10
-809.754114467896
 20
205.4053211242914
 10
-809.3692359092511
 20
205.3287640190367
 10
-808.9776573325893
 20
205.3030986031602
 10
-804.0989776761518
 20
205.3030986031602
 42
-1.0
 10
-801.9776573325884
 20
203.1817782596035
 10
-801.9776573325884
 20
201.3088746643473
 10
-801.9448041504888
 20
200.8661108886679
 10
-801.7742892404836
 20
200.2231260876782
 10
-801.4662717736154
 20
199.6335245027585
 10
-801.035896105883
 20
199.1262951922267
 10
-799.5389963540035
 20
197.9333208482072
 10
-798.1780568083297
 20
196.9275509466585
 10
-796.787187402339
 20
195.9635946004733
 10
-795.3676723687422
 20
195.0423418603332
 10
-793.9208223895962
 20
194.1646433473515
 10
-792.447973386189
 20
193.3313094676726
 10
-790.9504852855084
 20
192.5431096642165
 10
-789.4297407645717
 20
191.8007717062089
 10
-787.8871439737791
 20
191.1049810172212
 10
-786.3241192403975
 20
190.4563800422858
 10
-784.7421097534486
 20
189.8555676547227
 10
-783.1425762311594
 20
189.3030986031674
 10
-784.7421097534486
 20
188.7506295516121
 10
-786.3241192403975
 20
188.1498171640464
 10
-787.8871439737791
 20
187.501216189111
 10
-789.4297407645717
 20
186.8054255001232
 10
-790.9504852855138
 20
186.0630875421143
 10
-792.447973386189
 20
185.2748877386623
 10
-793.9208223895962
 20
184.4415538589848
 10
-795.3676723687422
 20
183.5638553460058
 10
-796.787187402339
 20
182.6426026058616
 10
-798.1780568083352
 20
181.6786462596791
 10
-799.5389963540035
 20
180.6728763581249
 10
-801.035896105883
 20
179.4799020141055
 10
-801.4662717736154
 20
178.9726727035764
 10
-801.7742892404944
 20
178.383071118658
 10
-801.9448041504888
 20
177.7400863176643
 10
-801.9620665501566
 20
175.4087122967077
 42
-1.0
 10
-804.08332874544
 20
173.3030986031747
 10
-808.9776573325893
 20
173.3030986031774
 10
-809.3692359092511
 20
173.2774331872954
 10
-809.754114467896
 20
173.2008760820421
 10
-810.1257076296871
 20
173.0747372007118
 10
-810.477657332588
 20
172.9011748145273
 10
-810.803941619612
 20
172.6831586240513
 10
-811.0989776761527
 20
172.4244189467382
 10
-811.3577173534631
 20
172.129382890203
 10
-811.5757335439445
 20
171.8030986031788
 10
-811.7492959301197
 20
171.4511489002726
 10
-811.8754348114538
 20
171.0795557384854
 10
-811.95199191671
 20
170.6946771798406
 10
-811.9776573325866
 20
170.3030986031774
 10
-811.9776573325866
 20
160.303098603182
 10
-811.95199191671
 20
159.9115200265256
 10
-811.8754348114538
 20
159.5266414678781
 10
-811.7492959301197
 20
159.1550483060909
 10
-811.5757335439445
 20
158.8030986031833
 10
-811.3577173534631
 20
158.4768143161564
 10
-811.0989776761527
 20
158.1817782596266
 10
-810.803941619612
 20
157.9230385823108
  0
LWPOLYLINE
  5
6D
330
A6D
100
AcDbEntity
  8
0
100
AcDbPolyline
 90
        8
 70
     1
 43
0.0
 10
-784.0871062198141
 20
160.303098603182
 10
-771.8682084454008
 20
160.303098603182
 42
1.0
 10
-769.7468881018428
 20
162.4244189467401
 10
-769.7468881018428
 20
164.1817782596212
 42
1.0
 10
-771.8682084454008
 20
166.3030986031793
 10
-784.0871062198141
 20
166.3030986031793
 42
1.0
 10
-786.2084265633723
 20
164.1817782596212
 10
-786.2084265633723
 20
162.4244189467401
 42
1.0
  0
LWPOLYLINE
  5
6E
330
A6D
100
AcDbEntity
  8
0
100
AcDbPolyline
 90
        8
 70
     1
 43
0.0
 10
-771.8682084453953
 20
218.3030986031502
 10
-784.0871062198086
 20
218.3030986031529
 42
1.0
 10
-786.2084265633723
 20
216.1817782595949
 10
-786.2084265633723
 20
214.424418946711
 42
1.0
 10
-784.0871062198086
 20
212.3030986031556
 10
-771.8682084453953
 20
212.3030986031529
 42
1.0
 10
-769.7468881018374
 20
214.4244189467096
 10
-769.7468881018374
 20
216.1817782595921
 42
1.0
  0
LWPOLYLINE
  5
6F
330
A6D
100
AcDbEntity
  8
0
100
AcDbPolyline
 90
       56
 70
     1
 43
0.0
 10
-417.5701302334253
 20
289.6619667634185
 10
-417.4528136657917
 20
289.6041126346909
 10
-417.1594603255019
 20
289.3468486599161
 10
-416.9868878395049
 20
288.9969062760106
 10
-416.9528136657939
 20
288.7380872309094
 10
-416.9613688044213
 20
274.6075610386943
 10
-417.0867882620134
 20
274.2380872309153
 10
-417.34405223678
 20
273.9447338906253
 10
-417.6939946206964
 20
273.7721614046284
 10
-417.9528136657949
 20
273.7380872309149
 10
-422.952813665794
 20
273.7380872309176
 10
-422.952813665794
 20
279.6167668873557
 42
1.0
 10
-425.0741340093465
 20
281.7380872309112
 10
-426.8314933222304
 20
281.7380872309112
 42
1.0
 10
-428.9528136657885
 20
279.6167668873557
 10
-428.9528136657885
 20
273.7380872309176
 10
-440.4909705020171
 20
273.7380872309176
 10
-440.4909705020171
 20
263.7380872309208
 10
-461.968201271234
 20
263.7380872309262
 10
-461.968201271234
 20
279.6167668873599
 42
1.0
 10
-464.0895216147921
 20
281.7380872309167
 10
-465.8468809276651
 20
281.7380872309167
 42
1.0
 10
-467.9682012712287
 20
279.6167668873599
 10
-467.9682012712341
 20
263.7380872309262
 10
-513.968201271205
 20
263.7380872309303
 10
-513.968201271205
 20
279.6167668873667
 42
1.0
 10
-516.0895216147576
 20
281.7380872309249
 10
-517.8468809276469
 20
281.7380872309249
 42
1.0
 10
-519.9682012711996
 20
279.6167668873667
 10
-519.9682012711996
 20
263.7380872309303
 10
-541.4451273381928
 20
263.738087230933
 10
-541.4451273381874
 20
271.6167668873731
 42
1.0
 10
-543.5664476817453
 20
273.7380872309285
 10
-552.9835888766506
 20
273.7380872309312
 10
-552.9835888766451
 20
279.6167668873694
 42
1.0
 10
-555.1049092202031
 20
281.7380872309262
 10
-556.8622685330815
 20
281.738087230929
 42
1.0
 10
-558.9835888766397
 20
279.6167668873694
 10
-558.9835888766397
 20
273.7380872309312
 10
-564.1141150688629
 20
273.7466423695599
 10
-564.483588876642
 20
273.872061827148
 10
-564.7769422169317
 20
274.1293258019255
 10
-564.9495147029288
 20
274.4792681858295
 10
-564.9835888766396
 20
274.7380872309321
 10
-564.9750337380123
 20
288.8686134231431
 10
-564.9074684091506
 20
289.1207706632898
 10
-564.6906956578302
 20
289.4451940121117
 10
-564.3662723090082
 20
289.6619667634335
 10
-563.9835888766388
 20
289.738087230924
 10
-543.5664476817453
 20
289.7380872309213
 42
1.0
 10
-541.4451273381874
 20
291.8594075744793
 10
-541.4451273381874
 20
299.7380872309167
 10
-441.3528136657824
 20
299.7380872309058
 10
-441.3528136657824
 20
291.8594075744656
 42
1.0
 10
-439.2314933222188
 20
289.7380872309089
 10
-417.9528136657949
 20
289.7380872309076
  0
LWPOLYLINE
  5
70
330
A6D
100
AcDbEntity
  8
0
100
AcDbPolyline
 90
       57
 70
     1
 43
0.0
 10
-415.9499441428355
 20
245.3681152137299
 10
-415.8326275752074
 20
245.3102610850022
 10
-415.5392742349066
 20
245.0529971102247
 10
-415.3667017489096
 20
244.7030547263193
 10
-415.3326275751988
 20
244.444235681218
 10
-415.3411827138261
 20
230.3137094890028
 10
-415.4666021714182
 20
229.9442356812239
 10
-415.7238661461957
 20
229.6508823409339
 10
-416.0738085301012
 20
229.478309854937
 10
-416.3326275751996
 20
229.4442356812234
 10
-421.3326275751987
 20
229.4442356812262
 10
-421.3326275751987
 20
235.3229153376631
 42
1.0
 10
-423.4539479187514
 20
237.4442356812225
 10
-425.2113072316298
 20
237.4442356812225
 42
1.0
 10
-427.3326275751933
 20
235.3229153376631
 10
-427.3326275751933
 20
229.4442356812262
 10
-436.7494640678584
 20
229.4442356812262
 42
1.0
 10
-438.8707844114219
 20
227.3229153376681
 10
-438.8707844114219
 20
219.4442356812334
 10
-460.3480151806389
 20
219.4442356812375
 10
-460.3480151806389
 20
235.3229153376672
 42
1.0
 10
-462.4693355242023
 20
237.4442356812252
 10
-464.2266948370807
 20
237.4442356812252
 42
1.0
 10
-466.3480151806334
 20
235.3229153376672
 10
-466.3480151806334
 20
219.4442356812375
 10
-512.3480151806152
 20
219.4442356812389
 10
-512.3480151806152
 20
235.3229153376754
 42
1.0
 10
-514.4693355241733
 20
237.4442356812334
 10
-516.2266948370517
 20
237.4442356812334
 42
1.0
 10
-518.3480151806097
 20
235.3229153376754
 10
-518.3480151806097
 20
219.4442356812389
 10
-539.8249412475975
 20
219.4442356812444
 10
-539.8249412475975
 20
227.3229153376817
 42
1.0
 10
-541.9462615911556
 20
229.4442356812371
 10
-551.3634027860498
 20
229.4442356812398
 10
-551.3634027860498
 20
235.3229153376781
 42
1.0
 10
-553.4847231296135
 20
237.4442356812348
 10
-555.2420824424919
 20
237.4442356812348
 42
1.0
 10
-557.3634027860498
 20
235.3229153376781
 10
-557.3634027860498
 20
229.4442356812398
 10
-562.4939289782678
 20
229.4527908198685
 10
-562.8634027860466
 20
229.5782102774592
 10
-563.1567561263365
 20
229.835474252234
 10
-563.3293286123334
 20
230.1854166361367
 10
-563.3634027860444
 20
230.4442356812407
 10
-563.354847647417
 20
244.5747618734504
 10
-563.2872823185607
 20
244.8269191135985
 10
-563.0705095672349
 20
245.1513424624176
 10
-562.7460862184132
 20
245.3681152137448
 10
-562.3634027860434
 20
245.4442356812325
 10
-541.9462615911556
 20
245.4442356812298
 42
1.0
 10
-539.824941247592
 20
247.5655560247865
 10
-539.824941247592
 20
255.4442356812252
 10
-439.7326275751762
 20
255.4442356812143
 10
-439.7326275751871
 20
247.5655560247742
 42
1.0
 10
-437.6113072316236
 20
245.4442356812162
 10
-416.3326275751996
 20
245.4442356812162
  0
LWPOLYLINE
  5
71
330
A6D
100
AcDbEntity
  8
0
100
AcDbPolyline
 90
       16
 70
     1
 43
0.0
 10
-289.5639528661139
 20
317.6742870580755
 10
-295.3926266918861
 20
320.0042347463618
 42
-1.0
 10
-296.5750052640785
 20
322.7614037495293
 10
-295.9227068195282
 20
324.3932150083884
 42
-1.0
 10
-293.1655378163689
 20
325.5755935805782
 10
-289.5639527698312
 20
324.1358999205471
 10
-289.5639527056409
 20
328.443641828857
 10
-304.790878764709
 20
334.5304365666566
 10
-304.790878799077
 20
332.2236802759893
 42
-1.0
 10
-306.9121991742473
 20
330.1023599640421
 10
-310.7908758406034
 20
330.1023600218355
 10
-310.7908760194229
 20
318.1023660020014
 10
-306.9121993530611
 20
318.1023659442039
 42
-1.0
 10
-304.7908790411153
 20
315.9810455690364
 10
-304.7908790754833
 20
313.6742892783635
 10
-289.5639529257259
 20
313.6742890514614
  0
LWPOLYLINE
  5
72
330
A6D
100
AcDbEntity
  8
0
100
AcDbPolyline
 90
       62
 70
     1
 43
0.0
 10
-286.8051184340189
 20
267.0414306213493
 10
-287.4692626441428
 20
267.0769423523347
 10
-288.1258332743284
 20
267.1830725669314
 10
-288.7673431111458
 20
267.3586110075742
 10
-289.3864766871466
 20
267.6015559189155
 10
-289.9761737029288
 20
267.909136874861
 10
-290.5297095393497
 20
268.2778463711732
 10
-291.0407719418657
 20
268.7034798233543
 10
-291.5035330023692
 20
269.1811835136831
 10
-291.9127156178906
 20
269.7055099406647
 10
-292.2636536680903
 20
270.2704799396955
 10
-292.5523452254028
 20
270.8696508665687
 10
-292.7754981911754
 20
271.496190066258
 10
-293.524874140361
 20
275.1841330085848
 10
-293.8377746497658
 20
277.0397068630887
 10
-294.3392246417088
 20
280.7694569035964
 10
-294.6740784123928
 20
284.5178379423023
 10
-294.8416715400695
 20
288.2774123866568
 10
-294.8626283843937
 20
295.0414337314769
 10
-294.8310881234543
 20
295.6558342887009
 10
-294.7367989550336
 20
296.2637753923448
 10
-294.5807521810136
 20
296.8588655007295
 10
-294.3645883870295
 20
297.4348481801154
 10
-294.0905801944111
 20
297.9856678812472
 10
-293.7616083670233
 20
298.5055336038804
 10
-293.3811315247039
 20
298.9889797800348
 10
-292.9531497812371
 20
299.4309237358003
 10
-292.4821626895072
 20
299.8267191276475
 10
-291.9731219358158
 20
300.1722047913998
 10
-291.4313792806679
 20
300.4637484903065
 10
-290.8626302934831
 20
300.6982851022875
 10
-290.8626303461647
 20
297.1627540154271
 42
1.0
 10
-288.7413100342188
 20
295.041433640261
 10
-286.9839537114207
 20
295.0414336140743
 42
1.0
 10
-284.8626333362504
 20
297.1627539260202
 10
-284.8626332784501
 20
301.0414305923846
 10
-278.8626282949886
 20
301.0414305029749
 10
-278.0794711424344
 20
300.9900996595466
 10
-277.3097140274205
 20
300.8369854375694
 10
-276.5665277076031
 20
300.5847076638311
 10
-275.8626283069693
 20
300.2375828809794
 10
-275.2100597394093
 20
299.8015504902948
 10
-274.6199876340658
 20
299.2840711268748
 10
-274.1025082882199
 20
298.6939990060977
 10
-273.6664759169924
 20
298.0414304255459
 10
-273.31935115512
 20
297.3375310145659
 10
-273.0670734035288
 20
296.5943446872316
 10
-272.9139592044871
 20
295.8245875676555
 10
-272.862628384401
 20
295.0414304135734
 10
-272.8626287122229
 20
273.0414304135848
 10
-272.913959555654
 20
272.258273261032
 10
-273.0670737776257
 20
271.4885161460125
 10
-273.3193515513723
 20
270.7453298262006
 10
-273.6664763342212
 20
270.0414304255614
 10
-274.1025087249084
 20
269.388861858011
 10
-274.6199880883257
 20
268.7987897526525
 10
-275.2100602091015
 20
268.2813104068202
 10
-275.8626287896545
 20
267.8452780355844
 10
-276.5665282006402
 20
267.4981532737121
 10
-277.3097145279718
 20
267.2458755221181
 10
-278.0794716475477
 20
267.0927613230792
 10
-278.8626288016353
 20
267.0414305029904
  0
LWPOLYLINE
  5
73
330
A6D
100
AcDbEntity
  8
0
100
AcDbPolyline
 90
        8
 70
     1
 43
0.0
 10
-370.5706150321247
 20
123.5077545556456
 10
-358.3517172577167
 20
123.5077543735725
 42
1.0
 10
-356.2303968825464
 20
125.6290746855183
 10
-356.2303968563639
 20
127.3864339984008
 42
1.0
 10
-358.3517171683098
 20
129.5077543735698
 10
-370.5706149427232
 20
129.5077545556429
 42
1.0
 10
-372.691935317888
 20
127.3864342436929
 10
-372.6919353440706
 20
125.6290749308145
 42
1.0
  0
LWPOLYLINE
  5
74
330
A6D
100
AcDbEntity
  8
0
100
AcDbPolyline
 90
        8
 70
     1
 43
0.0
 10
-336.4611636107937
 20
293.5710490883421
 10
-336.4611640597167
 20
263.4444590062432
 42
-1.0
 10
-338.5824844348815
 20
261.323138694296
 10
-340.3398437477654
 20
261.3231387204826
 42
-1.0
 10
-342.4611640597112
 20
263.4444590956501
 10
-342.4611636107883
 20
293.571049177745
 42
-1.0
 10
-340.3398432356234
 20
295.6923694896949
 10
-338.5824839227451
 20
295.6923694635083
 42
-1.0
  0
LWPOLYLINE
  5
75
330
A6D
100
AcDbEntity
  8
0
100
AcDbPolyline
 90
        8
 70
     1
 43
0.0
 10
-374.1243710462197
 20
317.7681042806496
 10
-385.4214394321152
 20
306.1307123519867
 42
-1.0
 10
-388.4211091945354
 20
306.0862003719053
 10
-389.68205055862
 20
307.3102668043077
 42
-1.0
 10
-389.7265625386987
 20
310.3099365667361
 10
-378.4294941528033
 20
321.9473284953962
 42
-1.0
 10
-375.4298243903832
 20
321.9918404754776
 10
-374.1688830262985
 20
320.7677740430779
 42
-1.0
  0
LWPOLYLINE
  5
76
330
A6D
100
AcDbEntity
  8
0
100
AcDbPolyline
 90
        8
 70
     1
 43
0.0
 10
-380.0647211029858
 20
290.2683431710027
 10
-380.0647212254565
 20
282.0494513767412
 42
-1.0
 10
-382.1860416006213
 20
279.928131064794
 10
-383.9433979234304
 20
279.9281310909834
 42
-1.0
 10
-386.0647182353763
 20
282.0494514661496
 10
-386.0647181129055
 20
290.2683432604083
 42
-1.0
 10
-383.9433977377407
 20
292.3896635723569
 10
-382.1860414149317
 20
292.3896635461689
 42
-1.0
  0
LWPOLYLINE
  5
77
330
A6D
100
AcDbEntity
  8
0
100
AcDbPolyline
 90
      172
 70
     1
 43
0.0
 10
-332.945323306471
 20
406.3356604194325
 10
-338.4939403781453
 20
406.4503167543127
 10
-343.9942471377248
 20
405.7107743054874
 10
-349.3155251558693
 20
404.1346087885566
 10
-354.3313107397052
 20
401.7592788198851
 10
-358.9224004262146
 20
398.6412356877908
 10
-362.9796839313352
 20
394.8545817503234
 10
-366.4067372281325
 20
390.4893093436968
 10
-369.1221141275294
 20
385.6491620548867
 10
-371.0612819009151
 20
380.4491691866461
 10
-372.1781549431282
 20
375.0129120099919
 10
-372.4461900273573
 20
369.4695867735733
 10
-371.852732474526
 20
363.9170960972939
 10
-370.4077377834374
 20
358.5231796240887
 10
-368.1459731781317
 20
353.4176174172964
 10
-365.1218577352249
 20
348.7232516065445
 10
-361.4081530363255
 20
344.553030750696
 10
-357.0942124916076
 20
341.0072922445674
 10
-352.2838314564352
 20
338.1713481559658
 10
-347.0927498683052
 20
336.1134325788548
 10
-341.6458674917137
 20
334.8830598902697
 10
-336.0742387735438
 20
334.5098334120694
 10
-330.5119196138975
 20
335.0027331416718
 10
-324.786934637778
 20
336.4255309660767
 10
-324.4730451084314
 20
336.4522058173804
 10
-324.1588607894057
 20
336.4292624522078
 10
-323.8521764510365
 20
336.357270085032
 10
-323.5606007925688
 20
336.2380148138085
 10
-323.2913676737299
 20
336.0744553076829
 10
-323.0511566459648
 20
335.8706494037593
 10
-322.8459272358746
 20
335.6316534340011
 10
-322.6807710919427
 20
335.363396779938
 10
-322.5597856631256
 20
335.0725347673856
 10
-322.4859725430223
 20
334.7662835508534
 10
-322.4611630016196
 20
334.4522410840083
 10
-322.4611648179169
 20
212.5632665933526
 10
-322.4859743686729
 20
212.2492241272442
 10
-322.5597874979056
 20
211.9429729129084
 10
-322.6807729353775
 20
211.6521109039631
 10
-322.8459290873147
 20
211.3838542548208
 10
-323.0511585045318
 20
211.1448582911826
 10
-323.2913695383542
 20
210.9410523944144
 10
-323.560602662077
 20
210.7774928963134
 10
-323.8521783241081
 20
210.65823763378
 10
-324.158862664611
 20
210.5862452757473
 10
-324.4730469843243
 20
210.5633019199377
 10
-324.7869365128851
 20
210.5899767805931
 10
-330.3565759357052
 20
211.9863953406435
 10
-335.7591386776163
 20
212.500908376228
 10
-341.177655413376
 20
212.1974545438419
 10
-346.4889869726002
 20
211.0829300209789
 10
-351.5724300348665
 20
209.1826630721452
 10
-356.31246018788
 20
206.5398384482605
 10
-360.6013572917861
 20
203.2145159862678
 10
-364.3416534864655
 20
199.2822657119125
 10
-367.4483482094402
 20
194.8324504637969
 10
-369.8508398865993
 20
189.966195067163
 10
-371.4945303970379
 20
184.7940882092196
 10
-372.3420658493151
 20
179.4336692422672
 10
-372.374185472002
 20
174.0067570286815
 10
-371.5901593266242
 20
168.6366815313103
 10
-370.0078048960544
 20
163.4454810631934
 10
-367.6630821710858
 20
158.5511288908324
 10
-364.6092764371704
 20
154.0648522181719
 10
-360.9157873331847
 20
150.0886044790618
 10
-356.6665517012759
 20
146.7127483819139
 10
-351.9581360699007
 20
144.0140023608238
 10
-346.8975421192049
 20
142.053697101353
 10
-341.5997750011791
 20
140.8763817624533
 10
-336.1852297758553
 20
140.5088115690651
 10
-330.4900556731253
 20
140.9842192139473
 10
-329.9204200179915
 20
140.9099392077229
 10
-329.3953962100932
 20
140.6768034102605
 10
-328.9582990153161
 20
140.3040456588399
 10
-328.6451892034591
 20
139.8224186821888
 10
-328.4818985139381
 20
139.271656982685
 10
-328.4611661449425
 20
123.5077539281665
 10
-328.5039418477926
 20
122.8551229677029
 10
-328.6315370327818
 20
122.2136587051921
 10
-328.8417685109002
 20
121.5943367720155
 10
-329.1310391632671
 20
121.0077539381505
 10
-329.4943994888398
 20
120.4639467985217
 10
-329.9256322916931
 20
119.9722200440588
 10
-330.4173590590044
 20
119.5409872558616
 10
-330.9611662094652
 20
119.1776269465003
 10
-331.5477490519496
 20
118.888356311608
 10
-332.167070991399
 20
118.6781248519477
 10
-332.8085352577133
 20
118.5505296860811
 10
-333.4611662194455
 20
118.5077540026742
 10
-340.4611662194355
 20
118.5077541069841
 10
-340.4611660871368
 20
127.3864337634224
 42
1.0
 10
-342.5824863990826
 20
129.5077541385873
 10
-344.3398457119665
 20
129.5077541647766
 42
1.0
 10
-346.4611660871368
 20
127.3864338528267
 10
-346.461166219441
 20
118.5077541963911
 10
-383.4611662194146
 20
118.5077547477359
 10
-384.113797179881
 20
118.5505304505887
 10
-384.7552614423863
 20
118.6781256355724
 10
-385.3745833755656
 20
118.8883571136896
 10
-385.9611662094334
 20
119.1776277660659
 10
-386.5049733490622
 20
119.5409880916318
 10
-386.9967001035278
 20
119.972220894485
 10
-387.4279328917237
 20
120.4639476618004
 10
-387.7912932010837
 20
121.0077548122559
 10
-388.0805638359773
 20
121.5943376547402
 10
-388.2907952956403
 20
122.2136595941855
 10
-388.4183904615029
 20
122.855123860497
 10
-388.4611661449043
 20
123.5077548222376
 10
-388.4611646126258
 20
226.3376884119909
 10
-388.4937068015942
 20
231.6889627903492
 10
-388.5913287143655
 20
237.0394456123609
 10
-388.7540159107708
 20
242.388345437804
 10
-388.9817443262076
 20
247.7348710606146
 10
-389.2744802752314
 20
253.0782316259015
 10
-389.6321804565048
 20
258.4176367469619
 10
-390.0547919592367
 20
263.7522966221799
 10
-390.5422522709913
 20
269.0814221518499
 10
-391.0944892869268
 20
274.4042250549033
 10
-391.7114213204637
 20
279.7199179855114
 10
-392.3929571154104
 20
285.0277146495459
 10
-393.2221747287532
 20
290.8208073048584
 10
-393.4499829474279
 20
291.7962024382512
 10
-393.9420803589178
 20
293.2152192462275
 10
-394.6075793808475
 20
294.5616514262874
 10
-395.4360549615685
 20
295.8144070991418
 10
-399.7411780681574
 20
299.9936313138883
 10
-399.8052032323136
 20
310.2938129601942
 10
-399.5384267031349
 20
320.5907382999249
 10
-398.9411236617275
 20
330.873786011825
 10
-398.0139102286261
 20
341.1323490894678
 10
-396.7577428283736
 20
351.3558457824345
 10
-395.1739172028467
 20
361.5337305114135
 10
-393.264067074757
 20
371.6555047460396
 10
-391.0301624624357
 20
381.7107278341453
 10
-388.4745076477837
 20
391.6890277713532
 10
-385.5997387993537
 20
401.5801118998256
 10
-382.4088212531469
 20
411.3737775252131
 10
-378.9050464538691
 20
421.059922440731
 10
-378.50087105305
 20
421.9811059223226
 10
-378.0061914274605
 20
422.857021916813
 10
-377.4260134220713
 20
423.6788067082583
 10
-376.7662080714095
 20
424.4381443542521
 10
-376.0334521883736
 20
425.1273508380103
 10
-375.2351607991078
 20
425.7394518257678
 10
-374.379412107649
 20
426.2682532426026
 10
-373.4748657495928
 20
426.708403952596
 10
-372.5306751620473
 20
427.0554499088966
 10
-371.5563949566821
 20
427.3058792258982
 10
-370.5618842330467
 20
427.4571577172811
 10
-369.5572068107521
 20
427.5077545403791
 10
-346.4611616149767
 20
427.5077541962218
 10
-346.4611617014096
 20
421.7072283859364
 42
1.0
 10
-344.3398413894638
 20
419.5859080107675
 10
-342.581287913891
 20
419.5859079845659
 42
1.0
 10
-340.4599678750555
 20
421.7060337977062
 10
-340.4527880163122
 20
434.4564650708171
 10
-337.2136826988591
 20
433.1650010321831
 10
-334.2070427368918
 20
431.3987058247599
 10
-331.5019793291448
 20
429.1981798465598
 10
-329.1606715782493
 20
426.6140048067709
 10
-327.2369372300346
 20
423.7055810449763
 10
-325.7749956085805
 20
420.5397621436345
 10
-324.8084511823878
 20
417.1893182188886
 10
-324.3595211257207
 20
413.7312632128359
 10
-324.4385246303382
 20
410.2450846363856
 10
-325.0436457066484
 20
406.8109164541786
 10
-325.2381840599956
 20
406.3257540340775
 10
-325.5517910697107
 20
405.9075693998962
 10
-325.9630451804272
 20
405.5849274912389
 10
-326.4438548558473
 20
405.3798670103375
 10
-326.9613774274188
 20
405.3063950243388
 10
-327.2228914294138
 20
405.3209378889116
  0
LWPOLYLINE
  5
78
330
A6D
100
AcDbEntity
  8
0
100
AcDbPolyline
 90
       62
 70
     1
 43
0.0
 10
-279.125722331308
 20
224.239058109414
 10
-283.0043989976806
 20
224.2390581672101
 42
1.0
 10
-285.1257193728454
 20
222.1177378552642
 10
-285.1257193990334
 20
220.360381532462
 42
1.0
 10
-283.0043990870876
 20
218.2390611572931
 10
-279.4688680002217
 20
218.2390611046101
 10
-279.703404629148
 20
217.6703121244144
 10
-279.9949483442045
 20
217.1285694779553
 10
-280.3404340231328
 20
216.6195287345572
 10
-280.7362294290166
 20
216.1485416546306
 10
-281.1781733975351
 20
215.7205599243301
 10
-281.6616195850236
 20
215.3400830964144
 10
-282.1814853174631
 20
215.0111112845285
 10
-282.7323050267611
 20
214.7371031083165
 10
-283.3082877125891
 20
214.5209393315095
 10
-283.9033778256285
 20
214.3648925752124
 10
-284.5113189320772
 20
214.2706034249226
 10
-285.1257194902466
 20
214.2390631822912
 10
-290.0080868110903
 20
214.2390632550435
 10
-293.770461340018
 20
214.322880694496
 10
-297.5253705078084
 20
214.5741665889273
 10
-301.2653637686873
 20
214.9924223331915
 10
-304.9830201732715
 20
215.5768180181103
 10
-308.6709630932589
 20
216.3261940772156
 10
-309.2975022862976
 20
216.5493470616512
 10
-309.8966732045733
 20
216.8380386368269
 10
-310.4616431931471
 20
217.1889767038559
 10
-310.9859696079297
 20
217.5981593350061
 10
-311.4636732844646
 20
218.0609204097496
 10
-311.8893067214153
 20
218.5719828249476
 10
-312.2580162012338
 20
219.1255186723588
 10
-312.5655971395998
 20
219.715215697306
 10
-312.8085420324884
 20
220.3343492805454
 10
-312.9840804540166
 20
220.975859122596
 10
-313.0902106490432
 20
221.6324297559495
 10
-313.125722360239
 20
222.2965739671279
 10
-313.1257222418938
 20
230.2390635995169
 10
-313.0743913984681
 20
231.0222207520724
 10
-312.9212771764855
 20
231.7919778670837
 10
-312.6689994027445
 20
232.5351641868984
 10
-312.3218746198956
 20
233.2390635875361
 10
-311.8858422292137
 20
233.8916321550921
 10
-311.3683628657909
 20
234.4817042604451
 10
-310.7782907450097
 20
234.9991836062787
 10
-310.1257221644676
 20
235.4352159775146
 10
-309.421822753482
 20
235.7823407393883
 10
-308.678636426145
 20
236.0346184909809
 10
-307.9088793065744
 20
236.1877326900198
 10
-307.1257221524868
 20
236.2390635101031
 10
-285.1257221524995
 20
236.2390631822785
 10
-284.3425649999454
 20
236.1877323388502
 10
-283.5728078849314
 20
236.034618116873
 10
-282.8296215651139
 20
235.7823403431319
 10
-282.1257221644748
 20
235.435215560283
 10
-281.4731535969203
 20
234.9991831696025
 10
-280.8830814915659
 20
234.4817038061798
 10
-280.3656021457309
 20
233.8916316854013
 10
-279.9295697744924
 20
233.2390631048523
 10
-279.5824450126308
 20
232.5351636938695
 10
-279.3301672610396
 20
231.7919773665379
 10
-279.1770530619981
 20
231.0222202469618
 10
-279.1257222419065
 20
230.2390630928742
  0
LWPOLYLINE
  5
79
330
A6D
100
AcDbEntity
  8
0
100
AcDbPolyline
 90
       14
 70
     1
 43
0.0
 10
-851.7826597029047
 20
432.4752957231695
 10
-966.8105740536562
 20
432.2445264923997
 10
-969.2925475408028
 20
422.9807855868926
 10
-971.3309641669985
 20
413.6094492033571
 10
-972.9212071097668
 20
404.1517425395726
 10
-974.0596746180628
 20
394.6290864138981
 10
-974.7437881697594
 20
385.063048749134
 10
-974.7437881697594
 20
365.8875426972637
 10
-974.0596746180628
 20
356.3215050324995
 10
-972.9212071097668
 20
346.7988489068291
 10
-971.3309641669985
 20
337.341142243042
 10
-969.2925475408028
 20
327.9698058595065
 10
-966.8105740536562
 20
318.7060649539993
 10
-851.7826597029047
 20
318.4752957232296
  0
LWPOLYLINE
  5
7A
330
A6D
100
AcDbEntity
  8
0
100
AcDbPolyline
 90
        4
 70
     1
 43
0.0
 10
-604.1555123758818
 20
296.6402995013012
 42
0.4142135623730951
 10
-636.1555468904109
 20
264.6402649867682
 42
0.4142135623730951
 10
-604.1555123758818
 20
232.6402304722351
 42
0.4142135623730951
 10
-572.1554778613474
 20
264.6402649867682
 42
0.4142135623730951
  0
LWPOLYLINE
  5
7B
330
A6D
100
AcDbEntity
  8
0
100
AcDbPolyline
 90
        4
 70
     1
 43
0.0
 10
-676.6877319849416
 20
296.6402995013012
 42
0.4142135623730951
 10
-708.6877664994706
 20
264.6402649867682
 42
0.4142135623730951
 10
-676.6877319849416
 20
232.6402304722351
 42
0.4142135623730951
 10
-644.6876974704125
 20
264.6402649867682
 42
0.4142135623730951
  0
LWPOLYLINE
  5
7C
330
A6D
100
AcDbEntity
  8
0
100
AcDbPolyline
 90
        4
 70
     1
 43
0.0
 10
-604.1555123758818
 20
215.2091528835229
 42
0.4142135623730951
 10
-636.1555468904109
 20
183.2091183689898
 42
0.4142135623730951
 10
-604.1555123758818
 20
151.2090838544567
 42
0.4142135623730951
 10
-572.1554778613474
 20
183.2091183689898
 42
0.4142135623730951
  0
LWPOLYLINE
  5
7D
330
A6D
100
AcDbEntity
  8
0
100
AcDbPolyline
 90
        4
 70
     1
 43
0.0
 10
-676.6877319849416
 20
215.2091528835229
 42
0.4142135623730951
 10
-708.6877664994706
 20
183.2091183689898
 42
0.4142135623730951
 10
-676.6877319849416
 20
151.2090838544567
 42
0.4142135623730951
 10
-644.6876974704125
 20
183.2091183689898
 42
0.4142135623730951
  0
LWPOLYLINE
  5
7E
330
A6D
100
AcDbEntity
  8
0
100
AcDbPolyline
 90
        4
 70
     1
 43
0.0
 10
-447.7924448904701
 20
191.6746072209816
 42
0.4142135623730951
 10
-479.7924794049991
 20
159.6745727064471
 42
0.4142135623730951
 10
-447.7924448904701
 20
127.6745381919153
 42
0.4142135623730951
 10
-415.7924103759357
 20
159.6745727064471
 42
0.4142135623730951
  0
LWPOLYLINE
  5
7F
330
A6D
100
AcDbEntity
  8
0
100
AcDbPolyline
 90
        4
 70
     1
 43
0.0
 10
-524.2808195069001
 20
191.6746072209816
 42
0.4142135623730951
 10
-556.2808540214237
 20
159.6745727064471
 42
0.4142135623730951
 10
-524.2808195069001
 20
127.6745381919153
 42
0.4142135623730951
 10
-492.2807849923656
 20
159.6745727064471
 42
0.4142135623730951
  0
LWPOLYLINE
  5
80
330
A6D
100
AcDbEntity
  8
0
100
AcDbPolyline
 90
        4
 70
     1
 43
0.0
 10
-604.1555123758818
 20
132.1976810682685
 42
0.4142135623730951
 10
-636.1555468904109
 20
100.197646553734
 42
0.4142135623730951
 10
-604.1555123758818
 20
68.19761203920226
 42
0.4142135623730951
 10
-572.1554778613474
 20
100.197646553734
 42
0.4142135623730951
  0
LWPOLYLINE
  5
81
330
A6D
100
AcDbEntity
  8
0
100
AcDbPolyline
 90
        4
 70
     1
 43
0.0
 10
-676.6877319849416
 20
132.1976810682685
 42
0.4142135623730951
 10
-708.6877664994706
 20
100.197646553734
 42
0.4142135623730951
 10
-676.6877319849416
 20
68.19761203920226
 42
0.4142135623730951
 10
-644.6876974704125
 20
100.197646553734
 42
0.4142135623730951
  0
LWPOLYLINE
  5
83
330
A6D
100
AcDbEntity
  8
POCKET_1
100
AcDbPolyline
 90
        4
 70
     1
 43
0.0
 10
-604.1555123758818
 20
276.6679610397713
 42
0.4142135623730951
 10
-616.1832084288865
 20
264.6402649867682
 42
0.4142135623730951
 10
-604.1555123758818
 20
252.6125689337664
 42
0.4142135623730951
 10
-592.1278163228773
 20
264.6402649867682
 42
0.4142135623730951
  0
LWPOLYLINE
  5
84
330
A6D
100
AcDbEntity
  8
POCKET_1
100
AcDbPolyline
 90
        4
 70
     1
 43
0.0
 10
-604.1555123758818
 20
286.6833456551511
 42
0.4142135623730951
 10
-626.1985930442635
 20
264.6402649867682
 42
0.4142135623730951
 10
-604.1555123758818
 20
242.5971843183852
 42
0.4142135623730951
 10
-582.1124317074947
 20
264.6402649867682
 42
0.4142135623730951
  0
LWPOLYLINE
  5
85
330
A6D
100
AcDbEntity
  8
POCKET_1
100
AcDbPolyline
 90
        4
 70
     1
 43
0.0
 10
-604.1555123758818
 20
195.236814421993
 42
0.4142135623730951
 10
-616.1832084288865
 20
183.2091183689898
 42
0.4142135623730951
 10
-604.1555123758818
 20
171.181422315988
 42
0.4142135623730951
 10
-592.1278163228773
 20
183.2091183689898
 42
0.4142135623730951
  0
LWPOLYLINE
  5
86
330
A6D
100
AcDbEntity
  8
POCKET_1
100
AcDbPolyline
 90
        4
 70
     1
 43
0.0
 10
-604.1555123758818
 20
205.2521990373728
 42
0.4142135623730951
 10
-626.1985930442635
 20
183.2091183689898
 42
0.4142135623730951
 10
-604.1555123758818
 20
161.1660377006082
 42
0.4142135623730951
 10
-582.1124317074947
 20
183.2091183689898
 42
0.4142135623730951
  0
LWPOLYLINE
  5
87
330
A6D
100
AcDbEntity
  8
POCKET_1
100
AcDbPolyline
 90
        4
 70
     1
 43
0.0
 10
-447.7924448904701
 20
171.7022687594502
 42
0.4142135623730951
 10
-459.8201409434746
 20
159.6745727064471
 42
0.4142135623730951
 10
-447.7924448904701
 20
147.6468766534452
 42
0.4142135623730951
 10
-435.7647488374656
 20
159.6745727064471
 42
0.4142135623730951
  0
LWPOLYLINE
  5
88
330
A6D
100
AcDbEntity
  8
POCKET_1
100
AcDbPolyline
 90
        4
 70
     1
 43
0.0
 10
-447.7924448904701
 20
181.7176533748314
 42
0.4142135623730951
 10
-469.8355255588516
 20
159.6745727064471
 42
0.4142135623730951
 10
-447.7924448904701
 20
137.6314920380655
 42
0.4142135623730951
 10
-425.7493642220884
 20
159.6745727064471
 42
0.4142135623730951
  0
LWPOLYLINE
  5
89
330
A6D
100
AcDbEntity
  8
POCKET_1
100
AcDbPolyline
 90
        4
 70
     1
 43
0.0
 10
-604.1555123758818
 20
112.2253426067385
 42
0.4142135623730951
 10
-616.1832084288865
 20
100.197646553734
 42
0.4142135623730951
 10
-604.1555123758818
 20
88.1699505007322
 42
0.4142135623730951
 10
-592.1278163228773
 20
100.197646553734
 42
0.4142135623730951
  0
LWPOLYLINE
  5
8A
330
A6D
100
AcDbEntity
  8
POCKET_1
100
AcDbPolyline
 90
        4
 70
     1
 43
0.0
 10
-604.1555123758818
 20
122.2407272221183
 42
0.4142135623730951
 10
-626.1985930442635
 20
100.197646553734
 42
0.4142135623730951
 10
-604.1555123758818
 20
78.15456588535235
 42
0.4142135623730951
 10
-582.1124317074947
 20
100.197646553734
 42
0.4142135623730951
  0
LWPOLYLINE
  5
8C
330
A6D
100
AcDbEntity
  8
POCKET_2
100
AcDbPolyline
 90
        4
 70
     1
 43
0.0
 10
-604.1555123758818
 20
273.1842687320808
 42
0.4142135623730951
 10
-612.6995161211932
 20
264.6402649867682
 42
0.4142135623730951
 10
-604.1555123758818
 20
256.0962612414555
 42
0.4142135623730951
 10
-595.6115086305651
 20
264.6402649867682
 42
0.4142135623730951
  0
LWPOLYLINE
  5
8D
330
A6D
100
AcDbEntity
  8
POCKET_2
100
AcDbPolyline
 90
        4
 70
     1
 43
0.0
 10
-616.8834344372357
 20
281.3681870481215
 42
0.4142135623730951
 10
-620.8834344372284
 20
277.368187048122
 42
0.4142135623730951
 10
-616.8834344372357
 20
273.3681870481253
 42
0.4142135623730951
 10
-612.8834344372322
 20
277.368187048122
 42
0.4142135623730951
  0
LWPOLYLINE
  5
8E
330
A6D
100
AcDbEntity
  8
POCKET_2
100
AcDbPolyline
 90
        4
 70
     1
 43
0.0
 10
-622.1555123758819
 20
268.6402649867678
 42
0.4142135623730951
 10
-626.1555123758746
 20
264.6402649867723
 42
0.4142135623730951
 10
-622.1555123758819
 20
260.6402649867741
 42
0.4142135623730951
 10
-618.1555123758783
 20
264.6402649867723
 42
0.4142135623730951
  0
LWPOLYLINE
  5
8F
330
A6D
100
AcDbEntity
  8
POCKET_2
100
AcDbPolyline
 90
        4
 70
     1
 43
0.0
 10
-616.8834344372357
 20
255.9123429254193
 42
0.4142135623730951
 10
-620.8834344372394
 20
251.9123429254197
 42
0.4142135623730951
 10
-616.8834344372357
 20
247.9123429254229
 42
0.4142135623730951
 10
-612.883434437243
 20
251.9123429254197
 42
0.4142135623730951
  0
LWPOLYLINE
  5
90
330
A6D
100
AcDbEntity
  8
POCKET_2
100
AcDbPolyline
 90
        4
 70
     1
 43
0.0
 10
-604.1555123758874
 20
250.6402649867745
 42
0.4142135623730951
 10
-608.1555123758801
 20
246.6402649867777
 42
0.4142135623730951
 10
-604.1555123758874
 20
242.6402649867795
 42
0.4142135623730951
 10
-600.1555123758891
 20
246.6402649867777
 42
0.4142135623730951
  0
LWPOLYLINE
  5
91
330
A6D
100
AcDbEntity
  8
POCKET_2
100
AcDbPolyline
 90
        4
 70
     1
 43
0.0
 10
-591.427590314528
 20
255.9123429254193
 42
0.4142135623730951
 10
-595.4275903145262
 20
251.9123429254197
 42
0.4142135623730951
 10
-591.427590314528
 20
247.9123429254229
 42
0.4142135623730951
 10
-587.4275903145298
 20
251.9123429254197
 42
0.4142135623730951
  0
LWPOLYLINE
  5
92
330
A6D
100
AcDbEntity
  8
POCKET_2
100
AcDbPolyline
 90
        4
 70
     1
 43
0.0
 10
-586.1555123758928
 20
268.6402649867678
 42
0.4142135623730951
 10
-590.1555123758909
 20
264.6402649867682
 42
0.4142135623730951
 10
-586.1555123758928
 20
260.6402649867714
 42
0.4142135623730951
 10
-582.1555123758947
 20
264.6402649867682
 42
0.4142135623730951
  0
LWPOLYLINE
  5
93
330
A6D
100
AcDbEntity
  8
POCKET_2
100
AcDbPolyline
 90
        4
 70
     1
 43
0.0
 10
-591.427590314528
 20
281.3681870481215
 42
0.4142135623730951
 10
-595.4275903145262
 20
277.368187048122
 42
0.4142135623730951
 10
-591.427590314528
 20
273.3681870481253
 42
0.4142135623730951
 10
-587.4275903145298
 20
277.368187048122
 42
0.4142135623730951
  0
LWPOLYLINE
  5
94
330
A6D
100
AcDbEntity
  8
POCKET_2
100
AcDbPolyline
 90
        4
 70
     1
 43
0.0
 10
-604.1555123758818
 20
286.6402649867609
 42
0.4142135623730951
 10
-608.1555123758801
 20
282.6402649867613
 42
0.4142135623730951
 10
-604.1555123758818
 20
278.6402649867658
 42
0.4142135623730951
 10
-600.1555123758783
 20
282.6402649867613
 42
0.4142135623730951
  0
LWPOLYLINE
  5
95
330
A6D
100
AcDbEntity
  8
POCKET_2
100
AcDbPolyline
 90
        4
 70
     1
 43
0.0
 10
-676.6877319849416
 20
273.1842687320808
 42
0.4142135623730951
 10
-685.2317357302529
 20
264.6402649867682
 42
0.4142135623730951
 10
-676.6877319849416
 20
256.0962612414555
 42
0.4142135623730951
 10
-668.1437282396248
 20
264.6402649867682
 42
0.4142135623730951
  0
LWPOLYLINE
  5
96
330
A6D
100
AcDbEntity
  8
POCKET_2
100
AcDbPolyline
 90
        4
 70
     1
 43
0.0
 10
-604.1555123758818
 20
191.7531221143025
 42
0.4142135623730951
 10
-612.6995161211932
 20
183.2091183689898
 42
0.4142135623730951
 10
-604.1555123758818
 20
174.6651146236771
 42
0.4142135623730951
 10
-595.6115086305651
 20
183.2091183689898
 42
0.4142135623730951
  0
LWPOLYLINE
  5
97
330
A6D
100
AcDbEntity
  8
POCKET_2
100
AcDbPolyline
 90
        4
 70
     1
 43
0.0
 10
-616.8834344372357
 20
174.4811963076396
 42
0.4142135623730951
 10
-620.8834344372284
 20
170.48119630764
 42
0.4142135623730951
 10
-616.8834344372357
 20
166.4811963076418
 42
0.4142135623730951
 10
-612.8834344372322
 20
170.48119630764
 42
0.4142135623730951
  0
LWPOLYLINE
  5
98
330
A6D
100
AcDbEntity
  8
POCKET_2
100
AcDbPolyline
 90
        4
 70
     1
 43
0.0
 10
-622.1555123758819
 20
187.2091183689866
 42
0.4142135623730951
 10
-626.1555123758746
 20
183.2091183689898
 42
0.4142135623730951
 10
-622.1555123758819
 20
179.209118368993
 42
0.4142135623730951
 10
-618.1555123758783
 20
183.2091183689898
 42
0.4142135623730951
  0
LWPOLYLINE
  5
99
330
A6D
100
AcDbEntity
  8
POCKET_2
100
AcDbPolyline
 90
        4
 70
     1
 43
0.0
 10
-616.8834344372357
 20
199.9370404303405
 42
0.4142135623730951
 10
-620.8834344372394
 20
195.9370404303423
 42
0.4142135623730951
 10
-616.8834344372357
 20
191.9370404303442
 42
0.4142135623730951
 10
-612.883434437243
 20
195.9370404303423
 42
0.4142135623730951
  0
LWPOLYLINE
  5
9A
330
A6D
100
AcDbEntity
  8
POCKET_2
100
AcDbPolyline
 90
        4
 70
     1
 43
0.0
 10
-604.1555123758874
 20
205.2091183689785
 42
0.4142135623730951
 10
-608.1555123758801
 20
201.2091183689816
 42
0.4142135623730951
 10
-604.1555123758874
 20
197.2091183689848
 42
0.4142135623730951
 10
-600.1555123758891
 20
201.2091183689816
 42
0.4142135623730951
  0
LWPOLYLINE
  5
9B
330
A6D
100
AcDbEntity
  8
POCKET_2
100
AcDbPolyline
 90
        4
 70
     1
 43
0.0
 10
-591.427590314528
 20
199.9370404303405
 42
0.4142135623730951
 10
-595.4275903145262
 20
195.9370404303423
 42
0.4142135623730951
 10
-591.427590314528
 20
191.9370404303442
 42
0.4142135623730951
 10
-587.4275903145298
 20
195.9370404303423
 42
0.4142135623730951
  0
LWPOLYLINE
  5
9C
330
A6D
100
AcDbEntity
  8
POCKET_2
100
AcDbPolyline
 90
        4
 70
     1
 43
0.0
 10
-586.1555123758928
 20
187.2091183689866
 42
0.4142135623730951
 10
-590.1555123758909
 20
183.2091183689898
 42
0.4142135623730951
 10
-586.1555123758928
 20
179.209118368993
 42
0.4142135623730951
 10
-582.1555123758947
 20
183.2091183689898
 42
0.4142135623730951
  0
LWPOLYLINE
  5
9D
330
A6D
100
AcDbEntity
  8
POCKET_2
100
AcDbPolyline
 90
        4
 70
     1
 43
0.0
 10
-591.427590314528
 20
174.4811963076396
 42
0.4142135623730951
 10
-595.4275903145262
 20
170.48119630764
 42
0.4142135623730951
 10
-591.427590314528
 20
166.4811963076418
 42
0.4142135623730951
 10
-587.4275903145298
 20
170.48119630764
 42
0.4142135623730951
  0
LWPOLYLINE
  5
9E
330
A6D
100
AcDbEntity
  8
POCKET_2
100
AcDbPolyline
 90
        4
 70
     1
 43
0.0
 10
-604.1555123758818
 20
169.2091183690003
 42
0.4142135623730951
 10
-608.1555123758801
 20
165.2091183689993
 42
0.4142135623730951
 10
-604.1555123758818
 20
161.2091183690025
 42
0.4142135623730951
 10
-600.1555123758783
 20
165.2091183689993
 42
0.4142135623730951
  0
LWPOLYLINE
  5
9F
330
A6D
100
AcDbEntity
  8
POCKET_2
100
AcDbPolyline
 90
        4
 70
     1
 43
0.0
 10
-676.6877319849416
 20
191.7531221143025
 42
0.4142135623730951
 10
-685.2317357302529
 20
183.2091183689898
 42
0.4142135623730951
 10
-676.6877319849416
 20
174.6651146236771
 42
0.4142135623730951
 10
-668.1437282396248
 20
183.2091183689898
 42
0.4142135623730951
  0
LWPOLYLINE
  5
A0
330
A6D
100
AcDbEntity
  8
POCKET_2
100
AcDbPolyline
 90
        4
 70
     1
 43
0.0
 10
-447.7924448904701
 20
168.2185764517597
 42
0.4142135623730951
 10
-456.3364486357868
 20
159.6745727064471
 42
0.4142135623730951
 10
-447.7924448904701
 20
151.1305689611358
 42
0.4142135623730951
 10
-439.2484411451588
 20
159.6745727064471
 42
0.4142135623730951
  0
LWPOLYLINE
  5
A1
330
A6D
100
AcDbEntity
  8
POCKET_2
100
AcDbPolyline
 90
        4
 70
     1
 43
0.0
 10
-460.5203669518186
 20
150.9466506450941
 42
0.4142135623730951
 10
-464.5203669518113
 20
146.9466506450973
 42
0.4142135623730951
 10
-460.5203669518186
 20
142.9466506451005
 42
0.4142135623730951
 10
-456.5203669518258
 20
146.9466506450973
 42
0.4142135623730951
  0
LWPOLYLINE
  5
A2
330
A6D
100
AcDbEntity
  8
POCKET_2
100
AcDbPolyline
 90
        4
 70
     1
 43
0.0
 10
-465.7924448904593
 20
163.6745727064452
 42
0.4142135623730951
 10
-469.7924448904573
 20
159.6745727064471
 42
0.4142135623730951
 10
-465.7924448904593
 20
155.6745727064489
 42
0.4142135623730951
 10
-461.792444890461
 20
159.6745727064471
 42
0.4142135623730951
  0
LWPOLYLINE
  5
A3
330
A6D
100
AcDbEntity
  8
POCKET_2
100
AcDbPolyline
 90
        4
 70
     1
 43
0.0
 10
-460.5203669518186
 20
176.4024947677964
 42
0.4142135623730951
 10
-464.5203669518222
 20
172.4024947677982
 42
0.4142135623730951
 10
-460.5203669518186
 20
168.4024947678014
 42
0.4142135623730951
 10
-456.5203669518258
 20
172.4024947677982
 42
0.4142135623730951
  0
LWPOLYLINE
  5
A4
330
A6D
100
AcDbEntity
  8
POCKET_2
100
AcDbPolyline
 90
        4
 70
     1
 43
0.0
 10
-447.7924448904701
 20
181.6745727064371
 42
0.4142135623730951
 10
-451.7924448904683
 20
177.6745727064389
 42
0.4142135623730951
 10
-447.7924448904701
 20
173.6745727064421
 42
0.4142135623730951
 10
-443.792444890472
 20
177.6745727064389
 42
0.4142135623730951
  0
LWPOLYLINE
  5
A5
330
A6D
100
AcDbEntity
  8
POCKET_2
100
AcDbPolyline
 90
        4
 70
     1
 43
0.0
 10
-435.0645228291218
 20
176.4024947677964
 42
0.4142135623730951
 10
-439.0645228291145
 20
172.4024947677982
 42
0.4142135623730951
 10
-435.0645228291218
 20
168.4024947678014
 42
0.4142135623730951
 10
-431.0645228291181
 20
172.4024947677982
 42
0.4142135623730951
  0
LWPOLYLINE
  5
A6
330
A6D
100
AcDbEntity
  8
POCKET_2
100
AcDbPolyline
 90
        4
 70
     1
 43
0.0
 10
-429.7924448904756
 20
163.6745727064452
 42
0.4142135623730951
 10
-433.7924448904792
 20
159.6745727064471
 42
0.4142135623730951
 10
-429.7924448904756
 20
155.6745727064489
 42
0.4142135623730951
 10
-425.7924448904828
 20
159.6745727064471
 42
0.4142135623730951
  0
LWPOLYLINE
  5
A7
330
A6D
100
AcDbEntity
  8
POCKET_2
100
AcDbPolyline
 90
        4
 70
     1
 43
0.0
 10
-435.0645228291218
 20
150.9466506450941
 42
0.4142135623730951
 10
-439.0645228291145
 20
146.9466506450973
 42
0.4142135623730951
 10
-435.0645228291218
 20
142.9466506451005
 42
0.4142135623730951
 10
-431.0645228291181
 20
146.9466506450973
 42
0.4142135623730951
  0
LWPOLYLINE
  5
A8
330
A6D
100
AcDbEntity
  8
POCKET_2
100
AcDbPolyline
 90
        4
 70
     1
 43
0.0
 10
-447.7924448904701
 20
145.6745727064534
 42
0.4142135623730951
 10
-451.7924448904683
 20
141.674572706458
 42
0.4142135623730951
 10
-447.7924448904701
 20
137.6745727064598
 42
0.4142135623730951
 10
-443.792444890472
 20
141.674572706458
 42
0.4142135623730951
  0
LWPOLYLINE
  5
A9
330
A6D
100
AcDbEntity
  8
POCKET_2
100
AcDbPolyline
 90
        4
 70
     1
 43
0.0
 10
-524.2808195069001
 20
168.2185764517597
 42
0.4142135623730951
 10
-532.8248232522114
 20
159.6745727064471
 42
0.4142135623730951
 10
-524.2808195069001
 20
151.1305689611358
 42
0.4142135623730951
 10
-515.7368157615835
 20
159.6745727064471
 42
0.4142135623730951
  0
LWPOLYLINE
  5
AA
330
A6D
100
AcDbEntity
  8
POCKET_2
100
AcDbPolyline
 90
        4
 70
     1
 43
0.0
 10
-604.1555123758818
 20
108.741650299048
 42
0.4142135623730951
 10
-612.6995161211932
 20
100.197646553734
 42
0.4142135623730951
 10
-604.1555123758818
 20
91.65364280842268
 42
0.4142135623730951
 10
-595.6115086305651
 20
100.197646553734
 42
0.4142135623730951
  0
LWPOLYLINE
  5
AB
330
A6D
100
AcDbEntity
  8
POCKET_2
100
AcDbPolyline
 90
        4
 70
     1
 43
0.0
 10
-616.8834344372357
 20
116.925568615086
 42
0.4142135623730951
 10
-620.8834344372284
 20
112.9255686150879
 42
0.4142135623730951
 10
-616.8834344372357
 20
108.9255686150897
 42
0.4142135623730951
 10
-612.8834344372322
 20
112.9255686150879
 42
0.4142135623730951
  0
LWPOLYLINE
  5
AC
330
A6D
100
AcDbEntity
  8
POCKET_2
100
AcDbPolyline
 90
        4
 70
     1
 43
0.0
 10
-622.1555123758819
 20
104.1976465537322
 42
0.4142135623730951
 10
-626.1555123758746
 20
100.197646553734
 42
0.4142135623730951
 10
-622.1555123758819
 20
96.19764655373584
 42
0.4142135623730951
 10
-618.1555123758783
 20
100.197646553734
 42
0.4142135623730951
  0
LWPOLYLINE
  5
AD
330
A6D
100
AcDbEntity
  8
POCKET_2
100
AcDbPolyline
 90
        4
 70
     1
 43
0.0
 10
-616.8834344372357
 20
91.469724492381
 42
0.4142135623730951
 10
-620.8834344372394
 20
87.46972449238418
 42
0.4142135623730951
 10
-616.8834344372357
 20
83.46972449238737
 42
0.4142135623730951
 10
-612.883434437243
 20
87.46972449238418
 42
0.4142135623730951
  0
LWPOLYLINE
  5
AE
330
A6D
100
AcDbEntity
  8
POCKET_2
100
AcDbPolyline
 90
        4
 70
     1
 43
0.0
 10
-604.1555123758874
 20
86.19764655374174
 42
0.4142135623730951
 10
-608.1555123758801
 20
82.19764655374493
 42
0.4142135623730951
 10
-604.1555123758874
 20
78.19764655374675
 42
0.4142135623730951
 10
-600.1555123758891
 20
82.19764655374493
 42
0.4142135623730951
  0
LWPOLYLINE
  5
AF
330
A6D
100
AcDbEntity
  8
POCKET_2
100
AcDbPolyline
 90
        4
 70
     1
 43
0.0
 10
-591.427590314528
 20
91.469724492381
 42
0.4142135623730951
 10
-595.4275903145262
 20
87.46972449238418
 42
0.4142135623730951
 10
-591.427590314528
 20
83.46972449238737
 42
0.4142135623730951
 10
-587.4275903145298
 20
87.46972449238418
 42
0.4142135623730951
  0
LWPOLYLINE
  5
B0
330
A6D
100
AcDbEntity
  8
POCKET_2
100
AcDbPolyline
 90
        4
 70
     1
 43
0.0
 10
-586.1555123758928
 20
104.1976465537322
 42
0.4142135623730951
 10
-590.1555123758909
 20
100.197646553734
 42
0.4142135623730951
 10
-586.1555123758928
 20
96.19764655373584
 42
0.4142135623730951
 10
-582.1555123758947
 20
100.197646553734
 42
0.4142135623730951
  0
LWPOLYLINE
  5
B1
330
A6D
100
AcDbEntity
  8
POCKET_2
100
AcDbPolyline
 90
        4
 70
     1
 43
0.0
 10
-591.427590314528
 20
116.9255686150833
 42
0.4142135623730951
 10
-595.4275903145262
 20
112.9255686150851
 42
0.4142135623730951
 10
-591.427590314528
 20
108.9255686150897
 42
0.4142135623730951
 10
-587.4275903145298
 20
112.9255686150851
 42
0.4142135623730951
  0
LWPOLYLINE
  5
B2
330
A6D
100
AcDbEntity
  8
POCKET_2
100
AcDbPolyline
 90
        4
 70
     1
 43
0.0
 10
-604.1555123758818
 20
122.197646553724
 42
0.4142135623730951
 10
-608.1555123758801
 20
118.1976465537258
 42
0.4142135623730951
 10
-604.1555123758818
 20
114.1976465537276
 42
0.4142135623730951
 10
-600.1555123758783
 20
118.1976465537258
 42
0.4142135623730951
  0
LWPOLYLINE
  5
B3
330
A6D
100
AcDbEntity
  8
POCKET_2
100
AcDbPolyline
 90
        4
 70
     1
 43
0.0
 10
-676.6877319849416
 20
108.741650299048
 42
0.4142135623730951
 10
-685.2317357302529
 20
100.197646553734
 42
0.4142135623730951
 10
-676.6877319849416
 20
91.65364280842268
 42
0.4142135623730951
 10
-668.1437282396248
 20
100.197646553734
 42
0.4142135623730951
  0
ENDSEC
  0
SECTION
  2
OBJECTS
  0
DICTIONARY
  5
A09
330
0
100
AcDbDictionary
281
     1
  3
ACAD_BACKGROUND
350
A7C
  3
ACAD_CIP_PREVIOUS_PRODUCT_INFO
350
A7B
  3
ACAD_COLOR
350
A5F
  3
ACAD_DETAILVIEWSTYLE
350
A67
  3
ACAD_GROUP
350
A0A
  3
ACAD_LAYOUT
350
A5E
  3
ACAD_MATERIAL
350
A0D
  3
ACAD_MLEADERSTYLE
350
A62
  3
ACAD_MLINESTYLE
350
A5B
  3
ACAD_PLOTSETTINGS
350
A5D
  3
ACAD_PLOTSTYLENAME
350
A0B
  3
ACAD_SCALELIST
350
A3F
  3
ACAD_SECTIONVIEWSTYLE
350
A64
  3
ACAD_TABLESTYLE
350
A60
  3
ACAD_VISUALSTYLE
350
A26
  3
ACDB_RECOMPOSE_DATA
350
B86
  3
AcDbVariableDictionary
350
A85
  3
DWGPROPS
350
B87
  0
DICTIONARY
  5
A7F
330
A51
100
AcDbDictionary
280
     1
281
     1
  3
ADSK_XREC_LAYER_RECONCILED
360
A80
  0
DICTIONARY
  5
A81
330
A73
100
AcDbDictionary
280
     1
281
     1
  3
ADSK_XREC_LAYER_RECONCILED
360
A82
  0
DICTIONARY
  5
A83
330
A74
100
AcDbDictionary
280
     1
281
     1
  3
ADSK_XREC_LAYER_RECONCILED
360
A84
  0
DICTIONARY
  5
A7C
102
{ACAD_REACTORS
330
A09
102
}
330
A09
100
AcDbDictionary
281
     1
  0
XRECORD
  5
A7B
102
{ACAD_REACTORS
330
A09
102
}
330
A09
100
AcDbXrecord
280
     1
300
ACD
300
2013
300
ACD_F_S
  0
DICTIONARY
  5
A5F
102
{ACAD_REACTORS
330
A09
102
}
330
A09
100
AcDbDictionary
281
     1
  0
DICTIONARY
  5
A67
102
{ACAD_REACTORS
330
A09
102
}
330
A09
100
AcDbDictionary
281
     1
  3
Imperial24
350
A68
  0
DICTIONARY
  5
A0A
102
{ACAD_REACTORS
330
A09
102
}
330
A09
100
AcDbDictionary
281
     1
  0
DICTIONARY
  5
A5E
102
{ACAD_REACTORS
330
A09
102
}
330
A09
100
AcDbDictionary
281
     1
  3
Layout1
350
A6C
  3
Model
350
A70
  0
DICTIONARY
  5
A0D
102
{ACAD_REACTORS
330
A09
102
}
330
A09
100
AcDbDictionary
281
     1
  3
ByBlock
350
A16
  3
ByLayer
350
A0E
  3
Global
350
A1E
  0
DICTIONARY
  5
A62
102
{ACAD_REACTORS
330
A09
102
}
330
A09
100
AcDbDictionary
281
     1
  3
Standard
350
A63
  0
DICTIONARY
  5
A5B
102
{ACAD_REACTORS
330
A09
102
}
330
A09
100
AcDbDictionary
281
     1
  3
Standard
350
A5C
  0
DICTIONARY
  5
A5D
102
{ACAD_REACTORS
330
A09
102
}
330
A09
100
AcDbDictionary
281
     1
  0
ACDBDICTIONARYWDFLT
  5
A0B
102
{ACAD_REACTORS
330
A09
102
}
330
A09
100
AcDbDictionary
281
     1
  3
Normal
350
A0C
100
AcDbDictionaryWithDefault
340
A0C
  0
DICTIONARY
  5
A3F
102
{ACAD_REACTORS
330
A09
102
}
330
A09
100
AcDbDictionary
281
     1
  3
A0
350
A40
  3
A1
350
A41
  3
A2
350
A42
  3
A3
350
A43
  3
A4
350
A44
  3
A5
350
A45
  3
A6
350
A46
  3
A7
350
A47
  3
A8
350
A48
  3
A9
350
A49
  3
B0
350
A4A
  3
B1
350
A4B
  3
B2
350
A4C
  3
B3
350
A4D
  3
B4
350
A4E
  3
B5
350
A4F
  3
B6
350
A50
  0
DICTIONARY
  5
A64
102
{ACAD_REACTORS
330
A09
102
}
330
A09
100
AcDbDictionary
281
     1
  3
Imperial24
350
A66
  0
DICTIONARY
  5
A60
102
{ACAD_REACTORS
330
A09
102
}
330
A09
100
AcDbDictionary
281
     1
  3
Standard
350
A61
  0
DICTIONARY
  5
A26
102
{ACAD_REACTORS
330
A09
102
}
330
A09
100
AcDbDictionary
281
     1
  3
2dWireframe
350
A2C
  3
Basic
350
A2B
  3
Brighten
350
A32
  3
ColorChange
350
A36
  3
Conceptual
350
A2F
  3
Dim
350
A31
  3
EdgeColorOff
350
A3E
  3
Facepattern
350
A35
  3
Flat
350
A27
  3
FlatWithEdges
350
A28
  3
Gouraud
350
A29
  3
GouraudWithEdges
350
A2A
  3
Hidden
350
A2E
  3
JitterOff
350
A3C
  3
Linepattern
350
A34
  3
OverhangOff
350
A3D
  3
Realistic
350
A30
  3
Shaded
350
A3B
  3
Shaded with edges
350
A3A
  3
Shades of Gray
350
A37
  3
Sketchy
350
A38
  3
Thicken
350
A33
  3
Wireframe
350
A2D
  3
X-Ray
350
A39
  0
XRECORD
  5
B86
102
{ACAD_REACTORS
330
A09
102
}
330
A09
100
AcDbXrecord
280
     1
 90
        1
330
A61
  0
DICTIONARY
  5
A85
102
{ACAD_REACTORS
330
A09
102
}
330
A09
100
AcDbDictionary
281
     1
  3
CANNOSCALE
350
A8A
  3
CMLEADERSTYLE
350
A87
  3
CTABLESTYLE
350
A86
  3
CVIEWDETAILSTYLE
350
A88
  3
CVIEWSECTIONSTYLE
350
A89
  3
DIMASSOC
350
A8D
  3
INDEXCTL
350
A8C
  3
SORTENTS
350
A8B
  3
XCLIPFRAME
350
A8E
  0
XRECORD
  5
B87
102
{ACAD_REACTORS
330
A09
102
}
330
A09
100
AcDbXrecord
280
     1
  1
DWGPROPS COOKIE
  2

  3

  4

  6

  7

  8
Paul
  9

300
=
301
=
302
=
303
=
304
=
305
=
306
=
307
=
308
=
309
=
 40
0.0022786574074074
 41
2454910.5
 42
2456234.759557743
  1

 90
        0
  0
XRECORD
  5
A80
102
{ACAD_REACTORS
330
A7F
102
}
330
A7F
100
AcDbXrecord
280
     1
290
     1
  0
XRECORD
  5
A82
102
{ACAD_REACTORS
330
A81
102
}
330
A81
100
AcDbXrecord
280
     1
290
     1
  0
XRECORD
  5
A84
102
{ACAD_REACTORS
330
A83
102
}
330
A83
100
AcDbXrecord
280
     1
290
     1
  0
ACDBDETAILVIEWSTYLE
  5
A68
102
{ACAD_REACTORS
330
A67
102
}
330
A67
100
AcDbModelDocViewStyle
 70
     0
  3
Imperial24
290
     0
100
AcDbDetailViewStyle
 70
     0
 71
     0
 90
        3
 71
     1
340
A52
 40
0.24
340
0
 40
0.24
300

 40
0.36
280
     3
 71
     2
340
A59
 90
       25
 71
     3
340
A52
 40
0.24
 90
        1
 40
0.75
 90
        1
300
%<\\AcVar ViewType \\f \"%tc1\">% %<\\AcVar ViewDetailId>%\\PSCALE %<\\AcVar ViewScale \\f \"%sn\">%
 71
     4
340
A59
 90
       25
340
A59
 90
       25
280
     0
  0
LAYOUT
  5
A6C
102
{ACAD_XDICTIONARY
360
BBD
102
}
102
{ACAD_REACTORS
330
A5E
102
}
330
A5E
100
AcDbPlotSettings
  1

  2
\\\\LRE-9DB5B9B44AA\\HP Color LaserJet CP1215
  4

  6

 40
0.0
 41
0.0
 42
0.0
 43
0.0
 44
0.0
 45
0.0
 46
0.0
 47
0.0
 48
0.0
 49
0.0
140
0.0
141
0.0
142
1.0
143
1.0
 70
   688
 72
     0
 73
     0
 74
     5
  7

 75
    16
147
1.0
148
0.0
149
0.0
100
AcDbLayout
  1
Layout1
 70
     1
 71
     1
 10
0.0
 20
0.0
 11
12.0
 21
9.0
 12
0.0
 22
0.0
 32
0.0
 14
1.000000000000000E+20
 24
1.000000000000000E+20
 34
1.000000000000000E+20
 15
-1.000000000000000E+20
 25
-1.000000000000000E+20
 35
-1.000000000000000E+20
146
0.0
 13
0.0
 23
0.0
 33
0.0
 16
1.0
 26
0.0
 36
0.0
 17
0.0
 27
1.0
 37
0.0
 76
     0
330
A69
  0
LAYOUT
  5
A70
102
{ACAD_XDICTIONARY
360
BBF
102
}
102
{ACAD_REACTORS
330
A5E
102
}
330
A5E
100
AcDbPlotSettings
  1

  2
\\\\LRE-9DB5B9B44AA\\HP Color LaserJet CP1215
  4

  6

 40
0.0
 41
0.0
 42
0.0
 43
0.0
 44
0.0
 45
0.0
 46
0.0
 47
0.0
 48
0.0
 49
0.0
140
0.0
141
0.0
142
1.0
143
1.0
 70
  1712
 72
     0
 73
     0
 74
     0
  7

 75
     0
147
1.0
148
0.0
149
0.0
100
AcDbLayout
  1
Model
 70
     1
 71
     0
 10
0.0
 20
0.0
 11
12.0
 21
9.0
 12
0.0
 22
0.0
 32
0.0
 14
0.0
 24
0.0
 34
0.0
 15
0.0
 25
0.0
 35
0.0
146
0.0
 13
0.0
 23
0.0
 33
0.0
 16
1.0
 26
0.0
 36
0.0
 17
0.0
 27
1.0
 37
0.0
 76
     0
330
A6D
331
A71
  0
MATERIAL
  5
A16
102
{ACAD_XDICTIONARY
360
A17
102
}
102
{ACAD_REACTORS
330
A0D
102
}
330
A0D
100
AcDbMaterial
  1
ByBlock
 72
     0
 43
0.0208333333333333
 43
0.0
 43
0.0
 43
0.0
 43
0.0
 43
0.0208333333333333
 43
0.0
 43
0.0
 43
0.0
 43
0.0
 43
1.0
 43
0.0
 43
0.0
 43
0.0
 43
0.0
 43
1.0
 77
     0
 47
0.0208333333333333
 47
0.0
 47
0.0
 47
0.0
 47
0.0
 47
0.0208333333333333
 47
0.0
 47
0.0
 47
0.0
 47
0.0
 47
1.0
 47
0.0
 47
0.0
 47
0.0
 47
0.0
 47
1.0
171
     0
 49
0.0208333333333333
 49
0.0
 49
0.0
 49
0.0
 49
0.0
 49
0.0208333333333333
 49
0.0
 49
0.0
 49
0.0
 49
0.0
 49
1.0
 49
0.0
 49
0.0
 49
0.0
 49
0.0
 49
1.0
175
     0
142
0.0208333333333333
142
0.0
142
0.0
142
0.0
142
0.0
142
0.0208333333333333
142
0.0
142
0.0
142
0.0
142
0.0
142
1.0
142
0.0
142
0.0
142
0.0
142
0.0
142
1.0
179
     0
144
0.0208333333333333
144
0.0
144
0.0
144
0.0
144
0.0
144
0.0208333333333333
144
0.0
144
0.0
144
0.0
144
0.0
144
1.0
144
0.0
144
0.0
144
0.0
144
0.0
144
1.0
147
0.0208333333333333
147
0.0
147
0.0
147
0.0
147
0.0
147
0.0208333333333333
147
0.0
147
0.0
147
0.0
147
0.0
147
1.0
147
0.0
147
0.0
147
0.0
147
0.0
147
1.0
  0
MATERIAL
  5
A0E
102
{ACAD_XDICTIONARY
360
A0F
102
}
102
{ACAD_REACTORS
330
A0D
102
}
330
A0D
100
AcDbMaterial
  1
ByLayer
 72
     0
 43
0.0208333333333333
 43
0.0
 43
0.0
 43
0.0
 43
0.0
 43
0.0208333333333333
 43
0.0
 43
0.0
 43
0.0
 43
0.0
 43
1.0
 43
0.0
 43
0.0
 43
0.0
 43
0.0
 43
1.0
 77
     0
 47
0.0208333333333333
 47
0.0
 47
0.0
 47
0.0
 47
0.0
 47
0.0208333333333333
 47
0.0
 47
0.0
 47
0.0
 47
0.0
 47
1.0
 47
0.0
 47
0.0
 47
0.0
 47
0.0
 47
1.0
171
     0
 49
0.0208333333333333
 49
0.0
 49
0.0
 49
0.0
 49
0.0
 49
0.0208333333333333
 49
0.0
 49
0.0
 49
0.0
 49
0.0
 49
1.0
 49
0.0
 49
0.0
 49
0.0
 49
0.0
 49
1.0
175
     0
142
0.0208333333333333
142
0.0
142
0.0
142
0.0
142
0.0
142
0.0208333333333333
142
0.0
142
0.0
142
0.0
142
0.0
142
1.0
142
0.0
142
0.0
142
0.0
142
0.0
142
1.0
179
     0
144
0.0208333333333333
144
0.0
144
0.0
144
0.0
144
0.0
144
0.0208333333333333
144
0.0
144
0.0
144
0.0
144
0.0
144
1.0
144
0.0
144
0.0
144
0.0
144
0.0
144
1.0
147
0.0208333333333333
147
0.0
147
0.0
147
0.0
147
0.0
147
0.0208333333333333
147
0.0
147
0.0
147
0.0
147
0.0
147
1.0
147
0.0
147
0.0
147
0.0
147
0.0
147
1.0
  0
MATERIAL
  5
A1E
102
{ACAD_XDICTIONARY
360
A1F
102
}
102
{ACAD_REACTORS
330
A0D
102
}
330
A0D
100
AcDbMaterial
  1
Global
 72
     0
 43
0.0208333333333333
 43
0.0
 43
0.0
 43
0.0
 43
0.0
 43
0.0208333333333333
 43
0.0
 43
0.0
 43
0.0
 43
0.0
 43
1.0
 43
0.0
 43
0.0
 43
0.0
 43
0.0
 43
1.0
 77
     0
 47
0.0208333333333333
 47
0.0
 47
0.0
 47
0.0
 47
0.0
 47
0.0208333333333333
 47
0.0
 47
0.0
 47
0.0
 47
0.0
 47
1.0
 47
0.0
 47
0.0
 47
0.0
 47
0.0
 47
1.0
171
     0
 49
0.0208333333333333
 49
0.0
 49
0.0
 49
0.0
 49
0.0
 49
0.0208333333333333
 49
0.0
 49
0.0
 49
0.0
 49
0.0
 49
1.0
 49
0.0
 49
0.0
 49
0.0
 49
0.0
 49
1.0
175
     0
142
0.0208333333333333
142
0.0
142
0.0
142
0.0
142
0.0
142
0.0208333333333333
142
0.0
142
0.0
142
0.0
142
0.0
142
1.0
142
0.0
142
0.0
142
0.0
142
0.0
142
1.0
179
     0
144
0.0208333333333333
144
0.0
144
0.0
144
0.0
144
0.0
144
0.0208333333333333
144
0.0
144
0.0
144
0.0
144
0.0
144
1.0
144
0.0
144
0.0
144
0.0
144
0.0
144
1.0
147
0.0208333333333333
147
0.0
147
0.0
147
0.0
147
0.0
147
0.0208333333333333
147
0.0
147
0.0
147
0.0
147
0.0
147
1.0
147
0.0
147
0.0
147
0.0
147
0.0
147
1.0
  0
MLEADERSTYLE
  5
A63
102
{ACAD_REACTORS
330
A62
102
}
330
A62
100
AcDbMLeaderStyle
170
     2
171
     1
172
     0
 90
        2
 40
0.0
 41
0.0
173
     1
 91
-1056964608
340
A57
 92
       -2
290
     1
 42
0.09
291
     1
 43
0.36
  3
Standard
 44
0.18
300

342
A52
174
     1
178
     6
175
     1
176
     0
 93
-1056964608
 45
0.18
292
     0
297
     0
 46
0.18
 94
-1056964608
 47
1.0
 49
1.0
140
1.0
293
     1
141
0.0
294
     1
177
     0
142
1.0
295
     0
296
     0
143
0.125
1001
ACAD_MLEADERVER
1070
     2
  0
MLINESTYLE
  5
A5C
102
{ACAD_REACTORS
330
A5B
102
}
330
A5B
100
AcDbMlineStyle
  2
STANDARD
 70
     0
  3

 62
   256
 51
90.0
 52
90.0
 71
     2
 49
0.5
 62
   256
  6
BYLAYER
 49
-0.5
 62
   256
  6
BYLAYER
  0
ACDBPLACEHOLDER
  5
A0C
102
{ACAD_REACTORS
330
A0B
102
}
330
A0B
  0
SCALE
  5
A40
102
{ACAD_REACTORS
330
A3F
102
}
330
A3F
100
AcDbScale
 70
     0
300
1:1
140
1.0
141
1.0
290
     1
  0
SCALE
  5
A41
102
{ACAD_REACTORS
330
A3F
102
}
330
A3F
100
AcDbScale
 70
     0
300
1/128\" = 1\'-0\"
140
0.0078125
141
12.0
290
     0
  0
SCALE
  5
A42
102
{ACAD_REACTORS
330
A3F
102
}
330
A3F
100
AcDbScale
 70
     0
300
1/64\" = 1\'-0\"
140
0.015625
141
12.0
290
     0
  0
SCALE
  5
A43
102
{ACAD_REACTORS
330
A3F
102
}
330
A3F
100
AcDbScale
 70
     0
300
1/32\" = 1\'-0\"
140
0.03125
141
12.0
290
     0
  0
SCALE
  5
A44
102
{ACAD_REACTORS
330
A3F
102
}
330
A3F
100
AcDbScale
 70
     0
300
1/16\" = 1\'-0\"
140
0.0625
141
12.0
290
     0
  0
SCALE
  5
A45
102
{ACAD_REACTORS
330
A3F
102
}
330
A3F
100
AcDbScale
 70
     0
300
3/32\" = 1\'-0\"
140
0.09375
141
12.0
290
     0
  0
SCALE
  5
A46
102
{ACAD_REACTORS
330
A3F
102
}
330
A3F
100
AcDbScale
 70
     0
300
1/8\" = 1\'-0\"
140
0.125
141
12.0
290
     0
  0
SCALE
  5
A47
102
{ACAD_REACTORS
330
A3F
102
}
330
A3F
100
AcDbScale
 70
     0
300
3/16\" = 1\'-0\"
140
0.1875
141
12.0
290
     0
  0
SCALE
  5
A48
102
{ACAD_REACTORS
330
A3F
102
}
330
A3F
100
AcDbScale
 70
     0
300
1/4\" = 1\'-0\"
140
0.25
141
12.0
290
     0
  0
SCALE
  5
A49
102
{ACAD_REACTORS
330
A3F
102
}
330
A3F
100
AcDbScale
 70
     0
300
3/8\" = 1\'-0\"
140
0.375
141
12.0
290
     0
  0
SCALE
  5
A4A
102
{ACAD_REACTORS
330
A3F
102
}
330
A3F
100
AcDbScale
 70
     0
300
1/2\" = 1\'-0\"
140
0.5
141
12.0
290
     0
  0
SCALE
  5
A4B
102
{ACAD_REACTORS
330
A3F
102
}
330
A3F
100
AcDbScale
 70
     0
300
3/4\" = 1\'-0\"
140
0.75
141
12.0
290
     0
  0
SCALE
  5
A4C
102
{ACAD_REACTORS
330
A3F
102
}
330
A3F
100
AcDbScale
 70
     0
300
1\" = 1\'-0\"
140
1.0
141
12.0
290
     0
  0
SCALE
  5
A4D
102
{ACAD_REACTORS
330
A3F
102
}
330
A3F
100
AcDbScale
 70
     0
300
1-1/2\" = 1\'-0\"
140
1.5
141
12.0
290
     0
  0
SCALE
  5
A4E
102
{ACAD_REACTORS
330
A3F
102
}
330
A3F
100
AcDbScale
 70
     0
300
3\" = 1\'-0\"
140
3.0
141
12.0
290
     0
  0
SCALE
  5
A4F
102
{ACAD_REACTORS
330
A3F
102
}
330
A3F
100
AcDbScale
 70
     0
300
6\" = 1\'-0\"
140
6.0
141
12.0
290
     0
  0
SCALE
  5
A50
102
{ACAD_REACTORS
330
A3F
102
}
330
A3F
100
AcDbScale
 70
     0
300
1\'-0\" = 1\'-0\"
140
12.0
141
12.0
290
     0
  0
ACDBSECTIONVIEWSTYLE
  5
A66
102
{ACAD_REACTORS
330
A64
102
}
330
A64
100
AcDbModelDocViewStyle
 70
     0
  3
Imperial24
290
     0
100
AcDbSectionViewStyle
 70
     0
 71
     0
 90
       78
 71
     1
340
A52
 40
0.24
340
0
340
0
 40
0.24
300
I, O, Q, S, X, Z
 40
0.48
 90
        3
 40
0.18
 90
        1
 71
     2
340
A65
 90
       25
340
A59
 90
       50
 40
0.24
 40
0.0
 40
0.24
 71
     3
340
A52
 40
0.24
 90
        1
 40
0.75
 90
        1
300
%<\\AcVar ViewType \\f \"%tc1\">% %<\\AcVar ViewSectionStartId>%-%<\\AcVar ViewSectionEndId>%\\PSCALE %<\\AcVar ViewScale \\f \"%sn\">%
 71
     4
300
ANSI31
 40
1.0
 90
        0
290
     0
290
     0
 90
        6
 40
0.0
 40
1.570796326794896
 40
0.2617993877991494
 40
1.308996938995747
 40
-0.2617993877991494
 40
1.832595714594046
  0
TABLESTYLE
  5
A61
102
{ACAD_XDICTIONARY
360
B84
102
}
102
{ACAD_REACTORS
330
A60
102
}
330
A60
100
AcDbTableStyle
  3
Standard
 70
     0
 71
     0
 40
0.06
 41
0.06
280
     0
281
     0
  7
STANDARD
140
0.18
170
     2
 62
     0
 63
     7
283
     0
274
    -2
284
     1
 64
     0
275
    -2
285
     1
 65
     0
276
    -2
286
     1
 66
     0
277
    -2
287
     1
 67
     0
278
    -2
288
     1
 68
     0
279
    -2
289
     1
 69
     0
  7
STANDARD
140
0.25
170
     5
 62
     0
 63
     7
283
     0
274
    -2
284
     1
 64
     0
275
    -2
285
     1
 65
     0
276
    -2
286
     1
 66
     0
277
    -2
287
     1
 67
     0
278
    -2
288
     1
 68
     0
279
    -2
289
     1
 69
     0
  7
STANDARD
140
0.18
170
     5
 62
     0
 63
     7
283
     0
274
    -2
284
     1
 64
     0
275
    -2
285
     1
 65
     0
276
    -2
286
     1
 66
     0
277
    -2
287
     1
 67
     0
278
    -2
288
     1
 68
     0
279
    -2
289
     1
 69
     0
  0
VISUALSTYLE
  5
A2C
102
{ACAD_XDICTIONARY
360
B95
102
}
102
{ACAD_REACTORS
330
A26
102
}
330
A26
100
AcDbVisualStyle
  2
2dWireframe
 70
     4
 71
     0
 72
     2
 73
     0
 90
        0
 40
-0.6
 41
-30.0
 62
     5
 63
     7
 74
     1
 91
        4
 64
     7
 65
   257
 75
     1
175
     1
 42
1.0
 92
        0
 66
   257
 43
1.0
 76
     1
 77
     6
 78
     2
 67
     7
 79
     5
170
     0
171
     0
290
     0
174
     0
 93
        1
 44
0.0
173
     0
291
     0
 45
0.0
1001
ACAD
1000
AcDbSavedByObjectVersion
1070
     0
  0
VISUALSTYLE
  5
A2B
102
{ACAD_XDICTIONARY
360
B93
102
}
102
{ACAD_REACTORS
330
A26
102
}
330
A26
100
AcDbVisualStyle
  2
Basic
 70
     7
 71
     1
 72
     0
 73
     1
 90
        0
 40
-0.6
 41
-30.0
 62
     5
 63
     7
 74
     0
 91
        4
 64
     7
 65
   257
 75
     1
175
     1
 42
1.0
 92
        8
 66
     7
 43
1.0
 76
     1
 77
     6
 78
     2
 67
     7
 79
     5
170
     0
171
     0
290
     0
174
     0
 93
        1
 44
0.0
173
     0
291
     1
 45
0.0
1001
ACAD
1000
AcDbSavedByObjectVersion
1070
     0
  0
VISUALSTYLE
  5
A32
102
{ACAD_XDICTIONARY
360
BA1
102
}
102
{ACAD_REACTORS
330
A26
102
}
330
A26
100
AcDbVisualStyle
  2
Brighten
 70
    12
 71
     2
 72
     2
 73
     0
 90
        0
 40
-0.6
 41
-30.0
 62
     5
 63
     7
 74
     1
 91
        4
 64
     7
 65
   257
 75
     1
175
     1
 42
1.0
 92
        8
 66
     7
 43
1.0
 76
     1
 77
     6
 78
     2
 67
     7
 79
     5
170
     0
171
     0
290
     0
174
     0
 93
        1
 44
50.0
173
     0
291
     1
 45
0.0
1001
ACAD
1000
AcDbSavedByObjectVersion
1070
     0
  0
VISUALSTYLE
  5
A36
102
{ACAD_XDICTIONARY
360
BA9
102
}
102
{ACAD_REACTORS
330
A26
102
}
330
A26
100
AcDbVisualStyle
  2
ColorChange
 70
    16
 71
     2
 72
     2
 73
     3
 90
        0
 40
-0.6
 41
-30.0
 62
     5
 63
     8
 74
     1
 91
        4
 64
     7
 65
   257
 75
     1
175
     1
 42
1.0
 92
        8
 66
     8
 43
1.0
 76
     1
 77
     6
 78
     2
 67
     7
 79
     5
170
     0
171
     0
290
     0
174
     0
 93
        1
 44
0.0
173
     0
291
     1
 45
0.0
1001
ACAD
1000
AcDbSavedByObjectVersion
1070
     0
  0
VISUALSTYLE
  5
A2F
102
{ACAD_XDICTIONARY
360
B9B
102
}
102
{ACAD_REACTORS
330
A26
102
}
330
A26
100
AcDbVisualStyle
  2
Conceptual
 70
     9
 71
     3
 72
     2
 73
     0
 90
        0
 40
-0.6
 41
-30.0
 62
     5
 63
     7
 74
     2
 91
        2
 64
     7
 65
   257
 75
     1
175
     1
 42
179.0
 92
        8
 66
     7
 43
1.0
 76
     1
 77
     6
 78
     2
 67
     7
 79
     3
170
     0
171
     0
290
     0
174
     0
 93
        1
 44
0.0
173
     0
291
     0
 45
0.0
1001
ACAD
1000
AcDbSavedByObjectVersion
1070
     0
  0
VISUALSTYLE
  5
A31
102
{ACAD_XDICTIONARY
360
B9F
102
}
102
{ACAD_REACTORS
330
A26
102
}
330
A26
100
AcDbVisualStyle
  2
Dim
 70
    11
 71
     2
 72
     2
 73
     0
 90
        0
 40
-0.6
 41
-30.0
 62
     5
 63
     7
 74
     1
 91
        4
 64
     7
 65
   257
 75
     1
175
     1
 42
1.0
 92
        8
 66
     7
 43
1.0
 76
     1
 77
     6
 78
     2
 67
     7
 79
     5
170
     0
171
     0
290
     0
174
     0
 93
        1
 44
-50.0
173
     0
291
     1
 45
0.0
1001
ACAD
1000
AcDbSavedByObjectVersion
1070
     0
  0
VISUALSTYLE
  5
A3E
102
{ACAD_XDICTIONARY
360
BB9
102
}
102
{ACAD_REACTORS
330
A26
102
}
330
A26
100
AcDbVisualStyle
  2
EdgeColorOff
 70
    22
 71
     2
 72
     2
 73
     0
 90
        0
 40
-0.6
 41
-30.0
 62
     5
 63
     7
 74
     1
 91
        4
 64
     7
 65
   257
 75
     1
175
     1
 42
1.0
 92
        8
 66
     7
 43
1.0
 76
     1
 77
     6
 78
     2
 67
     7
 79
     5
170
     0
171
     0
290
     0
174
     0
 93
        1
 44
0.0
173
     0
291
     1
 45
0.0
1001
ACAD
1000
AcDbSavedByObjectVersion
1070
     0
  0
VISUALSTYLE
  5
A35
102
{ACAD_XDICTIONARY
360
BA7
102
}
102
{ACAD_REACTORS
330
A26
102
}
330
A26
100
AcDbVisualStyle
  2
Facepattern
 70
    15
 71
     2
 72
     2
 73
     0
 90
        0
 40
-0.6
 41
-30.0
 62
     5
 63
     7
 74
     1
 91
        4
 64
     7
 65
   257
 75
     1
175
     1
 42
1.0
 92
        8
 66
     7
 43
1.0
 76
     1
 77
     6
 78
     2
 67
     7
 79
     5
170
     0
171
     0
290
     0
174
     0
 93
        1
 44
0.0
173
     0
291
     1
 45
0.0
1001
ACAD
1000
AcDbSavedByObjectVersion
1070
     0
  0
VISUALSTYLE
  5
A27
102
{ACAD_XDICTIONARY
360
B8B
102
}
102
{ACAD_REACTORS
330
A26
102
}
330
A26
100
AcDbVisualStyle
  2
Flat
 70
     0
 71
     2
 72
     1
 73
     1
 90
        2
 40
-0.6
 41
30.0
 62
     5
 63
     7
 74
     0
 91
        0
 64
     7
 65
   257
 75
     1
175
     1
 42
1.0
 92
        8
 66
     7
 43
1.0
 76
     1
 77
     6
 78
     2
 67
     7
 79
     5
170
     0
171
     0
290
     0
174
     0
 93
       13
 44
0.0
173
     0
291
     1
 45
0.0
1001
ACAD
1000
AcDbSavedByObjectVersion
1070
     0
  0
VISUALSTYLE
  5
A28
102
{ACAD_XDICTIONARY
360
B8D
102
}
102
{ACAD_REACTORS
330
A26
102
}
330
A26
100
AcDbVisualStyle
  2
FlatWithEdges
 70
     1
 71
     2
 72
     1
 73
     1
 90
        2
 40
-0.6
 41
30.0
 62
     5
 63
     7
 74
     1
 91
        0
 64
     7
 65
   257
 75
     1
175
     1
 42
1.0
 92
        0
 66
   257
 43
1.0
 76
     1
 77
     6
 78
     2
 67
     7
 79
     5
170
     0
171
     0
290
     0
174
     0
 93
       13
 44
0.0
173
     0
291
     1
 45
0.0
1001
ACAD
1000
AcDbSavedByObjectVersion
1070
     0
  0
VISUALSTYLE
  5
A29
102
{ACAD_XDICTIONARY
360
B8F
102
}
102
{ACAD_REACTORS
330
A26
102
}
330
A26
100
AcDbVisualStyle
  2
Gouraud
 70
     2
 71
     2
 72
     2
 73
     1
 90
        2
 40
-0.6
 41
30.0
 62
     5
 63
     7
 74
     0
 91
        0
 64
     7
 65
   257
 75
     1
175
     1
 42
1.0
 92
        0
 66
     7
 43
1.0
 76
     1
 77
     6
 78
     2
 67
     7
 79
     5
170
     0
171
     0
290
     0
174
     0
 93
       13
 44
0.0
173
     0
291
     1
 45
0.0
1001
ACAD
1000
AcDbSavedByObjectVersion
1070
     0
  0
VISUALSTYLE
  5
A2A
102
{ACAD_XDICTIONARY
360
B91
102
}
102
{ACAD_REACTORS
330
A26
102
}
330
A26
100
AcDbVisualStyle
  2
GouraudWithEdges
 70
     3
 71
     2
 72
     2
 73
     1
 90
        2
 40
-0.6
 41
30.0
 62
     5
 63
     7
 74
     1
 91
        0
 64
     7
 65
   257
 75
     1
175
     1
 42
1.0
 92
        0
 66
   257
 43
1.0
 76
     1
 77
     6
 78
     2
 67
     7
 79
     5
170
     0
171
     0
290
     0
174
     0
 93
       13
 44
0.0
173
     0
291
     1
 45
0.0
1001
ACAD
1000
AcDbSavedByObjectVersion
1070
     0
  0
VISUALSTYLE
  5
A2E
102
{ACAD_XDICTIONARY
360
B99
102
}
102
{ACAD_REACTORS
330
A26
102
}
330
A26
100
AcDbVisualStyle
  2
Hidden
 70
     6
 71
     1
 72
     2
 73
     2
 90
        0
 40
-0.6
 41
-30.0
 62
     5
 63
     7
 74
     2
 91
        2
 64
     7
 65
   257
 75
     2
175
     1
 42
40.0
 92
        0
 66
   257
 43
1.0
 76
     1
 77
     6
 78
     2
 67
     7
 79
     3
170
     0
171
     0
290
     0
174
     0
 93
        1
 44
0.0
173
     0
291
     0
 45
0.0
1001
ACAD
1000
AcDbSavedByObjectVersion
1070
     0
  0
VISUALSTYLE
  5
A3C
102
{ACAD_XDICTIONARY
360
BB5
102
}
102
{ACAD_REACTORS
330
A26
102
}
330
A26
100
AcDbVisualStyle
  2
JitterOff
 70
    20
 71
     2
 72
     2
 73
     0
 90
        0
 40
-0.6
 41
-30.0
 62
     5
 63
     7
 74
     1
 91
        4
 64
     7
 65
   257
 75
     1
175
     1
 42
1.0
 92
       10
 66
     7
 43
1.0
 76
     1
 77
     6
 78
     2
 67
     7
 79
     5
170
     0
171
     0
290
     0
174
     0
 93
        1
 44
0.0
173
     0
291
     1
 45
0.0
1001
ACAD
1000
AcDbSavedByObjectVersion
1070
     0
  0
VISUALSTYLE
  5
A34
102
{ACAD_XDICTIONARY
360
BA5
102
}
102
{ACAD_REACTORS
330
A26
102
}
330
A26
100
AcDbVisualStyle
  2
Linepattern
 70
    14
 71
     2
 72
     2
 73
     0
 90
        0
 40
-0.6
 41
-30.0
 62
     5
 63
     7
 74
     1
 91
        4
 64
     7
 65
   257
 75
     7
175
     7
 42
1.0
 92
        8
 66
     7
 43
1.0
 76
     1
 77
     6
 78
     2
 67
     7
 79
     5
170
     0
171
     0
290
     0
174
     0
 93
        1
 44
0.0
173
     0
291
     1
 45
0.0
1001
ACAD
1000
AcDbSavedByObjectVersion
1070
     0
  0
VISUALSTYLE
  5
A3D
102
{ACAD_XDICTIONARY
360
BB7
102
}
102
{ACAD_REACTORS
330
A26
102
}
330
A26
100
AcDbVisualStyle
  2
OverhangOff
 70
    21
 71
     2
 72
     2
 73
     0
 90
        0
 40
-0.6
 41
-30.0
 62
     5
 63
     7
 74
     1
 91
        4
 64
     7
 65
   257
 75
     1
175
     1
 42
1.0
 92
        9
 66
     7
 43
1.0
 76
     1
 77
     6
 78
     2
 67
     7
 79
     5
170
     0
171
     0
290
     0
174
     0
 93
        1
 44
0.0
173
     0
291
     1
 45
0.0
1001
ACAD
1000
AcDbSavedByObjectVersion
1070
     0
  0
VISUALSTYLE
  5
A30
102
{ACAD_XDICTIONARY
360
B9D
102
}
102
{ACAD_REACTORS
330
A26
102
}
330
A26
100
AcDbVisualStyle
  2
Realistic
 70
     8
 71
     2
 72
     3
 73
     0
 90
        2
 40
-0.6
 41
30.0
 62
     5
 63
     7
 74
     0
 91
        0
 64
     7
 65
   257
 75
     1
175
     1
 42
1.0
 92
        8
 66
   257
 43
1.0
 76
     1
 77
     6
 78
     2
 67
     7
 79
     3
170
     0
171
     0
290
     0
174
     0
 93
       13
 44
0.0
173
     0
291
     0
 45
0.0
1001
ACAD
1000
AcDbSavedByObjectVersion
1070
     0
  0
VISUALSTYLE
  5
A3B
102
{ACAD_XDICTIONARY
360
BB3
102
}
102
{ACAD_REACTORS
330
A26
102
}
330
A26
100
AcDbVisualStyle
  2
Shaded
 70
    27
 71
     2
 72
     2
 73
     1
 90
        2
 40
-0.6
 41
30.0
 62
     5
 63
     7
 74
     0
 91
        4
 64
     7
 65
   257
 75
     1
175
     1
 42
1.0
 92
        8
 66
   257
 43
1.0
 76
     1
 77
     6
 78
     2
 67
     8
 79
     3
170
     0
171
     0
290
     0
174
     0
 93
        5
 44
0.0
173
     0
291
     0
 45
0.0
1001
ACAD
1000
AcDbSavedByObjectVersion
1070
     0
  0
VISUALSTYLE
  5
A3A
102
{ACAD_XDICTIONARY
360
BB1
102
}
102
{ACAD_REACTORS
330
A26
102
}
330
A26
100
AcDbVisualStyle
  2
Shaded with edges
 70
    26
 71
     2
 72
     2
 73
     1
 90
        2
 40
-0.6
 41
30.0
 62
     5
 63
     7
 74
     1
 91
       10
 64
     7
 65
   257
 75
     2
175
     1
 42
1.0
 92
        8
 66
   257
 43
1.0
 76
     1
 77
     6
 78
     2
 67
     7
 79
     3
170
     0
171
     0
290
     0
174
     0
 93
        5
 44
0.0
173
     0
291
     0
 45
0.0
1001
ACAD
1000
AcDbSavedByObjectVersion
1070
     0
  0
VISUALSTYLE
  5
A37
102
{ACAD_XDICTIONARY
360
BAB
102
}
102
{ACAD_REACTORS
330
A26
102
}
330
A26
100
AcDbVisualStyle
  2
Shades of Gray
 70
    23
 71
     2
 72
     2
 73
     3
 90
        0
 40
-0.6
 41
-30.0
 62
     5
 63
     7
 74
     2
 91
        2
 64
     7
 65
     7
 75
     1
175
     1
 42
40.0
 92
        8
 66
     7
 43
1.0
 76
     1
 77
     6
 78
     2
 67
     7
 79
     3
170
     0
171
     0
290
     0
174
     0
 93
        1
 44
0.0
173
     0
291
     0
 45
0.0
1001
ACAD
1000
AcDbSavedByObjectVersion
1070
     0
  0
VISUALSTYLE
  5
A38
102
{ACAD_XDICTIONARY
360
BAD
102
}
102
{ACAD_REACTORS
330
A26
102
}
330
A26
100
AcDbVisualStyle
  2
Sketchy
 70
    24
 71
     1
 72
     2
 73
     2
 90
        0
 40
-0.6
 41
-30.0
 62
     5
 63
     7
 74
     2
 91
        2
 64
     7
 65
     7
 75
     1
175
     1
 42
40.0
 92
       11
 66
     7
 43
1.0
 76
     1
 77
     6
 78
     2
 67
     7
 79
     6
170
     0
171
     0
290
     0
174
     0
 93
        1
 44
0.0
173
     0
291
     0
 45
0.0
1001
ACAD
1000
AcDbSavedByObjectVersion
1070
     0
  0
VISUALSTYLE
  5
A33
102
{ACAD_XDICTIONARY
360
BA3
102
}
102
{ACAD_REACTORS
330
A26
102
}
330
A26
100
AcDbVisualStyle
  2
Thicken
 70
    13
 71
     2
 72
     2
 73
     0
 90
        0
 40
-0.6
 41
-30.0
 62
     5
 63
     7
 74
     1
 91
        4
 64
     7
 65
   257
 75
     1
175
     1
 42
1.0
 92
       12
 66
     7
 43
1.0
 76
     1
 77
     6
 78
     2
 67
     7
 79
     5
170
     0
171
     0
290
     0
174
     0
 93
        1
 44
0.0
173
     0
291
     1
 45
0.0
1001
ACAD
1000
AcDbSavedByObjectVersion
1070
     0
  0
VISUALSTYLE
  5
A2D
102
{ACAD_XDICTIONARY
360
B97
102
}
102
{ACAD_REACTORS
330
A26
102
}
330
A26
100
AcDbVisualStyle
  2
Wireframe
 70
     5
 71
     0
 72
     2
 73
     0
 90
        0
 40
-0.6
 41
-30.0
 62
     5
 63
     7
 74
     1
 91
        4
 64
     7
 65
   257
 75
     1
175
     1
 42
1.0
 92
        0
 66
   257
 43
1.0
 76
     1
 77
     6
 78
     2
 67
     7
 79
     3
170
     0
171
     0
290
     0
174
     0
 93
        1
 44
0.0
173
     0
291
     0
 45
0.0
1001
ACAD
1000
AcDbSavedByObjectVersion
1070
     0
  0
VISUALSTYLE
  5
A39
102
{ACAD_XDICTIONARY
360
BAF
102
}
102
{ACAD_REACTORS
330
A26
102
}
330
A26
100
AcDbVisualStyle
  2
X-Ray
 70
    25
 71
     2
 72
     2
 73
     1
 90
        1
 40
0.5
 41
-30.0
 62
     5
 63
     7
 74
     1
 91
        0
 64
     7
 65
   257
 75
     1
175
     1
 42
1.0
 92
        8
 66
     7
 43
1.0
 76
     1
 77
     6
 78
     2
 67
     7
 79
     3
170
     0
171
     0
290
     0
174
     0
 93
       13
 44
0.0
173
     0
291
     0
 45
0.0
1001
ACAD
1000
AcDbSavedByObjectVersion
1070
     0
  0
DICTIONARYVAR
  5
A8A
102
{ACAD_REACTORS
330
A85
102
}
330
A85
100
DictionaryVariables
280
     0
  1
1:1
  0
DICTIONARYVAR
  5
A87
102
{ACAD_REACTORS
330
A85
102
}
330
A85
100
DictionaryVariables
280
     0
  1
STANDARD
  0
DICTIONARYVAR
  5
A86
102
{ACAD_REACTORS
330
A85
102
}
330
A85
100
DictionaryVariables
280
     0
  1
STANDARD
  0
DICTIONARYVAR
  5
A88
102
{ACAD_REACTORS
330
A85
102
}
330
A85
100
DictionaryVariables
280
     0
  1
Imperial24
  0
DICTIONARYVAR
  5
A89
102
{ACAD_REACTORS
330
A85
102
}
330
A85
100
DictionaryVariables
280
     0
  1
Imperial24
  0
DICTIONARYVAR
  5
A8D
102
{ACAD_REACTORS
330
A85
102
}
330
A85
100
DictionaryVariables
280
     0
  1
1
  0
DICTIONARYVAR
  5
A8C
102
{ACAD_REACTORS
330
A85
102
}
330
A85
100
DictionaryVariables
280
     0
  1
0
  0
DICTIONARYVAR
  5
A8B
102
{ACAD_REACTORS
330
A85
102
}
330
A85
100
DictionaryVariables
280
     0
  1
127
  0
DICTIONARYVAR
  5
A8E
102
{ACAD_REACTORS
330
A85
102
}
330
A85
100
DictionaryVariables
280
     0
  1
2
  0
DICTIONARY
  5
BBD
330
A6C
100
AcDbDictionary
280
     1
281
     1
  3
ACAD_XREC_ROUNDTRIP
360
BBE
  0
DICTIONARY
  5
BBF
330
A70
100
AcDbDictionary
280
     1
281
     1
  3
ACAD_XREC_ROUNDTRIP
360
BC0
  0
DICTIONARY
  5
A17
330
A16
100
AcDbDictionary
280
     1
281
     1
  3
ACAD_XREC_ROUNDTRIP
360
B89
  3
BUMPTILE
360
A19
  3
DIFFUSETILE
360
A18
  3
OPACITYTILE
360
A1C
  3
REFLECTIONTILE
360
A1B
  3
REFRACTIONTILE
360
A1D
  3
SPECULARTILE
360
A1A
  0
DICTIONARY
  5
A0F
330
A0E
100
AcDbDictionary
280
     1
281
     1
  3
ACAD_XREC_ROUNDTRIP
360
B88
  3
BUMPTILE
360
A11
  3
DIFFUSETILE
360
A10
  3
OPACITYTILE
360
A14
  3
REFLECTIONTILE
360
A13
  3
REFRACTIONTILE
360
A15
  3
SPECULARTILE
360
A12
  0
DICTIONARY
  5
A1F
330
A1E
100
AcDbDictionary
280
     1
281
     1
  3
ACAD_XREC_ROUNDTRIP
360
B8A
  3
BUMPTILE
360
A21
  3
DIFFUSETILE
360
A20
  3
OPACITYTILE
360
A24
  3
REFLECTIONTILE
360
A23
  3
REFRACTIONTILE
360
A25
  3
SPECULARTILE
360
A22
  0
DICTIONARY
  5
B84
330
A61
100
AcDbDictionary
280
     1
281
     1
  3
ACAD_ROUNDTRIP_2008_TABLESTYLE_CELLSTYLEMAP
360
B85
  3
ACAD_XREC_ROUNDTRIP
360
BBB
  0
DICTIONARY
  5
B95
330
A2C
100
AcDbDictionary
280
     1
281
     1
  3
ACAD_XREC_ROUNDTRIP
360
B96
  0
DICTIONARY
  5
B93
330
A2B
100
AcDbDictionary
280
     1
281
     1
  3
ACAD_XREC_ROUNDTRIP
360
B94
  0
DICTIONARY
  5
BA1
330
A32
100
AcDbDictionary
280
     1
281
     1
  3
ACAD_XREC_ROUNDTRIP
360
BA2
  0
DICTIONARY
  5
BA9
330
A36
100
AcDbDictionary
280
     1
281
     1
  3
ACAD_XREC_ROUNDTRIP
360
BAA
  0
DICTIONARY
  5
B9B
330
A2F
100
AcDbDictionary
280
     1
281
     1
  3
ACAD_XREC_ROUNDTRIP
360
B9C
  0
DICTIONARY
  5
B9F
330
A31
100
AcDbDictionary
280
     1
281
     1
  3
ACAD_XREC_ROUNDTRIP
360
BA0
  0
DICTIONARY
  5
BB9
330
A3E
100
AcDbDictionary
280
     1
281
     1
  3
ACAD_XREC_ROUNDTRIP
360
BBA
  0
DICTIONARY
  5
BA7
330
A35
100
AcDbDictionary
280
     1
281
     1
  3
ACAD_XREC_ROUNDTRIP
360
BA8
  0
DICTIONARY
  5
B8B
330
A27
100
AcDbDictionary
280
     1
281
     1
  3
ACAD_XREC_ROUNDTRIP
360
B8C
  0
DICTIONARY
  5
B8D
330
A28
100
AcDbDictionary
280
     1
281
     1
  3
ACAD_XREC_ROUNDTRIP
360
B8E
  0
DICTIONARY
  5
B8F
330
A29
100
AcDbDictionary
280
     1
281
     1
  3
ACAD_XREC_ROUNDTRIP
360
B90
  0
DICTIONARY
  5
B91
330
A2A
100
AcDbDictionary
280
     1
281
     1
  3
ACAD_XREC_ROUNDTRIP
360
B92
  0
DICTIONARY
  5
B99
330
A2E
100
AcDbDictionary
280
     1
281
     1
  3
ACAD_XREC_ROUNDTRIP
360
B9A
  0
DICTIONARY
  5
BB5
330
A3C
100
AcDbDictionary
280
     1
281
     1
  3
ACAD_XREC_ROUNDTRIP
360
BB6
  0
DICTIONARY
  5
BA5
330
A34
100
AcDbDictionary
280
     1
281
     1
  3
ACAD_XREC_ROUNDTRIP
360
BA6
  0
DICTIONARY
  5
BB7
330
A3D
100
AcDbDictionary
280
     1
281
     1
  3
ACAD_XREC_ROUNDTRIP
360
BB8
  0
DICTIONARY
  5
B9D
330
A30
100
AcDbDictionary
280
     1
281
     1
  3
ACAD_XREC_ROUNDTRIP
360
B9E
  0
DICTIONARY
  5
BB3
330
A3B
100
AcDbDictionary
280
     1
281
     1
  3
ACAD_XREC_ROUNDTRIP
360
BB4
  0
DICTIONARY
  5
BB1
330
A3A
100
AcDbDictionary
280
     1
281
     1
  3
ACAD_XREC_ROUNDTRIP
360
BB2
  0
DICTIONARY
  5
BAB
330
A37
100
AcDbDictionary
280
     1
281
     1
  3
ACAD_XREC_ROUNDTRIP
360
BAC
  0
DICTIONARY
  5
BAD
330
A38
100
AcDbDictionary
280
     1
281
     1
  3
ACAD_XREC_ROUNDTRIP
360
BAE
  0
DICTIONARY
  5
BA3
330
A33
100
AcDbDictionary
280
     1
281
     1
  3
ACAD_XREC_ROUNDTRIP
360
BA4
  0
DICTIONARY
  5
B97
330
A2D
100
AcDbDictionary
280
     1
281
     1
  3
ACAD_XREC_ROUNDTRIP
360
B98
  0
DICTIONARY
  5
BAF
330
A39
100
AcDbDictionary
280
     1
281
     1
  3
ACAD_XREC_ROUNDTRIP
360
BB0
  0
XRECORD
  5
BBE
102
{ACAD_REACTORS
330
BBD
102
}
330
BBD
100
AcDbXrecord
280
     1
102
SHADEPLOT
 70
     0
102
SHADEPLOTRESLEVEL
 70
     2
102
SHADEPLOTCUSTOMDPI
 70
   300
  0
XRECORD
  5
BC0
102
{ACAD_REACTORS
330
BBF
102
}
330
BBF
100
AcDbXrecord
280
     1
102
SHADEPLOT
 70
     0
102
SHADEPLOTRESLEVEL
 70
     2
102
SHADEPLOTCUSTOMDPI
 70
   300
  0
XRECORD
  5
B89
102
{ACAD_REACTORS
330
A17
102
}
330
A17
100
AcDbXrecord
280
     1
102
MATERIAL
148
0.0
149
0.0
149
0.0
 93
        0
 94
      127
282
     0
 72
     0
 77
     0
171
     0
175
     0
179
     0
273
     0
  0
XRECORD
  5
A19
102
{ACAD_REACTORS
330
A17
102
}
330
A17
100
AcDbXrecord
280
     1
270
     1
271
     1
  0
XRECORD
  5
A18
102
{ACAD_REACTORS
330
A17
102
}
330
A17
100
AcDbXrecord
280
     1
270
     1
271
     1
  0
XRECORD
  5
A1C
102
{ACAD_REACTORS
330
A17
102
}
330
A17
100
AcDbXrecord
280
     1
270
     1
271
     1
  0
XRECORD
  5
A1B
102
{ACAD_REACTORS
330
A17
102
}
330
A17
100
AcDbXrecord
280
     1
270
     1
271
     1
  0
XRECORD
  5
A1D
102
{ACAD_REACTORS
330
A17
102
}
330
A17
100
AcDbXrecord
280
     1
270
     1
271
     1
  0
XRECORD
  5
A1A
102
{ACAD_REACTORS
330
A17
102
}
330
A17
100
AcDbXrecord
280
     1
270
     1
271
     1
  0
XRECORD
  5
B88
102
{ACAD_REACTORS
330
A0F
102
}
330
A0F
100
AcDbXrecord
280
     1
102
MATERIAL
148
0.0
149
0.0
149
0.0
 93
        0
 94
      127
282
     0
 72
     0
 77
     0
171
     0
175
     0
179
     0
273
     0
  0
XRECORD
  5
A11
102
{ACAD_REACTORS
330
A0F
102
}
330
A0F
100
AcDbXrecord
280
     1
270
     1
271
     1
  0
XRECORD
  5
A10
102
{ACAD_REACTORS
330
A0F
102
}
330
A0F
100
AcDbXrecord
280
     1
270
     1
271
     1
  0
XRECORD
  5
A14
102
{ACAD_REACTORS
330
A0F
102
}
330
A0F
100
AcDbXrecord
280
     1
270
     1
271
     1
  0
XRECORD
  5
A13
102
{ACAD_REACTORS
330
A0F
102
}
330
A0F
100
AcDbXrecord
280
     1
270
     1
271
     1
  0
XRECORD
  5
A15
102
{ACAD_REACTORS
330
A0F
102
}
330
A0F
100
AcDbXrecord
280
     1
270
     1
271
     1
  0
XRECORD
  5
A12
102
{ACAD_REACTORS
330
A0F
102
}
330
A0F
100
AcDbXrecord
280
     1
270
     1
271
     1
  0
XRECORD
  5
B8A
102
{ACAD_REACTORS
330
A1F
102
}
330
A1F
100
AcDbXrecord
280
     1
102
MATERIAL
148
0.0
149
0.0
149
0.0
 93
        0
 94
      127
282
     0
 72
     0
 77
     0
171
     0
175
     0
179
     0
273
     0
  0
XRECORD
  5
A21
102
{ACAD_REACTORS
330
A1F
102
}
330
A1F
100
AcDbXrecord
280
     1
270
     1
271
     1
  0
XRECORD
  5
A20
102
{ACAD_REACTORS
330
A1F
102
}
330
A1F
100
AcDbXrecord
280
     1
270
     1
271
     1
  0
XRECORD
  5
A24
102
{ACAD_REACTORS
330
A1F
102
}
330
A1F
100
AcDbXrecord
280
     1
270
     1
271
     1
  0
XRECORD
  5
A23
102
{ACAD_REACTORS
330
A1F
102
}
330
A1F
100
AcDbXrecord
280
     1
270
     1
271
     1
  0
XRECORD
  5
A25
102
{ACAD_REACTORS
330
A1F
102
}
330
A1F
100
AcDbXrecord
280
     1
270
     1
271
     1
  0
XRECORD
  5
A22
102
{ACAD_REACTORS
330
A1F
102
}
330
A1F
100
AcDbXrecord
280
     1
270
     1
271
     1
  0
CELLSTYLEMAP
  5
B85
102
{ACAD_REACTORS
330
B84
102
}
330
B84
100
AcDbCellStyleMap
 90
        3
300
CELLSTYLE
  1
TABLEFORMAT_BEGIN
 90
        5
170
     1
 91
        0
 92
    32768
 62
   257
 93
        1
300
CONTENTFORMAT
  1
CONTENTFORMAT_BEGIN
 90
        0
 91
        0
 92
      512
 93
        0
300

 40
0.0
140
1.0
 94
        5
 62
     0
340
A52
144
0.25
309
CONTENTFORMAT_END
171
     0
 94
        0
309
TABLEFORMAT_END
  1
CELLSTYLE_BEGIN
 90
        1
 91
        1
300
_TITLE
309
CELLSTYLE_END
300
CELLSTYLE
  1
TABLEFORMAT_BEGIN
 90
        5
170
     1
 91
        0
 92
        0
 62
   257
 93
        1
300
CONTENTFORMAT
  1
CONTENTFORMAT_BEGIN
 90
        0
 91
        0
 92
      512
 93
        0
300

 40
0.0
140
1.0
 94
        5
 62
     0
340
A52
144
0.18
309
CONTENTFORMAT_END
171
     0
 94
        0
309
TABLEFORMAT_END
  1
CELLSTYLE_BEGIN
 90
        2
 91
        1
300
_HEADER
309
CELLSTYLE_END
300
CELLSTYLE
  1
TABLEFORMAT_BEGIN
 90
        5
170
     1
 91
        0
 92
        0
 62
   257
 93
        1
300
CONTENTFORMAT
  1
CONTENTFORMAT_BEGIN
 90
        0
 91
        0
 92
      512
 93
        0
300

 40
0.0
140
1.0
 94
        2
 62
     0
340
A52
144
0.18
309
CONTENTFORMAT_END
171
     0
 94
        0
309
TABLEFORMAT_END
  1
CELLSTYLE_BEGIN
 90
        3
 91
        2
300
_DATA
309
CELLSTYLE_END
  0
XRECORD
  5
BBB
102
{ACAD_REACTORS
330
B84
102
}
330
B84
100
AcDbXrecord
280
     1
102
ACAD_ROUNDTRIP_PRE2007_TABLESTYLE
 90
      512
 91
        0
  1

 92
      512
 93
        0
  2

 94
      512
 95
        0
  3

  0
XRECORD
  5
B96
102
{ACAD_REACTORS
330
B95
102
}
330
B95
100
AcDbXrecord
280
     1
102
RTVSPost2010Prop28
280
     1
102
RTVSPost2010PropOp28
 70
     1
102
RTVSPost2010Prop29
280
     1
102
RTVSPost2010PropOp29
 70
     1
102
RTVSPost2010Prop30
280
     0
102
RTVSPost2010PropOp30
 70
     1
102
RTVSPost2010Prop31
280
     0
102
RTVSPost2010PropOp31
 70
     1
102
RTVSPost2010Prop32
280
     0
102
RTVSPost2010PropOp32
 70
     1
102
RTVSPost2010Prop33
280
     0
102
RTVSPost2010PropOp33
 70
     1
102
RTVSPost2010Prop34
280
     0
102
RTVSPost2010PropOp34
 70
     1
102
RTVSPost2010Prop35
280
     0
102
RTVSPost2010PropOp35
 70
     1
102
RTVSPost2010Prop36
280
     0
102
RTVSPost2010PropOp36
 70
     1
102
RTVSPost2010Prop37
 90
       50
102
RTVSPost2010PropOp37
 70
     1
102
RTVSPost2010Prop38
140
0.0
102
RTVSPost2010PropOp38
 70
     1
102
RTVSPost2010Prop39
140
1.0
102
RTVSPost2010PropOp39
 70
     1
102
RTVSPost2010Prop40
 90
        0
102
RTVSPost2010PropOp40
 70
     1
102
RTVSPost2010Prop41ColorIndex
 90
       18
102
RTVSPost2010Prop41ColorRGB
 90
        0
102
RTVSPost2010PropOp41
 70
     1
102
RTVSPost2010Prop42
 90
       50
102
RTVSPost2010PropOp42
 70
     1
102
RTVSPost2010Prop43
 90
        3
102
RTVSPost2010PropOp43
 70
     1
102
RTVSPost2010Prop44ColorIndex
 90
        5
102
RTVSPost2010Prop44ColorRGB
 90
      255
102
RTVSPost2010PropOp44
 70
     1
102
RTVSPost2010Prop45
280
     0
102
RTVSPost2010PropOp45
 70
     1
102
RTVSPost2010Prop46
 90
       50
102
RTVSPost2010PropOp46
 70
     1
102
RTVSPost2010Prop47
 90
       50
102
RTVSPost2010PropOp47
 70
     1
102
RTVSPost2010Prop48
 90
       50
102
RTVSPost2010PropOp48
 70
     1
102
RTVSPost2010Prop49
280
     0
102
RTVSPost2010PropOp49
 70
     1
102
RTVSPost2010Prop50
 90
       50
102
RTVSPost2010PropOp50
 70
     1
102
RTVSPost2010Prop51ColorIndex
 90
      256
102
RTVSPost2010Prop51ColorRGB
 90
-16777216
102
RTVSPost2010PropOp51
 70
     0
102
RTVSPost2010Prop52
140
1.0
102
RTVSPost2010PropOp52
 70
     0
102
RTVSPost2010Prop53
 90
        2
102
RTVSPost2010PropOp53
 70
     1
102
RTVSPost2010Prop54
  1
strokes_ogs.tif
102
RTVSPost2010PropOp54
 70
     1
102
RTVSPost2010Prop55
280
     0
102
RTVSPost2010PropOp55
 70
     1
102
RTVSPost2010Prop56
140
1.0
102
RTVSPost2010PropOp56
 70
     1
102
RTVSPost2010Prop57
140
1.0
102
RTVSPost2010PropOp57
 70
     1
102
RTVSPropertyOp0
 70
     1
102
RTVSPropertyOp1
 70
     1
102
RTVSPropertyOp2
 70
     1
102
RTVSPropertyOp3
 70
     1
102
RTVSPropertyOp4
 70
     1
102
RTVSPropertyOp5
 70
     1
102
RTVSPropertyOp6
 70
     1
102
RTVSPropertyOp7
 70
     1
102
RTVSPropertyOp8
 70
     1
102
RTVSPropertyOp9
 70
     1
102
RTVSPropertyOp10
 70
     1
102
RTVSPropertyOp11
 70
     1
102
RTVSPropertyOp12
 70
     1
102
RTVSPropertyOp13
 70
     1
102
RTVSPropertyOp14
 70
     1
102
RTVSPropertyOp15
 70
     1
102
RTVSPropertyOp16
 70
     1
102
RTVSPropertyOp17
 70
     1
102
RTVSPropertyOp18
 70
     1
102
RTVSPropertyOp19
 70
     1
102
RTVSPropertyOp20
 70
     1
102
RTVSPropertyOp21
 70
     1
102
RTVSPropertyOp22
 70
     1
102
RTVSPropertyOp23
 70
     1
102
RTVSPropertyOp24
 70
     1
102
RTVSPropertyOp25
 70
     1
102
RTVSPropertyOp26
 70
     1
102
RTVSPropertyOp27
 70
     1
102
RTVSPropertyOp28
 70
     1
102
RTVSPropertyOp29
 70
     1
102
RTVSPropertyOp30
 70
     1
102
RTVSPropertyOp31
 70
     1
102
RTVSPropertyOp32
 70
     1
102
RTVSPropertyOp33
 70
     1
102
RTVSPropertyOp34
 70
     1
102
RTVSPropertyOp35
 70
     1
102
RTVSPropertyOp36
 70
     1
102
RTVSPropertyOp37
 70
     1
102
RTVSPropertyOp38
 70
     1
102
RTVSPropertyOp39
 70
     1
102
RTVSPropertyOp40
 70
     1
102
RTVSPropertyOp41
 70
     1
102
RTVSPropertyOp42
 70
     1
102
RTVSPropertyOp43
 70
     1
102
RTVSPropertyOp44
 70
     1
102
RTVSPropertyOp45
 70
     1
102
RTVSPropertyOp46
 70
     1
102
RTVSPropertyOp47
 70
     1
102
RTVSPropertyOp48
 70
     1
102
RTVSPropertyOp49
 70
     1
102
RTVSPropertyOp50
 70
     1
102
RTVSPropertyOp51
 70
     0
102
RTVSPropertyOp52
 70
     0
102
RTVSPropertyOp53
 70
     1
102
RTVSPropertyOp54
 70
     1
102
RTVSPropertyOp55
 70
     1
102
RTVSPropertyOp56
 70
     1
102
RTVSPropertyOp57
 70
     1
102
RTVSPropertyOp58
 70
     1
102
RTVSPropertyOp59
 70
     1
102
RTVSPropertyOp60
 70
     1
102
RTVSPropertyOp61
 70
     1
102
RTVSPropertyOp62
 70
     1
  0
XRECORD
  5
B94
102
{ACAD_REACTORS
330
B93
102
}
330
B93
100
AcDbXrecord
280
     1
102
RTVSPost2010Prop28
280
     0
102
RTVSPost2010PropOp28
 70
     1
102
RTVSPost2010Prop29
280
     1
102
RTVSPost2010PropOp29
 70
     1
102
RTVSPost2010Prop30
280
     1
102
RTVSPost2010PropOp30
 70
     1
102
RTVSPost2010Prop31
280
     0
102
RTVSPost2010PropOp31
 70
     1
102
RTVSPost2010Prop32
280
     0
102
RTVSPost2010PropOp32
 70
     1
102
RTVSPost2010Prop33
280
     0
102
RTVSPost2010PropOp33
 70
     1
102
RTVSPost2010Prop34
280
     0
102
RTVSPost2010PropOp34
 70
     1
102
RTVSPost2010Prop35
280
     0
102
RTVSPost2010PropOp35
 70
     1
102
RTVSPost2010Prop36
280
     0
102
RTVSPost2010PropOp36
 70
     1
102
RTVSPost2010Prop37
 90
       50
102
RTVSPost2010PropOp37
 70
     1
102
RTVSPost2010Prop38
140
0.0
102
RTVSPost2010PropOp38
 70
     1
102
RTVSPost2010Prop39
140
1.0
102
RTVSPost2010PropOp39
 70
     1
102
RTVSPost2010Prop40
 90
        0
102
RTVSPost2010PropOp40
 70
     1
102
RTVSPost2010Prop41ColorIndex
 90
       18
102
RTVSPost2010Prop41ColorRGB
 90
        0
102
RTVSPost2010PropOp41
 70
     1
102
RTVSPost2010Prop42
 90
       50
102
RTVSPost2010PropOp42
 70
     1
102
RTVSPost2010Prop43
 90
        3
102
RTVSPost2010PropOp43
 70
     1
102
RTVSPost2010Prop44ColorIndex
 90
        5
102
RTVSPost2010Prop44ColorRGB
 90
      255
102
RTVSPost2010PropOp44
 70
     1
102
RTVSPost2010Prop45
280
     0
102
RTVSPost2010PropOp45
 70
     1
102
RTVSPost2010Prop46
 90
       50
102
RTVSPost2010PropOp46
 70
     1
102
RTVSPost2010Prop47
 90
       50
102
RTVSPost2010PropOp47
 70
     1
102
RTVSPost2010Prop48
 90
       50
102
RTVSPost2010PropOp48
 70
     1
102
RTVSPost2010Prop49
280
     0
102
RTVSPost2010PropOp49
 70
     1
102
RTVSPost2010Prop50
 90
       50
102
RTVSPost2010PropOp50
 70
     1
102
RTVSPost2010Prop51ColorIndex
 90
      256
102
RTVSPost2010Prop51ColorRGB
 90
-16777216
102
RTVSPost2010PropOp51
 70
     0
102
RTVSPost2010Prop52
140
1.0
102
RTVSPost2010PropOp52
 70
     0
102
RTVSPost2010Prop53
 90
        2
102
RTVSPost2010PropOp53
 70
     1
102
RTVSPost2010Prop54
  1
strokes_ogs.tif
102
RTVSPost2010PropOp54
 70
     1
102
RTVSPost2010Prop55
280
     0
102
RTVSPost2010PropOp55
 70
     1
102
RTVSPost2010Prop56
140
1.0
102
RTVSPost2010PropOp56
 70
     1
102
RTVSPost2010Prop57
140
1.0
102
RTVSPost2010PropOp57
 70
     1
102
RTVSPropertyOp0
 70
     1
102
RTVSPropertyOp1
 70
     1
102
RTVSPropertyOp2
 70
     1
102
RTVSPropertyOp3
 70
     1
102
RTVSPropertyOp4
 70
     1
102
RTVSPropertyOp5
 70
     1
102
RTVSPropertyOp6
 70
     1
102
RTVSPropertyOp7
 70
     1
102
RTVSPropertyOp8
 70
     1
102
RTVSPropertyOp9
 70
     1
102
RTVSPropertyOp10
 70
     1
102
RTVSPropertyOp11
 70
     1
102
RTVSPropertyOp12
 70
     1
102
RTVSPropertyOp13
 70
     1
102
RTVSPropertyOp14
 70
     1
102
RTVSPropertyOp15
 70
     1
102
RTVSPropertyOp16
 70
     1
102
RTVSPropertyOp17
 70
     1
102
RTVSPropertyOp18
 70
     1
102
RTVSPropertyOp19
 70
     1
102
RTVSPropertyOp20
 70
     1
102
RTVSPropertyOp21
 70
     1
102
RTVSPropertyOp22
 70
     1
102
RTVSPropertyOp23
 70
     1
102
RTVSPropertyOp24
 70
     1
102
RTVSPropertyOp25
 70
     1
102
RTVSPropertyOp26
 70
     1
102
RTVSPropertyOp27
 70
     1
102
RTVSPropertyOp28
 70
     1
102
RTVSPropertyOp29
 70
     1
102
RTVSPropertyOp30
 70
     1
102
RTVSPropertyOp31
 70
     1
102
RTVSPropertyOp32
 70
     1
102
RTVSPropertyOp33
 70
     1
102
RTVSPropertyOp34
 70
     1
102
RTVSPropertyOp35
 70
     1
102
RTVSPropertyOp36
 70
     1
102
RTVSPropertyOp37
 70
     1
102
RTVSPropertyOp38
 70
     1
102
RTVSPropertyOp39
 70
     1
102
RTVSPropertyOp40
 70
     1
102
RTVSPropertyOp41
 70
     1
102
RTVSPropertyOp42
 70
     1
102
RTVSPropertyOp43
 70
     1
102
RTVSPropertyOp44
 70
     1
102
RTVSPropertyOp45
 70
     1
102
RTVSPropertyOp46
 70
     1
102
RTVSPropertyOp47
 70
     1
102
RTVSPropertyOp48
 70
     1
102
RTVSPropertyOp49
 70
     1
102
RTVSPropertyOp50
 70
     1
102
RTVSPropertyOp51
 70
     0
102
RTVSPropertyOp52
 70
     0
102
RTVSPropertyOp53
 70
     1
102
RTVSPropertyOp54
 70
     1
102
RTVSPropertyOp55
 70
     1
102
RTVSPropertyOp56
 70
     1
102
RTVSPropertyOp57
 70
     1
102
RTVSPropertyOp58
 70
     1
102
RTVSPropertyOp59
 70
     1
102
RTVSPropertyOp60
 70
     1
102
RTVSPropertyOp61
 70
     1
102
RTVSPropertyOp62
 70
     1
  0
XRECORD
  5
BA2
102
{ACAD_REACTORS
330
BA1
102
}
330
BA1
100
AcDbXrecord
280
     1
102
RTVSPost2010Prop28
280
     0
102
RTVSPost2010PropOp28
 70
     1
102
RTVSPost2010Prop29
280
     1
102
RTVSPost2010PropOp29
 70
     1
102
RTVSPost2010Prop30
280
     1
102
RTVSPost2010PropOp30
 70
     1
102
RTVSPost2010Prop31
280
     0
102
RTVSPost2010PropOp31
 70
     1
102
RTVSPost2010Prop32
280
     0
102
RTVSPost2010PropOp32
 70
     1
102
RTVSPost2010Prop33
280
     0
102
RTVSPost2010PropOp33
 70
     1
102
RTVSPost2010Prop34
280
     0
102
RTVSPost2010PropOp34
 70
     1
102
RTVSPost2010Prop35
280
     0
102
RTVSPost2010PropOp35
 70
     1
102
RTVSPost2010Prop36
280
     0
102
RTVSPost2010PropOp36
 70
     1
102
RTVSPost2010Prop37
 90
       50
102
RTVSPost2010PropOp37
 70
     1
102
RTVSPost2010Prop38
140
0.0
102
RTVSPost2010PropOp38
 70
     1
102
RTVSPost2010Prop39
140
1.0
102
RTVSPost2010PropOp39
 70
     1
102
RTVSPost2010Prop40
 90
        0
102
RTVSPost2010PropOp40
 70
     1
102
RTVSPost2010Prop41ColorIndex
 90
       18
102
RTVSPost2010Prop41ColorRGB
 90
        0
102
RTVSPost2010PropOp41
 70
     1
102
RTVSPost2010Prop42
 90
       50
102
RTVSPost2010PropOp42
 70
     1
102
RTVSPost2010Prop43
 90
        3
102
RTVSPost2010PropOp43
 70
     1
102
RTVSPost2010Prop44ColorIndex
 90
        5
102
RTVSPost2010Prop44ColorRGB
 90
      255
102
RTVSPost2010PropOp44
 70
     1
102
RTVSPost2010Prop45
280
     0
102
RTVSPost2010PropOp45
 70
     1
102
RTVSPost2010Prop46
 90
       50
102
RTVSPost2010PropOp46
 70
     1
102
RTVSPost2010Prop47
 90
       50
102
RTVSPost2010PropOp47
 70
     1
102
RTVSPost2010Prop48
 90
       50
102
RTVSPost2010PropOp48
 70
     1
102
RTVSPost2010Prop49
280
     0
102
RTVSPost2010PropOp49
 70
     1
102
RTVSPost2010Prop50
 90
       50
102
RTVSPost2010PropOp50
 70
     1
102
RTVSPost2010Prop51ColorIndex
 90
      256
102
RTVSPost2010Prop51ColorRGB
 90
-16777216
102
RTVSPost2010PropOp51
 70
     0
102
RTVSPost2010Prop52
140
1.0
102
RTVSPost2010PropOp52
 70
     0
102
RTVSPost2010Prop53
 90
        2
102
RTVSPost2010PropOp53
 70
     1
102
RTVSPost2010Prop54
  1
strokes_ogs.tif
102
RTVSPost2010PropOp54
 70
     1
102
RTVSPost2010Prop55
280
     0
102
RTVSPost2010PropOp55
 70
     1
102
RTVSPost2010Prop56
140
1.0
102
RTVSPost2010PropOp56
 70
     1
102
RTVSPost2010Prop57
140
1.0
102
RTVSPost2010PropOp57
 70
     1
102
RTVSPropertyOp0
 70
     1
102
RTVSPropertyOp1
 70
     1
102
RTVSPropertyOp2
 70
     1
102
RTVSPropertyOp3
 70
     1
102
RTVSPropertyOp4
 70
     1
102
RTVSPropertyOp5
 70
     1
102
RTVSPropertyOp6
 70
     1
102
RTVSPropertyOp7
 70
     1
102
RTVSPropertyOp8
 70
     1
102
RTVSPropertyOp9
 70
     1
102
RTVSPropertyOp10
 70
     1
102
RTVSPropertyOp11
 70
     1
102
RTVSPropertyOp12
 70
     1
102
RTVSPropertyOp13
 70
     1
102
RTVSPropertyOp14
 70
     1
102
RTVSPropertyOp15
 70
     1
102
RTVSPropertyOp16
 70
     1
102
RTVSPropertyOp17
 70
     1
102
RTVSPropertyOp18
 70
     1
102
RTVSPropertyOp19
 70
     1
102
RTVSPropertyOp20
 70
     1
102
RTVSPropertyOp21
 70
     1
102
RTVSPropertyOp22
 70
     1
102
RTVSPropertyOp23
 70
     1
102
RTVSPropertyOp24
 70
     1
102
RTVSPropertyOp25
 70
     1
102
RTVSPropertyOp26
 70
     1
102
RTVSPropertyOp27
 70
     1
102
RTVSPropertyOp28
 70
     1
102
RTVSPropertyOp29
 70
     1
102
RTVSPropertyOp30
 70
     1
102
RTVSPropertyOp31
 70
     1
102
RTVSPropertyOp32
 70
     1
102
RTVSPropertyOp33
 70
     1
102
RTVSPropertyOp34
 70
     1
102
RTVSPropertyOp35
 70
     1
102
RTVSPropertyOp36
 70
     1
102
RTVSPropertyOp37
 70
     1
102
RTVSPropertyOp38
 70
     1
102
RTVSPropertyOp39
 70
     1
102
RTVSPropertyOp40
 70
     1
102
RTVSPropertyOp41
 70
     1
102
RTVSPropertyOp42
 70
     1
102
RTVSPropertyOp43
 70
     1
102
RTVSPropertyOp44
 70
     1
102
RTVSPropertyOp45
 70
     1
102
RTVSPropertyOp46
 70
     1
102
RTVSPropertyOp47
 70
     1
102
RTVSPropertyOp48
 70
     1
102
RTVSPropertyOp49
 70
     1
102
RTVSPropertyOp50
 70
     1
102
RTVSPropertyOp51
 70
     0
102
RTVSPropertyOp52
 70
     0
102
RTVSPropertyOp53
 70
     1
102
RTVSPropertyOp54
 70
     1
102
RTVSPropertyOp55
 70
     1
102
RTVSPropertyOp56
 70
     1
102
RTVSPropertyOp57
 70
     1
102
RTVSPropertyOp58
 70
     1
102
RTVSPropertyOp59
 70
     1
102
RTVSPropertyOp60
 70
     1
102
RTVSPropertyOp61
 70
     1
102
RTVSPropertyOp62
 70
     1
  0
XRECORD
  5
BAA
102
{ACAD_REACTORS
330
BA9
102
}
330
BA9
100
AcDbXrecord
280
     1
102
RTVSPost2010Prop28
280
     0
102
RTVSPost2010PropOp28
 70
     1
102
RTVSPost2010Prop29
280
     1
102
RTVSPost2010PropOp29
 70
     1
102
RTVSPost2010Prop30
280
     1
102
RTVSPost2010PropOp30
 70
     1
102
RTVSPost2010Prop31
280
     0
102
RTVSPost2010PropOp31
 70
     1
102
RTVSPost2010Prop32
280
     0
102
RTVSPost2010PropOp32
 70
     1
102
RTVSPost2010Prop33
280
     0
102
RTVSPost2010PropOp33
 70
     1
102
RTVSPost2010Prop34
280
     0
102
RTVSPost2010PropOp34
 70
     1
102
RTVSPost2010Prop35
280
     0
102
RTVSPost2010PropOp35
 70
     1
102
RTVSPost2010Prop36
280
     0
102
RTVSPost2010PropOp36
 70
     1
102
RTVSPost2010Prop37
 90
       50
102
RTVSPost2010PropOp37
 70
     1
102
RTVSPost2010Prop38
140
0.0
102
RTVSPost2010PropOp38
 70
     1
102
RTVSPost2010Prop39
140
1.0
102
RTVSPost2010PropOp39
 70
     1
102
RTVSPost2010Prop40
 90
        0
102
RTVSPost2010PropOp40
 70
     1
102
RTVSPost2010Prop41ColorIndex
 90
       18
102
RTVSPost2010Prop41ColorRGB
 90
        0
102
RTVSPost2010PropOp41
 70
     1
102
RTVSPost2010Prop42
 90
       50
102
RTVSPost2010PropOp42
 70
     1
102
RTVSPost2010Prop43
 90
        3
102
RTVSPost2010PropOp43
 70
     1
102
RTVSPost2010Prop44ColorIndex
 90
        5
102
RTVSPost2010Prop44ColorRGB
 90
      255
102
RTVSPost2010PropOp44
 70
     1
102
RTVSPost2010Prop45
280
     0
102
RTVSPost2010PropOp45
 70
     1
102
RTVSPost2010Prop46
 90
       50
102
RTVSPost2010PropOp46
 70
     1
102
RTVSPost2010Prop47
 90
       50
102
RTVSPost2010PropOp47
 70
     1
102
RTVSPost2010Prop48
 90
       50
102
RTVSPost2010PropOp48
 70
     1
102
RTVSPost2010Prop49
280
     0
102
RTVSPost2010PropOp49
 70
     1
102
RTVSPost2010Prop50
 90
       50
102
RTVSPost2010PropOp50
 70
     1
102
RTVSPost2010Prop51ColorIndex
 90
      256
102
RTVSPost2010Prop51ColorRGB
 90
-16777216
102
RTVSPost2010PropOp51
 70
     0
102
RTVSPost2010Prop52
140
1.0
102
RTVSPost2010PropOp52
 70
     0
102
RTVSPost2010Prop53
 90
        2
102
RTVSPost2010PropOp53
 70
     1
102
RTVSPost2010Prop54
  1
strokes_ogs.tif
102
RTVSPost2010PropOp54
 70
     1
102
RTVSPost2010Prop55
280
     0
102
RTVSPost2010PropOp55
 70
     1
102
RTVSPost2010Prop56
140
1.0
102
RTVSPost2010PropOp56
 70
     1
102
RTVSPost2010Prop57
140
1.0
102
RTVSPost2010PropOp57
 70
     1
102
RTVSPropertyOp0
 70
     1
102
RTVSPropertyOp1
 70
     1
102
RTVSPropertyOp2
 70
     1
102
RTVSPropertyOp3
 70
     1
102
RTVSPropertyOp4
 70
     1
102
RTVSPropertyOp5
 70
     1
102
RTVSPropertyOp6
 70
     1
102
RTVSPropertyOp7
 70
     1
102
RTVSPropertyOp8
 70
     1
102
RTVSPropertyOp9
 70
     1
102
RTVSPropertyOp10
 70
     1
102
RTVSPropertyOp11
 70
     1
102
RTVSPropertyOp12
 70
     1
102
RTVSPropertyOp13
 70
     1
102
RTVSPropertyOp14
 70
     1
102
RTVSPropertyOp15
 70
     1
102
RTVSPropertyOp16
 70
     1
102
RTVSPropertyOp17
 70
     1
102
RTVSPropertyOp18
 70
     1
102
RTVSPropertyOp19
 70
     1
102
RTVSPropertyOp20
 70
     1
102
RTVSPropertyOp21
 70
     1
102
RTVSPropertyOp22
 70
     1
102
RTVSPropertyOp23
 70
     1
102
RTVSPropertyOp24
 70
     1
102
RTVSPropertyOp25
 70
     1
102
RTVSPropertyOp26
 70
     1
102
RTVSPropertyOp27
 70
     1
102
RTVSPropertyOp28
 70
     1
102
RTVSPropertyOp29
 70
     1
102
RTVSPropertyOp30
 70
     1
102
RTVSPropertyOp31
 70
     1
102
RTVSPropertyOp32
 70
     1
102
RTVSPropertyOp33
 70
     1
102
RTVSPropertyOp34
 70
     1
102
RTVSPropertyOp35
 70
     1
102
RTVSPropertyOp36
 70
     1
102
RTVSPropertyOp37
 70
     1
102
RTVSPropertyOp38
 70
     1
102
RTVSPropertyOp39
 70
     1
102
RTVSPropertyOp40
 70
     1
102
RTVSPropertyOp41
 70
     1
102
RTVSPropertyOp42
 70
     1
102
RTVSPropertyOp43
 70
     1
102
RTVSPropertyOp44
 70
     1
102
RTVSPropertyOp45
 70
     1
102
RTVSPropertyOp46
 70
     1
102
RTVSPropertyOp47
 70
     1
102
RTVSPropertyOp48
 70
     1
102
RTVSPropertyOp49
 70
     1
102
RTVSPropertyOp50
 70
     1
102
RTVSPropertyOp51
 70
     0
102
RTVSPropertyOp52
 70
     0
102
RTVSPropertyOp53
 70
     1
102
RTVSPropertyOp54
 70
     1
102
RTVSPropertyOp55
 70
     1
102
RTVSPropertyOp56
 70
     1
102
RTVSPropertyOp57
 70
     1
102
RTVSPropertyOp58
 70
     1
102
RTVSPropertyOp59
 70
     1
102
RTVSPropertyOp60
 70
     1
102
RTVSPropertyOp61
 70
     1
102
RTVSPropertyOp62
 70
     1
  0
XRECORD
  5
B9C
102
{ACAD_REACTORS
330
B9B
102
}
330
B9B
100
AcDbXrecord
280
     1
102
RTVSPost2010Prop28
280
     0
102
RTVSPost2010PropOp28
 70
     1
102
RTVSPost2010Prop29
280
     1
102
RTVSPost2010PropOp29
 70
     1
102
RTVSPost2010Prop30
280
     1
102
RTVSPost2010PropOp30
 70
     1
102
RTVSPost2010Prop31
280
     0
102
RTVSPost2010PropOp31
 70
     1
102
RTVSPost2010Prop32
280
     0
102
RTVSPost2010PropOp32
 70
     1
102
RTVSPost2010Prop33
280
     0
102
RTVSPost2010PropOp33
 70
     1
102
RTVSPost2010Prop34
280
     0
102
RTVSPost2010PropOp34
 70
     1
102
RTVSPost2010Prop35
280
     0
102
RTVSPost2010PropOp35
 70
     1
102
RTVSPost2010Prop36
280
     0
102
RTVSPost2010PropOp36
 70
     1
102
RTVSPost2010Prop37
 90
       50
102
RTVSPost2010PropOp37
 70
     1
102
RTVSPost2010Prop38
140
0.0
102
RTVSPost2010PropOp38
 70
     1
102
RTVSPost2010Prop39
140
1.0
102
RTVSPost2010PropOp39
 70
     1
102
RTVSPost2010Prop40
 90
        0
102
RTVSPost2010PropOp40
 70
     1
102
RTVSPost2010Prop41ColorIndex
 90
       18
102
RTVSPost2010Prop41ColorRGB
 90
        0
102
RTVSPost2010PropOp41
 70
     1
102
RTVSPost2010Prop42
 90
       50
102
RTVSPost2010PropOp42
 70
     1
102
RTVSPost2010Prop43
 90
        3
102
RTVSPost2010PropOp43
 70
     1
102
RTVSPost2010Prop44ColorIndex
 90
        5
102
RTVSPost2010Prop44ColorRGB
 90
      255
102
RTVSPost2010PropOp44
 70
     1
102
RTVSPost2010Prop45
280
     0
102
RTVSPost2010PropOp45
 70
     1
102
RTVSPost2010Prop46
 90
       50
102
RTVSPost2010PropOp46
 70
     1
102
RTVSPost2010Prop47
 90
       50
102
RTVSPost2010PropOp47
 70
     1
102
RTVSPost2010Prop48
 90
       50
102
RTVSPost2010PropOp48
 70
     1
102
RTVSPost2010Prop49
280
     0
102
RTVSPost2010PropOp49
 70
     1
102
RTVSPost2010Prop50
 90
       50
102
RTVSPost2010PropOp50
 70
     1
102
RTVSPost2010Prop51ColorIndex
 90
      256
102
RTVSPost2010Prop51ColorRGB
 90
-16777216
102
RTVSPost2010PropOp51
 70
     0
102
RTVSPost2010Prop52
140
1.0
102
RTVSPost2010PropOp52
 70
     0
102
RTVSPost2010Prop53
 90
        2
102
RTVSPost2010PropOp53
 70
     1
102
RTVSPost2010Prop54
  1
strokes_ogs.tif
102
RTVSPost2010PropOp54
 70
     1
102
RTVSPost2010Prop55
280
     0
102
RTVSPost2010PropOp55
 70
     1
102
RTVSPost2010Prop56
140
1.0
102
RTVSPost2010PropOp56
 70
     1
102
RTVSPost2010Prop57
140
1.0
102
RTVSPost2010PropOp57
 70
     1
102
RTVSPropertyOp0
 70
     1
102
RTVSPropertyOp1
 70
     1
102
RTVSPropertyOp2
 70
     1
102
RTVSPropertyOp3
 70
     1
102
RTVSPropertyOp4
 70
     1
102
RTVSPropertyOp5
 70
     1
102
RTVSPropertyOp6
 70
     1
102
RTVSPropertyOp7
 70
     1
102
RTVSPropertyOp8
 70
     1
102
RTVSPropertyOp9
 70
     1
102
RTVSPropertyOp10
 70
     1
102
RTVSPropertyOp11
 70
     1
102
RTVSPropertyOp12
 70
     1
102
RTVSPropertyOp13
 70
     1
102
RTVSPropertyOp14
 70
     1
102
RTVSPropertyOp15
 70
     1
102
RTVSPropertyOp16
 70
     1
102
RTVSPropertyOp17
 70
     1
102
RTVSPropertyOp18
 70
     1
102
RTVSPropertyOp19
 70
     1
102
RTVSPropertyOp20
 70
     1
102
RTVSPropertyOp21
 70
     1
102
RTVSPropertyOp22
 70
     1
102
RTVSPropertyOp23
 70
     1
102
RTVSPropertyOp24
 70
     1
102
RTVSPropertyOp25
 70
     1
102
RTVSPropertyOp26
 70
     1
102
RTVSPropertyOp27
 70
     1
102
RTVSPropertyOp28
 70
     1
102
RTVSPropertyOp29
 70
     1
102
RTVSPropertyOp30
 70
     1
102
RTVSPropertyOp31
 70
     1
102
RTVSPropertyOp32
 70
     1
102
RTVSPropertyOp33
 70
     1
102
RTVSPropertyOp34
 70
     1
102
RTVSPropertyOp35
 70
     1
102
RTVSPropertyOp36
 70
     1
102
RTVSPropertyOp37
 70
     1
102
RTVSPropertyOp38
 70
     1
102
RTVSPropertyOp39
 70
     1
102
RTVSPropertyOp40
 70
     1
102
RTVSPropertyOp41
 70
     1
102
RTVSPropertyOp42
 70
     1
102
RTVSPropertyOp43
 70
     1
102
RTVSPropertyOp44
 70
     1
102
RTVSPropertyOp45
 70
     1
102
RTVSPropertyOp46
 70
     1
102
RTVSPropertyOp47
 70
     1
102
RTVSPropertyOp48
 70
     1
102
RTVSPropertyOp49
 70
     1
102
RTVSPropertyOp50
 70
     1
102
RTVSPropertyOp51
 70
     0
102
RTVSPropertyOp52
 70
     0
102
RTVSPropertyOp53
 70
     1
102
RTVSPropertyOp54
 70
     1
102
RTVSPropertyOp55
 70
     1
102
RTVSPropertyOp56
 70
     1
102
RTVSPropertyOp57
 70
     1
102
RTVSPropertyOp58
 70
     1
102
RTVSPropertyOp59
 70
     1
102
RTVSPropertyOp60
 70
     1
102
RTVSPropertyOp61
 70
     1
102
RTVSPropertyOp62
 70
     1
  0
XRECORD
  5
BA0
102
{ACAD_REACTORS
330
B9F
102
}
330
B9F
100
AcDbXrecord
280
     1
102
RTVSPost2010Prop28
280
     0
102
RTVSPost2010PropOp28
 70
     1
102
RTVSPost2010Prop29
280
     1
102
RTVSPost2010PropOp29
 70
     1
102
RTVSPost2010Prop30
280
     1
102
RTVSPost2010PropOp30
 70
     1
102
RTVSPost2010Prop31
280
     0
102
RTVSPost2010PropOp31
 70
     1
102
RTVSPost2010Prop32
280
     0
102
RTVSPost2010PropOp32
 70
     1
102
RTVSPost2010Prop33
280
     0
102
RTVSPost2010PropOp33
 70
     1
102
RTVSPost2010Prop34
280
     0
102
RTVSPost2010PropOp34
 70
     1
102
RTVSPost2010Prop35
280
     0
102
RTVSPost2010PropOp35
 70
     1
102
RTVSPost2010Prop36
280
     0
102
RTVSPost2010PropOp36
 70
     1
102
RTVSPost2010Prop37
 90
       50
102
RTVSPost2010PropOp37
 70
     1
102
RTVSPost2010Prop38
140
0.0
102
RTVSPost2010PropOp38
 70
     1
102
RTVSPost2010Prop39
140
1.0
102
RTVSPost2010PropOp39
 70
     1
102
RTVSPost2010Prop40
 90
        0
102
RTVSPost2010PropOp40
 70
     1
102
RTVSPost2010Prop41ColorIndex
 90
       18
102
RTVSPost2010Prop41ColorRGB
 90
        0
102
RTVSPost2010PropOp41
 70
     1
102
RTVSPost2010Prop42
 90
       50
102
RTVSPost2010PropOp42
 70
     1
102
RTVSPost2010Prop43
 90
        3
102
RTVSPost2010PropOp43
 70
     1
102
RTVSPost2010Prop44ColorIndex
 90
        5
102
RTVSPost2010Prop44ColorRGB
 90
      255
102
RTVSPost2010PropOp44
 70
     1
102
RTVSPost2010Prop45
280
     0
102
RTVSPost2010PropOp45
 70
     1
102
RTVSPost2010Prop46
 90
       50
102
RTVSPost2010PropOp46
 70
     1
102
RTVSPost2010Prop47
 90
       50
102
RTVSPost2010PropOp47
 70
     1
102
RTVSPost2010Prop48
 90
       50
102
RTVSPost2010PropOp48
 70
     1
102
RTVSPost2010Prop49
280
     0
102
RTVSPost2010PropOp49
 70
     1
102
RTVSPost2010Prop50
 90
       50
102
RTVSPost2010PropOp50
 70
     1
102
RTVSPost2010Prop51ColorIndex
 90
      256
102
RTVSPost2010Prop51ColorRGB
 90
-16777216
102
RTVSPost2010PropOp51
 70
     0
102
RTVSPost2010Prop52
140
1.0
102
RTVSPost2010PropOp52
 70
     0
102
RTVSPost2010Prop53
 90
        2
102
RTVSPost2010PropOp53
 70
     1
102
RTVSPost2010Prop54
  1
strokes_ogs.tif
102
RTVSPost2010PropOp54
 70
     1
102
RTVSPost2010Prop55
280
     0
102
RTVSPost2010PropOp55
 70
     1
102
RTVSPost2010Prop56
140
1.0
102
RTVSPost2010PropOp56
 70
     1
102
RTVSPost2010Prop57
140
1.0
102
RTVSPost2010PropOp57
 70
     1
102
RTVSPropertyOp0
 70
     1
102
RTVSPropertyOp1
 70
     1
102
RTVSPropertyOp2
 70
     1
102
RTVSPropertyOp3
 70
     1
102
RTVSPropertyOp4
 70
     1
102
RTVSPropertyOp5
 70
     1
102
RTVSPropertyOp6
 70
     1
102
RTVSPropertyOp7
 70
     1
102
RTVSPropertyOp8
 70
     1
102
RTVSPropertyOp9
 70
     1
102
RTVSPropertyOp10
 70
     1
102
RTVSPropertyOp11
 70
     1
102
RTVSPropertyOp12
 70
     1
102
RTVSPropertyOp13
 70
     1
102
RTVSPropertyOp14
 70
     1
102
RTVSPropertyOp15
 70
     1
102
RTVSPropertyOp16
 70
     1
102
RTVSPropertyOp17
 70
     1
102
RTVSPropertyOp18
 70
     1
102
RTVSPropertyOp19
 70
     1
102
RTVSPropertyOp20
 70
     1
102
RTVSPropertyOp21
 70
     1
102
RTVSPropertyOp22
 70
     1
102
RTVSPropertyOp23
 70
     1
102
RTVSPropertyOp24
 70
     1
102
RTVSPropertyOp25
 70
     1
102
RTVSPropertyOp26
 70
     1
102
RTVSPropertyOp27
 70
     1
102
RTVSPropertyOp28
 70
     1
102
RTVSPropertyOp29
 70
     1
102
RTVSPropertyOp30
 70
     1
102
RTVSPropertyOp31
 70
     1
102
RTVSPropertyOp32
 70
     1
102
RTVSPropertyOp33
 70
     1
102
RTVSPropertyOp34
 70
     1
102
RTVSPropertyOp35
 70
     1
102
RTVSPropertyOp36
 70
     1
102
RTVSPropertyOp37
 70
     1
102
RTVSPropertyOp38
 70
     1
102
RTVSPropertyOp39
 70
     1
102
RTVSPropertyOp40
 70
     1
102
RTVSPropertyOp41
 70
     1
102
RTVSPropertyOp42
 70
     1
102
RTVSPropertyOp43
 70
     1
102
RTVSPropertyOp44
 70
     1
102
RTVSPropertyOp45
 70
     1
102
RTVSPropertyOp46
 70
     1
102
RTVSPropertyOp47
 70
     1
102
RTVSPropertyOp48
 70
     1
102
RTVSPropertyOp49
 70
     1
102
RTVSPropertyOp50
 70
     1
102
RTVSPropertyOp51
 70
     0
102
RTVSPropertyOp52
 70
     0
102
RTVSPropertyOp53
 70
     1
102
RTVSPropertyOp54
 70
     1
102
RTVSPropertyOp55
 70
     1
102
RTVSPropertyOp56
 70
     1
102
RTVSPropertyOp57
 70
     1
102
RTVSPropertyOp58
 70
     1
102
RTVSPropertyOp59
 70
     1
102
RTVSPropertyOp60
 70
     1
102
RTVSPropertyOp61
 70
     1
102
RTVSPropertyOp62
 70
     1
  0
XRECORD
  5
BBA
102
{ACAD_REACTORS
330
BB9
102
}
330
BB9
100
AcDbXrecord
280
     1
102
RTVSPost2010Prop28
280
     0
102
RTVSPost2010PropOp28
 70
     1
102
RTVSPost2010Prop29
280
     1
102
RTVSPost2010PropOp29
 70
     1
102
RTVSPost2010Prop30
280
     1
102
RTVSPost2010PropOp30
 70
     1
102
RTVSPost2010Prop31
280
     0
102
RTVSPost2010PropOp31
 70
     1
102
RTVSPost2010Prop32
280
     0
102
RTVSPost2010PropOp32
 70
     1
102
RTVSPost2010Prop33
280
     0
102
RTVSPost2010PropOp33
 70
     1
102
RTVSPost2010Prop34
280
     0
102
RTVSPost2010PropOp34
 70
     1
102
RTVSPost2010Prop35
280
     0
102
RTVSPost2010PropOp35
 70
     1
102
RTVSPost2010Prop36
280
     0
102
RTVSPost2010PropOp36
 70
     1
102
RTVSPost2010Prop37
 90
       50
102
RTVSPost2010PropOp37
 70
     0
102
RTVSPost2010Prop38
140
0.0
102
RTVSPost2010PropOp38
 70
     0
102
RTVSPost2010Prop39
140
1.0
102
RTVSPost2010PropOp39
 70
     0
102
RTVSPost2010Prop40
 90
        0
102
RTVSPost2010PropOp40
 70
     0
102
RTVSPost2010Prop41ColorIndex
 90
       18
102
RTVSPost2010Prop41ColorRGB
 90
        0
102
RTVSPost2010PropOp41
 70
     0
102
RTVSPost2010Prop42
 90
       50
102
RTVSPost2010PropOp42
 70
     0
102
RTVSPost2010Prop43
 90
        3
102
RTVSPost2010PropOp43
 70
     0
102
RTVSPost2010Prop44ColorIndex
 90
        5
102
RTVSPost2010Prop44ColorRGB
 90
      255
102
RTVSPost2010PropOp44
 70
     0
102
RTVSPost2010Prop45
280
     0
102
RTVSPost2010PropOp45
 70
     1
102
RTVSPost2010Prop46
 90
       50
102
RTVSPost2010PropOp46
 70
     0
102
RTVSPost2010Prop47
 90
       50
102
RTVSPost2010PropOp47
 70
     0
102
RTVSPost2010Prop48
 90
       50
102
RTVSPost2010PropOp48
 70
     0
102
RTVSPost2010Prop49
280
     0
102
RTVSPost2010PropOp49
 70
     1
102
RTVSPost2010Prop50
 90
       50
102
RTVSPost2010PropOp50
 70
     0
102
RTVSPost2010Prop51ColorIndex
 90
      256
102
RTVSPost2010Prop51ColorRGB
 90
-16777216
102
RTVSPost2010PropOp51
 70
     0
102
RTVSPost2010Prop52
140
1.0
102
RTVSPost2010PropOp52
 70
     0
102
RTVSPost2010Prop53
 90
        2
102
RTVSPost2010PropOp53
 70
     0
102
RTVSPost2010Prop54
  1
strokes_ogs.tif
102
RTVSPost2010PropOp54
 70
     0
102
RTVSPost2010Prop55
280
     0
102
RTVSPost2010PropOp55
 70
     1
102
RTVSPost2010Prop56
140
1.0
102
RTVSPost2010PropOp56
 70
     0
102
RTVSPost2010Prop57
140
1.0
102
RTVSPost2010PropOp57
 70
     0
102
RTVSPropertyOp0
 70
     0
102
RTVSPropertyOp1
 70
     0
102
RTVSPropertyOp2
 70
     0
102
RTVSPropertyOp3
 70
     0
102
RTVSPropertyOp4
 70
     0
102
RTVSPropertyOp5
 70
     0
102
RTVSPropertyOp6
 70
     0
102
RTVSPropertyOp7
 70
     0
102
RTVSPropertyOp8
 70
     0
102
RTVSPropertyOp9
 70
     0
102
RTVSPropertyOp10
 70
     0
102
RTVSPropertyOp11
 70
     0
102
RTVSPropertyOp12
 70
     0
102
RTVSPropertyOp13
 70
     0
102
RTVSPropertyOp14
 70
     2
102
RTVSPropertyOp15
 70
     0
102
RTVSPropertyOp16
 70
     0
102
RTVSPropertyOp17
 70
     0
102
RTVSPropertyOp18
 70
     0
102
RTVSPropertyOp19
 70
     0
102
RTVSPropertyOp20
 70
     0
102
RTVSPropertyOp21
 70
     0
102
RTVSPropertyOp22
 70
     0
102
RTVSPropertyOp23
 70
     0
102
RTVSPropertyOp24
 70
     0
102
RTVSPropertyOp25
 70
     0
102
RTVSPropertyOp26
 70
     0
102
RTVSPropertyOp27
 70
     0
102
RTVSPropertyOp28
 70
     1
102
RTVSPropertyOp29
 70
     1
102
RTVSPropertyOp30
 70
     1
102
RTVSPropertyOp31
 70
     1
102
RTVSPropertyOp32
 70
     1
102
RTVSPropertyOp33
 70
     1
102
RTVSPropertyOp34
 70
     1
102
RTVSPropertyOp35
 70
     1
102
RTVSPropertyOp36
 70
     1
102
RTVSPropertyOp37
 70
     0
102
RTVSPropertyOp38
 70
     0
102
RTVSPropertyOp39
 70
     0
102
RTVSPropertyOp40
 70
     0
102
RTVSPropertyOp41
 70
     0
102
RTVSPropertyOp42
 70
     0
102
RTVSPropertyOp43
 70
     0
102
RTVSPropertyOp44
 70
     0
102
RTVSPropertyOp45
 70
     1
102
RTVSPropertyOp46
 70
     0
102
RTVSPropertyOp47
 70
     0
102
RTVSPropertyOp48
 70
     0
102
RTVSPropertyOp49
 70
     1
102
RTVSPropertyOp50
 70
     0
102
RTVSPropertyOp51
 70
     0
102
RTVSPropertyOp52
 70
     0
102
RTVSPropertyOp53
 70
     0
102
RTVSPropertyOp54
 70
     0
102
RTVSPropertyOp55
 70
     1
102
RTVSPropertyOp56
 70
     0
102
RTVSPropertyOp57
 70
     0
102
RTVSPropertyOp58
 70
     0
102
RTVSPropertyOp59
 70
     0
102
RTVSPropertyOp60
 70
     0
102
RTVSPropertyOp61
 70
     0
102
RTVSPropertyOp62
 70
     0
  0
XRECORD
  5
BA8
102
{ACAD_REACTORS
330
BA7
102
}
330
BA7
100
AcDbXrecord
280
     1
102
RTVSPost2010Prop28
280
     0
102
RTVSPost2010PropOp28
 70
     1
102
RTVSPost2010Prop29
280
     1
102
RTVSPost2010PropOp29
 70
     1
102
RTVSPost2010Prop30
280
     1
102
RTVSPost2010PropOp30
 70
     1
102
RTVSPost2010Prop31
280
     0
102
RTVSPost2010PropOp31
 70
     1
102
RTVSPost2010Prop32
280
     0
102
RTVSPost2010PropOp32
 70
     1
102
RTVSPost2010Prop33
280
     0
102
RTVSPost2010PropOp33
 70
     1
102
RTVSPost2010Prop34
280
     0
102
RTVSPost2010PropOp34
 70
     1
102
RTVSPost2010Prop35
280
     0
102
RTVSPost2010PropOp35
 70
     1
102
RTVSPost2010Prop36
280
     0
102
RTVSPost2010PropOp36
 70
     1
102
RTVSPost2010Prop37
 90
       50
102
RTVSPost2010PropOp37
 70
     1
102
RTVSPost2010Prop38
140
0.0
102
RTVSPost2010PropOp38
 70
     1
102
RTVSPost2010Prop39
140
1.0
102
RTVSPost2010PropOp39
 70
     1
102
RTVSPost2010Prop40
 90
        0
102
RTVSPost2010PropOp40
 70
     1
102
RTVSPost2010Prop41ColorIndex
 90
       18
102
RTVSPost2010Prop41ColorRGB
 90
        0
102
RTVSPost2010PropOp41
 70
     1
102
RTVSPost2010Prop42
 90
       50
102
RTVSPost2010PropOp42
 70
     1
102
RTVSPost2010Prop43
 90
        3
102
RTVSPost2010PropOp43
 70
     1
102
RTVSPost2010Prop44ColorIndex
 90
        5
102
RTVSPost2010Prop44ColorRGB
 90
      255
102
RTVSPost2010PropOp44
 70
     1
102
RTVSPost2010Prop45
280
     0
102
RTVSPost2010PropOp45
 70
     1
102
RTVSPost2010Prop46
 90
       50
102
RTVSPost2010PropOp46
 70
     1
102
RTVSPost2010Prop47
 90
       50
102
RTVSPost2010PropOp47
 70
     1
102
RTVSPost2010Prop48
 90
       50
102
RTVSPost2010PropOp48
 70
     1
102
RTVSPost2010Prop49
280
     0
102
RTVSPost2010PropOp49
 70
     1
102
RTVSPost2010Prop50
 90
       50
102
RTVSPost2010PropOp50
 70
     1
102
RTVSPost2010Prop51ColorIndex
 90
      256
102
RTVSPost2010Prop51ColorRGB
 90
-16777216
102
RTVSPost2010PropOp51
 70
     0
102
RTVSPost2010Prop52
140
1.0
102
RTVSPost2010PropOp52
 70
     0
102
RTVSPost2010Prop53
 90
        2
102
RTVSPost2010PropOp53
 70
     1
102
RTVSPost2010Prop54
  1
strokes_ogs.tif
102
RTVSPost2010PropOp54
 70
     1
102
RTVSPost2010Prop55
280
     0
102
RTVSPost2010PropOp55
 70
     1
102
RTVSPost2010Prop56
140
1.0
102
RTVSPost2010PropOp56
 70
     1
102
RTVSPost2010Prop57
140
1.0
102
RTVSPost2010PropOp57
 70
     1
102
RTVSPropertyOp0
 70
     1
102
RTVSPropertyOp1
 70
     1
102
RTVSPropertyOp2
 70
     1
102
RTVSPropertyOp3
 70
     1
102
RTVSPropertyOp4
 70
     1
102
RTVSPropertyOp5
 70
     1
102
RTVSPropertyOp6
 70
     1
102
RTVSPropertyOp7
 70
     1
102
RTVSPropertyOp8
 70
     1
102
RTVSPropertyOp9
 70
     1
102
RTVSPropertyOp10
 70
     1
102
RTVSPropertyOp11
 70
     1
102
RTVSPropertyOp12
 70
     1
102
RTVSPropertyOp13
 70
     1
102
RTVSPropertyOp14
 70
     1
102
RTVSPropertyOp15
 70
     1
102
RTVSPropertyOp16
 70
     1
102
RTVSPropertyOp17
 70
     1
102
RTVSPropertyOp18
 70
     1
102
RTVSPropertyOp19
 70
     1
102
RTVSPropertyOp20
 70
     1
102
RTVSPropertyOp21
 70
     1
102
RTVSPropertyOp22
 70
     1
102
RTVSPropertyOp23
 70
     1
102
RTVSPropertyOp24
 70
     1
102
RTVSPropertyOp25
 70
     1
102
RTVSPropertyOp26
 70
     1
102
RTVSPropertyOp27
 70
     1
102
RTVSPropertyOp28
 70
     1
102
RTVSPropertyOp29
 70
     1
102
RTVSPropertyOp30
 70
     1
102
RTVSPropertyOp31
 70
     1
102
RTVSPropertyOp32
 70
     1
102
RTVSPropertyOp33
 70
     1
102
RTVSPropertyOp34
 70
     1
102
RTVSPropertyOp35
 70
     1
102
RTVSPropertyOp36
 70
     1
102
RTVSPropertyOp37
 70
     1
102
RTVSPropertyOp38
 70
     1
102
RTVSPropertyOp39
 70
     1
102
RTVSPropertyOp40
 70
     1
102
RTVSPropertyOp41
 70
     1
102
RTVSPropertyOp42
 70
     1
102
RTVSPropertyOp43
 70
     1
102
RTVSPropertyOp44
 70
     1
102
RTVSPropertyOp45
 70
     1
102
RTVSPropertyOp46
 70
     1
102
RTVSPropertyOp47
 70
     1
102
RTVSPropertyOp48
 70
     1
102
RTVSPropertyOp49
 70
     1
102
RTVSPropertyOp50
 70
     1
102
RTVSPropertyOp51
 70
     0
102
RTVSPropertyOp52
 70
     0
102
RTVSPropertyOp53
 70
     1
102
RTVSPropertyOp54
 70
     1
102
RTVSPropertyOp55
 70
     1
102
RTVSPropertyOp56
 70
     1
102
RTVSPropertyOp57
 70
     1
102
RTVSPropertyOp58
 70
     1
102
RTVSPropertyOp59
 70
     1
102
RTVSPropertyOp60
 70
     1
102
RTVSPropertyOp61
 70
     1
102
RTVSPropertyOp62
 70
     1
  0
XRECORD
  5
B8C
102
{ACAD_REACTORS
330
B8B
102
}
330
B8B
100
AcDbXrecord
280
     1
102
RTVSPost2010Prop28
280
     0
102
RTVSPost2010PropOp28
 70
     1
102
RTVSPost2010Prop29
280
     1
102
RTVSPost2010PropOp29
 70
     1
102
RTVSPost2010Prop30
280
     1
102
RTVSPost2010PropOp30
 70
     1
102
RTVSPost2010Prop31
280
     0
102
RTVSPost2010PropOp31
 70
     1
102
RTVSPost2010Prop32
280
     0
102
RTVSPost2010PropOp32
 70
     1
102
RTVSPost2010Prop33
280
     0
102
RTVSPost2010PropOp33
 70
     1
102
RTVSPost2010Prop34
280
     0
102
RTVSPost2010PropOp34
 70
     1
102
RTVSPost2010Prop35
280
     0
102
RTVSPost2010PropOp35
 70
     1
102
RTVSPost2010Prop36
280
     0
102
RTVSPost2010PropOp36
 70
     1
102
RTVSPost2010Prop37
 90
       50
102
RTVSPost2010PropOp37
 70
     1
102
RTVSPost2010Prop38
140
0.0
102
RTVSPost2010PropOp38
 70
     1
102
RTVSPost2010Prop39
140
1.0
102
RTVSPost2010PropOp39
 70
     1
102
RTVSPost2010Prop40
 90
        0
102
RTVSPost2010PropOp40
 70
     1
102
RTVSPost2010Prop41ColorIndex
 90
       18
102
RTVSPost2010Prop41ColorRGB
 90
        0
102
RTVSPost2010PropOp41
 70
     1
102
RTVSPost2010Prop42
 90
       50
102
RTVSPost2010PropOp42
 70
     1
102
RTVSPost2010Prop43
 90
        3
102
RTVSPost2010PropOp43
 70
     1
102
RTVSPost2010Prop44ColorIndex
 90
        5
102
RTVSPost2010Prop44ColorRGB
 90
      255
102
RTVSPost2010PropOp44
 70
     1
102
RTVSPost2010Prop45
280
     0
102
RTVSPost2010PropOp45
 70
     1
102
RTVSPost2010Prop46
 90
       50
102
RTVSPost2010PropOp46
 70
     1
102
RTVSPost2010Prop47
 90
       50
102
RTVSPost2010PropOp47
 70
     1
102
RTVSPost2010Prop48
 90
       50
102
RTVSPost2010PropOp48
 70
     1
102
RTVSPost2010Prop49
280
     0
102
RTVSPost2010PropOp49
 70
     1
102
RTVSPost2010Prop50
 90
       50
102
RTVSPost2010PropOp50
 70
     1
102
RTVSPost2010Prop51ColorIndex
 90
      256
102
RTVSPost2010Prop51ColorRGB
 90
-16777216
102
RTVSPost2010PropOp51
 70
     0
102
RTVSPost2010Prop52
140
1.0
102
RTVSPost2010PropOp52
 70
     0
102
RTVSPost2010Prop53
 90
        2
102
RTVSPost2010PropOp53
 70
     1
102
RTVSPost2010Prop54
  1
strokes_ogs.tif
102
RTVSPost2010PropOp54
 70
     1
102
RTVSPost2010Prop55
280
     0
102
RTVSPost2010PropOp55
 70
     1
102
RTVSPost2010Prop56
140
1.0
102
RTVSPost2010PropOp56
 70
     1
102
RTVSPost2010Prop57
140
1.0
102
RTVSPost2010PropOp57
 70
     1
102
RTVSPropertyOp0
 70
     1
102
RTVSPropertyOp1
 70
     1
102
RTVSPropertyOp2
 70
     1
102
RTVSPropertyOp3
 70
     1
102
RTVSPropertyOp4
 70
     1
102
RTVSPropertyOp5
 70
     1
102
RTVSPropertyOp6
 70
     1
102
RTVSPropertyOp7
 70
     1
102
RTVSPropertyOp8
 70
     1
102
RTVSPropertyOp9
 70
     1
102
RTVSPropertyOp10
 70
     1
102
RTVSPropertyOp11
 70
     1
102
RTVSPropertyOp12
 70
     1
102
RTVSPropertyOp13
 70
     1
102
RTVSPropertyOp14
 70
     1
102
RTVSPropertyOp15
 70
     1
102
RTVSPropertyOp16
 70
     1
102
RTVSPropertyOp17
 70
     1
102
RTVSPropertyOp18
 70
     1
102
RTVSPropertyOp19
 70
     1
102
RTVSPropertyOp20
 70
     1
102
RTVSPropertyOp21
 70
     1
102
RTVSPropertyOp22
 70
     1
102
RTVSPropertyOp23
 70
     1
102
RTVSPropertyOp24
 70
     1
102
RTVSPropertyOp25
 70
     1
102
RTVSPropertyOp26
 70
     1
102
RTVSPropertyOp27
 70
     1
102
RTVSPropertyOp28
 70
     1
102
RTVSPropertyOp29
 70
     1
102
RTVSPropertyOp30
 70
     1
102
RTVSPropertyOp31
 70
     1
102
RTVSPropertyOp32
 70
     1
102
RTVSPropertyOp33
 70
     1
102
RTVSPropertyOp34
 70
     1
102
RTVSPropertyOp35
 70
     1
102
RTVSPropertyOp36
 70
     1
102
RTVSPropertyOp37
 70
     1
102
RTVSPropertyOp38
 70
     1
102
RTVSPropertyOp39
 70
     1
102
RTVSPropertyOp40
 70
     1
102
RTVSPropertyOp41
 70
     1
102
RTVSPropertyOp42
 70
     1
102
RTVSPropertyOp43
 70
     1
102
RTVSPropertyOp44
 70
     1
102
RTVSPropertyOp45
 70
     1
102
RTVSPropertyOp46
 70
     1
102
RTVSPropertyOp47
 70
     1
102
RTVSPropertyOp48
 70
     1
102
RTVSPropertyOp49
 70
     1
102
RTVSPropertyOp50
 70
     1
102
RTVSPropertyOp51
 70
     0
102
RTVSPropertyOp52
 70
     0
102
RTVSPropertyOp53
 70
     1
102
RTVSPropertyOp54
 70
     1
102
RTVSPropertyOp55
 70
     1
102
RTVSPropertyOp56
 70
     1
102
RTVSPropertyOp57
 70
     1
102
RTVSPropertyOp58
 70
     1
102
RTVSPropertyOp59
 70
     1
102
RTVSPropertyOp60
 70
     1
102
RTVSPropertyOp61
 70
     1
102
RTVSPropertyOp62
 70
     1
  0
XRECORD
  5
B8E
102
{ACAD_REACTORS
330
B8D
102
}
330
B8D
100
AcDbXrecord
280
     1
102
RTVSPost2010Prop28
280
     0
102
RTVSPost2010PropOp28
 70
     1
102
RTVSPost2010Prop29
280
     1
102
RTVSPost2010PropOp29
 70
     1
102
RTVSPost2010Prop30
280
     1
102
RTVSPost2010PropOp30
 70
     1
102
RTVSPost2010Prop31
280
     0
102
RTVSPost2010PropOp31
 70
     1
102
RTVSPost2010Prop32
280
     0
102
RTVSPost2010PropOp32
 70
     1
102
RTVSPost2010Prop33
280
     0
102
RTVSPost2010PropOp33
 70
     1
102
RTVSPost2010Prop34
280
     0
102
RTVSPost2010PropOp34
 70
     1
102
RTVSPost2010Prop35
280
     0
102
RTVSPost2010PropOp35
 70
     1
102
RTVSPost2010Prop36
280
     0
102
RTVSPost2010PropOp36
 70
     1
102
RTVSPost2010Prop37
 90
       50
102
RTVSPost2010PropOp37
 70
     1
102
RTVSPost2010Prop38
140
0.0
102
RTVSPost2010PropOp38
 70
     1
102
RTVSPost2010Prop39
140
1.0
102
RTVSPost2010PropOp39
 70
     1
102
RTVSPost2010Prop40
 90
        0
102
RTVSPost2010PropOp40
 70
     1
102
RTVSPost2010Prop41ColorIndex
 90
       18
102
RTVSPost2010Prop41ColorRGB
 90
        0
102
RTVSPost2010PropOp41
 70
     1
102
RTVSPost2010Prop42
 90
       50
102
RTVSPost2010PropOp42
 70
     1
102
RTVSPost2010Prop43
 90
        3
102
RTVSPost2010PropOp43
 70
     1
102
RTVSPost2010Prop44ColorIndex
 90
        5
102
RTVSPost2010Prop44ColorRGB
 90
      255
102
RTVSPost2010PropOp44
 70
     1
102
RTVSPost2010Prop45
280
     0
102
RTVSPost2010PropOp45
 70
     1
102
RTVSPost2010Prop46
 90
       50
102
RTVSPost2010PropOp46
 70
     1
102
RTVSPost2010Prop47
 90
       50
102
RTVSPost2010PropOp47
 70
     1
102
RTVSPost2010Prop48
 90
       50
102
RTVSPost2010PropOp48
 70
     1
102
RTVSPost2010Prop49
280
     0
102
RTVSPost2010PropOp49
 70
     1
102
RTVSPost2010Prop50
 90
       50
102
RTVSPost2010PropOp50
 70
     1
102
RTVSPost2010Prop51ColorIndex
 90
      256
102
RTVSPost2010Prop51ColorRGB
 90
-16777216
102
RTVSPost2010PropOp51
 70
     0
102
RTVSPost2010Prop52
140
1.0
102
RTVSPost2010PropOp52
 70
     0
102
RTVSPost2010Prop53
 90
        2
102
RTVSPost2010PropOp53
 70
     1
102
RTVSPost2010Prop54
  1
strokes_ogs.tif
102
RTVSPost2010PropOp54
 70
     1
102
RTVSPost2010Prop55
280
     0
102
RTVSPost2010PropOp55
 70
     1
102
RTVSPost2010Prop56
140
1.0
102
RTVSPost2010PropOp56
 70
     1
102
RTVSPost2010Prop57
140
1.0
102
RTVSPost2010PropOp57
 70
     1
102
RTVSPropertyOp0
 70
     1
102
RTVSPropertyOp1
 70
     1
102
RTVSPropertyOp2
 70
     1
102
RTVSPropertyOp3
 70
     1
102
RTVSPropertyOp4
 70
     1
102
RTVSPropertyOp5
 70
     1
102
RTVSPropertyOp6
 70
     1
102
RTVSPropertyOp7
 70
     1
102
RTVSPropertyOp8
 70
     1
102
RTVSPropertyOp9
 70
     1
102
RTVSPropertyOp10
 70
     1
102
RTVSPropertyOp11
 70
     1
102
RTVSPropertyOp12
 70
     1
102
RTVSPropertyOp13
 70
     1
102
RTVSPropertyOp14
 70
     1
102
RTVSPropertyOp15
 70
     1
102
RTVSPropertyOp16
 70
     1
102
RTVSPropertyOp17
 70
     1
102
RTVSPropertyOp18
 70
     1
102
RTVSPropertyOp19
 70
     1
102
RTVSPropertyOp20
 70
     1
102
RTVSPropertyOp21
 70
     1
102
RTVSPropertyOp22
 70
     1
102
RTVSPropertyOp23
 70
     1
102
RTVSPropertyOp24
 70
     1
102
RTVSPropertyOp25
 70
     1
102
RTVSPropertyOp26
 70
     1
102
RTVSPropertyOp27
 70
     1
102
RTVSPropertyOp28
 70
     1
102
RTVSPropertyOp29
 70
     1
102
RTVSPropertyOp30
 70
     1
102
RTVSPropertyOp31
 70
     1
102
RTVSPropertyOp32
 70
     1
102
RTVSPropertyOp33
 70
     1
102
RTVSPropertyOp34
 70
     1
102
RTVSPropertyOp35
 70
     1
102
RTVSPropertyOp36
 70
     1
102
RTVSPropertyOp37
 70
     1
102
RTVSPropertyOp38
 70
     1
102
RTVSPropertyOp39
 70
     1
102
RTVSPropertyOp40
 70
     1
102
RTVSPropertyOp41
 70
     1
102
RTVSPropertyOp42
 70
     1
102
RTVSPropertyOp43
 70
     1
102
RTVSPropertyOp44
 70
     1
102
RTVSPropertyOp45
 70
     1
102
RTVSPropertyOp46
 70
     1
102
RTVSPropertyOp47
 70
     1
102
RTVSPropertyOp48
 70
     1
102
RTVSPropertyOp49
 70
     1
102
RTVSPropertyOp50
 70
     1
102
RTVSPropertyOp51
 70
     0
102
RTVSPropertyOp52
 70
     0
102
RTVSPropertyOp53
 70
     1
102
RTVSPropertyOp54
 70
     1
102
RTVSPropertyOp55
 70
     1
102
RTVSPropertyOp56
 70
     1
102
RTVSPropertyOp57
 70
     1
102
RTVSPropertyOp58
 70
     1
102
RTVSPropertyOp59
 70
     1
102
RTVSPropertyOp60
 70
     1
102
RTVSPropertyOp61
 70
     1
102
RTVSPropertyOp62
 70
     1
  0
XRECORD
  5
B90
102
{ACAD_REACTORS
330
B8F
102
}
330
B8F
100
AcDbXrecord
280
     1
102
RTVSPost2010Prop28
280
     0
102
RTVSPost2010PropOp28
 70
     1
102
RTVSPost2010Prop29
280
     1
102
RTVSPost2010PropOp29
 70
     1
102
RTVSPost2010Prop30
280
     1
102
RTVSPost2010PropOp30
 70
     1
102
RTVSPost2010Prop31
280
     0
102
RTVSPost2010PropOp31
 70
     1
102
RTVSPost2010Prop32
280
     0
102
RTVSPost2010PropOp32
 70
     1
102
RTVSPost2010Prop33
280
     0
102
RTVSPost2010PropOp33
 70
     1
102
RTVSPost2010Prop34
280
     0
102
RTVSPost2010PropOp34
 70
     1
102
RTVSPost2010Prop35
280
     0
102
RTVSPost2010PropOp35
 70
     1
102
RTVSPost2010Prop36
280
     0
102
RTVSPost2010PropOp36
 70
     1
102
RTVSPost2010Prop37
 90
       50
102
RTVSPost2010PropOp37
 70
     1
102
RTVSPost2010Prop38
140
0.0
102
RTVSPost2010PropOp38
 70
     1
102
RTVSPost2010Prop39
140
1.0
102
RTVSPost2010PropOp39
 70
     1
102
RTVSPost2010Prop40
 90
        0
102
RTVSPost2010PropOp40
 70
     1
102
RTVSPost2010Prop41ColorIndex
 90
       18
102
RTVSPost2010Prop41ColorRGB
 90
        0
102
RTVSPost2010PropOp41
 70
     1
102
RTVSPost2010Prop42
 90
       50
102
RTVSPost2010PropOp42
 70
     1
102
RTVSPost2010Prop43
 90
        3
102
RTVSPost2010PropOp43
 70
     1
102
RTVSPost2010Prop44ColorIndex
 90
        5
102
RTVSPost2010Prop44ColorRGB
 90
      255
102
RTVSPost2010PropOp44
 70
     1
102
RTVSPost2010Prop45
280
     0
102
RTVSPost2010PropOp45
 70
     1
102
RTVSPost2010Prop46
 90
       50
102
RTVSPost2010PropOp46
 70
     1
102
RTVSPost2010Prop47
 90
       50
102
RTVSPost2010PropOp47
 70
     1
102
RTVSPost2010Prop48
 90
       50
102
RTVSPost2010PropOp48
 70
     1
102
RTVSPost2010Prop49
280
     0
102
RTVSPost2010PropOp49
 70
     1
102
RTVSPost2010Prop50
 90
       50
102
RTVSPost2010PropOp50
 70
     1
102
RTVSPost2010Prop51ColorIndex
 90
      256
102
RTVSPost2010Prop51ColorRGB
 90
-16777216
102
RTVSPost2010PropOp51
 70
     0
102
RTVSPost2010Prop52
140
1.0
102
RTVSPost2010PropOp52
 70
     0
102
RTVSPost2010Prop53
 90
        2
102
RTVSPost2010PropOp53
 70
     1
102
RTVSPost2010Prop54
  1
strokes_ogs.tif
102
RTVSPost2010PropOp54
 70
     1
102
RTVSPost2010Prop55
280
     0
102
RTVSPost2010PropOp55
 70
     1
102
RTVSPost2010Prop56
140
1.0
102
RTVSPost2010PropOp56
 70
     1
102
RTVSPost2010Prop57
140
1.0
102
RTVSPost2010PropOp57
 70
     1
102
RTVSPropertyOp0
 70
     1
102
RTVSPropertyOp1
 70
     1
102
RTVSPropertyOp2
 70
     1
102
RTVSPropertyOp3
 70
     1
102
RTVSPropertyOp4
 70
     1
102
RTVSPropertyOp5
 70
     1
102
RTVSPropertyOp6
 70
     1
102
RTVSPropertyOp7
 70
     1
102
RTVSPropertyOp8
 70
     1
102
RTVSPropertyOp9
 70
     1
102
RTVSPropertyOp10
 70
     1
102
RTVSPropertyOp11
 70
     1
102
RTVSPropertyOp12
 70
     1
102
RTVSPropertyOp13
 70
     1
102
RTVSPropertyOp14
 70
     1
102
RTVSPropertyOp15
 70
     1
102
RTVSPropertyOp16
 70
     1
102
RTVSPropertyOp17
 70
     1
102
RTVSPropertyOp18
 70
     1
102
RTVSPropertyOp19
 70
     1
102
RTVSPropertyOp20
 70
     1
102
RTVSPropertyOp21
 70
     1
102
RTVSPropertyOp22
 70
     1
102
RTVSPropertyOp23
 70
     1
102
RTVSPropertyOp24
 70
     1
102
RTVSPropertyOp25
 70
     1
102
RTVSPropertyOp26
 70
     1
102
RTVSPropertyOp27
 70
     1
102
RTVSPropertyOp28
 70
     1
102
RTVSPropertyOp29
 70
     1
102
RTVSPropertyOp30
 70
     1
102
RTVSPropertyOp31
 70
     1
102
RTVSPropertyOp32
 70
     1
102
RTVSPropertyOp33
 70
     1
102
RTVSPropertyOp34
 70
     1
102
RTVSPropertyOp35
 70
     1
102
RTVSPropertyOp36
 70
     1
102
RTVSPropertyOp37
 70
     1
102
RTVSPropertyOp38
 70
     1
102
RTVSPropertyOp39
 70
     1
102
RTVSPropertyOp40
 70
     1
102
RTVSPropertyOp41
 70
     1
102
RTVSPropertyOp42
 70
     1
102
RTVSPropertyOp43
 70
     1
102
RTVSPropertyOp44
 70
     1
102
RTVSPropertyOp45
 70
     1
102
RTVSPropertyOp46
 70
     1
102
RTVSPropertyOp47
 70
     1
102
RTVSPropertyOp48
 70
     1
102
RTVSPropertyOp49
 70
     1
102
RTVSPropertyOp50
 70
     1
102
RTVSPropertyOp51
 70
     0
102
RTVSPropertyOp52
 70
     0
102
RTVSPropertyOp53
 70
     1
102
RTVSPropertyOp54
 70
     1
102
RTVSPropertyOp55
 70
     1
102
RTVSPropertyOp56
 70
     1
102
RTVSPropertyOp57
 70
     1
102
RTVSPropertyOp58
 70
     1
102
RTVSPropertyOp59
 70
     1
102
RTVSPropertyOp60
 70
     1
102
RTVSPropertyOp61
 70
     1
102
RTVSPropertyOp62
 70
     1
  0
XRECORD
  5
B92
102
{ACAD_REACTORS
330
B91
102
}
330
B91
100
AcDbXrecord
280
     1
102
RTVSPost2010Prop28
280
     0
102
RTVSPost2010PropOp28
 70
     1
102
RTVSPost2010Prop29
280
     1
102
RTVSPost2010PropOp29
 70
     1
102
RTVSPost2010Prop30
280
     1
102
RTVSPost2010PropOp30
 70
     1
102
RTVSPost2010Prop31
280
     0
102
RTVSPost2010PropOp31
 70
     1
102
RTVSPost2010Prop32
280
     0
102
RTVSPost2010PropOp32
 70
     1
102
RTVSPost2010Prop33
280
     0
102
RTVSPost2010PropOp33
 70
     1
102
RTVSPost2010Prop34
280
     0
102
RTVSPost2010PropOp34
 70
     1
102
RTVSPost2010Prop35
280
     0
102
RTVSPost2010PropOp35
 70
     1
102
RTVSPost2010Prop36
280
     0
102
RTVSPost2010PropOp36
 70
     1
102
RTVSPost2010Prop37
 90
       50
102
RTVSPost2010PropOp37
 70
     1
102
RTVSPost2010Prop38
140
0.0
102
RTVSPost2010PropOp38
 70
     1
102
RTVSPost2010Prop39
140
1.0
102
RTVSPost2010PropOp39
 70
     1
102
RTVSPost2010Prop40
 90
        0
102
RTVSPost2010PropOp40
 70
     1
102
RTVSPost2010Prop41ColorIndex
 90
       18
102
RTVSPost2010Prop41ColorRGB
 90
        0
102
RTVSPost2010PropOp41
 70
     1
102
RTVSPost2010Prop42
 90
       50
102
RTVSPost2010PropOp42
 70
     1
102
RTVSPost2010Prop43
 90
        3
102
RTVSPost2010PropOp43
 70
     1
102
RTVSPost2010Prop44ColorIndex
 90
        5
102
RTVSPost2010Prop44ColorRGB
 90
      255
102
RTVSPost2010PropOp44
 70
     1
102
RTVSPost2010Prop45
280
     0
102
RTVSPost2010PropOp45
 70
     1
102
RTVSPost2010Prop46
 90
       50
102
RTVSPost2010PropOp46
 70
     1
102
RTVSPost2010Prop47
 90
       50
102
RTVSPost2010PropOp47
 70
     1
102
RTVSPost2010Prop48
 90
       50
102
RTVSPost2010PropOp48
 70
     1
102
RTVSPost2010Prop49
280
     0
102
RTVSPost2010PropOp49
 70
     1
102
RTVSPost2010Prop50
 90
       50
102
RTVSPost2010PropOp50
 70
     1
102
RTVSPost2010Prop51ColorIndex
 90
      256
102
RTVSPost2010Prop51ColorRGB
 90
-16777216
102
RTVSPost2010PropOp51
 70
     0
102
RTVSPost2010Prop52
140
1.0
102
RTVSPost2010PropOp52
 70
     0
102
RTVSPost2010Prop53
 90
        2
102
RTVSPost2010PropOp53
 70
     1
102
RTVSPost2010Prop54
  1
strokes_ogs.tif
102
RTVSPost2010PropOp54
 70
     1
102
RTVSPost2010Prop55
280
     0
102
RTVSPost2010PropOp55
 70
     1
102
RTVSPost2010Prop56
140
1.0
102
RTVSPost2010PropOp56
 70
     1
102
RTVSPost2010Prop57
140
1.0
102
RTVSPost2010PropOp57
 70
     1
102
RTVSPropertyOp0
 70
     1
102
RTVSPropertyOp1
 70
     1
102
RTVSPropertyOp2
 70
     1
102
RTVSPropertyOp3
 70
     1
102
RTVSPropertyOp4
 70
     1
102
RTVSPropertyOp5
 70
     1
102
RTVSPropertyOp6
 70
     1
102
RTVSPropertyOp7
 70
     1
102
RTVSPropertyOp8
 70
     1
102
RTVSPropertyOp9
 70
     1
102
RTVSPropertyOp10
 70
     1
102
RTVSPropertyOp11
 70
     1
102
RTVSPropertyOp12
 70
     1
102
RTVSPropertyOp13
 70
     1
102
RTVSPropertyOp14
 70
     1
102
RTVSPropertyOp15
 70
     1
102
RTVSPropertyOp16
 70
     1
102
RTVSPropertyOp17
 70
     1
102
RTVSPropertyOp18
 70
     1
102
RTVSPropertyOp19
 70
     1
102
RTVSPropertyOp20
 70
     1
102
RTVSPropertyOp21
 70
     1
102
RTVSPropertyOp22
 70
     1
102
RTVSPropertyOp23
 70
     1
102
RTVSPropertyOp24
 70
     1
102
RTVSPropertyOp25
 70
     1
102
RTVSPropertyOp26
 70
     1
102
RTVSPropertyOp27
 70
     1
102
RTVSPropertyOp28
 70
     1
102
RTVSPropertyOp29
 70
     1
102
RTVSPropertyOp30
 70
     1
102
RTVSPropertyOp31
 70
     1
102
RTVSPropertyOp32
 70
     1
102
RTVSPropertyOp33
 70
     1
102
RTVSPropertyOp34
 70
     1
102
RTVSPropertyOp35
 70
     1
102
RTVSPropertyOp36
 70
     1
102
RTVSPropertyOp37
 70
     1
102
RTVSPropertyOp38
 70
     1
102
RTVSPropertyOp39
 70
     1
102
RTVSPropertyOp40
 70
     1
102
RTVSPropertyOp41
 70
     1
102
RTVSPropertyOp42
 70
     1
102
RTVSPropertyOp43
 70
     1
102
RTVSPropertyOp44
 70
     1
102
RTVSPropertyOp45
 70
     1
102
RTVSPropertyOp46
 70
     1
102
RTVSPropertyOp47
 70
     1
102
RTVSPropertyOp48
 70
     1
102
RTVSPropertyOp49
 70
     1
102
RTVSPropertyOp50
 70
     1
102
RTVSPropertyOp51
 70
     0
102
RTVSPropertyOp52
 70
     0
102
RTVSPropertyOp53
 70
     1
102
RTVSPropertyOp54
 70
     1
102
RTVSPropertyOp55
 70
     1
102
RTVSPropertyOp56
 70
     1
102
RTVSPropertyOp57
 70
     1
102
RTVSPropertyOp58
 70
     1
102
RTVSPropertyOp59
 70
     1
102
RTVSPropertyOp60
 70
     1
102
RTVSPropertyOp61
 70
     1
102
RTVSPropertyOp62
 70
     1
  0
XRECORD
  5
B9A
102
{ACAD_REACTORS
330
B99
102
}
330
B99
100
AcDbXrecord
280
     1
102
RTVSPost2010Prop28
280
     0
102
RTVSPost2010PropOp28
 70
     1
102
RTVSPost2010Prop29
280
     1
102
RTVSPost2010PropOp29
 70
     1
102
RTVSPost2010Prop30
280
     1
102
RTVSPost2010PropOp30
 70
     1
102
RTVSPost2010Prop31
280
     0
102
RTVSPost2010PropOp31
 70
     1
102
RTVSPost2010Prop32
280
     0
102
RTVSPost2010PropOp32
 70
     1
102
RTVSPost2010Prop33
280
     0
102
RTVSPost2010PropOp33
 70
     1
102
RTVSPost2010Prop34
280
     0
102
RTVSPost2010PropOp34
 70
     1
102
RTVSPost2010Prop35
280
     0
102
RTVSPost2010PropOp35
 70
     1
102
RTVSPost2010Prop36
280
     0
102
RTVSPost2010PropOp36
 70
     1
102
RTVSPost2010Prop37
 90
       50
102
RTVSPost2010PropOp37
 70
     1
102
RTVSPost2010Prop38
140
0.0
102
RTVSPost2010PropOp38
 70
     1
102
RTVSPost2010Prop39
140
1.0
102
RTVSPost2010PropOp39
 70
     1
102
RTVSPost2010Prop40
 90
        0
102
RTVSPost2010PropOp40
 70
     1
102
RTVSPost2010Prop41ColorIndex
 90
       18
102
RTVSPost2010Prop41ColorRGB
 90
        0
102
RTVSPost2010PropOp41
 70
     1
102
RTVSPost2010Prop42
 90
       50
102
RTVSPost2010PropOp42
 70
     1
102
RTVSPost2010Prop43
 90
        3
102
RTVSPost2010PropOp43
 70
     1
102
RTVSPost2010Prop44ColorIndex
 90
        5
102
RTVSPost2010Prop44ColorRGB
 90
      255
102
RTVSPost2010PropOp44
 70
     1
102
RTVSPost2010Prop45
280
     0
102
RTVSPost2010PropOp45
 70
     1
102
RTVSPost2010Prop46
 90
       50
102
RTVSPost2010PropOp46
 70
     1
102
RTVSPost2010Prop47
 90
       50
102
RTVSPost2010PropOp47
 70
     1
102
RTVSPost2010Prop48
 90
       50
102
RTVSPost2010PropOp48
 70
     1
102
RTVSPost2010Prop49
280
     0
102
RTVSPost2010PropOp49
 70
     1
102
RTVSPost2010Prop50
 90
       50
102
RTVSPost2010PropOp50
 70
     1
102
RTVSPost2010Prop51ColorIndex
 90
      256
102
RTVSPost2010Prop51ColorRGB
 90
-16777216
102
RTVSPost2010PropOp51
 70
     0
102
RTVSPost2010Prop52
140
1.0
102
RTVSPost2010PropOp52
 70
     0
102
RTVSPost2010Prop53
 90
        2
102
RTVSPost2010PropOp53
 70
     1
102
RTVSPost2010Prop54
  1
strokes_ogs.tif
102
RTVSPost2010PropOp54
 70
     1
102
RTVSPost2010Prop55
280
     0
102
RTVSPost2010PropOp55
 70
     1
102
RTVSPost2010Prop56
140
1.0
102
RTVSPost2010PropOp56
 70
     1
102
RTVSPost2010Prop57
140
1.0
102
RTVSPost2010PropOp57
 70
     1
102
RTVSPropertyOp0
 70
     1
102
RTVSPropertyOp1
 70
     1
102
RTVSPropertyOp2
 70
     1
102
RTVSPropertyOp3
 70
     1
102
RTVSPropertyOp4
 70
     1
102
RTVSPropertyOp5
 70
     1
102
RTVSPropertyOp6
 70
     1
102
RTVSPropertyOp7
 70
     1
102
RTVSPropertyOp8
 70
     1
102
RTVSPropertyOp9
 70
     1
102
RTVSPropertyOp10
 70
     1
102
RTVSPropertyOp11
 70
     1
102
RTVSPropertyOp12
 70
     1
102
RTVSPropertyOp13
 70
     1
102
RTVSPropertyOp14
 70
     1
102
RTVSPropertyOp15
 70
     1
102
RTVSPropertyOp16
 70
     1
102
RTVSPropertyOp17
 70
     1
102
RTVSPropertyOp18
 70
     1
102
RTVSPropertyOp19
 70
     1
102
RTVSPropertyOp20
 70
     1
102
RTVSPropertyOp21
 70
     1
102
RTVSPropertyOp22
 70
     1
102
RTVSPropertyOp23
 70
     1
102
RTVSPropertyOp24
 70
     1
102
RTVSPropertyOp25
 70
     1
102
RTVSPropertyOp26
 70
     1
102
RTVSPropertyOp27
 70
     1
102
RTVSPropertyOp28
 70
     1
102
RTVSPropertyOp29
 70
     1
102
RTVSPropertyOp30
 70
     1
102
RTVSPropertyOp31
 70
     1
102
RTVSPropertyOp32
 70
     1
102
RTVSPropertyOp33
 70
     1
102
RTVSPropertyOp34
 70
     1
102
RTVSPropertyOp35
 70
     1
102
RTVSPropertyOp36
 70
     1
102
RTVSPropertyOp37
 70
     1
102
RTVSPropertyOp38
 70
     1
102
RTVSPropertyOp39
 70
     1
102
RTVSPropertyOp40
 70
     1
102
RTVSPropertyOp41
 70
     1
102
RTVSPropertyOp42
 70
     1
102
RTVSPropertyOp43
 70
     1
102
RTVSPropertyOp44
 70
     1
102
RTVSPropertyOp45
 70
     1
102
RTVSPropertyOp46
 70
     1
102
RTVSPropertyOp47
 70
     1
102
RTVSPropertyOp48
 70
     1
102
RTVSPropertyOp49
 70
     1
102
RTVSPropertyOp50
 70
     1
102
RTVSPropertyOp51
 70
     0
102
RTVSPropertyOp52
 70
     0
102
RTVSPropertyOp53
 70
     1
102
RTVSPropertyOp54
 70
     1
102
RTVSPropertyOp55
 70
     1
102
RTVSPropertyOp56
 70
     1
102
RTVSPropertyOp57
 70
     1
102
RTVSPropertyOp58
 70
     1
102
RTVSPropertyOp59
 70
     1
102
RTVSPropertyOp60
 70
     1
102
RTVSPropertyOp61
 70
     1
102
RTVSPropertyOp62
 70
     1
  0
XRECORD
  5
BB6
102
{ACAD_REACTORS
330
BB5
102
}
330
BB5
100
AcDbXrecord
280
     1
102
RTVSPost2010Prop28
280
     0
102
RTVSPost2010PropOp28
 70
     1
102
RTVSPost2010Prop29
280
     1
102
RTVSPost2010PropOp29
 70
     1
102
RTVSPost2010Prop30
280
     1
102
RTVSPost2010PropOp30
 70
     1
102
RTVSPost2010Prop31
280
     0
102
RTVSPost2010PropOp31
 70
     1
102
RTVSPost2010Prop32
280
     0
102
RTVSPost2010PropOp32
 70
     1
102
RTVSPost2010Prop33
280
     0
102
RTVSPost2010PropOp33
 70
     1
102
RTVSPost2010Prop34
280
     0
102
RTVSPost2010PropOp34
 70
     1
102
RTVSPost2010Prop35
280
     0
102
RTVSPost2010PropOp35
 70
     1
102
RTVSPost2010Prop36
280
     0
102
RTVSPost2010PropOp36
 70
     1
102
RTVSPost2010Prop37
 90
       50
102
RTVSPost2010PropOp37
 70
     0
102
RTVSPost2010Prop38
140
0.0
102
RTVSPost2010PropOp38
 70
     0
102
RTVSPost2010Prop39
140
1.0
102
RTVSPost2010PropOp39
 70
     0
102
RTVSPost2010Prop40
 90
        0
102
RTVSPost2010PropOp40
 70
     0
102
RTVSPost2010Prop41ColorIndex
 90
       18
102
RTVSPost2010Prop41ColorRGB
 90
        0
102
RTVSPost2010PropOp41
 70
     0
102
RTVSPost2010Prop42
 90
       50
102
RTVSPost2010PropOp42
 70
     0
102
RTVSPost2010Prop43
 90
        3
102
RTVSPost2010PropOp43
 70
     0
102
RTVSPost2010Prop44ColorIndex
 90
        5
102
RTVSPost2010Prop44ColorRGB
 90
      255
102
RTVSPost2010PropOp44
 70
     0
102
RTVSPost2010Prop45
280
     0
102
RTVSPost2010PropOp45
 70
     1
102
RTVSPost2010Prop46
 90
       50
102
RTVSPost2010PropOp46
 70
     0
102
RTVSPost2010Prop47
 90
       50
102
RTVSPost2010PropOp47
 70
     0
102
RTVSPost2010Prop48
 90
       50
102
RTVSPost2010PropOp48
 70
     0
102
RTVSPost2010Prop49
280
     0
102
RTVSPost2010PropOp49
 70
     1
102
RTVSPost2010Prop50
 90
       50
102
RTVSPost2010PropOp50
 70
     0
102
RTVSPost2010Prop51ColorIndex
 90
      256
102
RTVSPost2010Prop51ColorRGB
 90
-16777216
102
RTVSPost2010PropOp51
 70
     0
102
RTVSPost2010Prop52
140
1.0
102
RTVSPost2010PropOp52
 70
     0
102
RTVSPost2010Prop53
 90
        2
102
RTVSPost2010PropOp53
 70
     0
102
RTVSPost2010Prop54
  1
strokes_ogs.tif
102
RTVSPost2010PropOp54
 70
     0
102
RTVSPost2010Prop55
280
     0
102
RTVSPost2010PropOp55
 70
     1
102
RTVSPost2010Prop56
140
1.0
102
RTVSPost2010PropOp56
 70
     0
102
RTVSPost2010Prop57
140
1.0
102
RTVSPost2010PropOp57
 70
     0
102
RTVSPropertyOp0
 70
     0
102
RTVSPropertyOp1
 70
     0
102
RTVSPropertyOp2
 70
     0
102
RTVSPropertyOp3
 70
     0
102
RTVSPropertyOp4
 70
     0
102
RTVSPropertyOp5
 70
     0
102
RTVSPropertyOp6
 70
     0
102
RTVSPropertyOp7
 70
     0
102
RTVSPropertyOp8
 70
     0
102
RTVSPropertyOp9
 70
     0
102
RTVSPropertyOp10
 70
     0
102
RTVSPropertyOp11
 70
     0
102
RTVSPropertyOp12
 70
     0
102
RTVSPropertyOp13
 70
     0
102
RTVSPropertyOp14
 70
     2
102
RTVSPropertyOp15
 70
     0
102
RTVSPropertyOp16
 70
     0
102
RTVSPropertyOp17
 70
     0
102
RTVSPropertyOp18
 70
     0
102
RTVSPropertyOp19
 70
     0
102
RTVSPropertyOp20
 70
     0
102
RTVSPropertyOp21
 70
     0
102
RTVSPropertyOp22
 70
     0
102
RTVSPropertyOp23
 70
     0
102
RTVSPropertyOp24
 70
     0
102
RTVSPropertyOp25
 70
     0
102
RTVSPropertyOp26
 70
     0
102
RTVSPropertyOp27
 70
     0
102
RTVSPropertyOp28
 70
     1
102
RTVSPropertyOp29
 70
     1
102
RTVSPropertyOp30
 70
     1
102
RTVSPropertyOp31
 70
     1
102
RTVSPropertyOp32
 70
     1
102
RTVSPropertyOp33
 70
     1
102
RTVSPropertyOp34
 70
     1
102
RTVSPropertyOp35
 70
     1
102
RTVSPropertyOp36
 70
     1
102
RTVSPropertyOp37
 70
     0
102
RTVSPropertyOp38
 70
     0
102
RTVSPropertyOp39
 70
     0
102
RTVSPropertyOp40
 70
     0
102
RTVSPropertyOp41
 70
     0
102
RTVSPropertyOp42
 70
     0
102
RTVSPropertyOp43
 70
     0
102
RTVSPropertyOp44
 70
     0
102
RTVSPropertyOp45
 70
     1
102
RTVSPropertyOp46
 70
     0
102
RTVSPropertyOp47
 70
     0
102
RTVSPropertyOp48
 70
     0
102
RTVSPropertyOp49
 70
     1
102
RTVSPropertyOp50
 70
     0
102
RTVSPropertyOp51
 70
     0
102
RTVSPropertyOp52
 70
     0
102
RTVSPropertyOp53
 70
     0
102
RTVSPropertyOp54
 70
     0
102
RTVSPropertyOp55
 70
     1
102
RTVSPropertyOp56
 70
     0
102
RTVSPropertyOp57
 70
     0
102
RTVSPropertyOp58
 70
     0
102
RTVSPropertyOp59
 70
     0
102
RTVSPropertyOp60
 70
     0
102
RTVSPropertyOp61
 70
     0
102
RTVSPropertyOp62
 70
     0
  0
XRECORD
  5
BA6
102
{ACAD_REACTORS
330
BA5
102
}
330
BA5
100
AcDbXrecord
280
     1
102
RTVSPost2010Prop28
280
     0
102
RTVSPost2010PropOp28
 70
     1
102
RTVSPost2010Prop29
280
     1
102
RTVSPost2010PropOp29
 70
     1
102
RTVSPost2010Prop30
280
     1
102
RTVSPost2010PropOp30
 70
     1
102
RTVSPost2010Prop31
280
     0
102
RTVSPost2010PropOp31
 70
     1
102
RTVSPost2010Prop32
280
     0
102
RTVSPost2010PropOp32
 70
     1
102
RTVSPost2010Prop33
280
     0
102
RTVSPost2010PropOp33
 70
     1
102
RTVSPost2010Prop34
280
     0
102
RTVSPost2010PropOp34
 70
     1
102
RTVSPost2010Prop35
280
     0
102
RTVSPost2010PropOp35
 70
     1
102
RTVSPost2010Prop36
280
     0
102
RTVSPost2010PropOp36
 70
     1
102
RTVSPost2010Prop37
 90
       50
102
RTVSPost2010PropOp37
 70
     1
102
RTVSPost2010Prop38
140
0.0
102
RTVSPost2010PropOp38
 70
     1
102
RTVSPost2010Prop39
140
1.0
102
RTVSPost2010PropOp39
 70
     1
102
RTVSPost2010Prop40
 90
        0
102
RTVSPost2010PropOp40
 70
     1
102
RTVSPost2010Prop41ColorIndex
 90
       18
102
RTVSPost2010Prop41ColorRGB
 90
        0
102
RTVSPost2010PropOp41
 70
     1
102
RTVSPost2010Prop42
 90
       50
102
RTVSPost2010PropOp42
 70
     1
102
RTVSPost2010Prop43
 90
        3
102
RTVSPost2010PropOp43
 70
     1
102
RTVSPost2010Prop44ColorIndex
 90
        5
102
RTVSPost2010Prop44ColorRGB
 90
      255
102
RTVSPost2010PropOp44
 70
     1
102
RTVSPost2010Prop45
280
     0
102
RTVSPost2010PropOp45
 70
     1
102
RTVSPost2010Prop46
 90
       50
102
RTVSPost2010PropOp46
 70
     1
102
RTVSPost2010Prop47
 90
       50
102
RTVSPost2010PropOp47
 70
     1
102
RTVSPost2010Prop48
 90
       50
102
RTVSPost2010PropOp48
 70
     1
102
RTVSPost2010Prop49
280
     0
102
RTVSPost2010PropOp49
 70
     1
102
RTVSPost2010Prop50
 90
       50
102
RTVSPost2010PropOp50
 70
     1
102
RTVSPost2010Prop51ColorIndex
 90
      256
102
RTVSPost2010Prop51ColorRGB
 90
-16777216
102
RTVSPost2010PropOp51
 70
     0
102
RTVSPost2010Prop52
140
1.0
102
RTVSPost2010PropOp52
 70
     0
102
RTVSPost2010Prop53
 90
        2
102
RTVSPost2010PropOp53
 70
     1
102
RTVSPost2010Prop54
  1
strokes_ogs.tif
102
RTVSPost2010PropOp54
 70
     1
102
RTVSPost2010Prop55
280
     0
102
RTVSPost2010PropOp55
 70
     1
102
RTVSPost2010Prop56
140
1.0
102
RTVSPost2010PropOp56
 70
     1
102
RTVSPost2010Prop57
140
1.0
102
RTVSPost2010PropOp57
 70
     1
102
RTVSPropertyOp0
 70
     1
102
RTVSPropertyOp1
 70
     1
102
RTVSPropertyOp2
 70
     1
102
RTVSPropertyOp3
 70
     1
102
RTVSPropertyOp4
 70
     1
102
RTVSPropertyOp5
 70
     1
102
RTVSPropertyOp6
 70
     1
102
RTVSPropertyOp7
 70
     1
102
RTVSPropertyOp8
 70
     1
102
RTVSPropertyOp9
 70
     1
102
RTVSPropertyOp10
 70
     1
102
RTVSPropertyOp11
 70
     1
102
RTVSPropertyOp12
 70
     1
102
RTVSPropertyOp13
 70
     1
102
RTVSPropertyOp14
 70
     1
102
RTVSPropertyOp15
 70
     1
102
RTVSPropertyOp16
 70
     1
102
RTVSPropertyOp17
 70
     1
102
RTVSPropertyOp18
 70
     1
102
RTVSPropertyOp19
 70
     1
102
RTVSPropertyOp20
 70
     1
102
RTVSPropertyOp21
 70
     1
102
RTVSPropertyOp22
 70
     1
102
RTVSPropertyOp23
 70
     1
102
RTVSPropertyOp24
 70
     1
102
RTVSPropertyOp25
 70
     1
102
RTVSPropertyOp26
 70
     1
102
RTVSPropertyOp27
 70
     1
102
RTVSPropertyOp28
 70
     1
102
RTVSPropertyOp29
 70
     1
102
RTVSPropertyOp30
 70
     1
102
RTVSPropertyOp31
 70
     1
102
RTVSPropertyOp32
 70
     1
102
RTVSPropertyOp33
 70
     1
102
RTVSPropertyOp34
 70
     1
102
RTVSPropertyOp35
 70
     1
102
RTVSPropertyOp36
 70
     1
102
RTVSPropertyOp37
 70
     1
102
RTVSPropertyOp38
 70
     1
102
RTVSPropertyOp39
 70
     1
102
RTVSPropertyOp40
 70
     1
102
RTVSPropertyOp41
 70
     1
102
RTVSPropertyOp42
 70
     1
102
RTVSPropertyOp43
 70
     1
102
RTVSPropertyOp44
 70
     1
102
RTVSPropertyOp45
 70
     1
102
RTVSPropertyOp46
 70
     1
102
RTVSPropertyOp47
 70
     1
102
RTVSPropertyOp48
 70
     1
102
RTVSPropertyOp49
 70
     1
102
RTVSPropertyOp50
 70
     1
102
RTVSPropertyOp51
 70
     0
102
RTVSPropertyOp52
 70
     0
102
RTVSPropertyOp53
 70
     1
102
RTVSPropertyOp54
 70
     1
102
RTVSPropertyOp55
 70
     1
102
RTVSPropertyOp56
 70
     1
102
RTVSPropertyOp57
 70
     1
102
RTVSPropertyOp58
 70
     1
102
RTVSPropertyOp59
 70
     1
102
RTVSPropertyOp60
 70
     1
102
RTVSPropertyOp61
 70
     1
102
RTVSPropertyOp62
 70
     1
  0
XRECORD
  5
BB8
102
{ACAD_REACTORS
330
BB7
102
}
330
BB7
100
AcDbXrecord
280
     1
102
RTVSPost2010Prop28
280
     0
102
RTVSPost2010PropOp28
 70
     1
102
RTVSPost2010Prop29
280
     1
102
RTVSPost2010PropOp29
 70
     1
102
RTVSPost2010Prop30
280
     1
102
RTVSPost2010PropOp30
 70
     1
102
RTVSPost2010Prop31
280
     0
102
RTVSPost2010PropOp31
 70
     1
102
RTVSPost2010Prop32
280
     0
102
RTVSPost2010PropOp32
 70
     1
102
RTVSPost2010Prop33
280
     0
102
RTVSPost2010PropOp33
 70
     1
102
RTVSPost2010Prop34
280
     0
102
RTVSPost2010PropOp34
 70
     1
102
RTVSPost2010Prop35
280
     0
102
RTVSPost2010PropOp35
 70
     1
102
RTVSPost2010Prop36
280
     0
102
RTVSPost2010PropOp36
 70
     1
102
RTVSPost2010Prop37
 90
       50
102
RTVSPost2010PropOp37
 70
     0
102
RTVSPost2010Prop38
140
0.0
102
RTVSPost2010PropOp38
 70
     0
102
RTVSPost2010Prop39
140
1.0
102
RTVSPost2010PropOp39
 70
     0
102
RTVSPost2010Prop40
 90
        0
102
RTVSPost2010PropOp40
 70
     0
102
RTVSPost2010Prop41ColorIndex
 90
       18
102
RTVSPost2010Prop41ColorRGB
 90
        0
102
RTVSPost2010PropOp41
 70
     0
102
RTVSPost2010Prop42
 90
       50
102
RTVSPost2010PropOp42
 70
     0
102
RTVSPost2010Prop43
 90
        3
102
RTVSPost2010PropOp43
 70
     0
102
RTVSPost2010Prop44ColorIndex
 90
        5
102
RTVSPost2010Prop44ColorRGB
 90
      255
102
RTVSPost2010PropOp44
 70
     0
102
RTVSPost2010Prop45
280
     0
102
RTVSPost2010PropOp45
 70
     1
102
RTVSPost2010Prop46
 90
       50
102
RTVSPost2010PropOp46
 70
     0
102
RTVSPost2010Prop47
 90
       50
102
RTVSPost2010PropOp47
 70
     0
102
RTVSPost2010Prop48
 90
       50
102
RTVSPost2010PropOp48
 70
     0
102
RTVSPost2010Prop49
280
     0
102
RTVSPost2010PropOp49
 70
     1
102
RTVSPost2010Prop50
 90
       50
102
RTVSPost2010PropOp50
 70
     0
102
RTVSPost2010Prop51ColorIndex
 90
      256
102
RTVSPost2010Prop51ColorRGB
 90
-16777216
102
RTVSPost2010PropOp51
 70
     0
102
RTVSPost2010Prop52
140
1.0
102
RTVSPost2010PropOp52
 70
     0
102
RTVSPost2010Prop53
 90
        2
102
RTVSPost2010PropOp53
 70
     0
102
RTVSPost2010Prop54
  1
strokes_ogs.tif
102
RTVSPost2010PropOp54
 70
     0
102
RTVSPost2010Prop55
280
     0
102
RTVSPost2010PropOp55
 70
     1
102
RTVSPost2010Prop56
140
1.0
102
RTVSPost2010PropOp56
 70
     0
102
RTVSPost2010Prop57
140
1.0
102
RTVSPost2010PropOp57
 70
     0
102
RTVSPropertyOp0
 70
     0
102
RTVSPropertyOp1
 70
     0
102
RTVSPropertyOp2
 70
     0
102
RTVSPropertyOp3
 70
     0
102
RTVSPropertyOp4
 70
     0
102
RTVSPropertyOp5
 70
     0
102
RTVSPropertyOp6
 70
     0
102
RTVSPropertyOp7
 70
     0
102
RTVSPropertyOp8
 70
     0
102
RTVSPropertyOp9
 70
     0
102
RTVSPropertyOp10
 70
     0
102
RTVSPropertyOp11
 70
     0
102
RTVSPropertyOp12
 70
     0
102
RTVSPropertyOp13
 70
     0
102
RTVSPropertyOp14
 70
     2
102
RTVSPropertyOp15
 70
     0
102
RTVSPropertyOp16
 70
     0
102
RTVSPropertyOp17
 70
     0
102
RTVSPropertyOp18
 70
     0
102
RTVSPropertyOp19
 70
     0
102
RTVSPropertyOp20
 70
     0
102
RTVSPropertyOp21
 70
     0
102
RTVSPropertyOp22
 70
     0
102
RTVSPropertyOp23
 70
     0
102
RTVSPropertyOp24
 70
     0
102
RTVSPropertyOp25
 70
     0
102
RTVSPropertyOp26
 70
     0
102
RTVSPropertyOp27
 70
     0
102
RTVSPropertyOp28
 70
     1
102
RTVSPropertyOp29
 70
     1
102
RTVSPropertyOp30
 70
     1
102
RTVSPropertyOp31
 70
     1
102
RTVSPropertyOp32
 70
     1
102
RTVSPropertyOp33
 70
     1
102
RTVSPropertyOp34
 70
     1
102
RTVSPropertyOp35
 70
     1
102
RTVSPropertyOp36
 70
     1
102
RTVSPropertyOp37
 70
     0
102
RTVSPropertyOp38
 70
     0
102
RTVSPropertyOp39
 70
     0
102
RTVSPropertyOp40
 70
     0
102
RTVSPropertyOp41
 70
     0
102
RTVSPropertyOp42
 70
     0
102
RTVSPropertyOp43
 70
     0
102
RTVSPropertyOp44
 70
     0
102
RTVSPropertyOp45
 70
     1
102
RTVSPropertyOp46
 70
     0
102
RTVSPropertyOp47
 70
     0
102
RTVSPropertyOp48
 70
     0
102
RTVSPropertyOp49
 70
     1
102
RTVSPropertyOp50
 70
     0
102
RTVSPropertyOp51
 70
     0
102
RTVSPropertyOp52
 70
     0
102
RTVSPropertyOp53
 70
     0
102
RTVSPropertyOp54
 70
     0
102
RTVSPropertyOp55
 70
     1
102
RTVSPropertyOp56
 70
     0
102
RTVSPropertyOp57
 70
     0
102
RTVSPropertyOp58
 70
     0
102
RTVSPropertyOp59
 70
     0
102
RTVSPropertyOp60
 70
     0
102
RTVSPropertyOp61
 70
     0
102
RTVSPropertyOp62
 70
     0
  0
XRECORD
  5
B9E
102
{ACAD_REACTORS
330
B9D
102
}
330
B9D
100
AcDbXrecord
280
     1
102
RTVSPost2010Prop28
280
     0
102
RTVSPost2010PropOp28
 70
     1
102
RTVSPost2010Prop29
280
     1
102
RTVSPost2010PropOp29
 70
     1
102
RTVSPost2010Prop30
280
     1
102
RTVSPost2010PropOp30
 70
     1
102
RTVSPost2010Prop31
280
     0
102
RTVSPost2010PropOp31
 70
     1
102
RTVSPost2010Prop32
280
     0
102
RTVSPost2010PropOp32
 70
     1
102
RTVSPost2010Prop33
280
     0
102
RTVSPost2010PropOp33
 70
     1
102
RTVSPost2010Prop34
280
     0
102
RTVSPost2010PropOp34
 70
     1
102
RTVSPost2010Prop35
280
     0
102
RTVSPost2010PropOp35
 70
     1
102
RTVSPost2010Prop36
280
     0
102
RTVSPost2010PropOp36
 70
     1
102
RTVSPost2010Prop37
 90
       50
102
RTVSPost2010PropOp37
 70
     1
102
RTVSPost2010Prop38
140
0.0
102
RTVSPost2010PropOp38
 70
     1
102
RTVSPost2010Prop39
140
1.0
102
RTVSPost2010PropOp39
 70
     1
102
RTVSPost2010Prop40
 90
        0
102
RTVSPost2010PropOp40
 70
     1
102
RTVSPost2010Prop41ColorIndex
 90
       18
102
RTVSPost2010Prop41ColorRGB
 90
        0
102
RTVSPost2010PropOp41
 70
     1
102
RTVSPost2010Prop42
 90
       50
102
RTVSPost2010PropOp42
 70
     1
102
RTVSPost2010Prop43
 90
        3
102
RTVSPost2010PropOp43
 70
     1
102
RTVSPost2010Prop44ColorIndex
 90
        5
102
RTVSPost2010Prop44ColorRGB
 90
      255
102
RTVSPost2010PropOp44
 70
     1
102
RTVSPost2010Prop45
280
     0
102
RTVSPost2010PropOp45
 70
     1
102
RTVSPost2010Prop46
 90
       50
102
RTVSPost2010PropOp46
 70
     1
102
RTVSPost2010Prop47
 90
       50
102
RTVSPost2010PropOp47
 70
     1
102
RTVSPost2010Prop48
 90
       50
102
RTVSPost2010PropOp48
 70
     1
102
RTVSPost2010Prop49
280
     0
102
RTVSPost2010PropOp49
 70
     1
102
RTVSPost2010Prop50
 90
       50
102
RTVSPost2010PropOp50
 70
     1
102
RTVSPost2010Prop51ColorIndex
 90
      256
102
RTVSPost2010Prop51ColorRGB
 90
-16777216
102
RTVSPost2010PropOp51
 70
     0
102
RTVSPost2010Prop52
140
1.0
102
RTVSPost2010PropOp52
 70
     0
102
RTVSPost2010Prop53
 90
        2
102
RTVSPost2010PropOp53
 70
     1
102
RTVSPost2010Prop54
  1
strokes_ogs.tif
102
RTVSPost2010PropOp54
 70
     1
102
RTVSPost2010Prop55
280
     0
102
RTVSPost2010PropOp55
 70
     1
102
RTVSPost2010Prop56
140
1.0
102
RTVSPost2010PropOp56
 70
     1
102
RTVSPost2010Prop57
140
1.0
102
RTVSPost2010PropOp57
 70
     1
102
RTVSPropertyOp0
 70
     1
102
RTVSPropertyOp1
 70
     1
102
RTVSPropertyOp2
 70
     1
102
RTVSPropertyOp3
 70
     1
102
RTVSPropertyOp4
 70
     1
102
RTVSPropertyOp5
 70
     1
102
RTVSPropertyOp6
 70
     1
102
RTVSPropertyOp7
 70
     1
102
RTVSPropertyOp8
 70
     1
102
RTVSPropertyOp9
 70
     1
102
RTVSPropertyOp10
 70
     1
102
RTVSPropertyOp11
 70
     1
102
RTVSPropertyOp12
 70
     1
102
RTVSPropertyOp13
 70
     1
102
RTVSPropertyOp14
 70
     1
102
RTVSPropertyOp15
 70
     1
102
RTVSPropertyOp16
 70
     1
102
RTVSPropertyOp17
 70
     1
102
RTVSPropertyOp18
 70
     1
102
RTVSPropertyOp19
 70
     1
102
RTVSPropertyOp20
 70
     1
102
RTVSPropertyOp21
 70
     1
102
RTVSPropertyOp22
 70
     1
102
RTVSPropertyOp23
 70
     1
102
RTVSPropertyOp24
 70
     1
102
RTVSPropertyOp25
 70
     1
102
RTVSPropertyOp26
 70
     1
102
RTVSPropertyOp27
 70
     1
102
RTVSPropertyOp28
 70
     1
102
RTVSPropertyOp29
 70
     1
102
RTVSPropertyOp30
 70
     1
102
RTVSPropertyOp31
 70
     1
102
RTVSPropertyOp32
 70
     1
102
RTVSPropertyOp33
 70
     1
102
RTVSPropertyOp34
 70
     1
102
RTVSPropertyOp35
 70
     1
102
RTVSPropertyOp36
 70
     1
102
RTVSPropertyOp37
 70
     1
102
RTVSPropertyOp38
 70
     1
102
RTVSPropertyOp39
 70
     1
102
RTVSPropertyOp40
 70
     1
102
RTVSPropertyOp41
 70
     1
102
RTVSPropertyOp42
 70
     1
102
RTVSPropertyOp43
 70
     1
102
RTVSPropertyOp44
 70
     1
102
RTVSPropertyOp45
 70
     1
102
RTVSPropertyOp46
 70
     1
102
RTVSPropertyOp47
 70
     1
102
RTVSPropertyOp48
 70
     1
102
RTVSPropertyOp49
 70
     1
102
RTVSPropertyOp50
 70
     1
102
RTVSPropertyOp51
 70
     0
102
RTVSPropertyOp52
 70
     0
102
RTVSPropertyOp53
 70
     1
102
RTVSPropertyOp54
 70
     1
102
RTVSPropertyOp55
 70
     1
102
RTVSPropertyOp56
 70
     1
102
RTVSPropertyOp57
 70
     1
102
RTVSPropertyOp58
 70
     1
102
RTVSPropertyOp59
 70
     1
102
RTVSPropertyOp60
 70
     1
102
RTVSPropertyOp61
 70
     1
102
RTVSPropertyOp62
 70
     1
  0
XRECORD
  5
BB4
102
{ACAD_REACTORS
330
BB3
102
}
330
BB3
100
AcDbXrecord
280
     1
102
RTVSPost2010Prop28
280
     0
102
RTVSPost2010PropOp28
 70
     1
102
RTVSPost2010Prop29
280
     1
102
RTVSPost2010PropOp29
 70
     1
102
RTVSPost2010Prop30
280
     1
102
RTVSPost2010PropOp30
 70
     1
102
RTVSPost2010Prop31
280
     0
102
RTVSPost2010PropOp31
 70
     1
102
RTVSPost2010Prop32
280
     0
102
RTVSPost2010PropOp32
 70
     1
102
RTVSPost2010Prop33
280
     0
102
RTVSPost2010PropOp33
 70
     1
102
RTVSPost2010Prop34
280
     0
102
RTVSPost2010PropOp34
 70
     1
102
RTVSPost2010Prop35
280
     0
102
RTVSPost2010PropOp35
 70
     1
102
RTVSPost2010Prop36
280
     0
102
RTVSPost2010PropOp36
 70
     1
102
RTVSPost2010Prop37
 90
       50
102
RTVSPost2010PropOp37
 70
     1
102
RTVSPost2010Prop38
140
0.0
102
RTVSPost2010PropOp38
 70
     1
102
RTVSPost2010Prop39
140
1.0
102
RTVSPost2010PropOp39
 70
     1
102
RTVSPost2010Prop40
 90
        0
102
RTVSPost2010PropOp40
 70
     1
102
RTVSPost2010Prop41ColorIndex
 90
       18
102
RTVSPost2010Prop41ColorRGB
 90
        0
102
RTVSPost2010PropOp41
 70
     1
102
RTVSPost2010Prop42
 90
       50
102
RTVSPost2010PropOp42
 70
     1
102
RTVSPost2010Prop43
 90
        3
102
RTVSPost2010PropOp43
 70
     1
102
RTVSPost2010Prop44ColorIndex
 90
        5
102
RTVSPost2010Prop44ColorRGB
 90
      255
102
RTVSPost2010PropOp44
 70
     1
102
RTVSPost2010Prop45
280
     0
102
RTVSPost2010PropOp45
 70
     1
102
RTVSPost2010Prop46
 90
       50
102
RTVSPost2010PropOp46
 70
     1
102
RTVSPost2010Prop47
 90
       50
102
RTVSPost2010PropOp47
 70
     1
102
RTVSPost2010Prop48
 90
       50
102
RTVSPost2010PropOp48
 70
     1
102
RTVSPost2010Prop49
280
     0
102
RTVSPost2010PropOp49
 70
     1
102
RTVSPost2010Prop50
 90
       50
102
RTVSPost2010PropOp50
 70
     1
102
RTVSPost2010Prop51ColorIndex
 90
      256
102
RTVSPost2010Prop51ColorRGB
 90
-16777216
102
RTVSPost2010PropOp51
 70
     0
102
RTVSPost2010Prop52
140
1.0
102
RTVSPost2010PropOp52
 70
     0
102
RTVSPost2010Prop53
 90
        2
102
RTVSPost2010PropOp53
 70
     1
102
RTVSPost2010Prop54
  1
strokes_ogs.tif
102
RTVSPost2010PropOp54
 70
     1
102
RTVSPost2010Prop55
280
     0
102
RTVSPost2010PropOp55
 70
     1
102
RTVSPost2010Prop56
140
1.0
102
RTVSPost2010PropOp56
 70
     1
102
RTVSPost2010Prop57
140
1.0
102
RTVSPost2010PropOp57
 70
     1
102
RTVSPropertyOp0
 70
     1
102
RTVSPropertyOp1
 70
     1
102
RTVSPropertyOp2
 70
     1
102
RTVSPropertyOp3
 70
     1
102
RTVSPropertyOp4
 70
     1
102
RTVSPropertyOp5
 70
     1
102
RTVSPropertyOp6
 70
     1
102
RTVSPropertyOp7
 70
     1
102
RTVSPropertyOp8
 70
     1
102
RTVSPropertyOp9
 70
     1
102
RTVSPropertyOp10
 70
     1
102
RTVSPropertyOp11
 70
     1
102
RTVSPropertyOp12
 70
     1
102
RTVSPropertyOp13
 70
     1
102
RTVSPropertyOp14
 70
     1
102
RTVSPropertyOp15
 70
     1
102
RTVSPropertyOp16
 70
     1
102
RTVSPropertyOp17
 70
     1
102
RTVSPropertyOp18
 70
     1
102
RTVSPropertyOp19
 70
     1
102
RTVSPropertyOp20
 70
     1
102
RTVSPropertyOp21
 70
     1
102
RTVSPropertyOp22
 70
     1
102
RTVSPropertyOp23
 70
     1
102
RTVSPropertyOp24
 70
     1
102
RTVSPropertyOp25
 70
     1
102
RTVSPropertyOp26
 70
     1
102
RTVSPropertyOp27
 70
     1
102
RTVSPropertyOp28
 70
     1
102
RTVSPropertyOp29
 70
     1
102
RTVSPropertyOp30
 70
     1
102
RTVSPropertyOp31
 70
     1
102
RTVSPropertyOp32
 70
     1
102
RTVSPropertyOp33
 70
     1
102
RTVSPropertyOp34
 70
     1
102
RTVSPropertyOp35
 70
     1
102
RTVSPropertyOp36
 70
     1
102
RTVSPropertyOp37
 70
     1
102
RTVSPropertyOp38
 70
     1
102
RTVSPropertyOp39
 70
     1
102
RTVSPropertyOp40
 70
     1
102
RTVSPropertyOp41
 70
     1
102
RTVSPropertyOp42
 70
     1
102
RTVSPropertyOp43
 70
     1
102
RTVSPropertyOp44
 70
     1
102
RTVSPropertyOp45
 70
     1
102
RTVSPropertyOp46
 70
     1
102
RTVSPropertyOp47
 70
     1
102
RTVSPropertyOp48
 70
     1
102
RTVSPropertyOp49
 70
     1
102
RTVSPropertyOp50
 70
     1
102
RTVSPropertyOp51
 70
     0
102
RTVSPropertyOp52
 70
     0
102
RTVSPropertyOp53
 70
     1
102
RTVSPropertyOp54
 70
     1
102
RTVSPropertyOp55
 70
     1
102
RTVSPropertyOp56
 70
     1
102
RTVSPropertyOp57
 70
     1
102
RTVSPropertyOp58
 70
     1
102
RTVSPropertyOp59
 70
     1
102
RTVSPropertyOp60
 70
     1
102
RTVSPropertyOp61
 70
     1
102
RTVSPropertyOp62
 70
     1
  0
XRECORD
  5
BB2
102
{ACAD_REACTORS
330
BB1
102
}
330
BB1
100
AcDbXrecord
280
     1
102
RTVSPost2010Prop28
280
     0
102
RTVSPost2010PropOp28
 70
     1
102
RTVSPost2010Prop29
280
     1
102
RTVSPost2010PropOp29
 70
     1
102
RTVSPost2010Prop30
280
     1
102
RTVSPost2010PropOp30
 70
     1
102
RTVSPost2010Prop31
280
     0
102
RTVSPost2010PropOp31
 70
     1
102
RTVSPost2010Prop32
280
     0
102
RTVSPost2010PropOp32
 70
     1
102
RTVSPost2010Prop33
280
     0
102
RTVSPost2010PropOp33
 70
     1
102
RTVSPost2010Prop34
280
     0
102
RTVSPost2010PropOp34
 70
     1
102
RTVSPost2010Prop35
280
     0
102
RTVSPost2010PropOp35
 70
     1
102
RTVSPost2010Prop36
280
     0
102
RTVSPost2010PropOp36
 70
     1
102
RTVSPost2010Prop37
 90
       50
102
RTVSPost2010PropOp37
 70
     1
102
RTVSPost2010Prop38
140
0.0
102
RTVSPost2010PropOp38
 70
     1
102
RTVSPost2010Prop39
140
1.0
102
RTVSPost2010PropOp39
 70
     1
102
RTVSPost2010Prop40
 90
        0
102
RTVSPost2010PropOp40
 70
     1
102
RTVSPost2010Prop41ColorIndex
 90
       18
102
RTVSPost2010Prop41ColorRGB
 90
        0
102
RTVSPost2010PropOp41
 70
     1
102
RTVSPost2010Prop42
 90
       50
102
RTVSPost2010PropOp42
 70
     1
102
RTVSPost2010Prop43
 90
        3
102
RTVSPost2010PropOp43
 70
     1
102
RTVSPost2010Prop44ColorIndex
 90
        5
102
RTVSPost2010Prop44ColorRGB
 90
      255
102
RTVSPost2010PropOp44
 70
     1
102
RTVSPost2010Prop45
280
     0
102
RTVSPost2010PropOp45
 70
     1
102
RTVSPost2010Prop46
 90
       50
102
RTVSPost2010PropOp46
 70
     1
102
RTVSPost2010Prop47
 90
       50
102
RTVSPost2010PropOp47
 70
     1
102
RTVSPost2010Prop48
 90
       50
102
RTVSPost2010PropOp48
 70
     1
102
RTVSPost2010Prop49
280
     0
102
RTVSPost2010PropOp49
 70
     1
102
RTVSPost2010Prop50
 90
       50
102
RTVSPost2010PropOp50
 70
     1
102
RTVSPost2010Prop51ColorIndex
 90
      256
102
RTVSPost2010Prop51ColorRGB
 90
-16777216
102
RTVSPost2010PropOp51
 70
     0
102
RTVSPost2010Prop52
140
1.0
102
RTVSPost2010PropOp52
 70
     0
102
RTVSPost2010Prop53
 90
        2
102
RTVSPost2010PropOp53
 70
     1
102
RTVSPost2010Prop54
  1
strokes_ogs.tif
102
RTVSPost2010PropOp54
 70
     1
102
RTVSPost2010Prop55
280
     0
102
RTVSPost2010PropOp55
 70
     1
102
RTVSPost2010Prop56
140
1.0
102
RTVSPost2010PropOp56
 70
     1
102
RTVSPost2010Prop57
140
1.0
102
RTVSPost2010PropOp57
 70
     1
102
RTVSPropertyOp0
 70
     1
102
RTVSPropertyOp1
 70
     1
102
RTVSPropertyOp2
 70
     1
102
RTVSPropertyOp3
 70
     1
102
RTVSPropertyOp4
 70
     1
102
RTVSPropertyOp5
 70
     1
102
RTVSPropertyOp6
 70
     1
102
RTVSPropertyOp7
 70
     1
102
RTVSPropertyOp8
 70
     1
102
RTVSPropertyOp9
 70
     1
102
RTVSPropertyOp10
 70
     1
102
RTVSPropertyOp11
 70
     1
102
RTVSPropertyOp12
 70
     1
102
RTVSPropertyOp13
 70
     1
102
RTVSPropertyOp14
 70
     1
102
RTVSPropertyOp15
 70
     1
102
RTVSPropertyOp16
 70
     1
102
RTVSPropertyOp17
 70
     1
102
RTVSPropertyOp18
 70
     1
102
RTVSPropertyOp19
 70
     1
102
RTVSPropertyOp20
 70
     1
102
RTVSPropertyOp21
 70
     1
102
RTVSPropertyOp22
 70
     1
102
RTVSPropertyOp23
 70
     1
102
RTVSPropertyOp24
 70
     1
102
RTVSPropertyOp25
 70
     1
102
RTVSPropertyOp26
 70
     1
102
RTVSPropertyOp27
 70
     1
102
RTVSPropertyOp28
 70
     1
102
RTVSPropertyOp29
 70
     1
102
RTVSPropertyOp30
 70
     1
102
RTVSPropertyOp31
 70
     1
102
RTVSPropertyOp32
 70
     1
102
RTVSPropertyOp33
 70
     1
102
RTVSPropertyOp34
 70
     1
102
RTVSPropertyOp35
 70
     1
102
RTVSPropertyOp36
 70
     1
102
RTVSPropertyOp37
 70
     1
102
RTVSPropertyOp38
 70
     1
102
RTVSPropertyOp39
 70
     1
102
RTVSPropertyOp40
 70
     1
102
RTVSPropertyOp41
 70
     1
102
RTVSPropertyOp42
 70
     1
102
RTVSPropertyOp43
 70
     1
102
RTVSPropertyOp44
 70
     1
102
RTVSPropertyOp45
 70
     1
102
RTVSPropertyOp46
 70
     1
102
RTVSPropertyOp47
 70
     1
102
RTVSPropertyOp48
 70
     1
102
RTVSPropertyOp49
 70
     1
102
RTVSPropertyOp50
 70
     1
102
RTVSPropertyOp51
 70
     0
102
RTVSPropertyOp52
 70
     0
102
RTVSPropertyOp53
 70
     1
102
RTVSPropertyOp54
 70
     1
102
RTVSPropertyOp55
 70
     1
102
RTVSPropertyOp56
 70
     1
102
RTVSPropertyOp57
 70
     1
102
RTVSPropertyOp58
 70
     1
102
RTVSPropertyOp59
 70
     1
102
RTVSPropertyOp60
 70
     1
102
RTVSPropertyOp61
 70
     1
102
RTVSPropertyOp62
 70
     1
  0
XRECORD
  5
BAC
102
{ACAD_REACTORS
330
BAB
102
}
330
BAB
100
AcDbXrecord
280
     1
102
RTVSPost2010Prop28
280
     0
102
RTVSPost2010PropOp28
 70
     1
102
RTVSPost2010Prop29
280
     1
102
RTVSPost2010PropOp29
 70
     1
102
RTVSPost2010Prop30
280
     1
102
RTVSPost2010PropOp30
 70
     1
102
RTVSPost2010Prop31
280
     0
102
RTVSPost2010PropOp31
 70
     1
102
RTVSPost2010Prop32
280
     0
102
RTVSPost2010PropOp32
 70
     1
102
RTVSPost2010Prop33
280
     0
102
RTVSPost2010PropOp33
 70
     1
102
RTVSPost2010Prop34
280
     0
102
RTVSPost2010PropOp34
 70
     1
102
RTVSPost2010Prop35
280
     0
102
RTVSPost2010PropOp35
 70
     1
102
RTVSPost2010Prop36
280
     0
102
RTVSPost2010PropOp36
 70
     1
102
RTVSPost2010Prop37
 90
       50
102
RTVSPost2010PropOp37
 70
     1
102
RTVSPost2010Prop38
140
0.0
102
RTVSPost2010PropOp38
 70
     1
102
RTVSPost2010Prop39
140
1.0
102
RTVSPost2010PropOp39
 70
     1
102
RTVSPost2010Prop40
 90
        0
102
RTVSPost2010PropOp40
 70
     1
102
RTVSPost2010Prop41ColorIndex
 90
       18
102
RTVSPost2010Prop41ColorRGB
 90
        0
102
RTVSPost2010PropOp41
 70
     1
102
RTVSPost2010Prop42
 90
       50
102
RTVSPost2010PropOp42
 70
     1
102
RTVSPost2010Prop43
 90
        3
102
RTVSPost2010PropOp43
 70
     1
102
RTVSPost2010Prop44ColorIndex
 90
        5
102
RTVSPost2010Prop44ColorRGB
 90
      255
102
RTVSPost2010PropOp44
 70
     1
102
RTVSPost2010Prop45
280
     0
102
RTVSPost2010PropOp45
 70
     1
102
RTVSPost2010Prop46
 90
       50
102
RTVSPost2010PropOp46
 70
     1
102
RTVSPost2010Prop47
 90
       50
102
RTVSPost2010PropOp47
 70
     1
102
RTVSPost2010Prop48
 90
       50
102
RTVSPost2010PropOp48
 70
     1
102
RTVSPost2010Prop49
280
     0
102
RTVSPost2010PropOp49
 70
     1
102
RTVSPost2010Prop50
 90
       50
102
RTVSPost2010PropOp50
 70
     1
102
RTVSPost2010Prop51ColorIndex
 90
      256
102
RTVSPost2010Prop51ColorRGB
 90
-16777216
102
RTVSPost2010PropOp51
 70
     0
102
RTVSPost2010Prop52
140
1.0
102
RTVSPost2010PropOp52
 70
     0
102
RTVSPost2010Prop53
 90
        2
102
RTVSPost2010PropOp53
 70
     1
102
RTVSPost2010Prop54
  1
strokes_ogs.tif
102
RTVSPost2010PropOp54
 70
     1
102
RTVSPost2010Prop55
280
     0
102
RTVSPost2010PropOp55
 70
     1
102
RTVSPost2010Prop56
140
1.0
102
RTVSPost2010PropOp56
 70
     1
102
RTVSPost2010Prop57
140
1.0
102
RTVSPost2010PropOp57
 70
     1
102
RTVSPropertyOp0
 70
     1
102
RTVSPropertyOp1
 70
     1
102
RTVSPropertyOp2
 70
     1
102
RTVSPropertyOp3
 70
     1
102
RTVSPropertyOp4
 70
     1
102
RTVSPropertyOp5
 70
     1
102
RTVSPropertyOp6
 70
     1
102
RTVSPropertyOp7
 70
     1
102
RTVSPropertyOp8
 70
     1
102
RTVSPropertyOp9
 70
     1
102
RTVSPropertyOp10
 70
     1
102
RTVSPropertyOp11
 70
     1
102
RTVSPropertyOp12
 70
     1
102
RTVSPropertyOp13
 70
     1
102
RTVSPropertyOp14
 70
     1
102
RTVSPropertyOp15
 70
     1
102
RTVSPropertyOp16
 70
     1
102
RTVSPropertyOp17
 70
     1
102
RTVSPropertyOp18
 70
     1
102
RTVSPropertyOp19
 70
     1
102
RTVSPropertyOp20
 70
     1
102
RTVSPropertyOp21
 70
     1
102
RTVSPropertyOp22
 70
     1
102
RTVSPropertyOp23
 70
     1
102
RTVSPropertyOp24
 70
     1
102
RTVSPropertyOp25
 70
     1
102
RTVSPropertyOp26
 70
     1
102
RTVSPropertyOp27
 70
     1
102
RTVSPropertyOp28
 70
     1
102
RTVSPropertyOp29
 70
     1
102
RTVSPropertyOp30
 70
     1
102
RTVSPropertyOp31
 70
     1
102
RTVSPropertyOp32
 70
     1
102
RTVSPropertyOp33
 70
     1
102
RTVSPropertyOp34
 70
     1
102
RTVSPropertyOp35
 70
     1
102
RTVSPropertyOp36
 70
     1
102
RTVSPropertyOp37
 70
     1
102
RTVSPropertyOp38
 70
     1
102
RTVSPropertyOp39
 70
     1
102
RTVSPropertyOp40
 70
     1
102
RTVSPropertyOp41
 70
     1
102
RTVSPropertyOp42
 70
     1
102
RTVSPropertyOp43
 70
     1
102
RTVSPropertyOp44
 70
     1
102
RTVSPropertyOp45
 70
     1
102
RTVSPropertyOp46
 70
     1
102
RTVSPropertyOp47
 70
     1
102
RTVSPropertyOp48
 70
     1
102
RTVSPropertyOp49
 70
     1
102
RTVSPropertyOp50
 70
     1
102
RTVSPropertyOp51
 70
     0
102
RTVSPropertyOp52
 70
     0
102
RTVSPropertyOp53
 70
     1
102
RTVSPropertyOp54
 70
     1
102
RTVSPropertyOp55
 70
     1
102
RTVSPropertyOp56
 70
     1
102
RTVSPropertyOp57
 70
     1
102
RTVSPropertyOp58
 70
     1
102
RTVSPropertyOp59
 70
     1
102
RTVSPropertyOp60
 70
     1
102
RTVSPropertyOp61
 70
     1
102
RTVSPropertyOp62
 70
     1
  0
XRECORD
  5
BAE
102
{ACAD_REACTORS
330
BAD
102
}
330
BAD
100
AcDbXrecord
280
     1
102
RTVSPost2010Prop28
280
     0
102
RTVSPost2010PropOp28
 70
     1
102
RTVSPost2010Prop29
280
     1
102
RTVSPost2010PropOp29
 70
     1
102
RTVSPost2010Prop30
280
     1
102
RTVSPost2010PropOp30
 70
     1
102
RTVSPost2010Prop31
280
     0
102
RTVSPost2010PropOp31
 70
     1
102
RTVSPost2010Prop32
280
     0
102
RTVSPost2010PropOp32
 70
     1
102
RTVSPost2010Prop33
280
     0
102
RTVSPost2010PropOp33
 70
     1
102
RTVSPost2010Prop34
280
     0
102
RTVSPost2010PropOp34
 70
     1
102
RTVSPost2010Prop35
280
     0
102
RTVSPost2010PropOp35
 70
     1
102
RTVSPost2010Prop36
280
     0
102
RTVSPost2010PropOp36
 70
     1
102
RTVSPost2010Prop37
 90
       50
102
RTVSPost2010PropOp37
 70
     1
102
RTVSPost2010Prop38
140
0.0
102
RTVSPost2010PropOp38
 70
     1
102
RTVSPost2010Prop39
140
1.0
102
RTVSPost2010PropOp39
 70
     1
102
RTVSPost2010Prop40
 90
        0
102
RTVSPost2010PropOp40
 70
     1
102
RTVSPost2010Prop41ColorIndex
 90
       18
102
RTVSPost2010Prop41ColorRGB
 90
        0
102
RTVSPost2010PropOp41
 70
     1
102
RTVSPost2010Prop42
 90
       50
102
RTVSPost2010PropOp42
 70
     1
102
RTVSPost2010Prop43
 90
        3
102
RTVSPost2010PropOp43
 70
     1
102
RTVSPost2010Prop44ColorIndex
 90
        5
102
RTVSPost2010Prop44ColorRGB
 90
      255
102
RTVSPost2010PropOp44
 70
     1
102
RTVSPost2010Prop45
280
     0
102
RTVSPost2010PropOp45
 70
     1
102
RTVSPost2010Prop46
 90
       50
102
RTVSPost2010PropOp46
 70
     1
102
RTVSPost2010Prop47
 90
       50
102
RTVSPost2010PropOp47
 70
     1
102
RTVSPost2010Prop48
 90
       50
102
RTVSPost2010PropOp48
 70
     1
102
RTVSPost2010Prop49
280
     0
102
RTVSPost2010PropOp49
 70
     1
102
RTVSPost2010Prop50
 90
       50
102
RTVSPost2010PropOp50
 70
     1
102
RTVSPost2010Prop51ColorIndex
 90
      256
102
RTVSPost2010Prop51ColorRGB
 90
-16777216
102
RTVSPost2010PropOp51
 70
     0
102
RTVSPost2010Prop52
140
1.0
102
RTVSPost2010PropOp52
 70
     0
102
RTVSPost2010Prop53
 90
        2
102
RTVSPost2010PropOp53
 70
     1
102
RTVSPost2010Prop54
  1
strokes_ogs.tif
102
RTVSPost2010PropOp54
 70
     1
102
RTVSPost2010Prop55
280
     0
102
RTVSPost2010PropOp55
 70
     1
102
RTVSPost2010Prop56
140
1.0
102
RTVSPost2010PropOp56
 70
     1
102
RTVSPost2010Prop57
140
1.0
102
RTVSPost2010PropOp57
 70
     1
102
RTVSPropertyOp0
 70
     1
102
RTVSPropertyOp1
 70
     1
102
RTVSPropertyOp2
 70
     1
102
RTVSPropertyOp3
 70
     1
102
RTVSPropertyOp4
 70
     1
102
RTVSPropertyOp5
 70
     1
102
RTVSPropertyOp6
 70
     1
102
RTVSPropertyOp7
 70
     1
102
RTVSPropertyOp8
 70
     1
102
RTVSPropertyOp9
 70
     1
102
RTVSPropertyOp10
 70
     1
102
RTVSPropertyOp11
 70
     1
102
RTVSPropertyOp12
 70
     1
102
RTVSPropertyOp13
 70
     1
102
RTVSPropertyOp14
 70
     1
102
RTVSPropertyOp15
 70
     1
102
RTVSPropertyOp16
 70
     1
102
RTVSPropertyOp17
 70
     1
102
RTVSPropertyOp18
 70
     1
102
RTVSPropertyOp19
 70
     1
102
RTVSPropertyOp20
 70
     1
102
RTVSPropertyOp21
 70
     1
102
RTVSPropertyOp22
 70
     1
102
RTVSPropertyOp23
 70
     1
102
RTVSPropertyOp24
 70
     1
102
RTVSPropertyOp25
 70
     1
102
RTVSPropertyOp26
 70
     1
102
RTVSPropertyOp27
 70
     1
102
RTVSPropertyOp28
 70
     1
102
RTVSPropertyOp29
 70
     1
102
RTVSPropertyOp30
 70
     1
102
RTVSPropertyOp31
 70
     1
102
RTVSPropertyOp32
 70
     1
102
RTVSPropertyOp33
 70
     1
102
RTVSPropertyOp34
 70
     1
102
RTVSPropertyOp35
 70
     1
102
RTVSPropertyOp36
 70
     1
102
RTVSPropertyOp37
 70
     1
102
RTVSPropertyOp38
 70
     1
102
RTVSPropertyOp39
 70
     1
102
RTVSPropertyOp40
 70
     1
102
RTVSPropertyOp41
 70
     1
102
RTVSPropertyOp42
 70
     1
102
RTVSPropertyOp43
 70
     1
102
RTVSPropertyOp44
 70
     1
102
RTVSPropertyOp45
 70
     1
102
RTVSPropertyOp46
 70
     1
102
RTVSPropertyOp47
 70
     1
102
RTVSPropertyOp48
 70
     1
102
RTVSPropertyOp49
 70
     1
102
RTVSPropertyOp50
 70
     1
102
RTVSPropertyOp51
 70
     0
102
RTVSPropertyOp52
 70
     0
102
RTVSPropertyOp53
 70
     1
102
RTVSPropertyOp54
 70
     1
102
RTVSPropertyOp55
 70
     1
102
RTVSPropertyOp56
 70
     1
102
RTVSPropertyOp57
 70
     1
102
RTVSPropertyOp58
 70
     1
102
RTVSPropertyOp59
 70
     1
102
RTVSPropertyOp60
 70
     1
102
RTVSPropertyOp61
 70
     1
102
RTVSPropertyOp62
 70
     1
  0
XRECORD
  5
BA4
102
{ACAD_REACTORS
330
BA3
102
}
330
BA3
100
AcDbXrecord
280
     1
102
RTVSPost2010Prop28
280
     0
102
RTVSPost2010PropOp28
 70
     1
102
RTVSPost2010Prop29
280
     1
102
RTVSPost2010PropOp29
 70
     1
102
RTVSPost2010Prop30
280
     1
102
RTVSPost2010PropOp30
 70
     1
102
RTVSPost2010Prop31
280
     0
102
RTVSPost2010PropOp31
 70
     1
102
RTVSPost2010Prop32
280
     0
102
RTVSPost2010PropOp32
 70
     1
102
RTVSPost2010Prop33
280
     0
102
RTVSPost2010PropOp33
 70
     1
102
RTVSPost2010Prop34
280
     0
102
RTVSPost2010PropOp34
 70
     1
102
RTVSPost2010Prop35
280
     0
102
RTVSPost2010PropOp35
 70
     1
102
RTVSPost2010Prop36
280
     0
102
RTVSPost2010PropOp36
 70
     1
102
RTVSPost2010Prop37
 90
       50
102
RTVSPost2010PropOp37
 70
     1
102
RTVSPost2010Prop38
140
0.0
102
RTVSPost2010PropOp38
 70
     1
102
RTVSPost2010Prop39
140
1.0
102
RTVSPost2010PropOp39
 70
     1
102
RTVSPost2010Prop40
 90
        0
102
RTVSPost2010PropOp40
 70
     1
102
RTVSPost2010Prop41ColorIndex
 90
       18
102
RTVSPost2010Prop41ColorRGB
 90
        0
102
RTVSPost2010PropOp41
 70
     1
102
RTVSPost2010Prop42
 90
       50
102
RTVSPost2010PropOp42
 70
     1
102
RTVSPost2010Prop43
 90
        3
102
RTVSPost2010PropOp43
 70
     1
102
RTVSPost2010Prop44ColorIndex
 90
        5
102
RTVSPost2010Prop44ColorRGB
 90
      255
102
RTVSPost2010PropOp44
 70
     1
102
RTVSPost2010Prop45
280
     0
102
RTVSPost2010PropOp45
 70
     1
102
RTVSPost2010Prop46
 90
       50
102
RTVSPost2010PropOp46
 70
     1
102
RTVSPost2010Prop47
 90
       50
102
RTVSPost2010PropOp47
 70
     1
102
RTVSPost2010Prop48
 90
       50
102
RTVSPost2010PropOp48
 70
     1
102
RTVSPost2010Prop49
280
     0
102
RTVSPost2010PropOp49
 70
     1
102
RTVSPost2010Prop50
 90
       50
102
RTVSPost2010PropOp50
 70
     1
102
RTVSPost2010Prop51ColorIndex
 90
      256
102
RTVSPost2010Prop51ColorRGB
 90
-16777216
102
RTVSPost2010PropOp51
 70
     0
102
RTVSPost2010Prop52
140
1.0
102
RTVSPost2010PropOp52
 70
     0
102
RTVSPost2010Prop53
 90
        2
102
RTVSPost2010PropOp53
 70
     1
102
RTVSPost2010Prop54
  1
strokes_ogs.tif
102
RTVSPost2010PropOp54
 70
     1
102
RTVSPost2010Prop55
280
     0
102
RTVSPost2010PropOp55
 70
     1
102
RTVSPost2010Prop56
140
1.0
102
RTVSPost2010PropOp56
 70
     1
102
RTVSPost2010Prop57
140
1.0
102
RTVSPost2010PropOp57
 70
     1
102
RTVSPropertyOp0
 70
     1
102
RTVSPropertyOp1
 70
     1
102
RTVSPropertyOp2
 70
     1
102
RTVSPropertyOp3
 70
     1
102
RTVSPropertyOp4
 70
     1
102
RTVSPropertyOp5
 70
     1
102
RTVSPropertyOp6
 70
     1
102
RTVSPropertyOp7
 70
     1
102
RTVSPropertyOp8
 70
     1
102
RTVSPropertyOp9
 70
     1
102
RTVSPropertyOp10
 70
     1
102
RTVSPropertyOp11
 70
     1
102
RTVSPropertyOp12
 70
     1
102
RTVSPropertyOp13
 70
     1
102
RTVSPropertyOp14
 70
     1
102
RTVSPropertyOp15
 70
     1
102
RTVSPropertyOp16
 70
     1
102
RTVSPropertyOp17
 70
     1
102
RTVSPropertyOp18
 70
     1
102
RTVSPropertyOp19
 70
     1
102
RTVSPropertyOp20
 70
     1
102
RTVSPropertyOp21
 70
     1
102
RTVSPropertyOp22
 70
     1
102
RTVSPropertyOp23
 70
     1
102
RTVSPropertyOp24
 70
     1
102
RTVSPropertyOp25
 70
     1
102
RTVSPropertyOp26
 70
     1
102
RTVSPropertyOp27
 70
     1
102
RTVSPropertyOp28
 70
     1
102
RTVSPropertyOp29
 70
     1
102
RTVSPropertyOp30
 70
     1
102
RTVSPropertyOp31
 70
     1
102
RTVSPropertyOp32
 70
     1
102
RTVSPropertyOp33
 70
     1
102
RTVSPropertyOp34
 70
     1
102
RTVSPropertyOp35
 70
     1
102
RTVSPropertyOp36
 70
     1
102
RTVSPropertyOp37
 70
     1
102
RTVSPropertyOp38
 70
     1
102
RTVSPropertyOp39
 70
     1
102
RTVSPropertyOp40
 70
     1
102
RTVSPropertyOp41
 70
     1
102
RTVSPropertyOp42
 70
     1
102
RTVSPropertyOp43
 70
     1
102
RTVSPropertyOp44
 70
     1
102
RTVSPropertyOp45
 70
     1
102
RTVSPropertyOp46
 70
     1
102
RTVSPropertyOp47
 70
     1
102
RTVSPropertyOp48
 70
     1
102
RTVSPropertyOp49
 70
     1
102
RTVSPropertyOp50
 70
     1
102
RTVSPropertyOp51
 70
     0
102
RTVSPropertyOp52
 70
     0
102
RTVSPropertyOp53
 70
     1
102
RTVSPropertyOp54
 70
     1
102
RTVSPropertyOp55
 70
     1
102
RTVSPropertyOp56
 70
     1
102
RTVSPropertyOp57
 70
     1
102
RTVSPropertyOp58
 70
     1
102
RTVSPropertyOp59
 70
     1
102
RTVSPropertyOp60
 70
     1
102
RTVSPropertyOp61
 70
     1
102
RTVSPropertyOp62
 70
     1
  0
XRECORD
  5
B98
102
{ACAD_REACTORS
330
B97
102
}
330
B97
100
AcDbXrecord
280
     1
102
RTVSPost2010Prop28
280
     0
102
RTVSPost2010PropOp28
 70
     1
102
RTVSPost2010Prop29
280
     1
102
RTVSPost2010PropOp29
 70
     1
102
RTVSPost2010Prop30
280
     1
102
RTVSPost2010PropOp30
 70
     1
102
RTVSPost2010Prop31
280
     0
102
RTVSPost2010PropOp31
 70
     1
102
RTVSPost2010Prop32
280
     0
102
RTVSPost2010PropOp32
 70
     1
102
RTVSPost2010Prop33
280
     0
102
RTVSPost2010PropOp33
 70
     1
102
RTVSPost2010Prop34
280
     0
102
RTVSPost2010PropOp34
 70
     1
102
RTVSPost2010Prop35
280
     0
102
RTVSPost2010PropOp35
 70
     1
102
RTVSPost2010Prop36
280
     0
102
RTVSPost2010PropOp36
 70
     1
102
RTVSPost2010Prop37
 90
       50
102
RTVSPost2010PropOp37
 70
     1
102
RTVSPost2010Prop38
140
0.0
102
RTVSPost2010PropOp38
 70
     1
102
RTVSPost2010Prop39
140
1.0
102
RTVSPost2010PropOp39
 70
     1
102
RTVSPost2010Prop40
 90
        0
102
RTVSPost2010PropOp40
 70
     1
102
RTVSPost2010Prop41ColorIndex
 90
       18
102
RTVSPost2010Prop41ColorRGB
 90
        0
102
RTVSPost2010PropOp41
 70
     1
102
RTVSPost2010Prop42
 90
       50
102
RTVSPost2010PropOp42
 70
     1
102
RTVSPost2010Prop43
 90
        3
102
RTVSPost2010PropOp43
 70
     1
102
RTVSPost2010Prop44ColorIndex
 90
        5
102
RTVSPost2010Prop44ColorRGB
 90
      255
102
RTVSPost2010PropOp44
 70
     1
102
RTVSPost2010Prop45
280
     0
102
RTVSPost2010PropOp45
 70
     1
102
RTVSPost2010Prop46
 90
       50
102
RTVSPost2010PropOp46
 70
     1
102
RTVSPost2010Prop47
 90
       50
102
RTVSPost2010PropOp47
 70
     1
102
RTVSPost2010Prop48
 90
       50
102
RTVSPost2010PropOp48
 70
     1
102
RTVSPost2010Prop49
280
     0
102
RTVSPost2010PropOp49
 70
     1
102
RTVSPost2010Prop50
 90
       50
102
RTVSPost2010PropOp50
 70
     1
102
RTVSPost2010Prop51ColorIndex
 90
      256
102
RTVSPost2010Prop51ColorRGB
 90
-16777216
102
RTVSPost2010PropOp51
 70
     0
102
RTVSPost2010Prop52
140
1.0
102
RTVSPost2010PropOp52
 70
     0
102
RTVSPost2010Prop53
 90
        2
102
RTVSPost2010PropOp53
 70
     1
102
RTVSPost2010Prop54
  1
strokes_ogs.tif
102
RTVSPost2010PropOp54
 70
     1
102
RTVSPost2010Prop55
280
     0
102
RTVSPost2010PropOp55
 70
     1
102
RTVSPost2010Prop56
140
1.0
102
RTVSPost2010PropOp56
 70
     1
102
RTVSPost2010Prop57
140
1.0
102
RTVSPost2010PropOp57
 70
     1
102
RTVSPropertyOp0
 70
     1
102
RTVSPropertyOp1
 70
     1
102
RTVSPropertyOp2
 70
     1
102
RTVSPropertyOp3
 70
     1
102
RTVSPropertyOp4
 70
     1
102
RTVSPropertyOp5
 70
     1
102
RTVSPropertyOp6
 70
     1
102
RTVSPropertyOp7
 70
     1
102
RTVSPropertyOp8
 70
     1
102
RTVSPropertyOp9
 70
     1
102
RTVSPropertyOp10
 70
     1
102
RTVSPropertyOp11
 70
     1
102
RTVSPropertyOp12
 70
     1
102
RTVSPropertyOp13
 70
     1
102
RTVSPropertyOp14
 70
     1
102
RTVSPropertyOp15
 70
     1
102
RTVSPropertyOp16
 70
     1
102
RTVSPropertyOp17
 70
     1
102
RTVSPropertyOp18
 70
     1
102
RTVSPropertyOp19
 70
     1
102
RTVSPropertyOp20
 70
     1
102
RTVSPropertyOp21
 70
     1
102
RTVSPropertyOp22
 70
     1
102
RTVSPropertyOp23
 70
     1
102
RTVSPropertyOp24
 70
     1
102
RTVSPropertyOp25
 70
     1
102
RTVSPropertyOp26
 70
     1
102
RTVSPropertyOp27
 70
     1
102
RTVSPropertyOp28
 70
     1
102
RTVSPropertyOp29
 70
     1
102
RTVSPropertyOp30
 70
     1
102
RTVSPropertyOp31
 70
     1
102
RTVSPropertyOp32
 70
     1
102
RTVSPropertyOp33
 70
     1
102
RTVSPropertyOp34
 70
     1
102
RTVSPropertyOp35
 70
     1
102
RTVSPropertyOp36
 70
     1
102
RTVSPropertyOp37
 70
     1
102
RTVSPropertyOp38
 70
     1
102
RTVSPropertyOp39
 70
     1
102
RTVSPropertyOp40
 70
     1
102
RTVSPropertyOp41
 70
     1
102
RTVSPropertyOp42
 70
     1
102
RTVSPropertyOp43
 70
     1
102
RTVSPropertyOp44
 70
     1
102
RTVSPropertyOp45
 70
     1
102
RTVSPropertyOp46
 70
     1
102
RTVSPropertyOp47
 70
     1
102
RTVSPropertyOp48
 70
     1
102
RTVSPropertyOp49
 70
     1
102
RTVSPropertyOp50
 70
     1
102
RTVSPropertyOp51
 70
     0
102
RTVSPropertyOp52
 70
     0
102
RTVSPropertyOp53
 70
     1
102
RTVSPropertyOp54
 70
     1
102
RTVSPropertyOp55
 70
     1
102
RTVSPropertyOp56
 70
     1
102
RTVSPropertyOp57
 70
     1
102
RTVSPropertyOp58
 70
     1
102
RTVSPropertyOp59
 70
     1
102
RTVSPropertyOp60
 70
     1
102
RTVSPropertyOp61
 70
     1
102
RTVSPropertyOp62
 70
     1
  0
XRECORD
  5
BB0
102
{ACAD_REACTORS
330
BAF
102
}
330
BAF
100
AcDbXrecord
280
     1
102
RTVSPost2010Prop28
280
     0
102
RTVSPost2010PropOp28
 70
     1
102
RTVSPost2010Prop29
280
     1
102
RTVSPost2010PropOp29
 70
     1
102
RTVSPost2010Prop30
280
     1
102
RTVSPost2010PropOp30
 70
     1
102
RTVSPost2010Prop31
280
     0
102
RTVSPost2010PropOp31
 70
     1
102
RTVSPost2010Prop32
280
     0
102
RTVSPost2010PropOp32
 70
     1
102
RTVSPost2010Prop33
280
     0
102
RTVSPost2010PropOp33
 70
     1
102
RTVSPost2010Prop34
280
     0
102
RTVSPost2010PropOp34
 70
     1
102
RTVSPost2010Prop35
280
     0
102
RTVSPost2010PropOp35
 70
     1
102
RTVSPost2010Prop36
280
     0
102
RTVSPost2010PropOp36
 70
     1
102
RTVSPost2010Prop37
 90
       50
102
RTVSPost2010PropOp37
 70
     1
102
RTVSPost2010Prop38
140
0.0
102
RTVSPost2010PropOp38
 70
     1
102
RTVSPost2010Prop39
140
1.0
102
RTVSPost2010PropOp39
 70
     1
102
RTVSPost2010Prop40
 90
        0
102
RTVSPost2010PropOp40
 70
     1
102
RTVSPost2010Prop41ColorIndex
 90
       18
102
RTVSPost2010Prop41ColorRGB
 90
        0
102
RTVSPost2010PropOp41
 70
     1
102
RTVSPost2010Prop42
 90
       50
102
RTVSPost2010PropOp42
 70
     1
102
RTVSPost2010Prop43
 90
        3
102
RTVSPost2010PropOp43
 70
     1
102
RTVSPost2010Prop44ColorIndex
 90
        5
102
RTVSPost2010Prop44ColorRGB
 90
      255
102
RTVSPost2010PropOp44
 70
     1
102
RTVSPost2010Prop45
280
     0
102
RTVSPost2010PropOp45
 70
     1
102
RTVSPost2010Prop46
 90
       50
102
RTVSPost2010PropOp46
 70
     1
102
RTVSPost2010Prop47
 90
       50
102
RTVSPost2010PropOp47
 70
     1
102
RTVSPost2010Prop48
 90
       50
102
RTVSPost2010PropOp48
 70
     1
102
RTVSPost2010Prop49
280
     0
102
RTVSPost2010PropOp49
 70
     1
102
RTVSPost2010Prop50
 90
       50
102
RTVSPost2010PropOp50
 70
     1
102
RTVSPost2010Prop51ColorIndex
 90
      256
102
RTVSPost2010Prop51ColorRGB
 90
-16777216
102
RTVSPost2010PropOp51
 70
     0
102
RTVSPost2010Prop52
140
1.0
102
RTVSPost2010PropOp52
 70
     0
102
RTVSPost2010Prop53
 90
        2
102
RTVSPost2010PropOp53
 70
     1
102
RTVSPost2010Prop54
  1
strokes_ogs.tif
102
RTVSPost2010PropOp54
 70
     1
102
RTVSPost2010Prop55
280
     0
102
RTVSPost2010PropOp55
 70
     1
102
RTVSPost2010Prop56
140
1.0
102
RTVSPost2010PropOp56
 70
     1
102
RTVSPost2010Prop57
140
1.0
102
RTVSPost2010PropOp57
 70
     1
102
RTVSPropertyOp0
 70
     1
102
RTVSPropertyOp1
 70
     1
102
RTVSPropertyOp2
 70
     1
102
RTVSPropertyOp3
 70
     1
102
RTVSPropertyOp4
 70
     1
102
RTVSPropertyOp5
 70
     1
102
RTVSPropertyOp6
 70
     1
102
RTVSPropertyOp7
 70
     1
102
RTVSPropertyOp8
 70
     1
102
RTVSPropertyOp9
 70
     1
102
RTVSPropertyOp10
 70
     1
102
RTVSPropertyOp11
 70
     1
102
RTVSPropertyOp12
 70
     1
102
RTVSPropertyOp13
 70
     1
102
RTVSPropertyOp14
 70
     1
102
RTVSPropertyOp15
 70
     1
102
RTVSPropertyOp16
 70
     1
102
RTVSPropertyOp17
 70
     1
102
RTVSPropertyOp18
 70
     1
102
RTVSPropertyOp19
 70
     1
102
RTVSPropertyOp20
 70
     1
102
RTVSPropertyOp21
 70
     1
102
RTVSPropertyOp22
 70
     1
102
RTVSPropertyOp23
 70
     1
102
RTVSPropertyOp24
 70
     1
102
RTVSPropertyOp25
 70
     1
102
RTVSPropertyOp26
 70
     1
102
RTVSPropertyOp27
 70
     1
102
RTVSPropertyOp28
 70
     1
102
RTVSPropertyOp29
 70
     1
102
RTVSPropertyOp30
 70
     1
102
RTVSPropertyOp31
 70
     1
102
RTVSPropertyOp32
 70
     1
102
RTVSPropertyOp33
 70
     1
102
RTVSPropertyOp34
 70
     1
102
RTVSPropertyOp35
 70
     1
102
RTVSPropertyOp36
 70
     1
102
RTVSPropertyOp37
 70
     1
102
RTVSPropertyOp38
 70
     1
102
RTVSPropertyOp39
 70
     1
102
RTVSPropertyOp40
 70
     1
102
RTVSPropertyOp41
 70
     1
102
RTVSPropertyOp42
 70
     1
102
RTVSPropertyOp43
 70
     1
102
RTVSPropertyOp44
 70
     1
102
RTVSPropertyOp45
 70
     1
102
RTVSPropertyOp46
 70
     1
102
RTVSPropertyOp47
 70
     1
102
RTVSPropertyOp48
 70
     1
102
RTVSPropertyOp49
 70
     1
102
RTVSPropertyOp50
 70
     1
102
RTVSPropertyOp51
 70
     0
102
RTVSPropertyOp52
 70
     0
102
RTVSPropertyOp53
 70
     1
102
RTVSPropertyOp54
 70
     1
102
RTVSPropertyOp55
 70
     1
102
RTVSPropertyOp56
 70
     1
102
RTVSPropertyOp57
 70
     1
102
RTVSPropertyOp58
 70
     1
102
RTVSPropertyOp59
 70
     1
102
RTVSPropertyOp60
 70
     1
102
RTVSPropertyOp61
 70
     1
102
RTVSPropertyOp62
 70
     1
  0
ENDSEC
  0
EOF
