  0
SECTION
  2
HEADER
  9
$ACADVER
  1
AC1009
  9
$DWGCODEPAGE
  3
ansi_1252
  9
$INSBASE
 10
0.0
 20
0.0
 30
0.0
  9
$EXTMIN
 10
0.0304872428805982
 20
-0.005119039174541
 30
0.0
  9
$EXTMAX
 10
3.45550111431367
 20
4.078946070658446
 30
0.0
  9
$LIMMIN
 10
0.0
 20
0.0
  9
$LIMMAX
 10
12.0
 20
9.0
  9
$ORTHOMODE
 70
     0
  9
$REGENMODE
 70
     1
  9
$FILLMODE
 70
     1
  9
$QTEXTMODE
 70
     0
  9
$MIRRTEXT
 70
     1
  9
$DRAGMODE
 70
     2
  9
$LTSCALE
 40
1.0
  9
$OSMODE
 70
    37
  9
$ATTMODE
 70
     1
  9
$TEXTSIZE
 40
0.2
  9
$TRACEWID
 40
0.05
  9
$TEXTSTYLE
  7
STANDARD
  9
$CLAYER
  8
2
  9
$CELTYPE
  6
BYBLOCK
  9
$CECOLOR
 62
     1
  9
$DIMSCALE
 40
1.0
  9
$DIMASZ
 40
0.18
  9
$DIMEXO
 40
0.0625
  9
$DIMDLI
 40
0.38
  9
$DIMRND
 40
0.0
  9
$DIMDLE
 40
0.0
  9
$DIMEXE
 40
0.18
  9
$DIMTP
 40
0.0
  9
$DIMTM
 40
0.0
  9
$DIMTXT
 40
0.18
  9
$DIMCEN
 40
0.09
  9
$DIMTSZ
 40
0.0
  9
$DIMTOL
 70
     0
  9
$DIMLIM
 70
     0
  9
$DIMTIH
 70
     1
  9
$DIMTOH
 70
     1
  9
$DIMSE1
 70
     0
  9
$DIMSE2
 70
     0
  9
$DIMTAD
 70
     0
  9
$DIMZIN
 70
     0
  9
$DIMBLK
  1

  9
$DIMASO
 70
     1
  9
$DIMSHO
 70
     1
  9
$DIMPOST
  1

  9
$DIMAPOST
  1

  9
$DIMALT
 70
     0
  9
$DIMALTD
 70
     2
  9
$DIMALTF
 40
25.4
  9
$DIMLFAC
 40
1.0
  9
$DIMTOFL
 70
     0
  9
$DIMTVP
 40
0.0
  9
$DIMTIX
 70
     0
  9
$DIMSOXD
 70
     0
  9
$DIMSAH
 70
     0
  9
$DIMBLK1
  1

  9
$DIMBLK2
  1

  9
$DIMSTYLE
  2
STANDARD
  9
$DIMCLRD
 70
     0
  9
$DIMCLRE
 70
     0
  9
$DIMCLRT
 70
     0
  9
$DIMTFAC
 40
1.0
  9
$DIMGAP
 40
0.09
  9
$LUNITS
 70
     2
  9
$LUPREC
 70
     4
  9
$SKETCHINC
 40
0.1
  9
$FILLETRAD
 40
0.5
  9
$AUNITS
 70
     0
  9
$AUPREC
 70
     0
  9
$MENU
  1
.
  9
$ELEVATION
 40
0.0
  9
$PELEVATION
 40
0.0
  9
$THICKNESS
 40
0.0
  9
$LIMCHECK
 70
     0
  9
$CHAMFERA
 40
0.5
  9
$CHAMFERB
 40
0.5
  9
$SKPOLY
 70
     0
  9
$TDCREATE
 40
2453353.508792488
  9
$TDUPDATE
 40
2440662.842324445
  9
$TDINDWG
 40
2440852.080755556
  9
$TDUSRTIMER
 40
2440852.080755556
  9
$USRTIMER
 70
     1
  9
$ANGBASE
 50
0.0
  9
$ANGDIR
 70
     0
  9
$PDMODE
 70
     0
  9
$PDSIZE
 40
0.0
  9
$PLINEWID
 40
0.0
  9
$COORDS
 70
     1
  9
$SPLFRAME
 70
     0
  9
$SPLINETYPE
 70
     6
  9
$SPLINESEGS
 70
     8
  9
$ATTDIA
 70
     0
  9
$ATTREQ
 70
     1
  9
$HANDLING
 70
     1
  9
$HANDSEED
  5
96A
  9
$SURFTAB1
 70
     6
  9
$SURFTAB2
 70
     6
  9
$SURFTYPE
 70
     6
  9
$SURFU
 70
     6
  9
$SURFV
 70
     6
  9
$UCSNAME
  2

  9
$UCSORG
 10
0.0
 20
0.0
 30
0.0
  9
$UCSXDIR
 10
1.0
 20
0.0
 30
0.0
  9
$UCSYDIR
 10
0.0
 20
1.0
 30
0.0
  9
$PUCSNAME
  2

  9
$PUCSORG
 10
0.0
 20
0.0
 30
0.0
  9
$PUCSXDIR
 10
1.0
 20
0.0
 30
0.0
  9
$PUCSYDIR
 10
0.0
 20
1.0
 30
0.0
  9
$USERI1
 70
     0
  9
$USERI2
 70
     0
  9
$USERI3
 70
     0
  9
$USERI4
 70
     0
  9
$USERI5
 70
     0
  9
$USERR1
 40
0.0
  9
$USERR2
 40
0.0
  9
$USERR3
 40
0.0
  9
$USERR4
 40
0.0
  9
$USERR5
 40
0.0
  9
$WORLDVIEW
 70
     1
  9
$SHADEDGE
 70
     3
  9
$SHADEDIF
 70
    70
  9
$TILEMODE
 70
     1
  9
$MAXACTVP
 70
    64
  9
$PLIMCHECK
 70
     0
  9
$PEXTMIN
 10
0.0
 20
0.0
 30
0.0
  9
$PEXTMAX
 10
0.0
 20
0.0
 30
0.0
  9
$PLIMMIN
 10
0.0
 20
0.0
  9
$PLIMMAX
 10
0.0
 20
0.0
  9
$UNITMODE
 70
     0
  9
$VISRETAIN
 70
     1
  9
$PLINEGEN
 70
     0
  9
$PSLTSCALE
 70
     1
  0
ENDSEC
  0
SECTION
  2
TABLES
  0
TABLE
  2
VPORT
 70
     1
  0
VPORT
  2
*ACTIVE
 70
     0
 10
0.0
 20
0.0
 11
1.0
 21
1.0
 12
1.791665705227807
 22
2.363832792228946
 13
0.0
 23
0.0
 14
0.5
 24
0.5
 15
0.5
 25
0.5
 16
0.0
 26
0.0
 36
1.0
 17
0.0
 27
0.0
 37
0.0
 40
5.247549092044845
 41
1.972972972850329
 42
50.0
 43
0.0
 44
0.0
 50
0.0
 51
0.0
 71
    16
 72
   100
 73
     1
 74
     1
 75
     0
 76
     0
 77
     0
 78
     0
  0
ENDTAB
  0
TABLE
  2
LTYPE
 70
     1
  0
LTYPE
  2
CONTINUOUS
 70
     0
  3
Solid line
 72
    65
 73
     0
 40
0.0
  0
ENDTAB
  0
TABLE
  2
LAYER
 70
     4
  0
LAYER
  2
0
 70
     0
 62
     7
  6
CONTINUOUS
  0
LAYER
  2
LAYER_1
 70
     0
 62
     7
  6
CONTINUOUS
  0
LAYER
  2
1
 70
     0
 62
     7
  6
CONTINUOUS
  0
LAYER
  2
2
 70
     0
 62
     7
  6
CONTINUOUS
  0
ENDTAB
  0
TABLE
  2
STYLE
 70
     1
  0
STYLE
  2
STANDARD
 70
     0
 40
0.0
 41
1.0
 50
0.0
 71
     0
 42
0.2
  3
txt
  4

  0
ENDTAB
  0
TABLE
  2
VIEW
 70
     0
  0
ENDTAB
  0
TABLE
  2
UCS
 70
     0
  0
ENDTAB
  0
TABLE
  2
APPID
 70
     1
  0
APPID
  2
ACAD
 70
     0
  0
ENDTAB
  0
TABLE
  2
DIMSTYLE
 70
     1
  0
DIMSTYLE
  2
STANDARD
 70
     0
  3

  4

  5

  6

  7

 40
1.0
 41
0.18
 42
0.0625
 43
0.38
 44
0.18
 45
0.0
 46
0.0
 47
0.0
 48
0.0
140
0.18
141
0.09
142
0.0
143
25.4
144
1.0
145
0.0
146
1.0
147
0.09
 71
     0
 72
     0
 73
     1
 74
     1
 75
     0
 76
     0
 77
     0
 78
     0
170
     0
171
     2
172
     0
173
     0
174
     0
175
     0
176
     0
177
     0
178
     0
  0
ENDTAB
  0
ENDSEC
  0
SECTION
  2
BLOCKS
  0
BLOCK
  8
0
  2
$MODEL_SPACE
 70
     0
 10
0.0
 20
0.0
 30
0.0
  3
$MODEL_SPACE
  1

  0
ENDBLK
  5
21
  8
0
  0
BLOCK
 67
     1
  8
0
  2
$PAPER_SPACE
 70
     0
 10
0.0
 20
0.0
 30
0.0
  3
$PAPER_SPACE
  1

  0
ENDBLK
  5
76
 67
     1
  8
0
  0
ENDSEC
  0
SECTION
  2
ENTITIES
  0
CIRCLE
  5
719
  8
1
  6
BYBLOCK
 62
     7
 10
1.742145739425558
 20
3.55181414417587
 30
0.0
 40
0.0568530326473343
  0
LINE
  5
7BE
  8
2
 62
     1
 10
1.933526631257802
 20
2.56468982012251
 30
0.0
 11
1.935258918047193
 21
2.649208895660992
 31
0.0
  0
ARC
  5
91A
  8
2
  6
BYBLOCK
 62
     1
 10
2.064430661314026
 20
3.262899280829697
 30
0.0
 40
1.152529673231368
 50
334.2303453458326
 51
29.63551403139117
  0
ARC
  5
91B
  8
2
  6
BYBLOCK
 62
     1
 10
2.586421459956264
 20
3.49766446645366
 30
0.0
 40
0.5852364761670309
 50
34.93556557669194
 51
115.6017277253003
  0
ARC
  5
921
  8
2
  6
BYBLOCK
 62
     1
 10
2.701829865434609
 20
2.956392629382353
 30
0.0
 40
0.4452666312225357
 50
267.4011471063922
 51
334.090385444759
  0
ARC
  5
924
  8
2
  6
BYBLOCK
 62
     1
 10
3.261881704107012
 20
1.632612038055877
 30
0.0
 40
2.566606084035333
 50
111.2048051224253
 51
125.2720114029482
  0
ARC
  5
925
  8
2
  6
BYBLOCK
 62
     1
 10
2.725794421537004
 20
4.843782788445558
 30
0.0
 40
2.332616760886686
 50
250.1898246771033
 51
268.9153791636852
  0
ARC
  5
930
  8
2
  6
BYBLOCK
 62
     1
 10
0.2224097747441043
 20
1.632612038055877
 30
0.0
 40
2.566606084035333
 50
54.72798859705183
 51
68.7951948775747
  0
LINE
  5
931
  8
2
 62
     1
 10
1.704519243821073
 20
3.728039992503267
 30
0.0
 11
1.779707435524691
 21
3.728067267909646
 31
0.0
  0
ARC
  5
932
  8
2
  6
BYBLOCK
 62
     1
 10
0.8978700188948521
 20
3.49766446645366
 30
0.0
 40
0.5852364761670309
 50
64.39827227469969
 51
145.0644344233081
  0
ARC
  5
933
  8
2
  6
BYBLOCK
 62
     1
 10
1.41986081753709
 20
3.262899280829697
 30
0.0
 40
1.152529673231368
 50
150.3644859686088
 51
205.7696546541674
  0
ARC
  5
934
  8
2
  6
BYBLOCK
 62
     1
 10
0.782461613416507
 20
2.956392629382353
 30
0.0
 40
0.4452666312225357
 50
205.9096145552411
 51
272.5988528936078
  0
ARC
  5
935
  8
2
  6
BYBLOCK
 62
     1
 10
0.7584970573141123
 20
4.843782788445558
 30
0.0
 40
2.332616760886686
 50
271.0846208363149
 51
289.8101753228967
  0
ARC
  5
939
  8
2
  6
BYBLOCK
 62
     1
 10
1.889355617749118
 20
1.733941306440969
 30
0.0
 40
0.7996577851815333
 50
12.7813684547383
 51
56.74902601841557
  0
ARC
  5
93A
  8
2
  6
BYBLOCK
 62
     1
 10
4.77951500192931
 20
2.474681648565053
 30
0.0
 40
2.184339518149363
 50
194.9587892853505
 51
217.7471816394393
  0
ARC
  5
93B
  8
2
  6
BYBLOCK
 62
     1
 10
1.665735376931303
 20
1.352183457605221
 30
0.0
 40
1.241726151387119
 50
57.77861389974827
 51
77.5457210767492
  0
ARC
  5
93C
  8
2
  6
BYBLOCK
 62
     1
 10
4.750339138657933
 20
2.28632494571861
 30
0.0
 40
2.050156159035107
 50
214.0814816869755
 51
230.5440624111753
  0
ARC
  5
943
  8
2
  6
BYBLOCK
 62
     1
 10
3.372491493484192
 20
0.6565509711146359
 30
0.0
 40
0.0884189746175414
 50
287.735254491787
 51
31.97384513805308
  0
ARC
  5
945
  8
2
  6
BYBLOCK
 62
     1
 10
3.198234896934944
 20
1.214161016956184
 30
0.0
 40
0.6726212870097992
 50
235.7502327889192
 51
287.4044196754207
  0
ARC
  5
949
  8
2
  6
BYBLOCK
 62
     1
 10
2.794085822228515
 20
0.6049108158988034
 30
0.0
 40
0.0590977687550106
 50
64.33391481369401
 51
161.6435187904675
  0
ARC
  5
94A
  8
2
  6
BYBLOCK
 62
     1
 10
1.549652858248108
 20
0.8428203270455268
 30
0.0
 40
1.208407691608705
 50
315.4364658334985
 51
349.5442092166814
  0
ARC
  5
94E
  8
2
  6
BYBLOCK
 62
     1
 10
3.637042010179469
 20
0.3044263335579431
 30
0.0
 40
1.264892367621348
 50
176.1831136996623
 51
194.1653298394537
  0
ARC
  5
950
  8
2
  6
BYBLOCK
 62
     1
 10
-2.845348032931676
 20
0.105191762822329
 30
0.0
 40
5.227992242923611
 50
3.107817586474831
 51
25.56584204425979
  0
LINE
  5
954
  8
2
 62
     1
 10
1.552461725936466
 20
2.56468982012251
 30
0.0
 11
1.550729439147075
 21
2.649208895660992
 31
0.0
  0
ARC
  5
955
  8
2
  6
BYBLOCK
 62
     1
 10
1.820252980262966
 20
1.352183457605221
 30
0.0
 40
1.241726151387119
 50
102.4542789232508
 51
122.2213861002518
  0
ARC
  5
956
  8
2
  6
BYBLOCK
 62
     1
 10
1.596632739445151
 20
1.733941306440969
 30
0.0
 40
0.7996577851815333
 50
123.2509739815845
 51
167.2186315452617
  0
ARC
  5
957
  8
2
  6
BYBLOCK
 62
     1
 10
6.345357467081508
 20
0.1030402882747394
 30
0.0
 40
5.242109524944178
 50
154.4818961259052
 51
176.8770099852133
  0
ARC
  5
958
  8
2
  6
BYBLOCK
 62
     1
 10
-1.264350781463664
 20
2.28632494571861
 30
0.0
 40
2.050156159035107
 50
309.4559375888247
 51
325.9185183130245
  0
ARC
  5
959
  8
2
  6
BYBLOCK
 62
     1
 10
0.1134968637100764
 20
0.6565509711146359
 30
0.0
 40
0.0884189746175414
 50
148.0261548619469
 51
252.264745508213
  0
ARC
  5
95A
  8
2
  6
BYBLOCK
 62
     1
 10
0.2877534602593244
 20
1.214161016956184
 30
0.0
 40
0.6726212870097992
 50
252.5955803245793
 51
304.2497672110808
  0
ARC
  5
95B
  8
2
  6
BYBLOCK
 62
     1
 10
0.6919025349657528
 20
0.6049108158988034
 30
0.0
 40
0.0590977687550106
 50
18.35648120953256
 51
115.666085186306
  0
ARC
  5
95C
  8
2
  6
BYBLOCK
 62
     1
 10
1.93633549894616
 20
0.8428203270455268
 30
0.0
 40
1.208407691608705
 50
190.4557907833186
 51
224.5635341665015
  0
ARC
  5
95D
  8
2
  6
BYBLOCK
 62
     1
 10
-0.1510536529852007
 20
0.3044263335579431
 30
0.0
 40
1.264892367621348
 50
345.8346701605463
 51
3.816886300337711
  0
ARC
  5
95E
  8
2
  6
BYBLOCK
 62
     1
 10
-1.293526644735042
 20
2.474681648565053
 30
0.0
 40
2.184339518149363
 50
322.2528183605607
 51
345.0412107146495
  0
ARC
  5
95F
  8
2
  6
BYBLOCK
 62
     1
 10
1.742695580274247
 20
2.248287179725743
 30
0.0
 40
0.1708219724364114
 50
41.43029111179088
 51
138.5697088882091
  0
ENDSEC
  0
EOF
