  0
SECTION
  2
HEADER
  9
$ACADVER
  1
AC1018
  9
$ACADMAINTVER
 70
     0
  9
$DWGCODEPAGE
  3
ANSI_1256
  9
$INSBASE
 10
0.0
 20
0.0
 30
0.0
  9
$EXTMIN
 10
0.0
 20
0.0
 30
0.0
  9
$EXTMAX
 10
30.7944
 20
35.1936
 30
0.0
  9
$LIMMIN
 10
0.0
 20
0.0
  9
$LIMMAX
 10
12.0
 20
9.0
  9
$ORTHOMODE
 70
     0
  9
$REGENMODE
 70
     1
  9
$FILLMODE
 70
     1
  9
$QTEXTMODE
 70
     0
  9
$MIRRTEXT
 70
     1
  9
$LTSCALE
 40
1.0
  9
$ATTMODE
 70
     1
  9
$TEXTSIZE
 40
0.2
  9
$TRACEWID
 40
0.05
  9
$TEXTSTYLE
  7
Standard
  9
$CLAYER
  8
0
  9
$CELTYPE
  6
ByBlock
  9
$CECOLOR
 62
   256
  9
$CELTSCALE
 40
1.0
  9
$DISPSILH
 70
     0
  9
$DIMSCALE
 40
1.0
  9
$DIMASZ
 40
0.18
  9
$DIMEXO
 40
0.0625
  9
$DIMDLI
 40
0.38
  9
$DIMRND
 40
0.0
  9
$DIMDLE
 40
0.0
  9
$DIMEXE
 40
0.18
  9
$DIMTP
 40
0.0
  9
$DIMTM
 40
0.0
  9
$DIMTXT
 40
0.18
  9
$DIMCEN
 40
0.09
  9
$DIMTSZ
 40
0.0
  9
$DIMTOL
 70
     0
  9
$DIMLIM
 70
     0
  9
$DIMTIH
 70
     1
  9
$DIMTOH
 70
     1
  9
$DIMSE1
 70
     0
  9
$DIMSE2
 70
     0
  9
$DIMTAD
 70
     0
  9
$DIMZIN
 70
     0
  9
$DIMBLK
  1

  9
$DIMASO
 70
     1
  9
$DIMSHO
 70
     1
  9
$DIMPOST
  1

  9
$DIMAPOST
  1

  9
$DIMALT
 70
     0
  9
$DIMALTD
 70
     2
  9
$DIMALTF
 40
25.4
  9
$DIMLFAC
 40
1.0
  9
$DIMTOFL
 70
     0
  9
$DIMTVP
 40
0.0
  9
$DIMTIX
 70
     0
  9
$DIMSOXD
 70
     0
  9
$DIMSAH
 70
     0
  9
$DIMBLK1
  1

  9
$DIMBLK2
  1

  9
$DIMSTYLE
  2
Standard
  9
$DIMCLRD
 70
     0
  9
$DIMCLRE
 70
     0
  9
$DIMCLRT
 70
     0
  9
$DIMTFAC
 40
1.0
  9
$DIMGAP
 40
0.09
  9
$DIMJUST
 70
     0
  9
$DIMSD1
 70
     0
  9
$DIMSD2
 70
     0
  9
$DIMTOLJ
 70
     1
  9
$DIMTZIN
 70
     0
  9
$DIMALTZ
 70
     0
  9
$DIMALTTZ
 70
     0
  9
$DIMUPT
 70
     0
  9
$DIMDEC
 70
     4
  9
$DIMTDEC
 70
     4
  9
$DIMALTU
 70
     2
  9
$DIMALTTD
 70
     2
  9
$DIMTXSTY
  7
Standard
  9
$DIMAUNIT
 70
     0
  9
$DIMADEC
 70
     0
  9
$DIMALTRND
 40
0.0
  9
$DIMAZIN
 70
     0
  9
$DIMDSEP
 70
    46
  9
$DIMATFIT
 70
     3
  9
$DIMFRAC
 70
     0
  9
$DIMLDRBLK
  1

  9
$DIMLUNIT
 70
     2
  9
$DIMLWD
 70
    -2
  9
$DIMLWE
 70
    -2
  9
$DIMTMOVE
 70
     2
  9
$LUNITS
 70
     2
  9
$LUPREC
 70
     4
  9
$SKETCHINC
 40
0.1
  9
$FILLETRAD
 40
0.5
  9
$AUNITS
 70
     0
  9
$AUPREC
 70
     0
  9
$MENU
  1
.
  9
$ELEVATION
 40
0.0
  9
$PELEVATION
 40
0.0
  9
$THICKNESS
 40
0.0
  9
$LIMCHECK
 70
     0
  9
$CHAMFERA
 40
0.0
  9
$CHAMFERB
 40
0.0
  9
$CHAMFERC
 40
0.0
  9
$CHAMFERD
 40
0.0
  9
$SKPOLY
 70
     0
  9
$TDCREATE
 40
2457958.699470567
  9
$TDUCREATE
 40
2457958.574470567
  9
$TDUPDATE
 40
2457958.699471134
  9
$TDUUPDATE
 40
2457958.574471134
  9
$TDINDWG
 40
0.0000000116
  9
$TDUSRTIMER
 40
0.0000000116
  9
$USRTIMER
 70
     1
  9
$ANGBASE
 50
0.0
  9
$ANGDIR
 70
     0
  9
$PDMODE
 70
     0
  9
$PDSIZE
 40
0.0
  9
$PLINEWID
 40
0.0
  9
$SPLFRAME
 70
     0
  9
$SPLINETYPE
 70
     6
  9
$SPLINESEGS
 70
     8
  9
$HANDSEED
  5
F62
  9
$SURFTAB1
 70
     6
  9
$SURFTAB2
 70
     6
  9
$SURFTYPE
 70
     6
  9
$SURFU
 70
     6
  9
$SURFV
 70
     6
  9
$UCSBASE
  2

  9
$UCSNAME
  2

  9
$UCSORG
 10
0.0
 20
0.0
 30
0.0
  9
$UCSXDIR
 10
1.0
 20
0.0
 30
0.0
  9
$UCSYDIR
 10
0.0
 20
1.0
 30
0.0
  9
$UCSORTHOREF
  2

  9
$UCSORTHOVIEW
 70
     0
  9
$UCSORGTOP
 10
0.0
 20
0.0
 30
0.0
  9
$UCSORGBOTTOM
 10
0.0
 20
0.0
 30
0.0
  9
$UCSORGLEFT
 10
0.0
 20
0.0
 30
0.0
  9
$UCSORGRIGHT
 10
0.0
 20
0.0
 30
0.0
  9
$UCSORGFRONT
 10
0.0
 20
0.0
 30
0.0
  9
$UCSORGBACK
 10
0.0
 20
0.0
 30
0.0
  9
$PUCSBASE
  2

  9
$PUCSNAME
  2

  9
$PUCSORG
 10
0.0
 20
0.0
 30
0.0
  9
$PUCSXDIR
 10
1.0
 20
0.0
 30
0.0
  9
$PUCSYDIR
 10
0.0
 20
1.0
 30
0.0
  9
$PUCSORTHOREF
  2

  9
$PUCSORTHOVIEW
 70
     0
  9
$PUCSORGTOP
 10
0.0
 20
0.0
 30
0.0
  9
$PUCSORGBOTTOM
 10
0.0
 20
0.0
 30
0.0
  9
$PUCSORGLEFT
 10
0.0
 20
0.0
 30
0.0
  9
$PUCSORGRIGHT
 10
0.0
 20
0.0
 30
0.0
  9
$PUCSORGFRONT
 10
0.0
 20
0.0
 30
0.0
  9
$PUCSORGBACK
 10
0.0
 20
0.0
 30
0.0
  9
$USERI1
 70
     0
  9
$USERI2
 70
     0
  9
$USERI3
 70
     0
  9
$USERI4
 70
     0
  9
$USERI5
 70
     0
  9
$USERR1
 40
0.0
  9
$USERR2
 40
0.0
  9
$USERR3
 40
0.0
  9
$USERR4
 40
0.0
  9
$USERR5
 40
0.0
  9
$WORLDVIEW
 70
     1
  9
$SHADEDGE
 70
     3
  9
$SHADEDIF
 70
    70
  9
$TILEMODE
 70
     1
  9
$MAXACTVP
 70
    64
  9
$PINSBASE
 10
0.0
 20
0.0
 30
0.0
  9
$PLIMCHECK
 70
     0
  9
$PEXTMIN
 10
1.000000000000000E+20
 20
1.000000000000000E+20
 30
1.000000000000000E+20
  9
$PEXTMAX
 10
-1.000000000000000E+20
 20
-1.000000000000000E+20
 30
-1.000000000000000E+20
  9
$PLIMMIN
 10
0.0
 20
0.0
  9
$PLIMMAX
 10
12.0
 20
9.0
  9
$UNITMODE
 70
     0
  9
$VISRETAIN
 70
     1
  9
$PLINEGEN
 70
     0
  9
$PSLTSCALE
 70
     1
  9
$TREEDEPTH
 70
  3020
  9
$CMLSTYLE
  2
Standard
  9
$CMLJUST
 70
     0
  9
$CMLSCALE
 40
1.0
  9
$PROXYGRAPHICS
 70
     1
  9
$MEASUREMENT
 70
     0
  9
$CELWEIGHT
370
    -1
  9
$ENDCAPS
280
     0
  9
$JOINSTYLE
280
     0
  9
$LWDISPLAY
290
     0
  9
$INSUNITS
 70
     0
  9
$HYPERLINKBASE
  1

  9
$STYLESHEET
  1

  9
$XEDIT
290
     1
  9
$CEPSNTYPE
380
     0
  9
$PSTYLEMODE
290
     1
  9
$FINGERPRINTGUID
  2
{374710EC-1866-44FE-B45D-DB00B78F17A9}
  9
$VERSIONGUID
  2
{FAEB1C32-E019-11D5-929B-00C0DF256EC4}
  9
$EXTNAMES
290
     1
  9
$PSVPSCALE
 40
0.0
  9
$OLESTARTUP
290
     0
  9
$SORTENTS
280
   127
  9
$INDEXCTL
280
     0
  9
$HIDETEXT
280
     1
  9
$XCLIPFRAME
290
     0
  9
$HALOGAP
280
     0
  9
$OBSCOLOR
 70
   257
  9
$OBSLTYPE
280
     0
  9
$INTERSECTIONDISPLAY
280
     0
  9
$INTERSECTIONCOLOR
 70
   257
  9
$DIMASSOC
280
     2
  9
$PROJECTNAME
  1

  0
ENDSEC
  0
SECTION
  2
CLASSES
  0
CLASS
  1
ACDBDICTIONARYWDFLT
  2
AcDbDictionaryWithDefault
  3
ObjectDBX Classes
 90
        0
 91
        4
280
     0
281
     0
  0
CLASS
  1
SCALE
  2
AcDbScale
  3
ObjectDBX Classes
 90
     1153
 91
        4
280
     0
281
     0
  0
CLASS
  1
VISUALSTYLE
  2
AcDbVisualStyle
  3
ObjectDBX Classes
 90
     4095
 91
        4
280
     0
281
     0
  0
CLASS
  1
MATERIAL
  2
AcDbMaterial
  3
ObjectDBX Classes
 90
     1153
 91
        4
280
     0
281
     0
  0
CLASS
  1
TABLESTYLE
  2
AcDbTableStyle
  3
ObjectDBX Classes
 90
     4095
 91
        4
280
     0
281
     0
  0
CLASS
  1
MLEADERSTYLE
  2
AcDbMLeaderStyle
  3
ACDB_MLEADERSTYLE_CLASS
 90
     4095
 91
        4
280
     0
281
     0
  0
CLASS
  1
DICTIONARYVAR
  2
AcDbDictionaryVar
  3
ObjectDBX Classes
 90
        0
 91
        4
280
     0
281
     0
  0
CLASS
  1
CELLSTYLEMAP
  2
AcDbCellStyleMap
  3
ObjectDBX Classes
 90
     1152
 91
        4
280
     0
281
     0
  0
ENDSEC
  0
SECTION
  2
TABLES
  0
TABLE
  2
VPORT
  5
8
102
{ACAD_XDICTIONARY
360
F1B
102
}
330
0
100
AcDbSymbolTable
 70
     1
  0
VPORT
  5
21
330
8
100
AcDbSymbolTableRecord
100
AcDbViewportTableRecord
  2
*Active
 70
     0
 10
0.0
 20
0.0
 11
1.0
 21
1.0
 12
10.42990654205607
 22
4.5
 13
0.0
 23
0.0
 14
0.5
 24
0.5
 15
0.5
 25
0.5
 16
0.0
 26
0.0
 36
1.0
 17
0.0
 27
0.0
 37
0.0
 40
9.0
 41
1.972972972850329
 42
50.0
 43
0.0
 44
0.0
 50
0.0
 51
0.0
 71
     0
 72
   100
 73
     1
 74
     3
 75
     0
 76
     0
 77
     0
 78
     0
281
     0
 65
     1
110
0.0
120
0.0
130
0.0
111
1.0
121
0.0
131
0.0
112
0.0
122
1.0
132
0.0
 79
     0
146
0.0
  0
ENDTAB
  0
TABLE
  2
LTYPE
  5
5
330
0
100
AcDbSymbolTable
 70
     1
  0
LTYPE
  5
14
330
5
100
AcDbSymbolTableRecord
100
AcDbLinetypeTableRecord
  2
ByBlock
 70
     0
  3

 72
    65
 73
     0
 40
0.0
  0
LTYPE
  5
15
330
5
100
AcDbSymbolTableRecord
100
AcDbLinetypeTableRecord
  2
ByLayer
 70
     0
  3

 72
    65
 73
     0
 40
0.0
  0
LTYPE
  5
16
330
5
100
AcDbSymbolTableRecord
100
AcDbLinetypeTableRecord
  2
Continuous
 70
     0
  3
Solid line
 72
    65
 73
     0
 40
0.0
  0
ENDTAB
  0
TABLE
  2
LAYER
  5
2
330
0
100
AcDbSymbolTable
 70
     1
  0
LAYER
  5
10
330
2
100
AcDbSymbolTableRecord
100
AcDbLayerTableRecord
  2
0
 70
     0
 62
     7
  6
Continuous
370
    -3
390
F
  0
ENDTAB
  0
TABLE
  2
STYLE
  5
3
330
0
100
AcDbSymbolTable
 70
     1
  0
STYLE
  5
11
330
3
100
AcDbSymbolTableRecord
100
AcDbTextStyleTableRecord
  2
Standard
 70
     0
 40
0.0
 41
1.0
 50
0.0
 71
     0
 42
0.2
  3
txt
  4

  0
ENDTAB
  0
TABLE
  2
VIEW
  5
6
330
0
100
AcDbSymbolTable
 70
     0
  0
ENDTAB
  0
TABLE
  2
UCS
  5
7
330
0
100
AcDbSymbolTable
 70
     0
  0
ENDTAB
  0
TABLE
  2
APPID
  5
9
330
0
100
AcDbSymbolTable
 70
     2
  0
APPID
  5
12
330
9
100
AcDbSymbolTableRecord
100
AcDbRegAppTableRecord
  2
ACAD
 70
     0
  0
APPID
  5
F59
330
9
100
AcDbSymbolTableRecord
100
AcDbRegAppTableRecord
  2
ACAD_MLEADERVER
 70
     0
  0
ENDTAB
  0
TABLE
  2
DIMSTYLE
  5
A
330
0
100
AcDbSymbolTable
 70
     1
100
AcDbDimStyleTable
  0
DIMSTYLE
105
20
330
A
100
AcDbSymbolTableRecord
100
AcDbDimStyleTableRecord
  2
Standard
 70
     0
178
     0
340
11
  0
ENDTAB
  0
TABLE
  2
BLOCK_RECORD
  5
1
330
0
100
AcDbSymbolTable
 70
     0
  0
BLOCK_RECORD
  5
1D
330
1
100
AcDbSymbolTableRecord
100
AcDbBlockTableRecord
  2
*Model_Space
340
1E
  0
BLOCK_RECORD
  5
1B
330
1
100
AcDbSymbolTableRecord
100
AcDbBlockTableRecord
  2
*Paper_Space
340
1C
  0
ENDTAB
  0
ENDSEC
  0
SECTION
  2
BLOCKS
  0
BLOCK
  5
EF6
330
1D
100
AcDbEntity
  8
0
100
AcDbBlockBegin
  2
*Model_Space
 70
     0
 10
0.0
 20
0.0
 30
0.0
  3
*Model_Space
  1

  0
ENDBLK
  5
EF7
330
1D
100
AcDbEntity
  8
0
100
AcDbBlockEnd
  0
BLOCK
  5
EF8
330
1B
100
AcDbEntity
 67
     1
  8
0
100
AcDbBlockBegin
  2
*Paper_Space
 70
     0
 10
0.0
 20
0.0
 30
0.0
  3
*Paper_Space
  1

  0
ENDBLK
  5
EF9
330
1B
100
AcDbEntity
 67
     1
  8
0
100
AcDbBlockEnd
  0
ENDSEC
  0
SECTION
  2
ENTITIES
  0
LWPOLYLINE
  5
22
330
1D
100
AcDbEntity
  8
0
100
AcDbPolyline
 90
       20
 70
     1
 43
0.0
 10
15.410035
 20
30.19548
 42
0.000319
 10
10.677883
 20
30.189464
 42
0.000526
 10
6.676463
 20
30.177611
 42
0.00003
 10
3.071543
 20
30.162923
 42
0.093947
 10
2.98215
 20
30.145594
 42
0.304477
 10
2.920277
 20
30.05532
 42
0.000328
 10
2.8978
 20
27.579699
 42
0.001776
 10
2.880664
 20
24.060955
 42
0.000329
 10
2.8764
 20
17.58975
 10
2.8764
 20
5.076
 10
15.438905
 20
5.076
 10
28.001411
 20
5.076
 10
28.000651
 20
17.588268
 42
0.000239
 10
27.996652
 20
25.015881
 42
0.002425
 10
27.978548
 20
28.102407
 42
0.001079
 10
27.953783
 20
30.026271
 42
0.306424
 10
27.86603
 20
30.151904
 42
0.09093
 10
27.753545
 20
30.17296
 42
0.000046
 10
24.151864
 20
30.185894
 42
0.000642
 10
20.144109
 20
30.194771
 42
0.000391
  0
LWPOLYLINE
  5
38
330
1D
100
AcDbEntity
  8
0
100
AcDbPolyline
 90
        8
 70
     1
 43
0.0
 10
15.41835
 20
29.166152
 10
26.9451
 20
29.1447
 10
26.966552
 20
17.61795
 10
26.988004
 20
6.0912
 10
15.439802
 20
6.0912
 10
3.8916
 20
6.0912
 10
3.8916
 20
17.639402
 10
3.8916
 20
29.187604
  0
LWPOLYLINE
  5
42
330
1D
100
AcDbEntity
  8
0
100
AcDbPolyline
 90
        8
 70
     1
 43
0.0
 10
15.3972
 20
28.2564
 10
4.7376
 20
28.2564
 10
4.7376
 20
17.5968
 10
4.7376
 20
6.9372
 10
15.3972
 20
6.9372
 10
26.0568
 20
6.9372
 10
26.0568
 20
17.5968
 10
26.0568
 20
28.2564
  0
LWPOLYLINE
  5
4C
330
1D
100
AcDbEntity
  8
0
100
AcDbPolyline
 90
      108
 70
     1
 43
0.0
 10
23.957162
 20
27.674589
 42
-0.021355
 10
24.048435
 20
27.56321
 42
-0.024458
 10
24.125559
 20
27.449235
 42
-0.024631
 10
24.180751
 20
27.347418
 42
-0.112341
 10
24.1956
 20
27.282165
 42
0.048686
 10
24.200274
 20
27.234282
 42
0.070352
 10
24.214238
 20
27.194175
 42
0.092533
 10
24.234835
 20
27.167641
 42
0.193149
 10
24.25905
 20
27.15895
 42
0.151034
 10
24.295702
 20
27.171784
 42
0.01238
 10
24.376692
 20
27.234821
 42
0.01572
 10
24.470841
 20
27.316993
 42
0.011443
 10
24.570433
 20
27.413933
 42
-0.037774
 10
24.689051
 20
27.517817
 42
-0.023929
 10
24.841249
 20
27.621031
 42
-0.024
 10
25.001411
 20
27.708544
 42
-0.040269
 10
25.144198
 20
27.764188
 42
-0.017885
 10
25.306233
 20
27.806483
 42
-0.054036
 10
25.419462
 20
27.819172
 42
-0.083553
 10
25.502252
 20
27.805549
 42
-0.114393
 10
25.56612
 20
27.76572
 42
-0.11372
 10
25.605985
 20
27.701982
 42
-0.083804
 10
25.619727
 20
27.619581
 42
-0.054313
 10
25.607242
 20
27.507041
 42
-0.018023
 10
25.565293
 20
27.346152
 42
-0.041447
 10
25.509701
 20
27.204482
 42
-0.024611
 10
25.421737
 20
27.045737
 42
-0.024522
 10
25.317692
 20
26.895032
 42
-0.038403
 10
25.212688
 20
26.777709
 42
0.013015
 10
25.114754
 20
26.678867
 42
0.017739
 10
25.032108
 20
26.584501
 42
0.014688
 10
24.969633
 20
26.50307
 42
0.157549
 10
24.957
 20
26.463972
 42
0.170636
 10
24.966223
 20
26.437733
 42
0.094234
 10
24.99237
 20
26.415402
 42
0.074763
 10
25.031348
 20
26.400298
 42
0.055166
 10
25.077409
 20
26.3952
 42
-0.109375
 10
25.140749
 20
26.381177
 42
-0.022926
 10
25.242015
 20
26.328249
 42
-0.023016
 10
25.356151
 20
26.254529
 42
-0.020003
 10
25.468686
 20
26.16728
 10
25.739553
 20
25.93936
 10
25.523703
 20
25.753694
 42
-0.049265
 10
25.411212
 20
25.674751
 42
-0.020674
 10
25.246302
 20
25.590542
 42
-0.020215
 10
25.061158
 20
25.51436
 42
-0.024764
 10
24.882468
 20
25.459005
 10
24.457083
 20
25.349982
 10
24.664742
 20
25.157531
 42
-0.041297
 10
24.744203
 20
25.070652
 42
-0.037231
 10
24.8114
 20
24.968948
 42
-0.039229
 10
24.857713
 20
24.868236
 42
-0.08838
 10
24.8724
 20
24.785797
 42
-0.014882
 10
24.869297
 20
24.681554
 42
-0.294437
 10
24.85125
 20
24.656918
 42
-0.280965
 10
24.820567
 20
24.662562
 42
-0.01392
 10
24.74278
 20
24.736134
 42
0.069311
 10
24.671441
 20
24.790029
 42
0.026516
 10
24.559458
 20
24.844895
 42
0.025644
 10
24.429848
 20
24.892395
 42
0.028647
 10
24.300723
 20
24.924367
 42
0.043206
 10
24.145548
 20
24.939794
 42
0.016943
 10
23.930342
 20
24.935241
 42
0.016621
 10
23.696644
 20
24.914558
 42
0.019899
 10
23.478593
 20
24.879076
 42
0.020302
 10
23.256252
 20
24.824265
 42
0.013996
 10
23.009225
 20
24.745058
 42
0.014134
 10
22.775542
 20
24.655349
 42
0.027835
 10
22.596485
 20
24.568751
 42
-0.009829
 10
22.451361
 20
24.492002
 42
-0.015556
 10
22.32381
 20
24.432623
 42
-0.009545
 10
22.217708
 20
24.389566
 42
-0.296184
 10
22.191197
 20
24.395203
 42
-0.293598
 10
22.185624
 20
24.420817
 42
-0.013385
 10
22.220776
 20
24.507901
 42
-0.018732
 10
22.271543
 20
24.613563
 42
-0.011924
 10
22.338054
 20
24.732695
 42
0.026165
 10
22.415437
 20
24.88107
 42
0.012503
 10
22.499887
 20
25.078931
 42
0.012357
 10
22.577989
 20
25.290465
 42
0.017204
 10
22.636588
 20
25.483607
 42
0.015005
 10
22.68216
 20
25.678102
 42
0.011405
 10
22.720788
 20
25.893627
 42
0.011561
 10
22.747746
 20
26.097586
 42
0.026301
 10
22.756396
 20
26.252712
 42
0.026157
 10
22.749644
 20
26.389855
 42
0.021483
 10
22.728533
 20
26.534979
 42
0.022005
 10
22.697457
 20
26.66686
 42
0.05232
 10
22.660135
 20
26.760312
 42
0.022518
 10
22.61606
 20
26.835614
 42
0.020535
 10
22.564098
 20
26.909076
 42
0.021032
 10
22.512208
 20
26.970838
 42
0.060387
 10
22.469785
 20
27.007255
 42
-0.165329
 10
22.451383
 20
27.031243
 42
-0.347538
 10
22.45879
 20
27.052031
 42
-0.111497
 10
22.499548
 20
27.066333
 42
-0.027191
 10
22.57109
 20
27.070705
 42
-0.083951
 10
22.659405
 20
27.056376
 42
-0.040447
 10
22.76491
 20
27.01062
 42
-0.038611
 10
22.869938
 20
26.943708
 42
-0.044771
 10
22.957931
 20
26.864342
 10
23.150382
 20
26.656683
 10
23.25725
 20
27.073661
 42
-0.023032
 10
23.311156
 20
27.249828
 42
-0.018374
 10
23.384809
 20
27.434364
 42
-0.018741
 10
23.465839
 20
27.600423
 42
-0.043795
 10
23.541421
 20
27.716043
 10
23.718724
 20
27.941447
  0
LWPOLYLINE
  5
BA
330
1D
100
AcDbEntity
  8
0
100
AcDbPolyline
 90
      116
 70
     1
 43
0.0
 10
5.401505
 20
27.8334
 42
-0.06763
 10
5.478682
 20
27.822913
 42
-0.016956
 10
5.600182
 20
27.784793
 42
-0.017005
 10
5.737392
 20
27.731269
 42
-0.016386
 10
5.872385
 20
27.66793
 42
-0.023744
 10
6.005525
 20
27.591882
 42
-0.020747
 10
6.137186
 20
27.500268
 42
-0.021267
 10
6.24927
 20
27.407394
 42
-0.056388
 10
6.31807
 20
27.32953
 42
0.028531
 10
6.370302
 20
27.263338
 42
0.033773
 10
6.427056
 20
27.207398
 42
0.035987
 10
6.480285
 20
27.167874
 42
0.142646
 10
6.518997
 20
27.1566
 42
0.143253
 10
6.549429
 20
27.165502
 42
0.099578
 10
6.575358
 20
27.190525
 42
0.084128
 10
6.592828
 20
27.227945
 42
0.067334
 10
6.5988
 20
27.272091
 42
-0.094937
 10
6.610105
 20
27.331093
 42
-0.024866
 10
6.650306
 20
27.419136
 42
-0.02434
 10
6.707028
 20
27.516674
 42
-0.022783
 10
6.77414
 20
27.610491
 42
-0.030934
 10
6.850235
 20
27.695801
 42
-0.034337
 10
6.933813
 20
27.76792
 42
-0.036677
 10
7.012736
 20
27.818504
 42
-0.124803
 10
7.071484
 20
27.8334
 42
-0.149877
 10
7.129331
 20
27.815661
 42
-0.039897
 10
7.205499
 20
27.754716
 42
-0.03675
 10
7.285057
 20
27.668064
 42
-0.030734
 10
7.356383
 20
27.565539
 42
-0.031478
 10
7.422911
 20
27.438819
 42
-0.017817
 10
7.48804
 20
27.27804
 42
-0.017734
 10
7.542367
 20
27.110627
 42
-0.027746
 10
7.575829
 20
26.962964
 10
7.632378
 20
26.628249
 10
7.838113
 20
26.850124
 42
-0.038751
 10
7.930045
 20
26.935026
 42
-0.036258
 10
8.035961
 20
27.006824
 42
-0.038353
 10
8.13959
 20
27.056445
 42
-0.092739
 10
8.222736
 20
27.072
 42
-0.015317
 10
8.332087
 20
27.068649
 42
-0.33442
 10
8.355021
 20
27.049067
 42
-0.233715
 10
8.346619
 20
27.014816
 42
-0.008953
 10
8.257996
 20
26.913293
 42
0.056904
 10
8.199493
 20
26.831671
 42
0.026948
 10
8.142597
 20
26.715172
 42
0.026293
 10
8.095569
 20
26.585473
 42
0.033614
 10
8.06684
 20
26.461704
 42
0.04166
 10
8.055427
 20
26.31493
 42
0.015498
 10
8.063019
 20
26.107933
 42
0.015232
 10
8.085295
 20
25.881631
 42
0.017798
 10
8.120576
 20
25.668661
 42
0.020481
 10
8.174257
 20
25.449981
 42
0.01395
 10
8.252287
 20
25.206025
 42
0.014076
 10
8.34092
 20
24.974506
 42
0.02732
 10
8.426755
 20
24.796085
 42
-0.00762
 10
8.503471
 20
24.651485
 42
-0.012212
 10
8.563996
 20
24.525586
 42
-0.006034
 10
8.610348
 20
24.419413
 42
-0.305221
 10
8.606205
 20
24.398205
 42
-0.302668
 10
8.584306
 20
24.393821
 42
-0.003779
 10
8.446287
 20
24.451812
 42
-0.009542
 10
8.284631
 20
24.524861
 42
-0.005918
 10
8.097565
 20
24.616458
 42
0.02351
 10
7.879276
 20
24.713981
 42
0.015858
 10
7.622163
 20
24.805346
 42
0.015996
 10
7.367308
 20
24.878005
 42
0.03037
 10
7.157677
 20
24.917239
 42
0.016949
 10
6.963501
 20
24.934841
 42
0.014406
 10
6.757734
 20
24.940542
 42
0.014646
 10
6.570012
 20
24.934833
 42
0.039148
 10
6.437511
 20
24.916438
 42
0.030836
 10
6.327403
 20
24.885031
 42
0.025408
 10
6.214427
 20
24.83855
 42
0.026138
 10
6.114872
 20
24.785015
 42
0.060009
 10
6.04803
 20
24.732544
 42
-0.014047
 10
5.973439
 20
24.662031
 42
-0.26574
 10
5.94315
 20
24.655583
 42
-0.307127
 10
5.925268
 20
24.678383
 42
-0.017286
 10
5.922
 20
24.772878
 42
-0.090492
 10
5.936148
 20
24.850409
 42
-0.037376
 10
5.981341
 20
24.947485
 42
-0.035419
 10
6.046709
 20
25.046991
 42
-0.038139
 10
6.124011
 20
25.13367
 10
6.326023
 20
25.328099
 10
5.813468
 20
25.5021
 42
-0.019551
 10
5.610549
 20
25.579957
 42
-0.022771
 10
5.424655
 20
25.669983
 42
-0.022546
 10
5.276263
 20
25.759259
 42
-0.112106
 10
5.209606
 20
25.829276
 42
-0.082201
 10
5.175263
 20
25.916909
 42
-0.149944
 10
5.18197
 20
25.992758
 42
-0.09585
 10
5.235157
 20
26.074475
 42
-0.021761
 10
5.355668
 20
26.188826
 42
-0.023171
 10
5.455511
 20
26.267819
 42
-0.025489
 10
5.5592
 20
26.334578
 42
-0.026058
 10
5.652791
 20
26.381997
 42
-0.104593
 10
5.715218
 20
26.3952
 42
0.050183
 10
5.761972
 20
26.399904
 42
0.07016
 10
5.801509
 20
26.413919
 42
0.090298
 10
5.828106
 20
26.434598
 42
0.184512
 10
5.8374
 20
26.458925
 42
0.158967
 10
5.825613
 20
26.495061
 42
0.014872
 10
5.767451
 20
26.569951
 42
0.017919
 10
5.690482
 20
26.65667
 42
0.013136
 10
5.599275
 20
26.747401
 42
-0.04391
 10
5.500479
 20
26.858575
 42
-0.024972
 10
5.400493
 20
27.008287
 42
-0.024776
 10
5.31419
 20
27.170343
 42
-0.037194
 10
5.256958
 20
27.319916
 42
-0.018542
 10
5.220811
 20
27.459143
 42
-0.023634
 10
5.198415
 20
27.589865
 42
-0.02263
 10
5.190031
 20
27.698295
 42
-0.147427
 10
5.203975
 20
27.75054
 42
-0.103773
 10
5.234183
 20
27.782298
 42
-0.051652
 10
5.283124
 20
27.80906
 42
-0.04812
 10
5.341737
 20
27.827257
 42
-0.051259
  0
LWPOLYLINE
  5
130
330
1D
100
AcDbEntity
  8
0
100
AcDbPolyline
 90
     2240
 70
     1
 43
0.0
 10
11.33977
 20
27.495
 42
-0.062867
 10
11.428298
 20
27.483825
 42
-0.01841
 10
11.560035
 20
27.444807
 42
-0.01818
 10
11.706382
 20
27.389534
 42
-0.018569
 10
11.847276
 20
27.324129
 42
-0.040158
 10
11.990811
 20
27.235728
 42
-0.02453
 10
12.14544
 20
27.110343
 42
-0.02451
 10
12.287342
 20
26.970134
 42
-0.039467
 10
12.391968
 20
26.836294
 42
-0.023516
 10
12.476321
 20
26.694797
 42
-0.017528
 10
12.556283
 20
26.531562
 42
-0.017807
 10
12.620901
 20
26.372027
 42
-0.037977
 10
12.656789
 20
26.244005
 42
0.020756
 10
12.683275
 20
26.135258
 42
0.025295
 10
12.71732
 20
26.036181
 42
0.025136
 10
12.753612
 20
25.957429
 42
0.134588
 10
12.785527
 20
25.923147
 42
0.378771
 10
12.813669
 20
25.927994
 42
0.0918
 10
12.837967
 20
25.973223
 42
0.051199
 10
12.854839
 20
26.053322
 42
0.025086
 10
12.860592
 20
26.157557
 42
-0.050139
 10
12.874455
 20
26.288891
 42
-0.023451
 10
12.917183
 20
26.454672
 42
-0.022959
 10
12.978703
 20
26.625828
 42
-0.029778
 10
13.05129
 20
26.7759
 42
-0.039396
 10
13.157341
 20
26.934704
 42
-0.03808
 10
13.288099
 20
27.076856
 42
-0.037152
 10
13.442181
 20
27.200626
 42
-0.033772
 10
13.617724
 20
27.30465
 42
-0.015459
 10
13.773908
 20
27.377514
 42
-0.016385
 10
13.931328
 20
27.439085
 42
-0.016198
 10
14.069867
 20
27.483107
 42
-0.068928
 10
14.155728
 20
27.495
 42
-0.078242
 10
14.23511
 20
27.482502
 42
-0.204061
 10
14.277869
 20
27.445381
 42
-0.1265
 10
14.292416
 20
27.374209
 42
-0.023924
 10
14.279354
 20
27.2412
 42
0.023517
 10
14.265306
 20
27.099333
 42
0.156423
 10
14.283253
 20
27.0315
 42
0.207752
 10
14.334199
 20
26.997232
 42
0.045646
 10
14.441669
 20
26.9874
 42
-0.042412
 10
14.537997
 20
26.979214
 42
-0.017694
 10
14.66576
 20
26.952659
 42
-0.017356
 10
14.801291
 20
26.914415
 42
-0.021514
 10
14.924289
 20
26.869132
 42
-0.01793
 10
15.03665
 20
26.817379
 42
-0.02037
 10
15.140213
 20
26.75969
 42
-0.020035
 10
15.223454
 20
26.704074
 42
-0.097338
 10
15.261868
 20
26.662643
 42
-0.303443
 10
15.260694
 20
26.629731
 42
-0.198211
 10
15.227235
 20
26.609006
 42
-0.064421
 10
15.147239
 20
26.60624
 42
-0.016694
 10
15.019112
 20
26.622664
 42
0.032255
 10
14.888257
 20
26.635316
 42
0.041725
 10
14.767835
 20
26.629109
 42
0.047647
 10
14.666601
 20
26.605392
 42
0.092103
 10
14.594216
 20
26.564994
 42
0.060859
 10
14.545372
 20
26.513243
 42
0.044027
 10
14.504087
 20
26.445441
 42
0.044597
 10
14.475936
 20
26.372819
 42
0.070284
 10
14.4666
 20
26.306732
 42
-0.09441
 10
14.452125
 20
26.230755
 42
-0.027867
 10
14.402263
 20
26.122674
 42
-0.026893
 10
14.331406
 20
26.004931
 42
-0.026005
 10
14.24758
 20
25.894091
 42
0.020798
 10
14.167682
 20
25.7907
 42
0.05221
 10
14.12106
 20
25.70774
 42
0.118653
 10
14.112013
 20
25.655502
 42
0.395379
 10
14.135168
 20
25.6338
 42
-0.092229
 10
14.186841
 20
25.624187
 42
-0.031484
 10
14.256421
 20
25.592206
 42
-0.030047
 10
14.330502
 20
25.546394
 42
-0.030419
 10
14.398238
 20
25.492205
 42
-0.037539
 10
14.485842
 20
25.400069
 42
-0.221948
 10
14.501777
 20
25.337225
 42
-0.133571
 10
14.466803
 20
25.265566
 42
-0.011091
 10
14.325621
 20
25.111505
 10
14.096544
 20
24.8724
 10
15.3972
 20
24.8724
 10
16.697856
 20
24.8724
 10
16.468779
 20
25.111505
 42
-0.011091
 10
16.327597
 20
25.265566
 42
-0.133571
 10
16.292623
 20
25.337225
 42
-0.221948
 10
16.308558
 20
25.400069
 42
-0.037539
 10
16.396162
 20
25.492205
 42
-0.030419
 10
16.463898
 20
25.546394
 42
-0.030047
 10
16.537979
 20
25.592206
 42
-0.031484
 10
16.607559
 20
25.624187
 42
-0.092229
 10
16.659232
 20
25.6338
 42
0.395379
 10
16.682387
 20
25.655502
 42
0.118653
 10
16.67334
 20
25.70774
 42
0.05221
 10
16.626718
 20
25.7907
 42
0.020798
 10
16.54682
 20
25.894091
 42
-0.026005
 10
16.462994
 20
26.004931
 42
-0.026893
 10
16.392137
 20
26.122674
 42
-0.027867
 10
16.342275
 20
26.230755
 42
-0.09441
 10
16.3278
 20
26.306732
 42
0.070284
 10
16.318464
 20
26.372819
 42
0.044597
 10
16.290313
 20
26.445441
 42
0.044027
 10
16.249028
 20
26.513243
 42
0.060859
 10
16.200184
 20
26.564994
 42
0.092103
 10
16.127799
 20
26.605392
 42
0.047647
 10
16.026565
 20
26.629109
 42
0.041725
 10
15.906143
 20
26.635316
 42
0.032255
 10
15.775288
 20
26.622664
 42
-0.016694
 10
15.647161
 20
26.60624
 42
-0.064421
 10
15.567165
 20
26.609006
 42
-0.198211
 10
15.533706
 20
26.629731
 42
-0.303443
 10
15.532532
 20
26.662643
 42
-0.097338
 10
15.570946
 20
26.704074
 42
-0.020035
 10
15.654187
 20
26.75969
 42
-0.02037
 10
15.75775
 20
26.817379
 42
-0.01793
 10
15.870111
 20
26.869132
 42
-0.021514
 10
15.993109
 20
26.914415
 42
-0.017356
 10
16.12864
 20
26.952659
 42
-0.017694
 10
16.256403
 20
26.979214
 42
-0.042412
 10
16.352731
 20
26.9874
 42
0.046384
 10
16.461104
 20
26.997475
 42
0.213415
 10
16.511717
 20
27.032543
 42
0.152504
 10
16.528944
 20
27.102433
 42
0.021185
 10
16.513353
 20
27.252734
 10
16.47441
 20
27.518068
 10
16.802955
 20
27.457109
 42
-0.038069
 10
16.949348
 20
27.418235
 42
-0.022099
 10
17.118393
 20
27.350746
 42
-0.022001
 10
17.282815
 20
27.267632
 42
-0.034331
 10
17.415427
 20
27.180623
 42
-0.035848
 10
17.532775
 20
27.0775
 42
-0.02475
 10
17.65059
 20
26.945502
 42
-0.025039
 10
17.751715
 20
26.806549
 42
-0.04585
 10
17.817277
 20
26.682865
 42
-0.022943
 10
17.862433
 20
26.559121
 42
-0.017705
 10
17.90056
 20
26.420613
 42
-0.018023
 10
17.926962
 20
26.288448
 42
-0.040304
 10
17.9352
 20
26.186417
 42
0.037633
 10
17.941383
 20
26.104382
 42
0.056475
 10
17.960051
 20
26.035126
 42
0.074156
 10
17.987397
 20
25.987824
 42
0.228504
 10
18.0198
 20
25.9722
 42
0.213499
 10
18.052158
 20
25.986677
 42
0.080164
 10
18.079549
 20
26.029463
 42
0.060987
 10
18.098198
 20
26.092502
 42
0.041476
 10
18.1044
 20
26.167137
 42
-0.079295
 10
18.120466
 20
26.267806
 42
-0.021134
 10
18.177671
 20
26.420348
 42
-0.020879
 10
18.258359
 20
26.590504
 42
-0.02016
 10
18.353834
 20
26.75539
 42
-0.030724
 10
18.479539
 20
26.929034
 42
-0.029189
 10
18.62761
 20
27.089131
 42
-0.030335
 10
18.786043
 20
27.224043
 42
-0.043275
 10
18.942663
 20
27.321853
 42
-0.018342
 10
19.085265
 20
27.388129
 42
-0.018067
 10
19.233054
 20
27.444138
 42
-0.018273
 10
19.365861
 20
27.483709
 42
-0.063344
 10
19.45463
 20
27.495
 42
-0.069282
 10
19.530551
 20
27.484429
 42
-0.125363
 10
19.584479
 20
27.453113
 42
-0.127185
 10
19.616367
 20
27.400186
 42
-0.072435
 10
19.6272
 20
27.3258
 42
0.067109
 10
19.63592
 20
27.261123
 42
0.083977
 10
19.661434
 20
27.206302
 42
0.099524
 10
19.699299
 20
27.169641
 42
0.14369
 10
19.743741
 20
27.1566
 42
0.086594
 10
19.795997
 20
27.165718
 42
0.04354
 10
19.856985
 20
27.193877
 42
0.041499
 10
19.916691
 20
27.234944
 42
0.048188
 10
19.9656
 20
27.2835
 42
-0.087876
 10
20.023055
 20
27.332167
 42
-0.043365
 10
20.109874
 20
27.373123
 42
-0.041246
 10
20.210029
 20
27.401022
 42
-0.047342
 10
20.308851
 20
27.4104
 42
-0.032614
 10
20.417177
 20
27.403327
 42
-0.018487
 10
20.546851
 20
27.381417
 42
-0.018398
 10
20.676447
 20
27.349546
 42
-0.028716
 10
20.784943
 20
27.311734
 42
-0.014536
 10
20.92911
 20
27.247035
 42
-0.55812
 10
20.932077
 20
27.217984
 42
-0.127418
 10
20.87664
 20
27.19448
 42
-0.002624
 10
20.575996
 20
27.151414
 42
0.028393
 10
20.384337
 20
27.113799
 42
0.021192
 10
20.178089
 20
27.051589
 42
0.021571
 10
19.98819
 20
26.97608
 42
0.044814
 10
19.849267
 20
26.89816
 42
0.028515
 10
19.728449
 20
26.804828
 42
0.017335
 10
19.596279
 20
26.68184
 42
0.017349
 10
19.473265
 20
26.550324
 42
0.029154
 10
19.380698
 20
26.430812
 42
0.028665
 10
19.299628
 20
26.296609
 42
0.014252
 10
19.211807
 20
26.118278
 42
0.014097
 10
19.131054
 20
25.92776
 42
0.020097
 10
19.071077
 20
25.754087
 42
0.013289
 10
19.024914
 20
25.584491
 42
0.011933
 10
18.985987
 20
25.406505
 42
0.012058
 10
18.958731
 20
25.245139
 42
0.036359
 10
18.950872
 20
25.133904
 42
0.028267
 10
18.957102
 20
25.027837
 42
0.01198
 10
18.976873
 20
24.886671
 42
0.011809
 10
19.005227
 20
24.736587
 42
0.015141
 10
19.038723
 20
24.600077
 42
0.033888
 10
19.087676
 20
24.461093
 42
0.020248
 10
19.163439
 20
24.302998
 42
0.020221
 10
19.252063
 20
24.150982
 42
0.032825
 10
19.340586
 20
24.030555
 42
0.044969
 10
19.446087
 20
23.925891
 42
0.027897
 10
19.586573
 20
23.822217
 42
0.027877
 10
19.737964
 20
23.734683
 42
0.044379
 10
19.8768
 20
23.679263
 42
0.032709
 10
20.061399
 20
23.636877
 42
0.055571
 10
20.219474
 20
23.629081
 42
0.047269
 10
20.392196
 20
23.656284
 42
0.017501
 10
20.628707
 20
23.725752
 42
0.010765
 10
20.893669
 20
23.820139
 42
0.109919
 10
20.990409
 20
23.883894
 42
0.195815
 10
21.024159
 20
23.967809
 42
0.048302
 10
21.008906
 20
24.118522
 42
-0.021292
 10
20.984877
 20
24.272486
 42
-0.23053
 10
21.005331
 20
24.330143
 42
-0.201197
 10
21.06536
 20
24.354095
 42
-0.016029
 10
21.239799
 20
24.345455
 42
0.034473
 10
21.387829
 20
24.343586
 42
0.09768
 10
21.487423
 20
24.369126
 42
0.109088
 10
21.563455
 20
24.428513
 42
0.049328
 10
21.634361
 20
24.534
 42
0.056028
 10
21.675079
 20
24.635563
 42
0.030984
 10
21.702632
 20
24.766497
 42
0.030463
 10
21.714333
 20
24.904557
 42
0.042091
 10
21.70682
 20
25.028619
 42
-0.012951
 10
21.68583
 20
25.204587
 42
-0.19122
 10
21.703
 20
25.26318
 42
-0.269308
 10
21.752192
 20
25.282926
 42
-0.025379
 10
21.884905
 20
25.256693
 42
0.026834
 10
22.019683
 20
25.230458
 42
0.294497
 10
22.067379
 20
25.252575
 42
0.173336
 10
22.081633
 20
25.316163
 42
0.009536
 10
22.052321
 20
25.52149
 42
0.031071
 10
22.021095
 20
25.659187
 42
0.022276
 10
21.96999
 20
25.808554
 42
0.022608
 10
21.908291
 20
25.946933
 42
0.044205
 10
21.844931
 20
26.049589
 42
0.023029
 10
21.769971
 20
26.1409
 42
0.013453
 10
21.672375
 20
26.243515
 42
0.013435
 10
21.568937
 20
26.341179
 42
0.022128
 10
21.475848
 20
26.417319
 42
0.047629
 10
21.369846
 20
26.481748
 42
0.023905
 10
21.225574
 20
26.543282
 42
0.023496
 10
21.069018
 20
26.593149
 42
0.032024
 10
20.923794
 20
26.622188
 42
0.032908
 10
20.759538
 20
26.633299
 42
0.038301
 10
20.603506
 20
26.621604
 42
0.039824
 10
20.456514
 20
26.587034
 42
0.041689
 10
20.3192
 20
26.52996
 42
0.046202
 10
20.207521
 20
26.458443
 42
0.029725
 10
20.091968
 20
26.356816
 42
0.029805
 10
19.989885
 20
26.242841
 42
0.04843
 10
19.919366
 20
26.133793
 42
0.03948
 10
19.866866
 20
26.009038
 42
0.040602
 10
19.835221
 20
25.878738
 42
0.04215
 10
19.825827
 20
25.750003
 42
0.051243
 10
19.839554
 20
25.629912
 42
0.06236
 10
19.878336
 20
25.520542
 42
0.031386
 10
19.952244
 20
25.393842
 42
0.030588
 10
20.04629
 20
25.270638
 42
0.039559
 10
20.147511
 20
25.170787
 42
0.033405
 10
20.259089
 20
25.088968
 42
0.030338
 10
20.384127
 20
25.0198
 42
0.031658
 10
20.503775
 20
24.971827
 42
0.079675
 10
20.596232
 20
24.957
 42
0.055091
 10
20.678241
 20
24.966063
 42
0.043154
 10
20.76365
 20
24.993083
 42
0.044438
 10
20.839621
 20
25.032776
 42
0.0771
 10
20.892827
 20
25.079836
 42
0.063343
 10
20.929724
 20
25.137884
 42
0.04454
 10
20.95634
 20
25.210648
 42
0.044842
 10
20.969472
 20
25.286231
 42
0.068269
 10
20.965887
 20
25.352661
 42
0.082225
 10
20.942296
 20
25.416428
 42
0.04652
 10
20.894882
 20
25.484066
 42
0.044856
 10
20.832781
 20
25.545106
 42
0.055242
 10
20.764733
 20
25.589375
 42
-0.06382
 10
20.679385
 20
25.646998
 42
-0.137224
 10
20.636467
 20
25.712975
 42
-0.101396
 10
20.627019
 20
25.805383
 42
-0.025687
 10
20.649926
 20
25.955343
 42
-0.012095
 10
20.675453
 20
26.065795
 42
-0.01519
 10
20.704656
 20
26.166708
 42
-0.013365
 10
20.733653
 20
26.248993
 42
-0.105354
 10
20.755553
 20
26.282753
 42
-0.17031
 10
20.787466
 20
26.298091
 42
-0.032933
 10
20.852405
 20
26.301001
 42
-0.031628
 10
20.932194
 20
26.29426
 42
-0.0246
 10
21.017621
 20
26.277235
 42
-0.07812
 10
21.1102
 20
26.237894
 42
-0.043595
 10
21.208303
 20
26.164103
 42
-0.041746
 10
21.297888
 20
26.068964
 42
-0.048698
 10
21.365327
 20
25.9648
 42
-0.039399
 10
21.418029
 20
25.839621
 42
-0.040877
 10
21.449661
 20
25.709249
 42
-0.042418
 10
21.458899
 20
25.580325
 42
-0.050781
 10
21.44497
 20
25.459456
 42
-0.056287
 10
21.408538
 20
25.352626
 42
-0.033675
 10
21.343147
 20
25.235294
 42
-0.033367
 10
21.261232
 20
25.125839
 42
-0.048812
 10
21.174395
 20
25.042631
 42
-0.049202
 10
21.072296
 20
24.977448
 42
-0.032414
 10
20.944138
 20
24.922498
 42
-0.03256
 10
20.811123
 20
24.884946
 42
-0.052864
 10
20.694441
 20
24.872716
 42
-0.048713
 10
20.574019
 20
24.884622
 42
-0.026033
 10
20.428902
 20
24.921361
 42
-0.025663
 10
20.283334
 20
24.974716
 42
-0.036244
 10
20.160558
 20
25.03787
 42
-0.047155
 10
20.035828
 20
25.131085
 42
-0.049078
 10
19.932609
 20
25.244883
 42
-0.047513
 10
19.850897
 20
25.380076
 42
-0.039422
 10
19.790093
 20
25.536891
 42
-0.025469
 10
19.742895
 20
25.729618
 42
-0.0697
 10
19.735894
 20
25.869339
 42
-0.068165
 10
19.767522
 20
26.007383
 42
-0.023577
 10
19.848935
 20
26.19547
 42
-0.039331
 10
19.930696
 20
26.333659
 42
-0.025125
 10
20.045646
 20
26.480819
 42
-0.025213
 10
20.173698
 20
26.614531
 42
-0.042279
 10
20.295361
 20
26.711334
 42
-0.037327
 10
20.425525
 20
26.784649
 42
-0.027505
 10
20.579026
 20
26.846557
 42
-0.028032
 10
20.731522
 20
26.88914
 42
-0.054117
 10
20.85736
 20
26.9028
 42
0.037279
 10
20.97286
 20
26.911423
 42
0.056324
 10
21.070182
 20
26.937478
 42
0.069828
 10
21.141858
 20
26.977904
 42
0.138735
 10
21.180594
 20
27.0297
 42
-0.105525
 10
21.21216
 20
27.078232
 42
-0.066613
 10
21.266122
 20
27.119323
 42
-0.062452
 10
21.333181
 20
27.147127
 42
-0.067176
 10
21.403371
 20
27.1566
 42
-0.123729
 10
21.493474
 20
27.133957
 42
-0.025837
 10
21.633937
 20
27.048979
 42
-0.025639
 10
21.790788
 20
26.93048
 42
-0.021785
 10
21.943823
 20
26.79023
 42
-0.022949
 10
22.108348
 20
26.609867
 42
-0.033976
 10
22.233659
 20
26.436436
 42
-0.038952
 10
22.320652
 20
26.269299
 42
-0.054201
 10
22.369457
 20
26.107953
 42
-0.040416
 10
22.385579
 20
25.954472
 42
-0.017656
 10
22.383236
 20
25.749596
 42
-0.017338
 10
22.365402
 20
25.531049
 42
-0.022153
 10
22.333139
 20
25.331628
 42
-0.031784
 10
22.276408
 20
25.125229
 42
-0.018243
 10
22.183457
 20
24.884343
 42
-0.018173
 10
22.071936
 20
24.648126
 42
-0.028735
 10
21.957804
 20
24.455499
 42
0.015356
 10
21.839252
 20
24.267088
 42
0.039709
 10
21.769228
 20
24.122696
 42
0.059073
 10
21.741774
 20
24.017016
 42
0.234551
 10
21.762546
 20
23.955294
 42
0.219066
 10
21.820842
 20
23.933745
 42
0.072562
 10
21.912006
 20
23.954332
 42
0.04673
 10
22.034345
 20
24.015002
 42
0.018289
 10
22.191072
 20
24.120016
 42
-0.029408
 10
22.355741
 20
24.225126
 42
-0.0161
 10
22.568502
 20
24.335112
 42
-0.015999
 10
22.792497
 20
24.433248
 42
-0.02451
 10
22.992828
 20
24.502296
 42
-0.022055
 10
23.21898
 20
24.557353
 42
-0.026864
 10
23.434713
 20
24.587973
 42
-0.028289
 10
23.642349
 20
24.594351
 42
-0.03047
 10
23.844226
 20
24.57679
 42
-0.035289
 10
24.059852
 20
24.52897
 42
-0.058267
 10
24.231122
 20
24.455507
 42
-0.050642
 10
24.396487
 20
24.336752
 42
-0.020377
 10
24.59745
 20
24.143925
 42
-0.020851
 10
24.735093
 20
23.988128
 42
-0.024618
 10
24.851382
 20
23.829532
 42
-0.024594
 10
24.934984
 20
23.688238
 42
-0.121875
 10
24.957
 20
23.599259
 42
-0.06857
 10
24.947524
 20
23.530488
 42
-0.062881
 10
24.919723
 20
23.464631
 42
-0.066719
 10
24.878629
 20
23.411494
 42
-0.103584
 10
24.8301
 20
23.380194
 42
0.138735
 10
24.778304
 20
23.341458
 42
0.069828
 10
24.737878
 20
23.269782
 42
0.056324
 10
24.711823
 20
23.17246
 42
0.037279
 10
24.7032
 20
23.05696
 42
-0.054117
 10
24.68954
 20
22.931122
 42
-0.028032
 10
24.646957
 20
22.778626
 42
-0.027505
 10
24.585049
 20
22.625125
 42
-0.037327
 10
24.511734
 20
22.494961
 42
-0.042279
 10
24.414931
 20
22.373298
 42
-0.025213
 10
24.281219
 20
22.245246
 42
-0.025125
 10
24.134059
 20
22.130296
 42
-0.039331
 10
23.99587
 20
22.048535
 42
-0.023577
 10
23.807783
 20
21.967122
 42
-0.068165
 10
23.669739
 20
21.935494
 42
-0.0697
 10
23.530018
 20
21.942495
 42
-0.025469
 10
23.337291
 20
21.989693
 42
-0.039422
 10
23.180476
 20
22.050497
 42
-0.047513
 10
23.045283
 20
22.132209
 42
-0.049078
 10
22.931485
 20
22.235428
 42
-0.047155
 10
22.83827
 20
22.360158
 42
-0.036244
 10
22.775116
 20
22.482934
 42
-0.025663
 10
22.721761
 20
22.628502
 42
-0.026033
 10
22.685022
 20
22.773619
 42
-0.048713
 10
22.673116
 20
22.894041
 42
-0.052864
 10
22.685346
 20
23.010723
 42
-0.03256
 10
22.722898
 20
23.143738
 42
-0.032414
 10
22.777848
 20
23.271896
 42
-0.049202
 10
22.843031
 20
23.373995
 42
-0.04944
 10
22.926507
 20
23.460894
 42
-0.033422
 10
23.036805
 20
23.542991
 42
-0.033677
 10
23.155354
 20
23.608638
 42
-0.055603
 10
23.263638
 20
23.645401
 42
-0.049623
 10
23.390824
 20
23.660355
 42
-0.052162
 10
23.516286
 20
23.649494
 42
-0.049207
 10
23.642928
 20
23.611851
 42
-0.036594
 10
23.77369
 20
23.546999
 42
-0.041866
 10
23.876675
 20
23.473904
 42
-0.036286
 10
23.971473
 20
23.381341
 42
-0.037966
 10
24.045114
 20
23.284247
 42
-0.081955
 10
24.082343
 20
23.198463
 42
-0.026928
 10
24.097557
 20
23.120221
 42
-0.033734
 10
24.102784
 20
23.046494
 42
-0.035877
 10
24.098656
 20
22.986228
 42
-0.162735
 10
24.083153
 20
22.955153
 42
-0.105354
 10
24.049393
 20
22.933253
 42
-0.013365
 10
23.967108
 20
22.904256
 42
-0.01519
 10
23.866195
 20
22.875053
 42
-0.012095
 10
23.755743
 20
22.849526
 42
-0.025687
 10
23.605783
 20
22.826619
 42
-0.101396
 10
23.513375
 20
22.836067
 42
-0.137224
 10
23.447398
 20
22.878985
 42
-0.06382
 10
23.389775
 20
22.964333
 42
0.055242
 10
23.345506
 20
23.032381
 42
0.044856
 10
23.284466
 20
23.094482
 42
0.04652
 10
23.216828
 20
23.141896
 42
0.082225
 10
23.153061
 20
23.165487
 42
0.068269
 10
23.086631
 20
23.169072
 42
0.044842
 10
23.011048
 20
23.15594
 42
0.04454
 10
22.938284
 20
23.129324
 42
0.063343
 10
22.880236
 20
23.092427
 42
0.075529
 10
22.833182
 20
23.039561
 42
0.044513
 10
22.793483
 20
22.964695
 42
0.043382
 10
22.76646
 20
22.880877
 42
0.056353
 10
22.7574
 20
22.80075
 42
0.066774
 10
22.769179
 20
22.712943
 42
0.031592
 10
22.80626
 20
22.604636
 42
0.030615
 10
22.860063
 20
22.49445
 42
0.037785
 10
22.923733
 20
22.39956
 42
0.041387
 10
23.006434
 20
22.310652
 42
0.024401
 10
23.118383
 20
22.21825
 42
0.024299
 10
23.24006
 20
22.136313
 42
0.037859
 10
23.352799
 20
22.079275
 42
0.031752
 10
23.504014
 20
22.027613
 42
0.079183
 10
23.619805
 20
22.015094
 42
0.073832
 10
23.738551
 20
22.038885
 42
0.024964
 10
23.901743
 20
22.106932
 42
0.048056
 10
24.021575
 20
22.178927
 42
0.031405
 10
24.145009
 20
22.28286
 42
0.031528
 10
24.253563
 20
22.400528
 42
0.051257
 10
24.327969
 20
22.514177
 42
0.040621
 10
24.386419
 20
22.653959
 42
0.040215
 10
24.421738
 20
22.801822
 42
0.038838
 10
24.433716
 20
22.958207
 42
0.033047
 10
24.422588
 20
23.123394
 42
0.032024
 10
24.393549
 20
23.268618
 42
0.023496
 10
24.343682
 20
23.425174
 42
0.023905
 10
24.282148
 20
23.569446
 42
0.047629
 10
24.217719
 20
23.675448
 42
0.022703
 10
24.141106
 20
23.768896
 42
0.013449
 10
24.041897
 20
23.873482
 42
0.013444
 10
23.937074
 20
23.972711
 42
0.022449
 10
23.843118
 20
24.049661
 42
0.048222
 10
23.739912
 20
24.112223
 42
0.028609
 10
23.606806
 20
24.167153
 42
0.028436
 10
23.466437
 20
24.207111
 42
0.043134
 10
23.340745
 20
24.224089
 42
0.018441
 10
23.179475
 20
24.22589
 42
0.139871
 10
23.10763
 20
24.203378
 42
0.228225
 10
23.076903
 20
24.152168
 42
0.057339
 10
23.079192
 20
24.052132
 42
-0.049479
 10
23.083117
 20
23.950348
 42
-0.252958
 10
23.054272
 20
23.903911
 42
-0.150948
 10
22.986788
 20
23.888835
 42
-0.016144
 10
22.825392
 20
23.907008
 42
0.042672
 10
22.702897
 20
23.914258
 42
0.030389
 10
22.565873
 20
23.902317
 42
0.030857
 10
22.435592
 20
23.874632
 42
0.055595
 10
22.3344
 20
23.833961
 42
0.049328
 10
22.228913
 20
23.763055
 42
0.109088
 10
22.169526
 20
23.687023
 42
0.09768
 10
22.143986
 20
23.587429
 42
0.034473
 10
22.145855
 20
23.439399
 42
-0.016029
 10
22.154495
 20
23.26496
 42
-0.201197
 10
22.130543
 20
23.204931
 42
-0.23053
 10
22.072886
 20
23.184477
 42
-0.021292
 10
21.918922
 20
23.208506
 42
0.047293
 10
21.768482
 20
23.224038
 42
0.194368
 10
21.684897
 20
23.19108
 42
0.111853
 10
21.621653
 20
23.096312
 42
0.011256
 10
21.529664
 20
22.838881
 42
0.023211
 10
21.47694
 20
22.651492
 42
0.025597
 10
21.443828
 20
22.466024
 42
0.027698
 10
21.432094
 20
22.298933
 42
0.057796
 10
21.445197
 20
22.169313
 42
0.037179
 10
21.478519
 20
22.057861
 42
0.021322
 10
21.53415
 20
21.928982
 42
0.021213
 10
21.601482
 20
21.803518
 42
0.0329
 10
21.670919
 20
21.702183
 42
0.031519
 10
21.752703
 20
21.610709
 42
0.020484
 10
21.857708
 20
21.515352
 42
0.020605
 10
21.96831
 20
21.430375
 42
0.03642
 10
22.06692
 20
21.371116
 42
0.027614
 10
22.176111
 20
21.323257
 42
0.01327
 10
22.320754
 20
21.273497
 42
0.013113
 10
22.474803
 20
21.229438
 42
0.018282
 10
22.614827
 20
21.198746
 42
0.038506
 10
22.770219
 20
21.182801
 42
0.017544
 10
22.974506
 20
21.184805
 42
0.017252
 10
23.190723
 20
21.202007
 42
0.022704
 10
23.386074
 20
21.233391
 42
0.025696
 10
23.582028
 20
21.284695
 42
0.017208
 10
23.800369
 20
21.362389
 42
0.017352
 10
24.007245
 20
21.452545
 42
0.032406
 10
24.166602
 20
21.541781
 42
0.027637
 10
24.308024
 20
21.645005
 42
0.018399
 10
24.458591
 20
21.77775
 42
0.018546
 10
24.595572
 20
21.917792
 42
0.034145
 10
24.694385
 20
22.042775
 42
0.044115
 10
24.773906
 20
22.184088
 42
0.021645
 10
24.850763
 20
22.375899
 42
0.021287
 10
24.913902
 20
22.583497
 42
0.028921
 10
24.951814
 20
22.775596
 42
-0.002624
 10
24.99488
 20
23.07624
 42
-0.127418
 10
25.018384
 20
23.131677
 42
-0.55812
 10
25.047435
 20
23.12871
 42
-0.014536
 10
25.112134
 20
22.984543
 42
-0.028716
 10
25.149946
 20
22.876047
 42
-0.018398
 10
25.181817
 20
22.746451
 42
-0.018487
 10
25.203727
 20
22.616777
 42
-0.032614
 10
25.2108
 20
22.508451
 42
-0.047342
 10
25.201422
 20
22.409629
 42
-0.041246
 10
25.173523
 20
22.309474
 42
-0.043365
 10
25.132567
 20
22.222655
 42
-0.087876
 10
25.0839
 20
22.1652
 42
0.048188
 10
25.035344
 20
22.116291
 42
0.041499
 10
24.994277
 20
22.056585
 42
0.04354
 10
24.966118
 20
21.995597
 42
0.086594
 10
24.957
 20
21.943341
 42
0.14369
 10
24.970041
 20
21.898899
 42
0.099524
 10
25.006702
 20
21.861034
 42
0.083977
 10
25.061523
 20
21.83552
 42
0.067109
 10
25.1262
 20
21.8268
 42
-0.072435
 10
25.200586
 20
21.815967
 42
-0.127185
 10
25.253513
 20
21.784079
 42
-0.125363
 10
25.284829
 20
21.730151
 42
-0.069282
 10
25.2954
 20
21.65423
 42
-0.062867
 10
25.284225
 20
21.565702
 42
-0.01841
 10
25.245207
 20
21.433965
 42
-0.01818
 10
25.189934
 20
21.287618
 42
-0.018569
 10
25.124529
 20
21.146724
 42
-0.040158
 10
25.036128
 20
21.003189
 42
-0.02453
 10
24.910743
 20
20.84856
 42
-0.02451
 10
24.770534
 20
20.706658
 42
-0.039467
 10
24.636694
 20
20.602032
 42
-0.023387
 10
24.495324
 20
20.517705
 42
-0.017503
 10
24.332479
 20
20.43782
 42
-0.017786
 10
24.173501
 20
20.373307
 42
-0.038152
 10
24.046166
 20
20.337563
 42
0.024458
 10
23.941368
 20
20.311216
 42
0.036175
 10
23.85296
 20
20.277177
 42
0.039892
 10
23.78953
 20
20.240894
 42
0.247758
 10
23.7726
 20
20.208825
 42
0.249429
 10
23.78772
 20
20.180402
 42
0.065171
 10
23.835526
 20
20.156545
 42
0.050419
 10
23.904759
 20
20.140191
 42
0.032814
 10
23.986817
 20
20.1348
 42
-0.040304
 10
24.088848
 20
20.126562
 42
-0.018023
 10
24.221013
 20
20.10016
 42
-0.017705
 10
24.359521
 20
20.062033
 42
-0.022943
 10
24.483265
 20
20.016877
 42
-0.04585
 10
24.606949
 20
19.951315
 42
-0.025039
 10
24.745902
 20
19.85019
 42
-0.02475
 10
24.8779
 20
19.732375
 42
-0.035848
 10
24.981023
 20
19.615027
 42
-0.034331
 10
25.068032
 20
19.482415
 42
-0.022001
 10
25.151146
 20
19.317993
 42
-0.022099
 10
25.218635
 20
19.148948
 42
-0.038069
 10
25.257509
 20
19.002555
 10
25.318468
 20
18.67401
 10
25.053134
 20
18.712953
 42
0.021185
 10
24.902833
 20
18.728544
 42
0.152504
 10
24.832943
 20
18.711317
 42
0.213415
 10
24.797875
 20
18.660704
 42
0.046384
 10
24.7878
 20
18.552331
 42
-0.042412
 10
24.779614
 20
18.456003
 42
-0.017694
 10
24.753059
 20
18.32824
 42
-0.017356
 10
24.714815
 20
18.192709
 42
-0.021514
 10
24.669532
 20
18.069711
 42
-0.01793
 10
24.617779
 20
17.95735
 42
-0.02037
 10
24.56009
 20
17.853787
 42
-0.020035
 10
24.504474
 20
17.770546
 42
-0.097338
 10
24.463043
 20
17.732132
 42
-0.303443
 10
24.430131
 20
17.733306
 42
-0.198211
 10
24.409406
 20
17.766765
 42
-0.064421
 10
24.40664
 20
17.846761
 42
-0.016694
 10
24.423064
 20
17.974888
 42
0.032255
 10
24.435716
 20
18.105743
 42
0.041725
 10
24.429509
 20
18.226165
 42
0.047647
 10
24.405792
 20
18.327399
 42
0.092103
 10
24.365394
 20
18.399784
 42
0.060859
 10
24.313643
 20
18.448628
 42
0.044027
 10
24.245841
 20
18.489913
 42
0.044597
 10
24.173219
 20
18.518064
 42
0.070284
 10
24.107132
 20
18.5274
 42
-0.09441
 10
24.031155
 20
18.541875
 42
-0.027867
 10
23.923074
 20
18.591737
 42
-0.026893
 10
23.805331
 20
18.662594
 42
-0.026005
 10
23.694491
 20
18.74642
 42
0.020798
 10
23.5911
 20
18.826318
 42
0.05221
 10
23.50814
 20
18.87294
 42
0.118653
 10
23.455902
 20
18.881987
 42
0.395379
 10
23.4342
 20
18.858832
 42
-0.092229
 10
23.424587
 20
18.807159
 42
-0.031484
 10
23.392606
 20
18.737579
 42
-0.030047
 10
23.346794
 20
18.663498
 42
-0.030419
 10
23.292605
 20
18.595762
 42
-0.037539
 10
23.200469
 20
18.508158
 42
-0.221948
 10
23.137625
 20
18.492223
 42
-0.133571
 10
23.065966
 20
18.527197
 42
-0.011091
 10
22.911905
 20
18.668379
 10
22.6728
 20
18.897456
 10
22.6728
 20
17.5968
 10
22.6728
 20
16.296144
 10
22.911905
 20
16.525221
 42
-0.011091
 10
23.065966
 20
16.666403
 42
-0.133571
 10
23.137625
 20
16.701377
 42
-0.221948
 10
23.200469
 20
16.685442
 42
-0.037539
 10
23.292605
 20
16.597838
 42
-0.030419
 10
23.346794
 20
16.530102
 42
-0.030047
 10
23.392606
 20
16.456021
 42
-0.031484
 10
23.424587
 20
16.386441
 42
-0.092229
 10
23.4342
 20
16.334768
 42
0.395379
 10
23.455902
 20
16.311613
 42
0.118653
 10
23.50814
 20
16.32066
 42
0.05221
 10
23.5911
 20
16.367282
 42
0.020798
 10
23.694491
 20
16.44718
 42
-0.026005
 10
23.805331
 20
16.531006
 42
-0.026893
 10
23.923074
 20
16.601863
 42
-0.027867
 10
24.031155
 20
16.651725
 42
-0.09441
 10
24.107132
 20
16.6662
 42
0.070284
 10
24.173219
 20
16.675536
 42
0.044597
 10
24.245841
 20
16.703687
 42
0.044027
 10
24.313643
 20
16.744972
 42
0.060859
 10
24.365394
 20
16.793816
 42
0.093574
 10
24.406461
 20
16.867906
 42
0.048182
 10
24.430023
 20
16.971703
 42
0.041205
 10
24.435627
 20
17.097326
 42
0.029132
 10
24.422078
 20
17.237966
 10
24.37285
 20
17.5545
 10
24.538647
 20
17.35401
 42
-0.049761
 10
24.606005
 20
17.253739
 42
-0.025146
 10
24.67116
 20
17.115987
 42
-0.024697
 10
24.724711
 20
16.965623
 42
-0.03356
 10
24.756934
 20
16.82526
 42
0.020579
 10
24.795165
 20
16.636389
 42
0.127596
 10
24.841736
 20
16.550055
 42
0.165778
 10
24.918237
 20
16.508884
 42
0.041311
 10
25.061828
 20
16.497
 42
-0.025322
 10
25.21677
 20
16.489148
 42
-0.233614
 10
25.272086
 20
16.454448
 42
-0.172871
 10
25.287364
 20
16.382477
 42
-0.013067
 10
25.25525
 20
16.182606
 42
-0.032121
 10
25.219998
 20
16.044357
 42
-0.020405
 10
25.162272
 20
15.88849
 42
-0.020485
 10
25.092787
 20
15.739528
 42
-0.035352
 10
25.021554
 20
15.622848
 42
-0.04877
 10
24.929846
 20
15.51749
 42
-0.024842
 10
24.796298
 20
15.403299
 42
-0.024421
 10
24.645636
 20
15.29824
 42
-0.03346
 10
24.50007
 20
15.22
 42
-0.022871
 10
24.349011
 20
15.159567
 42
-0.018434
 10
24.181852
 20
15.108231
 42
-0.018811
 10
24.023727
 20
15.072293
 42
-0.044635
 10
23.90373
 20
15.060658
 42
0.025416
 10
23.811188
 20
15.05526
 42
0.073687
 10
23.749311
 20
15.039051
 42
0.213083
 10
23.727322
 20
15.015334
 42
0.303753
 10
23.73453
 20
14.988462
 42
0.07344
 10
23.78586
 20
14.955393
 42
0.012418
 10
23.893544
 20
14.909755
 42
0.01334
 10
24.023833
 20
14.862292
 42
0.011512
 10
24.162995
 20
14.819298
 42
-0.025123
 10
24.312749
 20
14.768528
 42
-0.017899
 10
24.475024
 20
14.69744
 42
-0.018133
 10
24.625274
 20
14.618271
 42
-0.036343
 10
24.736406
 20
14.543239
 42
-0.040682
 10
24.834709
 20
14.452056
 42
-0.020168
 10
24.944543
 20
14.322002
 42
-0.019871
 10
25.04822
 20
14.17716
 42
-0.027447
 10
25.12856
 20
14.038973
 42
-0.018984
 10
25.192422
 20
13.901104
 42
-0.018382
 10
25.246391
 20
13.757314
 42
-0.018652
 10
25.284433
 20
13.627467
 42
-0.062005
 10
25.2954
 20
13.53937
 42
-0.069282
 10
25.284829
 20
13.463449
 42
-0.125363
 10
25.253513
 20
13.409521
 42
-0.127185
 10
25.200586
 20
13.377633
 42
-0.072435
 10
25.1262
 20
13.3668
 42
0.067109
 10
25.061523
 20
13.35808
 42
0.083977
 10
25.006702
 20
13.332566
 42
0.099524
 10
24.970041
 20
13.294701
 42
0.14369
 10
24.957
 20
13.250259
 42
0.091149
 10
24.966699
 20
13.197499
 42
0.042866
 10
24.996919
 20
13.134822
 42
0.040574
 10
25.040898
 20
13.072702
 42
0.04526
 10
25.092894
 20
13.020936
 42
-0.09295
 10
25.154431
 20
12.946785
 42
-0.078864
 10
25.189377
 20
12.851032
 42
-0.055501
 10
25.200024
 20
12.720918
 42
-0.020753
 10
25.187056
 20
12.53792
 42
-0.020293
 10
25.164162
 20
12.389277
 42
-0.022823
 10
25.129924
 20
12.248782
 42
-0.022868
 10
25.090233
 20
12.133058
 42
-0.102676
 10
25.051163
 20
12.073523
 42
-0.18461
 10
25.009003
 20
12.054681
 42
-0.321447
 10
24.97815
 20
12.074319
 42
-0.082617
 10
24.961079
 20
12.151728
 42
-0.013051
 10
24.957
 20
12.30797
 42
0.040429
 10
24.944736
 20
12.459393
 42
0.021221
 10
24.906424
 20
12.644527
 42
0.020969
 10
24.850778
 20
12.832072
 42
0.030128
 10
24.784825
 20
12.992246
 42
0.040011
 10
24.695181
 20
13.144956
 42
0.024502
 10
24.567112
 20
13.310042
 42
0.024488
 10
24.423309
 20
13.462025
 42
0.039538
 10
24.285454
 20
13.574659
 42
0.025613
 10
24.131122
 20
13.670302
 42
0.014672
 10
23.936174
 20
13.770372
 42
0.01463
 10
23.733739
 20
13.859717
 42
0.023517
 10
23.555883
 20
13.922503
 42
0.013248
 10
23.385753
 20
13.968827
 42
0.011917
 10
23.207315
 20
14.007889
 42
0.012039
 10
23.045619
 20
14.035247
 42
0.036436
 10
22.934304
 20
14.043128
 42
0.028267
 10
22.828237
 20
14.036898
 42
0.01198
 10
22.687071
 20
14.017127
 42
0.011809
 10
22.536987
 20
13.988773
 42
0.015141
 10
22.400477
 20
13.955277
 42
0.033888
 10
22.261493
 20
13.906324
 42
0.020248
 10
22.103398
 20
13.830561
 42
0.020221
 10
21.951382
 20
13.741937
 42
0.032825
 10
21.830955
 20
13.653414
 42
0.044969
 10
21.726291
 20
13.547913
 42
0.027897
 10
21.622617
 20
13.407427
 42
0.027877
 10
21.535083
 20
13.256036
 42
0.044379
 10
21.479663
 20
13.1172
 42
0.032709
 10
21.437277
 20
12.932601
 42
0.055571
 10
21.429481
 20
12.774526
 42
0.047269
 10
21.456684
 20
12.601804
 42
0.017501
 10
21.526152
 20
12.365293
 42
0.010605
 10
21.621362
 20
12.097747
 42
0.113032
 10
21.685025
 20
12.002296
 42
0.19682
 10
21.769807
 20
11.969528
 42
0.044412
 10
21.926577
 20
11.986625
 42
-0.015249
 10
22.088916
 20
12.013974
 42
-0.234132
 10
22.141218
 20
11.996434
 42
-0.239374
 10
22.158279
 20
11.944487
 42
-0.01591
 10
22.128599
 20
11.785347
 42
0.035968
 10
22.110409
 20
11.660167
 42
0.076429
 10
22.118229
 20
11.56283
 42
0.091077
 10
22.153167
 20
11.483399
 42
0.070656
 10
22.216775
 20
11.41333
 42
0.089331
 10
22.297925
 20
11.367466
 42
0.031297
 10
22.427397
 20
11.331124
 42
0.029593
 10
22.579403
 20
11.307852
 42
0.028717
 10
22.734634
 20
11.302366
 42
-0.0111
 10
22.94819
 20
11.302343
 42
-0.102902
 10
23.037674
 20
11.281637
 42
-0.259124
 10
23.072186
 20
11.234424
 42
-0.095264
 10
23.066565
 20
11.149141
 42
0.068052
 10
23.058553
 20
11.082634
 42
0.082935
 10
23.069858
 20
11.021034
 42
0.094035
 10
23.098665
 20
10.972373
 42
0.121178
 10
23.141178
 20
10.942813
 42
0.09824
 10
23.205351
 20
10.93176
 42
0.025436
 10
23.310461
 20
10.93978
 42
0.024872
 10
23.431734
 20
10.961441
 42
0.023077
 10
23.553382
 20
10.995453
 42
0.048488
 10
23.684801
 20
11.053461
 42
0.025199
 10
23.836551
 20
11.149227
 42
0.024803
 10
23.983806
 20
11.264209
 42
0.034444
 10
24.102598
 20
11.382056
 42
0.034488
 10
24.203981
 20
11.514981
 42
0.024953
 10
24.298629
 20
11.67551
 42
0.025365
 10
24.3735
 20
11.837853
 42
0.049028
 10
24.413459
 20
11.975042
 42
0.03313
 10
24.42973
 20
12.110886
 42
0.021865
 10
24.431185
 20
12.268211
 42
0.022024
 10
24.419085
 20
12.422002
 42
0.039206
 10
24.393755
 20
12.546369
 42
0.060178
 10
24.342653
 20
12.6674
 42
0.038018
 10
24.256537
 20
12.794438
 42
0.036432
 10
24.146611
 20
12.913732
 42
0.039947
 10
24.023673
 20
13.011845
 42
0.029052
 10
23.872871
 20
13.101345
 42
0.05263
 10
23.739358
 20
13.153494
 42
0.060213
 10
23.610984
 20
13.172493
 42
0.053649
 10
23.4765
 20
13.161637
 42
0.061883
 10
23.362555
 20
13.124967
 42
0.030746
 10
23.228913
 20
13.052576
 42
0.029956
 10
23.097743
 20
12.959368
 42
0.038563
 10
22.99005
 20
12.858075
 42
0.034627
 10
22.901016
 20
12.745625
 42
0.031997
 10
22.825741
 20
12.619045
 42
0.03354
 10
22.773551
 20
12.497464
 42
0.084806
 10
22.7574
 20
12.402924
 42
0.053824
 10
22.766467
 20
12.318941
 42
0.042902
 10
22.793483
 20
12.231865
 42
0.044337
 10
22.83317
 20
12.154734
 42
0.078724
 10
22.880236
 20
12.101173
 42
0.063343
 10
22.938284
 20
12.064276
 42
0.04454
 10
23.011048
 20
12.03766
 42
0.044842
 10
23.086631
 20
12.024528
 42
0.068269
 10
23.153061
 20
12.028113
 42
0.083559
 10
23.216875
 20
12.051914
 42
0.046686
 10
23.284661
 20
12.100002
 42
0.044905
 10
23.345913
 20
12.163079
 42
0.054675
 10
23.390437
 20
12.232279
 42
-0.040588
 10
23.430064
 20
12.297847
 42
-0.052947
 10
23.47681
 20
12.350025
 42
-0.063631
 10
23.523317
 20
12.382347
 42
-0.18215
 10
23.561762
 20
12.386979
 42
0.003522
 10
23.608467
 20
12.375877
 42
0.000762
 10
23.689384
 20
12.357372
 42
0.000794
 10
23.783124
 20
12.336242
 42
0.000759
 10
23.87835
 20
12.315088
 42
-0.046331
 10
23.977388
 20
12.283399
 42
-0.079663
 10
24.050556
 20
12.237398
 42
-0.099044
 10
24.095211
 20
12.179034
 42
-0.11441
 10
24.111
 20
12.110935
 42
-0.09332
 10
24.097644
 20
12.039999
 42
-0.038738
 10
24.055085
 20
11.951813
 42
-0.036595
 10
23.993488
 20
11.861822
 42
-0.039073
 10
23.92065
 20
11.78387
 42
-0.027493
 10
23.834154
 20
11.71303
 42
-0.020417
 10
23.731542
 20
11.644263
 42
-0.020767
 10
23.629076
 20
11.587207
 42
-0.043125
 10
23.544178
 20
11.553264
 42
-0.074846
 10
23.452105
 20
11.539845
 42
-0.041321
 10
23.338584
 20
11.549777
 42
-0.038558
 10
23.21763
 20
11.580269
 42
-0.038325
 10
23.102536
 20
11.629017
 42
-0.031654
 10
22.998324
 20
11.69156
 42
-0.026718
 10
22.896487
 20
11.770148
 42
-0.027575
 10
22.811212
 20
11.852146
 42
-0.064705
 10
22.759908
 20
11.923914
 42
-0.046479
 10
22.726494
 20
12.003275
 42
-0.023117
 10
22.698481
 20
12.10884
 42
-0.022724
 10
22.67936
 20
12.221769
 42
-0.030913
 10
22.673116
 20
12.324888
 42
-0.052527
 10
22.684915
 20
12.43548
 42
-0.025698
 10
22.721761
 20
12.572538
 42
-0.025166
 10
22.77513
 20
12.712486
 42
-0.033237
 10
22.83827
 20
12.833442
 42
-0.047155
 10
22.931485
 20
12.958172
 42
-0.049078
 10
23.045283
 20
13.061391
 42
-0.047513
 10
23.180476
 20
13.143103
 42
-0.039422
 10
23.337291
 20
13.203907
 42
-0.025469
 10
23.530018
 20
13.251105
 42
-0.0697
 10
23.669739
 20
13.258106
 42
-0.068165
 10
23.807783
 20
13.226478
 42
-0.023577
 10
23.99587
 20
13.145065
 42
-0.039331
 10
24.134059
 20
13.063304
 42
-0.025125
 10
24.281219
 20
12.948354
 42
-0.025213
 10
24.414931
 20
12.820302
 42
-0.042279
 10
24.511734
 20
12.698639
 42
-0.037327
 10
24.585049
 20
12.568475
 42
-0.027505
 10
24.646957
 20
12.414974
 42
-0.028032
 10
24.68954
 20
12.262478
 42
-0.054117
 10
24.7032
 20
12.13664
 42
0.037279
 10
24.711823
 20
12.02114
 42
0.056324
 10
24.737878
 20
11.923818
 42
0.069828
 10
24.778304
 20
11.852142
 42
0.138735
 10
24.8301
 20
11.813406
 42
-0.103584
 10
24.878629
 20
11.782106
 42
-0.066719
 10
24.919723
 20
11.728969
 42
-0.062881
 10
24.947524
 20
11.663112
 42
-0.06857
 10
24.957
 20
11.594341
 42
-0.12233
 10
24.934942
 20
11.505532
 42
-0.024857
 10
24.851382
 20
11.365054
 42
-0.024836
 10
24.735092
 20
11.207544
 42
-0.021047
 10
24.59745
 20
11.053033
 42
-0.022331
 10
24.415498
 20
10.881363
 42
-0.037518
 10
24.24667
 20
10.756533
 42
-0.043826
 10
24.082533
 20
10.672313
 42
-0.051905
 10
23.915173
 20
10.623687
 42
-0.039205
 10
23.759019
 20
10.607912
 42
-0.017437
 10
23.551999
 20
10.610513
 42
-0.017135
 10
23.331942
 20
10.628531
 42
-0.022186
 10
23.132028
 20
10.660861
 42
-0.032571
 10
22.922891
 20
10.718698
 42
-0.01862
 10
22.678734
 20
10.814006
 42
-0.01847
 10
22.437323
 20
10.929532
 42
-0.027274
 10
22.235671
 20
11.049808
 42
0.017127
 10
22.057983
 20
11.160737
 42
0.029674
 10
21.902421
 20
11.238686
 42
0.031221
 10
21.779237
 20
11.282643
 42
0.272921
 10
21.72528
 20
11.26872
 42
0.272921
 10
21.711357
 20
11.214763
 42
0.031221
 10
21.755314
 20
11.091579
 42
0.029674
 10
21.833263
 20
10.936017
 42
0.017127
 10
21.944192
 20
10.758329
 42
-0.027272
 10
22.065445
 20
10.55504
 42
-0.018849
 10
22.180924
 20
10.313259
 42
-0.019006
 10
22.276016
 20
10.068003
 42
-0.031807
 10
22.334628
 20
9.854801
 42
-0.020427
 10
22.367539
 20
9.655737
 42
-0.01755
 10
22.386173
 20
9.444297
 42
-0.017908
 10
22.389457
 20
9.251032
 42
-0.047544
 10
22.373786
 20
9.113955
 42
-0.040362
 10
22.336618
 20
8.989192
 42
-0.02037
 10
22.271007
 20
8.838622
 42
-0.020088
 10
22.190132
 20
8.68767
 42
-0.028104
 10
22.105228
 20
8.560372
 42
-0.035345
 10
22.003069
 20
8.442729
 42
-0.022768
 10
21.869594
 20
8.320966
 42
-0.022878
 10
21.727403
 20
8.213261
 42
-0.039406
 10
21.598865
 20
8.139025
 42
-0.011519
 10
21.416567
 20
8.057193
 42
-0.103428
 10
21.331037
 20
8.040498
 42
-0.181355
 10
21.26779
 20
8.065187
 42
-0.05216
 10
21.196095
 20
8.144403
 42
0.089312
 10
21.136344
 20
8.201338
 42
0.0493
 10
21.046815
 20
8.248472
 42
0.046406
 10
20.942023
 20
8.280124
 42
0.050189
 10
20.835934
 20
8.2908
 42
-0.057481
 10
20.718419
 20
8.304355
 42
-0.02769
 10
20.572732
 20
8.347043
 42
-0.027023
 10
20.423978
 20
8.408962
 42
-0.034793
 10
20.295361
 20
8.482266
 42
-0.042279
 10
20.173698
 20
8.579069
 42
-0.025213
 10
20.045646
 20
8.712781
 42
-0.025125
 10
19.930696
 20
8.859941
 42
-0.039331
 10
19.848935
 20
8.99813
 42
-0.02366
 10
19.768198
 20
9.184739
 42
-0.066847
 10
19.736233
 20
9.322796
 42
-0.069408
 10
19.742415
 20
9.461415
 42
-0.026991
 10
19.787608
 20
9.648414
 42
-0.043253
 10
19.843441
 20
9.789204
 42
-0.03388
 10
19.926796
 20
9.930904
 42
-0.034526
 10
20.025861
 20
10.056333
 42
-0.053677
 10
20.128833
 20
10.147751
 42
-0.046676
 10
20.243431
 20
10.214204
 42
-0.02987
 10
20.38687
 20
10.270249
 42
-0.029929
 10
20.535349
 20
10.308625
 42
-0.048308
 10
20.665201
 20
10.3212
 42
-0.04708
 10
20.794852
 20
10.308965
 42
-0.033626
 10
20.935964
 20
10.272119
 42
-0.033896
 10
21.069086
 20
10.217337
 42
-0.052135
 10
21.174395
 20
10.150969
 42
-0.048812
 10
21.261232
 20
10.067761
 42
-0.033367
 10
21.343147
 20
9.958306
 42
-0.033675
 10
21.408538
 20
9.840974
 42
-0.056287
 10
21.44497
 20
9.734144
 42
-0.050781
 10
21.458899
 20
9.613275
 42
-0.042418
 10
21.449661
 20
9.484351
 42
-0.040877
 10
21.418029
 20
9.353979
 42
-0.039399
 10
21.365327
 20
9.2288
 42
-0.048698
 10
21.297888
 20
9.124636
 42
-0.041746
 10
21.208303
 20
9.029497
 42
-0.043595
 10
21.1102
 20
8.955706
 42
-0.07812
 10
21.017621
 20
8.916365
 42
-0.0246
 10
20.932194
 20
8.89934
 42
-0.031628
 10
20.852405
 20
8.892599
 42
-0.032933
 10
20.787466
 20
8.895509
 42
-0.17031
 10
20.755553
 20
8.910847
 42
-0.105354
 10
20.733653
 20
8.944607
 42
-0.013365
 10
20.704656
 20
9.026892
 42
-0.01519
 10
20.675453
 20
9.127805
 42
-0.012095
 10
20.649926
 20
9.238257
 42
-0.025687
 10
20.627019
 20
9.388217
 42
-0.101396
 10
20.636467
 20
9.480625
 42
-0.137224
 10
20.679385
 20
9.546602
 42
-0.06382
 10
20.764733
 20
9.604225
 42
0.055242
 10
20.832781
 20
9.648494
 42
0.044856
 10
20.894882
 20
9.709534
 42
0.04652
 10
20.942296
 20
9.777172
 42
0.082225
 10
20.965887
 20
9.840939
 42
0.068269
 10
20.969472
 20
9.907369
 42
0.044842
 10
20.95634
 20
9.982952
 42
0.04454
 10
20.929724
 20
10.055716
 42
0.063343
 10
20.892827
 20
10.113764
 42
0.075529
 10
20.839961
 20
10.160818
 42
0.044513
 10
20.765095
 20
10.200517
 42
0.043382
 10
20.681277
 20
10.22754
 42
0.056353
 10
20.60115
 20
10.2366
 42
0.066774
 10
20.513343
 20
10.224821
 42
0.031592
 10
20.405036
 20
10.18774
 42
0.030615
 10
20.29485
 20
10.133937
 42
0.037785
 10
20.19996
 20
10.070267
 42
0.03923
 10
20.111556
 20
9.988742
 42
0.024364
 10
20.020723
 20
9.880622
 42
0.024385
 10
19.941021
 20
9.764431
 42
0.039967
 10
19.886732
 20
9.658238
 42
0.038095
 10
19.841188
 20
9.519198
 42
0.071261
 10
19.829614
 20
9.401609
 42
0.063355
 10
19.851175
 20
9.276537
 42
0.024636
 10
19.910916
 20
9.11109
 42
0.045957
 10
19.980979
 20
8.978983
 42
0.038742
 10
20.077687
 20
8.853582
 42
0.039189
 10
20.191129
 20
8.746173
 42
0.050668
 10
20.311104
 20
8.667826
 42
0.039851
 10
20.450852
 20
8.609139
 42
0.039224
 10
20.598881
 20
8.572989
 42
0.038443
 10
20.753567
 20
8.559923
 42
0.035202
 10
20.913135
 20
8.569982
 42
0.044703
 10
21.060493
 20
8.603349
 42
0.024683
 10
21.233329
 20
8.668678
 42
0.024429
 10
21.403324
 20
8.752814
 42
0.035807
 10
21.542844
 20
8.844227
 42
0.033845
 10
21.66708
 20
8.95303
 42
0.02439
 10
21.790707
 20
9.089765
 42
0.02478
 10
21.895925
 20
9.232039
 42
0.047898
 10
21.962677
 20
9.356735
 42
0.019052
 10
22.00782
 20
9.477518
 42
0.0166
 10
22.04596
 20
9.607034
 42
0.016913
 10
22.072602
 20
9.72653
 42
0.046419
 10
22.0806
 20
9.812495
 42
0.052859
 10
22.071344
 20
9.899804
 42
0.210539
 10
22.040506
 20
9.942432
 42
0.164921
 10
21.982301
 20
9.95439
 42
0.030416
 10
21.873093
 20
9.933943
 42
-0.029966
 10
21.75029
 20
9.910835
 42
-0.274891
 10
21.702515
 20
9.931626
 42
-0.180944
 10
21.68619
 20
9.991589
 42
-0.013102
 10
21.70682
 20
10.164981
 42
0.042091
 10
21.714333
 20
10.289043
 42
0.030463
 10
21.702632
 20
10.427103
 42
0.030984
 10
21.675079
 20
10.558037
 42
0.056028
 10
21.634361
 20
10.6596
 42
0.049328
 10
21.563455
 20
10.765087
 42
0.109088
 10
21.487423
 20
10.824474
 42
0.09768
 10
21.387829
 20
10.850014
 42
0.034473
 10
21.239799
 20
10.848145
 42
-0.016033
 10
21.065014
 20
10.839489
 42
-0.202748
 10
21.005158
 20
10.86358
 42
-0.229514
 10
20.98487
 20
10.921513
 42
-0.020763
 10
21.009361
 20
11.077355
 42
0.048282
 10
21.024873
 20
11.230558
 42
0.202191
 10
20.990023
 20
11.314246
 42
0.108653
 10
20.890275
 20
11.376887
 42
0.009733
 10
20.608386
 20
11.471815
 42
0.020521
 10
20.406297
 20
11.526512
 42
0.025771
 10
20.215154
 20
11.55967
 42
0.028668
 10
20.047953
 20
11.570203
 42
0.062957
 10
19.920942
 20
11.554868
 42
0.059127
 10
19.811128
 20
11.513028
 42
0.024283
 10
19.673439
 20
11.432226
 42
0.023615
 10
19.532471
 20
11.330204
 42
0.027933
 10
19.409833
 20
11.220553
 42
0.03921
 10
19.295282
 20
11.086475
 42
0.026029
 10
19.184929
 20
10.916779
 42
0.026036
 10
19.092853
 20
10.736624
 42
0.039367
 10
19.03386
 20
10.570765
 42
0.030056
 10
18.998832
 20
10.400541
 42
0.018761
 10
18.977419
 20
10.197996
 42
0.018811
 10
18.97132
 20
9.996037
 42
0.032209
 10
18.983412
 20
9.827959
 42
0.022926
 10
19.014047
 20
9.661554
 42
0.013268
 10
19.065262
 20
9.464629
 42
0.013243
 10
19.127249
 20
9.269413
 42
0.021634
 10
19.191203
 20
9.107984
 42
0.026219
 10
19.269254
 20
8.955423
 42
0.01707
 10
19.374315
 20
8.787646
 42
0.017175
 10
19.48836
 20
8.630551
 42
0.031087
 10
19.593621
 20
8.511606
 42
0.026372
 10
19.707296
 20
8.409574
 42
0.01784
 10
19.846676
 20
8.305134
 42
0.018004
 10
19.989018
 20
8.213621
 42
0.03389
 10
20.110933
 20
8.152056
 42
0.032832
 10
20.237992
 20
8.107934
 42
0.018839
 10
20.395945
 20
8.070798
 42
0.018763
 10
20.558199
 20
8.045325
 42
0.029558
 10
20.698903
 20
8.037
 42
-0.01537
 10
20.840061
 20
8.03266
 42
-0.07653
 10
20.917321
 20
8.01585
 42
-0.277485
 10
20.93992
 20
7.986878
 42
-0.230585
 10
20.926968
 20
7.949328
 42
-0.090183
 10
20.873382
 20
7.912232
 42
-0.022746
 10
20.774484
 20
7.872714
 42
-0.022465
 10
20.655446
 20
7.837224
 42
-0.020991
 10
20.530987
 20
7.811625
 42
-0.033803
 10
20.380278
 20
7.797524
 42
-0.048344
 10
20.246431
 20
7.807029
 42
-0.052336
 10
20.125256
 20
7.840838
 42
-0.050887
 10
20.012515
 20
7.899297
 42
0.017353
 10
19.925631
 20
7.95201
 42
0.019361
 10
19.838362
 20
7.99655
 42
0.019063
 10
19.761628
 20
8.028548
 42
0.089477
 10
19.714777
 20
8.037
 42
0.185695
 10
19.681342
 20
8.024139
 42
0.089931
 10
19.652926
 20
7.987297
 42
0.069773
 10
19.633663
 20
7.932547
 42
0.049786
 10
19.6272
 20
7.8678
 42
-0.072338
 10
19.617796
 20
7.803143
 42
-0.087257
 10
19.590426
 20
7.748302
 42
-0.100458
 10
19.549752
 20
7.711641
 42
-0.134125
 10
19.502012
 20
7.6986
 42
-0.059844
 10
19.432544
 20
7.706944
 42
-0.011812
 10
19.311157
 20
7.739589
 42
-0.012363
 10
19.170783
 20
7.784719
 42
-0.011206
 10
19.028089
 20
7.838136
 42
-0.042081
 10
18.868367
 20
7.918212
 42
-0.031931
 10
18.707998
 20
8.030937
 42
-0.031322
 10
18.559726
 20
8.166089
 42
-0.035545
 10
18.436137
 20
8.313424
 42
-0.025627
 10
18.339065
 20
8.462997
 42
-0.019842
 10
18.248546
 20
8.634869
 42
-0.020232
 10
18.17679
 20
8.80243
 42
-0.044707
 10
18.139069
 20
8.936222
 42
0.020562
 10
18.112952
 20
9.049519
 42
0.025288
 10
18.079003
 20
9.152567
 42
0.025042
 10
18.042562
 20
9.234415
 42
0.137931
 10
18.010209
 20
9.269627
 42
0.362061
 10
17.981726
 20
9.265579
 42
0.102196
 10
17.957234
 20
9.22389
 42
0.055207
 10
17.94051
 20
9.148103
 42
0.026727
 10
17.9352
 20
9.048828
 42
-0.039981
 10
17.925322
 20
8.925496
 42
-0.020821
 10
17.894426
 20
8.774223
 42
-0.020568
 10
17.849564
 20
8.620667
 42
-0.029432
 10
17.796394
 20
8.48916
 42
-0.037717
 10
17.724206
 20
8.362629
 42
-0.022731
 10
17.621094
 20
8.223942
 42
-0.022699
 10
17.505399
 20
8.094704
 42
-0.036548
 10
17.394544
 20
7.997049
 42
-0.036166
 10
17.270266
 20
7.91619
 42
-0.022073
 10
17.113371
 20
7.838384
 42
-0.022073
 10
16.950218
 20
7.774708
 42
-0.036148
 10
16.806739
 20
7.7372
 10
16.481977
 20
7.676951
 10
16.507949
 20
7.962726
 42
0.021778
 10
16.514052
 20
8.092267
 42
0.077076
 10
16.501623
 20
8.174334
 42
0.16347
 10
16.471354
 20
8.216003
 42
0.209753
 10
16.425449
 20
8.225546
 42
-0.07442
 10
16.363951
 20
8.221854
 42
-0.014687
 10
16.25392
 20
8.234895
 42
-0.015267
 10
16.12551
 20
8.257979
 42
-0.013658
 10
15.993844
 20
8.289603
 42
-0.024468
 10
15.862708
 20
8.331893
 42
-0.024216
 10
15.735866
 20
8.386918
 42
-0.024934
 10
15.629931
 20
8.445839
 42
-0.080328
 10
15.569385
 20
8.498703
 42
-0.060709
 10
15.529505
 20
8.560723
 42
-0.444272
 10
15.541295
 20
8.589737
 42
-0.119705
 10
15.601025
 20
8.596357
 42
-0.008245
 10
15.770314
 20
8.571743
 42
0.031266
 10
15.90397
 20
8.558554
 42
0.041866
 10
16.025594
 20
8.564376
 42
0.048239
 10
16.127262
 20
8.587958
 42
0.092362
 10
16.200184
 20
8.628606
 42
0.060859
 10
16.249028
 20
8.680357
 42
0.044027
 10
16.290313
 20
8.748159
 42
0.044597
 10
16.318464
 20
8.820781
 42
0.070284
 10
16.3278
 20
8.886868
 42
-0.09441
 10
16.342275
 20
8.962845
 42
-0.027867
 10
16.392137
 20
9.070926
 42
-0.026893
 10
16.462994
 20
9.188669
 42
-0.026005
 10
16.54682
 20
9.299509
 42
0.020798
 10
16.626718
 20
9.4029
 42
0.05221
 10
16.67334
 20
9.48586
 42
0.118653
 10
16.682387
 20
9.538098
 42
0.395379
 10
16.659232
 20
9.5598
 42
-0.092229
 10
16.607559
 20
9.569413
 42
-0.031484
 10
16.537979
 20
9.601394
 42
-0.030047
 10
16.463898
 20
9.647206
 42
-0.030419
 10
16.396162
 20
9.701395
 42
-0.037539
 10
16.308558
 20
9.793531
 42
-0.221948
 10
16.292623
 20
9.856375
 42
-0.133571
 10
16.327597
 20
9.928034
 42
-0.011091
 10
16.468779
 20
10.082095
 10
16.697856
 20
10.3212
 10
15.392742
 20
10.3212
 10
14.087629
 20
10.3212
 10
14.324859
 20
10.101228
 42
-0.013016
 10
14.46807
 20
9.961329
 42
-0.134429
 10
14.507557
 20
9.889698
 42
-0.20803
 10
14.495781
 20
9.822569
 42
-0.037942
 10
14.416633
 20
9.720528
 42
-0.03727
 10
14.352017
 20
9.659024
 42
-0.036006
 10
14.27827
 20
9.607014
 42
-0.038226
 10
14.206622
 20
9.570993
 42
-0.097667
 10
14.149868
 20
9.5598
 42
0.260297
 10
14.11429
 20
9.539933
 42
0.231858
 10
14.11017
 20
9.497383
 42
0.070059
 10
14.152494
 20
9.419725
 42
0.015153
 10
14.24758
 20
9.299509
 42
-0.026005
 10
14.331406
 20
9.188669
 42
-0.026893
 10
14.402263
 20
9.070926
 42
-0.027867
 10
14.452125
 20
8.962845
 42
-0.09441
 10
14.4666
 20
8.886868
 42
0.070284
 10
14.475936
 20
8.820781
 42
0.044597
 10
14.504087
 20
8.748159
 42
0.044027
 10
14.545372
 20
8.680357
 42
0.060859
 10
14.594216
 20
8.628606
 42
0.092362
 10
14.667138
 20
8.587958
 42
0.048239
 10
14.768806
 20
8.564376
 42
0.041866
 10
14.89043
 20
8.558554
 42
0.031266
 10
15.024086
 20
8.571743
 42
-0.008341
 10
15.192652
 20
8.596219
 42
-0.118391
 10
15.252763
 20
8.589691
 42
-0.443311
 10
15.264734
 20
8.560766
 42
-0.062721
 10
15.225713
 20
8.499544
 42
-0.075327
 10
15.167143
 20
8.447371
 42
-0.025761
 10
15.068502
 20
8.390128
 42
-0.024931
 10
14.95148
 20
8.337242
 42
-0.026308
 10
14.831832
 20
8.297325
 42
-0.02273
 10
14.710715
 20
8.269738
 42
-0.023718
 10
14.589299
 20
8.253732
 42
-0.02425
 10
14.483616
 20
8.250015
 42
-0.088498
 10
14.417989
 20
8.262628
 42
0.163322
 10
14.36197
 20
8.265017
 42
0.216727
 10
14.323701
 20
8.232256
 42
0.090963
 10
14.302818
 20
8.151983
 42
0.01827
 10
14.2974
 20
8.003751
 42
-0.022172
 10
14.290607
 20
7.850644
 42
-0.093157
 10
14.265765
 20
7.762414
 42
-0.164011
 10
14.219039
 20
7.715684
 42
-0.115588
 10
14.146126
 20
7.6986
 42
-0.071083
 10
14.064323
 20
7.710289
 42
-0.015479
 10
13.928507
 20
7.754515
 42
-0.015833
 10
13.773202
 20
7.816084
 42
-0.014585
 10
13.617724
 20
7.88895
 42
-0.033772
 10
13.442181
 20
7.992974
 42
-0.037152
 10
13.288099
 20
8.116744
 42
-0.03808
 10
13.157341
 20
8.258896
 42
-0.039396
 10
13.05129
 20
8.4177
 42
-0.029778
 10
12.978703
 20
8.567772
 42
-0.022959
 10
12.917183
 20
8.738928
 42
-0.023451
 10
12.874455
 20
8.904709
 42
-0.050139
 10
12.860592
 20
9.036043
 42
0.025086
 10
12.854839
 20
9.140278
 42
0.051199
 10
12.837967
 20
9.220377
 42
0.0918
 10
12.813669
 20
9.265606
 42
0.378771
 10
12.785527
 20
9.270453
 42
0.134588
 10
12.753612
 20
9.236171
 42
0.025136
 10
12.71732
 20
9.157419
 42
0.025295
 10
12.683275
 20
9.058342
 42
0.020756
 10
12.656789
 20
8.949595
 42
-0.037977
 10
12.620901
 20
8.821573
 42
-0.017807
 10
12.556283
 20
8.662038
 42
-0.017528
 10
12.476321
 20
8.498803
 42
-0.023516
 10
12.391968
 20
8.357306
 42
-0.039467
 10
12.287342
 20
8.223466
 42
-0.02451
 10
12.14544
 20
8.083257
 42
-0.02453
 10
11.990811
 20
7.957872
 42
-0.040158
 10
11.847276
 20
7.869471
 42
-0.018569
 10
11.706382
 20
7.804066
 42
-0.01818
 10
11.560035
 20
7.748793
 42
-0.01841
 10
11.428298
 20
7.709775
 42
-0.062867
 10
11.33977
 20
7.6986
 42
-0.069282
 10
11.263849
 20
7.709171
 42
-0.125363
 10
11.209921
 20
7.740487
 42
-0.127185
 10
11.178033
 20
7.793414
 42
-0.072435
 10
11.1672
 20
7.8678
 42
0.049786
 10
11.160737
 20
7.932547
 42
0.069773
 10
11.141474
 20
7.987298
 42
0.089931
 10
11.113058
 20
8.024139
 42
0.185695
 10
11.079623
 20
8.037
 42
0.089477
 10
11.032772
 20
8.028548
 42
0.019063
 10
10.956038
 20
7.99655
 42
0.019361
 10
10.868769
 20
7.95201
 42
0.017353
 10
10.781885
 20
7.899297
 42
-0.050887
 10
10.669144
 20
7.840838
 42
-0.052336
 10
10.547969
 20
7.807029
 42
-0.048344
 10
10.414122
 20
7.797524
 42
-0.033803
 10
10.263413
 20
7.811625
 42
-0.020991
 10
10.138954
 20
7.837224
 42
-0.022465
 10
10.019916
 20
7.872714
 42
-0.022746
 10
9.921018
 20
7.912232
 42
-0.090183
 10
9.867432
 20
7.949328
 42
-0.230585
 10
9.85448
 20
7.986878
 42
-0.277485
 10
9.877079
 20
8.01585
 42
-0.07653
 10
9.954339
 20
8.03266
 42
-0.01537
 10
10.095497
 20
8.037
 42
0.029279
 10
10.236201
 20
8.045246
 42
0.018596
 10
10.398455
 20
8.070478
 42
0.018672
 10
10.556411
 20
8.107262
 42
0.032594
 10
10.683467
 20
8.150967
 42
0.048015
 10
10.809746
 20
8.218717
 42
0.019622
 10
10.967521
 20
8.33318
 42
0.0192
 10
11.128577
 20
8.470289
 42
0.023262
 10
11.268176
 20
8.611226
 42
0.032247
 10
11.402136
 20
8.780439
 42
0.023211
 10
11.529893
 20
8.984779
 42
0.023237
 10
11.637956
 20
9.199706
 42
0.032696
 10
11.712326
 20
9.400914
 42
0.011897
 10
11.762696
 20
9.58661
 42
0.011264
 10
11.805182
 20
9.777893
 42
0.011292
 10
11.835125
 20
9.948788
 42
0.038279
 10
11.843528
 20
10.061605
 42
0.028434
 10
11.837305
 20
10.16692
 42
0.011952
 10
11.817527
 20
10.30749
 42
0.01178
 10
11.789172
 20
10.457151
 42
0.015026
 10
11.755677
 20
10.593523
 42
0.033888
 10
11.706724
 20
10.732507
 42
0.020248
 10
11.630961
 20
10.890602
 42
0.020221
 10
11.542337
 20
11.042618
 42
0.032825
 10
11.453814
 20
11.163045
 42
0.044969
 10
11.348313
 20
11.267709
 42
0.027897
 10
11.207827
 20
11.371383
 42
0.027877
 10
11.056436
 20
11.458917
 42
0.044379
 10
10.9176
 20
11.514337
 42
0.032709
 10
10.733001
 20
11.556723
 42
0.055571
 10
10.574926
 20
11.564519
 42
0.047269
 10
10.402204
 20
11.537316
 42
0.017501
 10
10.165693
 20
11.467848
 42
0.010605
 10
9.898147
 20
11.372638
 42
0.113032
 10
9.802696
 20
11.308975
 42
0.19682
 10
9.769928
 20
11.224193
 42
0.044412
 10
9.787025
 20
11.067423
 42
-0.015249
 10
9.814374
 20
10.905084
 42
-0.234132
 10
9.796834
 20
10.852782
 42
-0.239374
 10
9.744887
 20
10.835721
 42
-0.01591
 10
9.585747
 20
10.865401
 42
0.035968
 10
9.460567
 20
10.883591
 42
0.076429
 10
9.36323
 20
10.875771
 42
0.091077
 10
9.283799
 20
10.840833
 42
0.070656
 10
9.21373
 20
10.777225
 42
0.089159
 10
9.168033
 20
10.696433
 42
0.031094
 10
9.131642
 20
10.56733
 42
0.029516
 10
9.108249
 20
10.416193
 42
0.029164
 10
9.102686
 20
10.262742
 42
-0.012093
 10
9.102236
 20
10.049448
 42
-0.106164
 10
9.080112
 20
9.958185
 42
-0.235375
 10
9.029541
 20
9.91901
 42
-0.083781
 10
8.935572
 20
9.916228
 42
0.064856
 10
8.860974
 20
9.916829
 42
0.099179
 10
8.799745
 20
9.896594
 42
0.112412
 10
8.756211
 20
9.85678
 42
0.102731
 10
8.732431
 20
9.800752
 42
0.079961
 10
8.729718
 20
9.727584
 42
0.023196
 10
8.748762
 20
9.615913
 42
0.022682
 10
8.78227
 20
9.49028
 42
0.022448
 10
8.827119
 20
9.367755
 42
0.046531
 10
8.895697
 20
9.238805
 42
0.024874
 10
9.00234
 20
9.093002
 42
0.024546
 10
9.126984
 20
8.953815
 42
0.03496
 10
9.251556
 20
8.844227
 42
0.035807
 10
9.391076
 20
8.752814
 42
0.024429
 10
9.561071
 20
8.668678
 42
0.024683
 10
9.733907
 20
8.603349
 42
0.044703
 10
9.881265
 20
8.569982
 42
0.03493
 10
10.039252
 20
8.559936
 42
0.037536
 10
10.19328
 20
8.572496
 42
0.038577
 10
10.33974
 20
8.607333
 42
0.041678
 10
10.4752
 20
8.66364
 42
0.046202
 10
10.586879
 20
8.735157
 42
0.029725
 10
10.702432
 20
8.836784
 42
0.029805
 10
10.804515
 20
8.950759
 42
0.04843
 10
10.875034
 20
9.059807
 42
0.03948
 10
10.927534
 20
9.184562
 42
0.040602
 10
10.959179
 20
9.314862
 42
0.04215
 10
10.968573
 20
9.443597
 42
0.051243
 10
10.954846
 20
9.563688
 42
0.06236
 10
10.916064
 20
9.673058
 42
0.031386
 10
10.842156
 20
9.799758
 42
0.030588
 10
10.74811
 20
9.922962
 42
0.039559
 10
10.646889
 20
10.022813
 42
0.033405
 10
10.535311
 20
10.104632
 42
0.030338
 10
10.410273
 20
10.1738
 42
0.031658
 10
10.290625
 20
10.221773
 42
0.079675
 10
10.198168
 20
10.2366
 42
0.055091
 10
10.116159
 20
10.227537
 42
0.043154
 10
10.03075
 20
10.200517
 42
0.044438
 10
9.954779
 20
10.160824
 42
0.0771
 10
9.901573
 20
10.113764
 42
0.061078
 10
9.864628
 20
10.056216
 42
0.044513
 10
9.837839
 20
9.984991
 42
0.045139
 10
9.82445
 20
9.911645
 42
0.07126
 10
9.827764
 20
9.847882
 42
0.08179
 10
9.850768
 20
9.786287
 42
0.043597
 10
9.897338
 20
9.71934
 42
0.041893
 10
9.958278
 20
9.657573
 42
0.050745
 10
10.0251
 20
9.611168
 42
0.002391
 10
10.091298
 20
9.574934
 42
0.003464
 10
10.150137
 20
9.543618
 42
0.001787
 10
10.200251
 20
9.517616
 42
0.05704
 10
10.213157
 20
9.512743
 42
-0.399164
 10
10.218822
 20
9.50379
 42
-0.00349
 10
10.201129
 20
9.417589
 42
-0.009374
 10
10.17746
 20
9.315658
 42
-0.005622
 10
10.14573
 20
9.195493
 42
-0.029257
 10
10.09853
 20
9.056742
 42
-0.06559
 10
10.043588
 20
8.960199
 42
-0.093769
 10
9.980501
 20
8.903122
 42
-0.137975
 10
9.90897
 20
8.883
 42
-0.094334
 10
9.83896
 20
8.896327
 42
-0.038522
 10
9.751518
 20
8.938915
 42
-0.036366
 10
9.662047
 20
9.000512
 42
-0.038511
 10
9.58427
 20
9.07335
 42
-0.027493
 10
9.51343
 20
9.159846
 42
-0.020417
 10
9.444663
 20
9.262458
 42
-0.020767
 10
9.387607
 20
9.364924
 42
-0.043125
 10
9.353664
 20
9.449822
 42
-0.074846
 10
9.340245
 20
9.541895
 42
-0.041321
 10
9.350177
 20
9.655416
 42
-0.038558
 10
9.380669
 20
9.77637
 42
-0.038325
 10
9.429417
 20
9.891464
 42
-0.031654
 10
9.49196
 20
9.995676
 42
-0.026718
 10
9.570548
 20
10.097513
 42
-0.027575
 10
9.652546
 20
10.182788
 42
-0.064705
 10
9.724314
 20
10.234092
 42
-0.050394
 10
9.805571
 20
10.267559
 42
-0.022558
 10
9.917829
 20
10.295612
 42
-0.022058
 10
10.0402
 20
10.314816
 42
-0.027896
 10
10.154529
 20
10.3212
 42
-0.051927
 10
10.27462
 20
10.308694
 42
-0.02993
 10
10.41497
 20
10.270249
 42
-0.029624
 10
10.55276
 20
10.214183
 42
-0.043305
 10
10.665567
 20
10.147751
 42
-0.053677
 10
10.768539
 20
10.056333
 42
-0.034526
 10
10.867604
 20
9.930904
 42
-0.03388
 10
10.950959
 20
9.789204
 42
-0.043253
 10
11.006792
 20
9.648414
 42
-0.026991
 10
11.051985
 20
9.461415
 42
-0.069408
 10
11.058167
 20
9.322796
 42
-0.066847
 10
11.026202
 20
9.184739
 42
-0.02366
 10
10.945465
 20
8.99813
 42
-0.039331
 10
10.863704
 20
8.859941
 42
-0.025125
 10
10.748754
 20
8.712781
 42
-0.025213
 10
10.620702
 20
8.579069
 42
-0.042279
 10
10.499039
 20
8.482266
 42
-0.034793
 10
10.370422
 20
8.408962
 42
-0.027023
 10
10.221668
 20
8.347043
 42
-0.02769
 10
10.075981
 20
8.304355
 42
-0.057481
 10
9.958466
 20
8.2908
 42
0.050105
 10
9.853952
 20
8.2803
 42
0.044563
 10
9.749233
 20
8.249128
 42
0.04714
 10
9.659635
 20
8.203322
 42
0.093424
 10
9.601621
 20
8.148937
 42
-0.060361
 10
9.534736
 20
8.077422
 42
-0.154248
 10
9.469918
 20
8.050612
 42
-0.101704
 10
9.383989
 20
8.060677
 42
-0.018348
 10
9.232355
 20
8.117062
 42
-0.042897
 10
9.113271
 20
8.178823
 42
-0.021406
 10
8.973693
 20
8.275752
 42
-0.021078
 10
8.836802
 20
8.389181
 42
-0.029051
 10
8.724682
 20
8.502832
 42
-0.036649
 10
8.627675
 20
8.631165
 42
-0.025239
 10
8.536506
 20
8.789097
 42
-0.025528
 10
8.463875
 20
8.950861
 42
-0.046416
 10
8.42411
 20
9.090083
 42
-0.040814
 10
8.408294
 20
9.241819
 42
-0.017595
 10
8.41092
 20
9.445307
 42
-0.017273
 10
8.428939
 20
9.662873
 42
-0.021882
 10
8.461261
 20
9.861972
 42
-0.032576
 10
8.519123
 20
10.071188
 42
-0.018636
 10
8.614458
 20
10.315377
 42
-0.018483
 10
8.73005
 20
10.556857
 42
-0.02724
 10
8.85046
 20
10.758703
 42
0.013482
 10
8.976564
 20
10.95746
 42
0.039952
 10
9.048012
 20
11.102193
 42
0.066325
 10
9.073149
 20
11.202207
 42
0.290534
 10
9.047755
 20
11.254547
 42
0.216788
 10
8.987148
 20
11.262262
 42
0.02632
 10
8.85802
 20
11.214688
 42
0.027396
 10
8.702834
 20
11.137725
 42
0.019294
 10
8.537111
 20
11.03526
 42
-0.029384
 10
8.342333
 20
10.920196
 42
-0.018652
 10
8.103559
 20
10.808503
 42
-0.018677
 10
7.857936
 20
10.715239
 42
-0.030221
 10
7.642319
 20
10.656698
 42
-0.016605
 10
7.394635
 20
10.613802
 42
-0.033374
 10
7.19685
 20
10.599626
 42
-0.039116
 10
7.020781
 20
10.612565
 42
-0.0349
 10
6.841836
 20
10.65283
 42
-0.030922
 10
6.701358
 20
10.704574
 42
-0.019216
 10
6.543378
 20
10.781506
 42
-0.019259
 10
6.392773
 20
10.869771
 42
-0.032731
 10
6.275186
 20
10.956241
 42
-0.03396
 10
6.17266
 20
11.055141
 42
-0.022538
 10
6.068527
 20
11.1812
 42
-0.022713
 10
5.978091
 20
11.313405
 42
-0.040479
 10
5.918011
 20
11.430631
 42
-0.01812
 10
5.861179
 20
11.583251
 42
-0.101486
 10
5.850974
 20
11.669375
 42
-0.15467
 10
5.877734
 20
11.734246
 42
-0.060392
 10
5.949337
 20
11.801221
 42
0.093424
 10
6.003722
 20
11.859235
 42
0.04714
 10
6.049528
 20
11.948833
 42
0.044563
 10
6.0807
 20
12.053552
 42
0.050105
 10
6.0912
 20
12.158066
 42
-0.057481
 10
6.104755
 20
12.275581
 42
-0.02769
 10
6.147443
 20
12.421268
 42
-0.027023
 10
6.209362
 20
12.570022
 42
-0.034793
 10
6.282666
 20
12.698639
 42
-0.042279
 10
6.379469
 20
12.820302
 42
-0.025213
 10
6.513181
 20
12.948354
 42
-0.025125
 10
6.660341
 20
13.063304
 42
-0.039331
 10
6.79853
 20
13.145065
 42
-0.023663
 10
6.985087
 20
13.225778
 42
-0.066801
 10
7.123144
 20
13.257755
 42
-0.069396
 10
7.261725
 20
13.251602
 42
-0.027046
 10
7.448525
 20
13.206479
 42
-0.040176
 10
7.585914
 20
13.152969
 42
-0.028998
 10
7.729514
 20
13.072702
 42
-0.029492
 10
7.857894
 20
12.979757
 42
-0.054722
 10
7.947861
 20
12.888055
 42
-0.050632
 10
8.015819
 20
12.780936
 42
-0.034138
 10
8.071696
 20
12.647253
 42
-0.033988
 10
8.109163
 20
12.506247
 42
-0.047977
 10
8.1216
 20
12.376929
 42
-0.025957
 10
8.115207
 20
12.253866
 42
-0.021544
 10
8.096012
 20
12.124127
 42
-0.022079
 10
8.067984
 20
12.006605
 42
-0.053333
 10
8.034492
 20
11.923914
 42
-0.064705
 10
7.983188
 20
11.852146
 42
-0.027575
 10
7.897913
 20
11.770148
 42
-0.026718
 10
7.796076
 20
11.69156
 42
-0.031654
 10
7.691864
 20
11.629017
 42
-0.038325
 10
7.57677
 20
11.580269
 42
-0.038558
 10
7.455816
 20
11.549777
 42
-0.041321
 10
7.342295
 20
11.539845
 42
-0.074846
 10
7.250222
 20
11.553264
 42
-0.043125
 10
7.165324
 20
11.587207
 42
-0.020767
 10
7.062858
 20
11.644263
 42
-0.020417
 10
6.960246
 20
11.71303
 42
-0.027493
 10
6.87375
 20
11.78387
 42
-0.038511
 10
6.800912
 20
11.861647
 42
-0.036366
 10
6.739315
 20
11.951118
 42
-0.038522
 10
6.696727
 20
12.03856
 42
-0.094334
 10
6.6834
 20
12.10857
 42
-0.137975
 10
6.703522
 20
12.180101
 42
-0.093769
 10
6.760599
 20
12.243188
 42
-0.06559
 10
6.857142
 20
12.29813
 42
-0.029257
 10
6.995893
 20
12.34533
 42
-0.005622
 10
7.116058
 20
12.37706
 42
-0.009374
 10
7.217989
 20
12.400729
 42
-0.00349
 10
7.30419
 20
12.418422
 42
-0.399164
 10
7.313143
 20
12.412757
 42
0.05704
 10
7.318016
 20
12.399851
 42
0.001787
 10
7.344018
 20
12.349737
 42
0.003464
 10
7.375334
 20
12.290898
 42
0.002391
 10
7.411568
 20
12.2247
 42
0.050745
 10
7.457973
 20
12.157878
 42
0.041893
 10
7.51974
 20
12.096938
 42
0.043597
 10
7.586687
 20
12.050368
 42
0.08179
 10
7.648282
 20
12.027364
 42
0.07126
 10
7.712045
 20
12.02405
 42
0.045139
 10
7.785391
 20
12.037439
 42
0.044513
 10
7.856616
 20
12.064228
 42
0.061078
 10
7.914164
 20
12.101173
 42
0.0771
 10
7.961224
 20
12.154379
 42
0.044438
 10
8.000917
 20
12.23035
 42
0.043154
 10
8.027937
 20
12.315759
 42
0.055091
 10
8.037
 20
12.397768
 42
0.079675
 10
8.022173
 20
12.490225
 42
0.031658
 10
7.9742
 20
12.609873
 42
0.030338
 10
7.905032
 20
12.734911
 42
0.033405
 10
7.823213
 20
12.846489
 42
0.039559
 10
7.723362
 20
12.94771
 42
0.030588
 10
7.600158
 20
13.041756
 42
0.031386
 10
7.473458
 20
13.115664
 42
0.06236
 10
7.364088
 20
13.154446
 42
0.051243
 10
7.243997
 20
13.168173
 42
0.04215
 10
7.115262
 20
13.158779
 42
0.040602
 10
6.984962
 20
13.127134
 42
0.03948
 10
6.860207
 20
13.074634
 42
0.04843
 10
6.751159
 20
13.004115
 42
0.029805
 10
6.637184
 20
12.902032
 42
0.029725
 10
6.535557
 20
12.786479
 42
0.046202
 10
6.46404
 20
12.6748
 42
0.041689
 10
6.406966
 20
12.537486
 42
0.039824
 10
6.372396
 20
12.390494
 42
0.038301
 10
6.360701
 20
12.234462
 42
0.032908
 10
6.371812
 20
12.070206
 42
0.032024
 10
6.400851
 20
11.924982
 42
0.023496
 10
6.450718
 20
11.768426
 42
0.023905
 10
6.512252
 20
11.624154
 42
0.047629
 10
6.576681
 20
11.518152
 42
0.022703
 10
6.653294
 20
11.424704
 42
0.013449
 10
6.752503
 20
11.320118
 42
0.013444
 10
6.857326
 20
11.220889
 42
0.022449
 10
6.951282
 20
11.143939
 42
0.048222
 10
7.054488
 20
11.081377
 42
0.028609
 10
7.187594
 20
11.026447
 42
0.028436
 10
7.327963
 20
10.986489
 42
0.043134
 10
7.453655
 20
10.969511
 42
0.018761
 10
7.61233
 20
10.967841
 42
0.133145
 10
7.685379
 20
10.989777
 42
0.226224
 10
7.71717
 20
11.039441
 42
0.065194
 10
7.716628
 20
11.133086
 42
-0.081214
 10
7.719121
 20
11.22862
 42
-0.236359
 10
7.75807
 20
11.279605
 42
-0.107459
 10
7.848961
 20
11.301861
 42
-0.012031
 10
8.063142
 20
11.302286
 42
0.029164
 10
8.216593
 20
11.307849
 42
0.029516
 10
8.36773
 20
11.331242
 42
0.031094
 10
8.496833
 20
11.367633
 42
0.089159
 10
8.577625
 20
11.41333
 42
0.070656
 10
8.641233
 20
11.483399
 42
0.091077
 10
8.676171
 20
11.56283
 42
0.076429
 10
8.683991
 20
11.660167
 42
0.035968
 10
8.665801
 20
11.785347
 42
-0.015818
 10
8.636209
 20
11.943851
 42
-0.23483
 10
8.652859
 20
11.996122
 42
-0.237767
 10
8.704422
 20
12.01403
 42
-0.0162
 10
8.861978
 20
11.987794
 42
0.034349
 10
9.000131
 20
11.969912
 42
0.127019
 10
9.085736
 20
11.986609
 42
0.134707
 10
9.149726
 20
12.041958
 42
0.04061
 10
9.212933
 20
12.155301
 42
0.030682
 10
9.25433
 20
12.263253
 42
0.013199
 10
9.29674
 20
12.411608
 42
0.013002
 10
9.333726
 20
12.572435
 42
0.016763
 10
9.358851
 20
12.721924
 42
0.030522
 10
9.372451
 20
12.910573
 42
0.060869
 10
9.355949
 20
13.059107
 42
0.060816
 10
9.304153
 20
13.199381
 42
0.030419
 10
9.207418
 20
13.362226
 42
0.033695
 10
9.110111
 20
13.486523
 42
0.020915
 10
8.98062
 20
13.619162
 42
0.020952
 10
8.841192
 20
13.739902
 42
0.035177
 10
8.713513
 20
13.827526
 42
0.042148
 10
8.544021
 20
13.908751
 42
0.040019
 10
8.360367
 20
13.962089
 42
0.033448
 10
8.142732
 20
13.991823
 42
0.01723
 10
7.8678
 20
14.0013
 42
0.019974
 10
7.572552
 20
13.989501
 42
0.036026
 10
7.333312
 20
13.952876
 42
0.036653
 10
7.104586
 20
13.882824
 42
0.021509
 10
6.842334
 20
13.767753
 42
0.025475
 10
6.623851
 20
13.646277
 42
0.029471
 10
6.4297
 20
13.508461
 42
0.031479
 10
6.265199
 20
13.358511
 42
0.040694
 10
6.135626
 20
13.200668
 42
0.036036
 10
6.037147
 20
13.034112
 42
0.025853
 10
5.950875
 20
12.835747
 42
0.025383
 10
5.883727
 20
12.624515
 42
0.030019
 10
5.842709
 20
12.419015
 42
-0.002626
 10
5.799575
 20
12.117829
 42
-0.126927
 10
5.776028
 20
12.062137
 42
-0.558611
 10
5.746923
 20
12.065074
 42
-0.014652
 10
5.682266
 20
12.209057
 42
-0.028716
 10
5.644454
 20
12.317553
 42
-0.018398
 10
5.612583
 20
12.447149
 42
-0.018487
 10
5.590673
 20
12.576823
 42
-0.032614
 10
5.5836
 20
12.685149
 42
-0.047342
 10
5.592978
 20
12.783971
 42
-0.041246
 10
5.620877
 20
12.884126
 42
-0.043365
 10
5.661833
 20
12.970945
 42
-0.087876
 10
5.7105
 20
13.0284
 42
0.048188
 10
5.759056
 20
13.077309
 42
0.041499
 10
5.800123
 20
13.137015
 42
0.04354
 10
5.828282
 20
13.198003
 42
0.086594
 10
5.8374
 20
13.250259
 42
0.14369
 10
5.824359
 20
13.294701
 42
0.099524
 10
5.787698
 20
13.332566
 42
0.083977
 10
5.732877
 20
13.35808
 42
0.067109
 10
5.6682
 20
13.3668
 42
-0.070922
 10
5.59789
 20
13.376823
 42
-0.110722
 10
5.544551
 20
13.406224
 42
-0.120689
 10
5.511832
 20
13.453411
 42
-0.094935
 10
5.500858
 20
13.51485
 42
-0.060206
 10
5.511407
 20
13.59381
 42
-0.014515
 10
5.548205
 20
13.720769
 42
-0.014692
 10
5.599304
 20
13.864987
 42
-0.014107
 10
5.65943
 20
14.007949
 42
-0.030329
 10
5.736505
 20
14.153513
 42
-0.022063
 10
5.838724
 20
14.305613
 42
-0.022419
 10
5.948956
 20
14.44174
 42
-0.044724
 10
6.049726
 20
14.536735
 42
-0.035386
 10
6.164092
 20
14.61427
 42
-0.01821
 10
6.316947
 20
14.695529
 42
-0.018006
 10
6.481057
 20
14.768068
 42
-0.025895
 10
6.631405
 20
14.819298
 42
0.011512
 10
6.770567
 20
14.862292
 42
0.01334
 10
6.900856
 20
14.909755
 42
0.012418
 10
7.00854
 20
14.955393
 42
0.07344
 10
7.05987
 20
14.988462
 42
0.237182
 10
7.070789
 20
15.015322
 42
0.258569
 10
7.055326
 20
15.038633
 42
0.091354
 10
7.004391
 20
15.054213
 42
0.028666
 10
6.924444
 20
15.0588
 42
-0.0327
 10
6.82144
 20
15.065544
 42
-0.014703
 10
6.687564
 20
15.08717
 42
-0.014484
 10
6.54697
 20
15.118393
 42
-0.01913
 10
6.421074
 20
15.15538
 42
-0.021878
 10
6.29925
 20
15.202317
 42
-0.016966
 10
6.170975
 20
15.26356
 42
-0.017267
 10
6.055043
 20
15.329002
 42
-0.039102
 10
5.973502
 20
15.38803
 42
-0.051239
 10
5.901345
 20
15.463395
 42
-0.018654
 10
5.814856
 20
15.583534
 42
-0.018268
 10
5.729347
 20
15.722964
 42
-0.020781
 10
5.65811
 20
15.8625
 42
-0.014479
 10
5.59849
 20
16.002917
 42
-0.014978
 10
5.547817
 20
16.144985
 42
-0.014843
 10
5.511371
 20
16.270323
 42
-0.060259
 10
5.500858
 20
16.34895
 42
-0.120162
 10
5.517178
 20
16.419726
 42
-0.163042
 10
5.563393
 20
16.465605
 42
-0.092292
 10
5.650808
 20
16.490217
 42
-0.0226
 10
5.800801
 20
16.497
 42
0.015616
 10
5.96826
 20
16.502231
 42
0.129508
 10
6.039815
 20
16.525947
 42
0.258551
 10
6.065081
 20
16.573642
 42
0.072241
 10
6.050871
 20
16.65999
 42
-0.084511
 10
6.039322
 20
16.742713
 42
-0.030839
 10
6.050173
 20
16.860872
 42
-0.02952
 10
6.07826
 20
16.991207
 42
-0.031136
 10
6.121138
 20
17.114962
 42
-0.017403
 10
6.174318
 20
17.230742
 42
-0.019986
 10
6.233214
 20
17.337191
 42
-0.019521
 10
6.28975
 20
17.422669
 42
-0.098777
 10
6.331357
 20
17.461468
 42
-0.303443
 10
6.364269
 20
17.460294
 42
-0.198211
 10
6.384994
 20
17.426835
 42
-0.064421
 10
6.38776
 20
17.346839
 42
-0.016694
 10
6.371336
 20
17.218712
 42
0.032255
 10
6.358684
 20
17.087857
 42
0.041725
 10
6.364891
 20
16.967435
 42
0.047647
 10
6.388608
 20
16.866201
 42
0.092103
 10
6.429006
 20
16.793816
 42
0.060859
 10
6.480757
 20
16.744972
 42
0.044027
 10
6.548559
 20
16.703687
 42
0.044597
 10
6.621181
 20
16.675536
 42
0.070284
 10
6.687268
 20
16.6662
 42
-0.09441
 10
6.763245
 20
16.651725
 42
-0.027867
 10
6.871326
 20
16.601863
 42
-0.026893
 10
6.989069
 20
16.531006
 42
-0.026005
 10
7.099909
 20
16.44718
 42
0.015153
 10
7.220125
 20
16.352094
 42
0.070059
 10
7.297783
 20
16.30977
 42
0.231858
 10
7.340333
 20
16.31389
 42
0.260297
 10
7.3602
 20
16.349468
 42
-0.099463
 10
7.371653
 20
16.406471
 42
-0.037801
 10
7.40871
 20
16.479043
 42
-0.035582
 10
7.462148
 20
16.554083
 42
-0.036337
 10
7.52534
 20
16.620226
 42
-0.034204
 10
7.630932
 20
16.703398
 42
-0.212914
 10
7.6971
 20
16.715387
 42
-0.140612
 10
7.766227
 20
16.675834
 42
-0.012598
 10
7.903367
 20
16.527588
 10
8.116253
 20
16.2855
 10
8.118927
 20
17.591478
 10
8.1216
 20
18.897456
 10
7.882495
 20
18.668379
 42
-0.011091
 10
7.728434
 20
18.527197
 42
-0.133571
 10
7.656775
 20
18.492223
 42
-0.221948
 10
7.593931
 20
18.508158
 42
-0.037539
 10
7.501795
 20
18.595762
 42
-0.030419
 10
7.447606
 20
18.663498
 42
-0.030047
 10
7.401794
 20
18.737579
 42
-0.031484
 10
7.369813
 20
18.807159
 42
-0.092229
 10
7.3602
 20
18.858832
 42
0.395379
 10
7.338498
 20
18.881987
 42
0.118653
 10
7.28626
 20
18.87294
 42
0.05221
 10
7.2033
 20
18.826318
 42
0.020798
 10
7.099909
 20
18.74642
 42
-0.026005
 10
6.989069
 20
18.662594
 42
-0.026893
 10
6.871326
 20
18.591737
 42
-0.027867
 10
6.763245
 20
18.541875
 42
-0.09441
 10
6.687268
 20
18.5274
 42
0.070284
 10
6.621181
 20
18.518064
 42
0.044597
 10
6.548559
 20
18.489913
 42
0.044027
 10
6.480757
 20
18.448628
 42
0.060859
 10
6.429006
 20
18.399784
 42
0.092362
 10
6.388358
 20
18.326862
 42
0.048239
 10
6.364776
 20
18.225194
 42
0.041866
 10
6.358954
 20
18.10357
 42
0.031266
 10
6.372143
 20
17.969914
 42
-0.008681
 10
6.396136
 20
17.803878
 42
-0.113911
 10
6.389929
 20
17.742445
 42
-0.43923
 10
6.361332
 20
17.729828
 42
-0.07025
 10
6.302823
 20
17.765898
 42
-0.069611
 10
6.250906
 20
17.822862
 42
-0.023404
 10
6.19167
 20
17.918772
 42
-0.022765
 10
6.135263
 20
18.03235
 42
-0.02417
 10
6.090649
 20
18.148371
 42
-0.02138
 10
6.056656
 20
18.268381
 42
-0.019827
 10
6.032044
 20
18.393903
 42
-0.020263
 10
6.019127
 20
18.507268
 42
-0.060575
 10
6.022871
 20
18.585086
 42
0.087336
 10
6.02248
 20
18.661036
 42
0.23521
 10
5.991066
 20
18.703105
 42
0.122672
 10
5.919603
 20
18.719329
 42
0.019126
 10
5.77395
 20
18.710707
 42
-0.022435
 10
5.63095
 20
18.70319
 42
-0.113399
 10
5.553433
 20
18.720376
 42
-0.193875
 10
5.513093
 20
18.764221
 42
-0.090442
 10
5.499
 20
18.841498
 42
-0.070034
 10
5.510862
 20
18.925772
 42
-0.016256
 10
5.554915
 20
19.062267
 42
-0.016465
 10
5.616486
 20
19.217487
 42
-0.01546
 10
5.68935
 20
19.371671
 42
-0.025227
 10
5.778276
 20
19.525968
 42
-0.020655
 10
5.888064
 20
19.68153
 42
-0.021135
 10
6.001191
 20
19.816346
 42
-0.0504
 10
6.098524
 20
19.903393
 42
-0.047355
 10
6.207456
 20
19.967851
 42
-0.023201
 10
6.356535
 20
20.029705
 42
-0.022782
 10
6.518693
 20
20.080104
 42
-0.030622
 10
6.669574
 20
20.109835
 42
0.014635
 10
6.804581
 20
20.131983
 42
0.023264
 10
6.918334
 20
20.159626
 42
0.019548
 10
7.005083
 20
20.188759
 42
0.311449
 10
7.0218
 20
20.212993
 42
0.283865
 10
7.005492
 20
20.239403
 42
0.016368
 10
6.915231
 20
20.280985
 42
0.020936
 10
6.798052
 20
20.324705
 42
0.013476
 10
6.659012
 20
20.365938
 42
-0.026662
 10
6.502562
 20
20.416857
 42
-0.018705
 10
6.332282
 20
20.489931
 42
-0.018933
 10
6.174064
 20
20.572429
 42
-0.037021
 10
6.056184
 20
20.651785
 42
-0.043826
 10
5.952924
 20
20.748778
 42
-0.022496
 10
5.840621
 20
20.886495
 42
-0.022173
 10
5.736965
 20
21.039719
 42
-0.031039
 10
5.65943
 20
21.185651
 42
-0.014107
 10
5.599304
 20
21.328613
 42
-0.014692
 10
5.548205
 20
21.472831
 42
-0.014515
 10
5.511407
 20
21.59979
 42
-0.060206
 10
5.500858
 20
21.67875
 42
-0.094935
 10
5.511832
 20
21.740189
 42
-0.120689
 10
5.544551
 20
21.787376
 42
-0.110722
 10
5.59789
 20
21.816777
 42
-0.070922
 10
5.6682
 20
21.8268
 42
0.043998
 10
5.732971
 20
21.832511
 42
0.063794
 10
5.787698
 20
21.849637
 42
0.083573
 10
5.824722
 20
21.87483
 42
0.20442
 10
5.8374
 20
21.904544
 42
0.088909
 10
5.829505
 20
21.948592
 42
0.013882
 10
5.796396
 20
22.030896
 42
0.015073
 10
5.751256
 20
22.126686
 42
0.012627
 10
5.697813
 20
22.225504
 42
-0.04218
 10
5.637123
 20
22.355526
 42
-0.052133
 10
5.604294
 20
22.485049
 42
-0.049493
 10
5.598019
 20
22.623921
 42
-0.032936
 10
5.617047
 20
22.78226
 42
-0.020187
 10
5.644646
 20
22.902399
 42
-0.030761
 10
5.679082
 20
23.003698
 42
-0.031218
 10
5.715114
 20
23.077985
 42
-0.270518
 10
5.745631
 20
23.0958
 42
-0.304787
 10
5.775179
 20
23.075944
 42
-0.025022
 10
5.807537
 20
22.983706
 42
-0.026828
 10
5.836877
 20
22.860458
 42
-0.016959
 10
5.858407
 20
22.714204
 42
0.034416
 10
5.888916
 20
22.547532
 42
0.023009
 10
5.945481
 20
22.361957
 42
0.023203
 10
6.017323
 20
22.186316
 42
0.04154
 10
6.09443
 20
22.050925
 42
0.029188
 10
6.189019
 20
21.928819
 42
0.017349
 10
6.314779
 20
21.794406
 42
0.017334
 10
6.449932
 20
21.668677
 42
0.028481
 10
6.573515
 20
21.573222
 42
0.032908
 10
6.714395
 20
21.48974
 42
0.015751
 10
6.904996
 20
21.400556
 42
0.01554
 10
7.110603
 20
21.319606
 42
0.021376
 10
7.300244
 20
21.260684
 42
0.024837
 10
7.504657
 20
21.217363
 42
0.020263
 10
7.726757
 20
21.190885
 42
0.02068
 10
7.94338
 20
21.182914
 42
0.031706
 10
8.130696
 20
21.195664
 42
0.026737
 10
8.299436
 20
21.22721
 42
0.019096
 10
8.484311
 20
21.279664
 42
0.019357
 10
8.657157
 20
21.343418
 42
0.038596
 10
8.787119
 20
21.409308
 42
0.037257
 10
8.901802
 20
21.49133
 42
0.022006
 10
9.026255
 20
21.604817
 42
0.021942
 10
9.141171
 20
21.729772
 42
0.034824
 10
9.226786
 20
21.847177
 42
0.035859
 10
9.306637
 20
21.997328
 42
0.05331
 10
9.352099
 20
22.138978
 42
0.051494
 10
9.367493
 20
22.290657
 42
0.030816
 10
9.356008
 20
22.471676
 42
0.017227
 10
9.331971
 20
22.621165
 42
0.013365
 10
9.295905
 20
22.781992
 42
0.01357
 10
9.254133
 20
22.93034
 42
0.031489
 10
9.212933
 20
23.038299
 42
0.040648
 10
9.150308
 20
23.150579
 42
0.131557
 10
9.08663
 20
23.206334
 42
0.127382
 10
9.002333
 20
23.223786
 42
0.037051
 10
8.869633
 20
23.207337
 42
-0.022744
 10
8.720485
 20
23.184503
 42
-0.233101
 10
8.663543
 20
23.205391
 42
-0.197154
 10
8.63995
 20
23.265884
 42
-0.016027
 10
8.648545
 20
23.439399
 42
0.034473
 10
8.650414
 20
23.587429
 42
0.09768
 10
8.624874
 20
23.687023
 42
0.109088
 10
8.565487
 20
23.763055
 42
0.049328
 10
8.46
 20
23.833961
 42
0.055595
 10
8.358808
 20
23.874632
 42
0.030857
 10
8.228527
 20
23.902317
 42
0.030389
 10
8.091503
 20
23.914258
 42
0.042672
 10
7.969008
 20
23.907008
 42
-0.016144
 10
7.807612
 20
23.888835
 42
-0.150948
 10
7.740128
 20
23.903911
 42
-0.252958
 10
7.711283
 20
23.950348
 42
-0.049479
 10
7.715208
 20
24.052132
 42
0.057339
 10
7.717497
 20
24.152168
 42
0.228225
 10
7.68677
 20
24.203378
 42
0.139871
 10
7.614925
 20
24.22589
 42
0.018441
 10
7.453655
 20
24.224089
 42
0.043134
 10
7.327963
 20
24.207111
 42
0.028436
 10
7.187594
 20
24.167153
 42
0.028609
 10
7.054488
 20
24.112223
 42
0.048222
 10
6.951282
 20
24.049661
 42
0.022449
 10
6.857326
 20
23.972711
 42
0.013444
 10
6.752503
 20
23.873482
 42
0.013449
 10
6.653294
 20
23.768896
 42
0.022703
 10
6.576681
 20
23.675448
 42
0.047629
 10
6.512252
 20
23.569446
 42
0.023905
 10
6.450718
 20
23.425174
 42
0.023496
 10
6.400851
 20
23.268618
 42
0.032024
 10
6.371812
 20
23.123394
 42
0.033154
 10
6.360674
 20
22.957524
 42
0.039232
 10
6.372864
 20
22.800872
 42
0.04049
 10
6.408742
 20
22.652344
 42
0.039845
 10
6.468226
 20
22.510704
 42
0.05047
 10
6.545342
 20
22.392512
 42
0.037811
 10
6.651872
 20
22.279196
 42
0.037662
 10
6.774847
 20
22.182691
 42
0.048615
 10
6.901231
 20
22.114802
 42
0.035773
 10
7.028207
 20
22.072122
 42
0.029209
 10
7.168879
 20
22.044433
 42
0.030132
 10
7.301886
 20
22.034345
 42
0.065433
 10
7.403462
 20
22.046101
 42
0.065614
 10
7.49935
 20
22.08406
 42
0.029009
 10
7.614562
 20
22.157257
 42
0.028096
 10
7.729373
 20
22.250131
 42
0.03375
 10
7.825749
 20
22.350125
 42
0.033772
 10
7.906598
 20
22.46055
 42
0.030475
 10
7.974945
 20
22.584612
 42
0.031792
 10
8.022324
 20
22.703564
 42
0.079033
 10
8.037
 20
22.795832
 42
0.055091
 10
8.027937
 20
22.877841
 42
0.043154
 10
8.000917
 20
22.96325
 42
0.044438
 10
7.961224
 20
23.039221
 42
0.0771
 10
7.914164
 20
23.092427
 42
0.061078
 10
7.856616
 20
23.129372
 42
0.044513
 10
7.785391
 20
23.156161
 42
0.045139
 10
7.712045
 20
23.16955
 42
0.07126
 10
7.648282
 20
23.166236
 42
0.08179
 10
7.586687
 20
23.143232
 42
0.043597
 10
7.51974
 20
23.096662
 42
0.041893
 10
7.457973
 20
23.035722
 42
0.050745
 10
7.411568
 20
22.9689
 42
0.002391
 10
7.375334
 20
22.902702
 42
0.003464
 10
7.344018
 20
22.843863
 42
0.001787
 10
7.318016
 20
22.793749
 42
0.05704
 10
7.313143
 20
22.780843
 42
-0.399164
 10
7.30419
 20
22.775178
 42
-0.00349
 10
7.217989
 20
22.792871
 42
-0.009374
 10
7.116058
 20
22.81654
 42
-0.005622
 10
6.995893
 20
22.84827
 42
-0.02847
 10
6.852922
 20
22.896654
 42
-0.070765
 10
6.757535
 20
22.951847
 42
-0.102807
 10
6.702859
 20
23.016752
 42
-0.124428
 10
6.6834
 20
23.093734
 42
-0.06808
 10
6.693067
 20
23.164403
 42
-0.039028
 10
6.722615
 20
23.24537
 42
-0.038204
 10
6.765796
 20
23.32361
 42
-0.051226
 10
6.816897
 20
23.386411
 42
-0.02315
 10
6.880131
 20
23.444046
 42
-0.013728
 10
6.960401
 20
23.507036
 42
-0.013723
 10
7.044107
 20
23.565597
 42
-0.022909
 10
7.117959
 20
23.609586
 42
-0.067626
 10
7.199939
 20
23.640102
 42
-0.034174
 10
7.309095
 20
23.656933
 42
-0.033182
 10
7.426157
 20
23.659078
 42
-0.042072
 10
7.533331
 20
23.644837
 42
-0.056066
 10
7.640627
 20
23.608298
 42
-0.033676
 10
7.75835
 20
23.542826
 42
-0.033386
 10
7.868075
 20
23.460851
 42
-0.049014
 10
7.951369
 20
23.373995
 42
-0.052135
 10
8.017737
 20
23.268686
 42
-0.033896
 10
8.072519
 20
23.135564
 42
-0.033626
 10
8.109365
 20
22.994452
 42
-0.04708
 10
8.1216
 20
22.864801
 42
-0.048308
 10
8.109025
 20
22.734949
 42
-0.029929
 10
8.070649
 20
22.58647
 42
-0.02987
 10
8.014604
 20
22.443031
 42
-0.046676
 10
7.948151
 20
22.328433
 42
-0.053677
 10
7.856733
 20
22.225461
 42
-0.034526
 10
7.731304
 20
22.126396
 42
-0.03388
 10
7.589604
 20
22.043041
 42
-0.043253
 10
7.448814
 20
21.987208
 42
-0.026991
 10
7.261815
 20
21.942015
 42
-0.069408
 10
7.123196
 20
21.935833
 42
-0.066847
 10
6.985139
 20
21.967798
 42
-0.02366
 10
6.79853
 20
22.048535
 42
-0.039331
 10
6.660341
 20
22.130296
 42
-0.025125
 10
6.513181
 20
22.245246
 42
-0.025213
 10
6.379469
 20
22.373298
 42
-0.042279
 10
6.282666
 20
22.494961
 42
-0.034793
 10
6.209362
 20
22.623578
 42
-0.027023
 10
6.147443
 20
22.772332
 42
-0.02769
 10
6.104755
 20
22.918019
 42
-0.057481
 10
6.0912
 20
23.035534
 42
0.050189
 10
6.080524
 20
23.141623
 42
0.046406
 10
6.048872
 20
23.246415
 42
0.0493
 10
6.001738
 20
23.335944
 42
0.089312
 10
5.944803
 20
23.395695
 42
-0.05216
 10
5.865587
 20
23.46739
 42
-0.181355
 10
5.840898
 20
23.530637
 42
-0.103428
 10
5.857593
 20
23.616167
 42
-0.011519
 10
5.939425
 20
23.798465
 42
-0.039406
 10
6.013661
 20
23.927003
 42
-0.022878
 10
6.121366
 20
24.069194
 42
-0.022768
 10
6.243129
 20
24.202669
 42
-0.035345
 10
6.360772
 20
24.304828
 42
-0.028104
 10
6.48807
 20
24.389732
 42
-0.020088
 10
6.639022
 20
24.470607
 42
-0.02037
 10
6.789592
 20
24.536218
 42
-0.040362
 10
6.914355
 20
24.573386
 42
-0.047544
 10
7.051432
 20
24.589057
 42
-0.017908
 10
7.244697
 20
24.585773
 42
-0.01755
 10
7.456137
 20
24.567139
 42
-0.020427
 10
7.655201
 20
24.534228
 42
-0.031321
 10
7.864271
 20
24.476971
 42
-0.018245
 10
8.107143
 20
24.383769
 42
-0.018196
 10
8.34452
 20
24.272222
 42
-0.029174
 10
8.537111
 20
24.15834
 42
0.01859
 10
8.710965
 20
24.05051
 42
0.031389
 10
8.864949
 20
23.975131
 42
0.034983
 10
8.988909
 20
23.933704
 42
0.204316
 10
9.055418
 20
23.943789
 42
0.194889
 10
9.090049
 20
23.991061
 42
0.139507
 10
9.088067
 20
24.057302
 42
0.067676
 10
9.043026
 20
24.152414
 42
0.017302
 10
8.94492
 20
24.292178
 42
-0.018449
 10
8.853897
 20
24.422485
 42
-0.011847
 10
8.75762
 20
24.579818
 42
-0.011908
 10
8.670578
 20
24.738531
 42
-0.021793
 10
8.608494
 20
24.8724
 42
-0.016248
 10
8.557467
 20
25.008722
 42
-0.009549
 10
8.504921
 20
25.174713
 42
-0.009545
 10
8.458685
 20
25.342823
 42
-0.016048
 10
8.427142
 20
25.48575
 42
-0.028433
 10
8.408569
 20
25.629756
 42
-0.017389
 10
8.402292
 20
25.800997
 42
-0.017411
 10
8.407915
 20
25.971583
 42
-0.029428
 10
8.42597
 20
26.11343
 42
-0.055761
 10
8.474322
 20
26.271499
 42
-0.03803
 10
8.561893
 20
26.437963
 42
-0.033251
 10
8.687441
 20
26.611325
 42
-0.023039
 10
8.850577
 20
26.79023
 42
-0.021785
 10
9.003612
 20
26.93048
 42
-0.025639
 10
9.160463
 20
27.048979
 42
-0.025837
 10
9.300926
 20
27.133957
 42
-0.123729
 10
9.391029
 20
27.1566
 42
-0.067176
 10
9.461219
 20
27.147127
 42
-0.062452
 10
9.528278
 20
27.119323
 42
-0.066613
 10
9.58224
 20
27.078232
 42
-0.105525
 10
9.613806
 20
27.0297
 42
0.138735
 10
9.652542
 20
26.977904
 42
0.069828
 10
9.724218
 20
26.937478
 42
0.056324
 10
9.82154
 20
26.911423
 42
0.037279
 10
9.93704
 20
26.9028
 42
-0.054117
 10
10.062878
 20
26.88914
 42
-0.028032
 10
10.215374
 20
26.846557
 42
-0.027505
 10
10.368875
 20
26.784649
 42
-0.037327
 10
10.499039
 20
26.711334
 42
-0.042279
 10
10.620702
 20
26.614531
 42
-0.025213
 10
10.748754
 20
26.480819
 42
-0.025125
 10
10.863704
 20
26.333659
 42
-0.039331
 10
10.945465
 20
26.19547
 42
-0.023577
 10
11.026878
 20
26.007383
 42
-0.068165
 10
11.058506
 20
25.869339
 42
-0.0697
 10
11.051505
 20
25.729618
 42
-0.025469
 10
11.004307
 20
25.536891
 42
-0.039422
 10
10.943503
 20
25.380076
 42
-0.047513
 10
10.861791
 20
25.244883
 42
-0.049078
 10
10.758572
 20
25.131085
 42
-0.047155
 10
10.633842
 20
25.03787
 42
-0.035375
 10
10.511597
 20
24.97472
 42
-0.025538
 10
10.367676
 20
24.921361
 42
-0.025958
 10
10.224922
 20
24.884594
 42
-0.049775
 10
10.107374
 20
24.872716
 42
-0.041705
 10
9.996025
 20
24.881882
 42
-0.029159
 10
9.873155
 20
24.909847
 42
-0.029541
 10
9.757728
 20
24.950827
 42
-0.052747
 10
9.669698
 20
24.999562
 42
-0.063075
 10
9.593211
 20
25.068982
 42
-0.030407
 10
9.513301
 20
25.174751
 42
-0.029565
 10
9.442277
 20
25.296776
 42
-0.037323
 10
9.392223
 20
25.417382
 42
-0.028532
 10
9.349542
 20
25.576718
 42
-0.066403
 10
9.340659
 20
25.699756
 42
-0.069861
 10
9.364423
 20
25.816963
 42
-0.034442
 10
9.42492
 20
25.956768
 42
-0.031152
 10
9.484238
 20
26.05583
 42
-0.030176
 10
9.555988
 20
26.147869
 42
-0.031606
 10
9.628997
 20
26.220838
 42
-0.089115
 10
9.69049
 20
26.258048
 42
-0.023612
 10
9.751399
 20
26.278178
 42
-0.016786
 10
9.821286
 20
26.295163
 42
-0.016998
 10
9.889223
 20
26.306884
 42
-0.034227
 10
9.943443
 20
26.3106
 42
-0.200635
 10
9.993956
 20
26.28948
 42
-0.051113
 10
10.050716
 20
26.218805
 42
-0.043921
 10
10.104192
 20
26.11775
 42
-0.032393
 10
10.14573
 20
25.998107
 42
-0.005622
 10
10.17746
 20
25.877942
 42
-0.009374
 10
10.201129
 20
25.776011
 42
-0.00349
 10
10.218822
 20
25.68981
 42
-0.399164
 10
10.213157
 20
25.680857
 42
0.05704
 10
10.200251
 20
25.675984
 42
0.001787
 10
10.150137
 20
25.649982
 42
0.003464
 10
10.091298
 20
25.618666
 42
0.002391
 10
10.0251
 20
25.582432
 42
0.050745
 10
9.958278
 20
25.536027
 42
0.041893
 10
9.897338
 20
25.47426
 42
0.043597
 10
9.850768
 20
25.407313
 42
0.08179
 10
9.827764
 20
25.345718
 42
0.07126
 10
9.82445
 20
25.281955
 42
0.045139
 10
9.837839
 20
25.208609
 42
0.044513
 10
9.864628
 20
25.137384
 42
0.061078
 10
9.901573
 20
25.079836
 42
0.078724
 10
9.955134
 20
25.03277
 42
0.044337
 10
10.032265
 20
24.993083
 42
0.042902
 10
10.119341
 20
24.966067
 42
0.053824
 10
10.203324
 20
24.957
 42
0.084806
 10
10.297864
 20
24.973151
 42
0.03354
 10
10.419445
 20
25.025341
 42
0.031997
 10
10.546025
 20
25.100616
 42
0.034627
 10
10.658475
 20
25.18965
 42
0.038563
 10
10.759768
 20
25.297343
 42
0.029956
 10
10.852976
 20
25.428513
 42
0.030746
 10
10.925367
 20
25.562155
 42
0.061883
 10
10.962037
 20
25.6761
 42
0.053649
 10
10.972893
 20
25.810584
 42
0.060213
 10
10.953894
 20
25.938958
 42
0.05263
 10
10.901745
 20
26.072471
 42
0.029052
 10
10.812245
 20
26.223273
 42
0.039947
 10
10.714132
 20
26.346211
 42
0.036432
 10
10.594838
 20
26.456137
 42
0.038018
 10
10.4678
 20
26.542253
 42
0.060178
 10
10.346769
 20
26.593355
 42
0.039206
 10
10.222402
 20
26.618685
 42
0.022024
 10
10.068611
 20
26.630785
 42
0.021865
 10
9.911286
 20
26.62933
 42
0.03313
 10
9.775442
 20
26.613059
 42
0.049028
 10
9.638253
 20
26.5731
 42
0.025365
 10
9.47591
 20
26.498229
 42
0.024953
 10
9.315381
 20
26.403581
 42
0.034488
 10
9.182456
 20
26.302198
 42
0.034444
 10
9.064609
 20
26.183406
 42
0.024803
 10
8.949627
 20
26.036151
 42
0.025199
 10
8.853861
 20
25.884401
 42
0.048488
 10
8.795853
 20
25.752982
 42
0.023077
 10
8.761841
 20
25.631334
 42
0.024872
 10
8.74018
 20
25.510061
 42
0.025436
 10
8.73216
 20
25.404951
 42
0.09824
 10
8.743213
 20
25.340778
 42
0.121178
 10
8.772773
 20
25.298265
 42
0.094035
 10
8.821434
 20
25.269458
 42
0.082935
 10
8.883034
 20
25.258153
 42
0.068052
 10
8.949541
 20
25.266165
 42
-0.095264
 10
9.034824
 20
25.271786
 42
-0.259124
 10
9.082037
 20
25.237274
 42
-0.102902
 10
9.102743
 20
25.14779
 42
-0.0111
 10
9.102766
 20
24.934234
 42
0.028717
 10
9.108252
 20
24.779003
 42
0.029593
 10
9.131524
 20
24.626997
 42
0.031297
 10
9.167866
 20
24.497525
 42
0.089331
 10
9.21373
 20
24.416375
 42
0.070639
 10
9.283715
 20
24.352838
 42
0.09085
 10
9.363098
 20
24.317873
 42
0.076413
 10
9.460263
 20
24.309969
 42
0.036226
 10
9.584916
 20
24.328016
 42
-0.015872
 10
9.738288
 20
24.356633
 42
-0.207592
 10
9.793029
 20
24.342267
 42
-0.255056
 10
9.813498
 20
24.294564
 42
-0.023688
 10
9.79477
 20
24.163115
 42
0.0443
 10
9.785699
 20
24.073018
 42
0.046777
 10
9.792954
 20
23.9844
 42
0.051625
 10
9.814233
 20
23.909933
 42
0.124788
 10
9.847709
 20
23.863998
 42
0.073338
 10
9.907711
 20
23.827514
 42
0.012794
 10
10.031306
 20
23.778962
 42
0.013649
 10
10.180486
 20
23.729289
 42
0.011865
 10
10.339259
 20
23.685279
 42
0.019289
 10
10.567817
 20
23.637017
 42
0.062365
 10
10.722539
 20
23.630056
 42
0.06805
 10
10.866838
 20
23.661643
 42
0.026101
 10
11.056118
 20
23.742468
 42
0.039018
 10
11.192449
 20
23.823038
 42
0.025107
 10
11.337358
 20
23.935959
 42
0.025214
 10
11.46881
 20
24.061546
 42
0.042609
 10
11.563679
 20
24.180648
 42
0.037081
 10
11.639474
 20
24.315096
 42
0.020724
 10
11.712263
 20
24.488339
 42
0.020581
 10
11.77167
 20
24.670552
 42
0.0313
 10
11.806602
 20
24.833303
 42
0.033052
 10
11.821052
 20
25.007481
 42
0.018573
 10
11.81671
 20
25.21981
 42
0.018363
 10
11.796144
 20
25.437221
 42
0.02611
 10
11.760782
 20
25.628037
 42
0.028213
 10
11.703867
 20
25.81748
 42
0.016398
 10
11.61552
 20
26.037991
 42
0.01636
 10
11.512162
 20
26.253846
 42
0.02644
 10
11.408849
 20
26.429305
 42
0.032035
 10
11.280205
 20
26.598854
 42
0.030629
 10
11.129132
 20
26.7533
 42
0.031463
 10
10.965091
 20
26.883877
 42
0.039658
 10
10.797713
 20
26.981972
 42
0.025102
 10
10.639856
 20
27.048833
 42
0.020029
 10
10.463812
 20
27.105303
 42
0.020459
 10
10.296255
 20
27.144436
 42
0.047166
 10
10.16759
 20
27.1566
 42
-0.026227
 10
10.064362
 20
27.162019
 42
-0.041455
 10
9.977333
 20
27.178553
 42
-0.050383
 10
9.915863
 20
27.202486
 42
-0.281831
 10
9.8982
 20
27.231333
 42
-0.195004
 10
9.911278
 20
27.263589
 42
-0.054218
 10
9.954115
 20
27.299098
 42
-0.046111
 10
10.015678
 20
27.332064
 42
-0.034423
 10
10.08855
 20
27.357078
 42
-0.022094
 10
10.177424
 20
27.376733
 42
-0.011931
 10
10.288283
 20
27.393444
 42
-0.011862
 10
10.402224
 20
27.40511
 42
-0.01828
 10
10.501191
 20
27.409245
 42
-0.050609
 10
10.594028
 20
27.400311
 42
-0.042381
 10
10.689121
 20
27.372784
 42
-0.044234
 10
10.772383
 20
27.33206
 42
-0.083887
 10
10.8288
 20
27.2835
 42
0.048188
 10
10.877709
 20
27.234944
 42
0.041499
 10
10.937415
 20
27.193877
 42
0.04354
 10
10.998403
 20
27.165718
 42
0.086594
 10
11.050659
 20
27.1566
 42
0.14369
 10
11.095101
 20
27.169641
 42
0.099524
 10
11.132966
 20
27.206302
 42
0.083977
 10
11.15848
 20
27.261123
 42
0.067109
 10
11.1672
 20
27.3258
 42
-0.072435
 10
11.178033
 20
27.400186
 42
-0.127185
 10
11.209921
 20
27.453113
 42
-0.125363
 10
11.263849
 20
27.484429
 42
-0.069282
  0
LWPOLYLINE
  5
9F2
330
1D
100
AcDbEntity
  8
0
100
AcDbPolyline
 90
      120
 70
     1
 43
0.0
 10
8.56575
 20
10.820825
 42
-0.056833
 10
8.590025
 20
10.821104
 42
-0.083445
 10
8.610562
 20
10.815452
 42
-0.109766
 10
8.624232
 20
10.804979
 42
-0.1764
 10
8.6292
 20
10.791336
 42
-0.117729
 10
8.623202
 20
10.766215
 42
-0.003897
 10
8.57571
 20
10.674217
 42
-0.007228
 10
8.516877
 20
10.566217
 42
-0.004947
 10
8.447106
 20
10.445245
 42
0.029974
 10
8.369258
 20
10.293165
 42
0.013741
 10
8.285401
 20
10.086641
 42
0.013552
 10
8.208774
 20
9.863746
 42
0.018217
 10
8.152327
 20
9.657859
 42
0.01198
 10
8.109083
 20
9.452149
 42
0.009738
 10
8.072356
 20
9.229895
 42
0.009867
 10
8.046541
 20
9.023719
 42
0.025132
 10
8.038322
 20
8.873259
 42
0.043701
 10
8.049919
 20
8.733891
 42
0.03691
 10
8.085698
 20
8.590279
 42
0.037457
 10
8.14135
 20
8.455971
 42
0.049743
 10
8.21234
 20
8.344509
 42
-0.007626
 10
8.316043
 20
8.208453
 42
-0.13096
 10
8.336421
 20
8.156768
 42
-0.38951
 10
8.316624
 20
8.129485
 42
-0.050095
 10
8.238119
 20
8.1216
 42
-0.099804
 10
8.165128
 20
8.136316
 42
-0.031769
 10
8.065347
 20
8.185929
 42
-0.030276
 10
7.958481
 20
8.256781
 42
-0.029505
 10
7.859981
 20
8.340591
 10
7.631404
 20
8.559582
 10
7.575341
 20
8.227752
 42
-0.027941
 10
7.542071
 20
8.081199
 42
-0.017746
 10
7.487896
 20
7.914713
 42
-0.01782
 10
7.422875
 20
7.754584
 42
-0.031267
 10
7.356383
 20
7.628061
 42
-0.030734
 10
7.285057
 20
7.525536
 42
-0.03675
 10
7.205499
 20
7.438884
 42
-0.039897
 10
7.129331
 20
7.377939
 42
-0.149877
 10
7.071484
 20
7.3602
 42
-0.124803
 10
7.012736
 20
7.375096
 42
-0.036677
 10
6.933813
 20
7.42568
 42
-0.034337
 10
6.850235
 20
7.497799
 42
-0.030934
 10
6.77414
 20
7.583109
 42
-0.022783
 10
6.707028
 20
7.676926
 42
-0.02434
 10
6.650306
 20
7.774464
 42
-0.024866
 10
6.610105
 20
7.862507
 42
-0.094937
 10
6.5988
 20
7.921509
 42
0.053215
 10
6.594084
 20
7.965694
 42
0.073016
 10
6.580081
 20
8.003075
 42
0.092835
 10
6.559393
 20
8.028174
 42
0.175859
 10
6.535075
 20
8.037
 42
0.161613
 10
6.4986
 20
8.024894
 42
0.013797
 10
6.420197
 20
7.96297
 42
0.017129
 10
6.329242
 20
7.881516
 42
0.012421
 10
6.233487
 20
7.784983
 42
-0.043465
 10
6.117473
 20
7.681701
 42
-0.026418
 10
5.964542
 20
7.579812
 42
-0.02636
 10
5.800889
 20
7.494159
 42
-0.041633
 10
5.65195
 20
7.440424
 42
-0.018442
 10
5.490788
 20
7.403343
 42
-0.044846
 10
5.369522
 20
7.391219
 42
-0.064522
 10
5.280322
 20
7.401871
 42
-0.135235
 10
5.220059
 20
7.436101
 42
-0.145414
 10
5.187211
 20
7.496719
 42
-0.06746
 10
5.180612
 20
7.586862
 42
-0.04595
 10
5.199616
 20
7.709711
 42
-0.018367
 10
5.24705
 20
7.873407
 42
-0.034874
 10
5.308462
 20
8.023448
 42
-0.023355
 10
5.398203
 20
8.185817
 42
-0.023555
 10
5.500457
 20
8.335693
 42
-0.04214
 10
5.59983
 20
8.446722
 42
0.013167
 10
5.690824
 20
8.537253
 42
0.017952
 10
5.767614
 20
8.623803
 42
0.014917
 10
5.825627
 20
8.698553
 42
0.158855
 10
5.8374
 20
8.734675
 42
0.175859
 10
5.828574
 20
8.758993
 42
0.092835
 10
5.803475
 20
8.779681
 42
0.073016
 10
5.766094
 20
8.793684
 42
0.053215
 10
5.721909
 20
8.7984
 42
-0.094937
 10
5.662907
 20
8.809705
 42
-0.024866
 10
5.574864
 20
8.849906
 42
-0.02434
 10
5.477326
 20
8.906628
 42
-0.022783
 10
5.383509
 20
8.97374
 42
-0.030934
 10
5.298199
 20
9.049835
 42
-0.034337
 10
5.22608
 20
9.133413
 42
-0.036677
 10
5.175496
 20
9.212336
 42
-0.124803
 10
5.1606
 20
9.271084
 42
-0.149877
 10
5.178339
 20
9.328931
 42
-0.039897
 10
5.239284
 20
9.405099
 42
-0.03675
 10
5.325936
 20
9.484657
 42
-0.030734
 10
5.428461
 20
9.555983
 42
-0.030975
 10
5.554712
 20
9.622427
 42
-0.017823
 10
5.713943
 20
9.687299
 42
-0.017761
 10
5.879148
 20
9.741262
 42
-0.028215
 10
6.024168
 20
9.774268
 10
6.352015
 20
9.829658
 10
6.137008
 20
10.044665
 42
-0.035514
 10
6.054729
 20
10.139542
 42
-0.03375
 10
5.985158
 20
10.24668
 42
-0.035596
 10
5.936917
 20
10.349876
 42
-0.091788
 10
5.922
 20
10.430448
 42
-0.017129
 10
5.925502
 20
10.532637
 42
-0.336485
 10
5.944957
 20
10.554923
 42
-0.229157
 10
5.978943
 20
10.546369
 42
-0.009611
 10
6.075601
 20
10.462217
 42
0.051324
 10
6.153477
 20
10.405077
 42
0.025337
 10
6.262465
 20
10.348366
 42
0.024839
 10
6.382623
 20
10.30045
 42
0.03311
 10
6.49604
 20
10.269842
 42
0.048843
 10
6.634565
 20
10.255973
 42
0.01547
 10
6.842434
 20
10.261953
 42
0.015283
 10
7.075123
 20
10.283012
 42
0.016419
 10
7.300548
 20
10.317926
 42
0.02039
 10
7.530719
 20
10.371156
 42
0.015565
 10
7.777815
 20
10.447367
 42
0.015816
 10
8.00513
 20
10.53343
 42
0.035349
 10
8.17026
 20
10.616114
 42
-0.006108
 10
8.302065
 20
10.69205
 42
-0.008205
 10
8.423402
 20
10.757402
 42
-0.005944
 10
8.52608
 20
10.809011
 42
-0.082394
  0
LWPOLYLINE
  5
A6C
330
1D
100
AcDbEntity
  8
0
100
AcDbPolyline
 90
      112
 70
     1
 43
0.0
 10
22.196844
 20
10.8288
 42
-0.116229
 10
22.219017
 20
10.823575
 42
-0.00211
 10
22.327941
 20
10.768648
 42
-0.005114
 10
22.454529
 20
10.702502
 42
-0.003378
 10
22.598694
 20
10.624026
 42
0.029366
 10
22.777882
 20
10.538234
 42
0.014507
 10
23.014256
 20
10.449584
 42
0.014343
 10
23.265598
 20
10.371528
 42
0.020322
 10
23.493509
 20
10.317734
 42
0.018135
 10
23.716182
 20
10.282967
 42
0.015772
 10
23.951411
 20
10.262433
 42
0.016052
 10
24.165515
 20
10.257415
 42
0.044223
 10
24.315639
 20
10.272031
 42
0.029945
 10
24.439054
 20
10.302929
 42
0.026103
 10
24.56384
 20
10.349527
 42
0.026977
 10
24.672345
 20
10.403762
 42
0.067085
 10
24.74278
 20
10.457466
 42
-0.011939
 10
24.820893
 20
10.531935
 42
-0.247764
 10
24.85125
 20
10.539748
 42
-0.327429
 10
24.869117
 20
10.51871
 42
-0.017812
 10
24.8724
 20
10.42659
 42
-0.096732
 10
24.857642
 20
10.351019
 42
-0.036939
 10
24.809872
 20
10.254498
 42
-0.034866
 10
24.740993
 20
10.154488
 42
-0.035962
 10
24.659539
 20
10.066121
 10
24.446677
 20
9.866148
 10
24.941328
 20
9.714299
 42
-0.01918
 10
25.141314
 20
9.644409
 42
-0.019798
 10
25.333207
 20
9.560057
 42
-0.019971
 10
25.493029
 20
9.474053
 42
-0.075547
 10
25.580769
 20
9.402457
 42
-0.041619
 10
25.658267
 20
9.301015
 42
-0.22135
 10
25.667319
 20
9.233624
 42
-0.131221
 10
25.622123
 20
9.162032
 42
-0.011807
 10
25.461689
 20
9.020433
 42
-0.020513
 10
25.351833
 20
8.935439
 42
-0.023389
 10
25.23996
 20
8.863622
 42
-0.023421
 10
25.140423
 20
8.812169
 42
-0.107982
 10
25.077409
 20
8.7984
 42
0.050952
 10
25.031336
 20
8.793693
 42
0.070901
 10
24.99237
 20
8.779681
 42
0.090986
 10
24.966171
 20
8.759
 42
0.182251
 10
24.957
 20
8.734675
 42
0.161621
 10
24.969107
 20
8.698199
 42
0.013794
 10
25.031043
 20
8.619785
 42
0.017126
 10
25.112511
 20
8.528817
 42
0.012419
 10
25.209061
 20
8.433046
 42
-0.040811
 10
25.312938
 20
8.317601
 42
-0.024973
 10
25.416613
 20
8.166447
 42
-0.024952
 10
25.504888
 20
8.005385
 42
-0.040115
 10
25.561665
 20
7.859555
 42
-0.017334
 10
25.605397
 20
7.69277
 42
-0.052911
 10
25.618929
 20
7.576684
 42
-0.0825
 10
25.605801
 20
7.492288
 42
-0.117147
 10
25.56612
 20
7.42788
 42
-0.11372
 10
25.502382
 20
7.388015
 42
-0.083804
 10
25.419981
 20
7.374273
 42
-0.054313
 10
25.307441
 20
7.386758
 42
-0.018023
 10
25.146552
 20
7.428707
 42
-0.041447
 10
25.004882
 20
7.484299
 42
-0.024611
 10
24.846137
 20
7.572263
 42
-0.024522
 10
24.695432
 20
7.676308
 42
-0.038403
 10
24.578109
 20
7.781312
 42
0.013015
 10
24.479267
 20
7.879246
 42
0.017739
 10
24.384901
 20
7.961892
 42
0.014688
 10
24.30347
 20
8.024367
 42
0.157549
 10
24.264372
 20
8.037
 42
0.172839
 10
24.238131
 20
8.02765
 42
0.093656
 10
24.215802
 20
8.001109
 42
0.074024
 10
24.200694
 20
7.961559
 42
0.054331
 10
24.1956
 20
7.914818
 42
-0.104593
 10
24.182397
 20
7.852391
 42
-0.026058
 10
24.134978
 20
7.7588
 42
-0.025489
 10
24.068219
 20
7.655111
 42
-0.023171
 10
23.989226
 20
7.555268
 42
-0.021763
 10
23.874878
 20
7.434762
 42
-0.095842
 10
23.793158
 20
7.381572
 42
-0.149928
 10
23.717307
 20
7.37486
 42
-0.08221
 10
23.629676
 20
7.409196
 42
-0.115126
 10
23.559825
 20
7.476487
 42
-0.022513
 10
23.470989
 20
7.628174
 42
-0.022815
 10
23.38163
 20
7.818399
 42
-0.0194
 10
23.304564
 20
8.02645
 10
23.132629
 20
8.552407
 10
22.930267
 20
8.337004
 42
-0.035565
 10
22.840986
 20
8.254576
 42
-0.034685
 10
22.740204
 20
8.184875
 42
-0.036754
 10
22.643129
 20
8.136507
 42
-0.097501
 10
22.56741
 20
8.1216
 42
-0.017812
 10
22.47529
 20
8.124883
 42
-0.327429
 10
22.454252
 20
8.14275
 42
-0.247764
 10
22.462065
 20
8.173107
 42
-0.011939
 10
22.536534
 20
8.25122
 42
0.069311
 10
22.590429
 20
8.322559
 42
0.026516
 10
22.645295
 20
8.434542
 42
0.025644
 10
22.692795
 20
8.564152
 42
0.028647
 10
22.724767
 20
8.693277
 42
0.043206
 10
22.740194
 20
8.848452
 42
0.016943
 10
22.735641
 20
9.063658
 42
0.016621
 10
22.714958
 20
9.297356
 42
0.019899
 10
22.679476
 20
9.515407
 42
0.0202
 10
22.624752
 20
9.73759
 42
0.013982
 10
22.545821
 20
9.984126
 42
0.014124
 10
22.456509
 20
10.21711
 42
0.027956
 10
22.370386
 20
10.395306
 42
-0.003382
 10
22.291752
 20
10.539471
 42
-0.00512
 10
22.225473
 20
10.666059
 42
-0.002112
 10
22.170434
 20
10.774986
 42
-0.116434
 10
22.1652
 20
10.797156
 42
-0.099038
 10
22.167616
 20
10.809232
 42
-0.097945
 10
22.174496
 20
10.819504
 42
-0.097945
 10
22.184768
 20
10.826384
 42
-0.099038
  0
LWPOLYLINE
  5
ADE
330
1D
100
AcDbEntity
  8
0
100
AcDbPolyline
 90
      450
 70
     1
 43
0.0
 10
15.358276
 20
24.439671
 42
0.002958
 10
14.5901
 20
24.431292
 42
0.003981
 10
13.894691
 20
24.414052
 42
0.002747
 10
13.312265
 20
24.39177
 42
0.042165
 10
13.113
 20
24.366121
 42
0.016772
 10
12.978248
 20
24.33231
 42
0.009419
 10
12.8169
 20
24.282716
 42
0.009391
 10
12.655661
 20
24.226435
 42
0.01512
 10
12.5208
 20
24.17181
 42
0.036926
 10
12.384919
 20
24.099524
 42
0.016968
 10
12.218917
 20
23.986769
 42
0.016699
 10
12.051481
 20
23.85575
 42
0.022171
 10
11.908913
 20
23.725123
 42
0.029543
 10
11.779734
 20
23.579515
 42
0.028692
 10
11.667252
 20
23.418319
 42
0.030391
 10
11.582774
 20
23.260361
 42
0.061302
 10
11.540052
 20
23.126019
 42
0.028633
 10
11.523894
 20
23.00067
 42
0.019806
 10
11.519412
 20
22.857712
 42
0.020029
 10
11.526094
 20
22.719532
 42
0.0382
 10
11.544318
 20
22.609906
 42
0.024874
 10
11.575189
 20
22.50677
 42
0.015551
 10
11.620982
 20
22.389289
 42
0.0156
 10
11.67345
 20
22.276073
 42
0.027249
 10
11.72478
 20
22.18635
 42
0.062065
 10
11.788853
 20
22.109986
 42
0.056788
 10
11.871532
 20
22.049034
 42
0.058116
 10
11.963727
 20
22.009432
 42
0.07253
 10
12.055838
 20
21.996
 42
0.059785
 10
12.155769
 20
22.007992
 42
0.110983
 10
12.228587
 20
22.044062
 42
0.107564
 10
12.280409
 20
22.108737
 42
0.053879
 10
12.31686
 20
22.2075
 42
-0.02443
 10
12.341456
 20
22.288515
 42
-0.035488
 10
12.371536
 20
22.356872
 42
-0.038626
 10
12.402503
 20
22.405968
 42
-0.237011
 10
12.428451
 20
22.419
 42
-0.111847
 10
12.457661
 20
22.412383
 42
-0.029955
 10
12.499595
 20
22.389178
 42
-0.028797
 10
12.545317
 20
22.356336
 42
-0.026236
 10
12.58848
 20
22.31748
 42
-0.093371
 10
12.627521
 20
22.260315
 42
-0.035226
 10
12.660179
 20
22.168743
 42
-0.033385
 10
12.682511
 20
22.06155
 42
-0.034678
 10
12.69
 20
21.9537
 42
-0.034678
 10
12.682511
 20
21.84585
 42
-0.033385
 10
12.660179
 20
21.738657
 42
-0.035226
 10
12.627521
 20
21.647085
 42
-0.093371
 10
12.58848
 20
21.58992
 42
-0.076729
 10
12.535321
 20
21.550978
 42
-0.03829
 10
12.45839
 20
21.518221
 42
-0.036863
 10
12.371736
 20
21.495882
 42
-0.044683
 10
12.288179
 20
21.4884
 42
-0.047094
 10
12.194791
 20
21.497216
 42
-0.022121
 10
12.076657
 20
21.525184
 42
-0.021692
 10
11.954514
 20
21.565673
 42
-0.028454
 10
11.847243
 20
21.613623
 42
-0.040347
 10
11.738862
 20
21.681255
 42
-0.019829
 10
11.612182
 20
21.783321
 42
-0.019533
 10
11.48825
 20
21.900387
 42
-0.026853
 10
11.387082
 20
22.015473
 10
11.169076
 20
22.2921
 10
11.168138
 20
22.05945
 42
-0.036669
 10
11.158903
 20
21.940272
 42
-0.139471
 10
11.128242
 20
21.873028
 42
-0.162765
 10
11.069955
 20
21.83784
 42
-0.055167
 10
10.970202
 20
21.8268
 42
0.087964
 10
10.878684
 20
21.810574
 42
0.433628
 10
10.860438
 20
21.767602
 42
0.082322
 10
10.917769
 20
21.680298
 42
0.004678
 10
11.139402
 20
21.444614
 42
-0.0177
 10
11.318683
 20
21.243734
 42
-0.046687
 10
11.427451
 20
21.084728
 42
-0.062844
 10
11.485746
 20
20.939244
 42
-0.063984
 10
11.5056
 20
20.784734
 42
-0.032874
 10
11.498113
 20
20.670978
 42
-0.032544
 10
11.475778
 20
20.558791
 42
-0.034343
 10
11.443147
 20
20.463598
 42
-0.096928
 10
11.40408
 20
20.40552
 42
-0.096592
 10
11.346089
 20
20.366455
 42
-0.034429
 10
11.251247
 20
20.333821
 42
-0.032625
 10
11.139543
 20
20.311487
 42
-0.03304
 10
11.026357
 20
20.304
 42
-0.039032
 10
10.899813
 20
20.313893
 42
-0.065368
 10
10.797615
 20
20.344012
 42
-0.077877
 10
10.719451
 20
20.394399
 42
-0.08807
 10
10.66428
 20
20.464456
 42
-0.04472
 10
10.627473
 20
20.551024
 42
-0.205474
 10
10.63241
 20
20.604139
 42
-0.176656
 10
10.675469
 20
20.642142
 42
-0.031886
 10
10.778872
 20
20.675226
 42
0.045198
 10
10.858915
 20
20.703202
 42
0.043474
 10
10.933742
 20
20.745398
 42
0.04672
 10
10.992939
 20
20.794628
 42
0.104702
 10
11.024586
 20
20.843457
 42
0.109879
 10
11.033174
 20
20.901245
 42
0.047218
 10
11.020243
 20
20.978564
 42
0.043664
 10
10.990187
 20
21.061582
 42
0.044125
 10
10.946257
 20
21.137809
 42
0.07253
 10
10.875902
 20
21.212454
 42
0.030821
 10
10.762871
 20
21.29121
 42
0.029688
 10
10.629822
 20
21.361761
 42
0.034292
 10
10.4955
 20
21.412267
 42
0.032738
 10
10.349115
 20
21.44587
 42
0.022332
 10
10.179466
 20
21.465558
 42
0.022563
 10
10.013427
 20
21.469836
 42
0.041546
 10
9.879082
 20
21.456031
 42
0.056388
 10
9.748057
 20
21.415772
 42
0.027675
 10
9.591949
 20
21.33724
 42
0.027046
 10
9.436968
 20
21.236693
 42
0.035309
 10
9.307772
 20
21.127835
 42
0.034428
 10
9.183994
 20
20.989856
 42
0.01658
 10
9.044111
 20
20.797686
 42
0.016354
 10
8.910906
 20
20.586796
 42
0.022514
 10
8.806301
 20
20.3886
 10
8.5869
 20
19.9233
 10
8.5869
 20
17.5968
 10
8.5869
 20
15.2703
 10
8.806301
 20
14.805
 42
0.022514
 10
8.910906
 20
14.606804
 42
0.016354
 10
9.044111
 20
14.395914
 42
0.01658
 10
9.183994
 20
14.203744
 42
0.034428
 10
9.307772
 20
14.065765
 42
0.035309
 10
9.436968
 20
13.956907
 42
0.027046
 10
9.591949
 20
13.85636
 42
0.027675
 10
9.748057
 20
13.777828
 42
0.056388
 10
9.879082
 20
13.737569
 42
0.041546
 10
10.013427
 20
13.723764
 42
0.022563
 10
10.179466
 20
13.728042
 42
0.022332
 10
10.349115
 20
13.74773
 42
0.032738
 10
10.4955
 20
13.781333
 42
0.034292
 10
10.629822
 20
13.831839
 42
0.029688
 10
10.762871
 20
13.90239
 42
0.030821
 10
10.875902
 20
13.981146
 42
0.07253
 10
10.946257
 20
14.055791
 42
0.044125
 10
10.990187
 20
14.132018
 42
0.043664
 10
11.020243
 20
14.215036
 42
0.047218
 10
11.033174
 20
14.292355
 42
0.109879
 10
11.024586
 20
14.350143
 42
0.104702
 10
10.992939
 20
14.398972
 42
0.04672
 10
10.933742
 20
14.448202
 42
0.043474
 10
10.858915
 20
14.490398
 42
0.045198
 10
10.778872
 20
14.518374
 42
-0.031886
 10
10.675469
 20
14.551458
 42
-0.176656
 10
10.63241
 20
14.589461
 42
-0.205474
 10
10.627473
 20
14.642576
 42
-0.04472
 10
10.66428
 20
14.729144
 42
-0.08807
 10
10.719451
 20
14.799201
 42
-0.077877
 10
10.797615
 20
14.849588
 42
-0.065368
 10
10.899813
 20
14.879707
 42
-0.039032
 10
11.026357
 20
14.8896
 42
-0.03304
 10
11.139543
 20
14.882113
 42
-0.032625
 10
11.251247
 20
14.859778
 42
-0.034429
 10
11.346089
 20
14.827145
 42
-0.096592
 10
11.40408
 20
14.78808
 42
-0.097757
 10
11.443154
 20
14.729786
 42
-0.034127
 10
11.475779
 20
14.633718
 42
-0.032345
 10
11.498113
 20
14.520331
 42
-0.032467
 10
11.5056
 20
14.405154
 42
-0.062555
 10
11.485766
 20
14.247242
 42
-0.067816
 10
11.427559
 20
14.103732
 42
-0.049285
 10
11.316506
 20
13.947924
 42
-0.01692
 10
11.127126
 20
13.745274
 42
0.004096
 10
10.890406
 20
13.504642
 42
0.087373
 10
10.834608
 20
13.42215
 42
0.458845
 10
10.854007
 20
13.380939
 42
0.067718
 10
10.957926
 20
13.3668
 42
-0.04656
 10
11.063427
 20
13.356954
 42
-0.150954
 10
11.1249
 20
13.3245
 42
-0.150954
 10
11.157354
 20
13.263027
 42
-0.04656
 10
11.1672
 20
13.157526
 42
0.067718
 10
11.181339
 20
13.053607
 42
0.458845
 10
11.22255
 20
13.034208
 42
0.087373
 10
11.305042
 20
13.090006
 42
0.004096
 10
11.545674
 20
13.326726
 42
-0.01692
 10
11.748324
 20
13.516106
 42
-0.049285
 10
11.904132
 20
13.627159
 42
-0.067816
 10
12.047642
 20
13.685366
 42
-0.062555
 10
12.205554
 20
13.7052
 42
-0.032467
 10
12.320731
 20
13.697713
 42
-0.032345
 10
12.434118
 20
13.675378
 42
-0.034127
 10
12.530186
 20
13.642754
 42
-0.097757
 10
12.58848
 20
13.60368
 42
-0.096592
 10
12.627545
 20
13.545689
 42
-0.034429
 10
12.660179
 20
13.450847
 42
-0.032625
 10
12.682513
 20
13.339143
 42
-0.03304
 10
12.69
 20
13.225957
 42
-0.039084
 10
12.679893
 20
13.096857
 42
-0.069107
 10
12.64896
 20
12.994784
 42
-0.081608
 10
12.596093
 20
12.91669
 42
-0.080534
 10
12.5208
 20
12.8592
 42
-0.022415
 10
12.433487
 20
12.817391
 42
-0.150104
 10
12.386182
 20
12.812465
 42
-0.275468
 10
12.360207
 20
12.835796
 42
-0.075487
 10
12.3516
 20
12.892481
 42
0.08205
 10
12.342192
 20
12.949423
 42
0.037523
 10
12.312597
 20
13.018941
 42
0.035852
 10
12.269636
 20
13.089145
 42
0.041164
 10
12.218825
 20
13.149089
 42
0.049557
 10
12.145032
 20
13.209544
 42
0.113287
 10
12.078136
 20
13.234855
 42
0.110964
 10
12.005994
 20
13.228714
 42
0.046397
 10
11.915563
 20
13.190623
 42
0.078434
 10
11.841119
 20
13.134271
 42
0.030734
 10
11.757425
 20
13.03588
 42
0.029494
 10
11.678348
 20
12.916341
 42
0.032432
 10
11.61663
 20
12.791966
 42
0.036675
 10
11.566994
 20
12.64341
 42
0.029579
 10
11.535203
 20
12.478108
 42
0.029565
 10
11.523128
 20
12.310105
 42
0.036508
 10
11.532594
 20
12.15345
 42
0.046731
 10
11.571555
 20
11.984559
 42
0.045647
 10
11.641408
 20
11.824434
 42
0.041039
 10
11.746569
 20
11.665528
 42
0.026719
 10
11.891766
 20
11.500002
 42
0.030256
 10
12.043493
 20
11.362348
 42
0.017496
 10
12.240992
 20
11.214894
 42
0.017443
 10
12.450257
 20
11.080333
 42
0.027889
 10
12.638614
 20
10.982078
 42
0.047141
 10
12.967042
 20
10.869278
 42
0.041209
 10
13.326026
 20
10.813462
 42
0.016472
 10
13.906641
 20
10.790843
 42
0.001499
 10
15.3549
 20
10.7865
 42
0.002408
 10
16.501248
 20
10.79202
 42
0.008925
 10
17.223909
 20
10.811885
 42
0.012607
 10
17.708109
 20
10.846099
 42
0.06065
 10
17.9775
 20
10.905467
 42
0.01943
 10
18.12899
 20
10.965433
 42
0.011433
 10
18.305356
 20
11.048169
 42
0.011427
 10
18.478082
 20
11.13905
 42
0.01911
 10
18.618407
 20
11.224202
 42
0.039526
 10
18.74834
 20
11.325596
 42
0.022555
 10
18.889033
 20
11.466674
 42
0.022416
 10
19.018613
 20
11.622368
 42
0.034327
 10
19.114892
 20
11.769111
 42
0.026487
 10
19.205366
 20
11.952147
 42
0.047432
 10
19.256702
 20
12.111684
 42
0.051019
 10
19.2749
 20
12.26981
 42
0.036507
 10
19.264154
 20
12.447648
 42
0.027053
 10
19.237053
 20
12.590548
 42
0.020322
 10
19.192484
 20
12.744292
 42
0.020686
 10
19.138525
 20
12.885859
 42
0.043656
 10
19.082968
 20
12.989323
 42
0.053645
 10
19.012537
 20
13.075143
 42
0.058186
 10
18.927209
 20
13.141385
 42
0.06149
 10
18.833558
 20
13.183328
 42
0.074701
 10
18.738562
 20
13.1976
 42
0.059659
 10
18.638857
 20
13.185661
 42
0.110313
 10
18.566036
 20
13.149755
 42
0.1075
 10
18.514222
 20
13.085522
 42
0.054732
 10
18.477968
 20
12.987803
 42
-0.029364
 10
18.443586
 20
12.878447
 42
-0.171854
 10
18.405188
 20
12.833201
 42
-0.211098
 10
18.351817
 20
12.827273
 42
-0.046515
 10
18.264856
 20
12.86388
 42
-0.08807
 10
18.194799
 20
12.919051
 42
-0.077877
 10
18.144412
 20
12.997215
 42
-0.065368
 10
18.114293
 20
13.099413
 42
-0.039032
 10
18.1044
 20
13.225957
 42
-0.03304
 10
18.111887
 20
13.339143
 42
-0.032625
 10
18.134221
 20
13.450847
 42
-0.034429
 10
18.166855
 20
13.545689
 42
-0.096592
 10
18.20592
 20
13.60368
 42
-0.076729
 10
18.259079
 20
13.642622
 42
-0.03829
 10
18.33601
 20
13.675378
 42
-0.036863
 10
18.422664
 20
13.697718
 42
-0.044683
 10
18.506221
 20
13.7052
 42
-0.046724
 10
18.599436
 20
13.69647
 42
-0.022166
 10
18.71697
 20
13.668816
 42
-0.021747
 10
18.838263
 20
13.628769
 42
-0.028724
 10
18.944524
 20
13.581339
 42
-0.037023
 10
19.052147
 20
13.515167
 42
-0.018306
 10
19.178774
 20
13.416508
 42
-0.018059
 10
19.30329
 20
13.30404
 42
-0.025148
 10
19.405623
 20
13.194148
 10
19.6272
 20
12.930818
 10
19.6272
 20
13.148809
 42
-0.043462
 10
19.63716
 20
13.263176
 42
-0.161901
 10
19.671013
 20
13.325924
 42
-0.151989
 10
19.737198
 20
13.358169
 42
-0.03693
 10
19.85985
 20
13.367738
 10
20.0925
 20
13.368676
 10
19.815873
 20
13.586682
 42
-0.026853
 10
19.700787
 20
13.68785
 42
-0.019533
 10
19.583721
 20
13.811782
 42
-0.019829
 10
19.481655
 20
13.938462
 42
-0.040347
 10
19.414023
 20
14.046843
 42
-0.028454
 10
19.366073
 20
14.154114
 42
-0.021692
 10
19.325584
 20
14.276257
 42
-0.022121
 10
19.297616
 20
14.394391
 42
-0.047094
 10
19.2888
 20
14.487779
 42
-0.044683
 10
19.296282
 20
14.571336
 42
-0.036863
 10
19.318621
 20
14.65799
 42
-0.03829
 10
19.351378
 20
14.734921
 42
-0.076729
 10
19.39032
 20
14.78808
 42
-0.096592
 10
19.448311
 20
14.827145
 42
-0.034429
 10
19.543153
 20
14.859778
 42
-0.032625
 10
19.654857
 20
14.882113
 42
-0.03304
 10
19.768043
 20
14.8896
 42
-0.039032
 10
19.894587
 20
14.879707
 42
-0.065368
 10
19.996785
 20
14.849588
 42
-0.077877
 10
20.074949
 20
14.799201
 42
-0.08807
 10
20.13012
 20
14.729144
 42
-0.046515
 10
20.166727
 20
14.642183
 42
-0.211098
 10
20.160799
 20
14.588812
 42
-0.171854
 10
20.115553
 20
14.550414
 42
-0.029364
 10
20.006197
 20
14.516032
 42
0.054732
 10
19.908478
 20
14.479778
 42
0.1075
 10
19.844245
 20
14.427964
 42
0.110313
 10
19.808339
 20
14.355143
 42
0.059659
 10
19.7964
 20
14.255438
 42
0.074701
 10
19.810672
 20
14.160442
 42
0.06149
 10
19.852615
 20
14.066791
 42
0.058186
 10
19.918857
 20
13.981463
 42
0.053645
 10
20.004677
 20
13.911032
 42
0.043656
 10
20.108141
 20
13.855475
 42
0.020686
 10
20.249708
 20
13.801516
 42
0.020322
 10
20.403452
 20
13.756947
 42
0.027053
 10
20.546352
 20
13.729846
 42
0.035655
 10
20.721823
 20
13.718944
 42
0.04981
 10
20.877987
 20
13.735997
 42
0.047583
 10
21.032949
 20
13.78451
 42
0.02901
 10
21.205225
 20
13.869113
 42
0.03581
 10
21.346722
 20
13.963054
 42
0.020641
 10
21.503339
 20
14.09469
 42
0.020549
 10
21.650424
 20
14.24058
 42
0.032157
 10
21.763032
 20
14.378673
 42
0.036253
 10
21.861723
 20
14.540613
 42
0.016935
 10
21.966648
 20
14.762921
 42
0.016677
 10
22.061436
 20
15.004602
 42
0.022409
 10
22.129942
 20
15.22956
 42
0.034778
 10
22.197461
 20
15.597957
 42
0.018156
 10
22.232647
 20
16.063523
 42
0.010865
 10
22.244456
 20
16.742311
 42
0.002534
 10
22.233746
 20
17.881386
 42
0.001705
 10
22.209938
 20
19.212829
 42
0.017377
 10
22.179005
 20
19.764235
 42
0.042144
 10
22.118503
 20
20.106365
 42
0.04932
 10
22.003078
 20
20.415051
 42
0.021406
 10
21.90788
 20
20.589644
 42
0.015057
 10
21.786741
 20
20.777762
 42
0.015229
 10
21.659679
 20
20.951054
 42
0.030575
 10
21.547314
 20
21.078071
 42
0.021329
 10
21.434451
 20
21.181694
 42
0.018082
 10
21.306936
 20
21.281465
 42
0.018465
 10
21.184009
 20
21.363923
 42
0.047686
 10
21.088315
 20
21.41117
 42
0.031869
 10
20.992385
 20
21.440803
 42
0.016997
 10
20.870684
 20
21.465714
 42
0.016855
 10
20.744182
 20
21.482793
 42
0.025129
 10
20.632691
 20
21.4884
 42
0.039968
 10
20.518127
 20
21.479227
 42
0.022656
 10
20.381785
 20
21.450866
 42
0.022502
 10
20.246112
 20
21.409581
 42
0.034229
 10
20.133107
 20
21.360624
 42
0.032559
 10
20.032133
 20
21.299775
 42
0.026981
 10
19.93306
 20
21.222663
 42
0.027814
 10
19.849785
 20
21.14176
 42
0.063292
 10
19.799076
 20
21.070399
 42
0.052593
 10
19.764523
 20
20.98545
 42
0.109242
 10
19.759999
 20
20.914415
 42
0.10786
 10
19.785867
 20
20.847506
 42
0.050441
 10
19.844911
 20
20.775175
 42
0.041164
 10
19.904855
 20
20.724364
 42
0.035852
 10
19.975059
 20
20.681403
 42
0.037523
 10
20.044577
 20
20.651808
 42
0.08205
 10
20.101519
 20
20.6424
 42
-0.075487
 10
20.158204
 20
20.633793
 42
-0.275468
 10
20.181535
 20
20.607818
 42
-0.150104
 10
20.176609
 20
20.560513
 42
-0.022415
 10
20.1348
 20
20.4732
 42
-0.080534
 10
20.07731
 20
20.397907
 42
-0.081608
 10
19.999216
 20
20.34504
 42
-0.069107
 10
19.897143
 20
20.314107
 42
-0.039084
 10
19.768043
 20
20.304
 42
-0.03304
 10
19.654857
 20
20.311487
 42
-0.032625
 10
19.543153
 20
20.333821
 42
-0.034429
 10
19.448311
 20
20.366455
 42
-0.096592
 10
19.39032
 20
20.40552
 42
-0.076729
 10
19.351378
 20
20.458679
 42
-0.03829
 10
19.318621
 20
20.53561
 42
-0.036863
 10
19.296282
 20
20.622264
 42
-0.044683
 10
19.2888
 20
20.705821
 42
-0.047094
 10
19.297616
 20
20.799209
 42
-0.022121
 10
19.325584
 20
20.917343
 42
-0.021692
 10
19.366073
 20
21.039486
 42
-0.028454
 10
19.414023
 20
21.146757
 42
-0.040347
 10
19.481655
 20
21.255138
 42
-0.019829
 10
19.583721
 20
21.381818
 42
-0.019533
 10
19.700787
 20
21.50575
 42
-0.026853
 10
19.815873
 20
21.606918
 10
20.0925
 20
21.824924
 10
19.85985
 20
21.825862
 42
-0.037475
 10
19.735279
 20
21.835717
 42
-0.159209
 10
19.6695
 20
21.8691
 42
-0.159209
 10
19.636117
 20
21.934879
 42
-0.037475
 10
19.626262
 20
22.05945
 10
19.625324
 20
22.2921
 10
19.407318
 20
22.015473
 42
-0.026853
 10
19.30615
 20
21.900387
 42
-0.019533
 10
19.182218
 20
21.783321
 42
-0.019829
 10
19.055538
 20
21.681255
 42
-0.040347
 10
18.947157
 20
21.613623
 42
-0.028454
 10
18.839886
 20
21.565673
 42
-0.021692
 10
18.717743
 20
21.525184
 42
-0.022121
 10
18.599609
 20
21.497216
 42
-0.047094
 10
18.506221
 20
21.4884
 42
-0.044683
 10
18.422664
 20
21.495882
 42
-0.036863
 10
18.33601
 20
21.518222
 42
-0.03829
 10
18.259079
 20
21.550978
 42
-0.076729
 10
18.20592
 20
21.58992
 42
-0.096592
 10
18.166855
 20
21.647911
 42
-0.034429
 10
18.134221
 20
21.742753
 42
-0.032625
 10
18.111887
 20
21.854457
 42
-0.03304
 10
18.1044
 20
21.967643
 42
-0.039032
 10
18.114293
 20
22.094187
 42
-0.065368
 10
18.144412
 20
22.196385
 42
-0.077877
 10
18.194799
 20
22.274549
 42
-0.08807
 10
18.264856
 20
22.32972
 42
-0.046515
 10
18.351817
 20
22.366327
 42
-0.211098
 10
18.405188
 20
22.360399
 42
-0.171854
 10
18.443586
 20
22.315153
 42
-0.029364
 10
18.477968
 20
22.205797
 42
0.054732
 10
18.514222
 20
22.108078
 42
0.1075
 10
18.566036
 20
22.043845
 42
0.110313
 10
18.638857
 20
22.007939
 42
0.059659
 10
18.738562
 20
21.996
 42
0.074701
 10
18.833558
 20
22.010272
 42
0.06149
 10
18.927209
 20
22.052215
 42
0.058186
 10
19.012537
 20
22.118457
 42
0.053645
 10
19.082968
 20
22.204277
 42
0.043319
 10
19.13849
 20
22.307511
 42
0.020725
 10
19.192344
 20
22.448264
 42
0.02037
 10
19.236761
 20
22.60086
 42
0.027303
 10
19.263677
 20
22.742397
 42
0.03646
 10
19.273551
 20
22.905556
 42
0.036957
 10
19.259522
 20
23.067668
 42
0.036573
 10
19.221534
 20
23.227518
 42
0.034172
 10
19.160011
 20
23.383933
 42
0.049003
 10
19.077505
 20
23.521263
 42
0.024784
 10
18.949137
 20
23.67728
 42
0.024352
 10
18.799382
 20
23.826636
 42
0.033195
 10
18.649843
 20
23.944867
 42
0.030326
 10
18.475921
 20
24.049595
 42
0.01626
 10
18.25004
 20
24.15839
 42
0.016135
 10
18.011578
 20
24.254762
 42
0.024254
 10
17.797517
 20
24.321754
 42
0.036623
 10
17.460324
 20
24.383668
 42
0.01502
 10
16.996241
 20
24.4201
 42
0.010174
 10
16.342458
 20
24.438382
 42
0.00315
  0
LWPOLYLINE
  5
CA2
330
1D
100
AcDbEntity
  8
0
100
AcDbPolyline
 90
       52
 70
     1
 43
0.0
 10
15.4818
 20
23.6034
 42
-0.27308
 10
15.512578
 20
23.585236
 42
-0.002201
 10
15.653755
 20
23.326859
 42
-0.007058
 10
15.812608
 20
23.022888
 42
-0.004384
 10
15.990821
 20
22.661985
 42
-0.008556
 10
16.21205
 20
22.183145
 42
-0.020992
 10
16.353603
 20
21.822163
 42
-0.027903
 10
16.438233
 20
21.523287
 42
-0.037492
 10
16.478934
 20
21.244935
 42
-0.027182
 10
16.483505
 20
20.957416
 42
-0.056802
 10
16.44967
 20
20.73644
 42
-0.04247
 10
16.36012
 20
20.491351
 42
-0.009729
 10
16.1663
 20
20.094838
 42
0.006039
 10
16.033719
 20
19.828602
 42
0.008387
 10
15.921867
 20
19.586748
 42
0.00558
 10
15.834192
 20
19.382374
 42
0.098842
 10
15.8202
 20
19.312288
 42
-0.060731
 10
15.815161
 20
19.270955
 42
-0.079367
 10
15.800319
 20
19.235951
 42
-0.097333
 10
15.778333
 20
19.212515
 42
-0.157087
 10
15.75252
 20
19.2042
 42
-0.100456
 10
15.719819
 20
19.210837
 42
-0.033399
 10
15.675953
 20
19.232968
 42
-0.031687
 10
15.629374
 20
19.264655
 42
-0.031176
 10
15.586905
 20
19.302135
 42
0.068549
 10
15.532739
 20
19.343185
 42
0.141915
 10
15.4815
 20
19.355165
 42
0.119384
 10
15.425751
 20
19.338535
 42
0.041318
 10
15.356441
 20
19.290079
 42
-0.023283
 10
15.303731
 20
19.250327
 42
-0.037464
 10
15.255058
 20
19.222153
 42
-0.04367
 10
15.215975
 20
19.207328
 42
-0.301829
 10
15.197413
 20
19.213294
 42
-0.065876
 10
15.182096
 20
19.238734
 42
-0.002394
 10
15.137391
 20
19.342842
 42
-0.004348
 10
15.086094
 20
19.466887
 42
-0.003033
 10
15.030291
 20
19.607678
 42
0.015843
 10
14.960579
 20
19.771205
 42
0.008904
 10
14.866179
 20
19.965404
 42
0.008879
 10
14.763784
 20
20.158289
 42
0.014328
 10
14.669084
 20
20.318282
 42
-0.027087
 10
14.552519
 20
20.527194
 42
-0.06093
 10
14.493293
 20
20.69839
 42
-0.052682
 10
14.472491
 20
20.893743
 42
-0.016104
 10
14.481824
 20
21.19105
 42
-0.031841
 10
14.521355
 20
21.500028
 42
-0.032749
 10
14.599607
 20
21.79852
 42
-0.023965
 10
14.737365
 20
22.153922
 42
-0.008051
 10
14.971287
 20
22.658896
 42
-0.00437
 10
15.150072
 20
23.020984
 42
-0.007036
 10
15.309407
 20
23.325952
 42
-0.002187
 10
15.451018
 20
23.585229
 42
-0.273133
  0
LWPOLYLINE
  5
CD8
330
1D
100
AcDbEntity
  8
0
100
AcDbPolyline
 90
       44
 70
     1
 43
0.0
 10
18.684184
 20
20.764195
 42
-0.283971
 10
18.691613
 20
20.739539
 42
-0.002603
 10
18.639117
 20
20.546806
 42
-0.007766
 10
18.573005
 20
20.322531
 42
-0.004821
 10
18.488799
 20
20.061308
 42
-0.015399
 10
18.384371
 20
19.777233
 42
-0.012954
 10
18.256857
 20
19.483023
 42
-0.013152
 10
18.126349
 20
19.220392
 42
-0.034871
 10
18.015543
 20
19.04255
 42
-0.029631
 10
17.898415
 20
18.899517
 42
-0.035422
 10
17.771541
 20
18.780232
 42
-0.039377
 10
17.646142
 20
18.693508
 42
-0.079022
 10
17.534128
 20
18.65024
 42
0.014777
 10
17.41919
 20
18.622057
 42
0.005671
 10
17.261143
 20
18.576378
 42
0.005609
 10
17.090641
 20
18.522905
 42
0.006872
 10
16.932609
 20
18.468974
 42
-0.011646
 10
16.705543
 20
18.393897
 42
-0.08922
 10
16.594474
 20
18.380722
 42
-0.139448
 10
16.508081
 20
18.410993
 42
-0.042845
 10
16.401363
 20
18.500837
 42
-0.037938
 10
16.311588
 20
18.605377
 42
-0.141545
 10
16.281964
 20
18.685907
 42
-0.102177
 10
16.295077
 20
18.784387
 42
-0.014941
 10
16.367604
 20
18.973678
 42
0.016771
 10
16.417136
 20
19.104381
 42
0.015703
 10
16.45899
 20
19.240989
 42
0.015898
 10
16.488444
 20
19.364498
 42
0.050621
 10
16.497
 20
19.448792
 42
-0.090273
 10
16.511808
 20
19.53014
 42
-0.029057
 10
16.561809
 20
19.642645
 42
-0.027907
 10
16.633187
 20
19.763881
 42
-0.027906
 10
16.717625
 20
19.876416
 42
-0.019033
 10
16.815383
 20
19.984004
 42
-0.016013
 10
16.926676
 20
20.09045
 42
-0.016312
 10
17.034641
 20
20.181111
 42
-0.042312
 10
17.119475
 20
20.23685
 42
-0.028753
 10
17.228345
 20
20.288004
 42
-0.004658
 10
17.446275
 20
20.373142
 42
-0.005127
 10
17.705094
 20
20.46846
 42
-0.004489
 10
17.9775
 20
20.562873
 42
-0.004536
 10
18.239103
 20
20.648285
 42
-0.007245
 10
18.464269
 20
20.715973
 42
-0.002402
 10
18.658241
 20
20.770226
 42
-0.253396
  0
LWPOLYLINE
  5
D06
330
1D
100
AcDbEntity
  8
0
100
AcDbPolyline
 90
       40
 70
     1
 43
0.0
 10
12.36341
 20
20.727
 42
-0.064756
 10
12.43761
 20
20.71735
 42
-0.004556
 10
12.639983
 20
20.661827
 42
-0.006384
 10
12.880609
 20
20.590112
 42
-0.004765
 10
13.14413
 20
20.505133
 42
-0.017208
 10
13.418055
 20
20.40331
 42
-0.016163
 10
13.690212
 20
20.280914
 42
-0.016374
 10
13.924314
 20
20.15674
 42
-0.052241
 10
14.06761
 20
20.053391
 42
-0.051976
 10
14.191857
 20
19.916696
 42
-0.032565
 10
14.308376
 20
19.734413
 42
-0.028086
 10
14.416811
 20
19.508493
 42
-0.018678
 10
14.516437
 20
19.238909
 42
-0.005666
 10
14.632921
 20
18.869304
 42
-0.060114
 10
14.660194
 20
18.714047
 42
-0.137082
 10
14.636779
 20
18.608674
 42
-0.070548
 10
14.556301
 20
18.498756
 42
-0.054407
 10
14.453003
 20
18.413632
 42
-0.141584
 10
14.361818
 20
18.385502
 42
-0.073676
 10
14.235039
 20
18.401968
 42
-0.007822
 10
13.949156
 20
18.487866
 42
-0.005445
 10
13.75941
 20
18.550413
 42
-0.005026
 10
13.565921
 20
18.618718
 42
-0.005022
 10
13.39479
 20
18.683026
 42
-0.016639
 10
13.284104
 20
18.730186
 42
-0.055373
 10
13.190478
 20
18.787162
 42
-0.025055
 10
13.081189
 20
18.88061
 42
-0.024438
 10
12.974565
 20
18.991805
 42
-0.030648
 10
12.887655
 20
19.105121
 42
-0.032465
 10
12.803068
 20
19.250125
 42
-0.011536
 10
12.700765
 20
19.467369
 42
-0.011392
 10
12.599113
 20
19.711704
 42
-0.013174
 10
12.513822
 20
19.948946
 42
0.000597
 10
12.439368
 20
20.173643
 42
0.000766
 10
12.370319
 20
20.380139
 42
0.000586
 10
12.311963
 20
20.553101
 42
0.00663
 10
12.28787
 20
20.62125
 42
-0.103016
 10
12.281868
 20
20.661566
 42
-0.141624
 10
12.293984
 20
20.695936
 42
-0.139702
 10
12.322741
 20
20.718855
 42
-0.099148
  0
LWPOLYLINE
  5
D30
330
1D
100
AcDbEntity
  8
0
100
AcDbPolyline
 90
       16
 70
     1
 43
0.0
 10
15.861935
 20
18.529307
 42
-0.003486
 10
16.043272
 20
18.362751
 42
-0.002682
 10
16.238937
 20
18.178534
 42
-0.002712
 10
16.419999
 20
18.004342
 42
-0.006461
 10
16.552139
 20
17.872464
 10
16.819907
 20
17.598227
 10
16.510404
 20
17.286093
 42
-0.003574
 10
16.365761
 20
17.142292
 42
-0.001905
 10
16.184912
 20
16.966393
 42
-0.001896
 10
15.998824
 20
16.788131
 42
-0.002953
 10
15.836971
 20
16.636068
 10
15.473041
 20
16.298177
 10
14.805525
 20
16.961778
 10
14.138009
 20
17.625379
 10
14.788754
 20
18.268647
 10
15.4395
 20
18.911915
  0
LWPOLYLINE
  5
D42
330
1D
100
AcDbEntity
  8
0
100
AcDbPolyline
 90
       52
 70
     1
 43
0.0
 10
12.014711
 20
18.605321
 42
-0.021771
 10
12.264774
 20
18.59801
 42
-0.047966
 10
12.453024
 20
18.565962
 42
-0.052309
 10
12.621447
 20
18.50083
 42
-0.03084
 10
12.807204
 20
18.390694
 42
0.021867
 10
12.96141
 20
18.295487
 42
0.012019
 10
13.15764
 20
18.191988
 42
0.011962
 10
13.362168
 20
18.09635
 42
0.01872
 10
13.542838
 20
18.025018
 42
-0.007348
 10
13.794049
 20
17.93238
 42
-0.112513
 10
13.870287
 20
17.881105
 42
-0.330306
 10
13.876886
 20
17.824767
 42
-0.066082
 10
13.811471
 20
17.739328
 42
0.033271
 10
13.745347
 20
17.663766
 42
0.123809
 10
13.720569
 20
17.606126
 42
0.165029
 10
13.729491
 20
17.553349
 42
0.072832
 10
13.772276
 20
17.495884
 42
-0.026087
 10
13.811363
 20
17.45249
 42
-0.028701
 10
13.844401
 20
17.406572
 42
-0.029834
 10
13.867753
 20
17.364493
 42
-0.112217
 10
13.8744
 20
17.335251
 42
-0.248717
 10
13.86059
 20
17.309206
 42
-0.034744
 10
13.806059
 20
17.27753
 42
-0.033014
 10
13.730878
 20
17.246557
 42
-0.02232
 10
13.64175
 20
17.220913
 42
0.044115
 10
13.520478
 20
17.180228
 42
0.01129
 10
13.332531
 20
17.093018
 42
0.011412
 10
13.121721
 20
16.983309
 42
0.011357
 10
12.915789
 20
16.863923
 42
-0.014654
 10
12.614587
 20
16.69195
 42
-0.058472
 10
12.416924
 20
16.614675
 42
-0.062065
 10
12.212584
 20
16.587567
 42
-0.017879
 10
11.893343
 20
16.596455
 42
-0.031227
 10
11.580806
 20
16.636052
 42
-0.033124
 10
11.281888
 20
16.713872
 42
-0.024235
 10
10.926869
 20
16.851312
 42
-0.00802
 10
10.419704
 20
17.086287
 42
-0.00437
 10
10.057616
 20
17.265072
 42
-0.007036
 10
9.752648
 20
17.424407
 42
-0.002187
 10
9.493371
 20
17.566018
 42
-0.273133
 10
9.4752
 20
17.5968
 42
-0.274302
 10
9.493352
 20
17.627397
 42
-0.002375
 10
9.742351
 20
17.761872
 42
-0.007349
 10
10.036003
 20
17.91316
 42
-0.004569
 10
10.38465
 20
18.08239
 42
-0.001469
 10
10.742271
 20
18.250671
 42
-0.00203
 10
11.064226
 20
18.399425
 42
-0.001269
 10
11.335813
 20
18.52274
 42
-0.025101
 10
11.421
 20
18.556124
 42
-0.05184
 10
11.496873
 20
18.573067
 42
-0.008363
 10
11.647749
 20
18.588114
 42
-0.009159
 10
11.826684
 20
18.599646
 42
-0.007933
  0
LWPOLYLINE
  5
D78
330
1D
100
AcDbEntity
  8
0
100
AcDbPolyline
 90
       48
 70
     1
 43
0.0
 10
19.039562
 20
18.594393
 42
-0.028375
 10
19.370865
 20
18.558533
 42
-0.037097
 10
19.666818
 20
18.486511
 42
-0.026687
 10
20.015052
 20
18.35295
 42
-0.007578
 10
20.541212
 20
18.108609
 42
-0.004357
 10
20.904329
 20
17.929327
 42
-0.007016
 10
21.210164
 20
17.769574
 42
-0.002175
 10
21.470223
 20
17.627586
 42
-0.27318
 10
21.4884
 20
17.5968
 42
-0.273245
 10
21.470215
 20
17.566009
 42
-0.002159
 10
21.209052
 20
17.423489
 42
-0.00699
 10
20.901995
 20
17.263146
 42
-0.00434
 10
20.537427
 20
17.083163
 42
-0.006364
 10
19.965451
 20
16.815857
 42
-0.033844
 10
19.642149
 20
16.69535
 42
-0.049034
 10
19.361548
 20
16.641054
 42
-0.02329
 10
18.993477
 20
16.6239
 42
-0.01354
 10
18.658724
 20
16.632967
 42
-0.04833
 10
18.447129
 20
16.665107
 42
-0.060882
 10
18.271861
 20
16.732873
 42
-0.031222
 10
18.071072
 20
16.856803
 42
0.022121
 10
17.921165
 20
16.953135
 42
0.014965
 10
17.742586
 20
17.050001
 42
0.015097
 10
17.564026
 20
17.133385
 42
0.028907
 10
17.415422
 20
17.187444
 42
-0.014303
 10
17.290406
 20
17.228831
 42
-0.021952
 10
17.185028
 20
17.272419
 42
-0.017866
 10
17.104454
 20
17.313533
 42
-0.272253
 10
17.0892
 20
17.339471
 42
-0.11687
 10
17.09572
 20
17.366984
 42
-0.028271
 10
17.119199
 20
17.407812
 42
-0.027477
 10
17.152234
 20
17.452802
 42
-0.024279
 10
17.191324
 20
17.495884
 42
0.072832
 10
17.234109
 20
17.553349
 42
0.165029
 10
17.243031
 20
17.606126
 42
0.123809
 10
17.218253
 20
17.663766
 42
0.033271
 10
17.152129
 20
17.739328
 42
-0.066082
 10
17.086714
 20
17.824767
 42
-0.330306
 10
17.093313
 20
17.881105
 42
-0.112513
 10
17.169551
 20
17.93238
 42
-0.007348
 10
17.420762
 20
18.025018
 42
0.019537
 10
17.601536
 20
18.096733
 42
0.012398
 10
17.806404
 20
18.193566
 42
0.012452
 10
18.003102
 20
18.298793
 42
0.022439
 10
18.157908
 20
18.396065
 42
-0.029159
 10
18.358325
 20
18.518273
 42
-0.067101
 10
18.523565
 20
18.579579
 42
-0.054232
 10
18.719824
 20
18.601833
 42
-0.01391
  0
LWPOLYLINE
  5
DAA
330
1D
100
AcDbEntity
  8
0
100
AcDbPolyline
 90
       44
 70
     1
 43
0.0
 10
14.347738
 20
16.825221
 42
-0.130112
 10
14.393171
 20
16.818385
 42
-0.038766
 10
14.455737
 20
16.785367
 42
-0.035995
 10
14.523013
 20
16.735793
 42
-0.032068
 10
14.585306
 20
16.675254
 42
-0.043724
 10
14.662528
 20
16.573287
 42
-0.1341
 10
14.687433
 20
16.491082
 42
-0.091801
 10
14.671541
 20
16.389728
 42
-0.014292
 10
14.598418
 20
16.199622
 42
0.016798
 10
14.547959
 20
16.06645
 42
0.015715
 10
14.505322
 20
15.927219
 42
0.015912
 10
14.475319
 20
15.801308
 42
0.050568
 10
14.4666
 20
15.715315
 42
-0.11689
 10
14.446333
 20
15.629808
 42
-0.028352
 10
14.373408
 20
15.503071
 42
-0.027544
 10
14.270784
 20
15.363466
 42
-0.024349
 10
14.14935
 20
15.229848
 42
-0.037826
 10
13.957256
 20
15.065128
 42
-0.036958
 10
13.741096
 20
14.929808
 42
-0.029606
 10
13.467675
 20
14.805648
 42
-0.013161
 10
13.094368
 20
14.673283
 42
-0.006689
 10
12.808411
 20
14.584499
 42
-0.010532
 10
12.560415
 20
14.51677
 42
-0.004847
 10
12.350839
 20
14.466405
 42
-0.25842
 10
12.31262
 20
14.47738
 42
-0.257175
 10
12.301731
 20
14.514969
 42
-0.006137
 10
12.345442
 20
14.698544
 42
-0.011942
 10
12.405956
 20
14.917272
 42
-0.007638
 10
12.486164
 20
15.168469
 42
-0.011351
 10
12.583064
 20
15.43638
 42
-0.010552
 10
12.694275
 20
15.706277
 42
-0.010597
 10
12.803284
 20
15.942004
 42
-0.034677
 10
12.889116
 20
16.090646
 42
-0.030736
 10
12.975464
 20
16.203189
 42
-0.024355
 10
13.081618
 20
16.313853
 42
-0.024956
 10
13.190574
 20
16.40705
 42
-0.05471
 10
13.284104
 20
16.464186
 42
-0.013839
 10
13.390545
 20
16.510625
 42
-0.00502
 10
13.543962
 20
16.57078
 42
-0.004974
 10
13.713281
 20
16.633296
 42
-0.005907
 10
13.8744
 20
16.688832
 42
-0.004451
 10
14.026955
 20
16.737904
 42
-0.005443
 10
14.170482
 20
16.780958
 42
-0.00459
 10
14.29173
 20
16.814692
 42
-0.038205
  0
LWPOLYLINE
  5
DD8
330
1D
100
AcDbEntity
  8
0
100
AcDbPolyline
 90
       44
 70
     1
 43
0.0
 10
16.573562
 20
16.834309
 42
-0.063397
 10
16.609455
 20
16.828946
 42
-0.001563
 10
16.76976
 20
16.783187
 42
-0.003359
 10
16.957576
 20
16.72757
 42
-0.002278
 10
17.170782
 20
16.661811
 42
-0.01418
 10
17.391888
 20
16.585561
 42
-0.015024
 10
17.604038
 20
16.498235
 42
-0.014775
 10
17.781733
 20
16.41238
 42
-0.063977
 10
17.877734
 20
16.345653
 42
-0.039109
 10
17.949755
 20
16.269487
 42
-0.016188
 10
18.035263
 20
16.156274
 42
-0.0159
 10
18.119522
 20
16.028423
 42
-0.019748
 10
18.189223
 20
15.904228
 42
-0.017874
 10
18.259587
 20
15.753273
 42
-0.006564
 10
18.348454
 20
15.535419
 42
-0.006497
 10
18.439402
 20
15.294662
 42
-0.007749
 10
18.518653
 20
15.06531
 42
-0.008104
 10
18.584048
 20
14.854647
 42
-0.012602
 10
18.632862
 20
14.670838
 42
-0.006817
 10
18.667362
 20
14.517099
 42
-0.253348
 10
18.657479
 20
14.483879
 42
-0.258257
 10
18.622975
 20
14.47396
 42
-0.003888
 10
18.412231
 20
14.524042
 42
-0.009368
 10
18.164362
 20
14.589935
 42
-0.005918
 10
17.877615
 20
14.675628
 42
-0.012752
 10
17.495564
 20
14.805524
 42
-0.031462
 10
17.224852
 20
14.925166
 42
-0.039848
 10
17.012104
 20
15.058164
 42
-0.036778
 10
16.816967
 20
15.226527
 42
-0.02589
 10
16.6945
 20
15.362379
 42
-0.028572
 10
16.59099
 20
15.505928
 42
-0.029672
 10
16.517784
 20
15.637334
 42
-0.112711
 10
16.497
 20
15.728364
 42
0.047481
 10
16.488364
 20
15.819097
 42
0.016674
 10
16.459374
 20
15.946862
 42
0.016382
 10
16.417945
 20
16.086082
 42
0.018449
 10
16.368912
 20
16.216793
 42
-0.01522
 10
16.299118
 20
16.399253
 42
-0.091061
 10
16.283644
 20
16.499414
 42
-0.131806
 10
16.307945
 20
16.580717
 42
-0.045788
 10
16.382024
 20
16.679376
 42
-0.016753
 10
16.439776
 20
16.739046
 42
-0.022026
 10
16.496533
 20
16.789247
 42
-0.020259
 10
16.546165
 20
16.826171
 42
-0.156456
  0
LWPOLYLINE
  5
E06
330
1D
100
AcDbEntity
  8
0
100
AcDbPolyline
 90
       52
 70
     1
 43
0.0
 10
15.228075
 20
15.9894
 42
-0.118522
 10
15.253891
 20
15.983193
 42
-0.027698
 10
15.29264
 20
15.960632
 42
-0.027038
 10
15.335481
 20
15.928953
 42
-0.02366
 10
15.376695
 20
15.891465
 42
0.068549
 10
15.430861
 20
15.850415
 42
0.141915
 10
15.4821
 20
15.838435
 42
0.119384
 10
15.537849
 20
15.855065
 42
0.041318
 10
15.607159
 20
15.903521
 42
-0.02384
 10
15.659983
 20
15.943267
 42
-0.037888
 10
15.709014
 20
15.971447
 42
-0.0441
 10
15.748576
 20
15.986237
 42
-0.292441
 10
15.767793
 20
15.980306
 42
-0.076072
 10
15.783864
 20
15.954124
 42
-0.002346
 10
15.832562
 20
15.836982
 42
-0.004556
 10
15.888186
 20
15.697792
 42
-0.003132
 10
15.948819
 20
15.539025
 42
0.016947
 10
16.020291
 20
15.366348
 42
0.013467
 10
16.108662
 20
15.184917
 42
0.013681
 10
16.199788
 20
15.021063
 42
0.032914
 10
16.278221
 20
14.906593
 42
-0.056138
 10
16.366106
 20
14.764641
 42
-0.05758
 10
16.419303
 20
14.607886
 42
-0.040354
 10
16.446743
 20
14.400375
 42
-0.012702
 10
16.4547
 20
14.087192
 42
-0.023119
 10
16.437607
 20
13.717711
 42
-0.049114
 10
16.383425
 20
13.436909
 42
-0.033942
 10
16.263037
 20
13.113758
 42
-0.006358
 10
15.995437
 20
12.541173
 42
-0.00434
 10
15.815454
 20
12.176605
 42
-0.00699
 10
15.655111
 20
11.869548
 42
-0.002159
 10
15.512591
 20
11.608385
 42
-0.273245
 10
15.4818
 20
11.5902
 42
-0.273133
 10
15.451018
 20
11.608371
 42
-0.002187
 10
15.309407
 20
11.867648
 42
-0.007036
 10
15.150072
 20
12.172616
 42
-0.00437
 10
14.971287
 20
12.534704
 42
-0.007992
 10
14.735349
 20
13.043872
 42
-0.024484
 10
14.598202
 20
13.398541
 42
-0.033462
 10
14.520772
 20
13.697877
 42
-0.030669
 10
14.481112
 20
14.013735
 42
-0.016011
 10
14.471191
 20
14.327905
 42
-0.057586
 10
14.494262
 20
14.526779
 42
-0.062199
 10
14.561101
 20
14.707203
 42
-0.020827
 10
14.701237
 20
14.951581
 42
0.013295
 10
14.806681
 20
15.129206
 42
0.010024
 10
14.913343
 20
15.329617
 42
0.010152
 10
15.006045
 20
15.522144
 42
0.022973
 10
15.066394
 20
15.67215
 42
-0.013323
 10
15.112601
 20
15.793727
 42
-0.020372
 10
15.159674
 20
15.896208
 42
-0.015791
 10
15.203107
 20
15.975165
 42
-0.265034
  0
LWPOLYLINE
  5
E3C
330
1D
100
AcDbEntity
  8
0
100
AcDbPolyline
 90
       36
 70
     1
 43
0.0
 10
9.496593
 20
23.6034
 42
0.135595
 10
9.439075
 20
23.587509
 42
0.195661
 10
9.407711
 20
23.545844
 42
0.094771
 10
9.402218
 20
23.467335
 42
0.019568
 10
9.424163
 20
23.329834
 42
0.038233
 10
9.459947
 20
23.202437
 42
0.017776
 10
9.524605
 20
23.043242
 42
0.017492
 10
9.604693
 20
22.880092
 42
0.023327
 10
9.68926
 20
22.738357
 42
0.031299
 10
9.792831
 20
22.601316
 42
0.018912
 10
9.931231
 20
22.452031
 42
0.018912
 10
10.080516
 20
22.313631
 42
0.031299
 10
10.217557
 20
22.21006
 42
0.023327
 10
10.359292
 20
22.125493
 42
0.017492
 10
10.522442
 20
22.045405
 42
0.017776
 10
10.681637
 20
21.980747
 42
0.038233
 10
10.809034
 20
21.944963
 42
0.017658
 10
10.965144
 20
21.919436
 42
0.142376
 10
11.036176
 20
21.930614
 42
0.232707
 10
11.071897
 20
21.975278
 42
0.054382
 10
11.0826
 20
22.073395
 42
0.059567
 10
11.071573
 20
22.165624
 42
0.019305
 10
11.033987
 20
22.298031
 42
0.018939
 10
10.980456
 20
22.443294
 42
0.020203
 10
10.91711
 20
22.580928
 42
0.030164
 10
10.834334
 20
22.72154
 42
0.018779
 10
10.721589
 20
22.876201
 42
0.018826
 10
10.59845
 20
23.020888
 42
0.032143
 10
10.483897
 20
23.13059
 42
0.022202
 10
10.35987
 20
23.22588
 42
0.014123
 10
10.207803
 20
23.326047
 42
0.014187
 10
10.052726
 20
23.416047
 42
0.025431
 10
9.919955
 20
23.479632
 42
0.013693
 10
9.797222
 20
23.527009
 42
0.014149
 10
9.673402
 20
23.567043
 42
0.013988
 10
9.564437
 20
23.595616
 42
0.05718
  0
LWPOLYLINE
  5
E62
330
1D
100
AcDbEntity
  8
0
100
AcDbPolyline
 90
       36
 70
     1
 43
0.0
 10
21.25575
 20
23.603333
 42
0.068624
 10
21.17621
 20
23.592328
 42
0.015596
 10
21.046092
 20
23.551264
 42
0.015861
 10
20.897756
 20
23.493966
 42
0.014826
 10
20.749921
 20
23.426168
 42
0.029382
 10
20.594596
 20
23.337569
 42
0.01834
 10
20.423286
 20
23.216865
 42
0.01839
 10
20.262632
 20
23.085012
 42
0.031569
 10
20.140387
 20
22.962338
 42
0.031552
 10
20.036524
 20
22.827805
 42
0.020197
 10
19.932631
 20
22.659856
 42
0.020291
 10
19.843843
 20
22.486361
 42
0.035351
 10
19.786662
 20
22.335257
 42
0.018071
 10
19.751634
 20
22.20086
 42
0.025362
 10
19.730892
 20
22.078639
 42
0.02361
 10
19.723935
 20
21.97968
 42
0.204889
 10
19.74
 20
21.9396
 42
0.204889
 10
19.78008
 20
21.923535
 42
0.02361
 10
19.879039
 20
21.930492
 42
0.025362
 10
20.00126
 20
21.951234
 42
0.018071
 10
20.135657
 20
21.986262
 42
0.035563
 10
20.286914
 20
22.043574
 42
0.020288
 10
20.460907
 20
22.132803
 42
0.020184
 10
20.629567
 20
22.237325
 42
0.031355
 10
20.764956
 20
22.341934
 42
0.032215
 10
20.888327
 20
22.465193
 42
0.01882
 10
21.020417
 20
22.62727
 42
0.01877
 10
21.140916
 20
22.800177
 42
0.030076
 10
21.228853
 20
22.957028
 42
0.013977
 10
21.295823
 20
23.105838
 42
0.015191
 10
21.352409
 20
23.254118
 42
0.014802
 10
21.393096
 20
23.383546
 42
0.068852
 10
21.4038
 20
23.46091
 42
0.101376
 10
21.392573
 20
23.515715
 42
0.100498
 10
21.360685
 20
23.561884
 42
0.098572
 10
21.312718
 20
23.592597
 42
0.093637
  0
LWPOLYLINE
  5
E88
330
1D
100
AcDbEntity
  8
0
100
AcDbPolyline
 90
       36
 70
     1
 43
0.0
 10
10.89225
 20
13.278461
 42
0.056111
 10
10.79802
 20
13.265974
 42
0.019758
 10
10.66691
 20
13.227796
 42
0.019327
 10
10.524885
 20
13.174091
 42
0.021467
 10
10.392436
 20
13.111234
 42
0.033709
 10
10.255878
 20
13.026866
 42
0.018593
 10
10.100553
 20
12.906817
 42
0.018466
 10
9.95145
 20
12.772817
 42
0.028106
 10
9.833359
 20
12.644924
 42
0.026492
 10
9.729717
 20
12.50467
 42
0.017281
 10
9.624684
 20
12.332922
 42
0.01739
 10
9.533632
 20
12.157829
 42
0.031506
 10
9.473494
 20
12.00803
 42
0.018611
 10
9.435311
 20
11.876018
 42
0.026225
 10
9.411948
 20
11.755772
 42
0.024748
 10
9.403165
 20
11.658419
 42
0.209457
 10
9.4188
 20
11.6184
 42
0.209457
 10
9.458819
 20
11.602765
 42
0.024748
 10
9.556172
 20
11.611548
 42
0.026225
 10
9.676418
 20
11.634911
 42
0.018611
 10
9.80843
 20
11.673094
 42
0.032214
 10
9.95884
 20
11.733725
 42
0.017363
 10
10.135952
 20
11.826451
 42
0.017226
 10
10.310572
 20
11.933868
 42
0.025867
 10
10.454276
 20
12.040339
 42
0.033526
 10
10.585085
 20
12.163773
 42
0.021467
 10
10.720415
 20
12.323002
 42
0.021563
 10
10.840078
 20
12.49119
 42
0.037253
 10
10.922468
 20
12.641715
 42
0.014133
 10
10.982479
 20
12.784423
 42
0.014707
 10
11.033483
 20
12.928427
 42
0.014534
 10
11.070207
 20
13.055223
 42
0.060147
 10
11.080742
 20
13.13415
 42
0.09618
 10
11.069122
 20
13.198289
 42
0.137453
 10
11.034581
 20
13.244279
 42
0.114342
 10
10.975646
 20
13.271003
 42
0.05447
  0
LWPOLYLINE
  5
EAE
330
1D
100
AcDbEntity
  8
0
100
AcDbPolyline
 90
       36
 70
     1
 43
0.0
 10
19.85985
 20
13.280342
 42
0.092183
 10
19.801389
 20
13.270229
 42
0.10798
 10
19.7541
 20
13.2399
 42
0.10798
 10
19.723771
 20
13.192611
 42
0.092183
 10
19.713658
 20
13.13415
 42
0.060147
 10
19.724193
 20
13.055223
 42
0.014534
 10
19.760917
 20
12.928427
 42
0.014707
 10
19.811921
 20
12.784423
 42
0.014133
 10
19.871932
 20
12.641715
 42
0.038677
 10
19.955428
 20
12.490193
 42
0.021454
 10
20.078803
 20
12.318783
 42
0.021285
 10
20.219426
 20
12.154955
 42
0.032009
 10
20.356524
 20
12.025974
 42
0.025295
 10
20.505397
 20
11.915055
 42
0.018239
 10
20.681651
 20
11.806198
 42
0.018495
 10
20.85729
 20
11.714799
 42
0.037555
 10
21.002495
 20
11.658854
 42
0.019354
 10
21.128249
 20
11.62621
 42
0.026825
 10
21.243186
 20
11.607468
 42
0.025756
 10
21.336226
 20
11.602206
 42
0.200212
 10
21.3756
 20
11.6184
 42
0.204889
 10
21.391665
 20
11.65848
 42
0.02361
 10
21.384708
 20
11.757439
 42
0.025362
 10
21.363966
 20
11.87966
 42
0.018071
 10
21.328938
 20
12.014057
 42
0.037354
 10
21.270506
 20
12.166621
 42
0.020232
 10
21.177489
 20
12.344897
 42
0.02005
 10
21.067569
 20
12.519656
 42
0.029755
 10
20.956559
 20
12.662383
 42
0.030542
 10
20.828353
 20
12.791567
 42
0.019882
 10
20.665966
 20
12.925148
 42
0.020003
 10
20.49647
 20
13.043262
 42
0.035564
 10
20.347026
 20
13.124423
 42
0.014341
 10
20.206331
 20
13.183532
 42
0.014829
 10
20.064028
 20
13.233774
 42
0.01469
 10
19.938518
 20
13.269916
 42
0.059681
  0
ENDSEC
  0
SECTION
  2
OBJECTS
  0
DICTIONARY
  5
C
330
0
100
AcDbDictionary
281
     1
  3
ACAD_DETAILVIEWSTYLE
350
F60
  3
ACAD_GROUP
350
D
  3
ACAD_LAYOUT
350
1A
  3
ACAD_MATERIAL
350
F13
  3
ACAD_MLEADERSTYLE
350
F19
  3
ACAD_MLINESTYLE
350
17
  3
ACAD_PLOTSETTINGS
350
19
  3
ACAD_PLOTSTYLENAME
350
E
  3
ACAD_SCALELIST
350
ED4
  3
ACAD_SECTIONVIEWSTYLE
350
F61
  3
ACAD_TABLESTYLE
350
F17
  3
ACAD_VISUALSTYLE
350
EFA
  3
ACDB_RECOMPOSE_DATA
350
F5C
  3
AcDbVariableDictionary
350
F1D
  0
DICTIONARY
  5
F1B
330
8
100
AcDbDictionary
280
     1
281
     1
  3
ACAD_XREC_ROUNDTRIP
360
F1C
  0
DICTIONARY
  5
F60
102
{ACAD_REACTORS
330
C
102
}
330
C
100
AcDbDictionary
281
     1
  0
DICTIONARY
  5
D
102
{ACAD_REACTORS
330
C
102
}
330
C
100
AcDbDictionary
281
     1
  0
DICTIONARY
  5
1A
102
{ACAD_REACTORS
330
C
102
}
330
C
100
AcDbDictionary
281
     1
  3
Layout1
350
1C
  3
Model
350
1E
  0
DICTIONARY
  5
F13
102
{ACAD_REACTORS
330
C
102
}
330
C
100
AcDbDictionary
281
     1
  3
ByBlock
350
F15
  3
ByLayer
350
F14
  3
Global
350
F16
  0
DICTIONARY
  5
F19
102
{ACAD_REACTORS
330
C
102
}
330
C
100
AcDbDictionary
281
     1
  3
Standard
350
F1A
  0
DICTIONARY
  5
17
102
{ACAD_REACTORS
330
C
102
}
330
C
100
AcDbDictionary
281
     1
  3
Standard
350
18
  0
DICTIONARY
  5
19
102
{ACAD_REACTORS
330
C
102
}
330
C
100
AcDbDictionary
281
     1
  0
ACDBDICTIONARYWDFLT
  5
E
102
{ACAD_REACTORS
330
C
102
}
330
C
100
AcDbDictionary
281
     1
  3
Normal
350
F
100
AcDbDictionaryWithDefault
340
F
  0
DICTIONARY
  5
ED4
102
{ACAD_REACTORS
330
C
102
}
330
C
100
AcDbDictionary
281
     1
  3
A0
350
ED5
  3
A1
350
ED6
  3
A2
350
ED7
  3
A3
350
ED8
  3
A4
350
ED9
  3
A5
350
EDA
  3
A6
350
EDB
  3
A7
350
EDC
  3
A8
350
EDD
  3
A9
350
EDE
  3
B0
350
EDF
  3
B1
350
EE0
  3
B2
350
EE1
  3
B3
350
EE2
  3
B4
350
EE3
  3
B5
350
EE4
  3
B6
350
EE5
  3
B7
350
EE6
  3
B8
350
EE7
  3
B9
350
EE8
  3
C0
350
EE9
  3
C1
350
EEA
  3
C2
350
EEB
  3
C3
350
EEC
  3
C4
350
EED
  3
C5
350
EEE
  3
C6
350
EEF
  3
C7
350
EF0
  3
C8
350
EF1
  3
C9
350
EF2
  3
D0
350
EF3
  3
D1
350
EF4
  3
D2
350
EF5
  0
DICTIONARY
  5
F61
102
{ACAD_REACTORS
330
C
102
}
330
C
100
AcDbDictionary
281
     1
  0
DICTIONARY
  5
F17
102
{ACAD_REACTORS
330
C
102
}
330
C
100
AcDbDictionary
281
     1
  3
Standard
350
F18
  0
DICTIONARY
  5
EFA
102
{ACAD_REACTORS
330
C
102
}
330
C
100
AcDbDictionary
281
     1
  3
2dWireframe
350
EFF
  3
Basic
350
F02
  3
Brighten
350
F06
  3
ColorChange
350
F0A
  3
Conceptual
350
F04
  3
Dim
350
F05
  3
EdgeColorOff
350
F0D
  3
Facepattern
350
F09
  3
Flat
350
EFB
  3
FlatWithEdges
350
EFC
  3
Gouraud
350
EFD
  3
GouraudWithEdges
350
EFE
  3
Hidden
350
F01
  3
JitterOff
350
F0B
  3
Linepattern
350
F08
  3
OverhangOff
350
F0C
  3
Realistic
350
F03
  3
Shaded
350
F12
  3
Shaded with edges
350
F11
  3
Shades of Gray
350
F0E
  3
Sketchy
350
F0F
  3
Thicken
350
F07
  3
Wireframe
350
F00
  3
X-Ray
350
F10
  0
XRECORD
  5
F5C
102
{ACAD_REACTORS
330
C
102
}
330
C
100
AcDbXrecord
280
     1
 90
        1
330
F18
  0
DICTIONARY
  5
F1D
102
{ACAD_REACTORS
330
C
102
}
330
C
100
AcDbDictionary
281
     1
  3
CANNOSCALE
350
F1E
  3
CMLEADERSTYLE
350
F5E
  3
CTABLESTYLE
350
F5D
  3
MSLTSCALE
350
F5F
  3
XCLIPFRAME
350
F1F
  0
XRECORD
  5
F1C
102
{ACAD_REACTORS
330
F1B
102
}
330
F1B
100
AcDbXrecord
280
     1
102
VTR_0.000_0.000_1.000_1.000_VISUALSTYLE
340
EFF
102
VTR_0.000_0.000_1.000_1.000_GRIDDISPLAY
 70
     3
102
VTR_0.000_0.000_1.000_1.000_GRIDMAJOR
 70
     5
102
VTR_0.000_0.000_1.000_1.000_DEFAULTLIGHTING
280
     1
102
VTR_0.000_0.000_1.000_1.000_DEFAULTLIGHTINGTYPE
 70
     1
102
VTR_0.000_0.000_1.000_1.000_BRIGHTNESS
141
0.0
102
VTR_0.000_0.000_1.000_1.000_CONTRAST
142
0.0
  0
LAYOUT
  5
1C
102
{ACAD_REACTORS
330
1A
102
}
330
1A
100
AcDbPlotSettings
  1

  2
none_device
  4

  6

 40
0.0
 41
0.0
 42
0.0
 43
0.0
 44
0.0
 45
0.0
 46
0.0
 47
0.0
 48
0.0
 49
0.0
140
0.0
141
0.0
142
1.0
143
1.0
 70
   688
 72
     0
 73
     0
 74
     5
  7

 75
    16
 76
     0
 77
     2
 78
   300
147
1.0
148
0.0
149
0.0
100
AcDbLayout
  1
Layout1
 70
     1
 71
     1
 10
0.0
 20
0.0
 11
12.0
 21
9.0
 12
0.0
 22
0.0
 32
0.0
 14
1.000000000000000E+20
 24
1.000000000000000E+20
 34
1.000000000000000E+20
 15
-1.000000000000000E+20
 25
-1.000000000000000E+20
 35
-1.000000000000000E+20
146
0.0
 13
0.0
 23
0.0
 33
0.0
 16
1.0
 26
0.0
 36
0.0
 17
0.0
 27
1.0
 37
0.0
 76
     0
330
1B
  0
LAYOUT
  5
1E
102
{ACAD_REACTORS
330
1A
102
}
330
1A
100
AcDbPlotSettings
  1

  2
none_device
  4
Letter_(8.50_x_11.00_Inches)
  6

 40
6.35
 41
6.35
 42
6.35000508
 43
6.35000508
 44
215.9
 45
279.4
 46
0.0
 47
0.0
 48
0.0
 49
0.0
140
0.0
141
0.0
142
1.0
143
1.0
 70
  1712
 72
     0
 73
     0
 74
     0
  7

 75
     0
 76
     0
 77
     2
 78
   300
147
1.0
148
0.0
149
0.0
100
AcDbLayout
  1
Model
 70
     1
 71
     0
 10
0.0
 20
0.0
 11
12.0
 21
9.0
 12
0.0
 22
0.0
 32
0.0
 14
0.0
 24
0.0
 34
0.0
 15
30.7944
 25
35.1936
 35
0.0
146
0.0
 13
0.0
 23
0.0
 33
0.0
 16
1.0
 26
0.0
 36
0.0
 17
0.0
 27
1.0
 37
0.0
 76
     0
330
1D
331
21
  0
MATERIAL
  5
F15
102
{ACAD_REACTORS
330
F13
102
}
102
{ACAD_XDICTIONARY
360
F52
102
}
330
F13
100
AcDbMaterial
  1
ByBlock
  0
MATERIAL
  5
F14
102
{ACAD_REACTORS
330
F13
102
}
102
{ACAD_XDICTIONARY
360
F50
102
}
330
F13
100
AcDbMaterial
  1
ByLayer
  0
MATERIAL
  5
F16
102
{ACAD_REACTORS
330
F13
102
}
102
{ACAD_XDICTIONARY
360
F54
102
}
330
F13
100
AcDbMaterial
  1
Global
  0
MLEADERSTYLE
  5
F1A
102
{ACAD_REACTORS
330
F19
102
}
102
{ACAD_XDICTIONARY
360
F5A
102
}
330
F19
100
AcDbMLeaderStyle
170
     2
171
     1
172
     0
 90
        2
 40
0.0
 41
0.0
173
     1
 91
-1056964608
340
14
 92
       -2
290
     1
 42
0.09
291
     1
 43
0.36
  3
Standard
341
0
 44
0.18
300

342
11
174
     1
178
     6
175
     1
176
     0
 93
-1056964608
 45
0.18
292
     0
297
     0
 46
0.18
343
0
 94
-1056964608
 47
1.0
 49
1.0
140
1.0
293
     1
141
0.0
294
     1
177
     0
142
1.0
295
     0
296
     0
143
0.125
1001
ACAD_MLEADERVER
1070
     2
  0
MLINESTYLE
  5
18
102
{ACAD_REACTORS
330
17
102
}
330
17
100
AcDbMlineStyle
  2
Standard
 70
     0
  3

 62
   256
 51
90.0
 52
90.0
 71
     2
 49
0.5
 62
   256
  6
BYLAYER
 49
-0.5
 62
   256
  6
BYLAYER
  0
ACDBPLACEHOLDER
  5
F
102
{ACAD_REACTORS
330
E
102
}
330
E
  0
SCALE
  5
ED5
102
{ACAD_REACTORS
330
ED4
102
}
330
ED4
100
AcDbScale
 70
     0
300
1:1
140
1.0
141
1.0
290
     1
  0
SCALE
  5
ED6
102
{ACAD_REACTORS
330
ED4
102
}
330
ED4
100
AcDbScale
 70
     0
300
1:2
140
1.0
141
2.0
290
     0
  0
SCALE
  5
ED7
102
{ACAD_REACTORS
330
ED4
102
}
330
ED4
100
AcDbScale
 70
     0
300
1:4
140
1.0
141
4.0
290
     0
  0
SCALE
  5
ED8
102
{ACAD_REACTORS
330
ED4
102
}
330
ED4
100
AcDbScale
 70
     0
300
1:5
140
1.0
141
5.0
290
     0
  0
SCALE
  5
ED9
102
{ACAD_REACTORS
330
ED4
102
}
330
ED4
100
AcDbScale
 70
     0
300
1:8
140
1.0
141
8.0
290
     0
  0
SCALE
  5
EDA
102
{ACAD_REACTORS
330
ED4
102
}
330
ED4
100
AcDbScale
 70
     0
300
1:10
140
1.0
141
10.0
290
     0
  0
SCALE
  5
EDB
102
{ACAD_REACTORS
330
ED4
102
}
330
ED4
100
AcDbScale
 70
     0
300
1:16
140
1.0
141
16.0
290
     0
  0
SCALE
  5
EDC
102
{ACAD_REACTORS
330
ED4
102
}
330
ED4
100
AcDbScale
 70
     0
300
1:20
140
1.0
141
20.0
290
     0
  0
SCALE
  5
EDD
102
{ACAD_REACTORS
330
ED4
102
}
330
ED4
100
AcDbScale
 70
     0
300
1:30
140
1.0
141
30.0
290
     0
  0
SCALE
  5
EDE
102
{ACAD_REACTORS
330
ED4
102
}
330
ED4
100
AcDbScale
 70
     0
300
1:40
140
1.0
141
40.0
290
     0
  0
SCALE
  5
EDF
102
{ACAD_REACTORS
330
ED4
102
}
330
ED4
100
AcDbScale
 70
     0
300
1:50
140
1.0
141
50.0
290
     0
  0
SCALE
  5
EE0
102
{ACAD_REACTORS
330
ED4
102
}
330
ED4
100
AcDbScale
 70
     0
300
1:100
140
1.0
141
100.0
290
     0
  0
SCALE
  5
EE1
102
{ACAD_REACTORS
330
ED4
102
}
330
ED4
100
AcDbScale
 70
     0
300
2:1
140
2.0
141
1.0
290
     0
  0
SCALE
  5
EE2
102
{ACAD_REACTORS
330
ED4
102
}
330
ED4
100
AcDbScale
 70
     0
300
4:1
140
4.0
141
1.0
290
     0
  0
SCALE
  5
EE3
102
{ACAD_REACTORS
330
ED4
102
}
330
ED4
100
AcDbScale
 70
     0
300
8:1
140
8.0
141
1.0
290
     0
  0
SCALE
  5
EE4
102
{ACAD_REACTORS
330
ED4
102
}
330
ED4
100
AcDbScale
 70
     0
300
10:1
140
10.0
141
1.0
290
     0
  0
SCALE
  5
EE5
102
{ACAD_REACTORS
330
ED4
102
}
330
ED4
100
AcDbScale
 70
     0
300
100:1
140
100.0
141
1.0
290
     0
  0
SCALE
  5
EE6
102
{ACAD_REACTORS
330
ED4
102
}
330
ED4
100
AcDbScale
 70
     0
300
1/128\" = 1\'-0\"
140
0.0078125
141
12.0
290
     0
  0
SCALE
  5
EE7
102
{ACAD_REACTORS
330
ED4
102
}
330
ED4
100
AcDbScale
 70
     0
300
1/64\" = 1\'-0\"
140
0.015625
141
12.0
290
     0
  0
SCALE
  5
EE8
102
{ACAD_REACTORS
330
ED4
102
}
330
ED4
100
AcDbScale
 70
     0
300
1/32\" = 1\'-0\"
140
0.03125
141
12.0
290
     0
  0
SCALE
  5
EE9
102
{ACAD_REACTORS
330
ED4
102
}
330
ED4
100
AcDbScale
 70
     0
300
1/16\" = 1\'-0\"
140
0.0625
141
12.0
290
     0
  0
SCALE
  5
EEA
102
{ACAD_REACTORS
330
ED4
102
}
330
ED4
100
AcDbScale
 70
     0
300
3/32\" = 1\'-0\"
140
0.09375
141
12.0
290
     0
  0
SCALE
  5
EEB
102
{ACAD_REACTORS
330
ED4
102
}
330
ED4
100
AcDbScale
 70
     0
300
1/8\" = 1\'-0\"
140
0.125
141
12.0
290
     0
  0
SCALE
  5
EEC
102
{ACAD_REACTORS
330
ED4
102
}
330
ED4
100
AcDbScale
 70
     0
300
3/16\" = 1\'-0\"
140
0.1875
141
12.0
290
     0
  0
SCALE
  5
EED
102
{ACAD_REACTORS
330
ED4
102
}
330
ED4
100
AcDbScale
 70
     0
300
1/4\" = 1\'-0\"
140
0.25
141
12.0
290
     0
  0
SCALE
  5
EEE
102
{ACAD_REACTORS
330
ED4
102
}
330
ED4
100
AcDbScale
 70
     0
300
3/8\" = 1\'-0\"
140
0.375
141
12.0
290
     0
  0
SCALE
  5
EEF
102
{ACAD_REACTORS
330
ED4
102
}
330
ED4
100
AcDbScale
 70
     0
300
1/2\" = 1\'-0\"
140
0.5
141
12.0
290
     0
  0
SCALE
  5
EF0
102
{ACAD_REACTORS
330
ED4
102
}
330
ED4
100
AcDbScale
 70
     0
300
3/4\" = 1\'-0\"
140
0.75
141
12.0
290
     0
  0
SCALE
  5
EF1
102
{ACAD_REACTORS
330
ED4
102
}
330
ED4
100
AcDbScale
 70
     0
300
1\" = 1\'-0\"
140
1.0
141
12.0
290
     0
  0
SCALE
  5
EF2
102
{ACAD_REACTORS
330
ED4
102
}
330
ED4
100
AcDbScale
 70
     0
300
1-1/2\" = 1\'-0\"
140
1.5
141
12.0
290
     0
  0
SCALE
  5
EF3
102
{ACAD_REACTORS
330
ED4
102
}
330
ED4
100
AcDbScale
 70
     0
300
3\" = 1\'-0\"
140
3.0
141
12.0
290
     0
  0
SCALE
  5
EF4
102
{ACAD_REACTORS
330
ED4
102
}
330
ED4
100
AcDbScale
 70
     0
300
6\" = 1\'-0\"
140
6.0
141
12.0
290
     0
  0
SCALE
  5
EF5
102
{ACAD_REACTORS
330
ED4
102
}
330
ED4
100
AcDbScale
 70
     0
300
1\'-0\" = 1\'-0\"
140
12.0
141
12.0
290
     0
  0
TABLESTYLE
  5
F18
102
{ACAD_REACTORS
330
F17
102
}
102
{ACAD_XDICTIONARY
360
F56
102
}
330
F17
100
AcDbTableStyle
  3
Standard
 70
     0
 71
     0
 40
0.06
 41
0.06
280
     0
281
     0
  7
Standard
140
0.18
170
     2
 62
     0
 63
   257
283
     0
274
    -2
284
     1
 64
     0
275
    -2
285
     1
 65
     0
276
    -2
286
     1
 66
     0
277
    -2
287
     1
 67
     0
278
    -2
288
     1
 68
     0
279
    -2
289
     1
 69
     0
  7
Standard
140
0.25
170
     5
 62
     0
 63
   257
283
     0
274
    -2
284
     1
 64
     0
275
    -2
285
     1
 65
     0
276
    -2
286
     1
 66
     0
277
    -2
287
     1
 67
     0
278
    -2
288
     1
 68
     0
279
    -2
289
     1
 69
     0
  7
Standard
140
0.18
170
     5
 62
     0
 63
   257
283
     0
274
    -2
284
     1
 64
     0
275
    -2
285
     1
 65
     0
276
    -2
286
     1
 66
     0
277
    -2
287
     1
 67
     0
278
    -2
288
     1
 68
     0
279
    -2
289
     1
 69
     0
  0
VISUALSTYLE
  5
EFF
102
{ACAD_REACTORS
330
EFA
102
}
102
{ACAD_XDICTIONARY
360
F28
102
}
330
EFA
100
AcDbVisualStyle
  2
2dWireframe
 70
     4
 71
     0
 72
     2
 73
     0
 90
        0
 40
0.6
 41
30.0
 62
     5
 63
     7
421
 16777215
 74
     1
 91
        4
 64
     7
 65
   257
 75
     1
175
     1
 42
1.0
 92
        0
 66
   257
 43
1.0
 76
     1
 77
     6
 78
     2
 67
     7
 79
     5
170
     0
171
     0
290
     0
174
     0
 93
        1
 44
0.0
173
     0
291
     0
 45
0.0
1001
ACAD
1000
AcDbSavedByObjectVersion
1070
     0
  0
VISUALSTYLE
  5
F02
102
{ACAD_REACTORS
330
EFA
102
}
102
{ACAD_XDICTIONARY
360
F2E
102
}
330
EFA
100
AcDbVisualStyle
  2
Basic
 70
     7
 71
     1
 72
     0
 73
     1
 90
        0
 40
0.6
 41
30.0
 62
     5
 63
     7
421
 16777215
 74
     0
 91
        4
 64
     7
 65
   257
 75
     1
175
     1
 42
1.0
 92
        8
 66
     7
 43
1.0
 76
     1
 77
     6
 78
     2
 67
     7
 79
     5
170
     0
171
     0
290
     0
174
     0
 93
        1
 44
0.0
173
     0
291
     1
 45
0.0
1001
ACAD
1000
AcDbSavedByObjectVersion
1070
     0
  0
VISUALSTYLE
  5
F06
102
{ACAD_REACTORS
330
EFA
102
}
102
{ACAD_XDICTIONARY
360
F36
102
}
330
EFA
100
AcDbVisualStyle
  2
Brighten
 70
    12
 71
     2
 72
     2
 73
     0
 90
        0
 40
0.6
 41
30.0
 62
     5
 63
     7
421
 16777215
 74
     1
 91
        4
 64
     7
 65
   257
 75
     1
175
     1
 42
1.0
 92
        8
 66
     7
 43
1.0
 76
     1
 77
     6
 78
     2
 67
     7
 79
     5
170
     0
171
     0
290
     0
174
     0
 93
        1
 44
50.0
173
     0
291
     1
 45
0.0
1001
ACAD
1000
AcDbSavedByObjectVersion
1070
     0
  0
VISUALSTYLE
  5
F0A
102
{ACAD_REACTORS
330
EFA
102
}
102
{ACAD_XDICTIONARY
360
F3E
102
}
330
EFA
100
AcDbVisualStyle
  2
ColorChange
 70
    16
 71
     2
 72
     2
 73
     3
 90
        0
 40
0.6
 41
30.0
 62
     5
 63
     8
421
  8421504
 74
     1
 91
        4
 64
     7
 65
   257
 75
     1
175
     1
 42
1.0
 92
        8
 66
     8
424
  8421504
 43
1.0
 76
     1
 77
     6
 78
     2
 67
     7
 79
     5
170
     0
171
     0
290
     0
174
     0
 93
        1
 44
0.0
173
     0
291
     1
 45
0.0
1001
ACAD
1000
AcDbSavedByObjectVersion
1070
     0
  0
VISUALSTYLE
  5
F04
102
{ACAD_REACTORS
330
EFA
102
}
102
{ACAD_XDICTIONARY
360
F32
102
}
330
EFA
100
AcDbVisualStyle
  2
Conceptual
 70
     9
 71
     3
 72
     2
 73
     0
 90
        0
 40
0.6
 41
30.0
 62
     5
 63
     7
421
 16777215
 74
     2
 91
        2
 64
     7
 65
   257
 75
     1
175
     1
 42
179.0
 92
        8
 66
     7
 43
1.0
 76
     1
 77
     6
 78
     2
 67
     7
 79
     3
170
     0
171
     0
290
     0
174
     0
 93
        1
 44
0.0
173
     0
291
     0
 45
0.0
1001
ACAD
1000
AcDbSavedByObjectVersion
1070
     0
  0
VISUALSTYLE
  5
F05
102
{ACAD_REACTORS
330
EFA
102
}
102
{ACAD_XDICTIONARY
360
F34
102
}
330
EFA
100
AcDbVisualStyle
  2
Dim
 70
    11
 71
     2
 72
     2
 73
     0
 90
        0
 40
0.6
 41
30.0
 62
     5
 63
     7
421
 16777215
 74
     1
 91
        4
 64
     7
 65
   257
 75
     1
175
     1
 42
1.0
 92
        8
 66
     7
 43
1.0
 76
     1
 77
     6
 78
     2
 67
     7
 79
     5
170
     0
171
     0
290
     0
174
     0
 93
        1
 44
-50.0
173
     0
291
     1
 45
0.0
1001
ACAD
1000
AcDbSavedByObjectVersion
1070
     0
  0
VISUALSTYLE
  5
F0D
102
{ACAD_REACTORS
330
EFA
102
}
102
{ACAD_XDICTIONARY
360
F44
102
}
330
EFA
100
AcDbVisualStyle
  2
EdgeColorOff
 70
    22
 71
     2
 72
     2
 73
     0
 90
        0
 40
0.6
 41
30.0
 62
     5
 63
     7
421
 16777215
 74
     1
 91
        4
 64
     7
 65
   257
 75
     1
175
     1
 42
1.0
 92
        8
 66
     7
 43
1.0
 76
     1
 77
     6
 78
     2
 67
     7
 79
     5
170
     0
171
     0
290
     0
174
     0
 93
        1
 44
0.0
173
     0
291
     1
 45
0.0
1001
ACAD
1000
AcDbSavedByObjectVersion
1070
     0
  0
VISUALSTYLE
  5
F09
102
{ACAD_REACTORS
330
EFA
102
}
102
{ACAD_XDICTIONARY
360
F3C
102
}
330
EFA
100
AcDbVisualStyle
  2
Facepattern
 70
    15
 71
     2
 72
     2
 73
     0
 90
        0
 40
0.6
 41
30.0
 62
     5
 63
     7
421
 16777215
 74
     1
 91
        4
 64
     7
 65
   257
 75
     1
175
     1
 42
1.0
 92
        8
 66
     7
 43
1.0
 76
     1
 77
     6
 78
     2
 67
     7
 79
     5
170
     0
171
     0
290
     0
174
     0
 93
        1
 44
0.0
173
     0
291
     1
 45
0.0
1001
ACAD
1000
AcDbSavedByObjectVersion
1070
     0
  0
VISUALSTYLE
  5
EFB
102
{ACAD_REACTORS
330
EFA
102
}
102
{ACAD_XDICTIONARY
360
F20
102
}
330
EFA
100
AcDbVisualStyle
  2
Flat
 70
     0
 71
     2
 72
     1
 73
     1
 90
        2
 40
0.6
 41
30.0
 62
     5
 63
     7
421
 16777215
 74
     0
 91
        0
 64
     7
 65
   257
 75
     1
175
     1
 42
1.0
 92
        8
 66
     7
 43
1.0
 76
     1
 77
     6
 78
     2
 67
     7
 79
     5
170
     0
171
     0
290
     0
174
     0
 93
       13
 44
0.0
173
     0
291
     1
 45
0.0
1001
ACAD
1000
AcDbSavedByObjectVersion
1070
     0
  0
VISUALSTYLE
  5
EFC
102
{ACAD_REACTORS
330
EFA
102
}
102
{ACAD_XDICTIONARY
360
F22
102
}
330
EFA
100
AcDbVisualStyle
  2
FlatWithEdges
 70
     1
 71
     2
 72
     1
 73
     1
 90
        2
 40
0.6
 41
30.0
 62
     5
 63
     7
421
 16777215
 74
     1
 91
        0
 64
     7
 65
   257
 75
     1
175
     1
 42
1.0
 92
        0
 66
   257
 43
1.0
 76
     1
 77
     6
 78
     2
 67
     7
 79
     5
170
     0
171
     0
290
     0
174
     0
 93
       13
 44
0.0
173
     0
291
     1
 45
0.0
1001
ACAD
1000
AcDbSavedByObjectVersion
1070
     0
  0
VISUALSTYLE
  5
EFD
102
{ACAD_REACTORS
330
EFA
102
}
102
{ACAD_XDICTIONARY
360
F24
102
}
330
EFA
100
AcDbVisualStyle
  2
Gouraud
 70
     2
 71
     2
 72
     2
 73
     1
 90
        2
 40
0.6
 41
30.0
 62
     5
 63
     7
421
 16777215
 74
     0
 91
        0
 64
     7
 65
   257
 75
     1
175
     1
 42
1.0
 92
        0
 66
     7
 43
1.0
 76
     1
 77
     6
 78
     2
 67
     7
 79
     5
170
     0
171
     0
290
     0
174
     0
 93
       13
 44
0.0
173
     0
291
     1
 45
0.0
1001
ACAD
1000
AcDbSavedByObjectVersion
1070
     0
  0
VISUALSTYLE
  5
EFE
102
{ACAD_REACTORS
330
EFA
102
}
102
{ACAD_XDICTIONARY
360
F26
102
}
330
EFA
100
AcDbVisualStyle
  2
GouraudWithEdges
 70
     3
 71
     2
 72
     2
 73
     1
 90
        2
 40
0.6
 41
30.0
 62
     5
 63
     7
421
 16777215
 74
     1
 91
        0
 64
     7
 65
   257
 75
     1
175
     1
 42
1.0
 92
        0
 66
   257
 43
1.0
 76
     1
 77
     6
 78
     2
 67
     7
 79
     5
170
     0
171
     0
290
     0
174
     0
 93
       13
 44
0.0
173
     0
291
     1
 45
0.0
1001
ACAD
1000
AcDbSavedByObjectVersion
1070
     0
  0
VISUALSTYLE
  5
F01
102
{ACAD_REACTORS
330
EFA
102
}
102
{ACAD_XDICTIONARY
360
F2C
102
}
330
EFA
100
AcDbVisualStyle
  2
Hidden
 70
     6
 71
     1
 72
     2
 73
     2
 90
        0
 40
0.6
 41
30.0
 62
     5
 63
     7
421
 16777215
 74
     2
 91
        2
 64
     7
 65
   257
 75
     2
175
     1
 42
40.0
 92
        0
 66
   257
 43
1.0
 76
     1
 77
     6
 78
     2
 67
     7
 79
     3
170
     0
171
     0
290
     0
174
     0
 93
        1
 44
0.0
173
     0
291
     0
 45
0.0
1001
ACAD
1000
AcDbSavedByObjectVersion
1070
     0
  0
VISUALSTYLE
  5
F0B
102
{ACAD_REACTORS
330
EFA
102
}
102
{ACAD_XDICTIONARY
360
F40
102
}
330
EFA
100
AcDbVisualStyle
  2
JitterOff
 70
    20
 71
     2
 72
     2
 73
     0
 90
        0
 40
0.6
 41
30.0
 62
     5
 63
     7
421
 16777215
 74
     1
 91
        4
 64
     7
 65
   257
 75
     1
175
     1
 42
1.0
 92
       10
 66
     7
 43
1.0
 76
     1
 77
     6
 78
     2
 67
     7
 79
     5
170
     0
171
     0
290
     0
174
     0
 93
        1
 44
0.0
173
     0
291
     1
 45
0.0
1001
ACAD
1000
AcDbSavedByObjectVersion
1070
     0
  0
VISUALSTYLE
  5
F08
102
{ACAD_REACTORS
330
EFA
102
}
102
{ACAD_XDICTIONARY
360
F3A
102
}
330
EFA
100
AcDbVisualStyle
  2
Linepattern
 70
    14
 71
     2
 72
     2
 73
     0
 90
        0
 40
0.6
 41
30.0
 62
     5
 63
     7
421
 16777215
 74
     1
 91
        4
 64
     7
 65
   257
 75
     7
175
     7
 42
1.0
 92
        8
 66
     7
 43
1.0
 76
     1
 77
     6
 78
     2
 67
     7
 79
     5
170
     0
171
     0
290
     0
174
     0
 93
        1
 44
0.0
173
     0
291
     1
 45
0.0
1001
ACAD
1000
AcDbSavedByObjectVersion
1070
     0
  0
VISUALSTYLE
  5
F0C
102
{ACAD_REACTORS
330
EFA
102
}
102
{ACAD_XDICTIONARY
360
F42
102
}
330
EFA
100
AcDbVisualStyle
  2
OverhangOff
 70
    21
 71
     2
 72
     2
 73
     0
 90
        0
 40
0.6
 41
30.0
 62
     5
 63
     7
421
 16777215
 74
     1
 91
        4
 64
     7
 65
   257
 75
     1
175
     1
 42
1.0
 92
        9
 66
     7
 43
1.0
 76
     1
 77
     6
 78
     2
 67
     7
 79
     5
170
     0
171
     0
290
     0
174
     0
 93
        1
 44
0.0
173
     0
291
     1
 45
0.0
1001
ACAD
1000
AcDbSavedByObjectVersion
1070
     0
  0
VISUALSTYLE
  5
F03
102
{ACAD_REACTORS
330
EFA
102
}
102
{ACAD_XDICTIONARY
360
F30
102
}
330
EFA
100
AcDbVisualStyle
  2
Realistic
 70
     8
 71
     2
 72
     3
 73
     0
 90
        2
 40
0.6
 41
30.0
 62
     5
 63
     7
421
 16777215
 74
     0
 91
        0
 64
     7
 65
   257
 75
     1
175
     1
 42
1.0
 92
        8
 66
   257
 43
1.0
 76
     1
 77
     6
 78
     2
 67
     7
 79
     3
170
     0
171
     0
290
     0
174
     0
 93
       13
 44
0.0
173
     0
291
     0
 45
0.0
1001
ACAD
1000
AcDbSavedByObjectVersion
1070
     0
  0
VISUALSTYLE
  5
F12
102
{ACAD_REACTORS
330
EFA
102
}
102
{ACAD_XDICTIONARY
360
F4E
102
}
330
EFA
100
AcDbVisualStyle
  2
Shaded
 70
    27
 71
     2
 72
     2
 73
     1
 90
        2
 40
0.6
 41
30.0
 62
     5
 63
     7
421
 16777215
 74
     0
 91
        4
 64
     7
 65
   257
 75
     1
175
     1
 42
1.0
 92
        8
 66
   257
 43
1.0
 76
     1
 77
     6
 78
     2
 67
     8
425
  7895160
 79
     3
170
     0
171
     0
290
     0
174
     0
 93
        5
 44
0.0
173
     0
291
     0
 45
0.0
1001
ACAD
1000
AcDbSavedByObjectVersion
1070
     0
  0
VISUALSTYLE
  5
F11
102
{ACAD_REACTORS
330
EFA
102
}
102
{ACAD_XDICTIONARY
360
F4C
102
}
330
EFA
100
AcDbVisualStyle
  2
Shaded with edges
 70
    26
 71
     2
 72
     2
 73
     1
 90
        2
 40
0.6
 41
30.0
 62
     5
 63
     7
421
 16777215
 74
     1
 91
       10
 64
     7
 65
   257
 75
     2
175
     1
 42
1.0
 92
        8
 66
   257
 43
1.0
 76
     1
 77
     6
 78
     2
 67
     7
 79
     3
170
     0
171
     0
290
     0
174
     0
 93
        5
 44
0.0
173
     0
291
     0
 45
0.0
1001
ACAD
1000
AcDbSavedByObjectVersion
1070
     0
  0
VISUALSTYLE
  5
F0E
102
{ACAD_REACTORS
330
EFA
102
}
102
{ACAD_XDICTIONARY
360
F46
102
}
330
EFA
100
AcDbVisualStyle
  2
Shades of Gray
 70
    23
 71
     2
 72
     2
 73
     3
 90
        0
 40
0.6
 41
30.0
 62
     5
 63
     7
421
 16777215
 74
     2
 91
        2
 64
     7
 65
     7
 75
     1
175
     1
 42
40.0
 92
        8
 66
     7
 43
1.0
 76
     1
 77
     6
 78
     2
 67
     7
 79
     3
170
     0
171
     0
290
     0
174
     0
 93
        1
 44
0.0
173
     0
291
     0
 45
0.0
1001
ACAD
1000
AcDbSavedByObjectVersion
1070
     0
  0
VISUALSTYLE
  5
F0F
102
{ACAD_REACTORS
330
EFA
102
}
102
{ACAD_XDICTIONARY
360
F48
102
}
330
EFA
100
AcDbVisualStyle
  2
Sketchy
 70
    24
 71
     1
 72
     2
 73
     2
 90
        0
 40
0.6
 41
30.0
 62
     5
 63
     7
421
 16777215
 74
     2
 91
        2
 64
     7
 65
     7
 75
     1
175
     1
 42
40.0
 92
       11
 66
     7
 43
1.0
 76
     1
 77
     6
 78
     2
 67
     7
 79
     6
170
     0
171
     0
290
     0
174
     0
 93
        1
 44
0.0
173
     0
291
     0
 45
0.0
1001
ACAD
1000
AcDbSavedByObjectVersion
1070
     0
  0
VISUALSTYLE
  5
F07
102
{ACAD_REACTORS
330
EFA
102
}
102
{ACAD_XDICTIONARY
360
F38
102
}
330
EFA
100
AcDbVisualStyle
  2
Thicken
 70
    13
 71
     2
 72
     2
 73
     0
 90
        0
 40
0.6
 41
30.0
 62
     5
 63
     7
421
 16777215
 74
     1
 91
        4
 64
     7
 65
   257
 75
     1
175
     1
 42
1.0
 92
       12
 66
     7
 43
1.0
 76
     1
 77
     6
 78
     2
 67
     7
 79
     5
170
     0
171
     0
290
     0
174
     0
 93
        1
 44
0.0
173
     0
291
     1
 45
0.0
1001
ACAD
1000
AcDbSavedByObjectVersion
1070
     0
  0
VISUALSTYLE
  5
F00
102
{ACAD_REACTORS
330
EFA
102
}
102
{ACAD_XDICTIONARY
360
F2A
102
}
330
EFA
100
AcDbVisualStyle
  2
Wireframe
 70
     5
 71
     0
 72
     2
 73
     0
 90
        0
 40
0.6
 41
30.0
 62
     5
 63
     7
421
 16777215
 74
     1
 91
        4
 64
     7
 65
   257
 75
     1
175
     1
 42
1.0
 92
        0
 66
   257
 43
1.0
 76
     1
 77
     6
 78
     2
 67
     7
 79
     3
170
     0
171
     0
290
     0
174
     0
 93
        1
 44
0.0
173
     0
291
     0
 45
0.0
1001
ACAD
1000
AcDbSavedByObjectVersion
1070
     0
  0
VISUALSTYLE
  5
F10
102
{ACAD_REACTORS
330
EFA
102
}
102
{ACAD_XDICTIONARY
360
F4A
102
}
330
EFA
100
AcDbVisualStyle
  2
X-Ray
 70
    25
 71
     2
 72
     2
 73
     1
 90
        1
 40
0.5
 41
30.0
 62
     5
 63
     7
421
 16777215
 74
     1
 91
        0
 64
     7
 65
   257
 75
     1
175
     1
 42
1.0
 92
        8
 66
     7
 43
1.0
 76
     1
 77
     6
 78
     2
 67
     7
 79
     3
170
     0
171
     0
290
     0
174
     0
 93
       13
 44
0.0
173
     0
291
     0
 45
0.0
1001
ACAD
1000
AcDbSavedByObjectVersion
1070
     0
  0
DICTIONARYVAR
  5
F1E
102
{ACAD_REACTORS
330
F1D
102
}
330
F1D
100
DictionaryVariables
280
     0
  1
1:1
  0
DICTIONARYVAR
  5
F5E
102
{ACAD_REACTORS
330
F1D
102
}
330
F1D
100
DictionaryVariables
280
     0
  1
Standard
  0
DICTIONARYVAR
  5
F5D
102
{ACAD_REACTORS
330
F1D
102
}
330
F1D
100
DictionaryVariables
280
     0
  1
Standard
  0
DICTIONARYVAR
  5
F5F
102
{ACAD_REACTORS
330
F1D
102
}
330
F1D
100
DictionaryVariables
280
     0
  1
0
  0
DICTIONARYVAR
  5
F1F
102
{ACAD_REACTORS
330
F1D
102
}
330
F1D
100
DictionaryVariables
280
     0
  1
2
  0
DICTIONARY
  5
F52
330
F15
100
AcDbDictionary
280
     1
281
     1
  3
ACAD_XREC_ROUNDTRIP
360
F53
  0
DICTIONARY
  5
F50
330
F14
100
AcDbDictionary
280
     1
281
     1
  3
ACAD_XREC_ROUNDTRIP
360
F51
  0
DICTIONARY
  5
F54
330
F16
100
AcDbDictionary
280
     1
281
     1
  3
ACAD_XREC_ROUNDTRIP
360
F55
  0
DICTIONARY
  5
F5A
330
F1A
100
AcDbDictionary
280
     1
281
     1
  3
ACAD_XREC_ROUNDTRIP
360
F5B
  0
DICTIONARY
  5
F56
330
F18
100
AcDbDictionary
280
     1
281
     1
  3
ACAD_ROUNDTRIP_2008_TABLESTYLE_CELLSTYLEMAP
360
F58
  3
ACAD_XREC_ROUNDTRIP
360
F57
  0
DICTIONARY
  5
F28
330
EFF
100
AcDbDictionary
280
     1
281
     1
  3
ACAD_XREC_ROUNDTRIP
360
F29
  0
DICTIONARY
  5
F2E
330
F02
100
AcDbDictionary
280
     1
281
     1
  3
ACAD_XREC_ROUNDTRIP
360
F2F
  0
DICTIONARY
  5
F36
330
F06
100
AcDbDictionary
280
     1
281
     1
  3
ACAD_XREC_ROUNDTRIP
360
F37
  0
DICTIONARY
  5
F3E
330
F0A
100
AcDbDictionary
280
     1
281
     1
  3
ACAD_XREC_ROUNDTRIP
360
F3F
  0
DICTIONARY
  5
F32
330
F04
100
AcDbDictionary
280
     1
281
     1
  3
ACAD_XREC_ROUNDTRIP
360
F33
  0
DICTIONARY
  5
F34
330
F05
100
AcDbDictionary
280
     1
281
     1
  3
ACAD_XREC_ROUNDTRIP
360
F35
  0
DICTIONARY
  5
F44
330
F0D
100
AcDbDictionary
280
     1
281
     1
  3
ACAD_XREC_ROUNDTRIP
360
F45
  0
DICTIONARY
  5
F3C
330
F09
100
AcDbDictionary
280
     1
281
     1
  3
ACAD_XREC_ROUNDTRIP
360
F3D
  0
DICTIONARY
  5
F20
330
EFB
100
AcDbDictionary
280
     1
281
     1
  3
ACAD_XREC_ROUNDTRIP
360
F21
  0
DICTIONARY
  5
F22
330
EFC
100
AcDbDictionary
280
     1
281
     1
  3
ACAD_XREC_ROUNDTRIP
360
F23
  0
DICTIONARY
  5
F24
330
EFD
100
AcDbDictionary
280
     1
281
     1
  3
ACAD_XREC_ROUNDTRIP
360
F25
  0
DICTIONARY
  5
F26
330
EFE
100
AcDbDictionary
280
     1
281
     1
  3
ACAD_XREC_ROUNDTRIP
360
F27
  0
DICTIONARY
  5
F2C
330
F01
100
AcDbDictionary
280
     1
281
     1
  3
ACAD_XREC_ROUNDTRIP
360
F2D
  0
DICTIONARY
  5
F40
330
F0B
100
AcDbDictionary
280
     1
281
     1
  3
ACAD_XREC_ROUNDTRIP
360
F41
  0
DICTIONARY
  5
F3A
330
F08
100
AcDbDictionary
280
     1
281
     1
  3
ACAD_XREC_ROUNDTRIP
360
F3B
  0
DICTIONARY
  5
F42
330
F0C
100
AcDbDictionary
280
     1
281
     1
  3
ACAD_XREC_ROUNDTRIP
360
F43
  0
DICTIONARY
  5
F30
330
F03
100
AcDbDictionary
280
     1
281
     1
  3
ACAD_XREC_ROUNDTRIP
360
F31
  0
DICTIONARY
  5
F4E
330
F12
100
AcDbDictionary
280
     1
281
     1
  3
ACAD_XREC_ROUNDTRIP
360
F4F
  0
DICTIONARY
  5
F4C
330
F11
100
AcDbDictionary
280
     1
281
     1
  3
ACAD_XREC_ROUNDTRIP
360
F4D
  0
DICTIONARY
  5
F46
330
F0E
100
AcDbDictionary
280
     1
281
     1
  3
ACAD_XREC_ROUNDTRIP
360
F47
  0
DICTIONARY
  5
F48
330
F0F
100
AcDbDictionary
280
     1
281
     1
  3
ACAD_XREC_ROUNDTRIP
360
F49
  0
DICTIONARY
  5
F38
330
F07
100
AcDbDictionary
280
     1
281
     1
  3
ACAD_XREC_ROUNDTRIP
360
F39
  0
DICTIONARY
  5
F2A
330
F00
100
AcDbDictionary
280
     1
281
     1
  3
ACAD_XREC_ROUNDTRIP
360
F2B
  0
DICTIONARY
  5
F4A
330
F10
100
AcDbDictionary
280
     1
281
     1
  3
ACAD_XREC_ROUNDTRIP
360
F4B
  0
XRECORD
  5
F53
102
{ACAD_REACTORS
330
F52
102
}
330
F52
100
AcDbXrecord
280
     1
102
MATERIAL
148
0.0
149
0.0
149
0.0
 93
        0
 94
      127
282
     0
 72
     1
 77
     1
171
     1
175
     1
179
     1
273
     0
  0
XRECORD
  5
F51
102
{ACAD_REACTORS
330
F50
102
}
330
F50
100
AcDbXrecord
280
     1
102
MATERIAL
148
0.0
149
0.0
149
0.0
 93
        0
 94
      127
282
     0
 72
     1
 77
     1
171
     1
175
     1
179
     1
273
     0
  0
XRECORD
  5
F55
102
{ACAD_REACTORS
330
F54
102
}
330
F54
100
AcDbXrecord
280
     1
102
MATERIAL
148
0.0
149
0.0
149
0.0
 93
        0
 94
      127
282
     0
 72
     1
 77
     1
171
     1
175
     1
179
     1
273
     0
  0
XRECORD
  5
F5B
102
{ACAD_REACTORS
330
F5A
102
}
330
F5A
100
AcDbXrecord
280
     1
102
ACAD_ROUNDTRIP_2010_MLEADER_STYLE
  0
CELLSTYLEMAP
  5
F58
102
{ACAD_REACTORS
330
F56
102
}
330
F56
100
AcDbCellStyleMap
 90
        3
300
CELLSTYLE
  1
TABLEFORMAT_BEGIN
 90
        5
170
     1
 91
        0
 92
    32768
 62
   257
 93
        1
300
CONTENTFORMAT
  1
CONTENTFORMAT_BEGIN
 90
        0
 91
        0
 92
        4
 93
        0
300

 40
0.0
140
1.0
 94
        5
 62
     0
340
11
144
0.25
309
CONTENTFORMAT_END
171
     1
301
MARGIN
  1
CELLMARGIN_BEGIN
 40
0.06
 40
0.06
 40
0.06
 40
0.06
 40
0.06
 40
0.06
309
CELLMARGIN_END
 94
        6
 95
        1
302
GRIDFORMAT
  1
GRIDFORMAT_BEGIN
 90
        0
 91
        1
 62
     0
 92
       -2
340
14
 93
        0
 40
0.045
309
GRIDFORMAT_END
 95
        2
302
GRIDFORMAT
  1
GRIDFORMAT_BEGIN
 90
        0
 91
        1
 62
     0
 92
       -2
340
14
 93
        0
 40
0.045
309
GRIDFORMAT_END
 95
        4
302
GRIDFORMAT
  1
GRIDFORMAT_BEGIN
 90
        0
 91
        1
 62
     0
 92
       -2
340
14
 93
        0
 40
0.045
309
GRIDFORMAT_END
 95
        8
302
GRIDFORMAT
  1
GRIDFORMAT_BEGIN
 90
        0
 91
        1
 62
     0
 92
       -2
340
14
 93
        0
 40
0.045
309
GRIDFORMAT_END
 95
       16
302
GRIDFORMAT
  1
GRIDFORMAT_BEGIN
 90
        0
 91
        1
 62
     0
 92
       -2
340
14
 93
        0
 40
0.045
309
GRIDFORMAT_END
 95
       32
302
GRIDFORMAT
  1
GRIDFORMAT_BEGIN
 90
        0
 91
        1
 62
     0
 92
       -2
340
14
 93
        0
 40
0.045
309
GRIDFORMAT_END
309
TABLEFORMAT_END
  1
CELLSTYLE_BEGIN
 90
        1
 91
        1
300
_TITLE
309
CELLSTYLE_END
300
CELLSTYLE
  1
TABLEFORMAT_BEGIN
 90
        5
170
     1
 91
        0
 92
        0
 62
   257
 93
        1
300
CONTENTFORMAT
  1
CONTENTFORMAT_BEGIN
 90
        0
 91
        0
 92
        4
 93
        0
300

 40
0.0
140
1.0
 94
        5
 62
     0
340
11
144
0.18
309
CONTENTFORMAT_END
171
     1
301
MARGIN
  1
CELLMARGIN_BEGIN
 40
0.06
 40
0.06
 40
0.06
 40
0.06
 40
0.06
 40
0.06
309
CELLMARGIN_END
 94
        6
 95
        1
302
GRIDFORMAT
  1
GRIDFORMAT_BEGIN
 90
        0
 91
        1
 62
     0
 92
       -2
340
14
 93
        0
 40
0.045
309
GRIDFORMAT_END
 95
        2
302
GRIDFORMAT
  1
GRIDFORMAT_BEGIN
 90
        0
 91
        1
 62
     0
 92
       -2
340
14
 93
        0
 40
0.045
309
GRIDFORMAT_END
 95
        4
302
GRIDFORMAT
  1
GRIDFORMAT_BEGIN
 90
        0
 91
        1
 62
     0
 92
       -2
340
14
 93
        0
 40
0.045
309
GRIDFORMAT_END
 95
        8
302
GRIDFORMAT
  1
GRIDFORMAT_BEGIN
 90
        0
 91
        1
 62
     0
 92
       -2
340
14
 93
        0
 40
0.045
309
GRIDFORMAT_END
 95
       16
302
GRIDFORMAT
  1
GRIDFORMAT_BEGIN
 90
        0
 91
        1
 62
     0
 92
       -2
340
14
 93
        0
 40
0.045
309
GRIDFORMAT_END
 95
       32
302
GRIDFORMAT
  1
GRIDFORMAT_BEGIN
 90
        0
 91
        1
 62
     0
 92
       -2
340
14
 93
        0
 40
0.045
309
GRIDFORMAT_END
309
TABLEFORMAT_END
  1
CELLSTYLE_BEGIN
 90
        2
 91
        1
300
_HEADER
309
CELLSTYLE_END
300
CELLSTYLE
  1
TABLEFORMAT_BEGIN
 90
        5
170
     1
 91
        0
 92
        0
 62
   257
 93
        1
300
CONTENTFORMAT
  1
CONTENTFORMAT_BEGIN
 90
        0
 91
        0
 92
        4
 93
        0
300

 40
0.0
140
1.0
 94
        2
 62
     0
340
11
144
0.18
309
CONTENTFORMAT_END
171
     1
301
MARGIN
  1
CELLMARGIN_BEGIN
 40
0.06
 40
0.06
 40
0.06
 40
0.06
 40
0.06
 40
0.06
309
CELLMARGIN_END
 94
        6
 95
        1
302
GRIDFORMAT
  1
GRIDFORMAT_BEGIN
 90
        0
 91
        1
 62
     0
 92
       -2
340
14
 93
        0
 40
0.045
309
GRIDFORMAT_END
 95
        2
302
GRIDFORMAT
  1
GRIDFORMAT_BEGIN
 90
        0
 91
        1
 62
     0
 92
       -2
340
14
 93
        0
 40
0.045
309
GRIDFORMAT_END
 95
        4
302
GRIDFORMAT
  1
GRIDFORMAT_BEGIN
 90
        0
 91
        1
 62
     0
 92
       -2
340
14
 93
        0
 40
0.045
309
GRIDFORMAT_END
 95
        8
302
GRIDFORMAT
  1
GRIDFORMAT_BEGIN
 90
        0
 91
        1
 62
     0
 92
       -2
340
14
 93
        0
 40
0.045
309
GRIDFORMAT_END
 95
       16
302
GRIDFORMAT
  1
GRIDFORMAT_BEGIN
 90
        0
 91
        1
 62
     0
 92
       -2
340
14
 93
        0
 40
0.045
309
GRIDFORMAT_END
 95
       32
302
GRIDFORMAT
  1
GRIDFORMAT_BEGIN
 90
        0
 91
        1
 62
     0
 92
       -2
340
14
 93
        0
 40
0.045
309
GRIDFORMAT_END
309
TABLEFORMAT_END
  1
CELLSTYLE_BEGIN
 90
        3
 91
        2
300
_DATA
309
CELLSTYLE_END
  0
XRECORD
  5
F57
102
{ACAD_REACTORS
330
F56
102
}
330
F56
100
AcDbXrecord
280
     1
102
ACAD_ROUNDTRIP_PRE2007_TABLESTYLE
 90
        4
 91
        0
  1

 92
        4
 93
        0
  2

 94
        4
 95
        0
  3

  0
XRECORD
  5
F29
102
{ACAD_REACTORS
330
F28
102
}
330
F28
100
AcDbXrecord
280
     1
102
RTVSPropertyOp0
 70
     1
102
RTVSPropertyOp1
 70
     1
102
RTVSPropertyOp2
 70
     1
102
RTVSPropertyOp3
 70
     1
102
RTVSPropertyOp4
 70
     1
102
RTVSPropertyOp5
 70
     1
102
RTVSPropertyOp6
 70
     1
102
RTVSPropertyOp7
 70
     1
102
RTVSPropertyOp8
 70
     1
102
RTVSPropertyOp9
 70
     1
102
RTVSPropertyOp10
 70
     1
102
RTVSPropertyOp11
 70
     1
102
RTVSPropertyOp12
 70
     1
102
RTVSPropertyOp13
 70
     1
102
RTVSPropertyOp14
 70
     1
102
RTVSPropertyOp15
 70
     1
102
RTVSPropertyOp16
 70
     1
102
RTVSPropertyOp17
 70
     1
102
RTVSPropertyOp18
 70
     1
102
RTVSPropertyOp19
 70
     1
102
RTVSPropertyOp20
 70
     1
102
RTVSPropertyOp21
 70
     1
102
RTVSPropertyOp22
 70
     1
102
RTVSPropertyOp23
 70
     1
102
RTVSPropertyOp24
 70
     1
102
RTVSPropertyOp25
 70
     1
102
RTVSPropertyOp26
 70
     1
102
RTVSPropertyOp27
 70
     1
102
RTVSPropertyOp28
 70
     1
102
RTVSPropertyOp29
 70
     1
102
RTVSPropertyOp30
 70
     1
102
RTVSPropertyOp31
 70
     1
102
RTVSPropertyOp32
 70
     1
102
RTVSPropertyOp33
 70
     1
102
RTVSPropertyOp34
 70
     1
102
RTVSPropertyOp35
 70
     1
102
RTVSPropertyOp36
 70
     1
102
RTVSPropertyOp37
 70
     1
102
RTVSPropertyOp38
 70
     1
102
RTVSPropertyOp39
 70
     1
102
RTVSPropertyOp40
 70
     1
102
RTVSPropertyOp41
 70
     1
102
RTVSPropertyOp42
 70
     1
102
RTVSPropertyOp43
 70
     1
102
RTVSPropertyOp44
 70
     1
102
RTVSPropertyOp45
 70
     1
102
RTVSPropertyOp46
 70
     1
102
RTVSPropertyOp47
 70
     1
102
RTVSPropertyOp48
 70
     1
102
RTVSPropertyOp49
 70
     1
102
RTVSPropertyOp50
 70
     1
102
RTVSPropertyOp51
 70
     0
102
RTVSPropertyOp52
 70
     0
102
RTVSPropertyOp53
 70
     1
102
RTVSPropertyOp54
 70
     1
102
RTVSPropertyOp55
 70
     1
102
RTVSPropertyOp56
 70
     1
102
RTVSPropertyOp57
 70
     1
102
RTVSPost2010Prop28
280
     1
102
RTVSPost2010PropOp28
 70
     1
102
RTVSPost2010Prop29
280
     1
102
RTVSPost2010PropOp29
 70
     1
102
RTVSPost2010Prop30
280
     0
102
RTVSPost2010PropOp30
 70
     1
102
RTVSPost2010Prop31
280
     0
102
RTVSPost2010PropOp31
 70
     1
102
RTVSPost2010Prop32
280
     0
102
RTVSPost2010PropOp32
 70
     1
102
RTVSPost2010Prop33
280
     0
102
RTVSPost2010PropOp33
 70
     1
102
RTVSPost2010Prop34
280
     0
102
RTVSPost2010PropOp34
 70
     1
102
RTVSPost2010Prop35
280
     0
102
RTVSPost2010PropOp35
 70
     1
102
RTVSPost2010Prop36
280
     0
102
RTVSPost2010PropOp36
 70
     1
102
RTVSPost2010Prop37
 90
       50
102
RTVSPost2010PropOp37
 70
     1
102
RTVSPost2010Prop38
140
0.0
102
RTVSPost2010PropOp38
 70
     1
102
RTVSPost2010Prop39
140
1.0
102
RTVSPost2010PropOp39
 70
     1
102
RTVSPost2010Prop40
 90
        0
102
RTVSPost2010PropOp40
 70
     1
102
RTVSPost2010Prop41ColorIndex
 90
       18
102
RTVSPost2010Prop41ColorRGB
 90
        0
102
RTVSPost2010PropOp41
 70
     1
102
RTVSPost2010Prop42
 90
       50
102
RTVSPost2010PropOp42
 70
     1
102
RTVSPost2010Prop43
 90
        3
102
RTVSPost2010PropOp43
 70
     1
102
RTVSPost2010Prop44ColorIndex
 90
        5
102
RTVSPost2010Prop44ColorRGB
 90
      255
102
RTVSPost2010PropOp44
 70
     1
102
RTVSPost2010Prop45
280
     0
102
RTVSPost2010PropOp45
 70
     1
102
RTVSPost2010Prop46
 90
       50
102
RTVSPost2010PropOp46
 70
     1
102
RTVSPost2010Prop47
 90
       50
102
RTVSPost2010PropOp47
 70
     1
102
RTVSPost2010Prop48
 90
       50
102
RTVSPost2010PropOp48
 70
     1
102
RTVSPost2010Prop49
280
     0
102
RTVSPost2010PropOp49
 70
     1
102
RTVSPost2010Prop50
 90
       50
102
RTVSPost2010PropOp50
 70
     1
102
RTVSPost2010Prop51ColorIndex
 90
      256
102
RTVSPost2010Prop51ColorRGB
 90
-16777216
102
RTVSPost2010PropOp51
 70
     0
102
RTVSPost2010Prop52
140
1.0
102
RTVSPost2010PropOp52
 70
     0
102
RTVSPost2010Prop53
 90
        2
102
RTVSPost2010PropOp53
 70
     1
102
RTVSPost2010Prop54
  1
strokes_ogs.tif
102
RTVSPost2010PropOp54
 70
     1
102
RTVSPost2010Prop55
280
     0
102
RTVSPost2010PropOp55
 70
     1
102
RTVSPost2010Prop56
140
1.0
102
RTVSPost2010PropOp56
 70
     1
102
RTVSPost2010Prop57
140
1.0
102
RTVSPost2010PropOp57
 70
     1
  0
XRECORD
  5
F2F
102
{ACAD_REACTORS
330
F2E
102
}
330
F2E
100
AcDbXrecord
280
     1
102
RTVSPropertyOp0
 70
     1
102
RTVSPropertyOp1
 70
     1
102
RTVSPropertyOp2
 70
     1
102
RTVSPropertyOp3
 70
     1
102
RTVSPropertyOp4
 70
     1
102
RTVSPropertyOp5
 70
     1
102
RTVSPropertyOp6
 70
     1
102
RTVSPropertyOp7
 70
     1
102
RTVSPropertyOp8
 70
     1
102
RTVSPropertyOp9
 70
     1
102
RTVSPropertyOp10
 70
     1
102
RTVSPropertyOp11
 70
     1
102
RTVSPropertyOp12
 70
     1
102
RTVSPropertyOp13
 70
     1
102
RTVSPropertyOp14
 70
     1
102
RTVSPropertyOp15
 70
     1
102
RTVSPropertyOp16
 70
     1
102
RTVSPropertyOp17
 70
     1
102
RTVSPropertyOp18
 70
     1
102
RTVSPropertyOp19
 70
     1
102
RTVSPropertyOp20
 70
     1
102
RTVSPropertyOp21
 70
     1
102
RTVSPropertyOp22
 70
     1
102
RTVSPropertyOp23
 70
     1
102
RTVSPropertyOp24
 70
     1
102
RTVSPropertyOp25
 70
     1
102
RTVSPropertyOp26
 70
     1
102
RTVSPropertyOp27
 70
     1
102
RTVSPropertyOp28
 70
     1
102
RTVSPropertyOp29
 70
     1
102
RTVSPropertyOp30
 70
     1
102
RTVSPropertyOp31
 70
     1
102
RTVSPropertyOp32
 70
     1
102
RTVSPropertyOp33
 70
     1
102
RTVSPropertyOp34
 70
     1
102
RTVSPropertyOp35
 70
     1
102
RTVSPropertyOp36
 70
     1
102
RTVSPropertyOp37
 70
     1
102
RTVSPropertyOp38
 70
     1
102
RTVSPropertyOp39
 70
     1
102
RTVSPropertyOp40
 70
     1
102
RTVSPropertyOp41
 70
     1
102
RTVSPropertyOp42
 70
     1
102
RTVSPropertyOp43
 70
     1
102
RTVSPropertyOp44
 70
     1
102
RTVSPropertyOp45
 70
     1
102
RTVSPropertyOp46
 70
     1
102
RTVSPropertyOp47
 70
     1
102
RTVSPropertyOp48
 70
     1
102
RTVSPropertyOp49
 70
     1
102
RTVSPropertyOp50
 70
     1
102
RTVSPropertyOp51
 70
     0
102
RTVSPropertyOp52
 70
     0
102
RTVSPropertyOp53
 70
     1
102
RTVSPropertyOp54
 70
     1
102
RTVSPropertyOp55
 70
     1
102
RTVSPropertyOp56
 70
     1
102
RTVSPropertyOp57
 70
     1
102
RTVSPost2010Prop28
280
     0
102
RTVSPost2010PropOp28
 70
     1
102
RTVSPost2010Prop29
280
     1
102
RTVSPost2010PropOp29
 70
     1
102
RTVSPost2010Prop30
280
     1
102
RTVSPost2010PropOp30
 70
     1
102
RTVSPost2010Prop31
280
     0
102
RTVSPost2010PropOp31
 70
     1
102
RTVSPost2010Prop32
280
     0
102
RTVSPost2010PropOp32
 70
     1
102
RTVSPost2010Prop33
280
     0
102
RTVSPost2010PropOp33
 70
     1
102
RTVSPost2010Prop34
280
     0
102
RTVSPost2010PropOp34
 70
     1
102
RTVSPost2010Prop35
280
     0
102
RTVSPost2010PropOp35
 70
     1
102
RTVSPost2010Prop36
280
     0
102
RTVSPost2010PropOp36
 70
     1
102
RTVSPost2010Prop37
 90
       50
102
RTVSPost2010PropOp37
 70
     1
102
RTVSPost2010Prop38
140
0.0
102
RTVSPost2010PropOp38
 70
     1
102
RTVSPost2010Prop39
140
1.0
102
RTVSPost2010PropOp39
 70
     1
102
RTVSPost2010Prop40
 90
        0
102
RTVSPost2010PropOp40
 70
     1
102
RTVSPost2010Prop41ColorIndex
 90
       18
102
RTVSPost2010Prop41ColorRGB
 90
        0
102
RTVSPost2010PropOp41
 70
     1
102
RTVSPost2010Prop42
 90
       50
102
RTVSPost2010PropOp42
 70
     1
102
RTVSPost2010Prop43
 90
        3
102
RTVSPost2010PropOp43
 70
     1
102
RTVSPost2010Prop44ColorIndex
 90
        5
102
RTVSPost2010Prop44ColorRGB
 90
      255
102
RTVSPost2010PropOp44
 70
     1
102
RTVSPost2010Prop45
280
     0
102
RTVSPost2010PropOp45
 70
     1
102
RTVSPost2010Prop46
 90
       50
102
RTVSPost2010PropOp46
 70
     1
102
RTVSPost2010Prop47
 90
       50
102
RTVSPost2010PropOp47
 70
     1
102
RTVSPost2010Prop48
 90
       50
102
RTVSPost2010PropOp48
 70
     1
102
RTVSPost2010Prop49
280
     0
102
RTVSPost2010PropOp49
 70
     1
102
RTVSPost2010Prop50
 90
       50
102
RTVSPost2010PropOp50
 70
     1
102
RTVSPost2010Prop51ColorIndex
 90
      256
102
RTVSPost2010Prop51ColorRGB
 90
-16777216
102
RTVSPost2010PropOp51
 70
     0
102
RTVSPost2010Prop52
140
1.0
102
RTVSPost2010PropOp52
 70
     0
102
RTVSPost2010Prop53
 90
        2
102
RTVSPost2010PropOp53
 70
     1
102
RTVSPost2010Prop54
  1
strokes_ogs.tif
102
RTVSPost2010PropOp54
 70
     1
102
RTVSPost2010Prop55
280
     0
102
RTVSPost2010PropOp55
 70
     1
102
RTVSPost2010Prop56
140
1.0
102
RTVSPost2010PropOp56
 70
     1
102
RTVSPost2010Prop57
140
1.0
102
RTVSPost2010PropOp57
 70
     1
  0
XRECORD
  5
F37
102
{ACAD_REACTORS
330
F36
102
}
330
F36
100
AcDbXrecord
280
     1
102
RTVSPropertyOp0
 70
     1
102
RTVSPropertyOp1
 70
     1
102
RTVSPropertyOp2
 70
     1
102
RTVSPropertyOp3
 70
     1
102
RTVSPropertyOp4
 70
     1
102
RTVSPropertyOp5
 70
     1
102
RTVSPropertyOp6
 70
     1
102
RTVSPropertyOp7
 70
     1
102
RTVSPropertyOp8
 70
     1
102
RTVSPropertyOp9
 70
     1
102
RTVSPropertyOp10
 70
     1
102
RTVSPropertyOp11
 70
     1
102
RTVSPropertyOp12
 70
     1
102
RTVSPropertyOp13
 70
     1
102
RTVSPropertyOp14
 70
     1
102
RTVSPropertyOp15
 70
     1
102
RTVSPropertyOp16
 70
     1
102
RTVSPropertyOp17
 70
     1
102
RTVSPropertyOp18
 70
     1
102
RTVSPropertyOp19
 70
     1
102
RTVSPropertyOp20
 70
     1
102
RTVSPropertyOp21
 70
     1
102
RTVSPropertyOp22
 70
     1
102
RTVSPropertyOp23
 70
     1
102
RTVSPropertyOp24
 70
     1
102
RTVSPropertyOp25
 70
     1
102
RTVSPropertyOp26
 70
     1
102
RTVSPropertyOp27
 70
     1
102
RTVSPropertyOp28
 70
     1
102
RTVSPropertyOp29
 70
     1
102
RTVSPropertyOp30
 70
     1
102
RTVSPropertyOp31
 70
     1
102
RTVSPropertyOp32
 70
     1
102
RTVSPropertyOp33
 70
     1
102
RTVSPropertyOp34
 70
     1
102
RTVSPropertyOp35
 70
     1
102
RTVSPropertyOp36
 70
     1
102
RTVSPropertyOp37
 70
     1
102
RTVSPropertyOp38
 70
     1
102
RTVSPropertyOp39
 70
     1
102
RTVSPropertyOp40
 70
     1
102
RTVSPropertyOp41
 70
     1
102
RTVSPropertyOp42
 70
     1
102
RTVSPropertyOp43
 70
     1
102
RTVSPropertyOp44
 70
     1
102
RTVSPropertyOp45
 70
     1
102
RTVSPropertyOp46
 70
     1
102
RTVSPropertyOp47
 70
     1
102
RTVSPropertyOp48
 70
     1
102
RTVSPropertyOp49
 70
     1
102
RTVSPropertyOp50
 70
     1
102
RTVSPropertyOp51
 70
     0
102
RTVSPropertyOp52
 70
     0
102
RTVSPropertyOp53
 70
     1
102
RTVSPropertyOp54
 70
     1
102
RTVSPropertyOp55
 70
     1
102
RTVSPropertyOp56
 70
     1
102
RTVSPropertyOp57
 70
     1
102
RTVSPost2010Prop28
280
     0
102
RTVSPost2010PropOp28
 70
     1
102
RTVSPost2010Prop29
280
     1
102
RTVSPost2010PropOp29
 70
     1
102
RTVSPost2010Prop30
280
     1
102
RTVSPost2010PropOp30
 70
     1
102
RTVSPost2010Prop31
280
     0
102
RTVSPost2010PropOp31
 70
     1
102
RTVSPost2010Prop32
280
     0
102
RTVSPost2010PropOp32
 70
     1
102
RTVSPost2010Prop33
280
     0
102
RTVSPost2010PropOp33
 70
     1
102
RTVSPost2010Prop34
280
     0
102
RTVSPost2010PropOp34
 70
     1
102
RTVSPost2010Prop35
280
     0
102
RTVSPost2010PropOp35
 70
     1
102
RTVSPost2010Prop36
280
     0
102
RTVSPost2010PropOp36
 70
     1
102
RTVSPost2010Prop37
 90
       50
102
RTVSPost2010PropOp37
 70
     1
102
RTVSPost2010Prop38
140
0.0
102
RTVSPost2010PropOp38
 70
     1
102
RTVSPost2010Prop39
140
1.0
102
RTVSPost2010PropOp39
 70
     1
102
RTVSPost2010Prop40
 90
        0
102
RTVSPost2010PropOp40
 70
     1
102
RTVSPost2010Prop41ColorIndex
 90
       18
102
RTVSPost2010Prop41ColorRGB
 90
        0
102
RTVSPost2010PropOp41
 70
     1
102
RTVSPost2010Prop42
 90
       50
102
RTVSPost2010PropOp42
 70
     1
102
RTVSPost2010Prop43
 90
        3
102
RTVSPost2010PropOp43
 70
     1
102
RTVSPost2010Prop44ColorIndex
 90
        5
102
RTVSPost2010Prop44ColorRGB
 90
      255
102
RTVSPost2010PropOp44
 70
     1
102
RTVSPost2010Prop45
280
     0
102
RTVSPost2010PropOp45
 70
     1
102
RTVSPost2010Prop46
 90
       50
102
RTVSPost2010PropOp46
 70
     1
102
RTVSPost2010Prop47
 90
       50
102
RTVSPost2010PropOp47
 70
     1
102
RTVSPost2010Prop48
 90
       50
102
RTVSPost2010PropOp48
 70
     1
102
RTVSPost2010Prop49
280
     0
102
RTVSPost2010PropOp49
 70
     1
102
RTVSPost2010Prop50
 90
       50
102
RTVSPost2010PropOp50
 70
     1
102
RTVSPost2010Prop51ColorIndex
 90
      256
102
RTVSPost2010Prop51ColorRGB
 90
-16777216
102
RTVSPost2010PropOp51
 70
     0
102
RTVSPost2010Prop52
140
1.0
102
RTVSPost2010PropOp52
 70
     0
102
RTVSPost2010Prop53
 90
        2
102
RTVSPost2010PropOp53
 70
     1
102
RTVSPost2010Prop54
  1
strokes_ogs.tif
102
RTVSPost2010PropOp54
 70
     1
102
RTVSPost2010Prop55
280
     0
102
RTVSPost2010PropOp55
 70
     1
102
RTVSPost2010Prop56
140
1.0
102
RTVSPost2010PropOp56
 70
     1
102
RTVSPost2010Prop57
140
1.0
102
RTVSPost2010PropOp57
 70
     1
  0
XRECORD
  5
F3F
102
{ACAD_REACTORS
330
F3E
102
}
330
F3E
100
AcDbXrecord
280
     1
102
RTVSPropertyOp0
 70
     1
102
RTVSPropertyOp1
 70
     1
102
RTVSPropertyOp2
 70
     1
102
RTVSPropertyOp3
 70
     1
102
RTVSPropertyOp4
 70
     1
102
RTVSPropertyOp5
 70
     1
102
RTVSPropertyOp6
 70
     1
102
RTVSPropertyOp7
 70
     1
102
RTVSPropertyOp8
 70
     1
102
RTVSPropertyOp9
 70
     1
102
RTVSPropertyOp10
 70
     1
102
RTVSPropertyOp11
 70
     1
102
RTVSPropertyOp12
 70
     1
102
RTVSPropertyOp13
 70
     1
102
RTVSPropertyOp14
 70
     1
102
RTVSPropertyOp15
 70
     1
102
RTVSPropertyOp16
 70
     1
102
RTVSPropertyOp17
 70
     1
102
RTVSPropertyOp18
 70
     1
102
RTVSPropertyOp19
 70
     1
102
RTVSPropertyOp20
 70
     1
102
RTVSPropertyOp21
 70
     1
102
RTVSPropertyOp22
 70
     1
102
RTVSPropertyOp23
 70
     1
102
RTVSPropertyOp24
 70
     1
102
RTVSPropertyOp25
 70
     1
102
RTVSPropertyOp26
 70
     1
102
RTVSPropertyOp27
 70
     1
102
RTVSPropertyOp28
 70
     1
102
RTVSPropertyOp29
 70
     1
102
RTVSPropertyOp30
 70
     1
102
RTVSPropertyOp31
 70
     1
102
RTVSPropertyOp32
 70
     1
102
RTVSPropertyOp33
 70
     1
102
RTVSPropertyOp34
 70
     1
102
RTVSPropertyOp35
 70
     1
102
RTVSPropertyOp36
 70
     1
102
RTVSPropertyOp37
 70
     1
102
RTVSPropertyOp38
 70
     1
102
RTVSPropertyOp39
 70
     1
102
RTVSPropertyOp40
 70
     1
102
RTVSPropertyOp41
 70
     1
102
RTVSPropertyOp42
 70
     1
102
RTVSPropertyOp43
 70
     1
102
RTVSPropertyOp44
 70
     1
102
RTVSPropertyOp45
 70
     1
102
RTVSPropertyOp46
 70
     1
102
RTVSPropertyOp47
 70
     1
102
RTVSPropertyOp48
 70
     1
102
RTVSPropertyOp49
 70
     1
102
RTVSPropertyOp50
 70
     1
102
RTVSPropertyOp51
 70
     0
102
RTVSPropertyOp52
 70
     0
102
RTVSPropertyOp53
 70
     1
102
RTVSPropertyOp54
 70
     1
102
RTVSPropertyOp55
 70
     1
102
RTVSPropertyOp56
 70
     1
102
RTVSPropertyOp57
 70
     1
102
RTVSPost2010Prop28
280
     0
102
RTVSPost2010PropOp28
 70
     1
102
RTVSPost2010Prop29
280
     1
102
RTVSPost2010PropOp29
 70
     1
102
RTVSPost2010Prop30
280
     1
102
RTVSPost2010PropOp30
 70
     1
102
RTVSPost2010Prop31
280
     0
102
RTVSPost2010PropOp31
 70
     1
102
RTVSPost2010Prop32
280
     0
102
RTVSPost2010PropOp32
 70
     1
102
RTVSPost2010Prop33
280
     0
102
RTVSPost2010PropOp33
 70
     1
102
RTVSPost2010Prop34
280
     0
102
RTVSPost2010PropOp34
 70
     1
102
RTVSPost2010Prop35
280
     0
102
RTVSPost2010PropOp35
 70
     1
102
RTVSPost2010Prop36
280
     0
102
RTVSPost2010PropOp36
 70
     1
102
RTVSPost2010Prop37
 90
       50
102
RTVSPost2010PropOp37
 70
     1
102
RTVSPost2010Prop38
140
0.0
102
RTVSPost2010PropOp38
 70
     1
102
RTVSPost2010Prop39
140
1.0
102
RTVSPost2010PropOp39
 70
     1
102
RTVSPost2010Prop40
 90
        0
102
RTVSPost2010PropOp40
 70
     1
102
RTVSPost2010Prop41ColorIndex
 90
       18
102
RTVSPost2010Prop41ColorRGB
 90
        0
102
RTVSPost2010PropOp41
 70
     1
102
RTVSPost2010Prop42
 90
       50
102
RTVSPost2010PropOp42
 70
     1
102
RTVSPost2010Prop43
 90
        3
102
RTVSPost2010PropOp43
 70
     1
102
RTVSPost2010Prop44ColorIndex
 90
        5
102
RTVSPost2010Prop44ColorRGB
 90
      255
102
RTVSPost2010PropOp44
 70
     1
102
RTVSPost2010Prop45
280
     0
102
RTVSPost2010PropOp45
 70
     1
102
RTVSPost2010Prop46
 90
       50
102
RTVSPost2010PropOp46
 70
     1
102
RTVSPost2010Prop47
 90
       50
102
RTVSPost2010PropOp47
 70
     1
102
RTVSPost2010Prop48
 90
       50
102
RTVSPost2010PropOp48
 70
     1
102
RTVSPost2010Prop49
280
     0
102
RTVSPost2010PropOp49
 70
     1
102
RTVSPost2010Prop50
 90
       50
102
RTVSPost2010PropOp50
 70
     1
102
RTVSPost2010Prop51ColorIndex
 90
      256
102
RTVSPost2010Prop51ColorRGB
 90
-16777216
102
RTVSPost2010PropOp51
 70
     0
102
RTVSPost2010Prop52
140
1.0
102
RTVSPost2010PropOp52
 70
     0
102
RTVSPost2010Prop53
 90
        2
102
RTVSPost2010PropOp53
 70
     1
102
RTVSPost2010Prop54
  1
strokes_ogs.tif
102
RTVSPost2010PropOp54
 70
     1
102
RTVSPost2010Prop55
280
     0
102
RTVSPost2010PropOp55
 70
     1
102
RTVSPost2010Prop56
140
1.0
102
RTVSPost2010PropOp56
 70
     1
102
RTVSPost2010Prop57
140
1.0
102
RTVSPost2010PropOp57
 70
     1
  0
XRECORD
  5
F33
102
{ACAD_REACTORS
330
F32
102
}
330
F32
100
AcDbXrecord
280
     1
102
RTVSPropertyOp0
 70
     1
102
RTVSPropertyOp1
 70
     1
102
RTVSPropertyOp2
 70
     1
102
RTVSPropertyOp3
 70
     1
102
RTVSPropertyOp4
 70
     1
102
RTVSPropertyOp5
 70
     1
102
RTVSPropertyOp6
 70
     1
102
RTVSPropertyOp7
 70
     1
102
RTVSPropertyOp8
 70
     1
102
RTVSPropertyOp9
 70
     1
102
RTVSPropertyOp10
 70
     1
102
RTVSPropertyOp11
 70
     1
102
RTVSPropertyOp12
 70
     1
102
RTVSPropertyOp13
 70
     1
102
RTVSPropertyOp14
 70
     1
102
RTVSPropertyOp15
 70
     1
102
RTVSPropertyOp16
 70
     1
102
RTVSPropertyOp17
 70
     1
102
RTVSPropertyOp18
 70
     1
102
RTVSPropertyOp19
 70
     1
102
RTVSPropertyOp20
 70
     1
102
RTVSPropertyOp21
 70
     1
102
RTVSPropertyOp22
 70
     1
102
RTVSPropertyOp23
 70
     1
102
RTVSPropertyOp24
 70
     1
102
RTVSPropertyOp25
 70
     1
102
RTVSPropertyOp26
 70
     1
102
RTVSPropertyOp27
 70
     1
102
RTVSPropertyOp28
 70
     1
102
RTVSPropertyOp29
 70
     1
102
RTVSPropertyOp30
 70
     1
102
RTVSPropertyOp31
 70
     1
102
RTVSPropertyOp32
 70
     1
102
RTVSPropertyOp33
 70
     1
102
RTVSPropertyOp34
 70
     1
102
RTVSPropertyOp35
 70
     1
102
RTVSPropertyOp36
 70
     1
102
RTVSPropertyOp37
 70
     1
102
RTVSPropertyOp38
 70
     1
102
RTVSPropertyOp39
 70
     1
102
RTVSPropertyOp40
 70
     1
102
RTVSPropertyOp41
 70
     1
102
RTVSPropertyOp42
 70
     1
102
RTVSPropertyOp43
 70
     1
102
RTVSPropertyOp44
 70
     1
102
RTVSPropertyOp45
 70
     1
102
RTVSPropertyOp46
 70
     1
102
RTVSPropertyOp47
 70
     1
102
RTVSPropertyOp48
 70
     1
102
RTVSPropertyOp49
 70
     1
102
RTVSPropertyOp50
 70
     1
102
RTVSPropertyOp51
 70
     0
102
RTVSPropertyOp52
 70
     0
102
RTVSPropertyOp53
 70
     1
102
RTVSPropertyOp54
 70
     1
102
RTVSPropertyOp55
 70
     1
102
RTVSPropertyOp56
 70
     1
102
RTVSPropertyOp57
 70
     1
102
RTVSPost2010Prop28
280
     0
102
RTVSPost2010PropOp28
 70
     1
102
RTVSPost2010Prop29
280
     1
102
RTVSPost2010PropOp29
 70
     1
102
RTVSPost2010Prop30
280
     1
102
RTVSPost2010PropOp30
 70
     1
102
RTVSPost2010Prop31
280
     0
102
RTVSPost2010PropOp31
 70
     1
102
RTVSPost2010Prop32
280
     0
102
RTVSPost2010PropOp32
 70
     1
102
RTVSPost2010Prop33
280
     0
102
RTVSPost2010PropOp33
 70
     1
102
RTVSPost2010Prop34
280
     0
102
RTVSPost2010PropOp34
 70
     1
102
RTVSPost2010Prop35
280
     0
102
RTVSPost2010PropOp35
 70
     1
102
RTVSPost2010Prop36
280
     0
102
RTVSPost2010PropOp36
 70
     1
102
RTVSPost2010Prop37
 90
       50
102
RTVSPost2010PropOp37
 70
     1
102
RTVSPost2010Prop38
140
0.0
102
RTVSPost2010PropOp38
 70
     1
102
RTVSPost2010Prop39
140
1.0
102
RTVSPost2010PropOp39
 70
     1
102
RTVSPost2010Prop40
 90
        0
102
RTVSPost2010PropOp40
 70
     1
102
RTVSPost2010Prop41ColorIndex
 90
       18
102
RTVSPost2010Prop41ColorRGB
 90
        0
102
RTVSPost2010PropOp41
 70
     1
102
RTVSPost2010Prop42
 90
       50
102
RTVSPost2010PropOp42
 70
     1
102
RTVSPost2010Prop43
 90
        3
102
RTVSPost2010PropOp43
 70
     1
102
RTVSPost2010Prop44ColorIndex
 90
        5
102
RTVSPost2010Prop44ColorRGB
 90
      255
102
RTVSPost2010PropOp44
 70
     1
102
RTVSPost2010Prop45
280
     0
102
RTVSPost2010PropOp45
 70
     1
102
RTVSPost2010Prop46
 90
       50
102
RTVSPost2010PropOp46
 70
     1
102
RTVSPost2010Prop47
 90
       50
102
RTVSPost2010PropOp47
 70
     1
102
RTVSPost2010Prop48
 90
       50
102
RTVSPost2010PropOp48
 70
     1
102
RTVSPost2010Prop49
280
     0
102
RTVSPost2010PropOp49
 70
     1
102
RTVSPost2010Prop50
 90
       50
102
RTVSPost2010PropOp50
 70
     1
102
RTVSPost2010Prop51ColorIndex
 90
      256
102
RTVSPost2010Prop51ColorRGB
 90
-16777216
102
RTVSPost2010PropOp51
 70
     0
102
RTVSPost2010Prop52
140
1.0
102
RTVSPost2010PropOp52
 70
     0
102
RTVSPost2010Prop53
 90
        2
102
RTVSPost2010PropOp53
 70
     1
102
RTVSPost2010Prop54
  1
strokes_ogs.tif
102
RTVSPost2010PropOp54
 70
     1
102
RTVSPost2010Prop55
280
     0
102
RTVSPost2010PropOp55
 70
     1
102
RTVSPost2010Prop56
140
1.0
102
RTVSPost2010PropOp56
 70
     1
102
RTVSPost2010Prop57
140
1.0
102
RTVSPost2010PropOp57
 70
     1
  0
XRECORD
  5
F35
102
{ACAD_REACTORS
330
F34
102
}
330
F34
100
AcDbXrecord
280
     1
102
RTVSPropertyOp0
 70
     1
102
RTVSPropertyOp1
 70
     1
102
RTVSPropertyOp2
 70
     1
102
RTVSPropertyOp3
 70
     1
102
RTVSPropertyOp4
 70
     1
102
RTVSPropertyOp5
 70
     1
102
RTVSPropertyOp6
 70
     1
102
RTVSPropertyOp7
 70
     1
102
RTVSPropertyOp8
 70
     1
102
RTVSPropertyOp9
 70
     1
102
RTVSPropertyOp10
 70
     1
102
RTVSPropertyOp11
 70
     1
102
RTVSPropertyOp12
 70
     1
102
RTVSPropertyOp13
 70
     1
102
RTVSPropertyOp14
 70
     1
102
RTVSPropertyOp15
 70
     1
102
RTVSPropertyOp16
 70
     1
102
RTVSPropertyOp17
 70
     1
102
RTVSPropertyOp18
 70
     1
102
RTVSPropertyOp19
 70
     1
102
RTVSPropertyOp20
 70
     1
102
RTVSPropertyOp21
 70
     1
102
RTVSPropertyOp22
 70
     1
102
RTVSPropertyOp23
 70
     1
102
RTVSPropertyOp24
 70
     1
102
RTVSPropertyOp25
 70
     1
102
RTVSPropertyOp26
 70
     1
102
RTVSPropertyOp27
 70
     1
102
RTVSPropertyOp28
 70
     1
102
RTVSPropertyOp29
 70
     1
102
RTVSPropertyOp30
 70
     1
102
RTVSPropertyOp31
 70
     1
102
RTVSPropertyOp32
 70
     1
102
RTVSPropertyOp33
 70
     1
102
RTVSPropertyOp34
 70
     1
102
RTVSPropertyOp35
 70
     1
102
RTVSPropertyOp36
 70
     1
102
RTVSPropertyOp37
 70
     1
102
RTVSPropertyOp38
 70
     1
102
RTVSPropertyOp39
 70
     1
102
RTVSPropertyOp40
 70
     1
102
RTVSPropertyOp41
 70
     1
102
RTVSPropertyOp42
 70
     1
102
RTVSPropertyOp43
 70
     1
102
RTVSPropertyOp44
 70
     1
102
RTVSPropertyOp45
 70
     1
102
RTVSPropertyOp46
 70
     1
102
RTVSPropertyOp47
 70
     1
102
RTVSPropertyOp48
 70
     1
102
RTVSPropertyOp49
 70
     1
102
RTVSPropertyOp50
 70
     1
102
RTVSPropertyOp51
 70
     0
102
RTVSPropertyOp52
 70
     0
102
RTVSPropertyOp53
 70
     1
102
RTVSPropertyOp54
 70
     1
102
RTVSPropertyOp55
 70
     1
102
RTVSPropertyOp56
 70
     1
102
RTVSPropertyOp57
 70
     1
102
RTVSPost2010Prop28
280
     0
102
RTVSPost2010PropOp28
 70
     1
102
RTVSPost2010Prop29
280
     1
102
RTVSPost2010PropOp29
 70
     1
102
RTVSPost2010Prop30
280
     1
102
RTVSPost2010PropOp30
 70
     1
102
RTVSPost2010Prop31
280
     0
102
RTVSPost2010PropOp31
 70
     1
102
RTVSPost2010Prop32
280
     0
102
RTVSPost2010PropOp32
 70
     1
102
RTVSPost2010Prop33
280
     0
102
RTVSPost2010PropOp33
 70
     1
102
RTVSPost2010Prop34
280
     0
102
RTVSPost2010PropOp34
 70
     1
102
RTVSPost2010Prop35
280
     0
102
RTVSPost2010PropOp35
 70
     1
102
RTVSPost2010Prop36
280
     0
102
RTVSPost2010PropOp36
 70
     1
102
RTVSPost2010Prop37
 90
       50
102
RTVSPost2010PropOp37
 70
     1
102
RTVSPost2010Prop38
140
0.0
102
RTVSPost2010PropOp38
 70
     1
102
RTVSPost2010Prop39
140
1.0
102
RTVSPost2010PropOp39
 70
     1
102
RTVSPost2010Prop40
 90
        0
102
RTVSPost2010PropOp40
 70
     1
102
RTVSPost2010Prop41ColorIndex
 90
       18
102
RTVSPost2010Prop41ColorRGB
 90
        0
102
RTVSPost2010PropOp41
 70
     1
102
RTVSPost2010Prop42
 90
       50
102
RTVSPost2010PropOp42
 70
     1
102
RTVSPost2010Prop43
 90
        3
102
RTVSPost2010PropOp43
 70
     1
102
RTVSPost2010Prop44ColorIndex
 90
        5
102
RTVSPost2010Prop44ColorRGB
 90
      255
102
RTVSPost2010PropOp44
 70
     1
102
RTVSPost2010Prop45
280
     0
102
RTVSPost2010PropOp45
 70
     1
102
RTVSPost2010Prop46
 90
       50
102
RTVSPost2010PropOp46
 70
     1
102
RTVSPost2010Prop47
 90
       50
102
RTVSPost2010PropOp47
 70
     1
102
RTVSPost2010Prop48
 90
       50
102
RTVSPost2010PropOp48
 70
     1
102
RTVSPost2010Prop49
280
     0
102
RTVSPost2010PropOp49
 70
     1
102
RTVSPost2010Prop50
 90
       50
102
RTVSPost2010PropOp50
 70
     1
102
RTVSPost2010Prop51ColorIndex
 90
      256
102
RTVSPost2010Prop51ColorRGB
 90
-16777216
102
RTVSPost2010PropOp51
 70
     0
102
RTVSPost2010Prop52
140
1.0
102
RTVSPost2010PropOp52
 70
     0
102
RTVSPost2010Prop53
 90
        2
102
RTVSPost2010PropOp53
 70
     1
102
RTVSPost2010Prop54
  1
strokes_ogs.tif
102
RTVSPost2010PropOp54
 70
     1
102
RTVSPost2010Prop55
280
     0
102
RTVSPost2010PropOp55
 70
     1
102
RTVSPost2010Prop56
140
1.0
102
RTVSPost2010PropOp56
 70
     1
102
RTVSPost2010Prop57
140
1.0
102
RTVSPost2010PropOp57
 70
     1
  0
XRECORD
  5
F45
102
{ACAD_REACTORS
330
F44
102
}
330
F44
100
AcDbXrecord
280
     1
102
RTVSPropertyOp0
 70
     0
102
RTVSPropertyOp1
 70
     0
102
RTVSPropertyOp2
 70
     0
102
RTVSPropertyOp3
 70
     0
102
RTVSPropertyOp4
 70
     0
102
RTVSPropertyOp5
 70
     0
102
RTVSPropertyOp6
 70
     0
102
RTVSPropertyOp7
 70
     0
102
RTVSPropertyOp8
 70
     0
102
RTVSPropertyOp9
 70
     0
102
RTVSPropertyOp10
 70
     0
102
RTVSPropertyOp11
 70
     0
102
RTVSPropertyOp12
 70
     0
102
RTVSPropertyOp13
 70
     0
102
RTVSPropertyOp14
 70
     2
102
RTVSPropertyOp15
 70
     0
102
RTVSPropertyOp16
 70
     0
102
RTVSPropertyOp17
 70
     0
102
RTVSPropertyOp18
 70
     0
102
RTVSPropertyOp19
 70
     0
102
RTVSPropertyOp20
 70
     0
102
RTVSPropertyOp21
 70
     0
102
RTVSPropertyOp22
 70
     0
102
RTVSPropertyOp23
 70
     0
102
RTVSPropertyOp24
 70
     0
102
RTVSPropertyOp25
 70
     0
102
RTVSPropertyOp26
 70
     0
102
RTVSPropertyOp27
 70
     0
102
RTVSPropertyOp28
 70
     0
102
RTVSPropertyOp29
 70
     0
102
RTVSPropertyOp30
 70
     0
102
RTVSPropertyOp31
 70
     0
102
RTVSPropertyOp32
 70
     0
102
RTVSPropertyOp33
 70
     0
102
RTVSPropertyOp34
 70
     0
102
RTVSPropertyOp35
 70
     0
102
RTVSPropertyOp36
 70
     0
102
RTVSPropertyOp37
 70
     0
102
RTVSPropertyOp38
 70
     0
102
RTVSPropertyOp39
 70
     0
102
RTVSPropertyOp40
 70
     0
102
RTVSPropertyOp41
 70
     0
102
RTVSPropertyOp42
 70
     0
102
RTVSPropertyOp43
 70
     0
102
RTVSPropertyOp44
 70
     0
102
RTVSPropertyOp45
 70
     0
102
RTVSPropertyOp46
 70
     0
102
RTVSPropertyOp47
 70
     0
102
RTVSPropertyOp48
 70
     0
102
RTVSPropertyOp49
 70
     0
102
RTVSPropertyOp50
 70
     0
102
RTVSPropertyOp51
 70
     0
102
RTVSPropertyOp52
 70
     0
102
RTVSPropertyOp53
 70
     0
102
RTVSPropertyOp54
 70
     0
102
RTVSPropertyOp55
 70
     0
102
RTVSPropertyOp56
 70
     0
102
RTVSPropertyOp57
 70
     0
102
RTVSPost2010Prop28
280
     0
102
RTVSPost2010PropOp28
 70
     0
102
RTVSPost2010Prop29
280
     1
102
RTVSPost2010PropOp29
 70
     0
102
RTVSPost2010Prop30
280
     1
102
RTVSPost2010PropOp30
 70
     0
102
RTVSPost2010Prop31
280
     0
102
RTVSPost2010PropOp31
 70
     0
102
RTVSPost2010Prop32
280
     0
102
RTVSPost2010PropOp32
 70
     0
102
RTVSPost2010Prop33
280
     0
102
RTVSPost2010PropOp33
 70
     0
102
RTVSPost2010Prop34
280
     0
102
RTVSPost2010PropOp34
 70
     0
102
RTVSPost2010Prop35
280
     0
102
RTVSPost2010PropOp35
 70
     0
102
RTVSPost2010Prop36
280
     0
102
RTVSPost2010PropOp36
 70
     0
102
RTVSPost2010Prop37
 90
       50
102
RTVSPost2010PropOp37
 70
     0
102
RTVSPost2010Prop38
140
0.0
102
RTVSPost2010PropOp38
 70
     0
102
RTVSPost2010Prop39
140
1.0
102
RTVSPost2010PropOp39
 70
     0
102
RTVSPost2010Prop40
 90
        0
102
RTVSPost2010PropOp40
 70
     0
102
RTVSPost2010Prop41ColorIndex
 90
       18
102
RTVSPost2010Prop41ColorRGB
 90
        0
102
RTVSPost2010PropOp41
 70
     0
102
RTVSPost2010Prop42
 90
       50
102
RTVSPost2010PropOp42
 70
     0
102
RTVSPost2010Prop43
 90
        3
102
RTVSPost2010PropOp43
 70
     0
102
RTVSPost2010Prop44ColorIndex
 90
        5
102
RTVSPost2010Prop44ColorRGB
 90
      255
102
RTVSPost2010PropOp44
 70
     0
102
RTVSPost2010Prop45
280
     0
102
RTVSPost2010PropOp45
 70
     0
102
RTVSPost2010Prop46
 90
       50
102
RTVSPost2010PropOp46
 70
     0
102
RTVSPost2010Prop47
 90
       50
102
RTVSPost2010PropOp47
 70
     0
102
RTVSPost2010Prop48
 90
       50
102
RTVSPost2010PropOp48
 70
     0
102
RTVSPost2010Prop49
280
     0
102
RTVSPost2010PropOp49
 70
     0
102
RTVSPost2010Prop50
 90
       50
102
RTVSPost2010PropOp50
 70
     0
102
RTVSPost2010Prop51ColorIndex
 90
      256
102
RTVSPost2010Prop51ColorRGB
 90
-16777216
102
RTVSPost2010PropOp51
 70
     0
102
RTVSPost2010Prop52
140
1.0
102
RTVSPost2010PropOp52
 70
     0
102
RTVSPost2010Prop53
 90
        2
102
RTVSPost2010PropOp53
 70
     0
102
RTVSPost2010Prop54
  1
strokes_ogs.tif
102
RTVSPost2010PropOp54
 70
     0
102
RTVSPost2010Prop55
280
     0
102
RTVSPost2010PropOp55
 70
     0
102
RTVSPost2010Prop56
140
1.0
102
RTVSPost2010PropOp56
 70
     0
102
RTVSPost2010Prop57
140
1.0
102
RTVSPost2010PropOp57
 70
     0
  0
XRECORD
  5
F3D
102
{ACAD_REACTORS
330
F3C
102
}
330
F3C
100
AcDbXrecord
280
     1
102
RTVSPropertyOp0
 70
     1
102
RTVSPropertyOp1
 70
     1
102
RTVSPropertyOp2
 70
     1
102
RTVSPropertyOp3
 70
     1
102
RTVSPropertyOp4
 70
     1
102
RTVSPropertyOp5
 70
     1
102
RTVSPropertyOp6
 70
     1
102
RTVSPropertyOp7
 70
     1
102
RTVSPropertyOp8
 70
     1
102
RTVSPropertyOp9
 70
     1
102
RTVSPropertyOp10
 70
     1
102
RTVSPropertyOp11
 70
     1
102
RTVSPropertyOp12
 70
     1
102
RTVSPropertyOp13
 70
     1
102
RTVSPropertyOp14
 70
     1
102
RTVSPropertyOp15
 70
     1
102
RTVSPropertyOp16
 70
     1
102
RTVSPropertyOp17
 70
     1
102
RTVSPropertyOp18
 70
     1
102
RTVSPropertyOp19
 70
     1
102
RTVSPropertyOp20
 70
     1
102
RTVSPropertyOp21
 70
     1
102
RTVSPropertyOp22
 70
     1
102
RTVSPropertyOp23
 70
     1
102
RTVSPropertyOp24
 70
     1
102
RTVSPropertyOp25
 70
     1
102
RTVSPropertyOp26
 70
     1
102
RTVSPropertyOp27
 70
     1
102
RTVSPropertyOp28
 70
     1
102
RTVSPropertyOp29
 70
     1
102
RTVSPropertyOp30
 70
     1
102
RTVSPropertyOp31
 70
     1
102
RTVSPropertyOp32
 70
     1
102
RTVSPropertyOp33
 70
     1
102
RTVSPropertyOp34
 70
     1
102
RTVSPropertyOp35
 70
     1
102
RTVSPropertyOp36
 70
     1
102
RTVSPropertyOp37
 70
     1
102
RTVSPropertyOp38
 70
     1
102
RTVSPropertyOp39
 70
     1
102
RTVSPropertyOp40
 70
     1
102
RTVSPropertyOp41
 70
     1
102
RTVSPropertyOp42
 70
     1
102
RTVSPropertyOp43
 70
     1
102
RTVSPropertyOp44
 70
     1
102
RTVSPropertyOp45
 70
     1
102
RTVSPropertyOp46
 70
     1
102
RTVSPropertyOp47
 70
     1
102
RTVSPropertyOp48
 70
     1
102
RTVSPropertyOp49
 70
     1
102
RTVSPropertyOp50
 70
     1
102
RTVSPropertyOp51
 70
     0
102
RTVSPropertyOp52
 70
     0
102
RTVSPropertyOp53
 70
     1
102
RTVSPropertyOp54
 70
     1
102
RTVSPropertyOp55
 70
     1
102
RTVSPropertyOp56
 70
     1
102
RTVSPropertyOp57
 70
     1
102
RTVSPost2010Prop28
280
     0
102
RTVSPost2010PropOp28
 70
     1
102
RTVSPost2010Prop29
280
     1
102
RTVSPost2010PropOp29
 70
     1
102
RTVSPost2010Prop30
280
     1
102
RTVSPost2010PropOp30
 70
     1
102
RTVSPost2010Prop31
280
     0
102
RTVSPost2010PropOp31
 70
     1
102
RTVSPost2010Prop32
280
     0
102
RTVSPost2010PropOp32
 70
     1
102
RTVSPost2010Prop33
280
     0
102
RTVSPost2010PropOp33
 70
     1
102
RTVSPost2010Prop34
280
     0
102
RTVSPost2010PropOp34
 70
     1
102
RTVSPost2010Prop35
280
     0
102
RTVSPost2010PropOp35
 70
     1
102
RTVSPost2010Prop36
280
     0
102
RTVSPost2010PropOp36
 70
     1
102
RTVSPost2010Prop37
 90
       50
102
RTVSPost2010PropOp37
 70
     1
102
RTVSPost2010Prop38
140
0.0
102
RTVSPost2010PropOp38
 70
     1
102
RTVSPost2010Prop39
140
1.0
102
RTVSPost2010PropOp39
 70
     1
102
RTVSPost2010Prop40
 90
        0
102
RTVSPost2010PropOp40
 70
     1
102
RTVSPost2010Prop41ColorIndex
 90
       18
102
RTVSPost2010Prop41ColorRGB
 90
        0
102
RTVSPost2010PropOp41
 70
     1
102
RTVSPost2010Prop42
 90
       50
102
RTVSPost2010PropOp42
 70
     1
102
RTVSPost2010Prop43
 90
        3
102
RTVSPost2010PropOp43
 70
     1
102
RTVSPost2010Prop44ColorIndex
 90
        5
102
RTVSPost2010Prop44ColorRGB
 90
      255
102
RTVSPost2010PropOp44
 70
     1
102
RTVSPost2010Prop45
280
     0
102
RTVSPost2010PropOp45
 70
     1
102
RTVSPost2010Prop46
 90
       50
102
RTVSPost2010PropOp46
 70
     1
102
RTVSPost2010Prop47
 90
       50
102
RTVSPost2010PropOp47
 70
     1
102
RTVSPost2010Prop48
 90
       50
102
RTVSPost2010PropOp48
 70
     1
102
RTVSPost2010Prop49
280
     0
102
RTVSPost2010PropOp49
 70
     1
102
RTVSPost2010Prop50
 90
       50
102
RTVSPost2010PropOp50
 70
     1
102
RTVSPost2010Prop51ColorIndex
 90
      256
102
RTVSPost2010Prop51ColorRGB
 90
-16777216
102
RTVSPost2010PropOp51
 70
     0
102
RTVSPost2010Prop52
140
1.0
102
RTVSPost2010PropOp52
 70
     0
102
RTVSPost2010Prop53
 90
        2
102
RTVSPost2010PropOp53
 70
     1
102
RTVSPost2010Prop54
  1
strokes_ogs.tif
102
RTVSPost2010PropOp54
 70
     1
102
RTVSPost2010Prop55
280
     0
102
RTVSPost2010PropOp55
 70
     1
102
RTVSPost2010Prop56
140
1.0
102
RTVSPost2010PropOp56
 70
     1
102
RTVSPost2010Prop57
140
1.0
102
RTVSPost2010PropOp57
 70
     1
  0
XRECORD
  5
F21
102
{ACAD_REACTORS
330
F20
102
}
330
F20
100
AcDbXrecord
280
     1
102
RTVSPropertyOp0
 70
     1
102
RTVSPropertyOp1
 70
     1
102
RTVSPropertyOp2
 70
     1
102
RTVSPropertyOp3
 70
     1
102
RTVSPropertyOp4
 70
     1
102
RTVSPropertyOp5
 70
     1
102
RTVSPropertyOp6
 70
     1
102
RTVSPropertyOp7
 70
     1
102
RTVSPropertyOp8
 70
     1
102
RTVSPropertyOp9
 70
     1
102
RTVSPropertyOp10
 70
     1
102
RTVSPropertyOp11
 70
     1
102
RTVSPropertyOp12
 70
     1
102
RTVSPropertyOp13
 70
     1
102
RTVSPropertyOp14
 70
     1
102
RTVSPropertyOp15
 70
     1
102
RTVSPropertyOp16
 70
     1
102
RTVSPropertyOp17
 70
     1
102
RTVSPropertyOp18
 70
     1
102
RTVSPropertyOp19
 70
     1
102
RTVSPropertyOp20
 70
     1
102
RTVSPropertyOp21
 70
     1
102
RTVSPropertyOp22
 70
     1
102
RTVSPropertyOp23
 70
     1
102
RTVSPropertyOp24
 70
     1
102
RTVSPropertyOp25
 70
     1
102
RTVSPropertyOp26
 70
     1
102
RTVSPropertyOp27
 70
     1
102
RTVSPropertyOp28
 70
     1
102
RTVSPropertyOp29
 70
     1
102
RTVSPropertyOp30
 70
     1
102
RTVSPropertyOp31
 70
     1
102
RTVSPropertyOp32
 70
     1
102
RTVSPropertyOp33
 70
     1
102
RTVSPropertyOp34
 70
     1
102
RTVSPropertyOp35
 70
     1
102
RTVSPropertyOp36
 70
     1
102
RTVSPropertyOp37
 70
     1
102
RTVSPropertyOp38
 70
     1
102
RTVSPropertyOp39
 70
     1
102
RTVSPropertyOp40
 70
     1
102
RTVSPropertyOp41
 70
     1
102
RTVSPropertyOp42
 70
     1
102
RTVSPropertyOp43
 70
     1
102
RTVSPropertyOp44
 70
     1
102
RTVSPropertyOp45
 70
     1
102
RTVSPropertyOp46
 70
     1
102
RTVSPropertyOp47
 70
     1
102
RTVSPropertyOp48
 70
     1
102
RTVSPropertyOp49
 70
     1
102
RTVSPropertyOp50
 70
     1
102
RTVSPropertyOp51
 70
     0
102
RTVSPropertyOp52
 70
     0
102
RTVSPropertyOp53
 70
     1
102
RTVSPropertyOp54
 70
     1
102
RTVSPropertyOp55
 70
     1
102
RTVSPropertyOp56
 70
     1
102
RTVSPropertyOp57
 70
     1
102
RTVSPost2010Prop28
280
     0
102
RTVSPost2010PropOp28
 70
     1
102
RTVSPost2010Prop29
280
     1
102
RTVSPost2010PropOp29
 70
     1
102
RTVSPost2010Prop30
280
     1
102
RTVSPost2010PropOp30
 70
     1
102
RTVSPost2010Prop31
280
     0
102
RTVSPost2010PropOp31
 70
     1
102
RTVSPost2010Prop32
280
     0
102
RTVSPost2010PropOp32
 70
     1
102
RTVSPost2010Prop33
280
     0
102
RTVSPost2010PropOp33
 70
     1
102
RTVSPost2010Prop34
280
     0
102
RTVSPost2010PropOp34
 70
     1
102
RTVSPost2010Prop35
280
     0
102
RTVSPost2010PropOp35
 70
     1
102
RTVSPost2010Prop36
280
     0
102
RTVSPost2010PropOp36
 70
     1
102
RTVSPost2010Prop37
 90
       50
102
RTVSPost2010PropOp37
 70
     1
102
RTVSPost2010Prop38
140
0.0
102
RTVSPost2010PropOp38
 70
     1
102
RTVSPost2010Prop39
140
1.0
102
RTVSPost2010PropOp39
 70
     1
102
RTVSPost2010Prop40
 90
        0
102
RTVSPost2010PropOp40
 70
     1
102
RTVSPost2010Prop41ColorIndex
 90
       18
102
RTVSPost2010Prop41ColorRGB
 90
        0
102
RTVSPost2010PropOp41
 70
     1
102
RTVSPost2010Prop42
 90
       50
102
RTVSPost2010PropOp42
 70
     1
102
RTVSPost2010Prop43
 90
        3
102
RTVSPost2010PropOp43
 70
     1
102
RTVSPost2010Prop44ColorIndex
 90
        5
102
RTVSPost2010Prop44ColorRGB
 90
      255
102
RTVSPost2010PropOp44
 70
     1
102
RTVSPost2010Prop45
280
     0
102
RTVSPost2010PropOp45
 70
     1
102
RTVSPost2010Prop46
 90
       50
102
RTVSPost2010PropOp46
 70
     1
102
RTVSPost2010Prop47
 90
       50
102
RTVSPost2010PropOp47
 70
     1
102
RTVSPost2010Prop48
 90
       50
102
RTVSPost2010PropOp48
 70
     1
102
RTVSPost2010Prop49
280
     0
102
RTVSPost2010PropOp49
 70
     1
102
RTVSPost2010Prop50
 90
       50
102
RTVSPost2010PropOp50
 70
     1
102
RTVSPost2010Prop51ColorIndex
 90
      256
102
RTVSPost2010Prop51ColorRGB
 90
-16777216
102
RTVSPost2010PropOp51
 70
     0
102
RTVSPost2010Prop52
140
1.0
102
RTVSPost2010PropOp52
 70
     0
102
RTVSPost2010Prop53
 90
        2
102
RTVSPost2010PropOp53
 70
     1
102
RTVSPost2010Prop54
  1
strokes_ogs.tif
102
RTVSPost2010PropOp54
 70
     1
102
RTVSPost2010Prop55
280
     0
102
RTVSPost2010PropOp55
 70
     1
102
RTVSPost2010Prop56
140
1.0
102
RTVSPost2010PropOp56
 70
     1
102
RTVSPost2010Prop57
140
1.0
102
RTVSPost2010PropOp57
 70
     1
  0
XRECORD
  5
F23
102
{ACAD_REACTORS
330
F22
102
}
330
F22
100
AcDbXrecord
280
     1
102
RTVSPropertyOp0
 70
     1
102
RTVSPropertyOp1
 70
     1
102
RTVSPropertyOp2
 70
     1
102
RTVSPropertyOp3
 70
     1
102
RTVSPropertyOp4
 70
     1
102
RTVSPropertyOp5
 70
     1
102
RTVSPropertyOp6
 70
     1
102
RTVSPropertyOp7
 70
     1
102
RTVSPropertyOp8
 70
     1
102
RTVSPropertyOp9
 70
     1
102
RTVSPropertyOp10
 70
     1
102
RTVSPropertyOp11
 70
     1
102
RTVSPropertyOp12
 70
     1
102
RTVSPropertyOp13
 70
     1
102
RTVSPropertyOp14
 70
     1
102
RTVSPropertyOp15
 70
     1
102
RTVSPropertyOp16
 70
     1
102
RTVSPropertyOp17
 70
     1
102
RTVSPropertyOp18
 70
     1
102
RTVSPropertyOp19
 70
     1
102
RTVSPropertyOp20
 70
     1
102
RTVSPropertyOp21
 70
     1
102
RTVSPropertyOp22
 70
     1
102
RTVSPropertyOp23
 70
     1
102
RTVSPropertyOp24
 70
     1
102
RTVSPropertyOp25
 70
     1
102
RTVSPropertyOp26
 70
     1
102
RTVSPropertyOp27
 70
     1
102
RTVSPropertyOp28
 70
     1
102
RTVSPropertyOp29
 70
     1
102
RTVSPropertyOp30
 70
     1
102
RTVSPropertyOp31
 70
     1
102
RTVSPropertyOp32
 70
     1
102
RTVSPropertyOp33
 70
     1
102
RTVSPropertyOp34
 70
     1
102
RTVSPropertyOp35
 70
     1
102
RTVSPropertyOp36
 70
     1
102
RTVSPropertyOp37
 70
     1
102
RTVSPropertyOp38
 70
     1
102
RTVSPropertyOp39
 70
     1
102
RTVSPropertyOp40
 70
     1
102
RTVSPropertyOp41
 70
     1
102
RTVSPropertyOp42
 70
     1
102
RTVSPropertyOp43
 70
     1
102
RTVSPropertyOp44
 70
     1
102
RTVSPropertyOp45
 70
     1
102
RTVSPropertyOp46
 70
     1
102
RTVSPropertyOp47
 70
     1
102
RTVSPropertyOp48
 70
     1
102
RTVSPropertyOp49
 70
     1
102
RTVSPropertyOp50
 70
     1
102
RTVSPropertyOp51
 70
     0
102
RTVSPropertyOp52
 70
     0
102
RTVSPropertyOp53
 70
     1
102
RTVSPropertyOp54
 70
     1
102
RTVSPropertyOp55
 70
     1
102
RTVSPropertyOp56
 70
     1
102
RTVSPropertyOp57
 70
     1
102
RTVSPost2010Prop28
280
     0
102
RTVSPost2010PropOp28
 70
     1
102
RTVSPost2010Prop29
280
     1
102
RTVSPost2010PropOp29
 70
     1
102
RTVSPost2010Prop30
280
     1
102
RTVSPost2010PropOp30
 70
     1
102
RTVSPost2010Prop31
280
     0
102
RTVSPost2010PropOp31
 70
     1
102
RTVSPost2010Prop32
280
     0
102
RTVSPost2010PropOp32
 70
     1
102
RTVSPost2010Prop33
280
     0
102
RTVSPost2010PropOp33
 70
     1
102
RTVSPost2010Prop34
280
     0
102
RTVSPost2010PropOp34
 70
     1
102
RTVSPost2010Prop35
280
     0
102
RTVSPost2010PropOp35
 70
     1
102
RTVSPost2010Prop36
280
     0
102
RTVSPost2010PropOp36
 70
     1
102
RTVSPost2010Prop37
 90
       50
102
RTVSPost2010PropOp37
 70
     1
102
RTVSPost2010Prop38
140
0.0
102
RTVSPost2010PropOp38
 70
     1
102
RTVSPost2010Prop39
140
1.0
102
RTVSPost2010PropOp39
 70
     1
102
RTVSPost2010Prop40
 90
        0
102
RTVSPost2010PropOp40
 70
     1
102
RTVSPost2010Prop41ColorIndex
 90
       18
102
RTVSPost2010Prop41ColorRGB
 90
        0
102
RTVSPost2010PropOp41
 70
     1
102
RTVSPost2010Prop42
 90
       50
102
RTVSPost2010PropOp42
 70
     1
102
RTVSPost2010Prop43
 90
        3
102
RTVSPost2010PropOp43
 70
     1
102
RTVSPost2010Prop44ColorIndex
 90
        5
102
RTVSPost2010Prop44ColorRGB
 90
      255
102
RTVSPost2010PropOp44
 70
     1
102
RTVSPost2010Prop45
280
     0
102
RTVSPost2010PropOp45
 70
     1
102
RTVSPost2010Prop46
 90
       50
102
RTVSPost2010PropOp46
 70
     1
102
RTVSPost2010Prop47
 90
       50
102
RTVSPost2010PropOp47
 70
     1
102
RTVSPost2010Prop48
 90
       50
102
RTVSPost2010PropOp48
 70
     1
102
RTVSPost2010Prop49
280
     0
102
RTVSPost2010PropOp49
 70
     1
102
RTVSPost2010Prop50
 90
       50
102
RTVSPost2010PropOp50
 70
     1
102
RTVSPost2010Prop51ColorIndex
 90
      256
102
RTVSPost2010Prop51ColorRGB
 90
-16777216
102
RTVSPost2010PropOp51
 70
     0
102
RTVSPost2010Prop52
140
1.0
102
RTVSPost2010PropOp52
 70
     0
102
RTVSPost2010Prop53
 90
        2
102
RTVSPost2010PropOp53
 70
     1
102
RTVSPost2010Prop54
  1
strokes_ogs.tif
102
RTVSPost2010PropOp54
 70
     1
102
RTVSPost2010Prop55
280
     0
102
RTVSPost2010PropOp55
 70
     1
102
RTVSPost2010Prop56
140
1.0
102
RTVSPost2010PropOp56
 70
     1
102
RTVSPost2010Prop57
140
1.0
102
RTVSPost2010PropOp57
 70
     1
  0
XRECORD
  5
F25
102
{ACAD_REACTORS
330
F24
102
}
330
F24
100
AcDbXrecord
280
     1
102
RTVSPropertyOp0
 70
     1
102
RTVSPropertyOp1
 70
     1
102
RTVSPropertyOp2
 70
     1
102
RTVSPropertyOp3
 70
     1
102
RTVSPropertyOp4
 70
     1
102
RTVSPropertyOp5
 70
     1
102
RTVSPropertyOp6
 70
     1
102
RTVSPropertyOp7
 70
     1
102
RTVSPropertyOp8
 70
     1
102
RTVSPropertyOp9
 70
     1
102
RTVSPropertyOp10
 70
     1
102
RTVSPropertyOp11
 70
     1
102
RTVSPropertyOp12
 70
     1
102
RTVSPropertyOp13
 70
     1
102
RTVSPropertyOp14
 70
     1
102
RTVSPropertyOp15
 70
     1
102
RTVSPropertyOp16
 70
     1
102
RTVSPropertyOp17
 70
     1
102
RTVSPropertyOp18
 70
     1
102
RTVSPropertyOp19
 70
     1
102
RTVSPropertyOp20
 70
     1
102
RTVSPropertyOp21
 70
     1
102
RTVSPropertyOp22
 70
     1
102
RTVSPropertyOp23
 70
     1
102
RTVSPropertyOp24
 70
     1
102
RTVSPropertyOp25
 70
     1
102
RTVSPropertyOp26
 70
     1
102
RTVSPropertyOp27
 70
     1
102
RTVSPropertyOp28
 70
     1
102
RTVSPropertyOp29
 70
     1
102
RTVSPropertyOp30
 70
     1
102
RTVSPropertyOp31
 70
     1
102
RTVSPropertyOp32
 70
     1
102
RTVSPropertyOp33
 70
     1
102
RTVSPropertyOp34
 70
     1
102
RTVSPropertyOp35
 70
     1
102
RTVSPropertyOp36
 70
     1
102
RTVSPropertyOp37
 70
     1
102
RTVSPropertyOp38
 70
     1
102
RTVSPropertyOp39
 70
     1
102
RTVSPropertyOp40
 70
     1
102
RTVSPropertyOp41
 70
     1
102
RTVSPropertyOp42
 70
     1
102
RTVSPropertyOp43
 70
     1
102
RTVSPropertyOp44
 70
     1
102
RTVSPropertyOp45
 70
     1
102
RTVSPropertyOp46
 70
     1
102
RTVSPropertyOp47
 70
     1
102
RTVSPropertyOp48
 70
     1
102
RTVSPropertyOp49
 70
     1
102
RTVSPropertyOp50
 70
     1
102
RTVSPropertyOp51
 70
     0
102
RTVSPropertyOp52
 70
     0
102
RTVSPropertyOp53
 70
     1
102
RTVSPropertyOp54
 70
     1
102
RTVSPropertyOp55
 70
     1
102
RTVSPropertyOp56
 70
     1
102
RTVSPropertyOp57
 70
     1
102
RTVSPost2010Prop28
280
     0
102
RTVSPost2010PropOp28
 70
     1
102
RTVSPost2010Prop29
280
     1
102
RTVSPost2010PropOp29
 70
     1
102
RTVSPost2010Prop30
280
     1
102
RTVSPost2010PropOp30
 70
     1
102
RTVSPost2010Prop31
280
     0
102
RTVSPost2010PropOp31
 70
     1
102
RTVSPost2010Prop32
280
     0
102
RTVSPost2010PropOp32
 70
     1
102
RTVSPost2010Prop33
280
     0
102
RTVSPost2010PropOp33
 70
     1
102
RTVSPost2010Prop34
280
     0
102
RTVSPost2010PropOp34
 70
     1
102
RTVSPost2010Prop35
280
     0
102
RTVSPost2010PropOp35
 70
     1
102
RTVSPost2010Prop36
280
     0
102
RTVSPost2010PropOp36
 70
     1
102
RTVSPost2010Prop37
 90
       50
102
RTVSPost2010PropOp37
 70
     1
102
RTVSPost2010Prop38
140
0.0
102
RTVSPost2010PropOp38
 70
     1
102
RTVSPost2010Prop39
140
1.0
102
RTVSPost2010PropOp39
 70
     1
102
RTVSPost2010Prop40
 90
        0
102
RTVSPost2010PropOp40
 70
     1
102
RTVSPost2010Prop41ColorIndex
 90
       18
102
RTVSPost2010Prop41ColorRGB
 90
        0
102
RTVSPost2010PropOp41
 70
     1
102
RTVSPost2010Prop42
 90
       50
102
RTVSPost2010PropOp42
 70
     1
102
RTVSPost2010Prop43
 90
        3
102
RTVSPost2010PropOp43
 70
     1
102
RTVSPost2010Prop44ColorIndex
 90
        5
102
RTVSPost2010Prop44ColorRGB
 90
      255
102
RTVSPost2010PropOp44
 70
     1
102
RTVSPost2010Prop45
280
     0
102
RTVSPost2010PropOp45
 70
     1
102
RTVSPost2010Prop46
 90
       50
102
RTVSPost2010PropOp46
 70
     1
102
RTVSPost2010Prop47
 90
       50
102
RTVSPost2010PropOp47
 70
     1
102
RTVSPost2010Prop48
 90
       50
102
RTVSPost2010PropOp48
 70
     1
102
RTVSPost2010Prop49
280
     0
102
RTVSPost2010PropOp49
 70
     1
102
RTVSPost2010Prop50
 90
       50
102
RTVSPost2010PropOp50
 70
     1
102
RTVSPost2010Prop51ColorIndex
 90
      256
102
RTVSPost2010Prop51ColorRGB
 90
-16777216
102
RTVSPost2010PropOp51
 70
     0
102
RTVSPost2010Prop52
140
1.0
102
RTVSPost2010PropOp52
 70
     0
102
RTVSPost2010Prop53
 90
        2
102
RTVSPost2010PropOp53
 70
     1
102
RTVSPost2010Prop54
  1
strokes_ogs.tif
102
RTVSPost2010PropOp54
 70
     1
102
RTVSPost2010Prop55
280
     0
102
RTVSPost2010PropOp55
 70
     1
102
RTVSPost2010Prop56
140
1.0
102
RTVSPost2010PropOp56
 70
     1
102
RTVSPost2010Prop57
140
1.0
102
RTVSPost2010PropOp57
 70
     1
  0
XRECORD
  5
F27
102
{ACAD_REACTORS
330
F26
102
}
330
F26
100
AcDbXrecord
280
     1
102
RTVSPropertyOp0
 70
     1
102
RTVSPropertyOp1
 70
     1
102
RTVSPropertyOp2
 70
     1
102
RTVSPropertyOp3
 70
     1
102
RTVSPropertyOp4
 70
     1
102
RTVSPropertyOp5
 70
     1
102
RTVSPropertyOp6
 70
     1
102
RTVSPropertyOp7
 70
     1
102
RTVSPropertyOp8
 70
     1
102
RTVSPropertyOp9
 70
     1
102
RTVSPropertyOp10
 70
     1
102
RTVSPropertyOp11
 70
     1
102
RTVSPropertyOp12
 70
     1
102
RTVSPropertyOp13
 70
     1
102
RTVSPropertyOp14
 70
     1
102
RTVSPropertyOp15
 70
     1
102
RTVSPropertyOp16
 70
     1
102
RTVSPropertyOp17
 70
     1
102
RTVSPropertyOp18
 70
     1
102
RTVSPropertyOp19
 70
     1
102
RTVSPropertyOp20
 70
     1
102
RTVSPropertyOp21
 70
     1
102
RTVSPropertyOp22
 70
     1
102
RTVSPropertyOp23
 70
     1
102
RTVSPropertyOp24
 70
     1
102
RTVSPropertyOp25
 70
     1
102
RTVSPropertyOp26
 70
     1
102
RTVSPropertyOp27
 70
     1
102
RTVSPropertyOp28
 70
     1
102
RTVSPropertyOp29
 70
     1
102
RTVSPropertyOp30
 70
     1
102
RTVSPropertyOp31
 70
     1
102
RTVSPropertyOp32
 70
     1
102
RTVSPropertyOp33
 70
     1
102
RTVSPropertyOp34
 70
     1
102
RTVSPropertyOp35
 70
     1
102
RTVSPropertyOp36
 70
     1
102
RTVSPropertyOp37
 70
     1
102
RTVSPropertyOp38
 70
     1
102
RTVSPropertyOp39
 70
     1
102
RTVSPropertyOp40
 70
     1
102
RTVSPropertyOp41
 70
     1
102
RTVSPropertyOp42
 70
     1
102
RTVSPropertyOp43
 70
     1
102
RTVSPropertyOp44
 70
     1
102
RTVSPropertyOp45
 70
     1
102
RTVSPropertyOp46
 70
     1
102
RTVSPropertyOp47
 70
     1
102
RTVSPropertyOp48
 70
     1
102
RTVSPropertyOp49
 70
     1
102
RTVSPropertyOp50
 70
     1
102
RTVSPropertyOp51
 70
     0
102
RTVSPropertyOp52
 70
     0
102
RTVSPropertyOp53
 70
     1
102
RTVSPropertyOp54
 70
     1
102
RTVSPropertyOp55
 70
     1
102
RTVSPropertyOp56
 70
     1
102
RTVSPropertyOp57
 70
     1
102
RTVSPost2010Prop28
280
     0
102
RTVSPost2010PropOp28
 70
     1
102
RTVSPost2010Prop29
280
     1
102
RTVSPost2010PropOp29
 70
     1
102
RTVSPost2010Prop30
280
     1
102
RTVSPost2010PropOp30
 70
     1
102
RTVSPost2010Prop31
280
     0
102
RTVSPost2010PropOp31
 70
     1
102
RTVSPost2010Prop32
280
     0
102
RTVSPost2010PropOp32
 70
     1
102
RTVSPost2010Prop33
280
     0
102
RTVSPost2010PropOp33
 70
     1
102
RTVSPost2010Prop34
280
     0
102
RTVSPost2010PropOp34
 70
     1
102
RTVSPost2010Prop35
280
     0
102
RTVSPost2010PropOp35
 70
     1
102
RTVSPost2010Prop36
280
     0
102
RTVSPost2010PropOp36
 70
     1
102
RTVSPost2010Prop37
 90
       50
102
RTVSPost2010PropOp37
 70
     1
102
RTVSPost2010Prop38
140
0.0
102
RTVSPost2010PropOp38
 70
     1
102
RTVSPost2010Prop39
140
1.0
102
RTVSPost2010PropOp39
 70
     1
102
RTVSPost2010Prop40
 90
        0
102
RTVSPost2010PropOp40
 70
     1
102
RTVSPost2010Prop41ColorIndex
 90
       18
102
RTVSPost2010Prop41ColorRGB
 90
        0
102
RTVSPost2010PropOp41
 70
     1
102
RTVSPost2010Prop42
 90
       50
102
RTVSPost2010PropOp42
 70
     1
102
RTVSPost2010Prop43
 90
        3
102
RTVSPost2010PropOp43
 70
     1
102
RTVSPost2010Prop44ColorIndex
 90
        5
102
RTVSPost2010Prop44ColorRGB
 90
      255
102
RTVSPost2010PropOp44
 70
     1
102
RTVSPost2010Prop45
280
     0
102
RTVSPost2010PropOp45
 70
     1
102
RTVSPost2010Prop46
 90
       50
102
RTVSPost2010PropOp46
 70
     1
102
RTVSPost2010Prop47
 90
       50
102
RTVSPost2010PropOp47
 70
     1
102
RTVSPost2010Prop48
 90
       50
102
RTVSPost2010PropOp48
 70
     1
102
RTVSPost2010Prop49
280
     0
102
RTVSPost2010PropOp49
 70
     1
102
RTVSPost2010Prop50
 90
       50
102
RTVSPost2010PropOp50
 70
     1
102
RTVSPost2010Prop51ColorIndex
 90
      256
102
RTVSPost2010Prop51ColorRGB
 90
-16777216
102
RTVSPost2010PropOp51
 70
     0
102
RTVSPost2010Prop52
140
1.0
102
RTVSPost2010PropOp52
 70
     0
102
RTVSPost2010Prop53
 90
        2
102
RTVSPost2010PropOp53
 70
     1
102
RTVSPost2010Prop54
  1
strokes_ogs.tif
102
RTVSPost2010PropOp54
 70
     1
102
RTVSPost2010Prop55
280
     0
102
RTVSPost2010PropOp55
 70
     1
102
RTVSPost2010Prop56
140
1.0
102
RTVSPost2010PropOp56
 70
     1
102
RTVSPost2010Prop57
140
1.0
102
RTVSPost2010PropOp57
 70
     1
  0
XRECORD
  5
F2D
102
{ACAD_REACTORS
330
F2C
102
}
330
F2C
100
AcDbXrecord
280
     1
102
RTVSPropertyOp0
 70
     1
102
RTVSPropertyOp1
 70
     1
102
RTVSPropertyOp2
 70
     1
102
RTVSPropertyOp3
 70
     1
102
RTVSPropertyOp4
 70
     1
102
RTVSPropertyOp5
 70
     1
102
RTVSPropertyOp6
 70
     1
102
RTVSPropertyOp7
 70
     1
102
RTVSPropertyOp8
 70
     1
102
RTVSPropertyOp9
 70
     1
102
RTVSPropertyOp10
 70
     1
102
RTVSPropertyOp11
 70
     1
102
RTVSPropertyOp12
 70
     1
102
RTVSPropertyOp13
 70
     1
102
RTVSPropertyOp14
 70
     1
102
RTVSPropertyOp15
 70
     1
102
RTVSPropertyOp16
 70
     1
102
RTVSPropertyOp17
 70
     1
102
RTVSPropertyOp18
 70
     1
102
RTVSPropertyOp19
 70
     1
102
RTVSPropertyOp20
 70
     1
102
RTVSPropertyOp21
 70
     1
102
RTVSPropertyOp22
 70
     1
102
RTVSPropertyOp23
 70
     1
102
RTVSPropertyOp24
 70
     1
102
RTVSPropertyOp25
 70
     1
102
RTVSPropertyOp26
 70
     1
102
RTVSPropertyOp27
 70
     1
102
RTVSPropertyOp28
 70
     1
102
RTVSPropertyOp29
 70
     1
102
RTVSPropertyOp30
 70
     1
102
RTVSPropertyOp31
 70
     1
102
RTVSPropertyOp32
 70
     1
102
RTVSPropertyOp33
 70
     1
102
RTVSPropertyOp34
 70
     1
102
RTVSPropertyOp35
 70
     1
102
RTVSPropertyOp36
 70
     1
102
RTVSPropertyOp37
 70
     1
102
RTVSPropertyOp38
 70
     1
102
RTVSPropertyOp39
 70
     1
102
RTVSPropertyOp40
 70
     1
102
RTVSPropertyOp41
 70
     1
102
RTVSPropertyOp42
 70
     1
102
RTVSPropertyOp43
 70
     1
102
RTVSPropertyOp44
 70
     1
102
RTVSPropertyOp45
 70
     1
102
RTVSPropertyOp46
 70
     1
102
RTVSPropertyOp47
 70
     1
102
RTVSPropertyOp48
 70
     1
102
RTVSPropertyOp49
 70
     1
102
RTVSPropertyOp50
 70
     1
102
RTVSPropertyOp51
 70
     0
102
RTVSPropertyOp52
 70
     0
102
RTVSPropertyOp53
 70
     1
102
RTVSPropertyOp54
 70
     1
102
RTVSPropertyOp55
 70
     1
102
RTVSPropertyOp56
 70
     1
102
RTVSPropertyOp57
 70
     1
102
RTVSPost2010Prop28
280
     0
102
RTVSPost2010PropOp28
 70
     1
102
RTVSPost2010Prop29
280
     1
102
RTVSPost2010PropOp29
 70
     1
102
RTVSPost2010Prop30
280
     1
102
RTVSPost2010PropOp30
 70
     1
102
RTVSPost2010Prop31
280
     0
102
RTVSPost2010PropOp31
 70
     1
102
RTVSPost2010Prop32
280
     0
102
RTVSPost2010PropOp32
 70
     1
102
RTVSPost2010Prop33
280
     0
102
RTVSPost2010PropOp33
 70
     1
102
RTVSPost2010Prop34
280
     0
102
RTVSPost2010PropOp34
 70
     1
102
RTVSPost2010Prop35
280
     0
102
RTVSPost2010PropOp35
 70
     1
102
RTVSPost2010Prop36
280
     0
102
RTVSPost2010PropOp36
 70
     1
102
RTVSPost2010Prop37
 90
       50
102
RTVSPost2010PropOp37
 70
     1
102
RTVSPost2010Prop38
140
0.0
102
RTVSPost2010PropOp38
 70
     1
102
RTVSPost2010Prop39
140
1.0
102
RTVSPost2010PropOp39
 70
     1
102
RTVSPost2010Prop40
 90
        0
102
RTVSPost2010PropOp40
 70
     1
102
RTVSPost2010Prop41ColorIndex
 90
       18
102
RTVSPost2010Prop41ColorRGB
 90
        0
102
RTVSPost2010PropOp41
 70
     1
102
RTVSPost2010Prop42
 90
       50
102
RTVSPost2010PropOp42
 70
     1
102
RTVSPost2010Prop43
 90
        3
102
RTVSPost2010PropOp43
 70
     1
102
RTVSPost2010Prop44ColorIndex
 90
        5
102
RTVSPost2010Prop44ColorRGB
 90
      255
102
RTVSPost2010PropOp44
 70
     1
102
RTVSPost2010Prop45
280
     0
102
RTVSPost2010PropOp45
 70
     1
102
RTVSPost2010Prop46
 90
       50
102
RTVSPost2010PropOp46
 70
     1
102
RTVSPost2010Prop47
 90
       50
102
RTVSPost2010PropOp47
 70
     1
102
RTVSPost2010Prop48
 90
       50
102
RTVSPost2010PropOp48
 70
     1
102
RTVSPost2010Prop49
280
     0
102
RTVSPost2010PropOp49
 70
     1
102
RTVSPost2010Prop50
 90
       50
102
RTVSPost2010PropOp50
 70
     1
102
RTVSPost2010Prop51ColorIndex
 90
      256
102
RTVSPost2010Prop51ColorRGB
 90
-16777216
102
RTVSPost2010PropOp51
 70
     0
102
RTVSPost2010Prop52
140
1.0
102
RTVSPost2010PropOp52
 70
     0
102
RTVSPost2010Prop53
 90
        2
102
RTVSPost2010PropOp53
 70
     1
102
RTVSPost2010Prop54
  1
strokes_ogs.tif
102
RTVSPost2010PropOp54
 70
     1
102
RTVSPost2010Prop55
280
     0
102
RTVSPost2010PropOp55
 70
     1
102
RTVSPost2010Prop56
140
1.0
102
RTVSPost2010PropOp56
 70
     1
102
RTVSPost2010Prop57
140
1.0
102
RTVSPost2010PropOp57
 70
     1
  0
XRECORD
  5
F41
102
{ACAD_REACTORS
330
F40
102
}
330
F40
100
AcDbXrecord
280
     1
102
RTVSPropertyOp0
 70
     0
102
RTVSPropertyOp1
 70
     0
102
RTVSPropertyOp2
 70
     0
102
RTVSPropertyOp3
 70
     0
102
RTVSPropertyOp4
 70
     0
102
RTVSPropertyOp5
 70
     0
102
RTVSPropertyOp6
 70
     0
102
RTVSPropertyOp7
 70
     0
102
RTVSPropertyOp8
 70
     0
102
RTVSPropertyOp9
 70
     0
102
RTVSPropertyOp10
 70
     0
102
RTVSPropertyOp11
 70
     0
102
RTVSPropertyOp12
 70
     0
102
RTVSPropertyOp13
 70
     0
102
RTVSPropertyOp14
 70
     2
102
RTVSPropertyOp15
 70
     0
102
RTVSPropertyOp16
 70
     0
102
RTVSPropertyOp17
 70
     0
102
RTVSPropertyOp18
 70
     0
102
RTVSPropertyOp19
 70
     0
102
RTVSPropertyOp20
 70
     0
102
RTVSPropertyOp21
 70
     0
102
RTVSPropertyOp22
 70
     0
102
RTVSPropertyOp23
 70
     0
102
RTVSPropertyOp24
 70
     0
102
RTVSPropertyOp25
 70
     0
102
RTVSPropertyOp26
 70
     0
102
RTVSPropertyOp27
 70
     0
102
RTVSPropertyOp28
 70
     0
102
RTVSPropertyOp29
 70
     0
102
RTVSPropertyOp30
 70
     0
102
RTVSPropertyOp31
 70
     0
102
RTVSPropertyOp32
 70
     0
102
RTVSPropertyOp33
 70
     0
102
RTVSPropertyOp34
 70
     0
102
RTVSPropertyOp35
 70
     0
102
RTVSPropertyOp36
 70
     0
102
RTVSPropertyOp37
 70
     0
102
RTVSPropertyOp38
 70
     0
102
RTVSPropertyOp39
 70
     0
102
RTVSPropertyOp40
 70
     0
102
RTVSPropertyOp41
 70
     0
102
RTVSPropertyOp42
 70
     0
102
RTVSPropertyOp43
 70
     0
102
RTVSPropertyOp44
 70
     0
102
RTVSPropertyOp45
 70
     0
102
RTVSPropertyOp46
 70
     0
102
RTVSPropertyOp47
 70
     0
102
RTVSPropertyOp48
 70
     0
102
RTVSPropertyOp49
 70
     0
102
RTVSPropertyOp50
 70
     0
102
RTVSPropertyOp51
 70
     0
102
RTVSPropertyOp52
 70
     0
102
RTVSPropertyOp53
 70
     0
102
RTVSPropertyOp54
 70
     0
102
RTVSPropertyOp55
 70
     0
102
RTVSPropertyOp56
 70
     0
102
RTVSPropertyOp57
 70
     0
102
RTVSPost2010Prop28
280
     0
102
RTVSPost2010PropOp28
 70
     0
102
RTVSPost2010Prop29
280
     1
102
RTVSPost2010PropOp29
 70
     0
102
RTVSPost2010Prop30
280
     1
102
RTVSPost2010PropOp30
 70
     0
102
RTVSPost2010Prop31
280
     0
102
RTVSPost2010PropOp31
 70
     0
102
RTVSPost2010Prop32
280
     0
102
RTVSPost2010PropOp32
 70
     0
102
RTVSPost2010Prop33
280
     0
102
RTVSPost2010PropOp33
 70
     0
102
RTVSPost2010Prop34
280
     0
102
RTVSPost2010PropOp34
 70
     0
102
RTVSPost2010Prop35
280
     0
102
RTVSPost2010PropOp35
 70
     0
102
RTVSPost2010Prop36
280
     0
102
RTVSPost2010PropOp36
 70
     0
102
RTVSPost2010Prop37
 90
       50
102
RTVSPost2010PropOp37
 70
     0
102
RTVSPost2010Prop38
140
0.0
102
RTVSPost2010PropOp38
 70
     0
102
RTVSPost2010Prop39
140
1.0
102
RTVSPost2010PropOp39
 70
     0
102
RTVSPost2010Prop40
 90
        0
102
RTVSPost2010PropOp40
 70
     0
102
RTVSPost2010Prop41ColorIndex
 90
       18
102
RTVSPost2010Prop41ColorRGB
 90
        0
102
RTVSPost2010PropOp41
 70
     0
102
RTVSPost2010Prop42
 90
       50
102
RTVSPost2010PropOp42
 70
     0
102
RTVSPost2010Prop43
 90
        3
102
RTVSPost2010PropOp43
 70
     0
102
RTVSPost2010Prop44ColorIndex
 90
        5
102
RTVSPost2010Prop44ColorRGB
 90
      255
102
RTVSPost2010PropOp44
 70
     0
102
RTVSPost2010Prop45
280
     0
102
RTVSPost2010PropOp45
 70
     0
102
RTVSPost2010Prop46
 90
       50
102
RTVSPost2010PropOp46
 70
     0
102
RTVSPost2010Prop47
 90
       50
102
RTVSPost2010PropOp47
 70
     0
102
RTVSPost2010Prop48
 90
       50
102
RTVSPost2010PropOp48
 70
     0
102
RTVSPost2010Prop49
280
     0
102
RTVSPost2010PropOp49
 70
     0
102
RTVSPost2010Prop50
 90
       50
102
RTVSPost2010PropOp50
 70
     0
102
RTVSPost2010Prop51ColorIndex
 90
      256
102
RTVSPost2010Prop51ColorRGB
 90
-16777216
102
RTVSPost2010PropOp51
 70
     0
102
RTVSPost2010Prop52
140
1.0
102
RTVSPost2010PropOp52
 70
     0
102
RTVSPost2010Prop53
 90
        2
102
RTVSPost2010PropOp53
 70
     0
102
RTVSPost2010Prop54
  1
strokes_ogs.tif
102
RTVSPost2010PropOp54
 70
     0
102
RTVSPost2010Prop55
280
     0
102
RTVSPost2010PropOp55
 70
     0
102
RTVSPost2010Prop56
140
1.0
102
RTVSPost2010PropOp56
 70
     0
102
RTVSPost2010Prop57
140
1.0
102
RTVSPost2010PropOp57
 70
     0
  0
XRECORD
  5
F3B
102
{ACAD_REACTORS
330
F3A
102
}
330
F3A
100
AcDbXrecord
280
     1
102
RTVSPropertyOp0
 70
     1
102
RTVSPropertyOp1
 70
     1
102
RTVSPropertyOp2
 70
     1
102
RTVSPropertyOp3
 70
     1
102
RTVSPropertyOp4
 70
     1
102
RTVSPropertyOp5
 70
     1
102
RTVSPropertyOp6
 70
     1
102
RTVSPropertyOp7
 70
     1
102
RTVSPropertyOp8
 70
     1
102
RTVSPropertyOp9
 70
     1
102
RTVSPropertyOp10
 70
     1
102
RTVSPropertyOp11
 70
     1
102
RTVSPropertyOp12
 70
     1
102
RTVSPropertyOp13
 70
     1
102
RTVSPropertyOp14
 70
     1
102
RTVSPropertyOp15
 70
     1
102
RTVSPropertyOp16
 70
     1
102
RTVSPropertyOp17
 70
     1
102
RTVSPropertyOp18
 70
     1
102
RTVSPropertyOp19
 70
     1
102
RTVSPropertyOp20
 70
     1
102
RTVSPropertyOp21
 70
     1
102
RTVSPropertyOp22
 70
     1
102
RTVSPropertyOp23
 70
     1
102
RTVSPropertyOp24
 70
     1
102
RTVSPropertyOp25
 70
     1
102
RTVSPropertyOp26
 70
     1
102
RTVSPropertyOp27
 70
     1
102
RTVSPropertyOp28
 70
     1
102
RTVSPropertyOp29
 70
     1
102
RTVSPropertyOp30
 70
     1
102
RTVSPropertyOp31
 70
     1
102
RTVSPropertyOp32
 70
     1
102
RTVSPropertyOp33
 70
     1
102
RTVSPropertyOp34
 70
     1
102
RTVSPropertyOp35
 70
     1
102
RTVSPropertyOp36
 70
     1
102
RTVSPropertyOp37
 70
     1
102
RTVSPropertyOp38
 70
     1
102
RTVSPropertyOp39
 70
     1
102
RTVSPropertyOp40
 70
     1
102
RTVSPropertyOp41
 70
     1
102
RTVSPropertyOp42
 70
     1
102
RTVSPropertyOp43
 70
     1
102
RTVSPropertyOp44
 70
     1
102
RTVSPropertyOp45
 70
     1
102
RTVSPropertyOp46
 70
     1
102
RTVSPropertyOp47
 70
     1
102
RTVSPropertyOp48
 70
     1
102
RTVSPropertyOp49
 70
     1
102
RTVSPropertyOp50
 70
     1
102
RTVSPropertyOp51
 70
     0
102
RTVSPropertyOp52
 70
     0
102
RTVSPropertyOp53
 70
     1
102
RTVSPropertyOp54
 70
     1
102
RTVSPropertyOp55
 70
     1
102
RTVSPropertyOp56
 70
     1
102
RTVSPropertyOp57
 70
     1
102
RTVSPost2010Prop28
280
     0
102
RTVSPost2010PropOp28
 70
     1
102
RTVSPost2010Prop29
280
     1
102
RTVSPost2010PropOp29
 70
     1
102
RTVSPost2010Prop30
280
     1
102
RTVSPost2010PropOp30
 70
     1
102
RTVSPost2010Prop31
280
     0
102
RTVSPost2010PropOp31
 70
     1
102
RTVSPost2010Prop32
280
     0
102
RTVSPost2010PropOp32
 70
     1
102
RTVSPost2010Prop33
280
     0
102
RTVSPost2010PropOp33
 70
     1
102
RTVSPost2010Prop34
280
     0
102
RTVSPost2010PropOp34
 70
     1
102
RTVSPost2010Prop35
280
     0
102
RTVSPost2010PropOp35
 70
     1
102
RTVSPost2010Prop36
280
     0
102
RTVSPost2010PropOp36
 70
     1
102
RTVSPost2010Prop37
 90
       50
102
RTVSPost2010PropOp37
 70
     1
102
RTVSPost2010Prop38
140
0.0
102
RTVSPost2010PropOp38
 70
     1
102
RTVSPost2010Prop39
140
1.0
102
RTVSPost2010PropOp39
 70
     1
102
RTVSPost2010Prop40
 90
        0
102
RTVSPost2010PropOp40
 70
     1
102
RTVSPost2010Prop41ColorIndex
 90
       18
102
RTVSPost2010Prop41ColorRGB
 90
        0
102
RTVSPost2010PropOp41
 70
     1
102
RTVSPost2010Prop42
 90
       50
102
RTVSPost2010PropOp42
 70
     1
102
RTVSPost2010Prop43
 90
        3
102
RTVSPost2010PropOp43
 70
     1
102
RTVSPost2010Prop44ColorIndex
 90
        5
102
RTVSPost2010Prop44ColorRGB
 90
      255
102
RTVSPost2010PropOp44
 70
     1
102
RTVSPost2010Prop45
280
     0
102
RTVSPost2010PropOp45
 70
     1
102
RTVSPost2010Prop46
 90
       50
102
RTVSPost2010PropOp46
 70
     1
102
RTVSPost2010Prop47
 90
       50
102
RTVSPost2010PropOp47
 70
     1
102
RTVSPost2010Prop48
 90
       50
102
RTVSPost2010PropOp48
 70
     1
102
RTVSPost2010Prop49
280
     0
102
RTVSPost2010PropOp49
 70
     1
102
RTVSPost2010Prop50
 90
       50
102
RTVSPost2010PropOp50
 70
     1
102
RTVSPost2010Prop51ColorIndex
 90
      256
102
RTVSPost2010Prop51ColorRGB
 90
-16777216
102
RTVSPost2010PropOp51
 70
     0
102
RTVSPost2010Prop52
140
1.0
102
RTVSPost2010PropOp52
 70
     0
102
RTVSPost2010Prop53
 90
        2
102
RTVSPost2010PropOp53
 70
     1
102
RTVSPost2010Prop54
  1
strokes_ogs.tif
102
RTVSPost2010PropOp54
 70
     1
102
RTVSPost2010Prop55
280
     0
102
RTVSPost2010PropOp55
 70
     1
102
RTVSPost2010Prop56
140
1.0
102
RTVSPost2010PropOp56
 70
     1
102
RTVSPost2010Prop57
140
1.0
102
RTVSPost2010PropOp57
 70
     1
  0
XRECORD
  5
F43
102
{ACAD_REACTORS
330
F42
102
}
330
F42
100
AcDbXrecord
280
     1
102
RTVSPropertyOp0
 70
     0
102
RTVSPropertyOp1
 70
     0
102
RTVSPropertyOp2
 70
     0
102
RTVSPropertyOp3
 70
     0
102
RTVSPropertyOp4
 70
     0
102
RTVSPropertyOp5
 70
     0
102
RTVSPropertyOp6
 70
     0
102
RTVSPropertyOp7
 70
     0
102
RTVSPropertyOp8
 70
     0
102
RTVSPropertyOp9
 70
     0
102
RTVSPropertyOp10
 70
     0
102
RTVSPropertyOp11
 70
     0
102
RTVSPropertyOp12
 70
     0
102
RTVSPropertyOp13
 70
     0
102
RTVSPropertyOp14
 70
     2
102
RTVSPropertyOp15
 70
     0
102
RTVSPropertyOp16
 70
     0
102
RTVSPropertyOp17
 70
     0
102
RTVSPropertyOp18
 70
     0
102
RTVSPropertyOp19
 70
     0
102
RTVSPropertyOp20
 70
     0
102
RTVSPropertyOp21
 70
     0
102
RTVSPropertyOp22
 70
     0
102
RTVSPropertyOp23
 70
     0
102
RTVSPropertyOp24
 70
     0
102
RTVSPropertyOp25
 70
     0
102
RTVSPropertyOp26
 70
     0
102
RTVSPropertyOp27
 70
     0
102
RTVSPropertyOp28
 70
     0
102
RTVSPropertyOp29
 70
     0
102
RTVSPropertyOp30
 70
     0
102
RTVSPropertyOp31
 70
     0
102
RTVSPropertyOp32
 70
     0
102
RTVSPropertyOp33
 70
     0
102
RTVSPropertyOp34
 70
     0
102
RTVSPropertyOp35
 70
     0
102
RTVSPropertyOp36
 70
     0
102
RTVSPropertyOp37
 70
     0
102
RTVSPropertyOp38
 70
     0
102
RTVSPropertyOp39
 70
     0
102
RTVSPropertyOp40
 70
     0
102
RTVSPropertyOp41
 70
     0
102
RTVSPropertyOp42
 70
     0
102
RTVSPropertyOp43
 70
     0
102
RTVSPropertyOp44
 70
     0
102
RTVSPropertyOp45
 70
     0
102
RTVSPropertyOp46
 70
     0
102
RTVSPropertyOp47
 70
     0
102
RTVSPropertyOp48
 70
     0
102
RTVSPropertyOp49
 70
     0
102
RTVSPropertyOp50
 70
     0
102
RTVSPropertyOp51
 70
     0
102
RTVSPropertyOp52
 70
     0
102
RTVSPropertyOp53
 70
     0
102
RTVSPropertyOp54
 70
     0
102
RTVSPropertyOp55
 70
     0
102
RTVSPropertyOp56
 70
     0
102
RTVSPropertyOp57
 70
     0
102
RTVSPost2010Prop28
280
     0
102
RTVSPost2010PropOp28
 70
     0
102
RTVSPost2010Prop29
280
     1
102
RTVSPost2010PropOp29
 70
     0
102
RTVSPost2010Prop30
280
     1
102
RTVSPost2010PropOp30
 70
     0
102
RTVSPost2010Prop31
280
     0
102
RTVSPost2010PropOp31
 70
     0
102
RTVSPost2010Prop32
280
     0
102
RTVSPost2010PropOp32
 70
     0
102
RTVSPost2010Prop33
280
     0
102
RTVSPost2010PropOp33
 70
     0
102
RTVSPost2010Prop34
280
     0
102
RTVSPost2010PropOp34
 70
     0
102
RTVSPost2010Prop35
280
     0
102
RTVSPost2010PropOp35
 70
     0
102
RTVSPost2010Prop36
280
     0
102
RTVSPost2010PropOp36
 70
     0
102
RTVSPost2010Prop37
 90
       50
102
RTVSPost2010PropOp37
 70
     0
102
RTVSPost2010Prop38
140
0.0
102
RTVSPost2010PropOp38
 70
     0
102
RTVSPost2010Prop39
140
1.0
102
RTVSPost2010PropOp39
 70
     0
102
RTVSPost2010Prop40
 90
        0
102
RTVSPost2010PropOp40
 70
     0
102
RTVSPost2010Prop41ColorIndex
 90
       18
102
RTVSPost2010Prop41ColorRGB
 90
        0
102
RTVSPost2010PropOp41
 70
     0
102
RTVSPost2010Prop42
 90
       50
102
RTVSPost2010PropOp42
 70
     0
102
RTVSPost2010Prop43
 90
        3
102
RTVSPost2010PropOp43
 70
     0
102
RTVSPost2010Prop44ColorIndex
 90
        5
102
RTVSPost2010Prop44ColorRGB
 90
      255
102
RTVSPost2010PropOp44
 70
     0
102
RTVSPost2010Prop45
280
     0
102
RTVSPost2010PropOp45
 70
     0
102
RTVSPost2010Prop46
 90
       50
102
RTVSPost2010PropOp46
 70
     0
102
RTVSPost2010Prop47
 90
       50
102
RTVSPost2010PropOp47
 70
     0
102
RTVSPost2010Prop48
 90
       50
102
RTVSPost2010PropOp48
 70
     0
102
RTVSPost2010Prop49
280
     0
102
RTVSPost2010PropOp49
 70
     0
102
RTVSPost2010Prop50
 90
       50
102
RTVSPost2010PropOp50
 70
     0
102
RTVSPost2010Prop51ColorIndex
 90
      256
102
RTVSPost2010Prop51ColorRGB
 90
-16777216
102
RTVSPost2010PropOp51
 70
     0
102
RTVSPost2010Prop52
140
1.0
102
RTVSPost2010PropOp52
 70
     0
102
RTVSPost2010Prop53
 90
        2
102
RTVSPost2010PropOp53
 70
     0
102
RTVSPost2010Prop54
  1
strokes_ogs.tif
102
RTVSPost2010PropOp54
 70
     0
102
RTVSPost2010Prop55
280
     0
102
RTVSPost2010PropOp55
 70
     0
102
RTVSPost2010Prop56
140
1.0
102
RTVSPost2010PropOp56
 70
     0
102
RTVSPost2010Prop57
140
1.0
102
RTVSPost2010PropOp57
 70
     0
  0
XRECORD
  5
F31
102
{ACAD_REACTORS
330
F30
102
}
330
F30
100
AcDbXrecord
280
     1
102
RTVSPropertyOp0
 70
     1
102
RTVSPropertyOp1
 70
     1
102
RTVSPropertyOp2
 70
     1
102
RTVSPropertyOp3
 70
     1
102
RTVSPropertyOp4
 70
     1
102
RTVSPropertyOp5
 70
     1
102
RTVSPropertyOp6
 70
     1
102
RTVSPropertyOp7
 70
     1
102
RTVSPropertyOp8
 70
     1
102
RTVSPropertyOp9
 70
     1
102
RTVSPropertyOp10
 70
     1
102
RTVSPropertyOp11
 70
     1
102
RTVSPropertyOp12
 70
     1
102
RTVSPropertyOp13
 70
     1
102
RTVSPropertyOp14
 70
     1
102
RTVSPropertyOp15
 70
     1
102
RTVSPropertyOp16
 70
     1
102
RTVSPropertyOp17
 70
     1
102
RTVSPropertyOp18
 70
     1
102
RTVSPropertyOp19
 70
     1
102
RTVSPropertyOp20
 70
     1
102
RTVSPropertyOp21
 70
     1
102
RTVSPropertyOp22
 70
     1
102
RTVSPropertyOp23
 70
     1
102
RTVSPropertyOp24
 70
     1
102
RTVSPropertyOp25
 70
     1
102
RTVSPropertyOp26
 70
     1
102
RTVSPropertyOp27
 70
     1
102
RTVSPropertyOp28
 70
     1
102
RTVSPropertyOp29
 70
     1
102
RTVSPropertyOp30
 70
     1
102
RTVSPropertyOp31
 70
     1
102
RTVSPropertyOp32
 70
     1
102
RTVSPropertyOp33
 70
     1
102
RTVSPropertyOp34
 70
     1
102
RTVSPropertyOp35
 70
     1
102
RTVSPropertyOp36
 70
     1
102
RTVSPropertyOp37
 70
     1
102
RTVSPropertyOp38
 70
     1
102
RTVSPropertyOp39
 70
     1
102
RTVSPropertyOp40
 70
     1
102
RTVSPropertyOp41
 70
     1
102
RTVSPropertyOp42
 70
     1
102
RTVSPropertyOp43
 70
     1
102
RTVSPropertyOp44
 70
     1
102
RTVSPropertyOp45
 70
     1
102
RTVSPropertyOp46
 70
     1
102
RTVSPropertyOp47
 70
     1
102
RTVSPropertyOp48
 70
     1
102
RTVSPropertyOp49
 70
     1
102
RTVSPropertyOp50
 70
     1
102
RTVSPropertyOp51
 70
     0
102
RTVSPropertyOp52
 70
     0
102
RTVSPropertyOp53
 70
     1
102
RTVSPropertyOp54
 70
     1
102
RTVSPropertyOp55
 70
     1
102
RTVSPropertyOp56
 70
     1
102
RTVSPropertyOp57
 70
     1
102
RTVSPost2010Prop28
280
     0
102
RTVSPost2010PropOp28
 70
     1
102
RTVSPost2010Prop29
280
     1
102
RTVSPost2010PropOp29
 70
     1
102
RTVSPost2010Prop30
280
     1
102
RTVSPost2010PropOp30
 70
     1
102
RTVSPost2010Prop31
280
     0
102
RTVSPost2010PropOp31
 70
     1
102
RTVSPost2010Prop32
280
     0
102
RTVSPost2010PropOp32
 70
     1
102
RTVSPost2010Prop33
280
     0
102
RTVSPost2010PropOp33
 70
     1
102
RTVSPost2010Prop34
280
     0
102
RTVSPost2010PropOp34
 70
     1
102
RTVSPost2010Prop35
280
     0
102
RTVSPost2010PropOp35
 70
     1
102
RTVSPost2010Prop36
280
     0
102
RTVSPost2010PropOp36
 70
     1
102
RTVSPost2010Prop37
 90
       50
102
RTVSPost2010PropOp37
 70
     1
102
RTVSPost2010Prop38
140
0.0
102
RTVSPost2010PropOp38
 70
     1
102
RTVSPost2010Prop39
140
1.0
102
RTVSPost2010PropOp39
 70
     1
102
RTVSPost2010Prop40
 90
        0
102
RTVSPost2010PropOp40
 70
     1
102
RTVSPost2010Prop41ColorIndex
 90
       18
102
RTVSPost2010Prop41ColorRGB
 90
        0
102
RTVSPost2010PropOp41
 70
     1
102
RTVSPost2010Prop42
 90
       50
102
RTVSPost2010PropOp42
 70
     1
102
RTVSPost2010Prop43
 90
        3
102
RTVSPost2010PropOp43
 70
     1
102
RTVSPost2010Prop44ColorIndex
 90
        5
102
RTVSPost2010Prop44ColorRGB
 90
      255
102
RTVSPost2010PropOp44
 70
     1
102
RTVSPost2010Prop45
280
     0
102
RTVSPost2010PropOp45
 70
     1
102
RTVSPost2010Prop46
 90
       50
102
RTVSPost2010PropOp46
 70
     1
102
RTVSPost2010Prop47
 90
       50
102
RTVSPost2010PropOp47
 70
     1
102
RTVSPost2010Prop48
 90
       50
102
RTVSPost2010PropOp48
 70
     1
102
RTVSPost2010Prop49
280
     0
102
RTVSPost2010PropOp49
 70
     1
102
RTVSPost2010Prop50
 90
       50
102
RTVSPost2010PropOp50
 70
     1
102
RTVSPost2010Prop51ColorIndex
 90
      256
102
RTVSPost2010Prop51ColorRGB
 90
-16777216
102
RTVSPost2010PropOp51
 70
     0
102
RTVSPost2010Prop52
140
1.0
102
RTVSPost2010PropOp52
 70
     0
102
RTVSPost2010Prop53
 90
        2
102
RTVSPost2010PropOp53
 70
     1
102
RTVSPost2010Prop54
  1
strokes_ogs.tif
102
RTVSPost2010PropOp54
 70
     1
102
RTVSPost2010Prop55
280
     0
102
RTVSPost2010PropOp55
 70
     1
102
RTVSPost2010Prop56
140
1.0
102
RTVSPost2010PropOp56
 70
     1
102
RTVSPost2010Prop57
140
1.0
102
RTVSPost2010PropOp57
 70
     1
  0
XRECORD
  5
F4F
102
{ACAD_REACTORS
330
F4E
102
}
330
F4E
100
AcDbXrecord
280
     1
102
RTVSPropertyOp0
 70
     1
102
RTVSPropertyOp1
 70
     1
102
RTVSPropertyOp2
 70
     1
102
RTVSPropertyOp3
 70
     1
102
RTVSPropertyOp4
 70
     1
102
RTVSPropertyOp5
 70
     1
102
RTVSPropertyOp6
 70
     1
102
RTVSPropertyOp7
 70
     1
102
RTVSPropertyOp8
 70
     1
102
RTVSPropertyOp9
 70
     1
102
RTVSPropertyOp10
 70
     1
102
RTVSPropertyOp11
 70
     1
102
RTVSPropertyOp12
 70
     1
102
RTVSPropertyOp13
 70
     1
102
RTVSPropertyOp14
 70
     1
102
RTVSPropertyOp15
 70
     1
102
RTVSPropertyOp16
 70
     1
102
RTVSPropertyOp17
 70
     1
102
RTVSPropertyOp18
 70
     1
102
RTVSPropertyOp19
 70
     1
102
RTVSPropertyOp20
 70
     1
102
RTVSPropertyOp21
 70
     1
102
RTVSPropertyOp22
 70
     1
102
RTVSPropertyOp23
 70
     1
102
RTVSPropertyOp24
 70
     1
102
RTVSPropertyOp25
 70
     1
102
RTVSPropertyOp26
 70
     1
102
RTVSPropertyOp27
 70
     1
102
RTVSPropertyOp28
 70
     1
102
RTVSPropertyOp29
 70
     1
102
RTVSPropertyOp30
 70
     1
102
RTVSPropertyOp31
 70
     1
102
RTVSPropertyOp32
 70
     1
102
RTVSPropertyOp33
 70
     1
102
RTVSPropertyOp34
 70
     1
102
RTVSPropertyOp35
 70
     1
102
RTVSPropertyOp36
 70
     1
102
RTVSPropertyOp37
 70
     1
102
RTVSPropertyOp38
 70
     1
102
RTVSPropertyOp39
 70
     1
102
RTVSPropertyOp40
 70
     1
102
RTVSPropertyOp41
 70
     1
102
RTVSPropertyOp42
 70
     1
102
RTVSPropertyOp43
 70
     1
102
RTVSPropertyOp44
 70
     1
102
RTVSPropertyOp45
 70
     1
102
RTVSPropertyOp46
 70
     1
102
RTVSPropertyOp47
 70
     1
102
RTVSPropertyOp48
 70
     1
102
RTVSPropertyOp49
 70
     1
102
RTVSPropertyOp50
 70
     1
102
RTVSPropertyOp51
 70
     0
102
RTVSPropertyOp52
 70
     0
102
RTVSPropertyOp53
 70
     1
102
RTVSPropertyOp54
 70
     1
102
RTVSPropertyOp55
 70
     1
102
RTVSPropertyOp56
 70
     1
102
RTVSPropertyOp57
 70
     1
102
RTVSPost2010Prop28
280
     0
102
RTVSPost2010PropOp28
 70
     1
102
RTVSPost2010Prop29
280
     1
102
RTVSPost2010PropOp29
 70
     1
102
RTVSPost2010Prop30
280
     1
102
RTVSPost2010PropOp30
 70
     1
102
RTVSPost2010Prop31
280
     0
102
RTVSPost2010PropOp31
 70
     1
102
RTVSPost2010Prop32
280
     0
102
RTVSPost2010PropOp32
 70
     1
102
RTVSPost2010Prop33
280
     0
102
RTVSPost2010PropOp33
 70
     1
102
RTVSPost2010Prop34
280
     0
102
RTVSPost2010PropOp34
 70
     1
102
RTVSPost2010Prop35
280
     0
102
RTVSPost2010PropOp35
 70
     1
102
RTVSPost2010Prop36
280
     0
102
RTVSPost2010PropOp36
 70
     1
102
RTVSPost2010Prop37
 90
       50
102
RTVSPost2010PropOp37
 70
     1
102
RTVSPost2010Prop38
140
0.0
102
RTVSPost2010PropOp38
 70
     1
102
RTVSPost2010Prop39
140
1.0
102
RTVSPost2010PropOp39
 70
     1
102
RTVSPost2010Prop40
 90
        0
102
RTVSPost2010PropOp40
 70
     1
102
RTVSPost2010Prop41ColorIndex
 90
       18
102
RTVSPost2010Prop41ColorRGB
 90
        0
102
RTVSPost2010PropOp41
 70
     1
102
RTVSPost2010Prop42
 90
       50
102
RTVSPost2010PropOp42
 70
     1
102
RTVSPost2010Prop43
 90
        3
102
RTVSPost2010PropOp43
 70
     1
102
RTVSPost2010Prop44ColorIndex
 90
        5
102
RTVSPost2010Prop44ColorRGB
 90
      255
102
RTVSPost2010PropOp44
 70
     1
102
RTVSPost2010Prop45
280
     0
102
RTVSPost2010PropOp45
 70
     1
102
RTVSPost2010Prop46
 90
       50
102
RTVSPost2010PropOp46
 70
     1
102
RTVSPost2010Prop47
 90
       50
102
RTVSPost2010PropOp47
 70
     1
102
RTVSPost2010Prop48
 90
       50
102
RTVSPost2010PropOp48
 70
     1
102
RTVSPost2010Prop49
280
     0
102
RTVSPost2010PropOp49
 70
     1
102
RTVSPost2010Prop50
 90
       50
102
RTVSPost2010PropOp50
 70
     1
102
RTVSPost2010Prop51ColorIndex
 90
      256
102
RTVSPost2010Prop51ColorRGB
 90
-16777216
102
RTVSPost2010PropOp51
 70
     0
102
RTVSPost2010Prop52
140
1.0
102
RTVSPost2010PropOp52
 70
     0
102
RTVSPost2010Prop53
 90
        2
102
RTVSPost2010PropOp53
 70
     1
102
RTVSPost2010Prop54
  1
strokes_ogs.tif
102
RTVSPost2010PropOp54
 70
     1
102
RTVSPost2010Prop55
280
     0
102
RTVSPost2010PropOp55
 70
     1
102
RTVSPost2010Prop56
140
1.0
102
RTVSPost2010PropOp56
 70
     1
102
RTVSPost2010Prop57
140
1.0
102
RTVSPost2010PropOp57
 70
     1
  0
XRECORD
  5
F4D
102
{ACAD_REACTORS
330
F4C
102
}
330
F4C
100
AcDbXrecord
280
     1
102
RTVSPropertyOp0
 70
     1
102
RTVSPropertyOp1
 70
     1
102
RTVSPropertyOp2
 70
     1
102
RTVSPropertyOp3
 70
     1
102
RTVSPropertyOp4
 70
     1
102
RTVSPropertyOp5
 70
     1
102
RTVSPropertyOp6
 70
     1
102
RTVSPropertyOp7
 70
     1
102
RTVSPropertyOp8
 70
     1
102
RTVSPropertyOp9
 70
     1
102
RTVSPropertyOp10
 70
     1
102
RTVSPropertyOp11
 70
     1
102
RTVSPropertyOp12
 70
     1
102
RTVSPropertyOp13
 70
     1
102
RTVSPropertyOp14
 70
     1
102
RTVSPropertyOp15
 70
     1
102
RTVSPropertyOp16
 70
     1
102
RTVSPropertyOp17
 70
     1
102
RTVSPropertyOp18
 70
     1
102
RTVSPropertyOp19
 70
     1
102
RTVSPropertyOp20
 70
     1
102
RTVSPropertyOp21
 70
     1
102
RTVSPropertyOp22
 70
     1
102
RTVSPropertyOp23
 70
     1
102
RTVSPropertyOp24
 70
     1
102
RTVSPropertyOp25
 70
     1
102
RTVSPropertyOp26
 70
     1
102
RTVSPropertyOp27
 70
     1
102
RTVSPropertyOp28
 70
     1
102
RTVSPropertyOp29
 70
     1
102
RTVSPropertyOp30
 70
     1
102
RTVSPropertyOp31
 70
     1
102
RTVSPropertyOp32
 70
     1
102
RTVSPropertyOp33
 70
     1
102
RTVSPropertyOp34
 70
     1
102
RTVSPropertyOp35
 70
     1
102
RTVSPropertyOp36
 70
     1
102
RTVSPropertyOp37
 70
     1
102
RTVSPropertyOp38
 70
     1
102
RTVSPropertyOp39
 70
     1
102
RTVSPropertyOp40
 70
     1
102
RTVSPropertyOp41
 70
     1
102
RTVSPropertyOp42
 70
     1
102
RTVSPropertyOp43
 70
     1
102
RTVSPropertyOp44
 70
     1
102
RTVSPropertyOp45
 70
     1
102
RTVSPropertyOp46
 70
     1
102
RTVSPropertyOp47
 70
     1
102
RTVSPropertyOp48
 70
     1
102
RTVSPropertyOp49
 70
     1
102
RTVSPropertyOp50
 70
     1
102
RTVSPropertyOp51
 70
     0
102
RTVSPropertyOp52
 70
     0
102
RTVSPropertyOp53
 70
     1
102
RTVSPropertyOp54
 70
     1
102
RTVSPropertyOp55
 70
     1
102
RTVSPropertyOp56
 70
     1
102
RTVSPropertyOp57
 70
     1
102
RTVSPost2010Prop28
280
     0
102
RTVSPost2010PropOp28
 70
     1
102
RTVSPost2010Prop29
280
     1
102
RTVSPost2010PropOp29
 70
     1
102
RTVSPost2010Prop30
280
     1
102
RTVSPost2010PropOp30
 70
     1
102
RTVSPost2010Prop31
280
     0
102
RTVSPost2010PropOp31
 70
     1
102
RTVSPost2010Prop32
280
     0
102
RTVSPost2010PropOp32
 70
     1
102
RTVSPost2010Prop33
280
     0
102
RTVSPost2010PropOp33
 70
     1
102
RTVSPost2010Prop34
280
     0
102
RTVSPost2010PropOp34
 70
     1
102
RTVSPost2010Prop35
280
     0
102
RTVSPost2010PropOp35
 70
     1
102
RTVSPost2010Prop36
280
     0
102
RTVSPost2010PropOp36
 70
     1
102
RTVSPost2010Prop37
 90
       50
102
RTVSPost2010PropOp37
 70
     1
102
RTVSPost2010Prop38
140
0.0
102
RTVSPost2010PropOp38
 70
     1
102
RTVSPost2010Prop39
140
1.0
102
RTVSPost2010PropOp39
 70
     1
102
RTVSPost2010Prop40
 90
        0
102
RTVSPost2010PropOp40
 70
     1
102
RTVSPost2010Prop41ColorIndex
 90
       18
102
RTVSPost2010Prop41ColorRGB
 90
        0
102
RTVSPost2010PropOp41
 70
     1
102
RTVSPost2010Prop42
 90
       50
102
RTVSPost2010PropOp42
 70
     1
102
RTVSPost2010Prop43
 90
        3
102
RTVSPost2010PropOp43
 70
     1
102
RTVSPost2010Prop44ColorIndex
 90
        5
102
RTVSPost2010Prop44ColorRGB
 90
      255
102
RTVSPost2010PropOp44
 70
     1
102
RTVSPost2010Prop45
280
     0
102
RTVSPost2010PropOp45
 70
     1
102
RTVSPost2010Prop46
 90
       50
102
RTVSPost2010PropOp46
 70
     1
102
RTVSPost2010Prop47
 90
       50
102
RTVSPost2010PropOp47
 70
     1
102
RTVSPost2010Prop48
 90
       50
102
RTVSPost2010PropOp48
 70
     1
102
RTVSPost2010Prop49
280
     0
102
RTVSPost2010PropOp49
 70
     1
102
RTVSPost2010Prop50
 90
       50
102
RTVSPost2010PropOp50
 70
     1
102
RTVSPost2010Prop51ColorIndex
 90
      256
102
RTVSPost2010Prop51ColorRGB
 90
-16777216
102
RTVSPost2010PropOp51
 70
     0
102
RTVSPost2010Prop52
140
1.0
102
RTVSPost2010PropOp52
 70
     0
102
RTVSPost2010Prop53
 90
        2
102
RTVSPost2010PropOp53
 70
     1
102
RTVSPost2010Prop54
  1
strokes_ogs.tif
102
RTVSPost2010PropOp54
 70
     1
102
RTVSPost2010Prop55
280
     0
102
RTVSPost2010PropOp55
 70
     1
102
RTVSPost2010Prop56
140
1.0
102
RTVSPost2010PropOp56
 70
     1
102
RTVSPost2010Prop57
140
1.0
102
RTVSPost2010PropOp57
 70
     1
  0
XRECORD
  5
F47
102
{ACAD_REACTORS
330
F46
102
}
330
F46
100
AcDbXrecord
280
     1
102
RTVSPropertyOp0
 70
     1
102
RTVSPropertyOp1
 70
     1
102
RTVSPropertyOp2
 70
     1
102
RTVSPropertyOp3
 70
     1
102
RTVSPropertyOp4
 70
     1
102
RTVSPropertyOp5
 70
     1
102
RTVSPropertyOp6
 70
     1
102
RTVSPropertyOp7
 70
     1
102
RTVSPropertyOp8
 70
     1
102
RTVSPropertyOp9
 70
     1
102
RTVSPropertyOp10
 70
     1
102
RTVSPropertyOp11
 70
     1
102
RTVSPropertyOp12
 70
     1
102
RTVSPropertyOp13
 70
     1
102
RTVSPropertyOp14
 70
     1
102
RTVSPropertyOp15
 70
     1
102
RTVSPropertyOp16
 70
     1
102
RTVSPropertyOp17
 70
     1
102
RTVSPropertyOp18
 70
     1
102
RTVSPropertyOp19
 70
     1
102
RTVSPropertyOp20
 70
     1
102
RTVSPropertyOp21
 70
     1
102
RTVSPropertyOp22
 70
     1
102
RTVSPropertyOp23
 70
     1
102
RTVSPropertyOp24
 70
     1
102
RTVSPropertyOp25
 70
     1
102
RTVSPropertyOp26
 70
     1
102
RTVSPropertyOp27
 70
     1
102
RTVSPropertyOp28
 70
     1
102
RTVSPropertyOp29
 70
     1
102
RTVSPropertyOp30
 70
     1
102
RTVSPropertyOp31
 70
     1
102
RTVSPropertyOp32
 70
     1
102
RTVSPropertyOp33
 70
     1
102
RTVSPropertyOp34
 70
     1
102
RTVSPropertyOp35
 70
     1
102
RTVSPropertyOp36
 70
     1
102
RTVSPropertyOp37
 70
     1
102
RTVSPropertyOp38
 70
     1
102
RTVSPropertyOp39
 70
     1
102
RTVSPropertyOp40
 70
     1
102
RTVSPropertyOp41
 70
     1
102
RTVSPropertyOp42
 70
     1
102
RTVSPropertyOp43
 70
     1
102
RTVSPropertyOp44
 70
     1
102
RTVSPropertyOp45
 70
     1
102
RTVSPropertyOp46
 70
     1
102
RTVSPropertyOp47
 70
     1
102
RTVSPropertyOp48
 70
     1
102
RTVSPropertyOp49
 70
     1
102
RTVSPropertyOp50
 70
     1
102
RTVSPropertyOp51
 70
     0
102
RTVSPropertyOp52
 70
     0
102
RTVSPropertyOp53
 70
     1
102
RTVSPropertyOp54
 70
     1
102
RTVSPropertyOp55
 70
     1
102
RTVSPropertyOp56
 70
     1
102
RTVSPropertyOp57
 70
     1
102
RTVSPost2010Prop28
280
     0
102
RTVSPost2010PropOp28
 70
     1
102
RTVSPost2010Prop29
280
     1
102
RTVSPost2010PropOp29
 70
     1
102
RTVSPost2010Prop30
280
     1
102
RTVSPost2010PropOp30
 70
     1
102
RTVSPost2010Prop31
280
     0
102
RTVSPost2010PropOp31
 70
     1
102
RTVSPost2010Prop32
280
     0
102
RTVSPost2010PropOp32
 70
     1
102
RTVSPost2010Prop33
280
     0
102
RTVSPost2010PropOp33
 70
     1
102
RTVSPost2010Prop34
280
     0
102
RTVSPost2010PropOp34
 70
     1
102
RTVSPost2010Prop35
280
     0
102
RTVSPost2010PropOp35
 70
     1
102
RTVSPost2010Prop36
280
     0
102
RTVSPost2010PropOp36
 70
     1
102
RTVSPost2010Prop37
 90
       50
102
RTVSPost2010PropOp37
 70
     1
102
RTVSPost2010Prop38
140
0.0
102
RTVSPost2010PropOp38
 70
     1
102
RTVSPost2010Prop39
140
1.0
102
RTVSPost2010PropOp39
 70
     1
102
RTVSPost2010Prop40
 90
        0
102
RTVSPost2010PropOp40
 70
     1
102
RTVSPost2010Prop41ColorIndex
 90
       18
102
RTVSPost2010Prop41ColorRGB
 90
        0
102
RTVSPost2010PropOp41
 70
     1
102
RTVSPost2010Prop42
 90
       50
102
RTVSPost2010PropOp42
 70
     1
102
RTVSPost2010Prop43
 90
        3
102
RTVSPost2010PropOp43
 70
     1
102
RTVSPost2010Prop44ColorIndex
 90
        5
102
RTVSPost2010Prop44ColorRGB
 90
      255
102
RTVSPost2010PropOp44
 70
     1
102
RTVSPost2010Prop45
280
     0
102
RTVSPost2010PropOp45
 70
     1
102
RTVSPost2010Prop46
 90
       50
102
RTVSPost2010PropOp46
 70
     1
102
RTVSPost2010Prop47
 90
       50
102
RTVSPost2010PropOp47
 70
     1
102
RTVSPost2010Prop48
 90
       50
102
RTVSPost2010PropOp48
 70
     1
102
RTVSPost2010Prop49
280
     0
102
RTVSPost2010PropOp49
 70
     1
102
RTVSPost2010Prop50
 90
       50
102
RTVSPost2010PropOp50
 70
     1
102
RTVSPost2010Prop51ColorIndex
 90
      256
102
RTVSPost2010Prop51ColorRGB
 90
-16777216
102
RTVSPost2010PropOp51
 70
     0
102
RTVSPost2010Prop52
140
1.0
102
RTVSPost2010PropOp52
 70
     0
102
RTVSPost2010Prop53
 90
        2
102
RTVSPost2010PropOp53
 70
     1
102
RTVSPost2010Prop54
  1
strokes_ogs.tif
102
RTVSPost2010PropOp54
 70
     1
102
RTVSPost2010Prop55
280
     0
102
RTVSPost2010PropOp55
 70
     1
102
RTVSPost2010Prop56
140
1.0
102
RTVSPost2010PropOp56
 70
     1
102
RTVSPost2010Prop57
140
1.0
102
RTVSPost2010PropOp57
 70
     1
  0
XRECORD
  5
F49
102
{ACAD_REACTORS
330
F48
102
}
330
F48
100
AcDbXrecord
280
     1
102
RTVSPropertyOp0
 70
     1
102
RTVSPropertyOp1
 70
     1
102
RTVSPropertyOp2
 70
     1
102
RTVSPropertyOp3
 70
     1
102
RTVSPropertyOp4
 70
     1
102
RTVSPropertyOp5
 70
     1
102
RTVSPropertyOp6
 70
     1
102
RTVSPropertyOp7
 70
     1
102
RTVSPropertyOp8
 70
     1
102
RTVSPropertyOp9
 70
     1
102
RTVSPropertyOp10
 70
     1
102
RTVSPropertyOp11
 70
     1
102
RTVSPropertyOp12
 70
     1
102
RTVSPropertyOp13
 70
     1
102
RTVSPropertyOp14
 70
     1
102
RTVSPropertyOp15
 70
     1
102
RTVSPropertyOp16
 70
     1
102
RTVSPropertyOp17
 70
     1
102
RTVSPropertyOp18
 70
     1
102
RTVSPropertyOp19
 70
     1
102
RTVSPropertyOp20
 70
     1
102
RTVSPropertyOp21
 70
     1
102
RTVSPropertyOp22
 70
     1
102
RTVSPropertyOp23
 70
     1
102
RTVSPropertyOp24
 70
     1
102
RTVSPropertyOp25
 70
     1
102
RTVSPropertyOp26
 70
     1
102
RTVSPropertyOp27
 70
     1
102
RTVSPropertyOp28
 70
     1
102
RTVSPropertyOp29
 70
     1
102
RTVSPropertyOp30
 70
     1
102
RTVSPropertyOp31
 70
     1
102
RTVSPropertyOp32
 70
     1
102
RTVSPropertyOp33
 70
     1
102
RTVSPropertyOp34
 70
     1
102
RTVSPropertyOp35
 70
     1
102
RTVSPropertyOp36
 70
     1
102
RTVSPropertyOp37
 70
     1
102
RTVSPropertyOp38
 70
     1
102
RTVSPropertyOp39
 70
     1
102
RTVSPropertyOp40
 70
     1
102
RTVSPropertyOp41
 70
     1
102
RTVSPropertyOp42
 70
     1
102
RTVSPropertyOp43
 70
     1
102
RTVSPropertyOp44
 70
     1
102
RTVSPropertyOp45
 70
     1
102
RTVSPropertyOp46
 70
     1
102
RTVSPropertyOp47
 70
     1
102
RTVSPropertyOp48
 70
     1
102
RTVSPropertyOp49
 70
     1
102
RTVSPropertyOp50
 70
     1
102
RTVSPropertyOp51
 70
     0
102
RTVSPropertyOp52
 70
     0
102
RTVSPropertyOp53
 70
     1
102
RTVSPropertyOp54
 70
     1
102
RTVSPropertyOp55
 70
     1
102
RTVSPropertyOp56
 70
     1
102
RTVSPropertyOp57
 70
     1
102
RTVSPost2010Prop28
280
     0
102
RTVSPost2010PropOp28
 70
     1
102
RTVSPost2010Prop29
280
     1
102
RTVSPost2010PropOp29
 70
     1
102
RTVSPost2010Prop30
280
     1
102
RTVSPost2010PropOp30
 70
     1
102
RTVSPost2010Prop31
280
     0
102
RTVSPost2010PropOp31
 70
     1
102
RTVSPost2010Prop32
280
     0
102
RTVSPost2010PropOp32
 70
     1
102
RTVSPost2010Prop33
280
     0
102
RTVSPost2010PropOp33
 70
     1
102
RTVSPost2010Prop34
280
     0
102
RTVSPost2010PropOp34
 70
     1
102
RTVSPost2010Prop35
280
     0
102
RTVSPost2010PropOp35
 70
     1
102
RTVSPost2010Prop36
280
     0
102
RTVSPost2010PropOp36
 70
     1
102
RTVSPost2010Prop37
 90
       50
102
RTVSPost2010PropOp37
 70
     1
102
RTVSPost2010Prop38
140
0.0
102
RTVSPost2010PropOp38
 70
     1
102
RTVSPost2010Prop39
140
1.0
102
RTVSPost2010PropOp39
 70
     1
102
RTVSPost2010Prop40
 90
        0
102
RTVSPost2010PropOp40
 70
     1
102
RTVSPost2010Prop41ColorIndex
 90
       18
102
RTVSPost2010Prop41ColorRGB
 90
        0
102
RTVSPost2010PropOp41
 70
     1
102
RTVSPost2010Prop42
 90
       50
102
RTVSPost2010PropOp42
 70
     1
102
RTVSPost2010Prop43
 90
        3
102
RTVSPost2010PropOp43
 70
     1
102
RTVSPost2010Prop44ColorIndex
 90
        5
102
RTVSPost2010Prop44ColorRGB
 90
      255
102
RTVSPost2010PropOp44
 70
     1
102
RTVSPost2010Prop45
280
     0
102
RTVSPost2010PropOp45
 70
     1
102
RTVSPost2010Prop46
 90
       50
102
RTVSPost2010PropOp46
 70
     1
102
RTVSPost2010Prop47
 90
       50
102
RTVSPost2010PropOp47
 70
     1
102
RTVSPost2010Prop48
 90
       50
102
RTVSPost2010PropOp48
 70
     1
102
RTVSPost2010Prop49
280
     0
102
RTVSPost2010PropOp49
 70
     1
102
RTVSPost2010Prop50
 90
       50
102
RTVSPost2010PropOp50
 70
     1
102
RTVSPost2010Prop51ColorIndex
 90
      256
102
RTVSPost2010Prop51ColorRGB
 90
-16777216
102
RTVSPost2010PropOp51
 70
     0
102
RTVSPost2010Prop52
140
1.0
102
RTVSPost2010PropOp52
 70
     0
102
RTVSPost2010Prop53
 90
        2
102
RTVSPost2010PropOp53
 70
     1
102
RTVSPost2010Prop54
  1
strokes_ogs.tif
102
RTVSPost2010PropOp54
 70
     1
102
RTVSPost2010Prop55
280
     0
102
RTVSPost2010PropOp55
 70
     1
102
RTVSPost2010Prop56
140
1.0
102
RTVSPost2010PropOp56
 70
     1
102
RTVSPost2010Prop57
140
1.0
102
RTVSPost2010PropOp57
 70
     1
  0
XRECORD
  5
F39
102
{ACAD_REACTORS
330
F38
102
}
330
F38
100
AcDbXrecord
280
     1
102
RTVSPropertyOp0
 70
     1
102
RTVSPropertyOp1
 70
     1
102
RTVSPropertyOp2
 70
     1
102
RTVSPropertyOp3
 70
     1
102
RTVSPropertyOp4
 70
     1
102
RTVSPropertyOp5
 70
     1
102
RTVSPropertyOp6
 70
     1
102
RTVSPropertyOp7
 70
     1
102
RTVSPropertyOp8
 70
     1
102
RTVSPropertyOp9
 70
     1
102
RTVSPropertyOp10
 70
     1
102
RTVSPropertyOp11
 70
     1
102
RTVSPropertyOp12
 70
     1
102
RTVSPropertyOp13
 70
     1
102
RTVSPropertyOp14
 70
     1
102
RTVSPropertyOp15
 70
     1
102
RTVSPropertyOp16
 70
     1
102
RTVSPropertyOp17
 70
     1
102
RTVSPropertyOp18
 70
     1
102
RTVSPropertyOp19
 70
     1
102
RTVSPropertyOp20
 70
     1
102
RTVSPropertyOp21
 70
     1
102
RTVSPropertyOp22
 70
     1
102
RTVSPropertyOp23
 70
     1
102
RTVSPropertyOp24
 70
     1
102
RTVSPropertyOp25
 70
     1
102
RTVSPropertyOp26
 70
     1
102
RTVSPropertyOp27
 70
     1
102
RTVSPropertyOp28
 70
     1
102
RTVSPropertyOp29
 70
     1
102
RTVSPropertyOp30
 70
     1
102
RTVSPropertyOp31
 70
     1
102
RTVSPropertyOp32
 70
     1
102
RTVSPropertyOp33
 70
     1
102
RTVSPropertyOp34
 70
     1
102
RTVSPropertyOp35
 70
     1
102
RTVSPropertyOp36
 70
     1
102
RTVSPropertyOp37
 70
     1
102
RTVSPropertyOp38
 70
     1
102
RTVSPropertyOp39
 70
     1
102
RTVSPropertyOp40
 70
     1
102
RTVSPropertyOp41
 70
     1
102
RTVSPropertyOp42
 70
     1
102
RTVSPropertyOp43
 70
     1
102
RTVSPropertyOp44
 70
     1
102
RTVSPropertyOp45
 70
     1
102
RTVSPropertyOp46
 70
     1
102
RTVSPropertyOp47
 70
     1
102
RTVSPropertyOp48
 70
     1
102
RTVSPropertyOp49
 70
     1
102
RTVSPropertyOp50
 70
     1
102
RTVSPropertyOp51
 70
     0
102
RTVSPropertyOp52
 70
     0
102
RTVSPropertyOp53
 70
     1
102
RTVSPropertyOp54
 70
     1
102
RTVSPropertyOp55
 70
     1
102
RTVSPropertyOp56
 70
     1
102
RTVSPropertyOp57
 70
     1
102
RTVSPost2010Prop28
280
     0
102
RTVSPost2010PropOp28
 70
     1
102
RTVSPost2010Prop29
280
     1
102
RTVSPost2010PropOp29
 70
     1
102
RTVSPost2010Prop30
280
     1
102
RTVSPost2010PropOp30
 70
     1
102
RTVSPost2010Prop31
280
     0
102
RTVSPost2010PropOp31
 70
     1
102
RTVSPost2010Prop32
280
     0
102
RTVSPost2010PropOp32
 70
     1
102
RTVSPost2010Prop33
280
     0
102
RTVSPost2010PropOp33
 70
     1
102
RTVSPost2010Prop34
280
     0
102
RTVSPost2010PropOp34
 70
     1
102
RTVSPost2010Prop35
280
     0
102
RTVSPost2010PropOp35
 70
     1
102
RTVSPost2010Prop36
280
     0
102
RTVSPost2010PropOp36
 70
     1
102
RTVSPost2010Prop37
 90
       50
102
RTVSPost2010PropOp37
 70
     1
102
RTVSPost2010Prop38
140
0.0
102
RTVSPost2010PropOp38
 70
     1
102
RTVSPost2010Prop39
140
1.0
102
RTVSPost2010PropOp39
 70
     1
102
RTVSPost2010Prop40
 90
        0
102
RTVSPost2010PropOp40
 70
     1
102
RTVSPost2010Prop41ColorIndex
 90
       18
102
RTVSPost2010Prop41ColorRGB
 90
        0
102
RTVSPost2010PropOp41
 70
     1
102
RTVSPost2010Prop42
 90
       50
102
RTVSPost2010PropOp42
 70
     1
102
RTVSPost2010Prop43
 90
        3
102
RTVSPost2010PropOp43
 70
     1
102
RTVSPost2010Prop44ColorIndex
 90
        5
102
RTVSPost2010Prop44ColorRGB
 90
      255
102
RTVSPost2010PropOp44
 70
     1
102
RTVSPost2010Prop45
280
     0
102
RTVSPost2010PropOp45
 70
     1
102
RTVSPost2010Prop46
 90
       50
102
RTVSPost2010PropOp46
 70
     1
102
RTVSPost2010Prop47
 90
       50
102
RTVSPost2010PropOp47
 70
     1
102
RTVSPost2010Prop48
 90
       50
102
RTVSPost2010PropOp48
 70
     1
102
RTVSPost2010Prop49
280
     0
102
RTVSPost2010PropOp49
 70
     1
102
RTVSPost2010Prop50
 90
       50
102
RTVSPost2010PropOp50
 70
     1
102
RTVSPost2010Prop51ColorIndex
 90
      256
102
RTVSPost2010Prop51ColorRGB
 90
-16777216
102
RTVSPost2010PropOp51
 70
     0
102
RTVSPost2010Prop52
140
1.0
102
RTVSPost2010PropOp52
 70
     0
102
RTVSPost2010Prop53
 90
        2
102
RTVSPost2010PropOp53
 70
     1
102
RTVSPost2010Prop54
  1
strokes_ogs.tif
102
RTVSPost2010PropOp54
 70
     1
102
RTVSPost2010Prop55
280
     0
102
RTVSPost2010PropOp55
 70
     1
102
RTVSPost2010Prop56
140
1.0
102
RTVSPost2010PropOp56
 70
     1
102
RTVSPost2010Prop57
140
1.0
102
RTVSPost2010PropOp57
 70
     1
  0
XRECORD
  5
F2B
102
{ACAD_REACTORS
330
F2A
102
}
330
F2A
100
AcDbXrecord
280
     1
102
RTVSPropertyOp0
 70
     1
102
RTVSPropertyOp1
 70
     1
102
RTVSPropertyOp2
 70
     1
102
RTVSPropertyOp3
 70
     1
102
RTVSPropertyOp4
 70
     1
102
RTVSPropertyOp5
 70
     1
102
RTVSPropertyOp6
 70
     1
102
RTVSPropertyOp7
 70
     1
102
RTVSPropertyOp8
 70
     1
102
RTVSPropertyOp9
 70
     1
102
RTVSPropertyOp10
 70
     1
102
RTVSPropertyOp11
 70
     1
102
RTVSPropertyOp12
 70
     1
102
RTVSPropertyOp13
 70
     1
102
RTVSPropertyOp14
 70
     1
102
RTVSPropertyOp15
 70
     1
102
RTVSPropertyOp16
 70
     1
102
RTVSPropertyOp17
 70
     1
102
RTVSPropertyOp18
 70
     1
102
RTVSPropertyOp19
 70
     1
102
RTVSPropertyOp20
 70
     1
102
RTVSPropertyOp21
 70
     1
102
RTVSPropertyOp22
 70
     1
102
RTVSPropertyOp23
 70
     1
102
RTVSPropertyOp24
 70
     1
102
RTVSPropertyOp25
 70
     1
102
RTVSPropertyOp26
 70
     1
102
RTVSPropertyOp27
 70
     1
102
RTVSPropertyOp28
 70
     1
102
RTVSPropertyOp29
 70
     1
102
RTVSPropertyOp30
 70
     1
102
RTVSPropertyOp31
 70
     1
102
RTVSPropertyOp32
 70
     1
102
RTVSPropertyOp33
 70
     1
102
RTVSPropertyOp34
 70
     1
102
RTVSPropertyOp35
 70
     1
102
RTVSPropertyOp36
 70
     1
102
RTVSPropertyOp37
 70
     1
102
RTVSPropertyOp38
 70
     1
102
RTVSPropertyOp39
 70
     1
102
RTVSPropertyOp40
 70
     1
102
RTVSPropertyOp41
 70
     1
102
RTVSPropertyOp42
 70
     1
102
RTVSPropertyOp43
 70
     1
102
RTVSPropertyOp44
 70
     1
102
RTVSPropertyOp45
 70
     1
102
RTVSPropertyOp46
 70
     1
102
RTVSPropertyOp47
 70
     1
102
RTVSPropertyOp48
 70
     1
102
RTVSPropertyOp49
 70
     1
102
RTVSPropertyOp50
 70
     1
102
RTVSPropertyOp51
 70
     0
102
RTVSPropertyOp52
 70
     0
102
RTVSPropertyOp53
 70
     1
102
RTVSPropertyOp54
 70
     1
102
RTVSPropertyOp55
 70
     1
102
RTVSPropertyOp56
 70
     1
102
RTVSPropertyOp57
 70
     1
102
RTVSPost2010Prop28
280
     0
102
RTVSPost2010PropOp28
 70
     1
102
RTVSPost2010Prop29
280
     1
102
RTVSPost2010PropOp29
 70
     1
102
RTVSPost2010Prop30
280
     1
102
RTVSPost2010PropOp30
 70
     1
102
RTVSPost2010Prop31
280
     0
102
RTVSPost2010PropOp31
 70
     1
102
RTVSPost2010Prop32
280
     0
102
RTVSPost2010PropOp32
 70
     1
102
RTVSPost2010Prop33
280
     0
102
RTVSPost2010PropOp33
 70
     1
102
RTVSPost2010Prop34
280
     0
102
RTVSPost2010PropOp34
 70
     1
102
RTVSPost2010Prop35
280
     0
102
RTVSPost2010PropOp35
 70
     1
102
RTVSPost2010Prop36
280
     0
102
RTVSPost2010PropOp36
 70
     1
102
RTVSPost2010Prop37
 90
       50
102
RTVSPost2010PropOp37
 70
     1
102
RTVSPost2010Prop38
140
0.0
102
RTVSPost2010PropOp38
 70
     1
102
RTVSPost2010Prop39
140
1.0
102
RTVSPost2010PropOp39
 70
     1
102
RTVSPost2010Prop40
 90
        0
102
RTVSPost2010PropOp40
 70
     1
102
RTVSPost2010Prop41ColorIndex
 90
       18
102
RTVSPost2010Prop41ColorRGB
 90
        0
102
RTVSPost2010PropOp41
 70
     1
102
RTVSPost2010Prop42
 90
       50
102
RTVSPost2010PropOp42
 70
     1
102
RTVSPost2010Prop43
 90
        3
102
RTVSPost2010PropOp43
 70
     1
102
RTVSPost2010Prop44ColorIndex
 90
        5
102
RTVSPost2010Prop44ColorRGB
 90
      255
102
RTVSPost2010PropOp44
 70
     1
102
RTVSPost2010Prop45
280
     0
102
RTVSPost2010PropOp45
 70
     1
102
RTVSPost2010Prop46
 90
       50
102
RTVSPost2010PropOp46
 70
     1
102
RTVSPost2010Prop47
 90
       50
102
RTVSPost2010PropOp47
 70
     1
102
RTVSPost2010Prop48
 90
       50
102
RTVSPost2010PropOp48
 70
     1
102
RTVSPost2010Prop49
280
     0
102
RTVSPost2010PropOp49
 70
     1
102
RTVSPost2010Prop50
 90
       50
102
RTVSPost2010PropOp50
 70
     1
102
RTVSPost2010Prop51ColorIndex
 90
      256
102
RTVSPost2010Prop51ColorRGB
 90
-16777216
102
RTVSPost2010PropOp51
 70
     0
102
RTVSPost2010Prop52
140
1.0
102
RTVSPost2010PropOp52
 70
     0
102
RTVSPost2010Prop53
 90
        2
102
RTVSPost2010PropOp53
 70
     1
102
RTVSPost2010Prop54
  1
strokes_ogs.tif
102
RTVSPost2010PropOp54
 70
     1
102
RTVSPost2010Prop55
280
     0
102
RTVSPost2010PropOp55
 70
     1
102
RTVSPost2010Prop56
140
1.0
102
RTVSPost2010PropOp56
 70
     1
102
RTVSPost2010Prop57
140
1.0
102
RTVSPost2010PropOp57
 70
     1
  0
XRECORD
  5
F4B
102
{ACAD_REACTORS
330
F4A
102
}
330
F4A
100
AcDbXrecord
280
     1
102
RTVSPropertyOp0
 70
     1
102
RTVSPropertyOp1
 70
     1
102
RTVSPropertyOp2
 70
     1
102
RTVSPropertyOp3
 70
     1
102
RTVSPropertyOp4
 70
     1
102
RTVSPropertyOp5
 70
     1
102
RTVSPropertyOp6
 70
     1
102
RTVSPropertyOp7
 70
     1
102
RTVSPropertyOp8
 70
     1
102
RTVSPropertyOp9
 70
     1
102
RTVSPropertyOp10
 70
     1
102
RTVSPropertyOp11
 70
     1
102
RTVSPropertyOp12
 70
     1
102
RTVSPropertyOp13
 70
     1
102
RTVSPropertyOp14
 70
     1
102
RTVSPropertyOp15
 70
     1
102
RTVSPropertyOp16
 70
     1
102
RTVSPropertyOp17
 70
     1
102
RTVSPropertyOp18
 70
     1
102
RTVSPropertyOp19
 70
     1
102
RTVSPropertyOp20
 70
     1
102
RTVSPropertyOp21
 70
     1
102
RTVSPropertyOp22
 70
     1
102
RTVSPropertyOp23
 70
     1
102
RTVSPropertyOp24
 70
     1
102
RTVSPropertyOp25
 70
     1
102
RTVSPropertyOp26
 70
     1
102
RTVSPropertyOp27
 70
     1
102
RTVSPropertyOp28
 70
     1
102
RTVSPropertyOp29
 70
     1
102
RTVSPropertyOp30
 70
     1
102
RTVSPropertyOp31
 70
     1
102
RTVSPropertyOp32
 70
     1
102
RTVSPropertyOp33
 70
     1
102
RTVSPropertyOp34
 70
     1
102
RTVSPropertyOp35
 70
     1
102
RTVSPropertyOp36
 70
     1
102
RTVSPropertyOp37
 70
     1
102
RTVSPropertyOp38
 70
     1
102
RTVSPropertyOp39
 70
     1
102
RTVSPropertyOp40
 70
     1
102
RTVSPropertyOp41
 70
     1
102
RTVSPropertyOp42
 70
     1
102
RTVSPropertyOp43
 70
     1
102
RTVSPropertyOp44
 70
     1
102
RTVSPropertyOp45
 70
     1
102
RTVSPropertyOp46
 70
     1
102
RTVSPropertyOp47
 70
     1
102
RTVSPropertyOp48
 70
     1
102
RTVSPropertyOp49
 70
     1
102
RTVSPropertyOp50
 70
     1
102
RTVSPropertyOp51
 70
     0
102
RTVSPropertyOp52
 70
     0
102
RTVSPropertyOp53
 70
     1
102
RTVSPropertyOp54
 70
     1
102
RTVSPropertyOp55
 70
     1
102
RTVSPropertyOp56
 70
     1
102
RTVSPropertyOp57
 70
     1
102
RTVSPost2010Prop28
280
     0
102
RTVSPost2010PropOp28
 70
     1
102
RTVSPost2010Prop29
280
     1
102
RTVSPost2010PropOp29
 70
     1
102
RTVSPost2010Prop30
280
     1
102
RTVSPost2010PropOp30
 70
     1
102
RTVSPost2010Prop31
280
     0
102
RTVSPost2010PropOp31
 70
     1
102
RTVSPost2010Prop32
280
     0
102
RTVSPost2010PropOp32
 70
     1
102
RTVSPost2010Prop33
280
     0
102
RTVSPost2010PropOp33
 70
     1
102
RTVSPost2010Prop34
280
     0
102
RTVSPost2010PropOp34
 70
     1
102
RTVSPost2010Prop35
280
     0
102
RTVSPost2010PropOp35
 70
     1
102
RTVSPost2010Prop36
280
     0
102
RTVSPost2010PropOp36
 70
     1
102
RTVSPost2010Prop37
 90
       50
102
RTVSPost2010PropOp37
 70
     1
102
RTVSPost2010Prop38
140
0.0
102
RTVSPost2010PropOp38
 70
     1
102
RTVSPost2010Prop39
140
1.0
102
RTVSPost2010PropOp39
 70
     1
102
RTVSPost2010Prop40
 90
        0
102
RTVSPost2010PropOp40
 70
     1
102
RTVSPost2010Prop41ColorIndex
 90
       18
102
RTVSPost2010Prop41ColorRGB
 90
        0
102
RTVSPost2010PropOp41
 70
     1
102
RTVSPost2010Prop42
 90
       50
102
RTVSPost2010PropOp42
 70
     1
102
RTVSPost2010Prop43
 90
        3
102
RTVSPost2010PropOp43
 70
     1
102
RTVSPost2010Prop44ColorIndex
 90
        5
102
RTVSPost2010Prop44ColorRGB
 90
      255
102
RTVSPost2010PropOp44
 70
     1
102
RTVSPost2010Prop45
280
     0
102
RTVSPost2010PropOp45
 70
     1
102
RTVSPost2010Prop46
 90
       50
102
RTVSPost2010PropOp46
 70
     1
102
RTVSPost2010Prop47
 90
       50
102
RTVSPost2010PropOp47
 70
     1
102
RTVSPost2010Prop48
 90
       50
102
RTVSPost2010PropOp48
 70
     1
102
RTVSPost2010Prop49
280
     0
102
RTVSPost2010PropOp49
 70
     1
102
RTVSPost2010Prop50
 90
       50
102
RTVSPost2010PropOp50
 70
     1
102
RTVSPost2010Prop51ColorIndex
 90
      256
102
RTVSPost2010Prop51ColorRGB
 90
-16777216
102
RTVSPost2010PropOp51
 70
     0
102
RTVSPost2010Prop52
140
1.0
102
RTVSPost2010PropOp52
 70
     0
102
RTVSPost2010Prop53
 90
        2
102
RTVSPost2010PropOp53
 70
     1
102
RTVSPost2010Prop54
  1
strokes_ogs.tif
102
RTVSPost2010PropOp54
 70
     1
102
RTVSPost2010Prop55
280
     0
102
RTVSPost2010PropOp55
 70
     1
102
RTVSPost2010Prop56
140
1.0
102
RTVSPost2010PropOp56
 70
     1
102
RTVSPost2010Prop57
140
1.0
102
RTVSPost2010PropOp57
 70
     1
  0
ENDSEC
  0
EOF
