  0
SECTION
  2
HEADER
  9
$ACADVER
  1
AC1014
  9
$HANDSEED
  5
FFFF
  9
$MEASUREMENT
 70
     1
  0
ENDSEC
  0
SECTION
  2
TABLES
  0
TABLE
  2
VPORT
  5
8
330
0
100
AcDbSymbolTable
 70
     4
  0
VPORT
  5
2E
330
8
100
AcDbSymbolTableRecord
100
AcDbViewportTableRecord
  2
*ACTIVE
 70
     0
 10
0.0
 20
0.0
 11
1.0
 21
1.0
 12
210.0
 22
148.5
 13
0.0
 23
0.0
 14
10.0
 24
10.0
 15
10.0
 25
10.0
 16
0.0
 26
0.0
 36
1.0
 17
0.0
 27
0.0
 37
0.0
 40
341.0
 41
1.24
 42
50.0
 43
0.0
 44
0.0
 50
0.0
 51
0.0
 71
     0
 72
   100
 73
     1
 74
     3
 75
     0
 76
     0
 77
     0
 78
     0
  0
ENDTAB
  0
TABLE
  2
LTYPE
  5
5
330
0
100
AcDbSymbolTable
 70
     1
  0
LTYPE
  5
14
330
5
100
AcDbSymbolTableRecord
100
AcDbLinetypeTableRecord
  2
BYBLOCK
 70
     0
  3

 72
    65
 73
     0
 40
0.0
  0
LTYPE
  5
15
330
5
100
AcDbSymbolTableRecord
100
AcDbLinetypeTableRecord
  2
BYLAYER
 70
     0
  3

 72
    65
 73
     0
 40
0.0
  0
LTYPE
  5
16
330
5
100
AcDbSymbolTableRecord
100
AcDbLinetypeTableRecord
  2
CONTINUOUS
 70
     0
  3
Solid line
 72
    65
 73
     0
 40
0.0
  0
ENDTAB
  0
TABLE
  2
LAYER
  5
2
100
AcDbSymbolTable
 70
1
  0
LAYER
  5
50
100
AcDbSymbolTableRecord
100
AcDbLayerTableRecord
  2
0
 70
0
  6
CONTINUOUS
  0
ENDTAB
  0
TABLE
  2
STYLE
  5
3
330
0
100
AcDbSymbolTable
 70
     1
  0
STYLE
  5
11
330
3
100
AcDbSymbolTableRecord
100
AcDbTextStyleTableRecord
  2
STANDARD
 70
     0
 40
0.0
 41
1.0
 50
0.0
 71
     0
 42
2.5
  3
txt
  4

  0
ENDTAB
  0
TABLE
  2
VIEW
  5
6
330
0
100
AcDbSymbolTable
 70
     0
  0
ENDTAB
  0
TABLE
  2
UCS
  5
7
330
0
100
AcDbSymbolTable
 70
     0
  0
ENDTAB
  0
TABLE
  2
APPID
  5
9
330
0
100
AcDbSymbolTable
 70
     2
  0
APPID
  5
12
330
9
100
AcDbSymbolTableRecord
100
AcDbRegAppTableRecord
  2
ACAD
 70
     0
  0
ENDTAB
  0
TABLE
  2
DIMSTYLE
  5
A
330
0
100
AcDbSymbolTable
 70
     1
  0
DIMSTYLE
105
27
330
A
100
AcDbSymbolTableRecord
100
AcDbDimStyleTableRecord
  2
ISO-25
 70
     0
  3

  4

  5

  6

  7

 40
1.0
 41
2.5
 42
0.625
 43
3.75
 44
1.25
 45
0.0
 46
0.0
 47
0.0
 48
0.0
140
2.5
141
2.5
142
0.0
143
0.03937007874016
144
1.0
145
0.0
146
1.0
147
0.625
 71
     0
 72
     0
 73
     0
 74
     0
 75
     0
 76
     0
 77
     1
 78
     8
170
     0
171
     3
172
     1
173
     0
174
     0
175
     0
176
     0
177
     0
178
     0
270
     2
271
     2
272
     2
273
     2
274
     3
340
11
275
     0
280
     0
281
     0
282
     0
283
     0
284
     8
285
     0
286
     0
287
     3
288
     0
  0
ENDTAB
  0
TABLE
  2
BLOCK_RECORD
  5
1
330
0
100
AcDbSymbolTable
 70
     1
  0
BLOCK_RECORD
  5
1F
330
1
100
AcDbSymbolTableRecord
100
AcDbBlockTableRecord
  2
*MODEL_SPACE
  0
BLOCK_RECORD
  5
1B
330
1
100
AcDbSymbolTableRecord
100
AcDbBlockTableRecord
  2
*PAPER_SPACE
  0
ENDTAB
  0
ENDSEC
  0
SECTION
  2
BLOCKS
  0
BLOCK
  5
20
330
1F
100
AcDbEntity
  8
0
100
AcDbBlockBegin
  2
*MODEL_SPACE
 70
     0
 10
0.0
 20
0.0
 30
0.0
  3
*MODEL_SPACE
  1

  0
ENDBLK
  5
21
330
1F
100
AcDbEntity
  8
0
100
AcDbBlockEnd
  0
BLOCK
  5
1C
330
1B
100
AcDbEntity
 67
     1
  8
0
100
AcDbBlockBegin
  2
*PAPER_SPACE
  1

  0
ENDBLK
  5
1D
330
1B
100
AcDbEntity
 67
     1
  8
0
100
AcDbBlockEnd
  0
ENDSEC
  0
SECTION
  2
ENTITIES
  0
SPLINE
  5
100
100
AcDbEntity
  8
0
 62
7
100
AcDbSpline
 70
8
 71
3
 72
8
 73
4
 74
0
 40
0
 40
0
 40
0
 40
0
 40
1
 40
1
 40
1
 40
1
 10
75.435399
 20
-0.583668
 30
0.0
 10
73.867685
 20
-0.085770
 30
0.0
 10
71.746319
 20
1.049695
 30
0.0
 10
69.217691
 20
2.744364
 30
0.0
  0
SPLINE
  5
101
100
AcDbEntity
  8
0
 62
7
100
AcDbSpline
 70
8
 71
3
 72
8
 73
4
 74
0
 40
0
 40
0
 40
0
 40
0
 40
1
 40
1
 40
1
 40
1
 10
69.217691
 20
2.744364
 30
0.0
 10
67.980764
 20
3.573343
 30
0.0
 10
65.301857
 20
5.215451
 30
0.0
 10
63.264566
 20
6.393490
 30
0.0
  0
SPLINE
  5
102
100
AcDbEntity
  8
0
 62
7
100
AcDbSpline
 70
8
 71
3
 72
8
 73
4
 74
0
 40
0
 40
0
 40
0
 40
0
 40
1
 40
1
 40
1
 40
1
 10
54.004149
 20
8.804672
 30
0.0
 10
47.851896
 20
9.102855
 30
0.0
 10
39.301015
 20
9.974715
 30
0.0
 10
36.727879
 20
10.566186
 30
0.0
  0
SPLINE
  5
103
100
AcDbEntity
  8
0
 62
7
100
AcDbSpline
 70
8
 71
3
 72
8
 73
4
 74
0
 40
0
 40
0
 40
0
 40
0
 40
1
 40
1
 40
1
 40
1
 10
36.727879
 20
10.566186
 30
0.0
 10
35.811658
 20
10.776791
 30
0.0
 10
34.227923
 20
11.304048
 30
0.0
 10
33.208468
 20
11.737867
 30
0.0
  0
SPLINE
  5
104
100
AcDbEntity
  8
0
 62
7
100
AcDbSpline
 70
8
 71
3
 72
8
 73
4
 74
0
 40
0
 40
0
 40
0
 40
0
 40
1
 40
1
 40
1
 40
1
 10
33.208468
 20
11.737867
 30
0.0
 10
32.189013
 20
12.171683
 30
0.0
 10
30.319271
 20
12.717756
 30
0.0
 10
29.053488
 20
12.951365
 30
0.0
  0
SPLINE
  5
105
100
AcDbEntity
  8
0
 62
7
100
AcDbSpline
 70
8
 71
3
 72
8
 73
4
 74
0
 40
0
 40
0
 40
0
 40
0
 40
1
 40
1
 40
1
 40
1
 10
29.053488
 20
12.951365
 30
0.0
 10
26.662205
 20
13.392687
 30
0.0
 10
26.117027
 20
13.633836
 30
0.0
 10
24.857899
 20
14.807184
 30
0.0
  0
SPLINE
  5
106
100
AcDbEntity
  8
0
 62
7
100
AcDbSpline
 70
8
 71
3
 72
8
 73
4
 74
0
 40
0
 40
0
 40
0
 40
0
 40
1
 40
1
 40
1
 40
1
 10
24.857899
 20
14.807184
 30
0.0
 10
23.938972
 20
15.663511
 30
0.0
 10
23.163631
 20
15.978143
 30
0.0
 10
21.972342
 20
15.978143
 30
0.0
  0
SPLINE
  5
107
100
AcDbEntity
  8
0
 62
7
100
AcDbSpline
 70
8
 71
3
 72
8
 73
4
 74
0
 40
0
 40
0
 40
0
 40
0
 40
1
 40
1
 40
1
 40
1
 10
21.972342
 20
15.978143
 30
0.0
 10
21.176949
 20
15.978143
 30
0.0
 10
21.063525
 20
16.061513
 30
0.0
 10
21.063525
 20
16.646149
 30
0.0
  0
SPLINE
  5
108
100
AcDbEntity
  8
0
 62
7
100
AcDbSpline
 70
8
 71
3
 72
8
 73
4
 74
0
 40
0
 40
0
 40
0
 40
0
 40
1
 40
1
 40
1
 40
1
 10
21.063525
 20
16.646149
 30
0.0
 10
21.063525
 20
17.095052
 30
0.0
 10
20.868262
 20
17.388832
 30
0.0
 10
20.468212
 20
17.541827
 30
0.0
  0
SPLINE
  5
109
100
AcDbEntity
  8
0
 62
7
100
AcDbSpline
 70
8
 71
3
 72
8
 73
4
 74
0
 40
0
 40
0
 40
0
 40
0
 40
1
 40
1
 40
1
 40
1
 10
20.468212
 20
17.541827
 30
0.0
 10
20.140791
 20
17.667047
 30
0.0
 10
19.634775
 20
18.034032
 30
0.0
 10
19.343733
 20
18.357355
 30
0.0
  0
SPLINE
  5
10a
100
AcDbEntity
  8
0
 62
7
100
AcDbSpline
 70
8
 71
3
 72
8
 73
4
 74
0
 40
0
 40
0
 40
0
 40
0
 40
1
 40
1
 40
1
 40
1
 10
19.343733
 20
18.357355
 30
0.0
 10
18.862506
 20
18.891954
 30
0.0
 10
18.814270
 20
19.320185
 30
0.0
 10
18.811294
 20
23.084073
 30
0.0
  0
LWPOLYLINE
  5
10b
100
AcDbEntity
  8
0
 62
7
100
AcDbPolyline
 90
3
 70
0
 10
63.264566
 20
6.393490
 30
0.0
 10
59.560399
 20
8.535376
 30
0.0
 10
54.004149
 20
8.804672
 30
0.0
  0
SPLINE
  5
10c
100
AcDbEntity
  8
0
 62
7
100
AcDbSpline
 70
8
 71
3
 72
8
 73
4
 74
0
 40
0
 40
0
 40
0
 40
0
 40
1
 40
1
 40
1
 40
1
 10
17.140646
 20
32.117726
 30
0.0
 10
16.066879
 20
35.269921
 30
0.0
 10
14.875789
 20
38.142852
 30
0.0
 10
13.794990
 20
40.187518
 30
0.0
  0
SPLINE
  5
10d
100
AcDbEntity
  8
0
 62
7
100
AcDbSpline
 70
8
 71
3
 72
8
 73
4
 74
0
 40
0
 40
0
 40
0
 40
0
 40
1
 40
1
 40
1
 40
1
 10
13.794990
 20
40.187518
 30
0.0
 10
11.750573
 20
44.055162
 30
0.0
 10
11.519994
 20
44.866325
 30
0.0
 10
11.295399
 20
48.980873
 30
0.0
  0
SPLINE
  5
10e
100
AcDbEntity
  8
0
 62
7
100
AcDbSpline
 70
8
 71
3
 72
8
 73
4
 74
0
 40
0
 40
0
 40
0
 40
0
 40
1
 40
1
 40
1
 40
1
 10
11.295399
 20
48.980873
 30
0.0
 10
11.087297
 20
52.793307
 30
0.0
 10
10.768871
 20
53.447572
 30
0.0
 10
8.814581
 20
54.078143
 30
0.0
  0
SPLINE
  5
10f
100
AcDbEntity
  8
0
 62
7
100
AcDbSpline
 70
8
 71
3
 72
8
 73
4
 74
0
 40
0
 40
0
 40
0
 40
0
 40
1
 40
1
 40
1
 40
1
 10
8.814581
 20
54.078143
 30
0.0
 10
7.851927
 20
54.388753
 30
0.0
 10
7.551262
 20
54.625788
 30
0.0
 10
7.431313
 20
55.168662
 30
0.0
  0
SPLINE
  5
110
100
AcDbEntity
  8
0
 62
7
100
AcDbSpline
 70
8
 71
3
 72
8
 73
4
 74
0
 40
0
 40
0
 40
0
 40
0
 40
1
 40
1
 40
1
 40
1
 10
7.431313
 20
55.168662
 30
0.0
 10
7.152733
 20
56.429505
 30
0.0
 10
7.552101
 20
57.196884
 30
0.0
 10
8.927204
 20
58.042993
 30
0.0
  0
SPLINE
  5
111
100
AcDbEntity
  8
0
 62
7
100
AcDbSpline
 70
8
 71
3
 72
8
 73
4
 74
0
 40
0
 40
0
 40
0
 40
0
 40
1
 40
1
 40
1
 40
1
 10
8.927204
 20
58.042993
 30
0.0
 10
11.130545
 20
59.398723
 30
0.0
 10
11.179094
 20
60.380848
 30
0.0
 10
9.293607
 20
65.455226
 30
0.0
  0
SPLINE
  5
112
100
AcDbEntity
  8
0
 62
7
100
AcDbSpline
 70
8
 71
3
 72
8
 73
4
 74
0
 40
0
 40
0
 40
0
 40
0
 40
1
 40
1
 40
1
 40
1
 10
9.293607
 20
65.455226
 30
0.0
 10
8.671786
 20
67.128715
 30
0.0
 10
8.021850
 20
69.212309
 30
0.0
 10
7.849302
 20
70.085434
 30
0.0
  0
SPLINE
  5
113
100
AcDbEntity
  8
0
 62
7
100
AcDbSpline
 70
8
 71
3
 72
8
 73
4
 74
0
 40
0
 40
0
 40
0
 40
0
 40
1
 40
1
 40
1
 40
1
 10
7.849302
 20
70.085434
 30
0.0
 10
7.063561
 20
74.061418
 30
0.0
 10
6.220400
 20
75.717194
 30
0.0
 10
3.799486
 20
78.038333
 30
0.0
  0
SPLINE
  5
114
100
AcDbEntity
  8
0
 62
7
100
AcDbSpline
 70
8
 71
3
 72
8
 73
4
 74
0
 40
0
 40
0
 40
0
 40
0
 40
1
 40
1
 40
1
 40
1
 10
3.799486
 20
78.038333
 30
0.0
 10
1.574224
 20
80.171885
 30
0.0
 10
1.373514
 20
80.862257
 30
0.0
 10
1.615094
 20
85.551851
 30
0.0
  0
SPLINE
  5
115
100
AcDbEntity
  8
0
 62
7
100
AcDbSpline
 70
8
 71
3
 72
8
 73
4
 74
0
 40
0
 40
0
 40
0
 40
0
 40
1
 40
1
 40
1
 40
1
 10
1.615094
 20
85.551851
 30
0.0
 10
1.760324
 20
88.371042
 30
0.0
 10
1.713620
 20
89.474053
 30
0.0
 10
1.396141
 20
90.722934
 30
0.0
  0
SPLINE
  5
116
100
AcDbEntity
  8
0
 62
7
100
AcDbSpline
 70
8
 71
3
 72
8
 73
4
 74
0
 40
0
 40
0
 40
0
 40
0
 40
1
 40
1
 40
1
 40
1
 10
1.396141
 20
90.722934
 30
0.0
 10
0.922934
 20
92.584402
 30
0.0
 10
0.808105
 20
100.174348
 30
0.0
 10
1.229475
 20
101.739200
 30
0.0
  0
SPLINE
  5
117
100
AcDbEntity
  8
0
 62
7
100
AcDbSpline
 70
8
 71
3
 72
8
 73
4
 74
0
 40
0
 40
0
 40
0
 40
0
 40
1
 40
1
 40
1
 40
1
 10
1.229475
 20
101.739200
 30
0.0
 10
1.430971
 20
102.487492
 30
0.0
 10
2.432003
 20
103.684234
 30
0.0
 10
5.335284
 20
106.647718
 30
0.0
  0
SPLINE
  5
118
100
AcDbEntity
  8
0
 62
7
100
AcDbSpline
 70
8
 71
3
 72
8
 73
4
 74
0
 40
0
 40
0
 40
0
 40
0
 40
1
 40
1
 40
1
 40
1
 10
5.335284
 20
106.647718
 30
0.0
 10
8.689613
 20
110.071609
 30
0.0
 10
9.224844
 20
110.738044
 30
0.0
 10
9.572123
 20
111.923155
 30
0.0
  0
SPLINE
  5
119
100
AcDbEntity
  8
0
 62
7
100
AcDbSpline
 70
8
 71
3
 72
8
 73
4
 74
0
 40
0
 40
0
 40
0
 40
0
 40
1
 40
1
 40
1
 40
1
 10
9.572123
 20
111.923155
 30
0.0
 10
10.067944
 20
113.615182
 30
0.0
 10
10.661582
 20
114.164361
 30
0.0
 10
12.179721
 20
114.335478
 30
0.0
  0
SPLINE
  5
11a
100
AcDbEntity
  8
0
 62
7
100
AcDbSpline
 70
8
 71
3
 72
8
 73
4
 74
0
 40
0
 40
0
 40
0
 40
0
 40
1
 40
1
 40
1
 40
1
 10
12.179721
 20
114.335478
 30
0.0
 10
13.252461
 20
114.456393
 30
0.0
 10
13.400948
 20
114.558845
 30
0.0
 10
13.665584
 20
115.360704
 30
0.0
  0
SPLINE
  5
11b
100
AcDbEntity
  8
0
 62
7
100
AcDbSpline
 70
8
 71
3
 72
8
 73
4
 74
0
 40
0
 40
0
 40
0
 40
0
 40
1
 40
1
 40
1
 40
1
 10
13.665584
 20
115.360704
 30
0.0
 10
13.854629
 20
115.933514
 30
0.0
 10
14.759348
 20
116.979605
 30
0.0
 10
16.199557
 20
118.290642
 30
0.0
  0
SPLINE
  5
11c
100
AcDbEntity
  8
0
 62
7
100
AcDbSpline
 70
8
 71
3
 72
8
 73
4
 74
0
 40
0
 40
0
 40
0
 40
0
 40
1
 40
1
 40
1
 40
1
 10
16.199557
 20
118.290642
 30
0.0
 10
17.477048
 20
119.453554
 30
0.0
 10
18.961492
 20
121.131200
 30
0.0
 10
19.654330
 20
122.195063
 30
0.0
  0
SPLINE
  5
11d
100
AcDbEntity
  8
0
 62
7
100
AcDbSpline
 70
8
 71
3
 72
8
 73
4
 74
0
 40
0
 40
0
 40
0
 40
0
 40
1
 40
1
 40
1
 40
1
 10
19.654330
 20
122.195063
 30
0.0
 10
20.322483
 20
123.221017
 30
0.0
 10
21.427168
 20
124.715278
 30
0.0
 10
22.109182
 20
125.515643
 30
0.0
  0
SPLINE
  5
11e
100
AcDbEntity
  8
0
 62
7
100
AcDbSpline
 70
8
 71
3
 72
8
 73
4
 74
0
 40
0
 40
0
 40
0
 40
0
 40
1
 40
1
 40
1
 40
1
 10
22.109182
 20
125.515643
 30
0.0
 10
22.791199
 20
126.316007
 30
0.0
 10
23.843669
 20
127.703609
 30
0.0
 10
24.448004
 20
128.599200
 30
0.0
  0
SPLINE
  5
11f
100
AcDbEntity
  8
0
 62
7
100
AcDbSpline
 70
8
 71
3
 72
8
 73
4
 74
0
 40
0
 40
0
 40
0
 40
0
 40
1
 40
1
 40
1
 40
1
 10
24.448004
 20
128.599200
 30
0.0
 10
25.907532
 20
130.762145
 30
0.0
 10
27.142757
 20
131.733589
 30
0.0
 10
29.110908
 20
132.266343
 30
0.0
  0
SPLINE
  5
120
100
AcDbEntity
  8
0
 62
7
100
AcDbSpline
 70
8
 71
3
 72
8
 73
4
 74
0
 40
0
 40
0
 40
0
 40
0
 40
1
 40
1
 40
1
 40
1
 10
29.110908
 20
132.266343
 30
0.0
 10
31.730881
 20
132.975535
 30
0.0
 10
32.049797
 20
132.846850
 30
0.0
 10
33.710237
 20
130.410434
 30
0.0
  0
SPLINE
  5
121
100
AcDbEntity
  8
0
 62
7
100
AcDbSpline
 70
8
 71
3
 72
8
 73
4
 74
0
 40
0
 40
0
 40
0
 40
0
 40
1
 40
1
 40
1
 40
1
 10
33.710237
 20
130.410434
 30
0.0
 10
34.503627
 20
129.246268
 30
0.0
 10
35.778022
 20
126.984080
 30
0.0
 10
36.542221
 20
125.383351
 30
0.0
  0
SPLINE
  5
122
100
AcDbEntity
  8
0
 62
7
100
AcDbSpline
 70
8
 71
3
 72
8
 73
4
 74
0
 40
0
 40
0
 40
0
 40
0
 40
1
 40
1
 40
1
 40
1
 10
36.542221
 20
125.383351
 30
0.0
 10
37.830173
 20
122.685548
 30
0.0
 10
42.676178
 20
114.462343
 30
0.0
 10
44.782909
 20
111.399696
 30
0.0
  0
SPLINE
  5
123
100
AcDbEntity
  8
0
 62
7
100
AcDbSpline
 70
8
 71
3
 72
8
 73
4
 74
0
 40
0
 40
0
 40
0
 40
0
 40
1
 40
1
 40
1
 40
1
 10
44.782909
 20
111.399696
 30
0.0
 10
45.830188
 20
109.877217
 30
0.0
 10
45.880586
 20
108.941381
 30
0.0
 10
44.909560
 20
109.047836
 30
0.0
  0
SPLINE
  5
124
100
AcDbEntity
  8
0
 62
7
100
AcDbSpline
 70
8
 71
3
 72
8
 73
4
 74
0
 40
0
 40
0
 40
0
 40
0
 40
1
 40
1
 40
1
 40
1
 10
44.909560
 20
109.047836
 30
0.0
 10
44.565149
 20
109.085594
 30
0.0
 10
43.156328
 20
109.978563
 30
0.0
 10
41.778846
 20
111.032211
 30
0.0
  0
SPLINE
  5
125
100
AcDbEntity
  8
0
 62
7
100
AcDbSpline
 70
8
 71
3
 72
8
 73
4
 74
0
 40
0
 40
0
 40
0
 40
0
 40
1
 40
1
 40
1
 40
1
 10
41.778846
 20
111.032211
 30
0.0
 10
40.401364
 20
112.085858
 30
0.0
 10
38.920288
 20
113.144718
 30
0.0
 10
38.487567
 20
113.385232
 30
0.0
  0
SPLINE
  5
126
100
AcDbEntity
  8
0
 62
7
100
AcDbSpline
 70
8
 71
3
 72
8
 73
4
 74
0
 40
0
 40
0
 40
0
 40
0
 40
1
 40
1
 40
1
 40
1
 10
38.487567
 20
113.385232
 30
0.0
 10
37.207875
 20
114.096509
 30
0.0
 10
33.090377
 20
115.013827
 30
0.0
 10
32.051890
 20
114.819007
 30
0.0
  0
SPLINE
  5
127
100
AcDbEntity
  8
0
 62
7
100
AcDbSpline
 70
8
 71
3
 72
8
 73
4
 74
0
 40
0
 40
0
 40
0
 40
0
 40
1
 40
1
 40
1
 40
1
 10
32.051890
 20
114.819007
 30
0.0
 10
30.103643
 20
114.453511
 30
0.0
 10
28.772982
 20
112.387481
 30
0.0
 10
29.482656
 20
110.829918
 30
0.0
  0
SPLINE
  5
128
100
AcDbEntity
  8
0
 62
7
100
AcDbSpline
 70
8
 71
3
 72
8
 73
4
 74
0
 40
0
 40
0
 40
0
 40
0
 40
1
 40
1
 40
1
 40
1
 10
29.482656
 20
110.829918
 30
0.0
 10
29.750546
 20
110.241961
 30
0.0
 10
31.228824
 20
109.005449
 30
0.0
 10
33.988534
 20
107.060955
 30
0.0
  0
SPLINE
  5
129
100
AcDbEntity
  8
0
 62
7
100
AcDbSpline
 70
8
 71
3
 72
8
 73
4
 74
0
 40
0
 40
0
 40
0
 40
0
 40
1
 40
1
 40
1
 40
1
 10
33.988534
 20
107.060955
 30
0.0
 10
35.304643
 20
106.133622
 30
0.0
 10
36.409350
 20
105.930465
 30
0.0
 10
36.409350
 20
106.615764
 30
0.0
  0
SPLINE
  5
12a
100
AcDbEntity
  8
0
 62
7
100
AcDbSpline
 70
8
 71
3
 72
8
 73
4
 74
0
 40
0
 40
0
 40
0
 40
0
 40
1
 40
1
 40
1
 40
1
 10
36.409350
 20
106.615764
 30
0.0
 10
36.409350
 20
106.898173
 30
0.0
 10
36.564790
 20
106.981133
 30
0.0
 10
36.896604
 20
106.875821
 30
0.0
  0
SPLINE
  5
12b
100
AcDbEntity
  8
0
 62
7
100
AcDbSpline
 70
8
 71
3
 72
8
 73
4
 74
0
 40
0
 40
0
 40
0
 40
0
 40
1
 40
1
 40
1
 40
1
 10
36.896604
 20
106.875821
 30
0.0
 10
37.277474
 20
106.754935
 30
0.0
 10
37.472697
 20
106.947335
 30
0.0
 10
37.790758
 20
107.757039
 30
0.0
  0
SPLINE
  5
12c
100
AcDbEntity
  8
0
 62
7
100
AcDbSpline
 70
8
 71
3
 72
8
 73
4
 74
0
 40
0
 40
0
 40
0
 40
0
 40
1
 40
1
 40
1
 40
1
 10
37.790758
 20
107.757039
 30
0.0
 10
38.171673
 20
108.726753
 30
0.0
 10
39.424557
 20
109.888629
 30
0.0
 10
39.744407
 20
109.568779
 30
0.0
  0
SPLINE
  5
12d
100
AcDbEntity
  8
0
 62
7
100
AcDbSpline
 70
8
 71
3
 72
8
 73
4
 74
0
 40
0
 40
0
 40
0
 40
0
 40
1
 40
1
 40
1
 40
1
 10
39.744407
 20
109.568779
 30
0.0
 10
39.823356
 20
109.489830
 30
0.0
 10
39.700578
 20
109.062896
 30
0.0
 10
39.471568
 20
108.620036
 30
0.0
  0
SPLINE
  5
12e
100
AcDbEntity
  8
0
 62
7
100
AcDbSpline
 70
8
 71
3
 72
8
 73
4
 74
0
 40
0
 40
0
 40
0
 40
0
 40
1
 40
1
 40
1
 40
1
 10
39.471568
 20
108.620036
 30
0.0
 10
39.242556
 20
108.177177
 30
0.0
 10
39.055183
 20
107.395476
 30
0.0
 10
39.055183
 20
106.882922
 30
0.0
  0
SPLINE
  5
12f
100
AcDbEntity
  8
0
 62
7
100
AcDbSpline
 70
8
 71
3
 72
8
 73
4
 74
0
 40
0
 40
0
 40
0
 40
0
 40
1
 40
1
 40
1
 40
1
 10
39.055183
 20
106.882922
 30
0.0
 10
39.055183
 20
106.054570
 30
0.0
 10
39.345230
 20
105.663521
 30
0.0
 10
41.665173
 20
103.364054
 30
0.0
  0
SPLINE
  5
130
100
AcDbEntity
  8
0
 62
7
100
AcDbSpline
 70
8
 71
3
 72
8
 73
4
 74
0
 40
0
 40
0
 40
0
 40
0
 40
1
 40
1
 40
1
 40
1
 10
41.665173
 20
103.364054
 30
0.0
 10
43.100667
 20
101.941230
 30
0.0
 10
44.588173
 20
100.274676
 30
0.0
 10
44.970745
 20
99.660602
 30
0.0
  0
SPLINE
  5
131
100
AcDbEntity
  8
0
 62
7
100
AcDbSpline
 70
8
 71
3
 72
8
 73
4
 74
0
 40
0
 40
0
 40
0
 40
0
 40
1
 40
1
 40
1
 40
1
 10
44.970745
 20
99.660602
 30
0.0
 10
45.636206
 20
98.592455
 30
0.0
 10
48.214052
 20
96.653683
 30
0.0
 10
51.537336
 20
94.721939
 30
0.0
  0
SPLINE
  5
132
100
AcDbEntity
  8
0
 62
7
100
AcDbSpline
 70
8
 71
3
 72
8
 73
4
 74
0
 40
0
 40
0
 40
0
 40
0
 40
1
 40
1
 40
1
 40
1
 10
51.537336
 20
94.721939
 30
0.0
 10
53.636111
 20
93.501975
 30
0.0
 10
57.670494
 20
93.505438
 30
0.0
 10
62.073933
 20
94.730988
 30
0.0
  0
SPLINE
  5
133
100
AcDbEntity
  8
0
 62
7
100
AcDbSpline
 70
8
 71
3
 72
8
 73
4
 74
0
 40
0
 40
0
 40
0
 40
0
 40
1
 40
1
 40
1
 40
1
 10
62.073933
 20
94.730988
 30
0.0
 10
64.247228
 20
95.335852
 30
0.0
 10
64.455183
 20
95.614046
 30
0.0
 10
64.455183
 20
97.916511
 30
0.0
  0
LWPOLYLINE
  5
134
100
AcDbEntity
  8
0
 62
7
100
AcDbPolyline
 90
3
 70
0
 10
18.811294
 20
23.084073
 30
0.0
 10
18.808013
 20
27.222934
 30
0.0
 10
17.140646
 20
32.117726
 30
0.0
  0
SPLINE
  5
135
100
AcDbEntity
  8
0
 62
7
100
AcDbSpline
 70
8
 71
3
 72
8
 73
4
 74
0
 40
0
 40
0
 40
0
 40
0
 40
1
 40
1
 40
1
 40
1
 10
65.390043
 20
98.933836
 30
0.0
 10
66.617792
 20
97.706090
 30
0.0
 10
67.687066
 20
97.652530
 30
0.0
 10
68.160323
 20
98.795075
 30
0.0
  0
SPLINE
  5
136
100
AcDbEntity
  8
0
 62
7
100
AcDbSpline
 70
8
 71
3
 72
8
 73
4
 74
0
 40
0
 40
0
 40
0
 40
0
 40
1
 40
1
 40
1
 40
1
 10
68.160323
 20
98.795075
 30
0.0
 10
68.341690
 20
99.232932
 30
0.0
 10
68.490079
 20
99.887775
 30
0.0
 10
68.490079
 20
100.250284
 30
0.0
  0
SPLINE
  5
137
100
AcDbEntity
  8
0
 62
7
100
AcDbSpline
 70
8
 71
3
 72
8
 73
4
 74
0
 40
0
 40
0
 40
0
 40
0
 40
1
 40
1
 40
1
 40
1
 10
68.490079
 20
100.250284
 30
0.0
 10
68.490079
 20
100.612795
 30
0.0
 10
68.533698
 20
100.909393
 30
0.0
 10
68.587009
 20
100.909393
 30
0.0
  0
SPLINE
  5
138
100
AcDbEntity
  8
0
 62
7
100
AcDbSpline
 70
8
 71
3
 72
8
 73
4
 74
0
 40
0
 40
0
 40
0
 40
0
 40
1
 40
1
 40
1
 40
1
 10
68.587009
 20
100.909393
 30
0.0
 10
68.640320
 20
100.909393
 30
0.0
 10
69.229870
 20
100.492674
 30
0.0
 10
69.897117
 20
99.983351
 30
0.0
  0
SPLINE
  5
139
100
AcDbEntity
  8
0
 62
7
100
AcDbSpline
 70
8
 71
3
 72
8
 73
4
 74
0
 40
0
 40
0
 40
0
 40
0
 40
1
 40
1
 40
1
 40
1
 10
69.897117
 20
99.983351
 30
0.0
 10
71.347333
 20
98.876377
 30
0.0
 10
72.547715
 20
98.786519
 30
0.0
 10
74.773933
 20
99.618284
 30
0.0
  0
SPLINE
  5
13a
100
AcDbEntity
  8
0
 62
7
100
AcDbSpline
 70
8
 71
3
 72
8
 73
4
 74
0
 40
0
 40
0
 40
0
 40
0
 40
1
 40
1
 40
1
 40
1
 10
74.773933
 20
99.618284
 30
0.0
 10
75.574297
 20
99.917316
 30
0.0
 10
76.626506
 20
100.225328
 30
0.0
 10
77.112172
 20
100.302751
 30
0.0
  0
SPLINE
  5
13b
100
AcDbEntity
  8
0
 62
7
100
AcDbSpline
 70
8
 71
3
 72
8
 73
4
 74
0
 40
0
 40
0
 40
0
 40
0
 40
1
 40
1
 40
1
 40
1
 10
77.112172
 20
100.302751
 30
0.0
 10
78.213302
 20
100.478291
 30
0.0
 10
79.000980
 20
101.659960
 30
0.0
 10
79.015654
 20
103.158351
 30
0.0
  0
SPLINE
  5
13c
100
AcDbEntity
  8
0
 62
7
100
AcDbSpline
 70
8
 71
3
 72
8
 73
4
 74
0
 40
0
 40
0
 40
0
 40
0
 40
1
 40
1
 40
1
 40
1
 10
79.015654
 20
103.158351
 30
0.0
 10
79.025946
 20
104.209273
 30
0.0
 10
79.028671
 20
104.212051
 30
0.0
 10
79.404141
 20
103.555226
 30
0.0
  0
SPLINE
  5
13d
100
AcDbEntity
  8
0
 62
7
100
AcDbSpline
 70
8
 71
3
 72
8
 73
4
 74
0
 40
0
 40
0
 40
0
 40
0
 40
1
 40
1
 40
1
 40
1
 10
79.404141
 20
103.555226
 30
0.0
 10
79.612109
 20
103.191424
 30
0.0
 10
79.786485
 20
102.623324
 30
0.0
 10
79.791639
 20
102.292782
 30
0.0
  0
SPLINE
  5
13e
100
AcDbEntity
  8
0
 62
7
100
AcDbSpline
 70
8
 71
3
 72
8
 73
4
 74
0
 40
0
 40
0
 40
0
 40
0
 40
1
 40
1
 40
1
 40
1
 10
79.791639
 20
102.292782
 30
0.0
 10
79.797487
 20
101.918114
 30
0.0
 10
80.043996
 20
101.581088
 30
0.0
 10
80.446256
 20
101.397808
 30
0.0
  0
SPLINE
  5
13f
100
AcDbEntity
  8
0
 62
7
100
AcDbSpline
 70
8
 71
3
 72
8
 73
4
 74
0
 40
0
 40
0
 40
0
 40
0
 40
1
 40
1
 40
1
 40
1
 10
80.446256
 20
101.397808
 30
0.0
 10
81.005770
 20
101.142877
 30
0.0
 10
81.230526
 20
101.213933
 30
0.0
 10
82.137975
 20
101.932647
 30
0.0
  0
SPLINE
  5
140
100
AcDbEntity
  8
0
 62
7
100
AcDbSpline
 70
8
 71
3
 72
8
 73
4
 74
0
 40
0
 40
0
 40
0
 40
0
 40
1
 40
1
 40
1
 40
1
 10
82.137975
 20
101.932647
 30
0.0
 10
83.366528
 20
102.905679
 30
0.0
 10
84.040681
 20
102.964242
 30
0.0
 10
85.269655
 20
102.204695
 30
0.0
  0
SPLINE
  5
141
100
AcDbEntity
  8
0
 62
7
100
AcDbSpline
 70
8
 71
3
 72
8
 73
4
 74
0
 40
0
 40
0
 40
0
 40
0
 40
1
 40
1
 40
1
 40
1
 10
85.269655
 20
102.204695
 30
0.0
 10
85.940490
 20
101.790098
 30
0.0
 10
86.401759
 20
101.691292
 30
0.0
 10
87.075976
 20
101.817773
 30
0.0
  0
SPLINE
  5
142
100
AcDbEntity
  8
0
 62
7
100
AcDbSpline
 70
8
 71
3
 72
8
 73
4
 74
0
 40
0
 40
0
 40
0
 40
0
 40
1
 40
1
 40
1
 40
1
 10
87.075976
 20
101.817773
 30
0.0
 10
87.759413
 20
101.945988
 30
0.0
 10
88.306256
 20
101.823012
 30
0.0
 10
89.306374
 20
101.316221
 30
0.0
  0
SPLINE
  5
143
100
AcDbEntity
  8
0
 62
7
100
AcDbSpline
 70
8
 71
3
 72
8
 73
4
 74
0
 40
0
 40
0
 40
0
 40
0
 40
1
 40
1
 40
1
 40
1
 10
89.306374
 20
101.316221
 30
0.0
 10
90.035105
 20
100.946945
 30
0.0
 10
90.843658
 20
100.643645
 30
0.0
 10
91.103159
 20
100.642224
 30
0.0
  0
SPLINE
  5
144
100
AcDbEntity
  8
0
 62
7
100
AcDbSpline
 70
8
 71
3
 72
8
 73
4
 74
0
 40
0
 40
0
 40
0
 40
0
 40
1
 40
1
 40
1
 40
1
 10
91.103159
 20
100.642224
 30
0.0
 10
91.580843
 20
100.639578
 30
0.0
 10
94.353100
 20
99.439611
 30
0.0
 10
94.353100
 20
99.235456
 30
0.0
  0
SPLINE
  5
145
100
AcDbEntity
  8
0
 62
7
100
AcDbSpline
 70
8
 71
3
 72
8
 73
4
 74
0
 40
0
 40
0
 40
0
 40
0
 40
1
 40
1
 40
1
 40
1
 10
94.353100
 20
99.235456
 30
0.0
 10
94.353100
 20
99.174528
 30
0.0
 10
93.370834
 20
99.356675
 30
0.0
 10
92.170287
 20
99.640229
 30
0.0
  0
SPLINE
  5
146
100
AcDbEntity
  8
0
 62
7
100
AcDbSpline
 70
8
 71
3
 72
8
 73
4
 74
0
 40
0
 40
0
 40
0
 40
0
 40
1
 40
1
 40
1
 40
1
 10
92.170287
 20
99.640229
 30
0.0
 10
90.040246
 20
100.143318
 30
0.0
 10
89.162922
 20
100.150549
 30
0.0
 10
85.950687
 20
99.691500
 30
0.0
  0
SPLINE
  5
147
100
AcDbEntity
  8
0
 62
7
100
AcDbSpline
 70
8
 71
3
 72
8
 73
4
 74
0
 40
0
 40
0
 40
0
 40
0
 40
1
 40
1
 40
1
 40
1
 10
85.950687
 20
99.691500
 30
0.0
 10
85.198990
 20
99.584076
 30
0.0
 10
84.471121
 20
99.671867
 30
0.0
 10
83.762519
 20
99.955379
 30
0.0
  0
SPLINE
  5
148
100
AcDbEntity
  8
0
 62
7
100
AcDbSpline
 70
8
 71
3
 72
8
 73
4
 74
0
 40
0
 40
0
 40
0
 40
0
 40
1
 40
1
 40
1
 40
1
 10
83.762519
 20
99.955379
 30
0.0
 10
82.317593
 20
100.533525
 30
0.0
 10
81.213553
 20
100.478516
 30
0.0
 10
79.801016
 20
99.757992
 30
0.0
  0
SPLINE
  5
149
100
AcDbEntity
  8
0
 62
7
100
AcDbSpline
 70
8
 71
3
 72
8
 73
4
 74
0
 40
0
 40
0
 40
0
 40
0
 40
1
 40
1
 40
1
 40
1
 10
79.801016
 20
99.757992
 30
0.0
 10
78.096711
 20
98.888640
 30
0.0
 10
78.070689
 20
98.191765
 30
0.0
 10
79.720078
 20
97.590541
 30
0.0
  0
SPLINE
  5
14a
100
AcDbEntity
  8
0
 62
7
100
AcDbSpline
 70
8
 71
3
 72
8
 73
4
 74
0
 40
0
 40
0
 40
0
 40
0
 40
1
 40
1
 40
1
 40
1
 10
79.720078
 20
97.590541
 30
0.0
 10
80.488565
 20
97.310416
 30
0.0
 10
81.567375
 20
96.571223
 30
0.0
 10
82.446850
 20
95.722173
 30
0.0
  0
SPLINE
  5
14b
100
AcDbEntity
  8
0
 62
7
100
AcDbSpline
 70
8
 71
3
 72
8
 73
4
 74
0
 40
0
 40
0
 40
0
 40
0
 40
1
 40
1
 40
1
 40
1
 10
82.446850
 20
95.722173
 30
0.0
 10
86.305292
 20
91.997212
 30
0.0
 10
86.677183
 20
91.713069
 30
0.0
 10
88.990339
 20
90.722651
 30
0.0
  0
SPLINE
  5
14c
100
AcDbEntity
  8
0
 62
7
100
AcDbSpline
 70
8
 71
3
 72
8
 73
4
 74
0
 40
0
 40
0
 40
0
 40
0
 40
1
 40
1
 40
1
 40
1
 10
88.990339
 20
90.722651
 30
0.0
 10
92.231014
 20
89.335097
 30
0.0
 10
95.034952
 20
87.902095
 30
0.0
 10
96.680136
 20
86.792647
 30
0.0
  0
SPLINE
  5
14d
100
AcDbEntity
  8
0
 62
7
100
AcDbSpline
 70
8
 71
3
 72
8
 73
4
 74
0
 40
0
 40
0
 40
0
 40
0
 40
1
 40
1
 40
1
 40
1
 10
96.680136
 20
86.792647
 30
0.0
 10
97.450682
 20
86.273018
 30
0.0
 10
98.819901
 20
85.576780
 30
0.0
 10
99.722845
 20
85.245451
 30
0.0
  0
LWPOLYLINE
  5
14e
100
AcDbEntity
  8
0
 62
7
100
AcDbPolyline
 90
3
 70
0
 10
64.455183
 20
97.916511
 30
0.0
 10
64.455183
 20
99.868699
 30
0.0
 10
65.390043
 20
98.933836
 30
0.0
  0
SPLINE
  5
14f
100
AcDbEntity
  8
0
 62
7
100
AcDbSpline
 70
8
 71
3
 72
8
 73
4
 74
0
 40
0
 40
0
 40
0
 40
0
 40
1
 40
1
 40
1
 40
1
 10
100.262976
 20
84.493238
 30
0.0
 10
98.327625
 20
84.230067
 30
0.0
 10
97.929115
 20
83.494666
 30
0.0
 10
98.768276
 20
81.734933
 30
0.0
  0
SPLINE
  5
150
100
AcDbEntity
  8
0
 62
7
100
AcDbSpline
 70
8
 71
3
 72
8
 73
4
 74
0
 40
0
 40
0
 40
0
 40
0
 40
1
 40
1
 40
1
 40
1
 10
98.768276
 20
81.734933
 30
0.0
 10
99.561708
 20
80.071087
 30
0.0
 10
105.503215
 20
76.459940
 30
0.0
 10
109.037475
 20
75.493486
 30
0.0
  0
SPLINE
  5
151
100
AcDbEntity
  8
0
 62
7
100
AcDbSpline
 70
8
 71
3
 72
8
 73
4
 74
0
 40
0
 40
0
 40
0
 40
0
 40
1
 40
1
 40
1
 40
1
 10
109.037475
 20
75.493486
 30
0.0
 10
112.470845
 20
74.554620
 30
0.0
 10
113.265908
 20
74.416946
 30
0.0
 10
114.761510
 20
74.502314
 30
0.0
  0
LWPOLYLINE
  5
152
100
AcDbEntity
  8
0
 62
7
100
AcDbPolyline
 90
3
 70
0
 10
99.722845
 20
85.245451
 30
0.0
 10
101.364558
 20
84.643031
 30
0.0
 10
100.262976
 20
84.493238
 30
0.0
  0
SPLINE
  5
153
100
AcDbEntity
  8
0
 62
7
100
AcDbSpline
 70
8
 71
3
 72
8
 73
4
 74
0
 40
0
 40
0
 40
0
 40
0
 40
1
 40
1
 40
1
 40
1
 10
116.142381
 20
76.005089
 30
0.0
 10
116.114856
 20
77.012512
 30
0.0
 10
115.870937
 20
77.877831
 30
0.0
 10
115.305369
 20
78.974445
 30
0.0
  0
SPLINE
  5
154
100
AcDbEntity
  8
0
 62
7
100
AcDbSpline
 70
8
 71
3
 72
8
 73
4
 74
0
 40
0
 40
0
 40
0
 40
0
 40
1
 40
1
 40
1
 40
1
 10
115.305369
 20
78.974445
 30
0.0
 10
114.866378
 20
79.825633
 30
0.0
 10
114.566300
 20
80.748050
 30
0.0
 10
114.638532
 20
81.024259
 30
0.0
  0
SPLINE
  5
155
100
AcDbEntity
  8
0
 62
7
100
AcDbSpline
 70
8
 71
3
 72
8
 73
4
 74
0
 40
0
 40
0
 40
0
 40
0
 40
1
 40
1
 40
1
 40
1
 10
114.638532
 20
81.024259
 30
0.0
 10
114.833810
 20
81.771011
 30
0.0
 10
113.283595
 20
83.380916
 30
0.0
 10
111.579917
 20
84.200648
 30
0.0
  0
SPLINE
  5
156
100
AcDbEntity
  8
0
 62
7
100
AcDbSpline
 70
8
 71
3
 72
8
 73
4
 74
0
 40
0
 40
0
 40
0
 40
0
 40
1
 40
1
 40
1
 40
1
 10
111.579917
 20
84.200648
 30
0.0
 10
110.156577
 20
84.885490
 30
0.0
 10
110.115345
 20
84.936637
 30
0.0
 10
109.838606
 20
86.360635
 30
0.0
  0
SPLINE
  5
157
100
AcDbEntity
  8
0
 62
7
100
AcDbSpline
 70
8
 71
3
 72
8
 73
4
 74
0
 40
0
 40
0
 40
0
 40
0
 40
1
 40
1
 40
1
 40
1
 10
109.838606
 20
86.360635
 30
0.0
 10
109.555455
 20
87.817640
 30
0.0
 10
108.738384
 20
89.431360
 30
0.0
 10
107.954355
 20
90.082047
 30
0.0
  0
SPLINE
  5
158
100
AcDbEntity
  8
0
 62
7
100
AcDbSpline
 70
8
 71
3
 72
8
 73
4
 74
0
 40
0
 40
0
 40
0
 40
0
 40
1
 40
1
 40
1
 40
1
 10
107.954355
 20
90.082047
 30
0.0
 10
107.725956
 20
90.271600
 30
0.0
 10
107.203489
 20
91.088657
 30
0.0
 10
106.793313
 20
91.897729
 30
0.0
  0
SPLINE
  5
159
100
AcDbEntity
  8
0
 62
7
100
AcDbSpline
 70
8
 71
3
 72
8
 73
4
 74
0
 40
0
 40
0
 40
0
 40
0
 40
1
 40
1
 40
1
 40
1
 10
106.793313
 20
91.897729
 30
0.0
 10
106.383138
 20
92.706801
 30
0.0
 10
105.231994
 20
94.309181
 30
0.0
 10
104.235216
 20
95.458576
 30
0.0
  0
SPLINE
  5
15a
100
AcDbEntity
  8
0
 62
7
100
AcDbSpline
 70
8
 71
3
 72
8
 73
4
 74
0
 40
0
 40
0
 40
0
 40
0
 40
1
 40
1
 40
1
 40
1
 10
104.235216
 20
95.458576
 30
0.0
 10
103.238438
 20
96.607969
 30
0.0
 10
101.992975
 20
98.097179
 30
0.0
 10
101.467523
 20
98.767932
 30
0.0
  0
SPLINE
  5
15b
100
AcDbEntity
  8
0
 62
7
100
AcDbSpline
 70
8
 71
3
 72
8
 73
4
 74
0
 40
0
 40
0
 40
0
 40
0
 40
1
 40
1
 40
1
 40
1
 10
101.467523
 20
98.767932
 30
0.0
 10
100.942074
 20
99.438682
 30
0.0
 10
99.930043
 20
100.446642
 30
0.0
 10
99.218565
 20
101.007841
 30
0.0
  0
SPLINE
  5
15c
100
AcDbEntity
  8
0
 62
7
100
AcDbSpline
 70
8
 71
3
 72
8
 73
4
 74
0
 40
0
 40
0
 40
0
 40
0
 40
1
 40
1
 40
1
 40
1
 10
99.218565
 20
101.007841
 30
0.0
 10
98.297048
 20
101.734718
 30
0.0
 10
98.114572
 20
101.970496
 30
0.0
 10
98.584147
 20
101.827573
 30
0.0
  0
SPLINE
  5
15d
100
AcDbEntity
  8
0
 62
7
100
AcDbSpline
 70
8
 71
3
 72
8
 73
4
 74
0
 40
0
 40
0
 40
0
 40
0
 40
1
 40
1
 40
1
 40
1
 10
98.584147
 20
101.827573
 30
0.0
 10
99.612908
 20
101.514458
 30
0.0
 10
101.642272
 20
99.675323
 30
0.0
 10
103.830583
 20
97.072934
 30
0.0
  0
SPLINE
  5
15e
100
AcDbEntity
  8
0
 62
7
100
AcDbSpline
 70
8
 71
3
 72
8
 73
4
 74
0
 40
0
 40
0
 40
0
 40
0
 40
1
 40
1
 40
1
 40
1
 10
103.830583
 20
97.072934
 30
0.0
 10
104.931882
 20
95.763247
 30
0.0
 10
106.633743
 20
93.945205
 30
0.0
 10
107.612500
 20
93.032842
 30
0.0
  0
SPLINE
  5
15f
100
AcDbEntity
  8
0
 62
7
100
AcDbSpline
 70
8
 71
3
 72
8
 73
4
 74
0
 40
0
 40
0
 40
0
 40
0
 40
1
 40
1
 40
1
 40
1
 10
107.612500
 20
93.032842
 30
0.0
 10
109.075717
 20
91.668880
 30
0.0
 10
109.513383
 20
91.057450
 30
0.0
 10
110.074562
 20
89.593259
 30
0.0
  0
SPLINE
  5
160
100
AcDbEntity
  8
0
 62
7
100
AcDbSpline
 70
8
 71
3
 72
8
 73
4
 74
0
 40
0
 40
0
 40
0
 40
0
 40
1
 40
1
 40
1
 40
1
 10
110.074562
 20
89.593259
 30
0.0
 10
111.045763
 20
87.059273
 30
0.0
 10
111.593881
 20
86.273386
 30
0.0
 10
112.996610
 20
85.403658
 30
0.0
  0
SPLINE
  5
161
100
AcDbEntity
  8
0
 62
7
100
AcDbSpline
 70
8
 71
3
 72
8
 73
4
 74
0
 40
0
 40
0
 40
0
 40
0
 40
1
 40
1
 40
1
 40
1
 10
112.996610
 20
85.403658
 30
0.0
 10
117.263667
 20
82.757976
 30
0.0
 10
117.533081
 20
82.283514
 30
0.0
 10
117.958010
 20
76.666283
 30
0.0
  0
SPLINE
  5
162
100
AcDbEntity
  8
0
 62
7
100
AcDbSpline
 70
8
 71
3
 72
8
 73
4
 74
0
 40
0
 40
0
 40
0
 40
0
 40
1
 40
1
 40
1
 40
1
 10
117.958010
 20
76.666283
 30
0.0
 10
118.360799
 20
71.341737
 30
0.0
 10
118.337171
 20
70.386694
 30
0.0
 10
117.781681
 20
69.538908
 30
0.0
  0
SPLINE
  5
163
100
AcDbEntity
  8
0
 62
7
100
AcDbSpline
 70
8
 71
3
 72
8
 73
4
 74
0
 40
0
 40
0
 40
0
 40
0
 40
1
 40
1
 40
1
 40
1
 10
117.781681
 20
69.538908
 30
0.0
 10
117.035416
 20
68.399964
 30
0.0
 10
115.989486
 20
68.154968
 30
0.0
 10
111.146127
 20
67.984605
 30
0.0
  0
SPLINE
  5
164
100
AcDbEntity
  8
0
 62
7
100
AcDbSpline
 70
8
 71
3
 72
8
 73
4
 74
0
 40
0
 40
0
 40
0
 40
0
 40
1
 40
1
 40
1
 40
1
 10
111.146127
 20
67.984605
 30
0.0
 10
106.456583
 20
67.819656
 30
0.0
 10
106.224464
 20
67.938467
 30
0.0
 10
109.600693
 20
68.775654
 30
0.0
  0
SPLINE
  5
165
100
AcDbEntity
  8
0
 62
7
100
AcDbSpline
 70
8
 71
3
 72
8
 73
4
 74
0
 40
0
 40
0
 40
0
 40
0
 40
1
 40
1
 40
1
 40
1
 10
109.600693
 20
68.775654
 30
0.0
 10
110.600612
 20
69.023600
 30
0.0
 10
111.756833
 20
69.398549
 30
0.0
 10
112.170075
 20
69.608877
 30
0.0
  0
SPLINE
  5
166
100
AcDbEntity
  8
0
 62
7
100
AcDbSpline
 70
8
 71
3
 72
8
 73
4
 74
0
 40
0
 40
0
 40
0
 40
0
 40
1
 40
1
 40
1
 40
1
 10
112.170075
 20
69.608877
 30
0.0
 10
112.885215
 20
69.972859
 30
0.0
 10
112.899724
 20
70.015269
 30
0.0
 10
112.471152
 20
70.488834
 30
0.0
  0
SPLINE
  5
167
100
AcDbEntity
  8
0
 62
7
100
AcDbSpline
 70
8
 71
3
 72
8
 73
4
 74
0
 40
0
 40
0
 40
0
 40
0
 40
1
 40
1
 40
1
 40
1
 10
112.471152
 20
70.488834
 30
0.0
 10
112.018495
 20
70.989015
 30
0.0
 10
109.059282
 20
73.073403
 30
0.0
 10
107.298450
 20
74.132339
 30
0.0
  0
LWPOLYLINE
  5
168
100
AcDbEntity
  8
0
 62
7
100
AcDbPolyline
 90
3
 70
0
 10
114.761510
 20
74.502314
 30
0.0
 10
116.181225
 20
74.583351
 30
0.0
 10
116.142381
 20
76.005089
 30
0.0
  0
SPLINE
  5
169
100
AcDbEntity
  8
0
 62
7
100
AcDbSpline
 70
8
 71
3
 72
8
 73
4
 74
0
 40
0
 40
0
 40
0
 40
0
 40
1
 40
1
 40
1
 40
1
 10
105.697613
 20
73.533616
 30
0.0
 10
105.206202
 20
73.783201
 30
0.0
 10
103.778423
 20
74.746570
 30
0.0
 10
102.524769
 20
75.674440
 30
0.0
  0
SPLINE
  5
16a
100
AcDbEntity
  8
0
 62
7
100
AcDbSpline
 70
8
 71
3
 72
8
 73
4
 74
0
 40
0
 40
0
 40
0
 40
0
 40
1
 40
1
 40
1
 40
1
 10
102.524769
 20
75.674440
 30
0.0
 10
99.850615
 20
77.653666
 30
0.0
 10
99.252783
 20
77.780179
 30
0.0
 10
99.031047
 20
76.413781
 30
0.0
  0
SPLINE
  5
16b
100
AcDbEntity
  8
0
 62
7
100
AcDbSpline
 70
8
 71
3
 72
8
 73
4
 74
0
 40
0
 40
0
 40
0
 40
0
 40
1
 40
1
 40
1
 40
1
 10
99.031047
 20
76.413781
 30
0.0
 10
98.787011
 20
74.909953
 30
0.0
 10
97.811680
 20
73.151556
 30
0.0
 10
96.984262
 20
72.723682
 30
0.0
  0
LWPOLYLINE
  5
16c
100
AcDbEntity
  8
0
 62
7
100
AcDbPolyline
 90
5
 70
0
 10
107.298450
 20
74.132339
 30
0.0
 10
106.353173
 20
74.700815
 30
0.0
 10
106.472130
 20
73.890322
 30
0.0
 10
106.591084
 20
73.079827
 30
0.0
 10
105.697613
 20
73.533616
 30
0.0
  0
SPLINE
  5
16d
100
AcDbEntity
  8
0
 62
7
100
AcDbSpline
 70
8
 71
3
 72
8
 73
4
 74
0
 40
0
 40
0
 40
0
 40
0
 40
1
 40
1
 40
1
 40
1
 10
96.771375
 20
71.474129
 30
0.0
 10
98.507889
 20
68.716938
 30
0.0
 10
100.493518
 20
64.807999
 30
0.0
 10
101.005958
 20
63.137870
 30
0.0
  0
SPLINE
  5
16e
100
AcDbEntity
  8
0
 62
7
100
AcDbSpline
 70
8
 71
3
 72
8
 73
4
 74
0
 40
0
 40
0
 40
0
 40
0
 40
1
 40
1
 40
1
 40
1
 10
101.005958
 20
63.137870
 30
0.0
 10
101.578365
 20
61.272298
 30
0.0
 10
101.622188
 20
61.213495
 30
0.0
 10
102.406746
 20
61.258191
 30
0.0
  0
SPLINE
  5
16f
100
AcDbEntity
  8
0
 62
7
100
AcDbSpline
 70
8
 71
3
 72
8
 73
4
 74
0
 40
0
 40
0
 40
0
 40
0
 40
1
 40
1
 40
1
 40
1
 10
102.406746
 20
61.258191
 30
0.0
 10
103.233688
 20
61.305300
 30
0.0
 10
106.259350
 20
60.744902
 30
0.0
 10
106.259350
 20
60.544628
 30
0.0
  0
SPLINE
  5
170
100
AcDbEntity
  8
0
 62
7
100
AcDbSpline
 70
8
 71
3
 72
8
 73
4
 74
0
 40
0
 40
0
 40
0
 40
0
 40
1
 40
1
 40
1
 40
1
 10
106.259350
 20
60.544628
 30
0.0
 10
106.259350
 20
60.483811
 30
0.0
 10
105.278428
 20
59.940851
 30
0.0
 10
104.079524
 20
59.338054
 30
0.0
  0
SPLINE
  5
171
100
AcDbEntity
  8
0
 62
7
100
AcDbSpline
 70
8
 71
3
 72
8
 73
4
 74
0
 40
0
 40
0
 40
0
 40
0
 40
1
 40
1
 40
1
 40
1
 10
104.079524
 20
59.338054
 30
0.0
 10
102.880620
 20
58.735256
 30
0.0
 10
101.541167
 20
57.981794
 30
0.0
 10
101.102962
 20
57.663691
 30
0.0
  0
SPLINE
  5
172
100
AcDbEntity
  8
0
 62
7
100
AcDbSpline
 70
8
 71
3
 72
8
 73
4
 74
0
 40
0
 40
0
 40
0
 40
0
 40
1
 40
1
 40
1
 40
1
 10
101.102962
 20
57.663691
 30
0.0
 10
100.197957
 20
57.006733
 30
0.0
 10
95.367279
 20
54.733844
 30
0.0
 10
94.328845
 20
54.476391
 30
0.0
  0
SPLINE
  5
173
100
AcDbEntity
  8
0
 62
7
100
AcDbSpline
 70
8
 71
3
 72
8
 73
4
 74
0
 40
0
 40
0
 40
0
 40
0
 40
1
 40
1
 40
1
 40
1
 10
94.328845
 20
54.476391
 30
0.0
 10
93.816112
 20
54.349274
 30
0.0
 10
93.439385
 20
54.477714
 30
0.0
 10
92.835444
 20
54.986015
 30
0.0
  0
SPLINE
  5
174
100
AcDbEntity
  8
0
 62
7
100
AcDbSpline
 70
8
 71
3
 72
8
 73
4
 74
0
 40
0
 40
0
 40
0
 40
0
 40
1
 40
1
 40
1
 40
1
 10
92.835444
 20
54.986015
 30
0.0
 10
92.196727
 20
55.523461
 30
0.0
 10
91.742395
 20
55.665643
 30
0.0
 10
90.663744
 20
55.665643
 30
0.0
  0
SPLINE
  5
175
100
AcDbEntity
  8
0
 62
7
100
AcDbSpline
 70
8
 71
3
 72
8
 73
4
 74
0
 40
0
 40
0
 40
0
 40
0
 40
1
 40
1
 40
1
 40
1
 10
90.663744
 20
55.665643
 30
0.0
 10
88.890964
 20
55.665643
 30
0.0
 10
87.915390
 20
56.195643
 30
0.0
 10
87.087348
 20
57.608592
 30
0.0
  0
SPLINE
  5
176
100
AcDbEntity
  8
0
 62
7
100
AcDbSpline
 70
8
 71
3
 72
8
 73
4
 74
0
 40
0
 40
0
 40
0
 40
0
 40
1
 40
1
 40
1
 40
1
 10
87.087348
 20
57.608592
 30
0.0
 10
86.360146
 20
58.849469
 30
0.0
 10
86.250224
 20
59.238663
 30
0.0
 10
86.706631
 20
58.956588
 30
0.0
  0
SPLINE
  5
177
100
AcDbEntity
  8
0
 62
7
100
AcDbSpline
 70
8
 71
3
 72
8
 73
4
 74
0
 40
0
 40
0
 40
0
 40
0
 40
1
 40
1
 40
1
 40
1
 10
86.706631
 20
58.956588
 30
0.0
 10
86.866696
 20
58.857663
 30
0.0
 10
87.670367
 20
58.683417
 30
0.0
 10
88.492568
 20
58.569378
 30
0.0
  0
SPLINE
  5
178
100
AcDbEntity
  8
0
 62
7
100
AcDbSpline
 70
8
 71
3
 72
8
 73
4
 74
0
 40
0
 40
0
 40
0
 40
0
 40
1
 40
1
 40
1
 40
1
 10
88.492568
 20
58.569378
 30
0.0
 10
89.314766
 20
58.455338
 30
0.0
 10
90.228629
 20
58.284232
 30
0.0
 10
90.523375
 20
58.189140
 30
0.0
  0
SPLINE
  5
179
100
AcDbEntity
  8
0
 62
7
100
AcDbSpline
 70
8
 71
3
 72
8
 73
4
 74
0
 40
0
 40
0
 40
0
 40
0
 40
1
 40
1
 40
1
 40
1
 10
90.523375
 20
58.189140
 30
0.0
 10
90.999490
 20
58.035537
 30
0.0
 10
91.112766
 20
58.217192
 30
0.0
 10
91.538782
 20
59.817508
 30
0.0
  0
SPLINE
  5
17a
100
AcDbEntity
  8
0
 62
7
100
AcDbSpline
 70
8
 71
3
 72
8
 73
4
 74
0
 40
0
 40
0
 40
0
 40
0
 40
1
 40
1
 40
1
 40
1
 10
91.538782
 20
59.817508
 30
0.0
 10
92.297036
 20
62.665861
 30
0.0
 10
92.965550
 20
63.062718
 30
0.0
 10
93.578849
 20
61.028569
 30
0.0
  0
SPLINE
  5
17b
100
AcDbEntity
  8
0
 62
7
100
AcDbSpline
 70
8
 71
3
 72
8
 73
4
 74
0
 40
0
 40
0
 40
0
 40
0
 40
1
 40
1
 40
1
 40
1
 10
93.578849
 20
61.028569
 30
0.0
 10
94.225248
 20
58.884640
 30
0.0
 10
96.379022
 20
57.936450
 30
0.0
 10
97.894579
 20
59.128589
 30
0.0
  0
SPLINE
  5
17c
100
AcDbEntity
  8
0
 62
7
100
AcDbSpline
 70
8
 71
3
 72
8
 73
4
 74
0
 40
0
 40
0
 40
0
 40
0
 40
1
 40
1
 40
1
 40
1
 10
97.894579
 20
59.128589
 30
0.0
 10
98.854580
 20
59.883725
 30
0.0
 10
99.380183
 20
60.990604
 30
0.0
 10
99.380183
 20
62.257162
 30
0.0
  0
SPLINE
  5
17d
100
AcDbEntity
  8
0
 62
7
100
AcDbSpline
 70
8
 71
3
 72
8
 73
4
 74
0
 40
0
 40
0
 40
0
 40
0
 40
1
 40
1
 40
1
 40
1
 10
99.380183
 20
62.257162
 30
0.0
 10
99.380183
 20
63.555142
 30
0.0
 10
98.478094
 20
66.051851
 30
0.0
 10
97.702664
 20
66.900023
 30
0.0
  0
SPLINE
  5
17e
100
AcDbEntity
  8
0
 62
7
100
AcDbSpline
 70
8
 71
3
 72
8
 73
4
 74
0
 40
0
 40
0
 40
0
 40
0
 40
1
 40
1
 40
1
 40
1
 10
97.702664
 20
66.900023
 30
0.0
 10
97.388370
 20
67.243799
 30
0.0
 10
95.818539
 20
68.191978
 30
0.0
 10
94.214146
 20
69.007093
 30
0.0
  0
LWPOLYLINE
  5
17f
100
AcDbEntity
  8
0
 62
7
100
AcDbPolyline
 90
3
 70
0
 10
96.984262
 20
72.723682
 30
0.0
 10
96.230035
 20
72.333654
 30
0.0
 10
96.771375
 20
71.474129
 30
0.0
  0
SPLINE
  5
180
100
AcDbEntity
  8
0
 62
7
100
AcDbSpline
 70
8
 71
3
 72
8
 73
4
 74
0
 40
0
 40
0
 40
0
 40
0
 40
1
 40
1
 40
1
 40
1
 10
89.875839
 20
70.067056
 30
0.0
 10
88.777868
 20
69.740994
 30
0.0
 10
87.899719
 20
69.686599
 30
0.0
 10
86.015005
 20
69.827902
 30
0.0
  0
SPLINE
  5
181
100
AcDbEntity
  8
0
 62
7
100
AcDbSpline
 70
8
 71
3
 72
8
 73
4
 74
0
 40
0
 40
0
 40
0
 40
0
 40
1
 40
1
 40
1
 40
1
 10
86.015005
 20
69.827902
 30
0.0
 10
83.349155
 20
70.027768
 30
0.0
 10
83.198047
 20
70.078695
 30
0.0
 10
82.751041
 20
70.927936
 30
0.0
  0
SPLINE
  5
182
100
AcDbEntity
  8
0
 62
7
100
AcDbSpline
 70
8
 71
3
 72
8
 73
4
 74
0
 40
0
 40
0
 40
0
 40
0
 40
1
 40
1
 40
1
 40
1
 10
82.751041
 20
70.927936
 30
0.0
 10
82.313918
 20
71.758405
 30
0.0
 10
82.375425
 20
72.452323
 30
0.0
 10
82.930704
 20
72.954843
 30
0.0
  0
SPLINE
  5
183
100
AcDbEntity
  8
0
 62
7
100
AcDbSpline
 70
8
 71
3
 72
8
 73
4
 74
0
 40
0
 40
0
 40
0
 40
0
 40
1
 40
1
 40
1
 40
1
 10
82.930704
 20
72.954843
 30
0.0
 10
83.665388
 20
73.619722
 30
0.0
 10
84.401594
 20
73.486179
 30
0.0
 10
85.621850
 20
72.466684
 30
0.0
  0
SPLINE
  5
184
100
AcDbEntity
  8
0
 62
7
100
AcDbSpline
 70
8
 71
3
 72
8
 73
4
 74
0
 40
0
 40
0
 40
0
 40
0
 40
1
 40
1
 40
1
 40
1
 10
85.621850
 20
72.466684
 30
0.0
 10
86.841423
 20
71.447761
 30
0.0
 10
87.537216
 20
71.338882
 30
0.0
 10
88.979105
 20
71.941341
 30
0.0
  0
SPLINE
  5
185
100
AcDbEntity
  8
0
 62
7
100
AcDbSpline
 70
8
 71
3
 72
8
 73
4
 74
0
 40
0
 40
0
 40
0
 40
0
 40
1
 40
1
 40
1
 40
1
 10
88.979105
 20
71.941341
 30
0.0
 10
89.592391
 20
72.197590
 30
0.0
 10
90.638987
 20
72.323947
 30
0.0
 10
91.882288
 20
72.291848
 30
0.0
  0
SPLINE
  5
186
100
AcDbEntity
  8
0
 62
7
100
AcDbSpline
 70
8
 71
3
 72
8
 73
4
 74
0
 40
0
 40
0
 40
0
 40
0
 40
1
 40
1
 40
1
 40
1
 10
91.882288
 20
72.291848
 30
0.0
 10
93.670742
 20
72.245675
 30
0.0
 10
93.916426
 20
72.306611
 30
0.0
 10
94.949677
 20
73.052781
 30
0.0
  0
SPLINE
  5
187
100
AcDbEntity
  8
0
 62
7
100
AcDbSpline
 70
8
 71
3
 72
8
 73
4
 74
0
 40
0
 40
0
 40
0
 40
0
 40
1
 40
1
 40
1
 40
1
 10
94.949677
 20
73.052781
 30
0.0
 10
95.899401
 20
73.738624
 30
0.0
 10
96.202630
 20
74.205542
 30
0.0
 10
96.912856
 20
76.075715
 30
0.0
  0
SPLINE
  5
188
100
AcDbEntity
  8
0
 62
7
100
AcDbSpline
 70
8
 71
3
 72
8
 73
4
 74
0
 40
0
 40
0
 40
0
 40
0
 40
1
 40
1
 40
1
 40
1
 10
96.912856
 20
76.075715
 30
0.0
 10
97.790257
 20
78.386093
 30
0.0
 10
98.042669
 20
80.485419
 30
0.0
 10
97.461954
 20
80.642606
 30
0.0
  0
SPLINE
  5
189
100
AcDbEntity
  8
0
 62
7
100
AcDbSpline
 70
8
 71
3
 72
8
 73
4
 74
0
 40
0
 40
0
 40
0
 40
0
 40
1
 40
1
 40
1
 40
1
 10
97.461954
 20
80.642606
 30
0.0
 10
97.280053
 20
80.691842
 30
0.0
 10
96.430999
 20
80.863686
 30
0.0
 10
95.575170
 20
81.024484
 30
0.0
  0
SPLINE
  5
18a
100
AcDbEntity
  8
0
 62
7
100
AcDbSpline
 70
8
 71
3
 72
8
 73
4
 74
0
 40
0
 40
0
 40
0
 40
0
 40
1
 40
1
 40
1
 40
1
 10
95.575170
 20
81.024484
 30
0.0
 10
94.170704
 20
81.288363
 30
0.0
 10
93.947030
 20
81.265511
 30
0.0
 10
93.279116
 20
80.789915
 30
0.0
  0
SPLINE
  5
18b
100
AcDbEntity
  8
0
 62
7
100
AcDbSpline
 70
8
 71
3
 72
8
 73
4
 74
0
 40
0
 40
0
 40
0
 40
0
 40
1
 40
1
 40
1
 40
1
 10
93.279116
 20
80.789915
 30
0.0
 10
92.872116
 20
80.500106
 30
0.0
 10
92.402247
 20
79.848273
 30
0.0
 10
92.234964
 20
79.341398
 30
0.0
  0
SPLINE
  5
18c
100
AcDbEntity
  8
0
 62
7
100
AcDbSpline
 70
8
 71
3
 72
8
 73
4
 74
0
 40
0
 40
0
 40
0
 40
0
 40
1
 40
1
 40
1
 40
1
 10
92.234964
 20
79.341398
 30
0.0
 10
91.907402
 20
78.348877
 30
0.0
 10
91.594350
 20
78.172109
 30
0.0
 10
91.339646
 20
78.835851
 30
0.0
  0
SPLINE
  5
18d
100
AcDbEntity
  8
0
 62
7
100
AcDbSpline
 70
8
 71
3
 72
8
 73
4
 74
0
 40
0
 40
0
 40
0
 40
0
 40
1
 40
1
 40
1
 40
1
 10
91.339646
 20
78.835851
 30
0.0
 10
91.135994
 20
79.366565
 30
0.0
 10
91.523013
 20
80.088552
 30
0.0
 10
92.367052
 20
80.752474
 30
0.0
  0
SPLINE
  5
18e
100
AcDbEntity
  8
0
 62
7
100
AcDbSpline
 70
8
 71
3
 72
8
 73
4
 74
0
 40
0
 40
0
 40
0
 40
0
 40
1
 40
1
 40
1
 40
1
 10
92.367052
 20
80.752474
 30
0.0
 10
92.731775
 20
81.039364
 30
0.0
 10
93.030183
 20
81.346254
 30
0.0
 10
93.030183
 20
81.434451
 30
0.0
  0
SPLINE
  5
18f
100
AcDbEntity
  8
0
 62
7
100
AcDbSpline
 70
8
 71
3
 72
8
 73
4
 74
0
 40
0
 40
0
 40
0
 40
0
 40
1
 40
1
 40
1
 40
1
 10
93.030183
 20
81.434451
 30
0.0
 10
93.030183
 20
81.522647
 30
0.0
 10
92.226511
 20
81.600035
 30
0.0
 10
91.244245
 20
81.606422
 30
0.0
  0
LWPOLYLINE
  5
190
100
AcDbEntity
  8
0
 62
7
100
AcDbPolyline
 90
3
 70
0
 10
94.214146
 20
69.007093
 30
0.0
 10
91.297069
 20
70.489117
 30
0.0
 10
89.875839
 20
70.067056
 30
0.0
  0
SPLINE
  5
191
100
AcDbEntity
  8
0
 62
7
100
AcDbSpline
 70
8
 71
3
 72
8
 73
4
 74
0
 40
0
 40
0
 40
0
 40
0
 40
1
 40
1
 40
1
 40
1
 10
90.516641
 20
81.999315
 30
0.0
 10
91.098725
 20
82.209016
 30
0.0
 10
91.604740
 20
82.382384
 30
0.0
 10
91.641120
 20
82.384575
 30
0.0
  0
SPLINE
  5
192
100
AcDbEntity
  8
0
 62
7
100
AcDbSpline
 70
8
 71
3
 72
8
 73
4
 74
0
 40
0
 40
0
 40
0
 40
0
 40
1
 40
1
 40
1
 40
1
 10
91.641120
 20
82.384575
 30
0.0
 10
92.186781
 20
82.417438
 30
0.0
 10
89.184557
 20
84.776220
 30
0.0
 10
86.640784
 20
86.313230
 30
0.0
  0
SPLINE
  5
193
100
AcDbEntity
  8
0
 62
7
100
AcDbSpline
 70
8
 71
3
 72
8
 73
4
 74
0
 40
0
 40
0
 40
0
 40
0
 40
1
 40
1
 40
1
 40
1
 10
86.640784
 20
86.313230
 30
0.0
 10
86.109794
 20
86.634069
 30
0.0
 10
85.003984
 20
87.127554
 30
0.0
 10
84.183432
 20
87.409867
 30
0.0
  0
LWPOLYLINE
  5
194
100
AcDbEntity
  8
0
 62
7
100
AcDbPolyline
 90
3
 70
0
 10
91.244245
 20
81.606422
 30
0.0
 10
89.458308
 20
81.618037
 30
0.0
 10
90.516641
 20
81.999315
 30
0.0
  0
SPLINE
  5
195
100
AcDbEntity
  8
0
 62
7
100
AcDbSpline
 70
8
 71
3
 72
8
 73
4
 74
0
 40
0
 40
0
 40
0
 40
0
 40
1
 40
1
 40
1
 40
1
 10
82.865153
 20
86.941798
 30
0.0
 10
82.960655
 20
86.402048
 30
0.0
 10
83.203299
 20
85.310197
 30
0.0
 10
83.404363
 20
84.515460
 30
0.0
  0
SPLINE
  5
196
100
AcDbEntity
  8
0
 62
7
100
AcDbSpline
 70
8
 71
3
 72
8
 73
4
 74
0
 40
0
 40
0
 40
0
 40
0
 40
1
 40
1
 40
1
 40
1
 10
83.404363
 20
84.515460
 30
0.0
 10
83.605428
 20
83.720726
 30
0.0
 10
83.696156
 20
82.827757
 30
0.0
 10
83.605984
 20
82.531085
 30
0.0
  0
SPLINE
  5
197
100
AcDbEntity
  8
0
 62
7
100
AcDbSpline
 70
8
 71
3
 72
8
 73
4
 74
0
 40
0
 40
0
 40
0
 40
0
 40
1
 40
1
 40
1
 40
1
 10
83.605984
 20
82.531085
 30
0.0
 10
83.515814
 20
82.234416
 30
0.0
 10
82.624147
 20
80.607546
 30
0.0
 10
81.624503
 20
78.915818
 30
0.0
  0
SPLINE
  5
198
100
AcDbEntity
  8
0
 62
7
100
AcDbSpline
 70
8
 71
3
 72
8
 73
4
 74
0
 40
0
 40
0
 40
0
 40
0
 40
1
 40
1
 40
1
 40
1
 10
81.624503
 20
78.915818
 30
0.0
 10
78.655661
 20
73.891561
 30
0.0
 10
78.542290
 20
72.700031
 30
0.0
 10
80.427692
 20
66.337458
 30
0.0
  0
SPLINE
  5
199
100
AcDbEntity
  8
0
 62
7
100
AcDbSpline
 70
8
 71
3
 72
8
 73
4
 74
0
 40
0
 40
0
 40
0
 40
0
 40
1
 40
1
 40
1
 40
1
 10
80.427692
 20
66.337458
 30
0.0
 10
81.613076
 20
62.337204
 30
0.0
 10
81.773715
 20
61.412475
 30
0.0
 10
81.403425
 20
60.720586
 30
0.0
  0
SPLINE
  5
19a
100
AcDbEntity
  8
0
 62
7
100
AcDbSpline
 70
8
 71
3
 72
8
 73
4
 74
0
 40
0
 40
0
 40
0
 40
0
 40
1
 40
1
 40
1
 40
1
 10
81.403425
 20
60.720586
 30
0.0
 10
81.012284
 20
59.989728
 30
0.0
 10
80.252070
 20
60.009376
 30
0.0
 10
77.590319
 20
60.819131
 30
0.0
  0
SPLINE
  5
19b
100
AcDbEntity
  8
0
 62
7
100
AcDbSpline
 70
8
 71
3
 72
8
 73
4
 74
0
 40
0
 40
0
 40
0
 40
0
 40
1
 40
1
 40
1
 40
1
 10
77.590319
 20
60.819131
 30
0.0
 10
76.405110
 20
61.179694
 30
0.0
 10
74.185235
 20
61.723736
 30
0.0
 10
72.657266
 20
62.028112
 30
0.0
  0
SPLINE
  5
19c
100
AcDbEntity
  8
0
 62
7
100
AcDbSpline
 70
8
 71
3
 72
8
 73
4
 74
0
 40
0
 40
0
 40
0
 40
0
 40
1
 40
1
 40
1
 40
1
 10
72.657266
 20
62.028112
 30
0.0
 10
70.874012
 20
62.383342
 30
0.0
 10
68.884271
 20
63.020964
 30
0.0
 10
67.101016
 20
63.808639
 30
0.0
  0
SPLINE
  5
19d
100
AcDbEntity
  8
0
 62
7
100
AcDbSpline
 70
8
 71
3
 72
8
 73
4
 74
0
 40
0
 40
0
 40
0
 40
0
 40
1
 40
1
 40
1
 40
1
 10
67.101016
 20
63.808639
 30
0.0
 10
64.507779
 20
64.954089
 30
0.0
 10
64.173219
 20
65.035777
 30
0.0
 10
62.073933
 20
65.036070
 30
0.0
  0
SPLINE
  5
19e
100
AcDbEntity
  8
0
 62
7
100
AcDbSpline
 70
8
 71
3
 72
8
 73
4
 74
0
 40
0
 40
0
 40
0
 40
0
 40
1
 40
1
 40
1
 40
1
 10
62.073933
 20
65.036070
 30
0.0
 10
60.837006
 20
65.036242
 30
0.0
 10
58.574818
 20
64.938910
 30
0.0
 10
57.046850
 20
64.819776
 30
0.0
  0
SPLINE
  5
19f
100
AcDbEntity
  8
0
 62
7
100
AcDbSpline
 70
8
 71
3
 72
8
 73
4
 74
0
 40
0
 40
0
 40
0
 40
0
 40
1
 40
1
 40
1
 40
1
 10
57.046850
 20
64.819776
 30
0.0
 10
54.471065
 20
64.618947
 30
0.0
 10
54.136385
 20
64.526007
 30
0.0
 10
52.451709
 20
63.543712
 30
0.0
  0
SPLINE
  5
1a0
100
AcDbEntity
  8
0
 62
7
100
AcDbSpline
 70
8
 71
3
 72
8
 73
4
 74
0
 40
0
 40
0
 40
0
 40
0
 40
1
 40
1
 40
1
 40
1
 10
52.451709
 20
63.543712
 30
0.0
 10
51.452351
 20
62.961007
 30
0.0
 10
49.755727
 20
61.649319
 30
0.0
 10
48.681434
 20
60.628848
 30
0.0
  0
SPLINE
  5
1a1
100
AcDbEntity
  8
0
 62
7
100
AcDbSpline
 70
8
 71
3
 72
8
 73
4
 74
0
 40
0
 40
0
 40
0
 40
0
 40
1
 40
1
 40
1
 40
1
 10
48.681434
 20
60.628848
 30
0.0
 10
46.382980
 20
58.445540
 30
0.0
 10
45.593217
 20
56.989723
 30
0.0
 10
44.194783
 20
52.358351
 30
0.0
  0
LWPOLYLINE
  5
1a2
100
AcDbEntity
  8
0
 62
7
100
AcDbPolyline
 90
3
 70
0
 10
84.183432
 20
87.409867
 30
0.0
 10
82.691515
 20
87.923161
 30
0.0
 10
82.865153
 20
86.941798
 30
0.0
  0
SPLINE
  5
1a3
100
AcDbEntity
  8
0
 62
7
100
AcDbSpline
 70
8
 71
3
 72
8
 73
4
 74
0
 40
0
 40
0
 40
0
 40
0
 40
1
 40
1
 40
1
 40
1
 10
43.660089
 20
46.781807
 30
0.0
 10
44.275603
 20
43.295440
 30
0.0
 10
44.890367
 20
36.018139
 30
0.0
 10
45.133554
 20
29.339601
 30
0.0
  0
SPLINE
  5
1a4
100
AcDbEntity
  8
0
 62
7
100
AcDbSpline
 70
8
 71
3
 72
8
 73
4
 74
0
 40
0
 40
0
 40
0
 40
0
 40
1
 40
1
 40
1
 40
1
 10
45.133554
 20
29.339601
 30
0.0
 10
45.306792
 20
24.582038
 30
0.0
 10
45.453345
 20
23.132124
 30
0.0
 10
45.935844
 20
21.402101
 30
0.0
  0
SPLINE
  5
1a5
100
AcDbEntity
  8
0
 62
7
100
AcDbSpline
 70
8
 71
3
 72
8
 73
4
 74
0
 40
0
 40
0
 40
0
 40
0
 40
1
 40
1
 40
1
 40
1
 10
45.935844
 20
21.402101
 30
0.0
 10
46.260531
 20
20.237934
 30
0.0
 10
46.582576
 20
18.975377
 30
0.0
 10
46.651505
 20
18.596417
 30
0.0
  0
SPLINE
  5
1a6
100
AcDbEntity
  8
0
 62
7
100
AcDbSpline
 70
8
 71
3
 72
8
 73
4
 74
0
 40
0
 40
0
 40
0
 40
0
 40
1
 40
1
 40
1
 40
1
 10
46.651505
 20
18.596417
 30
0.0
 10
46.749422
 20
18.058101
 30
0.0
 10
47.084245
 20
17.779987
 30
0.0
 10
48.182363
 20
17.324840
 30
0.0
  0
SPLINE
  5
1a7
100
AcDbEntity
  8
0
 62
7
100
AcDbSpline
 70
8
 71
3
 72
8
 73
4
 74
0
 40
0
 40
0
 40
0
 40
0
 40
1
 40
1
 40
1
 40
1
 10
48.182363
 20
17.324840
 30
0.0
 10
48.955407
 20
17.004432
 30
0.0
 10
51.057802
 20
15.894391
 30
0.0
 10
52.854352
 20
14.858082
 30
0.0
  0
SPLINE
  5
1a8
100
AcDbEntity
  8
0
 62
7
100
AcDbSpline
 70
8
 71
3
 72
8
 73
4
 74
0
 40
0
 40
0
 40
0
 40
0
 40
1
 40
1
 40
1
 40
1
 10
52.854352
 20
14.858082
 30
0.0
 10
56.440319
 20
12.789580
 30
0.0
 10
59.228141
 20
11.528502
 30
0.0
 10
62.150416
 20
10.652990
 30
0.0
  0
SPLINE
  5
1a9
100
AcDbEntity
  8
0
 62
7
100
AcDbSpline
 70
8
 71
3
 72
8
 73
4
 74
0
 40
0
 40
0
 40
0
 40
0
 40
1
 40
1
 40
1
 40
1
 10
62.150416
 20
10.652990
 30
0.0
 10
63.199756
 20
10.338610
 30
0.0
 10
66.326496
 20
9.215049
 30
0.0
 10
69.098729
 20
8.156191
 30
0.0
  0
SPLINE
  5
1aa
100
AcDbEntity
  8
0
 62
7
100
AcDbSpline
 70
8
 71
3
 72
8
 73
4
 74
0
 40
0
 40
0
 40
0
 40
0
 40
1
 40
1
 40
1
 40
1
 10
69.098729
 20
8.156191
 30
0.0
 10
71.870959
 20
7.097334
 30
0.0
 10
74.902280
 20
6.092616
 30
0.0
 10
75.834994
 20
5.923481
 30
0.0
  0
SPLINE
  5
1ab
100
AcDbEntity
  8
0
 62
7
100
AcDbSpline
 70
8
 71
3
 72
8
 73
4
 74
0
 40
0
 40
0
 40
0
 40
0
 40
1
 40
1
 40
1
 40
1
 10
75.834994
 20
5.923481
 30
0.0
 10
79.345544
 20
5.286896
 30
0.0
 10
81.395671
 20
6.148258
 30
0.0
 10
85.665683
 20
10.053839
 30
0.0
  0
SPLINE
  5
1ac
100
AcDbEntity
  8
0
 62
7
100
AcDbSpline
 70
8
 71
3
 72
8
 73
4
 74
0
 40
0
 40
0
 40
0
 40
0
 40
1
 40
1
 40
1
 40
1
 10
85.665683
 20
10.053839
 30
0.0
 10
87.315064
 20
11.562453
 30
0.0
 10
89.909790
 20
13.840002
 30
0.0
 10
91.431742
 20
15.115061
 30
0.0
  0
SPLINE
  5
1ad
100
AcDbEntity
  8
0
 62
7
100
AcDbSpline
 70
8
 71
3
 72
8
 73
4
 74
0
 40
0
 40
0
 40
0
 40
0
 40
1
 40
1
 40
1
 40
1
 10
91.431742
 20
15.115061
 30
0.0
 10
95.376291
 20
18.419723
 30
0.0
 10
96.661637
 20
19.634488
 30
0.0
 10
97.290636
 20
20.652232
 30
0.0
  0
LWPOLYLINE
  5
1ae
100
AcDbEntity
  8
0
 62
7
100
AcDbPolyline
 90
3
 70
0
 10
44.194783
 20
52.358351
 30
0.0
 10
43.236097
 20
49.183351
 30
0.0
 10
43.660089
 20
46.781807
 30
0.0
  0
SPLINE
  5
1af
100
AcDbEntity
  8
0
 62
7
100
AcDbSpline
 70
8
 71
3
 72
8
 73
4
 74
0
 40
0
 40
0
 40
0
 40
0
 40
1
 40
1
 40
1
 40
1
 10
97.025748
 20
25.178322
 30
0.0
 10
96.576182
 20
27.175984
 30
0.0
 10
95.969516
 20
29.695352
 30
0.0
 10
95.677601
 20
30.776915
 30
0.0
  0
SPLINE
  5
1b0
100
AcDbEntity
  8
0
 62
7
100
AcDbSpline
 70
8
 71
3
 72
8
 73
4
 74
0
 40
0
 40
0
 40
0
 40
0
 40
1
 40
1
 40
1
 40
1
 10
95.677601
 20
30.776915
 30
0.0
 10
95.385689
 20
31.858482
 30
0.0
 10
95.146850
 20
32.943752
 30
0.0
 10
95.146850
 20
33.188630
 30
0.0
  0
SPLINE
  5
1b1
100
AcDbEntity
  8
0
 62
7
100
AcDbSpline
 70
8
 71
3
 72
8
 73
4
 74
0
 40
0
 40
0
 40
0
 40
0
 40
1
 40
1
 40
1
 40
1
 10
95.146850
 20
33.188630
 30
0.0
 10
95.146850
 20
33.926248
 30
0.0
 10
94.158200
 20
34.948061
 30
0.0
 10
93.273277
 20
35.125044
 30
0.0
  0
SPLINE
  5
1b2
100
AcDbEntity
  8
0
 62
7
100
AcDbSpline
 70
8
 71
3
 72
8
 73
4
 74
0
 40
0
 40
0
 40
0
 40
0
 40
1
 40
1
 40
1
 40
1
 10
93.273277
 20
35.125044
 30
0.0
 10
91.976726
 20
35.384354
 30
0.0
 10
90.325022
 20
34.529623
 30
0.0
 10
89.703836
 20
33.277913
 30
0.0
  0
SPLINE
  5
1b3
100
AcDbEntity
  8
0
 62
7
100
AcDbSpline
 70
8
 71
3
 72
8
 73
4
 74
0
 40
0
 40
0
 40
0
 40
0
 40
1
 40
1
 40
1
 40
1
 10
89.703836
 20
33.277913
 30
0.0
 10
89.289623
 20
32.443256
 30
0.0
 10
89.205922
 20
31.777485
 30
0.0
 10
89.258600
 20
29.736476
 30
0.0
  0
SPLINE
  5
1b4
100
AcDbEntity
  8
0
 62
7
100
AcDbSpline
 70
8
 71
3
 72
8
 73
4
 74
0
 40
0
 40
0
 40
0
 40
0
 40
1
 40
1
 40
1
 40
1
 10
89.258600
 20
29.736476
 30
0.0
 10
89.294279
 20
28.354028
 30
0.0
 10
89.439880
 20
26.806215
 30
0.0
 10
89.582154
 20
26.296893
 30
0.0
  0
SPLINE
  5
1b5
100
AcDbEntity
  8
0
 62
7
100
AcDbSpline
 70
8
 71
3
 72
8
 73
4
 74
0
 40
0
 40
0
 40
0
 40
0
 40
1
 40
1
 40
1
 40
1
 10
89.582154
 20
26.296893
 30
0.0
 10
89.778451
 20
25.594172
 30
0.0
 10
89.806492
 20
25.953130
 30
0.0
 10
89.698428
 20
27.785362
 30
0.0
  0
SPLINE
  5
1b6
100
AcDbEntity
  8
0
 62
7
100
AcDbSpline
 70
8
 71
3
 72
8
 73
4
 74
0
 40
0
 40
0
 40
0
 40
0
 40
1
 40
1
 40
1
 40
1
 10
89.698428
 20
27.785362
 30
0.0
 10
89.546075
 20
30.368452
 30
0.0
 10
89.969089
 20
32.117726
 30
0.0
 10
90.746085
 20
32.117726
 30
0.0
  0
SPLINE
  5
1b7
100
AcDbEntity
  8
0
 62
7
100
AcDbSpline
 70
8
 71
3
 72
8
 73
4
 74
0
 40
0
 40
0
 40
0
 40
0
 40
1
 40
1
 40
1
 40
1
 10
90.746085
 20
32.117726
 30
0.0
 10
90.959890
 20
32.117726
 30
0.0
 10
91.323152
 20
32.189994
 30
0.0
 10
91.553334
 20
32.278325
 30
0.0
  0
SPLINE
  5
1b8
100
AcDbEntity
  8
0
 62
7
100
AcDbSpline
 70
8
 71
3
 72
8
 73
4
 74
0
 40
0
 40
0
 40
0
 40
0
 40
1
 40
1
 40
1
 40
1
 10
91.553334
 20
32.278325
 30
0.0
 10
91.867643
 20
32.398936
 30
0.0
 10
91.971850
 20
32.270652
 30
0.0
 10
91.971850
 20
31.763158
 30
0.0
  0
SPLINE
  5
1b9
100
AcDbEntity
  8
0
 62
7
100
AcDbSpline
 70
8
 71
3
 72
8
 73
4
 74
0
 40
0
 40
0
 40
0
 40
0
 40
1
 40
1
 40
1
 40
1
 10
91.971850
 20
31.763158
 30
0.0
 10
91.971850
 20
31.391487
 30
0.0
 10
92.269506
 20
30.527577
 30
0.0
 10
92.633308
 20
29.843362
 30
0.0
  0
SPLINE
  5
1ba
100
AcDbEntity
  8
0
 62
7
100
AcDbSpline
 70
8
 71
3
 72
8
 73
4
 74
0
 40
0
 40
0
 40
0
 40
0
 40
1
 40
1
 40
1
 40
1
 10
92.633308
 20
29.843362
 30
0.0
 10
93.388132
 20
28.423730
 30
0.0
 10
93.460964
 20
27.334072
 30
0.0
 10
92.909573
 20
25.709986
 30
0.0
  0
SPLINE
  5
1bb
100
AcDbEntity
  8
0
 62
7
100
AcDbSpline
 70
8
 71
3
 72
8
 73
4
 74
0
 40
0
 40
0
 40
0
 40
0
 40
1
 40
1
 40
1
 40
1
 10
92.909573
 20
25.709986
 30
0.0
 10
92.697715
 20
25.085977
 30
0.0
 10
92.343719
 20
23.458445
 30
0.0
 10
92.122916
 20
22.093251
 30
0.0
  0
SPLINE
  5
1bc
100
AcDbEntity
  8
0
 62
7
100
AcDbSpline
 70
8
 71
3
 72
8
 73
4
 74
0
 40
0
 40
0
 40
0
 40
0
 40
1
 40
1
 40
1
 40
1
 10
92.122916
 20
22.093251
 30
0.0
 10
91.697048
 20
19.460181
 30
0.0
 10
91.479492
 20
18.996223
 30
0.0
 10
89.689673
 20
16.904184
 30
0.0
  0
SPLINE
  5
1bd
100
AcDbEntity
  8
0
 62
7
100
AcDbSpline
 70
8
 71
3
 72
8
 73
4
 74
0
 40
0
 40
0
 40
0
 40
0
 40
1
 40
1
 40
1
 40
1
 10
89.689673
 20
16.904184
 30
0.0
 10
89.067182
 20
16.176580
 30
0.0
 10
87.718672
 20
14.591440
 30
0.0
 10
86.692986
 20
13.381654
 30
0.0
  0
SPLINE
  5
1be
100
AcDbEntity
  8
0
 62
7
100
AcDbSpline
 70
8
 71
3
 72
8
 73
4
 74
0
 40
0
 40
0
 40
0
 40
0
 40
1
 40
1
 40
1
 40
1
 10
86.692986
 20
13.381654
 30
0.0
 10
85.667297
 20
12.171865
 30
0.0
 10
84.830647
 20
11.278896
 30
0.0
 10
84.833762
 20
11.397279
 30
0.0
  0
SPLINE
  5
1bf
100
AcDbEntity
  8
0
 62
7
100
AcDbSpline
 70
8
 71
3
 72
8
 73
4
 74
0
 40
0
 40
0
 40
0
 40
0
 40
1
 40
1
 40
1
 40
1
 10
84.833762
 20
11.397279
 30
0.0
 10
84.836884
 20
11.515659
 30
0.0
 10
85.372657
 20
12.435681
 30
0.0
 10
86.024387
 20
13.441767
 30
0.0
  0
SPLINE
  5
1c0
100
AcDbEntity
  8
0
 62
7
100
AcDbSpline
 70
8
 71
3
 72
8
 73
4
 74
0
 40
0
 40
0
 40
0
 40
0
 40
1
 40
1
 40
1
 40
1
 10
86.024387
 20
13.441767
 30
0.0
 10
87.443209
 20
15.632033
 30
0.0
 10
87.531885
 20
16.467275
 30
0.0
 10
86.415600
 20
17.126680
 30
0.0
  0
SPLINE
  5
1c1
100
AcDbEntity
  8
0
 62
7
100
AcDbSpline
 70
8
 71
3
 72
8
 73
4
 74
0
 40
0
 40
0
 40
0
 40
0
 40
1
 40
1
 40
1
 40
1
 10
86.415600
 20
17.126680
 30
0.0
 10
85.979037
 20
17.384564
 30
0.0
 10
85.621850
 20
17.705885
 30
0.0
 10
85.621850
 20
17.840727
 30
0.0
  0
SPLINE
  5
1c2
100
AcDbEntity
  8
0
 62
7
100
AcDbSpline
 70
8
 71
3
 72
8
 73
4
 74
0
 40
0
 40
0
 40
0
 40
0
 40
1
 40
1
 40
1
 40
1
 10
85.621850
 20
17.840727
 30
0.0
 10
85.621850
 20
17.975569
 30
0.0
 10
86.214424
 20
18.386176
 30
0.0
 10
86.938683
 20
18.753185
 30
0.0
  0
SPLINE
  5
1c3
100
AcDbEntity
  8
0
 62
7
100
AcDbSpline
 70
8
 71
3
 72
8
 73
4
 74
0
 40
0
 40
0
 40
0
 40
0
 40
1
 40
1
 40
1
 40
1
 10
86.938683
 20
18.753185
 30
0.0
 10
88.453778
 20
19.520940
 30
0.0
 10
88.924032
 20
20.270531
 30
0.0
 10
89.181427
 20
22.328143
 30
0.0
  0
LWPOLYLINE
  5
1c4
100
AcDbEntity
  8
0
 62
7
100
AcDbPolyline
 90
3
 70
0
 10
97.290636
 20
20.652232
 30
0.0
 10
97.843144
 20
21.546209
 30
0.0
 10
97.025748
 20
25.178322
 30
0.0
  0
SPLINE
  5
1c5
100
AcDbEntity
  8
0
 62
7
100
AcDbSpline
 70
8
 71
3
 72
8
 73
4
 74
0
 40
0
 40
0
 40
0
 40
0
 40
1
 40
1
 40
1
 40
1
 10
88.406370
 20
22.228276
 30
0.0
 10
87.879965
 20
21.372986
 30
0.0
 10
87.186929
 20
20.449265
 30
0.0
 10
86.866291
 20
20.175564
 30
0.0
  0
SPLINE
  5
1c6
100
AcDbEntity
  8
0
 62
7
100
AcDbSpline
 70
8
 71
3
 72
8
 73
4
 74
0
 40
0
 40
0
 40
0
 40
0
 40
1
 40
1
 40
1
 40
1
 10
86.866291
 20
20.175564
 30
0.0
 10
86.256275
 20
19.654851
 30
0.0
 10
86.011716
 20
19.659410
 30
0.0
 10
83.982137
 20
20.229348
 30
0.0
  0
SPLINE
  5
1c7
100
AcDbEntity
  8
0
 62
7
100
AcDbSpline
 70
8
 71
3
 72
8
 73
4
 74
0
 40
0
 40
0
 40
0
 40
0
 40
1
 40
1
 40
1
 40
1
 10
83.982137
 20
20.229348
 30
0.0
 10
82.747485
 20
20.576058
 30
0.0
 10
82.724331
 20
20.570627
 30
0.0
 10
80.465925
 20
19.404076
 30
0.0
  0
SPLINE
  5
1c8
100
AcDbEntity
  8
0
 62
7
100
AcDbSpline
 70
8
 71
3
 72
8
 73
4
 74
0
 40
0
 40
0
 40
0
 40
0
 40
1
 40
1
 40
1
 40
1
 10
80.465925
 20
19.404076
 30
0.0
 10
77.909010
 20
18.083337
 30
0.0
 10
77.851482
 20
18.099730
 30
0.0
 10
77.600278
 20
20.220755
 30
0.0
  0
SPLINE
  5
1c9
100
AcDbEntity
  8
0
 62
7
100
AcDbSpline
 70
8
 71
3
 72
8
 73
4
 74
0
 40
0
 40
0
 40
0
 40
0
 40
1
 40
1
 40
1
 40
1
 10
77.600278
 20
20.220755
 30
0.0
 10
77.517067
 20
20.923351
 30
0.0
 10
77.211256
 20
21.952828
 30
0.0
 10
76.920699
 20
22.508485
 30
0.0
  0
SPLINE
  5
1ca
100
AcDbEntity
  8
0
 62
7
100
AcDbSpline
 70
8
 71
3
 72
8
 73
4
 74
0
 40
0
 40
0
 40
0
 40
0
 40
1
 40
1
 40
1
 40
1
 10
76.920699
 20
22.508485
 30
0.0
 10
76.630144
 20
23.064139
 30
0.0
 10
74.138859
 20
25.860719
 30
0.0
 10
71.384512
 20
28.723103
 30
0.0
  0
SPLINE
  5
1cb
100
AcDbEntity
  8
0
 62
7
100
AcDbSpline
 70
8
 71
3
 72
8
 73
4
 74
0
 40
0
 40
0
 40
0
 40
0
 40
1
 40
1
 40
1
 40
1
 10
71.384512
 20
28.723103
 30
0.0
 10
68.630168
 20
31.585487
 30
0.0
 10
66.111313
 20
34.356699
 30
0.0
 10
65.787061
 20
34.881352
 30
0.0
  0
SPLINE
  5
1cc
100
AcDbEntity
  8
0
 62
7
100
AcDbSpline
 70
8
 71
3
 72
8
 73
4
 74
0
 40
0
 40
0
 40
0
 40
0
 40
1
 40
1
 40
1
 40
1
 10
65.787061
 20
34.881352
 30
0.0
 10
64.445713
 20
37.051697
 30
0.0
 10
64.135675
 20
40.267403
 30
0.0
 10
64.864282
 20
44.452339
 30
0.0
  0
SPLINE
  5
1cd
100
AcDbEntity
  8
0
 62
7
100
AcDbSpline
 70
8
 71
3
 72
8
 73
4
 74
0
 40
0
 40
0
 40
0
 40
0
 40
1
 40
1
 40
1
 40
1
 10
64.864282
 20
44.452339
 30
0.0
 10
65.937059
 20
50.614085
 30
0.0
 10
67.136873
 20
53.861023
 30
0.0
 10
68.944432
 20
55.494044
 30
0.0
  0
SPLINE
  5
1ce
100
AcDbEntity
  8
0
 62
7
100
AcDbSpline
 70
8
 71
3
 72
8
 73
4
 74
0
 40
0
 40
0
 40
0
 40
0
 40
1
 40
1
 40
1
 40
1
 10
68.944432
 20
55.494044
 30
0.0
 10
70.712568
 20
57.091448
 30
0.0
 10
73.445021
 20
58.303493
 30
0.0
 10
75.919616
 20
58.588055
 30
0.0
  0
SPLINE
  5
1cf
100
AcDbEntity
  8
0
 62
7
100
AcDbSpline
 70
8
 71
3
 72
8
 73
4
 74
0
 40
0
 40
0
 40
0
 40
0
 40
1
 40
1
 40
1
 40
1
 10
75.919616
 20
58.588055
 30
0.0
 10
78.583277
 20
58.894358
 30
0.0
 10
78.742683
 20
58.895874
 30
0.0
 10
78.742683
 20
58.614884
 30
0.0
  0
SPLINE
  5
1d0
100
AcDbEntity
  8
0
 62
7
100
AcDbSpline
 70
8
 71
3
 72
8
 73
4
 74
0
 40
0
 40
0
 40
0
 40
0
 40
1
 40
1
 40
1
 40
1
 10
78.742683
 20
58.614884
 30
0.0
 10
78.742683
 20
58.490715
 30
0.0
 10
77.879480
 20
58.315625
 30
0.0
 10
76.824454
 20
58.225793
 30
0.0
  0
SPLINE
  5
1d1
100
AcDbEntity
  8
0
 62
7
100
AcDbSpline
 70
8
 71
3
 72
8
 73
4
 74
0
 40
0
 40
0
 40
0
 40
0
 40
1
 40
1
 40
1
 40
1
 10
76.824454
 20
58.225793
 30
0.0
 10
73.013030
 20
57.901266
 30
0.0
 10
70.970021
 20
56.621251
 30
0.0
 10
68.690741
 20
53.129744
 30
0.0
  0
SPLINE
  5
1d2
100
AcDbEntity
  8
0
 62
7
100
AcDbSpline
 70
8
 71
3
 72
8
 73
4
 74
0
 40
0
 40
0
 40
0
 40
0
 40
1
 40
1
 40
1
 40
1
 10
68.690741
 20
53.129744
 30
0.0
 10
66.069509
 20
49.114422
 30
0.0
 10
65.910071
 20
46.246584
 30
0.0
 10
68.015339
 20
40.981268
 30
0.0
  0
SPLINE
  5
1d3
100
AcDbEntity
  8
0
 62
7
100
AcDbSpline
 70
8
 71
3
 72
8
 73
4
 74
0
 40
0
 40
0
 40
0
 40
0
 40
1
 40
1
 40
1
 40
1
 10
68.015339
 20
40.981268
 30
0.0
 10
70.163246
 20
35.609313
 30
0.0
 10
70.377283
 20
35.461340
 30
0.0
 10
75.640591
 20
35.709593
 30
0.0
  0
SPLINE
  5
1d4
100
AcDbEntity
  8
0
 62
7
100
AcDbSpline
 70
8
 71
3
 72
8
 73
4
 74
0
 40
0
 40
0
 40
0
 40
0
 40
1
 40
1
 40
1
 40
1
 10
75.640591
 20
35.709593
 30
0.0
 10
78.274659
 20
35.833833
 30
0.0
 10
79.826276
 20
35.766423
 30
0.0
 10
81.917683
 20
35.436887
 30
0.0
  0
SPLINE
  5
1d5
100
AcDbEntity
  8
0
 62
7
100
AcDbSpline
 70
8
 71
3
 72
8
 73
4
 74
0
 40
0
 40
0
 40
0
 40
0
 40
1
 40
1
 40
1
 40
1
 10
81.917683
 20
35.436887
 30
0.0
 10
86.800232
 20
34.667555
 30
0.0
 10
87.473933
 20
34.629548
 30
0.0
 10
87.473933
 20
35.123419
 30
0.0
  0
SPLINE
  5
1d6
100
AcDbEntity
  8
0
 62
7
100
AcDbSpline
 70
8
 71
3
 72
8
 73
4
 74
0
 40
0
 40
0
 40
0
 40
0
 40
1
 40
1
 40
1
 40
1
 10
87.473933
 20
35.123419
 30
0.0
 10
87.473933
 20
35.385634
 30
0.0
 10
87.690359
 20
35.557309
 30
0.0
 10
88.020930
 20
35.557309
 30
0.0
  0
SPLINE
  5
1d7
100
AcDbEntity
  8
0
 62
7
100
AcDbSpline
 70
8
 71
3
 72
8
 73
4
 74
0
 40
0
 40
0
 40
0
 40
0
 40
1
 40
1
 40
1
 40
1
 10
88.020930
 20
35.557309
 30
0.0
 10
88.465549
 20
35.557309
 30
0.0
 10
88.533970
 20
35.668728
 30
0.0
 10
88.386510
 20
36.152622
 30
0.0
  0
SPLINE
  5
1d8
100
AcDbEntity
  8
0
 62
7
100
AcDbSpline
 70
8
 71
3
 72
8
 73
4
 74
0
 40
0
 40
0
 40
0
 40
0
 40
1
 40
1
 40
1
 40
1
 10
88.386510
 20
36.152622
 30
0.0
 10
88.140958
 20
36.958389
 30
0.0
 10
87.473496
 20
37.684295
 30
0.0
 10
86.709634
 20
37.976326
 30
0.0
  0
SPLINE
  5
1d9
100
AcDbEntity
  8
0
 62
7
100
AcDbSpline
 70
8
 71
3
 72
8
 73
4
 74
0
 40
0
 40
0
 40
0
 40
0
 40
1
 40
1
 40
1
 40
1
 10
86.709634
 20
37.976326
 30
0.0
 10
86.362029
 20
38.109218
 30
0.0
 10
86.131704
 20
38.272027
 30
0.0
 10
86.197800
 20
38.338120
 30
0.0
  0
SPLINE
  5
1da
100
AcDbEntity
  8
0
 62
7
100
AcDbSpline
 70
8
 71
3
 72
8
 73
4
 74
0
 40
0
 40
0
 40
0
 40
0
 40
1
 40
1
 40
1
 40
1
 10
86.197800
 20
38.338120
 30
0.0
 10
86.342852
 20
38.483172
 30
0.0
 10
89.363383
 20
37.618789
 30
0.0
 10
90.630367
 20
37.069657
 30
0.0
  0
SPLINE
  5
1db
100
AcDbEntity
  8
0
 62
7
100
AcDbSpline
 70
8
 71
3
 72
8
 73
4
 74
0
 40
0
 40
0
 40
0
 40
0
 40
1
 40
1
 40
1
 40
1
 10
90.630367
 20
37.069657
 30
0.0
 10
91.307190
 20
36.776311
 30
0.0
 10
91.730928
 20
36.743653
 30
0.0
 10
92.297523
 20
36.941167
 30
0.0
  0
SPLINE
  5
1dc
100
AcDbEntity
  8
0
 62
7
100
AcDbSpline
 70
8
 71
3
 72
8
 73
4
 74
0
 40
0
 40
0
 40
0
 40
0
 40
1
 40
1
 40
1
 40
1
 10
92.297523
 20
36.941167
 30
0.0
 10
93.453254
 20
37.344059
 30
0.0
 10
93.133669
 20
38.010999
 30
0.0
 10
91.603486
 20
38.389544
 30
0.0
  0
SPLINE
  5
1dd
100
AcDbEntity
  8
0
 62
7
100
AcDbSpline
 70
8
 71
3
 72
8
 73
4
 74
0
 40
0
 40
0
 40
0
 40
0
 40
1
 40
1
 40
1
 40
1
 10
91.603486
 20
38.389544
 30
0.0
 10
90.894948
 20
38.564825
 30
0.0
 10
89.860186
 20
39.023589
 30
0.0
 10
89.304011
 20
39.409015
 30
0.0
  0
SPLINE
  5
1de
100
AcDbEntity
  8
0
 62
7
100
AcDbSpline
 70
8
 71
3
 72
8
 73
4
 74
0
 40
0
 40
0
 40
0
 40
0
 40
1
 40
1
 40
1
 40
1
 10
89.304011
 20
39.409015
 30
0.0
 10
88.280558
 20
40.118271
 30
0.0
 10
87.318138
 20
41.310544
 30
0.0
 10
87.567659
 20
41.560062
 30
0.0
  0
SPLINE
  5
1df
100
AcDbEntity
  8
0
 62
7
100
AcDbSpline
 70
8
 71
3
 72
8
 73
4
 74
0
 40
0
 40
0
 40
0
 40
0
 40
1
 40
1
 40
1
 40
1
 10
87.567659
 20
41.560062
 30
0.0
 10
87.642465
 20
41.634868
 30
0.0
 10
88.586268
 20
41.487998
 30
0.0
 10
89.665003
 20
41.233685
 30
0.0
  0
SPLINE
  5
1e0
100
AcDbEntity
  8
0
 62
7
100
AcDbSpline
 70
8
 71
3
 72
8
 73
4
 74
0
 40
0
 40
0
 40
0
 40
0
 40
1
 40
1
 40
1
 40
1
 10
89.665003
 20
41.233685
 30
0.0
 10
92.002136
 20
40.682706
 30
0.0
 10
92.951210
 20
40.839080
 30
0.0
 10
93.196280
 20
41.815515
 30
0.0
  0
SPLINE
  5
1e1
100
AcDbEntity
  8
0
 62
7
100
AcDbSpline
 70
8
 71
3
 72
8
 73
4
 74
0
 40
0
 40
0
 40
0
 40
0
 40
1
 40
1
 40
1
 40
1
 10
93.196280
 20
41.815515
 30
0.0
 10
93.332385
 20
42.357799
 30
0.0
 10
93.232097
 20
42.615779
 30
0.0
 10
92.737289
 20
42.996228
 30
0.0
  0
SPLINE
  5
1e2
100
AcDbEntity
  8
0
 62
7
100
AcDbSpline
 70
8
 71
3
 72
8
 73
4
 74
0
 40
0
 40
0
 40
0
 40
0
 40
1
 40
1
 40
1
 40
1
 10
92.737289
 20
42.996228
 30
0.0
 10
92.389058
 20
43.263976
 30
0.0
 10
91.830337
 20
43.485689
 30
0.0
 10
91.495690
 20
43.488925
 30
0.0
  0
SPLINE
  5
1e3
100
AcDbEntity
  8
0
 62
7
100
AcDbSpline
 70
8
 71
3
 72
8
 73
4
 74
0
 40
0
 40
0
 40
0
 40
0
 40
1
 40
1
 40
1
 40
1
 10
91.495690
 20
43.488925
 30
0.0
 10
90.539832
 20
43.498159
 30
0.0
 10
89.373025
 20
44.223935
 30
0.0
 10
88.926826
 20
45.086789
 30
0.0
  0
SPLINE
  5
1e4
100
AcDbEntity
  8
0
 62
7
100
AcDbSpline
 70
8
 71
3
 72
8
 73
4
 74
0
 40
0
 40
0
 40
0
 40
0
 40
1
 40
1
 40
1
 40
1
 10
88.926826
 20
45.086789
 30
0.0
 10
88.549514
 20
45.816430
 30
0.0
 10
88.409629
 20
45.876059
 30
0.0
 10
87.075304
 20
45.876059
 30
0.0
  0
SPLINE
  5
1e5
100
AcDbEntity
  8
0
 62
7
100
AcDbSpline
 70
8
 71
3
 72
8
 73
4
 74
0
 40
0
 40
0
 40
0
 40
0
 40
1
 40
1
 40
1
 40
1
 10
87.075304
 20
45.876059
 30
0.0
 10
85.756710
 20
45.876059
 30
0.0
 10
85.617592
 20
45.933191
 30
0.0
 10
85.466066
 20
46.536925
 30
0.0
  0
SPLINE
  5
1e6
100
AcDbEntity
  8
0
 62
7
100
AcDbSpline
 70
8
 71
3
 72
8
 73
4
 74
0
 40
0
 40
0
 40
0
 40
0
 40
1
 40
1
 40
1
 40
1
 10
85.466066
 20
46.536925
 30
0.0
 10
85.191769
 20
47.629805
 30
0.0
 10
85.494439
 20
47.992726
 30
0.0
 10
86.680183
 20
47.992726
 30
0.0
  0
SPLINE
  5
1e7
100
AcDbEntity
  8
0
 62
7
100
AcDbSpline
 70
8
 71
3
 72
8
 73
4
 74
0
 40
0
 40
0
 40
0
 40
0
 40
1
 40
1
 40
1
 40
1
 10
86.680183
 20
47.992726
 30
0.0
 10
87.445329
 20
47.992726
 30
0.0
 10
87.804575
 20
48.121594
 30
0.0
 10
87.926712
 20
48.439880
 30
0.0
  0
SPLINE
  5
1e8
100
AcDbEntity
  8
0
 62
7
100
AcDbSpline
 70
8
 71
3
 72
8
 73
4
 74
0
 40
0
 40
0
 40
0
 40
0
 40
1
 40
1
 40
1
 40
1
 10
87.926712
 20
48.439880
 30
0.0
 10
88.023303
 20
48.691588
 30
0.0
 10
87.959785
 20
48.933206
 30
0.0
 10
87.781392
 20
48.992671
 30
0.0
  0
SPLINE
  5
1e9
100
AcDbEntity
  8
0
 62
7
100
AcDbSpline
 70
8
 71
3
 72
8
 73
4
 74
0
 40
0
 40
0
 40
0
 40
0
 40
1
 40
1
 40
1
 40
1
 10
87.781392
 20
48.992671
 30
0.0
 10
87.373206
 20
49.128733
 30
0.0
 10
86.757481
 20
49.745209
 30
0.0
 10
86.621086
 20
50.154393
 30
0.0
  0
SPLINE
  5
1ea
100
AcDbEntity
  8
0
 62
7
100
AcDbSpline
 70
8
 71
3
 72
8
 73
4
 74
0
 40
0
 40
0
 40
0
 40
0
 40
1
 40
1
 40
1
 40
1
 10
86.621086
 20
50.154393
 30
0.0
 10
86.544449
 20
50.384305
 30
0.0
 10
86.336632
 20
50.348671
 30
0.0
 10
85.877133
 20
50.026824
 30
0.0
  0
SPLINE
  5
1eb
100
AcDbEntity
  8
0
 62
7
100
AcDbSpline
 70
8
 71
3
 72
8
 73
4
 74
0
 40
0
 40
0
 40
0
 40
0
 40
1
 40
1
 40
1
 40
1
 10
85.877133
 20
50.026824
 30
0.0
 10
84.974546
 20
49.394629
 30
0.0
 10
84.802244
 20
49.470506
 30
0.0
 10
85.239035
 20
50.307830
 30
0.0
  0
SPLINE
  5
1ec
100
AcDbEntity
  8
0
 62
7
100
AcDbSpline
 70
8
 71
3
 72
8
 73
4
 74
0
 40
0
 40
0
 40
0
 40
0
 40
1
 40
1
 40
1
 40
1
 10
85.239035
 20
50.307830
 30
0.0
 10
85.769064
 20
51.323894
 30
0.0
 10
85.714782
 20
53.112919
 30
0.0
 10
85.120268
 20
54.222155
 30
0.0
  0
SPLINE
  5
1ed
100
AcDbEntity
  8
0
 62
7
100
AcDbSpline
 70
8
 71
3
 72
8
 73
4
 74
0
 40
0
 40
0
 40
0
 40
0
 40
1
 40
1
 40
1
 40
1
 10
85.120268
 20
54.222155
 30
0.0
 10
84.646564
 20
55.105980
 30
0.0
 10
84.636636
 20
56.194809
 30
0.0
 10
85.102277
 20
56.194809
 30
0.0
  0
SPLINE
  5
1ee
100
AcDbEntity
  8
0
 62
7
100
AcDbSpline
 70
8
 71
3
 72
8
 73
4
 74
0
 40
0
 40
0
 40
0
 40
0
 40
1
 40
1
 40
1
 40
1
 10
85.102277
 20
56.194809
 30
0.0
 10
85.219133
 20
56.194809
 30
0.0
 10
85.517868
 20
55.569731
 30
0.0
 10
85.766137
 20
54.805747
 30
0.0
  0
SPLINE
  5
1ef
100
AcDbEntity
  8
0
 62
7
100
AcDbSpline
 70
8
 71
3
 72
8
 73
4
 74
0
 40
0
 40
0
 40
0
 40
0
 40
1
 40
1
 40
1
 40
1
 10
85.766137
 20
54.805747
 30
0.0
 10
86.014404
 20
54.041762
 30
0.0
 10
86.500224
 20
53.037674
 30
0.0
 10
86.845733
 20
52.574441
 30
0.0
  0
SPLINE
  5
1f0
100
AcDbEntity
  8
0
 62
7
100
AcDbSpline
 70
8
 71
3
 72
8
 73
4
 74
0
 40
0
 40
0
 40
0
 40
0
 40
1
 40
1
 40
1
 40
1
 10
86.845733
 20
52.574441
 30
0.0
 10
87.191244
 20
52.111209
 30
0.0
 10
87.473933
 20
51.375175
 30
0.0
 10
87.473933
 20
50.938814
 30
0.0
  0
SPLINE
  5
1f1
100
AcDbEntity
  8
0
 62
7
100
AcDbSpline
 70
8
 71
3
 72
8
 73
4
 74
0
 40
0
 40
0
 40
0
 40
0
 40
1
 40
1
 40
1
 40
1
 10
87.473933
 20
50.938814
 30
0.0
 10
87.473933
 20
50.374156
 30
0.0
 10
87.684941
 20
49.995175
 30
0.0
 10
88.205850
 20
49.624255
 30
0.0
  0
SPLINE
  5
1f2
100
AcDbEntity
  8
0
 62
7
100
AcDbSpline
 70
8
 71
3
 72
8
 73
4
 74
0
 40
0
 40
0
 40
0
 40
0
 40
1
 40
1
 40
1
 40
1
 10
88.205850
 20
49.624255
 30
0.0
 10
88.679761
 20
49.286800
 30
0.0
 10
89.051760
 20
48.676883
 30
0.0
 10
89.261140
 20
47.894026
 30
0.0
  0
SPLINE
  5
1f3
100
AcDbEntity
  8
0
 62
7
100
AcDbSpline
 70
8
 71
3
 72
8
 73
4
 74
0
 40
0
 40
0
 40
0
 40
0
 40
1
 40
1
 40
1
 40
1
 10
89.261140
 20
47.894026
 30
0.0
 10
89.438996
 20
47.229046
 30
0.0
 10
89.931767
 20
46.296323
 30
0.0
 10
90.356190
 20
45.821314
 30
0.0
  0
SPLINE
  5
1f4
100
AcDbEntity
  8
0
 62
7
100
AcDbSpline
 70
8
 71
3
 72
8
 73
4
 74
0
 40
0
 40
0
 40
0
 40
0
 40
1
 40
1
 40
1
 40
1
 10
90.356190
 20
45.821314
 30
0.0
 10
91.529985
 20
44.507610
 30
0.0
 10
92.795286
 20
44.635185
 30
0.0
 10
95.160155
 20
46.305674
 30
0.0
  0
SPLINE
  5
1f5
100
AcDbEntity
  8
0
 62
7
100
AcDbSpline
 70
8
 71
3
 72
8
 73
4
 74
0
 40
0
 40
0
 40
0
 40
0
 40
1
 40
1
 40
1
 40
1
 10
95.160155
 20
46.305674
 30
0.0
 10
96.164712
 20
47.015270
 30
0.0
 10
97.525578
 20
47.953038
 30
0.0
 10
98.184301
 20
48.389601
 30
0.0
  0
SPLINE
  5
1f6
100
AcDbEntity
  8
0
 62
7
100
AcDbSpline
 70
8
 71
3
 72
8
 73
4
 74
0
 40
0
 40
0
 40
0
 40
0
 40
1
 40
1
 40
1
 40
1
 10
98.184301
 20
48.389601
 30
0.0
 10
99.396254
 20
49.192810
 30
0.0
 10
99.549651
 20
49.652256
 30
0.0
 10
99.023506
 20
50.903143
 30
0.0
  0
SPLINE
  5
1f7
100
AcDbEntity
  8
0
 62
7
100
AcDbSpline
 70
8
 71
3
 72
8
 73
4
 74
0
 40
0
 40
0
 40
0
 40
0
 40
1
 40
1
 40
1
 40
1
 10
99.023506
 20
50.903143
 30
0.0
 10
98.931696
 20
51.121424
 30
0.0
 10
98.975884
 20
51.478611
 30
0.0
 10
99.121706
 20
51.696893
 30
0.0
  0
SPLINE
  5
1f8
100
AcDbEntity
  8
0
 62
7
100
AcDbSpline
 70
8
 71
3
 72
8
 73
4
 74
0
 40
0
 40
0
 40
0
 40
0
 40
1
 40
1
 40
1
 40
1
 10
99.121706
 20
51.696893
 30
0.0
 10
99.343813
 20
52.029363
 30
0.0
 10
99.504376
 20
51.956883
 30
0.0
 10
100.111116
 20
51.250252
 30
0.0
  0
SPLINE
  5
1f9
100
AcDbEntity
  8
0
 62
7
100
AcDbSpline
 70
8
 71
3
 72
8
 73
4
 74
0
 40
0
 40
0
 40
0
 40
0
 40
1
 40
1
 40
1
 40
1
 10
100.111116
 20
51.250252
 30
0.0
 10
101.145253
 20
50.045861
 30
0.0
 10
102.060005
 20
49.991473
 30
0.0
 10
103.328631
 20
51.058953
 30
0.0
  0
SPLINE
  5
1fa
100
AcDbEntity
  8
0
 62
7
100
AcDbSpline
 70
8
 71
3
 72
8
 73
4
 74
0
 40
0
 40
0
 40
0
 40
0
 40
1
 40
1
 40
1
 40
1
 10
103.328631
 20
51.058953
 30
0.0
 10
104.274157
 20
51.854560
 30
0.0
 10
104.354328
 20
52.534987
 30
0.0
 10
103.613516
 20
53.476779
 30
0.0
  0
SPLINE
  5
1fb
100
AcDbEntity
  8
0
 62
7
100
AcDbSpline
 70
8
 71
3
 72
8
 73
4
 74
0
 40
0
 40
0
 40
0
 40
0
 40
1
 40
1
 40
1
 40
1
 10
103.613516
 20
53.476779
 30
0.0
 10
102.762378
 20
54.558827
 30
0.0
 10
102.974746
 20
55.022202
 30
0.0
 10
103.898451
 20
54.098494
 30
0.0
  0
SPLINE
  5
1fc
100
AcDbEntity
  8
0
 62
7
100
AcDbSpline
 70
8
 71
3
 72
8
 73
4
 74
0
 40
0
 40
0
 40
0
 40
0
 40
1
 40
1
 40
1
 40
1
 10
103.898451
 20
54.098494
 30
0.0
 10
104.864442
 20
53.132503
 30
0.0
 10
105.895939
 20
53.038782
 30
0.0
 10
106.754835
 20
53.838967
 30
0.0
  0
SPLINE
  5
1fd
100
AcDbEntity
  8
0
 62
7
100
AcDbSpline
 70
8
 71
3
 72
8
 73
4
 74
0
 40
0
 40
0
 40
0
 40
0
 40
1
 40
1
 40
1
 40
1
 10
106.754835
 20
53.838967
 30
0.0
 10
107.582422
 20
54.609981
 30
0.0
 10
107.886952
 20
55.525718
 30
0.0
 10
107.582266
 20
56.327101
 30
0.0
  0
SPLINE
  5
1fe
100
AcDbEntity
  8
0
 62
7
100
AcDbSpline
 70
8
 71
3
 72
8
 73
4
 74
0
 40
0
 40
0
 40
0
 40
0
 40
1
 40
1
 40
1
 40
1
 10
107.582266
 20
56.327101
 30
0.0
 10
107.232839
 20
57.246168
 30
0.0
 10
107.714756
 20
57.185928
 30
0.0
 10
108.640600
 20
56.194809
 30
0.0
  0
SPLINE
  5
1ff
100
AcDbEntity
  8
0
 62
7
100
AcDbSpline
 70
8
 71
3
 72
8
 73
4
 74
0
 40
0
 40
0
 40
0
 40
0
 40
1
 40
1
 40
1
 40
1
 10
108.640600
 20
56.194809
 30
0.0
 10
109.048410
 20
55.758247
 30
0.0
 10
109.503438
 20
55.401059
 30
0.0
 10
109.651771
 20
55.401059
 30
0.0
  0
SPLINE
  5
200
100
AcDbEntity
  8
0
 62
7
100
AcDbSpline
 70
8
 71
3
 72
8
 73
4
 74
0
 40
0
 40
0
 40
0
 40
0
 40
1
 40
1
 40
1
 40
1
 10
109.651771
 20
55.401059
 30
0.0
 10
110.071117
 20
55.401059
 30
0.0
 10
110.280241
 20
56.816966
 30
0.0
 10
109.978222
 20
57.611341
 30
0.0
  0
SPLINE
  5
201
100
AcDbEntity
  8
0
 62
7
100
AcDbSpline
 70
8
 71
3
 72
8
 73
4
 74
0
 40
0
 40
0
 40
0
 40
0
 40
1
 40
1
 40
1
 40
1
 10
109.978222
 20
57.611341
 30
0.0
 10
109.726407
 20
58.273662
 30
0.0
 10
109.744798
 20
58.305547
 30
0.0
 10
110.229139
 20
58.046337
 30
0.0
  0
SPLINE
  5
202
100
AcDbEntity
  8
0
 62
7
100
AcDbSpline
 70
8
 71
3
 72
8
 73
4
 74
0
 40
0
 40
0
 40
0
 40
0
 40
1
 40
1
 40
1
 40
1
 10
110.229139
 20
58.046337
 30
0.0
 10
110.881007
 20
57.697468
 30
0.0
 10
111.551016
 20
56.435606
 30
0.0
 10
111.551016
 20
55.556785
 30
0.0
  0
SPLINE
  5
203
100
AcDbEntity
  8
0
 62
7
100
AcDbSpline
 70
8
 71
3
 72
8
 73
4
 74
0
 40
0
 40
0
 40
0
 40
0
 40
1
 40
1
 40
1
 40
1
 10
111.551016
 20
55.556785
 30
0.0
 10
111.551016
 20
54.897211
 30
0.0
 10
110.558704
 20
53.525796
 30
0.0
 10
107.689973
 20
50.220663
 30
0.0
  0
SPLINE
  5
204
100
AcDbEntity
  8
0
 62
7
100
AcDbSpline
 70
8
 71
3
 72
8
 73
4
 74
0
 40
0
 40
0
 40
0
 40
0
 40
1
 40
1
 40
1
 40
1
 10
107.689973
 20
50.220663
 30
0.0
 10
106.894839
 20
49.304572
 30
0.0
 10
105.117712
 20
47.799935
 30
0.0
 10
103.561679
 20
46.725369
 30
0.0
  0
SPLINE
  5
205
100
AcDbEntity
  8
0
 62
7
100
AcDbSpline
 70
8
 71
3
 72
8
 73
4
 74
0
 40
0
 40
0
 40
0
 40
0
 40
1
 40
1
 40
1
 40
1
 10
103.561679
 20
46.725369
 30
0.0
 10
100.107141
 20
44.339735
 30
0.0
 10
99.184389
 20
42.909987
 30
0.0
 10
100.393204
 20
41.816025
 30
0.0
  0
SPLINE
  5
206
100
AcDbEntity
  8
0
 62
7
100
AcDbSpline
 70
8
 71
3
 72
8
 73
4
 74
0
 40
0
 40
0
 40
0
 40
0
 40
1
 40
1
 40
1
 40
1
 10
100.393204
 20
41.816025
 30
0.0
 10
101.451590
 20
40.858197
 30
0.0
 10
103.485826
 20
41.619064
 30
0.0
 10
103.758947
 20
43.074918
 30
0.0
  0
LWPOLYLINE
  5
207
100
AcDbEntity
  8
0
 62
7
100
AcDbPolyline
 90
3
 70
0
 10
89.181427
 20
22.328143
 30
0.0
 10
89.363465
 20
23.783351
 30
0.0
 10
88.406370
 20
22.228276
 30
0.0
  0
SPLINE
  5
208
100
AcDbEntity
  8
0
 62
7
100
AcDbSpline
 70
8
 71
3
 72
8
 73
4
 74
0
 40
0
 40
0
 40
0
 40
0
 40
1
 40
1
 40
1
 40
1
 10
104.763102
 20
43.483967
 30
0.0
 10
105.578598
 20
43.002811
 30
0.0
 10
105.624350
 20
43.003063
 30
0.0
 10
106.722474
 20
43.494709
 30
0.0
  0
SPLINE
  5
209
100
AcDbEntity
  8
0
 62
7
100
AcDbSpline
 70
8
 71
3
 72
8
 73
4
 74
0
 40
0
 40
0
 40
0
 40
0
 40
1
 40
1
 40
1
 40
1
 10
106.722474
 20
43.494709
 30
0.0
 10
107.340879
 20
43.771577
 30
0.0
 10
107.846850
 20
44.060581
 30
0.0
 10
107.846850
 20
44.136940
 30
0.0
  0
SPLINE
  5
20a
100
AcDbEntity
  8
0
 62
7
100
AcDbSpline
 70
8
 71
3
 72
8
 73
4
 74
0
 40
0
 40
0
 40
0
 40
0
 40
1
 40
1
 40
1
 40
1
 10
107.846850
 20
44.136940
 30
0.0
 10
107.846850
 20
44.213298
 30
0.0
 10
107.609169
 20
44.665604
 30
0.0
 10
107.318672
 20
45.142063
 30
0.0
  0
SPLINE
  5
20b
100
AcDbEntity
  8
0
 62
7
100
AcDbSpline
 70
8
 71
3
 72
8
 73
4
 74
0
 40
0
 40
0
 40
0
 40
0
 40
1
 40
1
 40
1
 40
1
 10
107.318672
 20
45.142063
 30
0.0
 10
107.028173
 20
45.618522
 30
0.0
 10
106.794268
 20
46.246479
 30
0.0
 10
106.798880
 20
46.537520
 30
0.0
  0
SPLINE
  5
20c
100
AcDbEntity
  8
0
 62
7
100
AcDbSpline
 70
8
 71
3
 72
8
 73
4
 74
0
 40
0
 40
0
 40
0
 40
0
 40
1
 40
1
 40
1
 40
1
 10
106.798880
 20
46.537520
 30
0.0
 10
106.806473
 20
47.017006
 30
0.0
 10
106.840171
 20
47.007322
 30
0.0
 10
107.157745
 20
46.434351
 30
0.0
  0
SPLINE
  5
20d
100
AcDbEntity
  8
0
 62
7
100
AcDbSpline
 70
8
 71
3
 72
8
 73
4
 74
0
 40
0
 40
0
 40
0
 40
0
 40
1
 40
1
 40
1
 40
1
 10
107.157745
 20
46.434351
 30
0.0
 10
107.540690
 20
45.743437
 30
0.0
 10
108.517492
 20
45.106458
 30
0.0
 10
109.216709
 20
45.091689
 30
0.0
  0
SPLINE
  5
20e
100
AcDbEntity
  8
0
 62
7
100
AcDbSpline
 70
8
 71
3
 72
8
 73
4
 74
0
 40
0
 40
0
 40
0
 40
0
 40
1
 40
1
 40
1
 40
1
 10
109.216709
 20
45.091689
 30
0.0
 10
110.006630
 20
45.074993
 30
0.0
 10
110.823759
 20
46.419278
 30
0.0
 10
110.658418
 20
47.463480
 30
0.0
  0
LWPOLYLINE
  5
20f
100
AcDbEntity
  8
0
 62
7
100
AcDbPolyline
 90
3
 70
0
 10
103.758947
 20
43.074918
 30
0.0
 10
103.928108
 20
43.976623
 30
0.0
 10
104.763102
 20
43.483967
 30
0.0
  0
SPLINE
  5
210
100
AcDbEntity
  8
0
 62
7
100
AcDbSpline
 70
8
 71
3
 72
8
 73
4
 74
0
 40
0
 40
0
 40
0
 40
0
 40
1
 40
1
 40
1
 40
1
 10
110.997537
 20
47.752992
 30
0.0
 10
111.597583
 20
46.966613
 30
0.0
 10
112.162185
 20
47.136770
 30
0.0
 10
112.754693
 20
48.282550
 30
0.0
  0
SPLINE
  5
211
100
AcDbEntity
  8
0
 62
7
100
AcDbSpline
 70
8
 71
3
 72
8
 73
4
 74
0
 40
0
 40
0
 40
0
 40
0
 40
1
 40
1
 40
1
 40
1
 10
112.754693
 20
48.282550
 30
0.0
 10
113.171264
 20
49.088111
 30
0.0
 10
113.165533
 20
49.176363
 30
0.0
 10
112.635395
 20
50.119616
 30
0.0
  0
SPLINE
  5
212
100
AcDbEntity
  8
0
 62
7
100
AcDbSpline
 70
8
 71
3
 72
8
 73
4
 74
0
 40
0
 40
0
 40
0
 40
0
 40
1
 40
1
 40
1
 40
1
 10
112.635395
 20
50.119616
 30
0.0
 10
112.151335
 20
50.980890
 30
0.0
 10
112.131972
 20
51.130988
 30
0.0
 10
112.487350
 20
51.267357
 30
0.0
  0
SPLINE
  5
213
100
AcDbEntity
  8
0
 62
7
100
AcDbSpline
 70
8
 71
3
 72
8
 73
4
 74
0
 40
0
 40
0
 40
0
 40
0
 40
1
 40
1
 40
1
 40
1
 10
112.487350
 20
51.267357
 30
0.0
 10
113.142633
 20
51.518815
 30
0.0
 10
113.995483
 20
49.262146
 30
0.0
 10
114.035530
 20
47.170819
 30
0.0
  0
SPLINE
  5
214
100
AcDbEntity
  8
0
 62
7
100
AcDbSpline
 70
8
 71
3
 72
8
 73
4
 74
0
 40
0
 40
0
 40
0
 40
0
 40
1
 40
1
 40
1
 40
1
 10
114.035530
 20
47.170819
 30
0.0
 10
114.053945
 20
46.209447
 30
0.0
 10
114.214227
 20
45.247885
 30
0.0
 10
114.391723
 20
45.034017
 30
0.0
  0
SPLINE
  5
215
100
AcDbEntity
  8
0
 62
7
100
AcDbSpline
 70
8
 71
3
 72
8
 73
4
 74
0
 40
0
 40
0
 40
0
 40
0
 40
1
 40
1
 40
1
 40
1
 10
114.391723
 20
45.034017
 30
0.0
 10
114.569216
 20
44.820149
 30
0.0
 10
115.003326
 20
43.999383
 30
0.0
 10
115.356410
 20
43.210094
 30
0.0
  0
SPLINE
  5
216
100
AcDbEntity
  8
0
 62
7
100
AcDbSpline
 70
8
 71
3
 72
8
 73
4
 74
0
 40
0
 40
0
 40
0
 40
0
 40
1
 40
1
 40
1
 40
1
 10
115.356410
 20
43.210094
 30
0.0
 10
116.024062
 20
41.717603
 30
0.0
 10
117.390339
 20
40.225850
 30
0.0
 10
118.931634
 20
39.306526
 30
0.0
  0
LWPOLYLINE
  5
217
100
AcDbEntity
  8
0
 62
7
100
AcDbPolyline
 90
3
 70
0
 10
110.658418
 20
47.463480
 30
0.0
 10
110.511770
 20
48.389604
 30
0.0
 10
110.997537
 20
47.752992
 30
0.0
  0
SPLINE
  5
218
100
AcDbEntity
  8
0
 62
7
100
AcDbSpline
 70
8
 71
3
 72
8
 73
4
 74
0
 40
0
 40
0
 40
0
 40
0
 40
1
 40
1
 40
1
 40
1
 10
118.893349
 20
38.594998
 30
0.0
 10
117.597145
 20
38.351830
 30
0.0
 10
117.050061
 20
38.721226
 30
0.0
 10
115.556392
 20
40.848132
 30
0.0
  0
SPLINE
  5
219
100
AcDbEntity
  8
0
 62
7
100
AcDbSpline
 70
8
 71
3
 72
8
 73
4
 74
0
 40
0
 40
0
 40
0
 40
0
 40
1
 40
1
 40
1
 40
1
 10
115.556392
 20
40.848132
 30
0.0
 10
114.004048
 20
43.058588
 30
0.0
 10
112.717831
 20
44.553143
 30
0.0
 10
112.367854
 20
44.553143
 30
0.0
  0
SPLINE
  5
21a
100
AcDbEntity
  8
0
 62
7
100
AcDbSpline
 70
8
 71
3
 72
8
 73
4
 74
0
 40
0
 40
0
 40
0
 40
0
 40
1
 40
1
 40
1
 40
1
 10
112.367854
 20
44.553143
 30
0.0
 10
111.939128
 20
44.553143
 30
0.0
 10
111.286433
 20
43.422263
 30
0.0
 10
111.286433
 20
42.679437
 30
0.0
  0
SPLINE
  5
21b
100
AcDbEntity
  8
0
 62
7
100
AcDbSpline
 70
8
 71
3
 72
8
 73
4
 74
0
 40
0
 40
0
 40
0
 40
0
 40
1
 40
1
 40
1
 40
1
 10
111.286433
 20
42.679437
 30
0.0
 10
111.286433
 20
42.242785
 30
0.0
 10
111.680752
 20
41.533839
 30
0.0
 10
112.340509
 20
40.784317
 30
0.0
  0
SPLINE
  5
21c
100
AcDbEntity
  8
0
 62
7
100
AcDbSpline
 70
8
 71
3
 72
8
 73
4
 74
0
 40
0
 40
0
 40
0
 40
0
 40
1
 40
1
 40
1
 40
1
 10
112.340509
 20
40.784317
 30
0.0
 10
112.920251
 20
40.125695
 30
0.0
 10
113.902516
 20
38.839447
 30
0.0
 10
114.523322
 20
37.925989
 30
0.0
  0
SPLINE
  5
21d
100
AcDbEntity
  8
0
 62
7
100
AcDbSpline
 70
8
 71
3
 72
8
 73
4
 74
0
 40
0
 40
0
 40
0
 40
0
 40
1
 40
1
 40
1
 40
1
 10
114.523322
 20
37.925989
 30
0.0
 10
115.375719
 20
36.671761
 30
0.0
 10
116.068647
 20
36.016565
 30
0.0
 10
117.353665
 20
35.249773
 30
0.0
  0
SPLINE
  5
21e
100
AcDbEntity
  8
0
 62
7
100
AcDbSpline
 70
8
 71
3
 72
8
 73
4
 74
0
 40
0
 40
0
 40
0
 40
0
 40
1
 40
1
 40
1
 40
1
 10
117.353665
 20
35.249773
 30
0.0
 10
119.432104
 20
34.009531
 30
0.0
 10
119.753100
 20
33.983546
 30
0.0
 10
119.753100
 20
35.055551
 30
0.0
  0
LWPOLYLINE
  5
21f
100
AcDbEntity
  8
0
 62
7
100
AcDbPolyline
 90
3
 70
0
 10
118.931634
 20
39.306526
 30
0.0
 10
119.829961
 20
38.770708
 30
0.0
 10
118.893349
 20
38.594998
 30
0.0
  0
SPLINE
  5
220
100
AcDbEntity
  8
0
 62
7
100
AcDbSpline
 70
8
 71
3
 72
8
 73
4
 74
0
 40
0
 40
0
 40
0
 40
0
 40
1
 40
1
 40
1
 40
1
 10
120.688349
 20
35.055551
 30
0.0
 10
121.733281
 20
34.138087
 30
0.0
 10
122.318624
 20
34.038146
 30
0.0
 10
123.075967
 20
34.647889
 30
0.0
  0
SPLINE
  5
221
100
AcDbEntity
  8
0
 62
7
100
AcDbSpline
 70
8
 71
3
 72
8
 73
4
 74
0
 40
0
 40
0
 40
0
 40
0
 40
1
 40
1
 40
1
 40
1
 10
123.075967
 20
34.647889
 30
0.0
 10
123.440246
 20
34.941174
 30
0.0
 10
123.493408
 20
35.101424
 30
0.0
 10
123.258829
 20
35.199103
 30
0.0
  0
SPLINE
  5
222
100
AcDbEntity
  8
0
 62
7
100
AcDbSpline
 70
8
 71
3
 72
8
 73
4
 74
0
 40
0
 40
0
 40
0
 40
0
 40
1
 40
1
 40
1
 40
1
 10
123.258829
 20
35.199103
 30
0.0
 10
122.703995
 20
35.430143
 30
0.0
 10
122.888939
 20
35.687307
 30
0.0
 10
123.641321
 20
35.730968
 30
0.0
  0
SPLINE
  5
223
100
AcDbEntity
  8
0
 62
7
100
AcDbSpline
 70
8
 71
3
 72
8
 73
4
 74
0
 40
0
 40
0
 40
0
 40
0
 40
1
 40
1
 40
1
 40
1
 10
123.641321
 20
35.730968
 30
0.0
 10
124.607611
 20
35.787044
 30
0.0
 10
125.121829
 20
36.505586
 30
0.0
 10
124.726613
 20
37.247505
 30
0.0
  0
SPLINE
  5
224
100
AcDbEntity
  8
0
 62
7
100
AcDbSpline
 70
8
 71
3
 72
8
 73
4
 74
0
 40
0
 40
0
 40
0
 40
0
 40
1
 40
1
 40
1
 40
1
 10
124.726613
 20
37.247505
 30
0.0
 10
124.461683
 20
37.744847
 30
0.0
 10
124.475862
 20
37.767588
 30
0.0
 10
124.855624
 20
37.454374
 30
0.0
  0
SPLINE
  5
225
100
AcDbEntity
  8
0
 62
7
100
AcDbSpline
 70
8
 71
3
 72
8
 73
4
 74
0
 40
0
 40
0
 40
0
 40
0
 40
1
 40
1
 40
1
 40
1
 10
124.855624
 20
37.454374
 30
0.0
 10
125.519320
 20
36.906978
 30
0.0
 10
125.898241
 20
35.484263
 30
0.0
 10
125.593684
 20
34.683216
 30
0.0
  0
SPLINE
  5
226
100
AcDbEntity
  8
0
 62
7
100
AcDbSpline
 70
8
 71
3
 72
8
 73
4
 74
0
 40
0
 40
0
 40
0
 40
0
 40
1
 40
1
 40
1
 40
1
 10
125.593684
 20
34.683216
 30
0.0
 10
125.256555
 20
33.796502
 30
0.0
 10
124.524950
 20
33.333669
 30
0.0
 10
122.115006
 20
32.482512
 30
0.0
  0
SPLINE
  5
227
100
AcDbEntity
  8
0
 62
7
100
AcDbSpline
 70
8
 71
3
 72
8
 73
4
 74
0
 40
0
 40
0
 40
0
 40
0
 40
1
 40
1
 40
1
 40
1
 10
122.115006
 20
32.482512
 30
0.0
 10
120.265825
 20
31.829409
 30
0.0
 10
120.056381
 20
31.808211
 30
0.0
 10
118.562475
 20
32.122973
 30
0.0
  0
SPLINE
  5
228
100
AcDbEntity
  8
0
 62
7
100
AcDbSpline
 70
8
 71
3
 72
8
 73
4
 74
0
 40
0
 40
0
 40
0
 40
0
 40
1
 40
1
 40
1
 40
1
 10
118.562475
 20
32.122973
 30
0.0
 10
117.689350
 20
32.306937
 30
0.0
 10
116.176266
 20
32.600474
 30
0.0
 10
115.200065
 20
32.775274
 30
0.0
  0
SPLINE
  5
229
100
AcDbEntity
  8
0
 62
7
100
AcDbSpline
 70
8
 71
3
 72
8
 73
4
 74
0
 40
0
 40
0
 40
0
 40
0
 40
1
 40
1
 40
1
 40
1
 10
115.200065
 20
32.775274
 30
0.0
 10
113.715623
 20
33.041079
 30
0.0
 10
113.180230
 20
33.294725
 30
0.0
 10
111.928524
 20
34.325200
 30
0.0
  0
SPLINE
  5
22a
100
AcDbEntity
  8
0
 62
7
100
AcDbSpline
 70
8
 71
3
 72
8
 73
4
 74
0
 40
0
 40
0
 40
0
 40
0
 40
1
 40
1
 40
1
 40
1
 10
111.928524
 20
34.325200
 30
0.0
 10
110.807646
 20
35.247969
 30
0.0
 10
110.209613
 20
35.557309
 30
0.0
 10
109.546551
 20
35.557309
 30
0.0
  0
SPLINE
  5
22b
100
AcDbEntity
  8
0
 62
7
100
AcDbSpline
 70
8
 71
3
 72
8
 73
4
 74
0
 40
0
 40
0
 40
0
 40
0
 40
1
 40
1
 40
1
 40
1
 10
109.546551
 20
35.557309
 30
0.0
 10
107.924817
 20
35.557309
 30
0.0
 10
107.152427
 20
34.024853
 30
0.0
 10
107.630489
 20
31.755757
 30
0.0
  0
SPLINE
  5
22c
100
AcDbEntity
  8
0
 62
7
100
AcDbSpline
 70
8
 71
3
 72
8
 73
4
 74
0
 40
0
 40
0
 40
0
 40
0
 40
1
 40
1
 40
1
 40
1
 10
107.630489
 20
31.755757
 30
0.0
 10
107.757172
 20
31.154476
 30
0.0
 10
107.974757
 20
27.566893
 30
0.0
 10
108.114013
 20
23.783351
 30
0.0
  0
SPLINE
  5
22d
100
AcDbEntity
  8
0
 62
7
100
AcDbSpline
 70
8
 71
3
 72
8
 73
4
 74
0
 40
0
 40
0
 40
0
 40
0
 40
1
 40
1
 40
1
 40
1
 10
108.114013
 20
23.783351
 30
0.0
 10
108.257345
 20
19.889086
 30
0.0
 10
108.536769
 20
16.043153
 30
0.0
 10
108.757985
 20
14.919809
 30
0.0
  0
SPLINE
  5
22e
100
AcDbEntity
  8
0
 62
7
100
AcDbSpline
 70
8
 71
3
 72
8
 73
4
 74
0
 40
0
 40
0
 40
0
 40
0
 40
1
 40
1
 40
1
 40
1
 10
108.757985
 20
14.919809
 30
0.0
 10
109.094537
 20
13.210789
 30
0.0
 10
109.306080
 20
10.449653
 30
0.0
 10
109.103620
 20
10.408423
 30
0.0
  0
SPLINE
  5
22f
100
AcDbEntity
  8
0
 62
7
100
AcDbSpline
 70
8
 71
3
 72
8
 73
4
 74
0
 40
0
 40
0
 40
0
 40
0
 40
1
 40
1
 40
1
 40
1
 10
109.103620
 20
10.408423
 30
0.0
 10
109.067240
 20
10.401014
 30
0.0
 10
107.745435
 20
10.295382
 30
0.0
 10
106.166277
 20
10.173687
 30
0.0
  0
SPLINE
  5
230
100
AcDbEntity
  8
0
 62
7
100
AcDbSpline
 70
8
 71
3
 72
8
 73
4
 74
0
 40
0
 40
0
 40
0
 40
0
 40
1
 40
1
 40
1
 40
1
 10
106.166277
 20
10.173687
 30
0.0
 10
103.783455
 20
9.990061
 30
0.0
 10
103.153395
 20
9.847183
 30
0.0
 10
102.462110
 20
9.333706
 30
0.0
  0
SPLINE
  5
231
100
AcDbEntity
  8
0
 62
7
100
AcDbSpline
 70
8
 71
3
 72
8
 73
4
 74
0
 40
0
 40
0
 40
0
 40
0
 40
1
 40
1
 40
1
 40
1
 10
102.462110
 20
9.333706
 30
0.0
 10
100.399289
 20
7.801472
 30
0.0
 10
98.996712
 20
6.966302
 30
0.0
 10
98.609491
 20
7.039650
 30
0.0
  0
SPLINE
  5
232
100
AcDbEntity
  8
0
 62
7
100
AcDbSpline
 70
8
 71
3
 72
8
 73
4
 74
0
 40
0
 40
0
 40
0
 40
0
 40
1
 40
1
 40
1
 40
1
 10
98.609491
 20
7.039650
 30
0.0
 10
98.315396
 20
7.095358
 30
0.0
 10
98.149915
 20
7.514931
 30
0.0
 10
98.057266
 20
8.439814
 30
0.0
  0
SPLINE
  5
233
100
AcDbEntity
  8
0
 62
7
100
AcDbSpline
 70
8
 71
3
 72
8
 73
4
 74
0
 40
0
 40
0
 40
0
 40
0
 40
1
 40
1
 40
1
 40
1
 10
98.057266
 20
8.439814
 30
0.0
 10
97.938519
 20
9.625219
 30
0.0
 10
97.854413
 20
9.768626
 30
0.0
 10
97.235801
 20
9.840447
 30
0.0
  0
SPLINE
  5
234
100
AcDbEntity
  8
0
 62
7
100
AcDbSpline
 70
8
 71
3
 72
8
 73
4
 74
0
 40
0
 40
0
 40
0
 40
0
 40
1
 40
1
 40
1
 40
1
 10
97.235801
 20
9.840447
 30
0.0
 10
96.772349
 20
9.894253
 30
0.0
 10
96.153399
 20
9.620298
 30
0.0
 10
95.346015
 20
9.004009
 30
0.0
  0
SPLINE
  5
235
100
AcDbEntity
  8
0
 62
7
100
AcDbSpline
 70
8
 71
3
 72
8
 73
4
 74
0
 40
0
 40
0
 40
0
 40
0
 40
1
 40
1
 40
1
 40
1
 10
95.346015
 20
9.004009
 30
0.0
 10
94.685678
 20
8.499962
 30
0.0
 10
92.971742
 20
7.322569
 30
0.0
 10
91.537271
 20
6.387579
 30
0.0
  0
SPLINE
  5
236
100
AcDbEntity
  8
0
 62
7
100
AcDbSpline
 70
8
 71
3
 72
8
 73
4
 74
0
 40
0
 40
0
 40
0
 40
0
 40
1
 40
1
 40
1
 40
1
 10
91.537271
 20
6.387579
 30
0.0
 10
90.102798
 20
5.452589
 30
0.0
 10
88.304063
 20
4.121311
 30
0.0
 10
87.540079
 20
3.429185
 30
0.0
  0
SPLINE
  5
237
100
AcDbEntity
  8
0
 62
7
100
AcDbSpline
 70
8
 71
3
 72
8
 73
4
 74
0
 40
0
 40
0
 40
0
 40
0
 40
1
 40
1
 40
1
 40
1
 10
87.540079
 20
3.429185
 30
0.0
 10
86.776094
 20
2.737056
 30
0.0
 10
86.151016
 20
2.237298
 30
0.0
 10
86.151016
 20
2.318605
 30
0.0
  0
SPLINE
  5
238
100
AcDbEntity
  8
0
 62
7
100
AcDbSpline
 70
8
 71
3
 72
8
 73
4
 74
0
 40
0
 40
0
 40
0
 40
0
 40
1
 40
1
 40
1
 40
1
 10
86.151016
 20
2.318605
 30
0.0
 10
86.151016
 20
2.399914
 30
0.0
 10
86.352229
 20
2.888390
 30
0.0
 10
86.598159
 20
3.404108
 30
0.0
  0
SPLINE
  5
239
100
AcDbEntity
  8
0
 62
7
100
AcDbSpline
 70
8
 71
3
 72
8
 73
4
 74
0
 40
0
 40
0
 40
0
 40
0
 40
1
 40
1
 40
1
 40
1
 10
86.598159
 20
3.404108
 30
0.0
 10
86.917072
 20
4.072877
 30
0.0
 10
86.963729
 20
4.423347
 30
0.0
 10
86.760852
 20
4.626224
 30
0.0
  0
SPLINE
  5
23a
100
AcDbEntity
  8
0
 62
7
100
AcDbSpline
 70
8
 71
3
 72
8
 73
4
 74
0
 40
0
 40
0
 40
0
 40
0
 40
1
 40
1
 40
1
 40
1
 10
86.760852
 20
4.626224
 30
0.0
 10
86.293031
 20
5.094044
 30
0.0
 10
85.033310
 20
4.254471
 30
0.0
 10
83.795264
 20
2.649736
 30
0.0
  0
SPLINE
  5
23b
100
AcDbEntity
  8
0
 62
7
100
AcDbSpline
 70
8
 71
3
 72
8
 73
4
 74
0
 40
0
 40
0
 40
0
 40
0
 40
1
 40
1
 40
1
 40
1
 10
83.795264
 20
2.649736
 30
0.0
 10
81.352387
 20
-0.516689
 30
0.0
 10
78.589365
 20
-1.585360
 30
0.0
 10
75.435391
 20
-0.583668
 30
0.0
  0
LWPOLYLINE
  5
23c
100
AcDbEntity
  8
0
 62
7
100
AcDbPolyline
 90
3
 70
0
 10
119.753100
 20
35.055551
 30
0.0
 10
119.753100
 20
35.876709
 30
0.0
 10
120.688349
 20
35.055551
 30
0.0
  0
SPLINE
  5
23d
100
AcDbEntity
  8
0
 62
7
100
AcDbSpline
 70
8
 71
3
 72
8
 73
4
 74
0
 40
0
 40
0
 40
0
 40
0
 40
1
 40
1
 40
1
 40
1
 10
99.266798
 20
78.835583
 30
0.0
 10
99.169479
 20
79.223333
 30
0.0
 10
99.030322
 20
79.481053
 30
0.0
 10
98.957561
 20
79.408293
 30
0.0
  0
SPLINE
  5
23e
100
AcDbEntity
  8
0
 62
7
100
AcDbSpline
 70
8
 71
3
 72
8
 73
4
 74
0
 40
0
 40
0
 40
0
 40
0
 40
1
 40
1
 40
1
 40
1
 10
98.957561
 20
79.408293
 30
0.0
 10
98.884801
 20
79.335532
 30
0.0
 10
98.904896
 20
78.958750
 30
0.0
 10
99.002215
 20
78.571000
 30
0.0
  0
SPLINE
  5
23f
100
AcDbEntity
  8
0
 62
7
100
AcDbSpline
 70
8
 71
3
 72
8
 73
4
 74
0
 40
0
 40
0
 40
0
 40
0
 40
1
 40
1
 40
1
 40
1
 10
99.002215
 20
78.571000
 30
0.0
 10
99.099534
 20
78.183251
 30
0.0
 10
99.238689
 20
77.925530
 30
0.0
 10
99.311449
 20
77.998291
 30
0.0
  0
SPLINE
  5
240
100
AcDbEntity
  8
0
 62
7
100
AcDbSpline
 70
8
 71
3
 72
8
 73
4
 74
0
 40
0
 40
0
 40
0
 40
0
 40
1
 40
1
 40
1
 40
1
 10
99.311449
 20
77.998291
 30
0.0
 10
99.384210
 20
78.071051
 30
0.0
 10
99.364117
 20
78.447834
 30
0.0
 10
99.266798
 20
78.835583
 30
0.0
  0
LWPOLYLINE
  5
241
100
AcDbEntity
  8
0
 62
7
100
AcDbPolyline
 90
1
 70
1
 10
75.435391
 20
-0.583668
 30
0.0
  0
SPLINE
  5
242
100
AcDbEntity
  8
0
 62
7
100
AcDbSpline
 70
8
 71
3
 72
8
 73
4
 74
0
 40
0
 40
0
 40
0
 40
0
 40
1
 40
1
 40
1
 40
1
 10
75.832274
 20
18.623976
 30
0.0
 10
75.499957
 20
19.244916
 30
0.0
 10
74.847897
 20
19.292311
 30
0.0
 10
74.128058
 20
18.747854
 30
0.0
  0
SPLINE
  5
243
100
AcDbEntity
  8
0
 62
7
100
AcDbSpline
 70
8
 71
3
 72
8
 73
4
 74
0
 40
0
 40
0
 40
0
 40
0
 40
1
 40
1
 40
1
 40
1
 10
74.128058
 20
18.747854
 30
0.0
 10
73.394295
 20
18.192864
 30
0.0
 10
73.118948
 20
18.268072
 30
0.0
 10
73.471672
 20
18.927138
 30
0.0
  0
SPLINE
  5
244
100
AcDbEntity
  8
0
 62
7
100
AcDbSpline
 70
8
 71
3
 72
8
 73
4
 74
0
 40
0
 40
0
 40
0
 40
0
 40
1
 40
1
 40
1
 40
1
 10
73.471672
 20
18.927138
 30
0.0
 10
73.869262
 20
19.670043
 30
0.0
 10
73.639953
 20
21.988026
 30
0.0
 10
73.117146
 20
22.510829
 30
0.0
  0
SPLINE
  5
245
100
AcDbEntity
  8
0
 62
7
100
AcDbSpline
 70
8
 71
3
 72
8
 73
4
 74
0
 40
0
 40
0
 40
0
 40
0
 40
1
 40
1
 40
1
 40
1
 10
73.117146
 20
22.510829
 30
0.0
 10
72.749860
 20
22.878116
 30
0.0
 10
72.584583
 20
22.832716
 30
0.0
 10
71.451872
 20
22.053394
 30
0.0
  0
SPLINE
  5
246
100
AcDbEntity
  8
0
 62
7
100
AcDbSpline
 70
8
 71
3
 72
8
 73
4
 74
0
 40
0
 40
0
 40
0
 40
0
 40
1
 40
1
 40
1
 40
1
 10
71.451872
 20
22.053394
 30
0.0
 10
70.164018
 20
21.167325
 30
0.0
 10
70.136351
 20
21.279384
 30
0.0
 10
71.266016
 20
22.806176
 30
0.0
  0
SPLINE
  5
247
100
AcDbEntity
  8
0
 62
7
100
AcDbSpline
 70
8
 71
3
 72
8
 73
4
 74
0
 40
0
 40
0
 40
0
 40
0
 40
1
 40
1
 40
1
 40
1
 10
71.266016
 20
22.806176
 30
0.0
 10
71.898330
 20
23.660777
 30
0.0
 10
71.920613
 20
24.014856
 30
0.0
 10
71.430039
 20
25.412417
 30
0.0
  0
SPLINE
  5
248
100
AcDbEntity
  8
0
 62
7
100
AcDbSpline
 70
8
 71
3
 72
8
 73
4
 74
0
 40
0
 40
0
 40
0
 40
0
 40
1
 40
1
 40
1
 40
1
 10
71.430039
 20
25.412417
 30
0.0
 10
71.335900
 20
25.680596
 30
0.0
 10
71.811642
 20
25.201084
 30
0.0
 10
72.487242
 20
24.346829
 30
0.0
  0
SPLINE
  5
249
100
AcDbEntity
  8
0
 62
7
100
AcDbSpline
 70
8
 71
3
 72
8
 73
4
 74
0
 40
0
 40
0
 40
0
 40
0
 40
1
 40
1
 40
1
 40
1
 10
72.487242
 20
24.346829
 30
0.0
 10
73.162843
 20
23.492574
 30
0.0
 10
73.715607
 20
22.690164
 30
0.0
 10
73.715607
 20
22.563693
 30
0.0
  0
SPLINE
  5
24a
100
AcDbEntity
  8
0
 62
7
100
AcDbSpline
 70
8
 71
3
 72
8
 73
4
 74
0
 40
0
 40
0
 40
0
 40
0
 40
1
 40
1
 40
1
 40
1
 10
73.715607
 20
22.563693
 30
0.0
 10
73.715607
 20
22.437222
 30
0.0
 10
74.310920
 20
21.676381
 30
0.0
 10
75.038524
 20
20.872934
 30
0.0
  0
SPLINE
  5
24b
100
AcDbEntity
  8
0
 62
7
100
AcDbSpline
 70
8
 71
3
 72
8
 73
4
 74
0
 40
0
 40
0
 40
0
 40
0
 40
1
 40
1
 40
1
 40
1
 10
75.038524
 20
20.872934
 30
0.0
 10
75.880539
 20
19.943151
 30
0.0
 10
76.361441
 20
19.172693
 30
0.0
 10
76.361441
 20
18.753466
 30
0.0
  0
SPLINE
  5
24c
100
AcDbEntity
  8
0
 62
7
100
AcDbSpline
 70
8
 71
3
 72
8
 73
4
 74
0
 40
0
 40
0
 40
0
 40
0
 40
1
 40
1
 40
1
 40
1
 10
76.361441
 20
18.753466
 30
0.0
 10
76.361441
 20
17.956826
 30
0.0
 10
76.209252
 20
17.919586
 30
0.0
 10
75.832274
 20
18.623976
 30
0.0
  0
LWPOLYLINE
  5
24d
100
AcDbEntity
  8
0
 62
7
100
AcDbPolyline
 90
1
 70
1
 10
99.266798
 20
78.835583
 30
0.0
  0
SPLINE
  5
24e
100
AcDbEntity
  8
0
 62
7
100
AcDbSpline
 70
8
 71
3
 72
8
 73
4
 74
0
 40
0
 40
0
 40
0
 40
0
 40
1
 40
1
 40
1
 40
1
 10
70.296913
 20
27.509565
 30
0.0
 10
70.309613
 20
27.817792
 30
0.0
 10
70.372303
 20
27.880485
 30
0.0
 10
70.456764
 20
27.669419
 30
0.0
  0
SPLINE
  5
24f
100
AcDbEntity
  8
0
 62
7
100
AcDbSpline
 70
8
 71
3
 72
8
 73
4
 74
0
 40
0
 40
0
 40
0
 40
0
 40
1
 40
1
 40
1
 40
1
 10
70.456764
 20
27.669419
 30
0.0
 10
70.533194
 20
27.478424
 30
0.0
 10
70.523796
 20
27.250218
 30
0.0
 10
70.435888
 20
27.162300
 30
0.0
  0
SPLINE
  5
250
100
AcDbEntity
  8
0
 62
7
100
AcDbSpline
 70
8
 71
3
 72
8
 73
4
 74
0
 40
0
 40
0
 40
0
 40
0
 40
1
 40
1
 40
1
 40
1
 10
70.435888
 20
27.162300
 30
0.0
 10
70.347970
 20
27.074381
 30
0.0
 10
70.285435
 20
27.230652
 30
0.0
 10
70.296924
 20
27.509565
 30
0.0
  0
LWPOLYLINE
  5
251
100
AcDbEntity
  8
0
 62
7
100
AcDbPolyline
 90
1
 70
1
 10
75.832274
 20
18.623976
 30
0.0
  0
SPLINE
  5
252
100
AcDbEntity
  8
0
 62
7
100
AcDbSpline
 70
8
 71
3
 72
8
 73
4
 74
0
 40
0
 40
0
 40
0
 40
0
 40
1
 40
1
 40
1
 40
1
 10
113.984924
 20
57.709419
 30
0.0
 10
115.134401
 20
58.221877
 30
0.0
 10
115.596350
 20
58.599906
 30
0.0
 10
115.928537
 20
59.299941
 30
0.0
  0
SPLINE
  5
253
100
AcDbEntity
  8
0
 62
7
100
AcDbSpline
 70
8
 71
3
 72
8
 73
4
 74
0
 40
0
 40
0
 40
0
 40
0
 40
1
 40
1
 40
1
 40
1
 10
115.928537
 20
59.299941
 30
0.0
 10
116.586643
 20
60.686797
 30
0.0
 10
118.033377
 20
62.155086
 30
0.0
 10
119.629134
 20
63.055675
 30
0.0
  0
SPLINE
  5
254
100
AcDbEntity
  8
0
 62
7
100
AcDbSpline
 70
8
 71
3
 72
8
 73
4
 74
0
 40
0
 40
0
 40
0
 40
0
 40
1
 40
1
 40
1
 40
1
 10
119.629134
 20
63.055675
 30
0.0
 10
121.816744
 20
64.290287
 30
0.0
 10
122.347821
 20
65.899369
 30
0.0
 10
121.498794
 20
68.720467
 30
0.0
  0
SPLINE
  5
255
100
AcDbEntity
  8
0
 62
7
100
AcDbSpline
 70
8
 71
3
 72
8
 73
4
 74
0
 40
0
 40
0
 40
0
 40
0
 40
1
 40
1
 40
1
 40
1
 10
121.498794
 20
68.720467
 30
0.0
 10
121.294755
 20
69.398438
 30
0.0
 10
121.221087
 20
69.953143
 30
0.0
 10
121.335091
 20
69.953143
 30
0.0
  0
SPLINE
  5
256
100
AcDbEntity
  8
0
 62
7
100
AcDbSpline
 70
8
 71
3
 72
8
 73
4
 74
0
 40
0
 40
0
 40
0
 40
0
 40
1
 40
1
 40
1
 40
1
 10
121.335091
 20
69.953143
 30
0.0
 10
121.612385
 20
69.953143
 30
0.0
 10
122.108013
 20
67.927273
 30
0.0
 10
122.290274
 20
66.048861
 30
0.0
  0
SPLINE
  5
257
100
AcDbEntity
  8
0
 62
7
100
AcDbSpline
 70
8
 71
3
 72
8
 73
4
 74
0
 40
0
 40
0
 40
0
 40
0
 40
1
 40
1
 40
1
 40
1
 10
122.290274
 20
66.048861
 30
0.0
 10
122.408733
 20
64.827976
 30
0.0
 10
122.329871
 20
64.323106
 30
0.0
 10
121.889165
 20
63.481053
 30
0.0
  0
SPLINE
  5
258
100
AcDbEntity
  8
0
 62
7
100
AcDbSpline
 70
8
 71
3
 72
8
 73
4
 74
0
 40
0
 40
0
 40
0
 40
0
 40
1
 40
1
 40
1
 40
1
 10
121.889165
 20
63.481053
 30
0.0
 10
121.587458
 20
62.904582
 30
0.0
 10
121.340607
 20
62.332301
 30
0.0
 10
121.340607
 20
62.209323
 30
0.0
  0
SPLINE
  5
259
100
AcDbEntity
  8
0
 62
7
100
AcDbSpline
 70
8
 71
3
 72
8
 73
4
 74
0
 40
0
 40
0
 40
0
 40
0
 40
1
 40
1
 40
1
 40
1
 10
121.340607
 20
62.209323
 30
0.0
 10
121.340607
 20
61.727469
 30
0.0
 10
123.038129
 20
62.993344
 30
0.0
 10
123.559980
 20
63.864352
 30
0.0
  0
SPLINE
  5
25a
100
AcDbEntity
  8
0
 62
7
100
AcDbSpline
 70
8
 71
3
 72
8
 73
4
 74
0
 40
0
 40
0
 40
0
 40
0
 40
1
 40
1
 40
1
 40
1
 10
123.559980
 20
63.864352
 30
0.0
 10
123.976347
 20
64.559302
 30
0.0
 10
124.134631
 20
64.673578
 30
0.0
 10
124.201304
 20
64.327373
 30
0.0
  0
SPLINE
  5
25b
100
AcDbEntity
  8
0
 62
7
100
AcDbSpline
 70
8
 71
3
 72
8
 73
4
 74
0
 40
0
 40
0
 40
0
 40
0
 40
1
 40
1
 40
1
 40
1
 10
124.201304
 20
64.327373
 30
0.0
 10
124.346703
 20
63.572382
 30
0.0
 10
125.218370
 20
63.804080
 30
0.0
 10
126.056107
 20
64.820400
 30
0.0
  0
SPLINE
  5
25c
100
AcDbEntity
  8
0
 62
7
100
AcDbSpline
 70
8
 71
3
 72
8
 73
4
 74
0
 40
0
 40
0
 40
0
 40
0
 40
1
 40
1
 40
1
 40
1
 10
126.056107
 20
64.820400
 30
0.0
 10
126.674835
 20
65.571026
 30
0.0
 10
126.962876
 20
65.734515
 30
0.0
 10
127.414232
 20
65.591261
 30
0.0
  0
SPLINE
  5
25d
100
AcDbEntity
  8
0
 62
7
100
AcDbSpline
 70
8
 71
3
 72
8
 73
4
 74
0
 40
0
 40
0
 40
0
 40
0
 40
1
 40
1
 40
1
 40
1
 10
127.414232
 20
65.591261
 30
0.0
 10
127.843460
 20
65.455030
 30
0.0
 10
128.501016
 20
65.746855
 30
0.0
 10
130.036991
 20
66.755253
 30
0.0
  0
SPLINE
  5
25e
100
AcDbEntity
  8
0
 62
7
100
AcDbSpline
 70
8
 71
3
 72
8
 73
4
 74
0
 40
0
 40
0
 40
0
 40
0
 40
1
 40
1
 40
1
 40
1
 10
130.036991
 20
66.755253
 30
0.0
 10
131.164444
 20
67.495446
 30
0.0
 10
132.169300
 20
68.101059
 30
0.0
 10
132.270005
 20
68.101059
 30
0.0
  0
SPLINE
  5
25f
100
AcDbEntity
  8
0
 62
7
100
AcDbSpline
 70
8
 71
3
 72
8
 73
4
 74
0
 40
0
 40
0
 40
0
 40
0
 40
1
 40
1
 40
1
 40
1
 10
132.270005
 20
68.101059
 30
0.0
 10
132.370711
 20
68.101059
 30
0.0
 10
132.453107
 20
67.827938
 30
0.0
 10
132.453107
 20
67.494121
 30
0.0
  0
SPLINE
  5
260
100
AcDbEntity
  8
0
 62
7
100
AcDbSpline
 70
8
 71
3
 72
8
 73
4
 74
0
 40
0
 40
0
 40
0
 40
0
 40
1
 40
1
 40
1
 40
1
 10
132.453107
 20
67.494121
 30
0.0
 10
132.453107
 20
66.824841
 30
0.0
 10
130.954436
 20
65.260477
 30
0.0
 10
129.674982
 20
64.594216
 30
0.0
  0
SPLINE
  5
261
100
AcDbEntity
  8
0
 62
7
100
AcDbSpline
 70
8
 71
3
 72
8
 73
4
 74
0
 40
0
 40
0
 40
0
 40
0
 40
1
 40
1
 40
1
 40
1
 10
129.674982
 20
64.594216
 30
0.0
 10
127.741122
 20
63.587180
 30
0.0
 10
124.347311
 20
61.141584
 30
0.0
 10
123.973534
 20
60.485721
 30
0.0
  0
SPLINE
  5
262
100
AcDbEntity
  8
0
 62
7
100
AcDbSpline
 70
8
 71
3
 72
8
 73
4
 74
0
 40
0
 40
0
 40
0
 40
0
 40
1
 40
1
 40
1
 40
1
 10
123.973534
 20
60.485721
 30
0.0
 10
123.401275
 20
59.481590
 30
0.0
 10
121.897619
 20
58.815044
 30
0.0
 10
119.631307
 20
58.560888
 30
0.0
  0
SPLINE
  5
263
100
AcDbEntity
  8
0
 62
7
100
AcDbSpline
 70
8
 71
3
 72
8
 73
4
 74
0
 40
0
 40
0
 40
0
 40
0
 40
1
 40
1
 40
1
 40
1
 10
119.631307
 20
58.560888
 30
0.0
 10
118.567951
 20
58.441638
 30
0.0
 10
116.973310
 20
58.039079
 30
0.0
 10
116.087660
 20
57.666313
 30
0.0
  0
SPLINE
  5
264
100
AcDbEntity
  8
0
 62
7
100
AcDbSpline
 70
8
 71
3
 72
8
 73
4
 74
0
 40
0
 40
0
 40
0
 40
0
 40
1
 40
1
 40
1
 40
1
 10
116.087660
 20
57.666313
 30
0.0
 10
115.202010
 20
57.293550
 30
0.0
 10
114.027315
 20
56.999500
 30
0.0
 10
113.477225
 20
57.012872
 30
0.0
  0
LWPOLYLINE
  5
265
100
AcDbEntity
  8
0
 62
7
100
AcDbPolyline
 90
1
 70
1
 10
70.296924
 20
27.509565
 30
0.0
  0
SPLINE
  5
266
100
AcDbEntity
  8
0
 62
7
100
AcDbSpline
 70
8
 71
3
 72
8
 73
4
 74
0
 40
0
 40
0
 40
0
 40
0
 40
1
 40
1
 40
1
 40
1
 10
125.741843
 20
59.846660
 30
0.0
 10
125.307744
 20
60.033961
 30
0.0
 10
125.409584
 20
60.204633
 30
0.0
 10
126.587229
 20
61.263437
 30
0.0
  0
SPLINE
  5
267
100
AcDbEntity
  8
0
 62
7
100
AcDbSpline
 70
8
 71
3
 72
8
 73
4
 74
0
 40
0
 40
0
 40
0
 40
0
 40
1
 40
1
 40
1
 40
1
 10
126.587229
 20
61.263437
 30
0.0
 10
127.323646
 20
61.925541
 30
0.0
 10
128.756558
 20
62.960586
 30
0.0
 10
129.771476
 20
63.563537
 30
0.0
  0
SPLINE
  5
268
100
AcDbEntity
  8
0
 62
7
100
AcDbSpline
 70
8
 71
3
 72
8
 73
4
 74
0
 40
0
 40
0
 40
0
 40
0
 40
1
 40
1
 40
1
 40
1
 10
129.771476
 20
63.563537
 30
0.0
 10
132.342803
 20
65.091135
 30
0.0
 10
133.168850
 20
65.848047
 30
0.0
 10
133.952620
 20
67.394738
 30
0.0
  0
SPLINE
  5
269
100
AcDbEntity
  8
0
 62
7
100
AcDbSpline
 70
8
 71
3
 72
8
 73
4
 74
0
 40
0
 40
0
 40
0
 40
0
 40
1
 40
1
 40
1
 40
1
 10
133.952620
 20
67.394738
 30
0.0
 10
134.326482
 20
68.132518
 30
0.0
 10
134.918506
 20
69.168542
 30
0.0
 10
135.268232
 20
69.697015
 30
0.0
  0
SPLINE
  5
26a
100
AcDbEntity
  8
0
 62
7
100
AcDbSpline
 70
8
 71
3
 72
8
 73
4
 74
0
 40
0
 40
0
 40
0
 40
0
 40
1
 40
1
 40
1
 40
1
 10
135.268232
 20
69.697015
 30
0.0
 10
136.303509
 20
71.261420
 30
0.0
 10
136.380643
 20
71.972096
 30
0.0
 10
136.148405
 20
77.806291
 30
0.0
  0
SPLINE
  5
26b
100
AcDbEntity
  8
0
 62
7
100
AcDbSpline
 70
8
 71
3
 72
8
 73
4
 74
0
 40
0
 40
0
 40
0
 40
0
 40
1
 40
1
 40
1
 40
1
 10
136.148405
 20
77.806291
 30
0.0
 10
135.914813
 20
83.674461
 30
0.0
 10
135.540491
 20
86.420799
 30
0.0
 10
134.323032
 20
91.198740
 30
0.0
  0
SPLINE
  5
26c
100
AcDbEntity
  8
0
 62
7
100
AcDbSpline
 70
8
 71
3
 72
8
 73
4
 74
0
 40
0
 40
0
 40
0
 40
0
 40
1
 40
1
 40
1
 40
1
 10
134.323032
 20
91.198740
 30
0.0
 10
132.871993
 20
96.893364
 30
0.0
 10
131.480203
 20
99.615548
 30
0.0
 10
129.542215
 20
100.549477
 30
0.0
  0
SPLINE
  5
26d
100
AcDbEntity
  8
0
 62
7
100
AcDbSpline
 70
8
 71
3
 72
8
 73
4
 74
0
 40
0
 40
0
 40
0
 40
0
 40
1
 40
1
 40
1
 40
1
 10
129.542215
 20
100.549477
 30
0.0
 10
128.887633
 20
100.864924
 30
0.0
 10
127.711412
 20
101.675261
 30
0.0
 10
126.928388
 20
102.350226
 30
0.0
  0
SPLINE
  5
26e
100
AcDbEntity
  8
0
 62
7
100
AcDbSpline
 70
8
 71
3
 72
8
 73
4
 74
0
 40
0
 40
0
 40
0
 40
0
 40
1
 40
1
 40
1
 40
1
 10
126.928388
 20
102.350226
 30
0.0
 10
125.158706
 20
103.875694
 30
0.0
 10
124.521301
 20
104.205603
 30
0.0
 10
122.564345
 20
104.608979
 30
0.0
  0
SPLINE
  5
26f
100
AcDbEntity
  8
0
 62
7
100
AcDbSpline
 70
8
 71
3
 72
8
 73
4
 74
0
 40
0
 40
0
 40
0
 40
0
 40
1
 40
1
 40
1
 40
1
 10
122.564345
 20
104.608979
 30
0.0
 10
121.709431
 20
104.785197
 30
0.0
 10
120.340213
 20
105.161601
 30
0.0
 10
119.521637
 20
105.445430
 30
0.0
  0
SPLINE
  5
270
100
AcDbEntity
  8
0
 62
7
100
AcDbSpline
 70
8
 71
3
 72
8
 73
4
 74
0
 40
0
 40
0
 40
0
 40
0
 40
1
 40
1
 40
1
 40
1
 10
119.521637
 20
105.445430
 30
0.0
 10
118.029538
 20
105.962797
 30
0.0
 10
115.135951
 20
106.278609
 30
0.0
 10
107.846857
 20
106.719632
 30
0.0
  0
SPLINE
  5
271
100
AcDbEntity
  8
0
 62
7
100
AcDbSpline
 70
8
 71
3
 72
8
 73
4
 74
0
 40
0
 40
0
 40
0
 40
0
 40
1
 40
1
 40
1
 40
1
 10
107.846857
 20
106.719632
 30
0.0
 10
105.736805
 20
106.847301
 30
0.0
 10
103.349623
 20
107.034565
 30
0.0
 10
102.542007
 20
107.135777
 30
0.0
  0
SPLINE
  5
272
100
AcDbEntity
  8
0
 62
7
100
AcDbSpline
 70
8
 71
3
 72
8
 73
4
 74
0
 40
0
 40
0
 40
0
 40
0
 40
1
 40
1
 40
1
 40
1
 10
102.542007
 20
107.135777
 30
0.0
 10
100.690929
 20
107.367758
 30
0.0
 10
94.378298
 20
106.387511
 30
0.0
 10
92.994168
 20
105.653155
 30
0.0
  0
SPLINE
  5
273
100
AcDbEntity
  8
0
 62
7
100
AcDbSpline
 70
8
 71
3
 72
8
 73
4
 74
0
 40
0
 40
0
 40
0
 40
0
 40
1
 40
1
 40
1
 40
1
 10
92.994168
 20
105.653155
 30
0.0
 10
91.586391
 20
104.906252
 30
0.0
 10
90.539017
 20
105.012008
 30
0.0
 10
86.487386
 20
106.310160
 30
0.0
  0
SPLINE
  5
274
100
AcDbEntity
  8
0
 62
7
100
AcDbSpline
 70
8
 71
3
 72
8
 73
4
 74
0
 40
0
 40
0
 40
0
 40
0
 40
1
 40
1
 40
1
 40
1
 10
86.487386
 20
106.310160
 30
0.0
 10
84.483377
 20
106.952251
 30
0.0
 10
81.712639
 20
107.740140
 30
0.0
 10
80.330191
 20
108.061030
 30
0.0
  0
SPLINE
  5
275
100
AcDbEntity
  8
0
 62
7
100
AcDbSpline
 70
8
 71
3
 72
8
 73
4
 74
0
 40
0
 40
0
 40
0
 40
0
 40
1
 40
1
 40
1
 40
1
 10
80.330191
 20
108.061030
 30
0.0
 10
75.940018
 20
109.080059
 30
0.0
 10
75.572919
 20
109.333908
 30
0.0
 10
69.080065
 20
115.840600
 30
0.0
  0
SPLINE
  5
276
100
AcDbEntity
  8
0
 62
7
100
AcDbSpline
 70
8
 71
3
 72
8
 73
4
 74
0
 40
0
 40
0
 40
0
 40
0
 40
1
 40
1
 40
1
 40
1
 10
69.080065
 20
115.840600
 30
0.0
 10
62.533541
 20
122.401076
 30
0.0
 10
61.924695
 20
123.289565
 30
0.0
 10
60.637073
 20
128.161476
 30
0.0
  0
SPLINE
  5
277
100
AcDbEntity
  8
0
 62
7
100
AcDbSpline
 70
8
 71
3
 72
8
 73
4
 74
0
 40
0
 40
0
 40
0
 40
0
 40
1
 40
1
 40
1
 40
1
 10
60.637073
 20
128.161476
 30
0.0
 10
59.630400
 20
131.970383
 30
0.0
 10
59.491843
 20
131.770686
 30
0.0
 10
63.127215
 20
131.750430
 30
0.0
  0
LWPOLYLINE
  5
278
100
AcDbEntity
  8
0
 62
7
100
AcDbPolyline
 90
3
 70
0
 10
113.477225
 20
57.012872
 30
0.0
 10
112.477066
 20
57.037187
 30
0.0
 10
113.984924
 20
57.709419
 30
0.0
  0
SPLINE
  5
279
100
AcDbEntity
  8
0
 62
7
100
AcDbSpline
 70
8
 71
3
 72
8
 73
4
 74
0
 40
0
 40
0
 40
0
 40
0
 40
1
 40
1
 40
1
 40
1
 10
67.583791
 20
132.839296
 30
0.0
 10
68.349310
 20
133.447557
 30
0.0
 10
69.319532
 20
134.020758
 30
0.0
 10
69.739843
 20
134.113074
 30
0.0
  0
SPLINE
  5
27a
100
AcDbEntity
  8
0
 62
7
100
AcDbSpline
 70
8
 71
3
 72
8
 73
4
 74
0
 40
0
 40
0
 40
0
 40
0
 40
1
 40
1
 40
1
 40
1
 10
69.739843
 20
134.113074
 30
0.0
 10
70.160153
 20
134.205390
 30
0.0
 10
70.634566
 20
134.438192
 30
0.0
 10
70.794097
 20
134.630411
 30
0.0
  0
SPLINE
  5
27b
100
AcDbEntity
  8
0
 62
7
100
AcDbSpline
 70
8
 71
3
 72
8
 73
4
 74
0
 40
0
 40
0
 40
0
 40
0
 40
1
 40
1
 40
1
 40
1
 10
70.794097
 20
134.630411
 30
0.0
 10
71.161042
 20
135.072557
 30
0.0
 10
69.907872
 20
135.851051
 30
0.0
 10
67.401887
 20
136.737720
 30
0.0
  0
SPLINE
  5
27c
100
AcDbEntity
  8
0
 62
7
100
AcDbSpline
 70
8
 71
3
 72
8
 73
4
 74
0
 40
0
 40
0
 40
0
 40
0
 40
1
 40
1
 40
1
 40
1
 10
67.401887
 20
136.737720
 30
0.0
 10
66.436047
 20
137.079456
 30
0.0
 10
65.110035
 20
137.669418
 30
0.0
 10
64.455191
 20
138.048751
 30
0.0
  0
SPLINE
  5
27d
100
AcDbEntity
  8
0
 62
7
100
AcDbSpline
 70
8
 71
3
 72
8
 73
4
 74
0
 40
0
 40
0
 40
0
 40
0
 40
1
 40
1
 40
1
 40
1
 10
64.455191
 20
138.048751
 30
0.0
 10
63.755159
 20
138.454262
 30
0.0
 10
62.855740
 20
138.739761
 30
0.0
 10
62.272378
 20
138.741634
 30
0.0
  0
SPLINE
  5
27e
100
AcDbEntity
  8
0
 62
7
100
AcDbSpline
 70
8
 71
3
 72
8
 73
4
 74
0
 40
0
 40
0
 40
0
 40
0
 40
1
 40
1
 40
1
 40
1
 10
62.272378
 20
138.741634
 30
0.0
 10
61.191140
 20
138.745100
 30
0.0
 10
60.955685
 20
139.204465
 30
0.0
 10
61.712986
 20
139.832966
 30
0.0
  0
SPLINE
  5
27f
100
AcDbEntity
  8
0
 62
7
100
AcDbSpline
 70
8
 71
3
 72
8
 73
4
 74
0
 40
0
 40
0
 40
0
 40
0
 40
1
 40
1
 40
1
 40
1
 10
61.712986
 20
139.832966
 30
0.0
 10
62.153400
 20
140.198478
 30
0.0
 10
63.907702
 20
140.258395
 30
0.0
 10
67.808822
 20
140.041162
 30
0.0
  0
SPLINE
  5
280
100
AcDbEntity
  8
0
 62
7
100
AcDbSpline
 70
8
 71
3
 72
8
 73
4
 74
0
 40
0
 40
0
 40
0
 40
0
 40
1
 40
1
 40
1
 40
1
 10
67.808822
 20
140.041162
 30
0.0
 10
69.425870
 20
139.951116
 30
0.0
 10
69.818022
 20
140.017825
 30
0.0
 10
70.454655
 20
140.491160
 30
0.0
  0
SPLINE
  5
281
100
AcDbEntity
  8
0
 62
7
100
AcDbSpline
 70
8
 71
3
 72
8
 73
4
 74
0
 40
0
 40
0
 40
0
 40
0
 40
1
 40
1
 40
1
 40
1
 10
70.454655
 20
140.491160
 30
0.0
 10
71.473034
 20
141.248339
 30
0.0
 10
71.544931
 20
142.060864
 30
0.0
 10
70.665660
 20
142.875743
 30
0.0
  0
SPLINE
  5
282
100
AcDbEntity
  8
0
 62
7
100
AcDbSpline
 70
8
 71
3
 72
8
 73
4
 74
0
 40
0
 40
0
 40
0
 40
0
 40
1
 40
1
 40
1
 40
1
 10
70.665660
 20
142.875743
 30
0.0
 10
70.034274
 20
143.460893
 30
0.0
 10
69.746746
 20
143.528553
 30
0.0
 10
68.065380
 20
143.487616
 30
0.0
  0
SPLINE
  5
283
100
AcDbEntity
  8
0
 62
7
100
AcDbSpline
 70
8
 71
3
 72
8
 73
4
 74
0
 40
0
 40
0
 40
0
 40
0
 40
1
 40
1
 40
1
 40
1
 10
68.065380
 20
143.487616
 30
0.0
 10
66.476721
 20
143.448937
 30
0.0
 10
65.968092
 20
143.552418
 30
0.0
 10
64.878805
 20
144.135914
 30
0.0
  0
SPLINE
  5
284
100
AcDbEntity
  8
0
 62
7
100
AcDbSpline
 70
8
 71
3
 72
8
 73
4
 74
0
 40
0
 40
0
 40
0
 40
0
 40
1
 40
1
 40
1
 40
1
 10
64.878805
 20
144.135914
 30
0.0
 10
63.775386
 20
144.726972
 30
0.0
 10
63.252805
 20
144.830226
 30
0.0
 10
61.364773
 20
144.830226
 30
0.0
  0
SPLINE
  5
285
100
AcDbEntity
  8
0
 62
7
100
AcDbSpline
 70
8
 71
3
 72
8
 73
4
 74
0
 40
0
 40
0
 40
0
 40
0
 40
1
 40
1
 40
1
 40
1
 10
61.364773
 20
144.830226
 30
0.0
 10
59.641208
 20
144.830226
 30
0.0
 10
59.113105
 20
144.918337
 30
0.0
 10
58.995204
 20
145.225582
 30
0.0
  0
SPLINE
  5
286
100
AcDbEntity
  8
0
 62
7
100
AcDbSpline
 70
8
 71
3
 72
8
 73
4
 74
0
 40
0
 40
0
 40
0
 40
0
 40
1
 40
1
 40
1
 40
1
 10
58.995204
 20
145.225582
 30
0.0
 10
58.911763
 20
145.443027
 30
0.0
 10
58.736905
 20
145.555062
 30
0.0
 10
58.606634
 20
145.474550
 30
0.0
  0
SPLINE
  5
287
100
AcDbEntity
  8
0
 62
7
100
AcDbSpline
 70
8
 71
3
 72
8
 73
4
 74
0
 40
0
 40
0
 40
0
 40
0
 40
1
 40
1
 40
1
 40
1
 10
58.606634
 20
145.474550
 30
0.0
 10
58.476362
 20
145.394037
 30
0.0
 10
58.369774
 20
145.397667
 30
0.0
 10
58.369774
 20
145.482620
 30
0.0
  0
SPLINE
  5
288
100
AcDbEntity
  8
0
 62
7
100
AcDbSpline
 70
8
 71
3
 72
8
 73
4
 74
0
 40
0
 40
0
 40
0
 40
0
 40
1
 40
1
 40
1
 40
1
 10
58.369774
 20
145.482620
 30
0.0
 10
58.369774
 20
145.872435
 30
0.0
 10
59.730706
 20
146.133889
 30
0.0
 10
60.208057
 20
145.835777
 30
0.0
  0
SPLINE
  5
289
100
AcDbEntity
  8
0
 62
7
100
AcDbSpline
 70
8
 71
3
 72
8
 73
4
 74
0
 40
0
 40
0
 40
0
 40
0
 40
1
 40
1
 40
1
 40
1
 10
60.208057
 20
145.835777
 30
0.0
 10
60.617870
 20
145.579846
 30
0.0
 10
61.029519
 20
145.674009
 30
0.0
 10
62.535514
 20
146.368167
 30
0.0
  0
SPLINE
  5
28a
100
AcDbEntity
  8
0
 62
7
100
AcDbSpline
 70
8
 71
3
 72
8
 73
4
 74
0
 40
0
 40
0
 40
0
 40
0
 40
1
 40
1
 40
1
 40
1
 10
62.535514
 20
146.368167
 30
0.0
 10
64.691554
 20
147.361950
 30
0.0
 10
64.795331
 20
147.371461
 30
0.0
 10
65.917138
 20
146.678147
 30
0.0
  0
SPLINE
  5
28b
100
AcDbEntity
  8
0
 62
7
100
AcDbSpline
 70
8
 71
3
 72
8
 73
4
 74
0
 40
0
 40
0
 40
0
 40
0
 40
1
 40
1
 40
1
 40
1
 10
65.917138
 20
146.678147
 30
0.0
 10
66.609174
 20
146.250446
 30
0.0
 10
66.920084
 20
146.198042
 30
0.0
 10
67.486945
 20
146.413564
 30
0.0
  0
SPLINE
  5
28c
100
AcDbEntity
  8
0
 62
7
100
AcDbSpline
 70
8
 71
3
 72
8
 73
4
 74
0
 40
0
 40
0
 40
0
 40
0
 40
1
 40
1
 40
1
 40
1
 10
67.486945
 20
146.413564
 30
0.0
 10
68.541442
 20
146.814484
 30
0.0
 10
69.350641
 20
146.742428
 30
0.0
 10
70.495560
 20
146.145665
 30
0.0
  0
SPLINE
  5
28d
100
AcDbEntity
  8
0
 62
7
100
AcDbSpline
 70
8
 71
3
 72
8
 73
4
 74
0
 40
0
 40
0
 40
0
 40
0
 40
1
 40
1
 40
1
 40
1
 10
70.495560
 20
146.145665
 30
0.0
 10
71.689201
 20
145.523503
 30
0.0
 10
72.757181
 20
145.746647
 30
0.0
 10
73.053451
 20
146.680110
 30
0.0
  0
SPLINE
  5
28e
100
AcDbEntity
  8
0
 62
7
100
AcDbSpline
 70
8
 71
3
 72
8
 73
4
 74
0
 40
0
 40
0
 40
0
 40
0
 40
1
 40
1
 40
1
 40
1
 10
73.053451
 20
146.680110
 30
0.0
 10
73.298738
 20
147.452945
 30
0.0
 10
72.503609
 20
148.639911
 30
0.0
 10
71.909974
 20
148.387086
 30
0.0
  0
SPLINE
  5
28f
100
AcDbEntity
  8
0
 62
7
100
AcDbSpline
 70
8
 71
3
 72
8
 73
4
 74
0
 40
0
 40
0
 40
0
 40
0
 40
1
 40
1
 40
1
 40
1
 10
71.909974
 20
148.387086
 30
0.0
 10
70.768001
 20
147.900731
 30
0.0
 10
70.411549
 20
148.093112
 30
0.0
 10
70.327988
 20
149.240912
 30
0.0
  0
LWPOLYLINE
  5
290
100
AcDbEntity
  8
0
 62
7
100
AcDbPolyline
 90
3
 70
0
 10
63.127215
 20
131.750430
 30
0.0
 10
66.191942
 20
131.733364
 30
0.0
 10
67.583791
 20
132.839296
 30
0.0
  0
SPLINE
  5
291
100
AcDbEntity
  8
0
 62
7
100
AcDbSpline
 70
8
 71
3
 72
8
 73
4
 74
0
 40
0
 40
0
 40
0
 40
0
 40
1
 40
1
 40
1
 40
1
 10
67.620973
 20
151.688308
 30
0.0
 10
65.487875
 20
152.779754
 30
0.0
 10
64.743200
 20
153.032309
 30
0.0
 10
63.658102
 20
153.032309
 30
0.0
  0
SPLINE
  5
292
100
AcDbEntity
  8
0
 62
7
100
AcDbSpline
 70
8
 71
3
 72
8
 73
4
 74
0
 40
0
 40
0
 40
0
 40
0
 40
1
 40
1
 40
1
 40
1
 10
63.658102
 20
153.032309
 30
0.0
 10
62.665115
 20
153.032309
 30
0.0
 10
62.279255
 20
153.143484
 30
0.0
 10
62.155821
 20
153.465146
 30
0.0
  0
SPLINE
  5
293
100
AcDbEntity
  8
0
 62
7
100
AcDbSpline
 70
8
 71
3
 72
8
 73
4
 74
0
 40
0
 40
0
 40
0
 40
0
 40
1
 40
1
 40
1
 40
1
 10
62.155821
 20
153.465146
 30
0.0
 10
61.682802
 20
154.697814
 30
0.0
 10
63.710182
 20
155.339100
 30
0.0
 10
65.019608
 20
154.371000
 30
0.0
  0
SPLINE
  5
294
100
AcDbEntity
  8
0
 62
7
100
AcDbSpline
 70
8
 71
3
 72
8
 73
4
 74
0
 40
0
 40
0
 40
0
 40
0
 40
1
 40
1
 40
1
 40
1
 10
65.019608
 20
154.371000
 30
0.0
 10
65.666517
 20
153.892718
 30
0.0
 10
66.045204
 20
153.833319
 30
0.0
 10
67.823342
 20
153.931210
 30
0.0
  0
SPLINE
  5
295
100
AcDbEntity
  8
0
 62
7
100
AcDbSpline
 70
8
 71
3
 72
8
 73
4
 74
0
 40
0
 40
0
 40
0
 40
0
 40
1
 40
1
 40
1
 40
1
 10
67.823342
 20
153.931210
 30
0.0
 10
69.005463
 20
153.996289
 30
0.0
 10
70.245176
 20
154.231409
 30
0.0
 10
70.740421
 20
154.484456
 30
0.0
  0
SPLINE
  5
296
100
AcDbEntity
  8
0
 62
7
100
AcDbSpline
 70
8
 71
3
 72
8
 73
4
 74
0
 40
0
 40
0
 40
0
 40
0
 40
1
 40
1
 40
1
 40
1
 10
70.740421
 20
154.484456
 30
0.0
 10
71.439601
 20
154.841702
 30
0.0
 10
71.768115
 20
154.869597
 30
0.0
 10
72.485978
 20
154.632681
 30
0.0
  0
SPLINE
  5
297
100
AcDbEntity
  8
0
 62
7
100
AcDbSpline
 70
8
 71
3
 72
8
 73
4
 74
0
 40
0
 40
0
 40
0
 40
0
 40
1
 40
1
 40
1
 40
1
 10
72.485978
 20
154.632681
 30
0.0
 10
73.850770
 20
154.182260
 30
0.0
 10
74.244774
 20
154.469515
 30
0.0
 10
74.244774
 20
155.914971
 30
0.0
  0
SPLINE
  5
298
100
AcDbEntity
  8
0
 62
7
100
AcDbSpline
 70
8
 71
3
 72
8
 73
4
 74
0
 40
0
 40
0
 40
0
 40
0
 40
1
 40
1
 40
1
 40
1
 10
74.244774
 20
155.914971
 30
0.0
 10
74.244774
 20
157.106347
 30
0.0
 10
74.088215
 20
157.502865
 30
0.0
 10
72.490184
 20
160.358791
 30
0.0
  0
SPLINE
  5
299
100
AcDbEntity
  8
0
 62
7
100
AcDbSpline
 70
8
 71
3
 72
8
 73
4
 74
0
 40
0
 40
0
 40
0
 40
0
 40
1
 40
1
 40
1
 40
1
 10
72.490184
 20
160.358791
 30
0.0
 10
72.082327
 20
161.087700
 30
0.0
 10
71.815796
 20
162.345362
 30
0.0
 10
71.527284
 20
164.902380
 30
0.0
  0
SPLINE
  5
29a
100
AcDbEntity
  8
0
 62
7
100
AcDbSpline
 70
8
 71
3
 72
8
 73
4
 74
0
 40
0
 40
0
 40
0
 40
0
 40
1
 40
1
 40
1
 40
1
 10
71.527284
 20
164.902380
 30
0.0
 10
71.232675
 20
167.513437
 30
0.0
 10
70.996127
 20
168.615169
 30
0.0
 10
70.622761
 20
169.115253
 30
0.0
  0
SPLINE
  5
29b
100
AcDbEntity
  8
0
 62
7
100
AcDbSpline
 70
8
 71
3
 72
8
 73
4
 74
0
 40
0
 40
0
 40
0
 40
0
 40
1
 40
1
 40
1
 40
1
 10
70.622761
 20
169.115253
 30
0.0
 10
69.793416
 20
170.226072
 30
0.0
 10
69.371864
 20
170.380935
 30
0.0
 10
68.104499
 20
170.040371
 30
0.0
  0
SPLINE
  5
29c
100
AcDbEntity
  8
0
 62
7
100
AcDbSpline
 70
8
 71
3
 72
8
 73
4
 74
0
 40
0
 40
0
 40
0
 40
0
 40
1
 40
1
 40
1
 40
1
 10
68.104499
 20
170.040371
 30
0.0
 10
67.398990
 20
169.850787
 30
0.0
 10
66.873512
 20
169.828938
 30
0.0
 10
66.717378
 20
169.982698
 30
0.0
  0
SPLINE
  5
29d
100
AcDbEntity
  8
0
 62
7
100
AcDbSpline
 70
8
 71
3
 72
8
 73
4
 74
0
 40
0
 40
0
 40
0
 40
0
 40
1
 40
1
 40
1
 40
1
 10
66.717378
 20
169.982698
 30
0.0
 10
66.296080
 20
170.397583
 30
0.0
 10
64.267104
 20
170.282034
 30
0.0
 10
64.094926
 20
169.833351
 30
0.0
  0
SPLINE
  5
29e
100
AcDbEntity
  8
0
 62
7
100
AcDbSpline
 70
8
 71
3
 72
8
 73
4
 74
0
 40
0
 40
0
 40
0
 40
0
 40
1
 40
1
 40
1
 40
1
 10
64.094926
 20
169.833351
 30
0.0
 10
63.921323
 20
169.380940
 30
0.0
 10
61.683159
 20
169.263094
 30
0.0
 10
61.417838
 20
169.692394
 30
0.0
  0
SPLINE
  5
29f
100
AcDbEntity
  8
0
 62
7
100
AcDbSpline
 70
8
 71
3
 72
8
 73
4
 74
0
 40
0
 40
0
 40
0
 40
0
 40
1
 40
1
 40
1
 40
1
 10
61.417838
 20
169.692394
 30
0.0
 10
61.330848
 20
169.833147
 30
0.0
 10
60.877868
 20
169.871948
 30
0.0
 10
60.411217
 20
169.778619
 30
0.0
  0
SPLINE
  5
2a0
100
AcDbEntity
  8
0
 62
7
100
AcDbSpline
 70
8
 71
3
 72
8
 73
4
 74
0
 40
0
 40
0
 40
0
 40
0
 40
1
 40
1
 40
1
 40
1
 10
60.411217
 20
169.778619
 30
0.0
 10
59.603992
 20
169.617173
 30
0.0
 10
59.585204
 20
169.631371
 30
0.0
 10
60.024600
 20
170.070767
 30
0.0
  0
SPLINE
  5
2a1
100
AcDbEntity
  8
0
 62
7
100
AcDbSpline
 70
8
 71
3
 72
8
 73
4
 74
0
 40
0
 40
0
 40
0
 40
0
 40
1
 40
1
 40
1
 40
1
 10
60.024600
 20
170.070767
 30
0.0
 10
60.598079
 20
170.644246
 30
0.0
 10
60.616431
 20
171.385357
 30
0.0
 10
60.070667
 20
171.931118
 30
0.0
  0
SPLINE
  5
2a2
100
AcDbEntity
  8
0
 62
7
100
AcDbSpline
 70
8
 71
3
 72
8
 73
4
 74
0
 40
0
 40
0
 40
0
 40
0
 40
1
 40
1
 40
1
 40
1
 10
60.070667
 20
171.931118
 30
0.0
 10
59.458156
 20
172.543631
 30
0.0
 10
59.163524
 20
172.439989
 30
0.0
 10
59.163524
 20
171.612015
 30
0.0
  0
SPLINE
  5
2a3
100
AcDbEntity
  8
0
 62
7
100
AcDbSpline
 70
8
 71
3
 72
8
 73
4
 74
0
 40
0
 40
0
 40
0
 40
0
 40
1
 40
1
 40
1
 40
1
 10
59.163524
 20
171.612015
 30
0.0
 10
59.163524
 20
169.925410
 30
0.0
 10
57.474911
 20
169.113068
 30
0.0
 10
56.047397
 20
170.112936
 30
0.0
  0
SPLINE
  5
2a4
100
AcDbEntity
  8
0
 62
7
100
AcDbSpline
 70
8
 71
3
 72
8
 73
4
 74
0
 40
0
 40
0
 40
0
 40
0
 40
1
 40
1
 40
1
 40
1
 10
56.047397
 20
170.112936
 30
0.0
 10
55.272331
 20
170.655813
 30
0.0
 10
55.302002
 20
171.023976
 30
0.0
 10
56.120816
 20
171.023976
 30
0.0
  0
SPLINE
  5
2a5
100
AcDbEntity
  8
0
 62
7
100
AcDbSpline
 70
8
 71
3
 72
8
 73
4
 74
0
 40
0
 40
0
 40
0
 40
0
 40
1
 40
1
 40
1
 40
1
 10
56.120816
 20
171.023976
 30
0.0
 10
56.484618
 20
171.023976
 30
0.0
 10
56.782274
 20
171.150523
 30
0.0
 10
56.782274
 20
171.305191
 30
0.0
  0
SPLINE
  5
2a6
100
AcDbEntity
  8
0
 62
7
100
AcDbSpline
 70
8
 71
3
 72
8
 73
4
 74
0
 40
0
 40
0
 40
0
 40
0
 40
1
 40
1
 40
1
 40
1
 10
56.782274
 20
171.305191
 30
0.0
 10
56.782274
 20
171.459858
 30
0.0
 10
56.573915
 20
171.560622
 30
0.0
 10
56.319253
 20
171.529110
 30
0.0
  0
SPLINE
  5
2a7
100
AcDbEntity
  8
0
 62
7
100
AcDbSpline
 70
8
 71
3
 72
8
 73
4
 74
0
 40
0
 40
0
 40
0
 40
0
 40
1
 40
1
 40
1
 40
1
 10
56.319253
 20
171.529110
 30
0.0
 10
56.064592
 20
171.497599
 30
0.0
 10
55.662393
 20
171.556812
 30
0.0
 10
55.425478
 20
171.660698
 30
0.0
  0
SPLINE
  5
2a8
100
AcDbEntity
  8
0
 62
7
100
AcDbSpline
 70
8
 71
3
 72
8
 73
4
 74
0
 40
0
 40
0
 40
0
 40
0
 40
1
 40
1
 40
1
 40
1
 10
55.425478
 20
171.660698
 30
0.0
 10
54.727200
 20
171.966882
 30
0.0
 10
53.204208
 20
171.445843
 30
0.0
 10
53.250179
 20
170.916494
 30
0.0
  0
SPLINE
  5
2a9
100
AcDbEntity
  8
0
 62
7
100
AcDbSpline
 70
8
 71
3
 72
8
 73
4
 74
0
 40
0
 40
0
 40
0
 40
0
 40
1
 40
1
 40
1
 40
1
 10
53.250179
 20
170.916494
 30
0.0
 10
53.278678
 20
170.588329
 30
0.0
 10
53.166129
 20
170.509618
 30
0.0
 10
52.853304
 20
170.638930
 30
0.0
  0
SPLINE
  5
2aa
100
AcDbEntity
  8
0
 62
7
100
AcDbSpline
 70
8
 71
3
 72
8
 73
4
 74
0
 40
0
 40
0
 40
0
 40
0
 40
1
 40
1
 40
1
 40
1
 10
52.853304
 20
170.638930
 30
0.0
 10
51.916293
 20
171.026259
 30
0.0
 10
51.490607
 20
171.073530
 30
0.0
 10
51.490607
 20
170.790251
 30
0.0
  0
SPLINE
  5
2ab
100
AcDbEntity
  8
0
 62
7
100
AcDbSpline
 70
8
 71
3
 72
8
 73
4
 74
0
 40
0
 40
0
 40
0
 40
0
 40
1
 40
1
 40
1
 40
1
 10
51.490607
 20
170.790251
 30
0.0
 10
51.490607
 20
170.284876
 30
0.0
 10
50.482214
 20
170.466351
 30
0.0
 10
50.077180
 20
171.044619
 30
0.0
  0
SPLINE
  5
2ac
100
AcDbEntity
  8
0
 62
7
100
AcDbSpline
 70
8
 71
3
 72
8
 73
4
 74
0
 40
0
 40
0
 40
0
 40
0
 40
1
 40
1
 40
1
 40
1
 10
50.077180
 20
171.044619
 30
0.0
 10
49.709395
 20
171.569703
 30
0.0
 10
49.654658
 20
171.575074
 30
0.0
 10
48.859850
 20
171.164065
 30
0.0
  0
SPLINE
  5
2ad
100
AcDbEntity
  8
0
 62
7
100
AcDbSpline
 70
8
 71
3
 72
8
 73
4
 74
0
 40
0
 40
0
 40
0
 40
0
 40
1
 40
1
 40
1
 40
1
 10
48.859850
 20
171.164065
 30
0.0
 10
47.933753
 20
170.685161
 30
0.0
 10
46.995196
 20
169.336731
 30
0.0
 10
46.993680
 20
168.482923
 30
0.0
  0
SPLINE
  5
2ae
100
AcDbEntity
  8
0
 62
7
100
AcDbSpline
 70
8
 71
3
 72
8
 73
4
 74
0
 40
0
 40
0
 40
0
 40
0
 40
1
 40
1
 40
1
 40
1
 10
46.993680
 20
168.482923
 30
0.0
 10
46.993151
 20
168.176752
 30
0.0
 10
47.292289
 20
167.602974
 30
0.0
 10
47.658462
 20
167.207867
 30
0.0
  0
SPLINE
  5
2af
100
AcDbEntity
  8
0
 62
7
100
AcDbSpline
 70
8
 71
3
 72
8
 73
4
 74
0
 40
0
 40
0
 40
0
 40
0
 40
1
 40
1
 40
1
 40
1
 10
47.658462
 20
167.207867
 30
0.0
 10
48.024637
 20
166.812759
 30
0.0
 10
48.282783
 20
166.408417
 30
0.0
 10
48.232121
 20
166.309336
 30
0.0
  0
SPLINE
  5
2b0
100
AcDbEntity
  8
0
 62
7
100
AcDbSpline
 70
8
 71
3
 72
8
 73
4
 74
0
 40
0
 40
0
 40
0
 40
0
 40
1
 40
1
 40
1
 40
1
 10
48.232121
 20
166.309336
 30
0.0
 10
47.456495
 20
164.792414
 30
0.0
 10
47.218727
 20
163.955693
 30
0.0
 10
47.343970
 20
163.183898
 30
0.0
  0
SPLINE
  5
2b1
100
AcDbEntity
  8
0
 62
7
100
AcDbSpline
 70
8
 71
3
 72
8
 73
4
 74
0
 40
0
 40
0
 40
0
 40
0
 40
1
 40
1
 40
1
 40
1
 10
47.343970
 20
163.183898
 30
0.0
 10
47.462850
 20
162.451330
 30
0.0
 10
47.404671
 20
162.292726
 30
0.0
 10
47.017064
 20
162.292726
 30
0.0
  0
SPLINE
  5
2b2
100
AcDbEntity
  8
0
 62
7
100
AcDbSpline
 70
8
 71
3
 72
8
 73
4
 74
0
 40
0
 40
0
 40
0
 40
0
 40
1
 40
1
 40
1
 40
1
 10
47.017064
 20
162.292726
 30
0.0
 10
46.757725
 20
162.292726
 30
0.0
 10
46.330039
 20
162.530851
 30
0.0
 10
46.066649
 20
162.821893
 30
0.0
  0
SPLINE
  5
2b3
100
AcDbEntity
  8
0
 62
7
100
AcDbSpline
 70
8
 71
3
 72
8
 73
4
 74
0
 40
0
 40
0
 40
0
 40
0
 40
1
 40
1
 40
1
 40
1
 10
46.066649
 20
162.821893
 30
0.0
 10
45.339783
 20
163.625070
 30
0.0
 10
45.140607
 20
163.470156
 30
0.0
 10
45.140607
 20
162.101638
 30
0.0
  0
LWPOLYLINE
  5
2b4
100
AcDbEntity
  8
0
 62
7
100
AcDbPolyline
 90
3
 70
0
 10
70.327988
 20
149.240912
 30
0.0
 10
70.247658
 20
150.344304
 30
0.0
 10
67.620973
 20
151.688308
 30
0.0
  0
SPLINE
  5
2b5
100
AcDbEntity
  8
0
 62
7
100
AcDbSpline
 70
8
 71
3
 72
8
 73
4
 74
0
 40
0
 40
0
 40
0
 40
0
 40
1
 40
1
 40
1
 40
1
 10
44.582281
 20
161.410544
 30
0.0
 10
43.968136
 20
162.024690
 30
0.0
 10
43.574025
 20
164.227571
 30
0.0
 10
44.028090
 20
164.508199
 30
0.0
  0
SPLINE
  5
2b6
100
AcDbEntity
  8
0
 62
7
100
AcDbSpline
 70
8
 71
3
 72
8
 73
4
 74
0
 40
0
 40
0
 40
0
 40
0
 40
1
 40
1
 40
1
 40
1
 10
44.028090
 20
164.508199
 30
0.0
 10
44.195632
 20
164.611743
 30
0.0
 10
44.005071
 20
165.207291
 30
0.0
 10
43.530261
 20
166.064031
 30
0.0
  0
SPLINE
  5
2b7
100
AcDbEntity
  8
0
 62
7
100
AcDbSpline
 70
8
 71
3
 72
8
 73
4
 74
0
 40
0
 40
0
 40
0
 40
0
 40
1
 40
1
 40
1
 40
1
 10
43.530261
 20
166.064031
 30
0.0
 10
42.371724
 20
168.154474
 30
0.0
 10
42.111160
 20
169.332444
 30
0.0
 10
42.527948
 20
170.595330
 30
0.0
  0
SPLINE
  5
2b8
100
AcDbEntity
  8
0
 62
7
100
AcDbSpline
 70
8
 71
3
 72
8
 73
4
 74
0
 40
0
 40
0
 40
0
 40
0
 40
1
 40
1
 40
1
 40
1
 10
42.527948
 20
170.595330
 30
0.0
 10
42.821831
 20
171.485803
 30
0.0
 10
42.817777
 20
171.665961
 30
0.0
 10
42.501481
 20
171.771392
 30
0.0
  0
SPLINE
  5
2b9
100
AcDbEntity
  8
0
 62
7
100
AcDbSpline
 70
8
 71
3
 72
8
 73
4
 74
0
 40
0
 40
0
 40
0
 40
0
 40
1
 40
1
 40
1
 40
1
 10
42.501481
 20
171.771392
 30
0.0
 10
41.838017
 20
171.992547
 30
0.0
 10
40.933140
 20
173.074857
 30
0.0
 10
40.767431
 20
173.845461
 30
0.0
  0
SPLINE
  5
2ba
100
AcDbEntity
  8
0
 62
7
100
AcDbSpline
 70
8
 71
3
 72
8
 73
4
 74
0
 40
0
 40
0
 40
0
 40
0
 40
1
 40
1
 40
1
 40
1
 10
40.767431
 20
173.845461
 30
0.0
 10
40.440126
 20
175.367545
 30
0.0
 10
40.131669
 20
175.866330
 30
0.0
 10
39.725939
 20
175.529602
 30
0.0
  0
SPLINE
  5
2bb
100
AcDbEntity
  8
0
 62
7
100
AcDbSpline
 70
8
 71
3
 72
8
 73
4
 74
0
 40
0
 40
0
 40
0
 40
0
 40
1
 40
1
 40
1
 40
1
 10
39.725939
 20
175.529602
 30
0.0
 10
39.520021
 20
175.358705
 30
0.0
 10
39.311223
 20
174.959637
 30
0.0
 10
39.261942
 20
174.642783
 30
0.0
  0
SPLINE
  5
2bc
100
AcDbEntity
  8
0
 62
7
100
AcDbSpline
 70
8
 71
3
 72
8
 73
4
 74
0
 40
0
 40
0
 40
0
 40
0
 40
1
 40
1
 40
1
 40
1
 10
39.261942
 20
174.642783
 30
0.0
 10
39.179132
 20
174.110340
 30
0.0
 10
39.140268
 20
174.126832
 30
0.0
 10
38.749068
 20
174.860434
 30
0.0
  0
SPLINE
  5
2bd
100
AcDbEntity
  8
0
 62
7
100
AcDbSpline
 70
8
 71
3
 72
8
 73
4
 74
0
 40
0
 40
0
 40
0
 40
0
 40
1
 40
1
 40
1
 40
1
 10
38.749068
 20
174.860434
 30
0.0
 10
38.155713
 20
175.973131
 30
0.0
 10
37.731554
 20
178.167178
 30
0.0
 10
37.736336
 20
180.098978
 30
0.0
  0
SPLINE
  5
2be
100
AcDbEntity
  8
0
 62
7
100
AcDbSpline
 70
8
 71
3
 72
8
 73
4
 74
0
 40
0
 40
0
 40
0
 40
0
 40
1
 40
1
 40
1
 40
1
 10
37.736336
 20
180.098978
 30
0.0
 10
37.740146
 20
181.637781
 30
0.0
 10
38.187797
 20
183.751019
 30
0.0
 10
39.232835
 20
187.163559
 30
0.0
  0
SPLINE
  5
2bf
100
AcDbEntity
  8
0
 62
7
100
AcDbSpline
 70
8
 71
3
 72
8
 73
4
 74
0
 40
0
 40
0
 40
0
 40
0
 40
1
 40
1
 40
1
 40
1
 10
39.232835
 20
187.163559
 30
0.0
 10
39.574139
 20
188.278077
 30
0.0
 10
39.667122
 20
189.496327
 30
0.0
 10
39.629993
 20
192.367125
 30
0.0
  0
LWPOLYLINE
  5
2c0
100
AcDbEntity
  8
0
 62
7
100
AcDbPolyline
 90
3
 70
0
 10
45.140607
 20
162.101638
 30
0.0
 10
45.140607
 20
160.852218
 30
0.0
 10
44.582281
 20
161.410544
 30
0.0
  0
SPLINE
  5
2c1
100
AcDbEntity
  8
0
 62
7
100
AcDbSpline
 70
8
 71
3
 72
8
 73
4
 74
0
 40
0
 40
0
 40
0
 40
0
 40
1
 40
1
 40
1
 40
1
 10
40.508976
 20
197.894840
 30
0.0
 10
41.904994
 20
200.573127
 30
0.0
 10
41.742050
 20
201.451059
 30
0.0
 10
39.848941
 20
201.451059
 30
0.0
  0
SPLINE
  5
2c2
100
AcDbEntity
  8
0
 62
7
100
AcDbSpline
 70
8
 71
3
 72
8
 73
4
 74
0
 40
0
 40
0
 40
0
 40
0
 40
1
 40
1
 40
1
 40
1
 10
39.848941
 20
201.451059
 30
0.0
 10
39.436183
 20
201.451059
 30
0.0
 10
38.910231
 20
201.523293
 30
0.0
 10
38.680160
 20
201.611580
 30
0.0
  0
SPLINE
  5
2c3
100
AcDbEntity
  8
0
 62
7
100
AcDbSpline
 70
8
 71
3
 72
8
 73
4
 74
0
 40
0
 40
0
 40
0
 40
0
 40
1
 40
1
 40
1
 40
1
 10
38.680160
 20
201.611580
 30
0.0
 10
38.335646
 20
201.743781
 30
0.0
 10
38.384160
 20
201.868307
 30
0.0
 10
38.955168
 20
202.317461
 30
0.0
  0
SPLINE
  5
2c4
100
AcDbEntity
  8
0
 62
7
100
AcDbSpline
 70
8
 71
3
 72
8
 73
4
 74
0
 40
0
 40
0
 40
0
 40
0
 40
1
 40
1
 40
1
 40
1
 10
38.955168
 20
202.317461
 30
0.0
 10
39.825816
 20
203.002314
 30
0.0
 10
40.378107
 20
204.299148
 30
0.0
 10
40.378107
 20
205.658670
 30
0.0
  0
SPLINE
  5
2c5
100
AcDbEntity
  8
0
 62
7
100
AcDbSpline
 70
8
 71
3
 72
8
 73
4
 74
0
 40
0
 40
0
 40
0
 40
0
 40
1
 40
1
 40
1
 40
1
 10
40.378107
 20
205.658670
 30
0.0
 10
40.378107
 20
207.152590
 30
0.0
 10
40.719550
 20
207.872150
 30
0.0
 10
42.086289
 20
209.258517
 30
0.0
  0
SPLINE
  5
2c6
100
AcDbEntity
  8
0
 62
7
100
AcDbSpline
 70
8
 71
3
 72
8
 73
4
 74
0
 40
0
 40
0
 40
0
 40
0
 40
1
 40
1
 40
1
 40
1
 10
42.086289
 20
209.258517
 30
0.0
 10
42.969752
 20
210.154666
 30
0.0
 10
43.288524
 20
210.686555
 30
0.0
 10
43.288524
 20
211.264508
 30
0.0
  0
SPLINE
  5
2c7
100
AcDbEntity
  8
0
 62
7
100
AcDbSpline
 70
8
 71
3
 72
8
 73
4
 74
0
 40
0
 40
0
 40
0
 40
0
 40
1
 40
1
 40
1
 40
1
 10
43.288524
 20
211.264508
 30
0.0
 10
43.288524
 20
212.202840
 30
0.0
 10
42.736553
 20
212.494077
 30
0.0
 10
41.782251
 20
212.059269
 30
0.0
  0
SPLINE
  5
2c8
100
AcDbEntity
  8
0
 62
7
100
AcDbSpline
 70
8
 71
3
 72
8
 73
4
 74
0
 40
0
 40
0
 40
0
 40
0
 40
1
 40
1
 40
1
 40
1
 10
41.782251
 20
212.059269
 30
0.0
 10
41.408924
 20
211.889168
 30
0.0
 10
41.042362
 20
211.811108
 30
0.0
 10
40.967671
 20
211.885800
 30
0.0
  0
SPLINE
  5
2c9
100
AcDbEntity
  8
0
 62
7
100
AcDbSpline
 70
8
 71
3
 72
8
 73
4
 74
0
 40
0
 40
0
 40
0
 40
0
 40
1
 40
1
 40
1
 40
1
 10
40.967671
 20
211.885800
 30
0.0
 10
40.663646
 20
212.189825
 30
0.0
 10
41.673584
 20
212.967565
 30
0.0
 10
43.427716
 20
213.780246
 30
0.0
  0
SPLINE
  5
2ca
100
AcDbEntity
  8
0
 62
7
100
AcDbSpline
 70
8
 71
3
 72
8
 73
4
 74
0
 40
0
 40
0
 40
0
 40
0
 40
1
 40
1
 40
1
 40
1
 10
43.427716
 20
213.780246
 30
0.0
 10
44.450156
 20
214.253937
 30
0.0
 10
45.819375
 20
215.108796
 30
0.0
 10
46.470424
 20
215.679933
 30
0.0
  0
SPLINE
  5
2cb
100
AcDbEntity
  8
0
 62
7
100
AcDbSpline
 70
8
 71
3
 72
8
 73
4
 74
0
 40
0
 40
0
 40
0
 40
0
 40
1
 40
1
 40
1
 40
1
 10
46.470424
 20
215.679933
 30
0.0
 10
47.121471
 20
216.251071
 30
0.0
 10
48.189930
 20
216.976860
 30
0.0
 10
48.844774
 20
217.292799
 30
0.0
  0
SPLINE
  5
2cc
100
AcDbEntity
  8
0
 62
7
100
AcDbSpline
 70
8
 71
3
 72
8
 73
4
 74
0
 40
0
 40
0
 40
0
 40
0
 40
1
 40
1
 40
1
 40
1
 10
48.844774
 20
217.292799
 30
0.0
 10
50.385652
 20
218.036220
 30
0.0
 10
52.700182
 20
219.698980
 30
0.0
 10
52.615087
 20
220.001399
 30
0.0
  0
SPLINE
  5
2cd
100
AcDbEntity
  8
0
 62
7
100
AcDbSpline
 70
8
 71
3
 72
8
 73
4
 74
0
 40
0
 40
0
 40
0
 40
0
 40
1
 40
1
 40
1
 40
1
 10
52.615087
 20
220.001399
 30
0.0
 10
52.578706
 20
220.130690
 30
0.0
 10
52.738674
 20
220.236476
 30
0.0
 10
52.970570
 20
220.236476
 30
0.0
  0
SPLINE
  5
2ce
100
AcDbEntity
  8
0
 62
7
100
AcDbSpline
 70
8
 71
3
 72
8
 73
4
 74
0
 40
0
 40
0
 40
0
 40
0
 40
1
 40
1
 40
1
 40
1
 10
52.970570
 20
220.236476
 30
0.0
 10
53.202467
 20
220.236476
 30
0.0
 10
55.673014
 20
221.029565
 30
0.0
 10
58.460674
 20
221.998892
 30
0.0
  0
SPLINE
  5
2cf
100
AcDbEntity
  8
0
 62
7
100
AcDbSpline
 70
8
 71
3
 72
8
 73
4
 74
0
 40
0
 40
0
 40
0
 40
0
 40
1
 40
1
 40
1
 40
1
 10
58.460674
 20
221.998892
 30
0.0
 10
63.183217
 20
223.641021
 30
0.0
 10
63.687158
 20
223.762089
 30
0.0
 10
65.844253
 20
223.772741
 30
0.0
  0
SPLINE
  5
2d0
100
AcDbEntity
  8
0
 62
7
100
AcDbSpline
 70
8
 71
3
 72
8
 73
4
 74
0
 40
0
 40
0
 40
0
 40
0
 40
1
 40
1
 40
1
 40
1
 10
65.844253
 20
223.772741
 30
0.0
 10
67.117561
 20
223.779038
 30
0.0
 10
68.159357
 20
223.870343
 30
0.0
 10
68.159357
 20
223.975660
 30
0.0
  0
SPLINE
  5
2d1
100
AcDbEntity
  8
0
 62
7
100
AcDbSpline
 70
8
 71
3
 72
8
 73
4
 74
0
 40
0
 40
0
 40
0
 40
0
 40
1
 40
1
 40
1
 40
1
 10
68.159357
 20
223.975660
 30
0.0
 10
68.159357
 20
224.080980
 30
0.0
 10
68.815548
 20
224.249134
 30
0.0
 10
69.617558
 20
224.349339
 30
0.0
  0
SPLINE
  5
2d2
100
AcDbEntity
  8
0
 62
7
100
AcDbSpline
 70
8
 71
3
 72
8
 73
4
 74
0
 40
0
 40
0
 40
0
 40
0
 40
1
 40
1
 40
1
 40
1
 10
69.617558
 20
224.349339
 30
0.0
 10
71.193051
 20
224.546184
 30
0.0
 10
72.301828
 20
224.242784
 30
0.0
 10
73.057171
 20
223.408137
 30
0.0
  0
SPLINE
  5
2d3
100
AcDbEntity
  8
0
 62
7
100
AcDbSpline
 70
8
 71
3
 72
8
 73
4
 74
0
 40
0
 40
0
 40
0
 40
0
 40
1
 40
1
 40
1
 40
1
 10
73.057171
 20
223.408137
 30
0.0
 10
73.464976
 20
222.957520
 30
0.0
 10
73.586708
 20
222.951125
 30
0.0
 10
74.814808
 20
223.315832
 30
0.0
  0
SPLINE
  5
2d4
100
AcDbEntity
  8
0
 62
7
100
AcDbSpline
 70
8
 71
3
 72
8
 73
4
 74
0
 40
0
 40
0
 40
0
 40
0
 40
1
 40
1
 40
1
 40
1
 10
74.814808
 20
223.315832
 30
0.0
 10
75.540526
 20
223.531346
 30
0.0
 10
76.274700
 20
223.650432
 30
0.0
 10
76.446306
 20
223.580465
 30
0.0
  0
SPLINE
  5
2d5
100
AcDbEntity
  8
0
 62
7
100
AcDbSpline
 70
8
 71
3
 72
8
 73
4
 74
0
 40
0
 40
0
 40
0
 40
0
 40
1
 40
1
 40
1
 40
1
 10
76.446306
 20
223.580465
 30
0.0
 10
76.622854
 20
223.508483
 30
0.0
 10
76.571359
 20
223.444184
 30
0.0
 10
76.327691
 20
223.432365
 30
0.0
  0
SPLINE
  5
2d6
100
AcDbEntity
  8
0
 62
7
100
AcDbSpline
 70
8
 71
3
 72
8
 73
4
 74
0
 40
0
 40
0
 40
0
 40
0
 40
1
 40
1
 40
1
 40
1
 10
76.327691
 20
223.432365
 30
0.0
 10
76.090849
 20
223.420882
 30
0.0
 10
75.748848
 20
223.232882
 30
0.0
 10
75.567691
 20
223.014601
 30
0.0
  0
SPLINE
  5
2d7
100
AcDbEntity
  8
0
 62
7
100
AcDbSpline
 70
8
 71
3
 72
8
 73
4
 74
0
 40
0
 40
0
 40
0
 40
0
 40
1
 40
1
 40
1
 40
1
 10
75.567691
 20
223.014601
 30
0.0
 10
75.284928
 20
222.673895
 30
0.0
 10
75.377913
 20
222.617726
 30
0.0
 10
76.224707
 20
222.617726
 30
0.0
  0
SPLINE
  5
2d8
100
AcDbEntity
  8
0
 62
7
100
AcDbSpline
 70
8
 71
3
 72
8
 73
4
 74
0
 40
0
 40
0
 40
0
 40
0
 40
1
 40
1
 40
1
 40
1
 10
76.224707
 20
222.617726
 30
0.0
 10
76.767224
 20
222.617726
 30
0.0
 10
77.942662
 20
222.812684
 30
0.0
 10
78.836793
 20
223.050968
 30
0.0
  0
SPLINE
  5
2d9
100
AcDbEntity
  8
0
 62
7
100
AcDbSpline
 70
8
 71
3
 72
8
 73
4
 74
0
 40
0
 40
0
 40
0
 40
0
 40
1
 40
1
 40
1
 40
1
 10
78.836793
 20
223.050968
 30
0.0
 10
79.830583
 20
223.315811
 30
0.0
 10
81.611772
 20
223.495786
 30
0.0
 10
83.419273
 20
223.513989
 30
0.0
  0
LWPOLYLINE
  5
2da
100
AcDbEntity
  8
0
 62
7
100
AcDbPolyline
 90
3
 70
0
 10
39.629993
 20
192.367125
 30
0.0
 10
39.581513
 20
196.115482
 30
0.0
 10
40.508976
 20
197.894840
 30
0.0
  0
SPLINE
  5
2db
100
AcDbEntity
  8
0
 62
7
100
AcDbSpline
 70
8
 71
3
 72
8
 73
4
 74
0
 40
0
 40
0
 40
0
 40
0
 40
1
 40
1
 40
1
 40
1
 10
89.699285
 20
221.867122
 30
0.0
 10
92.276909
 20
220.566650
 30
0.0
 10
93.285030
 20
219.898492
 30
0.0
 10
94.192582
 20
218.889075
 30
0.0
  0
SPLINE
  5
2dc
100
AcDbEntity
  8
0
 62
7
100
AcDbSpline
 70
8
 71
3
 72
8
 73
4
 74
0
 40
0
 40
0
 40
0
 40
0
 40
1
 40
1
 40
1
 40
1
 10
94.192582
 20
218.889075
 30
0.0
 10
94.836123
 20
218.173303
 30
0.0
 10
95.858833
 20
217.305840
 30
0.0
 10
96.465274
 20
216.961374
 30
0.0
  0
SPLINE
  5
2dd
100
AcDbEntity
  8
0
 62
7
100
AcDbSpline
 70
8
 71
3
 72
8
 73
4
 74
0
 40
0
 40
0
 40
0
 40
0
 40
1
 40
1
 40
1
 40
1
 10
96.465274
 20
216.961374
 30
0.0
 10
97.550243
 20
216.345101
 30
0.0
 10
97.556984
 20
216.332340
 30
0.0
 10
96.886541
 20
216.164068
 30
0.0
  0
SPLINE
  5
2de
100
AcDbEntity
  8
0
 62
7
100
AcDbSpline
 70
8
 71
3
 72
8
 73
4
 74
0
 40
0
 40
0
 40
0
 40
0
 40
1
 40
1
 40
1
 40
1
 10
96.886541
 20
216.164068
 30
0.0
 10
95.782474
 20
215.886964
 30
0.0
 10
96.095788
 20
215.297015
 30
0.0
 10
97.842488
 20
214.364091
 30
0.0
  0
SPLINE
  5
2df
100
AcDbEntity
  8
0
 62
7
100
AcDbSpline
 70
8
 71
3
 72
8
 73
4
 74
0
 40
0
 40
0
 40
0
 40
0
 40
1
 40
1
 40
1
 40
1
 10
97.842488
 20
214.364091
 30
0.0
 10
99.301401
 20
213.584878
 30
0.0
 10
99.524807
 20
213.355190
 30
0.0
 10
99.893009
 20
212.255920
 30
0.0
  0
SPLINE
  5
2e0
100
AcDbEntity
  8
0
 62
7
100
AcDbSpline
 70
8
 71
3
 72
8
 73
4
 74
0
 40
0
 40
0
 40
0
 40
0
 40
1
 40
1
 40
1
 40
1
 10
99.893009
 20
212.255920
 30
0.0
 10
100.401572
 20
210.737601
 30
0.0
 10
101.117495
 20
209.917726
 30
0.0
 10
101.934740
 20
209.917726
 30
0.0
  0
SPLINE
  5
2e1
100
AcDbEntity
  8
0
 62
7
100
AcDbSpline
 70
8
 71
3
 72
8
 73
4
 74
0
 40
0
 40
0
 40
0
 40
0
 40
1
 40
1
 40
1
 40
1
 10
101.934740
 20
209.917726
 30
0.0
 10
102.648517
 20
209.917726
 30
0.0
 10
102.655574
 20
209.898359
 30
0.0
 10
102.258984
 20
209.027940
 30
0.0
  0
SPLINE
  5
2e2
100
AcDbEntity
  8
0
 62
7
100
AcDbSpline
 70
8
 71
3
 72
8
 73
4
 74
0
 40
0
 40
0
 40
0
 40
0
 40
1
 40
1
 40
1
 40
1
 10
102.258984
 20
209.027940
 30
0.0
 10
102.007450
 20
208.475882
 30
0.0
 10
102.062592
 20
208.244565
 30
0.0
 10
102.624625
 20
207.494137
 30
0.0
  0
SPLINE
  5
2e3
100
AcDbEntity
  8
0
 62
7
100
AcDbSpline
 70
8
 71
3
 72
8
 73
4
 74
0
 40
0
 40
0
 40
0
 40
0
 40
1
 40
1
 40
1
 40
1
 10
102.624625
 20
207.494137
 30
0.0
 10
104.128721
 20
205.485855
 30
0.0
 10
104.646831
 20
203.636642
 30
0.0
 10
103.613524
 20
203.964601
 30
0.0
  0
SPLINE
  5
2e4
100
AcDbEntity
  8
0
 62
7
100
AcDbSpline
 70
8
 71
3
 72
8
 73
4
 74
0
 40
0
 40
0
 40
0
 40
0
 40
1
 40
1
 40
1
 40
1
 10
103.613524
 20
203.964601
 30
0.0
 10
103.171493
 20
204.104896
 30
0.0
 10
103.084357
 20
204.012147
 30
0.0
 10
103.084357
 20
203.401340
 30
0.0
  0
SPLINE
  5
2e5
100
AcDbEntity
  8
0
 62
7
100
AcDbSpline
 70
8
 71
3
 72
8
 73
4
 74
0
 40
0
 40
0
 40
0
 40
0
 40
1
 40
1
 40
1
 40
1
 10
103.084357
 20
203.401340
 30
0.0
 10
103.084357
 20
202.711122
 30
0.0
 10
103.813758
 20
201.409687
 30
0.0
 10
105.091854
 20
199.819459
 30
0.0
  0
SPLINE
  5
2e6
100
AcDbEntity
  8
0
 62
7
100
AcDbSpline
 70
8
 71
3
 72
8
 73
4
 74
0
 40
0
 40
0
 40
0
 40
0
 40
1
 40
1
 40
1
 40
1
 10
105.091854
 20
199.819459
 30
0.0
 10
105.403745
 20
199.431402
 30
0.0
 10
105.989342
 20
198.121714
 30
0.0
 10
106.393184
 20
196.909044
 30
0.0
  0
SPLINE
  5
2e7
100
AcDbEntity
  8
0
 62
7
100
AcDbSpline
 70
8
 71
3
 72
8
 73
4
 74
0
 40
0
 40
0
 40
0
 40
0
 40
1
 40
1
 40
1
 40
1
 10
106.393184
 20
196.909044
 30
0.0
 10
106.980159
 20
195.146448
 30
0.0
 10
107.139396
 20
194.146932
 30
0.0
 10
107.187034
 20
191.926059
 30
0.0
  0
SPLINE
  5
2e8
100
AcDbEntity
  8
0
 62
7
100
AcDbSpline
 70
8
 71
3
 72
8
 73
4
 74
0
 40
0
 40
0
 40
0
 40
0
 40
1
 40
1
 40
1
 40
1
 10
107.187034
 20
191.926059
 30
0.0
 10
107.266126
 20
188.238770
 30
0.0
 10
106.868719
 20
183.141514
 30
0.0
 10
106.363995
 20
181.369565
 30
0.0
  0
SPLINE
  5
2e9
100
AcDbEntity
  8
0
 62
7
100
AcDbSpline
 70
8
 71
3
 72
8
 73
4
 74
0
 40
0
 40
0
 40
0
 40
0
 40
1
 40
1
 40
1
 40
1
 10
106.363995
 20
181.369565
 30
0.0
 10
106.140224
 20
180.583962
 30
0.0
 10
106.027405
 20
179.661227
 30
0.0
 10
106.113289
 20
179.319044
 30
0.0
  0
SPLINE
  5
2ea
100
AcDbEntity
  8
0
 62
7
100
AcDbSpline
 70
8
 71
3
 72
8
 73
4
 74
0
 40
0
 40
0
 40
0
 40
0
 40
1
 40
1
 40
1
 40
1
 10
106.113289
 20
179.319044
 30
0.0
 10
106.234354
 20
178.836682
 30
0.0
 10
106.161298
 20
178.696893
 30
0.0
 10
105.788148
 20
178.696893
 30
0.0
  0
SPLINE
  5
2eb
100
AcDbEntity
  8
0
 62
7
100
AcDbSpline
 70
8
 71
3
 72
8
 73
4
 74
0
 40
0
 40
0
 40
0
 40
0
 40
1
 40
1
 40
1
 40
1
 10
105.788148
 20
178.696893
 30
0.0
 10
105.523437
 20
178.696893
 30
0.0
 10
105.163982
 20
178.839768
 30
0.0
 10
104.989357
 20
179.014393
 30
0.0
  0
SPLINE
  5
2ec
100
AcDbEntity
  8
0
 62
7
100
AcDbSpline
 70
8
 71
3
 72
8
 73
4
 74
0
 40
0
 40
0
 40
0
 40
0
 40
1
 40
1
 40
1
 40
1
 10
104.989357
 20
179.014393
 30
0.0
 10
104.742414
 20
179.261336
 30
0.0
 10
104.671857
 20
179.200585
 30
0.0
 10
104.671857
 20
178.741014
 30
0.0
  0
SPLINE
  5
2ed
100
AcDbEntity
  8
0
 62
7
100
AcDbSpline
 70
8
 71
3
 72
8
 73
4
 74
0
 40
0
 40
0
 40
0
 40
0
 40
1
 40
1
 40
1
 40
1
 10
104.671857
 20
178.741014
 30
0.0
 10
104.671857
 20
178.416029
 30
0.0
 10
104.364740
 20
177.544066
 30
0.0
 10
103.989373
 20
176.803315
 30
0.0
  0
SPLINE
  5
2ee
100
AcDbEntity
  8
0
 62
7
100
AcDbSpline
 70
8
 71
3
 72
8
 73
4
 74
0
 40
0
 40
0
 40
0
 40
0
 40
1
 40
1
 40
1
 40
1
 10
103.989373
 20
176.803315
 30
0.0
 10
103.363369
 20
175.567954
 30
0.0
 10
103.321109
 20
175.278550
 30
0.0
 10
103.478740
 20
173.306380
 30
0.0
  0
SPLINE
  5
2ef
100
AcDbEntity
  8
0
 62
7
100
AcDbSpline
 70
8
 71
3
 72
8
 73
4
 74
0
 40
0
 40
0
 40
0
 40
0
 40
1
 40
1
 40
1
 40
1
 10
103.478740
 20
173.306380
 30
0.0
 10
103.629135
 20
171.424735
 30
0.0
 10
103.565687
 20
170.899214
 30
0.0
 10
102.970600
 20
169.097571
 30
0.0
  0
SPLINE
  5
2f0
100
AcDbEntity
  8
0
 62
7
100
AcDbSpline
 70
8
 71
3
 72
8
 73
4
 74
0
 40
0
 40
0
 40
0
 40
0
 40
1
 40
1
 40
1
 40
1
 10
102.970600
 20
169.097571
 30
0.0
 10
102.596603
 20
167.965289
 30
0.0
 10
102.290607
 20
166.797403
 30
0.0
 10
102.290607
 20
166.502270
 30
0.0
  0
SPLINE
  5
2f1
100
AcDbEntity
  8
0
 62
7
100
AcDbSpline
 70
8
 71
3
 72
8
 73
4
 74
0
 40
0
 40
0
 40
0
 40
0
 40
1
 40
1
 40
1
 40
1
 10
102.290607
 20
166.502270
 30
0.0
 10
102.290607
 20
166.184707
 30
0.0
 10
102.173717
 20
166.037906
 30
0.0
 10
102.004252
 20
166.142641
 30
0.0
  0
SPLINE
  5
2f2
100
AcDbEntity
  8
0
 62
7
100
AcDbSpline
 70
8
 71
3
 72
8
 73
4
 74
0
 40
0
 40
0
 40
0
 40
0
 40
1
 40
1
 40
1
 40
1
 10
102.004252
 20
166.142641
 30
0.0
 10
101.811087
 20
166.262021
 30
0.0
 10
101.742134
 20
165.925484
 30
0.0
 10
101.792373
 20
165.108528
 30
0.0
  0
SPLINE
  5
2f3
100
AcDbEntity
  8
0
 62
7
100
AcDbSpline
 70
8
 71
3
 72
8
 73
4
 74
0
 40
0
 40
0
 40
0
 40
0
 40
1
 40
1
 40
1
 40
1
 10
101.792373
 20
165.108528
 30
0.0
 10
101.833336
 20
164.442431
 30
0.0
 10
101.783589
 20
163.814191
 30
0.0
 10
101.681854
 20
163.712443
 30
0.0
  0
SPLINE
  5
2f4
100
AcDbEntity
  8
0
 62
7
100
AcDbSpline
 70
8
 71
3
 72
8
 73
4
 74
0
 40
0
 40
0
 40
0
 40
0
 40
1
 40
1
 40
1
 40
1
 10
101.681854
 20
163.712443
 30
0.0
 10
101.580106
 20
163.610697
 30
0.0
 10
101.496857
 20
163.135040
 30
0.0
 10
101.496857
 20
162.655430
 30
0.0
  0
SPLINE
  5
2f5
100
AcDbEntity
  8
0
 62
7
100
AcDbSpline
 70
8
 71
3
 72
8
 73
4
 74
0
 40
0
 40
0
 40
0
 40
0
 40
1
 40
1
 40
1
 40
1
 10
101.496857
 20
162.655430
 30
0.0
 10
101.496857
 20
160.845280
 30
0.0
 10
100.468319
 20
158.856701
 30
0.0
 10
98.576696
 20
157.009576
 30
0.0
  0
SPLINE
  5
2f6
100
AcDbEntity
  8
0
 62
7
100
AcDbSpline
 70
8
 71
3
 72
8
 73
4
 74
0
 40
0
 40
0
 40
0
 40
0
 40
1
 40
1
 40
1
 40
1
 10
98.576696
 20
157.009576
 30
0.0
 10
97.593920
 20
156.049919
 30
0.0
 10
96.612416
 20
154.840133
 30
0.0
 10
96.395574
 20
154.321161
 30
0.0
  0
SPLINE
  5
2f7
100
AcDbEntity
  8
0
 62
7
100
AcDbSpline
 70
8
 71
3
 72
8
 73
4
 74
0
 40
0
 40
0
 40
0
 40
0
 40
1
 40
1
 40
1
 40
1
 10
96.395574
 20
154.321161
 30
0.0
 10
96.169848
 20
153.780916
 30
0.0
 10
95.593085
 20
153.125271
 30
0.0
 10
95.046284
 20
152.787329
 30
0.0
  0
SPLINE
  5
2f8
100
AcDbEntity
  8
0
 62
7
100
AcDbSpline
 70
8
 71
3
 72
8
 73
4
 74
0
 40
0
 40
0
 40
0
 40
0
 40
1
 40
1
 40
1
 40
1
 10
95.046284
 20
152.787329
 30
0.0
 10
94.280847
 20
152.314262
 30
0.0
 10
94.008025
 20
151.910804
 30
0.0
 10
93.672033
 20
150.755030
 30
0.0
  0
SPLINE
  5
2f9
100
AcDbEntity
  8
0
 62
7
100
AcDbSpline
 70
8
 71
3
 72
8
 73
4
 74
0
 40
0
 40
0
 40
0
 40
0
 40
1
 40
1
 40
1
 40
1
 10
93.672033
 20
150.755030
 30
0.0
 10
93.343024
 20
149.623277
 30
0.0
 10
92.762541
 20
148.745271
 30
0.0
 10
90.974386
 20
146.674724
 30
0.0
  0
SPLINE
  5
2fa
100
AcDbEntity
  8
0
 62
7
100
AcDbSpline
 70
8
 71
3
 72
8
 73
4
 74
0
 40
0
 40
0
 40
0
 40
0
 40
1
 40
1
 40
1
 40
1
 10
90.974386
 20
146.674724
 30
0.0
 10
89.721251
 20
145.223688
 30
0.0
 10
88.599597
 20
144.036476
 30
0.0
 10
88.481823
 20
144.036476
 30
0.0
  0
SPLINE
  5
2fb
100
AcDbEntity
  8
0
 62
7
100
AcDbSpline
 70
8
 71
3
 72
8
 73
4
 74
0
 40
0
 40
0
 40
0
 40
0
 40
1
 40
1
 40
1
 40
1
 10
88.481823
 20
144.036476
 30
0.0
 10
88.364052
 20
144.036476
 30
0.0
 10
88.267691
 20
143.917413
 30
0.0
 10
88.267691
 20
143.771893
 30
0.0
  0
SPLINE
  5
2fc
100
AcDbEntity
  8
0
 62
7
100
AcDbSpline
 70
8
 71
3
 72
8
 73
4
 74
0
 40
0
 40
0
 40
0
 40
0
 40
1
 40
1
 40
1
 40
1
 10
88.267691
 20
143.771893
 30
0.0
 10
88.267691
 20
143.626372
 30
0.0
 10
88.714175
 20
143.506145
 30
0.0
 10
89.259878
 20
143.504724
 30
0.0
  0
SPLINE
  5
2fd
100
AcDbEntity
  8
0
 62
7
100
AcDbSpline
 70
8
 71
3
 72
8
 73
4
 74
0
 40
0
 40
0
 40
0
 40
0
 40
1
 40
1
 40
1
 40
1
 10
89.259878
 20
143.504724
 30
0.0
 10
91.199806
 20
143.499671
 30
0.0
 10
93.834569
 20
141.743557
 30
0.0
 10
95.043416
 20
139.649896
 30
0.0
  0
SPLINE
  5
2fe
100
AcDbEntity
  8
0
 62
7
100
AcDbSpline
 70
8
 71
3
 72
8
 73
4
 74
0
 40
0
 40
0
 40
0
 40
0
 40
1
 40
1
 40
1
 40
1
 10
95.043416
 20
139.649896
 30
0.0
 10
95.330388
 20
139.152873
 30
0.0
 10
95.374076
 20
139.155419
 30
0.0
 10
97.027791
 20
139.765564
 30
0.0
  0
SPLINE
  5
2ff
100
AcDbEntity
  8
0
 62
7
100
AcDbSpline
 70
8
 71
3
 72
8
 73
4
 74
0
 40
0
 40
0
 40
0
 40
0
 40
1
 40
1
 40
1
 40
1
 10
97.027791
 20
139.765564
 30
0.0
 10
99.597287
 20
140.713592
 30
0.0
 10
100.702578
 20
140.921579
 30
0.0
 10
102.243983
 20
140.747115
 30
0.0
  0
SPLINE
  5
300
100
AcDbEntity
  8
0
 62
7
100
AcDbSpline
 70
8
 71
3
 72
8
 73
4
 74
0
 40
0
 40
0
 40
0
 40
0
 40
1
 40
1
 40
1
 40
1
 10
102.243983
 20
140.747115
 30
0.0
 10
104.082829
 20
140.538981
 30
0.0
 10
105.215947
 20
140.046940
 30
0.0
 10
106.846889
 20
138.748365
 30
0.0
  0
SPLINE
  5
301
100
AcDbEntity
  8
0
 62
7
100
AcDbSpline
 70
8
 71
3
 72
8
 73
4
 74
0
 40
0
 40
0
 40
0
 40
0
 40
1
 40
1
 40
1
 40
1
 10
106.846889
 20
138.748365
 30
0.0
 10
107.778661
 20
138.006476
 30
0.0
 10
108.436479
 20
137.686476
 30
0.0
 10
109.029786
 20
137.686476
 30
0.0
  0
SPLINE
  5
302
100
AcDbEntity
  8
0
 62
7
100
AcDbSpline
 70
8
 71
3
 72
8
 73
4
 74
0
 40
0
 40
0
 40
0
 40
0
 40
1
 40
1
 40
1
 40
1
 10
109.029786
 20
137.686476
 30
0.0
 10
110.114440
 20
137.686476
 30
0.0
 10
112.966484
 20
136.268862
 30
0.0
 10
113.662815
 20
135.383622
 30
0.0
  0
SPLINE
  5
303
100
AcDbEntity
  8
0
 62
7
100
AcDbSpline
 70
8
 71
3
 72
8
 73
4
 74
0
 40
0
 40
0
 40
0
 40
0
 40
1
 40
1
 40
1
 40
1
 10
113.662815
 20
135.383622
 30
0.0
 10
113.956539
 20
135.010213
 30
0.0
 10
114.197302
 20
134.333800
 30
0.0
 10
114.197847
 20
133.880482
 30
0.0
  0
SPLINE
  5
304
100
AcDbEntity
  8
0
 62
7
100
AcDbSpline
 70
8
 71
3
 72
8
 73
4
 74
0
 40
0
 40
0
 40
0
 40
0
 40
1
 40
1
 40
1
 40
1
 10
114.197847
 20
133.880482
 30
0.0
 10
114.198376
 20
133.427163
 30
0.0
 10
114.425230
 20
132.684994
 30
0.0
 10
114.701934
 20
132.231215
 30
0.0
  0
SPLINE
  5
305
100
AcDbEntity
  8
0
 62
7
100
AcDbSpline
 70
8
 71
3
 72
8
 73
4
 74
0
 40
0
 40
0
 40
0
 40
0
 40
1
 40
1
 40
1
 40
1
 10
114.701934
 20
132.231215
 30
0.0
 10
115.143193
 20
131.507579
 30
0.0
 10
115.378865
 20
131.391438
 30
0.0
 10
116.619176
 20
131.286382
 30
0.0
  0
SPLINE
  5
306
100
AcDbEntity
  8
0
 62
7
100
AcDbSpline
 70
8
 71
3
 72
8
 73
4
 74
0
 40
0
 40
0
 40
0
 40
0
 40
1
 40
1
 40
1
 40
1
 10
116.619176
 20
131.286382
 30
0.0
 10
117.744851
 20
131.191034
 30
0.0
 10
118.492072
 20
130.882713
 30
0.0
 10
120.282274
 20
129.774892
 30
0.0
  0
SPLINE
  5
307
100
AcDbEntity
  8
0
 62
7
100
AcDbSpline
 70
8
 71
3
 72
8
 73
4
 74
0
 40
0
 40
0
 40
0
 40
0
 40
1
 40
1
 40
1
 40
1
 10
120.282274
 20
129.774892
 30
0.0
 10
123.654476
 20
127.688094
 30
0.0
 10
124.111930
 20
127.155620
 30
0.0
 10
125.063861
 20
124.209170
 30
0.0
  0
SPLINE
  5
308
100
AcDbEntity
  8
0
 62
7
100
AcDbSpline
 70
8
 71
3
 72
8
 73
4
 74
0
 40
0
 40
0
 40
0
 40
0
 40
1
 40
1
 40
1
 40
1
 10
125.063861
 20
124.209170
 30
0.0
 10
126.781645
 20
118.892235
 30
0.0
 10
129.165112
 20
116.836764
 30
0.0
 10
134.569774
 20
116.011407
 30
0.0
  0
SPLINE
  5
309
100
AcDbEntity
  8
0
 62
7
100
AcDbSpline
 70
8
 71
3
 72
8
 73
4
 74
0
 40
0
 40
0
 40
0
 40
0
 40
1
 40
1
 40
1
 40
1
 10
134.569774
 20
116.011407
 30
0.0
 10
135.661180
 20
115.844735
 30
0.0
 10
137.268524
 20
115.371375
 30
0.0
 10
138.141649
 20
114.959495
 30
0.0
  0
SPLINE
  5
30a
100
AcDbEntity
  8
0
 62
7
100
AcDbSpline
 70
8
 71
3
 72
8
 73
4
 74
0
 40
0
 40
0
 40
0
 40
0
 40
1
 40
1
 40
1
 40
1
 10
138.141649
 20
114.959495
 30
0.0
 10
139.014774
 20
114.547616
 30
0.0
 10
140.086337
 20
114.142496
 30
0.0
 10
140.522899
 20
114.059227
 30
0.0
  0
SPLINE
  5
30b
100
AcDbEntity
  8
0
 62
7
100
AcDbSpline
 70
8
 71
3
 72
8
 73
4
 74
0
 40
0
 40
0
 40
0
 40
0
 40
1
 40
1
 40
1
 40
1
 10
140.522899
 20
114.059227
 30
0.0
 10
140.959462
 20
113.975957
 30
0.0
 10
142.845277
 20
113.175053
 30
0.0
 10
144.713600
 20
112.279435
 30
0.0
  0
SPLINE
  5
30c
100
AcDbEntity
  8
0
 62
7
100
AcDbSpline
 70
8
 71
3
 72
8
 73
4
 74
0
 40
0
 40
0
 40
0
 40
0
 40
1
 40
1
 40
1
 40
1
 10
144.713600
 20
112.279435
 30
0.0
 10
149.128128
 20
110.163250
 30
0.0
 10
148.988129
 20
110.447619
 30
0.0
 10
148.905614
 20
103.764554
 30
0.0
  0
SPLINE
  5
30d
100
AcDbEntity
  8
0
 62
7
100
AcDbSpline
 70
8
 71
3
 72
8
 73
4
 74
0
 40
0
 40
0
 40
0
 40
0
 40
1
 40
1
 40
1
 40
1
 10
148.905614
 20
103.764554
 30
0.0
 10
148.837452
 20
98.244086
 30
0.0
 10
149.148993
 20
94.082148
 30
0.0
 10
149.818455
 20
91.569746
 30
0.0
  0
LWPOLYLINE
  5
30e
100
AcDbEntity
  8
0
 62
7
100
AcDbPolyline
 90
3
 70
0
 10
83.419273
 20
223.513989
 30
0.0
 10
86.376060
 20
223.543768
 30
0.0
 10
89.699285
 20
221.867122
 30
0.0
  0
SPLINE
  5
30f
100
AcDbEntity
  8
0
 62
7
100
AcDbSpline
 70
8
 71
3
 72
8
 73
4
 74
0
 40
0
 40
0
 40
0
 40
0
 40
1
 40
1
 40
1
 40
1
 10
149.374148
 20
85.943517
 30
0.0
 10
148.695881
 20
82.933418
 30
0.0
 10
148.472528
 20
81.298124
 30
0.0
 10
148.436880
 20
79.081268
 30
0.0
  0
SPLINE
  5
310
100
AcDbEntity
  8
0
 62
7
100
AcDbSpline
 70
8
 71
3
 72
8
 73
4
 74
0
 40
0
 40
0
 40
0
 40
0
 40
1
 40
1
 40
1
 40
1
 10
148.436880
 20
79.081268
 30
0.0
 10
148.356910
 20
74.108082
 30
0.0
 10
147.436914
 20
72.431582
 30
0.0
 10
141.611239
 20
66.642959
 30
0.0
  0
SPLINE
  5
311
100
AcDbEntity
  8
0
 62
7
100
AcDbSpline
 70
8
 71
3
 72
8
 73
4
 74
0
 40
0
 40
0
 40
0
 40
0
 40
1
 40
1
 40
1
 40
1
 10
141.611239
 20
66.642959
 30
0.0
 10
137.134595
 20
62.194787
 30
0.0
 10
135.518575
 20
61.047352
 30
0.0
 10
132.620221
 20
60.258997
 30
0.0
  0
SPLINE
  5
312
100
AcDbEntity
  8
0
 62
7
100
AcDbSpline
 70
8
 71
3
 72
8
 73
4
 74
0
 40
0
 40
0
 40
0
 40
0
 40
1
 40
1
 40
1
 40
1
 10
132.620221
 20
60.258997
 30
0.0
 10
131.001595
 20
59.818728
 30
0.0
 10
126.440303
 20
59.545294
 30
0.0
 10
125.741843
 20
59.846660
 30
0.0
  0
LWPOLYLINE
  5
313
100
AcDbEntity
  8
0
 62
7
100
AcDbPolyline
 90
3
 70
0
 10
149.818455
 20
91.569746
 30
0.0
 10
150.264617
 20
89.895352
 30
0.0
 10
149.374148
 20
85.943517
 30
0.0
  0
SPLINE
  5
314
100
AcDbEntity
  8
0
 62
7
100
AcDbSpline
 70
8
 71
3
 72
8
 73
4
 74
0
 40
0
 40
0
 40
0
 40
0
 40
1
 40
1
 40
1
 40
1
 10
81.370085
 20
128.029184
 30
0.0
 10
82.604864
 20
129.920997
 30
0.0
 10
83.301025
 20
132.163513
 30
0.0
 10
83.189485
 20
133.889946
 30
0.0
  0
LWPOLYLINE
  5
315
100
AcDbEntity
  8
0
 62
7
100
AcDbPolyline
 90
1
 70
1
 10
125.741843
 20
59.846660
 30
0.0
  0
SPLINE
  5
316
100
AcDbEntity
  8
0
 62
7
100
AcDbSpline
 70
8
 71
3
 72
8
 73
4
 74
0
 40
0
 40
0
 40
0
 40
0
 40
1
 40
1
 40
1
 40
1
 10
81.882835
 20
133.042954
 30
0.0
 10
81.208819
 20
131.886108
 30
0.0
 10
80.444695
 20
130.479591
 30
0.0
 10
80.184778
 20
129.917357
 30
0.0
  0
SPLINE
  5
317
100
AcDbEntity
  8
0
 62
7
100
AcDbSpline
 70
8
 71
3
 72
8
 73
4
 74
0
 40
0
 40
0
 40
0
 40
0
 40
1
 40
1
 40
1
 40
1
 10
80.184778
 20
129.917357
 30
0.0
 10
79.680639
 20
128.826832
 30
0.0
 10
75.728094
 20
124.382136
 30
0.0
 10
75.136372
 20
124.240346
 30
0.0
  0
SPLINE
  5
318
100
AcDbEntity
  8
0
 62
7
100
AcDbSpline
 70
8
 71
3
 72
8
 73
4
 74
0
 40
0
 40
0
 40
0
 40
0
 40
1
 40
1
 40
1
 40
1
 10
75.136372
 20
124.240346
 30
0.0
 10
74.942025
 20
124.193776
 30
0.0
 10
74.513083
 20
124.433145
 30
0.0
 10
74.183166
 20
124.772277
 30
0.0
  0
SPLINE
  5
319
100
AcDbEntity
  8
0
 62
7
100
AcDbSpline
 70
8
 71
3
 72
8
 73
4
 74
0
 40
0
 40
0
 40
0
 40
0
 40
1
 40
1
 40
1
 40
1
 10
74.183166
 20
124.772277
 30
0.0
 10
73.853249
 20
125.111407
 30
0.0
 10
73.363185
 20
125.560812
 30
0.0
 10
73.094138
 20
125.770950
 30
0.0
  0
SPLINE
  5
31a
100
AcDbEntity
  8
0
 62
7
100
AcDbSpline
 70
8
 71
3
 72
8
 73
4
 74
0
 40
0
 40
0
 40
0
 40
0
 40
1
 40
1
 40
1
 40
1
 10
73.094138
 20
125.770950
 30
0.0
 10
72.622093
 20
126.139639
 30
0.0
 10
72.619743
 20
126.117636
 30
0.0
 10
73.027119
 20
125.142651
 30
0.0
  0
SPLINE
  5
31b
100
AcDbEntity
  8
0
 62
7
100
AcDbSpline
 70
8
 71
3
 72
8
 73
4
 74
0
 40
0
 40
0
 40
0
 40
0
 40
1
 40
1
 40
1
 40
1
 10
73.027119
 20
125.142651
 30
0.0
 10
73.259307
 20
124.586947
 30
0.0
 10
73.806860
 20
123.725019
 30
0.0
 10
74.243901
 20
123.227256
 30
0.0
  0
SPLINE
  5
31c
100
AcDbEntity
  8
0
 62
7
100
AcDbSpline
 70
8
 71
3
 72
8
 73
4
 74
0
 40
0
 40
0
 40
0
 40
0
 40
1
 40
1
 40
1
 40
1
 10
74.243901
 20
123.227256
 30
0.0
 10
74.694330
 20
122.714245
 30
0.0
 10
75.044020
 20
122.011054
 30
0.0
 10
75.051208
 20
121.603831
 30
0.0
  0
SPLINE
  5
31d
100
AcDbEntity
  8
0
 62
7
100
AcDbSpline
 70
8
 71
3
 72
8
 73
4
 74
0
 40
0
 40
0
 40
0
 40
0
 40
1
 40
1
 40
1
 40
1
 10
75.051208
 20
121.603831
 30
0.0
 10
75.062665
 20
120.955327
 30
0.0
 10
75.320250
 20
121.155714
 30
0.0
 10
77.698912
 20
123.663559
 30
0.0
  0
SPLINE
  5
31e
100
AcDbEntity
  8
0
 62
7
100
AcDbSpline
 70
8
 71
3
 72
8
 73
4
 74
0
 40
0
 40
0
 40
0
 40
0
 40
1
 40
1
 40
1
 40
1
 10
77.698912
 20
123.663559
 30
0.0
 10
79.148170
 20
125.191528
 30
0.0
 10
80.800199
 20
127.156059
 30
0.0
 10
81.370085
 20
128.029184
 30
0.0
  0
LWPOLYLINE
  5
31f
100
AcDbEntity
  8
0
 62
7
100
AcDbPolyline
 90
3
 70
0
 10
83.189485
 20
133.889946
 30
0.0
 10
83.108316
 20
135.146304
 30
0.0
 10
81.882835
 20
133.042954
 30
0.0
  0
SPLINE
  5
320
100
AcDbEntity
  8
0
 62
7
100
AcDbSpline
 70
8
 71
3
 72
8
 73
4
 74
0
 40
0
 40
0
 40
0
 40
0
 40
1
 40
1
 40
1
 40
1
 10
82.873474
 20
150.099652
 30
0.0
 10
83.205624
 20
151.612830
 30
0.0
 10
83.548842
 20
152.459502
 30
0.0
 10
84.173081
 20
153.305611
 30
0.0
  0
SPLINE
  5
321
100
AcDbEntity
  8
0
 62
7
100
AcDbSpline
 70
8
 71
3
 72
8
 73
4
 74
0
 40
0
 40
0
 40
0
 40
0
 40
1
 40
1
 40
1
 40
1
 10
84.173081
 20
153.305611
 30
0.0
 10
84.870801
 20
154.251316
 30
0.0
 10
85.044899
 20
155.561080
 30
0.0
 10
84.497378
 20
155.745360
 30
0.0
  0
SPLINE
  5
322
100
AcDbEntity
  8
0
 62
7
100
AcDbSpline
 70
8
 71
3
 72
8
 73
4
 74
0
 40
0
 40
0
 40
0
 40
0
 40
1
 40
1
 40
1
 40
1
 10
84.497378
 20
155.745360
 30
0.0
 10
84.237550
 20
155.832810
 30
0.0
 10
84.242307
 20
155.948340
 30
0.0
 10
84.519577
 20
156.284282
 30
0.0
  0
SPLINE
  5
323
100
AcDbEntity
  8
0
 62
7
100
AcDbSpline
 70
8
 71
3
 72
8
 73
4
 74
0
 40
0
 40
0
 40
0
 40
0
 40
1
 40
1
 40
1
 40
1
 10
84.519577
 20
156.284282
 30
0.0
 10
85.040787
 20
156.915792
 30
0.0
 10
85.604056
 20
158.983013
 30
0.0
 10
85.361746
 20
159.375081
 30
0.0
  0
SPLINE
  5
324
100
AcDbEntity
  8
0
 62
7
100
AcDbSpline
 70
8
 71
3
 72
8
 73
4
 74
0
 40
0
 40
0
 40
0
 40
0
 40
1
 40
1
 40
1
 40
1
 10
85.361746
 20
159.375081
 30
0.0
 10
85.205176
 20
159.628414
 30
0.0
 10
84.706621
 20
159.667194
 30
0.0
 10
83.402215
 20
159.527505
 30
0.0
  0
SPLINE
  5
325
100
AcDbEntity
  8
0
 62
7
100
AcDbSpline
 70
8
 71
3
 72
8
 73
4
 74
0
 40
0
 40
0
 40
0
 40
0
 40
1
 40
1
 40
1
 40
1
 10
83.402215
 20
159.527505
 30
0.0
 10
81.061182
 20
159.276801
 30
0.0
 10
80.976404
 20
159.590264
 30
0.0
 10
82.710578
 20
162.084747
 30
0.0
  0
SPLINE
  5
326
100
AcDbEntity
  8
0
 62
7
100
AcDbSpline
 70
8
 71
3
 72
8
 73
4
 74
0
 40
0
 40
0
 40
0
 40
0
 40
1
 40
1
 40
1
 40
1
 10
82.710578
 20
162.084747
 30
0.0
 10
83.597679
 20
163.360775
 30
0.0
 10
84.120675
 20
164.412919
 30
0.0
 10
84.214102
 20
165.109475
 30
0.0
  0
LWPOLYLINE
  5
327
100
AcDbEntity
  8
0
 62
7
100
AcDbPolyline
 90
1
 70
1
 10
81.370085
 20
128.029184
 30
0.0
  0
SPLINE
  5
328
100
AcDbEntity
  8
0
 62
7
100
AcDbSpline
 70
8
 71
3
 72
8
 73
4
 74
0
 40
0
 40
0
 40
0
 40
0
 40
1
 40
1
 40
1
 40
1
 10
82.835144
 20
166.051331
 30
0.0
 10
81.007339
 20
165.899753
 30
0.0
 10
81.063711
 20
166.142911
 30
0.0
 10
83.126249
 20
167.306935
 30
0.0
  0
SPLINE
  5
329
100
AcDbEntity
  8
0
 62
7
100
AcDbSpline
 70
8
 71
3
 72
8
 73
4
 74
0
 40
0
 40
0
 40
0
 40
0
 40
1
 40
1
 40
1
 40
1
 10
83.126249
 20
167.306935
 30
0.0
 10
84.526901
 20
168.097412
 30
0.0
 10
84.948138
 20
168.875485
 30
0.0
 10
83.873591
 20
168.687358
 30
0.0
  0
SPLINE
  5
32a
100
AcDbEntity
  8
0
 62
7
100
AcDbSpline
 70
8
 71
3
 72
8
 73
4
 74
0
 40
0
 40
0
 40
0
 40
0
 40
1
 40
1
 40
1
 40
1
 10
83.873591
 20
168.687358
 30
0.0
 10
81.499160
 20
168.271653
 30
0.0
 10
81.486997
 20
168.272558
 30
0.0
 10
81.983839
 20
168.828114
 30
0.0
  0
SPLINE
  5
32b
100
AcDbEntity
  8
0
 62
7
100
AcDbSpline
 70
8
 71
3
 72
8
 73
4
 74
0
 40
0
 40
0
 40
0
 40
0
 40
1
 40
1
 40
1
 40
1
 10
81.983839
 20
168.828114
 30
0.0
 10
82.643387
 20
169.565603
 30
0.0
 10
82.560417
 20
169.876785
 30
0.0
 10
81.656005
 20
170.057667
 30
0.0
  0
SPLINE
  5
32c
100
AcDbEntity
  8
0
 62
7
100
AcDbSpline
 70
8
 71
3
 72
8
 73
4
 74
0
 40
0
 40
0
 40
0
 40
0
 40
1
 40
1
 40
1
 40
1
 10
81.656005
 20
170.057667
 30
0.0
 10
80.558661
 20
170.277136
 30
0.0
 10
80.122228
 20
170.053328
 30
0.0
 10
80.258401
 20
169.340982
 30
0.0
  0
SPLINE
  5
32d
100
AcDbEntity
  8
0
 62
7
100
AcDbSpline
 70
8
 71
3
 72
8
 73
4
 74
0
 40
0
 40
0
 40
0
 40
0
 40
1
 40
1
 40
1
 40
1
 10
80.258401
 20
169.340982
 30
0.0
 10
80.464501
 20
168.262840
 30
0.0
 10
79.747652
 20
167.974497
 30
0.0
 10
77.815808
 20
168.358487
 30
0.0
  0
SPLINE
  5
32e
100
AcDbEntity
  8
0
 62
7
100
AcDbSpline
 70
8
 71
3
 72
8
 73
4
 74
0
 40
0
 40
0
 40
0
 40
0
 40
1
 40
1
 40
1
 40
1
 10
77.815808
 20
168.358487
 30
0.0
 10
76.766039
 20
168.567148
 30
0.0
 10
75.695257
 20
168.615791
 30
0.0
 10
74.987229
 20
168.486982
 30
0.0
  0
SPLINE
  5
32f
100
AcDbEntity
  8
0
 62
7
100
AcDbSpline
 70
8
 71
3
 72
8
 73
4
 74
0
 40
0
 40
0
 40
0
 40
0
 40
1
 40
1
 40
1
 40
1
 10
74.987229
 20
168.486982
 30
0.0
 10
74.360601
 20
168.372981
 30
0.0
 10
73.699074
 20
168.307075
 30
0.0
 10
73.517173
 20
168.340524
 30
0.0
  0
SPLINE
  5
330
100
AcDbEntity
  8
0
 62
7
100
AcDbSpline
 70
8
 71
3
 72
8
 73
4
 74
0
 40
0
 40
0
 40
0
 40
0
 40
1
 40
1
 40
1
 40
1
 10
73.517173
 20
168.340524
 30
0.0
 10
72.944450
 20
168.445839
 30
0.0
 10
73.157236
 20
167.914905
 30
0.0
 10
73.914048
 20
167.350260
 30
0.0
  0
LWPOLYLINE
  5
331
100
AcDbEntity
  8
0
 62
7
100
AcDbPolyline
 90
3
 70
0
 10
84.214102
 20
165.109475
 30
0.0
 10
84.357363
 20
166.177566
 30
0.0
 10
82.835144
 20
166.051331
 30
0.0
  0
SPLINE
  5
332
100
AcDbEntity
  8
0
 62
7
100
AcDbSpline
 70
8
 71
3
 72
8
 73
4
 74
0
 40
0
 40
0
 40
0
 40
0
 40
1
 40
1
 40
1
 40
1
 10
73.896654
 20
166.799019
 30
0.0
 10
73.486904
 20
166.794415
 30
0.0
 10
72.921357
 20
166.913888
 30
0.0
 10
72.639883
 20
167.064529
 30
0.0
  0
SPLINE
  5
333
100
AcDbEntity
  8
0
 62
7
100
AcDbSpline
 70
8
 71
3
 72
8
 73
4
 74
0
 40
0
 40
0
 40
0
 40
0
 40
1
 40
1
 40
1
 40
1
 10
72.639883
 20
167.064529
 30
0.0
 10
72.315813
 20
167.237966
 30
0.0
 10
72.128110
 20
167.243360
 30
0.0
 10
72.128110
 20
167.079239
 30
0.0
  0
SPLINE
  5
334
100
AcDbEntity
  8
0
 62
7
100
AcDbSpline
 70
8
 71
3
 72
8
 73
4
 74
0
 40
0
 40
0
 40
0
 40
0
 40
1
 40
1
 40
1
 40
1
 10
72.128110
 20
167.079239
 30
0.0
 10
72.128110
 20
166.936687
 30
0.0
 10
72.770063
 20
164.997733
 30
0.0
 10
73.554669
 20
162.770452
 30
0.0
  0
SPLINE
  5
335
100
AcDbEntity
  8
0
 62
7
100
AcDbSpline
 70
8
 71
3
 72
8
 73
4
 74
0
 40
0
 40
0
 40
0
 40
0
 40
1
 40
1
 40
1
 40
1
 10
73.554669
 20
162.770452
 30
0.0
 10
75.356649
 20
157.655146
 30
0.0
 10
79.241483
 20
149.560923
 30
0.0
 10
80.565429
 20
148.163227
 30
0.0
  0
LWPOLYLINE
  5
336
100
AcDbEntity
  8
0
 62
7
100
AcDbPolyline
 90
3
 70
0
 10
73.914048
 20
167.350260
 30
0.0
 10
74.641652
 20
166.807407
 30
0.0
 10
73.896654
 20
166.799019
 30
0.0
  0
SPLINE
  5
337
100
AcDbEntity
  8
0
 62
7
100
AcDbSpline
 70
8
 71
3
 72
8
 73
4
 74
0
 40
0
 40
0
 40
0
 40
0
 40
1
 40
1
 40
1
 40
1
 10
81.960471
 20
148.455928
 30
0.0
 10
82.380082
 20
148.983941
 30
0.0
 10
82.790935
 20
149.723615
 30
0.0
 10
82.873477
 20
150.099652
 30
0.0
  0
LWPOLYLINE
  5
338
100
AcDbEntity
  8
0
 62
7
100
AcDbPolyline
 90
3
 70
0
 10
80.565429
 20
148.163227
 30
0.0
 10
81.197540
 20
147.495906
 30
0.0
 10
81.960471
 20
148.455928
 30
0.0
  0
SPLINE
  5
339
100
AcDbEntity
  8
0
 62
7
100
AcDbSpline
 70
8
 71
3
 72
8
 73
4
 74
0
 40
0
 40
0
 40
0
 40
0
 40
1
 40
1
 40
1
 40
1
 10
76.599420
 20
149.608270
 30
0.0
 10
76.878775
 20
150.540670
 30
0.0
 10
76.858151
 20
150.789701
 30
0.0
 10
76.442864
 20
151.498565
 30
0.0
  0
SPLINE
  5
33a
100
AcDbEntity
  8
0
 62
7
100
AcDbSpline
 70
8
 71
3
 72
8
 73
4
 74
0
 40
0
 40
0
 40
0
 40
0
 40
1
 40
1
 40
1
 40
1
 10
76.442864
 20
151.498565
 30
0.0
 10
75.722268
 20
152.728568
 30
0.0
 10
75.181002
 20
152.978683
 30
0.0
 10
74.524846
 20
152.384866
 30
0.0
  0
SPLINE
  5
33b
100
AcDbEntity
  8
0
 62
7
100
AcDbSpline
 70
8
 71
3
 72
8
 73
4
 74
0
 40
0
 40
0
 40
0
 40
0
 40
1
 40
1
 40
1
 40
1
 10
74.524846
 20
152.384866
 30
0.0
 10
74.225285
 20
152.113768
 30
0.0
 10
73.980191
 20
151.680423
 30
0.0
 10
73.980191
 20
151.421875
 30
0.0
  0
SPLINE
  5
33c
100
AcDbEntity
  8
0
 62
7
100
AcDbSpline
 70
8
 71
3
 72
8
 73
4
 74
0
 40
0
 40
0
 40
0
 40
0
 40
1
 40
1
 40
1
 40
1
 10
73.980191
 20
151.421875
 30
0.0
 10
73.980191
 20
150.986651
 30
0.0
 10
75.768168
 20
148.589288
 30
0.0
 10
76.121122
 20
148.551260
 30
0.0
  0
SPLINE
  5
33d
100
AcDbEntity
  8
0
 62
7
100
AcDbSpline
 70
8
 71
3
 72
8
 73
4
 74
0
 40
0
 40
0
 40
0
 40
0
 40
1
 40
1
 40
1
 40
1
 10
76.121122
 20
148.551260
 30
0.0
 10
76.207228
 20
148.541973
 30
0.0
 10
76.422464
 20
149.017638
 30
0.0
 10
76.599420
 20
149.608270
 30
0.0
  0
LWPOLYLINE
  5
33e
100
AcDbEntity
  8
0
 62
7
100
AcDbPolyline
 90
1
 70
1
 10
82.873477
 20
150.099652
 30
0.0
  0
SPLINE
  5
33f
100
AcDbEntity
  8
0
 62
7
100
AcDbSpline
 70
8
 71
3
 72
8
 73
4
 74
0
 40
0
 40
0
 40
0
 40
0
 40
1
 40
1
 40
1
 40
1
 10
53.351216
 20
172.351454
 30
0.0
 10
53.627814
 20
172.499486
 30
0.0
 10
54.446596
 20
172.633950
 30
0.0
 10
55.170731
 20
172.650264
 30
0.0
  0
SPLINE
  5
340
100
AcDbEntity
  8
0
 62
7
100
AcDbSpline
 70
8
 71
3
 72
8
 73
4
 74
0
 40
0
 40
0
 40
0
 40
0
 40
1
 40
1
 40
1
 40
1
 10
55.170731
 20
172.650264
 30
0.0
 10
56.019486
 20
172.669393
 30
0.0
 10
56.536794
 20
172.808794
 30
0.0
 10
56.626503
 20
173.042577
 30
0.0
  0
SPLINE
  5
341
100
AcDbEntity
  8
0
 62
7
100
AcDbSpline
 70
8
 71
3
 72
8
 73
4
 74
0
 40
0
 40
0
 40
0
 40
0
 40
1
 40
1
 40
1
 40
1
 10
56.626503
 20
173.042577
 30
0.0
 10
56.703045
 20
173.242034
 30
0.0
 10
56.947996
 20
173.405226
 30
0.0
 10
57.170847
 20
173.405226
 30
0.0
  0
SPLINE
  5
342
100
AcDbEntity
  8
0
 62
7
100
AcDbSpline
 70
8
 71
3
 72
8
 73
4
 74
0
 40
0
 40
0
 40
0
 40
0
 40
1
 40
1
 40
1
 40
1
 10
57.170847
 20
173.405226
 30
0.0
 10
57.798875
 20
173.405226
 30
0.0
 10
57.652237
 20
173.915475
 30
0.0
 10
56.793739
 20
174.717432
 30
0.0
  0
SPLINE
  5
343
100
AcDbEntity
  8
0
 62
7
100
AcDbSpline
 70
8
 71
3
 72
8
 73
4
 74
0
 40
0
 40
0
 40
0
 40
0
 40
1
 40
1
 40
1
 40
1
 10
56.793739
 20
174.717432
 30
0.0
 10
55.886842
 20
175.564602
 30
0.0
 10
55.281229
 20
175.809349
 30
0.0
 10
52.493180
 20
176.455440
 30
0.0
  0
SPLINE
  5
344
100
AcDbEntity
  8
0
 62
7
100
AcDbSpline
 70
8
 71
3
 72
8
 73
4
 74
0
 40
0
 40
0
 40
0
 40
0
 40
1
 40
1
 40
1
 40
1
 10
52.493180
 20
176.455440
 30
0.0
 10
49.892998
 20
177.057992
 30
0.0
 10
50.057492
 20
177.054195
 30
0.0
 10
49.953476
 20
176.514080
 30
0.0
  0
SPLINE
  5
345
100
AcDbEntity
  8
0
 62
7
100
AcDbSpline
 70
8
 71
3
 72
8
 73
4
 74
0
 40
0
 40
0
 40
0
 40
0
 40
1
 40
1
 40
1
 40
1
 10
49.953476
 20
176.514080
 30
0.0
 10
49.899059
 20
176.231521
 30
0.0
 10
50.026549
 20
176.051059
 30
0.0
 10
50.280583
 20
176.051059
 30
0.0
  0
SPLINE
  5
346
100
AcDbEntity
  8
0
 62
7
100
AcDbSpline
 70
8
 71
3
 72
8
 73
4
 74
0
 40
0
 40
0
 40
0
 40
0
 40
1
 40
1
 40
1
 40
1
 10
50.280583
 20
176.051059
 30
0.0
 10
50.590969
 20
176.051059
 30
0.0
 10
50.696857
 20
175.777427
 30
0.0
 10
50.696857
 20
174.975332
 30
0.0
  0
SPLINE
  5
347
100
AcDbEntity
  8
0
 62
7
100
AcDbSpline
 70
8
 71
3
 72
8
 73
4
 74
0
 40
0
 40
0
 40
0
 40
0
 40
1
 40
1
 40
1
 40
1
 10
50.696857
 20
174.975332
 30
0.0
 10
50.696857
 20
173.648087
 30
0.0
 10
51.026065
 20
173.001720
 30
0.0
 10
51.960280
 20
172.494742
 30
0.0
  0
SPLINE
  5
348
100
AcDbEntity
  8
0
 62
7
100
AcDbSpline
 70
8
 71
3
 72
8
 73
4
 74
0
 40
0
 40
0
 40
0
 40
0
 40
1
 40
1
 40
1
 40
1
 10
51.960280
 20
172.494742
 30
0.0
 10
52.841652
 20
172.016439
 30
0.0
 10
52.744026
 20
172.026495
 30
0.0
 10
53.351216
 20
172.351454
 30
0.0
  0
LWPOLYLINE
  5
349
100
AcDbEntity
  8
0
 62
7
100
AcDbPolyline
 90
1
 70
1
 10
76.599420
 20
149.608270
 30
0.0
  0
SPLINE
  5
34a
100
AcDbEntity
  8
0
 62
7
100
AcDbSpline
 70
8
 71
3
 72
8
 73
4
 74
0
 40
0
 40
0
 40
0
 40
0
 40
1
 40
1
 40
1
 40
1
 10
68.745423
 20
173.603663
 30
0.0
 10
69.051395
 20
174.294887
 30
0.0
 10
69.312589
 20
175.362142
 30
0.0
 10
69.325858
 20
175.975343
 30
0.0
  0
SPLINE
  5
34b
100
AcDbEntity
  8
0
 62
7
100
AcDbSpline
 70
8
 71
3
 72
8
 73
4
 74
0
 40
0
 40
0
 40
0
 40
0
 40
1
 40
1
 40
1
 40
1
 10
69.325858
 20
175.975343
 30
0.0
 10
69.365619
 20
177.812922
 30
0.0
 10
70.008202
 20
176.721527
 30
0.0
 10
70.194437
 20
174.500096
 30
0.0
  0
SPLINE
  5
34c
100
AcDbEntity
  8
0
 62
7
100
AcDbSpline
 70
8
 71
3
 72
8
 73
4
 74
0
 40
0
 40
0
 40
0
 40
0
 40
1
 40
1
 40
1
 40
1
 10
70.194437
 20
174.500096
 30
0.0
 10
70.282311
 20
173.451957
 30
0.0
 10
70.444934
 20
172.538313
 30
0.0
 10
70.555821
 20
172.469781
 30
0.0
  0
SPLINE
  5
34d
100
AcDbEntity
  8
0
 62
7
100
AcDbSpline
 70
8
 71
3
 72
8
 73
4
 74
0
 40
0
 40
0
 40
0
 40
0
 40
1
 40
1
 40
1
 40
1
 10
70.555821
 20
172.469781
 30
0.0
 10
71.053801
 20
172.162012
 30
0.0
 10
71.598941
 20
172.711766
 30
0.0
 10
71.598941
 20
173.521727
 30
0.0
  0
SPLINE
  5
34e
100
AcDbEntity
  8
0
 62
7
100
AcDbSpline
 70
8
 71
3
 72
8
 73
4
 74
0
 40
0
 40
0
 40
0
 40
0
 40
1
 40
1
 40
1
 40
1
 10
71.598941
 20
173.521727
 30
0.0
 10
71.598941
 20
174.590863
 30
0.0
 10
71.843458
 20
174.854632
 30
0.0
 10
72.284270
 20
174.261010
 30
0.0
  0
SPLINE
  5
34f
100
AcDbEntity
  8
0
 62
7
100
AcDbSpline
 70
8
 71
3
 72
8
 73
4
 74
0
 40
0
 40
0
 40
0
 40
0
 40
1
 40
1
 40
1
 40
1
 10
72.284270
 20
174.261010
 30
0.0
 10
72.564868
 20
173.883140
 30
0.0
 10
72.716890
 20
173.858124
 30
0.0
 10
73.145153
 20
174.119350
 30
0.0
  0
SPLINE
  5
350
100
AcDbEntity
  8
0
 62
7
100
AcDbSpline
 70
8
 71
3
 72
8
 73
4
 74
0
 40
0
 40
0
 40
0
 40
0
 40
1
 40
1
 40
1
 40
1
 10
73.145153
 20
174.119350
 30
0.0
 10
73.544541
 20
174.362967
 30
0.0
 10
73.855098
 20
174.364941
 30
0.0
 10
74.483190
 20
174.127869
 30
0.0
  0
SPLINE
  5
351
100
AcDbEntity
  8
0
 62
7
100
AcDbSpline
 70
8
 71
3
 72
8
 73
4
 74
0
 40
0
 40
0
 40
0
 40
0
 40
1
 40
1
 40
1
 40
1
 10
74.483190
 20
174.127869
 30
0.0
 10
75.163389
 20
173.871123
 30
0.0
 10
75.430690
 20
173.895671
 30
0.0
 10
76.070542
 20
174.273641
 30
0.0
  0
SPLINE
  5
352
100
AcDbEntity
  8
0
 62
7
100
AcDbSpline
 70
8
 71
3
 72
8
 73
4
 74
0
 40
0
 40
0
 40
0
 40
0
 40
1
 40
1
 40
1
 40
1
 10
76.070542
 20
174.273641
 30
0.0
 10
76.493725
 20
174.523620
 30
0.0
 10
77.331345
 20
174.728148
 30
0.0
 10
77.931923
 20
174.728148
 30
0.0
  0
SPLINE
  5
353
100
AcDbEntity
  8
0
 62
7
100
AcDbSpline
 70
8
 71
3
 72
8
 73
4
 74
0
 40
0
 40
0
 40
0
 40
0
 40
1
 40
1
 40
1
 40
1
 10
77.931923
 20
174.728148
 30
0.0
 10
78.667303
 20
174.728148
 30
0.0
 10
79.074534
 20
174.860148
 30
0.0
 10
79.178997
 20
175.132373
 30
0.0
  0
SPLINE
  5
354
100
AcDbEntity
  8
0
 62
7
100
AcDbSpline
 70
8
 71
3
 72
8
 73
4
 74
0
 40
0
 40
0
 40
0
 40
0
 40
1
 40
1
 40
1
 40
1
 10
79.178997
 20
175.132373
 30
0.0
 10
79.433857
 20
175.796522
 30
0.0
 10
80.256444
 20
176.109151
 30
0.0
 10
80.876270
 20
175.777430
 30
0.0
  0
SPLINE
  5
355
100
AcDbEntity
  8
0
 62
7
100
AcDbSpline
 70
8
 71
3
 72
8
 73
4
 74
0
 40
0
 40
0
 40
0
 40
0
 40
1
 40
1
 40
1
 40
1
 10
80.876270
 20
175.777430
 30
0.0
 10
81.276066
 20
175.563467
 30
0.0
 10
81.517990
 20
175.564551
 30
0.0
 10
81.779377
 20
175.781478
 30
0.0
  0
SPLINE
  5
356
100
AcDbEntity
  8
0
 62
7
100
AcDbSpline
 70
8
 71
3
 72
8
 73
4
 74
0
 40
0
 40
0
 40
0
 40
0
 40
1
 40
1
 40
1
 40
1
 10
81.779377
 20
175.781478
 30
0.0
 10
81.975740
 20
175.944445
 30
0.0
 10
82.471464
 20
176.138541
 30
0.0
 10
82.880983
 20
176.212802
 30
0.0
  0
SPLINE
  5
357
100
AcDbEntity
  8
0
 62
7
100
AcDbSpline
 70
8
 71
3
 72
8
 73
4
 74
0
 40
0
 40
0
 40
0
 40
0
 40
1
 40
1
 40
1
 40
1
 10
82.880983
 20
176.212802
 30
0.0
 10
83.820116
 20
176.383098
 30
0.0
 10
83.855227
 20
176.423346
 30
0.0
 10
83.644322
 20
177.087840
 30
0.0
  0
SPLINE
  5
358
100
AcDbEntity
  8
0
 62
7
100
AcDbSpline
 70
8
 71
3
 72
8
 73
4
 74
0
 40
0
 40
0
 40
0
 40
0
 40
1
 40
1
 40
1
 40
1
 10
83.644322
 20
177.087840
 30
0.0
 10
83.533332
 20
177.437539
 30
0.0
 10
82.736018
 20
177.984761
 30
0.0
 10
81.437353
 20
178.602555
 30
0.0
  0
SPLINE
  5
359
100
AcDbEntity
  8
0
 62
7
100
AcDbSpline
 70
8
 71
3
 72
8
 73
4
 74
0
 40
0
 40
0
 40
0
 40
0
 40
1
 40
1
 40
1
 40
1
 10
81.437353
 20
178.602555
 30
0.0
 10
80.319092
 20
179.134529
 30
0.0
 10
79.030904
 20
179.968694
 30
0.0
 10
78.574715
 20
180.456253
 30
0.0
  0
SPLINE
  5
35a
100
AcDbEntity
  8
0
 62
7
100
AcDbSpline
 70
8
 71
3
 72
8
 73
4
 74
0
 40
0
 40
0
 40
0
 40
0
 40
1
 40
1
 40
1
 40
1
 10
78.574715
 20
180.456253
 30
0.0
 10
77.925631
 20
181.149974
 30
0.0
 10
77.534249
 20
181.342726
 30
0.0
 10
76.774741
 20
181.342726
 30
0.0
  0
SPLINE
  5
35b
100
AcDbEntity
  8
0
 62
7
100
AcDbSpline
 70
8
 71
3
 72
8
 73
4
 74
0
 40
0
 40
0
 40
0
 40
0
 40
1
 40
1
 40
1
 40
1
 10
76.774741
 20
181.342726
 30
0.0
 10
76.175465
 20
181.342726
 30
0.0
 10
75.431830
 20
181.595757
 30
0.0
 10
74.830776
 20
182.004184
 30
0.0
  0
SPLINE
  5
35c
100
AcDbEntity
  8
0
 62
7
100
AcDbSpline
 70
8
 71
3
 72
8
 73
4
 74
0
 40
0
 40
0
 40
0
 40
0
 40
1
 40
1
 40
1
 40
1
 10
74.830776
 20
182.004184
 30
0.0
 10
73.489741
 20
182.915441
 30
0.0
 10
72.858551
 20
182.891552
 30
0.0
 10
73.083206
 20
181.938038
 30
0.0
  0
SPLINE
  5
35d
100
AcDbEntity
  8
0
 62
7
100
AcDbSpline
 70
8
 71
3
 72
8
 73
4
 74
0
 40
0
 40
0
 40
0
 40
0
 40
1
 40
1
 40
1
 40
1
 10
73.083206
 20
181.938038
 30
0.0
 10
73.300688
 20
181.014963
 30
0.0
 10
74.273558
 20
179.226059
 30
0.0
 10
74.558078
 20
179.226059
 30
0.0
  0
SPLINE
  5
35e
100
AcDbEntity
  8
0
 62
7
100
AcDbSpline
 70
8
 71
3
 72
8
 73
4
 74
0
 40
0
 40
0
 40
0
 40
0
 40
1
 40
1
 40
1
 40
1
 10
74.558078
 20
179.226059
 30
0.0
 10
74.676802
 20
179.226059
 30
0.0
 10
74.773941
 20
179.106997
 30
0.0
 10
74.773941
 20
178.961476
 30
0.0
  0
SPLINE
  5
35f
100
AcDbEntity
  8
0
 62
7
100
AcDbSpline
 70
8
 71
3
 72
8
 73
4
 74
0
 40
0
 40
0
 40
0
 40
0
 40
1
 40
1
 40
1
 40
1
 10
74.773941
 20
178.961476
 30
0.0
 10
74.773941
 20
178.240891
 30
0.0
 10
70.207452
 20
178.942426
 30
0.0
 10
68.063279
 20
179.992417
 30
0.0
  0
SPLINE
  5
360
100
AcDbEntity
  8
0
 62
7
100
AcDbSpline
 70
8
 71
3
 72
8
 73
4
 74
0
 40
0
 40
0
 40
0
 40
0
 40
1
 40
1
 40
1
 40
1
 10
68.063279
 20
179.992417
 30
0.0
 10
66.436192
 20
180.789188
 30
0.0
 10
66.424104
 20
180.804018
 30
0.0
 10
64.194613
 20
184.737378
 30
0.0
  0
SPLINE
  5
361
100
AcDbEntity
  8
0
 62
7
100
AcDbSpline
 70
8
 71
3
 72
8
 73
4
 74
0
 40
0
 40
0
 40
0
 40
0
 40
1
 40
1
 40
1
 40
1
 10
64.194613
 20
184.737378
 30
0.0
 10
63.403274
 20
186.133494
 30
0.0
 10
62.983240
 20
186.633818
 30
0.0
 10
62.695275
 20
186.523315
 30
0.0
  0
SPLINE
  5
362
100
AcDbEntity
  8
0
 62
7
100
AcDbSpline
 70
8
 71
3
 72
8
 73
4
 74
0
 40
0
 40
0
 40
0
 40
0
 40
1
 40
1
 40
1
 40
1
 10
62.695275
 20
186.523315
 30
0.0
 10
62.475258
 20
186.438887
 30
0.0
 10
62.245452
 20
186.369809
 30
0.0
 10
62.184592
 20
186.369809
 30
0.0
  0
SPLINE
  5
363
100
AcDbEntity
  8
0
 62
7
100
AcDbSpline
 70
8
 71
3
 72
8
 73
4
 74
0
 40
0
 40
0
 40
0
 40
0
 40
1
 40
1
 40
1
 40
1
 10
62.184592
 20
186.369809
 30
0.0
 10
62.123735
 20
186.369809
 30
0.0
 10
62.073941
 20
186.188795
 30
0.0
 10
62.073941
 20
185.967558
 30
0.0
  0
SPLINE
  5
364
100
AcDbEntity
  8
0
 62
7
100
AcDbSpline
 70
8
 71
3
 72
8
 73
4
 74
0
 40
0
 40
0
 40
0
 40
0
 40
1
 40
1
 40
1
 40
1
 10
62.073941
 20
185.967558
 30
0.0
 10
62.073941
 20
185.629881
 30
0.0
 10
61.905735
 20
185.651116
 30
0.0
 10
61.026148
 20
186.099850
 30
0.0
  0
SPLINE
  5
365
100
AcDbEntity
  8
0
 62
7
100
AcDbSpline
 70
8
 71
3
 72
8
 73
4
 74
0
 40
0
 40
0
 40
0
 40
0
 40
1
 40
1
 40
1
 40
1
 10
61.026148
 20
186.099850
 30
0.0
 10
59.553882
 20
186.850943
 30
0.0
 10
59.163524
 20
186.797090
 30
0.0
 10
59.163524
 20
185.842884
 30
0.0
  0
SPLINE
  5
366
100
AcDbEntity
  8
0
 62
7
100
AcDbSpline
 70
8
 71
3
 72
8
 73
4
 74
0
 40
0
 40
0
 40
0
 40
0
 40
1
 40
1
 40
1
 40
1
 10
59.163524
 20
185.842884
 30
0.0
 10
59.163524
 20
185.337921
 30
0.0
 10
59.355096
 20
184.931738
 30
0.0
 10
59.692691
 20
184.720907
 30
0.0
  0
SPLINE
  5
367
100
AcDbEntity
  8
0
 62
7
100
AcDbSpline
 70
8
 71
3
 72
8
 73
4
 74
0
 40
0
 40
0
 40
0
 40
0
 40
1
 40
1
 40
1
 40
1
 10
59.692691
 20
184.720907
 30
0.0
 10
60.864104
 20
183.989345
 30
0.0
 10
59.723062
 20
183.159159
 30
0.0
 10
58.293302
 20
183.702754
 30
0.0
  0
SPLINE
  5
368
100
AcDbEntity
  8
0
 62
7
100
AcDbSpline
 70
8
 71
3
 72
8
 73
4
 74
0
 40
0
 40
0
 40
0
 40
0
 40
1
 40
1
 40
1
 40
1
 10
58.293302
 20
183.702754
 30
0.0
 10
57.377978
 20
184.050760
 30
0.0
 10
57.367580
 20
183.661762
 30
0.0
 10
58.273167
 20
182.949429
 30
0.0
  0
SPLINE
  5
369
100
AcDbEntity
  8
0
 62
7
100
AcDbSpline
 70
8
 71
3
 72
8
 73
4
 74
0
 40
0
 40
0
 40
0
 40
0
 40
1
 40
1
 40
1
 40
1
 10
58.273167
 20
182.949429
 30
0.0
 10
58.781691
 20
182.549424
 30
0.0
 10
59.354368
 20
182.401059
 30
0.0
 10
60.389834
 20
182.401059
 30
0.0
  0
SPLINE
  5
36a
100
AcDbEntity
  8
0
 62
7
100
AcDbSpline
 70
8
 71
3
 72
8
 73
4
 74
0
 40
0
 40
0
 40
0
 40
0
 40
1
 40
1
 40
1
 40
1
 10
60.389834
 20
182.401059
 30
0.0
 10
61.170574
 20
182.401059
 30
0.0
 10
61.809360
 20
182.305516
 30
0.0
 10
61.809360
 20
182.188742
 30
0.0
  0
SPLINE
  5
36b
100
AcDbEntity
  8
0
 62
7
100
AcDbSpline
 70
8
 71
3
 72
8
 73
4
 74
0
 40
0
 40
0
 40
0
 40
0
 40
1
 40
1
 40
1
 40
1
 10
61.809360
 20
182.188742
 30
0.0
 10
61.809360
 20
182.071968
 30
0.0
 10
61.184282
 20
181.748404
 30
0.0
 10
60.420298
 20
181.469710
 30
0.0
  0
SPLINE
  5
36c
100
AcDbEntity
  8
0
 62
7
100
AcDbSpline
 70
8
 71
3
 72
8
 73
4
 74
0
 40
0
 40
0
 40
0
 40
0
 40
1
 40
1
 40
1
 40
1
 10
60.420298
 20
181.469710
 30
0.0
 10
58.590733
 20
180.802304
 30
0.0
 10
55.817849
 20
180.857110
 30
0.0
 10
54.304835
 20
181.590582
 30
0.0
  0
SPLINE
  5
36d
100
AcDbEntity
  8
0
 62
7
100
AcDbSpline
 70
8
 71
3
 72
8
 73
4
 74
0
 40
0
 40
0
 40
0
 40
0
 40
1
 40
1
 40
1
 40
1
 10
54.304835
 20
181.590582
 30
0.0
 10
53.278434
 20
182.088155
 30
0.0
 10
52.804637
 20
182.484718
 30
0.0
 10
50.833570
 20
184.495985
 30
0.0
  0
SPLINE
  5
36e
100
AcDbEntity
  8
0
 62
7
100
AcDbSpline
 70
8
 71
3
 72
8
 73
4
 74
0
 40
0
 40
0
 40
0
 40
0
 40
1
 40
1
 40
1
 40
1
 10
50.833570
 20
184.495985
 30
0.0
 10
50.158449
 20
185.184878
 30
0.0
 10
49.990851
 20
185.248026
 30
0.0
 10
49.675243
 20
184.932418
 30
0.0
  0
SPLINE
  5
36f
100
AcDbEntity
  8
0
 62
7
100
AcDbSpline
 70
8
 71
3
 72
8
 73
4
 74
0
 40
0
 40
0
 40
0
 40
0
 40
1
 40
1
 40
1
 40
1
 10
49.675243
 20
184.932418
 30
0.0
 10
49.381201
 20
184.638376
 30
0.0
 10
49.366866
 20
184.389533
 30
0.0
 10
49.604679
 20
183.707342
 30
0.0
  0
SPLINE
  5
370
100
AcDbEntity
  8
0
 62
7
100
AcDbSpline
 70
8
 71
3
 72
8
 73
4
 74
0
 40
0
 40
0
 40
0
 40
0
 40
1
 40
1
 40
1
 40
1
 10
49.604679
 20
183.707342
 30
0.0
 10
49.768816
 20
183.236497
 30
0.0
 10
49.903110
 20
182.749965
 30
0.0
 10
49.903110
 20
182.626161
 30
0.0
  0
SPLINE
  5
371
100
AcDbEntity
  8
0
 62
7
100
AcDbSpline
 70
8
 71
3
 72
8
 73
4
 74
0
 40
0
 40
0
 40
0
 40
0
 40
1
 40
1
 40
1
 40
1
 10
49.903110
 20
182.626161
 30
0.0
 10
49.903110
 20
182.257912
 30
0.0
 10
49.199583
 20
182.370420
 30
0.0
 10
48.847195
 20
182.795021
 30
0.0
  0
SPLINE
  5
372
100
AcDbEntity
  8
0
 62
7
100
AcDbSpline
 70
8
 71
3
 72
8
 73
4
 74
0
 40
0
 40
0
 40
0
 40
0
 40
1
 40
1
 40
1
 40
1
 10
48.847195
 20
182.795021
 30
0.0
 10
48.361817
 20
183.379864
 30
0.0
 10
47.975337
 20
182.977943
 30
0.0
 10
48.155738
 20
182.075937
 30
0.0
  0
SPLINE
  5
373
100
AcDbEntity
  8
0
 62
7
100
AcDbSpline
 70
8
 71
3
 72
8
 73
4
 74
0
 40
0
 40
0
 40
0
 40
0
 40
1
 40
1
 40
1
 40
1
 10
48.155738
 20
182.075937
 30
0.0
 10
48.303024
 20
181.339516
 30
0.0
 10
48.268938
 20
181.297075
 30
0.0
 10
47.654154
 20
181.451374
 30
0.0
  0
SPLINE
  5
374
100
AcDbEntity
  8
0
 62
7
100
AcDbSpline
 70
8
 71
3
 72
8
 73
4
 74
0
 40
0
 40
0
 40
0
 40
0
 40
1
 40
1
 40
1
 40
1
 10
47.654154
 20
181.451374
 30
0.0
 10
47.077598
 20
181.596080
 30
0.0
 10
47.008611
 20
181.541362
 30
0.0
 10
47.106250
 20
181.016804
 30
0.0
  0
SPLINE
  5
375
100
AcDbEntity
  8
0
 62
7
100
AcDbSpline
 70
8
 71
3
 72
8
 73
4
 74
0
 40
0
 40
0
 40
0
 40
0
 40
1
 40
1
 40
1
 40
1
 10
47.106250
 20
181.016804
 30
0.0
 10
47.167686
 20
180.686739
 30
0.0
 10
47.226802
 20
180.289909
 30
0.0
 10
47.237616
 20
180.134958
 30
0.0
  0
SPLINE
  5
376
100
AcDbEntity
  8
0
 62
7
100
AcDbSpline
 70
8
 71
3
 72
8
 73
4
 74
0
 40
0
 40
0
 40
0
 40
0
 40
1
 40
1
 40
1
 40
1
 10
47.237616
 20
180.134958
 30
0.0
 10
47.257115
 20
179.855638
 30
0.0
 10
48.891769
 20
178.961476
 30
0.0
 10
49.382921
 20
178.961476
 30
0.0
  0
SPLINE
  5
377
100
AcDbEntity
  8
0
 62
7
100
AcDbSpline
 70
8
 71
3
 72
8
 73
4
 74
0
 40
0
 40
0
 40
0
 40
0
 40
1
 40
1
 40
1
 40
1
 10
49.382921
 20
178.961476
 30
0.0
 10
49.523504
 20
178.961476
 30
0.0
 10
49.638527
 20
179.206446
 30
0.0
 10
49.638527
 20
179.505856
 30
0.0
  0
SPLINE
  5
378
100
AcDbEntity
  8
0
 62
7
100
AcDbSpline
 70
8
 71
3
 72
8
 73
4
 74
0
 40
0
 40
0
 40
0
 40
0
 40
1
 40
1
 40
1
 40
1
 10
49.638527
 20
179.505856
 30
0.0
 10
49.638527
 20
179.982675
 30
0.0
 10
49.778079
 20
180.040137
 30
0.0
 10
50.763006
 20
179.968877
 30
0.0
  0
SPLINE
  5
379
100
AcDbEntity
  8
0
 62
7
100
AcDbSpline
 70
8
 71
3
 72
8
 73
4
 74
0
 40
0
 40
0
 40
0
 40
0
 40
1
 40
1
 40
1
 40
1
 10
50.763006
 20
179.968877
 30
0.0
 10
51.776469
 20
179.895550
 30
0.0
 10
51.915639
 20
179.800414
 30
0.0
 10
52.172656
 20
179.005249
 30
0.0
  0
SPLINE
  5
37a
100
AcDbEntity
  8
0
 62
7
100
AcDbSpline
 70
8
 71
3
 72
8
 73
4
 74
0
 40
0
 40
0
 40
0
 40
0
 40
1
 40
1
 40
1
 40
1
 10
52.172656
 20
179.005249
 30
0.0
 10
52.540477
 20
177.867268
 30
0.0
 10
52.876569
 20
177.680845
 30
0.0
 10
54.275974
 20
177.838576
 30
0.0
  0
SPLINE
  5
37b
100
AcDbEntity
  8
0
 62
7
100
AcDbSpline
 70
8
 71
3
 72
8
 73
4
 74
0
 40
0
 40
0
 40
0
 40
0
 40
1
 40
1
 40
1
 40
1
 10
54.275974
 20
177.838576
 30
0.0
 10
55.265069
 20
177.950064
 30
0.0
 10
55.513756
 20
177.871713
 30
0.0
 10
56.067576
 20
177.274127
 30
0.0
  0
SPLINE
  5
37c
100
AcDbEntity
  8
0
 62
7
100
AcDbSpline
 70
8
 71
3
 72
8
 73
4
 74
0
 40
0
 40
0
 40
0
 40
0
 40
1
 40
1
 40
1
 40
1
 10
56.067576
 20
177.274127
 30
0.0
 10
56.428516
 20
176.884671
 30
0.0
 10
56.998592
 20
176.580226
 30
0.0
 10
57.366921
 20
176.580226
 30
0.0
  0
SPLINE
  5
37d
100
AcDbEntity
  8
0
 62
7
100
AcDbSpline
 70
8
 71
3
 72
8
 73
4
 74
0
 40
0
 40
0
 40
0
 40
0
 40
1
 40
1
 40
1
 40
1
 10
57.366921
 20
176.580226
 30
0.0
 10
57.727863
 20
176.580226
 30
0.0
 10
58.238678
 20
176.342101
 30
0.0
 10
58.502068
 20
176.051059
 30
0.0
  0
SPLINE
  5
37e
100
AcDbEntity
  8
0
 62
7
100
AcDbSpline
 70
8
 71
3
 72
8
 73
4
 74
0
 40
0
 40
0
 40
0
 40
0
 40
1
 40
1
 40
1
 40
1
 10
58.502068
 20
176.051059
 30
0.0
 10
58.823053
 20
175.696375
 30
0.0
 10
59.316977
 20
175.521893
 30
0.0
 10
60.000033
 20
175.521893
 30
0.0
  0
SPLINE
  5
37f
100
AcDbEntity
  8
0
 62
7
100
AcDbSpline
 70
8
 71
3
 72
8
 73
4
 74
0
 40
0
 40
0
 40
0
 40
0
 40
1
 40
1
 40
1
 40
1
 10
60.000033
 20
175.521893
 30
0.0
 10
60.741086
 20
175.521893
 30
0.0
 10
61.167187
 20
175.351588
 30
0.0
 10
61.561874
 20
174.897658
 30
0.0
  0
SPLINE
  5
380
100
AcDbEntity
  8
0
 62
7
100
AcDbSpline
 70
8
 71
3
 72
8
 73
4
 74
0
 40
0
 40
0
 40
0
 40
0
 40
1
 40
1
 40
1
 40
1
 10
61.561874
 20
174.897658
 30
0.0
 10
62.025271
 20
174.364706
 30
0.0
 10
62.305512
 20
174.285791
 30
0.0
 10
63.478352
 20
174.357977
 30
0.0
  0
SPLINE
  5
381
100
AcDbEntity
  8
0
 62
7
100
AcDbSpline
 70
8
 71
3
 72
8
 73
4
 74
0
 40
0
 40
0
 40
0
 40
0
 40
1
 40
1
 40
1
 40
1
 10
63.478352
 20
174.357977
 30
0.0
 10
64.233896
 20
174.404480
 30
0.0
 10
65.060087
 20
174.447258
 30
0.0
 10
65.314330
 20
174.453042
 30
0.0
  0
SPLINE
  5
382
100
AcDbEntity
  8
0
 62
7
100
AcDbSpline
 70
8
 71
3
 72
8
 73
4
 74
0
 40
0
 40
0
 40
0
 40
0
 40
1
 40
1
 40
1
 40
1
 10
65.314330
 20
174.453042
 30
0.0
 10
65.576889
 20
174.459022
 30
0.0
 10
65.920512
 20
174.816265
 30
0.0
 10
66.109726
 20
175.279979
 30
0.0
  0
LWPOLYLINE
  5
383
100
AcDbEntity
  8
0
 62
7
100
AcDbPolyline
 90
1
 70
1
 10
53.351216
 20
172.351454
 30
0.0
  0
SPLINE
  5
384
100
AcDbEntity
  8
0
 62
7
100
AcDbSpline
 70
8
 71
3
 72
8
 73
4
 74
0
 40
0
 40
0
 40
0
 40
0
 40
1
 40
1
 40
1
 40
1
 10
67.188839
 20
175.509611
 30
0.0
 10
67.881495
 20
174.964767
 30
0.0
 10
67.922156
 20
174.830756
 30
0.0
 10
67.757678
 20
173.634858
 30
0.0
  0
SPLINE
  5
385
100
AcDbEntity
  8
0
 62
7
100
AcDbSpline
 70
8
 71
3
 72
8
 73
4
 74
0
 40
0
 40
0
 40
0
 40
0
 40
1
 40
1
 40
1
 40
1
 10
67.757678
 20
173.634858
 30
0.0
 10
67.524696
 20
171.940884
 30
0.0
 10
68.002714
 20
171.925790
 30
0.0
 10
68.745425
 20
173.603663
 30
0.0
  0
LWPOLYLINE
  5
386
100
AcDbEntity
  8
0
 62
7
100
AcDbPolyline
 90
3
 70
0
 10
66.109726
 20
175.279979
 30
0.0
 10
66.442860
 20
176.096398
 30
0.0
 10
67.188839
 20
175.509611
 30
0.0
  0
SPLINE
  5
387
100
AcDbEntity
  8
0
 62
7
100
AcDbSpline
 70
8
 71
3
 72
8
 73
4
 74
0
 40
0
 40
0
 40
0
 40
0
 40
1
 40
1
 40
1
 40
1
 10
42.494774
 20
126.934666
 30
0.0
 10
42.494774
 20
128.192612
 30
0.0
 10
42.373206
 20
128.536761
 30
0.0
 10
41.577998
 20
129.529970
 30
0.0
  0
SPLINE
  5
388
100
AcDbEntity
  8
0
 62
7
100
AcDbSpline
 70
8
 71
3
 72
8
 73
4
 74
0
 40
0
 40
0
 40
0
 40
0
 40
1
 40
1
 40
1
 40
1
 10
41.577998
 20
129.529970
 30
0.0
 10
40.391360
 20
131.012076
 30
0.0
 10
39.219029
 20
132.911424
 30
0.0
 10
39.387121
 20
133.079516
 30
0.0
  0
SPLINE
  5
389
100
AcDbEntity
  8
0
 62
7
100
AcDbSpline
 70
8
 71
3
 72
8
 73
4
 74
0
 40
0
 40
0
 40
0
 40
0
 40
1
 40
1
 40
1
 40
1
 10
39.387121
 20
133.079516
 30
0.0
 10
39.459522
 20
133.151917
 30
0.0
 10
39.767626
 20
132.789351
 30
0.0
 10
40.071802
 20
132.273815
 30
0.0
  0
SPLINE
  5
38a
100
AcDbEntity
  8
0
 62
7
100
AcDbSpline
 70
8
 71
3
 72
8
 73
4
 74
0
 40
0
 40
0
 40
0
 40
0
 40
1
 40
1
 40
1
 40
1
 10
40.071802
 20
132.273815
 30
0.0
 10
40.375975
 20
131.758277
 30
0.0
 10
40.731265
 20
131.336476
 30
0.0
 10
40.861335
 20
131.336476
 30
0.0
  0
SPLINE
  5
38b
100
AcDbEntity
  8
0
 62
7
100
AcDbSpline
 70
8
 71
3
 72
8
 73
4
 74
0
 40
0
 40
0
 40
0
 40
0
 40
1
 40
1
 40
1
 40
1
 10
40.861335
 20
131.336476
 30
0.0
 10
41.265097
 20
131.336476
 30
0.0
 10
41.468971
 20
134.341137
 30
0.0
 10
41.085744
 20
134.643768
 30
0.0
  0
SPLINE
  5
38c
100
AcDbEntity
  8
0
 62
7
100
AcDbSpline
 70
8
 71
3
 72
8
 73
4
 74
0
 40
0
 40
0
 40
0
 40
0
 40
1
 40
1
 40
1
 40
1
 10
41.085744
 20
134.643768
 30
0.0
 10
40.901469
 20
134.789288
 30
0.0
 10
40.570560
 20
135.170243
 30
0.0
 10
40.350390
 20
135.490336
 30
0.0
  0
LWPOLYLINE
  5
38d
100
AcDbEntity
  8
0
 62
7
100
AcDbPolyline
 90
1
 70
1
 10
68.745425
 20
173.603663
 30
0.0
  0
SPLINE
  5
38e
100
AcDbEntity
  8
0
 62
7
100
AcDbSpline
 70
8
 71
3
 72
8
 73
4
 74
0
 40
0
 40
0
 40
0
 40
0
 40
1
 40
1
 40
1
 40
1
 10
38.218732
 20
135.017798
 30
0.0
 10
36.774641
 20
134.138241
 30
0.0
 10
36.245914
 20
133.960394
 30
0.0
 10
35.032040
 20
133.945895
 30
0.0
  0
SPLINE
  5
38f
100
AcDbEntity
  8
0
 62
7
100
AcDbSpline
 70
8
 71
3
 72
8
 73
4
 74
0
 40
0
 40
0
 40
0
 40
0
 40
1
 40
1
 40
1
 40
1
 10
35.032040
 20
133.945895
 30
0.0
 10
33.483235
 20
133.927400
 30
0.0
 10
32.087738
 20
134.464174
 30
0.0
 10
31.811211
 20
135.184788
 30
0.0
  0
SPLINE
  5
390
100
AcDbEntity
  8
0
 62
7
100
AcDbSpline
 70
8
 71
3
 72
8
 73
4
 74
0
 40
0
 40
0
 40
0
 40
0
 40
1
 40
1
 40
1
 40
1
 10
31.811211
 20
135.184788
 30
0.0
 10
31.530830
 20
135.915453
 30
0.0
 10
31.615748
 20
135.903496
 30
0.0
 10
32.677119
 20
135.062875
 30
0.0
  0
SPLINE
  5
391
100
AcDbEntity
  8
0
 62
7
100
AcDbSpline
 70
8
 71
3
 72
8
 73
4
 74
0
 40
0
 40
0
 40
0
 40
0
 40
1
 40
1
 40
1
 40
1
 10
32.677119
 20
135.062875
 30
0.0
 10
33.372404
 20
134.512201
 30
0.0
 10
34.000760
 20
134.246893
 30
0.0
 10
34.609693
 20
134.246893
 30
0.0
  0
SPLINE
  5
392
100
AcDbEntity
  8
0
 62
7
100
AcDbSpline
 70
8
 71
3
 72
8
 73
4
 74
0
 40
0
 40
0
 40
0
 40
0
 40
1
 40
1
 40
1
 40
1
 10
34.609693
 20
134.246893
 30
0.0
 10
35.691617
 20
134.246893
 30
0.0
 10
37.693460
 20
135.445452
 30
0.0
 10
38.552758
 20
136.607714
 30
0.0
  0
SPLINE
  5
393
100
AcDbEntity
  8
0
 62
7
100
AcDbSpline
 70
8
 71
3
 72
8
 73
4
 74
0
 40
0
 40
0
 40
0
 40
0
 40
1
 40
1
 40
1
 40
1
 10
38.552758
 20
136.607714
 30
0.0
 10
38.883828
 20
137.055511
 30
0.0
 10
39.358792
 20
137.421893
 30
0.0
 10
39.608231
 20
137.421893
 30
0.0
  0
SPLINE
  5
394
100
AcDbEntity
  8
0
 62
7
100
AcDbSpline
 70
8
 71
3
 72
8
 73
4
 74
0
 40
0
 40
0
 40
0
 40
0
 40
1
 40
1
 40
1
 40
1
 10
39.608231
 20
137.421893
 30
0.0
 10
39.876965
 20
137.421893
 30
0.0
 10
40.193944
 20
137.772262
 30
0.0
 10
40.386177
 20
138.281788
 30
0.0
  0
LWPOLYLINE
  5
395
100
AcDbEntity
  8
0
 62
7
100
AcDbPolyline
 90
3
 70
0
 10
40.350390
 20
135.490336
 30
0.0
 10
39.950083
 20
136.072319
 30
0.0
 10
38.218732
 20
135.017798
 30
0.0
  0
SPLINE
  5
396
100
AcDbEntity
  8
0
 62
7
100
AcDbSpline
 70
8
 71
3
 72
8
 73
4
 74
0
 40
0
 40
0
 40
0
 40
0
 40
1
 40
1
 40
1
 40
1
 10
41.037867
 20
138.083351
 30
0.0
 10
41.318603
 20
137.175502
 30
0.0
 10
41.464259
 20
137.032100
 30
0.0
 10
42.062247
 20
137.074828
 30
0.0
  0
SPLINE
  5
397
100
AcDbEntity
  8
0
 62
7
100
AcDbSpline
 70
8
 71
3
 72
8
 73
4
 74
0
 40
0
 40
0
 40
0
 40
0
 40
1
 40
1
 40
1
 40
1
 10
42.062247
 20
137.074828
 30
0.0
 10
42.499357
 20
137.106062
 30
0.0
 10
42.759357
 20
136.989873
 30
0.0
 10
42.759357
 20
136.763302
 30
0.0
  0
SPLINE
  5
398
100
AcDbEntity
  8
0
 62
7
100
AcDbSpline
 70
8
 71
3
 72
8
 73
4
 74
0
 40
0
 40
0
 40
0
 40
0
 40
1
 40
1
 40
1
 40
1
 10
42.759357
 20
136.763302
 30
0.0
 10
42.759357
 20
136.257064
 30
0.0
 10
44.039626
 20
135.305226
 30
0.0
 10
44.720542
 20
135.305226
 30
0.0
  0
SPLINE
  5
399
100
AcDbEntity
  8
0
 62
7
100
AcDbSpline
 70
8
 71
3
 72
8
 73
4
 74
0
 40
0
 40
0
 40
0
 40
0
 40
1
 40
1
 40
1
 40
1
 10
44.720542
 20
135.305226
 30
0.0
 10
45.032337
 20
135.305226
 30
0.0
 10
46.114338
 20
135.900538
 30
0.0
 10
47.124982
 20
136.628143
 30
0.0
  0
SPLINE
  5
39a
100
AcDbEntity
  8
0
 62
7
100
AcDbSpline
 70
8
 71
3
 72
8
 73
4
 74
0
 40
0
 40
0
 40
0
 40
0
 40
1
 40
1
 40
1
 40
1
 10
47.124982
 20
136.628143
 30
0.0
 10
48.135627
 20
137.355747
 30
0.0
 10
49.072813
 20
137.951059
 30
0.0
 10
49.207618
 20
137.951059
 30
0.0
  0
SPLINE
  5
39b
100
AcDbEntity
  8
0
 62
7
100
AcDbSpline
 70
8
 71
3
 72
8
 73
4
 74
0
 40
0
 40
0
 40
0
 40
0
 40
1
 40
1
 40
1
 40
1
 10
49.207618
 20
137.951059
 30
0.0
 10
49.342424
 20
137.951059
 30
0.0
 10
48.617590
 20
137.147387
 30
0.0
 10
47.596875
 20
136.165122
 30
0.0
  0
SPLINE
  5
39c
100
AcDbEntity
  8
0
 62
7
100
AcDbSpline
 70
8
 71
3
 72
8
 73
4
 74
0
 40
0
 40
0
 40
0
 40
0
 40
1
 40
1
 40
1
 40
1
 10
47.596875
 20
136.165122
 30
0.0
 10
45.620826
 20
134.263508
 30
0.0
 10
45.207515
 20
133.523130
 30
0.0
 10
45.655116
 20
132.686780
 30
0.0
  0
SPLINE
  5
39d
100
AcDbEntity
  8
0
 62
7
100
AcDbSpline
 70
8
 71
3
 72
8
 73
4
 74
0
 40
0
 40
0
 40
0
 40
0
 40
1
 40
1
 40
1
 40
1
 10
45.655116
 20
132.686780
 30
0.0
 10
45.808699
 20
132.399810
 30
0.0
 10
45.934357
 20
131.743212
 30
0.0
 10
45.934357
 20
131.227677
 30
0.0
  0
SPLINE
  5
39e
100
AcDbEntity
  8
0
 62
7
100
AcDbSpline
 70
8
 71
3
 72
8
 73
4
 74
0
 40
0
 40
0
 40
0
 40
0
 40
1
 40
1
 40
1
 40
1
 10
45.934357
 20
131.227677
 30
0.0
 10
45.934357
 20
130.505967
 30
0.0
 10
45.773271
 20
130.184792
 30
0.0
 10
45.234101
 20
129.831515
 30
0.0
  0
SPLINE
  5
39f
100
AcDbEntity
  8
0
 62
7
100
AcDbSpline
 70
8
 71
3
 72
8
 73
4
 74
0
 40
0
 40
0
 40
0
 40
0
 40
1
 40
1
 40
1
 40
1
 10
45.234101
 20
129.831515
 30
0.0
 10
44.209168
 20
129.159955
 30
0.0
 10
43.023941
 20
127.400140
 30
0.0
 10
43.023941
 20
126.549893
 30
0.0
  0
SPLINE
  5
3a0
100
AcDbEntity
  8
0
 62
7
100
AcDbSpline
 70
8
 71
3
 72
8
 73
4
 74
0
 40
0
 40
0
 40
0
 40
0
 40
1
 40
1
 40
1
 40
1
 10
43.023941
 20
126.549893
 30
0.0
 10
43.023941
 20
126.143753
 30
0.0
 10
42.904878
 20
125.737871
 30
0.0
 10
42.759357
 20
125.647934
 30
0.0
  0
SPLINE
  5
3a1
100
AcDbEntity
  8
0
 62
7
100
AcDbSpline
 70
8
 71
3
 72
8
 73
4
 74
0
 40
0
 40
0
 40
0
 40
0
 40
1
 40
1
 40
1
 40
1
 10
42.759357
 20
125.647934
 30
0.0
 10
42.595260
 20
125.546517
 30
0.0
 10
42.494774
 20
126.035205
 30
0.0
 10
42.494774
 20
126.934666
 30
0.0
  0
LWPOLYLINE
  5
3a2
100
AcDbEntity
  8
0
 62
7
100
AcDbPolyline
 90
3
 70
0
 10
40.386177
 20
138.281788
 30
0.0
 10
40.710596
 20
139.141684
 30
0.0
 10
41.037867
 20
138.083351
 30
0.0
  0
SPLINE
  5
3a3
100
AcDbEntity
  8
0
 62
7
100
AcDbSpline
 70
8
 71
3
 72
8
 73
4
 74
0
 40
0
 40
0
 40
0
 40
0
 40
1
 40
1
 40
1
 40
1
 10
52.813524
 20
126.810251
 30
0.0
 10
52.813524
 20
126.940204
 30
0.0
 10
52.992118
 20
127.115059
 30
0.0
 10
53.210399
 20
127.198824
 30
0.0
  0
SPLINE
  5
3a4
100
AcDbEntity
  8
0
 62
7
100
AcDbSpline
 70
8
 71
3
 72
8
 73
4
 74
0
 40
0
 40
0
 40
0
 40
0
 40
1
 40
1
 40
1
 40
1
 10
53.210399
 20
127.198824
 30
0.0
 10
53.739889
 20
127.402008
 30
0.0
 10
53.748787
 20
130.221038
 30
0.0
 10
53.223893
 20
131.477266
 30
0.0
  0
SPLINE
  5
3a5
100
AcDbEntity
  8
0
 62
7
100
AcDbSpline
 70
8
 71
3
 72
8
 73
4
 74
0
 40
0
 40
0
 40
0
 40
0
 40
1
 40
1
 40
1
 40
1
 10
53.223893
 20
131.477266
 30
0.0
 10
52.737165
 20
132.642168
 30
0.0
 10
51.842477
 20
132.747192
 30
0.0
 10
51.605834
 20
131.667205
 30
0.0
  0
SPLINE
  5
3a6
100
AcDbEntity
  8
0
 62
7
100
AcDbSpline
 70
8
 71
3
 72
8
 73
4
 74
0
 40
0
 40
0
 40
0
 40
0
 40
1
 40
1
 40
1
 40
1
 10
51.605834
 20
131.667205
 30
0.0
 10
51.518145
 20
131.267023
 30
0.0
 10
51.403491
 20
130.798432
 30
0.0
 10
51.351045
 20
130.625892
 30
0.0
  0
SPLINE
  5
3a7
100
AcDbEntity
  8
0
 62
7
100
AcDbSpline
 70
8
 71
3
 72
8
 73
4
 74
0
 40
0
 40
0
 40
0
 40
0
 40
1
 40
1
 40
1
 40
1
 10
51.351045
 20
130.625892
 30
0.0
 10
51.221963
 20
130.201236
 30
0.0
 10
48.555389
 20
128.425043
 30
0.0
 10
48.054548
 20
128.430110
 30
0.0
  0
SPLINE
  5
3a8
100
AcDbEntity
  8
0
 62
7
100
AcDbSpline
 70
8
 71
3
 72
8
 73
4
 74
0
 40
0
 40
0
 40
0
 40
0
 40
1
 40
1
 40
1
 40
1
 10
48.054548
 20
128.430110
 30
0.0
 10
47.834325
 20
128.432227
 30
0.0
 10
47.483313
 20
128.542259
 30
0.0
 10
47.274520
 20
128.674379
 30
0.0
  0
SPLINE
  5
3a9
100
AcDbEntity
  8
0
 62
7
100
AcDbSpline
 70
8
 71
3
 72
8
 73
4
 74
0
 40
0
 40
0
 40
0
 40
0
 40
1
 40
1
 40
1
 40
1
 10
47.274520
 20
128.674379
 30
0.0
 10
46.984396
 20
128.857965
 30
0.0
 10
47.178754
 20
129.052503
 30
0.0
 10
48.098932
 20
129.499561
 30
0.0
  0
SPLINE
  5
3aa
100
AcDbEntity
  8
0
 62
7
100
AcDbSpline
 70
8
 71
3
 72
8
 73
4
 74
0
 40
0
 40
0
 40
0
 40
0
 40
1
 40
1
 40
1
 40
1
 10
48.098932
 20
129.499561
 30
0.0
 10
48.949036
 20
129.912573
 30
0.0
 10
49.473305
 20
130.404640
 30
0.0
 10
49.882441
 20
131.173522
 30
0.0
  0
SPLINE
  5
3ab
100
AcDbEntity
  8
0
 62
7
100
AcDbSpline
 70
8
 71
3
 72
8
 73
4
 74
0
 40
0
 40
0
 40
0
 40
0
 40
1
 40
1
 40
1
 40
1
 10
49.882441
 20
131.173522
 30
0.0
 10
50.201150
 20
131.772469
 30
0.0
 10
50.817351
 20
132.882672
 30
0.0
 10
51.251779
 20
133.640640
 30
0.0
  0
SPLINE
  5
3ac
100
AcDbEntity
  8
0
 62
7
100
AcDbSpline
 70
8
 71
3
 72
8
 73
4
 74
0
 40
0
 40
0
 40
0
 40
0
 40
1
 40
1
 40
1
 40
1
 10
51.251779
 20
133.640640
 30
0.0
 10
52.032551
 20
135.002894
 30
0.0
 10
52.047534
 20
135.012875
 30
0.0
 10
52.553142
 20
134.507266
 30
0.0
  0
SPLINE
  5
3ad
100
AcDbEntity
  8
0
 62
7
100
AcDbSpline
 70
8
 71
3
 72
8
 73
4
 74
0
 40
0
 40
0
 40
0
 40
0
 40
1
 40
1
 40
1
 40
1
 10
52.553142
 20
134.507266
 30
0.0
 10
53.248145
 20
133.812264
 30
0.0
 10
54.300520
 20
133.586998
 30
0.0
 10
55.116177
 20
133.958634
 30
0.0
  0
SPLINE
  5
3ae
100
AcDbEntity
  8
0
 62
7
100
AcDbSpline
 70
8
 71
3
 72
8
 73
4
 74
0
 40
0
 40
0
 40
0
 40
0
 40
1
 40
1
 40
1
 40
1
 10
55.116177
 20
133.958634
 30
0.0
 10
55.488052
 20
134.128073
 30
0.0
 10
55.828340
 20
134.230679
 30
0.0
 10
55.872372
 20
134.186647
 30
0.0
  0
SPLINE
  5
3af
100
AcDbEntity
  8
0
 62
7
100
AcDbSpline
 70
8
 71
3
 72
8
 73
4
 74
0
 40
0
 40
0
 40
0
 40
0
 40
1
 40
1
 40
1
 40
1
 10
55.872372
 20
134.186647
 30
0.0
 10
55.916404
 20
134.142615
 30
0.0
 10
55.601785
 20
133.334485
 30
0.0
 10
55.173216
 20
132.390803
 30
0.0
  0
SPLINE
  5
3b0
100
AcDbEntity
  8
0
 62
7
100
AcDbSpline
 70
8
 71
3
 72
8
 73
4
 74
0
 40
0
 40
0
 40
0
 40
0
 40
1
 40
1
 40
1
 40
1
 10
55.173216
 20
132.390803
 30
0.0
 10
54.477198
 20
130.858207
 30
0.0
 10
54.411004
 20
130.487973
 30
0.0
 10
54.553234
 20
128.923132
 30
0.0
  0
LWPOLYLINE
  5
3b1
100
AcDbEntity
  8
0
 62
7
100
AcDbPolyline
 90
1
 70
1
 10
42.494774
 20
126.934666
 30
0.0
  0
SPLINE
  5
3b2
100
AcDbEntity
  8
0
 62
7
100
AcDbSpline
 70
8
 71
3
 72
8
 73
4
 74
0
 40
0
 40
0
 40
0
 40
0
 40
1
 40
1
 40
1
 40
1
 10
53.855800
 20
126.872611
 30
0.0
 10
52.824674
 20
126.513156
 30
0.0
 10
52.813524
 20
126.512489
 30
0.0
 10
52.813524
 20
126.810251
 30
0.0
  0
LWPOLYLINE
  5
3b3
100
AcDbEntity
  8
0
 62
7
100
AcDbPolyline
 90
3
 70
0
 10
54.553234
 20
128.923132
 30
0.0
 10
54.712465
 20
127.171246
 30
0.0
 10
53.855800
 20
126.872611
 30
0.0
  0
SPLINE
  5
3b4
100
AcDbEntity
  8
0
 62
7
100
AcDbSpline
 70
8
 71
3
 72
8
 73
4
 74
0
 40
0
 40
0
 40
0
 40
0
 40
1
 40
1
 40
1
 40
1
 10
29.590212
 20
136.165122
 30
0.0
 10
29.334656
 20
136.478904
 30
0.0
 10
28.722492
 20
137.825144
 30
0.0
 10
28.176548
 20
139.273976
 30
0.0
  0
SPLINE
  5
3b5
100
AcDbEntity
  8
0
 62
7
100
AcDbSpline
 70
8
 71
3
 72
8
 73
4
 74
0
 40
0
 40
0
 40
0
 40
0
 40
1
 40
1
 40
1
 40
1
 10
28.176548
 20
139.273976
 30
0.0
 10
27.969946
 20
139.822259
 30
0.0
 10
28.053109
 20
139.778968
 30
0.0
 10
28.662598
 20
139.020952
 30
0.0
  0
SPLINE
  5
3b6
100
AcDbEntity
  8
0
 62
7
100
AcDbSpline
 70
8
 71
3
 72
8
 73
4
 74
0
 40
0
 40
0
 40
0
 40
0
 40
1
 40
1
 40
1
 40
1
 10
28.662598
 20
139.020952
 30
0.0
 10
29.438703
 20
138.055723
 30
0.0
 10
30.417135
 20
135.834393
 30
0.0
 10
30.066184
 20
135.834393
 30
0.0
  0
SPLINE
  5
3b7
100
AcDbEntity
  8
0
 62
7
100
AcDbSpline
 70
8
 71
3
 72
8
 73
4
 74
0
 40
0
 40
0
 40
0
 40
0
 40
1
 40
1
 40
1
 40
1
 10
30.066184
 20
135.834393
 30
0.0
 10
29.952545
 20
135.834393
 30
0.0
 10
29.738357
 20
135.983221
 30
0.0
 10
29.590212
 20
136.165122
 30
0.0
  0
LWPOLYLINE
  5
3b8
100
AcDbEntity
  8
0
 62
7
100
AcDbPolyline
 90
1
 70
1
 10
52.813524
 20
126.810251
 30
0.0
  0
SPLINE
  5
3b9
100
AcDbEntity
  8
0
 62
7
100
AcDbSpline
 70
8
 71
3
 72
8
 73
4
 74
0
 40
0
 40
0
 40
0
 40
0
 40
1
 40
1
 40
1
 40
1
 10
32.176024
 20
137.400049
 30
0.0
 10
32.176024
 20
137.524421
 30
0.0
 10
32.622509
 20
137.830094
 30
0.0
 10
33.168212
 20
138.079321
 30
0.0
  0
SPLINE
  5
3ba
100
AcDbEntity
  8
0
 62
7
100
AcDbSpline
 70
8
 71
3
 72
8
 73
4
 74
0
 40
0
 40
0
 40
0
 40
0
 40
1
 40
1
 40
1
 40
1
 10
33.168212
 20
138.079321
 30
0.0
 10
35.256748
 20
139.033173
 30
0.0
 10
36.310983
 20
139.625816
 30
0.0
 10
37.269253
 20
140.384739
 30
0.0
  0
SPLINE
  5
3bb
100
AcDbEntity
  8
0
 62
7
100
AcDbSpline
 70
8
 71
3
 72
8
 73
4
 74
0
 40
0
 40
0
 40
0
 40
0
 40
1
 40
1
 40
1
 40
1
 10
37.269253
 20
140.384739
 30
0.0
 10
38.333474
 20
141.227572
 30
0.0
 10
38.655458
 20
141.041996
 30
0.0
 10
37.666128
 20
140.156001
 30
0.0
  0
SPLINE
  5
3bc
100
AcDbEntity
  8
0
 62
7
100
AcDbSpline
 70
8
 71
3
 72
8
 73
4
 74
0
 40
0
 40
0
 40
0
 40
0
 40
1
 40
1
 40
1
 40
1
 10
37.666128
 20
140.156001
 30
0.0
 10
37.093633
 20
139.643302
 30
0.0
 10
33.594921
 20
137.683613
 30
0.0
 10
32.639045
 20
137.340242
 30
0.0
  0
SPLINE
  5
3bd
100
AcDbEntity
  8
0
 62
7
100
AcDbSpline
 70
8
 71
3
 72
8
 73
4
 74
0
 40
0
 40
0
 40
0
 40
0
 40
1
 40
1
 40
1
 40
1
 10
32.639045
 20
137.340242
 30
0.0
 10
32.384384
 20
137.248762
 30
0.0
 10
32.176024
 20
137.275676
 30
0.0
 10
32.176024
 20
137.400049
 30
0.0
  0
LWPOLYLINE
  5
3be
100
AcDbEntity
  8
0
 62
7
100
AcDbPolyline
 90
1
 70
1
 10
29.590212
 20
136.165122
 30
0.0
  0
SPLINE
  5
3bf
100
AcDbEntity
  8
0
 62
7
100
AcDbSpline
 70
8
 71
3
 72
8
 73
4
 74
0
 40
0
 40
0
 40
0
 40
0
 40
1
 40
1
 40
1
 40
1
 10
53.124563
 20
139.447606
 30
0.0
 10
51.589808
 20
141.243116
 30
0.0
 10
48.475725
 20
146.682309
 30
0.0
 10
48.982503
 20
146.682309
 30
0.0
  0
SPLINE
  5
3c0
100
AcDbEntity
  8
0
 62
7
100
AcDbSpline
 70
8
 71
3
 72
8
 73
4
 74
0
 40
0
 40
0
 40
0
 40
0
 40
1
 40
1
 40
1
 40
1
 10
48.982503
 20
146.682309
 30
0.0
 10
49.148130
 20
146.682309
 30
0.0
 10
51.634911
 20
142.949425
 30
0.0
 10
52.447518
 20
141.481008
 30
0.0
  0
SPLINE
  5
3c1
100
AcDbEntity
  8
0
 62
7
100
AcDbSpline
 70
8
 71
3
 72
8
 73
4
 74
0
 40
0
 40
0
 40
0
 40
0
 40
1
 40
1
 40
1
 40
1
 10
52.447518
 20
141.481008
 30
0.0
 10
52.837405
 20
140.776463
 30
0.0
 10
53.495977
 20
139.808921
 30
0.0
 10
53.911005
 20
139.330914
 30
0.0
  0
SPLINE
  5
3c2
100
AcDbEntity
  8
0
 62
7
100
AcDbSpline
 70
8
 71
3
 72
8
 73
4
 74
0
 40
0
 40
0
 40
0
 40
0
 40
1
 40
1
 40
1
 40
1
 10
53.911005
 20
139.330914
 30
0.0
 10
54.720109
 20
138.399044
 30
0.0
 10
54.804075
 20
138.215643
 30
0.0
 10
54.421611
 20
138.215643
 30
0.0
  0
SPLINE
  5
3c3
100
AcDbEntity
  8
0
 62
7
100
AcDbSpline
 70
8
 71
3
 72
8
 73
4
 74
0
 40
0
 40
0
 40
0
 40
0
 40
1
 40
1
 40
1
 40
1
 10
54.421611
 20
138.215643
 30
0.0
 10
54.287412
 20
138.215643
 30
0.0
 10
53.703741
 20
138.770027
 30
0.0
 10
53.124563
 20
139.447606
 30
0.0
  0
LWPOLYLINE
  5
3c4
100
AcDbEntity
  8
0
 62
7
100
AcDbPolyline
 90
1
 70
1
 10
32.176024
 20
137.400049
 30
0.0
  0
SPLINE
  5
3c5
100
AcDbEntity
  8
0
 62
7
100
AcDbSpline
 70
8
 71
3
 72
8
 73
4
 74
0
 40
0
 40
0
 40
0
 40
0
 40
1
 40
1
 40
1
 40
1
 10
51.109269
 20
138.984257
 30
0.0
 10
50.738585
 20
139.584036
 30
0.0
 10
48.303206
 20
140.380474
 30
0.0
 10
44.941061
 20
141.001440
 30
0.0
  0
SPLINE
  5
3c6
100
AcDbEntity
  8
0
 62
7
100
AcDbSpline
 70
8
 71
3
 72
8
 73
4
 74
0
 40
0
 40
0
 40
0
 40
0
 40
1
 40
1
 40
1
 40
1
 10
44.941061
 20
141.001440
 30
0.0
 10
42.996670
 20
141.360557
 30
0.0
 10
41.105862
 20
141.811534
 30
0.0
 10
40.739269
 20
142.003611
 30
0.0
  0
SPLINE
  5
3c7
100
AcDbEntity
  8
0
 62
7
100
AcDbSpline
 70
8
 71
3
 72
8
 73
4
 74
0
 40
0
 40
0
 40
0
 40
0
 40
1
 40
1
 40
1
 40
1
 10
40.739269
 20
142.003611
 30
0.0
 10
40.086182
 20
142.345796
 30
0.0
 10
40.103843
 20
142.361576
 30
0.0
 10
41.614484
 20
142.785626
 30
0.0
  0
SPLINE
  5
3c8
100
AcDbEntity
  8
0
 62
7
100
AcDbSpline
 70
8
 71
3
 72
8
 73
4
 74
0
 40
0
 40
0
 40
0
 40
0
 40
1
 40
1
 40
1
 40
1
 10
41.614484
 20
142.785626
 30
0.0
 10
42.462445
 20
143.023659
 30
0.0
 10
43.472156
 20
143.282794
 30
0.0
 10
43.858283
 20
143.361487
 30
0.0
  0
SPLINE
  5
3c9
100
AcDbEntity
  8
0
 62
7
100
AcDbSpline
 70
8
 71
3
 72
8
 73
4
 74
0
 40
0
 40
0
 40
0
 40
0
 40
1
 40
1
 40
1
 40
1
 10
43.858283
 20
143.361487
 30
0.0
 10
44.549150
 20
143.502285
 30
0.0
 10
44.563363
 20
143.549042
 30
0.0
 10
44.750675
 20
146.297139
 30
0.0
  0
SPLINE
  5
3ca
100
AcDbEntity
  8
0
 62
7
100
AcDbSpline
 70
8
 71
3
 72
8
 73
4
 74
0
 40
0
 40
0
 40
0
 40
0
 40
1
 40
1
 40
1
 40
1
 10
44.750675
 20
146.297139
 30
0.0
 10
44.855363
 20
147.833059
 30
0.0
 10
44.874381
 20
149.500349
 30
0.0
 10
44.792934
 20
150.002235
 30
0.0
  0
SPLINE
  5
3cb
100
AcDbEntity
  8
0
 62
7
100
AcDbSpline
 70
8
 71
3
 72
8
 73
4
 74
0
 40
0
 40
0
 40
0
 40
0
 40
1
 40
1
 40
1
 40
1
 10
44.792934
 20
150.002235
 30
0.0
 10
44.675433
 20
150.726320
 30
0.0
 10
44.782986
 20
151.078898
 30
0.0
 10
45.313722
 20
151.709657
 30
0.0
  0
SPLINE
  5
3cc
100
AcDbEntity
  8
0
 62
7
100
AcDbSpline
 70
8
 71
3
 72
8
 73
4
 74
0
 40
0
 40
0
 40
0
 40
0
 40
1
 40
1
 40
1
 40
1
 10
45.313722
 20
151.709657
 30
0.0
 10
46.112337
 20
152.658757
 30
0.0
 10
46.534597
 20
152.513244
 30
0.0
 10
46.334103
 20
151.358031
 30
0.0
  0
SPLINE
  5
3cd
100
AcDbEntity
  8
0
 62
7
100
AcDbSpline
 70
8
 71
3
 72
8
 73
4
 74
0
 40
0
 40
0
 40
0
 40
0
 40
1
 40
1
 40
1
 40
1
 10
46.334103
 20
151.358031
 30
0.0
 10
46.102302
 20
150.022438
 30
0.0
 10
48.232356
 20
144.504272
 30
0.0
 10
50.321218
 20
141.028915
 30
0.0
  0
SPLINE
  5
3ce
100
AcDbEntity
  8
0
 62
7
100
AcDbSpline
 70
8
 71
3
 72
8
 73
4
 74
0
 40
0
 40
0
 40
0
 40
0
 40
1
 40
1
 40
1
 40
1
 10
50.321218
 20
141.028915
 30
0.0
 10
50.997861
 20
139.903147
 30
0.0
 10
51.490171
 20
138.920762
 30
0.0
 10
51.415244
 20
138.845835
 30
0.0
  0
SPLINE
  5
3cf
100
AcDbEntity
  8
0
 62
7
100
AcDbSpline
 70
8
 71
3
 72
8
 73
4
 74
0
 40
0
 40
0
 40
0
 40
0
 40
1
 40
1
 40
1
 40
1
 10
51.415244
 20
138.845835
 30
0.0
 10
51.340316
 20
138.770908
 30
0.0
 10
51.202627
 20
138.833188
 30
0.0
 10
51.109269
 20
138.984257
 30
0.0
  0
LWPOLYLINE
  5
3d0
100
AcDbEntity
  8
0
 62
7
100
AcDbPolyline
 90
1
 70
1
 10
53.124563
 20
139.447606
 30
0.0
  0
SPLINE
  5
3d1
100
AcDbEntity
  8
0
 62
7
100
AcDbSpline
 70
8
 71
3
 72
8
 73
4
 74
0
 40
0
 40
0
 40
0
 40
0
 40
1
 40
1
 40
1
 40
1
 10
32.294293
 20
140.034349
 30
0.0
 10
31.719922
 20
140.452552
 30
0.0
 10
30.952326
 20
140.883513
 30
0.0
 10
30.588524
 20
140.992040
 30
0.0
  0
SPLINE
  5
3d2
100
AcDbEntity
  8
0
 62
7
100
AcDbSpline
 70
8
 71
3
 72
8
 73
4
 74
0
 40
0
 40
0
 40
0
 40
0
 40
1
 40
1
 40
1
 40
1
 10
30.588524
 20
140.992040
 30
0.0
 10
29.032044
 20
141.456349
 30
0.0
 10
27.764825
 20
142.580680
 30
0.0
 10
26.795881
 20
144.357029
 30
0.0
  0
SPLINE
  5
3d3
100
AcDbEntity
  8
0
 62
7
100
AcDbSpline
 70
8
 71
3
 72
8
 73
4
 74
0
 40
0
 40
0
 40
0
 40
0
 40
1
 40
1
 40
1
 40
1
 10
26.795881
 20
144.357029
 30
0.0
 10
25.787967
 20
146.204829
 30
0.0
 10
25.591787
 20
147.341524
 30
0.0
 10
26.156754
 20
148.060233
 30
0.0
  0
SPLINE
  5
3d4
100
AcDbEntity
  8
0
 62
7
100
AcDbSpline
 70
8
 71
3
 72
8
 73
4
 74
0
 40
0
 40
0
 40
0
 40
0
 40
1
 40
1
 40
1
 40
1
 10
26.156754
 20
148.060233
 30
0.0
 10
26.633466
 20
148.666668
 30
0.0
 10
27.459940
 20
148.837407
 30
0.0
 10
28.103756
 20
148.462455
 30
0.0
  0
SPLINE
  5
3d5
100
AcDbEntity
  8
0
 62
7
100
AcDbSpline
 70
8
 71
3
 72
8
 73
4
 74
0
 40
0
 40
0
 40
0
 40
0
 40
1
 40
1
 40
1
 40
1
 10
28.103756
 20
148.462455
 30
0.0
 10
29.923923
 20
147.402407
 30
0.0
 10
31.964646
 20
146.431468
 30
0.0
 10
33.234357
 20
146.021404
 30
0.0
  0
SPLINE
  5
3d6
100
AcDbEntity
  8
0
 62
7
100
AcDbSpline
 70
8
 71
3
 72
8
 73
4
 74
0
 40
0
 40
0
 40
0
 40
0
 40
1
 40
1
 40
1
 40
1
 10
33.234357
 20
146.021404
 30
0.0
 10
34.943158
 20
145.469533
 30
0.0
 10
36.282683
 20
144.798788
 30
0.0
 10
37.203107
 20
144.034110
 30
0.0
  0
LWPOLYLINE
  5
3d7
100
AcDbEntity
  8
0
 62
7
100
AcDbPolyline
 90
1
 70
1
 10
51.109269
 20
138.984257
 30
0.0
  0
SPLINE
  5
3d8
100
AcDbEntity
  8
0
 62
7
100
AcDbSpline
 70
8
 71
3
 72
8
 73
4
 74
0
 40
0
 40
0
 40
0
 40
0
 40
1
 40
1
 40
1
 40
1
 10
36.856913
 20
143.885780
 30
0.0
 10
36.302707
 20
144.106440
 30
0.0
 10
35.551330
 20
144.521333
 30
0.0
 10
35.187191
 20
144.807765
 30
0.0
  0
SPLINE
  5
3d9
100
AcDbEntity
  8
0
 62
7
100
AcDbSpline
 70
8
 71
3
 72
8
 73
4
 74
0
 40
0
 40
0
 40
0
 40
0
 40
1
 40
1
 40
1
 40
1
 10
35.187191
 20
144.807765
 30
0.0
 10
34.823053
 20
145.094198
 30
0.0
 10
33.890855
 20
145.460225
 30
0.0
 10
33.115642
 20
145.621158
 30
0.0
  0
SPLINE
  5
3da
100
AcDbEntity
  8
0
 62
7
100
AcDbSpline
 70
8
 71
3
 72
8
 73
4
 74
0
 40
0
 40
0
 40
0
 40
0
 40
1
 40
1
 40
1
 40
1
 10
33.115642
 20
145.621158
 30
0.0
 10
32.340428
 20
145.782091
 30
0.0
 10
31.008209
 20
146.335806
 30
0.0
 10
30.155155
 20
146.851635
 30
0.0
  0
SPLINE
  5
3db
100
AcDbEntity
  8
0
 62
7
100
AcDbSpline
 70
8
 71
3
 72
8
 73
4
 74
0
 40
0
 40
0
 40
0
 40
0
 40
1
 40
1
 40
1
 40
1
 10
30.155155
 20
146.851635
 30
0.0
 10
28.263263
 20
147.995632
 30
0.0
 10
27.148105
 20
148.231177
 30
0.0
 10
26.533528
 20
147.616598
 30
0.0
  0
SPLINE
  5
3dc
100
AcDbEntity
  8
0
 62
7
100
AcDbSpline
 70
8
 71
3
 72
8
 73
4
 74
0
 40
0
 40
0
 40
0
 40
0
 40
1
 40
1
 40
1
 40
1
 10
26.533528
 20
147.616598
 30
0.0
 10
25.980460
 20
147.063531
 30
0.0
 10
25.976441
 20
146.605998
 30
0.0
 10
26.514690
 20
145.471743
 30
0.0
  0
SPLINE
  5
3dd
100
AcDbEntity
  8
0
 62
7
100
AcDbSpline
 70
8
 71
3
 72
8
 73
4
 74
0
 40
0
 40
0
 40
0
 40
0
 40
1
 40
1
 40
1
 40
1
 10
26.514690
 20
145.471743
 30
0.0
 10
27.124366
 20
144.186942
 30
0.0
 10
28.788842
 20
142.788592
 30
0.0
 10
30.110520
 20
142.450836
 30
0.0
  0
SPLINE
  5
3de
100
AcDbEntity
  8
0
 62
7
100
AcDbSpline
 70
8
 71
3
 72
8
 73
4
 74
0
 40
0
 40
0
 40
0
 40
0
 40
1
 40
1
 40
1
 40
1
 10
30.110520
 20
142.450836
 30
0.0
 10
32.193738
 20
141.918465
 30
0.0
 10
32.721613
 20
141.601973
 30
0.0
 10
33.248314
 20
140.569558
 30
0.0
  0
SPLINE
  5
3df
100
AcDbEntity
  8
0
 62
7
100
AcDbSpline
 70
8
 71
3
 72
8
 73
4
 74
0
 40
0
 40
0
 40
0
 40
0
 40
1
 40
1
 40
1
 40
1
 10
33.248314
 20
140.569558
 30
0.0
 10
34.060686
 20
138.977174
 30
0.0
 10
33.883089
 20
138.877540
 30
0.0
 10
32.294303
 20
140.034349
 30
0.0
  0
LWPOLYLINE
  5
3e0
100
AcDbEntity
  8
0
 62
7
100
AcDbPolyline
 90
3
 70
0
 10
37.203107
 20
144.034110
 30
0.0
 10
37.864566
 20
143.484579
 30
0.0
 10
36.856913
 20
143.885780
 30
0.0
  0
SPLINE
  5
3e1
100
AcDbEntity
  8
0
 62
7
100
AcDbSpline
 70
8
 71
3
 72
8
 73
4
 74
0
 40
0
 40
0
 40
0
 40
0
 40
1
 40
1
 40
1
 40
1
 10
26.517240
 20
142.614060
 30
0.0
 10
26.282593
 20
143.302715
 30
0.0
 10
26.101467
 20
144.053309
 30
0.0
 10
26.114741
 20
144.282046
 30
0.0
  0
SPLINE
  5
3e2
100
AcDbEntity
  8
0
 62
7
100
AcDbSpline
 70
8
 71
3
 72
8
 73
4
 74
0
 40
0
 40
0
 40
0
 40
0
 40
1
 40
1
 40
1
 40
1
 10
26.114741
 20
144.282046
 30
0.0
 10
26.128023
 20
144.510784
 30
0.0
 10
26.361266
 20
143.988605
 30
0.0
 10
26.633075
 20
143.121647
 30
0.0
  0
SPLINE
  5
3e3
100
AcDbEntity
  8
0
 62
7
100
AcDbSpline
 70
8
 71
3
 72
8
 73
4
 74
0
 40
0
 40
0
 40
0
 40
0
 40
1
 40
1
 40
1
 40
1
 10
26.633075
 20
143.121647
 30
0.0
 10
27.222865
 20
141.240460
 30
0.0
 10
27.127565
 20
140.822855
 30
0.0
 10
26.517240
 20
142.614060
 30
0.0
  0
LWPOLYLINE
  5
3e4
100
AcDbEntity
  8
0
 62
7
100
AcDbPolyline
 90
1
 70
1
 10
32.294303
 20
140.034349
 30
0.0
  0
SPLINE
  5
3e5
100
AcDbEntity
  8
0
 62
7
100
AcDbSpline
 70
8
 71
3
 72
8
 73
4
 74
0
 40
0
 40
0
 40
0
 40
0
 40
1
 40
1
 40
1
 40
1
 10
50.858851
 20
152.734904
 30
0.0
 10
50.611799
 20
153.007896
 30
0.0
 10
49.875525
 20
154.525943
 30
0.0
 10
49.222686
 20
156.108342
 30
0.0
  0
SPLINE
  5
3e6
100
AcDbEntity
  8
0
 62
7
100
AcDbSpline
 70
8
 71
3
 72
8
 73
4
 74
0
 40
0
 40
0
 40
0
 40
0
 40
1
 40
1
 40
1
 40
1
 10
49.222686
 20
156.108342
 30
0.0
 10
48.569848
 20
157.690743
 30
0.0
 10
47.922532
 20
159.188274
 30
0.0
 10
47.784202
 20
159.436189
 30
0.0
  0
SPLINE
  5
3e7
100
AcDbEntity
  8
0
 62
7
100
AcDbSpline
 70
8
 71
3
 72
8
 73
4
 74
0
 40
0
 40
0
 40
0
 40
0
 40
1
 40
1
 40
1
 40
1
 10
47.784202
 20
159.436189
 30
0.0
 10
47.619954
 20
159.730551
 30
0.0
 10
47.628720
 20
159.946290
 30
0.0
 10
47.809470
 20
160.057997
 30
0.0
  0
SPLINE
  5
3e8
100
AcDbEntity
  8
0
 62
7
100
AcDbSpline
 70
8
 71
3
 72
8
 73
4
 74
0
 40
0
 40
0
 40
0
 40
0
 40
1
 40
1
 40
1
 40
1
 10
47.809470
 20
160.057997
 30
0.0
 10
48.182107
 20
160.288298
 30
0.0
 10
48.117810
 20
160.418476
 30
0.0
 10
49.253995
 20
157.133351
 30
0.0
  0
SPLINE
  5
3e9
100
AcDbEntity
  8
0
 62
7
100
AcDbSpline
 70
8
 71
3
 72
8
 73
4
 74
0
 40
0
 40
0
 40
0
 40
0
 40
1
 40
1
 40
1
 40
1
 10
49.253995
 20
157.133351
 30
0.0
 10
49.807619
 20
155.532622
 30
0.0
 10
50.458288
 20
153.925278
 30
0.0
 10
50.699924
 20
153.561476
 30
0.0
  0
SPLINE
  5
3ea
100
AcDbEntity
  8
0
 62
7
100
AcDbSpline
 70
8
 71
3
 72
8
 73
4
 74
0
 40
0
 40
0
 40
0
 40
0
 40
1
 40
1
 40
1
 40
1
 10
50.699924
 20
153.561476
 30
0.0
 10
51.639835
 20
152.146376
 30
0.0
 10
51.706843
 20
151.797893
 30
0.0
 10
50.858859
 20
152.734904
 30
0.0
  0
LWPOLYLINE
  5
3eb
100
AcDbEntity
  8
0
 62
7
100
AcDbPolyline
 90
1
 70
1
 10
26.517240
 20
142.614060
 30
0.0
  0
SPLINE
  5
3ec
100
AcDbEntity
  8
0
 62
7
100
AcDbSpline
 70
8
 71
3
 72
8
 73
4
 74
0
 40
0
 40
0
 40
0
 40
0
 40
1
 40
1
 40
1
 40
1
 10
57.840607
 20
155.506851
 30
0.0
 10
57.840607
 20
156.080793
 30
0.0
 10
58.781138
 20
157.131372
 30
0.0
 10
60.221122
 20
158.165898
 30
0.0
  0
SPLINE
  5
3ed
100
AcDbEntity
  8
0
 62
7
100
AcDbSpline
 70
8
 71
3
 72
8
 73
4
 74
0
 40
0
 40
0
 40
0
 40
0
 40
1
 40
1
 40
1
 40
1
 10
60.221122
 20
158.165898
 30
0.0
 10
61.660416
 20
159.199927
 30
0.0
 10
61.851828
 20
159.041862
 30
0.0
 10
61.161401
 20
157.389436
 30
0.0
  0
SPLINE
  5
3ee
100
AcDbEntity
  8
0
 62
7
100
AcDbSpline
 70
8
 71
3
 72
8
 73
4
 74
0
 40
0
 40
0
 40
0
 40
0
 40
1
 40
1
 40
1
 40
1
 10
61.161401
 20
157.389436
 30
0.0
 10
60.950544
 20
156.884788
 30
0.0
 10
60.590991
 20
156.471893
 30
0.0
 10
60.362391
 20
156.471893
 30
0.0
  0
SPLINE
  5
3ef
100
AcDbEntity
  8
0
 62
7
100
AcDbSpline
 70
8
 71
3
 72
8
 73
4
 74
0
 40
0
 40
0
 40
0
 40
0
 40
1
 40
1
 40
1
 40
1
 10
60.362391
 20
156.471893
 30
0.0
 10
60.133794
 20
156.471893
 30
0.0
 10
59.472875
 20
156.172741
 30
0.0
 10
58.893684
 20
155.807116
 30
0.0
  0
SPLINE
  5
3f0
100
AcDbEntity
  8
0
 62
7
100
AcDbSpline
 70
8
 71
3
 72
8
 73
4
 74
0
 40
0
 40
0
 40
0
 40
0
 40
1
 40
1
 40
1
 40
1
 10
58.893684
 20
155.807116
 30
0.0
 10
58.144468
 20
155.334158
 30
0.0
 10
57.840607
 20
155.247517
 30
0.0
 10
57.840607
 20
155.506851
 30
0.0
  0
LWPOLYLINE
  5
3f1
100
AcDbEntity
  8
0
 62
7
100
AcDbPolyline
 90
1
 70
1
 10
50.858859
 20
152.734904
 30
0.0
  0
LWPOLYLINE
  5
3f2
100
AcDbEntity
  8
0
 62
7
100
AcDbPolyline
 90
1
 70
1
 10
57.840607
 20
155.506851
 30
0.0
  0
ENDSEC
  0
SECTION
  2
OBJECTS
  0
DICTIONARY
  5
C
330
0
100
AcDbDictionary
  3
ACAD_GROUP
350
D
  3
ACAD_MLINESTYLE
350
17
  0
DICTIONARY
  5
D
330
C
100
AcDbDictionary
  0
DICTIONARY
  5
1A
330
C
100
AcDbDictionary
  0
DICTIONARY
  5
17
330
C
100
AcDbDictionary
  3
STANDARD
350
18
  0
DICTIONARY
  5
19
330
C
100
AcDbDictionary
  0
ENDSEC
  0
EOF
