  0
SECTION
  2
HEADER
  9
$ACADVER
  1
AC1024
  9
$ACADMAINTVER
 70
     6
  9
$DWGCODEPAGE
  3
ANSI_1252
  9
$INSBASE
 10
0.0
 20
0.0
 30
0.0
  9
$EXTMIN
 10
1.000000000000000E+20
 20
1.000000000000000E+20
 30
1.000000000000000E+20
  9
$EXTMAX
 10
-1.000000000000000E+20
 20
-1.000000000000000E+20
 30
-1.000000000000000E+20
  9
$LIMMIN
 10
0.0
 20
0.0
  9
$LIMMAX
 10
12.0
 20
9.0
  9
$ORTHOMODE
 70
     0
  9
$REGENMODE
 70
     1
  9
$FILLMODE
 70
     1
  9
$QTEXTMODE
 70
     0
  9
$MIRRTEXT
 70
     1
  9
$LTSCALE
 40
1.0
  9
$ATTMODE
 70
     1
  9
$TEXTSIZE
 40
0.2
  9
$TRACEWID
 40
0.05
  9
$TEXTSTYLE
  7
Standard
  9
$CLAYER
  8
0
  9
$CELTYPE
  6
ByLayer
  9
$CECOLOR
 62
   256
  9
$CELTSCALE
 40
1.0
  9
$DISPSILH
 70
     0
  9
$DIMSCALE
 40
1.0
  9
$DIMASZ
 40
0.18
  9
$DIMEXO
 40
0.0625
  9
$DIMDLI
 40
0.38
  9
$DIMRND
 40
0.0
  9
$DIMDLE
 40
0.0
  9
$DIMEXE
 40
0.18
  9
$DIMTP
 40
0.0
  9
$DIMTM
 40
0.0
  9
$DIMTXT
 40
0.18
  9
$DIMCEN
 40
0.09
  9
$DIMTSZ
 40
0.0
  9
$DIMTOL
 70
     0
  9
$DIMLIM
 70
     0
  9
$DIMTIH
 70
     1
  9
$DIMTOH
 70
     1
  9
$DIMSE1
 70
     0
  9
$DIMSE2
 70
     0
  9
$DIMTAD
 70
     0
  9
$DIMZIN
 70
     0
  9
$DIMBLK
  1

  9
$DIMASO
 70
     1
  9
$DIMSHO
 70
     1
  9
$DIMPOST
  1

  9
$DIMAPOST
  1

  9
$DIMALT
 70
     0
  9
$DIMALTD
 70
     2
  9
$DIMALTF
 40
25.4
  9
$DIMLFAC
 40
1.0
  9
$DIMTOFL
 70
     0
  9
$DIMTVP
 40
0.0
  9
$DIMTIX
 70
     0
  9
$DIMSOXD
 70
     0
  9
$DIMSAH
 70
     0
  9
$DIMBLK1
  1

  9
$DIMBLK2
  1

  9
$DIMSTYLE
  2
Standard
  9
$DIMCLRD
 70
     0
  9
$DIMCLRE
 70
     0
  9
$DIMCLRT
 70
     0
  9
$DIMTFAC
 40
1.0
  9
$DIMGAP
 40
0.09
  9
$DIMJUST
 70
     0
  9
$DIMSD1
 70
     0
  9
$DIMSD2
 70
     0
  9
$DIMTOLJ
 70
     1
  9
$DIMTZIN
 70
     0
  9
$DIMALTZ
 70
     0
  9
$DIMALTTZ
 70
     0
  9
$DIMUPT
 70
     0
  9
$DIMDEC
 70
     4
  9
$DIMTDEC
 70
     4
  9
$DIMALTU
 70
     2
  9
$DIMALTTD
 70
     2
  9
$DIMTXSTY
  7
Standard
  9
$DIMAUNIT
 70
     0
  9
$DIMADEC
 70
     0
  9
$DIMALTRND
 40
0.0
  9
$DIMAZIN
 70
     0
  9
$DIMDSEP
 70
    46
  9
$DIMATFIT
 70
     3
  9
$DIMFRAC
 70
     0
  9
$DIMLDRBLK
  1

  9
$DIMLUNIT
 70
     2
  9
$DIMLWD
 70
    -2
  9
$DIMLWE
 70
    -2
  9
$DIMTMOVE
 70
     0
  9
$DIMFXL
 40
1.0
  9
$DIMFXLON
 70
     0
  9
$DIMJOGANG
 40
0.7853981633974483
  9
$DIMTFILL
 70
     0
  9
$DIMTFILLCLR
 70
     0
  9
$DIMARCSYM
 70
     0
  9
$DIMLTYPE
  6

  9
$DIMLTEX1
  6

  9
$DIMLTEX2
  6

  9
$DIMTXTDIRECTION
 70
     0
  9
$LUNITS
 70
     2
  9
$LUPREC
 70
     4
  9
$SKETCHINC
 40
0.1
  9
$FILLETRAD
 40
0.5
  9
$AUNITS
 70
     0
  9
$AUPREC
 70
     0
  9
$MENU
  1
.
  9
$ELEVATION
 40
0.0
  9
$PELEVATION
 40
0.0
  9
$THICKNESS
 40
0.0
  9
$LIMCHECK
 70
     0
  9
$CHAMFERA
 40
0.5
  9
$CHAMFERB
 40
0.5
  9
$CHAMFERC
 40
1.0
  9
$CHAMFERD
 40
0.0
  9
$SKPOLY
 70
     0
  9
$TDCREATE
 40
2457548.443731945
  9
$TDUCREATE
 40
2457548.360398611
  9
$TDUPDATE
 40
2457548.443732095
  9
$TDUUPDATE
 40
2457548.360398761
  9
$TDINDWG
 40
0.0000000116
  9
$TDUSRTIMER
 40
0.0000000116
  9
$USRTIMER
 70
     1
  9
$ANGBASE
 50
0.0
  9
$ANGDIR
 70
     0
  9
$PDMODE
 70
     0
  9
$PDSIZE
 40
0.0
  9
$PLINEWID
 40
0.0
  9
$SPLFRAME
 70
     0
  9
$SPLINETYPE
 70
     6
  9
$SPLINESEGS
 70
     8
  9
$HANDSEED
  5
90
  9
$SURFTAB1
 70
     6
  9
$SURFTAB2
 70
     6
  9
$SURFTYPE
 70
     6
  9
$SURFU
 70
     6
  9
$SURFV
 70
     6
  9
$UCSBASE
  2

  9
$UCSNAME
  2

  9
$UCSORG
 10
0.0
 20
0.0
 30
0.0
  9
$UCSXDIR
 10
1.0
 20
0.0
 30
0.0
  9
$UCSYDIR
 10
0.0
 20
1.0
 30
0.0
  9
$UCSORTHOREF
  2

  9
$UCSORTHOVIEW
 70
     0
  9
$UCSORGTOP
 10
0.0
 20
0.0
 30
0.0
  9
$UCSORGBOTTOM
 10
0.0
 20
0.0
 30
0.0
  9
$UCSORGLEFT
 10
0.0
 20
0.0
 30
0.0
  9
$UCSORGRIGHT
 10
0.0
 20
0.0
 30
0.0
  9
$UCSORGFRONT
 10
0.0
 20
0.0
 30
0.0
  9
$UCSORGBACK
 10
0.0
 20
0.0
 30
0.0
  9
$PUCSBASE
  2

  9
$PUCSNAME
  2

  9
$PUCSORG
 10
0.0
 20
0.0
 30
0.0
  9
$PUCSXDIR
 10
1.0
 20
0.0
 30
0.0
  9
$PUCSYDIR
 10
0.0
 20
1.0
 30
0.0
  9
$PUCSORTHOREF
  2

  9
$PUCSORTHOVIEW
 70
     0
  9
$PUCSORGTOP
 10
0.0
 20
0.0
 30
0.0
  9
$PUCSORGBOTTOM
 10
0.0
 20
0.0
 30
0.0
  9
$PUCSORGLEFT
 10
0.0
 20
0.0
 30
0.0
  9
$PUCSORGRIGHT
 10
0.0
 20
0.0
 30
0.0
  9
$PUCSORGFRONT
 10
0.0
 20
0.0
 30
0.0
  9
$PUCSORGBACK
 10
0.0
 20
0.0
 30
0.0
  9
$USERI1
 70
     0
  9
$USERI2
 70
     0
  9
$USERI3
 70
     0
  9
$USERI4
 70
     0
  9
$USERI5
 70
     0
  9
$USERR1
 40
0.0
  9
$USERR2
 40
0.0
  9
$USERR3
 40
0.0
  9
$USERR4
 40
0.0
  9
$USERR5
 40
0.0
  9
$WORLDVIEW
 70
     1
  9
$SHADEDGE
 70
     3
  9
$SHADEDIF
 70
    70
  9
$TILEMODE
 70
     1
  9
$MAXACTVP
 70
    64
  9
$PINSBASE
 10
0.0
 20
0.0
 30
0.0
  9
$PLIMCHECK
 70
     0
  9
$PEXTMIN
 10
1.000000000000000E+20
 20
1.000000000000000E+20
 30
1.000000000000000E+20
  9
$PEXTMAX
 10
-1.000000000000000E+20
 20
-1.000000000000000E+20
 30
-1.000000000000000E+20
  9
$PLIMMIN
 10
0.0
 20
0.0
  9
$PLIMMAX
 10
12.0
 20
9.0
  9
$UNITMODE
 70
     0
  9
$VISRETAIN
 70
     1
  9
$PLINEGEN
 70
     0
  9
$PSLTSCALE
 70
     1
  9
$TREEDEPTH
 70
  3020
  9
$CMLSTYLE
  2
Standard
  9
$CMLJUST
 70
     0
  9
$CMLSCALE
 40
1.0
  9
$PROXYGRAPHICS
 70
     1
  9
$MEASUREMENT
 70
     0
  9
$CELWEIGHT
370
    -1
  9
$ENDCAPS
280
     0
  9
$JOINSTYLE
280
     0
  9
$LWDISPLAY
290
     1
  9
$INSUNITS
 70
     1
  9
$HYPERLINKBASE
  1

  9
$STYLESHEET
  1

  9
$XEDIT
290
     1
  9
$CEPSNTYPE
380
     0
  9
$PSTYLEMODE
290
     1
  9
$FINGERPRINTGUID
  2
{1E5E3C58-82AA-4733-8705-C0D93260F8E7}
  9
$VERSIONGUID
  2
{FAEB1C32-E019-11D5-929B-00C0DF256EC4}
  9
$EXTNAMES
290
     1
  9
$PSVPSCALE
 40
0.0
  9
$OLESTARTUP
290
     0
  9
$SORTENTS
280
   127
  9
$INDEXCTL
280
     0
  9
$HIDETEXT
280
     1
  9
$XCLIPFRAME
280
     2
  9
$HALOGAP
280
     0
  9
$OBSCOLOR
 70
   257
  9
$OBSLTYPE
280
     0
  9
$INTERSECTIONDISPLAY
280
     0
  9
$INTERSECTIONCOLOR
 70
   257
  9
$DIMASSOC
280
     2
  9
$PROJECTNAME
  1

  9
$CAMERADISPLAY
290
     0
  9
$LENSLENGTH
 40
50.0
  9
$CAMERAHEIGHT
 40
0.0
  9
$STEPSPERSEC
 40
2.0
  9
$STEPSIZE
 40
6.0
  9
$3DDWFPREC
 40
2.0
  9
$PSOLWIDTH
 40
0.25
  9
$PSOLHEIGHT
 40
4.0
  9
$LOFTANG1
 40
1.570796326794897
  9
$LOFTANG2
 40
1.570796326794897
  9
$LOFTMAG1
 40
0.0
  9
$LOFTMAG2
 40
0.0
  9
$LOFTPARAM
 70
     7
  9
$LOFTNORMALS
280
     1
  9
$LATITUDE
 40
37.795
  9
$LONGITUDE
 40
-122.394
  9
$NORTHDIRECTION
 40
0.0
  9
$TIMEZONE
 70
 -8000
  9
$LIGHTGLYPHDISPLAY
280
     1
  9
$TILEMODELIGHTSYNCH
280
     1
  9
$CMATERIAL
347
3C
  9
$SOLIDHIST
280
     1
  9
$SHOWHIST
280
     1
  9
$DWFFRAME
280
     2
  9
$DGNFRAME
280
     2
  9
$REALWORLDSCALE
290
     1
  9
$INTERFERECOLOR
 62
   256
  9
$CSHADOW
280
     0
  9
$SHADOWPLANELOCATION
 40
0.0
  0
ENDSEC
  0
SECTION
  2
CLASSES
  0
CLASS
  1
ACDBDICTIONARYWDFLT
  2
AcDbDictionaryWithDefault
  3
ObjectDBX Classes
 90
        0
 91
        4
280
     0
281
     0
  0
CLASS
  1
VISUALSTYLE
  2
AcDbVisualStyle
  3
ObjectDBX Classes
 90
     4095
 91
        4
280
     0
281
     0
  0
CLASS
  1
MATERIAL
  2
AcDbMaterial
  3
ObjectDBX Classes
 90
     1153
 91
        4
280
     0
281
     0
  0
CLASS
  1
SUN
  2
AcDbSun
  3
SCENEOE
 90
     1024
 91
        4
280
     0
281
     0
  0
ENDSEC
  0
SECTION
  2
TABLES
  0
TABLE
  2
VPORT
  5
8
330
0
100
AcDbSymbolTable
 70
     1
  0
VPORT
  5
29
330
8
100
AcDbSymbolTableRecord
100
AcDbViewportTableRecord
  2
*Active
 70
     0
 10
0.0
 20
0.0
 11
1.0
 21
1.0
 12
0.0
 22
0.0
 13
0.0
 23
0.0
 14
0.5
 24
0.5
 15
0.5
 25
0.5
 16
0.0
 26
0.0
 36
1.0
 17
149.9993471847223
 27
-100.0001527527778
 37
0.0
 40
299.9999999249998
 41
1.333333333333335
 42
50.0
 43
0.0
 44
0.0
 50
0.0
 51
0.0
 71
     0
 72
   100
 73
     1
 74
     3
 75
     0
 76
     0
 77
     0
 78
     0
281
     0
 65
     1
110
0.0
120
0.0
130
0.0
111
1.0
121
0.0
131
0.0
112
0.0
122
1.0
132
0.0
 79
     0
146
0.0
 60
     3
 61
     5
292
     1
282
     1
141
0.0
142
0.0
 63
   250
361
3F
  0
ENDTAB
  0
TABLE
  2
LTYPE
  5
5
330
0
100
AcDbSymbolTable
 70
     1
  0
LTYPE
  5
14
330
5
100
AcDbSymbolTableRecord
100
AcDbLinetypeTableRecord
  2
ByBlock
 70
     0
  3

 72
    65
 73
     0
 40
0.0
  0
LTYPE
  5
15
330
5
100
AcDbSymbolTableRecord
100
AcDbLinetypeTableRecord
  2
ByLayer
 70
     0
  3

 72
    65
 73
     0
 40
0.0
  0
LTYPE
  5
16
330
5
100
AcDbSymbolTableRecord
100
AcDbLinetypeTableRecord
  2
Continuous
 70
     0
  3
Solid line
 72
    65
 73
     0
 40
0.0
  0
ENDTAB
  0
TABLE
  2
LAYER
  5
2
330
0
100
AcDbSymbolTable
 70
     2
  0
LAYER
  5
10
330
2
100
AcDbSymbolTableRecord
100
AcDbLayerTableRecord
  2
0
 70
     0
 62
     7
  6
Continuous
370
    -3
390
F
347
3E
  0
LAYER
  5
40
330
2
100
AcDbSymbolTableRecord
100
AcDbLayerTableRecord
  2
Ebene 1
 70
     0
 62
     7
  6
Continuous
370
    -3
390
F
347
3E
  0
ENDTAB
  0
TABLE
  2
STYLE
  5
3
330
0
100
AcDbSymbolTable
 70
     1
  0
STYLE
  5
11
330
3
100
AcDbSymbolTableRecord
100
AcDbTextStyleTableRecord
  2
Standard
 70
     0
 40
0.0
 41
1.0
 50
0.0
 71
     0
 42
0.2
  3
txt
  4

  0
ENDTAB
  0
TABLE
  2
VIEW
  5
6
330
0
100
AcDbSymbolTable
 70
     0
  0
ENDTAB
  0
TABLE
  2
UCS
  5
7
330
0
100
AcDbSymbolTable
 70
     0
  0
ENDTAB
  0
TABLE
  2
APPID
  5
9
330
0
100
AcDbSymbolTable
 70
     1
  0
APPID
  5
12
330
9
100
AcDbSymbolTableRecord
100
AcDbRegAppTableRecord
  2
ACAD
 70
     0
  0
ENDTAB
  0
TABLE
  2
DIMSTYLE
  5
A
330
0
100
AcDbSymbolTable
 70
     1
100
AcDbDimStyleTable
  0
DIMSTYLE
105
27
330
A
100
AcDbSymbolTableRecord
100
AcDbDimStyleTableRecord
  2
Standard
 70
     0
178
     0
340
11
  0
ENDTAB
  0
TABLE
  2
BLOCK_RECORD
  5
1
330
0
100
AcDbSymbolTable
 70
     1
  0
BLOCK_RECORD
  5
1F
330
1
100
AcDbSymbolTableRecord
100
AcDbBlockTableRecord
  2
*Model_Space
340
22
 70
     0
280
     1
281
     0
  0
BLOCK_RECORD
  5
1B
330
1
100
AcDbSymbolTableRecord
100
AcDbBlockTableRecord
  2
*Paper_Space
340
1E
 70
     0
280
     1
281
     0
  0
BLOCK_RECORD
  5
23
330
1
100
AcDbSymbolTableRecord
100
AcDbBlockTableRecord
  2
*Paper_Space0
340
26
 70
     0
280
     1
281
     0
  0
ENDTAB
  0
ENDSEC
  0
SECTION
  2
BLOCKS
  0
BLOCK
  5
20
330
1F
100
AcDbEntity
  8
0
100
AcDbBlockBegin
  2
*Model_Space
 70
     0
 10
0.0
 20
0.0
 30
0.0
  3
*Model_Space
  1

  0
ENDBLK
  5
21
330
1F
100
AcDbEntity
  8
0
100
AcDbBlockEnd
  0
BLOCK
  5
1C
330
1B
100
AcDbEntity
 67
     1
  8
0
100
AcDbBlockBegin
  2
*Paper_Space
 70
     0
 10
0.0
 20
0.0
 30
0.0
  3
*Paper_Space
  1

  0
ENDBLK
  5
1D
330
1B
100
AcDbEntity
 67
     1
  8
0
100
AcDbBlockEnd
  0
BLOCK
  5
24
330
23
100
AcDbEntity
  8
0
100
AcDbBlockBegin
  2
*Paper_Space0
 70
     0
 10
0.0
 20
0.0
 30
0.0
  3
*Paper_Space0
  1

  0
ENDBLK
  5
25
330
23
100
AcDbEntity
  8
0
100
AcDbBlockEnd
  0
ENDSEC
  0
SECTION
  2
ENTITIES
  0
SPLINE
  5
41
330
1F
100
AcDbEntity
  8
Ebene 1
 62
   250
420
  1842203
370
    35
100
AcDbSpline
210
0.0
220
0.0
230
1.0
 70
    11
 71
     3
 72
    29
 73
    25
 74
     0
 42
0.0000000001
 43
0.0000000001
 12
1.0
 22
0.0
 32
0.0
 13
1.0
 23
0.0
 33
0.0
 40
0.0
 40
0.0
 40
0.0
 40
0.0
 40
1.0
 40
1.0
 40
1.0
 40
2.0
 40
2.0
 40
2.0
 40
3.0
 40
3.0
 40
3.0
 40
4.0
 40
4.0
 40
4.0
 40
5.0
 40
5.0
 40
5.0
 40
6.0
 40
6.0
 40
6.0
 40
7.0
 40
7.0
 40
7.0
 40
8.0
 40
8.0
 40
8.0
 40
8.0
 10
237.507638829512
 20
-30.5261080479238
 30
0.0
 10
237.507638829512
 20
-20.71327666148826
 30
0.0
 10
229.5246657759523
 20
-12.72995083015079
 30
0.0
 10
219.7116580006279
 20
-12.72995083015079
 30
0.0
 10
219.7116580006279
 20
-12.72995083015079
 30
0.0
 10
80.30414609103494
 20
-12.72995083015079
 30
0.0
 10
80.30414609103494
 20
-12.72995083015079
 30
0.0
 10
70.49113831571051
 20
-12.72995083015079
 30
0.0
 10
62.50781248437305
 20
-20.71327666148826
 30
0.0
 10
62.50781248437305
 20
-30.5261080479238
 30
0.0
 10
62.50781248437305
 20
-30.5261080479238
 30
0.0
 10
62.50781248437305
 20
-169.9336199575167
 30
0.0
 10
62.50781248437305
 20
-169.9336199575167
 30
0.0
 10
62.50781248437305
 20
-179.7466630106193
 30
0.0
 10
70.49113831571051
 20
-187.7303063419564
 30
0.0
 10
80.30414609103494
 20
-187.7303063419564
 30
0.0
 10
80.30414609103494
 20
-187.7303063419564
 30
0.0
 10
219.7116580006279
 20
-187.7303063419564
 30
0.0
 10
219.7116580006279
 20
-187.7303063419564
 30
0.0
 10
229.5246657759523
 20
-187.7303063419564
 30
0.0
 10
237.507638829512
 20
-179.7466630106193
 30
0.0
 10
237.507638829512
 20
-169.9336199575167
 30
0.0
 10
237.507638829512
 20
-169.9336199575167
 30
0.0
 10
237.507638829512
 20
-30.5261080479238
 30
0.0
 10
237.507638829512
 20
-30.5261080479238
 30
0.0
  0
SPLINE
  5
42
330
1F
100
AcDbEntity
  8
Ebene 1
 62
   250
420
  1842203
370
    35
100
AcDbSpline
210
0.0
220
0.0
230
1.0
 70
    11
 71
     3
 72
    26
 73
    22
 74
     0
 42
0.0000000001
 43
0.0000000001
 12
1.0
 22
0.0
 32
0.0
 13
1.0
 23
0.0
 33
0.0
 40
0.0
 40
0.0
 40
0.0
 40
0.0
 40
1.0
 40
1.0
 40
1.0
 40
2.0
 40
2.0
 40
2.0
 40
3.0
 40
3.0
 40
3.0
 40
4.0
 40
4.0
 40
4.0
 40
5.0
 40
5.0
 40
5.0
 40
6.0
 40
6.0
 40
6.0
 40
7.0
 40
7.0
 40
7.0
 40
7.0
 10
216.5965949458507
 20
-19.30957388406131
 30
0.0
 10
216.5965949458507
 20
-19.30957388406131
 30
0.0
 10
219.7116580006279
 20
-19.30957388406131
 30
0.0
 10
219.7116580006279
 20
-19.30957388406131
 30
0.0
 10
223.6383921663129
 20
-19.30957388406131
 30
0.0
 10
227.3325752209443
 20
-21.41332888353556
 30
0.0
 10
229.351381331551
 20
-24.80020721602209
 30
0.0
 10
229.351381331551
 20
-24.80020721602209
 30
0.0
 10
229.5160579981766
 20
-25.07597360484188
 30
0.0
 10
229.5160579981766
 20
-25.07597360484188
 30
0.0
 10
229.5160579981766
 20
-25.07597360484188
 30
0.0
 10
229.3076368871176
 20
-25.32058971589188
 30
0.0
 10
229.3076368871176
 20
-25.32058971589188
 30
0.0
 10
227.8514054985929
 20
-27.03142082657544
 30
0.0
 10
226.0020738323884
 20
-28.09490471519829
 30
0.0
 10
224.4824482772127
 20
-28.09645693742006
 30
0.0
 10
220.526786333757
 20
-28.0969861040867
 30
0.0
 10
216.4953124458762
 20
-24.31979443836453
 30
0.0
 10
216.4939366125433
 20
-20.61217055040229
 30
0.0
 10
216.4939366125433
 20
-20.32673805047383
 30
0.0
 10
216.5965949458507
 20
-19.30957388406131
 30
0.0
 10
216.5965949458507
 20
-19.30957388406131
 30
0.0
  0
SPLINE
  5
43
330
1F
100
AcDbEntity
  8
Ebene 1
 62
   250
420
  1842203
370
    35
100
AcDbSpline
210
0.0
220
0.0
230
1.0
 70
    11
 71
     3
 72
    32
 73
    28
 74
     0
 42
0.0000000001
 43
0.0000000001
 12
1.0
 22
0.0
 32
0.0
 13
1.0
 23
0.0
 33
0.0
 40
0.0
 40
0.0
 40
0.0
 40
0.0
 40
1.0
 40
1.0
 40
1.0
 40
2.0
 40
2.0
 40
2.0
 40
3.0
 40
3.0
 40
3.0
 40
4.0
 40
4.0
 40
4.0
 40
5.0
 40
5.0
 40
5.0
 40
6.0
 40
6.0
 40
6.0
 40
7.0
 40
7.0
 40
7.0
 40
8.0
 40
8.0
 40
8.0
 40
9.0
 40
9.0
 40
9.0
 40
9.0
 10
217.7410766122316
 20
-148.1051774629742
 30
0.0
 10
217.7410766122316
 20
-148.1051774629742
 30
0.0
 10
217.7407238344538
 20
-148.1051774629742
 30
0.0
 10
217.7407238344538
 20
-148.1051774629742
 30
0.0
 10
216.6675738347223
 20
-149.2492710737991
 30
0.0
 10
215.070760501788
 20
-149.9923974625015
 30
0.0
 10
213.6734430021373
 20
-149.9982535736108
 30
0.0
 10
212.4342405024473
 20
-149.9982535736108
 30
0.0
 10
211.0696607805657
 20
-149.3981080182055
 30
0.0
 10
210.1098230030282
 20
-148.4320966295591
 30
0.0
 10
209.352938280995
 20
-147.6703788519711
 30
0.0
 10
208.921632169992
 20
-146.7540032966443
 30
0.0
 10
208.9271355033236
 20
-145.9175319079644
 30
0.0
 10
208.9467852255412
 20
-142.7549496865335
 30
0.0
 10
210.8446943917333
 20
-140.8646252425613
 30
0.0
 10
214.0031491131661
 20
-140.8618382981174
 30
0.0
 10
214.0031491131661
 20
-140.8618382981174
 30
0.0
 10
214.0520793909315
 20
-140.8590866314516
 30
0.0
 10
214.0520793909315
 20
-140.8590866314516
 30
0.0
 10
214.192626057563
 20
-140.8453282981215
 30
0.0
 10
214.3552213353002
 20
-140.8377435759016
 30
0.0
 10
214.5123132797052
 20
-140.8377435759016
 30
0.0
 10
218.2623057787676
 20
-140.8377435759016
 30
0.0
 10
218.6967516119923
 20
-145.0297313526311
 30
0.0
 10
218.7459993897579
 20
-145.8696599635323
 30
0.0
 10
218.7883680008585
 20
-146.574509963356
 30
0.0
 10
218.4311099453925
 20
-147.3682599631575
 30
0.0
 10
217.7410766122316
 20
-148.1051774629742
 30
0.0
  0
SPLINE
  5
44
330
1F
100
AcDbEntity
  8
Ebene 1
 62
   250
420
  1842203
370
    35
100
AcDbSpline
210
0.0
220
0.0
230
1.0
 70
    11
 71
     3
 72
    23
 73
    19
 74
     0
 42
0.0000000001
 43
0.0000000001
 12
1.0
 22
0.0
 32
0.0
 13
1.0
 23
0.0
 33
0.0
 40
0.0
 40
0.0
 40
0.0
 40
0.0
 40
1.0
 40
1.0
 40
1.0
 40
2.0
 40
2.0
 40
2.0
 40
3.0
 40
3.0
 40
3.0
 40
4.0
 40
4.0
 40
4.0
 40
5.0
 40
5.0
 40
5.0
 40
6.0
 40
6.0
 40
6.0
 40
6.0
 10
218.0628452232621
 20
-157.1605949607092
 30
0.0
 10
218.0593880010408
 20
-159.416432460146
 30
0.0
 10
215.8572785571467
 20
-161.8938144039708
 30
0.0
 10
213.8543121687585
 20
-161.8938144039708
 30
0.0
 10
213.8543121687585
 20
-161.8938144039708
 30
0.0
 10
213.8136721687686
 20
-161.8938144039708
 30
0.0
 10
213.8136721687686
 20
-161.8938144039708
 30
0.0
 10
211.8888813359166
 20
-161.8549030150915
 30
0.0
 10
209.6361482809247
 20
-159.4674441267998
 30
0.0
 10
209.6485307809212
 20
-157.4889252384052
 30
0.0
 10
209.6616188364734
 20
-155.4452835722502
 30
0.0
 10
211.5977691137674
 20
-153.1367410728271
 30
0.0
 10
213.4478063355269
 20
-152.8015316284667
 30
0.0
 10
213.4478063355269
 20
-152.8015316284667
 30
0.0
 10
214.3545510575228
 20
-152.7984271840219
 30
0.0
 10
214.3545510575228
 20
-152.7984271840219
 30
0.0
 10
216.2310818903867
 20
-153.1057319061674
 30
0.0
 10
218.066619945483
 20
-155.196892738978
 30
0.0
 10
218.0628452232621
 20
-157.1605949607092
 30
0.0
  0
SPLINE
  5
45
330
1F
100
AcDbEntity
  8
Ebene 1
 62
   250
420
  1842203
370
    35
100
AcDbSpline
210
0.0
220
0.0
230
1.0
 70
    11
 71
     3
 72
    47
 73
    43
 74
     0
 42
0.0000000001
 43
0.0000000001
 12
1.0
 22
0.0
 32
0.0
 13
1.0
 23
0.0
 33
0.0
 40
0.0
 40
0.0
 40
0.0
 40
0.0
 40
1.0
 40
1.0
 40
1.0
 40
2.0
 40
2.0
 40
2.0
 40
3.0
 40
3.0
 40
3.0
 40
4.0
 40
4.0
 40
4.0
 40
5.0
 40
5.0
 40
5.0
 40
6.0
 40
6.0
 40
6.0
 40
7.0
 40
7.0
 40
7.0
 40
8.0
 40
8.0
 40
8.0
 40
9.0
 40
9.0
 40
9.0
 40
10.0
 40
10.0
 40
10.0
 40
11.0
 40
11.0
 40
11.0
 40
12.0
 40
12.0
 40
12.0
 40
13.0
 40
13.0
 40
13.0
 40
14.0
 40
14.0
 40
14.0
 40
14.0
 10
211.7738052248345
 20
-115.9689563598962
 30
0.0
 10
209.4818080031855
 20
-115.9689563598962
 30
0.0
 10
207.6159310592069
 20
-115.332651082278
 30
0.0
 10
206.0690710595937
 20
-114.0241983048271
 30
0.0
 10
206.0690710595937
 20
-114.0241983048271
 30
0.0
 10
205.7390474485652
 20
-113.7472324715626
 30
0.0
 10
205.7390474485652
 20
-113.7472324715626
 30
0.0
 10
204.8608777265628
 20
-113.0139485828574
 30
0.0
 10
203.9524043934561
 20
-112.2551588608254
 30
0.0
 10
203.5049057824569
 20
-111.3337738610549
 30
0.0
 10
203.116285782554
 20
-110.5329683057
 30
0.0
 10
202.6573924493358
 20
-109.7528002503397
 30
0.0
 10
202.2133510605578
 20
-108.9983496949727
 30
0.0
 10
200.9624363386479
 20
-106.8725460843928
 30
0.0
 10
199.7855696722757
 20
-104.8726488626706
 30
0.0
 10
199.8720355055875
 20
-102.2681610855442
 30
0.0
 10
200.0498002277651
 20
-96.9270702535459
 30
0.0
 10
205.4606705041903
 20
-91.48571997712858
 30
0.0
 10
210.5938693917956
 20
-91.48571997712858
 30
0.0
 10
210.5938693917956
 20
-91.48571997712858
 30
0.0
 10
210.692400225105
 20
-91.48639025490594
 30
0.0
 10
210.692400225105
 20
-91.48639025490594
 30
0.0
 10
216.5414910569758
 20
-91.56735275488583
 30
0.0
 10
220.4310071671147
 20
-93.87557775430867
 30
0.0
 10
222.5859149443534
 20
-98.54314525314194
 30
0.0
 10
222.8983702220534
 20
-99.22185441963885
 30
0.0
 10
223.0382466109069
 20
-100.0012816416661
 30
0.0
 10
223.1361071664383
 20
-100.7604241414766
 30
0.0
 10
223.2649416108506
 20
-101.7591733078934
 30
0.0
 10
223.0920099442271
 20
-103.0930966408937
 30
0.0
 10
223.0027571664714
 20
-103.7242513629574
 30
0.0
 10
223.0027571664714
 20
-103.7242513629574
 30
0.0
 10
222.9962307775841
 20
-103.7691952518355
 30
0.0
 10
222.9962307775841
 20
-103.7691952518355
 30
0.0
 10
222.4573979999414
 20
-107.5843105286597
 30
0.0
 10
221.9482338334017
 20
-111.1876885833143
 30
0.0
 10
219.080538556341
 20
-113.872292193754
 30
0.0
 10
218.1824016121207
 20
-114.712185526877
 30
0.0
 10
216.6524043902811
 20
-115.3414352489419
 30
0.0
 10
214.6552941130029
 20
-115.6918141377435
 30
0.0
 10
213.5918102243797
 20
-115.8781866376969
 30
0.0
 10
212.6492232801711
 20
-115.9689563598962
 30
0.0
 10
211.7738052248345
 20
-115.9689563598962
 30
0.0
  0
SPLINE
  5
46
330
1F
100
AcDbEntity
  8
Ebene 1
 62
   250
420
  1842203
370
    35
100
AcDbSpline
210
0.0
220
0.0
230
1.0
 70
     8
 71
     3
 72
    23
 73
    19
 74
     0
 42
0.0000000001
 43
0.0000000001
 12
1.0
 22
0.0
 32
0.0
 13
1.0
 23
0.0
 33
0.0
 40
0.0
 40
0.0
 40
0.0
 40
0.0
 40
1.0
 40
1.0
 40
1.0
 40
2.0
 40
2.0
 40
2.0
 40
3.0
 40
3.0
 40
3.0
 40
4.0
 40
4.0
 40
4.0
 40
5.0
 40
5.0
 40
5.0
 40
6.0
 40
6.0
 40
6.0
 40
6.0
 10
93.1112846989444
 20
-152.4001763507883
 30
0.0
 10
93.94465164318075
 20
-152.4043038507882
 30
0.0
 10
94.85072608739871
 20
-152.8049535729099
 30
0.0
 10
95.47567192057544
 20
-153.4467974616384
 30
0.0
 10
95.94730053156871
 20
-153.9321844059612
 30
0.0
 10
96.21117830928038
 20
-154.5109869058165
 30
0.0
 10
96.20017164261667
 20
-155.0346149612411
 30
0.0
 10
96.16228330929253
 20
-156.7664716274755
 30
0.0
 10
95.17489358731723
 20
-157.9298974605172
 30
0.0
 10
93.74314497656435
 20
-157.9298974605172
 30
0.0
 10
92.87185442122635
 20
-157.9199138494092
 30
0.0
 10
92.07397692142614
 20
-157.5822702383826
 30
0.0
 10
91.49072942157196
 20
-156.9783499607551
 30
0.0
 10
90.94572303281905
 20
-156.4136938497859
 30
0.0
 10
90.65598664400274
 20
-155.6774819055248
 30
0.0
 10
90.67457803288704
 20
-154.9061332946066
 30
0.0
 10
90.71006747732253
 20
-153.4536766283028
 30
0.0
 10
91.72843108817874
 20
-152.4001763507883
 30
0.0
 10
93.09579775450364
 20
-152.4001763507883
 30
0.0
  0
SPLINE
  5
47
330
1F
100
AcDbEntity
  8
Ebene 1
 62
   250
420
  1842203
370
    35
100
AcDbSpline
210
0.0
220
0.0
230
1.0
 70
     8
 71
     3
 72
    20
 73
    16
 74
     0
 42
0.0000000001
 43
0.0000000001
 12
1.0
 22
0.0
 32
0.0
 13
1.0
 23
0.0
 33
0.0
 40
0.0
 40
0.0
 40
0.0
 40
0.0
 40
1.0
 40
1.0
 40
1.0
 40
2.0
 40
2.0
 40
2.0
 40
3.0
 40
3.0
 40
3.0
 40
4.0
 40
4.0
 40
4.0
 40
5.0
 40
5.0
 40
5.0
 40
5.0
 10
90.02518469971608
 20
-134.7330299663164
 30
0.0
 10
93.51299275439936
 20
-134.7371574663151
 30
0.0
 10
96.5691419203019
 20
-137.8198355211003
 30
0.0
 10
96.56536719808102
 20
-141.3296921868892
 30
0.0
 10
96.5605341425262
 20
-145.7253032969024
 30
0.0
 10
93.32281025444692
 20
-148.9157902405481
 30
0.0
 10
88.86761497778305
 20
-148.9157902405481
 30
0.0
 10
88.86761497778305
 20
-148.9157902405481
 30
0.0
 10
88.72050664448668
 20
-148.914767184993
 30
0.0
 10
88.72050664448668
 20
-148.914767184993
 30
0.0
 10
85.27887720090236
 20
-148.8596280183405
 30
0.0
 10
83.07503914589758
 20
-145.6071227413753
 30
0.0
 10
83.10329664589088
 20
-140.6268882981771
 30
0.0
 10
83.11948914588655
 20
-137.7075110766839
 30
0.0
 10
86.60969608945848
 20
-134.7330299663164
 30
0.0
 10
90.01862303305062
 20
-134.7330299663164
 30
0.0
  0
SPLINE
  5
48
330
1F
100
AcDbEntity
  8
Ebene 1
 62
   250
420
  1842203
370
    35
100
AcDbSpline
210
0.0
220
0.0
230
1.0
 70
    11
 71
     3
 72
    47
 73
    43
 74
     0
 42
0.0000000001
 43
0.0000000001
 12
1.0
 22
0.0
 32
0.0
 13
1.0
 23
0.0
 33
0.0
 40
0.0
 40
0.0
 40
0.0
 40
0.0
 40
1.0
 40
1.0
 40
1.0
 40
2.0
 40
2.0
 40
2.0
 40
3.0
 40
3.0
 40
3.0
 40
4.0
 40
4.0
 40
4.0
 40
5.0
 40
5.0
 40
5.0
 40
6.0
 40
6.0
 40
6.0
 40
7.0
 40
7.0
 40
7.0
 40
8.0
 40
8.0
 40
8.0
 40
9.0
 40
9.0
 40
9.0
 40
10.0
 40
10.0
 40
10.0
 40
11.0
 40
11.0
 40
11.0
 40
12.0
 40
12.0
 40
12.0
 40
13.0
 40
13.0
 40
13.0
 40
14.0
 40
14.0
 40
14.0
 40
14.0
 10
94.06731247648287
 20
-130.1841369118986
 30
0.0
 10
93.46441525441175
 20
-130.3908294118463
 30
0.0
 10
92.79226775457967
 20
-130.4955691340428
 30
0.0
 10
92.0702021992046
 20
-130.4955691340428
 30
0.0
 10
88.80146914446625
 20
-130.4955691340428
 30
0.0
 10
85.20377081203209
 20
-128.3609813567983
 30
0.0
 10
84.04930553454324
 20
-125.7375494130098
 30
0.0
 10
84.0396747012124
 20
-125.7155008019042
 30
0.0
 10
84.02898553454828
 20
-125.6962038574644
 30
0.0
 10
84.01797886788457
 20
-125.6793058019138
 30
0.0
 10
84.01797886788457
 20
-125.6793058019138
 30
0.0
 10
83.95458470123353
 20
-125.5835266352702
 30
0.0
 10
83.95458470123353
 20
-125.5835266352702
 30
0.0
 10
83.95458470123353
 20
-125.5835266352702
 30
0.0
 10
83.9452713679023
 20
-125.4684858019662
 30
0.0
 10
83.9452713679023
 20
-125.4684858019662
 30
0.0
 10
83.88946192347186
 20
-124.7691391354741
 30
0.0
 10
83.79678720127305
 20
-124.0625252467617
 30
0.0
 10
83.70756970129553
 20
-123.3790183024881
 30
0.0
 10
83.47466581246478
 20
-121.5985841362674
 30
0.0
 10
83.25488525696431
 20
-119.9180919144646
 30
0.0
 10
83.59182331243535
 20
-118.3350721926379
 30
0.0
 10
84.40793942334211
 20
-114.4932516380435
 30
0.0
 10
86.01748803405084
 20
-112.4406846941119
 30
0.0
 10
88.65608942228053
 20
-111.8754994164754
 30
0.0
 10
89.66344636647302
 20
-111.6601991387519
 30
0.0
 10
90.65150636622568
 20
-111.5509791387791
 30
0.0
 10
91.59303497710161
 20
-111.5509791387791
 30
0.0
 10
96.15434580929482
 20
-111.5509791387791
 30
0.0
 10
99.55085497511219
 20
-114.0112866381638
 30
0.0
 10
101.4160616413128
 20
-118.666295248111
 30
0.0
 10
101.5845130301592
 20
-119.0874766368946
 30
0.0
 10
101.5993296968226
 20
-119.5839055256593
 30
0.0
 10
101.6069144190426
 20
-119.8223127478222
 30
0.0
 10
101.6082902523755
 20
-119.8660571922557
 30
0.0
 10
101.6093133079312
 20
-119.9022521922467
 30
0.0
 10
101.611394696819
 20
-119.9315327477951
 30
0.0
 10
101.611394696819
 20
-119.9315327477951
 30
0.0
 10
101.6127705301525
 20
-119.9623655255653
 30
0.0
 10
101.6127705301525
 20
-119.9623655255653
 30
0.0
 10
101.60758469682
 20
-125.0343927465186
 30
0.0
 10
99.0692427530103
 20
-128.4736233012143
 30
0.0
 10
94.06731247648287
 20
-130.1841369118986
 30
0.0
  0
SPLINE
  5
49
330
1F
100
AcDbEntity
  8
Ebene 1
 62
   250
420
  1842203
370
    35
100
AcDbSpline
210
0.0
220
0.0
230
1.0
 70
    11
 71
     3
 72
    26
 73
    22
 74
     0
 42
0.0000000001
 43
0.0000000001
 12
1.0
 22
0.0
 32
0.0
 13
1.0
 23
0.0
 33
0.0
 40
0.0
 40
0.0
 40
0.0
 40
0.0
 40
1.0
 40
1.0
 40
1.0
 40
2.0
 40
2.0
 40
2.0
 40
3.0
 40
3.0
 40
3.0
 40
4.0
 40
4.0
 40
4.0
 40
5.0
 40
5.0
 40
5.0
 40
6.0
 40
6.0
 40
6.0
 40
7.0
 40
7.0
 40
7.0
 40
7.0
 10
86.598336645017
 20
-102.6462683076717
 30
0.0
 10
87.46031386702377
 20
-102.647114974338
 30
0.0
 10
88.34088247791485
 20
-103.0304080297982
 30
0.0
 10
88.95305775553967
 20
-103.6723930296374
 30
0.0
 10
89.4639858109675
 20
-104.2074158072817
 30
0.0
 10
89.72923942201206
 20
-104.8492244182321
 30
0.0
 10
89.69995886646363
 20
-105.4793560847408
 30
0.0
 10
89.61762053315117
 20
-107.2799338620688
 30
0.0
 10
88.33054608902849
 20
-108.5375513617542
 30
0.0
 10
86.57007914502434
 20
-108.5375513617542
 30
0.0
 10
85.68746442302238
 20
-108.5334238617556
 30
0.0
 10
85.01118942319164
 20
-108.2991441395919
 30
0.0
 10
84.55748192330529
 20
-107.8406035841508
 30
0.0
 10
84.0651805345393
 20
-107.3429752509414
 30
0.0
 10
83.81883581237865
 20
-106.5686985844692
 30
0.0
 10
83.82469192348795
 20
-105.5394694180594
 30
0.0
 10
83.8326294234863
 20
-103.9982891406666
 30
0.0
 10
85.12799414538445
 20
-102.6462683076717
 30
0.0
 10
86.59660803390635
 20
-102.6462683076717
 30
0.0
 10
86.59660803390635
 20
-102.6462683076717
 30
0.0
 10
86.598336645017
 20
-102.6462683076717
 30
0.0
 10
86.598336645017
 20
-102.6462683076717
 30
0.0
  0
SPLINE
  5
4A
330
1F
100
AcDbEntity
  8
Ebene 1
 62
   250
420
  1842203
370
    35
100
AcDbSpline
210
0.0
220
0.0
230
1.0
 70
    11
 71
     3
 72
    41
 73
    37
 74
     0
 42
0.0000000001
 43
0.0000000001
 12
1.0
 22
0.0
 32
0.0
 13
1.0
 23
0.0
 33
0.0
 40
0.0
 40
0.0
 40
0.0
 40
0.0
 40
1.0
 40
1.0
 40
1.0
 40
2.0
 40
2.0
 40
2.0
 40
3.0
 40
3.0
 40
3.0
 40
4.0
 40
4.0
 40
4.0
 40
5.0
 40
5.0
 40
5.0
 40
6.0
 40
6.0
 40
6.0
 40
7.0
 40
7.0
 40
7.0
 40
8.0
 40
8.0
 40
8.0
 40
9.0
 40
9.0
 40
9.0
 40
10.0
 40
10.0
 40
10.0
 40
11.0
 40
11.0
 40
11.0
 40
12.0
 40
12.0
 40
12.0
 40
12.0
 10
180.838580788124
 20
-45.3035105442296
 30
0.0
 10
181.7808149545548
 20
-44.97038248875729
 30
0.0
 10
182.7278821765404
 20
-44.64928415550413
 30
0.0
 10
183.4372124541405
 20
-44.40900721111984
 30
0.0
 10
183.4372124541405
 20
-44.40900721111984
 30
0.0
 10
184.0907685650883
 20
-44.18661610006432
 30
0.0
 10
184.0907685650883
 20
-44.18661610006432
 30
0.0
 10
184.0907685650883
 20
-44.18661610006432
 30
0.0
 10
184.1844663428429
 20
-44.19455360006235
 30
0.0
 10
184.1844663428429
 20
-44.19455360006235
 30
0.0
 10
188.2417635640508
 20
-44.53957026664278
 30
0.0
 10
191.1335535633281
 20
-45.77256387744568
 30
0.0
 10
192.7799674518052
 20
-47.85959721025731
 30
0.0
 10
194.3278505069735
 20
-49.82192359865562
 30
0.0
 10
194.8301355068481
 20
-52.61176082018033
 30
0.0
 10
194.2720410625431
 20
-56.15160359707317
 30
0.0
 10
194.0133138403852
 20
-57.79371359666273
 30
0.0
 10
192.8061435629094
 20
-58.60467915201539
 30
0.0
 10
191.528382452118
 20
-59.46337554068975
 30
0.0
 10
191.3168568966155
 20
-59.60529804065418
 30
0.0
 10
191.1063543966681
 20
-59.74690304061868
 30
0.0
 10
190.8999793967193
 20
-59.89228276280473
 30
0.0
 10
189.3149135637824
 20
-61.00833054030344
 30
0.0
 10
187.5823513419931
 20
-61.57418609571763
 30
0.0
 10
185.7505880091178
 20
-61.57418609571763
 30
0.0
 10
183.8575118984804
 20
-61.57418609571763
 30
0.0
 10
181.7804621767771
 20
-60.96751415142465
 30
0.0
 10
179.5773296773278
 20
-59.77085665172381
 30
0.0
 10
176.9546032890948
 20
-58.34648109652446
 30
0.0
 10
175.4880002339056
 20
-55.44862331947121
 30
0.0
 10
175.8407780115952
 20
-52.38834665356937
 30
0.0
 10
175.8407780115952
 20
-52.38834665356937
 30
0.0
 10
175.8407780115952
 20
-52.38852304245825
 30
0.0
 10
175.8407780115952
 20
-52.38852304245825
 30
0.0
 10
176.2703907892657
 20
-48.65870943227969
 30
0.0
 10
177.9050924555236
 20
-46.34117109952563
 30
0.0
 10
180.838580788124
 20
-45.3035105442296
 30
0.0
  0
SPLINE
  5
4B
330
1F
100
AcDbEntity
  8
Ebene 1
 62
   250
420
  1842203
370
    35
100
AcDbSpline
210
0.0
220
0.0
230
1.0
 70
    11
 71
     3
 72
    47
 73
    43
 74
     0
 42
0.0000000001
 43
0.0000000001
 12
1.0
 22
0.0
 32
0.0
 13
1.0
 23
0.0
 33
0.0
 40
0.0
 40
0.0
 40
0.0
 40
0.0
 40
1.0
 40
1.0
 40
1.0
 40
2.0
 40
2.0
 40
2.0
 40
3.0
 40
3.0
 40
3.0
 40
4.0
 40
4.0
 40
4.0
 40
5.0
 40
5.0
 40
5.0
 40
6.0
 40
6.0
 40
6.0
 40
7.0
 40
7.0
 40
7.0
 40
8.0
 40
8.0
 40
8.0
 40
9.0
 40
9.0
 40
9.0
 40
10.0
 40
10.0
 40
10.0
 40
11.0
 40
11.0
 40
11.0
 40
12.0
 40
12.0
 40
12.0
 40
13.0
 40
13.0
 40
13.0
 40
14.0
 40
14.0
 40
14.0
 40
14.0
 10
178.6854016219953
 20
-65.52691998361801
 30
0.0
 10
178.6854016219953
 20
-65.52691998361801
 30
0.0
 10
178.6854016219953
 20
-65.5270963725069
 30
0.0
 10
178.6854016219953
 20
-65.5270963725069
 30
0.0
 10
179.3827021773765
 20
-65.3265774836681
 30
0.0
 10
180.1323549549668
 20
-65.24942498368759
 30
0.0
 10
180.7348993992608
 20
-65.18723026148089
 30
0.0
 10
180.9577843992048
 20
-65.16447609481976
 30
0.0
 10
181.1620780102652
 20
-65.14313303926969
 30
0.0
 10
181.3405482879984
 20
-65.11868553927576
 30
0.0
 10
181.3405482879984
 20
-65.11868553927576
 30
0.0
 10
181.3787893990996
 20
-65.11349970594382
 30
0.0
 10
181.3787893990996
 20
-65.11349970594382
 30
0.0
 10
181.3787893990996
 20
-65.11349970594382
 30
0.0
 10
181.4173480102011
 20
-65.11487553927671
 30
0.0
 10
181.4173480102011
 20
-65.11487553927671
 30
0.0
 10
185.2937760647879
 20
-65.2531997059088
 30
0.0
 10
188.3106610640334
 20
-66.27329192787597
 30
0.0
 10
190.9120443967163
 20
-68.32501220514101
 30
0.0
 10
194.2444891181053
 20
-70.9532772044837
 30
0.0
 10
194.9476457845965
 20
-77.0996891473917
 30
0.0
 10
192.3596680074653
 20
-80.97265997975686
 30
0.0
 10
189.706955508129
 20
-84.94296220098643
 30
0.0
 10
187.0559363421252
 20
-87.24977608929854
 30
0.0
 10
183.7631438429478
 20
-88.45264247788676
 30
0.0
 10
183.6966452318533
 20
-88.47712525565854
 30
0.0
 10
183.6291235652036
 20
-88.50347775565166
 30
0.0
 10
183.5612491207762
 20
-88.530006644534
 30
0.0
 10
183.3634818986038
 20
-88.60768831118148
 30
0.0
 10
183.178838009761
 20
-88.68018414449638
 30
0.0
 10
183.0048480098042
 20
-88.70036303338028
 30
0.0
 10
182.7017060654356
 20
-88.7347941444828
 30
0.0
 10
182.3912968988465
 20
-88.75236247781167
 30
0.0
 10
182.0826163433682
 20
-88.75236247781167
 30
0.0
 10
177.260179400129
 20
-88.75236247781167
 30
0.0
 10
172.4125894013414
 20
-84.48078803443542
 30
0.0
 10
171.7087271792948
 20
-79.61132581343045
 30
0.0
 10
171.3170380127266
 20
-76.89641859188681
 30
0.0
 10
171.4217777349224
 20
-74.35687720363285
 30
0.0
 10
172.0387860681014
 20
-71.61886303765064
 30
0.0
 10
172.7433185679254
 20
-68.48503220510094
 30
0.0
 10
174.7311155118731
 20
-66.66311137222313
 30
0.0
 10
178.6854016219953
 20
-65.52691998361801
 30
0.0
  0
SPLINE
  5
4C
330
1F
100
AcDbEntity
  8
Ebene 1
 62
   250
420
  1842203
370
    35
100
AcDbSpline
210
0.0
220
0.0
230
1.0
 70
    11
 71
     3
 72
    47
 73
    43
 74
     0
 42
0.0000000001
 43
0.0000000001
 12
1.0
 22
0.0
 32
0.0
 13
1.0
 23
0.0
 33
0.0
 40
0.0
 40
0.0
 40
0.0
 40
0.0
 40
1.0
 40
1.0
 40
1.0
 40
2.0
 40
2.0
 40
2.0
 40
3.0
 40
3.0
 40
3.0
 40
4.0
 40
4.0
 40
4.0
 40
5.0
 40
5.0
 40
5.0
 40
6.0
 40
6.0
 40
6.0
 40
7.0
 40
7.0
 40
7.0
 40
8.0
 40
8.0
 40
8.0
 40
9.0
 40
9.0
 40
9.0
 40
10.0
 40
10.0
 40
10.0
 40
11.0
 40
11.0
 40
11.0
 40
12.0
 40
12.0
 40
12.0
 40
13.0
 40
13.0
 40
13.0
 40
14.0
 40
14.0
 40
14.0
 40
14.0
 10
172.937593290099
 20
-96.39963219812218
 30
0.0
 10
172.8628396790065
 20
-99.18982219742465
 30
0.0
 10
171.7628432903927
 20
-101.6676980301386
 30
0.0
 10
169.8411569019843
 20
-103.3761302519338
 30
0.0
 10
169.8411569019843
 20
-103.3761302519338
 30
0.0
 10
169.7254105131241
 20
-103.4786121963523
 30
0.0
 10
169.7254105131241
 20
-103.4786121963523
 30
0.0
 10
168.2670977357111
 20
-104.7744708071396
 30
0.0
 10
166.7629591249762
 20
-106.1108283068054
 30
0.0
 10
165.1044802365014
 20
-107.0920091398937
 30
0.0
 10
164.2325546811642
 20
-107.6075585842086
 30
0.0
 10
163.2217405147505
 20
-107.8721419174758
 30
0.0
 10
162.151342181684
 20
-108.1520358062955
 30
0.0
 10
161.7203888484588
 20
-108.2650658062668
 30
0.0
 10
161.2897530152332
 20
-108.3777077506835
 30
0.0
 10
160.8722052375597
 20
-108.506189417318
 30
0.0
 10
160.8722052375597
 20
-108.506189417318
 30
0.0
 10
160.7891613486917
 20
-108.5316952506449
 30
0.0
 10
160.7891613486917
 20
-108.5316952506449
 30
0.0
 10
160.7891613486917
 20
-108.5316952506449
 30
0.0
 10
160.70269551538
 20
-108.524639695091
 30
0.0
 10
160.70269551538
 20
-108.524639695091
 30
0.0
 10
152.9553780173168
 20
-107.8778216396969
 30
0.0
 10
148.9593935738714
 20
-104.2212094183888
 30
0.0
 10
147.7453441297306
 20
-96.66799025361058
 30
0.0
 10
147.7453441297306
 20
-96.66799025361058
 30
0.0
 10
147.7456969075077
 20
-96.66869580916611
 30
0.0
 10
147.7456969075077
 20
-96.66869580916611
 30
0.0
 10
147.5221063520082
 20
-95.2799508095133
 30
0.0
 10
148.0130319074413
 20
-93.32108164333627
 30
0.0
 10
148.9966116294176
 20
-91.6779485881916
 30
0.0
 10
151.1404774622151
 20
-88.09866525575318
 30
0.0
 10
153.7870163504419
 20
-86.0371024784906
 30
0.0
 10
157.3261535717798
 20
-85.18997720092476
 30
0.0
 10
158.836818571402
 20
-84.8282388676817
 30
0.0
 10
160.2672266266002
 20
-84.64479442328329
 30
0.0
 10
161.5777607929389
 20
-84.64479442328329
 30
0.0
 10
164.8140735699077
 20
-84.64479442328329
 30
0.0
 10
167.4719719025766
 20
-85.71826192301472
 30
0.0
 10
169.7033619020185
 20
-87.92640386690704
 30
0.0
 10
171.7834807903873
 20
-89.98503858861464
 30
0.0
 10
173.0226832900779
 20
-93.23168775446987
 30
0.0
 10
172.937593290099
 20
-96.39963219812218
 30
0.0
  0
SPLINE
  5
4D
330
1F
100
AcDbEntity
  8
Ebene 1
 62
   250
420
  1842203
370
    35
100
AcDbSpline
210
0.0
220
0.0
230
1.0
 70
    11
 71
     3
 72
    35
 73
    31
 74
     0
 42
0.0000000001
 43
0.0000000001
 12
1.0
 22
0.0
 32
0.0
 13
1.0
 23
0.0
 33
0.0
 40
0.0
 40
0.0
 40
0.0
 40
0.0
 40
1.0
 40
1.0
 40
1.0
 40
2.0
 40
2.0
 40
2.0
 40
3.0
 40
3.0
 40
3.0
 40
4.0
 40
4.0
 40
4.0
 40
5.0
 40
5.0
 40
5.0
 40
6.0
 40
6.0
 40
6.0
 40
7.0
 40
7.0
 40
7.0
 40
8.0
 40
8.0
 40
8.0
 40
9.0
 40
9.0
 40
9.0
 40
10.0
 40
10.0
 40
10.0
 40
10.0
 10
153.4531827394143
 20
-117.3974946928723
 30
0.0
 10
153.3932457949852
 20
-123.8596074690348
 30
0.0
 10
148.5363424628658
 20
-129.1168430232757
 30
0.0
 10
142.6262916310101
 20
-129.1168430232757
 30
0.0
 10
142.3761721866279
 20
-129.1168430232757
 30
0.0
 10
142.1201966311365
 20
-129.1068594121678
 30
0.0
 10
141.8663024645334
 20
-129.0882327455053
 30
0.0
 10
141.8663024645334
 20
-129.0882327455053
 30
0.0
 10
141.8532144089813
 20
-129.0872096899502
 30
0.0
 10
141.8532144089813
 20
-129.0872096899502
 30
0.0
 10
141.8532144089813
 20
-129.0872096899502
 30
0.0
 10
141.8356107978746
 20
-129.087562467728
 30
0.0
 10
141.8356107978746
 20
-129.087562467728
 30
0.0
 10
141.7112566312387
 20
-129.0906669121715
 30
0.0
 10
141.5844682979373
 20
-129.0916899677266
 30
0.0
 10
141.4597613535236
 20
-129.0916899677266
 30
0.0
 10
132.482201911324
 20
-129.092360245504
 30
0.0
 10
130.7217349673198
 20
-122.1539621916842
 30
0.0
 10
130.4709452451603
 20
-118.0184541371618
 30
0.0
 10
130.309725800756
 20
-115.3529710822723
 30
0.0
 10
131.3811471893769
 20
-112.5877930274082
 30
0.0
 10
133.4113480222026
 20
-110.43098025017
 30
0.0
 10
135.7409160771755
 20
-107.9560324730113
 30
0.0
 10
139.0847202430066
 20
-106.5366310844769
 30
0.0
 10
142.5852635754649
 20
-106.5366310844769
 30
0.0
 10
142.5852635754649
 20
-106.5366310844769
 30
0.0
 10
142.7410149643145
 20
-106.5375130289213
 30
0.0
 10
142.7410149643145
 20
-106.5375130289213
 30
0.0
 10
149.7038957959074
 20
-106.6198513622337
 30
0.0
 10
153.494175517182
 20
-113.0110205273028
 30
0.0
 10
153.4531827394143
 20
-117.3974946928723
 30
0.0
  0
SPLINE
  5
4E
330
1F
100
AcDbEntity
  8
Ebene 1
 62
   250
420
  1842203
370
    35
100
AcDbSpline
210
0.0
220
0.0
230
1.0
 70
    11
 71
     3
 72
    32
 73
    28
 74
     0
 42
0.0000000001
 43
0.0000000001
 12
1.0
 22
0.0
 32
0.0
 13
1.0
 23
0.0
 33
0.0
 40
0.0
 40
0.0
 40
0.0
 40
0.0
 40
1.0
 40
1.0
 40
1.0
 40
2.0
 40
2.0
 40
2.0
 40
3.0
 40
3.0
 40
3.0
 40
4.0
 40
4.0
 40
4.0
 40
5.0
 40
5.0
 40
5.0
 40
6.0
 40
6.0
 40
6.0
 40
7.0
 40
7.0
 40
7.0
 40
8.0
 40
8.0
 40
8.0
 40
9.0
 40
9.0
 40
9.0
 40
9.0
 10
163.227243848082
 20
-72.4501838707761
 30
0.0
 10
163.227243848082
 20
-72.4501838707761
 30
0.0
 10
163.2289724591926
 20
-72.00162692644385
 30
0.0
 10
163.2289724591926
 20
-72.00162692644385
 30
0.0
 10
164.4427044033339
 20
-72.00540164866506
 30
0.0
 10
165.5072113475121
 20
-72.43536720411332
 30
0.0
 10
166.3078757917563
 20
-73.2449569261331
 30
0.0
 10
167.1446646804358
 20
-74.09141192592158
 30
0.0
 10
167.5997832914332
 20
-75.28806942562242
 30
0.0
 10
167.5890941247697
 20
-76.61409053640189
 30
0.0
 10
167.5711730136627
 20
-78.75400525808931
 30
0.0
 10
165.5179005141763
 20
-80.77715053536112
 30
0.0
 10
163.3633455147146
 20
-80.77715053536112
 30
0.0
 10
163.3633455147146
 20
-80.77715053536112
 30
0.0
 10
163.3251044036134
 20
-80.77679775758335
 30
0.0
 10
163.3251044036134
 20
-80.77679775758335
 30
0.0
 10
161.1288510708292
 20
-80.75217386870087
 30
0.0
 10
158.8971082936089
 20
-78.44775886927677
 30
0.0
 10
158.9012357936082
 20
-76.21051275872492
 30
0.0
 10
158.9046930158295
 20
-74.28297025920689
 30
0.0
 10
161.2459732930216
 20
-72.00162692644385
 30
0.0
 10
163.2207174591947
 20
-72.00162692644385
 30
0.0
 10
163.2207174591947
 20
-72.00162692644385
 30
0.0
 10
163.2207174591947
 20
-72.4501838707761
 30
0.0
 10
163.2207174591947
 20
-72.4501838707761
 30
0.0
 10
163.2207174591947
 20
-72.4501838707761
 30
0.0
 10
163.227243848082
 20
-72.4501838707761
 30
0.0
 10
163.227243848082
 20
-72.4501838707761
 30
0.0
  0
SPLINE
  5
4F
330
1F
100
AcDbEntity
  8
Ebene 1
 62
   250
420
  1842203
370
    35
100
AcDbSpline
210
0.0
220
0.0
230
1.0
 70
    11
 71
     3
 72
    41
 73
    37
 74
     0
 42
0.0000000001
 43
0.0000000001
 12
1.0
 22
0.0
 32
0.0
 13
1.0
 23
0.0
 33
0.0
 40
0.0
 40
0.0
 40
0.0
 40
0.0
 40
1.0
 40
1.0
 40
1.0
 40
2.0
 40
2.0
 40
2.0
 40
3.0
 40
3.0
 40
3.0
 40
4.0
 40
4.0
 40
4.0
 40
5.0
 40
5.0
 40
5.0
 40
6.0
 40
6.0
 40
6.0
 40
7.0
 40
7.0
 40
7.0
 40
8.0
 40
8.0
 40
8.0
 40
9.0
 40
9.0
 40
9.0
 40
10.0
 40
10.0
 40
10.0
 40
11.0
 40
11.0
 40
11.0
 40
12.0
 40
12.0
 40
12.0
 40
12.0
 10
165.2925813475655
 20
-67.62033859420592
 30
0.0
 10
164.2125521811689
 20
-67.90435998302365
 30
0.0
 10
163.0987621814474
 20
-68.14777664962965
 30
0.0
 10
162.0221549594946
 20
-68.38343220512617
 30
0.0
 10
161.5467516262798
 20
-68.48728998287822
 30
0.0
 10
161.0737119041761
 20
-68.59065387174115
 30
0.0
 10
160.6017657931832
 20
-68.69743970504786
 30
0.0
 10
160.6017657931832
 20
-68.69743970504786
 30
0.0
 10
160.5462738487524
 20
-68.70999859393334
 30
0.0
 10
160.5462738487524
 20
-68.70999859393334
 30
0.0
 10
160.5462738487524
 20
-68.70999859393334
 30
0.0
 10
160.4890885709891
 20
-68.70844637171157
 30
0.0
 10
160.4890885709891
 20
-68.70844637171157
 30
0.0
 10
154.063664683706
 20
-68.51311331620504
 30
0.0
 10
150.7549619067558
 20
-64.26083581726796
 30
0.0
 10
149.1109821849442
 20
-60.72790748481803
 30
0.0
 10
148.1094813518617
 20
-58.57610415202249
 30
0.0
 10
150.1679396846801
 20
-52.3073841535898
 30
0.0
 10
152.3986241285671
 20
-50.7169560984317
 30
0.0
 10
153.1520869061565
 20
-50.17900526523306
 30
0.0
 10
154.0901935725887
 20
-49.50964470984458
 30
0.0
 10
154.9421519057087
 20
-48.79907971002235
 30
0.0
 10
155.6359952388686
 20
-48.22031248794492
 30
0.0
 10
156.8049244052431
 20
-47.91455998802119
 30
0.0
 10
158.3228213493082
 20
-47.91455998802119
 30
0.0
 10
161.5453757929469
 20
-47.91455998802119
 30
0.0
 10
165.4479799586379
 20
-49.24297998768898
 30
0.0
 10
167.0220391249112
 20
-50.87560026505875
 30
0.0
 10
167.2738519026258
 20
-51.13640887610472
 30
0.0
 10
167.5295099581177
 20
-51.39340748715165
 30
0.0
 10
167.7851327358314
 20
-51.64938304264312
 30
0.0
 10
169.47596134652
 20
-53.3453974866636
 30
0.0
 10
171.0731274572314
 20
-54.94686748626325
 30
0.0
 10
171.2426019016336
 20
-57.57202804116241
 30
0.0
 10
171.5716377348845
 20
-62.64059803989544
 30
0.0
 10
169.2358607910245
 20
-66.58490053890932
 30
0.0
 10
165.2925813475655
 20
-67.62033859420592
 30
0.0
  0
SPLINE
  5
50
330
1F
100
AcDbEntity
  8
Ebene 1
 62
   250
420
  1842203
370
    35
100
AcDbSpline
210
0.0
220
0.0
230
1.0
 70
    11
 71
     3
 72
    32
 73
    28
 74
     0
 42
0.0000000001
 43
0.0000000001
 12
1.0
 22
0.0
 32
0.0
 13
1.0
 23
0.0
 33
0.0
 40
0.0
 40
0.0
 40
0.0
 40
0.0
 40
1.0
 40
1.0
 40
1.0
 40
2.0
 40
2.0
 40
2.0
 40
3.0
 40
3.0
 40
3.0
 40
4.0
 40
4.0
 40
4.0
 40
5.0
 40
5.0
 40
5.0
 40
6.0
 40
6.0
 40
6.0
 40
7.0
 40
7.0
 40
7.0
 40
8.0
 40
8.0
 40
8.0
 40
9.0
 40
9.0
 40
9.0
 40
9.0
 10
149.0813488516187
 20
-69.44261220486149
 30
0.0
 10
151.1160299622208
 20
-69.44261220486149
 30
0.0
 10
152.5230135729805
 20
-70.43134248239214
 30
0.0
 10
153.344668294997
 20
-71.26075831551807
 30
0.0
 10
154.7103063502112
 20
-72.63966081517333
 30
0.0
 10
155.5812088499933
 20
-74.69550859243701
 30
0.0
 10
155.5636405166648
 20
-76.49816775865315
 30
0.0
 10
155.5419446833369
 20
-78.68150942477409
 30
0.0
 10
154.505307183596
 20
-81.0823738686182
 30
0.0
 10
152.9229930173248
 20
-82.61459359045722
 30
0.0
 10
151.7072149620734
 20
-83.79124859016302
 30
0.0
 10
150.2247721846657
 20
-84.41051470111933
 30
0.0
 10
148.6272885739546
 20
-84.41051470111933
 30
0.0
 10
148.5814627406327
 20
-84.41051470111933
 30
0.0
 10
148.5349666295329
 20
-84.40984442334197
 30
0.0
 10
148.4884352406555
 20
-84.40878609000868
 30
0.0
 10
143.8902944084721
 20
-84.29751997892556
 30
0.0
 10
141.1466005202688
 20
-81.62325275737183
 30
0.0
 10
141.1479763536017
 20
-77.25575803624155
 30
0.0
 10
141.1497049647124
 20
-72.67617331516426
 30
0.0
 10
144.1276432973017
 20
-69.47792526040809
 30
0.0
 10
148.3895869073472
 20
-69.47792526040809
 30
0.0
 10
148.3895869073472
 20
-69.47792526040809
 30
0.0
 10
148.4419391295563
 20
-69.47464442707567
 30
0.0
 10
148.4419391295563
 20
-69.47464442707567
 30
0.0
 10
148.6427755183947
 20
-69.45397164930296
 30
0.0
 10
148.8653430183391
 20
-69.44261220486149
 30
0.0
 10
149.0813488516187
 20
-69.44261220486149
 30
0.0
  0
SPLINE
  5
51
330
1F
100
AcDbEntity
  8
Ebene 1
 62
   250
420
  1842203
370
    35
100
AcDbSpline
210
0.0
220
0.0
230
1.0
 70
    11
 71
     3
 72
    38
 73
    34
 74
     0
 42
0.0000000001
 43
0.0000000001
 12
1.0
 22
0.0
 32
0.0
 13
1.0
 23
0.0
 33
0.0
 40
0.0
 40
0.0
 40
0.0
 40
0.0
 40
1.0
 40
1.0
 40
1.0
 40
2.0
 40
2.0
 40
2.0
 40
3.0
 40
3.0
 40
3.0
 40
4.0
 40
4.0
 40
4.0
 40
5.0
 40
5.0
 40
5.0
 40
6.0
 40
6.0
 40
6.0
 40
7.0
 40
7.0
 40
7.0
 40
8.0
 40
8.0
 40
8.0
 40
9.0
 40
9.0
 40
9.0
 40
10.0
 40
10.0
 40
10.0
 40
11.0
 40
11.0
 40
11.0
 40
11.0
 10
142.4006196866222
 20
-90.99528831058427
 30
0.0
 10
143.0534702420145
 20
-93.6790452543578
 30
0.0
 10
142.5711524643571
 20
-96.17501858706721
 30
0.0
 10
140.9264671869906
 20
-98.6254835864547
 30
0.0
 10
138.8332249652916
 20
-101.745026919008
 30
0.0
 10
136.009626910442
 20
-103.8992644184694
 30
0.0
 10
132.5345541335331
 20
-105.0283649737427
 30
0.0
 10
131.5747516337731
 20
-105.3399735847764
 30
0.0
 10
130.5712046895797
 20
-105.4679613625218
 30
0.0
 10
129.5087438565116
 20
-105.6033574735989
 30
0.0
 10
129.0401844121843
 20
-105.662976918029
 30
0.0
 10
128.5599480234154
 20
-105.7241133069021
 30
0.0
 10
128.0896952457556
 20
-105.8019713624382
 30
0.0
 10
127.8557683013697
 20
-105.8271244179879
 30
0.0
 10
127.6421613569781
 20
-105.8383074735405
 30
0.0
 10
127.4282369125876
 20
-105.8383074735405
 30
0.0
 10
124.7293458021511
 20
-105.8383074735405
 30
0.0
 10
121.6201388584839
 20
-104.0244652517715
 30
0.0
 10
119.5069294145677
 20
-101.2172360858071
 30
0.0
 10
117.1746096929283
 20
-98.1187183088037
 30
0.0
 10
116.3915135820134
 20
-94.41508080972939
 30
0.0
 10
117.3585833039937
 20
-91.05593081056921
 30
0.0
 10
119.3033413590628
 20
-84.29960136781396
 30
0.0
 10
123.252088858076
 20
-80.59095442429661
 30
0.0
 10
129.4305330231978
 20
-79.71811164673716
 30
0.0
 10
129.8043363564379
 20
-79.66523025786137
 30
0.0
 10
130.1850188563424
 20
-79.638560257868
 30
0.0
 10
130.5615385784707
 20
-79.638560257868
 30
0.0
 10
134.0986296886977
 20
-79.638560257868
 30
0.0
 10
136.9356685768772
 20
-81.93591970173814
 30
0.0
 10
138.6919727431045
 20
-83.86325053458977
 30
0.0
 10
140.5044391315407
 20
-85.85281136742562
 30
0.0
 10
141.7174655201264
 20
-88.18566025573125
 30
0.0
 10
142.4006196866222
 20
-90.99528831058427
 30
0.0
  0
SPLINE
  5
52
330
1F
100
AcDbEntity
  8
Ebene 1
 62
   250
420
  1842203
370
    35
100
AcDbSpline
210
0.0
220
0.0
230
1.0
 70
    11
 71
     3
 72
    38
 73
    34
 74
     0
 42
0.0000000001
 43
0.0000000001
 12
1.0
 22
0.0
 32
0.0
 13
1.0
 23
0.0
 33
0.0
 40
0.0
 40
0.0
 40
0.0
 40
0.0
 40
1.0
 40
1.0
 40
1.0
 40
2.0
 40
2.0
 40
2.0
 40
3.0
 40
3.0
 40
3.0
 40
4.0
 40
4.0
 40
4.0
 40
5.0
 40
5.0
 40
5.0
 40
6.0
 40
6.0
 40
6.0
 40
7.0
 40
7.0
 40
7.0
 40
8.0
 40
8.0
 40
8.0
 40
9.0
 40
9.0
 40
9.0
 40
10.0
 40
10.0
 40
10.0
 40
11.0
 40
11.0
 40
11.0
 40
11.0
 10
119.299178581286
 20
-75.01523109235728
 30
0.0
 10
118.9636516369254
 20
-80.73770997981553
 30
0.0
 10
114.9821310823657
 20
-86.81931664496179
 30
0.0
 10
108.2638663618228
 20
-86.81931664496179
 30
0.0
 10
108.032338306325
 20
-86.81931664496179
 30
0.0
 10
107.7967180286066
 20
-86.81208470051897
 30
0.0
 10
107.5627910842201
 20
-86.79762081163396
 30
0.0
 10
105.8219738624335
 20
-86.68995303388284
 30
0.0
 10
103.6880916407446
 20
-85.78236164522096
 30
0.0
 10
101.8545996967586
 20
-84.37005109001862
 30
0.0
 10
101.6093133079312
 20
-84.18142081228794
 30
0.0
 10
101.3609224746597
 20
-83.99398997900127
 30
0.0
 10
101.1108030302775
 20
-83.80588886793724
 30
0.0
 10
98.98069553081014
 20
-82.2013497016719
 30
0.0
 10
96.96841580909134
 20
-80.6858516464952
 30
0.0
 10
96.33419192036091
 20
-77.928575813851
 30
0.0
 10
95.37851692059957
 20
-73.77620498155588
 30
0.0
 10
98.37229497540685
 20
-68.22563470516569
 30
0.0
 10
102.377910252183
 20
-66.72287192776366
 30
0.0
 10
104.3047471961459
 20
-66.00027720572196
 30
0.0
 10
106.175457195678
 20
-65.6338822058136
 30
0.0
 10
107.9382877507933
 20
-65.6338822058136
 30
0.0
 10
111.1928744166462
 20
-65.6338822058136
 30
0.0
 10
114.2266221936654
 20
-66.88737220550033
 30
0.0
 10
116.9551466374281
 20
-69.35992109377095
 30
0.0
 10
118.4062274703983
 20
-70.67422998233117
 30
0.0
 10
119.1951444146457
 20
-72.56180275963729
 30
0.0
 10
119.2995313590638
 20
-74.96958164792431
 30
0.0
 10
119.2995313590638
 20
-74.96958164792431
 30
0.0
 10
119.3005544146196
 20
-74.99230053680728
 30
0.0
 10
119.3005544146196
 20
-74.99230053680728
 30
0.0
 10
119.3005544146196
 20
-74.99230053680728
 30
0.0
 10
119.299178581286
 20
-75.01523109235728
 30
0.0
 10
119.299178581286
 20
-75.01523109235728
 30
0.0
  0
SPLINE
  5
53
330
1F
100
AcDbEntity
  8
Ebene 1
 62
   250
420
  1842203
370
    35
100
AcDbSpline
210
0.0
220
0.0
230
1.0
 70
    11
 71
     3
 72
    29
 73
    25
 74
     0
 42
0.0000000001
 43
0.0000000001
 12
1.0
 22
0.0
 32
0.0
 13
1.0
 23
0.0
 33
0.0
 40
0.0
 40
0.0
 40
0.0
 40
0.0
 40
1.0
 40
1.0
 40
1.0
 40
2.0
 40
2.0
 40
2.0
 40
3.0
 40
3.0
 40
3.0
 40
4.0
 40
4.0
 40
4.0
 40
5.0
 40
5.0
 40
5.0
 40
6.0
 40
6.0
 40
6.0
 40
7.0
 40
7.0
 40
7.0
 40
8.0
 40
8.0
 40
8.0
 40
8.0
 10
101.966924141175
 20
-109.6193091392614
 30
0.0
 10
101.966924141175
 20
-109.6193091392614
 30
0.0
 10
101.9610680300651
 20
-109.6193091392614
 30
0.0
 10
101.9610680300651
 20
-109.6193091392614
 30
0.0
 10
101.9610680300651
 20
-109.6193091392614
 30
0.0
 10
101.9555294189554
 20
-109.6193091392614
 30
0.0
 10
101.9555294189554
 20
-109.6193091392614
 30
0.0
 10
99.75447830839451
 20
-109.6193091392614
 30
0.0
 10
97.66571636447256
 20
-108.7337663617055
 30
0.0
 10
96.07408886487013
 20
-107.1257699732185
 30
0.0
 10
94.21717247644564
 20
-105.2488510847987
 30
0.0
 10
93.16952831004102
 20
-102.5127771965942
 30
0.0
 10
93.20018469892233
 20
-99.6193996973173
 30
0.0
 10
93.23909608780158
 20
-95.9052494204681
 30
0.0
 10
98.97759108636662
 20
-91.50914442156707
 30
0.0
 10
103.7866224740534
 20
-91.50914442156707
 30
0.0
 10
104.0215724739944
 20
-91.50914442156707
 30
0.0
 10
104.255852196158
 20
-91.5196571993423
 30
0.0
 10
104.4825119183235
 20
-91.54047108822574
 30
0.0
 10
108.4044130284544
 20
-91.89998692146935
 30
0.0
 10
112.3638849719091
 20
-94.48344914304563
 30
0.0
 10
112.3659310830194
 20
-99.44406914180549
 30
0.0
 10
112.3686827496858
 20
-104.910713584883
 30
0.0
 10
107.7036905286294
 20
-109.4749524726315
 30
0.0
 10
101.966924141175
 20
-109.6193091392614
 30
0.0
  0
SPLINE
  5
54
330
1F
100
AcDbEntity
  8
Ebene 1
 62
   250
420
  1842203
370
    35
100
AcDbSpline
210
0.0
220
0.0
230
1.0
 70
    11
 71
     3
 72
    26
 73
    22
 74
     0
 42
0.0000000001
 43
0.0000000001
 12
1.0
 22
0.0
 32
0.0
 13
1.0
 23
0.0
 33
0.0
 40
0.0
 40
0.0
 40
0.0
 40
0.0
 40
1.0
 40
1.0
 40
1.0
 40
2.0
 40
2.0
 40
2.0
 40
3.0
 40
3.0
 40
3.0
 40
4.0
 40
4.0
 40
4.0
 40
5.0
 40
5.0
 40
5.0
 40
6.0
 40
6.0
 40
6.0
 40
7.0
 40
7.0
 40
7.0
 40
7.0
 10
105.9156716401875
 20
-128.6069733011812
 30
0.0
 10
108.9649416394256
 20
-128.8550113566756
 30
0.0
 10
111.0753994166754
 20
-131.1725144116515
 30
0.0
 10
111.2917580277327
 20
-134.510462466372
 30
0.0
 10
111.3537763610502
 20
-135.4606341328012
 30
0.0
 10
110.8439066389557
 20
-136.5878649658525
 30
0.0
 10
109.8923591391936
 20
-137.6034769100429
 30
0.0
 10
108.612163861736
 20
-138.9691149652572
 30
0.0
 10
106.8176185844068
 20
-139.8517649650367
 30
0.0
 10
105.3210646958918
 20
-139.8517649650367
 30
0.0
 10
105.2125502514745
 20
-139.8517649650367
 30
0.0
 10
105.1054116403906
 20
-139.8472846872602
 30
0.0
 10
104.9985905293058
 20
-139.8379713539297
 30
0.0
 10
102.6762544187757
 20
-139.6374524650909
 30
0.0
 10
99.82856164170965
 20
-137.2834369101237
 30
0.0
 10
99.98667664166975
 20
-135.0579030217911
 30
0.0
 10
100.2571160860469
 20
-131.2589802449633
 30
0.0
 10
102.6707510854435
 20
-128.6052446900705
 30
0.0
 10
105.8564402513139
 20
-128.6052446900705
 30
0.0
 10
105.8564402513139
 20
-128.6052446900705
 30
0.0
 10
105.9156716401875
 20
-128.6069733011812
 30
0.0
 10
105.9156716401875
 20
-128.6069733011812
 30
0.0
  0
SPLINE
  5
55
330
1F
100
AcDbEntity
  8
Ebene 1
 62
   250
420
  1842203
370
    35
100
AcDbSpline
210
0.0
220
0.0
230
1.0
 70
    11
 71
     3
 72
    29
 73
    25
 74
     0
 42
0.0000000001
 43
0.0000000001
 12
1.0
 22
0.0
 32
0.0
 13
1.0
 23
0.0
 33
0.0
 40
0.0
 40
0.0
 40
0.0
 40
0.0
 40
1.0
 40
1.0
 40
1.0
 40
2.0
 40
2.0
 40
2.0
 40
3.0
 40
3.0
 40
3.0
 40
4.0
 40
4.0
 40
4.0
 40
5.0
 40
5.0
 40
5.0
 40
6.0
 40
6.0
 40
6.0
 40
7.0
 40
7.0
 40
7.0
 40
8.0
 40
8.0
 40
8.0
 40
8.0
 10
97.35876442010482
 20
-84.63082442328675
 30
0.0
 10
98.45121136427616
 20
-84.68352942327334
 30
0.0
 10
99.33142719738949
 20
-84.93160275654463
 30
0.0
 10
99.92088358613071
 20
-85.3560297008832
 30
0.0
 10
100.5664669193026
 20
-85.82060275632253
 30
0.0
 10
100.8923983081099
 20
-86.50548553392899
 30
0.0
 10
100.8903169192215
 20
-87.3917338670408
 30
0.0
 10
100.8892938636664
 20
-87.90333220024631
 30
0.0
 10
100.5826594192989
 20
-88.47073997788226
 30
0.0
 10
100.0042449749989
 20
-89.03246803329748
 30
0.0
 10
99.08060219745178
 20
-89.92887636640644
 30
0.0
 10
97.34324219788652
 20
-90.87146331061534
 30
0.0
 10
95.66412580941723
 20
-90.87146331061534
 30
0.0
 10
95.62345053164981
 20
-90.87146331061534
 30
0.0
 10
95.5828105316599
 20
-90.8709341439487
 30
0.0
 10
95.54248803166959
 20
-90.86991108839358
 30
0.0
 10
94.28296553198469
 20
-90.82874192173703
 30
0.0
 10
93.55571414327768
 20
-90.32504581075203
 30
0.0
 10
93.55846580994344
 20
-87.87161747803204
 30
0.0
 10
93.56086469883209
 20
-85.56205192305384
 30
0.0
 10
94.27675664309761
 20
-84.72402831215221
 30
0.0
 10
96.45406580921974
 20
-84.62944858995355
 30
0.0
 10
96.45406580921974
 20
-84.62944858995355
 30
0.0
 10
97.35876442010482
 20
-84.63082442328675
 30
0.0
 10
97.35876442010482
 20
-84.63082442328675
 30
0.0
  0
SPLINE
  5
56
330
1F
100
AcDbEntity
  8
Ebene 1
 62
   250
420
  1842203
370
    35
100
AcDbSpline
210
0.0
220
0.0
230
1.0
 70
    11
 71
     3
 72
    38
 73
    34
 74
     0
 42
0.0000000001
 43
0.0000000001
 12
1.0
 22
0.0
 32
0.0
 13
1.0
 23
0.0
 33
0.0
 40
0.0
 40
0.0
 40
0.0
 40
0.0
 40
1.0
 40
1.0
 40
1.0
 40
2.0
 40
2.0
 40
2.0
 40
3.0
 40
3.0
 40
3.0
 40
4.0
 40
4.0
 40
4.0
 40
5.0
 40
5.0
 40
5.0
 40
6.0
 40
6.0
 40
6.0
 40
7.0
 40
7.0
 40
7.0
 40
8.0
 40
8.0
 40
8.0
 40
9.0
 40
9.0
 40
9.0
 40
10.0
 40
10.0
 40
10.0
 40
11.0
 40
11.0
 40
11.0
 40
11.0
 10
95.41467664281305
 20
-65.75911831689358
 30
0.0
 10
94.3094944208667
 20
-67.83115859415324
 30
0.0
 10
92.37715414357234
 20
-69.37406748265636
 30
0.0
 10
89.97420831083981
 20
-70.10354137136281
 30
0.0
 10
89.58181358871545
 20
-70.2225685935554
 30
0.0
 10
89.16768775548572
 20
-70.2726983157651
 30
0.0
 10
88.72879692226215
 20
-70.32610887130721
 30
0.0
 10
88.53656831119882
 20
-70.34918053796825
 30
0.0
 10
88.34673858902414
 20
-70.37228748240682
 30
0.0
 10
88.15863747796011
 20
-70.40121526017748
 30
0.0
 10
88.15863747796011
 20
-70.40121526017748
 30
0.0
 10
88.00323886688827
 20
-70.40724776017598
 30
0.0
 10
88.00323886688827
 20
-70.40724776017598
 30
0.0
 10
85.8235308118775
 20
-70.40724776017598
 30
0.0
 10
83.74510525684126
 20
-69.52424498261874
 30
0.0
 10
82.14726886835179
 20
-67.9209052607974
 30
0.0
 10
80.78131331313793
 20
-66.5504694278068
 30
0.0
 10
79.9686191466743
 20
-64.83342942823586
 30
0.0
 10
79.97341692445096
 20
-63.3282677619455
 30
0.0
 10
79.98100164667154
 20
-60.87794387366937
 30
0.0
 10
80.63487525761893
 20
-58.37678470762802
 30
0.0
 10
81.72319470179163
 20
-56.63804887472923
 30
0.0
 10
82.48868720159989
 20
-55.41468609725717
 30
0.0
 10
84.64119608995063
 20
-52.5692158201909
 30
0.0
 10
88.0904102557549
 20
-52.5692158201909
 30
0.0
 10
88.35016053346791
 20
-52.5692158201909
 30
0.0
 10
88.61509664451286
 20
-52.58576109796464
 30
0.0
 10
88.87728108889205
 20
-52.61881637573396
 30
0.0
 10
92.57594442130049
 20
-53.08289554228482
 30
0.0
 10
94.96647247625825
 20
-55.00885054180323
 30
0.0
 10
95.98243719822645
 20
-58.3435530409695
 30
0.0
 10
96.77721025358314
 20
-60.94924026254026
 30
0.0
 10
96.57566830918921
 20
-63.58283220632626
 30
0.0
 10
95.41467664281305
 20
-65.75911831689358
 30
0.0
  0
SPLINE
  5
57
330
1F
100
AcDbEntity
  8
Ebene 1
 62
   250
420
  1842203
370
    35
100
AcDbSpline
210
0.0
220
0.0
230
1.0
 70
     8
 71
     3
 72
    29
 73
    25
 74
     0
 42
0.0000000001
 43
0.0000000001
 12
1.0
 22
0.0
 32
0.0
 13
1.0
 23
0.0
 33
0.0
 40
0.0
 40
0.0
 40
0.0
 40
0.0
 40
1.0
 40
1.0
 40
1.0
 40
2.0
 40
2.0
 40
2.0
 40
3.0
 40
3.0
 40
3.0
 40
4.0
 40
4.0
 40
4.0
 40
5.0
 40
5.0
 40
5.0
 40
6.0
 40
6.0
 40
6.0
 40
7.0
 40
7.0
 40
7.0
 40
8.0
 40
8.0
 40
8.0
 40
8.0
 10
105.5467013625022
 20
-143.7467844085078
 30
0.0
 10
107.5476216397795
 20
-143.7481602418406
 30
0.0
 10
109.4513869170816
 20
-144.5587730194158
 30
0.0
 10
110.9069480278289
 20
-146.029503574603
 30
0.0
 10
112.3728102496844
 20
-147.5101824631226
 30
0.0
 10
113.1696646939295
 20
-149.4422052404167
 30
0.0
 10
113.1500502494901
 20
-151.4672202399105
 30
0.0
 10
113.1259202494961
 20
-153.9649221837302
 30
0.0
 10
112.5357935829775
 20
-155.7426046832865
 30
0.0
 10
111.346544416608
 20
-156.9025732941081
 30
0.0
 10
110.1607171946817
 20
-158.0597549604846
 30
0.0
 10
108.3486035840239
 20
-158.6233880159
 30
0.0
 10
105.8137188624356
 20
-158.6233880159
 30
0.0
 10
105.7261946957905
 20
-158.6233880159
 30
0.0
 10
105.6376474735904
 20
-158.6226824603445
 30
0.0
 10
105.5477596958355
 20
-158.6216594047893
 30
0.0
 10
101.5042560857352
 20
-158.556219127028
 30
0.0
 10
99.48714330846155
 20
-155.643050794422
 30
0.0
 10
99.00687164191504
 20
-149.1755405182611
 30
0.0
 10
98.90110886416346
 20
-147.7544457963948
 30
0.0
 10
99.63114719731439
 20
-146.6458063522278
 30
0.0
 10
100.2619491416011
 20
-145.966462185731
 30
0.0
 10
101.5331838635058
 20
-144.5973669082955
 30
0.0
 10
103.5561527518888
 20
-143.7467844085078
 30
0.0
 10
105.5419035847256
 20
-143.7467844085078
 30
0.0
  0
SPLINE
  5
58
330
1F
100
AcDbEntity
  8
Ebene 1
 62
   250
420
  1842203
370
    35
100
AcDbSpline
210
0.0
220
0.0
230
1.0
 70
    11
 71
     3
 72
    38
 73
    34
 74
     0
 42
0.0000000001
 43
0.0000000001
 12
1.0
 22
0.0
 32
0.0
 13
1.0
 23
0.0
 33
0.0
 40
0.0
 40
0.0
 40
0.0
 40
0.0
 40
1.0
 40
1.0
 40
1.0
 40
2.0
 40
2.0
 40
2.0
 40
3.0
 40
3.0
 40
3.0
 40
4.0
 40
4.0
 40
4.0
 40
5.0
 40
5.0
 40
5.0
 40
6.0
 40
6.0
 40
6.0
 40
7.0
 40
7.0
 40
7.0
 40
8.0
 40
8.0
 40
8.0
 40
9.0
 40
9.0
 40
9.0
 40
10.0
 40
10.0
 40
10.0
 40
11.0
 40
11.0
 40
11.0
 40
11.0
 10
111.4605621943569
 20
-126.1598949684593
 30
0.0
 10
108.7744063616954
 20
-124.5155624688713
 30
0.0
 10
107.1183616398868
 20
-122.3789285805166
 30
0.0
 10
106.6715333066655
 20
-119.9811333033378
 30
0.0
 10
106.2309138623313
 20
-117.6178044150401
 30
0.0
 10
106.9826127510319
 20
-115.0815085823407
 30
0.0
 10
108.8453852505664
 20
-112.6473771940602
 30
0.0
 10
110.9303724722674
 20
-109.9230155280743
 30
0.0
 10
113.4797210827414
 20
-108.4087169173419
 30
0.0
 10
116.6392341375069
 20
-108.0181919174396
 30
0.0
 10
116.8683280263386
 20
-107.9901460841133
 30
0.0
 10
117.1057121929458
 20
-107.9756469174508
 30
0.0
 10
117.3444369151083
 20
-107.9756469174508
 30
0.0
 10
119.6089174700977
 20
-107.9756469174508
 30
0.0
 10
122.1200249694698
 20
-109.272034694904
 30
0.0
 10
123.8973546912476
 20
-111.3591033054935
 30
0.0
 10
125.357396079772
 20
-113.0731799717316
 30
0.0
 10
126.0405502462678
 20
-115.010706082358
 30
0.0
 10
125.7721921907791
 20
-116.6748646930531
 30
0.0
 10
125.7721921907791
 20
-116.6748646930531
 30
0.0
 10
125.7663360796697
 20
-116.7112008041555
 30
0.0
 10
125.7663360796697
 20
-116.7112008041555
 30
0.0
 10
125.7663360796697
 20
-116.7112008041555
 30
0.0
 10
125.7690877463355
 20
-116.7465138597021
 30
0.0
 10
125.7690877463355
 20
-116.7465138597021
 30
0.0
 10
125.9716527462846
 20
-119.2580094146295
 30
0.0
 10
124.9791124687548
 20
-121.8993624695249
 30
0.0
 10
123.046066635905
 20
-123.9953563578897
 30
0.0
 10
121.0513552475147
 20
-126.1564730240162
 30
0.0
 10
118.4020999703997
 20
-127.3966985792613
 30
0.0
 10
115.7779624710557
 20
-127.3966985792613
 30
0.0
 10
114.2538566381029
 20
-127.3966985792613
 30
0.0
 10
112.801047194022
 20
-126.9801738571442
 30
0.0
 10
111.4605621943569
 20
-126.1598949684593
 30
0.0
  0
SPLINE
  5
59
330
1F
100
AcDbEntity
  8
Ebene 1
 62
   250
420
  1842203
370
    35
100
AcDbSpline
210
0.0
220
0.0
230
1.0
 70
    11
 71
     3
 72
    32
 73
    28
 74
     0
 42
0.0000000001
 43
0.0000000001
 12
1.0
 22
0.0
 32
0.0
 13
1.0
 23
0.0
 33
0.0
 40
0.0
 40
0.0
 40
0.0
 40
0.0
 40
1.0
 40
1.0
 40
1.0
 40
2.0
 40
2.0
 40
2.0
 40
3.0
 40
3.0
 40
3.0
 40
4.0
 40
4.0
 40
4.0
 40
5.0
 40
5.0
 40
5.0
 40
6.0
 40
6.0
 40
6.0
 40
7.0
 40
7.0
 40
7.0
 40
8.0
 40
8.0
 40
8.0
 40
9.0
 40
9.0
 40
9.0
 40
9.0
 10
115.4624027489122
 20
-139.1723855207618
 30
0.0
 10
115.3783358044885
 20
-138.5222866320359
 30
0.0
 10
115.2991019156195
 20
-137.9083827433004
 30
0.0
 10
115.4468805266939
 20
-137.3712785767683
 30
0.0
 10
116.7632708041426
 20
-132.5784749668548
 30
0.0
 10
121.3697019141021
 20
-129.8633913564226
 30
0.0
 10
125.0928127465048
 20
-129.368655800991
 30
0.0
 10
125.5293046908397
 20
-129.3108002454497
 30
0.0
 10
125.9751099685058
 20
-129.2815196899019
 30
0.0
 10
126.4171052461736
 20
-129.2815196899019
 30
0.0
 10
130.542276911809
 20
-129.2815196899019
 30
0.0
 10
134.4052288552877
 20
-131.7588663559486
 30
0.0
 10
136.2580177437136
 20
-135.5935960772121
 30
0.0
 10
138.7426316319812
 20
-140.7340269092602
 30
0.0
 10
137.4203852434226
 20
-145.9478355190686
 30
0.0
 10
132.721632189042
 20
-149.5407360737261
 30
0.0
 10
130.1746824674566
 20
-151.4892688510161
 30
0.0
 10
127.4495799681377
 20
-152.5210732952029
 30
0.0
 10
124.8413174687897
 20
-152.5228019063135
 30
0.0
 10
121.7483030251182
 20
-152.523507461869
 30
0.0
 10
117.5756121928284
 20
-149.3777880182105
 30
0.0
 10
116.2544241376031
 20
-146.0501763523758
 30
0.0
 10
115.6232694155387
 20
-144.4599246861069
 30
0.0
 10
115.0269338601324
 20
-142.9581849642599
 30
0.0
 10
115.4754908044643
 20
-141.1657210758198
 30
0.0
 10
115.6360046933131
 20
-140.521831075981
 30
0.0
 10
115.5474927488911
 20
-139.836242742819
 30
0.0
 10
115.4624027489122
 20
-139.1723855207618
 30
0.0
  0
SPLINE
  5
5A
330
1F
100
AcDbEntity
  8
Ebene 1
 62
   250
420
  1842203
370
    35
100
AcDbSpline
210
0.0
220
0.0
230
1.0
 70
    11
 71
     3
 72
    29
 73
    25
 74
     0
 42
0.0000000001
 43
0.0000000001
 12
1.0
 22
0.0
 32
0.0
 13
1.0
 23
0.0
 33
0.0
 40
0.0
 40
0.0
 40
0.0
 40
0.0
 40
1.0
 40
1.0
 40
1.0
 40
2.0
 40
2.0
 40
2.0
 40
3.0
 40
3.0
 40
3.0
 40
4.0
 40
4.0
 40
4.0
 40
5.0
 40
5.0
 40
5.0
 40
6.0
 40
6.0
 40
6.0
 40
7.0
 40
7.0
 40
7.0
 40
8.0
 40
8.0
 40
8.0
 40
8.0
 10
143.5130338530107
 20
-149.3464260737744
 30
0.0
 10
146.1660991301248
 20
-149.2968255182316
 30
0.0
 10
148.7726682961403
 20
-150.3344860735276
 30
0.0
 10
150.614768017902
 20
-152.1820891286216
 30
0.0
 10
152.2598060730462
 20
-153.833653572653
 30
0.0
 10
153.1665507950416
 20
-156.0168188498851
 30
0.0
 10
153.1682794061522
 20
-158.3312527381944
 30
0.0
 10
153.1682794061522
 20
-158.3312527381944
 30
0.0
 10
153.1665507950416
 20
-158.3749971826278
 30
0.0
 10
153.1665507950416
 20
-158.3749971826278
 30
0.0
 10
152.6187927396229
 20
-164.0480519034328
 30
0.0
 10
148.3375521851376
 20
-168.4636302356619
 30
0.0
 10
143.2074577419759
 20
-168.6451696800605
 30
0.0
 10
143.0617252420124
 20
-168.6503202356156
 30
0.0
 10
142.9177213531596
 20
-168.6527544022817
 30
0.0
 10
142.7761516309723
 20
-168.6527544022817
 30
0.0
 10
139.38652163182
 20
-168.6527544022817
 30
0.0
 10
137.2240291323606
 20
-167.2726524581818
 30
0.0
 10
135.9910355215577
 20
-166.0868252362555
 30
0.0
 10
134.2967144108704
 20
-164.4569566255518
 30
0.0
 10
133.3179677444483
 20
-162.195263015007
 30
0.0
 10
133.3062555222291
 20
-159.8808644044746
 30
0.0
 10
133.2745760777926
 20
-153.5046530171797
 30
0.0
 10
137.1854352434816
 20
-149.4683813515222
 30
0.0
 10
143.5130338530107
 20
-149.3464260737744
 30
0.0
  0
SPLINE
  5
5B
330
1F
100
AcDbEntity
  8
Ebene 1
 62
   250
420
  1842203
370
    35
100
AcDbSpline
210
0.0
220
0.0
230
1.0
 70
    11
 71
     3
 72
    32
 73
    28
 74
     0
 42
0.0000000001
 43
0.0000000001
 12
1.0
 22
0.0
 32
0.0
 13
1.0
 23
0.0
 33
0.0
 40
0.0
 40
0.0
 40
0.0
 40
0.0
 40
1.0
 40
1.0
 40
1.0
 40
2.0
 40
2.0
 40
2.0
 40
3.0
 40
3.0
 40
3.0
 40
4.0
 40
4.0
 40
4.0
 40
5.0
 40
5.0
 40
5.0
 40
6.0
 40
6.0
 40
6.0
 40
7.0
 40
7.0
 40
7.0
 40
8.0
 40
8.0
 40
8.0
 40
9.0
 40
9.0
 40
9.0
 40
9.0
 10
150.5661905179138
 20
-146.7271216299845
 30
0.0
 10
150.4983160734863
 20
-146.7295557966507
 30
0.0
 10
150.4307944068366
 20
-146.7305788522058
 30
0.0
 10
150.3629199624092
 20
-146.7305788522058
 30
0.0
 10
148.4485007962211
 20
-146.7305788522058
 30
0.0
 10
146.5192296855921
 20
-145.9302671857394
 30
0.0
 10
145.0399266304068
 20
-144.5167571860931
 30
0.0
 10
143.503755797457
 20
-143.048108019793
 30
0.0
 10
142.6056188532374
 20
-141.0675077425113
 30
0.0
 10
142.5752799643564
 20
-139.0814394096736
 30
0.0
 10
142.547022464363
 20
-137.2179613545843
 30
0.0
 10
143.2615385752957
 20
-135.4506505216932
 30
0.0
 10
144.5872421860755
 20
-134.1039566331411
 30
0.0
 10
145.9980005190561
 20
-132.6707969112771
 30
0.0
 10
147.990630518558
 20
-131.8336199670417
 30
0.0
 10
149.8723471847538
 20
-131.9135594114655
 30
0.0
 10
155.060332461235
 20
-132.1133727447488
 30
0.0
 10
157.6713466272488
 20
-134.72854968854
 30
0.0
 10
157.8542971827584
 20
-139.9085974650229
 30
0.0
 10
157.8542971827584
 20
-139.9085974650229
 30
0.0
 10
157.8549674605364
 20
-139.9244371872414
 30
0.0
 10
157.8549674605364
 20
-139.9244371872414
 30
0.0
 10
157.8549674605364
 20
-139.9244371872414
 30
0.0
 10
157.8542971827584
 20
-139.9399594094591
 30
0.0
 10
157.8542971827584
 20
-139.9399594094591
 30
0.0
 10
157.7068360716843
 20
-144.1339932973002
 30
0.0
 10
155.0503135723483
 20
-146.6079180189037
 30
0.0
 10
150.5661905179138
 20
-146.7271216299845
 30
0.0
  0
SPLINE
  5
5C
330
1F
100
AcDbEntity
  8
Ebene 1
 62
   250
420
  1842203
370
    35
100
AcDbSpline
210
0.0
220
0.0
230
1.0
 70
    11
 71
     3
 72
    41
 73
    37
 74
     0
 42
0.0000000001
 43
0.0000000001
 12
1.0
 22
0.0
 32
0.0
 13
1.0
 23
0.0
 33
0.0
 40
0.0
 40
0.0
 40
0.0
 40
0.0
 40
1.0
 40
1.0
 40
1.0
 40
2.0
 40
2.0
 40
2.0
 40
3.0
 40
3.0
 40
3.0
 40
4.0
 40
4.0
 40
4.0
 40
5.0
 40
5.0
 40
5.0
 40
6.0
 40
6.0
 40
6.0
 40
7.0
 40
7.0
 40
7.0
 40
8.0
 40
8.0
 40
8.0
 40
9.0
 40
9.0
 40
9.0
 40
10.0
 40
10.0
 40
10.0
 40
11.0
 40
11.0
 40
11.0
 40
12.0
 40
12.0
 40
12.0
 40
12.0
 10
157.8990646827476
 20
-120.3566299699104
 30
0.0
 10
157.8990646827476
 20
-120.3566299699104
 30
0.0
 10
157.8994174605254
 20
-120.3566299699104
 30
0.0
 10
157.8994174605254
 20
-120.3566299699104
 30
0.0
 10
159.0662652380108
 20
-115.5586758044437
 30
0.0
 10
164.9057252365514
 20
-110.8497274722875
 30
0.0
 10
169.688192457578
 20
-110.8497274722875
 30
0.0
 10
170.0340910686025
 20
-110.8497274722875
 30
0.0
 10
170.8647063461725
 20
-110.9253630278237
 30
0.0
 10
171.0117794016913
 20
-110.9388038611543
 30
0.0
 10
178.5544857886946
 20
-110.9446599722636
 30
0.0
 10
180.4682346771052
 20
-114.1766688603442
 30
0.0
 10
182.7216732876527
 20
-119.4962402479035
 30
0.0
 10
182.8067632876316
 20
-119.6972530256308
 30
0.0
 10
182.8935818987211
 20
-119.8987949700247
 30
0.0
 10
182.9811060653662
 20
-120.1013599699744
 30
0.0
 10
182.9811060653662
 20
-120.1013599699744
 30
0.0
 10
183.0055535653598
 20
-120.1587216366273
 30
0.0
 10
183.0055535653598
 20
-120.1587216366273
 30
0.0
 10
183.6725152318593
 20
-121.705405247351
 30
0.0
 10
184.3618782872428
 20
-123.3042646913962
 30
0.0
 10
184.4562816205529
 20
-124.8800524687795
 30
0.0
 10
184.748769676035
 20
-129.7610505231154
 30
0.0
 10
182.4484821766098
 20
-133.5654766332748
 30
0.0
 10
177.4241505111997
 20
-136.5100069103171
 30
0.0
 10
175.2223938450833
 20
-137.7998682988831
 30
0.0
 10
172.9775630123109
 20
-138.4454516320556
 30
0.0
 10
170.7554863462002
 20
-138.4454516320556
 30
0.0
 10
168.6222744022887
 20
-138.4454516320556
 30
0.0
 10
166.5100880139282
 20
-137.85084468776
 30
0.0
 10
164.4740310699925
 20
-136.6615955213905
 30
0.0
 10
161.1870594041476
 20
-134.7402619107599
 30
0.0
 10
159.1885732935365
 20
-132.2511677447152
 30
0.0
 10
158.364837182631
 20
-129.0513674677376
 30
0.0
 10
157.5693938494963
 20
-125.9573299685103
 30
0.0
 10
157.1856069051483
 20
-123.294281080287
 30
0.0
 10
157.8990646827476
 20
-120.3566299699104
 30
0.0
  0
SPLINE
  5
5D
330
1F
100
AcDbEntity
  8
Ebene 1
 62
   250
420
  1842203
370
    35
100
AcDbSpline
210
0.0
220
0.0
230
1.0
 70
    11
 71
     3
 72
    29
 73
    25
 74
     0
 42
0.0000000001
 43
0.0000000001
 12
1.0
 22
0.0
 32
0.0
 13
1.0
 23
0.0
 33
0.0
 40
0.0
 40
0.0
 40
0.0
 40
0.0
 40
1.0
 40
1.0
 40
1.0
 40
2.0
 40
2.0
 40
2.0
 40
3.0
 40
3.0
 40
3.0
 40
4.0
 40
4.0
 40
4.0
 40
5.0
 40
5.0
 40
5.0
 40
6.0
 40
6.0
 40
6.0
 40
7.0
 40
7.0
 40
7.0
 40
8.0
 40
8.0
 40
8.0
 40
8.0
 10
181.5786027323829
 20
-138.6521794097815
 30
0.0
 10
182.4674263432719
 20
-137.7519610766728
 30
0.0
 10
183.6266893985374
 20
-137.2565552434639
 30
0.0
 10
184.8428202315667
 20
-137.2565552434639
 30
0.0
 10
184.8428202315667
 20
-137.2565552434639
 30
0.0
 10
184.8528038426759
 20
-137.2565552434639
 30
0.0
 10
184.8528038426759
 20
-137.2565552434639
 30
0.0
 10
186.3311191200837
 20
-137.2596596879075
 30
0.0
 10
187.6020010642107
 20
-137.756794132227
 30
0.0
 10
188.529065786201
 20
-138.6941952431043
 30
0.0
 10
189.4671724526332
 20
-139.6433085762002
 30
0.0
 10
189.9556991191776
 20
-140.942483298098
 30
0.0
 10
189.94190550807
 20
-142.4517724643867
 30
0.0
 10
189.9184810636315
 20
-145.0700538526214
 30
0.0
 10
188.0033563418879
 20
-147.3100516298384
 30
0.0
 10
185.759901342449
 20
-147.3427541298306
 30
0.0
 10
185.759901342449
 20
-147.3427541298306
 30
0.0
 10
185.6744585646924
 20
-147.3434596853861
 30
0.0
 10
185.6744585646924
 20
-147.3434596853861
 30
0.0
 10
182.6748243987758
 20
-147.3434596853861
 30
0.0
 10
180.1175382883041
 20
-145.0827891303964
 30
0.0
 10
180.0858235660895
 20
-142.4073224643977
 30
0.0
 10
180.0689607883164
 20
-140.9972344091945
 30
0.0
 10
180.6129441215136
 20
-139.6288446873145
 30
0.0
 10
181.5786027323829
 20
-138.6521794097815
 30
0.0
  0
SPLINE
  5
5E
330
1F
100
AcDbEntity
  8
Ebene 1
 62
   250
420
  1842203
370
    35
100
AcDbSpline
210
0.0
220
0.0
230
1.0
 70
     8
 71
     3
 72
    23
 73
    19
 74
     0
 42
0.0000000001
 43
0.0000000001
 12
1.0
 22
0.0
 32
0.0
 13
1.0
 23
0.0
 33
0.0
 40
0.0
 40
0.0
 40
0.0
 40
0.0
 40
1.0
 40
1.0
 40
1.0
 40
2.0
 40
2.0
 40
2.0
 40
3.0
 40
3.0
 40
3.0
 40
4.0
 40
4.0
 40
4.0
 40
5.0
 40
5.0
 40
5.0
 40
6.0
 40
6.0
 40
6.0
 40
6.0
 10
188.6672135639445
 20
-112.3919308052354
 30
0.0
 10
190.4159682857294
 20
-112.4184596941174
 30
0.0
 10
192.4750968963259
 20
-114.4255535825043
 30
0.0
 10
192.4664891185501
 20
-116.0947216376431
 30
0.0
 10
192.4578460629969
 20
-117.5640410817199
 30
0.0
 10
192.000363840889
 20
-118.846141359177
 30
0.0
 10
191.2424207855225
 20
-119.5249916367853
 30
0.0
 10
190.8610680078401
 20
-119.8660571922557
 30
0.0
 10
190.4218243968387
 20
-120.0429752477664
 30
0.0
 10
189.9604968969543
 20
-120.0429752477664
 30
0.0
 10
189.8971380080814
 20
-120.0429752477664
 30
0.0
 10
189.8330382858749
 20
-120.0395180255452
 30
0.0
 10
189.7692913414467
 20
-120.0331327477699
 30
0.0
 10
186.8599330088409
 20
-119.7258633034019
 30
0.0
 10
185.2503843981322
 20
-118.3297099704177
 30
0.0
 10
185.4632857869676
 20
-116.2976394153699
 30
0.0
 10
185.6320899535918
 20
-114.6911952491047
 30
0.0
 10
187.5114077308997
 20
-112.3919308052354
 30
0.0
 10
188.6551485639475
 20
-112.3919308052354
 30
0.0
  0
SPLINE
  5
5F
330
1F
100
AcDbEntity
  8
Ebene 1
 62
   250
420
  1842203
370
    35
100
AcDbSpline
210
0.0
220
0.0
230
1.0
 70
    11
 71
     3
 72
    26
 73
    22
 74
     0
 42
0.0000000001
 43
0.0000000001
 12
1.0
 22
0.0
 32
0.0
 13
1.0
 23
0.0
 33
0.0
 40
0.0
 40
0.0
 40
0.0
 40
0.0
 40
1.0
 40
1.0
 40
1.0
 40
2.0
 40
2.0
 40
2.0
 40
3.0
 40
3.0
 40
3.0
 40
4.0
 40
4.0
 40
4.0
 40
5.0
 40
5.0
 40
5.0
 40
6.0
 40
6.0
 40
6.0
 40
7.0
 40
7.0
 40
7.0
 40
7.0
 10
184.1579374539602
 20
-109.9271430280736
 30
0.0
 10
184.1579374539602
 20
-109.9271430280736
 30
0.0
 10
184.0818080095355
 20
-109.9279896947398
 30
0.0
 10
184.0818080095355
 20
-109.9279896947398
 30
0.0
 10
182.6424393987838
 20
-109.9279896947398
 30
0.0
 10
180.9277982881015
 20
-109.0071338616366
 30
0.0
 10
179.4922396773489
 20
-107.4651069175776
 30
0.0
 10
177.7345596777887
 20
-105.5777105291607
 30
0.0
 10
176.7306599558175
 20
-103.1764580297612
 30
0.0
 10
176.8715594002269
 20
-101.198821085811
 30
0.0
 10
177.2439869001334
 20
-95.99362025377937
 30
0.0
 10
181.289536621344
 20
-92.79932331013329
 30
0.0
 10
184.7735699538063
 20
-92.91129497677193
 30
0.0
 10
190.7211916189865
 20
-93.40754747664802
 30
0.0
 10
194.3543793958562
 20
-96.82042553135025
 30
0.0
 10
194.5166571735931
 20
-102.0423480300449
 30
0.0
 10
194.5734896735786
 20
-103.8627166407012
 30
0.0
 10
193.9389130070711
 20
-105.5263813625073
 30
0.0
 10
192.6817893962742
 20
-106.8534255288419
 30
0.0
 10
190.8586338411739
 20
-108.7776871950278
 30
0.0
 10
187.9110343974669
 20
-109.8406771947618
 30
0.0
 10
184.1579374539602
 20
-109.9271430280736
 30
0.0
  0
SPLINE
  5
60
330
1F
100
AcDbEntity
  8
Ebene 1
 62
   250
420
  1842203
370
    35
100
AcDbSpline
210
0.0
220
0.0
230
1.0
 70
    11
 71
     3
 72
    29
 73
    25
 74
     0
 42
0.0000000001
 43
0.0000000001
 12
1.0
 22
0.0
 32
0.0
 13
1.0
 23
0.0
 33
0.0
 40
0.0
 40
0.0
 40
0.0
 40
0.0
 40
1.0
 40
1.0
 40
1.0
 40
2.0
 40
2.0
 40
2.0
 40
3.0
 40
3.0
 40
3.0
 40
4.0
 40
4.0
 40
4.0
 40
5.0
 40
5.0
 40
5.0
 40
6.0
 40
6.0
 40
6.0
 40
7.0
 40
7.0
 40
7.0
 40
8.0
 40
8.0
 40
8.0
 40
8.0
 10
196.9127238396605
 20
-109.1359683060489
 30
0.0
 10
196.9127238396605
 20
-109.1359683060489
 30
0.0
 10
196.9499066174291
 20
-109.1363210838267
 30
0.0
 10
196.9499066174291
 20
-109.1363210838267
 30
0.0
 10
197.5917505061577
 20
-109.1414716393811
 30
0.0
 10
198.2270327282208
 20
-109.4329366393087
 30
0.0
 10
198.7386310614266
 20
-109.9569174725111
 30
0.0
 10
199.3473491168295
 20
-110.5801699723547
 30
0.0
 10
199.6884146723005
 20
-111.4327985832527
 30
0.0
 10
199.6749738389699
 20
-112.295481360815
 30
0.0
 10
199.6749738389699
 20
-112.295481360815
 30
0.0
 10
199.6749738389699
 20
-112.2957988608153
 30
0.0
 10
199.6749738389699
 20
-112.2957988608153
 30
0.0
 10
199.6491505056435
 20
-113.8789949715302
 30
0.0
 10
198.5563507836943
 20
-115.0280980267989
 30
0.0
 10
197.0770477285083
 20
-115.0280980267989
 30
0.0
 10
197.0770477285083
 20
-115.0280980267989
 30
0.0
 10
197.0015885618609
 20
-115.0270749712431
 30
0.0
 10
197.0015885618609
 20
-115.0270749712431
 30
0.0
 10
195.4712738400211
 20
-114.9833305268097
 30
0.0
 10
194.140454951465
 20
-113.5160571938432
 30
0.0
 10
194.1469813403523
 20
-111.886894138695
 30
0.0
 10
194.1531902292394
 20
-110.1384921946879
 30
0.0
 10
195.161570228987
 20
-109.1359683060489
 30
0.0
 10
196.9127238396605
 20
-109.1359683060489
 30
0.0
  0
SPLINE
  5
61
330
1F
100
AcDbEntity
  8
Ebene 1
 62
   250
420
  1842203
370
    35
100
AcDbSpline
210
0.0
220
0.0
230
1.0
 70
    11
 71
     3
 72
    29
 73
    25
 74
     0
 42
0.0000000001
 43
0.0000000001
 12
1.0
 22
0.0
 32
0.0
 13
1.0
 23
0.0
 33
0.0
 40
0.0
 40
0.0
 40
0.0
 40
0.0
 40
1.0
 40
1.0
 40
1.0
 40
2.0
 40
2.0
 40
2.0
 40
3.0
 40
3.0
 40
3.0
 40
4.0
 40
4.0
 40
4.0
 40
5.0
 40
5.0
 40
5.0
 40
6.0
 40
6.0
 40
6.0
 40
7.0
 40
7.0
 40
7.0
 40
8.0
 40
8.0
 40
8.0
 40
8.0
 10
197.6975132839086
 20
-94.19286608756276
 30
0.0
 10
197.5290266172847
 20
-94.19286608756276
 30
0.0
 10
197.3629741173256
 20
-94.17494497645613
 30
0.0
 10
197.201084395144
 20
-94.13878525424296
 30
0.0
 10
197.0732377285093
 20
-94.13705664313233
 30
0.0
 10
196.736652450816
 20
-94.13292914313334
 30
0.0
 10
196.6381216175072
 20
-94.13292914313334
 30
0.0
 10
193.6136871738186
 20
-94.13292914313334
 30
0.0
 10
192.4537185629976
 20
-91.51052025489996
 30
0.0
 10
192.3793177296829
 20
-89.26484275546159
 30
0.0
 10
192.2966266185927
 20
-86.77814747830524
 30
0.0
 10
194.1318471736893
 20
-85.08608414539519
 30
0.0
 10
197.054646339625
 20
-84.95432164542791
 30
0.0
 10
198.143636061575
 20
-84.90299247877421
 30
0.0
 10
199.2433149501892
 20
-85.34689275644084
 30
0.0
 10
200.1531641166287
 20
-86.20643581178176
 30
0.0
 10
201.1519132830455
 20
-87.15039858932354
 30
0.0
 10
201.8037055051045
 20
-88.46763553343841
 30
0.0
 10
201.8130188384357
 20
-89.56230497760922
 30
0.0
 10
201.8223321717663
 20
-90.63443192178562
 30
0.0
 10
201.194281894146
 20
-91.96680303256383
 30
0.0
 10
200.2131010610578
 20
-92.95659164342744
 30
0.0
 10
199.4159291168125
 20
-93.76085442100425
 30
0.0
 10
198.525694394813
 20
-94.192513309785
 30
0.0
 10
197.6975132839086
 20
-94.19286608756276
 30
0.0
  0
SPLINE
  5
62
330
1F
100
AcDbEntity
  8
Ebene 1
 62
   250
420
  1842203
370
    35
100
AcDbSpline
210
0.0
220
0.0
230
1.0
 70
     8
 71
     3
 72
    23
 73
    19
 74
     0
 42
0.0000000001
 43
0.0000000001
 12
1.0
 22
0.0
 32
0.0
 13
1.0
 23
0.0
 33
0.0
 40
0.0
 40
0.0
 40
0.0
 40
0.0
 40
1.0
 40
1.0
 40
1.0
 40
2.0
 40
2.0
 40
2.0
 40
3.0
 40
3.0
 40
3.0
 40
4.0
 40
4.0
 40
4.0
 40
5.0
 40
5.0
 40
5.0
 40
6.0
 40
6.0
 40
6.0
 40
6.0
 10
216.0412521682121
 20
-81.01485220196852
 30
0.0
 10
217.1977635568118
 20
-81.01605164641254
 30
0.0
 10
218.0718057788149
 20
-81.30494136856261
 30
0.0
 10
218.6385080008957
 20
-81.87372497953145
 30
0.0
 10
219.2166049451955
 20
-82.45386803494208
 30
0.0
 10
219.5084227229008
 20
-83.3582138680494
 30
0.0
 10
219.5056357784569
 20
-84.56125664552619
 30
0.0
 10
219.4991093895696
 20
-86.56387025613664
 30
0.0
 10
217.7789649455551
 20
-88.68155997782958
 30
0.0
 10
216.1587271681829
 20
-88.68155997782958
 30
0.0
 10
216.0946627237539
 20
-88.68155997782958
 30
0.0
 10
216.0305982793255
 20
-88.6783144222747
 30
0.0
 10
215.9661457793418
 20
-88.67108247783219
 30
0.0
 10
213.9793718909499
 20
-88.45694636677462
 30
0.0
 10
212.4308185580036
 20
-86.63209747834185
 30
0.0
 10
212.515555780204
 20
-84.60291970107154
 30
0.0
 10
212.6054788357377
 20
-82.45679609049672
 30
0.0
 10
214.0207174464947
 20
-81.01485220196852
 30
0.0
 10
216.036771890435
 20
-81.01485220196852
 30
0.0
  0
SPLINE
  5
63
330
1F
100
AcDbEntity
  8
Ebene 1
 62
   250
420
  1842203
370
    35
100
AcDbSpline
210
0.0
220
0.0
230
1.0
 70
    11
 71
     3
 72
    29
 73
    25
 74
     0
 42
0.0000000001
 43
0.0000000001
 12
1.0
 22
0.0
 32
0.0
 13
1.0
 23
0.0
 33
0.0
 40
0.0
 40
0.0
 40
0.0
 40
0.0
 40
1.0
 40
1.0
 40
1.0
 40
2.0
 40
2.0
 40
2.0
 40
3.0
 40
3.0
 40
3.0
 40
4.0
 40
4.0
 40
4.0
 40
5.0
 40
5.0
 40
5.0
 40
6.0
 40
6.0
 40
6.0
 40
7.0
 40
7.0
 40
7.0
 40
8.0
 40
8.0
 40
8.0
 40
8.0
 10
205.5953963374901
 20
-68.87968470500226
 30
0.0
 10
205.5953963374901
 20
-68.87968470500226
 30
0.0
 10
205.5623057819426
 20
-68.87968470500226
 30
0.0
 10
205.5623057819426
 20
-68.87968470500226
 30
0.0
 10
201.8502368939818
 20
-68.87968470500226
 30
0.0
 10
198.471966339271
 20
-65.3594916503267
 30
0.0
 10
198.471966339271
 20
-61.49424665129286
 30
0.0
 10
198.471966339271
 20
-61.49424665129286
 30
0.0
 10
198.4688618948268
 20
-61.44362304019468
 30
0.0
 10
198.4688618948268
 20
-61.44362304019468
 30
0.0
 10
198.2731760615428
 20
-59.43529442958565
 30
0.0
 10
198.9139616169381
 20
-57.49141831896029
 30
0.0
 10
200.2751193943753
 20
-55.99193637489068
 30
0.0
 10
201.6676391162493
 20
-54.45731776416334
 30
0.0
 10
203.7178071712929
 20
-53.54485804216911
 30
0.0
 10
205.5337307819497
 20
-53.67129359769309
 30
0.0
 10
210.643469947339
 20
-54.02322470871643
 30
0.0
 10
214.2932030019821
 20
-57.03146665240872
 30
0.0
 10
214.4089846686198
 20
-60.98695220697552
 30
0.0
 10
214.4578796686076
 20
-62.63855192878456
 30
0.0
 10
213.6910113354665
 20
-64.37005581724084
 30
0.0
 10
212.2506196691597
 20
-65.86230581686762
 30
0.0
 10
210.4677866140497
 20
-67.70937970529488
 30
0.0
 10
207.9180852257986
 20
-68.8655735938947
 30
0.0
 10
205.5953963374901
 20
-68.87968470500226
 30
0.0
  0
SPLINE
  5
64
330
1F
100
AcDbEntity
  8
Ebene 1
 62
   250
420
  1842203
370
    35
100
AcDbSpline
210
0.0
220
0.0
230
1.0
 70
    11
 71
     3
 72
    29
 73
    25
 74
     0
 42
0.0000000001
 43
0.0000000001
 12
1.0
 22
0.0
 32
0.0
 13
1.0
 23
0.0
 33
0.0
 40
0.0
 40
0.0
 40
0.0
 40
0.0
 40
1.0
 40
1.0
 40
1.0
 40
2.0
 40
2.0
 40
2.0
 40
3.0
 40
3.0
 40
3.0
 40
4.0
 40
4.0
 40
4.0
 40
5.0
 40
5.0
 40
5.0
 40
6.0
 40
6.0
 40
6.0
 40
7.0
 40
7.0
 40
7.0
 40
8.0
 40
8.0
 40
8.0
 40
8.0
 10
209.7718618920014
 20
-77.9278702582958
 30
0.0
 10
209.8159591142126
 20
-80.14306775774205
 30
0.0
 10
209.024996058855
 20
-82.17291581279004
 30
0.0
 10
207.2831557815126
 20
-84.31473553447667
 30
0.0
 10
206.8190766149618
 20
-84.88457747877878
 30
0.0
 10
206.2413324484398
 20
-85.16136692315402
 30
0.0
 10
205.5164799486208
 20
-85.16136692315402
 30
0.0
 10
204.6969066154927
 20
-85.16136692315402
 30
0.0
 10
203.6809418935245
 20
-84.79913470102248
 30
0.0
 10
202.4979016160421
 20
-84.08461859008985
 30
0.0
 10
199.9967777277786
 20
-82.57444747935644
 30
0.0
 10
198.7227560614305
 20
-80.2648466466004
 30
0.0
 10
198.9105396724943
 20
-77.58130136949359
 30
0.0
 10
199.1223827279971
 20
-74.55256303691746
 30
0.0
 10
201.4302549496428
 20
-73.239806370579
 30
0.0
 10
203.3295399491678
 20
-72.67204581516529
 30
0.0
 10
203.6437238379777
 20
-72.57799525963327
 30
0.0
 10
203.9786157823386
 20
-72.53044081520078
 30
0.0
 10
204.3251846711411
 20
-72.53044081520078
 30
0.0
 10
205.6064030041538
 20
-72.53044081520078
 30
0.0
 10
207.0230174482443
 20
-73.18382053725936
 30
0.0
 10
208.1147941146383
 20
-74.27848998143016
 30
0.0
 10
209.1689999477078
 20
-75.33509470338826
 30
0.0
 10
209.7729202253347
 20
-76.6649258141671
 30
0.0
 10
209.7718618920014
 20
-77.9278702582958
 30
0.0
  0
SPLINE
  5
65
330
1F
100
AcDbEntity
  8
Ebene 1
 62
   250
420
  1842203
370
    35
100
AcDbSpline
210
0.0
220
0.0
230
1.0
 70
    11
 71
     3
 72
    29
 73
    25
 74
     0
 42
0.0000000001
 43
0.0000000001
 12
1.0
 22
0.0
 32
0.0
 13
1.0
 23
0.0
 33
0.0
 40
0.0
 40
0.0
 40
0.0
 40
0.0
 40
1.0
 40
1.0
 40
1.0
 40
2.0
 40
2.0
 40
2.0
 40
3.0
 40
3.0
 40
3.0
 40
4.0
 40
4.0
 40
4.0
 40
5.0
 40
5.0
 40
5.0
 40
6.0
 40
6.0
 40
6.0
 40
7.0
 40
7.0
 40
7.0
 40
8.0
 40
8.0
 40
8.0
 40
8.0
 10
218.3987249454005
 20
-77.88723025830589
 30
0.0
 10
218.3987249454005
 20
-77.88723025830589
 30
0.0
 10
218.3274285565293
 20
-77.88807692497245
 30
0.0
 10
218.3274285565293
 20
-77.88807692497245
 30
0.0
 10
216.9755841124227
 20
-77.88807692497245
 30
0.0
 10
215.2943510572875
 20
-77.08571914739518
 30
0.0
 10
214.1388627242429
 20
-75.89131942547162
 30
0.0
 10
213.338586335554
 20
-75.0643024812337
 30
0.0
 10
212.9117252245499
 20
-74.19512859256227
 30
0.0
 10
212.9365255023213
 20
-73.44392359275014
 30
0.0
 10
213.0305760578536
 20
-70.60014664901666
 30
0.0
 10
214.7968991129677
 20
-68.7604810939208
 30
0.0
 10
217.4365235567519
 20
-68.75688276058847
 30
0.0
 10
217.4365235567519
 20
-68.75688276058847
 30
0.0
 10
217.4751174456309
 20
-68.75515414947782
 30
0.0
 10
217.4751174456309
 20
-68.75515414947782
 30
0.0
 10
217.5732955011625
 20
-68.74756942725756
 30
0.0
 10
217.6866430011341
 20
-68.7432655383697
 30
0.0
 10
217.7975563344394
 20
-68.7432655383697
 30
0.0
 10
220.8940280003316
 20
-68.7432655383697
 30
0.0
 10
222.3392527221932
 20
-71.89413553758195
 30
0.0
 10
222.3764354999618
 20
-74.13155803702267
 30
0.0
 10
222.4088204999531
 20
-76.08580581431191
 30
0.0
 10
220.5502107781961
 20
-77.84091053609524
 30
0.0
 10
218.3987249454005
 20
-77.88723025830589
 30
0.0
  0
SPLINE
  5
66
330
1F
100
AcDbEntity
  8
Ebene 1
 62
   250
420
  1842203
370
    35
100
AcDbSpline
210
0.0
220
0.0
230
1.0
 70
    11
 71
     3
 72
    29
 73
    25
 74
     0
 42
0.0000000001
 43
0.0000000001
 12
1.0
 22
0.0
 32
0.0
 13
1.0
 23
0.0
 33
0.0
 40
0.0
 40
0.0
 40
0.0
 40
0.0
 40
1.0
 40
1.0
 40
1.0
 40
2.0
 40
2.0
 40
2.0
 40
3.0
 40
3.0
 40
3.0
 40
4.0
 40
4.0
 40
4.0
 40
5.0
 40
5.0
 40
5.0
 40
6.0
 40
6.0
 40
6.0
 40
7.0
 40
7.0
 40
7.0
 40
8.0
 40
8.0
 40
8.0
 40
8.0
 10
217.6876660566892
 20
-53.73779220878765
 30
0.0
 10
217.6876660566892
 20
-53.73779220878765
 30
0.0
 10
217.6873132789114
 20
-53.73779220878765
 30
0.0
 10
217.6873132789114
 20
-53.73779220878765
 30
0.0
 10
216.4312480014478
 20
-53.73779220878765
 30
0.0
 10
215.4349330016972
 20
-53.40222998664948
 30
0.0
 10
214.8065299462985
 20
-52.76715943125249
 30
0.0
 10
214.2449782797722
 20
-52.19957526472766
 30
0.0
 10
213.965260779842
 20
-51.40152137603856
 30
0.0
 10
213.9755971687284
 20
-50.39501109851231
 30
0.0
 10
214.0062535576097
 20
-47.27066998818209
 30
0.0
 10
216.278989112597
 20
-44.63104554439759
 30
0.0
 10
218.9389335563761
 20
-44.63104554439759
 30
0.0
 10
218.9389335563761
 20
-44.63104554439759
 30
0.0
 10
219.0454018896832
 20
-44.63242137773079
 30
0.0
 10
219.0454018896832
 20
-44.63242137773079
 30
0.0
 10
220.175384389401
 20
-44.66343054438955
 30
0.0
 10
221.17378077804
 20
-45.09233776650452
 30
0.0
 10
221.8627910556451
 20
-45.84008554409536
 30
0.0
 10
222.518040499926
 20
-46.55132082169526
 30
0.0
 10
222.8484168887322
 20
-47.49630665479249
 30
0.0
 10
222.7936657776351
 20
-48.50108832120809
 30
0.0
 10
222.6172768887903
 20
-51.72724109817916
 30
0.0
 10
220.6608066115013
 20
-53.73384109767755
 30
0.0
 10
217.6876660566892
 20
-53.73779220878765
 30
0.0
  0
SPLINE
  5
67
330
1F
100
AcDbEntity
  8
Ebene 1
 62
   250
420
  1842203
370
    35
100
AcDbSpline
210
0.0
220
0.0
230
1.0
 70
    11
 71
     3
 72
    29
 73
    25
 74
     0
 42
0.0000000001
 43
0.0000000001
 12
1.0
 22
0.0
 32
0.0
 13
1.0
 23
0.0
 33
0.0
 40
0.0
 40
0.0
 40
0.0
 40
0.0
 40
1.0
 40
1.0
 40
1.0
 40
2.0
 40
2.0
 40
2.0
 40
3.0
 40
3.0
 40
3.0
 40
4.0
 40
4.0
 40
4.0
 40
5.0
 40
5.0
 40
5.0
 40
6.0
 40
6.0
 40
6.0
 40
7.0
 40
7.0
 40
7.0
 40
8.0
 40
8.0
 40
8.0
 40
8.0
 10
206.3309027261951
 20
-23.33981304972062
 30
0.0
 10
210.8116038361858
 20
-23.53084221633931
 30
0.0
 10
214.9784385573663
 20
-26.55926304891551
 30
0.0
 10
216.3482041125798
 20
-30.68150665899627
 30
0.0
 10
216.9735027235343
 20
-32.5582138807494
 30
0.0
 10
217.7441810566751
 20
-35.30222526895226
 30
0.0
 10
217.2174132790288
 20
-37.45282915730348
 30
0.0
 10
215.9168980015762
 20
-42.76432193375339
 30
0.0
 10
208.2157238368351
 20
-48.25872998793506
 30
0.0
 10
203.6299655046483
 20
-48.33002637680627
 30
0.0
 10
203.6299655046483
 20
-48.33002637680627
 30
0.0
 10
203.554859115778
 20
-48.33055554347292
 30
0.0
 10
203.554859115778
 20
-48.33055554347292
 30
0.0
 10
200.2971680054809
 20
-48.33055554347292
 30
0.0
 10
196.1589435620715
 20
-45.35794415532715
 30
0.0
 10
195.1977299512005
 20
-42.32920582275103
 30
0.0
 10
193.7894057848861
 20
-37.8941541571929
 30
0.0
 10
193.783196895999
 20
-34.22582971366553
 30
0.0
 10
195.1784682845388
 20
-30.78469415897032
 30
0.0
 10
196.8413921730118
 20
-26.68121832666307
 30
0.0
 10
201.1911774497025
 20
-23.55102110522322
 30
0.0
 10
205.4317427264197
 20
-23.34136527194239
 30
0.0
 10
205.4317427264197
 20
-23.34136527194239
 30
0.0
 10
206.3309027261951
 20
-23.33981304972062
 30
0.0
 10
206.3309027261951
 20
-23.33981304972062
 30
0.0
  0
SPLINE
  5
68
330
1F
100
AcDbEntity
  8
Ebene 1
 62
   250
420
  1842203
370
    35
100
AcDbSpline
210
0.0
220
0.0
230
1.0
 70
    11
 71
     3
 72
    26
 73
    22
 74
     0
 42
0.0000000001
 43
0.0000000001
 12
1.0
 22
0.0
 32
0.0
 13
1.0
 23
0.0
 33
0.0
 40
0.0
 40
0.0
 40
0.0
 40
0.0
 40
1.0
 40
1.0
 40
1.0
 40
2.0
 40
2.0
 40
2.0
 40
3.0
 40
3.0
 40
3.0
 40
4.0
 40
4.0
 40
4.0
 40
5.0
 40
5.0
 40
5.0
 40
6.0
 40
6.0
 40
6.0
 40
7.0
 40
7.0
 40
7.0
 40
7.0
 10
197.7867307838868
 20
-19.30957388406131
 30
0.0
 10
197.7867307838868
 20
-19.30957388406131
 30
0.0
 10
197.5125166172888
 20
-19.93780055057108
 30
0.0
 10
197.5125166172888
 20
-19.93780055057108
 30
0.0
 10
196.18236800651
 20
-22.9811791609211
 30
0.0
 10
193.207181340587
 20
-24.87185638267075
 30
0.0
 10
189.7475955081189
 20
-24.87203277155963
 30
0.0
 10
189.5384688415044
 20
-24.87203277155963
 30
0.0
 10
189.325567452669
 20
-24.86515360489457
 30
0.0
 10
189.1147474527213
 20
-24.8515363826758
 30
0.0
 10
187.400106342039
 20
-24.7405877715926
 30
0.0
 10
185.5590649536106
 20
-23.72120110518063
 30
0.0
 10
184.1899696761751
 20
-22.12491693891323
 30
0.0
 10
183.6139541207631
 20
-21.45329860574779
 30
0.0
 10
183.151638843101
 20
-20.71655749482067
 30
0.0
 10
182.8160766209629
 20
-19.93504888390499
 30
0.0
 10
182.8160766209629
 20
-19.93504888390499
 30
0.0
 10
182.5473657876964
 20
-19.30957388406131
 30
0.0
 10
182.5473657876964
 20
-19.30957388406131
 30
0.0
 10
182.5473657876964
 20
-19.30957388406131
 30
0.0
 10
197.7867307838868
 20
-19.30957388406131
 30
0.0
 10
197.7867307838868
 20
-19.30957388406131
 30
0.0
  0
SPLINE
  5
69
330
1F
100
AcDbEntity
  8
Ebene 1
 62
   250
420
  1842203
370
    35
100
AcDbSpline
210
0.0
220
0.0
230
1.0
 70
    11
 71
     3
 72
    32
 73
    28
 74
     0
 42
0.0000000001
 43
0.0000000001
 12
1.0
 22
0.0
 32
0.0
 13
1.0
 23
0.0
 33
0.0
 40
0.0
 40
0.0
 40
0.0
 40
0.0
 40
1.0
 40
1.0
 40
1.0
 40
2.0
 40
2.0
 40
2.0
 40
3.0
 40
3.0
 40
3.0
 40
4.0
 40
4.0
 40
4.0
 40
5.0
 40
5.0
 40
5.0
 40
6.0
 40
6.0
 40
6.0
 40
7.0
 40
7.0
 40
7.0
 40
8.0
 40
8.0
 40
8.0
 40
9.0
 40
9.0
 40
9.0
 40
9.0
 10
184.6560949538362
 20
-27.73404832639964
 30
0.0
 10
187.4524938420257
 20
-27.9927755485572
 30
0.0
 10
190.2443771746613
 20
-30.59366499235132
 30
0.0
 10
189.9436341191806
 20
-34.05321554704227
 30
0.0
 10
189.9436341191806
 20
-34.05321554704227
 30
0.0
 10
189.94190550807
 20
-34.07198332481514
 30
0.0
 10
189.94190550807
 20
-34.07198332481514
 30
0.0
 10
189.94190550807
 20
-34.07198332481514
 30
0.0
 10
189.9426110636255
 20
-34.09025721369952
 30
0.0
 10
189.9426110636255
 20
-34.09025721369952
 30
0.0
 10
190.0118260636083
 20
-35.93200415768348
 30
0.0
 10
189.4482282859711
 20
-37.53897749061499
 30
0.0
 10
188.3130599529221
 20
-38.73715193476009
 30
0.0
 10
187.1978941198671
 20
-39.9141949900215
 30
0.0
 10
185.5607935647213
 20
-40.63266221206391
 30
0.0
 10
183.9343468984607
 20
-40.65936748983513
 30
0.0
 10
183.9343468984607
 20
-40.65936748983513
 30
0.0
 10
183.8340874540413
 20
-40.66003776761281
 30
0.0
 10
183.8340874540413
 20
-40.66003776761281
 30
0.0
 10
180.4437871771116
 20
-40.66003776761281
 30
0.0
 10
177.6456596778108
 20
-37.98612332383684
 30
0.0
 10
177.5933074556017
 20
-34.69950443576938
 30
0.0
 10
177.5633213444977
 20
-32.82918249179252
 30
0.0
 10
178.3012618998688
 20
-30.98881138114146
 30
0.0
 10
179.6183224550955
 20
-29.65037249258722
 30
0.0
 10
180.9867121769755
 20
-28.25975777071272
 30
0.0
 10
182.8074688431871
 20
-27.56231610422046
 30
0.0
 10
184.6560949538362
 20
-27.73404832639964
 30
0.0
  0
SPLINE
  5
6A
330
1F
100
AcDbEntity
  8
Ebene 1
 62
   250
420
  1842203
370
    35
100
AcDbSpline
210
0.0
220
0.0
230
1.0
 70
    11
 71
     3
 72
    32
 73
    28
 74
     0
 42
0.0000000001
 43
0.0000000001
 12
1.0
 22
0.0
 32
0.0
 13
1.0
 23
0.0
 33
0.0
 40
0.0
 40
0.0
 40
0.0
 40
0.0
 40
1.0
 40
1.0
 40
1.0
 40
2.0
 40
2.0
 40
2.0
 40
3.0
 40
3.0
 40
3.0
 40
4.0
 40
4.0
 40
4.0
 40
5.0
 40
5.0
 40
5.0
 40
6.0
 40
6.0
 40
6.0
 40
7.0
 40
7.0
 40
7.0
 40
8.0
 40
8.0
 40
8.0
 40
9.0
 40
9.0
 40
9.0
 40
9.0
 10
164.152262458962
 20
-19.53436388400516
 30
0.0
 10
164.152262458962
 20
-19.53436388400516
 30
0.0
 10
164.2818024589298
 20
-19.30957388406131
 30
0.0
 10
164.2818024589298
 20
-19.30957388406131
 30
0.0
 10
164.2818024589298
 20
-19.30957388406131
 30
0.0
 10
177.7858888444421
 20
-19.30957388406131
 30
0.0
 10
177.7858888444421
 20
-19.30957388406131
 30
0.0
 10
177.7858888444421
 20
-19.30957388406131
 30
0.0
 10
177.903363844413
 20
-19.57828471732747
 30
0.0
 10
177.903363844413
 20
-19.57828471732747
 30
0.0
 10
178.2309885665534
 20
-20.32793749491784
 30
0.0
 10
178.4001455109554
 20
-21.05056749473739
 30
0.0
 10
178.4053313442873
 20
-21.72596055012404
 30
0.0
 10
178.4235699553938
 20
-24.0653711050945
 30
0.0
 10
177.4630971778565
 20
-26.3865077711809
 30
0.0
 10
175.769481622724
 20
-28.09388165964317
 30
0.0
 10
174.1413063453535
 20
-29.73461582589952
 30
0.0
 10
172.0439366236558
 20
-30.63825610345132
 30
0.0
 10
169.8632055130899
 20
-30.6384324923402
 30
0.0
 10
169.8632055130899
 20
-30.6384324923402
 30
0.0
 10
169.7171202353487
 20
-30.63705665900731
 30
0.0
 10
169.7171202353487
 20
-30.63705665900731
 30
0.0
 10
166.5893219027971
 20
-30.57641415902238
 30
0.0
 10
162.8000652370777
 20
-27.82672304859877
 30
0.0
 10
162.7787221815276
 20
-24.50270971609631
 30
0.0
 10
162.7676802370857
 20
-22.83392971651369
 30
0.0
 10
163.2424132925225
 20
-21.11583138360978
 30
0.0
 10
164.152262458962
 20
-19.53436388400516
 30
0.0
  0
SPLINE
  5
6B
330
1F
100
AcDbEntity
  8
Ebene 1
 62
   250
420
  1842203
370
    35
100
AcDbSpline
210
0.0
220
0.0
230
1.0
 70
    11
 71
     3
 72
    26
 73
    22
 74
     0
 42
0.0000000001
 43
0.0000000001
 12
1.0
 22
0.0
 32
0.0
 13
1.0
 23
0.0
 33
0.0
 40
0.0
 40
0.0
 40
0.0
 40
0.0
 40
1.0
 40
1.0
 40
1.0
 40
2.0
 40
2.0
 40
2.0
 40
3.0
 40
3.0
 40
3.0
 40
4.0
 40
4.0
 40
4.0
 40
5.0
 40
5.0
 40
5.0
 40
6.0
 40
6.0
 40
6.0
 40
7.0
 40
7.0
 40
7.0
 40
7.0
 10
162.4534963482758
 20
-39.75914915672679
 30
0.0
 10
162.5620107926931
 20
-36.54816582419625
 30
0.0
 10
164.7730807921401
 20
-34.69470665799273
 30
0.0
 10
168.6791069022749
 20
-34.54036638025353
 30
0.0
 10
170.2938413463155
 20
-34.48007665804668
 30
0.0
 10
171.9375035681269
 20
-35.18372721342632
 30
0.0
 10
173.1980491233669
 20
-36.45926582421833
 30
0.0
 10
174.4582771786073
 20
-37.73498082389953
 30
0.0
 10
175.1696888450964
 20
-39.40379610125999
 30
0.0
 10
175.1493688451015
 20
-41.03743943418488
 30
0.0
 10
175.1176541228869
 20
-43.58029693354911
 30
0.0
 10
173.7385752343434
 20
-46.5497685994735
 30
0.0
 10
169.9572560686216
 20
-46.54994498836238
 30
0.0
 10
169.7760341242226
 20
-46.54994498836238
 30
0.0
 10
169.0150219021908
 20
-46.55237915502855
 30
0.0
 10
168.8462177355659
 20
-46.55237915502855
 30
0.0
 10
167.229437180415
 20
-46.55237915502855
 30
0.0
 10
165.5830232919373
 20
-45.8292552663202
 30
0.0
 10
164.3565560700217
 20
-44.56041943330438
 30
0.0
 10
163.0880730147833
 20
-43.24801554474336
 30
0.0
 10
162.3945824594012
 20
-41.49806137851413
 30
0.0
 10
162.4534963482758
 20
-39.75914915672679
 30
0.0
  0
SPLINE
  5
6C
330
1F
100
AcDbEntity
  8
Ebene 1
 62
   250
420
  1842203
370
    35
100
AcDbSpline
210
0.0
220
0.0
230
1.0
 70
    11
 71
     3
 72
    38
 73
    34
 74
     0
 42
0.0000000001
 43
0.0000000001
 12
1.0
 22
0.0
 32
0.0
 13
1.0
 23
0.0
 33
0.0
 40
0.0
 40
0.0
 40
0.0
 40
0.0
 40
1.0
 40
1.0
 40
1.0
 40
2.0
 40
2.0
 40
2.0
 40
3.0
 40
3.0
 40
3.0
 40
4.0
 40
4.0
 40
4.0
 40
5.0
 40
5.0
 40
5.0
 40
6.0
 40
6.0
 40
6.0
 40
7.0
 40
7.0
 40
7.0
 40
8.0
 40
8.0
 40
8.0
 40
9.0
 40
9.0
 40
9.0
 40
10.0
 40
10.0
 40
10.0
 40
11.0
 40
11.0
 40
11.0
 40
11.0
 10
142.8009519087443
 20
-24.64001082717328
 30
0.0
 10
143.9412707973477
 20
-22.92692193871274
 30
0.0
 10
145.4491841303042
 20
-21.83895527231781
 30
0.0
 10
147.0473732965714
 20
-21.57627693905015
 30
0.0
 10
147.684031351968
 20
-21.47139610574329
 30
0.0
 10
148.3296146851399
 20
-21.41816193908974
 30
0.0
 10
148.9656024627585
 20
-21.41816193908974
 30
0.0
 10
151.9804060731163
 20
-21.41816193908974
 30
0.0
 10
154.8295099612927
 20
-22.61637166101235
 30
0.0
 10
156.7828757941375
 20
-24.70527471604567
 30
0.0
 10
158.5846530159096
 20
-26.63281721556402
 30
0.0
 10
159.4783096823528
 20
-29.16290415937572
 30
0.0
 10
159.2988163490645
 20
-31.82958665870919
 30
0.0
 10
159.2988163490645
 20
-31.82958665870919
 30
0.0
 10
159.297440515731
 20
-31.8488836031487
 30
0.0
 10
159.297440515731
 20
-31.8488836031487
 30
0.0
 10
159.297440515731
 20
-31.8488836031487
 30
0.0
 10
159.2984635712867
 20
-31.86832165869956
 30
0.0
 10
159.2984635712867
 20
-31.86832165869956
 30
0.0
 10
159.5523577378898
 20
-36.00347693544357
 30
0.0
 10
157.6155371828184
 20
-39.01157776802483
 30
0.0
 10
153.3784291283218
 20
-41.0641447119561
 30
0.0
 10
152.6452863507274
 20
-41.41918026742297
 30
0.0
 10
151.8388010731514
 20
-41.59934387848897
 30
0.0
 10
150.980281073366
 20
-41.59934387848897
 30
0.0
 10
149.2436266293556
 20
-41.59934387848897
 30
0.0
 10
147.6182030186508
 20
-40.86898804533812
 30
0.0
 10
146.559869685582
 20
-40.25645998993584
 30
0.0
 10
143.8399882973732
 20
-38.68084860144084
 30
0.0
 10
142.000993020055
 20
-36.15541832429444
 30
0.0
 10
141.241356631356
 20
-32.95286638065041
 30
0.0
 10
140.5964435759621
 20
-30.23915860355109
 30
0.0
 10
141.1945077424791
 20
-27.05364582656992
 30
0.0
 10
142.8009519087443
 20
-24.64001082717328
 30
0.0
  0
SPLINE
  5
6D
330
1F
100
AcDbEntity
  8
Ebene 1
 62
   250
420
  1842203
370
    35
100
AcDbSpline
210
0.0
220
0.0
230
1.0
 70
    11
 71
     3
 72
    29
 73
    25
 74
     0
 42
0.0000000001
 43
0.0000000001
 12
1.0
 22
0.0
 32
0.0
 13
1.0
 23
0.0
 33
0.0
 40
0.0
 40
0.0
 40
0.0
 40
0.0
 40
1.0
 40
1.0
 40
1.0
 40
2.0
 40
2.0
 40
2.0
 40
3.0
 40
3.0
 40
3.0
 40
4.0
 40
4.0
 40
4.0
 40
5.0
 40
5.0
 40
5.0
 40
6.0
 40
6.0
 40
6.0
 40
7.0
 40
7.0
 40
7.0
 40
8.0
 40
8.0
 40
8.0
 40
8.0
 10
141.9386219089597
 20
-45.91416887741018
 30
0.0
 10
142.8805385753909
 20
-44.88285832211258
 30
0.0
 10
144.1820769083987
 20
-44.24224915560588
 30
0.0
 10
145.3351663525553
 20
-44.24224915560588
 30
0.0
 10
145.3351663525553
 20
-44.24224915560588
 30
0.0
 10
145.3892471858751
 20
-44.24260193338364
 30
0.0
 10
145.3892471858751
 20
-44.24260193338364
 30
0.0
 10
146.9130002410494
 20
-44.27135332226542
 30
0.0
 10
148.8432944072335
 20
-46.53530471058817
 30
0.0
 10
148.8364152405684
 20
-48.27989665459658
 30
0.0
 10
148.825726073905
 20
-50.85633859839676
 30
0.0
 10
146.9378005188208
 20
-52.65585804239153
 30
0.0
 10
144.2454710750497
 20
-52.65603443128041
 30
0.0
 10
144.2454710750497
 20
-52.65603443128041
 30
0.0
 10
144.1765735750671
 20
-52.66379554238956
 30
0.0
 10
144.1765735750671
 20
-52.66379554238956
 30
0.0
 10
144.0201519084395
 20
-52.69995526460273
 30
0.0
 10
143.8644357973674
 20
-52.71840554237599
 30
0.0
 10
143.7135527418495
 20
-52.71840554237599
 30
0.0
 10
142.1325791311337
 20
-52.71840554237599
 30
0.0
 10
141.0015735758609
 20
-50.66407470955624
 30
0.0
 10
140.8210571870168
 20
-48.67797109894136
 30
0.0
 10
140.7397419092594
 20
-47.78812443249721
 30
0.0
 10
141.1473060758244
 20
-46.78059109941585
 30
0.0
 10
141.9386219089597
 20
-45.91416887741018
 30
0.0
  0
SPLINE
  5
6E
330
1F
100
AcDbEntity
  8
Ebene 1
 62
   250
420
  1842203
370
    35
100
AcDbSpline
210
0.0
220
0.0
230
1.0
 70
    11
 71
     3
 72
    38
 73
    34
 74
     0
 42
0.0000000001
 43
0.0000000001
 12
1.0
 22
0.0
 32
0.0
 13
1.0
 23
0.0
 33
0.0
 40
0.0
 40
0.0
 40
0.0
 40
0.0
 40
1.0
 40
1.0
 40
1.0
 40
2.0
 40
2.0
 40
2.0
 40
3.0
 40
3.0
 40
3.0
 40
4.0
 40
4.0
 40
4.0
 40
5.0
 40
5.0
 40
5.0
 40
6.0
 40
6.0
 40
6.0
 40
7.0
 40
7.0
 40
7.0
 40
8.0
 40
8.0
 40
8.0
 40
9.0
 40
9.0
 40
9.0
 40
10.0
 40
10.0
 40
10.0
 40
11.0
 40
11.0
 40
11.0
 40
11.0
 10
142.9328907976001
 20
-61.03916331807331
 30
0.0
 10
143.4127744085913
 20
-62.78601303985901
 30
0.0
 10
141.9186546867425
 20
-68.9053316494402
 30
0.0
 10
138.4208630209507
 20
-71.31949581550349
 30
0.0
 10
137.6257371878156
 20
-71.86866498203257
 30
0.0
 10
136.7672171880307
 20
-72.36438831524202
 30
0.0
 10
135.9366019104602
 20
-72.84377803734446
 30
0.0
 10
135.511116632789
 20
-73.08959359283847
 30
0.0
 10
135.0856666328953
 20
-73.33540914833279
 30
0.0
 10
134.6656846885556
 20
-73.58947970382474
 30
0.0
 10
133.5022941332908
 20
-74.29260109253774
 30
0.0
 10
132.3681488557969
 20
-74.63419581467471
 30
0.0
 10
131.1981966338673
 20
-74.63419581467471
 30
0.0
 10
129.5321683009501
 20
-74.63419581467471
 30
0.0
 10
127.8533694124811
 20
-73.93089803707284
 30
0.0
 10
126.0660560795947
 20
-72.48376831521237
 30
0.0
 10
124.618079691068
 20
-71.31124081550554
 30
0.0
 10
123.0674449692332
 20
-69.78403053810959
 30
0.0
 10
122.5413827471424
 20
-67.3438666498306
 30
0.0
 10
121.8730099695318
 20
-64.24189165060622
 30
0.0
 10
122.8407499692895
 20
-60.69121859593822
 30
0.0
 10
125.1296780242731
 20
-57.84557192998307
 30
0.0
 10
127.2635602459621
 20
-55.1937060973127
 30
0.0
 10
130.1326313563557
 20
-53.65203193103142
 30
0.0
 10
133.0013849667497
 20
-53.61566054215152
 30
0.0
 10
133.0013849667497
 20
-53.61566054215152
 30
0.0
 10
133.0465052445161
 20
-53.61516665326273
 30
0.0
 10
133.0465052445161
 20
-53.61516665326273
 30
0.0
 10
133.0465052445161
 20
-53.61516665326273
 30
0.0
 10
133.090955244505
 20
-53.62359804214955
 30
0.0
 10
133.090955244505
 20
-53.62359804214955
 30
0.0
 10
138.6530613542253
 20
-54.68104943077422
 30
0.0
 10
141.3946385757626
 20
-55.43796943058493
 30
0.0
 10
142.9328907976001
 20
-61.03916331807331
 30
0.0
  0
SPLINE
  5
6F
330
1F
100
AcDbEntity
  8
Ebene 1
 62
   250
420
  1842203
370
    35
100
AcDbSpline
210
0.0
220
0.0
230
1.0
 70
    11
 71
     3
 72
    29
 73
    25
 74
     0
 42
0.0000000001
 43
0.0000000001
 12
1.0
 22
0.0
 32
0.0
 13
1.0
 23
0.0
 33
0.0
 40
0.0
 40
0.0
 40
0.0
 40
0.0
 40
1.0
 40
1.0
 40
1.0
 40
2.0
 40
2.0
 40
2.0
 40
3.0
 40
3.0
 40
3.0
 40
4.0
 40
4.0
 40
4.0
 40
5.0
 40
5.0
 40
5.0
 40
6.0
 40
6.0
 40
6.0
 40
7.0
 40
7.0
 40
7.0
 40
8.0
 40
8.0
 40
8.0
 40
8.0
 10
126.4567221906077
 20
-19.53214138400571
 30
0.0
 10
126.4567221906077
 20
-19.53214138400571
 30
0.0
 10
126.5866149683533
 20
-19.30957388406131
 30
0.0
 10
126.5866149683533
 20
-19.30957388406131
 30
0.0
 10
126.5866149683533
 20
-19.30957388406131
 30
0.0
 10
135.3919130217075
 20
-19.30957388406131
 30
0.0
 10
135.3919130217075
 20
-19.30957388406131
 30
0.0
 10
135.3919130217075
 20
-19.30957388406131
 30
0.0
 10
135.5235344105637
 20
-19.44101888402866
 30
0.0
 10
135.5235344105637
 20
-19.44101888402866
 30
0.0
 10
136.6724610769429
 20
-20.5901219392967
 30
0.0
 10
137.3053091323404
 20
-22.11923721669217
 30
0.0
 10
137.3053091323404
 20
-23.74684804961888
 30
0.0
 10
137.3053091323404
 20
-27.01762721546779
 30
0.0
 10
135.1249307995523
 20
-29.21783165936207
 30
0.0
 10
131.8789519114744
 20
-29.22181804825001
 30
0.0
 10
130.187417745231
 20
-29.22181804825001
 30
0.0
 10
128.6023166345159
 20
-28.54900027064056
 30
0.0
 10
127.4155016348126
 20
-27.3268369376125
 30
0.0
 10
126.2400108017733
 20
-26.11656221569289
 30
0.0
 10
125.619545246373
 20
-24.52546388275743
 30
0.0
 10
125.6684755241384
 20
-22.84631221651061
 30
0.0
 10
125.708798024128
 20
-21.4565794390802
 30
0.0
 10
125.9664669129526
 20
-20.3723874949068
 30
0.0
 10
126.4567221906077
 20
-19.53214138400571
 30
0.0
  0
SPLINE
  5
70
330
1F
100
AcDbEntity
  8
Ebene 1
 62
   250
420
  1842203
370
    35
100
AcDbSpline
210
0.0
220
0.0
230
1.0
 70
    11
 71
     3
 72
    32
 73
    28
 74
     0
 42
0.0000000001
 43
0.0000000001
 12
1.0
 22
0.0
 32
0.0
 13
1.0
 23
0.0
 33
0.0
 40
0.0
 40
0.0
 40
0.0
 40
0.0
 40
1.0
 40
1.0
 40
1.0
 40
2.0
 40
2.0
 40
2.0
 40
3.0
 40
3.0
 40
3.0
 40
4.0
 40
4.0
 40
4.0
 40
5.0
 40
5.0
 40
5.0
 40
6.0
 40
6.0
 40
6.0
 40
7.0
 40
7.0
 40
7.0
 40
8.0
 40
8.0
 40
8.0
 40
9.0
 40
9.0
 40
9.0
 40
9.0
 10
126.4439869128334
 20
-35.85361693548079
 30
0.0
 10
127.9298516346842
 20
-34.31003776920031
 30
0.0
 10
129.8274080230986
 20
-33.42481249164362
 30
0.0
 10
131.6498580226434
 20
-33.42481249164362
 30
0.0
 10
131.6498580226434
 20
-33.42481249164362
 30
0.0
 10
131.7118763559609
 20
-33.42516526942138
 30
0.0
 10
131.7118763559609
 20
-33.42516526942138
 30
0.0
 10
135.6957605216317
 20
-33.4690861027437
 30
0.0
 10
139.0819685763409
 20
-36.93675054632124
 30
0.0
 10
139.1077919096674
 20
-40.99732860086161
 30
0.0
 10
139.122255798553
 20
-43.28950221139983
 30
0.0
 10
138.1793513543442
 20
-45.5613910997206
 30
0.0
 10
136.521578021425
 20
-47.2305238770813
 30
0.0
 10
135.1294110773287
 20
-48.63200415450848
 30
0.0
 10
133.4203085777561
 20
-49.40592804320389
 30
0.0
 10
131.7077488559616
 20
-49.41143137653607
 30
0.0
 10
131.7077488559616
 20
-49.41143137653607
 30
0.0
 10
131.6333127448693
 20
-49.41661720986801
 30
0.0
 10
131.6333127448693
 20
-49.41661720986801
 30
0.0
 10
131.4531491338036
 20
-49.44159387652826
 30
0.0
 10
131.265048022739
 20
-49.45415276541407
 30
0.0
 10
131.0748655227871
 20
-49.45415276541407
 30
0.0
 10
128.016317467996
 20
-49.45415276541407
 30
0.0
 10
124.0083033023311
 20
-46.11482887736003
 30
0.0
 10
123.8649696912557
 20
-42.36159082274298
 30
0.0
 10
123.777128024611
 20
-40.05558832331928
 30
0.0
 10
124.7414108021481
 20
-37.62269165726097
 30
0.0
 10
126.4439869128334
 20
-35.85361693548079
 30
0.0
  0
SPLINE
  5
71
330
1F
100
AcDbEntity
  8
Ebene 1
 62
   250
420
  1842203
370
    35
100
AcDbSpline
210
0.0
220
0.0
230
1.0
 70
    11
 71
     3
 72
    29
 73
    25
 74
     0
 42
0.0000000001
 43
0.0000000001
 12
1.0
 22
0.0
 32
0.0
 13
1.0
 23
0.0
 33
0.0
 40
0.0
 40
0.0
 40
0.0
 40
0.0
 40
1.0
 40
1.0
 40
1.0
 40
2.0
 40
2.0
 40
2.0
 40
3.0
 40
3.0
 40
3.0
 40
4.0
 40
4.0
 40
4.0
 40
5.0
 40
5.0
 40
5.0
 40
6.0
 40
6.0
 40
6.0
 40
7.0
 40
7.0
 40
7.0
 40
8.0
 40
8.0
 40
8.0
 40
8.0
 10
106.570250806691
 20
-29.90133860363564
 30
0.0
 10
106.570250806691
 20
-29.90133860363564
 30
0.0
 10
106.570250806691
 20
-29.9011974925246
 30
0.0
 10
106.570250806691
 20
-29.9011974925246
 30
0.0
 10
106.7232152510967
 20
-25.53140971583919
 30
0.0
 10
110.1466060835745
 20
-22.68438721655115
 30
0.0
 10
115.7280091377345
 20
-22.28528971665093
 30
0.0
 10
115.8678855265887
 20
-22.27548249443089
 30
0.0
 10
116.0074091376645
 20
-22.27047304998784
 30
0.0
 10
116.145556915408
 20
-22.27047304998784
 30
0.0
 10
117.9463110816243
 20
-22.27047304998784
 30
0.0
 10
119.7563433033943
 20
-23.12983971643955
 30
0.0
 10
121.1123505252777
 20
-24.62812221606516
 30
0.0
 10
122.468322469383
 20
-26.12742777124589
 30
0.0
 10
123.2455624691886
 20
-28.12266832630247
 30
0.0
 10
123.2445041358554
 20
-30.10238665914108
 30
0.0
 10
123.2427755247447
 20
-34.82371749129391
 30
0.0
 10
119.9943977477788
 20
-37.87450443497563
 30
0.0
 10
114.9693958045907
 20
-37.87450443497563
 30
0.0
 10
112.7194144162645
 20
-37.87228193497619
 30
0.0
 10
110.3932683057353
 20
-36.85218971300901
 30
0.0
 10
108.7465016394798
 20
-35.14530971343586
 30
0.0
 10
107.2782052509582
 20
-33.62360276937177
 30
0.0
 10
106.5051280289293
 20
-31.7611830476151
 30
0.0
 10
106.570250806691
 20
-29.90133860363564
 30
0.0
  0
SPLINE
  5
72
330
1F
100
AcDbEntity
  8
Ebene 1
 62
   250
420
  1842203
370
    35
100
AcDbSpline
210
0.0
220
0.0
230
1.0
 70
    11
 71
     3
 72
    44
 73
    40
 74
     0
 42
0.0000000001
 43
0.0000000001
 12
1.0
 22
0.0
 32
0.0
 13
1.0
 23
0.0
 33
0.0
 40
0.0
 40
0.0
 40
0.0
 40
0.0
 40
1.0
 40
1.0
 40
1.0
 40
2.0
 40
2.0
 40
2.0
 40
3.0
 40
3.0
 40
3.0
 40
4.0
 40
4.0
 40
4.0
 40
5.0
 40
5.0
 40
5.0
 40
6.0
 40
6.0
 40
6.0
 40
7.0
 40
7.0
 40
7.0
 40
8.0
 40
8.0
 40
8.0
 40
9.0
 40
9.0
 40
9.0
 40
10.0
 40
10.0
 40
10.0
 40
11.0
 40
11.0
 40
11.0
 40
12.0
 40
12.0
 40
12.0
 40
13.0
 40
13.0
 40
13.0
 40
13.0
 10
109.9361035836271
 20
-40.95114998976201
 30
0.0
 10
112.877882194003
 20
-40.95114998976201
 30
0.0
 10
115.7486819155072
 20
-42.15228776723959
 30
0.0
 10
118.4696216370494
 20
-44.5212963777584
 30
0.0
 10
121.0875502475057
 20
-46.80059359941088
 30
0.0
 10
122.0387449694906
 20
-49.927509987518
 30
0.0
 10
121.2959713585647
 20
-53.8154738754348
 30
0.0
 10
120.5797266365221
 20
-57.56169165227605
 30
0.0
 10
118.0775444149253
 20
-60.14067359607593
 30
0.0
 10
114.0602169159292
 20
-61.27344304023695
 30
0.0
 10
113.237539138357
 20
-61.50493581795698
 30
0.0
 10
112.3859335830147
 20
-61.58745054015863
 30
0.0
 10
111.4843394165732
 20
-61.67462192902558
 30
0.0
 10
111.0833369166737
 20
-61.71353331790485
 30
0.0
 10
110.6881905278836
 20
-61.75195081789531
 30
0.0
 10
110.3005935835359
 20
-61.80292720677124
 30
0.0
 10
110.3005935835359
 20
-61.80292720677124
 30
0.0
 10
110.2713130279875
 20
-61.8067372067703
 30
0.0
 10
110.2713130279875
 20
-61.8067372067703
 30
0.0
 10
110.2713130279875
 20
-61.8067372067703
 30
0.0
 10
110.2420324724397
 20
-61.8067372067703
 30
0.0
 10
110.2420324724397
 20
-61.8067372067703
 30
0.0
 10
105.8168233068791
 20
-61.80275081788268
 30
0.0
 10
102.4606013632739
 20
-59.96911776278532
 30
0.0
 10
100.2660766416003
 20
-56.35674387479974
 30
0.0
 10
99.75483108617227
 20
-55.51476915278801
 30
0.0
 10
99.69281275285478
 20
-54.32657831975151
 30
0.0
 10
99.63287580842504
 20
-53.17761637559452
 30
0.0
 10
99.61393164176297
 20
-52.8164072090181
 30
0.0
 10
99.59601053065667
 20
-52.47001470910478
 30
0.0
 10
99.56567164177495
 20
-52.13529915363286
 30
0.0
 10
99.45511108624737
 20
-50.91091332060536
 30
0.0
 10
99.37379580849003
 20
-49.71926526534789
 30
0.0
 10
99.59015441954672
 20
-48.60184165451597
 30
0.0
 10
100.2791646971525
 20
-45.03532887763008
 30
0.0
 10
102.5942688632404
 20
-42.63838026711822
 30
0.0
 10
106.4713671956045
 20
-41.47791776740806
 30
0.0
 10
107.6389205286461
 20
-41.12842082305121
 30
0.0
 10
108.8050980283542
 20
-40.95114998976201
 30
0.0
 10
109.9361035836271
 20
-40.95114998976201
 30
0.0
  0
SPLINE
  5
73
330
1F
100
AcDbEntity
  8
Ebene 1
 62
   250
420
  1842203
370
    35
100
AcDbSpline
210
0.0
220
0.0
230
1.0
 70
    11
 71
     3
 72
    50
 73
    46
 74
     0
 42
0.0000000001
 43
0.0000000001
 12
1.0
 22
0.0
 32
0.0
 13
1.0
 23
0.0
 33
0.0
 40
0.0
 40
0.0
 40
0.0
 40
0.0
 40
1.0
 40
1.0
 40
1.0
 40
2.0
 40
2.0
 40
2.0
 40
3.0
 40
3.0
 40
3.0
 40
4.0
 40
4.0
 40
4.0
 40
5.0
 40
5.0
 40
5.0
 40
6.0
 40
6.0
 40
6.0
 40
7.0
 40
7.0
 40
7.0
 40
8.0
 40
8.0
 40
8.0
 40
9.0
 40
9.0
 40
9.0
 40
10.0
 40
10.0
 40
10.0
 40
11.0
 40
11.0
 40
11.0
 40
12.0
 40
12.0
 40
12.0
 40
13.0
 40
13.0
 40
13.0
 40
14.0
 40
14.0
 40
14.0
 40
15.0
 40
15.0
 40
15.0
 40
15.0
 10
73.86009553709074
 20
-24.36008166057668
 30
0.0
 10
74.10090164814169
 20
-23.8750122162535
 30
0.0
 10
74.37377525918434
 20
-23.32517277194641
 30
0.0
 10
74.6218133146781
 20
-22.79085554985762
 30
0.0
 10
75.07827248123023
 20
-21.80762860565914
 30
0.0
 10
75.74731553661879
 20
-20.38187721712659
 30
0.0
 10
76.52247414753604
 20
-19.96725749500807
 30
0.0
 10
77.29763275845329
 20
-19.55263777288954
 30
0.0
 10
79.00948692469231
 20
-19.30957388406131
 30
0.0
 10
80.30414609103494
 20
-19.30957388406131
 30
0.0
 10
80.30414609103494
 20
-19.30957388406131
 30
0.0
 10
96.34382275369174
 20
-18.67499721755344
 30
0.0
 10
97.03561997574143
 20
-19.30957388406131
 30
0.0
 10
97.72738192001229
 20
-19.94418582834702
 30
0.0
 10
98.01747108660638
 20
-20.35446638380017
 30
0.0
 10
98.38333691984873
 20
-20.83491443923557
 30
0.0
 10
100.5209938637585
 20
-23.63886277186785
 30
0.0
 10
101.9348919189608
 20
-26.78267721552647
 30
0.0
 10
101.9851627522815
 20
-28.84388721501129
 30
0.0
 10
101.9710516411737
 20
-35.3554594356055
 30
0.0
 10
100.19855497495
 20
-39.91881637890896
 30
0.0
 10
96.406193864787
 20
-43.21732387808453
 30
0.0
 10
94.35496747641142
 20
-45.00276748874924
 30
0.0
 10
91.45594553269136
 20
-46.42594359950458
 30
0.0
 10
87.79001997805263
 20
-47.44741165480463
 30
0.0
 10
87.54367525589198
 20
-47.51630915478752
 30
0.0
 10
87.26773247818332
 20
-47.55109304366781
 30
0.0
 10
86.97005858936865
 20
-47.55109304366781
 30
0.0
 10
85.66195858969549
 20
-47.55109304366781
 30
0.0
 10
84.10098747897437
 20
-46.89566721049834
 30
0.0
 10
82.72398997931928
 20
-46.31739387730939
 30
0.0
 10
82.72398997931928
 20
-46.31739387730939
 30
0.0
 10
82.27853747943026
 20
-46.13119776624488
 30
0.0
 10
82.27853747943026
 20
-46.13119776624488
 30
0.0
 10
78.57024331369097
 20
-44.59107582218537
 30
0.0
 10
74.7634183146423
 20
-42.77980887819384
 30
0.0
 10
72.54578664852987
 20
-39.11166082355535
 30
0.0
 10
72.11652664863779
 20
-38.40229526817713
 30
0.0
 10
72.05934137087381
 20
-37.39994776842769
 30
0.0
 10
72.0042374819989
 20
-36.43033804644799
 30
0.0
 10
71.98561081533707
 20
-36.10906332430595
 30
0.0
 10
72.00353192644337
 20
-33.24447249168873
 30
0.0
 10
71.89741637091467
 20
-32.72169110293062
 30
0.0
 10
71.26079359329624
 20
-29.59646804815631
 30
0.0
 10
72.52342053742468
 20
-27.0529402710144
 30
0.0
 10
73.86009553709074
 20
-24.36008166057668
 30
0.0
  0
SPLINE
  5
74
330
1F
100
AcDbEntity
  8
Ebene 1
 62
   250
420
  1842203
370
    35
100
AcDbSpline
210
0.0
220
0.0
230
1.0
 70
    11
 71
     3
 72
    32
 73
    28
 74
     0
 42
0.0000000001
 43
0.0000000001
 12
1.0
 22
0.0
 32
0.0
 13
1.0
 23
0.0
 33
0.0
 40
0.0
 40
0.0
 40
0.0
 40
0.0
 40
1.0
 40
1.0
 40
1.0
 40
2.0
 40
2.0
 40
2.0
 40
3.0
 40
3.0
 40
3.0
 40
4.0
 40
4.0
 40
4.0
 40
5.0
 40
5.0
 40
5.0
 40
6.0
 40
6.0
 40
6.0
 40
7.0
 40
7.0
 40
7.0
 40
8.0
 40
8.0
 40
8.0
 40
9.0
 40
9.0
 40
9.0
 40
9.0
 10
70.74884248231264
 20
-48.60081859896085
 30
0.0
 10
70.74884248231264
 20
-48.60081859896085
 30
0.0
 10
70.74884248231264
 20
-48.60064221007197
 30
0.0
 10
70.74884248231264
 20
-48.60064221007197
 30
0.0
 10
71.64422775986648
 20
-47.66204165475101
 30
0.0
 10
72.83485275956883
 20
-47.12373804377459
 30
0.0
 10
74.01514137038482
 20
-47.12373804377459
 30
0.0
 10
74.01514137038482
 20
-47.12373804377459
 30
0.0
 10
74.1209041481364
 20
-47.12511387710748
 30
0.0
 10
74.1209041481364
 20
-47.12511387710748
 30
0.0
 10
76.74641748081332
 20
-47.20212526597728
 30
0.0
 10
79.67267386897092
 20
-50.08220304303495
 30
0.0
 10
79.62063914676138
 20
-52.53203304242228
 30
0.0
 10
79.59446303565711
 20
-53.88112581986312
 30
0.0
 10
78.97847775803324
 20
-55.17458554176175
 30
0.0
 10
77.88536053608388
 20
-56.17347581928988
 30
0.0
 10
76.89317303633193
 20
-57.08004415239665
 30
0.0
 10
75.6436341477556
 20
-57.60268443004372
 30
0.0
 10
74.49262609248805
 20
-57.60268443004372
 30
0.0
 10
74.40478442584342
 20
-57.60268443004372
 30
0.0
 10
74.3179658147539
 20
-57.59975637448876
 30
0.0
 10
74.23149998144216
 20
-57.59354748560137
 30
0.0
 10
71.21599081552951
 20
-57.3797994300994
 30
0.0
 10
69.6029849825995
 20
-55.48220776390717
 30
0.0
 10
69.4379908159737
 20
-51.95393609812253
 30
0.0
 10
69.38147581598774
 20
-50.75554998731104
 30
0.0
 10
69.85931331586873
 20
-49.53324554317226
 30
0.0
 10
70.74884248231264
 20
-48.60081859896085
 30
0.0
  0
SPLINE
  5
75
330
1F
100
AcDbEntity
  8
Ebene 1
 62
   250
420
  1842203
370
    35
100
AcDbSpline
210
0.0
220
0.0
230
1.0
 70
    11
 71
     3
 72
    23
 73
    19
 74
     0
 42
0.0000000001
 43
0.0000000001
 12
1.0
 22
0.0
 32
0.0
 13
1.0
 23
0.0
 33
0.0
 40
0.0
 40
0.0
 40
0.0
 40
0.0
 40
1.0
 40
1.0
 40
1.0
 40
2.0
 40
2.0
 40
2.0
 40
3.0
 40
3.0
 40
3.0
 40
4.0
 40
4.0
 40
4.0
 40
5.0
 40
5.0
 40
5.0
 40
6.0
 40
6.0
 40
6.0
 40
6.0
 10
69.08725914939501
 20
-60.25934804049076
 30
0.0
 10
69.08725914939501
 20
-60.25934804049076
 30
0.0
 10
69.57818470482749
 20
-60.30605581825669
 30
0.0
 10
69.57818470482749
 20
-60.30605581825669
 30
0.0
 10
71.24699998218794
 20
-60.46452359599486
 30
0.0
 10
74.1970335925618
 20
-61.35818026243805
 30
0.0
 10
75.2016388700885
 20
-65.56085720583174
 30
0.0
 10
75.50375775890207
 20
-66.82450720551594
 30
0.0
 10
74.98115275903253
 20
-68.50880942731717
 30
0.0
 10
73.83875248154003
 20
-69.95678581584389
 30
0.0
 10
72.66844748183263
 20
-71.43887581547351
 30
0.0
 10
71.11573137111012
 20
-72.3719730374623
 30
0.0
 10
69.57786720482788
 20
-72.51699998187057
 30
0.0
 10
69.57786720482788
 20
-72.51699998187057
 30
0.0
 10
69.08725914939501
 20
-72.56335498185906
 30
0.0
 10
69.08725914939501
 20
-72.56335498185906
 30
0.0
 10
69.08725914939501
 20
-72.56335498185906
 30
0.0
 10
69.08725914939501
 20
-60.25934804049076
 30
0.0
 10
69.08725914939501
 20
-60.25934804049076
 30
0.0
  0
SPLINE
  5
76
330
1F
100
AcDbEntity
  8
Ebene 1
 62
   250
420
  1842203
370
    35
100
AcDbSpline
210
0.0
220
0.0
230
1.0
 70
    11
 71
     3
 72
    41
 73
    37
 74
     0
 42
0.0000000001
 43
0.0000000001
 12
1.0
 22
0.0
 32
0.0
 13
1.0
 23
0.0
 33
0.0
 40
0.0
 40
0.0
 40
0.0
 40
0.0
 40
1.0
 40
1.0
 40
1.0
 40
2.0
 40
2.0
 40
2.0
 40
3.0
 40
3.0
 40
3.0
 40
4.0
 40
4.0
 40
4.0
 40
5.0
 40
5.0
 40
5.0
 40
6.0
 40
6.0
 40
6.0
 40
7.0
 40
7.0
 40
7.0
 40
8.0
 40
8.0
 40
8.0
 40
9.0
 40
9.0
 40
9.0
 40
10.0
 40
10.0
 40
10.0
 40
11.0
 40
11.0
 40
11.0
 40
12.0
 40
12.0
 40
12.0
 40
12.0
 10
69.08725914939501
 20
-78.82738303584861
 30
0.0
 10
69.08725914939501
 20
-78.82738303584861
 30
0.0
 10
69.16755137159721
 20
-78.7119894247662
 30
0.0
 10
69.16755137159721
 20
-78.7119894247662
 30
0.0
 10
71.53465498211649
 20
-75.31011803672801
 30
0.0
 10
75.89167220324939
 20
-73.78738803710849
 30
0.0
 10
79.16005248020997
 20
-73.78738803710849
 30
0.0
 10
79.2502930357426
 20
-73.78738803710849
 30
0.0
 10
79.33919303572053
 20
-73.78858748155281
 30
0.0
 10
79.45804386902424
 20
-73.79119803710753
 30
0.0
 10
84.24294525671696
 20
-73.7126344260163
 30
0.0
 10
87.75932831139316
 20
-75.56556442555285
 30
0.0
 10
90.19984497745023
 20
-79.43218525791958
 30
0.0
 10
90.72865886620683
 20
-80.26883303548833
 30
0.0
 10
90.77173303286291
 20
-81.55626025738846
 30
0.0
 10
90.77102747730738
 20
-82.69746109043663
 30
0.0
 10
90.77035719952939
 20
-83.58508525688133
 30
0.0
 10
90.68561997732893
 20
-84.49698053443107
 30
0.0
 10
90.60395192179318
 20
-85.37874858976615
 30
0.0
 10
90.48474831071236
 20
-86.66808081166613
 30
0.0
 10
90.3614171996316
 20
-88.00133386688843
 30
0.0
 10
90.49166275515495
 20
-89.30463608878493
 30
0.0
 10
91.13932747721526
 20
-95.77211108716793
 30
0.0
 10
84.78001414547153
 20
-99.01805469746763
 30
0.0
 10
80.61938831317815
 20
-99.5455280306692
 30
0.0
 10
80.21838581327872
 20
-99.59597525287883
 30
0.0
 10
79.80563581338187
 20
-99.6216574750946
 30
0.0
 10
79.39327386904031
 20
-99.6216574750946
 30
0.0
 10
75.79141275882998
 20
-99.62201025287204
 30
0.0
 10
71.88228220425167
 20
-97.62486469781592
 30
0.0
 10
69.19199887159083
 20
-94.41007136528634
 30
0.0
 10
69.19199887159083
 20
-94.41007136528634
 30
0.0
 10
69.08725914939501
 20
-94.28518803198413
 30
0.0
 10
69.08725914939501
 20
-94.28518803198413
 30
0.0
 10
69.08725914939501
 20
-94.28518803198413
 30
0.0
 10
69.08725914939501
 20
-78.82738303584861
 30
0.0
 10
69.08725914939501
 20
-78.82738303584861
 30
0.0
  0
SPLINE
  5
77
330
1F
100
AcDbEntity
  8
Ebene 1
 62
   250
420
  1842203
370
    35
100
AcDbSpline
210
0.0
220
0.0
230
1.0
 70
    11
 71
     3
 72
    35
 73
    31
 74
     0
 42
0.0000000001
 43
0.0000000001
 12
1.0
 22
0.0
 32
0.0
 13
1.0
 23
0.0
 33
0.0
 40
0.0
 40
0.0
 40
0.0
 40
0.0
 40
1.0
 40
1.0
 40
1.0
 40
2.0
 40
2.0
 40
2.0
 40
3.0
 40
3.0
 40
3.0
 40
4.0
 40
4.0
 40
4.0
 40
5.0
 40
5.0
 40
5.0
 40
6.0
 40
6.0
 40
6.0
 40
7.0
 40
7.0
 40
7.0
 40
8.0
 40
8.0
 40
8.0
 40
9.0
 40
9.0
 40
9.0
 40
10.0
 40
10.0
 40
10.0
 40
10.0
 10
69.08725914939501
 20
-102.7113910854328
 30
0.0
 10
69.08725914939501
 20
-102.7113910854328
 30
0.0
 10
69.48035942707426
 20
-102.6622844187792
 30
0.0
 10
69.48035942707426
 20
-102.6622844187792
 30
0.0
 10
70.07292026025966
 20
-102.5882363632415
 30
0.0
 10
70.65341609344742
 20
-102.5823802521322
 30
0.0
 10
71.20427859331028
 20
-102.6441869187833
 30
0.0
 10
71.20427859331028
 20
-102.6441869187833
 30
0.0
 10
71.26248692662872
 20
-102.647114974338
 30
0.0
 10
71.26248692662872
 20
-102.647114974338
 30
0.0
 10
71.26283970440649
 20
-102.647114974338
 30
0.0
 10
71.26386275996161
 20
-102.647114974338
 30
0.0
 10
71.26421553773936
 20
-102.647114974338
 30
0.0
 10
76.23654775871877
 20
-102.647114974338
 30
0.0
 10
80.36993914657397
 20
-106.337699695638
 30
0.0
 10
80.65004470205946
 20
-111.0495408055707
 30
0.0
 10
80.88153747977981
 20
-114.9464652490413
 30
0.0
 10
78.54681886925185
 20
-118.3876008037359
 30
0.0
 10
74.40478442584342
 20
-120.2545008032696
 30
0.0
 10
73.68405942602371
 20
-120.5791974698548
 30
0.0
 10
72.8799730373358
 20
-120.7440505253692
 30
0.0
 10
72.01524414866262
 20
-120.7440505253692
 30
0.0
 10
71.16258025998708
 20
-120.7440505253692
 30
0.0
 10
70.2775313713196
 20
-120.5815963587434
 30
0.0
 10
69.38458026043192
 20
-120.2620855254896
 30
0.0
 10
69.38458026043192
 20
-120.2620855254896
 30
0.0
 10
69.08725914939501
 20
-120.1551233032946
 30
0.0
 10
69.08725914939501
 20
-120.1551233032946
 30
0.0
 10
69.08725914939501
 20
-120.1551233032946
 30
0.0
 10
69.08725914939501
 20
-102.7113910854328
 30
0.0
 10
69.08725914939501
 20
-102.7113910854328
 30
0.0
  0
SPLINE
  5
78
330
1F
100
AcDbEntity
  8
Ebene 1
 62
   250
420
  1842203
370
    35
100
AcDbSpline
210
0.0
220
0.0
230
1.0
 70
     8
 71
     3
 72
    32
 73
    28
 74
     0
 42
0.0000000001
 43
0.0000000001
 12
1.0
 22
0.0
 32
0.0
 13
1.0
 23
0.0
 33
0.0
 40
0.0
 40
0.0
 40
0.0
 40
0.0
 40
1.0
 40
1.0
 40
1.0
 40
2.0
 40
2.0
 40
2.0
 40
3.0
 40
3.0
 40
3.0
 40
4.0
 40
4.0
 40
4.0
 40
5.0
 40
5.0
 40
5.0
 40
6.0
 40
6.0
 40
6.0
 40
7.0
 40
7.0
 40
7.0
 40
8.0
 40
8.0
 40
8.0
 40
9.0
 40
9.0
 40
9.0
 40
9.0
 10
74.10848637036163
 20
-124.9999616354171
 30
0.0
 10
77.2259483140268
 20
-124.9999616354171
 30
0.0
 10
79.92035914668628
 20
-126.9012927460524
 30
0.0
 10
80.81334553535213
 20
-129.7317699675664
 30
0.0
 10
81.83964664620667
 20
-132.9832521889764
 30
0.0
 10
80.90602025755094
 20
-136.1834052437318
 30
0.0
 10
78.251579147104
 20
-138.5126557987044
 30
0.0
 10
77.03234386963058
 20
-139.5819957984375
 30
0.0
 10
75.8262319254881
 20
-140.1025546871969
 30
0.0
 10
74.56392248135927
 20
-140.1025546871969
 30
0.0
 10
73.47355692607567
 20
-140.1025546871969
 30
0.0
 10
72.30670914859022
 20
-139.7263524650688
 30
0.0
 10
70.89214081560995
 20
-138.9195144097145
 30
0.0
 10
70.19244137134073
 20
-138.5212635764808
 30
0.0
 10
69.55994609372094
 20
-137.6386135767013
 30
0.0
 10
69.15238192715604
 20
-136.9685474657583
 30
0.0
 10
69.15238192715604
 20
-136.9685474657583
 30
0.0
 10
69.08725914939501
 20
-136.861056076896
 30
0.0
 10
69.08725914939501
 20
-136.861056076896
 30
0.0
 10
69.08725914939501
 20
-136.861056076896
 30
0.0
 10
69.08725914939501
 20
-127.1693333015408
 30
0.0
 10
69.08725914939501
 20
-127.1693333015408
 30
0.0
 10
69.08725914939501
 20
-127.1693333015408
 30
0.0
 10
69.21990359380636
 20
-127.0380646904624
 30
0.0
 10
69.21990359380636
 20
-127.0380646904624
 30
0.0
 10
70.54109164903102
 20
-125.7261546907908
 30
0.0
 10
72.2733010930425
 20
-125.0023605243051
 30
0.0
 10
74.09712692592015
 20
-124.9999616354171
 30
0.0
  0
SPLINE
  5
79
330
1F
100
AcDbEntity
  8
Ebene 1
 62
   250
420
  1842203
370
    35
100
AcDbSpline
210
0.0
220
0.0
230
1.0
 70
    11
 71
     3
 72
    44
 73
    40
 74
     0
 42
0.0000000001
 43
0.0000000001
 12
1.0
 22
0.0
 32
0.0
 13
1.0
 23
0.0
 33
0.0
 40
0.0
 40
0.0
 40
0.0
 40
0.0
 40
1.0
 40
1.0
 40
1.0
 40
2.0
 40
2.0
 40
2.0
 40
3.0
 40
3.0
 40
3.0
 40
4.0
 40
4.0
 40
4.0
 40
5.0
 40
5.0
 40
5.0
 40
6.0
 40
6.0
 40
6.0
 40
7.0
 40
7.0
 40
7.0
 40
8.0
 40
8.0
 40
8.0
 40
9.0
 40
9.0
 40
9.0
 40
10.0
 40
10.0
 40
10.0
 40
11.0
 40
11.0
 40
11.0
 40
12.0
 40
12.0
 40
12.0
 40
13.0
 40
13.0
 40
13.0
 40
13.0
 10
76.74020859192626
 20
-170.8724321795038
 30
0.0
 10
75.85893442547966
 20
-170.7776760684166
 30
0.0
 10
75.04761609234892
 20
-170.6901871795497
 30
0.0
 10
74.23527470366369
 20
-170.5189488462586
 30
0.0
 10
72.43935359300093
 20
-170.1430994019084
 30
0.0
 10
71.3276097043904
 20
-168.76504356892
 30
0.0
 10
71.18600470442557
 20
-166.7372769027604
 30
0.0
 10
71.12571498221871
 20
-165.8760052363091
 30
0.0
 10
71.00171359336059
 20
-165.0071488476367
 30
0.0
 10
70.882157204502
 20
-164.1672202367355
 30
0.0
 10
70.68132081566296
 20
-162.7561091259772
 30
0.0
 10
70.49149109348828
 20
-161.4235616263111
 30
0.0
 10
70.56384581569213
 20
-160.0789491266473
 30
0.0
 10
70.57795692680003
 20
-159.8167646822681
 30
0.0
 10
70.58829331568639
 20
-159.5528869045564
 30
0.0
 10
70.59862970457274
 20
-159.2875980157337
 30
0.0
 10
70.59862970457274
 20
-159.2875980157337
 30
0.0
 10
70.60000553790563
 20
-159.2458996824105
 30
0.0
 10
70.60000553790563
 20
-159.2458996824105
 30
0.0
 10
70.66996137122148
 20
-157.3972735717615
 30
0.0
 10
70.74228081564782
 20
-155.4849005166837
 30
0.0
 10
72.16580970418092
 20
-153.9177205170755
 30
0.0
 10
74.25732331476928
 20
-151.6140110732079
 30
0.0
 10
76.66062192527957
 20
-150.3965044068458
 30
0.0
 10
79.115602480221
 20
-150.3965044068458
 30
0.0
 10
81.62670997959312
 20
-150.3965044068458
 30
0.0
 10
84.02588109010475
 20
-151.7256299620688
 30
0.0
 10
85.87108525631
 20
-154.1378891281319
 30
0.0
 10
87.9842947002262
 20
-156.9015149607748
 30
0.0
 10
88.80390331113242
 20
-160.0210582933278
 30
0.0
 10
88.17825192239954
 20
-162.9218441259366
 30
0.0
 10
87.56124358922052
 20
-165.7847063474432
 30
0.0
 10
85.58893358971362
 20
-168.1825016246207
 30
0.0
 10
82.47559914604776
 20
-169.8554444019804
 30
0.0
 10
81.54991025739037
 20
-170.3539546796341
 30
0.0
 10
80.13019136885632
 20
-170.785966346192
 30
0.0
 10
79.36018331349348
 20
-170.8813927350579
 30
0.0
 10
78.59021053590817
 20
-170.9768191239224
 30
0.0
 10
76.74020859192626
 20
-170.8724321795038
 30
0.0
 10
76.74020859192626
 20
-170.8724321795038
 30
0.0
  0
SPLINE
  5
7A
330
1F
100
AcDbEntity
  8
Ebene 1
 62
   250
420
  1842203
370
    35
100
AcDbSpline
210
0.0
220
0.0
230
1.0
 70
    11
 71
     3
 72
    35
 73
    31
 74
     0
 42
0.0000000001
 43
0.0000000001
 12
1.0
 22
0.0
 32
0.0
 13
1.0
 23
0.0
 33
0.0
 40
0.0
 40
0.0
 40
0.0
 40
0.0
 40
1.0
 40
1.0
 40
1.0
 40
2.0
 40
2.0
 40
2.0
 40
3.0
 40
3.0
 40
3.0
 40
4.0
 40
4.0
 40
4.0
 40
5.0
 40
5.0
 40
5.0
 40
6.0
 40
6.0
 40
6.0
 40
7.0
 40
7.0
 40
7.0
 40
8.0
 40
8.0
 40
8.0
 40
9.0
 40
9.0
 40
9.0
 40
10.0
 40
10.0
 40
10.0
 40
10.0
 10
93.26322608779559
 20
-180.7402263437041
 30
0.0
 10
93.26322608779559
 20
-180.7402263437041
 30
0.0
 10
93.22808942113723
 20
-181.1508596769338
 30
0.0
 10
93.22808942113723
 20
-181.1508596769338
 30
0.0
 10
93.22808942113723
 20
-181.1508596769338
 30
0.0
 10
80.30414609103494
 20
-181.1508596769338
 30
0.0
 10
80.30414609103494
 20
-181.1508596769338
 30
0.0
 10
79.8504385911486
 20
-181.1508596769338
 30
0.0
 10
79.39225081348519
 20
-181.1209088436086
 30
0.0
 10
78.90270109138561
 20
-181.0602663436234
 30
0.0
 10
78.90270109138561
 20
-181.0602663436234
 30
0.0
 10
78.49273803593269
 20
-181.0092899547477
 30
0.0
 10
78.49273803593269
 20
-181.0092899547477
 30
0.0
 10
78.49273803593269
 20
-181.0092899547477
 30
0.0
 10
78.50995359148348
 20
-180.5965399548503
 30
0.0
 10
78.50995359148348
 20
-180.5965399548503
 30
0.0
 10
78.5636816470255
 20
-179.3153216218375
 30
0.0
 10
79.0494566469042
 20
-178.0006599555002
 30
0.0
 10
79.91450303557698
 20
-176.7931721780242
 30
0.0
 10
81.54197275739202
 20
-174.5211421785924
 30
0.0
 10
83.37581747915578
 20
-173.5075763455121
 30
0.0
 10
85.8611016452014
 20
-173.5075763455121
 30
0.0
 10
85.8611016452014
 20
-173.5075763455121
 30
0.0
 10
85.90244720074683
 20
-173.5075763455121
 30
0.0
 10
85.90244720074683
 20
-173.5075763455121
 30
0.0
 10
90.08099414414652
 20
-173.3732032899902
 30
0.0
 10
92.90769664343959
 20
-175.8922835671382
 30
0.0
 10
93.26735358779425
 20
-180.0828955105348
 30
0.0
 10
93.28492192112343
 20
-180.290293566038
 30
0.0
 10
93.28389886556766
 20
-180.499384954875
 30
0.0
 10
93.26322608779559
 20
-180.7402263437041
 30
0.0
  0
SPLINE
  5
7B
330
1F
100
AcDbEntity
  8
Ebene 1
 62
   250
420
  1842203
370
    35
100
AcDbSpline
210
0.0
220
0.0
230
1.0
 70
    11
 71
     3
 72
    29
 73
    25
 74
     0
 42
0.0000000001
 43
0.0000000001
 12
1.0
 22
0.0
 32
0.0
 13
1.0
 23
0.0
 33
0.0
 40
0.0
 40
0.0
 40
0.0
 40
0.0
 40
1.0
 40
1.0
 40
1.0
 40
2.0
 40
2.0
 40
2.0
 40
3.0
 40
3.0
 40
3.0
 40
4.0
 40
4.0
 40
4.0
 40
5.0
 40
5.0
 40
5.0
 40
6.0
 40
6.0
 40
6.0
 40
7.0
 40
7.0
 40
7.0
 40
8.0
 40
8.0
 40
8.0
 40
8.0
 10
94.01735914316237
 20
-172.1171380125265
 30
0.0
 10
92.69306664349355
 20
-170.7118830128775
 30
0.0
 10
92.02952692143717
 20
-168.8322477355701
 30
0.0
 10
92.14908331029577
 20
-166.825118569405
 30
0.0
 10
92.3337271991385
 20
-163.7355613479554
 30
0.0
 10
95.11495664288815
 20
-161.0253107930774
 30
0.0
 10
98.10118525325235
 20
-161.0253107930774
 30
0.0
 10
98.26790803098879
 20
-161.0253107930774
 30
0.0
 10
98.44016941983429
 20
-161.0335657930747
 30
0.0
 10
98.61310108645779
 20
-161.0504638486265
 30
0.0
 10
98.61310108645779
 20
-161.0504638486265
 30
0.0
 10
98.66443025311182
 20
-161.0528627375145
 30
0.0
 10
98.66443025311182
 20
-161.0528627375145
 30
0.0
 10
102.6717741409986
 20
-161.0521924597371
 30
0.0
 10
106.1947188623403
 20
-164.1713830145123
 30
0.0
 10
106.3366766400822
 20
-167.8638374580343
 30
0.0
 10
106.3911102511798
 20
-169.2797463465687
 30
0.0
 10
105.6786755291362
 20
-170.8658705128389
 30
0.0
 10
104.3826052516819
 20
-172.2166919013898
 30
0.0
 10
103.0359113631297
 20
-173.6202182899281
 30
0.0
 10
101.3092405302286
 20
-174.494613289709
 30
0.0
 10
99.87643358614176
 20
-174.498740789709
 30
0.0
 10
97.54411386450307
 20
-174.498740789709
 30
0.0
 10
95.46395969835619
 20
-173.6529560676972
 30
0.0
 10
94.01735914316237
 20
-172.1171380125265
 30
0.0
  0
SPLINE
  5
7C
330
1F
100
AcDbEntity
  8
Ebene 1
 62
   250
420
  1842203
370
    35
100
AcDbSpline
210
0.0
220
0.0
230
1.0
 70
    11
 71
     3
 72
    32
 73
    28
 74
     0
 42
0.0000000001
 43
0.0000000001
 12
1.0
 22
0.0
 32
0.0
 13
1.0
 23
0.0
 33
0.0
 40
0.0
 40
0.0
 40
0.0
 40
0.0
 40
1.0
 40
1.0
 40
1.0
 40
2.0
 40
2.0
 40
2.0
 40
3.0
 40
3.0
 40
3.0
 40
4.0
 40
4.0
 40
4.0
 40
5.0
 40
5.0
 40
5.0
 40
6.0
 40
6.0
 40
6.0
 40
7.0
 40
7.0
 40
7.0
 40
8.0
 40
8.0
 40
8.0
 40
9.0
 40
9.0
 40
9.0
 40
9.0
 10
99.97048414167409
 20
-181.1508596769338
 30
0.0
 10
99.97048414167409
 20
-181.1508596769338
 30
0.0
 10
100.3339510860278
 20
-180.4866496771
 30
0.0
 10
100.3339510860278
 20
-180.4866496771
 30
0.0
 10
100.9127183081049
 20
-179.4293393995864
 30
0.0
 10
101.930729141184
 20
-178.5684205109129
 30
0.0
 10
103.3594085852715
 20
-177.9269293999621
 30
0.0
 10
104.236202473941
 20
-177.5328413445053
 30
0.0
 10
105.1615385848207
 20
-177.2833921779011
 30
0.0
 10
106.1406380290205
 20
-177.0191616224117
 30
0.0
 10
106.5485549733625
 20
-176.9092713446614
 30
0.0
 10
106.9626455288147
 20
-176.7972996780228
 30
0.0
 10
107.3715855287125
 20
-176.6746388447207
 30
0.0
 10
107.3715855287125
 20
-176.6746388447207
 30
0.0
 10
107.4349796953635
 20
-176.6560474558364
 30
0.0
 10
107.4349796953635
 20
-176.6560474558364
 30
0.0
 10
107.4349796953635
 20
-176.6560474558364
 30
0.0
 10
107.5011255286803
 20
-176.6560474558364
 30
0.0
 10
107.5011255286803
 20
-176.6560474558364
 30
0.0
 10
110.3853660835145
 20
-176.6595046780577
 30
0.0
 10
112.9564105273164
 20
-178.0023885666108
 30
0.0
 10
114.740972193537
 20
-180.4370491215573
 30
0.0
 10
114.740972193537
 20
-180.4370491215573
 30
0.0
 10
115.2639652489618
 20
-181.1508596769338
 30
0.0
 10
115.2639652489618
 20
-181.1508596769338
 30
0.0
 10
115.2639652489618
 20
-181.1508596769338
 30
0.0
 10
99.97048414167409
 20
-181.1508596769338
 30
0.0
 10
99.97048414167409
 20
-181.1508596769338
 30
0.0
  0
SPLINE
  5
7D
330
1F
100
AcDbEntity
  8
Ebene 1
 62
   250
420
  1842203
370
    35
100
AcDbSpline
210
0.0
220
0.0
230
1.0
 70
    11
 71
     3
 72
    32
 73
    28
 74
     0
 42
0.0000000001
 43
0.0000000001
 12
1.0
 22
0.0
 32
0.0
 13
1.0
 23
0.0
 33
0.0
 40
0.0
 40
0.0
 40
0.0
 40
0.0
 40
1.0
 40
1.0
 40
1.0
 40
2.0
 40
2.0
 40
2.0
 40
3.0
 40
3.0
 40
3.0
 40
4.0
 40
4.0
 40
4.0
 40
5.0
 40
5.0
 40
5.0
 40
6.0
 40
6.0
 40
6.0
 40
7.0
 40
7.0
 40
7.0
 40
8.0
 40
8.0
 40
8.0
 40
9.0
 40
9.0
 40
9.0
 40
9.0
 10
130.097494689698
 20
-167.5248180136736
 30
0.0
 10
130.097494689698
 20
-167.5248180136736
 30
0.0
 10
130.0940374674767
 20
-167.581685791438
 30
0.0
 10
130.0940374674767
 20
-167.581685791438
 30
0.0
 10
129.9810427452823
 20
-175.0640671784556
 30
0.0
 10
126.0918794129218
 20
-175.8812416226956
 30
0.0
 10
120.1718449699569
 20
-176.2722605114871
 30
0.0
 10
120.0650238588727
 20
-176.2784694003741
 30
0.0
 10
119.9592610811211
 20
-176.2825969003741
 30
0.0
 10
119.8538510811479
 20
-176.2825969003741
 30
0.0
 10
118.0286494149374
 20
-176.2825969003741
 30
0.0
 10
115.9054210821351
 20
-175.2184074561948
 30
0.0
 10
114.1752930270114
 20
-173.4365974566412
 30
0.0
 10
112.3046183052574
 20
-171.5104660682333
 30
0.0
 10
111.1791160833161
 20
-169.0471952355163
 30
0.0
 10
111.238700249968
 20
-167.0080691249146
 30
0.0
 10
111.3875371943751
 20
-161.9179444039648
 30
0.0
 10
115.9901935821137
 20
-157.4534357939704
 30
0.0
 10
121.0882205252837
 20
-157.4534357939704
 30
0.0
 10
121.1509444141567
 20
-157.4534357939704
 30
0.0
 10
121.21398580303
 20
-157.4541060717477
 30
0.0
 10
121.2773799696804
 20
-157.455164405081
 30
0.0
 10
123.4801596913519
 20
-157.5040594050682
 30
0.0
 10
125.7518369130066
 20
-158.676445793664
 30
0.0
 10
127.5102224681223
 20
-160.6711571820549
 30
0.0
 10
129.3278746898904
 20
-162.7333902370942
 30
0.0
 10
130.3190038563091
 20
-165.3581980142156
 30
0.0
 10
130.097494689698
 20
-167.5248180136736
 30
0.0
  0
SPLINE
  5
7E
330
1F
100
AcDbEntity
  8
Ebene 1
 62
   250
420
  1842203
370
    35
100
AcDbSpline
210
0.0
220
0.0
230
1.0
 70
    11
 71
     3
 72
    32
 73
    28
 74
     0
 42
0.0000000001
 43
0.0000000001
 12
1.0
 22
0.0
 32
0.0
 13
1.0
 23
0.0
 33
0.0
 40
0.0
 40
0.0
 40
0.0
 40
0.0
 40
1.0
 40
1.0
 40
1.0
 40
2.0
 40
2.0
 40
2.0
 40
3.0
 40
3.0
 40
3.0
 40
4.0
 40
4.0
 40
4.0
 40
5.0
 40
5.0
 40
5.0
 40
6.0
 40
6.0
 40
6.0
 40
7.0
 40
7.0
 40
7.0
 40
8.0
 40
8.0
 40
8.0
 40
9.0
 40
9.0
 40
9.0
 40
9.0
 10
131.4665899671335
 20
-181.1508596769338
 30
0.0
 10
131.4665899671335
 20
-181.1508596769338
 30
0.0
 10
131.5216938560084
 20
-180.6523493992813
 30
0.0
 10
131.5216938560084
 20
-180.6523493992813
 30
0.0
 10
131.5892155226581
 20
-180.0474060660987
 30
0.0
 10
131.6598416337513
 20
-179.5496013440018
 30
0.0
 10
131.7446141337306
 20
-179.0868980107838
 30
0.0
 10
132.1025424669746
 20
-177.1366366223819
 30
0.0
 10
133.2859355222341
 20
-175.6517949560868
 30
0.0
 10
135.1672994106528
 20
-174.7932749563013
 30
0.0
 10
136.6690038547216
 20
-174.1104735675833
 30
0.0
 10
138.2396410765511
 20
-173.6343646788129
 30
0.0
 10
139.7582435761716
 20
-173.1733899567069
 30
0.0
 10
139.9280707983509
 20
-173.1220607900522
 30
0.0
 10
140.5061677426513
 20
-172.7413782901477
 30
0.0
 10
141.5269302423962
 20
-172.6445760679503
 30
0.0
 10
142.5477280199186
 20
-172.5477738457515
 30
0.0
 10
150.9027757956077
 20
-174.7516119007563
 30
0.0
 10
153.7153671837935
 20
-178.8733263441704
 30
0.0
 10
154.010606905942
 20
-179.3067138440624
 30
0.0
 10
154.3544241280781
 20
-179.7356210661768
 30
0.0
 10
154.6575660724468
 20
-180.1145749549706
 30
0.0
 10
154.6575660724468
 20
-180.1145749549706
 30
0.0
 10
155.4802791277966
 20
-181.1508596769338
 30
0.0
 10
155.4802791277966
 20
-181.1508596769338
 30
0.0
 10
155.4802791277966
 20
-181.1508596769338
 30
0.0
 10
131.4665899671335
 20
-181.1508596769338
 30
0.0
 10
131.4665899671335
 20
-181.1508596769338
 30
0.0
  0
SPLINE
  5
7F
330
1F
100
AcDbEntity
  8
Ebene 1
 62
   250
420
  1842203
370
    35
100
AcDbSpline
210
0.0
220
0.0
230
1.0
 70
    11
 71
     3
 72
    23
 73
    19
 74
     0
 42
0.0000000001
 43
0.0000000001
 12
1.0
 22
0.0
 32
0.0
 13
1.0
 23
0.0
 33
0.0
 40
0.0
 40
0.0
 40
0.0
 40
0.0
 40
1.0
 40
1.0
 40
1.0
 40
2.0
 40
2.0
 40
2.0
 40
3.0
 40
3.0
 40
3.0
 40
4.0
 40
4.0
 40
4.0
 40
5.0
 40
5.0
 40
5.0
 40
6.0
 40
6.0
 40
6.0
 40
6.0
 10
161.6270085707045
 20
-173.9127063454102
 30
0.0
 10
160.5976030154064
 20
-174.9824344006993
 30
0.0
 10
159.1358682935496
 20
-175.5956327338792
 30
0.0
 10
157.6165602383735
 20
-175.5956327338792
 30
0.0
 10
157.6165602383735
 20
-175.5956327338792
 30
0.0
 10
157.563537738387
 20
-175.5956327338792
 30
0.0
 10
157.563537738387
 20
-175.5956327338792
 30
0.0
 10
154.6393274613403
 20
-175.5663521783302
 30
0.0
 10
152.6807757951628
 20
-173.3893957899865
 30
0.0
 10
152.6852560729399
 20
-170.1778832907889
 30
0.0
 10
152.6893835729386
 20
-166.8595849582848
 30
0.0
 10
154.1501305170178
 20
-165.3792235697661
 30
0.0
 10
157.420909682867
 20
-165.378200514211
 30
0.0
 10
160.3760938487947
 20
-165.378200514211
 30
0.0
 10
162.7814738481933
 20
-167.7515130136179
 30
0.0
 10
162.8972202370535
 20
-170.7807805128601
 30
0.0
 10
162.9399416259318
 20
-171.9052596792456
 30
0.0
 10
162.4886330149335
 20
-173.0173563456339
 30
0.0
 10
161.6270085707045
 20
-173.9127063454102
 30
0.0
  0
SPLINE
  5
80
330
1F
100
AcDbEntity
  8
Ebene 1
 62
   250
420
  1842203
370
    35
100
AcDbSpline
210
0.0
220
0.0
230
1.0
 70
    11
 71
     3
 72
    29
 73
    25
 74
     0
 42
0.0000000001
 43
0.0000000001
 12
1.0
 22
0.0
 32
0.0
 13
1.0
 23
0.0
 33
0.0
 40
0.0
 40
0.0
 40
0.0
 40
0.0
 40
1.0
 40
1.0
 40
1.0
 40
2.0
 40
2.0
 40
2.0
 40
3.0
 40
3.0
 40
3.0
 40
4.0
 40
4.0
 40
4.0
 40
5.0
 40
5.0
 40
5.0
 40
6.0
 40
6.0
 40
6.0
 40
7.0
 40
7.0
 40
7.0
 40
8.0
 40
8.0
 40
8.0
 40
8.0
 10
177.5240571778413
 20
-180.7798432881376
 30
0.0
 10
177.5240571778413
 20
-180.7798432881376
 30
0.0
 10
177.4586169000794
 20
-181.1508596769338
 30
0.0
 10
177.4586169000794
 20
-181.1508596769338
 30
0.0
 10
177.4586169000794
 20
-181.1508596769338
 30
0.0
 10
163.3237285702799
 20
-181.1508596769338
 30
0.0
 10
163.3237285702799
 20
-181.1508596769338
 30
0.0
 10
163.3237285702799
 20
-181.1508596769338
 30
0.0
 10
163.2644619036281
 20
-180.7712002325844
 30
0.0
 10
163.2644619036281
 20
-180.7712002325844
 30
0.0
 10
163.2138382925296
 20
-180.4456568993324
 30
0.0
 10
163.1928127369798
 20
-180.1197607883038
 30
0.0
 10
163.2027963480884
 20
-179.8014141217158
 30
0.0
 10
163.3337121813891
 20
-175.4905755116832
 30
0.0
 10
166.0663641251498
 20
-172.5284769013117
 30
0.0
 10
170.5122460684831
 20
-171.8794363459191
 30
0.0
 10
170.5122460684831
 20
-171.8794363459191
 30
0.0
 10
170.6352596795636
 20
-171.8783780125858
 30
0.0
 10
170.6352596795636
 20
-171.8783780125858
 30
0.0
 10
175.0067407895815
 20
-172.4506188457763
 30
0.0
 10
177.4892732889607
 20
-175.1081644006668
 30
0.0
 10
177.6243166222607
 20
-179.3604418996038
 30
0.0
 10
177.6394860667013
 20
-179.8376091217075
 30
0.0
 10
177.606042733376
 20
-180.3154466215872
 30
0.0
 10
177.5240571778413
 20
-180.7798432881376
 30
0.0
  0
SPLINE
  5
81
330
1F
100
AcDbEntity
  8
Ebene 1
 62
   250
420
  1842203
370
    35
100
AcDbSpline
210
0.0
220
0.0
230
1.0
 70
    11
 71
     3
 72
    32
 73
    28
 74
     0
 42
0.0000000001
 43
0.0000000001
 12
1.0
 22
0.0
 32
0.0
 13
1.0
 23
0.0
 33
0.0
 40
0.0
 40
0.0
 40
0.0
 40
0.0
 40
1.0
 40
1.0
 40
1.0
 40
2.0
 40
2.0
 40
2.0
 40
3.0
 40
3.0
 40
3.0
 40
4.0
 40
4.0
 40
4.0
 40
5.0
 40
5.0
 40
5.0
 40
6.0
 40
6.0
 40
6.0
 40
7.0
 40
7.0
 40
7.0
 40
8.0
 40
8.0
 40
8.0
 40
9.0
 40
9.0
 40
9.0
 40
9.0
 10
170.7217255128754
 20
-167.0804238471185
 30
0.0
 10
170.7217255128754
 20
-167.0804238471185
 30
0.0
 10
170.7199969017647
 20
-167.0810941248959
 30
0.0
 10
170.7199969017647
 20
-167.0810941248959
 30
0.0
 10
170.6286980128982
 20
-167.0855744026736
 30
0.0
 10
170.5363760684771
 20
-167.0886788471171
 30
0.0
 10
170.4440541240554
 20
-167.0886788471171
 30
0.0
 10
168.0628041246507
 20
-167.0886788471171
 30
0.0
 10
165.3008716253416
 20
-165.3396066253313
 30
0.0
 10
163.4301616258088
 20
-164.0242746812166
 30
0.0
 10
159.3573774601607
 20
-161.1620827374874
 30
0.0
 10
157.5046238495124
 20
-157.9236885716301
 30
0.0
 10
157.7674785716689
 20
-154.1233899614694
 30
0.0
 10
158.0086374604976
 20
-150.6300785734533
 30
0.0
 10
158.6869585714392
 20
-147.1284769076617
 30
0.0
 10
161.988041348392
 20
-145.1744407970401
 30
0.0
 10
164.5163996810931
 20
-143.6785571863025
 30
0.0
 10
166.7798571805273
 20
-142.9519760753729
 30
0.0
 10
168.9078832911063
 20
-142.9519760753729
 30
0.0
 10
170.8267827350708
 20
-142.9519760753729
 30
0.0
 10
172.6413305123954
 20
-143.525945519674
 30
0.0
 10
174.4541496786087
 20
-144.7072571860458
 30
0.0
 10
178.7997721775219
 20
-147.5394982964485
 30
0.0
 10
181.2912652324546
 20
-151.5612707954435
 30
0.0
 10
181.2898893991217
 20
-155.7412288499536
 30
0.0
 10
181.1259182880517
 20
-161.7601469040043
 30
0.0
 10
176.4839977336567
 20
-166.7359010694275
 30
0.0
 10
170.7217255128754
 20
-167.0804238471185
 30
0.0
  0
SPLINE
  5
82
330
1F
100
AcDbEntity
  8
Ebene 1
 62
   250
420
  1842203
370
    35
100
AcDbSpline
210
0.0
220
0.0
230
1.0
 70
     8
 71
     3
 72
    29
 73
    25
 74
     0
 42
0.0000000001
 43
0.0000000001
 12
1.0
 22
0.0
 32
0.0
 13
1.0
 23
0.0
 33
0.0
 40
0.0
 40
0.0
 40
0.0
 40
0.0
 40
1.0
 40
1.0
 40
1.0
 40
2.0
 40
2.0
 40
2.0
 40
3.0
 40
3.0
 40
3.0
 40
4.0
 40
4.0
 40
4.0
 40
5.0
 40
5.0
 40
5.0
 40
6.0
 40
6.0
 40
6.0
 40
7.0
 40
7.0
 40
7.0
 40
8.0
 40
8.0
 40
8.0
 40
8.0
 10
182.4888046766002
 20
-166.4609813472733
 30
0.0
 10
183.7961991207178
 20
-166.4609813472733
 30
0.0
 10
184.9889055093086
 20
-166.9512013471516
 30
0.0
 10
185.847425509094
 20
-167.8421063469283
 30
0.0
 10
186.6428688422281
 20
-168.6668655133883
 30
0.0
 10
187.0580177310136
 20
-169.7538091242275
 30
0.0
 10
187.0163193976904
 20
-170.9027357906079
 30
0.0
 10
186.9443174532643
 20
-172.8964241234424
 30
0.0
 10
184.9420566204309
 20
-174.8539174562866
 30
0.0
 10
182.9738741209233
 20
-174.8539174562866
 30
0.0
 10
182.9738741209233
 20
-174.8539174562866
 30
0.0
 10
182.9290713431566
 20
-174.8532471785092
 30
0.0
 10
182.9290713431566
 20
-174.8532471785092
 30
0.0
 10
181.6175141212622
 20
-174.8346205118467
 30
0.0
 10
180.1654102327361
 20
-174.1149538453597
 30
0.0
 10
179.3162035662819
 20
-173.0624766234015
 30
0.0
 10
178.8948810663875
 20
-172.5401891235316
 30
0.0
 10
178.4359877331686
 20
-171.7044232904072
 30
0.0
 10
178.6326966220084
 20
-170.6791452351084
 30
0.0
 10
178.6326966220084
 20
-170.6791452351084
 30
0.0
 10
178.6430330108947
 20
-170.5764869018004
 30
0.0
 10
178.6430330108947
 20
-170.5764869018004
 30
0.0
 10
178.6609541220016
 20
-168.0371219024356
 30
0.0
 10
180.1316493994113
 20
-166.4609813472733
 30
0.0
 10
182.4860177321562
 20
-166.4609813472733
 30
0.0
  0
SPLINE
  5
83
330
1F
100
AcDbEntity
  8
Ebene 1
 62
   250
420
  1842203
370
    35
100
AcDbSpline
210
0.0
220
0.0
230
1.0
 70
    11
 71
     3
 72
    23
 73
    19
 74
     0
 42
0.0000000001
 43
0.0000000001
 12
1.0
 22
0.0
 32
0.0
 13
1.0
 23
0.0
 33
0.0
 40
0.0
 40
0.0
 40
0.0
 40
0.0
 40
1.0
 40
1.0
 40
1.0
 40
2.0
 40
2.0
 40
2.0
 40
3.0
 40
3.0
 40
3.0
 40
4.0
 40
4.0
 40
4.0
 40
5.0
 40
5.0
 40
5.0
 40
6.0
 40
6.0
 40
6.0
 40
6.0
 10
182.9955699542512
 20
-181.1508596769338
 30
0.0
 10
182.9955699542512
 20
-181.1508596769338
 30
0.0
 10
183.5271355096736
 20
-180.4346149548911
 30
0.0
 10
183.5271355096736
 20
-180.4346149548911
 30
0.0
 10
185.3526899536619
 20
-177.9758596777275
 30
0.0
 10
188.2844849529285
 20
-176.1616646781814
 30
0.0
 10
192.24116995194
 20
-175.04201856735
 30
0.0
 10
192.7861763406922
 20
-174.8876782896108
 30
0.0
 10
193.3939066183182
 20
-174.8101730118532
 30
0.0
 10
194.0484505070436
 20
-174.8101730118532
 30
0.0
 10
197.869421894977
 20
-174.8101730118532
 30
0.0
 10
202.5785113382446
 20
-177.4677185667436
 30
0.0
 10
204.1253713378578
 20
-180.4983618993199
 30
0.0
 10
204.1253713378578
 20
-180.4983618993199
 30
0.0
 10
204.4584993933298
 20
-181.1508596769338
 30
0.0
 10
204.4584993933298
 20
-181.1508596769338
 30
0.0
 10
204.4584993933298
 20
-181.1508596769338
 30
0.0
 10
182.9955699542512
 20
-181.1508596769338
 30
0.0
 10
182.9955699542512
 20
-181.1508596769338
 30
0.0
  0
SPLINE
  5
84
330
1F
100
AcDbEntity
  8
Ebene 1
 62
   250
420
  1842203
370
    35
100
AcDbSpline
210
0.0
220
0.0
230
1.0
 70
    11
 71
     3
 72
    41
 73
    37
 74
     0
 42
0.0000000001
 43
0.0000000001
 12
1.0
 22
0.0
 32
0.0
 13
1.0
 23
0.0
 33
0.0
 40
0.0
 40
0.0
 40
0.0
 40
0.0
 40
1.0
 40
1.0
 40
1.0
 40
2.0
 40
2.0
 40
2.0
 40
3.0
 40
3.0
 40
3.0
 40
4.0
 40
4.0
 40
4.0
 40
5.0
 40
5.0
 40
5.0
 40
6.0
 40
6.0
 40
6.0
 40
7.0
 40
7.0
 40
7.0
 40
8.0
 40
8.0
 40
8.0
 40
9.0
 40
9.0
 40
9.0
 40
10.0
 40
10.0
 40
10.0
 40
11.0
 40
11.0
 40
11.0
 40
12.0
 40
12.0
 40
12.0
 40
12.0
 10
205.4448307819725
 20
-158.6226824603445
 30
0.0
 10
205.5709135597183
 20
-161.5420596818363
 30
0.0
 10
205.6890941152447
 20
-164.2991944033695
 30
0.0
 10
203.4149827269238
 20
-166.5546791250273
 30
0.0
 10
201.4212943940893
 20
-168.5325277356445
 30
0.0
 10
198.6893480058828
 20
-169.7131338464607
 30
0.0
 10
196.1062032843064
 20
-169.7131338464607
 30
0.0
 10
194.2971941180922
 20
-169.7131338464607
 30
0.0
 10
192.6655968962779
 20
-169.1584966243763
 30
0.0
 10
191.2568846744082
 20
-168.0650266246505
 30
0.0
 10
188.5914368972963
 20
-165.9969374585006
 30
0.0
 10
186.8716452310595
 20
-163.1526666258783
 30
0.0
 10
185.9986613423891
 20
-159.3709594046019
 30
0.0
 10
185.2310874536924
 20
-156.0450763498778
 30
0.0
 10
187.0184007865788
 20
-153.0578246839572
 30
0.0
 10
188.6527496750589
 20
-151.1378669066594
 30
0.0
 10
191.0402085633506
 20
-148.3315196851394
 30
0.0
 10
194.0091863403865
 20
-146.7860355188591
 30
0.0
 10
197.0119249507466
 20
-146.7860355188591
 30
0.0
 10
199.3005002279525
 20
-146.7860355188591
 30
0.0
 10
201.4998580051809
 20
-147.662829407528
 30
0.0
 10
203.5490030046681
 20
-149.3918991293184
 30
0.0
 10
204.9535524487616
 20
-150.5770207956892
 30
0.0
 10
205.1123730042778
 20
-152.1114630175271
 30
0.0
 10
205.2801541153462
 20
-153.7361810726769
 30
0.0
 10
205.3183952264482
 20
-154.1051513503628
 30
0.0
 10
205.3576593931052
 20
-154.4865041280447
 30
0.0
 10
205.4138216153134
 20
-154.8675394057269
 30
0.0
 10
205.5357768930606
 20
-155.6946974610762
 30
0.0
 10
205.5054732819571
 20
-156.5311688497561
 30
0.0
 10
205.4730882819651
 20
-157.4172760717568
 30
0.0
 10
205.4596474486352
 20
-157.785893571665
 30
0.0
 10
205.4444780041947
 20
-158.2027357937829
 30
0.0
 10
205.4444780041947
 20
-158.6051141270153
 30
0.0
 10
205.4444780041947
 20
-158.6051141270153
 30
0.0
 10
205.4448307819725
 20
-158.6226824603445
 30
0.0
 10
205.4448307819725
 20
-158.6226824603445
 30
0.0
  0
SPLINE
  5
85
330
1F
100
AcDbEntity
  8
Ebene 1
 62
   250
420
  1842203
370
    35
100
AcDbSpline
210
0.0
220
0.0
230
1.0
 70
    11
 71
     3
 72
    29
 73
    25
 74
     0
 42
0.0000000001
 43
0.0000000001
 12
1.0
 22
0.0
 32
0.0
 13
1.0
 23
0.0
 33
0.0
 40
0.0
 40
0.0
 40
0.0
 40
0.0
 40
1.0
 40
1.0
 40
1.0
 40
2.0
 40
2.0
 40
2.0
 40
3.0
 40
3.0
 40
3.0
 40
4.0
 40
4.0
 40
4.0
 40
5.0
 40
5.0
 40
5.0
 40
6.0
 40
6.0
 40
6.0
 40
7.0
 40
7.0
 40
7.0
 40
8.0
 40
8.0
 40
8.0
 40
8.0
 10
201.2945413385654
 20
-118.5050758037073
 30
0.0
 10
203.9586132823438
 20
-118.3026871926465
 30
0.0
 10
206.8621507816179
 20
-119.5243213590073
 30
0.0
 10
209.2089343921422
 20
-122.2900285805387
 30
0.0
 10
211.3941810582626
 20
-124.8655885798951
 30
0.0
 10
212.4480341135543
 20
-127.9210321902415
 30
0.0
 10
212.0277346692151
 20
-130.4645599673843
 30
0.0
 10
211.2570563360742
 20
-135.1323038551052
 30
0.0
 10
209.4835366142961
 20
-138.2566802432136
 30
0.0
 10
206.6058224483486
 20
-140.0178174649957
 30
0.0
 10
204.4636852266617
 20
-141.3296921868892
 30
0.0
 10
202.3676913382969
 20
-141.9956307978348
 30
0.0
 10
200.3757316165731
 20
-141.9956307978348
 30
0.0
 10
196.0951966176427
 20
-141.9956307978348
 30
0.0
 10
192.3624196741317
 20
-138.8774632986135
 30
0.0
 10
190.1341341191333
 20
-133.4404169110847
 30
0.0
 10
188.8518927305648
 20
-130.3150527451993
 30
0.0
 10
189.2670063415721
 20
-126.9223183016028
 30
0.0
 10
191.3023577299523
 20
-123.8878649690275
 30
0.0
 10
193.5024210627355
 20
-120.6078077476258
 30
0.0
 10
197.1642191173756
 20
-118.4887069148222
 30
0.0
 10
200.6320246720642
 20
-118.4887069148222
 30
0.0
 10
200.6320246720642
 20
-118.4887069148222
 30
0.0
 10
201.2945413385654
 20
-118.5050758037073
 30
0.0
 10
201.2945413385654
 20
-118.5050758037073
 30
0.0
  0
SPLINE
  5
86
330
1F
100
AcDbEntity
  8
Ebene 1
 62
   250
420
  1842203
370
    35
100
AcDbSpline
210
0.0
220
0.0
230
1.0
 70
    11
 71
     3
 72
    38
 73
    34
 74
     0
 42
0.0000000001
 43
0.0000000001
 12
1.0
 22
0.0
 32
0.0
 13
1.0
 23
0.0
 33
0.0
 40
0.0
 40
0.0
 40
0.0
 40
0.0
 40
1.0
 40
1.0
 40
1.0
 40
2.0
 40
2.0
 40
2.0
 40
3.0
 40
3.0
 40
3.0
 40
4.0
 40
4.0
 40
4.0
 40
5.0
 40
5.0
 40
5.0
 40
6.0
 40
6.0
 40
6.0
 40
7.0
 40
7.0
 40
7.0
 40
8.0
 40
8.0
 40
8.0
 40
9.0
 40
9.0
 40
9.0
 40
10.0
 40
10.0
 40
10.0
 40
11.0
 40
11.0
 40
11.0
 40
11.0
 10
222.5662652221359
 20
-172.4209855124508
 30
0.0
 10
222.3092666110892
 20
-174.0494782898203
 30
0.0
 10
221.2750632780145
 20
-175.5243363450074
 30
0.0
 10
219.4922302229045
 20
-176.8055546780201
 30
0.0
 10
217.7527888344509
 20
-178.0554463443748
 30
0.0
 10
216.0498599459878
 20
-178.6628238442237
 30
0.0
 10
214.2866766130948
 20
-178.6628238442237
 30
0.0
 10
212.7064085579345
 20
-178.6628238442237
 30
0.0
 10
211.0917093916713
 20
-178.1753202332343
 30
0.0
 10
209.350539392107
 20
-177.1728316223735
 30
0.0
 10
207.4902010592387
 20
-176.102750789308
 30
0.0
 10
206.9930666149185
 20
-174.3633446786319
 30
0.0
 10
206.7677474483084
 20
-172.967720512313
 30
0.0
 10
206.7677474483084
 20
-172.967720512313
 30
0.0
 10
206.7615385594207
 20
-172.9298321789902
 30
0.0
 10
206.7615385594207
 20
-172.9298321789902
 30
0.0
 10
206.7615385594207
 20
-172.9298321789902
 30
0.0
 10
206.7618913371984
 20
-172.891943845666
 30
0.0
 10
206.7618913371984
 20
-172.891943845666
 30
0.0
 10
206.8104688371861
 20
-168.3454496801362
 30
0.0
 10
210.1067538363622
 20
-164.8104399587969
 30
0.0
 10
214.4296574463925
 20
-164.668482181055
 30
0.0
 10
214.4296574463925
 20
-164.668482181055
 30
0.0
 10
214.5133716130385
 20
-164.6654130143896
 30
0.0
 10
214.5133716130385
 20
-164.6654130143896
 30
0.0
 10
214.8995574462751
 20
-164.6526424588365
 30
0.0
 10
215.3797938350441
 20
-164.6364499588401
 30
0.0
 10
215.8307496682647
 20
-164.6364499588401
 30
0.0
 10
217.6053277233761
 20
-164.6364499588401
 30
0.0
 10
219.4202282784784
 20
-164.8707296810044
 30
0.0
 10
220.6728363337207
 20
-166.5733057916897
 30
0.0
 10
222.2117588333356
 20
-168.6637610689448
 30
0.0
 10
222.84876966651
 20
-170.6312732906751
 30
0.0
 10
222.5662652221359
 20
-172.4209855124508
 30
0.0
  0
SPLINE
  5
87
330
1F
100
AcDbEntity
  8
Ebene 1
 62
   250
420
  1842203
370
    35
100
AcDbSpline
210
0.0
220
0.0
230
1.0
 70
    11
 71
     3
 72
    23
 73
    19
 74
     0
 42
0.0000000001
 43
0.0000000001
 12
1.0
 22
0.0
 32
0.0
 13
1.0
 23
0.0
 33
0.0
 40
0.0
 40
0.0
 40
0.0
 40
0.0
 40
1.0
 40
1.0
 40
1.0
 40
2.0
 40
2.0
 40
2.0
 40
3.0
 40
3.0
 40
3.0
 40
4.0
 40
4.0
 40
4.0
 40
5.0
 40
5.0
 40
5.0
 40
6.0
 40
6.0
 40
6.0
 40
6.0
 10
230.92819216449
 20
-169.9336199575167
 30
0.0
 10
230.92819216449
 20
-172.7806777345829
 30
0.0
 10
229.8533488314254
 20
-175.4988305116805
 30
0.0
 10
227.9016763319137
 20
-177.586569400048
 30
0.0
 10
227.9016763319137
 20
-177.586569400048
 30
0.0
 10
227.2061396654206
 20
-178.3307188443055
 30
0.0
 10
227.2061396654206
 20
-178.3307188443055
 30
0.0
 10
227.2061396654206
 20
-178.3307188443055
 30
0.0
 10
227.1269057765517
 20
-177.3154244001159
 30
0.0
 10
227.1269057765517
 20
-177.3154244001159
 30
0.0
 10
226.8261274432935
 20
-173.4676066232996
 30
0.0
 10
228.6055385539597
 20
-170.6850013462177
 30
0.0
 10
230.1516929980174
 20
-169.0279335688534
 30
0.0
 10
230.1516929980174
 20
-169.0279335688534
 30
0.0
 10
230.92819216449
 20
-168.1955896801734
 30
0.0
 10
230.92819216449
 20
-168.1955896801734
 30
0.0
 10
230.92819216449
 20
-168.1955896801734
 30
0.0
 10
230.92819216449
 20
-169.9336199575167
 30
0.0
 10
230.92819216449
 20
-169.9336199575167
 30
0.0
  0
SPLINE
  5
88
330
1F
100
AcDbEntity
  8
Ebene 1
 62
   250
420
  1842203
370
    35
100
AcDbSpline
210
0.0
220
0.0
230
1.0
 70
    11
 71
     3
 72
    32
 73
    28
 74
     0
 42
0.0000000001
 43
0.0000000001
 12
1.0
 22
0.0
 32
0.0
 13
1.0
 23
0.0
 33
0.0
 40
0.0
 40
0.0
 40
0.0
 40
0.0
 40
1.0
 40
1.0
 40
1.0
 40
2.0
 40
2.0
 40
2.0
 40
3.0
 40
3.0
 40
3.0
 40
4.0
 40
4.0
 40
4.0
 40
5.0
 40
5.0
 40
5.0
 40
6.0
 40
6.0
 40
6.0
 40
7.0
 40
7.0
 40
7.0
 40
8.0
 40
8.0
 40
8.0
 40
9.0
 40
9.0
 40
9.0
 40
9.0
 10
230.92819216449
 20
-162.9576510703711
 30
0.0
 10
230.92819216449
 20
-162.9576510703711
 30
0.0
 10
230.6698177201105
 20
-163.0785832925638
 30
0.0
 10
230.6698177201105
 20
-163.0785832925638
 30
0.0
 10
229.8409310536506
 20
-163.4668505146883
 30
0.0
 10
228.9527777205396
 20
-163.6642649590835
 30
0.0
 10
228.0301932763257
 20
-163.6642649590835
 30
0.0
 10
225.4835963325181
 20
-163.6642649590835
 30
0.0
 10
223.0534160553474
 20
-162.1508130150181
 30
0.0
 10
221.8393666112066
 20
-159.8085096822695
 30
0.0
 10
219.9807216116715
 20
-156.2242169053883
 30
0.0
 10
219.9810743894492
 20
-153.191174683924
 30
0.0
 10
221.8403896667617
 20
-150.2614610735451
 30
0.0
 10
222.8325771665137
 20
-148.7001371850476
 30
0.0
 10
225.4353363325301
 20
-147.47779746313
 30
0.0
 10
227.7656099430585
 20
-147.47779746313
 30
0.0
 10
228.3350991095832
 20
-147.47779746313
 30
0.0
 10
228.8473677205658
 20
-147.5529038520009
 30
0.0
 10
229.2862585537893
 20
-147.702093574185
 30
0.0
 10
229.7634257758923
 20
-147.8633130185899
 30
0.0
 10
230.2143816091129
 20
-148.0414305185454
 30
0.0
 10
230.6650199423339
 20
-148.2464296851606
 30
0.0
 10
230.6650199423339
 20
-148.2464296851606
 30
0.0
 10
230.92819216449
 20
-148.3655980184645
 30
0.0
 10
230.92819216449
 20
-148.3655980184645
 30
0.0
 10
230.92819216449
 20
-148.3655980184645
 30
0.0
 10
230.92819216449
 20
-162.9576510703711
 30
0.0
 10
230.92819216449
 20
-162.9576510703711
 30
0.0
  0
SPLINE
  5
89
330
1F
100
AcDbEntity
  8
Ebene 1
 62
   250
420
  1842203
370
    35
100
AcDbSpline
210
0.0
220
0.0
230
1.0
 70
    11
 71
     3
 72
    26
 73
    22
 74
     0
 42
0.0000000001
 43
0.0000000001
 12
1.0
 22
0.0
 32
0.0
 13
1.0
 23
0.0
 33
0.0
 40
0.0
 40
0.0
 40
0.0
 40
0.0
 40
1.0
 40
1.0
 40
1.0
 40
2.0
 40
2.0
 40
2.0
 40
3.0
 40
3.0
 40
3.0
 40
4.0
 40
4.0
 40
4.0
 40
5.0
 40
5.0
 40
5.0
 40
6.0
 40
6.0
 40
6.0
 40
7.0
 40
7.0
 40
7.0
 40
7.0
 10
230.92819216449
 20
-143.1118549642218
 30
0.0
 10
230.92819216449
 20
-143.1118549642218
 30
0.0
 10
230.1606535535709
 20
-143.182481075315
 30
0.0
 10
230.1606535535709
 20
-143.182481075315
 30
0.0
 10
230.1606535535709
 20
-143.182481075315
 30
0.0
 10
230.126892720246
 20
-143.1803996864266
 30
0.0
 10
230.126892720246
 20
-143.1803996864266
 30
0.0
 10
222.3347724444161
 20
-142.6622749643347
 30
0.0
 10
217.3745052234344
 20
-137.8332763544308
 30
0.0
 10
216.8587793902299
 20
-130.2616421896562
 30
0.0
 10
216.6386460569516
 20
-127.0173919126897
 30
0.0
 10
217.3262805012239
 20
-124.1510724689618
 30
0.0
 10
218.9602766119268
 20
-121.4980071918477
 30
0.0
 10
221.1062238336121
 20
-118.0149969149405
 30
0.0
 10
224.3639149439092
 20
-116.3928894153463
 30
0.0
 10
229.2118577204746
 20
-116.3928894153463
 30
0.0
 10
229.5673871648306
 20
-116.3928894153463
 30
0.0
 10
230.92819216449
 20
-116.4576594153302
 30
0.0
 10
230.92819216449
 20
-116.4576594153302
 30
0.0
 10
230.92819216449
 20
-116.4576594153302
 30
0.0
 10
230.92819216449
 20
-143.1118549642218
 30
0.0
 10
230.92819216449
 20
-143.1118549642218
 30
0.0
  0
SPLINE
  5
8A
330
1F
100
AcDbEntity
  8
Ebene 1
 62
   250
420
  1842203
370
    35
100
AcDbSpline
210
0.0
220
0.0
230
1.0
 70
    11
 71
     3
 72
    23
 73
    19
 74
     0
 42
0.0000000001
 43
0.0000000001
 12
1.0
 22
0.0
 32
0.0
 13
1.0
 23
0.0
 33
0.0
 40
0.0
 40
0.0
 40
0.0
 40
0.0
 40
1.0
 40
1.0
 40
1.0
 40
2.0
 40
2.0
 40
2.0
 40
3.0
 40
3.0
 40
3.0
 40
4.0
 40
4.0
 40
4.0
 40
5.0
 40
5.0
 40
5.0
 40
6.0
 40
6.0
 40
6.0
 40
6.0
 10
230.92819216449
 20
-112.3257849719186
 30
0.0
 10
230.92819216449
 20
-112.3257849719186
 30
0.0
 10
230.6384910534512
 20
-112.4878863607672
 30
0.0
 10
230.095883553587
 20
-112.5019974718745
 30
0.0
 10
228.6334432761746
 20
-112.5400621940875
 30
0.0
 10
226.6401077211179
 20
-110.3433149724142
 30
0.0
 10
226.5946346655738
 20
-108.7148221950434
 30
0.0
 10
226.5660243878027
 20
-107.6771263619699
 30
0.0
 10
227.0452377210166
 20
-106.5397355289204
 30
0.0
 10
227.8765585541421
 20
-105.671761084693
 30
0.0
 10
228.6031043872935
 20
-104.9136769182158
 30
0.0
 10
229.4974666092923
 20
-104.4690710849936
 30
0.0
 10
230.3332324424166
 20
-104.4497741405538
 30
0.0
 10
230.3332324424166
 20
-104.4497741405538
 30
0.0
 10
230.92819216449
 20
-104.3901899739025
 30
0.0
 10
230.92819216449
 20
-104.3901899739025
 30
0.0
 10
230.92819216449
 20
-104.3901899739025
 30
0.0
 10
230.92819216449
 20
-112.3257849719186
 30
0.0
 10
230.92819216449
 20
-112.3257849719186
 30
0.0
  0
SPLINE
  5
8B
330
1F
100
AcDbEntity
  8
Ebene 1
 62
   250
420
  1842203
370
    35
100
AcDbSpline
210
0.0
220
0.0
230
1.0
 70
    11
 71
     3
 72
    23
 73
    19
 74
     0
 42
0.0000000001
 43
0.0000000001
 12
1.0
 22
0.0
 32
0.0
 13
1.0
 23
0.0
 33
0.0
 40
0.0
 40
0.0
 40
0.0
 40
0.0
 40
1.0
 40
1.0
 40
1.0
 40
2.0
 40
2.0
 40
2.0
 40
3.0
 40
3.0
 40
3.0
 40
4.0
 40
4.0
 40
4.0
 40
5.0
 40
5.0
 40
5.0
 40
6.0
 40
6.0
 40
6.0
 40
6.0
 10
230.92819216449
 20
-97.14289969793629
 30
0.0
 10
230.92819216449
 20
-97.14289969793629
 30
0.0
 10
230.3649471646312
 20
-96.99406275352926
 30
0.0
 10
230.3649471646312
 20
-96.99406275352926
 30
0.0
 10
225.9128210546327
 20
-95.81758414271233
 30
0.0
 10
223.1653877219861
 20
-91.68895525485532
 30
0.0
 10
223.0151749442462
 20
-85.95031914517892
 30
0.0
 10
222.9452191109303
 20
-83.2663858125165
 30
0.0
 10
224.0362902217688
 20
-80.5656249798586
 30
0.0
 10
226.0096585546083
 20
-78.54008081369814
 30
0.0
 10
227.2698513320713
 20
-77.24662109179918
 30
0.0
 10
228.7763888316948
 20
-76.34537970313572
 30
0.0
 10
230.3669932757415
 20
-75.93368803657216
 30
0.0
 10
230.3669932757415
 20
-75.93368803657216
 30
0.0
 10
230.92819216449
 20
-75.788484703275
 30
0.0
 10
230.92819216449
 20
-75.788484703275
 30
0.0
 10
230.92819216449
 20
-75.788484703275
 30
0.0
 10
230.92819216449
 20
-97.14289969793629
 30
0.0
 10
230.92819216449
 20
-97.14289969793629
 30
0.0
  0
SPLINE
  5
8C
330
1F
100
AcDbEntity
  8
Ebene 1
 62
   250
420
  1842203
370
    35
100
AcDbSpline
210
0.0
220
0.0
230
1.0
 70
    11
 71
     3
 72
    23
 73
    19
 74
     0
 42
0.0000000001
 43
0.0000000001
 12
1.0
 22
0.0
 32
0.0
 13
1.0
 23
0.0
 33
0.0
 40
0.0
 40
0.0
 40
0.0
 40
0.0
 40
1.0
 40
1.0
 40
1.0
 40
2.0
 40
2.0
 40
2.0
 40
3.0
 40
3.0
 40
3.0
 40
4.0
 40
4.0
 40
4.0
 40
5.0
 40
5.0
 40
5.0
 40
6.0
 40
6.0
 40
6.0
 40
6.0
 10
230.92819216449
 20
-70.46270442682865
 30
0.0
 10
230.92819216449
 20
-70.46270442682865
 30
0.0
 10
230.4172993868397
 20
-70.39105526018
 30
0.0
 10
230.4172993868397
 20
-70.39105526018
 30
0.0
 10
225.6988966102415
 20
-69.72959692701203
 30
0.0
 10
221.3556730002163
 20
-67.20399026097675
 30
0.0
 10
220.5998113337389
 20
-62.48110720660183
 30
0.0
 10
220.4433896671113
 20
-61.50373637351297
 30
0.0
 10
220.3638382782421
 20
-59.4856005406839
 30
0.0
 10
221.1899732780356
 20
-57.8626110966453
 30
0.0
 10
223.3931057774849
 20
-53.52799526439577
 30
0.0
 10
225.4946029991818
 20
-50.75124609842319
 30
0.0
 10
230.3432160535252
 20
-49.54598082094663
 30
0.0
 10
230.3432160535252
 20
-49.54598082094663
 30
0.0
 10
230.92819216449
 20
-49.35943193210436
 30
0.0
 10
230.92819216449
 20
-49.35943193210436
 30
0.0
 10
230.92819216449
 20
-49.35943193210436
 30
0.0
 10
230.92819216449
 20
-70.46270442682865
 30
0.0
 10
230.92819216449
 20
-70.46270442682865
 30
0.0
  0
SPLINE
  5
8D
330
1F
100
AcDbEntity
  8
Ebene 1
 62
   250
420
  1842203
370
    35
100
AcDbSpline
210
0.0
220
0.0
230
1.0
 70
    11
 71
     3
 72
    23
 73
    19
 74
     0
 42
0.0000000001
 43
0.0000000001
 12
1.0
 22
0.0
 32
0.0
 13
1.0
 23
0.0
 33
0.0
 40
0.0
 40
0.0
 40
0.0
 40
0.0
 40
1.0
 40
1.0
 40
1.0
 40
2.0
 40
2.0
 40
2.0
 40
3.0
 40
3.0
 40
3.0
 40
4.0
 40
4.0
 40
4.0
 40
5.0
 40
5.0
 40
5.0
 40
6.0
 40
6.0
 40
6.0
 40
6.0
 10
230.92819216449
 20
-44.69443971104862
 30
0.0
 10
230.92819216449
 20
-44.69443971104862
 30
0.0
 10
229.9721996647291
 20
-44.87305109989286
 30
0.0
 10
229.6824632759128
 20
-44.87322748878174
 30
0.0
 10
226.8991524432754
 20
-44.8734038776703
 30
0.0
 10
224.0931227217544
 20
-42.47458554493674
 30
0.0
 10
223.3159179997262
 20
-40.32190026769712
 30
0.0
 10
222.4966974443759
 20
-38.05054054604266
 30
0.0
 10
222.8077768887423
 20
-35.6358824910909
 30
0.0
 10
224.1692874439579
 20
-33.69698054713108
 30
0.0
 10
225.3984710547618
 20
-31.94670888090225
 30
0.0
 10
227.3170529987266
 20
-30.90146360338562
 30
0.0
 10
229.3010752204528
 20
-30.90128721449674
 30
0.0
 10
229.7017602203526
 20
-30.89267943672103
 30
0.0
 10
230.92819216449
 20
-30.94418499226393
 30
0.0
 10
230.92819216449
 20
-30.94418499226393
 30
0.0
 10
230.92819216449
 20
-30.94418499226393
 30
0.0
 10
230.92819216449
 20
-44.69443971104862
 30
0.0
 10
230.92819216449
 20
-44.69443971104862
 30
0.0
  0
ENDSEC
  0
SECTION
  2
OBJECTS
  0
DICTIONARY
  5
C
330
0
100
AcDbDictionary
281
     1
  3
ACAD_GROUP
350
D
  3
ACAD_LAYOUT
350
1A
  3
ACAD_MATERIAL
350
3B
  3
ACAD_MLEADERSTYLE
350
8F
  3
ACAD_MLINESTYLE
350
17
  3
ACAD_PLOTSETTINGS
350
19
  3
ACAD_PLOTSTYLENAME
350
E
  3
ACAD_TABLESTYLE
350
8E
  3
ACAD_VISUALSTYLE
350
2A
  0
SUN
  5
3F
330
29
100
AcDbSun
 90
        1
290
     0
 63
     7
421
 16777215
 40
1.0
291
     1
 91
  2455826
 92
 54000000
292
     0
 70
     2
 71
   256
280
     1
  0
DICTIONARY
  5
D
102
{ACAD_REACTORS
330
C
102
}
330
C
100
AcDbDictionary
281
     1
  0
DICTIONARY
  5
1A
102
{ACAD_REACTORS
330
C
102
}
330
C
100
AcDbDictionary
281
     1
  3
Layout1
350
1E
  3
Layout2
350
26
  3
Model
350
22
  0
DICTIONARY
  5
3B
102
{ACAD_REACTORS
330
C
102
}
330
C
100
AcDbDictionary
281
     1
  3
ByBlock
350
3D
  3
ByLayer
350
3C
  3
Global
350
3E
  0
DICTIONARY
  5
8F
102
{ACAD_REACTORS
330
C
102
}
330
C
100
AcDbDictionary
281
     1
  0
DICTIONARY
  5
17
102
{ACAD_REACTORS
330
C
102
}
330
C
100
AcDbDictionary
281
     1
  3
Standard
350
18
  0
DICTIONARY
  5
19
102
{ACAD_REACTORS
330
C
102
}
330
C
100
AcDbDictionary
281
     1
  0
ACDBDICTIONARYWDFLT
  5
E
102
{ACAD_REACTORS
330
C
102
}
330
C
100
AcDbDictionary
281
     1
  3
Normal
350
F
100
AcDbDictionaryWithDefault
340
F
  0
DICTIONARY
  5
8E
102
{ACAD_REACTORS
330
C
102
}
330
C
100
AcDbDictionary
281
     1
  0
DICTIONARY
  5
2A
102
{ACAD_REACTORS
330
C
102
}
330
C
100
AcDbDictionary
281
     1
  3
2dWireframe
350
2F
  3
3D Hidden
350
31
  3
3dWireframe
350
30
  3
Basic
350
32
  3
Brighten
350
36
  3
ColorChange
350
3A
  3
Conceptual
350
34
  3
Dim
350
35
  3
Facepattern
350
39
  3
Flat
350
2B
  3
FlatWithEdges
350
2C
  3
Gouraud
350
2D
  3
GouraudWithEdges
350
2E
  3
Linepattern
350
38
  3
Realistic
350
33
  3
Thicken
350
37
  0
LAYOUT
  5
1E
102
{ACAD_REACTORS
330
1A
102
}
330
1A
100
AcDbPlotSettings
  1

  2
none_device
  4

  6

 40
0.0
 41
0.0
 42
0.0
 43
0.0
 44
0.0
 45
0.0
 46
0.0
 47
0.0
 48
0.0
 49
0.0
140
0.0
141
0.0
142
1.0
143
1.0
 70
   688
 72
     0
 73
     0
 74
     5
  7

 75
    16
 76
     0
 77
     2
 78
   300
147
1.0
148
0.0
149
0.0
100
AcDbLayout
  1
Layout1
 70
     1
 71
     1
 10
0.0
 20
0.0
 11
12.0
 21
9.0
 12
0.0
 22
0.0
 32
0.0
 14
1.000000000000000E+20
 24
1.000000000000000E+20
 34
1.000000000000000E+20
 15
-1.000000000000000E+20
 25
-1.000000000000000E+20
 35
-1.000000000000000E+20
146
0.0
 13
0.0
 23
0.0
 33
0.0
 16
1.0
 26
0.0
 36
0.0
 17
0.0
 27
1.0
 37
0.0
 76
     0
330
1B
  0
LAYOUT
  5
26
102
{ACAD_REACTORS
330
1A
102
}
330
1A
100
AcDbPlotSettings
  1

  2
none_device
  4

  6

 40
0.0
 41
0.0
 42
0.0
 43
0.0
 44
0.0
 45
0.0
 46
0.0
 47
0.0
 48
0.0
 49
0.0
140
0.0
141
0.0
142
1.0
143
1.0
 70
   688
 72
     0
 73
     0
 74
     5
  7

 75
    16
 76
     0
 77
     2
 78
   300
147
1.0
148
0.0
149
0.0
100
AcDbLayout
  1
Layout2
 70
     1
 71
     2
 10
0.0
 20
0.0
 11
0.0
 21
0.0
 12
0.0
 22
0.0
 32
0.0
 14
0.0
 24
0.0
 34
0.0
 15
0.0
 25
0.0
 35
0.0
146
0.0
 13
0.0
 23
0.0
 33
0.0
 16
1.0
 26
0.0
 36
0.0
 17
0.0
 27
1.0
 37
0.0
 76
     0
330
23
  0
LAYOUT
  5
22
102
{ACAD_REACTORS
330
1A
102
}
330
1A
100
AcDbPlotSettings
  1

  2
none_device
  4

  6

 40
0.0
 41
0.0
 42
0.0
 43
0.0
 44
0.0
 45
0.0
 46
0.0
 47
0.0
 48
0.0
 49
0.0
140
0.0
141
0.0
142
1.0
143
1.0
 70
  1712
 72
     0
 73
     0
 74
     0
  7

 75
     0
 76
     0
 77
     2
 78
   300
147
1.0
148
0.0
149
0.0
100
AcDbLayout
  1
Model
 70
     1
 71
     0
 10
0.0
 20
0.0
 11
12.0
 21
9.0
 12
0.0
 22
0.0
 32
0.0
 14
1.000000000000000E+20
 24
1.000000000000000E+20
 34
1.000000000000000E+20
 15
-1.000000000000000E+20
 25
-1.000000000000000E+20
 35
-1.000000000000000E+20
146
0.0
 13
0.0
 23
0.0
 33
0.0
 16
1.0
 26
0.0
 36
0.0
 17
0.0
 27
1.0
 37
0.0
 76
     0
330
1F
331
29
  0
MATERIAL
  5
3D
102
{ACAD_REACTORS
330
3B
102
}
330
3B
100
AcDbMaterial
  1
ByBlock
 72
     1
 94
      127
  0
MATERIAL
  5
3C
102
{ACAD_REACTORS
330
3B
102
}
330
3B
100
AcDbMaterial
  1
ByLayer
 72
     1
 94
      127
  0
MATERIAL
  5
3E
102
{ACAD_REACTORS
330
3B
102
}
330
3B
100
AcDbMaterial
  1
Global
 72
     1
 94
      127
  0
MLINESTYLE
  5
18
102
{ACAD_REACTORS
330
17
102
}
330
17
100
AcDbMlineStyle
  2
Standard
 70
     0
  3

 62
   256
 51
90.0
 52
90.0
 71
     2
 49
0.5
 62
   256
  6
BYLAYER
 49
-0.5
 62
   256
  6
BYLAYER
  0
ACDBPLACEHOLDER
  5
F
102
{ACAD_REACTORS
330
E
102
}
330
E
  0
VISUALSTYLE
  5
2F
102
{ACAD_REACTORS
330
2A
102
}
330
2A
100
AcDbVisualStyle
  2
2dWireframe
 70
     4
177
     2
291
     0
 71
     0
176
     1
 72
     2
176
     1
 73
     0
176
     1
 90
        0
176
     1
 40
-0.6
176
     1
 41
-30.0
176
     1
 62
     5
 63
     7
421
 16777215
176
     1
 74
     1
176
     1
 91
        4
176
     1
 64
     7
176
     1
 65
   257
176
     1
 75
     1
176
     1
175
     1
176
     1
 42
1.0
176
     1
 92
        0
176
     1
 66
   257
176
     1
 43
1.0
176
     1
 76
     1
176
     1
 77
     6
176
     1
 78
     2
176
     1
 67
     7
176
     1
 79
     5
176
     1
170
     0
176
     1
171
     0
176
     1
290
     0
176
     1
 93
        1
176
     1
 44
0.0
176
     1
173
     0
176
     1
  0
VISUALSTYLE
  5
31
102
{ACAD_REACTORS
330
2A
102
}
330
2A
100
AcDbVisualStyle
  2
3D Hidden
 70
     6
177
     2
291
     0
 71
     1
176
     1
 72
     2
176
     1
 73
     2
176
     1
 90
        0
176
     1
 40
-0.6
176
     1
 41
-30.0
176
     1
 62
     5
 63
     7
421
 16777215
176
     1
 74
     2
176
     1
 91
        2
176
     1
 64
     7
176
     1
 65
   257
176
     1
 75
     2
176
     1
175
     1
176
     1
 42
40.0
176
     1
 92
        0
176
     1
 66
   257
176
     1
 43
1.0
176
     1
 76
     1
176
     1
 77
     6
176
     1
 78
     2
176
     1
 67
     7
176
     1
 79
     3
176
     1
170
     0
176
     1
171
     0
176
     1
290
     0
176
     1
 93
        1
176
     1
 44
0.0
176
     1
173
     0
176
     1
  0
VISUALSTYLE
  5
30
102
{ACAD_REACTORS
330
2A
102
}
330
2A
100
AcDbVisualStyle
  2
3dWireframe
 70
     5
177
     2
291
     0
 71
     0
176
     1
 72
     2
176
     1
 73
     0
176
     1
 90
        0
176
     1
 40
-0.6
176
     1
 41
-30.0
176
     1
 62
     5
 63
     7
421
 16777215
176
     1
 74
     1
176
     1
 91
        4
176
     1
 64
     7
176
     1
 65
   257
176
     1
 75
     1
176
     1
175
     1
176
     1
 42
1.0
176
     1
 92
        0
176
     1
 66
   257
176
     1
 43
1.0
176
     1
 76
     1
176
     1
 77
     6
176
     1
 78
     2
176
     1
 67
     7
176
     1
 79
     5
176
     1
170
     0
176
     1
171
     0
176
     1
290
     0
176
     1
 93
        1
176
     1
 44
0.0
176
     1
173
     0
176
     1
  0
VISUALSTYLE
  5
32
102
{ACAD_REACTORS
330
2A
102
}
330
2A
100
AcDbVisualStyle
  2
Basic
 70
     7
177
     2
291
     1
 71
     1
176
     1
 72
     0
176
     1
 73
     1
176
     1
 90
        0
176
     1
 40
-0.6
176
     1
 41
-30.0
176
     1
 62
     5
 63
     7
421
 16777215
176
     1
 74
     0
176
     1
 91
        4
176
     1
 64
     7
176
     1
 65
   257
176
     1
 75
     1
176
     1
175
     1
176
     1
 42
1.0
176
     1
 92
        8
176
     1
 66
     7
176
     1
 43
1.0
176
     1
 76
     1
176
     1
 77
     6
176
     1
 78
     2
176
     1
 67
     7
176
     1
 79
     5
176
     1
170
     0
176
     1
171
     0
176
     1
290
     0
176
     1
 93
        1
176
     1
 44
0.0
176
     1
173
     0
176
     1
  0
VISUALSTYLE
  5
36
102
{ACAD_REACTORS
330
2A
102
}
330
2A
100
AcDbVisualStyle
  2
Brighten
 70
    12
177
     2
291
     1
 71
     2
176
     1
 72
     2
176
     1
 73
     0
176
     1
 90
        0
176
     1
 40
-0.6
176
     1
 41
-30.0
176
     1
 62
     5
 63
     7
421
 16777215
176
     1
 74
     1
176
     1
 91
        4
176
     1
 64
     7
176
     1
 65
   257
176
     1
 75
     1
176
     1
175
     1
176
     1
 42
1.0
176
     1
 92
        8
176
     1
 66
     7
176
     1
 43
1.0
176
     1
 76
     1
176
     1
 77
     6
176
     1
 78
     2
176
     1
 67
     7
176
     1
 79
     5
176
     1
170
     0
176
     1
171
     0
176
     1
290
     0
176
     1
 93
        1
176
     1
 44
50.0
176
     1
173
     0
176
     1
  0
VISUALSTYLE
  5
3A
102
{ACAD_REACTORS
330
2A
102
}
330
2A
100
AcDbVisualStyle
  2
ColorChange
 70
    16
177
     2
291
     1
 71
     2
176
     1
 72
     2
176
     1
 73
     3
176
     1
 90
        0
176
     1
 40
-0.6
176
     1
 41
-30.0
176
     1
 62
     5
 63
     8
421
  8421504
176
     1
 74
     1
176
     1
 91
        4
176
     1
 64
     7
176
     1
 65
   257
176
     1
 75
     1
176
     1
175
     1
176
     1
 42
1.0
176
     1
 92
        8
176
     1
 66
     8
424
  8421504
176
     1
 43
1.0
176
     1
 76
     1
176
     1
 77
     6
176
     1
 78
     2
176
     1
 67
     7
176
     1
 79
     5
176
     1
170
     0
176
     1
171
     0
176
     1
290
     0
176
     1
 93
        1
176
     1
 44
0.0
176
     1
173
     0
176
     1
  0
VISUALSTYLE
  5
34
102
{ACAD_REACTORS
330
2A
102
}
330
2A
100
AcDbVisualStyle
  2
Conceptual
 70
     9
177
     2
291
     0
 71
     3
176
     1
 72
     2
176
     1
 73
     0
176
     1
 90
        0
176
     1
 40
-0.6
176
     1
 41
-30.0
176
     1
 62
     5
 63
     7
421
 16777215
176
     1
 74
     2
176
     1
 91
        2
176
     1
 64
     7
176
     1
 65
   257
176
     1
 75
     1
176
     1
175
     1
176
     1
 42
40.0
176
     1
 92
        8
176
     1
 66
     7
176
     1
 43
1.0
176
     1
 76
     1
176
     1
 77
     6
176
     1
 78
     2
176
     1
 67
     7
176
     1
 79
     3
176
     1
170
     0
176
     1
171
     0
176
     1
290
     0
176
     1
 93
        1
176
     1
 44
0.0
176
     1
173
     0
176
     1
  0
VISUALSTYLE
  5
35
102
{ACAD_REACTORS
330
2A
102
}
330
2A
100
AcDbVisualStyle
  2
Dim
 70
    11
177
     2
291
     1
 71
     2
176
     1
 72
     2
176
     1
 73
     0
176
     1
 90
        0
176
     1
 40
-0.6
176
     1
 41
-30.0
176
     1
 62
     5
 63
     7
421
 16777215
176
     1
 74
     1
176
     1
 91
        4
176
     1
 64
     7
176
     1
 65
   257
176
     1
 75
     1
176
     1
175
     1
176
     1
 42
1.0
176
     1
 92
        8
176
     1
 66
     7
176
     1
 43
1.0
176
     1
 76
     1
176
     1
 77
     6
176
     1
 78
     2
176
     1
 67
     7
176
     1
 79
     5
176
     1
170
     0
176
     1
171
     0
176
     1
290
     0
176
     1
 93
        1
176
     1
 44
-50.0
176
     1
173
     0
176
     1
  0
VISUALSTYLE
  5
39
102
{ACAD_REACTORS
330
2A
102
}
330
2A
100
AcDbVisualStyle
  2
Facepattern
 70
    15
177
     2
291
     1
 71
     2
176
     1
 72
     2
176
     1
 73
     0
176
     1
 90
        0
176
     1
 40
-0.6
176
     1
 41
-30.0
176
     1
 62
     5
 63
     7
421
 16777215
176
     1
 74
     1
176
     1
 91
        4
176
     1
 64
     7
176
     1
 65
   257
176
     1
 75
     1
176
     1
175
     1
176
     1
 42
1.0
176
     1
 92
        8
176
     1
 66
     7
176
     1
 43
1.0
176
     1
 76
     1
176
     1
 77
     6
176
     1
 78
     2
176
     1
 67
     7
176
     1
 79
     5
176
     1
170
     0
176
     1
171
     0
176
     1
290
     0
176
     1
 93
        1
176
     1
 44
0.0
176
     1
173
     0
176
     1
  0
VISUALSTYLE
  5
2B
102
{ACAD_REACTORS
330
2A
102
}
330
2A
100
AcDbVisualStyle
  2
Flat
 70
     0
177
     2
291
     1
 71
     2
176
     1
 72
     1
176
     1
 73
     1
176
     1
 90
        2
176
     1
 40
-0.6
176
     1
 41
30.0
176
     1
 62
     5
 63
     7
421
 16777215
176
     1
 74
     0
176
     1
 91
        4
176
     1
 64
     7
176
     1
 65
   257
176
     1
 75
     1
176
     1
175
     1
176
     1
 42
1.0
176
     1
 92
        8
176
     1
 66
     7
176
     1
 43
1.0
176
     1
 76
     1
176
     1
 77
     6
176
     1
 78
     2
176
     1
 67
     7
176
     1
 79
     5
176
     1
170
     0
176
     1
171
     0
176
     1
290
     0
176
     1
 93
       13
176
     1
 44
0.0
176
     1
173
     0
176
     1
  0
VISUALSTYLE
  5
2C
102
{ACAD_REACTORS
330
2A
102
}
330
2A
100
AcDbVisualStyle
  2
FlatWithEdges
 70
     1
177
     2
291
     1
 71
     2
176
     1
 72
     1
176
     1
 73
     1
176
     1
 90
        2
176
     1
 40
-0.6
176
     1
 41
30.0
176
     1
 62
     5
 63
     7
421
 16777215
176
     1
 74
     1
176
     1
 91
        4
176
     1
 64
     7
176
     1
 65
   257
176
     1
 75
     1
176
     1
175
     1
176
     1
 42
1.0
176
     1
 92
        0
176
     1
 66
   257
176
     1
 43
1.0
176
     1
 76
     1
176
     1
 77
     6
176
     1
 78
     2
176
     1
 67
     7
176
     1
 79
     5
176
     1
170
     0
176
     1
171
     0
176
     1
290
     0
176
     1
 93
       13
176
     1
 44
0.0
176
     1
173
     0
176
     1
  0
VISUALSTYLE
  5
2D
102
{ACAD_REACTORS
330
2A
102
}
330
2A
100
AcDbVisualStyle
  2
Gouraud
 70
     2
177
     2
291
     1
 71
     2
176
     1
 72
     2
176
     1
 73
     1
176
     1
 90
        2
176
     1
 40
-0.6
176
     1
 41
30.0
176
     1
 62
     5
 63
     7
421
 16777215
176
     1
 74
     0
176
     1
 91
        4
176
     1
 64
     7
176
     1
 65
   257
176
     1
 75
     1
176
     1
175
     1
176
     1
 42
1.0
176
     1
 92
        0
176
     1
 66
     7
176
     1
 43
1.0
176
     1
 76
     1
176
     1
 77
     6
176
     1
 78
     2
176
     1
 67
     7
176
     1
 79
     5
176
     1
170
     0
176
     1
171
     0
176
     1
290
     0
176
     1
 93
       13
176
     1
 44
0.0
176
     1
173
     0
176
     1
  0
VISUALSTYLE
  5
2E
102
{ACAD_REACTORS
330
2A
102
}
330
2A
100
AcDbVisualStyle
  2
GouraudWithEdges
 70
     3
177
     2
291
     1
 71
     2
176
     1
 72
     2
176
     1
 73
     1
176
     1
 90
        2
176
     1
 40
-0.6
176
     1
 41
30.0
176
     1
 62
     5
 63
     7
421
 16777215
176
     1
 74
     1
176
     1
 91
        4
176
     1
 64
     7
176
     1
 65
   257
176
     1
 75
     1
176
     1
175
     1
176
     1
 42
1.0
176
     1
 92
        0
176
     1
 66
   257
176
     1
 43
1.0
176
     1
 76
     1
176
     1
 77
     6
176
     1
 78
     2
176
     1
 67
     7
176
     1
 79
     5
176
     1
170
     0
176
     1
171
     0
176
     1
290
     0
176
     1
 93
       13
176
     1
 44
0.0
176
     1
173
     0
176
     1
  0
VISUALSTYLE
  5
38
102
{ACAD_REACTORS
330
2A
102
}
330
2A
100
AcDbVisualStyle
  2
Linepattern
 70
    14
177
     2
291
     1
 71
     2
176
     1
 72
     2
176
     1
 73
     0
176
     1
 90
        0
176
     1
 40
-0.6
176
     1
 41
-30.0
176
     1
 62
     5
 63
     7
421
 16777215
176
     1
 74
     1
176
     1
 91
        4
176
     1
 64
     7
176
     1
 65
   257
176
     1
 75
     7
176
     1
175
     7
176
     1
 42
1.0
176
     1
 92
        8
176
     1
 66
     7
176
     1
 43
1.0
176
     1
 76
     1
176
     1
 77
     6
176
     1
 78
     2
176
     1
 67
     7
176
     1
 79
     5
176
     1
170
     0
176
     1
171
     0
176
     1
290
     0
176
     1
 93
        1
176
     1
 44
0.0
176
     1
173
     0
176
     1
  0
VISUALSTYLE
  5
33
102
{ACAD_REACTORS
330
2A
102
}
330
2A
100
AcDbVisualStyle
  2
Realistic
 70
     8
177
     2
291
     0
 71
     2
176
     1
 72
     2
176
     1
 73
     0
176
     1
 90
        0
176
     1
 40
-0.6
176
     1
 41
-30.0
176
     1
 62
     5
 63
     7
421
 16777215
176
     1
 74
     1
176
     1
 91
        0
176
     1
 64
     7
176
     1
 65
   257
176
     1
 75
     1
176
     1
175
     1
176
     1
 42
1.0
176
     1
 92
        8
176
     1
 66
     8
424
  7895160
176
     1
 43
1.0
176
     1
 76
     1
176
     1
 77
     6
176
     1
 78
     2
176
     1
 67
     7
176
     1
 79
     5
176
     1
170
     0
176
     1
171
     0
176
     1
290
     0
176
     1
 93
       13
176
     1
 44
0.0
176
     1
173
     0
176
     1
  0
VISUALSTYLE
  5
37
102
{ACAD_REACTORS
330
2A
102
}
330
2A
100
AcDbVisualStyle
  2
Thicken
 70
    13
177
     2
291
     1
 71
     2
176
     1
 72
     2
176
     1
 73
     0
176
     1
 90
        0
176
     1
 40
-0.6
176
     1
 41
-30.0
176
     1
 62
     5
 63
     7
421
 16777215
176
     1
 74
     1
176
     1
 91
        4
176
     1
 64
     7
176
     1
 65
   257
176
     1
 75
     1
176
     1
175
     1
176
     1
 42
1.0
176
     1
 92
       12
176
     1
 66
     7
176
     1
 43
1.0
176
     1
 76
     1
176
     1
 77
     6
176
     1
 78
     2
176
     1
 67
     7
176
     1
 79
     5
176
     1
170
     0
176
     1
171
     0
176
     1
290
     0
176
     1
 93
        1
176
     1
 44
0.0
176
     1
173
     0
176
     1
  0
ENDSEC
  0
EOF
