  0
SECTION
  2
HEADER
  9
$ACADVER
  1
AC1024
  9
$ACADMAINTVER
 70
     6
  9
$DWGCODEPAGE
  3
ANSI_1252
  9
$INSBASE
 10
0.0
 20
0.0
 30
0.0
  9
$EXTMIN
 10
1.000000000000000E+20
 20
1.000000000000000E+20
 30
1.000000000000000E+20
  9
$EXTMAX
 10
-1.000000000000000E+20
 20
-1.000000000000000E+20
 30
-1.000000000000000E+20
  9
$LIMMIN
 10
0.0
 20
0.0
  9
$LIMMAX
 10
12.0
 20
9.0
  9
$ORTHOMODE
 70
     0
  9
$REGENMODE
 70
     1
  9
$FILLMODE
 70
     1
  9
$QTEXTMODE
 70
     0
  9
$MIRRTEXT
 70
     1
  9
$LTSCALE
 40
1.0
  9
$ATTMODE
 70
     1
  9
$TEXTSIZE
 40
0.2
  9
$TRACEWID
 40
0.05
  9
$TEXTSTYLE
  7
Standard
  9
$CLAYER
  8
0
  9
$CELTYPE
  6
ByLayer
  9
$CECOLOR
 62
   256
  9
$CELTSCALE
 40
1.0
  9
$DISPSILH
 70
     0
  9
$DIMSCALE
 40
1.0
  9
$DIMASZ
 40
0.18
  9
$DIMEXO
 40
0.0625
  9
$DIMDLI
 40
0.38
  9
$DIMRND
 40
0.0
  9
$DIMDLE
 40
0.0
  9
$DIMEXE
 40
0.18
  9
$DIMTP
 40
0.0
  9
$DIMTM
 40
0.0
  9
$DIMTXT
 40
0.18
  9
$DIMCEN
 40
0.09
  9
$DIMTSZ
 40
0.0
  9
$DIMTOL
 70
     0
  9
$DIMLIM
 70
     0
  9
$DIMTIH
 70
     1
  9
$DIMTOH
 70
     1
  9
$DIMSE1
 70
     0
  9
$DIMSE2
 70
     0
  9
$DIMTAD
 70
     0
  9
$DIMZIN
 70
     0
  9
$DIMBLK
  1

  9
$DIMASO
 70
     1
  9
$DIMSHO
 70
     1
  9
$DIMPOST
  1

  9
$DIMAPOST
  1

  9
$DIMALT
 70
     0
  9
$DIMALTD
 70
     2
  9
$DIMALTF
 40
25.4
  9
$DIMLFAC
 40
1.0
  9
$DIMTOFL
 70
     0
  9
$DIMTVP
 40
0.0
  9
$DIMTIX
 70
     0
  9
$DIMSOXD
 70
     0
  9
$DIMSAH
 70
     0
  9
$DIMBLK1
  1

  9
$DIMBLK2
  1

  9
$DIMSTYLE
  2
Standard
  9
$DIMCLRD
 70
     0
  9
$DIMCLRE
 70
     0
  9
$DIMCLRT
 70
     0
  9
$DIMTFAC
 40
1.0
  9
$DIMGAP
 40
0.09
  9
$DIMJUST
 70
     0
  9
$DIMSD1
 70
     0
  9
$DIMSD2
 70
     0
  9
$DIMTOLJ
 70
     1
  9
$DIMTZIN
 70
     0
  9
$DIMALTZ
 70
     0
  9
$DIMALTTZ
 70
     0
  9
$DIMUPT
 70
     0
  9
$DIMDEC
 70
     4
  9
$DIMTDEC
 70
     4
  9
$DIMALTU
 70
     2
  9
$DIMALTTD
 70
     2
  9
$DIMTXSTY
  7
Standard
  9
$DIMAUNIT
 70
     0
  9
$DIMADEC
 70
     0
  9
$DIMALTRND
 40
0.0
  9
$DIMAZIN
 70
     0
  9
$DIMDSEP
 70
    46
  9
$DIMATFIT
 70
     3
  9
$DIMFRAC
 70
     0
  9
$DIMLDRBLK
  1

  9
$DIMLUNIT
 70
     2
  9
$DIMLWD
 70
    -2
  9
$DIMLWE
 70
    -2
  9
$DIMTMOVE
 70
     0
  9
$DIMFXL
 40
1.0
  9
$DIMFXLON
 70
     0
  9
$DIMJOGANG
 40
0.7853981633974483
  9
$DIMTFILL
 70
     0
  9
$DIMTFILLCLR
 70
     0
  9
$DIMARCSYM
 70
     0
  9
$DIMLTYPE
  6

  9
$DIMLTEX1
  6

  9
$DIMLTEX2
  6

  9
$DIMTXTDIRECTION
 70
     0
  9
$LUNITS
 70
     2
  9
$LUPREC
 70
     4
  9
$SKETCHINC
 40
0.1
  9
$FILLETRAD
 40
0.5
  9
$AUNITS
 70
     0
  9
$AUPREC
 70
     0
  9
$MENU
  1
.
  9
$ELEVATION
 40
0.0
  9
$PELEVATION
 40
0.0
  9
$THICKNESS
 40
0.0
  9
$LIMCHECK
 70
     0
  9
$CHAMFERA
 40
0.5
  9
$CHAMFERB
 40
0.5
  9
$CHAMFERC
 40
1.0
  9
$CHAMFERD
 40
0.0
  9
$SKPOLY
 70
     0
  9
$TDCREATE
 40
2457994.319617315
  9
$TDUCREATE
 40
2457994.611283982
  9
$TDUPDATE
 40
2457994.3196175
  9
$TDUUPDATE
 40
2457994.611284167
  9
$TDINDWG
 40
0.0000000116
  9
$TDUSRTIMER
 40
0.0000000116
  9
$USRTIMER
 70
     1
  9
$ANGBASE
 50
0.0
  9
$ANGDIR
 70
     0
  9
$PDMODE
 70
     0
  9
$PDSIZE
 40
0.0
  9
$PLINEWID
 40
0.0
  9
$SPLFRAME
 70
     0
  9
$SPLINETYPE
 70
     6
  9
$SPLINESEGS
 70
     8
  9
$HANDSEED
  5
89
  9
$SURFTAB1
 70
     6
  9
$SURFTAB2
 70
     6
  9
$SURFTYPE
 70
     6
  9
$SURFU
 70
     6
  9
$SURFV
 70
     6
  9
$UCSBASE
  2

  9
$UCSNAME
  2

  9
$UCSORG
 10
0.0
 20
0.0
 30
0.0
  9
$UCSXDIR
 10
1.0
 20
0.0
 30
0.0
  9
$UCSYDIR
 10
0.0
 20
1.0
 30
0.0
  9
$UCSORTHOREF
  2

  9
$UCSORTHOVIEW
 70
     0
  9
$UCSORGTOP
 10
0.0
 20
0.0
 30
0.0
  9
$UCSORGBOTTOM
 10
0.0
 20
0.0
 30
0.0
  9
$UCSORGLEFT
 10
0.0
 20
0.0
 30
0.0
  9
$UCSORGRIGHT
 10
0.0
 20
0.0
 30
0.0
  9
$UCSORGFRONT
 10
0.0
 20
0.0
 30
0.0
  9
$UCSORGBACK
 10
0.0
 20
0.0
 30
0.0
  9
$PUCSBASE
  2

  9
$PUCSNAME
  2

  9
$PUCSORG
 10
0.0
 20
0.0
 30
0.0
  9
$PUCSXDIR
 10
1.0
 20
0.0
 30
0.0
  9
$PUCSYDIR
 10
0.0
 20
1.0
 30
0.0
  9
$PUCSORTHOREF
  2

  9
$PUCSORTHOVIEW
 70
     0
  9
$PUCSORGTOP
 10
0.0
 20
0.0
 30
0.0
  9
$PUCSORGBOTTOM
 10
0.0
 20
0.0
 30
0.0
  9
$PUCSORGLEFT
 10
0.0
 20
0.0
 30
0.0
  9
$PUCSORGRIGHT
 10
0.0
 20
0.0
 30
0.0
  9
$PUCSORGFRONT
 10
0.0
 20
0.0
 30
0.0
  9
$PUCSORGBACK
 10
0.0
 20
0.0
 30
0.0
  9
$USERI1
 70
     0
  9
$USERI2
 70
     0
  9
$USERI3
 70
     0
  9
$USERI4
 70
     0
  9
$USERI5
 70
     0
  9
$USERR1
 40
0.0
  9
$USERR2
 40
0.0
  9
$USERR3
 40
0.0
  9
$USERR4
 40
0.0
  9
$USERR5
 40
0.0
  9
$WORLDVIEW
 70
     1
  9
$SHADEDGE
 70
     3
  9
$SHADEDIF
 70
    70
  9
$TILEMODE
 70
     1
  9
$MAXACTVP
 70
    64
  9
$PINSBASE
 10
0.0
 20
0.0
 30
0.0
  9
$PLIMCHECK
 70
     0
  9
$PEXTMIN
 10
1.000000000000000E+20
 20
1.000000000000000E+20
 30
1.000000000000000E+20
  9
$PEXTMAX
 10
-1.000000000000000E+20
 20
-1.000000000000000E+20
 30
-1.000000000000000E+20
  9
$PLIMMIN
 10
0.0
 20
0.0
  9
$PLIMMAX
 10
12.0
 20
9.0
  9
$UNITMODE
 70
     0
  9
$VISRETAIN
 70
     1
  9
$PLINEGEN
 70
     0
  9
$PSLTSCALE
 70
     1
  9
$TREEDEPTH
 70
  3020
  9
$CMLSTYLE
  2
Standard
  9
$CMLJUST
 70
     0
  9
$CMLSCALE
 40
1.0
  9
$PROXYGRAPHICS
 70
     1
  9
$MEASUREMENT
 70
     0
  9
$CELWEIGHT
370
    -1
  9
$ENDCAPS
280
     0
  9
$JOINSTYLE
280
     0
  9
$LWDISPLAY
290
     1
  9
$INSUNITS
 70
     1
  9
$HYPERLINKBASE
  1

  9
$STYLESHEET
  1

  9
$XEDIT
290
     1
  9
$CEPSNTYPE
380
     0
  9
$PSTYLEMODE
290
     1
  9
$FINGERPRINTGUID
  2
{D9936451-2422-4563-B76B-331CF9B08890}
  9
$VERSIONGUID
  2
{FAEB1C32-E019-11D5-929B-00C0DF256EC4}
  9
$EXTNAMES
290
     1
  9
$PSVPSCALE
 40
0.0
  9
$OLESTARTUP
290
     0
  9
$SORTENTS
280
   127
  9
$INDEXCTL
280
     0
  9
$HIDETEXT
280
     1
  9
$XCLIPFRAME
280
     2
  9
$HALOGAP
280
     0
  9
$OBSCOLOR
 70
   257
  9
$OBSLTYPE
280
     0
  9
$INTERSECTIONDISPLAY
280
     0
  9
$INTERSECTIONCOLOR
 70
   257
  9
$DIMASSOC
280
     2
  9
$PROJECTNAME
  1

  9
$CAMERADISPLAY
290
     0
  9
$LENSLENGTH
 40
50.0
  9
$CAMERAHEIGHT
 40
0.0
  9
$STEPSPERSEC
 40
2.0
  9
$STEPSIZE
 40
6.0
  9
$3DDWFPREC
 40
2.0
  9
$PSOLWIDTH
 40
0.25
  9
$PSOLHEIGHT
 40
4.0
  9
$LOFTANG1
 40
1.570796326794897
  9
$LOFTANG2
 40
1.570796326794897
  9
$LOFTMAG1
 40
0.0
  9
$LOFTMAG2
 40
0.0
  9
$LOFTPARAM
 70
     7
  9
$LOFTNORMALS
280
     1
  9
$LATITUDE
 40
37.795
  9
$LONGITUDE
 40
-122.394
  9
$NORTHDIRECTION
 40
0.0
  9
$TIMEZONE
 70
 -8000
  9
$LIGHTGLYPHDISPLAY
280
     1
  9
$TILEMODELIGHTSYNCH
280
     1
  9
$CMATERIAL
347
3C
  9
$SOLIDHIST
280
     1
  9
$SHOWHIST
280
     1
  9
$DWFFRAME
280
     2
  9
$DGNFRAME
280
     2
  9
$REALWORLDSCALE
290
     1
  9
$INTERFERECOLOR
 62
   256
  9
$CSHADOW
280
     0
  9
$SHADOWPLANELOCATION
 40
0.0
  0
ENDSEC
  0
SECTION
  2
CLASSES
  0
CLASS
  1
ACDBDICTIONARYWDFLT
  2
AcDbDictionaryWithDefault
  3
ObjectDBX Classes
 90
        0
 91
        4
280
     0
281
     0
  0
CLASS
  1
VISUALSTYLE
  2
AcDbVisualStyle
  3
ObjectDBX Classes
 90
     4095
 91
        4
280
     0
281
     0
  0
CLASS
  1
MATERIAL
  2
AcDbMaterial
  3
ObjectDBX Classes
 90
     1153
 91
        4
280
     0
281
     0
  0
CLASS
  1
SUN
  2
AcDbSun
  3
SCENEOE
 90
     1024
 91
        4
280
     0
281
     0
  0
ENDSEC
  0
SECTION
  2
TABLES
  0
TABLE
  2
VPORT
  5
8
330
0
100
AcDbSymbolTable
 70
     1
  0
VPORT
  5
29
330
8
100
AcDbSymbolTableRecord
100
AcDbViewportTableRecord
  2
*Active
 70
     0
 10
0.0
 20
0.0
 11
1.0
 21
1.0
 12
0.0
 22
0.0
 13
0.0
 23
0.0
 14
0.5
 24
0.5
 15
0.5
 25
0.5
 16
0.0
 26
0.0
 36
1.0
 17
4.25
 27
-5.5
 37
0.0
 40
10.0
 41
1.0
 42
50.0
 43
0.0
 44
0.0
 50
0.0
 51
0.0
 71
     0
 72
   100
 73
     1
 74
     3
 75
     0
 76
     0
 77
     0
 78
     0
281
     0
 65
     1
110
0.0
120
0.0
130
0.0
111
1.0
121
0.0
131
0.0
112
0.0
122
1.0
132
0.0
 79
     0
146
0.0
 60
     3
 61
     5
292
     1
282
     1
141
0.0
142
0.0
 63
   250
361
3F
  0
ENDTAB
  0
TABLE
  2
LTYPE
  5
5
330
0
100
AcDbSymbolTable
 70
     1
  0
LTYPE
  5
14
330
5
100
AcDbSymbolTableRecord
100
AcDbLinetypeTableRecord
  2
ByBlock
 70
     0
  3

 72
    65
 73
     0
 40
0.0
  0
LTYPE
  5
15
330
5
100
AcDbSymbolTableRecord
100
AcDbLinetypeTableRecord
  2
ByLayer
 70
     0
  3

 72
    65
 73
     0
 40
0.0
  0
LTYPE
  5
16
330
5
100
AcDbSymbolTableRecord
100
AcDbLinetypeTableRecord
  2
Continuous
 70
     0
  3
Solid line
 72
    65
 73
     0
 40
0.0
  0
ENDTAB
  0
TABLE
  2
LAYER
  5
2
330
0
100
AcDbSymbolTable
 70
     2
  0
LAYER
  5
10
330
2
100
AcDbSymbolTableRecord
100
AcDbLayerTableRecord
  2
0
 70
     0
 62
     7
  6
Continuous
370
    -3
390
F
347
3E
  0
LAYER
  5
40
330
2
100
AcDbSymbolTableRecord
100
AcDbLayerTableRecord
  2
Layer 1
 70
     0
 62
     7
  6
Continuous
370
    -3
390
F
347
3E
  0
ENDTAB
  0
TABLE
  2
STYLE
  5
3
330
0
100
AcDbSymbolTable
 70
     1
  0
STYLE
  5
11
330
3
100
AcDbSymbolTableRecord
100
AcDbTextStyleTableRecord
  2
Standard
 70
     0
 40
0.0
 41
1.0
 50
0.0
 71
     0
 42
0.2
  3
txt
  4

  0
ENDTAB
  0
TABLE
  2
VIEW
  5
6
330
0
100
AcDbSymbolTable
 70
     0
  0
ENDTAB
  0
TABLE
  2
UCS
  5
7
330
0
100
AcDbSymbolTable
 70
     0
  0
ENDTAB
  0
TABLE
  2
APPID
  5
9
330
0
100
AcDbSymbolTable
 70
     1
  0
APPID
  5
12
330
9
100
AcDbSymbolTableRecord
100
AcDbRegAppTableRecord
  2
ACAD
 70
     0
  0
ENDTAB
  0
TABLE
  2
DIMSTYLE
  5
A
330
0
100
AcDbSymbolTable
 70
     1
100
AcDbDimStyleTable
  0
DIMSTYLE
105
27
330
A
100
AcDbSymbolTableRecord
100
AcDbDimStyleTableRecord
  2
Standard
 70
     0
178
     0
340
11
  0
ENDTAB
  0
TABLE
  2
BLOCK_RECORD
  5
1
330
0
100
AcDbSymbolTable
 70
     5
  0
BLOCK_RECORD
  5
1F
330
1
100
AcDbSymbolTableRecord
100
AcDbBlockTableRecord
  2
*Model_Space
340
22
 70
     0
280
     1
281
     0
  0
BLOCK_RECORD
  5
1B
330
1
100
AcDbSymbolTableRecord
100
AcDbBlockTableRecord
  2
*Paper_Space
340
1E
 70
     0
280
     1
281
     0
  0
BLOCK_RECORD
  5
23
330
1
100
AcDbSymbolTableRecord
100
AcDbBlockTableRecord
  2
*Paper_Space0
340
26
 70
     0
280
     1
281
     0
  0
BLOCK_RECORD
  5
41
330
1
100
AcDbSymbolTableRecord
100
AcDbBlockTableRecord
  2
block 2
340
0
102
{BLKREFS
331
42
102
}
 70
     0
280
     1
281
     0
  0
BLOCK_RECORD
  5
45
330
1
100
AcDbSymbolTableRecord
100
AcDbBlockTableRecord
  2
block 3
340
0
102
{BLKREFS
331
46
102
}
 70
     0
280
     1
281
     0
  0
BLOCK_RECORD
  5
78
330
1
100
AcDbSymbolTableRecord
100
AcDbBlockTableRecord
  2
block 4
340
0
102
{BLKREFS
331
79
102
}
 70
     0
280
     1
281
     0
  0
BLOCK_RECORD
  5
7C
330
1
100
AcDbSymbolTableRecord
100
AcDbBlockTableRecord
  2
block 5
340
0
102
{BLKREFS
331
7D
102
}
 70
     0
280
     1
281
     0
  0
ENDTAB
  0
ENDSEC
  0
SECTION
  2
BLOCKS
  0
BLOCK
  5
20
330
1F
100
AcDbEntity
  8
0
100
AcDbBlockBegin
  2
*Model_Space
 70
     0
 10
0.0
 20
0.0
 30
0.0
  3
*Model_Space
  1

  0
ENDBLK
  5
21
330
1F
100
AcDbEntity
  8
0
100
AcDbBlockEnd
  0
BLOCK
  5
1C
330
1B
100
AcDbEntity
 67
     1
  8
0
100
AcDbBlockBegin
  2
*Paper_Space
 70
     0
 10
0.0
 20
0.0
 30
0.0
  3
*Paper_Space
  1

  0
ENDBLK
  5
1D
330
1B
100
AcDbEntity
 67
     1
  8
0
100
AcDbBlockEnd
  0
BLOCK
  5
24
330
23
100
AcDbEntity
  8
0
100
AcDbBlockBegin
  2
*Paper_Space0
 70
     0
 10
0.0
 20
0.0
 30
0.0
  3
*Paper_Space0
  1

  0
ENDBLK
  5
25
330
23
100
AcDbEntity
  8
0
100
AcDbBlockEnd
  0
BLOCK
  5
43
330
41
100
AcDbEntity
  8
0
100
AcDbBlockBegin
  2
block 2
 70
     0
 10
0.0
 20
0.0
 30
0.0
  3
block 2
  1

  0
INSERT
  5
46
330
41
100
AcDbEntity
  8
Layer 1
100
AcDbBlockReference
  2
block 3
 10
0.0
 20
0.0
 30
0.0
  0
INSERT
  5
79
330
41
100
AcDbEntity
  8
Layer 1
100
AcDbBlockReference
  2
block 4
 10
0.0
 20
0.0
 30
0.0
  0
POLYLINE
  5
83
330
41
100
AcDbEntity
  8
Layer 1
 62
    18
420
    65793
370
    18
100
AcDb2dPolyline
 66
     1
 10
0.0
 20
0.0
 30
0.0
  0
VERTEX
  5
84
330
83
100
AcDbEntity
  8
Layer 1
 62
    18
420
    65793
370
    18
100
AcDbVertex
100
AcDb2dVertex
 10
4.460386075839627
 20
-4.675596977019634
 30
0.0
  0
VERTEX
  5
85
330
83
100
AcDbEntity
  8
Layer 1
 62
    18
420
    65793
370
    18
100
AcDbVertex
100
AcDb2dVertex
 10
4.460386075839627
 20
-7.775109340467679
 30
0.0
  0
SEQEND
  5
86
330
83
100
AcDbEntity
  8
Layer 1
 62
    18
420
    65793
370
    18
  0
ENDBLK
  5
44
330
41
100
AcDbEntity
  8
0
100
AcDbBlockEnd
  0
BLOCK
  5
47
330
45
100
AcDbEntity
  8
0
100
AcDbBlockBegin
  2
block 3
 70
     0
 10
0.0
 20
0.0
 30
0.0
  3
block 3
  1

  0
SPLINE
  5
49
330
45
100
AcDbEntity
  8
Layer 1
370
     0
100
AcDbSpline
210
0.0
220
0.0
230
1.0
 70
    11
 71
     3
 72
   191
 73
   187
 74
     0
 42
0.0000000001
 43
0.0000000001
 12
1.0
 22
0.0
 32
0.0
 13
1.0
 23
0.0
 33
0.0
 40
0.0
 40
0.0
 40
0.0
 40
0.0
 40
1.0
 40
1.0
 40
1.0
 40
2.0
 40
2.0
 40
2.0
 40
3.0
 40
3.0
 40
3.0
 40
4.0
 40
4.0
 40
4.0
 40
5.0
 40
5.0
 40
5.0
 40
6.0
 40
6.0
 40
6.0
 40
7.0
 40
7.0
 40
7.0
 40
8.0
 40
8.0
 40
8.0
 40
9.0
 40
9.0
 40
9.0
 40
10.0
 40
10.0
 40
10.0
 40
11.0
 40
11.0
 40
11.0
 40
12.0
 40
12.0
 40
12.0
 40
13.0
 40
13.0
 40
13.0
 40
14.0
 40
14.0
 40
14.0
 40
15.0
 40
15.0
 40
15.0
 40
16.0
 40
16.0
 40
16.0
 40
17.0
 40
17.0
 40
17.0
 40
18.0
 40
18.0
 40
18.0
 40
19.0
 40
19.0
 40
19.0
 40
20.0
 40
20.0
 40
20.0
 40
21.0
 40
21.0
 40
21.0
 40
22.0
 40
22.0
 40
22.0
 40
23.0
 40
23.0
 40
23.0
 40
24.0
 40
24.0
 40
24.0
 40
25.0
 40
25.0
 40
25.0
 40
26.0
 40
26.0
 40
26.0
 40
27.0
 40
27.0
 40
27.0
 40
28.0
 40
28.0
 40
28.0
 40
29.0
 40
29.0
 40
29.0
 40
30.0
 40
30.0
 40
30.0
 40
31.0
 40
31.0
 40
31.0
 40
32.0
 40
32.0
 40
32.0
 40
33.0
 40
33.0
 40
33.0
 40
34.0
 40
34.0
 40
34.0
 40
35.0
 40
35.0
 40
35.0
 40
36.0
 40
36.0
 40
36.0
 40
37.0
 40
37.0
 40
37.0
 40
38.0
 40
38.0
 40
38.0
 40
39.0
 40
39.0
 40
39.0
 40
40.0
 40
40.0
 40
40.0
 40
41.0
 40
41.0
 40
41.0
 40
42.0
 40
42.0
 40
42.0
 40
43.0
 40
43.0
 40
43.0
 40
44.0
 40
44.0
 40
44.0
 40
45.0
 40
45.0
 40
45.0
 40
46.0
 40
46.0
 40
46.0
 40
47.0
 40
47.0
 40
47.0
 40
48.0
 40
48.0
 40
48.0
 40
49.0
 40
49.0
 40
49.0
 40
50.0
 40
50.0
 40
50.0
 40
51.0
 40
51.0
 40
51.0
 40
52.0
 40
52.0
 40
52.0
 40
53.0
 40
53.0
 40
53.0
 40
54.0
 40
54.0
 40
54.0
 40
55.0
 40
55.0
 40
55.0
 40
56.0
 40
56.0
 40
56.0
 40
57.0
 40
57.0
 40
57.0
 40
58.0
 40
58.0
 40
58.0
 40
59.0
 40
59.0
 40
59.0
 40
60.0
 40
60.0
 40
60.0
 40
61.0
 40
61.0
 40
61.0
 40
62.0
 40
62.0
 40
62.0
 40
62.0
 10
2.241289964840474
 20
-4.482671555488663
 30
0.0
 10
2.269242484337054
 20
-4.485803347304808
 30
0.0
 10
2.833562625218317
 20
-4.503192374491896
 30
0.0
 10
2.858441754610895
 20
-4.503192374491896
 30
0.0
 10
3.026120370520314
 20
-4.503192374491896
 30
0.0
 10
3.172832771753721
 20
-4.439600889289598
 30
0.0
 10
3.298520556599012
 20
-4.31227055628901
 30
0.0
 10
3.424281343584526
 20
-4.184984024572486
 30
0.0
 10
3.487158086970263
 20
-4.035950155279541
 30
0.0
 10
3.487158086970263
 20
-3.86516894841015
 30
0.0
 10
3.487158086970263
 20
-3.737882416693714
 30
0.0
 10
3.418864584778968
 20
-3.595045727007459
 30
0.0
 10
3.282270280182337
 20
-3.436675586077627
 30
0.0
 10
3.170482102838087
 20
-3.309418255217325
 30
0.0
 10
2.945460783768858
 20
-3.061499758385379
 30
0.0
 10
2.951621686408897
 20
-3.054801390500226
 30
0.0
 10
2.95778258904895
 20
-3.04810302261511
 30
0.0
 10
3.114591664272969
 20
-3.211609987728391
 30
0.0
 10
3.366106509651217
 20
-3.478593415001506
 30
0.0
 10
3.366106509651217
 20
-3.478593415001506
 30
0.0
 10
3.39383021173867
 20
-3.507637507136324
 30
0.0
 10
3.39383021173867
 20
-3.507637507136324
 30
0.0
 10
3.516334489608577
 20
-3.628891741354475
 30
0.0
 10
3.639294547223244
 20
-3.664908776978728
 30
0.0
 10
3.803907073242688
 20
-3.664908776978728
 30
0.0
 10
3.974579363894248
 20
-3.664908776978728
 30
0.0
 10
4.11894050921953
 20
-3.605952948858228
 30
0.0
 10
4.236999570410123
 20
-3.487930388737797
 30
0.0
 10
4.354985629460442
 20
-3.369944329687415
 30
0.0
 10
4.436338651482957
 20
-3.265903597500672
 30
0.0
 10
4.442616835543276
 20
-3.095123102064122
 30
0.0
 10
4.442616835543276
 20
-3.095123102064122
 30
0.0
 10
4.446596015243282
 20
-3.054801390500226
 30
0.0
 10
4.446596015243282
 20
-3.054801390500226
 30
0.0
 10
4.446596015243282
 20
-2.964760550732434
 30
0.0
 10
4.460492191066451
 20
-2.649285062373464
 30
0.0
 10
4.465204260789581
 20
-2.649617611545283
 30
0.0
 10
4.469916330512736
 20
-2.649950160717013
 30
0.0
 10
4.480673414305707
 20
-2.919740130848557
 30
0.0
 10
4.48381250633588
 20
-3.199170423032026
 30
0.0
 10
4.486871296011814
 20
-3.227114930920468
 30
0.0
 10
4.505552543698362
 20
-3.27217256326863
 30
0.0
 10
4.53970294490101
 20
-3.334231682683733
 30
0.0
 10
4.673158157467469
 20
-3.554734647268232
 30
0.0
 10
4.871921694350754
 20
-3.664908776978728
 30
0.0
 10
5.13583842207274
 20
-3.664908776978728
 30
0.0
 10
5.275571818699543
 20
-3.664908776978728
 30
0.0
 10
5.3810818119835
 20
-3.635431213085742
 30
0.0
 10
5.452514406204904
 20
-3.576401682490465
 30
0.0
 10
5.483525715377431
 20
-3.542295082571955
 30
0.0
 10
5.530152182346556
 20
-3.494172071728005
 30
0.0
 10
5.592240502617718
 20
-3.432039950172705
 30
0.0
 10
5.682281342385472
 20
-3.335830429554865
 30
0.0
 10
5.991434166728216
 20
-3.006254864557074
 30
0.0
 10
6.002096418547808
 20
-3.012883561576384
 30
0.0
 10
6.012758670367399
 20
-3.019512258595733
 30
0.0
 10
5.863413286655789
 20
-3.181658830804079
 30
0.0
 10
5.627513536759048
 20
-3.448649558291221
 30
0.0
 10
5.627513536759048
 20
-3.448649558291221
 30
0.0
 10
5.600029879196982
 20
-3.487624636411081
 30
0.0
 10
5.600029879196982
 20
-3.487624636411081
 30
0.0
 10
5.512350001806731
 20
-3.60024792719691
 30
0.0
 10
5.471188353677462
 20
-3.716135079117243
 30
0.0
 10
5.471188353677462
 20
-3.86516894841015
 30
0.0
 10
5.471188353677462
 20
-3.983191508530631
 30
0.0
 10
5.506127177994712
 20
-4.097293853720392
 30
0.0
 10
5.575990226201055
 20
-4.207475983979394
 30
0.0
 10
5.645853274407424
 20
-4.317723816164693
 30
0.0
 10
5.733543445259556
 20
-4.396077013280546
 30
0.0
 10
5.839127074778743
 20
-4.442666979179572
 30
0.0
 10
5.910486032764993
 20
-4.473743990278257
 30
0.0
 10
5.925927461123617
 20
-4.485053643879698
 30
0.0
 10
5.97885317472128
 20
-4.484584808103364
 30
0.0
 10
5.97885317472128
 20
-4.484584808103364
 30
0.0
 10
6.565651040532051
 20
-4.442666979179572
 30
0.0
 10
6.565651040532051
 20
-4.442666979179572
 30
0.0
 10
6.565651040532051
 20
-4.442666979179572
 30
0.0
 10
6.620577135073265
 20
-4.438431310436006
 30
0.0
 10
6.620577135073265
 20
-4.449050459559152
 30
0.0
 10
6.620577135073265
 20
-4.459669608682298
 30
0.0
 10
6.422559621310206
 20
-4.473405554834799
 30
0.0
 10
6.238588279213647
 20
-4.510637872683762
 30
0.0
 10
6.238588279213647
 20
-4.510637872683762
 30
0.0
 10
6.179299354124496
 20
-4.521754546137989
 30
0.0
 10
6.179299354124496
 20
-4.521754546137989
 30
0.0
 10
6.054236777764597
 20
-4.545840671955426
 30
0.0
 10
5.923677519505721
 20
-4.62124481462624
 30
0.0
 10
5.832140135863104
 20
-4.736062580790328
 30
0.0
 10
5.740529750080238
 20
-4.850982549950686
 30
0.0
 10
5.694757408151948
 20
-4.984510764657393
 30
0.0
 10
5.694757408151948
 20
-5.136610723840236
 30
0.0
 10
5.694757408151948
 20
-5.319831495405992
 30
0.0
 10
5.742807416855612
 20
-5.451753663027514
 30
0.0
 10
5.839127074778743
 20
-5.532457529059002
 30
0.0
 10
5.891877787218694
 20
-5.579047494957901
 30
0.0
 10
5.988839229880846
 20
-5.645844453274372
 30
0.0
 10
6.130207874448969
 20
-5.732709699941879
 30
0.0
 10
6.271437814950635
 20
-5.819684449819684
 30
0.0
 10
6.43537018675248
 20
-5.928923255607767
 30
0.0
 10
6.430553279810207
 20
-5.937641308013958
 30
0.0
 10
6.425736372867934
 20
-5.946359360420147
 30
0.0
 10
6.27153640537161
 20
-5.871849883363565
 30
0.0
 10
6.013817587553427
 20
-5.71657433108031
 30
0.0
 10
6.013817587553427
 20
-5.71657433108031
 30
0.0
 10
5.972519817303388
 20
-5.689042484246935
 30
0.0
 10
5.972519817303388
 20
-5.689042484246935
 30
0.0
 10
5.860731639959163
 20
-5.630079304498268
 30
0.0
 10
5.758349572512012
 20
-5.61162835014559
 30
0.0
 10
5.662110851038151
 20
-5.61162835014559
 30
0.0
 10
5.485168263532791
 20
-5.61162835014559
 30
0.0
 10
5.338448562085331
 20
-5.676111140616436
 30
0.0
 10
5.222032049050035
 20
-5.804930717277935
 30
0.0
 10
5.105608235800774
 20
-5.933786795009458
 30
0.0
 10
5.047367128320072
 20
-6.088273924178111
 30
0.0
 10
5.047367128320072
 20
-6.268326402857509
 30
0.0
 10
5.047367128320072
 20
-6.302433002776044
 30
0.0
 10
5.072173255572452
 20
-6.394079889629033
 30
0.0
 10
5.121865812431502
 20
-6.543077257851892
 30
0.0
 10
5.171485367150277
 20
-6.692111127144799
 30
0.0
 10
5.202161144607291
 20
-6.783965389722399
 30
0.0
 10
5.195859006360757
 20
-6.78758155296815
 30
0.0
 10
5.189556868114222
 20
-6.791197716213926
 30
0.0
 10
5.096987298385733
 20
-6.558582912438068
 30
0.0
 10
5.047367128320072
 20
-6.44063335445786
 30
0.0
 10
4.98833759772477
 20
-6.310244231781351
 30
0.0
 10
4.923175887349619
 20
-6.215494753968313
 30
0.0
 10
4.851743293128164
 20
-6.156538225513284
 30
0.0
 10
4.755497271440238
 20
-6.07897345151193
 30
0.0
 10
4.629743784668764
 20
-6.040121712477988
 30
0.0
 10
4.474541234525835
 20
-6.040121712477988
 30
0.0
 10
4.223026960768834
 20
-6.040121712477988
 30
0.0
 10
4.044442413865542
 20
-6.141032570927033
 30
0.0
 10
3.938931831824258
 20
-6.342825086968938
 30
0.0
 10
3.901642338591399
 20
-6.457672053989098
 30
0.0
 10
3.769890175792536
 20
-6.840360276475899
 30
0.0
 10
3.761989244318834
 20
-6.836516660746737
 30
0.0
 10
3.754088312845131
 20
-6.832673045017676
 30
0.0
 10
3.800767981212516
 20
-6.684343699423657
 30
0.0
 10
3.850460538071527
 20
-6.529141149280652
 30
0.0
 10
3.893874910870219
 20
-6.389407752653924
 30
0.0
 10
3.918220476659409
 20
-6.317321987591791
 30
0.0
 10
3.918220476659409
 20
-6.264563974782933
 30
0.0
 10
3.918220476659409
 20
-6.093862430682596
 30
0.0
 10
3.854307750861999
 20
-5.921347230313156
 30
0.0
 10
3.73168605590667
 20
-5.795593743541657
 30
0.0
 10
3.608998659025108
 20
-5.669869457626267
 30
0.0
 10
3.462278957577622
 20
-5.60699271424053
 30
0.0
 10
3.291534251778355
 20
-5.60699271424053
 30
0.0
 10
3.189090348384373
 20
-5.60699271424053
 30
0.0
 10
3.103531435397334
 20
-5.617416099669526
 30
0.0
 10
2.998021442113441
 20
-5.676335478016022
 30
0.0
 10
2.998021442113441
 20
-5.676335478016022
 30
0.0
 10
2.974858267646166
 20
-5.690828372088137
 30
0.0
 10
2.974858267646166
 20
-5.690828372088137
 30
0.0
 10
2.825860899423358
 20
-5.793272275482145
 30
0.0
 10
2.298309568998497
 20
-6.130810730438371
 30
0.0
 10
2.290251496721743
 20
-6.128593006230757
 30
0.0
 10
2.282193424445027
 20
-6.126375282023016
 30
0.0
 10
2.313531879243164
 20
-6.105312623709273
 30
0.0
 10
2.313531879243164
 20
-6.105312623709273
 30
0.0
 10
2.391261894592642
 20
-6.042720824336988
 30
0.0
 10
2.494739007047909
 20
-5.974072407415179
 30
0.0
 10
2.62210584111862
 20
-5.890236749567546
 30
0.0
 10
2.727652335472612
 20
-5.821972448232322
 30
0.0
 10
2.824225651482064
 20
-5.740520928947186
 30
0.0
 10
2.932940438722362
 20
-5.67218362547174
 30
0.0
 10
2.976427813661252
 20
-5.644238406189187
 30
0.0
 10
3.036953888131405
 20
-5.602320577265345
 30
0.0
 10
3.114591664272969
 20
-5.546430138700265
 30
0.0
 10
3.213897043412809
 20
-5.456425800002572
 30
0.0
 10
3.26358903249579
 20
-5.319831495405992
 30
0.0
 10
3.26358903249579
 20
-5.136610723840236
 30
0.0
 10
3.26358903249579
 20
-5.006185100093616
 30
0.0
 10
3.229438631293103
 20
-4.886702497168421
 30
0.0
 10
3.161145129101833
 20
-4.777980409714132
 30
0.0
 10
3.092844326696523
 20
-4.669331324400054
 30
0.0
 10
2.998175713564188
 20
-4.596365685233587
 30
0.0
 10
2.877050000157257
 20
-4.559083492214793
 30
0.0
 10
2.877050000157257
 20
-4.559083492214793
 30
0.0
 10
2.70944438638815
 20
-4.545110882573542
 30
0.0
 10
2.70944438638815
 20
-4.545110882573542
 30
0.0
 10
2.526150612682159
 20
-4.532737019803423
 30
0.0
 10
1.880986267779778
 20
-4.476476160299322
 30
0.0
 10
1.880395580791641
 20
-4.465940061486966
 30
0.0
 10
1.879804893803478
 20
-4.455403962674609
 30
0.0
 10
2.241289964840474
 20
-4.482671555488663
 30
0.0
 10
2.241289964840474
 20
-4.482671555488663
 30
0.0
  0
SPLINE
  5
4A
330
45
100
AcDbEntity
  8
Layer 1
370
     0
100
AcDbSpline
210
0.0
220
0.0
230
1.0
 70
    11
 71
     3
 72
    26
 73
    22
 74
     0
 42
0.0000000001
 43
0.0000000001
 12
1.0
 22
0.0
 32
0.0
 13
1.0
 23
0.0
 33
0.0
 40
0.0
 40
0.0
 40
0.0
 40
0.0
 40
1.0
 40
1.0
 40
1.0
 40
2.0
 40
2.0
 40
2.0
 40
3.0
 40
3.0
 40
3.0
 40
4.0
 40
4.0
 40
4.0
 40
5.0
 40
5.0
 40
5.0
 40
6.0
 40
6.0
 40
6.0
 40
7.0
 40
7.0
 40
7.0
 40
7.0
 10
3.598946264314501
 20
-4.978239880811038
 30
0.0
 10
3.598946264314501
 20
-4.900675106809709
 30
0.0
 10
3.575629380722969
 20
-4.822219706697511
 30
0.0
 10
3.52907591589413
 20
-4.743048885610935
 30
0.0
 10
3.482522451065266
 20
-4.663878064524371
 30
0.0
 10
3.425062466485024
 20
-4.614973930779885
 30
0.0
 10
3.356768964293754
 20
-4.596365685233587
 30
0.0
 10
3.269794214415911
 20
-4.577727561556432
 30
0.0
 10
3.145602973445496
 20
-4.568420465951046
 30
0.0
 10
2.984202541596447
 20
-4.568420465951046
 30
0.0
 10
3.192156438274297
 20
-4.680172142225198
 30
0.0
 10
3.296243459679923
 20
-4.868057080611593
 30
0.0
 10
3.296243459679923
 20
-5.131938586865127
 30
0.0
 10
3.296243459679923
 20
-5.259305420935814
 30
0.0
 10
3.262019486480717
 20
-5.378788023861008
 30
0.0
 10
3.193798986429682
 20
-5.490539700135135
 30
0.0
 10
3.361404600198789
 20
-5.378788023861008
 30
0.0
 10
3.454577231782663
 20
-5.312056108746623
 30
0.0
 10
3.473185477329012
 20
-5.290280229038229
 30
0.0
 10
3.55702113517667
 20
-5.209576363006691
 30
0.0
 10
3.598946264314501
 20
-5.105599414667722
 30
0.0
 10
3.598946264314501
 20
-4.978239880811038
 30
0.0
  0
SPLINE
  5
4B
330
45
100
AcDbEntity
  8
Layer 1
370
     0
100
AcDbSpline
210
0.0
220
0.0
230
1.0
 70
    11
 71
     3
 72
    32
 73
    28
 74
     0
 42
0.0000000001
 43
0.0000000001
 12
1.0
 22
0.0
 32
0.0
 13
1.0
 23
0.0
 33
0.0
 40
0.0
 40
0.0
 40
0.0
 40
0.0
 40
1.0
 40
1.0
 40
1.0
 40
2.0
 40
2.0
 40
2.0
 40
3.0
 40
3.0
 40
3.0
 40
4.0
 40
4.0
 40
4.0
 40
5.0
 40
5.0
 40
5.0
 40
6.0
 40
6.0
 40
6.0
 40
7.0
 40
7.0
 40
7.0
 40
8.0
 40
8.0
 40
8.0
 40
9.0
 40
9.0
 40
9.0
 40
9.0
 10
3.320077636286593
 20
-4.547673825378726
 30
0.0
 10
3.43806369533695
 20
-4.547673825378726
 30
0.0
 10
3.538420189844348
 20
-4.493169859795229
 30
0.0
 10
3.622255847692031
 20
-4.407728154862373
 30
0.0
 10
3.706091505539739
 20
-4.322359452069703
 30
0.0
 10
3.748016634677583
 20
-4.219097924705086
 30
0.0
 10
3.748016634677583
 20
-4.09800927469472
 30
0.0
 10
3.748016634677583
 20
-4.014202817703108
 30
0.0
 10
3.721560659055828
 20
-3.936601542631643
 30
0.0
 10
3.66880931252087
 20
-3.86516894841015
 30
0.0
 10
3.612918873955765
 20
-3.803073327924987
 30
0.0
 10
3.555458889375586
 20
-3.742547253454821
 30
0.0
 10
3.496495060706517
 20
-3.683517722859543
 30
0.0
 10
3.515103881637994
 20
-3.745686345484993
 30
0.0
 10
3.524448155824378
 20
-3.806212419955121
 30
0.0
 10
3.524448155824378
 20
-3.86516894841015
 30
0.0
 10
3.524448155824378
 20
-4.017305408663181
 30
0.0
 10
3.473900898303289
 20
-4.157856429260656
 30
0.0
 10
3.373092242850627
 20
-4.28663950485193
 30
0.0
 10
3.272144883331546
 20
-4.415502882797556
 30
0.0
 10
3.147173085551092
 20
-4.495491327854729
 30
0.0
 10
2.998175713564188
 20
-4.526502637027243
 30
0.0
 10
2.998175713564188
 20
-4.526502637027243
 30
0.0
 10
3.249689424994737
 20
-4.545110882573542
 30
0.0
 10
3.249689424994737
 20
-4.545110882573542
 30
0.0
 10
3.249689424994737
 20
-4.545110882573542
 30
0.0
 10
3.320077636286593
 20
-4.547673825378726
 30
0.0
 10
3.320077636286593
 20
-4.547673825378726
 30
0.0
  0
SPLINE
  5
4C
330
45
100
AcDbEntity
  8
Layer 1
370
     0
100
AcDbSpline
210
0.0
220
0.0
230
1.0
 70
    11
 71
     3
 72
    32
 73
    28
 74
     0
 42
0.0000000001
 43
0.0000000001
 12
1.0
 22
0.0
 32
0.0
 13
1.0
 23
0.0
 33
0.0
 40
0.0
 40
0.0
 40
0.0
 40
0.0
 40
1.0
 40
1.0
 40
1.0
 40
2.0
 40
2.0
 40
2.0
 40
3.0
 40
3.0
 40
3.0
 40
4.0
 40
4.0
 40
4.0
 40
5.0
 40
5.0
 40
5.0
 40
6.0
 40
6.0
 40
6.0
 40
7.0
 40
7.0
 40
7.0
 40
8.0
 40
8.0
 40
8.0
 40
9.0
 40
9.0
 40
9.0
 40
9.0
 10
3.626891483597066
 20
-5.327525920986924
 30
0.0
 10
3.54925370745549
 20
-5.327525920986924
 30
0.0
 10
3.456073775657551
 20
-5.361749324329821
 30
0.0
 10
3.347424690343498
 20
-5.430013625664994
 30
0.0
 10
3.26358903249579
 20
-5.489043156260309
 30
0.0
 10
3.179826376788368
 20
-5.549569230730413
 30
0.0
 10
3.09598341872667
 20
-5.61162835014559
 30
0.0
 10
3.164211218991782
 20
-5.589954014709317
 30
0.0
 10
3.227876385492095
 20
-5.579047494957901
 30
0.0
 10
3.286899185493553
 20
-5.579047494957901
 30
0.0
 10
3.442101739557264
 20
-5.579047494957901
 30
0.0
 10
3.592213099720563
 20
-5.625349348713674
 30
0.0
 10
3.714908376966782
 20
-5.732458088868699
 30
0.0
 10
3.837529491771495
 20
-5.839610630307915
 30
0.0
 10
3.906997194086544
 20
-5.948861310378661
 30
0.0
 10
3.928809648518394
 20
-6.100961269561518
 30
0.0
 10
3.938080920328439
 20
-6.156851708126649
 30
0.0
 10
3.940701977297648
 20
-6.195183721765892
 30
0.0
 10
3.934504095591592
 20
-6.220063486824629
 30
0.0
 10
4.027676727175528
 20
-5.931332721974993
 30
0.0
 10
4.059153889612023
 20
-5.830701163588779
 30
0.0
 10
4.06031841835977
 20
-5.808992338256277
 30
0.0
 10
4.066468882685285
 20
-5.694337070176364
 30
0.0
 10
4.024264033546741
 20
-5.548780807615862
 30
0.0
 10
3.94356746772923
 20
-5.460273012793045
 30
0.0
 10
3.862790599557532
 20
-5.371801719040364
 30
0.0
 10
3.757280606273626
 20
-5.327525920986924
 30
0.0
 10
3.626891483597066
 20
-5.327525920986924
 30
0.0
  0
SPLINE
  5
4D
330
45
100
AcDbEntity
  8
Layer 1
370
     0
100
AcDbSpline
210
0.0
220
0.0
230
1.0
 70
    11
 71
     3
 72
    29
 73
    25
 74
     0
 42
0.0000000001
 43
0.0000000001
 12
1.0
 22
0.0
 32
0.0
 13
1.0
 23
0.0
 33
0.0
 40
0.0
 40
0.0
 40
0.0
 40
0.0
 40
1.0
 40
1.0
 40
1.0
 40
2.0
 40
2.0
 40
2.0
 40
3.0
 40
3.0
 40
3.0
 40
4.0
 40
4.0
 40
4.0
 40
5.0
 40
5.0
 40
5.0
 40
6.0
 40
6.0
 40
6.0
 40
7.0
 40
7.0
 40
7.0
 40
8.0
 40
8.0
 40
8.0
 40
8.0
 10
3.901642338591399
 20
-4.237735371107444
 30
0.0
 10
3.901642338591399
 20
-4.157038805289984
 30
0.0
 10
3.859724509667545
 20
-4.07166280228335
 30
0.0
 10
3.775961853960123
 20
-3.981585461445421
 30
0.0
 10
3.785225825556141
 20
-4.021977545638328
 30
0.0
 10
3.789934463601374
 20
-4.060756282531985
 30
0.0
 10
3.789934463601374
 20
-4.09800927469472
 30
0.0
 10
3.789934463601374
 20
-4.206724061935006
 30
0.0
 10
3.757280606273626
 20
-4.30293358255277
 30
0.0
 10
3.692118895898438
 20
-4.386769240400402
 30
0.0
 10
3.626891483597066
 20
-4.470612198462113
 30
0.0
 10
3.541486279734322
 20
-4.528108684112453
 30
0.0
 10
3.435969559622574
 20
-4.559083492214793
 30
0.0
 10
3.435969559622574
 20
-4.559083492214793
 30
0.0
 10
3.533784553939363
 20
-4.568420465951046
 30
0.0
 10
3.533784553939363
 20
-4.568420465951046
 30
0.0
 10
3.533784553939363
 20
-4.568420465951046
 30
0.0
 10
3.557585930115983
 20
-4.56892456745825
 30
0.0
 10
3.557585930115983
 20
-4.56892456745825
 30
0.0
 10
3.650692859773686
 20
-4.584502546832456
 30
0.0
 10
3.715362777349772
 20
-4.549067598574348
 30
0.0
 10
3.789934463601374
 20
-4.482263340043901
 30
0.0
 10
3.864433147712791
 20
-4.415502882797556
 30
0.0
 10
3.901642338591399
 20
-4.334017893865481
 30
0.0
 10
3.901642338591399
 20
-4.237735371107444
 30
0.0
  0
SPLINE
  5
4E
330
45
100
AcDbEntity
  8
Layer 1
370
     0
100
AcDbSpline
210
0.0
220
0.0
230
1.0
 70
    11
 71
     3
 72
    23
 73
    19
 74
     0
 42
0.0000000001
 43
0.0000000001
 12
1.0
 22
0.0
 32
0.0
 13
1.0
 23
0.0
 33
0.0
 40
0.0
 40
0.0
 40
0.0
 40
0.0
 40
1.0
 40
1.0
 40
1.0
 40
2.0
 40
2.0
 40
2.0
 40
3.0
 40
3.0
 40
3.0
 40
4.0
 40
4.0
 40
4.0
 40
5.0
 40
5.0
 40
5.0
 40
6.0
 40
6.0
 40
6.0
 40
6.0
 10
3.789934463601374
 20
-4.908369532390616
 30
0.0
 10
3.789934463601374
 20
-4.703481725602665
 30
0.0
 10
3.673445527811193
 20
-4.602607368223807
 30
0.0
 10
3.440604622141412
 20
-4.605673458113819
 30
0.0
 10
3.567861953001789
 20
-4.686443026071515
 30
0.0
 10
3.631527119502051
 20
-4.809064721026857
 30
0.0
 10
3.631527119502051
 20
-4.973604244906065
 30
0.0
 10
3.631527119502051
 20
-5.069886767664027
 30
0.0
 10
3.603574600005534
 20
-5.163022898177852
 30
0.0
 10
3.547684161440416
 20
-5.253027236875507
 30
0.0
 10
3.547684161440416
 20
-5.253027236875507
 30
0.0
 10
3.64086409323833
 20
-5.19247196154927
 30
0.0
 10
3.64086409323833
 20
-5.19247196154927
 30
0.0
 10
3.64086409323833
 20
-5.19247196154927
 30
0.0
 10
3.652589247648128
 20
-5.183946044111179
 30
0.0
 10
3.652589247648128
 20
-5.183946044111179
 30
0.0
 10
3.755033151042122
 20
-5.11874783266593
 30
0.0
 10
3.789934463601374
 20
-5.026428593581183
 30
0.0
 10
3.789934463601374
 20
-4.908369532390616
 30
0.0
  0
SPLINE
  5
4F
330
45
100
AcDbEntity
  8
Layer 1
370
     0
100
AcDbSpline
210
0.0
220
0.0
230
1.0
 70
    11
 71
     3
 72
    32
 73
    28
 74
     0
 42
0.0000000001
 43
0.0000000001
 12
1.0
 22
0.0
 32
0.0
 13
1.0
 23
0.0
 33
0.0
 40
0.0
 40
0.0
 40
0.0
 40
0.0
 40
1.0
 40
1.0
 40
1.0
 40
2.0
 40
2.0
 40
2.0
 40
3.0
 40
3.0
 40
3.0
 40
4.0
 40
4.0
 40
4.0
 40
5.0
 40
5.0
 40
5.0
 40
6.0
 40
6.0
 40
6.0
 40
7.0
 40
7.0
 40
7.0
 40
8.0
 40
8.0
 40
8.0
 40
9.0
 40
9.0
 40
9.0
 40
9.0
 10
4.446596015243282
 20
-3.222442793827263
 30
0.0
 10
4.412373209952597
 20
-3.362176901966235
 30
0.0
 10
4.333172589957712
 20
-3.477877288967837
 30
0.0
 10
4.209054351127571
 20
-3.569415377669821
 30
0.0
 10
4.084863110157155
 20
-3.661025763452648
 30
0.0
 10
3.949765349435286
 20
-3.706798105381027
 30
0.0
 10
3.803907073242688
 20
-3.706798105381027
 30
0.0
 10
3.710727141444724
 20
-3.706798105381027
 30
0.0
 10
3.615984963845739
 20
-3.685123769944791
 30
0.0
 10
3.519811944298062
 20
-3.641599893935752
 30
0.0
 10
3.519811944298062
 20
-3.641599893935752
 30
0.0
 10
3.664174255766827
 20
-3.795305900203807
 30
0.0
 10
3.664174255766827
 20
-3.795305900203807
 30
0.0
 10
3.664174255766827
 20
-3.795305900203807
 30
0.0
 10
3.682590295289174
 20
-3.811398114507609
 30
0.0
 10
3.682590295289174
 20
-3.811398114507609
 30
0.0
 10
3.760093001696633
 20
-3.897651126477235
 30
0.0
 10
3.842685810136332
 20
-3.925695022880328
 30
0.0
 10
3.966877051106798
 20
-3.925695022880328
 30
0.0
 10
4.084863110157155
 20
-3.925695022880328
 30
0.0
 10
4.193512787994349
 20
-3.882244149011563
 30
0.0
 10
4.292890008975241
 20
-3.795305900203807
 30
0.0
 10
4.392202120553065
 20
-3.708396852252197
 30
0.0
 10
4.44345692321311
 20
-3.607485993803152
 30
0.0
 10
4.446596015243282
 20
-3.492566024642795
 30
0.0
 10
4.446596015243282
 20
-3.492566024642795
 30
0.0
 10
4.446596015243282
 20
-3.222442793827263
 30
0.0
 10
4.446596015243282
 20
-3.222442793827263
 30
0.0
  0
SPLINE
  5
50
330
45
100
AcDbEntity
  8
Layer 1
370
     0
100
AcDbSpline
210
0.0
220
0.0
230
1.0
 70
    11
 71
     3
 72
    32
 73
    28
 74
     0
 42
0.0000000001
 43
0.0000000001
 12
1.0
 22
0.0
 32
0.0
 13
1.0
 23
0.0
 33
0.0
 40
0.0
 40
0.0
 40
0.0
 40
0.0
 40
1.0
 40
1.0
 40
1.0
 40
2.0
 40
2.0
 40
2.0
 40
3.0
 40
3.0
 40
3.0
 40
4.0
 40
4.0
 40
4.0
 40
5.0
 40
5.0
 40
5.0
 40
6.0
 40
6.0
 40
6.0
 40
7.0
 40
7.0
 40
7.0
 40
8.0
 40
8.0
 40
8.0
 40
9.0
 40
9.0
 40
9.0
 40
9.0
 10
4.126355791655316
 20
-5.575209707103769
 30
0.0
 10
4.130984127346273
 20
-5.551929324582412
 30
0.0
 10
4.134555667016167
 20
-5.499876673871427
 30
0.0
 10
4.134555667016167
 20
-5.490539700135135
 30
0.0
 10
4.134555667016167
 20
-5.400528061223453
 30
0.0
 10
4.102690232802855
 20
-5.322897585295878
 30
0.0
 10
4.039098068442804
 20
-5.257699373850642
 30
0.0
 10
3.975359899802255
 20
-5.19247196154927
 30
0.0
 10
3.900080092790315
 20
-5.159891106361707
 30
0.0
 10
3.813171627753743
 20
-5.159891106361707
 30
0.0
 10
3.772822761929976
 20
-5.159891106361707
 30
0.0
 10
3.724699751086038
 20
-5.178492051693979
 30
0.0
 10
3.66880931252087
 20
-5.215781544926813
 30
0.0
 10
3.62532193758198
 20
-5.246829355169425
 30
0.0
 10
3.58183456264304
 20
-5.279446711427113
 30
0.0
 10
3.538420189844348
 20
-5.313553311345559
 30
0.0
 10
3.55075025133034
 20
-5.307391930709628
 30
0.0
 10
3.569431499016875
 20
-5.30425283867948
 30
0.0
 10
3.594311205795672
 20
-5.30425283867948
 30
0.0
 10
3.737037112785982
 20
-5.30425283867948
 30
0.0
 10
3.854307750861999
 20
-5.347776714688494
 30
0.0
 10
3.945918136644877
 20
-5.434678462426101
 30
0.0
 10
4.037455520287494
 20
-5.521616711233845
 30
0.0
 10
4.080161772325823
 20
-5.634937933523057
 30
0.0
 10
4.074029592546038
 20
-5.774634829079736
 30
0.0
 10
4.074029592546038
 20
-5.774634829079736
 30
0.0
 10
4.126355791655316
 20
-5.575209707103769
 30
0.0
 10
4.126355791655316
 20
-5.575209707103769
 30
0.0
  0
SPLINE
  5
51
330
45
100
AcDbEntity
  8
Layer 1
370
     0
100
AcDbSpline
210
0.0
220
0.0
230
1.0
 70
    11
 71
     3
 72
    26
 73
    22
 74
     0
 42
0.0000000001
 43
0.0000000001
 12
1.0
 22
0.0
 32
0.0
 13
1.0
 23
0.0
 33
0.0
 40
0.0
 40
0.0
 40
0.0
 40
0.0
 40
1.0
 40
1.0
 40
1.0
 40
2.0
 40
2.0
 40
2.0
 40
3.0
 40
3.0
 40
3.0
 40
4.0
 40
4.0
 40
4.0
 40
5.0
 40
5.0
 40
5.0
 40
6.0
 40
6.0
 40
6.0
 40
7.0
 40
7.0
 40
7.0
 40
7.0
 10
4.055348344859466
 20
-4.810597765971857
 30
0.0
 10
4.055348344859466
 20
-4.745399554526544
 30
0.0
 10
4.033188367617956
 20
-4.686200559178511
 30
0.0
 10
3.971166335953828
 20
-4.636478801463353
 30
0.0
 10
3.893527973131389
 20
-4.62410493869331
 30
0.0
 10
3.796066643381247
 20
-4.61964606775507
 30
0.0
 10
3.696754531803473
 20
-4.61964606775507
 30
0.0
 10
3.696754531803473
 20
-4.61964606775507
 30
0.0
 10
3.682781922162184
 20
-4.61964606775507
 30
0.0
 10
3.682781922162184
 20
-4.61964606775507
 30
0.0
 10
3.772822761929976
 20
-4.687976071016489
 30
0.0
 10
3.817806680743741
 20
-4.782652546689278
 30
0.0
 10
3.817806680743741
 20
-4.903741196699684
 30
0.0
 10
3.817806680743741
 20
-4.9752102919912
 30
0.0
 10
3.797628889182356
 20
-5.045036839127558
 30
0.0
 10
3.757280606273626
 20
-5.113301140462694
 30
0.0
 10
3.819376809830537
 20
-5.069886767664027
 30
0.0
 10
3.926417212754422
 20
-5.003056850515362
 30
0.0
 10
3.987050093742305
 20
-4.96050746034843
 30
0.0
 10
4.047408373338549
 20
-4.918150772912441
 30
0.0
 10
4.055348344859466
 20
-4.869590125595247
 30
0.0
 10
4.055348344859466
 20
-4.810597765971857
 30
0.0
  0
SPLINE
  5
52
330
45
100
AcDbEntity
  8
Layer 1
370
     0
100
AcDbSpline
210
0.0
220
0.0
230
1.0
 70
    11
 71
     3
 72
    23
 73
    19
 74
     0
 42
0.0000000001
 43
0.0000000001
 12
1.0
 22
0.0
 32
0.0
 13
1.0
 23
0.0
 33
0.0
 40
0.0
 40
0.0
 40
0.0
 40
0.0
 40
1.0
 40
1.0
 40
1.0
 40
2.0
 40
2.0
 40
2.0
 40
3.0
 40
3.0
 40
3.0
 40
4.0
 40
4.0
 40
4.0
 40
5.0
 40
5.0
 40
5.0
 40
6.0
 40
6.0
 40
6.0
 40
6.0
 10
3.921348632770597
 20
-4.596425527796415
 30
0.0
 10
3.970968187489348
 20
-4.596425527796415
 30
0.0
 10
4.052780787174192
 20
-4.543030969760214
 30
0.0
 10
4.082352640473383
 20
-4.496701732924773
 30
0.0
 10
4.114120156050364
 20
-4.446932625187476
 30
0.0
 10
4.151182257556848
 20
-4.383397594033542
 30
0.0
 10
4.117296907608053
 20
-4.350571161270712
 30
0.0
 10
4.117296907608053
 20
-4.350571161270712
 30
0.0
 10
3.93429619591921
 20
-4.153899713259812
 30
0.0
 10
3.93429619591921
 20
-4.153899713259812
 30
0.0
 10
3.940428375699083
 20
-4.194284497238678
 30
0.0
 10
3.94356746772923
 20
-4.222229716521231
 30
0.0
 10
3.94356746772923
 20
-4.237735371107444
 30
0.0
 10
3.94356746772923
 20
-4.4054139870168
 30
0.0
 10
3.858425178536966
 20
-4.521393039216402
 30
0.0
 10
3.700083536363902
 20
-4.580356190610751
 30
0.0
 10
3.700083536363902
 20
-4.580356190610751
 30
0.0
 10
3.921348632770597
 20
-4.596425527796415
 30
0.0
 10
3.921348632770597
 20
-4.596425527796415
 30
0.0
  0
SPLINE
  5
53
330
45
100
AcDbEntity
  8
Layer 1
370
     0
100
AcDbSpline
210
0.0
220
0.0
230
1.0
 70
    11
 71
     3
 72
    26
 73
    22
 74
     0
 42
0.0000000001
 43
0.0000000001
 12
1.0
 22
0.0
 32
0.0
 13
1.0
 23
0.0
 33
0.0
 40
0.0
 40
0.0
 40
0.0
 40
0.0
 40
1.0
 40
1.0
 40
1.0
 40
2.0
 40
2.0
 40
2.0
 40
3.0
 40
3.0
 40
3.0
 40
4.0
 40
4.0
 40
4.0
 40
5.0
 40
5.0
 40
5.0
 40
6.0
 40
6.0
 40
6.0
 40
7.0
 40
7.0
 40
7.0
 40
7.0
 10
4.441887377198049
 20
-3.84652420179379
 30
0.0
 10
4.441887377198049
 20
-3.84652420179379
 30
0.0
 10
4.441887377198049
 20
-3.664908776978728
 30
0.0
 10
4.441887377198049
 20
-3.664908776978728
 30
0.0
 10
4.348780447540295
 20
-3.866774995495398
 30
0.0
 10
4.191942649456109
 20
-3.967612851804157
 30
0.0
 10
3.971513273926853
 20
-3.967612851804157
 30
0.0
 10
3.903211884606485
 20
-3.967612851804157
 30
0.0
 10
3.841116264121246
 20
-3.955246289248079
 30
0.0
 10
3.785225825556141
 20
-3.930367159855463
 30
0.0
 10
3.865929691587679
 20
-4.020444500693353
 30
0.0
 10
3.909417066526556
 20
-4.067027166378302
 30
0.0
 10
3.91562224844669
 20
-4.070093256268276
 30
0.0
 10
3.962242001882613
 20
-4.107346248430935
 30
0.0
 10
4.022767489671929
 20
-4.125954493977259
 30
0.0
 10
4.097266173783282
 20
-4.125954493977259
 30
0.0
 10
4.18110913184503
 20
-4.125954493977259
 30
0.0
 10
4.259455028746907
 20
-4.098826898665392
 30
0.0
 10
4.332457168983384
 20
-4.044469505045186
 30
0.0
 10
4.405386307079754
 20
-3.990177813351313
 30
0.0
 10
4.441887377198049
 20
-3.924161977935392
 30
0.0
 10
4.441887377198049
 20
-3.84652420179379
 30
0.0
  0
SPLINE
  5
54
330
45
100
AcDbEntity
  8
Layer 1
370
     0
100
AcDbSpline
210
0.0
220
0.0
230
1.0
 70
    11
 71
     3
 72
    32
 73
    28
 74
     0
 42
0.0000000001
 43
0.0000000001
 12
1.0
 22
0.0
 32
0.0
 13
1.0
 23
0.0
 33
0.0
 40
0.0
 40
0.0
 40
0.0
 40
0.0
 40
1.0
 40
1.0
 40
1.0
 40
2.0
 40
2.0
 40
2.0
 40
3.0
 40
3.0
 40
3.0
 40
4.0
 40
4.0
 40
4.0
 40
5.0
 40
5.0
 40
5.0
 40
6.0
 40
6.0
 40
6.0
 40
7.0
 40
7.0
 40
7.0
 40
8.0
 40
8.0
 40
8.0
 40
9.0
 40
9.0
 40
9.0
 40
9.0
 10
4.269581020042627
 20
-5.136610723840236
 30
0.0
 10
4.269581020042627
 20
-5.0869546680514
 30
0.0
 10
4.251687601025702
 20
-5.044255716226985
 30
0.0
 10
4.216040655948202
 20
-5.008535769009224
 30
0.0
 10
4.180320708730442
 20
-4.972859623075629
 30
0.0
 10
4.137621756906065
 20
-4.95495949828963
 30
0.0
 10
4.087929200047003
 20
-4.95495949828963
 30
0.0
 10
4.087929200047003
 20
-4.95495949828963
 30
0.0
 10
4.050712708954418
 20
-4.959631635264738
 30
0.0
 10
4.050712708954418
 20
-4.959631635264738
 30
0.0
 10
4.025833579561827
 20
-4.9752102919912
 30
0.0
 10
3.941997921714169
 20
-5.032597274431193
 30
0.0
 10
3.799198435197443
 20
-5.131938586865127
 30
0.0
 10
3.89851113184611
 20
-5.131938586865127
 30
0.0
 10
3.981565081722389
 20
-5.166124826727254
 30
0.0
 10
4.048362040038834
 20
-5.234389790473099
 30
0.0
 10
4.115093296429058
 20
-5.302719793734519
 30
0.0
 10
4.153300091928978
 20
-5.375754940519806
 30
0.0
 10
4.153300091928978
 20
-5.471964461137595
 30
0.0
 10
4.153300091928978
 20
-5.493711798714066
 30
0.0
 10
4.155947425089494
 20
-5.518556656534074
 30
0.0
 10
4.151182257557164
 20
-5.537617326663293
 30
0.0
 10
4.158594677858483
 20
-5.507967645458153
 30
0.0
 10
4.180320708730442
 20
-5.4532867079724
 30
0.0
 10
4.216040655948202
 20
-5.341505830842177
 30
0.0
 10
4.251687601025702
 20
-5.229754154568064
 30
0.0
 10
4.269581020042627
 20
-5.161489853232852
 30
0.0
 10
4.269581020042627
 20
-5.136610723840236
 30
0.0
  0
SPLINE
  5
55
330
45
100
AcDbEntity
  8
Layer 1
370
     0
100
AcDbSpline
210
0.0
220
0.0
230
1.0
 70
    11
 71
     3
 72
    26
 73
    22
 74
     0
 42
0.0000000001
 43
0.0000000001
 12
1.0
 22
0.0
 32
0.0
 13
1.0
 23
0.0
 33
0.0
 40
0.0
 40
0.0
 40
0.0
 40
0.0
 40
1.0
 40
1.0
 40
1.0
 40
2.0
 40
2.0
 40
2.0
 40
3.0
 40
3.0
 40
3.0
 40
4.0
 40
4.0
 40
4.0
 40
5.0
 40
5.0
 40
5.0
 40
6.0
 40
6.0
 40
6.0
 40
7.0
 40
7.0
 40
7.0
 40
7.0
 10
4.996105025445937
 20
-6.272954738548529
 30
0.0
 10
4.996105025445937
 20
-6.272954738548529
 30
0.0
 10
4.893661122052006
 20
-5.979559136937799
 30
0.0
 10
4.893661122052006
 20
-5.979559136937799
 30
0.0
 10
4.893661122052006
 20
-5.979559136937799
 30
0.0
 10
4.880776198641721
 20
-5.950595029163979
 30
0.0
 10
4.880776198641721
 20
-5.950595029163979
 30
0.0
 10
4.813005498744133
 20
-5.800228788766364
 30
0.0
 10
4.66500548532925
 20
-5.652698089724203
 30
0.0
 10
4.447715213125901
 20
-5.652698089724203
 30
0.0
 10
4.33592643757096
 20
-5.652698089724203
 30
0.0
 10
4.142943488591047
 20
-5.71901760924402
 30
0.0
 10
4.120583648055723
 20
-5.783971802815964
 30
0.0
 10
4.08223746351953
 20
-5.895365508382762
 30
0.0
 10
4.039646854747224
 20
-6.031152205405129
 30
0.0
 10
3.96821426052577
 20
-6.257750854423774
 30
0.0
 10
4.09553729331238
 20
-6.074603718977035
 30
0.0
 10
4.252590117485814
 20
-6.006717640016505
 30
0.0
 10
4.473093082070338
 20
-6.006717640016505
 30
0.0
 10
4.720879703570668
 20
-6.006717640016505
 30
0.0
 10
4.865716512273997
 20
-6.102253834033414
 30
0.0
 10
4.996105025445937
 20
-6.272954738548529
 30
0.0
  0
SPLINE
  5
56
330
45
100
AcDbEntity
  8
Layer 1
370
     0
100
AcDbSpline
210
0.0
220
0.0
230
1.0
 70
    11
 71
     3
 72
    23
 73
    19
 74
     0
 42
0.0000000001
 43
0.0000000001
 12
1.0
 22
0.0
 32
0.0
 13
1.0
 23
0.0
 33
0.0
 40
0.0
 40
0.0
 40
0.0
 40
0.0
 40
1.0
 40
1.0
 40
1.0
 40
2.0
 40
2.0
 40
2.0
 40
3.0
 40
3.0
 40
3.0
 40
4.0
 40
4.0
 40
4.0
 40
5.0
 40
5.0
 40
5.0
 40
6.0
 40
6.0
 40
6.0
 40
6.0
 10
4.288841491723436
 20
-4.586709693726132
 30
0.0
 10
4.302113115906877
 20
-4.556816740774921
 30
0.0
 10
4.299430663582446
 20
-4.546470840661969
 30
0.0
 10
4.299430663582446
 20
-4.546470840661969
 30
0.0
 10
4.299430663582446
 20
-4.546470840661969
 30
0.0
 10
4.148528276657418
 20
-4.382104403639334
 30
0.0
 10
4.148528276657418
 20
-4.382104403639334
 30
0.0
 10
4.151594366547392
 20
-4.428687069324281
 30
0.0
 10
4.135263787776428
 20
-4.47453241339282
 30
0.0
 10
4.099624142912981
 20
-4.519516332206599
 30
0.0
 10
4.063904195695171
 20
-4.564536752090513
 30
0.0
 10
4.024264033546741
 20
-4.593299595343701
 30
0.0
 10
3.980849660748036
 20
-4.605673458113819
 30
0.0
 10
3.980849660748036
 20
-4.605673458113819
 30
0.0
 10
4.249661296938484
 20
-4.632243052473705
 30
0.0
 10
4.249661296938484
 20
-4.632243052473705
 30
0.0
 10
4.260250727704172
 20
-4.621653960860827
 30
0.0
 10
4.268318249604363
 20
-4.632935461876033
 30
0.0
 10
4.288841491723436
 20
-4.586709693726132
 30
0.0
  0
SPLINE
  5
57
330
45
100
AcDbEntity
  8
Layer 1
370
     0
100
AcDbSpline
210
0.0
220
0.0
230
1.0
 70
    11
 71
     3
 72
    29
 73
    25
 74
     0
 42
0.0000000001
 43
0.0000000001
 12
1.0
 22
0.0
 32
0.0
 13
1.0
 23
0.0
 33
0.0
 40
0.0
 40
0.0
 40
0.0
 40
0.0
 40
1.0
 40
1.0
 40
1.0
 40
2.0
 40
2.0
 40
2.0
 40
3.0
 40
3.0
 40
3.0
 40
4.0
 40
4.0
 40
4.0
 40
5.0
 40
5.0
 40
5.0
 40
6.0
 40
6.0
 40
6.0
 40
7.0
 40
7.0
 40
7.0
 40
8.0
 40
8.0
 40
8.0
 40
8.0
 10
4.446596015243282
 20
-4.11198188433597
 30
0.0
 10
4.446596015243282
 20
-4.11198188433597
 30
0.0
 10
4.446596015243282
 20
-3.981585461445421
 30
0.0
 10
4.446596015243282
 20
-3.981585461445421
 30
0.0
 10
4.372024328991655
 20
-4.105813203485998
 30
0.0
 10
4.257177361971445
 20
-4.167872322901063
 30
0.0
 10
4.101901809688343
 20
-4.167872322901063
 30
0.0
 10
4.074029592546038
 20
-4.167872322901063
 30
0.0
 10
4.036740099313167
 20
-4.163236686996103
 30
0.0
 10
3.990186634484315
 20
-4.153899713259812
 30
0.0
 10
3.990186634484315
 20
-4.153899713259812
 30
0.0
 10
4.078665228451061
 20
-4.251707980748733
 30
0.0
 10
4.078665228451061
 20
-4.251707980748733
 30
0.0
 10
4.078665228451061
 20
-4.251707980748733
 30
0.0
 10
4.103855005923681
 20
-4.27266422199735
 30
0.0
 10
4.103855005923681
 20
-4.27266422199735
 30
0.0
 10
4.138856228172232
 20
-4.298915138683784
 30
0.0
 10
4.170202612093678
 20
-4.293633109886577
 30
0.0
 10
4.232363934505075
 20
-4.293633109886577
 30
0.0
 10
4.359621265365427
 20
-4.293633109886577
 30
0.0
 10
4.437616660936606
 20
-4.231412781490134
 30
0.0
 10
4.446366966498721
 20
-4.13140928935147
 30
0.0
 10
4.446366966498721
 20
-4.13140928935147
 30
0.0
 10
4.446596015243282
 20
-4.11198188433597
 30
0.0
 10
4.446596015243282
 20
-4.11198188433597
 30
0.0
  0
SPLINE
  5
58
330
45
100
AcDbEntity
  8
Layer 1
370
     0
100
AcDbSpline
210
0.0
220
0.0
230
1.0
 70
    11
 71
     3
 72
    20
 73
    16
 74
     0
 42
0.0000000001
 43
0.0000000001
 12
1.0
 22
0.0
 32
0.0
 13
1.0
 23
0.0
 33
0.0
 40
0.0
 40
0.0
 40
0.0
 40
0.0
 40
1.0
 40
1.0
 40
1.0
 40
2.0
 40
2.0
 40
2.0
 40
3.0
 40
3.0
 40
3.0
 40
4.0
 40
4.0
 40
4.0
 40
5.0
 40
5.0
 40
5.0
 40
5.0
 10
4.259191810518296
 20
-4.782609373117389
 30
0.0
 10
4.282487988608056
 20
-4.762489946585346
 30
0.0
 10
4.239115519458815
 20
-4.654442734096127
 30
0.0
 10
4.198833530922053
 20
-4.651303642065955
 30
0.0
 10
4.198833530922053
 20
-4.651303642065955
 30
0.0
 10
4.022767489671929
 20
-4.642918474434496
 30
0.0
 10
4.022767489671929
 20
-4.642918474434496
 30
0.0
 10
4.063050070654413
 20
-4.683303934041342
 30
0.0
 10
4.083293564142019
 20
-4.737668627875501
 30
0.0
 10
4.083293564142019
 20
-4.805925628996672
 30
0.0
 10
4.083293564142019
 20
-4.840149032339531
 30
0.0
 10
4.075526136420838
 20
-4.874262262688439
 30
0.0
 10
4.060056982904699
 20
-4.908369532390616
 30
0.0
 10
4.060056982904699
 20
-4.908369532390616
 30
0.0
 10
4.259191810518296
 20
-4.782609373117389
 30
0.0
 10
4.259191810518296
 20
-4.782609373117389
 30
0.0
  0
SPLINE
  5
59
330
45
100
AcDbEntity
  8
Layer 1
370
     0
100
AcDbSpline
210
0.0
220
0.0
230
1.0
 70
    11
 71
     3
 72
    23
 73
    19
 74
     0
 42
0.0000000001
 43
0.0000000001
 12
1.0
 22
0.0
 32
0.0
 13
1.0
 23
0.0
 33
0.0
 40
0.0
 40
0.0
 40
0.0
 40
0.0
 40
1.0
 40
1.0
 40
1.0
 40
2.0
 40
2.0
 40
2.0
 40
3.0
 40
3.0
 40
3.0
 40
4.0
 40
4.0
 40
4.0
 40
5.0
 40
5.0
 40
5.0
 40
6.0
 40
6.0
 40
6.0
 40
6.0
 10
4.085529392030909
 20
-4.930857779143227
 30
0.0
 10
4.085529392030909
 20
-4.930857779143227
 30
0.0
 10
4.101901809688343
 20
-4.931686415982186
 30
0.0
 10
4.101901809688343
 20
-4.931686415982186
 30
0.0
 10
4.145389184627208
 20
-4.9286203260923
 30
0.0
 10
4.188095436665637
 20
-4.949579240554158
 30
0.0
 10
4.230013859034772
 20
-4.994563159367923
 30
0.0
 10
4.271931094513294
 20
-5.039583579251838
 30
0.0
 10
4.289758217159058
 20
-5.085355921180192
 30
0.0
 10
4.283553035238987
 20
-5.131938586865127
 30
0.0
 10
4.283553035238987
 20
-5.131938586865127
 30
0.0
 10
4.357613867225634
 20
-4.910186484381572
 30
0.0
 10
4.357613867225634
 20
-4.910186484381572
 30
0.0
 10
4.362614041832583
 20
-4.881435480391701
 30
0.0
 10
4.2831183231195
 20
-4.795538392309254
 30
0.0
 10
4.244366969915733
 20
-4.82178930899565
 30
0.0
 10
4.244366969915733
 20
-4.82178930899565
 30
0.0
 10
4.085529392030909
 20
-4.930857779143227
 30
0.0
 10
4.085529392030909
 20
-4.930857779143227
 30
0.0
  0
SPLINE
  5
5A
330
45
100
AcDbEntity
  8
Layer 1
370
     0
100
AcDbSpline
210
0.0
220
0.0
230
1.0
 70
    11
 71
     3
 72
    26
 73
    22
 74
     0
 42
0.0000000001
 43
0.0000000001
 12
1.0
 22
0.0
 32
0.0
 13
1.0
 23
0.0
 33
0.0
 40
0.0
 40
0.0
 40
0.0
 40
0.0
 40
1.0
 40
1.0
 40
1.0
 40
2.0
 40
2.0
 40
2.0
 40
3.0
 40
3.0
 40
3.0
 40
4.0
 40
4.0
 40
4.0
 40
5.0
 40
5.0
 40
5.0
 40
6.0
 40
6.0
 40
6.0
 40
7.0
 40
7.0
 40
7.0
 40
7.0
 10
4.845211323210884
 20
-5.843211767598707
 30
0.0
 10
4.845211323210884
 20
-5.843211767598707
 30
0.0
 10
4.770240165347407
 20
-5.614453920694459
 30
0.0
 10
4.770240165347407
 20
-5.614453920694459
 30
0.0
 10
4.770240165347407
 20
-5.614453920694459
 30
0.0
 10
4.753935025639217
 20
-5.579047494957901
 30
0.0
 10
4.753935025639217
 20
-5.579047494957901
 30
0.0
 10
4.704242468780194
 20
-5.442453190361321
 30
0.0
 10
4.604930357202319
 20
-5.374115886885837
 30
0.0
 10
4.455859986839338
 20
-5.374115886885837
 30
0.0
 10
4.359621265365427
 20
-5.374115886885837
 30
0.0
 10
4.230872739190216
 20
-5.418716863553123
 30
0.0
 10
4.218391324863786
 20
-5.462586525717155
 30
0.0
 10
4.199822628521638
 20
-5.527851760413569
 30
0.0
 10
4.178828092869682
 20
-5.59976878180411
 30
0.0
 10
4.138472509746899
 20
-5.730195056354104
 30
0.0
 10
4.222315467808597
 20
-5.643286008402507
 30
0.0
 10
4.344045693215776
 20
-5.627362542941354
 30
0.0
 10
4.458892660235961
 20
-5.627362542941354
 30
0.0
 10
4.635908249881519
 20
-5.627362542941354
 30
0.0
 10
4.739628327786755
 20
-5.684870125425605
 30
0.0
 10
4.845211323210884
 20
-5.843211767598707
 30
0.0
  0
SPLINE
  5
5B
330
45
100
AcDbEntity
  8
Layer 1
370
     0
100
AcDbSpline
210
0.0
220
0.0
230
1.0
 70
    11
 71
     3
 72
    29
 73
    25
 74
     0
 42
0.0000000001
 43
0.0000000001
 12
1.0
 22
0.0
 32
0.0
 13
1.0
 23
0.0
 33
0.0
 40
0.0
 40
0.0
 40
0.0
 40
0.0
 40
1.0
 40
1.0
 40
1.0
 40
2.0
 40
2.0
 40
2.0
 40
3.0
 40
3.0
 40
3.0
 40
4.0
 40
4.0
 40
4.0
 40
5.0
 40
5.0
 40
5.0
 40
6.0
 40
6.0
 40
6.0
 40
7.0
 40
7.0
 40
7.0
 40
8.0
 40
8.0
 40
8.0
 40
8.0
 10
4.327202310523893
 20
-4.322975309196977
 30
0.0
 10
4.29640676990842
 20
-4.337887599145966
 30
0.0
 10
4.168698768004775
 20
-4.334017893865481
 30
0.0
 10
4.143819638612121
 20
-4.321578329169193
 30
0.0
 10
4.143819638612121
 20
-4.321578329169193
 30
0.0
 10
4.283553035238987
 20
-4.484584808103364
 30
0.0
 10
4.283553035238987
 20
-4.484584808103364
 30
0.0
 10
4.283553035238987
 20
-4.484584808103364
 30
0.0
 10
4.297611771942406
 20
-4.495171992005933
 30
0.0
 10
4.297611771942406
 20
-4.495171992005933
 30
0.0
 10
4.316220017488679
 20
-4.510714147662333
 30
0.0
 10
4.353192454250776
 20
-4.515652884413712
 30
0.0
 10
4.37386443469821
 20
-4.508922472175022
 30
0.0
 10
4.427616311722734
 20
-4.491421861050766
 30
0.0
 10
4.442588869741813
 20
-4.491141872696529
 30
0.0
 10
4.448867053802208
 20
-4.441420114981447
 30
0.0
 10
4.448867053802208
 20
-4.441420114981447
 30
0.0
 10
4.451231651148342
 20
-4.424022232563098
 30
0.0
 10
4.451231651148342
 20
-4.424022232563098
 30
0.0
 10
4.451231651148342
 20
-4.424022232563098
 30
0.0
 10
4.451231651148342
 20
-4.223762761466193
 30
0.0
 10
4.451231651148342
 20
-4.223762761466193
 30
0.0
 10
4.42715460893338
 20
-4.278870114722786
 30
0.0
 10
4.389896399008927
 20
-4.292616614175232
 30
0.0
 10
4.327202310523893
 20
-4.322975309196977
 30
0.0
  0
SPLINE
  5
5C
330
45
100
AcDbEntity
  8
Layer 1
370
     0
100
AcDbSpline
210
0.0
220
0.0
230
1.0
 70
    11
 71
     3
 72
    23
 73
    19
 74
     0
 42
0.0000000001
 43
0.0000000001
 12
1.0
 22
0.0
 32
0.0
 13
1.0
 23
0.0
 33
0.0
 40
0.0
 40
0.0
 40
0.0
 40
0.0
 40
1.0
 40
1.0
 40
1.0
 40
2.0
 40
2.0
 40
2.0
 40
3.0
 40
3.0
 40
3.0
 40
4.0
 40
4.0
 40
4.0
 40
5.0
 40
5.0
 40
5.0
 40
6.0
 40
6.0
 40
6.0
 40
6.0
 10
4.716719140287195
 20
-5.462586525717155
 30
0.0
 10
4.670092067577571
 20
-5.31052306376297
 30
0.0
 10
4.643716998206476
 20
-5.228221109623127
 30
0.0
 10
4.637511816129543
 20
-5.215781544926813
 30
0.0
 10
4.594023837451029
 20
-5.122638114198986
 30
0.0
 10
4.531928216965803
 20
-5.076048148299959
 30
0.0
 10
4.451231651148342
 20
-5.076048148299959
 30
0.0
 10
4.410876068025598
 20
-5.076048148299959
 30
0.0
 10
4.330648044339518
 20
-5.106501265959675
 30
0.0
 10
4.320170759922878
 20
-5.139330785368037
 30
0.0
 10
4.297469257658021
 20
-5.210463664802609
 30
0.0
 10
4.274360114129093
 20
-5.287338700941214
 30
0.0
 10
4.230872739190216
 20
-5.423933005537807
 30
0.0
 10
4.299166241381499
 20
-5.371145157932788
 30
0.0
 10
4.375090418881554
 20
-5.355478440483428
 30
0.0
 10
4.465204260789581
 20
-5.355478440483428
 30
0.0
 10
4.561377280337208
 20
-5.355478440483428
 30
0.0
 10
4.645212938184891
 20
-5.391227588557336
 30
0.0
 10
4.716719140287195
 20
-5.462586525717155
 30
0.0
  0
SPLINE
  5
5D
330
45
100
AcDbEntity
  8
Layer 1
370
     0
100
AcDbSpline
210
0.0
220
0.0
230
1.0
 70
    11
 71
     3
 72
    14
 73
    10
 74
     0
 42
0.0000000001
 43
0.0000000001
 12
1.0
 22
0.0
 32
0.0
 13
1.0
 23
0.0
 33
0.0
 40
0.0
 40
0.0
 40
0.0
 40
0.0
 40
1.0
 40
1.0
 40
1.0
 40
2.0
 40
2.0
 40
2.0
 40
3.0
 40
3.0
 40
3.0
 40
3.0
 10
4.250972180051374
 20
-4.661563896678873
 30
0.0
 10
4.275778307303755
 20
-4.686443026071515
 30
0.0
 10
4.286619125128911
 20
-4.720556926204077
 30
0.0
 10
4.283553035238987
 20
-4.764007800072843
 30
0.0
 10
4.283553035238987
 20
-4.764007800072843
 30
0.0
 10
4.445869445128614
 20
-4.668264180368864
 30
0.0
 10
4.443002480504118
 20
-4.664149737104164
 30
0.0
 10
4.440135515879673
 20
-4.660035293839542
 30
0.0
 10
4.250972180051374
 20
-4.661563896678873
 30
0.0
 10
4.250972180051374
 20
-4.661563896678873
 30
0.0
  0
SPLINE
  5
5E
330
45
100
AcDbEntity
  8
Layer 1
370
     0
100
AcDbSpline
210
0.0
220
0.0
230
1.0
 70
    11
 71
     3
 72
    14
 73
    10
 74
     0
 42
0.0000000001
 43
0.0000000001
 12
1.0
 22
0.0
 32
0.0
 13
1.0
 23
0.0
 33
0.0
 40
0.0
 40
0.0
 40
0.0
 40
0.0
 40
1.0
 40
1.0
 40
1.0
 40
2.0
 40
2.0
 40
2.0
 40
3.0
 40
3.0
 40
3.0
 40
3.0
 10
4.44979442407493
 20
-4.671970475903259
 30
0.0
 10
4.445139407610567
 20
-4.668513517486063
 30
0.0
 10
4.269581020042627
 20
-4.805925628996672
 30
0.0
 10
4.269581020042627
 20
-4.805925628996672
 30
0.0
 10
4.314769314123471
 20
-4.813451970184233
 30
0.0
 10
4.346235018744639
 20
-4.841742236724309
 30
0.0
 10
4.365576323420024
 20
-4.887641750804808
 30
0.0
 10
4.365576323420024
 20
-4.887641750804808
 30
0.0
 10
4.455497345403576
 20
-4.676205640706876
 30
0.0
 10
4.44979442407493
 20
-4.671970475903259
 30
0.0
  0
SPLINE
  5
5F
330
45
100
AcDbEntity
  8
Layer 1
370
     0
100
AcDbSpline
210
0.0
220
0.0
230
1.0
 70
    11
 71
     3
 72
    14
 73
    10
 74
     0
 42
0.0000000001
 43
0.0000000001
 12
1.0
 22
0.0
 32
0.0
 13
1.0
 23
0.0
 33
0.0
 40
0.0
 40
0.0
 40
0.0
 40
0.0
 40
1.0
 40
1.0
 40
1.0
 40
2.0
 40
2.0
 40
2.0
 40
3.0
 40
3.0
 40
3.0
 40
3.0
 10
4.443002480504118
 20
-4.651881269236153
 30
0.0
 10
4.445920147194607
 20
-4.64662533617622
 30
0.0
 10
4.320835228257743
 20
-4.563748328975938
 30
0.0
 10
4.320835228257743
 20
-4.563748328975938
 30
0.0
 10
4.317703436441611
 20
-4.588634758582543
 30
0.0
 10
4.298978399782578
 20
-4.613709047771104
 30
0.0
 10
4.280370154236278
 20
-4.635419884277477
 30
0.0
 10
4.280370154236278
 20
-4.635419884277477
 30
0.0
 10
4.440084813813706
 20
-4.657137202296073
 30
0.0
 10
4.443002480504118
 20
-4.651881269236153
 30
0.0
  0
SPLINE
  5
60
330
45
100
AcDbEntity
  8
Layer 1
370
     0
100
AcDbSpline
210
0.0
220
0.0
230
1.0
 70
    11
 71
     3
 72
    14
 73
    10
 74
     0
 42
0.0000000001
 43
0.0000000001
 12
1.0
 22
0.0
 32
0.0
 13
1.0
 23
0.0
 33
0.0
 40
0.0
 40
0.0
 40
0.0
 40
0.0
 40
1.0
 40
1.0
 40
1.0
 40
2.0
 40
2.0
 40
2.0
 40
3.0
 40
3.0
 40
3.0
 40
3.0
 10
4.453268033942272
 20
-4.642375332352054
 30
0.0
 10
4.457029974688364
 20
-4.639690372098079
 30
0.0
 10
4.461407686104798
 20
-4.549466700704644
 30
0.0
 10
4.455859986839338
 20
-4.493885280769556
 30
0.0
 10
4.421717484138829
 20
-4.531138272932253
 30
0.0
 10
4.381361302727884
 20
-4.546709629444712
 30
0.0
 10
4.334807837899082
 20
-4.540475246668493
 30
0.0
 10
4.356482173335254
 20
-4.565354376061072
 30
0.0
 10
4.449506093196178
 20
-4.645060292606015
 30
0.0
 10
4.453268033942272
 20
-4.642375332352054
 30
0.0
  0
SPLINE
  5
61
330
45
100
AcDbEntity
  8
Layer 1
370
     0
100
AcDbSpline
210
0.0
220
0.0
230
1.0
 70
    11
 71
     3
 72
    17
 73
    13
 74
     0
 42
0.0000000001
 43
0.0000000001
 12
1.0
 22
0.0
 32
0.0
 13
1.0
 23
0.0
 33
0.0
 40
0.0
 40
0.0
 40
0.0
 40
0.0
 40
1.0
 40
1.0
 40
1.0
 40
2.0
 40
2.0
 40
2.0
 40
3.0
 40
3.0
 40
3.0
 40
4.0
 40
4.0
 40
4.0
 40
4.0
 10
4.469545323026422
 20
-4.643560062605123
 30
0.0
 10
4.473126011419733
 20
-4.644729181629347
 30
0.0
 10
4.53970294490101
 20
-4.590167803527556
 30
0.0
 10
4.576985137919817
 20
-4.540475246668493
 30
0.0
 10
4.576985137919817
 20
-4.540475246668493
 30
0.0
 10
4.563012528278528
 20
-4.545110882573542
 30
0.0
 10
4.563012528278528
 20
-4.545110882573542
 30
0.0
 10
4.531928216965803
 20
-4.545110882573542
 30
0.0
 10
4.503982997683326
 20
-4.534270064748423
 30
0.0
 10
4.479176870430845
 20
-4.512530027385954
 30
0.0
 10
4.476714108653773
 20
-4.56860081296198
 30
0.0
 10
4.465964634633084
 20
-4.64239094358081
 30
0.0
 10
4.469545323026422
 20
-4.643560062605123
 30
0.0
  0
SPLINE
  5
62
330
45
100
AcDbEntity
  8
Layer 1
370
     0
100
AcDbSpline
210
0.0
220
0.0
230
1.0
 70
    11
 71
     3
 72
    26
 73
    22
 74
     0
 42
0.0000000001
 43
0.0000000001
 12
1.0
 22
0.0
 32
0.0
 13
1.0
 23
0.0
 33
0.0
 40
0.0
 40
0.0
 40
0.0
 40
0.0
 40
1.0
 40
1.0
 40
1.0
 40
2.0
 40
2.0
 40
2.0
 40
3.0
 40
3.0
 40
3.0
 40
4.0
 40
4.0
 40
4.0
 40
5.0
 40
5.0
 40
5.0
 40
6.0
 40
6.0
 40
6.0
 40
7.0
 40
7.0
 40
7.0
 40
7.0
 10
4.600302021511348
 20
-5.108665504557696
 30
0.0
 10
4.600302021511348
 20
-5.108665504557696
 30
0.0
 10
4.553675554542224
 20
-4.95495949828963
 30
0.0
 10
4.553675554542224
 20
-4.95495949828963
 30
0.0
 10
4.553675554542224
 20
-4.95495949828963
 30
0.0
 10
4.546614542715739
 20
-4.937379599694635
 30
0.0
 10
4.546614542715739
 20
-4.937379599694635
 30
0.0
 10
4.536549136204131
 20
-4.90771313839726
 30
0.0
 10
4.49945629167784
 20
-4.899766150750502
 30
0.0
 10
4.459107408715984
 20
-4.899766150750502
 30
0.0
 10
4.418751825593214
 20
-4.899766150750502
 30
0.0
 10
4.383719271857546
 20
-4.921634021271643
 30
0.0
 10
4.369746662216256
 20
-4.966617940085383
 30
0.0
 10
4.355766752360978
 20
-5.011638359969222
 30
0.0
 10
4.34415211184935
 20
-5.054373812863774
 30
0.0
 10
4.334807837899082
 20
-5.094692894916395
 30
0.0
 10
4.372024328991655
 20
-5.069886767664027
 30
0.0
 10
4.413942157915471
 20
-5.057410701897601
 30
0.0
 10
4.460568624884571
 20
-5.057410701897601
 30
0.0
 10
4.516459063449625
 20
-5.057410701897601
 30
0.0
 10
4.563012528278528
 20
-5.074515103355073
 30
0.0
 10
4.600302021511348
 20
-5.108665504557696
 30
0.0
  0
SPLINE
  5
63
330
45
100
AcDbEntity
  8
Layer 1
370
     0
100
AcDbSpline
210
0.0
220
0.0
230
1.0
 70
    11
 71
     3
 72
    17
 73
    13
 74
     0
 42
0.0000000001
 43
0.0000000001
 12
1.0
 22
0.0
 32
0.0
 13
1.0
 23
0.0
 33
0.0
 40
0.0
 40
0.0
 40
0.0
 40
0.0
 40
1.0
 40
1.0
 40
1.0
 40
2.0
 40
2.0
 40
2.0
 40
3.0
 40
3.0
 40
3.0
 40
4.0
 40
4.0
 40
4.0
 40
4.0
 10
4.460386075839627
 20
-4.675596977019634
 30
0.0
 10
4.452943815458361
 20
-4.675596977019634
 30
0.0
 10
4.414054496317021
 20
-4.821228712285246
 30
0.0
 10
4.389247770933202
 20
-4.908137760236892
 30
0.0
 10
4.407849314240113
 20
-4.892632105650629
 30
0.0
 10
4.433760275136036
 20
-4.884754988912921
 30
0.0
 10
4.461705494418664
 20
-4.884754988912921
 30
0.0
 10
4.480313739964938
 20
-4.884754988912921
 30
0.0
 10
4.506484883971805
 20
-4.888989476991823
 30
0.0
 10
4.534430103254357
 20
-4.901356039547838
 30
0.0
 10
4.534430103254357
 20
-4.901356039547838
 30
0.0
 10
4.466795311438469
 20
-4.675596977019634
 30
0.0
 10
4.460386075839627
 20
-4.675596977019634
 30
0.0
  0
SPLINE
  5
64
330
45
100
AcDbEntity
  8
Layer 1
370
     0
100
AcDbSpline
210
0.0
220
0.0
230
1.0
 70
    11
 71
     3
 72
    17
 73
    13
 74
     0
 42
0.0000000001
 43
0.0000000001
 12
1.0
 22
0.0
 32
0.0
 13
1.0
 23
0.0
 33
0.0
 40
0.0
 40
0.0
 40
0.0
 40
0.0
 40
1.0
 40
1.0
 40
1.0
 40
2.0
 40
2.0
 40
2.0
 40
3.0
 40
3.0
 40
3.0
 40
4.0
 40
4.0
 40
4.0
 40
4.0
 10
4.476518796331093
 20
-4.664239584025077
 30
0.0
 10
4.473823332504986
 20
-4.669488195667857
 30
0.0
 10
4.589082513908402
 20
-4.745191579940537
 30
0.0
 10
4.653109003673231
 20
-4.786845041860968
 30
0.0
 10
4.653109003673231
 20
-4.786845041860968
 30
0.0
 10
4.645371579920821
 20
-4.736743760333348
 30
0.0
 10
4.652579545080344
 20
-4.706367335732643
 30
0.0
 10
4.659991965381601
 20
-4.675129278748626
 30
0.0
 10
4.661580341160465
 20
-4.66930523422617
 30
0.0
 10
4.680111391913644
 20
-4.64918580769409
 30
0.0
 10
4.680111391913644
 20
-4.64918580769409
 30
0.0
 10
4.478458458076071
 20
-4.660462671451101
 30
0.0
 10
4.476518796331093
 20
-4.664239584025077
 30
0.0
  0
SPLINE
  5
65
330
45
100
AcDbEntity
  8
Layer 1
370
     0
100
AcDbSpline
210
0.0
220
0.0
230
1.0
 70
    11
 71
     3
 72
    20
 73
    16
 74
     0
 42
0.0000000001
 43
0.0000000001
 12
1.0
 22
0.0
 32
0.0
 13
1.0
 23
0.0
 33
0.0
 40
0.0
 40
0.0
 40
0.0
 40
0.0
 40
1.0
 40
1.0
 40
1.0
 40
2.0
 40
2.0
 40
2.0
 40
3.0
 40
3.0
 40
3.0
 40
4.0
 40
4.0
 40
4.0
 40
5.0
 40
5.0
 40
5.0
 40
5.0
 10
4.751588301961773
 20
-4.344217658155255
 30
0.0
 10
4.646255081096519
 20
-4.365165091152954
 30
0.0
 10
4.525762039325299
 20
-4.307070112182183
 30
0.0
 10
4.478332137411194
 20
-4.229124289168441
 30
0.0
 10
4.478332137411194
 20
-4.229124289168441
 30
0.0
 10
4.479176870430845
 20
-4.433359206299428
 30
0.0
 10
4.479176870430845
 20
-4.433359206299428
 30
0.0
 10
4.479176870430845
 20
-4.476846581238292
 30
0.0
 10
4.493527399269295
 20
-4.495017599571143
 30
0.0
 10
4.54409204545363
 20
-4.510304585626853
 30
0.0
 10
4.576594068969042
 20
-4.520130778782686
 30
0.0
 10
4.609851953496369
 20
-4.507281141578965
 30
0.0
 10
4.628247240793977
 20
-4.484584808103364
 30
0.0
 10
4.628247240793977
 20
-4.484584808103364
 30
0.0
 10
4.751588301961773
 20
-4.344217658155255
 30
0.0
 10
4.751588301961773
 20
-4.344217658155255
 30
0.0
  0
SPLINE
  5
66
330
45
100
AcDbEntity
  8
Layer 1
370
     0
100
AcDbSpline
210
0.0
220
0.0
230
1.0
 70
    11
 71
     3
 72
    26
 73
    22
 74
     0
 42
0.0000000001
 43
0.0000000001
 12
1.0
 22
0.0
 32
0.0
 13
1.0
 23
0.0
 33
0.0
 40
0.0
 40
0.0
 40
0.0
 40
0.0
 40
1.0
 40
1.0
 40
1.0
 40
2.0
 40
2.0
 40
2.0
 40
3.0
 40
3.0
 40
3.0
 40
4.0
 40
4.0
 40
4.0
 40
5.0
 40
5.0
 40
5.0
 40
6.0
 40
6.0
 40
6.0
 40
7.0
 40
7.0
 40
7.0
 40
7.0
 10
4.939016643865872
 20
-4.138787724090863
 30
0.0
 10
4.89552926892697
 20
-4.148124697827117
 30
0.0
 10
4.802275697824345
 20
-4.159673659693845
 30
0.0
 10
4.772766645679742
 20
-4.156789316251168
 30
0.0
 10
4.631930659955211
 20
-4.143023392834443
 30
0.0
 10
4.571572380358955
 20
-4.101725622584405
 30
0.0
 10
4.48851444414279
 20
-3.986257598420606
 30
0.0
 10
4.48851444414279
 20
-3.986257598420606
 30
0.0
 10
4.48381250633588
 20
-4.093373638789672
 30
0.0
 10
4.48381250633588
 20
-4.093373638789672
 30
0.0
 10
4.48381250633588
 20
-4.239341418192693
 30
0.0
 10
4.539863181248544
 20
-4.294256263968805
 30
0.0
 10
4.677879444575157
 20
-4.316048305546738
 30
0.0
 10
4.720963522258292
 20
-4.32285105465457
 30
0.0
 10
4.787651923084089
 20
-4.319287552170067
 30
0.0
 10
4.80939926066056
 20
-4.28203456000742
 30
0.0
 10
4.80939926066056
 20
-4.28203456000742
 30
0.0
 10
4.823798073845587
 20
-4.265680590390035
 30
0.0
 10
4.823798073845587
 20
-4.265680590390035
 30
0.0
 10
4.823798073845587
 20
-4.265680590390035
 30
0.0
 10
4.939016643865872
 20
-4.138787724090863
 30
0.0
 10
4.939016643865872
 20
-4.138787724090863
 30
0.0
  0
SPLINE
  5
67
330
45
100
AcDbEntity
  8
Layer 1
370
     0
100
AcDbSpline
210
0.0
220
0.0
230
1.0
 70
    11
 71
     3
 72
    29
 73
    25
 74
     0
 42
0.0000000001
 43
0.0000000001
 12
1.0
 22
0.0
 32
0.0
 13
1.0
 23
0.0
 33
0.0
 40
0.0
 40
0.0
 40
0.0
 40
0.0
 40
1.0
 40
1.0
 40
1.0
 40
2.0
 40
2.0
 40
2.0
 40
3.0
 40
3.0
 40
3.0
 40
4.0
 40
4.0
 40
4.0
 40
5.0
 40
5.0
 40
5.0
 40
6.0
 40
6.0
 40
6.0
 40
7.0
 40
7.0
 40
7.0
 40
8.0
 40
8.0
 40
8.0
 40
8.0
 10
5.36874445028348
 20
-3.669545113218292
 30
0.0
 10
5.297238853921751
 20
-3.694424242610908
 30
0.0
 10
5.219674079920398
 20
-3.706798105381027
 30
0.0
 10
5.13583842207274
 20
-3.706798105381027
 30
0.0
 10
5.002310207366059
 20
-3.706798105381027
 30
0.0
 10
4.876549420380494
 20
-3.673465328149
 30
0.0
 10
4.758636363470461
 20
-3.606668369832555
 30
0.0
 10
4.6405779060969
 20
-3.539937113442268
 30
0.0
 10
4.545099450711531
 20
-3.432489961096318
 30
0.0
 10
4.484741171115249
 20
-3.288477223814096
 30
0.0
 10
4.484741171115249
 20
-3.288477223814096
 30
0.0
 10
4.48851444414279
 20
-3.473957779096496
 30
0.0
 10
4.48851444414279
 20
-3.473957779096496
 30
0.0
 10
4.48851444414279
 20
-3.595045727007459
 30
0.0
 10
4.538133398885899
 20
-3.695957287555832
 30
0.0
 10
4.637511816129543
 20
-3.776661153587371
 30
0.0
 10
4.736823323967731
 20
-3.857438021759107
 30
0.0
 10
4.847107657223129
 20
-3.897749803597814
 30
0.0
 10
4.96815980616341
 20
-3.897749803597814
 30
0.0
 10
5.117230176526467
 20
-3.897749803597814
 30
0.0
 10
5.204778661584138
 20
-3.846917544375502
 30
0.0
 10
5.288988773805486
 20
-3.757577537167309
 30
0.0
 10
5.288988773805486
 20
-3.757577537167309
 30
0.0
 10
5.36874445028348
 20
-3.669545113218292
 30
0.0
 10
5.36874445028348
 20
-3.669545113218292
 30
0.0
  0
SPLINE
  5
68
330
45
100
AcDbEntity
  8
Layer 1
370
     0
100
AcDbSpline
210
0.0
220
0.0
230
1.0
 70
    11
 71
     3
 72
    26
 73
    22
 74
     0
 42
0.0000000001
 43
0.0000000001
 12
1.0
 22
0.0
 32
0.0
 13
1.0
 23
0.0
 33
0.0
 40
0.0
 40
0.0
 40
0.0
 40
0.0
 40
1.0
 40
1.0
 40
1.0
 40
2.0
 40
2.0
 40
2.0
 40
3.0
 40
3.0
 40
3.0
 40
4.0
 40
4.0
 40
4.0
 40
5.0
 40
5.0
 40
5.0
 40
6.0
 40
6.0
 40
6.0
 40
7.0
 40
7.0
 40
7.0
 40
7.0
 10
5.145175395808994
 20
-3.911722413239077
 30
0.0
 10
5.086145865213691
 20
-3.933498951671607
 30
0.0
 10
5.027116334618439
 20
-3.944339769496726
 30
0.0
 10
4.96815980616341
 20
-3.944339769496726
 30
0.0
 10
4.744663753829172
 20
-3.944339769496726
 30
0.0
 10
4.584686863714751
 20
-3.849663293823887
 30
0.0
 10
4.48851444414279
 20
-3.66024464055215
 30
0.0
 10
4.48851444414279
 20
-3.66024464055215
 30
0.0
 10
4.48851444414279
 20
-3.827886755391394
 30
0.0
 10
4.48851444414279
 20
-3.827886755391394
 30
0.0
 10
4.48851444414279
 20
-3.911722413239077
 30
0.0
 10
4.521810120329039
 20
-3.982410385630133
 30
0.0
 10
4.588607078645408
 20
-4.039797368070089
 30
0.0
 10
4.655338335035695
 20
-4.097293853720392
 30
0.0
 10
4.730691144187858
 20
-4.125954493977259
 30
0.0
 10
4.814526802035541
 20
-4.125954493977259
 30
0.0
 10
4.889025486147021
 20
-4.125954493977259
 30
0.0
 10
4.952617650507035
 20
-4.104280158540998
 30
0.0
 10
5.005449299396231
 20
-4.060756282531985
 30
0.0
 10
5.00851538928613
 20
-4.057690192642086
 30
0.0
 10
5.055068854115007
 20
-4.008004935997026
 30
0.0
 10
5.145175395808994
 20
-3.911722413239077
 30
0.0
  0
SPLINE
  5
69
330
45
100
AcDbEntity
  8
Layer 1
370
     0
100
AcDbSpline
210
0.0
220
0.0
230
1.0
 70
    11
 71
     3
 72
    14
 73
    10
 74
     0
 42
0.0000000001
 43
0.0000000001
 12
1.0
 22
0.0
 32
0.0
 13
1.0
 23
0.0
 33
0.0
 40
0.0
 40
0.0
 40
0.0
 40
0.0
 40
1.0
 40
1.0
 40
1.0
 40
2.0
 40
2.0
 40
2.0
 40
3.0
 40
3.0
 40
3.0
 40
3.0
 10
4.660521423974589
 20
-4.812788512915492
 30
0.0
 10
4.660521423974589
 20
-4.812788512915492
 30
0.0
 10
4.473419120107969
 20
-4.6697954736865
 30
0.0
 10
4.470376478704666
 20
-4.672315168864454
 30
0.0
 10
4.466654884742007
 20
-4.675397123363521
 30
0.0
 10
4.556218081163453
 20
-4.867852206582218
 30
0.0
 10
4.556218081163453
 20
-4.867852206582218
 30
0.0
 10
4.577893018651947
 20
-4.836840897409742
 30
0.0
 10
4.626305320845631
 20
-4.815920976359532
 30
0.0
 10
4.660521423974589
 20
-4.812788512915492
 30
0.0
  0
SPLINE
  5
6A
330
45
100
AcDbEntity
  8
Layer 1
370
     0
100
AcDbSpline
210
0.0
220
0.0
230
1.0
 70
    11
 71
     3
 72
    14
 73
    10
 74
     0
 42
0.0000000001
 43
0.0000000001
 12
1.0
 22
0.0
 32
0.0
 13
1.0
 23
0.0
 33
0.0
 40
0.0
 40
0.0
 40
0.0
 40
0.0
 40
1.0
 40
1.0
 40
1.0
 40
2.0
 40
2.0
 40
2.0
 40
3.0
 40
3.0
 40
3.0
 40
3.0
 10
4.645377421059619
 20
-4.627463042484578
 30
0.0
 10
4.627236756771986
 20
-4.624439598436652
 30
0.0
 10
4.604560926412483
 20
-4.603275490101042
 30
0.0
 10
4.600025760340537
 20
-4.5586796903939
 30
0.0
 10
4.600025760340537
 20
-4.5586796903939
 30
0.0
 10
4.474575343437133
 20
-4.649790691282141
 30
0.0
 10
4.477769671175085
 20
-4.654255811404154
 30
0.0
 10
4.480963998913138
 20
-4.658720931526154
 30
0.0
 10
4.645377421059619
 20
-4.627463042484578
 30
0.0
 10
4.645377421059619
 20
-4.627463042484578
 30
0.0
  0
SPLINE
  5
6B
330
45
100
AcDbEntity
  8
Layer 1
370
     0
100
AcDbSpline
210
0.0
220
0.0
230
1.0
 70
    11
 71
     3
 72
    20
 73
    16
 74
     0
 42
0.0000000001
 43
0.0000000001
 12
1.0
 22
0.0
 32
0.0
 13
1.0
 23
0.0
 33
0.0
 40
0.0
 40
0.0
 40
0.0
 40
0.0
 40
1.0
 40
1.0
 40
1.0
 40
2.0
 40
2.0
 40
2.0
 40
3.0
 40
3.0
 40
3.0
 40
4.0
 40
4.0
 40
4.0
 40
5.0
 40
5.0
 40
5.0
 40
5.0
 10
4.688773315264067
 20
-4.838542985254409
 30
0.0
 10
4.64613328207166
 20
-4.816428295480856
 30
0.0
 10
4.554674099621454
 20
-4.870850288343844
 30
0.0
 10
4.563012528278528
 20
-4.894433423819464
 30
0.0
 10
4.563012528278528
 20
-4.894433423819464
 30
0.0
 10
4.628247240793977
 20
-5.07138331153894
 30
0.0
 10
4.628247240793977
 20
-5.07138331153894
 30
0.0
 10
4.634379420573774
 20
-5.037269411406379
 30
0.0
 10
4.655338335035695
 20
-5.003119010203679
 30
0.0
 10
4.691050982039465
 20
-4.968932107930881
 30
0.0
 10
4.7267709292572
 20
-4.934825508012371
 30
0.0
 10
4.771971528093395
 20
-4.918642571977898
 30
0.0
 10
4.806122537035662
 20
-4.915503479947725
 30
0.0
 10
4.806122537035662
 20
-4.915503479947725
 30
0.0
 10
4.688773315264067
 20
-4.838542985254409
 30
0.0
 10
4.688773315264067
 20
-4.838542985254409
 30
0.0
  0
SPLINE
  5
6C
330
45
100
AcDbEntity
  8
Layer 1
370
     0
100
AcDbSpline
210
0.0
220
0.0
230
1.0
 70
    11
 71
     3
 72
    26
 73
    22
 74
     0
 42
0.0000000001
 43
0.0000000001
 12
1.0
 22
0.0
 32
0.0
 13
1.0
 23
0.0
 33
0.0
 40
0.0
 40
0.0
 40
0.0
 40
0.0
 40
1.0
 40
1.0
 40
1.0
 40
2.0
 40
2.0
 40
2.0
 40
3.0
 40
3.0
 40
3.0
 40
4.0
 40
4.0
 40
4.0
 40
5.0
 40
5.0
 40
5.0
 40
6.0
 40
6.0
 40
6.0
 40
7.0
 40
7.0
 40
7.0
 40
7.0
 10
4.901954542359438
 20
-4.596769406992153
 30
0.0
 10
4.864738660537088
 20
-4.581263752405903
 30
0.0
 10
4.823798073845587
 20
-4.552097187394148
 30
0.0
 10
4.795853462302653
 20
-4.510179358470307
 30
0.0
 10
4.767907635280456
 20
-4.468290730402537
 30
0.0
 10
4.756993815315152
 20
-4.427161324593309
 30
0.0
 10
4.763271999375446
 20
-4.386769240400402
 30
0.0
 10
4.735326780092919
 20
-4.411655670007045
 30
0.0
 10
4.708943806611438
 20
-4.436461797259451
 30
0.0
 10
4.684064677218834
 20
-4.46130442558193
 30
0.0
 10
4.646856090315926
 20
-4.498557417744665
 30
0.0
 10
4.628247240793977
 20
-4.528108684112453
 30
0.0
 10
4.628247240793977
 20
-4.549775719334686
 30
0.0
 10
4.628247240793977
 20
-4.562222584244927
 30
0.0
 10
4.634379420573774
 20
-4.577727561556432
 30
0.0
 10
4.646856090315926
 20
-4.596365685233587
 30
0.0
 10
4.65918554782618
 20
-4.614973930779885
 30
0.0
 10
4.671661613592631
 20
-4.622777859571215
 30
0.0
 10
4.684064677218834
 20
-4.61964606775507
 30
0.0
 10
4.684064677218834
 20
-4.61964606775507
 30
0.0
 10
4.901954542359438
 20
-4.596769406992153
 30
0.0
 10
4.901954542359438
 20
-4.596769406992153
 30
0.0
  0
SPLINE
  5
6D
330
45
100
AcDbEntity
  8
Layer 1
370
     0
100
AcDbSpline
210
0.0
220
0.0
230
1.0
 70
    11
 71
     3
 72
    23
 73
    19
 74
     0
 42
0.0000000001
 43
0.0000000001
 12
1.0
 22
0.0
 32
0.0
 13
1.0
 23
0.0
 33
0.0
 40
0.0
 40
0.0
 40
0.0
 40
0.0
 40
1.0
 40
1.0
 40
1.0
 40
2.0
 40
2.0
 40
2.0
 40
3.0
 40
3.0
 40
3.0
 40
4.0
 40
4.0
 40
4.0
 40
5.0
 40
5.0
 40
5.0
 40
6.0
 40
6.0
 40
6.0
 40
6.0
 10
4.842135843662036
 20
-4.939397844771393
 30
0.0
 10
4.812476040151043
 20
-4.922915900248982
 30
0.0
 10
4.744663753829172
 20
-4.960412758165274
 30
0.0
 10
4.707381560810366
 20
-4.999198795272971
 30
0.0
 10
4.670092067577571
 20
-5.038050534306914
 30
0.0
 10
4.651483822031196
 20
-5.080720285275143
 30
0.0
 10
4.651483822031196
 20
-5.127273750103982
 30
0.0
 10
4.651483822031196
 20
-5.121105069253972
 30
0.0
 10
4.680998587328935
 20
-5.209576363006691
 30
0.0
 10
4.739955115783965
 20
-5.392760633502272
 30
0.0
 10
4.761702453360385
 20
-5.302719793734519
 30
0.0
 10
4.807540497214934
 20
-5.234389790473099
 30
0.0
 10
4.877410845635318
 20
-5.18783632564426
 30
0.0
 10
4.947200891701489
 20
-5.141246359745284
 30
0.0
 10
5.028758882773748
 20
-5.119572024309049
 30
0.0
 10
5.130866608511647
 20
-5.121049738420134
 30
0.0
 10
5.130866608511647
 20
-5.121049738420134
 30
0.0
 10
4.842135843662036
 20
-4.939397844771393
 30
0.0
 10
4.842135843662036
 20
-4.939397844771393
 30
0.0
  0
SPLINE
  5
6E
330
45
100
AcDbEntity
  8
Layer 1
370
     0
100
AcDbSpline
210
0.0
220
0.0
230
1.0
 70
    11
 71
     3
 72
    26
 73
    22
 74
     0
 42
0.0000000001
 43
0.0000000001
 12
1.0
 22
0.0
 32
0.0
 13
1.0
 23
0.0
 33
0.0
 40
0.0
 40
0.0
 40
0.0
 40
0.0
 40
1.0
 40
1.0
 40
1.0
 40
2.0
 40
2.0
 40
2.0
 40
3.0
 40
3.0
 40
3.0
 40
4.0
 40
4.0
 40
4.0
 40
5.0
 40
5.0
 40
5.0
 40
6.0
 40
6.0
 40
6.0
 40
7.0
 40
7.0
 40
7.0
 40
7.0
 10
4.665286551311131
 20
-4.742899978646165
 30
0.0
 10
4.662726510016833
 20
-4.767647044490508
 30
0.0
 10
4.671640054426512
 20
-4.796375296534052
 30
0.0
 10
4.690171105179716
 20
-4.806964468393036
 30
0.0
 10
4.729092009560796
 20
-4.829204985182261
 30
0.0
 10
4.816023345910379
 20
-4.886702497168421
 30
0.0
 10
4.856445240229681
 20
-4.908369532390616
 30
0.0
 10
4.856445240229681
 20
-4.908369532390616
 30
0.0
 10
4.864362982260066
 20
-4.914444562761812
 30
0.0
 10
4.864362982260066
 20
-4.914444562761812
 30
0.0
 10
4.842622944897635
 20
-4.877198200950109
 30
0.0
 10
4.837890052612516
 20
-4.801140423870669
 30
0.0
 10
4.846890848692712
 20
-4.755606984876989
 30
0.0
 10
4.861251218167227
 20
-4.682960409888286
 30
0.0
 10
4.878057135359591
 20
-4.668921706547975
 30
0.0
 10
4.921544510298544
 20
-4.628536922569108
 30
0.0
 10
4.921544510298544
 20
-4.628536922569108
 30
0.0
 10
4.725982506142625
 20
-4.642918474434496
 30
0.0
 10
4.725982506142625
 20
-4.642918474434496
 30
0.0
 10
4.671288470080222
 20
-4.650815296264593
 30
0.0
 10
4.670051678647673
 20
-4.696837081059546
 30
0.0
 10
4.665286551311131
 20
-4.742899978646165
 30
0.0
  0
SPLINE
  5
6F
330
45
100
AcDbEntity
  8
Layer 1
370
     0
100
AcDbSpline
210
0.0
220
0.0
230
1.0
 70
    11
 71
     3
 72
    23
 73
    19
 74
     0
 42
0.0000000001
 43
0.0000000001
 12
1.0
 22
0.0
 32
0.0
 13
1.0
 23
0.0
 33
0.0
 40
0.0
 40
0.0
 40
0.0
 40
0.0
 40
1.0
 40
1.0
 40
1.0
 40
2.0
 40
2.0
 40
2.0
 40
3.0
 40
3.0
 40
3.0
 40
4.0
 40
4.0
 40
4.0
 40
5.0
 40
5.0
 40
5.0
 40
6.0
 40
6.0
 40
6.0
 40
6.0
 10
5.405960941376078
 20
-5.30425283867948
 30
0.0
 10
5.25696357315327
 20
-5.204940727101694
 30
0.0
 10
5.148241485698969
 20
-5.155218969386535
 30
0.0
 10
5.07994798350766
 20
-5.155218969386535
 30
0.0
 10
4.996105025445937
 20
-5.155218969386535
 30
0.0
 10
4.923175887349619
 20
-5.183981812639709
 30
0.0
 10
4.861080266864418
 20
-5.241376095293743
 30
0.0
 10
4.79891955227001
 20
-5.298872580944008
 30
0.0
 10
4.743544979972638
 20
-5.414991047849829
 30
0.0
 10
4.758636363470461
 20
-5.4532867079724
 30
0.0
 10
4.758636363470461
 20
-5.4532867079724
 30
0.0
 10
4.861080266864418
 20
-5.742053973892198
 30
0.0
 10
4.861080266864418
 20
-5.742053973892198
 30
0.0
 10
4.889025486147021
 20
-5.605459669295568
 30
0.0
 10
4.951909529746747
 20
-5.499124751826987
 30
0.0
 10
5.049717797235669
 20
-5.42302732084435
 30
0.0
 10
5.147533364938631
 20
-5.346995591787996
 30
0.0
 10
5.266227544749275
 20
-5.307391930709628
 30
0.0
 10
5.405960941376078
 20
-5.30425283867948
 30
0.0
  0
SPLINE
  5
70
330
45
100
AcDbEntity
  8
Layer 1
370
     0
100
AcDbSpline
210
0.0
220
0.0
230
1.0
 70
    11
 71
     3
 72
    29
 73
    25
 74
     0
 42
0.0000000001
 43
0.0000000001
 12
1.0
 22
0.0
 32
0.0
 13
1.0
 23
0.0
 33
0.0
 40
0.0
 40
0.0
 40
0.0
 40
0.0
 40
1.0
 40
1.0
 40
1.0
 40
2.0
 40
2.0
 40
2.0
 40
3.0
 40
3.0
 40
3.0
 40
4.0
 40
4.0
 40
4.0
 40
5.0
 40
5.0
 40
5.0
 40
6.0
 40
6.0
 40
6.0
 40
7.0
 40
7.0
 40
7.0
 40
8.0
 40
8.0
 40
8.0
 40
8.0
 10
5.13583842207274
 20
-4.568420465951046
 30
0.0
 10
5.017852976370275
 20
-4.503192374491896
 30
0.0
 10
4.95889583456738
 20
-4.394580469405721
 30
0.0
 10
4.95889583456738
 20
-4.242407508082629
 30
0.0
 10
4.95889583456738
 20
-4.220696671576257
 30
0.0
 10
4.961961924457278
 20
-4.194284497238678
 30
0.0
 10
4.96815980616341
 20
-4.163236686996103
 30
0.0
 10
4.934009404960736
 20
-4.20048967915875
 30
0.0
 10
4.899866303972076
 20
-4.236202326162521
 30
0.0
 10
4.865716512273997
 20
-4.27035272736522
 30
0.0
 10
4.825367619860698
 20
-4.31690619219402
 30
0.0
 10
4.805189828299262
 20
-4.3588240211179
 30
0.0
 10
4.805189828299262
 20
-4.396077013280546
 30
0.0
 10
4.805189828299262
 20
-4.448937863025801
 30
0.0
 10
4.826864163735536
 20
-4.493169859795229
 30
0.0
 10
4.870424540814661
 20
-4.528816126362295
 30
0.0
 10
4.913838913613366
 20
-4.564536752090513
 30
0.0
 10
4.937123681567678
 20
-4.593510713558203
 30
0.0
 10
4.993021420346773
 20
-4.58723915231907
 30
0.0
 10
4.993021420346773
 20
-4.58723915231907
 30
0.0
 10
5.031671897632072
 20
-4.583532942168404
 30
0.0
 10
5.031671897632072
 20
-4.583532942168404
 30
0.0
 10
5.031671897632072
 20
-4.583532942168404
 30
0.0
 10
5.13583842207274
 20
-4.568420465951046
 30
0.0
 10
5.13583842207274
 20
-4.568420465951046
 30
0.0
  0
SPLINE
  5
71
330
45
100
AcDbEntity
  8
Layer 1
370
     0
100
AcDbSpline
210
0.0
220
0.0
230
1.0
 70
    11
 71
     3
 72
    26
 73
    22
 74
     0
 42
0.0000000001
 43
0.0000000001
 12
1.0
 22
0.0
 32
0.0
 13
1.0
 23
0.0
 33
0.0
 40
0.0
 40
0.0
 40
0.0
 40
0.0
 40
1.0
 40
1.0
 40
1.0
 40
2.0
 40
2.0
 40
2.0
 40
3.0
 40
3.0
 40
3.0
 40
4.0
 40
4.0
 40
4.0
 40
5.0
 40
5.0
 40
5.0
 40
6.0
 40
6.0
 40
6.0
 40
7.0
 40
7.0
 40
7.0
 40
7.0
 10
4.940214586880807
 20
-4.959631635264738
 30
0.0
 10
4.940214586880807
 20
-4.959631635264738
 30
0.0
 10
5.107893202790162
 20
-5.062075538658708
 30
0.0
 10
5.107893202790162
 20
-5.062075538658708
 30
0.0
 10
5.076808891477437
 20
-5.00932419212375
 30
0.0
 10
5.061339737961362
 20
-4.948797449752861
 30
0.0
 10
5.061339737961362
 20
-4.880460814178201
 30
0.0
 10
5.061339737961362
 20
-4.762474755127869
 30
0.0
 10
5.107893202790162
 20
-4.670864369345016
 30
0.0
 10
5.201073134588139
 20
-4.605673458113819
 30
0.0
 10
5.201073134588139
 20
-4.605673458113819
 30
0.0
 10
5.182391886901592
 20
-4.605673458113819
 30
0.0
 10
5.182391886901592
 20
-4.605673458113819
 30
0.0
 10
4.971225896053334
 20
-4.605673458113819
 30
0.0
 10
4.865716512273997
 20
-4.667798279455079
 30
0.0
 10
4.865716512273997
 20
-4.791953019355383
 30
0.0
 10
4.865716512273997
 20
-4.85412164198087
 30
0.0
 10
4.86830136469833
 20
-4.912627636799142
 30
0.0
 10
4.924191803263384
 20
-4.946741536931742
 30
0.0
 10
4.924191803263384
 20
-4.946741536931742
 30
0.0
 10
4.940214586880807
 20
-4.959631635264738
 30
0.0
 10
4.940214586880807
 20
-4.959631635264738
 30
0.0
  0
SPLINE
  5
72
330
45
100
AcDbEntity
  8
Layer 1
370
     0
100
AcDbSpline
210
0.0
220
0.0
230
1.0
 70
    11
 71
     3
 72
    32
 73
    28
 74
     0
 42
0.0000000001
 43
0.0000000001
 12
1.0
 22
0.0
 32
0.0
 13
1.0
 23
0.0
 33
0.0
 40
0.0
 40
0.0
 40
0.0
 40
0.0
 40
1.0
 40
1.0
 40
1.0
 40
2.0
 40
2.0
 40
2.0
 40
3.0
 40
3.0
 40
3.0
 40
4.0
 40
4.0
 40
4.0
 40
5.0
 40
5.0
 40
5.0
 40
6.0
 40
6.0
 40
6.0
 40
7.0
 40
7.0
 40
7.0
 40
8.0
 40
8.0
 40
8.0
 40
9.0
 40
9.0
 40
9.0
 40
9.0
 10
5.843762076588746
 20
-5.602320577265345
 30
0.0
 10
5.822014739012325
 20
-5.577514450013015
 30
0.0
 10
5.766124932697999
 20
-5.534808197974573
 30
0.0
 10
5.67608346067939
 20
-5.474245622434333
 30
0.0
 10
5.586042620911611
 20
-5.413719547964243
 30
0.0
 10
5.522377454411298
 20
-5.375721933971085
 30
0.0
 10
5.485168263532791
 20
-5.360143277244573
 30
0.0
 10
5.460281833926097
 20
-5.347776714688494
 30
0.0
 10
5.421503097032428
 20
-5.341505830842177
 30
0.0
 10
5.36874445028348
 20
-5.341505830842177
 30
0.0
 10
5.241348415356621
 20
-5.341505830842177
 30
0.0
 10
5.130668573738427
 20
-5.380427077494901
 30
0.0
 10
5.037495942154465
 20
-5.471964461137595
 30
0.0
 10
4.944389624002143
 20
-5.563574846920422
 30
0.0
 10
4.86806919241101
 20
-5.758931018516326
 30
0.0
 10
4.879688512410717
 20
-5.807244885123408
 30
0.0
 10
4.879688512410717
 20
-5.807244885123408
 30
0.0
 10
5.019421909037495
 20
-6.217100801053523
 30
0.0
 10
5.019421909037495
 20
-6.217100801053523
 30
0.0
 10
5.028758882773748
 20
-6.040121712477988
 30
0.0
 10
5.094628713909211
 20
-5.888729874055444
 30
0.0
 10
5.217323411004776
 20
-5.763012888354094
 30
0.0
 10
5.339945105960194
 20
-5.63725210136858
 30
0.0
 10
5.489796599223761
 20
-5.574375357982817
 30
0.0
 10
5.666812188869344
 20
-5.574375357982817
 30
0.0
 10
5.72270992764849
 20
-5.574375357982817
 30
0.0
 10
5.781593453963271
 20
-5.583675830648922
 30
0.0
 10
5.843762076588746
 20
-5.602320577265345
 30
0.0
  0
SPLINE
  5
73
330
45
100
AcDbEntity
  8
Layer 1
370
     0
100
AcDbSpline
210
0.0
220
0.0
230
1.0
 70
    11
 71
     3
 72
    29
 73
    25
 74
     0
 42
0.0000000001
 43
0.0000000001
 12
1.0
 22
0.0
 32
0.0
 13
1.0
 23
0.0
 33
0.0
 40
0.0
 40
0.0
 40
0.0
 40
0.0
 40
1.0
 40
1.0
 40
1.0
 40
2.0
 40
2.0
 40
2.0
 40
3.0
 40
3.0
 40
3.0
 40
4.0
 40
4.0
 40
4.0
 40
5.0
 40
5.0
 40
5.0
 40
6.0
 40
6.0
 40
6.0
 40
7.0
 40
7.0
 40
7.0
 40
8.0
 40
8.0
 40
8.0
 40
8.0
 10
5.07994798350766
 20
-4.051455119296242
 30
0.0
 10
5.027116334618439
 20
-4.113579942207076
 30
0.0
 10
5.000813663491195
 20
-4.1834509796276
 30
0.0
 10
5.000813663491195
 20
-4.261015753628928
 30
0.0
 10
5.000813663491195
 20
-4.326243165930261
 30
0.0
 10
5.026408213858101
 20
-4.393755545221085
 30
0.0
 10
5.077663016518272
 20
-4.463625213484192
 30
0.0
 10
5.128852117252134
 20
-4.533488263455448
 30
0.0
 10
5.187093224732835
 20
-4.565354376061072
 30
0.0
 10
5.252254935107985
 20
-4.559083492214793
 30
0.0
 10
5.252254935107985
 20
-4.559083492214793
 30
0.0
 10
5.527086092456582
 20
-4.531138272932253
 30
0.0
 10
5.527086092456582
 20
-4.531138272932253
 30
0.0
 10
5.424642189062575
 20
-4.493885280769556
 30
0.0
 10
5.341514651975229
 20
-4.431826161354416
 30
0.0
 10
5.27792248761519
 20
-4.344850728318824
 30
0.0
 10
5.214257321114878
 20
-4.257986164809128
 30
0.0
 10
5.182391886901592
 20
-4.160170597106129
 30
0.0
 10
5.182391886901592
 20
-4.051455119296242
 30
0.0
 10
5.182391886901592
 20
-3.998697163116882
 30
0.0
 10
5.188597068821713
 20
-3.953640242162906
 30
0.0
 10
5.201073134588139
 20
-3.916394550214211
 30
0.0
 10
5.201073134588139
 20
-3.916394550214211
 30
0.0
 10
5.07994798350766
 20
-4.051455119296242
 30
0.0
 10
5.07994798350766
 20
-4.051455119296242
 30
0.0
  0
SPLINE
  5
74
330
45
100
AcDbEntity
  8
Layer 1
370
     0
100
AcDbSpline
210
0.0
220
0.0
230
1.0
 70
    11
 71
     3
 72
    26
 73
    22
 74
     0
 42
0.0000000001
 43
0.0000000001
 12
1.0
 22
0.0
 32
0.0
 13
1.0
 23
0.0
 33
0.0
 40
0.0
 40
0.0
 40
0.0
 40
0.0
 40
1.0
 40
1.0
 40
1.0
 40
2.0
 40
2.0
 40
2.0
 40
3.0
 40
3.0
 40
3.0
 40
4.0
 40
4.0
 40
4.0
 40
5.0
 40
5.0
 40
5.0
 40
6.0
 40
6.0
 40
6.0
 40
7.0
 40
7.0
 40
7.0
 40
7.0
 10
5.564295283335215
 20
-4.568420465951046
 30
0.0
 10
5.564295283335215
 20
-4.568420465951046
 30
0.0
 10
5.340799231000902
 20
-4.591700848472442
 30
0.0
 10
5.340799231000902
 20
-4.591700848472442
 30
0.0
 10
5.340799231000902
 20
-4.591700848472442
 30
0.0
 10
5.319167913603602
 20
-4.594122114027363
 30
0.0
 10
5.319167913603602
 20
-4.594122114027363
 30
0.0
 10
5.163892361320424
 20
-4.615898652459931
 30
0.0
 10
5.103257566885254
 20
-4.717453661498982
 30
0.0
 10
5.103257566885254
 20
-4.885096450083248
 30
0.0
 10
5.103257566885254
 20
-4.981371672627207
 30
0.0
 10
5.140539759904034
 20
-5.062075538658708
 30
0.0
 10
5.215045744229428
 20
-5.127273750103982
 30
0.0
 10
5.227375805715357
 20
-5.139713314800272
 30
0.0
 10
5.305013581856959
 20
-5.190968117460405
 30
0.0
 10
5.447878770299945
 20
-5.280979756372049
 30
0.0
 10
5.382717682489859
 20
-5.194070708420478
 30
0.0
 10
5.350070502810973
 20
-5.094692894916395
 30
0.0
 10
5.350070502810973
 20
-4.982904717572144
 30
0.0
 10
5.350070502810973
 20
-4.809064721026857
 30
0.0
 10
5.421503097032428
 20
-4.670864369345016
 30
0.0
 10
5.564295283335215
 20
-4.568420465951046
 30
0.0
  0
SPLINE
  5
75
330
45
100
AcDbEntity
  8
Layer 1
370
     0
100
AcDbSpline
210
0.0
220
0.0
230
1.0
 70
    11
 71
     3
 72
    29
 73
    25
 74
     0
 42
0.0000000001
 43
0.0000000001
 12
1.0
 22
0.0
 32
0.0
 13
1.0
 23
0.0
 33
0.0
 40
0.0
 40
0.0
 40
0.0
 40
0.0
 40
1.0
 40
1.0
 40
1.0
 40
2.0
 40
2.0
 40
2.0
 40
3.0
 40
3.0
 40
3.0
 40
4.0
 40
4.0
 40
4.0
 40
5.0
 40
5.0
 40
5.0
 40
6.0
 40
6.0
 40
6.0
 40
7.0
 40
7.0
 40
7.0
 40
8.0
 40
8.0
 40
8.0
 40
8.0
 10
5.26039800978626
 20
-3.868234383093699
 30
0.0
 10
5.229787264066923
 20
-3.917804626412741
 30
0.0
 10
5.229018353870717
 20
-4.011136727813171
 30
0.0
 10
5.229018353870717
 20
-4.051455119296242
 30
0.0
 10
5.229018353870717
 20
-4.17567625169238
 30
0.0
 10
5.273214469368743
 20
-4.282792292061458
 30
0.0
 10
5.361758145462873
 20
-4.372796630759151
 30
0.0
 10
5.450229439215566
 20
-4.462873971597042
 30
0.0
 10
5.556527855613997
 20
-4.507857890410807
 30
0.0
 10
5.680785428605557
 20
-4.507857890410807
 30
0.0
 10
5.680785428605557
 20
-4.507857890410807
 30
0.0
 10
5.857734686230009
 20
-4.498557417744665
 30
0.0
 10
5.857734686230009
 20
-4.498557417744665
 30
0.0
 10
5.730404353229409
 20
-4.442666979179572
 30
0.0
 10
5.627179326934942
 20
-4.358115900357562
 30
0.0
 10
5.548045006918528
 20
-4.244721675928089
 30
0.0
 10
5.468837684761815
 20
-4.131407753852942
 30
0.0
 10
5.42927052475357
 20
-4.004865843966892
 30
0.0
 10
5.42927052475357
 20
-3.86516894841015
 30
0.0
 10
5.42927052475357
 20
-3.772025517682323
 30
0.0
 10
5.447878770299945
 20
-3.686656814889728
 30
0.0
 10
5.485168263532791
 20
-3.609019038748165
 30
0.0
 10
5.485168263532791
 20
-3.609019038748165
 30
0.0
 10
5.26039800978626
 20
-3.868234383093699
 30
0.0
 10
5.26039800978626
 20
-3.868234383093699
 30
0.0
  0
SPLINE
  5
76
330
45
100
AcDbEntity
  8
Layer 1
370
     0
100
AcDbSpline
210
0.0
220
0.0
230
1.0
 70
    11
 71
     3
 72
    26
 73
    22
 74
     0
 42
0.0000000001
 43
0.0000000001
 12
1.0
 22
0.0
 32
0.0
 13
1.0
 23
0.0
 33
0.0
 40
0.0
 40
0.0
 40
0.0
 40
0.0
 40
1.0
 40
1.0
 40
1.0
 40
2.0
 40
2.0
 40
2.0
 40
3.0
 40
3.0
 40
3.0
 40
4.0
 40
4.0
 40
4.0
 40
5.0
 40
5.0
 40
5.0
 40
6.0
 40
6.0
 40
6.0
 40
7.0
 40
7.0
 40
7.0
 40
7.0
 10
5.662743593964781
 20
-4.567116847127282
 30
0.0
 10
5.484469019524213
 20
-4.646718776832611
 30
0.0
 10
5.387352695829779
 20
-4.772644991440264
 30
0.0
 10
5.387352695829779
 20
-4.982904717572144
 30
0.0
 10
5.387352695829779
 20
-5.153685924441523
 30
0.0
 10
5.444312134646907
 20
-5.27924515540768
 30
0.0
 10
5.590250713193856
 20
-5.369249494105373
 30
0.0
 10
5.590250713193856
 20
-5.369249494105373
 30
0.0
 10
5.606220412473046
 20
-5.383423659766057
 30
0.0
 10
5.606220412473046
 20
-5.383423659766057
 30
0.0
 10
5.606220412473046
 20
-5.383423659766057
 30
0.0
 10
5.745946508885734
 20
-5.4719307999035
 30
0.0
 10
5.745946508885734
 20
-5.4719307999035
 30
0.0
 10
5.683785186474324
 20
-5.36642146130493
 30
0.0
 10
5.652839579228056
 20
-5.253027236875507
 30
0.0
 10
5.652839579228056
 20
-5.131938586865127
 30
0.0
 10
5.652839579228056
 20
-4.849449505005723
 30
0.0
 10
5.794532846021966
 20
-4.630454343437943
 30
0.0
 10
6.049604830491944
 20
-4.527312882865039
 30
0.0
 10
6.007464084437894
 20
-4.544353006290154
 30
0.0
 10
5.737440202033692
 20
-4.533763834431157
 30
0.0
 10
5.662743593964781
 20
-4.567116847127282
 30
0.0
  0
HATCH
  5
77
330
45
100
AcDbEntity
  8
Layer 1
 62
    18
420
    65793
100
AcDbHatch
 10
0.0
 20
0.0
 30
0.0
210
0.0
220
0.0
230
1.0
  2
SOLID
 70
     1
 71
     0
 91
       46
 92
        1
 93
        1
 72
     4
 94
        3
 73
     0
 74
     1
 95
      191
 96
      187
 40
0.0
 40
0.0
 40
0.0
 40
0.0
 40
1.0
 40
1.0
 40
1.0
 40
2.0
 40
2.0
 40
2.0
 40
3.0
 40
3.0
 40
3.0
 40
4.0
 40
4.0
 40
4.0
 40
5.0
 40
5.0
 40
5.0
 40
6.0
 40
6.0
 40
6.0
 40
7.0
 40
7.0
 40
7.0
 40
8.0
 40
8.0
 40
8.0
 40
9.0
 40
9.0
 40
9.0
 40
10.0
 40
10.0
 40
10.0
 40
11.0
 40
11.0
 40
11.0
 40
12.0
 40
12.0
 40
12.0
 40
13.0
 40
13.0
 40
13.0
 40
14.0
 40
14.0
 40
14.0
 40
15.0
 40
15.0
 40
15.0
 40
16.0
 40
16.0
 40
16.0
 40
17.0
 40
17.0
 40
17.0
 40
18.0
 40
18.0
 40
18.0
 40
19.0
 40
19.0
 40
19.0
 40
20.0
 40
20.0
 40
20.0
 40
21.0
 40
21.0
 40
21.0
 40
22.0
 40
22.0
 40
22.0
 40
23.0
 40
23.0
 40
23.0
 40
24.0
 40
24.0
 40
24.0
 40
25.0
 40
25.0
 40
25.0
 40
26.0
 40
26.0
 40
26.0
 40
27.0
 40
27.0
 40
27.0
 40
28.0
 40
28.0
 40
28.0
 40
29.0
 40
29.0
 40
29.0
 40
30.0
 40
30.0
 40
30.0
 40
31.0
 40
31.0
 40
31.0
 40
32.0
 40
32.0
 40
32.0
 40
33.0
 40
33.0
 40
33.0
 40
34.0
 40
34.0
 40
34.0
 40
35.0
 40
35.0
 40
35.0
 40
36.0
 40
36.0
 40
36.0
 40
37.0
 40
37.0
 40
37.0
 40
38.0
 40
38.0
 40
38.0
 40
39.0
 40
39.0
 40
39.0
 40
40.0
 40
40.0
 40
40.0
 40
41.0
 40
41.0
 40
41.0
 40
42.0
 40
42.0
 40
42.0
 40
43.0
 40
43.0
 40
43.0
 40
44.0
 40
44.0
 40
44.0
 40
45.0
 40
45.0
 40
45.0
 40
46.0
 40
46.0
 40
46.0
 40
47.0
 40
47.0
 40
47.0
 40
48.0
 40
48.0
 40
48.0
 40
49.0
 40
49.0
 40
49.0
 40
50.0
 40
50.0
 40
50.0
 40
51.0
 40
51.0
 40
51.0
 40
52.0
 40
52.0
 40
52.0
 40
53.0
 40
53.0
 40
53.0
 40
54.0
 40
54.0
 40
54.0
 40
55.0
 40
55.0
 40
55.0
 40
56.0
 40
56.0
 40
56.0
 40
57.0
 40
57.0
 40
57.0
 40
58.0
 40
58.0
 40
58.0
 40
59.0
 40
59.0
 40
59.0
 40
60.0
 40
60.0
 40
60.0
 40
61.0
 40
61.0
 40
61.0
 40
62.0
 40
62.0
 40
62.0
 40
62.0
 10
2.241289964840474
 20
-4.482671555488663
 10
2.269242484337054
 20
-4.485803347304808
 10
2.833562625218317
 20
-4.503192374491896
 10
2.858441754610895
 20
-4.503192374491896
 10
3.026120370520314
 20
-4.503192374491896
 10
3.172832771753721
 20
-4.439600889289598
 10
3.298520556599012
 20
-4.31227055628901
 10
3.424281343584526
 20
-4.184984024572486
 10
3.487158086970263
 20
-4.035950155279541
 10
3.487158086970263
 20
-3.86516894841015
 10
3.487158086970263
 20
-3.737882416693714
 10
3.418864584778968
 20
-3.595045727007459
 10
3.282270280182337
 20
-3.436675586077627
 10
3.170482102838087
 20
-3.309418255217325
 10
2.945460783768858
 20
-3.061499758385379
 10
2.951621686408897
 20
-3.054801390500226
 10
2.95778258904895
 20
-3.04810302261511
 10
3.114591664272969
 20
-3.211609987728391
 10
3.366106509651217
 20
-3.478593415001506
 10
3.366106509651217
 20
-3.478593415001506
 10
3.39383021173867
 20
-3.507637507136324
 10
3.39383021173867
 20
-3.507637507136324
 10
3.516334489608577
 20
-3.628891741354475
 10
3.639294547223244
 20
-3.664908776978728
 10
3.803907073242688
 20
-3.664908776978728
 10
3.974579363894248
 20
-3.664908776978728
 10
4.11894050921953
 20
-3.605952948858228
 10
4.236999570410123
 20
-3.487930388737797
 10
4.354985629460442
 20
-3.369944329687415
 10
4.436338651482957
 20
-3.265903597500672
 10
4.442616835543276
 20
-3.095123102064122
 10
4.442616835543276
 20
-3.095123102064122
 10
4.446596015243282
 20
-3.054801390500226
 10
4.446596015243282
 20
-3.054801390500226
 10
4.446596015243282
 20
-2.964760550732434
 10
4.460492191066451
 20
-2.649285062373464
 10
4.465204260789581
 20
-2.649617611545283
 10
4.469916330512736
 20
-2.649950160717013
 10
4.480673414305707
 20
-2.919740130848557
 10
4.48381250633588
 20
-3.199170423032026
 10
4.486871296011814
 20
-3.227114930920468
 10
4.505552543698362
 20
-3.27217256326863
 10
4.53970294490101
 20
-3.334231682683733
 10
4.673158157467469
 20
-3.554734647268232
 10
4.871921694350754
 20
-3.664908776978728
 10
5.13583842207274
 20
-3.664908776978728
 10
5.275571818699543
 20
-3.664908776978728
 10
5.3810818119835
 20
-3.635431213085742
 10
5.452514406204904
 20
-3.576401682490465
 10
5.483525715377431
 20
-3.542295082571955
 10
5.530152182346556
 20
-3.494172071728005
 10
5.592240502617718
 20
-3.432039950172705
 10
5.682281342385472
 20
-3.335830429554865
 10
5.991434166728216
 20
-3.006254864557074
 10
6.002096418547808
 20
-3.012883561576384
 10
6.012758670367399
 20
-3.019512258595733
 10
5.863413286655789
 20
-3.181658830804079
 10
5.627513536759048
 20
-3.448649558291221
 10
5.627513536759048
 20
-3.448649558291221
 10
5.600029879196982
 20
-3.487624636411081
 10
5.600029879196982
 20
-3.487624636411081
 10
5.512350001806731
 20
-3.60024792719691
 10
5.471188353677462
 20
-3.716135079117243
 10
5.471188353677462
 20
-3.86516894841015
 10
5.471188353677462
 20
-3.983191508530631
 10
5.506127177994712
 20
-4.097293853720392
 10
5.575990226201055
 20
-4.207475983979394
 10
5.645853274407424
 20
-4.317723816164693
 10
5.733543445259556
 20
-4.396077013280546
 10
5.839127074778743
 20
-4.442666979179572
 10
5.910486032764993
 20
-4.473743990278257
 10
5.925927461123617
 20
-4.485053643879698
 10
5.97885317472128
 20
-4.484584808103364
 10
5.97885317472128
 20
-4.484584808103364
 10
6.565651040532051
 20
-4.442666979179572
 10
6.565651040532051
 20
-4.442666979179572
 10
6.565651040532051
 20
-4.442666979179572
 10
6.620577135073265
 20
-4.438431310436006
 10
6.620577135073265
 20
-4.449050459559152
 10
6.620577135073265
 20
-4.459669608682298
 10
6.422559621310206
 20
-4.473405554834799
 10
6.238588279213647
 20
-4.510637872683762
 10
6.238588279213647
 20
-4.510637872683762
 10
6.179299354124496
 20
-4.521754546137989
 10
6.179299354124496
 20
-4.521754546137989
 10
6.054236777764597
 20
-4.545840671955426
 10
5.923677519505721
 20
-4.62124481462624
 10
5.832140135863104
 20
-4.736062580790328
 10
5.740529750080238
 20
-4.850982549950686
 10
5.694757408151948
 20
-4.984510764657393
 10
5.694757408151948
 20
-5.136610723840236
 10
5.694757408151948
 20
-5.319831495405992
 10
5.742807416855612
 20
-5.451753663027514
 10
5.839127074778743
 20
-5.532457529059002
 10
5.891877787218694
 20
-5.579047494957901
 10
5.988839229880846
 20
-5.645844453274372
 10
6.130207874448969
 20
-5.732709699941879
 10
6.271437814950635
 20
-5.819684449819684
 10
6.43537018675248
 20
-5.928923255607767
 10
6.430553279810207
 20
-5.937641308013958
 10
6.425736372867934
 20
-5.946359360420147
 10
6.27153640537161
 20
-5.871849883363565
 10
6.013817587553427
 20
-5.71657433108031
 10
6.013817587553427
 20
-5.71657433108031
 10
5.972519817303388
 20
-5.689042484246935
 10
5.972519817303388
 20
-5.689042484246935
 10
5.860731639959163
 20
-5.630079304498268
 10
5.758349572512012
 20
-5.61162835014559
 10
5.662110851038151
 20
-5.61162835014559
 10
5.485168263532791
 20
-5.61162835014559
 10
5.338448562085331
 20
-5.676111140616436
 10
5.222032049050035
 20
-5.804930717277935
 10
5.105608235800774
 20
-5.933786795009458
 10
5.047367128320072
 20
-6.088273924178111
 10
5.047367128320072
 20
-6.268326402857509
 10
5.047367128320072
 20
-6.302433002776044
 10
5.072173255572452
 20
-6.394079889629033
 10
5.121865812431502
 20
-6.543077257851892
 10
5.171485367150277
 20
-6.692111127144799
 10
5.202161144607291
 20
-6.783965389722399
 10
5.195859006360757
 20
-6.78758155296815
 10
5.189556868114222
 20
-6.791197716213926
 10
5.096987298385733
 20
-6.558582912438068
 10
5.047367128320072
 20
-6.44063335445786
 10
4.98833759772477
 20
-6.310244231781351
 10
4.923175887349619
 20
-6.215494753968313
 10
4.851743293128164
 20
-6.156538225513284
 10
4.755497271440238
 20
-6.07897345151193
 10
4.629743784668764
 20
-6.040121712477988
 10
4.474541234525835
 20
-6.040121712477988
 10
4.223026960768834
 20
-6.040121712477988
 10
4.044442413865542
 20
-6.141032570927033
 10
3.938931831824258
 20
-6.342825086968938
 10
3.901642338591399
 20
-6.457672053989098
 10
3.769890175792536
 20
-6.840360276475899
 10
3.761989244318834
 20
-6.836516660746737
 10
3.754088312845131
 20
-6.832673045017676
 10
3.800767981212516
 20
-6.684343699423657
 10
3.850460538071527
 20
-6.529141149280652
 10
3.893874910870219
 20
-6.389407752653924
 10
3.918220476659409
 20
-6.317321987591791
 10
3.918220476659409
 20
-6.264563974782933
 10
3.918220476659409
 20
-6.093862430682596
 10
3.854307750861999
 20
-5.921347230313156
 10
3.73168605590667
 20
-5.795593743541657
 10
3.608998659025108
 20
-5.669869457626267
 10
3.462278957577622
 20
-5.60699271424053
 10
3.291534251778355
 20
-5.60699271424053
 10
3.189090348384373
 20
-5.60699271424053
 10
3.103531435397334
 20
-5.617416099669526
 10
2.998021442113441
 20
-5.676335478016022
 10
2.998021442113441
 20
-5.676335478016022
 10
2.974858267646166
 20
-5.690828372088137
 10
2.974858267646166
 20
-5.690828372088137
 10
2.825860899423358
 20
-5.793272275482145
 10
2.298309568998497
 20
-6.130810730438371
 10
2.290251496721743
 20
-6.128593006230757
 10
2.282193424445027
 20
-6.126375282023016
 10
2.313531879243164
 20
-6.105312623709273
 10
2.313531879243164
 20
-6.105312623709273
 10
2.391261894592642
 20
-6.042720824336988
 10
2.494739007047909
 20
-5.974072407415179
 10
2.62210584111862
 20
-5.890236749567546
 10
2.727652335472612
 20
-5.821972448232322
 10
2.824225651482064
 20
-5.740520928947186
 10
2.932940438722362
 20
-5.67218362547174
 10
2.976427813661252
 20
-5.644238406189187
 10
3.036953888131405
 20
-5.602320577265345
 10
3.114591664272969
 20
-5.546430138700265
 10
3.213897043412809
 20
-5.456425800002572
 10
3.26358903249579
 20
-5.319831495405992
 10
3.26358903249579
 20
-5.136610723840236
 10
3.26358903249579
 20
-5.006185100093616
 10
3.229438631293103
 20
-4.886702497168421
 10
3.161145129101833
 20
-4.777980409714132
 10
3.092844326696523
 20
-4.669331324400054
 10
2.998175713564188
 20
-4.596365685233587
 10
2.877050000157257
 20
-4.559083492214793
 10
2.877050000157257
 20
-4.559083492214793
 10
2.70944438638815
 20
-4.545110882573542
 10
2.70944438638815
 20
-4.545110882573542
 10
2.526150612682159
 20
-4.532737019803423
 10
1.880986267779778
 20
-4.476476160299322
 10
1.880395580791641
 20
-4.465940061486966
 10
1.879804893803478
 20
-4.455403962674609
 10
2.241289964840474
 20
-4.482671555488663
 10
2.241289964840474
 20
-4.482671555488663
 97
        0
 97
        0
 92
        1
 93
        1
 72
     4
 94
        3
 73
     0
 74
     1
 95
       26
 96
       22
 40
0.0
 40
0.0
 40
0.0
 40
0.0
 40
1.0
 40
1.0
 40
1.0
 40
2.0
 40
2.0
 40
2.0
 40
3.0
 40
3.0
 40
3.0
 40
4.0
 40
4.0
 40
4.0
 40
5.0
 40
5.0
 40
5.0
 40
6.0
 40
6.0
 40
6.0
 40
7.0
 40
7.0
 40
7.0
 40
7.0
 10
3.598946264314501
 20
-4.978239880811038
 10
3.598946264314501
 20
-4.900675106809709
 10
3.575629380722969
 20
-4.822219706697511
 10
3.52907591589413
 20
-4.743048885610935
 10
3.482522451065266
 20
-4.663878064524371
 10
3.425062466485024
 20
-4.614973930779885
 10
3.356768964293754
 20
-4.596365685233587
 10
3.269794214415911
 20
-4.577727561556432
 10
3.145602973445496
 20
-4.568420465951046
 10
2.984202541596447
 20
-4.568420465951046
 10
3.192156438274297
 20
-4.680172142225198
 10
3.296243459679923
 20
-4.868057080611593
 10
3.296243459679923
 20
-5.131938586865127
 10
3.296243459679923
 20
-5.259305420935814
 10
3.262019486480717
 20
-5.378788023861008
 10
3.193798986429682
 20
-5.490539700135135
 10
3.361404600198789
 20
-5.378788023861008
 10
3.454577231782663
 20
-5.312056108746623
 10
3.473185477329012
 20
-5.290280229038229
 10
3.55702113517667
 20
-5.209576363006691
 10
3.598946264314501
 20
-5.105599414667722
 10
3.598946264314501
 20
-4.978239880811038
 97
        0
 97
        0
 92
        1
 93
        1
 72
     4
 94
        3
 73
     0
 74
     1
 95
       32
 96
       28
 40
0.0
 40
0.0
 40
0.0
 40
0.0
 40
1.0
 40
1.0
 40
1.0
 40
2.0
 40
2.0
 40
2.0
 40
3.0
 40
3.0
 40
3.0
 40
4.0
 40
4.0
 40
4.0
 40
5.0
 40
5.0
 40
5.0
 40
6.0
 40
6.0
 40
6.0
 40
7.0
 40
7.0
 40
7.0
 40
8.0
 40
8.0
 40
8.0
 40
9.0
 40
9.0
 40
9.0
 40
9.0
 10
3.320077636286593
 20
-4.547673825378726
 10
3.43806369533695
 20
-4.547673825378726
 10
3.538420189844348
 20
-4.493169859795229
 10
3.622255847692031
 20
-4.407728154862373
 10
3.706091505539739
 20
-4.322359452069703
 10
3.748016634677583
 20
-4.219097924705086
 10
3.748016634677583
 20
-4.09800927469472
 10
3.748016634677583
 20
-4.014202817703108
 10
3.721560659055828
 20
-3.936601542631643
 10
3.66880931252087
 20
-3.86516894841015
 10
3.612918873955765
 20
-3.803073327924987
 10
3.555458889375586
 20
-3.742547253454821
 10
3.496495060706517
 20
-3.683517722859543
 10
3.515103881637994
 20
-3.745686345484993
 10
3.524448155824378
 20
-3.806212419955121
 10
3.524448155824378
 20
-3.86516894841015
 10
3.524448155824378
 20
-4.017305408663181
 10
3.473900898303289
 20
-4.157856429260656
 10
3.373092242850627
 20
-4.28663950485193
 10
3.272144883331546
 20
-4.415502882797556
 10
3.147173085551092
 20
-4.495491327854729
 10
2.998175713564188
 20
-4.526502637027243
 10
2.998175713564188
 20
-4.526502637027243
 10
3.249689424994737
 20
-4.545110882573542
 10
3.249689424994737
 20
-4.545110882573542
 10
3.249689424994737
 20
-4.545110882573542
 10
3.320077636286593
 20
-4.547673825378726
 10
3.320077636286593
 20
-4.547673825378726
 97
        0
 97
        0
 92
        1
 93
        1
 72
     4
 94
        3
 73
     0
 74
     1
 95
       32
 96
       28
 40
0.0
 40
0.0
 40
0.0
 40
0.0
 40
1.0
 40
1.0
 40
1.0
 40
2.0
 40
2.0
 40
2.0
 40
3.0
 40
3.0
 40
3.0
 40
4.0
 40
4.0
 40
4.0
 40
5.0
 40
5.0
 40
5.0
 40
6.0
 40
6.0
 40
6.0
 40
7.0
 40
7.0
 40
7.0
 40
8.0
 40
8.0
 40
8.0
 40
9.0
 40
9.0
 40
9.0
 40
9.0
 10
3.626891483597066
 20
-5.327525920986924
 10
3.54925370745549
 20
-5.327525920986924
 10
3.456073775657551
 20
-5.361749324329821
 10
3.347424690343498
 20
-5.430013625664994
 10
3.26358903249579
 20
-5.489043156260309
 10
3.179826376788368
 20
-5.549569230730413
 10
3.09598341872667
 20
-5.61162835014559
 10
3.164211218991782
 20
-5.589954014709317
 10
3.227876385492095
 20
-5.579047494957901
 10
3.286899185493553
 20
-5.579047494957901
 10
3.442101739557264
 20
-5.579047494957901
 10
3.592213099720563
 20
-5.625349348713674
 10
3.714908376966782
 20
-5.732458088868699
 10
3.837529491771495
 20
-5.839610630307915
 10
3.906997194086544
 20
-5.948861310378661
 10
3.928809648518394
 20
-6.100961269561518
 10
3.938080920328439
 20
-6.156851708126649
 10
3.940701977297648
 20
-6.195183721765892
 10
3.934504095591592
 20
-6.220063486824629
 10
4.027676727175528
 20
-5.931332721974993
 10
4.059153889612023
 20
-5.830701163588779
 10
4.06031841835977
 20
-5.808992338256277
 10
4.066468882685285
 20
-5.694337070176364
 10
4.024264033546741
 20
-5.548780807615862
 10
3.94356746772923
 20
-5.460273012793045
 10
3.862790599557532
 20
-5.371801719040364
 10
3.757280606273626
 20
-5.327525920986924
 10
3.626891483597066
 20
-5.327525920986924
 97
        0
 97
        0
 92
        1
 93
        1
 72
     4
 94
        3
 73
     0
 74
     1
 95
       29
 96
       25
 40
0.0
 40
0.0
 40
0.0
 40
0.0
 40
1.0
 40
1.0
 40
1.0
 40
2.0
 40
2.0
 40
2.0
 40
3.0
 40
3.0
 40
3.0
 40
4.0
 40
4.0
 40
4.0
 40
5.0
 40
5.0
 40
5.0
 40
6.0
 40
6.0
 40
6.0
 40
7.0
 40
7.0
 40
7.0
 40
8.0
 40
8.0
 40
8.0
 40
8.0
 10
3.901642338591399
 20
-4.237735371107444
 10
3.901642338591399
 20
-4.157038805289984
 10
3.859724509667545
 20
-4.07166280228335
 10
3.775961853960123
 20
-3.981585461445421
 10
3.785225825556141
 20
-4.021977545638328
 10
3.789934463601374
 20
-4.060756282531985
 10
3.789934463601374
 20
-4.09800927469472
 10
3.789934463601374
 20
-4.206724061935006
 10
3.757280606273626
 20
-4.30293358255277
 10
3.692118895898438
 20
-4.386769240400402
 10
3.626891483597066
 20
-4.470612198462113
 10
3.541486279734322
 20
-4.528108684112453
 10
3.435969559622574
 20
-4.559083492214793
 10
3.435969559622574
 20
-4.559083492214793
 10
3.533784553939363
 20
-4.568420465951046
 10
3.533784553939363
 20
-4.568420465951046
 10
3.533784553939363
 20
-4.568420465951046
 10
3.557585930115983
 20
-4.56892456745825
 10
3.557585930115983
 20
-4.56892456745825
 10
3.650692859773686
 20
-4.584502546832456
 10
3.715362777349772
 20
-4.549067598574348
 10
3.789934463601374
 20
-4.482263340043901
 10
3.864433147712791
 20
-4.415502882797556
 10
3.901642338591399
 20
-4.334017893865481
 10
3.901642338591399
 20
-4.237735371107444
 97
        0
 97
        0
 92
        1
 93
        1
 72
     4
 94
        3
 73
     0
 74
     1
 95
       23
 96
       19
 40
0.0
 40
0.0
 40
0.0
 40
0.0
 40
1.0
 40
1.0
 40
1.0
 40
2.0
 40
2.0
 40
2.0
 40
3.0
 40
3.0
 40
3.0
 40
4.0
 40
4.0
 40
4.0
 40
5.0
 40
5.0
 40
5.0
 40
6.0
 40
6.0
 40
6.0
 40
6.0
 10
3.789934463601374
 20
-4.908369532390616
 10
3.789934463601374
 20
-4.703481725602665
 10
3.673445527811193
 20
-4.602607368223807
 10
3.440604622141412
 20
-4.605673458113819
 10
3.567861953001789
 20
-4.686443026071515
 10
3.631527119502051
 20
-4.809064721026857
 10
3.631527119502051
 20
-4.973604244906065
 10
3.631527119502051
 20
-5.069886767664027
 10
3.603574600005534
 20
-5.163022898177852
 10
3.547684161440416
 20
-5.253027236875507
 10
3.547684161440416
 20
-5.253027236875507
 10
3.64086409323833
 20
-5.19247196154927
 10
3.64086409323833
 20
-5.19247196154927
 10
3.64086409323833
 20
-5.19247196154927
 10
3.652589247648128
 20
-5.183946044111179
 10
3.652589247648128
 20
-5.183946044111179
 10
3.755033151042122
 20
-5.11874783266593
 10
3.789934463601374
 20
-5.026428593581183
 10
3.789934463601374
 20
-4.908369532390616
 97
        0
 97
        0
 92
        1
 93
        1
 72
     4
 94
        3
 73
     0
 74
     1
 95
       32
 96
       28
 40
0.0
 40
0.0
 40
0.0
 40
0.0
 40
1.0
 40
1.0
 40
1.0
 40
2.0
 40
2.0
 40
2.0
 40
3.0
 40
3.0
 40
3.0
 40
4.0
 40
4.0
 40
4.0
 40
5.0
 40
5.0
 40
5.0
 40
6.0
 40
6.0
 40
6.0
 40
7.0
 40
7.0
 40
7.0
 40
8.0
 40
8.0
 40
8.0
 40
9.0
 40
9.0
 40
9.0
 40
9.0
 10
4.446596015243282
 20
-3.222442793827263
 10
4.412373209952597
 20
-3.362176901966235
 10
4.333172589957712
 20
-3.477877288967837
 10
4.209054351127571
 20
-3.569415377669821
 10
4.084863110157155
 20
-3.661025763452648
 10
3.949765349435286
 20
-3.706798105381027
 10
3.803907073242688
 20
-3.706798105381027
 10
3.710727141444724
 20
-3.706798105381027
 10
3.615984963845739
 20
-3.685123769944791
 10
3.519811944298062
 20
-3.641599893935752
 10
3.519811944298062
 20
-3.641599893935752
 10
3.664174255766827
 20
-3.795305900203807
 10
3.664174255766827
 20
-3.795305900203807
 10
3.664174255766827
 20
-3.795305900203807
 10
3.682590295289174
 20
-3.811398114507609
 10
3.682590295289174
 20
-3.811398114507609
 10
3.760093001696633
 20
-3.897651126477235
 10
3.842685810136332
 20
-3.925695022880328
 10
3.966877051106798
 20
-3.925695022880328
 10
4.084863110157155
 20
-3.925695022880328
 10
4.193512787994349
 20
-3.882244149011563
 10
4.292890008975241
 20
-3.795305900203807
 10
4.392202120553065
 20
-3.708396852252197
 10
4.44345692321311
 20
-3.607485993803152
 10
4.446596015243282
 20
-3.492566024642795
 10
4.446596015243282
 20
-3.492566024642795
 10
4.446596015243282
 20
-3.222442793827263
 10
4.446596015243282
 20
-3.222442793827263
 97
        0
 97
        0
 92
        1
 93
        1
 72
     4
 94
        3
 73
     0
 74
     1
 95
       32
 96
       28
 40
0.0
 40
0.0
 40
0.0
 40
0.0
 40
1.0
 40
1.0
 40
1.0
 40
2.0
 40
2.0
 40
2.0
 40
3.0
 40
3.0
 40
3.0
 40
4.0
 40
4.0
 40
4.0
 40
5.0
 40
5.0
 40
5.0
 40
6.0
 40
6.0
 40
6.0
 40
7.0
 40
7.0
 40
7.0
 40
8.0
 40
8.0
 40
8.0
 40
9.0
 40
9.0
 40
9.0
 40
9.0
 10
4.126355791655316
 20
-5.575209707103769
 10
4.130984127346273
 20
-5.551929324582412
 10
4.134555667016167
 20
-5.499876673871427
 10
4.134555667016167
 20
-5.490539700135135
 10
4.134555667016167
 20
-5.400528061223453
 10
4.102690232802855
 20
-5.322897585295878
 10
4.039098068442804
 20
-5.257699373850642
 10
3.975359899802255
 20
-5.19247196154927
 10
3.900080092790315
 20
-5.159891106361707
 10
3.813171627753743
 20
-5.159891106361707
 10
3.772822761929976
 20
-5.159891106361707
 10
3.724699751086038
 20
-5.178492051693979
 10
3.66880931252087
 20
-5.215781544926813
 10
3.62532193758198
 20
-5.246829355169425
 10
3.58183456264304
 20
-5.279446711427113
 10
3.538420189844348
 20
-5.313553311345559
 10
3.55075025133034
 20
-5.307391930709628
 10
3.569431499016875
 20
-5.30425283867948
 10
3.594311205795672
 20
-5.30425283867948
 10
3.737037112785982
 20
-5.30425283867948
 10
3.854307750861999
 20
-5.347776714688494
 10
3.945918136644877
 20
-5.434678462426101
 10
4.037455520287494
 20
-5.521616711233845
 10
4.080161772325823
 20
-5.634937933523057
 10
4.074029592546038
 20
-5.774634829079736
 10
4.074029592546038
 20
-5.774634829079736
 10
4.126355791655316
 20
-5.575209707103769
 10
4.126355791655316
 20
-5.575209707103769
 97
        0
 97
        0
 92
        1
 93
        1
 72
     4
 94
        3
 73
     0
 74
     1
 95
       26
 96
       22
 40
0.0
 40
0.0
 40
0.0
 40
0.0
 40
1.0
 40
1.0
 40
1.0
 40
2.0
 40
2.0
 40
2.0
 40
3.0
 40
3.0
 40
3.0
 40
4.0
 40
4.0
 40
4.0
 40
5.0
 40
5.0
 40
5.0
 40
6.0
 40
6.0
 40
6.0
 40
7.0
 40
7.0
 40
7.0
 40
7.0
 10
4.055348344859466
 20
-4.810597765971857
 10
4.055348344859466
 20
-4.745399554526544
 10
4.033188367617956
 20
-4.686200559178511
 10
3.971166335953828
 20
-4.636478801463353
 10
3.893527973131389
 20
-4.62410493869331
 10
3.796066643381247
 20
-4.61964606775507
 10
3.696754531803473
 20
-4.61964606775507
 10
3.696754531803473
 20
-4.61964606775507
 10
3.682781922162184
 20
-4.61964606775507
 10
3.682781922162184
 20
-4.61964606775507
 10
3.772822761929976
 20
-4.687976071016489
 10
3.817806680743741
 20
-4.782652546689278
 10
3.817806680743741
 20
-4.903741196699684
 10
3.817806680743741
 20
-4.9752102919912
 10
3.797628889182356
 20
-5.045036839127558
 10
3.757280606273626
 20
-5.113301140462694
 10
3.819376809830537
 20
-5.069886767664027
 10
3.926417212754422
 20
-5.003056850515362
 10
3.987050093742305
 20
-4.96050746034843
 10
4.047408373338549
 20
-4.918150772912441
 10
4.055348344859466
 20
-4.869590125595247
 10
4.055348344859466
 20
-4.810597765971857
 97
        0
 97
        0
 92
        1
 93
        1
 72
     4
 94
        3
 73
     0
 74
     1
 95
       23
 96
       19
 40
0.0
 40
0.0
 40
0.0
 40
0.0
 40
1.0
 40
1.0
 40
1.0
 40
2.0
 40
2.0
 40
2.0
 40
3.0
 40
3.0
 40
3.0
 40
4.0
 40
4.0
 40
4.0
 40
5.0
 40
5.0
 40
5.0
 40
6.0
 40
6.0
 40
6.0
 40
6.0
 10
3.921348632770597
 20
-4.596425527796415
 10
3.970968187489348
 20
-4.596425527796415
 10
4.052780787174192
 20
-4.543030969760214
 10
4.082352640473383
 20
-4.496701732924773
 10
4.114120156050364
 20
-4.446932625187476
 10
4.151182257556848
 20
-4.383397594033542
 10
4.117296907608053
 20
-4.350571161270712
 10
4.117296907608053
 20
-4.350571161270712
 10
3.93429619591921
 20
-4.153899713259812
 10
3.93429619591921
 20
-4.153899713259812
 10
3.940428375699083
 20
-4.194284497238678
 10
3.94356746772923
 20
-4.222229716521231
 10
3.94356746772923
 20
-4.237735371107444
 10
3.94356746772923
 20
-4.4054139870168
 10
3.858425178536966
 20
-4.521393039216402
 10
3.700083536363902
 20
-4.580356190610751
 10
3.700083536363902
 20
-4.580356190610751
 10
3.921348632770597
 20
-4.596425527796415
 10
3.921348632770597
 20
-4.596425527796415
 97
        0
 97
        0
 92
        1
 93
        1
 72
     4
 94
        3
 73
     0
 74
     1
 95
       26
 96
       22
 40
0.0
 40
0.0
 40
0.0
 40
0.0
 40
1.0
 40
1.0
 40
1.0
 40
2.0
 40
2.0
 40
2.0
 40
3.0
 40
3.0
 40
3.0
 40
4.0
 40
4.0
 40
4.0
 40
5.0
 40
5.0
 40
5.0
 40
6.0
 40
6.0
 40
6.0
 40
7.0
 40
7.0
 40
7.0
 40
7.0
 10
4.441887377198049
 20
-3.84652420179379
 10
4.441887377198049
 20
-3.84652420179379
 10
4.441887377198049
 20
-3.664908776978728
 10
4.441887377198049
 20
-3.664908776978728
 10
4.348780447540295
 20
-3.866774995495398
 10
4.191942649456109
 20
-3.967612851804157
 10
3.971513273926853
 20
-3.967612851804157
 10
3.903211884606485
 20
-3.967612851804157
 10
3.841116264121246
 20
-3.955246289248079
 10
3.785225825556141
 20
-3.930367159855463
 10
3.865929691587679
 20
-4.020444500693353
 10
3.909417066526556
 20
-4.067027166378302
 10
3.91562224844669
 20
-4.070093256268276
 10
3.962242001882613
 20
-4.107346248430935
 10
4.022767489671929
 20
-4.125954493977259
 10
4.097266173783282
 20
-4.125954493977259
 10
4.18110913184503
 20
-4.125954493977259
 10
4.259455028746907
 20
-4.098826898665392
 10
4.332457168983384
 20
-4.044469505045186
 10
4.405386307079754
 20
-3.990177813351313
 10
4.441887377198049
 20
-3.924161977935392
 10
4.441887377198049
 20
-3.84652420179379
 97
        0
 97
        0
 92
        1
 93
        1
 72
     4
 94
        3
 73
     0
 74
     1
 95
       32
 96
       28
 40
0.0
 40
0.0
 40
0.0
 40
0.0
 40
1.0
 40
1.0
 40
1.0
 40
2.0
 40
2.0
 40
2.0
 40
3.0
 40
3.0
 40
3.0
 40
4.0
 40
4.0
 40
4.0
 40
5.0
 40
5.0
 40
5.0
 40
6.0
 40
6.0
 40
6.0
 40
7.0
 40
7.0
 40
7.0
 40
8.0
 40
8.0
 40
8.0
 40
9.0
 40
9.0
 40
9.0
 40
9.0
 10
4.269581020042627
 20
-5.136610723840236
 10
4.269581020042627
 20
-5.0869546680514
 10
4.251687601025702
 20
-5.044255716226985
 10
4.216040655948202
 20
-5.008535769009224
 10
4.180320708730442
 20
-4.972859623075629
 10
4.137621756906065
 20
-4.95495949828963
 10
4.087929200047003
 20
-4.95495949828963
 10
4.087929200047003
 20
-4.95495949828963
 10
4.050712708954418
 20
-4.959631635264738
 10
4.050712708954418
 20
-4.959631635264738
 10
4.025833579561827
 20
-4.9752102919912
 10
3.941997921714169
 20
-5.032597274431193
 10
3.799198435197443
 20
-5.131938586865127
 10
3.89851113184611
 20
-5.131938586865127
 10
3.981565081722389
 20
-5.166124826727254
 10
4.048362040038834
 20
-5.234389790473099
 10
4.115093296429058
 20
-5.302719793734519
 10
4.153300091928978
 20
-5.375754940519806
 10
4.153300091928978
 20
-5.471964461137595
 10
4.153300091928978
 20
-5.493711798714066
 10
4.155947425089494
 20
-5.518556656534074
 10
4.151182257557164
 20
-5.537617326663293
 10
4.158594677858483
 20
-5.507967645458153
 10
4.180320708730442
 20
-5.4532867079724
 10
4.216040655948202
 20
-5.341505830842177
 10
4.251687601025702
 20
-5.229754154568064
 10
4.269581020042627
 20
-5.161489853232852
 10
4.269581020042627
 20
-5.136610723840236
 97
        0
 97
        0
 92
        1
 93
        1
 72
     4
 94
        3
 73
     0
 74
     1
 95
       26
 96
       22
 40
0.0
 40
0.0
 40
0.0
 40
0.0
 40
1.0
 40
1.0
 40
1.0
 40
2.0
 40
2.0
 40
2.0
 40
3.0
 40
3.0
 40
3.0
 40
4.0
 40
4.0
 40
4.0
 40
5.0
 40
5.0
 40
5.0
 40
6.0
 40
6.0
 40
6.0
 40
7.0
 40
7.0
 40
7.0
 40
7.0
 10
4.996105025445937
 20
-6.272954738548529
 10
4.996105025445937
 20
-6.272954738548529
 10
4.893661122052006
 20
-5.979559136937799
 10
4.893661122052006
 20
-5.979559136937799
 10
4.893661122052006
 20
-5.979559136937799
 10
4.880776198641721
 20
-5.950595029163979
 10
4.880776198641721
 20
-5.950595029163979
 10
4.813005498744133
 20
-5.800228788766364
 10
4.66500548532925
 20
-5.652698089724203
 10
4.447715213125901
 20
-5.652698089724203
 10
4.33592643757096
 20
-5.652698089724203
 10
4.142943488591047
 20
-5.71901760924402
 10
4.120583648055723
 20
-5.783971802815964
 10
4.08223746351953
 20
-5.895365508382762
 10
4.039646854747224
 20
-6.031152205405129
 10
3.96821426052577
 20
-6.257750854423774
 10
4.09553729331238
 20
-6.074603718977035
 10
4.252590117485814
 20
-6.006717640016505
 10
4.473093082070338
 20
-6.006717640016505
 10
4.720879703570668
 20
-6.006717640016505
 10
4.865716512273997
 20
-6.102253834033414
 10
4.996105025445937
 20
-6.272954738548529
 97
        0
 97
        0
 92
        1
 93
        1
 72
     4
 94
        3
 73
     0
 74
     1
 95
       23
 96
       19
 40
0.0
 40
0.0
 40
0.0
 40
0.0
 40
1.0
 40
1.0
 40
1.0
 40
2.0
 40
2.0
 40
2.0
 40
3.0
 40
3.0
 40
3.0
 40
4.0
 40
4.0
 40
4.0
 40
5.0
 40
5.0
 40
5.0
 40
6.0
 40
6.0
 40
6.0
 40
6.0
 10
4.288841491723436
 20
-4.586709693726132
 10
4.302113115906877
 20
-4.556816740774921
 10
4.299430663582446
 20
-4.546470840661969
 10
4.299430663582446
 20
-4.546470840661969
 10
4.299430663582446
 20
-4.546470840661969
 10
4.148528276657418
 20
-4.382104403639334
 10
4.148528276657418
 20
-4.382104403639334
 10
4.151594366547392
 20
-4.428687069324281
 10
4.135263787776428
 20
-4.47453241339282
 10
4.099624142912981
 20
-4.519516332206599
 10
4.063904195695171
 20
-4.564536752090513
 10
4.024264033546741
 20
-4.593299595343701
 10
3.980849660748036
 20
-4.605673458113819
 10
3.980849660748036
 20
-4.605673458113819
 10
4.249661296938484
 20
-4.632243052473705
 10
4.249661296938484
 20
-4.632243052473705
 10
4.260250727704172
 20
-4.621653960860827
 10
4.268318249604363
 20
-4.632935461876033
 10
4.288841491723436
 20
-4.586709693726132
 97
        0
 97
        0
 92
        1
 93
        1
 72
     4
 94
        3
 73
     0
 74
     1
 95
       29
 96
       25
 40
0.0
 40
0.0
 40
0.0
 40
0.0
 40
1.0
 40
1.0
 40
1.0
 40
2.0
 40
2.0
 40
2.0
 40
3.0
 40
3.0
 40
3.0
 40
4.0
 40
4.0
 40
4.0
 40
5.0
 40
5.0
 40
5.0
 40
6.0
 40
6.0
 40
6.0
 40
7.0
 40
7.0
 40
7.0
 40
8.0
 40
8.0
 40
8.0
 40
8.0
 10
4.446596015243282
 20
-4.11198188433597
 10
4.446596015243282
 20
-4.11198188433597
 10
4.446596015243282
 20
-3.981585461445421
 10
4.446596015243282
 20
-3.981585461445421
 10
4.372024328991655
 20
-4.105813203485998
 10
4.257177361971445
 20
-4.167872322901063
 10
4.101901809688343
 20
-4.167872322901063
 10
4.074029592546038
 20
-4.167872322901063
 10
4.036740099313167
 20
-4.163236686996103
 10
3.990186634484315
 20
-4.153899713259812
 10
3.990186634484315
 20
-4.153899713259812
 10
4.078665228451061
 20
-4.251707980748733
 10
4.078665228451061
 20
-4.251707980748733
 10
4.078665228451061
 20
-4.251707980748733
 10
4.103855005923681
 20
-4.27266422199735
 10
4.103855005923681
 20
-4.27266422199735
 10
4.138856228172232
 20
-4.298915138683784
 10
4.170202612093678
 20
-4.293633109886577
 10
4.232363934505075
 20
-4.293633109886577
 10
4.359621265365427
 20
-4.293633109886577
 10
4.437616660936606
 20
-4.231412781490134
 10
4.446366966498721
 20
-4.13140928935147
 10
4.446366966498721
 20
-4.13140928935147
 10
4.446596015243282
 20
-4.11198188433597
 10
4.446596015243282
 20
-4.11198188433597
 97
        0
 97
        0
 92
        1
 93
        1
 72
     4
 94
        3
 73
     0
 74
     1
 95
       20
 96
       16
 40
0.0
 40
0.0
 40
0.0
 40
0.0
 40
1.0
 40
1.0
 40
1.0
 40
2.0
 40
2.0
 40
2.0
 40
3.0
 40
3.0
 40
3.0
 40
4.0
 40
4.0
 40
4.0
 40
5.0
 40
5.0
 40
5.0
 40
5.0
 10
4.259191810518296
 20
-4.782609373117389
 10
4.282487988608056
 20
-4.762489946585346
 10
4.239115519458815
 20
-4.654442734096127
 10
4.198833530922053
 20
-4.651303642065955
 10
4.198833530922053
 20
-4.651303642065955
 10
4.022767489671929
 20
-4.642918474434496
 10
4.022767489671929
 20
-4.642918474434496
 10
4.063050070654413
 20
-4.683303934041342
 10
4.083293564142019
 20
-4.737668627875501
 10
4.083293564142019
 20
-4.805925628996672
 10
4.083293564142019
 20
-4.840149032339531
 10
4.075526136420838
 20
-4.874262262688439
 10
4.060056982904699
 20
-4.908369532390616
 10
4.060056982904699
 20
-4.908369532390616
 10
4.259191810518296
 20
-4.782609373117389
 10
4.259191810518296
 20
-4.782609373117389
 97
        0
 97
        0
 92
        1
 93
        1
 72
     4
 94
        3
 73
     0
 74
     1
 95
       23
 96
       19
 40
0.0
 40
0.0
 40
0.0
 40
0.0
 40
1.0
 40
1.0
 40
1.0
 40
2.0
 40
2.0
 40
2.0
 40
3.0
 40
3.0
 40
3.0
 40
4.0
 40
4.0
 40
4.0
 40
5.0
 40
5.0
 40
5.0
 40
6.0
 40
6.0
 40
6.0
 40
6.0
 10
4.085529392030909
 20
-4.930857779143227
 10
4.085529392030909
 20
-4.930857779143227
 10
4.101901809688343
 20
-4.931686415982186
 10
4.101901809688343
 20
-4.931686415982186
 10
4.145389184627208
 20
-4.9286203260923
 10
4.188095436665637
 20
-4.949579240554158
 10
4.230013859034772
 20
-4.994563159367923
 10
4.271931094513294
 20
-5.039583579251838
 10
4.289758217159058
 20
-5.085355921180192
 10
4.283553035238987
 20
-5.131938586865127
 10
4.283553035238987
 20
-5.131938586865127
 10
4.357613867225634
 20
-4.910186484381572
 10
4.357613867225634
 20
-4.910186484381572
 10
4.362614041832583
 20
-4.881435480391701
 10
4.2831183231195
 20
-4.795538392309254
 10
4.244366969915733
 20
-4.82178930899565
 10
4.244366969915733
 20
-4.82178930899565
 10
4.085529392030909
 20
-4.930857779143227
 10
4.085529392030909
 20
-4.930857779143227
 97
        0
 97
        0
 92
        1
 93
        1
 72
     4
 94
        3
 73
     0
 74
     1
 95
       26
 96
       22
 40
0.0
 40
0.0
 40
0.0
 40
0.0
 40
1.0
 40
1.0
 40
1.0
 40
2.0
 40
2.0
 40
2.0
 40
3.0
 40
3.0
 40
3.0
 40
4.0
 40
4.0
 40
4.0
 40
5.0
 40
5.0
 40
5.0
 40
6.0
 40
6.0
 40
6.0
 40
7.0
 40
7.0
 40
7.0
 40
7.0
 10
4.845211323210884
 20
-5.843211767598707
 10
4.845211323210884
 20
-5.843211767598707
 10
4.770240165347407
 20
-5.614453920694459
 10
4.770240165347407
 20
-5.614453920694459
 10
4.770240165347407
 20
-5.614453920694459
 10
4.753935025639217
 20
-5.579047494957901
 10
4.753935025639217
 20
-5.579047494957901
 10
4.704242468780194
 20
-5.442453190361321
 10
4.604930357202319
 20
-5.374115886885837
 10
4.455859986839338
 20
-5.374115886885837
 10
4.359621265365427
 20
-5.374115886885837
 10
4.230872739190216
 20
-5.418716863553123
 10
4.218391324863786
 20
-5.462586525717155
 10
4.199822628521638
 20
-5.527851760413569
 10
4.178828092869682
 20
-5.59976878180411
 10
4.138472509746899
 20
-5.730195056354104
 10
4.222315467808597
 20
-5.643286008402507
 10
4.344045693215776
 20
-5.627362542941354
 10
4.458892660235961
 20
-5.627362542941354
 10
4.635908249881519
 20
-5.627362542941354
 10
4.739628327786755
 20
-5.684870125425605
 10
4.845211323210884
 20
-5.843211767598707
 97
        0
 97
        0
 92
        1
 93
        1
 72
     4
 94
        3
 73
     0
 74
     1
 95
       29
 96
       25
 40
0.0
 40
0.0
 40
0.0
 40
0.0
 40
1.0
 40
1.0
 40
1.0
 40
2.0
 40
2.0
 40
2.0
 40
3.0
 40
3.0
 40
3.0
 40
4.0
 40
4.0
 40
4.0
 40
5.0
 40
5.0
 40
5.0
 40
6.0
 40
6.0
 40
6.0
 40
7.0
 40
7.0
 40
7.0
 40
8.0
 40
8.0
 40
8.0
 40
8.0
 10
4.327202310523893
 20
-4.322975309196977
 10
4.29640676990842
 20
-4.337887599145966
 10
4.168698768004775
 20
-4.334017893865481
 10
4.143819638612121
 20
-4.321578329169193
 10
4.143819638612121
 20
-4.321578329169193
 10
4.283553035238987
 20
-4.484584808103364
 10
4.283553035238987
 20
-4.484584808103364
 10
4.283553035238987
 20
-4.484584808103364
 10
4.297611771942406
 20
-4.495171992005933
 10
4.297611771942406
 20
-4.495171992005933
 10
4.316220017488679
 20
-4.510714147662333
 10
4.353192454250776
 20
-4.515652884413712
 10
4.37386443469821
 20
-4.508922472175022
 10
4.427616311722734
 20
-4.491421861050766
 10
4.442588869741813
 20
-4.491141872696529
 10
4.448867053802208
 20
-4.441420114981447
 10
4.448867053802208
 20
-4.441420114981447
 10
4.451231651148342
 20
-4.424022232563098
 10
4.451231651148342
 20
-4.424022232563098
 10
4.451231651148342
 20
-4.424022232563098
 10
4.451231651148342
 20
-4.223762761466193
 10
4.451231651148342
 20
-4.223762761466193
 10
4.42715460893338
 20
-4.278870114722786
 10
4.389896399008927
 20
-4.292616614175232
 10
4.327202310523893
 20
-4.322975309196977
 97
        0
 97
        0
 92
        1
 93
        1
 72
     4
 94
        3
 73
     0
 74
     1
 95
       23
 96
       19
 40
0.0
 40
0.0
 40
0.0
 40
0.0
 40
1.0
 40
1.0
 40
1.0
 40
2.0
 40
2.0
 40
2.0
 40
3.0
 40
3.0
 40
3.0
 40
4.0
 40
4.0
 40
4.0
 40
5.0
 40
5.0
 40
5.0
 40
6.0
 40
6.0
 40
6.0
 40
6.0
 10
4.716719140287195
 20
-5.462586525717155
 10
4.670092067577571
 20
-5.31052306376297
 10
4.643716998206476
 20
-5.228221109623127
 10
4.637511816129543
 20
-5.215781544926813
 10
4.594023837451029
 20
-5.122638114198986
 10
4.531928216965803
 20
-5.076048148299959
 10
4.451231651148342
 20
-5.076048148299959
 10
4.410876068025598
 20
-5.076048148299959
 10
4.330648044339518
 20
-5.106501265959675
 10
4.320170759922878
 20
-5.139330785368037
 10
4.297469257658021
 20
-5.210463664802609
 10
4.274360114129093
 20
-5.287338700941214
 10
4.230872739190216
 20
-5.423933005537807
 10
4.299166241381499
 20
-5.371145157932788
 10
4.375090418881554
 20
-5.355478440483428
 10
4.465204260789581
 20
-5.355478440483428
 10
4.561377280337208
 20
-5.355478440483428
 10
4.645212938184891
 20
-5.391227588557336
 10
4.716719140287195
 20
-5.462586525717155
 97
        0
 97
        0
 92
        1
 93
        1
 72
     4
 94
        3
 73
     0
 74
     1
 95
       14
 96
       10
 40
0.0
 40
0.0
 40
0.0
 40
0.0
 40
1.0
 40
1.0
 40
1.0
 40
2.0
 40
2.0
 40
2.0
 40
3.0
 40
3.0
 40
3.0
 40
3.0
 10
4.250972180051374
 20
-4.661563896678873
 10
4.275778307303755
 20
-4.686443026071515
 10
4.286619125128911
 20
-4.720556926204077
 10
4.283553035238987
 20
-4.764007800072843
 10
4.283553035238987
 20
-4.764007800072843
 10
4.445869445128614
 20
-4.668264180368864
 10
4.443002480504118
 20
-4.664149737104164
 10
4.440135515879673
 20
-4.660035293839542
 10
4.250972180051374
 20
-4.661563896678873
 10
4.250972180051374
 20
-4.661563896678873
 97
        0
 97
        0
 92
        1
 93
        1
 72
     4
 94
        3
 73
     0
 74
     1
 95
       14
 96
       10
 40
0.0
 40
0.0
 40
0.0
 40
0.0
 40
1.0
 40
1.0
 40
1.0
 40
2.0
 40
2.0
 40
2.0
 40
3.0
 40
3.0
 40
3.0
 40
3.0
 10
4.44979442407493
 20
-4.671970475903259
 10
4.445139407610567
 20
-4.668513517486063
 10
4.269581020042627
 20
-4.805925628996672
 10
4.269581020042627
 20
-4.805925628996672
 10
4.314769314123471
 20
-4.813451970184233
 10
4.346235018744639
 20
-4.841742236724309
 10
4.365576323420024
 20
-4.887641750804808
 10
4.365576323420024
 20
-4.887641750804808
 10
4.455497345403576
 20
-4.676205640706876
 10
4.44979442407493
 20
-4.671970475903259
 97
        0
 97
        0
 92
        1
 93
        1
 72
     4
 94
        3
 73
     0
 74
     1
 95
       14
 96
       10
 40
0.0
 40
0.0
 40
0.0
 40
0.0
 40
1.0
 40
1.0
 40
1.0
 40
2.0
 40
2.0
 40
2.0
 40
3.0
 40
3.0
 40
3.0
 40
3.0
 10
4.443002480504118
 20
-4.651881269236153
 10
4.445920147194607
 20
-4.64662533617622
 10
4.320835228257743
 20
-4.563748328975938
 10
4.320835228257743
 20
-4.563748328975938
 10
4.317703436441611
 20
-4.588634758582543
 10
4.298978399782578
 20
-4.613709047771104
 10
4.280370154236278
 20
-4.635419884277477
 10
4.280370154236278
 20
-4.635419884277477
 10
4.440084813813706
 20
-4.657137202296073
 10
4.443002480504118
 20
-4.651881269236153
 97
        0
 97
        0
 92
        1
 93
        1
 72
     4
 94
        3
 73
     0
 74
     1
 95
       14
 96
       10
 40
0.0
 40
0.0
 40
0.0
 40
0.0
 40
1.0
 40
1.0
 40
1.0
 40
2.0
 40
2.0
 40
2.0
 40
3.0
 40
3.0
 40
3.0
 40
3.0
 10
4.453268033942272
 20
-4.642375332352054
 10
4.457029974688364
 20
-4.639690372098079
 10
4.461407686104798
 20
-4.549466700704644
 10
4.455859986839338
 20
-4.493885280769556
 10
4.421717484138829
 20
-4.531138272932253
 10
4.381361302727884
 20
-4.546709629444712
 10
4.334807837899082
 20
-4.540475246668493
 10
4.356482173335254
 20
-4.565354376061072
 10
4.449506093196178
 20
-4.645060292606015
 10
4.453268033942272
 20
-4.642375332352054
 97
        0
 97
        0
 92
        1
 93
        1
 72
     4
 94
        3
 73
     0
 74
     1
 95
       17
 96
       13
 40
0.0
 40
0.0
 40
0.0
 40
0.0
 40
1.0
 40
1.0
 40
1.0
 40
2.0
 40
2.0
 40
2.0
 40
3.0
 40
3.0
 40
3.0
 40
4.0
 40
4.0
 40
4.0
 40
4.0
 10
4.469545323026422
 20
-4.643560062605123
 10
4.473126011419733
 20
-4.644729181629347
 10
4.53970294490101
 20
-4.590167803527556
 10
4.576985137919817
 20
-4.540475246668493
 10
4.576985137919817
 20
-4.540475246668493
 10
4.563012528278528
 20
-4.545110882573542
 10
4.563012528278528
 20
-4.545110882573542
 10
4.531928216965803
 20
-4.545110882573542
 10
4.503982997683326
 20
-4.534270064748423
 10
4.479176870430845
 20
-4.512530027385954
 10
4.476714108653773
 20
-4.56860081296198
 10
4.465964634633084
 20
-4.64239094358081
 10
4.469545323026422
 20
-4.643560062605123
 97
        0
 97
        0
 92
        1
 93
        1
 72
     4
 94
        3
 73
     0
 74
     1
 95
       26
 96
       22
 40
0.0
 40
0.0
 40
0.0
 40
0.0
 40
1.0
 40
1.0
 40
1.0
 40
2.0
 40
2.0
 40
2.0
 40
3.0
 40
3.0
 40
3.0
 40
4.0
 40
4.0
 40
4.0
 40
5.0
 40
5.0
 40
5.0
 40
6.0
 40
6.0
 40
6.0
 40
7.0
 40
7.0
 40
7.0
 40
7.0
 10
4.600302021511348
 20
-5.108665504557696
 10
4.600302021511348
 20
-5.108665504557696
 10
4.553675554542224
 20
-4.95495949828963
 10
4.553675554542224
 20
-4.95495949828963
 10
4.553675554542224
 20
-4.95495949828963
 10
4.546614542715739
 20
-4.937379599694635
 10
4.546614542715739
 20
-4.937379599694635
 10
4.536549136204131
 20
-4.90771313839726
 10
4.49945629167784
 20
-4.899766150750502
 10
4.459107408715984
 20
-4.899766150750502
 10
4.418751825593214
 20
-4.899766150750502
 10
4.383719271857546
 20
-4.921634021271643
 10
4.369746662216256
 20
-4.966617940085383
 10
4.355766752360978
 20
-5.011638359969222
 10
4.34415211184935
 20
-5.054373812863774
 10
4.334807837899082
 20
-5.094692894916395
 10
4.372024328991655
 20
-5.069886767664027
 10
4.413942157915471
 20
-5.057410701897601
 10
4.460568624884571
 20
-5.057410701897601
 10
4.516459063449625
 20
-5.057410701897601
 10
4.563012528278528
 20
-5.074515103355073
 10
4.600302021511348
 20
-5.108665504557696
 97
        0
 97
        0
 92
        1
 93
        1
 72
     4
 94
        3
 73
     0
 74
     1
 95
       17
 96
       13
 40
0.0
 40
0.0
 40
0.0
 40
0.0
 40
1.0
 40
1.0
 40
1.0
 40
2.0
 40
2.0
 40
2.0
 40
3.0
 40
3.0
 40
3.0
 40
4.0
 40
4.0
 40
4.0
 40
4.0
 10
4.460386075839627
 20
-4.675596977019634
 10
4.452943815458361
 20
-4.675596977019634
 10
4.414054496317021
 20
-4.821228712285246
 10
4.389247770933202
 20
-4.908137760236892
 10
4.407849314240113
 20
-4.892632105650629
 10
4.433760275136036
 20
-4.884754988912921
 10
4.461705494418664
 20
-4.884754988912921
 10
4.480313739964938
 20
-4.884754988912921
 10
4.506484883971805
 20
-4.888989476991823
 10
4.534430103254357
 20
-4.901356039547838
 10
4.534430103254357
 20
-4.901356039547838
 10
4.466795311438469
 20
-4.675596977019634
 10
4.460386075839627
 20
-4.675596977019634
 97
        0
 97
        0
 92
        1
 93
        1
 72
     4
 94
        3
 73
     0
 74
     1
 95
       17
 96
       13
 40
0.0
 40
0.0
 40
0.0
 40
0.0
 40
1.0
 40
1.0
 40
1.0
 40
2.0
 40
2.0
 40
2.0
 40
3.0
 40
3.0
 40
3.0
 40
4.0
 40
4.0
 40
4.0
 40
4.0
 10
4.476518796331093
 20
-4.664239584025077
 10
4.473823332504986
 20
-4.669488195667857
 10
4.589082513908402
 20
-4.745191579940537
 10
4.653109003673231
 20
-4.786845041860968
 10
4.653109003673231
 20
-4.786845041860968
 10
4.645371579920821
 20
-4.736743760333348
 10
4.652579545080344
 20
-4.706367335732643
 10
4.659991965381601
 20
-4.675129278748626
 10
4.661580341160465
 20
-4.66930523422617
 10
4.680111391913644
 20
-4.64918580769409
 10
4.680111391913644
 20
-4.64918580769409
 10
4.478458458076071
 20
-4.660462671451101
 10
4.476518796331093
 20
-4.664239584025077
 97
        0
 97
        0
 92
        1
 93
        1
 72
     4
 94
        3
 73
     0
 74
     1
 95
       20
 96
       16
 40
0.0
 40
0.0
 40
0.0
 40
0.0
 40
1.0
 40
1.0
 40
1.0
 40
2.0
 40
2.0
 40
2.0
 40
3.0
 40
3.0
 40
3.0
 40
4.0
 40
4.0
 40
4.0
 40
5.0
 40
5.0
 40
5.0
 40
5.0
 10
4.751588301961773
 20
-4.344217658155255
 10
4.646255081096519
 20
-4.365165091152954
 10
4.525762039325299
 20
-4.307070112182183
 10
4.478332137411194
 20
-4.229124289168441
 10
4.478332137411194
 20
-4.229124289168441
 10
4.479176870430845
 20
-4.433359206299428
 10
4.479176870430845
 20
-4.433359206299428
 10
4.479176870430845
 20
-4.476846581238292
 10
4.493527399269295
 20
-4.495017599571143
 10
4.54409204545363
 20
-4.510304585626853
 10
4.576594068969042
 20
-4.520130778782686
 10
4.609851953496369
 20
-4.507281141578965
 10
4.628247240793977
 20
-4.484584808103364
 10
4.628247240793977
 20
-4.484584808103364
 10
4.751588301961773
 20
-4.344217658155255
 10
4.751588301961773
 20
-4.344217658155255
 97
        0
 97
        0
 92
        1
 93
        1
 72
     4
 94
        3
 73
     0
 74
     1
 95
       26
 96
       22
 40
0.0
 40
0.0
 40
0.0
 40
0.0
 40
1.0
 40
1.0
 40
1.0
 40
2.0
 40
2.0
 40
2.0
 40
3.0
 40
3.0
 40
3.0
 40
4.0
 40
4.0
 40
4.0
 40
5.0
 40
5.0
 40
5.0
 40
6.0
 40
6.0
 40
6.0
 40
7.0
 40
7.0
 40
7.0
 40
7.0
 10
4.939016643865872
 20
-4.138787724090863
 10
4.89552926892697
 20
-4.148124697827117
 10
4.802275697824345
 20
-4.159673659693845
 10
4.772766645679742
 20
-4.156789316251168
 10
4.631930659955211
 20
-4.143023392834443
 10
4.571572380358955
 20
-4.101725622584405
 10
4.48851444414279
 20
-3.986257598420606
 10
4.48851444414279
 20
-3.986257598420606
 10
4.48381250633588
 20
-4.093373638789672
 10
4.48381250633588
 20
-4.093373638789672
 10
4.48381250633588
 20
-4.239341418192693
 10
4.539863181248544
 20
-4.294256263968805
 10
4.677879444575157
 20
-4.316048305546738
 10
4.720963522258292
 20
-4.32285105465457
 10
4.787651923084089
 20
-4.319287552170067
 10
4.80939926066056
 20
-4.28203456000742
 10
4.80939926066056
 20
-4.28203456000742
 10
4.823798073845587
 20
-4.265680590390035
 10
4.823798073845587
 20
-4.265680590390035
 10
4.823798073845587
 20
-4.265680590390035
 10
4.939016643865872
 20
-4.138787724090863
 10
4.939016643865872
 20
-4.138787724090863
 97
        0
 97
        0
 92
        1
 93
        1
 72
     4
 94
        3
 73
     0
 74
     1
 95
       29
 96
       25
 40
0.0
 40
0.0
 40
0.0
 40
0.0
 40
1.0
 40
1.0
 40
1.0
 40
2.0
 40
2.0
 40
2.0
 40
3.0
 40
3.0
 40
3.0
 40
4.0
 40
4.0
 40
4.0
 40
5.0
 40
5.0
 40
5.0
 40
6.0
 40
6.0
 40
6.0
 40
7.0
 40
7.0
 40
7.0
 40
8.0
 40
8.0
 40
8.0
 40
8.0
 10
5.36874445028348
 20
-3.669545113218292
 10
5.297238853921751
 20
-3.694424242610908
 10
5.219674079920398
 20
-3.706798105381027
 10
5.13583842207274
 20
-3.706798105381027
 10
5.002310207366059
 20
-3.706798105381027
 10
4.876549420380494
 20
-3.673465328149
 10
4.758636363470461
 20
-3.606668369832555
 10
4.6405779060969
 20
-3.539937113442268
 10
4.545099450711531
 20
-3.432489961096318
 10
4.484741171115249
 20
-3.288477223814096
 10
4.484741171115249
 20
-3.288477223814096
 10
4.48851444414279
 20
-3.473957779096496
 10
4.48851444414279
 20
-3.473957779096496
 10
4.48851444414279
 20
-3.595045727007459
 10
4.538133398885899
 20
-3.695957287555832
 10
4.637511816129543
 20
-3.776661153587371
 10
4.736823323967731
 20
-3.857438021759107
 10
4.847107657223129
 20
-3.897749803597814
 10
4.96815980616341
 20
-3.897749803597814
 10
5.117230176526467
 20
-3.897749803597814
 10
5.204778661584138
 20
-3.846917544375502
 10
5.288988773805486
 20
-3.757577537167309
 10
5.288988773805486
 20
-3.757577537167309
 10
5.36874445028348
 20
-3.669545113218292
 10
5.36874445028348
 20
-3.669545113218292
 97
        0
 97
        0
 92
        1
 93
        1
 72
     4
 94
        3
 73
     0
 74
     1
 95
       26
 96
       22
 40
0.0
 40
0.0
 40
0.0
 40
0.0
 40
1.0
 40
1.0
 40
1.0
 40
2.0
 40
2.0
 40
2.0
 40
3.0
 40
3.0
 40
3.0
 40
4.0
 40
4.0
 40
4.0
 40
5.0
 40
5.0
 40
5.0
 40
6.0
 40
6.0
 40
6.0
 40
7.0
 40
7.0
 40
7.0
 40
7.0
 10
5.145175395808994
 20
-3.911722413239077
 10
5.086145865213691
 20
-3.933498951671607
 10
5.027116334618439
 20
-3.944339769496726
 10
4.96815980616341
 20
-3.944339769496726
 10
4.744663753829172
 20
-3.944339769496726
 10
4.584686863714751
 20
-3.849663293823887
 10
4.48851444414279
 20
-3.66024464055215
 10
4.48851444414279
 20
-3.66024464055215
 10
4.48851444414279
 20
-3.827886755391394
 10
4.48851444414279
 20
-3.827886755391394
 10
4.48851444414279
 20
-3.911722413239077
 10
4.521810120329039
 20
-3.982410385630133
 10
4.588607078645408
 20
-4.039797368070089
 10
4.655338335035695
 20
-4.097293853720392
 10
4.730691144187858
 20
-4.125954493977259
 10
4.814526802035541
 20
-4.125954493977259
 10
4.889025486147021
 20
-4.125954493977259
 10
4.952617650507035
 20
-4.104280158540998
 10
5.005449299396231
 20
-4.060756282531985
 10
5.00851538928613
 20
-4.057690192642086
 10
5.055068854115007
 20
-4.008004935997026
 10
5.145175395808994
 20
-3.911722413239077
 97
        0
 97
        0
 92
        1
 93
        1
 72
     4
 94
        3
 73
     0
 74
     1
 95
       14
 96
       10
 40
0.0
 40
0.0
 40
0.0
 40
0.0
 40
1.0
 40
1.0
 40
1.0
 40
2.0
 40
2.0
 40
2.0
 40
3.0
 40
3.0
 40
3.0
 40
3.0
 10
4.660521423974589
 20
-4.812788512915492
 10
4.660521423974589
 20
-4.812788512915492
 10
4.473419120107969
 20
-4.6697954736865
 10
4.470376478704666
 20
-4.672315168864454
 10
4.466654884742007
 20
-4.675397123363521
 10
4.556218081163453
 20
-4.867852206582218
 10
4.556218081163453
 20
-4.867852206582218
 10
4.577893018651947
 20
-4.836840897409742
 10
4.626305320845631
 20
-4.815920976359532
 10
4.660521423974589
 20
-4.812788512915492
 97
        0
 97
        0
 92
        1
 93
        1
 72
     4
 94
        3
 73
     0
 74
     1
 95
       14
 96
       10
 40
0.0
 40
0.0
 40
0.0
 40
0.0
 40
1.0
 40
1.0
 40
1.0
 40
2.0
 40
2.0
 40
2.0
 40
3.0
 40
3.0
 40
3.0
 40
3.0
 10
4.645377421059619
 20
-4.627463042484578
 10
4.627236756771986
 20
-4.624439598436652
 10
4.604560926412483
 20
-4.603275490101042
 10
4.600025760340537
 20
-4.5586796903939
 10
4.600025760340537
 20
-4.5586796903939
 10
4.474575343437133
 20
-4.649790691282141
 10
4.477769671175085
 20
-4.654255811404154
 10
4.480963998913138
 20
-4.658720931526154
 10
4.645377421059619
 20
-4.627463042484578
 10
4.645377421059619
 20
-4.627463042484578
 97
        0
 97
        0
 92
        1
 93
        1
 72
     4
 94
        3
 73
     0
 74
     1
 95
       20
 96
       16
 40
0.0
 40
0.0
 40
0.0
 40
0.0
 40
1.0
 40
1.0
 40
1.0
 40
2.0
 40
2.0
 40
2.0
 40
3.0
 40
3.0
 40
3.0
 40
4.0
 40
4.0
 40
4.0
 40
5.0
 40
5.0
 40
5.0
 40
5.0
 10
4.688773315264067
 20
-4.838542985254409
 10
4.64613328207166
 20
-4.816428295480856
 10
4.554674099621454
 20
-4.870850288343844
 10
4.563012528278528
 20
-4.894433423819464
 10
4.563012528278528
 20
-4.894433423819464
 10
4.628247240793977
 20
-5.07138331153894
 10
4.628247240793977
 20
-5.07138331153894
 10
4.634379420573774
 20
-5.037269411406379
 10
4.655338335035695
 20
-5.003119010203679
 10
4.691050982039465
 20
-4.968932107930881
 10
4.7267709292572
 20
-4.934825508012371
 10
4.771971528093395
 20
-4.918642571977898
 10
4.806122537035662
 20
-4.915503479947725
 10
4.806122537035662
 20
-4.915503479947725
 10
4.688773315264067
 20
-4.838542985254409
 10
4.688773315264067
 20
-4.838542985254409
 97
        0
 97
        0
 92
        1
 93
        1
 72
     4
 94
        3
 73
     0
 74
     1
 95
       26
 96
       22
 40
0.0
 40
0.0
 40
0.0
 40
0.0
 40
1.0
 40
1.0
 40
1.0
 40
2.0
 40
2.0
 40
2.0
 40
3.0
 40
3.0
 40
3.0
 40
4.0
 40
4.0
 40
4.0
 40
5.0
 40
5.0
 40
5.0
 40
6.0
 40
6.0
 40
6.0
 40
7.0
 40
7.0
 40
7.0
 40
7.0
 10
4.901954542359438
 20
-4.596769406992153
 10
4.864738660537088
 20
-4.581263752405903
 10
4.823798073845587
 20
-4.552097187394148
 10
4.795853462302653
 20
-4.510179358470307
 10
4.767907635280456
 20
-4.468290730402537
 10
4.756993815315152
 20
-4.427161324593309
 10
4.763271999375446
 20
-4.386769240400402
 10
4.735326780092919
 20
-4.411655670007045
 10
4.708943806611438
 20
-4.436461797259451
 10
4.684064677218834
 20
-4.46130442558193
 10
4.646856090315926
 20
-4.498557417744665
 10
4.628247240793977
 20
-4.528108684112453
 10
4.628247240793977
 20
-4.549775719334686
 10
4.628247240793977
 20
-4.562222584244927
 10
4.634379420573774
 20
-4.577727561556432
 10
4.646856090315926
 20
-4.596365685233587
 10
4.65918554782618
 20
-4.614973930779885
 10
4.671661613592631
 20
-4.622777859571215
 10
4.684064677218834
 20
-4.61964606775507
 10
4.684064677218834
 20
-4.61964606775507
 10
4.901954542359438
 20
-4.596769406992153
 10
4.901954542359438
 20
-4.596769406992153
 97
        0
 97
        0
 92
        1
 93
        1
 72
     4
 94
        3
 73
     0
 74
     1
 95
       23
 96
       19
 40
0.0
 40
0.0
 40
0.0
 40
0.0
 40
1.0
 40
1.0
 40
1.0
 40
2.0
 40
2.0
 40
2.0
 40
3.0
 40
3.0
 40
3.0
 40
4.0
 40
4.0
 40
4.0
 40
5.0
 40
5.0
 40
5.0
 40
6.0
 40
6.0
 40
6.0
 40
6.0
 10
4.842135843662036
 20
-4.939397844771393
 10
4.812476040151043
 20
-4.922915900248982
 10
4.744663753829172
 20
-4.960412758165274
 10
4.707381560810366
 20
-4.999198795272971
 10
4.670092067577571
 20
-5.038050534306914
 10
4.651483822031196
 20
-5.080720285275143
 10
4.651483822031196
 20
-5.127273750103982
 10
4.651483822031196
 20
-5.121105069253972
 10
4.680998587328935
 20
-5.209576363006691
 10
4.739955115783965
 20
-5.392760633502272
 10
4.761702453360385
 20
-5.302719793734519
 10
4.807540497214934
 20
-5.234389790473099
 10
4.877410845635318
 20
-5.18783632564426
 10
4.947200891701489
 20
-5.141246359745284
 10
5.028758882773748
 20
-5.119572024309049
 10
5.130866608511647
 20
-5.121049738420134
 10
5.130866608511647
 20
-5.121049738420134
 10
4.842135843662036
 20
-4.939397844771393
 10
4.842135843662036
 20
-4.939397844771393
 97
        0
 97
        0
 92
        1
 93
        1
 72
     4
 94
        3
 73
     0
 74
     1
 95
       26
 96
       22
 40
0.0
 40
0.0
 40
0.0
 40
0.0
 40
1.0
 40
1.0
 40
1.0
 40
2.0
 40
2.0
 40
2.0
 40
3.0
 40
3.0
 40
3.0
 40
4.0
 40
4.0
 40
4.0
 40
5.0
 40
5.0
 40
5.0
 40
6.0
 40
6.0
 40
6.0
 40
7.0
 40
7.0
 40
7.0
 40
7.0
 10
4.665286551311131
 20
-4.742899978646165
 10
4.662726510016833
 20
-4.767647044490508
 10
4.671640054426512
 20
-4.796375296534052
 10
4.690171105179716
 20
-4.806964468393036
 10
4.729092009560796
 20
-4.829204985182261
 10
4.816023345910379
 20
-4.886702497168421
 10
4.856445240229681
 20
-4.908369532390616
 10
4.856445240229681
 20
-4.908369532390616
 10
4.864362982260066
 20
-4.914444562761812
 10
4.864362982260066
 20
-4.914444562761812
 10
4.842622944897635
 20
-4.877198200950109
 10
4.837890052612516
 20
-4.801140423870669
 10
4.846890848692712
 20
-4.755606984876989
 10
4.861251218167227
 20
-4.682960409888286
 10
4.878057135359591
 20
-4.668921706547975
 10
4.921544510298544
 20
-4.628536922569108
 10
4.921544510298544
 20
-4.628536922569108
 10
4.725982506142625
 20
-4.642918474434496
 10
4.725982506142625
 20
-4.642918474434496
 10
4.671288470080222
 20
-4.650815296264593
 10
4.670051678647673
 20
-4.696837081059546
 10
4.665286551311131
 20
-4.742899978646165
 97
        0
 97
        0
 92
        1
 93
        1
 72
     4
 94
        3
 73
     0
 74
     1
 95
       23
 96
       19
 40
0.0
 40
0.0
 40
0.0
 40
0.0
 40
1.0
 40
1.0
 40
1.0
 40
2.0
 40
2.0
 40
2.0
 40
3.0
 40
3.0
 40
3.0
 40
4.0
 40
4.0
 40
4.0
 40
5.0
 40
5.0
 40
5.0
 40
6.0
 40
6.0
 40
6.0
 40
6.0
 10
5.405960941376078
 20
-5.30425283867948
 10
5.25696357315327
 20
-5.204940727101694
 10
5.148241485698969
 20
-5.155218969386535
 10
5.07994798350766
 20
-5.155218969386535
 10
4.996105025445937
 20
-5.155218969386535
 10
4.923175887349619
 20
-5.183981812639709
 10
4.861080266864418
 20
-5.241376095293743
 10
4.79891955227001
 20
-5.298872580944008
 10
4.743544979972638
 20
-5.414991047849829
 10
4.758636363470461
 20
-5.4532867079724
 10
4.758636363470461
 20
-5.4532867079724
 10
4.861080266864418
 20
-5.742053973892198
 10
4.861080266864418
 20
-5.742053973892198
 10
4.889025486147021
 20
-5.605459669295568
 10
4.951909529746747
 20
-5.499124751826987
 10
5.049717797235669
 20
-5.42302732084435
 10
5.147533364938631
 20
-5.346995591787996
 10
5.266227544749275
 20
-5.307391930709628
 10
5.405960941376078
 20
-5.30425283867948
 97
        0
 97
        0
 92
        1
 93
        1
 72
     4
 94
        3
 73
     0
 74
     1
 95
       29
 96
       25
 40
0.0
 40
0.0
 40
0.0
 40
0.0
 40
1.0
 40
1.0
 40
1.0
 40
2.0
 40
2.0
 40
2.0
 40
3.0
 40
3.0
 40
3.0
 40
4.0
 40
4.0
 40
4.0
 40
5.0
 40
5.0
 40
5.0
 40
6.0
 40
6.0
 40
6.0
 40
7.0
 40
7.0
 40
7.0
 40
8.0
 40
8.0
 40
8.0
 40
8.0
 10
5.13583842207274
 20
-4.568420465951046
 10
5.017852976370275
 20
-4.503192374491896
 10
4.95889583456738
 20
-4.394580469405721
 10
4.95889583456738
 20
-4.242407508082629
 10
4.95889583456738
 20
-4.220696671576257
 10
4.961961924457278
 20
-4.194284497238678
 10
4.96815980616341
 20
-4.163236686996103
 10
4.934009404960736
 20
-4.20048967915875
 10
4.899866303972076
 20
-4.236202326162521
 10
4.865716512273997
 20
-4.27035272736522
 10
4.825367619860698
 20
-4.31690619219402
 10
4.805189828299262
 20
-4.3588240211179
 10
4.805189828299262
 20
-4.396077013280546
 10
4.805189828299262
 20
-4.448937863025801
 10
4.826864163735536
 20
-4.493169859795229
 10
4.870424540814661
 20
-4.528816126362295
 10
4.913838913613366
 20
-4.564536752090513
 10
4.937123681567678
 20
-4.593510713558203
 10
4.993021420346773
 20
-4.58723915231907
 10
4.993021420346773
 20
-4.58723915231907
 10
5.031671897632072
 20
-4.583532942168404
 10
5.031671897632072
 20
-4.583532942168404
 10
5.031671897632072
 20
-4.583532942168404
 10
5.13583842207274
 20
-4.568420465951046
 10
5.13583842207274
 20
-4.568420465951046
 97
        0
 97
        0
 92
        1
 93
        1
 72
     4
 94
        3
 73
     0
 74
     1
 95
       26
 96
       22
 40
0.0
 40
0.0
 40
0.0
 40
0.0
 40
1.0
 40
1.0
 40
1.0
 40
2.0
 40
2.0
 40
2.0
 40
3.0
 40
3.0
 40
3.0
 40
4.0
 40
4.0
 40
4.0
 40
5.0
 40
5.0
 40
5.0
 40
6.0
 40
6.0
 40
6.0
 40
7.0
 40
7.0
 40
7.0
 40
7.0
 10
4.940214586880807
 20
-4.959631635264738
 10
4.940214586880807
 20
-4.959631635264738
 10
5.107893202790162
 20
-5.062075538658708
 10
5.107893202790162
 20
-5.062075538658708
 10
5.076808891477437
 20
-5.00932419212375
 10
5.061339737961362
 20
-4.948797449752861
 10
5.061339737961362
 20
-4.880460814178201
 10
5.061339737961362
 20
-4.762474755127869
 10
5.107893202790162
 20
-4.670864369345016
 10
5.201073134588139
 20
-4.605673458113819
 10
5.201073134588139
 20
-4.605673458113819
 10
5.182391886901592
 20
-4.605673458113819
 10
5.182391886901592
 20
-4.605673458113819
 10
4.971225896053334
 20
-4.605673458113819
 10
4.865716512273997
 20
-4.667798279455079
 10
4.865716512273997
 20
-4.791953019355383
 10
4.865716512273997
 20
-4.85412164198087
 10
4.86830136469833
 20
-4.912627636799142
 10
4.924191803263384
 20
-4.946741536931742
 10
4.924191803263384
 20
-4.946741536931742
 10
4.940214586880807
 20
-4.959631635264738
 10
4.940214586880807
 20
-4.959631635264738
 97
        0
 97
        0
 92
        1
 93
        1
 72
     4
 94
        3
 73
     0
 74
     1
 95
       32
 96
       28
 40
0.0
 40
0.0
 40
0.0
 40
0.0
 40
1.0
 40
1.0
 40
1.0
 40
2.0
 40
2.0
 40
2.0
 40
3.0
 40
3.0
 40
3.0
 40
4.0
 40
4.0
 40
4.0
 40
5.0
 40
5.0
 40
5.0
 40
6.0
 40
6.0
 40
6.0
 40
7.0
 40
7.0
 40
7.0
 40
8.0
 40
8.0
 40
8.0
 40
9.0
 40
9.0
 40
9.0
 40
9.0
 10
5.843762076588746
 20
-5.602320577265345
 10
5.822014739012325
 20
-5.577514450013015
 10
5.766124932697999
 20
-5.534808197974573
 10
5.67608346067939
 20
-5.474245622434333
 10
5.586042620911611
 20
-5.413719547964243
 10
5.522377454411298
 20
-5.375721933971085
 10
5.485168263532791
 20
-5.360143277244573
 10
5.460281833926097
 20
-5.347776714688494
 10
5.421503097032428
 20
-5.341505830842177
 10
5.36874445028348
 20
-5.341505830842177
 10
5.241348415356621
 20
-5.341505830842177
 10
5.130668573738427
 20
-5.380427077494901
 10
5.037495942154465
 20
-5.471964461137595
 10
4.944389624002143
 20
-5.563574846920422
 10
4.86806919241101
 20
-5.758931018516326
 10
4.879688512410717
 20
-5.807244885123408
 10
4.879688512410717
 20
-5.807244885123408
 10
5.019421909037495
 20
-6.217100801053523
 10
5.019421909037495
 20
-6.217100801053523
 10
5.028758882773748
 20
-6.040121712477988
 10
5.094628713909211
 20
-5.888729874055444
 10
5.217323411004776
 20
-5.763012888354094
 10
5.339945105960194
 20
-5.63725210136858
 10
5.489796599223761
 20
-5.574375357982817
 10
5.666812188869344
 20
-5.574375357982817
 10
5.72270992764849
 20
-5.574375357982817
 10
5.781593453963271
 20
-5.583675830648922
 10
5.843762076588746
 20
-5.602320577265345
 97
        0
 97
        0
 92
        1
 93
        1
 72
     4
 94
        3
 73
     0
 74
     1
 95
       29
 96
       25
 40
0.0
 40
0.0
 40
0.0
 40
0.0
 40
1.0
 40
1.0
 40
1.0
 40
2.0
 40
2.0
 40
2.0
 40
3.0
 40
3.0
 40
3.0
 40
4.0
 40
4.0
 40
4.0
 40
5.0
 40
5.0
 40
5.0
 40
6.0
 40
6.0
 40
6.0
 40
7.0
 40
7.0
 40
7.0
 40
8.0
 40
8.0
 40
8.0
 40
8.0
 10
5.07994798350766
 20
-4.051455119296242
 10
5.027116334618439
 20
-4.113579942207076
 10
5.000813663491195
 20
-4.1834509796276
 10
5.000813663491195
 20
-4.261015753628928
 10
5.000813663491195
 20
-4.326243165930261
 10
5.026408213858101
 20
-4.393755545221085
 10
5.077663016518272
 20
-4.463625213484192
 10
5.128852117252134
 20
-4.533488263455448
 10
5.187093224732835
 20
-4.565354376061072
 10
5.252254935107985
 20
-4.559083492214793
 10
5.252254935107985
 20
-4.559083492214793
 10
5.527086092456582
 20
-4.531138272932253
 10
5.527086092456582
 20
-4.531138272932253
 10
5.424642189062575
 20
-4.493885280769556
 10
5.341514651975229
 20
-4.431826161354416
 10
5.27792248761519
 20
-4.344850728318824
 10
5.214257321114878
 20
-4.257986164809128
 10
5.182391886901592
 20
-4.160170597106129
 10
5.182391886901592
 20
-4.051455119296242
 10
5.182391886901592
 20
-3.998697163116882
 10
5.188597068821713
 20
-3.953640242162906
 10
5.201073134588139
 20
-3.916394550214211
 10
5.201073134588139
 20
-3.916394550214211
 10
5.07994798350766
 20
-4.051455119296242
 10
5.07994798350766
 20
-4.051455119296242
 97
        0
 97
        0
 92
        1
 93
        1
 72
     4
 94
        3
 73
     0
 74
     1
 95
       26
 96
       22
 40
0.0
 40
0.0
 40
0.0
 40
0.0
 40
1.0
 40
1.0
 40
1.0
 40
2.0
 40
2.0
 40
2.0
 40
3.0
 40
3.0
 40
3.0
 40
4.0
 40
4.0
 40
4.0
 40
5.0
 40
5.0
 40
5.0
 40
6.0
 40
6.0
 40
6.0
 40
7.0
 40
7.0
 40
7.0
 40
7.0
 10
5.564295283335215
 20
-4.568420465951046
 10
5.564295283335215
 20
-4.568420465951046
 10
5.340799231000902
 20
-4.591700848472442
 10
5.340799231000902
 20
-4.591700848472442
 10
5.340799231000902
 20
-4.591700848472442
 10
5.319167913603602
 20
-4.594122114027363
 10
5.319167913603602
 20
-4.594122114027363
 10
5.163892361320424
 20
-4.615898652459931
 10
5.103257566885254
 20
-4.717453661498982
 10
5.103257566885254
 20
-4.885096450083248
 10
5.103257566885254
 20
-4.981371672627207
 10
5.140539759904034
 20
-5.062075538658708
 10
5.215045744229428
 20
-5.127273750103982
 10
5.227375805715357
 20
-5.139713314800272
 10
5.305013581856959
 20
-5.190968117460405
 10
5.447878770299945
 20
-5.280979756372049
 10
5.382717682489859
 20
-5.194070708420478
 10
5.350070502810973
 20
-5.094692894916395
 10
5.350070502810973
 20
-4.982904717572144
 10
5.350070502810973
 20
-4.809064721026857
 10
5.421503097032428
 20
-4.670864369345016
 10
5.564295283335215
 20
-4.568420465951046
 97
        0
 97
        0
 92
        1
 93
        1
 72
     4
 94
        3
 73
     0
 74
     1
 95
       29
 96
       25
 40
0.0
 40
0.0
 40
0.0
 40
0.0
 40
1.0
 40
1.0
 40
1.0
 40
2.0
 40
2.0
 40
2.0
 40
3.0
 40
3.0
 40
3.0
 40
4.0
 40
4.0
 40
4.0
 40
5.0
 40
5.0
 40
5.0
 40
6.0
 40
6.0
 40
6.0
 40
7.0
 40
7.0
 40
7.0
 40
8.0
 40
8.0
 40
8.0
 40
8.0
 10
5.26039800978626
 20
-3.868234383093699
 10
5.229787264066923
 20
-3.917804626412741
 10
5.229018353870717
 20
-4.011136727813171
 10
5.229018353870717
 20
-4.051455119296242
 10
5.229018353870717
 20
-4.17567625169238
 10
5.273214469368743
 20
-4.282792292061458
 10
5.361758145462873
 20
-4.372796630759151
 10
5.450229439215566
 20
-4.462873971597042
 10
5.556527855613997
 20
-4.507857890410807
 10
5.680785428605557
 20
-4.507857890410807
 10
5.680785428605557
 20
-4.507857890410807
 10
5.857734686230009
 20
-4.498557417744665
 10
5.857734686230009
 20
-4.498557417744665
 10
5.730404353229409
 20
-4.442666979179572
 10
5.627179326934942
 20
-4.358115900357562
 10
5.548045006918528
 20
-4.244721675928089
 10
5.468837684761815
 20
-4.131407753852942
 10
5.42927052475357
 20
-4.004865843966892
 10
5.42927052475357
 20
-3.86516894841015
 10
5.42927052475357
 20
-3.772025517682323
 10
5.447878770299945
 20
-3.686656814889728
 10
5.485168263532791
 20
-3.609019038748165
 10
5.485168263532791
 20
-3.609019038748165
 10
5.26039800978626
 20
-3.868234383093699
 10
5.26039800978626
 20
-3.868234383093699
 97
        0
 97
        0
 92
        1
 93
        1
 72
     4
 94
        3
 73
     0
 74
     1
 95
       26
 96
       22
 40
0.0
 40
0.0
 40
0.0
 40
0.0
 40
1.0
 40
1.0
 40
1.0
 40
2.0
 40
2.0
 40
2.0
 40
3.0
 40
3.0
 40
3.0
 40
4.0
 40
4.0
 40
4.0
 40
5.0
 40
5.0
 40
5.0
 40
6.0
 40
6.0
 40
6.0
 40
7.0
 40
7.0
 40
7.0
 40
7.0
 10
5.662743593964781
 20
-4.567116847127282
 10
5.484469019524213
 20
-4.646718776832611
 10
5.387352695829779
 20
-4.772644991440264
 10
5.387352695829779
 20
-4.982904717572144
 10
5.387352695829779
 20
-5.153685924441523
 10
5.444312134646907
 20
-5.27924515540768
 10
5.590250713193856
 20
-5.369249494105373
 10
5.590250713193856
 20
-5.369249494105373
 10
5.606220412473046
 20
-5.383423659766057
 10
5.606220412473046
 20
-5.383423659766057
 10
5.606220412473046
 20
-5.383423659766057
 10
5.745946508885734
 20
-5.4719307999035
 10
5.745946508885734
 20
-5.4719307999035
 10
5.683785186474324
 20
-5.36642146130493
 10
5.652839579228056
 20
-5.253027236875507
 10
5.652839579228056
 20
-5.131938586865127
 10
5.652839579228056
 20
-4.849449505005723
 10
5.794532846021966
 20
-4.630454343437943
 10
6.049604830491944
 20
-4.527312882865039
 10
6.007464084437894
 20
-4.544353006290154
 10
5.737440202033692
 20
-4.533763834431157
 10
5.662743593964781
 20
-4.567116847127282
 97
        0
 97
        0
 75
     2
 76
     1
 98
        0
  0
ENDBLK
  5
48
330
45
100
AcDbEntity
  8
0
100
AcDbBlockEnd
  0
BLOCK
  5
7A
330
78
100
AcDbEntity
  8
0
100
AcDbBlockBegin
  2
block 4
 70
     0
 10
0.0
 20
0.0
 30
0.0
  3
block 4
  1

  0
INSERT
  5
7D
330
78
100
AcDbEntity
  8
Layer 1
100
AcDbBlockReference
  2
block 5
 10
0.0
 20
0.0
 30
0.0
  0
ENDBLK
  5
7B
330
78
100
AcDbEntity
  8
0
100
AcDbBlockEnd
  0
BLOCK
  5
7E
330
7C
100
AcDbEntity
  8
0
100
AcDbBlockBegin
  2
block 5
 70
     0
 10
0.0
 20
0.0
 30
0.0
  3
block 5
  1

  0
SPLINE
  5
80
330
7C
100
AcDbEntity
  8
Layer 1
370
     0
100
AcDbSpline
210
0.0
220
0.0
230
1.0
 70
    11
 71
     3
 72
   476
 73
   472
 74
     0
 42
0.0000000001
 43
0.0000000001
 12
1.0
 22
0.0
 32
0.0
 13
1.0
 23
0.0
 33
0.0
 40
0.0
 40
0.0
 40
0.0
 40
0.0
 40
1.0
 40
1.0
 40
1.0
 40
2.0
 40
2.0
 40
2.0
 40
3.0
 40
3.0
 40
3.0
 40
4.0
 40
4.0
 40
4.0
 40
5.0
 40
5.0
 40
5.0
 40
6.0
 40
6.0
 40
6.0
 40
7.0
 40
7.0
 40
7.0
 40
8.0
 40
8.0
 40
8.0
 40
9.0
 40
9.0
 40
9.0
 40
10.0
 40
10.0
 40
10.0
 40
11.0
 40
11.0
 40
11.0
 40
12.0
 40
12.0
 40
12.0
 40
13.0
 40
13.0
 40
13.0
 40
14.0
 40
14.0
 40
14.0
 40
15.0
 40
15.0
 40
15.0
 40
16.0
 40
16.0
 40
16.0
 40
17.0
 40
17.0
 40
17.0
 40
18.0
 40
18.0
 40
18.0
 40
19.0
 40
19.0
 40
19.0
 40
20.0
 40
20.0
 40
20.0
 40
21.0
 40
21.0
 40
21.0
 40
22.0
 40
22.0
 40
22.0
 40
23.0
 40
23.0
 40
23.0
 40
24.0
 40
24.0
 40
24.0
 40
25.0
 40
25.0
 40
25.0
 40
26.0
 40
26.0
 40
26.0
 40
27.0
 40
27.0
 40
27.0
 40
28.0
 40
28.0
 40
28.0
 40
29.0
 40
29.0
 40
29.0
 40
30.0
 40
30.0
 40
30.0
 40
31.0
 40
31.0
 40
31.0
 40
32.0
 40
32.0
 40
32.0
 40
33.0
 40
33.0
 40
33.0
 40
34.0
 40
34.0
 40
34.0
 40
35.0
 40
35.0
 40
35.0
 40
36.0
 40
36.0
 40
36.0
 40
37.0
 40
37.0
 40
37.0
 40
38.0
 40
38.0
 40
38.0
 40
39.0
 40
39.0
 40
39.0
 40
40.0
 40
40.0
 40
40.0
 40
41.0
 40
41.0
 40
41.0
 40
42.0
 40
42.0
 40
42.0
 40
43.0
 40
43.0
 40
43.0
 40
44.0
 40
44.0
 40
44.0
 40
45.0
 40
45.0
 40
45.0
 40
46.0
 40
46.0
 40
46.0
 40
47.0
 40
47.0
 40
47.0
 40
48.0
 40
48.0
 40
48.0
 40
49.0
 40
49.0
 40
49.0
 40
50.0
 40
50.0
 40
50.0
 40
51.0
 40
51.0
 40
51.0
 40
52.0
 40
52.0
 40
52.0
 40
53.0
 40
53.0
 40
53.0
 40
54.0
 40
54.0
 40
54.0
 40
55.0
 40
55.0
 40
55.0
 40
56.0
 40
56.0
 40
56.0
 40
57.0
 40
57.0
 40
57.0
 40
58.0
 40
58.0
 40
58.0
 40
59.0
 40
59.0
 40
59.0
 40
60.0
 40
60.0
 40
60.0
 40
61.0
 40
61.0
 40
61.0
 40
62.0
 40
62.0
 40
62.0
 40
63.0
 40
63.0
 40
63.0
 40
64.0
 40
64.0
 40
64.0
 40
65.0
 40
65.0
 40
65.0
 40
66.0
 40
66.0
 40
66.0
 40
67.0
 40
67.0
 40
67.0
 40
68.0
 40
68.0
 40
68.0
 40
69.0
 40
69.0
 40
69.0
 40
70.0
 40
70.0
 40
70.0
 40
71.0
 40
71.0
 40
71.0
 40
72.0
 40
72.0
 40
72.0
 40
73.0
 40
73.0
 40
73.0
 40
74.0
 40
74.0
 40
74.0
 40
75.0
 40
75.0
 40
75.0
 40
76.0
 40
76.0
 40
76.0
 40
77.0
 40
77.0
 40
77.0
 40
78.0
 40
78.0
 40
78.0
 40
79.0
 40
79.0
 40
79.0
 40
80.0
 40
80.0
 40
80.0
 40
81.0
 40
81.0
 40
81.0
 40
82.0
 40
82.0
 40
82.0
 40
83.0
 40
83.0
 40
83.0
 40
84.0
 40
84.0
 40
84.0
 40
85.0
 40
85.0
 40
85.0
 40
86.0
 40
86.0
 40
86.0
 40
87.0
 40
87.0
 40
87.0
 40
88.0
 40
88.0
 40
88.0
 40
89.0
 40
89.0
 40
89.0
 40
90.0
 40
90.0
 40
90.0
 40
91.0
 40
91.0
 40
91.0
 40
92.0
 40
92.0
 40
92.0
 40
93.0
 40
93.0
 40
93.0
 40
94.0
 40
94.0
 40
94.0
 40
95.0
 40
95.0
 40
95.0
 40
96.0
 40
96.0
 40
96.0
 40
97.0
 40
97.0
 40
97.0
 40
98.0
 40
98.0
 40
98.0
 40
99.0
 40
99.0
 40
99.0
 40
100.0
 40
100.0
 40
100.0
 40
101.0
 40
101.0
 40
101.0
 40
102.0
 40
102.0
 40
102.0
 40
103.0
 40
103.0
 40
103.0
 40
104.0
 40
104.0
 40
104.0
 40
105.0
 40
105.0
 40
105.0
 40
106.0
 40
106.0
 40
106.0
 40
107.0
 40
107.0
 40
107.0
 40
108.0
 40
108.0
 40
108.0
 40
109.0
 40
109.0
 40
109.0
 40
110.0
 40
110.0
 40
110.0
 40
111.0
 40
111.0
 40
111.0
 40
112.0
 40
112.0
 40
112.0
 40
113.0
 40
113.0
 40
113.0
 40
114.0
 40
114.0
 40
114.0
 40
115.0
 40
115.0
 40
115.0
 40
116.0
 40
116.0
 40
116.0
 40
117.0
 40
117.0
 40
117.0
 40
118.0
 40
118.0
 40
118.0
 40
119.0
 40
119.0
 40
119.0
 40
120.0
 40
120.0
 40
120.0
 40
121.0
 40
121.0
 40
121.0
 40
122.0
 40
122.0
 40
122.0
 40
123.0
 40
123.0
 40
123.0
 40
124.0
 40
124.0
 40
124.0
 40
125.0
 40
125.0
 40
125.0
 40
126.0
 40
126.0
 40
126.0
 40
127.0
 40
127.0
 40
127.0
 40
128.0
 40
128.0
 40
128.0
 40
129.0
 40
129.0
 40
129.0
 40
130.0
 40
130.0
 40
130.0
 40
131.0
 40
131.0
 40
131.0
 40
132.0
 40
132.0
 40
132.0
 40
133.0
 40
133.0
 40
133.0
 40
134.0
 40
134.0
 40
134.0
 40
135.0
 40
135.0
 40
135.0
 40
136.0
 40
136.0
 40
136.0
 40
137.0
 40
137.0
 40
137.0
 40
138.0
 40
138.0
 40
138.0
 40
139.0
 40
139.0
 40
139.0
 40
140.0
 40
140.0
 40
140.0
 40
141.0
 40
141.0
 40
141.0
 40
142.0
 40
142.0
 40
142.0
 40
143.0
 40
143.0
 40
143.0
 40
144.0
 40
144.0
 40
144.0
 40
145.0
 40
145.0
 40
145.0
 40
146.0
 40
146.0
 40
146.0
 40
147.0
 40
147.0
 40
147.0
 40
148.0
 40
148.0
 40
148.0
 40
149.0
 40
149.0
 40
149.0
 40
150.0
 40
150.0
 40
150.0
 40
151.0
 40
151.0
 40
151.0
 40
152.0
 40
152.0
 40
152.0
 40
153.0
 40
153.0
 40
153.0
 40
154.0
 40
154.0
 40
154.0
 40
155.0
 40
155.0
 40
155.0
 40
156.0
 40
156.0
 40
156.0
 40
157.0
 40
157.0
 40
157.0
 40
157.0
 10
4.016690780015488
 20
-8.071733988895883
 30
0.0
 10
4.019597031238314
 20
-8.067661960995615
 30
0.0
 10
4.024529058325609
 20
-8.062723108517122
 30
0.0
 10
4.031488226355287
 20
-8.056924256850733
 30
0.0
 10
4.032660828422346
 20
-8.056924256850607
 30
0.0
 10
4.036713745229197
 20
-8.056630892823097
 30
0.0
 10
4.043686564040058
 20
-8.056057560016217
 30
0.0
 10
4.068655207123495
 20
-8.054884830202228
 30
0.0
 10
4.105820822813598
 20
-8.05227070568377
 30
0.0
 10
4.155158839705046
 20
-8.048219153950589
 30
0.0
 10
4.162703626229523
 20
-8.045893060908787
 30
0.0
 10
4.174621982082082
 20
-8.042993762489484
 30
0.0
 10
4.19085836154122
 20
-8.039507225667851
 30
0.0
 10
4.199577115211014
 20
-8.038927067484943
 30
0.0
 10
4.212627261615049
 20
-8.037766751119408
 30
0.0
 10
4.230051118173732
 20
-8.036027641649298
 30
0.0
 10
4.23934320463531
 20
-8.034855039581418
 30
0.0
 10
4.251246685455486
 20
-8.03137545556529
 30
0.0
 10
4.26575064000983
 20
-8.025576603898243
 30
0.0
 10
4.283761480140583
 20
-8.018024991981443
 30
0.0
 10
4.295372834252526
 20
-8.013671884670833
 30
0.0
 10
4.300598353126361
 20
-8.012511568276725
 30
0.0
 10
4.313368521203276
 20
-8.010185348589832
 30
0.0
 10
4.332244958155974
 20
-8.0067003042607
 30
0.0
 10
4.357201179322248
 20
-8.002060403878987
 30
0.0
 10
4.357201179322248
 20
-8.002060403878987
 30
0.0
 10
4.358947250395153
 20
-8.000321420747039
 30
0.0
 10
4.358947250395153
 20
-8.000321420747039
 30
0.0
 10
4.35952058318642
 20
-7.99509577553628
 30
0.0
 10
4.360986677039136
 20
-7.987542798543068
 30
0.0
 10
4.363292293908166
 20
-7.977678744367469
 30
0.0
 10
4.316848242535166
 20
-7.957348761840699
 30
0.0
 10
4.284920293380032
 20
-7.942844682037629
 30
0.0
 10
4.267497939938519
 20
-7.934132753759715
 30
0.0
 10
4.223958774710606
 20
-7.912650520085586
 30
0.0
 10
4.195510547610411
 20
-7.894647870425135
 30
0.0
 10
4.182153258637931
 20
-7.880137090481134
 30
0.0
 10
4.171702220888467
 20
-7.863293392105409
 30
0.0
 10
4.153718682316367
 20
-7.83949735109056
 30
0.0
 10
4.128163055657574
 20
-7.808729856343562
 30
0.0
 10
4.117711875644533
 20
-7.798852151388296
 30
0.0
 10
4.107260980159885
 20
-7.789266694146463
 30
0.0
 10
4.096809942411129
 20
-7.779989502539593
 30
0.0
 10
4.078812753058931
 20
-7.763145804164473
 30
0.0
 10
4.069814158382782
 20
-7.754147209489929
 30
0.0
 10
4.069814158382655
 20
-7.752993718516032
 30
0.0
 10
4.069814158382416
 20
-7.750080641902287
 30
0.0
 10
4.071547807538069
 20
-7.74311601355968
 30
0.0
 10
4.07503953391261
 20
-7.732091643019556
 30
0.0
 10
4.07503953391261
 20
-7.732091643019556
 30
0.0
 10
4.082877955565765
 20
-7.732091643018899
 30
0.0
 10
4.082877955565765
 20
-7.732091643018899
 30
0.0
 10
4.089836980627549
 20
-7.732091643018268
 30
0.0
 10
4.103487761730851
 20
-7.743116013556801
 30
0.0
 10
4.123804361357694
 20
-7.765185230805653
 30
0.0
 10
4.129616863804876
 20
-7.771564240653131
 30
0.0
 10
4.138042125689215
 20
-7.780861787426298
 30
0.0
 10
4.149066496230022
 20
-7.793053299719809
 30
0.0
 10
4.157771599119782
 20
-7.800017928061505
 30
0.0
 10
4.169956286024836
 20
-7.81104366367822
 30
0.0
 10
4.185632842648096
 20
-7.826146887506789
 30
0.0
 10
4.190285028731106
 20
-7.835425323187337
 30
0.0
 10
4.198123307043198
 20
-7.848202453975646
 30
0.0
 10
4.209147677584408
 20
-7.864465994169045
 30
0.0
 10
4.220772682478658
 20
-7.877810997436578
 30
0.0
 10
4.255886585822976
 20
-7.897559581955344
 30
0.0
 10
4.314528837589301
 20
-7.923681716007549
 30
0.0
 10
4.327886263853012
 20
-7.928321616385826
 30
0.0
 10
4.347615737282618
 20
-7.936446561090936
 30
0.0
 10
4.373744696731515
 20
-7.94807020090348
 30
0.0
 10
4.376077615162558
 20
-7.943411314329826
 30
0.0
 10
4.379555834098988
 20
-7.937033544660582
 30
0.0
 10
4.384195734477745
 20
-7.928907234875346
 30
0.0
 10
4.384195734477745
 20
-7.928907234875346
 30
0.0
 10
4.381582975040803
 20
-7.928907234875547
 30
0.0
 10
4.381582975040803
 20
-7.928907234875547
 30
0.0
 10
4.364172769260676
 20
-7.907425001199044
 30
0.0
 10
4.338910634388008
 20
-7.875485027567897
 30
0.0
 10
4.305823871984229
 20
-7.833113003029261
 30
0.0
 10
4.301171685901307
 20
-7.824407778028039
 30
0.0
 10
4.293492983900427
 20
-7.811342615765675
 30
0.0
 10
4.282734941407448
 20
-7.793926949676234
 30
0.0
 10
4.272002697574382
 20
-7.776503213800904
 30
0.0
 10
4.25588658580989
 20
-7.752406734926681
 30
0.0
 10
4.234409812441413
 20
-7.721639240179329
 30
0.0
 10
4.228025342280463
 20
-7.71408762826483
 30
0.0
 10
4.219600080395872
 20
-7.702196433147694
 30
0.0
 10
4.209147677568327
 20
-7.685932892954244
 30
0.0
 10
4.20857570985456
 20
-7.684779401980247
 30
0.0
 10
4.204509142265717
 20
-7.671715604795609
 30
0.0
 10
4.196964355738828
 20
-7.646746961712879
 30
0.0
 10
4.196964355738828
 20
-7.646746961712879
 30
0.0
 10
4.211761802078273
 20
-7.628457645652588
 30
0.0
 10
4.211761802078273
 20
-7.628457645652588
 30
0.0
 10
4.221052523462618
 20
-7.637169691093908
 30
0.0
 10
4.227745501268815
 20
-7.645740899168206
 30
0.0
 10
4.231797052998331
 20
-7.654145684880253
 30
0.0
 10
4.235863620586795
 20
-7.662570946763404
 30
0.0
 10
4.240222314883428
 20
-7.671428938396502
 30
0.0
 10
4.244862215263715
 20
-7.680707374076923
 30
0.0
 10
4.249514401346434
 20
-7.687106860095708
 30
0.0
 10
4.256180077591251
 20
-7.697257580666397
 30
0.0
 10
4.264885180481593
 20
-7.711188202428628
 30
0.0
 10
4.278254755157528
 20
-7.734404204880724
 30
0.0
 10
4.299144407272857
 20
-7.768084656622831
 30
0.0
 10
4.327592635094232
 20
-7.812209440340767
 30
0.0
 10
4.34442964504443
 20
-7.831939035851039
 30
0.0
 10
4.367945845058052
 20
-7.863006725691902
 30
0.0
 10
4.398126221058318
 20
-7.905392399941142
 30
0.0
 10
4.398126221058318
 20
-7.905392399941142
 30
0.0
 10
4.401619591034028
 20
-7.900173706457306
 30
0.0
 10
4.401619591034028
 20
-7.900173706457306
 30
0.0
 10
4.394073439429954
 20
-7.885062292159419
 30
0.0
 10
4.390288077924374
 20
-7.868518910959765
 30
0.0
 10
4.390288077922782
 20
-7.850528546999461
 30
0.0
 10
4.39028807792076
 20
-7.828459329748839
 30
0.0
 10
4.397552888243505
 20
-7.810470330865932
 30
0.0
 10
4.412070628772628
 20
-7.79653970910158
 30
0.0
 10
4.412070628772628
 20
-7.79653970910158
 30
0.0
 10
4.398126221046419
 20
-7.773023509091874
 30
0.0
 10
4.398126221046419
 20
-7.773023509091874
 30
0.0
 10
4.398126221046419
 20
-7.773023509091874
 30
0.0
 10
4.404271937721963
 20
-7.752993718485994
 30
0.0
 10
4.404271937721963
 20
-7.752993718485994
 30
0.0
 10
4.418882368367122
 20
-7.757046635291494
 30
0.0
 10
4.426494043717639
 20
-7.759372728331855
 30
0.0
 10
4.427067376509563
 20
-7.759959711904482
 30
0.0
 10
4.431173531361992
 20
-7.766338721752036
 30
0.0
 10
4.434958892866588
 20
-7.77302350908864
 30
0.0
 10
4.438479429224596
 20
-7.779989502508922
 30
0.0
 10
4.449582974292449
 20
-7.777076546591287
 30
0.0
 10
4.457475855726316
 20
-7.775636268523511
 30
0.0
 10
4.462153978291957
 20
-7.775636268523158
 30
0.0
 10
4.467420449508128
 20
-7.775636268522677
 30
0.0
 10
4.473859522791549
 20
-7.776789880185889
 30
0.0
 10
4.481443896580585
 20
-7.779115852536506
 30
0.0
 10
4.48612338422375
 20
-7.773310175479891
 30
0.0
 10
4.490802871866941
 20
-7.767645101465202
 30
0.0
 10
4.495480994432051
 20
-7.762138376507108
 30
0.0
 10
4.500160482075166
 20
-7.75661402571432
 30
0.0
 10
4.506879396363855
 20
-7.753860543054871
 30
0.0
 10
4.515637737297816
 20
-7.753860543054038
 30
0.0
 10
4.515637737297816
 20
-7.753860543054038
 30
0.0
 10
4.523529253653755
 20
-7.754734193021805
 30
0.0
 10
4.523529253653755
 20
-7.754734193021805
 30
0.0
 10
4.523529253653603
 20
-7.75240673490263
 30
0.0
 10
4.523529253654058
 20
-7.758505903745142
 30
0.0
 10
4.523529253655397
 20
-7.773023509080708
 30
0.0
 10
4.523529253655473
 20
-7.77359684187253
 30
0.0
 10
4.523529253655624
 20
-7.774762618549125
 30
0.0
 10
4.523529253655751
 20
-7.776503213778268
 30
0.0
 10
4.521716429971345
 20
-7.778249027954871
 30
0.0
 10
4.515330594733491
 20
-7.784914704199309
 30
0.0
 10
4.504373113020493
 20
-7.796539709093395
 30
0.0
 10
4.517157069201428
 20
-7.812782773115562
 30
0.0
 10
4.523529253660778
 20
-7.832526019422251
 30
0.0
 10
4.523529253662875
 20
-7.855754065861447
 30
0.0
 10
4.523529253664365
 20
-7.872585478535458
 30
0.0
 10
4.519769828645293
 20
-7.88913580865412
 30
0.0
 10
4.5122113913413
 20
-7.905392399930886
 30
0.0
 10
4.5122113913413
 20
-7.905392399930886
 30
0.0
 10
4.515704626137802
 20
-7.912363853663464
 30
0.0
 10
4.515704626137802
 20
-7.912363853663464
 30
0.0
 10
4.523249280641949
 20
-7.901325956178147
 30
0.0
 10
4.53776701799547
 20
-7.884495784745063
 30
0.0
 10
4.559242426281192
 20
-7.8618532347007
 30
0.0
 10
4.569121496314134
 20
-7.848489120338222
 30
0.0
 10
4.584211069361774
 20
-7.82875964690801
 30
0.0
 10
4.604527526360774
 20
-7.80263080880094
 30
0.0
 10
4.619045131695126
 20
-7.789266694100408
 30
0.0
 10
4.638788255902707
 20
-7.767797990196337
 30
0.0
 10
4.663743119732569
 20
-7.738189446731162
 30
0.0
 10
4.665489183061506
 20
-7.735277854836517
 30
0.0
 10
4.67768752074403
 20
-7.708875760131276
 30
0.0
 10
4.70032324539165
 20
-7.658938473962204
 30
0.0
 10
4.707294699124203
 20
-7.65603904812868
 30
0.0
 10
4.71513434251296
 20
-7.653139622295081
 30
0.0
 10
4.72383944540176
 20
-7.650226545680576
 30
0.0
 10
4.72383944540176
 20
-7.650226545680576
 30
0.0
 10
4.72993042377771
 20
-7.672002271144442
 30
0.0
 10
4.72993042377771
 20
-7.672002271144442
 30
0.0
 10
4.722399288035527
 20
-7.690585197502438
 30
0.0
 10
4.712520218003217
 20
-7.712635185148706
 30
0.0
 10
4.700323245398774
 20
-7.738189446727928
 30
0.0
 10
4.694524393733521
 20
-7.74456845657629
 30
0.0
 10
4.686538686991222
 20
-7.754300098179101
 30
0.0
 10
4.676381141030813
 20
-7.767365260442956
 30
0.0
 10
4.666222229992248
 20
-7.780422232238455
 30
0.0
 10
4.651265069518002
 20
-7.79971897591857
 30
0.0
 10
4.631523310388805
 20
-7.825273237498297
 30
0.0
 10
4.614698723106787
 20
-7.843263601460143
 30
0.0
 10
4.589436588239423
 20
-7.870258020410321
 30
0.0
 10
4.555764207348147
 20
-7.906264684817365
 30
0.0
 10
4.551124175654043
 20
-7.913230678238354
 30
0.0
 10
4.543859361450965
 20
-7.92194260651839
 30
0.0
 10
4.533980291417694
 20
-7.932393644267247
 30
0.0
 10
4.532248007339553
 20
-7.932966977059272
 30
0.0
 10
4.529928739689037
 20
-7.933833801637597
 30
0.0
 10
4.527022488465869
 20
-7.935006403704897
 30
0.0
 10
4.529928739689896
 20
-7.943711631500289
 30
0.0
 10
4.532541499127521
 20
-7.950384008227704
 30
0.0
 10
4.534860766778618
 20
-7.955036194309691
 30
0.0
 10
4.617311482553178
 20
-7.948070200881678
 30
0.0
 10
4.691044681954736
 20
-7.9315199942847
 30
0.0
 10
4.75605938324659
 20
-7.905392399908982
 30
0.0
 10
4.771735939867792
 20
-7.897840787992537
 30
0.0
 10
4.787707353353325
 20
-7.890007969992515
 30
0.0
 10
4.803957242766374
 20
-7.881883025284146
 30
0.0
 10
4.823113383402566
 20
-7.873171097003099
 30
0.0
 10
4.840257398955524
 20
-7.868819228095971
 30
0.0
 10
4.855346972004806
 20
-7.868819228094607
 30
0.0
 10
4.850694785923906
 20
-7.882169691675927
 30
0.0
 10
4.846629583415178
 20
-7.891594190711278
 30
0.0
 10
4.843149999400566
 20
-7.897120026762119
 30
0.0
 10
4.83967041538603
 20
-7.902632212032358
 30
0.0
 10
4.832125504645242
 20
-7.908291825735078
 30
0.0
 10
4.820500623969236
 20
-7.914104328182601
 30
0.0
 10
4.812382504653038
 20
-7.917003754016327
 30
0.0
 10
4.800477658754844
 20
-7.921068956526924
 30
0.0
 10
4.78480110213339
 20
-7.926294475402377
 30
0.0
 10
4.777268601311713
 20
-7.930354217600274
 30
0.0
 10
4.765351469710999
 20
-7.935873228261597
 30
0.0
 10
4.749100215219768
 20
-7.942844681995894
 30
0.0
 10
4.724145222917792
 20
-7.951549784887194
 30
0.0
 10
4.671581526533954
 20
-7.962574155431765
 30
0.0
 10
4.59146372919142
 20
-7.975938269800508
 30
0.0
 10
4.589156747243477
 20
-7.976506142280211
 30
0.0
 10
4.581318468932674
 20
-7.978545568926013
 30
0.0
 10
4.567947529181033
 20
-7.982030613254665
 30
0.0
 10
4.558669093500384
 20
-7.984344420593869
 30
0.0
 10
4.550830815189581
 20
-7.98551702266175
 30
0.0
 10
4.544432694248497
 20
-7.985517022662306
 30
0.0
 10
4.544432694248497
 20
-7.985517022662306
 30
0.0
 10
4.543565869670525
 20
-7.987256132130798
 30
0.0
 10
4.543565869670525
 20
-7.987256132130798
 30
0.0
 10
4.543565869671511
 20
-7.997708534956827
 30
0.0
 10
4.544872117917369
 20
-8.004813766341005
 30
0.0
 10
4.54748500882791
 20
-8.008592302454442
 30
0.0
 10
4.550097768265257
 20
-8.012365378255506
 30
0.0
 10
4.559829409867764
 20
-8.017438008384135
 30
0.0
 10
4.576666282854577
 20
-8.023836129323701
 30
0.0
 10
4.587704304175455
 20
-8.028476029702157
 30
0.0
 10
4.599022166501982
 20
-8.032827898606582
 30
0.0
 10
4.610619869833878
 20
-8.036894466193315
 30
0.0
 10
4.618765290712241
 20
-8.041539826884218
 30
0.0
 10
4.630656485830741
 20
-8.047918836731217
 30
0.0
 10
4.646333042453332
 20
-8.056057559962028
 30
0.0
 10
4.648078977312252
 20
-8.0566308927683
 30
0.0
 10
4.661717472367349
 20
-8.059389587798933
 30
0.0
 10
4.687259448243114
 20
-8.064328440274771
 30
0.0
 10
4.712813709821527
 20
-8.069255007047786
 30
0.0
 10
4.726452204876598
 20
-8.071733988832092
 30
0.0
 10
4.728198139735519
 20
-8.07173398883189
 30
0.0
 10
4.728198139735519
 20
-8.07173398883189
 30
0.0
 10
4.761284902135154
 20
-8.068248944501546
 30
0.0
 10
4.761284902135154
 20
-8.068248944501546
 30
0.0
 10
4.761284902135154
 20
-8.068248944501546
 30
0.0
 10
4.80309029325546
 20
-8.074346748262238
 30
0.0
 10
4.80309029325546
 20
-8.074346748262238
 30
0.0
 10
4.800184166982237
 20
-8.074346748262517
 30
0.0
 10
4.807156985793199
 20
-8.07434674826186
 30
0.0
 10
4.823993858779482
 20
-8.074346748260293
 30
0.0
 10
4.833284580163055
 20
-8.074346748259485
 30
0.0
 10
4.849548120357667
 20
-8.075786905627966
 30
0.0
 10
4.87275717780181
 20
-8.078699982239488
 30
0.0
 10
4.87275717780181
 20
-8.078699982239488
 30
0.0
 10
4.885822340066321
 20
-8.096117013406785
 30
0.0
 10
4.885822340066321
 20
-8.096117013406785
 30
0.0
 10
4.882342756051558
 20
-8.09960205773445
 30
0.0
 10
4.876543904386304
 20
-8.104827576609017
 30
0.0
 10
4.868398483508902
 20
-8.111793699183028
 30
0.0
 10
4.860865982686846
 20
-8.11120671559628
 30
0.0
 10
4.849242342871801
 20
-8.110047635173107
 30
0.0
 10
4.833564421171584
 20
-8.108307160627948
 30
0.0
 10
4.83125880430167
 20
-8.10830716062815
 30
0.0
 10
4.825446301854981
 20
-8.106854717556164
 30
0.0
 10
4.816154090773099
 20
-8.103955291724004
 30
0.0
 10
4.808609428868244
 20
-8.101629198683616
 30
0.0
 10
4.802796926421579
 20
-8.100468882319722
 30
0.0
 10
4.798731723912042
 20
-8.100468882320076
 30
0.0
 10
4.795252139896951
 20
-8.100468882320481
 30
0.0
 10
4.789746780017518
 20
-8.100908437461333
 30
0.0
 10
4.782188342712187
 20
-8.101775262040139
 30
0.0
 10
4.774655716221887
 20
-8.102648912009247
 30
0.0
 10
4.769123180449317
 20
-8.103081641759774
 30
0.0
 10
4.765644961512256
 20
-8.103081641760076
 30
0.0
 10
4.748808088525973
 20
-8.103081641761642
 30
0.0
 10
4.721372749359236
 20
-8.099449169004451
 30
0.0
 10
4.6833403090901
 20
-8.092196509191378
 30
0.0
 10
4.645320154523713
 20
-8.084931563675708
 30
0.0
 10
4.619045131721046
 20
-8.078112998689726
 30
0.0
 10
4.6045275263849
 20
-8.07173398884298
 30
0.0
 10
4.592342839480176
 20
-8.065335867903084
 30
0.0
 10
4.573760031634214
 20
-8.056057559968597
 30
0.0
 10
4.548791388549615
 20
-8.043865919931653
 30
0.0
 10
4.547631072185797
 20
-8.049657946207137
 30
0.0
 10
4.546178629113885
 20
-8.05808320809082
 30
0.0
 10
4.544432694256001
 20
-8.069121357486159
 30
0.0
 10
4.556056334071703
 20
-8.076660555622714
 30
0.0
 10
4.572307588564576
 20
-8.08885070283774
 30
0.0
 10
4.59320953380979
 20
-8.10569440121248
 30
0.0
 10
4.626883410037559
 20
-8.139361321791714
 30
0.0
 10
4.652425385915472
 20
-8.168096215283892
 30
0.0
 10
4.669849242476478
 20
-8.191911367391867
 30
0.0
 10
4.670434860971126
 20
-8.193651841938415
 30
0.0
 10
4.682033929382643
 20
-8.214840583829174
 30
0.0
 10
4.704681812304998
 20
-8.25548714861063
 30
0.0
 10
4.716866626647035
 20
-8.275802240532837
 30
0.0
 10
4.734010642203101
 20
-8.306571100358699
 30
0.0
 10
4.75605938328633
 20
-8.347796458244323
 30
0.0
 10
4.75605938328633
 20
-8.347796458244323
 30
0.0
 10
4.748221104977246
 20
-8.368698533740876
 30
0.0
 10
4.748221104977246
 20
-8.368698533740876
 30
0.0
 10
4.744168188170256
 20
-8.36753275706456
 30
0.0
 10
4.738355685723414
 20
-8.364633466772299
 30
0.0
 10
4.730810899198357
 20
-8.359993430853365
 30
0.0
 10
4.72267912910042
 20
-8.35243499354869
 30
0.0
 10
4.714840850788429
 20
-8.340530147650725
 30
0.0
 10
4.707294699184179
 20
-8.324287083628153
 30
0.0
 10
4.700910229022838
 20
-8.311509952839767
 30
0.0
 10
4.69452439378324
 20
-8.298444790577326
 30
0.0
 10
4.688138558543742
 20
-8.285094326997093
 30
0.0
 10
4.660850647805066
 20
-8.235744024405069
 30
0.0
 10
4.638214923149613
 20
-8.198297202633107
 30
0.0
 10
4.62020544809401
 20
-8.172755226759364
 30
0.0
 10
4.61672586407854
 20
-8.168683198859677
 30
0.0
 10
4.603368575106161
 20
-8.156345623212347
 30
0.0
 10
4.580145736297633
 20
-8.135742499817095
 30
0.0
 10
4.55693680943399
 20
-8.115125725641166
 30
0.0
 10
4.541819934821988
 20
-8.102494658207686
 30
0.0
 10
4.534860766791376
 20
-8.097856251707475
 30
0.0
 10
4.529061915126476
 20
-8.107721542160789
 30
0.0
 10
4.523529253686243
 20
-8.116432105362668
 30
0.0
 10
4.518317385593718
 20
-8.123985082356159
 30
0.0
 10
4.518317385593718
 20
-8.123985082356159
 30
0.0
 10
4.527889313062537
 20
-8.142274398414227
 30
0.0
 10
4.527889313062537
 20
-8.142274398414227
 30
0.0
 10
4.525582331116563
 20
-8.164916948456948
 30
0.0
 10
4.524116237264403
 20
-8.178260586647513
 30
0.0
 10
4.523529253692155
 20
-8.182333979625582
 30
0.0
 10
4.521223636823328
 20
-8.193938508347804
 30
0.0
 10
4.516571450742276
 20
-8.207002305533074
 30
0.0
 10
4.509598499568382
 20
-8.22151991086927
 30
0.0
 10
4.509598499568382
 20
-8.22151991086927
 30
0.0
 10
4.509598499572449
 20
-8.266805010954284
 30
0.0
 10
4.509598499572449
 20
-8.266805010954284
 30
0.0
 10
4.509598499572449
 20
-8.266805010954284
 30
0.0
 10
4.493922075315898
 20
-8.278129698672046
 30
0.0
 10
4.493922075315898
 20
-8.278129698672046
 30
0.0
 10
4.493922075315898
 20
-8.278129698672046
 30
0.0
 10
4.483470904543057
 20
-8.272030529830468
 30
0.0
 10
4.483470904543057
 20
-8.272030529830468
 30
0.0
 10
4.482324238929373
 20
-8.259839017536049
 30
0.0
 10
4.481737255341032
 20
-8.2496746461841
 30
0.0
 10
4.481737255340325
 20
-8.241549701477222
 30
0.0
 10
4.481737255338683
 20
-8.222965660515204
 30
0.0
 10
4.488123223642989
 20
-8.198877360828797
 30
0.0
 10
4.500893529038977
 20
-8.169268817364708
 30
0.0
 10
4.500893529038977
 20
-8.169268817364708
 30
0.0
 10
4.489575666710885
 20
-8.14662763240128
 30
0.0
 10
4.489575666710885
 20
-8.14662763240128
 30
0.0
 10
4.4768053613128
 20
-8.15242648406815
 30
0.0
 10
4.464620674408858
 20
-8.155338195604877
 30
0.0
 10
4.452995669515833
 20
-8.155338195605912
 30
0.0
 10
4.449516085500792
 20
-8.155338195606266
 30
0.0
 10
4.445023613553354
 20
-8.154598323289594
 30
0.0
 10
4.439492317190266
 20
-8.15315953099821
 30
0.0
 10
4.433986823036295
 20
-8.151698897457639
 30
0.0
 10
4.430066453077062
 20
-8.150679184135445
 30
0.0
 10
4.42773353464554
 20
-8.150112676734226
 30
0.0
 10
4.42773353464554
 20
-8.150112676734226
 30
0.0
 10
4.424255315708908
 20
-8.154466040948819
 30
0.0
 10
4.424255315708908
 20
-8.154466040948819
 30
0.0
 10
4.424255315708908
 20
-8.154466040948819
 30
0.0
 10
4.420775731693867
 20
-8.155338195608767
 30
0.0
 10
4.420775731693867
 20
-8.155338195608767
 30
0.0
 10
4.427733534647485
 20
-8.171582624709622
 30
0.0
 10
4.434426512454213
 20
-8.187559498507552
 30
0.0
 10
4.440798562811046
 20
-8.20323605512888
 30
0.0
 10
4.44602421578851
 20
-8.217166676891413
 30
0.0
 10
4.448636975227146
 20
-8.235157040851492
 30
0.0
 10
4.448636975229141
 20
-8.257226258102087
 30
0.0
 10
4.448636975229824
 20
-8.265938319428288
 30
0.0
 10
4.446611199366012
 20
-8.272317196229677
 30
0.0
 10
4.442544631778775
 20
-8.276389224130146
 30
0.0
 10
4.438491580811564
 20
-8.280442140937287
 30
0.0
 10
4.43413302067678
 20
-8.28479400984328
 30
0.0
 10
4.429480834594971
 20
-8.289447561003827
 30
0.0
 10
4.423094999355246
 20
-8.273776464694794
 30
0.0
 10
4.419615415339245
 20
-8.2641922515253
 30
0.0
 10
4.419028431766415
 20
-8.260712667510258
 30
0.0
 10
4.419028431766315
 20
-8.260125683937632
 30
0.0
 10
4.419028431765304
 20
-8.247934171643212
 30
0.0
 10
4.419028431763207
 20
-8.224132670314424
 30
0.0
 10
4.410283741607929
 20
-8.202650436637162
 30
0.0
 10
4.400699528436361
 20
-8.18348610553259
 30
0.0
 10
4.390288077951128
 20
-8.166656188476281
 30
0.0
 10
4.390288077951128
 20
-8.166656188476281
 30
0.0
 10
4.401619591055097
 20
-8.13443612011459
 30
0.0
 10
4.401619591055097
 20
-8.13443612011459
 30
0.0
 10
4.390008236941741
 20
-8.123398098795127
 30
0.0
 10
4.381303134051753
 20
-8.112947061048038
 30
0.0
 10
4.375490631604306
 20
-8.103081641795091
 30
0.0
 10
4.357493442254508
 20
-8.112360077477534
 30
0.0
 10
4.333551337885486
 20
-8.129643330996865
 30
0.0
 10
4.303637016935783
 20
-8.15489864047893
 30
0.0
 10
4.273749997547585
 20
-8.180153949961044
 30
0.0
 10
4.252700493621369
 20
-8.200623295708787
 30
0.0
 10
4.240502155937886
 20
-8.216294392019512
 30
0.0
 10
4.23644923913173
 20
-8.224419336726644
 30
0.0
 10
4.230638101764308
 20
-8.236324182625872
 30
0.0
 10
4.223079664460354
 20
-8.252000871943185
 30
0.0
 10
4.219026747654046
 20
-8.258972192981648
 30
0.0
 10
4.211761802135912
 20
-8.270290055308275
 30
0.0
 10
4.201309259158935
 20
-8.2859679770093
 30
0.0
 10
4.199003782441688
 20
-8.289447561024543
 30
0.0
 10
4.187965761122237
 20
-8.301344216455668
 30
0.0
 10
4.168222636914505
 20
-8.321674458694336
 30
0.0
 10
4.148493163487514
 20
-8.341990781242783
 30
0.0
 10
4.138042125740526
 20
-8.352155152595742
 30
0.0
 10
4.136868158595411
 20
-8.352155152595817
 30
0.0
 10
4.13512222373644
 20
-8.352155152595945
 30
0.0
 10
4.131935989602766
 20
-8.35156816902367
 30
0.0
 10
4.127283945425347
 20
-8.350409352918405
 30
0.0
 10
4.122644045045882
 20
-8.349242075983511
 30
0.0
 10
4.119445524893814
 20
-8.348668743191915
 30
0.0
 10
4.117711875693898
 20
-8.348668743192016
 30
0.0
 10
4.117711875693898
 20
-8.348668743192016
 30
0.0
 10
4.117711875692104
 20
-8.328640317664671
 30
0.0
 10
4.117711875692104
 20
-8.328640317664671
 30
0.0
 10
4.131069306926431
 20
-8.317015312770435
 30
0.0
 10
4.14993332085362
 20
-8.298731457022111
 30
0.0
 10
4.17431498036227
 20
-8.273776464717077
 30
0.0
 10
4.178380182871112
 20
-8.265638002268284
 30
0.0
 10
4.183899193530414
 20
-8.254613498688943
 30
0.0
 10
4.190858361559322
 20
-8.240682876925323
 30
0.0
 10
4.206534918178678
 20
-8.212227824434901
 30
0.0
 10
4.221639507084786
 20
-8.190172257963594
 30
0.0
 10
4.236143461638284
 20
-8.174495701340497
 30
0.0
 10
4.247768466530172
 20
-8.161717205472339
 30
0.0
 10
4.268083558451988
 20
-8.144887157874638
 30
0.0
 10
4.297105118340546
 20
-8.123985082376066
 30
0.0
 10
4.319754493771951
 20
-8.108307160674105
 30
0.0
 10
4.342110377417056
 20
-8.09263060405015
 30
0.0
 10
4.364172769275961
 20
-8.076959507738618
 30
0.0
 10
4.360106201687434
 20
-8.067074977392496
 30
0.0
 10
4.357786934035504
 20
-8.05401800559821
 30
0.0
 10
4.357201179325481
 20
-8.037766751106346
 30
0.0
 10
4.357201179325481
 20
-8.037766751106346
 30
0.0
 10
4.355453879344142
 20
-8.036027641638105
 30
0.0
 10
4.355453879344142
 20
-8.036027641638105
 30
0.0
 10
4.345589961427221
 20
-8.037766751107458
 30
0.0
 10
4.331072356091959
 20
-8.040666176941613
 30
0.0
 10
4.311916215455287
 20
-8.044732744531023
 30
0.0
 10
4.29682527732843
 20
-8.051118579770774
 30
0.0
 10
4.273309077318244
 20
-8.058956858083723
 30
0.0
 10
4.241368980502708
 20
-8.068248944548234
 30
0.0
 10
4.233250861186207
 20
-8.068248944548966
 30
0.0
 10
4.221346015287647
 20
-8.068821040330906
 30
0.0
 10
4.20566945866589
 20
-8.06998805402001
 30
0.0
 10
4.196964355777064
 20
-8.072300496281109
 30
0.0
 10
4.183325860722448
 20
-8.075213572896043
 30
0.0
 10
4.16472940209687
 20
-8.078699982303078
 30
0.0
 10
4.154292015129676
 20
-8.078699982304038
 30
0.0
 10
4.138907585216012
 20
-8.07898664870135
 30
0.0
 10
4.118578842512028
 20
-8.079572267197717
 30
0.0
 10
4.067494890761686
 20
-8.083625184009154
 30
0.0
 10
4.03904666366322
 20
-8.0856646106568
 30
0.0
 10
4.033234161216734
 20
-8.085664610657355
 30
0.0
 10
4.033234161216734
 20
-8.085664610657355
 30
0.0
 10
4.016690780015488
 20
-8.071733988895883
 30
0.0
 10
4.016690780015488
 20
-8.071733988895883
 30
0.0
  0
SPLINE
  5
81
330
7C
100
AcDbEntity
  8
Layer 1
370
     0
100
AcDbSpline
210
0.0
220
0.0
230
1.0
 70
    11
 71
     3
 72
    41
 73
    37
 74
     0
 42
0.0000000001
 43
0.0000000001
 12
1.0
 22
0.0
 32
0.0
 13
1.0
 23
0.0
 33
0.0
 40
0.0
 40
0.0
 40
0.0
 40
0.0
 40
1.0
 40
1.0
 40
1.0
 40
2.0
 40
2.0
 40
2.0
 40
3.0
 40
3.0
 40
3.0
 40
4.0
 40
4.0
 40
4.0
 40
5.0
 40
5.0
 40
5.0
 40
6.0
 40
6.0
 40
6.0
 40
7.0
 40
7.0
 40
7.0
 40
8.0
 40
8.0
 40
8.0
 40
9.0
 40
9.0
 40
9.0
 40
10.0
 40
10.0
 40
10.0
 40
11.0
 40
11.0
 40
11.0
 40
12.0
 40
12.0
 40
12.0
 40
12.0
 10
4.435573178027375
 20
-8.06998805399927
 30
0.0
 10
4.435573178028309
 20
-8.080439091747191
 30
0.0
 10
4.443717233828693
 20
-8.085664610620572
 30
0.0
 10
4.459968488320505
 20
-8.08566461061908
 30
0.0
 10
4.477964312593055
 20
-8.085664610617489
 30
0.0
 10
4.486962907267929
 20
-8.079853473248173
 30
0.0
 10
4.486962907266868
 20
-8.068248944526253
 30
0.0
 10
4.486962907266161
 20
-8.060110349038597
 30
0.0
 10
4.484496211182204
 20
-8.048219153921005
 30
0.0
 10
4.4795505333123
 20
-8.032541232221421
 30
0.0
 10
4.474632157004003
 20
-8.016864675599965
 30
0.0
 10
4.472153175217297
 20
-8.004374211207177
 30
0.0
 10
4.472153175216564
 20
-7.995095775526301
 30
0.0
 10
4.472153175215832
 20
-7.987542798533063
 30
0.0
 10
4.473899110073691
 20
-7.976659031035019
 30
0.0
 10
4.47737869408752
 20
-7.96243491748535
 30
0.0
 10
4.480856913023268
 20
-7.948203978545406
 30
0.0
 10
4.482604212959232
 20
-7.937619163145857
 30
0.0
 10
4.482604212958651
 20
-7.930647833989572
 30
0.0
 10
4.482604212957363
 20
-7.916717087650037
 30
0.0
 10
4.473325777275855
 20
-7.90975109423026
 30
0.0
 10
4.454742969430754
 20
-7.909751094231902
 30
0.0
 10
4.445450882969099
 20
-7.909751094232761
 30
0.0
 10
4.44079856278505
 20
-7.914390994612732
 30
0.0
 10
4.440798562785909
 20
-7.92368171599618
 30
0.0
 10
4.440798562786691
 20
-7.931806660703134
 30
0.0
 10
4.442690695103035
 20
-7.943711631508172
 30
0.0
 10
4.446463636946469
 20
-7.959388063223059
 30
0.0
 10
4.450250497489277
 20
-7.97506598492272
 30
0.0
 10
4.452130210000632
 20
-7.986957306039509
 30
0.0
 10
4.452130210001415
 20
-7.995095775528044
 30
0.0
 10
4.452130210002123
 20
-8.003800878417097
 30
0.0
 10
4.449370022134139
 20
-8.016564358425562
 30
0.0
 10
4.443851011475443
 20
-8.033414882193155
 30
0.0
 10
4.438345651597476
 20
-8.05024492978954
 30
0.0
 10
4.435573178026718
 20
-8.062436442084238
 30
0.0
 10
4.435573178027375
 20
-8.06998805399927
 30
0.0
  0
HATCH
  5
82
330
7C
100
AcDbEntity
  8
Layer 1
 62
    18
420
    65793
100
AcDbHatch
 10
0.0
 20
0.0
 30
0.0
210
0.0
220
0.0
230
1.0
  2
SOLID
 70
     1
 71
     0
 91
        2
 92
        1
 93
        1
 72
     4
 94
        3
 73
     0
 74
     1
 95
      476
 96
      472
 40
0.0
 40
0.0
 40
0.0
 40
0.0
 40
1.0
 40
1.0
 40
1.0
 40
2.0
 40
2.0
 40
2.0
 40
3.0
 40
3.0
 40
3.0
 40
4.0
 40
4.0
 40
4.0
 40
5.0
 40
5.0
 40
5.0
 40
6.0
 40
6.0
 40
6.0
 40
7.0
 40
7.0
 40
7.0
 40
8.0
 40
8.0
 40
8.0
 40
9.0
 40
9.0
 40
9.0
 40
10.0
 40
10.0
 40
10.0
 40
11.0
 40
11.0
 40
11.0
 40
12.0
 40
12.0
 40
12.0
 40
13.0
 40
13.0
 40
13.0
 40
14.0
 40
14.0
 40
14.0
 40
15.0
 40
15.0
 40
15.0
 40
16.0
 40
16.0
 40
16.0
 40
17.0
 40
17.0
 40
17.0
 40
18.0
 40
18.0
 40
18.0
 40
19.0
 40
19.0
 40
19.0
 40
20.0
 40
20.0
 40
20.0
 40
21.0
 40
21.0
 40
21.0
 40
22.0
 40
22.0
 40
22.0
 40
23.0
 40
23.0
 40
23.0
 40
24.0
 40
24.0
 40
24.0
 40
25.0
 40
25.0
 40
25.0
 40
26.0
 40
26.0
 40
26.0
 40
27.0
 40
27.0
 40
27.0
 40
28.0
 40
28.0
 40
28.0
 40
29.0
 40
29.0
 40
29.0
 40
30.0
 40
30.0
 40
30.0
 40
31.0
 40
31.0
 40
31.0
 40
32.0
 40
32.0
 40
32.0
 40
33.0
 40
33.0
 40
33.0
 40
34.0
 40
34.0
 40
34.0
 40
35.0
 40
35.0
 40
35.0
 40
36.0
 40
36.0
 40
36.0
 40
37.0
 40
37.0
 40
37.0
 40
38.0
 40
38.0
 40
38.0
 40
39.0
 40
39.0
 40
39.0
 40
40.0
 40
40.0
 40
40.0
 40
41.0
 40
41.0
 40
41.0
 40
42.0
 40
42.0
 40
42.0
 40
43.0
 40
43.0
 40
43.0
 40
44.0
 40
44.0
 40
44.0
 40
45.0
 40
45.0
 40
45.0
 40
46.0
 40
46.0
 40
46.0
 40
47.0
 40
47.0
 40
47.0
 40
48.0
 40
48.0
 40
48.0
 40
49.0
 40
49.0
 40
49.0
 40
50.0
 40
50.0
 40
50.0
 40
51.0
 40
51.0
 40
51.0
 40
52.0
 40
52.0
 40
52.0
 40
53.0
 40
53.0
 40
53.0
 40
54.0
 40
54.0
 40
54.0
 40
55.0
 40
55.0
 40
55.0
 40
56.0
 40
56.0
 40
56.0
 40
57.0
 40
57.0
 40
57.0
 40
58.0
 40
58.0
 40
58.0
 40
59.0
 40
59.0
 40
59.0
 40
60.0
 40
60.0
 40
60.0
 40
61.0
 40
61.0
 40
61.0
 40
62.0
 40
62.0
 40
62.0
 40
63.0
 40
63.0
 40
63.0
 40
64.0
 40
64.0
 40
64.0
 40
65.0
 40
65.0
 40
65.0
 40
66.0
 40
66.0
 40
66.0
 40
67.0
 40
67.0
 40
67.0
 40
68.0
 40
68.0
 40
68.0
 40
69.0
 40
69.0
 40
69.0
 40
70.0
 40
70.0
 40
70.0
 40
71.0
 40
71.0
 40
71.0
 40
72.0
 40
72.0
 40
72.0
 40
73.0
 40
73.0
 40
73.0
 40
74.0
 40
74.0
 40
74.0
 40
75.0
 40
75.0
 40
75.0
 40
76.0
 40
76.0
 40
76.0
 40
77.0
 40
77.0
 40
77.0
 40
78.0
 40
78.0
 40
78.0
 40
79.0
 40
79.0
 40
79.0
 40
80.0
 40
80.0
 40
80.0
 40
81.0
 40
81.0
 40
81.0
 40
82.0
 40
82.0
 40
82.0
 40
83.0
 40
83.0
 40
83.0
 40
84.0
 40
84.0
 40
84.0
 40
85.0
 40
85.0
 40
85.0
 40
86.0
 40
86.0
 40
86.0
 40
87.0
 40
87.0
 40
87.0
 40
88.0
 40
88.0
 40
88.0
 40
89.0
 40
89.0
 40
89.0
 40
90.0
 40
90.0
 40
90.0
 40
91.0
 40
91.0
 40
91.0
 40
92.0
 40
92.0
 40
92.0
 40
93.0
 40
93.0
 40
93.0
 40
94.0
 40
94.0
 40
94.0
 40
95.0
 40
95.0
 40
95.0
 40
96.0
 40
96.0
 40
96.0
 40
97.0
 40
97.0
 40
97.0
 40
98.0
 40
98.0
 40
98.0
 40
99.0
 40
99.0
 40
99.0
 40
100.0
 40
100.0
 40
100.0
 40
101.0
 40
101.0
 40
101.0
 40
102.0
 40
102.0
 40
102.0
 40
103.0
 40
103.0
 40
103.0
 40
104.0
 40
104.0
 40
104.0
 40
105.0
 40
105.0
 40
105.0
 40
106.0
 40
106.0
 40
106.0
 40
107.0
 40
107.0
 40
107.0
 40
108.0
 40
108.0
 40
108.0
 40
109.0
 40
109.0
 40
109.0
 40
110.0
 40
110.0
 40
110.0
 40
111.0
 40
111.0
 40
111.0
 40
112.0
 40
112.0
 40
112.0
 40
113.0
 40
113.0
 40
113.0
 40
114.0
 40
114.0
 40
114.0
 40
115.0
 40
115.0
 40
115.0
 40
116.0
 40
116.0
 40
116.0
 40
117.0
 40
117.0
 40
117.0
 40
118.0
 40
118.0
 40
118.0
 40
119.0
 40
119.0
 40
119.0
 40
120.0
 40
120.0
 40
120.0
 40
121.0
 40
121.0
 40
121.0
 40
122.0
 40
122.0
 40
122.0
 40
123.0
 40
123.0
 40
123.0
 40
124.0
 40
124.0
 40
124.0
 40
125.0
 40
125.0
 40
125.0
 40
126.0
 40
126.0
 40
126.0
 40
127.0
 40
127.0
 40
127.0
 40
128.0
 40
128.0
 40
128.0
 40
129.0
 40
129.0
 40
129.0
 40
130.0
 40
130.0
 40
130.0
 40
131.0
 40
131.0
 40
131.0
 40
132.0
 40
132.0
 40
132.0
 40
133.0
 40
133.0
 40
133.0
 40
134.0
 40
134.0
 40
134.0
 40
135.0
 40
135.0
 40
135.0
 40
136.0
 40
136.0
 40
136.0
 40
137.0
 40
137.0
 40
137.0
 40
138.0
 40
138.0
 40
138.0
 40
139.0
 40
139.0
 40
139.0
 40
140.0
 40
140.0
 40
140.0
 40
141.0
 40
141.0
 40
141.0
 40
142.0
 40
142.0
 40
142.0
 40
143.0
 40
143.0
 40
143.0
 40
144.0
 40
144.0
 40
144.0
 40
145.0
 40
145.0
 40
145.0
 40
146.0
 40
146.0
 40
146.0
 40
147.0
 40
147.0
 40
147.0
 40
148.0
 40
148.0
 40
148.0
 40
149.0
 40
149.0
 40
149.0
 40
150.0
 40
150.0
 40
150.0
 40
151.0
 40
151.0
 40
151.0
 40
152.0
 40
152.0
 40
152.0
 40
153.0
 40
153.0
 40
153.0
 40
154.0
 40
154.0
 40
154.0
 40
155.0
 40
155.0
 40
155.0
 40
156.0
 40
156.0
 40
156.0
 40
157.0
 40
157.0
 40
157.0
 40
157.0
 10
4.016690780015488
 20
-8.071733988895883
 10
4.019597031238314
 20
-8.067661960995615
 10
4.024529058325609
 20
-8.062723108517122
 10
4.031488226355287
 20
-8.056924256850733
 10
4.032660828422346
 20
-8.056924256850607
 10
4.036713745229197
 20
-8.056630892823097
 10
4.043686564040058
 20
-8.056057560016217
 10
4.068655207123495
 20
-8.054884830202228
 10
4.105820822813598
 20
-8.05227070568377
 10
4.155158839705046
 20
-8.048219153950589
 10
4.162703626229523
 20
-8.045893060908787
 10
4.174621982082082
 20
-8.042993762489484
 10
4.19085836154122
 20
-8.039507225667851
 10
4.199577115211014
 20
-8.038927067484943
 10
4.212627261615049
 20
-8.037766751119408
 10
4.230051118173732
 20
-8.036027641649298
 10
4.23934320463531
 20
-8.034855039581418
 10
4.251246685455486
 20
-8.03137545556529
 10
4.26575064000983
 20
-8.025576603898243
 10
4.283761480140583
 20
-8.018024991981443
 10
4.295372834252526
 20
-8.013671884670833
 10
4.300598353126361
 20
-8.012511568276725
 10
4.313368521203276
 20
-8.010185348589832
 10
4.332244958155974
 20
-8.0067003042607
 10
4.357201179322248
 20
-8.002060403878987
 10
4.357201179322248
 20
-8.002060403878987
 10
4.358947250395153
 20
-8.000321420747039
 10
4.358947250395153
 20
-8.000321420747039
 10
4.35952058318642
 20
-7.99509577553628
 10
4.360986677039136
 20
-7.987542798543068
 10
4.363292293908166
 20
-7.977678744367469
 10
4.316848242535166
 20
-7.957348761840699
 10
4.284920293380032
 20
-7.942844682037629
 10
4.267497939938519
 20
-7.934132753759715
 10
4.223958774710606
 20
-7.912650520085586
 10
4.195510547610411
 20
-7.894647870425135
 10
4.182153258637931
 20
-7.880137090481134
 10
4.171702220888467
 20
-7.863293392105409
 10
4.153718682316367
 20
-7.83949735109056
 10
4.128163055657574
 20
-7.808729856343562
 10
4.117711875644533
 20
-7.798852151388296
 10
4.107260980159885
 20
-7.789266694146463
 10
4.096809942411129
 20
-7.779989502539593
 10
4.078812753058931
 20
-7.763145804164473
 10
4.069814158382782
 20
-7.754147209489929
 10
4.069814158382655
 20
-7.752993718516032
 10
4.069814158382416
 20
-7.750080641902287
 10
4.071547807538069
 20
-7.74311601355968
 10
4.07503953391261
 20
-7.732091643019556
 10
4.07503953391261
 20
-7.732091643019556
 10
4.082877955565765
 20
-7.732091643018899
 10
4.082877955565765
 20
-7.732091643018899
 10
4.089836980627549
 20
-7.732091643018268
 10
4.103487761730851
 20
-7.743116013556801
 10
4.123804361357694
 20
-7.765185230805653
 10
4.129616863804876
 20
-7.771564240653131
 10
4.138042125689215
 20
-7.780861787426298
 10
4.149066496230022
 20
-7.793053299719809
 10
4.157771599119782
 20
-7.800017928061505
 10
4.169956286024836
 20
-7.81104366367822
 10
4.185632842648096
 20
-7.826146887506789
 10
4.190285028731106
 20
-7.835425323187337
 10
4.198123307043198
 20
-7.848202453975646
 10
4.209147677584408
 20
-7.864465994169045
 10
4.220772682478658
 20
-7.877810997436578
 10
4.255886585822976
 20
-7.897559581955344
 10
4.314528837589301
 20
-7.923681716007549
 10
4.327886263853012
 20
-7.928321616385826
 10
4.347615737282618
 20
-7.936446561090936
 10
4.373744696731515
 20
-7.94807020090348
 10
4.376077615162558
 20
-7.943411314329826
 10
4.379555834098988
 20
-7.937033544660582
 10
4.384195734477745
 20
-7.928907234875346
 10
4.384195734477745
 20
-7.928907234875346
 10
4.381582975040803
 20
-7.928907234875547
 10
4.381582975040803
 20
-7.928907234875547
 10
4.364172769260676
 20
-7.907425001199044
 10
4.338910634388008
 20
-7.875485027567897
 10
4.305823871984229
 20
-7.833113003029261
 10
4.301171685901307
 20
-7.824407778028039
 10
4.293492983900427
 20
-7.811342615765675
 10
4.282734941407448
 20
-7.793926949676234
 10
4.272002697574382
 20
-7.776503213800904
 10
4.25588658580989
 20
-7.752406734926681
 10
4.234409812441413
 20
-7.721639240179329
 10
4.228025342280463
 20
-7.71408762826483
 10
4.219600080395872
 20
-7.702196433147694
 10
4.209147677568327
 20
-7.685932892954244
 10
4.20857570985456
 20
-7.684779401980247
 10
4.204509142265717
 20
-7.671715604795609
 10
4.196964355738828
 20
-7.646746961712879
 10
4.196964355738828
 20
-7.646746961712879
 10
4.211761802078273
 20
-7.628457645652588
 10
4.211761802078273
 20
-7.628457645652588
 10
4.221052523462618
 20
-7.637169691093908
 10
4.227745501268815
 20
-7.645740899168206
 10
4.231797052998331
 20
-7.654145684880253
 10
4.235863620586795
 20
-7.662570946763404
 10
4.240222314883428
 20
-7.671428938396502
 10
4.244862215263715
 20
-7.680707374076923
 10
4.249514401346434
 20
-7.687106860095708
 10
4.256180077591251
 20
-7.697257580666397
 10
4.264885180481593
 20
-7.711188202428628
 10
4.278254755157528
 20
-7.734404204880724
 10
4.299144407272857
 20
-7.768084656622831
 10
4.327592635094232
 20
-7.812209440340767
 10
4.34442964504443
 20
-7.831939035851039
 10
4.367945845058052
 20
-7.863006725691902
 10
4.398126221058318
 20
-7.905392399941142
 10
4.398126221058318
 20
-7.905392399941142
 10
4.401619591034028
 20
-7.900173706457306
 10
4.401619591034028
 20
-7.900173706457306
 10
4.394073439429954
 20
-7.885062292159419
 10
4.390288077924374
 20
-7.868518910959765
 10
4.390288077922782
 20
-7.850528546999461
 10
4.39028807792076
 20
-7.828459329748839
 10
4.397552888243505
 20
-7.810470330865932
 10
4.412070628772628
 20
-7.79653970910158
 10
4.412070628772628
 20
-7.79653970910158
 10
4.398126221046419
 20
-7.773023509091874
 10
4.398126221046419
 20
-7.773023509091874
 10
4.398126221046419
 20
-7.773023509091874
 10
4.404271937721963
 20
-7.752993718485994
 10
4.404271937721963
 20
-7.752993718485994
 10
4.418882368367122
 20
-7.757046635291494
 10
4.426494043717639
 20
-7.759372728331855
 10
4.427067376509563
 20
-7.759959711904482
 10
4.431173531361992
 20
-7.766338721752036
 10
4.434958892866588
 20
-7.77302350908864
 10
4.438479429224596
 20
-7.779989502508922
 10
4.449582974292449
 20
-7.777076546591287
 10
4.457475855726316
 20
-7.775636268523511
 10
4.462153978291957
 20
-7.775636268523158
 10
4.467420449508128
 20
-7.775636268522677
 10
4.473859522791549
 20
-7.776789880185889
 10
4.481443896580585
 20
-7.779115852536506
 10
4.48612338422375
 20
-7.773310175479891
 10
4.490802871866941
 20
-7.767645101465202
 10
4.495480994432051
 20
-7.762138376507108
 10
4.500160482075166
 20
-7.75661402571432
 10
4.506879396363855
 20
-7.753860543054871
 10
4.515637737297816
 20
-7.753860543054038
 10
4.515637737297816
 20
-7.753860543054038
 10
4.523529253653755
 20
-7.754734193021805
 10
4.523529253653755
 20
-7.754734193021805
 10
4.523529253653603
 20
-7.75240673490263
 10
4.523529253654058
 20
-7.758505903745142
 10
4.523529253655397
 20
-7.773023509080708
 10
4.523529253655473
 20
-7.77359684187253
 10
4.523529253655624
 20
-7.774762618549125
 10
4.523529253655751
 20
-7.776503213778268
 10
4.521716429971345
 20
-7.778249027954871
 10
4.515330594733491
 20
-7.784914704199309
 10
4.504373113020493
 20
-7.796539709093395
 10
4.517157069201428
 20
-7.812782773115562
 10
4.523529253660778
 20
-7.832526019422251
 10
4.523529253662875
 20
-7.855754065861447
 10
4.523529253664365
 20
-7.872585478535458
 10
4.519769828645293
 20
-7.88913580865412
 10
4.5122113913413
 20
-7.905392399930886
 10
4.5122113913413
 20
-7.905392399930886
 10
4.515704626137802
 20
-7.912363853663464
 10
4.515704626137802
 20
-7.912363853663464
 10
4.523249280641949
 20
-7.901325956178147
 10
4.53776701799547
 20
-7.884495784745063
 10
4.559242426281192
 20
-7.8618532347007
 10
4.569121496314134
 20
-7.848489120338222
 10
4.584211069361774
 20
-7.82875964690801
 10
4.604527526360774
 20
-7.80263080880094
 10
4.619045131695126
 20
-7.789266694100408
 10
4.638788255902707
 20
-7.767797990196337
 10
4.663743119732569
 20
-7.738189446731162
 10
4.665489183061506
 20
-7.735277854836517
 10
4.67768752074403
 20
-7.708875760131276
 10
4.70032324539165
 20
-7.658938473962204
 10
4.707294699124203
 20
-7.65603904812868
 10
4.71513434251296
 20
-7.653139622295081
 10
4.72383944540176
 20
-7.650226545680576
 10
4.72383944540176
 20
-7.650226545680576
 10
4.72993042377771
 20
-7.672002271144442
 10
4.72993042377771
 20
-7.672002271144442
 10
4.722399288035527
 20
-7.690585197502438
 10
4.712520218003217
 20
-7.712635185148706
 10
4.700323245398774
 20
-7.738189446727928
 10
4.694524393733521
 20
-7.74456845657629
 10
4.686538686991222
 20
-7.754300098179101
 10
4.676381141030813
 20
-7.767365260442956
 10
4.666222229992248
 20
-7.780422232238455
 10
4.651265069518002
 20
-7.79971897591857
 10
4.631523310388805
 20
-7.825273237498297
 10
4.614698723106787
 20
-7.843263601460143
 10
4.589436588239423
 20
-7.870258020410321
 10
4.555764207348147
 20
-7.906264684817365
 10
4.551124175654043
 20
-7.913230678238354
 10
4.543859361450965
 20
-7.92194260651839
 10
4.533980291417694
 20
-7.932393644267247
 10
4.532248007339553
 20
-7.932966977059272
 10
4.529928739689037
 20
-7.933833801637597
 10
4.527022488465869
 20
-7.935006403704897
 10
4.529928739689896
 20
-7.943711631500289
 10
4.532541499127521
 20
-7.950384008227704
 10
4.534860766778618
 20
-7.955036194309691
 10
4.617311482553178
 20
-7.948070200881678
 10
4.691044681954736
 20
-7.9315199942847
 10
4.75605938324659
 20
-7.905392399908982
 10
4.771735939867792
 20
-7.897840787992537
 10
4.787707353353325
 20
-7.890007969992515
 10
4.803957242766374
 20
-7.881883025284146
 10
4.823113383402566
 20
-7.873171097003099
 10
4.840257398955524
 20
-7.868819228095971
 10
4.855346972004806
 20
-7.868819228094607
 10
4.850694785923906
 20
-7.882169691675927
 10
4.846629583415178
 20
-7.891594190711278
 10
4.843149999400566
 20
-7.897120026762119
 10
4.83967041538603
 20
-7.902632212032358
 10
4.832125504645242
 20
-7.908291825735078
 10
4.820500623969236
 20
-7.914104328182601
 10
4.812382504653038
 20
-7.917003754016327
 10
4.800477658754844
 20
-7.921068956526924
 10
4.78480110213339
 20
-7.926294475402377
 10
4.777268601311713
 20
-7.930354217600274
 10
4.765351469710999
 20
-7.935873228261597
 10
4.749100215219768
 20
-7.942844681995894
 10
4.724145222917792
 20
-7.951549784887194
 10
4.671581526533954
 20
-7.962574155431765
 10
4.59146372919142
 20
-7.975938269800508
 10
4.589156747243477
 20
-7.976506142280211
 10
4.581318468932674
 20
-7.978545568926013
 10
4.567947529181033
 20
-7.982030613254665
 10
4.558669093500384
 20
-7.984344420593869
 10
4.550830815189581
 20
-7.98551702266175
 10
4.544432694248497
 20
-7.985517022662306
 10
4.544432694248497
 20
-7.985517022662306
 10
4.543565869670525
 20
-7.987256132130798
 10
4.543565869670525
 20
-7.987256132130798
 10
4.543565869671511
 20
-7.997708534956827
 10
4.544872117917369
 20
-8.004813766341005
 10
4.54748500882791
 20
-8.008592302454442
 10
4.550097768265257
 20
-8.012365378255506
 10
4.559829409867764
 20
-8.017438008384135
 10
4.576666282854577
 20
-8.023836129323701
 10
4.587704304175455
 20
-8.028476029702157
 10
4.599022166501982
 20
-8.032827898606582
 10
4.610619869833878
 20
-8.036894466193315
 10
4.618765290712241
 20
-8.041539826884218
 10
4.630656485830741
 20
-8.047918836731217
 10
4.646333042453332
 20
-8.056057559962028
 10
4.648078977312252
 20
-8.0566308927683
 10
4.661717472367349
 20
-8.059389587798933
 10
4.687259448243114
 20
-8.064328440274771
 10
4.712813709821527
 20
-8.069255007047786
 10
4.726452204876598
 20
-8.071733988832092
 10
4.728198139735519
 20
-8.07173398883189
 10
4.728198139735519
 20
-8.07173398883189
 10
4.761284902135154
 20
-8.068248944501546
 10
4.761284902135154
 20
-8.068248944501546
 10
4.761284902135154
 20
-8.068248944501546
 10
4.80309029325546
 20
-8.074346748262238
 10
4.80309029325546
 20
-8.074346748262238
 10
4.800184166982237
 20
-8.074346748262517
 10
4.807156985793199
 20
-8.07434674826186
 10
4.823993858779482
 20
-8.074346748260293
 10
4.833284580163055
 20
-8.074346748259485
 10
4.849548120357667
 20
-8.075786905627966
 10
4.87275717780181
 20
-8.078699982239488
 10
4.87275717780181
 20
-8.078699982239488
 10
4.885822340066321
 20
-8.096117013406785
 10
4.885822340066321
 20
-8.096117013406785
 10
4.882342756051558
 20
-8.09960205773445
 10
4.876543904386304
 20
-8.104827576609017
 10
4.868398483508902
 20
-8.111793699183028
 10
4.860865982686846
 20
-8.11120671559628
 10
4.849242342871801
 20
-8.110047635173107
 10
4.833564421171584
 20
-8.108307160627948
 10
4.83125880430167
 20
-8.10830716062815
 10
4.825446301854981
 20
-8.106854717556164
 10
4.816154090773099
 20
-8.103955291724004
 10
4.808609428868244
 20
-8.101629198683616
 10
4.802796926421579
 20
-8.100468882319722
 10
4.798731723912042
 20
-8.100468882320076
 10
4.795252139896951
 20
-8.100468882320481
 10
4.789746780017518
 20
-8.100908437461333
 10
4.782188342712187
 20
-8.101775262040139
 10
4.774655716221887
 20
-8.102648912009247
 10
4.769123180449317
 20
-8.103081641759774
 10
4.765644961512256
 20
-8.103081641760076
 10
4.748808088525973
 20
-8.103081641761642
 10
4.721372749359236
 20
-8.099449169004451
 10
4.6833403090901
 20
-8.092196509191378
 10
4.645320154523713
 20
-8.084931563675708
 10
4.619045131721046
 20
-8.078112998689726
 10
4.6045275263849
 20
-8.07173398884298
 10
4.592342839480176
 20
-8.065335867903084
 10
4.573760031634214
 20
-8.056057559968597
 10
4.548791388549615
 20
-8.043865919931653
 10
4.547631072185797
 20
-8.049657946207137
 10
4.546178629113885
 20
-8.05808320809082
 10
4.544432694256001
 20
-8.069121357486159
 10
4.556056334071703
 20
-8.076660555622714
 10
4.572307588564576
 20
-8.08885070283774
 10
4.59320953380979
 20
-8.10569440121248
 10
4.626883410037559
 20
-8.139361321791714
 10
4.652425385915472
 20
-8.168096215283892
 10
4.669849242476478
 20
-8.191911367391867
 10
4.670434860971126
 20
-8.193651841938415
 10
4.682033929382643
 20
-8.214840583829174
 10
4.704681812304998
 20
-8.25548714861063
 10
4.716866626647035
 20
-8.275802240532837
 10
4.734010642203101
 20
-8.306571100358699
 10
4.75605938328633
 20
-8.347796458244323
 10
4.75605938328633
 20
-8.347796458244323
 10
4.748221104977246
 20
-8.368698533740876
 10
4.748221104977246
 20
-8.368698533740876
 10
4.744168188170256
 20
-8.36753275706456
 10
4.738355685723414
 20
-8.364633466772299
 10
4.730810899198357
 20
-8.359993430853365
 10
4.72267912910042
 20
-8.35243499354869
 10
4.714840850788429
 20
-8.340530147650725
 10
4.707294699184179
 20
-8.324287083628153
 10
4.700910229022838
 20
-8.311509952839767
 10
4.69452439378324
 20
-8.298444790577326
 10
4.688138558543742
 20
-8.285094326997093
 10
4.660850647805066
 20
-8.235744024405069
 10
4.638214923149613
 20
-8.198297202633107
 10
4.62020544809401
 20
-8.172755226759364
 10
4.61672586407854
 20
-8.168683198859677
 10
4.603368575106161
 20
-8.156345623212347
 10
4.580145736297633
 20
-8.135742499817095
 10
4.55693680943399
 20
-8.115125725641166
 10
4.541819934821988
 20
-8.102494658207686
 10
4.534860766791376
 20
-8.097856251707475
 10
4.529061915126476
 20
-8.107721542160789
 10
4.523529253686243
 20
-8.116432105362668
 10
4.518317385593718
 20
-8.123985082356159
 10
4.518317385593718
 20
-8.123985082356159
 10
4.527889313062537
 20
-8.142274398414227
 10
4.527889313062537
 20
-8.142274398414227
 10
4.525582331116563
 20
-8.164916948456948
 10
4.524116237264403
 20
-8.178260586647513
 10
4.523529253692155
 20
-8.182333979625582
 10
4.521223636823328
 20
-8.193938508347804
 10
4.516571450742276
 20
-8.207002305533074
 10
4.509598499568382
 20
-8.22151991086927
 10
4.509598499568382
 20
-8.22151991086927
 10
4.509598499572449
 20
-8.266805010954284
 10
4.509598499572449
 20
-8.266805010954284
 10
4.509598499572449
 20
-8.266805010954284
 10
4.493922075315898
 20
-8.278129698672046
 10
4.493922075315898
 20
-8.278129698672046
 10
4.493922075315898
 20
-8.278129698672046
 10
4.483470904543057
 20
-8.272030529830468
 10
4.483470904543057
 20
-8.272030529830468
 10
4.482324238929373
 20
-8.259839017536049
 10
4.481737255341032
 20
-8.2496746461841
 10
4.481737255340325
 20
-8.241549701477222
 10
4.481737255338683
 20
-8.222965660515204
 10
4.488123223642989
 20
-8.198877360828797
 10
4.500893529038977
 20
-8.169268817364708
 10
4.500893529038977
 20
-8.169268817364708
 10
4.489575666710885
 20
-8.14662763240128
 10
4.489575666710885
 20
-8.14662763240128
 10
4.4768053613128
 20
-8.15242648406815
 10
4.464620674408858
 20
-8.155338195604877
 10
4.452995669515833
 20
-8.155338195605912
 10
4.449516085500792
 20
-8.155338195606266
 10
4.445023613553354
 20
-8.154598323289594
 10
4.439492317190266
 20
-8.15315953099821
 10
4.433986823036295
 20
-8.151698897457639
 10
4.430066453077062
 20
-8.150679184135445
 10
4.42773353464554
 20
-8.150112676734226
 10
4.42773353464554
 20
-8.150112676734226
 10
4.424255315708908
 20
-8.154466040948819
 10
4.424255315708908
 20
-8.154466040948819
 10
4.424255315708908
 20
-8.154466040948819
 10
4.420775731693867
 20
-8.155338195608767
 10
4.420775731693867
 20
-8.155338195608767
 10
4.427733534647485
 20
-8.171582624709622
 10
4.434426512454213
 20
-8.187559498507552
 10
4.440798562811046
 20
-8.20323605512888
 10
4.44602421578851
 20
-8.217166676891413
 10
4.448636975227146
 20
-8.235157040851492
 10
4.448636975229141
 20
-8.257226258102087
 10
4.448636975229824
 20
-8.265938319428288
 10
4.446611199366012
 20
-8.272317196229677
 10
4.442544631778775
 20
-8.276389224130146
 10
4.438491580811564
 20
-8.280442140937287
 10
4.43413302067678
 20
-8.28479400984328
 10
4.429480834594971
 20
-8.289447561003827
 10
4.423094999355246
 20
-8.273776464694794
 10
4.419615415339245
 20
-8.2641922515253
 10
4.419028431766415
 20
-8.260712667510258
 10
4.419028431766315
 20
-8.260125683937632
 10
4.419028431765304
 20
-8.247934171643212
 10
4.419028431763207
 20
-8.224132670314424
 10
4.410283741607929
 20
-8.202650436637162
 10
4.400699528436361
 20
-8.18348610553259
 10
4.390288077951128
 20
-8.166656188476281
 10
4.390288077951128
 20
-8.166656188476281
 10
4.401619591055097
 20
-8.13443612011459
 10
4.401619591055097
 20
-8.13443612011459
 10
4.390008236941741
 20
-8.123398098795127
 10
4.381303134051753
 20
-8.112947061048038
 10
4.375490631604306
 20
-8.103081641795091
 10
4.357493442254508
 20
-8.112360077477534
 10
4.333551337885486
 20
-8.129643330996865
 10
4.303637016935783
 20
-8.15489864047893
 10
4.273749997547585
 20
-8.180153949961044
 10
4.252700493621369
 20
-8.200623295708787
 10
4.240502155937886
 20
-8.216294392019512
 10
4.23644923913173
 20
-8.224419336726644
 10
4.230638101764308
 20
-8.236324182625872
 10
4.223079664460354
 20
-8.252000871943185
 10
4.219026747654046
 20
-8.258972192981648
 10
4.211761802135912
 20
-8.270290055308275
 10
4.201309259158935
 20
-8.2859679770093
 10
4.199003782441688
 20
-8.289447561024543
 10
4.187965761122237
 20
-8.301344216455668
 10
4.168222636914505
 20
-8.321674458694336
 10
4.148493163487514
 20
-8.341990781242783
 10
4.138042125740526
 20
-8.352155152595742
 10
4.136868158595411
 20
-8.352155152595817
 10
4.13512222373644
 20
-8.352155152595945
 10
4.131935989602766
 20
-8.35156816902367
 10
4.127283945425347
 20
-8.350409352918405
 10
4.122644045045882
 20
-8.349242075983511
 10
4.119445524893814
 20
-8.348668743191915
 10
4.117711875693898
 20
-8.348668743192016
 10
4.117711875693898
 20
-8.348668743192016
 10
4.117711875692104
 20
-8.328640317664671
 10
4.117711875692104
 20
-8.328640317664671
 10
4.131069306926431
 20
-8.317015312770435
 10
4.14993332085362
 20
-8.298731457022111
 10
4.17431498036227
 20
-8.273776464717077
 10
4.178380182871112
 20
-8.265638002268284
 10
4.183899193530414
 20
-8.254613498688943
 10
4.190858361559322
 20
-8.240682876925323
 10
4.206534918178678
 20
-8.212227824434901
 10
4.221639507084786
 20
-8.190172257963594
 10
4.236143461638284
 20
-8.174495701340497
 10
4.247768466530172
 20
-8.161717205472339
 10
4.268083558451988
 20
-8.144887157874638
 10
4.297105118340546
 20
-8.123985082376066
 10
4.319754493771951
 20
-8.108307160674105
 10
4.342110377417056
 20
-8.09263060405015
 10
4.364172769275961
 20
-8.076959507738618
 10
4.360106201687434
 20
-8.067074977392496
 10
4.357786934035504
 20
-8.05401800559821
 10
4.357201179325481
 20
-8.037766751106346
 10
4.357201179325481
 20
-8.037766751106346
 10
4.355453879344142
 20
-8.036027641638105
 10
4.355453879344142
 20
-8.036027641638105
 10
4.345589961427221
 20
-8.037766751107458
 10
4.331072356091959
 20
-8.040666176941613
 10
4.311916215455287
 20
-8.044732744531023
 10
4.29682527732843
 20
-8.051118579770774
 10
4.273309077318244
 20
-8.058956858083723
 10
4.241368980502708
 20
-8.068248944548234
 10
4.233250861186207
 20
-8.068248944548966
 10
4.221346015287647
 20
-8.068821040330906
 10
4.20566945866589
 20
-8.06998805402001
 10
4.196964355777064
 20
-8.072300496281109
 10
4.183325860722448
 20
-8.075213572896043
 10
4.16472940209687
 20
-8.078699982303078
 10
4.154292015129676
 20
-8.078699982304038
 10
4.138907585216012
 20
-8.07898664870135
 10
4.118578842512028
 20
-8.079572267197717
 10
4.067494890761686
 20
-8.083625184009154
 10
4.03904666366322
 20
-8.0856646106568
 10
4.033234161216734
 20
-8.085664610657355
 10
4.033234161216734
 20
-8.085664610657355
 10
4.016690780015488
 20
-8.071733988895883
 10
4.016690780015488
 20
-8.071733988895883
 97
        0
 97
        0
 92
        1
 93
        1
 72
     4
 94
        3
 73
     0
 74
     1
 95
       41
 96
       37
 40
0.0
 40
0.0
 40
0.0
 40
0.0
 40
1.0
 40
1.0
 40
1.0
 40
2.0
 40
2.0
 40
2.0
 40
3.0
 40
3.0
 40
3.0
 40
4.0
 40
4.0
 40
4.0
 40
5.0
 40
5.0
 40
5.0
 40
6.0
 40
6.0
 40
6.0
 40
7.0
 40
7.0
 40
7.0
 40
8.0
 40
8.0
 40
8.0
 40
9.0
 40
9.0
 40
9.0
 40
10.0
 40
10.0
 40
10.0
 40
11.0
 40
11.0
 40
11.0
 40
12.0
 40
12.0
 40
12.0
 40
12.0
 10
4.435573178027375
 20
-8.06998805399927
 10
4.435573178028309
 20
-8.080439091747191
 10
4.443717233828693
 20
-8.085664610620572
 10
4.459968488320505
 20
-8.08566461061908
 10
4.477964312593055
 20
-8.085664610617489
 10
4.486962907267929
 20
-8.079853473248173
 10
4.486962907266868
 20
-8.068248944526253
 10
4.486962907266161
 20
-8.060110349038597
 10
4.484496211182204
 20
-8.048219153921005
 10
4.4795505333123
 20
-8.032541232221421
 10
4.474632157004003
 20
-8.016864675599965
 10
4.472153175217297
 20
-8.004374211207177
 10
4.472153175216564
 20
-7.995095775526301
 10
4.472153175215832
 20
-7.987542798533063
 10
4.473899110073691
 20
-7.976659031035019
 10
4.47737869408752
 20
-7.96243491748535
 10
4.480856913023268
 20
-7.948203978545406
 10
4.482604212959232
 20
-7.937619163145857
 10
4.482604212958651
 20
-7.930647833989572
 10
4.482604212957363
 20
-7.916717087650037
 10
4.473325777275855
 20
-7.90975109423026
 10
4.454742969430754
 20
-7.909751094231902
 10
4.445450882969099
 20
-7.909751094232761
 10
4.44079856278505
 20
-7.914390994612732
 10
4.440798562785909
 20
-7.92368171599618
 10
4.440798562786691
 20
-7.931806660703134
 10
4.442690695103035
 20
-7.943711631508172
 10
4.446463636946469
 20
-7.959388063223059
 10
4.450250497489277
 20
-7.97506598492272
 10
4.452130210000632
 20
-7.986957306039509
 10
4.452130210001415
 20
-7.995095775528044
 10
4.452130210002123
 20
-8.003800878417097
 10
4.449370022134139
 20
-8.016564358425562
 10
4.443851011475443
 20
-8.033414882193155
 10
4.438345651597476
 20
-8.05024492978954
 10
4.435573178026718
 20
-8.062436442084238
 10
4.435573178027375
 20
-8.06998805399927
 97
        0
 97
        0
 75
     2
 76
     1
 98
        0
  0
ENDBLK
  5
7F
330
7C
100
AcDbEntity
  8
0
100
AcDbBlockEnd
  0
ENDSEC
  0
SECTION
  2
ENTITIES
  0
INSERT
  5
42
330
1F
100
AcDbEntity
  8
Layer 1
100
AcDbBlockReference
  2
block 2
 10
0.0
 20
0.0
 30
0.0
  0
ENDSEC
  0
SECTION
  2
OBJECTS
  0
DICTIONARY
  5
C
330
0
100
AcDbDictionary
281
     1
  3
ACAD_GROUP
350
D
  3
ACAD_LAYOUT
350
1A
  3
ACAD_MATERIAL
350
3B
  3
ACAD_MLEADERSTYLE
350
88
  3
ACAD_MLINESTYLE
350
17
  3
ACAD_PLOTSETTINGS
350
19
  3
ACAD_PLOTSTYLENAME
350
E
  3
ACAD_TABLESTYLE
350
87
  3
ACAD_VISUALSTYLE
350
2A
  0
SUN
  5
3F
330
29
100
AcDbSun
 90
        1
290
     0
 63
     7
421
 16777215
 40
1.0
291
     1
 91
  2455826
 92
 54000000
292
     0
 70
     2
 71
   256
280
     1
  0
DICTIONARY
  5
D
102
{ACAD_REACTORS
330
C
102
}
330
C
100
AcDbDictionary
281
     1
  0
DICTIONARY
  5
1A
102
{ACAD_REACTORS
330
C
102
}
330
C
100
AcDbDictionary
281
     1
  3
Layout1
350
1E
  3
Layout2
350
26
  3
Model
350
22
  0
DICTIONARY
  5
3B
102
{ACAD_REACTORS
330
C
102
}
330
C
100
AcDbDictionary
281
     1
  3
ByBlock
350
3D
  3
ByLayer
350
3C
  3
Global
350
3E
  0
DICTIONARY
  5
88
102
{ACAD_REACTORS
330
C
102
}
330
C
100
AcDbDictionary
281
     1
  0
DICTIONARY
  5
17
102
{ACAD_REACTORS
330
C
102
}
330
C
100
AcDbDictionary
281
     1
  3
Standard
350
18
  0
DICTIONARY
  5
19
102
{ACAD_REACTORS
330
C
102
}
330
C
100
AcDbDictionary
281
     1
  0
ACDBDICTIONARYWDFLT
  5
E
102
{ACAD_REACTORS
330
C
102
}
330
C
100
AcDbDictionary
281
     1
  3
Normal
350
F
100
AcDbDictionaryWithDefault
340
F
  0
DICTIONARY
  5
87
102
{ACAD_REACTORS
330
C
102
}
330
C
100
AcDbDictionary
281
     1
  0
DICTIONARY
  5
2A
102
{ACAD_REACTORS
330
C
102
}
330
C
100
AcDbDictionary
281
     1
  3
2dWireframe
350
2F
  3
3D Hidden
350
31
  3
3dWireframe
350
30
  3
Basic
350
32
  3
Brighten
350
36
  3
ColorChange
350
3A
  3
Conceptual
350
34
  3
Dim
350
35
  3
Facepattern
350
39
  3
Flat
350
2B
  3
FlatWithEdges
350
2C
  3
Gouraud
350
2D
  3
GouraudWithEdges
350
2E
  3
Linepattern
350
38
  3
Realistic
350
33
  3
Thicken
350
37
  0
LAYOUT
  5
1E
102
{ACAD_REACTORS
330
1A
102
}
330
1A
100
AcDbPlotSettings
  1

  2
none_device
  4

  6

 40
0.0
 41
0.0
 42
0.0
 43
0.0
 44
0.0
 45
0.0
 46
0.0
 47
0.0
 48
0.0
 49
0.0
140
0.0
141
0.0
142
1.0
143
1.0
 70
   688
 72
     0
 73
     0
 74
     5
  7

 75
    16
 76
     0
 77
     2
 78
   300
147
1.0
148
0.0
149
0.0
100
AcDbLayout
  1
Layout1
 70
     1
 71
     1
 10
0.0
 20
0.0
 11
12.0
 21
9.0
 12
0.0
 22
0.0
 32
0.0
 14
1.000000000000000E+20
 24
1.000000000000000E+20
 34
1.000000000000000E+20
 15
-1.000000000000000E+20
 25
-1.000000000000000E+20
 35
-1.000000000000000E+20
146
0.0
 13
0.0
 23
0.0
 33
0.0
 16
1.0
 26
0.0
 36
0.0
 17
0.0
 27
1.0
 37
0.0
 76
     0
330
1B
  0
LAYOUT
  5
26
102
{ACAD_REACTORS
330
1A
102
}
330
1A
100
AcDbPlotSettings
  1

  2
none_device
  4

  6

 40
0.0
 41
0.0
 42
0.0
 43
0.0
 44
0.0
 45
0.0
 46
0.0
 47
0.0
 48
0.0
 49
0.0
140
0.0
141
0.0
142
1.0
143
1.0
 70
   688
 72
     0
 73
     0
 74
     5
  7

 75
    16
 76
     0
 77
     2
 78
   300
147
1.0
148
0.0
149
0.0
100
AcDbLayout
  1
Layout2
 70
     1
 71
     2
 10
0.0
 20
0.0
 11
0.0
 21
0.0
 12
0.0
 22
0.0
 32
0.0
 14
0.0
 24
0.0
 34
0.0
 15
0.0
 25
0.0
 35
0.0
146
0.0
 13
0.0
 23
0.0
 33
0.0
 16
1.0
 26
0.0
 36
0.0
 17
0.0
 27
1.0
 37
0.0
 76
     0
330
23
  0
LAYOUT
  5
22
102
{ACAD_REACTORS
330
1A
102
}
330
1A
100
AcDbPlotSettings
  1

  2
none_device
  4

  6

 40
0.0
 41
0.0
 42
0.0
 43
0.0
 44
0.0
 45
0.0
 46
0.0
 47
0.0
 48
0.0
 49
0.0
140
0.0
141
0.0
142
1.0
143
1.0
 70
  1712
 72
     0
 73
     0
 74
     0
  7

 75
     0
 76
     0
 77
     2
 78
   300
147
1.0
148
0.0
149
0.0
100
AcDbLayout
  1
Model
 70
     1
 71
     0
 10
0.0
 20
0.0
 11
12.0
 21
9.0
 12
0.0
 22
0.0
 32
0.0
 14
1.000000000000000E+20
 24
1.000000000000000E+20
 34
1.000000000000000E+20
 15
-1.000000000000000E+20
 25
-1.000000000000000E+20
 35
-1.000000000000000E+20
146
0.0
 13
0.0
 23
0.0
 33
0.0
 16
1.0
 26
0.0
 36
0.0
 17
0.0
 27
1.0
 37
0.0
 76
     0
330
1F
331
29
  0
MATERIAL
  5
3D
102
{ACAD_REACTORS
330
3B
102
}
330
3B
100
AcDbMaterial
  1
ByBlock
 72
     1
 94
      127
  0
MATERIAL
  5
3C
102
{ACAD_REACTORS
330
3B
102
}
330
3B
100
AcDbMaterial
  1
ByLayer
 72
     1
 94
      127
  0
MATERIAL
  5
3E
102
{ACAD_REACTORS
330
3B
102
}
330
3B
100
AcDbMaterial
  1
Global
 72
     1
 94
      127
  0
MLINESTYLE
  5
18
102
{ACAD_REACTORS
330
17
102
}
330
17
100
AcDbMlineStyle
  2
Standard
 70
     0
  3

 62
   256
 51
90.0
 52
90.0
 71
     2
 49
0.5
 62
   256
  6
BYLAYER
 49
-0.5
 62
   256
  6
BYLAYER
  0
ACDBPLACEHOLDER
  5
F
102
{ACAD_REACTORS
330
E
102
}
330
E
  0
VISUALSTYLE
  5
2F
102
{ACAD_REACTORS
330
2A
102
}
330
2A
100
AcDbVisualStyle
  2
2dWireframe
 70
     4
177
     2
291
     0
 71
     0
176
     1
 72
     2
176
     1
 73
     0
176
     1
 90
        0
176
     1
 40
-0.6
176
     1
 41
-30.0
176
     1
 62
     5
 63
     7
421
 16777215
176
     1
 74
     1
176
     1
 91
        4
176
     1
 64
     7
176
     1
 65
   257
176
     1
 75
     1
176
     1
175
     1
176
     1
 42
1.0
176
     1
 92
        0
176
     1
 66
   257
176
     1
 43
1.0
176
     1
 76
     1
176
     1
 77
     6
176
     1
 78
     2
176
     1
 67
     7
176
     1
 79
     5
176
     1
170
     0
176
     1
171
     0
176
     1
290
     0
176
     1
 93
        1
176
     1
 44
0.0
176
     1
173
     0
176
     1
  0
VISUALSTYLE
  5
31
102
{ACAD_REACTORS
330
2A
102
}
330
2A
100
AcDbVisualStyle
  2
3D Hidden
 70
     6
177
     2
291
     0
 71
     1
176
     1
 72
     2
176
     1
 73
     2
176
     1
 90
        0
176
     1
 40
-0.6
176
     1
 41
-30.0
176
     1
 62
     5
 63
     7
421
 16777215
176
     1
 74
     2
176
     1
 91
        2
176
     1
 64
     7
176
     1
 65
   257
176
     1
 75
     2
176
     1
175
     1
176
     1
 42
40.0
176
     1
 92
        0
176
     1
 66
   257
176
     1
 43
1.0
176
     1
 76
     1
176
     1
 77
     6
176
     1
 78
     2
176
     1
 67
     7
176
     1
 79
     3
176
     1
170
     0
176
     1
171
     0
176
     1
290
     0
176
     1
 93
        1
176
     1
 44
0.0
176
     1
173
     0
176
     1
  0
VISUALSTYLE
  5
30
102
{ACAD_REACTORS
330
2A
102
}
330
2A
100
AcDbVisualStyle
  2
3dWireframe
 70
     5
177
     2
291
     0
 71
     0
176
     1
 72
     2
176
     1
 73
     0
176
     1
 90
        0
176
     1
 40
-0.6
176
     1
 41
-30.0
176
     1
 62
     5
 63
     7
421
 16777215
176
     1
 74
     1
176
     1
 91
        4
176
     1
 64
     7
176
     1
 65
   257
176
     1
 75
     1
176
     1
175
     1
176
     1
 42
1.0
176
     1
 92
        0
176
     1
 66
   257
176
     1
 43
1.0
176
     1
 76
     1
176
     1
 77
     6
176
     1
 78
     2
176
     1
 67
     7
176
     1
 79
     5
176
     1
170
     0
176
     1
171
     0
176
     1
290
     0
176
     1
 93
        1
176
     1
 44
0.0
176
     1
173
     0
176
     1
  0
VISUALSTYLE
  5
32
102
{ACAD_REACTORS
330
2A
102
}
330
2A
100
AcDbVisualStyle
  2
Basic
 70
     7
177
     2
291
     1
 71
     1
176
     1
 72
     0
176
     1
 73
     1
176
     1
 90
        0
176
     1
 40
-0.6
176
     1
 41
-30.0
176
     1
 62
     5
 63
     7
421
 16777215
176
     1
 74
     0
176
     1
 91
        4
176
     1
 64
     7
176
     1
 65
   257
176
     1
 75
     1
176
     1
175
     1
176
     1
 42
1.0
176
     1
 92
        8
176
     1
 66
     7
176
     1
 43
1.0
176
     1
 76
     1
176
     1
 77
     6
176
     1
 78
     2
176
     1
 67
     7
176
     1
 79
     5
176
     1
170
     0
176
     1
171
     0
176
     1
290
     0
176
     1
 93
        1
176
     1
 44
0.0
176
     1
173
     0
176
     1
  0
VISUALSTYLE
  5
36
102
{ACAD_REACTORS
330
2A
102
}
330
2A
100
AcDbVisualStyle
  2
Brighten
 70
    12
177
     2
291
     1
 71
     2
176
     1
 72
     2
176
     1
 73
     0
176
     1
 90
        0
176
     1
 40
-0.6
176
     1
 41
-30.0
176
     1
 62
     5
 63
     7
421
 16777215
176
     1
 74
     1
176
     1
 91
        4
176
     1
 64
     7
176
     1
 65
   257
176
     1
 75
     1
176
     1
175
     1
176
     1
 42
1.0
176
     1
 92
        8
176
     1
 66
     7
176
     1
 43
1.0
176
     1
 76
     1
176
     1
 77
     6
176
     1
 78
     2
176
     1
 67
     7
176
     1
 79
     5
176
     1
170
     0
176
     1
171
     0
176
     1
290
     0
176
     1
 93
        1
176
     1
 44
50.0
176
     1
173
     0
176
     1
  0
VISUALSTYLE
  5
3A
102
{ACAD_REACTORS
330
2A
102
}
330
2A
100
AcDbVisualStyle
  2
ColorChange
 70
    16
177
     2
291
     1
 71
     2
176
     1
 72
     2
176
     1
 73
     3
176
     1
 90
        0
176
     1
 40
-0.6
176
     1
 41
-30.0
176
     1
 62
     5
 63
     8
421
  8421504
176
     1
 74
     1
176
     1
 91
        4
176
     1
 64
     7
176
     1
 65
   257
176
     1
 75
     1
176
     1
175
     1
176
     1
 42
1.0
176
     1
 92
        8
176
     1
 66
     8
424
  8421504
176
     1
 43
1.0
176
     1
 76
     1
176
     1
 77
     6
176
     1
 78
     2
176
     1
 67
     7
176
     1
 79
     5
176
     1
170
     0
176
     1
171
     0
176
     1
290
     0
176
     1
 93
        1
176
     1
 44
0.0
176
     1
173
     0
176
     1
  0
VISUALSTYLE
  5
34
102
{ACAD_REACTORS
330
2A
102
}
330
2A
100
AcDbVisualStyle
  2
Conceptual
 70
     9
177
     2
291
     0
 71
     3
176
     1
 72
     2
176
     1
 73
     0
176
     1
 90
        0
176
     1
 40
-0.6
176
     1
 41
-30.0
176
     1
 62
     5
 63
     7
421
 16777215
176
     1
 74
     2
176
     1
 91
        2
176
     1
 64
     7
176
     1
 65
   257
176
     1
 75
     1
176
     1
175
     1
176
     1
 42
40.0
176
     1
 92
        8
176
     1
 66
     7
176
     1
 43
1.0
176
     1
 76
     1
176
     1
 77
     6
176
     1
 78
     2
176
     1
 67
     7
176
     1
 79
     3
176
     1
170
     0
176
     1
171
     0
176
     1
290
     0
176
     1
 93
        1
176
     1
 44
0.0
176
     1
173
     0
176
     1
  0
VISUALSTYLE
  5
35
102
{ACAD_REACTORS
330
2A
102
}
330
2A
100
AcDbVisualStyle
  2
Dim
 70
    11
177
     2
291
     1
 71
     2
176
     1
 72
     2
176
     1
 73
     0
176
     1
 90
        0
176
     1
 40
-0.6
176
     1
 41
-30.0
176
     1
 62
     5
 63
     7
421
 16777215
176
     1
 74
     1
176
     1
 91
        4
176
     1
 64
     7
176
     1
 65
   257
176
     1
 75
     1
176
     1
175
     1
176
     1
 42
1.0
176
     1
 92
        8
176
     1
 66
     7
176
     1
 43
1.0
176
     1
 76
     1
176
     1
 77
     6
176
     1
 78
     2
176
     1
 67
     7
176
     1
 79
     5
176
     1
170
     0
176
     1
171
     0
176
     1
290
     0
176
     1
 93
        1
176
     1
 44
-50.0
176
     1
173
     0
176
     1
  0
VISUALSTYLE
  5
39
102
{ACAD_REACTORS
330
2A
102
}
330
2A
100
AcDbVisualStyle
  2
Facepattern
 70
    15
177
     2
291
     1
 71
     2
176
     1
 72
     2
176
     1
 73
     0
176
     1
 90
        0
176
     1
 40
-0.6
176
     1
 41
-30.0
176
     1
 62
     5
 63
     7
421
 16777215
176
     1
 74
     1
176
     1
 91
        4
176
     1
 64
     7
176
     1
 65
   257
176
     1
 75
     1
176
     1
175
     1
176
     1
 42
1.0
176
     1
 92
        8
176
     1
 66
     7
176
     1
 43
1.0
176
     1
 76
     1
176
     1
 77
     6
176
     1
 78
     2
176
     1
 67
     7
176
     1
 79
     5
176
     1
170
     0
176
     1
171
     0
176
     1
290
     0
176
     1
 93
        1
176
     1
 44
0.0
176
     1
173
     0
176
     1
  0
VISUALSTYLE
  5
2B
102
{ACAD_REACTORS
330
2A
102
}
330
2A
100
AcDbVisualStyle
  2
Flat
 70
     0
177
     2
291
     1
 71
     2
176
     1
 72
     1
176
     1
 73
     1
176
     1
 90
        2
176
     1
 40
-0.6
176
     1
 41
30.0
176
     1
 62
     5
 63
     7
421
 16777215
176
     1
 74
     0
176
     1
 91
        4
176
     1
 64
     7
176
     1
 65
   257
176
     1
 75
     1
176
     1
175
     1
176
     1
 42
1.0
176
     1
 92
        8
176
     1
 66
     7
176
     1
 43
1.0
176
     1
 76
     1
176
     1
 77
     6
176
     1
 78
     2
176
     1
 67
     7
176
     1
 79
     5
176
     1
170
     0
176
     1
171
     0
176
     1
290
     0
176
     1
 93
       13
176
     1
 44
0.0
176
     1
173
     0
176
     1
  0
VISUALSTYLE
  5
2C
102
{ACAD_REACTORS
330
2A
102
}
330
2A
100
AcDbVisualStyle
  2
FlatWithEdges
 70
     1
177
     2
291
     1
 71
     2
176
     1
 72
     1
176
     1
 73
     1
176
     1
 90
        2
176
     1
 40
-0.6
176
     1
 41
30.0
176
     1
 62
     5
 63
     7
421
 16777215
176
     1
 74
     1
176
     1
 91
        4
176
     1
 64
     7
176
     1
 65
   257
176
     1
 75
     1
176
     1
175
     1
176
     1
 42
1.0
176
     1
 92
        0
176
     1
 66
   257
176
     1
 43
1.0
176
     1
 76
     1
176
     1
 77
     6
176
     1
 78
     2
176
     1
 67
     7
176
     1
 79
     5
176
     1
170
     0
176
     1
171
     0
176
     1
290
     0
176
     1
 93
       13
176
     1
 44
0.0
176
     1
173
     0
176
     1
  0
VISUALSTYLE
  5
2D
102
{ACAD_REACTORS
330
2A
102
}
330
2A
100
AcDbVisualStyle
  2
Gouraud
 70
     2
177
     2
291
     1
 71
     2
176
     1
 72
     2
176
     1
 73
     1
176
     1
 90
        2
176
     1
 40
-0.6
176
     1
 41
30.0
176
     1
 62
     5
 63
     7
421
 16777215
176
     1
 74
     0
176
     1
 91
        4
176
     1
 64
     7
176
     1
 65
   257
176
     1
 75
     1
176
     1
175
     1
176
     1
 42
1.0
176
     1
 92
        0
176
     1
 66
     7
176
     1
 43
1.0
176
     1
 76
     1
176
     1
 77
     6
176
     1
 78
     2
176
     1
 67
     7
176
     1
 79
     5
176
     1
170
     0
176
     1
171
     0
176
     1
290
     0
176
     1
 93
       13
176
     1
 44
0.0
176
     1
173
     0
176
     1
  0
VISUALSTYLE
  5
2E
102
{ACAD_REACTORS
330
2A
102
}
330
2A
100
AcDbVisualStyle
  2
GouraudWithEdges
 70
     3
177
     2
291
     1
 71
     2
176
     1
 72
     2
176
     1
 73
     1
176
     1
 90
        2
176
     1
 40
-0.6
176
     1
 41
30.0
176
     1
 62
     5
 63
     7
421
 16777215
176
     1
 74
     1
176
     1
 91
        4
176
     1
 64
     7
176
     1
 65
   257
176
     1
 75
     1
176
     1
175
     1
176
     1
 42
1.0
176
     1
 92
        0
176
     1
 66
   257
176
     1
 43
1.0
176
     1
 76
     1
176
     1
 77
     6
176
     1
 78
     2
176
     1
 67
     7
176
     1
 79
     5
176
     1
170
     0
176
     1
171
     0
176
     1
290
     0
176
     1
 93
       13
176
     1
 44
0.0
176
     1
173
     0
176
     1
  0
VISUALSTYLE
  5
38
102
{ACAD_REACTORS
330
2A
102
}
330
2A
100
AcDbVisualStyle
  2
Linepattern
 70
    14
177
     2
291
     1
 71
     2
176
     1
 72
     2
176
     1
 73
     0
176
     1
 90
        0
176
     1
 40
-0.6
176
     1
 41
-30.0
176
     1
 62
     5
 63
     7
421
 16777215
176
     1
 74
     1
176
     1
 91
        4
176
     1
 64
     7
176
     1
 65
   257
176
     1
 75
     7
176
     1
175
     7
176
     1
 42
1.0
176
     1
 92
        8
176
     1
 66
     7
176
     1
 43
1.0
176
     1
 76
     1
176
     1
 77
     6
176
     1
 78
     2
176
     1
 67
     7
176
     1
 79
     5
176
     1
170
     0
176
     1
171
     0
176
     1
290
     0
176
     1
 93
        1
176
     1
 44
0.0
176
     1
173
     0
176
     1
  0
VISUALSTYLE
  5
33
102
{ACAD_REACTORS
330
2A
102
}
330
2A
100
AcDbVisualStyle
  2
Realistic
 70
     8
177
     2
291
     0
 71
     2
176
     1
 72
     2
176
     1
 73
     0
176
     1
 90
        0
176
     1
 40
-0.6
176
     1
 41
-30.0
176
     1
 62
     5
 63
     7
421
 16777215
176
     1
 74
     1
176
     1
 91
        0
176
     1
 64
     7
176
     1
 65
   257
176
     1
 75
     1
176
     1
175
     1
176
     1
 42
1.0
176
     1
 92
        8
176
     1
 66
     8
424
  7895160
176
     1
 43
1.0
176
     1
 76
     1
176
     1
 77
     6
176
     1
 78
     2
176
     1
 67
     7
176
     1
 79
     5
176
     1
170
     0
176
     1
171
     0
176
     1
290
     0
176
     1
 93
       13
176
     1
 44
0.0
176
     1
173
     0
176
     1
  0
VISUALSTYLE
  5
37
102
{ACAD_REACTORS
330
2A
102
}
330
2A
100
AcDbVisualStyle
  2
Thicken
 70
    13
177
     2
291
     1
 71
     2
176
     1
 72
     2
176
     1
 73
     0
176
     1
 90
        0
176
     1
 40
-0.6
176
     1
 41
-30.0
176
     1
 62
     5
 63
     7
421
 16777215
176
     1
 74
     1
176
     1
 91
        4
176
     1
 64
     7
176
     1
 65
   257
176
     1
 75
     1
176
     1
175
     1
176
     1
 42
1.0
176
     1
 92
       12
176
     1
 66
     7
176
     1
 43
1.0
176
     1
 76
     1
176
     1
 77
     6
176
     1
 78
     2
176
     1
 67
     7
176
     1
 79
     5
176
     1
170
     0
176
     1
171
     0
176
     1
290
     0
176
     1
 93
        1
176
     1
 44
0.0
176
     1
173
     0
176
     1
  0
ENDSEC
  0
EOF
