  0
SECTION
  2
HEADER
  9
$ACADVER
  1
AC1024
  9
$ACADMAINTVER
 70
     6
  9
$DWGCODEPAGE
  3
ANSI_1252
  9
$INSBASE
 10
0.0
 20
0.0
 30
0.0
  9
$EXTMIN
 10
1.000000000000000E+20
 20
1.000000000000000E+20
 30
1.000000000000000E+20
  9
$EXTMAX
 10
-1.000000000000000E+20
 20
-1.000000000000000E+20
 30
-1.000000000000000E+20
  9
$LIMMIN
 10
0.0
 20
0.0
  9
$LIMMAX
 10
12.0
 20
9.0
  9
$ORTHOMODE
 70
     0
  9
$REGENMODE
 70
     1
  9
$FILLMODE
 70
     1
  9
$QTEXTMODE
 70
     0
  9
$MIRRTEXT
 70
     1
  9
$LTSCALE
 40
1.0
  9
$ATTMODE
 70
     1
  9
$TEXTSIZE
 40
0.2
  9
$TRACEWID
 40
0.05
  9
$TEXTSTYLE
  7
Standard
  9
$CLAYER
  8
0
  9
$CELTYPE
  6
ByLayer
  9
$CECOLOR
 62
   256
  9
$CELTSCALE
 40
1.0
  9
$DISPSILH
 70
     0
  9
$DIMSCALE
 40
1.0
  9
$DIMASZ
 40
0.18
  9
$DIMEXO
 40
0.0625
  9
$DIMDLI
 40
0.38
  9
$DIMRND
 40
0.0
  9
$DIMDLE
 40
0.0
  9
$DIMEXE
 40
0.18
  9
$DIMTP
 40
0.0
  9
$DIMTM
 40
0.0
  9
$DIMTXT
 40
0.18
  9
$DIMCEN
 40
0.09
  9
$DIMTSZ
 40
0.0
  9
$DIMTOL
 70
     0
  9
$DIMLIM
 70
     0
  9
$DIMTIH
 70
     1
  9
$DIMTOH
 70
     1
  9
$DIMSE1
 70
     0
  9
$DIMSE2
 70
     0
  9
$DIMTAD
 70
     0
  9
$DIMZIN
 70
     0
  9
$DIMBLK
  1

  9
$DIMASO
 70
     1
  9
$DIMSHO
 70
     1
  9
$DIMPOST
  1

  9
$DIMAPOST
  1

  9
$DIMALT
 70
     0
  9
$DIMALTD
 70
     2
  9
$DIMALTF
 40
25.4
  9
$DIMLFAC
 40
1.0
  9
$DIMTOFL
 70
     0
  9
$DIMTVP
 40
0.0
  9
$DIMTIX
 70
     0
  9
$DIMSOXD
 70
     0
  9
$DIMSAH
 70
     0
  9
$DIMBLK1
  1

  9
$DIMBLK2
  1

  9
$DIMSTYLE
  2
Standard
  9
$DIMCLRD
 70
     0
  9
$DIMCLRE
 70
     0
  9
$DIMCLRT
 70
     0
  9
$DIMTFAC
 40
1.0
  9
$DIMGAP
 40
0.09
  9
$DIMJUST
 70
     0
  9
$DIMSD1
 70
     0
  9
$DIMSD2
 70
     0
  9
$DIMTOLJ
 70
     1
  9
$DIMTZIN
 70
     0
  9
$DIMALTZ
 70
     0
  9
$DIMALTTZ
 70
     0
  9
$DIMUPT
 70
     0
  9
$DIMDEC
 70
     4
  9
$DIMTDEC
 70
     4
  9
$DIMALTU
 70
     2
  9
$DIMALTTD
 70
     2
  9
$DIMTXSTY
  7
Standard
  9
$DIMAUNIT
 70
     0
  9
$DIMADEC
 70
     0
  9
$DIMALTRND
 40
0.0
  9
$DIMAZIN
 70
     0
  9
$DIMDSEP
 70
    46
  9
$DIMATFIT
 70
     3
  9
$DIMFRAC
 70
     0
  9
$DIMLDRBLK
  1

  9
$DIMLUNIT
 70
     2
  9
$DIMLWD
 70
    -2
  9
$DIMLWE
 70
    -2
  9
$DIMTMOVE
 70
     0
  9
$DIMFXL
 40
1.0
  9
$DIMFXLON
 70
     0
  9
$DIMJOGANG
 40
0.7853981633974483
  9
$DIMTFILL
 70
     0
  9
$DIMTFILLCLR
 70
     0
  9
$DIMARCSYM
 70
     0
  9
$DIMLTYPE
  6

  9
$DIMLTEX1
  6

  9
$DIMLTEX2
  6

  9
$DIMTXTDIRECTION
 70
     0
  9
$LUNITS
 70
     2
  9
$LUPREC
 70
     4
  9
$SKETCHINC
 40
0.1
  9
$FILLETRAD
 40
0.5
  9
$AUNITS
 70
     0
  9
$AUPREC
 70
     0
  9
$MENU
  1
.
  9
$ELEVATION
 40
0.0
  9
$PELEVATION
 40
0.0
  9
$THICKNESS
 40
0.0
  9
$LIMCHECK
 70
     0
  9
$CHAMFERA
 40
0.5
  9
$CHAMFERB
 40
0.5
  9
$CHAMFERC
 40
1.0
  9
$CHAMFERD
 40
0.0
  9
$SKPOLY
 70
     0
  9
$TDCREATE
 40
2458069.592972627
  9
$TDUCREATE
 40
2458069.801305961
  9
$TDUPDATE
 40
2458069.592977118
  9
$TDUUPDATE
 40
2458069.801310451
  9
$TDINDWG
 40
0.0000000116
  9
$TDUSRTIMER
 40
0.0000000116
  9
$USRTIMER
 70
     1
  9
$ANGBASE
 50
0.0
  9
$ANGDIR
 70
     0
  9
$PDMODE
 70
     0
  9
$PDSIZE
 40
0.0
  9
$PLINEWID
 40
0.0
  9
$SPLFRAME
 70
     0
  9
$SPLINETYPE
 70
     6
  9
$SPLINESEGS
 70
     8
  9
$HANDSEED
  5
171
  9
$SURFTAB1
 70
     6
  9
$SURFTAB2
 70
     6
  9
$SURFTYPE
 70
     6
  9
$SURFU
 70
     6
  9
$SURFV
 70
     6
  9
$UCSBASE
  2

  9
$UCSNAME
  2

  9
$UCSORG
 10
0.0
 20
0.0
 30
0.0
  9
$UCSXDIR
 10
1.0
 20
0.0
 30
0.0
  9
$UCSYDIR
 10
0.0
 20
1.0
 30
0.0
  9
$UCSORTHOREF
  2

  9
$UCSORTHOVIEW
 70
     0
  9
$UCSORGTOP
 10
0.0
 20
0.0
 30
0.0
  9
$UCSORGBOTTOM
 10
0.0
 20
0.0
 30
0.0
  9
$UCSORGLEFT
 10
0.0
 20
0.0
 30
0.0
  9
$UCSORGRIGHT
 10
0.0
 20
0.0
 30
0.0
  9
$UCSORGFRONT
 10
0.0
 20
0.0
 30
0.0
  9
$UCSORGBACK
 10
0.0
 20
0.0
 30
0.0
  9
$PUCSBASE
  2

  9
$PUCSNAME
  2

  9
$PUCSORG
 10
0.0
 20
0.0
 30
0.0
  9
$PUCSXDIR
 10
1.0
 20
0.0
 30
0.0
  9
$PUCSYDIR
 10
0.0
 20
1.0
 30
0.0
  9
$PUCSORTHOREF
  2

  9
$PUCSORTHOVIEW
 70
     0
  9
$PUCSORGTOP
 10
0.0
 20
0.0
 30
0.0
  9
$PUCSORGBOTTOM
 10
0.0
 20
0.0
 30
0.0
  9
$PUCSORGLEFT
 10
0.0
 20
0.0
 30
0.0
  9
$PUCSORGRIGHT
 10
0.0
 20
0.0
 30
0.0
  9
$PUCSORGFRONT
 10
0.0
 20
0.0
 30
0.0
  9
$PUCSORGBACK
 10
0.0
 20
0.0
 30
0.0
  9
$USERI1
 70
     0
  9
$USERI2
 70
     0
  9
$USERI3
 70
     0
  9
$USERI4
 70
     0
  9
$USERI5
 70
     0
  9
$USERR1
 40
0.0
  9
$USERR2
 40
0.0
  9
$USERR3
 40
0.0
  9
$USERR4
 40
0.0
  9
$USERR5
 40
0.0
  9
$WORLDVIEW
 70
     1
  9
$SHADEDGE
 70
     3
  9
$SHADEDIF
 70
    70
  9
$TILEMODE
 70
     1
  9
$MAXACTVP
 70
    64
  9
$PINSBASE
 10
0.0
 20
0.0
 30
0.0
  9
$PLIMCHECK
 70
     0
  9
$PEXTMIN
 10
1.000000000000000E+20
 20
1.000000000000000E+20
 30
1.000000000000000E+20
  9
$PEXTMAX
 10
-1.000000000000000E+20
 20
-1.000000000000000E+20
 30
-1.000000000000000E+20
  9
$PLIMMIN
 10
0.0
 20
0.0
  9
$PLIMMAX
 10
12.0
 20
9.0
  9
$UNITMODE
 70
     0
  9
$VISRETAIN
 70
     1
  9
$PLINEGEN
 70
     0
  9
$PSLTSCALE
 70
     1
  9
$TREEDEPTH
 70
  3020
  9
$CMLSTYLE
  2
Standard
  9
$CMLJUST
 70
     0
  9
$CMLSCALE
 40
1.0
  9
$PROXYGRAPHICS
 70
     1
  9
$MEASUREMENT
 70
     0
  9
$CELWEIGHT
370
    -1
  9
$ENDCAPS
280
     0
  9
$JOINSTYLE
280
     0
  9
$LWDISPLAY
290
     1
  9
$INSUNITS
 70
     1
  9
$HYPERLINKBASE
  1

  9
$STYLESHEET
  1

  9
$XEDIT
290
     1
  9
$CEPSNTYPE
380
     0
  9
$PSTYLEMODE
290
     1
  9
$FINGERPRINTGUID
  2
{0F71A5D4-3ADE-452B-A07A-3F3C517B12E9}
  9
$VERSIONGUID
  2
{FAEB1C32-E019-11D5-929B-00C0DF256EC4}
  9
$EXTNAMES
290
     1
  9
$PSVPSCALE
 40
0.0
  9
$OLESTARTUP
290
     0
  9
$SORTENTS
280
   127
  9
$INDEXCTL
280
     0
  9
$HIDETEXT
280
     1
  9
$XCLIPFRAME
280
     2
  9
$HALOGAP
280
     0
  9
$OBSCOLOR
 70
   257
  9
$OBSLTYPE
280
     0
  9
$INTERSECTIONDISPLAY
280
     0
  9
$INTERSECTIONCOLOR
 70
   257
  9
$DIMASSOC
280
     2
  9
$PROJECTNAME
  1

  9
$CAMERADISPLAY
290
     0
  9
$LENSLENGTH
 40
50.0
  9
$CAMERAHEIGHT
 40
0.0
  9
$STEPSPERSEC
 40
2.0
  9
$STEPSIZE
 40
6.0
  9
$3DDWFPREC
 40
2.0
  9
$PSOLWIDTH
 40
0.25
  9
$PSOLHEIGHT
 40
4.0
  9
$LOFTANG1
 40
1.570796326794897
  9
$LOFTANG2
 40
1.570796326794897
  9
$LOFTMAG1
 40
0.0
  9
$LOFTMAG2
 40
0.0
  9
$LOFTPARAM
 70
     7
  9
$LOFTNORMALS
280
     1
  9
$LATITUDE
 40
37.795
  9
$LONGITUDE
 40
-122.394
  9
$NORTHDIRECTION
 40
0.0
  9
$TIMEZONE
 70
 -8000
  9
$LIGHTGLYPHDISPLAY
280
     1
  9
$TILEMODELIGHTSYNCH
280
     1
  9
$CMATERIAL
347
3C
  9
$SOLIDHIST
280
     1
  9
$SHOWHIST
280
     1
  9
$DWFFRAME
280
     2
  9
$DGNFRAME
280
     2
  9
$REALWORLDSCALE
290
     1
  9
$INTERFERECOLOR
 62
   256
  9
$CSHADOW
280
     0
  9
$SHADOWPLANELOCATION
 40
0.0
  0
ENDSEC
  0
SECTION
  2
CLASSES
  0
CLASS
  1
ACDBDICTIONARYWDFLT
  2
AcDbDictionaryWithDefault
  3
ObjectDBX Classes
 90
        0
 91
        4
280
     0
281
     0
  0
CLASS
  1
VISUALSTYLE
  2
AcDbVisualStyle
  3
ObjectDBX Classes
 90
     4095
 91
        4
280
     0
281
     0
  0
CLASS
  1
MATERIAL
  2
AcDbMaterial
  3
ObjectDBX Classes
 90
     1153
 91
        4
280
     0
281
     0
  0
CLASS
  1
SUN
  2
AcDbSun
  3
SCENEOE
 90
     1024
 91
        4
280
     0
281
     0
  0
ENDSEC
  0
SECTION
  2
TABLES
  0
TABLE
  2
VPORT
  5
8
330
0
100
AcDbSymbolTable
 70
     1
  0
VPORT
  5
29
330
8
100
AcDbSymbolTableRecord
100
AcDbViewportTableRecord
  2
*Active
 70
     0
 10
0.0
 20
0.0
 11
1.0
 21
1.0
 12
0.0
 22
0.0
 13
0.0
 23
0.0
 14
0.5
 24
0.5
 15
0.5
 25
0.5
 16
0.0
 26
0.0
 36
1.0
 17
25.54861111111111
 27
-3.909722222222222
 37
0.0
 40
7.819444444444444
 41
1.650088809946714
 42
50.0
 43
0.0
 44
0.0
 50
0.0
 51
0.0
 71
     0
 72
   100
 73
     1
 74
     3
 75
     0
 76
     0
 77
     0
 78
     0
281
     0
 65
     1
110
0.0
120
0.0
130
0.0
111
1.0
121
0.0
131
0.0
112
0.0
122
1.0
132
0.0
 79
     0
146
0.0
 60
     3
 61
     5
292
     1
282
     1
141
0.0
142
0.0
 63
   250
361
3F
  0
ENDTAB
  0
TABLE
  2
LTYPE
  5
5
330
0
100
AcDbSymbolTable
 70
     1
  0
LTYPE
  5
14
330
5
100
AcDbSymbolTableRecord
100
AcDbLinetypeTableRecord
  2
ByBlock
 70
     0
  3

 72
    65
 73
     0
 40
0.0
  0
LTYPE
  5
15
330
5
100
AcDbSymbolTableRecord
100
AcDbLinetypeTableRecord
  2
ByLayer
 70
     0
  3

 72
    65
 73
     0
 40
0.0
  0
LTYPE
  5
16
330
5
100
AcDbSymbolTableRecord
100
AcDbLinetypeTableRecord
  2
Continuous
 70
     0
  3
Solid line
 72
    65
 73
     0
 40
0.0
  0
ENDTAB
  0
TABLE
  2
LAYER
  5
2
330
0
100
AcDbSymbolTable
 70
     2
  0
LAYER
  5
10
330
2
100
AcDbSymbolTableRecord
100
AcDbLayerTableRecord
  2
0
 70
     0
 62
     7
  6
Continuous
370
    -3
390
F
347
3E
  0
LAYER
  5
40
330
2
100
AcDbSymbolTableRecord
100
AcDbLayerTableRecord
  2
Layer 1
 70
     0
 62
     7
  6
Continuous
370
    -3
390
F
347
3E
  0
ENDTAB
  0
TABLE
  2
STYLE
  5
3
330
0
100
AcDbSymbolTable
 70
     1
  0
STYLE
  5
11
330
3
100
AcDbSymbolTableRecord
100
AcDbTextStyleTableRecord
  2
Standard
 70
     0
 40
0.0
 41
1.0
 50
0.0
 71
     0
 42
0.2
  3
txt
  4

  0
ENDTAB
  0
TABLE
  2
VIEW
  5
6
330
0
100
AcDbSymbolTable
 70
     0
  0
ENDTAB
  0
TABLE
  2
UCS
  5
7
330
0
100
AcDbSymbolTable
 70
     0
  0
ENDTAB
  0
TABLE
  2
APPID
  5
9
330
0
100
AcDbSymbolTable
 70
     1
  0
APPID
  5
12
330
9
100
AcDbSymbolTableRecord
100
AcDbRegAppTableRecord
  2
ACAD
 70
     0
  0
ENDTAB
  0
TABLE
  2
DIMSTYLE
  5
A
330
0
100
AcDbSymbolTable
 70
     1
100
AcDbDimStyleTable
  0
DIMSTYLE
105
27
330
A
100
AcDbSymbolTableRecord
100
AcDbDimStyleTableRecord
  2
Standard
 70
     0
178
     0
340
11
  0
ENDTAB
  0
TABLE
  2
BLOCK_RECORD
  5
1
330
0
100
AcDbSymbolTable
 70
     5
  0
BLOCK_RECORD
  5
1F
330
1
100
AcDbSymbolTableRecord
100
AcDbBlockTableRecord
  2
*Model_Space
340
22
 70
     0
280
     1
281
     0
  0
BLOCK_RECORD
  5
1B
330
1
100
AcDbSymbolTableRecord
100
AcDbBlockTableRecord
  2
*Paper_Space
340
1E
 70
     0
280
     1
281
     0
  0
BLOCK_RECORD
  5
23
330
1
100
AcDbSymbolTableRecord
100
AcDbBlockTableRecord
  2
*Paper_Space0
340
26
 70
     0
280
     1
281
     0
  0
BLOCK_RECORD
  5
91
330
1
100
AcDbSymbolTableRecord
100
AcDbBlockTableRecord
  2
block 2
340
0
102
{BLKREFS
331
92
102
}
 70
     0
280
     1
281
     0
  0
BLOCK_RECORD
  5
A5
330
1
100
AcDbSymbolTableRecord
100
AcDbBlockTableRecord
  2
block 3
340
0
102
{BLKREFS
331
A6
102
}
 70
     0
280
     1
281
     0
  0
BLOCK_RECORD
  5
B9
330
1
100
AcDbSymbolTableRecord
100
AcDbBlockTableRecord
  2
block 4
340
0
102
{BLKREFS
331
BA
102
}
 70
     0
280
     1
281
     0
  0
BLOCK_RECORD
  5
114
330
1
100
AcDbSymbolTableRecord
100
AcDbBlockTableRecord
  2
block 5
340
0
102
{BLKREFS
331
115
102
}
 70
     0
280
     1
281
     0
  0
ENDTAB
  0
ENDSEC
  0
SECTION
  2
BLOCKS
  0
BLOCK
  5
20
330
1F
100
AcDbEntity
  8
0
100
AcDbBlockBegin
  2
*Model_Space
 70
     0
 10
0.0
 20
0.0
 30
0.0
  3
*Model_Space
  1

  0
ENDBLK
  5
21
330
1F
100
AcDbEntity
  8
0
100
AcDbBlockEnd
  0
BLOCK
  5
1C
330
1B
100
AcDbEntity
 67
     1
  8
0
100
AcDbBlockBegin
  2
*Paper_Space
 70
     0
 10
0.0
 20
0.0
 30
0.0
  3
*Paper_Space
  1

  0
ENDBLK
  5
1D
330
1B
100
AcDbEntity
 67
     1
  8
0
100
AcDbBlockEnd
  0
BLOCK
  5
24
330
23
100
AcDbEntity
  8
0
100
AcDbBlockBegin
  2
*Paper_Space0
 70
     0
 10
0.0
 20
0.0
 30
0.0
  3
*Paper_Space0
  1

  0
ENDBLK
  5
25
330
23
100
AcDbEntity
  8
0
100
AcDbBlockEnd
  0
BLOCK
  5
93
330
91
100
AcDbEntity
  8
0
100
AcDbBlockBegin
  2
block 2
 70
     0
 10
0.0
 20
0.0
 30
0.0
  3
block 2
  1

  0
SPLINE
  5
95
330
91
100
AcDbEntity
  8
Layer 1
370
     0
100
AcDbSpline
210
0.0
220
0.0
230
1.0
 70
    11
 71
     3
 72
    14
 73
    10
 74
     0
 42
0.0000000001
 43
0.0000000001
 12
1.0
 22
0.0
 32
0.0
 13
1.0
 23
0.0
 33
0.0
 40
0.0
 40
0.0
 40
0.0
 40
0.0
 40
1.0
 40
1.0
 40
1.0
 40
2.0
 40
2.0
 40
2.0
 40
3.0
 40
3.0
 40
3.0
 40
3.0
 10
26.89970228407125
 20
-3.656257629394531
 30
0.0
 10
27.16982354058167
 20
-3.660778469509561
 30
0.0
 10
27.64542643229166
 20
-3.456829494900186
 30
0.0
 10
27.8621826171875
 20
-3.072469075520833
 30
0.0
 10
27.8621826171875
 20
-3.072469075520833
 30
0.0
 10
27.85469902886292
 20
-3.079833136664496
 30
0.0
 10
27.85469902886292
 20
-3.079833136664496
 30
0.0
 10
27.44018046061195
 20
-2.898647732204861
 30
0.0
 10
26.86836412217889
 20
-3.268708970811645
 30
0.0
 10
26.89970228407125
 20
-3.656257629394531
 30
0.0
  0
HATCH
  5
96
330
91
100
AcDbEntity
  8
Layer 1
 62
     7
420
 16777215
100
AcDbHatch
 10
0.0
 20
0.0
 30
0.0
210
0.0
220
0.0
230
1.0
  2
SOLID
 70
     1
 71
     0
 91
        1
 92
        1
 93
        1
 72
     4
 94
        3
 73
     0
 74
     1
 95
       14
 96
       10
 40
0.0
 40
0.0
 40
0.0
 40
0.0
 40
1.0
 40
1.0
 40
1.0
 40
2.0
 40
2.0
 40
2.0
 40
3.0
 40
3.0
 40
3.0
 40
3.0
 10
26.89970228407125
 20
-3.656257629394531
 10
27.16982354058167
 20
-3.660778469509561
 10
27.64542643229166
 20
-3.456829494900186
 10
27.8621826171875
 20
-3.072469075520833
 10
27.8621826171875
 20
-3.072469075520833
 10
27.85469902886292
 20
-3.079833136664496
 10
27.85469902886292
 20
-3.079833136664496
 10
27.44018046061195
 20
-2.898647732204861
 10
26.86836412217889
 20
-3.268708970811645
 10
26.89970228407125
 20
-3.656257629394531
 97
        0
 97
        0
 75
     2
 76
     1
 98
        0
  0
SPLINE
  5
97
330
91
100
AcDbEntity
  8
Layer 1
370
     0
100
AcDbSpline
210
0.0
220
0.0
230
1.0
 70
    11
 71
     3
 72
    14
 73
    10
 74
     0
 42
0.0000000001
 43
0.0000000001
 12
1.0
 22
0.0
 32
0.0
 13
1.0
 23
0.0
 33
0.0
 40
0.0
 40
0.0
 40
0.0
 40
0.0
 40
1.0
 40
1.0
 40
1.0
 40
2.0
 40
2.0
 40
2.0
 40
3.0
 40
3.0
 40
3.0
 40
3.0
 10
26.15273369683167
 20
-2.275505065917969
 30
0.0
 10
25.9022403293186
 20
-2.443854437934028
 30
0.0
 10
26.17355685763889
 20
-2.861787584092895
 30
0.0
 10
26.47607252332902
 20
-2.814470926920573
 30
0.0
 10
26.47607252332902
 20
-2.814470926920573
 30
0.0
 10
26.48064507378472
 20
-2.818019443088108
 30
0.0
 10
26.48064507378472
 20
-2.818019443088108
 30
0.0
 10
26.37917073567708
 20
-2.744298299153658
 30
0.0
 10
26.25745985243055
 20
-2.45395999484592
 30
0.0
 10
26.15273369683167
 20
-2.275505065917969
 30
0.0
  0
HATCH
  5
98
330
91
100
AcDbEntity
  8
Layer 1
 62
     7
420
 16777215
100
AcDbHatch
 10
0.0
 20
0.0
 30
0.0
210
0.0
220
0.0
230
1.0
  2
SOLID
 70
     1
 71
     0
 91
        1
 92
        1
 93
        1
 72
     4
 94
        3
 73
     0
 74
     1
 95
       14
 96
       10
 40
0.0
 40
0.0
 40
0.0
 40
0.0
 40
1.0
 40
1.0
 40
1.0
 40
2.0
 40
2.0
 40
2.0
 40
3.0
 40
3.0
 40
3.0
 40
3.0
 10
26.15273369683167
 20
-2.275505065917969
 10
25.9022403293186
 20
-2.443854437934028
 10
26.17355685763889
 20
-2.861787584092895
 10
26.47607252332902
 20
-2.814470926920573
 10
26.47607252332902
 20
-2.814470926920573
 10
26.48064507378472
 20
-2.818019443088108
 10
26.48064507378472
 20
-2.818019443088108
 10
26.37917073567708
 20
-2.744298299153658
 10
26.25745985243055
 20
-2.45395999484592
 10
26.15273369683167
 20
-2.275505065917969
 97
        0
 97
        0
 75
     2
 76
     1
 98
        0
  0
SPLINE
  5
99
330
91
100
AcDbEntity
  8
Layer 1
370
     0
100
AcDbSpline
210
0.0
220
0.0
230
1.0
 70
    11
 71
     3
 72
    17
 73
    13
 74
     0
 42
0.0000000001
 43
0.0000000001
 12
1.0
 22
0.0
 32
0.0
 13
1.0
 23
0.0
 33
0.0
 40
0.0
 40
0.0
 40
0.0
 40
0.0
 40
1.0
 40
1.0
 40
1.0
 40
2.0
 40
2.0
 40
2.0
 40
3.0
 40
3.0
 40
3.0
 40
4.0
 40
4.0
 40
4.0
 40
4.0
 10
31.03601413302959
 20
-0.8457438151041666
 30
0.0
 10
30.83796183268237
 20
-0.9715169270833333
 30
0.0
 10
30.82106526692708
 20
-1.145342508951823
 30
0.0
 10
30.80638292100694
 20
-1.344195895724826
 30
0.0
 10
30.80010986328125
 20
-1.429094102647569
 30
0.0
 10
30.83845689561639
 20
-1.496370103624145
 30
0.0
 10
30.90237087673611
 20
-1.551045735677083
 30
0.0
 10
31.05027262369791
 20
-1.677569919162339
 30
0.0
 10
31.22510443793403
 20
-1.7080078125
 30
0.0
 10
31.40870157877612
 20
-1.600374009874145
 30
0.0
 10
31.39484659830737
 20
-1.472561306423611
 30
0.0
 10
31.28113471137153
 20
-1.090159946017795
 30
0.0
 10
31.03601413302959
 20
-0.8457438151041666
 30
0.0
  0
HATCH
  5
9A
330
91
100
AcDbEntity
  8
Layer 1
 62
     7
420
 16777215
100
AcDbHatch
 10
0.0
 20
0.0
 30
0.0
210
0.0
220
0.0
230
1.0
  2
SOLID
 70
     1
 71
     0
 91
        1
 92
        1
 93
        1
 72
     4
 94
        3
 73
     0
 74
     1
 95
       17
 96
       13
 40
0.0
 40
0.0
 40
0.0
 40
0.0
 40
1.0
 40
1.0
 40
1.0
 40
2.0
 40
2.0
 40
2.0
 40
3.0
 40
3.0
 40
3.0
 40
4.0
 40
4.0
 40
4.0
 40
4.0
 10
31.03601413302959
 20
-0.8457438151041666
 10
30.83796183268237
 20
-0.9715169270833333
 10
30.82106526692708
 20
-1.145342508951823
 10
30.80638292100694
 20
-1.344195895724826
 10
30.80010986328125
 20
-1.429094102647569
 10
30.83845689561639
 20
-1.496370103624145
 10
30.90237087673611
 20
-1.551045735677083
 10
31.05027262369791
 20
-1.677569919162339
 10
31.22510443793403
 20
-1.7080078125
 10
31.40870157877612
 20
-1.600374009874145
 10
31.39484659830737
 20
-1.472561306423611
 10
31.28113471137153
 20
-1.090159946017795
 10
31.03601413302959
 20
-0.8457438151041666
 97
        0
 97
        0
 75
     2
 76
     1
 98
        0
  0
SPLINE
  5
9B
330
91
100
AcDbEntity
  8
Layer 1
370
     0
100
AcDbSpline
210
0.0
220
0.0
230
1.0
 70
    11
 71
     3
 72
    23
 73
    19
 74
     0
 42
0.0000000001
 43
0.0000000001
 12
1.0
 22
0.0
 32
0.0
 13
1.0
 23
0.0
 33
0.0
 40
0.0
 40
0.0
 40
0.0
 40
0.0
 40
1.0
 40
1.0
 40
1.0
 40
2.0
 40
2.0
 40
2.0
 40
3.0
 40
3.0
 40
3.0
 40
4.0
 40
4.0
 40
4.0
 40
5.0
 40
5.0
 40
5.0
 40
6.0
 40
6.0
 40
6.0
 40
6.0
 10
30.37511189778653
 20
-2.160491943359375
 30
0.0
 10
30.17396375868055
 20
-2.143851386176228
 30
0.0
 10
30.05136108398445
 20
-2.157083299424913
 30
0.0
 10
29.93416341145833
 20
-2.324910481770833
 30
0.0
 10
30.29064602322056
 20
-2.544817606608073
 30
0.0
 10
30.31058078342014
 20
-2.718401590983073
 30
0.0
 10
30.43647935655389
 20
-3.088799370659722
 30
0.0
 10
30.57548692491319
 20
-3.108800252278658
 30
0.0
 10
30.57446967230903
 20
-3.043915642632378
 30
0.0
 10
30.63579305013028
 20
-2.925175136990017
 30
0.0
 10
30.66624959309903
 20
-2.866201612684462
 30
0.0
 10
30.70909627278653
 20
-2.807628207736545
 30
0.0
 10
30.71797688802083
 20
-2.744861178927964
 30
0.0
 10
30.73269314236111
 20
-2.640869140625
 30
0.0
 10
30.74886067708333
 20
-2.526506212022569
 30
0.0
 10
30.720442030165
 20
-2.429377237955741
 30
0.0
 10
30.67351955837681
 20
-2.26898193359375
 30
0.0
 10
30.54500325520833
 20
-2.174546135796441
 30
0.0
 10
30.37511189778653
 20
-2.160491943359375
 30
0.0
  0
HATCH
  5
9C
330
91
100
AcDbEntity
  8
Layer 1
 62
     7
420
 16777215
100
AcDbHatch
 10
0.0
 20
0.0
 30
0.0
210
0.0
220
0.0
230
1.0
  2
SOLID
 70
     1
 71
     0
 91
        1
 92
        1
 93
        1
 72
     4
 94
        3
 73
     0
 74
     1
 95
       23
 96
       19
 40
0.0
 40
0.0
 40
0.0
 40
0.0
 40
1.0
 40
1.0
 40
1.0
 40
2.0
 40
2.0
 40
2.0
 40
3.0
 40
3.0
 40
3.0
 40
4.0
 40
4.0
 40
4.0
 40
5.0
 40
5.0
 40
5.0
 40
6.0
 40
6.0
 40
6.0
 40
6.0
 10
30.37511189778653
 20
-2.160491943359375
 10
30.17396375868055
 20
-2.143851386176228
 10
30.05136108398445
 20
-2.157083299424913
 10
29.93416341145833
 20
-2.324910481770833
 10
30.29064602322056
 20
-2.544817606608073
 10
30.31058078342014
 20
-2.718401590983073
 10
30.43647935655389
 20
-3.088799370659722
 10
30.57548692491319
 20
-3.108800252278658
 10
30.57446967230903
 20
-3.043915642632378
 10
30.63579305013028
 20
-2.925175136990017
 10
30.66624959309903
 20
-2.866201612684462
 10
30.70909627278653
 20
-2.807628207736545
 10
30.71797688802083
 20
-2.744861178927964
 10
30.73269314236111
 20
-2.640869140625
 10
30.74886067708333
 20
-2.526506212022569
 10
30.720442030165
 20
-2.429377237955741
 10
30.67351955837681
 20
-2.26898193359375
 10
30.54500325520833
 20
-2.174546135796441
 10
30.37511189778653
 20
-2.160491943359375
 97
        0
 97
        0
 75
     2
 76
     1
 98
        0
  0
SPLINE
  5
9D
330
91
100
AcDbEntity
  8
Layer 1
370
     0
100
AcDbSpline
210
0.0
220
0.0
230
1.0
 70
    11
 71
     3
 72
    29
 73
    25
 74
     0
 42
0.0000000001
 43
0.0000000001
 12
1.0
 22
0.0
 32
0.0
 13
1.0
 23
0.0
 33
0.0
 40
0.0
 40
0.0
 40
0.0
 40
0.0
 40
1.0
 40
1.0
 40
1.0
 40
2.0
 40
2.0
 40
2.0
 40
3.0
 40
3.0
 40
3.0
 40
4.0
 40
4.0
 40
4.0
 40
5.0
 40
5.0
 40
5.0
 40
6.0
 40
6.0
 40
6.0
 40
7.0
 40
7.0
 40
7.0
 40
8.0
 40
8.0
 40
8.0
 40
8.0
 10
29.34814792209209
 20
-1.745306226942274
 30
0.0
 10
29.24561564127612
 20
-1.705982632107205
 30
0.0
 10
29.14159817165806
 20
-1.671479966905395
 30
0.0
 10
29.03823174370667
 20
-1.634852939181858
 30
0.0
 10
29.03585137261292
 20
-1.643864949544283
 30
0.0
 10
29.03346761067708
 20
-1.652876959906684
 30
0.0
 10
29.03108723958333
 20
-1.661888970269097
 30
0.0
 10
28.99988810221362
 20
-1.661888970269097
 30
0.0
 10
28.96812608506944
 20
-1.657585144042969
 30
0.0
 10
28.93758138020833
 20
-1.662568834092895
 30
0.0
 10
28.68835110134556
 20
-1.703228420681436
 30
0.0
 10
28.56955973307291
 20
-1.774814181857639
 30
0.0
 10
28.51032511393237
 20
-2.005828009711371
 30
0.0
 10
28.43907674153653
 20
-2.283714294433594
 30
0.0
 10
28.50161064995667
 20
-2.42326185438368
 30
0.0
 10
28.74964396158862
 20
-2.508458455403658
 30
0.0
 10
28.79821099175347
 20
-2.525141398111991
 30
0.0
 10
28.84762234157986
 20
-2.53920406765408
 30
0.0
 10
28.897199842665
 20
-2.551725599500881
 30
0.0
 10
29.23859320746528
 20
-2.637953864203559
 30
0.0
 10
29.50101386176223
 20
-2.399112277560764
 30
0.0
 10
29.49158393012153
 20
-2.008915371365017
 30
0.0
 10
29.48877631293403
 20
-1.892756144205742
 30
0.0
 10
29.45983208550347
 20
-1.788141038682726
 30
0.0
 10
29.34814792209209
 20
-1.745306226942274
 30
0.0
  0
HATCH
  5
9E
330
91
100
AcDbEntity
  8
Layer 1
 62
     7
420
 16777215
100
AcDbHatch
 10
0.0
 20
0.0
 30
0.0
210
0.0
220
0.0
230
1.0
  2
SOLID
 70
     1
 71
     0
 91
        1
 92
        1
 93
        1
 72
     4
 94
        3
 73
     0
 74
     1
 95
       29
 96
       25
 40
0.0
 40
0.0
 40
0.0
 40
0.0
 40
1.0
 40
1.0
 40
1.0
 40
2.0
 40
2.0
 40
2.0
 40
3.0
 40
3.0
 40
3.0
 40
4.0
 40
4.0
 40
4.0
 40
5.0
 40
5.0
 40
5.0
 40
6.0
 40
6.0
 40
6.0
 40
7.0
 40
7.0
 40
7.0
 40
8.0
 40
8.0
 40
8.0
 40
8.0
 10
29.34814792209209
 20
-1.745306226942274
 10
29.24561564127612
 20
-1.705982632107205
 10
29.14159817165806
 20
-1.671479966905395
 10
29.03823174370667
 20
-1.634852939181858
 10
29.03585137261292
 20
-1.643864949544283
 10
29.03346761067708
 20
-1.652876959906684
 10
29.03108723958333
 20
-1.661888970269097
 10
28.99988810221362
 20
-1.661888970269097
 10
28.96812608506944
 20
-1.657585144042969
 10
28.93758138020833
 20
-1.662568834092895
 10
28.68835110134556
 20
-1.703228420681436
 10
28.56955973307291
 20
-1.774814181857639
 10
28.51032511393237
 20
-2.005828009711371
 10
28.43907674153653
 20
-2.283714294433594
 10
28.50161064995667
 20
-2.42326185438368
 10
28.74964396158862
 20
-2.508458455403658
 10
28.79821099175347
 20
-2.525141398111991
 10
28.84762234157986
 20
-2.53920406765408
 10
28.897199842665
 20
-2.551725599500881
 10
29.23859320746528
 20
-2.637953864203559
 10
29.50101386176223
 20
-2.399112277560764
 10
29.49158393012153
 20
-2.008915371365017
 10
29.48877631293403
 20
-1.892756144205742
 10
29.45983208550347
 20
-1.788141038682726
 10
29.34814792209209
 20
-1.745306226942274
 97
        0
 97
        0
 75
     2
 76
     1
 98
        0
  0
SPLINE
  5
9F
330
91
100
AcDbEntity
  8
Layer 1
370
     0
100
AcDbSpline
210
0.0
220
0.0
230
1.0
 70
    11
 71
     3
 72
    23
 73
    19
 74
     0
 42
0.0000000001
 43
0.0000000001
 12
1.0
 22
0.0
 32
0.0
 13
1.0
 23
0.0
 33
0.0
 40
0.0
 40
0.0
 40
0.0
 40
0.0
 40
1.0
 40
1.0
 40
1.0
 40
2.0
 40
2.0
 40
2.0
 40
3.0
 40
3.0
 40
3.0
 40
4.0
 40
4.0
 40
4.0
 40
5.0
 40
5.0
 40
5.0
 40
6.0
 40
6.0
 40
6.0
 40
6.0
 10
30.05859375
 20
-1.367854648166233
 30
0.0
 10
30.31302897135416
 20
-1.359551323784722
 30
0.0
 10
30.41644287109375
 20
-1.256509568956163
 30
0.0
 10
30.39049953884556
 20
-1.006316290961371
 30
0.0
 10
30.35930718315972
 20
-0.7054807874891492
 30
0.0
 10
30.22931247287334
 20
-0.5551588270399306
 30
0.0
 10
29.935285780165
 20
-0.5120129055447048
 30
0.0
 10
29.83666653103306
 20
-0.4975416395399305
 30
0.0
 10
29.73430040147569
 20
-0.5035290188259548
 30
0.0
 10
29.63391452365459
 20
-0.5072843763563368
 30
0.0
 10
29.44707573784722
 20
-0.5142737494574653
 30
0.0
 10
29.27136908637153
 20
-0.7818671332465277
 30
0.0
 10
29.35403781467014
 20
-0.948804219563802
 30
0.0
 10
29.48454115125875
 20
-1.212339613172743
 30
0.0
 10
29.63200208875875
 20
-1.389116075303819
 30
0.0
 10
29.97312418619791
 20
-1.368080139160156
 30
0.0
 10
30.00161404079861
 20
-1.367980109320746
 30
0.0
 10
30.03013102213541
 20
-1.368782891167535
 30
0.0
 10
30.05859375
 20
-1.367854648166233
 30
0.0
  0
HATCH
  5
A0
330
91
100
AcDbEntity
  8
Layer 1
 62
     7
420
 16777215
100
AcDbHatch
 10
0.0
 20
0.0
 30
0.0
210
0.0
220
0.0
230
1.0
  2
SOLID
 70
     1
 71
     0
 91
        1
 92
        1
 93
        1
 72
     4
 94
        3
 73
     0
 74
     1
 95
       23
 96
       19
 40
0.0
 40
0.0
 40
0.0
 40
0.0
 40
1.0
 40
1.0
 40
1.0
 40
2.0
 40
2.0
 40
2.0
 40
3.0
 40
3.0
 40
3.0
 40
4.0
 40
4.0
 40
4.0
 40
5.0
 40
5.0
 40
5.0
 40
6.0
 40
6.0
 40
6.0
 40
6.0
 10
30.05859375
 20
-1.367854648166233
 10
30.31302897135416
 20
-1.359551323784722
 10
30.41644287109375
 20
-1.256509568956163
 10
30.39049953884556
 20
-1.006316290961371
 10
30.35930718315972
 20
-0.7054807874891492
 10
30.22931247287334
 20
-0.5551588270399306
 10
29.935285780165
 20
-0.5120129055447048
 10
29.83666653103306
 20
-0.4975416395399305
 10
29.73430040147569
 20
-0.5035290188259548
 10
29.63391452365459
 20
-0.5072843763563368
 10
29.44707573784722
 20
-0.5142737494574653
 10
29.27136908637153
 20
-0.7818671332465277
 10
29.35403781467014
 20
-0.948804219563802
 10
29.48454115125875
 20
-1.212339613172743
 10
29.63200208875875
 20
-1.389116075303819
 10
29.97312418619791
 20
-1.368080139160156
 10
30.00161404079861
 20
-1.367980109320746
 10
30.03013102213541
 20
-1.368782891167535
 10
30.05859375
 20
-1.367854648166233
 97
        0
 97
        0
 75
     2
 76
     1
 98
        0
  0
SPLINE
  5
A1
330
91
100
AcDbEntity
  8
Layer 1
370
     0
100
AcDbSpline
210
0.0
220
0.0
230
1.0
 70
    11
 71
     3
 72
    14
 73
    10
 74
     0
 42
0.0000000001
 43
0.0000000001
 12
1.0
 22
0.0
 32
0.0
 13
1.0
 23
0.0
 33
0.0
 40
0.0
 40
0.0
 40
0.0
 40
0.0
 40
1.0
 40
1.0
 40
1.0
 40
2.0
 40
2.0
 40
2.0
 40
3.0
 40
3.0
 40
3.0
 40
3.0
 10
28.44495307074653
 20
-1.305914984809028
 30
0.0
 10
28.51804945204
 20
-1.091028001573351
 30
0.0
 10
28.47561984592014
 20
-0.8890999688042535
 30
0.0
 10
28.26749674479166
 20
-0.7878740098741319
 30
0.0
 10
28.16536119249139
 20
-0.8659540812174479
 30
0.0
 10
27.79627821180555
 20
-1.331206427680121
 30
0.0
 10
27.71425713433167
 20
-1.667503356933594
 30
0.0
 10
27.98218790690112
 20
-1.836382548014323
 30
0.0
 10
28.40008884006084
 20
-1.437801784939236
 30
0.0
 10
28.44495307074653
 20
-1.305914984809028
 30
0.0
  0
HATCH
  5
A2
330
91
100
AcDbEntity
  8
Layer 1
 62
     7
420
 16777215
100
AcDbHatch
 10
0.0
 20
0.0
 30
0.0
210
0.0
220
0.0
230
1.0
  2
SOLID
 70
     1
 71
     0
 91
        1
 92
        1
 93
        1
 72
     4
 94
        3
 73
     0
 74
     1
 95
       14
 96
       10
 40
0.0
 40
0.0
 40
0.0
 40
0.0
 40
1.0
 40
1.0
 40
1.0
 40
2.0
 40
2.0
 40
2.0
 40
3.0
 40
3.0
 40
3.0
 40
3.0
 10
28.44495307074653
 20
-1.305914984809028
 10
28.51804945204
 20
-1.091028001573351
 10
28.47561984592014
 20
-0.8890999688042535
 10
28.26749674479166
 20
-0.7878740098741319
 10
28.16536119249139
 20
-0.8659540812174479
 10
27.79627821180555
 20
-1.331206427680121
 10
27.71425713433167
 20
-1.667503356933594
 10
27.98218790690112
 20
-1.836382548014323
 10
28.40008884006084
 20
-1.437801784939236
 10
28.44495307074653
 20
-1.305914984809028
 97
        0
 97
        0
 75
     2
 76
     1
 98
        0
  0
SPLINE
  5
A3
330
91
100
AcDbEntity
  8
Layer 1
370
     0
100
AcDbSpline
210
0.0
220
0.0
230
1.0
 70
    11
 71
     3
 72
    20
 73
    16
 74
     0
 42
0.0000000001
 43
0.0000000001
 12
1.0
 22
0.0
 32
0.0
 13
1.0
 23
0.0
 33
0.0
 40
0.0
 40
0.0
 40
0.0
 40
0.0
 40
1.0
 40
1.0
 40
1.0
 40
2.0
 40
2.0
 40
2.0
 40
3.0
 40
3.0
 40
3.0
 40
4.0
 40
4.0
 40
4.0
 40
5.0
 40
5.0
 40
5.0
 40
5.0
 10
28.61605834960945
 20
-3.47573682996963
 30
0.0
 10
28.56913248697916
 20
-3.315342373318142
 30
0.0
 10
28.44061957465278
 20
-3.220906575520833
 30
0.0
 10
28.27072652180987
 20
-3.206851535373264
 30
0.0
 10
28.21688334147138
 20
-3.202397664388033
 30
0.0
 10
28.16621568467889
 20
-3.205136617024739
 30
0.0
 10
28.11848449707028
 20
-3.214425828721788
 30
0.0
 10
28.11848449707028
 20
-3.214425828721788
 30
0.0
 10
28.11848449707028
 20
-3.656331380208333
 30
0.0
 10
28.11848449707028
 20
-3.656331380208333
 30
0.0
 10
28.11848449707028
 20
-3.656331380208333
 30
0.0
 10
28.62944200303819
 20
-3.656331380208333
 30
0.0
 10
28.62944200303819
 20
-3.656331380208333
 30
0.0
 10
28.63394504123264
 20
-3.593929714626736
 30
0.0
 10
28.63250054253472
 20
-3.53194597032335
 30
0.0
 10
28.61605834960945
 20
-3.47573682996963
 30
0.0
  0
HATCH
  5
A4
330
91
100
AcDbEntity
  8
Layer 1
 62
     7
420
 16777215
100
AcDbHatch
 10
0.0
 20
0.0
 30
0.0
210
0.0
220
0.0
230
1.0
  2
SOLID
 70
     1
 71
     0
 91
        1
 92
        1
 93
        1
 72
     4
 94
        3
 73
     0
 74
     1
 95
       20
 96
       16
 40
0.0
 40
0.0
 40
0.0
 40
0.0
 40
1.0
 40
1.0
 40
1.0
 40
2.0
 40
2.0
 40
2.0
 40
3.0
 40
3.0
 40
3.0
 40
4.0
 40
4.0
 40
4.0
 40
5.0
 40
5.0
 40
5.0
 40
5.0
 10
28.61605834960945
 20
-3.47573682996963
 10
28.56913248697916
 20
-3.315342373318142
 10
28.44061957465278
 20
-3.220906575520833
 10
28.27072652180987
 20
-3.206851535373264
 10
28.21688334147138
 20
-3.202397664388033
 10
28.16621568467889
 20
-3.205136617024739
 10
28.11848449707028
 20
-3.214425828721788
 10
28.11848449707028
 20
-3.214425828721788
 10
28.11848449707028
 20
-3.656331380208333
 10
28.11848449707028
 20
-3.656331380208333
 10
28.11848449707028
 20
-3.656331380208333
 10
28.62944200303819
 20
-3.656331380208333
 10
28.62944200303819
 20
-3.656331380208333
 10
28.63394504123264
 20
-3.593929714626736
 10
28.63250054253472
 20
-3.53194597032335
 10
28.61605834960945
 20
-3.47573682996963
 97
        0
 97
        0
 75
     2
 76
     1
 98
        0
  0
ENDBLK
  5
94
330
91
100
AcDbEntity
  8
0
100
AcDbBlockEnd
  0
BLOCK
  5
A7
330
A5
100
AcDbEntity
  8
0
100
AcDbBlockBegin
  2
block 3
 70
     0
 10
0.0
 20
0.0
 30
0.0
  3
block 3
  1

  0
SPLINE
  5
A9
330
A5
100
AcDbEntity
  8
Layer 1
370
     0
100
AcDbSpline
210
0.0
220
0.0
230
1.0
 70
    11
 71
     3
 72
    14
 73
    10
 74
     0
 42
0.0000000001
 43
0.0000000001
 12
1.0
 22
0.0
 32
0.0
 13
1.0
 23
0.0
 33
0.0
 40
0.0
 40
0.0
 40
0.0
 40
0.0
 40
1.0
 40
1.0
 40
1.0
 40
2.0
 40
2.0
 40
2.0
 40
3.0
 40
3.0
 40
3.0
 40
3.0
 10
26.90095822317693
 20
-3.876781789409089
 30
0.0
 10
27.1710794796875
 20
-3.872260949306185
 30
0.0
 10
27.64668237138848
 20
-4.076209923936921
 30
0.0
 10
27.86343855626708
 20
-4.460570343325988
 30
0.0
 10
27.86343855626708
 20
-4.460570343325988
 30
0.0
 10
27.85595496794278
 20
-4.453206282181983
 30
0.0
 10
27.85595496794278
 20
-4.453206282181983
 30
0.0
 10
27.44143639968375
 20
-4.634391686623013
 30
0.0
 10
26.86962006126722
 20
-4.264330447990574
 30
0.0
 10
26.90095822317693
 20
-3.876781789409089
 30
0.0
  0
HATCH
  5
AA
330
A5
100
AcDbEntity
  8
Layer 1
 62
     7
420
 16777215
100
AcDbHatch
 10
0.0
 20
0.0
 30
0.0
210
0.0
220
0.0
230
1.0
  2
SOLID
 70
     1
 71
     0
 91
        1
 92
        1
 93
        1
 72
     4
 94
        3
 73
     0
 74
     1
 95
       14
 96
       10
 40
0.0
 40
0.0
 40
0.0
 40
0.0
 40
1.0
 40
1.0
 40
1.0
 40
2.0
 40
2.0
 40
2.0
 40
3.0
 40
3.0
 40
3.0
 40
3.0
 10
26.90095822317693
 20
-3.876781789409089
 10
27.1710794796875
 20
-3.872260949306185
 10
27.64668237138848
 20
-4.076209923936921
 10
27.86343855626708
 20
-4.460570343325988
 10
27.86343855626708
 20
-4.460570343325988
 10
27.85595496794278
 20
-4.453206282181983
 10
27.85595496794278
 20
-4.453206282181983
 10
27.44143639968375
 20
-4.634391686623013
 10
26.86962006126722
 20
-4.264330447990574
 10
26.90095822317693
 20
-3.876781789409089
 97
        0
 97
        0
 75
     2
 76
     1
 98
        0
  0
SPLINE
  5
AB
330
A5
100
AcDbEntity
  8
Layer 1
370
     0
100
AcDbSpline
210
0.0
220
0.0
230
1.0
 70
    11
 71
     3
 72
    14
 73
    10
 74
     0
 42
0.0000000001
 43
0.0000000001
 12
1.0
 22
0.0
 32
0.0
 13
1.0
 23
0.0
 33
0.0
 40
0.0
 40
0.0
 40
0.0
 40
0.0
 40
1.0
 40
1.0
 40
1.0
 40
2.0
 40
2.0
 40
2.0
 40
3.0
 40
3.0
 40
3.0
 40
3.0
 10
26.1539896358754
 20
-5.257534352852101
 30
0.0
 10
25.90349626836986
 20
-5.0891849808248
 30
0.0
 10
26.17481279670902
 20
-4.671251834678123
 30
0.0
 10
26.47732846239695
 20
-4.718568491864011
 30
0.0
 10
26.47732846239695
 20
-4.718568491864011
 30
0.0
 10
26.48190101285291
 20
-4.715019975696691
 30
0.0
 10
26.48190101285291
 20
-4.715019975696691
 30
0.0
 10
26.38042667474193
 20
-4.788741119626593
 30
0.0
 10
26.25871579148237
 20
-5.079079423928849
 30
0.0
 10
26.1539896358754
 20
-5.257534352852101
 30
0.0
  0
HATCH
  5
AC
330
A5
100
AcDbEntity
  8
Layer 1
 62
     7
420
 16777215
100
AcDbHatch
 10
0.0
 20
0.0
 30
0.0
210
0.0
220
0.0
230
1.0
  2
SOLID
 70
     1
 71
     0
 91
        1
 92
        1
 93
        1
 72
     4
 94
        3
 73
     0
 74
     1
 95
       14
 96
       10
 40
0.0
 40
0.0
 40
0.0
 40
0.0
 40
1.0
 40
1.0
 40
1.0
 40
2.0
 40
2.0
 40
2.0
 40
3.0
 40
3.0
 40
3.0
 40
3.0
 10
26.1539896358754
 20
-5.257534352852101
 10
25.90349626836986
 20
-5.0891849808248
 10
26.17481279670902
 20
-4.671251834678123
 10
26.47732846239695
 20
-4.718568491864011
 10
26.47732846239695
 20
-4.718568491864011
 10
26.48190101285291
 20
-4.715019975696691
 10
26.48190101285291
 20
-4.715019975696691
 10
26.38042667474193
 20
-4.788741119626593
 10
26.25871579148237
 20
-5.079079423928849
 10
26.1539896358754
 20
-5.257534352852101
 97
        0
 97
        0
 75
     2
 76
     1
 98
        0
  0
SPLINE
  5
AD
330
A5
100
AcDbEntity
  8
Layer 1
370
     0
100
AcDbSpline
210
0.0
220
0.0
230
1.0
 70
    11
 71
     3
 72
    17
 73
    13
 74
     0
 42
0.0000000001
 43
0.0000000001
 12
1.0
 22
0.0
 32
0.0
 13
1.0
 23
0.0
 33
0.0
 40
0.0
 40
0.0
 40
0.0
 40
0.0
 40
1.0
 40
1.0
 40
1.0
 40
2.0
 40
2.0
 40
2.0
 40
3.0
 40
3.0
 40
3.0
 40
4.0
 40
4.0
 40
4.0
 40
4.0
 10
31.03727007200915
 20
-6.687295603885154
 30
0.0
 10
30.83921777166749
 20
-6.561522491897095
 30
0.0
 10
30.82232120592013
 20
-6.387696910027848
 30
0.0
 10
30.80763886000889
 20
-6.188843523254175
 30
0.0
 10
30.80136580228696
 20
-6.103945316331154
 30
0.0
 10
30.83971283462514
 20
-6.036669315356309
 30
0.0
 10
30.90362681574735
 20
-5.981993683306237
 30
0.0
 10
31.05152856271487
 20
-5.855469499827627
 30
0.0
 10
31.22636037695237
 20
-5.82503160649781
 30
0.0
 10
31.40995751778943
 20
-5.932665409131914
 30
0.0
 10
31.396102537315
 20
-6.060478112581816
 30
0.0
 10
31.28239065036208
 20
-6.442879472982528
 30
0.0
 10
31.03727007200915
 20
-6.687295603885154
 30
0.0
  0
HATCH
  5
AE
330
A5
100
AcDbEntity
  8
Layer 1
 62
     7
420
 16777215
100
AcDbHatch
 10
0.0
 20
0.0
 30
0.0
210
0.0
220
0.0
230
1.0
  2
SOLID
 70
     1
 71
     0
 91
        1
 92
        1
 93
        1
 72
     4
 94
        3
 73
     0
 74
     1
 95
       17
 96
       13
 40
0.0
 40
0.0
 40
0.0
 40
0.0
 40
1.0
 40
1.0
 40
1.0
 40
2.0
 40
2.0
 40
2.0
 40
3.0
 40
3.0
 40
3.0
 40
4.0
 40
4.0
 40
4.0
 40
4.0
 10
31.03727007200915
 20
-6.687295603885154
 10
30.83921777166749
 20
-6.561522491897095
 10
30.82232120592013
 20
-6.387696910027848
 10
30.80763886000889
 20
-6.188843523254175
 10
30.80136580228696
 20
-6.103945316331154
 10
30.83971283462514
 20
-6.036669315356309
 10
30.90362681574735
 20
-5.981993683306237
 10
31.05152856271487
 20
-5.855469499827627
 10
31.22636037695237
 20
-5.82503160649781
 10
31.40995751778943
 20
-5.932665409131914
 10
31.396102537315
 20
-6.060478112581816
 10
31.28239065036208
 20
-6.442879472982528
 10
31.03727007200915
 20
-6.687295603885154
 97
        0
 97
        0
 75
     2
 76
     1
 98
        0
  0
SPLINE
  5
AF
330
A5
100
AcDbEntity
  8
Layer 1
370
     0
100
AcDbSpline
210
0.0
220
0.0
230
1.0
 70
    11
 71
     3
 72
    23
 73
    19
 74
     0
 42
0.0000000001
 43
0.0000000001
 12
1.0
 22
0.0
 32
0.0
 13
1.0
 23
0.0
 33
0.0
 40
0.0
 40
0.0
 40
0.0
 40
0.0
 40
1.0
 40
1.0
 40
1.0
 40
2.0
 40
2.0
 40
2.0
 40
3.0
 40
3.0
 40
3.0
 40
4.0
 40
4.0
 40
4.0
 40
5.0
 40
5.0
 40
5.0
 40
6.0
 40
6.0
 40
6.0
 40
6.0
 10
30.37636783682501
 20
-5.372547475600274
 30
0.0
 10
30.17521969771848
 20
-5.389188032774402
 30
0.0
 10
30.05261702302278
 20
-5.375956119520197
 30
0.0
 10
29.93541935050431
 20
-5.208128937169008
 30
0.0
 10
30.29190196227639
 20
-4.988221812347774
 30
0.0
 10
30.31183672248375
 20
-4.81463782797367
 30
0.0
 10
30.43773529563416
 20
-4.444240048302681
 30
0.0
 10
30.57674286399429
 20
-4.424239166689997
 30
0.0
 10
30.57572561138734
 20
-4.489123776336214
 30
0.0
 10
30.63704898920319
 20
-4.607864281981329
 30
0.0
 10
30.66750553216929
 20
-4.666837806288249
 30
0.0
 10
30.71035221185416
 20
-4.725411211238097
 30
0.0
 10
30.71923282708568
 20
-4.788178240047083
 30
0.0
 10
30.73394908142124
 20
-4.892170278350691
 30
0.0
 10
30.75011661613833
 20
-5.006533206953867
 30
0.0
 10
30.72169796921556
 20
-5.103662181019419
 30
0.0
 10
30.67477549742029
 20
-5.264057485379289
 30
0.0
 10
30.54625919424764
 20
-5.358493283170825
 30
0.0
 10
30.37636783682501
 20
-5.372547475600274
 30
0.0
  0
HATCH
  5
B0
330
A5
100
AcDbEntity
  8
Layer 1
 62
     7
420
 16777215
100
AcDbHatch
 10
0.0
 20
0.0
 30
0.0
210
0.0
220
0.0
230
1.0
  2
SOLID
 70
     1
 71
     0
 91
        1
 92
        1
 93
        1
 72
     4
 94
        3
 73
     0
 74
     1
 95
       23
 96
       19
 40
0.0
 40
0.0
 40
0.0
 40
0.0
 40
1.0
 40
1.0
 40
1.0
 40
2.0
 40
2.0
 40
2.0
 40
3.0
 40
3.0
 40
3.0
 40
4.0
 40
4.0
 40
4.0
 40
5.0
 40
5.0
 40
5.0
 40
6.0
 40
6.0
 40
6.0
 40
6.0
 10
30.37636783682501
 20
-5.372547475600274
 10
30.17521969771848
 20
-5.389188032774402
 10
30.05261702302278
 20
-5.375956119520197
 10
29.93541935050431
 20
-5.208128937169008
 10
30.29190196227639
 20
-4.988221812347774
 10
30.31183672248375
 20
-4.81463782797367
 10
30.43773529563416
 20
-4.444240048302681
 10
30.57674286399429
 20
-4.424239166689997
 10
30.57572561138734
 20
-4.489123776336214
 10
30.63704898920319
 20
-4.607864281981329
 10
30.66750553216929
 20
-4.666837806288249
 10
30.71035221185416
 20
-4.725411211238097
 10
30.71923282708568
 20
-4.788178240047083
 10
30.73394908142124
 20
-4.892170278350691
 10
30.75011661613833
 20
-5.006533206953867
 10
30.72169796921556
 20
-5.103662181019419
 10
30.67477549742029
 20
-5.264057485379289
 10
30.54625919424764
 20
-5.358493283170825
 10
30.37636783682501
 20
-5.372547475600274
 97
        0
 97
        0
 75
     2
 76
     1
 98
        0
  0
SPLINE
  5
B1
330
A5
100
AcDbEntity
  8
Layer 1
370
     0
100
AcDbSpline
210
0.0
220
0.0
230
1.0
 70
    11
 71
     3
 72
    29
 73
    25
 74
     0
 42
0.0000000001
 43
0.0000000001
 12
1.0
 22
0.0
 32
0.0
 13
1.0
 23
0.0
 33
0.0
 40
0.0
 40
0.0
 40
0.0
 40
0.0
 40
1.0
 40
1.0
 40
1.0
 40
2.0
 40
2.0
 40
2.0
 40
3.0
 40
3.0
 40
3.0
 40
4.0
 40
4.0
 40
4.0
 40
5.0
 40
5.0
 40
5.0
 40
6.0
 40
6.0
 40
6.0
 40
7.0
 40
7.0
 40
7.0
 40
8.0
 40
8.0
 40
8.0
 40
8.0
 10
29.34940386111194
 20
-5.787733191971256
 30
0.0
 10
29.24687158029418
 20
-5.827056786801728
 30
0.0
 10
29.14285411067458
 20
-5.861559451998876
 30
0.0
 10
29.03948768272165
 20
-5.898186479717765
 30
0.0
 10
29.0371073116282
 20
-5.889174469355238
 30
0.0
 10
29.03472354969292
 20
-5.880162458992723
 30
0.0
 10
29.03234317859958
 20
-5.87115044863021
 30
0.0
 10
29.00114404122971
 20
-5.871150448628807
 30
0.0
 10
28.96938202408541
 20
-5.875454274853508
 30
0.0
 10
28.93883731922458
 20
-5.870470584802218
 30
0.0
 10
28.68960704036363
 20
-5.829810998202484
 30
0.0
 10
28.57081567209416
 20
-5.758225237020938
 30
0.0
 10
28.51158105296389
 20
-5.527211409164553
 30
0.0
 10
28.44033268058057
 20
-5.249325124439123
 30
0.0
 10
28.50286658900695
 20
-5.109777564491853
 30
0.0
 10
28.75089990064278
 20
-5.024580963483016
 30
0.0
 10
28.79946693080847
 20
-5.007898020776868
 30
0.0
 10
28.84887828063541
 20
-4.993835351236966
 30
0.0
 10
28.89845578172111
 20
-4.981313819392426
 30
0.0
 10
29.23984914652528
 20
-4.895085554705057
 30
0.0
 10
29.50226980081152
 20
-5.133927141359638
 30
0.0
 10
29.49283986915333
 20
-5.524124047554955
 30
0.0
 10
29.49003225196055
 20
-5.640283274714117
 30
0.0
 10
29.4610880245254
 20
-5.744898380235819
 30
0.0
 10
29.34940386111194
 20
-5.787733191971256
 30
0.0
  0
HATCH
  5
B2
330
A5
100
AcDbEntity
  8
Layer 1
 62
     7
420
 16777215
100
AcDbHatch
 10
0.0
 20
0.0
 30
0.0
210
0.0
220
0.0
230
1.0
  2
SOLID
 70
     1
 71
     0
 91
        1
 92
        1
 93
        1
 72
     4
 94
        3
 73
     0
 74
     1
 95
       29
 96
       25
 40
0.0
 40
0.0
 40
0.0
 40
0.0
 40
1.0
 40
1.0
 40
1.0
 40
2.0
 40
2.0
 40
2.0
 40
3.0
 40
3.0
 40
3.0
 40
4.0
 40
4.0
 40
4.0
 40
5.0
 40
5.0
 40
5.0
 40
6.0
 40
6.0
 40
6.0
 40
7.0
 40
7.0
 40
7.0
 40
8.0
 40
8.0
 40
8.0
 40
8.0
 10
29.34940386111194
 20
-5.787733191971256
 10
29.24687158029418
 20
-5.827056786801728
 10
29.14285411067458
 20
-5.861559451998876
 10
29.03948768272165
 20
-5.898186479717765
 10
29.0371073116282
 20
-5.889174469355238
 10
29.03472354969292
 20
-5.880162458992723
 10
29.03234317859958
 20
-5.87115044863021
 10
29.00114404122971
 20
-5.871150448628807
 10
28.96938202408541
 20
-5.875454274853508
 10
28.93883731922458
 20
-5.870470584802218
 10
28.68960704036363
 20
-5.829810998202484
 10
28.57081567209416
 20
-5.758225237020938
 10
28.51158105296389
 20
-5.527211409164553
 10
28.44033268058057
 20
-5.249325124439123
 10
28.50286658900695
 20
-5.109777564491853
 10
28.75089990064278
 20
-5.024580963483016
 10
28.79946693080847
 20
-5.007898020776868
 10
28.84887828063541
 20
-4.993835351236966
 10
28.89845578172111
 20
-4.981313819392426
 10
29.23984914652528
 20
-4.895085554705057
 10
29.50226980081152
 20
-5.133927141359638
 10
29.49283986915333
 20
-5.524124047554955
 10
29.49003225196055
 20
-5.640283274714117
 10
29.4610880245254
 20
-5.744898380235819
 10
29.34940386111194
 20
-5.787733191971256
 97
        0
 97
        0
 75
     2
 76
     1
 98
        0
  0
SPLINE
  5
B3
330
A5
100
AcDbEntity
  8
Layer 1
370
     0
100
AcDbSpline
210
0.0
220
0.0
230
1.0
 70
    11
 71
     3
 72
    23
 73
    19
 74
     0
 42
0.0000000001
 43
0.0000000001
 12
1.0
 22
0.0
 32
0.0
 13
1.0
 23
0.0
 33
0.0
 40
0.0
 40
0.0
 40
0.0
 40
0.0
 40
1.0
 40
1.0
 40
1.0
 40
2.0
 40
2.0
 40
2.0
 40
3.0
 40
3.0
 40
3.0
 40
4.0
 40
4.0
 40
4.0
 40
5.0
 40
5.0
 40
5.0
 40
6.0
 40
6.0
 40
6.0
 40
6.0
 10
30.05984968900306
 20
-6.165184770779206
 30
0.0
 10
30.31428491035679
 20
-6.173488095172135
 30
0.0
 10
30.4176988100918
 20
-6.27652985000533
 30
0.0
 10
30.39175547783222
 20
-6.526723127998959
 30
0.0
 10
30.36056312213304
 20
-6.827558631469779
 30
0.0
 10
30.23056841183987
 20
-6.977880591913163
 30
0.0
 10
29.93654171912959
 20
-7.0210265133952
 30
0.0
 10
29.83792246999693
 20
-7.035497779395541
 30
0.0
 10
29.73555634043987
 20
-7.029510400104918
 30
0.0
 10
29.63517046261889
 20
-7.025755042570027
 30
0.0
 10
29.44833167681195
 20
-7.018765669460511
 30
0.0
 10
29.27262502534818
 20
-6.751172285663566
 30
0.0
 10
29.3552937536543
 20
-6.584235199350005
 30
0.0
 10
29.48579709025471
 20
-6.320699805746913
 30
0.0
 10
29.63325802776265
 20
-6.143923343622456
 30
0.0
 10
29.97438012520097
 20
-6.164959279781442
 30
0.0
 10
30.00286997980167
 20
-6.165059309622127
 30
0.0
 10
30.03138696113847
 20
-6.164256527776615
 30
0.0
 10
30.05984968900306
 20
-6.165184770779206
 30
0.0
  0
HATCH
  5
B4
330
A5
100
AcDbEntity
  8
Layer 1
 62
     7
420
 16777215
100
AcDbHatch
 10
0.0
 20
0.0
 30
0.0
210
0.0
220
0.0
230
1.0
  2
SOLID
 70
     1
 71
     0
 91
        1
 92
        1
 93
        1
 72
     4
 94
        3
 73
     0
 74
     1
 95
       23
 96
       19
 40
0.0
 40
0.0
 40
0.0
 40
0.0
 40
1.0
 40
1.0
 40
1.0
 40
2.0
 40
2.0
 40
2.0
 40
3.0
 40
3.0
 40
3.0
 40
4.0
 40
4.0
 40
4.0
 40
5.0
 40
5.0
 40
5.0
 40
6.0
 40
6.0
 40
6.0
 40
6.0
 10
30.05984968900306
 20
-6.165184770779206
 10
30.31428491035679
 20
-6.173488095172135
 10
30.4176988100918
 20
-6.27652985000533
 10
30.39175547783222
 20
-6.526723127998959
 10
30.36056312213304
 20
-6.827558631469779
 10
30.23056841183987
 20
-6.977880591913163
 10
29.93654171912959
 20
-7.0210265133952
 10
29.83792246999693
 20
-7.035497779395541
 10
29.73555634043987
 20
-7.029510400104918
 10
29.63517046261889
 20
-7.025755042570027
 10
29.44833167681195
 20
-7.018765669460511
 10
29.27262502534818
 20
-6.751172285663566
 10
29.3552937536543
 20
-6.584235199350005
 10
29.48579709025471
 20
-6.320699805746913
 10
29.63325802776265
 20
-6.143923343622456
 10
29.97438012520097
 20
-6.164959279781442
 10
30.00286997980167
 20
-6.165059309622127
 10
30.03138696113847
 20
-6.164256527776615
 10
30.05984968900306
 20
-6.165184770779206
 97
        0
 97
        0
 75
     2
 76
     1
 98
        0
  0
SPLINE
  5
B5
330
A5
100
AcDbEntity
  8
Layer 1
370
     0
100
AcDbSpline
210
0.0
220
0.0
230
1.0
 70
    11
 71
     3
 72
    14
 73
    10
 74
     0
 42
0.0000000001
 43
0.0000000001
 12
1.0
 22
0.0
 32
0.0
 13
1.0
 23
0.0
 33
0.0
 40
0.0
 40
0.0
 40
0.0
 40
0.0
 40
1.0
 40
1.0
 40
1.0
 40
2.0
 40
2.0
 40
2.0
 40
3.0
 40
3.0
 40
3.0
 40
3.0
 10
28.44620900974681
 20
-6.227124434063954
 30
0.0
 10
28.51930539103056
 20
-6.442011417302915
 30
0.0
 10
28.47687578490167
 20
-6.643939450070105
 30
0.0
 10
28.2687526837686
 20
-6.745165408990892
 30
0.0
 10
28.16661713147181
 20
-6.66708533764299
 30
0.0
 10
27.79753415080694
 20
-6.201832991163756
 30
0.0
 10
27.71551307334807
 20
-5.865536061906583
 30
0.0
 10
27.98344384592514
 20
-5.696656870837892
 30
0.0
 10
28.40134477906695
 20
-6.095237633931737
 30
0.0
 10
28.44620900974681
 20
-6.227124434063954
 30
0.0
  0
HATCH
  5
B6
330
A5
100
AcDbEntity
  8
Layer 1
 62
     7
420
 16777215
100
AcDbHatch
 10
0.0
 20
0.0
 30
0.0
210
0.0
220
0.0
230
1.0
  2
SOLID
 70
     1
 71
     0
 91
        1
 92
        1
 93
        1
 72
     4
 94
        3
 73
     0
 74
     1
 95
       14
 96
       10
 40
0.0
 40
0.0
 40
0.0
 40
0.0
 40
1.0
 40
1.0
 40
1.0
 40
2.0
 40
2.0
 40
2.0
 40
3.0
 40
3.0
 40
3.0
 40
3.0
 10
28.44620900974681
 20
-6.227124434063954
 10
28.51930539103056
 20
-6.442011417302915
 10
28.47687578490167
 20
-6.643939450070105
 10
28.2687526837686
 20
-6.745165408990892
 10
28.16661713147181
 20
-6.66708533764299
 10
27.79753415080694
 20
-6.201832991163756
 10
27.71551307334807
 20
-5.865536061906583
 10
27.98344384592514
 20
-5.696656870837892
 10
28.40134477906695
 20
-6.095237633931737
 10
28.44620900974681
 20
-6.227124434063954
 97
        0
 97
        0
 75
     2
 76
     1
 98
        0
  0
SPLINE
  5
B7
330
A5
100
AcDbEntity
  8
Layer 1
370
     0
100
AcDbSpline
210
0.0
220
0.0
230
1.0
 70
    11
 71
     3
 72
    20
 73
    16
 74
     0
 42
0.0000000001
 43
0.0000000001
 12
1.0
 22
0.0
 32
0.0
 13
1.0
 23
0.0
 33
0.0
 40
0.0
 40
0.0
 40
0.0
 40
0.0
 40
1.0
 40
1.0
 40
1.0
 40
2.0
 40
2.0
 40
2.0
 40
3.0
 40
3.0
 40
3.0
 40
4.0
 40
4.0
 40
4.0
 40
5.0
 40
5.0
 40
5.0
 40
5.0
 10
28.61731428870709
 20
-4.057302588911044
 30
0.0
 10
28.57038842606958
 20
-4.217697045560422
 30
0.0
 10
28.44187551373903
 20
-4.312132843351959
 30
0.0
 10
28.27198246089556
 20
-4.326187883491899
 30
0.0
 10
28.21813928055679
 20
-4.330641754474742
 30
0.0
 10
28.16747162376431
 20
-4.327902801835736
 30
0.0
 10
28.11974043615626
 20
-4.318613590136541
 30
0.0
 10
28.11974043615626
 20
-4.318613590136541
 30
0.0
 10
28.11974043617612
 20
-3.876708038649995
 30
0.0
 10
28.11974043617612
 20
-3.876708038649995
 30
0.0
 10
28.11974043617612
 20
-3.876708038649995
 30
0.0
 10
28.6306979421439
 20
-3.876708038672935
 30
0.0
 10
28.6306979421439
 20
-3.876708038672935
 30
0.0
 10
28.63520098033556
 20
-3.939109704254734
 30
0.0
 10
28.63375648163487
 20
-4.001093448558056
 30
0.0
 10
28.61731428870709
 20
-4.057302588911044
 30
0.0
  0
HATCH
  5
B8
330
A5
100
AcDbEntity
  8
Layer 1
 62
     7
420
 16777215
100
AcDbHatch
 10
0.0
 20
0.0
 30
0.0
210
0.0
220
0.0
230
1.0
  2
SOLID
 70
     1
 71
     0
 91
        1
 92
        1
 93
        1
 72
     4
 94
        3
 73
     0
 74
     1
 95
       20
 96
       16
 40
0.0
 40
0.0
 40
0.0
 40
0.0
 40
1.0
 40
1.0
 40
1.0
 40
2.0
 40
2.0
 40
2.0
 40
3.0
 40
3.0
 40
3.0
 40
4.0
 40
4.0
 40
4.0
 40
5.0
 40
5.0
 40
5.0
 40
5.0
 10
28.61731428870709
 20
-4.057302588911044
 10
28.57038842606958
 20
-4.217697045560422
 10
28.44187551373903
 20
-4.312132843351959
 10
28.27198246089556
 20
-4.326187883491899
 10
28.21813928055679
 20
-4.330641754474742
 10
28.16747162376431
 20
-4.327902801835736
 10
28.11974043615626
 20
-4.318613590136541
 10
28.11974043615626
 20
-4.318613590136541
 10
28.11974043617612
 20
-3.876708038649995
 10
28.11974043617612
 20
-3.876708038649995
 10
28.11974043617612
 20
-3.876708038649995
 10
28.6306979421439
 20
-3.876708038672935
 10
28.6306979421439
 20
-3.876708038672935
 10
28.63520098033556
 20
-3.939109704254734
 10
28.63375648163487
 20
-4.001093448558056
 10
28.61731428870709
 20
-4.057302588911044
 97
        0
 97
        0
 75
     2
 76
     1
 98
        0
  0
ENDBLK
  5
A8
330
A5
100
AcDbEntity
  8
0
100
AcDbBlockEnd
  0
BLOCK
  5
BB
330
B9
100
AcDbEntity
  8
0
100
AcDbBlockBegin
  2
block 4
 70
     0
 10
0.0
 20
0.0
 30
0.0
  3
block 4
  1

  0
SPLINE
  5
BD
330
B9
100
AcDbEntity
  8
Layer 1
 62
     1
420
 16711680
370
    35
100
AcDbSpline
210
0.0
220
0.0
230
1.0
 70
    11
 71
     3
 72
   278
 73
   274
 74
     0
 42
0.0000000001
 43
0.0000000001
 12
1.0
 22
0.0
 32
0.0
 13
1.0
 23
0.0
 33
0.0
 40
0.0
 40
0.0
 40
0.0
 40
0.0
 40
1.0
 40
1.0
 40
1.0
 40
2.0
 40
2.0
 40
2.0
 40
3.0
 40
3.0
 40
3.0
 40
4.0
 40
4.0
 40
4.0
 40
5.0
 40
5.0
 40
5.0
 40
6.0
 40
6.0
 40
6.0
 40
7.0
 40
7.0
 40
7.0
 40
8.0
 40
8.0
 40
8.0
 40
9.0
 40
9.0
 40
9.0
 40
10.0
 40
10.0
 40
10.0
 40
11.0
 40
11.0
 40
11.0
 40
12.0
 40
12.0
 40
12.0
 40
13.0
 40
13.0
 40
13.0
 40
14.0
 40
14.0
 40
14.0
 40
15.0
 40
15.0
 40
15.0
 40
16.0
 40
16.0
 40
16.0
 40
17.0
 40
17.0
 40
17.0
 40
18.0
 40
18.0
 40
18.0
 40
19.0
 40
19.0
 40
19.0
 40
20.0
 40
20.0
 40
20.0
 40
21.0
 40
21.0
 40
21.0
 40
22.0
 40
22.0
 40
22.0
 40
23.0
 40
23.0
 40
23.0
 40
24.0
 40
24.0
 40
24.0
 40
25.0
 40
25.0
 40
25.0
 40
26.0
 40
26.0
 40
26.0
 40
27.0
 40
27.0
 40
27.0
 40
28.0
 40
28.0
 40
28.0
 40
29.0
 40
29.0
 40
29.0
 40
30.0
 40
30.0
 40
30.0
 40
31.0
 40
31.0
 40
31.0
 40
32.0
 40
32.0
 40
32.0
 40
33.0
 40
33.0
 40
33.0
 40
34.0
 40
34.0
 40
34.0
 40
35.0
 40
35.0
 40
35.0
 40
36.0
 40
36.0
 40
36.0
 40
37.0
 40
37.0
 40
37.0
 40
38.0
 40
38.0
 40
38.0
 40
39.0
 40
39.0
 40
39.0
 40
40.0
 40
40.0
 40
40.0
 40
41.0
 40
41.0
 40
41.0
 40
42.0
 40
42.0
 40
42.0
 40
43.0
 40
43.0
 40
43.0
 40
44.0
 40
44.0
 40
44.0
 40
45.0
 40
45.0
 40
45.0
 40
46.0
 40
46.0
 40
46.0
 40
47.0
 40
47.0
 40
47.0
 40
48.0
 40
48.0
 40
48.0
 40
49.0
 40
49.0
 40
49.0
 40
50.0
 40
50.0
 40
50.0
 40
51.0
 40
51.0
 40
51.0
 40
52.0
 40
52.0
 40
52.0
 40
53.0
 40
53.0
 40
53.0
 40
54.0
 40
54.0
 40
54.0
 40
55.0
 40
55.0
 40
55.0
 40
56.0
 40
56.0
 40
56.0
 40
57.0
 40
57.0
 40
57.0
 40
58.0
 40
58.0
 40
58.0
 40
59.0
 40
59.0
 40
59.0
 40
60.0
 40
60.0
 40
60.0
 40
61.0
 40
61.0
 40
61.0
 40
62.0
 40
62.0
 40
62.0
 40
63.0
 40
63.0
 40
63.0
 40
64.0
 40
64.0
 40
64.0
 40
65.0
 40
65.0
 40
65.0
 40
66.0
 40
66.0
 40
66.0
 40
67.0
 40
67.0
 40
67.0
 40
68.0
 40
68.0
 40
68.0
 40
69.0
 40
69.0
 40
69.0
 40
70.0
 40
70.0
 40
70.0
 40
71.0
 40
71.0
 40
71.0
 40
72.0
 40
72.0
 40
72.0
 40
73.0
 40
73.0
 40
73.0
 40
74.0
 40
74.0
 40
74.0
 40
75.0
 40
75.0
 40
75.0
 40
76.0
 40
76.0
 40
76.0
 40
77.0
 40
77.0
 40
77.0
 40
78.0
 40
78.0
 40
78.0
 40
79.0
 40
79.0
 40
79.0
 40
80.0
 40
80.0
 40
80.0
 40
81.0
 40
81.0
 40
81.0
 40
82.0
 40
82.0
 40
82.0
 40
83.0
 40
83.0
 40
83.0
 40
84.0
 40
84.0
 40
84.0
 40
85.0
 40
85.0
 40
85.0
 40
86.0
 40
86.0
 40
86.0
 40
87.0
 40
87.0
 40
87.0
 40
88.0
 40
88.0
 40
88.0
 40
89.0
 40
89.0
 40
89.0
 40
90.0
 40
90.0
 40
90.0
 40
91.0
 40
91.0
 40
91.0
 40
91.0
 10
29.11004638671875
 20
-3.620348612467448
 30
0.0
 10
29.10780843098958
 20
-3.591329786512587
 30
0.0
 10
29.10551622178819
 20
-3.562294006347656
 30
0.0
 10
29.10335286458333
 20
-3.533255683051228
 30
0.0
 10
29.10909016927083
 20
-3.49093034532335
 30
0.0
 10
29.11837768554695
 20
-3.4421632554796
 30
0.0
 10
29.10849338107639
 20
-3.358803643120672
 30
0.0
 10
29.07446967230903
 20
-3.071837531195746
 30
0.0
 10
29.39755249023445
 20
-2.315827263726128
 30
0.0
 10
29.71172417534722
 20
-2.3134002685547
 30
0.0
 10
29.72266981336805
 20
-2.313315497504353
 30
0.0
 10
29.74640570746528
 20
-2.315672980414496
 30
0.0
 10
29.74644639756944
 20
-2.316324022081163
 30
0.0
 10
29.79861111111111
 20
-2.305555555555555
 30
0.0
 10
29.93974812825513
 20
-2.334114922417547
 30
0.0
 10
30.0
 20
-2.388888888888889
 30
0.0
 10
30.09462144639749
 20
-2.474907769097222
 30
0.0
 10
30.2016115541811
 20
-2.595614963107639
 30
0.0
 10
30.27314814814819
 20
-2.763888888888889
 30
0.0
 10
30.34667177553527
 20
-2.93683115641276
 30
0.0
 10
30.43001980251736
 20
-3.144505818684908
 30
0.0
 10
30.43042670355903
 20
-3.323588053385417
 30
0.0
 10
30.43067423502612
 20
-3.432240804036458
 30
0.0
 10
30.43050130208333
 20
-3.541027492947061
 30
0.0
 10
30.43048095703125
 20
-3.659722222222222
 30
0.0
 10
30.43048095703125
 20
-3.659722222222222
 30
0.0
 10
31.45075141059028
 20
-3.659722222222222
 30
0.0
 10
31.45075141059028
 20
-3.659722222222222
 30
0.0
 10
31.46314832899305
 20
-3.640424092610677
 30
0.0
 10
31.46981133355042
 20
-3.608049180772569
 30
0.0
 10
31.47972954644097
 20
-3.554373847113728
 30
0.0
 10
31.55946858723958
 20
-3.122816297743055
 30
0.0
 10
31.54855346679695
 20
-2.687873840332031
 30
0.0
 10
31.53063625759556
 20
-2.252521091037339
 30
0.0
 10
31.51598442925347
 20
-1.896521674262153
 30
0.0
 10
31.4835205078125
 20
-1.545010036892361
 30
0.0
 10
31.29653591579861
 20
-1.228135002983941
 30
0.0
 10
31.28348456488723
 20
-1.206020779079861
 30
0.0
 10
31.27532958984375
 20
-1.181024339463976
 30
0.0
 10
31.26691691080737
 20
-1.156181335449219
 30
0.0
 10
31.27117241753472
 20
-1.151786804199219
 30
0.0
 10
31.27547200520833
 20
-1.147427029079861
 30
0.0
 10
31.27976142035598
 20
-1.143058776855469
 30
0.0
 10
31.27976142035598
 20
-1.143058776855469
 30
0.0
 10
31.27976820204
 20
-1.143063015407986
 30
0.0
 10
31.27976820204
 20
-1.143063015407986
 30
0.0
 10
31.28450520833333
 20
-1.138139512803819
 30
0.0
 10
31.28935072157125
 20
-1.133293999565972
 30
0.0
 10
31.29413180881084
 20
-1.128402709960938
 30
0.0
 10
31.32781304253472
 20
-1.094534979926215
 30
0.0
 10
31.36215209960945
 20
-1.06115976969401
 30
0.0
 10
31.39552815755208
 20
-1.027063157823351
 30
0.0
 10
31.44756401909722
 20
-0.9750823974609375
 30
0.0
 10
31.49833848741319
 20
-0.9221555921766492
 30
0.0
 10
31.5420667860243
 20
-0.863949245876736
 30
0.0
 10
31.56504991319444
 20
-0.8333553738064235
 30
0.0
 10
31.58449639214417
 20
-0.8022452460394964
 30
0.0
 10
31.60768636067708
 20
-0.7734485202365451
 30
0.0
 10
31.61573621961805
 20
-0.766323513454861
 30
0.0
 10
31.62418958875875
 20
-0.7594011094835069
 30
0.0
 10
31.63367716471362
 20
-0.7529856363932291
 30
0.0
 10
31.6492919921875
 20
-0.7424265543619791
 30
0.0
 10
31.66208902994791
 20
-0.7276975843641492
 30
0.0
 10
31.67360093858514
 20
-0.7110697428385416
 30
0.0
 10
31.67376369900181
 20
-0.7109595404730903
 30
0.0
 10
31.67389594184028
 20
-0.7108349270290798
 30
0.0
 10
31.67405870225694
 20
-0.7107247246636285
 30
0.0
 10
31.71865166558167
 20
-0.6806131998697916
 30
0.0
 10
31.74162801106778
 20
-0.6185819837782117
 30
0.0
 10
31.7742445203993
 20
-0.5707821316189235
 30
0.0
 10
31.72656928168403
 20
-0.5521664089626735
 30
0.0
 10
31.6788330078125
 20
-0.5337117513020833
 30
0.0
 10
31.63128323025181
 20
-0.5147925482855903
 30
0.0
 10
31.62234836154514
 20
-0.5112380981445312
 30
0.0
 10
31.61414930555555
 20
-0.5058305528428819
 30
0.0
 10
31.62324015299487
 20
-0.5106786092122395
 30
0.0
 10
31.59872436523445
 20
-0.455979241265191
 30
0.0
 10
31.57453070746528
 20
-0.3816757202148438
 30
0.0
 10
31.56477525499139
 20
-0.3835203382703993
 30
0.0
 10
31.49852159288194
 20
-0.3960478040907118
 30
0.0
 10
31.43530951605903
 20
-0.4246334499782986
 30
0.0
 10
31.35013156467014
 20
-0.4556808471679688
 30
0.0
 10
31.2831556532118
 20
-0.4240171644422743
 30
0.0
 10
31.20063273111987
 20
-0.4448572794596354
 30
0.0
 10
31.1781751844618
 20
-0.5196863810221354
 30
0.0
 10
31.17498101128472
 20
-0.5303327772352431
 30
0.0
 10
31.17312961154514
 20
-0.5415022108289931
 30
0.0
 10
31.17235310872403
 20
-0.5529344346788194
 30
0.0
 10
31.16928778754348
 20
-0.5588514539930555
 30
0.0
 10
31.16654459635416
 20
-0.5650999281141492
 30
0.0
 10
31.16448296440972
 20
-0.5719782511393229
 30
0.0
 10
31.14169989691848
 20
-0.6479949951171875
 30
0.0
 10
31.18680487738723
 20
-0.7511079576280382
 30
0.0
 10
31.25600179036458
 20
-0.7915284898546007
 30
0.0
 10
31.27941555447056
 20
-0.805204603407118
 30
0.0
 10
31.31598578559028
 20
-0.8343480428059895
 30
0.0
 10
31.31265597873264
 20
-0.8483759562174479
 30
0.0
 10
31.3094007703993
 20
-0.862087673611111
 30
0.0
 10
31.3043212890625
 20
-0.8763682047526041
 30
0.0
 10
31.29773288302959
 20
-0.8900485568576388
 30
0.0
 10
31.29044596354166
 20
-0.8995446099175347
 30
0.0
 10
31.28245035807291
 20
-0.908154805501302
 30
0.0
 10
31.27367146809903
 20
-0.9150712754991319
 30
0.0
 10
31.23933919270833
 20
-0.9421200222439235
 30
0.0
 10
31.19071112738723
 20
-0.951076931423611
 30
0.0
 10
31.15686713324653
 20
-0.9644970364040798
 30
0.0
 10
31.02069769965278
 20
-0.7967012193467882
 30
0.0
 10
30.86903211805555
 20
-0.6710391574435763
 30
0.0
 10
30.70610215928819
 20
-0.5761939154730903
 30
0.0
 10
30.54988267686639
 20
-0.4802322387695312
 30
0.0
 10
30.38162570529514
 20
-0.4087337917751736
 30
0.0
 10
30.20340983072916
 20
-0.3583475748697916
 30
0.0
 10
29.93527899848098
 20
-0.2825393676757812
 30
0.0
 10
29.6627943250868
 20
-0.2532162136501736
 30
0.0
 10
29.38628133138028
 20
-0.2762798733181424
 30
0.0
 10
29.11574300130208
 20
-0.2847612169053819
 30
0.0
 10
28.76632351345486
 20
-0.4106852213541666
 30
0.0
 10
28.43344455295139
 20
-0.6401841905381944
 30
0.0
 10
28.17799886067708
 20
-0.816300286187066
 30
0.0
 10
27.96440294053819
 20
-1.106291029188368
 30
0.0
 10
27.82443406846791
 20
-1.397119310167101
 30
0.0
 10
27.80023193359375
 20
-1.444953918457031
 30
0.0
 10
27.77910698784722
 20
-1.491093105740017
 30
0.0
 10
27.76286824544278
 20
-1.532085842556436
 30
0.0
 10
27.76073201497403
 20
-1.535241021050347
 30
0.0
 10
27.7585754394532
 20
-1.538572523329006
 30
0.0
 10
27.75642564561639
 20
-1.541860792371962
 30
0.0
 10
27.32991706000431
 20
-2.548376295301649
 30
0.0
 10
26.95979817708333
 20
-3.174508836534288
 30
0.0
 10
26.49180603027346
 20
-2.818734910753038
 30
0.0
 10
26.49303860134556
 20
-2.818060133192274
 30
0.0
 10
26.45233493381084
 20
-2.776405334472656
 30
0.0
 10
26.42709689670139
 20
-2.741648356119792
 30
0.0
 10
26.39520941840278
 20
-2.694080776638455
 30
0.0
 10
26.36032104492195
 20
-2.636711968315972
 30
0.0
 10
26.32350158691403
 20
-2.572898864746094
 30
0.0
 10
26.27072482638889
 20
-2.477710300021714
 30
0.0
 10
26.21770392523874
 20
-2.373736911349839
 30
0.0
 10
26.16843329535598
 20
-2.291734483506944
 30
0.0
 10
26.15767754448792
 20
-2.271676805284288
 30
0.0
 10
26.14690483940972
 20
-2.251548767089844
 30
0.0
 10
26.13611518012153
 20
-2.231332567003038
 30
0.0
 10
26.07829623752167
 20
-2.013467576768663
 30
0.0
 10
26.01835801866319
 20
-1.775206671820746
 30
0.0
 10
25.96194118923611
 20
-1.559863620334214
 30
0.0
 10
25.95775689019097
 20
-1.543891059027778
 30
0.0
 10
26.00321112738723
 20
-1.451455858018663
 30
0.0
 10
26.00124952528209
 20
-1.380009969075521
 30
0.0
 10
26.00770399305555
 20
-1.354625278049045
 30
0.0
 10
26.01254272460945
 20
-1.335659450954861
 30
0.0
 10
26.01268683539499
 20
-1.335259331597222
 30
0.0
 10
26.05672878689236
 20
-1.213024563259548
 30
0.0
 10
26.02216593424487
 20
-1.09395260281033
 30
0.0
 10
26.00700717502167
 20
-0.9743109809027777
 30
0.0
 10
25.99454583062068
 20
-0.8759528266059027
 30
0.0
 10
25.88759697808167
 20
-0.7387813991970485
 30
0.0
 10
25.81351894802515
 20
-0.7363832261827257
 30
0.0
 10
25.69966973198792
 20
-0.732696533203125
 30
0.0
 10
25.6519775390625
 20
-0.8251681857638888
 30
0.0
 10
25.59853108723958
 20
-0.9049301147460938
 30
0.0
 10
25.59543524848098
 20
-0.9095501369900173
 30
0.0
 10
25.59429931640625
 20
-0.9154349433051214
 30
0.0
 10
25.59165276421443
 20
-0.9204126993815104
 30
0.0
 10
25.52608913845486
 20
-1.043686760796441
 30
0.0
 10
25.51071166992195
 20
-1.176424662272135
 30
0.0
 10
25.51143391927083
 20
-1.312733120388455
 30
0.0
 10
25.44680447048611
 20
-1.33758799235026
 30
0.0
 10
25.37976752387153
 20
-1.357681274414062
 30
0.0
 10
25.31005859375
 20
-1.38104502360026
 30
0.0
 10
25.27508205837681
 20
-1.260953267415365
 30
0.0
 10
25.19708930121528
 20
-1.151881747775608
 30
0.0
 10
25.31041124131944
 20
-1.02923329671224
 30
0.0
 10
25.364501953125
 20
-0.9706938001844617
 30
0.0
 10
25.32988484700528
 20
-0.8915786743164062
 30
0.0
 10
25.28522406684028
 20
-0.8344658745659722
 30
0.0
 10
25.24032762315541
 20
-0.777054680718316
 30
0.0
 10
25.1748606363932
 20
-0.7702891031901041
 30
0.0
 10
25.10727606879348
 20
-0.7951863606770833
 30
0.0
 10
25.04350450303819
 20
-0.8186764187282985
 30
0.0
 10
24.98408677842889
 20
-0.8531383938259548
 30
0.0
 10
24.98246595594625
 20
-0.9280921088324652
 30
0.0
 10
24.98063490125875
 20
-1.012789408365885
 30
0.0
 10
24.98620944552959
 20
-1.100156995985243
 30
0.0
 10
25.08468627929695
 20
-1.141067504882812
 30
0.0
 10
25.09936184353306
 20
-1.147165086534288
 30
0.0
 10
25.11392550998264
 20
-1.165863884819878
 30
0.0
 10
25.11856418185764
 20
-1.18166266547309
 30
0.0
 10
25.13851589626736
 20
-1.249598185221354
 30
0.0
 10
25.15805901421443
 20
-1.318039788140191
 30
0.0
 10
25.17038642035598
 20
-1.387602064344618
 30
0.0
 10
25.17427232530389
 20
-1.409521314832899
 30
0.0
 10
25.16231791178388
 20
-1.446709526909722
 30
0.0
 10
25.14528401692708
 20
-1.457567850748698
 30
0.0
 10
25.09131537543403
 20
-1.491969638400608
 30
0.0
 10
25.03151787651917
 20
-1.517230563693589
 30
0.0
 10
24.96790228949653
 20
-1.549065483940972
 30
0.0
 10
24.93805948893237
 20
-1.447692023383246
 30
0.0
 10
24.87789577907986
 20
-1.366251627604167
 30
0.0
 10
24.94233025444876
 20
-1.255782233344184
 30
0.0
 10
24.99070570204
 20
-1.172843933105469
 30
0.0
 10
24.90777248806431
 20
-1.054253472222222
 30
0.0
 10
24.81699117024737
 20
-1.048274570041233
 30
0.0
 10
24.72565714518237
 20
-1.04225836859809
 30
0.0
 10
24.62111918131513
 20
-1.110388014051649
 30
0.0
 10
24.60680813259556
 20
-1.185253567165798
 30
0.0
 10
24.58828396267361
 20
-1.28216807047526
 30
0.0
 10
24.63935173882376
 20
-1.364512973361545
 30
0.0
 10
24.73518880208333
 20
-1.408060709635417
 30
0.0
 10
24.7628479003907
 20
-1.420628865559908
 30
0.0
 10
24.79244656032986
 20
-1.450948927137587
 30
0.0
 10
24.80127800835501
 20
-1.479316711425781
 30
0.0
 10
24.85427178276917
 20
-1.649572584364149
 30
0.0
 10
24.85260179307723
 20
-1.650545756022135
 30
0.0
 10
24.70920138888889
 20
-1.756329854329427
 30
0.0
 10
24.67287190755208
 20
-1.783128526475694
 30
0.0
 10
24.63418240017361
 20
-1.806722005208333
 30
0.0
 10
24.59662543402778
 20
-1.831859164767795
 30
0.0
 10
24.5052676730686
 20
-1.893003675672756
 30
0.0
 10
24.41118028428819
 20
-1.950603908962686
 30
0.0
 10
24.32425096299916
 20
-2.017505221896714
 30
0.0
 10
24.29756164550779
 20
-2.03804439968533
 30
0.0
 10
24.27149115668403
 20
-2.088095770941853
 30
0.0
 10
24.27774726019973
 20
-2.117752922905816
 30
0.0
 10
24.30441623263889
 20
-2.244168599446614
 30
0.0
 10
24.32581244574653
 20
-2.376596238878038
 30
0.0
 10
24.38187662760416
 20
-2.490748935275608
 30
0.0
 10
24.46367730034722
 20
-2.657306247287339
 30
0.0
 10
24.66439480251736
 20
-2.722018771701389
 30
0.0
 10
24.87171257866751
 20
-2.67810228135852
 30
0.0
 10
24.94932047526041
 20
-2.66166263156467
 30
0.0
 10
25.38697306315112
 20
-2.584223429361991
 30
0.0
 10
25.46194118923611
 20
-2.559863620334214
 30
0.0
 10
25.51226128472222
 20
-2.543512980143241
 30
0.0
 10
25.64536539713541
 20
-2.657402038574219
 30
0.0
 10
25.71173095703125
 20
-2.727355109320746
 30
0.0
 10
26.05246988932291
 20
-3.329333835177964
 30
0.0
 10
26.48671129014764
 20
-3.65469190809463
 30
0.0
 10
26.89964972601999
 20
-3.649305555555555
 30
0.0
 10
26.89967176649305
 20
-3.649602254231783
 30
0.0
 10
26.8996768527561
 20
-3.649008856879353
 30
0.0
 10
26.89970058865015
 20
-3.649305555555555
 30
0.0
 10
26.944091796875
 20
-3.650048149956597
 30
0.0
 10
26.99410332573792
 20
-3.645046657986111
 30
0.0
 10
27.04753112792971
 20
-3.634654574924045
 30
0.0
 10
27.16662428114152
 20
-3.614174736870672
 30
0.0
 10
27.28315056694876
 20
-3.571066962348103
 30
0.0
 10
27.39447021484375
 20
-3.506676567925347
 30
0.0
 10
27.57654147677959
 20
-3.408209058973524
 30
0.0
 10
27.75250244140625
 20
-3.260002983940972
 30
0.0
 10
27.8621826171875
 20
-3.065517001681858
 30
0.0
 10
27.8621826171875
 20
-3.065517001681858
 30
0.0
 10
27.89236111111111
 20
-3.017361111111111
 30
0.0
 10
27.89236111111111
 20
-3.017361111111111
 30
0.0
 10
28.04257202148445
 20
-2.805693732367621
 30
0.0
 10
28.19635687934028
 20
-2.448147243923611
 30
0.0
 10
28.28138563368055
 20
-2.152456495496962
 30
0.0
 10
28.27422078450528
 20
-2.461739434136297
 30
0.0
 10
28.17508951822916
 20
-2.884560479058172
 30
0.0
 10
28.14878336588541
 20
-3.193457709418403
 30
0.0
 10
28.14482964409722
 20
-3.219412909613728
 30
0.0
 10
28.14266289605042
 20
-3.240769280327691
 30
0.0
 10
28.14362589518237
 20
-3.253946092393663
 30
0.0
 10
28.13337877061639
 20
-3.374056498209635
 30
0.0
 10
28.12316555447056
 20
-3.494156731499566
 30
0.0
 10
28.11400180392792
 20
-3.614261203342014
 30
0.0
 10
28.1127014160157
 20
-3.631310356987847
 30
0.0
 10
28.11233181423611
 20
-3.646332634819878
 30
0.0
 10
28.11327446831597
 20
-3.659722222222222
 30
0.0
 10
28.11327446831597
 20
-3.659722222222222
 30
0.0
 10
29.1126234266493
 20
-3.659722222222222
 30
0.0
 10
29.1126234266493
 20
-3.659722222222222
 30
0.0
 10
29.11186387803819
 20
-3.646441141764323
 30
0.0
 10
29.11104329427083
 20
-3.633328755696614
 30
0.0
 10
29.11004638671875
 20
-3.620348612467448
 30
0.0
  0
POLYLINE
  5
BE
330
B9
100
AcDbEntity
  8
Layer 1
 62
     1
420
 16711680
370
    35
100
AcDb2dPolyline
 66
     1
 10
0.0
 20
0.0
 30
0.0
  0
VERTEX
  5
BF
330
BE
100
AcDbEntity
  8
Layer 1
 62
     1
420
 16711680
370
    35
100
AcDbVertex
100
AcDb2dVertex
 10
30.83682590060764
 20
-0.8944498697916666
 30
0.0
  0
VERTEX
  5
C0
330
BE
100
AcDbEntity
  8
Layer 1
 62
     1
420
 16711680
370
    35
100
AcDbVertex
100
AcDb2dVertex
 10
31.05682373046875
 20
-0.8944498697916666
 30
0.0
  0
VERTEX
  5
C1
330
BE
100
AcDbEntity
  8
Layer 1
 62
     1
420
 16711680
370
    35
100
AcDbVertex
100
AcDb2dVertex
 10
31.05682373046875
 20
-1.369450039333767
 30
0.0
  0
VERTEX
  5
C2
330
BE
100
AcDbEntity
  8
Layer 1
 62
     1
420
 16711680
370
    35
100
AcDbVertex
100
AcDb2dVertex
 10
30.83682590060764
 20
-1.369450039333767
 30
0.0
  0
VERTEX
  5
C3
330
BE
100
AcDbEntity
  8
Layer 1
 62
     1
420
 16711680
370
    35
100
AcDbVertex
100
AcDb2dVertex
 10
30.83682590060764
 20
-0.8944498697916666
 30
0.0
  0
SEQEND
  5
C4
330
BE
100
AcDbEntity
  8
Layer 1
 62
     1
420
 16711680
370
    35
  0
POLYLINE
  5
C5
330
B9
100
AcDbEntity
  8
Layer 1
 62
     1
420
 16711680
370
    35
100
AcDb2dPolyline
 66
     1
 10
0.0
 20
0.0
 30
0.0
  0
VERTEX
  5
C6
330
C5
100
AcDbEntity
  8
Layer 1
 62
     1
420
 16711680
370
    35
100
AcDbVertex
100
AcDb2dVertex
 10
30.83682590060764
 20
-2.670148213704427
 30
0.0
  0
VERTEX
  5
C7
330
C5
100
AcDbEntity
  8
Layer 1
 62
     1
420
 16711680
370
    35
100
AcDbVertex
100
AcDb2dVertex
 10
31.05682373046875
 20
-2.670148213704427
 30
0.0
  0
VERTEX
  5
C8
330
C5
100
AcDbEntity
  8
Layer 1
 62
     1
420
 16711680
370
    35
100
AcDbVertex
100
AcDb2dVertex
 10
31.05682373046875
 20
-3.145148383246528
 30
0.0
  0
VERTEX
  5
C9
330
C5
100
AcDbEntity
  8
Layer 1
 62
     1
420
 16711680
370
    35
100
AcDbVertex
100
AcDb2dVertex
 10
30.83682590060764
 20
-3.145148383246528
 30
0.0
  0
VERTEX
  5
CA
330
C5
100
AcDbEntity
  8
Layer 1
 62
     1
420
 16711680
370
    35
100
AcDbVertex
100
AcDb2dVertex
 10
30.83682590060764
 20
-2.670148213704427
 30
0.0
  0
SEQEND
  5
CB
330
C5
100
AcDbEntity
  8
Layer 1
 62
     1
420
 16711680
370
    35
  0
POLYLINE
  5
CC
330
B9
100
AcDbEntity
  8
Layer 1
 62
     1
420
 16711680
370
    35
100
AcDb2dPolyline
 66
     1
 10
0.0
 20
0.0
 30
0.0
  0
VERTEX
  5
CD
330
CC
100
AcDbEntity
  8
Layer 1
 62
     1
420
 16711680
370
    35
100
AcDbVertex
100
AcDb2dVertex
 10
30.3882887098525
 20
-2.481625874837239
 30
0.0
  0
VERTEX
  5
CE
330
CC
100
AcDbEntity
  8
Layer 1
 62
     1
420
 16711680
370
    35
100
AcDbVertex
100
AcDb2dVertex
 10
30.56345282660598
 20
-2.747904459635417
 30
0.0
  0
VERTEX
  5
CF
330
CC
100
AcDbEntity
  8
Layer 1
 62
     1
420
 16711680
370
    35
100
AcDbVertex
100
AcDb2dVertex
 10
30.38383314344625
 20
-2.866063435872408
 30
0.0
  0
VERTEX
  5
D0
330
CC
100
AcDbEntity
  8
Layer 1
 62
     1
420
 16711680
370
    35
100
AcDbVertex
100
AcDb2dVertex
 10
30.20866563585069
 20
-2.599784851074219
 30
0.0
  0
VERTEX
  5
D1
330
CC
100
AcDbEntity
  8
Layer 1
 62
     1
420
 16711680
370
    35
100
AcDbVertex
100
AcDb2dVertex
 10
30.3882887098525
 20
-2.481625874837239
 30
0.0
  0
SEQEND
  5
D2
330
CC
100
AcDbEntity
  8
Layer 1
 62
     1
420
 16711680
370
    35
  0
SPLINE
  5
D3
330
B9
100
AcDbEntity
  8
Layer 1
 62
     1
420
 16711680
370
    35
100
AcDbSpline
210
0.0
220
0.0
230
1.0
 70
    11
 71
     3
 72
    23
 73
    19
 74
     0
 42
0.0000000001
 43
0.0000000001
 12
1.0
 22
0.0
 32
0.0
 13
1.0
 23
0.0
 33
0.0
 40
0.0
 40
0.0
 40
0.0
 40
0.0
 40
1.0
 40
1.0
 40
1.0
 40
2.0
 40
2.0
 40
2.0
 40
3.0
 40
3.0
 40
3.0
 40
4.0
 40
4.0
 40
4.0
 40
5.0
 40
5.0
 40
5.0
 40
6.0
 40
6.0
 40
6.0
 40
6.0
 10
25.04348246256513
 20
-2.020597669813381
 30
0.0
 10
25.02994113498264
 20
-2.023821512858073
 30
0.0
 10
25.01678127712681
 20
-2.024937947591158
 30
0.0
 10
25.00422159830737
 20
-2.024318271213108
 30
0.0
 10
24.94923570421014
 20
-2.027440388997408
 30
0.0
 10
24.90377129448792
 20
-1.996544731987847
 30
0.0
 10
24.89039103190112
 20
-1.943951924641927
 30
0.0
 10
24.87265353732639
 20
-1.874243842230903
 30
0.0
 10
24.91358269585501
 20
-1.811406453450533
 30
0.0
 10
24.98852199978306
 20
-1.793288336859809
 30
0.0
 10
25.00890774197056
 20
-1.788359747992621
 30
0.0
 10
25.02780999077693
 20
-1.786349826388889
 30
0.0
 10
25.04495069715709
 20
-1.787113613552517
 30
0.0
 10
25.10408020019528
 20
-1.784797668457031
 30
0.0
 10
25.1450941297743
 20
-1.812665303548177
 30
0.0
 10
25.1580335828993
 20
-1.86613294813368
 30
0.0
 10
25.17275153266056
 20
-1.92696041531033
 30
0.0
 10
25.11613972981778
 20
-2.003299289279514
 30
0.0
 10
25.04348246256513
 20
-2.020597669813381
 30
0.0
  0
POLYLINE
  5
D4
330
B9
100
AcDbEntity
  8
Layer 1
 62
     1
420
 16711680
370
    35
100
AcDb2dPolyline
 66
     1
 10
0.0
 20
0.0
 30
0.0
  0
VERTEX
  5
D5
330
D4
100
AcDbEntity
  8
Layer 1
 62
     1
420
 16711680
370
    35
100
AcDbVertex
100
AcDb2dVertex
 10
28.61331854926223
 20
-3.145148383246528
 30
0.0
  0
VERTEX
  5
D6
330
D4
100
AcDbEntity
  8
Layer 1
 62
     1
420
 16711680
370
    35
100
AcDbVertex
100
AcDb2dVertex
 10
28.39331902398001
 20
-3.145148383246528
 30
0.0
  0
VERTEX
  5
D7
330
D4
100
AcDbEntity
  8
Layer 1
 62
     1
420
 16711680
370
    35
100
AcDbVertex
100
AcDb2dVertex
 10
28.39331902398001
 20
-2.670148213704427
 30
0.0
  0
VERTEX
  5
D8
330
D4
100
AcDbEntity
  8
Layer 1
 62
     1
420
 16711680
370
    35
100
AcDbVertex
100
AcDb2dVertex
 10
28.61331854926223
 20
-2.670148213704427
 30
0.0
  0
VERTEX
  5
D9
330
D4
100
AcDbEntity
  8
Layer 1
 62
     1
420
 16711680
370
    35
100
AcDbVertex
100
AcDb2dVertex
 10
28.61331854926223
 20
-3.145148383246528
 30
0.0
  0
SEQEND
  5
DA
330
D4
100
AcDbEntity
  8
Layer 1
 62
     1
420
 16711680
370
    35
  0
POLYLINE
  5
DB
330
B9
100
AcDbEntity
  8
Layer 1
 62
     1
420
 16711680
370
    35
100
AcDb2dPolyline
 66
     1
 10
0.0
 20
0.0
 30
0.0
  0
VERTEX
  5
DC
330
DB
100
AcDbEntity
  8
Layer 1
 62
     1
420
 16711680
370
    35
100
AcDbVertex
100
AcDb2dVertex
 10
28.61331854926223
 20
-1.369450039333767
 30
0.0
  0
VERTEX
  5
DD
330
DB
100
AcDbEntity
  8
Layer 1
 62
     1
420
 16711680
370
    35
100
AcDbVertex
100
AcDb2dVertex
 10
28.39331902398001
 20
-1.369450039333767
 30
0.0
  0
VERTEX
  5
DE
330
DB
100
AcDbEntity
  8
Layer 1
 62
     1
420
 16711680
370
    35
100
AcDbVertex
100
AcDb2dVertex
 10
28.39331902398001
 20
-0.8944498697916666
 30
0.0
  0
VERTEX
  5
DF
330
DB
100
AcDbEntity
  8
Layer 1
 62
     1
420
 16711680
370
    35
100
AcDbVertex
100
AcDb2dVertex
 10
28.61331854926223
 20
-0.8944498697916666
 30
0.0
  0
VERTEX
  5
E0
330
DB
100
AcDbEntity
  8
Layer 1
 62
     1
420
 16711680
370
    35
100
AcDbVertex
100
AcDb2dVertex
 10
28.61331854926223
 20
-1.369450039333767
 30
0.0
  0
SEQEND
  5
E1
330
DB
100
AcDbEntity
  8
Layer 1
 62
     1
420
 16711680
370
    35
  0
POLYLINE
  5
E2
330
B9
100
AcDbEntity
  8
Layer 1
 62
     1
420
 16711680
370
    35
100
AcDb2dPolyline
 66
     1
 10
0.0
 20
0.0
 30
0.0
  0
VERTEX
  5
E3
330
E2
100
AcDbEntity
  8
Layer 1
 62
     1
420
 16711680
370
    35
100
AcDbVertex
100
AcDb2dVertex
 10
28.90758599175347
 20
-2.741646660698797
 30
0.0
  0
VERTEX
  5
E4
330
E2
100
AcDbEntity
  8
Layer 1
 62
     1
420
 16711680
370
    35
100
AcDbVertex
100
AcDb2dVertex
 10
29.09191216362847
 20
-2.481625874837239
 30
0.0
  0
VERTEX
  5
E5
330
E2
100
AcDbEntity
  8
Layer 1
 62
     1
420
 16711680
370
    35
100
AcDbVertex
100
AcDb2dVertex
 10
29.26731363932291
 20
-2.605964660644531
 30
0.0
  0
VERTEX
  5
E6
330
E2
100
AcDbEntity
  8
Layer 1
 62
     1
420
 16711680
370
    35
100
AcDbVertex
100
AcDb2dVertex
 10
29.08298407660598
 20
-2.865985446506089
 30
0.0
  0
VERTEX
  5
E7
330
E2
100
AcDbEntity
  8
Layer 1
 62
     1
420
 16711680
370
    35
100
AcDbVertex
100
AcDb2dVertex
 10
28.90758599175347
 20
-2.741646660698797
 30
0.0
  0
SEQEND
  5
E8
330
E2
100
AcDbEntity
  8
Layer 1
 62
     1
420
 16711680
370
    35
  0
SPLINE
  5
E9
330
B9
100
AcDbEntity
  8
Layer 1
 62
     1
420
 16711680
370
    35
100
AcDbSpline
210
0.0
220
0.0
230
1.0
 70
    11
 71
     3
 72
    23
 73
    19
 74
     0
 42
0.0000000001
 43
0.0000000001
 12
1.0
 22
0.0
 32
0.0
 13
1.0
 23
0.0
 33
0.0
 40
0.0
 40
0.0
 40
0.0
 40
0.0
 40
1.0
 40
1.0
 40
1.0
 40
2.0
 40
2.0
 40
2.0
 40
3.0
 40
3.0
 40
3.0
 40
4.0
 40
4.0
 40
4.0
 40
5.0
 40
5.0
 40
5.0
 40
6.0
 40
6.0
 40
6.0
 40
6.0
 10
25.04495069715709
 20
-1.787113613552517
 30
0.0
 10
25.02780999077693
 20
-1.786349826388889
 30
0.0
 10
25.00890774197056
 20
-1.788359747992621
 30
0.0
 10
24.98852199978306
 20
-1.793288336859809
 30
0.0
 10
24.91358269585501
 20
-1.811406453450533
 30
0.0
 10
24.87265353732639
 20
-1.874243842230903
 30
0.0
 10
24.89039103190112
 20
-1.943951924641927
 30
0.0
 10
24.90377129448792
 20
-1.996544731987847
 30
0.0
 10
24.94923570421014
 20
-2.027440388997408
 30
0.0
 10
25.00422159830737
 20
-2.024318271213108
 30
0.0
 10
25.01678127712681
 20
-2.024937947591158
 30
0.0
 10
25.02994113498264
 20
-2.023821512858073
 30
0.0
 10
25.04348246256513
 20
-2.020597669813381
 30
0.0
 10
25.11613972981778
 20
-2.003299289279514
 30
0.0
 10
25.17275153266056
 20
-1.92696041531033
 30
0.0
 10
25.1580335828993
 20
-1.86613294813368
 30
0.0
 10
25.1450941297743
 20
-1.812665303548177
 30
0.0
 10
25.10408020019528
 20
-1.784797668457031
 30
0.0
 10
25.04495069715709
 20
-1.787113613552517
 30
0.0
  0
POLYLINE
  5
EA
330
B9
100
AcDbEntity
  8
Layer 1
 62
     1
420
 16711680
370
    35
100
AcDb2dPolyline
 66
     1
 10
0.0
 20
0.0
 30
0.0
  0
VERTEX
  5
EB
330
EA
100
AcDbEntity
  8
Layer 1
 62
     1
420
 16711680
370
    35
100
AcDbVertex
100
AcDb2dVertex
 10
28.39331902398001
 20
-3.145148383246528
 30
0.0
  0
VERTEX
  5
EC
330
EA
100
AcDbEntity
  8
Layer 1
 62
     1
420
 16711680
370
    35
100
AcDbVertex
100
AcDb2dVertex
 10
28.61331854926223
 20
-3.145148383246528
 30
0.0
  0
VERTEX
  5
ED
330
EA
100
AcDbEntity
  8
Layer 1
 62
     1
420
 16711680
370
    35
100
AcDbVertex
100
AcDb2dVertex
 10
28.61331854926223
 20
-2.670148213704427
 30
0.0
  0
VERTEX
  5
EE
330
EA
100
AcDbEntity
  8
Layer 1
 62
     1
420
 16711680
370
    35
100
AcDbVertex
100
AcDb2dVertex
 10
28.39331902398001
 20
-2.670148213704427
 30
0.0
  0
VERTEX
  5
EF
330
EA
100
AcDbEntity
  8
Layer 1
 62
     1
420
 16711680
370
    35
100
AcDbVertex
100
AcDb2dVertex
 10
28.39331902398001
 20
-3.145148383246528
 30
0.0
  0
SEQEND
  5
F0
330
EA
100
AcDbEntity
  8
Layer 1
 62
     1
420
 16711680
370
    35
  0
POLYLINE
  5
F1
330
B9
100
AcDbEntity
  8
Layer 1
 62
     1
420
 16711680
370
    35
100
AcDb2dPolyline
 66
     1
 10
0.0
 20
0.0
 30
0.0
  0
VERTEX
  5
F2
330
F1
100
AcDbEntity
  8
Layer 1
 62
     1
420
 16711680
370
    35
100
AcDbVertex
100
AcDb2dVertex
 10
31.05682373046875
 20
-2.670148213704427
 30
0.0
  0
VERTEX
  5
F3
330
F1
100
AcDbEntity
  8
Layer 1
 62
     1
420
 16711680
370
    35
100
AcDbVertex
100
AcDb2dVertex
 10
30.83682590060764
 20
-2.670148213704427
 30
0.0
  0
VERTEX
  5
F4
330
F1
100
AcDbEntity
  8
Layer 1
 62
     1
420
 16711680
370
    35
100
AcDbVertex
100
AcDb2dVertex
 10
30.83682590060764
 20
-3.145148383246528
 30
0.0
  0
VERTEX
  5
F5
330
F1
100
AcDbEntity
  8
Layer 1
 62
     1
420
 16711680
370
    35
100
AcDbVertex
100
AcDb2dVertex
 10
31.05682373046875
 20
-3.145148383246528
 30
0.0
  0
VERTEX
  5
F6
330
F1
100
AcDbEntity
  8
Layer 1
 62
     1
420
 16711680
370
    35
100
AcDbVertex
100
AcDb2dVertex
 10
31.05682373046875
 20
-2.670148213704427
 30
0.0
  0
SEQEND
  5
F7
330
F1
100
AcDbEntity
  8
Layer 1
 62
     1
420
 16711680
370
    35
  0
POLYLINE
  5
F8
330
B9
100
AcDbEntity
  8
Layer 1
 62
     1
420
 16711680
370
    35
100
AcDb2dPolyline
 66
     1
 10
0.0
 20
0.0
 30
0.0
  0
VERTEX
  5
F9
330
F8
100
AcDbEntity
  8
Layer 1
 62
     1
420
 16711680
370
    35
100
AcDbVertex
100
AcDb2dVertex
 10
31.05682373046875
 20
-0.8944498697916666
 30
0.0
  0
VERTEX
  5
FA
330
F8
100
AcDbEntity
  8
Layer 1
 62
     1
420
 16711680
370
    35
100
AcDbVertex
100
AcDb2dVertex
 10
30.83682590060764
 20
-0.8944498697916666
 30
0.0
  0
VERTEX
  5
FB
330
F8
100
AcDbEntity
  8
Layer 1
 62
     1
420
 16711680
370
    35
100
AcDbVertex
100
AcDb2dVertex
 10
30.83682590060764
 20
-1.369450039333767
 30
0.0
  0
VERTEX
  5
FC
330
F8
100
AcDbEntity
  8
Layer 1
 62
     1
420
 16711680
370
    35
100
AcDbVertex
100
AcDb2dVertex
 10
31.05682373046875
 20
-1.369450039333767
 30
0.0
  0
VERTEX
  5
FD
330
F8
100
AcDbEntity
  8
Layer 1
 62
     1
420
 16711680
370
    35
100
AcDbVertex
100
AcDb2dVertex
 10
31.05682373046875
 20
-0.8944498697916666
 30
0.0
  0
SEQEND
  5
FE
330
F8
100
AcDbEntity
  8
Layer 1
 62
     1
420
 16711680
370
    35
  0
POLYLINE
  5
FF
330
B9
100
AcDbEntity
  8
Layer 1
 62
     1
420
 16711680
370
    35
100
AcDb2dPolyline
 66
     1
 10
0.0
 20
0.0
 30
0.0
  0
VERTEX
  5
100
330
FF
100
AcDbEntity
  8
Layer 1
 62
     1
420
 16711680
370
    35
100
AcDbVertex
100
AcDb2dVertex
 10
28.39331902398001
 20
-1.369450039333767
 30
0.0
  0
VERTEX
  5
101
330
FF
100
AcDbEntity
  8
Layer 1
 62
     1
420
 16711680
370
    35
100
AcDbVertex
100
AcDb2dVertex
 10
28.61331854926223
 20
-1.369450039333767
 30
0.0
  0
VERTEX
  5
102
330
FF
100
AcDbEntity
  8
Layer 1
 62
     1
420
 16711680
370
    35
100
AcDbVertex
100
AcDb2dVertex
 10
28.61331854926223
 20
-0.8944498697916666
 30
0.0
  0
VERTEX
  5
103
330
FF
100
AcDbEntity
  8
Layer 1
 62
     1
420
 16711680
370
    35
100
AcDbVertex
100
AcDb2dVertex
 10
28.39331902398001
 20
-0.8944498697916666
 30
0.0
  0
VERTEX
  5
104
330
FF
100
AcDbEntity
  8
Layer 1
 62
     1
420
 16711680
370
    35
100
AcDbVertex
100
AcDb2dVertex
 10
28.39331902398001
 20
-1.369450039333767
 30
0.0
  0
SEQEND
  5
105
330
FF
100
AcDbEntity
  8
Layer 1
 62
     1
420
 16711680
370
    35
  0
POLYLINE
  5
106
330
B9
100
AcDbEntity
  8
Layer 1
 62
     1
420
 16711680
370
    35
100
AcDb2dPolyline
 66
     1
 10
0.0
 20
0.0
 30
0.0
  0
VERTEX
  5
107
330
106
100
AcDbEntity
  8
Layer 1
 62
     1
420
 16711680
370
    35
100
AcDbVertex
100
AcDb2dVertex
 10
29.09191216362847
 20
-2.481625874837239
 30
0.0
  0
VERTEX
  5
108
330
106
100
AcDbEntity
  8
Layer 1
 62
     1
420
 16711680
370
    35
100
AcDbVertex
100
AcDb2dVertex
 10
28.90758599175347
 20
-2.741646660698797
 30
0.0
  0
VERTEX
  5
109
330
106
100
AcDbEntity
  8
Layer 1
 62
     1
420
 16711680
370
    35
100
AcDbVertex
100
AcDb2dVertex
 10
29.08298407660598
 20
-2.865985446506089
 30
0.0
  0
VERTEX
  5
10A
330
106
100
AcDbEntity
  8
Layer 1
 62
     1
420
 16711680
370
    35
100
AcDbVertex
100
AcDb2dVertex
 10
29.26731363932291
 20
-2.605964660644531
 30
0.0
  0
VERTEX
  5
10B
330
106
100
AcDbEntity
  8
Layer 1
 62
     1
420
 16711680
370
    35
100
AcDbVertex
100
AcDb2dVertex
 10
29.09191216362847
 20
-2.481625874837239
 30
0.0
  0
SEQEND
  5
10C
330
106
100
AcDbEntity
  8
Layer 1
 62
     1
420
 16711680
370
    35
  0
POLYLINE
  5
10D
330
B9
100
AcDbEntity
  8
Layer 1
 62
     1
420
 16711680
370
    35
100
AcDb2dPolyline
 66
     1
 10
0.0
 20
0.0
 30
0.0
  0
VERTEX
  5
10E
330
10D
100
AcDbEntity
  8
Layer 1
 62
     1
420
 16711680
370
    35
100
AcDbVertex
100
AcDb2dVertex
 10
30.56345282660598
 20
-2.747904459635417
 30
0.0
  0
VERTEX
  5
10F
330
10D
100
AcDbEntity
  8
Layer 1
 62
     1
420
 16711680
370
    35
100
AcDbVertex
100
AcDb2dVertex
 10
30.3882887098525
 20
-2.481625874837239
 30
0.0
  0
VERTEX
  5
110
330
10D
100
AcDbEntity
  8
Layer 1
 62
     1
420
 16711680
370
    35
100
AcDbVertex
100
AcDb2dVertex
 10
30.20866563585069
 20
-2.599784851074219
 30
0.0
  0
VERTEX
  5
111
330
10D
100
AcDbEntity
  8
Layer 1
 62
     1
420
 16711680
370
    35
100
AcDbVertex
100
AcDb2dVertex
 10
30.38383314344625
 20
-2.866063435872408
 30
0.0
  0
VERTEX
  5
112
330
10D
100
AcDbEntity
  8
Layer 1
 62
     1
420
 16711680
370
    35
100
AcDbVertex
100
AcDb2dVertex
 10
30.56345282660598
 20
-2.747904459635417
 30
0.0
  0
SEQEND
  5
113
330
10D
100
AcDbEntity
  8
Layer 1
 62
     1
420
 16711680
370
    35
  0
ENDBLK
  5
BC
330
B9
100
AcDbEntity
  8
0
100
AcDbBlockEnd
  0
BLOCK
  5
116
330
114
100
AcDbEntity
  8
0
100
AcDbBlockBegin
  2
block 5
 70
     0
 10
0.0
 20
0.0
 30
0.0
  3
block 5
  1

  0
SPLINE
  5
118
330
114
100
AcDbEntity
  8
Layer 1
 62
     1
420
 16711680
370
    35
100
AcDbSpline
210
0.0
220
0.0
230
1.0
 70
    11
 71
     3
 72
   278
 73
   274
 74
     0
 42
0.0000000001
 43
0.0000000001
 12
1.0
 22
0.0
 32
0.0
 13
1.0
 23
0.0
 33
0.0
 40
0.0
 40
0.0
 40
0.0
 40
0.0
 40
1.0
 40
1.0
 40
1.0
 40
2.0
 40
2.0
 40
2.0
 40
3.0
 40
3.0
 40
3.0
 40
4.0
 40
4.0
 40
4.0
 40
5.0
 40
5.0
 40
5.0
 40
6.0
 40
6.0
 40
6.0
 40
7.0
 40
7.0
 40
7.0
 40
8.0
 40
8.0
 40
8.0
 40
9.0
 40
9.0
 40
9.0
 40
10.0
 40
10.0
 40
10.0
 40
11.0
 40
11.0
 40
11.0
 40
12.0
 40
12.0
 40
12.0
 40
13.0
 40
13.0
 40
13.0
 40
14.0
 40
14.0
 40
14.0
 40
15.0
 40
15.0
 40
15.0
 40
16.0
 40
16.0
 40
16.0
 40
17.0
 40
17.0
 40
17.0
 40
18.0
 40
18.0
 40
18.0
 40
19.0
 40
19.0
 40
19.0
 40
20.0
 40
20.0
 40
20.0
 40
21.0
 40
21.0
 40
21.0
 40
22.0
 40
22.0
 40
22.0
 40
23.0
 40
23.0
 40
23.0
 40
24.0
 40
24.0
 40
24.0
 40
25.0
 40
25.0
 40
25.0
 40
26.0
 40
26.0
 40
26.0
 40
27.0
 40
27.0
 40
27.0
 40
28.0
 40
28.0
 40
28.0
 40
29.0
 40
29.0
 40
29.0
 40
30.0
 40
30.0
 40
30.0
 40
31.0
 40
31.0
 40
31.0
 40
32.0
 40
32.0
 40
32.0
 40
33.0
 40
33.0
 40
33.0
 40
34.0
 40
34.0
 40
34.0
 40
35.0
 40
35.0
 40
35.0
 40
36.0
 40
36.0
 40
36.0
 40
37.0
 40
37.0
 40
37.0
 40
38.0
 40
38.0
 40
38.0
 40
39.0
 40
39.0
 40
39.0
 40
40.0
 40
40.0
 40
40.0
 40
41.0
 40
41.0
 40
41.0
 40
42.0
 40
42.0
 40
42.0
 40
43.0
 40
43.0
 40
43.0
 40
44.0
 40
44.0
 40
44.0
 40
45.0
 40
45.0
 40
45.0
 40
46.0
 40
46.0
 40
46.0
 40
47.0
 40
47.0
 40
47.0
 40
48.0
 40
48.0
 40
48.0
 40
49.0
 40
49.0
 40
49.0
 40
50.0
 40
50.0
 40
50.0
 40
51.0
 40
51.0
 40
51.0
 40
52.0
 40
52.0
 40
52.0
 40
53.0
 40
53.0
 40
53.0
 40
54.0
 40
54.0
 40
54.0
 40
55.0
 40
55.0
 40
55.0
 40
56.0
 40
56.0
 40
56.0
 40
57.0
 40
57.0
 40
57.0
 40
58.0
 40
58.0
 40
58.0
 40
59.0
 40
59.0
 40
59.0
 40
60.0
 40
60.0
 40
60.0
 40
61.0
 40
61.0
 40
61.0
 40
62.0
 40
62.0
 40
62.0
 40
63.0
 40
63.0
 40
63.0
 40
64.0
 40
64.0
 40
64.0
 40
65.0
 40
65.0
 40
65.0
 40
66.0
 40
66.0
 40
66.0
 40
67.0
 40
67.0
 40
67.0
 40
68.0
 40
68.0
 40
68.0
 40
69.0
 40
69.0
 40
69.0
 40
70.0
 40
70.0
 40
70.0
 40
71.0
 40
71.0
 40
71.0
 40
72.0
 40
72.0
 40
72.0
 40
73.0
 40
73.0
 40
73.0
 40
74.0
 40
74.0
 40
74.0
 40
75.0
 40
75.0
 40
75.0
 40
76.0
 40
76.0
 40
76.0
 40
77.0
 40
77.0
 40
77.0
 40
78.0
 40
78.0
 40
78.0
 40
79.0
 40
79.0
 40
79.0
 40
80.0
 40
80.0
 40
80.0
 40
81.0
 40
81.0
 40
81.0
 40
82.0
 40
82.0
 40
82.0
 40
83.0
 40
83.0
 40
83.0
 40
84.0
 40
84.0
 40
84.0
 40
85.0
 40
85.0
 40
85.0
 40
86.0
 40
86.0
 40
86.0
 40
87.0
 40
87.0
 40
87.0
 40
88.0
 40
88.0
 40
88.0
 40
89.0
 40
89.0
 40
89.0
 40
90.0
 40
90.0
 40
90.0
 40
91.0
 40
91.0
 40
91.0
 40
91.0
 10
29.11387936575526
 20
-3.873317196680735
 30
0.0
 10
29.11387936575526
 20
-3.873317196680735
 30
0.0
 10
28.11453040742195
 20
-3.873317196635867
 30
0.0
 10
28.11453040742195
 20
-3.873317196635867
 30
0.0
 10
28.11358775334138
 20
-3.886706784038172
 30
0.0
 10
28.11395735512027
 20
-3.901729061870217
 30
0.0
 10
28.11525774303181
 20
-3.918778215516113
 30
0.0
 10
28.12442149356901
 20
-4.038882687358978
 30
0.0
 10
28.13463470970944
 20
-4.158982920649363
 30
0.0
 10
28.14488183427001
 20
-4.27909332646579
 30
0.0
 10
28.14391883513751
 20
-4.292270138531724
 30
0.0
 10
28.14608558318332
 20
-4.313626509245801
 30
0.0
 10
28.1500393049704
 20
-4.339581709441291
 30
0.0
 10
28.17634545730028
 20
-4.648478939802708
 30
0.0
 10
28.27547672355735
 20
-5.07129998472903
 30
0.0
 10
28.28264157271875
 20
-5.380582923368681
 30
0.0
 10
28.19761281839181
 20
-5.084892174938217
 30
0.0
 10
28.04382796055193
 20
-4.727345686487297
 30
0.0
 10
27.89361705018819
 20
-4.515678307737062
 30
0.0
 10
27.89361705018819
 20
-4.515678307737062
 30
0.0
 10
27.86343855626668
 20
-4.467522417164964
 30
0.0
 10
27.86343855626668
 20
-4.467522417164964
 30
0.0
 10
27.75375838049417
 20
-4.27303643490091
 30
0.0
 10
27.57779741587418
 20
-4.124830359860476
 30
0.0
 10
27.39572615394278
 20
-4.026362850900492
 30
0.0
 10
27.2844065060507
 20
-3.961972456472735
 30
0.0
 10
27.16788022024543
 20
-3.918864681944935
 30
0.0
 10
27.04878706703443
 20
-3.898384843886207
 30
0.0
 10
26.99535926484305
 20
-3.887992760821741
 30
0.0
 10
26.94534773598042
 20
-3.882991268849006
 30
0.0
 10
26.9009565277557
 20
-3.883733863248052
 30
0.0
 10
26.90093279186152
 20
-3.884030561924267
 30
0.0
 10
26.90092770559848
 20
-3.883437164571837
 30
0.0
 10
26.90090566512541
 20
-3.883733863248052
 30
0.0
 10
26.48796722925332
 20
-3.878347510690446
 30
0.0
 10
26.05372582841402
 20
-4.203705583587622
 30
0.0
 10
25.71298689609527
 20
-4.805684309429529
 30
0.0
 10
25.64662133619638
 20
-4.875637380173089
 30
0.0
 10
25.51351722377805
 20
-4.989526438598103
 30
0.0
 10
25.46319712829265
 20
-4.973175798404857
 30
0.0
 10
25.38822900220862
 20
-4.94881598937372
 30
0.0
 10
24.95057641432153
 20
-4.871376787151373
 30
0.0
 10
24.87296851772943
 20
-4.85493713735405
 30
0.0
 10
24.6656507415811
 20
-4.811020647001858
 30
0.0
 10
24.46493323940818
 20
-4.875733171406915
 30
0.0
 10
24.38313256665763
 20
-5.042290483414957
 30
0.0
 10
24.32706838479486
 20
-5.156443179810013
 30
0.0
 10
24.30567217168126
 20
-5.288870819240477
 30
0.0
 10
24.27900319923639
 20
-5.415286495780062
 30
0.0
 10
24.27274709571945
 20
-5.444943647743773
 30
0.0
 10
24.29881758454096
 20
-5.494995019001458
 30
0.0
 10
24.32550690203139
 20
-5.515534196791274
 30
0.0
 10
24.41243622331735
 20
-5.582435509729205
 30
0.0
 10
24.50652361209513
 20
-5.640035743023367
 30
0.0
 10
24.59788137305168
 20
-5.701180253932407
 30
0.0
 10
24.6354383391964
 20
-5.726317413493575
 30
0.0
 10
24.67412784657376
 20
-5.749910892227931
 30
0.0
 10
24.7104573279093
 20
-5.776709564375841
 30
0.0
 10
24.85385773209292
 20
-5.882493662689563
 30
0.0
 10
24.85552772178471
 20
-5.883466834347624
 30
0.0
 10
24.80253394736307
 20
-6.05372270728363
 30
0.0
 10
24.79370249933666
 20
-6.082090491571408
 30
0.0
 10
24.76410383939598
 20
-6.112410553147773
 30
0.0
 10
24.73644474108818
 20
-6.124978709071014
 30
0.0
 10
24.64060767782667
 20
-6.168526445340578
 30
0.0
 10
24.58953990167278
 20
-6.250871348224589
 30
0.0
 10
24.60806407159028
 20
-6.347785851534872
 30
0.0
 10
24.62237512030651
 20
-6.422651404649665
 30
0.0
 10
24.72691308417069
 20
-6.490781050107911
 30
0.0
 10
24.8182471092361
 20
-6.484764848668874
 30
0.0
 10
24.90902842705319
 20
-6.478785946491952
 30
0.0
 10
24.99196164103417
 20
-6.360195485612431
 30
0.0
 10
24.94358619344681
 20
-6.277257185371544
 30
0.0
 10
24.87915171808277
 20
-6.166787791108669
 30
0.0
 10
24.93931542793888
 20
-6.085347395332292
 30
0.0
 10
24.96915822850764
 20
-5.983973934775904
 30
0.0
 10
25.0327738155289
 20
-6.015808855026155
 30
0.0
 10
25.09257131444264
 20
-6.041069780321815
 30
0.0
 10
25.14653995593416
 20
-6.07547156797615
 30
0.0
 10
25.16357385079042
 20
-6.086329891815883
 30
0.0
 10
25.17552826430875
 20
-6.123518103893249
 30
0.0
 10
25.17164235935987
 20
-6.145437354381366
 30
0.0
 10
25.15931495321514
 20
-6.214999630585226
 30
0.0
 10
25.13977183526498
 20
-6.283441233503178
 30
0.0
 10
25.11982012085236
 20
-6.351376753250557
 30
0.0
 10
25.11518144897667
 20
-6.367175533903555
 30
0.0
 10
25.10061778252611
 20
-6.385874332188488
 30
0.0
 10
25.08594221828972
 20
-6.391971913839306
 30
0.0
 10
24.98746538452054
 20
-6.432882422732455
 30
0.0
 10
24.98189084024585
 20
-6.52025001035156
 30
0.0
 10
24.98372189492946
 20
-6.604947309885069
 30
0.0
 10
24.98534271740876
 20
-6.679901024891655
 30
0.0
 10
25.04476044201652
 20
-6.714362999991977
 30
0.0
 10
25.10853200777069
 20
-6.737853058046047
 30
0.0
 10
25.17611657536943
 20
-6.76275031553607
 30
0.0
 10
25.24158356213194
 20
-6.755984738010788
 30
0.0
 10
25.28648000581931
 20
-6.698573544165153
 30
0.0
 10
25.33114078598681
 20
-6.641460744416715
 30
0.0
 10
25.36575789211014
 20
-6.562345618550226
 30
0.0
 10
25.31166718030721
 20
-6.50380612202001
 30
0.0
 10
25.19834524020861
 20
-6.381157670951564
 30
0.0
 10
25.27633799737499
 20
-6.272086151315307
 30
0.0
 10
25.31131453275361
 20
-6.151994395131977
 30
0.0
 10
25.38102346287403
 20
-6.175358144321308
 30
0.0
 10
25.44806040948778
 20
-6.195451426388116
 30
0.0
 10
25.51268985827139
 20
-6.220306298352827
 30
0.0
 10
25.51196760891624
 20
-6.356614756469108
 30
0.0
 10
25.52734507744334
 20
-6.489352657945497
 30
0.0
 10
25.59290870319736
 20
-6.612626719363371
 30
0.0
 10
25.59555525538902
 20
-6.617604475439874
 30
0.0
 10
25.59669118746332
 20
-6.623489281755028
 30
0.0
 10
25.5997870262218
 20
-6.628109303999091
 30
0.0
 10
25.6532334780411
 20
-6.707871232983696
 30
0.0
 10
25.70092567096236
 20
-6.800342885546607
 30
0.0
 10
25.81477488699986
 20
-6.796656192572122
 30
0.0
 10
25.88885291705638
 20
-6.794258019561122
 30
0.0
 10
25.99580176960153
 20
-6.657086592157068
 30
0.0
 10
26.00826311400707
 20
-6.558728437860749
 30
0.0
 10
26.02342187323555
 20
-6.439086815953878
 30
0.0
 10
26.05798472588847
 20
-6.320014855506214
 30
0.0
 10
26.01394277439653
 20
-6.197780087166557
 30
0.0
 10
26.01379866361097
 20
-6.197379967808918
 30
0.0
 10
26.00895993205793
 20
-6.178414140714519
 30
0.0
 10
26.0025054642857
 20
-6.153029449687753
 30
0.0
 10
26.0044670663939
 20
-6.081583560744699
 30
0.0
 10
25.95901282920194
 20
-5.989148359733538
 30
0.0
 10
25.96319712824778
 20
-5.973175798427304
 30
0.0
 10
26.01961395768444
 20
-5.75783274694331
 30
0.0
 10
26.07955217655373
 20
-5.519571841998072
 30
0.0
 10
26.13737111916334
 20
-5.301706851766286
 30
0.0
 10
26.14816077845236
 20
-5.281490651679974
 30
0.0
 10
26.1589334835314
 20
-5.261362613486009
 30
0.0
 10
26.16968923440042
 20
-5.241304935263833
 30
0.0
 10
26.21895986428694
 20
-5.159302507423162
 30
0.0
 10
26.27198076544179
 20
-5.055329118753686
 30
0.0
 10
26.32475752597126
 20
-4.960140554031644
 30
0.0
 10
26.3615769839818
 20
-4.89632745046342
 30
0.0
 10
26.39646535746528
 20
-4.838958642142503
 30
0.0
 10
26.42835283576611
 20
-4.791391062662594
 30
0.0
 10
26.45359087287708
 20
-4.756634084310867
 30
0.0
 10
26.49429454041359
 20
-4.71497928559308
 30
0.0
 10
26.49306196934167
 20
-4.714304508032253
 30
0.0
 10
26.96105411616751
 20
-4.358530582272023
 30
0.0
 10
27.33117299906042
 20
-4.984663123521273
 30
0.0
 10
27.75768158462723
 20
-5.99117862647011
 30
0.0
 10
27.75983137846373
 20
-5.994466895513179
 30
0.0
 10
27.76198795398444
 20
-5.997798397791914
 30
0.0
 10
27.76412418445307
 20
-6.000953576285938
 30
0.0
 10
27.78036292685584
 20
-6.041946313103077
 30
0.0
 10
27.80148787260027
 20
-6.08808550038701
 30
0.0
 10
27.82569000747223
 20
-6.135920108678028
 30
0.0
 10
27.96565887952945
 20
-6.426748389663039
 30
0.0
 10
28.17925479965528
 20
-6.716739132673928
 30
0.0
 10
28.43470049192168
 20
-6.89285522833427
 30
0.0
 10
28.76757945241487
 20
-7.122354197533253
 30
0.0
 10
29.11699894025653
 20
-7.248278201997714
 30
0.0
 10
29.38753727033418
 20
-7.256759545597106
 30
0.0
 10
29.66405026403987
 20
-7.279823205277479
 30
0.0
 10
29.93653493743512
 20
-7.250500051264112
 30
0.0
 10
30.20466576968695
 20
-7.174691844082139
 30
0.0
 10
30.38288164425515
 20
-7.124305627184766
 30
0.0
 10
30.55113861582943
 20
-7.052807180197962
 30
0.0
 10
30.7073580982557
 20
-6.956845503501413
 30
0.0
 10
30.87028805702721
 20
-6.862000261538242
 30
0.0
 10
31.02195363863014
 20
-6.736338199641838
 30
0.0
 10
31.15812307223139
 20
-6.56854238259066
 30
0.0
 10
31.19196706637154
 20
-6.581962487572632
 30
0.0
 10
31.24059513169221
 20
-6.590919396754518
 30
0.0
 10
31.27492740708168
 20
-6.617968143500851
 30
0.0
 10
31.28370629705528
 20
-6.624884613499072
 30
0.0
 10
31.2917019025236
 20
-6.633494809083206
 30
0.0
 10
31.29898882201112
 20
-6.64299086214343
 30
0.0
 10
31.30557722804348
 20
-6.656671214248755
 30
0.0
 10
31.31065670937957
 20
-6.670951745390475
 30
0.0
 10
31.31391191771235
 20
-6.68466346278429
 30
0.0
 10
31.31724172456931
 20
-6.6986913761959
 30
0.0
 10
31.2806714934482
 20
-6.72783481559313
 30
0.0
 10
31.25725772934167
 20
-6.741510929144586
 30
0.0
 10
31.18806081636249
 20
-6.781931461368041
 30
0.0
 10
31.14295583588917
 20
-6.88504442387687
 30
0.0
 10
31.16573890337693
 20
-6.961061167855759
 30
0.0
 10
31.16780053532112
 20
-6.967939490881033
 30
0.0
 10
31.17054372651013
 20
-6.97418796500224
 30
0.0
 10
31.17360904769041
 20
-6.980104984316616
 30
0.0
 10
31.17438555051111
 20
-6.99153720816648
 30
0.0
 10
31.17623695025014
 20
-7.002706641760305
 30
0.0
 10
31.17943112342679
 20
-7.013353037973565
 30
0.0
 10
31.20188867008139
 20
-7.088182139537063
 30
0.0
 10
31.28441159217249
 20
-7.109022254558138
 30
0.0
 10
31.35138750363222
 20
-7.077358571835449
 30
0.0
 10
31.43656545501972
 20
-7.108405969028947
 30
0.0
 10
31.4997775318414
 20
-7.136991614919364
 30
0.0
 10
31.56603119395014
 20
-7.149519080742657
 30
0.0
 10
31.57578664642402
 20
-7.151363698798654
 30
0.0
 10
31.59998030419638
 20
-7.077060177749394
 30
0.0
 10
31.62449609195929
 20
-7.022360809803445
 30
0.0
 10
31.61540524451986
 20
-7.027208866172385
 30
0.0
 10
31.62360430050972
 20
-7.021801320871102
 30
0.0
 10
31.63253916921652
 20
-7.018246870730447
 30
0.0
 10
31.68008894677804
 20
-6.999327667716089
 30
0.0
 10
31.72782522065043
 20
-6.980873010057646
 30
0.0
 10
31.77550045936651
 20
-6.962257287403531
 30
0.0
 10
31.74288395003709
 20
-6.914457435242777
 30
0.0
 10
31.71990760455375
 20
-6.852426219150175
 30
0.0
 10
31.67531464123041
 20
-6.822314694354329
 30
0.0
 10
31.67515188081375
 20
-6.822204491988877
 30
0.0
 10
31.67501963797528
 20
-6.822079878544855
 30
0.0
 10
31.67485687755862
 20
-6.821969676179403
 30
0.0
 10
31.66334496892222
 20
-6.805341834653277
 30
0.0
 10
31.65054793116249
 20
-6.790612864654854
 30
0.0
 10
31.63493310368904
 20
-6.780053782622922
 30
0.0
 10
31.62544552773445
 20
-6.773638309532227
 30
0.0
 10
31.61699215859403
 20
-6.766715905560481
 30
0.0
 10
31.60894229965349
 20
-6.759590898778431
 30
0.0
 10
31.58575233112166
 20
-6.730794172974444
 30
0.0
 10
31.56630585217347
 20
-6.699684045206658
 30
0.0
 10
31.54332272500472
 20
-6.669090173135297
 30
0.0
 10
31.49959442639624
 20
-6.610883826833426
 30
0.0
 10
31.44881995808264
 20
-6.557957021546851
 30
0.0
 10
31.39678409653985
 20
-6.505976261182101
 30
0.0
 10
31.36340803859861
 20
-6.471879649309964
 30
0.0
 10
31.32906898152542
 20
-6.438504439076205
 30
0.0
 10
31.29538774780306
 20
-6.404636709039967
 30
0.0
 10
31.2906066605636
 20
-6.399745419434717
 30
0.0
 10
31.28576114732596
 20
-6.394899906196656
 30
0.0
 10
31.2810241410329
 20
-6.389976403592274
 30
0.0
 10
31.2810241410329
 20
-6.389976403592274
 30
0.0
 10
31.28102075019084
 20
-6.389978099013281
 30
0.0
 10
31.28101735934888
 20
-6.389980642144792
 30
0.0
 10
31.27672794420151
 20
-6.38561238992021
 30
0.0
 10
31.27242835652805
 20
-6.38125261480065
 30
0.0
 10
31.26817284980082
 20
-6.37685808355046
 30
0.0
 10
31.27658552883834
 20
-6.352015079536082
 30
0.0
 10
31.28474050388291
 20
-6.327018639920563
 30
0.0
 10
31.29779185479543
 20
-6.304904416017065
 30
0.0
 10
31.48477644682346
 20
-5.988029382117045
 30
0.0
 10
31.51724036828028
 20
-5.636517744748706
 30
0.0
 10
31.53189219663818
 20
-5.280518327974201
 30
0.0
 10
31.54980940585918
 20
-4.845165578680293
 30
0.0
 10
31.56072452632139
 20
-4.410223121269761
 30
0.0
 10
31.48098548554223
 20
-3.978665571895526
 30
0.0
 10
31.47106727265388
 20
-3.924990238236218
 30
0.0
 10
31.46440426809805
 20
-3.89261532639782
 30
0.0
 10
31.45200734969623
 20
-3.873317196785719
 30
0.0
 10
31.45200734969623
 20
-3.873317196785719
 30
0.0
 10
30.43173689613721
 20
-3.873317196739903
 30
0.0
 10
30.43173689613721
 20
-3.873317196739903
 30
0.0
 10
30.43175724118388
 20
-3.992011926015089
 30
0.0
 10
30.43193017412179
 20
-4.100798614925679
 30
0.0
 10
30.43168264264987
 20
-4.209451365576708
 30
0.0
 10
30.43127574160012
 20
-4.388533600277216
 30
0.0
 10
30.34792771460873
 20
-4.5962082625456
 30
0.0
 10
30.2744040872139
 20
-4.769150530066175
 30
0.0
 10
30.20286749323931
 20
-4.937424455844217
 30
0.0
 10
30.09587738545027
 20
-5.058131649849833
 30
0.0
 10
30.00125593904889
 20
-5.144150530053921
 30
0.0
 10
29.94100406730154
 20
-5.19892449652256
 30
0.0
 10
29.79986705015626
 20
-5.227483863378211
 30
0.0
 10
29.74770233661499
 20
-5.216715396850254
 30
0.0
 10
29.74766164651083
 20
-5.21736643851692
 30
0.0
 10
29.72392575241348
 20
-5.219723921426016
 30
0.0
 10
29.71298011439265
 20
-5.219639150375175
 30
0.0
 10
29.39880842928
 20
-5.217212155189625
 30
0.0
 10
29.07572561138861
 20
-4.461201887705506
 30
0.0
 10
29.10974932016875
 20
-4.174235775782121
 30
0.0
 10
29.11963362464305
 20
-4.090876163423622
 30
0.0
 10
29.11034610836916
 20
-4.042109073579455
 30
0.0
 10
29.1046088036836
 20
-3.999783735851325
 30
0.0
 10
29.10677216088973
 20
-3.970745412554985
 30
0.0
 10
29.10906437009251
 20
-3.941709632390156
 30
0.0
 10
29.11130232582291
 20
-3.912690806435408
 30
0.0
 10
29.11229923337555
 20
-3.899710663206279
 30
0.0
 10
29.11311981714347
 20
-3.886598277138609
 30
0.0
 10
29.11387936575526
 20
-3.873317196680735
 30
0.0
  0
POLYLINE
  5
119
330
114
100
AcDbEntity
  8
Layer 1
 62
     1
420
 16711680
370
    35
100
AcDb2dPolyline
 66
     1
 10
0.0
 20
0.0
 30
0.0
  0
VERTEX
  5
11A
330
119
100
AcDbEntity
  8
Layer 1
 62
     1
420
 16711680
370
    35
100
AcDbVertex
100
AcDb2dVertex
 10
30.83808183961069
 20
-6.16358937964661
 30
0.0
  0
VERTEX
  5
11B
330
119
100
AcDbEntity
  8
Layer 1
 62
     1
420
 16711680
370
    35
100
AcDbVertex
100
AcDb2dVertex
 10
31.05807966947181
 20
-6.163589379656476
 30
0.0
  0
VERTEX
  5
11C
330
119
100
AcDbEntity
  8
Layer 1
 62
     1
420
 16711680
370
    35
100
AcDbVertex
100
AcDb2dVertex
 10
31.05807966945056
 20
-6.638589549198589
 30
0.0
  0
VERTEX
  5
11D
330
119
100
AcDbEntity
  8
Layer 1
 62
     1
420
 16711680
370
    35
100
AcDbVertex
100
AcDb2dVertex
 10
30.83808183958945
 20
-6.638589549188711
 30
0.0
  0
VERTEX
  5
11E
330
119
100
AcDbEntity
  8
Layer 1
 62
     1
420
 16711680
370
    35
100
AcDbVertex
100
AcDb2dVertex
 10
30.83808183961069
 20
-6.16358937964661
 30
0.0
  0
SEQEND
  5
11F
330
119
100
AcDbEntity
  8
Layer 1
 62
     1
420
 16711680
370
    35
  0
POLYLINE
  5
120
330
114
100
AcDbEntity
  8
Layer 1
 62
     1
420
 16711680
370
    35
100
AcDb2dPolyline
 66
     1
 10
0.0
 20
0.0
 30
0.0
  0
VERTEX
  5
121
330
120
100
AcDbEntity
  8
Layer 1
 62
     1
420
 16711680
370
    35
100
AcDbVertex
100
AcDb2dVertex
 10
30.8380818396904
 20
-4.38789103573385
 30
0.0
  0
VERTEX
  5
122
330
120
100
AcDbEntity
  8
Layer 1
 62
     1
420
 16711680
370
    35
100
AcDbVertex
100
AcDb2dVertex
 10
31.05807966955151
 20
-4.387891035743729
 30
0.0
  0
VERTEX
  5
123
330
120
100
AcDbEntity
  8
Layer 1
 62
     1
420
 16711680
370
    35
100
AcDbVertex
100
AcDb2dVertex
 10
31.05807966953029
 20
-4.862891205285816
 30
0.0
  0
VERTEX
  5
124
330
120
100
AcDbEntity
  8
Layer 1
 62
     1
420
 16711680
370
    35
100
AcDbVertex
100
AcDb2dVertex
 10
30.83808183966918
 20
-4.862891205275964
 30
0.0
  0
VERTEX
  5
125
330
120
100
AcDbEntity
  8
Layer 1
 62
     1
420
 16711680
370
    35
100
AcDbVertex
100
AcDb2dVertex
 10
30.8380818396904
 20
-4.38789103573385
 30
0.0
  0
SEQEND
  5
126
330
120
100
AcDbEntity
  8
Layer 1
 62
     1
420
 16711680
370
    35
  0
POLYLINE
  5
127
330
114
100
AcDbEntity
  8
Layer 1
 62
     1
420
 16711680
370
    35
100
AcDb2dPolyline
 66
     1
 10
0.0
 20
0.0
 30
0.0
  0
VERTEX
  5
128
330
127
100
AcDbEntity
  8
Layer 1
 62
     1
420
 16711680
370
    35
100
AcDbVertex
100
AcDb2dVertex
 10
30.20992157490903
 20
-4.933254567877952
 30
0.0
  0
VERTEX
  5
129
330
127
100
AcDbEntity
  8
Layer 1
 62
     1
420
 16711680
370
    35
100
AcDbVertex
100
AcDb2dVertex
 10
30.38508908251652
 20
-4.666975983087645
 30
0.0
  0
VERTEX
  5
12A
330
127
100
AcDbEntity
  8
Layer 1
 62
     1
420
 16711680
370
    35
100
AcDbVertex
100
AcDb2dVertex
 10
30.56470876567083
 20
-4.785134959332683
 30
0.0
  0
VERTEX
  5
12B
330
127
100
AcDbEntity
  8
Layer 1
 62
     1
420
 16711680
370
    35
100
AcDbVertex
100
AcDb2dVertex
 10
30.38954464890541
 20
-5.05141354412299
 30
0.0
  0
VERTEX
  5
12C
330
127
100
AcDbEntity
  8
Layer 1
 62
     1
420
 16711680
370
    35
100
AcDbVertex
100
AcDb2dVertex
 10
30.20992157490903
 20
-4.933254567877952
 30
0.0
  0
SEQEND
  5
12D
330
127
100
AcDbEntity
  8
Layer 1
 62
     1
420
 16711680
370
    35
  0
SPLINE
  5
12E
330
114
100
AcDbEntity
  8
Layer 1
 62
     1
420
 16711680
370
    35
100
AcDbSpline
210
0.0
220
0.0
230
1.0
 70
    11
 71
     3
 72
    23
 73
    19
 74
     0
 42
0.0000000001
 43
0.0000000001
 12
1.0
 22
0.0
 32
0.0
 13
1.0
 23
0.0
 33
0.0
 40
0.0
 40
0.0
 40
0.0
 40
0.0
 40
1.0
 40
1.0
 40
1.0
 40
2.0
 40
2.0
 40
2.0
 40
3.0
 40
3.0
 40
3.0
 40
4.0
 40
4.0
 40
4.0
 40
5.0
 40
5.0
 40
5.0
 40
6.0
 40
6.0
 40
6.0
 40
6.0
 10
25.15928952192472
 20
-5.666906470591735
 30
0.0
 10
25.14635006879737
 20
-5.720374115176658
 30
0.0
 10
25.10533613921709
 20
-5.74824175026596
 30
0.0
 10
25.04620663617902
 20
-5.745925805167821
 30
0.0
 10
25.02906592979874
 20
-5.746689592330679
 30
0.0
 10
25.01016368099236
 20
-5.7446796707261
 30
0.0
 10
24.98977793880514
 20
-5.73975108185799
 30
0.0
 10
24.91483863487792
 20
-5.721632965263918
 30
0.0
 10
24.87390947635208
 20
-5.658795576481705
 30
0.0
 10
24.89164697092987
 20
-5.589087494071476
 30
0.0
 10
24.90502723351917
 20
-5.53649468672615
 30
0.0
 10
24.95049164324278
 20
-5.505599029718647
 30
0.0
 10
25.00547753733973
 20
-5.508721147505399
 30
0.0
 10
25.0180372161593
 20
-5.508101471127929
 30
0.0
 10
25.03119707401513
 20
-5.509217905861596
 30
0.0
 10
25.04473840159749
 20
-5.512441748906907
 30
0.0
 10
25.11739566884931
 20
-5.529740129444033
 30
0.0
 10
25.17400747168876
 20
-5.606079003415744
 30
0.0
 10
25.15928952192472
 20
-5.666906470591735
 30
0.0
  0
POLYLINE
  5
12F
330
114
100
AcDbEntity
  8
Layer 1
 62
     1
420
 16711680
370
    35
100
AcDb2dPolyline
 66
     1
 10
0.0
 20
0.0
 30
0.0
  0
VERTEX
  5
130
330
12F
100
AcDbEntity
  8
Layer 1
 62
     1
420
 16711680
370
    35
100
AcDbVertex
100
AcDb2dVertex
 10
28.61457448832362
 20
-4.862891205176121
 30
0.0
  0
VERTEX
  5
131
330
12F
100
AcDbEntity
  8
Layer 1
 62
     1
420
 16711680
370
    35
100
AcDbVertex
100
AcDb2dVertex
 10
28.39457496304152
 20
-4.862891205166256
 30
0.0
  0
VERTEX
  5
132
330
12F
100
AcDbEntity
  8
Layer 1
 62
     1
420
 16711680
370
    35
100
AcDbVertex
100
AcDb2dVertex
 10
28.39457496306292
 20
-4.387891035624143
 30
0.0
  0
VERTEX
  5
133
330
12F
100
AcDbEntity
  8
Layer 1
 62
     1
420
 16711680
370
    35
100
AcDbVertex
100
AcDb2dVertex
 10
28.61457448834499
 20
-4.387891035634033
 30
0.0
  0
VERTEX
  5
134
330
12F
100
AcDbEntity
  8
Layer 1
 62
     1
420
 16711680
370
    35
100
AcDbVertex
100
AcDb2dVertex
 10
28.61457448832362
 20
-4.862891205176121
 30
0.0
  0
SEQEND
  5
135
330
12F
100
AcDbEntity
  8
Layer 1
 62
     1
420
 16711680
370
    35
  0
POLYLINE
  5
136
330
114
100
AcDbEntity
  8
Layer 1
 62
     1
420
 16711680
370
    35
100
AcDb2dPolyline
 66
     1
 10
0.0
 20
0.0
 30
0.0
  0
VERTEX
  5
137
330
136
100
AcDbEntity
  8
Layer 1
 62
     1
420
 16711680
370
    35
100
AcDbVertex
100
AcDb2dVertex
 10
28.61457448824389
 20
-6.638589549088894
 30
0.0
  0
VERTEX
  5
138
330
136
100
AcDbEntity
  8
Layer 1
 62
     1
420
 16711680
370
    35
100
AcDbVertex
100
AcDb2dVertex
 10
28.39457496296179
 20
-6.638589549079003
 30
0.0
  0
VERTEX
  5
139
330
136
100
AcDbEntity
  8
Layer 1
 62
     1
420
 16711680
370
    35
100
AcDbVertex
100
AcDb2dVertex
 10
28.39457496298306
 20
-6.163589379536902
 30
0.0
  0
VERTEX
  5
13A
330
136
100
AcDbEntity
  8
Layer 1
 62
     1
420
 16711680
370
    35
100
AcDbVertex
100
AcDb2dVertex
 10
28.61457448826528
 20
-6.163589379546781
 30
0.0
  0
VERTEX
  5
13B
330
136
100
AcDbEntity
  8
Layer 1
 62
     1
420
 16711680
370
    35
100
AcDbVertex
100
AcDb2dVertex
 10
28.61457448824389
 20
-6.638589549088894
 30
0.0
  0
SEQEND
  5
13C
330
136
100
AcDbEntity
  8
Layer 1
 62
     1
420
 16711680
370
    35
  0
POLYLINE
  5
13D
330
114
100
AcDbEntity
  8
Layer 1
 62
     1
420
 16711680
370
    35
100
AcDb2dPolyline
 66
     1
 10
0.0
 20
0.0
 30
0.0
  0
VERTEX
  5
13E
330
13D
100
AcDbEntity
  8
Layer 1
 62
     1
420
 16711680
370
    35
100
AcDbVertex
100
AcDb2dVertex
 10
29.08424001567624
 20
-4.667053972395554
 30
0.0
  0
VERTEX
  5
13F
330
13D
100
AcDbEntity
  8
Layer 1
 62
     1
420
 16711680
370
    35
100
AcDbVertex
100
AcDb2dVertex
 10
29.26856957838153
 20
-4.927074758265373
 30
0.0
  0
VERTEX
  5
140
330
13D
100
AcDbEntity
  8
Layer 1
 62
     1
420
 16711680
370
    35
100
AcDbVertex
100
AcDb2dVertex
 10
29.09316810268152
 20
-5.051413544064795
 30
0.0
  0
VERTEX
  5
141
330
13D
100
AcDbEntity
  8
Layer 1
 62
     1
420
 16711680
370
    35
100
AcDbVertex
100
AcDb2dVertex
 10
28.9088419308182
 20
-4.791392758194976
 30
0.0
  0
VERTEX
  5
142
330
13D
100
AcDbEntity
  8
Layer 1
 62
     1
420
 16711680
370
    35
100
AcDbVertex
100
AcDb2dVertex
 10
29.08424001567624
 20
-4.667053972395554
 30
0.0
  0
SEQEND
  5
143
330
13D
100
AcDbEntity
  8
Layer 1
 62
     1
420
 16711680
370
    35
  0
SPLINE
  5
144
330
114
100
AcDbEntity
  8
Layer 1
 62
     1
420
 16711680
370
    35
100
AcDbSpline
210
0.0
220
0.0
230
1.0
 70
    11
 71
     3
 72
    23
 73
    19
 74
     0
 42
0.0000000001
 43
0.0000000001
 12
1.0
 22
0.0
 32
0.0
 13
1.0
 23
0.0
 33
0.0
 40
0.0
 40
0.0
 40
0.0
 40
0.0
 40
1.0
 40
1.0
 40
1.0
 40
2.0
 40
2.0
 40
2.0
 40
3.0
 40
3.0
 40
3.0
 40
4.0
 40
4.0
 40
4.0
 40
5.0
 40
5.0
 40
5.0
 40
6.0
 40
6.0
 40
6.0
 40
6.0
 10
25.04620663617902
 20
-5.745925805167821
 30
0.0
 10
25.02906592979874
 20
-5.746689592330679
 30
0.0
 10
25.01016368099236
 20
-5.7446796707261
 30
0.0
 10
24.98977793880514
 20
-5.73975108185799
 30
0.0
 10
24.91483863487792
 20
-5.721632965263918
 30
0.0
 10
24.87390947635208
 20
-5.658795576481705
 30
0.0
 10
24.89164697092987
 20
-5.589087494071476
 30
0.0
 10
24.90502723351917
 20
-5.53649468672615
 30
0.0
 10
24.95049164324278
 20
-5.505599029718647
 30
0.0
 10
25.00547753733973
 20
-5.508721147505399
 30
0.0
 10
25.0180372161593
 20
-5.508101471127929
 30
0.0
 10
25.03119707401513
 20
-5.509217905861596
 30
0.0
 10
25.04473840159749
 20
-5.512441748906907
 30
0.0
 10
25.11739566884931
 20
-5.529740129444033
 30
0.0
 10
25.17400747168876
 20
-5.606079003415744
 30
0.0
 10
25.15928952192472
 20
-5.666906470591735
 30
0.0
 10
25.14635006879737
 20
-5.720374115176658
 30
0.0
 10
25.10533613921709
 20
-5.74824175026596
 30
0.0
 10
25.04620663617902
 20
-5.745925805167821
 30
0.0
  0
POLYLINE
  5
145
330
114
100
AcDbEntity
  8
Layer 1
 62
     1
420
 16711680
370
    35
100
AcDb2dPolyline
 66
     1
 10
0.0
 20
0.0
 30
0.0
  0
VERTEX
  5
146
330
145
100
AcDbEntity
  8
Layer 1
 62
     1
420
 16711680
370
    35
100
AcDbVertex
100
AcDb2dVertex
 10
28.39457496306292
 20
-4.387891035624143
 30
0.0
  0
VERTEX
  5
147
330
145
100
AcDbEntity
  8
Layer 1
 62
     1
420
 16711680
370
    35
100
AcDbVertex
100
AcDb2dVertex
 10
28.61457448834499
 20
-4.387891035634033
 30
0.0
  0
VERTEX
  5
148
330
145
100
AcDbEntity
  8
Layer 1
 62
     1
420
 16711680
370
    35
100
AcDbVertex
100
AcDb2dVertex
 10
28.61457448832362
 20
-4.862891205176121
 30
0.0
  0
VERTEX
  5
149
330
145
100
AcDbEntity
  8
Layer 1
 62
     1
420
 16711680
370
    35
100
AcDbVertex
100
AcDb2dVertex
 10
28.39457496304152
 20
-4.862891205166256
 30
0.0
  0
VERTEX
  5
14A
330
145
100
AcDbEntity
  8
Layer 1
 62
     1
420
 16711680
370
    35
100
AcDbVertex
100
AcDb2dVertex
 10
28.39457496306292
 20
-4.387891035624143
 30
0.0
  0
SEQEND
  5
14B
330
145
100
AcDbEntity
  8
Layer 1
 62
     1
420
 16711680
370
    35
  0
POLYLINE
  5
14C
330
114
100
AcDbEntity
  8
Layer 1
 62
     1
420
 16711680
370
    35
100
AcDb2dPolyline
 66
     1
 10
0.0
 20
0.0
 30
0.0
  0
VERTEX
  5
14D
330
14C
100
AcDbEntity
  8
Layer 1
 62
     1
420
 16711680
370
    35
100
AcDbVertex
100
AcDb2dVertex
 10
31.05807966953029
 20
-4.862891205285816
 30
0.0
  0
VERTEX
  5
14E
330
14C
100
AcDbEntity
  8
Layer 1
 62
     1
420
 16711680
370
    35
100
AcDbVertex
100
AcDb2dVertex
 10
30.83808183966918
 20
-4.862891205275964
 30
0.0
  0
VERTEX
  5
14F
330
14C
100
AcDbEntity
  8
Layer 1
 62
     1
420
 16711680
370
    35
100
AcDbVertex
100
AcDb2dVertex
 10
30.8380818396904
 20
-4.38789103573385
 30
0.0
  0
VERTEX
  5
150
330
14C
100
AcDbEntity
  8
Layer 1
 62
     1
420
 16711680
370
    35
100
AcDbVertex
100
AcDb2dVertex
 10
31.05807966955151
 20
-4.387891035743729
 30
0.0
  0
VERTEX
  5
151
330
14C
100
AcDbEntity
  8
Layer 1
 62
     1
420
 16711680
370
    35
100
AcDbVertex
100
AcDb2dVertex
 10
31.05807966953029
 20
-4.862891205285816
 30
0.0
  0
SEQEND
  5
152
330
14C
100
AcDbEntity
  8
Layer 1
 62
     1
420
 16711680
370
    35
  0
POLYLINE
  5
153
330
114
100
AcDbEntity
  8
Layer 1
 62
     1
420
 16711680
370
    35
100
AcDb2dPolyline
 66
     1
 10
0.0
 20
0.0
 30
0.0
  0
VERTEX
  5
154
330
153
100
AcDbEntity
  8
Layer 1
 62
     1
420
 16711680
370
    35
100
AcDbVertex
100
AcDb2dVertex
 10
31.05807966945056
 20
-6.638589549198589
 30
0.0
  0
VERTEX
  5
155
330
153
100
AcDbEntity
  8
Layer 1
 62
     1
420
 16711680
370
    35
100
AcDbVertex
100
AcDb2dVertex
 10
30.83808183958945
 20
-6.638589549188711
 30
0.0
  0
VERTEX
  5
156
330
153
100
AcDbEntity
  8
Layer 1
 62
     1
420
 16711680
370
    35
100
AcDbVertex
100
AcDb2dVertex
 10
30.83808183961069
 20
-6.16358937964661
 30
0.0
  0
VERTEX
  5
157
330
153
100
AcDbEntity
  8
Layer 1
 62
     1
420
 16711680
370
    35
100
AcDbVertex
100
AcDb2dVertex
 10
31.05807966947181
 20
-6.163589379656476
 30
0.0
  0
VERTEX
  5
158
330
153
100
AcDbEntity
  8
Layer 1
 62
     1
420
 16711680
370
    35
100
AcDbVertex
100
AcDb2dVertex
 10
31.05807966945056
 20
-6.638589549198589
 30
0.0
  0
SEQEND
  5
159
330
153
100
AcDbEntity
  8
Layer 1
 62
     1
420
 16711680
370
    35
  0
POLYLINE
  5
15A
330
114
100
AcDbEntity
  8
Layer 1
 62
     1
420
 16711680
370
    35
100
AcDb2dPolyline
 66
     1
 10
0.0
 20
0.0
 30
0.0
  0
VERTEX
  5
15B
330
15A
100
AcDbEntity
  8
Layer 1
 62
     1
420
 16711680
370
    35
100
AcDbVertex
100
AcDb2dVertex
 10
28.39457496298306
 20
-6.163589379536902
 30
0.0
  0
VERTEX
  5
15C
330
15A
100
AcDbEntity
  8
Layer 1
 62
     1
420
 16711680
370
    35
100
AcDbVertex
100
AcDb2dVertex
 10
28.61457448826528
 20
-6.163589379546781
 30
0.0
  0
VERTEX
  5
15D
330
15A
100
AcDbEntity
  8
Layer 1
 62
     1
420
 16711680
370
    35
100
AcDbVertex
100
AcDb2dVertex
 10
28.61457448824389
 20
-6.638589549088894
 30
0.0
  0
VERTEX
  5
15E
330
15A
100
AcDbEntity
  8
Layer 1
 62
     1
420
 16711680
370
    35
100
AcDbVertex
100
AcDb2dVertex
 10
28.39457496296179
 20
-6.638589549079003
 30
0.0
  0
VERTEX
  5
15F
330
15A
100
AcDbEntity
  8
Layer 1
 62
     1
420
 16711680
370
    35
100
AcDbVertex
100
AcDb2dVertex
 10
28.39457496298306
 20
-6.163589379536902
 30
0.0
  0
SEQEND
  5
160
330
15A
100
AcDbEntity
  8
Layer 1
 62
     1
420
 16711680
370
    35
  0
POLYLINE
  5
161
330
114
100
AcDbEntity
  8
Layer 1
 62
     1
420
 16711680
370
    35
100
AcDb2dPolyline
 66
     1
 10
0.0
 20
0.0
 30
0.0
  0
VERTEX
  5
162
330
161
100
AcDbEntity
  8
Layer 1
 62
     1
420
 16711680
370
    35
100
AcDbVertex
100
AcDb2dVertex
 10
29.09316810268152
 20
-5.051413544064795
 30
0.0
  0
VERTEX
  5
163
330
161
100
AcDbEntity
  8
Layer 1
 62
     1
420
 16711680
370
    35
100
AcDbVertex
100
AcDb2dVertex
 10
28.9088419308182
 20
-4.791392758194976
 30
0.0
  0
VERTEX
  5
164
330
161
100
AcDbEntity
  8
Layer 1
 62
     1
420
 16711680
370
    35
100
AcDbVertex
100
AcDb2dVertex
 10
29.08424001567624
 20
-4.667053972395554
 30
0.0
  0
VERTEX
  5
165
330
161
100
AcDbEntity
  8
Layer 1
 62
     1
420
 16711680
370
    35
100
AcDbVertex
100
AcDb2dVertex
 10
29.26856957838153
 20
-4.927074758265373
 30
0.0
  0
VERTEX
  5
166
330
161
100
AcDbEntity
  8
Layer 1
 62
     1
420
 16711680
370
    35
100
AcDbVertex
100
AcDb2dVertex
 10
29.09316810268152
 20
-5.051413544064795
 30
0.0
  0
SEQEND
  5
167
330
161
100
AcDbEntity
  8
Layer 1
 62
     1
420
 16711680
370
    35
  0
POLYLINE
  5
168
330
114
100
AcDbEntity
  8
Layer 1
 62
     1
420
 16711680
370
    35
100
AcDb2dPolyline
 66
     1
 10
0.0
 20
0.0
 30
0.0
  0
VERTEX
  5
169
330
168
100
AcDbEntity
  8
Layer 1
 62
     1
420
 16711680
370
    35
100
AcDbVertex
100
AcDb2dVertex
 10
30.56470876567083
 20
-4.785134959332683
 30
0.0
  0
VERTEX
  5
16A
330
168
100
AcDbEntity
  8
Layer 1
 62
     1
420
 16711680
370
    35
100
AcDbVertex
100
AcDb2dVertex
 10
30.38954464890541
 20
-5.05141354412299
 30
0.0
  0
VERTEX
  5
16B
330
168
100
AcDbEntity
  8
Layer 1
 62
     1
420
 16711680
370
    35
100
AcDbVertex
100
AcDb2dVertex
 10
30.20992157490903
 20
-4.933254567877952
 30
0.0
  0
VERTEX
  5
16C
330
168
100
AcDbEntity
  8
Layer 1
 62
     1
420
 16711680
370
    35
100
AcDbVertex
100
AcDb2dVertex
 10
30.38508908251652
 20
-4.666975983087645
 30
0.0
  0
VERTEX
  5
16D
330
168
100
AcDbEntity
  8
Layer 1
 62
     1
420
 16711680
370
    35
100
AcDbVertex
100
AcDb2dVertex
 10
30.56470876567083
 20
-4.785134959332683
 30
0.0
  0
SEQEND
  5
16E
330
168
100
AcDbEntity
  8
Layer 1
 62
     1
420
 16711680
370
    35
  0
ENDBLK
  5
117
330
114
100
AcDbEntity
  8
0
100
AcDbBlockEnd
  0
ENDSEC
  0
SECTION
  2
ENTITIES
  0
POLYLINE
  5
41
330
1F
100
AcDbEntity
  8
Layer 1
 62
     1
420
 16711680
370
    35
100
AcDb2dPolyline
 66
     1
 10
0.0
 20
0.0
 30
0.0
  0
VERTEX
  5
42
330
41
100
AcDbEntity
  8
Layer 1
 62
     1
420
 16711680
370
    35
100
AcDbVertex
100
AcDb2dVertex
 10
21.65822243048764
 20
-3.368893646128451
 30
0.0
  0
VERTEX
  5
43
330
41
100
AcDbEntity
  8
Layer 1
 62
     1
420
 16711680
370
    35
100
AcDbVertex
100
AcDb2dVertex
 10
22.1386081048582
 20
-3.368893646128451
 30
0.0
  0
VERTEX
  5
44
330
41
100
AcDbEntity
  8
Layer 1
 62
     1
420
 16711680
370
    35
100
AcDbVertex
100
AcDb2dVertex
 10
22.1386081048582
 20
-3.155745317135395
 30
0.0
  0
VERTEX
  5
45
330
41
100
AcDbEntity
  8
Layer 1
 62
     1
420
 16711680
370
    35
100
AcDbVertex
100
AcDb2dVertex
 10
22.1386081048582
 20
-3.148894120846332
 30
0.0
  0
VERTEX
  5
46
330
41
100
AcDbEntity
  8
Layer 1
 62
     1
420
 16711680
370
    35
100
AcDbVertex
100
AcDb2dVertex
 10
22.1386081048582
 20
-0.6625965134244703
 30
0.0
  0
VERTEX
  5
47
330
41
100
AcDbEntity
  8
Layer 1
 62
     1
420
 16711680
370
    35
100
AcDbVertex
100
AcDb2dVertex
 10
22.1386081048582
 20
-0.6557453171354078
 30
0.0
  0
VERTEX
  5
48
330
41
100
AcDbEntity
  8
Layer 1
 62
     1
420
 16711680
370
    35
100
AcDbVertex
100
AcDb2dVertex
 10
22.1386081048582
 20
-0.4425969881423523
 30
0.0
  0
VERTEX
  5
49
330
41
100
AcDbEntity
  8
Layer 1
 62
     1
420
 16711680
370
    35
100
AcDbVertex
100
AcDb2dVertex
 10
21.65822243048764
 20
-0.4425969881423523
 30
0.0
  0
VERTEX
  5
4A
330
41
100
AcDbEntity
  8
Layer 1
 62
     1
420
 16711680
370
    35
100
AcDbVertex
100
AcDb2dVertex
 10
21.65822243048764
 20
-0.6557453171354078
 30
0.0
  0
VERTEX
  5
4B
330
41
100
AcDbEntity
  8
Layer 1
 62
     1
420
 16711680
370
    35
100
AcDbVertex
100
AcDb2dVertex
 10
20.36829611348458
 20
-0.6557453171354078
 30
0.0
  0
VERTEX
  5
4C
330
41
100
AcDbEntity
  8
Layer 1
 62
     1
420
 16711680
370
    35
100
AcDbVertex
100
AcDb2dVertex
 10
20.36829611348458
 20
-0.4425969881423523
 30
0.0
  0
VERTEX
  5
4D
330
41
100
AcDbEntity
  8
Layer 1
 62
     1
420
 16711680
370
    35
100
AcDbVertex
100
AcDb2dVertex
 10
19.88790959140334
 20
-0.4425969881423523
 30
0.0
  0
VERTEX
  5
4E
330
41
100
AcDbEntity
  8
Layer 1
 62
     1
420
 16711680
370
    35
100
AcDbVertex
100
AcDb2dVertex
 10
19.88790959140334
 20
-0.6557453171354078
 30
0.0
  0
VERTEX
  5
4F
330
41
100
AcDbEntity
  8
Layer 1
 62
     1
420
 16711680
370
    35
100
AcDbVertex
100
AcDb2dVertex
 10
19.88790959140334
 20
-0.6625965134244703
 30
0.0
  0
VERTEX
  5
50
330
41
100
AcDbEntity
  8
Layer 1
 62
     1
420
 16711680
370
    35
100
AcDbVertex
100
AcDb2dVertex
 10
19.88790959140334
 20
-3.148894120846332
 30
0.0
  0
VERTEX
  5
51
330
41
100
AcDbEntity
  8
Layer 1
 62
     1
420
 16711680
370
    35
100
AcDbVertex
100
AcDb2dVertex
 10
19.88790959140334
 20
-3.155745317135395
 30
0.0
  0
VERTEX
  5
52
330
41
100
AcDbEntity
  8
Layer 1
 62
     1
420
 16711680
370
    35
100
AcDbVertex
100
AcDb2dVertex
 10
19.88790959140334
 20
-3.368893646128451
 30
0.0
  0
VERTEX
  5
53
330
41
100
AcDbEntity
  8
Layer 1
 62
     1
420
 16711680
370
    35
100
AcDbVertex
100
AcDb2dVertex
 10
20.36829611348458
 20
-3.368893646128451
 30
0.0
  0
VERTEX
  5
54
330
41
100
AcDbEntity
  8
Layer 1
 62
     1
420
 16711680
370
    35
100
AcDbVertex
100
AcDb2dVertex
 10
20.36829611348458
 20
-3.155745317135395
 30
0.0
  0
VERTEX
  5
55
330
41
100
AcDbEntity
  8
Layer 1
 62
     1
420
 16711680
370
    35
100
AcDbVertex
100
AcDb2dVertex
 10
21.65822243048764
 20
-3.155745317135395
 30
0.0
  0
VERTEX
  5
56
330
41
100
AcDbEntity
  8
Layer 1
 62
     1
420
 16711680
370
    35
100
AcDbVertex
100
AcDb2dVertex
 10
21.65822243048764
 20
-3.368893646128451
 30
0.0
  0
SEQEND
  5
57
330
41
100
AcDbEntity
  8
Layer 1
 62
     1
420
 16711680
370
    35
  0
POLYLINE
  5
58
330
1F
100
AcDbEntity
  8
Layer 1
 62
     1
420
 16711680
370
    35
100
AcDb2dPolyline
 66
     1
 10
0.0
 20
0.0
 30
0.0
  0
VERTEX
  5
59
330
58
100
AcDbEntity
  8
Layer 1
 62
     1
420
 16711680
370
    35
100
AcDbVertex
100
AcDb2dVertex
 10
20.36829526577402
 20
-3.794386023859046
 30
0.0
  0
VERTEX
  5
5A
330
58
100
AcDbEntity
  8
Layer 1
 62
     1
420
 16711680
370
    35
100
AcDbVertex
100
AcDb2dVertex
 10
19.88790959140334
 20
-3.794386023859046
 30
0.0
  0
VERTEX
  5
5B
330
58
100
AcDbEntity
  8
Layer 1
 62
     1
420
 16711680
370
    35
100
AcDbVertex
100
AcDb2dVertex
 10
19.88790959140334
 20
-4.007534352852101
 30
0.0
  0
VERTEX
  5
5C
330
58
100
AcDbEntity
  8
Layer 1
 62
     1
420
 16711680
370
    35
100
AcDbVertex
100
AcDb2dVertex
 10
19.88790959140334
 20
-4.014385549141151
 30
0.0
  0
VERTEX
  5
5D
330
58
100
AcDbEntity
  8
Layer 1
 62
     1
420
 16711680
370
    35
100
AcDbVertex
100
AcDb2dVertex
 10
19.88790959140334
 20
-6.500683156563026
 30
0.0
  0
VERTEX
  5
5E
330
58
100
AcDbEntity
  8
Layer 1
 62
     1
420
 16711680
370
    35
100
AcDbVertex
100
AcDb2dVertex
 10
19.88790959140334
 20
-6.507534352852101
 30
0.0
  0
VERTEX
  5
5F
330
58
100
AcDbEntity
  8
Layer 1
 62
     1
420
 16711680
370
    35
100
AcDbVertex
100
AcDb2dVertex
 10
19.88790959140334
 20
-6.720682681845144
 30
0.0
  0
VERTEX
  5
60
330
58
100
AcDbEntity
  8
Layer 1
 62
     1
420
 16711680
370
    35
100
AcDbVertex
100
AcDb2dVertex
 10
20.36829526577402
 20
-6.720682681845144
 30
0.0
  0
VERTEX
  5
61
330
58
100
AcDbEntity
  8
Layer 1
 62
     1
420
 16711680
370
    35
100
AcDbVertex
100
AcDb2dVertex
 10
20.36829526577402
 20
-6.507534352852101
 30
0.0
  0
VERTEX
  5
62
330
58
100
AcDbEntity
  8
Layer 1
 62
     1
420
 16711680
370
    35
100
AcDbVertex
100
AcDb2dVertex
 10
21.65822158277708
 20
-6.507534352852101
 30
0.0
  0
VERTEX
  5
63
330
58
100
AcDbEntity
  8
Layer 1
 62
     1
420
 16711680
370
    35
100
AcDbVertex
100
AcDb2dVertex
 10
21.65822158277708
 20
-6.720682681845144
 30
0.0
  0
VERTEX
  5
64
330
58
100
AcDbEntity
  8
Layer 1
 62
     1
420
 16711680
370
    35
100
AcDbVertex
100
AcDb2dVertex
 10
22.1386081048582
 20
-6.720682681845144
 30
0.0
  0
VERTEX
  5
65
330
58
100
AcDbEntity
  8
Layer 1
 62
     1
420
 16711680
370
    35
100
AcDbVertex
100
AcDb2dVertex
 10
22.1386081048582
 20
-6.507534352852101
 30
0.0
  0
VERTEX
  5
66
330
58
100
AcDbEntity
  8
Layer 1
 62
     1
420
 16711680
370
    35
100
AcDbVertex
100
AcDb2dVertex
 10
22.1386081048582
 20
-6.500683156563026
 30
0.0
  0
VERTEX
  5
67
330
58
100
AcDbEntity
  8
Layer 1
 62
     1
420
 16711680
370
    35
100
AcDbVertex
100
AcDb2dVertex
 10
22.1386081048582
 20
-4.014385549141151
 30
0.0
  0
VERTEX
  5
68
330
58
100
AcDbEntity
  8
Layer 1
 62
     1
420
 16711680
370
    35
100
AcDbVertex
100
AcDb2dVertex
 10
22.1386081048582
 20
-4.007534352852101
 30
0.0
  0
VERTEX
  5
69
330
58
100
AcDbEntity
  8
Layer 1
 62
     1
420
 16711680
370
    35
100
AcDbVertex
100
AcDb2dVertex
 10
22.1386081048582
 20
-3.794386023859046
 30
0.0
  0
VERTEX
  5
6A
330
58
100
AcDbEntity
  8
Layer 1
 62
     1
420
 16711680
370
    35
100
AcDbVertex
100
AcDb2dVertex
 10
21.65822158277708
 20
-3.794386023859046
 30
0.0
  0
VERTEX
  5
6B
330
58
100
AcDbEntity
  8
Layer 1
 62
     1
420
 16711680
370
    35
100
AcDbVertex
100
AcDb2dVertex
 10
21.65822158277708
 20
-4.007534352852101
 30
0.0
  0
VERTEX
  5
6C
330
58
100
AcDbEntity
  8
Layer 1
 62
     1
420
 16711680
370
    35
100
AcDbVertex
100
AcDb2dVertex
 10
20.36829526577402
 20
-4.007534352852101
 30
0.0
  0
VERTEX
  5
6D
330
58
100
AcDbEntity
  8
Layer 1
 62
     1
420
 16711680
370
    35
100
AcDbVertex
100
AcDb2dVertex
 10
20.36829526577402
 20
-3.794386023859046
 30
0.0
  0
SEQEND
  5
6E
330
58
100
AcDbEntity
  8
Layer 1
 62
     1
420
 16711680
370
    35
  0
POLYLINE
  5
6F
330
1F
100
AcDbEntity
  8
Layer 1
 62
     1
420
 16711680
370
    35
100
AcDb2dPolyline
 66
     1
 10
0.0
 20
0.0
 30
0.0
  0
VERTEX
  5
70
330
6F
100
AcDbEntity
  8
Layer 1
 62
     1
420
 16711680
370
    35
100
AcDbVertex
100
AcDb2dVertex
 10
23.27219891648514
 20
-0.5356152704099233
 30
0.0
  0
VERTEX
  5
71
330
6F
100
AcDbEntity
  8
Layer 1
 62
     1
420
 16711680
370
    35
100
AcDbVertex
100
AcDb2dVertex
 10
23.27219891648514
 20
-0.3222392729197484
 30
0.0
  0
VERTEX
  5
72
330
6F
100
AcDbEntity
  8
Layer 1
 62
     1
420
 16711680
370
    35
100
AcDbVertex
100
AcDb2dVertex
 10
22.95833333333333
 20
-0.3222392729197484
 30
0.0
  0
VERTEX
  5
73
330
6F
100
AcDbEntity
  8
Layer 1
 62
     1
420
 16711680
370
    35
100
AcDbVertex
100
AcDb2dVertex
 10
22.95833333333333
 20
-0.5356152704099233
 30
0.0
  0
VERTEX
  5
74
330
6F
100
AcDbEntity
  8
Layer 1
 62
     1
420
 16711680
370
    35
100
AcDbVertex
100
AcDb2dVertex
 10
22.40234251398652
 20
-0.5356152704099233
 30
0.0
  0
VERTEX
  5
75
330
6F
100
AcDbEntity
  8
Layer 1
 62
     1
420
 16711680
370
    35
100
AcDbVertex
100
AcDb2dVertex
 10
22.40234251398652
 20
-3.038296378330288
 30
0.0
  0
VERTEX
  5
76
330
6F
100
AcDbEntity
  8
Layer 1
 62
     1
420
 16711680
370
    35
100
AcDbVertex
100
AcDb2dVertex
 10
22.48440410798778
 20
-3.038296378330288
 30
0.0
  0
VERTEX
  5
77
330
6F
100
AcDbEntity
  8
Layer 1
 62
     1
420
 16711680
370
    35
100
AcDbVertex
100
AcDb2dVertex
 10
22.95833333333333
 20
-3.038296378330288
 30
0.0
  0
VERTEX
  5
78
330
6F
100
AcDbEntity
  8
Layer 1
 62
     1
420
 16711680
370
    35
100
AcDbVertex
100
AcDb2dVertex
 10
22.95833333333333
 20
-3.25167322443983
 30
0.0
  0
VERTEX
  5
79
330
6F
100
AcDbEntity
  8
Layer 1
 62
     1
420
 16711680
370
    35
100
AcDbVertex
100
AcDb2dVertex
 10
23.27219891648514
 20
-3.25167322443983
 30
0.0
  0
VERTEX
  5
7A
330
6F
100
AcDbEntity
  8
Layer 1
 62
     1
420
 16711680
370
    35
100
AcDbVertex
100
AcDb2dVertex
 10
23.27219891648514
 20
-3.038296378330288
 30
0.0
  0
VERTEX
  5
7B
330
6F
100
AcDbEntity
  8
Layer 1
 62
     1
420
 16711680
370
    35
100
AcDbVertex
100
AcDb2dVertex
 10
23.43582290473569
 20
-3.038296378330288
 30
0.0
  0
VERTEX
  5
7C
330
6F
100
AcDbEntity
  8
Layer 1
 62
     1
420
 16711680
370
    35
100
AcDbVertex
100
AcDb2dVertex
 10
24.08234251387598
 20
-3.038296378330288
 30
0.0
  0
VERTEX
  5
7D
330
6F
100
AcDbEntity
  8
Layer 1
 62
     1
420
 16711680
370
    35
100
AcDbVertex
100
AcDb2dVertex
 10
24.08234251387598
 20
-0.5356152704099233
 30
0.0
  0
VERTEX
  5
7E
330
6F
100
AcDbEntity
  8
Layer 1
 62
     1
420
 16711680
370
    35
100
AcDbVertex
100
AcDb2dVertex
 10
23.27219891648514
 20
-0.5356152704099233
 30
0.0
  0
SEQEND
  5
7F
330
6F
100
AcDbEntity
  8
Layer 1
 62
     1
420
 16711680
370
    35
  0
POLYLINE
  5
80
330
1F
100
AcDbEntity
  8
Layer 1
 62
     1
420
 16711680
370
    35
100
AcDb2dPolyline
 66
     1
 10
0.0
 20
0.0
 30
0.0
  0
VERTEX
  5
81
330
80
100
AcDbEntity
  8
Layer 1
 62
     1
420
 16711680
370
    35
100
AcDbVertex
100
AcDb2dVertex
 10
23.21248611143263
 20
-4.006193374575079
 30
0.0
  0
VERTEX
  5
82
330
80
100
AcDbEntity
  8
Layer 1
 62
     1
420
 16711680
370
    35
100
AcDbVertex
100
AcDb2dVertex
 10
23.21248611144195
 20
-3.792817377084905
 30
0.0
  0
VERTEX
  5
83
330
80
100
AcDbEntity
  8
Layer 1
 62
     1
420
 16711680
370
    35
100
AcDbVertex
100
AcDb2dVertex
 10
23.52635169459376
 20
-3.792817377099241
 30
0.0
  0
VERTEX
  5
84
330
80
100
AcDbEntity
  8
Layer 1
 62
     1
420
 16711680
370
    35
100
AcDbVertex
100
AcDb2dVertex
 10
23.52635169458431
 20
-4.006193374589391
 30
0.0
  0
VERTEX
  5
85
330
80
100
AcDbEntity
  8
Layer 1
 62
     1
420
 16711680
370
    35
100
AcDbVertex
100
AcDb2dVertex
 10
24.08234251393126
 20
-4.006193374614832
 30
0.0
  0
VERTEX
  5
86
330
80
100
AcDbEntity
  8
Layer 1
 62
     1
420
 16711680
370
    35
100
AcDbVertex
100
AcDb2dVertex
 10
24.0823425138207
 20
-6.508874482535184
 30
0.0
  0
VERTEX
  5
87
330
80
100
AcDbEntity
  8
Layer 1
 62
     1
420
 16711680
370
    35
100
AcDbVertex
100
AcDb2dVertex
 10
24.00028091981943
 20
-6.508874482531446
 30
0.0
  0
VERTEX
  5
88
330
80
100
AcDbEntity
  8
Layer 1
 62
     1
420
 16711680
370
    35
100
AcDbVertex
100
AcDb2dVertex
 10
23.52635169447376
 20
-6.508874482509756
 30
0.0
  0
VERTEX
  5
89
330
80
100
AcDbEntity
  8
Layer 1
 62
     1
420
 16711680
370
    35
100
AcDbVertex
100
AcDb2dVertex
 10
23.52635169446444
 20
-6.72225132861931
 30
0.0
  0
VERTEX
  5
8A
330
80
100
AcDbEntity
  8
Layer 1
 62
     1
420
 16711680
370
    35
100
AcDbVertex
100
AcDb2dVertex
 10
23.21248611131265
 20
-6.722251328604998
 30
0.0
  0
VERTEX
  5
8B
330
80
100
AcDbEntity
  8
Layer 1
 62
     1
420
 16711680
370
    35
100
AcDbVertex
100
AcDb2dVertex
 10
23.21248611132208
 20
-6.508874482495432
 30
0.0
  0
VERTEX
  5
8C
330
80
100
AcDbEntity
  8
Layer 1
 62
     1
420
 16711680
370
    35
100
AcDbVertex
100
AcDb2dVertex
 10
23.04886212307153
 20
-6.508874482487916
 30
0.0
  0
VERTEX
  5
8D
330
80
100
AcDbEntity
  8
Layer 1
 62
     1
420
 16711680
370
    35
100
AcDbVertex
100
AcDb2dVertex
 10
22.40234251393124
 20
-6.508874482458433
 30
0.0
  0
VERTEX
  5
8E
330
80
100
AcDbEntity
  8
Layer 1
 62
     1
420
 16711680
370
    35
100
AcDbVertex
100
AcDb2dVertex
 10
22.40234251404167
 20
-4.00619337453808
 30
0.0
  0
VERTEX
  5
8F
330
80
100
AcDbEntity
  8
Layer 1
 62
     1
420
 16711680
370
    35
100
AcDbVertex
100
AcDb2dVertex
 10
23.21248611143263
 20
-4.006193374575079
 30
0.0
  0
SEQEND
  5
90
330
80
100
AcDbEntity
  8
Layer 1
 62
     1
420
 16711680
370
    35
  0
INSERT
  5
92
330
1F
100
AcDbEntity
  8
Layer 1
100
AcDbBlockReference
  2
block 2
 10
0.0
 20
0.0
 30
0.0
  0
INSERT
  5
A6
330
1F
100
AcDbEntity
  8
Layer 1
100
AcDbBlockReference
  2
block 3
 10
0.0
 20
0.0
 30
0.0
  0
INSERT
  5
BA
330
1F
100
AcDbEntity
  8
Layer 1
100
AcDbBlockReference
  2
block 4
 10
0.0
 20
0.0
 30
0.0
  0
INSERT
  5
115
330
1F
100
AcDbEntity
  8
Layer 1
100
AcDbBlockReference
  2
block 5
 10
0.0
 20
0.0
 30
0.0
  0
ENDSEC
  0
SECTION
  2
OBJECTS
  0
DICTIONARY
  5
C
330
0
100
AcDbDictionary
281
     1
  3
ACAD_GROUP
350
D
  3
ACAD_LAYOUT
350
1A
  3
ACAD_MATERIAL
350
3B
  3
ACAD_MLEADERSTYLE
350
170
  3
ACAD_MLINESTYLE
350
17
  3
ACAD_PLOTSETTINGS
350
19
  3
ACAD_PLOTSTYLENAME
350
E
  3
ACAD_TABLESTYLE
350
16F
  3
ACAD_VISUALSTYLE
350
2A
  0
SUN
  5
3F
330
29
100
AcDbSun
 90
        1
290
     0
 63
     7
421
 16777215
 40
1.0
291
     1
 91
  2455826
 92
 54000000
292
     0
 70
     2
 71
   256
280
     1
  0
DICTIONARY
  5
D
102
{ACAD_REACTORS
330
C
102
}
330
C
100
AcDbDictionary
281
     1
  0
DICTIONARY
  5
1A
102
{ACAD_REACTORS
330
C
102
}
330
C
100
AcDbDictionary
281
     1
  3
Layout1
350
1E
  3
Layout2
350
26
  3
Model
350
22
  0
DICTIONARY
  5
3B
102
{ACAD_REACTORS
330
C
102
}
330
C
100
AcDbDictionary
281
     1
  3
ByBlock
350
3D
  3
ByLayer
350
3C
  3
Global
350
3E
  0
DICTIONARY
  5
170
102
{ACAD_REACTORS
330
C
102
}
330
C
100
AcDbDictionary
281
     1
  0
DICTIONARY
  5
17
102
{ACAD_REACTORS
330
C
102
}
330
C
100
AcDbDictionary
281
     1
  3
Standard
350
18
  0
DICTIONARY
  5
19
102
{ACAD_REACTORS
330
C
102
}
330
C
100
AcDbDictionary
281
     1
  0
ACDBDICTIONARYWDFLT
  5
E
102
{ACAD_REACTORS
330
C
102
}
330
C
100
AcDbDictionary
281
     1
  3
Normal
350
F
100
AcDbDictionaryWithDefault
340
F
  0
DICTIONARY
  5
16F
102
{ACAD_REACTORS
330
C
102
}
330
C
100
AcDbDictionary
281
     1
  0
DICTIONARY
  5
2A
102
{ACAD_REACTORS
330
C
102
}
330
C
100
AcDbDictionary
281
     1
  3
2dWireframe
350
2F
  3
3D Hidden
350
31
  3
3dWireframe
350
30
  3
Basic
350
32
  3
Brighten
350
36
  3
ColorChange
350
3A
  3
Conceptual
350
34
  3
Dim
350
35
  3
Facepattern
350
39
  3
Flat
350
2B
  3
FlatWithEdges
350
2C
  3
Gouraud
350
2D
  3
GouraudWithEdges
350
2E
  3
Linepattern
350
38
  3
Realistic
350
33
  3
Thicken
350
37
  0
LAYOUT
  5
1E
102
{ACAD_REACTORS
330
1A
102
}
330
1A
100
AcDbPlotSettings
  1

  2
none_device
  4

  6

 40
0.0
 41
0.0
 42
0.0
 43
0.0
 44
0.0
 45
0.0
 46
0.0
 47
0.0
 48
0.0
 49
0.0
140
0.0
141
0.0
142
1.0
143
1.0
 70
   688
 72
     0
 73
     0
 74
     5
  7

 75
    16
 76
     0
 77
     2
 78
   300
147
1.0
148
0.0
149
0.0
100
AcDbLayout
  1
Layout1
 70
     1
 71
     1
 10
0.0
 20
0.0
 11
12.0
 21
9.0
 12
0.0
 22
0.0
 32
0.0
 14
1.000000000000000E+20
 24
1.000000000000000E+20
 34
1.000000000000000E+20
 15
-1.000000000000000E+20
 25
-1.000000000000000E+20
 35
-1.000000000000000E+20
146
0.0
 13
0.0
 23
0.0
 33
0.0
 16
1.0
 26
0.0
 36
0.0
 17
0.0
 27
1.0
 37
0.0
 76
     0
330
1B
  0
LAYOUT
  5
26
102
{ACAD_REACTORS
330
1A
102
}
330
1A
100
AcDbPlotSettings
  1

  2
none_device
  4

  6

 40
0.0
 41
0.0
 42
0.0
 43
0.0
 44
0.0
 45
0.0
 46
0.0
 47
0.0
 48
0.0
 49
0.0
140
0.0
141
0.0
142
1.0
143
1.0
 70
   688
 72
     0
 73
     0
 74
     5
  7

 75
    16
 76
     0
 77
     2
 78
   300
147
1.0
148
0.0
149
0.0
100
AcDbLayout
  1
Layout2
 70
     1
 71
     2
 10
0.0
 20
0.0
 11
0.0
 21
0.0
 12
0.0
 22
0.0
 32
0.0
 14
0.0
 24
0.0
 34
0.0
 15
0.0
 25
0.0
 35
0.0
146
0.0
 13
0.0
 23
0.0
 33
0.0
 16
1.0
 26
0.0
 36
0.0
 17
0.0
 27
1.0
 37
0.0
 76
     0
330
23
  0
LAYOUT
  5
22
102
{ACAD_REACTORS
330
1A
102
}
330
1A
100
AcDbPlotSettings
  1

  2
none_device
  4

  6

 40
0.0
 41
0.0
 42
0.0
 43
0.0
 44
0.0
 45
0.0
 46
0.0
 47
0.0
 48
0.0
 49
0.0
140
0.0
141
0.0
142
1.0
143
1.0
 70
  1712
 72
     0
 73
     0
 74
     0
  7

 75
     0
 76
     0
 77
     2
 78
   300
147
1.0
148
0.0
149
0.0
100
AcDbLayout
  1
Model
 70
     1
 71
     0
 10
0.0
 20
0.0
 11
12.0
 21
9.0
 12
0.0
 22
0.0
 32
0.0
 14
1.000000000000000E+20
 24
1.000000000000000E+20
 34
1.000000000000000E+20
 15
-1.000000000000000E+20
 25
-1.000000000000000E+20
 35
-1.000000000000000E+20
146
0.0
 13
0.0
 23
0.0
 33
0.0
 16
1.0
 26
0.0
 36
0.0
 17
0.0
 27
1.0
 37
0.0
 76
     0
330
1F
331
29
  0
MATERIAL
  5
3D
102
{ACAD_REACTORS
330
3B
102
}
330
3B
100
AcDbMaterial
  1
ByBlock
 72
     1
 94
      127
  0
MATERIAL
  5
3C
102
{ACAD_REACTORS
330
3B
102
}
330
3B
100
AcDbMaterial
  1
ByLayer
 72
     1
 94
      127
  0
MATERIAL
  5
3E
102
{ACAD_REACTORS
330
3B
102
}
330
3B
100
AcDbMaterial
  1
Global
 72
     1
 94
      127
  0
MLINESTYLE
  5
18
102
{ACAD_REACTORS
330
17
102
}
330
17
100
AcDbMlineStyle
  2
Standard
 70
     0
  3

 62
   256
 51
90.0
 52
90.0
 71
     2
 49
0.5
 62
   256
  6
BYLAYER
 49
-0.5
 62
   256
  6
BYLAYER
  0
ACDBPLACEHOLDER
  5
F
102
{ACAD_REACTORS
330
E
102
}
330
E
  0
VISUALSTYLE
  5
2F
102
{ACAD_REACTORS
330
2A
102
}
330
2A
100
AcDbVisualStyle
  2
2dWireframe
 70
     4
177
     2
291
     0
 71
     0
176
     1
 72
     2
176
     1
 73
     0
176
     1
 90
        0
176
     1
 40
-0.6
176
     1
 41
-30.0
176
     1
 62
     5
 63
     7
421
 16777215
176
     1
 74
     1
176
     1
 91
        4
176
     1
 64
     7
176
     1
 65
   257
176
     1
 75
     1
176
     1
175
     1
176
     1
 42
1.0
176
     1
 92
        0
176
     1
 66
   257
176
     1
 43
1.0
176
     1
 76
     1
176
     1
 77
     6
176
     1
 78
     2
176
     1
 67
     7
176
     1
 79
     5
176
     1
170
     0
176
     1
171
     0
176
     1
290
     0
176
     1
 93
        1
176
     1
 44
0.0
176
     1
173
     0
176
     1
  0
VISUALSTYLE
  5
31
102
{ACAD_REACTORS
330
2A
102
}
330
2A
100
AcDbVisualStyle
  2
3D Hidden
 70
     6
177
     2
291
     0
 71
     1
176
     1
 72
     2
176
     1
 73
     2
176
     1
 90
        0
176
     1
 40
-0.6
176
     1
 41
-30.0
176
     1
 62
     5
 63
     7
421
 16777215
176
     1
 74
     2
176
     1
 91
        2
176
     1
 64
     7
176
     1
 65
   257
176
     1
 75
     2
176
     1
175
     1
176
     1
 42
40.0
176
     1
 92
        0
176
     1
 66
   257
176
     1
 43
1.0
176
     1
 76
     1
176
     1
 77
     6
176
     1
 78
     2
176
     1
 67
     7
176
     1
 79
     3
176
     1
170
     0
176
     1
171
     0
176
     1
290
     0
176
     1
 93
        1
176
     1
 44
0.0
176
     1
173
     0
176
     1
  0
VISUALSTYLE
  5
30
102
{ACAD_REACTORS
330
2A
102
}
330
2A
100
AcDbVisualStyle
  2
3dWireframe
 70
     5
177
     2
291
     0
 71
     0
176
     1
 72
     2
176
     1
 73
     0
176
     1
 90
        0
176
     1
 40
-0.6
176
     1
 41
-30.0
176
     1
 62
     5
 63
     7
421
 16777215
176
     1
 74
     1
176
     1
 91
        4
176
     1
 64
     7
176
     1
 65
   257
176
     1
 75
     1
176
     1
175
     1
176
     1
 42
1.0
176
     1
 92
        0
176
     1
 66
   257
176
     1
 43
1.0
176
     1
 76
     1
176
     1
 77
     6
176
     1
 78
     2
176
     1
 67
     7
176
     1
 79
     5
176
     1
170
     0
176
     1
171
     0
176
     1
290
     0
176
     1
 93
        1
176
     1
 44
0.0
176
     1
173
     0
176
     1
  0
VISUALSTYLE
  5
32
102
{ACAD_REACTORS
330
2A
102
}
330
2A
100
AcDbVisualStyle
  2
Basic
 70
     7
177
     2
291
     1
 71
     1
176
     1
 72
     0
176
     1
 73
     1
176
     1
 90
        0
176
     1
 40
-0.6
176
     1
 41
-30.0
176
     1
 62
     5
 63
     7
421
 16777215
176
     1
 74
     0
176
     1
 91
        4
176
     1
 64
     7
176
     1
 65
   257
176
     1
 75
     1
176
     1
175
     1
176
     1
 42
1.0
176
     1
 92
        8
176
     1
 66
     7
176
     1
 43
1.0
176
     1
 76
     1
176
     1
 77
     6
176
     1
 78
     2
176
     1
 67
     7
176
     1
 79
     5
176
     1
170
     0
176
     1
171
     0
176
     1
290
     0
176
     1
 93
        1
176
     1
 44
0.0
176
     1
173
     0
176
     1
  0
VISUALSTYLE
  5
36
102
{ACAD_REACTORS
330
2A
102
}
330
2A
100
AcDbVisualStyle
  2
Brighten
 70
    12
177
     2
291
     1
 71
     2
176
     1
 72
     2
176
     1
 73
     0
176
     1
 90
        0
176
     1
 40
-0.6
176
     1
 41
-30.0
176
     1
 62
     5
 63
     7
421
 16777215
176
     1
 74
     1
176
     1
 91
        4
176
     1
 64
     7
176
     1
 65
   257
176
     1
 75
     1
176
     1
175
     1
176
     1
 42
1.0
176
     1
 92
        8
176
     1
 66
     7
176
     1
 43
1.0
176
     1
 76
     1
176
     1
 77
     6
176
     1
 78
     2
176
     1
 67
     7
176
     1
 79
     5
176
     1
170
     0
176
     1
171
     0
176
     1
290
     0
176
     1
 93
        1
176
     1
 44
50.0
176
     1
173
     0
176
     1
  0
VISUALSTYLE
  5
3A
102
{ACAD_REACTORS
330
2A
102
}
330
2A
100
AcDbVisualStyle
  2
ColorChange
 70
    16
177
     2
291
     1
 71
     2
176
     1
 72
     2
176
     1
 73
     3
176
     1
 90
        0
176
     1
 40
-0.6
176
     1
 41
-30.0
176
     1
 62
     5
 63
     8
421
  8421504
176
     1
 74
     1
176
     1
 91
        4
176
     1
 64
     7
176
     1
 65
   257
176
     1
 75
     1
176
     1
175
     1
176
     1
 42
1.0
176
     1
 92
        8
176
     1
 66
     8
424
  8421504
176
     1
 43
1.0
176
     1
 76
     1
176
     1
 77
     6
176
     1
 78
     2
176
     1
 67
     7
176
     1
 79
     5
176
     1
170
     0
176
     1
171
     0
176
     1
290
     0
176
     1
 93
        1
176
     1
 44
0.0
176
     1
173
     0
176
     1
  0
VISUALSTYLE
  5
34
102
{ACAD_REACTORS
330
2A
102
}
330
2A
100
AcDbVisualStyle
  2
Conceptual
 70
     9
177
     2
291
     0
 71
     3
176
     1
 72
     2
176
     1
 73
     0
176
     1
 90
        0
176
     1
 40
-0.6
176
     1
 41
-30.0
176
     1
 62
     5
 63
     7
421
 16777215
176
     1
 74
     2
176
     1
 91
        2
176
     1
 64
     7
176
     1
 65
   257
176
     1
 75
     1
176
     1
175
     1
176
     1
 42
40.0
176
     1
 92
        8
176
     1
 66
     7
176
     1
 43
1.0
176
     1
 76
     1
176
     1
 77
     6
176
     1
 78
     2
176
     1
 67
     7
176
     1
 79
     3
176
     1
170
     0
176
     1
171
     0
176
     1
290
     0
176
     1
 93
        1
176
     1
 44
0.0
176
     1
173
     0
176
     1
  0
VISUALSTYLE
  5
35
102
{ACAD_REACTORS
330
2A
102
}
330
2A
100
AcDbVisualStyle
  2
Dim
 70
    11
177
     2
291
     1
 71
     2
176
     1
 72
     2
176
     1
 73
     0
176
     1
 90
        0
176
     1
 40
-0.6
176
     1
 41
-30.0
176
     1
 62
     5
 63
     7
421
 16777215
176
     1
 74
     1
176
     1
 91
        4
176
     1
 64
     7
176
     1
 65
   257
176
     1
 75
     1
176
     1
175
     1
176
     1
 42
1.0
176
     1
 92
        8
176
     1
 66
     7
176
     1
 43
1.0
176
     1
 76
     1
176
     1
 77
     6
176
     1
 78
     2
176
     1
 67
     7
176
     1
 79
     5
176
     1
170
     0
176
     1
171
     0
176
     1
290
     0
176
     1
 93
        1
176
     1
 44
-50.0
176
     1
173
     0
176
     1
  0
VISUALSTYLE
  5
39
102
{ACAD_REACTORS
330
2A
102
}
330
2A
100
AcDbVisualStyle
  2
Facepattern
 70
    15
177
     2
291
     1
 71
     2
176
     1
 72
     2
176
     1
 73
     0
176
     1
 90
        0
176
     1
 40
-0.6
176
     1
 41
-30.0
176
     1
 62
     5
 63
     7
421
 16777215
176
     1
 74
     1
176
     1
 91
        4
176
     1
 64
     7
176
     1
 65
   257
176
     1
 75
     1
176
     1
175
     1
176
     1
 42
1.0
176
     1
 92
        8
176
     1
 66
     7
176
     1
 43
1.0
176
     1
 76
     1
176
     1
 77
     6
176
     1
 78
     2
176
     1
 67
     7
176
     1
 79
     5
176
     1
170
     0
176
     1
171
     0
176
     1
290
     0
176
     1
 93
        1
176
     1
 44
0.0
176
     1
173
     0
176
     1
  0
VISUALSTYLE
  5
2B
102
{ACAD_REACTORS
330
2A
102
}
330
2A
100
AcDbVisualStyle
  2
Flat
 70
     0
177
     2
291
     1
 71
     2
176
     1
 72
     1
176
     1
 73
     1
176
     1
 90
        2
176
     1
 40
-0.6
176
     1
 41
30.0
176
     1
 62
     5
 63
     7
421
 16777215
176
     1
 74
     0
176
     1
 91
        4
176
     1
 64
     7
176
     1
 65
   257
176
     1
 75
     1
176
     1
175
     1
176
     1
 42
1.0
176
     1
 92
        8
176
     1
 66
     7
176
     1
 43
1.0
176
     1
 76
     1
176
     1
 77
     6
176
     1
 78
     2
176
     1
 67
     7
176
     1
 79
     5
176
     1
170
     0
176
     1
171
     0
176
     1
290
     0
176
     1
 93
       13
176
     1
 44
0.0
176
     1
173
     0
176
     1
  0
VISUALSTYLE
  5
2C
102
{ACAD_REACTORS
330
2A
102
}
330
2A
100
AcDbVisualStyle
  2
FlatWithEdges
 70
     1
177
     2
291
     1
 71
     2
176
     1
 72
     1
176
     1
 73
     1
176
     1
 90
        2
176
     1
 40
-0.6
176
     1
 41
30.0
176
     1
 62
     5
 63
     7
421
 16777215
176
     1
 74
     1
176
     1
 91
        4
176
     1
 64
     7
176
     1
 65
   257
176
     1
 75
     1
176
     1
175
     1
176
     1
 42
1.0
176
     1
 92
        0
176
     1
 66
   257
176
     1
 43
1.0
176
     1
 76
     1
176
     1
 77
     6
176
     1
 78
     2
176
     1
 67
     7
176
     1
 79
     5
176
     1
170
     0
176
     1
171
     0
176
     1
290
     0
176
     1
 93
       13
176
     1
 44
0.0
176
     1
173
     0
176
     1
  0
VISUALSTYLE
  5
2D
102
{ACAD_REACTORS
330
2A
102
}
330
2A
100
AcDbVisualStyle
  2
Gouraud
 70
     2
177
     2
291
     1
 71
     2
176
     1
 72
     2
176
     1
 73
     1
176
     1
 90
        2
176
     1
 40
-0.6
176
     1
 41
30.0
176
     1
 62
     5
 63
     7
421
 16777215
176
     1
 74
     0
176
     1
 91
        4
176
     1
 64
     7
176
     1
 65
   257
176
     1
 75
     1
176
     1
175
     1
176
     1
 42
1.0
176
     1
 92
        0
176
     1
 66
     7
176
     1
 43
1.0
176
     1
 76
     1
176
     1
 77
     6
176
     1
 78
     2
176
     1
 67
     7
176
     1
 79
     5
176
     1
170
     0
176
     1
171
     0
176
     1
290
     0
176
     1
 93
       13
176
     1
 44
0.0
176
     1
173
     0
176
     1
  0
VISUALSTYLE
  5
2E
102
{ACAD_REACTORS
330
2A
102
}
330
2A
100
AcDbVisualStyle
  2
GouraudWithEdges
 70
     3
177
     2
291
     1
 71
     2
176
     1
 72
     2
176
     1
 73
     1
176
     1
 90
        2
176
     1
 40
-0.6
176
     1
 41
30.0
176
     1
 62
     5
 63
     7
421
 16777215
176
     1
 74
     1
176
     1
 91
        4
176
     1
 64
     7
176
     1
 65
   257
176
     1
 75
     1
176
     1
175
     1
176
     1
 42
1.0
176
     1
 92
        0
176
     1
 66
   257
176
     1
 43
1.0
176
     1
 76
     1
176
     1
 77
     6
176
     1
 78
     2
176
     1
 67
     7
176
     1
 79
     5
176
     1
170
     0
176
     1
171
     0
176
     1
290
     0
176
     1
 93
       13
176
     1
 44
0.0
176
     1
173
     0
176
     1
  0
VISUALSTYLE
  5
38
102
{ACAD_REACTORS
330
2A
102
}
330
2A
100
AcDbVisualStyle
  2
Linepattern
 70
    14
177
     2
291
     1
 71
     2
176
     1
 72
     2
176
     1
 73
     0
176
     1
 90
        0
176
     1
 40
-0.6
176
     1
 41
-30.0
176
     1
 62
     5
 63
     7
421
 16777215
176
     1
 74
     1
176
     1
 91
        4
176
     1
 64
     7
176
     1
 65
   257
176
     1
 75
     7
176
     1
175
     7
176
     1
 42
1.0
176
     1
 92
        8
176
     1
 66
     7
176
     1
 43
1.0
176
     1
 76
     1
176
     1
 77
     6
176
     1
 78
     2
176
     1
 67
     7
176
     1
 79
     5
176
     1
170
     0
176
     1
171
     0
176
     1
290
     0
176
     1
 93
        1
176
     1
 44
0.0
176
     1
173
     0
176
     1
  0
VISUALSTYLE
  5
33
102
{ACAD_REACTORS
330
2A
102
}
330
2A
100
AcDbVisualStyle
  2
Realistic
 70
     8
177
     2
291
     0
 71
     2
176
     1
 72
     2
176
     1
 73
     0
176
     1
 90
        0
176
     1
 40
-0.6
176
     1
 41
-30.0
176
     1
 62
     5
 63
     7
421
 16777215
176
     1
 74
     1
176
     1
 91
        0
176
     1
 64
     7
176
     1
 65
   257
176
     1
 75
     1
176
     1
175
     1
176
     1
 42
1.0
176
     1
 92
        8
176
     1
 66
     8
424
  7895160
176
     1
 43
1.0
176
     1
 76
     1
176
     1
 77
     6
176
     1
 78
     2
176
     1
 67
     7
176
     1
 79
     5
176
     1
170
     0
176
     1
171
     0
176
     1
290
     0
176
     1
 93
       13
176
     1
 44
0.0
176
     1
173
     0
176
     1
  0
VISUALSTYLE
  5
37
102
{ACAD_REACTORS
330
2A
102
}
330
2A
100
AcDbVisualStyle
  2
Thicken
 70
    13
177
     2
291
     1
 71
     2
176
     1
 72
     2
176
     1
 73
     0
176
     1
 90
        0
176
     1
 40
-0.6
176
     1
 41
-30.0
176
     1
 62
     5
 63
     7
421
 16777215
176
     1
 74
     1
176
     1
 91
        4
176
     1
 64
     7
176
     1
 65
   257
176
     1
 75
     1
176
     1
175
     1
176
     1
 42
1.0
176
     1
 92
       12
176
     1
 66
     7
176
     1
 43
1.0
176
     1
 76
     1
176
     1
 77
     6
176
     1
 78
     2
176
     1
 67
     7
176
     1
 79
     5
176
     1
170
     0
176
     1
171
     0
176
     1
290
     0
176
     1
 93
        1
176
     1
 44
0.0
176
     1
173
     0
176
     1
  0
ENDSEC
  0
EOF
