  0
SECTION
  2
HEADER
  9
$ACADVER
  1
AC1009
  9
$EXTMIN
 10
37.52081111
 20
23.71100000
 30
0.0
  9
$EXTMAX
 10
97.41318889
 20
197.26700000
 30
0.0
  0
ENDSEC
  0
SECTION
  2
TABLES
  0
TABLE
  2
LAYER
 70
1
 0
LAYER
 2
�� ���������
 70
0
 62
1
 6
CONTINUOUS
 0
ENDTAB
 0
ENDSEC
  0
SECTION
  2
ENTITIES
  0
POLYLINE
  8
�� ���������
 66
   1
 39
0.000000
 70
    1
  0
VERTEX
  8
0
 10
67.46700000
 20
172.09100000
  0
VERTEX
  8
0
 10
79.62816534
 20
141.29000000
  0
VERTEX
  8
0
 10
67.46700000
 20
110.48900000
  0
VERTEX
  8
0
 10
55.30583466
 20
141.29000000
  0
VERTEX
  8
0
 10
67.46700000
 20
172.09100000
  0
SEQEND
  0
POLYLINE
  8
�� ���������
 66
   1
 39
0.000000
 70
    1
  0
VERTEX
  8
0
 10
67.46700000
 20
48.88700000
  0
VERTEX
  8
0
 10
79.62816534
 20
79.68800000
  0
VERTEX
  8
0
 10
67.46700000
 20
110.48900000
  0
VERTEX
  8
0
 10
55.30583466
 20
79.68800000
  0
VERTEX
  8
0
 10
67.46700000
 20
48.88700000
  0
SEQEND
  0
POLYLINE
  8
�� ���������
 66
   1
 39
0.000000
 70
    0
  0
VERTEX
  8
0
 10
89.71100000
 20
184.92003333
  0
VERTEX
  8
0
 10
89.71100000
 20
197.26700000
  0
VERTEX
  8
0
 10
45.22300000
 20
197.26700000
  0
VERTEX
  8
0
 10
45.22300000
 20
110.48900000
  0
VERTEX
  8
0
 10
45.22300000
 20
23.71100000
  0
VERTEX
  8
0
 10
89.71100000
 20
23.71100000
  0
VERTEX
  8
0
 10
89.71100000
 20
110.48900000
  0
VERTEX
  8
0
 10
89.71100000
 20
154.12441111
  0
SEQEND
  0
POLYLINE
  8
�� ���������
 66
   1
 39
0.000000
 70
    1
  0
VERTEX
  8
0
 10
89.71318889
 20
184.92222222
  0
VERTEX
  8
0
 10
97.41318889
 20
177.22222222
  0
VERTEX
  8
0
 10
89.71318889
 20
169.52222222
  0
VERTEX
  8
0
 10
82.01318889
 20
177.22222222
  0
VERTEX
  8
0
 10
89.71318889
 20
184.92222222
  0
SEQEND
  0
POLYLINE
  8
�� ���������
 66
   1
 39
0.000000
 70
    1
  0
VERTEX
  8
0
 10
89.71318889
 20
154.12222222
  0
VERTEX
  8
0
 10
97.41318889
 20
161.82222222
  0
VERTEX
  8
0
 10
89.71318889
 20
169.52222222
  0
VERTEX
  8
0
 10
82.01318889
 20
161.82222222
  0
VERTEX
  8
0
 10
89.71318889
 20
154.12222222
  0
SEQEND
  0
POLYLINE
  8
�� ���������
 66
   1
 39
0.000000
 70
    1
  0
VERTEX
  8
0
 10
89.71309224
 20
165.76222222
  0
VERTEX
  8
0
 10
93.47309224
 20
169.52222222
  0
VERTEX
  8
0
 10
89.71309224
 20
173.28222222
  0
VERTEX
  8
0
 10
85.95309224
 20
169.52222222
  0
VERTEX
  8
0
 10
89.71309224
 20
165.76222222
  0
SEQEND
  0
POLYLINE
  8
�� ���������
 66
   1
 39
0.000000
 70
    0
  0
VERTEX
  8
0
 10
89.71100000
 20
169.52003333
  0
VERTEX
  8
0
 10
89.71100000
 20
169.52441111
  0
SEQEND
  0
POLYLINE
  8
�� ���������
 66
   1
 39
0.000000
 70
    1
  0
VERTEX
  8
0
 10
45.22081111
 20
36.05577778
  0
VERTEX
  8
0
 10
37.52081111
 20
43.75577778
  0
VERTEX
  8
0
 10
45.22081111
 20
51.45577778
  0
VERTEX
  8
0
 10
52.92081111
 20
43.75577778
  0
VERTEX
  8
0
 10
45.22081111
 20
36.05577778
  0
SEQEND
  0
POLYLINE
  8
�� ���������
 66
   1
 39
0.000000
 70
    1
  0
VERTEX
  8
0
 10
45.22081111
 20
66.85577778
  0
VERTEX
  8
0
 10
37.52081111
 20
59.15577778
  0
VERTEX
  8
0
 10
45.22081111
 20
51.45577778
  0
VERTEX
  8
0
 10
52.92081111
 20
59.15577778
  0
VERTEX
  8
0
 10
45.22081111
 20
66.85577778
  0
SEQEND
  0
POLYLINE
  8
�� ���������
 66
   1
 39
0.000000
 70
    1
  0
VERTEX
  8
0
 10
45.22090776
 20
55.21577778
  0
VERTEX
  8
0
 10
41.46090776
 20
51.45577778
  0
VERTEX
  8
0
 10
45.22090776
 20
47.69577778
  0
VERTEX
  8
0
 10
48.98090776
 20
51.45577778
  0
VERTEX
  8
0
 10
45.22090776
 20
55.21577778
  0
SEQEND
  0
POLYLINE
  8
�� ���������
 66
   1
 39
0.000000
 70
    0
  0
VERTEX
  8
0
 10
45.22300000
 20
51.45796667
  0
VERTEX
  8
0
 10
45.22300000
 20
51.45358889
  0
SEQEND
  0
ENDSEC
  0
EOF
