  0
SECTION
  2
HEADER
  9
$ACADVER
  1
AC1015
  9
$ACADMAINTVER
 70
     6
  9
$DWGCODEPAGE
  3
DOS850
  9
$INSBASE
 10
0.0
 20
0.0
 30
0.0
  9
$EXTMIN
 10
-7.67061
 20
-5.82224
 30
1.000000E 20
  9
$EXTMAX
 10
7.67602
 20
5.81603
 30
-1.000000E 20
  9
$LIMMIN
 10
0.0
 20
0.0
  9
$LIMMAX
 10
0.0
 20
0.0
  9
$ORTHOMODE
 70
     0
  9
$REGENMODE
 70
     1
  9
$FILLMODE
 70
     1
  9
$QTEXTMODE
 70
     0
  9
$MIRRTEXT
 70
     1
  9
$LTSCALE
 40
1.0
  9
$ATTMODE
 70
     1
  9
$TEXTSIZE
 40
0.2
  9
$TRACEWID
 40
0.05
  9
$TEXTSTYLE
  7
Standard
  9
$CLAYER
  8
0
  9
$CELTYPE
  6
Continuous
  9
$CECOLOR
 62
   256
  9
$CELTSCALE
 40
1.0
  9
$DISPSILH
 70
     0
  9
$DIMSCALE
 40
1.0
  9
$DIMASZ
 40
0.18
  9
$DIMEXO
 40
0.0625
  9
$DIMDLI
 40
0.38
  9
$DIMRND
 40
0.0
  9
$DIMDLE
 40
0.0
  9
$DIMEXE
 40
0.18
  9
$DIMTP
 40
0.0
  9
$DIMTM
 40
0.0
  9
$DIMTXT
 40
0.18
  9
$DIMCEN
 40
0.09
  9
$DIMTSZ
 40
0.0
  9
$DIMTOL
 70
     0
  9
$DIMLIM
 70
     0
  9
$DIMTIH
 70
     1
  9
$DIMTOH
 70
     1
  9
$DIMSE1
 70
     0
  9
$DIMSE2
 70
     0
  9
$DIMTAD
 70
     0
  9
$DIMZIN
 70
     0
  9
$DIMBLK
  1

  9
$DIMASO
 70
     1
  9
$DIMSHO
 70
     1
  9
$DIMPOST
  1

  9
$DIMAPOST
  1

  9
$DIMALT
 70
     0
  9
$DIMALTD
 70
     2
  9
$DIMALTF
 40
25.4
  9
$DIMLFAC
 40
1.0
  9
$DIMTOFL
 70
     0
  9
$DIMTVP
 40
0.0
  9
$DIMTIX
 70
     0
  9
$DIMSOXD
 70
     0
  9
$DIMSAH
 70
     0
  9
$DIMBLK1
  1

  9
$DIMBLK2
  1

  9
$DIMSTYLE
  2
Standard
  9
$DIMCLRD
 70
     0
  9
$DIMCLRE
 70
     0
  9
$DIMCLRT
 70
     0
  9
$DIMTFAC
 40
1.0
  9
$DIMGAP
 40
0.09
  9
$DIMJUST
 70
     0
  9
$DIMSD1
 70
     0
  9
$DIMSD2
 70
     0
  9
$DIMTOLJ
 70
     1
  9
$DIMTZIN
 70
     0
  9
$DIMALTZ
 70
     0
  9
$DIMALTTZ
 70
     0
  9
$DIMUPT
 70
     0
  9
$DIMDEC
 70
     4
  9
$DIMTDEC
 70
     4
  9
$DIMALTU
 70
     2
  9
$DIMALTTD
 70
     2
  9
$DIMTXSTY
  7
Standard
  9
$DIMAUNIT
 70
     0
  9
$DIMADEC
 70
     0
  9
$DIMALTRND
 40
0.0
  9
$DIMAZIN
 70
     0
  9
$DIMDSEP
 70
     0
  9
$DIMATFIT
 70
     3
  9
$DIMFRAC
 70
     0
  9
$DIMLDRBLK
  1

  9
$DIMLUNIT
 70
     2
  9
$DIMLWD
 70
     0
  9
$DIMLWE
 70
     0
  9
$DIMTMOVE
 70
     0
  9
$LUNITS
 70
     2
  9
$LUPREC
 70
     4
  9
$SKETCHINC
 40
0.1
  9
$FILLETRAD
 40
0.0
  9
$AUNITS
 70
     0
  9
$AUPREC
 70
     0
  9
$MENU
  1
acad
  9
$ELEVATION
 40
0.0
  9
$PELEVATION
 40
0.0
  9
$THICKNESS
 40
0.0
  9
$LIMCHECK
 70
     0
  9
$CHAMFERA
 40
0.0
  9
$CHAMFERB
 40
0.0
  9
$CHAMFERC
 40
0.0
  9
$CHAMFERD
 40
0.0
  9
$SKPOLY
 70
     0
  9
$TDCREATE
 40
0.000000000
  9
$TDUCREATE
 40
0.000000000
  9
$TDUPDATE
 40
0.000000000
  9
$TDUUPDATE
 40
0.000000000
  9
$TDINDWG
 40
0.0000000000
  9
$TDUSRTIMER
 40
0.0000000000
  9
$USRTIMER
 70
     1
  9
$ANGBASE
 50
0.0
  9
$ANGDIR
 70
     0
  9
$PDMODE
 70
     0
  9
$PDSIZE
 40
0.0
  9
$PLINEWID
 40
0.0
  9
$SPLFRAME
 70
     0
  9
$SPLINETYPE
 70
     6
  9
$SPLINESEGS
 70
     8
  9
$HANDSEED
  5
53
  9
$SURFTAB1
 70
     6
  9
$SURFTAB2
 70
     6
  9
$SURFTYPE
 70
     6
  9
$SURFU
 70
     6
  9
$SURFV
 70
     6
  9
$UCSBASE
  2

  9
$UCSNAME
  2

  9
$UCSORG
 10
0.0
 20
0.0
 30
0.0
  9
$UCSXDIR
 10
1.0
 20
0.0
 30
0.0
  9
$UCSYDIR
 10
0.0
 20
1.0
 30
0.0
  9
$UCSORTHOREF
  2

  9
$UCSORTHOVIEW
 70
     0
  9
$UCSORGTOP
 10
0.0
 20
0.0
 30
0.0
  9
$UCSORGBOTTOM
 10
0.0
 20
0.0
 30
0.0
  9
$UCSORGLEFT
 10
0.0
 20
0.0
 30
0.0
  9
$UCSORGRIGHT
 10
0.0
 20
0.0
 30
0.0
  9
$UCSORGFRONT
 10
0.0
 20
0.0
 30
0.0
  9
$UCSORGBACK
 10
0.0
 20
0.0
 30
0.0
  9
$PUCSBASE
  2

  9
$PUCSNAME
  2

  9
$PUCSORG
 10
0.0
 20
0.0
 30
0.0
  9
$PUCSXDIR
 10
1.0
 20
0.0
 30
0.0
  9
$PUCSYDIR
 10
0.0
 20
1.0
 30
0.0
  9
$PUCSORTHOREF
  2

  9
$PUCSORTHOVIEW
 70
     0
  9
$PUCSORGTOP
 10
0.0
 20
0.0
 30
0.0
  9
$PUCSORGBOTTOM
 10
0.0
 20
0.0
 30
0.0
  9
$PUCSORGLEFT
 10
0.0
 20
0.0
 30
0.0
  9
$PUCSORGRIGHT
 10
0.0
 20
0.0
 30
0.0
  9
$PUCSORGFRONT
 10
0.0
 20
0.0
 30
0.0
  9
$PUCSORGBACK
 10
0.0
 20
0.0
 30
0.0
  9
$USERI1
 70
     0
  9
$USERI2
 70
     0
  9
$USERI3
 70
     0
  9
$USERI4
 70
     0
  9
$USERI5
 70
     0
  9
$USERR1
 40
0.0
  9
$USERR2
 40
0.0
  9
$USERR3
 40
0.0
  9
$USERR4
 40
0.0
  9
$USERR5
 40
0.0
  9
$WORLDVIEW
 70
     1
  9
$SHADEDGE
 70
     3
  9
$SHADEDIF
 70
    70
  9
$TILEMODE
 70
     1
  9
$MAXACTVP
 70
    16
  9
$PINSBASE
 10
0.0
 20
0.0
 30
0.0
  9
$PLIMCHECK
 70
     0
  9
$PEXTMIN
 10
1.000000E 20
 20
1.000000E 20
 30
1.000000E 20
  9
$PEXTMAX
 10
-1.000000E 20
 20
-1.000000E 20
 30
-1.000000E 20
  9
$PLIMMIN
 10
0.0
 20
0.0
  9
$PLIMMAX
 10
12.0
 20
9.0
  9
$UNITMODE
 70
     0
  9
$VISRETAIN
 70
     0
  9
$PLINEGEN
 70
     1
  9
$PSLTSCALE
 70
     0
  9
$TREEDEPTH
 70
  3020
  9
$CMLSTYLE
  2
Standard
  9
$CMLJUST
 70
     0
  9
$CMLSCALE
 40
1.0
  9
$PROXYGRAPHICS
 70
     0
  9
$MEASUREMENT
 70
     0
  9
$CELWEIGHT
370
     0
  9
$ENDCAPS
280
     0
  9
$JOINSTYLE
280
     0
  9
$LWDISPLAY
290
     0
  9
$INSUNITS
 70
     5
  9
$HYPERLINKBASE
  1

  9
$XEDIT
290
     1
  9
$CEPSNTYPE
380
     0
  9
$PSTYLEMODE
290
     1
  9
$FINGERPRINTGUID
  2

  9
$VERSIONGUID
  2

  9
$EXTNAMES
290
     1
  9
$PSVPSCALE
 40
0.0
  0
ENDSEC
  0
SECTION
  2
CLASSES
  0
CLASS
  1
LWPOLYLINE
  2
AcDbPolyline
  3
AutoCAD 2000
 90
    32768
280
     0
281
     1
  0
CLASS
  1
IMAGE
  2
AcDbRasterImage
  3
ISM
 90
    32895
280
     0
281
     1
  0
CLASS
  1
OLE2FRAME
  2
AcDbOle2Frame
  3
AutoCAD 2000
 90
    32768
280
     0
281
     1
  0
CLASS
  1
HATCH
  2
AcDbHatch
  3
AutoCAD 2000
 90
    32768
280
     0
281
     1
  0
CLASS
  1
DICTIONARYVAR
  2
AcDbDictionaryVar
  3
AutoCAD 2000
 90
    32768
280
     0
281
     0
  0
CLASS
  1
RASTERVARIABLES
  2
AcDbRasterVariables
  3
ISM
 90
    32768
280
     0
281
     0
  0
CLASS
  1
IMAGEDEF
  2
AcDbRasterImageDef
  3
ISM
 90
    32768
280
     0
281
     0
  0
CLASS
  1
IMAGEDEF_REACTOR
  2
AcDbRasterImageDefReactor
  3
ISM
 90
    32769
280
     0
281
     0
  0
CLASS
  1
IDBUFFER
  2
AcDbIdBuffer
  3
AutoCAD 2000
 90
    32768
280
     0
281
     0
  0
CLASS
  1
SPATIAL_FILTER
  2
AcDbSpatialFilter
  3
AutoCAD 2000
 90
    32768
280
     0
281
     0
  0
CLASS
  1
XRECORD
  2
AcDbXrecord
  3
AutoCAD 2000
 90
    32768
280
     0
281
     0
  0
CLASS
  1
SORTENTSTABLE
  2
AcDbSortentsTable
  3
AutoCAD 2000
 90
    32768
280
     0
281
     0
  0
CLASS
  1
LAYER_INDEX
  2
AcDbLayerIndex
  3
AutoCAD 2000
 90
    32768
280
     0
281
     0
  0
CLASS
  1
SPATIAL_INDEX
  2
AcDbSpatialIndex
  3
AutoCAD 2000
 90
    32768
280
     0
281
     0
  0
CLASS
  1
OBJECT_PTR
  2
CAseDLPNTableRecord
  3
\"ASE-LPNTableRecord\"
 90
    32769
280
     0
281
     0
  0
CLASS
  1
LAYOUT
  2
AcDbLayout
  3
AutoCAD 2000
 90
        0
280
     0
281
     0
  0
CLASS
  1
PLOTSETTINGS
  2
AcDbPlotSettings
  3
AutoCAD 2000
 90
    32768
280
     0
281
     0
  0
CLASS
  1
ACDBDICTIONARYWDFLT
  2
AcDbDictionaryWithDefault
  3
AutoCAD 2000
 90
        0
280
     0
281
     0
  0
CLASS
  1
ACDBPLACEHOLDER
  2
AcDbPlaceHolder
  3
AutoCAD 2000
 90
        0
280
     0
281
     0
  0
CLASS
  1
VBA_PROJECT
  2
AcDbVbaProject
  3
acadvba
 90
    32768
280
     0
281
     0
  0
CLASS
  1
WIPEOUT
  2
AcDbWipeout
  3
WipeOut|AutoCAD Express Tool|expresstools@autodesk.com
 90
    32895
280
     0
281
     1
  0
CLASS
  1
WIPEOUTVARIABLES
  2
AcDbWipeoutVariables
  3
WipeOut|AutoCAD Express Tool|expresstools@autodesk.com
 90
        0
280
     0
281
     0
  0
CLASS
  1
RTEXT
  2
RText
  3
RText|AutoCAD Express Tool|expresstools@autodesk.com
 90
    32768
280
     0
281
     1
  0
CLASS
  1
ARCALIGNEDTEXT
  2
AcDbArcAlignedText
  3
ATEXT|AutoCAD Express Tool|expresstools@autodesk.com
 90
    32768
280
     0
281
     1
  0
ENDSEC
  0
SECTION
  2
TABLES
  0
TABLE
  2
VPORT
  5
7
100
AcDbSymbolTable
 70
     1
  0
VPORT
  5
15
100
AcDbSymbolTableRecord
100
AcDbViewportTableRecord
  2
*ACTIVE
 70
     0
 10
0.0
 20
0.0
 11
1.0
 21
1.0
 12
6.591288
 22
4.579184
 13
0.0
 23
0.0
 14
1.0
 24
1.0
 15
0.0
 25
0.0
 16
0.0
 26
0.0
 36
1.0
 17
0.0
 27
0.0
 37
0.0
 40
9.158369
 41
0.688564
 42
50.0
 43
0.0
 44
0.0
 50
0.0
 51
0.0
 71
     0
 72
   100
 73
     1
 74
     1
 75
     0
 76
     0
 77
     0
 78
     0
281
     0
 65
     0
110
0.0
120
0.0
130
0.0
111
1.0
121
0.0
131
0.0
112
0.0
122
1.0
132
0.0
345
0
346
0
 79
     0
146
0.0
  0
ENDTAB
  0
TABLE
  2
LTYPE
  5
4
100
AcDbSymbolTable
 70
     3
  0
LTYPE
  5
11
100
AcDbSymbolTableRecord
100
AcDbLinetypeTableRecord
  2
ByBlock
 70
    64
  3

 72
    65
 73
     0
 40
0.0
  0
LTYPE
  5
12
100
AcDbSymbolTableRecord
100
AcDbLinetypeTableRecord
  2
ByLayer
 70
    64
  3

 72
    65
 73
     0
 40
0.0
  0
LTYPE
  5
13
100
AcDbSymbolTableRecord
100
AcDbLinetypeTableRecord
  2
Continuous
 70
    64
  3
Solid line
 72
    65
 73
     0
 40
0.0
  0
ENDTAB
  0
TABLE
  2
LAYER
  5
2
100
AcDbSymbolTable
 70
     2
  0
LAYER
  5
14
100
AcDbSymbolTableRecord
100
AcDbLayerTableRecord
  2
0
 70
     0
 62
     7
  6
Continuous
290
     1
370
    -3
390
1D
  0
LAYER
  5
24
100
AcDbSymbolTableRecord
100
AcDbLayerTableRecord
  2
���� 1
 70
     0
 62
     7
  6
Continuous
290
     1
370
    -3
390
1F
  0
ENDTAB
  0
TABLE
  2
STYLE
  5
3
100
AcDbSymbolTable
 70
     1
  0
STYLE
  5
17
100
AcDbSymbolTableRecord
100
AcDbTextStyleTableRecord
  2
Standard
 70
     0
 40
0.0
 41
1.0
 50
0.0
 71
     0
 42
0.0
  3
txt
  4

  0
ENDTAB
  0
TABLE
  2
VIEW
  5
5
100
AcDbSymbolTable
 70
     0
  0
ENDTAB
  0
TABLE
  2
UCS
  5
6
100
AcDbSymbolTable
 70
     0
  0
ENDTAB
  0
TABLE
  2
APPID
  5
8
100
AcDbSymbolTable
 70
     1
  0
APPID
  5
16
100
AcDbSymbolTableRecord
100
AcDbRegAppTableRecord
  2
ACAD
 70
     0
  0
ENDTAB
  0
TABLE
  2
DIMSTYLE
  5
9
100
AcDbSymbolTable
 70
     1
100
AcDbDimStyleTable
 71
     0
  0
DIMSTYLE
105
18
100
AcDbSymbolTableRecord
100
AcDbDimStyleTableRecord
  2
Standard
 70
     0
  3

  4

 40
1.0
 41
0.18
 42
0.0625
 43
0.38
 44
0.18
 45
0.0
 46
0.0
 47
0.0
 48
0.0
 71
     0
 72
     0
 73
     1
 74
     1
 75
     0
 76
     0
 77
     0
 78
     0
 79
     0
140
0.18
141
0.09
142
0.0
143
25.4
144
1.0
145
0.0
146
1.0
147
0.09
148
0.0
170
     0
171
     2
172
     0
173
     0
174
     0
175
     0
176
     0
177
     0
178
     0
179
     0
271
     4
272
     4
273
     2
274
     2
275
     0
276
     0
277
     2
278
    46
279
     0
280
     0
281
     0
282
     0
283
     1
284
     0
285
     0
286
     0
288
     0
340
17
341
0
342
0
343
0
344
0
371
    -2
372
    -2
  0
ENDTAB
  0
TABLE
  2
BLOCK_RECORD
  5
1
100
AcDbSymbolTable
 70
     0
  0
BLOCK_RECORD
  5
A
100
AcDbSymbolTableRecord
100
AcDbBlockTableRecord
  2
*MODEL_SPACE
340
20
  0
BLOCK_RECORD
  5
B
100
AcDbSymbolTableRecord
100
AcDbBlockTableRecord
  2
*PAPER_SPACE
340
21
  0
ENDTAB
  0
ENDSEC
  0
SECTION
  2
BLOCKS
  0
BLOCK
  5
D
100
AcDbEntity
  8
0
100
AcDbBlockBegin
  2
*MODEL_SPACE
 70
     0
 10
0.0
 20
0.0
 30
0.0
  3
*MODEL_SPACE
  1

  0
ENDBLK
  5
E
100
AcDbEntity
  8
0
100
AcDbBlockEnd
  0
BLOCK
  5
F
100
AcDbEntity
 67
     1
  8
0
100
AcDbBlockBegin
  2
*PAPER_SPACE
 70
     0
 10
0.0
 20
0.0
 30
0.0
  3
*PAPER_SPACE
  1

  0
ENDBLK
  5
10
100
AcDbEntity
 67
     1
  8
0
100
AcDbBlockEnd
  0
ENDSEC
  0
SECTION
  2
ENTITIES
  0
SPLINE
  5
25
100
AcDbEntity
  8
���� 1
100
AcDbSpline
210
0.0
220
0.0
230
1.0
 70
     1
 71
     3
 72
   180
 73
   176
 74
     0
 42
0.0000000001
 43
0.0000000001
 40
0.0
 40
0.0
 40
0.0
 40
0.0
 40
0.0227272727272727
 40
0.0227272727272727
 40
0.0227272727272727
 40
0.0227272727272727
 40
0.0454545454545455
 40
0.0454545454545455
 40
0.0454545454545455
 40
0.0454545454545455
 40
0.0681818181818182
 40
0.0681818181818182
 40
0.0681818181818182
 40
0.0681818181818182
 40
0.0909090909090909
 40
0.0909090909090909
 40
0.0909090909090909
 40
0.0909090909090909
 40
0.1136363636363637
 40
0.1136363636363637
 40
0.1136363636363637
 40
0.1136363636363637
 40
0.1363636363636364
 40
0.1363636363636364
 40
0.1363636363636364
 40
0.1363636363636364
 40
0.1590909090909091
 40
0.1590909090909091
 40
0.1590909090909091
 40
0.1590909090909091
 40
0.1818181818181819
 40
0.1818181818181819
 40
0.1818181818181819
 40
0.1818181818181819
 40
0.2045454545454546
 40
0.2045454545454546
 40
0.2045454545454546
 40
0.2045454545454546
 40
0.2272727272727273
 40
0.2272727272727273
 40
0.2272727272727273
 40
0.2272727272727273
 40
0.2500000000000001
 40
0.2500000000000001
 40
0.2500000000000001
 40
0.2500000000000001
 40
0.2727272727272728
 40
0.2727272727272728
 40
0.2727272727272728
 40
0.2727272727272728
 40
0.2954545454545455
 40
0.2954545454545455
 40
0.2954545454545455
 40
0.2954545454545455
 40
0.3181818181818182
 40
0.3181818181818182
 40
0.3181818181818182
 40
0.3181818181818182
 40
0.3409090909090909
 40
0.3409090909090909
 40
0.3409090909090909
 40
0.3409090909090909
 40
0.3636363636363636
 40
0.3636363636363636
 40
0.3636363636363636
 40
0.3636363636363636
 40
0.3863636363636363
 40
0.3863636363636363
 40
0.3863636363636363
 40
0.3863636363636363
 40
0.409090909090909
 40
0.409090909090909
 40
0.409090909090909
 40
0.409090909090909
 40
0.4318181818181817
 40
0.4318181818181817
 40
0.4318181818181817
 40
0.4318181818181817
 40
0.4545454545454544
 40
0.4545454545454544
 40
0.4545454545454544
 40
0.4545454545454544
 40
0.4772727272727271
 40
0.4772727272727271
 40
0.4772727272727271
 40
0.4772727272727271
 40
0.4999999999999998
 40
0.4999999999999998
 40
0.4999999999999998
 40
0.4999999999999998
 40
0.5227272727272726
 40
0.5227272727272726
 40
0.5227272727272726
 40
0.5227272727272726
 40
0.5454545454545453
 40
0.5454545454545453
 40
0.5454545454545453
 40
0.5454545454545453
 40
0.568181818181818
 40
0.568181818181818
 40
0.568181818181818
 40
0.568181818181818
 40
0.5909090909090907
 40
0.5909090909090907
 40
0.5909090909090907
 40
0.5909090909090907
 40
0.6136363636363634
 40
0.6136363636363634
 40
0.6136363636363634
 40
0.6136363636363634
 40
0.6363636363636361
 40
0.6363636363636361
 40
0.6363636363636361
 40
0.6363636363636361
 40
0.6590909090909088
 40
0.6590909090909088
 40
0.6590909090909088
 40
0.6590909090909088
 40
0.6818181818181816
 40
0.6818181818181816
 40
0.6818181818181816
 40
0.6818181818181816
 40
0.7045454545454543
 40
0.7045454545454543
 40
0.7045454545454543
 40
0.7045454545454543
 40
0.727272727272727
 40
0.727272727272727
 40
0.727272727272727
 40
0.727272727272727
 40
0.7499999999999997
 40
0.7499999999999997
 40
0.7499999999999997
 40
0.7499999999999997
 40
0.7727272727272724
 40
0.7727272727272724
 40
0.7727272727272724
 40
0.7727272727272724
 40
0.7954545454545451
 40
0.7954545454545451
 40
0.7954545454545451
 40
0.7954545454545451
 40
0.8181818181818178
 40
0.8181818181818178
 40
0.8181818181818178
 40
0.8181818181818178
 40
0.8409090909090905
 40
0.8409090909090905
 40
0.8409090909090905
 40
0.8409090909090905
 40
0.8636363636363632
 40
0.8636363636363632
 40
0.8636363636363632
 40
0.8636363636363632
 40
0.8863636363636359
 40
0.8863636363636359
 40
0.8863636363636359
 40
0.8863636363636359
 40
0.9090909090909086
 40
0.9090909090909086
 40
0.9090909090909086
 40
0.9090909090909086
 40
0.9318181818181813
 40
0.9318181818181813
 40
0.9318181818181813
 40
0.9318181818181813
 40
0.954545454545454
 40
0.954545454545454
 40
0.954545454545454
 40
0.954545454545454
 40
0.9772727272727267
 40
0.9772727272727267
 40
0.9772727272727267
 40
0.9772727272727267
 40
1.0
 40
1.0
 40
1.0
 40
1.0
 10
-1.4527300000000001
 20
5.8160300000000005
 30
0.0
 10
-0.8304300000000001
 20
5.5950500000000005
 30
0.0
 10
-0.44689
 20
4.8889300000000002
 30
0.0
 10
-0.02779
 20
4.29711
 30
0.0
 10
-0.02779
 20
4.29711
 30
0.0
 10
-0.06843
 20
3.5376500000000002
 30
0.0
 10
0.24398
 20
2.8289900000000001
 30
0.0
 10
0.277
 20
2.0796900000000003
 30
0.0
 10
0.277
 20
2.0796900000000003
 30
0.0
 10
1.32094
 20
0.7182500000000001
 30
0.0
 10
3.1370400000000003
 20
0.9722500000000001
 30
0.0
 10
4.5213400000000004
 20
0.28645
 30
0.0
 10
4.5213400000000004
 20
0.28645
 30
0.0
 10
4.5213400000000004
 20
0.28645
 30
0.0
 10
4.67882
 20
0.37027
 30
0.0
 10
4.67882
 20
0.37027
 30
0.0
 10
4.67882
 20
0.37027
 30
0.0
 10
4.9099600000000008
 20
0.66491
 30
0.0
 10
4.9226600000000005
 20
1.06623
 30
0.0
 10
4.8159800000000006
 20
1.4142100000000002
 30
0.0
 10
4.8159800000000006
 20
1.4142100000000002
 30
0.0
 10
4.2876600000000007
 20
2.6181700000000001
 30
0.0
 10
3.5180400000000005
 20
4.4444300000000005
 30
0.0
 10
4.9734600000000002
 20
5.3410500000000001
 30
0.0
 10
4.9734600000000002
 20
5.3410500000000001
 30
0.0
 10
4.8159800000000006
 20
5.0997500000000002
 30
0.0
 10
4.9633000000000003
 20
4.7720900000000004
 30
0.0
 10
4.8591600000000001
 20
4.49777
 30
0.0
 10
4.8591600000000001
 20
4.49777
 30
0.0
 10
3.2843600000000004
 20
3.1033100000000005
 30
0.0
 10
6.4314200000000001
 20
1.3735700000000002
 30
0.0
 10
4.9226600000000005
 20
-0.19614
 30
0.0
 10
4.9226600000000005
 20
-0.19614
 30
0.0
 10
5.3239800000000006
 20
-0.8413000000000001
 30
0.0
 10
5.4814600000000002
 20
-1.8217400000000001
 30
0.0
 10
6.3349000000000002
 20
-1.9919200000000001
 30
0.0
 10
6.3349000000000002
 20
-1.9919200000000001
 30
0.0
 10
6.7057400000000005
 20
-2.6675600000000004
 30
0.0
 10
6.7997200000000007
 20
-3.5108400000000004
 30
0.0
 10
7.3915400000000009
 20
-4.0493200000000007
 30
0.0
 10
7.3915400000000009
 20
-4.0493200000000007
 30
0.0
 10
7.2747000000000002
 20
-4.4836600000000004
 30
0.0
 10
7.582040000000001
 20
-4.7249600000000003
 30
0.0
 10
7.6760200000000003
 20
-5.1364400000000003
 30
0.0
 10
7.6760200000000003
 20
-5.1364400000000003
 30
0.0
 10
7.582040000000001
 20
-5.2329600000000003
 30
0.0
 10
7.6455400000000004
 20
-5.3904400000000008
 30
0.0
 10
7.5185400000000007
 20
-5.4742600000000001
 30
0.0
 10
7.5185400000000007
 20
-5.4742600000000001
 30
0.0
 10
7.1070600000000006
 20
-5.7714400000000001
 30
0.0
 10
6.5990600000000006
 20
-5.4336200000000003
 30
0.0
 10
6.3476000000000008
 20
-5.8222400000000007
 30
0.0
 10
6.3476000000000008
 20
-5.8222400000000007
 30
0.0
 10
6.2510800000000009
 20
-5.3472600000000003
 30
0.0
 10
5.9564400000000006
 20
-5.8120800000000008
 30
0.0
 10
5.8396000000000008
 20
-5.4437800000000003
 30
0.0
 10
5.8396000000000008
 20
-5.4437800000000003
 30
0.0
 10
5.8599200000000007
 20
-5.1897800000000007
 30
0.0
 10
5.9869200000000005
 20
-4.9154600000000004
 30
0.0
 10
6.2409200000000009
 20
-4.8418000000000001
 30
0.0
 10
6.2409200000000009
 20
-4.8418000000000001
 30
0.0
 10
6.1139200000000002
 20
-4.1560000000000006
 30
0.0
 10
5.9234200000000001
 20
-3.3838400000000002
 30
0.0
 10
5.31128
 20
-2.9723600000000001
 30
0.0
 10
5.31128
 20
-2.9723600000000001
 30
0.0
 10
4.6254800000000005
 20
-3.2060400000000002
 30
0.0
 10
3.6221800000000002
 20
-3.3432000000000004
 30
0.0
 10
3.1167200000000004
 20
-2.6878800000000003
 30
0.0
 10
3.1167200000000004
 20
-2.6878800000000003
 30
0.0
 10
3.1167200000000004
 20
-2.6878800000000003
 30
0.0
 10
3.0633800000000004
 20
-3.3000200000000004
 30
0.0
 10
3.0633800000000004
 20
-3.3000200000000004
 30
0.0
 10
3.0633800000000004
 20
-3.3000200000000004
 30
0.0
 10
2.6214200000000001
 20
-3.7648400000000004
 30
0.0
 10
1.8391000000000002
 20
-3.8816800000000002
 30
0.0
 10
1.5952600000000001
 20
-4.5446200000000001
 30
0.0
 10
1.5952600000000001
 20
-4.5446200000000001
 30
0.0
 10
1.4377800000000001
 20
-4.5979600000000005
 30
0.0
 10
1.3006200000000001
 20
-4.6614600000000008
 30
0.0
 10
1.1202800000000002
 20
-4.5878000000000005
 30
0.0
 10
1.1202800000000002
 20
-4.5878000000000005
 30
0.0
 10
0.82564
 20
-5.1593
 30
0.0
 10
0.05856
 20
-5.07294
 30
0.0
 10
-0.34021
 20
-4.9053000000000004
 30
0.0
 10
-0.34021
 20
-4.9053000000000004
 30
0.0
 10
-0.37831
 20
-4.8189400000000004
 30
0.0
 10
-0.36307
 20
-4.6944800000000004
 30
0.0
 10
-0.31735
 20
-4.6081200000000004
 30
0.0
 10
-0.31735
 20
-4.6081200000000004
 30
0.0
 10
-0.31735
 20
-4.6081200000000004
 30
0.0
 10
-0.11669
 20
-4.2703000000000007
 30
0.0
 10
-0.11669
 20
-4.2703000000000007
 30
0.0
 10
-0.11669
 20
-4.2703000000000007
 30
0.0
 10
0.5208400000000001
 20
-4.4100000000000001
 30
0.0
 10
1.0466200000000001
 20
-3.8080200000000004
 30
0.0
 10
1.3844400000000001
 20
-3.3101800000000003
 30
0.0
 10
1.3844400000000001
 20
-3.3101800000000003
 30
0.0
 10
0.93232
 20
-3.2060400000000002
 30
0.0
 10
0.99582
 20
-2.5177
 30
0.0
 10
0.43448
 20
-2.85806
 30
0.0
 10
0.43448
 20
-2.85806
 30
0.0
 10
0.12968
 20
-3.3000200000000004
 30
0.0
 10
-0.40879
 20
-3.6911800000000001
 30
0.0
 10
-0.4824500000000001
 20
-4.2931600000000003
 30
0.0
 10
-0.4824500000000001
 20
-4.2931600000000003
 30
0.0
 10
-0.9777500000000001
 20
-4.5141400000000003
 30
0.0
 10
-0.9853700000000001
 20
-4.9891200000000007
 30
0.0
 10
-1.1784100000000002
 20
-5.4107600000000007
 30
0.0
 10
-1.1784100000000002
 20
-5.4107600000000007
 30
0.0
 10
-1.8819900000000001
 20
-5.8019200000000009
 30
0.0
 10
-2.5957300000000001
 20
-5.5911000000000008
 30
0.0
 10
-3.1164300000000003
 20
-5.6114200000000007
 30
0.0
 10
-3.1164300000000003
 20
-5.6114200000000007
 30
0.0
 10
-3.3069300000000004
 20
-5.2532800000000002
 30
0.0
 10
-3.0402300000000002
 20
-4.7452800000000002
 30
0.0
 10
-2.6566900000000002
 20
-4.6944800000000004
 30
0.0
 10
-2.6566900000000002
 20
-4.6944800000000004
 30
0.0
 10
-2.39507
 20
-4.01884
 30
0.0
 10
-1.6940300000000001
 20
-3.5743400000000003
 30
0.0
 10
-1.5263900000000001
 20
-2.8682200000000004
 30
0.0
 10
-1.5263900000000001
 20
-2.8682200000000004
 30
0.0
 10
-1.8769100000000001
 20
-2.8250400000000004
 30
0.0
 10
-2.1486900000000002
 20
-2.5405600000000002
 30
0.0
 10
-2.5144500000000001
 20
-2.6980400000000002
 30
0.0
 10
-2.5144500000000001
 20
-2.6980400000000002
 30
0.0
 10
-2.8370300000000004
 20
-2.3094200000000003
 30
0.0
 10
-3.2078700000000002
 20
-2.1290800000000001
 30
0.0
 10
-3.4694900000000004
 20
-2.6980400000000002
 30
0.0
 10
-3.4694900000000004
 20
-2.6980400000000002
 30
0.0
 10
-3.7615900000000004
 20
-2.7082000000000002
 30
0.0
 10
-3.7590500000000002
 20
-3.1095200000000003
 30
0.0
 10
-3.7336500000000004
 20
-3.3101800000000003
 30
0.0
 10
-3.7336500000000004
 20
-3.3101800000000003
 30
0.0
 10
-3.9546300000000003
 20
-3.2593800000000002
 30
0.0
 10
-4.0663900000000002
 20
-3.3432000000000004
 30
0.0
 10
-4.1756100000000007
 20
-3.0460200000000004
 30
0.0
 10
-4.1756100000000007
 20
-3.0460200000000004
 30
0.0
 10
-4.5235900000000004
 20
-3.2898600000000005
 30
0.0
 10
-4.8080700000000007
 20
-3.6810200000000002
 30
0.0
 10
-4.9579300000000002
 20
-4.1026600000000002
 30
0.0
 10
-4.9579300000000002
 20
-4.1026600000000002
 30
0.0
 10
-5.4710100000000006
 20
-3.9756600000000004
 30
0.0
 10
-5.4583100000000009
 20
-4.5446200000000001
 30
0.0
 10
-5.7275500000000008
 20
-4.7986200000000006
 30
0.0
 10
-5.7275500000000008
 20
-4.7986200000000006
 30
0.0
 10
-6.4336700000000002
 20
-5.0323000000000002
 30
0.0
 10
-7.1270900000000008
 20
-4.9891200000000007
 30
0.0
 10
-7.6681100000000004
 20
-4.7884600000000006
 30
0.0
 10
-7.6681100000000004
 20
-4.7884600000000006
 30
0.0
 10
-7.6833500000000008
 20
-4.5446200000000001
 30
0.0
 10
-7.6325500000000011
 20
-4.2703000000000007
 30
0.0
 10
-7.4547500000000007
 20
-4.0925000000000002
 30
0.0
 10
-7.4547500000000007
 20
-4.0925000000000002
 30
0.0
 10
-6.2888900000000003
 20
-3.7546800000000005
 30
0.0
 10
-5.4811700000000005
 20
-2.4872200000000002
 30
0.0
 10
-4.8004500000000005
 20
-1.5169400000000002
 30
0.0
 10
-4.8004500000000005
 20
-1.5169400000000002
 30
0.0
 10
-4.4499300000000002
 20
-0.47046
 30
0.0
 10
-4.5997900000000005
 20
0.6547500000000001
 30
0.0
 10
-4.2162500000000005
 20
1.6682100000000002
 30
0.0
 10
-4.2162500000000005
 20
1.6682100000000002
 30
0.0
 10
-4.4194500000000003
 20
2.16351
 30
0.0
 10
-4.3254700000000001
 20
2.6918300000000004
 30
0.0
 10
-4.2797499999999999
 20
3.2099900000000003
 30
0.0
 10
-4.2797499999999999
 20
3.2099900000000003
 30
0.0
 10
-3.9165300000000003
 20
3.8119700000000005
 30
0.0
 10
-3.7641300000000002
 20
4.4037900000000008
 30
0.0
 10
-3.5075900000000004
 20
5.0133900000000002
 30
0.0
 10
-3.5075900000000004
 20
5.0133900000000002
 30
0.0
 10
-2.8497300000000001
 20
5.3207300000000002
 30
0.0
 10
-2.2579100000000003
 20
5.8795300000000008
 30
0.0
 10
-1.4832100000000001
 20
5.6788700000000008
 30
0.0
 10
-1.4832100000000001
 20
5.6788700000000008
 30
0.0
 10
-1.4527300000000001
 20
5.7118900000000004
 30
0.0
 10
-1.4959100000000001
 20
5.7855500000000006
 30
0.0
 10
-1.4527300000000001
 20
5.8160300000000005
 30
0.0
  0
SPLINE
  5
26
100
AcDbEntity
  8
���� 1
 62
     7
100
AcDbSpline
210
0.0
220
0.0
230
1.0
 70
     1
 71
     3
 72
   360
 73
   356
 74
     0
 42
0.0000000001
 43
0.0000000001
 40
0.0
 40
0.0
 40
0.0
 40
0.0
 40
0.0112359550561798
 40
0.0112359550561798
 40
0.0112359550561798
 40
0.0112359550561798
 40
0.0224719101123596
 40
0.0224719101123596
 40
0.0224719101123596
 40
0.0224719101123596
 40
0.0337078651685393
 40
0.0337078651685393
 40
0.0337078651685393
 40
0.0337078651685393
 40
0.0449438202247191
 40
0.0449438202247191
 40
0.0449438202247191
 40
0.0449438202247191
 40
0.0561797752808989
 40
0.0561797752808989
 40
0.0561797752808989
 40
0.0561797752808989
 40
0.0674157303370787
 40
0.0674157303370787
 40
0.0674157303370787
 40
0.0674157303370787
 40
0.0786516853932584
 40
0.0786516853932584
 40
0.0786516853932584
 40
0.0786516853932584
 40
0.0898876404494382
 40
0.0898876404494382
 40
0.0898876404494382
 40
0.0898876404494382
 40
0.101123595505618
 40
0.101123595505618
 40
0.101123595505618
 40
0.101123595505618
 40
0.1123595505617978
 40
0.1123595505617978
 40
0.1123595505617978
 40
0.1123595505617978
 40
0.1235955056179775
 40
0.1235955056179775
 40
0.1235955056179775
 40
0.1235955056179775
 40
0.1348314606741573
 40
0.1348314606741573
 40
0.1348314606741573
 40
0.1348314606741573
 40
0.1460674157303371
 40
0.1460674157303371
 40
0.1460674157303371
 40
0.1460674157303371
 40
0.1573033707865169
 40
0.1573033707865169
 40
0.1573033707865169
 40
0.1573033707865169
 40
0.1685393258426966
 40
0.1685393258426966
 40
0.1685393258426966
 40
0.1685393258426966
 40
0.1797752808988764
 40
0.1797752808988764
 40
0.1797752808988764
 40
0.1797752808988764
 40
0.1910112359550562
 40
0.1910112359550562
 40
0.1910112359550562
 40
0.1910112359550562
 40
0.202247191011236
 40
0.202247191011236
 40
0.202247191011236
 40
0.202247191011236
 40
0.2134831460674157
 40
0.2134831460674157
 40
0.2134831460674157
 40
0.2134831460674157
 40
0.2247191011235955
 40
0.2247191011235955
 40
0.2247191011235955
 40
0.2247191011235955
 40
0.2359550561797753
 40
0.2359550561797753
 40
0.2359550561797753
 40
0.2359550561797753
 40
0.2471910112359551
 40
0.2471910112359551
 40
0.2471910112359551
 40
0.2471910112359551
 40
0.2584269662921348
 40
0.2584269662921348
 40
0.2584269662921348
 40
0.2584269662921348
 40
0.2696629213483146
 40
0.2696629213483146
 40
0.2696629213483146
 40
0.2696629213483146
 40
0.2808988764044944
 40
0.2808988764044944
 40
0.2808988764044944
 40
0.2808988764044944
 40
0.2921348314606742
 40
0.2921348314606742
 40
0.2921348314606742
 40
0.2921348314606742
 40
0.303370786516854
 40
0.303370786516854
 40
0.303370786516854
 40
0.303370786516854
 40
0.3146067415730338
 40
0.3146067415730338
 40
0.3146067415730338
 40
0.3146067415730338
 40
0.3258426966292136
 40
0.3258426966292136
 40
0.3258426966292136
 40
0.3258426966292136
 40
0.3370786516853934
 40
0.3370786516853934
 40
0.3370786516853934
 40
0.3370786516853934
 40
0.3483146067415732
 40
0.3483146067415732
 40
0.3483146067415732
 40
0.3483146067415732
 40
0.359550561797753
 40
0.359550561797753
 40
0.359550561797753
 40
0.359550561797753
 40
0.3707865168539328
 40
0.3707865168539328
 40
0.3707865168539328
 40
0.3707865168539328
 40
0.3820224719101126
 40
0.3820224719101126
 40
0.3820224719101126
 40
0.3820224719101126
 40
0.3932584269662924
 40
0.3932584269662924
 40
0.3932584269662924
 40
0.3932584269662924
 40
0.4044943820224722
 40
0.4044943820224722
 40
0.4044943820224722
 40
0.4044943820224722
 40
0.415730337078652
 40
0.415730337078652
 40
0.415730337078652
 40
0.415730337078652
 40
0.4269662921348318
 40
0.4269662921348318
 40
0.4269662921348318
 40
0.4269662921348318
 40
0.4382022471910116
 40
0.4382022471910116
 40
0.4382022471910116
 40
0.4382022471910116
 40
0.4494382022471914
 40
0.4494382022471914
 40
0.4494382022471914
 40
0.4494382022471914
 40
0.4606741573033713
 40
0.4606741573033713
 40
0.4606741573033713
 40
0.4606741573033713
 40
0.4719101123595511
 40
0.4719101123595511
 40
0.4719101123595511
 40
0.4719101123595511
 40
0.4831460674157309
 40
0.4831460674157309
 40
0.4831460674157309
 40
0.4831460674157309
 40
0.4943820224719107
 40
0.4943820224719107
 40
0.4943820224719107
 40
0.4943820224719107
 40
0.5056179775280905
 40
0.5056179775280905
 40
0.5056179775280905
 40
0.5056179775280905
 40
0.5168539325842703
 40
0.5168539325842703
 40
0.5168539325842703
 40
0.5168539325842703
 40
0.5280898876404501
 40
0.5280898876404501
 40
0.5280898876404501
 40
0.5280898876404501
 40
0.5393258426966299
 40
0.5393258426966299
 40
0.5393258426966299
 40
0.5393258426966299
 40
0.5505617977528097
 40
0.5505617977528097
 40
0.5505617977528097
 40
0.5505617977528097
 40
0.5617977528089895
 40
0.5617977528089895
 40
0.5617977528089895
 40
0.5617977528089895
 40
0.5730337078651693
 40
0.5730337078651693
 40
0.5730337078651693
 40
0.5730337078651693
 40
0.5842696629213491
 40
0.5842696629213491
 40
0.5842696629213491
 40
0.5842696629213491
 40
0.5955056179775289
 40
0.5955056179775289
 40
0.5955056179775289
 40
0.5955056179775289
 40
0.6067415730337087
 40
0.6067415730337087
 40
0.6067415730337087
 40
0.6067415730337087
 40
0.6179775280898885
 40
0.6179775280898885
 40
0.6179775280898885
 40
0.6179775280898885
 40
0.6292134831460683
 40
0.6292134831460683
 40
0.6292134831460683
 40
0.6292134831460683
 40
0.6404494382022481
 40
0.6404494382022481
 40
0.6404494382022481
 40
0.6404494382022481
 40
0.6516853932584279
 40
0.6516853932584279
 40
0.6516853932584279
 40
0.6516853932584279
 40
0.6629213483146077
 40
0.6629213483146077
 40
0.6629213483146077
 40
0.6629213483146077
 40
0.6741573033707875
 40
0.6741573033707875
 40
0.6741573033707875
 40
0.6741573033707875
 40
0.6853932584269673
 40
0.6853932584269673
 40
0.6853932584269673
 40
0.6853932584269673
 40
0.6966292134831471
 40
0.6966292134831471
 40
0.6966292134831471
 40
0.6966292134831471
 40
0.7078651685393269
 40
0.7078651685393269
 40
0.7078651685393269
 40
0.7078651685393269
 40
0.7191011235955067
 40
0.7191011235955067
 40
0.7191011235955067
 40
0.7191011235955067
 40
0.7303370786516865
 40
0.7303370786516865
 40
0.7303370786516865
 40
0.7303370786516865
 40
0.7415730337078663
 40
0.7415730337078663
 40
0.7415730337078663
 40
0.7415730337078663
 40
0.7528089887640461
 40
0.7528089887640461
 40
0.7528089887640461
 40
0.7528089887640461
 40
0.7640449438202259
 40
0.7640449438202259
 40
0.7640449438202259
 40
0.7640449438202259
 40
0.7752808988764057
 40
0.7752808988764057
 40
0.7752808988764057
 40
0.7752808988764057
 40
0.7865168539325855
 40
0.7865168539325855
 40
0.7865168539325855
 40
0.7865168539325855
 40
0.7977528089887653
 40
0.7977528089887653
 40
0.7977528089887653
 40
0.7977528089887653
 40
0.8089887640449451
 40
0.8089887640449451
 40
0.8089887640449451
 40
0.8089887640449451
 40
0.8202247191011249
 40
0.8202247191011249
 40
0.8202247191011249
 40
0.8202247191011249
 40
0.8314606741573047
 40
0.8314606741573047
 40
0.8314606741573047
 40
0.8314606741573047
 40
0.8426966292134845
 40
0.8426966292134845
 40
0.8426966292134845
 40
0.8426966292134845
 40
0.8539325842696643
 40
0.8539325842696643
 40
0.8539325842696643
 40
0.8539325842696643
 40
0.8651685393258441
 40
0.8651685393258441
 40
0.8651685393258441
 40
0.8651685393258441
 40
0.876404494382024
 40
0.876404494382024
 40
0.876404494382024
 40
0.876404494382024
 40
0.8876404494382038
 40
0.8876404494382038
 40
0.8876404494382038
 40
0.8876404494382038
 40
0.8988764044943836
 40
0.8988764044943836
 40
0.8988764044943836
 40
0.8988764044943836
 40
0.9101123595505634
 40
0.9101123595505634
 40
0.9101123595505634
 40
0.9101123595505634
 40
0.9213483146067432
 40
0.9213483146067432
 40
0.9213483146067432
 40
0.9213483146067432
 40
0.932584269662923
 40
0.932584269662923
 40
0.932584269662923
 40
0.932584269662923
 40
0.9438202247191028
 40
0.9438202247191028
 40
0.9438202247191028
 40
0.9438202247191028
 40
0.9550561797752826
 40
0.9550561797752826
 40
0.9550561797752826
 40
0.9550561797752826
 40
0.9662921348314624
 40
0.9662921348314624
 40
0.9662921348314624
 40
0.9662921348314624
 40
0.9775280898876422
 40
0.9775280898876422
 40
0.9775280898876422
 40
0.9775280898876422
 40
0.988764044943822
 40
0.988764044943822
 40
0.988764044943822
 40
0.988764044943822
 40
1.0
 40
1.0
 40
1.0
 40
1.0
 10
-1.63053
 20
5.64839
 30
0.0
 10
-1.1174500000000001
 20
5.3842300000000005
 30
0.0
 10
-0.9675900000000001
 20
5.4578900000000008
 30
0.0
 10
-0.5865900000000001
 20
4.92957
 30
0.0
 10
-0.5865900000000001
 20
4.92957
 30
0.0
 10
-0.5002300000000001
 20
4.7289099999999999
 30
0.0
 10
-0.5840500000000001
 20
4.5511100000000004
 30
0.0
 10
-0.4367300000000001
 20
4.3606100000000003
 30
0.0
 10
-0.4367300000000001
 20
4.3606100000000003
 30
0.0
 10
-0.37323
 20
4.0964499999999999
 30
0.0
 10
-0.20305
 20
3.3369900000000001
 30
0.0
 10
-0.49769
 20
3.9694500000000001
 30
0.0
 10
-0.49769
 20
3.9694500000000001
 30
0.0
 10
-0.6500900000000001
 20
4.6552500000000006
 30
0.0
 10
-0.7516900000000001
 20
4.6552500000000006
 30
0.0
 10
-1.3562100000000001
 20
5.1632500000000006
 30
0.0
 10
-1.3562100000000001
 20
5.1632500000000006
 30
0.0
 10
-1.8184900000000002
 20
4.9625900000000005
 30
0.0
 10
-2.01153
 20
4.9829100000000004
 30
0.0
 10
-2.4712700000000001
 20
4.7517700000000005
 30
0.0
 10
-2.4712700000000001
 20
4.7517700000000005
 30
0.0
 10
-2.2528300000000003
 20
4.3504500000000004
 30
0.0
 10
-3.1240500000000004
 20
3.5274900000000002
 30
0.0
 10
-2.48651
 20
3.2099900000000003
 30
0.0
 10
-2.48651
 20
3.2099900000000003
 30
0.0
 10
-2.48651
 20
3.2099900000000003
 30
0.0
 10
-2.4966700000000004
 20
2.8924900000000004
 30
0.0
 10
-2.4966700000000004
 20
2.8924900000000004
 30
0.0
 10
-2.4966700000000004
 20
2.8924900000000004
 30
0.0
 10
-2.3214100000000002
 20
2.8620100000000002
 30
0.0
 10
-2.4077700000000002
 20
3.3471500000000001
 30
0.0
 10
-2.31887
 20
3.5147900000000001
 30
0.0
 10
-2.31887
 20
3.5147900000000001
 30
0.0
 10
-2.4458700000000002
 20
3.3039700000000001
 30
0.0
 10
-2.6846300000000003
 20
3.6417900000000003
 30
0.0
 10
-2.5500100000000003
 20
3.8119700000000005
 30
0.0
 10
-2.5500100000000003
 20
3.8119700000000005
 30
0.0
 10
-2.2782300000000002
 20
4.1396300000000004
 30
0.0
 10
-2.35189
 20
4.8355900000000007
 30
0.0
 10
-1.8616700000000002
 20
4.7822500000000003
 30
0.0
 10
-1.8616700000000002
 20
4.7822500000000003
 30
0.0
 10
-1.0260100000000001
 20
5.43757
 30
0.0
 10
-0.15479
 20
3.4944700000000002
 30
0.0
 10
-0.9244100000000001
 20
3.2836500000000002
 30
0.0
 10
-0.9244100000000001
 20
3.2836500000000002
 30
0.0
 10
-0.8786900000000001
 20
3.0626700000000002
 30
0.0
 10
-0.8431300000000001
 20
2.7553300000000003
 30
0.0
 10
-1.03617
 20
2.6181700000000001
 30
0.0
 10
-1.03617
 20
2.6181700000000001
 30
0.0
 10
-1.0539500000000002
 20
2.7045300000000001
 30
0.0
 10
-1.0133100000000002
 20
2.7654900000000002
 30
0.0
 10
-0.9879100000000001
 20
2.8391500000000001
 30
0.0
 10
-0.9879100000000001
 20
2.8391500000000001
 30
0.0
 10
-1.29017
 20
2.4378300000000004
 30
0.0
 10
-1.7041900000000001
 20
2.8391500000000001
 30
0.0
 10
-1.12507
 20
3.0525100000000003
 30
0.0
 10
-1.12507
 20
3.0525100000000003
 30
0.0
 10
-1.17079
 20
3.3573100000000005
 30
0.0
 10
-1.4933700000000001
 20
3.1261700000000001
 30
0.0
 10
-1.6914900000000002
 20
3.2404700000000002
 30
0.0
 10
-1.6914900000000002
 20
3.2404700000000002
 30
0.0
 10
-1.7499100000000001
 20
3.2633300000000003
 30
0.0
 10
-1.8362700000000001
 20
3.1998300000000004
 30
0.0
 10
-1.84135
 20
3.1464900000000005
 30
0.0
 10
-1.84135
 20
3.1464900000000005
 30
0.0
 10
-1.7194300000000002
 20
2.9788500000000004
 30
0.0
 10
-1.3054100000000002
 20
2.7121500000000003
 30
0.0
 10
-1.7270500000000002
 20
2.6181700000000001
 30
0.0
 10
-1.7270500000000002
 20
2.6181700000000001
 30
0.0
 10
-2.06995
 20
2.7121500000000003
 30
0.0
 10
-1.9226300000000001
 20
3.2734900000000002
 30
0.0
 10
-2.05471
 20
3.2099900000000003
 30
0.0
 10
-2.05471
 20
3.2099900000000003
 30
0.0
 10
-2.1283700000000003
 20
2.8518500000000002
 30
0.0
 10
-2.3417300000000001
 20
2.46069
 30
0.0
 10
-2.2528300000000003
 20
2.0796900000000003
 30
0.0
 10
-2.2528300000000003
 20
2.0796900000000003
 30
0.0
 10
-2.1105900000000002
 20
1.9526900000000003
 30
0.0
 10
-1.8007100000000003
 20
2.4505300000000001
 30
0.0
 10
-2.1283700000000003
 20
1.9120500000000002
 30
0.0
 10
-2.1283700000000003
 20
1.9120500000000002
 30
0.0
 10
-2.1283700000000003
 20
1.9120500000000002
 30
0.0
 10
-2.1283700000000003
 20
1.7621900000000001
 30
0.0
 10
-2.1283700000000003
 20
1.7621900000000001
 30
0.0
 10
-2.1283700000000003
 20
1.7621900000000001
 30
0.0
 10
-2.4077700000000002
 20
2.1025500000000004
 30
0.0
 10
-2.4611100000000001
 20
2.3336900000000003
 30
0.0
 10
-2.5373100000000002
 20
2.7350100000000004
 30
0.0
 10
-2.5373100000000002
 20
2.7350100000000004
 30
0.0
 10
-2.6643100000000004
 20
2.6511900000000002
 30
0.0
 10
-2.5957300000000001
 20
2.41751
 30
0.0
 10
-2.6439900000000001
 20
2.2803500000000003
 30
0.0
 10
-2.6439900000000001
 20
2.2803500000000003
 30
0.0
 10
-2.6185900000000002
 20
2.20669
 30
0.0
 10
-2.7379700000000002
 20
1.9323700000000001
 30
0.0
 10
-2.7379700000000002
 20
2.1025500000000004
 30
0.0
 10
-2.7379700000000002
 20
2.1025500000000004
 30
0.0
 10
-2.6643100000000004
 20
2.4505300000000001
 30
0.0
 10
-2.7303500000000001
 20
2.5978500000000002
 30
0.0
 10
-2.9360900000000001
 20
2.2295500000000001
 30
0.0
 10
-2.9360900000000001
 20
2.2295500000000001
 30
0.0
 10
-2.9818100000000003
 20
2.4505300000000001
 30
0.0
 10
-2.8268700000000004
 20
2.7045300000000001
 30
0.0
 10
-2.9386300000000003
 20
2.8620100000000002
 30
0.0
 10
-2.9386300000000003
 20
2.8620100000000002
 30
0.0
 10
-3.1011900000000003
 20
2.6181700000000001
 30
0.0
 10
-3.0808700000000004
 20
2.2371700000000003
 30
0.0
 10
-3.1189700000000005
 20
1.9222100000000002
 30
0.0
 10
-3.1189700000000005
 20
1.9222100000000002
 30
0.0
 10
-3.1189700000000005
 20
1.9222100000000002
 30
0.0
 10
-3.0986500000000001
 20
1.6377300000000001
 30
0.0
 10
-3.0986500000000001
 20
1.6377300000000001
 30
0.0
 10
-3.0986500000000001
 20
1.6377300000000001
 30
0.0
 10
-3.0986500000000001
 20
1.6377300000000001
 30
0.0
 10
-3.0554700000000001
 20
1.4573900000000002
 30
0.0
 10
-3.0554700000000001
 20
1.4573900000000002
 30
0.0
 10
-3.0554700000000001
 20
1.4573900000000002
 30
0.0
 10
-2.8929100000000001
 20
1.1398900000000001
 30
0.0
 10
-3.0986500000000001
 20
2.0898500000000002
 30
0.0
 10
-2.8929100000000001
 20
1.9425300000000001
 30
0.0
 10
-2.8929100000000001
 20
1.9425300000000001
 30
0.0
 10
-2.8725900000000002
 20
1.8790300000000002
 30
0.0
 10
-2.8446500000000001
 20
1.8282300000000002
 30
0.0
 10
-2.8548100000000001
 20
1.7545700000000002
 30
0.0
 10
-2.8548100000000001
 20
1.7545700000000002
 30
0.0
 10
-2.8548100000000001
 20
1.7545700000000002
 30
0.0
 10
-2.8014700000000001
 20
1.5412100000000002
 30
0.0
 10
-2.8014700000000001
 20
1.5412100000000002
 30
0.0
 10
-2.8014700000000001
 20
1.5412100000000002
 30
0.0
 10
-2.7811500000000002
 20
1.4675500000000001
 30
0.0
 10
-2.69733
 20
1.5539100000000001
 30
0.0
 10
-2.7379700000000002
 20
1.5945500000000001
 30
0.0
 10
-2.7379700000000002
 20
1.5945500000000001
 30
0.0
 10
-2.7379700000000002
 20
1.5945500000000001
 30
0.0
 10
-2.7379700000000002
 20
1.7012300000000002
 30
0.0
 10
-2.7379700000000002
 20
1.7012300000000002
 30
0.0
 10
-2.7379700000000002
 20
1.7012300000000002
 30
0.0
 10
-2.7430500000000002
 20
1.8587100000000001
 30
0.0
 10
-2.6566900000000002
 20
1.7850500000000002
 30
0.0
 10
-2.6465300000000003
 20
1.6783700000000001
 30
0.0
 10
-2.6465300000000003
 20
1.6783700000000001
 30
0.0
 10
-2.5373100000000002
 20
1.48787
 30
0.0
 10
-2.4204700000000003
 20
1.2872100000000002
 30
0.0
 10
-2.3493500000000003
 20
1.0992500000000001
 30
0.0
 10
-2.3493500000000003
 20
1.0992500000000001
 30
0.0
 10
-2.2934700000000001
 20
1.2567300000000001
 30
0.0
 10
-2.3747500000000001
 20
1.4573900000000002
 30
0.0
 10
-2.4560300000000002
 20
1.6047100000000001
 30
0.0
 10
-2.4560300000000002
 20
1.6047100000000001
 30
0.0
 10
-2.1436100000000002
 20
1.8282300000000002
 30
0.0
 10
-1.8184900000000002
 20
0.8350900000000001
 30
0.0
 10
-2.01153
 20
0.41345
 30
0.0
 10
-2.01153
 20
0.41345
 30
0.0
 10
-1.7270500000000002
 20
1.15259
 30
0.0
 10
-0.80249
 20
2.1025500000000004
 30
0.0
 10
-1.0666500000000001
 20
2.5445100000000003
 30
0.0
 10
-1.0666500000000001
 20
2.5445100000000003
 30
0.0
 10
-1.03617
 20
2.5343500000000003
 30
0.0
 10
-0.9574300000000001
 20
2.5241900000000004
 30
0.0
 10
-0.91171
 20
2.6511900000000002
 30
0.0
 10
-0.91171
 20
2.6511900000000002
 30
0.0
 10
-0.8151900000000001
 20
2.7985100000000003
 30
0.0
 10
-0.6678700000000001
 20
2.9458300000000004
 30
0.0
 10
-0.7034300000000001
 20
3.1261700000000001
 30
0.0
 10
-0.7034300000000001
 20
3.1261700000000001
 30
0.0
 10
-0.6018300000000001
 20
3.7281500000000003
 30
0.0
 10
-0.55103
 20
2.6918300000000004
 30
0.0
 10
-0.6704100000000001
 20
2.4911700000000003
 30
0.0
 10
-0.6704100000000001
 20
2.4911700000000003
 30
0.0
 10
-0.6704100000000001
 20
2.4911700000000003
 30
0.0
 10
-1.1098300000000001
 20
1.7012300000000002
 30
0.0
 10
-1.1098300000000001
 20
1.7012300000000002
 30
0.0
 10
-1.1098300000000001
 20
1.7012300000000002
 30
0.0
 10
-1.1098300000000001
 20
1.7012300000000002
 30
0.0
 10
-1.3130300000000001
 20
1.1627500000000002
 30
0.0
 10
-1.3130300000000001
 20
1.1627500000000002
 30
0.0
 10
-1.3130300000000001
 20
1.1627500000000002
 30
0.0
 10
-1.3562100000000001
 20
1.0027300000000001
 30
0.0
 10
-1.4552700000000001
 20
0.8350900000000001
 30
0.0
 10
-1.4298700000000002
 20
0.66491
 30
0.0
 10
-1.4298700000000002
 20
0.66491
 30
0.0
 10
-1.21397
 20
1.4370700000000001
 30
0.0
 10
-0.53071
 20
2.0161900000000004
 30
0.0
 10
-0.48753
 20
2.8620100000000002
 30
0.0
 10
-0.48753
 20
2.8620100000000002
 30
0.0
 10
-0.48753
 20
2.8620100000000002
 30
0.0
 10
-0.4697500000000001
 20
2.6613500000000001
 30
0.0
 10
-0.4697500000000001
 20
2.6613500000000001
 30
0.0
 10
-0.4697500000000001
 20
2.6613500000000001
 30
0.0
 10
-0.47229
 20
2.4911700000000003
 30
0.0
 10
-0.4926100000000001
 20
2.30321
 30
0.0
 10
-0.5434100000000001
 20
2.1431900000000002
 30
0.0
 10
-0.5434100000000001
 20
2.1431900000000002
 30
0.0
 10
-0.5383300000000001
 20
1.9958700000000003
 30
0.0
 10
-0.74407
 20
1.4142100000000002
 30
0.0
 10
-0.71867
 20
1.6377300000000001
 30
0.0
 10
-0.71867
 20
1.6377300000000001
 30
0.0
 10
-0.8939300000000001
 20
1.61487
 30
0.0
 10
-1.1733300000000002
 20
0.6344300000000001
 30
0.0
 10
-1.3536700000000002
 20
0.22295
 30
0.0
 10
-1.3536700000000002
 20
0.22295
 30
0.0
 10
-1.2673100000000002
 20
0.2635900000000001
 30
0.0
 10
-1.24953
 20
0.3905900000000001
 30
0.0
 10
-1.1987300000000001
 20
0.4642500000000001
 30
0.0
 10
-1.1987300000000001
 20
0.4642500000000001
 30
0.0
 10
-0.9015500000000001
 20
1.2033900000000002
 30
0.0
 10
-0.28687
 20
1.8155300000000001
 30
0.0
 10
-0.36307
 20
2.6918300000000004
 30
0.0
 10
-0.36307
 20
2.6918300000000004
 30
0.0
 10
-0.34783
 20
2.9128100000000003
 30
0.0
 10
-0.52563
 20
3.8754700000000004
 30
0.0
 10
-0.3859300000000001
 20
3.4411300000000002
 30
0.0
 10
-0.3859300000000001
 20
3.4411300000000002
 30
0.0
 10
-0.3859300000000001
 20
3.4411300000000002
 30
0.0
 10
-0.3224300000000001
 20
3.3039700000000001
 30
0.0
 10
-0.3224300000000001
 20
3.3039700000000001
 30
0.0
 10
-0.3224300000000001
 20
3.3039700000000001
 30
0.0
 10
-0.3122700000000001
 20
3.1668100000000003
 30
0.0
 10
-0.18781
 20
3.2303100000000002
 30
0.0
 10
-0.25893
 20
3.3369900000000001
 30
0.0
 10
-0.25893
 20
3.3369900000000001
 30
0.0
 10
-0.26655
 20
3.4411300000000002
 30
0.0
 10
-0.35799
 20
3.5681300000000005
 30
0.0
 10
-0.28179
 20
3.6417900000000003
 30
0.0
 10
-0.28179
 20
3.6417900000000003
 30
0.0
 10
0.19318
 20
4.0024700000000006
 30
0.0
 10
-0.31735
 20
2.2905100000000003
 30
0.0
 10
-0.08113
 20
2.7350100000000004
 30
0.0
 10
-0.08113
 20
2.7350100000000004
 30
0.0
 10
-0.04303
 20
2.9890100000000004
 30
0.0
 10
-0.03287
 20
2.5876900000000003
 30
0.0
 10
0.023
 20
2.51403
 30
0.0
 10
0.023
 20
2.51403
 30
0.0
 10
0.11952
 20
1.3735700000000002
 30
0.0
 10
-1.04633
 20
0.51759
 30
0.0
 10
-1.7270500000000002
 20
-0.43998
 30
0.0
 10
-1.7270500000000002
 20
-0.43998
 30
0.0
 10
-1.7346700000000002
 20
-0.3333
 30
0.0
 10
-1.6051300000000002
 20
-0.219
 30
0.0
 10
-1.6533900000000001
 20
-0.10216
 30
0.0
 10
-1.6533900000000001
 20
-0.10216
 30
0.0
 10
-1.6889500000000002
 20
-0.092
 30
0.0
 10
-1.71435
 20
-0.11232
 30
0.0
 10
-1.7321300000000002
 20
-0.13518
 30
0.0
 10
-1.7321300000000002
 20
-0.13518
 30
0.0
 10
-1.92517
 20
-0.45014
 30
0.0
 10
-2.1207500000000001
 20
-0.7778000000000001
 30
0.0
 10
-2.18933
 20
-1.12578
 30
0.0
 10
-2.18933
 20
-1.12578
 30
0.0
 10
-2.3036300000000001
 20
-0.8616200000000001
 30
0.0
 10
-2.1639300000000001
 20
-0.42982
 30
0.0
 10
-2.2020300000000002
 20
-0.24948
 30
0.0
 10
-2.2020300000000002
 20
-0.24948
 30
0.0
 10
-2.4128500000000002
 20
-0.49332
 30
0.0
 10
-2.3874500000000003
 20
-0.8717800000000001
 30
0.0
 10
-2.4357100000000003
 20
-1.1892800000000001
 30
0.0
 10
-2.4357100000000003
 20
-1.1892800000000001
 30
0.0
 10
-2.6693900000000004
 20
-0.7447800000000001
 30
0.0
 10
-2.9081500000000005
 20
-0.6406400000000001
 30
0.0
 10
-2.7303500000000001
 20
-0.04882
 30
0.0
 10
-2.7303500000000001
 20
-0.04882
 30
0.0
 10
-2.8776700000000002
 20
-0.04882
 30
0.0
 10
-2.9106900000000002
 20
-0.30282
 30
0.0
 10
-2.9792700000000001
 20
-0.4095
 30
0.0
 10
-2.9792700000000001
 20
-0.4095
 30
0.0
 10
-3.0275300000000001
 20
-0.1555
 30
0.0
 10
-3.1265900000000002
 20
0.07563
 30
0.0
 10
-3.0046700000000004
 20
0.3169300000000001
 30
0.0
 10
-3.0046700000000004
 20
0.3169300000000001
 30
0.0
 10
-3.1748500000000002
 20
0.28645
 30
0.0
 10
-3.1900900000000001
 20
-0.00818
 30
0.0
 10
-3.2459700000000002
 20
-0.1428
 30
0.0
 10
-3.2459700000000002
 20
-0.1428
 30
0.0
 10
-3.4415500000000003
 20
0.07563
 30
0.0
 10
-3.4491700000000001
 20
0.3804300000000001
 30
0.0
 10
-3.3628100000000001
 20
0.6547500000000001
 30
0.0
 10
-3.3628100000000001
 20
0.6547500000000001
 30
0.0
 10
-3.4872700000000001
 20
0.7182500000000001
 30
0.0
 10
-3.4974300000000005
 20
0.43377
 30
0.0
 10
-3.6117300000000001
 20
0.51759
 30
0.0
 10
-3.6117300000000001
 20
0.51759
 30
0.0
 10
-3.7590500000000002
 20
0.8655700000000001
 30
0.0
 10
-3.4948900000000003
 20
0.7182500000000001
 30
0.0
 10
-3.5329900000000003
 20
0.9087500000000001
 30
0.0
 10
-3.5329900000000003
 20
0.9087500000000001
 30
0.0
 10
-3.6955500000000003
 20
1.3405500000000001
 30
0.0
 10
-4.2543500000000005
 20
1.7113900000000002
 30
0.0
 10
-3.9749500000000002
 20
2.1965300000000001
 30
0.0
 10
-3.9749500000000002
 20
2.1965300000000001
 30
0.0
 10
-4.3102300000000007
 20
1.7113900000000002
 30
0.0
 10
-4.2060900000000006
 20
2.6613500000000001
 30
0.0
 10
-3.9520900000000001
 20
2.9026500000000004
 30
0.0
 10
-3.9520900000000001
 20
2.9026500000000004
 30
0.0
 10
-4.0816300000000005
 20
2.9661500000000003
 30
0.0
 10
-4.1552899999999999
 20
2.7451700000000003
 30
0.0
 10
-4.2137100000000007
 20
2.6613500000000001
 30
0.0
 10
-4.2137100000000007
 20
2.6613500000000001
 30
0.0
 10
-4.2137100000000007
 20
3.0093300000000003
 30
0.0
 10
-4.0816300000000005
 20
3.3776300000000004
 30
0.0
 10
-3.7971500000000002
 20
3.6214700000000004
 30
0.0
 10
-3.7971500000000002
 20
3.6214700000000004
 30
0.0
 10
-3.7920700000000003
 20
3.6544900000000005
 30
0.0
 10
-3.7793700000000001
 20
3.6621100000000002
 30
0.0
 10
-3.7971500000000002
 20
3.6951300000000002
 30
0.0
 10
-3.7971500000000002
 20
3.6951300000000002
 30
0.0
 10
-4.2010100000000001
 20
3.4538300000000004
 30
0.0
 10
-3.6142700000000003
 20
4.3275900000000007
 30
0.0
 10
-3.4796500000000004
 20
4.0532700000000004
 30
0.0
 10
-3.4796500000000004
 20
4.0532700000000004
 30
0.0
 10
-3.5380700000000003
 20
4.4139500000000007
 30
0.0
 10
-3.2358100000000003
 20
4.2539300000000004
 30
0.0
 10
-3.2027900000000002
 20
4.49777
 30
0.0
 10
-3.2027900000000002
 20
4.49777
 30
0.0
 10
-3.2027900000000002
 20
4.49777
 30
0.0
 10
-3.2586700000000004
 20
4.6552500000000006
 30
0.0
 10
-3.2586700000000004
 20
4.6552500000000006
 30
0.0
 10
-3.2586700000000004
 20
4.6552500000000006
 30
0.0
 10
-3.4212300000000004
 20
4.8990900000000002
 30
0.0
 10
-3.3526500000000001
 20
4.4342700000000006
 30
0.0
 10
-3.4644100000000004
 20
4.4876100000000001
 30
0.0
 10
-3.4644100000000004
 20
4.4876100000000001
 30
0.0
 10
-3.4796500000000004
 20
4.5282500000000008
 30
0.0
 10
-3.4720300000000002
 20
4.5612700000000004
 30
0.0
 10
-3.4567900000000003
 20
4.5917500000000002
 30
0.0
 10
-3.4567900000000003
 20
4.5917500000000002
 30
0.0
 10
-3.4567900000000003
 20
4.5917500000000002
 30
0.0
 10
-3.4009100000000001
 20
4.7289099999999999
 30
0.0
 10
-3.4009100000000001
 20
4.7289099999999999
 30
0.0
 10
-3.4009100000000001
 20
4.7289099999999999
 30
0.0
 10
-3.3475700000000002
 20
4.9397300000000008
 30
0.0
 10
-3.1494500000000003
 20
4.7390700000000008
 30
0.0
 10
-3.0783300000000002
 20
4.8660700000000006
 30
0.0
 10
-3.0783300000000002
 20
4.8660700000000006
 30
0.0
 10
-3.3348700000000004
 20
5.3004100000000003
 30
0.0
 10
-3.7031700000000005
 20
4.3072699999999999
 30
0.0
 10
-3.5939500000000004
 20
4.6654100000000005
 30
0.0
 10
-3.5939500000000004
 20
4.6654100000000005
 30
0.0
 10
-3.5279100000000003
 20
4.9625900000000005
 30
0.0
 10
-3.2205700000000004
 20
5.14039
 30
0.0
 10
-2.9538700000000002
 20
4.9930700000000003
 30
0.0
 10
-2.9538700000000002
 20
4.9930700000000003
 30
0.0
 10
-3.1977100000000003
 20
4.7822500000000003
 30
0.0
 10
-3.1519900000000001
 20
4.1599500000000003
 30
0.0
 10
-2.9208500000000002
 20
4.6349300000000007
 30
0.0
 10
-2.9208500000000002
 20
4.6349300000000007
 30
0.0
 10
-2.8268700000000004
 20
4.8787700000000003
 30
0.0
 10
-2.6719300000000001
 20
5.0794300000000003
 30
0.0
 10
-2.4458700000000002
 20
5.1835700000000005
 30
0.0
 10
-2.4458700000000002
 20
5.1835700000000005
 30
0.0
 10
-2.52969
 20
5.2902500000000003
 30
0.0
 10
-2.7887700000000004
 20
5.0895900000000003
 30
0.0
 10
-2.94625
 20
5.0794300000000003
 30
0.0
 10
-2.94625
 20
5.0794300000000003
 30
0.0
 10
-2.6262100000000004
 20
5.5010700000000003
 30
0.0
 10
-2.0496300000000001
 20
5.5112300000000003
 30
0.0
 10
-1.63053
 20
5.64839
 30
0.0
  0
SPLINE
  5
27
100
AcDbEntity
  8
���� 1
 62
     7
100
AcDbSpline
210
0.0
220
0.0
230
1.0
 70
     1
 71
     3
 72
    20
 73
    16
 74
     0
 42
0.0000000001
 43
0.0000000001
 40
0.0
 40
0.0
 40
0.0
 40
0.0
 40
0.25
 40
0.25
 40
0.25
 40
0.25
 40
0.5
 40
0.5
 40
0.5
 40
0.5
 40
0.75
 40
0.75
 40
0.75
 40
0.75
 40
1.0
 40
1.0
 40
1.0
 40
1.0
 10
4.7956600000000007
 20
5.0794300000000003
 30
0.0
 10
4.8058200000000006
 20
5.0794300000000003
 30
0.0
 10
4.8159800000000006
 20
5.0667300000000006
 30
0.0
 10
4.8159800000000006
 20
5.0565700000000007
 30
0.0
 10
4.8159800000000006
 20
5.0565700000000007
 30
0.0
 10
4.7626400000000002
 20
4.8990900000000002
 30
0.0
 10
4.7321600000000004
 20
4.6984300000000001
 30
0.0
 10
4.5950000000000006
 20
4.6044500000000008
 30
0.0
 10
4.5950000000000006
 20
4.6044500000000008
 30
0.0
 10
4.5950000000000006
 20
4.6044500000000008
 30
0.0
 10
4.5518200000000002
 20
4.6552500000000006
 30
0.0
 10
4.5518200000000002
 20
4.6552500000000006
 30
0.0
 10
4.5518200000000002
 20
4.6552500000000006
 30
0.0
 10
4.5518200000000002
 20
4.6552500000000006
 30
0.0
 10
4.7956600000000007
 20
5.0794300000000003
 30
0.0
 10
4.7956600000000007
 20
5.0794300000000003
 30
0.0
  0
SPLINE
  5
28
100
AcDbEntity
  8
���� 1
100
AcDbSpline
210
0.0
220
0.0
230
1.0
 70
     1
 71
     3
 72
    36
 73
    32
 74
     0
 42
0.0000000001
 43
0.0000000001
 40
0.0
 40
0.0
 40
0.0
 40
0.0
 40
0.125
 40
0.125
 40
0.125
 40
0.125
 40
0.25
 40
0.25
 40
0.25
 40
0.25
 40
0.375
 40
0.375
 40
0.375
 40
0.375
 40
0.5
 40
0.5
 40
0.5
 40
0.5
 40
0.625
 40
0.625
 40
0.625
 40
0.625
 40
0.75
 40
0.75
 40
0.75
 40
0.75
 40
0.875
 40
0.875
 40
0.875
 40
0.875
 40
1.0
 40
1.0
 40
1.0
 40
1.0
 10
-2.6770100000000001
 20
4.6781100000000002
 30
0.0
 10
-2.5957300000000001
 20
4.6247700000000007
 30
0.0
 10
-2.7049500000000002
 20
4.5384100000000007
 30
0.0
 10
-2.7100300000000002
 20
4.4774500000000002
 30
0.0
 10
-2.7100300000000002
 20
4.4774500000000002
 30
0.0
 10
-2.8522700000000003
 20
4.2437700000000005
 30
0.0
 10
-2.9665700000000004
 20
3.9796100000000005
 30
0.0
 10
-2.9183100000000004
 20
3.6951300000000002
 30
0.0
 10
-2.9183100000000004
 20
3.6951300000000002
 30
0.0
 10
-2.8065500000000001
 20
3.4538300000000004
 30
0.0
 10
-2.5982700000000003
 20
3.0931500000000001
 30
0.0
 10
-2.7913100000000002
 20
2.8518500000000002
 30
0.0
 10
-2.7913100000000002
 20
2.8518500000000002
 30
0.0
 10
-2.7709900000000003
 20
3.0093300000000003
 30
0.0
 10
-2.8421100000000004
 20
3.2099900000000003
 30
0.0
 10
-2.9310100000000001
 20
3.3674700000000004
 30
0.0
 10
-2.9310100000000001
 20
3.3674700000000004
 30
0.0
 10
-3.0681700000000003
 20
3.2303100000000002
 30
0.0
 10
-2.9208500000000002
 20
2.9458300000000004
 30
0.0
 10
-3.0656300000000001
 20
2.8391500000000001
 30
0.0
 10
-3.0656300000000001
 20
2.8391500000000001
 30
0.0
 10
-3.1062700000000003
 20
2.8620100000000002
 30
0.0
 10
-3.1164300000000003
 20
2.9128100000000003
 30
0.0
 10
-3.1088100000000001
 20
2.9559900000000003
 30
0.0
 10
-3.1088100000000001
 20
2.9559900000000003
 30
0.0
 10
-2.9640300000000002
 20
3.4208100000000004
 30
0.0
 10
-3.1926300000000003
 20
4.0329500000000005
 30
0.0
 10
-2.8471900000000003
 20
4.4241100000000007
 30
0.0
 10
-2.8471900000000003
 20
4.4241100000000007
 30
0.0
 10
-2.8471900000000003
 20
4.4241100000000007
 30
0.0
 10
-2.6770100000000001
 20
4.6781100000000002
 30
0.0
 10
-2.6770100000000001
 20
4.6781100000000002
 30
0.0
  0
SPLINE
  5
29
100
AcDbEntity
  8
���� 1
 62
     7
100
AcDbSpline
210
0.0
220
0.0
230
1.0
 70
     1
 71
     3
 72
    12
 73
     8
 74
     0
 42
0.0000000001
 43
0.0000000001
 40
0.0
 40
0.0
 40
0.0
 40
0.0
 40
0.5
 40
0.5
 40
0.5
 40
0.5
 40
1.0
 40
1.0
 40
1.0
 40
1.0
 10
-0.3757700000000001
 20
4.5511100000000004
 30
0.0
 10
-0.33513
 20
4.5384100000000007
 30
0.0
 10
-0.30973
 20
4.4876100000000001
 30
0.0
 10
-0.3021100000000001
 20
4.4545900000000005
 30
0.0
 10
-0.3021100000000001
 20
4.4545900000000005
 30
0.0
 10
-0.36307
 20
4.4139500000000007
 30
0.0
 10
-0.37831
 20
4.50793
 30
0.0
 10
-0.3757700000000001
 20
4.5511100000000004
 30
0.0
  0
SPLINE
  5
2A
100
AcDbEntity
  8
���� 1
100
AcDbSpline
210
0.0
220
0.0
230
1.0
 70
     1
 71
     3
 72
    24
 73
    20
 74
     0
 42
0.0000000001
 43
0.0000000001
 40
0.0
 40
0.0
 40
0.0
 40
0.0
 40
0.2
 40
0.2
 40
0.2
 40
0.2
 40
0.4
 40
0.4
 40
0.4
 40
0.4
 40
0.6000000000000001
 40
0.6000000000000001
 40
0.6000000000000001
 40
0.6000000000000001
 40
0.8
 40
0.8
 40
0.8
 40
0.8
 40
1.0
 40
1.0
 40
1.0
 40
1.0
 10
-1.58735
 20
4.50793
 30
0.0
 10
-1.58735
 20
4.50793
 30
0.0
 10
-1.5594100000000002
 20
4.50793
 30
0.0
 10
-1.5594100000000002
 20
4.50793
 30
0.0
 10
-1.5594100000000002
 20
4.50793
 30
0.0
 10
-1.4501900000000001
 20
4.3504500000000004
 30
0.0
 10
-1.4247900000000002
 20
4.1294700000000004
 30
0.0
 10
-1.5695700000000001
 20
3.9694500000000001
 30
0.0
 10
-1.5695700000000001
 20
3.9694500000000001
 30
0.0
 10
-1.5695700000000001
 20
3.9694500000000001
 30
0.0
 10
-1.6076700000000002
 20
3.9694500000000001
 30
0.0
 10
-1.6076700000000002
 20
3.9694500000000001
 30
0.0
 10
-1.6076700000000002
 20
3.9694500000000001
 30
0.0
 10
-1.6229100000000001
 20
3.9897700000000005
 30
0.0
 10
-1.6330700000000002
 20
4.0126300000000006
 30
0.0
 10
-1.63053
 20
4.0329500000000005
 30
0.0
 10
-1.63053
 20
4.0329500000000005
 30
0.0
 10
-1.5111500000000002
 20
4.1599500000000003
 30
0.0
 10
-1.5975100000000002
 20
4.3606100000000003
 30
0.0
 10
-1.58735
 20
4.50793
 30
0.0
  0
SPLINE
  5
2B
100
AcDbEntity
  8
���� 1
 62
     7
100
AcDbSpline
210
0.0
220
0.0
230
1.0
 70
     1
 71
     3
 72
    16
 73
    12
 74
     0
 42
0.0000000001
 43
0.0000000001
 40
0.0
 40
0.0
 40
0.0
 40
0.0
 40
0.3333333333333333
 40
0.3333333333333333
 40
0.3333333333333333
 40
0.3333333333333333
 40
0.6666666666666666
 40
0.6666666666666666
 40
0.6666666666666666
 40
0.6666666666666666
 40
1.0
 40
1.0
 40
1.0
 40
1.0
 10
-0.24877
 20
4.4647500000000004
 30
0.0
 10
-0.15987
 20
4.3910900000000002
 30
0.0
 10
-0.15479
 20
4.2437700000000005
 30
0.0
 10
-0.16241
 20
4.1497900000000003
 30
0.0
 10
-0.16241
 20
4.1497900000000003
 30
0.0
 10
-0.17003
 20
4.1497900000000003
 30
0.0
 10
-0.18781
 20
4.1497900000000003
 30
0.0
 10
-0.18527
 20
4.1599500000000003
 30
0.0
 10
-0.18527
 20
4.1599500000000003
 30
0.0
 10
-0.15479
 20
4.2767900000000001
 30
0.0
 10
-0.32751
 20
4.3606100000000003
 30
0.0
 10
-0.24877
 20
4.4647500000000004
 30
0.0
  0
SPLINE
  5
2C
100
AcDbEntity
  8
���� 1
100
AcDbSpline
210
0.0
220
0.0
230
1.0
 70
     1
 71
     3
 72
    16
 73
    12
 74
     0
 42
0.0000000001
 43
0.0000000001
 40
0.0
 40
0.0
 40
0.0
 40
0.0
 40
0.3333333333333333
 40
0.3333333333333333
 40
0.3333333333333333
 40
0.3333333333333333
 40
0.6666666666666666
 40
0.6666666666666666
 40
0.6666666666666666
 40
0.6666666666666666
 40
1.0
 40
1.0
 40
1.0
 40
1.0
 10
-1.3130300000000001
 20
4.4241100000000007
 30
0.0
 10
-1.3054100000000002
 20
4.4241100000000007
 30
0.0
 10
-1.29017
 20
4.4241100000000007
 30
0.0
 10
-1.29271
 20
4.4139500000000007
 30
0.0
 10
-1.29271
 20
4.4139500000000007
 30
0.0
 10
-1.3181100000000001
 20
4.3072699999999999
 30
0.0
 10
-1.2647700000000002
 20
4.1904300000000001
 30
0.0
 10
-1.3130300000000001
 20
4.08629
 30
0.0
 10
-1.3130300000000001
 20
4.08629
 30
0.0
 10
-1.4070100000000001
 20
4.1599500000000003
 30
0.0
 10
-1.3511300000000002
 20
4.3174300000000008
 30
0.0
 10
-1.3130300000000001
 20
4.4241100000000007
 30
0.0
  0
SPLINE
  5
2D
100
AcDbEntity
  8
���� 1
100
AcDbSpline
210
0.0
220
0.0
230
1.0
 70
     1
 71
     3
 72
    32
 73
    28
 74
     0
 42
0.0000000001
 43
0.0000000001
 40
0.0
 40
0.0
 40
0.0
 40
0.0
 40
0.1428571428571429
 40
0.1428571428571429
 40
0.1428571428571429
 40
0.1428571428571429
 40
0.2857142857142857
 40
0.2857142857142857
 40
0.2857142857142857
 40
0.2857142857142857
 40
0.4285714285714286
 40
0.4285714285714286
 40
0.4285714285714286
 40
0.4285714285714286
 40
0.5714285714285714
 40
0.5714285714285714
 40
0.5714285714285714
 40
0.5714285714285714
 40
0.7142857142857142
 40
0.7142857142857142
 40
0.7142857142857142
 40
0.7142857142857142
 40
0.857142857142857
 40
0.857142857142857
 40
0.857142857142857
 40
0.857142857142857
 40
1.0
 40
1.0
 40
1.0
 40
1.0
 10
-1.7880100000000001
 20
4.3275900000000007
 30
0.0
 10
-1.7702300000000002
 20
4.3275900000000007
 30
0.0
 10
-1.7448300000000001
 20
4.3174300000000008
 30
0.0
 10
-1.7372100000000001
 20
4.3072699999999999
 30
0.0
 10
-1.7372100000000001
 20
4.3072699999999999
 30
0.0
 10
-1.8845300000000003
 20
4.1599500000000003
 30
0.0
 10
-1.8134100000000002
 20
3.9491300000000003
 30
0.0
 10
-1.8134100000000002
 20
3.7789500000000005
 30
0.0
 10
-1.8134100000000002
 20
3.7789500000000005
 30
0.0
 10
-1.8921500000000002
 20
3.8322900000000004
 30
0.0
 10
-1.9531100000000001
 20
3.8957900000000003
 30
0.0
 10
-2.05979
 20
3.8856300000000004
 30
0.0
 10
-2.05979
 20
3.8856300000000004
 30
0.0
 10
-2.1334500000000003
 20
3.9694500000000001
 30
0.0
 10
-2.1613900000000004
 20
4.07613
 30
0.0
 10
-2.2833100000000002
 20
4.0634300000000003
 30
0.0
 10
-2.2833100000000002
 20
4.0634300000000003
 30
0.0
 10
-2.2833100000000002
 20
4.0634300000000003
 30
0.0
 10
-2.2858500000000004
 20
4.1167700000000007
 30
0.0
 10
-2.2858500000000004
 20
4.1167700000000007
 30
0.0
 10
-2.2858500000000004
 20
4.1167700000000007
 30
0.0
 10
-2.2172700000000001
 20
4.1802700000000002
 30
0.0
 10
-2.1156700000000002
 20
4.1802700000000002
 30
0.0
 10
-2.0343900000000001
 20
4.1599500000000003
 30
0.0
 10
-2.0343900000000001
 20
4.1599500000000003
 30
0.0
 10
-1.9581900000000001
 20
4.2132900000000006
 30
0.0
 10
-1.84135
 20
4.2336100000000005
 30
0.0
 10
-1.7880100000000001
 20
4.3275900000000007
 30
0.0
  0
SPLINE
  5
2E
100
AcDbEntity
  8
���� 1
100
AcDbSpline
210
0.0
220
0.0
230
1.0
 70
     1
 71
     3
 72
    24
 73
    20
 74
     0
 42
0.0000000001
 43
0.0000000001
 40
0.0
 40
0.0
 40
0.0
 40
0.0
 40
0.2
 40
0.2
 40
0.2
 40
0.2
 40
0.4
 40
0.4
 40
0.4
 40
0.4
 40
0.6000000000000001
 40
0.6000000000000001
 40
0.6000000000000001
 40
0.6000000000000001
 40
0.8
 40
0.8
 40
0.8
 40
0.8
 40
1.0
 40
1.0
 40
1.0
 40
1.0
 10
-1.0082300000000002
 20
4.1701100000000002
 30
0.0
 10
-0.90917
 20
4.1802700000000002
 30
0.0
 10
-0.9142500000000001
 20
4.07613
 30
0.0
 10
-0.90917
 20
4.0126300000000006
 30
0.0
 10
-0.90917
 20
4.0126300000000006
 30
0.0
 10
-0.8609100000000001
 20
3.9694500000000001
 30
0.0
 10
-0.7542300000000001
 20
4.0024700000000006
 30
0.0
 10
-0.7466100000000001
 20
3.9161100000000002
 30
0.0
 10
-0.7466100000000001
 20
3.9161100000000002
 30
0.0
 10
-0.84821
 20
3.8754700000000004
 30
0.0
 10
-0.9802900000000001
 20
3.8018100000000001
 30
0.0
 10
-1.0666500000000001
 20
3.7281500000000003
 30
0.0
 10
-1.0666500000000001
 20
3.7281500000000003
 30
0.0
 10
-1.1403100000000002
 20
3.8322900000000004
 30
0.0
 10
-1.0183900000000001
 20
3.9796100000000005
 30
0.0
 10
-1.0615700000000001
 20
4.08629
 30
0.0
 10
-1.0615700000000001
 20
4.08629
 30
0.0
 10
-1.0615700000000001
 20
4.08629
 30
0.0
 10
-1.0082300000000002
 20
4.1701100000000002
 30
0.0
 10
-1.0082300000000002
 20
4.1701100000000002
 30
0.0
  0
SPLINE
  5
2F
100
AcDbEntity
  8
���� 1
 62
     7
100
AcDbSpline
210
0.0
220
0.0
230
1.0
 70
     1
 71
     3
 72
    12
 73
     8
 74
     0
 42
0.0000000001
 43
0.0000000001
 40
0.0
 40
0.0
 40
0.0
 40
0.0
 40
0.5
 40
0.5
 40
0.5
 40
0.5
 40
1.0
 40
1.0
 40
1.0
 40
1.0
 10
-1.9785100000000002
 20
4.0964499999999999
 30
0.0
 10
-1.9581900000000001
 20
4.1066100000000008
 30
0.0
 10
-1.9480300000000002
 20
4.07613
 30
0.0
 10
-1.9505700000000001
 20
4.0532700000000004
 30
0.0
 10
-1.9505700000000001
 20
4.0532700000000004
 30
0.0
 10
-1.9734300000000002
 20
4.0532700000000004
 30
0.0
 10
-2.0039100000000003
 20
4.07613
 30
0.0
 10
-1.9785100000000002
 20
4.0964499999999999
 30
0.0
  0
SPLINE
  5
30
100
AcDbEntity
  8
���� 1
 62
     7
100
AcDbSpline
210
0.0
220
0.0
230
1.0
 70
     1
 71
     3
 72
    12
 73
     8
 74
     0
 42
0.0000000001
 43
0.0000000001
 40
0.0
 40
0.0
 40
0.0
 40
0.0
 40
0.5
 40
0.5
 40
0.5
 40
0.5
 40
1.0
 40
1.0
 40
1.0
 40
1.0
 10
-2.0623300000000002
 20
4.07613
 30
0.0
 10
-2.02677
 20
4.08629
 30
0.0
 10
-2.0318500000000004
 20
4.0532700000000004
 30
0.0
 10
-2.0445500000000001
 20
4.0329500000000005
 30
0.0
 10
-2.0445500000000001
 20
4.0329500000000005
 30
0.0
 10
-2.0775700000000001
 20
4.0227900000000005
 30
0.0
 10
-2.0801100000000003
 20
4.0532700000000004
 30
0.0
 10
-2.0623300000000002
 20
4.07613
 30
0.0
  0
SPLINE
  5
31
100
AcDbEntity
  8
���� 1
 62
     7
100
AcDbSpline
210
0.0
220
0.0
230
1.0
 70
     1
 71
     3
 72
    12
 73
     8
 74
     0
 42
0.0000000001
 43
0.0000000001
 40
0.0
 40
0.0
 40
0.0
 40
0.0
 40
0.5
 40
0.5
 40
0.5
 40
0.5
 40
1.0
 40
1.0
 40
1.0
 40
1.0
 10
-0.9650500000000001
 20
3.9694500000000001
 30
0.0
 10
-0.9447300000000001
 20
3.9694500000000001
 30
0.0
 10
-0.9167900000000001
 20
3.9491300000000003
 30
0.0
 10
-0.9040900000000001
 20
3.9288100000000004
 30
0.0
 10
-0.9040900000000001
 20
3.9288100000000004
 30
0.0
 10
-0.9244100000000001
 20
3.9059500000000003
 30
0.0
 10
-0.9701300000000001
 20
3.9491300000000003
 30
0.0
 10
-0.9650500000000001
 20
3.9694500000000001
 30
0.0
  0
SPLINE
  5
32
100
AcDbEntity
  8
���� 1
100
AcDbSpline
210
0.0
220
0.0
230
1.0
 70
     1
 71
     3
 72
    16
 73
    12
 74
     0
 42
0.0000000001
 43
0.0000000001
 40
0.0
 40
0.0
 40
0.0
 40
0.0
 40
0.3333333333333333
 40
0.3333333333333333
 40
0.3333333333333333
 40
0.3333333333333333
 40
0.6666666666666666
 40
0.6666666666666666
 40
0.6666666666666666
 40
0.6666666666666666
 40
1.0
 40
1.0
 40
1.0
 40
1.0
 10
-1.1784100000000002
 20
3.7052900000000002
 30
0.0
 10
-1.1072900000000001
 20
3.7052900000000002
 30
0.0
 10
-1.1453900000000001
 20
3.6113100000000005
 30
0.0
 10
-1.08443
 20
3.5884500000000004
 30
0.0
 10
-1.08443
 20
3.5884500000000004
 30
0.0
 10
-1.08443
 20
3.5884500000000004
 30
0.0
 10
-1.0945900000000002
 20
3.5579700000000001
 30
0.0
 10
-1.0945900000000002
 20
3.5579700000000001
 30
0.0
 10
-1.0945900000000002
 20
3.5579700000000001
 30
0.0
 10
-1.1784100000000002
 20
3.5376500000000002
 30
0.0
 10
-1.1961900000000001
 20
3.6544900000000005
 30
0.0
 10
-1.1784100000000002
 20
3.7052900000000002
 30
0.0
  0
SPLINE
  5
33
100
AcDbEntity
  8
���� 1
100
AcDbSpline
210
0.0
220
0.0
230
1.0
 70
     1
 71
     3
 72
    16
 73
    12
 74
     0
 42
0.0000000001
 43
0.0000000001
 40
0.0
 40
0.0
 40
0.0
 40
0.0
 40
0.3333333333333333
 40
0.3333333333333333
 40
0.3333333333333333
 40
0.3333333333333333
 40
0.6666666666666666
 40
0.6666666666666666
 40
0.6666666666666666
 40
0.6666666666666666
 40
1.0
 40
1.0
 40
1.0
 40
1.0
 10
-1.7676900000000002
 20
3.5274900000000002
 30
0.0
 10
-1.6914900000000002
 20
3.4741500000000003
 30
0.0
 10
-1.8184900000000002
 20
3.3573100000000005
 30
0.0
 10
-1.7778500000000002
 20
3.2633300000000003
 30
0.0
 10
-1.7778500000000002
 20
3.2633300000000003
 30
0.0
 10
-1.7803900000000001
 20
3.2531700000000003
 30
0.0
 10
-1.7880100000000001
 20
3.2404700000000002
 30
0.0
 10
-1.8007100000000003
 20
3.2404700000000002
 30
0.0
 10
-1.8007100000000003
 20
3.2404700000000002
 30
0.0
 10
-1.9200900000000001
 20
3.3039700000000001
 30
0.0
 10
-1.8057900000000002
 20
3.4411300000000002
 30
0.0
 10
-1.7676900000000002
 20
3.5274900000000002
 30
0.0
  0
SPLINE
  5
34
100
AcDbEntity
  8
���� 1
100
AcDbSpline
210
0.0
220
0.0
230
1.0
 70
     1
 71
     3
 72
    16
 73
    12
 74
     0
 42
0.0000000001
 43
0.0000000001
 40
0.0
 40
0.0
 40
0.0
 40
0.0
 40
0.3333333333333333
 40
0.3333333333333333
 40
0.3333333333333333
 40
0.3333333333333333
 40
0.6666666666666666
 40
0.6666666666666666
 40
0.6666666666666666
 40
0.6666666666666666
 40
1.0
 40
1.0
 40
1.0
 40
1.0
 10
-1.1352300000000002
 20
3.5274900000000002
 30
0.0
 10
-1.0691900000000001
 20
3.4741500000000003
 30
0.0
 10
-1.0641100000000001
 20
3.2836500000000002
 30
0.0
 10
-1.1530100000000001
 20
3.2303100000000002
 30
0.0
 10
-1.1530100000000001
 20
3.2303100000000002
 30
0.0
 10
-1.1530100000000001
 20
3.2303100000000002
 30
0.0
 10
-1.1733300000000002
 20
3.2404700000000002
 30
0.0
 10
-1.1733300000000002
 20
3.2404700000000002
 30
0.0
 10
-1.1733300000000002
 20
3.2404700000000002
 30
0.0
 10
-1.1733300000000002
 20
3.2404700000000002
 30
0.0
 10
-1.1352300000000002
 20
3.5274900000000002
 30
0.0
 10
-1.1352300000000002
 20
3.5274900000000002
 30
0.0
  0
SPLINE
  5
35
100
AcDbEntity
  8
���� 1
 62
     7
100
AcDbSpline
210
0.0
220
0.0
230
1.0
 70
     1
 71
     3
 72
    28
 73
    24
 74
     0
 42
0.0000000001
 43
0.0000000001
 40
0.0
 40
0.0
 40
0.0
 40
0.0
 40
0.1666666666666667
 40
0.1666666666666667
 40
0.1666666666666667
 40
0.1666666666666667
 40
0.3333333333333333
 40
0.3333333333333333
 40
0.3333333333333333
 40
0.3333333333333333
 40
0.5
 40
0.5
 40
0.5
 40
0.5
 40
0.6666666666666666
 40
0.6666666666666666
 40
0.6666666666666666
 40
0.6666666666666666
 40
0.8333333333333333
 40
0.8333333333333333
 40
0.8333333333333333
 40
0.8333333333333333
 40
1.0
 40
1.0
 40
1.0
 40
1.0
 10
-1.54671
 20
3.1566500000000004
 30
0.0
 10
-1.54671
 20
3.1566500000000004
 30
0.0
 10
-1.3587500000000001
 20
3.1363300000000001
 30
0.0
 10
-1.3587500000000001
 20
3.1363300000000001
 30
0.0
 10
-1.3587500000000001
 20
3.1363300000000001
 30
0.0
 10
-1.3587500000000001
 20
3.1363300000000001
 30
0.0
 10
-1.25207
 20
3.1363300000000001
 30
0.0
 10
-1.25207
 20
3.1363300000000001
 30
0.0
 10
-1.25207
 20
3.1363300000000001
 30
0.0
 10
-1.2342900000000001
 20
3.1261700000000001
 30
0.0
 10
-1.21143
 20
3.1033100000000005
 30
0.0
 10
-1.21143
 20
3.0728300000000002
 30
0.0
 10
-1.21143
 20
3.0728300000000002
 30
0.0
 10
-1.33589
 20
3.1033100000000005
 30
0.0
 10
-1.4832100000000001
 20
3.0728300000000002
 30
0.0
 10
-1.6076700000000002
 20
3.1134700000000004
 30
0.0
 10
-1.6076700000000002
 20
3.1134700000000004
 30
0.0
 10
-1.6076700000000002
 20
3.1134700000000004
 30
0.0
 10
-1.6076700000000002
 20
3.1464900000000005
 30
0.0
 10
-1.6076700000000002
 20
3.1464900000000005
 30
0.0
 10
-1.6076700000000002
 20
3.1464900000000005
 30
0.0
 10
-1.6076700000000002
 20
3.1464900000000005
 30
0.0
 10
-1.54671
 20
3.1566500000000004
 30
0.0
 10
-1.54671
 20
3.1566500000000004
 30
0.0
  0
SPLINE
  5
36
100
AcDbEntity
  8
���� 1
 62
     7
100
AcDbSpline
210
0.0
220
0.0
230
1.0
 70
     1
 71
     3
 72
    24
 73
    20
 74
     0
 42
0.0000000001
 43
0.0000000001
 40
0.0
 40
0.0
 40
0.0
 40
0.0
 40
0.2
 40
0.2
 40
0.2
 40
0.2
 40
0.4
 40
0.4
 40
0.4
 40
0.4
 40
0.6000000000000001
 40
0.6000000000000001
 40
0.6000000000000001
 40
0.6000000000000001
 40
0.8
 40
0.8
 40
0.8
 40
0.8
 40
1.0
 40
1.0
 40
1.0
 40
1.0
 10
4.3410000000000002
 20
2.9991700000000003
 30
0.0
 10
4.8693200000000001
 20
2.1762100000000002
 30
0.0
 10
5.5348000000000006
 20
1.10941
 30
0.0
 10
4.9861600000000008
 20
0.12897
 30
0.0
 10
4.9861600000000008
 20
0.12897
 30
0.0
 10
4.9226600000000005
 20
0.09595
 30
0.0
 10
4.87948
 20
-0.00818
 30
0.0
 10
4.7956600000000007
 20
0.00197
 30
0.0
 10
4.7956600000000007
 20
0.00197
 30
0.0
 10
4.7956600000000007
 20
0.00197
 30
0.0
 10
4.6991400000000008
 20
0.15945
 30
0.0
 10
4.6991400000000008
 20
0.15945
 30
0.0
 10
4.6991400000000008
 20
0.15945
 30
0.0
 10
4.9861600000000008
 20
0.53791
 30
0.0
 10
5.0369600000000005
 20
1.0459100000000001
 30
0.0
 10
4.9429800000000004
 20
1.5005700000000002
 30
0.0
 10
4.9429800000000004
 20
1.5005700000000002
 30
0.0
 10
4.7423200000000003
 20
2.00603
 30
0.0
 10
4.4349800000000004
 20
2.46069
 30
0.0
 10
4.3410000000000002
 20
2.9991700000000003
 30
0.0
  0
SPLINE
  5
37
100
AcDbEntity
  8
���� 1
 62
     7
100
AcDbSpline
210
0.0
220
0.0
230
1.0
 70
     1
 71
     3
 72
    16
 73
    12
 74
     0
 42
0.0000000001
 43
0.0000000001
 40
0.0
 40
0.0
 40
0.0
 40
0.0
 40
0.3333333333333333
 40
0.3333333333333333
 40
0.3333333333333333
 40
0.3333333333333333
 40
0.6666666666666666
 40
0.6666666666666666
 40
0.6666666666666666
 40
0.6666666666666666
 40
1.0
 40
1.0
 40
1.0
 40
1.0
 10
-1.9785100000000002
 20
2.7121500000000003
 30
0.0
 10
-1.9785100000000002
 20
2.7121500000000003
 30
0.0
 10
-1.9048500000000002
 20
2.6511900000000002
 30
0.0
 10
-1.9048500000000002
 20
2.6511900000000002
 30
0.0
 10
-1.9048500000000002
 20
2.6511900000000002
 30
0.0
 10
-1.9048500000000002
 20
2.6511900000000002
 30
0.0
 10
-1.9861300000000002
 20
2.5876900000000003
 30
0.0
 10
-1.9861300000000002
 20
2.5876900000000003
 30
0.0
 10
-1.9861300000000002
 20
2.5876900000000003
 30
0.0
 10
-1.9861300000000002
 20
2.5876900000000003
 30
0.0
 10
-1.9785100000000002
 20
2.7121500000000003
 30
0.0
 10
-1.9785100000000002
 20
2.7121500000000003
 30
0.0
  0
SPLINE
  5
38
100
AcDbEntity
  8
���� 1
 62
     7
100
AcDbSpline
210
0.0
220
0.0
230
1.0
 70
     1
 71
     3
 72
    12
 73
     8
 74
     0
 42
0.0000000001
 43
0.0000000001
 40
0.0
 40
0.0
 40
0.0
 40
0.0
 40
0.5
 40
0.5
 40
0.5
 40
0.5
 40
1.0
 40
1.0
 40
1.0
 40
1.0
 10
-1.50353
 20
2.6511900000000002
 30
0.0
 10
-1.4070100000000001
 20
2.6613500000000001
 30
0.0
 10
-1.5644900000000002
 20
2.5343500000000003
 30
0.0
 10
-1.5213100000000002
 20
2.6181700000000001
 30
0.0
 10
-1.5213100000000002
 20
2.6181700000000001
 30
0.0
 10
-1.5213100000000002
 20
2.6181700000000001
 30
0.0
 10
-1.50353
 20
2.6511900000000002
 30
0.0
 10
-1.50353
 20
2.6511900000000002
 30
0.0
  0
SPLINE
  5
39
100
AcDbEntity
  8
���� 1
 62
     7
100
AcDbSpline
210
0.0
220
0.0
230
1.0
 70
     1
 71
     3
 72
    12
 73
     8
 74
     0
 42
0.0000000001
 43
0.0000000001
 40
0.0
 40
0.0
 40
0.0
 40
0.0
 40
0.5
 40
0.5
 40
0.5
 40
0.5
 40
1.0
 40
1.0
 40
1.0
 40
1.0
 10
-1.9683500000000003
 20
2.3870300000000002
 30
0.0
 10
-1.9048500000000002
 20
2.3641700000000001
 30
0.0
 10
-1.8997700000000002
 20
2.2701900000000004
 30
0.0
 10
-1.9785100000000002
 20
2.2701900000000004
 30
0.0
 10
-1.9785100000000002
 20
2.2701900000000004
 30
0.0
 10
-2.01661
 20
2.2905100000000003
 30
0.0
 10
-1.9912100000000001
 20
2.3641700000000001
 30
0.0
 10
-1.9683500000000003
 20
2.3870300000000002
 30
0.0
  0
SPLINE
  5
3A
100
AcDbEntity
  8
���� 1
 62
     7
100
AcDbSpline
210
0.0
220
0.0
230
1.0
 70
     1
 71
     3
 72
    12
 73
     8
 74
     0
 42
0.0000000001
 43
0.0000000001
 40
0.0
 40
0.0
 40
0.0
 40
0.0
 40
0.5
 40
0.5
 40
0.5
 40
0.5
 40
1.0
 40
1.0
 40
1.0
 40
1.0
 10
-1.67371
 20
2.3438500000000002
 30
0.0
 10
-1.6457700000000002
 20
2.3438500000000002
 30
0.0
 10
-1.6178300000000001
 20
2.3235300000000003
 30
0.0
 10
-1.6229100000000001
 20
2.2905100000000003
 30
0.0
 10
-1.6229100000000001
 20
2.2905100000000003
 30
0.0
 10
-1.6660900000000001
 20
2.2701900000000004
 30
0.0
 10
-1.7346700000000002
 20
2.3235300000000003
 30
0.0
 10
-1.67371
 20
2.3438500000000002
 30
0.0
  0
SPLINE
  5
3B
100
AcDbEntity
  8
���� 1
 62
     7
100
AcDbSpline
210
0.0
220
0.0
230
1.0
 70
     1
 71
     3
 72
    20
 73
    16
 74
     0
 42
0.0000000001
 43
0.0000000001
 40
0.0
 40
0.0
 40
0.0
 40
0.0
 40
0.25
 40
0.25
 40
0.25
 40
0.25
 40
0.5
 40
0.5
 40
0.5
 40
0.5
 40
0.75
 40
0.75
 40
0.75
 40
0.75
 40
1.0
 40
1.0
 40
1.0
 40
1.0
 10
-1.5670300000000001
 20
2.3235300000000003
 30
0.0
 10
-1.5187700000000002
 20
2.3438500000000002
 30
0.0
 10
-1.4832100000000001
 20
2.2803500000000003
 30
0.0
 10
-1.4400300000000001
 20
2.3133700000000004
 30
0.0
 10
-1.4400300000000001
 20
2.3133700000000004
 30
0.0
 10
-1.4400300000000001
 20
2.3133700000000004
 30
0.0
 10
-1.4298700000000002
 20
2.30321
 30
0.0
 10
-1.4298700000000002
 20
2.30321
 30
0.0
 10
-1.4298700000000002
 20
2.30321
 30
0.0
 10
-1.4501900000000001
 20
2.24987
 30
0.0
 10
-1.5187700000000002
 20
2.30321
 30
0.0
 10
-1.5644900000000002
 20
2.2905100000000003
 30
0.0
 10
-1.5644900000000002
 20
2.2905100000000003
 30
0.0
 10
-1.5644900000000002
 20
2.2905100000000003
 30
0.0
 10
-1.5670300000000001
 20
2.3235300000000003
 30
0.0
 10
-1.5670300000000001
 20
2.3235300000000003
 30
0.0
  0
SPLINE
  5
3C
100
AcDbEntity
  8
���� 1
 62
     7
100
AcDbSpline
210
0.0
220
0.0
230
1.0
 70
     1
 71
     3
 72
    12
 73
     8
 74
     0
 42
0.0000000001
 43
0.0000000001
 40
0.0
 40
0.0
 40
0.0
 40
0.0
 40
0.5
 40
0.5
 40
0.5
 40
0.5
 40
1.0
 40
1.0
 40
1.0
 40
1.0
 10
-1.2393700000000001
 20
2.30321
 30
0.0
 10
-1.20889
 20
2.2905100000000003
 30
0.0
 10
-1.2190500000000002
 20
2.24987
 30
0.0
 10
-1.2215900000000002
 20
2.2295500000000001
 30
0.0
 10
-1.2215900000000002
 20
2.2295500000000001
 30
0.0
 10
-1.2698500000000001
 20
2.21685
 30
0.0
 10
-1.2698500000000001
 20
2.2803500000000003
 30
0.0
 10
-1.2393700000000001
 20
2.30321
 30
0.0
  0
SPLINE
  5
3D
100
AcDbEntity
  8
���� 1
 62
     7
100
AcDbSpline
210
0.0
220
0.0
230
1.0
 70
     1
 71
     3
 72
    48
 73
    44
 74
     0
 42
0.0000000001
 43
0.0000000001
 40
0.0
 40
0.0
 40
0.0
 40
0.0
 40
0.0909090909090909
 40
0.0909090909090909
 40
0.0909090909090909
 40
0.0909090909090909
 40
0.1818181818181818
 40
0.1818181818181818
 40
0.1818181818181818
 40
0.1818181818181818
 40
0.2727272727272727
 40
0.2727272727272727
 40
0.2727272727272727
 40
0.2727272727272727
 40
0.3636363636363637
 40
0.3636363636363637
 40
0.3636363636363637
 40
0.3636363636363637
 40
0.4545454545454546
 40
0.4545454545454546
 40
0.4545454545454546
 40
0.4545454545454546
 40
0.5454545454545455
 40
0.5454545454545455
 40
0.5454545454545455
 40
0.5454545454545455
 40
0.6363636363636365
 40
0.6363636363636365
 40
0.6363636363636365
 40
0.6363636363636365
 40
0.7272727272727274
 40
0.7272727272727274
 40
0.7272727272727274
 40
0.7272727272727274
 40
0.8181818181818183
 40
0.8181818181818183
 40
0.8181818181818183
 40
0.8181818181818183
 40
0.9090909090909093
 40
0.9090909090909093
 40
0.9090909090909093
 40
0.9090909090909093
 40
1.0
 40
1.0
 40
1.0
 40
1.0
 10
-1.7270500000000002
 20
2.2295500000000001
 30
0.0
 10
-1.5594100000000002
 20
2.20669
 30
0.0
 10
-1.3689100000000001
 20
2.26003
 30
0.0
 10
-1.2215900000000002
 20
2.1431900000000002
 30
0.0
 10
-1.2215900000000002
 20
2.1431900000000002
 30
0.0
 10
-1.0971300000000002
 20
1.9222100000000002
 30
0.0
 10
-1.2647700000000002
 20
1.7215500000000001
 30
0.0
 10
-1.4324100000000002
 20
1.5843900000000002
 30
0.0
 10
-1.4324100000000002
 20
1.5843900000000002
 30
0.0
 10
-1.4781300000000002
 20
1.6275700000000002
 30
0.0
 10
-1.5213100000000002
 20
1.6885300000000001
 30
0.0
 10
-1.5797300000000001
 20
1.5945500000000001
 30
0.0
 10
-1.5797300000000001
 20
1.5945500000000001
 30
0.0
 10
-1.6381500000000002
 20
1.7215500000000001
 30
0.0
 10
-1.7118100000000001
 20
1.5539100000000001
 30
0.0
 10
-1.7676900000000002
 20
1.5107300000000001
 30
0.0
 10
-1.7676900000000002
 20
1.5107300000000001
 30
0.0
 10
-1.8057900000000002
 20
1.5412100000000002
 30
0.0
 10
-1.8921500000000002
 20
1.6682100000000002
 30
0.0
 10
-1.9658100000000001
 20
1.57423
 30
0.0
 10
-1.9658100000000001
 20
1.57423
 30
0.0
 10
-1.9708900000000003
 20
1.6478900000000001
 30
0.0
 10
-2.0293100000000002
 20
1.6580500000000002
 30
0.0
 10
-2.0826500000000001
 20
1.6377300000000001
 30
0.0
 10
-2.0826500000000001
 20
1.6377300000000001
 30
0.0
 10
-2.1004300000000002
 20
1.6885300000000001
 30
0.0
 10
-2.1309100000000001
 20
1.7317100000000001
 30
0.0
 10
-2.05471
 20
1.7545700000000002
 30
0.0
 10
-2.05471
 20
1.7545700000000002
 30
0.0
 10
-2.0623300000000002
 20
1.8155300000000001
 30
0.0
 10
-2.0623300000000002
 20
1.8790300000000002
 30
0.0
 10
-2.0242300000000002
 20
1.9323700000000001
 30
0.0
 10
-2.0242300000000002
 20
1.9323700000000001
 30
0.0
 10
-2.0242300000000002
 20
1.9323700000000001
 30
0.0
 10
-2.01661
 20
1.8790300000000002
 30
0.0
 10
-2.01661
 20
1.8790300000000002
 30
0.0
 10
-2.01661
 20
1.8790300000000002
 30
0.0
 10
-1.9124700000000001
 20
1.9222100000000002
 30
0.0
 10
-1.9759700000000002
 20
2.20669
 30
0.0
 10
-1.7905500000000001
 20
2.1330300000000002
 30
0.0
 10
-1.7905500000000001
 20
2.1330300000000002
 30
0.0
 10
-1.8515100000000002
 20
2.1965300000000001
 30
0.0
 10
-1.7880100000000001
 20
2.2295500000000001
 30
0.0
 10
-1.7270500000000002
 20
2.2295500000000001
 30
0.0
  0
SPLINE
  5
3E
100
AcDbEntity
  8
���� 1
 62
     7
100
AcDbSpline
210
0.0
220
0.0
230
1.0
 70
     1
 71
     3
 72
   280
 73
   276
 74
     0
 42
0.0000000001
 43
0.0000000001
 40
0.0
 40
0.0
 40
0.0
 40
0.0
 40
0.0144927536231884
 40
0.0144927536231884
 40
0.0144927536231884
 40
0.0144927536231884
 40
0.0289855072463768
 40
0.0289855072463768
 40
0.0289855072463768
 40
0.0289855072463768
 40
0.0434782608695652
 40
0.0434782608695652
 40
0.0434782608695652
 40
0.0434782608695652
 40
0.0579710144927536
 40
0.0579710144927536
 40
0.0579710144927536
 40
0.0579710144927536
 40
0.072463768115942
 40
0.072463768115942
 40
0.072463768115942
 40
0.072463768115942
 40
0.0869565217391304
 40
0.0869565217391304
 40
0.0869565217391304
 40
0.0869565217391304
 40
0.1014492753623188
 40
0.1014492753623188
 40
0.1014492753623188
 40
0.1014492753623188
 40
0.1159420289855072
 40
0.1159420289855072
 40
0.1159420289855072
 40
0.1159420289855072
 40
0.1304347826086957
 40
0.1304347826086957
 40
0.1304347826086957
 40
0.1304347826086957
 40
0.1449275362318841
 40
0.1449275362318841
 40
0.1449275362318841
 40
0.1449275362318841
 40
0.1594202898550725
 40
0.1594202898550725
 40
0.1594202898550725
 40
0.1594202898550725
 40
0.1739130434782609
 40
0.1739130434782609
 40
0.1739130434782609
 40
0.1739130434782609
 40
0.1884057971014493
 40
0.1884057971014493
 40
0.1884057971014493
 40
0.1884057971014493
 40
0.2028985507246377
 40
0.2028985507246377
 40
0.2028985507246377
 40
0.2028985507246377
 40
0.2173913043478261
 40
0.2173913043478261
 40
0.2173913043478261
 40
0.2173913043478261
 40
0.2318840579710146
 40
0.2318840579710146
 40
0.2318840579710146
 40
0.2318840579710146
 40
0.246376811594203
 40
0.246376811594203
 40
0.246376811594203
 40
0.246376811594203
 40
0.2608695652173914
 40
0.2608695652173914
 40
0.2608695652173914
 40
0.2608695652173914
 40
0.2753623188405798
 40
0.2753623188405798
 40
0.2753623188405798
 40
0.2753623188405798
 40
0.2898550724637682
 40
0.2898550724637682
 40
0.2898550724637682
 40
0.2898550724637682
 40
0.3043478260869566
 40
0.3043478260869566
 40
0.3043478260869566
 40
0.3043478260869566
 40
0.318840579710145
 40
0.318840579710145
 40
0.318840579710145
 40
0.318840579710145
 40
0.3333333333333334
 40
0.3333333333333334
 40
0.3333333333333334
 40
0.3333333333333334
 40
0.3478260869565218
 40
0.3478260869565218
 40
0.3478260869565218
 40
0.3478260869565218
 40
0.3623188405797103
 40
0.3623188405797103
 40
0.3623188405797103
 40
0.3623188405797103
 40
0.3768115942028987
 40
0.3768115942028987
 40
0.3768115942028987
 40
0.3768115942028987
 40
0.3913043478260871
 40
0.3913043478260871
 40
0.3913043478260871
 40
0.3913043478260871
 40
0.4057971014492755
 40
0.4057971014492755
 40
0.4057971014492755
 40
0.4057971014492755
 40
0.4202898550724639
 40
0.4202898550724639
 40
0.4202898550724639
 40
0.4202898550724639
 40
0.4347826086956523
 40
0.4347826086956523
 40
0.4347826086956523
 40
0.4347826086956523
 40
0.4492753623188407
 40
0.4492753623188407
 40
0.4492753623188407
 40
0.4492753623188407
 40
0.4637681159420292
 40
0.4637681159420292
 40
0.4637681159420292
 40
0.4637681159420292
 40
0.4782608695652176
 40
0.4782608695652176
 40
0.4782608695652176
 40
0.4782608695652176
 40
0.492753623188406
 40
0.492753623188406
 40
0.492753623188406
 40
0.492753623188406
 40
0.5072463768115944
 40
0.5072463768115944
 40
0.5072463768115944
 40
0.5072463768115944
 40
0.5217391304347827
 40
0.5217391304347827
 40
0.5217391304347827
 40
0.5217391304347827
 40
0.5362318840579711
 40
0.5362318840579711
 40
0.5362318840579711
 40
0.5362318840579711
 40
0.5507246376811594
 40
0.5507246376811594
 40
0.5507246376811594
 40
0.5507246376811594
 40
0.5652173913043478
 40
0.5652173913043478
 40
0.5652173913043478
 40
0.5652173913043478
 40
0.5797101449275361
 40
0.5797101449275361
 40
0.5797101449275361
 40
0.5797101449275361
 40
0.5942028985507245
 40
0.5942028985507245
 40
0.5942028985507245
 40
0.5942028985507245
 40
0.6086956521739129
 40
0.6086956521739129
 40
0.6086956521739129
 40
0.6086956521739129
 40
0.6231884057971012
 40
0.6231884057971012
 40
0.6231884057971012
 40
0.6231884057971012
 40
0.6376811594202896
 40
0.6376811594202896
 40
0.6376811594202896
 40
0.6376811594202896
 40
0.6521739130434779
 40
0.6521739130434779
 40
0.6521739130434779
 40
0.6521739130434779
 40
0.6666666666666663
 40
0.6666666666666663
 40
0.6666666666666663
 40
0.6666666666666663
 40
0.6811594202898547
 40
0.6811594202898547
 40
0.6811594202898547
 40
0.6811594202898547
 40
0.695652173913043
 40
0.695652173913043
 40
0.695652173913043
 40
0.695652173913043
 40
0.7101449275362314
 40
0.7101449275362314
 40
0.7101449275362314
 40
0.7101449275362314
 40
0.7246376811594197
 40
0.7246376811594197
 40
0.7246376811594197
 40
0.7246376811594197
 40
0.7391304347826081
 40
0.7391304347826081
 40
0.7391304347826081
 40
0.7391304347826081
 40
0.7536231884057965
 40
0.7536231884057965
 40
0.7536231884057965
 40
0.7536231884057965
 40
0.7681159420289848
 40
0.7681159420289848
 40
0.7681159420289848
 40
0.7681159420289848
 40
0.7826086956521732
 40
0.7826086956521732
 40
0.7826086956521732
 40
0.7826086956521732
 40
0.7971014492753615
 40
0.7971014492753615
 40
0.7971014492753615
 40
0.7971014492753615
 40
0.8115942028985499
 40
0.8115942028985499
 40
0.8115942028985499
 40
0.8115942028985499
 40
0.8260869565217383
 40
0.8260869565217383
 40
0.8260869565217383
 40
0.8260869565217383
 40
0.8405797101449266
 40
0.8405797101449266
 40
0.8405797101449266
 40
0.8405797101449266
 40
0.855072463768115
 40
0.855072463768115
 40
0.855072463768115
 40
0.855072463768115
 40
0.8695652173913033
 40
0.8695652173913033
 40
0.8695652173913033
 40
0.8695652173913033
 40
0.8840579710144917
 40
0.8840579710144917
 40
0.8840579710144917
 40
0.8840579710144917
 40
0.89855072463768
 40
0.89855072463768
 40
0.89855072463768
 40
0.89855072463768
 40
0.9130434782608684
 40
0.9130434782608684
 40
0.9130434782608684
 40
0.9130434782608684
 40
0.9275362318840568
 40
0.9275362318840568
 40
0.9275362318840568
 40
0.9275362318840568
 40
0.9420289855072451
 40
0.9420289855072451
 40
0.9420289855072451
 40
0.9420289855072451
 40
0.9565217391304335
 40
0.9565217391304335
 40
0.9565217391304335
 40
0.9565217391304335
 40
0.9710144927536218
 40
0.9710144927536218
 40
0.9710144927536218
 40
0.9710144927536218
 40
0.9855072463768102
 40
0.9855072463768102
 40
0.9855072463768102
 40
0.9855072463768102
 40
1.0
 40
1.0
 40
1.0
 40
1.0
 10
5.8827800000000003
 20
-3.3635200000000003
 30
0.0
 10
5.9869200000000005
 20
-3.4168600000000002
 30
0.0
 10
6.0402600000000009
 20
-3.5743400000000003
 30
0.0
 10
6.1469400000000007
 20
-3.6276800000000002
 30
0.0
 10
6.1469400000000007
 20
-3.6276800000000002
 30
0.0
 10
5.9564400000000006
 20
-3.3000200000000004
 30
0.0
 10
5.6491000000000007
 20
-3.0257000000000001
 30
0.0
 10
5.3747800000000003
 20
-2.7615400000000001
 30
0.0
 10
5.3747800000000003
 20
-2.7615400000000001
 30
0.0
 10
4.4349800000000004
 20
-3.2797000000000001
 30
0.0
 10
2.8322400000000001
 20
-2.9622000000000002
 30
0.0
 10
3.1065600000000004
 20
-1.5906000000000002
 30
0.0
 10
3.1065600000000004
 20
-1.5906000000000002
 30
0.0
 10
2.79922
 20
-1.7277600000000002
 30
0.0
 10
2.8627200000000004
 20
-2.1290800000000001
 30
0.0
 10
2.9465400000000002
 20
-2.3703800000000004
 30
0.0
 10
2.9465400000000002
 20
-2.3703800000000004
 30
0.0
 10
2.0702400000000001
 20
-1.8750800000000001
 30
0.0
 10
1.3438000000000001
 20
-2.7082000000000002
 30
0.0
 10
0.42432
 20
-2.6878800000000003
 30
0.0
 10
0.42432
 20
-2.6878800000000003
 30
0.0
 10
0.43448
 20
-2.6345400000000003
 30
0.0
 10
0.44464
 20
-2.57104
 30
0.0
 10
0.4675
 20
-2.5177
 30
0.0
 10
0.4675
 20
-2.5177
 30
0.0
 10
0.5614800000000001
 20
-1.8446000000000002
 30
0.0
 10
1.0796400000000002
 20
-1.16896
 30
0.0
 10
1.0796400000000002
 20
-0.53396
 30
0.0
 10
1.0796400000000002
 20
-0.53396
 30
0.0
 10
0.95264
 20
-1.0089400000000002
 30
0.0
 10
0.44464
 20
-1.3594600000000001
 30
0.0
 10
0.36082
 20
-1.8446000000000002
 30
0.0
 10
0.36082
 20
-1.8446000000000002
 30
0.0
 10
0.12968
 20
-2.8682200000000004
 30
0.0
 10
-0.38339
 20
-2.8885400000000003
 30
0.0
 10
-0.69835
 20
-3.8689800000000005
 30
0.0
 10
-0.69835
 20
-3.8689800000000005
 30
0.0
 10
-0.37323
 20
-3.3203400000000003
 30
0.0
 10
0.23636
 20
-2.8885400000000003
 30
0.0
 10
0.3405
 20
-2.2027400000000004
 30
0.0
 10
0.3405
 20
-2.2027400000000004
 30
0.0
 10
0.37098
 20
-2.1595600000000004
 30
0.0
 10
0.36082
 20
-2.0351000000000004
 30
0.0
 10
0.42432
 20
-2.0427200000000001
 30
0.0
 10
0.42432
 20
-2.0427200000000001
 30
0.0
 10
0.57164
 20
-3.0155400000000001
 30
0.0
 10
-0.4799100000000001
 20
-3.4371800000000001
 30
0.0
 10
-0.6094500000000001
 20
-4.2931600000000003
 30
0.0
 10
-0.6094500000000001
 20
-4.2931600000000003
 30
0.0
 10
-0.9625100000000001
 20
-4.2499800000000008
 30
0.0
 10
-1.1022100000000001
 20
-4.8189400000000004
 30
0.0
 10
-1.16825
 20
-5.1262800000000004
 30
0.0
 10
-1.16825
 20
-5.1262800000000004
 30
0.0
 10
-1.2850900000000001
 20
-5.3066200000000006
 30
0.0
 10
-1.4501900000000001
 20
-5.4336200000000003
 30
0.0
 10
-1.62799
 20
-5.5377600000000005
 30
0.0
 10
-1.62799
 20
-5.5377600000000005
 30
0.0
 10
-1.8946900000000002
 20
-5.2964600000000006
 30
0.0
 10
-1.6102100000000001
 20
-4.8951400000000005
 30
0.0
 10
-1.2850900000000001
 20
-4.9891200000000007
 30
0.0
 10
-1.2850900000000001
 20
-4.9891200000000007
 30
0.0
 10
-1.5670300000000001
 20
-4.6614600000000008
 30
0.0
 10
-2.0191500000000002
 20
-4.8519600000000001
 30
0.0
 10
-2.3976100000000002
 20
-4.7046400000000004
 30
0.0
 10
-2.3976100000000002
 20
-4.7046400000000004
 30
0.0
 10
-2.05979
 20
-3.9020000000000001
 30
0.0
 10
-1.4781300000000002
 20
-3.3101800000000003
 30
0.0
 10
-1.2622300000000002
 20
-2.5100800000000003
 30
0.0
 10
-1.2622300000000002
 20
-2.5100800000000003
 30
0.0
 10
-1.2368300000000001
 20
-2.7183600000000001
 30
0.0
 10
-0.9701300000000001
 20
-2.60406
 30
0.0
 10
-0.9777500000000001
 20
-2.8453600000000003
 30
0.0
 10
-0.9777500000000001
 20
-2.8453600000000003
 30
0.0
 10
-0.8304300000000001
 20
-2.4872200000000002
 30
0.0
 10
-1.13015
 20
-2.3297400000000001
 30
0.0
 10
-1.1326900000000002
 20
-2.1087600000000002
 30
0.0
 10
-1.1326900000000002
 20
-2.1087600000000002
 30
0.0
 10
-1.1326900000000002
 20
-2.1087600000000002
 30
0.0
 10
-1.00569
 20
-1.8446000000000002
 30
0.0
 10
-1.00569
 20
-1.8446000000000002
 30
0.0
 10
-1.00569
 20
-1.8446000000000002
 30
0.0
 10
-0.94981
 20
-1.7176000000000002
 30
0.0
 10
-0.8761500000000001
 20
-2.0224000000000002
 30
0.0
 10
-0.7872500000000001
 20
-1.7582400000000002
 30
0.0
 10
-0.7872500000000001
 20
-1.7582400000000002
 30
0.0
 10
-1.0666500000000001
 20
-1.04196
 30
0.0
 10
-0.99299
 20
-0.12248
 30
0.0
 10
-0.46213
 20
0.4540900000000001
 30
0.0
 10
-0.46213
 20
0.4540900000000001
 30
0.0
 10
-0.56881
 20
0.51759
 30
0.0
 10
-0.6196100000000001
 20
0.3169300000000001
 30
0.0
 10
-0.69835
 20
0.27629
 30
0.0
 10
-0.69835
 20
0.27629
 30
0.0
 10
-0.95235
 20
0.41345
 30
0.0
 10
-1.0920500000000002
 20
-0.18598
 30
0.0
 10
-1.1784100000000002
 20
-0.50348
 30
0.0
 10
-1.1784100000000002
 20
-0.50348
 30
0.0
 10
-1.1936500000000001
 20
-0.63048
 30
0.0
 10
-1.21397
 20
-0.75748
 30
0.0
 10
-1.20889
 20
-0.8946400000000001
 30
0.0
 10
-1.20889
 20
-0.8946400000000001
 30
0.0
 10
-1.0945900000000002
 20
-0.9683000000000001
 30
0.0
 10
-1.1326900000000002
 20
-0.6838200000000001
 30
0.0
 10
-1.0514100000000002
 20
-0.61778
 30
0.0
 10
-1.0514100000000002
 20
-0.61778
 30
0.0
 10
-1.08697
 20
-1.2832600000000001
 30
0.0
 10
-1.04633
 20
-1.9919200000000001
 30
0.0
 10
-1.54925
 20
-2.5100800000000003
 30
0.0
 10
-1.54925
 20
-2.5100800000000003
 30
0.0
 10
-1.6991100000000001
 20
-2.5100800000000003
 30
0.0
 10
-1.8210300000000001
 20
-2.4135600000000004
 30
0.0
 10
-1.9480300000000002
 20
-2.3399000000000001
 30
0.0
 10
-1.9480300000000002
 20
-2.3399000000000001
 30
0.0
 10
-1.9353300000000002
 20
-2.7513800000000002
 30
0.0
 10
-2.8192500000000003
 20
-2.2560800000000003
 30
0.0
 10
-3.2358100000000003
 20
-2.0122400000000003
 30
0.0
 10
-3.2358100000000003
 20
-2.0122400000000003
 30
0.0
 10
-3.3856700000000002
 20
-2.4135600000000004
 30
0.0
 10
-3.8835100000000002
 20
-2.6777200000000003
 30
0.0
 10
-4.0079700000000003
 20
-3.0993600000000003
 30
0.0
 10
-4.0079700000000003
 20
-3.0993600000000003
 30
0.0
 10
-4.0079700000000003
 20
-3.0993600000000003
 30
0.0
 10
-4.0714700000000006
 20
-2.85806
 30
0.0
 10
-4.0714700000000006
 20
-2.85806
 30
0.0
 10
-4.0714700000000006
 20
-2.85806
 30
0.0
 10
-4.5388300000000008
 20
-3.0587200000000001
 30
0.0
 10
-4.7826700000000004
 20
-3.5210000000000004
 30
0.0
 10
-5.0011100000000006
 20
-3.9451800000000001
 30
0.0
 10
-5.0011100000000006
 20
-3.9451800000000001
 30
0.0
 10
-5.0417500000000004
 20
-3.9959800000000003
 30
0.0
 10
-5.2119300000000006
 20
-4.00868
 30
0.0
 10
-5.1560500000000005
 20
-3.9020000000000001
 30
0.0
 10
-5.1560500000000005
 20
-3.9020000000000001
 30
0.0
 10
-5.03667
 20
-3.3635200000000003
 30
0.0
 10
-5.6488100000000001
 20
-4.3668200000000006
 30
0.0
 10
-5.7224700000000004
 20
-4.6309800000000001
 30
0.0
 10
-5.7224700000000004
 20
-4.6309800000000001
 30
0.0
 10
-5.8621700000000008
 20
-4.7579800000000008
 30
0.0
 10
-6.0933100000000007
 20
-4.8189400000000004
 30
0.0
 10
-6.0780700000000003
 20
-4.5878000000000005
 30
0.0
 10
-6.0780700000000003
 20
-4.5878000000000005
 30
0.0
 10
-6.1822100000000004
 20
-4.6081200000000004
 30
0.0
 10
-6.1898300000000006
 20
-4.6944800000000004
 30
0.0
 10
-6.1695100000000007
 20
-4.5344600000000002
 30
0.0
 10
-6.1695100000000007
 20
-4.5344600000000002
 30
0.0
 10
-6.1745900000000002
 20
-4.1763200000000005
 30
0.0
 10
-5.5319700000000003
 20
-4.44048
 30
0.0
 10
-5.7808900000000003
 20
-4.1661600000000005
 30
0.0
 10
-5.7808900000000003
 20
-4.1661600000000005
 30
0.0
 10
-6.0958500000000004
 20
-4.1560000000000006
 30
0.0
 10
-6.3803300000000007
 20
-4.0493200000000007
 30
0.0
 10
-6.6724300000000003
 20
-4.0925000000000002
 30
0.0
 10
-6.6724300000000003
 20
-4.0925000000000002
 30
0.0
 10
-6.2330100000000002
 20
-3.6276800000000002
 30
0.0
 10
-5.8469300000000004
 20
-3.0892000000000004
 30
0.0
 10
-5.4227500000000006
 20
-2.57104
 30
0.0
 10
-5.4227500000000006
 20
-2.57104
 30
0.0
 10
-4.6378900000000005
 20
-1.8344400000000001
 30
0.0
 10
-4.4651700000000005
 20
-0.9454400000000001
 30
0.0
 10
-4.2975300000000001
 20
0.08579
 30
0.0
 10
-4.2975300000000001
 20
0.08579
 30
0.0
 10
-4.1552899999999999
 20
-0.04882
 30
0.0
 10
-4.1908500000000002
 20
-0.38664
 30
0.0
 10
-4.04861
 20
-0.43998
 30
0.0
 10
-4.04861
 20
-0.43998
 30
0.0
 10
-4.2162500000000005
 20
0.15945
 30
0.0
 10
-4.4778700000000002
 20
0.8452500000000001
 30
0.0
 10
-4.0790900000000008
 20
1.4142100000000002
 30
0.0
 10
-4.0790900000000008
 20
1.4142100000000002
 30
0.0
 10
-3.9444700000000004
 20
1.3303900000000002
 30
0.0
 10
-3.8504900000000002
 20
1.1729100000000001
 30
0.0
 10
-3.7971500000000002
 20
1.02559
 30
0.0
 10
-3.7971500000000002
 20
1.02559
 30
0.0
 10
-3.9038300000000001
 20
0.01213
 30
0.0
 10
-2.9132300000000004
 20
-0.48316
 30
0.0
 10
-2.6617700000000002
 20
-1.3594600000000001
 30
0.0
 10
-2.6617700000000002
 20
-1.3594600000000001
 30
0.0
 10
-2.6617700000000002
 20
-1.3594600000000001
 30
0.0
 10
-2.5881100000000004
 20
-1.42042
 30
0.0
 10
-2.5881100000000004
 20
-1.42042
 30
0.0
 10
-2.5881100000000004
 20
-1.42042
 30
0.0
 10
-2.6033500000000003
 20
-0.7778000000000001
 30
0.0
 10
-2.10805
 20
-2.0655800000000002
 30
0.0
 10
-1.9277100000000003
 20
-2.09606
 30
0.0
 10
-1.9277100000000003
 20
-2.09606
 30
0.0
 10
-2.1055100000000002
 20
-1.7176000000000002
 30
0.0
 10
-2.1563100000000004
 20
-1.1791200000000002
 30
0.0
 10
-1.9175500000000001
 20
-0.75748
 30
0.0
 10
-1.9175500000000001
 20
-0.75748
 30
0.0
 10
-1.9124700000000001
 20
-0.9149600000000001
 30
0.0
 10
-2.0242300000000002
 20
-1.1588000000000001
 30
0.0
 10
-1.8972300000000002
 20
-1.2629400000000002
 30
0.0
 10
-1.8972300000000002
 20
-1.2629400000000002
 30
0.0
 10
-1.7930900000000001
 20
-0.8946400000000001
 30
0.0
 10
-1.6762500000000002
 20
-0.49332
 30
0.0
 10
-1.3943100000000002
 20
-0.19614
 30
0.0
 10
-1.3943100000000002
 20
-0.19614
 30
0.0
 10
-1.3714500000000001
 20
-0.2698
 30
0.0
 10
-1.4679700000000002
 20
-0.5441200000000001
 30
0.0
 10
-1.29525
 20
-0.48316
 30
0.0
 10
-1.29525
 20
-0.48316
 30
0.0
 10
-1.1530100000000001
 20
0.17977
 30
0.0
 10
-0.55357
 20
0.6547500000000001
 30
0.0
 10
-0.23607
 20
1.2465700000000002
 30
0.0
 10
-0.23607
 20
1.2465700000000002
 30
0.0
 10
-0.17257
 20
1.1195700000000002
 30
0.0
 10
-0.33005
 20
0.8782700000000001
 30
0.0
 10
-0.19797
 20
0.8122300000000001
 30
0.0
 10
-0.19797
 20
0.8122300000000001
 30
0.0
 10
-0.06589
 20
1.1729100000000001
 30
0.0
 10
0.00522
 20
1.5539100000000001
 30
0.0
 10
0.19318
 20
1.8790300000000002
 30
0.0
 10
0.19318
 20
1.8790300000000002
 30
0.0
 10
0.80532
 20
1.6783700000000001
 30
0.0
 10
0.8789800000000001
 20
0.9620900000000001
 30
0.0
 10
1.1736200000000001
 20
0.4972700000000001
 30
0.0
 10
1.1736200000000001
 20
0.4972700000000001
 30
0.0
 10
1.18632
 20
0.66491
 30
0.0
 10
1.0263
 20
0.8782700000000001
 30
0.0
 10
1.05932
 20
1.06623
 30
0.0
 10
1.05932
 20
1.06623
 30
0.0
 10
1.3742800000000002
 20
0.8985900000000001
 30
0.0
 10
1.7959200000000002
 20
0.8554100000000001
 30
0.0
 10
2.16676
 20
0.7284100000000001
 30
0.0
 10
2.16676
 20
0.7284100000000001
 30
0.0
 10
2.88558
 20
0.5277500000000001
 30
0.0
 10
3.6856800000000005
 20
0.5912500000000001
 30
0.0
 10
4.3613200000000001
 20
0.23311
 30
0.0
 10
4.3613200000000001
 20
0.23311
 30
0.0
 10
4.9633000000000003
 20
-0.2825
 30
0.0
 10
5.2173000000000007
 20
-1.1156200000000001
 30
0.0
 10
5.5856000000000003
 20
-1.7811000000000001
 30
0.0
 10
5.5856000000000003
 20
-1.7811000000000001
 30
0.0
 10
6.7260600000000004
 20
-1.9589000000000001
 30
0.0
 10
6.5990600000000006
 20
-3.5946600000000002
 30
0.0
 10
7.2340600000000004
 20
-4.1026600000000002
 30
0.0
 10
7.2340600000000004
 20
-4.1026600000000002
 30
0.0
 10
7.2747000000000002
 20
-4.2830000000000004
 30
0.0
 10
7.160400000000001
 20
-4.2398199999999999
 30
0.0
 10
7.0969000000000007
 20
-4.13314
 30
0.0
 10
7.0969000000000007
 20
-4.13314
 30
0.0
 10
6.9800600000000008
 20
-3.9655000000000005
 30
0.0
 10
6.8962400000000006
 20
-4.0594800000000006
 30
0.0
 10
7.0105400000000007
 20
-4.2398199999999999
 30
0.0
 10
7.0105400000000007
 20
-4.2398199999999999
 30
0.0
 10
7.0105400000000007
 20
-4.2398199999999999
 30
0.0
 10
7.0232400000000004
 20
-4.2931600000000003
 30
0.0
 10
7.0232400000000004
 20
-4.2931600000000003
 30
0.0
 10
7.0232400000000004
 20
-4.2931600000000003
 30
0.0
 10
7.2010400000000008
 20
-4.5979600000000005
 30
0.0
 10
7.9097000000000008
 20
-5.4336200000000003
 30
0.0
 10
7.1908800000000008
 20
-5.3269400000000005
 30
0.0
 10
7.1908800000000008
 20
-5.3269400000000005
 30
0.0
 10
7.1908800000000008
 20
-5.3269400000000005
 30
0.0
 10
7.2010400000000008
 20
-5.0958000000000006
 30
0.0
 10
7.2010400000000008
 20
-5.0958000000000006
 30
0.0
 10
7.2010400000000008
 20
-5.0958000000000006
 30
0.0
 10
7.7090400000000008
 20
-4.7986200000000006
 30
0.0
 10
6.7057400000000005
 20
-4.9053000000000004
 30
0.0
 10
6.3984000000000005
 20
-4.8722800000000008
 30
0.0
 10
6.3984000000000005
 20
-4.8722800000000008
 30
0.0
 10
6.3882400000000006
 20
-4.8087800000000005
 30
0.0
 10
6.3780800000000006
 20
-4.7579800000000008
 30
0.0
 10
6.3882400000000006
 20
-4.6944800000000004
 30
0.0
 10
6.3882400000000006
 20
-4.6944800000000004
 30
0.0
 10
6.4212600000000002
 20
-4.6208200000000001
 30
0.0
 10
6.3679200000000007
 20
-4.3871400000000005
 30
0.0
 10
6.4746000000000006
 20
-4.5573200000000007
 30
0.0
 10
6.4746000000000006
 20
-4.5573200000000007
 30
0.0
 10
6.4949200000000005
 20
-4.6081200000000004
 30
0.0
 10
6.5254000000000003
 20
-4.7249600000000003
 30
0.0
 10
6.5990600000000006
 20
-4.7148000000000003
 30
0.0
 10
6.5990600000000006
 20
-4.7148000000000003
 30
0.0
 10
6.3780800000000006
 20
-4.2601400000000007
 30
0.0
 10
6.1469400000000007
 20
-3.7953200000000002
 30
0.0
 10
5.8827800000000003
 20
-3.3635200000000003
 30
0.0
  0
SPLINE
  5
3F
100
AcDbEntity
  8
���� 1
100
AcDbSpline
210
0.0
220
0.0
230
1.0
 70
     1
 71
     3
 72
    28
 73
    24
 74
     0
 42
0.0000000001
 43
0.0000000001
 40
0.0
 40
0.0
 40
0.0
 40
0.0
 40
0.1666666666666667
 40
0.1666666666666667
 40
0.1666666666666667
 40
0.1666666666666667
 40
0.3333333333333333
 40
0.3333333333333333
 40
0.3333333333333333
 40
0.3333333333333333
 40
0.5
 40
0.5
 40
0.5
 40
0.5
 40
0.6666666666666666
 40
0.6666666666666666
 40
0.6666666666666666
 40
0.6666666666666666
 40
0.8333333333333333
 40
0.8333333333333333
 40
0.8333333333333333
 40
0.8333333333333333
 40
1.0
 40
1.0
 40
1.0
 40
1.0
 10
-3.8479500000000004
 20
-0.7879600000000001
 30
0.0
 10
-3.8200100000000003
 20
-0.7879600000000001
 30
0.0
 10
-3.7920700000000003
 20
-0.7879600000000001
 30
0.0
 10
-3.7768300000000004
 20
-0.8082800000000001
 30
0.0
 10
-3.7768300000000004
 20
-0.8082800000000001
 30
0.0
 10
-3.6701500000000005
 20
-1.1994400000000001
 30
0.0
 10
-3.3196300000000001
 20
-1.4940800000000001
 30
0.0
 10
-3.1621500000000005
 20
-1.8344400000000001
 30
0.0
 10
-3.1621500000000005
 20
-1.8344400000000001
 30
0.0
 10
-3.1900900000000001
 20
-1.8446000000000002
 30
0.0
 10
-3.2129500000000002
 20
-1.8750800000000001
 30
0.0
 10
-3.2459700000000002
 20
-1.8649200000000001
 30
0.0
 10
-3.2459700000000002
 20
-1.8649200000000001
 30
0.0
 10
-3.3958300000000001
 20
-1.7582400000000002
 30
0.0
 10
-3.5355300000000005
 20
-1.6337800000000002
 30
0.0
 10
-3.6955500000000003
 20
-1.5906000000000002
 30
0.0
 10
-3.6955500000000003
 20
-1.5906000000000002
 30
0.0
 10
-3.8073100000000002
 20
-1.3696200000000001
 30
0.0
 10
-3.7641300000000002
 20
-1.1156200000000001
 30
0.0
 10
-3.8682700000000003
 20
-0.8946400000000001
 30
0.0
 10
-3.8682700000000003
 20
-0.8946400000000001
 30
0.0
 10
-3.8530300000000004
 20
-0.8616200000000001
 30
0.0
 10
-3.8403300000000002
 20
-0.8311400000000001
 30
0.0
 10
-3.8479500000000004
 20
-0.7879600000000001
 30
0.0
  0
SPLINE
  5
40
100
AcDbEntity
  8
���� 1
100
AcDbSpline
210
0.0
220
0.0
230
1.0
 70
     1
 71
     3
 72
    56
 73
    52
 74
     0
 42
0.0000000001
 43
0.0000000001
 40
0.0
 40
0.0
 40
0.0
 40
0.0
 40
0.0769230769230769
 40
0.0769230769230769
 40
0.0769230769230769
 40
0.0769230769230769
 40
0.1538461538461539
 40
0.1538461538461539
 40
0.1538461538461539
 40
0.1538461538461539
 40
0.2307692307692308
 40
0.2307692307692308
 40
0.2307692307692308
 40
0.2307692307692308
 40
0.3076923076923077
 40
0.3076923076923077
 40
0.3076923076923077
 40
0.3076923076923077
 40
0.3846153846153846
 40
0.3846153846153846
 40
0.3846153846153846
 40
0.3846153846153846
 40
0.4615384615384616
 40
0.4615384615384616
 40
0.4615384615384616
 40
0.4615384615384616
 40
0.5384615384615386
 40
0.5384615384615386
 40
0.5384615384615386
 40
0.5384615384615386
 40
0.6153846153846154
 40
0.6153846153846154
 40
0.6153846153846154
 40
0.6153846153846154
 40
0.6923076923076923
 40
0.6923076923076923
 40
0.6923076923076923
 40
0.6923076923076923
 40
0.7692307692307692
 40
0.7692307692307692
 40
0.7692307692307692
 40
0.7692307692307692
 40
0.846153846153846
 40
0.846153846153846
 40
0.846153846153846
 40
0.846153846153846
 40
0.9230769230769229
 40
0.9230769230769229
 40
0.9230769230769229
 40
0.9230769230769229
 40
1.0
 40
1.0
 40
1.0
 40
1.0
 10
0.9424800000000001
 20
-1.6109200000000001
 30
0.0
 10
1.05932
 20
-1.6845800000000002
 30
0.0
 10
0.95264
 20
-1.8649200000000001
 30
0.0
 10
0.95264
 20
-1.9690600000000003
 30
0.0
 10
0.95264
 20
-1.9690600000000003
 30
0.0
 10
0.95264
 20
-1.9690600000000003
 30
0.0
 10
1.3107800000000001
 20
-1.8649200000000001
 30
0.0
 10
1.3107800000000001
 20
-1.8649200000000001
 30
0.0
 10
1.3107800000000001
 20
-1.8649200000000001
 30
0.0
 10
1.3946000000000001
 20
-1.9487400000000001
 30
0.0
 10
1.2803000000000002
 20
-2.0427200000000001
 30
0.0
 10
1.27014
 20
-2.13924
 30
0.0
 10
1.27014
 20
-2.13924
 30
0.0
 10
1.27014
 20
-2.13924
 30
0.0
 10
1.7857600000000002
 20
-1.9690600000000003
 30
0.0
 10
1.7857600000000002
 20
-1.9690600000000003
 30
0.0
 10
1.7857600000000002
 20
-1.9690600000000003
 30
0.0
 10
1.8822800000000002
 20
-1.9284200000000002
 30
0.0
 10
2.0296000000000003
 20
-1.9589000000000001
 30
0.0
 10
1.9229200000000002
 20
-2.0757400000000001
 30
0.0
 10
1.9229200000000002
 20
-2.0757400000000001
 30
0.0
 10
1.9762600000000001
 20
-2.09606
 30
0.0
 10
2.0397600000000002
 20
-2.0757400000000001
 30
0.0
 10
2.0931000000000002
 20
-2.0655800000000002
 30
0.0
 10
2.0931000000000002
 20
-2.0655800000000002
 30
0.0
 10
2.2505800000000002
 20
-2.0757400000000001
 30
0.0
 10
2.4944200000000003
 20
-1.9487400000000001
 30
0.0
 10
2.5985600000000004
 20
-2.0757400000000001
 30
0.0
 10
2.5985600000000004
 20
-2.0757400000000001
 30
0.0
 10
2.3572600000000001
 20
-2.0859000000000001
 30
0.0
 10
2.0931000000000002
 20
-2.13924
 30
0.0
 10
1.8492600000000001
 20
-2.1697200000000003
 30
0.0
 10
1.8492600000000001
 20
-2.1697200000000003
 30
0.0
 10
1.7959200000000002
 20
-2.1494
 30
0.0
 10
1.8492600000000001
 20
-2.0554200000000002
 30
0.0
 10
1.7654400000000001
 20
-2.0859000000000001
 30
0.0
 10
1.7654400000000001
 20
-2.0859000000000001
 30
0.0
 10
1.5216000000000001
 20
-2.1595600000000004
 30
0.0
 10
1.2904600000000002
 20
-2.2967200000000001
 30
0.0
 10
1.0263
 20
-2.3195800000000002
 30
0.0
 10
1.0263
 20
-2.3195800000000002
 30
0.0
 10
0.9424800000000001
 20
-2.2764000000000002
 30
0.0
 10
1.0466200000000001
 20
-2.1697200000000003
 30
0.0
 10
1.01614
 20
-2.1494
 30
0.0
 10
1.01614
 20
-2.1494
 30
0.0
 10
0.8789800000000001
 20
-2.2027400000000004
 30
0.0
 10
0.7519800000000001
 20
-2.3830800000000001
 30
0.0
 10
0.6046600000000001
 20
-2.35006
 30
0.0
 10
0.6046600000000001
 20
-2.35006
 30
0.0
 10
0.69864
 20
-2.09606
 30
0.0
 10
0.8358000000000001
 20
-1.8446000000000002
 30
0.0
 10
0.9424800000000001
 20
-1.6109200000000001
 30
0.0
  0
SPLINE
  5
41
100
AcDbEntity
  8
���� 1
100
AcDbSpline
210
0.0
220
0.0
230
1.0
 70
     1
 71
     3
 72
    24
 73
    20
 74
     0
 42
0.0000000001
 43
0.0000000001
 40
0.0
 40
0.0
 40
0.0
 40
0.0
 40
0.2
 40
0.2
 40
0.2
 40
0.2
 40
0.4
 40
0.4
 40
0.4
 40
0.4
 40
0.6000000000000001
 40
0.6000000000000001
 40
0.6000000000000001
 40
0.6000000000000001
 40
0.8
 40
0.8
 40
0.8
 40
0.8
 40
1.0
 40
1.0
 40
1.0
 40
1.0
 10
-3.6371300000000004
 20
-1.9081000000000001
 30
0.0
 10
-3.5837900000000005
 20
-1.8954000000000002
 30
0.0
 10
-3.5507700000000004
 20
-1.9284200000000002
 30
0.0
 10
-3.5304500000000001
 20
-1.9690600000000003
 30
0.0
 10
-3.5304500000000001
 20
-1.9690600000000003
 30
0.0
 10
-3.7133300000000005
 20
-2.57104
 30
0.0
 10
-4.51851
 20
-2.7310600000000003
 30
0.0
 10
-4.78775
 20
-3.3101800000000003
 30
0.0
 10
-4.78775
 20
-3.3101800000000003
 30
0.0
 10
-4.8817300000000001
 20
-3.3203400000000003
 30
0.0
 10
-4.9147500000000006
 20
-3.4168600000000002
 30
0.0
 10
-4.9833300000000005
 20
-3.4600400000000002
 30
0.0
 10
-4.9833300000000005
 20
-3.4600400000000002
 30
0.0
 10
-4.6785300000000003
 20
-2.9418800000000003
 30
0.0
 10
-4.2365700000000004
 20
-2.4237200000000003
 30
0.0
 10
-3.7336500000000004
 20
-2.0554200000000002
 30
0.0
 10
-3.7336500000000004
 20
-2.0554200000000002
 30
0.0
 10
-3.7336500000000004
 20
-2.0554200000000002
 30
0.0
 10
-3.6371300000000004
 20
-1.9081000000000001
 30
0.0
 10
-3.6371300000000004
 20
-1.9081000000000001
 30
0.0
  0
SPLINE
  5
42
100
AcDbEntity
  8
���� 1
100
AcDbSpline
210
0.0
220
0.0
230
1.0
 70
     1
 71
     3
 72
    20
 73
    16
 74
     0
 42
0.0000000001
 43
0.0000000001
 40
0.0
 40
0.0
 40
0.0
 40
0.0
 40
0.25
 40
0.25
 40
0.25
 40
0.25
 40
0.5
 40
0.5
 40
0.5
 40
0.5
 40
0.75
 40
0.75
 40
0.75
 40
0.75
 40
1.0
 40
1.0
 40
1.0
 40
1.0
 10
6.0097800000000001
 20
-2.1290800000000001
 30
0.0
 10
6.0504200000000008
 20
-2.1290800000000001
 30
0.0
 10
6.0936000000000003
 20
-2.13924
 30
0.0
 10
6.1342400000000001
 20
-2.1494
 30
0.0
 10
6.1342400000000001
 20
-2.1494
 30
0.0
 10
6.5482600000000009
 20
-2.4872200000000002
 30
0.0
 10
6.6422400000000001
 20
-3.0892000000000004
 30
0.0
 10
6.7997200000000007
 20
-3.5540200000000004
 30
0.0
 10
6.7997200000000007
 20
-3.5540200000000004
 30
0.0
 10
6.5482600000000009
 20
-3.0993600000000003
 30
0.0
 10
6.3882400000000006
 20
-2.5507200000000001
 30
0.0
 10
5.9666000000000006
 20
-2.2129000000000003
 30
0.0
 10
5.9666000000000006
 20
-2.2129000000000003
 30
0.0
 10
5.9361200000000007
 20
-2.1697200000000003
 30
0.0
 10
5.9869200000000005
 20
-2.1494
 30
0.0
 10
6.0097800000000001
 20
-2.1290800000000001
 30
0.0
  0
SPLINE
  5
43
100
AcDbEntity
  8
���� 1
 62
     7
100
AcDbSpline
210
0.0
220
0.0
230
1.0
 70
     1
 71
     3
 72
    16
 73
    12
 74
     0
 42
0.0000000001
 43
0.0000000001
 40
0.0
 40
0.0
 40
0.0
 40
0.0
 40
0.3333333333333333
 40
0.3333333333333333
 40
0.3333333333333333
 40
0.3333333333333333
 40
0.6666666666666666
 40
0.6666666666666666
 40
0.6666666666666666
 40
0.6666666666666666
 40
1.0
 40
1.0
 40
1.0
 40
1.0
 10
1.06948
 20
-2.6980400000000002
 30
0.0
 10
1.2168000000000001
 20
-2.7412200000000002
 30
0.0
 10
1.1533
 20
-3.0053800000000002
 30
0.0
 10
1.3438000000000001
 20
-3.0358600000000004
 30
0.0
 10
1.3438000000000001
 20
-3.0358600000000004
 30
0.0
 10
1.3438000000000001
 20
-3.0358600000000004
 30
0.0
 10
1.3438000000000001
 20
-3.1095200000000003
 30
0.0
 10
1.3438000000000001
 20
-3.1095200000000003
 30
0.0
 10
1.3438000000000001
 20
-3.1095200000000003
 30
0.0
 10
1.1329800000000001
 20
-3.1095200000000003
 30
0.0
 10
1.06948
 20
-2.85806
 30
0.0
 10
1.06948
 20
-2.6980400000000002
 30
0.0
  0
SPLINE
  5
44
100
AcDbEntity
  8
���� 1
 62
     7
100
AcDbSpline
210
0.0
220
0.0
230
1.0
 70
     1
 71
     3
 72
    60
 73
    56
 74
     0
 42
0.0000000001
 43
0.0000000001
 40
0.0
 40
0.0
 40
0.0
 40
0.0
 40
0.0714285714285714
 40
0.0714285714285714
 40
0.0714285714285714
 40
0.0714285714285714
 40
0.1428571428571429
 40
0.1428571428571429
 40
0.1428571428571429
 40
0.1428571428571429
 40
0.2142857142857143
 40
0.2142857142857143
 40
0.2142857142857143
 40
0.2142857142857143
 40
0.2857142857142857
 40
0.2857142857142857
 40
0.2857142857142857
 40
0.2857142857142857
 40
0.3571428571428571
 40
0.3571428571428571
 40
0.3571428571428571
 40
0.3571428571428571
 40
0.4285714285714285
 40
0.4285714285714285
 40
0.4285714285714285
 40
0.4285714285714285
 40
0.4999999999999999
 40
0.4999999999999999
 40
0.4999999999999999
 40
0.4999999999999999
 40
0.5714285714285713
 40
0.5714285714285713
 40
0.5714285714285713
 40
0.5714285714285713
 40
0.6428571428571427
 40
0.6428571428571427
 40
0.6428571428571427
 40
0.6428571428571427
 40
0.7142857142857141
 40
0.7142857142857141
 40
0.7142857142857141
 40
0.7142857142857141
 40
0.7857142857142855
 40
0.7857142857142855
 40
0.7857142857142855
 40
0.7857142857142855
 40
0.8571428571428569
 40
0.8571428571428569
 40
0.8571428571428569
 40
0.8571428571428569
 40
0.9285714285714283
 40
0.9285714285714283
 40
0.9285714285714283
 40
0.9285714285714283
 40
1.0
 40
1.0
 40
1.0
 40
1.0
 10
1.5851000000000002
 20
-3.1730200000000002
 30
0.0
 10
1.7451200000000002
 20
-3.2162000000000002
 30
0.0
 10
1.8289400000000002
 20
-3.4270200000000002
 30
0.0
 10
1.7222600000000001
 20
-3.5641800000000003
 30
0.0
 10
1.7222600000000001
 20
-3.5641800000000003
 30
0.0
 10
1.8187800000000001
 20
-3.7115000000000005
 30
0.0
 10
1.6486000000000001
 20
-3.7851600000000003
 30
0.0
 10
1.5851000000000002
 20
-3.9020000000000001
 30
0.0
 10
1.5851000000000002
 20
-3.9020000000000001
 30
0.0
 10
1.5647800000000001
 20
-3.9223200000000005
 30
0.0
 10
1.5647800000000001
 20
-3.9451800000000001
 30
0.0
 10
1.5851000000000002
 20
-3.9655000000000005
 30
0.0
 10
1.5851000000000002
 20
-3.9655000000000005
 30
0.0
 10
1.8086200000000001
 20
-3.8918400000000002
 30
0.0
 10
2.00928
 20
-3.7343600000000001
 30
0.0
 10
2.2201
 20
-3.6378400000000002
 30
0.0
 10
2.2201
 20
-3.6378400000000002
 30
0.0
 10
2.00928
 20
-3.8689800000000005
 30
0.0
 10
1.6282800000000002
 20
-4.00868
 30
0.0
 10
1.5749400000000002
 20
-4.3668200000000006
 30
0.0
 10
1.5749400000000002
 20
-4.3668200000000006
 30
0.0
 10
1.5343000000000002
 20
-4.3973000000000004
 30
0.0
 10
1.5012800000000002
 20
-4.44048
 30
0.0
 10
1.4479400000000002
 20
-4.4608000000000008
 30
0.0
 10
1.4479400000000002
 20
-4.4608000000000008
 30
0.0
 10
1.4174600000000002
 20
-4.44048
 30
0.0
 10
1.2904600000000002
 20
-4.4709600000000007
 30
0.0
 10
1.3107800000000001
 20
-4.4100000000000001
 30
0.0
 10
1.3107800000000001
 20
-4.4100000000000001
 30
0.0
 10
1.3336400000000002
 20
-4.2830000000000004
 30
0.0
 10
1.4911200000000002
 20
-4.2499800000000008
 30
0.0
 10
1.5343000000000002
 20
-4.1560000000000006
 30
0.0
 10
1.5343000000000002
 20
-4.1560000000000006
 30
0.0
 10
1.11012
 20
-4.13314
 30
0.0
 10
0.8789800000000001
 20
-4.6614600000000008
 30
0.0
 10
0.5411600000000001
 20
-4.8722800000000008
 30
0.0
 10
0.5411600000000001
 20
-4.8722800000000008
 30
0.0
 10
0.3405
 20
-4.8722800000000008
 30
0.0
 10
0.15
 20
-4.9789600000000007
 30
0.0
 10
-0.03287
 20
-4.86212
 30
0.0
 10
-0.03287
 20
-4.86212
 30
0.0
 10
-0.03287
 20
-4.86212
 30
0.0
 10
-0.00239
 20
-4.5776400000000006
 30
0.0
 10
-0.00239
 20
-4.5776400000000006
 30
0.0
 10
-0.00239
 20
-4.5776400000000006
 30
0.0
 10
0.0484
 20
-4.4608000000000008
 30
0.0
 10
0.22366
 20
-4.5573200000000007
 30
0.0
 10
0.22366
 20
-4.4100000000000001
 30
0.0
 10
0.22366
 20
-4.4100000000000001
 30
0.0
 10
0.22366
 20
-4.4100000000000001
 30
0.0
 10
0.33034
 20
-4.4506399999999999
 30
0.0
 10
0.33034
 20
-4.4506399999999999
 30
0.0
 10
0.33034
 20
-4.4506399999999999
 30
0.0
 10
0.82564
 20
-4.1560000000000006
 30
0.0
 10
1.4276200000000001
 20
-3.7343600000000001
 30
0.0
 10
1.5851000000000002
 20
-3.1730200000000002
 30
0.0
  0
SPLINE
  5
45
100
AcDbEntity
  8
���� 1
 62
     7
100
AcDbSpline
210
0.0
220
0.0
230
1.0
 70
     1
 71
     3
 72
    24
 73
    20
 74
     0
 42
0.0000000001
 43
0.0000000001
 40
0.0
 40
0.0
 40
0.0
 40
0.0
 40
0.2
 40
0.2
 40
0.2
 40
0.2
 40
0.4
 40
0.4
 40
0.4
 40
0.4
 40
0.6000000000000001
 40
0.6000000000000001
 40
0.6000000000000001
 40
0.6000000000000001
 40
0.8
 40
0.8
 40
0.8
 40
0.8
 40
1.0
 40
1.0
 40
1.0
 40
1.0
 10
-7.2667900000000003
 20
-4.1763200000000005
 30
0.0
 10
-7.2667900000000003
 20
-4.1763200000000005
 30
0.0
 10
-7.1626500000000002
 20
-4.1966400000000004
 30
0.0
 10
-7.1626500000000002
 20
-4.1966400000000004
 30
0.0
 10
-7.1626500000000002
 20
-4.1966400000000004
 30
0.0
 10
-7.259170000000001
 20
-4.3338000000000001
 30
0.0
 10
-7.3328300000000004
 20
-4.4938200000000004
 30
0.0
 10
-7.3226700000000005
 20
-4.6614600000000008
 30
0.0
 10
-7.3226700000000005
 20
-4.6614600000000008
 30
0.0
 10
-7.3658500000000009
 20
-4.6944800000000004
 30
0.0
 10
-7.4242700000000008
 20
-4.6944800000000004
 30
0.0
 10
-7.4776100000000003
 20
-4.6944800000000004
 30
0.0
 10
-7.4776100000000003
 20
-4.6944800000000004
 30
0.0
 10
-7.4928500000000007
 20
-4.6309800000000001
 30
0.0
 10
-7.508090000000001
 20
-4.5446200000000001
 30
0.0
 10
-7.5639700000000003
 20
-4.4938200000000004
 30
0.0
 10
-7.5639700000000003
 20
-4.4938200000000004
 30
0.0
 10
-7.5207900000000008
 20
-4.34396
 30
0.0
 10
-7.4166500000000006
 20
-4.2195
 30
0.0
 10
-7.2667900000000003
 20
-4.1763200000000005
 30
0.0
  0
SPLINE
  5
46
100
AcDbEntity
  8
���� 1
 62
     7
100
AcDbSpline
210
0.0
220
0.0
230
1.0
 70
     1
 71
     3
 72
    24
 73
    20
 74
     0
 42
0.0000000001
 43
0.0000000001
 40
0.0
 40
0.0
 40
0.0
 40
0.0
 40
0.2
 40
0.2
 40
0.2
 40
0.2
 40
0.4
 40
0.4
 40
0.4
 40
0.4
 40
0.6000000000000001
 40
0.6000000000000001
 40
0.6000000000000001
 40
0.6000000000000001
 40
0.8
 40
0.8
 40
0.8
 40
0.8
 40
1.0
 40
1.0
 40
1.0
 40
1.0
 10
-6.9188100000000006
 20
-4.1864800000000004
 30
0.0
 10
-6.8197500000000009
 20
-4.1763200000000005
 30
0.0
 10
-6.7410100000000002
 20
-4.2398199999999999
 30
0.0
 10
-6.6673500000000008
 20
-4.2703000000000007
 30
0.0
 10
-6.6673500000000008
 20
-4.2703000000000007
 30
0.0
 10
-6.7257700000000007
 20
-4.3973000000000004
 30
0.0
 10
-6.7791100000000002
 20
-4.5446200000000001
 30
0.0
 10
-6.7841900000000006
 20
-4.6944800000000004
 30
0.0
 10
-6.7841900000000006
 20
-4.6944800000000004
 30
0.0
 10
-6.8705500000000006
 20
-4.7884600000000006
 30
0.0
 10
-6.9975500000000004
 20
-4.8519600000000001
 30
0.0
 10
-7.1296300000000006
 20
-4.8519600000000001
 30
0.0
 10
-7.1296300000000006
 20
-4.8519600000000001
 30
0.0
 10
-7.0915300000000006
 20
-4.7681400000000007
 30
0.0
 10
-7.0737500000000004
 20
-4.5344600000000002
 30
0.0
 10
-7.2363100000000005
 20
-4.6081200000000004
 30
0.0
 10
-7.2363100000000005
 20
-4.6081200000000004
 30
0.0
 10
-7.2388500000000002
 20
-4.4100000000000001
 30
0.0
 10
-7.0864500000000001
 20
-4.2601400000000007
 30
0.0
 10
-6.9188100000000006
 20
-4.1864800000000004
 30
0.0
  0
SPLINE
  5
47
100
AcDbEntity
  8
���� 1
 62
     7
100
AcDbSpline
210
0.0
220
0.0
230
1.0
 70
     1
 71
     3
 72
    28
 73
    24
 74
     0
 42
0.0000000001
 43
0.0000000001
 40
0.0
 40
0.0
 40
0.0
 40
0.0
 40
0.1666666666666667
 40
0.1666666666666667
 40
0.1666666666666667
 40
0.1666666666666667
 40
0.3333333333333333
 40
0.3333333333333333
 40
0.3333333333333333
 40
0.3333333333333333
 40
0.5
 40
0.5
 40
0.5
 40
0.5
 40
0.6666666666666666
 40
0.6666666666666666
 40
0.6666666666666666
 40
0.6666666666666666
 40
0.8333333333333333
 40
0.8333333333333333
 40
0.8333333333333333
 40
0.8333333333333333
 40
1.0
 40
1.0
 40
1.0
 40
1.0
 10
-6.4235100000000003
 20
-4.2703000000000007
 30
0.0
 10
-6.3447700000000005
 20
-4.2703000000000007
 30
0.0
 10
-6.2609500000000002
 20
-4.2830000000000004
 30
0.0
 10
-6.2025300000000003
 20
-4.3338000000000001
 30
0.0
 10
-6.2025300000000003
 20
-4.3338000000000001
 30
0.0
 10
-6.2025300000000003
 20
-4.3338000000000001
 30
0.0
 10
-6.3193700000000002
 20
-4.7884600000000006
 30
0.0
 10
-6.3193700000000002
 20
-4.7884600000000006
 30
0.0
 10
-6.3193700000000002
 20
-4.7884600000000006
 30
0.0
 10
-6.3193700000000002
 20
-4.7884600000000006
 30
0.0
 10
-6.4768500000000007
 20
-4.86212
 30
0.0
 10
-6.4768500000000007
 20
-4.86212
 30
0.0
 10
-6.4768500000000007
 20
-4.86212
 30
0.0
 10
-6.4768500000000007
 20
-4.86212
 30
0.0
 10
-6.4666900000000007
 20
-4.64114
 30
0.0
 10
-6.4666900000000007
 20
-4.64114
 30
0.0
 10
-6.4666900000000007
 20
-4.64114
 30
0.0
 10
-6.5403500000000001
 20
-4.5674800000000007
 30
0.0
 10
-6.588610000000001
 20
-4.64114
 30
0.0
 10
-6.6317900000000005
 20
-4.6944800000000004
 30
0.0
 10
-6.6317900000000005
 20
-4.6944800000000004
 30
0.0
 10
-6.5936900000000005
 20
-4.5446200000000001
 30
0.0
 10
-6.5809900000000008
 20
-4.34396
 30
0.0
 10
-6.4235100000000003
 20
-4.2703000000000007
 30
0.0
  0
SPLINE
  5
48
100
AcDbEntity
  8
���� 1
 62
     7
100
AcDbSpline
210
0.0
220
0.0
230
1.0
 70
     1
 71
     3
 72
    28
 73
    24
 74
     0
 42
0.0000000001
 43
0.0000000001
 40
0.0
 40
0.0
 40
0.0
 40
0.0
 40
0.1666666666666667
 40
0.1666666666666667
 40
0.1666666666666667
 40
0.1666666666666667
 40
0.3333333333333333
 40
0.3333333333333333
 40
0.3333333333333333
 40
0.3333333333333333
 40
0.5
 40
0.5
 40
0.5
 40
0.5
 40
0.6666666666666666
 40
0.6666666666666666
 40
0.6666666666666666
 40
0.6666666666666666
 40
0.8333333333333333
 40
0.8333333333333333
 40
0.8333333333333333
 40
0.8333333333333333
 40
1.0
 40
1.0
 40
1.0
 40
1.0
 10
0.04586
 20
-4.34396
 30
0.0
 10
0.09412
 20
-4.3566600000000006
 30
0.0
 10
0.16016
 20
-4.34396
 30
0.0
 10
0.19318
 20
-4.3973000000000004
 30
0.0
 10
0.19318
 20
-4.3973000000000004
 30
0.0
 10
0.00268
 20
-4.3871400000000005
 30
0.0
 10
-0.19797
 20
-4.5344600000000002
 30
0.0
 10
-0.20813
 20
-4.7452800000000002
 30
0.0
 10
-0.20813
 20
-4.7452800000000002
 30
0.0
 10
-0.20813
 20
-4.7452800000000002
 30
0.0
 10
-0.23861
 20
-4.7783000000000007
 30
0.0
 10
-0.23861
 20
-4.7783000000000007
 30
0.0
 10
-0.23861
 20
-4.7783000000000007
 30
0.0
 10
-0.27417
 20
-4.7681400000000007
 30
0.0
 10
-0.24369
 20
-4.7148000000000003
 30
0.0
 10
-0.23607
 20
-4.6944800000000004
 30
0.0
 10
-0.23607
 20
-4.6944800000000004
 30
0.0
 10
-0.21575
 20
-4.6309800000000001
 30
0.0
 10
-0.20559
 20
-4.5573200000000007
 30
0.0
 10
-0.16495
 20
-4.5039800000000003
 30
0.0
 10
-0.16495
 20
-4.5039800000000003
 30
0.0
 10
-0.14463
 20
-4.3769800000000005
 30
0.0
 10
-0.03287
 20
-4.3973000000000004
 30
0.0
 10
0.04586
 20
-4.34396
 30
0.0
  0
SPLINE
  5
49
100
AcDbEntity
  8
���� 1
 62
     7
100
AcDbSpline
210
0.0
220
0.0
230
1.0
 70
     1
 71
     3
 72
    20
 73
    16
 74
     0
 42
0.0000000001
 43
0.0000000001
 40
0.0
 40
0.0
 40
0.0
 40
0.0
 40
0.25
 40
0.25
 40
0.25
 40
0.25
 40
0.5
 40
0.5
 40
0.5
 40
0.5
 40
0.75
 40
0.75
 40
0.75
 40
0.75
 40
1.0
 40
1.0
 40
1.0
 40
1.0
 10
-6.5809900000000008
 20
-4.6792400000000001
 30
0.0
 10
-6.5809900000000008
 20
-4.6792400000000001
 30
0.0
 10
-6.5403500000000001
 20
-4.6716200000000008
 30
0.0
 10
-6.5403500000000001
 20
-4.6716200000000008
 30
0.0
 10
-6.5403500000000001
 20
-4.6716200000000008
 30
0.0
 10
-6.5403500000000001
 20
-4.6716200000000008
 30
0.0
 10
-6.5251100000000006
 20
-4.7249600000000003
 30
0.0
 10
-6.5251100000000006
 20
-4.7249600000000003
 30
0.0
 10
-6.5251100000000006
 20
-4.7249600000000003
 30
0.0
 10
-6.5251100000000006
 20
-4.7249600000000003
 30
0.0
 10
-6.588610000000001
 20
-4.9129200000000006
 30
0.0
 10
-6.588610000000001
 20
-4.9129200000000006
 30
0.0
 10
-6.588610000000001
 20
-4.9129200000000006
 30
0.0
 10
-6.6394100000000007
 20
-4.8799000000000001
 30
0.0
 10
-6.6216300000000006
 20
-4.7478200000000008
 30
0.0
 10
-6.5809900000000008
 20
-4.6792400000000001
 30
0.0
  0
SPLINE
  5
4A
100
AcDbEntity
  8
���� 1
 62
     7
100
AcDbSpline
210
0.0
220
0.0
230
1.0
 70
     1
 71
     3
 72
    28
 73
    24
 74
     0
 42
0.0000000001
 43
0.0000000001
 40
0.0
 40
0.0
 40
0.0
 40
0.0
 40
0.1666666666666667
 40
0.1666666666666667
 40
0.1666666666666667
 40
0.1666666666666667
 40
0.3333333333333333
 40
0.3333333333333333
 40
0.3333333333333333
 40
0.3333333333333333
 40
0.5
 40
0.5
 40
0.5
 40
0.5
 40
0.6666666666666666
 40
0.6666666666666666
 40
0.6666666666666666
 40
0.6666666666666666
 40
0.8333333333333333
 40
0.8333333333333333
 40
0.8333333333333333
 40
0.8333333333333333
 40
1.0
 40
1.0
 40
1.0
 40
1.0
 10
-2.3899900000000001
 20
-4.8087800000000005
 30
0.0
 10
-2.3493500000000003
 20
-4.8087800000000005
 30
0.0
 10
-2.3010900000000003
 20
-4.8087800000000005
 30
0.0
 10
-2.2858500000000004
 20
-4.8519600000000001
 30
0.0
 10
-2.2858500000000004
 20
-4.8519600000000001
 30
0.0
 10
-2.3925300000000003
 20
-5.0323000000000002
 30
0.0
 10
-2.4153900000000004
 20
-5.2329600000000003
 30
0.0
 10
-2.4128500000000002
 20
-5.4336200000000003
 30
0.0
 10
-2.4128500000000002
 20
-5.4336200000000003
 30
0.0
 10
-2.4128500000000002
 20
-5.4336200000000003
 30
0.0
 10
-2.69225
 20
-5.5479200000000004
 30
0.0
 10
-2.69225
 20
-5.5479200000000004
 30
0.0
 10
-2.69225
 20
-5.5479200000000004
 30
0.0
 10
-2.6998700000000002
 20
-5.5072800000000006
 30
0.0
 10
-2.69733
 20
-5.4641000000000002
 30
0.0
 10
-2.6871700000000001
 20
-5.4336200000000003
 30
0.0
 10
-2.6871700000000001
 20
-5.4336200000000003
 30
0.0
 10
-2.6998700000000002
 20
-5.3802800000000008
 30
0.0
 10
-2.7074900000000004
 20
-5.3269400000000005
 30
0.0
 10
-2.7506700000000004
 20
-5.2964600000000006
 30
0.0
 10
-2.7506700000000004
 20
-5.2964600000000006
 30
0.0
 10
-2.7151100000000001
 20
-5.0831000000000008
 30
0.0
 10
-2.6262100000000004
 20
-4.8519600000000001
 30
0.0
 10
-2.3899900000000001
 20
-4.8087800000000005
 30
0.0
  0
SPLINE
  5
4B
100
AcDbEntity
  8
���� 1
 62
     7
100
AcDbSpline
210
0.0
220
0.0
230
1.0
 70
     1
 71
     3
 72
    32
 73
    28
 74
     0
 42
0.0000000001
 43
0.0000000001
 40
0.0
 40
0.0
 40
0.0
 40
0.0
 40
0.1428571428571429
 40
0.1428571428571429
 40
0.1428571428571429
 40
0.1428571428571429
 40
0.2857142857142857
 40
0.2857142857142857
 40
0.2857142857142857
 40
0.2857142857142857
 40
0.4285714285714286
 40
0.4285714285714286
 40
0.4285714285714286
 40
0.4285714285714286
 40
0.5714285714285714
 40
0.5714285714285714
 40
0.5714285714285714
 40
0.5714285714285714
 40
0.7142857142857142
 40
0.7142857142857142
 40
0.7142857142857142
 40
0.7142857142857142
 40
0.857142857142857
 40
0.857142857142857
 40
0.857142857142857
 40
0.857142857142857
 40
1.0
 40
1.0
 40
1.0
 40
1.0
 10
-1.9683500000000003
 20
-4.8519600000000001
 30
0.0
 10
-1.8896100000000002
 20
-4.86212
 30
0.0
 10
-1.8184900000000002
 20
-4.9154600000000004
 30
0.0
 10
-1.7676900000000002
 20
-4.9789600000000007
 30
0.0
 10
-1.7676900000000002
 20
-4.9789600000000007
 30
0.0
 10
-1.7676900000000002
 20
-4.9789600000000007
 30
0.0
 10
-1.8769100000000001
 20
-5.4742600000000001
 30
0.0
 10
-1.8769100000000001
 20
-5.4742600000000001
 30
0.0
 10
-1.8769100000000001
 20
-5.4742600000000001
 30
0.0
 10
-1.8769100000000001
 20
-5.4742600000000001
 30
0.0
 10
-1.9785100000000002
 20
-5.5479200000000004
 30
0.0
 10
-1.9785100000000002
 20
-5.5479200000000004
 30
0.0
 10
-1.9785100000000002
 20
-5.5479200000000004
 30
0.0
 10
-2.0420100000000003
 20
-5.5276000000000005
 30
0.0
 10
-2.10805
 20
-5.5276000000000005
 30
0.0
 10
-2.1766300000000003
 20
-5.5276000000000005
 30
0.0
 10
-2.1766300000000003
 20
-5.5276000000000005
 30
0.0
 10
-2.1766300000000003
 20
-5.5276000000000005
 30
0.0
 10
-2.1817100000000003
 20
-5.3472600000000003
 30
0.0
 10
-2.1817100000000003
 20
-5.3472600000000003
 30
0.0
 10
-2.1817100000000003
 20
-5.3472600000000003
 30
0.0
 10
-2.2528300000000003
 20
-5.2736000000000001
 30
0.0
 10
-2.27061
 20
-5.37012
 30
0.0
 10
-2.2909300000000004
 20
-5.4031400000000005
 30
0.0
 10
-2.2909300000000004
 20
-5.4031400000000005
 30
0.0
 10
-2.3671300000000004
 20
-5.1262800000000004
 30
0.0
 10
-2.2147300000000003
 20
-4.9408600000000007
 30
0.0
 10
-1.9683500000000003
 20
-4.8519600000000001
 30
0.0
  0
SPLINE
  5
4C
100
AcDbEntity
  8
���� 1
 62
     7
100
AcDbSpline
210
0.0
220
0.0
230
1.0
 70
     1
 71
     3
 72
    20
 73
    16
 74
     0
 42
0.0000000001
 43
0.0000000001
 40
0.0
 40
0.0
 40
0.0
 40
0.0
 40
0.25
 40
0.25
 40
0.25
 40
0.25
 40
0.5
 40
0.5
 40
0.5
 40
0.5
 40
0.75
 40
0.75
 40
0.75
 40
0.75
 40
1.0
 40
1.0
 40
1.0
 40
1.0
 10
-2.7913100000000002
 20
-4.8951400000000005
 30
0.0
 10
-2.7913100000000002
 20
-4.8951400000000005
 30
0.0
 10
-2.7506700000000004
 20
-4.9053000000000004
 30
0.0
 10
-2.7506700000000004
 20
-4.9053000000000004
 30
0.0
 10
-2.7506700000000004
 20
-4.9053000000000004
 30
0.0
 10
-2.85989
 20
-5.07294
 30
0.0
 10
-2.9233900000000004
 20
-5.28376
 30
0.0
 10
-2.9183100000000004
 20
-5.4844200000000001
 30
0.0
 10
-2.9183100000000004
 20
-5.4844200000000001
 30
0.0
 10
-2.9564100000000004
 20
-5.4844200000000001
 30
0.0
 10
-2.9945100000000004
 20
-5.4844200000000001
 30
0.0
 10
-3.0199100000000003
 20
-5.4641000000000002
 30
0.0
 10
-3.0199100000000003
 20
-5.4641000000000002
 30
0.0
 10
-3.0478500000000004
 20
-5.2532800000000002
 30
0.0
 10
-3.0275300000000001
 20
-4.9688000000000008
 30
0.0
 10
-2.7913100000000002
 20
-4.8951400000000005
 30
0.0
  0
SPLINE
  5
4D
100
AcDbEntity
  8
���� 1
 62
     7
100
AcDbSpline
210
0.0
220
0.0
230
1.0
 70
     1
 71
     3
 72
    28
 73
    24
 74
     0
 42
0.0000000001
 43
0.0000000001
 40
0.0
 40
0.0
 40
0.0
 40
0.0
 40
0.1666666666666667
 40
0.1666666666666667
 40
0.1666666666666667
 40
0.1666666666666667
 40
0.3333333333333333
 40
0.3333333333333333
 40
0.3333333333333333
 40
0.3333333333333333
 40
0.5
 40
0.5
 40
0.5
 40
0.5
 40
0.6666666666666666
 40
0.6666666666666666
 40
0.6666666666666666
 40
0.6666666666666666
 40
0.8333333333333333
 40
0.8333333333333333
 40
0.8333333333333333
 40
0.8333333333333333
 40
1.0
 40
1.0
 40
1.0
 40
1.0
 10
6.4746000000000006
 20
-4.9459400000000002
 30
0.0
 10
6.5254000000000003
 20
-4.9789600000000007
 30
0.0
 10
6.5787400000000007
 20
-4.9891200000000007
 30
0.0
 10
6.6422400000000001
 20
-4.9992800000000006
 30
0.0
 10
6.6422400000000001
 20
-4.9992800000000006
 30
0.0
 10
6.5787400000000007
 20
-5.1593
 30
0.0
 10
6.5889000000000006
 20
-5.3269400000000005
 30
0.0
 10
6.6320800000000002
 20
-5.4844200000000001
 30
0.0
 10
6.6320800000000002
 20
-5.4844200000000001
 30
0.0
 10
6.6320800000000002
 20
-5.4844200000000001
 30
0.0
 10
6.4212600000000002
 20
-5.5479200000000004
 30
0.0
 10
6.4212600000000002
 20
-5.5479200000000004
 30
0.0
 10
6.4212600000000002
 20
-5.5479200000000004
 30
0.0
 10
6.3679200000000007
 20
-5.4742600000000001
 30
0.0
 10
6.4212600000000002
 20
-5.3599600000000001
 30
0.0
 10
6.4111000000000002
 20
-5.2634400000000001
 30
0.0
 10
6.4111000000000002
 20
-5.2634400000000001
 30
0.0
 10
6.3349000000000002
 20
-5.2101000000000006
 30
0.0
 10
6.3145800000000003
 20
-5.3371000000000004
 30
0.0
 10
6.2409200000000009
 20
-5.3269400000000005
 30
0.0
 10
6.2409200000000009
 20
-5.3269400000000005
 30
0.0
 10
6.2612400000000008
 20
-5.1796200000000008
 30
0.0
 10
6.3577600000000007
 20
-5.0424600000000002
 30
0.0
 10
6.4746000000000006
 20
-4.9459400000000002
 30
0.0
  0
SPLINE
  5
4E
100
AcDbEntity
  8
���� 1
 62
     7
100
AcDbSpline
210
0.0
220
0.0
230
1.0
 70
     1
 71
     3
 72
    36
 73
    32
 74
     0
 42
0.0000000001
 43
0.0000000001
 40
0.0
 40
0.0
 40
0.0
 40
0.0
 40
0.125
 40
0.125
 40
0.125
 40
0.125
 40
0.25
 40
0.25
 40
0.25
 40
0.25
 40
0.375
 40
0.375
 40
0.375
 40
0.375
 40
0.5
 40
0.5
 40
0.5
 40
0.5
 40
0.625
 40
0.625
 40
0.625
 40
0.625
 40
0.75
 40
0.75
 40
0.75
 40
0.75
 40
0.875
 40
0.875
 40
0.875
 40
0.875
 40
1.0
 40
1.0
 40
1.0
 40
1.0
 10
6.9597400000000009
 20
-4.9459400000000002
 30
0.0
 10
7.0003800000000007
 20
-4.9586400000000008
 30
0.0
 10
7.0435600000000003
 20
-4.9586400000000008
 30
0.0
 10
7.074040000000001
 20
-4.9992800000000006
 30
0.0
 10
7.074040000000001
 20
-4.9992800000000006
 30
0.0
 10
7.0003800000000007
 20
-5.1796200000000008
 30
0.0
 10
7.1807200000000009
 20
-5.3904400000000008
 30
0.0
 10
7.0638800000000002
 20
-5.5479200000000004
 30
0.0
 10
7.0638800000000002
 20
-5.5479200000000004
 30
0.0
 10
7.0638800000000002
 20
-5.5479200000000004
 30
0.0
 10
7.0003800000000007
 20
-5.5377600000000005
 30
0.0
 10
7.0003800000000007
 20
-5.5377600000000005
 30
0.0
 10
7.0003800000000007
 20
-5.5377600000000005
 30
0.0
 10
7.0003800000000007
 20
-5.5377600000000005
 30
0.0
 10
6.9597400000000009
 20
-5.5707800000000001
 30
0.0
 10
6.9597400000000009
 20
-5.5707800000000001
 30
0.0
 10
6.9597400000000009
 20
-5.5707800000000001
 30
0.0
 10
6.9165600000000005
 20
-5.5072800000000006
 30
0.0
 10
6.949580000000001
 20
-5.3066200000000006
 30
0.0
 10
6.8098800000000006
 20
-5.3371000000000004
 30
0.0
 10
6.8098800000000006
 20
-5.3371000000000004
 30
0.0
 10
6.7895600000000007
 20
-5.2964600000000006
 30
0.0
 10
6.7489200000000009
 20
-5.28376
 30
0.0
 10
6.7159000000000004
 20
-5.3269400000000005
 30
0.0
 10
6.7159000000000004
 20
-5.3269400000000005
 30
0.0
 10
6.7159000000000004
 20
-5.2202600000000006
 30
0.0
 10
6.6955800000000005
 20
-5.0424600000000002
 30
0.0
 10
6.8327400000000003
 20
-5.0424600000000002
 30
0.0
 10
6.8327400000000003
 20
-5.0424600000000002
 30
0.0
 10
6.8530600000000002
 20
-4.9789600000000007
 30
0.0
 10
6.9165600000000005
 20
-4.9688000000000008
 30
0.0
 10
6.9597400000000009
 20
-4.9459400000000002
 30
0.0
  0
SPLINE
  5
4F
100
AcDbEntity
  8
���� 1
 62
     7
100
AcDbSpline
210
0.0
220
0.0
230
1.0
 70
     1
 71
     3
 72
    28
 73
    24
 74
     0
 42
0.0000000001
 43
0.0000000001
 40
0.0
 40
0.0
 40
0.0
 40
0.0
 40
0.1666666666666667
 40
0.1666666666666667
 40
0.1666666666666667
 40
0.1666666666666667
 40
0.3333333333333333
 40
0.3333333333333333
 40
0.3333333333333333
 40
0.3333333333333333
 40
0.5
 40
0.5
 40
0.5
 40
0.5
 40
0.6666666666666666
 40
0.6666666666666666
 40
0.6666666666666666
 40
0.6666666666666666
 40
0.8333333333333333
 40
0.8333333333333333
 40
0.8333333333333333
 40
0.8333333333333333
 40
1.0
 40
1.0
 40
1.0
 40
1.0
 10
6.1672600000000006
 20
-4.9992800000000006
 30
0.0
 10
6.1672600000000006
 20
-4.9992800000000006
 30
0.0
 10
6.1977400000000005
 20
-5.0196000000000005
 30
0.0
 10
6.1977400000000005
 20
-5.0196000000000005
 30
0.0
 10
6.1977400000000005
 20
-5.0196000000000005
 30
0.0
 10
6.1977400000000005
 20
-5.0196000000000005
 30
0.0
 10
6.0936000000000003
 20
-5.4209200000000006
 30
0.0
 10
6.0936000000000003
 20
-5.4209200000000006
 30
0.0
 10
6.0936000000000003
 20
-5.4209200000000006
 30
0.0
 10
6.0834400000000004
 20
-5.4209200000000006
 30
0.0
 10
6.0732800000000005
 20
-5.4209200000000006
 30
0.0
 10
6.0732800000000005
 20
-5.4107600000000007
 30
0.0
 10
6.0732800000000005
 20
-5.4107600000000007
 30
0.0
 10
6.1037600000000003
 20
-5.3472600000000003
 30
0.0
 10
6.0732800000000005
 20
-5.1796200000000008
 30
0.0
 10
5.9869200000000005
 20
-5.2964600000000006
 30
0.0
 10
5.9869200000000005
 20
-5.2964600000000006
 30
0.0
 10
5.9869200000000005
 20
-5.2964600000000006
 30
0.0
 10
5.9666000000000006
 20
-5.28376
 30
0.0
 10
5.9666000000000006
 20
-5.28376
 30
0.0
 10
5.9666000000000006
 20
-5.28376
 30
0.0
 10
6.0097800000000001
 20
-5.1796200000000008
 30
0.0
 10
6.0732800000000005
 20
-5.0627800000000001
 30
0.0
 10
6.1672600000000006
 20
-4.9992800000000006
 30
0.0
  0
SPLINE
  5
50
100
AcDbEntity
  8
���� 1
 62
     7
100
AcDbSpline
210
0.0
220
0.0
230
1.0
 70
     1
 71
     3
 72
    12
 73
     8
 74
     0
 42
0.0000000001
 43
0.0000000001
 40
0.0
 40
0.0
 40
0.0
 40
0.0
 40
0.5
 40
0.5
 40
0.5
 40
0.5
 40
1.0
 40
1.0
 40
1.0
 40
1.0
 10
6.2307600000000001
 20
-5.4209200000000006
 30
0.0
 10
6.2510800000000009
 20
-5.4336200000000003
 30
0.0
 10
6.2409200000000009
 20
-5.4539400000000002
 30
0.0
 10
6.2409200000000009
 20
-5.4742600000000001
 30
0.0
 10
6.2409200000000009
 20
-5.4742600000000001
 30
0.0
 10
6.2409200000000009
 20
-5.4742600000000001
 30
0.0
 10
6.2307600000000001
 20
-5.4209200000000006
 30
0.0
 10
6.2307600000000001
 20
-5.4209200000000006
 30
0.0
  0
SPLINE
  5
51
100
AcDbEntity
  8
���� 1
 62
     7
100
AcDbSpline
210
0.0
220
0.0
230
1.0
 70
     1
 71
     3
 72
    20
 73
    16
 74
     0
 42
0.0000000001
 43
0.0000000001
 40
0.0
 40
0.0
 40
0.0
 40
0.0
 40
0.25
 40
0.25
 40
0.25
 40
0.25
 40
0.5
 40
0.5
 40
0.5
 40
0.5
 40
0.75
 40
0.75
 40
0.75
 40
0.75
 40
1.0
 40
1.0
 40
1.0
 40
1.0
 10
-7.2159900000000006
 20
-4.6436800000000007
 30
0.0
 10
-7.2159900000000006
 20
-4.6436800000000007
 30
0.0
 10
-7.1753500000000008
 20
-4.6335200000000007
 30
0.0
 10
-7.1753500000000008
 20
-4.6335200000000007
 30
0.0
 10
-7.1753500000000008
 20
-4.6335200000000007
 30
0.0
 10
-7.1753500000000008
 20
-4.6335200000000007
 30
0.0
 10
-7.1601100000000004
 20
-4.6868600000000002
 30
0.0
 10
-7.1601100000000004
 20
-4.6868600000000002
 30
0.0
 10
-7.1601100000000004
 20
-4.6868600000000002
 30
0.0
 10
-7.1601100000000004
 20
-4.6868600000000002
 30
0.0
 10
-7.2236100000000008
 20
-4.8773600000000004
 30
0.0
 10
-7.2236100000000008
 20
-4.8773600000000004
 30
0.0
 10
-7.2236100000000008
 20
-4.8773600000000004
 30
0.0
 10
-7.2744100000000005
 20
-4.8418000000000001
 30
0.0
 10
-7.2566300000000004
 20
-4.7097200000000008
 30
0.0
 10
-7.2159900000000006
 20
-4.6436800000000007
 30
0.0
  0
SPLINE
  5
52
100
AcDbEntity
  8
���� 1
 62
     7
100
AcDbSpline
210
0.0
220
0.0
230
1.0
 70
     1
 71
     3
 72
    20
 73
    16
 74
     0
 42
0.0000000001
 43
0.0000000001
 40
0.0
 40
0.0
 40
0.0
 40
0.0
 40
0.25
 40
0.25
 40
0.25
 40
0.25
 40
0.5
 40
0.5
 40
0.5
 40
0.5
 40
0.75
 40
0.75
 40
0.75
 40
0.75
 40
1.0
 40
1.0
 40
1.0
 40
1.0
 10
-7.5969900000000008
 20
-4.5573200000000007
 30
0.0
 10
-7.5969900000000008
 20
-4.5573200000000007
 30
0.0
 10
-7.556350000000001
 20
-4.5471600000000008
 30
0.0
 10
-7.556350000000001
 20
-4.5471600000000008
 30
0.0
 10
-7.556350000000001
 20
-4.5471600000000008
 30
0.0
 10
-7.556350000000001
 20
-4.5471600000000008
 30
0.0
 10
-7.5411100000000006
 20
-4.6005000000000003
 30
0.0
 10
-7.5411100000000006
 20
-4.6005000000000003
 30
0.0
 10
-7.5411100000000006
 20
-4.6005000000000003
 30
0.0
 10
-7.5411100000000006
 20
-4.6005000000000003
 30
0.0
 10
-7.604610000000001
 20
-4.7884600000000006
 30
0.0
 10
-7.604610000000001
 20
-4.7884600000000006
 30
0.0
 10
-7.604610000000001
 20
-4.7884600000000006
 30
0.0
 10
-7.6554100000000007
 20
-4.7554400000000001
 30
0.0
 10
-7.6376300000000006
 20
-4.6233600000000008
 30
0.0
 10
-7.5969900000000008
 20
-4.5573200000000007
 30
0.0
  0
ENDSEC
  0
SECTION
  2
OBJECTS
  0
DICTIONARY
  5
19
100
AcDbDictionary
280
     0
281
     1
  3
ACAD_GROUP
350
1A
  3
ACAD_MLINESTYLE
350
1B
  3
ACAD_LAYOUT
350
1E
  3
ACAD_PLOTSETTINGS
350
22
  3
ACAD_PLOTSTYLENAME
350
1F
  3
ACAD_WIPEOUT_VARS
350
23
  0
DICTIONARY
  5
1A
102
{ACAD_REACTORS
330
19
102
}
100
AcDbDictionary
280
     0
281
     1
  0
DICTIONARY
  5
1B
102
{ACAD_REACTORS
330
19
102
}
100
AcDbDictionary
280
     0
281
     1
  3
Standard
350
1C
  0
MLINESTYLE
  5
1C
102
{ACAD_REACTORS
330
1B
102
}
100
AcDbMlineStyle
  2
Standard
 70
     0
  3

 62
     0
 51
90.0
 52
90.0
 71
     2
 49
0.5
 62
   256
  6
BYLAYER
 49
-0.5
 62
   256
  6
BYLAYER
  0
ACDBDICTIONARYWDFLT
  5
1F
102
{ACAD_REACTORS
330
19
102
}
100
AcDbDictionary
281
     1
  3
Normal
350
1D
100
AcDbDictionaryWithDefault
340
1D
  0
ACDBPLACEHOLDER
  5
1D
102
{ACAD_REACTORS
330
1F
102
}
  0
LAYOUT
  5
20
102
{ACAD_REACTORS
330
1E
102
}
100
AcDbPlotSettings
  1

  2

  4

  6

 40
0.0
 41
0.0
 42
0.0
 43
0.0
 44
0.0
 45
0.0
 46
0.0
 47
0.0
 48
0.0
 49
0.0
140
0.0
141
0.0
142
1.0
143
1.0
 70
  1024
 72
     0
 73
     0
 74
     0
  7

 75
     0
147
1.0
148
0.0
149
0.0
100
AcDbLayout
  1
Model
 70
     0
 71
     0
 10
0.0
 20
0.0
 11
0.0
 21
0.0
 12
0.0
 22
0.0
 32
0.0
 14
0.0
 24
0.0
 34
0.0
 15
0.0
 25
0.0
 35
0.0
146
0.0
 13
0.0
 23
0.0
 33
0.0
 16
0.0
 26
0.0
 36
0.0
 17
0.0
 27
0.0
 37
0.0
 76
     0
330
A
331
0
345
0
346
0
  0
LAYOUT
  5
21
102
{ACAD_REACTORS
330
1E
102
}
100
AcDbPlotSettings
  1

  2

  4

  6

 40
0.0
 41
0.0
 42
0.0
 43
0.0
 44
0.0
 45
0.0
 46
0.0
 47
0.0
 48
0.0
 49
0.0
140
0.0
141
0.0
142
1.0
143
1.0
 70
     0
 72
     0
 73
     0
 74
     0
  7

 75
     0
147
1.0
148
0.0
149
0.0
100
AcDbLayout
  1
Layout1
 70
     0
 71
     0
 10
0.0
 20
0.0
 11
0.0
 21
0.0
 12
0.0
 22
0.0
 32
0.0
 14
0.0
 24
0.0
 34
0.0
 15
0.0
 25
0.0
 35
0.0
146
0.0
 13
0.0
 23
0.0
 33
0.0
 16
0.0
 26
0.0
 36
0.0
 17
0.0
 27
0.0
 37
0.0
 76
     0
330
B
331
0
345
0
346
0
  0
DICTIONARY
  5
1E
102
{ACAD_REACTORS
330
19
102
}
100
AcDbDictionary
280
     0
281
     1
  3
Layout1
350
21
  3
Model
350
20
  0
DICTIONARY
  5
22
102
{ACAD_REACTORS
330
19
102
}
100
AcDbDictionary
280
     0
281
     1
  0
WIPEOUTVARIABLES
  5
23
100
AcDbWipeoutVariables
 70
     1
  0
ENDSEC
  0
EOF
