  0
SECTION
  2
HEADER
  9
$ACADVER
  1
AC1015
  9
$ACADMAINTVER
 70
     6
  9
$DWGCODEPAGE
  3
ANSI_1252
  9
$INSBASE
 10
0.0
 20
0.0
 30
0.0
  9
$EXTMIN
 10
-615.9881
 20
-311.1881
 30
0.0
  9
$EXTMAX
 10
615.9881
 20
311.1881
 30
0.0
  9
$LIMMIN
 10
0.0
 20
0.0
  9
$LIMMAX
 10
12.0
 20
9.0
  9
$ORTHOMODE
 70
     0
  9
$REGENMODE
 70
     1
  9
$FILLMODE
 70
     1
  9
$QTEXTMODE
 70
     0
  9
$MIRRTEXT
 70
     1
  9
$LTSCALE
 40
1.0
  9
$ATTMODE
 70
     1
  9
$TEXTSIZE
 40
0.2
  9
$TRACEWID
 40
0.05
  9
$TEXTSTYLE
  7
Standard
  9
$CLAYER
  8
0
  9
$CELTYPE
  6
ByLayer
  9
$CECOLOR
 62
   256
  9
$CELTSCALE
 40
1.0
  9
$DISPSILH
 70
     0
  9
$DIMSCALE
 40
1.0
  9
$DIMASZ
 40
0.18
  9
$DIMEXO
 40
0.0625
  9
$DIMDLI
 40
0.38
  9
$DIMRND
 40
0.0
  9
$DIMDLE
 40
0.0
  9
$DIMEXE
 40
0.18
  9
$DIMTP
 40
0.0
  9
$DIMTM
 40
0.0
  9
$DIMTXT
 40
0.18
  9
$DIMCEN
 40
0.09
  9
$DIMTSZ
 40
0.0
  9
$DIMTOL
 70
     0
  9
$DIMLIM
 70
     0
  9
$DIMTIH
 70
     1
  9
$DIMTOH
 70
     1
  9
$DIMSE1
 70
     0
  9
$DIMSE2
 70
     0
  9
$DIMTAD
 70
     0
  9
$DIMZIN
 70
     0
  9
$DIMBLK
  1

  9
$DIMASO
 70
     1
  9
$DIMSHO
 70
     1
  9
$DIMPOST
  1

  9
$DIMAPOST
  1

  9
$DIMALT
 70
     0
  9
$DIMALTD
 70
     2
  9
$DIMALTF
 40
25.4
  9
$DIMLFAC
 40
1.0
  9
$DIMTOFL
 70
     0
  9
$DIMTVP
 40
0.0
  9
$DIMTIX
 70
     0
  9
$DIMSOXD
 70
     0
  9
$DIMSAH
 70
     0
  9
$DIMBLK1
  1

  9
$DIMBLK2
  1

  9
$DIMSTYLE
  2
Standard
  9
$DIMCLRD
 70
     0
  9
$DIMCLRE
 70
     0
  9
$DIMCLRT
 70
     0
  9
$DIMTFAC
 40
1.0
  9
$DIMGAP
 40
0.09
  9
$DIMJUST
 70
     0
  9
$DIMSD1
 70
     0
  9
$DIMSD2
 70
     0
  9
$DIMTOLJ
 70
     1
  9
$DIMTZIN
 70
     0
  9
$DIMALTZ
 70
     0
  9
$DIMALTTZ
 70
     0
  9
$DIMUPT
 70
     0
  9
$DIMDEC
 70
     4
  9
$DIMTDEC
 70
     4
  9
$DIMALTU
 70
     2
  9
$DIMALTTD
 70
     2
  9
$DIMTXSTY
  7
Standard
  9
$DIMAUNIT
 70
     0
  9
$DIMADEC
 70
     0
  9
$DIMALTRND
 40
0.0
  9
$DIMAZIN
 70
     0
  9
$DIMDSEP
 70
    46
  9
$DIMATFIT
 70
     3
  9
$DIMFRAC
 70
     0
  9
$DIMLDRBLK
  1

  9
$DIMLUNIT
 70
     2
  9
$DIMLWD
 70
    -2
  9
$DIMLWE
 70
    -2
  9
$DIMTMOVE
 70
     0
  9
$LUNITS
 70
     2
  9
$LUPREC
 70
     4
  9
$SKETCHINC
 40
0.1
  9
$FILLETRAD
 40
0.5
  9
$AUNITS
 70
     0
  9
$AUPREC
 70
     0
  9
$MENU
  1
.
  9
$ELEVATION
 40
0.0
  9
$PELEVATION
 40
0.0
  9
$THICKNESS
 40
0.0
  9
$LIMCHECK
 70
     0
  9
$CHAMFERA
 40
0.5
  9
$CHAMFERB
 40
0.5
  9
$CHAMFERC
 40
1.0
  9
$CHAMFERD
 40
0.0
  9
$SKPOLY
 70
     0
  9
$TDCREATE
 40
2457931.704873611
  9
$TDUCREATE
 40
2457931.829873611
  9
$TDUPDATE
 40
2457931.704873623
  9
$TDUUPDATE
 40
2457931.829873623
  9
$TDINDWG
 40
0.0000000116
  9
$TDUSRTIMER
 40
0.0000000116
  9
$USRTIMER
 70
     1
  9
$ANGBASE
 50
0.0
  9
$ANGDIR
 70
     0
  9
$PDMODE
 70
     0
  9
$PDSIZE
 40
0.0
  9
$PLINEWID
 40
0.0
  9
$SPLFRAME
 70
     0
  9
$SPLINETYPE
 70
     6
  9
$SPLINESEGS
 70
     8
  9
$HANDSEED
  5
9D
  9
$SURFTAB1
 70
     6
  9
$SURFTAB2
 70
     6
  9
$SURFTYPE
 70
     6
  9
$SURFU
 70
     6
  9
$SURFV
 70
     6
  9
$UCSBASE
  2

  9
$UCSNAME
  2

  9
$UCSORG
 10
0.0
 20
0.0
 30
0.0
  9
$UCSXDIR
 10
1.0
 20
0.0
 30
0.0
  9
$UCSYDIR
 10
0.0
 20
1.0
 30
0.0
  9
$UCSORTHOREF
  2

  9
$UCSORTHOVIEW
 70
     0
  9
$UCSORGTOP
 10
0.0
 20
0.0
 30
0.0
  9
$UCSORGBOTTOM
 10
0.0
 20
0.0
 30
0.0
  9
$UCSORGLEFT
 10
0.0
 20
0.0
 30
0.0
  9
$UCSORGRIGHT
 10
0.0
 20
0.0
 30
0.0
  9
$UCSORGFRONT
 10
0.0
 20
0.0
 30
0.0
  9
$UCSORGBACK
 10
0.0
 20
0.0
 30
0.0
  9
$PUCSBASE
  2

  9
$PUCSNAME
  2

  9
$PUCSORG
 10
0.0
 20
0.0
 30
0.0
  9
$PUCSXDIR
 10
1.0
 20
0.0
 30
0.0
  9
$PUCSYDIR
 10
0.0
 20
1.0
 30
0.0
  9
$PUCSORTHOREF
  2

  9
$PUCSORTHOVIEW
 70
     0
  9
$PUCSORGTOP
 10
0.0
 20
0.0
 30
0.0
  9
$PUCSORGBOTTOM
 10
0.0
 20
0.0
 30
0.0
  9
$PUCSORGLEFT
 10
0.0
 20
0.0
 30
0.0
  9
$PUCSORGRIGHT
 10
0.0
 20
0.0
 30
0.0
  9
$PUCSORGFRONT
 10
0.0
 20
0.0
 30
0.0
  9
$PUCSORGBACK
 10
0.0
 20
0.0
 30
0.0
  9
$USERI1
 70
     0
  9
$USERI2
 70
     0
  9
$USERI3
 70
     0
  9
$USERI4
 70
     0
  9
$USERI5
 70
     0
  9
$USERR1
 40
0.0
  9
$USERR2
 40
0.0
  9
$USERR3
 40
0.0
  9
$USERR4
 40
0.0
  9
$USERR5
 40
0.0
  9
$WORLDVIEW
 70
     1
  9
$SHADEDGE
 70
     3
  9
$SHADEDIF
 70
    70
  9
$TILEMODE
 70
     1
  9
$MAXACTVP
 70
    64
  9
$PINSBASE
 10
0.0
 20
0.0
 30
0.0
  9
$PLIMCHECK
 70
     0
  9
$PEXTMIN
 10
1.000000000000000E+20
 20
1.000000000000000E+20
 30
1.000000000000000E+20
  9
$PEXTMAX
 10
-1.000000000000000E+20
 20
-1.000000000000000E+20
 30
-1.000000000000000E+20
  9
$PLIMMIN
 10
0.0
 20
0.0
  9
$PLIMMAX
 10
12.0
 20
9.0
  9
$UNITMODE
 70
     0
  9
$VISRETAIN
 70
     1
  9
$PLINEGEN
 70
     0
  9
$PSLTSCALE
 70
     1
  9
$TREEDEPTH
 70
  3020
  9
$CMLSTYLE
  2
Standard
  9
$CMLJUST
 70
     0
  9
$CMLSCALE
 40
1.0
  9
$PROXYGRAPHICS
 70
     1
  9
$MEASUREMENT
 70
     0
  9
$CELWEIGHT
370
    -1
  9
$ENDCAPS
280
     0
  9
$JOINSTYLE
280
     0
  9
$LWDISPLAY
290
     0
  9
$INSUNITS
 70
     4
  9
$HYPERLINKBASE
  1

  9
$STYLESHEET
  1

  9
$XEDIT
290
     1
  9
$CEPSNTYPE
380
     0
  9
$PSTYLEMODE
290
     1
  9
$FINGERPRINTGUID
  2
{55D5E69F-A147-4037-9121-6C5768DC7B3F}
  9
$VERSIONGUID
  2
{FAEB1C32-E019-11D5-929B-00C0DF256EC4}
  9
$EXTNAMES
290
     1
  9
$PSVPSCALE
 40
0.0
  9
$OLESTARTUP
290
     0
  0
ENDSEC
  0
SECTION
  2
CLASSES
  0
CLASS
  1
ACDBDICTIONARYWDFLT
  2
AcDbDictionaryWithDefault
  3
ObjectDBX Classes
 90
        0
280
     0
281
     0
  0
CLASS
  1
VISUALSTYLE
  2
AcDbVisualStyle
  3
ObjectDBX Classes
 90
     4095
280
     0
281
     0
  0
CLASS
  1
MATERIAL
  2
AcDbMaterial
  3
ObjectDBX Classes
 90
     1153
280
     0
281
     0
  0
CLASS
  1
DICTIONARYVAR
  2
AcDbDictionaryVar
  3
ObjectDBX Classes
 90
        0
280
     0
281
     0
  0
CLASS
  1
ACDBPLACEHOLDER
  2
AcDbPlaceHolder
  3
ObjectDBX Classes
 90
        0
280
     0
281
     0
  0
CLASS
  1
LAYOUT
  2
AcDbLayout
  3
ObjectDBX Classes
 90
        0
280
     0
281
     0
  0
ENDSEC
  0
SECTION
  2
TABLES
  0
TABLE
  2
VPORT
  5
8
330
0
100
AcDbSymbolTable
 70
     1
  0
VPORT
  5
29
330
8
100
AcDbSymbolTableRecord
100
AcDbViewportTableRecord
  2
*Active
 70
     0
 10
0.0
 20
0.0
 11
1.0
 21
1.0
 12
10.42990654205607
 22
4.5
 13
0.0
 23
0.0
 14
0.5
 24
0.5
 15
0.5
 25
0.5
 16
0.0
 26
0.0
 36
1.0
 17
0.0
 27
0.0
 37
0.0
 40
9.0
 41
1.972972972850329
 42
50.0
 43
0.0
 44
0.0
 50
0.0
 51
0.0
 71
     0
 72
   100
 73
     1
 74
     3
 75
     0
 76
     0
 77
     0
 78
     0
281
     0
 65
     1
110
0.0
120
0.0
130
0.0
111
1.0
121
0.0
131
0.0
112
0.0
122
1.0
132
0.0
 79
     0
146
0.0
  0
ENDTAB
  0
TABLE
  2
LTYPE
  5
5
330
0
100
AcDbSymbolTable
 70
     1
  0
LTYPE
  5
14
330
5
100
AcDbSymbolTableRecord
100
AcDbLinetypeTableRecord
  2
ByBlock
 70
     0
  3

 72
    65
 73
     0
 40
0.0
  0
LTYPE
  5
15
330
5
100
AcDbSymbolTableRecord
100
AcDbLinetypeTableRecord
  2
ByLayer
 70
     0
  3

 72
    65
 73
     0
 40
0.0
  0
LTYPE
  5
16
330
5
100
AcDbSymbolTableRecord
100
AcDbLinetypeTableRecord
  2
Continuous
 70
     0
  3
Solid line
 72
    65
 73
     0
 40
0.0
  0
ENDTAB
  0
TABLE
  2
LAYER
  5
2
330
0
100
AcDbSymbolTable
 70
     2
  0
LAYER
  5
10
330
2
100
AcDbSymbolTableRecord
100
AcDbLayerTableRecord
  2
0
 70
     0
 62
     7
  6
Continuous
370
    -3
390
F
  0
LAYER
  5
40
330
2
100
AcDbSymbolTableRecord
100
AcDbLayerTableRecord
  2
Layer 1
 70
     0
 62
     7
  6
Continuous
370
    -3
390
F
  0
ENDTAB
  0
TABLE
  2
STYLE
  5
3
330
0
100
AcDbSymbolTable
 70
     1
  0
STYLE
  5
11
330
3
100
AcDbSymbolTableRecord
100
AcDbTextStyleTableRecord
  2
Standard
 70
     0
 40
0.0
 41
1.0
 50
0.0
 71
     0
 42
0.2
  3
txt
  4

  0
ENDTAB
  0
TABLE
  2
VIEW
  5
6
330
0
100
AcDbSymbolTable
 70
     0
  0
ENDTAB
  0
TABLE
  2
UCS
  5
7
330
0
100
AcDbSymbolTable
 70
     0
  0
ENDTAB
  0
TABLE
  2
APPID
  5
9
330
0
100
AcDbSymbolTable
 70
     2
  0
APPID
  5
12
330
9
100
AcDbSymbolTableRecord
100
AcDbRegAppTableRecord
  2
ACAD
 70
     0
  0
APPID
  5
3F
330
9
100
AcDbSymbolTableRecord
100
AcDbRegAppTableRecord
  2
ODA
 70
     0
  0
ENDTAB
  0
TABLE
  2
DIMSTYLE
  5
A
330
0
100
AcDbSymbolTable
 70
     1
100
AcDbDimStyleTable
  0
DIMSTYLE
105
27
330
A
100
AcDbSymbolTableRecord
100
AcDbDimStyleTableRecord
  2
Standard
 70
     0
340
11
  0
ENDTAB
  0
TABLE
  2
BLOCK_RECORD
  5
1
330
0
100
AcDbSymbolTable
 70
     1
  0
BLOCK_RECORD
  5
1F
330
1
100
AcDbSymbolTableRecord
100
AcDbBlockTableRecord
  2
*Model_Space
340
22
  0
BLOCK_RECORD
  5
1B
330
1
100
AcDbSymbolTableRecord
100
AcDbBlockTableRecord
  2
*Paper_Space
340
1E
  0
BLOCK_RECORD
  5
23
330
1
100
AcDbSymbolTableRecord
100
AcDbBlockTableRecord
  2
*Paper_Space0
340
26
  0
ENDTAB
  0
ENDSEC
  0
SECTION
  2
BLOCKS
  0
BLOCK
  5
20
330
1F
100
AcDbEntity
  8
0
100
AcDbBlockBegin
  2
*Model_Space
 70
     0
 10
0.0
 20
0.0
 30
0.0
  3
*Model_Space
  1

  0
ENDBLK
  5
21
330
1F
100
AcDbEntity
  8
0
100
AcDbBlockEnd
  0
BLOCK
  5
1C
330
1B
100
AcDbEntity
 67
     1
  8
0
100
AcDbBlockBegin
  2
*Paper_Space
 70
     0
 10
0.0
 20
0.0
 30
0.0
  3
*Paper_Space
  1

  0
ENDBLK
  5
1D
330
1B
100
AcDbEntity
 67
     1
  8
0
100
AcDbBlockEnd
  0
BLOCK
  5
24
330
23
100
AcDbEntity
  8
0
100
AcDbBlockBegin
  2
*Paper_Space0
 70
     0
 10
0.0
 20
0.0
 30
0.0
  3
*Paper_Space0
  1

  0
ENDBLK
  5
25
330
23
100
AcDbEntity
  8
0
100
AcDbBlockEnd
  0
ENDSEC
  0
SECTION
  2
ENTITIES
  0
SPLINE
  5
41
330
1F
100
AcDbEntity
  8
Layer 1
 62
     5
370
     9
100
AcDbSpline
210
0.0
220
0.0
230
1.0
 70
    11
 71
     3
 72
   300
 73
   296
 74
     0
 42
0.0000000001
 43
0.0000000001
 40
0.0
 40
0.0
 40
0.0
 40
0.0
 40
0.0133333333333333
 40
0.0133333333333333
 40
0.0133333333333333
 40
0.0133333333333333
 40
0.0266666666666667
 40
0.0266666666666667
 40
0.0266666666666667
 40
0.0266666666666667
 40
0.04
 40
0.04
 40
0.04
 40
0.04
 40
0.0533333333333333
 40
0.0533333333333333
 40
0.0533333333333333
 40
0.0533333333333333
 40
0.0666666666666667
 40
0.0666666666666667
 40
0.0666666666666667
 40
0.0666666666666667
 40
0.08
 40
0.08
 40
0.08
 40
0.08
 40
0.0933333333333333
 40
0.0933333333333333
 40
0.0933333333333333
 40
0.0933333333333333
 40
0.1066666666666667
 40
0.1066666666666667
 40
0.1066666666666667
 40
0.1066666666666667
 40
0.12
 40
0.12
 40
0.12
 40
0.12
 40
0.1333333333333333
 40
0.1333333333333333
 40
0.1333333333333333
 40
0.1333333333333333
 40
0.1466666666666667
 40
0.1466666666666667
 40
0.1466666666666667
 40
0.1466666666666667
 40
0.16
 40
0.16
 40
0.16
 40
0.16
 40
0.1733333333333333
 40
0.1733333333333333
 40
0.1733333333333333
 40
0.1733333333333333
 40
0.1866666666666667
 40
0.1866666666666667
 40
0.1866666666666667
 40
0.1866666666666667
 40
0.2
 40
0.2
 40
0.2
 40
0.2
 40
0.2133333333333333
 40
0.2133333333333333
 40
0.2133333333333333
 40
0.2133333333333333
 40
0.2266666666666667
 40
0.2266666666666667
 40
0.2266666666666667
 40
0.2266666666666667
 40
0.24
 40
0.24
 40
0.24
 40
0.24
 40
0.2533333333333334
 40
0.2533333333333334
 40
0.2533333333333334
 40
0.2533333333333334
 40
0.2666666666666667
 40
0.2666666666666667
 40
0.2666666666666667
 40
0.2666666666666667
 40
0.28
 40
0.28
 40
0.28
 40
0.28
 40
0.2933333333333333
 40
0.2933333333333333
 40
0.2933333333333333
 40
0.2933333333333333
 40
0.3066666666666666
 40
0.3066666666666666
 40
0.3066666666666666
 40
0.3066666666666666
 40
0.32
 40
0.32
 40
0.32
 40
0.32
 40
0.3333333333333333
 40
0.3333333333333333
 40
0.3333333333333333
 40
0.3333333333333333
 40
0.3466666666666667
 40
0.3466666666666667
 40
0.3466666666666667
 40
0.3466666666666667
 40
0.36
 40
0.36
 40
0.36
 40
0.36
 40
0.3733333333333334
 40
0.3733333333333334
 40
0.3733333333333334
 40
0.3733333333333334
 40
0.3866666666666667
 40
0.3866666666666667
 40
0.3866666666666667
 40
0.3866666666666667
 40
0.4
 40
0.4
 40
0.4
 40
0.4
 40
0.4133333333333333
 40
0.4133333333333333
 40
0.4133333333333333
 40
0.4133333333333333
 40
0.4266666666666667
 40
0.4266666666666667
 40
0.4266666666666667
 40
0.4266666666666667
 40
0.44
 40
0.44
 40
0.44
 40
0.44
 40
0.4533333333333333
 40
0.4533333333333333
 40
0.4533333333333333
 40
0.4533333333333333
 40
0.4666666666666667
 40
0.4666666666666667
 40
0.4666666666666667
 40
0.4666666666666667
 40
0.48
 40
0.48
 40
0.48
 40
0.48
 40
0.4933333333333333
 40
0.4933333333333333
 40
0.4933333333333333
 40
0.4933333333333333
 40
0.5066666666666667
 40
0.5066666666666667
 40
0.5066666666666667
 40
0.5066666666666667
 40
0.52
 40
0.52
 40
0.52
 40
0.52
 40
0.5333333333333333
 40
0.5333333333333333
 40
0.5333333333333333
 40
0.5333333333333333
 40
0.5466666666666666
 40
0.5466666666666666
 40
0.5466666666666666
 40
0.5466666666666666
 40
0.56
 40
0.56
 40
0.56
 40
0.56
 40
0.5733333333333334
 40
0.5733333333333334
 40
0.5733333333333334
 40
0.5733333333333334
 40
0.5866666666666667
 40
0.5866666666666667
 40
0.5866666666666667
 40
0.5866666666666667
 40
0.6
 40
0.6
 40
0.6
 40
0.6
 40
0.6133333333333333
 40
0.6133333333333333
 40
0.6133333333333333
 40
0.6133333333333333
 40
0.6266666666666667
 40
0.6266666666666667
 40
0.6266666666666667
 40
0.6266666666666667
 40
0.64
 40
0.64
 40
0.64
 40
0.64
 40
0.6533333333333333
 40
0.6533333333333333
 40
0.6533333333333333
 40
0.6533333333333333
 40
0.6666666666666666
 40
0.6666666666666666
 40
0.6666666666666666
 40
0.6666666666666666
 40
0.68
 40
0.68
 40
0.68
 40
0.68
 40
0.6933333333333334
 40
0.6933333333333334
 40
0.6933333333333334
 40
0.6933333333333334
 40
0.7066666666666667
 40
0.7066666666666667
 40
0.7066666666666667
 40
0.7066666666666667
 40
0.72
 40
0.72
 40
0.72
 40
0.72
 40
0.7333333333333333
 40
0.7333333333333333
 40
0.7333333333333333
 40
0.7333333333333333
 40
0.7466666666666667
 40
0.7466666666666667
 40
0.7466666666666667
 40
0.7466666666666667
 40
0.76
 40
0.76
 40
0.76
 40
0.76
 40
0.7733333333333333
 40
0.7733333333333333
 40
0.7733333333333333
 40
0.7733333333333333
 40
0.7866666666666666
 40
0.7866666666666666
 40
0.7866666666666666
 40
0.7866666666666666
 40
0.8
 40
0.8
 40
0.8
 40
0.8
 40
0.8133333333333334
 40
0.8133333333333334
 40
0.8133333333333334
 40
0.8133333333333334
 40
0.8266666666666667
 40
0.8266666666666667
 40
0.8266666666666667
 40
0.8266666666666667
 40
0.84
 40
0.84
 40
0.84
 40
0.84
 40
0.8533333333333334
 40
0.8533333333333334
 40
0.8533333333333334
 40
0.8533333333333334
 40
0.8666666666666667
 40
0.8666666666666667
 40
0.8666666666666667
 40
0.8666666666666667
 40
0.88
 40
0.88
 40
0.88
 40
0.88
 40
0.8933333333333333
 40
0.8933333333333333
 40
0.8933333333333333
 40
0.8933333333333333
 40
0.9066666666666666
 40
0.9066666666666666
 40
0.9066666666666666
 40
0.9066666666666666
 40
0.92
 40
0.92
 40
0.92
 40
0.92
 40
0.9333333333333333
 40
0.9333333333333333
 40
0.9333333333333333
 40
0.9333333333333333
 40
0.9466666666666667
 40
0.9466666666666667
 40
0.9466666666666667
 40
0.9466666666666667
 40
0.96
 40
0.96
 40
0.96
 40
0.96
 40
0.9733333333333334
 40
0.9733333333333334
 40
0.9733333333333334
 40
0.9733333333333334
 40
1.0
 40
1.0
 40
1.0
 40
1.0
 10
-605.4724
 20
-303.2125
 30
0.0
 10
-605.4724
 20
-303.2125
 30
0.0
 10
-570.5018
 20
-303.2125
 30
0.0
 10
-570.5018
 20
-303.2125
 30
0.0
 10
-570.5018
 20
-303.2125
 30
0.0
 10
-570.5018
 20
-303.2125
 30
0.0
 10
-570.5018
 20
-284.5857
 30
0.0
 10
-570.5018
 20
-284.5857
 30
0.0
 10
-570.5018
 20
-284.5857
 30
0.0
 10
-570.5018
 20
-284.5857
 30
0.0
 10
-567.9617
 20
-284.5857
 30
0.0
 10
-567.9617
 20
-284.5857
 30
0.0
 10
-567.9617
 20
-284.5857
 30
0.0
 10
-567.9617
 20
-284.5857
 30
0.0
 10
-567.9617
 20
-265.9085
 30
0.0
 10
-567.9617
 20
-265.9085
 30
0.0
 10
-567.9617
 20
-265.9085
 30
0.0
 10
-567.9617
 20
-265.9085
 30
0.0
 10
-570.5018
 20
-265.9085
 30
0.0
 10
-570.5018
 20
-265.9085
 30
0.0
 10
-570.5018
 20
-265.9085
 30
0.0
 10
-570.5018
 20
-265.9085
 30
0.0
 10
-570.5018
 20
-247.3324
 30
0.0
 10
-570.5018
 20
-247.3324
 30
0.0
 10
-570.5018
 20
-247.3324
 30
0.0
 10
-570.5018
 20
-247.3324
 30
0.0
 10
-568.0124
 20
-247.3324
 30
0.0
 10
-568.0124
 20
-247.3324
 30
0.0
 10
-568.0124
 20
-247.3324
 30
0.0
 10
-568.0124
 20
-247.3324
 30
0.0
 10
-568.0124
 20
-265.1125
 30
0.0
 10
-568.0124
 20
-265.1125
 30
0.0
 10
-568.0124
 20
-265.1125
 30
0.0
 10
-568.0124
 20
-265.1125
 30
0.0
 10
-530.5018
 20
-265.1125
 30
0.0
 10
-530.5018
 20
-265.1125
 30
0.0
 10
-530.5018
 20
-265.1125
 30
0.0
 10
-530.5018
 20
-265.1125
 30
0.0
 10
-530.5018
 20
-252.8357
 30
0.0
 10
-530.5018
 20
-252.8357
 30
0.0
 10
-530.5018
 20
-252.8357
 30
0.0
 10
-530.5018
 20
-252.8357
 30
0.0
 10
-527.9617
 20
-252.8357
 30
0.0
 10
-527.9617
 20
-252.8357
 30
0.0
 10
-527.9617
 20
-252.8357
 30
0.0
 10
-527.9617
 20
-252.8357
 30
0.0
 10
-527.9617
 20
-240.5085
 30
0.0
 10
-527.9617
 20
-240.5085
 30
0.0
 10
-527.9617
 20
-240.5085
 30
0.0
 10
-527.9617
 20
-240.5085
 30
0.0
 10
-530.5018
 20
-240.5085
 30
0.0
 10
-530.5018
 20
-240.5085
 30
0.0
 10
-530.5018
 20
-240.5085
 30
0.0
 10
-530.5018
 20
-240.5085
 30
0.0
 10
-530.5018
 20
-228.2824
 30
0.0
 10
-530.5018
 20
-228.2824
 30
0.0
 10
-530.5018
 20
-228.2824
 30
0.0
 10
-530.5018
 20
-228.2824
 30
0.0
 10
-528.0124
 20
-228.2824
 30
0.0
 10
-528.0124
 20
-228.2824
 30
0.0
 10
-528.0124
 20
-228.2824
 30
0.0
 10
-528.0124
 20
-228.2824
 30
0.0
 10
-528.0124
 20
-239.7125
 30
0.0
 10
-528.0124
 20
-239.7125
 30
0.0
 10
-528.0124
 20
-239.7125
 30
0.0
 10
-528.0124
 20
-239.7125
 30
0.0
 10
-487.9617
 20
-239.7125
 30
0.0
 10
-487.9617
 20
-239.7125
 30
0.0
 10
-487.9617
 20
-239.7125
 30
0.0
 10
-487.9617
 20
-239.7125
 30
0.0
 10
-487.9617
 20
-231.6185
 30
0.0
 10
-487.9617
 20
-231.6185
 30
0.0
 10
-487.9617
 20
-231.6185
 30
0.0
 10
-487.9617
 20
-231.6185
 30
0.0
 10
-490.5018
 20
-231.6185
 30
0.0
 10
-490.5018
 20
-231.6185
 30
0.0
 10
-490.5018
 20
-231.6185
 30
0.0
 10
-490.5018
 20
-231.6185
 30
0.0
 10
-490.5018
 20
-223.6257
 30
0.0
 10
-490.5018
 20
-223.6257
 30
0.0
 10
-490.5018
 20
-223.6257
 30
0.0
 10
-490.5018
 20
-223.6257
 30
0.0
 10
-487.9617
 20
-223.6257
 30
0.0
 10
-487.9617
 20
-223.6257
 30
0.0
 10
-487.9617
 20
-223.6257
 30
0.0
 10
-487.9617
 20
-223.6257
 30
0.0
 10
-487.9617
 20
-215.5318
 30
0.0
 10
-487.9617
 20
-215.5318
 30
0.0
 10
-487.9617
 20
-215.5318
 30
0.0
 10
-487.9617
 20
-215.5318
 30
0.0
 10
-490.5018
 20
-215.5318
 30
0.0
 10
-490.5018
 20
-215.5318
 30
0.0
 10
-490.5018
 20
-215.5318
 30
0.0
 10
-490.5018
 20
-215.5318
 30
0.0
 10
-490.5018
 20
-207.539
 30
0.0
 10
-490.5018
 20
-207.539
 30
0.0
 10
-490.5018
 20
-207.539
 30
0.0
 10
-490.5018
 20
-207.539
 30
0.0
 10
-487.9617
 20
-207.539
 30
0.0
 10
-487.9617
 20
-207.539
 30
0.0
 10
-487.9617
 20
-207.539
 30
0.0
 10
-487.9617
 20
-207.539
 30
0.0
 10
-487.9617
 20
-199.4451
 30
0.0
 10
-487.9617
 20
-199.4451
 30
0.0
 10
-487.9617
 20
-199.4451
 30
0.0
 10
-487.9617
 20
-199.4451
 30
0.0
 10
-490.5018
 20
-199.4451
 30
0.0
 10
-490.5018
 20
-199.4451
 30
0.0
 10
-490.5018
 20
-199.4451
 30
0.0
 10
-490.5018
 20
-199.4451
 30
0.0
 10
-490.5018
 20
-191.4018
 30
0.0
 10
-490.5018
 20
-191.4018
 30
0.0
 10
-490.5018
 20
-191.4018
 30
0.0
 10
-490.5018
 20
-191.4018
 30
0.0
 10
-496.7451
 20
-191.4018
 30
0.0
 10
-496.7451
 20
-191.4018
 30
0.0
 10
-496.7451
 20
-191.4018
 30
0.0
 10
-496.7451
 20
-191.4018
 30
0.0
 10
-496.7451
 20
-188.8616
 30
0.0
 10
-496.7451
 20
-188.8616
 30
0.0
 10
-496.7451
 20
-188.8616
 30
0.0
 10
-496.7451
 20
-188.8616
 30
0.0
 10
-503.039
 20
-188.8616
 30
0.0
 10
-503.039
 20
-188.8616
 30
0.0
 10
-503.039
 20
-188.8616
 30
0.0
 10
-503.039
 20
-188.8616
 30
0.0
 10
-503.039
 20
-191.4018
 30
0.0
 10
-503.039
 20
-191.4018
 30
0.0
 10
-503.039
 20
-191.4018
 30
0.0
 10
-503.039
 20
-191.4018
 30
0.0
 10
-509.2318
 20
-191.4018
 30
0.0
 10
-509.2318
 20
-191.4018
 30
0.0
 10
-509.2318
 20
-191.4018
 30
0.0
 10
-509.2318
 20
-191.4018
 30
0.0
 10
-509.2318
 20
-188.8616
 30
0.0
 10
-509.2318
 20
-188.8616
 30
0.0
 10
-509.2318
 20
-188.8616
 30
0.0
 10
-509.2318
 20
-188.8616
 30
0.0
 10
-515.5256
 20
-188.8616
 30
0.0
 10
-515.5256
 20
-188.8616
 30
0.0
 10
-515.5256
 20
-188.8616
 30
0.0
 10
-515.5256
 20
-188.8616
 30
0.0
 10
-515.5256
 20
-191.4018
 30
0.0
 10
-515.5256
 20
-191.4018
 30
0.0
 10
-515.5256
 20
-191.4018
 30
0.0
 10
-515.5256
 20
-191.4018
 30
0.0
 10
-521.7185
 20
-191.4018
 30
0.0
 10
-521.7185
 20
-191.4018
 30
0.0
 10
-521.7185
 20
-191.4018
 30
0.0
 10
-521.7185
 20
-191.4018
 30
0.0
 10
-521.7185
 20
-188.8616
 30
0.0
 10
-521.7185
 20
-188.8616
 30
0.0
 10
-521.7185
 20
-188.8616
 30
0.0
 10
-521.7185
 20
-188.8616
 30
0.0
 10
-535.9038
 20
-188.8616
 30
0.0
 10
-535.9038
 20
-188.8616
 30
0.0
 10
-535.9038
 20
-188.8616
 30
0.0
 10
-535.9038
 20
-188.8616
 30
0.0
 10
-535.9038
 20
-191.4018
 30
0.0
 10
-535.9038
 20
-191.4018
 30
0.0
 10
-535.9038
 20
-191.4018
 30
0.0
 10
-535.9038
 20
-191.4018
 30
0.0
 10
-541.2046
 20
-191.4018
 30
0.0
 10
-541.2046
 20
-191.4018
 30
0.0
 10
-541.2046
 20
-191.4018
 30
0.0
 10
-541.2046
 20
-191.4018
 30
0.0
 10
-541.2046
 20
-188.8616
 30
0.0
 10
-541.2046
 20
-188.8616
 30
0.0
 10
-541.2046
 20
-188.8616
 30
0.0
 10
-541.2046
 20
-188.8616
 30
0.0
 10
-546.6067
 20
-188.8616
 30
0.0
 10
-546.6067
 20
-188.8616
 30
0.0
 10
-546.6067
 20
-188.8616
 30
0.0
 10
-546.6067
 20
-188.8616
 30
0.0
 10
-546.6067
 20
-191.4018
 30
0.0
 10
-546.6067
 20
-191.4018
 30
0.0
 10
-546.6067
 20
-191.4018
 30
0.0
 10
-546.6067
 20
-191.4018
 30
0.0
 10
-551.9075
 20
-191.4018
 30
0.0
 10
-551.9075
 20
-191.4018
 30
0.0
 10
-551.9075
 20
-191.4018
 30
0.0
 10
-551.9075
 20
-191.4018
 30
0.0
 10
-551.9075
 20
-188.8616
 30
0.0
 10
-551.9075
 20
-188.8616
 30
0.0
 10
-551.9075
 20
-188.8616
 30
0.0
 10
-551.9075
 20
-188.8616
 30
0.0
 10
-557.3095
 20
-188.8616
 30
0.0
 10
-557.3095
 20
-188.8616
 30
0.0
 10
-557.3095
 20
-188.8616
 30
0.0
 10
-557.3095
 20
-188.8616
 30
0.0
 10
-557.3095
 20
-191.4018
 30
0.0
 10
-557.3095
 20
-191.4018
 30
0.0
 10
-557.3095
 20
-191.4018
 30
0.0
 10
-557.3095
 20
-191.4018
 30
0.0
 10
-562.6103
 20
-191.4018
 30
0.0
 10
-562.6103
 20
-191.4018
 30
0.0
 10
-562.6103
 20
-191.4018
 30
0.0
 10
-562.6103
 20
-191.4018
 30
0.0
 10
-562.6103
 20
-188.8616
 30
0.0
 10
-562.6103
 20
-188.8616
 30
0.0
 10
-562.6103
 20
-188.8616
 30
0.0
 10
-562.6103
 20
-188.8616
 30
0.0
 10
-575.5409
 20
-188.8616
 30
0.0
 10
-575.5409
 20
-188.8616
 30
0.0
 10
-575.5409
 20
-188.8616
 30
0.0
 10
-575.5409
 20
-188.8616
 30
0.0
 10
-575.5409
 20
-191.4018
 30
0.0
 10
-575.5409
 20
-191.4018
 30
0.0
 10
-575.5409
 20
-191.4018
 30
0.0
 10
-575.5409
 20
-191.4018
 30
0.0
 10
-580.4789
 20
-191.4018
 30
0.0
 10
-580.4789
 20
-191.4018
 30
0.0
 10
-580.4789
 20
-191.4018
 30
0.0
 10
-580.4789
 20
-191.4018
 30
0.0
 10
-580.4789
 20
-188.8616
 30
0.0
 10
-580.4789
 20
-188.8616
 30
0.0
 10
-580.4789
 20
-188.8616
 30
0.0
 10
-580.4789
 20
-188.8616
 30
0.0
 10
-585.5181
 20
-188.8616
 30
0.0
 10
-585.5181
 20
-188.8616
 30
0.0
 10
-585.5181
 20
-188.8616
 30
0.0
 10
-585.5181
 20
-188.8616
 30
0.0
 10
-585.5181
 20
-191.4018
 30
0.0
 10
-585.5181
 20
-191.4018
 30
0.0
 10
-585.5181
 20
-191.4018
 30
0.0
 10
-585.5181
 20
-191.4018
 30
0.0
 10
-590.4561
 20
-191.4018
 30
0.0
 10
-590.4561
 20
-191.4018
 30
0.0
 10
-590.4561
 20
-191.4018
 30
0.0
 10
-590.4561
 20
-191.4018
 30
0.0
 10
-590.4561
 20
-188.8616
 30
0.0
 10
-590.4561
 20
-188.8616
 30
0.0
 10
-590.4561
 20
-188.8616
 30
0.0
 10
-590.4561
 20
-188.8616
 30
0.0
 10
-595.4952
 20
-188.8616
 30
0.0
 10
-595.4952
 20
-188.8616
 30
0.0
 10
-595.4952
 20
-188.8616
 30
0.0
 10
-595.4952
 20
-188.8616
 30
0.0
 10
-595.4952
 20
-191.4018
 30
0.0
 10
-595.4952
 20
-191.4018
 30
0.0
 10
-595.4952
 20
-191.4018
 30
0.0
 10
-595.4952
 20
-191.4018
 30
0.0
 10
-600.4332
 20
-191.4018
 30
0.0
 10
-600.4332
 20
-191.4018
 30
0.0
 10
-600.4332
 20
-191.4018
 30
0.0
 10
-600.4332
 20
-191.4018
 30
0.0
 10
-600.4332
 20
-188.8616
 30
0.0
 10
-600.4332
 20
-188.8616
 30
0.0
 10
-600.4332
 20
-188.8616
 30
0.0
 10
-600.4332
 20
-188.8616
 30
0.0
 10
-608.0125
 20
-188.8616
 30
0.0
 10
-608.0125
 20
-188.8616
 30
0.0
 10
-608.0125
 20
-188.8616
 30
0.0
 10
-608.0125
 20
-188.8616
 30
0.0
 10
-608.0125
 20
-210.079
 30
0.0
 10
-608.0125
 20
-210.079
 30
0.0
 10
-608.0125
 20
-210.079
 30
0.0
 10
-608.0125
 20
-210.079
 30
0.0
 10
-605.4724
 20
-210.079
 30
0.0
 10
-605.4724
 20
-210.079
 30
0.0
 10
-605.4724
 20
-210.079
 30
0.0
 10
-605.4724
 20
-210.079
 30
0.0
 10
-605.4724
 20
-228.6551
 30
0.0
 10
-605.4724
 20
-228.6551
 30
0.0
 10
-605.4724
 20
-228.6551
 30
0.0
 10
-605.4724
 20
-228.6551
 30
0.0
 10
-608.0125
 20
-228.6551
 30
0.0
 10
-608.0125
 20
-228.6551
 30
0.0
 10
-608.0125
 20
-228.6551
 30
0.0
 10
-608.0125
 20
-228.6551
 30
0.0
 10
-608.0125
 20
-247.3324
 30
0.0
 10
-608.0125
 20
-247.3324
 30
0.0
 10
-608.0125
 20
-247.3324
 30
0.0
 10
-608.0125
 20
-247.3324
 30
0.0
 10
-605.4724
 20
-247.3324
 30
0.0
 10
-605.4724
 20
-247.3324
 30
0.0
 10
-605.4724
 20
-247.3324
 30
0.0
 10
-605.4724
 20
-247.3324
 30
0.0
 10
-605.4724
 20
-265.9085
 30
0.0
 10
-605.4724
 20
-265.9085
 30
0.0
 10
-605.4724
 20
-265.9085
 30
0.0
 10
-605.4724
 20
-265.9085
 30
0.0
 10
-608.0125
 20
-265.9085
 30
0.0
 10
-608.0125
 20
-265.9085
 30
0.0
 10
-608.0125
 20
-265.9085
 30
0.0
 10
-608.0125
 20
-265.9085
 30
0.0
 10
-608.0125
 20
-284.5857
 30
0.0
 10
-608.0125
 20
-284.5857
 30
0.0
 10
-608.0125
 20
-284.5857
 30
0.0
 10
-608.0125
 20
-284.5857
 30
0.0
 10
-605.4724
 20
-284.5857
 30
0.0
 10
-605.4724
 20
-284.5857
 30
0.0
 10
-605.4724
 20
-284.5857
 30
0.0
 10
-605.4724
 20
-284.5857
 30
0.0
 10
-605.4724
 20
-303.2125
 30
0.0
 10
-605.4724
 20
-303.2125
 30
0.0
  0
SPLINE
  5
42
330
1F
100
AcDbEntity
  8
Layer 1
 62
     3
370
     9
100
AcDbSpline
210
0.0
220
0.0
230
1.0
 70
    11
 71
     3
 72
    20
 73
    16
 74
     0
 42
0.0000000001
 43
0.0000000001
 40
0.0
 40
0.0
 40
0.0
 40
0.0
 40
0.2
 40
0.2
 40
0.2
 40
0.2
 40
0.4
 40
0.4
 40
0.4
 40
0.4
 40
0.6
 40
0.6
 40
0.6
 40
0.6
 40
1.0
 40
1.0
 40
1.0
 40
1.0
 10
-568.0124
 20
-228.6551
 30
0.0
 10
-568.0124
 20
-228.6551
 30
0.0
 10
-570.5018
 20
-228.6551
 30
0.0
 10
-570.5018
 20
-228.6551
 30
0.0
 10
-570.5018
 20
-228.6551
 30
0.0
 10
-570.5018
 20
-228.6551
 30
0.0
 10
-570.5018
 20
-210.079
 30
0.0
 10
-570.5018
 20
-210.079
 30
0.0
 10
-570.5018
 20
-210.079
 30
0.0
 10
-570.5018
 20
-210.079
 30
0.0
 10
-568.0124
 20
-210.079
 30
0.0
 10
-568.0124
 20
-210.079
 30
0.0
 10
-568.0124
 20
-210.079
 30
0.0
 10
-568.0124
 20
-210.079
 30
0.0
 10
-568.0124
 20
-228.6551
 30
0.0
 10
-568.0124
 20
-228.6551
 30
0.0
  0
SPLINE
  5
43
330
1F
100
AcDbEntity
  8
Layer 1
 62
     3
370
     9
100
AcDbSpline
210
0.0
220
0.0
230
1.0
 70
    11
 71
     3
 72
    20
 73
    16
 74
     0
 42
0.0000000001
 43
0.0000000001
 40
0.0
 40
0.0
 40
0.0
 40
0.0
 40
0.2
 40
0.2
 40
0.2
 40
0.2
 40
0.4
 40
0.4
 40
0.4
 40
0.4
 40
0.6
 40
0.6
 40
0.6
 40
0.6
 40
1.0
 40
1.0
 40
1.0
 40
1.0
 10
-528.0124
 20
-215.9551
 30
0.0
 10
-528.0124
 20
-215.9551
 30
0.0
 10
-530.5018
 20
-215.9551
 30
0.0
 10
-530.5018
 20
-215.9551
 30
0.0
 10
-530.5018
 20
-215.9551
 30
0.0
 10
-530.5018
 20
-215.9551
 30
0.0
 10
-530.5018
 20
-203.729
 30
0.0
 10
-530.5018
 20
-203.729
 30
0.0
 10
-530.5018
 20
-203.729
 30
0.0
 10
-530.5018
 20
-203.729
 30
0.0
 10
-528.0124
 20
-203.729
 30
0.0
 10
-528.0124
 20
-203.729
 30
0.0
 10
-528.0124
 20
-203.729
 30
0.0
 10
-528.0124
 20
-203.729
 30
0.0
 10
-528.0124
 20
-215.9551
 30
0.0
 10
-528.0124
 20
-215.9551
 30
0.0
  0
SPLINE
  5
44
330
1F
100
AcDbEntity
  8
Layer 1
 62
     1
370
     9
100
AcDbSpline
210
0.0
220
0.0
230
1.0
 70
    11
 71
     3
 72
   160
 73
   156
 74
     0
 42
0.0000000001
 43
0.0000000001
 40
0.0
 40
0.0
 40
0.0
 40
0.0
 40
0.025
 40
0.025
 40
0.025
 40
0.025
 40
0.05
 40
0.05
 40
0.05
 40
0.05
 40
0.075
 40
0.075
 40
0.075
 40
0.075
 40
0.1
 40
0.1
 40
0.1
 40
0.1
 40
0.125
 40
0.125
 40
0.125
 40
0.125
 40
0.15
 40
0.15
 40
0.15
 40
0.15
 40
0.175
 40
0.175
 40
0.175
 40
0.175
 40
0.2
 40
0.2
 40
0.2
 40
0.2
 40
0.225
 40
0.225
 40
0.225
 40
0.225
 40
0.25
 40
0.25
 40
0.25
 40
0.25
 40
0.275
 40
0.275
 40
0.275
 40
0.275
 40
0.3
 40
0.3
 40
0.3
 40
0.3
 40
0.325
 40
0.325
 40
0.325
 40
0.325
 40
0.35
 40
0.35
 40
0.35
 40
0.35
 40
0.375
 40
0.375
 40
0.375
 40
0.375
 40
0.4
 40
0.4
 40
0.4
 40
0.4
 40
0.425
 40
0.425
 40
0.425
 40
0.425
 40
0.45
 40
0.45
 40
0.45
 40
0.45
 40
0.475
 40
0.475
 40
0.475
 40
0.475
 40
0.5
 40
0.5
 40
0.5
 40
0.5
 40
0.525
 40
0.525
 40
0.525
 40
0.525
 40
0.55
 40
0.55
 40
0.55
 40
0.55
 40
0.575
 40
0.575
 40
0.575
 40
0.575
 40
0.6
 40
0.6
 40
0.6
 40
0.6
 40
0.625
 40
0.625
 40
0.625
 40
0.625
 40
0.65
 40
0.65
 40
0.65
 40
0.65
 40
0.675
 40
0.675
 40
0.675
 40
0.675
 40
0.7
 40
0.7
 40
0.7
 40
0.7
 40
0.725
 40
0.725
 40
0.725
 40
0.725
 40
0.75
 40
0.75
 40
0.75
 40
0.75
 40
0.775
 40
0.775
 40
0.775
 40
0.775
 40
0.8
 40
0.8
 40
0.8
 40
0.8
 40
0.825
 40
0.825
 40
0.825
 40
0.825
 40
0.85
 40
0.85
 40
0.85
 40
0.85
 40
0.875
 40
0.875
 40
0.875
 40
0.875
 40
0.9
 40
0.9
 40
0.9
 40
0.9
 40
0.925
 40
0.925
 40
0.925
 40
0.925
 40
0.95
 40
0.95
 40
0.95
 40
0.95
 40
1.0
 40
1.0
 40
1.0
 40
1.0
 10
-598.9069
 20
-260.4708
 30
0.0
 10
-598.9069
 20
-260.4708
 30
0.0
 10
-598.9069
 20
-260.4708
 30
0.0
 10
-598.9069
 20
-260.4708
 30
0.0
 10
-598.9069
 20
-260.4708
 30
0.0
 10
-598.9069
 20
-260.4708
 30
0.0
 10
-598.721
 20
-262.5417
 30
0.0
 10
-598.721
 20
-262.5417
 30
0.0
 10
-598.721
 20
-262.5417
 30
0.0
 10
-598.721
 20
-262.5417
 30
0.0
 10
-598.185
 20
-264.4895
 30
0.0
 10
-598.185
 20
-264.4895
 30
0.0
 10
-598.185
 20
-264.4895
 30
0.0
 10
-598.185
 20
-264.4895
 30
0.0
 10
-597.3318
 20
-266.2818
 30
0.0
 10
-597.3318
 20
-266.2818
 30
0.0
 10
-597.3318
 20
-266.2818
 30
0.0
 10
-597.3318
 20
-266.2818
 30
0.0
 10
-596.1942
 20
-267.8866
 30
0.0
 10
-596.1942
 20
-267.8866
 30
0.0
 10
-596.1942
 20
-267.8866
 30
0.0
 10
-596.1942
 20
-267.8866
 30
0.0
 10
-594.805
 20
-269.2717
 30
0.0
 10
-594.805
 20
-269.2717
 30
0.0
 10
-594.805
 20
-269.2717
 30
0.0
 10
-594.805
 20
-269.2717
 30
0.0
 10
-593.1972
 20
-270.405
 30
0.0
 10
-593.1972
 20
-270.405
 30
0.0
 10
-593.1972
 20
-270.405
 30
0.0
 10
-593.1972
 20
-270.405
 30
0.0
 10
-591.4033
 20
-271.2543
 30
0.0
 10
-591.4033
 20
-271.2543
 30
0.0
 10
-591.4033
 20
-271.2543
 30
0.0
 10
-591.4033
 20
-271.2543
 30
0.0
 10
-589.4564
 20
-271.7874
 30
0.0
 10
-589.4564
 20
-271.7874
 30
0.0
 10
-589.4564
 20
-271.7874
 30
0.0
 10
-589.4564
 20
-271.7874
 30
0.0
 10
-587.3892
 20
-271.9723
 30
0.0
 10
-587.3892
 20
-271.9723
 30
0.0
 10
-587.3892
 20
-271.9723
 30
0.0
 10
-587.3892
 20
-271.9723
 30
0.0
 10
-585.322
 20
-271.7874
 30
0.0
 10
-585.322
 20
-271.7874
 30
0.0
 10
-585.322
 20
-271.7874
 30
0.0
 10
-585.322
 20
-271.7874
 30
0.0
 10
-583.3751
 20
-271.2543
 30
0.0
 10
-583.3751
 20
-271.2543
 30
0.0
 10
-583.3751
 20
-271.2543
 30
0.0
 10
-583.3751
 20
-271.2543
 30
0.0
 10
-581.5812
 20
-270.405
 30
0.0
 10
-581.5812
 20
-270.405
 30
0.0
 10
-581.5812
 20
-270.405
 30
0.0
 10
-581.5812
 20
-270.405
 30
0.0
 10
-579.9734
 20
-269.2717
 30
0.0
 10
-579.9734
 20
-269.2717
 30
0.0
 10
-579.9734
 20
-269.2717
 30
0.0
 10
-579.9734
 20
-269.2717
 30
0.0
 10
-578.5842
 20
-267.8866
 30
0.0
 10
-578.5842
 20
-267.8866
 30
0.0
 10
-578.5842
 20
-267.8866
 30
0.0
 10
-578.5842
 20
-267.8866
 30
0.0
 10
-577.4466
 20
-266.2818
 30
0.0
 10
-577.4466
 20
-266.2818
 30
0.0
 10
-577.4466
 20
-266.2818
 30
0.0
 10
-577.4466
 20
-266.2818
 30
0.0
 10
-576.5934
 20
-264.4895
 30
0.0
 10
-576.5934
 20
-264.4895
 30
0.0
 10
-576.5934
 20
-264.4895
 30
0.0
 10
-576.5934
 20
-264.4895
 30
0.0
 10
-576.0574
 20
-262.5417
 30
0.0
 10
-576.0574
 20
-262.5417
 30
0.0
 10
-576.0574
 20
-262.5417
 30
0.0
 10
-576.0574
 20
-262.5417
 30
0.0
 10
-575.8715
 20
-260.4708
 30
0.0
 10
-575.8715
 20
-260.4708
 30
0.0
 10
-575.8715
 20
-260.4708
 30
0.0
 10
-575.8715
 20
-260.4708
 30
0.0
 10
-575.8715
 20
-254.7331
 30
0.0
 10
-575.8715
 20
-254.7331
 30
0.0
 10
-575.8715
 20
-254.7331
 30
0.0
 10
-575.8715
 20
-254.7331
 30
0.0
 10
-576.0573
 20
-252.6611
 30
0.0
 10
-576.0573
 20
-252.6611
 30
0.0
 10
-576.0573
 20
-252.6611
 30
0.0
 10
-576.0573
 20
-252.6611
 30
0.0
 10
-576.593
 20
-250.7107
 30
0.0
 10
-576.593
 20
-250.7107
 30
0.0
 10
-576.593
 20
-250.7107
 30
0.0
 10
-576.593
 20
-250.7107
 30
0.0
 10
-577.4459
 20
-248.9145
 30
0.0
 10
-577.4459
 20
-248.9145
 30
0.0
 10
-577.4459
 20
-248.9145
 30
0.0
 10
-577.4459
 20
-248.9145
 30
0.0
 10
-578.5831
 20
-247.3051
 30
0.0
 10
-578.5831
 20
-247.3051
 30
0.0
 10
-578.5831
 20
-247.3051
 30
0.0
 10
-578.5831
 20
-247.3051
 30
0.0
 10
-579.972
 20
-245.9152
 30
0.0
 10
-579.972
 20
-245.9152
 30
0.0
 10
-579.972
 20
-245.9152
 30
0.0
 10
-579.972
 20
-245.9152
 30
0.0
 10
-581.5798
 20
-244.7773
 30
0.0
 10
-581.5798
 20
-244.7773
 30
0.0
 10
-581.5798
 20
-244.7773
 30
0.0
 10
-581.5798
 20
-244.7773
 30
0.0
 10
-583.3738
 20
-243.9241
 30
0.0
 10
-583.3738
 20
-243.9241
 30
0.0
 10
-583.3738
 20
-243.9241
 30
0.0
 10
-583.3738
 20
-243.9241
 30
0.0
 10
-585.3211
 20
-243.3883
 30
0.0
 10
-585.3211
 20
-243.3883
 30
0.0
 10
-585.3211
 20
-243.3883
 30
0.0
 10
-585.3211
 20
-243.3883
 30
0.0
 10
-587.3892
 20
-243.2024
 30
0.0
 10
-587.3892
 20
-243.2024
 30
0.0
 10
-587.3892
 20
-243.2024
 30
0.0
 10
-587.3892
 20
-243.2024
 30
0.0
 10
-589.4573
 20
-243.3884
 30
0.0
 10
-589.4573
 20
-243.3884
 30
0.0
 10
-589.4573
 20
-243.3884
 30
0.0
 10
-589.4573
 20
-243.3884
 30
0.0
 10
-591.4046
 20
-243.9245
 30
0.0
 10
-591.4046
 20
-243.9245
 30
0.0
 10
-591.4046
 20
-243.9245
 30
0.0
 10
-591.4046
 20
-243.9245
 30
0.0
 10
-593.1986
 20
-244.778
 30
0.0
 10
-593.1986
 20
-244.778
 30
0.0
 10
-593.1986
 20
-244.778
 30
0.0
 10
-593.1986
 20
-244.778
 30
0.0
 10
-594.8064
 20
-245.9163
 30
0.0
 10
-594.8064
 20
-245.9163
 30
0.0
 10
-594.8064
 20
-245.9163
 30
0.0
 10
-594.8064
 20
-245.9163
 30
0.0
 10
-596.1953
 20
-247.3065
 30
0.0
 10
-596.1953
 20
-247.3065
 30
0.0
 10
-596.1953
 20
-247.3065
 30
0.0
 10
-596.1953
 20
-247.3065
 30
0.0
 10
-597.3325
 20
-248.916
 30
0.0
 10
-597.3325
 20
-248.916
 30
0.0
 10
-597.3325
 20
-248.916
 30
0.0
 10
-597.3325
 20
-248.916
 30
0.0
 10
-598.1854
 20
-250.7121
 30
0.0
 10
-598.1854
 20
-250.7121
 30
0.0
 10
-598.1854
 20
-250.7121
 30
0.0
 10
-598.1854
 20
-250.7121
 30
0.0
 10
-598.7211
 20
-252.662
 30
0.0
 10
-598.7211
 20
-252.662
 30
0.0
 10
-598.7211
 20
-252.662
 30
0.0
 10
-598.7211
 20
-252.662
 30
0.0
 10
-598.9069
 20
-254.7331
 30
0.0
 10
-598.9069
 20
-254.7331
 30
0.0
 10
-598.9069
 20
-254.7331
 30
0.0
 10
-598.9069
 20
-254.7331
 30
0.0
 10
-598.9069
 20
-260.4708
 30
0.0
 10
-598.9069
 20
-260.4708
 30
0.0
  0
SPLINE
  5
45
330
1F
100
AcDbEntity
  8
Layer 1
 62
     1
370
     9
100
AcDbSpline
210
0.0
220
0.0
230
1.0
 70
    11
 71
     3
 72
   152
 73
   148
 74
     0
 42
0.0000000001
 43
0.0000000001
 40
0.0
 40
0.0
 40
0.0
 40
0.0
 40
0.0263157894736842
 40
0.0263157894736842
 40
0.0263157894736842
 40
0.0263157894736842
 40
0.0526315789473684
 40
0.0526315789473684
 40
0.0526315789473684
 40
0.0526315789473684
 40
0.0789473684210526
 40
0.0789473684210526
 40
0.0789473684210526
 40
0.0789473684210526
 40
0.1052631578947368
 40
0.1052631578947368
 40
0.1052631578947368
 40
0.1052631578947368
 40
0.131578947368421
 40
0.131578947368421
 40
0.131578947368421
 40
0.131578947368421
 40
0.1578947368421053
 40
0.1578947368421053
 40
0.1578947368421053
 40
0.1578947368421053
 40
0.1842105263157895
 40
0.1842105263157895
 40
0.1842105263157895
 40
0.1842105263157895
 40
0.2105263157894737
 40
0.2105263157894737
 40
0.2105263157894737
 40
0.2105263157894737
 40
0.2368421052631579
 40
0.2368421052631579
 40
0.2368421052631579
 40
0.2368421052631579
 40
0.2631578947368421
 40
0.2631578947368421
 40
0.2631578947368421
 40
0.2631578947368421
 40
0.2894736842105263
 40
0.2894736842105263
 40
0.2894736842105263
 40
0.2894736842105263
 40
0.3157894736842105
 40
0.3157894736842105
 40
0.3157894736842105
 40
0.3157894736842105
 40
0.3421052631578947
 40
0.3421052631578947
 40
0.3421052631578947
 40
0.3421052631578947
 40
0.3684210526315789
 40
0.3684210526315789
 40
0.3684210526315789
 40
0.3684210526315789
 40
0.3947368421052632
 40
0.3947368421052632
 40
0.3947368421052632
 40
0.3947368421052632
 40
0.4210526315789473
 40
0.4210526315789473
 40
0.4210526315789473
 40
0.4210526315789473
 40
0.4473684210526316
 40
0.4473684210526316
 40
0.4473684210526316
 40
0.4473684210526316
 40
0.4736842105263158
 40
0.4736842105263158
 40
0.4736842105263158
 40
0.4736842105263158
 40
0.5
 40
0.5
 40
0.5
 40
0.5
 40
0.5263157894736842
 40
0.5263157894736842
 40
0.5263157894736842
 40
0.5263157894736842
 40
0.5526315789473685
 40
0.5526315789473685
 40
0.5526315789473685
 40
0.5526315789473685
 40
0.5789473684210527
 40
0.5789473684210527
 40
0.5789473684210527
 40
0.5789473684210527
 40
0.6052631578947368
 40
0.6052631578947368
 40
0.6052631578947368
 40
0.6052631578947368
 40
0.631578947368421
 40
0.631578947368421
 40
0.631578947368421
 40
0.631578947368421
 40
0.6578947368421053
 40
0.6578947368421053
 40
0.6578947368421053
 40
0.6578947368421053
 40
0.6842105263157895
 40
0.6842105263157895
 40
0.6842105263157895
 40
0.6842105263157895
 40
0.7105263157894737
 40
0.7105263157894737
 40
0.7105263157894737
 40
0.7105263157894737
 40
0.7368421052631579
 40
0.7368421052631579
 40
0.7368421052631579
 40
0.7368421052631579
 40
0.7631578947368421
 40
0.7631578947368421
 40
0.7631578947368421
 40
0.7631578947368421
 40
0.7894736842105263
 40
0.7894736842105263
 40
0.7894736842105263
 40
0.7894736842105263
 40
0.8157894736842105
 40
0.8157894736842105
 40
0.8157894736842105
 40
0.8157894736842105
 40
0.8421052631578947
 40
0.8421052631578947
 40
0.8421052631578947
 40
0.8421052631578947
 40
0.868421052631579
 40
0.868421052631579
 40
0.868421052631579
 40
0.868421052631579
 40
0.8947368421052632
 40
0.8947368421052632
 40
0.8947368421052632
 40
0.8947368421052632
 40
0.9210526315789473
 40
0.9210526315789473
 40
0.9210526315789473
 40
0.9210526315789473
 40
0.9473684210526315
 40
0.9473684210526315
 40
0.9473684210526315
 40
0.9473684210526315
 40
1.0
 40
1.0
 40
1.0
 40
1.0
 10
-575.8715
 20
-231.6684
 30
0.0
 10
-575.8715
 20
-231.6684
 30
0.0
 10
-575.8715
 20
-231.6684
 30
0.0
 10
-575.8715
 20
-231.6684
 30
0.0
 10
-575.8715
 20
-231.6684
 30
0.0
 10
-575.8715
 20
-231.6684
 30
0.0
 10
-576.0573
 20
-229.606
 30
0.0
 10
-576.0573
 20
-229.606
 30
0.0
 10
-576.0573
 20
-229.606
 30
0.0
 10
-576.0573
 20
-229.606
 30
0.0
 10
-576.593
 20
-227.6629
 30
0.0
 10
-576.593
 20
-227.6629
 30
0.0
 10
-576.593
 20
-227.6629
 30
0.0
 10
-576.593
 20
-227.6629
 30
0.0
 10
-577.4459
 20
-225.8719
 30
0.0
 10
-577.4459
 20
-225.8719
 30
0.0
 10
-577.4459
 20
-225.8719
 30
0.0
 10
-577.4459
 20
-225.8719
 30
0.0
 10
-578.5831
 20
-224.266
 30
0.0
 10
-578.5831
 20
-224.266
 30
0.0
 10
-578.5831
 20
-224.266
 30
0.0
 10
-578.5831
 20
-224.266
 30
0.0
 10
-579.972
 20
-222.8783
 30
0.0
 10
-579.972
 20
-222.8783
 30
0.0
 10
-579.972
 20
-222.8783
 30
0.0
 10
-579.972
 20
-222.8783
 30
0.0
 10
-581.5798
 20
-221.7415
 30
0.0
 10
-581.5798
 20
-221.7415
 30
0.0
 10
-581.5798
 20
-221.7415
 30
0.0
 10
-581.5798
 20
-221.7415
 30
0.0
 10
-583.3738
 20
-220.8887
 30
0.0
 10
-583.3738
 20
-220.8887
 30
0.0
 10
-583.3738
 20
-220.8887
 30
0.0
 10
-583.3738
 20
-220.8887
 30
0.0
 10
-585.3211
 20
-220.3529
 30
0.0
 10
-585.3211
 20
-220.3529
 30
0.0
 10
-585.3211
 20
-220.3529
 30
0.0
 10
-585.3211
 20
-220.3529
 30
0.0
 10
-587.3892
 20
-220.167
 30
0.0
 10
-587.3892
 20
-220.167
 30
0.0
 10
-587.3892
 20
-220.167
 30
0.0
 10
-587.3892
 20
-220.167
 30
0.0
 10
-589.4573
 20
-220.3529
 30
0.0
 10
-589.4573
 20
-220.3529
 30
0.0
 10
-589.4573
 20
-220.3529
 30
0.0
 10
-589.4573
 20
-220.3529
 30
0.0
 10
-591.4046
 20
-220.8887
 30
0.0
 10
-591.4046
 20
-220.8887
 30
0.0
 10
-591.4046
 20
-220.8887
 30
0.0
 10
-591.4046
 20
-220.8887
 30
0.0
 10
-593.1986
 20
-221.7415
 30
0.0
 10
-593.1986
 20
-221.7415
 30
0.0
 10
-593.1986
 20
-221.7415
 30
0.0
 10
-593.1986
 20
-221.7415
 30
0.0
 10
-594.8064
 20
-222.8783
 30
0.0
 10
-594.8064
 20
-222.8783
 30
0.0
 10
-594.8064
 20
-222.8783
 30
0.0
 10
-594.8064
 20
-222.8783
 30
0.0
 10
-596.1953
 20
-224.266
 30
0.0
 10
-596.1953
 20
-224.266
 30
0.0
 10
-596.1953
 20
-224.266
 30
0.0
 10
-596.1953
 20
-224.266
 30
0.0
 10
-597.3325
 20
-225.8719
 30
0.0
 10
-597.3325
 20
-225.8719
 30
0.0
 10
-597.3325
 20
-225.8719
 30
0.0
 10
-597.3325
 20
-225.8719
 30
0.0
 10
-598.1854
 20
-227.6629
 30
0.0
 10
-598.1854
 20
-227.6629
 30
0.0
 10
-598.1854
 20
-227.6629
 30
0.0
 10
-598.1854
 20
-227.6629
 30
0.0
 10
-598.7211
 20
-229.606
 30
0.0
 10
-598.7211
 20
-229.606
 30
0.0
 10
-598.7211
 20
-229.606
 30
0.0
 10
-598.7211
 20
-229.606
 30
0.0
 10
-598.9069
 20
-231.6684
 30
0.0
 10
-598.9069
 20
-231.6684
 30
0.0
 10
-598.9069
 20
-231.6684
 30
0.0
 10
-598.9069
 20
-231.6684
 30
0.0
 10
-598.721
 20
-233.7404
 30
0.0
 10
-598.721
 20
-233.7404
 30
0.0
 10
-598.721
 20
-233.7404
 30
0.0
 10
-598.721
 20
-233.7404
 30
0.0
 10
-598.185
 20
-235.6911
 30
0.0
 10
-598.185
 20
-235.6911
 30
0.0
 10
-598.185
 20
-235.6911
 30
0.0
 10
-598.185
 20
-235.6911
 30
0.0
 10
-597.3318
 20
-237.4878
 30
0.0
 10
-597.3318
 20
-237.4878
 30
0.0
 10
-597.3318
 20
-237.4878
 30
0.0
 10
-597.3318
 20
-237.4878
 30
0.0
 10
-596.1942
 20
-239.0977
 30
0.0
 10
-596.1942
 20
-239.0977
 30
0.0
 10
-596.1942
 20
-239.0977
 30
0.0
 10
-596.1942
 20
-239.0977
 30
0.0
 10
-594.805
 20
-240.4882
 30
0.0
 10
-594.805
 20
-240.4882
 30
0.0
 10
-594.805
 20
-240.4882
 30
0.0
 10
-594.805
 20
-240.4882
 30
0.0
 10
-593.1972
 20
-241.6266
 30
0.0
 10
-593.1972
 20
-241.6266
 30
0.0
 10
-593.1972
 20
-241.6266
 30
0.0
 10
-593.1972
 20
-241.6266
 30
0.0
 10
-591.4033
 20
-242.4803
 30
0.0
 10
-591.4033
 20
-242.4803
 30
0.0
 10
-591.4033
 20
-242.4803
 30
0.0
 10
-591.4033
 20
-242.4803
 30
0.0
 10
-589.4564
 20
-243.0164
 30
0.0
 10
-589.4564
 20
-243.0164
 30
0.0
 10
-589.4564
 20
-243.0164
 30
0.0
 10
-589.4564
 20
-243.0164
 30
0.0
 10
-587.3892
 20
-243.2024
 30
0.0
 10
-587.3892
 20
-243.2024
 30
0.0
 10
-587.3892
 20
-243.2024
 30
0.0
 10
-587.3892
 20
-243.2024
 30
0.0
 10
-585.322
 20
-243.0164
 30
0.0
 10
-585.322
 20
-243.0164
 30
0.0
 10
-585.322
 20
-243.0164
 30
0.0
 10
-585.322
 20
-243.0164
 30
0.0
 10
-583.3751
 20
-242.4803
 30
0.0
 10
-583.3751
 20
-242.4803
 30
0.0
 10
-583.3751
 20
-242.4803
 30
0.0
 10
-583.3751
 20
-242.4803
 30
0.0
 10
-581.5812
 20
-241.6266
 30
0.0
 10
-581.5812
 20
-241.6266
 30
0.0
 10
-581.5812
 20
-241.6266
 30
0.0
 10
-581.5812
 20
-241.6266
 30
0.0
 10
-579.9734
 20
-240.4882
 30
0.0
 10
-579.9734
 20
-240.4882
 30
0.0
 10
-579.9734
 20
-240.4882
 30
0.0
 10
-579.9734
 20
-240.4882
 30
0.0
 10
-578.5842
 20
-239.0977
 30
0.0
 10
-578.5842
 20
-239.0977
 30
0.0
 10
-578.5842
 20
-239.0977
 30
0.0
 10
-578.5842
 20
-239.0977
 30
0.0
 10
-577.4466
 20
-237.4878
 30
0.0
 10
-577.4466
 20
-237.4878
 30
0.0
 10
-577.4466
 20
-237.4878
 30
0.0
 10
-577.4466
 20
-237.4878
 30
0.0
 10
-576.5934
 20
-235.6911
 30
0.0
 10
-576.5934
 20
-235.6911
 30
0.0
 10
-576.5934
 20
-235.6911
 30
0.0
 10
-576.5934
 20
-235.6911
 30
0.0
 10
-576.0574
 20
-233.7404
 30
0.0
 10
-576.0574
 20
-233.7404
 30
0.0
 10
-576.0574
 20
-233.7404
 30
0.0
 10
-576.0574
 20
-233.7404
 30
0.0
 10
-575.8715
 20
-231.6684
 30
0.0
 10
-575.8715
 20
-231.6684
 30
0.0
  0
SPLINE
  5
46
330
1F
100
AcDbEntity
  8
Layer 1
 62
     5
370
     9
100
AcDbSpline
210
0.0
220
0.0
230
1.0
 70
    11
 71
     3
 72
   148
 73
   144
 74
     0
 42
0.0000000001
 43
0.0000000001
 40
0.0
 40
0.0
 40
0.0
 40
0.0
 40
0.027027027027027
 40
0.027027027027027
 40
0.027027027027027
 40
0.027027027027027
 40
0.0540540540540541
 40
0.0540540540540541
 40
0.0540540540540541
 40
0.0540540540540541
 40
0.0810810810810811
 40
0.0810810810810811
 40
0.0810810810810811
 40
0.0810810810810811
 40
0.1081081081081081
 40
0.1081081081081081
 40
0.1081081081081081
 40
0.1081081081081081
 40
0.1351351351351351
 40
0.1351351351351351
 40
0.1351351351351351
 40
0.1351351351351351
 40
0.1621621621621622
 40
0.1621621621621622
 40
0.1621621621621622
 40
0.1621621621621622
 40
0.1891891891891892
 40
0.1891891891891892
 40
0.1891891891891892
 40
0.1891891891891892
 40
0.2162162162162162
 40
0.2162162162162162
 40
0.2162162162162162
 40
0.2162162162162162
 40
0.2432432432432433
 40
0.2432432432432433
 40
0.2432432432432433
 40
0.2432432432432433
 40
0.2702702702702703
 40
0.2702702702702703
 40
0.2702702702702703
 40
0.2702702702702703
 40
0.2972972972972973
 40
0.2972972972972973
 40
0.2972972972972973
 40
0.2972972972972973
 40
0.3243243243243243
 40
0.3243243243243243
 40
0.3243243243243243
 40
0.3243243243243243
 40
0.3513513513513514
 40
0.3513513513513514
 40
0.3513513513513514
 40
0.3513513513513514
 40
0.3783783783783784
 40
0.3783783783783784
 40
0.3783783783783784
 40
0.3783783783783784
 40
0.4054054054054054
 40
0.4054054054054054
 40
0.4054054054054054
 40
0.4054054054054054
 40
0.4324324324324325
 40
0.4324324324324325
 40
0.4324324324324325
 40
0.4324324324324325
 40
0.4594594594594595
 40
0.4594594594594595
 40
0.4594594594594595
 40
0.4594594594594595
 40
0.4864864864864865
 40
0.4864864864864865
 40
0.4864864864864865
 40
0.4864864864864865
 40
0.5135135135135135
 40
0.5135135135135135
 40
0.5135135135135135
 40
0.5135135135135135
 40
0.5405405405405406
 40
0.5405405405405406
 40
0.5405405405405406
 40
0.5405405405405406
 40
0.5675675675675675
 40
0.5675675675675675
 40
0.5675675675675675
 40
0.5675675675675675
 40
0.5945945945945946
 40
0.5945945945945946
 40
0.5945945945945946
 40
0.5945945945945946
 40
0.6216216216216216
 40
0.6216216216216216
 40
0.6216216216216216
 40
0.6216216216216216
 40
0.6486486486486487
 40
0.6486486486486487
 40
0.6486486486486487
 40
0.6486486486486487
 40
0.6756756756756757
 40
0.6756756756756757
 40
0.6756756756756757
 40
0.6756756756756757
 40
0.7027027027027027
 40
0.7027027027027027
 40
0.7027027027027027
 40
0.7027027027027027
 40
0.7297297297297297
 40
0.7297297297297297
 40
0.7297297297297297
 40
0.7297297297297297
 40
0.7567567567567568
 40
0.7567567567567568
 40
0.7567567567567568
 40
0.7567567567567568
 40
0.7837837837837838
 40
0.7837837837837838
 40
0.7837837837837838
 40
0.7837837837837838
 40
0.8108108108108109
 40
0.8108108108108109
 40
0.8108108108108109
 40
0.8108108108108109
 40
0.8378378378378378
 40
0.8378378378378378
 40
0.8378378378378378
 40
0.8378378378378378
 40
0.8648648648648649
 40
0.8648648648648649
 40
0.8648648648648649
 40
0.8648648648648649
 40
0.8918918918918919
 40
0.8918918918918919
 40
0.8918918918918919
 40
0.8918918918918919
 40
0.918918918918919
 40
0.918918918918919
 40
0.918918918918919
 40
0.918918918918919
 40
0.9459459459459459
 40
0.9459459459459459
 40
0.9459459459459459
 40
0.9459459459459459
 40
1.0
 40
1.0
 40
1.0
 40
1.0
 10
-605.4724
 20
-185.6866
 30
0.0
 10
-605.4724
 20
-185.6866
 30
0.0
 10
-567.9617
 20
-185.6866
 30
0.0
 10
-567.9617
 20
-185.6866
 30
0.0
 10
-567.9617
 20
-185.6866
 30
0.0
 10
-567.9617
 20
-185.6866
 30
0.0
 10
-567.9617
 20
-173.3593
 30
0.0
 10
-567.9617
 20
-173.3593
 30
0.0
 10
-567.9617
 20
-173.3593
 30
0.0
 10
-567.9617
 20
-173.3593
 30
0.0
 10
-570.5018
 20
-173.3593
 30
0.0
 10
-570.5018
 20
-173.3593
 30
0.0
 10
-570.5018
 20
-173.3593
 30
0.0
 10
-570.5018
 20
-173.3593
 30
0.0
 10
-570.5018
 20
-161.1332
 30
0.0
 10
-570.5018
 20
-161.1332
 30
0.0
 10
-570.5018
 20
-161.1332
 30
0.0
 10
-570.5018
 20
-161.1332
 30
0.0
 10
-567.9617
 20
-161.1332
 30
0.0
 10
-567.9617
 20
-161.1332
 30
0.0
 10
-567.9617
 20
-161.1332
 30
0.0
 10
-567.9617
 20
-161.1332
 30
0.0
 10
-567.9617
 20
-148.8059
 30
0.0
 10
-567.9617
 20
-148.8059
 30
0.0
 10
-567.9617
 20
-148.8059
 30
0.0
 10
-567.9617
 20
-148.8059
 30
0.0
 10
-570.5018
 20
-148.8059
 30
0.0
 10
-570.5018
 20
-148.8059
 30
0.0
 10
-570.5018
 20
-148.8059
 30
0.0
 10
-570.5018
 20
-148.8059
 30
0.0
 10
-570.5018
 20
-136.5799
 30
0.0
 10
-570.5018
 20
-136.5799
 30
0.0
 10
-570.5018
 20
-136.5799
 30
0.0
 10
-570.5018
 20
-136.5799
 30
0.0
 10
-567.9617
 20
-136.5799
 30
0.0
 10
-567.9617
 20
-136.5799
 30
0.0
 10
-567.9617
 20
-136.5799
 30
0.0
 10
-567.9617
 20
-136.5799
 30
0.0
 10
-567.9617
 20
-124.2526
 30
0.0
 10
-567.9617
 20
-124.2526
 30
0.0
 10
-567.9617
 20
-124.2526
 30
0.0
 10
-567.9617
 20
-124.2526
 30
0.0
 10
-570.5018
 20
-124.2526
 30
0.0
 10
-570.5018
 20
-124.2526
 30
0.0
 10
-570.5018
 20
-124.2526
 30
0.0
 10
-570.5018
 20
-124.2526
 30
0.0
 10
-570.5018
 20
-111.9759
 30
0.0
 10
-570.5018
 20
-111.9759
 30
0.0
 10
-570.5018
 20
-111.9759
 30
0.0
 10
-570.5018
 20
-111.9759
 30
0.0
 10
-575.4903
 20
-111.9759
 30
0.0
 10
-575.4903
 20
-111.9759
 30
0.0
 10
-575.4903
 20
-111.9759
 30
0.0
 10
-575.4903
 20
-111.9759
 30
0.0
 10
-575.4903
 20
-109.4358
 30
0.0
 10
-575.4903
 20
-109.4358
 30
0.0
 10
-575.4903
 20
-109.4358
 30
0.0
 10
-575.4903
 20
-109.4358
 30
0.0
 10
-580.5296
 20
-109.4358
 30
0.0
 10
-580.5296
 20
-109.4358
 30
0.0
 10
-580.5296
 20
-109.4358
 30
0.0
 10
-580.5296
 20
-109.4358
 30
0.0
 10
-580.5296
 20
-111.9759
 30
0.0
 10
-580.5296
 20
-111.9759
 30
0.0
 10
-580.5296
 20
-111.9759
 30
0.0
 10
-580.5296
 20
-111.9759
 30
0.0
 10
-585.4675
 20
-111.9759
 30
0.0
 10
-585.4675
 20
-111.9759
 30
0.0
 10
-585.4675
 20
-111.9759
 30
0.0
 10
-585.4675
 20
-111.9759
 30
0.0
 10
-585.4675
 20
-109.4358
 30
0.0
 10
-585.4675
 20
-109.4358
 30
0.0
 10
-585.4675
 20
-109.4358
 30
0.0
 10
-585.4675
 20
-109.4358
 30
0.0
 10
-590.5067
 20
-109.4358
 30
0.0
 10
-590.5067
 20
-109.4358
 30
0.0
 10
-590.5067
 20
-109.4358
 30
0.0
 10
-590.5067
 20
-109.4358
 30
0.0
 10
-590.5067
 20
-111.9759
 30
0.0
 10
-590.5067
 20
-111.9759
 30
0.0
 10
-590.5067
 20
-111.9759
 30
0.0
 10
-590.5067
 20
-111.9759
 30
0.0
 10
-595.4446
 20
-111.9759
 30
0.0
 10
-595.4446
 20
-111.9759
 30
0.0
 10
-595.4446
 20
-111.9759
 30
0.0
 10
-595.4446
 20
-111.9759
 30
0.0
 10
-595.4446
 20
-109.4358
 30
0.0
 10
-595.4446
 20
-109.4358
 30
0.0
 10
-595.4446
 20
-109.4358
 30
0.0
 10
-595.4446
 20
-109.4358
 30
0.0
 10
-600.4838
 20
-109.4358
 30
0.0
 10
-600.4838
 20
-109.4358
 30
0.0
 10
-600.4838
 20
-109.4358
 30
0.0
 10
-600.4838
 20
-109.4358
 30
0.0
 10
-600.4838
 20
-111.9759
 30
0.0
 10
-600.4838
 20
-111.9759
 30
0.0
 10
-600.4838
 20
-111.9759
 30
0.0
 10
-600.4838
 20
-111.9759
 30
0.0
 10
-608.0125
 20
-111.9759
 30
0.0
 10
-608.0125
 20
-111.9759
 30
0.0
 10
-608.0125
 20
-111.9759
 30
0.0
 10
-608.0125
 20
-111.9759
 30
0.0
 10
-608.0125
 20
-124.3032
 30
0.0
 10
-608.0125
 20
-124.3032
 30
0.0
 10
-608.0125
 20
-124.3032
 30
0.0
 10
-608.0125
 20
-124.3032
 30
0.0
 10
-605.4724
 20
-124.3032
 30
0.0
 10
-605.4724
 20
-124.3032
 30
0.0
 10
-605.4724
 20
-124.3032
 30
0.0
 10
-605.4724
 20
-124.3032
 30
0.0
 10
-605.4724
 20
-136.5293
 30
0.0
 10
-605.4724
 20
-136.5293
 30
0.0
 10
-605.4724
 20
-136.5293
 30
0.0
 10
-605.4724
 20
-136.5293
 30
0.0
 10
-608.0125
 20
-136.5293
 30
0.0
 10
-608.0125
 20
-136.5293
 30
0.0
 10
-608.0125
 20
-136.5293
 30
0.0
 10
-608.0125
 20
-136.5293
 30
0.0
 10
-608.0125
 20
-148.8566
 30
0.0
 10
-608.0125
 20
-148.8566
 30
0.0
 10
-608.0125
 20
-148.8566
 30
0.0
 10
-608.0125
 20
-148.8566
 30
0.0
 10
-605.4724
 20
-148.8566
 30
0.0
 10
-605.4724
 20
-148.8566
 30
0.0
 10
-605.4724
 20
-148.8566
 30
0.0
 10
-605.4724
 20
-148.8566
 30
0.0
 10
-605.4724
 20
-161.0826
 30
0.0
 10
-605.4724
 20
-161.0826
 30
0.0
 10
-605.4724
 20
-161.0826
 30
0.0
 10
-605.4724
 20
-161.0826
 30
0.0
 10
-608.0125
 20
-161.0826
 30
0.0
 10
-608.0125
 20
-161.0826
 30
0.0
 10
-608.0125
 20
-161.0826
 30
0.0
 10
-608.0125
 20
-161.0826
 30
0.0
 10
-608.0125
 20
-173.4099
 30
0.0
 10
-608.0125
 20
-173.4099
 30
0.0
 10
-608.0125
 20
-173.4099
 30
0.0
 10
-608.0125
 20
-173.4099
 30
0.0
 10
-605.4724
 20
-173.4099
 30
0.0
 10
-605.4724
 20
-173.4099
 30
0.0
 10
-605.4724
 20
-173.4099
 30
0.0
 10
-605.4724
 20
-173.4099
 30
0.0
 10
-605.4724
 20
-185.6866
 30
0.0
 10
-605.4724
 20
-185.6866
 30
0.0
  0
SPLINE
  5
47
330
1F
100
AcDbEntity
  8
Layer 1
 62
     1
370
     9
100
AcDbSpline
210
0.0
220
0.0
230
1.0
 70
     8
 71
     3
 72
    12
 73
     8
 74
     0
 42
0.0000000001
 43
0.0000000001
 40
0.0
 40
0.0
 40
0.0
 40
0.0
 40
0.3333333333333333
 40
0.3333333333333333
 40
0.3333333333333333
 40
0.3333333333333333
 40
1.0
 40
1.0
 40
1.0
 40
1.0
 10
-583.4136
 20
-169.3426
 30
0.0
 10
-583.4136
 20
-169.3426
 30
0.0
 10
-583.4136
 20
-128.163
 30
0.0
 10
-583.4136
 20
-128.163
 30
0.0
 10
-583.4136
 20
-128.163
 30
0.0
 10
-583.4136
 20
-128.163
 30
0.0
 10
-592.5683
 20
-137.3203
 30
0.0
 10
-592.5683
 20
-137.3203
 30
0.0
  0
SPLINE
  5
48
330
1F
100
AcDbEntity
  8
Layer 1
 62
     5
370
     9
100
AcDbSpline
210
0.0
220
0.0
230
1.0
 70
    11
 71
     3
 72
   140
 73
   136
 74
     0
 42
0.0000000001
 43
0.0000000001
 40
0.0
 40
0.0
 40
0.0
 40
0.0
 40
0.0285714285714286
 40
0.0285714285714286
 40
0.0285714285714286
 40
0.0285714285714286
 40
0.0571428571428571
 40
0.0571428571428571
 40
0.0571428571428571
 40
0.0571428571428571
 40
0.0857142857142857
 40
0.0857142857142857
 40
0.0857142857142857
 40
0.0857142857142857
 40
0.1142857142857143
 40
0.1142857142857143
 40
0.1142857142857143
 40
0.1142857142857143
 40
0.1428571428571428
 40
0.1428571428571428
 40
0.1428571428571428
 40
0.1428571428571428
 40
0.1714285714285714
 40
0.1714285714285714
 40
0.1714285714285714
 40
0.1714285714285714
 40
0.2
 40
0.2
 40
0.2
 40
0.2
 40
0.2285714285714286
 40
0.2285714285714286
 40
0.2285714285714286
 40
0.2285714285714286
 40
0.2571428571428571
 40
0.2571428571428571
 40
0.2571428571428571
 40
0.2571428571428571
 40
0.2857142857142857
 40
0.2857142857142857
 40
0.2857142857142857
 40
0.2857142857142857
 40
0.3142857142857143
 40
0.3142857142857143
 40
0.3142857142857143
 40
0.3142857142857143
 40
0.3428571428571429
 40
0.3428571428571429
 40
0.3428571428571429
 40
0.3428571428571429
 40
0.3714285714285714
 40
0.3714285714285714
 40
0.3714285714285714
 40
0.3714285714285714
 40
0.4
 40
0.4
 40
0.4
 40
0.4
 40
0.4285714285714285
 40
0.4285714285714285
 40
0.4285714285714285
 40
0.4285714285714285
 40
0.4571428571428571
 40
0.4571428571428571
 40
0.4571428571428571
 40
0.4571428571428571
 40
0.4857142857142857
 40
0.4857142857142857
 40
0.4857142857142857
 40
0.4857142857142857
 40
0.5142857142857142
 40
0.5142857142857142
 40
0.5142857142857142
 40
0.5142857142857142
 40
0.5428571428571428
 40
0.5428571428571428
 40
0.5428571428571428
 40
0.5428571428571428
 40
0.5714285714285714
 40
0.5714285714285714
 40
0.5714285714285714
 40
0.5714285714285714
 40
0.6
 40
0.6
 40
0.6
 40
0.6
 40
0.6285714285714286
 40
0.6285714285714286
 40
0.6285714285714286
 40
0.6285714285714286
 40
0.6571428571428571
 40
0.6571428571428571
 40
0.6571428571428571
 40
0.6571428571428571
 40
0.6857142857142857
 40
0.6857142857142857
 40
0.6857142857142857
 40
0.6857142857142857
 40
0.7142857142857143
 40
0.7142857142857143
 40
0.7142857142857143
 40
0.7142857142857143
 40
0.7428571428571429
 40
0.7428571428571429
 40
0.7428571428571429
 40
0.7428571428571429
 40
0.7714285714285715
 40
0.7714285714285715
 40
0.7714285714285715
 40
0.7714285714285715
 40
0.8
 40
0.8
 40
0.8
 40
0.8
 40
0.8285714285714286
 40
0.8285714285714286
 40
0.8285714285714286
 40
0.8285714285714286
 40
0.8571428571428571
 40
0.8571428571428571
 40
0.8571428571428571
 40
0.8571428571428571
 40
0.8857142857142857
 40
0.8857142857142857
 40
0.8857142857142857
 40
0.8857142857142857
 40
0.9142857142857143
 40
0.9142857142857143
 40
0.9142857142857143
 40
0.9142857142857143
 40
0.9428571428571428
 40
0.9428571428571428
 40
0.9428571428571428
 40
0.9428571428571428
 40
1.0
 40
1.0
 40
1.0
 40
1.0
 10
-564.7867
 20
-111.9759
 30
0.0
 10
-564.7867
 20
-111.9759
 30
0.0
 10
-564.7867
 20
-124.3032
 30
0.0
 10
-564.7867
 20
-124.3032
 30
0.0
 10
-564.7867
 20
-124.3032
 30
0.0
 10
-564.7867
 20
-124.3032
 30
0.0
 10
-562.2466
 20
-124.3032
 30
0.0
 10
-562.2466
 20
-124.3032
 30
0.0
 10
-562.2466
 20
-124.3032
 30
0.0
 10
-562.2466
 20
-124.3032
 30
0.0
 10
-562.2466
 20
-136.5293
 30
0.0
 10
-562.2466
 20
-136.5293
 30
0.0
 10
-562.2466
 20
-136.5293
 30
0.0
 10
-562.2466
 20
-136.5293
 30
0.0
 10
-564.7867
 20
-136.5293
 30
0.0
 10
-564.7867
 20
-136.5293
 30
0.0
 10
-564.7867
 20
-136.5293
 30
0.0
 10
-564.7867
 20
-136.5293
 30
0.0
 10
-564.7867
 20
-148.8566
 30
0.0
 10
-564.7867
 20
-148.8566
 30
0.0
 10
-564.7867
 20
-148.8566
 30
0.0
 10
-564.7867
 20
-148.8566
 30
0.0
 10
-562.2466
 20
-148.8566
 30
0.0
 10
-562.2466
 20
-148.8566
 30
0.0
 10
-562.2466
 20
-148.8566
 30
0.0
 10
-562.2466
 20
-148.8566
 30
0.0
 10
-562.2466
 20
-161.0826
 30
0.0
 10
-562.2466
 20
-161.0826
 30
0.0
 10
-562.2466
 20
-161.0826
 30
0.0
 10
-562.2466
 20
-161.0826
 30
0.0
 10
-564.7867
 20
-161.0826
 30
0.0
 10
-564.7867
 20
-161.0826
 30
0.0
 10
-564.7867
 20
-161.0826
 30
0.0
 10
-564.7867
 20
-161.0826
 30
0.0
 10
-564.7867
 20
-173.4099
 30
0.0
 10
-564.7867
 20
-173.4099
 30
0.0
 10
-564.7867
 20
-173.4099
 30
0.0
 10
-564.7867
 20
-173.4099
 30
0.0
 10
-562.2466
 20
-173.4099
 30
0.0
 10
-562.2466
 20
-173.4099
 30
0.0
 10
-562.2466
 20
-173.4099
 30
0.0
 10
-562.2466
 20
-173.4099
 30
0.0
 10
-562.2466
 20
-185.6866
 30
0.0
 10
-562.2466
 20
-185.6866
 30
0.0
 10
-562.2466
 20
-185.6866
 30
0.0
 10
-562.2466
 20
-185.6866
 30
0.0
 10
-524.7359
 20
-185.6866
 30
0.0
 10
-524.7359
 20
-185.6866
 30
0.0
 10
-524.7359
 20
-185.6866
 30
0.0
 10
-524.7359
 20
-185.6866
 30
0.0
 10
-524.7359
 20
-173.3593
 30
0.0
 10
-524.7359
 20
-173.3593
 30
0.0
 10
-524.7359
 20
-173.3593
 30
0.0
 10
-524.7359
 20
-173.3593
 30
0.0
 10
-527.276
 20
-173.3593
 30
0.0
 10
-527.276
 20
-173.3593
 30
0.0
 10
-527.276
 20
-173.3593
 30
0.0
 10
-527.276
 20
-173.3593
 30
0.0
 10
-527.276
 20
-161.1332
 30
0.0
 10
-527.276
 20
-161.1332
 30
0.0
 10
-527.276
 20
-161.1332
 30
0.0
 10
-527.276
 20
-161.1332
 30
0.0
 10
-524.7359
 20
-161.1332
 30
0.0
 10
-524.7359
 20
-161.1332
 30
0.0
 10
-524.7359
 20
-161.1332
 30
0.0
 10
-524.7359
 20
-161.1332
 30
0.0
 10
-524.7359
 20
-148.8059
 30
0.0
 10
-524.7359
 20
-148.8059
 30
0.0
 10
-524.7359
 20
-148.8059
 30
0.0
 10
-524.7359
 20
-148.8059
 30
0.0
 10
-527.276
 20
-148.8059
 30
0.0
 10
-527.276
 20
-148.8059
 30
0.0
 10
-527.276
 20
-148.8059
 30
0.0
 10
-527.276
 20
-148.8059
 30
0.0
 10
-527.276
 20
-136.5799
 30
0.0
 10
-527.276
 20
-136.5799
 30
0.0
 10
-527.276
 20
-136.5799
 30
0.0
 10
-527.276
 20
-136.5799
 30
0.0
 10
-524.7359
 20
-136.5799
 30
0.0
 10
-524.7359
 20
-136.5799
 30
0.0
 10
-524.7359
 20
-136.5799
 30
0.0
 10
-524.7359
 20
-136.5799
 30
0.0
 10
-524.7359
 20
-124.2526
 30
0.0
 10
-524.7359
 20
-124.2526
 30
0.0
 10
-524.7359
 20
-124.2526
 30
0.0
 10
-524.7359
 20
-124.2526
 30
0.0
 10
-527.276
 20
-124.2526
 30
0.0
 10
-527.276
 20
-124.2526
 30
0.0
 10
-527.276
 20
-124.2526
 30
0.0
 10
-527.276
 20
-124.2526
 30
0.0
 10
-527.276
 20
-109.4358
 30
0.0
 10
-527.276
 20
-109.4358
 30
0.0
 10
-527.276
 20
-109.4358
 30
0.0
 10
-527.276
 20
-109.4358
 30
0.0
 10
-533.1466
 20
-109.4358
 30
0.0
 10
-533.1466
 20
-109.4358
 30
0.0
 10
-533.1466
 20
-109.4358
 30
0.0
 10
-533.1466
 20
-109.4358
 30
0.0
 10
-533.1466
 20
-111.9759
 30
0.0
 10
-533.1466
 20
-111.9759
 30
0.0
 10
-533.1466
 20
-111.9759
 30
0.0
 10
-533.1466
 20
-111.9759
 30
0.0
 10
-538.916
 20
-111.9759
 30
0.0
 10
-538.916
 20
-111.9759
 30
0.0
 10
-538.916
 20
-111.9759
 30
0.0
 10
-538.916
 20
-111.9759
 30
0.0
 10
-538.916
 20
-109.4358
 30
0.0
 10
-538.916
 20
-109.4358
 30
0.0
 10
-538.916
 20
-109.4358
 30
0.0
 10
-538.916
 20
-109.4358
 30
0.0
 10
-544.7866
 20
-109.4358
 30
0.0
 10
-544.7866
 20
-109.4358
 30
0.0
 10
-544.7866
 20
-109.4358
 30
0.0
 10
-544.7866
 20
-109.4358
 30
0.0
 10
-544.7866
 20
-111.9759
 30
0.0
 10
-544.7866
 20
-111.9759
 30
0.0
 10
-544.7866
 20
-111.9759
 30
0.0
 10
-544.7866
 20
-111.9759
 30
0.0
 10
-550.556
 20
-111.9759
 30
0.0
 10
-550.556
 20
-111.9759
 30
0.0
 10
-550.556
 20
-111.9759
 30
0.0
 10
-550.556
 20
-111.9759
 30
0.0
 10
-550.556
 20
-109.4358
 30
0.0
 10
-550.556
 20
-109.4358
 30
0.0
 10
-550.556
 20
-109.4358
 30
0.0
 10
-550.556
 20
-109.4358
 30
0.0
 10
-556.4266
 20
-109.4358
 30
0.0
 10
-556.4266
 20
-109.4358
 30
0.0
 10
-556.4266
 20
-109.4358
 30
0.0
 10
-556.4266
 20
-109.4358
 30
0.0
 10
-556.4266
 20
-111.9759
 30
0.0
 10
-556.4266
 20
-111.9759
 30
0.0
 10
-556.4266
 20
-111.9759
 30
0.0
 10
-556.4266
 20
-111.9759
 30
0.0
 10
-564.7867
 20
-111.9759
 30
0.0
 10
-564.7867
 20
-111.9759
 30
0.0
  0
SPLINE
  5
49
330
1F
100
AcDbEntity
  8
Layer 1
 62
     1
370
     9
100
AcDbSpline
210
0.0
220
0.0
230
1.0
 70
     8
 71
     3
 72
   168
 73
   164
 74
     0
 42
0.0000000001
 43
0.0000000001
 40
0.0
 40
0.0
 40
0.0
 40
0.0
 40
0.0238095238095238
 40
0.0238095238095238
 40
0.0238095238095238
 40
0.0238095238095238
 40
0.0476190476190476
 40
0.0476190476190476
 40
0.0476190476190476
 40
0.0476190476190476
 40
0.0714285714285714
 40
0.0714285714285714
 40
0.0714285714285714
 40
0.0714285714285714
 40
0.0952380952380952
 40
0.0952380952380952
 40
0.0952380952380952
 40
0.0952380952380952
 40
0.119047619047619
 40
0.119047619047619
 40
0.119047619047619
 40
0.119047619047619
 40
0.1428571428571428
 40
0.1428571428571428
 40
0.1428571428571428
 40
0.1428571428571428
 40
0.1666666666666667
 40
0.1666666666666667
 40
0.1666666666666667
 40
0.1666666666666667
 40
0.1904761904761905
 40
0.1904761904761905
 40
0.1904761904761905
 40
0.1904761904761905
 40
0.2142857142857143
 40
0.2142857142857143
 40
0.2142857142857143
 40
0.2142857142857143
 40
0.2380952380952381
 40
0.2380952380952381
 40
0.2380952380952381
 40
0.2380952380952381
 40
0.2619047619047619
 40
0.2619047619047619
 40
0.2619047619047619
 40
0.2619047619047619
 40
0.2857142857142857
 40
0.2857142857142857
 40
0.2857142857142857
 40
0.2857142857142857
 40
0.3095238095238095
 40
0.3095238095238095
 40
0.3095238095238095
 40
0.3095238095238095
 40
0.3333333333333333
 40
0.3333333333333333
 40
0.3333333333333333
 40
0.3333333333333333
 40
0.3571428571428572
 40
0.3571428571428572
 40
0.3571428571428572
 40
0.3571428571428572
 40
0.3809523809523809
 40
0.3809523809523809
 40
0.3809523809523809
 40
0.3809523809523809
 40
0.4047619047619048
 40
0.4047619047619048
 40
0.4047619047619048
 40
0.4047619047619048
 40
0.4285714285714285
 40
0.4285714285714285
 40
0.4285714285714285
 40
0.4285714285714285
 40
0.4523809523809524
 40
0.4523809523809524
 40
0.4523809523809524
 40
0.4523809523809524
 40
0.4761904761904762
 40
0.4761904761904762
 40
0.4761904761904762
 40
0.4761904761904762
 40
0.5
 40
0.5
 40
0.5
 40
0.5
 40
0.5238095238095238
 40
0.5238095238095238
 40
0.5238095238095238
 40
0.5238095238095238
 40
0.5476190476190477
 40
0.5476190476190477
 40
0.5476190476190477
 40
0.5476190476190477
 40
0.5714285714285714
 40
0.5714285714285714
 40
0.5714285714285714
 40
0.5714285714285714
 40
0.5952380952380952
 40
0.5952380952380952
 40
0.5952380952380952
 40
0.5952380952380952
 40
0.6190476190476191
 40
0.6190476190476191
 40
0.6190476190476191
 40
0.6190476190476191
 40
0.6428571428571429
 40
0.6428571428571429
 40
0.6428571428571429
 40
0.6428571428571429
 40
0.6666666666666666
 40
0.6666666666666666
 40
0.6666666666666666
 40
0.6666666666666666
 40
0.6904761904761905
 40
0.6904761904761905
 40
0.6904761904761905
 40
0.6904761904761905
 40
0.7142857142857143
 40
0.7142857142857143
 40
0.7142857142857143
 40
0.7142857142857143
 40
0.7380952380952381
 40
0.7380952380952381
 40
0.7380952380952381
 40
0.7380952380952381
 40
0.7619047619047619
 40
0.7619047619047619
 40
0.7619047619047619
 40
0.7619047619047619
 40
0.7857142857142857
 40
0.7857142857142857
 40
0.7857142857142857
 40
0.7857142857142857
 40
0.8095238095238095
 40
0.8095238095238095
 40
0.8095238095238095
 40
0.8095238095238095
 40
0.8333333333333334
 40
0.8333333333333334
 40
0.8333333333333334
 40
0.8333333333333334
 40
0.8571428571428571
 40
0.8571428571428571
 40
0.8571428571428571
 40
0.8571428571428571
 40
0.8809523809523809
 40
0.8809523809523809
 40
0.8809523809523809
 40
0.8809523809523809
 40
0.9047619047619048
 40
0.9047619047619048
 40
0.9047619047619048
 40
0.9047619047619048
 40
0.9285714285714286
 40
0.9285714285714286
 40
0.9285714285714286
 40
0.9285714285714286
 40
0.9523809523809523
 40
0.9523809523809523
 40
0.9523809523809523
 40
0.9523809523809523
 40
1.0
 40
1.0
 40
1.0
 40
1.0
 10
-553.9108
 20
-169.3413
 30
0.0
 10
-553.9108
 20
-169.3413
 30
0.0
 10
-544.7665
 20
-169.3413
 30
0.0
 10
-544.7665
 20
-169.3413
 30
0.0
 10
-544.7665
 20
-169.3413
 30
0.0
 10
-544.7665
 20
-169.3413
 30
0.0
 10
-543.1218
 20
-169.1938
 30
0.0
 10
-543.1218
 20
-169.1938
 30
0.0
 10
-543.1218
 20
-169.1938
 30
0.0
 10
-543.1218
 20
-169.1938
 30
0.0
 10
-541.5742
 20
-168.7685
 30
0.0
 10
-541.5742
 20
-168.7685
 30
0.0
 10
-541.5742
 20
-168.7685
 30
0.0
 10
-541.5742
 20
-168.7685
 30
0.0
 10
-540.1495
 20
-168.0917
 30
0.0
 10
-540.1495
 20
-168.0917
 30
0.0
 10
-540.1495
 20
-168.0917
 30
0.0
 10
-540.1495
 20
-168.0917
 30
0.0
 10
-538.8734
 20
-167.1895
 30
0.0
 10
-538.8734
 20
-167.1895
 30
0.0
 10
-538.8734
 20
-167.1895
 30
0.0
 10
-538.8734
 20
-167.1895
 30
0.0
 10
-537.7715
 20
-166.0879
 30
0.0
 10
-537.7715
 20
-166.0879
 30
0.0
 10
-537.7715
 20
-166.0879
 30
0.0
 10
-537.7715
 20
-166.0879
 30
0.0
 10
-536.8697
 20
-164.813
 30
0.0
 10
-536.8697
 20
-164.813
 30
0.0
 10
-536.8697
 20
-164.813
 30
0.0
 10
-536.8697
 20
-164.813
 30
0.0
 10
-536.1938
 20
-163.391
 30
0.0
 10
-536.1938
 20
-163.391
 30
0.0
 10
-536.1938
 20
-163.391
 30
0.0
 10
-536.1938
 20
-163.391
 30
0.0
 10
-535.7692
 20
-161.8478
 30
0.0
 10
-535.7692
 20
-161.8478
 30
0.0
 10
-535.7692
 20
-161.8478
 30
0.0
 10
-535.7692
 20
-161.8478
 30
0.0
 10
-535.6221
 20
-160.2098
 30
0.0
 10
-535.6221
 20
-160.2098
 30
0.0
 10
-535.6221
 20
-160.2098
 30
0.0
 10
-535.6221
 20
-160.2098
 30
0.0
 10
-535.6221
 20
-155.6311
 30
0.0
 10
-535.6221
 20
-155.6311
 30
0.0
 10
-535.6221
 20
-155.6311
 30
0.0
 10
-535.6221
 20
-155.6311
 30
0.0
 10
-535.7692
 20
-153.9938
 30
0.0
 10
-535.7692
 20
-153.9938
 30
0.0
 10
-535.7692
 20
-153.9938
 30
0.0
 10
-535.7692
 20
-153.9938
 30
0.0
 10
-536.1938
 20
-152.4509
 30
0.0
 10
-536.1938
 20
-152.4509
 30
0.0
 10
-536.1938
 20
-152.4509
 30
0.0
 10
-536.1938
 20
-152.4509
 30
0.0
 10
-536.8697
 20
-151.029
 30
0.0
 10
-536.8697
 20
-151.029
 30
0.0
 10
-536.8697
 20
-151.029
 30
0.0
 10
-536.8697
 20
-151.029
 30
0.0
 10
-537.7715
 20
-149.754
 30
0.0
 10
-537.7715
 20
-149.754
 30
0.0
 10
-537.7715
 20
-149.754
 30
0.0
 10
-537.7715
 20
-149.754
 30
0.0
 10
-538.8734
 20
-148.6522
 30
0.0
 10
-538.8734
 20
-148.6522
 30
0.0
 10
-538.8734
 20
-148.6522
 30
0.0
 10
-538.8734
 20
-148.6522
 30
0.0
 10
-540.1495
 20
-147.7497
 30
0.0
 10
-540.1495
 20
-147.7497
 30
0.0
 10
-540.1495
 20
-147.7497
 30
0.0
 10
-540.1495
 20
-147.7497
 30
0.0
 10
-541.5742
 20
-147.0726
 30
0.0
 10
-541.5742
 20
-147.0726
 30
0.0
 10
-541.5742
 20
-147.0726
 30
0.0
 10
-541.5742
 20
-147.0726
 30
0.0
 10
-543.1218
 20
-146.6472
 30
0.0
 10
-543.1218
 20
-146.6472
 30
0.0
 10
-543.1218
 20
-146.6472
 30
0.0
 10
-543.1218
 20
-146.6472
 30
0.0
 10
-544.7665
 20
-146.4996
 30
0.0
 10
-544.7665
 20
-146.4996
 30
0.0
 10
-544.7665
 20
-146.4996
 30
0.0
 10
-544.7665
 20
-146.4996
 30
0.0
 10
-549.3451
 20
-146.4996
 30
0.0
 10
-549.3451
 20
-146.4996
 30
0.0
 10
-549.3451
 20
-146.4996
 30
0.0
 10
-549.3451
 20
-146.4996
 30
0.0
 10
-544.7665
 20
-146.4996
 30
0.0
 10
-544.7665
 20
-146.4996
 30
0.0
 10
-544.7665
 20
-146.4996
 30
0.0
 10
-544.7665
 20
-146.4996
 30
0.0
 10
-543.1218
 20
-146.3519
 30
0.0
 10
-543.1218
 20
-146.3519
 30
0.0
 10
-543.1218
 20
-146.3519
 30
0.0
 10
-543.1218
 20
-146.3519
 30
0.0
 10
-541.5742
 20
-145.9263
 30
0.0
 10
-541.5742
 20
-145.9263
 30
0.0
 10
-541.5742
 20
-145.9263
 30
0.0
 10
-541.5742
 20
-145.9263
 30
0.0
 10
-540.1495
 20
-145.2485
 30
0.0
 10
-540.1495
 20
-145.2485
 30
0.0
 10
-540.1495
 20
-145.2485
 30
0.0
 10
-540.1495
 20
-145.2485
 30
0.0
 10
-538.8734
 20
-144.3447
 30
0.0
 10
-538.8734
 20
-144.3447
 30
0.0
 10
-538.8734
 20
-144.3447
 30
0.0
 10
-538.8734
 20
-144.3447
 30
0.0
 10
-537.7715
 20
-143.2407
 30
0.0
 10
-537.7715
 20
-143.2407
 30
0.0
 10
-537.7715
 20
-143.2407
 30
0.0
 10
-537.7715
 20
-143.2407
 30
0.0
 10
-536.8697
 20
-141.9626
 30
0.0
 10
-536.8697
 20
-141.9626
 30
0.0
 10
-536.8697
 20
-141.9626
 30
0.0
 10
-536.8697
 20
-141.9626
 30
0.0
 10
-536.1938
 20
-140.5361
 30
0.0
 10
-536.1938
 20
-140.5361
 30
0.0
 10
-536.1938
 20
-140.5361
 30
0.0
 10
-536.1938
 20
-140.5361
 30
0.0
 10
-535.7692
 20
-138.9874
 30
0.0
 10
-535.7692
 20
-138.9874
 30
0.0
 10
-535.7692
 20
-138.9874
 30
0.0
 10
-535.7692
 20
-138.9874
 30
0.0
 10
-535.6221
 20
-137.3423
 30
0.0
 10
-535.6221
 20
-137.3423
 30
0.0
 10
-535.6221
 20
-137.3423
 30
0.0
 10
-535.6221
 20
-137.3423
 30
0.0
 10
-535.7692
 20
-135.7049
 30
0.0
 10
-535.7692
 20
-135.7049
 30
0.0
 10
-535.7692
 20
-135.7049
 30
0.0
 10
-535.7692
 20
-135.7049
 30
0.0
 10
-536.1938
 20
-134.1621
 30
0.0
 10
-536.1938
 20
-134.1621
 30
0.0
 10
-536.1938
 20
-134.1621
 30
0.0
 10
-536.1938
 20
-134.1621
 30
0.0
 10
-536.8697
 20
-132.7402
 30
0.0
 10
-536.8697
 20
-132.7402
 30
0.0
 10
-536.8697
 20
-132.7402
 30
0.0
 10
-536.8697
 20
-132.7402
 30
0.0
 10
-537.7715
 20
-131.4652
 30
0.0
 10
-537.7715
 20
-131.4652
 30
0.0
 10
-537.7715
 20
-131.4652
 30
0.0
 10
-537.7715
 20
-131.4652
 30
0.0
 10
-538.8734
 20
-130.3634
 30
0.0
 10
-538.8734
 20
-130.3634
 30
0.0
 10
-538.8734
 20
-130.3634
 30
0.0
 10
-538.8734
 20
-130.3634
 30
0.0
 10
-540.1495
 20
-129.4608
 30
0.0
 10
-540.1495
 20
-129.4608
 30
0.0
 10
-540.1495
 20
-129.4608
 30
0.0
 10
-540.1495
 20
-129.4608
 30
0.0
 10
-541.5742
 20
-128.7839
 30
0.0
 10
-541.5742
 20
-128.7839
 30
0.0
 10
-541.5742
 20
-128.7839
 30
0.0
 10
-541.5742
 20
-128.7839
 30
0.0
 10
-543.1218
 20
-128.3584
 30
0.0
 10
-543.1218
 20
-128.3584
 30
0.0
 10
-543.1218
 20
-128.3584
 30
0.0
 10
-543.1218
 20
-128.3584
 30
0.0
 10
-544.7665
 20
-128.2108
 30
0.0
 10
-544.7665
 20
-128.2108
 30
0.0
 10
-544.7665
 20
-128.2108
 30
0.0
 10
-544.7665
 20
-128.2108
 30
0.0
 10
-553.9108
 20
-128.2108
 30
0.0
 10
-553.9108
 20
-128.2108
 30
0.0
  0
SPLINE
  5
4A
330
1F
100
AcDbEntity
  8
Layer 1
 62
     5
370
     9
100
AcDbSpline
210
0.0
220
0.0
230
1.0
 70
    11
 71
     3
 72
   508
 73
   504
 74
     0
 42
0.0000000001
 43
0.0000000001
 40
0.0
 40
0.0
 40
0.0
 40
0.0
 40
0.0078740157480315
 40
0.0078740157480315
 40
0.0078740157480315
 40
0.0078740157480315
 40
0.015748031496063
 40
0.015748031496063
 40
0.015748031496063
 40
0.015748031496063
 40
0.0236220472440945
 40
0.0236220472440945
 40
0.0236220472440945
 40
0.0236220472440945
 40
0.031496062992126
 40
0.031496062992126
 40
0.031496062992126
 40
0.031496062992126
 40
0.0393700787401575
 40
0.0393700787401575
 40
0.0393700787401575
 40
0.0393700787401575
 40
0.047244094488189
 40
0.047244094488189
 40
0.047244094488189
 40
0.047244094488189
 40
0.0551181102362205
 40
0.0551181102362205
 40
0.0551181102362205
 40
0.0551181102362205
 40
0.062992125984252
 40
0.062992125984252
 40
0.062992125984252
 40
0.062992125984252
 40
0.0708661417322835
 40
0.0708661417322835
 40
0.0708661417322835
 40
0.0708661417322835
 40
0.078740157480315
 40
0.078740157480315
 40
0.078740157480315
 40
0.078740157480315
 40
0.0866141732283465
 40
0.0866141732283465
 40
0.0866141732283465
 40
0.0866141732283465
 40
0.094488188976378
 40
0.094488188976378
 40
0.094488188976378
 40
0.094488188976378
 40
0.1023622047244094
 40
0.1023622047244094
 40
0.1023622047244094
 40
0.1023622047244094
 40
0.1102362204724409
 40
0.1102362204724409
 40
0.1102362204724409
 40
0.1102362204724409
 40
0.1181102362204724
 40
0.1181102362204724
 40
0.1181102362204724
 40
0.1181102362204724
 40
0.1259842519685039
 40
0.1259842519685039
 40
0.1259842519685039
 40
0.1259842519685039
 40
0.1338582677165354
 40
0.1338582677165354
 40
0.1338582677165354
 40
0.1338582677165354
 40
0.1417322834645669
 40
0.1417322834645669
 40
0.1417322834645669
 40
0.1417322834645669
 40
0.1496062992125984
 40
0.1496062992125984
 40
0.1496062992125984
 40
0.1496062992125984
 40
0.1574803149606299
 40
0.1574803149606299
 40
0.1574803149606299
 40
0.1574803149606299
 40
0.1653543307086614
 40
0.1653543307086614
 40
0.1653543307086614
 40
0.1653543307086614
 40
0.1732283464566929
 40
0.1732283464566929
 40
0.1732283464566929
 40
0.1732283464566929
 40
0.1811023622047244
 40
0.1811023622047244
 40
0.1811023622047244
 40
0.1811023622047244
 40
0.1889763779527559
 40
0.1889763779527559
 40
0.1889763779527559
 40
0.1889763779527559
 40
0.1968503937007874
 40
0.1968503937007874
 40
0.1968503937007874
 40
0.1968503937007874
 40
0.2047244094488189
 40
0.2047244094488189
 40
0.2047244094488189
 40
0.2047244094488189
 40
0.2125984251968504
 40
0.2125984251968504
 40
0.2125984251968504
 40
0.2125984251968504
 40
0.2204724409448819
 40
0.2204724409448819
 40
0.2204724409448819
 40
0.2204724409448819
 40
0.2283464566929134
 40
0.2283464566929134
 40
0.2283464566929134
 40
0.2283464566929134
 40
0.2362204724409449
 40
0.2362204724409449
 40
0.2362204724409449
 40
0.2362204724409449
 40
0.2440944881889764
 40
0.2440944881889764
 40
0.2440944881889764
 40
0.2440944881889764
 40
0.2519685039370079
 40
0.2519685039370079
 40
0.2519685039370079
 40
0.2519685039370079
 40
0.2598425196850394
 40
0.2598425196850394
 40
0.2598425196850394
 40
0.2598425196850394
 40
0.2677165354330709
 40
0.2677165354330709
 40
0.2677165354330709
 40
0.2677165354330709
 40
0.2755905511811024
 40
0.2755905511811024
 40
0.2755905511811024
 40
0.2755905511811024
 40
0.2834645669291339
 40
0.2834645669291339
 40
0.2834645669291339
 40
0.2834645669291339
 40
0.2913385826771653
 40
0.2913385826771653
 40
0.2913385826771653
 40
0.2913385826771653
 40
0.2992125984251969
 40
0.2992125984251969
 40
0.2992125984251969
 40
0.2992125984251969
 40
0.3070866141732284
 40
0.3070866141732284
 40
0.3070866141732284
 40
0.3070866141732284
 40
0.3149606299212598
 40
0.3149606299212598
 40
0.3149606299212598
 40
0.3149606299212598
 40
0.3228346456692913
 40
0.3228346456692913
 40
0.3228346456692913
 40
0.3228346456692913
 40
0.3307086614173229
 40
0.3307086614173229
 40
0.3307086614173229
 40
0.3307086614173229
 40
0.3385826771653543
 40
0.3385826771653543
 40
0.3385826771653543
 40
0.3385826771653543
 40
0.3464566929133858
 40
0.3464566929133858
 40
0.3464566929133858
 40
0.3464566929133858
 40
0.3543307086614173
 40
0.3543307086614173
 40
0.3543307086614173
 40
0.3543307086614173
 40
0.3622047244094488
 40
0.3622047244094488
 40
0.3622047244094488
 40
0.3622047244094488
 40
0.3700787401574803
 40
0.3700787401574803
 40
0.3700787401574803
 40
0.3700787401574803
 40
0.3779527559055118
 40
0.3779527559055118
 40
0.3779527559055118
 40
0.3779527559055118
 40
0.3858267716535433
 40
0.3858267716535433
 40
0.3858267716535433
 40
0.3858267716535433
 40
0.3937007874015748
 40
0.3937007874015748
 40
0.3937007874015748
 40
0.3937007874015748
 40
0.4015748031496063
 40
0.4015748031496063
 40
0.4015748031496063
 40
0.4015748031496063
 40
0.4094488188976378
 40
0.4094488188976378
 40
0.4094488188976378
 40
0.4094488188976378
 40
0.4173228346456693
 40
0.4173228346456693
 40
0.4173228346456693
 40
0.4173228346456693
 40
0.4251968503937008
 40
0.4251968503937008
 40
0.4251968503937008
 40
0.4251968503937008
 40
0.4330708661417323
 40
0.4330708661417323
 40
0.4330708661417323
 40
0.4330708661417323
 40
0.4409448818897638
 40
0.4409448818897638
 40
0.4409448818897638
 40
0.4409448818897638
 40
0.4488188976377953
 40
0.4488188976377953
 40
0.4488188976377953
 40
0.4488188976377953
 40
0.4566929133858268
 40
0.4566929133858268
 40
0.4566929133858268
 40
0.4566929133858268
 40
0.4645669291338583
 40
0.4645669291338583
 40
0.4645669291338583
 40
0.4645669291338583
 40
0.4724409448818898
 40
0.4724409448818898
 40
0.4724409448818898
 40
0.4724409448818898
 40
0.4803149606299212
 40
0.4803149606299212
 40
0.4803149606299212
 40
0.4803149606299212
 40
0.4881889763779528
 40
0.4881889763779528
 40
0.4881889763779528
 40
0.4881889763779528
 40
0.4960629921259843
 40
0.4960629921259843
 40
0.4960629921259843
 40
0.4960629921259843
 40
0.5039370078740157
 40
0.5039370078740157
 40
0.5039370078740157
 40
0.5039370078740157
 40
0.5118110236220472
 40
0.5118110236220472
 40
0.5118110236220472
 40
0.5118110236220472
 40
0.5196850393700787
 40
0.5196850393700787
 40
0.5196850393700787
 40
0.5196850393700787
 40
0.5275590551181102
 40
0.5275590551181102
 40
0.5275590551181102
 40
0.5275590551181102
 40
0.5354330708661418
 40
0.5354330708661418
 40
0.5354330708661418
 40
0.5354330708661418
 40
0.5433070866141733
 40
0.5433070866141733
 40
0.5433070866141733
 40
0.5433070866141733
 40
0.5511811023622047
 40
0.5511811023622047
 40
0.5511811023622047
 40
0.5511811023622047
 40
0.5590551181102362
 40
0.5590551181102362
 40
0.5590551181102362
 40
0.5590551181102362
 40
0.5669291338582677
 40
0.5669291338582677
 40
0.5669291338582677
 40
0.5669291338582677
 40
0.5748031496062992
 40
0.5748031496062992
 40
0.5748031496062992
 40
0.5748031496062992
 40
0.5826771653543307
 40
0.5826771653543307
 40
0.5826771653543307
 40
0.5826771653543307
 40
0.5905511811023622
 40
0.5905511811023622
 40
0.5905511811023622
 40
0.5905511811023622
 40
0.5984251968503937
 40
0.5984251968503937
 40
0.5984251968503937
 40
0.5984251968503937
 40
0.6062992125984252
 40
0.6062992125984252
 40
0.6062992125984252
 40
0.6062992125984252
 40
0.6141732283464567
 40
0.6141732283464567
 40
0.6141732283464567
 40
0.6141732283464567
 40
0.6220472440944882
 40
0.6220472440944882
 40
0.6220472440944882
 40
0.6220472440944882
 40
0.6299212598425197
 40
0.6299212598425197
 40
0.6299212598425197
 40
0.6299212598425197
 40
0.6377952755905512
 40
0.6377952755905512
 40
0.6377952755905512
 40
0.6377952755905512
 40
0.6456692913385826
 40
0.6456692913385826
 40
0.6456692913385826
 40
0.6456692913385826
 40
0.6535433070866141
 40
0.6535433070866141
 40
0.6535433070866141
 40
0.6535433070866141
 40
0.6614173228346457
 40
0.6614173228346457
 40
0.6614173228346457
 40
0.6614173228346457
 40
0.6692913385826772
 40
0.6692913385826772
 40
0.6692913385826772
 40
0.6692913385826772
 40
0.6771653543307087
 40
0.6771653543307087
 40
0.6771653543307087
 40
0.6771653543307087
 40
0.6850393700787402
 40
0.6850393700787402
 40
0.6850393700787402
 40
0.6850393700787402
 40
0.6929133858267716
 40
0.6929133858267716
 40
0.6929133858267716
 40
0.6929133858267716
 40
0.7007874015748031
 40
0.7007874015748031
 40
0.7007874015748031
 40
0.7007874015748031
 40
0.7086614173228346
 40
0.7086614173228346
 40
0.7086614173228346
 40
0.7086614173228346
 40
0.7165354330708661
 40
0.7165354330708661
 40
0.7165354330708661
 40
0.7165354330708661
 40
0.7244094488188977
 40
0.7244094488188977
 40
0.7244094488188977
 40
0.7244094488188977
 40
0.7322834645669292
 40
0.7322834645669292
 40
0.7322834645669292
 40
0.7322834645669292
 40
0.7401574803149606
 40
0.7401574803149606
 40
0.7401574803149606
 40
0.7401574803149606
 40
0.7480314960629921
 40
0.7480314960629921
 40
0.7480314960629921
 40
0.7480314960629921
 40
0.7559055118110236
 40
0.7559055118110236
 40
0.7559055118110236
 40
0.7559055118110236
 40
0.7637795275590551
 40
0.7637795275590551
 40
0.7637795275590551
 40
0.7637795275590551
 40
0.7716535433070866
 40
0.7716535433070866
 40
0.7716535433070866
 40
0.7716535433070866
 40
0.7795275590551181
 40
0.7795275590551181
 40
0.7795275590551181
 40
0.7795275590551181
 40
0.7874015748031497
 40
0.7874015748031497
 40
0.7874015748031497
 40
0.7874015748031497
 40
0.7952755905511811
 40
0.7952755905511811
 40
0.7952755905511811
 40
0.7952755905511811
 40
0.8031496062992126
 40
0.8031496062992126
 40
0.8031496062992126
 40
0.8031496062992126
 40
0.8110236220472441
 40
0.8110236220472441
 40
0.8110236220472441
 40
0.8110236220472441
 40
0.8188976377952756
 40
0.8188976377952756
 40
0.8188976377952756
 40
0.8188976377952756
 40
0.8267716535433071
 40
0.8267716535433071
 40
0.8267716535433071
 40
0.8267716535433071
 40
0.8346456692913385
 40
0.8346456692913385
 40
0.8346456692913385
 40
0.8346456692913385
 40
0.84251968503937
 40
0.84251968503937
 40
0.84251968503937
 40
0.84251968503937
 40
0.8503937007874016
 40
0.8503937007874016
 40
0.8503937007874016
 40
0.8503937007874016
 40
0.8582677165354331
 40
0.8582677165354331
 40
0.8582677165354331
 40
0.8582677165354331
 40
0.8661417322834646
 40
0.8661417322834646
 40
0.8661417322834646
 40
0.8661417322834646
 40
0.8740157480314961
 40
0.8740157480314961
 40
0.8740157480314961
 40
0.8740157480314961
 40
0.8818897637795275
 40
0.8818897637795275
 40
0.8818897637795275
 40
0.8818897637795275
 40
0.889763779527559
 40
0.889763779527559
 40
0.889763779527559
 40
0.889763779527559
 40
0.8976377952755905
 40
0.8976377952755905
 40
0.8976377952755905
 40
0.8976377952755905
 40
0.905511811023622
 40
0.905511811023622
 40
0.905511811023622
 40
0.905511811023622
 40
0.9133858267716536
 40
0.9133858267716536
 40
0.9133858267716536
 40
0.9133858267716536
 40
0.9212598425196851
 40
0.9212598425196851
 40
0.9212598425196851
 40
0.9212598425196851
 40
0.9291338582677166
 40
0.9291338582677166
 40
0.9291338582677166
 40
0.9291338582677166
 40
0.937007874015748
 40
0.937007874015748
 40
0.937007874015748
 40
0.937007874015748
 40
0.9448818897637795
 40
0.9448818897637795
 40
0.9448818897637795
 40
0.9448818897637795
 40
0.952755905511811
 40
0.952755905511811
 40
0.952755905511811
 40
0.952755905511811
 40
0.9606299212598425
 40
0.9606299212598425
 40
0.9606299212598425
 40
0.9606299212598425
 40
0.968503937007874
 40
0.968503937007874
 40
0.968503937007874
 40
0.968503937007874
 40
0.9763779527559056
 40
0.9763779527559056
 40
0.9763779527559056
 40
0.9763779527559056
 40
0.984251968503937
 40
0.984251968503937
 40
0.984251968503937
 40
0.984251968503937
 40
1.0
 40
1.0
 40
1.0
 40
1.0
 10
-605.4724
 20
183.1618
 30
0.0
 10
-605.4724
 20
183.1618
 30
0.0
 10
-599.1785
 20
183.1618
 30
0.0
 10
-599.1785
 20
183.1618
 30
0.0
 10
-599.1785
 20
183.1618
 30
0.0
 10
-599.1785
 20
183.1618
 30
0.0
 10
-599.1785
 20
185.7022
 30
0.0
 10
-599.1785
 20
185.7022
 30
0.0
 10
-599.1785
 20
185.7022
 30
0.0
 10
-599.1785
 20
185.7022
 30
0.0
 10
-592.9857
 20
185.7022
 30
0.0
 10
-592.9857
 20
185.7022
 30
0.0
 10
-592.9857
 20
185.7022
 30
0.0
 10
-592.9857
 20
185.7022
 30
0.0
 10
-592.9857
 20
183.1618
 30
0.0
 10
-592.9857
 20
183.1618
 30
0.0
 10
-592.9857
 20
183.1618
 30
0.0
 10
-592.9857
 20
183.1618
 30
0.0
 10
-586.6918
 20
183.1618
 30
0.0
 10
-586.6918
 20
183.1618
 30
0.0
 10
-586.6918
 20
183.1618
 30
0.0
 10
-586.6918
 20
183.1618
 30
0.0
 10
-586.6918
 20
185.7022
 30
0.0
 10
-586.6918
 20
185.7022
 30
0.0
 10
-586.6918
 20
185.7022
 30
0.0
 10
-586.6918
 20
185.7022
 30
0.0
 10
-580.499
 20
185.7022
 30
0.0
 10
-580.499
 20
185.7022
 30
0.0
 10
-580.499
 20
185.7022
 30
0.0
 10
-580.499
 20
185.7022
 30
0.0
 10
-580.499
 20
183.1618
 30
0.0
 10
-580.499
 20
183.1618
 30
0.0
 10
-580.499
 20
183.1618
 30
0.0
 10
-580.499
 20
183.1618
 30
0.0
 10
-574.2051
 20
183.1618
 30
0.0
 10
-574.2051
 20
183.1618
 30
0.0
 10
-574.2051
 20
183.1618
 30
0.0
 10
-574.2051
 20
183.1618
 30
0.0
 10
-574.2051
 20
185.7022
 30
0.0
 10
-574.2051
 20
185.7022
 30
0.0
 10
-574.2051
 20
185.7022
 30
0.0
 10
-574.2051
 20
185.7022
 30
0.0
 10
-567.9618
 20
185.7022
 30
0.0
 10
-567.9618
 20
185.7022
 30
0.0
 10
-567.9618
 20
185.7022
 30
0.0
 10
-567.9618
 20
185.7022
 30
0.0
 10
-567.9618
 20
191.522
 30
0.0
 10
-567.9618
 20
191.522
 30
0.0
 10
-567.9618
 20
191.522
 30
0.0
 10
-567.9618
 20
191.522
 30
0.0
 10
-565.4724
 20
191.522
 30
0.0
 10
-565.4724
 20
191.522
 30
0.0
 10
-565.4724
 20
191.522
 30
0.0
 10
-565.4724
 20
191.522
 30
0.0
 10
-565.4724
 20
185.7022
 30
0.0
 10
-565.4724
 20
185.7022
 30
0.0
 10
-565.4724
 20
185.7022
 30
0.0
 10
-565.4724
 20
185.7022
 30
0.0
 10
-560.1209
 20
185.7022
 30
0.0
 10
-560.1209
 20
185.7022
 30
0.0
 10
-560.1209
 20
185.7022
 30
0.0
 10
-560.1209
 20
185.7022
 30
0.0
 10
-560.1209
 20
183.1618
 30
0.0
 10
-560.1209
 20
183.1618
 30
0.0
 10
-560.1209
 20
183.1618
 30
0.0
 10
-560.1209
 20
183.1618
 30
0.0
 10
-554.7189
 20
183.1618
 30
0.0
 10
-554.7189
 20
183.1618
 30
0.0
 10
-554.7189
 20
183.1618
 30
0.0
 10
-554.7189
 20
183.1618
 30
0.0
 10
-554.7189
 20
185.7022
 30
0.0
 10
-554.7189
 20
185.7022
 30
0.0
 10
-554.7189
 20
185.7022
 30
0.0
 10
-554.7189
 20
185.7022
 30
0.0
 10
-549.4181
 20
185.7022
 30
0.0
 10
-549.4181
 20
185.7022
 30
0.0
 10
-549.4181
 20
185.7022
 30
0.0
 10
-549.4181
 20
185.7022
 30
0.0
 10
-549.4181
 20
183.1618
 30
0.0
 10
-549.4181
 20
183.1618
 30
0.0
 10
-549.4181
 20
183.1618
 30
0.0
 10
-549.4181
 20
183.1618
 30
0.0
 10
-544.0161
 20
183.1618
 30
0.0
 10
-544.0161
 20
183.1618
 30
0.0
 10
-544.0161
 20
183.1618
 30
0.0
 10
-544.0161
 20
183.1618
 30
0.0
 10
-544.0161
 20
185.7022
 30
0.0
 10
-544.0161
 20
185.7022
 30
0.0
 10
-544.0161
 20
185.7022
 30
0.0
 10
-544.0161
 20
185.7022
 30
0.0
 10
-538.7152
 20
185.7022
 30
0.0
 10
-538.7152
 20
185.7022
 30
0.0
 10
-538.7152
 20
185.7022
 30
0.0
 10
-538.7152
 20
185.7022
 30
0.0
 10
-538.7152
 20
183.1618
 30
0.0
 10
-538.7152
 20
183.1618
 30
0.0
 10
-538.7152
 20
183.1618
 30
0.0
 10
-538.7152
 20
183.1618
 30
0.0
 10
-533.3132
 20
183.1618
 30
0.0
 10
-533.3132
 20
183.1618
 30
0.0
 10
-533.3132
 20
183.1618
 30
0.0
 10
-533.3132
 20
183.1618
 30
0.0
 10
-533.3132
 20
185.7022
 30
0.0
 10
-533.3132
 20
185.7022
 30
0.0
 10
-533.3132
 20
185.7022
 30
0.0
 10
-533.3132
 20
185.7022
 30
0.0
 10
-520.4838
 20
185.7022
 30
0.0
 10
-520.4838
 20
185.7022
 30
0.0
 10
-520.4838
 20
185.7022
 30
0.0
 10
-520.4838
 20
185.7022
 30
0.0
 10
-520.4838
 20
183.1618
 30
0.0
 10
-520.4838
 20
183.1618
 30
0.0
 10
-520.4838
 20
183.1618
 30
0.0
 10
-520.4838
 20
183.1618
 30
0.0
 10
-515.4447
 20
183.1618
 30
0.0
 10
-515.4447
 20
183.1618
 30
0.0
 10
-515.4447
 20
183.1618
 30
0.0
 10
-515.4447
 20
183.1618
 30
0.0
 10
-515.4447
 20
185.7022
 30
0.0
 10
-515.4447
 20
185.7022
 30
0.0
 10
-515.4447
 20
185.7022
 30
0.0
 10
-515.4447
 20
185.7022
 30
0.0
 10
-510.5067
 20
185.7022
 30
0.0
 10
-510.5067
 20
185.7022
 30
0.0
 10
-510.5067
 20
185.7022
 30
0.0
 10
-510.5067
 20
185.7022
 30
0.0
 10
-510.5067
 20
183.1618
 30
0.0
 10
-510.5067
 20
183.1618
 30
0.0
 10
-510.5067
 20
183.1618
 30
0.0
 10
-510.5067
 20
183.1618
 30
0.0
 10
-505.4675
 20
183.1618
 30
0.0
 10
-505.4675
 20
183.1618
 30
0.0
 10
-505.4675
 20
183.1618
 30
0.0
 10
-505.4675
 20
183.1618
 30
0.0
 10
-505.4675
 20
185.7022
 30
0.0
 10
-505.4675
 20
185.7022
 30
0.0
 10
-505.4675
 20
185.7022
 30
0.0
 10
-505.4675
 20
185.7022
 30
0.0
 10
-500.5295
 20
185.7022
 30
0.0
 10
-500.5295
 20
185.7022
 30
0.0
 10
-500.5295
 20
185.7022
 30
0.0
 10
-500.5295
 20
185.7022
 30
0.0
 10
-500.5295
 20
183.1618
 30
0.0
 10
-500.5295
 20
183.1618
 30
0.0
 10
-500.5295
 20
183.1618
 30
0.0
 10
-500.5295
 20
183.1618
 30
0.0
 10
-495.4903
 20
183.1618
 30
0.0
 10
-495.4903
 20
183.1618
 30
0.0
 10
-495.4903
 20
183.1618
 30
0.0
 10
-495.4903
 20
183.1618
 30
0.0
 10
-495.4903
 20
185.7022
 30
0.0
 10
-495.4903
 20
185.7022
 30
0.0
 10
-495.4903
 20
185.7022
 30
0.0
 10
-495.4903
 20
185.7022
 30
0.0
 10
-490.5018
 20
185.7022
 30
0.0
 10
-490.5018
 20
185.7022
 30
0.0
 10
-490.5018
 20
185.7022
 30
0.0
 10
-490.5018
 20
185.7022
 30
0.0
 10
-490.5018
 20
191.522
 30
0.0
 10
-490.5018
 20
191.522
 30
0.0
 10
-490.5018
 20
191.522
 30
0.0
 10
-490.5018
 20
191.522
 30
0.0
 10
-487.9617
 20
191.522
 30
0.0
 10
-487.9617
 20
191.522
 30
0.0
 10
-487.9617
 20
191.522
 30
0.0
 10
-487.9617
 20
191.522
 30
0.0
 10
-487.9617
 20
197.3925
 30
0.0
 10
-487.9617
 20
197.3925
 30
0.0
 10
-487.9617
 20
197.3925
 30
0.0
 10
-487.9617
 20
197.3925
 30
0.0
 10
-490.5018
 20
197.3925
 30
0.0
 10
-490.5018
 20
197.3925
 30
0.0
 10
-490.5018
 20
197.3925
 30
0.0
 10
-490.5018
 20
197.3925
 30
0.0
 10
-490.5018
 20
203.1619
 30
0.0
 10
-490.5018
 20
203.1619
 30
0.0
 10
-490.5018
 20
203.1619
 30
0.0
 10
-490.5018
 20
203.1619
 30
0.0
 10
-487.9617
 20
203.1619
 30
0.0
 10
-487.9617
 20
203.1619
 30
0.0
 10
-487.9617
 20
203.1619
 30
0.0
 10
-487.9617
 20
203.1619
 30
0.0
 10
-487.9617
 20
209.0325
 30
0.0
 10
-487.9617
 20
209.0325
 30
0.0
 10
-487.9617
 20
209.0325
 30
0.0
 10
-487.9617
 20
209.0325
 30
0.0
 10
-490.5018
 20
209.0325
 30
0.0
 10
-490.5018
 20
209.0325
 30
0.0
 10
-490.5018
 20
209.0325
 30
0.0
 10
-490.5018
 20
209.0325
 30
0.0
 10
-490.5018
 20
214.8018
 30
0.0
 10
-490.5018
 20
214.8018
 30
0.0
 10
-490.5018
 20
214.8018
 30
0.0
 10
-490.5018
 20
214.8018
 30
0.0
 10
-487.9617
 20
214.8018
 30
0.0
 10
-487.9617
 20
214.8018
 30
0.0
 10
-487.9617
 20
214.8018
 30
0.0
 10
-487.9617
 20
214.8018
 30
0.0
 10
-487.9617
 20
228.5639
 30
0.0
 10
-487.9617
 20
228.5639
 30
0.0
 10
-487.9617
 20
228.5639
 30
0.0
 10
-487.9617
 20
228.5639
 30
0.0
 10
-490.5018
 20
228.5639
 30
0.0
 10
-490.5018
 20
228.5639
 30
0.0
 10
-490.5018
 20
228.5639
 30
0.0
 10
-490.5018
 20
228.5639
 30
0.0
 10
-490.5018
 20
233.8649
 30
0.0
 10
-490.5018
 20
233.8649
 30
0.0
 10
-490.5018
 20
233.8649
 30
0.0
 10
-490.5018
 20
233.8649
 30
0.0
 10
-487.9617
 20
233.8649
 30
0.0
 10
-487.9617
 20
233.8649
 30
0.0
 10
-487.9617
 20
233.8649
 30
0.0
 10
-487.9617
 20
233.8649
 30
0.0
 10
-487.9617
 20
239.2668
 30
0.0
 10
-487.9617
 20
239.2668
 30
0.0
 10
-487.9617
 20
239.2668
 30
0.0
 10
-487.9617
 20
239.2668
 30
0.0
 10
-490.5018
 20
239.2668
 30
0.0
 10
-490.5018
 20
239.2668
 30
0.0
 10
-490.5018
 20
239.2668
 30
0.0
 10
-490.5018
 20
239.2668
 30
0.0
 10
-490.5018
 20
244.5679
 30
0.0
 10
-490.5018
 20
244.5679
 30
0.0
 10
-490.5018
 20
244.5679
 30
0.0
 10
-490.5018
 20
244.5679
 30
0.0
 10
-487.9617
 20
244.5679
 30
0.0
 10
-487.9617
 20
244.5679
 30
0.0
 10
-487.9617
 20
244.5679
 30
0.0
 10
-487.9617
 20
244.5679
 30
0.0
 10
-487.9617
 20
249.9697
 30
0.0
 10
-487.9617
 20
249.9697
 30
0.0
 10
-487.9617
 20
249.9697
 30
0.0
 10
-487.9617
 20
249.9697
 30
0.0
 10
-490.5018
 20
249.9697
 30
0.0
 10
-490.5018
 20
249.9697
 30
0.0
 10
-490.5018
 20
249.9697
 30
0.0
 10
-490.5018
 20
249.9697
 30
0.0
 10
-490.5018
 20
255.2704
 30
0.0
 10
-490.5018
 20
255.2704
 30
0.0
 10
-490.5018
 20
255.2704
 30
0.0
 10
-490.5018
 20
255.2704
 30
0.0
 10
-487.9617
 20
255.2704
 30
0.0
 10
-487.9617
 20
255.2704
 30
0.0
 10
-487.9617
 20
255.2704
 30
0.0
 10
-487.9617
 20
255.2704
 30
0.0
 10
-487.9617
 20
268.5641
 30
0.0
 10
-487.9617
 20
268.5641
 30
0.0
 10
-487.9617
 20
268.5641
 30
0.0
 10
-487.9617
 20
268.5641
 30
0.0
 10
-490.5018
 20
268.5641
 30
0.0
 10
-490.5018
 20
268.5641
 30
0.0
 10
-490.5018
 20
268.5641
 30
0.0
 10
-490.5018
 20
268.5641
 30
0.0
 10
-490.5018
 20
273.8648
 30
0.0
 10
-490.5018
 20
273.8648
 30
0.0
 10
-490.5018
 20
273.8648
 30
0.0
 10
-490.5018
 20
273.8648
 30
0.0
 10
-487.9617
 20
273.8648
 30
0.0
 10
-487.9617
 20
273.8648
 30
0.0
 10
-487.9617
 20
273.8648
 30
0.0
 10
-487.9617
 20
273.8648
 30
0.0
 10
-487.9617
 20
279.267
 30
0.0
 10
-487.9617
 20
279.267
 30
0.0
 10
-487.9617
 20
279.267
 30
0.0
 10
-487.9617
 20
279.267
 30
0.0
 10
-490.5018
 20
279.267
 30
0.0
 10
-490.5018
 20
279.267
 30
0.0
 10
-490.5018
 20
279.267
 30
0.0
 10
-490.5018
 20
279.267
 30
0.0
 10
-490.5018
 20
284.5677
 30
0.0
 10
-490.5018
 20
284.5677
 30
0.0
 10
-490.5018
 20
284.5677
 30
0.0
 10
-490.5018
 20
284.5677
 30
0.0
 10
-487.9617
 20
284.5677
 30
0.0
 10
-487.9617
 20
284.5677
 30
0.0
 10
-487.9617
 20
284.5677
 30
0.0
 10
-487.9617
 20
284.5677
 30
0.0
 10
-487.9617
 20
289.9696
 30
0.0
 10
-487.9617
 20
289.9696
 30
0.0
 10
-487.9617
 20
289.9696
 30
0.0
 10
-487.9617
 20
289.9696
 30
0.0
 10
-490.5018
 20
289.9696
 30
0.0
 10
-490.5018
 20
289.9696
 30
0.0
 10
-490.5018
 20
289.9696
 30
0.0
 10
-490.5018
 20
289.9696
 30
0.0
 10
-490.5018
 20
295.2706
 30
0.0
 10
-490.5018
 20
295.2706
 30
0.0
 10
-490.5018
 20
295.2706
 30
0.0
 10
-490.5018
 20
295.2706
 30
0.0
 10
-487.9617
 20
295.2706
 30
0.0
 10
-487.9617
 20
295.2706
 30
0.0
 10
-487.9617
 20
295.2706
 30
0.0
 10
-487.9617
 20
295.2706
 30
0.0
 10
-487.9617
 20
303.2129
 30
0.0
 10
-487.9617
 20
303.2129
 30
0.0
 10
-487.9617
 20
303.2129
 30
0.0
 10
-487.9617
 20
303.2129
 30
0.0
 10
-495.5409
 20
303.2129
 30
0.0
 10
-495.5409
 20
303.2129
 30
0.0
 10
-495.5409
 20
303.2129
 30
0.0
 10
-495.5409
 20
303.2129
 30
0.0
 10
-495.5409
 20
300.6725
 30
0.0
 10
-495.5409
 20
300.6725
 30
0.0
 10
-495.5409
 20
300.6725
 30
0.0
 10
-495.5409
 20
300.6725
 30
0.0
 10
-500.4789
 20
300.6725
 30
0.0
 10
-500.4789
 20
300.6725
 30
0.0
 10
-500.4789
 20
300.6725
 30
0.0
 10
-500.4789
 20
300.6725
 30
0.0
 10
-500.4789
 20
303.2129
 30
0.0
 10
-500.4789
 20
303.2129
 30
0.0
 10
-500.4789
 20
303.2129
 30
0.0
 10
-500.4789
 20
303.2129
 30
0.0
 10
-505.518
 20
303.2129
 30
0.0
 10
-505.518
 20
303.2129
 30
0.0
 10
-505.518
 20
303.2129
 30
0.0
 10
-505.518
 20
303.2129
 30
0.0
 10
-505.518
 20
300.6725
 30
0.0
 10
-505.518
 20
300.6725
 30
0.0
 10
-505.518
 20
300.6725
 30
0.0
 10
-505.518
 20
300.6725
 30
0.0
 10
-510.4561
 20
300.6725
 30
0.0
 10
-510.4561
 20
300.6725
 30
0.0
 10
-510.4561
 20
300.6725
 30
0.0
 10
-510.4561
 20
300.6725
 30
0.0
 10
-510.4561
 20
303.2129
 30
0.0
 10
-510.4561
 20
303.2129
 30
0.0
 10
-510.4561
 20
303.2129
 30
0.0
 10
-510.4561
 20
303.2129
 30
0.0
 10
-515.4952
 20
303.2129
 30
0.0
 10
-515.4952
 20
303.2129
 30
0.0
 10
-515.4952
 20
303.2129
 30
0.0
 10
-515.4952
 20
303.2129
 30
0.0
 10
-515.4952
 20
300.6725
 30
0.0
 10
-515.4952
 20
300.6725
 30
0.0
 10
-515.4952
 20
300.6725
 30
0.0
 10
-515.4952
 20
300.6725
 30
0.0
 10
-520.4333
 20
300.6725
 30
0.0
 10
-520.4333
 20
300.6725
 30
0.0
 10
-520.4333
 20
300.6725
 30
0.0
 10
-520.4333
 20
300.6725
 30
0.0
 10
-520.4333
 20
303.2129
 30
0.0
 10
-520.4333
 20
303.2129
 30
0.0
 10
-520.4333
 20
303.2129
 30
0.0
 10
-520.4333
 20
303.2129
 30
0.0
 10
-540.9224
 20
303.2129
 30
0.0
 10
-540.9224
 20
303.2129
 30
0.0
 10
-540.9224
 20
303.2129
 30
0.0
 10
-540.9224
 20
303.2129
 30
0.0
 10
-540.9224
 20
300.6725
 30
0.0
 10
-540.9224
 20
300.6725
 30
0.0
 10
-540.9224
 20
300.6725
 30
0.0
 10
-540.9224
 20
300.6725
 30
0.0
 10
-553.7818
 20
300.6725
 30
0.0
 10
-553.7818
 20
300.6725
 30
0.0
 10
-553.7818
 20
300.6725
 30
0.0
 10
-553.7818
 20
300.6725
 30
0.0
 10
-553.7818
 20
303.2129
 30
0.0
 10
-553.7818
 20
303.2129
 30
0.0
 10
-553.7818
 20
303.2129
 30
0.0
 10
-553.7818
 20
303.2129
 30
0.0
 10
-566.7424
 20
303.2129
 30
0.0
 10
-566.7424
 20
303.2129
 30
0.0
 10
-566.7424
 20
303.2129
 30
0.0
 10
-566.7424
 20
303.2129
 30
0.0
 10
-566.7424
 20
300.6725
 30
0.0
 10
-566.7424
 20
300.6725
 30
0.0
 10
-566.7424
 20
300.6725
 30
0.0
 10
-566.7424
 20
300.6725
 30
0.0
 10
-579.6018
 20
300.6725
 30
0.0
 10
-579.6018
 20
300.6725
 30
0.0
 10
-579.6018
 20
300.6725
 30
0.0
 10
-579.6018
 20
300.6725
 30
0.0
 10
-579.6018
 20
303.2129
 30
0.0
 10
-579.6018
 20
303.2129
 30
0.0
 10
-579.6018
 20
303.2129
 30
0.0
 10
-579.6018
 20
303.2129
 30
0.0
 10
-592.5624
 20
303.2129
 30
0.0
 10
-592.5624
 20
303.2129
 30
0.0
 10
-592.5624
 20
303.2129
 30
0.0
 10
-592.5624
 20
303.2129
 30
0.0
 10
-592.5624
 20
300.6725
 30
0.0
 10
-592.5624
 20
300.6725
 30
0.0
 10
-592.5624
 20
300.6725
 30
0.0
 10
-592.5624
 20
300.6725
 30
0.0
 10
-605.4724
 20
300.6725
 30
0.0
 10
-605.4724
 20
300.6725
 30
0.0
 10
-605.4724
 20
300.6725
 30
0.0
 10
-605.4724
 20
300.6725
 30
0.0
 10
-605.4724
 20
289.6068
 30
0.0
 10
-605.4724
 20
289.6068
 30
0.0
 10
-605.4724
 20
289.6068
 30
0.0
 10
-605.4724
 20
289.6068
 30
0.0
 10
-608.0125
 20
289.6068
 30
0.0
 10
-608.0125
 20
289.6068
 30
0.0
 10
-608.0125
 20
289.6068
 30
0.0
 10
-608.0125
 20
289.6068
 30
0.0
 10
-608.0125
 20
278.4908
 30
0.0
 10
-608.0125
 20
278.4908
 30
0.0
 10
-608.0125
 20
278.4908
 30
0.0
 10
-608.0125
 20
278.4908
 30
0.0
 10
-605.4724
 20
278.4908
 30
0.0
 10
-605.4724
 20
278.4908
 30
0.0
 10
-605.4724
 20
278.4908
 30
0.0
 10
-605.4724
 20
278.4908
 30
0.0
 10
-605.4724
 20
267.4755
 30
0.0
 10
-605.4724
 20
267.4755
 30
0.0
 10
-605.4724
 20
267.4755
 30
0.0
 10
-605.4724
 20
267.4755
 30
0.0
 10
-608.0125
 20
267.4755
 30
0.0
 10
-608.0125
 20
267.4755
 30
0.0
 10
-608.0125
 20
267.4755
 30
0.0
 10
-608.0125
 20
267.4755
 30
0.0
 10
-608.0125
 20
256.359
 30
0.0
 10
-608.0125
 20
256.359
 30
0.0
 10
-608.0125
 20
256.359
 30
0.0
 10
-608.0125
 20
256.359
 30
0.0
 10
-605.4724
 20
256.359
 30
0.0
 10
-605.4724
 20
256.359
 30
0.0
 10
-605.4724
 20
256.359
 30
0.0
 10
-605.4724
 20
256.359
 30
0.0
 10
-605.4724
 20
245.3442
 30
0.0
 10
-605.4724
 20
245.3442
 30
0.0
 10
-605.4724
 20
245.3442
 30
0.0
 10
-605.4724
 20
245.3442
 30
0.0
 10
-608.0125
 20
245.3442
 30
0.0
 10
-608.0125
 20
245.3442
 30
0.0
 10
-608.0125
 20
245.3442
 30
0.0
 10
-608.0125
 20
245.3442
 30
0.0
 10
-608.0125
 20
234.2277
 30
0.0
 10
-608.0125
 20
234.2277
 30
0.0
 10
-608.0125
 20
234.2277
 30
0.0
 10
-608.0125
 20
234.2277
 30
0.0
 10
-605.4724
 20
234.2277
 30
0.0
 10
-605.4724
 20
234.2277
 30
0.0
 10
-605.4724
 20
234.2277
 30
0.0
 10
-605.4724
 20
234.2277
 30
0.0
 10
-605.4724
 20
223.162
 30
0.0
 10
-605.4724
 20
223.162
 30
0.0
 10
-605.4724
 20
223.162
 30
0.0
 10
-605.4724
 20
223.162
 30
0.0
 10
-599.229
 20
223.162
 30
0.0
 10
-599.229
 20
223.162
 30
0.0
 10
-599.229
 20
223.162
 30
0.0
 10
-599.229
 20
223.162
 30
0.0
 10
-599.229
 20
220.6724
 30
0.0
 10
-599.229
 20
220.6724
 30
0.0
 10
-599.229
 20
220.6724
 30
0.0
 10
-599.229
 20
220.6724
 30
0.0
 10
-605.4724
 20
220.6724
 30
0.0
 10
-605.4724
 20
220.6724
 30
0.0
 10
-605.4724
 20
220.6724
 30
0.0
 10
-605.4724
 20
220.6724
 30
0.0
 10
-605.4724
 20
215.6841
 30
0.0
 10
-605.4724
 20
215.6841
 30
0.0
 10
-605.4724
 20
215.6841
 30
0.0
 10
-605.4724
 20
215.6841
 30
0.0
 10
-608.0125
 20
215.6841
 30
0.0
 10
-608.0125
 20
215.6841
 30
0.0
 10
-608.0125
 20
215.6841
 30
0.0
 10
-608.0125
 20
215.6841
 30
0.0
 10
-608.0125
 20
210.645
 30
0.0
 10
-608.0125
 20
210.645
 30
0.0
 10
-608.0125
 20
210.645
 30
0.0
 10
-608.0125
 20
210.645
 30
0.0
 10
-605.4724
 20
210.645
 30
0.0
 10
-605.4724
 20
210.645
 30
0.0
 10
-605.4724
 20
210.645
 30
0.0
 10
-605.4724
 20
210.645
 30
0.0
 10
-605.4724
 20
205.7071
 30
0.0
 10
-605.4724
 20
205.7071
 30
0.0
 10
-605.4724
 20
205.7071
 30
0.0
 10
-605.4724
 20
205.7071
 30
0.0
 10
-608.0125
 20
205.7071
 30
0.0
 10
-608.0125
 20
205.7071
 30
0.0
 10
-608.0125
 20
205.7071
 30
0.0
 10
-608.0125
 20
205.7071
 30
0.0
 10
-608.0125
 20
200.6675
 30
0.0
 10
-608.0125
 20
200.6675
 30
0.0
 10
-608.0125
 20
200.6675
 30
0.0
 10
-608.0125
 20
200.6675
 30
0.0
 10
-605.4724
 20
200.6675
 30
0.0
 10
-605.4724
 20
200.6675
 30
0.0
 10
-605.4724
 20
200.6675
 30
0.0
 10
-605.4724
 20
200.6675
 30
0.0
 10
-605.4724
 20
195.7296
 30
0.0
 10
-605.4724
 20
195.7296
 30
0.0
 10
-605.4724
 20
195.7296
 30
0.0
 10
-605.4724
 20
195.7296
 30
0.0
 10
-608.0125
 20
195.7296
 30
0.0
 10
-608.0125
 20
195.7296
 30
0.0
 10
-608.0125
 20
195.7296
 30
0.0
 10
-608.0125
 20
195.7296
 30
0.0
 10
-608.0125
 20
190.6905
 30
0.0
 10
-608.0125
 20
190.6905
 30
0.0
 10
-608.0125
 20
190.6905
 30
0.0
 10
-608.0125
 20
190.6905
 30
0.0
 10
-605.4724
 20
190.6905
 30
0.0
 10
-605.4724
 20
190.6905
 30
0.0
 10
-605.4724
 20
190.6905
 30
0.0
 10
-605.4724
 20
190.6905
 30
0.0
 10
-605.4724
 20
183.1618
 30
0.0
 10
-605.4724
 20
183.1618
 30
0.0
  0
SPLINE
  5
4B
330
1F
100
AcDbEntity
  8
Layer 1
 62
     3
370
     9
100
AcDbSpline
210
0.0
220
0.0
230
1.0
 70
    11
 71
     3
 72
    20
 73
    16
 74
     0
 42
0.0000000001
 43
0.0000000001
 40
0.0
 40
0.0
 40
0.0
 40
0.0
 40
0.2
 40
0.2
 40
0.2
 40
0.2
 40
0.4
 40
0.4
 40
0.4
 40
0.4
 40
0.6
 40
0.6
 40
0.6
 40
0.6
 40
1.0
 40
1.0
 40
1.0
 40
1.0
 10
-496.3724
 20
223.162
 30
0.0
 10
-496.3724
 20
223.162
 30
0.0
 10
-496.3724
 20
220.6724
 30
0.0
 10
-496.3724
 20
220.6724
 30
0.0
 10
-496.3724
 20
220.6724
 30
0.0
 10
-496.3724
 20
220.6724
 30
0.0
 10
-502.1417
 20
220.6724
 30
0.0
 10
-502.1417
 20
220.6724
 30
0.0
 10
-502.1417
 20
220.6724
 30
0.0
 10
-502.1417
 20
220.6724
 30
0.0
 10
-502.1417
 20
223.162
 30
0.0
 10
-502.1417
 20
223.162
 30
0.0
 10
-502.1417
 20
223.162
 30
0.0
 10
-502.1417
 20
223.162
 30
0.0
 10
-496.3724
 20
223.162
 30
0.0
 10
-496.3724
 20
223.162
 30
0.0
  0
SPLINE
  5
4C
330
1F
100
AcDbEntity
  8
Layer 1
 62
     3
370
     9
100
AcDbSpline
210
0.0
220
0.0
230
1.0
 70
    11
 71
     3
 72
    20
 73
    16
 74
     0
 42
0.0000000001
 43
0.0000000001
 40
0.0
 40
0.0
 40
0.0
 40
0.0
 40
0.2
 40
0.2
 40
0.2
 40
0.2
 40
0.4
 40
0.4
 40
0.4
 40
0.4
 40
0.6
 40
0.6
 40
0.6
 40
0.6
 40
1.0
 40
1.0
 40
1.0
 40
1.0
 10
-508.0123
 20
223.162
 30
0.0
 10
-508.0123
 20
223.162
 30
0.0
 10
-508.0123
 20
220.6724
 30
0.0
 10
-508.0123
 20
220.6724
 30
0.0
 10
-508.0123
 20
220.6724
 30
0.0
 10
-508.0123
 20
220.6724
 30
0.0
 10
-513.7818
 20
220.6724
 30
0.0
 10
-513.7818
 20
220.6724
 30
0.0
 10
-513.7818
 20
220.6724
 30
0.0
 10
-513.7818
 20
220.6724
 30
0.0
 10
-513.7818
 20
223.162
 30
0.0
 10
-513.7818
 20
223.162
 30
0.0
 10
-513.7818
 20
223.162
 30
0.0
 10
-513.7818
 20
223.162
 30
0.0
 10
-508.0123
 20
223.162
 30
0.0
 10
-508.0123
 20
223.162
 30
0.0
  0
SPLINE
  5
4D
330
1F
100
AcDbEntity
  8
Layer 1
 62
     3
370
     9
100
AcDbSpline
210
0.0
220
0.0
230
1.0
 70
    11
 71
     3
 72
    52
 73
    48
 74
     0
 42
0.0000000001
 43
0.0000000001
 40
0.0
 40
0.0
 40
0.0
 40
0.0
 40
0.0769230769230769
 40
0.0769230769230769
 40
0.0769230769230769
 40
0.0769230769230769
 40
0.1538461538461539
 40
0.1538461538461539
 40
0.1538461538461539
 40
0.1538461538461539
 40
0.2307692307692308
 40
0.2307692307692308
 40
0.2307692307692308
 40
0.2307692307692308
 40
0.3076923076923077
 40
0.3076923076923077
 40
0.3076923076923077
 40
0.3076923076923077
 40
0.3846153846153846
 40
0.3846153846153846
 40
0.3846153846153846
 40
0.3846153846153846
 40
0.4615384615384616
 40
0.4615384615384616
 40
0.4615384615384616
 40
0.4615384615384616
 40
0.5384615384615384
 40
0.5384615384615384
 40
0.5384615384615384
 40
0.5384615384615384
 40
0.6153846153846154
 40
0.6153846153846154
 40
0.6153846153846154
 40
0.6153846153846154
 40
0.6923076923076923
 40
0.6923076923076923
 40
0.6923076923076923
 40
0.6923076923076923
 40
0.7692307692307693
 40
0.7692307692307693
 40
0.7692307692307693
 40
0.7692307692307693
 40
0.8461538461538461
 40
0.8461538461538461
 40
0.8461538461538461
 40
0.8461538461538461
 40
1.0
 40
1.0
 40
1.0
 40
1.0
 10
-519.6523
 20
223.162
 30
0.0
 10
-519.6523
 20
223.162
 30
0.0
 10
-519.6523
 20
220.6724
 30
0.0
 10
-519.6523
 20
220.6724
 30
0.0
 10
-519.6523
 20
220.6724
 30
0.0
 10
-519.6523
 20
220.6724
 30
0.0
 10
-525.4724
 20
220.6724
 30
0.0
 10
-525.4724
 20
220.6724
 30
0.0
 10
-525.4724
 20
220.6724
 30
0.0
 10
-525.4724
 20
220.6724
 30
0.0
 10
-525.4724
 20
214.8526
 30
0.0
 10
-525.4724
 20
214.8526
 30
0.0
 10
-525.4724
 20
214.8526
 30
0.0
 10
-525.4724
 20
214.8526
 30
0.0
 10
-527.9618
 20
214.8526
 30
0.0
 10
-527.9618
 20
214.8526
 30
0.0
 10
-527.9618
 20
214.8526
 30
0.0
 10
-527.9618
 20
214.8526
 30
0.0
 10
-527.9618
 20
220.6724
 30
0.0
 10
-527.9618
 20
220.6724
 30
0.0
 10
-527.9618
 20
220.6724
 30
0.0
 10
-527.9618
 20
220.6724
 30
0.0
 10
-534.2052
 20
220.6724
 30
0.0
 10
-534.2052
 20
220.6724
 30
0.0
 10
-534.2052
 20
220.6724
 30
0.0
 10
-534.2052
 20
220.6724
 30
0.0
 10
-534.2052
 20
223.162
 30
0.0
 10
-534.2052
 20
223.162
 30
0.0
 10
-534.2052
 20
223.162
 30
0.0
 10
-534.2052
 20
223.162
 30
0.0
 10
-527.9618
 20
223.162
 30
0.0
 10
-527.9618
 20
223.162
 30
0.0
 10
-527.9618
 20
223.162
 30
0.0
 10
-527.9618
 20
223.162
 30
0.0
 10
-527.9618
 20
229.4053
 30
0.0
 10
-527.9618
 20
229.4053
 30
0.0
 10
-527.9618
 20
229.4053
 30
0.0
 10
-527.9618
 20
229.4053
 30
0.0
 10
-525.4724
 20
229.4053
 30
0.0
 10
-525.4724
 20
229.4053
 30
0.0
 10
-525.4724
 20
229.4053
 30
0.0
 10
-525.4724
 20
229.4053
 30
0.0
 10
-525.4724
 20
223.162
 30
0.0
 10
-525.4724
 20
223.162
 30
0.0
 10
-525.4724
 20
223.162
 30
0.0
 10
-525.4724
 20
223.162
 30
0.0
 10
-519.6523
 20
223.162
 30
0.0
 10
-519.6523
 20
223.162
 30
0.0
  0
SPLINE
  5
4E
330
1F
100
AcDbEntity
  8
Layer 1
 62
     3
370
     9
100
AcDbSpline
210
0.0
220
0.0
230
1.0
 70
    11
 71
     3
 72
    20
 73
    16
 74
     0
 42
0.0000000001
 43
0.0000000001
 40
0.0
 40
0.0
 40
0.0
 40
0.0
 40
0.2
 40
0.2
 40
0.2
 40
0.2
 40
0.4
 40
0.4
 40
0.4
 40
0.4
 40
0.6
 40
0.6
 40
0.6
 40
0.6
 40
1.0
 40
1.0
 40
1.0
 40
1.0
 10
-540.499
 20
223.162
 30
0.0
 10
-540.499
 20
223.162
 30
0.0
 10
-540.499
 20
220.6724
 30
0.0
 10
-540.499
 20
220.6724
 30
0.0
 10
-540.499
 20
220.6724
 30
0.0
 10
-540.499
 20
220.6724
 30
0.0
 10
-546.6918
 20
220.6724
 30
0.0
 10
-546.6918
 20
220.6724
 30
0.0
 10
-546.6918
 20
220.6724
 30
0.0
 10
-546.6918
 20
220.6724
 30
0.0
 10
-546.6918
 20
223.162
 30
0.0
 10
-546.6918
 20
223.162
 30
0.0
 10
-546.6918
 20
223.162
 30
0.0
 10
-546.6918
 20
223.162
 30
0.0
 10
-540.499
 20
223.162
 30
0.0
 10
-540.499
 20
223.162
 30
0.0
  0
SPLINE
  5
4F
330
1F
100
AcDbEntity
  8
Layer 1
 62
     3
370
     9
100
AcDbSpline
210
0.0
220
0.0
230
1.0
 70
    11
 71
     3
 72
    20
 73
    16
 74
     0
 42
0.0000000001
 43
0.0000000001
 40
0.0
 40
0.0
 40
0.0
 40
0.0
 40
0.2
 40
0.2
 40
0.2
 40
0.2
 40
0.4
 40
0.4
 40
0.4
 40
0.4
 40
0.6
 40
0.6
 40
0.6
 40
0.6
 40
1.0
 40
1.0
 40
1.0
 40
1.0
 10
-552.9857
 20
223.162
 30
0.0
 10
-552.9857
 20
223.162
 30
0.0
 10
-552.9857
 20
220.6724
 30
0.0
 10
-552.9857
 20
220.6724
 30
0.0
 10
-552.9857
 20
220.6724
 30
0.0
 10
-552.9857
 20
220.6724
 30
0.0
 10
-559.1785
 20
220.6724
 30
0.0
 10
-559.1785
 20
220.6724
 30
0.0
 10
-559.1785
 20
220.6724
 30
0.0
 10
-559.1785
 20
220.6724
 30
0.0
 10
-559.1785
 20
223.162
 30
0.0
 10
-559.1785
 20
223.162
 30
0.0
 10
-559.1785
 20
223.162
 30
0.0
 10
-559.1785
 20
223.162
 30
0.0
 10
-552.9857
 20
223.162
 30
0.0
 10
-552.9857
 20
223.162
 30
0.0
  0
SPLINE
  5
50
330
1F
100
AcDbEntity
  8
Layer 1
 62
     3
370
     9
100
AcDbSpline
210
0.0
220
0.0
230
1.0
 70
    11
 71
     3
 72
    20
 73
    16
 74
     0
 42
0.0000000001
 43
0.0000000001
 40
0.0
 40
0.0
 40
0.0
 40
0.0
 40
0.2
 40
0.2
 40
0.2
 40
0.2
 40
0.4
 40
0.4
 40
0.4
 40
0.4
 40
0.6
 40
0.6
 40
0.6
 40
0.6
 40
1.0
 40
1.0
 40
1.0
 40
1.0
 10
-574.2557
 20
223.162
 30
0.0
 10
-574.2557
 20
223.162
 30
0.0
 10
-574.2557
 20
220.6724
 30
0.0
 10
-574.2557
 20
220.6724
 30
0.0
 10
-574.2557
 20
220.6724
 30
0.0
 10
-574.2557
 20
220.6724
 30
0.0
 10
-580.4485
 20
220.6724
 30
0.0
 10
-580.4485
 20
220.6724
 30
0.0
 10
-580.4485
 20
220.6724
 30
0.0
 10
-580.4485
 20
220.6724
 30
0.0
 10
-580.4485
 20
223.162
 30
0.0
 10
-580.4485
 20
223.162
 30
0.0
 10
-580.4485
 20
223.162
 30
0.0
 10
-580.4485
 20
223.162
 30
0.0
 10
-574.2557
 20
223.162
 30
0.0
 10
-574.2557
 20
223.162
 30
0.0
  0
SPLINE
  5
51
330
1F
100
AcDbEntity
  8
Layer 1
 62
     3
370
     9
100
AcDbSpline
210
0.0
220
0.0
230
1.0
 70
    11
 71
     3
 72
    20
 73
    16
 74
     0
 42
0.0000000001
 43
0.0000000001
 40
0.0
 40
0.0
 40
0.0
 40
0.0
 40
0.2
 40
0.2
 40
0.2
 40
0.2
 40
0.4
 40
0.4
 40
0.4
 40
0.4
 40
0.6
 40
0.6
 40
0.6
 40
0.6
 40
1.0
 40
1.0
 40
1.0
 40
1.0
 10
-586.7424
 20
223.162
 30
0.0
 10
-586.7424
 20
223.162
 30
0.0
 10
-586.7424
 20
220.6724
 30
0.0
 10
-586.7424
 20
220.6724
 30
0.0
 10
-586.7424
 20
220.6724
 30
0.0
 10
-586.7424
 20
220.6724
 30
0.0
 10
-592.9351
 20
220.6724
 30
0.0
 10
-592.9351
 20
220.6724
 30
0.0
 10
-592.9351
 20
220.6724
 30
0.0
 10
-592.9351
 20
220.6724
 30
0.0
 10
-592.9351
 20
223.162
 30
0.0
 10
-592.9351
 20
223.162
 30
0.0
 10
-592.9351
 20
223.162
 30
0.0
 10
-592.9351
 20
223.162
 30
0.0
 10
-586.7424
 20
223.162
 30
0.0
 10
-586.7424
 20
223.162
 30
0.0
  0
SPLINE
  5
52
330
1F
100
AcDbEntity
  8
Layer 1
 62
     3
370
     9
100
AcDbSpline
210
0.0
220
0.0
230
1.0
 70
    11
 71
     3
 72
    20
 73
    16
 74
     0
 42
0.0000000001
 43
0.0000000001
 40
0.0
 40
0.0
 40
0.0
 40
0.0
 40
0.2
 40
0.2
 40
0.2
 40
0.2
 40
0.4
 40
0.4
 40
0.4
 40
0.4
 40
0.6
 40
0.6
 40
0.6
 40
0.6
 40
1.0
 40
1.0
 40
1.0
 40
1.0
 10
-527.9618
 20
295.2706
 30
0.0
 10
-527.9618
 20
295.2706
 30
0.0
 10
-525.4724
 20
295.2706
 30
0.0
 10
-525.4724
 20
295.2706
 30
0.0
 10
-525.4724
 20
295.2706
 30
0.0
 10
-525.4724
 20
295.2706
 30
0.0
 10
-525.4724
 20
289.9696
 30
0.0
 10
-525.4724
 20
289.9696
 30
0.0
 10
-525.4724
 20
289.9696
 30
0.0
 10
-525.4724
 20
289.9696
 30
0.0
 10
-527.9618
 20
289.9696
 30
0.0
 10
-527.9618
 20
289.9696
 30
0.0
 10
-527.9618
 20
289.9696
 30
0.0
 10
-527.9618
 20
289.9696
 30
0.0
 10
-527.9618
 20
295.2706
 30
0.0
 10
-527.9618
 20
295.2706
 30
0.0
  0
SPLINE
  5
53
330
1F
100
AcDbEntity
  8
Layer 1
 62
     3
370
     9
100
AcDbSpline
210
0.0
220
0.0
230
1.0
 70
    11
 71
     3
 72
    20
 73
    16
 74
     0
 42
0.0000000001
 43
0.0000000001
 40
0.0
 40
0.0
 40
0.0
 40
0.0
 40
0.2
 40
0.2
 40
0.2
 40
0.2
 40
0.4
 40
0.4
 40
0.4
 40
0.4
 40
0.6
 40
0.6
 40
0.6
 40
0.6
 40
1.0
 40
1.0
 40
1.0
 40
1.0
 10
-527.9618
 20
284.5677
 30
0.0
 10
-527.9618
 20
284.5677
 30
0.0
 10
-525.4724
 20
284.5677
 30
0.0
 10
-525.4724
 20
284.5677
 30
0.0
 10
-525.4724
 20
284.5677
 30
0.0
 10
-525.4724
 20
284.5677
 30
0.0
 10
-525.4724
 20
279.267
 30
0.0
 10
-525.4724
 20
279.267
 30
0.0
 10
-525.4724
 20
279.267
 30
0.0
 10
-525.4724
 20
279.267
 30
0.0
 10
-527.9618
 20
279.267
 30
0.0
 10
-527.9618
 20
279.267
 30
0.0
 10
-527.9618
 20
279.267
 30
0.0
 10
-527.9618
 20
279.267
 30
0.0
 10
-527.9618
 20
284.5677
 30
0.0
 10
-527.9618
 20
284.5677
 30
0.0
  0
SPLINE
  5
54
330
1F
100
AcDbEntity
  8
Layer 1
 62
     3
370
     9
100
AcDbSpline
210
0.0
220
0.0
230
1.0
 70
    11
 71
     3
 72
    20
 73
    16
 74
     0
 42
0.0000000001
 43
0.0000000001
 40
0.0
 40
0.0
 40
0.0
 40
0.0
 40
0.2
 40
0.2
 40
0.2
 40
0.2
 40
0.4
 40
0.4
 40
0.4
 40
0.4
 40
0.6
 40
0.6
 40
0.6
 40
0.6
 40
1.0
 40
1.0
 40
1.0
 40
1.0
 10
-527.9618
 20
273.8648
 30
0.0
 10
-527.9618
 20
273.8648
 30
0.0
 10
-525.4724
 20
273.8648
 30
0.0
 10
-525.4724
 20
273.8648
 30
0.0
 10
-525.4724
 20
273.8648
 30
0.0
 10
-525.4724
 20
273.8648
 30
0.0
 10
-525.4724
 20
268.5641
 30
0.0
 10
-525.4724
 20
268.5641
 30
0.0
 10
-525.4724
 20
268.5641
 30
0.0
 10
-525.4724
 20
268.5641
 30
0.0
 10
-527.9618
 20
268.5641
 30
0.0
 10
-527.9618
 20
268.5641
 30
0.0
 10
-527.9618
 20
268.5641
 30
0.0
 10
-527.9618
 20
268.5641
 30
0.0
 10
-527.9618
 20
273.8648
 30
0.0
 10
-527.9618
 20
273.8648
 30
0.0
  0
SPLINE
  5
55
330
1F
100
AcDbEntity
  8
Layer 1
 62
     3
370
     9
100
AcDbSpline
210
0.0
220
0.0
230
1.0
 70
    11
 71
     3
 72
    20
 73
    16
 74
     0
 42
0.0000000001
 43
0.0000000001
 40
0.0
 40
0.0
 40
0.0
 40
0.0
 40
0.2
 40
0.2
 40
0.2
 40
0.2
 40
0.4
 40
0.4
 40
0.4
 40
0.4
 40
0.6
 40
0.6
 40
0.6
 40
0.6
 40
1.0
 40
1.0
 40
1.0
 40
1.0
 10
-527.9618
 20
254.3786
 30
0.0
 10
-527.9618
 20
254.3786
 30
0.0
 10
-525.4724
 20
254.3786
 30
0.0
 10
-525.4724
 20
254.3786
 30
0.0
 10
-525.4724
 20
254.3786
 30
0.0
 10
-525.4724
 20
254.3786
 30
0.0
 10
-525.4724
 20
248.1858
 30
0.0
 10
-525.4724
 20
248.1858
 30
0.0
 10
-525.4724
 20
248.1858
 30
0.0
 10
-525.4724
 20
248.1858
 30
0.0
 10
-527.9618
 20
248.1858
 30
0.0
 10
-527.9618
 20
248.1858
 30
0.0
 10
-527.9618
 20
248.1858
 30
0.0
 10
-527.9618
 20
248.1858
 30
0.0
 10
-527.9618
 20
254.3786
 30
0.0
 10
-527.9618
 20
254.3786
 30
0.0
  0
SPLINE
  5
56
330
1F
100
AcDbEntity
  8
Layer 1
 62
     3
370
     9
100
AcDbSpline
210
0.0
220
0.0
230
1.0
 70
    11
 71
     3
 72
    20
 73
    16
 74
     0
 42
0.0000000001
 43
0.0000000001
 40
0.0
 40
0.0
 40
0.0
 40
0.0
 40
0.2
 40
0.2
 40
0.2
 40
0.2
 40
0.4
 40
0.4
 40
0.4
 40
0.4
 40
0.6
 40
0.6
 40
0.6
 40
0.6
 40
1.0
 40
1.0
 40
1.0
 40
1.0
 10
-527.9618
 20
241.8921
 30
0.0
 10
-527.9618
 20
241.8921
 30
0.0
 10
-525.4724
 20
241.8921
 30
0.0
 10
-525.4724
 20
241.8921
 30
0.0
 10
-525.4724
 20
241.8921
 30
0.0
 10
-525.4724
 20
241.8921
 30
0.0
 10
-525.4724
 20
235.6993
 30
0.0
 10
-525.4724
 20
235.6993
 30
0.0
 10
-525.4724
 20
235.6993
 30
0.0
 10
-525.4724
 20
235.6993
 30
0.0
 10
-527.9618
 20
235.6993
 30
0.0
 10
-527.9618
 20
235.6993
 30
0.0
 10
-527.9618
 20
235.6993
 30
0.0
 10
-527.9618
 20
235.6993
 30
0.0
 10
-527.9618
 20
241.8921
 30
0.0
 10
-527.9618
 20
241.8921
 30
0.0
  0
SPLINE
  5
57
330
1F
100
AcDbEntity
  8
Layer 1
 62
     3
370
     9
100
AcDbSpline
210
0.0
220
0.0
230
1.0
 70
    11
 71
     3
 72
    20
 73
    16
 74
     0
 42
0.0000000001
 43
0.0000000001
 40
0.0
 40
0.0
 40
0.0
 40
0.0
 40
0.2
 40
0.2
 40
0.2
 40
0.2
 40
0.4
 40
0.4
 40
0.4
 40
0.4
 40
0.6
 40
0.6
 40
0.6
 40
0.6
 40
1.0
 40
1.0
 40
1.0
 40
1.0
 10
-527.9618
 20
208.9821
 30
0.0
 10
-527.9618
 20
208.9821
 30
0.0
 10
-525.4724
 20
208.9821
 30
0.0
 10
-525.4724
 20
208.9821
 30
0.0
 10
-525.4724
 20
208.9821
 30
0.0
 10
-525.4724
 20
208.9821
 30
0.0
 10
-525.4724
 20
203.2127
 30
0.0
 10
-525.4724
 20
203.2127
 30
0.0
 10
-525.4724
 20
203.2127
 30
0.0
 10
-525.4724
 20
203.2127
 30
0.0
 10
-527.9618
 20
203.2127
 30
0.0
 10
-527.9618
 20
203.2127
 30
0.0
 10
-527.9618
 20
203.2127
 30
0.0
 10
-527.9618
 20
203.2127
 30
0.0
 10
-527.9618
 20
208.9821
 30
0.0
 10
-527.9618
 20
208.9821
 30
0.0
  0
SPLINE
  5
58
330
1F
100
AcDbEntity
  8
Layer 1
 62
     3
370
     9
100
AcDbSpline
210
0.0
220
0.0
230
1.0
 70
    11
 71
     3
 72
    20
 73
    16
 74
     0
 42
0.0000000001
 43
0.0000000001
 40
0.0
 40
0.0
 40
0.0
 40
0.0
 40
0.2
 40
0.2
 40
0.2
 40
0.2
 40
0.4
 40
0.4
 40
0.4
 40
0.4
 40
0.6
 40
0.6
 40
0.6
 40
0.6
 40
1.0
 40
1.0
 40
1.0
 40
1.0
 10
-527.9618
 20
197.3421
 30
0.0
 10
-527.9618
 20
197.3421
 30
0.0
 10
-525.4724
 20
197.3421
 30
0.0
 10
-525.4724
 20
197.3421
 30
0.0
 10
-525.4724
 20
197.3421
 30
0.0
 10
-525.4724
 20
197.3421
 30
0.0
 10
-525.4724
 20
191.5728
 30
0.0
 10
-525.4724
 20
191.5728
 30
0.0
 10
-525.4724
 20
191.5728
 30
0.0
 10
-525.4724
 20
191.5728
 30
0.0
 10
-527.9618
 20
191.5728
 30
0.0
 10
-527.9618
 20
191.5728
 30
0.0
 10
-527.9618
 20
191.5728
 30
0.0
 10
-527.9618
 20
191.5728
 30
0.0
 10
-527.9618
 20
197.3421
 30
0.0
 10
-527.9618
 20
197.3421
 30
0.0
  0
SPLINE
  5
59
330
1F
100
AcDbEntity
  8
Layer 1
 62
     3
370
     9
100
AcDbSpline
210
0.0
220
0.0
230
1.0
 70
    11
 71
     3
 72
    20
 73
    16
 74
     0
 42
0.0000000001
 43
0.0000000001
 40
0.0
 40
0.0
 40
0.0
 40
0.0
 40
0.2
 40
0.2
 40
0.2
 40
0.2
 40
0.4
 40
0.4
 40
0.4
 40
0.4
 40
0.6
 40
0.6
 40
0.6
 40
0.6
 40
1.0
 40
1.0
 40
1.0
 40
1.0
 10
-495.5409
 20
263.1619
 30
0.0
 10
-495.5409
 20
263.1619
 30
0.0
 10
-495.5409
 20
260.6727
 30
0.0
 10
-495.5409
 20
260.6727
 30
0.0
 10
-495.5409
 20
260.6727
 30
0.0
 10
-495.5409
 20
260.6727
 30
0.0
 10
-500.4789
 20
260.6727
 30
0.0
 10
-500.4789
 20
260.6727
 30
0.0
 10
-500.4789
 20
260.6727
 30
0.0
 10
-500.4789
 20
260.6727
 30
0.0
 10
-500.4789
 20
263.1619
 30
0.0
 10
-500.4789
 20
263.1619
 30
0.0
 10
-500.4789
 20
263.1619
 30
0.0
 10
-500.4789
 20
263.1619
 30
0.0
 10
-495.5409
 20
263.1619
 30
0.0
 10
-495.5409
 20
263.1619
 30
0.0
  0
SPLINE
  5
5A
330
1F
100
AcDbEntity
  8
Layer 1
 62
     3
370
     9
100
AcDbSpline
210
0.0
220
0.0
230
1.0
 70
    11
 71
     3
 72
    20
 73
    16
 74
     0
 42
0.0000000001
 43
0.0000000001
 40
0.0
 40
0.0
 40
0.0
 40
0.0
 40
0.2
 40
0.2
 40
0.2
 40
0.2
 40
0.4
 40
0.4
 40
0.4
 40
0.4
 40
0.6
 40
0.6
 40
0.6
 40
0.6
 40
1.0
 40
1.0
 40
1.0
 40
1.0
 10
-505.518
 20
263.1619
 30
0.0
 10
-505.518
 20
263.1619
 30
0.0
 10
-505.518
 20
260.6727
 30
0.0
 10
-505.518
 20
260.6727
 30
0.0
 10
-505.518
 20
260.6727
 30
0.0
 10
-505.518
 20
260.6727
 30
0.0
 10
-510.4561
 20
260.6727
 30
0.0
 10
-510.4561
 20
260.6727
 30
0.0
 10
-510.4561
 20
260.6727
 30
0.0
 10
-510.4561
 20
260.6727
 30
0.0
 10
-510.4561
 20
263.1619
 30
0.0
 10
-510.4561
 20
263.1619
 30
0.0
 10
-510.4561
 20
263.1619
 30
0.0
 10
-510.4561
 20
263.1619
 30
0.0
 10
-505.518
 20
263.1619
 30
0.0
 10
-505.518
 20
263.1619
 30
0.0
  0
SPLINE
  5
5B
330
1F
100
AcDbEntity
  8
Layer 1
 62
     3
370
     9
100
AcDbSpline
210
0.0
220
0.0
230
1.0
 70
    11
 71
     3
 72
    20
 73
    16
 74
     0
 42
0.0000000001
 43
0.0000000001
 40
0.0
 40
0.0
 40
0.0
 40
0.0
 40
0.2
 40
0.2
 40
0.2
 40
0.2
 40
0.4
 40
0.4
 40
0.4
 40
0.4
 40
0.6
 40
0.6
 40
0.6
 40
0.6
 40
1.0
 40
1.0
 40
1.0
 40
1.0
 10
-515.4952
 20
263.1619
 30
0.0
 10
-515.4952
 20
263.1619
 30
0.0
 10
-515.4952
 20
260.6727
 30
0.0
 10
-515.4952
 20
260.6727
 30
0.0
 10
-515.4952
 20
260.6727
 30
0.0
 10
-515.4952
 20
260.6727
 30
0.0
 10
-520.4333
 20
260.6727
 30
0.0
 10
-520.4333
 20
260.6727
 30
0.0
 10
-520.4333
 20
260.6727
 30
0.0
 10
-520.4333
 20
260.6727
 30
0.0
 10
-520.4333
 20
263.1619
 30
0.0
 10
-520.4333
 20
263.1619
 30
0.0
 10
-520.4333
 20
263.1619
 30
0.0
 10
-520.4333
 20
263.1619
 30
0.0
 10
-515.4952
 20
263.1619
 30
0.0
 10
-515.4952
 20
263.1619
 30
0.0
  0
SPLINE
  5
5C
330
1F
100
AcDbEntity
  8
Layer 1
 62
     3
370
     9
100
AcDbSpline
210
0.0
220
0.0
230
1.0
 70
    11
 71
     3
 72
    20
 73
    16
 74
     0
 42
0.0000000001
 43
0.0000000001
 40
0.0
 40
0.0
 40
0.0
 40
0.0
 40
0.2
 40
0.2
 40
0.2
 40
0.2
 40
0.4
 40
0.4
 40
0.4
 40
0.4
 40
0.6
 40
0.6
 40
0.6
 40
0.6
 40
1.0
 40
1.0
 40
1.0
 40
1.0
 10
-567.9618
 20
214.8018
 30
0.0
 10
-567.9618
 20
214.8018
 30
0.0
 10
-565.4724
 20
214.8018
 30
0.0
 10
-565.4724
 20
214.8018
 30
0.0
 10
-565.4724
 20
214.8018
 30
0.0
 10
-565.4724
 20
214.8018
 30
0.0
 10
-565.4724
 20
209.0325
 30
0.0
 10
-565.4724
 20
209.0325
 30
0.0
 10
-565.4724
 20
209.0325
 30
0.0
 10
-565.4724
 20
209.0325
 30
0.0
 10
-567.9618
 20
209.0325
 30
0.0
 10
-567.9618
 20
209.0325
 30
0.0
 10
-567.9618
 20
209.0325
 30
0.0
 10
-567.9618
 20
209.0325
 30
0.0
 10
-567.9618
 20
214.8018
 30
0.0
 10
-567.9618
 20
214.8018
 30
0.0
  0
SPLINE
  5
5D
330
1F
100
AcDbEntity
  8
Layer 1
 62
     3
370
     9
100
AcDbSpline
210
0.0
220
0.0
230
1.0
 70
    11
 71
     3
 72
    20
 73
    16
 74
     0
 42
0.0000000001
 43
0.0000000001
 40
0.0
 40
0.0
 40
0.0
 40
0.0
 40
0.2
 40
0.2
 40
0.2
 40
0.2
 40
0.4
 40
0.4
 40
0.4
 40
0.4
 40
0.6
 40
0.6
 40
0.6
 40
0.6
 40
1.0
 40
1.0
 40
1.0
 40
1.0
 10
-567.9618
 20
203.1619
 30
0.0
 10
-567.9618
 20
203.1619
 30
0.0
 10
-565.4724
 20
203.1619
 30
0.0
 10
-565.4724
 20
203.1619
 30
0.0
 10
-565.4724
 20
203.1619
 30
0.0
 10
-565.4724
 20
203.1619
 30
0.0
 10
-565.4724
 20
197.3925
 30
0.0
 10
-565.4724
 20
197.3925
 30
0.0
 10
-565.4724
 20
197.3925
 30
0.0
 10
-565.4724
 20
197.3925
 30
0.0
 10
-567.9618
 20
197.3925
 30
0.0
 10
-567.9618
 20
197.3925
 30
0.0
 10
-567.9618
 20
197.3925
 30
0.0
 10
-567.9618
 20
197.3925
 30
0.0
 10
-567.9618
 20
203.1619
 30
0.0
 10
-567.9618
 20
203.1619
 30
0.0
  0
SPLINE
  5
5E
330
1F
100
AcDbEntity
  8
Layer 1
 62
     1
370
     9
100
AcDbSpline
210
0.0
220
0.0
230
1.0
 70
     8
 71
     3
 72
    12
 73
     8
 74
     0
 42
0.0000000001
 43
0.0000000001
 40
0.0
 40
0.0
 40
0.0
 40
0.0
 40
0.3333333333333333
 40
0.3333333333333333
 40
0.3333333333333333
 40
0.3333333333333333
 40
1.0
 40
1.0
 40
1.0
 40
1.0
 10
-554.0761
 20
249.2689
 30
0.0
 10
-554.0761
 20
249.2689
 30
0.0
 10
-575.6755
 20
249.2689
 30
0.0
 10
-575.6755
 20
249.2689
 30
0.0
 10
-575.6755
 20
249.2689
 30
0.0
 10
-575.6755
 20
249.2689
 30
0.0
 10
-567.0494
 20
279.5214
 30
0.0
 10
-567.0494
 20
279.5214
 30
0.0
  0
SPLINE
  5
5F
330
1F
100
AcDbEntity
  8
Layer 1
 62
     1
370
     9
100
AcDbSpline
210
0.0
220
0.0
230
1.0
 70
    24
 71
     3
 72
     8
 73
     4
 74
     0
 42
0.0000000001
 43
0.0000000001
 40
0.0
 40
0.0
 40
0.0
 40
0.0
 40
1.0
 40
1.0
 40
1.0
 40
1.0
 10
-560.5506
 20
240.6209
 30
0.0
 10
-560.5506
 20
240.6209
 30
0.0
 10
-560.5506
 20
257.8977
 30
0.0
 10
-560.5506
 20
257.8977
 30
0.0
  0
SPLINE
  5
60
330
1F
100
AcDbEntity
  8
Layer 1
 62
     5
370
     9
100
AcDbSpline
210
0.0
220
0.0
230
1.0
 70
    11
 71
     3
 72
   228
 73
   224
 74
     0
 42
0.0000000001
 43
0.0000000001
 40
0.0
 40
0.0
 40
0.0
 40
0.0
 40
0.0175438596491228
 40
0.0175438596491228
 40
0.0175438596491228
 40
0.0175438596491228
 40
0.0350877192982456
 40
0.0350877192982456
 40
0.0350877192982456
 40
0.0350877192982456
 40
0.0526315789473684
 40
0.0526315789473684
 40
0.0526315789473684
 40
0.0526315789473684
 40
0.0701754385964912
 40
0.0701754385964912
 40
0.0701754385964912
 40
0.0701754385964912
 40
0.087719298245614
 40
0.087719298245614
 40
0.087719298245614
 40
0.087719298245614
 40
0.1052631578947368
 40
0.1052631578947368
 40
0.1052631578947368
 40
0.1052631578947368
 40
0.1228070175438596
 40
0.1228070175438596
 40
0.1228070175438596
 40
0.1228070175438596
 40
0.1403508771929824
 40
0.1403508771929824
 40
0.1403508771929824
 40
0.1403508771929824
 40
0.1578947368421053
 40
0.1578947368421053
 40
0.1578947368421053
 40
0.1578947368421053
 40
0.1754385964912281
 40
0.1754385964912281
 40
0.1754385964912281
 40
0.1754385964912281
 40
0.1929824561403509
 40
0.1929824561403509
 40
0.1929824561403509
 40
0.1929824561403509
 40
0.2105263157894737
 40
0.2105263157894737
 40
0.2105263157894737
 40
0.2105263157894737
 40
0.2280701754385965
 40
0.2280701754385965
 40
0.2280701754385965
 40
0.2280701754385965
 40
0.2456140350877193
 40
0.2456140350877193
 40
0.2456140350877193
 40
0.2456140350877193
 40
0.2631578947368421
 40
0.2631578947368421
 40
0.2631578947368421
 40
0.2631578947368421
 40
0.2807017543859649
 40
0.2807017543859649
 40
0.2807017543859649
 40
0.2807017543859649
 40
0.2982456140350877
 40
0.2982456140350877
 40
0.2982456140350877
 40
0.2982456140350877
 40
0.3157894736842105
 40
0.3157894736842105
 40
0.3157894736842105
 40
0.3157894736842105
 40
0.3333333333333333
 40
0.3333333333333333
 40
0.3333333333333333
 40
0.3333333333333333
 40
0.3508771929824561
 40
0.3508771929824561
 40
0.3508771929824561
 40
0.3508771929824561
 40
0.3684210526315789
 40
0.3684210526315789
 40
0.3684210526315789
 40
0.3684210526315789
 40
0.3859649122807017
 40
0.3859649122807017
 40
0.3859649122807017
 40
0.3859649122807017
 40
0.4035087719298245
 40
0.4035087719298245
 40
0.4035087719298245
 40
0.4035087719298245
 40
0.4210526315789473
 40
0.4210526315789473
 40
0.4210526315789473
 40
0.4210526315789473
 40
0.4385964912280702
 40
0.4385964912280702
 40
0.4385964912280702
 40
0.4385964912280702
 40
0.456140350877193
 40
0.456140350877193
 40
0.456140350877193
 40
0.456140350877193
 40
0.4736842105263158
 40
0.4736842105263158
 40
0.4736842105263158
 40
0.4736842105263158
 40
0.4912280701754386
 40
0.4912280701754386
 40
0.4912280701754386
 40
0.4912280701754386
 40
0.5087719298245614
 40
0.5087719298245614
 40
0.5087719298245614
 40
0.5087719298245614
 40
0.5263157894736842
 40
0.5263157894736842
 40
0.5263157894736842
 40
0.5263157894736842
 40
0.543859649122807
 40
0.543859649122807
 40
0.543859649122807
 40
0.543859649122807
 40
0.5614035087719298
 40
0.5614035087719298
 40
0.5614035087719298
 40
0.5614035087719298
 40
0.5789473684210527
 40
0.5789473684210527
 40
0.5789473684210527
 40
0.5789473684210527
 40
0.5964912280701754
 40
0.5964912280701754
 40
0.5964912280701754
 40
0.5964912280701754
 40
0.6140350877192983
 40
0.6140350877192983
 40
0.6140350877192983
 40
0.6140350877192983
 40
0.631578947368421
 40
0.631578947368421
 40
0.631578947368421
 40
0.631578947368421
 40
0.6491228070175439
 40
0.6491228070175439
 40
0.6491228070175439
 40
0.6491228070175439
 40
0.6666666666666666
 40
0.6666666666666666
 40
0.6666666666666666
 40
0.6666666666666666
 40
0.6842105263157895
 40
0.6842105263157895
 40
0.6842105263157895
 40
0.6842105263157895
 40
0.7017543859649122
 40
0.7017543859649122
 40
0.7017543859649122
 40
0.7017543859649122
 40
0.7192982456140351
 40
0.7192982456140351
 40
0.7192982456140351
 40
0.7192982456140351
 40
0.7368421052631579
 40
0.7368421052631579
 40
0.7368421052631579
 40
0.7368421052631579
 40
0.7543859649122807
 40
0.7543859649122807
 40
0.7543859649122807
 40
0.7543859649122807
 40
0.7719298245614035
 40
0.7719298245614035
 40
0.7719298245614035
 40
0.7719298245614035
 40
0.7894736842105263
 40
0.7894736842105263
 40
0.7894736842105263
 40
0.7894736842105263
 40
0.8070175438596491
 40
0.8070175438596491
 40
0.8070175438596491
 40
0.8070175438596491
 40
0.8245614035087719
 40
0.8245614035087719
 40
0.8245614035087719
 40
0.8245614035087719
 40
0.8421052631578947
 40
0.8421052631578947
 40
0.8421052631578947
 40
0.8421052631578947
 40
0.8596491228070176
 40
0.8596491228070176
 40
0.8596491228070176
 40
0.8596491228070176
 40
0.8771929824561403
 40
0.8771929824561403
 40
0.8771929824561403
 40
0.8771929824561403
 40
0.8947368421052632
 40
0.8947368421052632
 40
0.8947368421052632
 40
0.8947368421052632
 40
0.9122807017543859
 40
0.9122807017543859
 40
0.9122807017543859
 40
0.9122807017543859
 40
0.9298245614035088
 40
0.9298245614035088
 40
0.9298245614035088
 40
0.9298245614035088
 40
0.9473684210526315
 40
0.9473684210526315
 40
0.9473684210526315
 40
0.9473684210526315
 40
0.9649122807017544
 40
0.9649122807017544
 40
0.9649122807017544
 40
0.9649122807017544
 40
1.0
 40
1.0
 40
1.0
 40
1.0
 10
-404.7867
 20
-277.8125
 30
0.0
 10
-404.7867
 20
-277.8125
 30
0.0
 10
-404.7867
 20
-279.0824
 30
0.0
 10
-404.7867
 20
-279.0824
 30
0.0
 10
-404.7867
 20
-279.0824
 30
0.0
 10
-404.7867
 20
-279.0824
 30
0.0
 10
-402.2465
 20
-279.0824
 30
0.0
 10
-402.2465
 20
-279.0824
 30
0.0
 10
-402.2465
 20
-279.0824
 30
0.0
 10
-402.2465
 20
-279.0824
 30
0.0
 10
-402.2465
 20
-287.0751
 30
0.0
 10
-402.2465
 20
-287.0751
 30
0.0
 10
-402.2465
 20
-287.0751
 30
0.0
 10
-402.2465
 20
-287.0751
 30
0.0
 10
-404.7867
 20
-287.0751
 30
0.0
 10
-404.7867
 20
-287.0751
 30
0.0
 10
-404.7867
 20
-287.0751
 30
0.0
 10
-404.7867
 20
-287.0751
 30
0.0
 10
-404.7867
 20
-295.169
 30
0.0
 10
-404.7867
 20
-295.169
 30
0.0
 10
-404.7867
 20
-295.169
 30
0.0
 10
-404.7867
 20
-295.169
 30
0.0
 10
-402.2465
 20
-295.169
 30
0.0
 10
-402.2465
 20
-295.169
 30
0.0
 10
-402.2465
 20
-295.169
 30
0.0
 10
-402.2465
 20
-295.169
 30
0.0
 10
-402.2465
 20
-303.2125
 30
0.0
 10
-402.2465
 20
-303.2125
 30
0.0
 10
-402.2465
 20
-303.2125
 30
0.0
 10
-402.2465
 20
-303.2125
 30
0.0
 10
-367.2759
 20
-303.2125
 30
0.0
 10
-367.2759
 20
-303.2125
 30
0.0
 10
-367.2759
 20
-303.2125
 30
0.0
 10
-367.2759
 20
-303.2125
 30
0.0
 10
-367.2759
 20
-295.169
 30
0.0
 10
-367.2759
 20
-295.169
 30
0.0
 10
-367.2759
 20
-295.169
 30
0.0
 10
-367.2759
 20
-295.169
 30
0.0
 10
-364.7359
 20
-295.169
 30
0.0
 10
-364.7359
 20
-295.169
 30
0.0
 10
-364.7359
 20
-295.169
 30
0.0
 10
-364.7359
 20
-295.169
 30
0.0
 10
-364.7359
 20
-287.0751
 30
0.0
 10
-364.7359
 20
-287.0751
 30
0.0
 10
-364.7359
 20
-287.0751
 30
0.0
 10
-364.7359
 20
-287.0751
 30
0.0
 10
-367.2759
 20
-287.0751
 30
0.0
 10
-367.2759
 20
-287.0751
 30
0.0
 10
-367.2759
 20
-287.0751
 30
0.0
 10
-367.2759
 20
-287.0751
 30
0.0
 10
-367.2759
 20
-279.0824
 30
0.0
 10
-367.2759
 20
-279.0824
 30
0.0
 10
-367.2759
 20
-279.0824
 30
0.0
 10
-367.2759
 20
-279.0824
 30
0.0
 10
-364.7359
 20
-279.0824
 30
0.0
 10
-364.7359
 20
-279.0824
 30
0.0
 10
-364.7359
 20
-279.0824
 30
0.0
 10
-364.7359
 20
-279.0824
 30
0.0
 10
-364.7359
 20
-270.9885
 30
0.0
 10
-364.7359
 20
-270.9885
 30
0.0
 10
-364.7359
 20
-270.9885
 30
0.0
 10
-364.7359
 20
-270.9885
 30
0.0
 10
-367.2759
 20
-270.9885
 30
0.0
 10
-367.2759
 20
-270.9885
 30
0.0
 10
-367.2759
 20
-270.9885
 30
0.0
 10
-367.2759
 20
-270.9885
 30
0.0
 10
-367.2759
 20
-262.9957
 30
0.0
 10
-367.2759
 20
-262.9957
 30
0.0
 10
-367.2759
 20
-262.9957
 30
0.0
 10
-367.2759
 20
-262.9957
 30
0.0
 10
-364.7359
 20
-262.9957
 30
0.0
 10
-364.7359
 20
-262.9957
 30
0.0
 10
-364.7359
 20
-262.9957
 30
0.0
 10
-364.7359
 20
-262.9957
 30
0.0
 10
-364.7359
 20
-252.3617
 30
0.0
 10
-364.7359
 20
-252.3617
 30
0.0
 10
-364.7359
 20
-252.3617
 30
0.0
 10
-364.7359
 20
-252.3617
 30
0.0
 10
-372.315
 20
-252.3617
 30
0.0
 10
-372.315
 20
-252.3617
 30
0.0
 10
-372.315
 20
-252.3617
 30
0.0
 10
-372.315
 20
-252.3617
 30
0.0
 10
-372.315
 20
-254.9018
 30
0.0
 10
-372.315
 20
-254.9018
 30
0.0
 10
-372.315
 20
-254.9018
 30
0.0
 10
-372.315
 20
-254.9018
 30
0.0
 10
-377.2531
 20
-254.9018
 30
0.0
 10
-377.2531
 20
-254.9018
 30
0.0
 10
-377.2531
 20
-254.9018
 30
0.0
 10
-377.2531
 20
-254.9018
 30
0.0
 10
-377.2531
 20
-252.3617
 30
0.0
 10
-377.2531
 20
-252.3617
 30
0.0
 10
-377.2531
 20
-252.3617
 30
0.0
 10
-377.2531
 20
-252.3617
 30
0.0
 10
-382.2922
 20
-252.3617
 30
0.0
 10
-382.2922
 20
-252.3617
 30
0.0
 10
-382.2922
 20
-252.3617
 30
0.0
 10
-382.2922
 20
-252.3617
 30
0.0
 10
-382.2922
 20
-254.9018
 30
0.0
 10
-382.2922
 20
-254.9018
 30
0.0
 10
-382.2922
 20
-254.9018
 30
0.0
 10
-382.2922
 20
-254.9018
 30
0.0
 10
-387.2301
 20
-254.9018
 30
0.0
 10
-387.2301
 20
-254.9018
 30
0.0
 10
-387.2301
 20
-254.9018
 30
0.0
 10
-387.2301
 20
-254.9018
 30
0.0
 10
-387.2301
 20
-252.3617
 30
0.0
 10
-387.2301
 20
-252.3617
 30
0.0
 10
-387.2301
 20
-252.3617
 30
0.0
 10
-387.2301
 20
-252.3617
 30
0.0
 10
-392.2693
 20
-252.3617
 30
0.0
 10
-392.2693
 20
-252.3617
 30
0.0
 10
-392.2693
 20
-252.3617
 30
0.0
 10
-392.2693
 20
-252.3617
 30
0.0
 10
-392.2693
 20
-254.9018
 30
0.0
 10
-392.2693
 20
-254.9018
 30
0.0
 10
-392.2693
 20
-254.9018
 30
0.0
 10
-392.2693
 20
-254.9018
 30
0.0
 10
-397.2074
 20
-254.9018
 30
0.0
 10
-397.2074
 20
-254.9018
 30
0.0
 10
-397.2074
 20
-254.9018
 30
0.0
 10
-397.2074
 20
-254.9018
 30
0.0
 10
-397.2074
 20
-252.3617
 30
0.0
 10
-397.2074
 20
-252.3617
 30
0.0
 10
-397.2074
 20
-252.3617
 30
0.0
 10
-397.2074
 20
-252.3617
 30
0.0
 10
-415.8523
 20
-252.3617
 30
0.0
 10
-415.8523
 20
-252.3617
 30
0.0
 10
-415.8523
 20
-252.3617
 30
0.0
 10
-415.8523
 20
-252.3617
 30
0.0
 10
-415.8523
 20
-254.9018
 30
0.0
 10
-415.8523
 20
-254.9018
 30
0.0
 10
-415.8523
 20
-254.9018
 30
0.0
 10
-415.8523
 20
-254.9018
 30
0.0
 10
-426.8674
 20
-254.9018
 30
0.0
 10
-426.8674
 20
-254.9018
 30
0.0
 10
-426.8674
 20
-254.9018
 30
0.0
 10
-426.8674
 20
-254.9018
 30
0.0
 10
-426.8674
 20
-252.3617
 30
0.0
 10
-426.8674
 20
-252.3617
 30
0.0
 10
-426.8674
 20
-252.3617
 30
0.0
 10
-426.8674
 20
-252.3617
 30
0.0
 10
-437.9837
 20
-252.3617
 30
0.0
 10
-437.9837
 20
-252.3617
 30
0.0
 10
-437.9837
 20
-252.3617
 30
0.0
 10
-437.9837
 20
-252.3617
 30
0.0
 10
-437.9837
 20
-254.9018
 30
0.0
 10
-437.9837
 20
-254.9018
 30
0.0
 10
-437.9837
 20
-254.9018
 30
0.0
 10
-437.9837
 20
-254.9018
 30
0.0
 10
-448.9989
 20
-254.9018
 30
0.0
 10
-448.9989
 20
-254.9018
 30
0.0
 10
-448.9989
 20
-254.9018
 30
0.0
 10
-448.9989
 20
-254.9018
 30
0.0
 10
-448.9989
 20
-252.3617
 30
0.0
 10
-448.9989
 20
-252.3617
 30
0.0
 10
-448.9989
 20
-252.3617
 30
0.0
 10
-448.9989
 20
-252.3617
 30
0.0
 10
-460.1151
 20
-252.3617
 30
0.0
 10
-460.1151
 20
-252.3617
 30
0.0
 10
-460.1151
 20
-252.3617
 30
0.0
 10
-460.1151
 20
-252.3617
 30
0.0
 10
-460.1151
 20
-254.9018
 30
0.0
 10
-460.1151
 20
-254.9018
 30
0.0
 10
-460.1151
 20
-254.9018
 30
0.0
 10
-460.1151
 20
-254.9018
 30
0.0
 10
-471.1303
 20
-254.9018
 30
0.0
 10
-471.1303
 20
-254.9018
 30
0.0
 10
-471.1303
 20
-254.9018
 30
0.0
 10
-471.1303
 20
-254.9018
 30
0.0
 10
-471.1303
 20
-252.3617
 30
0.0
 10
-471.1303
 20
-252.3617
 30
0.0
 10
-471.1303
 20
-252.3617
 30
0.0
 10
-471.1303
 20
-252.3617
 30
0.0
 10
-484.7867
 20
-252.3617
 30
0.0
 10
-484.7867
 20
-252.3617
 30
0.0
 10
-484.7867
 20
-252.3617
 30
0.0
 10
-484.7867
 20
-252.3617
 30
0.0
 10
-484.7867
 20
-258.7624
 30
0.0
 10
-484.7867
 20
-258.7624
 30
0.0
 10
-484.7867
 20
-258.7624
 30
0.0
 10
-484.7867
 20
-258.7624
 30
0.0
 10
-482.2466
 20
-258.7624
 30
0.0
 10
-482.2466
 20
-258.7624
 30
0.0
 10
-482.2466
 20
-258.7624
 30
0.0
 10
-482.2466
 20
-258.7624
 30
0.0
 10
-482.2466
 20
-262.5218
 30
0.0
 10
-482.2466
 20
-262.5218
 30
0.0
 10
-482.2466
 20
-262.5218
 30
0.0
 10
-482.2466
 20
-262.5218
 30
0.0
 10
-484.7867
 20
-262.5218
 30
0.0
 10
-484.7867
 20
-262.5218
 30
0.0
 10
-484.7867
 20
-262.5218
 30
0.0
 10
-484.7867
 20
-262.5218
 30
0.0
 10
-484.7867
 20
-266.3824
 30
0.0
 10
-484.7867
 20
-266.3824
 30
0.0
 10
-484.7867
 20
-266.3824
 30
0.0
 10
-484.7867
 20
-266.3824
 30
0.0
 10
-482.2466
 20
-266.3824
 30
0.0
 10
-482.2466
 20
-266.3824
 30
0.0
 10
-482.2466
 20
-266.3824
 30
0.0
 10
-482.2466
 20
-266.3824
 30
0.0
 10
-482.2466
 20
-270.1418
 30
0.0
 10
-482.2466
 20
-270.1418
 30
0.0
 10
-482.2466
 20
-270.1418
 30
0.0
 10
-482.2466
 20
-270.1418
 30
0.0
 10
-484.7867
 20
-270.1418
 30
0.0
 10
-484.7867
 20
-270.1418
 30
0.0
 10
-484.7867
 20
-270.1418
 30
0.0
 10
-484.7867
 20
-270.1418
 30
0.0
 10
-484.7867
 20
-274.0024
 30
0.0
 10
-484.7867
 20
-274.0024
 30
0.0
 10
-484.7867
 20
-274.0024
 30
0.0
 10
-484.7867
 20
-274.0024
 30
0.0
 10
-482.2466
 20
-274.0024
 30
0.0
 10
-482.2466
 20
-274.0024
 30
0.0
 10
-482.2466
 20
-274.0024
 30
0.0
 10
-482.2466
 20
-274.0024
 30
0.0
 10
-482.2466
 20
-277.8125
 30
0.0
 10
-482.2466
 20
-277.8125
 30
0.0
 10
-482.2466
 20
-277.8125
 30
0.0
 10
-482.2466
 20
-277.8125
 30
0.0
 10
-404.7867
 20
-277.8125
 30
0.0
 10
-404.7867
 20
-277.8125
 30
0.0
  0
SPLINE
  5
61
330
1F
100
AcDbEntity
  8
Layer 1
 62
     3
370
     9
100
AcDbSpline
210
0.0
220
0.0
230
1.0
 70
    11
 71
     3
 72
    20
 73
    16
 74
     0
 42
0.0000000001
 43
0.0000000001
 40
0.0
 40
0.0
 40
0.0
 40
0.0
 40
0.2
 40
0.2
 40
0.2
 40
0.2
 40
0.4
 40
0.4
 40
0.4
 40
0.4
 40
0.6
 40
0.6
 40
0.6
 40
0.6
 40
1.0
 40
1.0
 40
1.0
 40
1.0
 10
-404.7359
 20
-262.9957
 30
0.0
 10
-404.7359
 20
-262.9957
 30
0.0
 10
-402.2465
 20
-262.9957
 30
0.0
 10
-402.2465
 20
-262.9957
 30
0.0
 10
-402.2465
 20
-262.9957
 30
0.0
 10
-402.2465
 20
-262.9957
 30
0.0
 10
-402.2465
 20
-270.9885
 30
0.0
 10
-402.2465
 20
-270.9885
 30
0.0
 10
-402.2465
 20
-270.9885
 30
0.0
 10
-402.2465
 20
-270.9885
 30
0.0
 10
-404.7359
 20
-270.9885
 30
0.0
 10
-404.7359
 20
-270.9885
 30
0.0
 10
-404.7359
 20
-270.9885
 30
0.0
 10
-404.7359
 20
-270.9885
 30
0.0
 10
-404.7359
 20
-262.9957
 30
0.0
 10
-404.7359
 20
-262.9957
 30
0.0
  0
SPLINE
  5
62
330
1F
100
AcDbEntity
  8
Layer 1
 62
     1
370
     9
100
AcDbSpline
210
0.0
220
0.0
230
1.0
 70
     8
 71
     3
 72
   164
 73
   160
 74
     0
 42
0.0000000001
 43
0.0000000001
 40
0.0
 40
0.0
 40
0.0
 40
0.0
 40
0.024390243902439
 40
0.024390243902439
 40
0.024390243902439
 40
0.024390243902439
 40
0.0487804878048781
 40
0.0487804878048781
 40
0.0487804878048781
 40
0.0487804878048781
 40
0.0731707317073171
 40
0.0731707317073171
 40
0.0731707317073171
 40
0.0731707317073171
 40
0.0975609756097561
 40
0.0975609756097561
 40
0.0975609756097561
 40
0.0975609756097561
 40
0.1219512195121951
 40
0.1219512195121951
 40
0.1219512195121951
 40
0.1219512195121951
 40
0.1463414634146341
 40
0.1463414634146341
 40
0.1463414634146341
 40
0.1463414634146341
 40
0.1707317073170732
 40
0.1707317073170732
 40
0.1707317073170732
 40
0.1707317073170732
 40
0.1951219512195122
 40
0.1951219512195122
 40
0.1951219512195122
 40
0.1951219512195122
 40
0.2195121951219512
 40
0.2195121951219512
 40
0.2195121951219512
 40
0.2195121951219512
 40
0.2439024390243902
 40
0.2439024390243902
 40
0.2439024390243902
 40
0.2439024390243902
 40
0.2682926829268293
 40
0.2682926829268293
 40
0.2682926829268293
 40
0.2682926829268293
 40
0.2926829268292683
 40
0.2926829268292683
 40
0.2926829268292683
 40
0.2926829268292683
 40
0.3170731707317073
 40
0.3170731707317073
 40
0.3170731707317073
 40
0.3170731707317073
 40
0.3414634146341464
 40
0.3414634146341464
 40
0.3414634146341464
 40
0.3414634146341464
 40
0.3658536585365854
 40
0.3658536585365854
 40
0.3658536585365854
 40
0.3658536585365854
 40
0.3902439024390244
 40
0.3902439024390244
 40
0.3902439024390244
 40
0.3902439024390244
 40
0.4146341463414634
 40
0.4146341463414634
 40
0.4146341463414634
 40
0.4146341463414634
 40
0.4390243902439024
 40
0.4390243902439024
 40
0.4390243902439024
 40
0.4390243902439024
 40
0.4634146341463415
 40
0.4634146341463415
 40
0.4634146341463415
 40
0.4634146341463415
 40
0.4878048780487805
 40
0.4878048780487805
 40
0.4878048780487805
 40
0.4878048780487805
 40
0.5121951219512195
 40
0.5121951219512195
 40
0.5121951219512195
 40
0.5121951219512195
 40
0.5365853658536586
 40
0.5365853658536586
 40
0.5365853658536586
 40
0.5365853658536586
 40
0.5609756097560976
 40
0.5609756097560976
 40
0.5609756097560976
 40
0.5609756097560976
 40
0.5853658536585366
 40
0.5853658536585366
 40
0.5853658536585366
 40
0.5853658536585366
 40
0.6097560975609756
 40
0.6097560975609756
 40
0.6097560975609756
 40
0.6097560975609756
 40
0.6341463414634146
 40
0.6341463414634146
 40
0.6341463414634146
 40
0.6341463414634146
 40
0.6585365853658537
 40
0.6585365853658537
 40
0.6585365853658537
 40
0.6585365853658537
 40
0.6829268292682927
 40
0.6829268292682927
 40
0.6829268292682927
 40
0.6829268292682927
 40
0.7073170731707317
 40
0.7073170731707317
 40
0.7073170731707317
 40
0.7073170731707317
 40
0.7317073170731707
 40
0.7317073170731707
 40
0.7317073170731707
 40
0.7317073170731707
 40
0.7560975609756098
 40
0.7560975609756098
 40
0.7560975609756098
 40
0.7560975609756098
 40
0.7804878048780488
 40
0.7804878048780488
 40
0.7804878048780488
 40
0.7804878048780488
 40
0.8048780487804879
 40
0.8048780487804879
 40
0.8048780487804879
 40
0.8048780487804879
 40
0.8292682926829268
 40
0.8292682926829268
 40
0.8292682926829268
 40
0.8292682926829268
 40
0.8536585365853658
 40
0.8536585365853658
 40
0.8536585365853658
 40
0.8536585365853658
 40
0.8780487804878049
 40
0.8780487804878049
 40
0.8780487804878049
 40
0.8780487804878049
 40
0.9024390243902439
 40
0.9024390243902439
 40
0.9024390243902439
 40
0.9024390243902439
 40
0.926829268292683
 40
0.926829268292683
 40
0.926829268292683
 40
0.926829268292683
 40
0.9512195121951219
 40
0.9512195121951219
 40
0.9512195121951219
 40
0.9512195121951219
 40
1.0
 40
1.0
 40
1.0
 40
1.0
 10
-382.4772
 20
-266.6963
 30
0.0
 10
-382.4772
 20
-266.6963
 30
0.0
 10
-382.4772
 20
-266.6963
 30
0.0
 10
-382.4772
 20
-266.6963
 30
0.0
 10
-382.4772
 20
-266.6963
 30
0.0
 10
-382.4772
 20
-266.6963
 30
0.0
 10
-384.127
 20
-267.3149
 30
0.0
 10
-384.127
 20
-267.3149
 30
0.0
 10
-384.127
 20
-267.3149
 30
0.0
 10
-384.127
 20
-267.3149
 30
0.0
 10
-385.6409
 20
-268.1483
 30
0.0
 10
-385.6409
 20
-268.1483
 30
0.0
 10
-385.6409
 20
-268.1483
 30
0.0
 10
-385.6409
 20
-268.1483
 30
0.0
 10
-387.0033
 20
-269.1757
 30
0.0
 10
-387.0033
 20
-269.1757
 30
0.0
 10
-387.0033
 20
-269.1757
 30
0.0
 10
-387.0033
 20
-269.1757
 30
0.0
 10
-388.1987
 20
-270.3763
 30
0.0
 10
-388.1987
 20
-270.3763
 30
0.0
 10
-388.1987
 20
-270.3763
 30
0.0
 10
-388.1987
 20
-270.3763
 30
0.0
 10
-389.2117
 20
-271.7291
 30
0.0
 10
-389.2117
 20
-271.7291
 30
0.0
 10
-389.2117
 20
-271.7291
 30
0.0
 10
-389.2117
 20
-271.7291
 30
0.0
 10
-390.0267
 20
-273.2132
 30
0.0
 10
-390.0267
 20
-273.2132
 30
0.0
 10
-390.0267
 20
-273.2132
 30
0.0
 10
-390.0267
 20
-273.2132
 30
0.0
 10
-390.628
 20
-274.8078
 30
0.0
 10
-390.628
 20
-274.8078
 30
0.0
 10
-390.628
 20
-274.8078
 30
0.0
 10
-390.628
 20
-274.8078
 30
0.0
 10
-391.0003
 20
-276.492
 30
0.0
 10
-391.0003
 20
-276.492
 30
0.0
 10
-391.0003
 20
-276.492
 30
0.0
 10
-391.0003
 20
-276.492
 30
0.0
 10
-391.1277
 20
-278.2449
 30
0.0
 10
-391.1277
 20
-278.2449
 30
0.0
 10
-391.1277
 20
-278.2449
 30
0.0
 10
-391.1277
 20
-278.2449
 30
0.0
 10
-391.1277
 20
-286.8645
 30
0.0
 10
-391.1277
 20
-286.8645
 30
0.0
 10
-391.1277
 20
-286.8645
 30
0.0
 10
-391.1277
 20
-286.8645
 30
0.0
 10
-391.0348
 20
-287.9005
 30
0.0
 10
-391.0348
 20
-287.9005
 30
0.0
 10
-391.0348
 20
-287.9005
 30
0.0
 10
-391.0348
 20
-287.9005
 30
0.0
 10
-390.7667
 20
-288.8757
 30
0.0
 10
-390.7667
 20
-288.8757
 30
0.0
 10
-390.7667
 20
-288.8757
 30
0.0
 10
-390.7667
 20
-288.8757
 30
0.0
 10
-390.3401
 20
-289.7738
 30
0.0
 10
-390.3401
 20
-289.7738
 30
0.0
 10
-390.3401
 20
-289.7738
 30
0.0
 10
-390.3401
 20
-289.7738
 30
0.0
 10
-389.7713
 20
-290.5785
 30
0.0
 10
-389.7713
 20
-290.5785
 30
0.0
 10
-389.7713
 20
-290.5785
 30
0.0
 10
-389.7713
 20
-290.5785
 30
0.0
 10
-389.0768
 20
-291.2735
 30
0.0
 10
-389.0768
 20
-291.2735
 30
0.0
 10
-389.0768
 20
-291.2735
 30
0.0
 10
-389.0768
 20
-291.2735
 30
0.0
 10
-388.2729
 20
-291.8424
 30
0.0
 10
-388.2729
 20
-291.8424
 30
0.0
 10
-388.2729
 20
-291.8424
 30
0.0
 10
-388.2729
 20
-291.8424
 30
0.0
 10
-387.376
 20
-292.269
 30
0.0
 10
-387.376
 20
-292.269
 30
0.0
 10
-387.376
 20
-292.269
 30
0.0
 10
-387.376
 20
-292.269
 30
0.0
 10
-386.4025
 20
-292.5369
 30
0.0
 10
-386.4025
 20
-292.5369
 30
0.0
 10
-386.4025
 20
-292.5369
 30
0.0
 10
-386.4025
 20
-292.5369
 30
0.0
 10
-385.3688
 20
-292.6299
 30
0.0
 10
-385.3688
 20
-292.6299
 30
0.0
 10
-385.3688
 20
-292.6299
 30
0.0
 10
-385.3688
 20
-292.6299
 30
0.0
 10
-384.3332
 20
-292.5369
 30
0.0
 10
-384.3332
 20
-292.5369
 30
0.0
 10
-384.3332
 20
-292.5369
 30
0.0
 10
-384.3332
 20
-292.5369
 30
0.0
 10
-383.3586
 20
-292.269
 30
0.0
 10
-383.3586
 20
-292.269
 30
0.0
 10
-383.3586
 20
-292.269
 30
0.0
 10
-383.3586
 20
-292.269
 30
0.0
 10
-382.4613
 20
-291.8424
 30
0.0
 10
-382.4613
 20
-291.8424
 30
0.0
 10
-382.4613
 20
-291.8424
 30
0.0
 10
-382.4613
 20
-291.8424
 30
0.0
 10
-381.6576
 20
-291.2735
 30
0.0
 10
-381.6576
 20
-291.2735
 30
0.0
 10
-381.6576
 20
-291.2735
 30
0.0
 10
-381.6576
 20
-291.2735
 30
0.0
 10
-380.9637
 20
-290.5785
 30
0.0
 10
-380.9637
 20
-290.5785
 30
0.0
 10
-380.9637
 20
-290.5785
 30
0.0
 10
-380.9637
 20
-290.5785
 30
0.0
 10
-380.3958
 20
-289.7738
 30
0.0
 10
-380.3958
 20
-289.7738
 30
0.0
 10
-380.3958
 20
-289.7738
 30
0.0
 10
-380.3958
 20
-289.7738
 30
0.0
 10
-379.9701
 20
-288.8757
 30
0.0
 10
-379.9701
 20
-288.8757
 30
0.0
 10
-379.9701
 20
-288.8757
 30
0.0
 10
-379.9701
 20
-288.8757
 30
0.0
 10
-379.7028
 20
-287.9005
 30
0.0
 10
-379.7028
 20
-287.9005
 30
0.0
 10
-379.7028
 20
-287.9005
 30
0.0
 10
-379.7028
 20
-287.9005
 30
0.0
 10
-379.6099
 20
-286.8645
 30
0.0
 10
-379.6099
 20
-286.8645
 30
0.0
 10
-379.6099
 20
-286.8645
 30
0.0
 10
-379.6099
 20
-286.8645
 30
0.0
 10
-379.6099
 20
-283.9956
 30
0.0
 10
-379.6099
 20
-283.9956
 30
0.0
 10
-379.6099
 20
-283.9956
 30
0.0
 10
-379.6099
 20
-283.9956
 30
0.0
 10
-379.7028
 20
-282.9602
 30
0.0
 10
-379.7028
 20
-282.9602
 30
0.0
 10
-379.7028
 20
-282.9602
 30
0.0
 10
-379.7028
 20
-282.9602
 30
0.0
 10
-379.9701
 20
-281.9863
 30
0.0
 10
-379.9701
 20
-281.9863
 30
0.0
 10
-379.9701
 20
-281.9863
 30
0.0
 10
-379.9701
 20
-281.9863
 30
0.0
 10
-380.3958
 20
-281.0901
 30
0.0
 10
-380.3958
 20
-281.0901
 30
0.0
 10
-380.3958
 20
-281.0901
 30
0.0
 10
-380.3958
 20
-281.0901
 30
0.0
 10
-380.9637
 20
-280.2878
 30
0.0
 10
-380.9637
 20
-280.2878
 30
0.0
 10
-380.9637
 20
-280.2878
 30
0.0
 10
-380.9637
 20
-280.2878
 30
0.0
 10
-381.6576
 20
-279.5952
 30
0.0
 10
-381.6576
 20
-279.5952
 30
0.0
 10
-381.6576
 20
-279.5952
 30
0.0
 10
-381.6576
 20
-279.5952
 30
0.0
 10
-382.4613
 20
-279.0285
 30
0.0
 10
-382.4613
 20
-279.0285
 30
0.0
 10
-382.4613
 20
-279.0285
 30
0.0
 10
-382.4613
 20
-279.0285
 30
0.0
 10
-383.3586
 20
-278.6039
 30
0.0
 10
-383.3586
 20
-278.6039
 30
0.0
 10
-383.3586
 20
-278.6039
 30
0.0
 10
-383.3586
 20
-278.6039
 30
0.0
 10
-384.3332
 20
-278.3373
 30
0.0
 10
-384.3332
 20
-278.3373
 30
0.0
 10
-384.3332
 20
-278.3373
 30
0.0
 10
-384.3332
 20
-278.3373
 30
0.0
 10
-385.3688
 20
-278.2449
 30
0.0
 10
-385.3688
 20
-278.2449
 30
0.0
 10
-385.3688
 20
-278.2449
 30
0.0
 10
-385.3688
 20
-278.2449
 30
0.0
 10
-391.1277
 20
-278.2449
 30
0.0
 10
-391.1277
 20
-278.2449
 30
0.0
  0
SPLINE
  5
63
330
1F
100
AcDbEntity
  8
Layer 1
 62
     1
370
     9
100
AcDbSpline
210
0.0
220
0.0
230
1.0
 70
    24
 71
     3
 72
     8
 73
     4
 74
     0
 42
0.0000000001
 43
0.0000000001
 40
0.0
 40
0.0
 40
0.0
 40
0.0
 40
1.0
 40
1.0
 40
1.0
 40
1.0
 10
-391.849
 20
-295.8716
 30
0.0
 10
-391.849
 20
-295.8716
 30
0.0
 10
-378.8823
 20
-295.8716
 30
0.0
 10
-378.8823
 20
-295.8716
 30
0.0
  0
SPLINE
  5
64
330
1F
100
AcDbEntity
  8
Layer 1
 62
     5
370
     9
100
AcDbSpline
210
0.0
220
0.0
230
1.0
 70
    11
 71
     3
 72
   284
 73
   280
 74
     0
 42
0.0000000001
 43
0.0000000001
 40
0.0
 40
0.0
 40
0.0
 40
0.0
 40
0.0140845070422535
 40
0.0140845070422535
 40
0.0140845070422535
 40
0.0140845070422535
 40
0.028169014084507
 40
0.028169014084507
 40
0.028169014084507
 40
0.028169014084507
 40
0.0422535211267606
 40
0.0422535211267606
 40
0.0422535211267606
 40
0.0422535211267606
 40
0.0563380281690141
 40
0.0563380281690141
 40
0.0563380281690141
 40
0.0563380281690141
 40
0.0704225352112676
 40
0.0704225352112676
 40
0.0704225352112676
 40
0.0704225352112676
 40
0.0845070422535211
 40
0.0845070422535211
 40
0.0845070422535211
 40
0.0845070422535211
 40
0.0985915492957746
 40
0.0985915492957746
 40
0.0985915492957746
 40
0.0985915492957746
 40
0.1126760563380282
 40
0.1126760563380282
 40
0.1126760563380282
 40
0.1126760563380282
 40
0.1267605633802817
 40
0.1267605633802817
 40
0.1267605633802817
 40
0.1267605633802817
 40
0.1408450704225352
 40
0.1408450704225352
 40
0.1408450704225352
 40
0.1408450704225352
 40
0.1549295774647887
 40
0.1549295774647887
 40
0.1549295774647887
 40
0.1549295774647887
 40
0.1690140845070423
 40
0.1690140845070423
 40
0.1690140845070423
 40
0.1690140845070423
 40
0.1830985915492958
 40
0.1830985915492958
 40
0.1830985915492958
 40
0.1830985915492958
 40
0.1971830985915493
 40
0.1971830985915493
 40
0.1971830985915493
 40
0.1971830985915493
 40
0.2112676056338028
 40
0.2112676056338028
 40
0.2112676056338028
 40
0.2112676056338028
 40
0.2253521126760563
 40
0.2253521126760563
 40
0.2253521126760563
 40
0.2253521126760563
 40
0.2394366197183098
 40
0.2394366197183098
 40
0.2394366197183098
 40
0.2394366197183098
 40
0.2535211267605634
 40
0.2535211267605634
 40
0.2535211267605634
 40
0.2535211267605634
 40
0.2676056338028169
 40
0.2676056338028169
 40
0.2676056338028169
 40
0.2676056338028169
 40
0.2816901408450704
 40
0.2816901408450704
 40
0.2816901408450704
 40
0.2816901408450704
 40
0.2957746478873239
 40
0.2957746478873239
 40
0.2957746478873239
 40
0.2957746478873239
 40
0.3098591549295774
 40
0.3098591549295774
 40
0.3098591549295774
 40
0.3098591549295774
 40
0.323943661971831
 40
0.323943661971831
 40
0.323943661971831
 40
0.323943661971831
 40
0.3380281690140845
 40
0.3380281690140845
 40
0.3380281690140845
 40
0.3380281690140845
 40
0.352112676056338
 40
0.352112676056338
 40
0.352112676056338
 40
0.352112676056338
 40
0.3661971830985916
 40
0.3661971830985916
 40
0.3661971830985916
 40
0.3661971830985916
 40
0.3802816901408451
 40
0.3802816901408451
 40
0.3802816901408451
 40
0.3802816901408451
 40
0.3943661971830986
 40
0.3943661971830986
 40
0.3943661971830986
 40
0.3943661971830986
 40
0.4084507042253521
 40
0.4084507042253521
 40
0.4084507042253521
 40
0.4084507042253521
 40
0.4225352112676056
 40
0.4225352112676056
 40
0.4225352112676056
 40
0.4225352112676056
 40
0.4366197183098591
 40
0.4366197183098591
 40
0.4366197183098591
 40
0.4366197183098591
 40
0.4507042253521127
 40
0.4507042253521127
 40
0.4507042253521127
 40
0.4507042253521127
 40
0.4647887323943662
 40
0.4647887323943662
 40
0.4647887323943662
 40
0.4647887323943662
 40
0.4788732394366197
 40
0.4788732394366197
 40
0.4788732394366197
 40
0.4788732394366197
 40
0.4929577464788732
 40
0.4929577464788732
 40
0.4929577464788732
 40
0.4929577464788732
 40
0.5070422535211268
 40
0.5070422535211268
 40
0.5070422535211268
 40
0.5070422535211268
 40
0.5211267605633803
 40
0.5211267605633803
 40
0.5211267605633803
 40
0.5211267605633803
 40
0.5352112676056338
 40
0.5352112676056338
 40
0.5352112676056338
 40
0.5352112676056338
 40
0.5492957746478874
 40
0.5492957746478874
 40
0.5492957746478874
 40
0.5492957746478874
 40
0.5633802816901409
 40
0.5633802816901409
 40
0.5633802816901409
 40
0.5633802816901409
 40
0.5774647887323944
 40
0.5774647887323944
 40
0.5774647887323944
 40
0.5774647887323944
 40
0.5915492957746479
 40
0.5915492957746479
 40
0.5915492957746479
 40
0.5915492957746479
 40
0.6056338028169014
 40
0.6056338028169014
 40
0.6056338028169014
 40
0.6056338028169014
 40
0.6197183098591549
 40
0.6197183098591549
 40
0.6197183098591549
 40
0.6197183098591549
 40
0.6338028169014085
 40
0.6338028169014085
 40
0.6338028169014085
 40
0.6338028169014085
 40
0.647887323943662
 40
0.647887323943662
 40
0.647887323943662
 40
0.647887323943662
 40
0.6619718309859155
 40
0.6619718309859155
 40
0.6619718309859155
 40
0.6619718309859155
 40
0.676056338028169
 40
0.676056338028169
 40
0.676056338028169
 40
0.676056338028169
 40
0.6901408450704225
 40
0.6901408450704225
 40
0.6901408450704225
 40
0.6901408450704225
 40
0.704225352112676
 40
0.704225352112676
 40
0.704225352112676
 40
0.704225352112676
 40
0.7183098591549296
 40
0.7183098591549296
 40
0.7183098591549296
 40
0.7183098591549296
 40
0.7323943661971831
 40
0.7323943661971831
 40
0.7323943661971831
 40
0.7323943661971831
 40
0.7464788732394366
 40
0.7464788732394366
 40
0.7464788732394366
 40
0.7464788732394366
 40
0.7605633802816901
 40
0.7605633802816901
 40
0.7605633802816901
 40
0.7605633802816901
 40
0.7746478873239436
 40
0.7746478873239436
 40
0.7746478873239436
 40
0.7746478873239436
 40
0.7887323943661971
 40
0.7887323943661971
 40
0.7887323943661971
 40
0.7887323943661971
 40
0.8028169014084507
 40
0.8028169014084507
 40
0.8028169014084507
 40
0.8028169014084507
 40
0.8169014084507042
 40
0.8169014084507042
 40
0.8169014084507042
 40
0.8169014084507042
 40
0.8309859154929577
 40
0.8309859154929577
 40
0.8309859154929577
 40
0.8309859154929577
 40
0.8450704225352113
 40
0.8450704225352113
 40
0.8450704225352113
 40
0.8450704225352113
 40
0.8591549295774648
 40
0.8591549295774648
 40
0.8591549295774648
 40
0.8591549295774648
 40
0.8732394366197183
 40
0.8732394366197183
 40
0.8732394366197183
 40
0.8732394366197183
 40
0.8873239436619719
 40
0.8873239436619719
 40
0.8873239436619719
 40
0.8873239436619719
 40
0.9014084507042254
 40
0.9014084507042254
 40
0.9014084507042254
 40
0.9014084507042254
 40
0.9154929577464789
 40
0.9154929577464789
 40
0.9154929577464789
 40
0.9154929577464789
 40
0.9295774647887324
 40
0.9295774647887324
 40
0.9295774647887324
 40
0.9295774647887324
 40
0.9436619718309859
 40
0.9436619718309859
 40
0.9436619718309859
 40
0.9436619718309859
 40
0.9577464788732394
 40
0.9577464788732394
 40
0.9577464788732394
 40
0.9577464788732394
 40
0.971830985915493
 40
0.971830985915493
 40
0.971830985915493
 40
0.971830985915493
 40
1.0
 40
1.0
 40
1.0
 40
1.0
 10
-404.7359
 20
226.9621
 30
0.0
 10
-404.7359
 20
226.9621
 30
0.0
 10
-404.7359
 20
239.2894
 30
0.0
 10
-404.7359
 20
239.2894
 30
0.0
 10
-404.7359
 20
239.2894
 30
0.0
 10
-404.7359
 20
239.2894
 30
0.0
 10
-407.2759
 20
239.2894
 30
0.0
 10
-407.2759
 20
239.2894
 30
0.0
 10
-407.2759
 20
239.2894
 30
0.0
 10
-407.2759
 20
239.2894
 30
0.0
 10
-407.2759
 20
251.5156
 30
0.0
 10
-407.2759
 20
251.5156
 30
0.0
 10
-407.2759
 20
251.5156
 30
0.0
 10
-407.2759
 20
251.5156
 30
0.0
 10
-404.7359
 20
251.5156
 30
0.0
 10
-404.7359
 20
251.5156
 30
0.0
 10
-404.7359
 20
251.5156
 30
0.0
 10
-404.7359
 20
251.5156
 30
0.0
 10
-404.7359
 20
252.3621
 30
0.0
 10
-404.7359
 20
252.3621
 30
0.0
 10
-404.7359
 20
252.3621
 30
0.0
 10
-404.7359
 20
252.3621
 30
0.0
 10
-364.7359
 20
252.3621
 30
0.0
 10
-364.7359
 20
252.3621
 30
0.0
 10
-364.7359
 20
252.3621
 30
0.0
 10
-364.7359
 20
252.3621
 30
0.0
 10
-364.7359
 20
260.456
 30
0.0
 10
-364.7359
 20
260.456
 30
0.0
 10
-364.7359
 20
260.456
 30
0.0
 10
-364.7359
 20
260.456
 30
0.0
 10
-367.2759
 20
260.456
 30
0.0
 10
-367.2759
 20
260.456
 30
0.0
 10
-367.2759
 20
260.456
 30
0.0
 10
-367.2759
 20
260.456
 30
0.0
 10
-367.2759
 20
268.4486
 30
0.0
 10
-367.2759
 20
268.4486
 30
0.0
 10
-367.2759
 20
268.4486
 30
0.0
 10
-367.2759
 20
268.4486
 30
0.0
 10
-364.7359
 20
268.4486
 30
0.0
 10
-364.7359
 20
268.4486
 30
0.0
 10
-364.7359
 20
268.4486
 30
0.0
 10
-364.7359
 20
268.4486
 30
0.0
 10
-364.7359
 20
276.5425
 30
0.0
 10
-364.7359
 20
276.5425
 30
0.0
 10
-364.7359
 20
276.5425
 30
0.0
 10
-364.7359
 20
276.5425
 30
0.0
 10
-367.2759
 20
276.5425
 30
0.0
 10
-367.2759
 20
276.5425
 30
0.0
 10
-367.2759
 20
276.5425
 30
0.0
 10
-367.2759
 20
276.5425
 30
0.0
 10
-367.2759
 20
284.5356
 30
0.0
 10
-367.2759
 20
284.5356
 30
0.0
 10
-367.2759
 20
284.5356
 30
0.0
 10
-367.2759
 20
284.5356
 30
0.0
 10
-364.7359
 20
284.5356
 30
0.0
 10
-364.7359
 20
284.5356
 30
0.0
 10
-364.7359
 20
284.5356
 30
0.0
 10
-364.7359
 20
284.5356
 30
0.0
 10
-364.7359
 20
292.6294
 30
0.0
 10
-364.7359
 20
292.6294
 30
0.0
 10
-364.7359
 20
292.6294
 30
0.0
 10
-364.7359
 20
292.6294
 30
0.0
 10
-367.2759
 20
292.6294
 30
0.0
 10
-367.2759
 20
292.6294
 30
0.0
 10
-367.2759
 20
292.6294
 30
0.0
 10
-367.2759
 20
292.6294
 30
0.0
 10
-367.2759
 20
303.2129
 30
0.0
 10
-367.2759
 20
303.2129
 30
0.0
 10
-367.2759
 20
303.2129
 30
0.0
 10
-367.2759
 20
303.2129
 30
0.0
 10
-373.5699
 20
303.2129
 30
0.0
 10
-373.5699
 20
303.2129
 30
0.0
 10
-373.5699
 20
303.2129
 30
0.0
 10
-373.5699
 20
303.2129
 30
0.0
 10
-373.5699
 20
300.6725
 30
0.0
 10
-373.5699
 20
300.6725
 30
0.0
 10
-373.5699
 20
300.6725
 30
0.0
 10
-373.5699
 20
300.6725
 30
0.0
 10
-379.7625
 20
300.6725
 30
0.0
 10
-379.7625
 20
300.6725
 30
0.0
 10
-379.7625
 20
300.6725
 30
0.0
 10
-379.7625
 20
300.6725
 30
0.0
 10
-379.7625
 20
303.2129
 30
0.0
 10
-379.7625
 20
303.2129
 30
0.0
 10
-379.7625
 20
303.2129
 30
0.0
 10
-379.7625
 20
303.2129
 30
0.0
 10
-386.0566
 20
303.2129
 30
0.0
 10
-386.0566
 20
303.2129
 30
0.0
 10
-386.0566
 20
303.2129
 30
0.0
 10
-386.0566
 20
303.2129
 30
0.0
 10
-386.0566
 20
300.6725
 30
0.0
 10
-386.0566
 20
300.6725
 30
0.0
 10
-386.0566
 20
300.6725
 30
0.0
 10
-386.0566
 20
300.6725
 30
0.0
 10
-392.2492
 20
300.6725
 30
0.0
 10
-392.2492
 20
300.6725
 30
0.0
 10
-392.2492
 20
300.6725
 30
0.0
 10
-392.2492
 20
300.6725
 30
0.0
 10
-392.2492
 20
303.2129
 30
0.0
 10
-392.2492
 20
303.2129
 30
0.0
 10
-392.2492
 20
303.2129
 30
0.0
 10
-392.2492
 20
303.2129
 30
0.0
 10
-398.5433
 20
303.2129
 30
0.0
 10
-398.5433
 20
303.2129
 30
0.0
 10
-398.5433
 20
303.2129
 30
0.0
 10
-398.5433
 20
303.2129
 30
0.0
 10
-398.5433
 20
300.6725
 30
0.0
 10
-398.5433
 20
300.6725
 30
0.0
 10
-398.5433
 20
300.6725
 30
0.0
 10
-398.5433
 20
300.6725
 30
0.0
 10
-404.7865
 20
300.6725
 30
0.0
 10
-404.7865
 20
300.6725
 30
0.0
 10
-404.7865
 20
300.6725
 30
0.0
 10
-404.7865
 20
300.6725
 30
0.0
 10
-404.7865
 20
288.396
 30
0.0
 10
-404.7865
 20
288.396
 30
0.0
 10
-404.7865
 20
288.396
 30
0.0
 10
-404.7865
 20
288.396
 30
0.0
 10
-407.2759
 20
288.396
 30
0.0
 10
-407.2759
 20
288.396
 30
0.0
 10
-407.2759
 20
288.396
 30
0.0
 10
-407.2759
 20
288.396
 30
0.0
 10
-407.2759
 20
300.6725
 30
0.0
 10
-407.2759
 20
300.6725
 30
0.0
 10
-407.2759
 20
300.6725
 30
0.0
 10
-407.2759
 20
300.6725
 30
0.0
 10
-413.5193
 20
300.6725
 30
0.0
 10
-413.5193
 20
300.6725
 30
0.0
 10
-413.5193
 20
300.6725
 30
0.0
 10
-413.5193
 20
300.6725
 30
0.0
 10
-413.5193
 20
303.2129
 30
0.0
 10
-413.5193
 20
303.2129
 30
0.0
 10
-413.5193
 20
303.2129
 30
0.0
 10
-413.5193
 20
303.2129
 30
0.0
 10
-419.8132
 20
303.2129
 30
0.0
 10
-419.8132
 20
303.2129
 30
0.0
 10
-419.8132
 20
303.2129
 30
0.0
 10
-419.8132
 20
303.2129
 30
0.0
 10
-419.8132
 20
300.6725
 30
0.0
 10
-419.8132
 20
300.6725
 30
0.0
 10
-419.8132
 20
300.6725
 30
0.0
 10
-419.8132
 20
300.6725
 30
0.0
 10
-426.006
 20
300.6725
 30
0.0
 10
-426.006
 20
300.6725
 30
0.0
 10
-426.006
 20
300.6725
 30
0.0
 10
-426.006
 20
300.6725
 30
0.0
 10
-426.006
 20
303.2129
 30
0.0
 10
-426.006
 20
303.2129
 30
0.0
 10
-426.006
 20
303.2129
 30
0.0
 10
-426.006
 20
303.2129
 30
0.0
 10
-432.2999
 20
303.2129
 30
0.0
 10
-432.2999
 20
303.2129
 30
0.0
 10
-432.2999
 20
303.2129
 30
0.0
 10
-432.2999
 20
303.2129
 30
0.0
 10
-432.2999
 20
300.6725
 30
0.0
 10
-432.2999
 20
300.6725
 30
0.0
 10
-432.2999
 20
300.6725
 30
0.0
 10
-432.2999
 20
300.6725
 30
0.0
 10
-438.4927
 20
300.6725
 30
0.0
 10
-438.4927
 20
300.6725
 30
0.0
 10
-438.4927
 20
300.6725
 30
0.0
 10
-438.4927
 20
300.6725
 30
0.0
 10
-438.4927
 20
303.2129
 30
0.0
 10
-438.4927
 20
303.2129
 30
0.0
 10
-438.4927
 20
303.2129
 30
0.0
 10
-438.4927
 20
303.2129
 30
0.0
 10
-444.7865
 20
303.2129
 30
0.0
 10
-444.7865
 20
303.2129
 30
0.0
 10
-444.7865
 20
303.2129
 30
0.0
 10
-444.7865
 20
303.2129
 30
0.0
 10
-444.7865
 20
244.7925
 30
0.0
 10
-444.7865
 20
244.7925
 30
0.0
 10
-444.7865
 20
244.7925
 30
0.0
 10
-444.7865
 20
244.7925
 30
0.0
 10
-447.2759
 20
244.7925
 30
0.0
 10
-447.2759
 20
244.7925
 30
0.0
 10
-447.2759
 20
244.7925
 30
0.0
 10
-447.2759
 20
244.7925
 30
0.0
 10
-447.2759
 20
303.2129
 30
0.0
 10
-447.2759
 20
303.2129
 30
0.0
 10
-447.2759
 20
303.2129
 30
0.0
 10
-447.2759
 20
303.2129
 30
0.0
 10
-453.1465
 20
303.2129
 30
0.0
 10
-453.1465
 20
303.2129
 30
0.0
 10
-453.1465
 20
303.2129
 30
0.0
 10
-453.1465
 20
303.2129
 30
0.0
 10
-453.1465
 20
300.6725
 30
0.0
 10
-453.1465
 20
300.6725
 30
0.0
 10
-453.1465
 20
300.6725
 30
0.0
 10
-453.1465
 20
300.6725
 30
0.0
 10
-458.916
 20
300.6725
 30
0.0
 10
-458.916
 20
300.6725
 30
0.0
 10
-458.916
 20
300.6725
 30
0.0
 10
-458.916
 20
300.6725
 30
0.0
 10
-458.916
 20
303.2129
 30
0.0
 10
-458.916
 20
303.2129
 30
0.0
 10
-458.916
 20
303.2129
 30
0.0
 10
-458.916
 20
303.2129
 30
0.0
 10
-464.7866
 20
303.2129
 30
0.0
 10
-464.7866
 20
303.2129
 30
0.0
 10
-464.7866
 20
303.2129
 30
0.0
 10
-464.7866
 20
303.2129
 30
0.0
 10
-464.7866
 20
300.6725
 30
0.0
 10
-464.7866
 20
300.6725
 30
0.0
 10
-464.7866
 20
300.6725
 30
0.0
 10
-464.7866
 20
300.6725
 30
0.0
 10
-470.5559
 20
300.6725
 30
0.0
 10
-470.5559
 20
300.6725
 30
0.0
 10
-470.5559
 20
300.6725
 30
0.0
 10
-470.5559
 20
300.6725
 30
0.0
 10
-470.5559
 20
303.2129
 30
0.0
 10
-470.5559
 20
303.2129
 30
0.0
 10
-470.5559
 20
303.2129
 30
0.0
 10
-470.5559
 20
303.2129
 30
0.0
 10
-476.4265
 20
303.2129
 30
0.0
 10
-476.4265
 20
303.2129
 30
0.0
 10
-476.4265
 20
303.2129
 30
0.0
 10
-476.4265
 20
303.2129
 30
0.0
 10
-476.4265
 20
300.6725
 30
0.0
 10
-476.4265
 20
300.6725
 30
0.0
 10
-476.4265
 20
300.6725
 30
0.0
 10
-476.4265
 20
300.6725
 30
0.0
 10
-484.7867
 20
300.6725
 30
0.0
 10
-484.7867
 20
300.6725
 30
0.0
 10
-484.7867
 20
300.6725
 30
0.0
 10
-484.7867
 20
300.6725
 30
0.0
 10
-484.7867
 20
281.9956
 30
0.0
 10
-484.7867
 20
281.9956
 30
0.0
 10
-484.7867
 20
281.9956
 30
0.0
 10
-484.7867
 20
281.9956
 30
0.0
 10
-482.2466
 20
281.9956
 30
0.0
 10
-482.2466
 20
281.9956
 30
0.0
 10
-482.2466
 20
281.9956
 30
0.0
 10
-482.2466
 20
281.9956
 30
0.0
 10
-482.2466
 20
263.4194
 30
0.0
 10
-482.2466
 20
263.4194
 30
0.0
 10
-482.2466
 20
263.4194
 30
0.0
 10
-482.2466
 20
263.4194
 30
0.0
 10
-484.7867
 20
263.4194
 30
0.0
 10
-484.7867
 20
263.4194
 30
0.0
 10
-484.7867
 20
263.4194
 30
0.0
 10
-484.7867
 20
263.4194
 30
0.0
 10
-484.7867
 20
244.7421
 30
0.0
 10
-484.7867
 20
244.7421
 30
0.0
 10
-484.7867
 20
244.7421
 30
0.0
 10
-484.7867
 20
244.7421
 30
0.0
 10
-482.2466
 20
244.7421
 30
0.0
 10
-482.2466
 20
244.7421
 30
0.0
 10
-482.2466
 20
244.7421
 30
0.0
 10
-482.2466
 20
244.7421
 30
0.0
 10
-482.2466
 20
226.166
 30
0.0
 10
-482.2466
 20
226.166
 30
0.0
 10
-482.2466
 20
226.166
 30
0.0
 10
-482.2466
 20
226.166
 30
0.0
 10
-484.7867
 20
226.166
 30
0.0
 10
-484.7867
 20
226.166
 30
0.0
 10
-484.7867
 20
226.166
 30
0.0
 10
-484.7867
 20
226.166
 30
0.0
 10
-484.7867
 20
207.4886
 30
0.0
 10
-484.7867
 20
207.4886
 30
0.0
 10
-484.7867
 20
207.4886
 30
0.0
 10
-484.7867
 20
207.4886
 30
0.0
 10
-482.2466
 20
207.4886
 30
0.0
 10
-482.2466
 20
207.4886
 30
0.0
 10
-482.2466
 20
207.4886
 30
0.0
 10
-482.2466
 20
207.4886
 30
0.0
 10
-482.2466
 20
188.8621
 30
0.0
 10
-482.2466
 20
188.8621
 30
0.0
 10
-482.2466
 20
188.8621
 30
0.0
 10
-482.2466
 20
188.8621
 30
0.0
 10
-444.7358
 20
188.8621
 30
0.0
 10
-444.7358
 20
188.8621
 30
0.0
 10
-444.7358
 20
188.8621
 30
0.0
 10
-444.7358
 20
188.8621
 30
0.0
 10
-444.7358
 20
226.9621
 30
0.0
 10
-444.7358
 20
226.9621
 30
0.0
 10
-444.7358
 20
226.9621
 30
0.0
 10
-444.7358
 20
226.9621
 30
0.0
 10
-404.7359
 20
226.9621
 30
0.0
 10
-404.7359
 20
226.9621
 30
0.0
  0
SPLINE
  5
65
330
1F
100
AcDbEntity
  8
Layer 1
 62
     3
370
     9
100
AcDbSpline
210
0.0
220
0.0
230
1.0
 70
    11
 71
     3
 72
    20
 73
    16
 74
     0
 42
0.0000000001
 43
0.0000000001
 40
0.0
 40
0.0
 40
0.0
 40
0.0
 40
0.2
 40
0.2
 40
0.2
 40
0.2
 40
0.4
 40
0.4
 40
0.4
 40
0.4
 40
0.6
 40
0.6
 40
0.6
 40
0.6
 40
1.0
 40
1.0
 40
1.0
 40
1.0
 10
-404.7865
 20
263.8425
 30
0.0
 10
-404.7865
 20
263.8425
 30
0.0
 10
-407.2759
 20
263.8425
 30
0.0
 10
-407.2759
 20
263.8425
 30
0.0
 10
-407.2759
 20
263.8425
 30
0.0
 10
-407.2759
 20
263.8425
 30
0.0
 10
-407.2759
 20
276.0686
 30
0.0
 10
-407.2759
 20
276.0686
 30
0.0
 10
-407.2759
 20
276.0686
 30
0.0
 10
-407.2759
 20
276.0686
 30
0.0
 10
-404.7865
 20
276.0686
 30
0.0
 10
-404.7865
 20
276.0686
 30
0.0
 10
-404.7865
 20
276.0686
 30
0.0
 10
-404.7865
 20
276.0686
 30
0.0
 10
-404.7865
 20
263.8425
 30
0.0
 10
-404.7865
 20
263.8425
 30
0.0
  0
SPLINE
  5
66
330
1F
100
AcDbEntity
  8
Layer 1
 62
     1
370
     9
100
AcDbSpline
210
0.0
220
0.0
230
1.0
 70
     8
 71
     3
 72
   124
 73
   120
 74
     0
 42
0.0000000001
 43
0.0000000001
 40
0.0
 40
0.0
 40
0.0
 40
0.0
 40
0.032258064516129
 40
0.032258064516129
 40
0.032258064516129
 40
0.032258064516129
 40
0.0645161290322581
 40
0.0645161290322581
 40
0.0645161290322581
 40
0.0645161290322581
 40
0.0967741935483871
 40
0.0967741935483871
 40
0.0967741935483871
 40
0.0967741935483871
 40
0.1290322580645161
 40
0.1290322580645161
 40
0.1290322580645161
 40
0.1290322580645161
 40
0.1612903225806452
 40
0.1612903225806452
 40
0.1612903225806452
 40
0.1612903225806452
 40
0.1935483870967742
 40
0.1935483870967742
 40
0.1935483870967742
 40
0.1935483870967742
 40
0.2258064516129032
 40
0.2258064516129032
 40
0.2258064516129032
 40
0.2258064516129032
 40
0.2580645161290323
 40
0.2580645161290323
 40
0.2580645161290323
 40
0.2580645161290323
 40
0.2903225806451613
 40
0.2903225806451613
 40
0.2903225806451613
 40
0.2903225806451613
 40
0.3225806451612903
 40
0.3225806451612903
 40
0.3225806451612903
 40
0.3225806451612903
 40
0.3548387096774194
 40
0.3548387096774194
 40
0.3548387096774194
 40
0.3548387096774194
 40
0.3870967741935484
 40
0.3870967741935484
 40
0.3870967741935484
 40
0.3870967741935484
 40
0.4193548387096774
 40
0.4193548387096774
 40
0.4193548387096774
 40
0.4193548387096774
 40
0.4516129032258064
 40
0.4516129032258064
 40
0.4516129032258064
 40
0.4516129032258064
 40
0.4838709677419355
 40
0.4838709677419355
 40
0.4838709677419355
 40
0.4838709677419355
 40
0.5161290322580645
 40
0.5161290322580645
 40
0.5161290322580645
 40
0.5161290322580645
 40
0.5483870967741935
 40
0.5483870967741935
 40
0.5483870967741935
 40
0.5483870967741935
 40
0.5806451612903226
 40
0.5806451612903226
 40
0.5806451612903226
 40
0.5806451612903226
 40
0.6129032258064516
 40
0.6129032258064516
 40
0.6129032258064516
 40
0.6129032258064516
 40
0.6451612903225806
 40
0.6451612903225806
 40
0.6451612903225806
 40
0.6451612903225806
 40
0.6774193548387096
 40
0.6774193548387096
 40
0.6774193548387096
 40
0.6774193548387096
 40
0.7096774193548387
 40
0.7096774193548387
 40
0.7096774193548387
 40
0.7096774193548387
 40
0.7419354838709677
 40
0.7419354838709677
 40
0.7419354838709677
 40
0.7419354838709677
 40
0.7741935483870968
 40
0.7741935483870968
 40
0.7741935483870968
 40
0.7741935483870968
 40
0.8064516129032258
 40
0.8064516129032258
 40
0.8064516129032258
 40
0.8064516129032258
 40
0.8387096774193549
 40
0.8387096774193549
 40
0.8387096774193549
 40
0.8387096774193549
 40
0.8709677419354839
 40
0.8709677419354839
 40
0.8709677419354839
 40
0.8709677419354839
 40
0.9032258064516129
 40
0.9032258064516129
 40
0.9032258064516129
 40
0.9032258064516129
 40
0.9354838709677419
 40
0.9354838709677419
 40
0.9354838709677419
 40
0.9354838709677419
 40
1.0
 40
1.0
 40
1.0
 40
1.0
 10
-452.6457
 20
220.1033
 30
0.0
 10
-452.6457
 20
220.1033
 30
0.0
 10
-475.6811
 20
220.1033
 30
0.0
 10
-475.6811
 20
220.1033
 30
0.0
 10
-475.6811
 20
220.1033
 30
0.0
 10
-475.6811
 20
220.1033
 30
0.0
 10
-454.3956
 20
254.3703
 30
0.0
 10
-454.3956
 20
254.3703
 30
0.0
 10
-454.3956
 20
254.3703
 30
0.0
 10
-454.3956
 20
254.3703
 30
0.0
 10
-454.3702
 20
254.4016
 30
0.0
 10
-454.3702
 20
254.4016
 30
0.0
 10
-454.3702
 20
254.4016
 30
0.0
 10
-454.3702
 20
254.4016
 30
0.0
 10
-454.3458
 20
254.4334
 30
0.0
 10
-454.3458
 20
254.4334
 30
0.0
 10
-454.3458
 20
254.4334
 30
0.0
 10
-454.3458
 20
254.4334
 30
0.0
 10
-454.3223
 20
254.4659
 30
0.0
 10
-454.3223
 20
254.4659
 30
0.0
 10
-454.3223
 20
254.4659
 30
0.0
 10
-454.3223
 20
254.4659
 30
0.0
 10
-454.2994
 20
254.4989
 30
0.0
 10
-454.2994
 20
254.4989
 30
0.0
 10
-454.2994
 20
254.4989
 30
0.0
 10
-454.2994
 20
254.4989
 30
0.0
 10
-454.2772
 20
254.533
 30
0.0
 10
-454.2772
 20
254.533
 30
0.0
 10
-454.2772
 20
254.533
 30
0.0
 10
-454.2772
 20
254.533
 30
0.0
 10
-454.2554
 20
254.5687
 30
0.0
 10
-454.2554
 20
254.5687
 30
0.0
 10
-454.2554
 20
254.5687
 30
0.0
 10
-454.2554
 20
254.5687
 30
0.0
 10
-454.2338
 20
254.6056
 30
0.0
 10
-454.2338
 20
254.6056
 30
0.0
 10
-454.2338
 20
254.6056
 30
0.0
 10
-454.2338
 20
254.6056
 30
0.0
 10
-454.2122
 20
254.6445
 30
0.0
 10
-454.2122
 20
254.6445
 30
0.0
 10
-454.2122
 20
254.6445
 30
0.0
 10
-454.2122
 20
254.6445
 30
0.0
 10
-454.1907
 20
254.6858
 30
0.0
 10
-454.1907
 20
254.6858
 30
0.0
 10
-454.1907
 20
254.6858
 30
0.0
 10
-454.1907
 20
254.6858
 30
0.0
 10
-453.3118
 20
256.5729
 30
0.0
 10
-453.3118
 20
256.5729
 30
0.0
 10
-453.3118
 20
256.5729
 30
0.0
 10
-453.3118
 20
256.5729
 30
0.0
 10
-452.7984
 20
258.5287
 30
0.0
 10
-452.7984
 20
258.5287
 30
0.0
 10
-452.7984
 20
258.5287
 30
0.0
 10
-452.7984
 20
258.5287
 30
0.0
 10
-452.6378
 20
260.5095
 30
0.0
 10
-452.6378
 20
260.5095
 30
0.0
 10
-452.6378
 20
260.5095
 30
0.0
 10
-452.6378
 20
260.5095
 30
0.0
 10
-452.8176
 20
262.4713
 30
0.0
 10
-452.8176
 20
262.4713
 30
0.0
 10
-452.8176
 20
262.4713
 30
0.0
 10
-452.8176
 20
262.4713
 30
0.0
 10
-453.325
 20
264.3692
 30
0.0
 10
-453.325
 20
264.3692
 30
0.0
 10
-453.325
 20
264.3692
 30
0.0
 10
-453.325
 20
264.3692
 30
0.0
 10
-454.1475
 20
266.1595
 30
0.0
 10
-454.1475
 20
266.1595
 30
0.0
 10
-454.1475
 20
266.1595
 30
0.0
 10
-454.1475
 20
266.1595
 30
0.0
 10
-455.2727
 20
267.7978
 30
0.0
 10
-455.2727
 20
267.7978
 30
0.0
 10
-455.2727
 20
267.7978
 30
0.0
 10
-455.2727
 20
267.7978
 30
0.0
 10
-456.6877
 20
269.24
 30
0.0
 10
-456.6877
 20
269.24
 30
0.0
 10
-456.6877
 20
269.24
 30
0.0
 10
-456.6877
 20
269.24
 30
0.0
 10
-458.3801
 20
270.4417
 30
0.0
 10
-458.3801
 20
270.4417
 30
0.0
 10
-458.3801
 20
270.4417
 30
0.0
 10
-458.3801
 20
270.4417
 30
0.0
 10
-460.2724
 20
271.3081
 30
0.0
 10
-460.2724
 20
271.3081
 30
0.0
 10
-460.2724
 20
271.3081
 30
0.0
 10
-460.2724
 20
271.3081
 30
0.0
 10
-462.2315
 20
271.8137
 30
0.0
 10
-462.2315
 20
271.8137
 30
0.0
 10
-462.2315
 20
271.8137
 30
0.0
 10
-462.2315
 20
271.8137
 30
0.0
 10
-464.2135
 20
271.9697
 30
0.0
 10
-464.2135
 20
271.9697
 30
0.0
 10
-464.2135
 20
271.9697
 30
0.0
 10
-464.2135
 20
271.9697
 30
0.0
 10
-466.1747
 20
271.7875
 30
0.0
 10
-466.1747
 20
271.7875
 30
0.0
 10
-466.1747
 20
271.7875
 30
0.0
 10
-466.1747
 20
271.7875
 30
0.0
 10
-468.0714
 20
271.2787
 30
0.0
 10
-468.0714
 20
271.2787
 30
0.0
 10
-468.0714
 20
271.2787
 30
0.0
 10
-468.0714
 20
271.2787
 30
0.0
 10
-469.8596
 20
270.4544
 30
0.0
 10
-469.8596
 20
270.4544
 30
0.0
 10
-469.8596
 20
270.4544
 30
0.0
 10
-469.8596
 20
270.4544
 30
0.0
 10
-471.4957
 20
269.3261
 30
0.0
 10
-471.4957
 20
269.3261
 30
0.0
 10
-471.4957
 20
269.3261
 30
0.0
 10
-471.4957
 20
269.3261
 30
0.0
 10
-472.9358
 20
267.9053
 30
0.0
 10
-472.9358
 20
267.9053
 30
0.0
 10
-472.9358
 20
267.9053
 30
0.0
 10
-472.9358
 20
267.9053
 30
0.0
 10
-474.136
 20
266.2035
 30
0.0
 10
-474.136
 20
266.2035
 30
0.0
 10
-474.136
 20
266.2035
 30
0.0
 10
-474.136
 20
266.2035
 30
0.0
 10
-475.6485
 20
263.302
 30
0.0
 10
-475.6485
 20
263.302
 30
0.0
  0
SPLINE
  5
67
330
1F
100
AcDbEntity
  8
Layer 1
 62
     5
370
     9
100
AcDbSpline
210
0.0
220
0.0
230
1.0
 70
    11
 71
     3
 72
   316
 73
   312
 74
     0
 42
0.0000000001
 43
0.0000000001
 40
0.0
 40
0.0
 40
0.0
 40
0.0
 40
0.0126582278481013
 40
0.0126582278481013
 40
0.0126582278481013
 40
0.0126582278481013
 40
0.0253164556962025
 40
0.0253164556962025
 40
0.0253164556962025
 40
0.0253164556962025
 40
0.0379746835443038
 40
0.0379746835443038
 40
0.0379746835443038
 40
0.0379746835443038
 40
0.0506329113924051
 40
0.0506329113924051
 40
0.0506329113924051
 40
0.0506329113924051
 40
0.0632911392405063
 40
0.0632911392405063
 40
0.0632911392405063
 40
0.0632911392405063
 40
0.0759493670886076
 40
0.0759493670886076
 40
0.0759493670886076
 40
0.0759493670886076
 40
0.0886075949367089
 40
0.0886075949367089
 40
0.0886075949367089
 40
0.0886075949367089
 40
0.1012658227848101
 40
0.1012658227848101
 40
0.1012658227848101
 40
0.1012658227848101
 40
0.1139240506329114
 40
0.1139240506329114
 40
0.1139240506329114
 40
0.1139240506329114
 40
0.1265822784810127
 40
0.1265822784810127
 40
0.1265822784810127
 40
0.1265822784810127
 40
0.1392405063291139
 40
0.1392405063291139
 40
0.1392405063291139
 40
0.1392405063291139
 40
0.1518987341772152
 40
0.1518987341772152
 40
0.1518987341772152
 40
0.1518987341772152
 40
0.1645569620253164
 40
0.1645569620253164
 40
0.1645569620253164
 40
0.1645569620253164
 40
0.1772151898734177
 40
0.1772151898734177
 40
0.1772151898734177
 40
0.1772151898734177
 40
0.189873417721519
 40
0.189873417721519
 40
0.189873417721519
 40
0.189873417721519
 40
0.2025316455696203
 40
0.2025316455696203
 40
0.2025316455696203
 40
0.2025316455696203
 40
0.2151898734177215
 40
0.2151898734177215
 40
0.2151898734177215
 40
0.2151898734177215
 40
0.2278481012658228
 40
0.2278481012658228
 40
0.2278481012658228
 40
0.2278481012658228
 40
0.2405063291139241
 40
0.2405063291139241
 40
0.2405063291139241
 40
0.2405063291139241
 40
0.2531645569620253
 40
0.2531645569620253
 40
0.2531645569620253
 40
0.2531645569620253
 40
0.2658227848101266
 40
0.2658227848101266
 40
0.2658227848101266
 40
0.2658227848101266
 40
0.2784810126582278
 40
0.2784810126582278
 40
0.2784810126582278
 40
0.2784810126582278
 40
0.2911392405063291
 40
0.2911392405063291
 40
0.2911392405063291
 40
0.2911392405063291
 40
0.3037974683544304
 40
0.3037974683544304
 40
0.3037974683544304
 40
0.3037974683544304
 40
0.3164556962025317
 40
0.3164556962025317
 40
0.3164556962025317
 40
0.3164556962025317
 40
0.3291139240506329
 40
0.3291139240506329
 40
0.3291139240506329
 40
0.3291139240506329
 40
0.3417721518987342
 40
0.3417721518987342
 40
0.3417721518987342
 40
0.3417721518987342
 40
0.3544303797468354
 40
0.3544303797468354
 40
0.3544303797468354
 40
0.3544303797468354
 40
0.3670886075949367
 40
0.3670886075949367
 40
0.3670886075949367
 40
0.3670886075949367
 40
0.379746835443038
 40
0.379746835443038
 40
0.379746835443038
 40
0.379746835443038
 40
0.3924050632911392
 40
0.3924050632911392
 40
0.3924050632911392
 40
0.3924050632911392
 40
0.4050632911392405
 40
0.4050632911392405
 40
0.4050632911392405
 40
0.4050632911392405
 40
0.4177215189873418
 40
0.4177215189873418
 40
0.4177215189873418
 40
0.4177215189873418
 40
0.4303797468354431
 40
0.4303797468354431
 40
0.4303797468354431
 40
0.4303797468354431
 40
0.4430379746835443
 40
0.4430379746835443
 40
0.4430379746835443
 40
0.4430379746835443
 40
0.4556962025316456
 40
0.4556962025316456
 40
0.4556962025316456
 40
0.4556962025316456
 40
0.4683544303797468
 40
0.4683544303797468
 40
0.4683544303797468
 40
0.4683544303797468
 40
0.4810126582278481
 40
0.4810126582278481
 40
0.4810126582278481
 40
0.4810126582278481
 40
0.4936708860759494
 40
0.4936708860759494
 40
0.4936708860759494
 40
0.4936708860759494
 40
0.5063291139240507
 40
0.5063291139240507
 40
0.5063291139240507
 40
0.5063291139240507
 40
0.5189873417721519
 40
0.5189873417721519
 40
0.5189873417721519
 40
0.5189873417721519
 40
0.5316455696202531
 40
0.5316455696202531
 40
0.5316455696202531
 40
0.5316455696202531
 40
0.5443037974683544
 40
0.5443037974683544
 40
0.5443037974683544
 40
0.5443037974683544
 40
0.5569620253164557
 40
0.5569620253164557
 40
0.5569620253164557
 40
0.5569620253164557
 40
0.569620253164557
 40
0.569620253164557
 40
0.569620253164557
 40
0.569620253164557
 40
0.5822784810126582
 40
0.5822784810126582
 40
0.5822784810126582
 40
0.5822784810126582
 40
0.5949367088607594
 40
0.5949367088607594
 40
0.5949367088607594
 40
0.5949367088607594
 40
0.6075949367088608
 40
0.6075949367088608
 40
0.6075949367088608
 40
0.6075949367088608
 40
0.620253164556962
 40
0.620253164556962
 40
0.620253164556962
 40
0.620253164556962
 40
0.6329113924050633
 40
0.6329113924050633
 40
0.6329113924050633
 40
0.6329113924050633
 40
0.6455696202531646
 40
0.6455696202531646
 40
0.6455696202531646
 40
0.6455696202531646
 40
0.6582278481012658
 40
0.6582278481012658
 40
0.6582278481012658
 40
0.6582278481012658
 40
0.6708860759493671
 40
0.6708860759493671
 40
0.6708860759493671
 40
0.6708860759493671
 40
0.6835443037974683
 40
0.6835443037974683
 40
0.6835443037974683
 40
0.6835443037974683
 40
0.6962025316455697
 40
0.6962025316455697
 40
0.6962025316455697
 40
0.6962025316455697
 40
0.7088607594936709
 40
0.7088607594936709
 40
0.7088607594936709
 40
0.7088607594936709
 40
0.7215189873417721
 40
0.7215189873417721
 40
0.7215189873417721
 40
0.7215189873417721
 40
0.7341772151898734
 40
0.7341772151898734
 40
0.7341772151898734
 40
0.7341772151898734
 40
0.7468354430379747
 40
0.7468354430379747
 40
0.7468354430379747
 40
0.7468354430379747
 40
0.759493670886076
 40
0.759493670886076
 40
0.759493670886076
 40
0.759493670886076
 40
0.7721518987341772
 40
0.7721518987341772
 40
0.7721518987341772
 40
0.7721518987341772
 40
0.7848101265822784
 40
0.7848101265822784
 40
0.7848101265822784
 40
0.7848101265822784
 40
0.7974683544303798
 40
0.7974683544303798
 40
0.7974683544303798
 40
0.7974683544303798
 40
0.810126582278481
 40
0.810126582278481
 40
0.810126582278481
 40
0.810126582278481
 40
0.8227848101265823
 40
0.8227848101265823
 40
0.8227848101265823
 40
0.8227848101265823
 40
0.8354430379746836
 40
0.8354430379746836
 40
0.8354430379746836
 40
0.8354430379746836
 40
0.8481012658227848
 40
0.8481012658227848
 40
0.8481012658227848
 40
0.8481012658227848
 40
0.8607594936708861
 40
0.8607594936708861
 40
0.8607594936708861
 40
0.8607594936708861
 40
0.8734177215189873
 40
0.8734177215189873
 40
0.8734177215189873
 40
0.8734177215189873
 40
0.8860759493670886
 40
0.8860759493670886
 40
0.8860759493670886
 40
0.8860759493670886
 40
0.8987341772151899
 40
0.8987341772151899
 40
0.8987341772151899
 40
0.8987341772151899
 40
0.9113924050632911
 40
0.9113924050632911
 40
0.9113924050632911
 40
0.9113924050632911
 40
0.9240506329113924
 40
0.9240506329113924
 40
0.9240506329113924
 40
0.9240506329113924
 40
0.9367088607594937
 40
0.9367088607594937
 40
0.9367088607594937
 40
0.9367088607594937
 40
0.9493670886075949
 40
0.9493670886075949
 40
0.9493670886075949
 40
0.9493670886075949
 40
0.9620253164556962
 40
0.9620253164556962
 40
0.9620253164556962
 40
0.9620253164556962
 40
0.9746835443037974
 40
0.9746835443037974
 40
0.9746835443037974
 40
0.9746835443037974
 40
1.0
 40
1.0
 40
1.0
 40
1.0
 10
-281.5608
 20
226.9621
 30
0.0
 10
-281.5608
 20
226.9621
 30
0.0
 10
-281.5608
 20
226.1156
 30
0.0
 10
-281.5608
 20
226.1156
 30
0.0
 10
-281.5608
 20
226.1156
 30
0.0
 10
-281.5608
 20
226.1156
 30
0.0
 10
-279.0208
 20
226.1156
 30
0.0
 10
-279.0208
 20
226.1156
 30
0.0
 10
-279.0208
 20
226.1156
 30
0.0
 10
-279.0208
 20
226.1156
 30
0.0
 10
-279.0208
 20
207.5394
 30
0.0
 10
-279.0208
 20
207.5394
 30
0.0
 10
-279.0208
 20
207.5394
 30
0.0
 10
-279.0208
 20
207.5394
 30
0.0
 10
-281.5608
 20
207.5394
 30
0.0
 10
-281.5608
 20
207.5394
 30
0.0
 10
-281.5608
 20
207.5394
 30
0.0
 10
-281.5608
 20
207.5394
 30
0.0
 10
-281.5608
 20
188.8621
 30
0.0
 10
-281.5608
 20
188.8621
 30
0.0
 10
-281.5608
 20
188.8621
 30
0.0
 10
-281.5608
 20
188.8621
 30
0.0
 10
-241.5099
 20
188.8621
 30
0.0
 10
-241.5099
 20
188.8621
 30
0.0
 10
-241.5099
 20
188.8621
 30
0.0
 10
-241.5099
 20
188.8621
 30
0.0
 10
-241.5099
 20
207.5394
 30
0.0
 10
-241.5099
 20
207.5394
 30
0.0
 10
-241.5099
 20
207.5394
 30
0.0
 10
-241.5099
 20
207.5394
 30
0.0
 10
-244.0501
 20
207.5394
 30
0.0
 10
-244.0501
 20
207.5394
 30
0.0
 10
-244.0501
 20
207.5394
 30
0.0
 10
-244.0501
 20
207.5394
 30
0.0
 10
-244.0501
 20
226.1156
 30
0.0
 10
-244.0501
 20
226.1156
 30
0.0
 10
-244.0501
 20
226.1156
 30
0.0
 10
-244.0501
 20
226.1156
 30
0.0
 10
-241.5099
 20
226.1156
 30
0.0
 10
-241.5099
 20
226.1156
 30
0.0
 10
-241.5099
 20
226.1156
 30
0.0
 10
-241.5099
 20
226.1156
 30
0.0
 10
-241.5099
 20
244.7925
 30
0.0
 10
-241.5099
 20
244.7925
 30
0.0
 10
-241.5099
 20
244.7925
 30
0.0
 10
-241.5099
 20
244.7925
 30
0.0
 10
-244.0501
 20
244.7925
 30
0.0
 10
-244.0501
 20
244.7925
 30
0.0
 10
-244.0501
 20
244.7925
 30
0.0
 10
-244.0501
 20
244.7925
 30
0.0
 10
-244.0501
 20
263.3686
 30
0.0
 10
-244.0501
 20
263.3686
 30
0.0
 10
-244.0501
 20
263.3686
 30
0.0
 10
-244.0501
 20
263.3686
 30
0.0
 10
-241.5099
 20
263.3686
 30
0.0
 10
-241.5099
 20
263.3686
 30
0.0
 10
-241.5099
 20
263.3686
 30
0.0
 10
-241.5099
 20
263.3686
 30
0.0
 10
-241.5099
 20
282.046
 30
0.0
 10
-241.5099
 20
282.046
 30
0.0
 10
-241.5099
 20
282.046
 30
0.0
 10
-241.5099
 20
282.046
 30
0.0
 10
-244.0501
 20
282.046
 30
0.0
 10
-244.0501
 20
282.046
 30
0.0
 10
-244.0501
 20
282.046
 30
0.0
 10
-244.0501
 20
282.046
 30
0.0
 10
-244.0501
 20
303.2129
 30
0.0
 10
-244.0501
 20
303.2129
 30
0.0
 10
-244.0501
 20
303.2129
 30
0.0
 10
-244.0501
 20
303.2129
 30
0.0
 10
-249.9207
 20
303.2129
 30
0.0
 10
-249.9207
 20
303.2129
 30
0.0
 10
-249.9207
 20
303.2129
 30
0.0
 10
-249.9207
 20
303.2129
 30
0.0
 10
-249.9207
 20
300.6725
 30
0.0
 10
-249.9207
 20
300.6725
 30
0.0
 10
-249.9207
 20
300.6725
 30
0.0
 10
-249.9207
 20
300.6725
 30
0.0
 10
-255.6901
 20
300.6725
 30
0.0
 10
-255.6901
 20
300.6725
 30
0.0
 10
-255.6901
 20
300.6725
 30
0.0
 10
-255.6901
 20
300.6725
 30
0.0
 10
-255.6901
 20
303.2129
 30
0.0
 10
-255.6901
 20
303.2129
 30
0.0
 10
-255.6901
 20
303.2129
 30
0.0
 10
-255.6901
 20
303.2129
 30
0.0
 10
-261.5607
 20
303.2129
 30
0.0
 10
-261.5607
 20
303.2129
 30
0.0
 10
-261.5607
 20
303.2129
 30
0.0
 10
-261.5607
 20
303.2129
 30
0.0
 10
-261.5607
 20
300.6725
 30
0.0
 10
-261.5607
 20
300.6725
 30
0.0
 10
-261.5607
 20
300.6725
 30
0.0
 10
-261.5607
 20
300.6725
 30
0.0
 10
-267.3302
 20
300.6725
 30
0.0
 10
-267.3302
 20
300.6725
 30
0.0
 10
-267.3302
 20
300.6725
 30
0.0
 10
-267.3302
 20
300.6725
 30
0.0
 10
-267.3302
 20
303.2129
 30
0.0
 10
-267.3302
 20
303.2129
 30
0.0
 10
-267.3302
 20
303.2129
 30
0.0
 10
-267.3302
 20
303.2129
 30
0.0
 10
-273.2008
 20
303.2129
 30
0.0
 10
-273.2008
 20
303.2129
 30
0.0
 10
-273.2008
 20
303.2129
 30
0.0
 10
-273.2008
 20
303.2129
 30
0.0
 10
-273.2008
 20
300.6725
 30
0.0
 10
-273.2008
 20
300.6725
 30
0.0
 10
-273.2008
 20
300.6725
 30
0.0
 10
-273.2008
 20
300.6725
 30
0.0
 10
-279.0208
 20
300.6725
 30
0.0
 10
-279.0208
 20
300.6725
 30
0.0
 10
-279.0208
 20
300.6725
 30
0.0
 10
-279.0208
 20
300.6725
 30
0.0
 10
-279.0208
 20
282.046
 30
0.0
 10
-279.0208
 20
282.046
 30
0.0
 10
-279.0208
 20
282.046
 30
0.0
 10
-279.0208
 20
282.046
 30
0.0
 10
-281.5102
 20
282.046
 30
0.0
 10
-281.5102
 20
282.046
 30
0.0
 10
-281.5102
 20
282.046
 30
0.0
 10
-281.5102
 20
282.046
 30
0.0
 10
-281.5102
 20
300.6725
 30
0.0
 10
-281.5102
 20
300.6725
 30
0.0
 10
-281.5102
 20
300.6725
 30
0.0
 10
-281.5102
 20
300.6725
 30
0.0
 10
-286.8616
 20
300.6725
 30
0.0
 10
-286.8616
 20
300.6725
 30
0.0
 10
-286.8616
 20
300.6725
 30
0.0
 10
-286.8616
 20
300.6725
 30
0.0
 10
-286.8616
 20
303.2129
 30
0.0
 10
-286.8616
 20
303.2129
 30
0.0
 10
-286.8616
 20
303.2129
 30
0.0
 10
-286.8616
 20
303.2129
 30
0.0
 10
-292.2635
 20
303.2129
 30
0.0
 10
-292.2635
 20
303.2129
 30
0.0
 10
-292.2635
 20
303.2129
 30
0.0
 10
-292.2635
 20
303.2129
 30
0.0
 10
-292.2635
 20
300.6725
 30
0.0
 10
-292.2635
 20
300.6725
 30
0.0
 10
-292.2635
 20
300.6725
 30
0.0
 10
-292.2635
 20
300.6725
 30
0.0
 10
-297.5644
 20
300.6725
 30
0.0
 10
-297.5644
 20
300.6725
 30
0.0
 10
-297.5644
 20
300.6725
 30
0.0
 10
-297.5644
 20
300.6725
 30
0.0
 10
-297.5644
 20
303.2129
 30
0.0
 10
-297.5644
 20
303.2129
 30
0.0
 10
-297.5644
 20
303.2129
 30
0.0
 10
-297.5644
 20
303.2129
 30
0.0
 10
-302.9664
 20
303.2129
 30
0.0
 10
-302.9664
 20
303.2129
 30
0.0
 10
-302.9664
 20
303.2129
 30
0.0
 10
-302.9664
 20
303.2129
 30
0.0
 10
-302.9664
 20
300.6725
 30
0.0
 10
-302.9664
 20
300.6725
 30
0.0
 10
-302.9664
 20
300.6725
 30
0.0
 10
-302.9664
 20
300.6725
 30
0.0
 10
-308.2673
 20
300.6725
 30
0.0
 10
-308.2673
 20
300.6725
 30
0.0
 10
-308.2673
 20
300.6725
 30
0.0
 10
-308.2673
 20
300.6725
 30
0.0
 10
-308.2673
 20
303.2129
 30
0.0
 10
-308.2673
 20
303.2129
 30
0.0
 10
-308.2673
 20
303.2129
 30
0.0
 10
-308.2673
 20
303.2129
 30
0.0
 10
-313.6694
 20
303.2129
 30
0.0
 10
-313.6694
 20
303.2129
 30
0.0
 10
-313.6694
 20
303.2129
 30
0.0
 10
-313.6694
 20
303.2129
 30
0.0
 10
-313.6694
 20
300.6725
 30
0.0
 10
-313.6694
 20
300.6725
 30
0.0
 10
-313.6694
 20
300.6725
 30
0.0
 10
-313.6694
 20
300.6725
 30
0.0
 10
-319.0206
 20
300.6725
 30
0.0
 10
-319.0206
 20
300.6725
 30
0.0
 10
-319.0206
 20
300.6725
 30
0.0
 10
-319.0206
 20
300.6725
 30
0.0
 10
-319.0206
 20
288.396
 30
0.0
 10
-319.0206
 20
288.396
 30
0.0
 10
-319.0206
 20
288.396
 30
0.0
 10
-319.0206
 20
288.396
 30
0.0
 10
-321.5102
 20
288.396
 30
0.0
 10
-321.5102
 20
288.396
 30
0.0
 10
-321.5102
 20
288.396
 30
0.0
 10
-321.5102
 20
288.396
 30
0.0
 10
-321.5102
 20
300.6725
 30
0.0
 10
-321.5102
 20
300.6725
 30
0.0
 10
-321.5102
 20
300.6725
 30
0.0
 10
-321.5102
 20
300.6725
 30
0.0
 10
-326.8615
 20
300.6725
 30
0.0
 10
-326.8615
 20
300.6725
 30
0.0
 10
-326.8615
 20
300.6725
 30
0.0
 10
-326.8615
 20
300.6725
 30
0.0
 10
-326.8615
 20
303.2129
 30
0.0
 10
-326.8615
 20
303.2129
 30
0.0
 10
-326.8615
 20
303.2129
 30
0.0
 10
-326.8615
 20
303.2129
 30
0.0
 10
-332.2636
 20
303.2129
 30
0.0
 10
-332.2636
 20
303.2129
 30
0.0
 10
-332.2636
 20
303.2129
 30
0.0
 10
-332.2636
 20
303.2129
 30
0.0
 10
-332.2636
 20
300.6725
 30
0.0
 10
-332.2636
 20
300.6725
 30
0.0
 10
-332.2636
 20
300.6725
 30
0.0
 10
-332.2636
 20
300.6725
 30
0.0
 10
-337.5644
 20
300.6725
 30
0.0
 10
-337.5644
 20
300.6725
 30
0.0
 10
-337.5644
 20
300.6725
 30
0.0
 10
-337.5644
 20
300.6725
 30
0.0
 10
-337.5644
 20
303.2129
 30
0.0
 10
-337.5644
 20
303.2129
 30
0.0
 10
-337.5644
 20
303.2129
 30
0.0
 10
-337.5644
 20
303.2129
 30
0.0
 10
-342.9665
 20
303.2129
 30
0.0
 10
-342.9665
 20
303.2129
 30
0.0
 10
-342.9665
 20
303.2129
 30
0.0
 10
-342.9665
 20
303.2129
 30
0.0
 10
-342.9665
 20
300.6725
 30
0.0
 10
-342.9665
 20
300.6725
 30
0.0
 10
-342.9665
 20
300.6725
 30
0.0
 10
-342.9665
 20
300.6725
 30
0.0
 10
-348.2673
 20
300.6725
 30
0.0
 10
-348.2673
 20
300.6725
 30
0.0
 10
-348.2673
 20
300.6725
 30
0.0
 10
-348.2673
 20
300.6725
 30
0.0
 10
-348.2673
 20
303.2129
 30
0.0
 10
-348.2673
 20
303.2129
 30
0.0
 10
-348.2673
 20
303.2129
 30
0.0
 10
-348.2673
 20
303.2129
 30
0.0
 10
-353.6692
 20
303.2129
 30
0.0
 10
-353.6692
 20
303.2129
 30
0.0
 10
-353.6692
 20
303.2129
 30
0.0
 10
-353.6692
 20
303.2129
 30
0.0
 10
-353.6692
 20
300.6725
 30
0.0
 10
-353.6692
 20
300.6725
 30
0.0
 10
-353.6692
 20
300.6725
 30
0.0
 10
-353.6692
 20
300.6725
 30
0.0
 10
-361.5609
 20
300.6725
 30
0.0
 10
-361.5609
 20
300.6725
 30
0.0
 10
-361.5609
 20
300.6725
 30
0.0
 10
-361.5609
 20
300.6725
 30
0.0
 10
-361.5609
 20
292.5786
 30
0.0
 10
-361.5609
 20
292.5786
 30
0.0
 10
-361.5609
 20
292.5786
 30
0.0
 10
-361.5609
 20
292.5786
 30
0.0
 10
-359.0207
 20
292.5786
 30
0.0
 10
-359.0207
 20
292.5786
 30
0.0
 10
-359.0207
 20
292.5786
 30
0.0
 10
-359.0207
 20
292.5786
 30
0.0
 10
-359.0207
 20
284.586
 30
0.0
 10
-359.0207
 20
284.586
 30
0.0
 10
-359.0207
 20
284.586
 30
0.0
 10
-359.0207
 20
284.586
 30
0.0
 10
-361.5609
 20
284.586
 30
0.0
 10
-361.5609
 20
284.586
 30
0.0
 10
-361.5609
 20
284.586
 30
0.0
 10
-361.5609
 20
284.586
 30
0.0
 10
-361.5609
 20
276.4921
 30
0.0
 10
-361.5609
 20
276.4921
 30
0.0
 10
-361.5609
 20
276.4921
 30
0.0
 10
-361.5609
 20
276.4921
 30
0.0
 10
-359.0207
 20
276.4921
 30
0.0
 10
-359.0207
 20
276.4921
 30
0.0
 10
-359.0207
 20
276.4921
 30
0.0
 10
-359.0207
 20
276.4921
 30
0.0
 10
-359.0207
 20
268.4994
 30
0.0
 10
-359.0207
 20
268.4994
 30
0.0
 10
-359.0207
 20
268.4994
 30
0.0
 10
-359.0207
 20
268.4994
 30
0.0
 10
-361.5609
 20
268.4994
 30
0.0
 10
-361.5609
 20
268.4994
 30
0.0
 10
-361.5609
 20
268.4994
 30
0.0
 10
-361.5609
 20
268.4994
 30
0.0
 10
-361.5609
 20
260.4056
 30
0.0
 10
-361.5609
 20
260.4056
 30
0.0
 10
-361.5609
 20
260.4056
 30
0.0
 10
-361.5609
 20
260.4056
 30
0.0
 10
-359.0207
 20
260.4056
 30
0.0
 10
-359.0207
 20
260.4056
 30
0.0
 10
-359.0207
 20
260.4056
 30
0.0
 10
-359.0207
 20
260.4056
 30
0.0
 10
-359.0207
 20
252.3621
 30
0.0
 10
-359.0207
 20
252.3621
 30
0.0
 10
-359.0207
 20
252.3621
 30
0.0
 10
-359.0207
 20
252.3621
 30
0.0
 10
-321.5608
 20
252.3621
 30
0.0
 10
-321.5608
 20
252.3621
 30
0.0
 10
-321.5608
 20
252.3621
 30
0.0
 10
-321.5608
 20
252.3621
 30
0.0
 10
-321.5608
 20
251.5156
 30
0.0
 10
-321.5608
 20
251.5156
 30
0.0
 10
-321.5608
 20
251.5156
 30
0.0
 10
-321.5608
 20
251.5156
 30
0.0
 10
-319.0206
 20
251.5156
 30
0.0
 10
-319.0206
 20
251.5156
 30
0.0
 10
-319.0206
 20
251.5156
 30
0.0
 10
-319.0206
 20
251.5156
 30
0.0
 10
-319.0206
 20
239.2894
 30
0.0
 10
-319.0206
 20
239.2894
 30
0.0
 10
-319.0206
 20
239.2894
 30
0.0
 10
-319.0206
 20
239.2894
 30
0.0
 10
-321.5608
 20
239.2894
 30
0.0
 10
-321.5608
 20
239.2894
 30
0.0
 10
-321.5608
 20
239.2894
 30
0.0
 10
-321.5608
 20
239.2894
 30
0.0
 10
-321.5608
 20
226.9621
 30
0.0
 10
-321.5608
 20
226.9621
 30
0.0
 10
-321.5608
 20
226.9621
 30
0.0
 10
-321.5608
 20
226.9621
 30
0.0
 10
-281.5608
 20
226.9621
 30
0.0
 10
-281.5608
 20
226.9621
 30
0.0
  0
SPLINE
  5
68
330
1F
100
AcDbEntity
  8
Layer 1
 62
     3
370
     9
100
AcDbSpline
210
0.0
220
0.0
230
1.0
 70
    11
 71
     3
 72
    20
 73
    16
 74
     0
 42
0.0000000001
 43
0.0000000001
 40
0.0
 40
0.0
 40
0.0
 40
0.0
 40
0.2
 40
0.2
 40
0.2
 40
0.2
 40
0.4
 40
0.4
 40
0.4
 40
0.4
 40
0.6
 40
0.6
 40
0.6
 40
0.6
 40
1.0
 40
1.0
 40
1.0
 40
1.0
 10
-279.0208
 20
244.7925
 30
0.0
 10
-279.0208
 20
244.7925
 30
0.0
 10
-281.5102
 20
244.7925
 30
0.0
 10
-281.5102
 20
244.7925
 30
0.0
 10
-281.5102
 20
244.7925
 30
0.0
 10
-281.5102
 20
244.7925
 30
0.0
 10
-281.5102
 20
263.3686
 30
0.0
 10
-281.5102
 20
263.3686
 30
0.0
 10
-281.5102
 20
263.3686
 30
0.0
 10
-281.5102
 20
263.3686
 30
0.0
 10
-279.0208
 20
263.3686
 30
0.0
 10
-279.0208
 20
263.3686
 30
0.0
 10
-279.0208
 20
263.3686
 30
0.0
 10
-279.0208
 20
263.3686
 30
0.0
 10
-279.0208
 20
244.7925
 30
0.0
 10
-279.0208
 20
244.7925
 30
0.0
  0
SPLINE
  5
69
330
1F
100
AcDbEntity
  8
Layer 1
 62
     3
370
     9
100
AcDbSpline
210
0.0
220
0.0
230
1.0
 70
    11
 71
     3
 72
    20
 73
    16
 74
     0
 42
0.0000000001
 43
0.0000000001
 40
0.0
 40
0.0
 40
0.0
 40
0.0
 40
0.2
 40
0.2
 40
0.2
 40
0.2
 40
0.4
 40
0.4
 40
0.4
 40
0.4
 40
0.6
 40
0.6
 40
0.6
 40
0.6
 40
1.0
 40
1.0
 40
1.0
 40
1.0
 10
-319.0206
 20
263.8425
 30
0.0
 10
-319.0206
 20
263.8425
 30
0.0
 10
-321.5102
 20
263.8425
 30
0.0
 10
-321.5102
 20
263.8425
 30
0.0
 10
-321.5102
 20
263.8425
 30
0.0
 10
-321.5102
 20
263.8425
 30
0.0
 10
-321.5102
 20
276.0686
 30
0.0
 10
-321.5102
 20
276.0686
 30
0.0
 10
-321.5102
 20
276.0686
 30
0.0
 10
-321.5102
 20
276.0686
 30
0.0
 10
-319.0206
 20
276.0686
 30
0.0
 10
-319.0206
 20
276.0686
 30
0.0
 10
-319.0206
 20
276.0686
 30
0.0
 10
-319.0206
 20
276.0686
 30
0.0
 10
-319.0206
 20
263.8425
 30
0.0
 10
-319.0206
 20
263.8425
 30
0.0
  0
SPLINE
  5
6A
330
1F
100
AcDbEntity
  8
Layer 1
 62
     1
370
     9
100
AcDbSpline
210
0.0
220
0.0
230
1.0
 70
     8
 71
     3
 72
    96
 73
    92
 74
     0
 42
0.0000000001
 43
0.0000000001
 40
0.0
 40
0.0
 40
0.0
 40
0.0
 40
0.0416666666666667
 40
0.0416666666666667
 40
0.0416666666666667
 40
0.0416666666666667
 40
0.0833333333333333
 40
0.0833333333333333
 40
0.0833333333333333
 40
0.0833333333333333
 40
0.125
 40
0.125
 40
0.125
 40
0.125
 40
0.1666666666666667
 40
0.1666666666666667
 40
0.1666666666666667
 40
0.1666666666666667
 40
0.2083333333333333
 40
0.2083333333333333
 40
0.2083333333333333
 40
0.2083333333333333
 40
0.25
 40
0.25
 40
0.25
 40
0.25
 40
0.2916666666666667
 40
0.2916666666666667
 40
0.2916666666666667
 40
0.2916666666666667
 40
0.3333333333333333
 40
0.3333333333333333
 40
0.3333333333333333
 40
0.3333333333333333
 40
0.375
 40
0.375
 40
0.375
 40
0.375
 40
0.4166666666666667
 40
0.4166666666666667
 40
0.4166666666666667
 40
0.4166666666666667
 40
0.4583333333333333
 40
0.4583333333333333
 40
0.4583333333333333
 40
0.4583333333333333
 40
0.5
 40
0.5
 40
0.5
 40
0.5
 40
0.5416666666666666
 40
0.5416666666666666
 40
0.5416666666666666
 40
0.5416666666666666
 40
0.5833333333333334
 40
0.5833333333333334
 40
0.5833333333333334
 40
0.5833333333333334
 40
0.625
 40
0.625
 40
0.625
 40
0.625
 40
0.6666666666666666
 40
0.6666666666666666
 40
0.6666666666666666
 40
0.6666666666666666
 40
0.7083333333333334
 40
0.7083333333333334
 40
0.7083333333333334
 40
0.7083333333333334
 40
0.75
 40
0.75
 40
0.75
 40
0.75
 40
0.7916666666666666
 40
0.7916666666666666
 40
0.7916666666666666
 40
0.7916666666666666
 40
0.8333333333333334
 40
0.8333333333333334
 40
0.8333333333333334
 40
0.8333333333333334
 40
0.875
 40
0.875
 40
0.875
 40
0.875
 40
0.9166666666666666
 40
0.9166666666666666
 40
0.9166666666666666
 40
0.9166666666666666
 40
1.0
 40
1.0
 40
1.0
 40
1.0
 10
-273.664
 20
220.1037
 30
0.0
 10
-273.664
 20
220.1037
 30
0.0
 10
-262.1463
 20
220.1037
 30
0.0
 10
-262.1463
 20
220.1037
 30
0.0
 10
-262.1463
 20
220.1037
 30
0.0
 10
-262.1463
 20
220.1037
 30
0.0
 10
-260.0791
 20
220.2894
 30
0.0
 10
-260.0791
 20
220.2894
 30
0.0
 10
-260.0791
 20
220.2894
 30
0.0
 10
-260.0791
 20
220.2894
 30
0.0
 10
-258.1323
 20
220.8256
 30
0.0
 10
-258.1323
 20
220.8256
 30
0.0
 10
-258.1323
 20
220.8256
 30
0.0
 10
-258.1323
 20
220.8256
 30
0.0
 10
-256.3384
 20
221.6785
 30
0.0
 10
-256.3384
 20
221.6785
 30
0.0
 10
-256.3384
 20
221.6785
 30
0.0
 10
-256.3384
 20
221.6785
 30
0.0
 10
-254.7304
 20
222.8167
 30
0.0
 10
-254.7304
 20
222.8167
 30
0.0
 10
-254.7304
 20
222.8167
 30
0.0
 10
-254.7304
 20
222.8167
 30
0.0
 10
-253.3414
 20
224.2066
 30
0.0
 10
-253.3414
 20
224.2066
 30
0.0
 10
-253.3414
 20
224.2066
 30
0.0
 10
-253.3414
 20
224.2066
 30
0.0
 10
-252.2037
 20
225.8159
 30
0.0
 10
-252.2037
 20
225.8159
 30
0.0
 10
-252.2037
 20
225.8159
 30
0.0
 10
-252.2037
 20
225.8159
 30
0.0
 10
-251.3505
 20
227.6122
 30
0.0
 10
-251.3505
 20
227.6122
 30
0.0
 10
-251.3505
 20
227.6122
 30
0.0
 10
-251.3505
 20
227.6122
 30
0.0
 10
-250.8145
 20
229.5624
 30
0.0
 10
-250.8145
 20
229.5624
 30
0.0
 10
-250.8145
 20
229.5624
 30
0.0
 10
-250.8145
 20
229.5624
 30
0.0
 10
-250.6285
 20
231.6345
 30
0.0
 10
-250.6285
 20
231.6345
 30
0.0
 10
-250.6285
 20
231.6345
 30
0.0
 10
-250.6285
 20
231.6345
 30
0.0
 10
-250.6285
 20
237.3721
 30
0.0
 10
-250.6285
 20
237.3721
 30
0.0
 10
-250.6285
 20
237.3721
 30
0.0
 10
-250.6285
 20
237.3721
 30
0.0
 10
-250.8145
 20
239.443
 30
0.0
 10
-250.8145
 20
239.443
 30
0.0
 10
-250.8145
 20
239.443
 30
0.0
 10
-250.8145
 20
239.443
 30
0.0
 10
-251.3503
 20
241.3909
 30
0.0
 10
-251.3503
 20
241.3909
 30
0.0
 10
-251.3503
 20
241.3909
 30
0.0
 10
-251.3503
 20
241.3909
 30
0.0
 10
-252.2029
 20
243.1832
 30
0.0
 10
-252.2029
 20
243.1832
 30
0.0
 10
-252.2029
 20
243.1832
 30
0.0
 10
-252.2029
 20
243.1832
 30
0.0
 10
-253.3402
 20
244.7881
 30
0.0
 10
-253.3402
 20
244.7881
 30
0.0
 10
-253.3402
 20
244.7881
 30
0.0
 10
-253.3402
 20
244.7881
 30
0.0
 10
-254.7291
 20
246.1732
 30
0.0
 10
-254.7291
 20
246.1732
 30
0.0
 10
-254.7291
 20
246.1732
 30
0.0
 10
-254.7291
 20
246.1732
 30
0.0
 10
-256.337
 20
247.3063
 30
0.0
 10
-256.337
 20
247.3063
 30
0.0
 10
-256.337
 20
247.3063
 30
0.0
 10
-256.337
 20
247.3063
 30
0.0
 10
-258.1309
 20
248.1556
 30
0.0
 10
-258.1309
 20
248.1556
 30
0.0
 10
-258.1309
 20
248.1556
 30
0.0
 10
-258.1309
 20
248.1556
 30
0.0
 10
-260.0783
 20
248.6886
 30
0.0
 10
-260.0783
 20
248.6886
 30
0.0
 10
-260.0783
 20
248.6886
 30
0.0
 10
-260.0783
 20
248.6886
 30
0.0
 10
-262.1463
 20
248.8736
 30
0.0
 10
-262.1463
 20
248.8736
 30
0.0
 10
-262.1463
 20
248.8736
 30
0.0
 10
-262.1463
 20
248.8736
 30
0.0
 10
-273.664
 20
248.8736
 30
0.0
 10
-273.664
 20
248.8736
 30
0.0
 10
-273.664
 20
248.8736
 30
0.0
 10
-273.664
 20
248.8736
 30
0.0
 10
-273.664
 20
271.9709
 30
0.0
 10
-273.664
 20
271.9709
 30
0.0
 10
-273.664
 20
271.9709
 30
0.0
 10
-273.664
 20
271.9709
 30
0.0
 10
-250.6285
 20
271.9709
 30
0.0
 10
-250.6285
 20
271.9709
 30
0.0
  0
SPLINE
  5
6B
330
1F
100
AcDbEntity
  8
Layer 1
 62
     5
370
     9
100
AcDbSpline
210
0.0
220
0.0
230
1.0
 70
    11
 71
     3
 72
   244
 73
   240
 74
     0
 42
0.0000000001
 43
0.0000000001
 40
0.0
 40
0.0
 40
0.0
 40
0.0
 40
0.0163934426229508
 40
0.0163934426229508
 40
0.0163934426229508
 40
0.0163934426229508
 40
0.0327868852459016
 40
0.0327868852459016
 40
0.0327868852459016
 40
0.0327868852459016
 40
0.0491803278688525
 40
0.0491803278688525
 40
0.0491803278688525
 40
0.0491803278688525
 40
0.0655737704918033
 40
0.0655737704918033
 40
0.0655737704918033
 40
0.0655737704918033
 40
0.0819672131147541
 40
0.0819672131147541
 40
0.0819672131147541
 40
0.0819672131147541
 40
0.0983606557377049
 40
0.0983606557377049
 40
0.0983606557377049
 40
0.0983606557377049
 40
0.1147540983606557
 40
0.1147540983606557
 40
0.1147540983606557
 40
0.1147540983606557
 40
0.1311475409836066
 40
0.1311475409836066
 40
0.1311475409836066
 40
0.1311475409836066
 40
0.1475409836065574
 40
0.1475409836065574
 40
0.1475409836065574
 40
0.1475409836065574
 40
0.1639344262295082
 40
0.1639344262295082
 40
0.1639344262295082
 40
0.1639344262295082
 40
0.180327868852459
 40
0.180327868852459
 40
0.180327868852459
 40
0.180327868852459
 40
0.1967213114754098
 40
0.1967213114754098
 40
0.1967213114754098
 40
0.1967213114754098
 40
0.2131147540983606
 40
0.2131147540983606
 40
0.2131147540983606
 40
0.2131147540983606
 40
0.2295081967213115
 40
0.2295081967213115
 40
0.2295081967213115
 40
0.2295081967213115
 40
0.2459016393442623
 40
0.2459016393442623
 40
0.2459016393442623
 40
0.2459016393442623
 40
0.2622950819672131
 40
0.2622950819672131
 40
0.2622950819672131
 40
0.2622950819672131
 40
0.2786885245901639
 40
0.2786885245901639
 40
0.2786885245901639
 40
0.2786885245901639
 40
0.2950819672131147
 40
0.2950819672131147
 40
0.2950819672131147
 40
0.2950819672131147
 40
0.3114754098360656
 40
0.3114754098360656
 40
0.3114754098360656
 40
0.3114754098360656
 40
0.3278688524590164
 40
0.3278688524590164
 40
0.3278688524590164
 40
0.3278688524590164
 40
0.3442622950819672
 40
0.3442622950819672
 40
0.3442622950819672
 40
0.3442622950819672
 40
0.360655737704918
 40
0.360655737704918
 40
0.360655737704918
 40
0.360655737704918
 40
0.3770491803278688
 40
0.3770491803278688
 40
0.3770491803278688
 40
0.3770491803278688
 40
0.3934426229508197
 40
0.3934426229508197
 40
0.3934426229508197
 40
0.3934426229508197
 40
0.4098360655737705
 40
0.4098360655737705
 40
0.4098360655737705
 40
0.4098360655737705
 40
0.4262295081967213
 40
0.4262295081967213
 40
0.4262295081967213
 40
0.4262295081967213
 40
0.4426229508196721
 40
0.4426229508196721
 40
0.4426229508196721
 40
0.4426229508196721
 40
0.459016393442623
 40
0.459016393442623
 40
0.459016393442623
 40
0.459016393442623
 40
0.4754098360655737
 40
0.4754098360655737
 40
0.4754098360655737
 40
0.4754098360655737
 40
0.4918032786885246
 40
0.4918032786885246
 40
0.4918032786885246
 40
0.4918032786885246
 40
0.5081967213114754
 40
0.5081967213114754
 40
0.5081967213114754
 40
0.5081967213114754
 40
0.5245901639344263
 40
0.5245901639344263
 40
0.5245901639344263
 40
0.5245901639344263
 40
0.5409836065573771
 40
0.5409836065573771
 40
0.5409836065573771
 40
0.5409836065573771
 40
0.5573770491803278
 40
0.5573770491803278
 40
0.5573770491803278
 40
0.5573770491803278
 40
0.5737704918032787
 40
0.5737704918032787
 40
0.5737704918032787
 40
0.5737704918032787
 40
0.5901639344262295
 40
0.5901639344262295
 40
0.5901639344262295
 40
0.5901639344262295
 40
0.6065573770491803
 40
0.6065573770491803
 40
0.6065573770491803
 40
0.6065573770491803
 40
0.6229508196721312
 40
0.6229508196721312
 40
0.6229508196721312
 40
0.6229508196721312
 40
0.639344262295082
 40
0.639344262295082
 40
0.639344262295082
 40
0.639344262295082
 40
0.6557377049180327
 40
0.6557377049180327
 40
0.6557377049180327
 40
0.6557377049180327
 40
0.6721311475409836
 40
0.6721311475409836
 40
0.6721311475409836
 40
0.6721311475409836
 40
0.6885245901639344
 40
0.6885245901639344
 40
0.6885245901639344
 40
0.6885245901639344
 40
0.7049180327868853
 40
0.7049180327868853
 40
0.7049180327868853
 40
0.7049180327868853
 40
0.7213114754098361
 40
0.7213114754098361
 40
0.7213114754098361
 40
0.7213114754098361
 40
0.7377049180327869
 40
0.7377049180327869
 40
0.7377049180327869
 40
0.7377049180327869
 40
0.7540983606557377
 40
0.7540983606557377
 40
0.7540983606557377
 40
0.7540983606557377
 40
0.7704918032786885
 40
0.7704918032786885
 40
0.7704918032786885
 40
0.7704918032786885
 40
0.7868852459016393
 40
0.7868852459016393
 40
0.7868852459016393
 40
0.7868852459016393
 40
0.8032786885245902
 40
0.8032786885245902
 40
0.8032786885245902
 40
0.8032786885245902
 40
0.819672131147541
 40
0.819672131147541
 40
0.819672131147541
 40
0.819672131147541
 40
0.8360655737704918
 40
0.8360655737704918
 40
0.8360655737704918
 40
0.8360655737704918
 40
0.8524590163934426
 40
0.8524590163934426
 40
0.8524590163934426
 40
0.8524590163934426
 40
0.8688524590163934
 40
0.8688524590163934
 40
0.8688524590163934
 40
0.8688524590163934
 40
0.8852459016393442
 40
0.8852459016393442
 40
0.8852459016393442
 40
0.8852459016393442
 40
0.9016393442622951
 40
0.9016393442622951
 40
0.9016393442622951
 40
0.9016393442622951
 40
0.9180327868852459
 40
0.9180327868852459
 40
0.9180327868852459
 40
0.9180327868852459
 40
0.9344262295081968
 40
0.9344262295081968
 40
0.9344262295081968
 40
0.9344262295081968
 40
0.9508196721311475
 40
0.9508196721311475
 40
0.9508196721311475
 40
0.9508196721311475
 40
0.9672131147540983
 40
0.9672131147540983
 40
0.9672131147540983
 40
0.9672131147540983
 40
1.0
 40
1.0
 40
1.0
 40
1.0
 10
-198.2843
 20
-303.2125
 30
0.0
 10
-198.2843
 20
-303.2125
 30
0.0
 10
-198.2843
 20
-295.1185
 30
0.0
 10
-198.2843
 20
-295.1185
 30
0.0
 10
-198.2843
 20
-295.1185
 30
0.0
 10
-198.2843
 20
-295.1185
 30
0.0
 10
-200.8243
 20
-295.1185
 30
0.0
 10
-200.8243
 20
-295.1185
 30
0.0
 10
-200.8243
 20
-295.1185
 30
0.0
 10
-200.8243
 20
-295.1185
 30
0.0
 10
-200.8243
 20
-287.1257
 30
0.0
 10
-200.8243
 20
-287.1257
 30
0.0
 10
-200.8243
 20
-287.1257
 30
0.0
 10
-200.8243
 20
-287.1257
 30
0.0
 10
-198.2843
 20
-287.1257
 30
0.0
 10
-198.2843
 20
-287.1257
 30
0.0
 10
-198.2843
 20
-287.1257
 30
0.0
 10
-198.2843
 20
-287.1257
 30
0.0
 10
-198.2843
 20
-279.0318
 30
0.0
 10
-198.2843
 20
-279.0318
 30
0.0
 10
-198.2843
 20
-279.0318
 30
0.0
 10
-198.2843
 20
-279.0318
 30
0.0
 10
-200.8243
 20
-279.0318
 30
0.0
 10
-200.8243
 20
-279.0318
 30
0.0
 10
-200.8243
 20
-279.0318
 30
0.0
 10
-200.8243
 20
-279.0318
 30
0.0
 10
-200.8243
 20
-271.039
 30
0.0
 10
-200.8243
 20
-271.039
 30
0.0
 10
-200.8243
 20
-271.039
 30
0.0
 10
-200.8243
 20
-271.039
 30
0.0
 10
-198.3347
 20
-271.039
 30
0.0
 10
-198.3347
 20
-271.039
 30
0.0
 10
-198.3347
 20
-271.039
 30
0.0
 10
-198.3347
 20
-271.039
 30
0.0
 10
-198.3347
 20
-277.8125
 30
0.0
 10
-198.3347
 20
-277.8125
 30
0.0
 10
-198.3347
 20
-277.8125
 30
0.0
 10
-198.3347
 20
-277.8125
 30
0.0
 10
-118.2842
 20
-277.8125
 30
0.0
 10
-118.2842
 20
-277.8125
 30
0.0
 10
-118.2842
 20
-277.8125
 30
0.0
 10
-118.2842
 20
-277.8125
 30
0.0
 10
-118.2842
 20
-273.9518
 30
0.0
 10
-118.2842
 20
-273.9518
 30
0.0
 10
-118.2842
 20
-273.9518
 30
0.0
 10
-118.2842
 20
-273.9518
 30
0.0
 10
-120.8242
 20
-273.9518
 30
0.0
 10
-120.8242
 20
-273.9518
 30
0.0
 10
-120.8242
 20
-273.9518
 30
0.0
 10
-120.8242
 20
-273.9518
 30
0.0
 10
-120.8242
 20
-270.1924
 30
0.0
 10
-120.8242
 20
-270.1924
 30
0.0
 10
-120.8242
 20
-270.1924
 30
0.0
 10
-120.8242
 20
-270.1924
 30
0.0
 10
-118.2842
 20
-270.1924
 30
0.0
 10
-118.2842
 20
-270.1924
 30
0.0
 10
-118.2842
 20
-270.1924
 30
0.0
 10
-118.2842
 20
-270.1924
 30
0.0
 10
-118.2842
 20
-266.3318
 30
0.0
 10
-118.2842
 20
-266.3318
 30
0.0
 10
-118.2842
 20
-266.3318
 30
0.0
 10
-118.2842
 20
-266.3318
 30
0.0
 10
-120.8242
 20
-266.3318
 30
0.0
 10
-120.8242
 20
-266.3318
 30
0.0
 10
-120.8242
 20
-266.3318
 30
0.0
 10
-120.8242
 20
-266.3318
 30
0.0
 10
-120.8242
 20
-262.5724
 30
0.0
 10
-120.8242
 20
-262.5724
 30
0.0
 10
-120.8242
 20
-262.5724
 30
0.0
 10
-120.8242
 20
-262.5724
 30
0.0
 10
-118.2842
 20
-262.5724
 30
0.0
 10
-118.2842
 20
-262.5724
 30
0.0
 10
-118.2842
 20
-262.5724
 30
0.0
 10
-118.2842
 20
-262.5724
 30
0.0
 10
-118.2842
 20
-258.7118
 30
0.0
 10
-118.2842
 20
-258.7118
 30
0.0
 10
-118.2842
 20
-258.7118
 30
0.0
 10
-118.2842
 20
-258.7118
 30
0.0
 10
-120.8242
 20
-258.7118
 30
0.0
 10
-120.8242
 20
-258.7118
 30
0.0
 10
-120.8242
 20
-258.7118
 30
0.0
 10
-120.8242
 20
-258.7118
 30
0.0
 10
-120.8242
 20
-252.3617
 30
0.0
 10
-120.8242
 20
-252.3617
 30
0.0
 10
-120.8242
 20
-252.3617
 30
0.0
 10
-120.8242
 20
-252.3617
 30
0.0
 10
-133.785
 20
-252.3617
 30
0.0
 10
-133.785
 20
-252.3617
 30
0.0
 10
-133.785
 20
-252.3617
 30
0.0
 10
-133.785
 20
-252.3617
 30
0.0
 10
-133.785
 20
-254.9018
 30
0.0
 10
-133.785
 20
-254.9018
 30
0.0
 10
-133.785
 20
-254.9018
 30
0.0
 10
-133.785
 20
-254.9018
 30
0.0
 10
-146.6441
 20
-254.9018
 30
0.0
 10
-146.6441
 20
-254.9018
 30
0.0
 10
-146.6441
 20
-254.9018
 30
0.0
 10
-146.6441
 20
-254.9018
 30
0.0
 10
-146.6441
 20
-252.3617
 30
0.0
 10
-146.6441
 20
-252.3617
 30
0.0
 10
-146.6441
 20
-252.3617
 30
0.0
 10
-146.6441
 20
-252.3617
 30
0.0
 10
-159.6049
 20
-252.3617
 30
0.0
 10
-159.6049
 20
-252.3617
 30
0.0
 10
-159.6049
 20
-252.3617
 30
0.0
 10
-159.6049
 20
-252.3617
 30
0.0
 10
-159.6049
 20
-254.9018
 30
0.0
 10
-159.6049
 20
-254.9018
 30
0.0
 10
-159.6049
 20
-254.9018
 30
0.0
 10
-159.6049
 20
-254.9018
 30
0.0
 10
-172.4644
 20
-254.9018
 30
0.0
 10
-172.4644
 20
-254.9018
 30
0.0
 10
-172.4644
 20
-254.9018
 30
0.0
 10
-172.4644
 20
-254.9018
 30
0.0
 10
-172.4644
 20
-252.3617
 30
0.0
 10
-172.4644
 20
-252.3617
 30
0.0
 10
-172.4644
 20
-252.3617
 30
0.0
 10
-172.4644
 20
-252.3617
 30
0.0
 10
-185.4248
 20
-252.3617
 30
0.0
 10
-185.4248
 20
-252.3617
 30
0.0
 10
-185.4248
 20
-252.3617
 30
0.0
 10
-185.4248
 20
-252.3617
 30
0.0
 10
-185.4248
 20
-254.9018
 30
0.0
 10
-185.4248
 20
-254.9018
 30
0.0
 10
-185.4248
 20
-254.9018
 30
0.0
 10
-185.4248
 20
-254.9018
 30
0.0
 10
-198.3347
 20
-254.9018
 30
0.0
 10
-198.3347
 20
-254.9018
 30
0.0
 10
-198.3347
 20
-254.9018
 30
0.0
 10
-198.3347
 20
-254.9018
 30
0.0
 10
-198.3347
 20
-262.9451
 30
0.0
 10
-198.3347
 20
-262.9451
 30
0.0
 10
-198.3347
 20
-262.9451
 30
0.0
 10
-198.3347
 20
-262.9451
 30
0.0
 10
-200.8243
 20
-262.9451
 30
0.0
 10
-200.8243
 20
-262.9451
 30
0.0
 10
-200.8243
 20
-262.9451
 30
0.0
 10
-200.8243
 20
-262.9451
 30
0.0
 10
-200.8243
 20
-254.9018
 30
0.0
 10
-200.8243
 20
-254.9018
 30
0.0
 10
-200.8243
 20
-254.9018
 30
0.0
 10
-200.8243
 20
-254.9018
 30
0.0
 10
-205.813
 20
-254.9018
 30
0.0
 10
-205.813
 20
-254.9018
 30
0.0
 10
-205.813
 20
-254.9018
 30
0.0
 10
-205.813
 20
-254.9018
 30
0.0
 10
-205.813
 20
-252.3617
 30
0.0
 10
-205.813
 20
-252.3617
 30
0.0
 10
-205.813
 20
-252.3617
 30
0.0
 10
-205.813
 20
-252.3617
 30
0.0
 10
-210.8521
 20
-252.3617
 30
0.0
 10
-210.8521
 20
-252.3617
 30
0.0
 10
-210.8521
 20
-252.3617
 30
0.0
 10
-210.8521
 20
-252.3617
 30
0.0
 10
-210.8521
 20
-254.9018
 30
0.0
 10
-210.8521
 20
-254.9018
 30
0.0
 10
-210.8521
 20
-254.9018
 30
0.0
 10
-210.8521
 20
-254.9018
 30
0.0
 10
-215.7901
 20
-254.9018
 30
0.0
 10
-215.7901
 20
-254.9018
 30
0.0
 10
-215.7901
 20
-254.9018
 30
0.0
 10
-215.7901
 20
-254.9018
 30
0.0
 10
-215.7901
 20
-252.3617
 30
0.0
 10
-215.7901
 20
-252.3617
 30
0.0
 10
-215.7901
 20
-252.3617
 30
0.0
 10
-215.7901
 20
-252.3617
 30
0.0
 10
-220.8292
 20
-252.3617
 30
0.0
 10
-220.8292
 20
-252.3617
 30
0.0
 10
-220.8292
 20
-252.3617
 30
0.0
 10
-220.8292
 20
-252.3617
 30
0.0
 10
-220.8292
 20
-254.9018
 30
0.0
 10
-220.8292
 20
-254.9018
 30
0.0
 10
-220.8292
 20
-254.9018
 30
0.0
 10
-220.8292
 20
-254.9018
 30
0.0
 10
-225.7673
 20
-254.9018
 30
0.0
 10
-225.7673
 20
-254.9018
 30
0.0
 10
-225.7673
 20
-254.9018
 30
0.0
 10
-225.7673
 20
-254.9018
 30
0.0
 10
-225.7673
 20
-252.3617
 30
0.0
 10
-225.7673
 20
-252.3617
 30
0.0
 10
-225.7673
 20
-252.3617
 30
0.0
 10
-225.7673
 20
-252.3617
 30
0.0
 10
-230.8064
 20
-252.3617
 30
0.0
 10
-230.8064
 20
-252.3617
 30
0.0
 10
-230.8064
 20
-252.3617
 30
0.0
 10
-230.8064
 20
-252.3617
 30
0.0
 10
-230.8064
 20
-254.9018
 30
0.0
 10
-230.8064
 20
-254.9018
 30
0.0
 10
-230.8064
 20
-254.9018
 30
0.0
 10
-230.8064
 20
-254.9018
 30
0.0
 10
-235.7949
 20
-254.9018
 30
0.0
 10
-235.7949
 20
-254.9018
 30
0.0
 10
-235.7949
 20
-254.9018
 30
0.0
 10
-235.7949
 20
-254.9018
 30
0.0
 10
-235.7949
 20
-262.9451
 30
0.0
 10
-235.7949
 20
-262.9451
 30
0.0
 10
-235.7949
 20
-262.9451
 30
0.0
 10
-235.7949
 20
-262.9451
 30
0.0
 10
-238.3351
 20
-262.9451
 30
0.0
 10
-238.3351
 20
-262.9451
 30
0.0
 10
-238.3351
 20
-262.9451
 30
0.0
 10
-238.3351
 20
-262.9451
 30
0.0
 10
-238.3351
 20
-271.039
 30
0.0
 10
-238.3351
 20
-271.039
 30
0.0
 10
-238.3351
 20
-271.039
 30
0.0
 10
-238.3351
 20
-271.039
 30
0.0
 10
-235.7949
 20
-271.039
 30
0.0
 10
-235.7949
 20
-271.039
 30
0.0
 10
-235.7949
 20
-271.039
 30
0.0
 10
-235.7949
 20
-271.039
 30
0.0
 10
-235.7949
 20
-279.0318
 30
0.0
 10
-235.7949
 20
-279.0318
 30
0.0
 10
-235.7949
 20
-279.0318
 30
0.0
 10
-235.7949
 20
-279.0318
 30
0.0
 10
-238.3351
 20
-279.0318
 30
0.0
 10
-238.3351
 20
-279.0318
 30
0.0
 10
-238.3351
 20
-279.0318
 30
0.0
 10
-238.3351
 20
-279.0318
 30
0.0
 10
-238.3351
 20
-287.1257
 30
0.0
 10
-238.3351
 20
-287.1257
 30
0.0
 10
-238.3351
 20
-287.1257
 30
0.0
 10
-238.3351
 20
-287.1257
 30
0.0
 10
-235.7949
 20
-287.1257
 30
0.0
 10
-235.7949
 20
-287.1257
 30
0.0
 10
-235.7949
 20
-287.1257
 30
0.0
 10
-235.7949
 20
-287.1257
 30
0.0
 10
-235.7949
 20
-295.1185
 30
0.0
 10
-235.7949
 20
-295.1185
 30
0.0
 10
-235.7949
 20
-295.1185
 30
0.0
 10
-235.7949
 20
-295.1185
 30
0.0
 10
-238.3351
 20
-295.1185
 30
0.0
 10
-238.3351
 20
-295.1185
 30
0.0
 10
-238.3351
 20
-295.1185
 30
0.0
 10
-238.3351
 20
-295.1185
 30
0.0
 10
-238.3351
 20
-303.2125
 30
0.0
 10
-238.3351
 20
-303.2125
 30
0.0
 10
-238.3351
 20
-303.2125
 30
0.0
 10
-238.3351
 20
-303.2125
 30
0.0
 10
-198.2843
 20
-303.2125
 30
0.0
 10
-198.2843
 20
-303.2125
 30
0.0
  0
SPLINE
  5
6C
330
1F
100
AcDbEntity
  8
Layer 1
 62
     1
370
     9
100
AcDbSpline
210
0.0
220
0.0
230
1.0
 70
     8
 71
     3
 72
    12
 73
     8
 74
     0
 42
0.0000000001
 43
0.0000000001
 40
0.0
 40
0.0
 40
0.0
 40
0.0
 40
0.3333333333333333
 40
0.3333333333333333
 40
0.3333333333333333
 40
0.3333333333333333
 40
1.0
 40
1.0
 40
1.0
 40
1.0
 10
-217.7086
 20
-292.6299
 30
0.0
 10
-217.7086
 20
-292.6299
 30
0.0
 10
-211.9432
 20
-266.6963
 30
0.0
 10
-211.9432
 20
-266.6963
 30
0.0
 10
-211.9432
 20
-266.6963
 30
0.0
 10
-211.9432
 20
-266.6963
 30
0.0
 10
-223.4755
 20
-266.6963
 30
0.0
 10
-223.4755
 20
-266.6963
 30
0.0
  0
SPLINE
  5
6D
330
1F
100
AcDbEntity
  8
Layer 1
 62
     1
370
     9
100
AcDbSpline
210
0.0
220
0.0
230
1.0
 70
    24
 71
     3
 72
     8
 73
     4
 74
     0
 42
0.0000000001
 43
0.0000000001
 40
0.0
 40
0.0
 40
0.0
 40
0.0
 40
1.0
 40
1.0
 40
1.0
 40
1.0
 10
-211.9432
 20
-278.2449
 30
0.0
 10
-211.9432
 20
-278.2449
 30
0.0
 10
-217.7086
 20
-278.2449
 30
0.0
 10
-217.7086
 20
-278.2449
 30
0.0
  0
SPLINE
  5
6E
330
1F
100
AcDbEntity
  8
Layer 1
 62
     5
370
     9
100
AcDbSpline
210
0.0
220
0.0
230
1.0
 70
    11
 71
     3
 72
   276
 73
   272
 74
     0
 42
0.0000000001
 43
0.0000000001
 40
0.0
 40
0.0
 40
0.0
 40
0.0
 40
0.0144927536231884
 40
0.0144927536231884
 40
0.0144927536231884
 40
0.0144927536231884
 40
0.0289855072463768
 40
0.0289855072463768
 40
0.0289855072463768
 40
0.0289855072463768
 40
0.0434782608695652
 40
0.0434782608695652
 40
0.0434782608695652
 40
0.0434782608695652
 40
0.0579710144927536
 40
0.0579710144927536
 40
0.0579710144927536
 40
0.0579710144927536
 40
0.072463768115942
 40
0.072463768115942
 40
0.072463768115942
 40
0.072463768115942
 40
0.0869565217391304
 40
0.0869565217391304
 40
0.0869565217391304
 40
0.0869565217391304
 40
0.1014492753623188
 40
0.1014492753623188
 40
0.1014492753623188
 40
0.1014492753623188
 40
0.1159420289855072
 40
0.1159420289855072
 40
0.1159420289855072
 40
0.1159420289855072
 40
0.1304347826086956
 40
0.1304347826086956
 40
0.1304347826086956
 40
0.1304347826086956
 40
0.1449275362318841
 40
0.1449275362318841
 40
0.1449275362318841
 40
0.1449275362318841
 40
0.1594202898550725
 40
0.1594202898550725
 40
0.1594202898550725
 40
0.1594202898550725
 40
0.1739130434782609
 40
0.1739130434782609
 40
0.1739130434782609
 40
0.1739130434782609
 40
0.1884057971014493
 40
0.1884057971014493
 40
0.1884057971014493
 40
0.1884057971014493
 40
0.2028985507246377
 40
0.2028985507246377
 40
0.2028985507246377
 40
0.2028985507246377
 40
0.2173913043478261
 40
0.2173913043478261
 40
0.2173913043478261
 40
0.2173913043478261
 40
0.2318840579710145
 40
0.2318840579710145
 40
0.2318840579710145
 40
0.2318840579710145
 40
0.2463768115942029
 40
0.2463768115942029
 40
0.2463768115942029
 40
0.2463768115942029
 40
0.2608695652173913
 40
0.2608695652173913
 40
0.2608695652173913
 40
0.2608695652173913
 40
0.2753623188405797
 40
0.2753623188405797
 40
0.2753623188405797
 40
0.2753623188405797
 40
0.2898550724637681
 40
0.2898550724637681
 40
0.2898550724637681
 40
0.2898550724637681
 40
0.3043478260869565
 40
0.3043478260869565
 40
0.3043478260869565
 40
0.3043478260869565
 40
0.3188405797101449
 40
0.3188405797101449
 40
0.3188405797101449
 40
0.3188405797101449
 40
0.3333333333333333
 40
0.3333333333333333
 40
0.3333333333333333
 40
0.3333333333333333
 40
0.3478260869565217
 40
0.3478260869565217
 40
0.3478260869565217
 40
0.3478260869565217
 40
0.3623188405797101
 40
0.3623188405797101
 40
0.3623188405797101
 40
0.3623188405797101
 40
0.3768115942028986
 40
0.3768115942028986
 40
0.3768115942028986
 40
0.3768115942028986
 40
0.391304347826087
 40
0.391304347826087
 40
0.391304347826087
 40
0.391304347826087
 40
0.4057971014492754
 40
0.4057971014492754
 40
0.4057971014492754
 40
0.4057971014492754
 40
0.4202898550724637
 40
0.4202898550724637
 40
0.4202898550724637
 40
0.4202898550724637
 40
0.4347826086956522
 40
0.4347826086956522
 40
0.4347826086956522
 40
0.4347826086956522
 40
0.4492753623188406
 40
0.4492753623188406
 40
0.4492753623188406
 40
0.4492753623188406
 40
0.463768115942029
 40
0.463768115942029
 40
0.463768115942029
 40
0.463768115942029
 40
0.4782608695652174
 40
0.4782608695652174
 40
0.4782608695652174
 40
0.4782608695652174
 40
0.4927536231884058
 40
0.4927536231884058
 40
0.4927536231884058
 40
0.4927536231884058
 40
0.5072463768115942
 40
0.5072463768115942
 40
0.5072463768115942
 40
0.5072463768115942
 40
0.5217391304347826
 40
0.5217391304347826
 40
0.5217391304347826
 40
0.5217391304347826
 40
0.5362318840579711
 40
0.5362318840579711
 40
0.5362318840579711
 40
0.5362318840579711
 40
0.5507246376811594
 40
0.5507246376811594
 40
0.5507246376811594
 40
0.5507246376811594
 40
0.5652173913043478
 40
0.5652173913043478
 40
0.5652173913043478
 40
0.5652173913043478
 40
0.5797101449275363
 40
0.5797101449275363
 40
0.5797101449275363
 40
0.5797101449275363
 40
0.5942028985507246
 40
0.5942028985507246
 40
0.5942028985507246
 40
0.5942028985507246
 40
0.6086956521739131
 40
0.6086956521739131
 40
0.6086956521739131
 40
0.6086956521739131
 40
0.6231884057971014
 40
0.6231884057971014
 40
0.6231884057971014
 40
0.6231884057971014
 40
0.6376811594202898
 40
0.6376811594202898
 40
0.6376811594202898
 40
0.6376811594202898
 40
0.6521739130434783
 40
0.6521739130434783
 40
0.6521739130434783
 40
0.6521739130434783
 40
0.6666666666666666
 40
0.6666666666666666
 40
0.6666666666666666
 40
0.6666666666666666
 40
0.6811594202898551
 40
0.6811594202898551
 40
0.6811594202898551
 40
0.6811594202898551
 40
0.6956521739130435
 40
0.6956521739130435
 40
0.6956521739130435
 40
0.6956521739130435
 40
0.7101449275362319
 40
0.7101449275362319
 40
0.7101449275362319
 40
0.7101449275362319
 40
0.7246376811594203
 40
0.7246376811594203
 40
0.7246376811594203
 40
0.7246376811594203
 40
0.7391304347826086
 40
0.7391304347826086
 40
0.7391304347826086
 40
0.7391304347826086
 40
0.7536231884057971
 40
0.7536231884057971
 40
0.7536231884057971
 40
0.7536231884057971
 40
0.7681159420289855
 40
0.7681159420289855
 40
0.7681159420289855
 40
0.7681159420289855
 40
0.782608695652174
 40
0.782608695652174
 40
0.782608695652174
 40
0.782608695652174
 40
0.7971014492753623
 40
0.7971014492753623
 40
0.7971014492753623
 40
0.7971014492753623
 40
0.8115942028985508
 40
0.8115942028985508
 40
0.8115942028985508
 40
0.8115942028985508
 40
0.8260869565217391
 40
0.8260869565217391
 40
0.8260869565217391
 40
0.8260869565217391
 40
0.8405797101449275
 40
0.8405797101449275
 40
0.8405797101449275
 40
0.8405797101449275
 40
0.855072463768116
 40
0.855072463768116
 40
0.855072463768116
 40
0.855072463768116
 40
0.8695652173913043
 40
0.8695652173913043
 40
0.8695652173913043
 40
0.8695652173913043
 40
0.8840579710144928
 40
0.8840579710144928
 40
0.8840579710144928
 40
0.8840579710144928
 40
0.8985507246376812
 40
0.8985507246376812
 40
0.8985507246376812
 40
0.8985507246376812
 40
0.9130434782608695
 40
0.9130434782608695
 40
0.9130434782608695
 40
0.9130434782608695
 40
0.927536231884058
 40
0.927536231884058
 40
0.927536231884058
 40
0.927536231884058
 40
0.9420289855072463
 40
0.9420289855072463
 40
0.9420289855072463
 40
0.9420289855072463
 40
0.9565217391304348
 40
0.9565217391304348
 40
0.9565217391304348
 40
0.9565217391304348
 40
0.9710144927536232
 40
0.9710144927536232
 40
0.9710144927536232
 40
0.9710144927536232
 40
1.0
 40
1.0
 40
1.0
 40
1.0
 10
-195.7947
 20
226.9621
 30
0.0
 10
-195.7947
 20
226.9621
 30
0.0
 10
-158.2868
 20
226.9621
 30
0.0
 10
-158.2868
 20
226.9621
 30
0.0
 10
-158.2868
 20
226.9621
 30
0.0
 10
-158.2868
 20
226.9621
 30
0.0
 10
-158.2868
 20
244.7421
 30
0.0
 10
-158.2868
 20
244.7421
 30
0.0
 10
-158.2868
 20
244.7421
 30
0.0
 10
-158.2868
 20
244.7421
 30
0.0
 10
-155.7949
 20
244.7421
 30
0.0
 10
-155.7949
 20
244.7421
 30
0.0
 10
-155.7949
 20
244.7421
 30
0.0
 10
-155.7949
 20
244.7421
 30
0.0
 10
-155.7949
 20
188.8621
 30
0.0
 10
-155.7949
 20
188.8621
 30
0.0
 10
-155.7949
 20
188.8621
 30
0.0
 10
-155.7949
 20
188.8621
 30
0.0
 10
-118.2842
 20
188.8621
 30
0.0
 10
-118.2842
 20
188.8621
 30
0.0
 10
-118.2842
 20
188.8621
 30
0.0
 10
-118.2842
 20
188.8621
 30
0.0
 10
-118.2842
 20
207.5394
 30
0.0
 10
-118.2842
 20
207.5394
 30
0.0
 10
-118.2842
 20
207.5394
 30
0.0
 10
-118.2842
 20
207.5394
 30
0.0
 10
-120.8242
 20
207.5394
 30
0.0
 10
-120.8242
 20
207.5394
 30
0.0
 10
-120.8242
 20
207.5394
 30
0.0
 10
-120.8242
 20
207.5394
 30
0.0
 10
-120.8242
 20
226.1156
 30
0.0
 10
-120.8242
 20
226.1156
 30
0.0
 10
-120.8242
 20
226.1156
 30
0.0
 10
-120.8242
 20
226.1156
 30
0.0
 10
-118.2842
 20
226.1156
 30
0.0
 10
-118.2842
 20
226.1156
 30
0.0
 10
-118.2842
 20
226.1156
 30
0.0
 10
-118.2842
 20
226.1156
 30
0.0
 10
-118.2842
 20
244.7925
 30
0.0
 10
-118.2842
 20
244.7925
 30
0.0
 10
-118.2842
 20
244.7925
 30
0.0
 10
-118.2842
 20
244.7925
 30
0.0
 10
-120.8242
 20
244.7925
 30
0.0
 10
-120.8242
 20
244.7925
 30
0.0
 10
-120.8242
 20
244.7925
 30
0.0
 10
-120.8242
 20
244.7925
 30
0.0
 10
-120.8242
 20
263.3686
 30
0.0
 10
-120.8242
 20
263.3686
 30
0.0
 10
-120.8242
 20
263.3686
 30
0.0
 10
-120.8242
 20
263.3686
 30
0.0
 10
-118.2842
 20
263.3686
 30
0.0
 10
-118.2842
 20
263.3686
 30
0.0
 10
-118.2842
 20
263.3686
 30
0.0
 10
-118.2842
 20
263.3686
 30
0.0
 10
-118.2842
 20
282.046
 30
0.0
 10
-118.2842
 20
282.046
 30
0.0
 10
-118.2842
 20
282.046
 30
0.0
 10
-118.2842
 20
282.046
 30
0.0
 10
-120.8242
 20
282.046
 30
0.0
 10
-120.8242
 20
282.046
 30
0.0
 10
-120.8242
 20
282.046
 30
0.0
 10
-120.8242
 20
282.046
 30
0.0
 10
-120.8242
 20
300.6725
 30
0.0
 10
-120.8242
 20
300.6725
 30
0.0
 10
-120.8242
 20
300.6725
 30
0.0
 10
-120.8242
 20
300.6725
 30
0.0
 10
-126.6444
 20
300.6725
 30
0.0
 10
-126.6444
 20
300.6725
 30
0.0
 10
-126.6444
 20
300.6725
 30
0.0
 10
-126.6444
 20
300.6725
 30
0.0
 10
-126.6444
 20
303.2129
 30
0.0
 10
-126.6444
 20
303.2129
 30
0.0
 10
-126.6444
 20
303.2129
 30
0.0
 10
-126.6444
 20
303.2129
 30
0.0
 10
-132.515
 20
303.2129
 30
0.0
 10
-132.515
 20
303.2129
 30
0.0
 10
-132.515
 20
303.2129
 30
0.0
 10
-132.515
 20
303.2129
 30
0.0
 10
-132.515
 20
300.6725
 30
0.0
 10
-132.515
 20
300.6725
 30
0.0
 10
-132.515
 20
300.6725
 30
0.0
 10
-132.515
 20
300.6725
 30
0.0
 10
-138.2843
 20
300.6725
 30
0.0
 10
-138.2843
 20
300.6725
 30
0.0
 10
-138.2843
 20
300.6725
 30
0.0
 10
-138.2843
 20
300.6725
 30
0.0
 10
-138.2843
 20
303.2129
 30
0.0
 10
-138.2843
 20
303.2129
 30
0.0
 10
-138.2843
 20
303.2129
 30
0.0
 10
-138.2843
 20
303.2129
 30
0.0
 10
-144.1549
 20
303.2129
 30
0.0
 10
-144.1549
 20
303.2129
 30
0.0
 10
-144.1549
 20
303.2129
 30
0.0
 10
-144.1549
 20
303.2129
 30
0.0
 10
-144.1549
 20
300.6725
 30
0.0
 10
-144.1549
 20
300.6725
 30
0.0
 10
-144.1549
 20
300.6725
 30
0.0
 10
-144.1549
 20
300.6725
 30
0.0
 10
-149.9243
 20
300.6725
 30
0.0
 10
-149.9243
 20
300.6725
 30
0.0
 10
-149.9243
 20
300.6725
 30
0.0
 10
-149.9243
 20
300.6725
 30
0.0
 10
-149.9243
 20
303.2129
 30
0.0
 10
-149.9243
 20
303.2129
 30
0.0
 10
-149.9243
 20
303.2129
 30
0.0
 10
-149.9243
 20
303.2129
 30
0.0
 10
-164.5781
 20
303.2129
 30
0.0
 10
-164.5781
 20
303.2129
 30
0.0
 10
-164.5781
 20
303.2129
 30
0.0
 10
-164.5781
 20
303.2129
 30
0.0
 10
-164.5781
 20
300.6725
 30
0.0
 10
-164.5781
 20
300.6725
 30
0.0
 10
-164.5781
 20
300.6725
 30
0.0
 10
-164.5781
 20
300.6725
 30
0.0
 10
-170.7709
 20
300.6725
 30
0.0
 10
-170.7709
 20
300.6725
 30
0.0
 10
-170.7709
 20
300.6725
 30
0.0
 10
-170.7709
 20
300.6725
 30
0.0
 10
-170.7709
 20
303.2129
 30
0.0
 10
-170.7709
 20
303.2129
 30
0.0
 10
-170.7709
 20
303.2129
 30
0.0
 10
-170.7709
 20
303.2129
 30
0.0
 10
-177.065
 20
303.2129
 30
0.0
 10
-177.065
 20
303.2129
 30
0.0
 10
-177.065
 20
303.2129
 30
0.0
 10
-177.065
 20
303.2129
 30
0.0
 10
-177.065
 20
300.6725
 30
0.0
 10
-177.065
 20
300.6725
 30
0.0
 10
-177.065
 20
300.6725
 30
0.0
 10
-177.065
 20
300.6725
 30
0.0
 10
-183.2574
 20
300.6725
 30
0.0
 10
-183.2574
 20
300.6725
 30
0.0
 10
-183.2574
 20
300.6725
 30
0.0
 10
-183.2574
 20
300.6725
 30
0.0
 10
-183.2574
 20
303.2129
 30
0.0
 10
-183.2574
 20
303.2129
 30
0.0
 10
-183.2574
 20
303.2129
 30
0.0
 10
-183.2574
 20
303.2129
 30
0.0
 10
-189.5515
 20
303.2129
 30
0.0
 10
-189.5515
 20
303.2129
 30
0.0
 10
-189.5515
 20
303.2129
 30
0.0
 10
-189.5515
 20
303.2129
 30
0.0
 10
-189.5515
 20
300.6725
 30
0.0
 10
-189.5515
 20
300.6725
 30
0.0
 10
-189.5515
 20
300.6725
 30
0.0
 10
-189.5515
 20
300.6725
 30
0.0
 10
-203.6358
 20
300.6725
 30
0.0
 10
-203.6358
 20
300.6725
 30
0.0
 10
-203.6358
 20
300.6725
 30
0.0
 10
-203.6358
 20
300.6725
 30
0.0
 10
-203.6358
 20
303.2129
 30
0.0
 10
-203.6358
 20
303.2129
 30
0.0
 10
-203.6358
 20
303.2129
 30
0.0
 10
-203.6358
 20
303.2129
 30
0.0
 10
-209.0378
 20
303.2129
 30
0.0
 10
-209.0378
 20
303.2129
 30
0.0
 10
-209.0378
 20
303.2129
 30
0.0
 10
-209.0378
 20
303.2129
 30
0.0
 10
-209.0378
 20
300.6725
 30
0.0
 10
-209.0378
 20
300.6725
 30
0.0
 10
-209.0378
 20
300.6725
 30
0.0
 10
-209.0378
 20
300.6725
 30
0.0
 10
-214.3387
 20
300.6725
 30
0.0
 10
-214.3387
 20
300.6725
 30
0.0
 10
-214.3387
 20
300.6725
 30
0.0
 10
-214.3387
 20
300.6725
 30
0.0
 10
-214.3387
 20
303.2129
 30
0.0
 10
-214.3387
 20
303.2129
 30
0.0
 10
-214.3387
 20
303.2129
 30
0.0
 10
-214.3387
 20
303.2129
 30
0.0
 10
-219.7406
 20
303.2129
 30
0.0
 10
-219.7406
 20
303.2129
 30
0.0
 10
-219.7406
 20
303.2129
 30
0.0
 10
-219.7406
 20
303.2129
 30
0.0
 10
-219.7406
 20
300.6725
 30
0.0
 10
-219.7406
 20
300.6725
 30
0.0
 10
-219.7406
 20
300.6725
 30
0.0
 10
-219.7406
 20
300.6725
 30
0.0
 10
-225.0416
 20
300.6725
 30
0.0
 10
-225.0416
 20
300.6725
 30
0.0
 10
-225.0416
 20
300.6725
 30
0.0
 10
-225.0416
 20
300.6725
 30
0.0
 10
-225.0416
 20
303.2129
 30
0.0
 10
-225.0416
 20
303.2129
 30
0.0
 10
-225.0416
 20
303.2129
 30
0.0
 10
-225.0416
 20
303.2129
 30
0.0
 10
-230.4435
 20
303.2129
 30
0.0
 10
-230.4435
 20
303.2129
 30
0.0
 10
-230.4435
 20
303.2129
 30
0.0
 10
-230.4435
 20
303.2129
 30
0.0
 10
-230.4435
 20
300.6725
 30
0.0
 10
-230.4435
 20
300.6725
 30
0.0
 10
-230.4435
 20
300.6725
 30
0.0
 10
-230.4435
 20
300.6725
 30
0.0
 10
-238.3351
 20
300.6725
 30
0.0
 10
-238.3351
 20
300.6725
 30
0.0
 10
-238.3351
 20
300.6725
 30
0.0
 10
-238.3351
 20
300.6725
 30
0.0
 10
-238.3351
 20
292.5786
 30
0.0
 10
-238.3351
 20
292.5786
 30
0.0
 10
-238.3351
 20
292.5786
 30
0.0
 10
-238.3351
 20
292.5786
 30
0.0
 10
-235.7949
 20
292.5786
 30
0.0
 10
-235.7949
 20
292.5786
 30
0.0
 10
-235.7949
 20
292.5786
 30
0.0
 10
-235.7949
 20
292.5786
 30
0.0
 10
-235.7949
 20
284.586
 30
0.0
 10
-235.7949
 20
284.586
 30
0.0
 10
-235.7949
 20
284.586
 30
0.0
 10
-235.7949
 20
284.586
 30
0.0
 10
-238.3351
 20
284.586
 30
0.0
 10
-238.3351
 20
284.586
 30
0.0
 10
-238.3351
 20
284.586
 30
0.0
 10
-238.3351
 20
284.586
 30
0.0
 10
-238.3351
 20
276.4921
 30
0.0
 10
-238.3351
 20
276.4921
 30
0.0
 10
-238.3351
 20
276.4921
 30
0.0
 10
-238.3351
 20
276.4921
 30
0.0
 10
-235.7949
 20
276.4921
 30
0.0
 10
-235.7949
 20
276.4921
 30
0.0
 10
-235.7949
 20
276.4921
 30
0.0
 10
-235.7949
 20
276.4921
 30
0.0
 10
-235.7949
 20
268.4994
 30
0.0
 10
-235.7949
 20
268.4994
 30
0.0
 10
-235.7949
 20
268.4994
 30
0.0
 10
-235.7949
 20
268.4994
 30
0.0
 10
-238.3351
 20
268.4994
 30
0.0
 10
-238.3351
 20
268.4994
 30
0.0
 10
-238.3351
 20
268.4994
 30
0.0
 10
-238.3351
 20
268.4994
 30
0.0
 10
-238.3351
 20
260.4056
 30
0.0
 10
-238.3351
 20
260.4056
 30
0.0
 10
-238.3351
 20
260.4056
 30
0.0
 10
-238.3351
 20
260.4056
 30
0.0
 10
-235.7949
 20
260.4056
 30
0.0
 10
-235.7949
 20
260.4056
 30
0.0
 10
-235.7949
 20
260.4056
 30
0.0
 10
-235.7949
 20
260.4056
 30
0.0
 10
-235.7949
 20
252.3621
 30
0.0
 10
-235.7949
 20
252.3621
 30
0.0
 10
-235.7949
 20
252.3621
 30
0.0
 10
-235.7949
 20
252.3621
 30
0.0
 10
-198.2843
 20
252.3621
 30
0.0
 10
-198.2843
 20
252.3621
 30
0.0
 10
-198.2843
 20
252.3621
 30
0.0
 10
-198.2843
 20
252.3621
 30
0.0
 10
-198.2843
 20
263.7921
 30
0.0
 10
-198.2843
 20
263.7921
 30
0.0
 10
-198.2843
 20
263.7921
 30
0.0
 10
-198.2843
 20
263.7921
 30
0.0
 10
-195.7947
 20
263.7921
 30
0.0
 10
-195.7947
 20
263.7921
 30
0.0
 10
-195.7947
 20
263.7921
 30
0.0
 10
-195.7947
 20
263.7921
 30
0.0
 10
-195.7947
 20
251.566
 30
0.0
 10
-195.7947
 20
251.566
 30
0.0
 10
-195.7947
 20
251.566
 30
0.0
 10
-195.7947
 20
251.566
 30
0.0
 10
-198.3351
 20
251.566
 30
0.0
 10
-198.3351
 20
251.566
 30
0.0
 10
-198.3351
 20
251.566
 30
0.0
 10
-198.3351
 20
251.566
 30
0.0
 10
-198.3351
 20
239.2386
 30
0.0
 10
-198.3351
 20
239.2386
 30
0.0
 10
-198.3351
 20
239.2386
 30
0.0
 10
-198.3351
 20
239.2386
 30
0.0
 10
-195.7947
 20
239.2386
 30
0.0
 10
-195.7947
 20
239.2386
 30
0.0
 10
-195.7947
 20
239.2386
 30
0.0
 10
-195.7947
 20
239.2386
 30
0.0
 10
-195.7947
 20
226.9621
 30
0.0
 10
-195.7947
 20
226.9621
 30
0.0
  0
SPLINE
  5
6F
330
1F
100
AcDbEntity
  8
Layer 1
 62
     3
370
     9
100
AcDbSpline
210
0.0
220
0.0
230
1.0
 70
    11
 71
     3
 72
    20
 73
    16
 74
     0
 42
0.0000000001
 43
0.0000000001
 40
0.0
 40
0.0
 40
0.0
 40
0.0
 40
0.2
 40
0.2
 40
0.2
 40
0.2
 40
0.4
 40
0.4
 40
0.4
 40
0.4
 40
0.6
 40
0.6
 40
0.6
 40
0.6
 40
1.0
 40
1.0
 40
1.0
 40
1.0
 10
-198.2843
 20
288.3456
 30
0.0
 10
-198.2843
 20
288.3456
 30
0.0
 10
-195.7947
 20
288.3456
 30
0.0
 10
-195.7947
 20
288.3456
 30
0.0
 10
-195.7947
 20
288.3456
 30
0.0
 10
-195.7947
 20
288.3456
 30
0.0
 10
-195.7947
 20
276.1194
 30
0.0
 10
-195.7947
 20
276.1194
 30
0.0
 10
-195.7947
 20
276.1194
 30
0.0
 10
-195.7947
 20
276.1194
 30
0.0
 10
-198.2843
 20
276.1194
 30
0.0
 10
-198.2843
 20
276.1194
 30
0.0
 10
-198.2843
 20
276.1194
 30
0.0
 10
-198.2843
 20
276.1194
 30
0.0
 10
-198.2843
 20
288.3456
 30
0.0
 10
-198.2843
 20
288.3456
 30
0.0
  0
SPLINE
  5
70
330
1F
100
AcDbEntity
  8
Layer 1
 62
     1
370
     9
100
AcDbSpline
210
0.0
220
0.0
230
1.0
 70
    11
 71
     3
 72
   224
 73
   220
 74
     0
 42
0.0000000001
 43
0.0000000001
 40
0.0
 40
0.0
 40
0.0
 40
0.0
 40
0.0178571428571429
 40
0.0178571428571429
 40
0.0178571428571429
 40
0.0178571428571429
 40
0.0357142857142857
 40
0.0357142857142857
 40
0.0357142857142857
 40
0.0357142857142857
 40
0.0535714285714286
 40
0.0535714285714286
 40
0.0535714285714286
 40
0.0535714285714286
 40
0.0714285714285714
 40
0.0714285714285714
 40
0.0714285714285714
 40
0.0714285714285714
 40
0.0892857142857143
 40
0.0892857142857143
 40
0.0892857142857143
 40
0.0892857142857143
 40
0.1071428571428571
 40
0.1071428571428571
 40
0.1071428571428571
 40
0.1071428571428571
 40
0.125
 40
0.125
 40
0.125
 40
0.125
 40
0.1428571428571428
 40
0.1428571428571428
 40
0.1428571428571428
 40
0.1428571428571428
 40
0.1607142857142857
 40
0.1607142857142857
 40
0.1607142857142857
 40
0.1607142857142857
 40
0.1785714285714286
 40
0.1785714285714286
 40
0.1785714285714286
 40
0.1785714285714286
 40
0.1964285714285714
 40
0.1964285714285714
 40
0.1964285714285714
 40
0.1964285714285714
 40
0.2142857142857143
 40
0.2142857142857143
 40
0.2142857142857143
 40
0.2142857142857143
 40
0.2321428571428572
 40
0.2321428571428572
 40
0.2321428571428572
 40
0.2321428571428572
 40
0.25
 40
0.25
 40
0.25
 40
0.25
 40
0.2678571428571428
 40
0.2678571428571428
 40
0.2678571428571428
 40
0.2678571428571428
 40
0.2857142857142857
 40
0.2857142857142857
 40
0.2857142857142857
 40
0.2857142857142857
 40
0.3035714285714285
 40
0.3035714285714285
 40
0.3035714285714285
 40
0.3035714285714285
 40
0.3214285714285715
 40
0.3214285714285715
 40
0.3214285714285715
 40
0.3214285714285715
 40
0.3392857142857143
 40
0.3392857142857143
 40
0.3392857142857143
 40
0.3392857142857143
 40
0.3571428571428572
 40
0.3571428571428572
 40
0.3571428571428572
 40
0.3571428571428572
 40
0.375
 40
0.375
 40
0.375
 40
0.375
 40
0.3928571428571428
 40
0.3928571428571428
 40
0.3928571428571428
 40
0.3928571428571428
 40
0.4107142857142857
 40
0.4107142857142857
 40
0.4107142857142857
 40
0.4107142857142857
 40
0.4285714285714285
 40
0.4285714285714285
 40
0.4285714285714285
 40
0.4285714285714285
 40
0.4464285714285715
 40
0.4464285714285715
 40
0.4464285714285715
 40
0.4464285714285715
 40
0.4642857142857143
 40
0.4642857142857143
 40
0.4642857142857143
 40
0.4642857142857143
 40
0.4821428571428572
 40
0.4821428571428572
 40
0.4821428571428572
 40
0.4821428571428572
 40
0.5
 40
0.5
 40
0.5
 40
0.5
 40
0.5178571428571429
 40
0.5178571428571429
 40
0.5178571428571429
 40
0.5178571428571429
 40
0.5357142857142857
 40
0.5357142857142857
 40
0.5357142857142857
 40
0.5357142857142857
 40
0.5535714285714286
 40
0.5535714285714286
 40
0.5535714285714286
 40
0.5535714285714286
 40
0.5714285714285714
 40
0.5714285714285714
 40
0.5714285714285714
 40
0.5714285714285714
 40
0.5892857142857143
 40
0.5892857142857143
 40
0.5892857142857143
 40
0.5892857142857143
 40
0.6071428571428571
 40
0.6071428571428571
 40
0.6071428571428571
 40
0.6071428571428571
 40
0.625
 40
0.625
 40
0.625
 40
0.625
 40
0.6428571428571429
 40
0.6428571428571429
 40
0.6428571428571429
 40
0.6428571428571429
 40
0.6607142857142857
 40
0.6607142857142857
 40
0.6607142857142857
 40
0.6607142857142857
 40
0.6785714285714286
 40
0.6785714285714286
 40
0.6785714285714286
 40
0.6785714285714286
 40
0.6964285714285714
 40
0.6964285714285714
 40
0.6964285714285714
 40
0.6964285714285714
 40
0.7142857142857143
 40
0.7142857142857143
 40
0.7142857142857143
 40
0.7142857142857143
 40
0.7321428571428571
 40
0.7321428571428571
 40
0.7321428571428571
 40
0.7321428571428571
 40
0.75
 40
0.75
 40
0.75
 40
0.75
 40
0.7678571428571429
 40
0.7678571428571429
 40
0.7678571428571429
 40
0.7678571428571429
 40
0.7857142857142857
 40
0.7857142857142857
 40
0.7857142857142857
 40
0.7857142857142857
 40
0.8035714285714286
 40
0.8035714285714286
 40
0.8035714285714286
 40
0.8035714285714286
 40
0.8214285714285714
 40
0.8214285714285714
 40
0.8214285714285714
 40
0.8214285714285714
 40
0.8392857142857143
 40
0.8392857142857143
 40
0.8392857142857143
 40
0.8392857142857143
 40
0.8571428571428571
 40
0.8571428571428571
 40
0.8571428571428571
 40
0.8571428571428571
 40
0.875
 40
0.875
 40
0.875
 40
0.875
 40
0.8928571428571429
 40
0.8928571428571429
 40
0.8928571428571429
 40
0.8928571428571429
 40
0.9107142857142857
 40
0.9107142857142857
 40
0.9107142857142857
 40
0.9107142857142857
 40
0.9285714285714286
 40
0.9285714285714286
 40
0.9285714285714286
 40
0.9285714285714286
 40
0.9464285714285714
 40
0.9464285714285714
 40
0.9464285714285714
 40
0.9464285714285714
 40
0.9642857142857143
 40
0.9642857142857143
 40
0.9642857142857143
 40
0.9642857142857143
 40
1.0
 40
1.0
 40
1.0
 40
1.0
 10
-142.0562
 20
220.7879
 30
0.0
 10
-142.0562
 20
220.7879
 30
0.0
 10
-142.0562
 20
220.7879
 30
0.0
 10
-142.0562
 20
220.7879
 30
0.0
 10
-142.0562
 20
220.7879
 30
0.0
 10
-142.0562
 20
220.7879
 30
0.0
 10
-140.8505
 20
220.3375
 30
0.0
 10
-140.8505
 20
220.3375
 30
0.0
 10
-140.8505
 20
220.3375
 30
0.0
 10
-140.8505
 20
220.3375
 30
0.0
 10
-139.6143
 20
220.1132
 30
0.0
 10
-139.6143
 20
220.1132
 30
0.0
 10
-139.6143
 20
220.1132
 30
0.0
 10
-139.6143
 20
220.1132
 30
0.0
 10
-138.3752
 20
220.1073
 30
0.0
 10
-138.3752
 20
220.1073
 30
0.0
 10
-138.3752
 20
220.1073
 30
0.0
 10
-138.3752
 20
220.1073
 30
0.0
 10
-137.1608
 20
220.3093
 30
0.0
 10
-137.1608
 20
220.3093
 30
0.0
 10
-137.1608
 20
220.3093
 30
0.0
 10
-137.1608
 20
220.3093
 30
0.0
 10
-135.9999
 20
220.7109
 30
0.0
 10
-135.9999
 20
220.7109
 30
0.0
 10
-135.9999
 20
220.7109
 30
0.0
 10
-135.9999
 20
220.7109
 30
0.0
 10
-134.9196
 20
221.3027
 30
0.0
 10
-134.9196
 20
221.3027
 30
0.0
 10
-134.9196
 20
221.3027
 30
0.0
 10
-134.9196
 20
221.3027
 30
0.0
 10
-133.9485
 20
222.0758
 30
0.0
 10
-133.9485
 20
222.0758
 30
0.0
 10
-133.9485
 20
222.0758
 30
0.0
 10
-133.9485
 20
222.0758
 30
0.0
 10
-133.1139
 20
223.0207
 30
0.0
 10
-133.1139
 20
223.0207
 30
0.0
 10
-133.1139
 20
223.0207
 30
0.0
 10
-133.1139
 20
223.0207
 30
0.0
 10
-132.4443
 20
224.1284
 30
0.0
 10
-132.4443
 20
224.1284
 30
0.0
 10
-132.4443
 20
224.1284
 30
0.0
 10
-132.4443
 20
224.1284
 30
0.0
 10
-130.4465
 20
228.8048
 30
0.0
 10
-130.4465
 20
228.8048
 30
0.0
 10
-130.4465
 20
228.8048
 30
0.0
 10
-130.4465
 20
228.8048
 30
0.0
 10
-128.9483
 20
233.6169
 30
0.0
 10
-128.9483
 20
233.6169
 30
0.0
 10
-128.9483
 20
233.6169
 30
0.0
 10
-128.9483
 20
233.6169
 30
0.0
 10
-127.9493
 20
238.5254
 30
0.0
 10
-127.9493
 20
238.5254
 30
0.0
 10
-127.9493
 20
238.5254
 30
0.0
 10
-127.9493
 20
238.5254
 30
0.0
 10
-127.4497
 20
243.4931
 30
0.0
 10
-127.4497
 20
243.4931
 30
0.0
 10
-127.4497
 20
243.4931
 30
0.0
 10
-127.4497
 20
243.4931
 30
0.0
 10
-127.4497
 20
248.4807
 30
0.0
 10
-127.4497
 20
248.4807
 30
0.0
 10
-127.4497
 20
248.4807
 30
0.0
 10
-127.4497
 20
248.4807
 30
0.0
 10
-127.9493
 20
253.4503
 30
0.0
 10
-127.9493
 20
253.4503
 30
0.0
 10
-127.9493
 20
253.4503
 30
0.0
 10
-127.9493
 20
253.4503
 30
0.0
 10
-128.9483
 20
258.3636
 30
0.0
 10
-128.9483
 20
258.3636
 30
0.0
 10
-128.9483
 20
258.3636
 30
0.0
 10
-128.9483
 20
258.3636
 30
0.0
 10
-130.4465
 20
263.1821
 30
0.0
 10
-130.4465
 20
263.1821
 30
0.0
 10
-130.4465
 20
263.1821
 30
0.0
 10
-130.4465
 20
263.1821
 30
0.0
 10
-132.4443
 20
267.8672
 30
0.0
 10
-132.4443
 20
267.8672
 30
0.0
 10
-132.4443
 20
267.8672
 30
0.0
 10
-132.4443
 20
267.8672
 30
0.0
 10
-132.6983
 20
268.3399
 30
0.0
 10
-132.6983
 20
268.3399
 30
0.0
 10
-132.6983
 20
268.3399
 30
0.0
 10
-132.6983
 20
268.3399
 30
0.0
 10
-132.9865
 20
268.7919
 30
0.0
 10
-132.9865
 20
268.7919
 30
0.0
 10
-132.9865
 20
268.7919
 30
0.0
 10
-132.9865
 20
268.7919
 30
0.0
 10
-133.3063
 20
269.221
 30
0.0
 10
-133.3063
 20
269.221
 30
0.0
 10
-133.3063
 20
269.221
 30
0.0
 10
-133.3063
 20
269.221
 30
0.0
 10
-133.656
 20
269.625
 30
0.0
 10
-133.656
 20
269.625
 30
0.0
 10
-133.656
 20
269.625
 30
0.0
 10
-133.656
 20
269.625
 30
0.0
 10
-134.0326
 20
270.0012
 30
0.0
 10
-134.0326
 20
270.0012
 30
0.0
 10
-134.0326
 20
270.0012
 30
0.0
 10
-134.0326
 20
270.0012
 30
0.0
 10
-134.4351
 20
270.3481
 30
0.0
 10
-134.4351
 20
270.3481
 30
0.0
 10
-134.4351
 20
270.3481
 30
0.0
 10
-134.4351
 20
270.3481
 30
0.0
 10
-134.8605
 20
270.6628
 30
0.0
 10
-134.8605
 20
270.6628
 30
0.0
 10
-134.8605
 20
270.6628
 30
0.0
 10
-134.8605
 20
270.6628
 30
0.0
 10
-135.3066
 20
270.9438
 30
0.0
 10
-135.3066
 20
270.9438
 30
0.0
 10
-135.3066
 20
270.9438
 30
0.0
 10
-135.3066
 20
270.9438
 30
0.0
 10
-135.7717
 20
271.1883
 30
0.0
 10
-135.7717
 20
271.1883
 30
0.0
 10
-135.7717
 20
271.1883
 30
0.0
 10
-135.7717
 20
271.1883
 30
0.0
 10
-136.987
 20
271.6486
 30
0.0
 10
-136.987
 20
271.6486
 30
0.0
 10
-136.987
 20
271.6486
 30
0.0
 10
-136.987
 20
271.6486
 30
0.0
 10
-138.2304
 20
271.88
 30
0.0
 10
-138.2304
 20
271.88
 30
0.0
 10
-138.2304
 20
271.88
 30
0.0
 10
-138.2304
 20
271.88
 30
0.0
 10
-139.475
 20
271.8919
 30
0.0
 10
-139.475
 20
271.8919
 30
0.0
 10
-139.475
 20
271.8919
 30
0.0
 10
-139.475
 20
271.8919
 30
0.0
 10
-140.6926
 20
271.6931
 30
0.0
 10
-140.6926
 20
271.6931
 30
0.0
 10
-140.6926
 20
271.6931
 30
0.0
 10
-140.6926
 20
271.6931
 30
0.0
 10
-141.8558
 20
271.2934
 30
0.0
 10
-141.8558
 20
271.2934
 30
0.0
 10
-141.8558
 20
271.2934
 30
0.0
 10
-141.8558
 20
271.2934
 30
0.0
 10
-142.9373
 20
270.7013
 30
0.0
 10
-142.9373
 20
270.7013
 30
0.0
 10
-142.9373
 20
270.7013
 30
0.0
 10
-142.9373
 20
270.7013
 30
0.0
 10
-143.9089
 20
269.9262
 30
0.0
 10
-143.9089
 20
269.9262
 30
0.0
 10
-143.9089
 20
269.9262
 30
0.0
 10
-143.9089
 20
269.9262
 30
0.0
 10
-144.7431
 20
268.9773
 30
0.0
 10
-144.7431
 20
268.9773
 30
0.0
 10
-144.7431
 20
268.9773
 30
0.0
 10
-144.7431
 20
268.9773
 30
0.0
 10
-145.4126
 20
267.864
 30
0.0
 10
-145.4126
 20
267.864
 30
0.0
 10
-145.4126
 20
267.864
 30
0.0
 10
-145.4126
 20
267.864
 30
0.0
 10
-147.401
 20
263.1885
 30
0.0
 10
-147.401
 20
263.1885
 30
0.0
 10
-147.401
 20
263.1885
 30
0.0
 10
-147.401
 20
263.1885
 30
0.0
 10
-148.892
 20
258.3771
 30
0.0
 10
-148.892
 20
258.3771
 30
0.0
 10
-148.892
 20
258.3771
 30
0.0
 10
-148.892
 20
258.3771
 30
0.0
 10
-149.8862
 20
253.469
 30
0.0
 10
-149.8862
 20
253.469
 30
0.0
 10
-149.8862
 20
253.469
 30
0.0
 10
-149.8862
 20
253.469
 30
0.0
 10
-150.3835
 20
248.5017
 30
0.0
 10
-150.3835
 20
248.5017
 30
0.0
 10
-150.3835
 20
248.5017
 30
0.0
 10
-150.3835
 20
248.5017
 30
0.0
 10
-150.3835
 20
243.5138
 30
0.0
 10
-150.3835
 20
243.5138
 30
0.0
 10
-150.3835
 20
243.5138
 30
0.0
 10
-150.3835
 20
243.5138
 30
0.0
 10
-149.8862
 20
238.5441
 30
0.0
 10
-149.8862
 20
238.5441
 30
0.0
 10
-149.8862
 20
238.5441
 30
0.0
 10
-149.8862
 20
238.5441
 30
0.0
 10
-148.892
 20
233.6304
 30
0.0
 10
-148.892
 20
233.6304
 30
0.0
 10
-148.892
 20
233.6304
 30
0.0
 10
-148.892
 20
233.6304
 30
0.0
 10
-147.401
 20
228.8111
 30
0.0
 10
-147.401
 20
228.8111
 30
0.0
 10
-147.401
 20
228.8111
 30
0.0
 10
-147.401
 20
228.8111
 30
0.0
 10
-145.4126
 20
224.1252
 30
0.0
 10
-145.4126
 20
224.1252
 30
0.0
 10
-145.4126
 20
224.1252
 30
0.0
 10
-145.4126
 20
224.1252
 30
0.0
 10
-145.1598
 20
223.6534
 30
0.0
 10
-145.1598
 20
223.6534
 30
0.0
 10
-145.1598
 20
223.6534
 30
0.0
 10
-145.1598
 20
223.6534
 30
0.0
 10
-144.8737
 20
223.2033
 30
0.0
 10
-144.8737
 20
223.2033
 30
0.0
 10
-144.8737
 20
223.2033
 30
0.0
 10
-144.8737
 20
223.2033
 30
0.0
 10
-144.5562
 20
222.7771
 30
0.0
 10
-144.5562
 20
222.7771
 30
0.0
 10
-144.5562
 20
222.7771
 30
0.0
 10
-144.5562
 20
222.7771
 30
0.0
 10
-144.2085
 20
222.3754
 30
0.0
 10
-144.2085
 20
222.3754
 30
0.0
 10
-144.2085
 20
222.3754
 30
0.0
 10
-144.2085
 20
222.3754
 30
0.0
 10
-143.8315
 20
222.0004
 30
0.0
 10
-143.8315
 20
222.0004
 30
0.0
 10
-143.8315
 20
222.0004
 30
0.0
 10
-143.8315
 20
222.0004
 30
0.0
 10
-143.4267
 20
221.6523
 30
0.0
 10
-143.4267
 20
221.6523
 30
0.0
 10
-143.4267
 20
221.6523
 30
0.0
 10
-143.4267
 20
221.6523
 30
0.0
 10
-142.9949
 20
221.3336
 30
0.0
 10
-142.9949
 20
221.3336
 30
0.0
 10
-142.9949
 20
221.3336
 30
0.0
 10
-142.9949
 20
221.3336
 30
0.0
 10
-142.5377
 20
221.0447
 30
0.0
 10
-142.5377
 20
221.0447
 30
0.0
 10
-142.5377
 20
221.0447
 30
0.0
 10
-142.5377
 20
221.0447
 30
0.0
 10
-142.0562
 20
220.7879
 30
0.0
 10
-142.0562
 20
220.7879
 30
0.0
  0
SPLINE
  5
71
330
1F
100
AcDbEntity
  8
Layer 1
 62
     6
370
     9
100
AcDbSpline
210
0.0
220
0.0
230
1.0
 70
    11
 71
     3
 72
    20
 73
    16
 74
     0
 42
0.0000000001
 43
0.0000000001
 40
0.0
 40
0.0
 40
0.0
 40
0.0
 40
0.2
 40
0.2
 40
0.2
 40
0.2
 40
0.4
 40
0.4
 40
0.4
 40
0.4
 40
0.6
 40
0.6
 40
0.6
 40
0.6
 40
1.0
 40
1.0
 40
1.0
 40
1.0
 10
-615.95
 20
-311.15
 30
0.0
 10
-615.95
 20
-311.15
 30
0.0
 10
615.95
 20
-311.15
 30
0.0
 10
615.95
 20
-311.15
 30
0.0
 10
615.95
 20
-311.15
 30
0.0
 10
615.95
 20
-311.15
 30
0.0
 10
615.95
 20
311.15
 30
0.0
 10
615.95
 20
311.15
 30
0.0
 10
615.95
 20
311.15
 30
0.0
 10
615.95
 20
311.15
 30
0.0
 10
-615.95
 20
311.15
 30
0.0
 10
-615.95
 20
311.15
 30
0.0
 10
-615.95
 20
311.15
 30
0.0
 10
-615.95
 20
311.15
 30
0.0
 10
-615.95
 20
-311.15
 30
0.0
 10
-615.95
 20
-311.15
 30
0.0
  0
ENDSEC
  0
SECTION
  2
OBJECTS
  0
DICTIONARY
  5
C
330
0
100
AcDbDictionary
281
     1
  3
ACAD_GROUP
350
D
  3
ACAD_LAYOUT
350
1A
  3
ACAD_MATERIAL
350
3B
  3
ACAD_MLEADERSTYLE
350
74
  3
ACAD_MLINESTYLE
350
17
  3
ACAD_PLOTSETTINGS
350
19
  3
ACAD_PLOTSTYLENAME
350
E
  3
ACAD_VISUALSTYLE
350
2A
  3
AcDbVariableDictionary
350
72
  0
DICTIONARY
  5
D
102
{ACAD_REACTORS
330
C
102
}
330
C
100
AcDbDictionary
281
     1
  0
DICTIONARY
  5
1A
102
{ACAD_REACTORS
330
C
102
}
330
C
100
AcDbDictionary
281
     1
  3
Layout1
350
1E
  3
Layout2
350
26
  3
Model
350
22
  0
DICTIONARY
  5
3B
102
{ACAD_REACTORS
330
C
102
}
330
C
100
AcDbDictionary
281
     1
  3
ByBlock
350
3D
  3
ByLayer
350
3C
  3
Global
350
3E
  0
DICTIONARY
  5
74
102
{ACAD_REACTORS
330
C
102
}
330
C
100
AcDbDictionary
281
     1
  0
DICTIONARY
  5
17
102
{ACAD_REACTORS
330
C
102
}
330
C
100
AcDbDictionary
281
     1
  3
Standard
350
18
  0
DICTIONARY
  5
19
102
{ACAD_REACTORS
330
C
102
}
330
C
100
AcDbDictionary
281
     1
  0
ACDBDICTIONARYWDFLT
  5
E
102
{ACAD_REACTORS
330
C
102
}
330
C
100
AcDbDictionary
281
     1
  3
Normal
350
F
100
AcDbDictionaryWithDefault
340
F
  0
DICTIONARY
  5
2A
102
{ACAD_REACTORS
330
C
102
}
330
C
100
AcDbDictionary
281
     1
  3
2dWireframe
350
2F
  3
3D Hidden
350
31
  3
3dWireframe
350
30
  3
Basic
350
32
  3
Brighten
350
36
  3
ColorChange
350
3A
  3
Conceptual
350
34
  3
Dim
350
35
  3
Facepattern
350
39
  3
Flat
350
2B
  3
FlatWithEdges
350
2C
  3
Gouraud
350
2D
  3
GouraudWithEdges
350
2E
  3
Linepattern
350
38
  3
Realistic
350
33
  3
Thicken
350
37
  0
DICTIONARY
  5
72
102
{ACAD_REACTORS
330
C
102
}
330
C
100
AcDbDictionary
281
     1
  3
DIMASSOC
350
75
  3
HIDETEXT
350
76
  0
LAYOUT
  5
1E
102
{ACAD_REACTORS
330
1A
102
}
330
1A
100
AcDbPlotSettings
  1

  2
none_device
  4

  6

 40
0.0
 41
0.0
 42
0.0
 43
0.0
 44
0.0
 45
0.0
 46
0.0
 47
0.0
 48
0.0
 49
0.0
140
0.0
141
0.0
142
1.0
143
1.0
 70
   688
 72
     0
 73
     0
 74
     5
  7

 75
    16
147
1.0
148
0.0
149
0.0
100
AcDbLayout
  1
Layout1
 70
     1
 71
     1
 10
0.0
 20
0.0
 11
12.0
 21
9.0
 12
0.0
 22
0.0
 32
0.0
 14
1.000000000000000E+20
 24
1.000000000000000E+20
 34
1.000000000000000E+20
 15
-1.000000000000000E+20
 25
-1.000000000000000E+20
 35
-1.000000000000000E+20
146
0.0
 13
0.0
 23
0.0
 33
0.0
 16
1.0
 26
0.0
 36
0.0
 17
0.0
 27
1.0
 37
0.0
 76
     0
330
1B
  0
LAYOUT
  5
26
102
{ACAD_REACTORS
330
1A
102
}
330
1A
100
AcDbPlotSettings
  1

  2
none_device
  4

  6

 40
0.0
 41
0.0
 42
0.0
 43
0.0
 44
0.0
 45
0.0
 46
0.0
 47
0.0
 48
0.0
 49
0.0
140
0.0
141
0.0
142
1.0
143
1.0
 70
   688
 72
     0
 73
     0
 74
     5
  7

 75
    16
147
1.0
148
0.0
149
0.0
100
AcDbLayout
  1
Layout2
 70
     1
 71
     2
 10
0.0
 20
0.0
 11
0.0
 21
0.0
 12
0.0
 22
0.0
 32
0.0
 14
0.0
 24
0.0
 34
0.0
 15
0.0
 25
0.0
 35
0.0
146
0.0
 13
0.0
 23
0.0
 33
0.0
 16
1.0
 26
0.0
 36
0.0
 17
0.0
 27
1.0
 37
0.0
 76
     0
330
23
  0
LAYOUT
  5
22
102
{ACAD_REACTORS
330
1A
102
}
330
1A
100
AcDbPlotSettings
  1

  2
none_device
  4

  6

 40
0.0
 41
0.0
 42
0.0
 43
0.0
 44
0.0
 45
0.0
 46
0.0
 47
0.0
 48
0.0
 49
0.0
140
0.0
141
0.0
142
1.0
143
1.0
 70
  1712
 72
     0
 73
     0
 74
     0
  7

 75
     0
147
1.0
148
0.0
149
0.0
100
AcDbLayout
  1
Model
 70
     1
 71
     0
 10
0.0
 20
0.0
 11
12.0
 21
9.0
 12
0.0
 22
0.0
 32
0.0
 14
-615.9881
 24
-311.1881
 34
0.0
 15
615.9881
 25
311.1881
 35
0.0
146
0.0
 13
0.0
 23
0.0
 33
0.0
 16
1.0
 26
0.0
 36
0.0
 17
0.0
 27
1.0
 37
0.0
 76
     0
330
1F
331
29
  0
MATERIAL
  5
3D
102
{ACAD_REACTORS
330
3B
102
}
102
{ACAD_XDICTIONARY
360
99
102
}
330
3B
100
AcDbMaterial
  1
ByBlock
  0
MATERIAL
  5
3C
102
{ACAD_REACTORS
330
3B
102
}
102
{ACAD_XDICTIONARY
360
97
102
}
330
3B
100
AcDbMaterial
  1
ByLayer
  0
MATERIAL
  5
3E
102
{ACAD_REACTORS
330
3B
102
}
102
{ACAD_XDICTIONARY
360
9B
102
}
330
3B
100
AcDbMaterial
  1
Global
  0
MLINESTYLE
  5
18
102
{ACAD_REACTORS
330
17
102
}
330
17
100
AcDbMlineStyle
  2
Standard
 70
     0
  3

 62
   256
 51
90.0
 52
90.0
 71
     2
 49
0.5
 62
   256
  6
BYLAYER
 49
-0.5
 62
   256
  6
BYLAYER
  0
ACDBPLACEHOLDER
  5
F
102
{ACAD_REACTORS
330
E
102
}
330
E
  0
VISUALSTYLE
  5
2F
102
{ACAD_REACTORS
330
2A
102
}
102
{ACAD_XDICTIONARY
360
7F
102
}
330
2A
100
AcDbVisualStyle
  2
2dWireframe
 70
     4
 71
     0
 72
     2
 73
     0
 90
        0
 40
-0.6
 41
-30.0
 62
     5
 63
     7
 74
     1
 91
        4
 64
     7
 65
   257
 75
     1
175
     1
 42
1.0
 92
        0
 66
   257
 43
1.0
 76
     1
 77
     6
 78
     2
 67
     7
 79
     5
170
     0
171
     0
290
     0
174
     0
 93
        1
 44
0.0
173
     0
291
     0
 45
0.0
1001
ACAD
1000
AcDbSavedByObjectVersion
1070
     0
  0
VISUALSTYLE
  5
31
102
{ACAD_REACTORS
330
2A
102
}
102
{ACAD_XDICTIONARY
360
83
102
}
330
2A
100
AcDbVisualStyle
  2
3D Hidden
 70
     6
 71
     1
 72
     2
 73
     2
 90
        0
 40
-0.6
 41
-30.0
 62
     5
 63
     7
 74
     2
 91
        2
 64
     7
 65
   257
 75
     2
175
     1
 42
40.0
 92
        0
 66
   257
 43
1.0
 76
     1
 77
     6
 78
     2
 67
     7
 79
     3
170
     0
171
     0
290
     0
174
     0
 93
        1
 44
0.0
173
     0
291
     0
 45
0.0
1001
ACAD
1000
AcDbSavedByObjectVersion
1070
     0
  0
VISUALSTYLE
  5
30
102
{ACAD_REACTORS
330
2A
102
}
102
{ACAD_XDICTIONARY
360
81
102
}
330
2A
100
AcDbVisualStyle
  2
3dWireframe
 70
     5
 71
     0
 72
     2
 73
     0
 90
        0
 40
-0.6
 41
-30.0
 62
     5
 63
     7
 74
     1
 91
        4
 64
     7
 65
   257
 75
     1
175
     1
 42
1.0
 92
        0
 66
   257
 43
1.0
 76
     1
 77
     6
 78
     2
 67
     7
 79
     5
170
     0
171
     0
290
     0
174
     0
 93
        1
 44
0.0
173
     0
291
     0
 45
0.0
1001
ACAD
1000
AcDbSavedByObjectVersion
1070
     0
  0
VISUALSTYLE
  5
32
102
{ACAD_REACTORS
330
2A
102
}
102
{ACAD_XDICTIONARY
360
85
102
}
330
2A
100
AcDbVisualStyle
  2
Basic
 70
     7
 71
     1
 72
     0
 73
     1
 90
        0
 40
-0.6
 41
-30.0
 62
     5
 63
     7
 74
     0
 91
        4
 64
     7
 65
   257
 75
     1
175
     1
 42
1.0
 92
        8
 66
     7
 43
1.0
 76
     1
 77
     6
 78
     2
 67
     7
 79
     5
170
     0
171
     0
290
     0
174
     0
 93
        1
 44
0.0
173
     0
291
     1
 45
0.0
1001
ACAD
1000
AcDbSavedByObjectVersion
1070
     0
  0
VISUALSTYLE
  5
36
102
{ACAD_REACTORS
330
2A
102
}
102
{ACAD_XDICTIONARY
360
8D
102
}
330
2A
100
AcDbVisualStyle
  2
Brighten
 70
    12
 71
     2
 72
     2
 73
     0
 90
        0
 40
-0.6
 41
-30.0
 62
     5
 63
     7
 74
     1
 91
        4
 64
     7
 65
   257
 75
     1
175
     1
 42
1.0
 92
        8
 66
     7
 43
1.0
 76
     1
 77
     6
 78
     2
 67
     7
 79
     5
170
     0
171
     0
290
     0
174
     0
 93
        1
 44
50.0
173
     0
291
     1
 45
0.0
1001
ACAD
1000
AcDbSavedByObjectVersion
1070
     0
  0
VISUALSTYLE
  5
3A
102
{ACAD_REACTORS
330
2A
102
}
102
{ACAD_XDICTIONARY
360
95
102
}
330
2A
100
AcDbVisualStyle
  2
ColorChange
 70
    16
 71
     2
 72
     2
 73
     3
 90
        0
 40
-0.6
 41
-30.0
 62
     5
 63
     8
 74
     1
 91
        4
 64
     7
 65
   257
 75
     1
175
     1
 42
1.0
 92
        8
 66
     8
 43
1.0
 76
     1
 77
     6
 78
     2
 67
     7
 79
     5
170
     0
171
     0
290
     0
174
     0
 93
        1
 44
0.0
173
     0
291
     1
 45
0.0
1001
ACAD
1000
AcDbSavedByObjectVersion
1070
     0
  0
VISUALSTYLE
  5
34
102
{ACAD_REACTORS
330
2A
102
}
102
{ACAD_XDICTIONARY
360
89
102
}
330
2A
100
AcDbVisualStyle
  2
Conceptual
 70
     9
 71
     3
 72
     2
 73
     0
 90
        0
 40
-0.6
 41
-30.0
 62
     5
 63
     7
 74
     2
 91
        2
 64
     7
 65
   257
 75
     1
175
     1
 42
40.0
 92
        8
 66
     7
 43
1.0
 76
     1
 77
     6
 78
     2
 67
     7
 79
     3
170
     0
171
     0
290
     0
174
     0
 93
        1
 44
0.0
173
     0
291
     0
 45
0.0
1001
ACAD
1000
AcDbSavedByObjectVersion
1070
     0
  0
VISUALSTYLE
  5
35
102
{ACAD_REACTORS
330
2A
102
}
102
{ACAD_XDICTIONARY
360
8B
102
}
330
2A
100
AcDbVisualStyle
  2
Dim
 70
    11
 71
     2
 72
     2
 73
     0
 90
        0
 40
-0.6
 41
-30.0
 62
     5
 63
     7
 74
     1
 91
        4
 64
     7
 65
   257
 75
     1
175
     1
 42
1.0
 92
        8
 66
     7
 43
1.0
 76
     1
 77
     6
 78
     2
 67
     7
 79
     5
170
     0
171
     0
290
     0
174
     0
 93
        1
 44
-50.0
173
     0
291
     1
 45
0.0
1001
ACAD
1000
AcDbSavedByObjectVersion
1070
     0
  0
VISUALSTYLE
  5
39
102
{ACAD_REACTORS
330
2A
102
}
102
{ACAD_XDICTIONARY
360
93
102
}
330
2A
100
AcDbVisualStyle
  2
Facepattern
 70
    15
 71
     2
 72
     2
 73
     0
 90
        0
 40
-0.6
 41
-30.0
 62
     5
 63
     7
 74
     1
 91
        4
 64
     7
 65
   257
 75
     1
175
     1
 42
1.0
 92
        8
 66
     7
 43
1.0
 76
     1
 77
     6
 78
     2
 67
     7
 79
     5
170
     0
171
     0
290
     0
174
     0
 93
        1
 44
0.0
173
     0
291
     1
 45
0.0
1001
ACAD
1000
AcDbSavedByObjectVersion
1070
     0
  0
VISUALSTYLE
  5
2B
102
{ACAD_REACTORS
330
2A
102
}
102
{ACAD_XDICTIONARY
360
77
102
}
330
2A
100
AcDbVisualStyle
  2
Flat
 70
     0
 71
     2
 72
     1
 73
     1
 90
        2
 40
-0.6
 41
30.0
 62
     5
 63
     7
 74
     0
 91
        4
 64
     7
 65
   257
 75
     1
175
     1
 42
1.0
 92
        8
 66
     7
 43
1.0
 76
     1
 77
     6
 78
     2
 67
     7
 79
     5
170
     0
171
     0
290
     0
174
     0
 93
       13
 44
0.0
173
     0
291
     1
 45
0.0
1001
ACAD
1000
AcDbSavedByObjectVersion
1070
     0
  0
VISUALSTYLE
  5
2C
102
{ACAD_REACTORS
330
2A
102
}
102
{ACAD_XDICTIONARY
360
79
102
}
330
2A
100
AcDbVisualStyle
  2
FlatWithEdges
 70
     1
 71
     2
 72
     1
 73
     1
 90
        2
 40
-0.6
 41
30.0
 62
     5
 63
     7
 74
     1
 91
        4
 64
     7
 65
   257
 75
     1
175
     1
 42
1.0
 92
        0
 66
   257
 43
1.0
 76
     1
 77
     6
 78
     2
 67
     7
 79
     5
170
     0
171
     0
290
     0
174
     0
 93
       13
 44
0.0
173
     0
291
     1
 45
0.0
1001
ACAD
1000
AcDbSavedByObjectVersion
1070
     0
  0
VISUALSTYLE
  5
2D
102
{ACAD_REACTORS
330
2A
102
}
102
{ACAD_XDICTIONARY
360
7B
102
}
330
2A
100
AcDbVisualStyle
  2
Gouraud
 70
     2
 71
     2
 72
     2
 73
     1
 90
        2
 40
-0.6
 41
30.0
 62
     5
 63
     7
 74
     0
 91
        4
 64
     7
 65
   257
 75
     1
175
     1
 42
1.0
 92
        0
 66
     7
 43
1.0
 76
     1
 77
     6
 78
     2
 67
     7
 79
     5
170
     0
171
     0
290
     0
174
     0
 93
       13
 44
0.0
173
     0
291
     1
 45
0.0
1001
ACAD
1000
AcDbSavedByObjectVersion
1070
     0
  0
VISUALSTYLE
  5
2E
102
{ACAD_REACTORS
330
2A
102
}
102
{ACAD_XDICTIONARY
360
7D
102
}
330
2A
100
AcDbVisualStyle
  2
GouraudWithEdges
 70
     3
 71
     2
 72
     2
 73
     1
 90
        2
 40
-0.6
 41
30.0
 62
     5
 63
     7
 74
     1
 91
        4
 64
     7
 65
   257
 75
     1
175
     1
 42
1.0
 92
        0
 66
   257
 43
1.0
 76
     1
 77
     6
 78
     2
 67
     7
 79
     5
170
     0
171
     0
290
     0
174
     0
 93
       13
 44
0.0
173
     0
291
     1
 45
0.0
1001
ACAD
1000
AcDbSavedByObjectVersion
1070
     0
  0
VISUALSTYLE
  5
38
102
{ACAD_REACTORS
330
2A
102
}
102
{ACAD_XDICTIONARY
360
91
102
}
330
2A
100
AcDbVisualStyle
  2
Linepattern
 70
    14
 71
     2
 72
     2
 73
     0
 90
        0
 40
-0.6
 41
-30.0
 62
     5
 63
     7
 74
     1
 91
        4
 64
     7
 65
   257
 75
     7
175
     7
 42
1.0
 92
        8
 66
     7
 43
1.0
 76
     1
 77
     6
 78
     2
 67
     7
 79
     5
170
     0
171
     0
290
     0
174
     0
 93
        1
 44
0.0
173
     0
291
     1
 45
0.0
1001
ACAD
1000
AcDbSavedByObjectVersion
1070
     0
  0
VISUALSTYLE
  5
33
102
{ACAD_REACTORS
330
2A
102
}
102
{ACAD_XDICTIONARY
360
87
102
}
330
2A
100
AcDbVisualStyle
  2
Realistic
 70
     8
 71
     2
 72
     2
 73
     0
 90
        0
 40
-0.6
 41
-30.0
 62
     5
 63
     7
 74
     1
 91
        0
 64
     7
 65
   257
 75
     1
175
     1
 42
1.0
 92
        8
 66
     8
 43
1.0
 76
     1
 77
     6
 78
     2
 67
     7
 79
     5
170
     0
171
     0
290
     0
174
     0
 93
       13
 44
0.0
173
     0
291
     0
 45
0.0
1001
ACAD
1000
AcDbSavedByObjectVersion
1070
     0
  0
VISUALSTYLE
  5
37
102
{ACAD_REACTORS
330
2A
102
}
102
{ACAD_XDICTIONARY
360
8F
102
}
330
2A
100
AcDbVisualStyle
  2
Thicken
 70
    13
 71
     2
 72
     2
 73
     0
 90
        0
 40
-0.6
 41
-30.0
 62
     5
 63
     7
 74
     1
 91
        4
 64
     7
 65
   257
 75
     1
175
     1
 42
1.0
 92
       12
 66
     7
 43
1.0
 76
     1
 77
     6
 78
     2
 67
     7
 79
     5
170
     0
171
     0
290
     0
174
     0
 93
        1
 44
0.0
173
     0
291
     1
 45
0.0
1001
ACAD
1000
AcDbSavedByObjectVersion
1070
     0
  0
DICTIONARYVAR
  5
75
102
{ACAD_REACTORS
330
72
102
}
330
72
100
DictionaryVariables
280
     0
  1
2
  0
DICTIONARYVAR
  5
76
102
{ACAD_REACTORS
330
72
102
}
330
72
100
DictionaryVariables
280
     0
  1
1
  0
DICTIONARY
  5
99
330
3D
100
AcDbDictionary
280
     1
281
     1
  3
ACAD_XREC_ROUNDTRIP
360
9A
  0
DICTIONARY
  5
97
330
3C
100
AcDbDictionary
280
     1
281
     1
  3
ACAD_XREC_ROUNDTRIP
360
98
  0
DICTIONARY
  5
9B
330
3E
100
AcDbDictionary
280
     1
281
     1
  3
ACAD_XREC_ROUNDTRIP
360
9C
  0
DICTIONARY
  5
7F
330
2F
100
AcDbDictionary
280
     1
281
     1
  3
ACAD_XREC_ROUNDTRIP
360
80
  0
DICTIONARY
  5
83
330
31
100
AcDbDictionary
280
     1
281
     1
  3
ACAD_XREC_ROUNDTRIP
360
84
  0
DICTIONARY
  5
81
330
30
100
AcDbDictionary
280
     1
281
     1
  3
ACAD_XREC_ROUNDTRIP
360
82
  0
DICTIONARY
  5
85
330
32
100
AcDbDictionary
280
     1
281
     1
  3
ACAD_XREC_ROUNDTRIP
360
86
  0
DICTIONARY
  5
8D
330
36
100
AcDbDictionary
280
     1
281
     1
  3
ACAD_XREC_ROUNDTRIP
360
8E
  0
DICTIONARY
  5
95
330
3A
100
AcDbDictionary
280
     1
281
     1
  3
ACAD_XREC_ROUNDTRIP
360
96
  0
DICTIONARY
  5
89
330
34
100
AcDbDictionary
280
     1
281
     1
  3
ACAD_XREC_ROUNDTRIP
360
8A
  0
DICTIONARY
  5
8B
330
35
100
AcDbDictionary
280
     1
281
     1
  3
ACAD_XREC_ROUNDTRIP
360
8C
  0
DICTIONARY
  5
93
330
39
100
AcDbDictionary
280
     1
281
     1
  3
ACAD_XREC_ROUNDTRIP
360
94
  0
DICTIONARY
  5
77
330
2B
100
AcDbDictionary
280
     1
281
     1
  3
ACAD_XREC_ROUNDTRIP
360
78
  0
DICTIONARY
  5
79
330
2C
100
AcDbDictionary
280
     1
281
     1
  3
ACAD_XREC_ROUNDTRIP
360
7A
  0
DICTIONARY
  5
7B
330
2D
100
AcDbDictionary
280
     1
281
     1
  3
ACAD_XREC_ROUNDTRIP
360
7C
  0
DICTIONARY
  5
7D
330
2E
100
AcDbDictionary
280
     1
281
     1
  3
ACAD_XREC_ROUNDTRIP
360
7E
  0
DICTIONARY
  5
91
330
38
100
AcDbDictionary
280
     1
281
     1
  3
ACAD_XREC_ROUNDTRIP
360
92
  0
DICTIONARY
  5
87
330
33
100
AcDbDictionary
280
     1
281
     1
  3
ACAD_XREC_ROUNDTRIP
360
88
  0
DICTIONARY
  5
8F
330
37
100
AcDbDictionary
280
     1
281
     1
  3
ACAD_XREC_ROUNDTRIP
360
90
  0
XRECORD
  5
9A
102
{ACAD_REACTORS
330
99
102
}
330
99
100
AcDbXrecord
280
     1
102
MATERIAL
148
0.0
149
0.0
149
0.0
 93
        0
 94
      127
282
     0
 72
     1
 77
     1
171
     1
175
     1
179
     1
273
     0
  0
XRECORD
  5
98
102
{ACAD_REACTORS
330
97
102
}
330
97
100
AcDbXrecord
280
     1
102
MATERIAL
148
0.0
149
0.0
149
0.0
 93
        0
 94
      127
282
     0
 72
     1
 77
     1
171
     1
175
     1
179
     1
273
     0
  0
XRECORD
  5
9C
102
{ACAD_REACTORS
330
9B
102
}
330
9B
100
AcDbXrecord
280
     1
102
MATERIAL
148
0.0
149
0.0
149
0.0
 93
        0
 94
      127
282
     0
 72
     1
 77
     1
171
     1
175
     1
179
     1
273
     0
  0
XRECORD
  5
80
102
{ACAD_REACTORS
330
7F
102
}
330
7F
100
AcDbXrecord
280
     1
102
RTVSPropertyOp0
 70
     1
102
RTVSPropertyOp1
 70
     1
102
RTVSPropertyOp2
 70
     1
102
RTVSPropertyOp3
 70
     1
102
RTVSPropertyOp4
 70
     1
102
RTVSPropertyOp5
 70
     1
102
RTVSPropertyOp6
 70
     1
102
RTVSPropertyOp7
 70
     1
102
RTVSPropertyOp8
 70
     1
102
RTVSPropertyOp9
 70
     1
102
RTVSPropertyOp10
 70
     1
102
RTVSPropertyOp11
 70
     1
102
RTVSPropertyOp12
 70
     1
102
RTVSPropertyOp13
 70
     1
102
RTVSPropertyOp14
 70
     1
102
RTVSPropertyOp15
 70
     1
102
RTVSPropertyOp16
 70
     1
102
RTVSPropertyOp17
 70
     1
102
RTVSPropertyOp18
 70
     1
102
RTVSPropertyOp19
 70
     1
102
RTVSPropertyOp20
 70
     1
102
RTVSPropertyOp21
 70
     1
102
RTVSPropertyOp22
 70
     1
102
RTVSPropertyOp23
 70
     1
102
RTVSPropertyOp24
 70
     1
102
RTVSPropertyOp25
 70
     1
102
RTVSPropertyOp26
 70
     1
102
RTVSPropertyOp27
 70
     1
  0
XRECORD
  5
84
102
{ACAD_REACTORS
330
83
102
}
330
83
100
AcDbXrecord
280
     1
102
RTVSPropertyOp0
 70
     1
102
RTVSPropertyOp1
 70
     1
102
RTVSPropertyOp2
 70
     1
102
RTVSPropertyOp3
 70
     1
102
RTVSPropertyOp4
 70
     1
102
RTVSPropertyOp5
 70
     1
102
RTVSPropertyOp6
 70
     1
102
RTVSPropertyOp7
 70
     1
102
RTVSPropertyOp8
 70
     1
102
RTVSPropertyOp9
 70
     1
102
RTVSPropertyOp10
 70
     1
102
RTVSPropertyOp11
 70
     1
102
RTVSPropertyOp12
 70
     1
102
RTVSPropertyOp13
 70
     1
102
RTVSPropertyOp14
 70
     1
102
RTVSPropertyOp15
 70
     1
102
RTVSPropertyOp16
 70
     1
102
RTVSPropertyOp17
 70
     1
102
RTVSPropertyOp18
 70
     1
102
RTVSPropertyOp19
 70
     1
102
RTVSPropertyOp20
 70
     1
102
RTVSPropertyOp21
 70
     1
102
RTVSPropertyOp22
 70
     1
102
RTVSPropertyOp23
 70
     1
102
RTVSPropertyOp24
 70
     1
102
RTVSPropertyOp25
 70
     1
102
RTVSPropertyOp26
 70
     1
102
RTVSPropertyOp27
 70
     1
  0
XRECORD
  5
82
102
{ACAD_REACTORS
330
81
102
}
330
81
100
AcDbXrecord
280
     1
102
RTVSPropertyOp0
 70
     1
102
RTVSPropertyOp1
 70
     1
102
RTVSPropertyOp2
 70
     1
102
RTVSPropertyOp3
 70
     1
102
RTVSPropertyOp4
 70
     1
102
RTVSPropertyOp5
 70
     1
102
RTVSPropertyOp6
 70
     1
102
RTVSPropertyOp7
 70
     1
102
RTVSPropertyOp8
 70
     1
102
RTVSPropertyOp9
 70
     1
102
RTVSPropertyOp10
 70
     1
102
RTVSPropertyOp11
 70
     1
102
RTVSPropertyOp12
 70
     1
102
RTVSPropertyOp13
 70
     1
102
RTVSPropertyOp14
 70
     1
102
RTVSPropertyOp15
 70
     1
102
RTVSPropertyOp16
 70
     1
102
RTVSPropertyOp17
 70
     1
102
RTVSPropertyOp18
 70
     1
102
RTVSPropertyOp19
 70
     1
102
RTVSPropertyOp20
 70
     1
102
RTVSPropertyOp21
 70
     1
102
RTVSPropertyOp22
 70
     1
102
RTVSPropertyOp23
 70
     1
102
RTVSPropertyOp24
 70
     1
102
RTVSPropertyOp25
 70
     1
102
RTVSPropertyOp26
 70
     1
102
RTVSPropertyOp27
 70
     1
  0
XRECORD
  5
86
102
{ACAD_REACTORS
330
85
102
}
330
85
100
AcDbXrecord
280
     1
102
RTVSPropertyOp0
 70
     1
102
RTVSPropertyOp1
 70
     1
102
RTVSPropertyOp2
 70
     1
102
RTVSPropertyOp3
 70
     1
102
RTVSPropertyOp4
 70
     1
102
RTVSPropertyOp5
 70
     1
102
RTVSPropertyOp6
 70
     1
102
RTVSPropertyOp7
 70
     1
102
RTVSPropertyOp8
 70
     1
102
RTVSPropertyOp9
 70
     1
102
RTVSPropertyOp10
 70
     1
102
RTVSPropertyOp11
 70
     1
102
RTVSPropertyOp12
 70
     1
102
RTVSPropertyOp13
 70
     1
102
RTVSPropertyOp14
 70
     1
102
RTVSPropertyOp15
 70
     1
102
RTVSPropertyOp16
 70
     1
102
RTVSPropertyOp17
 70
     1
102
RTVSPropertyOp18
 70
     1
102
RTVSPropertyOp19
 70
     1
102
RTVSPropertyOp20
 70
     1
102
RTVSPropertyOp21
 70
     1
102
RTVSPropertyOp22
 70
     1
102
RTVSPropertyOp23
 70
     1
102
RTVSPropertyOp24
 70
     1
102
RTVSPropertyOp25
 70
     1
102
RTVSPropertyOp26
 70
     1
102
RTVSPropertyOp27
 70
     1
  0
XRECORD
  5
8E
102
{ACAD_REACTORS
330
8D
102
}
330
8D
100
AcDbXrecord
280
     1
102
RTVSPropertyOp0
 70
     1
102
RTVSPropertyOp1
 70
     1
102
RTVSPropertyOp2
 70
     1
102
RTVSPropertyOp3
 70
     1
102
RTVSPropertyOp4
 70
     1
102
RTVSPropertyOp5
 70
     1
102
RTVSPropertyOp6
 70
     1
102
RTVSPropertyOp7
 70
     1
102
RTVSPropertyOp8
 70
     1
102
RTVSPropertyOp9
 70
     1
102
RTVSPropertyOp10
 70
     1
102
RTVSPropertyOp11
 70
     1
102
RTVSPropertyOp12
 70
     1
102
RTVSPropertyOp13
 70
     1
102
RTVSPropertyOp14
 70
     1
102
RTVSPropertyOp15
 70
     1
102
RTVSPropertyOp16
 70
     1
102
RTVSPropertyOp17
 70
     1
102
RTVSPropertyOp18
 70
     1
102
RTVSPropertyOp19
 70
     1
102
RTVSPropertyOp20
 70
     1
102
RTVSPropertyOp21
 70
     1
102
RTVSPropertyOp22
 70
     1
102
RTVSPropertyOp23
 70
     1
102
RTVSPropertyOp24
 70
     1
102
RTVSPropertyOp25
 70
     1
102
RTVSPropertyOp26
 70
     1
102
RTVSPropertyOp27
 70
     1
  0
XRECORD
  5
96
102
{ACAD_REACTORS
330
95
102
}
330
95
100
AcDbXrecord
280
     1
102
RTVSPropertyOp0
 70
     1
102
RTVSPropertyOp1
 70
     1
102
RTVSPropertyOp2
 70
     1
102
RTVSPropertyOp3
 70
     1
102
RTVSPropertyOp4
 70
     1
102
RTVSPropertyOp5
 70
     1
102
RTVSPropertyOp6
 70
     1
102
RTVSPropertyOp7
 70
     1
102
RTVSPropertyOp8
 70
     1
102
RTVSPropertyOp9
 70
     1
102
RTVSPropertyOp10
 70
     1
102
RTVSPropertyOp11
 70
     1
102
RTVSPropertyOp12
 70
     1
102
RTVSPropertyOp13
 70
     1
102
RTVSPropertyOp14
 70
     1
102
RTVSPropertyOp15
 70
     1
102
RTVSPropertyOp16
 70
     1
102
RTVSPropertyOp17
 70
     1
102
RTVSPropertyOp18
 70
     1
102
RTVSPropertyOp19
 70
     1
102
RTVSPropertyOp20
 70
     1
102
RTVSPropertyOp21
 70
     1
102
RTVSPropertyOp22
 70
     1
102
RTVSPropertyOp23
 70
     1
102
RTVSPropertyOp24
 70
     1
102
RTVSPropertyOp25
 70
     1
102
RTVSPropertyOp26
 70
     1
102
RTVSPropertyOp27
 70
     1
  0
XRECORD
  5
8A
102
{ACAD_REACTORS
330
89
102
}
330
89
100
AcDbXrecord
280
     1
102
RTVSPropertyOp0
 70
     1
102
RTVSPropertyOp1
 70
     1
102
RTVSPropertyOp2
 70
     1
102
RTVSPropertyOp3
 70
     1
102
RTVSPropertyOp4
 70
     1
102
RTVSPropertyOp5
 70
     1
102
RTVSPropertyOp6
 70
     1
102
RTVSPropertyOp7
 70
     1
102
RTVSPropertyOp8
 70
     1
102
RTVSPropertyOp9
 70
     1
102
RTVSPropertyOp10
 70
     1
102
RTVSPropertyOp11
 70
     1
102
RTVSPropertyOp12
 70
     1
102
RTVSPropertyOp13
 70
     1
102
RTVSPropertyOp14
 70
     1
102
RTVSPropertyOp15
 70
     1
102
RTVSPropertyOp16
 70
     1
102
RTVSPropertyOp17
 70
     1
102
RTVSPropertyOp18
 70
     1
102
RTVSPropertyOp19
 70
     1
102
RTVSPropertyOp20
 70
     1
102
RTVSPropertyOp21
 70
     1
102
RTVSPropertyOp22
 70
     1
102
RTVSPropertyOp23
 70
     1
102
RTVSPropertyOp24
 70
     1
102
RTVSPropertyOp25
 70
     1
102
RTVSPropertyOp26
 70
     1
102
RTVSPropertyOp27
 70
     1
  0
XRECORD
  5
8C
102
{ACAD_REACTORS
330
8B
102
}
330
8B
100
AcDbXrecord
280
     1
102
RTVSPropertyOp0
 70
     1
102
RTVSPropertyOp1
 70
     1
102
RTVSPropertyOp2
 70
     1
102
RTVSPropertyOp3
 70
     1
102
RTVSPropertyOp4
 70
     1
102
RTVSPropertyOp5
 70
     1
102
RTVSPropertyOp6
 70
     1
102
RTVSPropertyOp7
 70
     1
102
RTVSPropertyOp8
 70
     1
102
RTVSPropertyOp9
 70
     1
102
RTVSPropertyOp10
 70
     1
102
RTVSPropertyOp11
 70
     1
102
RTVSPropertyOp12
 70
     1
102
RTVSPropertyOp13
 70
     1
102
RTVSPropertyOp14
 70
     1
102
RTVSPropertyOp15
 70
     1
102
RTVSPropertyOp16
 70
     1
102
RTVSPropertyOp17
 70
     1
102
RTVSPropertyOp18
 70
     1
102
RTVSPropertyOp19
 70
     1
102
RTVSPropertyOp20
 70
     1
102
RTVSPropertyOp21
 70
     1
102
RTVSPropertyOp22
 70
     1
102
RTVSPropertyOp23
 70
     1
102
RTVSPropertyOp24
 70
     1
102
RTVSPropertyOp25
 70
     1
102
RTVSPropertyOp26
 70
     1
102
RTVSPropertyOp27
 70
     1
  0
XRECORD
  5
94
102
{ACAD_REACTORS
330
93
102
}
330
93
100
AcDbXrecord
280
     1
102
RTVSPropertyOp0
 70
     1
102
RTVSPropertyOp1
 70
     1
102
RTVSPropertyOp2
 70
     1
102
RTVSPropertyOp3
 70
     1
102
RTVSPropertyOp4
 70
     1
102
RTVSPropertyOp5
 70
     1
102
RTVSPropertyOp6
 70
     1
102
RTVSPropertyOp7
 70
     1
102
RTVSPropertyOp8
 70
     1
102
RTVSPropertyOp9
 70
     1
102
RTVSPropertyOp10
 70
     1
102
RTVSPropertyOp11
 70
     1
102
RTVSPropertyOp12
 70
     1
102
RTVSPropertyOp13
 70
     1
102
RTVSPropertyOp14
 70
     1
102
RTVSPropertyOp15
 70
     1
102
RTVSPropertyOp16
 70
     1
102
RTVSPropertyOp17
 70
     1
102
RTVSPropertyOp18
 70
     1
102
RTVSPropertyOp19
 70
     1
102
RTVSPropertyOp20
 70
     1
102
RTVSPropertyOp21
 70
     1
102
RTVSPropertyOp22
 70
     1
102
RTVSPropertyOp23
 70
     1
102
RTVSPropertyOp24
 70
     1
102
RTVSPropertyOp25
 70
     1
102
RTVSPropertyOp26
 70
     1
102
RTVSPropertyOp27
 70
     1
  0
XRECORD
  5
78
102
{ACAD_REACTORS
330
77
102
}
330
77
100
AcDbXrecord
280
     1
102
RTVSPropertyOp0
 70
     1
102
RTVSPropertyOp1
 70
     1
102
RTVSPropertyOp2
 70
     1
102
RTVSPropertyOp3
 70
     1
102
RTVSPropertyOp4
 70
     1
102
RTVSPropertyOp5
 70
     1
102
RTVSPropertyOp6
 70
     1
102
RTVSPropertyOp7
 70
     1
102
RTVSPropertyOp8
 70
     1
102
RTVSPropertyOp9
 70
     1
102
RTVSPropertyOp10
 70
     1
102
RTVSPropertyOp11
 70
     1
102
RTVSPropertyOp12
 70
     1
102
RTVSPropertyOp13
 70
     1
102
RTVSPropertyOp14
 70
     1
102
RTVSPropertyOp15
 70
     1
102
RTVSPropertyOp16
 70
     1
102
RTVSPropertyOp17
 70
     1
102
RTVSPropertyOp18
 70
     1
102
RTVSPropertyOp19
 70
     1
102
RTVSPropertyOp20
 70
     1
102
RTVSPropertyOp21
 70
     1
102
RTVSPropertyOp22
 70
     1
102
RTVSPropertyOp23
 70
     1
102
RTVSPropertyOp24
 70
     1
102
RTVSPropertyOp25
 70
     1
102
RTVSPropertyOp26
 70
     1
102
RTVSPropertyOp27
 70
     1
  0
XRECORD
  5
7A
102
{ACAD_REACTORS
330
79
102
}
330
79
100
AcDbXrecord
280
     1
102
RTVSPropertyOp0
 70
     1
102
RTVSPropertyOp1
 70
     1
102
RTVSPropertyOp2
 70
     1
102
RTVSPropertyOp3
 70
     1
102
RTVSPropertyOp4
 70
     1
102
RTVSPropertyOp5
 70
     1
102
RTVSPropertyOp6
 70
     1
102
RTVSPropertyOp7
 70
     1
102
RTVSPropertyOp8
 70
     1
102
RTVSPropertyOp9
 70
     1
102
RTVSPropertyOp10
 70
     1
102
RTVSPropertyOp11
 70
     1
102
RTVSPropertyOp12
 70
     1
102
RTVSPropertyOp13
 70
     1
102
RTVSPropertyOp14
 70
     1
102
RTVSPropertyOp15
 70
     1
102
RTVSPropertyOp16
 70
     1
102
RTVSPropertyOp17
 70
     1
102
RTVSPropertyOp18
 70
     1
102
RTVSPropertyOp19
 70
     1
102
RTVSPropertyOp20
 70
     1
102
RTVSPropertyOp21
 70
     1
102
RTVSPropertyOp22
 70
     1
102
RTVSPropertyOp23
 70
     1
102
RTVSPropertyOp24
 70
     1
102
RTVSPropertyOp25
 70
     1
102
RTVSPropertyOp26
 70
     1
102
RTVSPropertyOp27
 70
     1
  0
XRECORD
  5
7C
102
{ACAD_REACTORS
330
7B
102
}
330
7B
100
AcDbXrecord
280
     1
102
RTVSPropertyOp0
 70
     1
102
RTVSPropertyOp1
 70
     1
102
RTVSPropertyOp2
 70
     1
102
RTVSPropertyOp3
 70
     1
102
RTVSPropertyOp4
 70
     1
102
RTVSPropertyOp5
 70
     1
102
RTVSPropertyOp6
 70
     1
102
RTVSPropertyOp7
 70
     1
102
RTVSPropertyOp8
 70
     1
102
RTVSPropertyOp9
 70
     1
102
RTVSPropertyOp10
 70
     1
102
RTVSPropertyOp11
 70
     1
102
RTVSPropertyOp12
 70
     1
102
RTVSPropertyOp13
 70
     1
102
RTVSPropertyOp14
 70
     1
102
RTVSPropertyOp15
 70
     1
102
RTVSPropertyOp16
 70
     1
102
RTVSPropertyOp17
 70
     1
102
RTVSPropertyOp18
 70
     1
102
RTVSPropertyOp19
 70
     1
102
RTVSPropertyOp20
 70
     1
102
RTVSPropertyOp21
 70
     1
102
RTVSPropertyOp22
 70
     1
102
RTVSPropertyOp23
 70
     1
102
RTVSPropertyOp24
 70
     1
102
RTVSPropertyOp25
 70
     1
102
RTVSPropertyOp26
 70
     1
102
RTVSPropertyOp27
 70
     1
  0
XRECORD
  5
7E
102
{ACAD_REACTORS
330
7D
102
}
330
7D
100
AcDbXrecord
280
     1
102
RTVSPropertyOp0
 70
     1
102
RTVSPropertyOp1
 70
     1
102
RTVSPropertyOp2
 70
     1
102
RTVSPropertyOp3
 70
     1
102
RTVSPropertyOp4
 70
     1
102
RTVSPropertyOp5
 70
     1
102
RTVSPropertyOp6
 70
     1
102
RTVSPropertyOp7
 70
     1
102
RTVSPropertyOp8
 70
     1
102
RTVSPropertyOp9
 70
     1
102
RTVSPropertyOp10
 70
     1
102
RTVSPropertyOp11
 70
     1
102
RTVSPropertyOp12
 70
     1
102
RTVSPropertyOp13
 70
     1
102
RTVSPropertyOp14
 70
     1
102
RTVSPropertyOp15
 70
     1
102
RTVSPropertyOp16
 70
     1
102
RTVSPropertyOp17
 70
     1
102
RTVSPropertyOp18
 70
     1
102
RTVSPropertyOp19
 70
     1
102
RTVSPropertyOp20
 70
     1
102
RTVSPropertyOp21
 70
     1
102
RTVSPropertyOp22
 70
     1
102
RTVSPropertyOp23
 70
     1
102
RTVSPropertyOp24
 70
     1
102
RTVSPropertyOp25
 70
     1
102
RTVSPropertyOp26
 70
     1
102
RTVSPropertyOp27
 70
     1
  0
XRECORD
  5
92
102
{ACAD_REACTORS
330
91
102
}
330
91
100
AcDbXrecord
280
     1
102
RTVSPropertyOp0
 70
     1
102
RTVSPropertyOp1
 70
     1
102
RTVSPropertyOp2
 70
     1
102
RTVSPropertyOp3
 70
     1
102
RTVSPropertyOp4
 70
     1
102
RTVSPropertyOp5
 70
     1
102
RTVSPropertyOp6
 70
     1
102
RTVSPropertyOp7
 70
     1
102
RTVSPropertyOp8
 70
     1
102
RTVSPropertyOp9
 70
     1
102
RTVSPropertyOp10
 70
     1
102
RTVSPropertyOp11
 70
     1
102
RTVSPropertyOp12
 70
     1
102
RTVSPropertyOp13
 70
     1
102
RTVSPropertyOp14
 70
     1
102
RTVSPropertyOp15
 70
     1
102
RTVSPropertyOp16
 70
     1
102
RTVSPropertyOp17
 70
     1
102
RTVSPropertyOp18
 70
     1
102
RTVSPropertyOp19
 70
     1
102
RTVSPropertyOp20
 70
     1
102
RTVSPropertyOp21
 70
     1
102
RTVSPropertyOp22
 70
     1
102
RTVSPropertyOp23
 70
     1
102
RTVSPropertyOp24
 70
     1
102
RTVSPropertyOp25
 70
     1
102
RTVSPropertyOp26
 70
     1
102
RTVSPropertyOp27
 70
     1
  0
XRECORD
  5
88
102
{ACAD_REACTORS
330
87
102
}
330
87
100
AcDbXrecord
280
     1
102
RTVSPropertyOp0
 70
     1
102
RTVSPropertyOp1
 70
     1
102
RTVSPropertyOp2
 70
     1
102
RTVSPropertyOp3
 70
     1
102
RTVSPropertyOp4
 70
     1
102
RTVSPropertyOp5
 70
     1
102
RTVSPropertyOp6
 70
     1
102
RTVSPropertyOp7
 70
     1
102
RTVSPropertyOp8
 70
     1
102
RTVSPropertyOp9
 70
     1
102
RTVSPropertyOp10
 70
     1
102
RTVSPropertyOp11
 70
     1
102
RTVSPropertyOp12
 70
     1
102
RTVSPropertyOp13
 70
     1
102
RTVSPropertyOp14
 70
     1
102
RTVSPropertyOp15
 70
     1
102
RTVSPropertyOp16
 70
     1
102
RTVSPropertyOp17
 70
     1
102
RTVSPropertyOp18
 70
     1
102
RTVSPropertyOp19
 70
     1
102
RTVSPropertyOp20
 70
     1
102
RTVSPropertyOp21
 70
     1
102
RTVSPropertyOp22
 70
     1
102
RTVSPropertyOp23
 70
     1
102
RTVSPropertyOp24
 70
     1
102
RTVSPropertyOp25
 70
     1
102
RTVSPropertyOp26
 70
     1
102
RTVSPropertyOp27
 70
     1
  0
XRECORD
  5
90
102
{ACAD_REACTORS
330
8F
102
}
330
8F
100
AcDbXrecord
280
     1
102
RTVSPropertyOp0
 70
     1
102
RTVSPropertyOp1
 70
     1
102
RTVSPropertyOp2
 70
     1
102
RTVSPropertyOp3
 70
     1
102
RTVSPropertyOp4
 70
     1
102
RTVSPropertyOp5
 70
     1
102
RTVSPropertyOp6
 70
     1
102
RTVSPropertyOp7
 70
     1
102
RTVSPropertyOp8
 70
     1
102
RTVSPropertyOp9
 70
     1
102
RTVSPropertyOp10
 70
     1
102
RTVSPropertyOp11
 70
     1
102
RTVSPropertyOp12
 70
     1
102
RTVSPropertyOp13
 70
     1
102
RTVSPropertyOp14
 70
     1
102
RTVSPropertyOp15
 70
     1
102
RTVSPropertyOp16
 70
     1
102
RTVSPropertyOp17
 70
     1
102
RTVSPropertyOp18
 70
     1
102
RTVSPropertyOp19
 70
     1
102
RTVSPropertyOp20
 70
     1
102
RTVSPropertyOp21
 70
     1
102
RTVSPropertyOp22
 70
     1
102
RTVSPropertyOp23
 70
     1
102
RTVSPropertyOp24
 70
     1
102
RTVSPropertyOp25
 70
     1
102
RTVSPropertyOp26
 70
     1
102
RTVSPropertyOp27
 70
     1
  0
ENDSEC
  0
EOF
