  0
SECTION
  2
HEADER
  9
$ACADVER
  1
AC1018
  9
$ACADMAINTVER
 70
     0
  9
$DWGCODEPAGE
  3
ANSI_1251
  9
$INSBASE
 10
0.0
 20
0.0
 30
0.0
  9
$EXTMIN
 10
1.000000000000000E+20
 20
1.000000000000000E+20
 30
1.000000000000000E+20
  9
$EXTMAX
 10
-1.000000000000000E+20
 20
-1.000000000000000E+20
 30
-1.000000000000000E+20
  9
$LIMMIN
 10
0.0
 20
0.0
  9
$LIMMAX
 10
12.0
 20
9.0
  9
$ORTHOMODE
 70
     0
  9
$REGENMODE
 70
     1
  9
$FILLMODE
 70
     1
  9
$QTEXTMODE
 70
     0
  9
$MIRRTEXT
 70
     1
  9
$LTSCALE
 40
1.0
  9
$ATTMODE
 70
     1
  9
$TEXTSIZE
 40
0.2
  9
$TRACEWID
 40
0.05
  9
$TEXTSTYLE
  7
Standard
  9
$CLAYER
  8
0
  9
$CELTYPE
  6
ByLayer
  9
$CECOLOR
 62
   256
  9
$CELTSCALE
 40
1.0
  9
$DISPSILH
 70
     0
  9
$DIMSCALE
 40
1.0
  9
$DIMASZ
 40
0.18
  9
$DIMEXO
 40
0.0625
  9
$DIMDLI
 40
0.38
  9
$DIMRND
 40
0.0
  9
$DIMDLE
 40
0.0
  9
$DIMEXE
 40
0.18
  9
$DIMTP
 40
0.0
  9
$DIMTM
 40
0.0
  9
$DIMTXT
 40
0.18
  9
$DIMCEN
 40
0.09
  9
$DIMTSZ
 40
0.0
  9
$DIMTOL
 70
     0
  9
$DIMLIM
 70
     0
  9
$DIMTIH
 70
     1
  9
$DIMTOH
 70
     1
  9
$DIMSE1
 70
     0
  9
$DIMSE2
 70
     0
  9
$DIMTAD
 70
     0
  9
$DIMZIN
 70
     0
  9
$DIMBLK
  1

  9
$DIMASO
 70
     1
  9
$DIMSHO
 70
     1
  9
$DIMPOST
  1

  9
$DIMAPOST
  1

  9
$DIMALT
 70
     0
  9
$DIMALTD
 70
     2
  9
$DIMALTF
 40
25.4
  9
$DIMLFAC
 40
1.0
  9
$DIMTOFL
 70
     0
  9
$DIMTVP
 40
0.0
  9
$DIMTIX
 70
     0
  9
$DIMSOXD
 70
     0
  9
$DIMSAH
 70
     0
  9
$DIMBLK1
  1

  9
$DIMBLK2
  1

  9
$DIMSTYLE
  2
Standard
  9
$DIMCLRD
 70
     0
  9
$DIMCLRE
 70
     0
  9
$DIMCLRT
 70
     0
  9
$DIMTFAC
 40
1.0
  9
$DIMGAP
 40
0.09
  9
$DIMJUST
 70
     0
  9
$DIMSD1
 70
     0
  9
$DIMSD2
 70
     0
  9
$DIMTOLJ
 70
     1
  9
$DIMTZIN
 70
     0
  9
$DIMALTZ
 70
     0
  9
$DIMALTTZ
 70
     0
  9
$DIMUPT
 70
     0
  9
$DIMDEC
 70
     4
  9
$DIMTDEC
 70
     4
  9
$DIMALTU
 70
     2
  9
$DIMALTTD
 70
     2
  9
$DIMTXSTY
  7
Standard
  9
$DIMAUNIT
 70
     0
  9
$DIMADEC
 70
     0
  9
$DIMALTRND
 40
0.0
  9
$DIMAZIN
 70
     0
  9
$DIMDSEP
 70
    46
  9
$DIMATFIT
 70
     3
  9
$DIMFRAC
 70
     0
  9
$DIMLDRBLK
  1

  9
$DIMLUNIT
 70
     2
  9
$DIMLWD
 70
    -2
  9
$DIMLWE
 70
    -2
  9
$DIMTMOVE
 70
     0
  9
$LUNITS
 70
     2
  9
$LUPREC
 70
     4
  9
$SKETCHINC
 40
0.1
  9
$FILLETRAD
 40
0.5
  9
$AUNITS
 70
     0
  9
$AUPREC
 70
     0
  9
$MENU
  1
.
  9
$ELEVATION
 40
0.0
  9
$PELEVATION
 40
0.0
  9
$THICKNESS
 40
0.0
  9
$LIMCHECK
 70
     0
  9
$CHAMFERA
 40
0.5
  9
$CHAMFERB
 40
0.5
  9
$CHAMFERC
 40
1.0
  9
$CHAMFERD
 40
0.0
  9
$SKPOLY
 70
     0
  9
$TDCREATE
 40
2457123.719201921
  9
$TDUCREATE
 40
2457123.552535255
  9
$TDUPDATE
 40
2457123.719201933
  9
$TDUUPDATE
 40
2457123.552535266
  9
$TDINDWG
 40
0.0000000116
  9
$TDUSRTIMER
 40
0.0000000116
  9
$USRTIMER
 70
     1
  9
$ANGBASE
 50
0.0
  9
$ANGDIR
 70
     0
  9
$PDMODE
 70
     0
  9
$PDSIZE
 40
0.0
  9
$PLINEWID
 40
0.0
  9
$SPLFRAME
 70
     0
  9
$SPLINETYPE
 70
     6
  9
$SPLINESEGS
 70
     8
  9
$HANDSEED
  5
50
  9
$SURFTAB1
 70
     6
  9
$SURFTAB2
 70
     6
  9
$SURFTYPE
 70
     6
  9
$SURFU
 70
     6
  9
$SURFV
 70
     6
  9
$UCSBASE
  2

  9
$UCSNAME
  2

  9
$UCSORG
 10
0.0
 20
0.0
 30
0.0
  9
$UCSXDIR
 10
1.0
 20
0.0
 30
0.0
  9
$UCSYDIR
 10
0.0
 20
1.0
 30
0.0
  9
$UCSORTHOREF
  2

  9
$UCSORTHOVIEW
 70
     0
  9
$UCSORGTOP
 10
0.0
 20
0.0
 30
0.0
  9
$UCSORGBOTTOM
 10
0.0
 20
0.0
 30
0.0
  9
$UCSORGLEFT
 10
0.0
 20
0.0
 30
0.0
  9
$UCSORGRIGHT
 10
0.0
 20
0.0
 30
0.0
  9
$UCSORGFRONT
 10
0.0
 20
0.0
 30
0.0
  9
$UCSORGBACK
 10
0.0
 20
0.0
 30
0.0
  9
$PUCSBASE
  2

  9
$PUCSNAME
  2

  9
$PUCSORG
 10
0.0
 20
0.0
 30
0.0
  9
$PUCSXDIR
 10
1.0
 20
0.0
 30
0.0
  9
$PUCSYDIR
 10
0.0
 20
1.0
 30
0.0
  9
$PUCSORTHOREF
  2

  9
$PUCSORTHOVIEW
 70
     0
  9
$PUCSORGTOP
 10
0.0
 20
0.0
 30
0.0
  9
$PUCSORGBOTTOM
 10
0.0
 20
0.0
 30
0.0
  9
$PUCSORGLEFT
 10
0.0
 20
0.0
 30
0.0
  9
$PUCSORGRIGHT
 10
0.0
 20
0.0
 30
0.0
  9
$PUCSORGFRONT
 10
0.0
 20
0.0
 30
0.0
  9
$PUCSORGBACK
 10
0.0
 20
0.0
 30
0.0
  9
$USERI1
 70
     0
  9
$USERI2
 70
     0
  9
$USERI3
 70
     0
  9
$USERI4
 70
     0
  9
$USERI5
 70
     0
  9
$USERR1
 40
0.0
  9
$USERR2
 40
0.0
  9
$USERR3
 40
0.0
  9
$USERR4
 40
0.0
  9
$USERR5
 40
0.0
  9
$WORLDVIEW
 70
     1
  9
$SHADEDGE
 70
     3
  9
$SHADEDIF
 70
    70
  9
$TILEMODE
 70
     1
  9
$MAXACTVP
 70
    64
  9
$PINSBASE
 10
0.0
 20
0.0
 30
0.0
  9
$PLIMCHECK
 70
     0
  9
$PEXTMIN
 10
1.000000000000000E+20
 20
1.000000000000000E+20
 30
1.000000000000000E+20
  9
$PEXTMAX
 10
-1.000000000000000E+20
 20
-1.000000000000000E+20
 30
-1.000000000000000E+20
  9
$PLIMMIN
 10
0.0
 20
0.0
  9
$PLIMMAX
 10
12.0
 20
9.0
  9
$UNITMODE
 70
     0
  9
$VISRETAIN
 70
     1
  9
$PLINEGEN
 70
     0
  9
$PSLTSCALE
 70
     1
  9
$TREEDEPTH
 70
  3020
  9
$CMLSTYLE
  2
Standard
  9
$CMLJUST
 70
     0
  9
$CMLSCALE
 40
1.0
  9
$PROXYGRAPHICS
 70
     1
  9
$MEASUREMENT
 70
     0
  9
$CELWEIGHT
370
    -1
  9
$ENDCAPS
280
     0
  9
$JOINSTYLE
280
     0
  9
$LWDISPLAY
290
     1
  9
$INSUNITS
 70
     1
  9
$HYPERLINKBASE
  1

  9
$STYLESHEET
  1

  9
$XEDIT
290
     1
  9
$CEPSNTYPE
380
     0
  9
$PSTYLEMODE
290
     1
  9
$FINGERPRINTGUID
  2
{52FFE0E9-E0FA-408C-ACBA-AA5A0D5ACE31}
  9
$VERSIONGUID
  2
{FAEB1C32-E019-11D5-929B-00C0DF256EC4}
  9
$EXTNAMES
290
     1
  9
$PSVPSCALE
 40
0.0
  9
$OLESTARTUP
290
     0
  9
$SORTENTS
280
   127
  9
$INDEXCTL
280
     0
  9
$HIDETEXT
280
     1
  9
$XCLIPFRAME
290
     0
  9
$HALOGAP
280
     0
  9
$OBSCOLOR
 70
   257
  9
$OBSLTYPE
280
     0
  9
$INTERSECTIONDISPLAY
280
     0
  9
$INTERSECTIONCOLOR
 70
   257
  9
$DIMASSOC
280
     2
  9
$PROJECTNAME
  1

  0
ENDSEC
  0
SECTION
  2
CLASSES
  0
CLASS
  1
ACDBDICTIONARYWDFLT
  2
AcDbDictionaryWithDefault
  3
ObjectDBX Classes
 90
        0
 91
        3
280
     0
281
     0
  0
CLASS
  1
VISUALSTYLE
  2
AcDbVisualStyle
  3
ObjectDBX Classes
 90
     4095
 91
        3
280
     0
281
     0
  0
ENDSEC
  0
SECTION
  2
TABLES
  0
TABLE
  2
VPORT
  5
8
330
0
100
AcDbSymbolTable
 70
     1
  0
VPORT
  5
29
330
8
100
AcDbSymbolTableRecord
100
AcDbViewportTableRecord
  2
*Active
 70
     0
 10
0.0
 20
0.0
 11
1.0
 21
1.0
 12
0.0
 22
0.0
 13
0.0
 23
0.0
 14
0.5
 24
0.5
 15
0.5
 25
0.5
 16
0.0
 26
0.0
 36
1.0
 17
107.9499999730125
 27
-139.699999965075
 37
0.0
 40
279.39999993015
 41
0.7727272727272728
 42
50.0
 43
0.0
 44
0.0
 50
0.0
 51
0.0
 71
     0
 72
   100
 73
     1
 74
     3
 75
     0
 76
     0
 77
     0
 78
     0
281
     0
 65
     1
110
0.0
120
0.0
130
0.0
111
1.0
121
0.0
131
0.0
112
0.0
122
1.0
132
0.0
 79
     0
146
0.0
  0
ENDTAB
  0
TABLE
  2
LTYPE
  5
5
330
0
100
AcDbSymbolTable
 70
     1
  0
LTYPE
  5
14
330
5
100
AcDbSymbolTableRecord
100
AcDbLinetypeTableRecord
  2
ByBlock
 70
     0
  3

 72
    65
 73
     0
 40
0.0
  0
LTYPE
  5
15
330
5
100
AcDbSymbolTableRecord
100
AcDbLinetypeTableRecord
  2
ByLayer
 70
     0
  3

 72
    65
 73
     0
 40
0.0
  0
LTYPE
  5
16
330
5
100
AcDbSymbolTableRecord
100
AcDbLinetypeTableRecord
  2
Continuous
 70
     0
  3
Solid line
 72
    65
 73
     0
 40
0.0
  0
ENDTAB
  0
TABLE
  2
LAYER
  5
2
330
0
100
AcDbSymbolTable
 70
     2
  0
LAYER
  5
10
330
2
100
AcDbSymbolTableRecord
100
AcDbLayerTableRecord
  2
0
 70
     0
 62
     7
  6
Continuous
370
    -3
390
F
  0
LAYER
  5
3B
330
2
100
AcDbSymbolTableRecord
100
AcDbLayerTableRecord
  2
Layer 1
 70
     0
 62
     7
  6
Continuous
370
    -3
390
F
  0
ENDTAB
  0
TABLE
  2
STYLE
  5
3
330
0
100
AcDbSymbolTable
 70
     1
  0
STYLE
  5
11
330
3
100
AcDbSymbolTableRecord
100
AcDbTextStyleTableRecord
  2
Standard
 70
     0
 40
0.0
 41
1.0
 50
0.0
 71
     0
 42
0.2
  3
txt
  4

  0
ENDTAB
  0
TABLE
  2
VIEW
  5
6
330
0
100
AcDbSymbolTable
 70
     0
  0
ENDTAB
  0
TABLE
  2
UCS
  5
7
330
0
100
AcDbSymbolTable
 70
     0
  0
ENDTAB
  0
TABLE
  2
APPID
  5
9
330
0
100
AcDbSymbolTable
 70
     1
  0
APPID
  5
12
330
9
100
AcDbSymbolTableRecord
100
AcDbRegAppTableRecord
  2
ACAD
 70
     0
  0
ENDTAB
  0
TABLE
  2
DIMSTYLE
  5
A
330
0
100
AcDbSymbolTable
 70
     1
100
AcDbDimStyleTable
  0
DIMSTYLE
105
27
330
A
100
AcDbSymbolTableRecord
100
AcDbDimStyleTableRecord
  2
Standard
 70
     0
340
11
  0
ENDTAB
  0
TABLE
  2
BLOCK_RECORD
  5
1
330
0
100
AcDbSymbolTable
 70
     2
  0
BLOCK_RECORD
  5
1F
330
1
100
AcDbSymbolTableRecord
100
AcDbBlockTableRecord
  2
*Model_Space
340
22
  0
BLOCK_RECORD
  5
1B
330
1
100
AcDbSymbolTableRecord
100
AcDbBlockTableRecord
  2
*Paper_Space
340
1E
  0
BLOCK_RECORD
  5
23
330
1
100
AcDbSymbolTableRecord
100
AcDbBlockTableRecord
  2
*Paper_Space0
340
26
  0
BLOCK_RECORD
  5
3C
330
1
100
AcDbSymbolTableRecord
100
AcDbBlockTableRecord
  2
block 2
340
0
102
{BLKREFS
331
3D
102
}
  0
ENDTAB
  0
ENDSEC
  0
SECTION
  2
BLOCKS
  0
BLOCK
  5
20
330
1F
100
AcDbEntity
  8
0
100
AcDbBlockBegin
  2
*Model_Space
 70
     0
 71
     0
 10
0.0
 20
0.0
 30
0.0
  3
*Model_Space
  1

  0
ENDBLK
  5
21
330
1F
100
AcDbEntity
  8
0
100
AcDbBlockEnd
  0
BLOCK
  5
1C
330
1B
100
AcDbEntity
 67
     1
  8
0
100
AcDbBlockBegin
  2
*Paper_Space
 70
     0
 71
     0
 10
0.0
 20
0.0
 30
0.0
  3
*Paper_Space
  1

  0
ENDBLK
  5
1D
330
1B
100
AcDbEntity
 67
     1
  8
0
100
AcDbBlockEnd
  0
BLOCK
  5
24
330
23
100
AcDbEntity
  8
0
100
AcDbBlockBegin
  2
*Paper_Space0
 70
     0
 71
     0
 10
0.0
 20
0.0
 30
0.0
  3
*Paper_Space0
  1

  0
ENDBLK
  5
25
330
23
100
AcDbEntity
  8
0
100
AcDbBlockEnd
  0
BLOCK
  5
3E
330
3C
100
AcDbEntity
  8
0
100
AcDbBlockBegin
  2
block 2
 70
     0
 71
     0
 10
0.0
 20
0.0
 30
0.0
  3
block 2
  1

  0
SPLINE
  5
40
330
3C
100
AcDbEntity
  8
Layer 1
370
     0
100
AcDbSpline
210
0.0
220
0.0
230
1.0
 70
    11
 71
     3
 72
   182
 73
   178
 74
     0
 42
0.0000000001
 43
0.0000000001
 40
0.0
 40
0.0
 40
0.0
 40
0.0
 40
1.0
 40
1.0
 40
1.0
 40
2.0
 40
2.0
 40
2.0
 40
3.0
 40
3.0
 40
3.0
 40
4.0
 40
4.0
 40
4.0
 40
5.0
 40
5.0
 40
5.0
 40
6.0
 40
6.0
 40
6.0
 40
7.0
 40
7.0
 40
7.0
 40
8.0
 40
8.0
 40
8.0
 40
9.0
 40
9.0
 40
9.0
 40
10.0
 40
10.0
 40
10.0
 40
11.0
 40
11.0
 40
11.0
 40
12.0
 40
12.0
 40
12.0
 40
13.0
 40
13.0
 40
13.0
 40
14.0
 40
14.0
 40
14.0
 40
15.0
 40
15.0
 40
15.0
 40
16.0
 40
16.0
 40
16.0
 40
17.0
 40
17.0
 40
17.0
 40
18.0
 40
18.0
 40
18.0
 40
19.0
 40
19.0
 40
19.0
 40
20.0
 40
20.0
 40
20.0
 40
21.0
 40
21.0
 40
21.0
 40
22.0
 40
22.0
 40
22.0
 40
23.0
 40
23.0
 40
23.0
 40
24.0
 40
24.0
 40
24.0
 40
25.0
 40
25.0
 40
25.0
 40
26.0
 40
26.0
 40
26.0
 40
27.0
 40
27.0
 40
27.0
 40
28.0
 40
28.0
 40
28.0
 40
29.0
 40
29.0
 40
29.0
 40
30.0
 40
30.0
 40
30.0
 40
31.0
 40
31.0
 40
31.0
 40
32.0
 40
32.0
 40
32.0
 40
33.0
 40
33.0
 40
33.0
 40
34.0
 40
34.0
 40
34.0
 40
35.0
 40
35.0
 40
35.0
 40
36.0
 40
36.0
 40
36.0
 40
37.0
 40
37.0
 40
37.0
 40
38.0
 40
38.0
 40
38.0
 40
39.0
 40
39.0
 40
39.0
 40
40.0
 40
40.0
 40
40.0
 40
41.0
 40
41.0
 40
41.0
 40
42.0
 40
42.0
 40
42.0
 40
43.0
 40
43.0
 40
43.0
 40
44.0
 40
44.0
 40
44.0
 40
45.0
 40
45.0
 40
45.0
 40
46.0
 40
46.0
 40
46.0
 40
47.0
 40
47.0
 40
47.0
 40
48.0
 40
48.0
 40
48.0
 40
49.0
 40
49.0
 40
49.0
 40
50.0
 40
50.0
 40
50.0
 40
51.0
 40
51.0
 40
51.0
 40
52.0
 40
52.0
 40
52.0
 40
53.0
 40
53.0
 40
53.0
 40
54.0
 40
54.0
 40
54.0
 40
55.0
 40
55.0
 40
55.0
 40
56.0
 40
56.0
 40
56.0
 40
57.0
 40
57.0
 40
57.0
 40
58.0
 40
58.0
 40
58.0
 40
59.0
 40
59.0
 40
59.0
 40
59.0
 10
122.8583061758826
 20
-135.0653130087684
 30
0.0
 10
123.5952121001776
 20
-134.8151990765393
 30
0.0
 10
124.2687282675439
 20
-134.3259955176338
 30
0.0
 10
124.7982394436268
 20
-133.563595886748
 30
0.0
 10
125.8644964963117
 20
-132.0262220264553
 30
0.0
 10
124.9756618611172
 20
-129.8048244575662
 30
0.0
 10
123.4529296566368
 20
-129.8771714627564
 30
0.0
 10
122.6974202167215
 20
-129.9131727105773
 30
0.0
 10
122.1141655510687
 20
-130.5308783310826
 30
0.0
 10
122.1513725823094
 20
-131.2552096568564
 30
0.0
 10
122.1885796135501
 20
-131.9828138233411
 30
0.0
 10
122.8324679597433
 20
-132.5417805658229
 30
0.0
 10
123.5886664187556
 20
-132.5061238275506
 30
0.0
 10
123.6720377294987
 20
-132.5021619677425
 30
0.0
 10
123.752997473402
 20
-132.4892428596728
 30
0.0
 10
123.8318901600143
 20
-132.4723618917951
 30
0.0
 10
123.5983126861143
 20
-133.5467149188703
 30
0.0
 10
122.8169650300596
 20
-134.0006062490519
 30
0.0
 10
122.1093424173893
 20
-134.1316921322657
 30
0.0
 10
120.1242783987884
 20
-134.4972167632507
 30
0.0
 10
118.0000325225833
 20
-132.2696180224881
 30
0.0
 10
116.7859808735813
 20
-130.3553507161091
 30
0.0
 10
116.6616129265638
 20
-130.1594970377726
 30
0.0
 10
116.6219943284834
 20
-130.0936957140044
 30
0.0
 10
116.8727972798096
 20
-130.254237163617
 30
0.0
 10
117.2614040505458
 20
-130.4991834526183
 30
0.0
 10
117.7351046797676
 20
-130.8476548609513
 30
0.0
 10
118.1161322404362
 20
-130.7675563909192
 30
0.0
 10
118.5236870363413
 20
-130.4692111218966
 30
0.0
 10
118.2604817412682
 20
-129.9224744683874
 30
0.0
 10
118.2584146839771
 20
-129.5342122071998
 30
0.0
 10
119.0473415500993
 20
-129.8024128907265
 30
0.0
 10
119.8720974092681
 20
-129.3950303495957
 30
0.0
 10
120.4581081513091
 20
-128.8517387915718
 30
0.0
 10
120.7030544403104
 20
-128.6233289608997
 30
0.0
 10
120.7016764021162
 20
-128.5454698029331
 30
0.0
 10
120.3258164846755
 20
-128.4968939565911
 30
0.0
 10
118.2532470407492
 20
-128.2359279735834
 30
0.0
 10
116.112464706215
 20
-127.0244601461953
 30
0.0
 10
114.7678439383219
 20
-125.4817463879004
 30
0.0
 10
114.0526421155841
 20
-124.6621581719595
 30
0.0
 10
113.5723958049402
 20
-123.7101060346107
 30
0.0
 10
112.9936197634183
 20
-122.8314344310977
 30
0.0
 10
112.2770399024863
 20
-121.739683671822
 30
0.0
 10
110.8986571988378
 20
-120.2238416583121
 30
0.0
 10
108.9649251029671
 20
-119.5647948919838
 30
0.0
 10
108.8567491047303
 20
-119.5279323702916
 30
0.0
 10
108.7389268391347
 20
-119.4976155300214
 30
0.0
 10
108.6173149685054
 20
-119.470399275688
 30
0.0
 10
109.2915201549688
 20
-119.0206420600886
 30
0.0
 10
109.8272325029251
 20
-118.3581501982751
 30
0.0
 10
110.6812716737186
 20
-117.9743665612182
 30
0.0
 10
111.0691894253577
 20
-117.7993557105675
 30
0.0
 10
110.9710042040281
 20
-117.49515377922
 30
0.0
 10
110.646131699769
 20
-117.6732652158074
 30
0.0
 10
109.7042425941017
 20
-118.1903740481434
 30
0.0
 10
108.8446912705319
 20
-117.2078328157501
 30
0.0
 10
108.0058105198735
 20
-117.0493584234286
 30
0.0
 10
106.8444688317958
 20
-116.7186292568447
 30
0.0
 10
105.8540038797865
 20
-116.6834892828951
 30
0.0
 10
104.7033419877131
 20
-117.2302259364043
 30
0.0
 10
104.5769069834044
 20
-116.9112100944701
 30
0.0
 10
104.8163411196293
 20
-116.5184692091516
 30
0.0
 10
104.7519178340551
 20
-116.2438950989772
 30
0.0
 10
102.8626274699441
 20
-116.3451809062436
 30
0.0
 10
100.2381537292807
 20
-118.2854586835363
 30
0.0
 10
98.63377276179989
 20
-121.5545097894899
 30
0.0
 10
98.63377276179989
 20
-121.5545097894899
 30
0.0
 10
98.63377276179989
 20
-119.0259819580907
 30
0.0
 10
98.63377276179989
 20
-119.0259819580907
 30
0.0
 10
98.63377276179989
 20
-114.5280652925485
 30
0.0
 10
100.1330783169806
 20
-112.2350097375663
 30
0.0
 10
103.8372449827212
 20
-111.8822319598767
 30
0.0
 10
103.8372449827212
 20
-111.8822319598767
 30
0.0
 10
103.8372449827212
 20
-108.8836208495152
 30
0.0
 10
103.8372449827212
 20
-108.8836208495152
 30
0.0
 10
103.8372449827212
 20
-108.8836208495152
 30
0.0
 10
85.8455783205525
 20
-108.8836208495152
 30
0.0
 10
85.8455783205525
 20
-108.8836208495152
 30
0.0
 10
85.8455783205525
 20
-108.8836208495152
 30
0.0
 10
85.8455783205525
 20
-111.8822319598767
 30
0.0
 10
85.8455783205525
 20
-111.8822319598767
 30
0.0
 10
89.54974498629312
 20
-112.2350097375663
 30
0.0
 10
91.04905054147385
 20
-114.5280652925485
 30
0.0
 10
91.04905054147385
 20
-119.0259819580907
 30
0.0
 10
91.04905054147385
 20
-119.0259819580907
 30
0.0
 10
91.04905054147385
 20
-121.5844821202115
 30
0.0
 10
91.04905054147385
 20
-121.5844821202115
 30
0.0
 10
89.4460476121871
 20
-118.2973442629604
 30
0.0
 10
86.81158309461655
 20
-116.3455254157921
 30
0.0
 10
84.91643606818062
 20
-116.2438950989772
 30
0.0
 10
84.85201278260645
 20
-116.5184692091516
 30
0.0
 10
85.09144691883131
 20
-116.9112100944701
 30
0.0
 10
84.96501191452263
 20
-117.2302259364043
 30
0.0
 10
83.81435002244919
 20
-116.6834892828951
 30
0.0
 10
82.82388507043987
 20
-116.7186292568447
 30
0.0
 10
81.66254338236214
 20
-117.0493584234286
 30
0.0
 10
80.82366263170381
 20
-117.2078328157501
 30
0.0
 10
79.96411130813398
 20
-118.1903740481434
 30
0.0
 10
79.02222220246666
 20
-117.6732652158074
 30
0.0
 10
78.69734969820762
 20
-117.49515377922
 30
0.0
 10
78.59916447687799
 20
-117.7993557105675
 30
0.0
 10
78.98708222851712
 20
-117.9743665612182
 30
0.0
 10
80.3065537993678
 20
-118.5672674942297
 30
0.0
 10
80.86397024888123
 20
-119.8292059704767
 30
0.0
 10
82.35190698896064
 20
-119.936348440068
 30
0.0
 10
80.53909774462217
 20
-120.5416517168264
 30
0.0
 10
77.81161564894988
 20
-123.2822251753426
 30
0.0
 10
79.15658092639141
 20
-127.0256659296151
 30
0.0
 10
79.71330835680779
 20
-128.5759588979776
 30
0.0
 10
81.39830455864349
 20
-129.8337632596423
 30
0.0
 10
82.72156573452794
 20
-129.1161498700647
 30
0.0
 10
84.44893661083222
 20
-128.1780503694312
 30
0.0
 10
82.4921223752103
 20
-124.831829124608
 30
0.0
 10
81.05000540508472
 20
-126.2501749358854
 30
0.0
 10
80.91633570025704
 20
-126.382466602519
 30
0.0
 10
80.80609264472903
 20
-126.5433525616801
 30
0.0
 10
80.70997448069056
 20
-126.706650087681
 30
0.0
 10
79.26200084824006
 20
-124.0780422324354
 30
0.0
 10
81.30942109512404
 20
-121.8421752625082
 30
0.0
 10
82.46111651584306
 20
-121.7264200542038
 30
0.0
 10
82.46111651584306
 20
-121.7264200542038
 30
0.0
 10
81.54127602128135
 20
-123.0183308611725
 30
0.0
 10
81.78105466705475
 20
-124.1738158869253
 30
0.0
 10
82.01945527463403
 20
-124.2881930570356
 30
0.0
 10
82.28438311744974
 20
-124.2041327271955
 30
0.0
 10
82.53415254013035
 20
-124.1114596586423
 30
0.0
 10
82.69262693245184
 20
-125.4960435341642
 30
0.0
 10
82.85247936296744
 20
-126.5619560773005
 30
0.0
 10
84.34971786085701
 20
-127.3102308166968
 30
0.0
 10
84.6404839198121
 20
-127.4566473748199
 30
0.0
 10
84.72626679739483
 20
-127.3488158861315
 30
0.0
 10
84.7052517149348
 20
-127.1365980042402
 30
0.0
 10
84.6721787982764
 20
-126.8279174487618
 30
0.0
 10
84.6845811420233
 20
-126.5781480260812
 30
0.0
 10
84.7465928607578
 20
-126.278769228413
 30
0.0
 10
85.36464299081162
 20
-123.3562947282755
 30
0.0
 10
88.13105466546725
 20
-123.6026190554709
 30
0.0
 10
89.74956052443761
 20
-125.1177720498838
 30
0.0
 10
90.65424259886422
 20
-126.1657700964968
 30
0.0
 10
90.95086532014423
 20
-127.4452785597185
 30
0.0
 10
91.04905054147385
 20
-128.7702622833456
 30
0.0
 10
91.04905054147385
 20
-128.7702622833456
 30
0.0
 10
91.04905054147385
 20
-132.0954684457088
 30
0.0
 10
91.04905054147385
 20
-132.0954684457088
 30
0.0
 10
89.00094127549282
 20
-130.6102877820176
 30
0.0
 10
86.397138107741
 20
-131.2734686629282
 30
0.0
 10
84.27323674108447
 20
-132.1145887256519
 30
0.0
 10
82.21927081277852
 20
-132.9283202792679
 30
0.0
 10
80.25384383844349
 20
-134.6632703656397
 30
0.0
 10
79.17862953749702
 20
-134.7128797406273
 30
0.0
 10
79.29231768851025
 20
-134.5104803808689
 30
0.0
 10
79.36535371279756
 20
-134.2569213531545
 30
0.0
 10
79.37431096105921
 20
-133.980969204786
 30
0.0
 10
79.3977376103589
 20
-133.2867824645082
 30
0.0
 10
78.70871851330894
 20
-132.7384955180306
 30
0.0
 10
78.21882593530641
 20
-132.7221313144757
 30
0.0
 10
77.72583277136715
 20
-132.7054226013722
 30
0.0
 10
76.93656139569642
 20
-133.2494031784932
 30
0.0
 10
76.91313474639672
 20
-133.943589918771
 30
0.0
 10
76.89556475942194
 20
-134.4674166873033
 30
0.0
 10
77.16703828365964
 20
-134.8401760188073
 30
0.0
 10
77.58596189466601
 20
-135.0653130087684
 30
0.0
 10
77.58596189466601
 20
-135.0653130087684
 30
0.0
 10
73.40327146602418
 20
-135.0653130087684
 30
0.0
 10
73.40327146602418
 20
-135.0653130087684
 30
0.0
 10
73.40327146602418
 20
-135.0653130087684
 30
0.0
 10
73.40327146602418
 20
-136.6769286767683
 30
0.0
 10
73.40327146602418
 20
-136.6769286767683
 30
0.0
 10
73.40327146602418
 20
-136.6769286767683
 30
0.0
 10
142.3120713619914
 20
-136.6769286767683
 30
0.0
 10
142.3120713619914
 20
-136.6769286767683
 30
0.0
 10
142.3120713619914
 20
-136.6769286767683
 30
0.0
 10
142.3120713619914
 20
-135.0653130087684
 30
0.0
 10
142.3120713619914
 20
-135.0653130087684
 30
0.0
 10
142.3120713619914
 20
-135.0653130087684
 30
0.0
 10
122.8583061758826
 20
-135.0653130087684
 30
0.0
 10
122.8583061758826
 20
-135.0653130087684
 30
0.0
  0
SPLINE
  5
41
330
3C
100
AcDbEntity
  8
Layer 1
370
     0
100
AcDbSpline
210
0.0
220
0.0
230
1.0
 70
    11
 71
     3
 72
    14
 73
    10
 74
     0
 42
0.0000000001
 43
0.0000000001
 40
0.0
 40
0.0
 40
0.0
 40
0.0
 40
1.0
 40
1.0
 40
1.0
 40
2.0
 40
2.0
 40
2.0
 40
3.0
 40
3.0
 40
3.0
 40
3.0
 10
82.60546601667502
 20
-118.6044745254704
 30
0.0
 10
82.55757918943006
 20
-118.5906941435294
 30
0.0
 10
82.55413409394481
 20
-118.5807033666222
 30
0.0
 10
82.6009873925442
 20
-118.577947290234
 30
0.0
 10
85.3959933597274
 20
-118.412582706942
 30
0.0
 10
88.83109806807
 20
-120.0948228323895
 30
0.0
 10
90.12197534639313
 20
-122.5773586390605
 30
0.0
 10
88.21098088072503
 20
-120.4441555145938
 30
0.0
 10
85.18549802557862
 20
-119.3472371120903
 30
0.0
 10
82.60546601667502
 20
-118.6044745254704
 30
0.0
  0
SPLINE
  5
42
330
3C
100
AcDbEntity
  8
Layer 1
370
     0
100
AcDbSpline
210
0.0
220
0.0
230
1.0
 70
    11
 71
     3
 72
    14
 73
    10
 74
     0
 42
0.0000000001
 43
0.0000000001
 40
0.0
 40
0.0
 40
0.0
 40
0.0
 40
1.0
 40
1.0
 40
1.0
 40
2.0
 40
2.0
 40
2.0
 40
3.0
 40
3.0
 40
3.0
 40
3.0
 10
84.80653752220115
 20
-124.3705308391331
 30
0.0
 10
84.76244029998995
 20
-124.4494235257453
 30
0.0
 10
84.70697426267742
 20
-124.506956620349
 30
0.0
 10
84.72109915416695
 20
-124.3650186863567
 30
0.0
 10
84.96914602910493
 20
-121.8456203579935
 30
0.0
 10
89.43192272069759
 20
-121.9868692728887
 30
0.0
 10
90.3769124123016
 20
-124.0949232003131
 30
0.0
 10
88.77907712624274
 20
-122.5105237866467
 30
0.0
 10
85.61579045168634
 20
-122.9335815122354
 30
0.0
 10
84.80653752220115
 20
-124.3705308391331
 30
0.0
  0
SPLINE
  5
43
330
3C
100
AcDbEntity
  8
Layer 1
370
     0
100
AcDbSpline
210
0.0
220
0.0
230
1.0
 70
    11
 71
     3
 72
    14
 73
    10
 74
     0
 42
0.0000000001
 43
0.0000000001
 40
0.0
 40
0.0
 40
0.0
 40
0.0
 40
1.0
 40
1.0
 40
1.0
 40
2.0
 40
2.0
 40
2.0
 40
3.0
 40
3.0
 40
3.0
 40
3.0
 10
107.0673665096915
 20
-118.577947290234
 30
0.0
 10
107.1142198082909
 20
-118.5807033666222
 30
0.0
 10
107.1107747128057
 20
-118.5906941435294
 30
0.0
 10
107.0628878855607
 20
-118.6044745254704
 30
0.0
 10
104.4828558766571
 20
-119.3472371120903
 30
0.0
 10
101.4573730215107
 20
-120.4441555145938
 30
0.0
 10
99.54637855584258
 20
-122.5773586390605
 30
0.0
 10
100.8372558341657
 20
-120.0948228323895
 30
0.0
 10
104.2723605425083
 20
-118.412582706942
 30
0.0
 10
107.0673665096915
 20
-118.577947290234
 30
0.0
  0
SPLINE
  5
44
330
3C
100
AcDbEntity
  8
Layer 1
370
     0
100
AcDbSpline
210
0.0
220
0.0
230
1.0
 70
    11
 71
     3
 72
    14
 73
    10
 74
     0
 42
0.0000000001
 43
0.0000000001
 40
0.0
 40
0.0
 40
0.0
 40
0.0
 40
1.0
 40
1.0
 40
1.0
 40
2.0
 40
2.0
 40
2.0
 40
3.0
 40
3.0
 40
3.0
 40
3.0
 10
104.9472547480687
 20
-124.3650186863567
 30
0.0
 10
104.9613796395583
 20
-124.506956620349
 30
0.0
 10
104.9059136022457
 20
-124.4494235257453
 30
0.0
 10
104.8618163800346
 20
-124.3705308391331
 30
0.0
 10
104.0525634505494
 20
-122.9335815122354
 30
0.0
 10
100.889276775993
 20
-122.5105237866467
 30
0.0
 10
99.29144148993409
 20
-124.0949232003131
 30
0.0
 10
100.2364311815381
 20
-121.9868692728887
 30
0.0
 10
104.6992078731308
 20
-121.8456203579935
 30
0.0
 10
104.9472547480687
 20
-124.3650186863567
 30
0.0
  0
SPLINE
  5
45
330
3C
100
AcDbEntity
  8
Layer 1
370
     0
100
AcDbSpline
210
0.0
220
0.0
230
1.0
 70
    11
 71
     3
 72
   104
 73
   100
 74
     0
 42
0.0000000001
 43
0.0000000001
 40
0.0
 40
0.0
 40
0.0
 40
0.0
 40
1.0
 40
1.0
 40
1.0
 40
2.0
 40
2.0
 40
2.0
 40
3.0
 40
3.0
 40
3.0
 40
4.0
 40
4.0
 40
4.0
 40
5.0
 40
5.0
 40
5.0
 40
6.0
 40
6.0
 40
6.0
 40
7.0
 40
7.0
 40
7.0
 40
8.0
 40
8.0
 40
8.0
 40
9.0
 40
9.0
 40
9.0
 40
10.0
 40
10.0
 40
10.0
 40
11.0
 40
11.0
 40
11.0
 40
12.0
 40
12.0
 40
12.0
 40
13.0
 40
13.0
 40
13.0
 40
14.0
 40
14.0
 40
14.0
 40
15.0
 40
15.0
 40
15.0
 40
16.0
 40
16.0
 40
16.0
 40
17.0
 40
17.0
 40
17.0
 40
18.0
 40
18.0
 40
18.0
 40
19.0
 40
19.0
 40
19.0
 40
20.0
 40
20.0
 40
20.0
 40
21.0
 40
21.0
 40
21.0
 40
22.0
 40
22.0
 40
22.0
 40
23.0
 40
23.0
 40
23.0
 40
24.0
 40
24.0
 40
24.0
 40
25.0
 40
25.0
 40
25.0
 40
26.0
 40
26.0
 40
26.0
 40
27.0
 40
27.0
 40
27.0
 40
28.0
 40
28.0
 40
28.0
 40
29.0
 40
29.0
 40
29.0
 40
30.0
 40
30.0
 40
30.0
 40
31.0
 40
31.0
 40
31.0
 40
32.0
 40
32.0
 40
32.0
 40
33.0
 40
33.0
 40
33.0
 40
33.0
 10
98.63377276179989
 20
-128.588705751273
 30
0.0
 10
98.74573836507051
 20
-127.3286620775428
 30
0.0
 10
99.05545244919448
 20
-126.1178832692518
 30
0.0
 10
99.91879337779808
 20
-125.1177720498838
 30
0.0
 10
101.5372992367685
 20
-123.6026190554709
 30
0.0
 10
104.3037109114241
 20
-123.3562947282755
 30
0.0
 10
104.9217610414779
 20
-126.278769228413
 30
0.0
 10
104.9837727602124
 20
-126.5781480260812
 30
0.0
 10
104.9961751039593
 20
-126.8279174487618
 30
0.0
 10
104.9631021873009
 20
-127.1365980042402
 30
0.0
 10
104.9420871048409
 20
-127.3488158861315
 30
0.0
 10
105.0278699824236
 20
-127.4566473748199
 30
0.0
 10
105.3186360413787
 20
-127.3102308166968
 30
0.0
 10
106.8158745392683
 20
-126.5619560773005
 30
0.0
 10
106.9757269697838
 20
-125.4960435341642
 30
0.0
 10
107.1342013621053
 20
-124.1114596586423
 30
0.0
 10
107.383970784786
 20
-124.2041327271955
 30
0.0
 10
107.6488986276017
 20
-124.2881930570356
 30
0.0
 10
107.887299235181
 20
-124.1738158869253
 30
0.0
 10
108.1270778809543
 20
-123.0183308611725
 30
0.0
 10
107.2072373863926
 20
-121.7264200542038
 30
0.0
 10
107.2072373863926
 20
-121.7264200542038
 30
0.0
 10
108.3589328071117
 20
-121.8421752625082
 30
0.0
 10
110.4063530539956
 20
-124.0780422324354
 30
0.0
 10
108.9583794215451
 20
-126.706650087681
 30
0.0
 10
108.8622612575067
 20
-126.5433525616801
 30
0.0
 10
108.7644205457256
 20
-126.368686220578
 30
0.0
 10
108.618348497151
 20
-126.2501749358854
 30
0.0
 10
107.1559054636624
 20
-125.0652343437337
 30
0.0
 10
105.6565999084817
 20
-128.0638454540951
 30
0.0
 10
106.9467881677078
 20
-129.1161498700647
 30
0.0
 10
108.1132974990133
 20
-130.0673407335422
 30
0.0
 10
109.9550455454279
 20
-128.5759588979776
 30
0.0
 10
110.5117729758443
 20
-127.0256659296151
 30
0.0
 10
111.5432345641281
 20
-124.1545233522079
 30
0.0
 10
110.1789767519691
 20
-121.8745591600696
 30
0.0
 10
108.6693359103327
 20
-120.694269446823
 30
0.0
 10
110.2685492345856
 20
-121.3422919075985
 30
0.0
 10
111.4636528584188
 20
-122.7689059480404
 30
0.0
 10
111.8346896421802
 20
-124.1698540271173
 30
0.0
 10
112.5884765343529
 20
-127.0220485793556
 30
0.0
 10
111.7299587394286
 20
-130.6962429143746
 30
0.0
 10
108.5728732367457
 20
-131.6221123260354
 30
0.0
 10
107.9334635146833
 20
-131.809525520433
 30
0.0
 10
108.2256076118325
 20
-132.0439642682043
 30
0.0
 10
108.508105441623
 20
-132.2069172846566
 30
0.0
 10
109.4300129934758
 20
-132.7331556200285
 30
0.0
 10
111.4205891648532
 20
-132.3543673714253
 30
0.0
 10
112.527498344264
 20
-131.2676120006032
 30
0.0
 10
112.6694362782563
 20
-131.657252299985
 30
0.0
 10
113.0666557877056
 20
-131.9006482960179
 30
0.0
 10
113.4814452841296
 20
-131.9349269960961
 30
0.0
 10
114.3940510781723
 20
-130.8809000323839
 30
0.0
 10
114.5163519678987
 20
-129.9552028754973
 30
0.0
 10
114.4943033567931
 20
-128.6040364261823
 30
0.0
 10
114.7616427664485
 20
-129.0487982533281
 30
0.0
 10
115.127511906982
 20
-129.8585679471361
 30
0.0
 10
115.2801296369786
 20
-130.7174302516088
 30
0.0
 10
115.4551404876293
 20
-131.6980766814852
 30
0.0
 10
115.2873643374976
 20
-133.305730489677
 30
0.0
 10
114.0864040513395
 20
-132.9236694003628
 30
0.0
 10
113.7446505792027
 20
-132.8144598734804
 30
0.0
 10
113.4314913995935
 20
-132.8700981655672
 30
0.0
 10
113.900368895136
 20
-133.4144232522367
 30
0.0
 10
114.3585665946743
 20
-133.9456569760622
 30
0.0
 10
115.2839192420124
 20
-134.3978257585013
 30
0.0
 10
116.050797497029
 20
-134.0608954200438
 30
0.0
 10
116.8404133822482
 20
-133.7138020499049
 30
0.0
 10
116.892089814527
 20
-133.1102213208891
 30
0.0
 10
116.7418836513701
 20
-132.3295626839315
 30
0.0
 10
117.3633788769092
 20
-133.1739555873662
 30
0.0
 10
118.1626410294871
 20
-133.9385945303174
 30
0.0
 10
119.0680121230108
 20
-134.4989393109933
 30
0.0
 10
119.470399275688
 20
-134.7475029502541
 30
0.0
 10
119.8938015108252
 20
-134.9356051637487
 30
0.0
 10
120.3234049178358
 20
-135.0653130087684
 30
0.0
 10
120.3234049178358
 20
-135.0653130087684
 30
0.0
 10
112.1023735613841
 20
-135.0653130087684
 30
0.0
 10
112.1023735613841
 20
-135.0653130087684
 30
0.0
 10
112.5212971723905
 20
-134.8401760188073
 30
0.0
 10
112.7927706966282
 20
-134.4674166873033
 30
0.0
 10
112.7752007096534
 20
-133.943589918771
 30
0.0
 10
112.7517740603537
 20
-133.2494031784932
 30
0.0
 10
111.962502684683
 20
-132.7054226013722
 30
0.0
 10
111.4695095207437
 20
-132.7221313144757
 30
0.0
 10
110.9796169427412
 20
-132.7384955180306
 30
0.0
 10
110.2905978456912
 20
-133.2867824645082
 30
0.0
 10
110.3140244949909
 20
-133.980969204786
 30
0.0
 10
110.3229817432526
 20
-134.2569213531545
 30
0.0
 10
110.3960177675399
 20
-134.5104803808689
 30
0.0
 10
110.5097059185531
 20
-134.7128797406273
 30
0.0
 10
109.4344916176067
 20
-134.6632703656397
 30
0.0
 10
107.4690646432716
 20
-132.9283202792679
 30
0.0
 10
105.4150987149657
 20
-132.1145887256519
 30
0.0
 10
103.289130291018
 20
-131.2727796438311
 30
0.0
 10
100.6829155564265
 20
-130.609254253372
 30
0.0
 10
98.63377276179989
 20
-132.0996025602911
 30
0.0
 10
98.63377276179989
 20
-132.0996025602911
 30
0.0
 10
98.63377276179989
 20
-128.588705751273
 30
0.0
 10
98.63377276179989
 20
-128.588705751273
 30
0.0
  0
SPLINE
  5
46
330
3C
100
AcDbEntity
  8
Layer 1
370
     0
100
AcDbSpline
210
0.0
220
0.0
230
1.0
 70
    11
 71
     3
 72
    14
 73
    10
 74
     0
 42
0.0000000001
 43
0.0000000001
 40
0.0
 40
0.0
 40
0.0
 40
0.0
 40
1.0
 40
1.0
 40
1.0
 40
2.0
 40
2.0
 40
2.0
 40
3.0
 40
3.0
 40
3.0
 40
3.0
 10
109.6677245819581
 20
-135.0653130087684
 30
0.0
 10
109.6677245819581
 20
-135.0653130087684
 30
0.0
 10
98.70749780518425
 20
-135.0653130087684
 30
0.0
 10
98.70749780518425
 20
-135.0653130087684
 30
0.0
 10
101.1769422490113
 20
-131.2362616316875
 30
0.0
 10
108.8236761880719
 20
-134.7140855240472
 30
0.0
 10
109.6222493215528
 20
-135.0484320408907
 30
0.0
 10
109.6374077416879
 20
-135.0546332127641
 30
0.0
 10
109.6529106713715
 20
-135.0592840916692
 30
0.0
 10
109.6677245819581
 20
-135.0653130087684
 30
0.0
  0
SPLINE
  5
47
330
3C
100
AcDbEntity
  8
Layer 1
370
     0
100
AcDbSpline
210
0.0
220
0.0
230
1.0
 70
    11
 71
     3
 72
    14
 73
    10
 74
     0
 42
0.0000000001
 43
0.0000000001
 40
0.0
 40
0.0
 40
0.0
 40
0.0
 40
1.0
 40
1.0
 40
1.0
 40
2.0
 40
2.0
 40
2.0
 40
3.0
 40
3.0
 40
3.0
 40
3.0
 10
80.06608613449737
 20
-135.0484320408907
 30
0.0
 10
80.86465926797828
 20
-134.7139132692729
 30
0.0
 10
88.51208222613587
 20
-131.2355726125904
 30
0.0
 10
90.98118216041443
 20
-135.0653130087684
 30
0.0
 10
90.98118216041443
 20
-135.0653130087684
 30
0.0
 10
80.02061087409207
 20
-135.0653130087684
 30
0.0
 10
80.02061087409207
 20
-135.0653130087684
 30
0.0
 10
80.03542478467865
 20
-135.0592840916692
 30
0.0
 10
80.05092771436227
 20
-135.0546332127641
 30
0.0
 10
80.06608613449737
 20
-135.0484320408907
 30
0.0
  0
HATCH
  5
48
330
3C
100
AcDbEntity
  8
Layer 1
 62
   250
420
  2301728
100
AcDbHatch
 10
0.0
 20
0.0
 30
0.0
210
0.0
220
0.0
230
1.0
  2
SOLID
 70
     1
 71
     0
 91
        8
 92
        1
 93
        1
 72
     4
 94
        3
 73
     0
 74
     1
 95
      182
 96
      178
 40
0.0
 40
0.0
 40
0.0
 40
0.0
 40
1.0
 40
1.0
 40
1.0
 40
2.0
 40
2.0
 40
2.0
 40
3.0
 40
3.0
 40
3.0
 40
4.0
 40
4.0
 40
4.0
 40
5.0
 40
5.0
 40
5.0
 40
6.0
 40
6.0
 40
6.0
 40
7.0
 40
7.0
 40
7.0
 40
8.0
 40
8.0
 40
8.0
 40
9.0
 40
9.0
 40
9.0
 40
10.0
 40
10.0
 40
10.0
 40
11.0
 40
11.0
 40
11.0
 40
12.0
 40
12.0
 40
12.0
 40
13.0
 40
13.0
 40
13.0
 40
14.0
 40
14.0
 40
14.0
 40
15.0
 40
15.0
 40
15.0
 40
16.0
 40
16.0
 40
16.0
 40
17.0
 40
17.0
 40
17.0
 40
18.0
 40
18.0
 40
18.0
 40
19.0
 40
19.0
 40
19.0
 40
20.0
 40
20.0
 40
20.0
 40
21.0
 40
21.0
 40
21.0
 40
22.0
 40
22.0
 40
22.0
 40
23.0
 40
23.0
 40
23.0
 40
24.0
 40
24.0
 40
24.0
 40
25.0
 40
25.0
 40
25.0
 40
26.0
 40
26.0
 40
26.0
 40
27.0
 40
27.0
 40
27.0
 40
28.0
 40
28.0
 40
28.0
 40
29.0
 40
29.0
 40
29.0
 40
30.0
 40
30.0
 40
30.0
 40
31.0
 40
31.0
 40
31.0
 40
32.0
 40
32.0
 40
32.0
 40
33.0
 40
33.0
 40
33.0
 40
34.0
 40
34.0
 40
34.0
 40
35.0
 40
35.0
 40
35.0
 40
36.0
 40
36.0
 40
36.0
 40
37.0
 40
37.0
 40
37.0
 40
38.0
 40
38.0
 40
38.0
 40
39.0
 40
39.0
 40
39.0
 40
40.0
 40
40.0
 40
40.0
 40
41.0
 40
41.0
 40
41.0
 40
42.0
 40
42.0
 40
42.0
 40
43.0
 40
43.0
 40
43.0
 40
44.0
 40
44.0
 40
44.0
 40
45.0
 40
45.0
 40
45.0
 40
46.0
 40
46.0
 40
46.0
 40
47.0
 40
47.0
 40
47.0
 40
48.0
 40
48.0
 40
48.0
 40
49.0
 40
49.0
 40
49.0
 40
50.0
 40
50.0
 40
50.0
 40
51.0
 40
51.0
 40
51.0
 40
52.0
 40
52.0
 40
52.0
 40
53.0
 40
53.0
 40
53.0
 40
54.0
 40
54.0
 40
54.0
 40
55.0
 40
55.0
 40
55.0
 40
56.0
 40
56.0
 40
56.0
 40
57.0
 40
57.0
 40
57.0
 40
58.0
 40
58.0
 40
58.0
 40
59.0
 40
59.0
 40
59.0
 40
59.0
 10
122.8583061758826
 20
-135.0653130087684
 10
123.5952121001776
 20
-134.8151990765393
 10
124.2687282675439
 20
-134.3259955176338
 10
124.7982394436268
 20
-133.563595886748
 10
125.8644964963117
 20
-132.0262220264553
 10
124.9756618611172
 20
-129.8048244575662
 10
123.4529296566368
 20
-129.8771714627564
 10
122.6974202167215
 20
-129.9131727105773
 10
122.1141655510687
 20
-130.5308783310826
 10
122.1513725823094
 20
-131.2552096568564
 10
122.1885796135501
 20
-131.9828138233411
 10
122.8324679597433
 20
-132.5417805658229
 10
123.5886664187556
 20
-132.5061238275506
 10
123.6720377294987
 20
-132.5021619677425
 10
123.752997473402
 20
-132.4892428596728
 10
123.8318901600143
 20
-132.4723618917951
 10
123.5983126861143
 20
-133.5467149188703
 10
122.8169650300596
 20
-134.0006062490519
 10
122.1093424173893
 20
-134.1316921322657
 10
120.1242783987884
 20
-134.4972167632507
 10
118.0000325225833
 20
-132.2696180224881
 10
116.7859808735813
 20
-130.3553507161091
 10
116.6616129265638
 20
-130.1594970377726
 10
116.6219943284834
 20
-130.0936957140044
 10
116.8727972798096
 20
-130.254237163617
 10
117.2614040505458
 20
-130.4991834526183
 10
117.7351046797676
 20
-130.8476548609513
 10
118.1161322404362
 20
-130.7675563909192
 10
118.5236870363413
 20
-130.4692111218966
 10
118.2604817412682
 20
-129.9224744683874
 10
118.2584146839771
 20
-129.5342122071998
 10
119.0473415500993
 20
-129.8024128907265
 10
119.8720974092681
 20
-129.3950303495957
 10
120.4581081513091
 20
-128.8517387915718
 10
120.7030544403104
 20
-128.6233289608997
 10
120.7016764021162
 20
-128.5454698029331
 10
120.3258164846755
 20
-128.4968939565911
 10
118.2532470407492
 20
-128.2359279735834
 10
116.112464706215
 20
-127.0244601461953
 10
114.7678439383219
 20
-125.4817463879004
 10
114.0526421155841
 20
-124.6621581719595
 10
113.5723958049402
 20
-123.7101060346107
 10
112.9936197634183
 20
-122.8314344310977
 10
112.2770399024863
 20
-121.739683671822
 10
110.8986571988378
 20
-120.2238416583121
 10
108.9649251029671
 20
-119.5647948919838
 10
108.8567491047303
 20
-119.5279323702916
 10
108.7389268391347
 20
-119.4976155300214
 10
108.6173149685054
 20
-119.470399275688
 10
109.2915201549688
 20
-119.0206420600886
 10
109.8272325029251
 20
-118.3581501982751
 10
110.6812716737186
 20
-117.9743665612182
 10
111.0691894253577
 20
-117.7993557105675
 10
110.9710042040281
 20
-117.49515377922
 10
110.646131699769
 20
-117.6732652158074
 10
109.7042425941017
 20
-118.1903740481434
 10
108.8446912705319
 20
-117.2078328157501
 10
108.0058105198735
 20
-117.0493584234286
 10
106.8444688317958
 20
-116.7186292568447
 10
105.8540038797865
 20
-116.6834892828951
 10
104.7033419877131
 20
-117.2302259364043
 10
104.5769069834044
 20
-116.9112100944701
 10
104.8163411196293
 20
-116.5184692091516
 10
104.7519178340551
 20
-116.2438950989772
 10
102.8626274699441
 20
-116.3451809062436
 10
100.2381537292807
 20
-118.2854586835363
 10
98.63377276179989
 20
-121.5545097894899
 10
98.63377276179989
 20
-121.5545097894899
 10
98.63377276179989
 20
-119.0259819580907
 10
98.63377276179989
 20
-119.0259819580907
 10
98.63377276179989
 20
-114.5280652925485
 10
100.1330783169806
 20
-112.2350097375663
 10
103.8372449827212
 20
-111.8822319598767
 10
103.8372449827212
 20
-111.8822319598767
 10
103.8372449827212
 20
-108.8836208495152
 10
103.8372449827212
 20
-108.8836208495152
 10
103.8372449827212
 20
-108.8836208495152
 10
85.8455783205525
 20
-108.8836208495152
 10
85.8455783205525
 20
-108.8836208495152
 10
85.8455783205525
 20
-108.8836208495152
 10
85.8455783205525
 20
-111.8822319598767
 10
85.8455783205525
 20
-111.8822319598767
 10
89.54974498629312
 20
-112.2350097375663
 10
91.04905054147385
 20
-114.5280652925485
 10
91.04905054147385
 20
-119.0259819580907
 10
91.04905054147385
 20
-119.0259819580907
 10
91.04905054147385
 20
-121.5844821202115
 10
91.04905054147385
 20
-121.5844821202115
 10
89.4460476121871
 20
-118.2973442629604
 10
86.81158309461655
 20
-116.3455254157921
 10
84.91643606818062
 20
-116.2438950989772
 10
84.85201278260645
 20
-116.5184692091516
 10
85.09144691883131
 20
-116.9112100944701
 10
84.96501191452263
 20
-117.2302259364043
 10
83.81435002244919
 20
-116.6834892828951
 10
82.82388507043987
 20
-116.7186292568447
 10
81.66254338236214
 20
-117.0493584234286
 10
80.82366263170381
 20
-117.2078328157501
 10
79.96411130813398
 20
-118.1903740481434
 10
79.02222220246666
 20
-117.6732652158074
 10
78.69734969820762
 20
-117.49515377922
 10
78.59916447687799
 20
-117.7993557105675
 10
78.98708222851712
 20
-117.9743665612182
 10
80.3065537993678
 20
-118.5672674942297
 10
80.86397024888123
 20
-119.8292059704767
 10
82.35190698896064
 20
-119.936348440068
 10
80.53909774462217
 20
-120.5416517168264
 10
77.81161564894988
 20
-123.2822251753426
 10
79.15658092639141
 20
-127.0256659296151
 10
79.71330835680779
 20
-128.5759588979776
 10
81.39830455864349
 20
-129.8337632596423
 10
82.72156573452794
 20
-129.1161498700647
 10
84.44893661083222
 20
-128.1780503694312
 10
82.4921223752103
 20
-124.831829124608
 10
81.05000540508472
 20
-126.2501749358854
 10
80.91633570025704
 20
-126.382466602519
 10
80.80609264472903
 20
-126.5433525616801
 10
80.70997448069056
 20
-126.706650087681
 10
79.26200084824006
 20
-124.0780422324354
 10
81.30942109512404
 20
-121.8421752625082
 10
82.46111651584306
 20
-121.7264200542038
 10
82.46111651584306
 20
-121.7264200542038
 10
81.54127602128135
 20
-123.0183308611725
 10
81.78105466705475
 20
-124.1738158869253
 10
82.01945527463403
 20
-124.2881930570356
 10
82.28438311744974
 20
-124.2041327271955
 10
82.53415254013035
 20
-124.1114596586423
 10
82.69262693245184
 20
-125.4960435341642
 10
82.85247936296744
 20
-126.5619560773005
 10
84.34971786085701
 20
-127.3102308166968
 10
84.6404839198121
 20
-127.4566473748199
 10
84.72626679739483
 20
-127.3488158861315
 10
84.7052517149348
 20
-127.1365980042402
 10
84.6721787982764
 20
-126.8279174487618
 10
84.6845811420233
 20
-126.5781480260812
 10
84.7465928607578
 20
-126.278769228413
 10
85.36464299081162
 20
-123.3562947282755
 10
88.13105466546725
 20
-123.6026190554709
 10
89.74956052443761
 20
-125.1177720498838
 10
90.65424259886422
 20
-126.1657700964968
 10
90.95086532014423
 20
-127.4452785597185
 10
91.04905054147385
 20
-128.7702622833456
 10
91.04905054147385
 20
-128.7702622833456
 10
91.04905054147385
 20
-132.0954684457088
 10
91.04905054147385
 20
-132.0954684457088
 10
89.00094127549282
 20
-130.6102877820176
 10
86.397138107741
 20
-131.2734686629282
 10
84.27323674108447
 20
-132.1145887256519
 10
82.21927081277852
 20
-132.9283202792679
 10
80.25384383844349
 20
-134.6632703656397
 10
79.17862953749702
 20
-134.7128797406273
 10
79.29231768851025
 20
-134.5104803808689
 10
79.36535371279756
 20
-134.2569213531545
 10
79.37431096105921
 20
-133.980969204786
 10
79.3977376103589
 20
-133.2867824645082
 10
78.70871851330894
 20
-132.7384955180306
 10
78.21882593530641
 20
-132.7221313144757
 10
77.72583277136715
 20
-132.7054226013722
 10
76.93656139569642
 20
-133.2494031784932
 10
76.91313474639672
 20
-133.943589918771
 10
76.89556475942194
 20
-134.4674166873033
 10
77.16703828365964
 20
-134.8401760188073
 10
77.58596189466601
 20
-135.0653130087684
 10
77.58596189466601
 20
-135.0653130087684
 10
73.40327146602418
 20
-135.0653130087684
 10
73.40327146602418
 20
-135.0653130087684
 10
73.40327146602418
 20
-135.0653130087684
 10
73.40327146602418
 20
-136.6769286767683
 10
73.40327146602418
 20
-136.6769286767683
 10
73.40327146602418
 20
-136.6769286767683
 10
142.3120713619914
 20
-136.6769286767683
 10
142.3120713619914
 20
-136.6769286767683
 10
142.3120713619914
 20
-136.6769286767683
 10
142.3120713619914
 20
-135.0653130087684
 10
142.3120713619914
 20
-135.0653130087684
 10
142.3120713619914
 20
-135.0653130087684
 10
122.8583061758826
 20
-135.0653130087684
 10
122.8583061758826
 20
-135.0653130087684
 97
        0
 92
        1
 93
        1
 72
     4
 94
        3
 73
     0
 74
     1
 95
       14
 96
       10
 40
0.0
 40
0.0
 40
0.0
 40
0.0
 40
1.0
 40
1.0
 40
1.0
 40
2.0
 40
2.0
 40
2.0
 40
3.0
 40
3.0
 40
3.0
 40
3.0
 10
82.60546601667502
 20
-118.6044745254704
 10
82.55757918943006
 20
-118.5906941435294
 10
82.55413409394481
 20
-118.5807033666222
 10
82.6009873925442
 20
-118.577947290234
 10
85.3959933597274
 20
-118.412582706942
 10
88.83109806807
 20
-120.0948228323895
 10
90.12197534639313
 20
-122.5773586390605
 10
88.21098088072503
 20
-120.4441555145938
 10
85.18549802557862
 20
-119.3472371120903
 10
82.60546601667502
 20
-118.6044745254704
 97
        0
 92
        1
 93
        1
 72
     4
 94
        3
 73
     0
 74
     1
 95
       14
 96
       10
 40
0.0
 40
0.0
 40
0.0
 40
0.0
 40
1.0
 40
1.0
 40
1.0
 40
2.0
 40
2.0
 40
2.0
 40
3.0
 40
3.0
 40
3.0
 40
3.0
 10
84.80653752220115
 20
-124.3705308391331
 10
84.76244029998995
 20
-124.4494235257453
 10
84.70697426267742
 20
-124.506956620349
 10
84.72109915416695
 20
-124.3650186863567
 10
84.96914602910493
 20
-121.8456203579935
 10
89.43192272069759
 20
-121.9868692728887
 10
90.3769124123016
 20
-124.0949232003131
 10
88.77907712624274
 20
-122.5105237866467
 10
85.61579045168634
 20
-122.9335815122354
 10
84.80653752220115
 20
-124.3705308391331
 97
        0
 92
        1
 93
        1
 72
     4
 94
        3
 73
     0
 74
     1
 95
       14
 96
       10
 40
0.0
 40
0.0
 40
0.0
 40
0.0
 40
1.0
 40
1.0
 40
1.0
 40
2.0
 40
2.0
 40
2.0
 40
3.0
 40
3.0
 40
3.0
 40
3.0
 10
107.0673665096915
 20
-118.577947290234
 10
107.1142198082909
 20
-118.5807033666222
 10
107.1107747128057
 20
-118.5906941435294
 10
107.0628878855607
 20
-118.6044745254704
 10
104.4828558766571
 20
-119.3472371120903
 10
101.4573730215107
 20
-120.4441555145938
 10
99.54637855584258
 20
-122.5773586390605
 10
100.8372558341657
 20
-120.0948228323895
 10
104.2723605425083
 20
-118.412582706942
 10
107.0673665096915
 20
-118.577947290234
 97
        0
 92
        1
 93
        1
 72
     4
 94
        3
 73
     0
 74
     1
 95
       14
 96
       10
 40
0.0
 40
0.0
 40
0.0
 40
0.0
 40
1.0
 40
1.0
 40
1.0
 40
2.0
 40
2.0
 40
2.0
 40
3.0
 40
3.0
 40
3.0
 40
3.0
 10
104.9472547480687
 20
-124.3650186863567
 10
104.9613796395583
 20
-124.506956620349
 10
104.9059136022457
 20
-124.4494235257453
 10
104.8618163800346
 20
-124.3705308391331
 10
104.0525634505494
 20
-122.9335815122354
 10
100.889276775993
 20
-122.5105237866467
 10
99.29144148993409
 20
-124.0949232003131
 10
100.2364311815381
 20
-121.9868692728887
 10
104.6992078731308
 20
-121.8456203579935
 10
104.9472547480687
 20
-124.3650186863567
 97
        0
 92
        1
 93
        1
 72
     4
 94
        3
 73
     0
 74
     1
 95
      104
 96
      100
 40
0.0
 40
0.0
 40
0.0
 40
0.0
 40
1.0
 40
1.0
 40
1.0
 40
2.0
 40
2.0
 40
2.0
 40
3.0
 40
3.0
 40
3.0
 40
4.0
 40
4.0
 40
4.0
 40
5.0
 40
5.0
 40
5.0
 40
6.0
 40
6.0
 40
6.0
 40
7.0
 40
7.0
 40
7.0
 40
8.0
 40
8.0
 40
8.0
 40
9.0
 40
9.0
 40
9.0
 40
10.0
 40
10.0
 40
10.0
 40
11.0
 40
11.0
 40
11.0
 40
12.0
 40
12.0
 40
12.0
 40
13.0
 40
13.0
 40
13.0
 40
14.0
 40
14.0
 40
14.0
 40
15.0
 40
15.0
 40
15.0
 40
16.0
 40
16.0
 40
16.0
 40
17.0
 40
17.0
 40
17.0
 40
18.0
 40
18.0
 40
18.0
 40
19.0
 40
19.0
 40
19.0
 40
20.0
 40
20.0
 40
20.0
 40
21.0
 40
21.0
 40
21.0
 40
22.0
 40
22.0
 40
22.0
 40
23.0
 40
23.0
 40
23.0
 40
24.0
 40
24.0
 40
24.0
 40
25.0
 40
25.0
 40
25.0
 40
26.0
 40
26.0
 40
26.0
 40
27.0
 40
27.0
 40
27.0
 40
28.0
 40
28.0
 40
28.0
 40
29.0
 40
29.0
 40
29.0
 40
30.0
 40
30.0
 40
30.0
 40
31.0
 40
31.0
 40
31.0
 40
32.0
 40
32.0
 40
32.0
 40
33.0
 40
33.0
 40
33.0
 40
33.0
 10
98.63377276179989
 20
-128.588705751273
 10
98.74573836507051
 20
-127.3286620775428
 10
99.05545244919448
 20
-126.1178832692518
 10
99.91879337779808
 20
-125.1177720498838
 10
101.5372992367685
 20
-123.6026190554709
 10
104.3037109114241
 20
-123.3562947282755
 10
104.9217610414779
 20
-126.278769228413
 10
104.9837727602124
 20
-126.5781480260812
 10
104.9961751039593
 20
-126.8279174487618
 10
104.9631021873009
 20
-127.1365980042402
 10
104.9420871048409
 20
-127.3488158861315
 10
105.0278699824236
 20
-127.4566473748199
 10
105.3186360413787
 20
-127.3102308166968
 10
106.8158745392683
 20
-126.5619560773005
 10
106.9757269697838
 20
-125.4960435341642
 10
107.1342013621053
 20
-124.1114596586423
 10
107.383970784786
 20
-124.2041327271955
 10
107.6488986276017
 20
-124.2881930570356
 10
107.887299235181
 20
-124.1738158869253
 10
108.1270778809543
 20
-123.0183308611725
 10
107.2072373863926
 20
-121.7264200542038
 10
107.2072373863926
 20
-121.7264200542038
 10
108.3589328071117
 20
-121.8421752625082
 10
110.4063530539956
 20
-124.0780422324354
 10
108.9583794215451
 20
-126.706650087681
 10
108.8622612575067
 20
-126.5433525616801
 10
108.7644205457256
 20
-126.368686220578
 10
108.618348497151
 20
-126.2501749358854
 10
107.1559054636624
 20
-125.0652343437337
 10
105.6565999084817
 20
-128.0638454540951
 10
106.9467881677078
 20
-129.1161498700647
 10
108.1132974990133
 20
-130.0673407335422
 10
109.9550455454279
 20
-128.5759588979776
 10
110.5117729758443
 20
-127.0256659296151
 10
111.5432345641281
 20
-124.1545233522079
 10
110.1789767519691
 20
-121.8745591600696
 10
108.6693359103327
 20
-120.694269446823
 10
110.2685492345856
 20
-121.3422919075985
 10
111.4636528584188
 20
-122.7689059480404
 10
111.8346896421802
 20
-124.1698540271173
 10
112.5884765343529
 20
-127.0220485793556
 10
111.7299587394286
 20
-130.6962429143746
 10
108.5728732367457
 20
-131.6221123260354
 10
107.9334635146833
 20
-131.809525520433
 10
108.2256076118325
 20
-132.0439642682043
 10
108.508105441623
 20
-132.2069172846566
 10
109.4300129934758
 20
-132.7331556200285
 10
111.4205891648532
 20
-132.3543673714253
 10
112.527498344264
 20
-131.2676120006032
 10
112.6694362782563
 20
-131.657252299985
 10
113.0666557877056
 20
-131.9006482960179
 10
113.4814452841296
 20
-131.9349269960961
 10
114.3940510781723
 20
-130.8809000323839
 10
114.5163519678987
 20
-129.9552028754973
 10
114.4943033567931
 20
-128.6040364261823
 10
114.7616427664485
 20
-129.0487982533281
 10
115.127511906982
 20
-129.8585679471361
 10
115.2801296369786
 20
-130.7174302516088
 10
115.4551404876293
 20
-131.6980766814852
 10
115.2873643374976
 20
-133.305730489677
 10
114.0864040513395
 20
-132.9236694003628
 10
113.7446505792027
 20
-132.8144598734804
 10
113.4314913995935
 20
-132.8700981655672
 10
113.900368895136
 20
-133.4144232522367
 10
114.3585665946743
 20
-133.9456569760622
 10
115.2839192420124
 20
-134.3978257585013
 10
116.050797497029
 20
-134.0608954200438
 10
116.8404133822482
 20
-133.7138020499049
 10
116.892089814527
 20
-133.1102213208891
 10
116.7418836513701
 20
-132.3295626839315
 10
117.3633788769092
 20
-133.1739555873662
 10
118.1626410294871
 20
-133.9385945303174
 10
119.0680121230108
 20
-134.4989393109933
 10
119.470399275688
 20
-134.7475029502541
 10
119.8938015108252
 20
-134.9356051637487
 10
120.3234049178358
 20
-135.0653130087684
 10
120.3234049178358
 20
-135.0653130087684
 10
112.1023735613841
 20
-135.0653130087684
 10
112.1023735613841
 20
-135.0653130087684
 10
112.5212971723905
 20
-134.8401760188073
 10
112.7927706966282
 20
-134.4674166873033
 10
112.7752007096534
 20
-133.943589918771
 10
112.7517740603537
 20
-133.2494031784932
 10
111.962502684683
 20
-132.7054226013722
 10
111.4695095207437
 20
-132.7221313144757
 10
110.9796169427412
 20
-132.7384955180306
 10
110.2905978456912
 20
-133.2867824645082
 10
110.3140244949909
 20
-133.980969204786
 10
110.3229817432526
 20
-134.2569213531545
 10
110.3960177675399
 20
-134.5104803808689
 10
110.5097059185531
 20
-134.7128797406273
 10
109.4344916176067
 20
-134.6632703656397
 10
107.4690646432716
 20
-132.9283202792679
 10
105.4150987149657
 20
-132.1145887256519
 10
103.289130291018
 20
-131.2727796438311
 10
100.6829155564265
 20
-130.609254253372
 10
98.63377276179989
 20
-132.0996025602911
 10
98.63377276179989
 20
-132.0996025602911
 10
98.63377276179989
 20
-128.588705751273
 10
98.63377276179989
 20
-128.588705751273
 97
        0
 92
        1
 93
        1
 72
     4
 94
        3
 73
     0
 74
     1
 95
       14
 96
       10
 40
0.0
 40
0.0
 40
0.0
 40
0.0
 40
1.0
 40
1.0
 40
1.0
 40
2.0
 40
2.0
 40
2.0
 40
3.0
 40
3.0
 40
3.0
 40
3.0
 10
109.6677245819581
 20
-135.0653130087684
 10
109.6677245819581
 20
-135.0653130087684
 10
98.70749780518425
 20
-135.0653130087684
 10
98.70749780518425
 20
-135.0653130087684
 10
101.1769422490113
 20
-131.2362616316875
 10
108.8236761880719
 20
-134.7140855240472
 10
109.6222493215528
 20
-135.0484320408907
 10
109.6374077416879
 20
-135.0546332127641
 10
109.6529106713715
 20
-135.0592840916692
 10
109.6677245819581
 20
-135.0653130087684
 97
        0
 92
        1
 93
        1
 72
     4
 94
        3
 73
     0
 74
     1
 95
       14
 96
       10
 40
0.0
 40
0.0
 40
0.0
 40
0.0
 40
1.0
 40
1.0
 40
1.0
 40
2.0
 40
2.0
 40
2.0
 40
3.0
 40
3.0
 40
3.0
 40
3.0
 10
80.06608613449737
 20
-135.0484320408907
 10
80.86465926797828
 20
-134.7139132692729
 10
88.51208222613587
 20
-131.2355726125904
 10
90.98118216041443
 20
-135.0653130087684
 10
90.98118216041443
 20
-135.0653130087684
 10
80.02061087409207
 20
-135.0653130087684
 10
80.02061087409207
 20
-135.0653130087684
 10
80.03542478467865
 20
-135.0592840916692
 10
80.05092771436227
 20
-135.0546332127641
 10
80.06608613449737
 20
-135.0484320408907
 97
        0
 75
     2
 76
     1
 98
        0
  0
SPLINE
  5
49
330
3C
100
AcDbEntity
  8
Layer 1
370
     0
100
AcDbSpline
210
0.0
220
0.0
230
1.0
 70
    11
 71
     3
 72
   278
 73
   274
 74
     0
 42
0.0000000001
 43
0.0000000001
 40
0.0
 40
0.0
 40
0.0
 40
0.0
 40
1.0
 40
1.0
 40
1.0
 40
2.0
 40
2.0
 40
2.0
 40
3.0
 40
3.0
 40
3.0
 40
4.0
 40
4.0
 40
4.0
 40
5.0
 40
5.0
 40
5.0
 40
6.0
 40
6.0
 40
6.0
 40
7.0
 40
7.0
 40
7.0
 40
8.0
 40
8.0
 40
8.0
 40
9.0
 40
9.0
 40
9.0
 40
10.0
 40
10.0
 40
10.0
 40
11.0
 40
11.0
 40
11.0
 40
12.0
 40
12.0
 40
12.0
 40
13.0
 40
13.0
 40
13.0
 40
14.0
 40
14.0
 40
14.0
 40
15.0
 40
15.0
 40
15.0
 40
16.0
 40
16.0
 40
16.0
 40
17.0
 40
17.0
 40
17.0
 40
18.0
 40
18.0
 40
18.0
 40
19.0
 40
19.0
 40
19.0
 40
20.0
 40
20.0
 40
20.0
 40
21.0
 40
21.0
 40
21.0
 40
22.0
 40
22.0
 40
22.0
 40
23.0
 40
23.0
 40
23.0
 40
24.0
 40
24.0
 40
24.0
 40
25.0
 40
25.0
 40
25.0
 40
26.0
 40
26.0
 40
26.0
 40
27.0
 40
27.0
 40
27.0
 40
28.0
 40
28.0
 40
28.0
 40
29.0
 40
29.0
 40
29.0
 40
30.0
 40
30.0
 40
30.0
 40
31.0
 40
31.0
 40
31.0
 40
32.0
 40
32.0
 40
32.0
 40
33.0
 40
33.0
 40
33.0
 40
34.0
 40
34.0
 40
34.0
 40
35.0
 40
35.0
 40
35.0
 40
36.0
 40
36.0
 40
36.0
 40
37.0
 40
37.0
 40
37.0
 40
38.0
 40
38.0
 40
38.0
 40
39.0
 40
39.0
 40
39.0
 40
40.0
 40
40.0
 40
40.0
 40
41.0
 40
41.0
 40
41.0
 40
42.0
 40
42.0
 40
42.0
 40
43.0
 40
43.0
 40
43.0
 40
44.0
 40
44.0
 40
44.0
 40
45.0
 40
45.0
 40
45.0
 40
46.0
 40
46.0
 40
46.0
 40
47.0
 40
47.0
 40
47.0
 40
48.0
 40
48.0
 40
48.0
 40
49.0
 40
49.0
 40
49.0
 40
50.0
 40
50.0
 40
50.0
 40
51.0
 40
51.0
 40
51.0
 40
52.0
 40
52.0
 40
52.0
 40
53.0
 40
53.0
 40
53.0
 40
54.0
 40
54.0
 40
54.0
 40
55.0
 40
55.0
 40
55.0
 40
56.0
 40
56.0
 40
56.0
 40
57.0
 40
57.0
 40
57.0
 40
58.0
 40
58.0
 40
58.0
 40
59.0
 40
59.0
 40
59.0
 40
60.0
 40
60.0
 40
60.0
 40
61.0
 40
61.0
 40
61.0
 40
62.0
 40
62.0
 40
62.0
 40
63.0
 40
63.0
 40
63.0
 40
64.0
 40
64.0
 40
64.0
 40
65.0
 40
65.0
 40
65.0
 40
66.0
 40
66.0
 40
66.0
 40
67.0
 40
67.0
 40
67.0
 40
68.0
 40
68.0
 40
68.0
 40
69.0
 40
69.0
 40
69.0
 40
70.0
 40
70.0
 40
70.0
 40
71.0
 40
71.0
 40
71.0
 40
72.0
 40
72.0
 40
72.0
 40
73.0
 40
73.0
 40
73.0
 40
74.0
 40
74.0
 40
74.0
 40
75.0
 40
75.0
 40
75.0
 40
76.0
 40
76.0
 40
76.0
 40
77.0
 40
77.0
 40
77.0
 40
78.0
 40
78.0
 40
78.0
 40
79.0
 40
79.0
 40
79.0
 40
80.0
 40
80.0
 40
80.0
 40
81.0
 40
81.0
 40
81.0
 40
82.0
 40
82.0
 40
82.0
 40
83.0
 40
83.0
 40
83.0
 40
84.0
 40
84.0
 40
84.0
 40
85.0
 40
85.0
 40
85.0
 40
86.0
 40
86.0
 40
86.0
 40
87.0
 40
87.0
 40
87.0
 40
88.0
 40
88.0
 40
88.0
 40
89.0
 40
89.0
 40
89.0
 40
90.0
 40
90.0
 40
90.0
 40
91.0
 40
91.0
 40
91.0
 40
91.0
 10
73.40327146602418
 20
-148.6713731182141
 30
0.0
 10
73.40327146602418
 20
-148.6713731182141
 30
0.0
 10
91.04905054147385
 20
-148.6713731182141
 30
0.0
 10
91.04905054147385
 20
-148.6713731182141
 30
0.0
 10
91.04905054147385
 20
-148.6713731182141
 30
0.0
 10
91.04905054147385
 20
-151.9893445800582
 30
0.0
 10
91.04905054147385
 20
-151.9893445800582
 30
0.0
 10
90.95086532014423
 20
-153.3143283036853
 30
0.0
 10
90.65424259886422
 20
-154.5938367669071
 30
0.0
 10
89.74956052443761
 20
-155.6418348135201
 30
0.0
 10
88.13105466546725
 20
-157.156987807933
 30
0.0
 10
85.36464299081162
 20
-157.4029676255798
 30
0.0
 10
84.7465928607578
 20
-154.4808376349909
 30
0.0
 10
84.6845811420233
 20
-154.1811143277742
 30
0.0
 10
84.6721787982764
 20
-153.9316894146421
 30
0.0
 10
84.7052517149348
 20
-153.6230088591637
 30
0.0
 10
84.72626679739483
 20
-153.4107909772723
 30
0.0
 10
84.6404839198121
 20
-153.3026149790355
 30
0.0
 10
84.34971786085701
 20
-153.4493760467071
 30
0.0
 10
82.85247936296744
 20
-154.1976507861034
 30
0.0
 10
82.69262693245184
 20
-155.2635633292397
 30
0.0
 10
82.53415254013035
 20
-156.647802695213
 30
0.0
 10
82.28438311744974
 20
-156.5554741362084
 30
0.0
 10
82.01945527463403
 20
-156.4714138063683
 30
0.0
 10
81.78105466705475
 20
-156.5857909764786
 30
0.0
 10
81.54127602128135
 20
-157.7412760022314
 30
0.0
 10
82.46111651584306
 20
-159.0331868092
 30
0.0
 10
82.46111651584306
 20
-159.0331868092
 30
0.0
 10
81.30942109512404
 20
-158.9174316008956
 30
0.0
 10
79.26200084824006
 20
-156.6815646309685
 30
0.0
 10
80.70997448069056
 20
-154.0529567757229
 30
0.0
 10
80.80609264472903
 20
-154.2162543017237
 30
0.0
 10
80.91633570025704
 20
-154.3767957513364
 30
0.0
 10
81.05000540508472
 20
-154.50908741797
 30
0.0
 10
82.4921223752103
 20
-155.9277777387958
 30
0.0
 10
84.44893661083222
 20
-152.5812119844242
 30
0.0
 10
82.72156573452794
 20
-151.6434569933391
 30
0.0
 10
81.39830455864349
 20
-150.9254990942131
 30
0.0
 10
79.71330835680779
 20
-152.1836479654263
 30
0.0
 10
79.15658092639141
 20
-153.7339409337887
 30
0.0
 10
77.81161564894988
 20
-157.4773816880612
 30
0.0
 10
80.53909774462217
 20
-160.2176106370289
 30
0.0
 10
82.35190698896064
 20
-160.8232584233359
 30
0.0
 10
80.86397024888123
 20
-160.9300563833786
 30
0.0
 10
80.3065537993678
 20
-162.1923393691741
 30
0.0
 10
78.98708222851712
 20
-162.7848957926371
 30
0.0
 10
78.59916447687799
 20
-162.9599066432878
 30
0.0
 10
78.69734969820762
 20
-163.2644530841839
 30
0.0
 10
79.02222220246666
 20
-163.085997138048
 30
0.0
 10
79.96411130813398
 20
-162.5692328152605
 30
0.0
 10
80.82366263170381
 20
-163.5517740476537
 30
0.0
 10
81.66254338236214
 20
-163.7102484399752
 30
0.0
 10
82.82388507043987
 20
-164.0409776065592
 30
0.0
 10
83.81435002244919
 20
-164.0761175805088
 30
0.0
 10
84.96501191452263
 20
-163.5290364174511
 30
0.0
 10
85.09144691883131
 20
-163.8480522593852
 30
0.0
 10
84.85201278260645
 20
-164.2407931447037
 30
0.0
 10
84.91643606818062
 20
-164.5157117644266
 30
0.0
 10
86.81158309461655
 20
-164.4137369380632
 30
0.0
 10
89.4460476121871
 20
-162.4620903456692
 30
0.0
 10
91.04905054147385
 20
-159.1751247431923
 30
0.0
 10
91.04905054147385
 20
-159.1751247431923
 30
0.0
 10
91.04905054147385
 20
-160.4773708366168
 30
0.0
 10
91.04905054147385
 20
-160.4773708366168
 30
0.0
 10
91.04905054147385
 20
-164.3579263912022
 30
0.0
 10
89.9907172084051
 20
-167.2683430571413
 30
0.0
 10
85.8455783205525
 20
-167.6211208348308
 30
0.0
 10
85.8455783205525
 20
-167.6211208348308
 30
0.0
 10
85.8455783205525
 20
-170.6197319451923
 30
0.0
 10
85.8455783205525
 20
-170.6197319451923
 30
0.0
 10
85.8455783205525
 20
-170.6197319451923
 30
0.0
 10
133.2941894198015
 20
-170.6197319451923
 30
0.0
 10
133.2941894198015
 20
-170.6197319451923
 30
0.0
 10
133.2941894198015
 20
-170.6197319451923
 30
0.0
 10
133.2941894198015
 20
-155.9842773047539
 30
0.0
 10
133.2941894198015
 20
-155.9842773047539
 30
0.0
 10
134.5530273101118
 20
-154.4884168450585
 30
0.0
 10
135.708167826316
 20
-153.6857095969953
 30
0.0
 10
137.3497558250376
 20
-153.3353433861453
 30
0.0
 10
137.369737378852
 20
-152.3834635035708
 30
0.0
 10
134.0359184777757
 20
-152.9994465763335
 30
0.0
 10
132.6864745762034
 20
-153.8097330344642
 30
0.0
 10
132.5562499668609
 20
-153.1420735294228
 30
0.0
 10
132.3336967985138
 20
-152.9050509600376
 30
0.0
 10
131.8754990989756
 20
-153.2691975528285
 30
0.0
 10
131.3890516164583
 20
-153.655392756725
 30
0.0
 10
130.9639268335785
 20
-154.4877278259614
 30
0.0
 10
130.7027885957965
 20
-155.2883680167335
 30
0.0
 10
130.6607584308765
 20
-155.4172145878818
 30
0.0
 10
130.6497341253237
 20
-155.5081651086924
 30
0.0
 10
130.5518934135426
 20
-155.3111056469361
 30
0.0
 10
129.777780458007
 20
-153.765635812253
 30
0.0
 10
127.8716091260182
 20
-152.2718424098487
 30
0.0
 10
125.6543456717114
 20
-151.7357855523438
 30
0.0
 10
121.6201388584839
 20
-150.759445491824
 30
0.0
 10
119.1210665934836
 20
-153.5189669755092
 30
0.0
 10
118.7069661161566
 20
-155.4957627649455
 30
0.0
 10
118.4954372533623
 20
-156.5034531943811
 30
0.0
 10
118.5801866022994
 20
-157.5442165404751
 30
0.0
 10
118.919183998048
 20
-158.4096245263698
 30
0.0
 10
119.7897596271706
 20
-160.6296440570648
 30
0.0
 10
122.118988684748
 20
-160.0646483974838
 30
0.0
 10
122.3253499043145
 20
-158.8437065575113
 30
0.0
 10
122.4545409850114
 20
-158.0785508502373
 30
0.0
 10
122.0204589538699
 20
-157.4677354207025
 30
0.0
 10
121.2546142274988
 20
-157.3385443400057
 30
0.0
 10
120.8539496225643
 20
-157.2706759589462
 30
0.0
 10
120.4660318709252
 20
-157.3816080335713
 30
0.0
 10
120.1656195446114
 20
-157.6110513928889
 30
0.0
 10
119.9292859943232
 20
-156.716015585821
 30
0.0
 10
119.9589138154964
 20
-155.6556151954611
 30
0.0
 10
120.3640570445618
 20
-154.7874511331781
 30
0.0
 10
121.4616644661624
 20
-152.4279052353305
 30
0.0
 10
124.2666612102528
 20
-151.9989908474169
 30
0.0
 10
126.8559949769666
 20
-153.5003634598888
 30
0.0
 10
127.1367702590144
 20
-153.6626274572441
 30
0.0
 10
127.4023871209272
 20
-153.8438394797682
 30
0.0
 10
127.6883300462029
 20
-153.9943901524736
 30
0.0
 10
127.3927408535685
 20
-154.0502006993347
 30
0.0
 10
127.2294433275677
 20
-153.8534857471269
 30
0.0
 10
126.9466009882286
 20
-153.6781303869277
 30
0.0
 10
125.483468935643
 20
-153.0542235945489
 30
0.0
 10
124.0234374689941
 20
-153.4304280215382
 30
0.0
 10
123.2393337365513
 20
-154.1280598573013
 30
0.0
 10
122.9058484935791
 20
-154.4243380690328
 30
0.0
 10
122.807318762701
 20
-154.6386230082153
 30
0.0
 10
123.1711208459433
 20
-154.9617729647318
 30
0.0
 10
123.4577527903161
 20
-155.2173990497373
 30
0.0
 10
123.9173285280485
 20
-155.3393554299152
 30
0.0
 10
123.9173285280485
 20
-155.3393554299152
 30
0.0
 10
123.38678382332
 20
-156.6908663887787
 30
0.0
 10
123.8708197389976
 20
-158.2800889361244
 30
0.0
 10
124.9336316961972
 20
-158.6425129811727
 30
0.0
 10
125.262982824587
 20
-158.7520670176037
 30
0.0
 10
125.2516140094857
 20
-158.6042724212865
 30
0.0
 10
125.2119954114053
 20
-158.4454535194164
 30
0.0
 10
124.959125402788
 20
-157.4253607462339
 30
0.0
 10
125.7969726248008
 20
-156.7077473566564
 30
0.0
 10
126.5917561532479
 20
-156.5520290407231
 30
0.0
 10
128.37803816235
 20
-156.2016628298732
 30
0.0
 10
129.7367838217325
 20
-157.2017740492412
 30
0.0
 10
129.2530924156034
 20
-159.1882161060363
 30
0.0
 10
129.2117512697804
 20
-159.3573702943621
 30
0.0
 10
129.157663270662
 20
-159.5251464444937
 30
0.0
 10
129.095996061476
 20
-159.6912000468828
 30
0.0
 10
127.234266461247
 20
-163.6348008488482
 30
0.0
 10
123.5679958458441
 20
-167.0478569460853
 30
0.0
 10
117.8308783342576
 20
-167.1725694026513
 30
0.0
 10
116.9561685905526
 20
-167.0237412776885
 30
0.0
 10
116.7032985819353
 20
-166.3853650842717
 30
0.0
 10
116.7167344543278
 20
-165.8734238951636
 30
0.0
 10
116.8803764898771
 20
-164.9735649544163
 30
0.0
 10
117.6217610383029
 20
-164.7237955317357
 30
0.0
 10
118.6167046144431
 20
-164.6848659527524
 30
0.0
 10
119.9823404647961
 20
-164.6338785395707
 30
0.0
 10
120.2758626001394
 20
-164.906385592454
 30
0.0
 10
121.4516736892551
 20
-164.5377603755322
 30
0.0
 10
122.0542208896253
 20
-164.3475911047464
 30
0.0
 10
122.5279215188472
 20
-164.2559515648388
 30
0.0
 10
122.7990505335364
 20
-164.3717067731432
 30
0.0
 10
123.0501979944111
 20
-164.4778157140889
 30
0.0
 10
123.2052272912473
 20
-164.4688584658272
 30
0.0
 10
122.9630370786342
 20
-164.1763698591295
 30
0.0
 10
121.8695637716159
 20
-162.8534531927936
 30
0.0
 10
119.8645181992005
 20
-162.4279839003652
 30
0.0
 10
118.8675075657692
 20
-162.6133300374717
 30
0.0
 10
118.8185872098787
 20
-162.6229763048304
 30
0.0
 10
118.8165201525875
 20
-162.6112629801805
 30
0.0
 10
118.864062470284
 20
-162.590592407269
 30
0.0
 10
120.2596706513587
 20
-161.9708197294726
 30
0.0
 10
121.098551402017
 20
-162.651570597358
 30
0.0
 10
123.0367621220186
 20
-162.831404581688
 30
0.0
 10
123.6961533978954
 20
-162.8923827717769
 30
0.0
 10
124.5818874471532
 20
-162.9461262613468
 30
0.0
 10
125.4610758149889
 20
-162.2564181451998
 30
0.0
 10
125.5192979286896
 20
-162.2095648466004
 30
0.0
 10
125.6247178505383
 20
-162.1265380454059
 30
0.0
 10
125.4169785927777
 20
-162.108279039334
 30
0.0
 10
124.6380425035627
 20
-162.037999091435
 30
0.0
 10
123.9293863622468
 20
-161.5584417998882
 30
0.0
 10
123.2007486671165
 20
-161.1505424944346
 30
0.0
 10
121.5353895095467
 20
-160.2155435797378
 30
0.0
 10
119.0879936768252
 20
-160.6027723122799
 30
0.0
 10
117.6293402483705
 20
-162.0683159317051
 30
0.0
 10
117.6097032041045
 20
-161.5708441436351
 30
0.0
 10
117.3585557432298
 20
-161.0344427765817
 30
0.0
 10
116.8869221712991
 20
-160.7857068825466
 30
0.0
 10
115.7276475405125
 20
-160.0822183844586
 30
0.0
 10
114.2507351059859
 20
-161.8285372859318
 30
0.0
 10
114.6393418767221
 20
-162.4166150852639
 30
0.0
 10
115.2122612559192
 20
-162.0345539959497
 30
0.0
 10
115.596044892976
 20
-162.0476453587937
 30
0.0
 10
115.8509819588845
 20
-162.2577961833939
 30
0.0
 10
116.3984076314907
 20
-162.713926825641
 30
0.0
 10
116.4903916809469
 20
-163.486317233434
 30
0.0
 10
116.0414957392188
 20
-164.8988063823864
 30
0.0
 10
115.7359157696771
 20
-165.8634331182564
 30
0.0
 10
115.8520154875301
 20
-166.6413356788258
 30
0.0
 10
116.2278754049708
 20
-167.1801486127189
 30
0.0
 10
116.2278754049708
 20
-167.1801486127189
 30
0.0
 10
98.63377276179989
 20
-167.1801486127189
 30
0.0
 10
98.63377276179989
 20
-167.1801486127189
 30
0.0
 10
98.63377276179989
 20
-167.1801486127189
 30
0.0
 10
98.63377276179989
 20
-159.2047525643655
 30
0.0
 10
98.63377276179989
 20
-159.2047525643655
 30
0.0
 10
100.2381537292807
 20
-162.4741481798676
 30
0.0
 10
102.8626274699441
 20
-164.4144259571603
 30
0.0
 10
104.7519178340551
 20
-164.5157117644266
 30
0.0
 10
104.8163411196293
 20
-164.2407931447037
 30
0.0
 10
104.5769069834044
 20
-163.8480522593852
 30
0.0
 10
104.7033419877131
 20
-163.5290364174511
 30
0.0
 10
105.8540038797865
 20
-164.0761175805088
 30
0.0
 10
106.8444688317958
 20
-164.0409776065592
 30
0.0
 10
108.0058105198735
 20
-163.7102484399752
 30
0.0
 10
108.8446912705319
 20
-163.5517740476537
 30
0.0
 10
109.7042425941017
 20
-162.5692328152605
 30
0.0
 10
110.646131699769
 20
-163.085997138048
 30
0.0
 10
110.9710042040281
 20
-163.2644530841839
 30
0.0
 10
111.0691894253577
 20
-162.9599066432878
 30
0.0
 10
110.6812716737186
 20
-162.7848957926371
 30
0.0
 10
109.3618001028679
 20
-162.1923393691741
 30
0.0
 10
108.8043836533545
 20
-160.9300563833786
 30
0.0
 10
107.3164469132751
 20
-160.8232584233359
 30
0.0
 10
109.1292561576135
 20
-160.2176106370289
 30
0.0
 10
111.8567382532858
 20
-157.4773816880612
 30
0.0
 10
110.5117729758443
 20
-153.7339409337887
 30
0.0
 10
109.9550455454279
 20
-152.1836479654263
 30
0.0
 10
108.2700493435922
 20
-150.9254990942131
 30
0.0
 10
106.9467881677078
 20
-151.6434569933391
 30
0.0
 10
105.2194172914035
 20
-152.5812119844242
 30
0.0
 10
107.1762315270254
 20
-155.9277777387958
 30
0.0
 10
108.618348497151
 20
-154.50908741797
 30
0.0
 10
108.7520182019787
 20
-154.3767957513364
 30
0.0
 10
108.8622612575067
 20
-154.2162543017237
 30
0.0
 10
108.9583794215451
 20
-154.0529567757229
 30
0.0
 10
110.4063530539956
 20
-156.6815646309685
 30
0.0
 10
108.3589328071117
 20
-158.9174316008956
 30
0.0
 10
107.2072373863926
 20
-159.0331868092
 30
0.0
 10
107.2072373863926
 20
-159.0331868092
 30
0.0
 10
108.1270778809543
 20
-157.7412760022314
 30
0.0
 10
107.887299235181
 20
-156.5857909764786
 30
0.0
 10
107.6488986276017
 20
-156.4714138063683
 30
0.0
 10
107.383970784786
 20
-156.5554741362084
 30
0.0
 10
107.1342013621053
 20
-156.647802695213
 30
0.0
 10
106.9757269697838
 20
-155.2635633292397
 30
0.0
 10
106.8158745392683
 20
-154.1976507861034
 30
0.0
 10
105.3186360413787
 20
-153.4493760467071
 30
0.0
 10
105.0278699824236
 20
-153.3026149790355
 30
0.0
 10
104.9420871048409
 20
-153.4107909772723
 30
0.0
 10
104.9631021873009
 20
-153.6230088591637
 30
0.0
 10
104.9961751039593
 20
-153.9316894146421
 30
0.0
 10
104.9837727602124
 20
-154.1811143277742
 30
0.0
 10
104.9217610414779
 20
-154.4808376349909
 30
0.0
 10
104.3037109114241
 20
-157.4029676255798
 30
0.0
 10
101.5372992367685
 20
-157.156987807933
 30
0.0
 10
99.91879337779808
 20
-155.6418348135201
 30
0.0
 10
99.05545244919448
 20
-154.6413790846036
 30
0.0
 10
98.74573836507051
 20
-153.4307725310867
 30
0.0
 10
98.63377276179989
 20
-152.1705566025824
 30
0.0
 10
98.63377276179989
 20
-152.1705566025824
 30
0.0
 10
98.63377276179989
 20
-148.6713731182141
 30
0.0
 10
98.63377276179989
 20
-148.6713731182141
 30
0.0
 10
98.63377276179989
 20
-148.6713731182141
 30
0.0
 10
142.3120713619914
 20
-148.6713731182141
 30
0.0
 10
142.3120713619914
 20
-148.6713731182141
 30
0.0
 10
142.3120713619914
 20
-148.6713731182141
 30
0.0
 10
142.3120713619914
 20
-147.0597574502142
 30
0.0
 10
142.3120713619914
 20
-147.0597574502142
 30
0.0
 10
142.3120713619914
 20
-147.0597574502142
 30
0.0
 10
73.40327146602418
 20
-147.0597574502142
 30
0.0
 10
73.40327146602418
 20
-147.0597574502142
 30
0.0
 10
73.40327146602418
 20
-147.0597574502142
 30
0.0
 10
73.40327146602418
 20
-148.6713731182141
 30
0.0
 10
73.40327146602418
 20
-148.6713731182141
 30
0.0
  0
SPLINE
  5
4A
330
3C
100
AcDbEntity
  8
Layer 1
370
     0
100
AcDbSpline
210
0.0
220
0.0
230
1.0
 70
    11
 71
     3
 72
    14
 73
    10
 74
     0
 42
0.0000000001
 43
0.0000000001
 40
0.0
 40
0.0
 40
0.0
 40
0.0
 40
1.0
 40
1.0
 40
1.0
 40
2.0
 40
2.0
 40
2.0
 40
3.0
 40
3.0
 40
3.0
 40
3.0
 10
82.6009873925442
 20
-162.1813150636214
 30
0.0
 10
82.55413409394481
 20
-162.1785589872331
 30
0.0
 10
82.55757918943006
 20
-162.1689127198744
 30
0.0
 10
82.60546601667502
 20
-162.1551323379335
 30
0.0
 10
85.18549802557862
 20
-161.4123697513136
 30
0.0
 10
88.21098088072503
 20
-160.31545134881
 30
0.0
 10
90.12197534639313
 20
-158.1822482243433
 30
0.0
 10
88.83109806807
 20
-160.6647840310144
 30
0.0
 10
85.3959933597274
 20
-162.3466796469133
 30
0.0
 10
82.6009873925442
 20
-162.1813150636214
 30
0.0
  0
SPLINE
  5
4B
330
3C
100
AcDbEntity
  8
Layer 1
370
     0
100
AcDbSpline
210
0.0
220
0.0
230
1.0
 70
    11
 71
     3
 72
    14
 73
    10
 74
     0
 42
0.0000000001
 43
0.0000000001
 40
0.0
 40
0.0
 40
0.0
 40
0.0
 40
1.0
 40
1.0
 40
1.0
 40
2.0
 40
2.0
 40
2.0
 40
3.0
 40
3.0
 40
3.0
 40
3.0
 10
84.72109915416695
 20
-156.3942436674987
 30
0.0
 10
84.70697426267742
 20
-156.2523057335064
 30
0.0
 10
84.76244029998995
 20
-156.3101833376586
 30
0.0
 10
84.80653752220115
 20
-156.3887315147223
 30
0.0
 10
85.61579045168634
 20
-157.8260253511685
 30
0.0
 10
88.77907712624274
 20
-158.2490830767572
 30
0.0
 10
90.3769124123016
 20
-156.6643391535422
 30
0.0
 10
89.43192272069759
 20
-158.7727375905152
 30
0.0
 10
84.96914602910493
 20
-158.9139865054104
 30
0.0
 10
84.72109915416695
 20
-156.3942436674987
 30
0.0
  0
SPLINE
  5
4C
330
3C
100
AcDbEntity
  8
Layer 1
370
     0
100
AcDbSpline
210
0.0
220
0.0
230
1.0
 70
    11
 71
     3
 72
    14
 73
    10
 74
     0
 42
0.0000000001
 43
0.0000000001
 40
0.0
 40
0.0
 40
0.0
 40
0.0
 40
1.0
 40
1.0
 40
1.0
 40
2.0
 40
2.0
 40
2.0
 40
3.0
 40
3.0
 40
3.0
 40
3.0
 10
107.0628878855607
 20
-162.1551323379335
 30
0.0
 10
107.1107747128057
 20
-162.1689127198744
 30
0.0
 10
107.1142198082909
 20
-162.1785589872331
 30
0.0
 10
107.0673665096915
 20
-162.1813150636214
 30
0.0
 10
104.2723605425083
 20
-162.3466796469133
 30
0.0
 10
100.8372558341657
 20
-160.6647840310144
 30
0.0
 10
99.54637855584258
 20
-158.1822482243433
 30
0.0
 10
101.4573730215107
 20
-160.31545134881
 30
0.0
 10
104.4828558766571
 20
-161.4123697513136
 30
0.0
 10
107.0628878855607
 20
-162.1551323379335
 30
0.0
  0
SPLINE
  5
4D
330
3C
100
AcDbEntity
  8
Layer 1
370
     0
100
AcDbSpline
210
0.0
220
0.0
230
1.0
 70
    11
 71
     3
 72
    14
 73
    10
 74
     0
 42
0.0000000001
 43
0.0000000001
 40
0.0
 40
0.0
 40
0.0
 40
0.0
 40
1.0
 40
1.0
 40
1.0
 40
2.0
 40
2.0
 40
2.0
 40
3.0
 40
3.0
 40
3.0
 40
3.0
 10
104.8618163800346
 20
-156.3887315147223
 30
0.0
 10
104.9059136022457
 20
-156.3101833376586
 30
0.0
 10
104.9613796395583
 20
-156.2523057335064
 30
0.0
 10
104.9472547480687
 20
-156.3942436674987
 30
0.0
 10
104.6992078731308
 20
-158.9139865054104
 30
0.0
 10
100.2364311815381
 20
-158.7727375905152
 30
0.0
 10
99.29144148993409
 20
-156.6643391535422
 30
0.0
 10
100.889276775993
 20
-158.2490830767572
 30
0.0
 10
104.0525634505494
 20
-157.8260253511685
 30
0.0
 10
104.8618163800346
 20
-156.3887315147223
 30
0.0
  0
HATCH
  5
4E
330
3C
100
AcDbEntity
  8
Layer 1
 62
   250
420
  2301728
100
AcDbHatch
 10
0.0
 20
0.0
 30
0.0
210
0.0
220
0.0
230
1.0
  2
SOLID
 70
     1
 71
     0
 91
        5
 92
        1
 93
        1
 72
     4
 94
        3
 73
     0
 74
     1
 95
      278
 96
      274
 40
0.0
 40
0.0
 40
0.0
 40
0.0
 40
1.0
 40
1.0
 40
1.0
 40
2.0
 40
2.0
 40
2.0
 40
3.0
 40
3.0
 40
3.0
 40
4.0
 40
4.0
 40
4.0
 40
5.0
 40
5.0
 40
5.0
 40
6.0
 40
6.0
 40
6.0
 40
7.0
 40
7.0
 40
7.0
 40
8.0
 40
8.0
 40
8.0
 40
9.0
 40
9.0
 40
9.0
 40
10.0
 40
10.0
 40
10.0
 40
11.0
 40
11.0
 40
11.0
 40
12.0
 40
12.0
 40
12.0
 40
13.0
 40
13.0
 40
13.0
 40
14.0
 40
14.0
 40
14.0
 40
15.0
 40
15.0
 40
15.0
 40
16.0
 40
16.0
 40
16.0
 40
17.0
 40
17.0
 40
17.0
 40
18.0
 40
18.0
 40
18.0
 40
19.0
 40
19.0
 40
19.0
 40
20.0
 40
20.0
 40
20.0
 40
21.0
 40
21.0
 40
21.0
 40
22.0
 40
22.0
 40
22.0
 40
23.0
 40
23.0
 40
23.0
 40
24.0
 40
24.0
 40
24.0
 40
25.0
 40
25.0
 40
25.0
 40
26.0
 40
26.0
 40
26.0
 40
27.0
 40
27.0
 40
27.0
 40
28.0
 40
28.0
 40
28.0
 40
29.0
 40
29.0
 40
29.0
 40
30.0
 40
30.0
 40
30.0
 40
31.0
 40
31.0
 40
31.0
 40
32.0
 40
32.0
 40
32.0
 40
33.0
 40
33.0
 40
33.0
 40
34.0
 40
34.0
 40
34.0
 40
35.0
 40
35.0
 40
35.0
 40
36.0
 40
36.0
 40
36.0
 40
37.0
 40
37.0
 40
37.0
 40
38.0
 40
38.0
 40
38.0
 40
39.0
 40
39.0
 40
39.0
 40
40.0
 40
40.0
 40
40.0
 40
41.0
 40
41.0
 40
41.0
 40
42.0
 40
42.0
 40
42.0
 40
43.0
 40
43.0
 40
43.0
 40
44.0
 40
44.0
 40
44.0
 40
45.0
 40
45.0
 40
45.0
 40
46.0
 40
46.0
 40
46.0
 40
47.0
 40
47.0
 40
47.0
 40
48.0
 40
48.0
 40
48.0
 40
49.0
 40
49.0
 40
49.0
 40
50.0
 40
50.0
 40
50.0
 40
51.0
 40
51.0
 40
51.0
 40
52.0
 40
52.0
 40
52.0
 40
53.0
 40
53.0
 40
53.0
 40
54.0
 40
54.0
 40
54.0
 40
55.0
 40
55.0
 40
55.0
 40
56.0
 40
56.0
 40
56.0
 40
57.0
 40
57.0
 40
57.0
 40
58.0
 40
58.0
 40
58.0
 40
59.0
 40
59.0
 40
59.0
 40
60.0
 40
60.0
 40
60.0
 40
61.0
 40
61.0
 40
61.0
 40
62.0
 40
62.0
 40
62.0
 40
63.0
 40
63.0
 40
63.0
 40
64.0
 40
64.0
 40
64.0
 40
65.0
 40
65.0
 40
65.0
 40
66.0
 40
66.0
 40
66.0
 40
67.0
 40
67.0
 40
67.0
 40
68.0
 40
68.0
 40
68.0
 40
69.0
 40
69.0
 40
69.0
 40
70.0
 40
70.0
 40
70.0
 40
71.0
 40
71.0
 40
71.0
 40
72.0
 40
72.0
 40
72.0
 40
73.0
 40
73.0
 40
73.0
 40
74.0
 40
74.0
 40
74.0
 40
75.0
 40
75.0
 40
75.0
 40
76.0
 40
76.0
 40
76.0
 40
77.0
 40
77.0
 40
77.0
 40
78.0
 40
78.0
 40
78.0
 40
79.0
 40
79.0
 40
79.0
 40
80.0
 40
80.0
 40
80.0
 40
81.0
 40
81.0
 40
81.0
 40
82.0
 40
82.0
 40
82.0
 40
83.0
 40
83.0
 40
83.0
 40
84.0
 40
84.0
 40
84.0
 40
85.0
 40
85.0
 40
85.0
 40
86.0
 40
86.0
 40
86.0
 40
87.0
 40
87.0
 40
87.0
 40
88.0
 40
88.0
 40
88.0
 40
89.0
 40
89.0
 40
89.0
 40
90.0
 40
90.0
 40
90.0
 40
91.0
 40
91.0
 40
91.0
 40
91.0
 10
73.40327146602418
 20
-148.6713731182141
 10
73.40327146602418
 20
-148.6713731182141
 10
91.04905054147385
 20
-148.6713731182141
 10
91.04905054147385
 20
-148.6713731182141
 10
91.04905054147385
 20
-148.6713731182141
 10
91.04905054147385
 20
-151.9893445800582
 10
91.04905054147385
 20
-151.9893445800582
 10
90.95086532014423
 20
-153.3143283036853
 10
90.65424259886422
 20
-154.5938367669071
 10
89.74956052443761
 20
-155.6418348135201
 10
88.13105466546725
 20
-157.156987807933
 10
85.36464299081162
 20
-157.4029676255798
 10
84.7465928607578
 20
-154.4808376349909
 10
84.6845811420233
 20
-154.1811143277742
 10
84.6721787982764
 20
-153.9316894146421
 10
84.7052517149348
 20
-153.6230088591637
 10
84.72626679739483
 20
-153.4107909772723
 10
84.6404839198121
 20
-153.3026149790355
 10
84.34971786085701
 20
-153.4493760467071
 10
82.85247936296744
 20
-154.1976507861034
 10
82.69262693245184
 20
-155.2635633292397
 10
82.53415254013035
 20
-156.647802695213
 10
82.28438311744974
 20
-156.5554741362084
 10
82.01945527463403
 20
-156.4714138063683
 10
81.78105466705475
 20
-156.5857909764786
 10
81.54127602128135
 20
-157.7412760022314
 10
82.46111651584306
 20
-159.0331868092
 10
82.46111651584306
 20
-159.0331868092
 10
81.30942109512404
 20
-158.9174316008956
 10
79.26200084824006
 20
-156.6815646309685
 10
80.70997448069056
 20
-154.0529567757229
 10
80.80609264472903
 20
-154.2162543017237
 10
80.91633570025704
 20
-154.3767957513364
 10
81.05000540508472
 20
-154.50908741797
 10
82.4921223752103
 20
-155.9277777387958
 10
84.44893661083222
 20
-152.5812119844242
 10
82.72156573452794
 20
-151.6434569933391
 10
81.39830455864349
 20
-150.9254990942131
 10
79.71330835680779
 20
-152.1836479654263
 10
79.15658092639141
 20
-153.7339409337887
 10
77.81161564894988
 20
-157.4773816880612
 10
80.53909774462217
 20
-160.2176106370289
 10
82.35190698896064
 20
-160.8232584233359
 10
80.86397024888123
 20
-160.9300563833786
 10
80.3065537993678
 20
-162.1923393691741
 10
78.98708222851712
 20
-162.7848957926371
 10
78.59916447687799
 20
-162.9599066432878
 10
78.69734969820762
 20
-163.2644530841839
 10
79.02222220246666
 20
-163.085997138048
 10
79.96411130813398
 20
-162.5692328152605
 10
80.82366263170381
 20
-163.5517740476537
 10
81.66254338236214
 20
-163.7102484399752
 10
82.82388507043987
 20
-164.0409776065592
 10
83.81435002244919
 20
-164.0761175805088
 10
84.96501191452263
 20
-163.5290364174511
 10
85.09144691883131
 20
-163.8480522593852
 10
84.85201278260645
 20
-164.2407931447037
 10
84.91643606818062
 20
-164.5157117644266
 10
86.81158309461655
 20
-164.4137369380632
 10
89.4460476121871
 20
-162.4620903456692
 10
91.04905054147385
 20
-159.1751247431923
 10
91.04905054147385
 20
-159.1751247431923
 10
91.04905054147385
 20
-160.4773708366168
 10
91.04905054147385
 20
-160.4773708366168
 10
91.04905054147385
 20
-164.3579263912022
 10
89.9907172084051
 20
-167.2683430571413
 10
85.8455783205525
 20
-167.6211208348308
 10
85.8455783205525
 20
-167.6211208348308
 10
85.8455783205525
 20
-170.6197319451923
 10
85.8455783205525
 20
-170.6197319451923
 10
85.8455783205525
 20
-170.6197319451923
 10
133.2941894198015
 20
-170.6197319451923
 10
133.2941894198015
 20
-170.6197319451923
 10
133.2941894198015
 20
-170.6197319451923
 10
133.2941894198015
 20
-155.9842773047539
 10
133.2941894198015
 20
-155.9842773047539
 10
134.5530273101118
 20
-154.4884168450585
 10
135.708167826316
 20
-153.6857095969953
 10
137.3497558250376
 20
-153.3353433861453
 10
137.369737378852
 20
-152.3834635035708
 10
134.0359184777757
 20
-152.9994465763335
 10
132.6864745762034
 20
-153.8097330344642
 10
132.5562499668609
 20
-153.1420735294228
 10
132.3336967985138
 20
-152.9050509600376
 10
131.8754990989756
 20
-153.2691975528285
 10
131.3890516164583
 20
-153.655392756725
 10
130.9639268335785
 20
-154.4877278259614
 10
130.7027885957965
 20
-155.2883680167335
 10
130.6607584308765
 20
-155.4172145878818
 10
130.6497341253237
 20
-155.5081651086924
 10
130.5518934135426
 20
-155.3111056469361
 10
129.777780458007
 20
-153.765635812253
 10
127.8716091260182
 20
-152.2718424098487
 10
125.6543456717114
 20
-151.7357855523438
 10
121.6201388584839
 20
-150.759445491824
 10
119.1210665934836
 20
-153.5189669755092
 10
118.7069661161566
 20
-155.4957627649455
 10
118.4954372533623
 20
-156.5034531943811
 10
118.5801866022994
 20
-157.5442165404751
 10
118.919183998048
 20
-158.4096245263698
 10
119.7897596271706
 20
-160.6296440570648
 10
122.118988684748
 20
-160.0646483974838
 10
122.3253499043145
 20
-158.8437065575113
 10
122.4545409850114
 20
-158.0785508502373
 10
122.0204589538699
 20
-157.4677354207025
 10
121.2546142274988
 20
-157.3385443400057
 10
120.8539496225643
 20
-157.2706759589462
 10
120.4660318709252
 20
-157.3816080335713
 10
120.1656195446114
 20
-157.6110513928889
 10
119.9292859943232
 20
-156.716015585821
 10
119.9589138154964
 20
-155.6556151954611
 10
120.3640570445618
 20
-154.7874511331781
 10
121.4616644661624
 20
-152.4279052353305
 10
124.2666612102528
 20
-151.9989908474169
 10
126.8559949769666
 20
-153.5003634598888
 10
127.1367702590144
 20
-153.6626274572441
 10
127.4023871209272
 20
-153.8438394797682
 10
127.6883300462029
 20
-153.9943901524736
 10
127.3927408535685
 20
-154.0502006993347
 10
127.2294433275677
 20
-153.8534857471269
 10
126.9466009882286
 20
-153.6781303869277
 10
125.483468935643
 20
-153.0542235945489
 10
124.0234374689941
 20
-153.4304280215382
 10
123.2393337365513
 20
-154.1280598573013
 10
122.9058484935791
 20
-154.4243380690328
 10
122.807318762701
 20
-154.6386230082153
 10
123.1711208459433
 20
-154.9617729647318
 10
123.4577527903161
 20
-155.2173990497373
 10
123.9173285280485
 20
-155.3393554299152
 10
123.9173285280485
 20
-155.3393554299152
 10
123.38678382332
 20
-156.6908663887787
 10
123.8708197389976
 20
-158.2800889361244
 10
124.9336316961972
 20
-158.6425129811727
 10
125.262982824587
 20
-158.7520670176037
 10
125.2516140094857
 20
-158.6042724212865
 10
125.2119954114053
 20
-158.4454535194164
 10
124.959125402788
 20
-157.4253607462339
 10
125.7969726248008
 20
-156.7077473566564
 10
126.5917561532479
 20
-156.5520290407231
 10
128.37803816235
 20
-156.2016628298732
 10
129.7367838217325
 20
-157.2017740492412
 10
129.2530924156034
 20
-159.1882161060363
 10
129.2117512697804
 20
-159.3573702943621
 10
129.157663270662
 20
-159.5251464444937
 10
129.095996061476
 20
-159.6912000468828
 10
127.234266461247
 20
-163.6348008488482
 10
123.5679958458441
 20
-167.0478569460853
 10
117.8308783342576
 20
-167.1725694026513
 10
116.9561685905526
 20
-167.0237412776885
 10
116.7032985819353
 20
-166.3853650842717
 10
116.7167344543278
 20
-165.8734238951636
 10
116.8803764898771
 20
-164.9735649544163
 10
117.6217610383029
 20
-164.7237955317357
 10
118.6167046144431
 20
-164.6848659527524
 10
119.9823404647961
 20
-164.6338785395707
 10
120.2758626001394
 20
-164.906385592454
 10
121.4516736892551
 20
-164.5377603755322
 10
122.0542208896253
 20
-164.3475911047464
 10
122.5279215188472
 20
-164.2559515648388
 10
122.7990505335364
 20
-164.3717067731432
 10
123.0501979944111
 20
-164.4778157140889
 10
123.2052272912473
 20
-164.4688584658272
 10
122.9630370786342
 20
-164.1763698591295
 10
121.8695637716159
 20
-162.8534531927936
 10
119.8645181992005
 20
-162.4279839003652
 10
118.8675075657692
 20
-162.6133300374717
 10
118.8185872098787
 20
-162.6229763048304
 10
118.8165201525875
 20
-162.6112629801805
 10
118.864062470284
 20
-162.590592407269
 10
120.2596706513587
 20
-161.9708197294726
 10
121.098551402017
 20
-162.651570597358
 10
123.0367621220186
 20
-162.831404581688
 10
123.6961533978954
 20
-162.8923827717769
 10
124.5818874471532
 20
-162.9461262613468
 10
125.4610758149889
 20
-162.2564181451998
 10
125.5192979286896
 20
-162.2095648466004
 10
125.6247178505383
 20
-162.1265380454059
 10
125.4169785927777
 20
-162.108279039334
 10
124.6380425035627
 20
-162.037999091435
 10
123.9293863622468
 20
-161.5584417998882
 10
123.2007486671165
 20
-161.1505424944346
 10
121.5353895095467
 20
-160.2155435797378
 10
119.0879936768252
 20
-160.6027723122799
 10
117.6293402483705
 20
-162.0683159317051
 10
117.6097032041045
 20
-161.5708441436351
 10
117.3585557432298
 20
-161.0344427765817
 10
116.8869221712991
 20
-160.7857068825466
 10
115.7276475405125
 20
-160.0822183844586
 10
114.2507351059859
 20
-161.8285372859318
 10
114.6393418767221
 20
-162.4166150852639
 10
115.2122612559192
 20
-162.0345539959497
 10
115.596044892976
 20
-162.0476453587937
 10
115.8509819588845
 20
-162.2577961833939
 10
116.3984076314907
 20
-162.713926825641
 10
116.4903916809469
 20
-163.486317233434
 10
116.0414957392188
 20
-164.8988063823864
 10
115.7359157696771
 20
-165.8634331182564
 10
115.8520154875301
 20
-166.6413356788258
 10
116.2278754049708
 20
-167.1801486127189
 10
116.2278754049708
 20
-167.1801486127189
 10
98.63377276179989
 20
-167.1801486127189
 10
98.63377276179989
 20
-167.1801486127189
 10
98.63377276179989
 20
-167.1801486127189
 10
98.63377276179989
 20
-159.2047525643655
 10
98.63377276179989
 20
-159.2047525643655
 10
100.2381537292807
 20
-162.4741481798676
 10
102.8626274699441
 20
-164.4144259571603
 10
104.7519178340551
 20
-164.5157117644266
 10
104.8163411196293
 20
-164.2407931447037
 10
104.5769069834044
 20
-163.8480522593852
 10
104.7033419877131
 20
-163.5290364174511
 10
105.8540038797865
 20
-164.0761175805088
 10
106.8444688317958
 20
-164.0409776065592
 10
108.0058105198735
 20
-163.7102484399752
 10
108.8446912705319
 20
-163.5517740476537
 10
109.7042425941017
 20
-162.5692328152605
 10
110.646131699769
 20
-163.085997138048
 10
110.9710042040281
 20
-163.2644530841839
 10
111.0691894253577
 20
-162.9599066432878
 10
110.6812716737186
 20
-162.7848957926371
 10
109.3618001028679
 20
-162.1923393691741
 10
108.8043836533545
 20
-160.9300563833786
 10
107.3164469132751
 20
-160.8232584233359
 10
109.1292561576135
 20
-160.2176106370289
 10
111.8567382532858
 20
-157.4773816880612
 10
110.5117729758443
 20
-153.7339409337887
 10
109.9550455454279
 20
-152.1836479654263
 10
108.2700493435922
 20
-150.9254990942131
 10
106.9467881677078
 20
-151.6434569933391
 10
105.2194172914035
 20
-152.5812119844242
 10
107.1762315270254
 20
-155.9277777387958
 10
108.618348497151
 20
-154.50908741797
 10
108.7520182019787
 20
-154.3767957513364
 10
108.8622612575067
 20
-154.2162543017237
 10
108.9583794215451
 20
-154.0529567757229
 10
110.4063530539956
 20
-156.6815646309685
 10
108.3589328071117
 20
-158.9174316008956
 10
107.2072373863926
 20
-159.0331868092
 10
107.2072373863926
 20
-159.0331868092
 10
108.1270778809543
 20
-157.7412760022314
 10
107.887299235181
 20
-156.5857909764786
 10
107.6488986276017
 20
-156.4714138063683
 10
107.383970784786
 20
-156.5554741362084
 10
107.1342013621053
 20
-156.647802695213
 10
106.9757269697838
 20
-155.2635633292397
 10
106.8158745392683
 20
-154.1976507861034
 10
105.3186360413787
 20
-153.4493760467071
 10
105.0278699824236
 20
-153.3026149790355
 10
104.9420871048409
 20
-153.4107909772723
 10
104.9631021873009
 20
-153.6230088591637
 10
104.9961751039593
 20
-153.9316894146421
 10
104.9837727602124
 20
-154.1811143277742
 10
104.9217610414779
 20
-154.4808376349909
 10
104.3037109114241
 20
-157.4029676255798
 10
101.5372992367685
 20
-157.156987807933
 10
99.91879337779808
 20
-155.6418348135201
 10
99.05545244919448
 20
-154.6413790846036
 10
98.74573836507051
 20
-153.4307725310867
 10
98.63377276179989
 20
-152.1705566025824
 10
98.63377276179989
 20
-152.1705566025824
 10
98.63377276179989
 20
-148.6713731182141
 10
98.63377276179989
 20
-148.6713731182141
 10
98.63377276179989
 20
-148.6713731182141
 10
142.3120713619914
 20
-148.6713731182141
 10
142.3120713619914
 20
-148.6713731182141
 10
142.3120713619914
 20
-148.6713731182141
 10
142.3120713619914
 20
-147.0597574502142
 10
142.3120713619914
 20
-147.0597574502142
 10
142.3120713619914
 20
-147.0597574502142
 10
73.40327146602418
 20
-147.0597574502142
 10
73.40327146602418
 20
-147.0597574502142
 10
73.40327146602418
 20
-147.0597574502142
 10
73.40327146602418
 20
-148.6713731182141
 10
73.40327146602418
 20
-148.6713731182141
 97
        0
 92
        1
 93
        1
 72
     4
 94
        3
 73
     0
 74
     1
 95
       14
 96
       10
 40
0.0
 40
0.0
 40
0.0
 40
0.0
 40
1.0
 40
1.0
 40
1.0
 40
2.0
 40
2.0
 40
2.0
 40
3.0
 40
3.0
 40
3.0
 40
3.0
 10
82.6009873925442
 20
-162.1813150636214
 10
82.55413409394481
 20
-162.1785589872331
 10
82.55757918943006
 20
-162.1689127198744
 10
82.60546601667502
 20
-162.1551323379335
 10
85.18549802557862
 20
-161.4123697513136
 10
88.21098088072503
 20
-160.31545134881
 10
90.12197534639313
 20
-158.1822482243433
 10
88.83109806807
 20
-160.6647840310144
 10
85.3959933597274
 20
-162.3466796469133
 10
82.6009873925442
 20
-162.1813150636214
 97
        0
 92
        1
 93
        1
 72
     4
 94
        3
 73
     0
 74
     1
 95
       14
 96
       10
 40
0.0
 40
0.0
 40
0.0
 40
0.0
 40
1.0
 40
1.0
 40
1.0
 40
2.0
 40
2.0
 40
2.0
 40
3.0
 40
3.0
 40
3.0
 40
3.0
 10
84.72109915416695
 20
-156.3942436674987
 10
84.70697426267742
 20
-156.2523057335064
 10
84.76244029998995
 20
-156.3101833376586
 10
84.80653752220115
 20
-156.3887315147223
 10
85.61579045168634
 20
-157.8260253511685
 10
88.77907712624274
 20
-158.2490830767572
 10
90.3769124123016
 20
-156.6643391535422
 10
89.43192272069759
 20
-158.7727375905152
 10
84.96914602910493
 20
-158.9139865054104
 10
84.72109915416695
 20
-156.3942436674987
 97
        0
 92
        1
 93
        1
 72
     4
 94
        3
 73
     0
 74
     1
 95
       14
 96
       10
 40
0.0
 40
0.0
 40
0.0
 40
0.0
 40
1.0
 40
1.0
 40
1.0
 40
2.0
 40
2.0
 40
2.0
 40
3.0
 40
3.0
 40
3.0
 40
3.0
 10
107.0628878855607
 20
-162.1551323379335
 10
107.1107747128057
 20
-162.1689127198744
 10
107.1142198082909
 20
-162.1785589872331
 10
107.0673665096915
 20
-162.1813150636214
 10
104.2723605425083
 20
-162.3466796469133
 10
100.8372558341657
 20
-160.6647840310144
 10
99.54637855584258
 20
-158.1822482243433
 10
101.4573730215107
 20
-160.31545134881
 10
104.4828558766571
 20
-161.4123697513136
 10
107.0628878855607
 20
-162.1551323379335
 97
        0
 92
        1
 93
        1
 72
     4
 94
        3
 73
     0
 74
     1
 95
       14
 96
       10
 40
0.0
 40
0.0
 40
0.0
 40
0.0
 40
1.0
 40
1.0
 40
1.0
 40
2.0
 40
2.0
 40
2.0
 40
3.0
 40
3.0
 40
3.0
 40
3.0
 10
104.8618163800346
 20
-156.3887315147223
 10
104.9059136022457
 20
-156.3101833376586
 10
104.9613796395583
 20
-156.2523057335064
 10
104.9472547480687
 20
-156.3942436674987
 10
104.6992078731308
 20
-158.9139865054104
 10
100.2364311815381
 20
-158.7727375905152
 10
99.29144148993409
 20
-156.6643391535422
 10
100.889276775993
 20
-158.2490830767572
 10
104.0525634505494
 20
-157.8260253511685
 10
104.8618163800346
 20
-156.3887315147223
 97
        0
 75
     2
 76
     1
 98
        0
  0
ENDBLK
  5
3F
330
3C
100
AcDbEntity
  8
0
100
AcDbBlockEnd
  0
ENDSEC
  0
SECTION
  2
ENTITIES
  0
INSERT
  5
3D
330
1F
100
AcDbEntity
  8
Layer 1
100
AcDbBlockReference
  2
block 2
 10
0.0
 20
0.0
 30
0.0
  0
ENDSEC
  0
SECTION
  2
OBJECTS
  0
DICTIONARY
  5
C
330
0
100
AcDbDictionary
281
     1
  3
ACAD_GROUP
350
D
  3
ACAD_LAYOUT
350
1A
  3
ACAD_MLINESTYLE
350
17
  3
ACAD_PLOTSETTINGS
350
19
  3
ACAD_PLOTSTYLENAME
350
E
  3
ACAD_TABLESTYLE
350
4F
  3
ACAD_VISUALSTYLE
350
2A
  0
DICTIONARY
  5
D
102
{ACAD_REACTORS
330
C
102
}
330
C
100
AcDbDictionary
281
     1
  0
DICTIONARY
  5
1A
102
{ACAD_REACTORS
330
C
102
}
330
C
100
AcDbDictionary
281
     1
  3
Layout1
350
1E
  3
Layout2
350
26
  3
Model
350
22
  0
DICTIONARY
  5
17
102
{ACAD_REACTORS
330
C
102
}
330
C
100
AcDbDictionary
281
     1
  3
Standard
350
18
  0
DICTIONARY
  5
19
102
{ACAD_REACTORS
330
C
102
}
330
C
100
AcDbDictionary
281
     1
  0
ACDBDICTIONARYWDFLT
  5
E
102
{ACAD_REACTORS
330
C
102
}
330
C
100
AcDbDictionary
281
     1
  3
Normal
350
F
100
AcDbDictionaryWithDefault
340
F
  0
DICTIONARY
  5
4F
102
{ACAD_REACTORS
330
C
102
}
330
C
100
AcDbDictionary
281
     1
  0
DICTIONARY
  5
2A
102
{ACAD_REACTORS
330
C
102
}
330
C
100
AcDbDictionary
281
     1
  3
2dWireframe
350
2F
  3
3D Hidden
350
31
  3
3dWireframe
350
30
  3
Basic
350
32
  3
Brighten
350
36
  3
ColorChange
350
3A
  3
Conceptual
350
34
  3
Dim
350
35
  3
Facepattern
350
39
  3
Flat
350
2B
  3
FlatWithEdges
350
2C
  3
Gouraud
350
2D
  3
GouraudWithEdges
350
2E
  3
Linepattern
350
38
  3
Realistic
350
33
  3
Thicken
350
37
  0
LAYOUT
  5
1E
102
{ACAD_REACTORS
330
1A
102
}
330
1A
100
AcDbPlotSettings
  1

  2
none_device
  4

  6

 40
0.0
 41
0.0
 42
0.0
 43
0.0
 44
0.0
 45
0.0
 46
0.0
 47
0.0
 48
0.0
 49
0.0
140
0.0
141
0.0
142
1.0
143
1.0
 70
   688
 72
     0
 73
     0
 74
     5
  7

 75
    16
 76
     0
 77
     2
 78
   300
147
1.0
148
0.0
149
0.0
100
AcDbLayout
  1
Layout1
 70
     1
 71
     1
 10
0.0
 20
0.0
 11
12.0
 21
9.0
 12
0.0
 22
0.0
 32
0.0
 14
1.000000000000000E+20
 24
1.000000000000000E+20
 34
1.000000000000000E+20
 15
-1.000000000000000E+20
 25
-1.000000000000000E+20
 35
-1.000000000000000E+20
146
0.0
 13
0.0
 23
0.0
 33
0.0
 16
1.0
 26
0.0
 36
0.0
 17
0.0
 27
1.0
 37
0.0
 76
     0
330
1B
  0
LAYOUT
  5
26
102
{ACAD_REACTORS
330
1A
102
}
330
1A
100
AcDbPlotSettings
  1

  2
none_device
  4

  6

 40
0.0
 41
0.0
 42
0.0
 43
0.0
 44
0.0
 45
0.0
 46
0.0
 47
0.0
 48
0.0
 49
0.0
140
0.0
141
0.0
142
1.0
143
1.0
 70
   688
 72
     0
 73
     0
 74
     5
  7

 75
    16
 76
     0
 77
     2
 78
   300
147
1.0
148
0.0
149
0.0
100
AcDbLayout
  1
Layout2
 70
     1
 71
     2
 10
0.0
 20
0.0
 11
0.0
 21
0.0
 12
0.0
 22
0.0
 32
0.0
 14
0.0
 24
0.0
 34
0.0
 15
0.0
 25
0.0
 35
0.0
146
0.0
 13
0.0
 23
0.0
 33
0.0
 16
1.0
 26
0.0
 36
0.0
 17
0.0
 27
1.0
 37
0.0
 76
     0
330
23
  0
LAYOUT
  5
22
102
{ACAD_REACTORS
330
1A
102
}
330
1A
100
AcDbPlotSettings
  1

  2
none_device
  4

  6

 40
0.0
 41
0.0
 42
0.0
 43
0.0
 44
0.0
 45
0.0
 46
0.0
 47
0.0
 48
0.0
 49
0.0
140
0.0
141
0.0
142
1.0
143
1.0
 70
  1712
 72
     0
 73
     0
 74
     0
  7

 75
     0
 76
     0
 77
     2
 78
   300
147
1.0
148
0.0
149
0.0
100
AcDbLayout
  1
Model
 70
     1
 71
     0
 10
0.0
 20
0.0
 11
12.0
 21
9.0
 12
0.0
 22
0.0
 32
0.0
 14
1.000000000000000E+20
 24
1.000000000000000E+20
 34
1.000000000000000E+20
 15
-1.000000000000000E+20
 25
-1.000000000000000E+20
 35
-1.000000000000000E+20
146
0.0
 13
0.0
 23
0.0
 33
0.0
 16
1.0
 26
0.0
 36
0.0
 17
0.0
 27
1.0
 37
0.0
 76
     0
330
1F
331
29
  0
MLINESTYLE
  5
18
102
{ACAD_REACTORS
330
17
102
}
330
17
100
AcDbMlineStyle
  2
Standard
 70
     0
  3

 62
   256
 51
90.0
 52
90.0
 71
     2
 49
0.5
 62
   256
  6
BYLAYER
 49
-0.5
 62
   256
  6
BYLAYER
  0
ACDBPLACEHOLDER
  5
F
102
{ACAD_REACTORS
330
E
102
}
330
E
  0
VISUALSTYLE
  5
2F
102
{ACAD_REACTORS
330
2A
102
}
330
2A
100
AcDbVisualStyle
  2
2dWireframe
 70
     4
 71
     0
 72
     2
 73
     0
 90
        0
 40
-0.6
 41
-30.0
 62
     5
 63
     7
421
 16777215
 74
     1
 91
        4
 64
     7
 65
   257
 75
     1
175
     1
 42
1.0
 92
        0
 66
   257
 43
1.0
 76
     1
 77
     6
 78
     2
 67
     7
 79
     5
170
     0
171
     0
290
     0
174
     0
 93
        1
 44
0.0
173
     0
291
     0
 45
0.0
1001
ACAD
1000
AcDbSavedByObjectVersion
1070
     0
  0
VISUALSTYLE
  5
31
102
{ACAD_REACTORS
330
2A
102
}
330
2A
100
AcDbVisualStyle
  2
3D Hidden
 70
     6
 71
     1
 72
     2
 73
     2
 90
        0
 40
-0.6
 41
-30.0
 62
     5
 63
     7
421
 16777215
 74
     2
 91
        2
 64
     7
 65
   257
 75
     2
175
     1
 42
40.0
 92
        0
 66
   257
 43
1.0
 76
     1
 77
     6
 78
     2
 67
     7
 79
     3
170
     0
171
     0
290
     0
174
     0
 93
        1
 44
0.0
173
     0
291
     0
 45
0.0
1001
ACAD
1000
AcDbSavedByObjectVersion
1070
     0
  0
VISUALSTYLE
  5
30
102
{ACAD_REACTORS
330
2A
102
}
330
2A
100
AcDbVisualStyle
  2
3dWireframe
 70
     5
 71
     0
 72
     2
 73
     0
 90
        0
 40
-0.6
 41
-30.0
 62
     5
 63
     7
421
 16777215
 74
     1
 91
        4
 64
     7
 65
   257
 75
     1
175
     1
 42
1.0
 92
        0
 66
   257
 43
1.0
 76
     1
 77
     6
 78
     2
 67
     7
 79
     5
170
     0
171
     0
290
     0
174
     0
 93
        1
 44
0.0
173
     0
291
     0
 45
0.0
1001
ACAD
1000
AcDbSavedByObjectVersion
1070
     0
  0
VISUALSTYLE
  5
32
102
{ACAD_REACTORS
330
2A
102
}
330
2A
100
AcDbVisualStyle
  2
Basic
 70
     7
 71
     1
 72
     0
 73
     1
 90
        0
 40
-0.6
 41
-30.0
 62
     5
 63
     7
421
 16777215
 74
     0
 91
        4
 64
     7
 65
   257
 75
     1
175
     1
 42
1.0
 92
        8
 66
     7
 43
1.0
 76
     1
 77
     6
 78
     2
 67
     7
 79
     5
170
     0
171
     0
290
     0
174
     0
 93
        1
 44
0.0
173
     0
291
     1
 45
0.0
1001
ACAD
1000
AcDbSavedByObjectVersion
1070
     0
  0
VISUALSTYLE
  5
36
102
{ACAD_REACTORS
330
2A
102
}
330
2A
100
AcDbVisualStyle
  2
Brighten
 70
    12
 71
     2
 72
     2
 73
     0
 90
        0
 40
-0.6
 41
-30.0
 62
     5
 63
     7
421
 16777215
 74
     1
 91
        4
 64
     7
 65
   257
 75
     1
175
     1
 42
1.0
 92
        8
 66
     7
 43
1.0
 76
     1
 77
     6
 78
     2
 67
     7
 79
     5
170
     0
171
     0
290
     0
174
     0
 93
        1
 44
50.0
173
     0
291
     1
 45
0.0
1001
ACAD
1000
AcDbSavedByObjectVersion
1070
     0
  0
VISUALSTYLE
  5
3A
102
{ACAD_REACTORS
330
2A
102
}
330
2A
100
AcDbVisualStyle
  2
ColorChange
 70
    16
 71
     2
 72
     2
 73
     3
 90
        0
 40
-0.6
 41
-30.0
 62
     5
 63
     8
421
  8421504
 74
     1
 91
        4
 64
     7
 65
   257
 75
     1
175
     1
 42
1.0
 92
        8
 66
     8
424
  8421504
 43
1.0
 76
     1
 77
     6
 78
     2
 67
     7
 79
     5
170
     0
171
     0
290
     0
174
     0
 93
        1
 44
0.0
173
     0
291
     1
 45
0.0
1001
ACAD
1000
AcDbSavedByObjectVersion
1070
     0
  0
VISUALSTYLE
  5
34
102
{ACAD_REACTORS
330
2A
102
}
330
2A
100
AcDbVisualStyle
  2
Conceptual
 70
     9
 71
     3
 72
     2
 73
     0
 90
        0
 40
-0.6
 41
-30.0
 62
     5
 63
     7
421
 16777215
 74
     2
 91
        2
 64
     7
 65
   257
 75
     1
175
     1
 42
40.0
 92
        8
 66
     7
 43
1.0
 76
     1
 77
     6
 78
     2
 67
     7
 79
     3
170
     0
171
     0
290
     0
174
     0
 93
        1
 44
0.0
173
     0
291
     0
 45
0.0
1001
ACAD
1000
AcDbSavedByObjectVersion
1070
     0
  0
VISUALSTYLE
  5
35
102
{ACAD_REACTORS
330
2A
102
}
330
2A
100
AcDbVisualStyle
  2
Dim
 70
    11
 71
     2
 72
     2
 73
     0
 90
        0
 40
-0.6
 41
-30.0
 62
     5
 63
     7
421
 16777215
 74
     1
 91
        4
 64
     7
 65
   257
 75
     1
175
     1
 42
1.0
 92
        8
 66
     7
 43
1.0
 76
     1
 77
     6
 78
     2
 67
     7
 79
     5
170
     0
171
     0
290
     0
174
     0
 93
        1
 44
-50.0
173
     0
291
     1
 45
0.0
1001
ACAD
1000
AcDbSavedByObjectVersion
1070
     0
  0
VISUALSTYLE
  5
39
102
{ACAD_REACTORS
330
2A
102
}
330
2A
100
AcDbVisualStyle
  2
Facepattern
 70
    15
 71
     2
 72
     2
 73
     0
 90
        0
 40
-0.6
 41
-30.0
 62
     5
 63
     7
421
 16777215
 74
     1
 91
        4
 64
     7
 65
   257
 75
     1
175
     1
 42
1.0
 92
        8
 66
     7
 43
1.0
 76
     1
 77
     6
 78
     2
 67
     7
 79
     5
170
     0
171
     0
290
     0
174
     0
 93
        1
 44
0.0
173
     0
291
     1
 45
0.0
1001
ACAD
1000
AcDbSavedByObjectVersion
1070
     0
  0
VISUALSTYLE
  5
2B
102
{ACAD_REACTORS
330
2A
102
}
330
2A
100
AcDbVisualStyle
  2
Flat
 70
     0
 71
     2
 72
     1
 73
     1
 90
        2
 40
-0.6
 41
30.0
 62
     5
 63
     7
421
 16777215
 74
     0
 91
        4
 64
     7
 65
   257
 75
     1
175
     1
 42
1.0
 92
        8
 66
     7
 43
1.0
 76
     1
 77
     6
 78
     2
 67
     7
 79
     5
170
     0
171
     0
290
     0
174
     0
 93
       13
 44
0.0
173
     0
291
     1
 45
0.0
1001
ACAD
1000
AcDbSavedByObjectVersion
1070
     0
  0
VISUALSTYLE
  5
2C
102
{ACAD_REACTORS
330
2A
102
}
330
2A
100
AcDbVisualStyle
  2
FlatWithEdges
 70
     1
 71
     2
 72
     1
 73
     1
 90
        2
 40
-0.6
 41
30.0
 62
     5
 63
     7
421
 16777215
 74
     1
 91
        4
 64
     7
 65
   257
 75
     1
175
     1
 42
1.0
 92
        0
 66
   257
 43
1.0
 76
     1
 77
     6
 78
     2
 67
     7
 79
     5
170
     0
171
     0
290
     0
174
     0
 93
       13
 44
0.0
173
     0
291
     1
 45
0.0
1001
ACAD
1000
AcDbSavedByObjectVersion
1070
     0
  0
VISUALSTYLE
  5
2D
102
{ACAD_REACTORS
330
2A
102
}
330
2A
100
AcDbVisualStyle
  2
Gouraud
 70
     2
 71
     2
 72
     2
 73
     1
 90
        2
 40
-0.6
 41
30.0
 62
     5
 63
     7
421
 16777215
 74
     0
 91
        4
 64
     7
 65
   257
 75
     1
175
     1
 42
1.0
 92
        0
 66
     7
 43
1.0
 76
     1
 77
     6
 78
     2
 67
     7
 79
     5
170
     0
171
     0
290
     0
174
     0
 93
       13
 44
0.0
173
     0
291
     1
 45
0.0
1001
ACAD
1000
AcDbSavedByObjectVersion
1070
     0
  0
VISUALSTYLE
  5
2E
102
{ACAD_REACTORS
330
2A
102
}
330
2A
100
AcDbVisualStyle
  2
GouraudWithEdges
 70
     3
 71
     2
 72
     2
 73
     1
 90
        2
 40
-0.6
 41
30.0
 62
     5
 63
     7
421
 16777215
 74
     1
 91
        4
 64
     7
 65
   257
 75
     1
175
     1
 42
1.0
 92
        0
 66
   257
 43
1.0
 76
     1
 77
     6
 78
     2
 67
     7
 79
     5
170
     0
171
     0
290
     0
174
     0
 93
       13
 44
0.0
173
     0
291
     1
 45
0.0
1001
ACAD
1000
AcDbSavedByObjectVersion
1070
     0
  0
VISUALSTYLE
  5
38
102
{ACAD_REACTORS
330
2A
102
}
330
2A
100
AcDbVisualStyle
  2
Linepattern
 70
    14
 71
     2
 72
     2
 73
     0
 90
        0
 40
-0.6
 41
-30.0
 62
     5
 63
     7
421
 16777215
 74
     1
 91
        4
 64
     7
 65
   257
 75
     7
175
     7
 42
1.0
 92
        8
 66
     7
 43
1.0
 76
     1
 77
     6
 78
     2
 67
     7
 79
     5
170
     0
171
     0
290
     0
174
     0
 93
        1
 44
0.0
173
     0
291
     1
 45
0.0
1001
ACAD
1000
AcDbSavedByObjectVersion
1070
     0
  0
VISUALSTYLE
  5
33
102
{ACAD_REACTORS
330
2A
102
}
330
2A
100
AcDbVisualStyle
  2
Realistic
 70
     8
 71
     2
 72
     2
 73
     0
 90
        0
 40
-0.6
 41
-30.0
 62
     5
 63
     7
421
 16777215
 74
     1
 91
        0
 64
     7
 65
   257
 75
     1
175
     1
 42
1.0
 92
        8
 66
     8
424
  7895160
 43
1.0
 76
     1
 77
     6
 78
     2
 67
     7
 79
     5
170
     0
171
     0
290
     0
174
     0
 93
       13
 44
0.0
173
     0
291
     0
 45
0.0
1001
ACAD
1000
AcDbSavedByObjectVersion
1070
     0
  0
VISUALSTYLE
  5
37
102
{ACAD_REACTORS
330
2A
102
}
330
2A
100
AcDbVisualStyle
  2
Thicken
 70
    13
 71
     2
 72
     2
 73
     0
 90
        0
 40
-0.6
 41
-30.0
 62
     5
 63
     7
421
 16777215
 74
     1
 91
        4
 64
     7
 65
   257
 75
     1
175
     1
 42
1.0
 92
       12
 66
     7
 43
1.0
 76
     1
 77
     6
 78
     2
 67
     7
 79
     5
170
     0
171
     0
290
     0
174
     0
 93
        1
 44
0.0
173
     0
291
     1
 45
0.0
1001
ACAD
1000
AcDbSavedByObjectVersion
1070
     0
  0
ENDSEC
  0
EOF
