  0
SECTION
  2
HEADER
  9
$ACADVER
  1
AC1014
  9
$HANDSEED
  5
FFFF
  9
$MEASUREMENT
 70
     1
  0
ENDSEC
  0
SECTION
  2
TABLES
  0
TABLE
  2
VPORT
  5
8
330
0
100
AcDbSymbolTable
 70
     4
  0
VPORT
  5
2E
330
8
100
AcDbSymbolTableRecord
100
AcDbViewportTableRecord
  2
*ACTIVE
 70
     0
 10
0.0
 20
0.0
 11
1.0
 21
1.0
 12
210.0
 22
148.5
 13
0.0
 23
0.0
 14
10.0
 24
10.0
 15
10.0
 25
10.0
 16
0.0
 26
0.0
 36
1.0
 17
0.0
 27
0.0
 37
0.0
 40
341.0
 41
1.24
 42
50.0
 43
0.0
 44
0.0
 50
0.0
 51
0.0
 71
     0
 72
   100
 73
     1
 74
     3
 75
     0
 76
     0
 77
     0
 78
     0
  0
ENDTAB
  0
TABLE
  2
LTYPE
  5
5
330
0
100
AcDbSymbolTable
 70
     1
  0
LTYPE
  5
14
330
5
100
AcDbSymbolTableRecord
100
AcDbLinetypeTableRecord
  2
BYBLOCK
 70
     0
  3

 72
    65
 73
     0
 40
0.0
  0
LTYPE
  5
15
330
5
100
AcDbSymbolTableRecord
100
AcDbLinetypeTableRecord
  2
BYLAYER
 70
     0
  3

 72
    65
 73
     0
 40
0.0
  0
LTYPE
  5
16
330
5
100
AcDbSymbolTableRecord
100
AcDbLinetypeTableRecord
  2
CONTINUOUS
 70
     0
  3
Solid line
 72
    65
 73
     0
 40
0.0
  0
ENDTAB
  0
TABLE
  2
LAYER
  5
2
100
AcDbSymbolTable
 70
1
  0
LAYER
  5
50
100
AcDbSymbolTableRecord
100
AcDbLayerTableRecord
  2
0
 70
0
  6
CONTINUOUS
  0
ENDTAB
  0
TABLE
  2
STYLE
  5
3
330
0
100
AcDbSymbolTable
 70
     1
  0
STYLE
  5
11
330
3
100
AcDbSymbolTableRecord
100
AcDbTextStyleTableRecord
  2
STANDARD
 70
     0
 40
0.0
 41
1.0
 50
0.0
 71
     0
 42
2.5
  3
txt
  4

  0
ENDTAB
  0
TABLE
  2
VIEW
  5
6
330
0
100
AcDbSymbolTable
 70
     0
  0
ENDTAB
  0
TABLE
  2
UCS
  5
7
330
0
100
AcDbSymbolTable
 70
     0
  0
ENDTAB
  0
TABLE
  2
APPID
  5
9
330
0
100
AcDbSymbolTable
 70
     2
  0
APPID
  5
12
330
9
100
AcDbSymbolTableRecord
100
AcDbRegAppTableRecord
  2
ACAD
 70
     0
  0
ENDTAB
  0
TABLE
  2
DIMSTYLE
  5
A
330
0
100
AcDbSymbolTable
 70
     1
  0
DIMSTYLE
105
27
330
A
100
AcDbSymbolTableRecord
100
AcDbDimStyleTableRecord
  2
ISO-25
 70
     0
  3

  4

  5

  6

  7

 40
1.0
 41
2.5
 42
0.625
 43
3.75
 44
1.25
 45
0.0
 46
0.0
 47
0.0
 48
0.0
140
2.5
141
2.5
142
0.0
143
0.03937007874016
144
1.0
145
0.0
146
1.0
147
0.625
 71
     0
 72
     0
 73
     0
 74
     0
 75
     0
 76
     0
 77
     1
 78
     8
170
     0
171
     3
172
     1
173
     0
174
     0
175
     0
176
     0
177
     0
178
     0
270
     2
271
     2
272
     2
273
     2
274
     3
340
11
275
     0
280
     0
281
     0
282
     0
283
     0
284
     8
285
     0
286
     0
287
     3
288
     0
  0
ENDTAB
  0
TABLE
  2
BLOCK_RECORD
  5
1
330
0
100
AcDbSymbolTable
 70
     1
  0
BLOCK_RECORD
  5
1F
330
1
100
AcDbSymbolTableRecord
100
AcDbBlockTableRecord
  2
*MODEL_SPACE
  0
BLOCK_RECORD
  5
1B
330
1
100
AcDbSymbolTableRecord
100
AcDbBlockTableRecord
  2
*PAPER_SPACE
  0
ENDTAB
  0
ENDSEC
  0
SECTION
  2
BLOCKS
  0
BLOCK
  5
20
330
1F
100
AcDbEntity
  8
0
100
AcDbBlockBegin
  2
*MODEL_SPACE
 70
     0
 10
0.0
 20
0.0
 30
0.0
  3
*MODEL_SPACE
  1

  0
ENDBLK
  5
21
330
1F
100
AcDbEntity
  8
0
100
AcDbBlockEnd
  0
BLOCK
  5
1C
330
1B
100
AcDbEntity
 67
     1
  8
0
100
AcDbBlockBegin
  2
*PAPER_SPACE
  1

  0
ENDBLK
  5
1D
330
1B
100
AcDbEntity
 67
     1
  8
0
100
AcDbBlockEnd
  0
ENDSEC
  0
SECTION
  2
ENTITIES
  0
LWPOLYLINE
  5
100
100
AcDbEntity
  8
0
 62
7
100
AcDbPolyline
 90
163
 70
0
 10
125.194681
 20
66.666700
 30
0.0
 10
130.390674
 20
66.666700
 30
0.0
 10
130.390674
 20
-0.000000
 30
0.0
 10
180.390687
 20
-0.000000
 30
0.0
 10
180.875686
 20
0.042474
 30
0.0
 10
181.346687
 20
0.168571
 30
0.0
 10
181.788675
 20
0.374452
 30
0.0
 10
182.187681
 20
0.653909
 30
0.0
 10
182.531681
 20
0.998446
 30
0.0
 10
182.811674
 20
1.397536
 30
0.0
 10
183.017696
 20
1.839101
 30
0.0
 10
183.143680
 20
2.309707
 30
0.0
 10
183.185675
 20
2.795072
 30
0.0
 10
183.143680
 20
3.280438
 30
0.0
 10
183.017696
 20
3.751044
 30
0.0
 10
182.811674
 20
4.192609
 30
0.0
 10
182.531681
 20
4.591699
 30
0.0
 10
182.187681
 20
4.936236
 30
0.0
 10
181.788675
 20
5.215692
 30
0.0
 10
181.346687
 20
5.421602
 30
0.0
 10
180.875686
 20
5.547670
 30
0.0
 10
180.390687
 20
5.590145
 30
0.0
 10
176.184701
 20
5.590145
 30
0.0
 10
176.093684
 20
5.653899
 30
0.0
 10
175.749684
 20
5.998436
 30
0.0
 10
175.469691
 20
6.397526
 30
0.0
 10
175.264685
 20
6.839091
 30
0.0
 10
175.137685
 20
7.309697
 30
0.0
 10
175.095690
 20
7.795062
 30
0.0
 10
175.137685
 20
8.280428
 30
0.0
 10
175.264685
 20
8.751034
 30
0.0
 10
175.469691
 20
9.192599
 30
0.0
 10
175.749684
 20
9.591717
 30
0.0
 10
176.093684
 20
9.936226
 30
0.0
 10
176.493678
 20
10.215711
 30
0.0
 10
176.642691
 20
10.290612
 30
0.0
 10
176.636765
 20
10.303595
 30
0.0
 10
176.788685
 20
10.374489
 30
0.0
 10
177.187691
 20
10.653889
 30
0.0
 10
177.531691
 20
10.998397
 30
0.0
 10
177.811684
 20
11.397488
 30
0.0
 10
178.017678
 20
11.839109
 30
0.0
 10
178.143690
 20
12.309687
 30
0.0
 10
178.185685
 20
12.795109
 30
0.0
 10
178.143690
 20
13.280390
 30
0.0
 10
178.017678
 20
13.750995
 30
0.0
 10
177.811684
 20
14.192589
 30
0.0
 10
177.531691
 20
14.591707
 30
0.0
 10
177.187691
 20
14.936199
 30
0.0
 10
176.788685
 20
15.215698
 30
0.0
 10
176.346697
 20
15.421599
 30
0.0
 10
175.875696
 20
15.547698
 30
0.0
 10
175.390697
 20
15.590099
 30
0.0
 10
174.905698
 20
15.547698
 30
0.0
 10
174.434698
 20
15.421599
 30
0.0
 10
174.144686
 20
15.286499
 30
0.0
 10
174.138759
 20
15.299594
 30
0.0
 10
161.058691
 20
8.759698
 30
0.0
 10
160.617690
 20
8.553789
 30
0.0
 10
160.146690
 20
8.427692
 30
0.0
 10
159.661691
 20
8.385245
 30
0.0
 10
159.175676
 20
8.427692
 30
0.0
 10
158.705691
 20
8.553789
 30
0.0
 10
158.263675
 20
8.759698
 30
0.0
 10
157.864697
 20
9.039154
 30
0.0
 10
157.519680
 20
9.383691
 30
0.0
 10
157.240676
 20
9.782782
 30
0.0
 10
157.034682
 20
10.224290
 30
0.0
 10
156.908698
 20
10.695009
 30
0.0
 10
156.865687
 20
11.180290
 30
0.0
 10
156.908698
 20
11.665712
 30
0.0
 10
157.034682
 20
12.136289
 30
0.0
 10
157.240676
 20
12.577911
 30
0.0
 10
157.519680
 20
12.977001
 30
0.0
 10
157.864697
 20
13.321510
 30
0.0
 10
158.263675
 20
13.600910
 30
0.0
 10
171.493688
 20
20.215699
 30
0.0
 10
171.644677
 20
20.286497
 30
0.0
 10
171.636775
 20
20.303600
 30
0.0
 10
171.788695
 20
20.374500
 30
0.0
 10
172.187701
 20
20.653900
 30
0.0
 10
172.531701
 20
20.998397
 30
0.0
 10
172.811694
 20
21.397499
 30
0.0
 10
173.017688
 20
21.839098
 30
0.0
 10
173.143700
 20
22.309698
 30
0.0
 10
173.185695
 20
22.795097
 30
0.0
 10
173.143700
 20
23.280398
 30
0.0
 10
173.017688
 20
23.750998
 30
0.0
 10
172.811694
 20
24.192600
 30
0.0
 10
172.531701
 20
24.591699
 30
0.0
 10
172.187701
 20
24.936199
 30
0.0
 10
171.788695
 20
25.215698
 30
0.0
 10
171.346678
 20
25.421598
 30
0.0
 10
170.875678
 20
25.547698
 30
0.0
 10
170.390679
 20
25.590099
 30
0.0
 10
169.905680
 20
25.547698
 30
0.0
 10
169.434679
 20
25.421598
 30
0.0
 10
169.144696
 20
25.286499
 30
0.0
 10
169.138769
 20
25.299594
 30
0.0
 10
140.173682
 20
10.817098
 30
0.0
 10
139.731694
 20
10.611189
 30
0.0
 10
139.261681
 20
10.485092
 30
0.0
 10
138.775694
 20
10.442589
 30
0.0
 10
138.290695
 20
10.485092
 30
0.0
 10
137.819694
 20
10.611189
 30
0.0
 10
137.378694
 20
10.817098
 30
0.0
 10
136.979688
 20
11.096498
 30
0.0
 10
136.634700
 20
11.441091
 30
0.0
 10
136.355695
 20
11.840097
 30
0.0
 10
136.149701
 20
12.281690
 30
0.0
 10
136.023689
 20
12.752296
 30
0.0
 10
135.980678
 20
13.237690
 30
0.0
 10
136.023689
 20
13.723112
 30
0.0
 10
136.149701
 20
14.193689
 30
0.0
 10
136.355695
 20
14.635198
 30
0.0
 10
136.634700
 20
15.034299
 30
0.0
 10
136.979688
 20
15.378898
 30
0.0
 10
137.378694
 20
15.658298
 30
0.0
 10
166.493698
 20
30.215699
 30
0.0
 10
166.644687
 20
30.286500
 30
0.0
 10
166.636785
 20
30.303603
 30
0.0
 10
166.788677
 20
30.374500
 30
0.0
 10
167.187682
 20
30.653900
 30
0.0
 10
167.531683
 20
30.998400
 30
0.0
 10
167.811676
 20
31.397499
 30
0.0
 10
168.017698
 20
31.839097
 30
0.0
 10
168.143682
 20
32.309697
 30
0.0
 10
168.185677
 20
32.795100
 30
0.0
 10
168.143682
 20
33.280398
 30
0.0
 10
168.017698
 20
33.750998
 30
0.0
 10
167.811676
 20
34.192599
 30
0.0
 10
167.531683
 20
34.591698
 30
0.0
 10
167.187682
 20
34.936198
 30
0.0
 10
166.788677
 20
35.215697
 30
0.0
 10
166.346688
 20
35.421598
 30
0.0
 10
165.875688
 20
35.547698
 30
0.0
 10
165.390689
 20
35.590099
 30
0.0
 10
164.905690
 20
35.547698
 30
0.0
 10
164.434689
 20
35.421598
 30
0.0
 10
164.144678
 20
35.286498
 30
0.0
 10
164.138751
 20
35.299593
 30
0.0
 10
140.173682
 20
23.317098
 30
0.0
 10
139.731694
 20
23.111197
 30
0.0
 10
139.261681
 20
22.985098
 30
0.0
 10
138.775694
 20
22.942598
 30
0.0
 10
138.290695
 20
22.985098
 30
0.0
 10
137.819694
 20
23.111197
 30
0.0
 10
137.378694
 20
23.317098
 30
0.0
 10
136.979688
 20
23.596498
 30
0.0
 10
136.634700
 20
23.941100
 30
0.0
 10
136.355695
 20
24.340097
 30
0.0
 10
136.149701
 20
24.781699
 30
0.0
 10
136.023689
 20
25.252299
 30
0.0
 10
135.980678
 20
25.737699
 30
0.0
 10
136.023689
 20
26.223098
 30
0.0
 10
136.149701
 20
26.693698
 30
0.0
 10
136.355695
 20
27.135198
 30
0.0
 10
136.634700
 20
27.534300
 30
0.0
 10
136.979688
 20
27.878899
 30
0.0
 10
137.378694
 20
28.158299
 30
0.0
 10
161.493680
 20
40.215699
 30
0.0
 10
161.644697
 20
40.286500
 30
0.0
 10
161.636795
 20
40.303602
 30
0.0
  0
LWPOLYLINE
  5
101
100
AcDbEntity
  8
0
 62
7
100
AcDbPolyline
 90
85
 70
0
 10
161.636682
 20
40.303599
 30
0.0
 10
161.788687
 20
40.374499
 30
0.0
 10
162.187692
 20
40.653899
 30
0.0
 10
162.531693
 20
40.998400
 30
0.0
 10
162.811686
 20
41.397498
 30
0.0
 10
163.017680
 20
41.839100
 30
0.0
 10
163.143692
 20
42.309697
 30
0.0
 10
163.185687
 20
42.795100
 30
0.0
 10
163.143692
 20
43.280398
 30
0.0
 10
163.017680
 20
43.750998
 30
0.0
 10
162.811686
 20
44.192599
 30
0.0
 10
162.531693
 20
44.591698
 30
0.0
 10
162.187692
 20
44.936198
 30
0.0
 10
161.788687
 20
45.215700
 30
0.0
 10
161.346698
 20
45.421598
 30
0.0
 10
160.875698
 20
45.547698
 30
0.0
 10
160.390699
 20
45.590099
 30
0.0
 10
159.905700
 20
45.547698
 30
0.0
 10
159.434699
 20
45.421598
 30
0.0
 10
159.144688
 20
45.286498
 30
0.0
 10
159.138761
 20
45.299593
 30
0.0
 10
140.173682
 20
35.817099
 30
0.0
 10
139.731694
 20
35.611198
 30
0.0
 10
139.261681
 20
35.485098
 30
0.0
 10
138.775694
 20
35.442598
 30
0.0
 10
138.290695
 20
35.485098
 30
0.0
 10
137.819694
 20
35.611198
 30
0.0
 10
137.378694
 20
35.817099
 30
0.0
 10
136.979688
 20
36.096499
 30
0.0
 10
136.634700
 20
36.441098
 30
0.0
 10
136.355695
 20
36.840098
 30
0.0
 10
136.149701
 20
37.281699
 30
0.0
 10
136.023689
 20
37.752299
 30
0.0
 10
135.980678
 20
38.237699
 30
0.0
 10
136.023689
 20
38.723099
 30
0.0
 10
136.149701
 20
39.193699
 30
0.0
 10
136.355695
 20
39.635198
 30
0.0
 10
136.634700
 20
40.034297
 30
0.0
 10
136.979688
 20
40.378899
 30
0.0
 10
137.378694
 20
40.658299
 30
0.0
 10
156.493690
 20
50.215698
 30
0.0
 10
156.644679
 20
50.286499
 30
0.0
 10
156.636776
 20
50.303602
 30
0.0
 10
156.788697
 20
50.374499
 30
0.0
 10
157.187674
 20
50.653899
 30
0.0
 10
157.531675
 20
50.998399
 30
0.0
 10
157.811696
 20
51.397498
 30
0.0
 10
158.017690
 20
51.839100
 30
0.0
 10
158.143674
 20
52.309700
 30
0.0
 10
158.185697
 20
52.795099
 30
0.0
 10
158.143674
 20
53.280397
 30
0.0
 10
158.017690
 20
53.750997
 30
0.0
 10
157.811696
 20
54.192599
 30
0.0
 10
157.531675
 20
54.591698
 30
0.0
 10
157.187674
 20
54.936198
 30
0.0
 10
156.788697
 20
55.215700
 30
0.0
 10
156.346680
 20
55.421598
 30
0.0
 10
155.875680
 20
55.547697
 30
0.0
 10
155.390681
 20
55.590098
 30
0.0
 10
154.905682
 20
55.547697
 30
0.0
 10
154.434681
 20
55.421598
 30
0.0
 10
154.144698
 20
55.286498
 30
0.0
 10
154.138771
 20
55.299593
 30
0.0
 10
140.173682
 20
48.317099
 30
0.0
 10
139.731694
 20
48.111198
 30
0.0
 10
139.261681
 20
47.985099
 30
0.0
 10
138.775694
 20
47.942599
 30
0.0
 10
138.290695
 20
47.985099
 30
0.0
 10
137.819694
 20
48.111198
 30
0.0
 10
137.378694
 20
48.317099
 30
0.0
 10
136.979688
 20
48.596499
 30
0.0
 10
136.634700
 20
48.941098
 30
0.0
 10
136.355695
 20
49.340098
 30
0.0
 10
136.149701
 20
49.781700
 30
0.0
 10
136.023689
 20
50.252300
 30
0.0
 10
135.980678
 20
50.737699
 30
0.0
 10
136.023689
 20
51.223099
 30
0.0
 10
136.149701
 20
51.693699
 30
0.0
 10
136.355695
 20
52.135199
 30
0.0
 10
136.634700
 20
52.534298
 30
0.0
 10
136.979688
 20
52.878900
 30
0.0
 10
137.378694
 20
53.158300
 30
0.0
 10
151.493700
 20
60.215698
 30
0.0
 10
151.644689
 20
60.286499
 30
0.0
 10
151.636786
 20
60.303602
 30
0.0
  0
LWPOLYLINE
  5
102
100
AcDbEntity
  8
0
 62
7
100
AcDbPolyline
 90
43
 70
0
 10
151.636674
 20
60.303599
 30
0.0
 10
151.788678
 20
60.374499
 30
0.0
 10
152.187684
 20
60.653899
 30
0.0
 10
152.531685
 20
60.998399
 30
0.0
 10
152.811678
 20
61.397498
 30
0.0
 10
153.017700
 20
61.839100
 30
0.0
 10
153.143684
 20
62.309699
 30
0.0
 10
153.185678
 20
62.795099
 30
0.0
 10
153.143684
 20
63.280400
 30
0.0
 10
153.017700
 20
63.750997
 30
0.0
 10
152.811678
 20
64.192599
 30
0.0
 10
152.531685
 20
64.591698
 30
0.0
 10
152.187684
 20
64.936198
 30
0.0
 10
151.788678
 20
65.215699
 30
0.0
 10
151.346690
 20
65.421597
 30
0.0
 10
150.875690
 20
65.547697
 30
0.0
 10
150.390691
 20
65.590098
 30
0.0
 10
149.905692
 20
65.547697
 30
0.0
 10
149.434691
 20
65.421597
 30
0.0
 10
149.144680
 20
65.286498
 30
0.0
 10
149.138753
 20
65.299593
 30
0.0
 10
140.173682
 20
60.817100
 30
0.0
 10
139.731694
 20
60.611199
 30
0.0
 10
139.261681
 20
60.485099
 30
0.0
 10
138.775694
 20
60.442599
 30
0.0
 10
138.290695
 20
60.485099
 30
0.0
 10
137.819694
 20
60.611199
 30
0.0
 10
137.378694
 20
60.817100
 30
0.0
 10
136.979688
 20
61.096500
 30
0.0
 10
136.634700
 20
61.441098
 30
0.0
 10
136.355695
 20
61.840099
 30
0.0
 10
136.149701
 20
62.281697
 30
0.0
 10
136.023689
 20
62.752300
 30
0.0
 10
135.980678
 20
63.237700
 30
0.0
 10
136.023689
 20
63.723099
 30
0.0
 10
136.149701
 20
64.193699
 30
0.0
 10
136.355695
 20
64.635199
 30
0.0
 10
136.634700
 20
65.034298
 30
0.0
 10
136.979688
 20
65.378897
 30
0.0
 10
137.378694
 20
65.658297
 30
0.0
 10
146.493682
 20
70.215698
 30
0.0
 10
146.644699
 20
70.286499
 30
0.0
 10
146.636796
 20
70.303602
 30
0.0
  0
LWPOLYLINE
  5
103
100
AcDbEntity
  8
0
 62
7
100
AcDbPolyline
 90
63
 70
0
 10
146.636684
 20
70.303599
 30
0.0
 10
146.788688
 20
70.374499
 30
0.0
 10
147.187694
 20
70.653899
 30
0.0
 10
147.531695
 20
70.998399
 30
0.0
 10
147.811688
 20
71.397498
 30
0.0
 10
148.017682
 20
71.839099
 30
0.0
 10
148.143694
 20
72.309699
 30
0.0
 10
148.185688
 20
72.795099
 30
0.0
 10
148.143694
 20
73.280400
 30
0.0
 10
148.017682
 20
73.751000
 30
0.0
 10
147.811688
 20
74.192598
 30
0.0
 10
147.531695
 20
74.591697
 30
0.0
 10
147.187694
 20
74.936198
 30
0.0
 10
146.788688
 20
75.215699
 30
0.0
 10
146.346700
 20
75.421600
 30
0.0
 10
145.875700
 20
75.547700
 30
0.0
 10
145.390701
 20
75.590098
 30
0.0
 10
144.905674
 20
75.547700
 30
0.0
 10
144.434701
 20
75.421600
 30
0.0
 10
144.144690
 20
75.286497
 30
0.0
 10
144.138763
 20
75.299592
 30
0.0
 10
140.173682
 20
73.317097
 30
0.0
 10
139.731694
 20
73.111199
 30
0.0
 10
139.261681
 20
72.985099
 30
0.0
 10
138.775694
 20
72.942599
 30
0.0
 10
138.290695
 20
72.985099
 30
0.0
 10
137.819694
 20
73.111199
 30
0.0
 10
137.378694
 20
73.317097
 30
0.0
 10
136.979688
 20
73.596497
 30
0.0
 10
136.634700
 20
73.941099
 30
0.0
 10
136.355695
 20
74.340099
 30
0.0
 10
136.149701
 20
74.781698
 30
0.0
 10
136.023689
 20
75.252298
 30
0.0
 10
135.980678
 20
75.737697
 30
0.0
 10
136.023689
 20
76.223100
 30
0.0
 10
136.149701
 20
76.693700
 30
0.0
 10
136.355695
 20
77.135200
 30
0.0
 10
136.634700
 20
77.534299
 30
0.0
 10
136.979688
 20
77.878898
 30
0.0
 10
137.378694
 20
78.158298
 30
0.0
 10
141.493692
 20
80.215698
 30
0.0
 10
141.644680
 20
80.286499
 30
0.0
 10
141.636778
 20
80.303601
 30
0.0
 10
141.788698
 20
80.374498
 30
0.0
 10
142.187676
 20
80.653898
 30
0.0
 10
142.531677
 20
80.998399
 30
0.0
 10
142.811698
 20
81.397497
 30
0.0
 10
143.017692
 20
81.839099
 30
0.0
 10
143.143676
 20
82.309699
 30
0.0
 10
143.185698
 20
82.795099
 30
0.0
 10
143.143676
 20
83.280399
 30
0.0
 10
143.017692
 20
83.750999
 30
0.0
 10
142.811698
 20
84.192598
 30
0.0
 10
142.531677
 20
84.591700
 30
0.0
 10
142.187676
 20
84.936200
 30
0.0
 10
141.788698
 20
85.215699
 30
0.0
 10
141.346682
 20
85.421600
 30
0.0
 10
140.875681
 20
85.547699
 30
0.0
 10
140.390682
 20
85.590098
 30
0.0
 10
139.905684
 20
85.547699
 30
0.0
 10
139.434683
 20
85.421600
 30
0.0
 10
139.144700
 20
85.286500
 30
0.0
 10
139.136797
 20
85.303603
 30
0.0
  0
LWPOLYLINE
  5
104
100
AcDbEntity
  8
0
 62
7
100
AcDbPolyline
 90
71
 70
0
 10
139.136684
 20
85.303600
 30
0.0
 10
138.846701
 20
85.168497
 30
0.0
 10
138.375700
 20
85.042397
 30
0.0
 10
137.890702
 20
84.999999
 30
0.0
 10
137.405674
 20
85.042397
 30
0.0
 10
136.934674
 20
85.168497
 30
0.0
 10
136.493702
 20
85.374500
 30
0.0
 10
136.093680
 20
85.653900
 30
0.0
 10
135.749679
 20
85.998400
 30
0.0
 10
135.469686
 20
86.397499
 30
0.0
 10
135.264680
 20
86.839098
 30
0.0
 10
135.137680
 20
87.309697
 30
0.0
 10
135.095686
 20
87.795100
 30
0.0
 10
135.137680
 20
88.280398
 30
0.0
 10
135.264680
 20
88.750998
 30
0.0
 10
135.469686
 20
89.192599
 30
0.0
 10
135.749679
 20
89.591698
 30
0.0
 10
136.093680
 20
89.936199
 30
0.0
 10
136.493702
 20
90.215697
 30
0.0
 10
136.642687
 20
90.290599
 30
0.0
 10
136.636760
 20
90.303610
 30
0.0
 10
136.788680
 20
90.374498
 30
0.0
 10
137.187686
 20
90.653898
 30
0.0
 10
137.531687
 20
90.998398
 30
0.0
 10
137.811679
 20
91.397500
 30
0.0
 10
138.017702
 20
91.839099
 30
0.0
 10
138.143686
 20
92.309699
 30
0.0
 10
138.185680
 20
92.795098
 30
0.0
 10
138.143686
 20
93.280399
 30
0.0
 10
138.017702
 20
93.750999
 30
0.0
 10
137.811679
 20
94.192598
 30
0.0
 10
137.531687
 20
94.591700
 30
0.0
 10
137.187686
 20
94.936200
 30
0.0
 10
136.788680
 20
95.215699
 30
0.0
 10
136.346692
 20
95.421599
 30
0.0
 10
135.875691
 20
95.547699
 30
0.0
 10
135.390692
 20
95.590097
 30
0.0
 10
134.905694
 20
95.547699
 30
0.0
 10
134.434693
 20
95.421599
 30
0.0
 10
134.144681
 20
95.286500
 30
0.0
 10
134.136779
 20
95.303602
 30
0.0
 10
133.846683
 20
95.168500
 30
0.0
 10
133.375682
 20
95.042397
 30
0.0
 10
133.185690
 20
95.025803
 30
0.0
 10
133.185690
 20
102.794999
 30
0.0
 10
133.143696
 20
103.279998
 30
0.0
 10
133.017683
 20
103.750999
 30
0.0
 10
132.811689
 20
104.192998
 30
0.0
 10
132.531697
 20
104.591999
 30
0.0
 10
132.187696
 20
104.935999
 30
0.0
 10
131.788690
 20
105.215998
 30
0.0
 10
131.346674
 20
105.421997
 30
0.0
 10
130.875701
 20
105.547998
 30
0.0
 10
130.390674
 20
105.589998
 30
0.0
 10
130.390674
 20
99.999997
 30
0.0
 10
125.194681
 20
99.999997
 30
0.0
 10
125.194681
 20
105.589998
 30
0.0
 10
124.709682
 20
105.547998
 30
0.0
 10
124.238681
 20
105.421997
 30
0.0
 10
123.796693
 20
105.215998
 30
0.0
 10
123.397687
 20
104.935999
 30
0.0
 10
123.053687
 20
104.591999
 30
0.0
 10
122.773694
 20
104.192998
 30
0.0
 10
122.567700
 20
103.750999
 30
0.0
 10
122.441688
 20
103.279998
 30
0.0
 10
122.399693
 20
102.794999
 30
0.0
 10
122.399693
 20
95.025800
 30
0.0
 10
122.209701
 20
95.042394
 30
0.0
 10
121.738700
 20
95.168500
 30
0.0
 10
121.448689
 20
95.303600
 30
0.0
 10
121.440787
 20
95.286497
 30
0.0
  0
LWPOLYLINE
  5
105
100
AcDbEntity
  8
0
 62
7
100
AcDbPolyline
 90
41
 70
0
 10
121.440674
 20
95.286500
 30
0.0
 10
121.150690
 20
95.421599
 30
0.0
 10
120.679690
 20
95.547699
 30
0.0
 10
120.194691
 20
95.590097
 30
0.0
 10
119.709692
 20
95.547699
 30
0.0
 10
119.238691
 20
95.421599
 30
0.0
 10
118.796675
 20
95.215699
 30
0.0
 10
118.397697
 20
94.936200
 30
0.0
 10
118.053697
 20
94.591700
 30
0.0
 10
117.773676
 20
94.192598
 30
0.0
 10
117.567682
 20
93.750999
 30
0.0
 10
117.441698
 20
93.280399
 30
0.0
 10
117.399675
 20
92.795098
 30
0.0
 10
117.441698
 20
92.309699
 30
0.0
 10
117.567682
 20
91.839099
 30
0.0
 10
117.773676
 20
91.397500
 30
0.0
 10
118.053697
 20
90.998398
 30
0.0
 10
118.397697
 20
90.653898
 30
0.0
 10
118.796675
 20
90.374498
 30
0.0
 10
118.948680
 20
90.303598
 30
0.0
 10
118.942753
 20
90.290588
 30
0.0
 10
119.091682
 20
90.215697
 30
0.0
 10
119.491675
 20
89.936199
 30
0.0
 10
119.835676
 20
89.591698
 30
0.0
 10
120.115697
 20
89.192599
 30
0.0
 10
120.320675
 20
88.750998
 30
0.0
 10
120.447675
 20
88.280398
 30
0.0
 10
120.489698
 20
87.795100
 30
0.0
 10
120.447675
 20
87.309697
 30
0.0
 10
120.320675
 20
86.839098
 30
0.0
 10
120.115697
 20
86.397499
 30
0.0
 10
119.835676
 20
85.998400
 30
0.0
 10
119.491675
 20
85.653900
 30
0.0
 10
119.091682
 20
85.374500
 30
0.0
 10
118.650681
 20
85.168497
 30
0.0
 10
118.179681
 20
85.042397
 30
0.0
 10
117.694682
 20
84.999999
 30
0.0
 10
117.209683
 20
85.042397
 30
0.0
 10
116.738682
 20
85.168497
 30
0.0
 10
116.448699
 20
85.303600
 30
0.0
 10
116.440797
 20
85.286497
 30
0.0
  0
LWPOLYLINE
  5
106
100
AcDbEntity
  8
0
 62
7
100
AcDbPolyline
 90
21
 70
0
 10
116.440684
 20
85.286500
 30
0.0
 10
116.150700
 20
85.421600
 30
0.0
 10
115.679700
 20
85.547699
 30
0.0
 10
115.194701
 20
85.590098
 30
0.0
 10
114.709674
 20
85.547699
 30
0.0
 10
114.238701
 20
85.421600
 30
0.0
 10
113.796685
 20
85.215699
 30
0.0
 10
113.397679
 20
84.936200
 30
0.0
 10
113.053678
 20
84.591700
 30
0.0
 10
112.773686
 20
84.192598
 30
0.0
 10
112.567692
 20
83.750999
 30
0.0
 10
112.441680
 20
83.280399
 30
0.0
 10
112.399685
 20
82.795099
 30
0.0
 10
112.441680
 20
82.309699
 30
0.0
 10
112.567692
 20
81.839099
 30
0.0
 10
112.773686
 20
81.397497
 30
0.0
 10
113.053678
 20
80.998399
 30
0.0
 10
113.397679
 20
80.653898
 30
0.0
 10
113.796685
 20
80.374498
 30
0.0
 10
113.948690
 20
80.303599
 30
0.0
 10
113.940788
 20
80.286496
 30
0.0
  0
LWPOLYLINE
  5
107
100
AcDbEntity
  8
0
 62
7
100
AcDbPolyline
 90
43
 70
0
 10
113.940675
 20
80.286499
 30
0.0
 10
114.091692
 20
80.215698
 30
0.0
 10
118.206689
 20
78.158298
 30
0.0
 10
118.605695
 20
77.878898
 30
0.0
 10
118.950684
 20
77.534299
 30
0.0
 10
119.229688
 20
77.135200
 30
0.0
 10
119.435682
 20
76.693700
 30
0.0
 10
119.561695
 20
76.223100
 30
0.0
 10
119.604677
 20
75.737697
 30
0.0
 10
119.561695
 20
75.252298
 30
0.0
 10
119.435682
 20
74.781698
 30
0.0
 10
119.229688
 20
74.340099
 30
0.0
 10
118.950684
 20
73.941099
 30
0.0
 10
118.605695
 20
73.596497
 30
0.0
 10
118.206689
 20
73.317097
 30
0.0
 10
117.765689
 20
73.111199
 30
0.0
 10
117.294688
 20
72.985099
 30
0.0
 10
116.809689
 20
72.942599
 30
0.0
 10
116.323674
 20
72.985099
 30
0.0
 10
115.853690
 20
73.111199
 30
0.0
 10
115.411702
 20
73.317097
 30
0.0
 10
111.446677
 20
75.299598
 30
0.0
 10
111.440750
 20
75.286503
 30
0.0
 10
111.150682
 20
75.421600
 30
0.0
 10
110.679682
 20
75.547700
 30
0.0
 10
110.194683
 20
75.590098
 30
0.0
 10
109.709684
 20
75.547700
 30
0.0
 10
109.238683
 20
75.421600
 30
0.0
 10
108.796695
 20
75.215699
 30
0.0
 10
108.397689
 20
74.936198
 30
0.0
 10
108.053688
 20
74.591697
 30
0.0
 10
107.773696
 20
74.192598
 30
0.0
 10
107.567674
 20
73.751000
 30
0.0
 10
107.441690
 20
73.280400
 30
0.0
 10
107.399695
 20
72.795099
 30
0.0
 10
107.441690
 20
72.309699
 30
0.0
 10
107.567674
 20
71.839099
 30
0.0
 10
107.773696
 20
71.397498
 30
0.0
 10
108.053688
 20
70.998399
 30
0.0
 10
108.397689
 20
70.653899
 30
0.0
 10
108.796695
 20
70.374499
 30
0.0
 10
108.948700
 20
70.303599
 30
0.0
 10
108.940798
 20
70.286496
 30
0.0
  0
LWPOLYLINE
  5
108
100
AcDbEntity
  8
0
 62
7
100
AcDbPolyline
 90
85
 70
0
 10
108.940685
 20
70.286499
 30
0.0
 10
109.091674
 20
70.215698
 30
0.0
 10
118.206689
 20
65.658297
 30
0.0
 10
118.605695
 20
65.378897
 30
0.0
 10
118.950684
 20
65.034298
 30
0.0
 10
119.229688
 20
64.635199
 30
0.0
 10
119.435682
 20
64.193699
 30
0.0
 10
119.561695
 20
63.723099
 30
0.0
 10
119.604677
 20
63.237700
 30
0.0
 10
119.561695
 20
62.752300
 30
0.0
 10
119.435682
 20
62.281697
 30
0.0
 10
119.229688
 20
61.840099
 30
0.0
 10
118.950684
 20
61.441098
 30
0.0
 10
118.605695
 20
61.096500
 30
0.0
 10
118.206689
 20
60.817100
 30
0.0
 10
117.765689
 20
60.611199
 30
0.0
 10
117.294688
 20
60.485099
 30
0.0
 10
116.809689
 20
60.442599
 30
0.0
 10
116.323674
 20
60.485099
 30
0.0
 10
115.853690
 20
60.611199
 30
0.0
 10
115.411702
 20
60.817100
 30
0.0
 10
106.446687
 20
65.299598
 30
0.0
 10
106.440760
 20
65.286503
 30
0.0
 10
106.150692
 20
65.421597
 30
0.0
 10
105.679692
 20
65.547697
 30
0.0
 10
105.194693
 20
65.590098
 30
0.0
 10
104.709694
 20
65.547697
 30
0.0
 10
104.238693
 20
65.421597
 30
0.0
 10
103.796677
 20
65.215699
 30
0.0
 10
103.397699
 20
64.936198
 30
0.0
 10
103.053698
 20
64.591698
 30
0.0
 10
102.773678
 20
64.192599
 30
0.0
 10
102.567684
 20
63.750997
 30
0.0
 10
102.441700
 20
63.280400
 30
0.0
 10
102.399677
 20
62.795099
 30
0.0
 10
102.441700
 20
62.309699
 30
0.0
 10
102.567684
 20
61.839100
 30
0.0
 10
102.773678
 20
61.397498
 30
0.0
 10
103.053698
 20
60.998399
 30
0.0
 10
103.397699
 20
60.653899
 30
0.0
 10
103.796677
 20
60.374499
 30
0.0
 10
103.948682
 20
60.303599
 30
0.0
 10
103.940779
 20
60.286496
 30
0.0
 10
104.091684
 20
60.215698
 30
0.0
 10
118.206689
 20
53.158300
 30
0.0
 10
118.605695
 20
52.878900
 30
0.0
 10
118.950684
 20
52.534298
 30
0.0
 10
119.229688
 20
52.135199
 30
0.0
 10
119.435682
 20
51.693699
 30
0.0
 10
119.561695
 20
51.223099
 30
0.0
 10
119.604677
 20
50.737699
 30
0.0
 10
119.561695
 20
50.252300
 30
0.0
 10
119.435682
 20
49.781700
 30
0.0
 10
119.229688
 20
49.340098
 30
0.0
 10
118.950684
 20
48.941098
 30
0.0
 10
118.605695
 20
48.596499
 30
0.0
 10
118.206689
 20
48.317099
 30
0.0
 10
117.765689
 20
48.111198
 30
0.0
 10
117.294688
 20
47.985099
 30
0.0
 10
116.809689
 20
47.942599
 30
0.0
 10
116.323674
 20
47.985099
 30
0.0
 10
115.853690
 20
48.111198
 30
0.0
 10
115.411702
 20
48.317099
 30
0.0
 10
101.446697
 20
55.299599
 30
0.0
 10
101.440770
 20
55.286504
 30
0.0
 10
101.150674
 20
55.421598
 30
0.0
 10
100.679702
 20
55.547697
 30
0.0
 10
100.194674
 20
55.590098
 30
0.0
 10
99.709676
 20
55.547697
 30
0.0
 10
99.238675
 20
55.421598
 30
0.0
 10
98.796687
 20
55.215700
 30
0.0
 10
98.397681
 20
54.936198
 30
0.0
 10
98.053680
 20
54.591698
 30
0.0
 10
97.773688
 20
54.192599
 30
0.0
 10
97.567694
 20
53.750997
 30
0.0
 10
97.441681
 20
53.280397
 30
0.0
 10
97.399687
 20
52.795099
 30
0.0
 10
97.441681
 20
52.309700
 30
0.0
 10
97.567694
 20
51.839100
 30
0.0
 10
97.773688
 20
51.397498
 30
0.0
 10
98.053680
 20
50.998399
 30
0.0
 10
98.397681
 20
50.653899
 30
0.0
 10
98.796687
 20
50.374499
 30
0.0
 10
98.948692
 20
50.303599
 30
0.0
 10
98.940789
 20
50.286497
 30
0.0
  0
LWPOLYLINE
  5
109
100
AcDbEntity
  8
0
 62
7
100
AcDbPolyline
 90
43
 70
0
 10
98.940676
 20
50.286499
 30
0.0
 10
99.091694
 20
50.215698
 30
0.0
 10
118.206689
 20
40.658299
 30
0.0
 10
118.605695
 20
40.378899
 30
0.0
 10
118.950684
 20
40.034297
 30
0.0
 10
119.229688
 20
39.635198
 30
0.0
 10
119.435682
 20
39.193699
 30
0.0
 10
119.561695
 20
38.723099
 30
0.0
 10
119.604677
 20
38.237699
 30
0.0
 10
119.561695
 20
37.752299
 30
0.0
 10
119.435682
 20
37.281699
 30
0.0
 10
119.229688
 20
36.840098
 30
0.0
 10
118.950684
 20
36.441098
 30
0.0
 10
118.605695
 20
36.096499
 30
0.0
 10
118.206689
 20
35.817099
 30
0.0
 10
117.765689
 20
35.611198
 30
0.0
 10
117.294688
 20
35.485098
 30
0.0
 10
116.809689
 20
35.442598
 30
0.0
 10
116.323674
 20
35.485098
 30
0.0
 10
115.853690
 20
35.611198
 30
0.0
 10
115.411702
 20
35.817099
 30
0.0
 10
96.446679
 20
45.299599
 30
0.0
 10
96.440752
 20
45.286504
 30
0.0
 10
96.150684
 20
45.421598
 30
0.0
 10
95.679683
 20
45.547698
 30
0.0
 10
95.194684
 20
45.590099
 30
0.0
 10
94.709686
 20
45.547698
 30
0.0
 10
94.238685
 20
45.421598
 30
0.0
 10
93.796697
 20
45.215700
 30
0.0
 10
93.397691
 20
44.936198
 30
0.0
 10
93.053690
 20
44.591698
 30
0.0
 10
92.773698
 20
44.192599
 30
0.0
 10
92.567675
 20
43.750998
 30
0.0
 10
92.441691
 20
43.280398
 30
0.0
 10
92.399697
 20
42.795100
 30
0.0
 10
92.441691
 20
42.309697
 30
0.0
 10
92.567675
 20
41.839100
 30
0.0
 10
92.773698
 20
41.397498
 30
0.0
 10
93.053690
 20
40.998400
 30
0.0
 10
93.397691
 20
40.653899
 30
0.0
 10
93.796697
 20
40.374499
 30
0.0
 10
93.948702
 20
40.303599
 30
0.0
 10
93.940799
 20
40.286497
 30
0.0
  0
LWPOLYLINE
  5
10a
100
AcDbEntity
  8
0
 62
7
100
AcDbPolyline
 90
85
 70
0
 10
93.940686
 20
40.286500
 30
0.0
 10
94.091675
 20
40.215699
 30
0.0
 10
118.206689
 20
28.158299
 30
0.0
 10
118.605695
 20
27.878899
 30
0.0
 10
118.950684
 20
27.534300
 30
0.0
 10
119.229688
 20
27.135198
 30
0.0
 10
119.435682
 20
26.693698
 30
0.0
 10
119.561695
 20
26.223098
 30
0.0
 10
119.604677
 20
25.737699
 30
0.0
 10
119.561695
 20
25.252299
 30
0.0
 10
119.435682
 20
24.781699
 30
0.0
 10
119.229688
 20
24.340097
 30
0.0
 10
118.950684
 20
23.941100
 30
0.0
 10
118.605695
 20
23.596498
 30
0.0
 10
118.206689
 20
23.317098
 30
0.0
 10
117.765689
 20
23.111197
 30
0.0
 10
117.294688
 20
22.985098
 30
0.0
 10
116.809689
 20
22.942598
 30
0.0
 10
116.323674
 20
22.985098
 30
0.0
 10
115.853690
 20
23.111197
 30
0.0
 10
115.411702
 20
23.317098
 30
0.0
 10
91.446689
 20
35.299599
 30
0.0
 10
91.440762
 20
35.286504
 30
0.0
 10
91.150694
 20
35.421598
 30
0.0
 10
90.679693
 20
35.547698
 30
0.0
 10
90.194694
 20
35.590099
 30
0.0
 10
89.709696
 20
35.547698
 30
0.0
 10
89.238695
 20
35.421598
 30
0.0
 10
88.796678
 20
35.215697
 30
0.0
 10
88.397701
 20
34.936198
 30
0.0
 10
88.053700
 20
34.591698
 30
0.0
 10
87.773679
 20
34.192599
 30
0.0
 10
87.567685
 20
33.750998
 30
0.0
 10
87.441701
 20
33.280398
 30
0.0
 10
87.399678
 20
32.795100
 30
0.0
 10
87.441701
 20
32.309697
 30
0.0
 10
87.567685
 20
31.839097
 30
0.0
 10
87.773679
 20
31.397499
 30
0.0
 10
88.053700
 20
30.998400
 30
0.0
 10
88.397701
 20
30.653900
 30
0.0
 10
88.796678
 20
30.374500
 30
0.0
 10
88.948683
 20
30.303600
 30
0.0
 10
88.940781
 20
30.286497
 30
0.0
 10
89.091685
 20
30.215699
 30
0.0
 10
118.206689
 20
15.658298
 30
0.0
 10
118.605695
 20
15.378898
 30
0.0
 10
118.950684
 20
15.034299
 30
0.0
 10
119.229688
 20
14.635198
 30
0.0
 10
119.435682
 20
14.193689
 30
0.0
 10
119.561695
 20
13.723112
 30
0.0
 10
119.604677
 20
13.237690
 30
0.0
 10
119.561695
 20
12.752296
 30
0.0
 10
119.435682
 20
12.281690
 30
0.0
 10
119.229688
 20
11.840097
 30
0.0
 10
118.950684
 20
11.441091
 30
0.0
 10
118.605695
 20
11.096498
 30
0.0
 10
118.206689
 20
10.817098
 30
0.0
 10
117.765689
 20
10.611189
 30
0.0
 10
117.294688
 20
10.485092
 30
0.0
 10
116.809689
 20
10.442589
 30
0.0
 10
116.323674
 20
10.485092
 30
0.0
 10
115.853690
 20
10.611189
 30
0.0
 10
115.411702
 20
10.817098
 30
0.0
 10
86.446699
 20
25.299599
 30
0.0
 10
86.440772
 20
25.286504
 30
0.0
 10
86.150676
 20
25.421598
 30
0.0
 10
85.679675
 20
25.547698
 30
0.0
 10
85.194676
 20
25.590099
 30
0.0
 10
84.709677
 20
25.547698
 30
0.0
 10
84.238677
 20
25.421598
 30
0.0
 10
83.796688
 20
25.215698
 30
0.0
 10
83.397683
 20
24.936199
 30
0.0
 10
83.053682
 20
24.591699
 30
0.0
 10
82.773689
 20
24.192600
 30
0.0
 10
82.567695
 20
23.750998
 30
0.0
 10
82.441683
 20
23.280398
 30
0.0
 10
82.399688
 20
22.795097
 30
0.0
 10
82.441683
 20
22.309698
 30
0.0
 10
82.567695
 20
21.839098
 30
0.0
 10
82.773689
 20
21.397499
 30
0.0
 10
83.053682
 20
20.998397
 30
0.0
 10
83.397683
 20
20.653900
 30
0.0
 10
83.796688
 20
20.374500
 30
0.0
 10
83.948693
 20
20.303600
 30
0.0
 10
83.940791
 20
20.286497
 30
0.0
  0
LWPOLYLINE
  5
10b
100
AcDbEntity
  8
0
 62
7
100
AcDbPolyline
 90
77
 70
0
 10
83.940678
 20
20.286497
 30
0.0
 10
84.091695
 20
20.215699
 30
0.0
 10
97.321680
 20
13.600910
 30
0.0
 10
97.720686
 20
13.321510
 30
0.0
 10
98.065675
 20
12.977001
 30
0.0
 10
98.344680
 20
12.577911
 30
0.0
 10
98.550674
 20
12.136289
 30
0.0
 10
98.676686
 20
11.665712
 30
0.0
 10
98.719696
 20
11.180290
 30
0.0
 10
98.676686
 20
10.695009
 30
0.0
 10
98.550674
 20
10.224290
 30
0.0
 10
98.344680
 20
9.782782
 30
0.0
 10
98.065675
 20
9.383691
 30
0.0
 10
97.720686
 20
9.039154
 30
0.0
 10
97.321680
 20
8.759698
 30
0.0
 10
96.879692
 20
8.553789
 30
0.0
 10
96.409679
 20
8.427692
 30
0.0
 10
95.923693
 20
8.385245
 30
0.0
 10
95.438694
 20
8.427692
 30
0.0
 10
94.967693
 20
8.553789
 30
0.0
 10
94.526693
 20
8.759698
 30
0.0
 10
81.446680
 20
15.299600
 30
0.0
 10
81.440754
 20
15.286504
 30
0.0
 10
81.150686
 20
15.421599
 30
0.0
 10
80.679685
 20
15.547698
 30
0.0
 10
80.194686
 20
15.590099
 30
0.0
 10
79.709687
 20
15.547698
 30
0.0
 10
79.238687
 20
15.421599
 30
0.0
 10
78.796698
 20
15.215698
 30
0.0
 10
78.397693
 20
14.936199
 30
0.0
 10
78.053692
 20
14.591707
 30
0.0
 10
77.773699
 20
14.192589
 30
0.0
 10
77.567677
 20
13.750995
 30
0.0
 10
77.441693
 20
13.280390
 30
0.0
 10
77.399698
 20
12.795109
 30
0.0
 10
77.441693
 20
12.309687
 30
0.0
 10
77.567677
 20
11.839109
 30
0.0
 10
77.773699
 20
11.397488
 30
0.0
 10
78.053692
 20
10.998397
 30
0.0
 10
78.397693
 20
10.653889
 30
0.0
 10
78.796698
 20
10.374489
 30
0.0
 10
78.948675
 20
10.303595
 30
0.0
 10
78.942748
 20
10.290612
 30
0.0
 10
79.091677
 20
10.215711
 30
0.0
 10
79.491699
 20
9.936226
 30
0.0
 10
79.835700
 20
9.591717
 30
0.0
 10
80.115692
 20
9.192599
 30
0.0
 10
80.320698
 20
8.751034
 30
0.0
 10
80.447698
 20
8.280428
 30
0.0
 10
80.489693
 20
7.795062
 30
0.0
 10
80.447698
 20
7.309697
 30
0.0
 10
80.320698
 20
6.839091
 30
0.0
 10
80.115692
 20
6.397526
 30
0.0
 10
79.835700
 20
5.998436
 30
0.0
 10
79.491699
 20
5.653899
 30
0.0
 10
79.400682
 20
5.590145
 30
0.0
 10
75.194696
 20
5.590145
 30
0.0
 10
74.709697
 20
5.547670
 30
0.0
 10
74.238697
 20
5.421602
 30
0.0
 10
73.796680
 20
5.215692
 30
0.0
 10
73.397674
 20
4.936236
 30
0.0
 10
73.053674
 20
4.591699
 30
0.0
 10
72.773681
 20
4.192609
 30
0.0
 10
72.567687
 20
3.751044
 30
0.0
 10
72.441675
 20
3.280438
 30
0.0
 10
72.399680
 20
2.795072
 30
0.0
 10
72.441675
 20
2.309707
 30
0.0
 10
72.567687
 20
1.839101
 30
0.0
 10
72.773681
 20
1.397536
 30
0.0
 10
73.053674
 20
0.998446
 30
0.0
 10
73.397674
 20
0.653909
 30
0.0
 10
73.796680
 20
0.374452
 30
0.0
 10
74.238697
 20
0.168571
 30
0.0
 10
74.709697
 20
0.042474
 30
0.0
 10
75.194696
 20
-0.000000
 30
0.0
 10
125.194681
 20
-0.000000
 30
0.0
 10
125.194681
 20
66.666700
 30
0.0
  0
LWPOLYLINE
  5
10c
100
AcDbEntity
  8
0
 62
7
100
AcDbPolyline
 90
391
 70
0
 10
61.117116
 20
72.256698
 30
0.0
 10
66.313115
 20
72.256698
 30
0.0
 10
66.313115
 20
105.589998
 30
0.0
 10
116.313114
 20
105.589998
 30
0.0
 10
116.798115
 20
105.547532
 30
0.0
 10
117.269113
 20
105.421436
 30
0.0
 10
117.711116
 20
105.215532
 30
0.0
 10
118.110116
 20
104.936084
 30
0.0
 10
118.454114
 20
104.591555
 30
0.0
 10
118.734115
 20
104.192459
 30
0.0
 10
118.940114
 20
103.750889
 30
0.0
 10
119.066115
 20
103.280278
 30
0.0
 10
119.108116
 20
102.794929
 30
0.0
 10
119.066115
 20
102.309569
 30
0.0
 10
118.940114
 20
101.838957
 30
0.0
 10
118.734115
 20
101.397390
 30
0.0
 10
118.454114
 20
100.998288
 30
0.0
 10
118.110116
 20
100.653768
 30
0.0
 10
117.711116
 20
100.374320
 30
0.0
 10
117.269113
 20
100.168408
 30
0.0
 10
116.798115
 20
100.042320
 30
0.0
 10
116.313114
 20
99.999848
 30
0.0
 10
112.107114
 20
99.999848
 30
0.0
 10
112.016114
 20
99.936100
 30
0.0
 10
111.672116
 20
99.591568
 30
0.0
 10
111.392115
 20
99.192478
 30
0.0
 10
111.187114
 20
98.750899
 30
0.0
 10
111.060114
 20
98.280288
 30
0.0
 10
111.018114
 20
97.794928
 30
0.0
 10
111.060114
 20
97.309567
 30
0.0
 10
111.187114
 20
96.838959
 30
0.0
 10
111.392115
 20
96.397388
 30
0.0
 10
111.672116
 20
95.998290
 30
0.0
 10
112.016114
 20
95.653770
 30
0.0
 10
112.416116
 20
95.374299
 30
0.0
 10
112.565115
 20
95.299400
 30
0.0
 10
112.559104
 20
95.286390
 30
0.0
 10
112.711114
 20
95.215498
 30
0.0
 10
113.110114
 20
94.936098
 30
0.0
 10
113.454115
 20
94.591598
 30
0.0
 10
113.734113
 20
94.192499
 30
0.0
 10
113.940116
 20
93.750898
 30
0.0
 10
114.066114
 20
93.280298
 30
0.0
 10
114.108114
 20
92.794898
 30
0.0
 10
114.066114
 20
92.309600
 30
0.0
 10
113.940116
 20
91.839000
 30
0.0
 10
113.734113
 20
91.397398
 30
0.0
 10
113.454115
 20
90.998300
 30
0.0
 10
113.110114
 20
90.653799
 30
0.0
 10
112.711114
 20
90.374298
 30
0.0
 10
112.269115
 20
90.168400
 30
0.0
 10
111.798114
 20
90.042300
 30
0.0
 10
111.313115
 20
89.999899
 30
0.0
 10
110.828114
 20
90.042300
 30
0.0
 10
110.357116
 20
90.168400
 30
0.0
 10
110.067115
 20
90.303499
 30
0.0
 10
110.061104
 20
90.290404
 30
0.0
 10
96.981114
 20
96.830298
 30
0.0
 10
96.540114
 20
97.036198
 30
0.0
 10
96.069113
 20
97.162298
 30
0.0
 10
95.584114
 20
97.204759
 30
0.0
 10
95.098114
 20
97.162298
 30
0.0
 10
94.628115
 20
97.036198
 30
0.0
 10
94.186115
 20
96.830298
 30
0.0
 10
93.787115
 20
96.550830
 30
0.0
 10
93.442115
 20
96.206318
 30
0.0
 10
93.163113
 20
95.807219
 30
0.0
 10
92.957114
 20
95.365700
 30
0.0
 10
92.831116
 20
94.894998
 30
0.0
 10
92.788113
 20
94.409700
 30
0.0
 10
92.831116
 20
93.924298
 30
0.0
 10
92.957114
 20
93.453698
 30
0.0
 10
93.163113
 20
93.012099
 30
0.0
 10
93.442115
 20
92.613000
 30
0.0
 10
93.787115
 20
92.268500
 30
0.0
 10
94.186115
 20
91.989100
 30
0.0
 10
107.416115
 20
85.374299
 30
0.0
 10
107.567115
 20
85.303498
 30
0.0
 10
107.559128
 20
85.286396
 30
0.0
 10
107.711116
 20
85.215498
 30
0.0
 10
108.110116
 20
84.936098
 30
0.0
 10
108.454114
 20
84.591598
 30
0.0
 10
108.734115
 20
84.192499
 30
0.0
 10
108.940115
 20
83.750898
 30
0.0
 10
109.066116
 20
83.280298
 30
0.0
 10
109.108116
 20
82.794898
 30
0.0
 10
109.066116
 20
82.309597
 30
0.0
 10
108.940115
 20
81.838997
 30
0.0
 10
108.734115
 20
81.397399
 30
0.0
 10
108.454114
 20
80.998300
 30
0.0
 10
108.110116
 20
80.653800
 30
0.0
 10
107.711116
 20
80.374298
 30
0.0
 10
107.269113
 20
80.168400
 30
0.0
 10
106.798116
 20
80.042297
 30
0.0
 10
106.313114
 20
79.999899
 30
0.0
 10
105.828115
 20
80.042297
 30
0.0
 10
105.357114
 20
80.168400
 30
0.0
 10
105.067114
 20
80.303500
 30
0.0
 10
105.061103
 20
80.290405
 30
0.0
 10
76.096114
 20
94.772898
 30
0.0
 10
75.654114
 20
94.978798
 30
0.0
 10
75.184116
 20
95.104898
 30
0.0
 10
74.698115
 20
95.147398
 30
0.0
 10
74.213113
 20
95.104898
 30
0.0
 10
73.742115
 20
94.978798
 30
0.0
 10
73.301115
 20
94.772898
 30
0.0
 10
72.902115
 20
94.493498
 30
0.0
 10
72.557115
 20
94.148899
 30
0.0
 10
72.278116
 20
93.749898
 30
0.0
 10
72.072113
 20
93.308300
 30
0.0
 10
71.946115
 20
92.837700
 30
0.0
 10
71.903116
 20
92.352300
 30
0.0
 10
71.946115
 20
91.866898
 30
0.0
 10
72.072113
 20
91.396298
 30
0.0
 10
72.278116
 20
90.954798
 30
0.0
 10
72.557115
 20
90.555699
 30
0.0
 10
72.902115
 20
90.211100
 30
0.0
 10
73.301115
 20
89.931700
 30
0.0
 10
102.416113
 20
75.374300
 30
0.0
 10
102.567113
 20
75.303498
 30
0.0
 10
102.559127
 20
75.286396
 30
0.0
 10
102.711115
 20
75.215499
 30
0.0
 10
103.110115
 20
74.936099
 30
0.0
 10
103.454115
 20
74.591599
 30
0.0
 10
103.734114
 20
74.192500
 30
0.0
 10
103.940116
 20
73.750898
 30
0.0
 10
104.066114
 20
73.280298
 30
0.0
 10
104.108115
 20
72.794898
 30
0.0
 10
104.066114
 20
72.309598
 30
0.0
 10
103.940116
 20
71.838998
 30
0.0
 10
103.734114
 20
71.397399
 30
0.0
 10
103.454115
 20
70.998300
 30
0.0
 10
103.110115
 20
70.653800
 30
0.0
 10
102.711115
 20
70.374298
 30
0.0
 10
102.269115
 20
70.168397
 30
0.0
 10
101.798114
 20
70.042298
 30
0.0
 10
101.313115
 20
69.999899
 30
0.0
 10
100.828114
 20
70.042298
 30
0.0
 10
100.357116
 20
70.168397
 30
0.0
 10
100.067116
 20
70.303500
 30
0.0
 10
100.061104
 20
70.290405
 30
0.0
 10
76.096114
 20
82.272900
 30
0.0
 10
75.654114
 20
82.478798
 30
0.0
 10
75.184116
 20
82.604898
 30
0.0
 10
74.698115
 20
82.647398
 30
0.0
 10
74.213113
 20
82.604898
 30
0.0
 10
73.742115
 20
82.478798
 30
0.0
 10
73.301115
 20
82.272900
 30
0.0
 10
72.902115
 20
81.993500
 30
0.0
 10
72.557115
 20
81.648898
 30
0.0
 10
72.278116
 20
81.249898
 30
0.0
 10
72.072113
 20
80.808299
 30
0.0
 10
71.946115
 20
80.337699
 30
0.0
 10
71.903116
 20
79.852300
 30
0.0
 10
71.946115
 20
79.366900
 30
0.0
 10
72.072113
 20
78.896297
 30
0.0
 10
72.278116
 20
78.454797
 30
0.0
 10
72.557115
 20
78.055699
 30
0.0
 10
72.902115
 20
77.711100
 30
0.0
 10
73.301115
 20
77.431700
 30
0.0
 10
97.416115
 20
65.374300
 30
0.0
 10
97.567115
 20
65.303499
 30
0.0
 10
97.559100
 20
65.286396
 30
0.0
 10
97.711113
 20
65.215499
 30
0.0
 10
98.110113
 20
64.936099
 30
0.0
 10
98.454114
 20
64.591599
 30
0.0
 10
98.734115
 20
64.192500
 30
0.0
 10
98.940115
 20
63.750898
 30
0.0
 10
99.066116
 20
63.280298
 30
0.0
 10
99.108116
 20
62.794899
 30
0.0
 10
99.066116
 20
62.309598
 30
0.0
 10
98.940115
 20
61.838998
 30
0.0
 10
98.734115
 20
61.397399
 30
0.0
 10
98.454114
 20
60.998297
 30
0.0
 10
98.110113
 20
60.653800
 30
0.0
 10
97.711113
 20
60.374298
 30
0.0
 10
97.269114
 20
60.168398
 30
0.0
 10
96.798116
 20
60.042298
 30
0.0
 10
96.313114
 20
59.999900
 30
0.0
 10
95.828115
 20
60.042298
 30
0.0
 10
95.357115
 20
60.168398
 30
0.0
 10
95.067114
 20
60.303497
 30
0.0
 10
95.061103
 20
60.290402
 30
0.0
 10
76.096114
 20
69.772900
 30
0.0
 10
75.654114
 20
69.978798
 30
0.0
 10
75.184116
 20
70.104897
 30
0.0
 10
74.698115
 20
70.147400
 30
0.0
 10
74.213113
 20
70.104897
 30
0.0
 10
73.742115
 20
69.978798
 30
0.0
 10
73.301115
 20
69.772900
 30
0.0
 10
72.902115
 20
69.493500
 30
0.0
 10
72.557115
 20
69.148898
 30
0.0
 10
72.278116
 20
68.749898
 30
0.0
 10
72.072113
 20
68.308299
 30
0.0
 10
71.946115
 20
67.837699
 30
0.0
 10
71.903116
 20
67.352299
 30
0.0
 10
71.946115
 20
66.866900
 30
0.0
 10
72.072113
 20
66.396300
 30
0.0
 10
72.278116
 20
65.954800
 30
0.0
 10
72.557115
 20
65.555698
 30
0.0
 10
72.902115
 20
65.211099
 30
0.0
 10
73.301115
 20
64.931699
 30
0.0
 10
92.416114
 20
55.374300
 30
0.0
 10
92.567114
 20
55.303499
 30
0.0
 10
92.559127
 20
55.286396
 30
0.0
 10
92.711115
 20
55.215499
 30
0.0
 10
93.110115
 20
54.936099
 30
0.0
 10
93.454116
 20
54.591599
 30
0.0
 10
93.734114
 20
54.192500
 30
0.0
 10
93.940114
 20
53.750899
 30
0.0
 10
94.066114
 20
53.280299
 30
0.0
 10
94.108115
 20
52.794899
 30
0.0
 10
94.066114
 20
52.309598
 30
0.0
 10
93.940114
 20
51.838998
 30
0.0
 10
93.734114
 20
51.397399
 30
0.0
 10
93.454116
 20
50.998298
 30
0.0
 10
93.110115
 20
50.653798
 30
0.0
 10
92.711115
 20
50.374299
 30
0.0
 10
92.269115
 20
50.168398
 30
0.0
 10
91.798115
 20
50.042298
 30
0.0
 10
91.313116
 20
49.999900
 30
0.0
 10
90.828114
 20
50.042298
 30
0.0
 10
90.357113
 20
50.168398
 30
0.0
 10
90.067116
 20
50.303498
 30
0.0
 10
90.061105
 20
50.290403
 30
0.0
 10
76.096114
 20
57.272899
 30
0.0
 10
75.654114
 20
57.478800
 30
0.0
 10
75.184116
 20
57.604900
 30
0.0
 10
74.698115
 20
57.647400
 30
0.0
 10
74.213113
 20
57.604900
 30
0.0
 10
73.742115
 20
57.478800
 30
0.0
 10
73.301115
 20
57.272899
 30
0.0
 10
72.902115
 20
56.993499
 30
0.0
 10
72.557115
 20
56.648897
 30
0.0
 10
72.278116
 20
56.249900
 30
0.0
 10
72.072113
 20
55.808299
 30
0.0
 10
71.946115
 20
55.337699
 30
0.0
 10
71.903116
 20
54.852299
 30
0.0
 10
71.946115
 20
54.366899
 30
0.0
 10
72.072113
 20
53.896299
 30
0.0
 10
72.278116
 20
53.454799
 30
0.0
 10
72.557115
 20
53.055698
 30
0.0
 10
72.902115
 20
52.711099
 30
0.0
 10
73.301115
 20
52.431699
 30
0.0
 10
87.416115
 20
45.374297
 30
0.0
 10
87.567115
 20
45.303499
 30
0.0
 10
87.559100
 20
45.286397
 30
0.0
 10
87.711113
 20
45.215499
 30
0.0
 10
88.110114
 20
44.936099
 30
0.0
 10
88.454114
 20
44.591599
 30
0.0
 10
88.734115
 20
44.192498
 30
0.0
 10
88.940115
 20
43.750899
 30
0.0
 10
89.066113
 20
43.280299
 30
0.0
 10
89.108113
 20
42.794899
 30
0.0
 10
89.066113
 20
42.309598
 30
0.0
 10
88.940115
 20
41.838998
 30
0.0
 10
88.734115
 20
41.397400
 30
0.0
 10
88.454114
 20
40.998298
 30
0.0
 10
88.110114
 20
40.653798
 30
0.0
 10
87.711113
 20
40.374299
 30
0.0
 10
87.269114
 20
40.168398
 30
0.0
 10
86.798116
 20
40.042298
 30
0.0
 10
86.313114
 20
39.999900
 30
0.0
 10
85.828116
 20
40.042298
 30
0.0
 10
85.357115
 20
40.168398
 30
0.0
 10
85.067115
 20
40.303498
 30
0.0
 10
85.061103
 20
40.290403
 30
0.0
 10
76.096114
 20
44.772899
 30
0.0
 10
75.654114
 20
44.978800
 30
0.0
 10
75.184116
 20
45.104899
 30
0.0
 10
74.698115
 20
45.147399
 30
0.0
 10
74.213113
 20
45.104899
 30
0.0
 10
73.742115
 20
44.978800
 30
0.0
 10
73.301115
 20
44.772899
 30
0.0
 10
72.902115
 20
44.493499
 30
0.0
 10
72.557115
 20
44.148900
 30
0.0
 10
72.278116
 20
43.749900
 30
0.0
 10
72.072113
 20
43.308298
 30
0.0
 10
71.946115
 20
42.837698
 30
0.0
 10
71.903116
 20
42.352299
 30
0.0
 10
71.946115
 20
41.866899
 30
0.0
 10
72.072113
 20
41.396299
 30
0.0
 10
72.278116
 20
40.954799
 30
0.0
 10
72.557115
 20
40.555700
 30
0.0
 10
72.902115
 20
40.211098
 30
0.0
 10
73.301115
 20
39.931698
 30
0.0
 10
82.416114
 20
35.374298
 30
0.0
 10
82.567114
 20
35.303499
 30
0.0
 10
82.559127
 20
35.286397
 30
0.0
 10
82.711115
 20
35.215500
 30
0.0
 10
83.110115
 20
34.936100
 30
0.0
 10
83.454116
 20
34.591600
 30
0.0
 10
83.734114
 20
34.192498
 30
0.0
 10
83.940114
 20
33.750899
 30
0.0
 10
84.066115
 20
33.280299
 30
0.0
 10
84.108115
 20
32.794899
 30
0.0
 10
84.066115
 20
32.309599
 30
0.0
 10
83.940114
 20
31.838999
 30
0.0
 10
83.734114
 20
31.397400
 30
0.0
 10
83.454116
 20
30.998298
 30
0.0
 10
83.110115
 20
30.653798
 30
0.0
 10
82.711115
 20
30.374299
 30
0.0
 10
82.269116
 20
30.168398
 30
0.0
 10
81.798115
 20
30.042299
 30
0.0
 10
81.313113
 20
29.999898
 30
0.0
 10
80.828114
 20
30.042299
 30
0.0
 10
80.357114
 20
30.168398
 30
0.0
 10
80.067116
 20
30.303498
 30
0.0
 10
80.061105
 20
30.290403
 30
0.0
 10
76.096114
 20
32.272898
 30
0.0
 10
75.654114
 20
32.478799
 30
0.0
 10
75.184116
 20
32.604899
 30
0.0
 10
74.698115
 20
32.647399
 30
0.0
 10
74.213113
 20
32.604899
 30
0.0
 10
73.742115
 20
32.478799
 30
0.0
 10
73.301115
 20
32.272898
 30
0.0
 10
72.902115
 20
31.993498
 30
0.0
 10
72.557115
 20
31.648899
 30
0.0
 10
72.278116
 20
31.249899
 30
0.0
 10
72.072113
 20
30.808298
 30
0.0
 10
71.946115
 20
30.337698
 30
0.0
 10
71.903116
 20
29.852298
 30
0.0
 10
71.946115
 20
29.366899
 30
0.0
 10
72.072113
 20
28.896299
 30
0.0
 10
72.278116
 20
28.454799
 30
0.0
 10
72.557115
 20
28.055700
 30
0.0
 10
72.902115
 20
27.711098
 30
0.0
 10
73.301115
 20
27.431698
 30
0.0
 10
77.416115
 20
25.374298
 30
0.0
 10
77.567115
 20
25.303500
 30
0.0
 10
77.559129
 20
25.286397
 30
0.0
 10
77.711114
 20
25.215500
 30
0.0
 10
78.110114
 20
24.936100
 30
0.0
 10
78.454115
 20
24.591600
 30
0.0
 10
78.734116
 20
24.192498
 30
0.0
 10
78.940115
 20
23.750899
 30
0.0
 10
79.066113
 20
23.280299
 30
0.0
 10
79.108114
 20
22.794900
 30
0.0
 10
79.066113
 20
22.309599
 30
0.0
 10
78.940115
 20
21.838999
 30
0.0
 10
78.734116
 20
21.397400
 30
0.0
 10
78.454115
 20
20.998298
 30
0.0
 10
78.110114
 20
20.653798
 30
0.0
 10
77.711114
 20
20.374299
 30
0.0
 10
77.269114
 20
20.168399
 30
0.0
 10
76.798114
 20
20.042299
 30
0.0
 10
76.313115
 20
19.999898
 30
0.0
 10
75.828116
 20
20.042299
 30
0.0
 10
75.357115
 20
20.168399
 30
0.0
 10
75.067115
 20
20.303498
 30
0.0
 10
75.059100
 20
20.286396
 30
0.0
 10
74.769114
 20
20.421498
 30
0.0
 10
74.298116
 20
20.547598
 30
0.0
 10
73.813114
 20
20.589999
 30
0.0
 10
73.328115
 20
20.547598
 30
0.0
 10
72.857114
 20
20.421498
 30
0.0
 10
72.416114
 20
20.215499
 30
0.0
 10
72.016115
 20
19.936099
 30
0.0
 10
71.672114
 20
19.591598
 30
0.0
 10
71.392116
 20
19.192500
 30
0.0
 10
71.187115
 20
18.750898
 30
0.0
 10
71.060115
 20
18.280298
 30
0.0
 10
71.018115
 20
17.794898
 30
0.0
 10
71.060115
 20
17.309598
 30
0.0
 10
71.187115
 20
16.838998
 30
0.0
 10
71.392116
 20
16.397399
 30
0.0
 10
71.672114
 20
15.998300
 30
0.0
 10
72.016115
 20
15.653800
 30
0.0
 10
72.416114
 20
15.374298
 30
0.0
 10
72.565113
 20
15.299399
 30
0.0
 10
72.559102
 20
15.286389
 30
0.0
 10
72.711115
 20
15.215497
 30
0.0
 10
73.110115
 20
14.936097
 30
0.0
 10
73.454113
 20
14.591594
 30
0.0
 10
73.734114
 20
14.192504
 30
0.0
 10
73.940114
 20
13.750911
 30
0.0
 10
74.066115
 20
13.280305
 30
0.0
 10
74.108115
 20
12.794911
 30
0.0
 10
74.066115
 20
12.309602
 30
0.0
 10
73.940114
 20
11.838996
 30
0.0
 10
73.734114
 20
11.397403
 30
0.0
 10
73.454113
 20
10.998313
 30
0.0
 10
73.110115
 20
10.653804
 30
0.0
 10
72.711115
 20
10.374291
 30
0.0
 10
72.269116
 20
10.168410
 30
0.0
 10
71.798115
 20
10.042285
 30
0.0
 10
71.313116
 20
9.999895
 30
0.0
 10
70.828114
 20
10.042285
 30
0.0
 10
70.357114
 20
10.168410
 30
0.0
 10
70.067114
 20
10.303510
 30
0.0
 10
70.059127
 20
10.286294
 30
0.0
  0
LWPOLYLINE
  5
10d
100
AcDbEntity
  8
0
 62
7
100
AcDbPolyline
 90
31
 70
0
 10
70.059115
 20
10.286407
 30
0.0
 10
69.769115
 20
10.421507
 30
0.0
 10
69.298114
 20
10.547604
 30
0.0
 10
69.108114
 20
10.564255
 30
0.0
 10
69.108114
 20
2.794988
 30
0.0
 10
69.066114
 20
2.309989
 30
0.0
 10
68.940116
 20
1.838988
 30
0.0
 10
68.734116
 20
1.397000
 30
0.0
 10
68.454115
 20
0.997994
 30
0.0
 10
68.110114
 20
0.653993
 30
0.0
 10
67.711114
 20
0.374001
 30
0.0
 10
67.269114
 20
0.168007
 30
0.0
 10
66.798114
 20
0.041995
 30
0.0
 10
66.313115
 20
-0.000000
 30
0.0
 10
66.313115
 20
38.923299
 30
0.0
 10
61.117116
 20
38.923299
 30
0.0
 10
61.117116
 20
-0.000000
 30
0.0
 10
60.632114
 20
0.041995
 30
0.0
 10
60.161114
 20
0.168007
 30
0.0
 10
59.719114
 20
0.374001
 30
0.0
 10
59.320114
 20
0.653993
 30
0.0
 10
58.976113
 20
0.997994
 30
0.0
 10
58.696115
 20
1.397000
 30
0.0
 10
58.490115
 20
1.838988
 30
0.0
 10
58.364114
 20
2.309989
 30
0.0
 10
58.322114
 20
2.794988
 30
0.0
 10
58.322114
 20
10.564199
 30
0.0
 10
58.132114
 20
10.547547
 30
0.0
 10
57.661116
 20
10.421507
 30
0.0
 10
57.371115
 20
10.286407
 30
0.0
 10
57.363100
 20
10.303623
 30
0.0
  0
LWPOLYLINE
  5
10e
100
AcDbEntity
  8
0
 62
7
100
AcDbPolyline
 90
389
 70
0
 10
57.363114
 20
10.303510
 30
0.0
 10
57.073114
 20
10.168410
 30
0.0
 10
56.602114
 20
10.042285
 30
0.0
 10
56.117115
 20
9.999895
 30
0.0
 10
55.632116
 20
10.042285
 30
0.0
 10
55.161115
 20
10.168410
 30
0.0
 10
54.719116
 20
10.374291
 30
0.0
 10
54.320115
 20
10.653804
 30
0.0
 10
53.976115
 20
10.998313
 30
0.0
 10
53.696114
 20
11.397403
 30
0.0
 10
53.490114
 20
11.838996
 30
0.0
 10
53.364116
 20
12.309602
 30
0.0
 10
53.322116
 20
12.794911
 30
0.0
 10
53.364116
 20
13.280305
 30
0.0
 10
53.490114
 20
13.750911
 30
0.0
 10
53.696114
 20
14.192504
 30
0.0
 10
53.976115
 20
14.591594
 30
0.0
 10
54.320115
 20
14.936097
 30
0.0
 10
54.719116
 20
15.215497
 30
0.0
 10
54.871115
 20
15.286400
 30
0.0
 10
54.865103
 20
15.299411
 30
0.0
 10
55.014114
 20
15.374298
 30
0.0
 10
55.414113
 20
15.653800
 30
0.0
 10
55.758114
 20
15.998300
 30
0.0
 10
56.038115
 20
16.397399
 30
0.0
 10
56.243116
 20
16.838998
 30
0.0
 10
56.370116
 20
17.309598
 30
0.0
 10
56.412116
 20
17.794898
 30
0.0
 10
56.370116
 20
18.280298
 30
0.0
 10
56.243116
 20
18.750898
 30
0.0
 10
56.038115
 20
19.192500
 30
0.0
 10
55.758114
 20
19.591598
 30
0.0
 10
55.414113
 20
19.936099
 30
0.0
 10
55.014114
 20
20.215499
 30
0.0
 10
54.573114
 20
20.421498
 30
0.0
 10
54.102116
 20
20.547598
 30
0.0
 10
53.617114
 20
20.589999
 30
0.0
 10
53.132115
 20
20.547598
 30
0.0
 10
52.661114
 20
20.421498
 30
0.0
 10
52.371114
 20
20.286399
 30
0.0
 10
52.363127
 20
20.303501
 30
0.0
 10
52.073116
 20
20.168399
 30
0.0
 10
51.602115
 20
20.042299
 30
0.0
 10
51.117113
 20
19.999898
 30
0.0
 10
50.632114
 20
20.042299
 30
0.0
 10
50.161114
 20
20.168399
 30
0.0
 10
49.719114
 20
20.374299
 30
0.0
 10
49.320114
 20
20.653798
 30
0.0
 10
48.976113
 20
20.998298
 30
0.0
 10
48.696115
 20
21.397400
 30
0.0
 10
48.490116
 20
21.838999
 30
0.0
 10
48.364115
 20
22.309599
 30
0.0
 10
48.322114
 20
22.794900
 30
0.0
 10
48.364115
 20
23.280299
 30
0.0
 10
48.490116
 20
23.750899
 30
0.0
 10
48.696115
 20
24.192498
 30
0.0
 10
48.976113
 20
24.591600
 30
0.0
 10
49.320114
 20
24.936100
 30
0.0
 10
49.719114
 20
25.215500
 30
0.0
 10
49.871114
 20
25.286400
 30
0.0
 10
49.863127
 20
25.303502
 30
0.0
 10
50.014116
 20
25.374298
 30
0.0
 10
54.129116
 20
27.431698
 30
0.0
 10
54.528113
 20
27.711098
 30
0.0
 10
54.873116
 20
28.055700
 30
0.0
 10
55.152115
 20
28.454799
 30
0.0
 10
55.358115
 20
28.896299
 30
0.0
 10
55.484116
 20
29.366899
 30
0.0
 10
55.527115
 20
29.852298
 30
0.0
 10
55.484116
 20
30.337698
 30
0.0
 10
55.358115
 20
30.808298
 30
0.0
 10
55.152115
 20
31.249899
 30
0.0
 10
54.873116
 20
31.648899
 30
0.0
 10
54.528113
 20
31.993498
 30
0.0
 10
54.129116
 20
32.272898
 30
0.0
 10
53.688115
 20
32.478799
 30
0.0
 10
53.217115
 20
32.604899
 30
0.0
 10
52.732116
 20
32.647399
 30
0.0
 10
52.246115
 20
32.604899
 30
0.0
 10
51.776114
 20
32.478799
 30
0.0
 10
51.334114
 20
32.272898
 30
0.0
 10
47.369115
 20
30.290397
 30
0.0
 10
47.363103
 20
30.303492
 30
0.0
 10
47.073114
 20
30.168398
 30
0.0
 10
46.602114
 20
30.042299
 30
0.0
 10
46.117115
 20
29.999898
 30
0.0
 10
45.632116
 20
30.042299
 30
0.0
 10
45.161115
 20
30.168398
 30
0.0
 10
44.719116
 20
30.374299
 30
0.0
 10
44.320116
 20
30.653798
 30
0.0
 10
43.976115
 20
30.998298
 30
0.0
 10
43.696114
 20
31.397400
 30
0.0
 10
43.490114
 20
31.838999
 30
0.0
 10
43.364113
 20
32.309599
 30
0.0
 10
43.322116
 20
32.794899
 30
0.0
 10
43.364113
 20
33.280299
 30
0.0
 10
43.490114
 20
33.750899
 30
0.0
 10
43.696114
 20
34.192498
 30
0.0
 10
43.976115
 20
34.591600
 30
0.0
 10
44.320116
 20
34.936100
 30
0.0
 10
44.719116
 20
35.215500
 30
0.0
 10
44.871115
 20
35.286400
 30
0.0
 10
44.863100
 20
35.303502
 30
0.0
 10
45.014114
 20
35.374298
 30
0.0
 10
54.129116
 20
39.931698
 30
0.0
 10
54.528113
 20
40.211098
 30
0.0
 10
54.873116
 20
40.555700
 30
0.0
 10
55.152115
 20
40.954799
 30
0.0
 10
55.358115
 20
41.396299
 30
0.0
 10
55.484116
 20
41.866899
 30
0.0
 10
55.527115
 20
42.352299
 30
0.0
 10
55.484116
 20
42.837698
 30
0.0
 10
55.358115
 20
43.308298
 30
0.0
 10
55.152115
 20
43.749900
 30
0.0
 10
54.873116
 20
44.148900
 30
0.0
 10
54.528113
 20
44.493499
 30
0.0
 10
54.129116
 20
44.772899
 30
0.0
 10
53.688115
 20
44.978800
 30
0.0
 10
53.217115
 20
45.104899
 30
0.0
 10
52.732116
 20
45.147399
 30
0.0
 10
52.246115
 20
45.104899
 30
0.0
 10
51.776114
 20
44.978800
 30
0.0
 10
51.334114
 20
44.772899
 30
0.0
 10
42.369113
 20
40.290400
 30
0.0
 10
42.363102
 20
40.303495
 30
0.0
 10
42.073116
 20
40.168398
 30
0.0
 10
41.602115
 20
40.042298
 30
0.0
 10
41.117114
 20
39.999900
 30
0.0
 10
40.632115
 20
40.042298
 30
0.0
 10
40.161114
 20
40.168398
 30
0.0
 10
39.719115
 20
40.374299
 30
0.0
 10
39.320114
 20
40.653798
 30
0.0
 10
38.976114
 20
40.998298
 30
0.0
 10
38.696115
 20
41.397400
 30
0.0
 10
38.490116
 20
41.838998
 30
0.0
 10
38.364115
 20
42.309598
 30
0.0
 10
38.322115
 20
42.794899
 30
0.0
 10
38.364115
 20
43.280299
 30
0.0
 10
38.490116
 20
43.750899
 30
0.0
 10
38.696115
 20
44.192498
 30
0.0
 10
38.976114
 20
44.591599
 30
0.0
 10
39.320114
 20
44.936099
 30
0.0
 10
39.719115
 20
45.215499
 30
0.0
 10
39.871114
 20
45.286399
 30
0.0
 10
39.863127
 20
45.303502
 30
0.0
 10
40.014116
 20
45.374297
 30
0.0
 10
54.129116
 20
52.431699
 30
0.0
 10
54.528113
 20
52.711099
 30
0.0
 10
54.873116
 20
53.055698
 30
0.0
 10
55.152115
 20
53.454799
 30
0.0
 10
55.358115
 20
53.896299
 30
0.0
 10
55.484116
 20
54.366899
 30
0.0
 10
55.527115
 20
54.852299
 30
0.0
 10
55.484116
 20
55.337699
 30
0.0
 10
55.358115
 20
55.808299
 30
0.0
 10
55.152115
 20
56.249900
 30
0.0
 10
54.873116
 20
56.648897
 30
0.0
 10
54.528113
 20
56.993499
 30
0.0
 10
54.129116
 20
57.272899
 30
0.0
 10
53.688115
 20
57.478800
 30
0.0
 10
53.217115
 20
57.604900
 30
0.0
 10
52.732116
 20
57.647400
 30
0.0
 10
52.246115
 20
57.604900
 30
0.0
 10
51.776114
 20
57.478800
 30
0.0
 10
51.334114
 20
57.272899
 30
0.0
 10
37.369115
 20
50.290400
 30
0.0
 10
37.363104
 20
50.303495
 30
0.0
 10
37.073115
 20
50.168398
 30
0.0
 10
36.602114
 20
50.042298
 30
0.0
 10
36.117115
 20
49.999900
 30
0.0
 10
35.632113
 20
50.042298
 30
0.0
 10
35.161116
 20
50.168398
 30
0.0
 10
34.719113
 20
50.374299
 30
0.0
 10
34.320116
 20
50.653798
 30
0.0
 10
33.976115
 20
50.998298
 30
0.0
 10
33.696114
 20
51.397399
 30
0.0
 10
33.490114
 20
51.838998
 30
0.0
 10
33.364114
 20
52.309598
 30
0.0
 10
33.322116
 20
52.794899
 30
0.0
 10
33.364114
 20
53.280299
 30
0.0
 10
33.490114
 20
53.750899
 30
0.0
 10
33.696114
 20
54.192500
 30
0.0
 10
33.976115
 20
54.591599
 30
0.0
 10
34.320116
 20
54.936099
 30
0.0
 10
34.719113
 20
55.215499
 30
0.0
 10
34.871115
 20
55.286399
 30
0.0
 10
34.863128
 20
55.303502
 30
0.0
 10
35.014114
 20
55.374300
 30
0.0
 10
54.129116
 20
64.931699
 30
0.0
 10
54.528113
 20
65.211099
 30
0.0
 10
54.873116
 20
65.555698
 30
0.0
 10
55.152115
 20
65.954800
 30
0.0
 10
55.358115
 20
66.396300
 30
0.0
 10
55.484116
 20
66.866900
 30
0.0
 10
55.527115
 20
67.352299
 30
0.0
 10
55.484116
 20
67.837699
 30
0.0
 10
55.358115
 20
68.308299
 30
0.0
 10
55.152115
 20
68.749898
 30
0.0
 10
54.873116
 20
69.148898
 30
0.0
 10
54.528113
 20
69.493500
 30
0.0
 10
54.129116
 20
69.772900
 30
0.0
 10
53.688115
 20
69.978798
 30
0.0
 10
53.217115
 20
70.104897
 30
0.0
 10
52.732116
 20
70.147400
 30
0.0
 10
52.246115
 20
70.104897
 30
0.0
 10
51.776114
 20
69.978798
 30
0.0
 10
51.334114
 20
69.772900
 30
0.0
 10
32.369114
 20
60.290399
 30
0.0
 10
32.363102
 20
60.303495
 30
0.0
 10
32.073113
 20
60.168398
 30
0.0
 10
31.602116
 20
60.042298
 30
0.0
 10
31.117114
 20
59.999900
 30
0.0
 10
30.632115
 20
60.042298
 30
0.0
 10
30.161114
 20
60.168398
 30
0.0
 10
29.719115
 20
60.374298
 30
0.0
 10
29.320115
 20
60.653800
 30
0.0
 10
28.976114
 20
60.998297
 30
0.0
 10
28.696116
 20
61.397399
 30
0.0
 10
28.490116
 20
61.838998
 30
0.0
 10
28.364115
 20
62.309598
 30
0.0
 10
28.322115
 20
62.794899
 30
0.0
 10
28.364115
 20
63.280298
 30
0.0
 10
28.490116
 20
63.750898
 30
0.0
 10
28.696116
 20
64.192500
 30
0.0
 10
28.976114
 20
64.591599
 30
0.0
 10
29.320115
 20
64.936099
 30
0.0
 10
29.719115
 20
65.215499
 30
0.0
 10
29.871114
 20
65.286399
 30
0.0
 10
29.863127
 20
65.303502
 30
0.0
 10
30.014113
 20
65.374300
 30
0.0
 10
54.129116
 20
77.431700
 30
0.0
 10
54.528113
 20
77.711100
 30
0.0
 10
54.873116
 20
78.055699
 30
0.0
 10
55.152115
 20
78.454797
 30
0.0
 10
55.358115
 20
78.896297
 30
0.0
 10
55.484116
 20
79.366900
 30
0.0
 10
55.527115
 20
79.852300
 30
0.0
 10
55.484116
 20
80.337699
 30
0.0
 10
55.358115
 20
80.808299
 30
0.0
 10
55.152115
 20
81.249898
 30
0.0
 10
54.873116
 20
81.648898
 30
0.0
 10
54.528113
 20
81.993500
 30
0.0
 10
54.129116
 20
82.272900
 30
0.0
 10
53.688115
 20
82.478798
 30
0.0
 10
53.217115
 20
82.604898
 30
0.0
 10
52.732116
 20
82.647398
 30
0.0
 10
52.246115
 20
82.604898
 30
0.0
 10
51.776114
 20
82.478798
 30
0.0
 10
51.334114
 20
82.272900
 30
0.0
 10
27.369115
 20
70.290399
 30
0.0
 10
27.363104
 20
70.303494
 30
0.0
 10
27.073115
 20
70.168397
 30
0.0
 10
26.602114
 20
70.042298
 30
0.0
 10
26.117115
 20
69.999899
 30
0.0
 10
25.632114
 20
70.042298
 30
0.0
 10
25.161116
 20
70.168397
 30
0.0
 10
24.719113
 20
70.374298
 30
0.0
 10
24.320116
 20
70.653800
 30
0.0
 10
23.976116
 20
70.998300
 30
0.0
 10
23.696114
 20
71.397399
 30
0.0
 10
23.490115
 20
71.838998
 30
0.0
 10
23.364114
 20
72.309598
 30
0.0
 10
23.322113
 20
72.794898
 30
0.0
 10
23.364114
 20
73.280298
 30
0.0
 10
23.490115
 20
73.750898
 30
0.0
 10
23.696114
 20
74.192500
 30
0.0
 10
23.976116
 20
74.591599
 30
0.0
 10
24.320116
 20
74.936099
 30
0.0
 10
24.719113
 20
75.215499
 30
0.0
 10
24.871116
 20
75.286399
 30
0.0
 10
24.863100
 20
75.303501
 30
0.0
 10
25.014115
 20
75.374300
 30
0.0
 10
54.129116
 20
89.931700
 30
0.0
 10
54.528113
 20
90.211100
 30
0.0
 10
54.873116
 20
90.555699
 30
0.0
 10
55.152115
 20
90.954798
 30
0.0
 10
55.358115
 20
91.396298
 30
0.0
 10
55.484116
 20
91.866898
 30
0.0
 10
55.527115
 20
92.352300
 30
0.0
 10
55.484116
 20
92.837700
 30
0.0
 10
55.358115
 20
93.308300
 30
0.0
 10
55.152115
 20
93.749898
 30
0.0
 10
54.873116
 20
94.148899
 30
0.0
 10
54.528113
 20
94.493498
 30
0.0
 10
54.129116
 20
94.772898
 30
0.0
 10
53.688115
 20
94.978798
 30
0.0
 10
53.217115
 20
95.104898
 30
0.0
 10
52.732116
 20
95.147398
 30
0.0
 10
52.246115
 20
95.104898
 30
0.0
 10
51.776114
 20
94.978798
 30
0.0
 10
51.334114
 20
94.772898
 30
0.0
 10
22.369114
 20
80.290399
 30
0.0
 10
22.363103
 20
80.303494
 30
0.0
 10
22.073114
 20
80.168400
 30
0.0
 10
21.602116
 20
80.042297
 30
0.0
 10
21.117114
 20
79.999899
 30
0.0
 10
20.632115
 20
80.042297
 30
0.0
 10
20.161115
 20
80.168400
 30
0.0
 10
19.719115
 20
80.374298
 30
0.0
 10
19.320115
 20
80.653800
 30
0.0
 10
18.976114
 20
80.998300
 30
0.0
 10
18.696116
 20
81.397399
 30
0.0
 10
18.490113
 20
81.838997
 30
0.0
 10
18.364115
 20
82.309597
 30
0.0
 10
18.322115
 20
82.794898
 30
0.0
 10
18.364115
 20
83.280298
 30
0.0
 10
18.490113
 20
83.750898
 30
0.0
 10
18.696116
 20
84.192499
 30
0.0
 10
18.976114
 20
84.591598
 30
0.0
 10
19.320115
 20
84.936098
 30
0.0
 10
19.719115
 20
85.215498
 30
0.0
 10
19.871114
 20
85.286398
 30
0.0
 10
19.863099
 20
85.303501
 30
0.0
 10
20.014113
 20
85.374299
 30
0.0
 10
33.244115
 20
91.989100
 30
0.0
 10
33.643116
 20
92.268500
 30
0.0
 10
33.988115
 20
92.613000
 30
0.0
 10
34.267115
 20
93.012099
 30
0.0
 10
34.473114
 20
93.453698
 30
0.0
 10
34.599115
 20
93.924298
 30
0.0
 10
34.642115
 20
94.409700
 30
0.0
 10
34.599115
 20
94.894998
 30
0.0
 10
34.473114
 20
95.365700
 30
0.0
 10
34.267115
 20
95.807219
 30
0.0
 10
33.988115
 20
96.206318
 30
0.0
 10
33.643116
 20
96.550830
 30
0.0
 10
33.244115
 20
96.830298
 30
0.0
 10
32.802113
 20
97.036198
 30
0.0
 10
32.332114
 20
97.162298
 30
0.0
 10
31.846114
 20
97.204759
 30
0.0
 10
31.361115
 20
97.162298
 30
0.0
 10
30.890114
 20
97.036198
 30
0.0
 10
30.449114
 20
96.830298
 30
0.0
 10
17.369115
 20
90.290399
 30
0.0
 10
17.363104
 20
90.303494
 30
0.0
 10
17.073115
 20
90.168400
 30
0.0
 10
16.602115
 20
90.042300
 30
0.0
 10
16.117116
 20
89.999899
 30
0.0
 10
15.632114
 20
90.042300
 30
0.0
 10
15.161113
 20
90.168400
 30
0.0
 10
14.719114
 20
90.374298
 30
0.0
 10
14.320114
 20
90.653799
 30
0.0
 10
13.976116
 20
90.998300
 30
0.0
 10
13.696115
 20
91.397398
 30
0.0
 10
13.490115
 20
91.839000
 30
0.0
 10
13.364114
 20
92.309600
 30
0.0
 10
13.322114
 20
92.794898
 30
0.0
 10
13.364114
 20
93.280298
 30
0.0
 10
13.490115
 20
93.750898
 30
0.0
 10
13.696115
 20
94.192499
 30
0.0
 10
13.976116
 20
94.591598
 30
0.0
 10
14.320114
 20
94.936098
 30
0.0
 10
14.719114
 20
95.215498
 30
0.0
 10
14.871116
 20
95.286398
 30
0.0
 10
14.865104
 20
95.299409
 30
0.0
 10
15.014115
 20
95.374299
 30
0.0
 10
15.414114
 20
95.653770
 30
0.0
 10
15.758115
 20
95.998290
 30
0.0
 10
16.038116
 20
96.397388
 30
0.0
 10
16.243114
 20
96.838959
 30
0.0
 10
16.370114
 20
97.309567
 30
0.0
 10
16.412114
 20
97.794928
 30
0.0
 10
16.370114
 20
98.280288
 30
0.0
 10
16.243114
 20
98.750899
 30
0.0
 10
16.038116
 20
99.192478
 30
0.0
 10
15.758115
 20
99.591568
 30
0.0
 10
15.414114
 20
99.936100
 30
0.0
 10
15.323114
 20
99.999848
 30
0.0
 10
11.117114
 20
99.999848
 30
0.0
 10
10.632115
 20
100.042320
 30
0.0
 10
10.161115
 20
100.168408
 30
0.0
 10
9.719115
 20
100.374320
 30
0.0
 10
9.320115
 20
100.653768
 30
0.0
 10
8.976114
 20
100.998288
 30
0.0
 10
8.696116
 20
101.397390
 30
0.0
 10
8.490114
 20
101.838957
 30
0.0
 10
8.364116
 20
102.309569
 30
0.0
 10
8.322115
 20
102.794929
 30
0.0
 10
8.364116
 20
103.280278
 30
0.0
 10
8.490114
 20
103.750889
 30
0.0
 10
8.696116
 20
104.192459
 30
0.0
 10
8.976114
 20
104.591555
 30
0.0
 10
9.320115
 20
104.936084
 30
0.0
 10
9.719115
 20
105.215532
 30
0.0
 10
10.161115
 20
105.421436
 30
0.0
 10
10.632115
 20
105.547532
 30
0.0
 10
11.117114
 20
105.589998
 30
0.0
 10
61.117116
 20
105.589998
 30
0.0
 10
61.117116
 20
72.256698
 30
0.0
  0
LWPOLYLINE
  5
10f
100
AcDbEntity
  8
0
 62
7
100
AcDbPolyline
 90
805
 70
0
 10
53.083400
 20
0.042465
 30
0.0
 10
53.554000
 20
0.168564
 30
0.0
 10
53.995600
 20
0.374466
 30
0.0
 10
54.394700
 20
0.653915
 30
0.0
 10
54.739200
 20
0.998444
 30
0.0
 10
55.018700
 20
1.397540
 30
0.0
 10
55.224600
 20
1.839110
 30
0.0
 10
55.350700
 20
2.309720
 30
0.0
 10
55.393100
 20
2.795070
 30
0.0
 10
55.350700
 20
3.280430
 30
0.0
 10
55.224600
 20
3.751040
 30
0.0
 10
55.018700
 20
4.192610
 30
0.0
 10
54.739200
 20
4.591710
 30
0.0
 10
54.394700
 20
4.936230
 30
0.0
 10
53.995600
 20
5.215680
 30
0.0
 10
53.554000
 20
5.421590
 30
0.0
 10
53.083400
 20
5.547680
 30
0.0
 10
52.598100
 20
5.590150
 30
0.0
 10
48.392500
 20
5.590150
 30
0.0
 10
48.301400
 20
5.653900
 30
0.0
 10
47.956900
 20
5.998430
 30
0.0
 10
47.677400
 20
6.397520
 30
0.0
 10
47.471500
 20
6.839100
 30
0.0
 10
47.345400
 20
7.309710
 30
0.0
 10
47.303000
 20
7.795070
 30
0.0
 10
47.345400
 20
8.280430
 30
0.0
 10
47.471500
 20
8.751040
 30
0.0
 10
47.677400
 20
9.192610
 30
0.0
 10
47.956900
 20
9.591710
 30
0.0
 10
48.301400
 20
9.936230
 30
0.0
 10
48.700500
 20
10.215700
 30
0.0
 10
48.850300
 20
10.290600
 30
0.0
 10
48.843800
 20
10.303600
 30
0.0
 10
48.995600
 20
10.374500
 30
0.0
 10
49.394700
 20
10.653900
 30
0.0
 10
49.739200
 20
10.998400
 30
0.0
 10
50.018700
 20
11.397500
 30
0.0
 10
50.224600
 20
11.839100
 30
0.0
 10
50.350700
 20
12.309700
 30
0.0
 10
50.393100
 20
12.795100
 30
0.0
 10
50.350700
 20
13.280400
 30
0.0
 10
50.224600
 20
13.751000
 30
0.0
 10
50.018700
 20
14.192600
 30
0.0
 10
49.739200
 20
14.591700
 30
0.0
 10
49.394700
 20
14.936200
 30
0.0
 10
48.995600
 20
15.215700
 30
0.0
 10
48.554000
 20
15.421600
 30
0.0
 10
48.083400
 20
15.547700
 30
0.0
 10
47.598100
 20
15.590100
 30
0.0
 10
47.112700
 20
15.547700
 30
0.0
 10
46.642100
 20
15.421600
 30
0.0
 10
46.352400
 20
15.286500
 30
0.0
 10
46.345800
 20
15.299600
 30
0.0
 10
33.266100
 20
8.759700
 30
0.0
 10
32.824500
 20
8.553800
 30
0.0
 10
32.353900
 20
8.427700
 30
0.0
 10
31.868600
 20
8.385240
 30
0.0
 10
31.383200
 20
8.427700
 30
0.0
 10
30.912600
 20
8.553800
 30
0.0
 10
30.471000
 20
8.759700
 30
0.0
 10
30.071900
 20
9.039170
 30
0.0
 10
29.727400
 20
9.383680
 30
0.0
 10
29.448000
 20
9.782780
 30
0.0
 10
29.242100
 20
10.224300
 30
0.0
 10
29.116000
 20
10.695000
 30
0.0
 10
29.073500
 20
11.180300
 30
0.0
 10
29.116000
 20
11.665700
 30
0.0
 10
29.242100
 20
12.136300
 30
0.0
 10
29.448000
 20
12.577900
 30
0.0
 10
29.727400
 20
12.977000
 30
0.0
 10
30.071900
 20
13.321500
 30
0.0
 10
30.471000
 20
13.600900
 30
0.0
 10
43.700500
 20
20.215700
 30
0.0
 10
43.852400
 20
20.286500
 30
0.0
 10
43.843800
 20
20.303600
 30
0.0
 10
43.995600
 20
20.374500
 30
0.0
 10
44.394700
 20
20.653900
 30
0.0
 10
44.739200
 20
20.998400
 30
0.0
 10
45.018700
 20
21.397500
 30
0.0
 10
45.224600
 20
21.839100
 30
0.0
 10
45.350700
 20
22.309700
 30
0.0
 10
45.393100
 20
22.795100
 30
0.0
 10
45.350700
 20
23.280400
 30
0.0
 10
45.224600
 20
23.751000
 30
0.0
 10
45.018700
 20
24.192600
 30
0.0
 10
44.739200
 20
24.591700
 30
0.0
 10
44.394700
 20
24.936200
 30
0.0
 10
43.995600
 20
25.215700
 30
0.0
 10
43.554000
 20
25.421600
 30
0.0
 10
43.083400
 20
25.547700
 30
0.0
 10
42.598100
 20
25.590100
 30
0.0
 10
42.112700
 20
25.547700
 30
0.0
 10
41.642100
 20
25.421600
 30
0.0
 10
41.352400
 20
25.286500
 30
0.0
 10
41.345800
 20
25.299600
 30
0.0
 10
12.380900
 20
10.817100
 30
0.0
 10
11.939300
 20
10.611200
 30
0.0
 10
11.468700
 20
10.485100
 30
0.0
 10
10.983300
 20
10.442600
 30
0.0
 10
10.498000
 20
10.485100
 30
0.0
 10
10.027300
 20
10.611200
 30
0.0
 10
9.585770
 20
10.817100
 30
0.0
 10
9.186680
 20
11.096500
 30
0.0
 10
8.842160
 20
11.441100
 30
0.0
 10
8.562700
 20
11.840100
 30
0.0
 10
8.356800
 20
12.281700
 30
0.0
 10
8.230700
 20
12.752300
 30
0.0
 10
8.188230
 20
13.237700
 30
0.0
 10
8.230700
 20
13.723100
 30
0.0
 10
8.356800
 20
14.193700
 30
0.0
 10
8.562700
 20
14.635200
 30
0.0
 10
8.842160
 20
15.034300
 30
0.0
 10
9.186680
 20
15.378900
 30
0.0
 10
9.585770
 20
15.658300
 30
0.0
 10
38.700500
 20
30.215700
 30
0.0
 10
38.852400
 20
30.286500
 30
0.0
 10
38.843800
 20
30.303600
 30
0.0
 10
38.995600
 20
30.374500
 30
0.0
 10
39.394700
 20
30.653900
 30
0.0
 10
39.739200
 20
30.998400
 30
0.0
 10
40.018700
 20
31.397500
 30
0.0
 10
40.224600
 20
31.839100
 30
0.0
 10
40.350700
 20
32.309700
 30
0.0
 10
40.393100
 20
32.795100
 30
0.0
 10
40.350700
 20
33.280400
 30
0.0
 10
40.224600
 20
33.751000
 30
0.0
 10
40.018700
 20
34.192600
 30
0.0
 10
39.739200
 20
34.591700
 30
0.0
 10
39.394700
 20
34.936200
 30
0.0
 10
38.995600
 20
35.215700
 30
0.0
 10
38.554000
 20
35.421600
 30
0.0
 10
38.083400
 20
35.547700
 30
0.0
 10
37.598100
 20
35.590100
 30
0.0
 10
37.112700
 20
35.547700
 30
0.0
 10
36.642100
 20
35.421600
 30
0.0
 10
36.352400
 20
35.286500
 30
0.0
 10
36.345800
 20
35.299600
 30
0.0
 10
12.380900
 20
23.317100
 30
0.0
 10
11.939300
 20
23.111200
 30
0.0
 10
11.468700
 20
22.985100
 30
0.0
 10
10.983300
 20
22.942600
 30
0.0
 10
10.498000
 20
22.985100
 30
0.0
 10
10.027300
 20
23.111200
 30
0.0
 10
9.585770
 20
23.317100
 30
0.0
 10
9.186680
 20
23.596500
 30
0.0
 10
8.842160
 20
23.941100
 30
0.0
 10
8.562700
 20
24.340100
 30
0.0
 10
8.356800
 20
24.781700
 30
0.0
 10
8.230700
 20
25.252300
 30
0.0
 10
8.188230
 20
25.737700
 30
0.0
 10
8.230700
 20
26.223100
 30
0.0
 10
8.356800
 20
26.693700
 30
0.0
 10
8.562700
 20
27.135200
 30
0.0
 10
8.842160
 20
27.534300
 30
0.0
 10
9.186680
 20
27.878900
 30
0.0
 10
9.585770
 20
28.158300
 30
0.0
 10
33.700500
 20
40.215700
 30
0.0
 10
33.852400
 20
40.286500
 30
0.0
 10
33.843800
 20
40.303600
 30
0.0
 10
33.995600
 20
40.374500
 30
0.0
 10
34.394700
 20
40.653900
 30
0.0
 10
34.739200
 20
40.998400
 30
0.0
 10
35.018700
 20
41.397500
 30
0.0
 10
35.224600
 20
41.839100
 30
0.0
 10
35.350700
 20
42.309700
 30
0.0
 10
35.393100
 20
42.795100
 30
0.0
 10
35.350700
 20
43.280400
 30
0.0
 10
35.224600
 20
43.751000
 30
0.0
 10
35.018700
 20
44.192600
 30
0.0
 10
34.739200
 20
44.591700
 30
0.0
 10
34.394700
 20
44.936200
 30
0.0
 10
33.995600
 20
45.215700
 30
0.0
 10
33.554000
 20
45.421600
 30
0.0
 10
33.083400
 20
45.547700
 30
0.0
 10
32.598100
 20
45.590100
 30
0.0
 10
32.112700
 20
45.547700
 30
0.0
 10
31.642100
 20
45.421600
 30
0.0
 10
31.352400
 20
45.286500
 30
0.0
 10
31.345800
 20
45.299600
 30
0.0
 10
12.380900
 20
35.817100
 30
0.0
 10
11.939300
 20
35.611200
 30
0.0
 10
11.468700
 20
35.485100
 30
0.0
 10
10.983300
 20
35.442600
 30
0.0
 10
10.498000
 20
35.485100
 30
0.0
 10
10.027300
 20
35.611200
 30
0.0
 10
9.585770
 20
35.817100
 30
0.0
 10
9.186680
 20
36.096500
 30
0.0
 10
8.842160
 20
36.441100
 30
0.0
 10
8.562700
 20
36.840100
 30
0.0
 10
8.356800
 20
37.281700
 30
0.0
 10
8.230700
 20
37.752300
 30
0.0
 10
8.188230
 20
38.237700
 30
0.0
 10
8.230700
 20
38.723100
 30
0.0
 10
8.356800
 20
39.193700
 30
0.0
 10
8.562700
 20
39.635200
 30
0.0
 10
8.842160
 20
40.034300
 30
0.0
 10
9.186680
 20
40.378900
 30
0.0
 10
9.585770
 20
40.658300
 30
0.0
 10
28.700500
 20
50.215700
 30
0.0
 10
28.852400
 20
50.286500
 30
0.0
 10
28.843800
 20
50.303600
 30
0.0
 10
28.995600
 20
50.374500
 30
0.0
 10
29.394700
 20
50.653900
 30
0.0
 10
29.739200
 20
50.998400
 30
0.0
 10
30.018700
 20
51.397500
 30
0.0
 10
30.224600
 20
51.839100
 30
0.0
 10
30.350700
 20
52.309700
 30
0.0
 10
30.393100
 20
52.795100
 30
0.0
 10
30.350700
 20
53.280400
 30
0.0
 10
30.224600
 20
53.751000
 30
0.0
 10
30.018700
 20
54.192600
 30
0.0
 10
29.739200
 20
54.591700
 30
0.0
 10
29.394700
 20
54.936200
 30
0.0
 10
28.995600
 20
55.215700
 30
0.0
 10
28.554000
 20
55.421600
 30
0.0
 10
28.083400
 20
55.547700
 30
0.0
 10
27.598100
 20
55.590100
 30
0.0
 10
27.112700
 20
55.547700
 30
0.0
 10
26.642100
 20
55.421600
 30
0.0
 10
26.352400
 20
55.286500
 30
0.0
 10
26.345800
 20
55.299600
 30
0.0
 10
12.380900
 20
48.317100
 30
0.0
 10
11.939300
 20
48.111200
 30
0.0
 10
11.468700
 20
47.985100
 30
0.0
 10
10.983300
 20
47.942600
 30
0.0
 10
10.498000
 20
47.985100
 30
0.0
 10
10.027300
 20
48.111200
 30
0.0
 10
9.585770
 20
48.317100
 30
0.0
 10
9.186680
 20
48.596500
 30
0.0
 10
8.842160
 20
48.941100
 30
0.0
 10
8.562700
 20
49.340100
 30
0.0
 10
8.356800
 20
49.781700
 30
0.0
 10
8.230700
 20
50.252300
 30
0.0
 10
8.188230
 20
50.737700
 30
0.0
 10
8.230700
 20
51.223100
 30
0.0
 10
8.356800
 20
51.693700
 30
0.0
 10
8.562700
 20
52.135200
 30
0.0
 10
8.842160
 20
52.534300
 30
0.0
 10
9.186680
 20
52.878900
 30
0.0
 10
9.585770
 20
53.158300
 30
0.0
 10
23.700500
 20
60.215700
 30
0.0
 10
23.852400
 20
60.286500
 30
0.0
 10
23.843800
 20
60.303600
 30
0.0
 10
23.995600
 20
60.374500
 30
0.0
 10
24.394700
 20
60.653900
 30
0.0
 10
24.739200
 20
60.998400
 30
0.0
 10
25.018700
 20
61.397500
 30
0.0
 10
25.224600
 20
61.839100
 30
0.0
 10
25.350700
 20
62.309700
 30
0.0
 10
25.393100
 20
62.795100
 30
0.0
 10
25.350700
 20
63.280400
 30
0.0
 10
25.224600
 20
63.751000
 30
0.0
 10
25.018700
 20
64.192600
 30
0.0
 10
24.739200
 20
64.591700
 30
0.0
 10
24.394700
 20
64.936200
 30
0.0
 10
23.995600
 20
65.215700
 30
0.0
 10
23.554000
 20
65.421600
 30
0.0
 10
23.083400
 20
65.547700
 30
0.0
 10
22.598100
 20
65.590100
 30
0.0
 10
22.112700
 20
65.547700
 30
0.0
 10
21.642100
 20
65.421600
 30
0.0
 10
21.352400
 20
65.286500
 30
0.0
 10
21.345800
 20
65.299600
 30
0.0
 10
12.380900
 20
60.817100
 30
0.0
 10
11.939300
 20
60.611200
 30
0.0
 10
11.468700
 20
60.485100
 30
0.0
 10
10.983300
 20
60.442600
 30
0.0
 10
10.498000
 20
60.485100
 30
0.0
 10
10.027300
 20
60.611200
 30
0.0
 10
9.585770
 20
60.817100
 30
0.0
 10
9.186680
 20
61.096500
 30
0.0
 10
8.842160
 20
61.441100
 30
0.0
 10
8.562700
 20
61.840100
 30
0.0
 10
8.356800
 20
62.281700
 30
0.0
 10
8.230700
 20
62.752300
 30
0.0
 10
8.188230
 20
63.237700
 30
0.0
 10
8.230700
 20
63.723100
 30
0.0
 10
8.356800
 20
64.193700
 30
0.0
 10
8.562700
 20
64.635200
 30
0.0
 10
8.842160
 20
65.034300
 30
0.0
 10
9.186680
 20
65.378900
 30
0.0
 10
9.585770
 20
65.658300
 30
0.0
 10
18.700500
 20
70.215700
 30
0.0
 10
18.852400
 20
70.286500
 30
0.0
 10
18.843800
 20
70.303600
 30
0.0
 10
18.995600
 20
70.374500
 30
0.0
 10
19.394700
 20
70.653900
 30
0.0
 10
19.739200
 20
70.998400
 30
0.0
 10
20.018700
 20
71.397500
 30
0.0
 10
20.224600
 20
71.839100
 30
0.0
 10
20.350700
 20
72.309700
 30
0.0
 10
20.393100
 20
72.795100
 30
0.0
 10
20.350700
 20
73.280400
 30
0.0
 10
20.224600
 20
73.751000
 30
0.0
 10
20.018700
 20
74.192600
 30
0.0
 10
19.739200
 20
74.591700
 30
0.0
 10
19.394700
 20
74.936200
 30
0.0
 10
18.995600
 20
75.215700
 30
0.0
 10
18.554000
 20
75.421600
 30
0.0
 10
18.083400
 20
75.547700
 30
0.0
 10
17.598100
 20
75.590100
 30
0.0
 10
17.112700
 20
75.547700
 30
0.0
 10
16.642100
 20
75.421600
 30
0.0
 10
16.352400
 20
75.286500
 30
0.0
 10
16.345800
 20
75.299600
 30
0.0
 10
12.380900
 20
73.317100
 30
0.0
 10
11.939300
 20
73.111200
 30
0.0
 10
11.468700
 20
72.985100
 30
0.0
 10
10.983300
 20
72.942600
 30
0.0
 10
10.498000
 20
72.985100
 30
0.0
 10
10.027300
 20
73.111200
 30
0.0
 10
9.585770
 20
73.317100
 30
0.0
 10
9.186680
 20
73.596500
 30
0.0
 10
8.842160
 20
73.941100
 30
0.0
 10
8.562700
 20
74.340100
 30
0.0
 10
8.356800
 20
74.781700
 30
0.0
 10
8.230700
 20
75.252300
 30
0.0
 10
8.188230
 20
75.737700
 30
0.0
 10
8.230700
 20
76.223100
 30
0.0
 10
8.356800
 20
76.693700
 30
0.0
 10
8.562700
 20
77.135200
 30
0.0
 10
8.842160
 20
77.534300
 30
0.0
 10
9.186680
 20
77.878900
 30
0.0
 10
9.585770
 20
78.158300
 30
0.0
 10
13.700500
 20
80.215700
 30
0.0
 10
13.852400
 20
80.286500
 30
0.0
 10
13.843800
 20
80.303600
 30
0.0
 10
13.995600
 20
80.374500
 30
0.0
 10
14.394700
 20
80.653900
 30
0.0
 10
14.739200
 20
80.998400
 30
0.0
 10
15.018700
 20
81.397500
 30
0.0
 10
15.224600
 20
81.839100
 30
0.0
 10
15.350700
 20
82.309700
 30
0.0
 10
15.393100
 20
82.795100
 30
0.0
 10
15.350700
 20
83.280400
 30
0.0
 10
15.224600
 20
83.751000
 30
0.0
 10
15.018700
 20
84.192600
 30
0.0
 10
14.739200
 20
84.591700
 30
0.0
 10
14.394700
 20
84.936200
 30
0.0
 10
13.995600
 20
85.215700
 30
0.0
 10
13.554000
 20
85.421600
 30
0.0
 10
13.083400
 20
85.547700
 30
0.0
 10
12.598100
 20
85.590100
 30
0.0
 10
12.112700
 20
85.547700
 30
0.0
 10
11.642100
 20
85.421600
 30
0.0
 10
11.352400
 20
85.286500
 30
0.0
 10
11.343800
 20
85.303600
 30
0.0
 10
11.054000
 20
85.168500
 30
0.0
 10
10.583400
 20
85.042400
 30
0.0
 10
10.098100
 20
85.000000
 30
0.0
 10
9.612700
 20
85.042400
 30
0.0
 10
9.142090
 20
85.168500
 30
0.0
 10
8.700520
 20
85.374500
 30
0.0
 10
8.301420
 20
85.653900
 30
0.0
 10
7.956890
 20
85.998400
 30
0.0
 10
7.677440
 20
86.397500
 30
0.0
 10
7.471540
 20
86.839100
 30
0.0
 10
7.345440
 20
87.309700
 30
0.0
 10
7.302980
 20
87.795100
 30
0.0
 10
7.345440
 20
88.280400
 30
0.0
 10
7.471540
 20
88.751000
 30
0.0
 10
7.677440
 20
89.192600
 30
0.0
 10
7.956890
 20
89.591700
 30
0.0
 10
8.301420
 20
89.936200
 30
0.0
 10
8.700520
 20
90.215700
 30
0.0
 10
8.850310
 20
90.290600
 30
0.0
 10
8.843780
 20
90.303600
 30
0.0
 10
8.995610
 20
90.374500
 30
0.0
 10
9.394700
 20
90.653900
 30
0.0
 10
9.739230
 20
90.998400
 30
0.0
 10
10.018700
 20
91.397500
 30
0.0
 10
10.224600
 20
91.839100
 30
0.0
 10
10.350700
 20
92.309700
 30
0.0
 10
10.393100
 20
92.795100
 30
0.0
 10
10.350700
 20
93.280400
 30
0.0
 10
10.224600
 20
93.751000
 30
0.0
 10
10.018700
 20
94.192600
 30
0.0
 10
9.739230
 20
94.591700
 30
0.0
 10
9.394700
 20
94.936200
 30
0.0
 10
8.995610
 20
95.215700
 30
0.0
 10
8.554030
 20
95.421600
 30
0.0
 10
8.083420
 20
95.547700
 30
0.0
 10
7.598050
 20
95.590100
 30
0.0
 10
7.112700
 20
95.547700
 30
0.0
 10
6.642090
 20
95.421600
 30
0.0
 10
6.352360
 20
95.286500
 30
0.0
 10
6.343770
 20
95.303600
 30
0.0
 10
6.054030
 20
95.168500
 30
0.0
 10
5.583420
 20
95.042400
 30
0.0
 10
5.393140
 20
95.025800
 30
0.0
 10
5.393140
 20
102.795000
 30
0.0
 10
5.350680
 20
103.280000
 30
0.0
 10
5.224580
 20
103.751000
 30
0.0
 10
5.018680
 20
104.193000
 30
0.0
 10
4.739230
 20
104.592000
 30
0.0
 10
4.394700
 20
104.936000
 30
0.0
 10
3.995610
 20
105.216000
 30
0.0
 10
3.554030
 20
105.422000
 30
0.0
 10
3.083420
 20
105.548000
 30
0.0
 10
2.598070
 20
105.590000
 30
0.0
 10
2.598070
 20
33.333300
 30
0.0
 10
-2.598070
 20
33.333300
 30
0.0
 10
-2.598070
 20
105.590000
 30
0.0
 10
-3.083420
 20
105.548000
 30
0.0
 10
-3.554030
 20
105.422000
 30
0.0
 10
-3.995610
 20
105.216000
 30
0.0
 10
-4.394700
 20
104.936000
 30
0.0
 10
-4.739230
 20
104.592000
 30
0.0
 10
-5.018680
 20
104.193000
 30
0.0
 10
-5.224580
 20
103.751000
 30
0.0
 10
-5.350680
 20
103.280000
 30
0.0
 10
-5.393140
 20
102.795000
 30
0.0
 10
-5.393140
 20
95.025800
 30
0.0
 10
-5.583420
 20
95.042400
 30
0.0
 10
-6.054030
 20
95.168500
 30
0.0
 10
-6.343770
 20
95.303600
 30
0.0
 10
-6.352360
 20
95.286500
 30
0.0
 10
-6.642090
 20
95.421600
 30
0.0
 10
-7.112700
 20
95.547700
 30
0.0
 10
-7.598050
 20
95.590100
 30
0.0
 10
-8.083420
 20
95.547700
 30
0.0
 10
-8.554030
 20
95.421600
 30
0.0
 10
-8.995610
 20
95.215700
 30
0.0
 10
-9.394700
 20
94.936200
 30
0.0
 10
-9.739230
 20
94.591700
 30
0.0
 10
-10.018700
 20
94.192600
 30
0.0
 10
-10.224600
 20
93.751000
 30
0.0
 10
-10.350700
 20
93.280400
 30
0.0
 10
-10.393100
 20
92.795100
 30
0.0
 10
-10.350700
 20
92.309700
 30
0.0
 10
-10.224600
 20
91.839100
 30
0.0
 10
-10.018700
 20
91.397500
 30
0.0
 10
-9.739230
 20
90.998400
 30
0.0
 10
-9.394700
 20
90.653900
 30
0.0
 10
-8.995610
 20
90.374500
 30
0.0
 10
-8.843780
 20
90.303600
 30
0.0
 10
-8.850310
 20
90.290600
 30
0.0
 10
-8.700520
 20
90.215700
 30
0.0
 10
-8.301420
 20
89.936200
 30
0.0
 10
-7.956890
 20
89.591700
 30
0.0
 10
-7.677440
 20
89.192600
 30
0.0
 10
-7.471540
 20
88.751000
 30
0.0
 10
-7.345440
 20
88.280400
 30
0.0
 10
-7.302980
 20
87.795100
 30
0.0
 10
-7.345440
 20
87.309700
 30
0.0
 10
-7.471540
 20
86.839100
 30
0.0
 10
-7.677440
 20
86.397500
 30
0.0
 10
-7.956890
 20
85.998400
 30
0.0
 10
-8.301420
 20
85.653900
 30
0.0
 10
-8.700520
 20
85.374500
 30
0.0
 10
-9.142090
 20
85.168500
 30
0.0
 10
-9.612700
 20
85.042400
 30
0.0
 10
-10.098100
 20
85.000000
 30
0.0
 10
-10.583400
 20
85.042400
 30
0.0
 10
-11.054000
 20
85.168500
 30
0.0
 10
-11.343800
 20
85.303600
 30
0.0
 10
-11.352400
 20
85.286500
 30
0.0
 10
-11.642100
 20
85.421600
 30
0.0
 10
-12.112700
 20
85.547700
 30
0.0
 10
-12.598100
 20
85.590100
 30
0.0
 10
-13.083400
 20
85.547700
 30
0.0
 10
-13.554000
 20
85.421600
 30
0.0
 10
-13.995600
 20
85.215700
 30
0.0
 10
-14.394700
 20
84.936200
 30
0.0
 10
-14.739200
 20
84.591700
 30
0.0
 10
-15.018700
 20
84.192600
 30
0.0
 10
-15.224600
 20
83.751000
 30
0.0
 10
-15.350700
 20
83.280400
 30
0.0
 10
-15.393100
 20
82.795100
 30
0.0
 10
-15.350700
 20
82.309700
 30
0.0
 10
-15.224600
 20
81.839100
 30
0.0
 10
-15.018700
 20
81.397500
 30
0.0
 10
-14.739200
 20
80.998400
 30
0.0
 10
-14.394700
 20
80.653900
 30
0.0
 10
-13.995600
 20
80.374500
 30
0.0
 10
-13.843800
 20
80.303600
 30
0.0
 10
-13.852400
 20
80.286500
 30
0.0
 10
-13.700500
 20
80.215700
 30
0.0
 10
-9.585770
 20
78.158300
 30
0.0
 10
-9.186680
 20
77.878900
 30
0.0
 10
-8.842160
 20
77.534300
 30
0.0
 10
-8.562700
 20
77.135200
 30
0.0
 10
-8.356800
 20
76.693700
 30
0.0
 10
-8.230700
 20
76.223100
 30
0.0
 10
-8.188230
 20
75.737700
 30
0.0
 10
-8.230700
 20
75.252300
 30
0.0
 10
-8.356800
 20
74.781700
 30
0.0
 10
-8.562700
 20
74.340100
 30
0.0
 10
-8.842160
 20
73.941100
 30
0.0
 10
-9.186680
 20
73.596500
 30
0.0
 10
-9.585770
 20
73.317100
 30
0.0
 10
-10.027300
 20
73.111200
 30
0.0
 10
-10.498000
 20
72.985100
 30
0.0
 10
-10.983300
 20
72.942600
 30
0.0
 10
-11.468700
 20
72.985100
 30
0.0
 10
-11.939300
 20
73.111200
 30
0.0
 10
-12.380900
 20
73.317100
 30
0.0
 10
-16.345800
 20
75.299600
 30
0.0
 10
-16.352400
 20
75.286500
 30
0.0
 10
-16.642100
 20
75.421600
 30
0.0
 10
-17.112700
 20
75.547700
 30
0.0
 10
-17.598100
 20
75.590100
 30
0.0
 10
-18.083400
 20
75.547700
 30
0.0
 10
-18.554000
 20
75.421600
 30
0.0
 10
-18.995600
 20
75.215700
 30
0.0
 10
-19.394700
 20
74.936200
 30
0.0
 10
-19.739200
 20
74.591700
 30
0.0
 10
-20.018700
 20
74.192600
 30
0.0
 10
-20.224600
 20
73.751000
 30
0.0
 10
-20.350700
 20
73.280400
 30
0.0
 10
-20.393100
 20
72.795100
 30
0.0
 10
-20.350700
 20
72.309700
 30
0.0
 10
-20.224600
 20
71.839100
 30
0.0
 10
-20.018700
 20
71.397500
 30
0.0
 10
-19.739200
 20
70.998400
 30
0.0
 10
-19.394700
 20
70.653900
 30
0.0
 10
-18.995600
 20
70.374500
 30
0.0
 10
-18.843800
 20
70.303600
 30
0.0
 10
-18.852400
 20
70.286500
 30
0.0
 10
-18.700500
 20
70.215700
 30
0.0
 10
-9.585770
 20
65.658300
 30
0.0
 10
-9.186680
 20
65.378900
 30
0.0
 10
-8.842160
 20
65.034300
 30
0.0
 10
-8.562700
 20
64.635200
 30
0.0
 10
-8.356800
 20
64.193700
 30
0.0
 10
-8.230700
 20
63.723100
 30
0.0
 10
-8.188230
 20
63.237700
 30
0.0
 10
-8.230700
 20
62.752300
 30
0.0
 10
-8.356800
 20
62.281700
 30
0.0
 10
-8.562700
 20
61.840100
 30
0.0
 10
-8.842160
 20
61.441100
 30
0.0
 10
-9.186680
 20
61.096500
 30
0.0
 10
-9.585770
 20
60.817100
 30
0.0
 10
-10.027300
 20
60.611200
 30
0.0
 10
-10.498000
 20
60.485100
 30
0.0
 10
-10.983300
 20
60.442600
 30
0.0
 10
-11.468700
 20
60.485100
 30
0.0
 10
-11.939300
 20
60.611200
 30
0.0
 10
-12.380900
 20
60.817100
 30
0.0
 10
-21.345800
 20
65.299600
 30
0.0
 10
-21.352400
 20
65.286500
 30
0.0
 10
-21.642100
 20
65.421600
 30
0.0
 10
-22.112700
 20
65.547700
 30
0.0
 10
-22.598100
 20
65.590100
 30
0.0
 10
-23.083400
 20
65.547700
 30
0.0
 10
-23.554000
 20
65.421600
 30
0.0
 10
-23.995600
 20
65.215700
 30
0.0
 10
-24.394700
 20
64.936200
 30
0.0
 10
-24.739200
 20
64.591700
 30
0.0
 10
-25.018700
 20
64.192600
 30
0.0
 10
-25.224600
 20
63.751000
 30
0.0
 10
-25.350700
 20
63.280400
 30
0.0
 10
-25.393100
 20
62.795100
 30
0.0
 10
-25.350700
 20
62.309700
 30
0.0
 10
-25.224600
 20
61.839100
 30
0.0
 10
-25.018700
 20
61.397500
 30
0.0
 10
-24.739200
 20
60.998400
 30
0.0
 10
-24.394700
 20
60.653900
 30
0.0
 10
-23.995600
 20
60.374500
 30
0.0
 10
-23.843800
 20
60.303600
 30
0.0
 10
-23.852400
 20
60.286500
 30
0.0
 10
-23.700500
 20
60.215700
 30
0.0
 10
-9.585770
 20
53.158300
 30
0.0
 10
-9.186680
 20
52.878900
 30
0.0
 10
-8.842160
 20
52.534300
 30
0.0
 10
-8.562700
 20
52.135200
 30
0.0
 10
-8.356800
 20
51.693700
 30
0.0
 10
-8.230700
 20
51.223100
 30
0.0
 10
-8.188230
 20
50.737700
 30
0.0
 10
-8.230700
 20
50.252300
 30
0.0
 10
-8.356800
 20
49.781700
 30
0.0
 10
-8.562700
 20
49.340100
 30
0.0
 10
-8.842160
 20
48.941100
 30
0.0
 10
-9.186680
 20
48.596500
 30
0.0
 10
-9.585770
 20
48.317100
 30
0.0
 10
-10.027300
 20
48.111200
 30
0.0
 10
-10.498000
 20
47.985100
 30
0.0
 10
-10.983300
 20
47.942600
 30
0.0
 10
-11.468700
 20
47.985100
 30
0.0
 10
-11.939300
 20
48.111200
 30
0.0
 10
-12.380900
 20
48.317100
 30
0.0
 10
-26.345800
 20
55.299600
 30
0.0
 10
-26.352400
 20
55.286500
 30
0.0
 10
-26.642100
 20
55.421600
 30
0.0
 10
-27.112700
 20
55.547700
 30
0.0
 10
-27.598100
 20
55.590100
 30
0.0
 10
-28.083400
 20
55.547700
 30
0.0
 10
-28.554000
 20
55.421600
 30
0.0
 10
-28.995600
 20
55.215700
 30
0.0
 10
-29.394700
 20
54.936200
 30
0.0
 10
-29.739200
 20
54.591700
 30
0.0
 10
-30.018700
 20
54.192600
 30
0.0
 10
-30.224600
 20
53.751000
 30
0.0
 10
-30.350700
 20
53.280400
 30
0.0
 10
-30.393100
 20
52.795100
 30
0.0
 10
-30.350700
 20
52.309700
 30
0.0
 10
-30.224600
 20
51.839100
 30
0.0
 10
-30.018700
 20
51.397500
 30
0.0
 10
-29.739200
 20
50.998400
 30
0.0
 10
-29.394700
 20
50.653900
 30
0.0
 10
-28.995600
 20
50.374500
 30
0.0
 10
-28.843800
 20
50.303600
 30
0.0
 10
-28.852400
 20
50.286500
 30
0.0
 10
-28.700500
 20
50.215700
 30
0.0
 10
-9.585770
 20
40.658300
 30
0.0
 10
-9.186680
 20
40.378900
 30
0.0
 10
-8.842160
 20
40.034300
 30
0.0
 10
-8.562700
 20
39.635200
 30
0.0
 10
-8.356800
 20
39.193700
 30
0.0
 10
-8.230700
 20
38.723100
 30
0.0
 10
-8.188230
 20
38.237700
 30
0.0
 10
-8.230700
 20
37.752300
 30
0.0
 10
-8.356800
 20
37.281700
 30
0.0
 10
-8.562700
 20
36.840100
 30
0.0
 10
-8.842160
 20
36.441100
 30
0.0
 10
-9.186680
 20
36.096500
 30
0.0
 10
-9.585770
 20
35.817100
 30
0.0
 10
-10.027300
 20
35.611200
 30
0.0
 10
-10.498000
 20
35.485100
 30
0.0
 10
-10.983300
 20
35.442600
 30
0.0
 10
-11.468700
 20
35.485100
 30
0.0
 10
-11.939300
 20
35.611200
 30
0.0
 10
-12.380900
 20
35.817100
 30
0.0
 10
-31.345800
 20
45.299600
 30
0.0
 10
-31.352400
 20
45.286500
 30
0.0
 10
-31.642100
 20
45.421600
 30
0.0
 10
-32.112700
 20
45.547700
 30
0.0
 10
-32.598100
 20
45.590100
 30
0.0
 10
-33.083400
 20
45.547700
 30
0.0
 10
-33.554000
 20
45.421600
 30
0.0
 10
-33.995600
 20
45.215700
 30
0.0
 10
-34.394700
 20
44.936200
 30
0.0
 10
-34.739200
 20
44.591700
 30
0.0
 10
-35.018700
 20
44.192600
 30
0.0
 10
-35.224600
 20
43.751000
 30
0.0
 10
-35.350700
 20
43.280400
 30
0.0
 10
-35.393100
 20
42.795100
 30
0.0
 10
-35.350700
 20
42.309700
 30
0.0
 10
-35.224600
 20
41.839100
 30
0.0
 10
-35.018700
 20
41.397500
 30
0.0
 10
-34.739200
 20
40.998400
 30
0.0
 10
-34.394700
 20
40.653900
 30
0.0
 10
-33.995600
 20
40.374500
 30
0.0
 10
-33.843800
 20
40.303600
 30
0.0
 10
-33.852400
 20
40.286500
 30
0.0
 10
-33.700500
 20
40.215700
 30
0.0
 10
-9.585770
 20
28.158300
 30
0.0
 10
-9.186680
 20
27.878900
 30
0.0
 10
-8.842160
 20
27.534300
 30
0.0
 10
-8.562700
 20
27.135200
 30
0.0
 10
-8.356800
 20
26.693700
 30
0.0
 10
-8.230700
 20
26.223100
 30
0.0
 10
-8.188230
 20
25.737700
 30
0.0
 10
-8.230700
 20
25.252300
 30
0.0
 10
-8.356800
 20
24.781700
 30
0.0
 10
-8.562700
 20
24.340100
 30
0.0
 10
-8.842160
 20
23.941100
 30
0.0
 10
-9.186680
 20
23.596500
 30
0.0
 10
-9.585770
 20
23.317100
 30
0.0
 10
-10.027300
 20
23.111200
 30
0.0
 10
-10.498000
 20
22.985100
 30
0.0
 10
-10.983300
 20
22.942600
 30
0.0
 10
-11.468700
 20
22.985100
 30
0.0
 10
-11.939300
 20
23.111200
 30
0.0
 10
-12.380900
 20
23.317100
 30
0.0
 10
-36.345800
 20
35.299600
 30
0.0
 10
-36.352400
 20
35.286500
 30
0.0
 10
-36.642100
 20
35.421600
 30
0.0
 10
-37.112700
 20
35.547700
 30
0.0
 10
-37.598100
 20
35.590100
 30
0.0
 10
-38.083400
 20
35.547700
 30
0.0
 10
-38.554000
 20
35.421600
 30
0.0
 10
-38.995600
 20
35.215700
 30
0.0
 10
-39.394700
 20
34.936200
 30
0.0
 10
-39.739200
 20
34.591700
 30
0.0
 10
-40.018700
 20
34.192600
 30
0.0
 10
-40.224600
 20
33.751000
 30
0.0
 10
-40.350700
 20
33.280400
 30
0.0
 10
-40.393100
 20
32.795100
 30
0.0
 10
-40.350700
 20
32.309700
 30
0.0
 10
-40.224600
 20
31.839100
 30
0.0
 10
-40.018700
 20
31.397500
 30
0.0
 10
-39.739200
 20
30.998400
 30
0.0
 10
-39.394700
 20
30.653900
 30
0.0
 10
-38.995600
 20
30.374500
 30
0.0
 10
-38.843800
 20
30.303600
 30
0.0
 10
-38.852400
 20
30.286500
 30
0.0
 10
-38.700500
 20
30.215700
 30
0.0
 10
-9.585770
 20
15.658300
 30
0.0
 10
-9.186680
 20
15.378900
 30
0.0
 10
-8.842160
 20
15.034300
 30
0.0
 10
-8.562700
 20
14.635200
 30
0.0
 10
-8.356800
 20
14.193700
 30
0.0
 10
-8.230700
 20
13.723100
 30
0.0
 10
-8.188230
 20
13.237700
 30
0.0
 10
-8.230700
 20
12.752300
 30
0.0
 10
-8.356800
 20
12.281700
 30
0.0
 10
-8.562700
 20
11.840100
 30
0.0
 10
-8.842160
 20
11.441100
 30
0.0
 10
-9.186680
 20
11.096500
 30
0.0
 10
-9.585770
 20
10.817100
 30
0.0
 10
-10.027300
 20
10.611200
 30
0.0
 10
-10.498000
 20
10.485100
 30
0.0
 10
-10.983300
 20
10.442600
 30
0.0
 10
-11.468700
 20
10.485100
 30
0.0
 10
-11.939300
 20
10.611200
 30
0.0
 10
-12.380900
 20
10.817100
 30
0.0
 10
-41.345800
 20
25.299600
 30
0.0
 10
-41.352400
 20
25.286500
 30
0.0
 10
-41.642100
 20
25.421600
 30
0.0
 10
-42.112700
 20
25.547700
 30
0.0
 10
-42.598100
 20
25.590100
 30
0.0
 10
-43.083400
 20
25.547700
 30
0.0
 10
-43.554000
 20
25.421600
 30
0.0
 10
-43.995600
 20
25.215700
 30
0.0
 10
-44.394700
 20
24.936200
 30
0.0
 10
-44.739200
 20
24.591700
 30
0.0
 10
-45.018700
 20
24.192600
 30
0.0
 10
-45.224600
 20
23.751000
 30
0.0
 10
-45.350700
 20
23.280400
 30
0.0
 10
-45.393100
 20
22.795100
 30
0.0
 10
-45.350700
 20
22.309700
 30
0.0
 10
-45.224600
 20
21.839100
 30
0.0
 10
-45.018700
 20
21.397500
 30
0.0
 10
-44.739200
 20
20.998400
 30
0.0
 10
-44.394700
 20
20.653900
 30
0.0
 10
-43.995600
 20
20.374500
 30
0.0
 10
-43.843800
 20
20.303600
 30
0.0
 10
-43.852400
 20
20.286500
 30
0.0
 10
-43.700500
 20
20.215700
 30
0.0
 10
-30.471000
 20
13.600900
 30
0.0
 10
-30.071900
 20
13.321500
 30
0.0
 10
-29.727400
 20
12.977000
 30
0.0
 10
-29.448000
 20
12.577900
 30
0.0
 10
-29.242100
 20
12.136300
 30
0.0
 10
-29.116000
 20
11.665700
 30
0.0
 10
-29.073500
 20
11.180300
 30
0.0
 10
-29.116000
 20
10.695000
 30
0.0
 10
-29.242100
 20
10.224300
 30
0.0
 10
-29.448000
 20
9.782780
 30
0.0
 10
-29.727400
 20
9.383680
 30
0.0
 10
-30.071900
 20
9.039170
 30
0.0
 10
-30.471000
 20
8.759700
 30
0.0
 10
-30.912600
 20
8.553800
 30
0.0
 10
-31.383200
 20
8.427700
 30
0.0
 10
-31.868600
 20
8.385240
 30
0.0
 10
-32.353900
 20
8.427700
 30
0.0
 10
-32.824500
 20
8.553800
 30
0.0
 10
-33.266100
 20
8.759700
 30
0.0
 10
-46.345800
 20
15.299600
 30
0.0
 10
-46.352400
 20
15.286500
 30
0.0
 10
-46.642100
 20
15.421600
 30
0.0
 10
-47.112700
 20
15.547700
 30
0.0
 10
-47.598100
 20
15.590100
 30
0.0
 10
-48.083400
 20
15.547700
 30
0.0
 10
-48.554000
 20
15.421600
 30
0.0
 10
-48.995600
 20
15.215700
 30
0.0
 10
-49.394700
 20
14.936200
 30
0.0
 10
-49.739200
 20
14.591700
 30
0.0
 10
-50.018700
 20
14.192600
 30
0.0
 10
-50.224600
 20
13.751000
 30
0.0
 10
-50.350700
 20
13.280400
 30
0.0
 10
-50.393100
 20
12.795100
 30
0.0
 10
-50.350700
 20
12.309700
 30
0.0
 10
-50.224600
 20
11.839100
 30
0.0
 10
-50.018700
 20
11.397500
 30
0.0
 10
-49.739200
 20
10.998400
 30
0.0
 10
-49.394700
 20
10.653900
 30
0.0
 10
-48.995600
 20
10.374500
 30
0.0
 10
-48.843800
 20
10.303600
 30
0.0
 10
-48.850300
 20
10.290600
 30
0.0
 10
-48.700500
 20
10.215700
 30
0.0
 10
-48.301400
 20
9.936230
 30
0.0
 10
-47.956900
 20
9.591710
 30
0.0
 10
-47.677400
 20
9.192610
 30
0.0
 10
-47.471500
 20
8.751040
 30
0.0
 10
-47.345400
 20
8.280430
 30
0.0
 10
-47.303000
 20
7.795070
 30
0.0
 10
-47.345400
 20
7.309710
 30
0.0
 10
-47.471500
 20
6.839100
 30
0.0
 10
-47.677400
 20
6.397520
 30
0.0
 10
-47.956900
 20
5.998430
 30
0.0
 10
-48.301400
 20
5.653900
 30
0.0
 10
-48.392500
 20
5.590150
 30
0.0
 10
-52.598100
 20
5.590150
 30
0.0
 10
-53.083400
 20
5.547680
 30
0.0
 10
-53.554000
 20
5.421590
 30
0.0
 10
-53.995600
 20
5.215680
 30
0.0
 10
-54.394700
 20
4.936230
 30
0.0
 10
-54.739200
 20
4.591710
 30
0.0
 10
-55.018700
 20
4.192610
 30
0.0
 10
-55.224600
 20
3.751040
 30
0.0
 10
-55.350700
 20
3.280430
 30
0.0
 10
-55.393100
 20
2.795070
 30
0.0
 10
-55.350700
 20
2.309720
 30
0.0
 10
-55.224600
 20
1.839110
 30
0.0
 10
-55.018700
 20
1.397540
 30
0.0
 10
-54.739200
 20
0.998444
 30
0.0
 10
-54.394700
 20
0.653915
 30
0.0
 10
-53.995600
 20
0.374466
 30
0.0
 10
-53.554000
 20
0.168564
 30
0.0
 10
-53.083400
 20
0.042465
 30
0.0
 10
-52.598100
 20
-0.000000
 30
0.0
 10
52.598100
 20
-0.000000
 30
0.0
 10
53.083400
 20
0.042465
 30
0.0
  0
ENDSEC
  0
SECTION
  2
OBJECTS
  0
DICTIONARY
  5
C
330
0
100
AcDbDictionary
  3
ACAD_GROUP
350
D
  3
ACAD_MLINESTYLE
350
17
  0
DICTIONARY
  5
D
330
C
100
AcDbDictionary
  0
DICTIONARY
  5
1A
330
C
100
AcDbDictionary
  0
DICTIONARY
  5
17
330
C
100
AcDbDictionary
  3
STANDARD
350
18
  0
DICTIONARY
  5
19
330
C
100
AcDbDictionary
  0
ENDSEC
  0
EOF
