  0
SECTION
  2
HEADER
  9
$ACADVER
  1
AC1018
  9
$ACADMAINTVER
 70
     0
  9
$DWGCODEPAGE
  3
ANSI_1251
  9
$INSBASE
 10
0.0
 20
0.0
 30
0.0
  9
$EXTMIN
 10
-232.3701714911335
 20
19.0
 30
0.0
  9
$EXTMAX
 10
893.563398218212
 20
2206.819566373463
 30
0.0
  9
$LIMMIN
 10
0.0
 20
0.0
  9
$LIMMAX
 10
12.0
 20
9.0
  9
$ORTHOMODE
 70
     0
  9
$REGENMODE
 70
     1
  9
$FILLMODE
 70
     1
  9
$QTEXTMODE
 70
     0
  9
$MIRRTEXT
 70
     1
  9
$LTSCALE
 40
1.0
  9
$ATTMODE
 70
     1
  9
$TEXTSIZE
 40
0.2
  9
$TRACEWID
 40
0.05
  9
$TEXTSTYLE
  7
Standard
  9
$CLAYER
  8
ZagotovkaWorkingZone
  9
$CELTYPE
  6
ByLayer
  9
$CECOLOR
 62
   256
  9
$CELTSCALE
 40
1.0
  9
$DISPSILH
 70
     0
  9
$DIMSCALE
 40
1.0
  9
$DIMASZ
 40
0.18
  9
$DIMEXO
 40
0.0625
  9
$DIMDLI
 40
0.38
  9
$DIMRND
 40
0.0
  9
$DIMDLE
 40
0.0
  9
$DIMEXE
 40
0.18
  9
$DIMTP
 40
0.0
  9
$DIMTM
 40
0.0
  9
$DIMTXT
 40
0.18
  9
$DIMCEN
 40
0.09
  9
$DIMTSZ
 40
0.0
  9
$DIMTOL
 70
     0
  9
$DIMLIM
 70
     0
  9
$DIMTIH
 70
     1
  9
$DIMTOH
 70
     1
  9
$DIMSE1
 70
     0
  9
$DIMSE2
 70
     0
  9
$DIMTAD
 70
     0
  9
$DIMZIN
 70
     0
  9
$DIMBLK
  1

  9
$DIMASO
 70
     1
  9
$DIMSHO
 70
     1
  9
$DIMPOST
  1

  9
$DIMAPOST
  1

  9
$DIMALT
 70
     0
  9
$DIMALTD
 70
     2
  9
$DIMALTF
 40
25.4
  9
$DIMLFAC
 40
1.0
  9
$DIMTOFL
 70
     0
  9
$DIMTVP
 40
0.0
  9
$DIMTIX
 70
     0
  9
$DIMSOXD
 70
     0
  9
$DIMSAH
 70
     0
  9
$DIMBLK1
  1

  9
$DIMBLK2
  1

  9
$DIMSTYLE
  2
Standard
  9
$DIMCLRD
 70
     0
  9
$DIMCLRE
 70
     0
  9
$DIMCLRT
 70
     0
  9
$DIMTFAC
 40
1.0
  9
$DIMGAP
 40
0.09
  9
$DIMJUST
 70
     0
  9
$DIMSD1
 70
     0
  9
$DIMSD2
 70
     0
  9
$DIMTOLJ
 70
     1
  9
$DIMTZIN
 70
     0
  9
$DIMALTZ
 70
     0
  9
$DIMALTTZ
 70
     0
  9
$DIMUPT
 70
     0
  9
$DIMDEC
 70
     4
  9
$DIMTDEC
 70
     4
  9
$DIMALTU
 70
     2
  9
$DIMALTTD
 70
     2
  9
$DIMTXSTY
  7
Standard
  9
$DIMAUNIT
 70
     0
  9
$DIMADEC
 70
     0
  9
$DIMALTRND
 40
0.0
  9
$DIMAZIN
 70
     0
  9
$DIMDSEP
 70
    46
  9
$DIMATFIT
 70
     3
  9
$DIMFRAC
 70
     0
  9
$DIMLDRBLK
  1

  9
$DIMLUNIT
 70
     2
  9
$DIMLWD
 70
    -2
  9
$DIMLWE
 70
    -2
  9
$DIMTMOVE
 70
     2
  9
$LUNITS
 70
     2
  9
$LUPREC
 70
     3
  9
$SKETCHINC
 40
0.1
  9
$FILLETRAD
 40
0.5
  9
$AUNITS
 70
     0
  9
$AUPREC
 70
     0
  9
$MENU
  1
.
  9
$ELEVATION
 40
0.0
  9
$PELEVATION
 40
0.0
  9
$THICKNESS
 40
0.0
  9
$LIMCHECK
 70
     0
  9
$CHAMFERA
 40
0.0
  9
$CHAMFERB
 40
0.0
  9
$CHAMFERC
 40
0.0
  9
$CHAMFERD
 40
0.0
  9
$SKPOLY
 70
     0
  9
$TDCREATE
 40
2457808.493578773
  9
$TDUCREATE
 40
2457808.368578773
  9
$TDUPDATE
 40
2457808.493899283
  9
$TDUUPDATE
 40
2457808.368899283
  9
$TDINDWG
 40
0.0000000116
  9
$TDUSRTIMER
 40
0.0000000116
  9
$USRTIMER
 70
     1
  9
$ANGBASE
 50
0.0
  9
$ANGDIR
 70
     0
  9
$PDMODE
 70
     0
  9
$PDSIZE
 40
0.0
  9
$PLINEWID
 40
0.0
  9
$SPLFRAME
 70
     0
  9
$SPLINETYPE
 70
     6
  9
$SPLINESEGS
 70
     8
  9
$HANDSEED
  5
245
  9
$SURFTAB1
 70
     6
  9
$SURFTAB2
 70
     6
  9
$SURFTYPE
 70
     6
  9
$SURFU
 70
     6
  9
$SURFV
 70
     6
  9
$UCSBASE
  2

  9
$UCSNAME
  2

  9
$UCSORG
 10
0.0
 20
0.0
 30
0.0
  9
$UCSXDIR
 10
1.0
 20
0.0
 30
0.0
  9
$UCSYDIR
 10
0.0
 20
1.0
 30
0.0
  9
$UCSORTHOREF
  2

  9
$UCSORTHOVIEW
 70
     0
  9
$UCSORGTOP
 10
0.0
 20
0.0
 30
0.0
  9
$UCSORGBOTTOM
 10
0.0
 20
0.0
 30
0.0
  9
$UCSORGLEFT
 10
0.0
 20
0.0
 30
0.0
  9
$UCSORGRIGHT
 10
0.0
 20
0.0
 30
0.0
  9
$UCSORGFRONT
 10
0.0
 20
0.0
 30
0.0
  9
$UCSORGBACK
 10
0.0
 20
0.0
 30
0.0
  9
$PUCSBASE
  2

  9
$PUCSNAME
  2

  9
$PUCSORG
 10
0.0
 20
0.0
 30
0.0
  9
$PUCSXDIR
 10
1.0
 20
0.0
 30
0.0
  9
$PUCSYDIR
 10
0.0
 20
1.0
 30
0.0
  9
$PUCSORTHOREF
  2

  9
$PUCSORTHOVIEW
 70
     0
  9
$PUCSORGTOP
 10
0.0
 20
0.0
 30
0.0
  9
$PUCSORGBOTTOM
 10
0.0
 20
0.0
 30
0.0
  9
$PUCSORGLEFT
 10
0.0
 20
0.0
 30
0.0
  9
$PUCSORGRIGHT
 10
0.0
 20
0.0
 30
0.0
  9
$PUCSORGFRONT
 10
0.0
 20
0.0
 30
0.0
  9
$PUCSORGBACK
 10
0.0
 20
0.0
 30
0.0
  9
$USERI1
 70
     0
  9
$USERI2
 70
     0
  9
$USERI3
 70
     0
  9
$USERI4
 70
     0
  9
$USERI5
 70
     0
  9
$USERR1
 40
0.0
  9
$USERR2
 40
0.0
  9
$USERR3
 40
0.0
  9
$USERR4
 40
0.0
  9
$USERR5
 40
0.0
  9
$WORLDVIEW
 70
     1
  9
$SHADEDGE
 70
     3
  9
$SHADEDIF
 70
    70
  9
$TILEMODE
 70
     1
  9
$MAXACTVP
 70
    64
  9
$PINSBASE
 10
0.0
 20
0.0
 30
0.0
  9
$PLIMCHECK
 70
     0
  9
$PEXTMIN
 10
1.000000000000000E+20
 20
1.000000000000000E+20
 30
1.000000000000000E+20
  9
$PEXTMAX
 10
-1.000000000000000E+20
 20
-1.000000000000000E+20
 30
-1.000000000000000E+20
  9
$PLIMMIN
 10
0.0
 20
0.0
  9
$PLIMMAX
 10
12.0
 20
9.0
  9
$UNITMODE
 70
     0
  9
$VISRETAIN
 70
     1
  9
$PLINEGEN
 70
     0
  9
$PSLTSCALE
 70
     1
  9
$TREEDEPTH
 70
  3020
  9
$CMLSTYLE
  2
Standard
  9
$CMLJUST
 70
     0
  9
$CMLSCALE
 40
1.0
  9
$PROXYGRAPHICS
 70
     1
  9
$MEASUREMENT
 70
     0
  9
$CELWEIGHT
370
    -1
  9
$ENDCAPS
280
     0
  9
$JOINSTYLE
280
     0
  9
$LWDISPLAY
290
     0
  9
$INSUNITS
 70
     4
  9
$HYPERLINKBASE
  1

  9
$STYLESHEET
  1

  9
$XEDIT
290
     1
  9
$CEPSNTYPE
380
     0
  9
$PSTYLEMODE
290
     1
  9
$FINGERPRINTGUID
  2
{5E4603D4-CB8B-4098-8D02-0ACD15236967}
  9
$VERSIONGUID
  2
{FAEB1C32-E019-11D5-929B-00C0DF256EC4}
  9
$EXTNAMES
290
     1
  9
$PSVPSCALE
 40
0.0
  9
$OLESTARTUP
290
     0
  9
$SORTENTS
280
   127
  9
$INDEXCTL
280
     0
  9
$HIDETEXT
280
     1
  9
$XCLIPFRAME
290
     0
  9
$HALOGAP
280
     0
  9
$OBSCOLOR
 70
   257
  9
$OBSLTYPE
280
     0
  9
$INTERSECTIONDISPLAY
280
     0
  9
$INTERSECTIONCOLOR
 70
   257
  9
$DIMASSOC
280
     2
  9
$PROJECTNAME
  1

  0
ENDSEC
  0
SECTION
  2
CLASSES
  0
CLASS
  1
ACDBDICTIONARYWDFLT
  2
AcDbDictionaryWithDefault
  3
ObjectDBX Classes
 90
        0
 91
        4
280
     0
281
     0
  0
CLASS
  1
VISUALSTYLE
  2
AcDbVisualStyle
  3
ObjectDBX Classes
 90
     4095
 91
        4
280
     0
281
     0
  0
CLASS
  1
MATERIAL
  2
AcDbMaterial
  3
ObjectDBX Classes
 90
     1153
 91
        4
280
     0
281
     0
  0
CLASS
  1
SCALE
  2
AcDbScale
  3
ObjectDBX Classes
 90
     1153
 91
        4
280
     0
281
     0
  0
CLASS
  1
TABLESTYLE
  2
AcDbTableStyle
  3
ObjectDBX Classes
 90
     4095
 91
        4
280
     0
281
     0
  0
CLASS
  1
MLEADERSTYLE
  2
AcDbMLeaderStyle
  3
ACDB_MLEADERSTYLE_CLASS
 90
     4095
 91
        4
280
     0
281
     0
  0
CLASS
  1
SUN
  2
AcDbSun
  3
SCENEOE
 90
     1153
 91
        4
280
     0
281
     0
  0
CLASS
  1
DICTIONARYVAR
  2
AcDbDictionaryVar
  3
ObjectDBX Classes
 90
        0
 91
        4
280
     0
281
     0
  0
CLASS
  1
CELLSTYLEMAP
  2
AcDbCellStyleMap
  3
ObjectDBX Classes
 90
     1152
 91
        4
280
     0
281
     0
  0
ENDSEC
  0
SECTION
  2
TABLES
  0
TABLE
  2
VPORT
  5
8
102
{ACAD_XDICTIONARY
360
1FE
102
}
330
0
100
AcDbSymbolTable
 70
     1
  0
VPORT
  5
29
330
8
100
AcDbSymbolTableRecord
100
AcDbViewportTableRecord
  2
*Active
 70
     0
 10
0.0
 20
0.0
 11
1.0
 21
1.0
 12
330.5966133635392
 22
1112.909783186732
 13
0.0
 23
0.0
 14
0.5
 24
0.5
 15
0.5
 25
0.5
 16
0.0
 26
0.0
 36
1.0
 17
0.0
 27
0.0
 37
0.0
 40
2231.575957700933
 41
0.5146373069401223
 42
50.0
 43
0.0
 44
0.0
 50
0.0
 51
0.0
 71
     0
 72
   100
 73
     1
 74
     3
 75
     0
 76
     0
 77
     0
 78
     0
281
     0
 65
     1
110
0.0
120
0.0
130
0.0
111
1.0
121
0.0
131
0.0
112
0.0
122
1.0
132
0.0
 79
     0
146
0.0
  0
ENDTAB
  0
TABLE
  2
LTYPE
  5
5
330
0
100
AcDbSymbolTable
 70
     1
  0
LTYPE
  5
14
330
5
100
AcDbSymbolTableRecord
100
AcDbLinetypeTableRecord
  2
ByBlock
 70
     0
  3

 72
    65
 73
     0
 40
0.0
  0
LTYPE
  5
15
330
5
100
AcDbSymbolTableRecord
100
AcDbLinetypeTableRecord
  2
ByLayer
 70
     0
  3

 72
    65
 73
     0
 40
0.0
  0
LTYPE
  5
16
330
5
100
AcDbSymbolTableRecord
100
AcDbLinetypeTableRecord
  2
Continuous
 70
     0
  3
Solid line
 72
    65
 73
     0
 40
0.0
  0
ENDTAB
  0
TABLE
  2
LAYER
  5
2
330
0
100
AcDbSymbolTable
 70
     5
  0
LAYER
  5
10
330
2
100
AcDbSymbolTableRecord
100
AcDbLayerTableRecord
  2
0
 70
     0
 62
     7
  6
Continuous
370
    -3
390
F
  0
LAYER
  5
6E
330
2
100
AcDbSymbolTableRecord
100
AcDbLayerTableRecord
  2
ZagotovkaWorkingZone
 70
     0
 62
     1
420
 16711680
  6
Continuous
370
    -3
390
F
  0
LAYER
  5
70
330
2
100
AcDbSymbolTableRecord
100
AcDbLayerTableRecord
  2
L1
 70
     0
 62
    18
420
        0
  6
Continuous
370
    -3
390
F
  0
LAYER
  5
7D
330
2
100
AcDbSymbolTableRecord
100
AcDbLayerTableRecord
  2
L1$poket15mm
 70
     0
 62
    15
420
 12533567
  6
Continuous
370
    -3
390
F
  0
LAYER
  5
12A
330
2
100
AcDbSymbolTableRecord
100
AcDbLayerTableRecord
  2
Default
 70
     0
 62
     5
420
      255
  6
Continuous
370
    -3
390
F
  0
ENDTAB
  0
TABLE
  2
STYLE
  5
3
330
0
100
AcDbSymbolTable
 70
     1
  0
STYLE
  5
11
330
3
100
AcDbSymbolTableRecord
100
AcDbTextStyleTableRecord
  2
Standard
 70
     0
 40
0.0
 41
1.0
 50
0.0
 71
     0
 42
0.2
  3
txt
  4

  0
ENDTAB
  0
TABLE
  2
VIEW
  5
6
330
0
100
AcDbSymbolTable
 70
     0
  0
ENDTAB
  0
TABLE
  2
UCS
  5
7
330
0
100
AcDbSymbolTable
 70
     0
  0
ENDTAB
  0
TABLE
  2
APPID
  5
9
330
0
100
AcDbSymbolTable
 70
     2
  0
APPID
  5
12
330
9
100
AcDbSymbolTableRecord
100
AcDbRegAppTableRecord
  2
ACAD
 70
     0
  0
APPID
  5
23D
330
9
100
AcDbSymbolTableRecord
100
AcDbRegAppTableRecord
  2
ACAD_MLEADERVER
 70
     0
  0
ENDTAB
  0
TABLE
  2
DIMSTYLE
  5
A
330
0
100
AcDbSymbolTable
 70
     1
100
AcDbDimStyleTable
  0
DIMSTYLE
105
27
330
A
100
AcDbSymbolTableRecord
100
AcDbDimStyleTableRecord
  2
Standard
 70
     0
178
     0
340
11
  0
ENDTAB
  0
TABLE
  2
BLOCK_RECORD
  5
1
330
0
100
AcDbSymbolTable
 70
     1
  0
BLOCK_RECORD
  5
1F
330
1
100
AcDbSymbolTableRecord
100
AcDbBlockTableRecord
  2
*Model_Space
340
22
  0
BLOCK_RECORD
  5
1B
330
1
100
AcDbSymbolTableRecord
100
AcDbBlockTableRecord
  2
*Paper_Space
340
1E
  0
BLOCK_RECORD
  5
23
330
1
100
AcDbSymbolTableRecord
100
AcDbBlockTableRecord
  2
*Paper_Space0
340
26
  0
ENDTAB
  0
ENDSEC
  0
SECTION
  2
BLOCKS
  0
BLOCK
  5
20
330
1F
100
AcDbEntity
  8
0
100
AcDbBlockBegin
  2
*Model_Space
 70
     0
 10
0.0
 20
0.0
 30
0.0
  3
*Model_Space
  1

  0
ENDBLK
  5
21
330
1F
100
AcDbEntity
  8
0
100
AcDbBlockEnd
  0
BLOCK
  5
1C
330
1B
100
AcDbEntity
 67
     1
  8
0
100
AcDbBlockBegin
  2
*Paper_Space
 70
     0
 10
0.0
 20
0.0
 30
0.0
  3
*Paper_Space
  1

  0
ENDBLK
  5
1D
330
1B
100
AcDbEntity
 67
     1
  8
0
100
AcDbBlockEnd
  0
BLOCK
  5
24
330
23
100
AcDbEntity
  8
0
100
AcDbBlockBegin
  2
*Paper_Space0
 70
     0
 10
0.0
 20
0.0
 30
0.0
  3
*Paper_Space0
  1

  0
ENDBLK
  5
25
330
23
100
AcDbEntity
  8
0
100
AcDbBlockEnd
  0
ENDSEC
  0
SECTION
  2
ENTITIES
  0
SPLINE
  5
6F
330
1F
100
AcDbEntity
  8
ZagotovkaWorkingZone
100
AcDbSpline
210
0.0
220
0.0
230
1.0
 70
    11
 71
     2
 72
    60
 73
    57
 74
     0
 42
0.000000001
 43
0.0000000001
 40
319.0000000000001
 40
319.0000000000001
 40
319.0000000000001
 40
339.0000000000001
 40
339.0000000000001
 40
372.0000000000001
 40
372.0000000000001
 40
375.0000000000001
 40
375.0000000000001
 40
797.0
 40
797.0
 40
818.0
 40
818.0
 40
820.9999999999999
 40
820.9999999999999
 40
1085.0
 40
1085.0
 40
1103.0
 40
1103.0
 40
1136.0
 40
1136.0
 40
1139.0
 40
1139.0
 40
1393.0
 40
1393.0
 40
1411.0
 40
1411.0
 40
1414.0
 40
1414.0
 40
1838.0
 40
1838.0
 40
1857.0
 40
1857.0
 40
1890.0
 40
1890.0
 40
1893.0
 40
1893.0
 40
2167.0
 40
2167.0
 40
2182.0
 40
2182.0
 40
2185.0
 40
2185.0
 40
2452.0
 40
2452.0
 40
2471.0
 40
2471.0
 40
2504.0
 40
2504.0
 40
2507.0
 40
2507.0
 40
2762.0
 40
2762.0
 40
2781.0
 40
2781.0
 40
2784.0
 40
2784.0
 40
3062.0
 40
3062.0
 40
3062.0
 10
9.000000000000114
 20
529.0
 30
0.0
 10
20.50000000000011
 20
529.0
 30
0.0
 10
32.00000000000011
 20
529.0
 30
0.0
 10
32.00000000000011
 20
496.0
 30
0.0
 10
32.00000000000011
 20
463.0
 30
0.0
 10
20.50000000000011
 20
463.0
 30
0.0
 10
9.000000000000114
 20
463.0
 30
0.0
 10
9.000000000000114
 20
252.0
 30
0.0
 10
9.000000000000114
 20
41.0
 30
0.0
 10
21.00000000000011
 20
41.0
 30
0.0
 10
33.00000000000011
 20
41.0
 30
0.0
 10
33.00000000000011
 20
31.5
 30
0.0
 10
33.00000000000011
 20
22.0
 30
0.0
 10
165.0000000000003
 20
22.0
 30
0.0
 10
297.0000000000006
 20
22.0
 30
0.0
 10
297.0000000000006
 20
32.5
 30
0.0
 10
297.0000000000006
 20
43.0
 30
0.0
 10
330.0000000000006
 20
43.0
 30
0.0
 10
363.0000000000006
 20
43.0
 30
0.0
 10
363.0000000000006
 20
32.5
 30
0.0
 10
363.0000000000006
 20
22.0
 30
0.0
 10
490.0000000000003
 20
22.00000000000006
 30
0.0
 10
617.0000000000001
 20
22.00000000000011
 30
0.0
 10
617.0000000000001
 20
32.50000000000006
 30
0.0
 10
617.0000000000001
 20
43.0
 30
0.0
 10
632.0000000000001
 20
43.0
 30
0.0
 10
647.0000000000001
 20
43.0
 30
0.0
 10
647.0000000000001
 20
255.0
 30
0.0
 10
647.0000000000001
 20
467.0
 30
0.0
 10
636.0000000000001
 20
467.0
 30
0.0
 10
625.0000000000001
 20
467.0
 30
0.0
 10
625.0000000000001
 20
500.0
 30
0.0
 10
625.0000000000001
 20
533.0
 30
0.0
 10
636.0000000000001
 20
533.0
 30
0.0
 10
647.0000000000001
 20
533.0
 30
0.0
 10
647.0000000000001
 20
638.9393867684109
 30
0.0
 10
647.0000000000001
 20
744.878773536822
 30
0.0
 10
638.0000000000001
 20
744.878773536822
 30
0.0
 10
629.0000000000001
 20
744.878773536822
 30
0.0
 10
629.0000000000001
 20
755.878773536822
 30
0.0
 10
629.0000000000001
 20
766.878773536822
 30
0.0
 10
495.5000000000003
 20
766.878773536822
 30
0.0
 10
362.0000000000006
 20
766.878773536822
 30
0.0
 10
362.0000000000006
 20
755.878773536822
 30
0.0
 10
362.0000000000006
 20
744.878773536822
 30
0.0
 10
329.0000000000006
 20
744.878773536822
 30
0.0
 10
296.0000000000006
 20
744.878773536822
 30
0.0
 10
296.0000000000006
 20
755.878773536822
 30
0.0
 10
296.0000000000006
 20
766.878773536822
 30
0.0
 10
168.5000000000003
 20
766.8787735368221
 30
0.0
 10
41.00000000000011
 20
766.8787735368221
 30
0.0
 10
41.00000000000011
 20
755.8787735368221
 30
0.0
 10
41.00000000000011
 20
744.878773536822
 30
0.0
 10
25.00000000000011
 20
744.878773536822
 30
0.0
 10
9.000000000000114
 20
744.878773536822
 30
0.0
 10
9.000000000000114
 20
636.9393867684109
 30
0.0
 10
9.000000000000114
 20
529.0
 30
0.0
  0
SPLINE
  5
71
330
1F
100
AcDbEntity
  8
L1
100
AcDbSpline
210
0.0
220
0.0
230
1.0
 70
    12
 71
     2
 72
    24
 73
    21
 74
     0
 42
0.000000001
 43
0.0000000001
 40
520.2713116492305
 40
520.2713116492305
 40
520.2713116492305
 40
533.9304822668744
 40
533.9304822668744
 40
538.0809593795084
 40
538.0809593795084
 40
542.2314364921424
 40
542.2314364921424
 40
555.0547330757531
 40
555.0547330757531
 40
567.8780327166769
 40
567.8780327166769
 40
580.7013323576007
 40
580.7013323576007
 40
593.5246319985243
 40
593.5246319985243
 40
597.6751091111577
 40
597.6751091111577
 40
601.825586223791
 40
601.825586223791
 40
614.6999869683884
 40
614.6999869683884
 40
614.6999869683884
 10
61.76422688905723
 20
612.6555938649982
 30
0.0
 41
1.0
 10
51.2125080330685
 20
629.6598665866267
 30
0.0
 41
1.0
 10
46.85601415762926
 20
636.6804298691585
 30
0.0
 41
1.0
 10
45.65177372562228
 20
638.6210836154877
 30
0.0
 41
0.8684100485876164
 10
43.36840763425971
 20
638.5703758839146
 30
0.0
 41
1.0
 10
41.08504154289555
 20
638.5196681523402
 30
0.0
 41
0.8684100485876164
 10
39.96813976086582
 20
636.5274677631895
 30
0.0
 41
1.0
 10
36.51736217144483
 20
630.3723726987844
 30
0.0
 41
0.8684101344507178
 10
29.4626846003793
 20
630.215706320167
 30
0.0
 41
1.000000062746968
 10
22.40800509248004
 20
630.0590398985356
 30
0.0
 41
0.8684101030772265
 10
18.68738826701691
 20
636.0548766011964
 30
0.0
 41
1.000000062746968
 10
14.96677144155161
 20
642.0507133038532
 30
0.0
 41
0.8684101030772265
 10
18.23928005339378
 20
648.3024118500338
 30
0.0
 41
1.000000062746968
 10
21.51178866523122
 20
654.5541103962112
 30
0.0
 41
0.8684101030772265
 10
28.55905464846266
 20
654.9134006527438
 30
0.0
 41
1.000000062746968
 10
30.84002122746152
 20
655.0296910083613
 30
0.0
 41
0.8684101030774786
 10
31.89922387297791
 20
657.0531587587969
 30
0.0
 41
1.000000062746968
 10
32.95842651849328
 20
659.0766265092332
 30
0.0
 41
0.8684101030774786
 10
31.75418608648423
 20
661.0172802555857
 30
0.0
 41
1.000000062746968
 10
27.48499074993452
 20
667.89716047182
 30
0.0
 41
1.000000062746968
 10
18.24580199991044
 20
682.78626881297
 30
0.0
 41
1.0
  0
SPLINE
  5
72
330
1F
100
AcDbEntity
  8
L1
100
AcDbSpline
210
0.0
220
0.0
230
1.0
 70
     8
 71
     3
 72
    12
 73
     8
 74
     0
 42
0.000000001
 43
0.0000000001
 40
614.6999869683884
 40
614.6999869683884
 40
614.6999869683884
 40
614.6999869683884
 40
716.6467661157747
 40
770.9373569457548
 40
815.3363149735103
 40
845.4424738640034
 40
870.0802929991966
 40
870.0802929991966
 40
870.0802929991966
 40
870.0802929991966
 10
18.24580199991044
 20
682.78626881297
 30
0.0
 10
41.85727816885583
 20
707.6533489400819
 30
0.0
 10
77.49303811571212
 20
732.8559752713096
 30
0.0
 10
118.5331713076615
 20
750.3876397941475
 30
0.0
 10
175.6549551522498
 20
754.4039448874013
 30
0.0
 10
214.0995488656943
 20
736.0120672968618
 30
0.0
 10
230.086836445942
 20
718.9224125997865
 30
0.0
 10
235.6300476745078
 20
710.1655425623486
 30
0.0
  0
ARC
  5
73
330
1F
100
AcDbEntity
  8
L1
100
AcDbCircle
 10
237.5734131385518
 20
711.3957176202822
 30
0.0
 40
2.3
100
AcDbArc
 50
212.334330716849
 51
291.8915428353997
  0
SPLINE
  5
74
330
1F
100
AcDbEntity
  8
L1
100
AcDbSpline
210
0.0
220
0.0
230
1.0
 70
    12
 71
     2
 72
    24
 73
    21
 74
     0
 42
0.000000001
 43
0.0000000001
 40
873.2739241781019
 40
873.2739241781019
 40
873.2739241781019
 40
882.4066321309289
 40
882.4066321309289
 40
886.5571093345134
 40
886.5571093345134
 40
890.7075865380979
 40
890.7075865380979
 40
903.5308834027089
 40
903.5308834027089
 40
916.3541833246331
 40
916.3541833246331
 40
929.1774832465572
 40
929.1774832465572
 40
942.0007831684813
 40
942.0007831684813
 40
946.1512603720652
 40
946.1512603720652
 40
950.301737575649
 40
950.301737575649
 40
958.0979920936848
 40
958.0979920936848
 40
958.0979920936848
 10
238.4309700358262
 20
709.2615676330657
 30
0.0
 41
1.0
 10
239.918330407781
 20
700.7137504636916
 30
0.0
 41
1.0
 10
240.8653644513029
 20
695.2711731234612
 30
0.0
 41
1.0
 10
241.2568957249523
 20
693.0210541837204
 30
0.0
 41
0.8684100485876164
 10
243.3936948527312
 20
692.2145670674312
 30
0.0
 41
1.0
 10
245.5304939805155
 20
691.408079951143
 30
0.0
 41
0.8684100485876164
 10
247.311113146158
 20
692.8383692114604
 30
0.0
 41
1.0
 10
252.8125094073047
 20
697.2573849843855
 30
0.0
 41
0.8684101344507178
 10
259.414354349141
 20
694.765666029559
 30
0.0
 41
1.000000062746968
 10
266.0162011034873
 20
692.2739463906433
 30
0.0
 41
0.8684101030772265
 10
267.2258746916569
 20
685.3219871605434
 30
0.0
 41
1.000000062746968
 10
268.4355482798244
 20
678.3700279304464
 30
0.0
 41
0.8684101030772265
 10
263.0633880139092
 20
673.7947747785228
 30
0.0
 41
1.000000062746968
 10
257.6912277479927
 20
669.2195216266015
 30
0.0
 41
0.8684101030772265
 10
251.020516606139
 20
671.5205344881036
 30
0.0
 41
1.000000062746968
 10
248.8614283570318
 20
672.2652961371487
 30
0.0
 41
0.8684101030774786
 10
247.1226380158229
 20
670.7844382335539
 30
0.0
 41
1.000000062746968
 10
245.3838476746132
 20
669.303580329961
 30
0.0
 41
0.8684101030774786
 10
245.7753789482528
 20
667.0534613901978
 30
0.0
 41
1.000000062746968
 10
246.6159186951609
 20
662.2229037018031
 30
0.0
 41
1.000000062746968
 10
248.1098241682605
 20
653.6374720248556
 30
0.0
 41
1.000000039737282
  0
ARC
  5
75
330
1F
100
AcDbEntity
  8
L1
100
AcDbCircle
 10
248.0895511558854
 20
651.3375613733368
 30
0.0
 40
2.3
100
AcDbArc
 50
89.49496822244755
 51
166.3179984830574
  0
SPLINE
  5
76
330
1F
100
AcDbEntity
  8
L1
100
AcDbSpline
210
0.0
220
0.0
230
1.0
 70
     8
 71
     3
 72
    18
 73
    14
 74
     0
 42
0.000000001
 43
0.0000000001
 40
961.1818661783205
 40
961.1818661783205
 40
961.1818661783205
 40
961.1818661783205
 40
977.1085669014504
 40
996.1250150365252
 40
1017.929943125824
 40
1032.72660359929
 40
1049.068988540901
 40
1065.798199349697
 40
1076.677796329993
 40
1089.406417934917
 40
1101.880048479856
 40
1111.307874555143
 40
1117.851927212339
 40
1117.851927212339
 40
1117.851927212339
 40
1117.851927212339
 10
245.854817173303
 20
651.8815871329211
 30
0.0
 10
244.2660645704091
 20
645.3553550521584
 30
0.0
 10
238.6971310263491
 20
631.5006693305367
 30
0.0
 10
221.1174452198261
 20
614.7489387110198
 30
0.0
 10
198.7749258162469
 20
605.0955260681984
 30
0.0
 10
176.1222116512199
 20
608.0580189628766
 30
0.0
 10
158.4698173410458
 20
618.8942005465327
 30
0.0
 10
148.7069327352654
 20
635.4128410193558
 30
0.0
 10
146.5399869725721
 20
652.4462837111022
 30
0.0
 10
151.0508460413903
 20
667.504995814467
 30
0.0
 10
161.6835743173031
 20
678.1175063698303
 30
0.0
 10
173.0890765965532
 20
682.6200656770344
 30
0.0
 10
179.9040225382234
 20
682.2869333003064
 30
0.0
 10
182.5937703133391
 20
681.7811125948383
 30
0.0
  0
SPLINE
  5
77
330
1F
100
AcDbEntity
  8
L1
100
AcDbSpline
210
0.0
220
0.0
230
1.0
 70
     8
 71
     3
 72
    12
 73
     8
 74
     0
 42
0.000000001
 43
0.0000000001
 40
1117.851927212339
 40
1117.851927212339
 40
1117.851927212339
 40
1117.851927212339
 40
1118.89353818009
 40
1120.017180196787
 40
1121.223355214593
 40
1122.476764668442
 40
1123.937968499661
 40
1123.937968499661
 40
1123.937968499661
 40
1123.937968499661
 10
182.5937703133391
 20
681.7811125948383
 30
0.0
 10
183.0218319864284
 20
681.7002670503313
 30
0.0
 10
183.9652382173647
 20
681.7077353416568
 30
0.0
 10
185.2369648676927
 20
682.4511359064312
 30
0.0
 10
186.0261394077093
 20
683.8282686382116
 30
0.0
 10
185.8613121170872
 20
685.5459344843385
 30
0.0
 10
185.2916999785657
 20
686.5344151720375
 30
0.0
 10
184.9451581327751
 20
687.0450821895927
 30
0.0
  0
SPLINE
  5
78
330
1F
100
AcDbEntity
  8
L1
100
AcDbSpline
210
0.0
220
0.0
230
1.0
 70
     8
 71
     3
 72
     9
 73
     5
 74
     0
 42
0.000000001
 43
0.0000000001
 40
1123.937968499661
 40
1123.937968499661
 40
1123.937968499661
 40
1123.937968499661
 40
1124.93796861655
 40
1125.678211330645
 40
1125.678211330645
 40
1125.678211330645
 40
1125.678211330645
 10
184.9451581327751
 20
687.0450821895927
 30
0.0
 10
164.8357887709782
 20
708.015684235496
 30
0.0
 10
108.4479694778585
 20
698.1111337164406
 30
0.0
 10
75.37901851772347
 20
652.103078857791
 30
0.0
 10
61.76422688905723
 20
612.6555938649982
 30
0.0
  0
SPLINE
  5
79
330
1F
100
AcDbEntity
  8
L1
100
AcDbSpline
210
0.0
220
0.0
230
1.0
 70
    12
 71
     2
 72
    24
 73
    21
 74
     0
 42
0.000000001
 43
0.0000000001
 40
507.9070832303668
 40
507.9070832303668
 40
507.9070832303668
 40
533.9304822668744
 40
533.9304822668744
 40
538.0809593795084
 40
538.0809593795084
 40
542.2314364921424
 40
542.2314364921424
 40
555.0547330757531
 40
555.0547330757531
 40
567.8780327166769
 40
567.8780327166769
 40
580.7013323576007
 40
580.7013323576007
 40
593.5246319985243
 40
593.5246319985243
 40
597.6751091111577
 40
597.6751091111577
 40
601.825586223791
 40
601.825586223791
 40
625.4942942817686
 40
625.4942942817686
 40
625.4942942817686
 10
46.21296002805673
 20
572.7307722068878
 30
0.0
 41
1.0
 10
78.30052422552467
 20
571.1126263412847
 30
0.0
 41
1.0
 10
94.0220496433567
 20
570.3198045116511
 30
0.0
 41
1.0
 10
96.30308011803162
 20
570.2047742772314
 30
0.0
 41
0.8684100485876164
 10
97.56152774085592
 20
572.1107232696835
 30
0.0
 41
1.0
 10
98.81997536367915
 20
574.0166722621402
 30
0.0
 41
0.8684100485876164
 10
97.81821233216112
 20
576.0691836043508
 30
0.0
 41
1.0
 10
94.72317000865836
 20
582.4106167419992
 30
0.0
 41
0.8684101344507178
 10
98.61126410478298
 20
588.2992281475505
 30
0.0
 41
1.000000062746968
 10
102.4993592683675
 20
594.1878411697961
 30
0.0
 41
0.8684101030772265
 10
109.5468226635082
 20
593.8324441790579
 30
0.0
 41
1.000000062746968
 10
116.5942860586478
 20
593.4770471883181
 30
0.0
 41
0.8684101030772265
 10
119.8702478766213
 20
587.2271574697692
 30
0.0
 41
1.000000062746968
 10
123.1462096945934
 20
580.9772677512167
 30
0.0
 41
0.8684101030772265
 10
119.4289057933731
 20
574.9793765357309
 30
0.0
 41
1.000000062746968
 10
118.2257376452098
 20
573.0380578116232
 30
0.0
 41
0.8684101030774786
 10
119.2860579791761
 20
571.0151755187808
 30
0.0
 41
1.000000062746968
 10
120.3463783131378
 20
568.9922932259364
 30
0.0
 41
0.8684101030774786
 10
122.6274087878326
 20
568.8772629915011
 30
0.0
 41
1.000000062746968
 10
137.4940013406912
 20
568.127554627009
 30
0.0
 41
1.000000062746968
 10
183.0913819684561
 20
565.8281213483704
 30
0.0
 41
1.0
  0
SPLINE
  5
7A
330
1F
100
AcDbEntity
  8
L1
100
AcDbSpline
210
0.0
220
0.0
230
1.0
 70
     8
 71
     3
 72
    12
 73
     8
 74
     0
 42
0.000000001
 43
0.0000000001
 40
625.4942942817686
 40
625.4942942817686
 40
625.4942942817686
 40
625.4942942817686
 40
706.6281607473945
 40
776.6734510184071
 40
852.028037533376
 40
917.2277477615987
 40
1000.789949244443
 40
1000.789949244443
 40
1000.789949244443
 40
1000.789949244443
 10
183.0913819684561
 20
565.8281213483704
 30
0.0
 10
178.26575056356
 20
539.2143989534329
 30
0.0
 10
168.1809069968999
 20
489.8064650375803
 30
0.0
 10
148.5149003193934
 20
416.8771384280045
 30
0.0
 10
129.3041649564459
 20
349.3692330579612
 30
0.0
 10
110.1529345562869
 20
277.1230918853914
 30
0.0
 10
101.9850699976654
 20
228.1092557117654
 30
0.0
 10
98.50093799534898
 20
200.4739543456315
 30
0.0
  0
ARC
  5
7B
330
1F
100
AcDbEntity
  8
L1
100
AcDbCircle
 10
101.2553100101352
 20
201.586638239591
 30
0.0
 40
2.970627988105521
100
AcDbArc
 50
201.9972346503773
 51
354.4929951511828
  0
SPLINE
  5
7C
330
1F
100
AcDbEntity
  8
L1
100
AcDbSpline
210
0.0
220
0.0
230
1.0
 70
     8
 71
     3
 72
    25
 73
    21
 74
     0
 42
0.000000001
 43
0.0000000001
 40
1006.6453660998
 40
1006.6453660998
 40
1006.6453660998
 40
1006.6453660998
 40
1020.018181284354
 40
1037.583223489742
 40
1057.784162527781
 40
1083.545975703596
 40
1107.392300667437
 40
1133.92400305458
 40
1164.950123716642
 40
1192.729013674184
 40
1220.111085465576
 40
1260.657544688971
 40
1303.707576901021
 40
1339.475423223075
 40
1399.210208441054
 40
1464.222561835229
 40
1541.762204435109
 40
1617.111441517913
 40
1668.57060897432
 40
1711.483562422422
 40
1711.483562422422
 40
1711.483562422422
 40
1711.483562422422
 10
104.2122269847007
 20
201.3015546566878
 30
0.0
 10
104.8274913936976
 20
205.7164975928962
 30
0.0
 10
108.1102108359696
 20
215.8326395165175
 30
0.0
 10
121.4587763364027
 20
228.0042084131787
 30
0.0
 10
143.5265853211987
 20
231.2706281053854
 30
0.0
 10
166.1911240741921
 20
221.0375637859784
 30
0.0
 10
180.1210016021166
 20
198.3095674047664
 30
0.0
 10
180.2758456607247
 20
169.759829754977
 30
0.0
 10
164.0478626946177
 20
144.4088492680929
 30
0.0
 10
138.3381698274205
 20
129.9816340393455
 30
0.0
 10
106.142359268592
 20
125.0303370364614
 30
0.0
 10
69.2866155235281
 20
136.2811711993657
 30
0.0
 10
39.12114726331868
 20
164.6303902940974
 30
0.0
 10
22.69925184455576
 20
209.0961773298227
 30
0.0
 10
26.02891097043096
 20
263.3299780808964
 30
0.0
 10
31.04726486150037
 20
330.2889353799748
 30
0.0
 10
38.73893991061789
 20
402.6156253301811
 30
0.0
 10
44.7266626615442
 20
470.4414852374812
 30
0.0
 10
47.85759200894142
 20
526.9700665544348
 30
0.0
 10
47.00242570070839
 20
558.4482566622553
 30
0.0
 10
46.21296002805673
 20
572.7307722068878
 30
0.0
  0
SPLINE
  5
7E
330
1F
100
AcDbEntity
  8
L1$poket15mm
100
AcDbSpline
210
0.0
220
0.0
230
1.0
 70
    28
 71
     2
 72
     6
 73
     3
 74
     0
 42
0.000000001
 43
0.0000000001
 40
788.8758150434519
 40
788.8758150434519
 40
788.8758150434519
 40
840.8148240639414
 40
840.8148240639414
 40
840.8148240639414
 10
60.41820111988818
 20
277.5859775316101
 30
0.0
 41
1.0
 10
57.10070536328703
 20
256.2225280372414
 30
0.0
 41
1.0
 10
53.78320802477947
 20
234.8590683559842
 30
0.0
 41
1.0
  0
ARC
  5
7F
330
1F
100
AcDbEntity
  8
L1$poket15mm
100
AcDbCircle
 10
55.50693104583956
 20
232.2824855518282
 30
0.0
 40
3.100000000001077
100
AcDbArc
 50
123.7823555408906
 51
301.9095133657211
  0
LINE
  5
80
330
1F
100
AcDbEntity
  8
L1$poket15mm
100
AcDbLine
 10
57.14552684582748
 20
229.6509453556179
 30
0.0
 11
67.28069300267782
 21
228.0770716828907
 31
0.0
  0
ARC
  5
81
330
1F
100
AcDbEntity
  8
L1$poket15mm
100
AcDbCircle
 10
69.64017257342948
 20
230.087757176751
 30
0.0
 40
3.100000000002067
100
AcDbArc
 50
220.4367499226048
 51
38.56390774745498
  0
LINE
  5
82
330
1F
100
AcDbEntity
  8
L1$poket15mm
100
AcDbLine
 10
72.06410385601373
 20
232.020257406331
 30
0.0
 11
78.69909695111232
 21
274.7471665819506
 31
0.0
  0
ARC
  5
83
330
1F
100
AcDbEntity
  8
L1$poket15mm
100
AcDbCircle
 10
76.9753739300595
 20
277.32374938611
 30
0.0
 40
3.099999999999593
100
AcDbArc
 50
303.7823555407502
 51
121.9095133657149
  0
LINE
  5
84
330
1F
100
AcDbEntity
  8
L1$poket15mm
100
AcDbLine
 10
75.33677813007193
 20
279.955289582319
 30
0.0
 11
65.20161197322238
 21
281.5291632550414
 31
0.0
  0
ARC
  5
85
330
1F
100
AcDbEntity
  8
L1$poket15mm
100
AcDbCircle
 10
62.84213240246993
 20
279.5184777611872
 30
0.0
 40
3.099999999999049
100
AcDbArc
 50
40.43674992252244
 51
218.5639077474432
  0
LINE
  5
86
330
1F
100
AcDbEntity
  8
L1$poket15mm
100
AcDbLine
 10
101.8514437371819
 20
508.2069333926179
 30
0.0
 11
96.74849839332114
 21
508.7164593082839
 31
0.0
  0
ARC
  5
87
330
1F
100
AcDbEntity
  8
L1$poket15mm
100
AcDbCircle
 10
94.9688900945589
 20
511.2547647081481
 30
0.0
 40
3.100000000001043
100
AcDbArc
 50
126.9071754779967
 51
305.0343333028412
  0
LINE
  5
88
330
1F
100
AcDbEntity
  8
L1$poket15mm
100
AcDbLine
 10
93.10727694849356
 20
513.7335540284417
 30
0.0
 11
97.4033027233769
 21
556.7586172313643
 31
0.0
  0
ARC
  5
89
330
1F
100
AcDbEntity
  8
L1$poket15mm
100
AcDbCircle
 10
99.71828676163761
 20
558.8203759230146
 30
0.0
 40
3.099999999999282
100
AcDbArc
 50
43.56156985970227
 51
221.6887276846854
  0
LINE
  5
8A
330
1F
100
AcDbEntity
  8
L1$poket15mm
100
AcDbLine
 10
101.9646529327121
 20
560.9566902784983
 30
0.0
 11
107.0675982765727
 21
560.4471643628327
 31
0.0
  0
LINE
  5
8B
330
1F
100
AcDbEntity
  8
L1$poket15mm
100
AcDbLine
 10
107.0675982765727
 20
560.4471643628327
 30
0.0
 11
112.1705436204332
 21
559.9376384471691
 31
0.0
  0
ARC
  5
8C
330
1F
100
AcDbEntity
  8
L1$poket15mm
100
AcDbCircle
 10
113.9501519191947
 20
557.3993330473058
 30
0.0
 40
3.099999999999282
100
AcDbArc
 50
306.9071754778645
 51
125.0343333028466
  0
LINE
  5
8D
330
1F
100
AcDbEntity
  8
L1$poket15mm
100
AcDbLine
 10
115.8117650652534
 20
554.9205437270084
 30
0.0
 11
111.5157392903848
 21
511.8954805240842
 31
0.0
  0
ARC
  5
8E
330
1F
100
AcDbEntity
  8
L1$poket15mm
100
AcDbCircle
 10
109.2007552521175
 20
509.8337218324399
 30
0.0
 40
3.100000000001043
100
AcDbArc
 50
223.5615698597083
 51
41.68872768455222
  0
LINE
  5
8F
330
1F
100
AcDbEntity
  8
L1$poket15mm
100
AcDbLine
 10
106.9543890810421
 20
507.6974074769543
 30
0.0
 11
101.8514437371819
 21
508.2069333926179
 31
0.0
  0
LINE
  5
90
330
1F
100
AcDbEntity
  8
L1$poket15mm
100
AcDbLine
 10
90.05302801258597
 20
414.8989014440879
 30
0.0
 11
84.96890740477158
 21
415.5707537242499
 31
0.0
  0
ARC
  5
91
330
1F
100
AcDbEntity
  8
L1$poket15mm
100
AcDbCircle
 10
83.27107559789556
 20
418.1644705853526
 30
0.0
 40
3.100000000001043
100
AcDbArc
 50
125.0813644780234
 51
303.208522302867
  0
LINE
  5
92
330
1F
100
AcDbEntity
  8
L1$poket15mm
100
AcDbLine
 10
81.48938433382204
 20
420.7013143407949
 30
0.0
 11
87.15405147586739
 21
463.567658332834
 31
0.0
  0
ARC
  5
93
330
1F
100
AcDbEntity
  8
L1$poket15mm
100
AcDbCircle
 10
89.53354995311088
 20
465.5546125338141
 30
0.0
 40
3.099999999999282
100
AcDbArc
 50
41.73575885972939
 51
219.8629166847107
  0
LINE
  5
94
330
1F
100
AcDbEntity
  8
L1$poket15mm
100
AcDbLine
 10
91.84684081938997
 20
467.6182707826485
 30
0.0
 11
96.93096142720401
 21
466.946418502486
 31
0.0
  0
LINE
  5
95
330
1F
100
AcDbEntity
  8
L1$poket15mm
100
AcDbLine
 10
96.93096142720401
 20
466.946418502486
 30
0.0
 11
102.0150820350187
 21
466.2745662223252
 31
0.0
  0
ARC
  5
96
330
1F
100
AcDbEntity
  8
L1$poket15mm
100
AcDbCircle
 10
103.7129138418945
 20
463.6808493612253
 30
0.0
 40
3.099999999999282
100
AcDbArc
 50
305.0813644778908
 51
123.2085223028725
  0
LINE
  5
97
330
1F
100
AcDbEntity
  8
L1$poket15mm
100
AcDbLine
 10
105.4946051059609
 20
461.1440056057788
 30
0.0
 11
99.82993796392952
 21
418.2776616137377
 31
0.0
  0
ARC
  5
98
330
1F
100
AcDbEntity
  8
L1$poket15mm
100
AcDbCircle
 10
97.4504394866799
 20
416.2907074127628
 30
0.0
 40
3.100000000001043
100
AcDbArc
 50
221.7357588597342
 51
39.86291668457785
  0
LINE
  5
99
330
1F
100
AcDbEntity
  8
L1$poket15mm
100
AcDbLine
 10
95.13714862040035
 20
414.2270491639264
 30
0.0
 11
90.05302801258597
 21
414.8989014440879
 31
0.0
  0
LINE
  5
9A
330
1F
100
AcDbEntity
  8
L1$poket15mm
100
AcDbLine
 10
76.55058259399789
 20
321.8193257640471
 30
0.0
 11
71.47751092938393
 21
322.5700665494366
 31
0.0
  0
ARC
  5
9B
330
1F
100
AcDbEntity
  8
L1$poket15mm
100
AcDbCircle
 10
69.82017108356081
 20
325.1898422336238
 30
0.0
 40
3.100000000001043
100
AcDbArc
 50
124.1913768912859
 51
302.3185347161296
  0
LINE
  5
9C
330
1F
100
AcDbEntity
  8
L1$poket15mm
100
AcDbLine
 10
68.07809851059551
 20
327.7540542276922
 30
0.0
 11
74.40790758434468
 21
370.5272399655338
 31
0.0
  0
ARC
  5
9D
330
1F
100
AcDbEntity
  8
L1$poket15mm
100
AcDbCircle
 10
76.8179815468701
 20
372.4769946924558
 30
0.0
 40
3.099999999999282
100
AcDbArc
 50
40.84577127299154
 51
218.9729290979731
  0
LINE
  5
9E
330
1F
100
AcDbEntity
  8
L1$poket15mm
100
AcDbLine
 10
79.1630472980354
 20
374.5044725894261
 30
0.0
 11
84.23611896264936
 21
373.7537318040357
 31
0.0
  0
LINE
  5
9F
330
1F
100
AcDbEntity
  8
L1$poket15mm
100
AcDbLine
 10
84.23611896264936
 20
373.7537318040357
 30
0.0
 11
89.30919062726502
 21
373.0029910186475
 31
0.0
  0
ARC
  5
A0
330
1F
100
AcDbEntity
  8
L1$poket15mm
100
AcDbCircle
 10
90.96653047308632
 20
370.383215334463
 30
0.0
 40
3.099999999999282
100
AcDbArc
 50
304.1913768911533
 51
122.3185347161348
  0
LINE
  5
A1
330
1F
100
AcDbEntity
  8
L1$poket15mm
100
AcDbLine
 10
92.70860304604525
 20
367.819003340391
 30
0.0
 11
86.37879397231109
 21
325.0458176025471
 31
0.0
  0
ARC
  5
A2
330
1F
100
AcDbEntity
  8
L1$poket15mm
100
AcDbCircle
 10
83.96872000977862
 20
323.0960628756323
 30
0.0
 40
3.100000000001043
100
AcDbArc
 50
220.8457712729967
 51
38.97292909784021
  0
LINE
  5
A3
330
1F
100
AcDbEntity
  8
L1$poket15mm
100
AcDbLine
 10
81.62365425861265
 20
321.0685849786595
 30
0.0
 11
76.55058259399789
 21
321.8193257640471
 31
0.0
  0
LINE
  5
A4
330
1F
100
AcDbEntity
  8
L1$poket15mm
100
AcDbLine
 10
282.2162026370894
 20
250.7937177384198
 30
0.0
 11
285.925759803259
 21
254.3347420919197
 31
0.0
  0
ARC
  5
A5
330
1F
100
AcDbEntity
  8
L1$poket15mm
100
AcDbCircle
 10
289.0109902653429
 20
254.0324955107336
 30
0.0
 40
3.100000000001043
100
AcDbArc
 50
356.2776782303993
 51
174.4048360552428
  0
LINE
  5
A6
330
1F
100
AcDbEntity
  8
L1$poket15mm
100
AcDbLine
 10
292.104450510007
 20
253.8312401637595
 30
0.0
 11
321.9603055792178
 21
222.5544145709931
 31
0.0
  0
ARC
  5
A7
330
1F
100
AcDbEntity
  8
L1$poket15mm
100
AcDbCircle
 10
322.0176121966557
 20
219.4549443014807
 30
0.0
 40
3.099999999999282
100
AcDbArc
 50
272.9320726121048
 51
91.0592304370866
  0
LINE
  5
A8
330
1F
100
AcDbEntity
  8
L1$poket15mm
100
AcDbLine
 10
322.1761833592476
 20
216.3590025729627
 30
0.0
 11
318.4666261930766
 21
212.817978219463
 31
0.0
  0
LINE
  5
A9
330
1F
100
AcDbEntity
  8
L1$poket15mm
100
AcDbLine
 10
318.4666261930766
 20
212.817978219463
 30
0.0
 11
314.7570690269077
 21
209.2769538659613
 31
0.0
  0
ARC
  5
AA
330
1F
100
AcDbEntity
  8
L1$poket15mm
100
AcDbCircle
 10
311.6718385648256
 20
209.5792004471469
 30
0.0
 40
3.099999999999282
100
AcDbArc
 50
176.2776782302666
 51
354.4048360552482
  0
LINE
  5
AB
330
1F
100
AcDbEntity
  8
L1$poket15mm
100
AcDbLine
 10
308.5783783201638
 20
209.780455794129
 30
0.0
 11
278.7225232509414
 21
241.0572813868837
 31
0.0
  0
ARC
  5
AC
330
1F
100
AcDbEntity
  8
L1$poket15mm
100
AcDbCircle
 10
278.6652166335128
 20
244.1567516563983
 30
0.0
 40
3.100000000001043
100
AcDbArc
 50
92.93207261211053
 51
271.0592304369546
  0
LINE
  5
AD
330
1F
100
AcDbEntity
  8
L1$poket15mm
100
AcDbLine
 10
278.50664547092
 20
247.2526933849193
 30
0.0
 11
282.2162026370894
 21
250.7937177384198
 31
0.0
  0
LINE
  5
AE
330
1F
100
AcDbEntity
  8
L1$poket15mm
100
AcDbLine
 10
259.457837654542
 20
340.76162110547
 30
0.0
 11
264.5411534339388
 21
341.4395359438579
 31
0.0
  0
ARC
  5
AF
330
1F
100
AcDbEntity
  8
L1$poket15mm
100
AcDbCircle
 10
266.8569036579123
 20
339.3786378628819
 30
0.0
 40
3.100000000001043
100
AcDbArc
 50
320.2054110521356
 51
138.3325688769784
  0
LINE
  5
B0
330
1F
100
AcDbEntity
  8
L1$poket15mm
100
AcDbLine
 10
269.238769972848
 20
337.394522730694
 30
0.0
 11
274.9545530750325
 21
294.5349645831492
 31
0.0
  0
ARC
  5
B1
330
1F
100
AcDbEntity
  8
L1$poket15mm
100
AcDbCircle
 10
273.1758883749138
 20
291.9959978869222
 30
0.0
 40
3.099999999999282
100
AcDbArc
 50
236.8598054338413
 51
54.98696325882226
  0
LINE
  5
B2
330
1F
100
AcDbEntity
  8
L1$poket15mm
100
AcDbLine
 10
271.4811508960189
 20
289.4002581315494
 30
0.0
 11
266.397835116623
 21
288.7223432931626
 31
0.0
  0
LINE
  5
B3
330
1F
100
AcDbEntity
  8
L1$poket15mm
100
AcDbLine
 10
266.397835116623
 20
288.7223432931626
 30
0.0
 11
261.3145193372264
 21
288.0444284547739
 31
0.0
  0
ARC
  5
B4
330
1F
100
AcDbEntity
  8
L1$poket15mm
100
AcDbCircle
 10
258.9987691132536
 20
290.1053265357483
 30
0.0
 40
3.099999999999282
100
AcDbArc
 50
140.205411052002
 51
318.3325688769832
  0
LINE
  5
B5
330
1F
100
AcDbEntity
  8
L1$poket15mm
100
AcDbLine
 10
256.6169027983229
 20
292.0894416679415
 30
0.0
 11
250.9011196961247
 21
334.9489998154833
 31
0.0
  0
ARC
  5
B6
330
1F
100
AcDbEntity
  8
L1$poket15mm
100
AcDbCircle
 10
252.6797843962505
 20
337.4879665117065
 30
0.0
 40
3.100000000001043
100
AcDbArc
 50
56.85980543384614
 51
234.9869632586898
  0
LINE
  5
B7
330
1F
100
AcDbEntity
  8
L1$poket15mm
100
AcDbLine
 10
254.3745218751468
 20
340.0837062670817
 30
0.0
 11
259.457837654542
 21
340.76162110547
 31
0.0
  0
LINE
  5
B8
330
1F
100
AcDbEntity
  8
L1$poket15mm
100
AcDbLine
 10
264.338172696736
 20
434.5131466862822
 30
0.0
 11
269.4505438806615
 21
434.1090072067357
 31
0.0
  0
ARC
  5
B9
330
1F
100
AcDbEntity
  8
L1$poket15mm
100
AcDbCircle
 10
271.2821407538578
 20
431.6079568485645
 30
0.0
 40
3.100000000001043
100
AcDbArc
 50
308.0893187407644
 51
126.2164765656081
  0
LINE
  5
BA
330
1F
100
AcDbEntity
  8
L1$poket15mm
100
AcDbLine
 10
273.1944971545714
 20
429.1681017306011
 30
0.0
 11
269.7870284323634
 21
386.0635653338225
 31
0.0
  0
ARC
  5
BB
330
1F
100
AcDbEntity
  8
L1$poket15mm
100
AcDbCircle
 10
267.5150729008113
 20
383.9544854247988
 30
0.0
 40
3.099999999999282
100
AcDbArc
 50
224.7437131224704
 51
42.87087094745234
  0
LINE
  5
BC
330
1F
100
AcDbEntity
  8
L1$poket15mm
100
AcDbLine
 10
265.3132587770473
 20
381.7722813636751
 30
0.0
 11
260.2008875931223
 21
382.1764208432226
 31
0.0
  0
LINE
  5
BD
330
1F
100
AcDbEntity
  8
L1$poket15mm
100
AcDbLine
 10
260.2008875931223
 20
382.1764208432226
 30
0.0
 11
255.088516409195
 21
382.5805603227682
 31
0.0
  0
ARC
  5
BE
330
1F
100
AcDbEntity
  8
L1$poket15mm
100
AcDbCircle
 10
253.2569195360005
 20
385.0816106809369
 30
0.0
 40
3.099999999999282
100
AcDbArc
 50
128.0893187406314
 51
306.2164765656137
  0
LINE
  5
BF
330
1F
100
AcDbEntity
  8
L1$poket15mm
100
AcDbLine
 10
251.3445631352932
 20
387.5214657989048
 30
0.0
 11
254.7520318574867
 21
430.6260021956845
 31
0.0
  0
ARC
  5
C0
330
1F
100
AcDbEntity
  8
L1$poket15mm
100
AcDbCircle
 10
257.0239873890456
 20
432.7350821047029
 30
0.0
 40
3.100000000001043
100
AcDbArc
 50
44.74371312247498
 51
222.870870947319
  0
LINE
  5
C1
330
1F
100
AcDbEntity
  8
L1$poket15mm
100
AcDbLine
 10
259.2258015128108
 20
434.9172861658286
 30
0.0
 11
264.338172696736
 21
434.5131466862822
 31
0.0
  0
LINE
  5
C2
330
1F
100
AcDbEntity
  8
L1$poket15mm
100
AcDbLine
 10
279.5476457519297
 20
527.2711897800197
 30
0.0
 11
284.5827500274326
 21
526.2978487421678
 31
0.0
  0
ARC
  5
C3
330
1F
100
AcDbEntity
  8
L1$poket15mm
100
AcDbCircle
 10
286.1231547312412
 20
523.6076529596102
 30
0.0
 40
3.100000000001043
100
AcDbArc
 50
301.6682720452055
 51
119.795429870048
  0
LINE
  5
C4
330
1F
100
AcDbEntity
  8
L1$poket15mm
100
AcDbLine
 10
287.7506560570704
 20
520.969236875209
 30
0.0
 11
279.5440112961252
 21
478.5161700502823
 31
0.0
  0
ARC
  5
C5
330
1F
100
AcDbEntity
  8
L1$poket15mm
100
AcDbCircle
 10
277.050441177371
 20
476.6744024040128
 30
0.0
 40
3.099999999999282
100
AcDbArc
 50
218.3226664269112
 51
36.44982425189269
  0
LINE
  5
C6
330
1F
100
AcDbEntity
  8
L1$poket15mm
100
AcDbLine
 10
274.6183946985433
 20
474.7521251282749
 30
0.0
 11
269.5832904230398
 21
475.7254661661274
 31
0.0
  0
LINE
  5
C7
330
1F
100
AcDbEntity
  8
L1$poket15mm
100
AcDbLine
 10
269.5832904230398
 20
475.7254661661274
 30
0.0
 11
264.5481861475349
 21
476.6988072039771
 31
0.0
  0
ARC
  5
C8
330
1F
100
AcDbEntity
  8
L1$poket15mm
100
AcDbCircle
 10
263.0077814437278
 20
479.3890029865328
 30
0.0
 40
3.099999999999282
100
AcDbArc
 50
121.6682720450722
 51
299.7954298700537
  0
LINE
  5
C9
330
1F
100
AcDbEntity
  8
L1$poket15mm
100
AcDbLine
 10
261.380280117906
 20
482.027419070938
 30
0.0
 11
269.5869248788357
 21
524.480485895866
 31
0.0
  0
ARC
  5
CA
330
1F
100
AcDbEntity
  8
L1$poket15mm
100
AcDbCircle
 10
272.0804949975972
 20
526.322253542131
 30
0.0
 40
3.100000000001043
100
AcDbArc
 50
38.32266642691565
 51
216.4498242517593
  0
LINE
  5
CB
330
1F
100
AcDbEntity
  8
L1$poket15mm
100
AcDbLine
 10
274.5125414764253
 20
528.2445308178703
 30
0.0
 11
279.5476457519297
 21
527.2711897800197
 31
0.0
  0
ARC
  5
CC
330
1F
100
AcDbEntity
  8
L1
100
AcDbCircle
 10
160.1434957303819
 20
370.5809119862548
 30
0.0
 40
2.3
100
AcDbArc
 50
359.1451806235308
 51
76.08343707182402
  0
SPLINE
  5
CD
330
1F
100
AcDbEntity
  8
L1
100
AcDbSpline
210
0.0
220
0.0
230
1.0
 70
     8
 71
     3
 72
     9
 73
     5
 74
     0
 42
0.000000001
 43
0.0000000001
 40
10.6973769849896
 40
10.6973769849896
 40
10.6973769849896
 40
10.6973769849896
 40
32.11786064485892
 40
91.93028849284457
 40
91.93028849284457
 40
91.93028849284457
 40
91.93028849284457
 10
162.4432397579257
 20
370.546598610203
 30
0.0
 10
162.3366812982694
 20
363.404859462729
 30
0.0
 10
163.0208044701554
 20
336.2659596887185
 30
0.0
 10
168.3904630665935
 20
308.9461781174489
 30
0.0
 10
174.6496644461478
 20
289.5376135301465
 30
0.0
  0
SPLINE
  5
CE
330
1F
100
AcDbEntity
  8
L1
100
AcDbSpline
210
0.0
220
0.0
230
1.0
 70
     8
 71
     3
 72
     8
 73
     4
 74
     0
 42
0.000000001
 43
0.0000000001
 40
91.93028849284457
 40
91.93028849284457
 40
91.93028849284457
 40
91.93028849284457
 40
92.58306069034612
 40
92.58306069034612
 40
92.58306069034612
 40
92.58306069034612
 10
174.6496644461478
 20
289.5376135301465
 30
0.0
 10
187.9301007611649
 20
244.131239228305
 30
0.0
 10
192.1235271686375
 20
214.7529842478434
 30
0.0
 10
189.7378693714967
 20
192.2307924184111
 30
0.0
  0
SPLINE
  5
CF
330
1F
100
AcDbEntity
  8
L1
100
AcDbSpline
210
0.0
220
0.0
230
1.0
 70
    12
 71
     2
 72
    24
 73
    21
 74
     0
 42
0.000000001
 43
0.0000000001
 40
92.58306069034612
 40
92.58306069034612
 40
92.58306069034612
 40
102.2786839467454
 40
102.2786839467454
 40
106.4291611496455
 40
106.4291611496455
 40
110.5796383525456
 40
110.5796383525456
 40
123.4029352150419
 40
123.4029352150419
 40
136.2262351348515
 40
136.2262351348515
 40
149.049535054661
 40
149.049535054661
 40
161.8728349744704
 40
161.8728349744704
 40
166.0233121773697
 40
166.0233121773697
 40
170.1737893802691
 40
170.1737893802691
 40
177.9619877165801
 40
177.9619877165801
 40
177.9619877165801
 10
189.7378693714967
 20
192.2307924184111
 30
0.0
 41
1.0
 10
200.8717762256864
 20
189.0355305698743
 30
0.0
 41
1.0
 10
206.509087127038
 20
187.4177081210852
 30
0.0
 41
1.0
 10
208.7044013508625
 20
186.7876863437585
 30
0.0
 41
0.8684100485876164
 10
210.3627907565386
 20
188.3580609998121
 30
0.0
 41
1.0
 10
212.0211801622137
 20
189.9284356558633
 30
0.0
 41
0.8684100485876164
 10
211.511691821234
 20
192.1548124459962
 30
0.0
 41
1.0
 10
209.9375799167927
 20
199.03341934971
 30
0.0
 41
0.8684101344507178
 10
215.0613323402802
 20
203.8852417999514
 30
0.0
 41
1.000000062746968
 10
220.1850861704759
 20
208.7370655822431
 30
0.0
 41
0.8684101030772265
 10
226.9677209511085
 20
206.7905526078669
 30
0.0
 41
1.000000062746968
 10
233.7503557317414
 20
204.8440396334907
 30
0.0
 41
0.8684101030772265
 10
235.5214489307716
 20
198.0134996689481
 30
0.0
 41
1.000000062746968
 10
237.2925421298
 20
191.1829597044052
 30
0.0
 41
0.8684101030772265
 10
232.3103016025457
 20
186.1859279198904
 30
0.0
 41
1.000000062746968
 10
230.6977153658081
 20
184.5685542430955
 30
0.0
 41
0.8684101030774786
 10
231.2709595721257
 20
182.3577346979369
 30
0.0
 41
1.000000062746968
 10
231.8442037784455
 20
180.1469151527831
 30
0.0
 41
0.8684101030774786
 10
234.0395180022855
 20
179.5168933754408
 30
0.0
 41
1.000000062746968
 10
238.7475508390152
 20
178.1657595908746
 30
0.0
 41
1.000000062746968
 10
247.581730977391
 20
175.6304843160755
 30
0.0
 41
1.000000040039826
  0
ARC
  5
D0
330
1F
100
AcDbEntity
  8
L1
100
AcDbCircle
 10
249.5818310804242
 20
174.4948789366203
 30
0.0
 40
2.3
100
AcDbArc
 50
50.2128759461489
 51
150.4132044076811
  0
SPLINE
  5
D1
330
1F
100
AcDbEntity
  8
L1
100
AcDbSpline
210
0.0
220
0.0
230
1.0
 70
     8
 71
     3
 72
     8
 73
     4
 74
     0
 42
0.000000001
 43
0.0000000001
 40
181.9842866960171
 40
181.9842866960171
 40
181.9842866960171
 40
181.9842866960171
 40
223.694550943208
 40
223.694550943208
 40
223.694550943208
 40
223.694550943208
 10
251.0536862465916
 20
176.2622618520712
 30
0.0
 10
261.723483922574
 20
167.3765836924663
 30
0.0
 10
273.0553057269891
 20
159.19721393982
 30
0.0
 10
284.7834452836993
 20
151.4916422504941
 30
0.0
  0
SPLINE
  5
D2
330
1F
100
AcDbEntity
  8
L1
100
AcDbSpline
210
0.0
220
0.0
230
1.0
 70
    12
 71
     2
 72
    24
 73
    21
 74
     0
 42
0.000000001
 43
0.0000000001
 40
223.694550943208
 40
223.694550943208
 40
223.694550943208
 40
245.3818911216748
 40
245.3818911216748
 40
249.5323684721585
 40
249.5323684721585
 40
253.6828458226421
 40
253.6828458226421
 40
266.5061461984274
 40
266.5061461984274
 40
279.3294465742128
 40
279.3294465742128
 40
292.1527469499981
 40
292.1527469499981
 40
304.9760442684702
 40
304.9760442684702
 40
309.1265216189545
 40
309.1265216189545
 40
313.2769989694388
 40
313.2769989694388
 40
341.6223405929705
 40
341.6223405929705
 40
341.6223405929705
 10
284.7834452837001
 20
151.4916422504948
 30
0.0
 41
1.000000009772851
 10
310.6041472340727
 20
185.824349863932
 30
0.0
 41
1.000000062746968
 10
318.8022309610674
 20
196.7249989683074
 30
0.0
 41
1.000000062746968
 10
320.1750088773697
 20
198.5503243567904
 30
0.0
 41
0.8684101030774786
 10
322.4447174698523
 20
198.2958545422314
 30
0.0
 41
1.000000062746968
 10
324.7144260623391
 20
198.0413847276751
 30
0.0
 41
0.8684101030774786
 10
325.6489069108483
 20
195.9573795633134
 30
0.0
 41
1.000000062746968
 10
328.5360755157347
 20
189.5186448449222
 30
0.0
 41
0.8684101030772265
 10
335.5485588650877
 20
188.7324358384444
 30
0.0
 41
1.000000062746968
 10
342.5610422144453
 20
187.9462268319652
 30
0.0
 41
0.8684101030772265
 10
346.8023718337101
 20
193.5857454628082
 30
0.0
 41
1.000000062746968
 10
351.0437014529764
 20
199.225264093649
 30
0.0
 41
0.8684101030772265
 10
348.3427164919533
 20
205.7442922088807
 30
0.0
 41
1.000000062746968
 10
345.6417322724761
 20
212.2633185343394
 30
0.0
 41
0.8684101344507178
 10
338.6547317205401
 20
213.2506809352585
 30
0.0
 41
1.0
 10
336.3932713055677
 20
213.5702568616918
 30
0.0
 41
0.8684100485876164
 10
335.5190519358031
 20
215.6802503391142
 30
0.0
 41
1.0
 10
334.6448325660351
 20
217.7902438165316
 30
0.0
 41
0.8684100485876164
 10
336.0176104823159
 20
219.6155692050067
 30
0.0
 41
1.0
 10
346.3234061699642
 20
233.3187547631972
 30
0.0
 41
1.0
 10
363.2993291528059
 20
255.8909296544463
 30
0.0
 41
1.0
  0
SPLINE
  5
D3
330
1F
100
AcDbEntity
  8
L1
100
AcDbSpline
210
0.0
220
0.0
230
1.0
 70
     8
 71
     3
 72
     8
 73
     4
 74
     0
 42
0.000000001
 43
0.0000000001
 40
341.6223405929705
 40
341.6223405929705
 40
341.6223405929705
 40
341.6223405929705
 40
398.6418345443132
 40
398.6418345443132
 40
398.6418345443132
 40
398.6418345443132
 10
363.2993291528059
 20
255.8909296544463
 30
0.0
 10
350.9957253765773
 20
270.5886578336305
 30
0.0
 10
340.8770349245598
 20
287.3080196807244
 30
0.0
 10
333.8138267665942
 20
305.1723820677881
 30
0.0
  0
ARC
  5
D4
330
1F
100
AcDbEntity
  8
L1
100
AcDbCircle
 10
338.4635813021765
 20
307.0108006161127
 30
0.0
 40
4.999999999999958
100
AcDbArc
 50
49.8185497044169
 51
201.5728364016366
  0
SPLINE
  5
D5
330
1F
100
AcDbEntity
  8
L1
100
AcDbSpline
210
0.0
220
0.0
230
1.0
 70
    12
 71
     2
 72
    24
 73
    21
 74
     0
 42
0.000000001
 43
0.0000000001
 40
411.8848943287225
 40
411.8848943287225
 40
411.8848943287225
 40
427.1083404565027
 40
427.1083404565027
 40
431.2588177119447
 40
431.2588177119447
 40
435.4092949673867
 40
435.4092949673867
 40
448.2325950495316
 40
448.2325950495316
 40
461.0558951316766
 40
461.0558951316766
 40
473.8791952138218
 40
473.8791952138218
 40
486.7024922386536
 40
486.7024922386536
 40
490.8529694940963
 40
490.8529694940963
 40
495.003446749539
 40
495.003446749539
 40
517.371312390191
 40
517.371312390191
 40
517.371312390191
 10
341.6896331638097
 20
310.8308254047832
 30
0.0
 41
1.00000000000003
 10
353.1555246537678
 20
325.9713987083286
 30
0.0
 41
1.000000062746968
 10
358.9356058906162
 20
333.6039272163416
 30
0.0
 41
1.000000062746968
 10
360.3144500505632
 20
335.4246745255281
 30
0.0
 41
0.8684101030774786
 10
362.5832993187557
 20
335.1626535730568
 30
0.0
 41
1.000000062746968
 10
364.852148586953
 20
334.9006326205919
 30
0.0
 41
0.8684101030774786
 10
365.779689650822
 20
332.8135294712089
 30
0.0
 41
1.000000062746968
 10
368.6454171225203
 20
326.3652232296589
 30
0.0
 41
0.8684101030772265
 10
375.6552455066983
 20
325.5556842551607
 30
0.0
 41
1.000000062746968
 10
382.6650738908768
 20
324.7461452806612
 30
0.0
 41
0.8684101030772265
 10
386.9251457542726
 20
330.3715194944836
 30
0.0
 41
1.000000062746968
 10
391.1852176176731
 20
335.9968937083084
 30
0.0
 41
0.8684101030772265
 10
388.5059399385841
 20
342.5248733686012
 30
0.0
 41
1.000000062746968
 10
385.8266629950817
 20
349.0528512366637
 30
0.0
 41
0.8684101344507178
 10
378.8429866132625
 20
350.0634576969274
 30
0.0
 41
1.0
 10
376.5826021201271
 20
350.3905569546836
 30
0.0
 41
0.8684100485876164
 10
375.7154086785332
 20
352.5034477507483
 30
0.0
 41
1.0
 10
374.8482152369369
 20
354.6163385468082
 30
0.0
 41
0.8684100485876164
 10
376.2270593968625
 20
356.4370858559867
 30
0.0
 41
1.0
 10
384.3955024927894
 20
367.2234177847465
 30
0.0
 41
1.0
 10
396.3792016704546
 20
383.047749979622
 30
0.0
 41
1.0
  0
SPLINE
  5
D6
330
1F
100
AcDbEntity
  8
L1
100
AcDbSpline
210
0.0
220
0.0
230
1.0
 70
     8
 71
     3
 72
    10
 73
     6
 74
     0
 42
0.000000001
 43
0.0000000001
 40
517.371312390191
 40
517.371312390191
 40
517.371312390191
 40
517.371312390191
 40
558.0068121689994
 40
652.9665344866636
 40
747.9262568043268
 40
747.9262568043268
 40
747.9262568043268
 40
747.9262568043268
 10
396.3792016704546
 20
383.047749979622
 30
0.0
 10
390.6114282528623
 20
388.5033183926507
 30
0.0
 10
373.7821048615514
 20
407.2346585205188
 30
0.0
 10
351.7857697726766
 20
448.818169346516
 30
0.0
 10
345.4979576244326
 20
482.8691717127753
 30
0.0
 10
346.0517550151286
 20
525.1520634425669
 30
0.0
  0
SPLINE
  5
D7
330
1F
100
AcDbEntity
  8
L1
100
AcDbSpline
210
0.0
220
0.0
230
1.0
 70
    12
 71
     3
 72
     8
 73
     4
 74
     0
 42
0.000000001
 43
0.0000000001
 40
747.9262568043268
 40
747.9262568043268
 40
747.9262568043268
 40
747.9262568043268
 40
748.5192509168744
 40
748.5192509168744
 40
748.5192509168744
 40
748.5192509168744
 10
346.0517550151286
 20
525.1520634425669
 30
0.0
 41
1.0
 10
346.2509922339328
 20
531.7394102702735
 30
0.0
 41
1.0
 10
346.6974475037365
 20
538.3313785733632
 30
0.0
 41
1.0
 10
347.3555940378852
 20
545.0035874580881
 30
0.0
 41
1.0
  0
SPLINE
  5
D8
330
1F
100
AcDbEntity
  8
L1
100
AcDbSpline
210
0.0
220
0.0
230
1.0
 70
    12
 71
     2
 72
    24
 73
    21
 74
     0
 42
0.000000001
 43
0.0000000001
 40
748.5192509168744
 40
748.5192509168744
 40
748.5192509168744
 40
774.5426499533819
 40
774.5426499533819
 40
778.6931270660159
 40
778.6931270660159
 40
782.8436041786499
 40
782.8436041786499
 40
795.6669007622606
 40
795.6669007622606
 40
808.4902004031844
 40
808.4902004031844
 40
821.3135000441082
 40
821.3135000441082
 40
834.1367996850319
 40
834.1367996850319
 40
838.2872767976652
 40
838.2872767976652
 40
842.4377539102985
 40
842.4377539102985
 40
866.1064619682761
 40
866.1064619682761
 40
866.1064619682761
 10
347.3555940378852
 20
545.0035874580881
 30
0.0
 41
1.0
 10
316.027627863751
 20
552.1302071028649
 30
0.0
 41
1.0
 10
300.6782727844853
 20
555.621944001271
 30
0.0
 41
1.0
 10
298.4512403705229
 20
556.1285588533922
 30
0.0
 41
0.8684100485876164
 10
296.8830071179945
 20
554.4681443127182
 30
0.0
 41
1.0
 10
295.3147738654648
 20
552.8077297720384
 30
0.0
 41
0.8684100485876164
 10
295.9476280976327
 20
550.6132303981391
 30
0.0
 41
1.0
 10
297.902890883849
 20
543.8331117664048
 30
0.0
 41
0.8684101344507178
 10
293.0576845042484
 20
538.7031024949733
 30
0.0
 41
1.000000062746968
 10
288.2124767944161
 20
533.5730918151174
 30
0.0
 41
0.8684101030772265
 10
281.3318456097709
 20
535.1383272056461
 30
0.0
 41
1.000000062746968
 10
274.4512144251275
 20
536.7035625961746
 30
0.0
 41
0.8684101030772265
 10
272.3019574443201
 20
543.4247039990399
 30
0.0
 41
1.000000062746968
 10
270.152700463515
 20
550.1458454019064
 30
0.0
 41
0.8684101030772265
 10
274.8485172525089
 20
555.4129463133219
 30
0.0
 41
1.000000062746968
 10
276.3683976121094
 20
557.1177324212622
 30
0.0
 41
0.8684101030774786
 10
275.6727543151798
 20
559.2931432755042
 30
0.0
 41
1.000000062746968
 10
274.9771110182542
 20
561.4685541297473
 30
0.0
 41
0.8684101030774786
 10
272.750078604276
 20
561.9751689818878
 30
0.0
 41
1.000000062746968
 10
258.2354178542608
 20
565.2770260467025
 30
0.0
 41
1.000000062746968
 10
213.7174485517388
 20
575.4041639788109
 30
0.0
 41
1.0
  0
SPLINE
  5
D9
330
1F
100
AcDbEntity
  8
L1
100
AcDbSpline
210
0.0
220
0.0
230
1.0
 70
     8
 71
     3
 72
    10
 73
     6
 74
     0
 42
0.000000001
 43
0.0000000001
 40
866.1064619682761
 40
866.1064619682761
 40
866.1064619682761
 40
866.1064619682761
 40
935.1050126563855
 40
984.6597081146592
 40
1020.806773913119
 40
1020.806773913119
 40
1020.806773913119
 40
1020.806773913119
 10
213.7174485517388
 20
575.4041639788109
 30
0.0
 10
205.7725447610143
 20
553.8176897987133
 30
0.0
 10
192.8187340760884
 20
516.4824386191684
 30
0.0
 10
177.5619329233574
 20
467.1906961629778
 30
0.0
 10
171.1469359602637
 20
439.3316250225072
 30
0.0
 10
168.7191032825732
 20
427.529737121552
 30
0.0
  0
ARC
  5
DA
330
1F
100
AcDbEntity
  8
L1
100
AcDbCircle
 10
166.4609969258757
 20
427.9667218831218
 30
0.0
 40
2.3
100
AcDbArc
 50
271.1113758252133
 51
349.0476024517758
  0
SPLINE
  5
DB
330
1F
100
AcDbEntity
  8
L1
100
AcDbSpline
210
0.0
220
0.0
230
1.0
 70
    12
 71
     2
 72
    24
 73
    21
 74
     0
 42
0.000000001
 43
0.0000000001
 40
1023.935334563912
 40
1023.935334563912
 40
1023.935334563912
 40
1033.904602006002
 40
1033.904602006002
 40
1038.055079118636
 40
1038.055079118636
 40
1042.20555623127
 40
1042.20555623127
 40
1055.028852814881
 40
1055.028852814881
 40
1067.852152455805
 40
1067.852152455805
 40
1080.675452096728
 40
1080.675452096728
 40
1093.498751737652
 40
1093.498751737652
 40
1097.649228850285
 40
1097.649228850285
 40
1101.799705962919
 40
1101.799705962919
 40
1112.045783803816
 40
1112.045783803816
 40
1112.045783803816
 10
166.5056076132581
 20
425.667154557173
 30
0.0
 41
1.0
 10
165.846798869794
 20
419.672858938809
 30
0.0
 41
1.0
 10
165.1879901263293
 20
413.6785633204466
 30
0.0
 41
1.0
 10
164.9384751982027
 20
411.4083046827842
 30
0.0
 41
0.8684100485876164
 10
166.766792713869
 20
410.0395143251559
 30
0.0
 41
1.0
 10
168.595110229532
 20
408.6707239675222
 30
0.0
 41
0.8684100485876164
 10
170.7031904496306
 20
409.5495469115044
 30
0.0
 41
1.0
 10
177.2163089228915
 20
412.2647538974969
 30
0.0
 41
0.8684101344507178
 10
182.8650704681013
 20
408.035745385889
 30
0.0
 41
1.000000062746968
 10
188.5138335641585
 20
403.8067357132247
 30
0.0
 41
0.8684101030772265
 10
187.7429331566066
 20
396.7925529462495
 30
0.0
 41
1.000000062746968
 10
186.9720327490551
 20
389.7783701792777
 30
0.0
 41
0.8684101030772265
 10
180.5396154305997
 20
386.8771540949251
 30
0.0
 41
1.000000062746968
 10
174.1071981121447
 20
383.9759380105753
 30
0.0
 41
0.8684101030772265
 10
168.3392629678358
 20
388.0409068293846
 30
0.0
 41
1.000000062746968
 10
166.472373407358
 20
389.3566025960044
 30
0.0
 41
0.8684101030774786
 10
164.390412976109
 20
388.4175750436726
 30
0.0
 41
1.000000062746968
 10
162.3084525448613
 20
387.4785474913418
 30
0.0
 41
0.8684101030774786
 10
162.0589376167227
 20
385.2082888536631
 30
0.0
 41
1.000000062746968
 10
161.3549581639455
 20
378.8029990164709
 30
0.0
 41
1.000000062746968
 10
160.696665613552
 20
372.8134000781276
 30
0.0
 41
1.000000022250082
  0
SPLINE
  5
DC
330
1F
100
AcDbEntity
  8
ZagotovkaWorkingZone
100
AcDbSpline
210
0.0
220
0.0
230
1.0
 70
    11
 71
     2
 72
    68
 73
    65
 74
     0
 42
0.000000001
 43
0.0000000001
 40
316.0000000000001
 40
316.0000000000001
 40
316.0000000000001
 40
339.0000000000001
 40
339.0000000000001
 40
369.0000000000001
 40
369.0000000000001
 40
399.0000000000001
 40
399.0000000000001
 40
422.0000000000001
 40
422.0000000000001
 40
850.0
 40
850.0
 40
874.0
 40
874.0
 40
893.0
 40
893.0
 40
1163.0
 40
1163.0
 40
1184.0
 40
1184.0
 40
1214.0
 40
1214.0
 40
1244.0
 40
1244.0
 40
1265.0
 40
1265.0
 40
1525.0
 40
1525.0
 40
1546.0
 40
1546.0
 40
1576.0
 40
1576.0
 40
2006.0
 40
2006.0
 40
2028.0
 40
2028.0
 40
2058.0
 40
2058.0
 40
2088.0
 40
2088.0
 40
2110.0
 40
2110.0
 40
2390.0
 40
2390.0
 40
2408.0
 40
2408.0
 40
2430.0
 40
2430.0
 40
2703.0
 40
2703.0
 40
2725.0
 40
2725.0
 40
2755.0
 40
2755.0
 40
2785.0
 40
2785.0
 40
2807.0
 40
2807.0
 40
3068.0
 40
3068.0
 40
3090.0
 40
3090.0
 40
3122.0
 40
3122.0
 40
3406.0
 40
3406.0
 40
3406.0
 10
6.0
 20
526.0
 30
0.0
 10
17.5
 20
526.0
 30
0.0
 10
29.0
 20
526.0
 30
0.0
 10
29.0
 20
511.0
 30
0.0
 10
29.0
 20
496.0
 30
0.0
 10
29.0
 20
481.0
 30
0.0
 10
29.0
 20
466.0
 30
0.0
 10
17.5
 20
466.0
 30
0.0
 10
6.0
 20
466.0
 30
0.0
 10
6.0
 20
252.0
 30
0.0
 10
6.0
 20
38.00000000000002
 30
0.0
 10
18.0
 20
38.00000000000001
 30
0.0
 10
30.0
 20
38.0
 30
0.0
 10
30.0
 20
28.5
 30
0.0
 10
30.0
 20
19.0
 30
0.0
 10
165.0
 20
19.0
 30
0.0
 10
300.0
 20
19.0
 30
0.0
 10
300.0
 20
29.5
 30
0.0
 10
300.0
 20
40.0
 30
0.0
 10
315.0
 20
40.0
 30
0.0
 10
330.0
 20
40.0
 30
0.0
 10
345.0
 20
40.0
 30
0.0
 10
360.0
 20
40.0
 30
0.0
 10
360.0
 20
29.5
 30
0.0
 10
360.0
 20
19.0
 30
0.0
 10
490.0
 20
19.0
 30
0.0
 10
620.0
 20
19.0
 30
0.0
 10
620.0
 20
29.5
 30
0.0
 10
620.0
 20
40.0
 30
0.0
 10
635.0
 20
40.0
 30
0.0
 10
650.0
 20
40.0
 30
0.0
 10
650.0
 20
255.0
 30
0.0
 10
650.0
 20
470.0
 30
0.0
 10
639.0
 20
470.0
 30
0.0
 10
628.0
 20
470.0
 30
0.0
 10
628.0
 20
485.0
 30
0.0
 10
628.0
 20
500.0
 30
0.0
 10
628.0
 20
515.0
 30
0.0
 10
628.0
 20
530.0
 30
0.0
 10
639.0
 20
530.0
 30
0.0
 10
650.0
 20
530.0
 30
0.0
 10
650.0
 20
638.9393867684109
 30
0.0
 10
650.0
 20
747.878773536822
 30
0.0
 10
641.0
 20
747.878773536822
 30
0.0
 10
632.0
 20
747.878773536822
 30
0.0
 10
632.0
 20
758.878773536822
 30
0.0
 10
632.0
 20
769.878773536822
 30
0.0
 10
495.5
 20
769.878773536822
 30
0.0
 10
359.0
 20
769.878773536822
 30
0.0
 10
359.0
 20
758.878773536822
 30
0.0
 10
359.0
 20
747.878773536822
 30
0.0
 10
344.0
 20
747.878773536822
 30
0.0
 10
329.0
 20
747.878773536822
 30
0.0
 10
314.0
 20
747.878773536822
 30
0.0
 10
299.0
 20
747.878773536822
 30
0.0
 10
299.0
 20
758.878773536822
 30
0.0
 10
299.0
 20
769.878773536822
 30
0.0
 10
168.5
 20
769.878773536822
 30
0.0
 10
38.0
 20
769.878773536822
 30
0.0
 10
38.0
 20
758.878773536822
 30
0.0
 10
38.0
 20
747.878773536822
 30
0.0
 10
22.0
 20
747.878773536822
 30
0.0
 10
6.0
 20
747.878773536822
 30
0.0
 10
6.0
 20
636.9393867684109
 30
0.0
 10
6.0
 20
526.0
 30
0.0
  0
SPLINE
  5
DD
330
1F
100
AcDbEntity
  8
L1
100
AcDbSpline
210
0.0
220
0.0
230
1.0
 70
    15
 71
     3
 72
    32
 73
    28
 74
     0
 42
0.000000001
 43
0.0000000001
 40
0.5678970663030043
 40
0.5678970663030043
 40
0.5678970663030043
 40
0.5678970663030043
 40
3.332768684451266
 40
3.332768684451266
 40
3.332768684451266
 40
6.097640302599527
 40
6.097640302599527
 40
6.097640302599527
 40
6.395166728601851
 40
6.395166728601851
 40
6.395166728601851
 40
9.537473564443108
 40
9.537473564443108
 40
9.537473564443108
 40
12.67978040028436
 40
12.67978040028436
 40
12.67978040028436
 40
51.7449639357576
 40
51.7449639357576
 40
51.7449639357576
 40
53.67550432116337
 40
53.67550432116337
 40
53.67550432116337
 40
55.60604470656913
 40
55.60604470656913
 40
55.60604470656913
 40
56.17394177287213
 40
56.17394177287213
 40
56.17394177287213
 40
56.17394177287213
 10
471.1514825414877
 20
332.6998457762487
 30
0.0
 41
1.0
 10
470.8572098352917
 20
333.6429749929054
 30
0.0
 41
0.8726539420826978
 10
471.1735531115488
 20
334.5789322977481
 30
0.0
 41
0.8726539420826978
 10
471.9796571627179
 20
335.1501462713226
 30
0.0
 41
1.0
 10
472.7857612138855
 20
335.7213602449009
 30
0.0
 41
0.8726539420826978
 10
473.773663520403
 20
335.7096053439262
 30
0.0
 41
0.8726539420826978
 10
474.5659476892438
 20
335.1193723892992
 30
0.0
 41
1.0
 10
486.2068910906085
 20
326.4471450638631
 30
0.0
 41
1.0
 10
499.1764056626328
 20
319.5772963984934
 30
0.0
 41
1.0
 10
512.9864741758824
 20
315.1055667946182
 30
0.0
 41
1.0
 10
514.0782550074233
 20
314.752045835544
 30
0.0
 41
0.8370955141581012
 10
514.6717014887595
 20
313.7698117868502
 30
0.0
 41
0.8370955141581012
 10
514.4767883381412
 20
312.6388956465713
 30
0.0
 41
1.0
 10
514.2818751875216
 20
311.5079795062954
 30
0.0
 41
0.8370955141581012
 10
513.3938590847034
 20
310.78107521152
 30
0.0
 41
0.8370955141581012
 10
512.2467254496341
 20
310.813430673438
 30
0.0
 41
1.0
 10
499.1798923392483
 20
311.1819870544673
 30
0.0
 41
1.0
 10
486.135851526325
 20
312.0518210872259
 30
0.0
 41
1.0
 10
473.1765681423915
 20
313.3806808949013
 30
0.0
 41
1.0
 10
472.5149764557934
 20
313.4485212665862
 30
0.0
 41
0.9368529876232069
 10
471.9448707862264
 20
313.7909908292252
 30
0.0
 41
0.9368529876232069
 10
471.5742525430085
 20
314.3432117936965
 30
0.0
 41
1.0
 10
471.2036342997916
 20
314.8954327581666
 30
0.0
 41
0.9368529876232069
 10
471.1027137872983
 20
315.5527918122348
 30
0.0
 41
0.9368529876232069
 10
471.2906094920827
 20
316.1907581749304
 30
0.0
 41
1.0
 10
472.8551152690256
 20
321.5027614668625
 30
0.0
 41
1.0
 10
472.8070695934671
 20
327.3937725776268
 30
0.0
 41
1.0
 10
471.1514825414877
 20
332.6998457762487
 30
0.0
 41
1.0
  0
SPLINE
  5
DE
330
1F
100
AcDbEntity
  8
L1
100
AcDbSpline
210
0.0
220
0.0
230
1.0
 70
    12
 71
     3
 72
     8
 73
     4
 74
     0
 42
0.000000001
 43
0.0000000001
 40
1769.237575249239
 40
1769.237575249239
 40
1769.237575249239
 40
1769.237575249239
 40
1769.31754770291
 40
1769.31754770291
 40
1769.31754770291
 40
1769.31754770291
 10
608.8548912815912
 20
247.3154291555361
 30
0.0
 41
1.0
 10
607.9763830351683
 20
247.1093026820644
 30
0.0
 41
1.0
 10
607.0975874107346
 20
246.9044102430877
 30
0.0
 41
1.0
 10
606.2185065379697
 20
246.7007586466978
 30
0.0
 41
1.0
  0
ARC
  5
DF
330
1F
100
AcDbEntity
  8
L1
100
AcDbCircle
 10
558.2895481715933
 20
453.5905218440306
 30
0.0
 40
212.3689223166473
100
AcDbArc
 50
279.5382551780385
 51
283.0432942994858
  0
SPLINE
  5
E0
330
1F
100
AcDbEntity
  8
L1
100
AcDbSpline
210
0.0
220
0.0
230
1.0
 70
     8
 71
     3
 72
    21
 73
    17
 74
     0
 42
0.000000001
 43
0.0000000001
 40
1782.309104624297
 40
1782.309104624297
 40
1782.309104624297
 40
1782.309104624297
 40
1782.54741398597
 40
1782.54741398597
 40
1782.54741398597
 40
1782.671504060575
 40
1783.671504122782
 40
1784.671504184989
 40
1784.841991894539
 40
1784.841991894539
 40
1784.841991894539
 40
1809.646235096933
 40
1839.734058927765
 40
1870.114126082875
 40
1901.150956183893
 40
1927.355879762049
 40
1927.355879762049
 40
1927.355879762049
 40
1927.355879762049
 10
593.480372143341
 20
244.1575610328827
 30
0.0
 10
590.8285733348046
 20
243.7119817728229
 30
0.0
 10
588.1746149239491
 20
243.2797524190751
 30
0.0
 10
585.5184592798286
 20
242.8619665470295
 30
0.0
 10
584.1353723976072
 20
242.6444212535213
 30
0.0
 10
571.6010580257301
 20
240.7092272527788
 30
0.0
 10
547.8229517287928
 20
237.6836607827167
 30
0.0
 10
523.4138203140822
 20
235.527299963974
 30
0.0
 10
510.2232592491564
 20
234.8933536628845
 30
0.0
 10
508.3015200558877
 20
234.8120577230776
 30
0.0
 10
500.0393926969964
 20
234.498353873961
 30
0.0
 10
481.7115706323802
 20
235.2700910178846
 30
0.0
 10
453.5291267096511
 20
240.4097103434768
 30
0.0
 10
425.8384032240381
 20
254.3919391034567
 30
0.0
 10
405.4801177348658
 20
276.5784952299842
 30
0.0
 10
399.8100431406806
 20
295.5216557891455
 30
0.0
 10
399.274246099608
 20
304.269929684463
 30
0.0
  0
SPLINE
  5
E1
330
1F
100
AcDbEntity
  8
L1
100
AcDbSpline
210
0.0
220
0.0
230
1.0
 70
    12
 71
     3
 72
    21
 73
    17
 74
     0
 42
0.000000001
 43
0.0000000001
 40
1927.355879762049
 40
1927.355879762049
 40
1927.355879762049
 40
1927.355879762049
 40
1928.197425359468
 40
1929.197425506463
 40
1930.137162143298
 40
1930.137162143298
 40
1930.137162143298
 40
1932.931098781753
 40
1932.931098781753
 40
1932.931098781753
 40
1935.725035420208
 40
1935.725035420208
 40
1935.725035420208
 40
1935.747451839485
 40
1936.747451994076
 40
1937.228065437251
 40
1937.228065437251
 40
1937.228065437251
 40
1937.228065437251
 10
399.274246099608
 20
304.269929684463
 30
0.0
 41
1.0
 10
398.7055642437536
 20
312.4868235530902
 30
0.0
 41
1.0
 10
401.5061695198882
 20
330.7388653035349
 30
0.0
 41
1.0
 10
420.1596203261061
 20
352.6528336472733
 30
0.0
 41
1.0
 10
440.2995334997051
 20
355.6318934669412
 30
0.0
 41
1.0
 10
449.1204513400485
 20
353.2623021602193
 30
0.0
 41
1.0
 10
450.0861264669487
 20
353.0028895573054
 30
0.0
 41
0.8700535030389469
 10
451.017447153746
 20
353.3668471476929
 30
0.0
 41
0.8700535030389469
 10
451.5513478180527
 20
354.2122898896401
 30
0.0
 41
1.0
 10
452.0852484823629
 20
355.0577326315836
 30
0.0
 41
0.8700535030389469
 10
452.0135935610245
 20
356.0550735569988
 30
0.0
 41
0.8700535030389469
 10
451.3643169720926
 20
356.8155097872823
 30
0.0
 41
1.0
 10
450.658210685258
 20
357.6425052651276
 30
0.0
 41
1.0
 10
418.9219885225904
 20
395.7078794789068
 30
0.0
 41
1.0
 10
392.7931438206977
 20
471.3377211273103
 30
0.0
 41
1.0
 10
430.5433398788375
 20
546.3507045534477
 30
0.0
 41
1.0
 10
443.750271061185
 20
564.5033506215361
 30
0.0
 41
1.0
  0
SPLINE
  5
E2
330
1F
100
AcDbEntity
  8
L1
100
AcDbSpline
210
0.0
220
0.0
230
1.0
 70
    12
 71
     2
 72
    24
 73
    21
 74
     0
 42
0.000000001
 43
0.0000000001
 40
1937.228065437251
 40
1937.228065437251
 40
1937.228065437251
 40
1951.510305130288
 40
1951.510305130288
 40
1955.660782392579
 40
1955.660782392579
 40
1959.81125965487
 40
1959.81125965487
 40
1972.63455670086
 40
1972.63455670086
 40
1985.457856804163
 40
1985.457856804163
 40
1998.281156907466
 40
1998.281156907466
 40
2011.104457010769
 40
2011.104457010769
 40
2015.254934273059
 40
2015.254934273059
 40
2019.405411535349
 40
2019.405411535349
 40
2031.664162239249
 40
2031.664162239249
 40
2031.664162239249
 10
443.750271061185
 20
564.5033506215361
 30
0.0
 41
1.0
 10
459.0839077905275
 20
552.2651779048231
 30
0.0
 41
1.0
 10
465.8362351523768
 20
546.875970521115
 30
0.0
 41
1.0
 10
467.6213148640349
 20
545.4512521614853
 30
0.0
 41
0.8684100485876164
 10
467.3016583656911
 20
543.1898031339178
 30
0.0
 41
1.0
 10
466.9820018673483
 20
540.9283541063462
 30
0.0
 41
0.8684100485876164
 10
464.8719772442712
 20
540.0542099127283
 30
0.0
 41
1.0
 10
458.3528526303887
 20
537.3534552974029
 30
0.0
 41
0.8684101344507178
 10
457.3652433557262
 20
530.366492587723
 30
0.0
 41
1.000000062746968
 10
456.3776338099196
 20
523.3795279597963
 30
0.0
 41
0.8684101030772265
 10
461.8928095451952
 20
518.9777233371572
 30
0.0
 41
1.000000062746968
 10
467.407985280472
 20
514.5759187145192
 30
0.0
 41
0.8684101030772265
 10
474.0020139043933
 20
517.0882550442675
 30
0.0
 41
1.000000062746968
 10
480.5960425283159
 20
519.6005913740164
 30
0.0
 41
0.8684101030772265
 10
481.7839873558747
 20
526.5562965441285
 30
0.0
 41
1.000000062746968
 10
482.168485749411
 20
528.8076279206031
 30
0.0
 41
0.8684101030774786
 10
484.3027544073424
 20
529.6207879768549
 30
0.0
 41
1.000000062746968
 10
486.4370230652761
 20
530.4339480331097
 30
0.0
 41
0.8684101030774786
 10
488.222102776955
 20
529.0092296734783
 30
0.0
 41
1.000000062746968
 10
494.2478319749384
 20
524.1999391065826
 30
0.0
 41
1.000000062746968
 10
510.9464732411179
 20
510.8723209407377
 30
0.0
 41
1.000000062746968
  0
SPLINE
  5
E3
330
1F
100
AcDbEntity
  8
L1
100
AcDbSpline
210
0.0
220
0.0
230
1.0
 70
     8
 71
     3
 72
    11
 73
     7
 74
     0
 42
0.000000001
 43
0.0000000001
 40
2031.664162239249
 40
2031.664162239249
 40
2031.664162239249
 40
2031.664162239249
 40
2091.356715084089
 40
2151.17530385826
 40
2202.353304640348
 40
2242.859620681568
 40
2242.859620681568
 40
2242.859620681568
 40
2242.859620681568
 10
510.9464732411182
 20
510.8723209407378
 30
0.0
 10
497.9197761017865
 20
495.7362132996445
 30
0.0
 10
479.038016158551
 20
457.3843494028214
 30
0.0
 10
492.3681838684392
 20
397.8760455049772
 30
0.0
 10
532.2875794674733
 20
360.6987043549399
 30
0.0
 10
564.7106701850038
 20
359.2909101060363
 30
0.0
 10
578.0492511080738
 20
361.3859298582512
 30
0.0
  0
ARC
  5
E4
330
1F
100
AcDbEntity
  8
L1
100
AcDbCircle
 10
577.0226259515879
 20
363.3317049706593
 30
0.0
 40
2.199999999999106
100
AcDbArc
 50
297.8169169586526
 51
90.3126774594561
  0
SPLINE
  5
E5
330
1F
100
AcDbEntity
  8
L1
100
AcDbSpline
210
0.0
220
0.0
230
1.0
 70
    12
 71
     3
 72
    15
 73
    11
 74
     0
 42
0.000000001
 43
0.0000000001
 40
2248.715037536926
 40
2248.715037536926
 40
2248.715037536926
 40
2248.715037536926
 40
2249.34119304353
 40
2250.341193071746
 40
2251.341193099961
 40
2252.341193128176
 40
2253.341193156391
 40
2254.341193184608
 40
2255.341193212823
 40
2256.118125805786
 40
2256.118125805786
 40
2256.118125805786
 40
2256.118125805786
 10
577.0106200586195
 20
365.5316722109902
 30
0.0
 41
1.0
 10
570.6751257694305
 20
365.4971004403671
 30
0.0
 41
1.0
 10
553.8896086530433
 20
373.4558279525335
 30
0.0
 41
1.0
 10
550.7689720388455
 20
404.7110156814957
 30
0.0
 41
1.0
 10
577.7270316966757
 20
426.2334108631117
 30
0.0
 41
1.0
 10
610.4862073969937
 20
419.5325506520339
 30
0.0
 41
1.0
 10
629.7556717888588
 20
393.1196156135294
 30
0.0
 41
1.0
 10
630.7562252007947
 20
361.0844116435793
 30
0.0
 41
1.0
 10
616.8647416722278
 20
334.9817066150543
 30
0.0
 41
1.0
 10
601.3316391639974
 20
323.5726310749436
 30
0.0
 41
1.0
 10
594.0383096377419
 20
319.8075848504648
 30
0.0
 41
1.0
  0
SPLINE
  5
E6
330
1F
100
AcDbEntity
  8
L1
100
AcDbSpline
210
0.0
220
0.0
230
1.0
 70
    12
 71
     3
 72
    11
 73
     7
 74
     0
 42
0.000000001
 43
0.0000000001
 40
2256.118125805786
 40
2256.118125805786
 40
2256.118125805786
 40
2256.118125805786
 40
2259.215434015347
 40
2259.215434015347
 40
2259.215434015347
 40
2262.312742224907
 40
2262.312742224907
 40
2262.312742224907
 40
2262.312742224907
 10
594.0383096377419
 20
319.8075848504648
 30
0.0
 41
1.0
 10
593.0359802385549
 20
319.2901508710145
 30
0.0
 41
0.8415347516602675
 10
592.6067967200361
 20
318.2469808680896
 30
0.0
 41
0.8415347516602675
 10
592.9547911007242
 20
317.1739934224144
 30
0.0
 41
1.0
 10
593.3027854814137
 20
316.1010059767389
 30
0.0
 41
0.8415347516602675
 10
594.2625227134379
 20
315.5082947544455
 30
0.0
 41
0.8415347516602675
 10
595.3777478003581
 20
315.6776321486366
 30
0.0
 41
1.0
  0
SPLINE
  5
E7
330
1F
100
AcDbEntity
  8
L1
100
AcDbSpline
210
0.0
220
0.0
230
1.0
 70
    12
 71
     2
 72
    24
 73
    21
 74
     0
 42
0.000000001
 43
0.0000000001
 40
2262.312742224907
 40
2262.312742224907
 40
2262.312742224907
 40
2274.571492486784
 40
2274.571492486784
 40
2278.721969599418
 40
2278.721969599418
 40
2282.872446712051
 40
2282.872446712051
 40
2295.695746352975
 40
2295.695746352975
 40
2308.519045993899
 40
2308.519045993899
 40
2321.342345634822
 40
2321.342345634822
 40
2334.165642218433
 40
2334.165642218433
 40
2338.316119331067
 40
2338.316119331067
 40
2342.466596443701
 40
2342.466596443701
 40
2356.748839026905
 40
2356.748839026905
 40
2356.748839026905
 10
595.3777478003569
 20
315.6776321486369
 30
0.0
 41
1.000000062746968
 10
597.7709662145652
 20
303.538139587228
 30
0.0
 41
1.000000062746968
 10
599.2621691863545
 20
295.9740797103363
 30
0.0
 41
1.000000062746968
 10
599.7039275335163
 20
293.7332804011552
 30
0.0
 41
0.8684101030774786
 10
601.858229643703
 20
292.9747855762786
 30
0.0
 41
1.000000062746968
 10
604.0125317538891
 20
292.2162907514009
 30
0.0
 41
0.8684101030774786
 10
605.7607163986316
 20
293.6860466594376
 30
0.0
 41
1.000000062746968
 10
611.1619012703095
 20
298.2269991265762
 30
0.0
 41
0.8684101030772265
 10
617.817825174898
 20
295.8835562953526
 30
0.0
 41
1.000000062746968
 10
624.4737490794843
 20
293.5401134641292
 30
0.0
 41
0.8684101030772265
 10
625.8386040499232
 20
286.6169481305162
 30
0.0
 41
1.000000062746968
 10
627.2034590203605
 20
279.6937827969044
 30
0.0
 41
0.8684101030772265
 10
621.9349703150147
 20
274.9995231014337
 30
0.0
 41
1.000000062746968
 10
616.6664830561128
 20
270.3052646947563
 30
0.0
 41
0.8684101344507178
 10
609.9459757935927
 20
272.4565069772365
 30
0.0
 41
1.0
 10
607.7707706577598
 20
273.1527932676893
 30
0.0
 41
0.8684100485876164
 10
606.0655353669051
 20
271.6334168877055
 30
0.0
 41
1.0
 10
604.3603000760525
 20
270.1140405077194
 30
0.0
 41
0.8684100485876164
 10
604.8020584231981
 20
267.8732411985553
 30
0.0
 41
1.0
 10
606.4730749422403
 20
259.3970852060538
 30
0.0
 41
1.0
 10
608.9363412836411
 20
246.9022776904726
 30
0.0
 41
1.0
  0
ARC
  5
E8
330
1F
100
AcDbEntity
  8
L1
100
AcDbCircle
 10
264.5558487608617
 20
52.40693390051702
 30
0.0
 40
2.199999999999644
100
AcDbArc
 50
3.813351801695635
 51
80.43339789132945
  0
SPLINE
  5
E9
330
1F
100
AcDbEntity
  8
L1
100
AcDbSpline
210
0.0
220
0.0
230
1.0
 70
    12
 71
     2
 72
    24
 73
    21
 74
     0
 42
0.000000001
 43
0.0000000001
 40
-472.2763830497493
 40
-472.2763830497493
 40
-472.2763830497493
 40
-461.9211434091412
 40
-461.9211434091412
 40
-457.7706661944397
 40
-457.7706661944397
 40
-453.6201889797383
 40
-453.6201889797383
 40
-440.7968920807803
 40
-440.7968920807803
 40
-427.9735921245092
 40
-427.9735921245092
 40
-415.150292168238
 40
-415.150292168238
 40
-402.3269922119671
 40
-402.3269922119671
 40
-398.1765149972663
 40
-398.1765149972663
 40
-394.0260377825655
 40
-394.0260377825655
 40
-385.0266424688803
 40
-385.0266424688803
 40
-385.0266424688803
 10
266.750977954702
 20
52.55324802268846
 30
0.0
 41
1.0
 10
271.2142924025877
 20
52.0864258263145
 30
0.0
 41
1.0
 10
274.8840810214088
 20
51.70259923213722
 30
0.0
 41
1.0
 10
276.2221587210419
 20
51.56264844490558
 30
0.0
 41
0.8684100485876164
 10
277.0227913222787
 20
52.64386331297628
 30
0.0
 41
1.0
 10
277.8234239235157
 20
53.72507818104788
 30
0.0
 41
0.8684100485876164
 10
277.2992245308676
 20
54.96413150913614
 30
0.0
 41
1.0
 10
275.6796606875317
 20
58.79230704789965
 30
0.0
 41
0.8684101344507178
 10
278.1532915590731
 20
62.1328236247765
 30
0.0
 41
1.000000062746968
 10
280.626923109739
 20
65.47334111877727
 30
0.0
 41
0.8684101030772265
 10
284.7610430667988
 20
65.04094967941222
 30
0.0
 41
1.000000062746968
 10
288.8951630238569
 20
64.6085582400488
 30
0.0
 41
0.8684101030772265
 10
290.6240465173102
 20
60.82849580111311
 30
0.0
 41
1.000000062746968
 10
292.3529300107629
 20
57.04843336217866
 30
0.0
 41
0.8684101030772265
 10
289.9762962820289
 20
53.63822482081051
 30
0.0
 41
1.000000062746968
 10
289.2070586629769
 20
52.53445326900667
 30
0.0
 41
0.8684101030774786
 10
289.7666409856736
 20
51.31097226087538
 30
0.0
 41
1.000000062746968
 10
290.3262233083672
 20
50.0874912527422
 30
0.0
 41
0.8684101030774786
 10
291.6643010080126
 20
49.94754046550154
 30
0.0
 41
1.000000062746968
 10
294.9801935660101
 20
49.60072818844743
 30
0.0
 41
1.000000062746968
 10
300.2243183382824
 20
49.05224031628745
 30
0.0
 41
1.000000040819259
  0
ARC
  5
EA
330
1F
100
AcDbEntity
  8
L1
100
AcDbCircle
 10
302.3331337721397
 20
48.42542497990345
 30
0.0
 40
2.2
100
AcDbArc
 50
87.31666608746302
 51
163.4461687248065
  0
SPLINE
  5
EB
330
1F
100
AcDbEntity
  8
L1
100
AcDbSpline
210
0.0
220
0.0
230
1.0
 70
     8
 71
     3
 72
     8
 73
     4
 74
     0
 42
0.000000001
 43
0.0000000001
 40
-382.1034794152401
 40
-382.1034794152401
 40
-382.1034794152401
 40
-382.1034794152401
 40
-381.2696747129621
 40
-381.2696747129621
 40
-381.2696747129621
 40
-381.2696747129621
 10
302.4361287379099
 20
50.62301275676926
 30
0.0
 10
341.542871964186
 20
48.79018599030638
 30
0.0
 10
380.6851487068188
 20
53.53411205378823
 30
0.0
 10
419.3052535069107
 20
59.52322346644269
 30
0.0
  0
SPLINE
  5
EC
330
1F
100
AcDbEntity
  8
L1
100
AcDbSpline
210
0.0
220
0.0
230
1.0
 70
     8
 71
     3
 72
     9
 73
     5
 74
     0
 42
0.000000001
 43
0.0000000001
 40
-381.2696747129621
 40
-381.2696747129621
 40
-381.2696747129621
 40
-381.2696747129621
 40
-278.7776312613573
 40
-185.8811835321743
 40
-185.8811835321743
 40
-185.8811835321743
 40
-185.8811835321743
 10
419.3052535069107
 20
59.52322346644269
 30
0.0
 10
452.9851545351267
 20
65.35495010016861
 30
0.0
 10
516.6674980883076
 20
78.12521713536367
 30
0.0
 10
583.1739451664586
 20
78.41707671713645
 30
0.0
 10
613.3658048070903
 20
70.81289359463031
 30
0.0
  0
SPLINE
  5
ED
330
1F
100
AcDbEntity
  8
L1
100
AcDbSpline
210
0.0
220
0.0
230
1.0
 70
     8
 71
     3
 72
     9
 73
     5
 74
     0
 42
0.000000001
 43
0.0000000001
 40
-185.8811835321743
 40
-185.8811835321743
 40
-185.8811835321743
 40
-185.8811835321743
 40
-185.4148673110122
 40
-176.4446834476014
 40
-176.4446834476014
 40
-176.4446834476014
 40
-176.4446834476014
 10
613.3658048070903
 20
70.81289359463031
 30
0.0
 10
613.5173601597613
 20
70.77472255552887
 30
0.0
 10
616.5835466156577
 20
69.998334970234
 30
0.0
 10
619.6348880064631
 20
69.1417955284246
 30
0.0
 10
622.517328042358
 20
68.25617451477986
 30
0.0
  0
SPLINE
  5
EE
330
1F
100
AcDbEntity
  8
L1
100
AcDbSpline
210
0.0
220
0.0
230
1.0
 70
    12
 71
     2
 72
    24
 73
    21
 74
     0
 42
0.000000001
 43
0.0000000001
 40
-176.4446834476014
 40
-176.4446834476014
 40
-176.4446834476014
 40
-148.0993418240697
 40
-148.0993418240697
 40
-143.9488644735854
 40
-143.9488644735854
 40
-139.798387123101
 40
-139.798387123101
 40
-126.9750898046289
 40
-126.9750898046289
 40
-114.1517894288436
 40
-114.1517894288436
 40
-101.3284890530583
 40
-101.3284890530583
 40
-88.505188677273
 40
-88.505188677273
 40
-84.35471132678941
 40
-84.35471132678941
 40
-80.20423397630572
 40
-80.20423397630572
 40
-58.51689379783892
 40
-58.51689379783892
 40
-58.51689379783892
 10
622.517328042358
 20
68.25617451477986
 30
0.0
 41
1.0
 10
624.4669619155761
 20
96.43212113953258
 30
0.0
 41
1.0
 10
625.6505516610779
 20
113.5372617268558
 30
0.0
 41
1.0
 10
625.8082110901738
 20
115.8157426869808
 30
0.0
 41
0.8684100485876164
 10
623.9261249580322
 20
117.1096065795223
 30
0.0
 41
1.0
 10
622.0440388258892
 20
118.4034704720673
 30
0.0
 41
0.8684100485876164
 10
619.9731559376654
 20
117.4402591533533
 30
0.0
 41
1.0
 10
613.5749621590355
 20
114.4643260904951
 30
0.0
 41
0.8684101344507178
 10
607.7600773390128
 20
118.4618421337094
 30
0.0
 41
1.000000062746968
 10
601.9451909225347
 20
122.4593592744241
 30
0.0
 41
0.8684101030772265
 10
602.4322949169149
 20
129.4989456987483
 30
0.0
 41
1.000000062746968
 10
602.9193989112936
 20
136.5385321230728
 30
0.0
 41
0.8684101030772265
 10
609.229447994965
 20
139.6970646761001
 30
0.0
 41
1.000000062746968
 10
615.5394970786338
 20
142.8555972291254
 30
0.0
 41
0.8684101030772265
 10
621.4668359351415
 20
139.0267982781517
 30
0.0
 41
1.000000062746968
 10
623.3853191974838
 20
137.7875428753255
 30
0.0
 41
0.8684101030774786
 10
625.4276730842167
 20
138.8098552457237
 30
0.0
 41
1.000000062746968
 10
627.4700269709499
 20
139.8321676161173
 30
0.0
 41
0.8684101030774786
 10
627.6276864000596
 20
142.1106485762612
 30
0.0
 41
1.000000062746968
 10
628.5692117442649
 20
155.7174945634019
 30
0.0
 41
1.000000062746968
 10
631.5346419717622
 20
198.5736456370313
 30
0.0
 41
1.000000009772851
  0
SPLINE
  5
EF
330
1F
100
AcDbEntity
  8
L1
100
AcDbSpline
210
0.0
220
0.0
230
1.0
 70
     8
 71
     3
 72
     9
 73
     5
 74
     0
 42
0.000000001
 43
0.0000000001
 40
-58.51689379783892
 40
-58.51689379783892
 40
-58.51689379783892
 40
-58.51689379783892
 40
3.249982979028061
 40
65.01685975589515
 40
65.01685975589515
 40
65.01685975589515
 40
65.01685975589515
 10
631.5346419717628
 20
198.5736456370305
 30
0.0
 10
604.1014053687984
 20
198.9058506874856
 30
0.0
 10
548.3989244925234
 20
195.0871291992243
 30
0.0
 10
515.6889059921803
 20
207.92458234102
 30
0.0
 10
503.2981818841145
 20
213.733876332155
 30
0.0
  0
SPLINE
  5
F0
330
1F
100
AcDbEntity
  8
L1
100
AcDbSpline
210
0.0
220
0.0
230
1.0
 70
    12
 71
     2
 72
    24
 73
    21
 74
     0
 42
0.000000001
 43
0.0000000001
 40
65.01685975589515
 40
65.01685975589515
 40
65.01685975589515
 40
78.67603037353905
 40
78.67603037353905
 40
82.82650748617306
 40
82.82650748617306
 40
86.97698459880706
 40
86.97698459880706
 40
99.80028118241779
 40
99.80028118241779
 40
112.6235808233416
 40
112.6235808233416
 40
125.4468804642653
 40
125.4468804642653
 40
138.270180105189
 40
138.270180105189
 40
142.4206572178223
 40
142.4206572178223
 40
146.5711343304557
 40
146.5711343304557
 40
159.4455350750531
 40
159.4455350750531
 40
159.4455350750531
 10
503.2981818841145
 20
213.733876332155
 30
0.0
 41
1.0
 10
485.1308968115669
 20
205.3413907229846
 30
0.0
 41
1.0
 10
477.6301599902037
 20
201.8763806468934
 30
0.0
 41
1.0
 10
475.5567746467747
 20
200.9185679309211
 30
0.0
 41
0.8684100485876164
 10
475.3277959145557
 20
198.646146156379
 30
0.0
 41
1.0
 10
475.0988171823378
 20
196.3737243818334
 30
0.0
 41
0.8684100485876164
 10
476.9394355579681
 20
195.0215202639112
 30
0.0
 41
1.0
 10
482.6262031516719
 20
190.8437534491267
 30
0.0
 41
0.8684101344507178
 10
481.9187514939796
 20
183.8228893899163
 30
0.0
 41
1.000000062746968
 10
481.2112996420615
 20
176.802023403155
 30
0.0
 41
0.8684101030772265
 10
474.8053758834332
 20
173.8427687460607
 30
0.0
 41
1.000000062746968
 10
468.3994521248084
 20
170.8835140889646
 30
0.0
 41
0.8684101030772265
 10
462.5950002954736
 20
174.8961673617783
 30
0.0
 41
1.000000062746968
 10
456.7905484661422
 20
178.9088206345877
 30
0.0
 41
0.8684101030772265
 10
457.2959912544442
 20
185.9471141006639
 30
0.0
 41
1.000000062746968
 10
457.4595863437242
 20
188.2251765730469
 30
0.0
 41
0.8684101030774786
 10
455.5808775418109
 20
189.523939530225
 30
0.0
 41
1.000000062746968
 10
453.7021687398974
 20
190.8227024874009
 30
0.0
 41
0.8684101030774786
 10
451.6287833964451
 20
189.8648897714311
 30
0.0
 41
1.000000062746968
 10
444.2783517020433
 20
186.4693140445056
 30
0.0
 41
1.000000062746968
 10
428.3708983144229
 20
179.1207711499063
 30
0.0
 41
1.0
  0
ARC
  5
F1
330
1F
100
AcDbEntity
  8
L1
100
AcDbCircle
 10
426.5950774602148
 20
177.6591076134659
 30
0.0
 40
2.3
100
AcDbArc
 50
284.0793068804631
 51
39.45751514774123
  0
SPLINE
  5
F2
330
1F
100
AcDbEntity
  8
L1
100
AcDbSpline
210
0.0
220
0.0
230
1.0
 70
     8
 71
     3
 72
     9
 73
     5
 74
     0
 42
0.000000001
 43
0.0000000001
 40
164.0771131994793
 40
164.0771131994793
 40
164.0771131994793
 40
164.0771131994793
 40
238.6942125988679
 40
354.945582693395
 40
354.945582693395
 40
354.945582693395
 40
354.945582693395
 10
427.1545863023049
 20
175.4281997588866
 30
0.0
 10
403.2708754368837
 20
169.438195562264
 30
0.0
 10
342.5387662111128
 20
151.3830526731772
 30
0.0
 10
275.522559125042
 20
138.8695237764224
 30
0.0
 10
238.6759279969455
 20
151.3140911255292
 30
0.0
  0
SPLINE
  5
F3
330
1F
100
AcDbEntity
  8
L1
100
AcDbSpline
210
0.0
220
0.0
230
1.0
 70
    12
 71
     2
 72
    24
 73
    21
 74
     0
 42
0.000000001
 43
0.0000000001
 40
354.945582693395
 40
354.945582693395
 40
354.945582693395
 40
367.2043333972952
 40
367.2043333972952
 40
371.3548106595853
 40
371.3548106595853
 40
375.5052879218755
 40
375.5052879218755
 40
388.3285880251784
 40
388.3285880251784
 40
401.1518881284813
 40
401.1518881284813
 40
413.9751882317844
 40
413.9751882317844
 40
426.7984852777741
 40
426.7984852777741
 40
430.9489625400649
 40
430.9489625400649
 40
435.0994398023558
 40
435.0994398023558
 40
449.3816794953934
 40
449.3816794953934
 40
449.3816794953934
 10
238.6759279969458
 20
151.3140911255296
 30
0.0
 41
1.000000062746968
 10
231.0945540012973
 20
131.3392871352701
 30
0.0
 41
1.000000062746968
 10
228.3588040730102
 20
124.1313498121429
 30
0.0
 41
1.000000062746968
 10
227.5483574809437
 20
121.9960492940128
 30
0.0
 41
0.8684101030774786
 10
225.2975166479352
 20
121.6086896087279
 30
0.0
 41
1.000000062746968
 10
223.0466758149288
 20
121.2213299234427
 30
0.0
 41
0.8684101030774786
 10
221.5690435508158
 20
122.9628622583076
 30
0.0
 41
1.000000062746968
 10
217.0037563228203
 20
128.343494177771
 30
0.0
 41
0.8684101030772265
 10
210.0495667339967
 20
127.1467091137037
 30
0.0
 41
1.000000062746968
 10
203.0953771451734
 20
125.9499240496364
 30
0.0
 41
0.8684101030772265
 10
200.5914243244397
 20
119.3527073942284
 30
0.0
 41
1.000000062746968
 10
198.087471503706
 20
112.755490738819
 30
0.0
 41
0.8684101030772265
 10
202.4962827512605
 20
107.245914465611
 30
0.0
 41
1.000000062746968
 10
206.9050927883915
 20
101.7363397050372
 30
0.0
 41
0.8684101344507178
 10
213.8907976605944
 20
102.7328278695447
 30
0.0
 41
1.0
 10
216.1518385551885
 20
103.0553585722689
 30
0.0
 41
0.8684100485876164
 10
217.5788247272239
 20
101.2720912210127
 30
0.0
 41
1.0
 10
219.0058108992574
 20
99.48882386975967
 30
0.0
 41
0.8684100485876164
 10
218.1953643072094
 20
97.35352335164161
 30
0.0
 41
1.0
 10
215.1297305077182
 20
89.2764341213814
 30
0.0
 41
1.0
 10
208.1680841895049
 20
70.93443948252889
 30
0.0
 41
1.0
  0
SPLINE
  5
F4
330
1F
100
AcDbEntity
  8
L1
100
AcDbSpline
210
0.0
220
0.0
230
1.0
 70
     8
 71
     3
 72
     8
 73
     4
 74
     0
 42
0.000000001
 43
0.0000000001
 40
449.3816794953934
 40
449.3816794953934
 40
449.3816794953934
 40
449.3816794953934
 40
449.8003395141022
 40
449.8003395141022
 40
449.8003395141022
 40
449.8003395141022
 10
208.1680841895049
 20
70.93443948252889
 30
0.0
 10
226.1227027964041
 20
63.18685392565911
 30
0.0
 10
245.3807864197294
 20
57.86968594189138
 30
0.0
 10
264.9214755129104
 20
54.57633867560732
 30
0.0
  0
LINE
  5
F5
330
1F
100
AcDbEntity
  8
L1$poket15mm
100
AcDbLine
 10
315.9381311291507
 20
89.20558026787343
 30
0.0
 11
316.0590420016793
 21
84.07868565202084
 31
0.0
  0
ARC
  5
F6
330
1F
100
AcDbEntity
  8
L1$poket15mm
100
AcDbCircle
 10
313.7584589866967
 20
82.00087002228334
 30
0.0
 40
3.100000000001043
100
AcDbArc
 50
223.9602169002859
 51
42.08737472512998
  0
LINE
  5
F7
330
1F
100
AcDbEntity
  8
L1$poket15mm
100
AcDbLine
 10
311.5270109100417
 20
79.84897795222145
 30
0.0
 11
268.3000213936419
 21
78.82952789310602
 31
0.0
  0
ARC
  5
F8
330
1F
100
AcDbEntity
  8
L1$poket15mm
100
AcDbCircle
 10
265.969611643726
 20
80.87383471877943
 30
0.0
 40
3.099999999999282
100
AcDbArc
 50
140.614611281992
 51
318.741769106974
  0
LINE
  5
F9
330
1F
100
AcDbEntity
  8
L1$poket15mm
100
AcDbLine
 10
263.5736358598396
 20
82.84088836396057
 30
0.0
 11
263.4527249873103
 21
87.96778297981425
 31
0.0
  0
LINE
  5
FA
330
1F
100
AcDbEntity
  8
L1$poket15mm
100
AcDbLine
 10
263.4527249873103
 20
87.96778297981425
 30
0.0
 11
263.3318141147803
 21
93.09467759566787
 31
0.0
  0
ARC
  5
FB
330
1F
100
AcDbEntity
  8
L1$poket15mm
100
AcDbCircle
 10
265.6323971297616
 20
95.17249322540324
 30
0.0
 40
3.099999999999282
100
AcDbArc
 50
43.96021690015346
 51
222.0873747251348
  0
LINE
  5
FC
330
1F
100
AcDbEntity
  8
L1$poket15mm
100
AcDbLine
 10
267.863845206421
 20
97.32438529546003
 30
0.0
 11
311.0908347228208
 21
98.34383535458907
 31
0.0
  0
ARC
  5
FD
330
1F
100
AcDbEntity
  8
L1$poket15mm
100
AcDbCircle
 10
313.4212444727316
 20
96.29952852890894
 30
0.0
 40
3.100000000001043
100
AcDbArc
 50
320.6146112819972
 51
138.7417691068412
  0
LINE
  5
FE
330
1F
100
AcDbEntity
  8
L1$poket15mm
100
AcDbLine
 10
315.8172202566207
 20
94.33247488372614
 30
0.0
 11
315.9381311291507
 21
89.20558026787343
 31
0.0
  0
LINE
  5
FF
330
1F
100
AcDbEntity
  8
L1$poket15mm
100
AcDbLine
 10
502.1369080856103
 20
114.7503075712018
 30
0.0
 11
503.0640441513272
 21
109.7064909055402
 31
0.0
  0
ARC
  5
100
330
1F
100
AcDbEntity
  8
L1$poket15mm
100
AcDbCircle
 10
501.1195495937969
 20
107.2921709359128
 30
0.0
 40
3.100000000001043
100
AcDbArc
 50
233.0248553561177
 51
51.15201318096157
  0
LINE
  5
101
330
1F
100
AcDbEntity
  8
L1$poket15mm
100
AcDbLine
 10
499.2549972059116
 20
104.8155917643866
 30
0.0
 11
456.728472581234
 21
96.99852041888543
 31
0.0
  0
ARC
  5
102
330
1F
100
AcDbEntity
  8
L1$poket15mm
100
AcDbCircle
 10
454.1050890437576
 20
98.65014350400283
 30
0.0
 40
3.099999999999282
100
AcDbArc
 50
149.6792497378238
 51
327.8064075628052
  0
LINE
  5
103
330
1F
100
AcDbEntity
  8
L1$poket15mm
100
AcDbLine
 10
451.4291294441556
 20
100.2151483670293
 30
0.0
 11
450.5019933784395
 21
105.25896503269
 31
0.0
  0
LINE
  5
104
330
1F
100
AcDbEntity
  8
L1$poket15mm
100
AcDbLine
 10
450.5019933784395
 20
105.25896503269
 30
0.0
 11
449.5748573127221
 21
110.3027816983527
 31
0.0
  0
ARC
  5
105
330
1F
100
AcDbEntity
  8
L1$poket15mm
100
AcDbCircle
 10
451.5193518702511
 20
112.7171016679781
 30
0.0
 40
3.099999999999282
100
AcDbArc
 50
53.02485535598528
 51
231.1520131809664
  0
LINE
  5
106
330
1F
100
AcDbEntity
  8
L1$poket15mm
100
AcDbLine
 10
453.3839042581412
 20
115.1936808394992
 30
0.0
 11
495.9104288828167
 21
123.0107521850147
 31
0.0
  0
ARC
  5
107
330
1F
100
AcDbEntity
  8
L1$poket15mm
100
AcDbCircle
 10
498.5338124202896
 20
121.3591290998898
 30
0.0
 40
3.100000000001043
100
AcDbArc
 50
329.6792497378287
 51
147.8064075626727
  0
LINE
  5
108
330
1F
100
AcDbEntity
  8
L1$poket15mm
100
AcDbLine
 10
501.2097720198933
 20
119.7941242368636
 30
0.0
 11
502.1369080856103
 21
114.7503075712018
 31
0.0
  0
LINE
  5
109
330
1F
100
AcDbEntity
  8
L1$poket15mm
100
AcDbLine
 10
409.4796080013813
 20
98.66922410714751
 30
0.0
 11
410.0997237616365
 21
93.57853414555645
 31
0.0
  0
ARC
  5
10A
330
1F
100
AcDbEntity
  8
L1$poket15mm
100
AcDbCircle
 10
408.0126477488286
 20
91.28634878726525
 30
0.0
 40
3.100000000001043
100
AcDbArc
 50
229.5544171968777
 51
47.68157502172129
  0
LINE
  5
10B
330
1F
100
AcDbEntity
  8
L1$poket15mm
100
AcDbLine
 10
406.0015985347745
 20
88.92717921755109
 30
0.0
 11
363.0798655776554
 21
83.69872428021282
 31
0.0
  0
ARC
  5
10C
330
1F
100
AcDbEntity
  8
L1$poket15mm
100
AcDbCircle
 10
360.561271492212
 20
85.50612125729545
 30
0.0
 40
3.099999999999282
100
AcDbArc
 50
146.2088115785831
 51
324.3359694035651
  0
LINE
  5
10D
330
1F
100
AcDbEntity
  8
L1$poket15mm
100
AcDbLine
 10
357.9849544527243
 20
87.23024147121201
 30
0.0
 11
357.3648386924696
 21
92.32093143280393
 31
0.0
  0
LINE
  5
10E
330
1F
100
AcDbEntity
  8
L1$poket15mm
100
AcDbLine
 10
357.3648386924696
 20
92.32093143280393
 30
0.0
 11
356.7447229322131
 21
97.41162139439486
 31
0.0
  0
ARC
  5
10F
330
1F
100
AcDbEntity
  8
L1$poket15mm
100
AcDbCircle
 10
358.83179894502
 20
99.70380675268517
 30
0.0
 40
3.099999999999282
100
AcDbArc
 50
49.55441719674422
 51
227.681575021726
  0
LINE
  5
110
330
1F
100
AcDbEntity
  8
L1$poket15mm
100
AcDbLine
 10
360.8428481590788
 20
102.0629763223933
 30
0.0
 11
403.7645811161964
 21
107.2914312597459
 31
0.0
  0
ARC
  5
111
330
1F
100
AcDbEntity
  8
L1$poket15mm
100
AcDbCircle
 10
406.2831752016353
 20
105.4840342826548
 30
0.0
 40
3.100000000001043
100
AcDbArc
 50
326.2088115785884
 51
144.335969403432
  0
LINE
  5
112
330
1F
100
AcDbEntity
  8
L1$poket15mm
100
AcDbLine
 10
408.8594922411256
 20
103.7599140687384
 30
0.0
 11
409.4796080013813
 21
98.66922410714751
 31
0.0
  0
LINE
  5
113
330
1F
100
AcDbEntity
  8
L1$poket15mm
100
AcDbLine
 10
595.1692562364933
 20
128.341006441196
 30
0.0
 11
595.7906772996755
 21
123.2504756532143
 31
0.0
  0
ARC
  5
114
330
1F
100
AcDbEntity
  8
L1$poket15mm
100
AcDbCircle
 10
593.7041891035047
 20
120.9577552151207
 30
0.0
 40
3.100000000001043
100
AcDbArc
 50
229.5691086273326
 51
47.69626645217571
  0
LINE
  5
115
330
1F
100
AcDbEntity
  8
L1$poket15mm
100
AcDbLine
 10
591.6937448792695
 20
118.598070062132
 30
0.0
 11
548.7733539813185
 21
113.358609570717
 31
0.0
  0
ARC
  5
116
330
1F
100
AcDbEntity
  8
L1$poket15mm
100
AcDbCircle
 10
546.2542965370894
 20
115.1653606860258
 30
0.0
 40
3.099999999999282
100
AcDbArc
 50
146.2235030090377
 51
324.350660834019
  0
LINE
  5
117
330
1F
100
AcDbEntity
  8
L1$poket15mm
100
AcDbLine
 10
543.6775374940271
 20
116.8888202399432
 30
0.0
 11
543.0561164308455
 21
121.9793510279257
 31
0.0
  0
LINE
  5
118
330
1F
100
AcDbEntity
  8
L1$poket15mm
100
AcDbLine
 10
543.0561164308455
 20
121.9793510279257
 30
0.0
 11
542.4346953676625
 21
127.0698818159082
 31
0.0
  0
ARC
  5
119
330
1F
100
AcDbEntity
  8
L1$poket15mm
100
AcDbCircle
 10
544.5211835638311
 20
129.3626022539998
 30
0.0
 40
3.099999999999282
100
AcDbArc
 50
49.56910862719814
 51
227.6962664521804
  0
LINE
  5
11A
330
1F
100
AcDbEntity
  8
L1$poket15mm
100
AcDbLine
 10
546.5316277880718
 20
131.7222874069844
 30
0.0
 11
589.4520186860201
 21
136.9617478984129
 31
0.0
  0
ARC
  5
11B
330
1F
100
AcDbEntity
  8
L1$poket15mm
100
AcDbCircle
 10
591.971076130246
 20
135.1549967830965
 30
0.0
 40
3.100000000001043
100
AcDbArc
 50
326.2235030090427
 51
144.3506608338853
  0
LINE
  5
11C
330
1F
100
AcDbEntity
  8
L1$poket15mm
100
AcDbLine
 10
594.5478351733116
 20
133.4315372291785
 30
0.0
 11
595.1692562364933
 21
128.341006441196
 31
0.0
  0
SPLINE
  5
11D
330
1F
100
AcDbEntity
  8
L1$poket15mm
100
AcDbSpline
210
0.0
220
0.0
230
1.0
 70
    15
 71
     2
 72
    28
 73
    25
 74
     0
 42
0.000000001
 43
0.0000000001
 40
685.3709373256315
 40
685.3709373256315
 40
685.3709373256315
 40
689.2525108241362
 40
689.2525108241362
 40
693.1340843226408
 40
693.1340843226408
 40
703.3907246772915
 40
703.3907246772915
 40
707.2722981757959
 40
707.2722981757959
 40
711.1538716743004
 40
711.1538716743004
 40
763.0928806947861
 40
763.0928806947861
 40
766.9744541932912
 40
766.9744541932912
 40
770.8560276917963
 40
770.8560276917963
 40
781.1126680464456
 40
781.1126680464456
 40
784.9942415449487
 40
784.9942415449487
 40
788.8758150434519
 40
788.8758150434519
 40
840.8148240639414
 40
840.8148240639414
 40
840.8148240639414
 10
577.8465924790713
 20
501.2667601447168
 30
0.0
 41
1.0
 10
580.0540612752445
 20
499.1624736053515
 30
0.0
 41
0.7128614534291153
 10
577.9861322217845
 20
496.9209094738366
 30
0.0
 41
1.0
 10
575.9182031683235
 20
494.6793453423221
 30
0.0
 41
0.7128614534291153
 10
573.643142441929
 20
496.7103645487922
 30
0.0
 41
1.0
 10
568.5156347655226
 20
496.8016491014547
 30
0.0
 41
1.0
 10
563.3881270891158
 20
496.8929336541179
 30
0.0
 41
1.0
 10
561.042214850084
 20
494.944181208935
 30
0.0
 41
0.7128614534291273
 10
559.0553836514044
 20
497.257931868315
 30
0.0
 41
1.0
 10
557.0685524527217
 20
499.5716825276981
 30
0.0
 41
0.7128614534291273
 10
559.3495235103734
 20
501.5960617807038
 30
0.0
 41
1.0
 10
559.7343526025103
 20
523.2121410236729
 30
0.0
 41
1.0
 10
560.1191816946466
 20
544.8282202666417
 30
0.0
 41
1.0
 10
557.9117128984652
 20
546.9325068060054
 30
0.0
 41
0.7128614534287284
 10
559.9796419519256
 20
549.1740709375249
 30
0.0
 41
1.0
 10
562.047571005386
 20
551.4156350690449
 30
0.0
 41
0.7128614534287284
 10
564.3226317317839
 20
549.3846158625712
 30
0.0
 41
1.0
 10
569.4501394081899
 20
549.293331309906
 30
0.0
 41
1.0
 10
574.5776470845949
 20
549.2020467572414
 30
0.0
 41
1.0
 10
576.923559323623
 20
551.1507992024274
 30
0.0
 41
0.7128614534288794
 10
578.9103905223054
 20
548.837048543047
 30
0.0
 41
1.0
 10
580.897221720987
 20
546.5232978836679
 30
0.0
 41
0.7128614534288794
 10
578.6162506633382
 20
544.4989186306599
 30
0.0
 41
1.0
 10
578.231421571205
 20
522.8828393876883
 30
0.0
 41
1.0
 10
577.8465924790713
 20
501.2667601447168
 30
0.0
 41
1.0
  0
SPLINE
  5
11E
330
1F
100
AcDbEntity
  8
L1
100
AcDbSpline
210
0.0
220
0.0
230
1.0
 70
    12
 71
     2
 72
    24
 73
    21
 74
     0
 42
0.000000001
 43
0.0000000001
 40
-475.4561201444476
 40
-475.4561201444476
 40
-475.4561201444476
 40
-460.7739222612784
 40
-460.7739222612784
 40
-456.6234451486444
 40
-456.6234451486444
 40
-452.4729680360103
 40
-452.4729680360103
 40
-439.6496714523996
 40
-439.6496714523996
 40
-426.8263718114758
 40
-426.8263718114758
 40
-414.0030721705521
 40
-414.0030721705521
 40
-401.1797725296283
 40
-401.1797725296283
 40
-397.029295416995
 40
-397.029295416995
 40
-392.8788183043616
 40
-392.8788183043616
 40
-380.8082883012855
 40
-380.8082883012855
 40
-380.8082883012855
 10
605.2775637121056
 20
430.2678489520336
 30
0.0
 41
1.0
 10
591.4625534357316
 20
431.9201784292763
 30
0.0
 41
1.0
 10
582.6441705036889
 20
432.9748916555991
 30
0.0
 41
1.0
 10
580.3764041514659
 20
433.2461254162997
 30
0.0
 41
0.8684100485876164
 10
579.4573475424205
 20
435.3369785748466
 30
0.0
 41
1.0
 10
578.5382909333773
 20
437.4278317333909
 30
0.0
 41
0.8684100485876164
 10
579.8717957581104
 20
439.2820423103361
 30
0.0
 41
1.0
 10
583.99178659806
 20
445.0108062871663
 30
0.0
 41
0.8684101344507178
 10
581.1522734464432
 20
451.4706967698041
 30
0.0
 41
1.000000062746968
 10
578.3127595152476
 20
457.9305890259797
 30
0.0
 41
0.8684101030772265
 10
571.3062769042144
 20
458.7685918590122
 30
0.0
 41
1.000000062746968
 10
564.2997942931826
 20
459.6065946920423
 30
0.0
 41
0.8684101030772265
 10
560.0169100150681
 20
453.9985692296236
 30
0.0
 41
1.000000062746968
 10
555.7340257369525
 20
448.3905437672059
 30
0.0
 41
0.8684101030772265
 10
558.3867678184487
 20
441.8517360183945
 30
0.0
 41
1.000000062746968
 10
559.2453725660173
 20
439.7353405287072
 30
0.0
 41
0.8684101030774786
 10
557.8591447830239
 20
437.9202084357234
 30
0.0
 41
1.000000062746968
 10
556.4729170000309
 20
436.105076342742
 30
0.0
 41
0.8684101030774786
 10
554.205150647785
 20
436.3763101034331
 30
0.0
 41
1.000000062746968
 10
546.6675964893293
 20
437.2778311789259
 30
0.0
 41
1.000000062746968
 10
532.8984814949908
 20
438.9246714002088
 30
0.0
 41
1.000000062746968
  0
SPLINE
  5
11F
330
1F
100
AcDbEntity
  8
L1
100
AcDbSpline
210
0.0
220
0.0
230
1.0
 70
     8
 71
     3
 72
    15
 73
    11
 74
     0
 42
0.000000001
 43
0.0000000001
 40
-380.8082883012855
 40
-380.8082883012855
 40
-380.8082883012855
 40
-380.8082883012855
 40
-321.2171775456989
 40
-236.583750861055
 40
-174.5650432246903
 40
-144.7785160719886
 40
-103.13062248704
 40
-69.08479347869525
 40
-43.43513618413363
 40
-30.53972259917418
 40
-30.53972259917418
 40
-30.53972259917418
 40
-30.53972259917418
 10
532.8984814949907
 20
438.9246714002087
 30
0.0
 10
533.847053793387
 20
458.7527307398942
 30
0.0
 10
532.1224863934581
 20
507.1174579424686
 30
0.0
 10
521.5972560069442
 20
575.7437225271243
 30
0.0
 10
492.2375731680537
 20
628.5508192375069
 30
0.0
 10
459.6402634091766
 20
659.0596122666167
 30
0.0
 10
426.9766925404888
 20
675.4650152114485
 30
0.0
 10
391.8210815251949
 20
673.257089941181
 30
0.0
 10
369.9782476417109
 20
661.2371256298705
 30
0.0
 10
361.4099706341465
 20
651.5066355799307
 30
0.0
 10
358.2806855448426
 20
647.1364628359942
 30
0.0
  0
ARC
  5
120
330
1F
100
AcDbEntity
  8
L1
100
AcDbCircle
 10
360.1658531321649
 20
645.8188349796901
 30
0.0
 40
2.3
100
AcDbArc
 50
145.0485807125733
 51
292.7146616280237
  0
SPLINE
  5
121
330
1F
100
AcDbEntity
  8
L1
100
AcDbSpline
210
0.0
220
0.0
230
1.0
 70
    12
 71
     3
 72
    13
 73
     9
 74
     0
 42
0.000000001
 43
0.0000000001
 40
-24.612026196545
 40
-24.612026196545
 40
-24.612026196545
 40
-24.612026196545
 40
-24.12627687751751
 40
-23.12627682368225
 40
-22.12627676984721
 40
-21.12627671601194
 40
-20.12627666217691
 40
-20.09164833208138
 40
-20.09164833208138
 40
-20.09164833208138
 40
-20.09164833208138
 10
361.0539799652837
 20
643.6972245705208
 30
0.0
 41
1.0
 10
367.723302906205
 20
646.4890670043349
 30
0.0
 41
1.0
 10
391.4473917031129
 20
648.2744731779841
 30
0.0
 41
1.0
 10
419.242699999333
 20
615.1294407328136
 30
0.0
 41
1.0
 10
404.4717378263786
 20
567.1632828207129
 30
0.0
 41
1.0
 10
359.5977046031392
 20
548.3727254878161
 30
0.0
 41
1.0
 10
329.2064732478633
 20
559.1982395636813
 30
0.0
 41
1.0
 10
316.8485618283502
 20
568.5800328090023
 30
0.0
 41
1.0
 10
316.4384540016532
 20
568.8982866399351
 30
0.0
 41
1.0
  0
ARC
  5
122
330
1F
100
AcDbEntity
  8
L1
100
AcDbCircle
 10
315.028376128615
 20
567.0812339736736
 30
0.0
 40
2.3
100
AcDbArc
 50
52.18765143387485
 51
129.1259078821716
  0
SPLINE
  5
123
330
1F
100
AcDbEntity
  8
L1
100
AcDbSpline
210
0.0
220
0.0
230
1.0
 70
    12
 71
     2
 72
    24
 73
    21
 74
     0
 42
0.000000001
 43
0.0000000001
 40
-17.00314877181836
 40
-17.00314877181836
 40
-17.00314877181836
 40
-6.757072813308355
 40
-6.757072813308355
 40
-2.606595473640482
 40
-2.606595473640482
 40
1.543881866027277
 40
1.543881866027277
 40
14.36718220839589
 40
14.36718220839589
 40
27.19048255076461
 40
27.19048255076461
 40
40.01378289313368
 40
40.01378289313368
 40
52.83708017818924
 40
52.83708017818924
 40
56.98755751785768
 40
56.98755751785768
 40
61.13803485752612
 40
61.13803485752612
 40
71.1073004680851
 40
71.1073004680851
 40
71.1073004680851
 10
313.5770148245604
 20
568.865484618929
 30
0.0
 41
1.000000022250101
 10
310.4302877483036
 20
574.0042365828356
 30
0.0
 41
1.000000062746968
 10
307.0651727840168
 20
579.4996261455177
 30
0.0
 41
1.000000062746968
 10
305.8724581169062
 20
581.4473847815347
 30
0.0
 41
0.8684101030774786
 10
303.588831542711
 20
581.4102142159313
 30
0.0
 41
1.000000062746968
 10
301.3052049685148
 20
581.3730436503292
 30
0.0
 41
0.8684101030774786
 10
300.1765126293202
 20
579.3874994970132
 30
0.0
 41
1.000000062746968
 10
296.6893089145547
 20
573.252969557517
 30
0.0
 41
0.8684101030772265
 10
289.633824619913
 20
573.1381275142509
 30
0.0
 41
1.000000062746968
 10
282.5783403252686
 20
573.0232854709874
 30
0.0
 41
0.8684101030772265
 10
278.8933334608092
 20
579.0410734147196
 30
0.0
 41
1.000000062746968
 10
275.2083265963469
 20
585.0588613584553
 30
0.0
 41
0.8684101030772265
 10
278.5178390889069
 20
591.2910499297727
 30
0.0
 41
1.000000062746968
 10
281.827350672849
 20
597.5232367900677
 30
0.0
 41
0.8684101344507178
 10
288.8766236784621
 20
597.840744767687
 30
0.0
 41
1.0
 10
291.1582395700225
 20
597.9435110297301
 30
0.0
 41
0.8684100485876164
 10
292.2294191460758
 20
599.960664047495
 30
0.0
 41
1.0
 10
293.300598722132
 20
601.9778170652575
 30
0.0
 41
0.8684100485876164
 10
292.1078840550399
 20
603.9255757012642
 30
0.0
 41
1.0
 10
288.9586910601255
 20
609.0683546252601
 30
0.0
 41
1.0
 10
285.8094965635588
 20
614.2111360015255
 30
0.0
 41
1.0
  0
ARC
  5
124
330
1F
100
AcDbEntity
  8
L1
100
AcDbCircle
 10
284.8704109235256
 20
616.3106878967371
 30
0.0
 40
2.3
100
AcDbArc
 50
294.0979691287833
 51
12.03419575533058
  0
SPLINE
  5
125
330
1F
100
AcDbEntity
  8
L1
100
AcDbSpline
210
0.0
220
0.0
230
1.0
 70
     8
 71
     3
 72
    13
 73
     9
 74
     0
 42
0.000000001
 43
0.0000000001
 40
74.23586111887664
 40
74.23586111887664
 40
74.23586111887664
 40
74.23586111887664
 40
78.62374001104138
 40
108.9723493317264
 40
181.9237656417523
 40
238.3819097618301
 40
309.94297778768
 40
368.119517573375
 40
368.119517573375
 40
368.119517573375
 40
368.119517573375
 10
287.1198646030051
 20
616.7902274090571
 30
0.0
 10
286.8140951895865
 20
618.2245495335359
 30
0.0
 10
284.6696811133023
 20
629.6458247207078
 30
0.0
 10
284.9217252629206
 20
666.4096855107322
 30
0.0
 10
321.0805444643449
 20
720.7805321793742
 30
0.0
 10
386.9476764257025
 20
748.9838628872175
 30
0.0
 10
450.9407184291558
 20
743.1223198492308
 30
0.0
 10
488.9309101146467
 20
723.6743849149984
 30
0.0
 10
504.4871214459295
 20
712.4351657964121
 30
0.0
  0
SPLINE
  5
126
330
1F
100
AcDbEntity
  8
L1
100
AcDbSpline
210
0.0
220
0.0
230
1.0
 70
     8
 71
     3
 72
     8
 73
     4
 74
     0
 42
0.000000001
 43
0.0000000001
 40
368.119517573375
 40
368.119517573375
 40
368.119517573375
 40
368.119517573375
 40
476.0420341408233
 40
476.0420341408233
 40
476.0420341408233
 40
476.0420341408233
 10
504.4871214459295
 20
712.4351657964121
 30
0.0
 10
548.152860933368
 20
683.4271959701406
 30
0.0
 10
593.1903595116119
 20
677.5354577312494
 30
0.0
 10
619.551682587688
 20
679.1802257767438
 30
0.0
  0
ARC
  5
127
330
1F
100
AcDbEntity
  8
L1
100
AcDbCircle
 10
619.863044049329
 20
674.1899297895097
 30
0.0
 40
5.0
100
AcDbArc
 50
359.8439398269273
 51
93.57024954647446
  0
SPLINE
  5
128
330
1F
100
AcDbEntity
  8
L1
100
AcDbSpline
210
0.0
220
0.0
230
1.0
 70
     8
 71
     3
 72
     8
 73
     4
 74
     0
 42
0.000000001
 43
0.0000000001
 40
484.2211976425735
 40
484.2211976425735
 40
484.2211976425735
 40
484.2211976425735
 40
728.8294552322498
 40
728.8294552322498
 40
728.8294552322498
 40
728.8294552322498
 10
624.863025502118
 20
674.1763109870926
 30
0.0
 10
624.6408140276147
 20
592.5940090586657
 30
0.0
 10
617.9627552683389
 20
510.8422824823773
 30
0.0
 10
605.2775637121056
 20
430.2678489520336
 30
0.0
  0
CIRCLE
  5
129
330
1F
100
AcDbEntity
  8
ZagotovkaWorkingZone
100
AcDbCircle
 10
298.8188428980006
 20
1681.618634701726
 30
0.0
 40
183.608256205257
  0
SPLINE
  5
12B
330
1F
100
AcDbEntity
  8
Default
100
AcDbSpline
210
0.0
220
0.0
230
1.0
 70
     8
 71
     3
 72
    14
 73
    10
 74
     0
 42
0.000000001
 43
0.0000000001
 40
1885.968202926665
 40
1885.968202926665
 40
1885.968202926665
 40
1885.968202926665
 40
1969.005798504531
 40
2051.890121493542
 40
2140.819856500822
 40
2245.043746414265
 40
2398.74612296205
 40
2516.614766011395
 40
2604.056401293554
 40
2604.056401293554
 40
2604.056401293554
 40
2604.056401293554
 10
49.26610626580454
 20
1267.701887593988
 30
0.0
 10
75.8079033187857
 20
1259.808692764836
 30
0.0
 10
129.4622999316153
 20
1246.17611861943
 30
0.0
 10
213.38853524909
 20
1232.217265600686
 30
0.0
 10
305.4810683933709
 20
1227.168873902317
 30
0.0
 10
421.0375183877898
 20
1234.082939591264
 30
0.0
 10
545.298365889803
 20
1252.406837876506
 30
0.0
 10
660.6465055973629
 20
1285.313347343687
 30
0.0
 10
724.3764072536293
 20
1310.484752774444
 30
0.0
 10
751.0162850735977
 20
1322.311707714807
 30
0.0
  0
SPLINE
  5
12C
330
1F
100
AcDbEntity
  8
Default
100
AcDbSpline
210
0.0
220
0.0
230
1.0
 70
    15
 71
     2
 72
    28
 73
    25
 74
     0
 42
0.000000001
 43
0.0000000001
 40
685.3709373256315
 40
685.3709373256315
 40
685.3709373256315
 40
689.2525108241362
 40
689.2525108241362
 40
693.1340843226408
 40
693.1340843226408
 40
703.3907246772915
 40
703.3907246772915
 40
707.2722981757959
 40
707.2722981757959
 40
711.1538716743004
 40
711.1538716743004
 40
763.0928806947861
 40
763.0928806947861
 40
766.9744541932912
 40
766.9744541932912
 40
770.8560276917963
 40
770.8560276917963
 40
781.1126680464456
 40
781.1126680464456
 40
784.9942415449487
 40
784.9942415449487
 40
788.8758150434519
 40
788.8758150434519
 40
840.8148240639414
 40
840.8148240639414
 40
840.8148240639414
 10
-3.30419583120775
 20
1322.744297704394
 30
0.0
 41
1.0
 10
-2.339648885058338
 20
1319.851100594879
 30
0.0
 41
0.7128614534291153
 10
0.5689253236578367
 20
1320.768235480394
 30
0.0
 41
1.0
 10
3.477499532374257
 20
1321.68537036591
 30
0.0
 41
0.7128614534291153
 10
2.608021681864216
 20
1324.608544769415
 30
0.0
 41
1.0
 10
4.707922580173502
 20
1329.287228778668
 30
0.0
 41
1.0
 10
6.807823478483016
 20
1333.965912787922
 30
0.0
 41
1.0
 10
9.569757838772766
 20
1335.259225942302
 30
0.0
 41
0.7128614534291273
 10
8.321755438672838
 20
1338.041927926916
 30
0.0
 41
1.0
 10
7.073753038571738
 20
1340.824629911534
 30
0.0
 41
0.7128614534291273
 10
4.271026712521277
 20
1339.622271617551
 30
0.0
 41
1.0
 10
-15.45294264635342
 20
1348.474842317558
 30
0.0
 41
1.0
 10
-35.17691200522871
 20
1357.327413017565
 30
0.0
 41
1.0
 10
-36.14145895137298
 20
1360.220610127087
 30
0.0
 41
0.7128614534287284
 10
-39.05003316009341
 20
1359.303475241574
 30
0.0
 41
1.0
 10
-41.95860736881436
 20
1358.386340356061
 30
0.0
 41
0.7128614534287284
 10
-41.08912951830278
 20
1355.463165952551
 30
0.0
 41
1.0
 10
-43.18903041660921
 20
1350.784481943297
 30
0.0
 41
1.0
 10
-45.28893131491633
 20
1346.105797934044
 30
0.0
 41
1.0
 10
-48.05086567520781
 20
1344.812484779668
 30
0.0
 41
0.7128614534288794
 10
-46.80286327510889
 20
1342.029782795052
 30
0.0
 41
1.0
 10
-45.55486087501061
 20
1339.247080810436
 30
0.0
 41
0.7128614534288794
 10
-42.75213454895983
 20
1340.449439104416
 30
0.0
 41
1.0
 10
-23.02816519008367
 20
1331.596868404405
 30
0.0
 41
1.0
 10
-3.30419583120775
 20
1322.744297704394
 30
0.0
 41
1.0
  0
ARC
  5
12D
330
1F
100
AcDbEntity
  8
Default
100
AcDbCircle
 10
652.6117862205724
 20
1329.010455831907
 30
0.0
 40
3.100000000001431
100
AcDbArc
 50
62.68939558692598
 51
240.8165534117694
  0
LINE
  5
12E
330
1F
100
AcDbEntity
  8
Default
100
AcDbLine
 10
651.1002031518543
 20
1326.303960565631
 30
0.0
 11
654.6216635098036
 21
1316.670789316659
 31
0.0
  0
ARC
  5
12F
330
1F
100
AcDbEntity
  8
Default
100
AcDbCircle
 10
657.5223766340395
 20
1315.57723393585
 30
0.0
 40
3.100000000001424
100
AcDbArc
 50
159.3437899686408
 51
337.4709477934848
  0
LINE
  5
130
330
1F
100
AcDbEntity
  8
Default
100
AcDbLine
 10
660.3858012859057
 20
1314.389463224353
 30
0.0
 11
700.9964461099063
 21
1329.234914650724
 31
0.0
  0
ARC
  5
131
330
1F
100
AcDbEntity
  8
Default
100
AcDbCircle
 10
702.4187695521181
 20
1331.989364872771
 30
0.0
 40
3.099999999999898
100
AcDbArc
 50
242.6893955867771
 51
60.81655341177754
  0
LINE
  5
132
330
1F
100
AcDbEntity
  8
Default
100
AcDbLine
 10
703.9303526208347
 20
1334.695860139045
 30
0.0
 11
700.4088922628814
 21
1344.329031388018
 31
0.0
  0
ARC
  5
133
330
1F
100
AcDbEntity
  8
Default
100
AcDbCircle
 10
697.5081791386482
 20
1345.422586768829
 30
0.0
 40
3.099999999999752
100
AcDbArc
 50
339.3437899685751
 51
157.4709477934805
  0
SPLINE
  5
134
330
1F
100
AcDbEntity
  8
Default
100
AcDbSpline
210
0.0
220
0.0
230
1.0
 70
    28
 71
     2
 72
     6
 73
     3
 74
     0
 42
0.000000001
 43
0.0000000001
 40
944.3197017817618
 40
944.3197017817618
 40
944.3197017817618
 40
996.2587108022512
 40
996.2587108022512
 40
996.2587108022512
 10
694.6447544867848
 20
1346.610357480326
 30
0.0
 41
1.0
 10
674.3394369159467
 20
1339.187633536858
 30
0.0
 41
1.0
 10
654.0341096627775
 20
1331.764906053959
 30
0.0
 41
1.0
  0
SPLINE
  5
135
330
1F
100
AcDbEntity
  8
Default
100
AcDbSpline
210
0.0
220
0.0
230
1.0
 70
    12
 71
     2
 72
    24
 73
    21
 74
     0
 42
0.000000001
 43
0.0000000001
 40
519.2482843837051
 40
519.2482843837051
 40
519.2482843837051
 40
533.9304822668744
 40
533.9304822668744
 40
538.0809593795084
 40
538.0809593795084
 40
542.2314364921424
 40
542.2314364921424
 40
555.0547330757531
 40
555.0547330757531
 40
567.8780327166769
 40
567.8780327166769
 40
580.7013323576007
 40
580.7013323576007
 40
593.5246319985243
 40
593.5246319985243
 40
597.6751091111577
 40
597.6751091111577
 40
601.825586223791
 40
601.825586223791
 40
613.8961162268672
 40
613.8961162268672
 40
613.8961162268672
 10
49.2661062658064
 20
1267.701887593983
 30
0.0
 41
1.0
 10
53.65123473087568
 20
1280.9062561886
 30
0.0
 41
1.0
 10
56.45034535312832
 20
1289.334854960064
 30
0.0
 41
1.0
 10
57.17017447987038
 20
1291.502383047428
 30
0.0
 41
0.8684100485876164
 10
55.6693757128394
 20
1293.223991319398
 30
0.0
 41
1.0
 10
54.16857694581002
 20
1294.945599591364
 30
0.0
 41
0.8684100485876164
 10
51.92311976226512
 20
1294.528162149216
 30
0.0
 41
1.0
 10
44.98556220401078
 20
1293.238450418086
 30
0.0
 41
0.8684101344507178
 10
40.34870110649301
 20
1298.557523565562
 30
0.0
 41
1.000000062746968
 10
35.71183873594247
 20
1303.87659817337
 30
0.0
 41
0.8684101030772265
 10
37.93582016795264
 20
1310.573385008634
 30
0.0
 41
1.000000062746968
 10
40.15980159996308
 20
1317.270171843895
 30
0.0
 41
0.8684101030772265
 10
47.05743906241902
 20
1318.758676047243
 30
0.0
 41
1.000000062746968
 10
53.95507652487353
 20
1320.247180250593
 30
0.0
 41
0.8684101030772265
 10
58.74284741402434
 20
1315.063523506569
 30
0.0
 41
1.000000062746968
 10
60.29249027014023
 20
1313.385745511778
 30
0.0
 41
0.8684101030774786
 10
62.52502705296521
 20
1313.867525020117
 30
0.0
 41
1.000000062746968
 10
64.75756383578846
 20
1314.349304528457
 30
0.0
 41
0.8684101030774786
 10
65.47739296254784
 20
1316.516832615838
 30
0.0
 41
1.000000062746968
 10
67.869945891285
 20
1323.721216935431
 30
0.0
 41
1.000000062746968
 10
72.24050638256787
 20
1336.88171888003
 30
0.0
 41
1.000000062746968
  0
SPLINE
  5
136
330
1F
100
AcDbEntity
  8
Default
100
AcDbSpline
210
0.0
220
0.0
230
1.0
 70
     8
 71
     3
 72
    10
 73
     6
 74
     0
 42
0.000000001
 43
0.0000000001
 40
1103.672030253008
 40
1103.672030253008
 40
1103.672030253008
 40
1103.672030253008
 40
1172.670580941117
 40
1222.225276399391
 40
1258.372342197851
 40
1258.372342197851
 40
1258.372342197851
 40
1258.372342197851
 10
-40.26827755901685
 20
1780.549241302117
 30
0.0
 10
-32.63053835561233
 20
1758.852183814231
 30
0.0
 10
-18.81382278548297
 20
1721.827589788708
 30
0.0
 10
0.8495933080452005
 20
1674.122286904079
 30
0.0
 10
13.6643886476091
 20
1648.567227693595
 30
0.0
 10
19.31634932096783
 20
1637.926068448269
 30
0.0
  0
ARC
  5
137
330
1F
100
AcDbEntity
  8
Default
100
AcDbCircle
 10
17.29788643185006
 20
1636.823431805828
 30
0.0
 40
2.3
100
AcDbArc
 50
310.7104681826499
 51
28.64669480921775
  0
SPLINE
  5
138
330
1F
100
AcDbEntity
  8
Default
100
AcDbSpline
210
0.0
220
0.0
230
1.0
 70
    12
 71
     2
 72
    24
 73
    21
 74
     0
 42
0.000000001
 43
0.0000000001
 40
523.9612148247838
 40
523.9612148247838
 40
523.9612148247838
 40
533.9304822668744
 40
533.9304822668744
 40
538.0809593795084
 40
538.0809593795084
 40
542.2314364921424
 40
542.2314364921424
 40
555.0547330757531
 40
555.0547330757531
 40
567.8780327166769
 40
567.8780327166769
 40
580.7013323576007
 40
580.7013323576007
 40
593.5246319985243
 40
593.5246319985243
 40
597.6751091111577
 40
597.6751091111577
 40
601.825586223791
 40
601.825586223791
 40
612.0716640646874
 40
612.0716640646874
 40
612.0716640646874
 10
18.79803131867286
 20
1635.079996886325
 30
0.0
 41
1.0
 10
22.11123846712951
 20
1630.041319747213
 30
0.0
 41
1.0
 10
25.4244456155855
 20
1625.002642608101
 30
0.0
 41
1.0
 10
26.67927814738979
 20
1623.094311583786
 30
0.0
 41
0.8684100485876164
 10
28.96052257012045
 20
1623.205017794032
 30
0.0
 41
1.0
 10
31.24176699285239
 20
1623.315724004275
 30
0.0
 41
0.8684100485876164
 10
32.3059199054615
 20
1625.336592767906
 30
0.0
 41
1.0
 10
35.59372477943414
 20
1631.580261587935
 30
0.0
 41
0.8684101344507178
 10
42.64184725267008
 20
1631.922298995476
 30
0.0
 41
1.000000062746968
 10
49.68997166094103
 20
1632.264336496925
 30
0.0
 41
0.8684101030772265
 10
53.56689765252867
 20
1626.368363957754
 30
0.0
 41
1.000000062746968
 10
57.44382364411354
 20
1620.472391418587
 30
0.0
 41
0.8684101030772265
 10
54.33676528468057
 20
1614.136838113788
 30
0.0
 41
1.000000062746968
 10
51.22970692524555
 20
1607.801284808992
 30
0.0
 41
0.8684101030772265
 10
44.19431924553614
 20
1607.256888333035
 30
0.0
 41
1.000000062746968
 10
41.91719727995259
 20
1607.080685225287
 30
0.0
 41
0.8684101030774786
 10
40.91154540109227
 20
1605.030076466925
 30
0.0
 41
1.000000062746968
 10
39.90589352223149
 20
1602.979467708566
 30
0.0
 41
0.8684101030774786
 10
41.16072605403679
 20
1601.07113668423
 30
0.0
 41
1.000000062746968
 10
44.7011006747811
 20
1595.686986564373
 30
0.0
 41
1.000000062746968
 10
48.01171184285757
 20
1590.652257354384
 30
0.0
 41
1.000000022250082
  0
SPLINE
  5
139
330
1F
100
AcDbEntity
  8
Default
100
AcDbSpline
210
0.0
220
0.0
230
1.0
 70
    12
 71
     2
 72
    24
 73
    21
 74
     0
 42
0.000000001
 43
0.0000000001
 40
519.8849981023953
 40
519.8849981023953
 40
519.8849981023953
 40
533.9304822668744
 40
533.9304822668744
 40
538.0809593795084
 40
538.0809593795084
 40
542.2314364921424
 40
542.2314364921424
 40
555.0547330757531
 40
555.0547330757531
 40
567.8780327166769
 40
567.8780327166769
 40
580.7013323576007
 40
580.7013323576007
 40
593.5246319985243
 40
593.5246319985243
 40
597.6751091111577
 40
597.6751091111577
 40
601.825586223791
 40
601.825586223791
 40
614.0843364856684
 40
614.0843364856684
 40
614.0843364856684
 10
751.0162850735977
 20
1322.311707714807
 30
0.0
 41
1.0
 10
745.5395516174052
 20
1333.500653664802
 30
0.0
 41
1.0
 10
741.8043618879778
 20
1341.131632300118
 30
0.0
 41
1.0
 10
740.8002632481354
 20
1343.183002062664
 30
0.0
 41
0.8684100485876164
 10
738.52327537629
 20
1343.360929611689
 30
0.0
 41
1.0
 10
736.2462875044453
 20
1343.53885716071
 30
0.0
 41
0.8684100485876164
 10
734.9357276713505
 20
1341.668358589445
 30
0.0
 41
1.0
 10
730.886624882479
 20
1335.889273209502
 30
0.0
 41
0.8684101344507178
 10
723.851653429656
 20
1336.438997361988
 30
0.0
 41
1.000000062746968
 10
716.8166800454057
 20
1336.988721665402
 30
0.0
 41
0.8684101030772265
 10
713.714420567547
 20
1343.326626166016
 30
0.0
 41
1.000000062746968
 10
710.6121610896906
 20
1349.664530666631
 30
0.0
 41
0.8684101030772265
 10
714.493551060328
 20
1355.557565472458
 30
0.0
 41
1.000000062746968
 10
718.3749410309664
 20
1361.450600278287
 30
0.0
 41
0.8684101030772265
 10
725.422804389004
 20
1361.103225245674
 30
0.0
 41
1.000000062746968
 10
727.7039643184416
 20
1360.990791453387
 30
0.0
 41
0.8684101030774786
 10
728.9602416924122
 20
1362.898171630742
 30
0.0
 41
1.000000062746968
 10
730.2165190663826
 20
1364.805551808099
 30
0.0
 41
0.8684101030774786
 10
729.2124204265425
 20
1366.856921570668
 30
0.0
 41
1.000000062746968
 10
725.8229771136357
 20
1373.781541571278
 30
0.0
 41
1.000000062746968
 10
720.38328962384
 20
1384.894802750608
 30
0.0
 41
1.000000062746968
  0
SPLINE
  5
13A
330
1F
100
AcDbEntity
  8
Default
100
AcDbSpline
210
0.0
220
0.0
230
1.0
 70
     8
 71
     3
 72
    15
 73
    11
 74
     0
 42
0.000000001
 43
0.0000000001
 40
308.081006177501
 40
308.081006177501
 40
308.081006177501
 40
308.081006177501
 40
367.6721169330876
 40
452.3055436177316
 40
514.3242512540963
 40
544.110778406798
 40
585.7586719917466
 40
619.8045010000915
 40
645.4541582946529
 40
658.3495718796124
 40
658.3495718796124
 40
658.3495718796124
 40
658.3495718796124
 10
72.24050638256747
 20
1336.881718880031
 30
0.0
 10
53.89454282834082
 20
1344.463100538432
 30
0.0
 10
10.86385257721422
 20
1366.609898650302
 30
0.0
 10
-46.75532763953409
 20
1405.344569640027
 30
0.0
 10
-82.04309495192233
 20
1454.388977246672
 30
0.0
 10
-95.77527290186309
 20
1496.871895512257
 30
0.0
 10
-96.71723405184433
 20
1533.411720592134
 30
0.0
 10
-79.75545839973545
 20
1564.28387773389
 30
0.0
 10
-59.58140017648383
 20
1578.932983812812
 30
0.0
 10
-47.12932633663785
 20
1582.544585199642
 30
0.0
 10
-41.84283403186798
 20
1583.516096441778
 30
0.0
  0
SPLINE
  5
13B
330
1F
100
AcDbEntity
  8
Default
100
AcDbSpline
210
0.0
220
0.0
230
1.0
 70
    12
 71
     3
 72
    25
 73
    21
 74
     0
 42
0.000000001
 43
0.0000000001
 40
591.1274219044244
 40
591.1274219044244
 40
591.1274219044244
 40
591.1274219044244
 40
630.8630664643847
 40
694.9245921087426
 40
758.9861024796425
 40
758.9861024796425
 40
760.365866518992
 40
761.3658665810259
 40
762.36586664306
 40
763.3658667050943
 40
764.3658667671282
 40
765.3658668291623
 40
766.3658668911962
 40
767.2219340175297
 40
767.2219340175297
 40
767.2219340175297
 40
769.7045768256504
 40
769.7045768256504
 40
769.7045768256504
 40
772.1872196337714
 40
772.1872196337714
 40
772.1872196337714
 40
772.1872196337714
 10
226.9794412577934
 20
1658.260287157419
 30
0.0
 41
1.0
 10
240.1859964101163
 20
1658.126051135614
 30
0.0
 41
1.0
 10
278.375376461443
 20
1663.65601443164
 30
0.0
 41
1.0
 10
321.6043483179329
 20
1676.908675995004
 30
0.0
 41
1.0
 10
374.6003753402674
 20
1700.597298611501
 30
0.0
 41
1.0
 10
405.6934700350436
 20
1717.160360997221
 30
0.0
 41
1.0
 10
427.7854792242384
 20
1729.359785804862
 30
0.0
 41
1.0
 10
456.0199193572705
 20
1744.03950391752
 30
0.0
 41
1.0
 10
485.0452664623522
 20
1757.10155461413
 30
0.0
 41
1.0
 10
515.0483276986082
 20
1767.830034020274
 30
0.0
 41
1.0
 10
545.7005703188261
 20
1776.116903999103
 30
0.0
 41
1.0
 10
577.6499380308285
 20
1780.679222837812
 30
0.0
 41
1.0
 10
607.2501010844935
 20
1772.725203928167
 30
0.0
 41
1.0
 10
621.4195349237323
 20
1755.58266129223
 30
0.0
 41
1.0
 10
620.3193070160399
 20
1746.633412100833
 30
0.0
 41
1.0
 10
620.2125717345032
 20
1745.7652278267
 30
0.0
 41
0.8966645963571547
 10
619.658100797329
 20
1745.088693766943
 30
0.0
 41
0.8966645963571547
 10
618.827783638817
 20
1744.813539681999
 30
0.0
 41
1.0
 10
617.9974664803067
 20
1744.538385597053
 30
0.0
 41
0.8966645963571547
 10
617.148706576638
 20
1744.749910962213
 30
0.0
 41
0.8966645963571547
 10
616.5446247695384
 20
1745.382541600508
 30
0.0
 41
1.0
  0
SPLINE
  5
13C
330
1F
100
AcDbEntity
  8
Default
100
AcDbSpline
210
0.0
220
0.0
230
1.0
 70
     8
 71
     3
 72
    16
 73
    12
 74
     0
 42
0.000000001
 43
0.0000000001
 40
772.1872196337714
 40
772.1872196337714
 40
772.1872196337714
 40
772.1872196337714
 40
778.6518523584148
 40
791.555341921558
 40
806.0013838602182
 40
819.9936773826284
 40
834.6824305996787
 40
849.57595770956
 40
866.0647405780152
 40
875.259508195456
 40
876.1612976603178
 40
876.1612976603178
 40
876.1612976603178
 40
876.1612976603178
 10
616.5446247695384
 20
1745.382541600508
 30
0.0
 10
615.0086038046531
 20
1746.893877750462
 30
0.0
 10
609.7637547380082
 20
1750.875712758479
 30
0.0
 10
597.9650306785534
 20
1752.553200190036
 30
0.0
 10
584.3880459701824
 20
1747.551719069141
 30
0.0
 10
575.3330561603988
 20
1735.589025579799
 30
0.0
 10
572.1634926050326
 20
1720.961414403992
 30
0.0
 10
575.6963808321539
 20
1705.536930961456
 30
0.0
 10
584.3378948712494
 20
1694.451018640423
 30
0.0
 10
591.954556673037
 20
1689.799188074808
 30
0.0
 10
595.0330414585911
 20
1688.400674204534
 30
0.0
 10
595.3093990834514
 20
1688.278712197641
 30
0.0
  0
ARC
  5
13D
330
1F
100
AcDbEntity
  8
Default
100
AcDbCircle
 10
594.4211496724956
 20
1686.265999355745
 30
0.0
 40
2.199999999999583
100
AcDbArc
 50
350.0576947310228
 51
66.18719736837885
  0
SPLINE
  5
13E
330
1F
100
AcDbEntity
  8
Default
100
AcDbSpline
210
0.0
220
0.0
230
1.0
 70
     8
 71
     3
 72
     8
 73
     4
 74
     0
 42
0.000000001
 43
0.0000000001
 40
520.8648681686725
 40
520.8648681686725
 40
520.8648681686725
 40
520.8648681686725
 40
577.8843621200151
 40
577.8843621200151
 40
577.8843621200151
 40
577.8843621200151
 10
278.649553341286
 20
1629.702090031654
 30
0.0
 10
259.8008431259132
 20
1633.184567547278
 30
0.0
 10
241.3470329147102
 20
1639.617454415315
 30
0.0
 10
224.5177070651556
 20
1648.880192692585
 30
0.0
  0
ARC
  5
13F
330
1F
100
AcDbEntity
  8
Default
100
AcDbCircle
 10
226.9286218155861
 20
1653.26054542566
 30
0.0
 40
4.999999999999958
100
AcDbArc
 50
89.4176420618572
 51
241.1719287590769
  0
ARC
  5
140
330
1F
100
AcDbEntity
  8
Default
100
AcDbCircle
 10
594.4211496724952
 20
1686.265999355745
 30
0.0
 40
2.2
100
AcDbArc
 50
273.9281920936809
 51
350.0576947310243
  0
SPLINE
  5
141
330
1F
100
AcDbEntity
  8
Default
100
AcDbSpline
210
0.0
220
0.0
230
1.0
 70
     8
 71
     3
 72
     8
 73
     4
 74
     0
 42
0.000000001
 43
0.0000000001
 40
315.2060722010337
 40
315.2060722010337
 40
315.2060722010337
 40
315.2060722010337
 40
316.0398769033118
 40
316.0398769033118
 40
316.0398769033118
 40
316.0398769033118
 10
594.5718632857237
 20
1684.071167834468
 30
0.0
 10
555.5141684653898
 20
1681.38917323279
 30
0.0
 10
517.1784039104664
 20
1672.170072458741
 30
0.0
 10
479.5047055411283
 20
1661.774188587738
 30
0.0
  0
SPLINE
  5
142
330
1F
100
AcDbEntity
  8
Default
100
AcDbSpline
210
0.0
220
0.0
230
1.0
 70
     8
 71
     3
 72
     9
 73
     5
 74
     0
 42
0.000000001
 43
0.0000000001
 40
316.0398769033118
 40
316.0398769033118
 40
316.0398769033118
 40
316.0398769033118
 40
418.5319203549166
 40
511.4283680840996
 40
511.4283680840996
 40
511.4283680840996
 40
511.4283680840996
 10
479.5047055411283
 20
1661.774188587738
 30
0.0
 10
446.7202359224822
 20
1652.1034429792
 30
0.0
 10
384.9317339031216
 20
1632.08591019469
 30
0.0
 10
318.9011835380197
 20
1624.138640005741
 30
0.0
 10
288.0345884237847
 20
1628.216052858773
 30
0.0
  0
SPLINE
  5
143
330
1F
100
AcDbEntity
  8
Default
100
AcDbSpline
210
0.0
220
0.0
230
1.0
 70
     8
 71
     3
 72
     9
 73
     5
 74
     0
 42
0.000000001
 43
0.0000000001
 40
511.4283680840996
 40
511.4283680840996
 40
511.4283680840996
 40
511.4283680840996
 40
511.8946843052616
 40
520.8648681686725
 40
520.8648681686725
 40
520.8648681686725
 40
520.8648681686725
 10
288.0345884237847
 20
1628.216052858773
 30
0.0
 10
287.8796460729665
 20
1628.236520420237
 30
0.0
 10
284.7444599867553
 20
1628.654713282143
 30
0.0
 10
281.6147917975291
 20
1629.154234176567
 30
0.0
 10
278.649553341286
 20
1629.702090031654
 30
0.0
  0
ARC
  5
144
330
1F
100
AcDbEntity
  8
Default
100
AcDbCircle
 10
242.9103687458781
 20
1494.49965985839
 30
0.0
 40
2.3
100
AcDbArc
 50
89.81196830358829
 51
190.0122967651224
  0
SPLINE
  5
145
330
1F
100
AcDbEntity
  8
Default
100
AcDbSpline
210
0.0
220
0.0
230
1.0
 70
     8
 71
     3
 72
     8
 73
     4
 74
     0
 42
0.000000001
 43
0.0000000001
 40
1505.088698312641
 40
1505.088698312641
 40
1505.088698312641
 40
1505.088698312641
 40
1546.798962559832
 40
1546.798962559832
 40
1546.798962559832
 40
1546.798962559832
 10
242.9179168083903
 20
1496.799647472869
 30
0.0
 10
256.8030842299622
 20
1496.754079813656
 30
0.0
 10
270.7481474213974
 20
1497.674721708761
 30
0.0
 10
284.6965682339458
 20
1499.213052786803
 30
0.0
  0
ARC
  5
146
330
1F
100
AcDbEntity
  8
Default
100
AcDbCircle
 10
178.5338206397709
 20
1312.664445048592
 30
0.0
 40
2.3
100
AcDbArc
 50
102.2002693386567
 51
181.8281573637113
  0
SPLINE
  5
147
330
1F
100
AcDbEntity
  8
Default
100
AcDbSpline
210
0.0
220
0.0
230
1.0
 70
     8
 71
     3
 72
    12
 73
     8
 74
     0
 42
0.000000001
 43
0.0000000001
 40
1285.785527337845
 40
1285.785527337845
 40
1285.785527337845
 40
1285.785527337845
 40
1311.318296092179
 40
1341.424454290187
 40
1385.823411296702
 40
1440.114000877921
 40
1500.686152065553
 40
1500.686152065553
 40
1500.686152065553
 40
1500.686152065553
 10
178.0477630401604
 20
1314.912499320593
 30
0.0
 10
188.5469544315718
 20
1317.182556511442
 30
0.0
 10
210.39722947673
 20
1326.640925885154
 30
0.0
 10
240.7558926290514
 20
1357.096427453463
 30
0.0
 10
255.8856792869602
 20
1412.324304941885
 30
0.0
 10
253.5446959051849
 20
1447.671758710149
 30
0.0
 10
246.6240557642969
 20
1477.108227270147
 30
0.0
 10
240.7420885862713
 20
1493.732482467264
 30
0.0
  0
ARC
  5
148
330
1F
100
AcDbEntity
  8
Default
100
AcDbCircle
 10
242.9103687458781
 20
1494.49965985839
 30
0.0
 40
2.3
100
AcDbArc
 50
190.0122967651224
 51
199.4847157250262
  0
ARC
  5
149
330
1F
100
AcDbEntity
  8
Default
100
AcDbCircle
 10
451.1584057869429
 20
1312.318051374948
 30
0.0
 40
2.3
100
AcDbArc
 50
278.044078626381
 51
359.0803693287871
  0
SPLINE
  5
14A
330
1F
100
AcDbEntity
  8
Default
100
AcDbSpline
210
0.0
220
0.0
230
1.0
 70
     8
 71
     3
 72
    10
 73
     6
 74
     0
 42
0.000000001
 43
0.0000000001
 40
1005.12946107688
 40
1005.12946107688
 40
1005.12946107688
 40
1005.12946107688
 40
1079.173277352208
 40
1175.467003319126
 40
1279.392590754591
 40
1279.392590754591
 40
1279.392590754591
 40
1279.392590754591
 10
451.4802560337556
 20
1310.040681747806
 30
0.0
 10
427.0381759572722
 20
1306.586394590785
 30
0.0
 10
370.5657560050192
 20
1300.406678398693
 30
0.0
 10
278.8983063237729
 20
1297.598635146616
 30
0.0
 10
212.5680446940024
 20
1305.225489642905
 30
0.0
 10
178.1921140241726
 20
1310.389970034692
 30
0.0
  0
ARC
  5
14B
330
1F
100
AcDbEntity
  8
Default
100
AcDbCircle
 10
178.5338206397709
 20
1312.664445048592
 30
0.0
 40
2.3
100
AcDbArc
 50
181.8281573637113
 51
261.4560453887494
  0
SPLINE
  5
14C
330
1F
100
AcDbEntity
  8
Default
100
AcDbSpline
210
0.0
220
0.0
230
1.0
 70
     8
 71
     3
 72
     9
 73
     5
 74
     0
 42
0.000000001
 43
0.0000000001
 40
834.2962366412908
 40
834.2962366412908
 40
834.2962366412908
 40
834.2962366412908
 40
835.036479355386
 40
836.0364794722749
 40
836.0364794722749
 40
836.0364794722749
 40
836.0364794722749
 10
413.825710845617
 20
1498.918402290674
 30
0.0
 10
453.1736457320621
 20
1485.018523027865
 30
0.0
 10
498.9412074042786
 20
1451.617521125822
 30
0.0
 10
508.4374733889589
 20
1395.159508249295
 30
0.0
 10
487.3219079105266
 20
1375.202409742176
 30
0.0
  0
SPLINE
  5
14D
330
1F
100
AcDbEntity
  8
Default
100
AcDbSpline
210
0.0
220
0.0
230
1.0
 70
     8
 71
     3
 72
    12
 73
     8
 74
     0
 42
0.000000001
 43
0.0000000001
 40
836.0364794722749
 40
836.0364794722749
 40
836.0364794722749
 40
836.0364794722749
 40
837.4976833034938
 40
838.7510927573427
 40
839.957267775149
 40
841.0809097918461
 40
842.1225207595971
 40
842.1225207595971
 40
842.1225207595971
 40
842.1225207595971
 10
487.3219079105266
 20
1375.202409742176
 30
0.0
 10
486.8087466674946
 20
1374.859572182459
 30
0.0
 10
485.816170115377
 20
1374.29712765498
 30
0.0
 10
484.0973565397753
 20
1374.144733800078
 30
0.0
 10
482.7259703706153
 20
1374.943852683967
 30
0.0
 10
481.9917915494537
 20
1376.22092532537
 30
0.0
 10
481.9911499907821
 20
1377.164360898341
 30
0.0
 10
482.0750908954982
 20
1377.591826361917
 30
0.0
  0
SPLINE
  5
14E
330
1F
100
AcDbEntity
  8
Default
100
AcDbSpline
210
0.0
220
0.0
230
1.0
 70
     8
 71
     3
 72
    18
 73
    14
 74
     0
 42
0.000000001
 43
0.0000000001
 40
842.1225207595971
 40
842.1225207595971
 40
842.1225207595971
 40
842.1225207595971
 40
848.6665734167935
 40
858.0943994920806
 40
870.5680300370191
 40
883.2966516419427
 40
894.1762486222387
 40
910.9054594310351
 40
927.2478443726462
 40
942.0445048461127
 40
963.8494329354111
 40
982.8658810704858
 40
998.7925817936157
 40
998.7925817936157
 40
998.7925817936157
 40
998.7925817936157
 10
482.0750908954982
 20
1377.591826361917
 30
0.0
 10
482.6003615147287
 20
1380.277843572657
 30
0.0
 10
482.9827984773029
 20
1387.09020053174
 30
0.0
 10
478.5628878643351
 20
1398.527984964499
 30
0.0
 10
468.0275941318708
 20
1409.237227554327
 30
0.0
 10
453.0019170877823
 20
1413.856934159459
 30
0.0
 10
435.9532402077342
 20
1411.813300016277
 30
0.0
 10
419.3643874556196
 20
1402.170200760081
 30
0.0
 10
408.4007559152772
 20
1384.596679779827
 30
0.0
 10
405.2744243486517
 20
1361.965995430277
 30
0.0
 10
414.7659126135261
 20
1339.55420836477
 30
0.0
 10
431.3899971316076
 20
1321.853766400214
 30
0.0
 10
445.2040230334726
 20
1316.184725419089
 30
0.0
 10
451.7185879563135
 20
1314.548790251894
 30
0.0
  0
ARC
  5
14F
330
1F
100
AcDbEntity
  8
Default
100
AcDbCircle
 10
451.1584057869429
 20
1312.318051374948
 30
0.0
 40
2.3
100
AcDbArc
 50
359.0803693287871
 51
75.90339958939349
  0
SPLINE
  5
150
330
1F
100
AcDbEntity
  8
Default
100
AcDbSpline
210
0.0
220
0.0
230
1.0
 70
     8
 71
     3
 72
     9
 73
     5
 74
     0
 42
0.000000001
 43
0.0000000001
 40
710.7624830875567
 40
710.7624830875567
 40
710.7624830875567
 40
710.7624830875567
 40
772.5293598644237
 40
834.2962366412908
 40
834.2962366412908
 40
834.2962366412908
 40
834.2962366412908
 10
284.6965682339458
 20
1499.213052786803
 30
0.0
 10
311.9856125845181
 20
1502.041637086809
 30
0.0
 10
366.8779749506943
 20
1512.248378164996
 30
0.0
 10
400.8485251359882
 20
1503.262431716847
 30
0.0
 10
413.8257108456174
 20
1498.918402290676
 30
0.0
  0
SPLINE
  5
151
330
1F
100
AcDbEntity
  8
Default
100
AcDbSpline
210
0.0
220
0.0
230
1.0
 70
     8
 71
     3
 72
    10
 73
     6
 74
     0
 42
0.000000001
 43
0.0000000001
 40
681.5289336348083
 40
681.5289336348083
 40
681.5289336348083
 40
681.5289336348083
 40
752.218331290069
 40
839.4061226146916
 40
900.3565605032835
 40
900.3565605032835
 40
900.3565605032835
 40
900.3565605032835
 10
720.3832896238401
 20
1384.894802750608
 30
0.0
 10
698.7281895478811
 20
1375.606215325616
 30
0.0
 10
649.6559086883017
 20
1356.493526942852
 30
0.0
 10
579.9015207651007
 20
1334.84093955584
 30
0.0
 10
531.6811523956181
 20
1324.032053326771
 30
0.0
 10
511.7312915373488
 20
1320.141849594622
 30
0.0
  0
ARC
  5
152
330
1F
100
AcDbEntity
  8
Default
100
AcDbCircle
 10
511.291085005098
 20
1322.399330094862
 30
0.0
 40
2.3
100
AcDbArc
 50
201.4769439417389
 51
281.0341560602937
  0
SPLINE
  5
153
330
1F
100
AcDbEntity
  8
Default
100
AcDbSpline
210
0.0
220
0.0
230
1.0
 70
     8
 71
     3
 72
    11
 73
     7
 74
     0
 42
0.000000001
 43
0.0000000001
 40
450.88035364915
 40
450.88035364915
 40
450.88035364915
 40
450.88035364915
 40
510.5729064939903
 40
570.3914952681614
 40
621.5694960502492
 40
662.0758120914693
 40
662.0758120914693
 40
662.0758120914693
 40
662.0758120914693
 10
669.501301567802
 20
1591.390880068816
 30
0.0
 10
689.0311484054974
 20
1587.221746420348
 30
0.0
 10
727.2696018394363
 20
1568.1113565265
 30
0.0
 10
752.662477241366
 20
1512.666487667479
 30
0.0
 10
743.3739723690551
 20
1458.913008550165
 30
0.0
 10
718.4111571125287
 20
1438.174239281162
 30
0.0
 10
706.5236338582565
 20
1431.771611720339
 30
0.0
  0
ARC
  5
154
330
1F
100
AcDbEntity
  8
Default
100
AcDbCircle
 10
706.1637017596292
 20
1433.941968576797
 30
0.0
 40
2.199999999999106
100
AcDbArc
 50
126.9204741696162
 51
279.4162346704234
  0
SPLINE
  5
155
330
1F
100
AcDbEntity
  8
Default
100
AcDbSpline
210
0.0
220
0.0
230
1.0
 70
    12
 71
     3
 72
    15
 73
    11
 74
     0
 42
0.000000001
 43
0.0000000001
 40
667.9312289468266
 40
667.9312289468266
 40
667.9312289468266
 40
667.9312289468266
 40
668.5573844534315
 40
669.5573844816467
 40
670.557384509862
 40
671.5573845380773
 40
672.5573845662925
 40
673.5573845945087
 40
674.5573846227239
 40
675.334317215687
 40
675.334317215687
 40
675.334317215687
 40
675.334317215687
 10
704.8421486748272
 20
1435.700802691785
 30
0.0
 41
1.0
 10
709.9072602600504
 20
1439.506630817818
 30
0.0
 41
1.0
 10
718.456045824129
 20
1455.999453312978
 30
0.0
 41
1.0
 10
702.0293737149167
 20
1482.772379493486
 30
0.0
 41
1.0
 10
667.5435687801859
 20
1483.59683863286
 30
0.0
 41
1.0
 10
645.515791303553
 20
1458.440484772003
 30
0.0
 41
1.0
 10
646.1552374694351
 20
1425.751855190777
 30
0.0
 41
1.0
 10
664.7418338799595
 20
1399.640673019173
 30
0.0
 41
1.0
 10
691.5956545186463
 20
1387.263401852398
 30
0.0
 41
1.0
 10
710.8659734515479
 20
1387.578181831736
 30
0.0
 41
1.0
 10
718.9508547203543
 20
1388.99342863718
 30
0.0
 41
1.0
  0
SPLINE
  5
156
330
1F
100
AcDbEntity
  8
Default
100
AcDbSpline
210
0.0
220
0.0
230
1.0
 70
    12
 71
     3
 72
    11
 73
     7
 74
     0
 42
0.000000001
 43
0.0000000001
 40
675.334317215687
 40
675.334317215687
 40
675.334317215687
 40
675.334317215687
 40
678.4316254252476
 40
678.4316254252476
 40
678.4316254252476
 40
681.5289336348083
 40
681.5289336348083
 40
681.5289336348083
 40
681.5289336348083
 10
718.9508547203543
 20
1388.99342863718
 30
0.0
 41
1.0
 10
720.0619678485314
 20
1389.187927387717
 30
0.0
 41
0.8415347516602675
 10
721.0348554924957
 20
1388.617058068355
 30
0.0
 41
0.8415347516602675
 10
721.4070110059251
 20
1387.55220952448
 30
0.0
 41
1.0
 10
721.7791665193542
 20
1386.487360980605
 30
0.0
 41
0.8415347516602675
 10
721.3736687546791
 20
1385.434757679067
 30
0.0
 41
0.8415347516602675
 10
720.3832896238401
 20
1384.894802750608
 30
0.0
 41
1.0
  0
ARC
  5
157
330
1F
100
AcDbEntity
  8
Default
100
AcDbCircle
 10
485.8651707947647
 20
1543.584624165889
 30
0.0
 40
2.3
100
AcDbArc
 50
110.690832886682
 51
226.0690411539605
  0
SPLINE
  5
158
330
1F
100
AcDbEntity
  8
Default
100
AcDbSpline
210
0.0
220
0.0
230
1.0
 70
     8
 71
     3
 72
     9
 73
     5
 74
     0
 42
0.000000001
 43
0.0000000001
 40
260.0118841552343
 40
260.0118841552343
 40
260.0118841552343
 40
260.0118841552343
 40
334.6289835546229
 40
450.88035364915
 40
450.88035364915
 40
450.88035364915
 40
450.88035364915
 10
485.0525228999417
 20
1545.736275485002
 30
0.0
 10
508.0877271031989
 20
1554.436342283185
 30
0.0
 10
566.3371303081013
 20
1579.363923433971
 30
0.0
 10
631.466884468574
 20
1599.510276469928
 30
0.0
 10
669.501301567802
 20
1591.390880068816
 30
0.0
  0
ARC
  5
159
330
1F
100
AcDbEntity
  8
Default
100
AcDbCircle
 10
511.291085005098
 20
1322.399330094862
 30
0.0
 40
2.3
100
AcDbArc
 50
121.9197318231873
 51
201.4769439417389
  0
SPLINE
  5
15A
330
1F
100
AcDbEntity
  8
Default
100
AcDbSpline
210
0.0
220
0.0
230
1.0
 70
     8
 71
     3
 72
    12
 73
     8
 74
     0
 42
0.000000001
 43
0.0000000001
 40
0.0
 40
0.0
 40
0.0
 40
0.0
 40
24.63781913519315
 40
54.7439780256862
 40
99.14293605344176
 40
153.4335268834218
 40
255.3803060308081
 40
255.3803060308081
 40
255.3803060308081
 40
255.3803060308081
 10
510.0750044486101
 20
1324.351546291939
 30
0.0
 10
518.8717561943245
 20
1329.831247223683
 30
0.0
 10
536.0766483286694
 20
1345.694454606944
 30
0.0
 10
554.746231512442
 20
1384.004957224913
 30
0.0
 10
551.1433678020487
 20
1441.154307783553
 30
0.0
 10
533.909130831552
 20
1482.320226568381
 30
0.0
 10
508.9650265536448
 20
1518.137421080994
 30
0.0
 10
484.2694513449169
 20
1541.928218588328
 30
0.0
  0
ARC
  5
15B
330
1F
100
AcDbEntity
  8
Default
100
AcDbCircle
 10
117.3490839133225
 20
1324.352810273854
 30
0.0
 40
2.3
100
AcDbArc
 50
255.7151419662019
 51
335.2860112252154
  0
SPLINE
  5
15C
330
1F
100
AcDbEntity
  8
Default
100
AcDbSpline
210
0.0
220
0.0
230
1.0
 70
     8
 71
     3
 72
     9
 73
     5
 74
     0
 42
0.000000001
 43
0.0000000001
 40
261.0262013134459
 40
261.0262013134459
 40
261.0262013134459
 40
261.0262013134459
 40
283.1287864154961
 40
308.081006177501
 40
308.081006177501
 40
308.081006177501
 40
308.081006177501
 10
116.7815752079728
 20
1322.123924034193
 30
0.0
 10
109.6489394796845
 20
1323.940002858214
 30
0.0
 10
94.59616250958972
 20
1328.239608810131
 30
0.0
 10
79.92239900961307
 20
1333.707213507644
 30
0.0
 10
72.24050638256747
 20
1336.881718880031
 30
0.0
  0
SPLINE
  5
15D
330
1F
100
AcDbEntity
  8
Default
100
AcDbSpline
210
0.0
220
0.0
230
1.0
 70
     8
 71
     3
 72
     9
 73
     5
 74
     0
 42
0.000000001
 43
0.0000000001
 40
92.58306069034612
 40
92.58306069034612
 40
92.58306069034612
 40
92.58306069034612
 40
92.88177198651883
 40
93.88177187027324
 40
93.88177187027324
 40
93.88177187027324
 40
93.88177187027324
 10
185.494119223016
 20
1470.02034878186
 30
0.0
 10
191.2222737537946
 20
1461.383288846009
 30
0.0
 10
207.5327811024198
 20
1424.823426449638
 30
0.0
 10
200.5693835645584
 20
1382.669267788804
 30
0.0
 10
174.1219766495903
 20
1370.640632731137
 30
0.0
  0
SPLINE
  5
15E
330
1F
100
AcDbEntity
  8
Default
100
AcDbSpline
210
0.0
220
0.0
230
1.0
 70
     8
 71
     3
 72
    12
 73
     8
 74
     0
 42
0.000000001
 43
0.0000000001
 40
93.88177187027324
 40
93.88177187027324
 40
93.88177187027324
 40
93.88177187027324
 40
95.34297570149214
 40
96.59638515534108
 40
97.80256017314743
 40
98.9262021898445
 40
99.96781315759547
 40
99.96781315759547
 40
99.96781315759547
 40
99.96781315759547
 10
174.1219766495903
 20
1370.640632731137
 30
0.0
 10
173.5253547845644
 20
1370.482789758927
 30
0.0
 10
172.4040052548336
 20
1370.27272479165
 30
0.0
 10
170.7286977637785
 20
1370.686111783582
 30
0.0
 10
169.6906789806845
 20
1371.886864889551
 30
0.0
 10
169.4104491621559
 20
1373.333033732276
 30
0.0
 10
169.7158694949571
 20
1374.225664401845
 30
0.0
 10
169.9339308261223
 20
1374.602787795293
 30
0.0
  0
SPLINE
  5
15F
330
1F
100
AcDbEntity
  8
Default
100
AcDbSpline
210
0.0
220
0.0
230
1.0
 70
     8
 71
     3
 72
    18
 73
    14
 74
     0
 42
0.000000001
 43
0.0000000001
 40
99.96781315759547
 40
99.96781315759547
 40
99.96781315759547
 40
99.96781315759547
 40
106.5118656561833
 40
115.9396915029675
 40
128.4133217455818
 40
141.141943042001
 40
152.0215397586076
 40
168.7507501619369
 40
185.0931347074567
 40
199.8897948222956
 40
221.6947223831066
 40
240.7111700572785
 40
254.637842490124
 40
254.637842490124
 40
254.637842490124
 40
254.637842490124
 10
169.9339308261223
 20
1374.602787795293
 30
0.0
 10
171.3020769079706
 20
1376.973183116446
 30
0.0
 10
173.8735952811704
 20
1383.293132374518
 30
0.0
 10
173.4028108277009
 20
1395.546168102665
 30
0.0
 10
166.9109904221822
 20
1409.093734625829
 30
0.0
 10
154.1962935311873
 20
1418.337605174517
 30
0.0
 10
137.4065603244849
 20
1421.934643222581
 30
0.0
 10
118.5867090381923
 20
1418.193975306553
 30
0.0
 10
102.5154816576642
 20
1405.127012894454
 30
0.0
 10
92.21736050581356
 20
1384.73410913027
 30
0.0
 10
93.92579917754662
 20
1360.455357386064
 30
0.0
 10
103.5575456057246
 20
1339.099716442149
 30
0.0
 10
113.8689089133212
 20
1329.615342996328
 30
0.0
 10
118.6730117768704
 20
1326.233558798278
 30
0.0
  0
ARC
  5
160
330
1F
100
AcDbEntity
  8
Default
100
AcDbCircle
 10
117.3490839133225
 20
1324.352810273854
 30
0.0
 40
2.3
100
AcDbArc
 50
335.2860112252154
 51
54.85688048424726
  0
ARC
  5
161
330
1F
100
AcDbEntity
  8
Default
100
AcDbCircle
 10
49.00849575342922
 20
1588.579476170654
 30
0.0
 40
2.3
100
AcDbArc
 50
38.74427298097139
 51
115.6825294292657
  0
SPLINE
  5
162
330
1F
100
AcDbEntity
  8
Default
100
AcDbSpline
210
0.0
220
0.0
230
1.0
 70
     8
 71
     3
 72
     9
 73
     5
 74
     0
 42
0.000000001
 43
0.0000000001
 40
10.6973769849896
 40
10.6973769849896
 40
10.6973769849896
 40
10.6973769849896
 40
32.11786064485892
 40
91.93028849284457
 40
91.93028849284457
 40
91.93028849284457
 40
91.93028849284457
 10
50.80237395368471
 20
1590.018920856166
 30
0.0
 10
55.27249686210612
 20
1584.448122534606
 30
0.0
 10
73.09828424625941
 20
1563.973034998943
 30
0.0
 10
94.64968222603268
 20
1546.345189309194
 30
0.0
 10
111.8437907534536
 20
1535.380126008119
 30
0.0
  0
SPLINE
  5
163
330
1F
100
AcDbEntity
  8
Default
100
AcDbSpline
210
0.0
220
0.0
230
1.0
 70
     8
 71
     3
 72
     8
 73
     4
 74
     0
 42
0.000000001
 43
0.0000000001
 40
91.93028849284457
 40
91.93028849284457
 40
91.93028849284457
 40
91.93028849284457
 40
92.58306069034612
 40
92.58306069034612
 40
92.58306069034612
 40
92.58306069034612
 10
111.8437907534536
 20
1535.380126008119
 30
0.0
 10
151.0192349390155
 20
1508.858561408343
 30
0.0
 10
172.9764137709836
 20
1488.894869653738
 30
0.0
 10
185.494119223016
 20
1470.02034878186
 30
0.0
  0
ARC
  5
164
330
1F
100
AcDbEntity
  8
Default
100
AcDbCircle
 10
-41.45294022456646
 20
1581.249384545875
 30
0.0
 40
2.3
100
AcDbArc
 50
312.0937756834113
 51
99.75985659886143
  0
SPLINE
  5
165
330
1F
100
AcDbEntity
  8
Default
100
AcDbSpline
210
0.0
220
0.0
230
1.0
 70
    12
 71
     3
 72
    13
 73
     9
 74
     0
 42
0.000000001
 43
0.0000000001
 40
0.0
 40
0.0
 40
0.0
 40
0.0
 40
0.4857493190274909
 40
1.485749372862756
 40
2.485749426697794
 40
3.485749480533059
 40
4.485749534368097
 40
4.520377864463626
 40
4.520377864463626
 40
4.520377864463626
 40
4.520377864463626
 10
-39.91114440020395
 20
1579.542672608851
 30
0.0
 41
1.0
 10
-45.27622490130001
 20
1574.696007375694
 30
0.0
 41
1.0
 10
-56.98988515752218
 20
1553.988273848089
 30
0.0
 41
1.0
 10
-38.82824827964346
 20
1514.728532572969
 30
0.0
 41
1.0
 10
10.86303760115914
 20
1507.678019408964
 30
0.0
 41
1.0
 10
46.96687486765519
 20
1540.285945396914
 30
0.0
 41
1.0
 10
50.10688559653715
 20
1572.394496141523
 30
0.0
 41
1.0
 10
46.87749322049326
 20
1587.570366595373
 30
0.0
 41
1.0
 10
46.76406936708935
 20
1588.076932444893
 30
0.0
 41
1.0
  0
ARC
  5
166
330
1F
100
AcDbEntity
  8
Default
100
AcDbCircle
 10
49.00849575342922
 20
1588.579476170654
 30
0.0
 40
2.3
100
AcDbArc
 50
115.6825294292657
 51
192.620785877563
  0
SPLINE
  5
167
330
1F
100
AcDbEntity
  8
Default
100
AcDbSpline
210
0.0
220
0.0
230
1.0
 70
     8
 71
     3
 72
    25
 73
    21
 74
     0
 42
0.000000001
 43
0.0000000001
 40
17.68276211235462
 40
17.68276211235462
 40
17.68276211235462
 40
17.68276211235462
 40
60.595715560457
 40
112.0548830168635
 40
187.4041200996677
 40
264.9437626995473
 40
329.9561160937229
 40
389.6909013117016
 40
425.4587476337554
 40
468.5087798458056
 40
509.0552390692009
 40
536.4373108605926
 40
564.2162008181347
 40
595.2423214801966
 40
621.77402386734
 40
645.6203488311803
 40
671.3821620069954
 40
691.5831010450344
 40
709.1481432504228
 40
722.5209584349761
 40
722.5209584349761
 40
722.5209584349761
 40
722.5209584349761
 10
82.0807184028394
 20
1842.307416217624
 30
0.0
 10
74.32481174385539
 20
1854.326543400082
 30
0.0
 10
57.99983495716535
 20
1881.254278076301
 30
0.0
 10
32.73820694950356
 20
1931.921164448845
 30
0.0
 10
4.366580050241268
 20
1993.818263597316
 30
0.0
 10
-24.75244520976001
 20
2060.469552497997
 30
0.0
 10
-53.53722282044005
 20
2121.133565028158
 30
0.0
 10
-77.49024372330182
 20
2169.904914849837
 30
0.0
 10
-113.7699324043472
 20
2200.411783831392
 30
0.0
 10
-154.0134402205278
 20
2210.111978534995
 30
0.0
 10
-191.606229259997
 20
2201.643842459273
 30
0.0
 10
-217.1298819489346
 20
2181.404556084372
 30
0.0
 10
-232.3271711151024
 20
2156.142425363033
 30
0.0
 10
-233.878565330023
 20
2126.082272023694
 30
0.0
 10
-219.6116959310781
 20
2101.352372426086
 30
0.0
 10
-196.2576577674819
 20
2088.49966030371
 30
0.0
 10
-171.4992518731121
 20
2090.827375883563
 30
0.0
 10
-153.9416802747314
 20
2104.589256952763
 30
0.0
 10
-148.3682754828886
 20
2121.772634075779
 30
0.0
 10
-150.5235207779222
 20
2132.187406856487
 30
0.0
 10
-152.1743531591526
 20
2136.32806186168
 30
0.0
  0
ARC
  5
168
330
1F
100
AcDbEntity
  8
Default
100
AcDbCircle
 10
-149.4640025483358
 20
2137.544051257259
 30
0.0
 40
2.970627988105521
100
AcDbArc
 50
51.66746306597683
 51
204.1632235667755
  0
SPLINE
  5
169
330
1F
100
AcDbEntity
  8
Default
100
AcDbSpline
210
0.0
220
0.0
230
1.0
 70
     8
 71
     3
 72
    12
 73
     8
 74
     0
 42
0.000000001
 43
0.0000000001
 40
728.3763752903335
 40
728.3763752903335
 40
728.3763752903335
 40
728.3763752903335
 40
811.9385767731778
 40
877.1382870014005
 40
952.4928735163694
 40
1022.538163787382
 40
1103.672030253008
 40
1103.672030253008
 40
1103.672030253008
 40
1103.672030253008
 10
-147.6215460283257
 20
2139.874283995761
 30
0.0
 10
-136.9691949206712
 20
2114.13760835018
 30
0.0
 10
-119.8039570518567
 20
2067.506880746913
 30
0.0
 10
-100.6818838169571
 20
1995.25301679926
 30
0.0
 10
-83.95697485509963
 20
1927.086697690381
 30
0.0
 10
-64.94400324004202
 20
1853.984403549014
 30
0.0
 10
-49.24932580493446
 20
1806.062330307081
 30
0.0
 10
-40.26827755901685
 20
1780.549241302117
 30
0.0
  0
SPLINE
  5
16A
330
1F
100
AcDbEntity
  8
Default
100
AcDbSpline
210
0.0
220
0.0
230
1.0
 70
     8
 71
     3
 72
    10
 73
     6
 74
     0
 42
0.000000001
 43
0.0000000001
 40
-213.4651764143289
 40
-213.4651764143289
 40
-213.4651764143289
 40
-213.4651764143289
 40
-172.8296686548242
 40
-77.86995032750812
 40
17.08976799980707
 40
17.08976799980707
 40
17.08976799980707
 40
17.08976799980707
 10
223.0871115586616
 20
1748.76488852113
 30
0.0
 10
215.1654674845986
 20
1749.29208404655
 30
0.0
 10
190.2585023543934
 20
1752.997809541873
 30
0.0
 10
146.8039911325136
 20
1771.018152779857
 30
0.0
 10
120.2545749576626
 20
1793.247319307938
 30
0.0
 10
93.72967533561956
 20
1826.180271265267
 30
0.0
  0
SPLINE
  5
16B
330
1F
100
AcDbEntity
  8
Default
100
AcDbSpline
210
0.0
220
0.0
230
1.0
 70
    12
 71
     3
 72
     8
 73
     4
 74
     0
 42
0.000000001
 43
0.0000000001
 40
17.08976799980707
 40
17.08976799980707
 40
17.08976799980707
 40
17.08976799980707
 40
17.68276211235462
 40
17.68276211235462
 40
17.68276211235462
 40
17.68276211235462
 10
93.72967533561956
 20
1826.180271265267
 30
0.0
 41
1.0
 10
89.68433977168654
 20
1831.382971897922
 30
0.0
 41
1.0
 10
85.82654570333436
 20
1836.746813184077
 30
0.0
 41
1.0
 10
82.0807184028394
 20
1842.307416217624
 30
0.0
 41
1.0
  0
ARC
  5
16C
330
1F
100
AcDbEntity
  8
Default
100
AcDbCircle
 10
632.4056204528397
 20
1686.660531541342
 30
0.0
 40
2.200000000000843
100
AcDbArc
 50
113.8048317182936
 51
190.4248778078873
  0
SPLINE
  5
16D
330
1F
100
AcDbEntity
  8
Default
100
AcDbSpline
210
0.0
220
0.0
230
1.0
 70
    12
 71
     3
 72
    17
 73
    13
 74
     0
 42
0.000000001
 43
0.0000000001
 40
-469.3343844797027
 40
-469.3343844797027
 40
-469.3343844797027
 40
-469.3343844797027
 40
-464.1447063153564
 40
-464.1447063153564
 40
-464.1447063153564
 40
-463.3071749647624
 40
-462.3071747763515
 40
-461.3071745879424
 40
-460.3071743995324
 40
-459.3071742111242
 40
-458.3071740227132
 40
-457.7088036850272
 40
-457.7088036850272
 40
-457.7088036850272
 40
-457.7088036850272
 10
631.517651056436
 20
1688.67336793585
 30
0.0
 41
1.0
 10
632.9550223637304
 20
1689.307469049847
 30
0.0
 41
1.0
 10
634.3938763399372
 20
1690.012975637467
 30
0.0
 41
1.0
 10
635.8355228207032
 20
1690.789407514392
 30
0.0
 41
1.0
 10
644.6459185243641
 20
1695.816928749842
 30
0.0
 41
1.0
 10
660.5427441487764
 20
1712.734792711335
 30
0.0
 41
1.0
 10
667.4130632577292
 20
1747.947864937833
 30
0.0
 41
1.0
 10
654.7264533768167
 20
1783.236582962512
 30
0.0
 41
1.0
 10
627.3358317251115
 20
1809.042039513235
 30
0.0
 41
1.0
 10
591.4413831549995
 20
1818.467720114867
 30
0.0
 41
1.0
 10
559.7631274171711
 20
1816.814592669702
 30
0.0
 41
1.0
 10
540.5008984206896
 20
1814.441670182092
 30
0.0
 41
1.0
 10
533.331764566183
 20
1813.320510283248
 30
0.0
 41
1.0
  0
SPLINE
  5
16E
330
1F
100
AcDbEntity
  8
Default
100
AcDbSpline
210
0.0
220
0.0
230
1.0
 70
     8
 71
     3
 72
    10
 73
     6
 74
     0
 42
0.000000001
 43
0.0000000001
 40
-457.7088036850272
 40
-457.7088036850272
 40
-457.7088036850272
 40
-457.7088036850272
 40
-362.7490843124796
 40
-267.7893649399309
 40
-213.4651764143289
 40
-213.4651764143289
 40
-213.4651764143289
 40
-213.4651764143289
 10
533.331764566183
 20
1813.320510283248
 30
0.0
 10
491.6546586957472
 20
1807.180645804585
 30
0.0
 10
341.6434639056048
 20
1762.335115487384
 30
0.0
 10
265.0259563596695
 20
1748.988304610175
 30
0.0
 10
233.6772809153223
 20
1748.060100146019
 30
0.0
 10
223.0871115586616
 20
1748.76488852113
 30
0.0
  0
SPLINE
  5
16F
330
1F
100
AcDbEntity
  8
Default
100
AcDbSpline
210
0.0
220
0.0
230
1.0
 70
     8
 71
     3
 72
     8
 73
     4
 74
     0
 42
0.000000001
 43
0.0000000001
 40
-475.6370416385046
 40
-475.6370416385046
 40
-475.6370416385046
 40
-475.6370416385046
 40
-475.2183816197958
 40
-475.2183816197958
 40
-475.2183816197958
 40
-475.2183816197958
 10
690.5515860988279
 20
1674.748557328629
 30
0.0
 10
671.8243389996334
 20
1680.37737846328
 30
0.0
 10
652.0821262010037
 20
1683.441867657946
 30
0.0
 10
632.2922039741658
 20
1684.463456963099
 30
0.0
  0
ARC
  5
170
330
1F
100
AcDbEntity
  8
Default
100
AcDbCircle
 10
632.4056204528391
 20
1686.660531541343
 30
0.0
 40
2.199999999999644
100
AcDbArc
 50
190.4248778079165
 51
267.0449238975485
  0
SPLINE
  5
171
330
1F
100
AcDbEntity
  8
Default
100
AcDbSpline
210
0.0
220
0.0
230
1.0
 70
    12
 71
     2
 72
    24
 73
    21
 74
     0
 42
0.000000001
 43
0.0000000001
 40
524.7977745141749
 40
524.7977745141749
 40
524.7977745141749
 40
533.9304822668744
 40
533.9304822668744
 40
538.0809593795084
 40
538.0809593795084
 40
542.2314364921424
 40
542.2314364921424
 40
555.0547330757531
 40
555.0547330757531
 40
567.8780327166769
 40
567.8780327166769
 40
580.7013323576007
 40
580.7013323576007
 40
593.5246319985243
 40
593.5246319985243
 40
597.6751091111577
 40
597.6751091111577
 40
601.825586223791
 40
601.825586223791
 40
609.6218424297577
 40
609.6218424297577
 40
609.6218424297577
 10
509.1507855643132
 20
1321.557238470527
 30
0.0
 41
1.0
 10
500.5924295637602
 20
1320.131769493346
 30
0.0
 41
1.0
 10
495.143141925142
 20
1319.224143019744
 30
0.0
 41
1.0
 10
492.8902487539025
 20
1318.848903975659
 30
0.0
 41
0.8684100485876164
 10
492.0683207609777
 20
1316.717996573713
 30
0.0
 41
1.0
 10
491.2463927680546
 20
1314.587089171763
 30
0.0
 41
0.8684100485876164
 10
492.6637599286011
 20
1312.796166975397
 30
0.0
 41
1.0
 10
497.0428516163337
 20
1307.262938513284
 30
0.0
 41
0.8684101344507178
 10
494.5034265987397
 20
1300.679296620993
 30
0.0
 41
1.000000062746968
 10
491.9640008839585
 20
1294.095652921192
 30
0.0
 41
0.8684101030772265
 10
485.003470398386
 20
1292.936315745775
 30
0.0
 41
1.000000062746968
 10
478.0429399128165
 20
1291.77697857036
 30
0.0
 41
0.8684101030772265
 10
473.506679778007
 20
1297.182104962612
 30
0.0
 41
1.000000062746968
 10
468.9704196431998
 20
1302.587231354863
 30
0.0
 41
0.8684101030772265
 10
471.3196418797114
 20
1309.24111760354
 30
0.0
 41
1.000000062746968
 10
472.0800073066544
 20
1311.394760192
 30
0.0
 41
0.8684101030774786
 10
470.6117701511718
 20
1313.144220576399
 30
0.0
 41
1.000000062746968
 10
469.1435329956907
 20
1314.893680960798
 30
0.0
 41
0.8684101030774786
 10
466.8906398244284
 20
1314.518441916722
 30
0.0
 41
1.000000062746968
 10
462.0541252598412
 20
1313.712878153186
 30
0.0
 41
1.000000062746968
 10
453.4581095289022
 20
1312.281136618833
 30
0.0
 41
1.000000039737271
  0
SPLINE
  5
172
330
1F
100
AcDbEntity
  8
Default
100
AcDbSpline
210
0.0
220
0.0
230
1.0
 70
    12
 71
     2
 72
    24
 73
    21
 74
     0
 42
0.000000001
 43
0.0000000001
 40
525.696617065979
 40
525.696617065979
 40
525.696617065979
 40
533.9304822668744
 40
533.9304822668744
 40
538.0809593795084
 40
538.0809593795084
 40
542.2314364921424
 40
542.2314364921424
 40
555.0547330757531
 40
555.0547330757531
 40
567.8780327166769
 40
567.8780327166769
 40
580.7013323576007
 40
580.7013323576007
 40
593.5246319985243
 40
593.5246319985243
 40
597.6751091111577
 40
597.6751091111577
 40
601.825586223791
 40
601.825586223791
 40
610.9274806725822
 40
610.9274806725822
 40
610.9274806725822
 10
176.2349913323944
 20
1312.591070560198
 30
0.0
 41
1.0
 10
167.221649328007
 20
1314.304999895897
 30
0.0
 41
1.0
 10
162.328676815246
 20
1315.235421611203
 30
0.0
 41
1.0
 10
160.084952730812
 20
1315.662076289076
 30
0.0
 41
0.8684100485876164
 10
158.5770969976925
 20
1313.9466454192
 30
0.0
 41
1.0
 10
157.0692412645755
 20
1312.23121454932
 30
0.0
 41
0.8684100485876164
 10
157.7801635753245
 20
1310.060748827565
 30
0.0
 41
1.0
 10
159.9766252622431
 20
1303.354884432769
 30
0.0
 41
0.8684101344507178
 10
155.3179609941337
 20
1298.054896958922
 30
0.0
 41
1.000000062746968
 10
150.6592954470055
 20
1292.754908029985
 30
0.0
 41
0.8684101030772265
 10
143.7270937384345
 20
1294.073098759188
 30
0.0
 41
1.000000062746968
 10
136.7948920298639
 20
1295.391289488391
 30
0.0
 41
0.8684101030772265
 10
134.4066691771039
 20
1302.031277359796
 30
0.0
 41
1.000000062746968
 10
132.0184463243436
 20
1308.671265231202
 30
0.0
 41
0.8684101030772265
 10
136.5229143019879
 20
1314.102914664406
 30
0.0
 41
1.000000062746968
 10
137.9808613892157
 20
1315.860959678667
 30
0.0
 41
0.8684101030774786
 10
137.207872754572
 20
1318.010103822745
 30
0.0
 41
1.000000062746968
 10
136.4348841199281
 20
1320.159247966826
 30
0.0
 41
0.8684101030774786
 10
134.1911600354759
 20
1320.585902644714
 30
0.0
 41
1.000000062746968
 10
128.5676555855789
 20
1321.65523844063
 30
0.0
 41
1.000000062746968
 10
119.4384180080201
 20
1323.391205864163
 30
0.0
 41
1.000000041229102
  0
SPLINE
  5
173
330
1F
100
AcDbEntity
  8
Default
100
AcDbSpline
210
0.0
220
0.0
230
1.0
 70
    12
 71
     2
 72
    24
 73
    21
 74
     0
 42
0.000000001
 43
0.0000000001
 40
524.234859221339
 40
524.234859221339
 40
524.234859221339
 40
533.9304822668744
 40
533.9304822668744
 40
538.0809593795084
 40
538.0809593795084
 40
542.2314364921424
 40
542.2314364921424
 40
555.0547330757531
 40
555.0547330757531
 40
567.8780327166769
 40
567.8780327166769
 40
580.7013323576007
 40
580.7013323576007
 40
593.5246319985243
 40
593.5246319985243
 40
597.6751091111577
 40
597.6751091111577
 40
601.825586223791
 40
601.825586223791
 40
609.613786247573
 40
609.613786247573
 40
609.613786247573
 10
185.4941192230165
 20
1470.020348781859
 30
0.0
 41
1.0
 10
196.1097518775572
 20
1474.655208376531
 30
0.0
 41
1.0
 10
201.4846505965706
 20
1477.001926816109
 30
0.0
 41
1.0
 10
203.5777747502543
 20
1477.915799486945
 30
0.0
 41
0.8684100485876164
 10
203.8546271841047
 20
1480.182886761644
 30
0.0
 41
1.0
 10
204.1314796179569
 20
1482.449974036342
 30
0.0
 41
0.8684100485876164
 10
202.3197881586201
 20
1483.840695445325
 30
0.0
 41
1.0
 10
196.7223931000943
 20
1488.137465136885
 30
0.0
 41
0.8684101344507178
 10
197.5777551303017
 20
1495.141847749445
 30
0.0
 41
1.000000062746968
 10
198.4331173953465
 20
1502.146232285034
 30
0.0
 41
0.8684101030772265
 10
204.9000261097894
 20
1504.969729939703
 30
0.0
 41
1.000000062746968
 10
211.3669348242323
 20
1507.793227594375
 30
0.0
 41
0.8684101030772265
 10
217.0854701344149
 20
1503.659052799683
 30
0.0
 41
1.000000062746968
 10
222.8040054445961
 20
1499.524878004991
 30
0.0
 41
0.8684101030772265
 10
222.1502397741401
 20
1492.498809561329
 30
0.0
 41
1.000000062746968
 10
221.9386374806607
 20
1490.224703923789
 30
0.0
 41
0.8684101030774786
 10
223.7895379510548
 20
1488.886608475015
 30
0.0
 41
1.000000062746968
 10
225.6404384214473
 20
1487.548513026248
 30
0.0
 41
0.8684101030774786
 10
227.7335625751524
 20
1488.46238569708
 30
0.0
 41
1.000000062746968
 10
232.2224414287894
 20
1490.422261655594
 30
0.0
 41
1.000000062746968
 10
240.6453966829907
 20
1494.099782934428
 30
0.0
 41
1.000000040039816
  0
SPLINE
  5
174
330
1F
100
AcDbEntity
  8
Default
100
AcDbSpline
210
0.0
220
0.0
230
1.0
 70
    12
 71
     2
 72
    24
 73
    21
 74
     0
 42
0.000000001
 43
0.0000000001
 40
520.2713116492305
 40
520.2713116492305
 40
520.2713116492305
 40
533.9304822668744
 40
533.9304822668744
 40
538.0809593795084
 40
538.0809593795084
 40
542.2314364921424
 40
542.2314364921424
 40
555.0547330757531
 40
555.0547330757531
 40
567.8780327166769
 40
567.8780327166769
 40
580.7013323576007
 40
580.7013323576007
 40
593.5246319985243
 40
593.5246319985243
 40
597.6751091111577
 40
597.6751091111577
 40
601.825586223791
 40
601.825586223791
 40
614.6999869683884
 40
614.6999869683884
 40
614.6999869683884
 10
413.8257108456174
 20
1498.918402290676
 30
0.0
 41
1.0
 10
430.9058911785513
 20
1509.34680108444
 30
0.0
 41
1.0
 10
437.9577944776496
 20
1513.65237973904
 30
0.0
 41
1.0
 10
439.907111363689
 20
1514.842545970717
 30
0.0
 41
0.8684100485876164
 10
439.872927516863
 20
1517.126219206064
 30
0.0
 41
1.0
 10
439.8387436700358
 20
1519.409892441414
 30
0.0
 41
0.8684100485876164
 10
437.8546773978968
 20
1520.541180649164
 30
0.0
 41
1.0
 10
431.7247134856181
 20
1524.036406487028
 30
0.0
 41
0.8684101344507178
 10
431.6190992267439
 20
1531.092033008762
 30
0.0
 41
1.000000062746968
 10
431.5134849388712
 20
1538.147661467592
 30
0.0
 41
0.8684101030772265
 10
437.5360872462322
 20
1541.824794695293
 30
0.0
 41
1.000000062746968
 10
443.5586895535885
 20
1545.501927922997
 30
0.0
 41
0.8684101030772265
 10
449.7865443822112
 20
1542.18426736765
 30
0.0
 41
1.000000062746968
 10
456.01439921083
 20
1538.86660681231
 30
0.0
 41
0.8684101030772265
 10
456.3226856734508
 20
1531.816925487325
 30
0.0
 41
1.000000062746968
 10
456.4224677903276
 20
1529.535177142203
 30
0.0
 41
0.8684101030774786
 10
458.4382181191428
 20
1528.461360308097
 30
0.0
 41
1.000000062746968
 10
460.4539684479572
 20
1527.387543473995
 30
0.0
 41
0.8684101030774786
 10
462.4032853340202
 20
1528.577709705673
 30
0.0
 41
1.000000062746968
 10
469.3138775531632
 20
1532.797010096979
 30
0.0
 41
1.000000062746968
 10
484.2694513449169
 20
1541.928218588328
 30
0.0
 41
1.0
  0
SPLINE
  5
175
330
1F
100
AcDbEntity
  8
Default
100
AcDbSpline
210
0.0
220
0.0
230
1.0
 70
    12
 71
     2
 72
    24
 73
    21
 74
     0
 42
0.000000001
 43
0.0000000001
 40
505.5851355096646
 40
505.5851355096646
 40
505.5851355096646
 40
533.9304822668744
 40
533.9304822668744
 40
538.0809593795084
 40
538.0809593795084
 40
542.2314364921424
 40
542.2314364921424
 40
555.0547330757531
 40
555.0547330757531
 40
567.8780327166769
 40
567.8780327166769
 40
580.7013323576007
 40
580.7013323576007
 40
593.5246319985243
 40
593.5246319985243
 40
597.6751091111577
 40
597.6751091111577
 40
601.825586223791
 40
601.825586223791
 40
623.512925159427
 40
623.512925159427
 40
623.512925159427
 10
278.6495533412859
 20
1629.702090031656
 30
0.0
 41
1.0
 10
279.9569785293899
 20
1601.489053170936
 30
0.0
 41
1.0
 10
280.7506945495456
 20
1584.361389166147
 30
0.0
 41
1.0
 10
280.8564210356504
 20
1582.079908530382
 30
0.0
 41
0.8684100485876164
 10
282.8749621706621
 20
1581.0113470359
 30
0.0
 41
1.0
 10
284.8935033056748
 20
1579.942785541414
 30
0.0
 41
0.8684100485876164
 10
286.8397127999519
 20
1581.138026347957
 30
0.0
 41
1.0
 10
292.8527162332877
 20
1584.830837057186
 30
0.0
 41
0.8684101344507178
 10
299.0891918143589
 20
1581.52941428623
 30
0.0
 41
1.000000062746968
 10
305.3256691076314
 20
1578.227990608882
 30
0.0
 41
0.8684101030772265
 10
305.6523212716084
 20
1571.17913639769
 30
0.0
 41
1.000000062746968
 10
305.9789734355887
 20
1564.130282186499
 30
0.0
 41
0.8684101030772265
 10
300.0745524560098
 20
1560.266235056507
 30
0.0
 41
1.000000062746968
 10
294.1701314764344
 20
1556.402187926518
 30
0.0
 41
0.8684101030772265
 10
287.8413752972764
 20
1559.523068018995
 30
0.0
 41
1.000000062746968
 10
285.7929665433504
 20
1560.533193535038
 30
0.0
 41
0.8684101030774786
 10
283.881901038685
 20
1559.282529464152
 30
0.0
 41
1.000000062746968
 10
281.9708355340192
 20
1558.031865393272
 30
0.0
 41
0.8684101030774786
 10
282.0765620201126
 20
1555.750384757487
 30
0.0
 41
1.000000062746968
 10
282.7079493515158
 20
1542.12562502642
 30
0.0
 41
1.000000062746968
 10
284.6965682339455
 20
1499.213052786805
 30
0.0
 41
1.000000009772851
  0
SPLINE
  5
176
330
1F
100
AcDbEntity
  8
Default
100
AcDbSpline
210
0.0
220
0.0
230
1.0
 70
    12
 71
     2
 72
    24
 73
    21
 74
     0
 42
0.000000001
 43
0.0000000001
 40
507.9070832303668
 40
507.9070832303668
 40
507.9070832303668
 40
533.9304822668744
 40
533.9304822668744
 40
538.0809593795084
 40
538.0809593795084
 40
542.2314364921424
 40
542.2314364921424
 40
555.0547330757531
 40
555.0547330757531
 40
567.8780327166769
 40
567.8780327166769
 40
580.7013323576007
 40
580.7013323576007
 40
593.5246319985243
 40
593.5246319985243
 40
597.6751091111577
 40
597.6751091111577
 40
601.825586223791
 40
601.825586223791
 40
625.4942942817686
 40
625.4942942817686
 40
625.4942942817686
 10
82.0807184028394
 20
1842.307416217624
 30
0.0
 41
1.0
 10
53.39919792088834
 20
1827.829828192941
 30
0.0
 41
1.0
 10
39.34648732858719
 20
1820.736433171789
 30
0.0
 41
1.0
 10
37.30758459740535
 20
1819.707255036574
 30
0.0
 41
0.8684100485876164
 10
37.1575920672894
 20
1817.428256523601
 30
0.0
 41
1.0
 10
37.00759953717655
 20
1815.149258010625
 30
0.0
 41
0.8684100485876164
 10
38.8940282543338
 20
1813.861733767629
 30
0.0
 41
1.0
 10
44.72233137834127
 20
1809.883801651789
 30
0.0
 41
0.8684101344507178
 10
44.25891513420252
 20
1802.842618131203
 30
0.0
 41
1.000000062746968
 10
43.79549876283529
 20
1795.801432677489
 30
0.0
 41
0.8684101030772265
 10
37.49611235663644
 20
1792.621687682639
 30
0.0
 41
1.000000062746968
 10
31.19672595043823
 20
1789.441942687791
 30
0.0
 41
0.8684101030772265
 10
25.2565385522598
 20
1793.250777286637
 30
0.0
 41
1.000000062746968
 10
19.31635115408116
 20
1797.059611885487
 30
0.0
 41
0.8684101030772265
 10
19.57727540508232
 20
1804.111205029031
 30
0.0
 41
1.000000062746968
 10
19.6617279427876
 20
1806.3935721665
 30
0.0
 41
0.8684101030774786
 10
17.73908603307651
 20
1807.626365769801
 30
0.0
 41
1.000000062746968
 10
15.81644412336791
 20
1808.859159373106
 30
0.0
 41
0.8684101030774786
 10
13.77754139216163
 20
1807.829981237894
 30
0.0
 41
1.000000062746968
 10
0.4890139060121841
 20
1801.122323374351
 30
0.0
 41
1.000000062746968
 10
-40.26827755901685
 20
1780.549241302117
 30
0.0
 41
1.0
  0
SPLINE
  5
177
330
1F
100
AcDbEntity
  8
Default
100
AcDbSpline
210
0.0
220
0.0
230
1.0
 70
    12
 71
     2
 72
    24
 73
    21
 74
     0
 42
0.000000001
 43
0.0000000001
 40
511.562617395851
 40
511.562617395851
 40
511.562617395851
 40
533.9304822668744
 40
533.9304822668744
 40
538.0809593795084
 40
538.0809593795084
 40
542.2314364921424
 40
542.2314364921424
 40
555.0547330757531
 40
555.0547330757531
 40
567.8780327166769
 40
567.8780327166769
 40
580.7013323576007
 40
580.7013323576007
 40
593.5246319985243
 40
593.5246319985243
 40
597.6751091111577
 40
597.6751091111577
 40
601.825586223791
 40
601.825586223791
 40
617.0490354573194
 40
617.0490354573194
 40
617.0490354573194
 10
223.087111558661
 20
1748.76488852113
 30
0.0
 41
1.0
 10
223.940007448864
 20
1728.933320151608
 30
0.0
 41
1.0
 10
224.5213664635123
 20
1715.415537760075
 30
0.0
 41
1.0
 10
224.61950064561
 20
1713.133717946079
 30
0.0
 41
0.8684100485876164
 10
226.6344749240217
 20
1712.05844559055
 30
0.0
 41
1.0
 10
228.6494492024348
 20
1710.98317323502
 30
0.0
 41
0.8684100485876164
 10
230.5996251338626
 20
1712.171931333924
 30
0.0
 41
1.0
 10
236.624883253863
 20
1715.844713087701
 30
0.0
 41
0.8684101344507178
 10
242.8503386908788
 20
1712.522556470737
 30
0.0
 41
1.000000062746968
 10
249.0757958370697
 20
1709.200398941691
 30
0.0
 41
0.8684101030772265
 10
249.3789908464124
 20
1702.150496806681
 30
0.0
 41
1.000000062746968
 10
249.6821858557556
 20
1695.100594671676
 30
0.0
 41
0.8684101030772265
 10
243.7649397922854
 20
1691.256216132664
 30
0.0
 41
1.000000062746968
 10
237.8476937288161
 20
1687.411837593653
 30
0.0
 41
0.8684101030772265
 10
231.5293574415734
 20
1690.553759599076
 30
0.0
 41
1.000000062746968
 10
229.4843212615318
 20
1691.570695685391
 30
0.0
 41
0.8684101030774786
 10
227.5691047020044
 20
1690.32639768594
 30
0.0
 41
1.000000062746968
 10
225.6538881424755
 20
1689.082099686496
 30
0.0
 41
0.8684101030774786
 10
225.7520223245622
 20
1686.800279872479
 30
0.0
 41
1.000000062746968
 10
226.1633985310275
 20
1677.23494433962
 30
0.0
 41
1.000000062746968
 10
226.9794412577799
 20
1658.260287157419
 30
0.0
 41
1.0
  0
SPLINE
  5
178
330
1F
100
AcDbEntity
  8
Default
100
AcDbSpline
210
0.0
220
0.0
230
1.0
 70
    12
 71
     2
 72
    24
 73
    21
 74
     0
 42
0.000000001
 43
0.0000000001
 40
519.64823968367
 40
519.64823968367
 40
519.64823968367
 40
533.9304822668744
 40
533.9304822668744
 40
538.0809593795084
 40
538.0809593795084
 40
542.2314364921424
 40
542.2314364921424
 40
555.0547330757531
 40
555.0547330757531
 40
567.8780327166769
 40
567.8780327166769
 40
580.7013323576007
 40
580.7013323576007
 40
593.5246319985243
 40
593.5246319985243
 40
597.6751091111577
 40
597.6751091111577
 40
601.825586223791
 40
601.825586223791
 40
614.0843364856684
 40
614.0843364856684
 40
614.0843364856684
 10
690.5515864173492
 20
1674.748558388352
 30
0.0
 41
1.0
 10
685.7480799119191
 20
1655.727003433211
 30
0.0
 41
1.0
 10
683.632804900909
 20
1647.350660063702
 30
0.0
 41
1.0
 10
683.0736001402277
 20
1645.1362477225
 30
0.0
 41
0.8684100485876164
 10
684.6964163380895
 20
1643.52913865054
 30
0.0
 41
1.0
 10
686.3192325359538
 20
1641.922029578577
 30
0.0
 41
0.8684100485876164
 10
688.5281014467406
 20
1642.502744755051
 30
0.0
 41
1.0
 10
695.3526161150796
 20
1644.296918872897
 30
0.0
 41
0.8684101344507178
 10
700.3664617162336
 20
1639.331601937026
 30
0.0
 41
1.000000062746968
 10
705.3803086939217
 20
1634.366283637944
 30
0.0
 41
0.8684101030772265
 10
703.6525917146352
 20
1627.524643383856
 30
0.0
 41
1.000000062746968
 10
701.924874735349
 20
1620.68300312977
 30
0.0
 41
0.8684101030772265
 10
695.1547273423723
 20
1618.693492736672
 30
0.0
 41
1.000000062746968
 10
688.3845799493954
 20
1616.703982343574
 30
0.0
 41
0.8684101030772265
 10
683.2301438790801
 20
1621.523197645246
 30
0.0
 41
1.000000062746968
 10
681.5618236485149
 20
1623.083018016192
 30
0.0
 41
0.8684101030774786
 10
679.3705511784527
 20
1622.439079398574
 30
0.0
 41
1.000000062746968
 10
677.1792787083878
 20
1621.795140780956
 30
0.0
 41
0.8684101030774786
 10
676.6200739476893
 20
1619.58072843974
 30
0.0
 41
1.000000062746968
 10
674.7324179331488
 20
1612.105740620684
 30
0.0
 41
1.000000062746968
 10
669.5013015678019
 20
1591.390880068817
 30
0.0
 41
1.000000062746968
  0
SPLINE
  5
179
330
1F
100
AcDbEntity
  8
Default
100
AcDbSpline
210
0.0
220
0.0
230
1.0
 70
    12
 71
     2
 72
    24
 73
    21
 74
     0
 42
0.000000001
 43
0.0000000001
 40
523.5752428809197
 40
523.5752428809197
 40
523.5752428809197
 40
533.9304822668744
 40
533.9304822668744
 40
538.0809593795084
 40
538.0809593795084
 40
542.2314364921424
 40
542.2314364921424
 40
555.0547330757531
 40
555.0547330757531
 40
567.8780327166769
 40
567.8780327166769
 40
580.7013323576007
 40
580.7013323576007
 40
593.5246319985243
 40
593.5246319985243
 40
597.6751091111577
 40
597.6751091111577
 40
601.825586223791
 40
601.825586223791
 40
610.8249834617887
 40
610.8249834617887
 40
610.8249834617887
 10
630.2419358599922
 20
1686.262449913184
 30
0.0
 41
1.0
 10
625.7545556328386
 20
1686.212275012305
 30
0.0
 41
1.0
 10
622.0649798527287
 20
1686.171020630087
 30
0.0
 41
1.0
 10
620.7196873617249
 20
1686.155978464281
 30
0.0
 41
0.8684100485876164
 10
620.0488670848781
 20
1684.989771660463
 30
0.0
 41
1.0
 10
619.3780468080313
 20
1683.823564856644
 30
0.0
 41
0.8684100485876164
 10
620.0414209380185
 20
1682.653106435016
 30
0.0
 41
1.0
 10
622.090978649909
 20
1679.036861395771
 30
0.0
 41
0.8684101344507178
 10
620.0184153499606
 20
1675.433754117776
 30
0.0
 41
1.000000062746968
 10
617.9458514809991
 20
1671.830645850564
 30
0.0
 41
0.8684101030772265
 10
613.7894407309599
 20
1671.784171630237
 30
0.0
 41
1.000000062746968
 10
609.6330299809227
 20
1671.737697409909
 30
0.0
 41
0.8684101030772265
 10
607.4804192327932
 20
1675.293562584972
 30
0.0
 41
1.000000062746968
 10
605.327808484664
 20
1678.849427760033
 30
0.0
 41
0.8684101030772265
 10
607.2959955868349
 20
1682.510595566489
 30
0.0
 41
1.000000062746968
 10
607.933032561451
 20
1683.69559432012
 30
0.0
 41
0.8684101030774786
 10
607.2363037611234
 20
1684.846510099804
 30
0.0
 41
1.000000062746968
 10
606.5395749607991
 20
1685.997425879492
 30
0.0
 41
0.8684101030774786
 10
605.1942824697825
 20
1685.982383713693
 30
0.0
 41
1.000000062746968
 10
601.8605101305362
 20
1685.945107688887
 30
0.0
 41
1.000000062746968
 10
596.588110316672
 20
1685.886155221162
 30
0.0
 41
1.000000040819249
  0
LINE
  5
17A
330
1F
100
AcDbEntity
  8
Default
100
AcDbLine
 10
493.7721591704237
 20
1624.019818738696
 30
0.0
 11
492.5700407359826
 21
1629.005255440805
 31
0.0
  0
ARC
  5
17B
330
1F
100
AcDbEntity
  8
Default
100
AcDbCircle
 10
494.3793216047424
 20
1631.522496537312
 30
0.0
 40
3.100000000001043
100
AcDbArc
 50
56.16594320309762
 51
234.2931010279402
  0
LINE
  5
17C
330
1F
100
AcDbEntity
  8
Default
100
AcDbLine
 10
496.1053689216197
 20
1634.097522878907
 30
0.0
 11
538.1396676938984
 21
1644.233085408775
 31
0.0
  0
ARC
  5
17D
330
1F
100
AcDbEntity
  8
Default
100
AcDbCircle
 10
540.8496104143538
 20
1642.72769162247
 30
0.0
 40
3.099999999999282
100
AcDbArc
 50
332.8203375848007
 51
150.9474954097838
  0
LINE
  5
17E
330
1F
100
AcDbEntity
  8
Default
100
AcDbLine
 10
543.6073039743437
 20
1641.311666824247
 30
0.0
 11
544.8094224087841
 21
1636.326230122137
 31
0.0
  0
LINE
  5
17F
330
1F
100
AcDbEntity
  8
Default
100
AcDbLine
 10
544.8094224087841
 20
1636.326230122137
 30
0.0
 11
546.0115408432264
 21
1631.340793420027
 31
0.0
  0
ARC
  5
180
330
1F
100
AcDbEntity
  8
Default
100
AcDbCircle
 10
544.2022599744679
 20
1628.823552323522
 30
0.0
 40
3.099999999999282
100
AcDbArc
 50
236.1659432029623
 51
54.29310102794343
  0
LINE
  5
181
330
1F
100
AcDbEntity
  8
Default
100
AcDbLine
 10
542.4762126575846
 20
1626.248525981932
 30
0.0
 11
500.4419138853098
 21
1616.11296345205
 31
0.0
  0
ARC
  5
182
330
1F
100
AcDbEntity
  8
Default
100
AcDbCircle
 10
497.731971164857
 20
1617.618357238364
 30
0.0
 40
3.100000000001043
100
AcDbArc
 50
152.8203375848076
 51
330.9474954096489
  0
LINE
  5
183
330
1F
100
AcDbEntity
  8
Default
100
AcDbLine
 10
494.9742776048653
 20
1619.034382036587
 30
0.0
 11
493.7721591704237
 21
1624.019818738696
 31
0.0
  0
LINE
  5
184
330
1F
100
AcDbEntity
  8
Default
100
AcDbLine
 10
-68.48228849560455
 20
2045.304229622887
 30
0.0
 11
-63.70273099217478
 21
2047.163126584142
 31
0.0
  0
ARC
  5
185
330
1F
100
AcDbEntity
  8
Default
100
AcDbCircle
 10
-60.96587893302082
 20
2045.707227959129
 30
0.0
 40
3.100000000001043
100
AcDbArc
 50
333.861605306886
 51
151.9887631317259
  0
LINE
  5
186
330
1F
100
AcDbEntity
  8
Default
100
AcDbLine
 10
-58.18290798202109
 20
2044.341551318817
 30
0.0
 11
-42.50977141943365
 21
2004.043106046518
 31
0.0
  0
ARC
  5
187
330
1F
100
AcDbEntity
  8
Default
100
AcDbCircle
 10
-43.63871507185975
 20
2001.155981832071
 30
0.0
 40
3.099999999999282
100
AcDbArc
 50
250.5159996885891
 51
68.64315751357019
  0
LINE
  5
188
330
1F
100
AcDbEntity
  8
Default
100
AcDbLine
 10
-44.67270028202667
 20
1998.233504358223
 30
0.0
 11
-49.45225778545661
 21
1996.374607396968
 31
0.0
  0
LINE
  5
189
330
1F
100
AcDbEntity
  8
Default
100
AcDbLine
 10
-49.45225778545661
 20
1996.374607396968
 30
0.0
 11
-54.23181528888692
 21
1994.515710435711
 31
0.0
  0
ARC
  5
18A
330
1F
100
AcDbEntity
  8
Default
100
AcDbCircle
 10
-56.9686673480383
 20
1995.971609060723
 30
0.0
 40
3.099999999999282
100
AcDbArc
 50
153.8616053067492
 51
331.9887631317321
  0
LINE
  5
18B
330
1F
100
AcDbEntity
  8
Default
100
AcDbLine
 10
-59.75163829903413
 20
1997.337285701041
 30
0.0
 11
-75.42477486163581
 21
2037.635730973335
 31
0.0
  0
ARC
  5
18C
330
1F
100
AcDbEntity
  8
Default
100
AcDbCircle
 10
-74.29583120919993
 20
2040.522855187779
 30
0.0
 40
3.100000000001043
100
AcDbArc
 50
70.5159996885932
 51
248.6431575134379
  0
LINE
  5
18D
330
1F
100
AcDbEntity
  8
Default
100
AcDbLine
 10
-73.26184599903398
 20
2043.445332661629
 30
0.0
 11
-68.48228849560455
 21
2045.304229622887
 31
0.0
  0
LINE
  5
18E
330
1F
100
AcDbEntity
  8
Default
100
AcDbLine
 10
-34.13934788595738
 20
1957.744616379448
 30
0.0
 11
-29.38924046108232
 21
1959.677527989767
 31
0.0
  0
ARC
  5
18F
330
1F
100
AcDbEntity
  8
Default
100
AcDbCircle
 10
-26.63010469507221
 20
1958.264315399697
 30
0.0
 40
3.100000000001043
100
AcDbArc
 50
334.7515928936181
 51
152.8787507184644
  0
LINE
  5
190
330
1F
100
AcDbEntity
  8
Default
100
AcDbLine
 10
-23.82625698191517
 20
1956.94203025593
 30
0.0
 11
-7.529072004283918
 21
1916.891890894389
 31
0.0
  0
ARC
  5
191
330
1F
100
AcDbEntity
  8
Default
100
AcDbCircle
 10
-8.613034949306027
 20
1913.987579558837
 30
0.0
 40
3.099999999999282
100
AcDbArc
 50
251.4059872753263
 51
69.53314510030772
  0
LINE
  5
192
330
1F
100
AcDbEntity
  8
Default
100
AcDbLine
 10
-9.601501780008888
 20
1911.049394179289
 30
0.0
 11
-14.35160920488418
 21
1909.11648256897
 31
0.0
  0
LINE
  5
193
330
1F
100
AcDbEntity
  8
Default
100
AcDbLine
 10
-14.35160920488418
 20
1909.11648256897
 30
0.0
 11
-19.10171662975907
 21
1907.183570958649
 31
0.0
  0
ARC
  5
194
330
1F
100
AcDbEntity
  8
Default
100
AcDbCircle
 10
-21.86085239576779
 20
1908.596783548717
 30
0.0
 40
3.099999999999282
100
AcDbArc
 50
154.7515928934863
 51
332.8787507184672
  0
LINE
  5
195
330
1F
100
AcDbEntity
  8
Default
100
AcDbLine
 10
-24.66470010892064
 20
1909.919068692491
 30
0.0
 11
-40.96188508656475
 21
1949.969208054027
 31
0.0
  0
ARC
  5
196
330
1F
100
AcDbEntity
  8
Default
100
AcDbCircle
 10
-39.87792214153457
 20
1952.873519389577
 30
0.0
 40
3.100000000001043
100
AcDbArc
 50
71.4059872753318
 51
249.5331451001745
  0
LINE
  5
197
330
1F
100
AcDbEntity
  8
Default
100
AcDbLine
 10
-38.88945531083247
 20
1955.811704769128
 30
0.0
 11
-34.13934788595738
 21
1957.744616379448
 31
0.0
  0
LINE
  5
198
330
1F
100
AcDbEntity
  8
Default
100
AcDbLine
 10
1.797292623045365
 20
1870.830007085929
 30
0.0
 11
6.483403923751766
 21
1872.913280644191
 31
0.0
  0
ARC
  5
199
330
1F
100
AcDbEntity
  8
Default
100
AcDbCircle
 10
9.286165296174275
 20
1871.588694410962
 30
0.0
 40
3.100000000001043
100
AcDbArc
 50
336.5774038935966
 51
154.7045617184369
  0
LINE
  5
19A
330
1F
100
AcDbEntity
  8
Default
100
AcDbLine
 10
12.13071887465058
 20
1870.356414029237
 30
0.0
 11
29.69566822709582
 21
1830.845852715584
 31
0.0
  0
ARC
  5
19B
330
1F
100
AcDbEntity
  8
Default
100
AcDbCircle
 10
28.70478992357015
 20
1827.908479707674
 30
0.0
 40
3.099999999999282
100
AcDbArc
 50
253.2317982753002
 51
71.35895610028199
  0
LINE
  5
19C
330
1F
100
AcDbEntity
  8
Default
100
AcDbLine
 10
27.81043851343901
 20
1824.940292456978
 30
0.0
 11
23.12432721273262
 21
1822.857018898716
 31
0.0
  0
LINE
  5
19D
330
1F
100
AcDbEntity
  8
Default
100
AcDbLine
 10
23.12432721273262
 20
1822.857018898716
 30
0.0
 11
18.43821591202699
 21
1820.773745340452
 31
0.0
  0
ARC
  5
19E
330
1F
100
AcDbEntity
  8
Default
100
AcDbCircle
 10
15.63545453960555
 20
1822.09833157368
 30
0.0
 40
3.099999999999282
100
AcDbArc
 50
156.5774038934634
 51
334.7045617184442
  0
LINE
  5
19F
330
1F
100
AcDbEntity
  8
Default
100
AcDbLine
 10
12.7909009611336
 20
1823.330611955411
 30
0.0
 11
-4.774048391325451
 21
1862.841173269059
 31
0.0
  0
ARC
  5
1A0
330
1F
100
AcDbEntity
  8
Default
100
AcDbCircle
 10
-3.783170087791007
 20
1865.778546276968
 30
0.0
 40
3.100000000001043
100
AcDbArc
 50
73.23179827530556
 51
251.3589561001488
  0
LINE
  5
1A1
330
1F
100
AcDbEntity
  8
Default
100
AcDbLine
 10
-2.88881867766024
 20
1868.746733527665
 30
0.0
 11
1.797292623045365
 21
1870.830007085929
 31
0.0
  0
LINE
  5
1A2
330
1F
100
AcDbEntity
  8
Default
100
AcDbLine
 10
41.13595082140952
 20
1785.4226046607
 30
0.0
 11
45.63603523379565
 21
1787.882057470281
 31
0.0
  0
ARC
  5
1A3
330
1F
100
AcDbEntity
  8
Default
100
AcDbCircle
 10
48.53771550390042
 20
1786.791070939618
 30
0.0
 40
3.100000000001043
100
AcDbArc
 50
341.2673644026454
 51
159.394522227489
  0
LINE
  5
1A4
330
1F
100
AcDbEntity
  8
Default
100
AcDbLine
 10
51.47350076437598
 20
1785.795498288136
 30
0.0
 11
72.21017447854149
 21
1747.853407355422
 31
0.0
  0
ARC
  5
1A5
330
1F
100
AcDbEntity
  8
Default
100
AcDbCircle
 10
71.46278490184169
 20
1744.844851419324
 30
0.0
 40
3.099999999999282
100
AcDbArc
 50
257.9217587843506
 51
76.048916609332
  0
LINE
  5
1A6
330
1F
100
AcDbEntity
  8
Default
100
AcDbLine
 10
70.81411851221229
 20
1741.813476827664
 30
0.0
 11
66.31403409982569
 21
1739.354024018083
 31
0.0
  0
LINE
  5
1A7
330
1F
100
AcDbEntity
  8
Default
100
AcDbLine
 10
66.31403409982569
 20
1739.354024018083
 30
0.0
 11
61.8139496874396
 21
1736.894571208499
 31
0.0
  0
ARC
  5
1A8
330
1F
100
AcDbEntity
  8
Default
100
AcDbCircle
 10
58.91226941733679
 20
1737.985557739162
 30
0.0
 40
3.099999999999282
100
AcDbArc
 50
161.2673644025103
 51
339.3945222274946
  0
LINE
  5
1A9
330
1F
100
AcDbEntity
  8
Default
100
AcDbLine
 10
55.97648415686481
 20
1738.981130390653
 30
0.0
 11
35.23981044268665
 21
1776.923221323357
 31
0.0
  0
ARC
  5
1AA
330
1F
100
AcDbEntity
  8
Default
100
AcDbCircle
 10
35.98720001939465
 20
1779.931777259456
 30
0.0
 40
3.100000000001043
100
AcDbArc
 50
77.92175878435586
 51
256.0489166091991
  0
LINE
  5
1AB
330
1F
100
AcDbEntity
  8
Default
100
AcDbLine
 10
36.63586640902372
 20
1782.963151851117
 30
0.0
 11
41.13595082140952
 21
1785.4226046607
 31
0.0
  0
LINE
  5
1AC
330
1F
100
AcDbEntity
  8
Default
100
AcDbLine
 10
88.54176653887242
 20
1704.255670103836
 30
0.0
 11
92.7385711270706
 21
1707.202956837366
 31
0.0
  0
ARC
  5
1AD
330
1F
100
AcDbEntity
  8
Default
100
AcDbCircle
 10
95.74405823787536
 20
1706.443320590998
 30
0.0
 40
3.100000000001043
100
AcDbArc
 50
347.6884110982025
 51
165.8155689230486
  0
LINE
  5
1AE
330
1F
100
AcDbEntity
  8
Default
100
AcDbLine
 10
98.7727658823723
 20
1705.782313780013
 30
0.0
 11
123.622571130587
 21
1670.3973016958
 31
0.0
  0
ARC
  5
1AF
330
1F
100
AcDbEntity
  8
Default
100
AcDbCircle
 10
123.2163287520919
 20
1667.324035171415
 30
0.0
 40
3.099999999999282
100
AcDbArc
 50
264.3428054799102
 51
82.46996330489185
  0
LINE
  5
1B0
330
1F
100
AcDbEntity
  8
Default
100
AcDbLine
 10
122.9107421616433
 20
1664.239133740942
 30
0.0
 11
118.713937573445
 21
1661.291847007413
 31
0.0
  0
LINE
  5
1B1
330
1F
100
AcDbEntity
  8
Default
100
AcDbLine
 10
118.713937573445
 20
1661.291847007413
 30
0.0
 11
114.5171329852463
 21
1658.344560273882
 31
0.0
  0
ARC
  5
1B2
330
1F
100
AcDbEntity
  8
Default
100
AcDbCircle
 10
111.5116458744443
 20
1659.104196520249
 30
0.0
 40
3.099999999999282
100
AcDbArc
 50
167.6884110980706
 51
345.8155689230534
  0
LINE
  5
1B3
330
1F
100
AcDbEntity
  8
Default
100
AcDbLine
 10
108.4829382299494
 20
1659.765203331242
 30
0.0
 11
83.63313298172343
 21
1695.150215415446
 31
0.0
  0
ARC
  5
1B4
330
1F
100
AcDbEntity
  8
Default
100
AcDbCircle
 10
84.03937536022671
 20
1698.223481939832
 30
0.0
 40
3.100000000001043
100
AcDbArc
 50
84.34280547991533
 51
262.4699633047591
  0
LINE
  5
1B5
330
1F
100
AcDbEntity
  8
Default
100
AcDbLine
 10
84.34496195067469
 20
1701.308383370306
 30
0.0
 11
88.54176653887242
 21
1704.255670103836
 31
0.0
  0
LINE
  5
1B6
330
1F
100
AcDbEntity
  8
Default
100
AcDbLine
 10
144.5396816250657
 20
1628.907148387393
 30
0.0
 11
148.0243841730585
 21
1632.669662971176
 31
0.0
  0
ARC
  5
1B7
330
1F
100
AcDbEntity
  8
Default
100
AcDbCircle
 10
151.122364492834
 20
1632.557779378592
 30
0.0
 40
3.100000000001043
100
AcDbArc
 50
359.804503409575
 51
177.9316612344168
  0
LINE
  5
1B8
330
1F
100
AcDbEntity
  8
Default
100
AcDbLine
 10
154.2223464475227
 20
1632.54720201566
 30
0.0
 11
185.945678143386
 21
1603.166219608868
 31
0.0
  0
ARC
  5
1B9
330
1F
100
AcDbEntity
  8
Default
100
AcDbCircle
 10
186.1935427679045
 20
1600.076144669985
 30
0.0
 40
3.099999999999282
100
AcDbArc
 50
276.4588977912804
 51
94.58605561626236
  0
LINE
  5
1BA
330
1F
100
AcDbEntity
  8
Default
100
AcDbLine
 10
186.5422630921604
 20
1596.99582096371
 30
0.0
 11
183.0575605441674
 21
1593.233306379928
 31
0.0
  0
LINE
  5
1BB
330
1F
100
AcDbEntity
  8
Default
100
AcDbLine
 10
183.0575605441674
 20
1593.233306379928
 30
0.0
 11
179.5728579961749
 21
1589.470791796144
 31
0.0
  0
ARC
  5
1BC
330
1F
100
AcDbEntity
  8
Default
100
AcDbCircle
 10
176.4748776764013
 20
1589.582675388728
 30
0.0
 40
3.099999999999282
100
AcDbArc
 50
179.8045034094405
 51
357.931661234424
  0
LINE
  5
1BD
330
1F
100
AcDbEntity
  8
Default
100
AcDbLine
 10
173.3748957217135
 20
1589.593252751667
 30
0.0
 11
141.6515640258407
 21
1618.974235158448
 31
0.0
  0
ARC
  5
1BE
330
1F
100
AcDbEntity
  8
Default
100
AcDbCircle
 10
141.4036994013307
 20
1622.064310097332
 30
0.0
 40
3.100000000001043
100
AcDbArc
 50
96.45889779128598
 51
274.5860556161302
  0
LINE
  5
1BF
330
1F
100
AcDbEntity
  8
Default
100
AcDbLine
 10
141.0549790770738
 20
1625.144633803611
 30
0.0
 11
144.5396816250657
 21
1628.907148387393
 31
0.0
  0
LINE
  5
1C0
330
1F
100
AcDbEntity
  8
Default
100
AcDbLine
 10
219.4221347927634
 20
1574.091228979531
 30
0.0
 11
220.0233445223272
 21
1579.18418634262
 31
0.0
  0
ARC
  5
1C1
330
1F
100
AcDbEntity
  8
Default
100
AcDbCircle
 10
222.5932421361093
 20
1580.917860549235
 30
0.0
 40
3.100000000001043
100
AcDbArc
 50
35.87677058783709
 51
214.0039284126817
  0
LINE
  5
1C2
330
1F
100
AcDbEntity
  8
Default
100
AcDbLine
 10
225.1051079867197
 20
1582.734596619373
 30
0.0
 11
268.0459583527382
 21
1577.66554632201
 31
0.0
  0
ARC
  5
1C3
330
1F
100
AcDbEntity
  8
Default
100
AcDbCircle
 10
270.0657533120385
 20
1575.313860049911
 30
0.0
 40
3.099999999999282
100
AcDbArc
 50
312.5311649695449
 51
130.6583227945282
  0
LINE
  5
1C4
330
1F
100
AcDbEntity
  8
Default
100
AcDbLine
 10
272.1613258333195
 20
1573.029439815357
 30
0.0
 11
271.5601161037554
 21
1567.936482452268
 31
0.0
  0
LINE
  5
1C5
330
1F
100
AcDbEntity
  8
Default
100
AcDbLine
 10
271.5601161037554
 20
1567.936482452268
 30
0.0
 11
270.9589063741927
 21
1562.843525089178
 31
0.0
  0
ARC
  5
1C6
330
1F
100
AcDbEntity
  8
Default
100
AcDbCircle
 10
268.3890087604124
 20
1561.109850882564
 30
0.0
 40
3.099999999999282
100
AcDbArc
 50
215.8767705877048
 51
34.003928412688
  0
LINE
  5
1C7
330
1F
100
AcDbEntity
  8
Default
100
AcDbLine
 10
265.8771429097986
 20
1559.293114812433
 30
0.0
 11
222.9362925437784
 21
1564.36216510978
 31
0.0
  0
ARC
  5
1C8
330
1F
100
AcDbEntity
  8
Default
100
AcDbCircle
 10
220.9164975844838
 20
1566.713851381886
 30
0.0
 40
3.100000000001043
100
AcDbArc
 50
132.5311649695497
 51
310.6583227943937
  0
LINE
  5
1C9
330
1F
100
AcDbEntity
  8
Default
100
AcDbLine
 10
218.8209250632005
 20
1568.998271616442
 30
0.0
 11
219.4221347927634
 21
1574.091228979531
 31
0.0
  0
LINE
  5
1CA
330
1F
100
AcDbEntity
  8
Default
100
AcDbLine
 10
312.7337363825025
 20
1573.165619275715
 30
0.0
 11
311.5303396526588
 21
1578.15074757414
 31
0.0
  0
ARC
  5
1CB
330
1F
100
AcDbEntity
  8
Default
100
AcDbCircle
 10
313.3389750065087
 20
1580.668452512534
 30
0.0
 40
3.100000000001043
100
AcDbArc
 50
56.18063463354957
 51
234.3077924583927
  0
LINE
  5
1CC
330
1F
100
AcDbEntity
  8
Default
100
AcDbLine
 10
315.0643619942762
 20
1583.24392135188
 30
0.0
 11
357.0960604863055
 21
1593.390261724109
 31
0.0
  0
ARC
  5
1CD
330
1F
100
AcDbEntity
  8
Default
100
AcDbCircle
 10
359.8063891214621
 20
1591.885562854086
 30
0.0
 40
3.099999999999282
100
AcDbArc
 50
332.8350290152584
 51
150.962186840239
  0
LINE
  5
1CE
330
1F
100
AcDbEntity
  8
Default
100
AcDbLine
 10
362.564445679138
 20
1590.470245213182
 30
0.0
 11
363.7678424089809
 21
1585.485116914756
 31
0.0
  0
LINE
  5
1CF
330
1F
100
AcDbEntity
  8
Default
100
AcDbLine
 10
363.7678424089809
 20
1585.485116914756
 30
0.0
 11
364.9712391388257
 21
1580.499988616331
 31
0.0
  0
ARC
  5
1D0
330
1F
100
AcDbEntity
  8
Default
100
AcDbCircle
 10
363.162603784977
 20
1577.982283677939
 30
0.0
 40
3.099999999999282
100
AcDbArc
 50
236.1806346334166
 51
54.30779245840005
  0
LINE
  5
1D1
330
1F
100
AcDbEntity
  8
Default
100
AcDbLine
 10
361.437216797204
 20
1575.406814838597
 30
0.0
 11
319.4055183051785
 21
1565.260474466354
 31
0.0
  0
ARC
  5
1D2
330
1F
100
AcDbEntity
  8
Default
100
AcDbCircle
 10
316.6951896700245
 20
1566.765173336385
 30
0.0
 40
3.100000000001043
100
AcDbArc
 50
152.8350290152612
 51
330.9621868401036
  0
LINE
  5
1D3
330
1F
100
AcDbEntity
  8
Default
100
AcDbLine
 10
313.9371331123464
 20
1568.180490977289
 30
0.0
 11
312.7337363825025
 21
1573.165619275715
 31
0.0
  0
LINE
  5
1D4
330
1F
100
AcDbEntity
  8
Default
100
AcDbLine
 10
403.5825923872247
 20
1597.377398658386
 30
0.0
 11
402.0808922976206
 21
1602.280924398305
 31
0.0
  0
ARC
  5
1D5
330
1F
100
AcDbEntity
  8
Default
100
AcDbCircle
 10
403.73447772088
 20
1604.903071466642
 30
0.0
 40
3.100000000001043
100
AcDbArc
 50
59.63638136233644
 51
237.7635391871814
  0
LINE
  5
1D6
330
1F
100
AcDbEntity
  8
Default
100
AcDbLine
 10
405.3014842833904
 20
1607.577859389648
 30
0.0
 11
446.6451575271187
 21
1620.239319960601
 31
0.0
  0
ARC
  5
1D7
330
1F
100
AcDbEntity
  8
Default
100
AcDbCircle
 10
449.4412574745921
 20
1618.900729252528
 30
0.0
 40
3.099999999999282
100
AcDbArc
 50
336.2907757440444
 51
154.4179335690253
  0
LINE
  5
1D8
330
1F
100
AcDbEntity
  8
Default
100
AcDbLine
 10
452.2796108729505
 20
1617.654234171904
 30
0.0
 11
453.7813109625541
 21
1612.750708431986
 31
0.0
  0
LINE
  5
1D9
330
1F
100
AcDbEntity
  8
Default
100
AcDbLine
 10
453.7813109625541
 20
1612.750708431986
 30
0.0
 11
455.2830110521592
 21
1607.847182692067
 31
0.0
  0
ARC
  5
1DA
330
1F
100
AcDbEntity
  8
Default
100
AcDbCircle
 10
453.6294256289013
 20
1605.225035623731
 30
0.0
 40
3.099999999999282
100
AcDbArc
 50
239.6363813622033
 51
57.7635391871834
  0
LINE
  5
1DB
330
1F
100
AcDbEntity
  8
Default
100
AcDbLine
 10
452.0624190663845
 20
1602.550247700731
 30
0.0
 11
410.7187458226603
 21
1589.888787129764
 31
0.0
  0
ARC
  5
1DC
330
1F
100
AcDbEntity
  8
Default
100
AcDbCircle
 10
407.9226458751899
 20
1591.227377837844
 30
0.0
 40
3.100000000001043
100
AcDbArc
 50
156.2907757440494
 51
334.4179335688918
  0
LINE
  5
1DD
330
1F
100
AcDbEntity
  8
Default
100
AcDbLine
 10
405.0842924768289
 20
1592.473872918468
 30
0.0
 11
403.5825923872247
 21
1597.377398658386
 31
0.0
  0
SPLINE
  5
1DE
330
1F
100
AcDbEntity
  8
Default
100
AcDbSpline
210
0.0
220
0.0
230
1.0
 70
    28
 71
     2
 72
     6
 73
     3
 74
     0
 42
0.000000001
 43
0.0000000001
 40
788.8758150434519
 40
788.8758150434519
 40
788.8758150434519
 40
840.8148240639414
 40
840.8148240639414
 40
840.8148240639414
 10
-76.36087028283778
 20
2091.723738203871
 30
0.0
 41
1.0
 10
-84.05339761749825
 20
2111.928385580131
 30
0.0
 41
1.0
 10
-91.74592862024174
 20
2132.13304259072
 30
0.0
 41
1.0
  0
ARC
  5
1DF
330
1F
100
AcDbEntity
  8
Default
100
AcDbCircle
 10
-94.51907949098988
 20
2133.518551251131
 30
0.0
 40
3.100000000001077
100
AcDbArc
 50
333.4525839564855
 51
151.5797417813176
  0
LINE
  5
1E0
330
1F
100
AcDbEntity
  8
Default
100
AcDbLine
 10
-97.24546857658002
 20
2134.993950367975
 30
0.0
 11
-106.8308802561386
 21
2131.344490915117
 31
0.0
  0
ARC
  5
1E1
330
1F
100
AcDbEntity
  8
Default
100
AcDbCircle
 10
-107.8857018346217
 20
2128.429469227791
 30
0.0
 40
3.100000000002067
100
AcDbArc
 50
70.10697833820097
 51
248.2341361630504
  0
LINE
  5
1E2
330
1F
100
AcDbEntity
  8
Default
100
AcDbLine
 10
-109.0352270591282
 20
2125.55047777969
 30
0.0
 11
-93.6501687217188
 21
2085.141173392851
 31
0.0
  0
ARC
  5
1E3
330
1F
100
AcDbEntity
  8
Default
100
AcDbCircle
 10
-90.87701785097507
 20
2083.755664732434
 30
0.0
 40
3.099999999999593
100
AcDbArc
 50
153.4525839563488
 51
331.579741781312
  0
LINE
  5
1E4
330
1F
100
AcDbEntity
  8
Default
100
AcDbLine
 10
-88.15062876538595
 20
2082.280265615591
 30
0.0
 11
-78.56521708583047
 21
2085.929725068453
 31
0.0
  0
ARC
  5
1E5
330
1F
100
AcDbEntity
  8
Default
100
AcDbCircle
 10
-77.51039550734366
 20
2088.844746755774
 30
0.0
 40
3.099999999999049
100
AcDbArc
 50
250.1069783381199
 51
68.23413616304074
  0
LINE
  5
1E6
330
1F
100
AcDbEntity
  8
Default
100
AcDbLine
 10
585.6019346587794
 20
1644.190609102807
 30
0.0
 11
584.8915327172265
 21
1649.269486628658
 31
0.0
  0
ARC
  5
1E7
330
1F
100
AcDbEntity
  8
Default
100
AcDbCircle
 10
586.9375825698337
 20
1651.598366187728
 30
0.0
 40
3.100000000001043
100
AcDbArc
 50
50.57174290650483
 51
228.6989007313488
  0
LINE
  5
1E8
330
1F
100
AcDbEntity
  8
Default
100
AcDbLine
 10
588.9064283196927
 20
1653.992869562807
 30
0.0
 11
631.7285656981738
 21
1659.982564998512
 31
0.0
  0
ARC
  5
1E9
330
1F
100
AcDbEntity
  8
Default
100
AcDbCircle
 10
634.278852664609
 20
1658.22016992679
 30
0.0
 40
3.099999999999282
100
AcDbArc
 50
327.2261372882121
 51
145.3532951131917
  0
LINE
  5
1EA
330
1F
100
AcDbEntity
  8
Default
100
AcDbLine
 10
636.885374928202
 20
1656.542063348118
 30
0.0
 11
637.5957768697548
 21
1651.463185822266
 31
0.0
  0
LINE
  5
1EB
330
1F
100
AcDbEntity
  8
Default
100
AcDbLine
 10
637.5957768697548
 20
1651.463185822266
 30
0.0
 11
638.3061788113088
 21
1646.384308296414
 31
0.0
  0
ARC
  5
1EC
330
1F
100
AcDbEntity
  8
Default
100
AcDbCircle
 10
636.260128958703
 20
1644.055428737346
 30
0.0
 40
3.099999999999282
100
AcDbArc
 50
230.5717429063722
 51
48.69890073135386
  0
LINE
  5
1ED
330
1F
100
AcDbEntity
  8
Default
100
AcDbLine
 10
634.2912832088389
 20
1641.660925362271
 30
0.0
 11
591.4691458303599
 21
1635.671229926553
 31
0.0
  0
ARC
  5
1EE
330
1F
100
AcDbEntity
  8
Default
100
AcDbCircle
 10
588.9188588639286
 20
1637.433624998282
 30
0.0
 40
3.100000000001043
100
AcDbArc
 50
147.226137288215
 51
325.3532951130605
  0
LINE
  5
1EF
330
1F
100
AcDbEntity
  8
Default
100
AcDbLine
 10
586.3123366003329
 20
1639.111731576956
 30
0.0
 11
585.6019346587794
 21
1644.190609102807
 31
0.0
  0
SPLINE
  5
1F0
330
1F
100
AcDbEntity
  8
Default
100
AcDbSpline
210
0.0
220
0.0
230
1.0
 70
    15
 71
     2
 72
    28
 73
    25
 74
     0
 42
0.000000001
 43
0.0000000001
 40
685.3709373256315
 40
685.3709373256315
 40
685.3709373256315
 40
689.2525108241362
 40
689.2525108241362
 40
693.1340843226408
 40
693.1340843226408
 40
703.3907246772915
 40
703.3907246772915
 40
707.272298175796
 40
707.272298175796
 40
711.1538716743004
 40
711.1538716743004
 40
763.0928806947861
 40
763.0928806947861
 40
766.9744541932912
 40
766.9744541932912
 40
770.8560276917963
 40
770.8560276917963
 40
781.1126680464456
 40
781.1126680464456
 40
784.9942415449487
 40
784.9942415449487
 40
788.8758150434519
 40
788.8758150434519
 40
840.8148240639414
 40
840.8148240639414
 40
840.8148240639414
 10
296.5136123276665
 20
1272.642473985957
 30
0.0
 41
1.0
 10
294.4173536943709
 20
1274.857567678822
 30
0.0
 41
0.7128614534291916
 10
292.1682968837957
 20
1272.797790072224
 30
0.0
 41
1.0
 10
289.9192400732202
 20
1270.738012465626
 30
0.0
 41
0.7128614534291916
 10
291.9419864693569
 20
1268.455593279157
 30
0.0
 41
1.0
 10
292.0146554141209
 20
1263.327787991744
 30
0.0
 41
1.0
 10
292.087324358885
 20
1258.19998270433
 30
0.0
 41
1.0
 10
290.1300681093002
 20
1255.861160714671
 30
0.0
 41
0.7128614534290939
 10
292.4365904893865
 20
1253.86594272257
 30
0.0
 41
1.0
 10
294.7431128694733
 20
1251.870724730468
 30
0.0
 41
0.7128614534290939
 10
296.7757596647377
 20
1254.144331409635
 30
0.0
 41
1.0
 10
318.3930935490496
 20
1254.450682519701
 30
0.0
 41
1.0
 10
340.0104274333613
 20
1254.757033629767
 30
0.0
 41
1.0
 10
342.1066860666538
 20
1252.541939936895
 30
0.0
 41
0.7128614534287391
 10
344.3557428772331
 20
1254.601717543493
 30
0.0
 41
1.0
 10
346.6047996878129
 20
1256.661495150091
 30
0.0
 41
0.7128614534287391
 10
344.5820532916741
 20
1258.94391433656
 30
0.0
 41
1.0
 10
344.5093843469085
 20
1264.071719623973
 30
0.0
 41
1.0
 10
344.4367154021427
 20
1269.199524911387
 30
0.0
 41
1.0
 10
346.3939716517286
 20
1271.538346901041
 30
0.0
 41
0.7128614534288935
 10
344.0874492716447
 20
1273.533564893144
 30
0.0
 41
1.0
 10
341.7809268915608
 20
1275.528782885247
 30
0.0
 41
0.7128614534288935
 10
339.7482800962963
 20
1273.255176206081
 30
0.0
 41
1.0
 10
318.1309462119816
 20
1272.948825096019
 30
0.0
 41
1.0
 10
296.5136123276665
 20
1272.642473985957
 30
0.0
 41
1.0
  0
SPLINE
  5
1F1
330
1F
100
AcDbEntity
  8
Default
100
AcDbSpline
210
0.0
220
0.0
230
1.0
 70
    15
 71
     3
 72
    32
 73
    28
 74
     0
 42
0.000000001
 43
0.0000000001
 40
0.5678970663030043
 40
0.5678970663030043
 40
0.5678970663030043
 40
0.5678970663030043
 40
3.332768684451266
 40
3.332768684451266
 40
3.332768684451266
 40
6.097640302599527
 40
6.097640302599527
 40
6.097640302599527
 40
6.395166728601851
 40
6.395166728601851
 40
6.395166728601851
 40
9.537473564443108
 40
9.537473564443108
 40
9.537473564443108
 40
12.67978040028436
 40
12.67978040028436
 40
12.67978040028436
 40
51.7449639357576
 40
51.7449639357576
 40
51.7449639357576
 40
53.67550432116337
 40
53.67550432116337
 40
53.67550432116337
 40
55.60604470656913
 40
55.60604470656913
 40
55.60604470656913
 40
56.17394177287213
 40
56.17394177287213
 40
56.17394177287213
 40
56.17394177287213
 10
808.9902938989585
 20
1473.611878504604
 30
0.0
 41
1.0
 10
808.6539382706002
 20
1474.540831698362
 30
0.0
 41
0.8726539420826978
 10
807.8357618695684
 20
1475.094615520548
 30
0.0
 41
0.8726539420826978
 10
806.8483393139209
 20
1475.061663411081
 30
0.0
 41
1.0
 10
805.8609167582734
 20
1475.028711301615
 30
0.0
 41
0.8726539420826978
 10
805.0814811578906
 20
1474.421612224219
 30
0.0
 41
0.8726539420826978
 10
804.8078066661005
 20
1473.472301201706
 30
0.0
 41
1.0
 10
800.7867377181636
 20
1459.524179658867
 30
0.0
 41
1.0
 10
794.6173399943306
 20
1446.207210760346
 30
0.0
 41
1.0
 10
786.3277044114101
 20
1434.290990726577
 30
0.0
 41
1.0
 10
785.6723517445492
 20
1433.348931633598
 30
0.0
 41
0.8370955141581012
 10
785.7941719737735
 20
1432.207825904764
 30
0.0
 41
0.8370955141581012
 10
786.6336299136614
 20
1431.425347266216
 30
0.0
 41
1.0
 10
787.4730878535493
 20
1430.642868627669
 30
0.0
 41
0.8370955141581012
 10
788.6199291118518
 20
1430.601424920291
 30
0.0
 41
0.8370955141581012
 10
789.51367693199
 20
1431.321270241609
 30
0.0
 41
1.0
 10
799.6942289195551
 20
1439.520924049493
 30
0.0
 41
1.0
 10
809.5533311358669
 20
1448.105894373383
 30
0.0
 41
1.0
 10
819.0672131008789
 20
1457.005048500005
 30
0.0
 41
1.0
 10
819.5529116560203
 20
1457.459364237505
 30
0.0
 41
0.9368529876232069
 10
819.7996037696887
 20
1458.076979714043
 30
0.0
 41
0.9368529876232069
 10
819.7605558320114
 20
1458.740893213206
 30
0.0
 41
1.0
 10
819.7215078943343
 20
1459.404806712367
 30
0.0
 41
0.9368529876232069
 10
819.404117187123
 20
1459.989245772306
 30
0.0
 41
0.9368529876232069
 10
818.8685105351273
 20
1460.383493651369
 30
0.0
 41
1.0
 10
814.4088022603921
 20
1463.666184529877
 30
0.0
 41
1.0
 10
810.8826407304538
 20
1468.385560035056
 30
0.0
 41
1.0
 10
808.9902938989585
 20
1473.611878504604
 30
0.0
 41
1.0
  0
SPLINE
  5
1F2
330
1F
100
AcDbEntity
  8
Default
100
AcDbSpline
210
0.0
220
0.0
230
1.0
 70
    12
 71
     3
 72
     8
 73
     4
 74
     0
 42
0.000000001
 43
0.0000000001
 40
1769.237575249239
 40
1769.237575249239
 40
1769.237575249239
 40
1769.237575249239
 40
1769.31754770291
 40
1769.31754770291
 40
1769.31754770291
 40
1769.31754770291
 10
751.0162850735913
 20
1322.311707714814
 30
0.0
 41
1.0
 10
751.8404545959496
 20
1322.679144050135
 30
0.0
 41
1.0
 10
752.6641062581466
 20
1323.047736779899
 30
0.0
 41
1.0
 10
753.4872342452679
 20
1323.417490035989
 30
0.0
 41
1.0
  0
ARC
  5
1F3
330
1F
100
AcDbEntity
  8
Default
100
AcDbCircle
 10
666.466613089415
 20
1517.138863816952
 30
0.0
 40
212.3689223166473
100
AcDbArc
 50
294.1898573295873
 51
297.6948964510346
  0
ARC
  5
1F4
330
1F
100
AcDbEntity
  8
Default
100
AcDbCircle
 10
812.3494612817773
 20
1504.65966669855
 30
0.0
 40
2.19999999999992
100
AcDbArc
 50
176.7417487085721
 51
322.2697220936822
  0
SPLINE
  5
1F5
330
1F
100
AcDbEntity
  8
Default
100
AcDbSpline
210
0.0
220
0.0
230
1.0
 70
    12
 71
     3
 72
    10
 73
     6
 74
     0
 42
0.000000001
 43
0.0000000001
 40
-477.1400717225298
 40
-477.1400717225298
 40
-477.1400717225298
 40
-477.1400717225298
 40
-477.117655303963
 40
-476.1176551810441
 40
-475.6370416385046
 40
-475.6370416385046
 40
-475.6370416385046
 40
-475.6370416385046
 10
810.153017591125
 20
1504.78470714718
 30
0.0
 41
1.0
 10
810.2148234739876
 20
1505.870380966302
 30
0.0
 41
1.0
 10
812.4507364544497
 20
1555.379584194965
 30
0.0
 41
1.0
 10
787.493413436776
 20
1631.40407023232
 30
0.0
 41
1.0
 10
712.0501065601628
 20
1668.286774863142
 30
0.0
 41
1.0
 10
690.5515860988279
 20
1674.748557328629
 30
0.0
 41
1.0
  0
SPLINE
  5
1F6
330
1F
100
AcDbEntity
  8
Default
100
AcDbSpline
210
0.0
220
0.0
230
1.0
 70
     8
 71
     3
 72
    22
 73
    18
 74
     0
 42
0.000000001
 43
0.0000000001
 40
1782.309104624297
 40
1782.309104624297
 40
1782.309104624297
 40
1782.309104624297
 40
1782.547413975705
 40
1782.547413975705
 40
1782.547413975705
 40
1782.671504044965
 40
1783.671504064098
 40
1784.671504083231
 40
1784.841991785437
 40
1784.841991785437
 40
1784.841991785437
 40
1809.646233919414
 40
1839.734056454244
 40
1870.114122300764
 40
1901.150951064901
 40
1927.355879762049
 40
1939.194198642943
 40
1939.194198642943
 40
1939.194198642943
 40
1939.194198642943
 10
765.1678684537789
 20
1329.099981254241
 30
0.0
 10
767.5487796626862
 20
1330.349717071625
 30
0.0
 10
769.923332810838
 20
1331.611388505633
 30
0.0
 10
772.2908961806376
 20
1332.885889008049
 30
0.0
 10
773.5237101713554
 20
1333.549534201499
 30
0.0
 10
784.6741883630061
 20
1339.592782391925
 30
0.0
 10
805.4364890126793
 20
1351.571065376802
 30
0.0
 10
826.1752777400769
 20
1364.623200471168
 30
0.0
 10
837.0609136080678
 20
1372.099544555659
 30
0.0
 10
838.6401527556206
 20
1373.197585662181
 30
0.0
 10
845.4081026070327
 20
1377.946902813968
 30
0.0
 10
859.5334000648505
 20
1389.650774463115
 30
0.0
 10
878.8619196534241
 20
1410.794902791895
 30
0.0
 10
892.4486329930556
 20
1438.681819238139
 30
0.0
 10
895.2332969231821
 20
1468.664294734879
 30
0.0
 10
886.8491488418944
 20
1491.00589816466
 30
0.0
 10
878.6780871945672
 20
1500.810689602522
 30
0.0
 10
875.8827875501386
 20
1503.596018087138
 30
0.0
  0
ARC
  5
1F7
330
1F
100
AcDbEntity
  8
Default
100
AcDbCircle
 10
264.7384428288247
 20
2284.181596482789
 30
0.0
 40
1008.328331903685
100
AcDbArc
 50
308.0376593657567
 51
308.0404362379106
  0
SPLINE
  5
1F8
330
1F
100
AcDbEntity
  8
Default
100
AcDbSpline
210
0.0
220
0.0
230
1.0
 70
    12
 71
     3
 72
    11
 73
     7
 74
     0
 42
0.000000001
 43
0.0000000001
 40
-485.6853587657683
 40
-485.6853587657683
 40
-485.6853587657683
 40
-485.6853587657683
 40
-485.6676816601768
 40
-484.667681544853
 40
-483.6676814295301
 40
-482.7279448224585
 40
-482.7279448224585
 40
-482.7279448224585
 40
-482.7279448224585
 10
886.0494743850293
 20
1490.016231469789
 30
0.0
 41
1.0
 10
885.9685456214053
 20
1490.169102656453
 30
0.0
 41
1.0
 10
881.2680375460291
 20
1498.948326420046
 30
0.0
 41
1.0
 10
867.2285269481082
 20
1513.839167139125
 30
0.0
 41
1.0
 10
837.5162401039266
 20
1520.351178138691
 30
0.0
 41
1.0
 10
819.6787352205853
 20
1510.537192221337
 30
0.0
 41
1.0
 10
814.0894418572015
 20
1503.313387530938
 30
0.0
 41
1.0
  0
ARC
  5
1F9
330
1F
100
AcDbEntity
  8
Default
100
AcDbCircle
 10
17.29788643185006
 20
1636.823431805828
 30
0.0
 40
2.3
100
AcDbArc
 50
232.7742415561047
 51
310.7104681826499
  0
SPLINE
  5
1FA
330
1F
100
AcDbEntity
  8
Default
100
AcDbSpline
210
0.0
220
0.0
230
1.0
 70
     8
 71
     3
 72
    13
 73
     9
 74
     0
 42
0.000000001
 43
0.0000000001
 40
1264.629463499435
 40
1264.629463499435
 40
1264.629463499435
 40
1264.629463499435
 40
1269.017342184506
 40
1299.365950072833
 40
1372.317362939785
 40
1428.775504395219
 40
1500.336569043615
 40
1558.513119953932
 40
1558.513119953932
 40
1558.513119953932
 40
1558.513119953932
 10
15.90648498815403
 20
1634.992038341145
 30
0.0
 10
14.73873115130881
 20
1635.879239483776
 30
0.0
 10
5.316497755398856
 20
1642.681118376014
 30
0.0
 10
-28.05802436060735
 20
1658.101438086378
 30
0.0
 10
-92.64850411617321
 20
1648.524429239553
 30
0.0
 10
-146.2054928687022
 20
1600.926573283719
 30
0.0
 10
-168.1398294503376
 20
1540.524978887526
 30
0.0
 10
-166.7119654468628
 20
1497.870102945259
 30
0.0
 10
-163.1631514583194
 20
1479.00952685519
 30
0.0
  0
SPLINE
  5
1FB
330
1F
100
AcDbEntity
  8
Default
100
AcDbSpline
210
0.0
220
0.0
230
1.0
 70
     8
 71
     3
 72
     8
 73
     4
 74
     0
 42
0.000000001
 43
0.0000000001
 40
1558.513119953932
 40
1558.513119953932
 40
1558.513119953932
 40
1558.513119953932
 40
1666.435636521381
 40
1666.435636521381
 40
1666.435636521381
 40
1666.435636521381
 10
-163.1631514583194
 20
1479.00952685519
 30
0.0
 10
-155.5002863476143
 20
1427.149719521168
 30
0.0
 10
-169.3389459131194
 20
1383.887953964374
 30
0.0
 10
-182.0478725055531
 20
1360.733952126401
 30
0.0
  0
ARC
  5
1FC
330
1F
100
AcDbEntity
  8
Default
100
AcDbCircle
 10
-177.6647346291498
 20
1358.328104592487
 30
0.0
 40
5.0
100
AcDbArc
 50
151.2381877649624
 51
244.9644974845078
  0
SPLINE
  5
1FD
330
1F
100
AcDbEntity
  8
Default
100
AcDbSpline
210
0.0
220
0.0
230
1.0
 70
     8
 71
     3
 72
     8
 73
     4
 74
     0
 42
0.000000001
 43
0.0000000001
 40
1674.614800023131
 40
1674.614800023131
 40
1674.614800023131
 40
1674.614800023131
 40
1919.223057612807
 40
1919.223057612807
 40
1919.223057612807
 40
1919.223057612807
 10
-179.7806334357139
 20
1353.797875874157
 30
0.0
 10
-105.8630441986503
 20
1319.273760520429
 30
0.0
 10
-29.04423710030359
 20
1290.51936297363
 30
0.0
 10
49.26610626580644
 20
1267.701887593983
 30
0.0
  0
ENDSEC
  0
SECTION
  2
OBJECTS
  0
DICTIONARY
  5
C
330
0
100
AcDbDictionary
281
     1
  3
ACAD_DETAILVIEWSTYLE
350
243
  3
ACAD_GROUP
350
D
  3
ACAD_LAYOUT
350
1A
  3
ACAD_MATERIAL
350
43
  3
ACAD_MLEADERSTYLE
350
6B
  3
ACAD_MLINESTYLE
350
17
  3
ACAD_PLOTSETTINGS
350
19
  3
ACAD_PLOTSTYLENAME
350
E
  3
ACAD_SCALELIST
350
47
  3
ACAD_SECTIONVIEWSTYLE
350
244
  3
ACAD_TABLESTYLE
350
69
  3
ACAD_VISUALSTYLE
350
2A
  3
ACDB_RECOMPOSE_DATA
350
240
  3
AcDbVariableDictionary
350
200
  0
DICTIONARY
  5
1FE
330
8
100
AcDbDictionary
280
     1
281
     1
  3
ACAD_XREC_ROUNDTRIP
360
1FF
  0
DICTIONARY
  5
243
102
{ACAD_REACTORS
330
C
102
}
330
C
100
AcDbDictionary
281
     1
  0
DICTIONARY
  5
D
102
{ACAD_REACTORS
330
C
102
}
330
C
100
AcDbDictionary
281
     1
  0
DICTIONARY
  5
1A
102
{ACAD_REACTORS
330
C
102
}
330
C
100
AcDbDictionary
281
     1
  3
Layout1
350
1E
  3
Layout2
350
26
  3
Model
350
22
  0
DICTIONARY
  5
43
102
{ACAD_REACTORS
330
C
102
}
330
C
100
AcDbDictionary
281
     1
  3
ByBlock
350
45
  3
ByLayer
350
44
  3
Global
350
46
  0
DICTIONARY
  5
6B
102
{ACAD_REACTORS
330
C
102
}
330
C
100
AcDbDictionary
281
     1
  3
Standard
350
6C
  0
DICTIONARY
  5
17
102
{ACAD_REACTORS
330
C
102
}
330
C
100
AcDbDictionary
281
     1
  3
Standard
350
18
  0
DICTIONARY
  5
19
102
{ACAD_REACTORS
330
C
102
}
330
C
100
AcDbDictionary
281
     1
  0
ACDBDICTIONARYWDFLT
  5
E
102
{ACAD_REACTORS
330
C
102
}
330
C
100
AcDbDictionary
281
     1
  3
Normal
350
F
100
AcDbDictionaryWithDefault
340
F
  0
DICTIONARY
  5
47
102
{ACAD_REACTORS
330
C
102
}
330
C
100
AcDbDictionary
281
     1
  3
A0
350
48
  3
A1
350
49
  3
A2
350
4A
  3
A3
350
4B
  3
A4
350
4C
  3
A5
350
4D
  3
A6
350
4E
  3
A7
350
4F
  3
A8
350
50
  3
A9
350
51
  3
B0
350
52
  3
B1
350
53
  3
B2
350
54
  3
B3
350
55
  3
B4
350
56
  3
B5
350
57
  3
B6
350
58
  3
B7
350
59
  3
B8
350
5A
  3
B9
350
5B
  3
C0
350
5C
  3
C1
350
5D
  3
C2
350
5E
  3
C3
350
5F
  3
C4
350
60
  3
C5
350
61
  3
C6
350
62
  3
C7
350
63
  3
C8
350
64
  3
C9
350
65
  3
D0
350
66
  3
D1
350
67
  3
D2
350
68
  0
DICTIONARY
  5
244
102
{ACAD_REACTORS
330
C
102
}
330
C
100
AcDbDictionary
281
     1
  0
DICTIONARY
  5
69
102
{ACAD_REACTORS
330
C
102
}
330
C
100
AcDbDictionary
281
     1
  3
Standard
350
6A
  0
DICTIONARY
  5
2A
102
{ACAD_REACTORS
330
C
102
}
330
C
100
AcDbDictionary
281
     1
  3
2dWireframe
350
2F
  3
Basic
350
32
  3
Brighten
350
36
  3
ColorChange
350
3A
  3
Conceptual
350
34
  3
Dim
350
35
  3
EdgeColorOff
350
3D
  3
Facepattern
350
39
  3
Flat
350
2B
  3
FlatWithEdges
350
2C
  3
Gouraud
350
2D
  3
GouraudWithEdges
350
2E
  3
Hidden
350
31
  3
JitterOff
350
3B
  3
Linepattern
350
38
  3
OverhangOff
350
3C
  3
Realistic
350
33
  3
Shaded
350
42
  3
Shaded with edges
350
41
  3
Shades of Gray
350
3E
  3
Sketchy
350
3F
  3
Thicken
350
37
  3
Wireframe
350
30
  3
X-Ray
350
40
  0
XRECORD
  5
240
102
{ACAD_REACTORS
330
C
102
}
330
C
100
AcDbXrecord
280
     1
 90
        1
330
6A
  0
DICTIONARY
  5
200
102
{ACAD_REACTORS
330
C
102
}
330
C
100
AcDbDictionary
281
     1
  3
CANNOSCALE
350
201
  3
CMLEADERSTYLE
350
242
  3
CTABLESTYLE
350
241
  3
MSLTSCALE
350
202
  3
XCLIPFRAME
350
203
  0
XRECORD
  5
1FF
102
{ACAD_REACTORS
330
1FE
102
}
330
1FE
100
AcDbXrecord
280
     1
102
VTR_0.000_0.000_1.000_1.000_GRIDDISPLAY
 70
     3
102
VTR_0.000_0.000_1.000_1.000_GRIDMAJOR
 70
     5
102
VTR_0.000_0.000_1.000_1.000_DEFAULTLIGHTING
280
     1
102
VTR_0.000_0.000_1.000_1.000_DEFAULTLIGHTINGTYPE
 70
     1
102
VTR_0.000_0.000_1.000_1.000_BRIGHTNESS
141
0.0
102
VTR_0.000_0.000_1.000_1.000_CONTRAST
142
0.0
  0
LAYOUT
  5
1E
102
{ACAD_REACTORS
330
1A
102
}
330
1A
100
AcDbPlotSettings
  1

  2
none_device
  4

  6

 40
0.0
 41
0.0
 42
0.0
 43
0.0
 44
0.0
 45
0.0
 46
0.0
 47
0.0
 48
0.0
 49
0.0
140
0.0
141
0.0
142
1.0
143
1.0
 70
   688
 72
     0
 73
     0
 74
     5
  7

 75
    16
 76
     0
 77
     2
 78
   300
147
1.0
148
0.0
149
0.0
100
AcDbLayout
  1
Layout1
 70
     1
 71
     1
 10
0.0
 20
0.0
 11
12.0
 21
9.0
 12
0.0
 22
0.0
 32
0.0
 14
1.000000000000000E+20
 24
1.000000000000000E+20
 34
1.000000000000000E+20
 15
-1.000000000000000E+20
 25
-1.000000000000000E+20
 35
-1.000000000000000E+20
146
0.0
 13
0.0
 23
0.0
 33
0.0
 16
1.0
 26
0.0
 36
0.0
 17
0.0
 27
1.0
 37
0.0
 76
     0
330
1B
  0
LAYOUT
  5
26
102
{ACAD_REACTORS
330
1A
102
}
330
1A
100
AcDbPlotSettings
  1

  2
none_device
  4

  6

 40
0.0
 41
0.0
 42
0.0
 43
0.0
 44
0.0
 45
0.0
 46
0.0
 47
0.0
 48
0.0
 49
0.0
140
0.0
141
0.0
142
1.0
143
1.0
 70
   688
 72
     0
 73
     0
 74
     5
  7

 75
    16
 76
     0
 77
     2
 78
   300
147
1.0
148
0.0
149
0.0
100
AcDbLayout
  1
Layout2
 70
     1
 71
     2
 10
0.0
 20
0.0
 11
0.0
 21
0.0
 12
0.0
 22
0.0
 32
0.0
 14
0.0
 24
0.0
 34
0.0
 15
0.0
 25
0.0
 35
0.0
146
0.0
 13
0.0
 23
0.0
 33
0.0
 16
1.0
 26
0.0
 36
0.0
 17
0.0
 27
1.0
 37
0.0
 76
     0
330
23
  0
LAYOUT
  5
22
102
{ACAD_REACTORS
330
1A
102
}
330
1A
100
AcDbPlotSettings
  1

  2
none_device
  4
Letter_(8.50_x_11.00_Inches)
  6

 40
6.35
 41
6.35
 42
6.35000508
 43
6.35000508
 44
215.9
 45
279.4
 46
0.0
 47
0.0
 48
0.0
 49
0.0
140
0.0
141
0.0
142
1.0
143
1.0
 70
  1712
 72
     0
 73
     0
 74
     0
  7

 75
     0
 76
     0
 77
     2
 78
   300
147
1.0
148
0.0
149
0.0
100
AcDbLayout
  1
Model
 70
     1
 71
     0
 10
0.0
 20
0.0
 11
12.0
 21
9.0
 12
0.0
 22
0.0
 32
0.0
 14
-232.3701714911335
 24
19.0
 34
0.0
 15
893.563398218212
 25
2206.819566373463
 35
0.0
146
0.0
 13
0.0
 23
0.0
 33
0.0
 16
1.0
 26
0.0
 36
0.0
 17
0.0
 27
1.0
 37
0.0
 76
     0
330
1F
331
29
  0
MATERIAL
  5
45
102
{ACAD_REACTORS
330
43
102
}
102
{ACAD_XDICTIONARY
360
236
102
}
330
43
100
AcDbMaterial
  1
ByBlock
  0
MATERIAL
  5
44
102
{ACAD_REACTORS
330
43
102
}
102
{ACAD_XDICTIONARY
360
234
102
}
330
43
100
AcDbMaterial
  1
ByLayer
  0
MATERIAL
  5
46
102
{ACAD_REACTORS
330
43
102
}
102
{ACAD_XDICTIONARY
360
238
102
}
330
43
100
AcDbMaterial
  1
Global
  0
MLEADERSTYLE
  5
6C
102
{ACAD_REACTORS
330
6B
102
}
102
{ACAD_XDICTIONARY
360
23E
102
}
330
6B
100
AcDbMLeaderStyle
170
     2
171
     1
172
     0
 90
        2
 40
0.0
 41
0.0
173
     1
 91
-1056964608
340
14
 92
       -2
290
     1
 42
0.09
291
     1
 43
0.36
  3
Standard
341
0
 44
0.18
300

342
11
174
     1
178
     6
175
     1
176
     0
 93
-1056964608
 45
0.18
292
     0
297
     0
 46
0.18
343
0
 94
-1056964608
 47
1.0
 49
1.0
140
1.0
293
     1
141
0.0
294
     1
177
     0
142
1.0
295
     0
296
     0
143
0.125
1001
ACAD_MLEADERVER
1070
     2
  0
MLINESTYLE
  5
18
102
{ACAD_REACTORS
330
17
102
}
330
17
100
AcDbMlineStyle
  2
Standard
 70
     0
  3

 62
   256
 51
90.0
 52
90.0
 71
     2
 49
0.5
 62
   256
  6
BYLAYER
 49
-0.5
 62
   256
  6
BYLAYER
  0
ACDBPLACEHOLDER
  5
F
102
{ACAD_REACTORS
330
E
102
}
330
E
  0
SCALE
  5
48
102
{ACAD_REACTORS
330
47
102
}
330
47
100
AcDbScale
 70
     0
300
1:1
140
1.0
141
1.0
290
     1
  0
SCALE
  5
49
102
{ACAD_REACTORS
330
47
102
}
330
47
100
AcDbScale
 70
     0
300
1:2
140
1.0
141
2.0
290
     0
  0
SCALE
  5
4A
102
{ACAD_REACTORS
330
47
102
}
330
47
100
AcDbScale
 70
     0
300
1:4
140
1.0
141
4.0
290
     0
  0
SCALE
  5
4B
102
{ACAD_REACTORS
330
47
102
}
330
47
100
AcDbScale
 70
     0
300
1:5
140
1.0
141
5.0
290
     0
  0
SCALE
  5
4C
102
{ACAD_REACTORS
330
47
102
}
330
47
100
AcDbScale
 70
     0
300
1:8
140
1.0
141
8.0
290
     0
  0
SCALE
  5
4D
102
{ACAD_REACTORS
330
47
102
}
330
47
100
AcDbScale
 70
     0
300
1:10
140
1.0
141
10.0
290
     0
  0
SCALE
  5
4E
102
{ACAD_REACTORS
330
47
102
}
330
47
100
AcDbScale
 70
     0
300
1:16
140
1.0
141
16.0
290
     0
  0
SCALE
  5
4F
102
{ACAD_REACTORS
330
47
102
}
330
47
100
AcDbScale
 70
     0
300
1:20
140
1.0
141
20.0
290
     0
  0
SCALE
  5
50
102
{ACAD_REACTORS
330
47
102
}
330
47
100
AcDbScale
 70
     0
300
1:30
140
1.0
141
30.0
290
     0
  0
SCALE
  5
51
102
{ACAD_REACTORS
330
47
102
}
330
47
100
AcDbScale
 70
     0
300
1:40
140
1.0
141
40.0
290
     0
  0
SCALE
  5
52
102
{ACAD_REACTORS
330
47
102
}
330
47
100
AcDbScale
 70
     0
300
1:50
140
1.0
141
50.0
290
     0
  0
SCALE
  5
53
102
{ACAD_REACTORS
330
47
102
}
330
47
100
AcDbScale
 70
     0
300
1:100
140
1.0
141
100.0
290
     0
  0
SCALE
  5
54
102
{ACAD_REACTORS
330
47
102
}
330
47
100
AcDbScale
 70
     0
300
2:1
140
2.0
141
1.0
290
     0
  0
SCALE
  5
55
102
{ACAD_REACTORS
330
47
102
}
330
47
100
AcDbScale
 70
     0
300
4:1
140
4.0
141
1.0
290
     0
  0
SCALE
  5
56
102
{ACAD_REACTORS
330
47
102
}
330
47
100
AcDbScale
 70
     0
300
8:1
140
8.0
141
1.0
290
     0
  0
SCALE
  5
57
102
{ACAD_REACTORS
330
47
102
}
330
47
100
AcDbScale
 70
     0
300
10:1
140
10.0
141
1.0
290
     0
  0
SCALE
  5
58
102
{ACAD_REACTORS
330
47
102
}
330
47
100
AcDbScale
 70
     0
300
100:1
140
100.0
141
1.0
290
     0
  0
SCALE
  5
59
102
{ACAD_REACTORS
330
47
102
}
330
47
100
AcDbScale
 70
     0
300
1/128" = 1'-0"
140
0.0078125
141
12.0
290
     0
  0
SCALE
  5
5A
102
{ACAD_REACTORS
330
47
102
}
330
47
100
AcDbScale
 70
     0
300
1/64" = 1'-0"
140
0.015625
141
12.0
290
     0
  0
SCALE
  5
5B
102
{ACAD_REACTORS
330
47
102
}
330
47
100
AcDbScale
 70
     0
300
1/32" = 1'-0"
140
0.03125
141
12.0
290
     0
  0
SCALE
  5
5C
102
{ACAD_REACTORS
330
47
102
}
330
47
100
AcDbScale
 70
     0
300
1/16" = 1'-0"
140
0.0625
141
12.0
290
     0
  0
SCALE
  5
5D
102
{ACAD_REACTORS
330
47
102
}
330
47
100
AcDbScale
 70
     0
300
3/32" = 1'-0"
140
0.09375
141
12.0
290
     0
  0
SCALE
  5
5E
102
{ACAD_REACTORS
330
47
102
}
330
47
100
AcDbScale
 70
     0
300
1/8" = 1'-0"
140
0.125
141
12.0
290
     0
  0
SCALE
  5
5F
102
{ACAD_REACTORS
330
47
102
}
330
47
100
AcDbScale
 70
     0
300
3/16" = 1'-0"
140
0.1875
141
12.0
290
     0
  0
SCALE
  5
60
102
{ACAD_REACTORS
330
47
102
}
330
47
100
AcDbScale
 70
     0
300
1/4" = 1'-0"
140
0.25
141
12.0
290
     0
  0
SCALE
  5
61
102
{ACAD_REACTORS
330
47
102
}
330
47
100
AcDbScale
 70
     0
300
3/8" = 1'-0"
140
0.375
141
12.0
290
     0
  0
SCALE
  5
62
102
{ACAD_REACTORS
330
47
102
}
330
47
100
AcDbScale
 70
     0
300
1/2" = 1'-0"
140
0.5
141
12.0
290
     0
  0
SCALE
  5
63
102
{ACAD_REACTORS
330
47
102
}
330
47
100
AcDbScale
 70
     0
300
3/4" = 1'-0"
140
0.75
141
12.0
290
     0
  0
SCALE
  5
64
102
{ACAD_REACTORS
330
47
102
}
330
47
100
AcDbScale
 70
     0
300
1" = 1'-0"
140
1.0
141
12.0
290
     0
  0
SCALE
  5
65
102
{ACAD_REACTORS
330
47
102
}
330
47
100
AcDbScale
 70
     0
300
1-1/2" = 1'-0"
140
1.5
141
12.0
290
     0
  0
SCALE
  5
66
102
{ACAD_REACTORS
330
47
102
}
330
47
100
AcDbScale
 70
     0
300
3" = 1'-0"
140
3.0
141
12.0
290
     0
  0
SCALE
  5
67
102
{ACAD_REACTORS
330
47
102
}
330
47
100
AcDbScale
 70
     0
300
6" = 1'-0"
140
6.0
141
12.0
290
     0
  0
SCALE
  5
68
102
{ACAD_REACTORS
330
47
102
}
330
47
100
AcDbScale
 70
     0
300
1'-0" = 1'-0"
140
12.0
141
12.0
290
     0
  0
TABLESTYLE
  5
6A
102
{ACAD_REACTORS
330
69
102
}
102
{ACAD_XDICTIONARY
360
23A
102
}
330
69
100
AcDbTableStyle
  3
Standard
 70
     0
 71
     0
 40
0.06
 41
0.06
280
     0
281
     0
  7
Standard
140
0.18
170
     2
 62
     0
 63
   257
283
     0
274
    -2
284
     1
 64
     0
275
    -2
285
     1
 65
     0
276
    -2
286
     1
 66
     0
277
    -2
287
     1
 67
     0
278
    -2
288
     1
 68
     0
279
    -2
289
     1
 69
     0
  7
Standard
140
0.25
170
     5
 62
     0
 63
   257
283
     0
274
    -2
284
     1
 64
     0
275
    -2
285
     1
 65
     0
276
    -2
286
     1
 66
     0
277
    -2
287
     1
 67
     0
278
    -2
288
     1
 68
     0
279
    -2
289
     1
 69
     0
  7
Standard
140
0.18
170
     5
 62
     0
 63
   257
283
     0
274
    -2
284
     1
 64
     0
275
    -2
285
     1
 65
     0
276
    -2
286
     1
 66
     0
277
    -2
287
     1
 67
     0
278
    -2
288
     1
 68
     0
279
    -2
289
     1
 69
     0
  0
VISUALSTYLE
  5
2F
102
{ACAD_REACTORS
330
2A
102
}
102
{ACAD_XDICTIONARY
360
20C
102
}
330
2A
100
AcDbVisualStyle
  2
2dWireframe
 70
     4
 71
     0
 72
     2
 73
     0
 90
        0
 40
0.6
 41
30.0
 62
     5
 63
     7
421
 16777215
 74
     1
 91
        4
 64
     7
 65
   257
 75
     1
175
     1
 42
1.0
 92
        0
 66
   257
 43
1.0
 76
     1
 77
     6
 78
     2
 67
     7
 79
     5
170
     0
171
     0
290
     0
174
     0
 93
        1
 44
0.0
173
     0
291
     0
 45
0.0
1001
ACAD
1000
AcDbSavedByObjectVersion
1070
     0
  0
VISUALSTYLE
  5
32
102
{ACAD_REACTORS
330
2A
102
}
102
{ACAD_XDICTIONARY
360
212
102
}
330
2A
100
AcDbVisualStyle
  2
Basic
 70
     7
 71
     1
 72
     0
 73
     1
 90
        0
 40
0.6
 41
30.0
 62
     5
 63
     7
421
 16777215
 74
     0
 91
        4
 64
     7
 65
   257
 75
     1
175
     1
 42
1.0
 92
        8
 66
     7
 43
1.0
 76
     1
 77
     6
 78
     2
 67
     7
 79
     5
170
     0
171
     0
290
     0
174
     0
 93
        1
 44
0.0
173
     0
291
     1
 45
0.0
1001
ACAD
1000
AcDbSavedByObjectVersion
1070
     0
  0
VISUALSTYLE
  5
36
102
{ACAD_REACTORS
330
2A
102
}
102
{ACAD_XDICTIONARY
360
21A
102
}
330
2A
100
AcDbVisualStyle
  2
Brighten
 70
    12
 71
     2
 72
     2
 73
     0
 90
        0
 40
0.6
 41
30.0
 62
     5
 63
     7
421
 16777215
 74
     1
 91
        4
 64
     7
 65
   257
 75
     1
175
     1
 42
1.0
 92
        8
 66
     7
 43
1.0
 76
     1
 77
     6
 78
     2
 67
     7
 79
     5
170
     0
171
     0
290
     0
174
     0
 93
        1
 44
50.0
173
     0
291
     1
 45
0.0
1001
ACAD
1000
AcDbSavedByObjectVersion
1070
     0
  0
VISUALSTYLE
  5
3A
102
{ACAD_REACTORS
330
2A
102
}
102
{ACAD_XDICTIONARY
360
222
102
}
330
2A
100
AcDbVisualStyle
  2
ColorChange
 70
    16
 71
     2
 72
     2
 73
     3
 90
        0
 40
0.6
 41
30.0
 62
     5
 63
     8
421
  8421504
 74
     1
 91
        4
 64
     7
 65
   257
 75
     1
175
     1
 42
1.0
 92
        8
 66
     8
424
  8421504
 43
1.0
 76
     1
 77
     6
 78
     2
 67
     7
 79
     5
170
     0
171
     0
290
     0
174
     0
 93
        1
 44
0.0
173
     0
291
     1
 45
0.0
1001
ACAD
1000
AcDbSavedByObjectVersion
1070
     0
  0
VISUALSTYLE
  5
34
102
{ACAD_REACTORS
330
2A
102
}
102
{ACAD_XDICTIONARY
360
216
102
}
330
2A
100
AcDbVisualStyle
  2
Conceptual
 70
     9
 71
     3
 72
     2
 73
     0
 90
        0
 40
0.6
 41
30.0
 62
     5
 63
     7
421
 16777215
 74
     2
 91
        2
 64
     7
 65
   257
 75
     1
175
     1
 42
179.0
 92
        8
 66
     7
 43
1.0
 76
     1
 77
     6
 78
     2
 67
     7
 79
     3
170
     0
171
     0
290
     0
174
     0
 93
        1
 44
0.0
173
     0
291
     0
 45
0.0
1001
ACAD
1000
AcDbSavedByObjectVersion
1070
     0
  0
VISUALSTYLE
  5
35
102
{ACAD_REACTORS
330
2A
102
}
102
{ACAD_XDICTIONARY
360
218
102
}
330
2A
100
AcDbVisualStyle
  2
Dim
 70
    11
 71
     2
 72
     2
 73
     0
 90
        0
 40
0.6
 41
30.0
 62
     5
 63
     7
421
 16777215
 74
     1
 91
        4
 64
     7
 65
   257
 75
     1
175
     1
 42
1.0
 92
        8
 66
     7
 43
1.0
 76
     1
 77
     6
 78
     2
 67
     7
 79
     5
170
     0
171
     0
290
     0
174
     0
 93
        1
 44
-50.0
173
     0
291
     1
 45
0.0
1001
ACAD
1000
AcDbSavedByObjectVersion
1070
     0
  0
VISUALSTYLE
  5
3D
102
{ACAD_REACTORS
330
2A
102
}
102
{ACAD_XDICTIONARY
360
228
102
}
330
2A
100
AcDbVisualStyle
  2
EdgeColorOff
 70
    22
 71
     2
 72
     2
 73
     0
 90
        0
 40
0.6
 41
30.0
 62
     5
 63
     7
421
 16777215
 74
     1
 91
        4
 64
     7
 65
   257
 75
     1
175
     1
 42
1.0
 92
        8
 66
     7
 43
1.0
 76
     1
 77
     6
 78
     2
 67
     7
 79
     5
170
     0
171
     0
290
     0
174
     0
 93
        1
 44
0.0
173
     0
291
     1
 45
0.0
1001
ACAD
1000
AcDbSavedByObjectVersion
1070
     0
  0
VISUALSTYLE
  5
39
102
{ACAD_REACTORS
330
2A
102
}
102
{ACAD_XDICTIONARY
360
220
102
}
330
2A
100
AcDbVisualStyle
  2
Facepattern
 70
    15
 71
     2
 72
     2
 73
     0
 90
        0
 40
0.6
 41
30.0
 62
     5
 63
     7
421
 16777215
 74
     1
 91
        4
 64
     7
 65
   257
 75
     1
175
     1
 42
1.0
 92
        8
 66
     7
 43
1.0
 76
     1
 77
     6
 78
     2
 67
     7
 79
     5
170
     0
171
     0
290
     0
174
     0
 93
        1
 44
0.0
173
     0
291
     1
 45
0.0
1001
ACAD
1000
AcDbSavedByObjectVersion
1070
     0
  0
VISUALSTYLE
  5
2B
102
{ACAD_REACTORS
330
2A
102
}
102
{ACAD_XDICTIONARY
360
204
102
}
330
2A
100
AcDbVisualStyle
  2
Flat
 70
     0
 71
     2
 72
     1
 73
     1
 90
        2
 40
0.6
 41
30.0
 62
     5
 63
     7
421
 16777215
 74
     0
 91
        0
 64
     7
 65
   257
 75
     1
175
     1
 42
1.0
 92
        8
 66
     7
 43
1.0
 76
     1
 77
     6
 78
     2
 67
     7
 79
     5
170
     0
171
     0
290
     0
174
     0
 93
       13
 44
0.0
173
     0
291
     1
 45
0.0
1001
ACAD
1000
AcDbSavedByObjectVersion
1070
     0
  0
VISUALSTYLE
  5
2C
102
{ACAD_REACTORS
330
2A
102
}
102
{ACAD_XDICTIONARY
360
206
102
}
330
2A
100
AcDbVisualStyle
  2
FlatWithEdges
 70
     1
 71
     2
 72
     1
 73
     1
 90
        2
 40
0.6
 41
30.0
 62
     5
 63
     7
421
 16777215
 74
     1
 91
        0
 64
     7
 65
   257
 75
     1
175
     1
 42
1.0
 92
        0
 66
   257
 43
1.0
 76
     1
 77
     6
 78
     2
 67
     7
 79
     5
170
     0
171
     0
290
     0
174
     0
 93
       13
 44
0.0
173
     0
291
     1
 45
0.0
1001
ACAD
1000
AcDbSavedByObjectVersion
1070
     0
  0
VISUALSTYLE
  5
2D
102
{ACAD_REACTORS
330
2A
102
}
102
{ACAD_XDICTIONARY
360
208
102
}
330
2A
100
AcDbVisualStyle
  2
Gouraud
 70
     2
 71
     2
 72
     2
 73
     1
 90
        2
 40
0.6
 41
30.0
 62
     5
 63
     7
421
 16777215
 74
     0
 91
        0
 64
     7
 65
   257
 75
     1
175
     1
 42
1.0
 92
        0
 66
     7
 43
1.0
 76
     1
 77
     6
 78
     2
 67
     7
 79
     5
170
     0
171
     0
290
     0
174
     0
 93
       13
 44
0.0
173
     0
291
     1
 45
0.0
1001
ACAD
1000
AcDbSavedByObjectVersion
1070
     0
  0
VISUALSTYLE
  5
2E
102
{ACAD_REACTORS
330
2A
102
}
102
{ACAD_XDICTIONARY
360
20A
102
}
330
2A
100
AcDbVisualStyle
  2
GouraudWithEdges
 70
     3
 71
     2
 72
     2
 73
     1
 90
        2
 40
0.6
 41
30.0
 62
     5
 63
     7
421
 16777215
 74
     1
 91
        0
 64
     7
 65
   257
 75
     1
175
     1
 42
1.0
 92
        0
 66
   257
 43
1.0
 76
     1
 77
     6
 78
     2
 67
     7
 79
     5
170
     0
171
     0
290
     0
174
     0
 93
       13
 44
0.0
173
     0
291
     1
 45
0.0
1001
ACAD
1000
AcDbSavedByObjectVersion
1070
     0
  0
VISUALSTYLE
  5
31
102
{ACAD_REACTORS
330
2A
102
}
102
{ACAD_XDICTIONARY
360
210
102
}
330
2A
100
AcDbVisualStyle
  2
Hidden
 70
     6
 71
     1
 72
     2
 73
     2
 90
        0
 40
0.6
 41
30.0
 62
     5
 63
     7
421
 16777215
 74
     2
 91
        2
 64
     7
 65
   257
 75
     2
175
     1
 42
40.0
 92
        0
 66
   257
 43
1.0
 76
     1
 77
     6
 78
     2
 67
     7
 79
     3
170
     0
171
     0
290
     0
174
     0
 93
        1
 44
0.0
173
     0
291
     0
 45
0.0
1001
ACAD
1000
AcDbSavedByObjectVersion
1070
     0
  0
VISUALSTYLE
  5
3B
102
{ACAD_REACTORS
330
2A
102
}
102
{ACAD_XDICTIONARY
360
224
102
}
330
2A
100
AcDbVisualStyle
  2
JitterOff
 70
    20
 71
     2
 72
     2
 73
     0
 90
        0
 40
0.6
 41
30.0
 62
     5
 63
     7
421
 16777215
 74
     1
 91
        4
 64
     7
 65
   257
 75
     1
175
     1
 42
1.0
 92
       10
 66
     7
 43
1.0
 76
     1
 77
     6
 78
     2
 67
     7
 79
     5
170
     0
171
     0
290
     0
174
     0
 93
        1
 44
0.0
173
     0
291
     1
 45
0.0
1001
ACAD
1000
AcDbSavedByObjectVersion
1070
     0
  0
VISUALSTYLE
  5
38
102
{ACAD_REACTORS
330
2A
102
}
102
{ACAD_XDICTIONARY
360
21E
102
}
330
2A
100
AcDbVisualStyle
  2
Linepattern
 70
    14
 71
     2
 72
     2
 73
     0
 90
        0
 40
0.6
 41
30.0
 62
     5
 63
     7
421
 16777215
 74
     1
 91
        4
 64
     7
 65
   257
 75
     7
175
     7
 42
1.0
 92
        8
 66
     7
 43
1.0
 76
     1
 77
     6
 78
     2
 67
     7
 79
     5
170
     0
171
     0
290
     0
174
     0
 93
        1
 44
0.0
173
     0
291
     1
 45
0.0
1001
ACAD
1000
AcDbSavedByObjectVersion
1070
     0
  0
VISUALSTYLE
  5
3C
102
{ACAD_REACTORS
330
2A
102
}
102
{ACAD_XDICTIONARY
360
226
102
}
330
2A
100
AcDbVisualStyle
  2
OverhangOff
 70
    21
 71
     2
 72
     2
 73
     0
 90
        0
 40
0.6
 41
30.0
 62
     5
 63
     7
421
 16777215
 74
     1
 91
        4
 64
     7
 65
   257
 75
     1
175
     1
 42
1.0
 92
        9
 66
     7
 43
1.0
 76
     1
 77
     6
 78
     2
 67
     7
 79
     5
170
     0
171
     0
290
     0
174
     0
 93
        1
 44
0.0
173
     0
291
     1
 45
0.0
1001
ACAD
1000
AcDbSavedByObjectVersion
1070
     0
  0
VISUALSTYLE
  5
33
102
{ACAD_REACTORS
330
2A
102
}
102
{ACAD_XDICTIONARY
360
214
102
}
330
2A
100
AcDbVisualStyle
  2
Realistic
 70
     8
 71
     2
 72
     3
 73
     0
 90
        2
 40
0.6
 41
30.0
 62
     5
 63
     7
421
 16777215
 74
     0
 91
        0
 64
     7
 65
   257
 75
     1
175
     1
 42
1.0
 92
        8
 66
   257
 43
1.0
 76
     1
 77
     6
 78
     2
 67
     7
 79
     3
170
     0
171
     0
290
     0
174
     0
 93
       13
 44
0.0
173
     0
291
     0
 45
0.0
1001
ACAD
1000
AcDbSavedByObjectVersion
1070
     0
  0
VISUALSTYLE
  5
42
102
{ACAD_REACTORS
330
2A
102
}
102
{ACAD_XDICTIONARY
360
232
102
}
330
2A
100
AcDbVisualStyle
  2
Shaded
 70
    27
 71
     2
 72
     2
 73
     1
 90
        2
 40
0.6
 41
30.0
 62
     5
 63
     7
421
 16777215
 74
     0
 91
        4
 64
     7
 65
   257
 75
     1
175
     1
 42
1.0
 92
        8
 66
   257
 43
1.0
 76
     1
 77
     6
 78
     2
 67
     8
425
  7895160
 79
     3
170
     0
171
     0
290
     0
174
     0
 93
        5
 44
0.0
173
     0
291
     0
 45
0.0
1001
ACAD
1000
AcDbSavedByObjectVersion
1070
     0
  0
VISUALSTYLE
  5
41
102
{ACAD_REACTORS
330
2A
102
}
102
{ACAD_XDICTIONARY
360
230
102
}
330
2A
100
AcDbVisualStyle
  2
Shaded with edges
 70
    26
 71
     2
 72
     2
 73
     1
 90
        2
 40
0.6
 41
30.0
 62
     5
 63
     7
421
 16777215
 74
     1
 91
       10
 64
     7
 65
   257
 75
     2
175
     1
 42
1.0
 92
        8
 66
   257
 43
1.0
 76
     1
 77
     6
 78
     2
 67
     7
 79
     3
170
     0
171
     0
290
     0
174
     0
 93
        5
 44
0.0
173
     0
291
     0
 45
0.0
1001
ACAD
1000
AcDbSavedByObjectVersion
1070
     0
  0
VISUALSTYLE
  5
3E
102
{ACAD_REACTORS
330
2A
102
}
102
{ACAD_XDICTIONARY
360
22A
102
}
330
2A
100
AcDbVisualStyle
  2
Shades of Gray
 70
    23
 71
     2
 72
     2
 73
     3
 90
        0
 40
0.6
 41
30.0
 62
     5
 63
     7
421
 16777215
 74
     2
 91
        2
 64
     7
 65
     7
 75
     1
175
     1
 42
40.0
 92
        8
 66
     7
 43
1.0
 76
     1
 77
     6
 78
     2
 67
     7
 79
     3
170
     0
171
     0
290
     0
174
     0
 93
        1
 44
0.0
173
     0
291
     0
 45
0.0
1001
ACAD
1000
AcDbSavedByObjectVersion
1070
     0
  0
VISUALSTYLE
  5
3F
102
{ACAD_REACTORS
330
2A
102
}
102
{ACAD_XDICTIONARY
360
22C
102
}
330
2A
100
AcDbVisualStyle
  2
Sketchy
 70
    24
 71
     1
 72
     2
 73
     2
 90
        0
 40
0.6
 41
30.0
 62
     5
 63
     7
421
 16777215
 74
     2
 91
        2
 64
     7
 65
     7
 75
     1
175
     1
 42
40.0
 92
       11
 66
     7
 43
1.0
 76
     1
 77
     6
 78
     2
 67
     7
 79
     6
170
     0
171
     0
290
     0
174
     0
 93
        1
 44
0.0
173
     0
291
     0
 45
0.0
1001
ACAD
1000
AcDbSavedByObjectVersion
1070
     0
  0
VISUALSTYLE
  5
37
102
{ACAD_REACTORS
330
2A
102
}
102
{ACAD_XDICTIONARY
360
21C
102
}
330
2A
100
AcDbVisualStyle
  2
Thicken
 70
    13
 71
     2
 72
     2
 73
     0
 90
        0
 40
0.6
 41
30.0
 62
     5
 63
     7
421
 16777215
 74
     1
 91
        4
 64
     7
 65
   257
 75
     1
175
     1
 42
1.0
 92
       12
 66
     7
 43
1.0
 76
     1
 77
     6
 78
     2
 67
     7
 79
     5
170
     0
171
     0
290
     0
174
     0
 93
        1
 44
0.0
173
     0
291
     1
 45
0.0
1001
ACAD
1000
AcDbSavedByObjectVersion
1070
     0
  0
VISUALSTYLE
  5
30
102
{ACAD_REACTORS
330
2A
102
}
102
{ACAD_XDICTIONARY
360
20E
102
}
330
2A
100
AcDbVisualStyle
  2
Wireframe
 70
     5
 71
     0
 72
     2
 73
     0
 90
        0
 40
0.6
 41
30.0
 62
     5
 63
     7
421
 16777215
 74
     1
 91
        4
 64
     7
 65
   257
 75
     1
175
     1
 42
1.0
 92
        0
 66
   257
 43
1.0
 76
     1
 77
     6
 78
     2
 67
     7
 79
     3
170
     0
171
     0
290
     0
174
     0
 93
        1
 44
0.0
173
     0
291
     0
 45
0.0
1001
ACAD
1000
AcDbSavedByObjectVersion
1070
     0
  0
VISUALSTYLE
  5
40
102
{ACAD_REACTORS
330
2A
102
}
102
{ACAD_XDICTIONARY
360
22E
102
}
330
2A
100
AcDbVisualStyle
  2
X-Ray
 70
    25
 71
     2
 72
     2
 73
     1
 90
        1
 40
0.5
 41
30.0
 62
     5
 63
     7
421
 16777215
 74
     1
 91
        0
 64
     7
 65
   257
 75
     1
175
     1
 42
1.0
 92
        8
 66
     7
 43
1.0
 76
     1
 77
     6
 78
     2
 67
     7
 79
     3
170
     0
171
     0
290
     0
174
     0
 93
       13
 44
0.0
173
     0
291
     0
 45
0.0
1001
ACAD
1000
AcDbSavedByObjectVersion
1070
     0
  0
DICTIONARYVAR
  5
201
102
{ACAD_REACTORS
330
200
102
}
330
200
100
DictionaryVariables
280
     0
  1
1:1
  0
DICTIONARYVAR
  5
242
102
{ACAD_REACTORS
330
200
102
}
330
200
100
DictionaryVariables
280
     0
  1
Standard
  0
DICTIONARYVAR
  5
241
102
{ACAD_REACTORS
330
200
102
}
330
200
100
DictionaryVariables
280
     0
  1
Standard
  0
DICTIONARYVAR
  5
202
102
{ACAD_REACTORS
330
200
102
}
330
200
100
DictionaryVariables
280
     0
  1
1
  0
DICTIONARYVAR
  5
203
102
{ACAD_REACTORS
330
200
102
}
330
200
100
DictionaryVariables
280
     0
  1
2
  0
DICTIONARY
  5
236
330
45
100
AcDbDictionary
280
     1
281
     1
  3
ACAD_XREC_ROUNDTRIP
360
237
  0
DICTIONARY
  5
234
330
44
100
AcDbDictionary
280
     1
281
     1
  3
ACAD_XREC_ROUNDTRIP
360
235
  0
DICTIONARY
  5
238
330
46
100
AcDbDictionary
280
     1
281
     1
  3
ACAD_XREC_ROUNDTRIP
360
239
  0
DICTIONARY
  5
23E
330
6C
100
AcDbDictionary
280
     1
281
     1
  3
ACAD_XREC_ROUNDTRIP
360
23F
  0
DICTIONARY
  5
23A
330
6A
100
AcDbDictionary
280
     1
281
     1
  3
ACAD_ROUNDTRIP_2008_TABLESTYLE_CELLSTYLEMAP
360
23C
  3
ACAD_XREC_ROUNDTRIP
360
23B
  0
DICTIONARY
  5
20C
330
2F
100
AcDbDictionary
280
     1
281
     1
  3
ACAD_XREC_ROUNDTRIP
360
20D
  0
DICTIONARY
  5
212
330
32
100
AcDbDictionary
280
     1
281
     1
  3
ACAD_XREC_ROUNDTRIP
360
213
  0
DICTIONARY
  5
21A
330
36
100
AcDbDictionary
280
     1
281
     1
  3
ACAD_XREC_ROUNDTRIP
360
21B
  0
DICTIONARY
  5
222
330
3A
100
AcDbDictionary
280
     1
281
     1
  3
ACAD_XREC_ROUNDTRIP
360
223
  0
DICTIONARY
  5
216
330
34
100
AcDbDictionary
280
     1
281
     1
  3
ACAD_XREC_ROUNDTRIP
360
217
  0
DICTIONARY
  5
218
330
35
100
AcDbDictionary
280
     1
281
     1
  3
ACAD_XREC_ROUNDTRIP
360
219
  0
DICTIONARY
  5
228
330
3D
100
AcDbDictionary
280
     1
281
     1
  3
ACAD_XREC_ROUNDTRIP
360
229
  0
DICTIONARY
  5
220
330
39
100
AcDbDictionary
280
     1
281
     1
  3
ACAD_XREC_ROUNDTRIP
360
221
  0
DICTIONARY
  5
204
330
2B
100
AcDbDictionary
280
     1
281
     1
  3
ACAD_XREC_ROUNDTRIP
360
205
  0
DICTIONARY
  5
206
330
2C
100
AcDbDictionary
280
     1
281
     1
  3
ACAD_XREC_ROUNDTRIP
360
207
  0
DICTIONARY
  5
208
330
2D
100
AcDbDictionary
280
     1
281
     1
  3
ACAD_XREC_ROUNDTRIP
360
209
  0
DICTIONARY
  5
20A
330
2E
100
AcDbDictionary
280
     1
281
     1
  3
ACAD_XREC_ROUNDTRIP
360
20B
  0
DICTIONARY
  5
210
330
31
100
AcDbDictionary
280
     1
281
     1
  3
ACAD_XREC_ROUNDTRIP
360
211
  0
DICTIONARY
  5
224
330
3B
100
AcDbDictionary
280
     1
281
     1
  3
ACAD_XREC_ROUNDTRIP
360
225
  0
DICTIONARY
  5
21E
330
38
100
AcDbDictionary
280
     1
281
     1
  3
ACAD_XREC_ROUNDTRIP
360
21F
  0
DICTIONARY
  5
226
330
3C
100
AcDbDictionary
280
     1
281
     1
  3
ACAD_XREC_ROUNDTRIP
360
227
  0
DICTIONARY
  5
214
330
33
100
AcDbDictionary
280
     1
281
     1
  3
ACAD_XREC_ROUNDTRIP
360
215
  0
DICTIONARY
  5
232
330
42
100
AcDbDictionary
280
     1
281
     1
  3
ACAD_XREC_ROUNDTRIP
360
233
  0
DICTIONARY
  5
230
330
41
100
AcDbDictionary
280
     1
281
     1
  3
ACAD_XREC_ROUNDTRIP
360
231
  0
DICTIONARY
  5
22A
330
3E
100
AcDbDictionary
280
     1
281
     1
  3
ACAD_XREC_ROUNDTRIP
360
22B
  0
DICTIONARY
  5
22C
330
3F
100
AcDbDictionary
280
     1
281
     1
  3
ACAD_XREC_ROUNDTRIP
360
22D
  0
DICTIONARY
  5
21C
330
37
100
AcDbDictionary
280
     1
281
     1
  3
ACAD_XREC_ROUNDTRIP
360
21D
  0
DICTIONARY
  5
20E
330
30
100
AcDbDictionary
280
     1
281
     1
  3
ACAD_XREC_ROUNDTRIP
360
20F
  0
DICTIONARY
  5
22E
330
40
100
AcDbDictionary
280
     1
281
     1
  3
ACAD_XREC_ROUNDTRIP
360
22F
  0
XRECORD
  5
237
102
{ACAD_REACTORS
330
236
102
}
330
236
100
AcDbXrecord
280
     1
102
MATERIAL
148
0.0
149
0.0
149
0.0
 93
        0
 94
      127
282
     0
 72
     1
 77
     1
171
     1
175
     1
179
     1
273
     0
  0
XRECORD
  5
235
102
{ACAD_REACTORS
330
234
102
}
330
234
100
AcDbXrecord
280
     1
102
MATERIAL
148
0.0
149
0.0
149
0.0
 93
        0
 94
      127
282
     0
 72
     1
 77
     1
171
     1
175
     1
179
     1
273
     0
  0
XRECORD
  5
239
102
{ACAD_REACTORS
330
238
102
}
330
238
100
AcDbXrecord
280
     1
102
MATERIAL
148
0.0
149
0.0
149
0.0
 93
        0
 94
      127
282
     0
 72
     1
 77
     1
171
     1
175
     1
179
     1
273
     0
  0
XRECORD
  5
23F
102
{ACAD_REACTORS
330
23E
102
}
330
23E
100
AcDbXrecord
280
     1
102
ACAD_ROUNDTRIP_2010_MLEADER_STYLE
  0
CELLSTYLEMAP
  5
23C
102
{ACAD_REACTORS
330
23A
102
}
330
23A
100
AcDbCellStyleMap
 90
        3
300
CELLSTYLE
  1
TABLEFORMAT_BEGIN
 90
        5
170
     1
 91
        0
 92
    32768
 62
   257
 93
        1
300
CONTENTFORMAT
  1
CONTENTFORMAT_BEGIN
 90
        0
 91
        0
 92
        4
 93
        0
300

 40
0.0
140
1.0
 94
        5
 62
     0
340
11
144
0.25
309
CONTENTFORMAT_END
171
     1
301
MARGIN
  1
CELLMARGIN_BEGIN
 40
0.06
 40
0.06
 40
0.06
 40
0.06
 40
0.06
 40
0.06
309
CELLMARGIN_END
 94
        6
 95
        1
302
GRIDFORMAT
  1
GRIDFORMAT_BEGIN
 90
        0
 91
        1
 62
     0
 92
       -2
340
14
 93
        0
 40
0.045
309
GRIDFORMAT_END
 95
        2
302
GRIDFORMAT
  1
GRIDFORMAT_BEGIN
 90
        0
 91
        1
 62
     0
 92
       -2
340
14
 93
        0
 40
0.045
309
GRIDFORMAT_END
 95
        4
302
GRIDFORMAT
  1
GRIDFORMAT_BEGIN
 90
        0
 91
        1
 62
     0
 92
       -2
340
14
 93
        0
 40
0.045
309
GRIDFORMAT_END
 95
        8
302
GRIDFORMAT
  1
GRIDFORMAT_BEGIN
 90
        0
 91
        1
 62
     0
 92
       -2
340
14
 93
        0
 40
0.045
309
GRIDFORMAT_END
 95
       16
302
GRIDFORMAT
  1
GRIDFORMAT_BEGIN
 90
        0
 91
        1
 62
     0
 92
       -2
340
14
 93
        0
 40
0.045
309
GRIDFORMAT_END
 95
       32
302
GRIDFORMAT
  1
GRIDFORMAT_BEGIN
 90
        0
 91
        1
 62
     0
 92
       -2
340
14
 93
        0
 40
0.045
309
GRIDFORMAT_END
309
TABLEFORMAT_END
  1
CELLSTYLE_BEGIN
 90
        1
 91
        1
300
_TITLE
309
CELLSTYLE_END
300
CELLSTYLE
  1
TABLEFORMAT_BEGIN
 90
        5
170
     1
 91
        0
 92
        0
 62
   257
 93
        1
300
CONTENTFORMAT
  1
CONTENTFORMAT_BEGIN
 90
        0
 91
        0
 92
        4
 93
        0
300

 40
0.0
140
1.0
 94
        5
 62
     0
340
11
144
0.18
309
CONTENTFORMAT_END
171
     1
301
MARGIN
  1
CELLMARGIN_BEGIN
 40
0.06
 40
0.06
 40
0.06
 40
0.06
 40
0.06
 40
0.06
309
CELLMARGIN_END
 94
        6
 95
        1
302
GRIDFORMAT
  1
GRIDFORMAT_BEGIN
 90
        0
 91
        1
 62
     0
 92
       -2
340
14
 93
        0
 40
0.045
309
GRIDFORMAT_END
 95
        2
302
GRIDFORMAT
  1
GRIDFORMAT_BEGIN
 90
        0
 91
        1
 62
     0
 92
       -2
340
14
 93
        0
 40
0.045
309
GRIDFORMAT_END
 95
        4
302
GRIDFORMAT
  1
GRIDFORMAT_BEGIN
 90
        0
 91
        1
 62
     0
 92
       -2
340
14
 93
        0
 40
0.045
309
GRIDFORMAT_END
 95
        8
302
GRIDFORMAT
  1
GRIDFORMAT_BEGIN
 90
        0
 91
        1
 62
     0
 92
       -2
340
14
 93
        0
 40
0.045
309
GRIDFORMAT_END
 95
       16
302
GRIDFORMAT
  1
GRIDFORMAT_BEGIN
 90
        0
 91
        1
 62
     0
 92
       -2
340
14
 93
        0
 40
0.045
309
GRIDFORMAT_END
 95
       32
302
GRIDFORMAT
  1
GRIDFORMAT_BEGIN
 90
        0
 91
        1
 62
     0
 92
       -2
340
14
 93
        0
 40
0.045
309
GRIDFORMAT_END
309
TABLEFORMAT_END
  1
CELLSTYLE_BEGIN
 90
        2
 91
        1
300
_HEADER
309
CELLSTYLE_END
300
CELLSTYLE
  1
TABLEFORMAT_BEGIN
 90
        5
170
     1
 91
        0
 92
        0
 62
   257
 93
        1
300
CONTENTFORMAT
  1
CONTENTFORMAT_BEGIN
 90
        0
 91
        0
 92
        4
 93
        0
300

 40
0.0
140
1.0
 94
        2
 62
     0
340
11
144
0.18
309
CONTENTFORMAT_END
171
     1
301
MARGIN
  1
CELLMARGIN_BEGIN
 40
0.06
 40
0.06
 40
0.06
 40
0.06
 40
0.06
 40
0.06
309
CELLMARGIN_END
 94
        6
 95
        1
302
GRIDFORMAT
  1
GRIDFORMAT_BEGIN
 90
        0
 91
        1
 62
     0
 92
       -2
340
14
 93
        0
 40
0.045
309
GRIDFORMAT_END
 95
        2
302
GRIDFORMAT
  1
GRIDFORMAT_BEGIN
 90
        0
 91
        1
 62
     0
 92
       -2
340
14
 93
        0
 40
0.045
309
GRIDFORMAT_END
 95
        4
302
GRIDFORMAT
  1
GRIDFORMAT_BEGIN
 90
        0
 91
        1
 62
     0
 92
       -2
340
14
 93
        0
 40
0.045
309
GRIDFORMAT_END
 95
        8
302
GRIDFORMAT
  1
GRIDFORMAT_BEGIN
 90
        0
 91
        1
 62
     0
 92
       -2
340
14
 93
        0
 40
0.045
309
GRIDFORMAT_END
 95
       16
302
GRIDFORMAT
  1
GRIDFORMAT_BEGIN
 90
        0
 91
        1
 62
     0
 92
       -2
340
14
 93
        0
 40
0.045
309
GRIDFORMAT_END
 95
       32
302
GRIDFORMAT
  1
GRIDFORMAT_BEGIN
 90
        0
 91
        1
 62
     0
 92
       -2
340
14
 93
        0
 40
0.045
309
GRIDFORMAT_END
309
TABLEFORMAT_END
  1
CELLSTYLE_BEGIN
 90
        3
 91
        2
300
_DATA
309
CELLSTYLE_END
  0
XRECORD
  5
23B
102
{ACAD_REACTORS
330
23A
102
}
330
23A
100
AcDbXrecord
280
     1
102
ACAD_ROUNDTRIP_PRE2007_TABLESTYLE
 90
        4
 91
        0
  1

 92
        4
 93
        0
  2

 94
        4
 95
        0
  3

  0
XRECORD
  5
20D
102
{ACAD_REACTORS
330
20C
102
}
330
20C
100
AcDbXrecord
280
     1
102
RTVSPropertyOp0
 70
     1
102
RTVSPropertyOp1
 70
     1
102
RTVSPropertyOp2
 70
     1
102
RTVSPropertyOp3
 70
     1
102
RTVSPropertyOp4
 70
     1
102
RTVSPropertyOp5
 70
     1
102
RTVSPropertyOp6
 70
     1
102
RTVSPropertyOp7
 70
     1
102
RTVSPropertyOp8
 70
     1
102
RTVSPropertyOp9
 70
     1
102
RTVSPropertyOp10
 70
     1
102
RTVSPropertyOp11
 70
     1
102
RTVSPropertyOp12
 70
     1
102
RTVSPropertyOp13
 70
     1
102
RTVSPropertyOp14
 70
     1
102
RTVSPropertyOp15
 70
     1
102
RTVSPropertyOp16
 70
     1
102
RTVSPropertyOp17
 70
     1
102
RTVSPropertyOp18
 70
     1
102
RTVSPropertyOp19
 70
     1
102
RTVSPropertyOp20
 70
     1
102
RTVSPropertyOp21
 70
     1
102
RTVSPropertyOp22
 70
     1
102
RTVSPropertyOp23
 70
     1
102
RTVSPropertyOp24
 70
     1
102
RTVSPropertyOp25
 70
     1
102
RTVSPropertyOp26
 70
     1
102
RTVSPropertyOp27
 70
     1
102
RTVSPropertyOp28
 70
     1
102
RTVSPropertyOp29
 70
     1
102
RTVSPropertyOp30
 70
     1
102
RTVSPropertyOp31
 70
     1
102
RTVSPropertyOp32
 70
     1
102
RTVSPropertyOp33
 70
     1
102
RTVSPropertyOp34
 70
     1
102
RTVSPropertyOp35
 70
     1
102
RTVSPropertyOp36
 70
     1
102
RTVSPropertyOp37
 70
     1
102
RTVSPropertyOp38
 70
     1
102
RTVSPropertyOp39
 70
     1
102
RTVSPropertyOp40
 70
     1
102
RTVSPropertyOp41
 70
     1
102
RTVSPropertyOp42
 70
     1
102
RTVSPropertyOp43
 70
     1
102
RTVSPropertyOp44
 70
     1
102
RTVSPropertyOp45
 70
     1
102
RTVSPropertyOp46
 70
     1
102
RTVSPropertyOp47
 70
     1
102
RTVSPropertyOp48
 70
     1
102
RTVSPropertyOp49
 70
     1
102
RTVSPropertyOp50
 70
     1
102
RTVSPropertyOp51
 70
     0
102
RTVSPropertyOp52
 70
     0
102
RTVSPropertyOp53
 70
     1
102
RTVSPropertyOp54
 70
     1
102
RTVSPropertyOp55
 70
     1
102
RTVSPropertyOp56
 70
     1
102
RTVSPropertyOp57
 70
     1
102
RTVSPost2010Prop28
280
     1
102
RTVSPost2010PropOp28
 70
     1
102
RTVSPost2010Prop29
280
     1
102
RTVSPost2010PropOp29
 70
     1
102
RTVSPost2010Prop30
280
     0
102
RTVSPost2010PropOp30
 70
     1
102
RTVSPost2010Prop31
280
     0
102
RTVSPost2010PropOp31
 70
     1
102
RTVSPost2010Prop32
280
     0
102
RTVSPost2010PropOp32
 70
     1
102
RTVSPost2010Prop33
280
     0
102
RTVSPost2010PropOp33
 70
     1
102
RTVSPost2010Prop34
280
     0
102
RTVSPost2010PropOp34
 70
     1
102
RTVSPost2010Prop35
280
     0
102
RTVSPost2010PropOp35
 70
     1
102
RTVSPost2010Prop36
280
     0
102
RTVSPost2010PropOp36
 70
     1
102
RTVSPost2010Prop37
 90
       50
102
RTVSPost2010PropOp37
 70
     1
102
RTVSPost2010Prop38
140
0.0
102
RTVSPost2010PropOp38
 70
     1
102
RTVSPost2010Prop39
140
1.0
102
RTVSPost2010PropOp39
 70
     1
102
RTVSPost2010Prop40
 90
        0
102
RTVSPost2010PropOp40
 70
     1
102
RTVSPost2010Prop41ColorIndex
 90
       18
102
RTVSPost2010Prop41ColorRGB
 90
        0
102
RTVSPost2010PropOp41
 70
     1
102
RTVSPost2010Prop42
 90
       50
102
RTVSPost2010PropOp42
 70
     1
102
RTVSPost2010Prop43
 90
        3
102
RTVSPost2010PropOp43
 70
     1
102
RTVSPost2010Prop44ColorIndex
 90
        5
102
RTVSPost2010Prop44ColorRGB
 90
      255
102
RTVSPost2010PropOp44
 70
     1
102
RTVSPost2010Prop45
280
     0
102
RTVSPost2010PropOp45
 70
     1
102
RTVSPost2010Prop46
 90
       50
102
RTVSPost2010PropOp46
 70
     1
102
RTVSPost2010Prop47
 90
       50
102
RTVSPost2010PropOp47
 70
     1
102
RTVSPost2010Prop48
 90
       50
102
RTVSPost2010PropOp48
 70
     1
102
RTVSPost2010Prop49
280
     0
102
RTVSPost2010PropOp49
 70
     1
102
RTVSPost2010Prop50
 90
       50
102
RTVSPost2010PropOp50
 70
     1
102
RTVSPost2010Prop51ColorIndex
 90
      256
102
RTVSPost2010Prop51ColorRGB
 90
-16777216
102
RTVSPost2010PropOp51
 70
     0
102
RTVSPost2010Prop52
140
1.0
102
RTVSPost2010PropOp52
 70
     0
102
RTVSPost2010Prop53
 90
        2
102
RTVSPost2010PropOp53
 70
     1
102
RTVSPost2010Prop54
  1
strokes_ogs.tif
102
RTVSPost2010PropOp54
 70
     1
102
RTVSPost2010Prop55
280
     0
102
RTVSPost2010PropOp55
 70
     1
102
RTVSPost2010Prop56
140
1.0
102
RTVSPost2010PropOp56
 70
     1
102
RTVSPost2010Prop57
140
1.0
102
RTVSPost2010PropOp57
 70
     1
  0
XRECORD
  5
213
102
{ACAD_REACTORS
330
212
102
}
330
212
100
AcDbXrecord
280
     1
102
RTVSPropertyOp0
 70
     1
102
RTVSPropertyOp1
 70
     1
102
RTVSPropertyOp2
 70
     1
102
RTVSPropertyOp3
 70
     1
102
RTVSPropertyOp4
 70
     1
102
RTVSPropertyOp5
 70
     1
102
RTVSPropertyOp6
 70
     1
102
RTVSPropertyOp7
 70
     1
102
RTVSPropertyOp8
 70
     1
102
RTVSPropertyOp9
 70
     1
102
RTVSPropertyOp10
 70
     1
102
RTVSPropertyOp11
 70
     1
102
RTVSPropertyOp12
 70
     1
102
RTVSPropertyOp13
 70
     1
102
RTVSPropertyOp14
 70
     1
102
RTVSPropertyOp15
 70
     1
102
RTVSPropertyOp16
 70
     1
102
RTVSPropertyOp17
 70
     1
102
RTVSPropertyOp18
 70
     1
102
RTVSPropertyOp19
 70
     1
102
RTVSPropertyOp20
 70
     1
102
RTVSPropertyOp21
 70
     1
102
RTVSPropertyOp22
 70
     1
102
RTVSPropertyOp23
 70
     1
102
RTVSPropertyOp24
 70
     1
102
RTVSPropertyOp25
 70
     1
102
RTVSPropertyOp26
 70
     1
102
RTVSPropertyOp27
 70
     1
102
RTVSPropertyOp28
 70
     1
102
RTVSPropertyOp29
 70
     1
102
RTVSPropertyOp30
 70
     1
102
RTVSPropertyOp31
 70
     1
102
RTVSPropertyOp32
 70
     1
102
RTVSPropertyOp33
 70
     1
102
RTVSPropertyOp34
 70
     1
102
RTVSPropertyOp35
 70
     1
102
RTVSPropertyOp36
 70
     1
102
RTVSPropertyOp37
 70
     1
102
RTVSPropertyOp38
 70
     1
102
RTVSPropertyOp39
 70
     1
102
RTVSPropertyOp40
 70
     1
102
RTVSPropertyOp41
 70
     1
102
RTVSPropertyOp42
 70
     1
102
RTVSPropertyOp43
 70
     1
102
RTVSPropertyOp44
 70
     1
102
RTVSPropertyOp45
 70
     1
102
RTVSPropertyOp46
 70
     1
102
RTVSPropertyOp47
 70
     1
102
RTVSPropertyOp48
 70
     1
102
RTVSPropertyOp49
 70
     1
102
RTVSPropertyOp50
 70
     1
102
RTVSPropertyOp51
 70
     0
102
RTVSPropertyOp52
 70
     0
102
RTVSPropertyOp53
 70
     1
102
RTVSPropertyOp54
 70
     1
102
RTVSPropertyOp55
 70
     1
102
RTVSPropertyOp56
 70
     1
102
RTVSPropertyOp57
 70
     1
102
RTVSPost2010Prop28
280
     0
102
RTVSPost2010PropOp28
 70
     1
102
RTVSPost2010Prop29
280
     1
102
RTVSPost2010PropOp29
 70
     1
102
RTVSPost2010Prop30
280
     1
102
RTVSPost2010PropOp30
 70
     1
102
RTVSPost2010Prop31
280
     0
102
RTVSPost2010PropOp31
 70
     1
102
RTVSPost2010Prop32
280
     0
102
RTVSPost2010PropOp32
 70
     1
102
RTVSPost2010Prop33
280
     0
102
RTVSPost2010PropOp33
 70
     1
102
RTVSPost2010Prop34
280
     0
102
RTVSPost2010PropOp34
 70
     1
102
RTVSPost2010Prop35
280
     0
102
RTVSPost2010PropOp35
 70
     1
102
RTVSPost2010Prop36
280
     0
102
RTVSPost2010PropOp36
 70
     1
102
RTVSPost2010Prop37
 90
       50
102
RTVSPost2010PropOp37
 70
     1
102
RTVSPost2010Prop38
140
0.0
102
RTVSPost2010PropOp38
 70
     1
102
RTVSPost2010Prop39
140
1.0
102
RTVSPost2010PropOp39
 70
     1
102
RTVSPost2010Prop40
 90
        0
102
RTVSPost2010PropOp40
 70
     1
102
RTVSPost2010Prop41ColorIndex
 90
       18
102
RTVSPost2010Prop41ColorRGB
 90
        0
102
RTVSPost2010PropOp41
 70
     1
102
RTVSPost2010Prop42
 90
       50
102
RTVSPost2010PropOp42
 70
     1
102
RTVSPost2010Prop43
 90
        3
102
RTVSPost2010PropOp43
 70
     1
102
RTVSPost2010Prop44ColorIndex
 90
        5
102
RTVSPost2010Prop44ColorRGB
 90
      255
102
RTVSPost2010PropOp44
 70
     1
102
RTVSPost2010Prop45
280
     0
102
RTVSPost2010PropOp45
 70
     1
102
RTVSPost2010Prop46
 90
       50
102
RTVSPost2010PropOp46
 70
     1
102
RTVSPost2010Prop47
 90
       50
102
RTVSPost2010PropOp47
 70
     1
102
RTVSPost2010Prop48
 90
       50
102
RTVSPost2010PropOp48
 70
     1
102
RTVSPost2010Prop49
280
     0
102
RTVSPost2010PropOp49
 70
     1
102
RTVSPost2010Prop50
 90
       50
102
RTVSPost2010PropOp50
 70
     1
102
RTVSPost2010Prop51ColorIndex
 90
      256
102
RTVSPost2010Prop51ColorRGB
 90
-16777216
102
RTVSPost2010PropOp51
 70
     0
102
RTVSPost2010Prop52
140
1.0
102
RTVSPost2010PropOp52
 70
     0
102
RTVSPost2010Prop53
 90
        2
102
RTVSPost2010PropOp53
 70
     1
102
RTVSPost2010Prop54
  1
strokes_ogs.tif
102
RTVSPost2010PropOp54
 70
     1
102
RTVSPost2010Prop55
280
     0
102
RTVSPost2010PropOp55
 70
     1
102
RTVSPost2010Prop56
140
1.0
102
RTVSPost2010PropOp56
 70
     1
102
RTVSPost2010Prop57
140
1.0
102
RTVSPost2010PropOp57
 70
     1
  0
XRECORD
  5
21B
102
{ACAD_REACTORS
330
21A
102
}
330
21A
100
AcDbXrecord
280
     1
102
RTVSPropertyOp0
 70
     1
102
RTVSPropertyOp1
 70
     1
102
RTVSPropertyOp2
 70
     1
102
RTVSPropertyOp3
 70
     1
102
RTVSPropertyOp4
 70
     1
102
RTVSPropertyOp5
 70
     1
102
RTVSPropertyOp6
 70
     1
102
RTVSPropertyOp7
 70
     1
102
RTVSPropertyOp8
 70
     1
102
RTVSPropertyOp9
 70
     1
102
RTVSPropertyOp10
 70
     1
102
RTVSPropertyOp11
 70
     1
102
RTVSPropertyOp12
 70
     1
102
RTVSPropertyOp13
 70
     1
102
RTVSPropertyOp14
 70
     1
102
RTVSPropertyOp15
 70
     1
102
RTVSPropertyOp16
 70
     1
102
RTVSPropertyOp17
 70
     1
102
RTVSPropertyOp18
 70
     1
102
RTVSPropertyOp19
 70
     1
102
RTVSPropertyOp20
 70
     1
102
RTVSPropertyOp21
 70
     1
102
RTVSPropertyOp22
 70
     1
102
RTVSPropertyOp23
 70
     1
102
RTVSPropertyOp24
 70
     1
102
RTVSPropertyOp25
 70
     1
102
RTVSPropertyOp26
 70
     1
102
RTVSPropertyOp27
 70
     1
102
RTVSPropertyOp28
 70
     1
102
RTVSPropertyOp29
 70
     1
102
RTVSPropertyOp30
 70
     1
102
RTVSPropertyOp31
 70
     1
102
RTVSPropertyOp32
 70
     1
102
RTVSPropertyOp33
 70
     1
102
RTVSPropertyOp34
 70
     1
102
RTVSPropertyOp35
 70
     1
102
RTVSPropertyOp36
 70
     1
102
RTVSPropertyOp37
 70
     1
102
RTVSPropertyOp38
 70
     1
102
RTVSPropertyOp39
 70
     1
102
RTVSPropertyOp40
 70
     1
102
RTVSPropertyOp41
 70
     1
102
RTVSPropertyOp42
 70
     1
102
RTVSPropertyOp43
 70
     1
102
RTVSPropertyOp44
 70
     1
102
RTVSPropertyOp45
 70
     1
102
RTVSPropertyOp46
 70
     1
102
RTVSPropertyOp47
 70
     1
102
RTVSPropertyOp48
 70
     1
102
RTVSPropertyOp49
 70
     1
102
RTVSPropertyOp50
 70
     1
102
RTVSPropertyOp51
 70
     0
102
RTVSPropertyOp52
 70
     0
102
RTVSPropertyOp53
 70
     1
102
RTVSPropertyOp54
 70
     1
102
RTVSPropertyOp55
 70
     1
102
RTVSPropertyOp56
 70
     1
102
RTVSPropertyOp57
 70
     1
102
RTVSPost2010Prop28
280
     0
102
RTVSPost2010PropOp28
 70
     1
102
RTVSPost2010Prop29
280
     1
102
RTVSPost2010PropOp29
 70
     1
102
RTVSPost2010Prop30
280
     1
102
RTVSPost2010PropOp30
 70
     1
102
RTVSPost2010Prop31
280
     0
102
RTVSPost2010PropOp31
 70
     1
102
RTVSPost2010Prop32
280
     0
102
RTVSPost2010PropOp32
 70
     1
102
RTVSPost2010Prop33
280
     0
102
RTVSPost2010PropOp33
 70
     1
102
RTVSPost2010Prop34
280
     0
102
RTVSPost2010PropOp34
 70
     1
102
RTVSPost2010Prop35
280
     0
102
RTVSPost2010PropOp35
 70
     1
102
RTVSPost2010Prop36
280
     0
102
RTVSPost2010PropOp36
 70
     1
102
RTVSPost2010Prop37
 90
       50
102
RTVSPost2010PropOp37
 70
     1
102
RTVSPost2010Prop38
140
0.0
102
RTVSPost2010PropOp38
 70
     1
102
RTVSPost2010Prop39
140
1.0
102
RTVSPost2010PropOp39
 70
     1
102
RTVSPost2010Prop40
 90
        0
102
RTVSPost2010PropOp40
 70
     1
102
RTVSPost2010Prop41ColorIndex
 90
       18
102
RTVSPost2010Prop41ColorRGB
 90
        0
102
RTVSPost2010PropOp41
 70
     1
102
RTVSPost2010Prop42
 90
       50
102
RTVSPost2010PropOp42
 70
     1
102
RTVSPost2010Prop43
 90
        3
102
RTVSPost2010PropOp43
 70
     1
102
RTVSPost2010Prop44ColorIndex
 90
        5
102
RTVSPost2010Prop44ColorRGB
 90
      255
102
RTVSPost2010PropOp44
 70
     1
102
RTVSPost2010Prop45
280
     0
102
RTVSPost2010PropOp45
 70
     1
102
RTVSPost2010Prop46
 90
       50
102
RTVSPost2010PropOp46
 70
     1
102
RTVSPost2010Prop47
 90
       50
102
RTVSPost2010PropOp47
 70
     1
102
RTVSPost2010Prop48
 90
       50
102
RTVSPost2010PropOp48
 70
     1
102
RTVSPost2010Prop49
280
     0
102
RTVSPost2010PropOp49
 70
     1
102
RTVSPost2010Prop50
 90
       50
102
RTVSPost2010PropOp50
 70
     1
102
RTVSPost2010Prop51ColorIndex
 90
      256
102
RTVSPost2010Prop51ColorRGB
 90
-16777216
102
RTVSPost2010PropOp51
 70
     0
102
RTVSPost2010Prop52
140
1.0
102
RTVSPost2010PropOp52
 70
     0
102
RTVSPost2010Prop53
 90
        2
102
RTVSPost2010PropOp53
 70
     1
102
RTVSPost2010Prop54
  1
strokes_ogs.tif
102
RTVSPost2010PropOp54
 70
     1
102
RTVSPost2010Prop55
280
     0
102
RTVSPost2010PropOp55
 70
     1
102
RTVSPost2010Prop56
140
1.0
102
RTVSPost2010PropOp56
 70
     1
102
RTVSPost2010Prop57
140
1.0
102
RTVSPost2010PropOp57
 70
     1
  0
XRECORD
  5
223
102
{ACAD_REACTORS
330
222
102
}
330
222
100
AcDbXrecord
280
     1
102
RTVSPropertyOp0
 70
     1
102
RTVSPropertyOp1
 70
     1
102
RTVSPropertyOp2
 70
     1
102
RTVSPropertyOp3
 70
     1
102
RTVSPropertyOp4
 70
     1
102
RTVSPropertyOp5
 70
     1
102
RTVSPropertyOp6
 70
     1
102
RTVSPropertyOp7
 70
     1
102
RTVSPropertyOp8
 70
     1
102
RTVSPropertyOp9
 70
     1
102
RTVSPropertyOp10
 70
     1
102
RTVSPropertyOp11
 70
     1
102
RTVSPropertyOp12
 70
     1
102
RTVSPropertyOp13
 70
     1
102
RTVSPropertyOp14
 70
     1
102
RTVSPropertyOp15
 70
     1
102
RTVSPropertyOp16
 70
     1
102
RTVSPropertyOp17
 70
     1
102
RTVSPropertyOp18
 70
     1
102
RTVSPropertyOp19
 70
     1
102
RTVSPropertyOp20
 70
     1
102
RTVSPropertyOp21
 70
     1
102
RTVSPropertyOp22
 70
     1
102
RTVSPropertyOp23
 70
     1
102
RTVSPropertyOp24
 70
     1
102
RTVSPropertyOp25
 70
     1
102
RTVSPropertyOp26
 70
     1
102
RTVSPropertyOp27
 70
     1
102
RTVSPropertyOp28
 70
     1
102
RTVSPropertyOp29
 70
     1
102
RTVSPropertyOp30
 70
     1
102
RTVSPropertyOp31
 70
     1
102
RTVSPropertyOp32
 70
     1
102
RTVSPropertyOp33
 70
     1
102
RTVSPropertyOp34
 70
     1
102
RTVSPropertyOp35
 70
     1
102
RTVSPropertyOp36
 70
     1
102
RTVSPropertyOp37
 70
     1
102
RTVSPropertyOp38
 70
     1
102
RTVSPropertyOp39
 70
     1
102
RTVSPropertyOp40
 70
     1
102
RTVSPropertyOp41
 70
     1
102
RTVSPropertyOp42
 70
     1
102
RTVSPropertyOp43
 70
     1
102
RTVSPropertyOp44
 70
     1
102
RTVSPropertyOp45
 70
     1
102
RTVSPropertyOp46
 70
     1
102
RTVSPropertyOp47
 70
     1
102
RTVSPropertyOp48
 70
     1
102
RTVSPropertyOp49
 70
     1
102
RTVSPropertyOp50
 70
     1
102
RTVSPropertyOp51
 70
     0
102
RTVSPropertyOp52
 70
     0
102
RTVSPropertyOp53
 70
     1
102
RTVSPropertyOp54
 70
     1
102
RTVSPropertyOp55
 70
     1
102
RTVSPropertyOp56
 70
     1
102
RTVSPropertyOp57
 70
     1
102
RTVSPost2010Prop28
280
     0
102
RTVSPost2010PropOp28
 70
     1
102
RTVSPost2010Prop29
280
     1
102
RTVSPost2010PropOp29
 70
     1
102
RTVSPost2010Prop30
280
     1
102
RTVSPost2010PropOp30
 70
     1
102
RTVSPost2010Prop31
280
     0
102
RTVSPost2010PropOp31
 70
     1
102
RTVSPost2010Prop32
280
     0
102
RTVSPost2010PropOp32
 70
     1
102
RTVSPost2010Prop33
280
     0
102
RTVSPost2010PropOp33
 70
     1
102
RTVSPost2010Prop34
280
     0
102
RTVSPost2010PropOp34
 70
     1
102
RTVSPost2010Prop35
280
     0
102
RTVSPost2010PropOp35
 70
     1
102
RTVSPost2010Prop36
280
     0
102
RTVSPost2010PropOp36
 70
     1
102
RTVSPost2010Prop37
 90
       50
102
RTVSPost2010PropOp37
 70
     1
102
RTVSPost2010Prop38
140
0.0
102
RTVSPost2010PropOp38
 70
     1
102
RTVSPost2010Prop39
140
1.0
102
RTVSPost2010PropOp39
 70
     1
102
RTVSPost2010Prop40
 90
        0
102
RTVSPost2010PropOp40
 70
     1
102
RTVSPost2010Prop41ColorIndex
 90
       18
102
RTVSPost2010Prop41ColorRGB
 90
        0
102
RTVSPost2010PropOp41
 70
     1
102
RTVSPost2010Prop42
 90
       50
102
RTVSPost2010PropOp42
 70
     1
102
RTVSPost2010Prop43
 90
        3
102
RTVSPost2010PropOp43
 70
     1
102
RTVSPost2010Prop44ColorIndex
 90
        5
102
RTVSPost2010Prop44ColorRGB
 90
      255
102
RTVSPost2010PropOp44
 70
     1
102
RTVSPost2010Prop45
280
     0
102
RTVSPost2010PropOp45
 70
     1
102
RTVSPost2010Prop46
 90
       50
102
RTVSPost2010PropOp46
 70
     1
102
RTVSPost2010Prop47
 90
       50
102
RTVSPost2010PropOp47
 70
     1
102
RTVSPost2010Prop48
 90
       50
102
RTVSPost2010PropOp48
 70
     1
102
RTVSPost2010Prop49
280
     0
102
RTVSPost2010PropOp49
 70
     1
102
RTVSPost2010Prop50
 90
       50
102
RTVSPost2010PropOp50
 70
     1
102
RTVSPost2010Prop51ColorIndex
 90
      256
102
RTVSPost2010Prop51ColorRGB
 90
-16777216
102
RTVSPost2010PropOp51
 70
     0
102
RTVSPost2010Prop52
140
1.0
102
RTVSPost2010PropOp52
 70
     0
102
RTVSPost2010Prop53
 90
        2
102
RTVSPost2010PropOp53
 70
     1
102
RTVSPost2010Prop54
  1
strokes_ogs.tif
102
RTVSPost2010PropOp54
 70
     1
102
RTVSPost2010Prop55
280
     0
102
RTVSPost2010PropOp55
 70
     1
102
RTVSPost2010Prop56
140
1.0
102
RTVSPost2010PropOp56
 70
     1
102
RTVSPost2010Prop57
140
1.0
102
RTVSPost2010PropOp57
 70
     1
  0
XRECORD
  5
217
102
{ACAD_REACTORS
330
216
102
}
330
216
100
AcDbXrecord
280
     1
102
RTVSPropertyOp0
 70
     1
102
RTVSPropertyOp1
 70
     1
102
RTVSPropertyOp2
 70
     1
102
RTVSPropertyOp3
 70
     1
102
RTVSPropertyOp4
 70
     1
102
RTVSPropertyOp5
 70
     1
102
RTVSPropertyOp6
 70
     1
102
RTVSPropertyOp7
 70
     1
102
RTVSPropertyOp8
 70
     1
102
RTVSPropertyOp9
 70
     1
102
RTVSPropertyOp10
 70
     1
102
RTVSPropertyOp11
 70
     1
102
RTVSPropertyOp12
 70
     1
102
RTVSPropertyOp13
 70
     1
102
RTVSPropertyOp14
 70
     1
102
RTVSPropertyOp15
 70
     1
102
RTVSPropertyOp16
 70
     1
102
RTVSPropertyOp17
 70
     1
102
RTVSPropertyOp18
 70
     1
102
RTVSPropertyOp19
 70
     1
102
RTVSPropertyOp20
 70
     1
102
RTVSPropertyOp21
 70
     1
102
RTVSPropertyOp22
 70
     1
102
RTVSPropertyOp23
 70
     1
102
RTVSPropertyOp24
 70
     1
102
RTVSPropertyOp25
 70
     1
102
RTVSPropertyOp26
 70
     1
102
RTVSPropertyOp27
 70
     1
102
RTVSPropertyOp28
 70
     1
102
RTVSPropertyOp29
 70
     1
102
RTVSPropertyOp30
 70
     1
102
RTVSPropertyOp31
 70
     1
102
RTVSPropertyOp32
 70
     1
102
RTVSPropertyOp33
 70
     1
102
RTVSPropertyOp34
 70
     1
102
RTVSPropertyOp35
 70
     1
102
RTVSPropertyOp36
 70
     1
102
RTVSPropertyOp37
 70
     1
102
RTVSPropertyOp38
 70
     1
102
RTVSPropertyOp39
 70
     1
102
RTVSPropertyOp40
 70
     1
102
RTVSPropertyOp41
 70
     1
102
RTVSPropertyOp42
 70
     1
102
RTVSPropertyOp43
 70
     1
102
RTVSPropertyOp44
 70
     1
102
RTVSPropertyOp45
 70
     1
102
RTVSPropertyOp46
 70
     1
102
RTVSPropertyOp47
 70
     1
102
RTVSPropertyOp48
 70
     1
102
RTVSPropertyOp49
 70
     1
102
RTVSPropertyOp50
 70
     1
102
RTVSPropertyOp51
 70
     0
102
RTVSPropertyOp52
 70
     0
102
RTVSPropertyOp53
 70
     1
102
RTVSPropertyOp54
 70
     1
102
RTVSPropertyOp55
 70
     1
102
RTVSPropertyOp56
 70
     1
102
RTVSPropertyOp57
 70
     1
102
RTVSPost2010Prop28
280
     0
102
RTVSPost2010PropOp28
 70
     1
102
RTVSPost2010Prop29
280
     1
102
RTVSPost2010PropOp29
 70
     1
102
RTVSPost2010Prop30
280
     1
102
RTVSPost2010PropOp30
 70
     1
102
RTVSPost2010Prop31
280
     0
102
RTVSPost2010PropOp31
 70
     1
102
RTVSPost2010Prop32
280
     0
102
RTVSPost2010PropOp32
 70
     1
102
RTVSPost2010Prop33
280
     0
102
RTVSPost2010PropOp33
 70
     1
102
RTVSPost2010Prop34
280
     0
102
RTVSPost2010PropOp34
 70
     1
102
RTVSPost2010Prop35
280
     0
102
RTVSPost2010PropOp35
 70
     1
102
RTVSPost2010Prop36
280
     0
102
RTVSPost2010PropOp36
 70
     1
102
RTVSPost2010Prop37
 90
       50
102
RTVSPost2010PropOp37
 70
     1
102
RTVSPost2010Prop38
140
0.0
102
RTVSPost2010PropOp38
 70
     1
102
RTVSPost2010Prop39
140
1.0
102
RTVSPost2010PropOp39
 70
     1
102
RTVSPost2010Prop40
 90
        0
102
RTVSPost2010PropOp40
 70
     1
102
RTVSPost2010Prop41ColorIndex
 90
       18
102
RTVSPost2010Prop41ColorRGB
 90
        0
102
RTVSPost2010PropOp41
 70
     1
102
RTVSPost2010Prop42
 90
       50
102
RTVSPost2010PropOp42
 70
     1
102
RTVSPost2010Prop43
 90
        3
102
RTVSPost2010PropOp43
 70
     1
102
RTVSPost2010Prop44ColorIndex
 90
        5
102
RTVSPost2010Prop44ColorRGB
 90
      255
102
RTVSPost2010PropOp44
 70
     1
102
RTVSPost2010Prop45
280
     0
102
RTVSPost2010PropOp45
 70
     1
102
RTVSPost2010Prop46
 90
       50
102
RTVSPost2010PropOp46
 70
     1
102
RTVSPost2010Prop47
 90
       50
102
RTVSPost2010PropOp47
 70
     1
102
RTVSPost2010Prop48
 90
       50
102
RTVSPost2010PropOp48
 70
     1
102
RTVSPost2010Prop49
280
     0
102
RTVSPost2010PropOp49
 70
     1
102
RTVSPost2010Prop50
 90
       50
102
RTVSPost2010PropOp50
 70
     1
102
RTVSPost2010Prop51ColorIndex
 90
      256
102
RTVSPost2010Prop51ColorRGB
 90
-16777216
102
RTVSPost2010PropOp51
 70
     0
102
RTVSPost2010Prop52
140
1.0
102
RTVSPost2010PropOp52
 70
     0
102
RTVSPost2010Prop53
 90
        2
102
RTVSPost2010PropOp53
 70
     1
102
RTVSPost2010Prop54
  1
strokes_ogs.tif
102
RTVSPost2010PropOp54
 70
     1
102
RTVSPost2010Prop55
280
     0
102
RTVSPost2010PropOp55
 70
     1
102
RTVSPost2010Prop56
140
1.0
102
RTVSPost2010PropOp56
 70
     1
102
RTVSPost2010Prop57
140
1.0
102
RTVSPost2010PropOp57
 70
     1
  0
XRECORD
  5
219
102
{ACAD_REACTORS
330
218
102
}
330
218
100
AcDbXrecord
280
     1
102
RTVSPropertyOp0
 70
     1
102
RTVSPropertyOp1
 70
     1
102
RTVSPropertyOp2
 70
     1
102
RTVSPropertyOp3
 70
     1
102
RTVSPropertyOp4
 70
     1
102
RTVSPropertyOp5
 70
     1
102
RTVSPropertyOp6
 70
     1
102
RTVSPropertyOp7
 70
     1
102
RTVSPropertyOp8
 70
     1
102
RTVSPropertyOp9
 70
     1
102
RTVSPropertyOp10
 70
     1
102
RTVSPropertyOp11
 70
     1
102
RTVSPropertyOp12
 70
     1
102
RTVSPropertyOp13
 70
     1
102
RTVSPropertyOp14
 70
     1
102
RTVSPropertyOp15
 70
     1
102
RTVSPropertyOp16
 70
     1
102
RTVSPropertyOp17
 70
     1
102
RTVSPropertyOp18
 70
     1
102
RTVSPropertyOp19
 70
     1
102
RTVSPropertyOp20
 70
     1
102
RTVSPropertyOp21
 70
     1
102
RTVSPropertyOp22
 70
     1
102
RTVSPropertyOp23
 70
     1
102
RTVSPropertyOp24
 70
     1
102
RTVSPropertyOp25
 70
     1
102
RTVSPropertyOp26
 70
     1
102
RTVSPropertyOp27
 70
     1
102
RTVSPropertyOp28
 70
     1
102
RTVSPropertyOp29
 70
     1
102
RTVSPropertyOp30
 70
     1
102
RTVSPropertyOp31
 70
     1
102
RTVSPropertyOp32
 70
     1
102
RTVSPropertyOp33
 70
     1
102
RTVSPropertyOp34
 70
     1
102
RTVSPropertyOp35
 70
     1
102
RTVSPropertyOp36
 70
     1
102
RTVSPropertyOp37
 70
     1
102
RTVSPropertyOp38
 70
     1
102
RTVSPropertyOp39
 70
     1
102
RTVSPropertyOp40
 70
     1
102
RTVSPropertyOp41
 70
     1
102
RTVSPropertyOp42
 70
     1
102
RTVSPropertyOp43
 70
     1
102
RTVSPropertyOp44
 70
     1
102
RTVSPropertyOp45
 70
     1
102
RTVSPropertyOp46
 70
     1
102
RTVSPropertyOp47
 70
     1
102
RTVSPropertyOp48
 70
     1
102
RTVSPropertyOp49
 70
     1
102
RTVSPropertyOp50
 70
     1
102
RTVSPropertyOp51
 70
     0
102
RTVSPropertyOp52
 70
     0
102
RTVSPropertyOp53
 70
     1
102
RTVSPropertyOp54
 70
     1
102
RTVSPropertyOp55
 70
     1
102
RTVSPropertyOp56
 70
     1
102
RTVSPropertyOp57
 70
     1
102
RTVSPost2010Prop28
280
     0
102
RTVSPost2010PropOp28
 70
     1
102
RTVSPost2010Prop29
280
     1
102
RTVSPost2010PropOp29
 70
     1
102
RTVSPost2010Prop30
280
     1
102
RTVSPost2010PropOp30
 70
     1
102
RTVSPost2010Prop31
280
     0
102
RTVSPost2010PropOp31
 70
     1
102
RTVSPost2010Prop32
280
     0
102
RTVSPost2010PropOp32
 70
     1
102
RTVSPost2010Prop33
280
     0
102
RTVSPost2010PropOp33
 70
     1
102
RTVSPost2010Prop34
280
     0
102
RTVSPost2010PropOp34
 70
     1
102
RTVSPost2010Prop35
280
     0
102
RTVSPost2010PropOp35
 70
     1
102
RTVSPost2010Prop36
280
     0
102
RTVSPost2010PropOp36
 70
     1
102
RTVSPost2010Prop37
 90
       50
102
RTVSPost2010PropOp37
 70
     1
102
RTVSPost2010Prop38
140
0.0
102
RTVSPost2010PropOp38
 70
     1
102
RTVSPost2010Prop39
140
1.0
102
RTVSPost2010PropOp39
 70
     1
102
RTVSPost2010Prop40
 90
        0
102
RTVSPost2010PropOp40
 70
     1
102
RTVSPost2010Prop41ColorIndex
 90
       18
102
RTVSPost2010Prop41ColorRGB
 90
        0
102
RTVSPost2010PropOp41
 70
     1
102
RTVSPost2010Prop42
 90
       50
102
RTVSPost2010PropOp42
 70
     1
102
RTVSPost2010Prop43
 90
        3
102
RTVSPost2010PropOp43
 70
     1
102
RTVSPost2010Prop44ColorIndex
 90
        5
102
RTVSPost2010Prop44ColorRGB
 90
      255
102
RTVSPost2010PropOp44
 70
     1
102
RTVSPost2010Prop45
280
     0
102
RTVSPost2010PropOp45
 70
     1
102
RTVSPost2010Prop46
 90
       50
102
RTVSPost2010PropOp46
 70
     1
102
RTVSPost2010Prop47
 90
       50
102
RTVSPost2010PropOp47
 70
     1
102
RTVSPost2010Prop48
 90
       50
102
RTVSPost2010PropOp48
 70
     1
102
RTVSPost2010Prop49
280
     0
102
RTVSPost2010PropOp49
 70
     1
102
RTVSPost2010Prop50
 90
       50
102
RTVSPost2010PropOp50
 70
     1
102
RTVSPost2010Prop51ColorIndex
 90
      256
102
RTVSPost2010Prop51ColorRGB
 90
-16777216
102
RTVSPost2010PropOp51
 70
     0
102
RTVSPost2010Prop52
140
1.0
102
RTVSPost2010PropOp52
 70
     0
102
RTVSPost2010Prop53
 90
        2
102
RTVSPost2010PropOp53
 70
     1
102
RTVSPost2010Prop54
  1
strokes_ogs.tif
102
RTVSPost2010PropOp54
 70
     1
102
RTVSPost2010Prop55
280
     0
102
RTVSPost2010PropOp55
 70
     1
102
RTVSPost2010Prop56
140
1.0
102
RTVSPost2010PropOp56
 70
     1
102
RTVSPost2010Prop57
140
1.0
102
RTVSPost2010PropOp57
 70
     1
  0
XRECORD
  5
229
102
{ACAD_REACTORS
330
228
102
}
330
228
100
AcDbXrecord
280
     1
102
RTVSPropertyOp0
 70
     0
102
RTVSPropertyOp1
 70
     0
102
RTVSPropertyOp2
 70
     0
102
RTVSPropertyOp3
 70
     0
102
RTVSPropertyOp4
 70
     0
102
RTVSPropertyOp5
 70
     0
102
RTVSPropertyOp6
 70
     0
102
RTVSPropertyOp7
 70
     0
102
RTVSPropertyOp8
 70
     0
102
RTVSPropertyOp9
 70
     0
102
RTVSPropertyOp10
 70
     0
102
RTVSPropertyOp11
 70
     0
102
RTVSPropertyOp12
 70
     0
102
RTVSPropertyOp13
 70
     0
102
RTVSPropertyOp14
 70
     2
102
RTVSPropertyOp15
 70
     0
102
RTVSPropertyOp16
 70
     0
102
RTVSPropertyOp17
 70
     0
102
RTVSPropertyOp18
 70
     0
102
RTVSPropertyOp19
 70
     0
102
RTVSPropertyOp20
 70
     0
102
RTVSPropertyOp21
 70
     0
102
RTVSPropertyOp22
 70
     0
102
RTVSPropertyOp23
 70
     0
102
RTVSPropertyOp24
 70
     0
102
RTVSPropertyOp25
 70
     0
102
RTVSPropertyOp26
 70
     0
102
RTVSPropertyOp27
 70
     0
102
RTVSPropertyOp28
 70
     0
102
RTVSPropertyOp29
 70
     0
102
RTVSPropertyOp30
 70
     0
102
RTVSPropertyOp31
 70
     0
102
RTVSPropertyOp32
 70
     0
102
RTVSPropertyOp33
 70
     0
102
RTVSPropertyOp34
 70
     0
102
RTVSPropertyOp35
 70
     0
102
RTVSPropertyOp36
 70
     0
102
RTVSPropertyOp37
 70
     0
102
RTVSPropertyOp38
 70
     0
102
RTVSPropertyOp39
 70
     0
102
RTVSPropertyOp40
 70
     0
102
RTVSPropertyOp41
 70
     0
102
RTVSPropertyOp42
 70
     0
102
RTVSPropertyOp43
 70
     0
102
RTVSPropertyOp44
 70
     0
102
RTVSPropertyOp45
 70
     0
102
RTVSPropertyOp46
 70
     0
102
RTVSPropertyOp47
 70
     0
102
RTVSPropertyOp48
 70
     0
102
RTVSPropertyOp49
 70
     0
102
RTVSPropertyOp50
 70
     0
102
RTVSPropertyOp51
 70
     0
102
RTVSPropertyOp52
 70
     0
102
RTVSPropertyOp53
 70
     0
102
RTVSPropertyOp54
 70
     0
102
RTVSPropertyOp55
 70
     0
102
RTVSPropertyOp56
 70
     0
102
RTVSPropertyOp57
 70
     0
102
RTVSPost2010Prop28
280
     0
102
RTVSPost2010PropOp28
 70
     0
102
RTVSPost2010Prop29
280
     1
102
RTVSPost2010PropOp29
 70
     0
102
RTVSPost2010Prop30
280
     1
102
RTVSPost2010PropOp30
 70
     0
102
RTVSPost2010Prop31
280
     0
102
RTVSPost2010PropOp31
 70
     0
102
RTVSPost2010Prop32
280
     0
102
RTVSPost2010PropOp32
 70
     0
102
RTVSPost2010Prop33
280
     0
102
RTVSPost2010PropOp33
 70
     0
102
RTVSPost2010Prop34
280
     0
102
RTVSPost2010PropOp34
 70
     0
102
RTVSPost2010Prop35
280
     0
102
RTVSPost2010PropOp35
 70
     0
102
RTVSPost2010Prop36
280
     0
102
RTVSPost2010PropOp36
 70
     0
102
RTVSPost2010Prop37
 90
       50
102
RTVSPost2010PropOp37
 70
     0
102
RTVSPost2010Prop38
140
0.0
102
RTVSPost2010PropOp38
 70
     0
102
RTVSPost2010Prop39
140
1.0
102
RTVSPost2010PropOp39
 70
     0
102
RTVSPost2010Prop40
 90
        0
102
RTVSPost2010PropOp40
 70
     0
102
RTVSPost2010Prop41ColorIndex
 90
       18
102
RTVSPost2010Prop41ColorRGB
 90
        0
102
RTVSPost2010PropOp41
 70
     0
102
RTVSPost2010Prop42
 90
       50
102
RTVSPost2010PropOp42
 70
     0
102
RTVSPost2010Prop43
 90
        3
102
RTVSPost2010PropOp43
 70
     0
102
RTVSPost2010Prop44ColorIndex
 90
        5
102
RTVSPost2010Prop44ColorRGB
 90
      255
102
RTVSPost2010PropOp44
 70
     0
102
RTVSPost2010Prop45
280
     0
102
RTVSPost2010PropOp45
 70
     0
102
RTVSPost2010Prop46
 90
       50
102
RTVSPost2010PropOp46
 70
     0
102
RTVSPost2010Prop47
 90
       50
102
RTVSPost2010PropOp47
 70
     0
102
RTVSPost2010Prop48
 90
       50
102
RTVSPost2010PropOp48
 70
     0
102
RTVSPost2010Prop49
280
     0
102
RTVSPost2010PropOp49
 70
     0
102
RTVSPost2010Prop50
 90
       50
102
RTVSPost2010PropOp50
 70
     0
102
RTVSPost2010Prop51ColorIndex
 90
      256
102
RTVSPost2010Prop51ColorRGB
 90
-16777216
102
RTVSPost2010PropOp51
 70
     0
102
RTVSPost2010Prop52
140
1.0
102
RTVSPost2010PropOp52
 70
     0
102
RTVSPost2010Prop53
 90
        2
102
RTVSPost2010PropOp53
 70
     0
102
RTVSPost2010Prop54
  1
strokes_ogs.tif
102
RTVSPost2010PropOp54
 70
     0
102
RTVSPost2010Prop55
280
     0
102
RTVSPost2010PropOp55
 70
     0
102
RTVSPost2010Prop56
140
1.0
102
RTVSPost2010PropOp56
 70
     0
102
RTVSPost2010Prop57
140
1.0
102
RTVSPost2010PropOp57
 70
     0
  0
XRECORD
  5
221
102
{ACAD_REACTORS
330
220
102
}
330
220
100
AcDbXrecord
280
     1
102
RTVSPropertyOp0
 70
     1
102
RTVSPropertyOp1
 70
     1
102
RTVSPropertyOp2
 70
     1
102
RTVSPropertyOp3
 70
     1
102
RTVSPropertyOp4
 70
     1
102
RTVSPropertyOp5
 70
     1
102
RTVSPropertyOp6
 70
     1
102
RTVSPropertyOp7
 70
     1
102
RTVSPropertyOp8
 70
     1
102
RTVSPropertyOp9
 70
     1
102
RTVSPropertyOp10
 70
     1
102
RTVSPropertyOp11
 70
     1
102
RTVSPropertyOp12
 70
     1
102
RTVSPropertyOp13
 70
     1
102
RTVSPropertyOp14
 70
     1
102
RTVSPropertyOp15
 70
     1
102
RTVSPropertyOp16
 70
     1
102
RTVSPropertyOp17
 70
     1
102
RTVSPropertyOp18
 70
     1
102
RTVSPropertyOp19
 70
     1
102
RTVSPropertyOp20
 70
     1
102
RTVSPropertyOp21
 70
     1
102
RTVSPropertyOp22
 70
     1
102
RTVSPropertyOp23
 70
     1
102
RTVSPropertyOp24
 70
     1
102
RTVSPropertyOp25
 70
     1
102
RTVSPropertyOp26
 70
     1
102
RTVSPropertyOp27
 70
     1
102
RTVSPropertyOp28
 70
     1
102
RTVSPropertyOp29
 70
     1
102
RTVSPropertyOp30
 70
     1
102
RTVSPropertyOp31
 70
     1
102
RTVSPropertyOp32
 70
     1
102
RTVSPropertyOp33
 70
     1
102
RTVSPropertyOp34
 70
     1
102
RTVSPropertyOp35
 70
     1
102
RTVSPropertyOp36
 70
     1
102
RTVSPropertyOp37
 70
     1
102
RTVSPropertyOp38
 70
     1
102
RTVSPropertyOp39
 70
     1
102
RTVSPropertyOp40
 70
     1
102
RTVSPropertyOp41
 70
     1
102
RTVSPropertyOp42
 70
     1
102
RTVSPropertyOp43
 70
     1
102
RTVSPropertyOp44
 70
     1
102
RTVSPropertyOp45
 70
     1
102
RTVSPropertyOp46
 70
     1
102
RTVSPropertyOp47
 70
     1
102
RTVSPropertyOp48
 70
     1
102
RTVSPropertyOp49
 70
     1
102
RTVSPropertyOp50
 70
     1
102
RTVSPropertyOp51
 70
     0
102
RTVSPropertyOp52
 70
     0
102
RTVSPropertyOp53
 70
     1
102
RTVSPropertyOp54
 70
     1
102
RTVSPropertyOp55
 70
     1
102
RTVSPropertyOp56
 70
     1
102
RTVSPropertyOp57
 70
     1
102
RTVSPost2010Prop28
280
     0
102
RTVSPost2010PropOp28
 70
     1
102
RTVSPost2010Prop29
280
     1
102
RTVSPost2010PropOp29
 70
     1
102
RTVSPost2010Prop30
280
     1
102
RTVSPost2010PropOp30
 70
     1
102
RTVSPost2010Prop31
280
     0
102
RTVSPost2010PropOp31
 70
     1
102
RTVSPost2010Prop32
280
     0
102
RTVSPost2010PropOp32
 70
     1
102
RTVSPost2010Prop33
280
     0
102
RTVSPost2010PropOp33
 70
     1
102
RTVSPost2010Prop34
280
     0
102
RTVSPost2010PropOp34
 70
     1
102
RTVSPost2010Prop35
280
     0
102
RTVSPost2010PropOp35
 70
     1
102
RTVSPost2010Prop36
280
     0
102
RTVSPost2010PropOp36
 70
     1
102
RTVSPost2010Prop37
 90
       50
102
RTVSPost2010PropOp37
 70
     1
102
RTVSPost2010Prop38
140
0.0
102
RTVSPost2010PropOp38
 70
     1
102
RTVSPost2010Prop39
140
1.0
102
RTVSPost2010PropOp39
 70
     1
102
RTVSPost2010Prop40
 90
        0
102
RTVSPost2010PropOp40
 70
     1
102
RTVSPost2010Prop41ColorIndex
 90
       18
102
RTVSPost2010Prop41ColorRGB
 90
        0
102
RTVSPost2010PropOp41
 70
     1
102
RTVSPost2010Prop42
 90
       50
102
RTVSPost2010PropOp42
 70
     1
102
RTVSPost2010Prop43
 90
        3
102
RTVSPost2010PropOp43
 70
     1
102
RTVSPost2010Prop44ColorIndex
 90
        5
102
RTVSPost2010Prop44ColorRGB
 90
      255
102
RTVSPost2010PropOp44
 70
     1
102
RTVSPost2010Prop45
280
     0
102
RTVSPost2010PropOp45
 70
     1
102
RTVSPost2010Prop46
 90
       50
102
RTVSPost2010PropOp46
 70
     1
102
RTVSPost2010Prop47
 90
       50
102
RTVSPost2010PropOp47
 70
     1
102
RTVSPost2010Prop48
 90
       50
102
RTVSPost2010PropOp48
 70
     1
102
RTVSPost2010Prop49
280
     0
102
RTVSPost2010PropOp49
 70
     1
102
RTVSPost2010Prop50
 90
       50
102
RTVSPost2010PropOp50
 70
     1
102
RTVSPost2010Prop51ColorIndex
 90
      256
102
RTVSPost2010Prop51ColorRGB
 90
-16777216
102
RTVSPost2010PropOp51
 70
     0
102
RTVSPost2010Prop52
140
1.0
102
RTVSPost2010PropOp52
 70
     0
102
RTVSPost2010Prop53
 90
        2
102
RTVSPost2010PropOp53
 70
     1
102
RTVSPost2010Prop54
  1
strokes_ogs.tif
102
RTVSPost2010PropOp54
 70
     1
102
RTVSPost2010Prop55
280
     0
102
RTVSPost2010PropOp55
 70
     1
102
RTVSPost2010Prop56
140
1.0
102
RTVSPost2010PropOp56
 70
     1
102
RTVSPost2010Prop57
140
1.0
102
RTVSPost2010PropOp57
 70
     1
  0
XRECORD
  5
205
102
{ACAD_REACTORS
330
204
102
}
330
204
100
AcDbXrecord
280
     1
102
RTVSPropertyOp0
 70
     1
102
RTVSPropertyOp1
 70
     1
102
RTVSPropertyOp2
 70
     1
102
RTVSPropertyOp3
 70
     1
102
RTVSPropertyOp4
 70
     1
102
RTVSPropertyOp5
 70
     1
102
RTVSPropertyOp6
 70
     1
102
RTVSPropertyOp7
 70
     1
102
RTVSPropertyOp8
 70
     1
102
RTVSPropertyOp9
 70
     1
102
RTVSPropertyOp10
 70
     1
102
RTVSPropertyOp11
 70
     1
102
RTVSPropertyOp12
 70
     1
102
RTVSPropertyOp13
 70
     1
102
RTVSPropertyOp14
 70
     1
102
RTVSPropertyOp15
 70
     1
102
RTVSPropertyOp16
 70
     1
102
RTVSPropertyOp17
 70
     1
102
RTVSPropertyOp18
 70
     1
102
RTVSPropertyOp19
 70
     1
102
RTVSPropertyOp20
 70
     1
102
RTVSPropertyOp21
 70
     1
102
RTVSPropertyOp22
 70
     1
102
RTVSPropertyOp23
 70
     1
102
RTVSPropertyOp24
 70
     1
102
RTVSPropertyOp25
 70
     1
102
RTVSPropertyOp26
 70
     1
102
RTVSPropertyOp27
 70
     1
102
RTVSPropertyOp28
 70
     1
102
RTVSPropertyOp29
 70
     1
102
RTVSPropertyOp30
 70
     1
102
RTVSPropertyOp31
 70
     1
102
RTVSPropertyOp32
 70
     1
102
RTVSPropertyOp33
 70
     1
102
RTVSPropertyOp34
 70
     1
102
RTVSPropertyOp35
 70
     1
102
RTVSPropertyOp36
 70
     1
102
RTVSPropertyOp37
 70
     1
102
RTVSPropertyOp38
 70
     1
102
RTVSPropertyOp39
 70
     1
102
RTVSPropertyOp40
 70
     1
102
RTVSPropertyOp41
 70
     1
102
RTVSPropertyOp42
 70
     1
102
RTVSPropertyOp43
 70
     1
102
RTVSPropertyOp44
 70
     1
102
RTVSPropertyOp45
 70
     1
102
RTVSPropertyOp46
 70
     1
102
RTVSPropertyOp47
 70
     1
102
RTVSPropertyOp48
 70
     1
102
RTVSPropertyOp49
 70
     1
102
RTVSPropertyOp50
 70
     1
102
RTVSPropertyOp51
 70
     0
102
RTVSPropertyOp52
 70
     0
102
RTVSPropertyOp53
 70
     1
102
RTVSPropertyOp54
 70
     1
102
RTVSPropertyOp55
 70
     1
102
RTVSPropertyOp56
 70
     1
102
RTVSPropertyOp57
 70
     1
102
RTVSPost2010Prop28
280
     0
102
RTVSPost2010PropOp28
 70
     1
102
RTVSPost2010Prop29
280
     1
102
RTVSPost2010PropOp29
 70
     1
102
RTVSPost2010Prop30
280
     1
102
RTVSPost2010PropOp30
 70
     1
102
RTVSPost2010Prop31
280
     0
102
RTVSPost2010PropOp31
 70
     1
102
RTVSPost2010Prop32
280
     0
102
RTVSPost2010PropOp32
 70
     1
102
RTVSPost2010Prop33
280
     0
102
RTVSPost2010PropOp33
 70
     1
102
RTVSPost2010Prop34
280
     0
102
RTVSPost2010PropOp34
 70
     1
102
RTVSPost2010Prop35
280
     0
102
RTVSPost2010PropOp35
 70
     1
102
RTVSPost2010Prop36
280
     0
102
RTVSPost2010PropOp36
 70
     1
102
RTVSPost2010Prop37
 90
       50
102
RTVSPost2010PropOp37
 70
     1
102
RTVSPost2010Prop38
140
0.0
102
RTVSPost2010PropOp38
 70
     1
102
RTVSPost2010Prop39
140
1.0
102
RTVSPost2010PropOp39
 70
     1
102
RTVSPost2010Prop40
 90
        0
102
RTVSPost2010PropOp40
 70
     1
102
RTVSPost2010Prop41ColorIndex
 90
       18
102
RTVSPost2010Prop41ColorRGB
 90
        0
102
RTVSPost2010PropOp41
 70
     1
102
RTVSPost2010Prop42
 90
       50
102
RTVSPost2010PropOp42
 70
     1
102
RTVSPost2010Prop43
 90
        3
102
RTVSPost2010PropOp43
 70
     1
102
RTVSPost2010Prop44ColorIndex
 90
        5
102
RTVSPost2010Prop44ColorRGB
 90
      255
102
RTVSPost2010PropOp44
 70
     1
102
RTVSPost2010Prop45
280
     0
102
RTVSPost2010PropOp45
 70
     1
102
RTVSPost2010Prop46
 90
       50
102
RTVSPost2010PropOp46
 70
     1
102
RTVSPost2010Prop47
 90
       50
102
RTVSPost2010PropOp47
 70
     1
102
RTVSPost2010Prop48
 90
       50
102
RTVSPost2010PropOp48
 70
     1
102
RTVSPost2010Prop49
280
     0
102
RTVSPost2010PropOp49
 70
     1
102
RTVSPost2010Prop50
 90
       50
102
RTVSPost2010PropOp50
 70
     1
102
RTVSPost2010Prop51ColorIndex
 90
      256
102
RTVSPost2010Prop51ColorRGB
 90
-16777216
102
RTVSPost2010PropOp51
 70
     0
102
RTVSPost2010Prop52
140
1.0
102
RTVSPost2010PropOp52
 70
     0
102
RTVSPost2010Prop53
 90
        2
102
RTVSPost2010PropOp53
 70
     1
102
RTVSPost2010Prop54
  1
strokes_ogs.tif
102
RTVSPost2010PropOp54
 70
     1
102
RTVSPost2010Prop55
280
     0
102
RTVSPost2010PropOp55
 70
     1
102
RTVSPost2010Prop56
140
1.0
102
RTVSPost2010PropOp56
 70
     1
102
RTVSPost2010Prop57
140
1.0
102
RTVSPost2010PropOp57
 70
     1
  0
XRECORD
  5
207
102
{ACAD_REACTORS
330
206
102
}
330
206
100
AcDbXrecord
280
     1
102
RTVSPropertyOp0
 70
     1
102
RTVSPropertyOp1
 70
     1
102
RTVSPropertyOp2
 70
     1
102
RTVSPropertyOp3
 70
     1
102
RTVSPropertyOp4
 70
     1
102
RTVSPropertyOp5
 70
     1
102
RTVSPropertyOp6
 70
     1
102
RTVSPropertyOp7
 70
     1
102
RTVSPropertyOp8
 70
     1
102
RTVSPropertyOp9
 70
     1
102
RTVSPropertyOp10
 70
     1
102
RTVSPropertyOp11
 70
     1
102
RTVSPropertyOp12
 70
     1
102
RTVSPropertyOp13
 70
     1
102
RTVSPropertyOp14
 70
     1
102
RTVSPropertyOp15
 70
     1
102
RTVSPropertyOp16
 70
     1
102
RTVSPropertyOp17
 70
     1
102
RTVSPropertyOp18
 70
     1
102
RTVSPropertyOp19
 70
     1
102
RTVSPropertyOp20
 70
     1
102
RTVSPropertyOp21
 70
     1
102
RTVSPropertyOp22
 70
     1
102
RTVSPropertyOp23
 70
     1
102
RTVSPropertyOp24
 70
     1
102
RTVSPropertyOp25
 70
     1
102
RTVSPropertyOp26
 70
     1
102
RTVSPropertyOp27
 70
     1
102
RTVSPropertyOp28
 70
     1
102
RTVSPropertyOp29
 70
     1
102
RTVSPropertyOp30
 70
     1
102
RTVSPropertyOp31
 70
     1
102
RTVSPropertyOp32
 70
     1
102
RTVSPropertyOp33
 70
     1
102
RTVSPropertyOp34
 70
     1
102
RTVSPropertyOp35
 70
     1
102
RTVSPropertyOp36
 70
     1
102
RTVSPropertyOp37
 70
     1
102
RTVSPropertyOp38
 70
     1
102
RTVSPropertyOp39
 70
     1
102
RTVSPropertyOp40
 70
     1
102
RTVSPropertyOp41
 70
     1
102
RTVSPropertyOp42
 70
     1
102
RTVSPropertyOp43
 70
     1
102
RTVSPropertyOp44
 70
     1
102
RTVSPropertyOp45
 70
     1
102
RTVSPropertyOp46
 70
     1
102
RTVSPropertyOp47
 70
     1
102
RTVSPropertyOp48
 70
     1
102
RTVSPropertyOp49
 70
     1
102
RTVSPropertyOp50
 70
     1
102
RTVSPropertyOp51
 70
     0
102
RTVSPropertyOp52
 70
     0
102
RTVSPropertyOp53
 70
     1
102
RTVSPropertyOp54
 70
     1
102
RTVSPropertyOp55
 70
     1
102
RTVSPropertyOp56
 70
     1
102
RTVSPropertyOp57
 70
     1
102
RTVSPost2010Prop28
280
     0
102
RTVSPost2010PropOp28
 70
     1
102
RTVSPost2010Prop29
280
     1
102
RTVSPost2010PropOp29
 70
     1
102
RTVSPost2010Prop30
280
     1
102
RTVSPost2010PropOp30
 70
     1
102
RTVSPost2010Prop31
280
     0
102
RTVSPost2010PropOp31
 70
     1
102
RTVSPost2010Prop32
280
     0
102
RTVSPost2010PropOp32
 70
     1
102
RTVSPost2010Prop33
280
     0
102
RTVSPost2010PropOp33
 70
     1
102
RTVSPost2010Prop34
280
     0
102
RTVSPost2010PropOp34
 70
     1
102
RTVSPost2010Prop35
280
     0
102
RTVSPost2010PropOp35
 70
     1
102
RTVSPost2010Prop36
280
     0
102
RTVSPost2010PropOp36
 70
     1
102
RTVSPost2010Prop37
 90
       50
102
RTVSPost2010PropOp37
 70
     1
102
RTVSPost2010Prop38
140
0.0
102
RTVSPost2010PropOp38
 70
     1
102
RTVSPost2010Prop39
140
1.0
102
RTVSPost2010PropOp39
 70
     1
102
RTVSPost2010Prop40
 90
        0
102
RTVSPost2010PropOp40
 70
     1
102
RTVSPost2010Prop41ColorIndex
 90
       18
102
RTVSPost2010Prop41ColorRGB
 90
        0
102
RTVSPost2010PropOp41
 70
     1
102
RTVSPost2010Prop42
 90
       50
102
RTVSPost2010PropOp42
 70
     1
102
RTVSPost2010Prop43
 90
        3
102
RTVSPost2010PropOp43
 70
     1
102
RTVSPost2010Prop44ColorIndex
 90
        5
102
RTVSPost2010Prop44ColorRGB
 90
      255
102
RTVSPost2010PropOp44
 70
     1
102
RTVSPost2010Prop45
280
     0
102
RTVSPost2010PropOp45
 70
     1
102
RTVSPost2010Prop46
 90
       50
102
RTVSPost2010PropOp46
 70
     1
102
RTVSPost2010Prop47
 90
       50
102
RTVSPost2010PropOp47
 70
     1
102
RTVSPost2010Prop48
 90
       50
102
RTVSPost2010PropOp48
 70
     1
102
RTVSPost2010Prop49
280
     0
102
RTVSPost2010PropOp49
 70
     1
102
RTVSPost2010Prop50
 90
       50
102
RTVSPost2010PropOp50
 70
     1
102
RTVSPost2010Prop51ColorIndex
 90
      256
102
RTVSPost2010Prop51ColorRGB
 90
-16777216
102
RTVSPost2010PropOp51
 70
     0
102
RTVSPost2010Prop52
140
1.0
102
RTVSPost2010PropOp52
 70
     0
102
RTVSPost2010Prop53
 90
        2
102
RTVSPost2010PropOp53
 70
     1
102
RTVSPost2010Prop54
  1
strokes_ogs.tif
102
RTVSPost2010PropOp54
 70
     1
102
RTVSPost2010Prop55
280
     0
102
RTVSPost2010PropOp55
 70
     1
102
RTVSPost2010Prop56
140
1.0
102
RTVSPost2010PropOp56
 70
     1
102
RTVSPost2010Prop57
140
1.0
102
RTVSPost2010PropOp57
 70
     1
  0
XRECORD
  5
209
102
{ACAD_REACTORS
330
208
102
}
330
208
100
AcDbXrecord
280
     1
102
RTVSPropertyOp0
 70
     1
102
RTVSPropertyOp1
 70
     1
102
RTVSPropertyOp2
 70
     1
102
RTVSPropertyOp3
 70
     1
102
RTVSPropertyOp4
 70
     1
102
RTVSPropertyOp5
 70
     1
102
RTVSPropertyOp6
 70
     1
102
RTVSPropertyOp7
 70
     1
102
RTVSPropertyOp8
 70
     1
102
RTVSPropertyOp9
 70
     1
102
RTVSPropertyOp10
 70
     1
102
RTVSPropertyOp11
 70
     1
102
RTVSPropertyOp12
 70
     1
102
RTVSPropertyOp13
 70
     1
102
RTVSPropertyOp14
 70
     1
102
RTVSPropertyOp15
 70
     1
102
RTVSPropertyOp16
 70
     1
102
RTVSPropertyOp17
 70
     1
102
RTVSPropertyOp18
 70
     1
102
RTVSPropertyOp19
 70
     1
102
RTVSPropertyOp20
 70
     1
102
RTVSPropertyOp21
 70
     1
102
RTVSPropertyOp22
 70
     1
102
RTVSPropertyOp23
 70
     1
102
RTVSPropertyOp24
 70
     1
102
RTVSPropertyOp25
 70
     1
102
RTVSPropertyOp26
 70
     1
102
RTVSPropertyOp27
 70
     1
102
RTVSPropertyOp28
 70
     1
102
RTVSPropertyOp29
 70
     1
102
RTVSPropertyOp30
 70
     1
102
RTVSPropertyOp31
 70
     1
102
RTVSPropertyOp32
 70
     1
102
RTVSPropertyOp33
 70
     1
102
RTVSPropertyOp34
 70
     1
102
RTVSPropertyOp35
 70
     1
102
RTVSPropertyOp36
 70
     1
102
RTVSPropertyOp37
 70
     1
102
RTVSPropertyOp38
 70
     1
102
RTVSPropertyOp39
 70
     1
102
RTVSPropertyOp40
 70
     1
102
RTVSPropertyOp41
 70
     1
102
RTVSPropertyOp42
 70
     1
102
RTVSPropertyOp43
 70
     1
102
RTVSPropertyOp44
 70
     1
102
RTVSPropertyOp45
 70
     1
102
RTVSPropertyOp46
 70
     1
102
RTVSPropertyOp47
 70
     1
102
RTVSPropertyOp48
 70
     1
102
RTVSPropertyOp49
 70
     1
102
RTVSPropertyOp50
 70
     1
102
RTVSPropertyOp51
 70
     0
102
RTVSPropertyOp52
 70
     0
102
RTVSPropertyOp53
 70
     1
102
RTVSPropertyOp54
 70
     1
102
RTVSPropertyOp55
 70
     1
102
RTVSPropertyOp56
 70
     1
102
RTVSPropertyOp57
 70
     1
102
RTVSPost2010Prop28
280
     0
102
RTVSPost2010PropOp28
 70
     1
102
RTVSPost2010Prop29
280
     1
102
RTVSPost2010PropOp29
 70
     1
102
RTVSPost2010Prop30
280
     1
102
RTVSPost2010PropOp30
 70
     1
102
RTVSPost2010Prop31
280
     0
102
RTVSPost2010PropOp31
 70
     1
102
RTVSPost2010Prop32
280
     0
102
RTVSPost2010PropOp32
 70
     1
102
RTVSPost2010Prop33
280
     0
102
RTVSPost2010PropOp33
 70
     1
102
RTVSPost2010Prop34
280
     0
102
RTVSPost2010PropOp34
 70
     1
102
RTVSPost2010Prop35
280
     0
102
RTVSPost2010PropOp35
 70
     1
102
RTVSPost2010Prop36
280
     0
102
RTVSPost2010PropOp36
 70
     1
102
RTVSPost2010Prop37
 90
       50
102
RTVSPost2010PropOp37
 70
     1
102
RTVSPost2010Prop38
140
0.0
102
RTVSPost2010PropOp38
 70
     1
102
RTVSPost2010Prop39
140
1.0
102
RTVSPost2010PropOp39
 70
     1
102
RTVSPost2010Prop40
 90
        0
102
RTVSPost2010PropOp40
 70
     1
102
RTVSPost2010Prop41ColorIndex
 90
       18
102
RTVSPost2010Prop41ColorRGB
 90
        0
102
RTVSPost2010PropOp41
 70
     1
102
RTVSPost2010Prop42
 90
       50
102
RTVSPost2010PropOp42
 70
     1
102
RTVSPost2010Prop43
 90
        3
102
RTVSPost2010PropOp43
 70
     1
102
RTVSPost2010Prop44ColorIndex
 90
        5
102
RTVSPost2010Prop44ColorRGB
 90
      255
102
RTVSPost2010PropOp44
 70
     1
102
RTVSPost2010Prop45
280
     0
102
RTVSPost2010PropOp45
 70
     1
102
RTVSPost2010Prop46
 90
       50
102
RTVSPost2010PropOp46
 70
     1
102
RTVSPost2010Prop47
 90
       50
102
RTVSPost2010PropOp47
 70
     1
102
RTVSPost2010Prop48
 90
       50
102
RTVSPost2010PropOp48
 70
     1
102
RTVSPost2010Prop49
280
     0
102
RTVSPost2010PropOp49
 70
     1
102
RTVSPost2010Prop50
 90
       50
102
RTVSPost2010PropOp50
 70
     1
102
RTVSPost2010Prop51ColorIndex
 90
      256
102
RTVSPost2010Prop51ColorRGB
 90
-16777216
102
RTVSPost2010PropOp51
 70
     0
102
RTVSPost2010Prop52
140
1.0
102
RTVSPost2010PropOp52
 70
     0
102
RTVSPost2010Prop53
 90
        2
102
RTVSPost2010PropOp53
 70
     1
102
RTVSPost2010Prop54
  1
strokes_ogs.tif
102
RTVSPost2010PropOp54
 70
     1
102
RTVSPost2010Prop55
280
     0
102
RTVSPost2010PropOp55
 70
     1
102
RTVSPost2010Prop56
140
1.0
102
RTVSPost2010PropOp56
 70
     1
102
RTVSPost2010Prop57
140
1.0
102
RTVSPost2010PropOp57
 70
     1
  0
XRECORD
  5
20B
102
{ACAD_REACTORS
330
20A
102
}
330
20A
100
AcDbXrecord
280
     1
102
RTVSPropertyOp0
 70
     1
102
RTVSPropertyOp1
 70
     1
102
RTVSPropertyOp2
 70
     1
102
RTVSPropertyOp3
 70
     1
102
RTVSPropertyOp4
 70
     1
102
RTVSPropertyOp5
 70
     1
102
RTVSPropertyOp6
 70
     1
102
RTVSPropertyOp7
 70
     1
102
RTVSPropertyOp8
 70
     1
102
RTVSPropertyOp9
 70
     1
102
RTVSPropertyOp10
 70
     1
102
RTVSPropertyOp11
 70
     1
102
RTVSPropertyOp12
 70
     1
102
RTVSPropertyOp13
 70
     1
102
RTVSPropertyOp14
 70
     1
102
RTVSPropertyOp15
 70
     1
102
RTVSPropertyOp16
 70
     1
102
RTVSPropertyOp17
 70
     1
102
RTVSPropertyOp18
 70
     1
102
RTVSPropertyOp19
 70
     1
102
RTVSPropertyOp20
 70
     1
102
RTVSPropertyOp21
 70
     1
102
RTVSPropertyOp22
 70
     1
102
RTVSPropertyOp23
 70
     1
102
RTVSPropertyOp24
 70
     1
102
RTVSPropertyOp25
 70
     1
102
RTVSPropertyOp26
 70
     1
102
RTVSPropertyOp27
 70
     1
102
RTVSPropertyOp28
 70
     1
102
RTVSPropertyOp29
 70
     1
102
RTVSPropertyOp30
 70
     1
102
RTVSPropertyOp31
 70
     1
102
RTVSPropertyOp32
 70
     1
102
RTVSPropertyOp33
 70
     1
102
RTVSPropertyOp34
 70
     1
102
RTVSPropertyOp35
 70
     1
102
RTVSPropertyOp36
 70
     1
102
RTVSPropertyOp37
 70
     1
102
RTVSPropertyOp38
 70
     1
102
RTVSPropertyOp39
 70
     1
102
RTVSPropertyOp40
 70
     1
102
RTVSPropertyOp41
 70
     1
102
RTVSPropertyOp42
 70
     1
102
RTVSPropertyOp43
 70
     1
102
RTVSPropertyOp44
 70
     1
102
RTVSPropertyOp45
 70
     1
102
RTVSPropertyOp46
 70
     1
102
RTVSPropertyOp47
 70
     1
102
RTVSPropertyOp48
 70
     1
102
RTVSPropertyOp49
 70
     1
102
RTVSPropertyOp50
 70
     1
102
RTVSPropertyOp51
 70
     0
102
RTVSPropertyOp52
 70
     0
102
RTVSPropertyOp53
 70
     1
102
RTVSPropertyOp54
 70
     1
102
RTVSPropertyOp55
 70
     1
102
RTVSPropertyOp56
 70
     1
102
RTVSPropertyOp57
 70
     1
102
RTVSPost2010Prop28
280
     0
102
RTVSPost2010PropOp28
 70
     1
102
RTVSPost2010Prop29
280
     1
102
RTVSPost2010PropOp29
 70
     1
102
RTVSPost2010Prop30
280
     1
102
RTVSPost2010PropOp30
 70
     1
102
RTVSPost2010Prop31
280
     0
102
RTVSPost2010PropOp31
 70
     1
102
RTVSPost2010Prop32
280
     0
102
RTVSPost2010PropOp32
 70
     1
102
RTVSPost2010Prop33
280
     0
102
RTVSPost2010PropOp33
 70
     1
102
RTVSPost2010Prop34
280
     0
102
RTVSPost2010PropOp34
 70
     1
102
RTVSPost2010Prop35
280
     0
102
RTVSPost2010PropOp35
 70
     1
102
RTVSPost2010Prop36
280
     0
102
RTVSPost2010PropOp36
 70
     1
102
RTVSPost2010Prop37
 90
       50
102
RTVSPost2010PropOp37
 70
     1
102
RTVSPost2010Prop38
140
0.0
102
RTVSPost2010PropOp38
 70
     1
102
RTVSPost2010Prop39
140
1.0
102
RTVSPost2010PropOp39
 70
     1
102
RTVSPost2010Prop40
 90
        0
102
RTVSPost2010PropOp40
 70
     1
102
RTVSPost2010Prop41ColorIndex
 90
       18
102
RTVSPost2010Prop41ColorRGB
 90
        0
102
RTVSPost2010PropOp41
 70
     1
102
RTVSPost2010Prop42
 90
       50
102
RTVSPost2010PropOp42
 70
     1
102
RTVSPost2010Prop43
 90
        3
102
RTVSPost2010PropOp43
 70
     1
102
RTVSPost2010Prop44ColorIndex
 90
        5
102
RTVSPost2010Prop44ColorRGB
 90
      255
102
RTVSPost2010PropOp44
 70
     1
102
RTVSPost2010Prop45
280
     0
102
RTVSPost2010PropOp45
 70
     1
102
RTVSPost2010Prop46
 90
       50
102
RTVSPost2010PropOp46
 70
     1
102
RTVSPost2010Prop47
 90
       50
102
RTVSPost2010PropOp47
 70
     1
102
RTVSPost2010Prop48
 90
       50
102
RTVSPost2010PropOp48
 70
     1
102
RTVSPost2010Prop49
280
     0
102
RTVSPost2010PropOp49
 70
     1
102
RTVSPost2010Prop50
 90
       50
102
RTVSPost2010PropOp50
 70
     1
102
RTVSPost2010Prop51ColorIndex
 90
      256
102
RTVSPost2010Prop51ColorRGB
 90
-16777216
102
RTVSPost2010PropOp51
 70
     0
102
RTVSPost2010Prop52
140
1.0
102
RTVSPost2010PropOp52
 70
     0
102
RTVSPost2010Prop53
 90
        2
102
RTVSPost2010PropOp53
 70
     1
102
RTVSPost2010Prop54
  1
strokes_ogs.tif
102
RTVSPost2010PropOp54
 70
     1
102
RTVSPost2010Prop55
280
     0
102
RTVSPost2010PropOp55
 70
     1
102
RTVSPost2010Prop56
140
1.0
102
RTVSPost2010PropOp56
 70
     1
102
RTVSPost2010Prop57
140
1.0
102
RTVSPost2010PropOp57
 70
     1
  0
XRECORD
  5
211
102
{ACAD_REACTORS
330
210
102
}
330
210
100
AcDbXrecord
280
     1
102
RTVSPropertyOp0
 70
     1
102
RTVSPropertyOp1
 70
     1
102
RTVSPropertyOp2
 70
     1
102
RTVSPropertyOp3
 70
     1
102
RTVSPropertyOp4
 70
     1
102
RTVSPropertyOp5
 70
     1
102
RTVSPropertyOp6
 70
     1
102
RTVSPropertyOp7
 70
     1
102
RTVSPropertyOp8
 70
     1
102
RTVSPropertyOp9
 70
     1
102
RTVSPropertyOp10
 70
     1
102
RTVSPropertyOp11
 70
     1
102
RTVSPropertyOp12
 70
     1
102
RTVSPropertyOp13
 70
     1
102
RTVSPropertyOp14
 70
     1
102
RTVSPropertyOp15
 70
     1
102
RTVSPropertyOp16
 70
     1
102
RTVSPropertyOp17
 70
     1
102
RTVSPropertyOp18
 70
     1
102
RTVSPropertyOp19
 70
     1
102
RTVSPropertyOp20
 70
     1
102
RTVSPropertyOp21
 70
     1
102
RTVSPropertyOp22
 70
     1
102
RTVSPropertyOp23
 70
     1
102
RTVSPropertyOp24
 70
     1
102
RTVSPropertyOp25
 70
     1
102
RTVSPropertyOp26
 70
     1
102
RTVSPropertyOp27
 70
     1
102
RTVSPropertyOp28
 70
     1
102
RTVSPropertyOp29
 70
     1
102
RTVSPropertyOp30
 70
     1
102
RTVSPropertyOp31
 70
     1
102
RTVSPropertyOp32
 70
     1
102
RTVSPropertyOp33
 70
     1
102
RTVSPropertyOp34
 70
     1
102
RTVSPropertyOp35
 70
     1
102
RTVSPropertyOp36
 70
     1
102
RTVSPropertyOp37
 70
     1
102
RTVSPropertyOp38
 70
     1
102
RTVSPropertyOp39
 70
     1
102
RTVSPropertyOp40
 70
     1
102
RTVSPropertyOp41
 70
     1
102
RTVSPropertyOp42
 70
     1
102
RTVSPropertyOp43
 70
     1
102
RTVSPropertyOp44
 70
     1
102
RTVSPropertyOp45
 70
     1
102
RTVSPropertyOp46
 70
     1
102
RTVSPropertyOp47
 70
     1
102
RTVSPropertyOp48
 70
     1
102
RTVSPropertyOp49
 70
     1
102
RTVSPropertyOp50
 70
     1
102
RTVSPropertyOp51
 70
     0
102
RTVSPropertyOp52
 70
     0
102
RTVSPropertyOp53
 70
     1
102
RTVSPropertyOp54
 70
     1
102
RTVSPropertyOp55
 70
     1
102
RTVSPropertyOp56
 70
     1
102
RTVSPropertyOp57
 70
     1
102
RTVSPost2010Prop28
280
     0
102
RTVSPost2010PropOp28
 70
     1
102
RTVSPost2010Prop29
280
     1
102
RTVSPost2010PropOp29
 70
     1
102
RTVSPost2010Prop30
280
     1
102
RTVSPost2010PropOp30
 70
     1
102
RTVSPost2010Prop31
280
     0
102
RTVSPost2010PropOp31
 70
     1
102
RTVSPost2010Prop32
280
     0
102
RTVSPost2010PropOp32
 70
     1
102
RTVSPost2010Prop33
280
     0
102
RTVSPost2010PropOp33
 70
     1
102
RTVSPost2010Prop34
280
     0
102
RTVSPost2010PropOp34
 70
     1
102
RTVSPost2010Prop35
280
     0
102
RTVSPost2010PropOp35
 70
     1
102
RTVSPost2010Prop36
280
     0
102
RTVSPost2010PropOp36
 70
     1
102
RTVSPost2010Prop37
 90
       50
102
RTVSPost2010PropOp37
 70
     1
102
RTVSPost2010Prop38
140
0.0
102
RTVSPost2010PropOp38
 70
     1
102
RTVSPost2010Prop39
140
1.0
102
RTVSPost2010PropOp39
 70
     1
102
RTVSPost2010Prop40
 90
        0
102
RTVSPost2010PropOp40
 70
     1
102
RTVSPost2010Prop41ColorIndex
 90
       18
102
RTVSPost2010Prop41ColorRGB
 90
        0
102
RTVSPost2010PropOp41
 70
     1
102
RTVSPost2010Prop42
 90
       50
102
RTVSPost2010PropOp42
 70
     1
102
RTVSPost2010Prop43
 90
        3
102
RTVSPost2010PropOp43
 70
     1
102
RTVSPost2010Prop44ColorIndex
 90
        5
102
RTVSPost2010Prop44ColorRGB
 90
      255
102
RTVSPost2010PropOp44
 70
     1
102
RTVSPost2010Prop45
280
     0
102
RTVSPost2010PropOp45
 70
     1
102
RTVSPost2010Prop46
 90
       50
102
RTVSPost2010PropOp46
 70
     1
102
RTVSPost2010Prop47
 90
       50
102
RTVSPost2010PropOp47
 70
     1
102
RTVSPost2010Prop48
 90
       50
102
RTVSPost2010PropOp48
 70
     1
102
RTVSPost2010Prop49
280
     0
102
RTVSPost2010PropOp49
 70
     1
102
RTVSPost2010Prop50
 90
       50
102
RTVSPost2010PropOp50
 70
     1
102
RTVSPost2010Prop51ColorIndex
 90
      256
102
RTVSPost2010Prop51ColorRGB
 90
-16777216
102
RTVSPost2010PropOp51
 70
     0
102
RTVSPost2010Prop52
140
1.0
102
RTVSPost2010PropOp52
 70
     0
102
RTVSPost2010Prop53
 90
        2
102
RTVSPost2010PropOp53
 70
     1
102
RTVSPost2010Prop54
  1
strokes_ogs.tif
102
RTVSPost2010PropOp54
 70
     1
102
RTVSPost2010Prop55
280
     0
102
RTVSPost2010PropOp55
 70
     1
102
RTVSPost2010Prop56
140
1.0
102
RTVSPost2010PropOp56
 70
     1
102
RTVSPost2010Prop57
140
1.0
102
RTVSPost2010PropOp57
 70
     1
  0
XRECORD
  5
225
102
{ACAD_REACTORS
330
224
102
}
330
224
100
AcDbXrecord
280
     1
102
RTVSPropertyOp0
 70
     0
102
RTVSPropertyOp1
 70
     0
102
RTVSPropertyOp2
 70
     0
102
RTVSPropertyOp3
 70
     0
102
RTVSPropertyOp4
 70
     0
102
RTVSPropertyOp5
 70
     0
102
RTVSPropertyOp6
 70
     0
102
RTVSPropertyOp7
 70
     0
102
RTVSPropertyOp8
 70
     0
102
RTVSPropertyOp9
 70
     0
102
RTVSPropertyOp10
 70
     0
102
RTVSPropertyOp11
 70
     0
102
RTVSPropertyOp12
 70
     0
102
RTVSPropertyOp13
 70
     0
102
RTVSPropertyOp14
 70
     2
102
RTVSPropertyOp15
 70
     0
102
RTVSPropertyOp16
 70
     0
102
RTVSPropertyOp17
 70
     0
102
RTVSPropertyOp18
 70
     0
102
RTVSPropertyOp19
 70
     0
102
RTVSPropertyOp20
 70
     0
102
RTVSPropertyOp21
 70
     0
102
RTVSPropertyOp22
 70
     0
102
RTVSPropertyOp23
 70
     0
102
RTVSPropertyOp24
 70
     0
102
RTVSPropertyOp25
 70
     0
102
RTVSPropertyOp26
 70
     0
102
RTVSPropertyOp27
 70
     0
102
RTVSPropertyOp28
 70
     0
102
RTVSPropertyOp29
 70
     0
102
RTVSPropertyOp30
 70
     0
102
RTVSPropertyOp31
 70
     0
102
RTVSPropertyOp32
 70
     0
102
RTVSPropertyOp33
 70
     0
102
RTVSPropertyOp34
 70
     0
102
RTVSPropertyOp35
 70
     0
102
RTVSPropertyOp36
 70
     0
102
RTVSPropertyOp37
 70
     0
102
RTVSPropertyOp38
 70
     0
102
RTVSPropertyOp39
 70
     0
102
RTVSPropertyOp40
 70
     0
102
RTVSPropertyOp41
 70
     0
102
RTVSPropertyOp42
 70
     0
102
RTVSPropertyOp43
 70
     0
102
RTVSPropertyOp44
 70
     0
102
RTVSPropertyOp45
 70
     0
102
RTVSPropertyOp46
 70
     0
102
RTVSPropertyOp47
 70
     0
102
RTVSPropertyOp48
 70
     0
102
RTVSPropertyOp49
 70
     0
102
RTVSPropertyOp50
 70
     0
102
RTVSPropertyOp51
 70
     0
102
RTVSPropertyOp52
 70
     0
102
RTVSPropertyOp53
 70
     0
102
RTVSPropertyOp54
 70
     0
102
RTVSPropertyOp55
 70
     0
102
RTVSPropertyOp56
 70
     0
102
RTVSPropertyOp57
 70
     0
102
RTVSPost2010Prop28
280
     0
102
RTVSPost2010PropOp28
 70
     0
102
RTVSPost2010Prop29
280
     1
102
RTVSPost2010PropOp29
 70
     0
102
RTVSPost2010Prop30
280
     1
102
RTVSPost2010PropOp30
 70
     0
102
RTVSPost2010Prop31
280
     0
102
RTVSPost2010PropOp31
 70
     0
102
RTVSPost2010Prop32
280
     0
102
RTVSPost2010PropOp32
 70
     0
102
RTVSPost2010Prop33
280
     0
102
RTVSPost2010PropOp33
 70
     0
102
RTVSPost2010Prop34
280
     0
102
RTVSPost2010PropOp34
 70
     0
102
RTVSPost2010Prop35
280
     0
102
RTVSPost2010PropOp35
 70
     0
102
RTVSPost2010Prop36
280
     0
102
RTVSPost2010PropOp36
 70
     0
102
RTVSPost2010Prop37
 90
       50
102
RTVSPost2010PropOp37
 70
     0
102
RTVSPost2010Prop38
140
0.0
102
RTVSPost2010PropOp38
 70
     0
102
RTVSPost2010Prop39
140
1.0
102
RTVSPost2010PropOp39
 70
     0
102
RTVSPost2010Prop40
 90
        0
102
RTVSPost2010PropOp40
 70
     0
102
RTVSPost2010Prop41ColorIndex
 90
       18
102
RTVSPost2010Prop41ColorRGB
 90
        0
102
RTVSPost2010PropOp41
 70
     0
102
RTVSPost2010Prop42
 90
       50
102
RTVSPost2010PropOp42
 70
     0
102
RTVSPost2010Prop43
 90
        3
102
RTVSPost2010PropOp43
 70
     0
102
RTVSPost2010Prop44ColorIndex
 90
        5
102
RTVSPost2010Prop44ColorRGB
 90
      255
102
RTVSPost2010PropOp44
 70
     0
102
RTVSPost2010Prop45
280
     0
102
RTVSPost2010PropOp45
 70
     0
102
RTVSPost2010Prop46
 90
       50
102
RTVSPost2010PropOp46
 70
     0
102
RTVSPost2010Prop47
 90
       50
102
RTVSPost2010PropOp47
 70
     0
102
RTVSPost2010Prop48
 90
       50
102
RTVSPost2010PropOp48
 70
     0
102
RTVSPost2010Prop49
280
     0
102
RTVSPost2010PropOp49
 70
     0
102
RTVSPost2010Prop50
 90
       50
102
RTVSPost2010PropOp50
 70
     0
102
RTVSPost2010Prop51ColorIndex
 90
      256
102
RTVSPost2010Prop51ColorRGB
 90
-16777216
102
RTVSPost2010PropOp51
 70
     0
102
RTVSPost2010Prop52
140
1.0
102
RTVSPost2010PropOp52
 70
     0
102
RTVSPost2010Prop53
 90
        2
102
RTVSPost2010PropOp53
 70
     0
102
RTVSPost2010Prop54
  1
strokes_ogs.tif
102
RTVSPost2010PropOp54
 70
     0
102
RTVSPost2010Prop55
280
     0
102
RTVSPost2010PropOp55
 70
     0
102
RTVSPost2010Prop56
140
1.0
102
RTVSPost2010PropOp56
 70
     0
102
RTVSPost2010Prop57
140
1.0
102
RTVSPost2010PropOp57
 70
     0
  0
XRECORD
  5
21F
102
{ACAD_REACTORS
330
21E
102
}
330
21E
100
AcDbXrecord
280
     1
102
RTVSPropertyOp0
 70
     1
102
RTVSPropertyOp1
 70
     1
102
RTVSPropertyOp2
 70
     1
102
RTVSPropertyOp3
 70
     1
102
RTVSPropertyOp4
 70
     1
102
RTVSPropertyOp5
 70
     1
102
RTVSPropertyOp6
 70
     1
102
RTVSPropertyOp7
 70
     1
102
RTVSPropertyOp8
 70
     1
102
RTVSPropertyOp9
 70
     1
102
RTVSPropertyOp10
 70
     1
102
RTVSPropertyOp11
 70
     1
102
RTVSPropertyOp12
 70
     1
102
RTVSPropertyOp13
 70
     1
102
RTVSPropertyOp14
 70
     1
102
RTVSPropertyOp15
 70
     1
102
RTVSPropertyOp16
 70
     1
102
RTVSPropertyOp17
 70
     1
102
RTVSPropertyOp18
 70
     1
102
RTVSPropertyOp19
 70
     1
102
RTVSPropertyOp20
 70
     1
102
RTVSPropertyOp21
 70
     1
102
RTVSPropertyOp22
 70
     1
102
RTVSPropertyOp23
 70
     1
102
RTVSPropertyOp24
 70
     1
102
RTVSPropertyOp25
 70
     1
102
RTVSPropertyOp26
 70
     1
102
RTVSPropertyOp27
 70
     1
102
RTVSPropertyOp28
 70
     1
102
RTVSPropertyOp29
 70
     1
102
RTVSPropertyOp30
 70
     1
102
RTVSPropertyOp31
 70
     1
102
RTVSPropertyOp32
 70
     1
102
RTVSPropertyOp33
 70
     1
102
RTVSPropertyOp34
 70
     1
102
RTVSPropertyOp35
 70
     1
102
RTVSPropertyOp36
 70
     1
102
RTVSPropertyOp37
 70
     1
102
RTVSPropertyOp38
 70
     1
102
RTVSPropertyOp39
 70
     1
102
RTVSPropertyOp40
 70
     1
102
RTVSPropertyOp41
 70
     1
102
RTVSPropertyOp42
 70
     1
102
RTVSPropertyOp43
 70
     1
102
RTVSPropertyOp44
 70
     1
102
RTVSPropertyOp45
 70
     1
102
RTVSPropertyOp46
 70
     1
102
RTVSPropertyOp47
 70
     1
102
RTVSPropertyOp48
 70
     1
102
RTVSPropertyOp49
 70
     1
102
RTVSPropertyOp50
 70
     1
102
RTVSPropertyOp51
 70
     0
102
RTVSPropertyOp52
 70
     0
102
RTVSPropertyOp53
 70
     1
102
RTVSPropertyOp54
 70
     1
102
RTVSPropertyOp55
 70
     1
102
RTVSPropertyOp56
 70
     1
102
RTVSPropertyOp57
 70
     1
102
RTVSPost2010Prop28
280
     0
102
RTVSPost2010PropOp28
 70
     1
102
RTVSPost2010Prop29
280
     1
102
RTVSPost2010PropOp29
 70
     1
102
RTVSPost2010Prop30
280
     1
102
RTVSPost2010PropOp30
 70
     1
102
RTVSPost2010Prop31
280
     0
102
RTVSPost2010PropOp31
 70
     1
102
RTVSPost2010Prop32
280
     0
102
RTVSPost2010PropOp32
 70
     1
102
RTVSPost2010Prop33
280
     0
102
RTVSPost2010PropOp33
 70
     1
102
RTVSPost2010Prop34
280
     0
102
RTVSPost2010PropOp34
 70
     1
102
RTVSPost2010Prop35
280
     0
102
RTVSPost2010PropOp35
 70
     1
102
RTVSPost2010Prop36
280
     0
102
RTVSPost2010PropOp36
 70
     1
102
RTVSPost2010Prop37
 90
       50
102
RTVSPost2010PropOp37
 70
     1
102
RTVSPost2010Prop38
140
0.0
102
RTVSPost2010PropOp38
 70
     1
102
RTVSPost2010Prop39
140
1.0
102
RTVSPost2010PropOp39
 70
     1
102
RTVSPost2010Prop40
 90
        0
102
RTVSPost2010PropOp40
 70
     1
102
RTVSPost2010Prop41ColorIndex
 90
       18
102
RTVSPost2010Prop41ColorRGB
 90
        0
102
RTVSPost2010PropOp41
 70
     1
102
RTVSPost2010Prop42
 90
       50
102
RTVSPost2010PropOp42
 70
     1
102
RTVSPost2010Prop43
 90
        3
102
RTVSPost2010PropOp43
 70
     1
102
RTVSPost2010Prop44ColorIndex
 90
        5
102
RTVSPost2010Prop44ColorRGB
 90
      255
102
RTVSPost2010PropOp44
 70
     1
102
RTVSPost2010Prop45
280
     0
102
RTVSPost2010PropOp45
 70
     1
102
RTVSPost2010Prop46
 90
       50
102
RTVSPost2010PropOp46
 70
     1
102
RTVSPost2010Prop47
 90
       50
102
RTVSPost2010PropOp47
 70
     1
102
RTVSPost2010Prop48
 90
       50
102
RTVSPost2010PropOp48
 70
     1
102
RTVSPost2010Prop49
280
     0
102
RTVSPost2010PropOp49
 70
     1
102
RTVSPost2010Prop50
 90
       50
102
RTVSPost2010PropOp50
 70
     1
102
RTVSPost2010Prop51ColorIndex
 90
      256
102
RTVSPost2010Prop51ColorRGB
 90
-16777216
102
RTVSPost2010PropOp51
 70
     0
102
RTVSPost2010Prop52
140
1.0
102
RTVSPost2010PropOp52
 70
     0
102
RTVSPost2010Prop53
 90
        2
102
RTVSPost2010PropOp53
 70
     1
102
RTVSPost2010Prop54
  1
strokes_ogs.tif
102
RTVSPost2010PropOp54
 70
     1
102
RTVSPost2010Prop55
280
     0
102
RTVSPost2010PropOp55
 70
     1
102
RTVSPost2010Prop56
140
1.0
102
RTVSPost2010PropOp56
 70
     1
102
RTVSPost2010Prop57
140
1.0
102
RTVSPost2010PropOp57
 70
     1
  0
XRECORD
  5
227
102
{ACAD_REACTORS
330
226
102
}
330
226
100
AcDbXrecord
280
     1
102
RTVSPropertyOp0
 70
     0
102
RTVSPropertyOp1
 70
     0
102
RTVSPropertyOp2
 70
     0
102
RTVSPropertyOp3
 70
     0
102
RTVSPropertyOp4
 70
     0
102
RTVSPropertyOp5
 70
     0
102
RTVSPropertyOp6
 70
     0
102
RTVSPropertyOp7
 70
     0
102
RTVSPropertyOp8
 70
     0
102
RTVSPropertyOp9
 70
     0
102
RTVSPropertyOp10
 70
     0
102
RTVSPropertyOp11
 70
     0
102
RTVSPropertyOp12
 70
     0
102
RTVSPropertyOp13
 70
     0
102
RTVSPropertyOp14
 70
     2
102
RTVSPropertyOp15
 70
     0
102
RTVSPropertyOp16
 70
     0
102
RTVSPropertyOp17
 70
     0
102
RTVSPropertyOp18
 70
     0
102
RTVSPropertyOp19
 70
     0
102
RTVSPropertyOp20
 70
     0
102
RTVSPropertyOp21
 70
     0
102
RTVSPropertyOp22
 70
     0
102
RTVSPropertyOp23
 70
     0
102
RTVSPropertyOp24
 70
     0
102
RTVSPropertyOp25
 70
     0
102
RTVSPropertyOp26
 70
     0
102
RTVSPropertyOp27
 70
     0
102
RTVSPropertyOp28
 70
     0
102
RTVSPropertyOp29
 70
     0
102
RTVSPropertyOp30
 70
     0
102
RTVSPropertyOp31
 70
     0
102
RTVSPropertyOp32
 70
     0
102
RTVSPropertyOp33
 70
     0
102
RTVSPropertyOp34
 70
     0
102
RTVSPropertyOp35
 70
     0
102
RTVSPropertyOp36
 70
     0
102
RTVSPropertyOp37
 70
     0
102
RTVSPropertyOp38
 70
     0
102
RTVSPropertyOp39
 70
     0
102
RTVSPropertyOp40
 70
     0
102
RTVSPropertyOp41
 70
     0
102
RTVSPropertyOp42
 70
     0
102
RTVSPropertyOp43
 70
     0
102
RTVSPropertyOp44
 70
     0
102
RTVSPropertyOp45
 70
     0
102
RTVSPropertyOp46
 70
     0
102
RTVSPropertyOp47
 70
     0
102
RTVSPropertyOp48
 70
     0
102
RTVSPropertyOp49
 70
     0
102
RTVSPropertyOp50
 70
     0
102
RTVSPropertyOp51
 70
     0
102
RTVSPropertyOp52
 70
     0
102
RTVSPropertyOp53
 70
     0
102
RTVSPropertyOp54
 70
     0
102
RTVSPropertyOp55
 70
     0
102
RTVSPropertyOp56
 70
     0
102
RTVSPropertyOp57
 70
     0
102
RTVSPost2010Prop28
280
     0
102
RTVSPost2010PropOp28
 70
     0
102
RTVSPost2010Prop29
280
     1
102
RTVSPost2010PropOp29
 70
     0
102
RTVSPost2010Prop30
280
     1
102
RTVSPost2010PropOp30
 70
     0
102
RTVSPost2010Prop31
280
     0
102
RTVSPost2010PropOp31
 70
     0
102
RTVSPost2010Prop32
280
     0
102
RTVSPost2010PropOp32
 70
     0
102
RTVSPost2010Prop33
280
     0
102
RTVSPost2010PropOp33
 70
     0
102
RTVSPost2010Prop34
280
     0
102
RTVSPost2010PropOp34
 70
     0
102
RTVSPost2010Prop35
280
     0
102
RTVSPost2010PropOp35
 70
     0
102
RTVSPost2010Prop36
280
     0
102
RTVSPost2010PropOp36
 70
     0
102
RTVSPost2010Prop37
 90
       50
102
RTVSPost2010PropOp37
 70
     0
102
RTVSPost2010Prop38
140
0.0
102
RTVSPost2010PropOp38
 70
     0
102
RTVSPost2010Prop39
140
1.0
102
RTVSPost2010PropOp39
 70
     0
102
RTVSPost2010Prop40
 90
        0
102
RTVSPost2010PropOp40
 70
     0
102
RTVSPost2010Prop41ColorIndex
 90
       18
102
RTVSPost2010Prop41ColorRGB
 90
        0
102
RTVSPost2010PropOp41
 70
     0
102
RTVSPost2010Prop42
 90
       50
102
RTVSPost2010PropOp42
 70
     0
102
RTVSPost2010Prop43
 90
        3
102
RTVSPost2010PropOp43
 70
     0
102
RTVSPost2010Prop44ColorIndex
 90
        5
102
RTVSPost2010Prop44ColorRGB
 90
      255
102
RTVSPost2010PropOp44
 70
     0
102
RTVSPost2010Prop45
280
     0
102
RTVSPost2010PropOp45
 70
     0
102
RTVSPost2010Prop46
 90
       50
102
RTVSPost2010PropOp46
 70
     0
102
RTVSPost2010Prop47
 90
       50
102
RTVSPost2010PropOp47
 70
     0
102
RTVSPost2010Prop48
 90
       50
102
RTVSPost2010PropOp48
 70
     0
102
RTVSPost2010Prop49
280
     0
102
RTVSPost2010PropOp49
 70
     0
102
RTVSPost2010Prop50
 90
       50
102
RTVSPost2010PropOp50
 70
     0
102
RTVSPost2010Prop51ColorIndex
 90
      256
102
RTVSPost2010Prop51ColorRGB
 90
-16777216
102
RTVSPost2010PropOp51
 70
     0
102
RTVSPost2010Prop52
140
1.0
102
RTVSPost2010PropOp52
 70
     0
102
RTVSPost2010Prop53
 90
        2
102
RTVSPost2010PropOp53
 70
     0
102
RTVSPost2010Prop54
  1
strokes_ogs.tif
102
RTVSPost2010PropOp54
 70
     0
102
RTVSPost2010Prop55
280
     0
102
RTVSPost2010PropOp55
 70
     0
102
RTVSPost2010Prop56
140
1.0
102
RTVSPost2010PropOp56
 70
     0
102
RTVSPost2010Prop57
140
1.0
102
RTVSPost2010PropOp57
 70
     0
  0
XRECORD
  5
215
102
{ACAD_REACTORS
330
214
102
}
330
214
100
AcDbXrecord
280
     1
102
RTVSPropertyOp0
 70
     1
102
RTVSPropertyOp1
 70
     1
102
RTVSPropertyOp2
 70
     1
102
RTVSPropertyOp3
 70
     1
102
RTVSPropertyOp4
 70
     1
102
RTVSPropertyOp5
 70
     1
102
RTVSPropertyOp6
 70
     1
102
RTVSPropertyOp7
 70
     1
102
RTVSPropertyOp8
 70
     1
102
RTVSPropertyOp9
 70
     1
102
RTVSPropertyOp10
 70
     1
102
RTVSPropertyOp11
 70
     1
102
RTVSPropertyOp12
 70
     1
102
RTVSPropertyOp13
 70
     1
102
RTVSPropertyOp14
 70
     1
102
RTVSPropertyOp15
 70
     1
102
RTVSPropertyOp16
 70
     1
102
RTVSPropertyOp17
 70
     1
102
RTVSPropertyOp18
 70
     1
102
RTVSPropertyOp19
 70
     1
102
RTVSPropertyOp20
 70
     1
102
RTVSPropertyOp21
 70
     1
102
RTVSPropertyOp22
 70
     1
102
RTVSPropertyOp23
 70
     1
102
RTVSPropertyOp24
 70
     1
102
RTVSPropertyOp25
 70
     1
102
RTVSPropertyOp26
 70
     1
102
RTVSPropertyOp27
 70
     1
102
RTVSPropertyOp28
 70
     1
102
RTVSPropertyOp29
 70
     1
102
RTVSPropertyOp30
 70
     1
102
RTVSPropertyOp31
 70
     1
102
RTVSPropertyOp32
 70
     1
102
RTVSPropertyOp33
 70
     1
102
RTVSPropertyOp34
 70
     1
102
RTVSPropertyOp35
 70
     1
102
RTVSPropertyOp36
 70
     1
102
RTVSPropertyOp37
 70
     1
102
RTVSPropertyOp38
 70
     1
102
RTVSPropertyOp39
 70
     1
102
RTVSPropertyOp40
 70
     1
102
RTVSPropertyOp41
 70
     1
102
RTVSPropertyOp42
 70
     1
102
RTVSPropertyOp43
 70
     1
102
RTVSPropertyOp44
 70
     1
102
RTVSPropertyOp45
 70
     1
102
RTVSPropertyOp46
 70
     1
102
RTVSPropertyOp47
 70
     1
102
RTVSPropertyOp48
 70
     1
102
RTVSPropertyOp49
 70
     1
102
RTVSPropertyOp50
 70
     1
102
RTVSPropertyOp51
 70
     0
102
RTVSPropertyOp52
 70
     0
102
RTVSPropertyOp53
 70
     1
102
RTVSPropertyOp54
 70
     1
102
RTVSPropertyOp55
 70
     1
102
RTVSPropertyOp56
 70
     1
102
RTVSPropertyOp57
 70
     1
102
RTVSPost2010Prop28
280
     0
102
RTVSPost2010PropOp28
 70
     1
102
RTVSPost2010Prop29
280
     1
102
RTVSPost2010PropOp29
 70
     1
102
RTVSPost2010Prop30
280
     1
102
RTVSPost2010PropOp30
 70
     1
102
RTVSPost2010Prop31
280
     0
102
RTVSPost2010PropOp31
 70
     1
102
RTVSPost2010Prop32
280
     0
102
RTVSPost2010PropOp32
 70
     1
102
RTVSPost2010Prop33
280
     0
102
RTVSPost2010PropOp33
 70
     1
102
RTVSPost2010Prop34
280
     0
102
RTVSPost2010PropOp34
 70
     1
102
RTVSPost2010Prop35
280
     0
102
RTVSPost2010PropOp35
 70
     1
102
RTVSPost2010Prop36
280
     0
102
RTVSPost2010PropOp36
 70
     1
102
RTVSPost2010Prop37
 90
       50
102
RTVSPost2010PropOp37
 70
     1
102
RTVSPost2010Prop38
140
0.0
102
RTVSPost2010PropOp38
 70
     1
102
RTVSPost2010Prop39
140
1.0
102
RTVSPost2010PropOp39
 70
     1
102
RTVSPost2010Prop40
 90
        0
102
RTVSPost2010PropOp40
 70
     1
102
RTVSPost2010Prop41ColorIndex
 90
       18
102
RTVSPost2010Prop41ColorRGB
 90
        0
102
RTVSPost2010PropOp41
 70
     1
102
RTVSPost2010Prop42
 90
       50
102
RTVSPost2010PropOp42
 70
     1
102
RTVSPost2010Prop43
 90
        3
102
RTVSPost2010PropOp43
 70
     1
102
RTVSPost2010Prop44ColorIndex
 90
        5
102
RTVSPost2010Prop44ColorRGB
 90
      255
102
RTVSPost2010PropOp44
 70
     1
102
RTVSPost2010Prop45
280
     0
102
RTVSPost2010PropOp45
 70
     1
102
RTVSPost2010Prop46
 90
       50
102
RTVSPost2010PropOp46
 70
     1
102
RTVSPost2010Prop47
 90
       50
102
RTVSPost2010PropOp47
 70
     1
102
RTVSPost2010Prop48
 90
       50
102
RTVSPost2010PropOp48
 70
     1
102
RTVSPost2010Prop49
280
     0
102
RTVSPost2010PropOp49
 70
     1
102
RTVSPost2010Prop50
 90
       50
102
RTVSPost2010PropOp50
 70
     1
102
RTVSPost2010Prop51ColorIndex
 90
      256
102
RTVSPost2010Prop51ColorRGB
 90
-16777216
102
RTVSPost2010PropOp51
 70
     0
102
RTVSPost2010Prop52
140
1.0
102
RTVSPost2010PropOp52
 70
     0
102
RTVSPost2010Prop53
 90
        2
102
RTVSPost2010PropOp53
 70
     1
102
RTVSPost2010Prop54
  1
strokes_ogs.tif
102
RTVSPost2010PropOp54
 70
     1
102
RTVSPost2010Prop55
280
     0
102
RTVSPost2010PropOp55
 70
     1
102
RTVSPost2010Prop56
140
1.0
102
RTVSPost2010PropOp56
 70
     1
102
RTVSPost2010Prop57
140
1.0
102
RTVSPost2010PropOp57
 70
     1
  0
XRECORD
  5
233
102
{ACAD_REACTORS
330
232
102
}
330
232
100
AcDbXrecord
280
     1
102
RTVSPropertyOp0
 70
     1
102
RTVSPropertyOp1
 70
     1
102
RTVSPropertyOp2
 70
     1
102
RTVSPropertyOp3
 70
     1
102
RTVSPropertyOp4
 70
     1
102
RTVSPropertyOp5
 70
     1
102
RTVSPropertyOp6
 70
     1
102
RTVSPropertyOp7
 70
     1
102
RTVSPropertyOp8
 70
     1
102
RTVSPropertyOp9
 70
     1
102
RTVSPropertyOp10
 70
     1
102
RTVSPropertyOp11
 70
     1
102
RTVSPropertyOp12
 70
     1
102
RTVSPropertyOp13
 70
     1
102
RTVSPropertyOp14
 70
     1
102
RTVSPropertyOp15
 70
     1
102
RTVSPropertyOp16
 70
     1
102
RTVSPropertyOp17
 70
     1
102
RTVSPropertyOp18
 70
     1
102
RTVSPropertyOp19
 70
     1
102
RTVSPropertyOp20
 70
     1
102
RTVSPropertyOp21
 70
     1
102
RTVSPropertyOp22
 70
     1
102
RTVSPropertyOp23
 70
     1
102
RTVSPropertyOp24
 70
     1
102
RTVSPropertyOp25
 70
     1
102
RTVSPropertyOp26
 70
     1
102
RTVSPropertyOp27
 70
     1
102
RTVSPropertyOp28
 70
     1
102
RTVSPropertyOp29
 70
     1
102
RTVSPropertyOp30
 70
     1
102
RTVSPropertyOp31
 70
     1
102
RTVSPropertyOp32
 70
     1
102
RTVSPropertyOp33
 70
     1
102
RTVSPropertyOp34
 70
     1
102
RTVSPropertyOp35
 70
     1
102
RTVSPropertyOp36
 70
     1
102
RTVSPropertyOp37
 70
     1
102
RTVSPropertyOp38
 70
     1
102
RTVSPropertyOp39
 70
     1
102
RTVSPropertyOp40
 70
     1
102
RTVSPropertyOp41
 70
     1
102
RTVSPropertyOp42
 70
     1
102
RTVSPropertyOp43
 70
     1
102
RTVSPropertyOp44
 70
     1
102
RTVSPropertyOp45
 70
     1
102
RTVSPropertyOp46
 70
     1
102
RTVSPropertyOp47
 70
     1
102
RTVSPropertyOp48
 70
     1
102
RTVSPropertyOp49
 70
     1
102
RTVSPropertyOp50
 70
     1
102
RTVSPropertyOp51
 70
     0
102
RTVSPropertyOp52
 70
     0
102
RTVSPropertyOp53
 70
     1
102
RTVSPropertyOp54
 70
     1
102
RTVSPropertyOp55
 70
     1
102
RTVSPropertyOp56
 70
     1
102
RTVSPropertyOp57
 70
     1
102
RTVSPost2010Prop28
280
     0
102
RTVSPost2010PropOp28
 70
     1
102
RTVSPost2010Prop29
280
     1
102
RTVSPost2010PropOp29
 70
     1
102
RTVSPost2010Prop30
280
     1
102
RTVSPost2010PropOp30
 70
     1
102
RTVSPost2010Prop31
280
     0
102
RTVSPost2010PropOp31
 70
     1
102
RTVSPost2010Prop32
280
     0
102
RTVSPost2010PropOp32
 70
     1
102
RTVSPost2010Prop33
280
     0
102
RTVSPost2010PropOp33
 70
     1
102
RTVSPost2010Prop34
280
     0
102
RTVSPost2010PropOp34
 70
     1
102
RTVSPost2010Prop35
280
     0
102
RTVSPost2010PropOp35
 70
     1
102
RTVSPost2010Prop36
280
     0
102
RTVSPost2010PropOp36
 70
     1
102
RTVSPost2010Prop37
 90
       50
102
RTVSPost2010PropOp37
 70
     1
102
RTVSPost2010Prop38
140
0.0
102
RTVSPost2010PropOp38
 70
     1
102
RTVSPost2010Prop39
140
1.0
102
RTVSPost2010PropOp39
 70
     1
102
RTVSPost2010Prop40
 90
        0
102
RTVSPost2010PropOp40
 70
     1
102
RTVSPost2010Prop41ColorIndex
 90
       18
102
RTVSPost2010Prop41ColorRGB
 90
        0
102
RTVSPost2010PropOp41
 70
     1
102
RTVSPost2010Prop42
 90
       50
102
RTVSPost2010PropOp42
 70
     1
102
RTVSPost2010Prop43
 90
        3
102
RTVSPost2010PropOp43
 70
     1
102
RTVSPost2010Prop44ColorIndex
 90
        5
102
RTVSPost2010Prop44ColorRGB
 90
      255
102
RTVSPost2010PropOp44
 70
     1
102
RTVSPost2010Prop45
280
     0
102
RTVSPost2010PropOp45
 70
     1
102
RTVSPost2010Prop46
 90
       50
102
RTVSPost2010PropOp46
 70
     1
102
RTVSPost2010Prop47
 90
       50
102
RTVSPost2010PropOp47
 70
     1
102
RTVSPost2010Prop48
 90
       50
102
RTVSPost2010PropOp48
 70
     1
102
RTVSPost2010Prop49
280
     0
102
RTVSPost2010PropOp49
 70
     1
102
RTVSPost2010Prop50
 90
       50
102
RTVSPost2010PropOp50
 70
     1
102
RTVSPost2010Prop51ColorIndex
 90
      256
102
RTVSPost2010Prop51ColorRGB
 90
-16777216
102
RTVSPost2010PropOp51
 70
     0
102
RTVSPost2010Prop52
140
1.0
102
RTVSPost2010PropOp52
 70
     0
102
RTVSPost2010Prop53
 90
        2
102
RTVSPost2010PropOp53
 70
     1
102
RTVSPost2010Prop54
  1
strokes_ogs.tif
102
RTVSPost2010PropOp54
 70
     1
102
RTVSPost2010Prop55
280
     0
102
RTVSPost2010PropOp55
 70
     1
102
RTVSPost2010Prop56
140
1.0
102
RTVSPost2010PropOp56
 70
     1
102
RTVSPost2010Prop57
140
1.0
102
RTVSPost2010PropOp57
 70
     1
  0
XRECORD
  5
231
102
{ACAD_REACTORS
330
230
102
}
330
230
100
AcDbXrecord
280
     1
102
RTVSPropertyOp0
 70
     1
102
RTVSPropertyOp1
 70
     1
102
RTVSPropertyOp2
 70
     1
102
RTVSPropertyOp3
 70
     1
102
RTVSPropertyOp4
 70
     1
102
RTVSPropertyOp5
 70
     1
102
RTVSPropertyOp6
 70
     1
102
RTVSPropertyOp7
 70
     1
102
RTVSPropertyOp8
 70
     1
102
RTVSPropertyOp9
 70
     1
102
RTVSPropertyOp10
 70
     1
102
RTVSPropertyOp11
 70
     1
102
RTVSPropertyOp12
 70
     1
102
RTVSPropertyOp13
 70
     1
102
RTVSPropertyOp14
 70
     1
102
RTVSPropertyOp15
 70
     1
102
RTVSPropertyOp16
 70
     1
102
RTVSPropertyOp17
 70
     1
102
RTVSPropertyOp18
 70
     1
102
RTVSPropertyOp19
 70
     1
102
RTVSPropertyOp20
 70
     1
102
RTVSPropertyOp21
 70
     1
102
RTVSPropertyOp22
 70
     1
102
RTVSPropertyOp23
 70
     1
102
RTVSPropertyOp24
 70
     1
102
RTVSPropertyOp25
 70
     1
102
RTVSPropertyOp26
 70
     1
102
RTVSPropertyOp27
 70
     1
102
RTVSPropertyOp28
 70
     1
102
RTVSPropertyOp29
 70
     1
102
RTVSPropertyOp30
 70
     1
102
RTVSPropertyOp31
 70
     1
102
RTVSPropertyOp32
 70
     1
102
RTVSPropertyOp33
 70
     1
102
RTVSPropertyOp34
 70
     1
102
RTVSPropertyOp35
 70
     1
102
RTVSPropertyOp36
 70
     1
102
RTVSPropertyOp37
 70
     1
102
RTVSPropertyOp38
 70
     1
102
RTVSPropertyOp39
 70
     1
102
RTVSPropertyOp40
 70
     1
102
RTVSPropertyOp41
 70
     1
102
RTVSPropertyOp42
 70
     1
102
RTVSPropertyOp43
 70
     1
102
RTVSPropertyOp44
 70
     1
102
RTVSPropertyOp45
 70
     1
102
RTVSPropertyOp46
 70
     1
102
RTVSPropertyOp47
 70
     1
102
RTVSPropertyOp48
 70
     1
102
RTVSPropertyOp49
 70
     1
102
RTVSPropertyOp50
 70
     1
102
RTVSPropertyOp51
 70
     0
102
RTVSPropertyOp52
 70
     0
102
RTVSPropertyOp53
 70
     1
102
RTVSPropertyOp54
 70
     1
102
RTVSPropertyOp55
 70
     1
102
RTVSPropertyOp56
 70
     1
102
RTVSPropertyOp57
 70
     1
102
RTVSPost2010Prop28
280
     0
102
RTVSPost2010PropOp28
 70
     1
102
RTVSPost2010Prop29
280
     1
102
RTVSPost2010PropOp29
 70
     1
102
RTVSPost2010Prop30
280
     1
102
RTVSPost2010PropOp30
 70
     1
102
RTVSPost2010Prop31
280
     0
102
RTVSPost2010PropOp31
 70
     1
102
RTVSPost2010Prop32
280
     0
102
RTVSPost2010PropOp32
 70
     1
102
RTVSPost2010Prop33
280
     0
102
RTVSPost2010PropOp33
 70
     1
102
RTVSPost2010Prop34
280
     0
102
RTVSPost2010PropOp34
 70
     1
102
RTVSPost2010Prop35
280
     0
102
RTVSPost2010PropOp35
 70
     1
102
RTVSPost2010Prop36
280
     0
102
RTVSPost2010PropOp36
 70
     1
102
RTVSPost2010Prop37
 90
       50
102
RTVSPost2010PropOp37
 70
     1
102
RTVSPost2010Prop38
140
0.0
102
RTVSPost2010PropOp38
 70
     1
102
RTVSPost2010Prop39
140
1.0
102
RTVSPost2010PropOp39
 70
     1
102
RTVSPost2010Prop40
 90
        0
102
RTVSPost2010PropOp40
 70
     1
102
RTVSPost2010Prop41ColorIndex
 90
       18
102
RTVSPost2010Prop41ColorRGB
 90
        0
102
RTVSPost2010PropOp41
 70
     1
102
RTVSPost2010Prop42
 90
       50
102
RTVSPost2010PropOp42
 70
     1
102
RTVSPost2010Prop43
 90
        3
102
RTVSPost2010PropOp43
 70
     1
102
RTVSPost2010Prop44ColorIndex
 90
        5
102
RTVSPost2010Prop44ColorRGB
 90
      255
102
RTVSPost2010PropOp44
 70
     1
102
RTVSPost2010Prop45
280
     0
102
RTVSPost2010PropOp45
 70
     1
102
RTVSPost2010Prop46
 90
       50
102
RTVSPost2010PropOp46
 70
     1
102
RTVSPost2010Prop47
 90
       50
102
RTVSPost2010PropOp47
 70
     1
102
RTVSPost2010Prop48
 90
       50
102
RTVSPost2010PropOp48
 70
     1
102
RTVSPost2010Prop49
280
     0
102
RTVSPost2010PropOp49
 70
     1
102
RTVSPost2010Prop50
 90
       50
102
RTVSPost2010PropOp50
 70
     1
102
RTVSPost2010Prop51ColorIndex
 90
      256
102
RTVSPost2010Prop51ColorRGB
 90
-16777216
102
RTVSPost2010PropOp51
 70
     0
102
RTVSPost2010Prop52
140
1.0
102
RTVSPost2010PropOp52
 70
     0
102
RTVSPost2010Prop53
 90
        2
102
RTVSPost2010PropOp53
 70
     1
102
RTVSPost2010Prop54
  1
strokes_ogs.tif
102
RTVSPost2010PropOp54
 70
     1
102
RTVSPost2010Prop55
280
     0
102
RTVSPost2010PropOp55
 70
     1
102
RTVSPost2010Prop56
140
1.0
102
RTVSPost2010PropOp56
 70
     1
102
RTVSPost2010Prop57
140
1.0
102
RTVSPost2010PropOp57
 70
     1
  0
XRECORD
  5
22B
102
{ACAD_REACTORS
330
22A
102
}
330
22A
100
AcDbXrecord
280
     1
102
RTVSPropertyOp0
 70
     1
102
RTVSPropertyOp1
 70
     1
102
RTVSPropertyOp2
 70
     1
102
RTVSPropertyOp3
 70
     1
102
RTVSPropertyOp4
 70
     1
102
RTVSPropertyOp5
 70
     1
102
RTVSPropertyOp6
 70
     1
102
RTVSPropertyOp7
 70
     1
102
RTVSPropertyOp8
 70
     1
102
RTVSPropertyOp9
 70
     1
102
RTVSPropertyOp10
 70
     1
102
RTVSPropertyOp11
 70
     1
102
RTVSPropertyOp12
 70
     1
102
RTVSPropertyOp13
 70
     1
102
RTVSPropertyOp14
 70
     1
102
RTVSPropertyOp15
 70
     1
102
RTVSPropertyOp16
 70
     1
102
RTVSPropertyOp17
 70
     1
102
RTVSPropertyOp18
 70
     1
102
RTVSPropertyOp19
 70
     1
102
RTVSPropertyOp20
 70
     1
102
RTVSPropertyOp21
 70
     1
102
RTVSPropertyOp22
 70
     1
102
RTVSPropertyOp23
 70
     1
102
RTVSPropertyOp24
 70
     1
102
RTVSPropertyOp25
 70
     1
102
RTVSPropertyOp26
 70
     1
102
RTVSPropertyOp27
 70
     1
102
RTVSPropertyOp28
 70
     1
102
RTVSPropertyOp29
 70
     1
102
RTVSPropertyOp30
 70
     1
102
RTVSPropertyOp31
 70
     1
102
RTVSPropertyOp32
 70
     1
102
RTVSPropertyOp33
 70
     1
102
RTVSPropertyOp34
 70
     1
102
RTVSPropertyOp35
 70
     1
102
RTVSPropertyOp36
 70
     1
102
RTVSPropertyOp37
 70
     1
102
RTVSPropertyOp38
 70
     1
102
RTVSPropertyOp39
 70
     1
102
RTVSPropertyOp40
 70
     1
102
RTVSPropertyOp41
 70
     1
102
RTVSPropertyOp42
 70
     1
102
RTVSPropertyOp43
 70
     1
102
RTVSPropertyOp44
 70
     1
102
RTVSPropertyOp45
 70
     1
102
RTVSPropertyOp46
 70
     1
102
RTVSPropertyOp47
 70
     1
102
RTVSPropertyOp48
 70
     1
102
RTVSPropertyOp49
 70
     1
102
RTVSPropertyOp50
 70
     1
102
RTVSPropertyOp51
 70
     0
102
RTVSPropertyOp52
 70
     0
102
RTVSPropertyOp53
 70
     1
102
RTVSPropertyOp54
 70
     1
102
RTVSPropertyOp55
 70
     1
102
RTVSPropertyOp56
 70
     1
102
RTVSPropertyOp57
 70
     1
102
RTVSPost2010Prop28
280
     0
102
RTVSPost2010PropOp28
 70
     1
102
RTVSPost2010Prop29
280
     1
102
RTVSPost2010PropOp29
 70
     1
102
RTVSPost2010Prop30
280
     1
102
RTVSPost2010PropOp30
 70
     1
102
RTVSPost2010Prop31
280
     0
102
RTVSPost2010PropOp31
 70
     1
102
RTVSPost2010Prop32
280
     0
102
RTVSPost2010PropOp32
 70
     1
102
RTVSPost2010Prop33
280
     0
102
RTVSPost2010PropOp33
 70
     1
102
RTVSPost2010Prop34
280
     0
102
RTVSPost2010PropOp34
 70
     1
102
RTVSPost2010Prop35
280
     0
102
RTVSPost2010PropOp35
 70
     1
102
RTVSPost2010Prop36
280
     0
102
RTVSPost2010PropOp36
 70
     1
102
RTVSPost2010Prop37
 90
       50
102
RTVSPost2010PropOp37
 70
     1
102
RTVSPost2010Prop38
140
0.0
102
RTVSPost2010PropOp38
 70
     1
102
RTVSPost2010Prop39
140
1.0
102
RTVSPost2010PropOp39
 70
     1
102
RTVSPost2010Prop40
 90
        0
102
RTVSPost2010PropOp40
 70
     1
102
RTVSPost2010Prop41ColorIndex
 90
       18
102
RTVSPost2010Prop41ColorRGB
 90
        0
102
RTVSPost2010PropOp41
 70
     1
102
RTVSPost2010Prop42
 90
       50
102
RTVSPost2010PropOp42
 70
     1
102
RTVSPost2010Prop43
 90
        3
102
RTVSPost2010PropOp43
 70
     1
102
RTVSPost2010Prop44ColorIndex
 90
        5
102
RTVSPost2010Prop44ColorRGB
 90
      255
102
RTVSPost2010PropOp44
 70
     1
102
RTVSPost2010Prop45
280
     0
102
RTVSPost2010PropOp45
 70
     1
102
RTVSPost2010Prop46
 90
       50
102
RTVSPost2010PropOp46
 70
     1
102
RTVSPost2010Prop47
 90
       50
102
RTVSPost2010PropOp47
 70
     1
102
RTVSPost2010Prop48
 90
       50
102
RTVSPost2010PropOp48
 70
     1
102
RTVSPost2010Prop49
280
     0
102
RTVSPost2010PropOp49
 70
     1
102
RTVSPost2010Prop50
 90
       50
102
RTVSPost2010PropOp50
 70
     1
102
RTVSPost2010Prop51ColorIndex
 90
      256
102
RTVSPost2010Prop51ColorRGB
 90
-16777216
102
RTVSPost2010PropOp51
 70
     0
102
RTVSPost2010Prop52
140
1.0
102
RTVSPost2010PropOp52
 70
     0
102
RTVSPost2010Prop53
 90
        2
102
RTVSPost2010PropOp53
 70
     1
102
RTVSPost2010Prop54
  1
strokes_ogs.tif
102
RTVSPost2010PropOp54
 70
     1
102
RTVSPost2010Prop55
280
     0
102
RTVSPost2010PropOp55
 70
     1
102
RTVSPost2010Prop56
140
1.0
102
RTVSPost2010PropOp56
 70
     1
102
RTVSPost2010Prop57
140
1.0
102
RTVSPost2010PropOp57
 70
     1
  0
XRECORD
  5
22D
102
{ACAD_REACTORS
330
22C
102
}
330
22C
100
AcDbXrecord
280
     1
102
RTVSPropertyOp0
 70
     1
102
RTVSPropertyOp1
 70
     1
102
RTVSPropertyOp2
 70
     1
102
RTVSPropertyOp3
 70
     1
102
RTVSPropertyOp4
 70
     1
102
RTVSPropertyOp5
 70
     1
102
RTVSPropertyOp6
 70
     1
102
RTVSPropertyOp7
 70
     1
102
RTVSPropertyOp8
 70
     1
102
RTVSPropertyOp9
 70
     1
102
RTVSPropertyOp10
 70
     1
102
RTVSPropertyOp11
 70
     1
102
RTVSPropertyOp12
 70
     1
102
RTVSPropertyOp13
 70
     1
102
RTVSPropertyOp14
 70
     1
102
RTVSPropertyOp15
 70
     1
102
RTVSPropertyOp16
 70
     1
102
RTVSPropertyOp17
 70
     1
102
RTVSPropertyOp18
 70
     1
102
RTVSPropertyOp19
 70
     1
102
RTVSPropertyOp20
 70
     1
102
RTVSPropertyOp21
 70
     1
102
RTVSPropertyOp22
 70
     1
102
RTVSPropertyOp23
 70
     1
102
RTVSPropertyOp24
 70
     1
102
RTVSPropertyOp25
 70
     1
102
RTVSPropertyOp26
 70
     1
102
RTVSPropertyOp27
 70
     1
102
RTVSPropertyOp28
 70
     1
102
RTVSPropertyOp29
 70
     1
102
RTVSPropertyOp30
 70
     1
102
RTVSPropertyOp31
 70
     1
102
RTVSPropertyOp32
 70
     1
102
RTVSPropertyOp33
 70
     1
102
RTVSPropertyOp34
 70
     1
102
RTVSPropertyOp35
 70
     1
102
RTVSPropertyOp36
 70
     1
102
RTVSPropertyOp37
 70
     1
102
RTVSPropertyOp38
 70
     1
102
RTVSPropertyOp39
 70
     1
102
RTVSPropertyOp40
 70
     1
102
RTVSPropertyOp41
 70
     1
102
RTVSPropertyOp42
 70
     1
102
RTVSPropertyOp43
 70
     1
102
RTVSPropertyOp44
 70
     1
102
RTVSPropertyOp45
 70
     1
102
RTVSPropertyOp46
 70
     1
102
RTVSPropertyOp47
 70
     1
102
RTVSPropertyOp48
 70
     1
102
RTVSPropertyOp49
 70
     1
102
RTVSPropertyOp50
 70
     1
102
RTVSPropertyOp51
 70
     0
102
RTVSPropertyOp52
 70
     0
102
RTVSPropertyOp53
 70
     1
102
RTVSPropertyOp54
 70
     1
102
RTVSPropertyOp55
 70
     1
102
RTVSPropertyOp56
 70
     1
102
RTVSPropertyOp57
 70
     1
102
RTVSPost2010Prop28
280
     0
102
RTVSPost2010PropOp28
 70
     1
102
RTVSPost2010Prop29
280
     1
102
RTVSPost2010PropOp29
 70
     1
102
RTVSPost2010Prop30
280
     1
102
RTVSPost2010PropOp30
 70
     1
102
RTVSPost2010Prop31
280
     0
102
RTVSPost2010PropOp31
 70
     1
102
RTVSPost2010Prop32
280
     0
102
RTVSPost2010PropOp32
 70
     1
102
RTVSPost2010Prop33
280
     0
102
RTVSPost2010PropOp33
 70
     1
102
RTVSPost2010Prop34
280
     0
102
RTVSPost2010PropOp34
 70
     1
102
RTVSPost2010Prop35
280
     0
102
RTVSPost2010PropOp35
 70
     1
102
RTVSPost2010Prop36
280
     0
102
RTVSPost2010PropOp36
 70
     1
102
RTVSPost2010Prop37
 90
       50
102
RTVSPost2010PropOp37
 70
     1
102
RTVSPost2010Prop38
140
0.0
102
RTVSPost2010PropOp38
 70
     1
102
RTVSPost2010Prop39
140
1.0
102
RTVSPost2010PropOp39
 70
     1
102
RTVSPost2010Prop40
 90
        0
102
RTVSPost2010PropOp40
 70
     1
102
RTVSPost2010Prop41ColorIndex
 90
       18
102
RTVSPost2010Prop41ColorRGB
 90
        0
102
RTVSPost2010PropOp41
 70
     1
102
RTVSPost2010Prop42
 90
       50
102
RTVSPost2010PropOp42
 70
     1
102
RTVSPost2010Prop43
 90
        3
102
RTVSPost2010PropOp43
 70
     1
102
RTVSPost2010Prop44ColorIndex
 90
        5
102
RTVSPost2010Prop44ColorRGB
 90
      255
102
RTVSPost2010PropOp44
 70
     1
102
RTVSPost2010Prop45
280
     0
102
RTVSPost2010PropOp45
 70
     1
102
RTVSPost2010Prop46
 90
       50
102
RTVSPost2010PropOp46
 70
     1
102
RTVSPost2010Prop47
 90
       50
102
RTVSPost2010PropOp47
 70
     1
102
RTVSPost2010Prop48
 90
       50
102
RTVSPost2010PropOp48
 70
     1
102
RTVSPost2010Prop49
280
     0
102
RTVSPost2010PropOp49
 70
     1
102
RTVSPost2010Prop50
 90
       50
102
RTVSPost2010PropOp50
 70
     1
102
RTVSPost2010Prop51ColorIndex
 90
      256
102
RTVSPost2010Prop51ColorRGB
 90
-16777216
102
RTVSPost2010PropOp51
 70
     0
102
RTVSPost2010Prop52
140
1.0
102
RTVSPost2010PropOp52
 70
     0
102
RTVSPost2010Prop53
 90
        2
102
RTVSPost2010PropOp53
 70
     1
102
RTVSPost2010Prop54
  1
strokes_ogs.tif
102
RTVSPost2010PropOp54
 70
     1
102
RTVSPost2010Prop55
280
     0
102
RTVSPost2010PropOp55
 70
     1
102
RTVSPost2010Prop56
140
1.0
102
RTVSPost2010PropOp56
 70
     1
102
RTVSPost2010Prop57
140
1.0
102
RTVSPost2010PropOp57
 70
     1
  0
XRECORD
  5
21D
102
{ACAD_REACTORS
330
21C
102
}
330
21C
100
AcDbXrecord
280
     1
102
RTVSPropertyOp0
 70
     1
102
RTVSPropertyOp1
 70
     1
102
RTVSPropertyOp2
 70
     1
102
RTVSPropertyOp3
 70
     1
102
RTVSPropertyOp4
 70
     1
102
RTVSPropertyOp5
 70
     1
102
RTVSPropertyOp6
 70
     1
102
RTVSPropertyOp7
 70
     1
102
RTVSPropertyOp8
 70
     1
102
RTVSPropertyOp9
 70
     1
102
RTVSPropertyOp10
 70
     1
102
RTVSPropertyOp11
 70
     1
102
RTVSPropertyOp12
 70
     1
102
RTVSPropertyOp13
 70
     1
102
RTVSPropertyOp14
 70
     1
102
RTVSPropertyOp15
 70
     1
102
RTVSPropertyOp16
 70
     1
102
RTVSPropertyOp17
 70
     1
102
RTVSPropertyOp18
 70
     1
102
RTVSPropertyOp19
 70
     1
102
RTVSPropertyOp20
 70
     1
102
RTVSPropertyOp21
 70
     1
102
RTVSPropertyOp22
 70
     1
102
RTVSPropertyOp23
 70
     1
102
RTVSPropertyOp24
 70
     1
102
RTVSPropertyOp25
 70
     1
102
RTVSPropertyOp26
 70
     1
102
RTVSPropertyOp27
 70
     1
102
RTVSPropertyOp28
 70
     1
102
RTVSPropertyOp29
 70
     1
102
RTVSPropertyOp30
 70
     1
102
RTVSPropertyOp31
 70
     1
102
RTVSPropertyOp32
 70
     1
102
RTVSPropertyOp33
 70
     1
102
RTVSPropertyOp34
 70
     1
102
RTVSPropertyOp35
 70
     1
102
RTVSPropertyOp36
 70
     1
102
RTVSPropertyOp37
 70
     1
102
RTVSPropertyOp38
 70
     1
102
RTVSPropertyOp39
 70
     1
102
RTVSPropertyOp40
 70
     1
102
RTVSPropertyOp41
 70
     1
102
RTVSPropertyOp42
 70
     1
102
RTVSPropertyOp43
 70
     1
102
RTVSPropertyOp44
 70
     1
102
RTVSPropertyOp45
 70
     1
102
RTVSPropertyOp46
 70
     1
102
RTVSPropertyOp47
 70
     1
102
RTVSPropertyOp48
 70
     1
102
RTVSPropertyOp49
 70
     1
102
RTVSPropertyOp50
 70
     1
102
RTVSPropertyOp51
 70
     0
102
RTVSPropertyOp52
 70
     0
102
RTVSPropertyOp53
 70
     1
102
RTVSPropertyOp54
 70
     1
102
RTVSPropertyOp55
 70
     1
102
RTVSPropertyOp56
 70
     1
102
RTVSPropertyOp57
 70
     1
102
RTVSPost2010Prop28
280
     0
102
RTVSPost2010PropOp28
 70
     1
102
RTVSPost2010Prop29
280
     1
102
RTVSPost2010PropOp29
 70
     1
102
RTVSPost2010Prop30
280
     1
102
RTVSPost2010PropOp30
 70
     1
102
RTVSPost2010Prop31
280
     0
102
RTVSPost2010PropOp31
 70
     1
102
RTVSPost2010Prop32
280
     0
102
RTVSPost2010PropOp32
 70
     1
102
RTVSPost2010Prop33
280
     0
102
RTVSPost2010PropOp33
 70
     1
102
RTVSPost2010Prop34
280
     0
102
RTVSPost2010PropOp34
 70
     1
102
RTVSPost2010Prop35
280
     0
102
RTVSPost2010PropOp35
 70
     1
102
RTVSPost2010Prop36
280
     0
102
RTVSPost2010PropOp36
 70
     1
102
RTVSPost2010Prop37
 90
       50
102
RTVSPost2010PropOp37
 70
     1
102
RTVSPost2010Prop38
140
0.0
102
RTVSPost2010PropOp38
 70
     1
102
RTVSPost2010Prop39
140
1.0
102
RTVSPost2010PropOp39
 70
     1
102
RTVSPost2010Prop40
 90
        0
102
RTVSPost2010PropOp40
 70
     1
102
RTVSPost2010Prop41ColorIndex
 90
       18
102
RTVSPost2010Prop41ColorRGB
 90
        0
102
RTVSPost2010PropOp41
 70
     1
102
RTVSPost2010Prop42
 90
       50
102
RTVSPost2010PropOp42
 70
     1
102
RTVSPost2010Prop43
 90
        3
102
RTVSPost2010PropOp43
 70
     1
102
RTVSPost2010Prop44ColorIndex
 90
        5
102
RTVSPost2010Prop44ColorRGB
 90
      255
102
RTVSPost2010PropOp44
 70
     1
102
RTVSPost2010Prop45
280
     0
102
RTVSPost2010PropOp45
 70
     1
102
RTVSPost2010Prop46
 90
       50
102
RTVSPost2010PropOp46
 70
     1
102
RTVSPost2010Prop47
 90
       50
102
RTVSPost2010PropOp47
 70
     1
102
RTVSPost2010Prop48
 90
       50
102
RTVSPost2010PropOp48
 70
     1
102
RTVSPost2010Prop49
280
     0
102
RTVSPost2010PropOp49
 70
     1
102
RTVSPost2010Prop50
 90
       50
102
RTVSPost2010PropOp50
 70
     1
102
RTVSPost2010Prop51ColorIndex
 90
      256
102
RTVSPost2010Prop51ColorRGB
 90
-16777216
102
RTVSPost2010PropOp51
 70
     0
102
RTVSPost2010Prop52
140
1.0
102
RTVSPost2010PropOp52
 70
     0
102
RTVSPost2010Prop53
 90
        2
102
RTVSPost2010PropOp53
 70
     1
102
RTVSPost2010Prop54
  1
strokes_ogs.tif
102
RTVSPost2010PropOp54
 70
     1
102
RTVSPost2010Prop55
280
     0
102
RTVSPost2010PropOp55
 70
     1
102
RTVSPost2010Prop56
140
1.0
102
RTVSPost2010PropOp56
 70
     1
102
RTVSPost2010Prop57
140
1.0
102
RTVSPost2010PropOp57
 70
     1
  0
XRECORD
  5
20F
102
{ACAD_REACTORS
330
20E
102
}
330
20E
100
AcDbXrecord
280
     1
102
RTVSPropertyOp0
 70
     1
102
RTVSPropertyOp1
 70
     1
102
RTVSPropertyOp2
 70
     1
102
RTVSPropertyOp3
 70
     1
102
RTVSPropertyOp4
 70
     1
102
RTVSPropertyOp5
 70
     1
102
RTVSPropertyOp6
 70
     1
102
RTVSPropertyOp7
 70
     1
102
RTVSPropertyOp8
 70
     1
102
RTVSPropertyOp9
 70
     1
102
RTVSPropertyOp10
 70
     1
102
RTVSPropertyOp11
 70
     1
102
RTVSPropertyOp12
 70
     1
102
RTVSPropertyOp13
 70
     1
102
RTVSPropertyOp14
 70
     1
102
RTVSPropertyOp15
 70
     1
102
RTVSPropertyOp16
 70
     1
102
RTVSPropertyOp17
 70
     1
102
RTVSPropertyOp18
 70
     1
102
RTVSPropertyOp19
 70
     1
102
RTVSPropertyOp20
 70
     1
102
RTVSPropertyOp21
 70
     1
102
RTVSPropertyOp22
 70
     1
102
RTVSPropertyOp23
 70
     1
102
RTVSPropertyOp24
 70
     1
102
RTVSPropertyOp25
 70
     1
102
RTVSPropertyOp26
 70
     1
102
RTVSPropertyOp27
 70
     1
102
RTVSPropertyOp28
 70
     1
102
RTVSPropertyOp29
 70
     1
102
RTVSPropertyOp30
 70
     1
102
RTVSPropertyOp31
 70
     1
102
RTVSPropertyOp32
 70
     1
102
RTVSPropertyOp33
 70
     1
102
RTVSPropertyOp34
 70
     1
102
RTVSPropertyOp35
 70
     1
102
RTVSPropertyOp36
 70
     1
102
RTVSPropertyOp37
 70
     1
102
RTVSPropertyOp38
 70
     1
102
RTVSPropertyOp39
 70
     1
102
RTVSPropertyOp40
 70
     1
102
RTVSPropertyOp41
 70
     1
102
RTVSPropertyOp42
 70
     1
102
RTVSPropertyOp43
 70
     1
102
RTVSPropertyOp44
 70
     1
102
RTVSPropertyOp45
 70
     1
102
RTVSPropertyOp46
 70
     1
102
RTVSPropertyOp47
 70
     1
102
RTVSPropertyOp48
 70
     1
102
RTVSPropertyOp49
 70
     1
102
RTVSPropertyOp50
 70
     1
102
RTVSPropertyOp51
 70
     0
102
RTVSPropertyOp52
 70
     0
102
RTVSPropertyOp53
 70
     1
102
RTVSPropertyOp54
 70
     1
102
RTVSPropertyOp55
 70
     1
102
RTVSPropertyOp56
 70
     1
102
RTVSPropertyOp57
 70
     1
102
RTVSPost2010Prop28
280
     0
102
RTVSPost2010PropOp28
 70
     1
102
RTVSPost2010Prop29
280
     1
102
RTVSPost2010PropOp29
 70
     1
102
RTVSPost2010Prop30
280
     1
102
RTVSPost2010PropOp30
 70
     1
102
RTVSPost2010Prop31
280
     0
102
RTVSPost2010PropOp31
 70
     1
102
RTVSPost2010Prop32
280
     0
102
RTVSPost2010PropOp32
 70
     1
102
RTVSPost2010Prop33
280
     0
102
RTVSPost2010PropOp33
 70
     1
102
RTVSPost2010Prop34
280
     0
102
RTVSPost2010PropOp34
 70
     1
102
RTVSPost2010Prop35
280
     0
102
RTVSPost2010PropOp35
 70
     1
102
RTVSPost2010Prop36
280
     0
102
RTVSPost2010PropOp36
 70
     1
102
RTVSPost2010Prop37
 90
       50
102
RTVSPost2010PropOp37
 70
     1
102
RTVSPost2010Prop38
140
0.0
102
RTVSPost2010PropOp38
 70
     1
102
RTVSPost2010Prop39
140
1.0
102
RTVSPost2010PropOp39
 70
     1
102
RTVSPost2010Prop40
 90
        0
102
RTVSPost2010PropOp40
 70
     1
102
RTVSPost2010Prop41ColorIndex
 90
       18
102
RTVSPost2010Prop41ColorRGB
 90
        0
102
RTVSPost2010PropOp41
 70
     1
102
RTVSPost2010Prop42
 90
       50
102
RTVSPost2010PropOp42
 70
     1
102
RTVSPost2010Prop43
 90
        3
102
RTVSPost2010PropOp43
 70
     1
102
RTVSPost2010Prop44ColorIndex
 90
        5
102
RTVSPost2010Prop44ColorRGB
 90
      255
102
RTVSPost2010PropOp44
 70
     1
102
RTVSPost2010Prop45
280
     0
102
RTVSPost2010PropOp45
 70
     1
102
RTVSPost2010Prop46
 90
       50
102
RTVSPost2010PropOp46
 70
     1
102
RTVSPost2010Prop47
 90
       50
102
RTVSPost2010PropOp47
 70
     1
102
RTVSPost2010Prop48
 90
       50
102
RTVSPost2010PropOp48
 70
     1
102
RTVSPost2010Prop49
280
     0
102
RTVSPost2010PropOp49
 70
     1
102
RTVSPost2010Prop50
 90
       50
102
RTVSPost2010PropOp50
 70
     1
102
RTVSPost2010Prop51ColorIndex
 90
      256
102
RTVSPost2010Prop51ColorRGB
 90
-16777216
102
RTVSPost2010PropOp51
 70
     0
102
RTVSPost2010Prop52
140
1.0
102
RTVSPost2010PropOp52
 70
     0
102
RTVSPost2010Prop53
 90
        2
102
RTVSPost2010PropOp53
 70
     1
102
RTVSPost2010Prop54
  1
strokes_ogs.tif
102
RTVSPost2010PropOp54
 70
     1
102
RTVSPost2010Prop55
280
     0
102
RTVSPost2010PropOp55
 70
     1
102
RTVSPost2010Prop56
140
1.0
102
RTVSPost2010PropOp56
 70
     1
102
RTVSPost2010Prop57
140
1.0
102
RTVSPost2010PropOp57
 70
     1
  0
XRECORD
  5
22F
102
{ACAD_REACTORS
330
22E
102
}
330
22E
100
AcDbXrecord
280
     1
102
RTVSPropertyOp0
 70
     1
102
RTVSPropertyOp1
 70
     1
102
RTVSPropertyOp2
 70
     1
102
RTVSPropertyOp3
 70
     1
102
RTVSPropertyOp4
 70
     1
102
RTVSPropertyOp5
 70
     1
102
RTVSPropertyOp6
 70
     1
102
RTVSPropertyOp7
 70
     1
102
RTVSPropertyOp8
 70
     1
102
RTVSPropertyOp9
 70
     1
102
RTVSPropertyOp10
 70
     1
102
RTVSPropertyOp11
 70
     1
102
RTVSPropertyOp12
 70
     1
102
RTVSPropertyOp13
 70
     1
102
RTVSPropertyOp14
 70
     1
102
RTVSPropertyOp15
 70
     1
102
RTVSPropertyOp16
 70
     1
102
RTVSPropertyOp17
 70
     1
102
RTVSPropertyOp18
 70
     1
102
RTVSPropertyOp19
 70
     1
102
RTVSPropertyOp20
 70
     1
102
RTVSPropertyOp21
 70
     1
102
RTVSPropertyOp22
 70
     1
102
RTVSPropertyOp23
 70
     1
102
RTVSPropertyOp24
 70
     1
102
RTVSPropertyOp25
 70
     1
102
RTVSPropertyOp26
 70
     1
102
RTVSPropertyOp27
 70
     1
102
RTVSPropertyOp28
 70
     1
102
RTVSPropertyOp29
 70
     1
102
RTVSPropertyOp30
 70
     1
102
RTVSPropertyOp31
 70
     1
102
RTVSPropertyOp32
 70
     1
102
RTVSPropertyOp33
 70
     1
102
RTVSPropertyOp34
 70
     1
102
RTVSPropertyOp35
 70
     1
102
RTVSPropertyOp36
 70
     1
102
RTVSPropertyOp37
 70
     1
102
RTVSPropertyOp38
 70
     1
102
RTVSPropertyOp39
 70
     1
102
RTVSPropertyOp40
 70
     1
102
RTVSPropertyOp41
 70
     1
102
RTVSPropertyOp42
 70
     1
102
RTVSPropertyOp43
 70
     1
102
RTVSPropertyOp44
 70
     1
102
RTVSPropertyOp45
 70
     1
102
RTVSPropertyOp46
 70
     1
102
RTVSPropertyOp47
 70
     1
102
RTVSPropertyOp48
 70
     1
102
RTVSPropertyOp49
 70
     1
102
RTVSPropertyOp50
 70
     1
102
RTVSPropertyOp51
 70
     0
102
RTVSPropertyOp52
 70
     0
102
RTVSPropertyOp53
 70
     1
102
RTVSPropertyOp54
 70
     1
102
RTVSPropertyOp55
 70
     1
102
RTVSPropertyOp56
 70
     1
102
RTVSPropertyOp57
 70
     1
102
RTVSPost2010Prop28
280
     0
102
RTVSPost2010PropOp28
 70
     1
102
RTVSPost2010Prop29
280
     1
102
RTVSPost2010PropOp29
 70
     1
102
RTVSPost2010Prop30
280
     1
102
RTVSPost2010PropOp30
 70
     1
102
RTVSPost2010Prop31
280
     0
102
RTVSPost2010PropOp31
 70
     1
102
RTVSPost2010Prop32
280
     0
102
RTVSPost2010PropOp32
 70
     1
102
RTVSPost2010Prop33
280
     0
102
RTVSPost2010PropOp33
 70
     1
102
RTVSPost2010Prop34
280
     0
102
RTVSPost2010PropOp34
 70
     1
102
RTVSPost2010Prop35
280
     0
102
RTVSPost2010PropOp35
 70
     1
102
RTVSPost2010Prop36
280
     0
102
RTVSPost2010PropOp36
 70
     1
102
RTVSPost2010Prop37
 90
       50
102
RTVSPost2010PropOp37
 70
     1
102
RTVSPost2010Prop38
140
0.0
102
RTVSPost2010PropOp38
 70
     1
102
RTVSPost2010Prop39
140
1.0
102
RTVSPost2010PropOp39
 70
     1
102
RTVSPost2010Prop40
 90
        0
102
RTVSPost2010PropOp40
 70
     1
102
RTVSPost2010Prop41ColorIndex
 90
       18
102
RTVSPost2010Prop41ColorRGB
 90
        0
102
RTVSPost2010PropOp41
 70
     1
102
RTVSPost2010Prop42
 90
       50
102
RTVSPost2010PropOp42
 70
     1
102
RTVSPost2010Prop43
 90
        3
102
RTVSPost2010PropOp43
 70
     1
102
RTVSPost2010Prop44ColorIndex
 90
        5
102
RTVSPost2010Prop44ColorRGB
 90
      255
102
RTVSPost2010PropOp44
 70
     1
102
RTVSPost2010Prop45
280
     0
102
RTVSPost2010PropOp45
 70
     1
102
RTVSPost2010Prop46
 90
       50
102
RTVSPost2010PropOp46
 70
     1
102
RTVSPost2010Prop47
 90
       50
102
RTVSPost2010PropOp47
 70
     1
102
RTVSPost2010Prop48
 90
       50
102
RTVSPost2010PropOp48
 70
     1
102
RTVSPost2010Prop49
280
     0
102
RTVSPost2010PropOp49
 70
     1
102
RTVSPost2010Prop50
 90
       50
102
RTVSPost2010PropOp50
 70
     1
102
RTVSPost2010Prop51ColorIndex
 90
      256
102
RTVSPost2010Prop51ColorRGB
 90
-16777216
102
RTVSPost2010PropOp51
 70
     0
102
RTVSPost2010Prop52
140
1.0
102
RTVSPost2010PropOp52
 70
     0
102
RTVSPost2010Prop53
 90
        2
102
RTVSPost2010PropOp53
 70
     1
102
RTVSPost2010Prop54
  1
strokes_ogs.tif
102
RTVSPost2010PropOp54
 70
     1
102
RTVSPost2010Prop55
280
     0
102
RTVSPost2010PropOp55
 70
     1
102
RTVSPost2010Prop56
140
1.0
102
RTVSPost2010PropOp56
 70
     1
102
RTVSPost2010Prop57
140
1.0
102
RTVSPost2010PropOp57
 70
     1
  0
ENDSEC
  0
EOF
