999
dxflib 2.2.0.0
  0
SECTION
  2
HEADER
  9
$ACADVER
  1
AC1015
  9
$HANDSEED
  5
FFFF
  9
$INSUNITS
 70
4
  9
$DIMEXE
 40
1.25
  9
$TEXTSTYLE
  7
Standard
  9
$LIMMIN
 10
0.0
 20
0.0
  0
ENDSEC
  0
SECTION
  2
TABLES
  0
TABLE
  2
VPORT
  5
8
100
AcDbSymbolTable
 70
1
  0
VPORT
  5
30
100
AcDbSymbolTableRecord
100
AcDbViewportTableRecord
  2
*Active
 70
0
 10
0.0
 20
0.0
 11
1.0
 21
1.0
 12
286.30555555555549
 22
148.5
 13
0.0
 23
0.0
 14
10.0
 24
10.0
 15
10.0
 25
10.0
 16
0.0
 26
0.0
 36
1.0
 17
0.0
 27
0.0
 37
0.0
 40
297.0
 41
1.92798353909465
 42
50.0
 43
0.0
 44
0.0
 50
0.0
 51
0.0
 71
0
 72
100
 73
1
 74
3
 75
1
 76
1
 77
0
 78
0
281
0
 65
1
110
0.0
120
0.0
130
0.0
111
1.0
121
0.0
131
0.0
112
0.0
122
1.0
132
0.0
 79
0
146
0.0
  0
ENDTAB
  0
TABLE
  2
LTYPE
  5
5
100
AcDbSymbolTable
 70
25
  0
LTYPE
  5
14
100
AcDbSymbolTableRecord
100
AcDbLinetypeTableRecord
  2
BYBLOCK
 70
0
  3

 72
65
 73
0
 40
0.0
  0
LTYPE
  5
15
100
AcDbSymbolTableRecord
100
AcDbLinetypeTableRecord
  2
BYLAYER
 70
0
  3

 72
65
 73
0
 40
0.0
  0
LTYPE
  5
16
100
AcDbSymbolTableRecord
100
AcDbLinetypeTableRecord
  2
CONTINUOUS
 70
0
  3
Solid line
 72
65
 73
0
 40
0.0
  0
LTYPE
  5
31
100
AcDbSymbolTableRecord
100
AcDbLinetypeTableRecord
  2
ACAD_ISO02W100
 70
0
  3
ISO Dashed __ __ __ __ __ __ __ __ __ __ _
 72
65
 73
2
 40
15.0
 49
12.0
 74
0
 49
-3.0
 74
0
  0
LTYPE
  5
32
100
AcDbSymbolTableRecord
100
AcDbLinetypeTableRecord
  2
ACAD_ISO03W100
 70
0
  3
ISO Dashed with Distance __    __    __    _
 72
65
 73
2
 40
30.0
 49
12.0
 74
0
 49
-18.0
 74
0
  0
LTYPE
  5
33
100
AcDbSymbolTableRecord
100
AcDbLinetypeTableRecord
  2
ACAD_ISO04W100
 70
0
  3
ISO Long Dashed Dotted ____ . ____ . __
 72
65
 73
4
 40
30.0
 49
24.0
 74
0
 49
-3.0
 74
0
 49
0.0
 74
0
 49
-3.0
 74
0
  0
LTYPE
  5
34
100
AcDbSymbolTableRecord
100
AcDbLinetypeTableRecord
  2
ACAD_ISO05W100
 70
0
  3
ISO Long Dashed Double Dotted ____ .. __
 72
65
 73
6
 40
33.0
 49
24.0
 74
0
 49
-3.0
 74
0
 49
0.0
 74
0
 49
-3.0
 74
0
 49
0.0
 74
0
 49
-3.0
 74
0
  0
LTYPE
  5
35
100
AcDbSymbolTableRecord
100
AcDbLinetypeTableRecord
  2
BORDER
 70
0
  3
Border __ __ . __ __ . __ __ . __ __ . __ __ .
 72
65
 73
6
 40
44.450000000000003
 49
12.699999999999999
 74
0
 49
-6.3499999999999996
 74
0
 49
12.699999999999999
 74
0
 49
-6.3499999999999996
 74
0
 49
0.0
 74
0
 49
-6.3499999999999996
 74
0
  0
LTYPE
  5
36
100
AcDbSymbolTableRecord
100
AcDbLinetypeTableRecord
  2
BORDER2
 70
0
  3
Border (.5x) __.__.__.__.__.__.__.__.__.__.__.
 72
65
 73
6
 40
22.225000000000001
 49
6.3499999999999996
 74
0
 49
-3.1749999999999998
 74
0
 49
6.3499999999999996
 74
0
 49
-3.1749999999999998
 74
0
 49
0.0
 74
0
 49
-3.1749999999999998
 74
0
  0
LTYPE
  5
37
100
AcDbSymbolTableRecord
100
AcDbLinetypeTableRecord
  2
BORDERX2
 70
0
  3
Border (2x) ____  ____  .  ____  ____  .  ___
 72
65
 73
6
 40
88.900000000000006
 49
25.399999999999999
 74
0
 49
-12.699999999999999
 74
0
 49
25.399999999999999
 74
0
 49
-12.699999999999999
 74
0
 49
0.0
 74
0
 49
-12.699999999999999
 74
0
  0
LTYPE
  5
38
100
AcDbSymbolTableRecord
100
AcDbLinetypeTableRecord
  2
CENTER
 70
0
  3
Center ____ _ ____ _ ____ _ ____ _ ____ _ ____
 72
65
 73
4
 40
50.799999999999997
 49
31.75
 74
0
 49
-6.3499999999999996
 74
0
 49
6.3499999999999996
 74
0
 49
-6.3499999999999996
 74
0
  0
LTYPE
  5
39
100
AcDbSymbolTableRecord
100
AcDbLinetypeTableRecord
  2
CENTER2
 70
0
  3
Center (.5x) ___ _ ___ _ ___ _ ___ _ ___ _ ___
 72
65
 73
4
 40
28.574999999999999
 49
19.050000000000001
 74
0
 49
-3.1749999999999998
 74
0
 49
3.1749999999999998
 74
0
 49
-3.1749999999999998
 74
0
  0
LTYPE
  5
3A
100
AcDbSymbolTableRecord
100
AcDbLinetypeTableRecord
  2
CENTERX2
 70
0
  3
Center (2x) ________  __  ________  __  _____
 72
65
 73
4
 40
101.59999999999999
 49
63.5
 74
0
 49
-12.699999999999999
 74
0
 49
12.699999999999999
 74
0
 49
-12.699999999999999
 74
0
  0
LTYPE
  5
3B
100
AcDbSymbolTableRecord
100
AcDbLinetypeTableRecord
  2
DASHDOT
 70
0
  3
Dash dot __ . __ . __ . __ . __ . __ . __ . __
 72
65
 73
4
 40
25.399999999999999
 49
12.699999999999999
 74
0
 49
-6.3499999999999996
 74
0
 49
0.0
 74
0
 49
-6.3499999999999996
 74
0
  0
LTYPE
  5
3C
100
AcDbSymbolTableRecord
100
AcDbLinetypeTableRecord
  2
DASHDOT2
 70
0
  3
Dash dot (.5x) _._._._._._._._._._._._._._._.
 72
65
 73
4
 40
12.699999999999999
 49
6.3499999999999996
 74
0
 49
-3.1749999999999998
 74
0
 49
0.0
 74
0
 49
-3.1749999999999998
 74
0
  0
LTYPE
  5
3D
100
AcDbSymbolTableRecord
100
AcDbLinetypeTableRecord
  2
DASHDOTX2
 70
0
  3
Dash dot (2x) ____  .  ____  .  ____  .  ___
 72
65
 73
4
 40
50.799999999999997
 49
25.399999999999999
 74
0
 49
-12.699999999999999
 74
0
 49
0.0
 74
0
 49
-12.699999999999999
 74
0
  0
LTYPE
  5
3E
100
AcDbSymbolTableRecord
100
AcDbLinetypeTableRecord
  2
DASHED
 70
0
  3
Dashed __ __ __ __ __ __ __ __ __ __ __ __ __ _
 72
65
 73
2
 40
19.050000000000001
 49
12.699999999999999
 74
0
 49
-6.3499999999999996
 74
0
  0
LTYPE
  5
3F
100
AcDbSymbolTableRecord
100
AcDbLinetypeTableRecord
  2
DASHED2
 70
0
  3
Dashed (.5x) _ _ _ _ _ _ _ _ _ _ _ _ _ _ _ _ _
 72
65
 73
2
 40
9.5250000000000004
 49
6.3499999999999996
 74
0
 49
-3.1749999999999998
 74
0
  0
LTYPE
  5
40
100
AcDbSymbolTableRecord
100
AcDbLinetypeTableRecord
  2
DASHEDX2
 70
0
  3
Dashed (2x) ____  ____  ____  ____  ____  ___
 72
65
 73
2
 40
38.100000000000001
 49
25.399999999999999
 74
0
 49
-12.699999999999999
 74
0
  0
LTYPE
  5
41
100
AcDbSymbolTableRecord
100
AcDbLinetypeTableRecord
  2
DIVIDE
 70
0
  3
Divide ____ . . ____ . . ____ . . ____ . . ____
 72
65
 73
6
 40
31.75
 49
12.699999999999999
 74
0
 49
-6.3499999999999996
 74
0
 49
0.0
 74
0
 49
-6.3499999999999996
 74
0
 49
0.0
 74
0
 49
-6.3499999999999996
 74
0
  0
LTYPE
  5
42
100
AcDbSymbolTableRecord
100
AcDbLinetypeTableRecord
  2
DIVIDE2
 70
0
  3
Divide (.5x) __..__..__..__..__..__..__..__.._
 72
65
 73
6
 40
15.875
 49
6.3499999999999996
 74
0
 49
-3.1749999999999998
 74
0
 49
0.0
 74
0
 49
-3.1749999999999998
 74
0
 49
0.0
 74
0
 49
-3.1749999999999998
 74
0
  0
LTYPE
  5
43
100
AcDbSymbolTableRecord
100
AcDbLinetypeTableRecord
  2
DIVIDEX2
 70
0
  3
Divide (2x) ________  .  .  ________  .  .  _
 72
65
 73
6
 40
63.5
 49
25.399999999999999
 74
0
 49
-12.699999999999999
 74
0
 49
0.0
 74
0
 49
-12.699999999999999
 74
0
 49
0.0
 74
0
 49
-12.699999999999999
 74
0
  0
LTYPE
  5
44
100
AcDbSymbolTableRecord
100
AcDbLinetypeTableRecord
  2
DOT
 70
0
  3
Dot . . . . . . . . . . . . . . . . . . . . . .
 72
65
 73
2
 40
6.3499999999999996
 49
0.0
 74
0
 49
-6.3499999999999996
 74
0
  0
LTYPE
  5
45
100
AcDbSymbolTableRecord
100
AcDbLinetypeTableRecord
  2
DOT2
 70
0
  3
Dot (.5x) .....................................
 72
65
 73
2
 40
3.1749999999999998
 49
0.0
 74
0
 49
-3.1749999999999998
 74
0
  0
LTYPE
  5
46
100
AcDbSymbolTableRecord
100
AcDbLinetypeTableRecord
  2
DOTX2
 70
0
  3
Dot (2x) .  .  .  .  .  .  .  .  .  .  .  .  .
 72
65
 73
2
 40
12.699999999999999
 49
0.0
 74
0
 49
-12.699999999999999
 74
0
  0
ENDTAB
  0
TABLE
  2
LAYER
  5
2
100
AcDbSymbolTable
 70
3
  0
LAYER
  5
10
100
AcDbSymbolTableRecord
100
AcDbLayerTableRecord
  2
0
 70
0
 62
250
  6
CONTINUOUS
370
100
390
F
  0
LAYER
  5
47
100
AcDbSymbolTableRecord
100
AcDbLayerTableRecord
  2
color#00000000
 70
0
 62
7
  6
CONTINUOUS
370
100
390
F
  0
LAYER
  5
48
100
AcDbSymbolTableRecord
100
AcDbLayerTableRecord
  2
color#ffffffff
 70
0
 62
7
  6
CONTINUOUS
370
100
390
F
  0
ENDTAB
  0
TABLE
  2
STYLE
  5
3
100
AcDbSymbolTable
 70
1
  0
STYLE
  5
11
100
AcDbSymbolTableRecord
100
AcDbTextStyleTableRecord
  2
Standard
 70
0
 40
0.0
 41
0.75
 50
0.0
 71
0
 42
2.5
  3
txt
  4

  0
ENDTAB
  0
TABLE
  2
VIEW
  5
6
100
AcDbSymbolTable
 70
0
  0
ENDTAB
  0
TABLE
  2
UCS
  5
7
100
AcDbSymbolTable
 70
0
  0
ENDTAB
  0
TABLE
  2
APPID
  5
9
100
AcDbSymbolTable
 70
1
  0
APPID
  5
12
100
AcDbSymbolTableRecord
100
AcDbRegAppTableRecord
  2
ACAD
 70
0
  0
ENDTAB
  0
TABLE
  2
DIMSTYLE
  5
A
100
AcDbSymbolTable
 70
1
100
AcDbDimStyleTable
 71
0
  0
DIMSTYLE
105
27
100
AcDbSymbolTableRecord
100
AcDbDimStyleTableRecord
  2
Standard
 41
1.0
 42
1.0
 43
3.75
 44
1.0
 70
0
 73
0
 74
0
 77
1
 78
8
140
1.0
141
2.5
143
0.03937007874016
147
1.0
171
3
172
1
271
2
272
2
274
3
278
44
283
0
284
8
340
11
  0
ENDTAB
  0
TABLE
  2
BLOCK_RECORD
  5
1
100
AcDbSymbolTable
 70
1
  0
BLOCK_RECORD
  5
1F
100
AcDbSymbolTableRecord
100
AcDbBlockTableRecord
  2
*Model_Space
340
22
  0
BLOCK_RECORD
  5
1B
100
AcDbSymbolTableRecord
100
AcDbBlockTableRecord
  2
*Paper_Space
340
1E
  0
BLOCK_RECORD
  5
23
100
AcDbSymbolTableRecord
100
AcDbBlockTableRecord
  2
*Paper_Space0
340
26
  0
ENDTAB
  0
ENDSEC
  0
SECTION
  2
BLOCKS
  0
BLOCK
  5
20
100
AcDbEntity
  8
0
100
AcDbBlockBegin
  2
*Model_Space
 70
0
 10
0.0
 20
0.0
 30
0.0
  3
*Model_Space
  1

  0
ENDBLK
  5
21
100
AcDbEntity
  8
0
100
AcDbBlockEnd
  0
BLOCK
  5
1C
100
AcDbEntity
 67
1
  8
0
100
AcDbBlockBegin
  2
*Paper_Space
 70
0
 10
0.0
 20
0.0
 30
0.0
  3
*Paper_Space
  1

  0
ENDBLK
  5
1D
100
AcDbEntity
 67
1
  8
0
100
AcDbBlockEnd
  0
BLOCK
  5
24
100
AcDbEntity
  8
0
100
AcDbBlockBegin
  2
*Paper_Space0
 70
0
 10
0.0
 20
0.0
 30
0.0
  3
*Paper_Space0
  1

  0
ENDBLK
  5
25
100
AcDbEntity
  8
0
100
AcDbBlockEnd
  0
ENDSEC
  0
SECTION
  2
ENTITIES
  0
LINE
  5
49
100
AcDbEntity
100
AcDbLine
  8
color#ffffffff
 62
256
370
-1
  6
BYLAYER
 10
0.2448759952635546
 20
2.2690629840963665
 30
0.0
 11
0.2669490277554756
 21
2.2864722383441287
 31
0.0
  0
LINE
  5
4A
100
AcDbEntity
100
AcDbLine
  8
color#ffffffff
 62
256
370
-1
  6
BYLAYER
 10
0.2669490277554756
 20
2.2864722383441287
 30
0.0
 11
0.289786542506106
 21
2.3026223654744666
 31
0.0
  0
LINE
  5
4B
100
AcDbEntity
100
AcDbLine
  8
color#ffffffff
 62
256
370
-1
  6
BYLAYER
 10
0.289786542506106
 20
2.3026223654744666
 30
0.0
 11
0.3133338292953598
 21
2.3175181710734787
 31
0.0
  0
LINE
  5
4C
100
AcDbEntity
100
AcDbLine
  8
color#ffffffff
 62
256
370
-1
  6
BYLAYER
 10
0.3133338292953598
 20
2.3175181710734787
 30
0.0
 11
0.3375361779031507
 21
2.3311644607272637
 31
0.0
  0
LINE
  5
4D
100
AcDbEntity
100
AcDbLine
  8
color#ffffffff
 62
256
370
-1
  6
BYLAYER
 10
0.3375361779031507
 20
2.3311644607272637
 30
0.0
 11
0.362338878109393
 21
2.3435660400219174
 31
0.0
  0
LINE
  5
4E
100
AcDbEntity
100
AcDbLine
  8
color#ffffffff
 62
256
370
-1
  6
BYLAYER
 10
0.362338878109393
 20
2.3435660400219174
 30
0.0
 11
0.3876872196940002
 21
2.3547277145435395
 31
0.0
  0
LINE
  5
4F
100
AcDbEntity
100
AcDbLine
  8
color#ffffffff
 62
256
370
-1
  6
BYLAYER
 10
0.3876872196940002
 20
2.3547277145435395
 30
0.0
 11
0.4135264924368862
 21
2.3646542898782283
 31
0.0
  0
LINE
  5
50
100
AcDbEntity
100
AcDbLine
  8
color#ffffffff
 62
256
370
-1
  6
BYLAYER
 10
0.4135264924368862
 20
2.3646542898782283
 30
0.0
 11
0.4398019861179653
 21
2.3733505716120806
 31
0.0
  0
LINE
  5
51
100
AcDbEntity
100
AcDbLine
  8
color#ffffffff
 62
256
370
-1
  6
BYLAYER
 10
0.4398019861179653
 20
2.3733505716120806
 30
0.0
 11
0.466458990517151
 21
2.3808213653311947
 31
0.0
  0
LINE
  5
52
100
AcDbEntity
100
AcDbLine
  8
color#ffffffff
 62
256
370
-1
  6
BYLAYER
 10
0.466458990517151
 20
2.3808213653311947
 30
0.0
 11
0.4934427954143573
 21
2.3870714766216699
 31
0.0
  0
LINE
  5
53
100
AcDbEntity
100
AcDbLine
  8
color#ffffffff
 62
256
370
-1
  6
BYLAYER
 10
0.4934427954143573
 20
2.3870714766216699
 30
0.0
 11
0.5206986905894981
 21
2.392105711069604
 31
0.0
  0
LINE
  5
54
100
AcDbEntity
100
AcDbLine
  8
color#ffffffff
 62
256
370
-1
  6
BYLAYER
 10
0.5206986905894981
 20
2.392105711069604
 30
0.0
 11
0.5481719658224876
 21
2.3959288742610934
 31
0.0
  0
LINE
  5
55
100
AcDbEntity
100
AcDbLine
  8
color#ffffffff
 62
256
370
-1
  6
BYLAYER
 10
0.5481719658224876
 20
2.3959288742610934
 30
0.0
 11
0.575807910893239
 21
2.3985457717822385
 31
0.0
  0
LINE
  5
56
100
AcDbEntity
100
AcDbLine
  8
color#ffffffff
 62
256
370
-1
  6
BYLAYER
 10
0.575807910893239
 20
2.3985457717822385
 30
0.0
 11
0.6035518155816669
 21
2.3999612092191347
 31
0.0
  0
LINE
  5
57
100
AcDbEntity
100
AcDbLine
  8
color#ffffffff
 62
256
370
-1
  6
BYLAYER
 10
0.6035518155816669
 20
2.3999612092191347
 30
0.0
 11
0.6313489696676847
 21
2.4001799921578826
 31
0.0
  0
LINE
  5
58
100
AcDbEntity
100
AcDbLine
  8
color#ffffffff
 62
256
370
-1
  6
BYLAYER
 10
0.6313489696676847
 20
2.4001799921578826
 30
0.0
 11
0.6591446629312068
 21
2.3992069261845792
 31
0.0
  0
LINE
  5
59
100
AcDbEntity
100
AcDbLine
  8
color#ffffffff
 62
256
370
-1
  6
BYLAYER
 10
0.6591446629312068
 20
2.3992069261845792
 30
0.0
 11
0.6868841851521466
 21
2.3970468168853221
 31
0.0
  0
LINE
  5
5A
100
AcDbEntity
100
AcDbLine
  8
color#ffffffff
 62
256
370
-1
  6
BYLAYER
 10
0.6868841851521466
 20
2.3970468168853221
 30
0.0
 11
0.7145128261104181
 21
2.39370446984621
 31
0.0
  0
LINE
  5
5B
100
AcDbEntity
100
AcDbLine
  8
color#ffffffff
 62
256
370
-1
  6
BYLAYER
 10
0.7145128261104181
 20
2.39370446984621
 30
0.0
 11
0.7419758755859355
 21
2.3891846906533405
 31
0.0
  0
LINE
  5
5C
100
AcDbEntity
100
AcDbLine
  8
color#ffffffff
 62
256
370
-1
  6
BYLAYER
 10
0.7419758755859355
 20
2.3891846906533405
 30
0.0
 11
0.7692186233586126
 21
2.383492284892812
 31
0.0
  0
LINE
  5
5D
100
AcDbEntity
100
AcDbLine
  8
color#ffffffff
 62
256
370
-1
  6
BYLAYER
 10
0.7692186233586126
 20
2.383492284892812
 30
0.0
 11
0.7961863592083629
 21
2.3766320581507228
 31
0.0
  0
LINE
  5
5E
100
AcDbEntity
100
AcDbLine
  8
color#ffffffff
 62
256
370
-1
  6
BYLAYER
 10
0.7961863592083629
 20
2.3766320581507228
 30
0.0
 11
0.8228243729151008
 21
2.36860881601317
 31
0.0
  0
LINE
  5
5F
100
AcDbEntity
100
AcDbLine
  8
color#ffffffff
 62
256
370
-1
  6
BYLAYER
 10
0.8228243729151008
 20
2.36860881601317
 30
0.0
 11
0.8490779542587398
 21
2.3594273640662524
 31
0.0
  0
LINE
  5
60
100
AcDbEntity
100
AcDbLine
  8
color#ffffffff
 62
256
370
-1
  6
BYLAYER
 10
0.8490779542587398
 20
2.3594273640662524
 30
0.0
 11
0.8748923930191942
 21
2.3490925078960685
 31
0.0
  0
LINE
  5
61
100
AcDbEntity
100
AcDbLine
  8
color#ffffffff
 62
256
370
-1
  6
BYLAYER
 10
0.8748923930191942
 20
2.3490925078960685
 30
0.0
 11
0.9002129789763775
 21
2.3376090530887152
 31
0.0
  0
LINE
  5
62
100
AcDbEntity
100
AcDbLine
  8
color#ffffffff
 62
256
370
-1
  6
BYLAYER
 10
0.9002129789763775
 20
2.3376090530887152
 30
0.0
 11
0.9249850019102038
 21
2.3249818052302915
 31
0.0
  0
LINE
  5
63
100
AcDbEntity
100
AcDbLine
  8
color#ffffffff
 62
256
370
-1
  6
BYLAYER
 10
0.9249850019102038
 20
2.3249818052302915
 30
0.0
 11
0.949153751600587
 21
2.3112155699068953
 31
0.0
  0
LINE
  5
64
100
AcDbEntity
100
AcDbLine
  8
color#ffffffff
 62
256
370
-1
  6
BYLAYER
 10
0.949153751600587
 20
2.3112155699068953
 30
0.0
 11
0.9726645178274409
 21
2.2963151527046239
 31
0.0
  0
LINE
  5
65
100
AcDbEntity
100
AcDbLine
  8
color#ffffffff
 62
256
370
-1
  6
BYLAYER
 10
0.9726645178274409
 20
2.2963151527046239
 30
0.0
 11
0.9954625903706796
 21
2.2802853592095764
 31
0.0
  0
LINE
  5
66
100
AcDbEntity
100
AcDbLine
  8
color#ffffffff
 62
256
370
-1
  6
BYLAYER
 10
0.9954625903706796
 20
2.2802853592095764
 30
0.0
 11
0.8802613531971102
 21
2.16403998129354
 31
0.0
  0
LINE
  5
67
100
AcDbEntity
100
AcDbLine
  8
color#ffffffff
 62
256
370
-1
  6
BYLAYER
 10
0.8802613531971102
 20
2.16403998129354
 30
0.0
 11
0.8003013297101002
 21
2.2049405078109805
 31
0.0
  0
LINE
  5
68
100
AcDbEntity
100
AcDbLine
  8
color#ffffffff
 62
256
370
-1
  6
BYLAYER
 10
0.8003013297101002
 20
2.2049405078109805
 30
0.0
 11
0.7363929013996052
 21
2.2265708074312718
 31
0.0
  0
LINE
  5
69
100
AcDbEntity
100
AcDbLine
  8
color#ffffffff
 62
256
370
-1
  6
BYLAYER
 10
0.7363929013996052
 20
2.2265708074312718
 30
0.0
 11
0.6814224472304813
 21
2.2374937722562289
 31
0.0
  0
LINE
  5
6A
100
AcDbEntity
100
AcDbLine
  8
color#ffffffff
 62
256
370
-1
  6
BYLAYER
 10
0.6814224472304813
 20
2.2374937722562289
 30
0.0
 11
0.6367717015693578
 21
2.2409736662104027
 31
0.0
  0
LINE
  5
6B
100
AcDbEntity
100
AcDbLine
  8
color#ffffffff
 62
256
370
-1
  6
BYLAYER
 10
0.6367717015693578
 20
2.2409736662104027
 30
0.0
 11
0.5918659651777691
 21
2.2393096553445528
 31
0.0
  0
LINE
  5
6C
100
AcDbEntity
100
AcDbLine
  8
color#ffffffff
 62
256
370
-1
  6
BYLAYER
 10
0.5918659651777691
 20
2.2393096553445528
 30
0.0
 11
0.5694168389847302
 21
2.2364131945741859
 31
0.0
  0
LINE
  5
6D
100
AcDbEntity
100
AcDbLine
  8
color#ffffffff
 62
256
370
-1
  6
BYLAYER
 10
0.5694168389847302
 20
2.2364131945741859
 30
0.0
 11
0.5401474924965565
 21
2.232246528347821
 31
0.0
  0
LINE
  5
6E
100
AcDbEntity
100
AcDbLine
  8
color#ffffffff
 62
256
370
-1
  6
BYLAYER
 10
0.5401474924965565
 20
2.232246528347821
 30
0.0
 11
0.5113552235183982
 21
2.2260353349665714
 31
0.0
  0
LINE
  5
6F
100
AcDbEntity
100
AcDbLine
  8
color#ffffffff
 62
256
370
-1
  6
BYLAYER
 10
0.5113552235183982
 20
2.2260353349665714
 30
0.0
 11
0.4831219734932919
 21
2.2178634228736547
 31
0.0
  0
LINE
  5
70
100
AcDbEntity
100
AcDbLine
  8
color#ffffffff
 62
256
370
-1
  6
BYLAYER
 10
0.4831219734932919
 20
2.2178634228736547
 30
0.0
 11
0.4555296838642737
 21
2.2078146005122905
 31
0.0
  0
LINE
  5
71
100
AcDbEntity
100
AcDbLine
  8
color#ffffffff
 62
256
370
-1
  6
BYLAYER
 10
0.4555296838642737
 20
2.2078146005122905
 30
0.0
 11
0.4286602960743806
 21
2.1959726763256961
 31
0.0
  0
LINE
  5
72
100
AcDbEntity
100
AcDbLine
  8
color#ffffffff
 62
256
370
-1
  6
BYLAYER
 10
0.4286602960743806
 20
2.1959726763256961
 30
0.0
 11
0.4025957515666488
 21
2.1824214587570898
 31
0.0
  0
LINE
  5
73
100
AcDbEntity
100
AcDbLine
  8
color#ffffffff
 62
256
370
-1
  6
BYLAYER
 10
0.4025957515666488
 20
2.1824214587570898
 30
0.0
 11
0.3774179917841148
 21
2.1672447562496919
 31
0.0
  0
LINE
  5
74
100
AcDbEntity
100
AcDbLine
  8
color#ffffffff
 62
256
370
-1
  6
BYLAYER
 10
0.3774179917841148
 20
2.1672447562496919
 30
0.0
 11
0.3532089581698152
 21
2.1505263772467185
 31
0.0
  0
LINE
  5
75
100
AcDbEntity
100
AcDbLine
  8
color#ffffffff
 62
256
370
-1
  6
BYLAYER
 10
0.3532089581698152
 20
2.1505263772467185
 30
0.0
 11
0.3300505921667866
 21
2.132350130191389
 31
0.0
  0
LINE
  5
76
100
AcDbEntity
100
AcDbLine
  8
color#ffffffff
 62
256
370
-1
  6
BYLAYER
 10
0.3300505921667866
 20
2.132350130191389
 30
0.0
 11
0.3080248352180654
 21
2.1127998235269221
 31
0.0
  0
LINE
  5
77
100
AcDbEntity
100
AcDbLine
  8
color#ffffffff
 62
256
370
-1
  6
BYLAYER
 10
0.3080248352180654
 20
2.1127998235269221
 30
0.0
 11
0.2872136287666883
 21
2.091959265696536
 31
0.0
  0
LINE
  5
78
100
AcDbEntity
100
AcDbLine
  8
color#ffffffff
 62
256
370
-1
  6
BYLAYER
 10
0.2872136287666883
 20
2.091959265696536
 30
0.0
 11
0.2676989142556915
 21
2.0699122651434485
 31
0.0
  0
LINE
  5
79
100
AcDbEntity
100
AcDbLine
  8
color#ffffffff
 62
256
370
-1
  6
BYLAYER
 10
0.2676989142556915
 20
2.0699122651434485
 30
0.0
 11
0.2495626331281118
 21
2.0467426303108787
 31
0.0
  0
LINE
  5
7A
100
AcDbEntity
100
AcDbLine
  8
color#ffffffff
 62
256
370
-1
  6
BYLAYER
 10
0.2495626331281118
 20
2.0467426303108787
 30
0.0
 11
0.2328867268269855
 21
2.0225341696420447
 31
0.0
  0
LINE
  5
7B
100
AcDbEntity
100
AcDbLine
  8
color#ffffffff
 62
256
370
-1
  6
BYLAYER
 10
0.2328867268269855
 20
2.0225341696420447
 30
0.0
 11
0.2251220209372913
 21
2.0100665697575342
 31
0.0
  0
LINE
  5
7C
100
AcDbEntity
100
AcDbLine
  8
color#ffffffff
 62
256
370
-1
  6
BYLAYER
 10
0.2251220209372913
 20
2.0100665697575342
 30
0.0
 11
0.1898616928243647
 21
1.9314756012923102
 31
0.0
  0
LINE
  5
7D
100
AcDbEntity
100
AcDbLine
  8
color#ffffffff
 62
256
370
-1
  6
BYLAYER
 10
0.1898616928243647
 20
1.9314756012923102
 30
0.0
 11
0.1700854265092447
 21
1.8585918841552298
 31
0.0
  0
LINE
  5
7E
100
AcDbEntity
100
AcDbLine
  8
color#ffffffff
 62
256
370
-1
  6
BYLAYER
 10
0.1700854265092447
 20
1.8585918841552298
 30
0.0
 11
0.1624135239854471
 21
1.7944327851240611
 31
0.0
  0
LINE
  5
7F
100
AcDbEntity
100
AcDbLine
  8
color#ffffffff
 62
256
370
-1
  6
BYLAYER
 10
0.1624135239854471
 20
1.7944327851240611
 30
0.0
 11
0.1641847043849575
 21
1.7298609163189309
 31
0.0
  0
LINE
  5
80
100
AcDbEntity
100
AcDbLine
  8
color#ffffffff
 62
256
370
-1
  6
BYLAYER
 10
0.1641847043849575
 20
1.7298609163189309
 30
0.0
 11
0.1670172749533233
 21
1.7084326821706333
 31
0.0
  0
LINE
  5
81
100
AcDbEntity
100
AcDbLine
  8
color#ffffffff
 62
256
370
-1
  6
BYLAYER
 10
0.1670172749533233
 20
1.7084326821706333
 30
0.0
 11
0.1727339896135246
 21
1.6769663628535174
 31
0.0
  0
LINE
  5
82
100
AcDbEntity
100
AcDbLine
  8
color#ffffffff
 62
256
370
-1
  6
BYLAYER
 10
0.1727339896135246
 20
1.6769663628535174
 30
0.0
 11
0.1807241984699705
 21
1.6460278102723254
 31
0.0
  0
LINE
  5
83
100
AcDbEntity
100
AcDbLine
  8
color#ffffffff
 62
256
370
-1
  6
BYLAYER
 10
0.1807241984699705
 20
1.6460278102723254
 30
0.0
 11
0.1908979347888234
 21
1.6157405938991711
 31
0.0
  0
LINE
  5
84
100
AcDbEntity
100
AcDbLine
  8
color#ffffffff
 62
256
370
-1
  6
BYLAYER
 10
0.1908979347888234
 20
1.6157405938991711
 30
0.0
 11
0.2031652318362452
 21
1.5862282832061705
 31
0.0
  0
LINE
  5
85
100
AcDbEntity
100
AcDbLine
  8
color#ffffffff
 62
256
370
-1
  6
BYLAYER
 10
0.2031652318362452
 20
1.5862282832061705
 30
0.0
 11
0.2174361228783985
 21
1.5576144476654379
 31
0.0
  0
LINE
  5
86
100
AcDbEntity
100
AcDbLine
  8
color#ffffffff
 62
256
370
-1
  6
BYLAYER
 10
0.2174361228783985
 20
1.5576144476654379
 30
0.0
 11
0.2336206411814454
 21
1.5300226567490871
 31
0.0
  0
LINE
  5
87
100
AcDbEntity
100
AcDbLine
  8
color#ffffffff
 62
256
370
-1
  6
BYLAYER
 10
0.2336206411814454
 20
1.5300226567490871
 30
0.0
 11
0.2516288200115482
 21
1.503576479929235
 31
0.0
  0
LINE
  5
88
100
AcDbEntity
100
AcDbLine
  8
color#ffffffff
 62
256
370
-1
  6
BYLAYER
 10
0.2516288200115482
 20
1.503576479929235
 30
0.0
 11
0.2713706926348691
 21
1.478399486677995
 31
0.0
  0
LINE
  5
89
100
AcDbEntity
100
AcDbLine
  8
color#ffffffff
 62
256
370
-1
  6
BYLAYER
 10
0.2713706926348691
 20
1.478399486677995
 30
0.0
 11
0.2927562923175706
 21
1.4546152464674822
 31
0.0
  0
LINE
  5
8A
100
AcDbEntity
100
AcDbLine
  8
color#ffffffff
 62
256
370
-1
  6
BYLAYER
 10
0.2927562923175706
 20
1.4546152464674822
 30
0.0
 11
0.3156956523258148
 21
1.432347328769811
 31
0.0
  0
LINE
  5
8B
100
AcDbEntity
100
AcDbLine
  8
color#ffffffff
 62
256
370
-1
  6
BYLAYER
 10
0.3156956523258148
 20
1.432347328769811
 30
0.0
 11
0.3400988059257638
 21
1.4117193030570963
 31
0.0
  0
LINE
  5
8C
100
AcDbEntity
100
AcDbLine
  8
color#ffffffff
 62
256
370
-1
  6
BYLAYER
 10
0.3400988059257638
 20
1.4117193030570963
 30
0.0
 11
0.3658757863835802
 21
1.3928547388014527
 31
0.0
  0
LINE
  5
8D
100
AcDbEntity
100
AcDbLine
  8
color#ffffffff
 62
256
370
-1
  6
BYLAYER
 10
0.3658757863835802
 20
1.3928547388014527
 30
0.0
 11
0.3929366269654261
 21
1.3758772054749961
 31
0.0
  0
LINE
  5
8E
100
AcDbEntity
100
AcDbLine
  8
color#ffffffff
 62
256
370
-1
  6
BYLAYER
 10
0.3929366269654261
 20
1.3758772054749961
 30
0.0
 11
0.4211913609374637
 21
1.3609102725498401
 31
0.0
  0
LINE
  5
8F
100
AcDbEntity
100
AcDbLine
  8
color#ffffffff
 62
256
370
-1
  6
BYLAYER
 10
0.4211913609374637
 20
1.3609102725498401
 30
0.0
 11
0.4357383233404802
 21
1.3542193966977858
 31
0.0
  0
LINE
  5
90
100
AcDbEntity
100
AcDbLine
  8
color#ffffffff
 62
256
370
-1
  6
BYLAYER
 10
0.4357383233404802
 20
1.3542193966977858
 30
0.0
 11
0.479039718157137
 21
1.3369798550838634
 31
0.0
  0
LINE
  5
91
100
AcDbEntity
100
AcDbLine
  8
color#ffffffff
 62
256
370
-1
  6
BYLAYER
 10
0.479039718157137
 20
1.3369798550838634
 30
0.0
 11
0.5353745686666406
 21
1.3219562681534132
 31
0.0
  0
LINE
  5
92
100
AcDbEntity
100
AcDbLine
  8
color#ffffffff
 62
256
370
-1
  6
BYLAYER
 10
0.5353745686666406
 20
1.3219562681534132
 30
0.0
 11
0.5932272166860481
 21
1.3142296064085697
 31
0.0
  0
LINE
  5
93
100
AcDbEntity
100
AcDbLine
  8
color#ffffffff
 62
256
370
-1
  6
BYLAYER
 10
0.5932272166860481
 20
1.3142296064085697
 30
0.0
 11
0.6515951750370643
 21
1.3138491467303934
 31
0.0
  0
LINE
  5
94
100
AcDbEntity
100
AcDbLine
  8
color#ffffffff
 62
256
370
-1
  6
BYLAYER
 10
0.6515951750370643
 20
1.3138491467303934
 30
0.0
 11
0.7094759565413938
 21
1.3208641659999445
 31
0.0
  0
LINE
  5
95
100
AcDbEntity
100
AcDbLine
  8
color#ffffffff
 62
256
370
-1
  6
BYLAYER
 10
0.7094759565413938
 20
1.3208641659999445
 30
0.0
 11
0.765867074020741
 21
1.3353239410982853
 31
0.0
  0
LINE
  5
96
100
AcDbEntity
100
AcDbLine
  8
color#ffffffff
 62
256
370
-1
  6
BYLAYER
 10
0.765867074020741
 20
1.3353239410982853
 30
0.0
 11
0.7967574760119771
 21
1.3463736011557907
 31
0.0
  0
LINE
  5
97
100
AcDbEntity
100
AcDbLine
  8
color#ffffffff
 62
256
370
-1
  6
BYLAYER
 10
0.7967574760119771
 20
1.3463736011557907
 30
0.0
 11
0.826692122351337
 21
1.3596634130883345
 31
0.0
  0
LINE
  5
98
100
AcDbEntity
100
AcDbLine
  8
color#ffffffff
 62
256
370
-1
  6
BYLAYER
 10
0.826692122351337
 20
1.3596634130883345
 30
0.0
 11
0.8555652013789501
 21
1.3750775378581952
 31
0.0
  0
LINE
  5
99
100
AcDbEntity
100
AcDbLine
  8
color#ffffffff
 62
256
370
-1
  6
BYLAYER
 10
0.8555652013789501
 20
1.3750775378581952
 30
0.0
 11
0.8832709014349444
 21
1.3925001364276532
 31
0.0
  0
LINE
  5
9A
100
AcDbEntity
100
AcDbLine
  8
color#ffffffff
 62
256
370
-1
  6
BYLAYER
 10
0.8832709014349444
 20
1.3925001364276532
 30
0.0
 11
0.909703410859449
 21
1.4118153697589857
 31
0.0
  0
LINE
  5
9B
100
AcDbEntity
100
AcDbLine
  8
color#ffffffff
 62
256
370
-1
  6
BYLAYER
 10
0.909703410859449
 20
1.4118153697589857
 30
0.0
 11
0.9347569179925928
 21
1.4329073988144725
 31
0.0
  0
LINE
  5
9C
100
AcDbEntity
100
AcDbLine
  8
color#ffffffff
 62
256
370
-1
  6
BYLAYER
 10
0.9347569179925928
 20
1.4329073988144725
 30
0.0
 11
0.9583256111745043
 21
1.4556603845563931
 31
0.0
  0
LINE
  5
9D
100
AcDbEntity
100
AcDbLine
  8
color#ffffffff
 62
256
370
-1
  6
BYLAYER
 10
0.9583256111745043
 20
1.4556603845563931
 30
0.0
 11
0.9803036787453124
 21
1.4799584879470262
 31
0.0
  0
LINE
  5
9E
100
AcDbEntity
100
AcDbLine
  8
color#ffffffff
 62
256
370
-1
  6
BYLAYER
 10
0.9803036787453124
 20
1.4799584879470262
 30
0.0
 11
1.000585309045146
 21
1.5056858699486506
 31
0.0
  0
LINE
  5
9F
100
AcDbEntity
100
AcDbLine
  8
color#ffffffff
 62
256
370
-1
  6
BYLAYER
 10
1.000585309045146
 20
1.5056858699486506
 30
0.0
 11
1.0190646904141341
 21
1.5327266915235453
 31
0.0
  0
LINE
  5
A0
100
AcDbEntity
100
AcDbLine
  8
color#ffffffff
 62
256
370
-1
  6
BYLAYER
 10
1.0190646904141341
 20
1.5327266915235453
 30
0.0
 11
1.0356360111924046
 21
1.5609651136339897
 31
0.0
  0
LINE
  5
A1
100
AcDbEntity
100
AcDbLine
  8
color#ffffffff
 62
256
370
-1
  6
BYLAYER
 10
1.0356360111924046
 20
1.5609651136339897
 30
0.0
 11
1.0501934597200873
 21
1.5902852972422632
 31
0.0
  0
LINE
  5
A2
100
AcDbEntity
100
AcDbLine
  8
color#ffffffff
 62
256
370
-1
  6
BYLAYER
 10
1.0501934597200873
 20
1.5902852972422632
 30
0.0
 11
1.0626312243373104
 21
1.6205714033106433
 31
0.0
  0
LINE
  5
A3
100
AcDbEntity
100
AcDbLine
  8
color#ffffffff
 62
256
370
-1
  6
BYLAYER
 10
1.0626312243373104
 20
1.6205714033106433
 30
0.0
 11
1.0728434933842028
 21
1.6517075928014107
 31
0.0
  0
LINE
  5
A4
100
AcDbEntity
100
AcDbLine
  8
color#ffffffff
 62
256
370
-1
  6
BYLAYER
 10
1.0728434933842028
 20
1.6517075928014107
 30
0.0
 11
1.0770820009250652
 21
1.6675582691309014
 31
0.0
  0
LINE
  5
A5
100
AcDbEntity
100
AcDbLine
  8
color#ffffffff
 62
256
370
-1
  6
BYLAYER
 10
1.0770820009250652
 20
1.6675582691309014
 30
0.0
 11
1.0851427688913722
 21
1.7158998502649938
 31
0.0
  0
LINE
  5
A6
100
AcDbEntity
100
AcDbLine
  8
color#ffffffff
 62
256
370
-1
  6
BYLAYER
 10
1.0851427688913722
 20
1.7158998502649938
 30
0.0
 11
1.0882479121317636
 21
1.7768287420067699
 31
0.0
  0
LINE
  5
A7
100
AcDbEntity
100
AcDbLine
  8
color#ffffffff
 62
256
370
-1
  6
BYLAYER
 10
1.0882479121317636
 20
1.7768287420067699
 30
0.0
 11
1.0837796796805124
 21
1.8375659917925746
 31
0.0
  0
LINE
  5
A8
100
AcDbEntity
100
AcDbLine
  8
color#ffffffff
 62
256
370
-1
  6
BYLAYER
 10
1.0837796796805124
 20
1.8375659917925746
 30
0.0
 11
1.071922331769781
 21
1.897308750712241
 31
0.0
  0
LINE
  5
A9
100
AcDbEntity
100
AcDbLine
  8
color#ffffffff
 62
256
370
-1
  6
BYLAYER
 10
1.071922331769781
 20
1.897308750712241
 30
0.0
 11
1.0528601286317305
 21
1.9552541698556061
 31
0.0
  0
LINE
  5
AA
100
AcDbEntity
100
AcDbLine
  8
color#ffffffff
 62
256
370
-1
  6
BYLAYER
 10
1.0528601286317305
 20
1.9552541698556061
 30
0.0
 11
1.0267773304985219
 21
2.0105994003125054
 31
0.0
  0
LINE
  5
AB
100
AcDbEntity
100
AcDbLine
  8
color#ffffffff
 62
256
370
-1
  6
BYLAYER
 10
1.0267773304985219
 20
2.0105994003125054
 30
0.0
 11
1.1391828475757366
 21
2.1294875937783804
 31
0.0
  0
LINE
  5
AC
100
AcDbEntity
100
AcDbLine
  8
color#ffffffff
 62
256
370
-1
  6
BYLAYER
 10
1.1391828475757366
 20
2.1294875937783804
 30
0.0
 11
1.1591835994079331
 21
2.098818080591192
 31
0.0
  0
LINE
  5
AD
100
AcDbEntity
100
AcDbLine
  8
color#ffffffff
 62
256
370
-1
  6
BYLAYER
 10
1.1591835994079331
 20
2.098818080591192
 30
0.0
 11
1.1772599889973303
 21
2.0670114766785499
 31
0.0
  0
LINE
  5
AE
100
AcDbEntity
100
AcDbLine
  8
color#ffffffff
 62
256
370
-1
  6
BYLAYER
 10
1.1772599889973303
 20
2.0670114766785499
 30
0.0
 11
1.1933856520432449
 21
2.0341899926276188
 31
0.0
  0
LINE
  5
AF
100
AcDbEntity
100
AcDbLine
  8
color#ffffffff
 62
256
370
-1
  6
BYLAYER
 10
1.1933856520432449
 20
2.0341899926276188
 30
0.0
 11
1.207534224244992
 21
2.0004758390255666
 31
0.0
  0
LINE
  5
B0
100
AcDbEntity
100
AcDbLine
  8
color#ffffffff
 62
256
370
-1
  6
BYLAYER
 10
1.207534224244992
 20
2.0004758390255666
 30
0.0
 11
1.2196793413018872
 21
1.9659912264595587
 31
0.0
  0
LINE
  5
B1
100
AcDbEntity
100
AcDbLine
  8
color#ffffffff
 62
256
370
-1
  6
BYLAYER
 10
1.2196793413018872
 20
1.9659912264595587
 30
0.0
 11
1.2297946389132477
 21
1.9308583655167624
 31
0.0
  0
LINE
  5
B2
100
AcDbEntity
100
AcDbLine
  8
color#ffffffff
 62
256
370
-1
  6
BYLAYER
 10
1.2297946389132477
 20
1.9308583655167624
 30
0.0
 11
1.2378537527783877
 21
1.8951994667843455
 31
0.0
  0
LINE
  5
B3
100
AcDbEntity
100
AcDbLine
  8
color#ffffffff
 62
256
370
-1
  6
BYLAYER
 10
1.2378537527783877
 20
1.8951994667843455
 30
0.0
 11
1.2438303185966246
 21
1.8591367408494734
 31
0.0
  0
LINE
  5
B4
100
AcDbEntity
100
AcDbLine
  8
color#ffffffff
 62
256
370
-1
  6
BYLAYER
 10
1.2438303185966246
 20
1.8591367408494734
 30
0.0
 11
1.2476979720672734
 21
1.8227923982993133
 31
0.0
  0
LINE
  5
B5
100
AcDbEntity
100
AcDbLine
  8
color#ffffffff
 62
256
370
-1
  6
BYLAYER
 10
1.2476979720672734
 20
1.8227923982993133
 30
0.0
 11
1.2494303488896503
 21
1.7862886497210313
 31
0.0
  0
LINE
  5
B6
100
AcDbEntity
100
AcDbLine
  8
color#ffffffff
 62
256
370
-1
  6
BYLAYER
 10
1.2494303488896503
 20
1.7862886497210313
 30
0.0
 11
1.2490010847630708
 21
1.7497477057017947
 31
0.0
  0
LINE
  5
B7
100
AcDbEntity
100
AcDbLine
  8
color#ffffffff
 62
256
370
-1
  6
BYLAYER
 10
1.2490010847630708
 20
1.7497477057017947
 30
0.0
 11
1.2463838153868509
 21
1.7132917768287699
 31
0.0
  0
LINE
  5
B8
100
AcDbEntity
100
AcDbLine
  8
color#ffffffff
 62
256
370
-1
  6
BYLAYER
 10
1.2463838153868509
 20
1.7132917768287699
 30
0.0
 11
1.2415521764603068
 21
1.677043073689124
 31
0.0
  0
LINE
  5
B9
100
AcDbEntity
100
AcDbLine
  8
color#ffffffff
 62
256
370
-1
  6
BYLAYER
 10
1.2415521764603068
 20
1.677043073689124
 30
0.0
 11
1.2344798036827538
 21
1.6411238068700227
 31
0.0
  0
LINE
  5
BA
100
AcDbEntity
100
AcDbLine
  8
color#ffffffff
 62
256
370
-1
  6
BYLAYER
 10
1.2344798036827538
 20
1.6411238068700227
 30
0.0
 11
1.2300951032558853
 21
1.6233259028891664
 31
0.0
  0
LINE
  5
BB
100
AcDbEntity
100
AcDbLine
  8
color#ffffffff
 62
256
370
-1
  6
BYLAYER
 10
1.2300951032558853
 20
1.6233259028891664
 30
0.0
 11
1.2212249202043191
 21
1.591145485490546
 31
0.0
  0
LINE
  5
BC
100
AcDbEntity
100
AcDbLine
  8
color#ffffffff
 62
256
370
-1
  6
BYLAYER
 10
1.2212249202043191
 20
1.591145485490546
 30
0.0
 11
1.2105467824517011
 21
1.5595710363499657
 31
0.0
  0
LINE
  5
BD
100
AcDbEntity
100
AcDbLine
  8
color#ffffffff
 62
256
370
-1
  6
BYLAYER
 10
1.2105467824517011
 20
1.5595710363499657
 30
0.0
 11
1.1981243514042434
 21
1.5286712083952361
 31
0.0
  0
LINE
  5
BE
100
AcDbEntity
100
AcDbLine
  8
color#ffffffff
 62
256
370
-1
  6
BYLAYER
 10
1.1981243514042434
 20
1.5286712083952361
 30
0.0
 11
1.1840212884681582
 21
1.498514654554173
 31
0.0
  0
LINE
  5
BF
100
AcDbEntity
100
AcDbLine
  8
color#ffffffff
 62
256
370
-1
  6
BYLAYER
 10
1.1840212884681582
 20
1.498514654554173
 30
0.0
 11
1.1683012550496585
 21
1.4691700277545889
 31
0.0
  0
LINE
  5
C0
100
AcDbEntity
100
AcDbLine
  8
color#ffffffff
 62
256
370
-1
  6
BYLAYER
 10
1.1683012550496585
 20
1.4691700277545889
 30
0.0
 11
1.1510279125549578
 21
1.4407059809242948
 31
0.0
  0
LINE
  5
C1
100
AcDbEntity
100
AcDbLine
  8
color#ffffffff
 62
256
370
-1
  6
BYLAYER
 10
1.1510279125549578
 20
1.4407059809242948
 30
0.0
 11
1.1223447036211183
 21
1.3998111764008669
 31
0.0
  0
LINE
  5
C2
100
AcDbEntity
100
AcDbLine
  8
color#ffffffff
 62
256
370
-1
  6
BYLAYER
 10
1.1223447036211183
 20
1.3998111764008669
 30
0.0
 11
1.0905246446757717
 21
1.3612838495272916
 31
0.0
  0
LINE
  5
C3
100
AcDbEntity
100
AcDbLine
  8
color#ffffffff
 62
256
370
-1
  6
BYLAYER
 10
1.0905246446757717
 20
1.3612838495272916
 30
0.0
 11
1.0557825929648852
 21
1.325355703934938
 31
0.0
  0
LINE
  5
C4
100
AcDbEntity
100
AcDbLine
  8
color#ffffffff
 62
256
370
-1
  6
BYLAYER
 10
1.0557825929648852
 20
1.325355703934938
 30
0.0
 11
1.0183334057344269
 21
1.2922584432551742
 31
0.0
  0
LINE
  5
C5
100
AcDbEntity
100
AcDbLine
  8
color#ffffffff
 62
256
370
-1
  6
BYLAYER
 10
1.0183334057344269
 20
1.2922584432551742
 30
0.0
 11
0.9919694190802694
 21
1.2718807381886816
 31
0.0
  0
LINE
  5
C6
100
AcDbEntity
100
AcDbLine
  8
color#ffffffff
 62
256
370
-1
  6
BYLAYER
 10
0.9919694190802694
 20
1.2718807381886816
 30
0.0
 11
0.9645614145996118
 21
1.2529328365139831
 31
0.0
  0
LINE
  5
C7
100
AcDbEntity
100
AcDbLine
  8
color#ffffffff
 62
256
370
-1
  6
BYLAYER
 10
0.9645614145996118
 20
1.2529328365139831
 30
0.0
 11
0.9504857998637866
 21
1.2440165159884988
 31
0.0
  0
LINE
  5
C8
100
AcDbEntity
100
AcDbLine
  8
color#ffffffff
 62
256
370
-1
  6
BYLAYER
 10
0.9504857998637866
 20
1.2440165159884988
 30
0.0
 11
0.9191508812430715
 21
1.2260039689774724
 31
0.0
  0
LINE
  5
C9
100
AcDbEntity
100
AcDbLine
  8
color#ffffffff
 62
256
370
-1
  6
BYLAYER
 10
0.9191508812430715
 20
1.2260039689774724
 30
0.0
 11
0.8868029042650742
 21
1.209926278276054
 31
0.0
  0
LINE
  5
CA
100
AcDbEntity
100
AcDbLine
  8
color#ffffffff
 62
256
370
-1
  6
BYLAYER
 10
0.8868029042650742
 20
1.209926278276054
 30
0.0
 11
0.8535621509173813
 21
1.1958008562557194
 31
0.0
  0
LINE
  5
CB
100
AcDbEntity
100
AcDbLine
  8
color#ffffffff
 62
256
370
-1
  6
BYLAYER
 10
0.8535621509173813
 20
1.1958008562557194
 30
0.0
 11
0.8195489031875781
 21
1.1836451152879433
 31
0.0
  0
LINE
  5
CC
100
AcDbEntity
100
AcDbLine
  8
color#ffffffff
 62
256
370
-1
  6
BYLAYER
 10
0.8195489031875781
 20
1.1836451152879433
 30
0.0
 11
0.7848834430632515
 21
1.1734764677442004
 31
0.0
  0
LINE
  5
CD
100
AcDbEntity
100
AcDbLine
  8
color#ffffffff
 62
256
370
-1
  6
BYLAYER
 10
0.7848834430632515
 20
1.1734764677442004
 30
0.0
 11
0.7496860525319881
 21
1.1653123259959655
 31
0.0
  0
LINE
  5
CE
100
AcDbEntity
100
AcDbLine
  8
color#ffffffff
 62
256
370
-1
  6
BYLAYER
 10
0.7496860525319881
 20
1.1653123259959655
 30
0.0
 11
0.7140770135813732
 21
1.1591701024147152
 31
0.0
  0
LINE
  5
CF
100
AcDbEntity
100
AcDbLine
  8
color#ffffffff
 62
256
370
-1
  6
BYLAYER
 10
0.7140770135813732
 20
1.1591701024147152
 30
0.0
 11
0.6781766081989938
 21
1.1550672093719225
 31
0.0
  0
LINE
  5
D0
100
AcDbEntity
100
AcDbLine
  8
color#ffffffff
 62
256
370
-1
  6
BYLAYER
 10
0.6781766081989938
 20
1.1550672093719225
 30
0.0
 11
0.6421051183724359
 21
1.1530210592390635
 31
0.0
  0
LINE
  5
D1
100
AcDbEntity
100
AcDbLine
  8
color#ffffffff
 62
256
370
-1
  6
BYLAYER
 10
0.6421051183724359
 20
1.1530210592390635
 30
0.0
 11
0.6059828260892862
 21
1.1530490643876123
 31
0.0
  0
LINE
  5
D2
100
AcDbEntity
100
AcDbLine
  8
color#ffffffff
 62
256
370
-1
  6
BYLAYER
 10
0.6059828260892862
 20
1.1530490643876123
 30
0.0
 11
0.5699300133371305
 21
1.1551686371890442
 31
0.0
  0
LINE
  5
D3
100
AcDbEntity
100
AcDbLine
  8
color#ffffffff
 62
256
370
-1
  6
BYLAYER
 10
0.5699300133371305
 20
1.1551686371890442
 30
0.0
 11
0.534066962103555
 21
1.1593971900148345
 31
0.0
  0
LINE
  5
D4
100
AcDbEntity
100
AcDbLine
  8
color#ffffffff
 62
256
370
-1
  6
BYLAYER
 10
0.534066962103555
 20
1.1593971900148345
 30
0.0
 11
0.4985139543761464
 21
1.1657521352364582
 31
0.0
  0
LINE
  5
D5
100
AcDbEntity
100
AcDbLine
  8
color#ffffffff
 62
256
370
-1
  6
BYLAYER
 10
0.4985139543761464
 20
1.1657521352364582
 30
0.0
 11
0.4633912721424908
 21
1.1742508852253897
 31
0.0
  0
LINE
  5
D6
100
AcDbEntity
100
AcDbLine
  8
color#ffffffff
 62
256
370
-1
  6
BYLAYER
 10
0.4633912721424908
 20
1.1742508852253897
 30
0.0
 11
0.446028891206941
 21
1.1793096283736821
 31
0.0
  0
LINE
  5
D7
100
AcDbEntity
100
AcDbLine
  8
color#ffffffff
 62
256
370
-1
  6
BYLAYER
 10
0.446028891206941
 20
1.1793096283736821
 30
0.0
 11
0.4206278988164179
 21
1.1873863128569242
 31
0.0
  0
LINE
  5
D8
100
AcDbEntity
100
AcDbLine
  8
color#ffffffff
 62
256
370
-1
  6
BYLAYER
 10
0.4206278988164179
 20
1.1873863128569242
 30
0.0
 11
0.3956722191332378
 21
1.1966202739025431
 31
0.0
  0
LINE
  5
D9
100
AcDbEntity
100
AcDbLine
  8
color#ffffffff
 62
256
370
-1
  6
BYLAYER
 10
0.3956722191332378
 20
1.1966202739025431
 30
0.0
 11
0.3711924907030313
 21
1.2069751163015736
 31
0.0
  0
LINE
  5
DA
100
AcDbEntity
100
AcDbLine
  8
color#ffffffff
 62
256
370
-1
  6
BYLAYER
 10
0.3711924907030313
 20
1.2069751163015736
 30
0.0
 11
0.347219352071429
 21
1.2184144448450569
 31
0.0
  0
LINE
  5
DB
100
AcDbEntity
100
AcDbLine
  8
color#ffffffff
 62
256
370
-1
  6
BYLAYER
 10
0.347219352071429
 20
1.2184144448450569
 30
0.0
 11
0.3237834417840613
 21
1.2309018643240262
 31
0.0
  0
LINE
  5
DC
100
AcDbEntity
100
AcDbLine
  8
color#ffffffff
 62
256
370
-1
  6
BYLAYER
 10
0.3237834417840613
 20
1.2309018643240262
 30
0.0
 11
0.3009153983865589
 21
1.2444009795295214
 31
0.0
  0
LINE
  5
DD
100
AcDbEntity
100
AcDbLine
  8
color#ffffffff
 62
256
370
-1
  6
BYLAYER
 10
0.3009153983865589
 20
1.2444009795295214
 30
0.0
 11
0.2786458604245523
 21
1.2588753952525815
 31
0.0
  0
LINE
  5
DE
100
AcDbEntity
100
AcDbLine
  8
color#ffffffff
 62
256
370
-1
  6
BYLAYER
 10
0.2786458604245523
 20
1.2588753952525815
 30
0.0
 11
0.257005466443672
 21
1.2742887162842402
 31
0.0
  0
LINE
  5
DF
100
AcDbEntity
100
AcDbLine
  8
color#ffffffff
 62
256
370
-1
  6
BYLAYER
 10
0.257005466443672
 20
1.2742887162842402
 30
0.0
 11
0.2360248549895486
 21
1.2906045474155374
 31
0.0
  0
LINE
  5
E0
100
AcDbEntity
100
AcDbLine
  8
color#ffffffff
 62
256
370
-1
  6
BYLAYER
 10
0.2360248549895486
 20
1.2906045474155374
 30
0.0
 11
0.2157346646078125
 21
1.307786493437511
 31
0.0
  0
LINE
  5
E1
100
AcDbEntity
100
AcDbLine
  8
color#ffffffff
 62
256
370
-1
  6
BYLAYER
 10
0.2157346646078125
 20
1.307786493437511
 30
0.0
 11
0.1961655338440945
 21
1.3257981591411974
 31
0.0
  0
LINE
  5
E2
100
AcDbEntity
100
AcDbLine
  8
color#ffffffff
 62
256
370
-1
  6
BYLAYER
 10
0.1961655338440945
 20
1.3257981591411974
 30
0.0
 11
0.1773481012440251
 21
1.344603149317634
 31
0.0
  0
LINE
  5
E3
100
AcDbEntity
100
AcDbLine
  8
color#ffffffff
 62
256
370
-1
  6
BYLAYER
 10
0.1773481012440251
 20
1.344603149317634
 30
0.0
 11
0.1593130053532346
 21
1.3641650687578597
 31
0.0
  0
LINE
  5
E4
100
AcDbEntity
100
AcDbLine
  8
color#ffffffff
 62
256
370
-1
  6
BYLAYER
 10
0.1593130053532346
 20
1.3641650687578597
 30
0.0
 11
0.1420908847173538
 21
1.3844475222529102
 31
0.0
  0
LINE
  5
E5
100
AcDbEntity
100
AcDbLine
  8
color#ffffffff
 62
256
370
-1
  6
BYLAYER
 10
0.1420908847173538
 20
1.3844475222529102
 30
0.0
 11
0.1257123778820132
 21
1.4054141145938246
 31
0.0
  0
LINE
  5
E6
100
AcDbEntity
100
AcDbLine
  8
color#ffffffff
 62
256
370
-1
  6
BYLAYER
 10
0.1257123778820132
 20
1.4054141145938246
 30
0.0
 11
0.1102081233928433
 21
1.4270284505716404
 31
0.0
  0
LINE
  5
E7
100
AcDbEntity
100
AcDbLine
  8
color#ffffffff
 62
256
370
-1
  6
BYLAYER
 10
0.1102081233928433
 20
1.4270284505716404
 30
0.0
 11
0.0956087597954746
 21
1.4492541349773933
 31
0.0
  0
LINE
  5
E8
100
AcDbEntity
100
AcDbLine
  8
color#ffffffff
 62
256
370
-1
  6
BYLAYER
 10
0.0956087597954746
 20
1.4492541349773933
 30
0.0
 11
0.0819449256355378
 21
1.4720547726021225
 31
0.0
  0
LINE
  5
E9
100
AcDbEntity
100
AcDbLine
  8
color#ffffffff
 62
256
370
-1
  6
BYLAYER
 10
0.0819449256355378
 20
1.4720547726021225
 30
0.0
 11
0.0692472594586633
 21
1.4953939682368649
 31
0.0
  0
LINE
  5
EA
100
AcDbEntity
100
AcDbLine
  8
color#ffffffff
 62
256
370
-1
  6
BYLAYER
 10
0.0692472594586633
 20
1.4953939682368649
 30
0.0
 11
0.0575463998104818
 21
1.5192353266726579
 31
0.0
  0
LINE
  5
EB
100
AcDbEntity
100
AcDbLine
  8
color#ffffffff
 62
256
370
-1
  6
BYLAYER
 10
0.0575463998104818
 20
1.5192353266726579
 30
0.0
 11
0.0468729852366238
 21
1.5435424527005392
 31
0.0
  0
LINE
  5
EC
100
AcDbEntity
100
AcDbLine
  8
color#ffffffff
 62
256
370
-1
  6
BYLAYER
 10
0.0468729852366238
 20
1.5435424527005392
 30
0.0
 11
0.0372576542827197
 21
1.5682789511115465
 31
0.0
  0
LINE
  5
ED
100
AcDbEntity
100
AcDbLine
  8
color#ffffffff
 62
256
370
-1
  6
BYLAYER
 10
0.0372576542827197
 20
1.5682789511115465
 30
0.0
 11
0.0287310454944002
 21
1.5934084266967166
 31
0.0
  0
LINE
  5
EE
100
AcDbEntity
100
AcDbLine
  8
color#ffffffff
 62
256
370
-1
  6
BYLAYER
 10
0.0287310454944002
 20
1.5934084266967166
 30
0.0
 11
0.0213237974172959
 21
1.6188944842470885
 31
0.0
  0
LINE
  5
EF
100
AcDbEntity
100
AcDbLine
  8
color#ffffffff
 62
256
370
-1
  6
BYLAYER
 10
0.0213237974172959
 20
1.6188944842470885
 30
0.0
 11
0.0150665485970372
 21
1.6447007285536981
 31
0.0
  0
LINE
  5
F0
100
AcDbEntity
100
AcDbLine
  8
color#ffffffff
 62
256
370
-1
  6
BYLAYER
 10
0.0150665485970372
 20
1.6447007285536981
 30
0.0
 11
0.0099899375792547
 21
1.6707907644075837
 31
0.0
  0
LINE
  5
F1
100
AcDbEntity
100
AcDbLine
  8
color#ffffffff
 62
256
370
-1
  6
BYLAYER
 10
0.0099899375792547
 20
1.6707907644075837
 30
0.0
 11
0.0061246029095789
 21
1.6971281965997826
 31
0.0
  0
LINE
  5
F2
100
AcDbEntity
100
AcDbLine
  8
color#ffffffff
 62
256
370
-1
  6
BYLAYER
 10
0.0061246029095789
 20
1.6971281965997826
 30
0.0
 11
0.0035011831336405
 21
1.7236766299213326
 31
0.0
  0
LINE
  5
F3
100
AcDbEntity
100
AcDbLine
  8
color#ffffffff
 62
256
370
-1
  6
BYLAYER
 10
0.0035011831336405
 20
1.7236766299213326
 30
0.0
 11
0.0021503167970699
 21
1.7503996691632711
 31
0.0
  0
LINE
  5
F4
100
AcDbEntity
100
AcDbLine
  8
color#ffffffff
 62
256
370
-1
  6
BYLAYER
 10
0.0021503167970699
 20
1.7503996691632711
 30
0.0
 11
0.0013884102692735
 21
1.7710213542693627
 31
0.0
  0
LINE
  5
F5
100
AcDbEntity
100
AcDbLine
  8
color#ffffffff
 62
256
370
-1
  6
BYLAYER
 10
0.0013884102692735
 20
1.7710213542693627
 30
0.0
 11
0.0013710459807264
 21
1.791623473912294
 31
0.0
  0
LINE
  5
F6
100
AcDbEntity
100
AcDbLine
  8
color#ffffffff
 62
256
370
-1
  6
BYLAYER
 10
0.0013710459807264
 20
1.791623473912294
 30
0.0
 11
0.002087971281904
 21
1.8121864818481948
 31
0.0
  0
LINE
  5
F7
100
AcDbEntity
100
AcDbLine
  8
color#ffffffff
 62
256
370
-1
  6
BYLAYER
 10
0.002087971281904
 20
1.8121864818481948
 30
0.0
 11
0.0035289335232818
 21
1.8326908318331949
 31
0.0
  0
LINE
  5
F8
100
AcDbEntity
100
AcDbLine
  8
color#ffffffff
 62
256
370
-1
  6
BYLAYER
 10
0.0035289335232818
 20
1.8326908318331949
 30
0.0
 11
0.0056836800553353
 21
1.8531169776234246
 31
0.0
  0
LINE
  5
F9
100
AcDbEntity
100
AcDbLine
  8
color#ffffffff
 62
256
370
-1
  6
BYLAYER
 10
0.0056836800553353
 20
1.8531169776234246
 30
0.0
 11
0.0085419582285399
 21
1.873445372975014
 31
0.0
  0
LINE
  5
FA
100
AcDbEntity
100
AcDbLine
  8
color#ffffffff
 62
256
370
-1
  6
BYLAYER
 10
0.0085419582285399
 20
1.873445372975014
 30
0.0
 11
0.0120935153933712
 21
1.8936564716440942
 31
0.0
  0
LINE
  5
FB
100
AcDbEntity
100
AcDbLine
  8
color#ffffffff
 62
256
370
-1
  6
BYLAYER
 10
0.0120935153933712
 20
1.8936564716440942
 30
0.0
 11
0.0163280989003046
 21
1.9137307273867943
 31
0.0
  0
LINE
  5
FC
100
AcDbEntity
100
AcDbLine
  8
color#ffffffff
 62
256
370
-1
  6
BYLAYER
 10
0.0163280989003046
 20
1.9137307273867943
 30
0.0
 11
0.0212354560998155
 21
1.9336485939592447
 31
0.0
  0
LINE
  5
FD
100
AcDbEntity
100
AcDbLine
  8
color#ffffffff
 62
256
370
-1
  6
BYLAYER
 10
0.0212354560998155
 20
1.9336485939592447
 30
0.0
 11
0.0268053343423795
 21
1.9533905251175767
 31
0.0
  0
LINE
  5
FE
100
AcDbEntity
100
AcDbLine
  8
color#ffffffff
 62
256
370
-1
  6
BYLAYER
 10
0.0268053343423795
 20
1.9533905251175767
 30
0.0
 11
0.033027480978472
 21
1.9729369746179186
 31
0.0
  0
LINE
  5
FF
100
AcDbEntity
100
AcDbLine
  8
color#ffffffff
 62
256
370
-1
  6
BYLAYER
 10
0.033027480978472
 20
1.9729369746179186
 30
0.0
 11
0.0398916433585685
 21
1.9922683962164021
 31
0.0
  0
LINE
  5
100
100
AcDbEntity
100
AcDbLine
  8
color#ffffffff
 62
256
370
-1
  6
BYLAYER
 10
0.0398916433585685
 20
1.9922683962164021
 30
0.0
 11
0.0473875688331445
 21
2.0113652436691569
 31
0.0
  0
LINE
  5
101
100
AcDbEntity
100
AcDbLine
  8
color#ffffffff
 62
256
370
-1
  6
BYLAYER
 10
0.0473875688331445
 20
2.0113652436691569
 30
0.0
 11
0.0555050047526754
 21
2.0302079707323131
 31
0.0
  0
LINE
  5
102
100
AcDbEntity
100
AcDbLine
  8
color#ffffffff
 62
256
370
-1
  6
BYLAYER
 10
0.0555050047526754
 20
2.0302079707323131
 30
0.0
 11
0.0642336984676368
 21
2.0487770311620013
 31
0.0
  0
LINE
  5
103
100
AcDbEntity
100
AcDbLine
  8
color#ffffffff
 62
256
370
-1
  6
BYLAYER
 10
0.0642336984676368
 20
2.0487770311620013
 30
0.0
 11
0.0735633973285039
 21
2.0670528787143514
 31
0.0
  0
LINE
  5
104
100
AcDbEntity
100
AcDbLine
  8
color#ffffffff
 62
256
370
-1
  6
BYLAYER
 10
0.0735633973285039
 20
2.0670528787143514
 30
0.0
 11
0.0834838486857525
 21
2.0850159671454929
 31
0.0
  0
LINE
  5
105
100
AcDbEntity
100
AcDbLine
  8
color#ffffffff
 62
256
370
-1
  6
BYLAYER
 10
0.0834838486857525
 20
2.0850159671454929
 30
0.0
 11
0.093984799889858
 21
2.1026467502115573
 31
0.0
  0
LINE
  5
106
100
AcDbEntity
100
AcDbLine
  8
color#ffffffff
 62
256
370
-1
  6
BYLAYER
 10
0.093984799889858
 20
2.1026467502115573
 30
0.0
 11
0.1050559982912957
 21
2.1199256816686738
 31
0.0
  0
LINE
  5
107
100
AcDbEntity
100
AcDbLine
  8
color#ffffffff
 62
256
370
-1
  6
BYLAYER
 10
0.1050559982912957
 20
2.1199256816686738
 30
0.0
 11
0.1166871912405413
 21
2.136833215272973
 31
0.0
  0
LINE
  5
108
100
AcDbEntity
100
AcDbLine
  8
color#ffffffff
 62
256
370
-1
  6
BYLAYER
 10
0.1166871912405413
 20
2.136833215272973
 30
0.0
 11
0.1288681260880701
 21
2.1533498047805848
 31
0.0
  0
LINE
  5
109
100
AcDbEntity
100
AcDbLine
  8
color#ffffffff
 62
256
370
-1
  6
BYLAYER
 10
0.1288681260880701
 20
2.1533498047805848
 30
0.0
 11
0.1415885501843576
 21
2.16945590394764
 31
0.0
  0
LINE
  5
10A
100
AcDbEntity
100
AcDbLine
  8
color#ffffffff
 62
256
370
-1
  6
BYLAYER
 10
0.1415885501843576
 20
2.16945590394764
 30
0.0
 11
0.1548382108798793
 21
2.1851319665302684
 31
0.0
  0
LINE
  5
10B
100
AcDbEntity
100
AcDbLine
  8
color#ffffffff
 62
256
370
-1
  6
BYLAYER
 10
0.1548382108798793
 20
2.1851319665302684
 30
0.0
 11
0.1686068555251107
 21
2.2003584462846
 31
0.0
  0
LINE
  5
10C
100
AcDbEntity
100
AcDbLine
  8
color#ffffffff
 62
256
370
-1
  6
BYLAYER
 10
0.1686068555251107
 20
2.2003584462846
 30
0.0
 11
0.1828842314705273
 21
2.2151157969667654
 31
0.0
  0
LINE
  5
10D
100
AcDbEntity
100
AcDbLine
  8
color#ffffffff
 62
256
370
-1
  6
BYLAYER
 10
0.1828842314705273
 20
2.2151157969667654
 30
0.0
 11
0.1976600860666045
 21
2.2293844723328942
 31
0.0
  0
LINE
  5
10E
100
AcDbEntity
100
AcDbLine
  8
color#ffffffff
 62
256
370
-1
  6
BYLAYER
 10
0.1976600860666045
 20
2.2293844723328942
 30
0.0
 11
0.2129241666638178
 21
2.2431449261391174
 31
0.0
  0
LINE
  5
10F
100
AcDbEntity
100
AcDbLine
  8
color#ffffffff
 62
256
370
-1
  6
BYLAYER
 10
0.2129241666638178
 20
2.2431449261391174
 30
0.0
 11
0.2286662206126427
 21
2.2563776121415646
 31
0.0
  0
LINE
  5
110
100
AcDbEntity
100
AcDbLine
  8
color#ffffffff
 62
256
370
-1
  6
BYLAYER
 10
0.2286662206126427
 20
2.2563776121415646
 30
0.0
 11
0.2448759952635546
 21
2.2690629840963665
 31
0.0
  0
LINE
  5
111
100
AcDbEntity
100
AcDbLine
  8
color#ffffffff
 62
256
370
-1
  6
BYLAYER
 10
1.1223179843550293
 20
2.337946457892377
 30
0.0
 11
1.1537190495453471
 21
2.3526306518829139
 31
0.0
  0
LINE
  5
112
100
AcDbEntity
100
AcDbLine
  8
color#ffffffff
 62
256
370
-1
  6
BYLAYER
 10
1.1537190495453471
 20
2.3526306518829139
 30
0.0
 11
1.1859098812542008
 21
2.3653748670057899
 31
0.0
  0
LINE
  5
113
100
AcDbEntity
100
AcDbLine
  8
color#ffffffff
 62
256
370
-1
  6
BYLAYER
 10
1.1859098812542008
 20
2.3653748670057899
 30
0.0
 11
1.2187803489721947
 21
2.3761836986505043
 31
0.0
  0
LINE
  5
114
100
AcDbEntity
100
AcDbLine
  8
color#ffffffff
 62
256
370
-1
  6
BYLAYER
 10
1.2187803489721947
 20
2.3761836986505043
 30
0.0
 11
1.2522203221899315
 21
2.3850617422065565
 31
0.0
  0
LINE
  5
115
100
AcDbEntity
100
AcDbLine
  8
color#ffffffff
 62
256
370
-1
  6
BYLAYER
 10
1.2522203221899315
 20
2.3850617422065565
 30
0.0
 11
1.2861196703980156
 21
2.3920135930634436
 31
0.0
  0
LINE
  5
116
100
AcDbEntity
100
AcDbLine
  8
color#ffffffff
 62
256
370
-1
  6
BYLAYER
 10
1.2861196703980156
 20
2.3920135930634436
 30
0.0
 11
1.3203682630870508
 21
2.3970438466106652
 31
0.0
  0
LINE
  5
117
100
AcDbEntity
100
AcDbLine
  8
color#ffffffff
 62
256
370
-1
  6
BYLAYER
 10
1.3203682630870508
 20
2.3970438466106652
 30
0.0
 11
1.3548559697476403
 21
2.4001570982377198
 31
0.0
  0
LINE
  5
118
100
AcDbEntity
100
AcDbLine
  8
color#ffffffff
 62
256
370
-1
  6
BYLAYER
 10
1.3548559697476403
 20
2.4001570982377198
 30
0.0
 11
1.3894726598703886
 21
2.4013579433341059
 31
0.0
  0
LINE
  5
119
100
AcDbEntity
100
AcDbLine
  8
color#ffffffff
 62
256
370
-1
  6
BYLAYER
 10
1.3894726598703886
 20
2.4013579433341059
 30
0.0
 11
1.4241082029458991
 21
2.4006509772893225
 31
0.0
  0
LINE
  5
11A
100
AcDbEntity
100
AcDbLine
  8
color#ffffffff
 62
256
370
-1
  6
BYLAYER
 10
1.4241082029458991
 20
2.4006509772893225
 30
0.0
 11
1.458652468464775
 21
2.3980407954928689
 31
0.0
  0
LINE
  5
11B
100
AcDbEntity
100
AcDbLine
  8
color#ffffffff
 62
256
370
-1
  6
BYLAYER
 10
1.458652468464775
 20
2.3980407954928689
 30
0.0
 11
1.4929953259176212
 21
2.3935319933342423
 31
0.0
  0
LINE
  5
11C
100
AcDbEntity
100
AcDbLine
  8
color#ffffffff
 62
256
370
-1
  6
BYLAYER
 10
1.4929953259176212
 20
2.3935319933342423
 30
0.0
 11
1.5270266447950402
 21
2.3871291662029424
 31
0.0
  0
LINE
  5
11D
100
AcDbEntity
100
AcDbLine
  8
color#ffffffff
 62
256
370
-1
  6
BYLAYER
 10
1.5270266447950402
 20
2.3871291662029424
 30
0.0
 11
1.5606362945876364
 21
2.3788369094884678
 31
0.0
  0
LINE
  5
11E
100
AcDbEntity
100
AcDbLine
  8
color#ffffffff
 62
256
370
-1
  6
BYLAYER
 10
1.5606362945876364
 20
2.3788369094884678
 30
0.0
 11
1.5937141447860137
 21
2.3686598185803174
 31
0.0
  0
LINE
  5
11F
100
AcDbEntity
100
AcDbLine
  8
color#ffffffff
 62
256
370
-1
  6
BYLAYER
 10
1.5937141447860137
 20
2.3686598185803174
 30
0.0
 11
1.6100192292531836
 21
2.3628658963628317
 31
0.0
  0
LINE
  5
120
100
AcDbEntity
100
AcDbLine
  8
color#ffffffff
 62
256
370
-1
  6
BYLAYER
 10
1.6100192292531836
 20
2.3628658963628317
 30
0.0
 11
1.760089300772768
 21
2.2829028800463362
 31
0.0
  0
LINE
  5
121
100
AcDbEntity
100
AcDbLine
  8
color#ffffffff
 62
256
370
-1
  6
BYLAYER
 10
1.760089300772768
 20
2.2829028800463362
 30
0.0
 11
1.6503217345125234
 21
2.172872729373089
 31
0.0
  0
LINE
  5
122
100
AcDbEntity
100
AcDbLine
  8
color#ffffffff
 62
256
370
-1
  6
BYLAYER
 10
1.6503217345125234
 20
2.172872729373089
 30
0.0
 11
1.5009898941081192
 21
2.2275572255038907
 31
0.0
  0
LINE
  5
123
100
AcDbEntity
100
AcDbLine
  8
color#ffffffff
 62
256
370
-1
  6
BYLAYER
 10
1.5009898941081192
 20
2.2275572255038907
 30
0.0
 11
1.4341321067614903
 21
2.2392683862174128
 31
0.0
  0
LINE
  5
124
100
AcDbEntity
100
AcDbLine
  8
color#ffffffff
 62
256
370
-1
  6
BYLAYER
 10
1.4341321067614903
 20
2.2392683862174128
 30
0.0
 11
1.3889789773037795
 21
2.2412075829900413
 31
0.0
  0
LINE
  5
125
100
AcDbEntity
100
AcDbLine
  8
color#ffffffff
 62
256
370
-1
  6
BYLAYER
 10
1.3889789773037795
 20
2.2412075829900413
 30
0.0
 11
1.3549146188872507
 21
2.2390238080350331
 31
0.0
  0
LINE
  5
126
100
AcDbEntity
100
AcDbLine
  8
color#ffffffff
 62
256
370
-1
  6
BYLAYER
 10
1.3549146188872507
 20
2.2390238080350331
 30
0.0
 11
1.3321448728892127
 21
2.2356517549785204
 31
0.0
  0
LINE
  5
127
100
AcDbEntity
100
AcDbLine
  8
color#ffffffff
 62
256
370
-1
  6
BYLAYER
 10
1.3321448728892127
 20
2.2356517549785204
 30
0.0
 11
1.313785739075283
 21
2.2330319147887354
 31
0.0
  0
LINE
  5
128
100
AcDbEntity
100
AcDbLine
  8
color#ffffffff
 62
256
370
-1
  6
BYLAYER
 10
1.313785739075283
 20
2.2330319147887354
 30
0.0
 11
1.2955919692208016
 21
2.2296101442372507
 31
0.0
  0
LINE
  5
129
100
AcDbEntity
100
AcDbLine
  8
color#ffffffff
 62
256
370
-1
  6
BYLAYER
 10
1.2955919692208016
 20
2.2296101442372507
 30
0.0
 11
1.2775861626611369
 21
2.2254056447794262
 31
0.0
  0
LINE
  5
12A
100
AcDbEntity
100
AcDbLine
  8
color#ffffffff
 62
256
370
-1
  6
BYLAYER
 10
1.2775861626611369
 20
2.2254056447794262
 30
0.0
 11
1.2597909187316563
 21
2.2204376178706244
 31
0.0
  0
LINE
  5
12B
100
AcDbEntity
100
AcDbLine
  8
color#ffffffff
 62
256
370
-1
  6
BYLAYER
 10
1.2597909187316563
 20
2.2204376178706244
 30
0.0
 11
1.2422288367677286
 21
2.214725264966205
 31
0.0
  0
LINE
  5
12C
100
AcDbEntity
100
AcDbLine
  8
color#ffffffff
 62
256
370
-1
  6
BYLAYER
 10
1.2422288367677286
 20
2.214725264966205
 30
0.0
 11
1.2249225161047212
 21
2.208287787521531
 31
0.0
  0
LINE
  5
12D
100
AcDbEntity
100
AcDbLine
  8
color#ffffffff
 62
256
370
-1
  6
BYLAYER
 10
1.2249225161047212
 20
2.208287787521531
 30
0.0
 11
1.2078945560780021
 21
2.2011443869919636
 31
0.0
  0
LINE
  5
12E
100
AcDbEntity
100
AcDbLine
  8
color#ffffffff
 62
256
370
-1
  6
BYLAYER
 10
1.2078945560780021
 20
2.2011443869919636
 30
0.0
 11
1.19116755602294
 21
2.1933142648328623
 31
0.0
  0
LINE
  5
12F
100
AcDbEntity
100
AcDbLine
  8
color#ffffffff
 62
256
370
-1
  6
BYLAYER
 10
1.19116755602294
 20
2.1933142648328623
 30
0.0
 11
1.1747641152749029
 21
2.1848166224995911
 31
0.0
  0
LINE
  5
130
100
AcDbEntity
100
AcDbLine
  8
color#ffffffff
 62
256
370
-1
  6
BYLAYER
 10
1.1747641152749029
 20
2.1848166224995911
 30
0.0
 11
1.1587068331692572
 21
2.1756706614475094
 31
0.0
  0
LINE
  5
131
100
AcDbEntity
100
AcDbLine
  8
color#ffffffff
 62
256
370
-1
  6
BYLAYER
 10
1.1587068331692572
 20
2.1756706614475094
 30
0.0
 11
1.1430183090413728
 21
2.1658955831319795
 31
0.0
  0
LINE
  5
132
100
AcDbEntity
100
AcDbLine
  8
color#ffffffff
 62
256
370
-1
  6
BYLAYER
 10
1.1430183090413728
 20
2.1658955831319795
 30
0.0
 11
1.1277211422266171
 21
2.1555105890083621
 31
0.0
  0
LINE
  5
133
100
AcDbEntity
100
AcDbLine
  8
color#ffffffff
 62
256
370
-1
  6
BYLAYER
 10
1.1277211422266171
 20
2.1555105890083621
 30
0.0
 11
1.1128379320603576
 21
2.144534880532019
 31
0.0
  0
LINE
  5
134
100
AcDbEntity
100
AcDbLine
  8
color#ffffffff
 62
256
370
-1
  6
BYLAYER
 10
1.1128379320603576
 20
2.144534880532019
 30
0.0
 11
1.098391277877963
 21
2.1329876591583119
 31
0.0
  0
LINE
  5
135
100
AcDbEntity
100
AcDbLine
  8
color#ffffffff
 62
256
370
-1
  6
BYLAYER
 10
1.098391277877963
 20
2.1329876591583119
 30
0.0
 11
1.0844037790148009
 21
2.1208881263426012
 31
0.0
  0
LINE
  5
136
100
AcDbEntity
100
AcDbLine
  8
color#ffffffff
 62
256
370
-1
  6
BYLAYER
 10
1.0844037790148009
 20
2.1208881263426012
 30
0.0
 11
1.0708980348062398
 21
2.1082554835402494
 31
0.0
  0
LINE
  5
137
100
AcDbEntity
100
AcDbLine
  8
color#ffffffff
 62
256
370
-1
  6
BYLAYER
 10
1.0708980348062398
 20
2.1082554835402494
 30
0.0
 11
1.057896644587647
 21
2.0951089322066161
 31
0.0
  0
LINE
  5
138
100
AcDbEntity
100
AcDbLine
  8
color#ffffffff
 62
256
370
-1
  6
BYLAYER
 10
1.057896644587647
 20
2.0951089322066161
 30
0.0
 11
1.0454222076943909
 21
2.0814676737970643
 31
0.0
  0
LINE
  5
139
100
AcDbEntity
100
AcDbLine
  8
color#ffffffff
 62
256
370
-1
  6
BYLAYER
 10
1.0454222076943909
 20
2.0814676737970643
 30
0.0
 11
1.0334973234618396
 21
2.0673509097669549
 31
0.0
  0
LINE
  5
13A
100
AcDbEntity
100
AcDbLine
  8
color#ffffffff
 62
256
370
-1
  6
BYLAYER
 10
1.0334973234618396
 20
2.0673509097669549
 30
0.0
 11
1.0221445912253611
 21
2.0527778415716487
 31
0.0
  0
LINE
  5
13B
100
AcDbEntity
100
AcDbLine
  8
color#ffffffff
 62
256
370
-1
  6
BYLAYER
 10
1.0221445912253611
 20
2.0527778415716487
 30
0.0
 11
1.0113866103203233
 21
2.0377676706665078
 31
0.0
  0
LINE
  5
13C
100
AcDbEntity
100
AcDbLine
  8
color#ffffffff
 62
256
370
-1
  6
BYLAYER
 10
1.0113866103203233
 20
2.0377676706665078
 30
0.0
 11
1.0012459800820941
 21
2.022339598506893
 31
0.0
  0
LINE
  5
13D
100
AcDbEntity
100
AcDbLine
  8
color#ffffffff
 62
256
370
-1
  6
BYLAYER
 10
1.0012459800820941
 20
2.022339598506893
 30
0.0
 11
0.9917452998460418
 21
2.0065128265481658
 31
0.0
  0
LINE
  5
13E
100
AcDbEntity
100
AcDbLine
  8
color#ffffffff
 62
256
370
-1
  6
BYLAYER
 10
0.9917452998460418
 20
2.0065128265481658
 30
0.0
 11
0.9829071689475342
 21
1.9903065562456876
 31
0.0
  0
LINE
  5
13F
100
AcDbEntity
100
AcDbLine
  8
color#ffffffff
 62
256
370
-1
  6
BYLAYER
 10
0.9829071689475342
 20
1.9903065562456876
 30
0.0
 11
0.9747541867219393
 21
1.9737399890548195
 31
0.0
  0
LINE
  5
140
100
AcDbEntity
100
AcDbLine
  8
color#ffffffff
 62
256
370
-1
  6
BYLAYER
 10
0.9747541867219393
 20
1.9737399890548195
 30
0.0
 11
0.9673089525046255
 21
1.9568323264309235
 31
0.0
  0
LINE
  5
141
100
AcDbEntity
100
AcDbLine
  8
color#ffffffff
 62
256
370
-1
  6
BYLAYER
 10
0.9673089525046255
 20
1.9568323264309235
 30
0.0
 11
0.9605940656309601
 21
1.9396027698293605
 31
0.0
  0
LINE
  5
142
100
AcDbEntity
100
AcDbLine
  8
color#ffffffff
 62
256
370
-1
  6
BYLAYER
 10
0.9605940656309601
 20
1.9396027698293605
 30
0.0
 11
0.9546321254363117
 21
1.9220705207054916
 31
0.0
  0
LINE
  5
143
100
AcDbEntity
100
AcDbLine
  8
color#ffffffff
 62
256
370
-1
  6
BYLAYER
 10
0.9546321254363117
 20
1.9220705207054916
 30
0.0
 11
0.949445731256048
 21
1.9042547805146788
 31
0.0
  0
LINE
  5
144
100
AcDbEntity
100
AcDbLine
  8
color#ffffffff
 62
256
370
-1
  6
BYLAYER
 10
0.949445731256048
 20
1.9042547805146788
 30
0.0
 11
0.9398083819788705
 21
1.8660767789021264
 31
0.0
  0
LINE
  5
145
100
AcDbEntity
100
AcDbLine
  8
color#ffffffff
 62
256
370
-1
  6
BYLAYER
 10
0.9398083819788705
 20
1.8660767789021264
 30
0.0
 11
0.9336932387741894
 21
1.8273159053327817
 31
0.0
  0
LINE
  5
146
100
AcDbEntity
100
AcDbLine
  8
color#ffffffff
 62
256
370
-1
  6
BYLAYER
 10
0.9336932387741894
 20
1.8273159053327817
 30
0.0
 11
0.931018492234824
 21
1.7882252027345491
 31
0.0
  0
LINE
  5
147
100
AcDbEntity
100
AcDbLine
  8
color#ffffffff
 62
256
370
-1
  6
BYLAYER
 10
0.931018492234824
 20
1.7882252027345491
 30
0.0
 11
0.9317023329535936
 21
1.7490577140353365
 31
0.0
  0
LINE
  5
148
100
AcDbEntity
100
AcDbLine
  8
color#ffffffff
 62
256
370
-1
  6
BYLAYER
 10
0.9317023329535936
 20
1.7490577140353365
 30
0.0
 11
0.9356629515233169
 21
1.7100664821630478
 31
0.0
  0
LINE
  5
149
100
AcDbEntity
100
AcDbLine
  8
color#ffffffff
 62
256
370
-1
  6
BYLAYER
 10
0.9356629515233169
 20
1.7100664821630478
 30
0.0
 11
0.9458995872979465
 21
1.658789708433321
 31
0.0
  0
LINE
  5
14A
100
AcDbEntity
100
AcDbLine
  8
color#ffffffff
 62
256
370
-1
  6
BYLAYER
 10
0.9458995872979465
 20
1.658789708433321
 30
0.0
 11
0.9616222483778181
 21
1.6088759397264769
 31
0.0
  0
LINE
  5
14B
100
AcDbEntity
100
AcDbLine
  8
color#ffffffff
 62
256
370
-1
  6
BYLAYER
 10
0.9616222483778181
 20
1.6088759397264769
 30
0.0
 11
0.9826370161681327
 21
1.5609249815012558
 31
0.0
  0
LINE
  5
14C
100
AcDbEntity
100
AcDbLine
  8
color#ffffffff
 62
256
370
-1
  6
BYLAYER
 10
0.9826370161681327
 20
1.5609249815012558
 30
0.0
 11
0.9950683405188313
 21
1.5378729955251096
 31
0.0
  0
LINE
  5
14D
100
AcDbEntity
100
AcDbLine
  8
color#ffffffff
 62
256
370
-1
  6
BYLAYER
 10
0.9950683405188313
 20
1.5378729955251096
 30
0.0
 11
0.8823724369544678
 21
1.4190652543350244
 31
0.0
  0
LINE
  5
14E
100
AcDbEntity
100
AcDbLine
  8
color#ffffffff
 62
256
370
-1
  6
BYLAYER
 10
0.8823724369544678
 20
1.4190652543350244
 30
0.0
 11
0.8631813104182452
 21
1.4484385959089185
 31
0.0
  0
LINE
  5
14F
100
AcDbEntity
100
AcDbLine
  8
color#ffffffff
 62
256
370
-1
  6
BYLAYER
 10
0.8631813104182452
 20
1.4484385959089185
 30
0.0
 11
0.8457097727047472
 21
1.478835584527423
 31
0.0
  0
LINE
  5
150
100
AcDbEntity
100
AcDbLine
  8
color#ffffffff
 62
256
370
-1
  6
BYLAYER
 10
0.8457097727047472
 20
1.478835584527423
 30
0.0
 11
0.829984186775363
 21
1.5101538359567921
 31
0.0
  0
LINE
  5
151
100
AcDbEntity
100
AcDbLine
  8
color#ffffffff
 62
256
370
-1
  6
BYLAYER
 10
0.829984186775363
 20
1.5101538359567921
 30
0.0
 11
0.8160309155914794
 21
1.5422909659632786
 31
0.0
  0
LINE
  5
152
100
AcDbEntity
100
AcDbLine
  8
color#ffffffff
 62
256
370
-1
  6
BYLAYER
 10
0.8160309155914794
 20
1.5422909659632786
 30
0.0
 11
0.8038763221144848
 21
1.5751445903131374
 31
0.0
  0
LINE
  5
153
100
AcDbEntity
100
AcDbLine
  8
color#ffffffff
 62
256
370
-1
  6
BYLAYER
 10
0.8038763221144848
 20
1.5751445903131374
 30
0.0
 11
0.7935467693057673
 21
1.6086123247726196
 31
0.0
  0
LINE
  5
154
100
AcDbEntity
100
AcDbLine
  8
color#ffffffff
 62
256
370
-1
  6
BYLAYER
 10
0.7935467693057673
 20
1.6086123247726196
 30
0.0
 11
0.7850686201267147
 21
1.6425917851079817
 31
0.0
  0
LINE
  5
155
100
AcDbEntity
100
AcDbLine
  8
color#ffffffff
 62
256
370
-1
  6
BYLAYER
 10
0.7850686201267147
 20
1.6425917851079817
 30
0.0
 11
0.778468237538715
 21
1.6769805870854748
 31
0.0
  0
LINE
  5
156
100
AcDbEntity
100
AcDbLine
  8
color#ffffffff
 62
256
370
-1
  6
BYLAYER
 10
0.778468237538715
 20
1.6769805870854748
 30
0.0
 11
0.7737719845031561
 21
1.7116763464713545
 31
0.0
  0
LINE
  5
157
100
AcDbEntity
100
AcDbLine
  8
color#ffffffff
 62
256
370
-1
  6
BYLAYER
 10
0.7737719845031561
 20
1.7116763464713545
 30
0.0
 11
0.7710062239814265
 21
1.7465766790318722
 31
0.0
  0
LINE
  5
158
100
AcDbEntity
100
AcDbLine
  8
color#ffffffff
 62
256
370
-1
  6
BYLAYER
 10
0.7710062239814265
 20
1.7465766790318722
 30
0.0
 11
0.7701973189349136
 21
1.7815792005332831
 31
0.0
  0
LINE
  5
159
100
AcDbEntity
100
AcDbLine
  8
color#ffffffff
 62
256
370
-1
  6
BYLAYER
 10
0.7701973189349136
 20
1.7815792005332831
 30
0.0
 11
0.7713716323250056
 21
1.8165815267418399
 31
0.0
  0
LINE
  5
15A
100
AcDbEntity
100
AcDbLine
  8
color#ffffffff
 62
256
370
-1
  6
BYLAYER
 10
0.7713716323250056
 20
1.8165815267418399
 30
0.0
 11
0.7745555271130905
 21
1.8514812734237975
 31
0.0
  0
LINE
  5
15B
100
AcDbEntity
100
AcDbLine
  8
color#ffffffff
 62
256
370
-1
  6
BYLAYER
 10
0.7745555271130905
 20
1.8514812734237975
 30
0.0
 11
0.7797753662605561
 21
1.8861760563454075
 31
0.0
  0
LINE
  5
15C
100
AcDbEntity
100
AcDbLine
  8
color#ffffffff
 62
256
370
-1
  6
BYLAYER
 10
0.7797753662605561
 20
1.8861760563454075
 30
0.0
 11
0.7831570033944906
 21
1.9034145913230371
 31
0.0
  0
LINE
  5
15D
100
AcDbEntity
100
AcDbLine
  8
color#ffffffff
 62
256
370
-1
  6
BYLAYER
 10
0.7831570033944906
 20
1.9034145913230371
 30
0.0
 11
0.7873484022682937
 21
1.9226880456966415
 31
0.0
  0
LINE
  5
15E
100
AcDbEntity
100
AcDbLine
  8
color#ffffffff
 62
256
370
-1
  6
BYLAYER
 10
0.7873484022682937
 20
1.9226880456966415
 30
0.0
 11
0.7921901023895064
 21
1.941787817647364
 31
0.0
  0
LINE
  5
15F
100
AcDbEntity
100
AcDbLine
  8
color#ffffffff
 62
256
370
-1
  6
BYLAYER
 10
0.7921901023895064
 20
1.941787817647364
 30
0.0
 11
0.7976694020906887
 21
1.9606991608023034
 31
0.0
  0
LINE
  5
160
100
AcDbEntity
100
AcDbLine
  8
color#ffffffff
 62
256
370
-1
  6
BYLAYER
 10
0.7976694020906887
 20
1.9606991608023034
 30
0.0
 11
0.8037735997043991
 21
1.9794073287885621
 31
0.0
  0
LINE
  5
161
100
AcDbEntity
100
AcDbLine
  8
color#ffffffff
 62
256
370
-1
  6
BYLAYER
 10
0.8037735997043991
 20
1.9794073287885621
 30
0.0
 11
0.8104899935631981
 21
1.9978975752332389
 31
0.0
  0
LINE
  5
162
100
AcDbEntity
100
AcDbLine
  8
color#ffffffff
 62
256
370
-1
  6
BYLAYER
 10
0.8104899935631981
 20
1.9978975752332389
 30
0.0
 11
0.8178058819996441
 21
2.0161551537634348
 31
0.0
  0
LINE
  5
163
100
AcDbEntity
100
AcDbLine
  8
color#ffffffff
 62
256
370
-1
  6
BYLAYER
 10
0.8178058819996441
 20
2.0161551537634348
 30
0.0
 11
0.8257085633462963
 21
2.0341653180062513
 31
0.0
  0
LINE
  5
164
100
AcDbEntity
100
AcDbLine
  8
color#ffffffff
 62
256
370
-1
  6
BYLAYER
 10
0.8257085633462963
 20
2.0341653180062513
 30
0.0
 11
0.8341853359357151
 21
2.051913321588787
 31
0.0
  0
LINE
  5
165
100
AcDbEntity
100
AcDbLine
  8
color#ffffffff
 62
256
370
-1
  6
BYLAYER
 10
0.8341853359357151
 20
2.051913321588787
 30
0.0
 11
0.8432234981004589
 21
2.069384418138144
 31
0.0
  0
LINE
  5
166
100
AcDbEntity
100
AcDbLine
  8
color#ffffffff
 62
256
370
-1
  6
BYLAYER
 10
0.8432234981004589
 20
2.069384418138144
 30
0.0
 11
0.8629331844861595
 21
2.1034369046457222
 31
0.0
  0
LINE
  5
167
100
AcDbEntity
100
AcDbLine
  8
color#ffffffff
 62
256
370
-1
  6
BYLAYER
 10
0.8629331844861595
 20
2.1034369046457222
 30
0.0
 11
0.8847360091638735
 21
2.136204806545789
 31
0.0
  0
LINE
  5
168
100
AcDbEntity
100
AcDbLine
  8
color#ffffffff
 62
256
370
-1
  6
BYLAYER
 10
0.8847360091638735
 20
2.136204806545789
 30
0.0
 11
0.9085303587940756
 21
2.1675701528551481
 31
0.0
  0
LINE
  5
169
100
AcDbEntity
100
AcDbLine
  8
color#ffffffff
 62
256
370
-1
  6
BYLAYER
 10
0.9085303587940756
 20
2.1675701528551481
 30
0.0
 11
0.9342146200372403
 21
2.1974149725906034
 31
0.0
  0
LINE
  5
16A
100
AcDbEntity
100
AcDbLine
  8
color#ffffffff
 62
256
370
-1
  6
BYLAYER
 10
0.9342146200372403
 20
2.1974149725906034
 30
0.0
 11
0.9616871795538423
 21
2.2256212947689593
 31
0.0
  0
LINE
  5
16B
100
AcDbEntity
100
AcDbLine
  8
color#ffffffff
 62
256
370
-1
  6
BYLAYER
 10
0.9616871795538423
 20
2.2256212947689593
 30
0.0
 11
0.9908464240043566
 21
2.2520711484070195
 31
0.0
  0
LINE
  5
16C
100
AcDbEntity
100
AcDbLine
  8
color#ffffffff
 62
256
370
-1
  6
BYLAYER
 10
0.9908464240043566
 20
2.2520711484070195
 30
0.0
 11
1.0215907400492579
 21
2.276646562521587
 31
0.0
  0
LINE
  5
16D
100
AcDbEntity
100
AcDbLine
  8
color#ffffffff
 62
256
370
-1
  6
BYLAYER
 10
1.0215907400492579
 20
2.276646562521587
 30
0.0
 11
1.0375255457510018
 21
2.288194488825313
 31
0.0
  0
LINE
  5
16E
100
AcDbEntity
100
AcDbLine
  8
color#ffffffff
 62
256
370
-1
  6
BYLAYER
 10
1.0375255457510018
 20
2.288194488825313
 30
0.0
 11
1.0538185143490204
 21
2.2992295661294668
 31
0.0
  0
LINE
  5
16F
100
AcDbEntity
100
AcDbLine
  8
color#ffffffff
 62
256
370
-1
  6
BYLAYER
 10
1.0538185143490204
 20
2.2992295661294668
 30
0.0
 11
1.0704569441758733
 21
2.3097370480611499
 31
0.0
  0
LINE
  5
170
100
AcDbEntity
100
AcDbLine
  8
color#ffffffff
 62
256
370
-1
  6
BYLAYER
 10
1.0704569441758733
 20
2.3097370480611499
 30
0.0
 11
1.0874281335641194
 21
2.3197021882474624
 31
0.0
  0
LINE
  5
171
100
AcDbEntity
100
AcDbLine
  8
color#ffffffff
 62
256
370
-1
  6
BYLAYER
 10
1.0874281335641194
 20
2.3197021882474624
 30
0.0
 11
1.1047193808463183
 21
2.329110240315504
 31
0.0
  0
LINE
  5
172
100
AcDbEntity
100
AcDbLine
  8
color#ffffffff
 62
256
370
-1
  6
BYLAYER
 10
1.1047193808463183
 20
2.329110240315504
 30
0.0
 11
1.1223179843550293
 21
2.337946457892377
 31
0.0
  0
LINE
  5
173
100
AcDbEntity
100
AcDbLine
  8
color#ffffffff
 62
256
370
-1
  6
BYLAYER
 10
1.915190180187607
 20
2.350052196136545
 30
0.0
 11
1.9359039444081962
 21
2.3588689907913087
 31
0.0
  0
LINE
  5
174
100
AcDbEntity
100
AcDbLine
  8
color#ffffffff
 62
256
370
-1
  6
BYLAYER
 10
1.9359039444081962
 20
2.3588689907913087
 30
0.0
 11
1.9569117347268394
 21
2.3668396760695907
 31
0.0
  0
LINE
  5
175
100
AcDbEntity
100
AcDbLine
  8
color#ffffffff
 62
256
370
-1
  6
BYLAYER
 10
1.9569117347268394
 20
2.3668396760695907
 30
0.0
 11
1.9781852988582886
 21
2.3739690310344694
 31
0.0
  0
LINE
  5
176
100
AcDbEntity
100
AcDbLine
  8
color#ffffffff
 62
256
370
-1
  6
BYLAYER
 10
1.9781852988582886
 20
2.3739690310344694
 30
0.0
 11
1.9996963845172928
 21
2.3802618347490263
 31
0.0
  0
LINE
  5
177
100
AcDbEntity
100
AcDbLine
  8
color#ffffffff
 62
256
370
-1
  6
BYLAYER
 10
1.9996963845172928
 20
2.3802618347490263
 30
0.0
 11
2.0214167394186049
 21
2.3857228662763408
 31
0.0
  0
LINE
  5
178
100
AcDbEntity
100
AcDbLine
  8
color#ffffffff
 62
256
370
-1
  6
BYLAYER
 10
2.0214167394186049
 20
2.3857228662763408
 30
0.0
 11
2.0433181112769754
 21
2.3903569046794924
 31
0.0
  0
LINE
  5
179
100
AcDbEntity
100
AcDbLine
  8
color#ffffffff
 62
256
370
-1
  6
BYLAYER
 10
2.0433181112769754
 20
2.3903569046794924
 30
0.0
 11
2.065372247807153
 21
2.3941687290215623
 31
0.0
  0
LINE
  5
17A
100
AcDbEntity
100
AcDbLine
  8
color#ffffffff
 62
256
370
-1
  6
BYLAYER
 10
2.065372247807153
 20
2.3941687290215623
 30
0.0
 11
2.0875508967238914
 21
2.3971631183656283
 31
0.0
  0
LINE
  5
17B
100
AcDbEntity
100
AcDbLine
  8
color#ffffffff
 62
256
370
-1
  6
BYLAYER
 10
2.0875508967238914
 20
2.3971631183656283
 30
0.0
 11
2.1098258057419406
 21
2.3993448517747726
 31
0.0
  0
LINE
  5
17C
100
AcDbEntity
100
AcDbLine
  8
color#ffffffff
 62
256
370
-1
  6
BYLAYER
 10
2.1098258057419406
 20
2.3993448517747726
 30
0.0
 11
2.1321687225760488
 21
2.4007187083120747
 31
0.0
  0
LINE
  5
17D
100
AcDbEntity
100
AcDbLine
  8
color#ffffffff
 62
256
370
-1
  6
BYLAYER
 10
2.1321687225760488
 20
2.4007187083120747
 30
0.0
 11
2.1545513949409716
 21
2.401289467040614
 31
0.0
  0
LINE
  5
17E
100
AcDbEntity
100
AcDbLine
  8
color#ffffffff
 62
256
370
-1
  6
BYLAYER
 10
2.1545513949409716
 20
2.401289467040614
 30
0.0
 11
2.1769455705514562
 21
2.4010619070234704
 31
0.0
  0
LINE
  5
17F
100
AcDbEntity
100
AcDbLine
  8
color#ffffffff
 62
256
370
-1
  6
BYLAYER
 10
2.1769455705514562
 20
2.4010619070234704
 30
0.0
 11
2.1993229971222541
 21
2.4000408073237245
 31
0.0
  0
LINE
  5
180
100
AcDbEntity
100
AcDbLine
  8
color#ffffffff
 62
256
370
-1
  6
BYLAYER
 10
2.1993229971222541
 20
2.4000408073237245
 30
0.0
 11
2.2216554223681171
 21
2.398230947004456
 31
0.0
  0
LINE
  5
181
100
AcDbEntity
100
AcDbLine
  8
color#ffffffff
 62
256
370
-1
  6
BYLAYER
 10
2.2216554223681171
 20
2.398230947004456
 30
0.0
 11
2.2439145940037952
 21
2.3956371051287451
 31
0.0
  0
LINE
  5
182
100
AcDbEntity
100
AcDbLine
  8
color#ffffffff
 62
256
370
-1
  6
BYLAYER
 10
2.2439145940037952
 20
2.3956371051287451
 30
0.0
 11
2.2660722597440395
 21
2.392264060759671
 31
0.0
  0
LINE
  5
183
100
AcDbEntity
100
AcDbLine
  8
color#ffffffff
 62
256
370
-1
  6
BYLAYER
 10
2.2660722597440395
 20
2.392264060759671
 30
0.0
 11
2.2881001673036012
 21
2.3881165929603148
 31
0.0
  0
LINE
  5
184
100
AcDbEntity
100
AcDbLine
  8
color#ffffffff
 62
256
370
-1
  6
BYLAYER
 10
2.2881001673036012
 20
2.3881165929603148
 30
0.0
 11
2.3099700643972301
 21
2.3831994807937562
 31
0.0
  0
LINE
  5
185
100
AcDbEntity
100
AcDbLine
  8
color#ffffffff
 62
256
370
-1
  6
BYLAYER
 10
2.3099700643972301
 20
2.3831994807937562
 30
0.0
 11
2.3316536987396783
 21
2.3775175033230744
 31
0.0
  0
LINE
  5
186
100
AcDbEntity
100
AcDbLine
  8
color#ffffffff
 62
256
370
-1
  6
BYLAYER
 10
2.3316536987396783
 20
2.3775175033230744
 30
0.0
 11
2.353122818045696
 21
2.3710754396113498
 31
0.0
  0
LINE
  5
187
100
AcDbEntity
100
AcDbLine
  8
color#ffffffff
 62
256
370
-1
  6
BYLAYER
 10
2.353122818045696
 20
2.3710754396113498
 30
0.0
 11
2.3743491700300345
 21
2.3638780687216627
 31
0.0
  0
LINE
  5
188
100
AcDbEntity
100
AcDbLine
  8
color#ffffffff
 62
256
370
-1
  6
BYLAYER
 10
2.3743491700300345
 20
2.3638780687216627
 30
0.0
 11
2.3953045024074435
 21
2.3559301697170931
 31
0.0
  0
LINE
  5
189
100
AcDbEntity
100
AcDbLine
  8
color#ffffffff
 62
256
370
-1
  6
BYLAYER
 10
2.3953045024074435
 20
2.3559301697170931
 30
0.0
 11
2.4159605628926752
 21
2.3472365216607205
 31
0.0
  0
LINE
  5
18A
100
AcDbEntity
100
AcDbLine
  8
color#ffffffff
 62
256
370
-1
  6
BYLAYER
 10
2.4159605628926752
 20
2.3472365216607205
 30
0.0
 11
2.4362890992004793
 21
2.3378019036156257
 31
0.0
  0
LINE
  5
18B
100
AcDbEntity
100
AcDbLine
  8
color#ffffffff
 62
256
370
-1
  6
BYLAYER
 10
2.4362890992004793
 20
2.3378019036156257
 30
0.0
 11
2.4562618590456071
 21
2.3276310946448877
 31
0.0
  0
LINE
  5
18C
100
AcDbEntity
100
AcDbLine
  8
color#ffffffff
 62
256
370
-1
  6
BYLAYER
 10
2.4562618590456071
 20
2.3276310946448877
 30
0.0
 11
2.4758505901428105
 21
2.316728873811587
 31
0.0
  0
LINE
  5
18D
100
AcDbEntity
100
AcDbLine
  8
color#ffffffff
 62
256
370
-1
  6
BYLAYER
 10
2.4758505901428105
 20
2.316728873811587
 30
0.0
 11
2.4950270402068377
 21
2.3051000201788039
 31
0.0
  0
LINE
  5
18E
100
AcDbEntity
100
AcDbLine
  8
color#ffffffff
 62
256
370
-1
  6
BYLAYER
 10
2.4950270402068377
 20
2.3051000201788039
 30
0.0
 11
2.5137629569524425
 21
2.2927493128096175
 31
0.0
  0
LINE
  5
18F
100
AcDbEntity
100
AcDbLine
  8
color#ffffffff
 62
256
370
-1
  6
BYLAYER
 10
2.5137629569524425
 20
2.2927493128096175
 30
0.0
 11
2.5320300880943738
 21
2.2796815307671086
 31
0.0
  0
LINE
  5
190
100
AcDbEntity
100
AcDbLine
  8
color#ffffffff
 62
256
370
-1
  6
BYLAYER
 10
2.5320300880943738
 20
2.2796815307671086
 30
0.0
 11
2.4195094874483329
 21
2.1661158123435467
 31
0.0
  0
LINE
  5
191
100
AcDbEntity
100
AcDbLine
  8
color#ffffffff
 62
256
370
-1
  6
BYLAYER
 10
2.4195094874483329
 20
2.1661158123435467
 30
0.0
 11
2.3078879794420057
 21
2.2162660033506465
 31
0.0
  0
LINE
  5
192
100
AcDbEntity
100
AcDbLine
  8
color#ffffffff
 62
256
370
-1
  6
BYLAYER
 10
2.3078879794420057
 20
2.2162660033506465
 30
0.0
 11
2.2324533028608897
 21
2.2353617512916397
 31
0.0
  0
LINE
  5
193
100
AcDbEntity
100
AcDbLine
  8
color#ffffffff
 62
256
370
-1
  6
BYLAYER
 10
2.2324533028608897
 20
2.2353617512916397
 30
0.0
 11
2.1773343492535302
 21
2.2409085966406086
 31
0.0
  0
LINE
  5
194
100
AcDbEntity
100
AcDbLine
  8
color#ffffffff
 62
256
370
-1
  6
BYLAYER
 10
2.1773343492535302
 20
2.2409085966406086
 30
0.0
 11
2.1328557230775758
 21
2.2396600299271672
 31
0.0
  0
LINE
  5
195
100
AcDbEntity
100
AcDbLine
  8
color#ffffffff
 62
256
370
-1
  6
BYLAYER
 10
2.1328557230775758
 20
2.2396600299271672
 30
0.0
 11
2.1105708051314456
 21
2.2369501313958202
 31
0.0
  0
LINE
  5
196
100
AcDbEntity
100
AcDbLine
  8
color#ffffffff
 62
256
370
-1
  6
BYLAYER
 10
2.1105708051314456
 20
2.2369501313958202
 30
0.0
 11
2.0793687588809333
 21
2.2327206834645139
 31
0.0
  0
LINE
  5
197
100
AcDbEntity
100
AcDbLine
  8
color#ffffffff
 62
256
370
-1
  6
BYLAYER
 10
2.0793687588809333
 20
2.2327206834645139
 30
0.0
 11
2.0486822916488725
 21
2.2261764283957168
 31
0.0
  0
LINE
  5
198
100
AcDbEntity
100
AcDbLine
  8
color#ffffffff
 62
256
370
-1
  6
BYLAYER
 10
2.0486822916488725
 20
2.2261764283957168
 30
0.0
 11
2.0186146149629725
 21
2.2174156593560914
 31
0.0
  0
LINE
  5
199
100
AcDbEntity
100
AcDbLine
  8
color#ffffffff
 62
256
370
-1
  6
BYLAYER
 10
2.0186146149629725
 20
2.2174156593560914
 30
0.0
 11
1.9892689403509403
 21
2.2065366695123037
 31
0.0
  0
LINE
  5
19A
100
AcDbEntity
100
AcDbLine
  8
color#ffffffff
 62
256
370
-1
  6
BYLAYER
 10
1.9892689403509403
 20
2.2065366695123037
 30
0.0
 11
1.9607484793404835
 21
2.1936377520310169
 31
0.0
  0
LINE
  5
19B
100
AcDbEntity
100
AcDbLine
  8
color#ffffffff
 62
256
370
-1
  6
BYLAYER
 10
1.9607484793404835
 20
2.1936377520310169
 30
0.0
 11
1.9331564434593129
 21
2.1788172000788943
 31
0.0
  0
LINE
  5
19C
100
AcDbEntity
100
AcDbLine
  8
color#ffffffff
 62
256
370
-1
  6
BYLAYER
 10
1.9331564434593129
 20
2.1788172000788943
 30
0.0
 11
1.9065960442351344
 21
2.1621733068226012
 31
0.0
  0
LINE
  5
19D
100
AcDbEntity
100
AcDbLine
  8
color#ffffffff
 62
256
370
-1
  6
BYLAYER
 10
1.9065960442351344
 20
2.1621733068226012
 30
0.0
 11
1.8811704931956568
 21
2.1438043654288013
 31
0.0
  0
LINE
  5
19E
100
AcDbEntity
100
AcDbLine
  8
color#ffffffff
 62
256
370
-1
  6
BYLAYER
 10
1.8811704931956568
 20
2.1438043654288013
 30
0.0
 11
1.8569830018685889
 21
2.1238086690641582
 31
0.0
  0
LINE
  5
19F
100
AcDbEntity
100
AcDbLine
  8
color#ffffffff
 62
256
370
-1
  6
BYLAYER
 10
1.8569830018685889
 20
2.1238086690641582
 30
0.0
 11
1.8341367817816392
 21
2.1022845108953363
 31
0.0
  0
LINE
  5
1A0
100
AcDbEntity
100
AcDbLine
  8
color#ffffffff
 62
256
370
-1
  6
BYLAYER
 10
1.8341367817816392
 20
2.1022845108953363
 30
0.0
 11
1.8127350444625152
 21
2.0793301840890002
 31
0.0
  0
LINE
  5
1A1
100
AcDbEntity
100
AcDbLine
  8
color#ffffffff
 62
256
370
-1
  6
BYLAYER
 10
1.8127350444625152
 20
2.0793301840890002
 30
0.0
 11
1.7928810014389254
 21
2.0550439818118127
 31
0.0
  0
LINE
  5
1A2
100
AcDbEntity
100
AcDbLine
  8
color#ffffffff
 62
256
370
-1
  6
BYLAYER
 10
1.7928810014389254
 20
2.0550439818118127
 30
0.0
 11
1.7746778642385779
 21
2.029524197230439
 31
0.0
  0
LINE
  5
1A3
100
AcDbEntity
100
AcDbLine
  8
color#ffffffff
 62
256
370
-1
  6
BYLAYER
 10
1.7746778642385779
 20
2.029524197230439
 30
0.0
 11
1.7582288443891811
 21
2.0028691235115432
 31
0.0
  0
LINE
  5
1A4
100
AcDbEntity
100
AcDbLine
  8
color#ffffffff
 62
256
370
-1
  6
BYLAYER
 10
1.7582288443891811
 20
2.0028691235115432
 30
0.0
 11
1.7506943820734981
 21
1.9891465698401067
 31
0.0
  0
LINE
  5
1A5
100
AcDbEntity
100
AcDbLine
  8
color#ffffffff
 62
256
370
-1
  6
BYLAYER
 10
1.7506943820734981
 20
1.9891465698401067
 30
0.0
 11
1.7368961144331236
 21
1.9598116032424602
 31
0.0
  0
LINE
  5
1A6
100
AcDbEntity
100
AcDbLine
  8
color#ffffffff
 62
256
370
-1
  6
BYLAYER
 10
1.7368961144331236
 20
1.9598116032424602
 30
0.0
 11
1.7253051759372617
 21
1.9296221237779865
 31
0.0
  0
LINE
  5
1A7
100
AcDbEntity
100
AcDbLine
  8
color#ffffffff
 62
256
370
-1
  6
BYLAYER
 10
1.7253051759372617
 20
1.9296221237779865
 30
0.0
 11
1.7159134769042046
 21
1.8987241799226016
 31
0.0
  0
LINE
  5
1A8
100
AcDbEntity
100
AcDbLine
  8
color#ffffffff
 62
256
370
-1
  6
BYLAYER
 10
1.7159134769042046
 20
1.8987241799226016
 30
0.0
 11
1.7087129276522441
 21
1.867263820152222
 31
0.0
  0
LINE
  5
1A9
100
AcDbEntity
100
AcDbLine
  8
color#ffffffff
 62
256
370
-1
  6
BYLAYER
 10
1.7087129276522441
 20
1.867263820152222
 30
0.0
 11
1.7036954384996728
 21
1.8353870929427645
 31
0.0
  0
LINE
  5
1AA
100
AcDbEntity
100
AcDbLine
  8
color#ffffffff
 62
256
370
-1
  6
BYLAYER
 10
1.7036954384996728
 20
1.8353870929427645
 30
0.0
 11
1.7008529197647837
 21
1.8032400467701446
 31
0.0
  0
LINE
  5
1AB
100
AcDbEntity
100
AcDbLine
  8
color#ffffffff
 62
256
370
-1
  6
BYLAYER
 10
1.7008529197647837
 20
1.8032400467701446
 30
0.0
 11
1.700177281765868
 21
1.7709687301102801
 31
0.0
  0
LINE
  5
1AC
100
AcDbEntity
100
AcDbLine
  8
color#ffffffff
 62
256
370
-1
  6
BYLAYER
 10
1.700177281765868
 20
1.7709687301102801
 30
0.0
 11
1.7016604348212185
 21
1.7387191914390867
 31
0.0
  0
LINE
  5
1AD
100
AcDbEntity
100
AcDbLine
  8
color#ffffffff
 62
256
370
-1
  6
BYLAYER
 10
1.7016604348212185
 20
1.7387191914390867
 30
0.0
 11
1.7052942892491283
 21
1.7066374792324805
 31
0.0
  0
LINE
  5
1AE
100
AcDbEntity
100
AcDbLine
  8
color#ffffffff
 62
256
370
-1
  6
BYLAYER
 10
1.7052942892491283
 20
1.7066374792324805
 30
0.0
 11
1.711070755367889
 21
1.6748696419663784
 31
0.0
  0
LINE
  5
1AF
100
AcDbEntity
100
AcDbLine
  8
color#ffffffff
 62
256
370
-1
  6
BYLAYER
 10
1.711070755367889
 20
1.6748696419663784
 30
0.0
 11
1.7189817434957932
 21
1.6435617281166965
 31
0.0
  0
LINE
  5
1B0
100
AcDbEntity
100
AcDbLine
  8
color#ffffffff
 62
256
370
-1
  6
BYLAYER
 10
1.7189817434957932
 20
1.6435617281166965
 30
0.0
 11
1.7290191639511332
 21
1.6128597861593517
 31
0.0
  0
LINE
  5
1B1
100
AcDbEntity
100
AcDbLine
  8
color#ffffffff
 62
256
370
-1
  6
BYLAYER
 10
1.7290191639511332
 20
1.6128597861593517
 30
0.0
 11
1.7411749270522014
 21
1.5829098645702595
 31
0.0
  0
LINE
  5
1B2
100
AcDbEntity
100
AcDbLine
  8
color#ffffffff
 62
256
370
-1
  6
BYLAYER
 10
1.7411749270522014
 20
1.5829098645702595
 30
0.0
 11
1.7554409431172902
 21
1.5538580118253376
 31
0.0
  0
LINE
  5
1B3
100
AcDbEntity
100
AcDbLine
  8
color#ffffffff
 62
256
370
-1
  6
BYLAYER
 10
1.7554409431172902
 20
1.5538580118253376
 30
0.0
 11
1.7633627679858082
 21
1.5397145014181639
 31
0.0
  0
LINE
  5
1B4
100
AcDbEntity
100
AcDbLine
  8
color#ffffffff
 62
256
370
-1
  6
BYLAYER
 10
1.7633627679858082
 20
1.5397145014181639
 30
0.0
 11
1.6504060316628748
 21
1.4199640717690747
 31
0.0
  0
LINE
  5
1B5
100
AcDbEntity
100
AcDbLine
  8
color#ffffffff
 62
256
370
-1
  6
BYLAYER
 10
1.6504060316628748
 20
1.4199640717690747
 30
0.0
 11
1.6310805221971847
 21
1.4502255780224789
 31
0.0
  0
LINE
  5
1B6
100
AcDbEntity
100
AcDbLine
  8
color#ffffffff
 62
256
370
-1
  6
BYLAYER
 10
1.6310805221971847
 20
1.4502255780224789
 30
0.0
 11
1.6134820592829198
 21
1.4815296141113607
 31
0.0
  0
LINE
  5
1B7
100
AcDbEntity
100
AcDbLine
  8
color#ffffffff
 62
256
370
-1
  6
BYLAYER
 10
1.6134820592829198
 20
1.4815296141113607
 30
0.0
 11
1.5976510618620388
 21
1.5137685218502925
 31
0.0
  0
LINE
  5
1B8
100
AcDbEntity
100
AcDbLine
  8
color#ffffffff
 62
256
370
-1
  6
BYLAYER
 10
1.5976510618620388
 20
1.5137685218502925
 30
0.0
 11
1.5836279488764999
 21
1.546834643053848
 31
0.0
  0
LINE
  5
1B9
100
AcDbEntity
100
AcDbLine
  8
color#ffffffff
 62
256
370
-1
  6
BYLAYER
 10
1.5836279488764999
 20
1.546834643053848
 30
0.0
 11
1.571453139268262
 21
1.5806203195366
 31
0.0
  0
LINE
  5
1BA
100
AcDbEntity
100
AcDbLine
  8
color#ffffffff
 62
256
370
-1
  6
BYLAYER
 10
1.571453139268262
 20
1.5806203195366
 30
0.0
 11
1.5611670519792846
 21
1.6150178931131205
 31
0.0
  0
LINE
  5
1BB
100
AcDbEntity
100
AcDbLine
  8
color#ffffffff
 62
256
370
-1
  6
BYLAYER
 10
1.5611670519792846
 20
1.6150178931131205
 30
0.0
 11
1.5528101059515247
 21
1.6499197055979842
 31
0.0
  0
LINE
  5
1BC
100
AcDbEntity
100
AcDbLine
  8
color#ffffffff
 62
256
370
-1
  6
BYLAYER
 10
1.5528101059515247
 20
1.6499197055979842
 30
0.0
 11
1.5464227201269418
 21
1.685218098805763
 31
0.0
  0
LINE
  5
1BD
100
AcDbEntity
100
AcDbLine
  8
color#ffffffff
 62
256
370
-1
  6
BYLAYER
 10
1.5464227201269418
 20
1.685218098805763
 30
0.0
 11
1.542045313447495
 21
1.7208054145510303
 31
0.0
  0
LINE
  5
1BE
100
AcDbEntity
100
AcDbLine
  8
color#ffffffff
 62
256
370
-1
  6
BYLAYER
 10
1.542045313447495
 20
1.7208054145510303
 30
0.0
 11
1.5397183048551426
 21
1.7565739946483592
 31
0.0
  0
LINE
  5
1BF
100
AcDbEntity
100
AcDbLine
  8
color#ffffffff
 62
256
370
-1
  6
BYLAYER
 10
1.5397183048551426
 20
1.7565739946483592
 30
0.0
 11
1.539482113291843
 21
1.7924161809123222
 31
0.0
  0
LINE
  5
1C0
100
AcDbEntity
100
AcDbLine
  8
color#ffffffff
 62
256
370
-1
  6
BYLAYER
 10
1.539482113291843
 20
1.7924161809123222
 30
0.0
 11
1.5413771576995552
 21
1.8282243151574933
 31
0.0
  0
LINE
  5
1C1
100
AcDbEntity
100
AcDbLine
  8
color#ffffffff
 62
256
370
-1
  6
BYLAYER
 10
1.5413771576995552
 20
1.8282243151574933
 30
0.0
 11
1.5454438570202376
 21
1.8638907391984445
 31
0.0
  0
LINE
  5
1C2
100
AcDbEntity
100
AcDbLine
  8
color#ffffffff
 62
256
370
-1
  6
BYLAYER
 10
1.5454438570202376
 20
1.8638907391984445
 30
0.0
 11
1.5517226301958493
 21
1.8993077948497488
 31
0.0
  0
LINE
  5
1C3
100
AcDbEntity
100
AcDbLine
  8
color#ffffffff
 62
256
370
-1
  6
BYLAYER
 10
1.5517226301958493
 20
1.8993077948497488
 30
0.0
 11
1.5557041753986154
 21
1.9168891663463381
 31
0.0
  0
LINE
  5
1C4
100
AcDbEntity
100
AcDbLine
  8
color#ffffffff
 62
256
370
-1
  6
BYLAYER
 10
1.5557041753986154
 20
1.9168891663463381
 30
0.0
 11
1.5604375429254829
 21
1.9364904157146858
 31
0.0
  0
LINE
  5
1C5
100
AcDbEntity
100
AcDbLine
  8
color#ffffffff
 62
256
370
-1
  6
BYLAYER
 10
1.5604375429254829
 20
1.9364904157146858
 30
0.0
 11
1.5658378168545244
 21
1.9559009485969492
 31
0.0
  0
LINE
  5
1C6
100
AcDbEntity
100
AcDbLine
  8
color#ffffffff
 62
256
370
-1
  6
BYLAYER
 10
1.5658378168545244
 20
1.9559009485969492
 30
0.0
 11
1.5718917115664821
 21
1.9751049351330974
 31
0.0
  0
LINE
  5
1C7
100
AcDbEntity
100
AcDbLine
  8
color#ffffffff
 62
256
370
-1
  6
BYLAYER
 10
1.5718917115664821
 20
1.9751049351330974
 30
0.0
 11
1.5785859414420953
 21
1.9940865454631056
 31
0.0
  0
LINE
  5
1C8
100
AcDbEntity
100
AcDbLine
  8
color#ffffffff
 62
256
370
-1
  6
BYLAYER
 10
1.5785859414420953
 20
1.9940865454631056
 30
0.0
 11
1.5859072208621063
 21
2.0128299497269437
 31
0.0
  0
LINE
  5
1C9
100
AcDbEntity
100
AcDbLine
  8
color#ffffffff
 62
256
370
-1
  6
BYLAYER
 10
1.5859072208621063
 20
2.0128299497269437
 30
0.0
 11
1.5938422642072547
 21
2.0313193180645857
 31
0.0
  0
LINE
  5
1CA
100
AcDbEntity
100
AcDbLine
  8
color#ffffffff
 62
256
370
-1
  6
BYLAYER
 10
1.5938422642072547
 20
2.0313193180645857
 30
0.0
 11
1.6023777858582817
 21
2.0495388206160037
 31
0.0
  0
LINE
  5
1CB
100
AcDbEntity
100
AcDbLine
  8
color#ffffffff
 62
256
370
-1
  6
BYLAYER
 10
1.6023777858582817
 20
2.0495388206160037
 30
0.0
 11
1.6115005001959293
 21
2.0674726275211692
 31
0.0
  0
LINE
  5
1CC
100
AcDbEntity
100
AcDbLine
  8
color#ffffffff
 62
256
370
-1
  6
BYLAYER
 10
1.6115005001959293
 20
2.0674726275211692
 30
0.0
 11
1.6211971216009367
 21
2.0851049089200555
 31
0.0
  0
LINE
  5
1CD
100
AcDbEntity
100
AcDbLine
  8
color#ffffffff
 62
256
370
-1
  6
BYLAYER
 10
1.6211971216009367
 20
2.0851049089200555
 30
0.0
 11
1.6314543644540445
 21
2.1024198349526353
 31
0.0
  0
LINE
  5
1CE
100
AcDbEntity
100
AcDbLine
  8
color#ffffffff
 62
256
370
-1
  6
BYLAYER
 10
1.6314543644540445
 20
2.1024198349526353
 30
0.0
 11
1.6422589431359949
 21
2.1194015757588804
 31
0.0
  0
LINE
  5
1CF
100
AcDbEntity
100
AcDbLine
  8
color#ffffffff
 62
256
370
-1
  6
BYLAYER
 10
1.6422589431359949
 20
2.1194015757588804
 30
0.0
 11
1.653597572027528
 21
2.1360343014787619
 31
0.0
  0
LINE
  5
1D0
100
AcDbEntity
100
AcDbLine
  8
color#ffffffff
 62
256
370
-1
  6
BYLAYER
 10
1.653597572027528
 20
2.1360343014787619
 30
0.0
 11
1.6654569655093845
 21
2.1523021822522548
 31
0.0
  0
LINE
  5
1D1
100
AcDbEntity
100
AcDbLine
  8
color#ffffffff
 62
256
370
-1
  6
BYLAYER
 10
1.6654569655093845
 20
2.1523021822522548
 30
0.0
 11
1.6778238379623058
 21
2.1681893882193295
 31
0.0
  0
LINE
  5
1D2
100
AcDbEntity
100
AcDbLine
  8
color#ffffffff
 62
256
370
-1
  6
BYLAYER
 10
1.6778238379623058
 20
2.1681893882193295
 30
0.0
 11
1.690684903767032
 21
2.1836800895199588
 31
0.0
  0
LINE
  5
1D3
100
AcDbEntity
100
AcDbLine
  8
color#ffffffff
 62
256
370
-1
  6
BYLAYER
 10
1.690684903767032
 20
2.1836800895199588
 30
0.0
 11
1.7040268773043041
 21
2.1987584562941156
 31
0.0
  0
LINE
  5
1D4
100
AcDbEntity
100
AcDbLine
  8
color#ffffffff
 62
256
370
-1
  6
BYLAYER
 10
1.7040268773043041
 20
2.1987584562941156
 30
0.0
 11
1.7178364729548636
 21
2.2134086586817716
 31
0.0
  0
LINE
  5
1D5
100
AcDbEntity
100
AcDbLine
  8
color#ffffffff
 62
256
370
-1
  6
BYLAYER
 10
1.7178364729548636
 20
2.2134086586817716
 30
0.0
 11
1.7321004050994506
 21
2.2276148668228997
 31
0.0
  0
LINE
  5
1D6
100
AcDbEntity
100
AcDbLine
  8
color#ffffffff
 62
256
370
-1
  6
BYLAYER
 10
1.7321004050994506
 20
2.2276148668228997
 30
0.0
 11
1.7468053881188059
 21
2.2413612508574716
 31
0.0
  0
LINE
  5
1D7
100
AcDbEntity
100
AcDbLine
  8
color#ffffffff
 62
256
370
-1
  6
BYLAYER
 10
1.7468053881188059
 20
2.2413612508574716
 30
0.0
 11
1.7619381363936708
 21
2.2546319809254607
 31
0.0
  0
LINE
  5
1D8
100
AcDbEntity
100
AcDbLine
  8
color#ffffffff
 62
256
370
-1
  6
BYLAYER
 10
1.7619381363936708
 20
2.2546319809254607
 30
0.0
 11
1.7774853643047857
 21
2.2674112271668379
 31
0.0
  0
LINE
  5
1D9
100
AcDbEntity
100
AcDbLine
  8
color#ffffffff
 62
256
370
-1
  6
BYLAYER
 10
1.7774853643047857
 20
2.2674112271668379
 30
0.0
 11
1.7934337862328915
 21
2.2796831597215768
 31
0.0
  0
LINE
  5
1DA
100
AcDbEntity
100
AcDbLine
  8
color#ffffffff
 62
256
370
-1
  6
BYLAYER
 10
1.7934337862328915
 20
2.2796831597215768
 30
0.0
 11
1.8097701165587294
 21
2.2914319487296497
 31
0.0
  0
LINE
  5
1DB
100
AcDbEntity
100
AcDbLine
  8
color#ffffffff
 62
256
370
-1
  6
BYLAYER
 10
1.8097701165587294
 20
2.2914319487296497
 30
0.0
 11
1.8264810696630396
 21
2.3026417643310282
 31
0.0
  0
LINE
  5
1DC
100
AcDbEntity
100
AcDbLine
  8
color#ffffffff
 62
256
370
-1
  6
BYLAYER
 10
1.8264810696630396
 20
2.3026417643310282
 30
0.0
 11
1.8435533599265628
 21
2.3132967766656853
 31
0.0
  0
LINE
  5
1DD
100
AcDbEntity
100
AcDbLine
  8
color#ffffffff
 62
256
370
-1
  6
BYLAYER
 10
1.8435533599265628
 20
2.3132967766656853
 30
0.0
 11
1.8609737017300405
 21
2.3233811558735931
 31
0.0
  0
LINE
  5
1DE
100
AcDbEntity
100
AcDbLine
  8
color#ffffffff
 62
256
370
-1
  6
BYLAYER
 10
1.8609737017300405
 20
2.3233811558735931
 30
0.0
 11
1.8787288094542132
 21
2.3328790720947241
 31
0.0
  0
LINE
  5
1DF
100
AcDbEntity
100
AcDbLine
  8
color#ffffffff
 62
256
370
-1
  6
BYLAYER
 10
1.8787288094542132
 20
2.3328790720947241
 30
0.0
 11
1.8968053974798222
 21
2.3417746954690504
 31
0.0
  0
LINE
  5
1E0
100
AcDbEntity
100
AcDbLine
  8
color#ffffffff
 62
256
370
-1
  6
BYLAYER
 10
1.8968053974798222
 20
2.3417746954690504
 30
0.0
 11
1.915190180187607
 21
2.350052196136545
 31
0.0
  0
LINE
  5
1E1
100
AcDbEntity
100
AcDbLine
  8
color#ffffffff
 62
256
370
-1
  6
BYLAYER
 10
2.4042568034129936
 20
2.1098880056956091
 30
0.0
 11
2.4155372914309057
 21
2.1272364550403426
 31
0.0
  0
LINE
  5
1E2
100
AcDbEntity
100
AcDbLine
  8
color#ffffffff
 62
256
370
-1
  6
BYLAYER
 10
2.4155372914309057
 20
2.1272364550403426
 30
0.0
 11
2.4274123034143935
 21
2.1441662709427578
 31
0.0
  0
LINE
  5
1E3
100
AcDbEntity
100
AcDbLine
  8
color#ffffffff
 62
256
370
-1
  6
BYLAYER
 10
2.4274123034143935
 20
2.1441662709427578
 30
0.0
 11
2.4398626641363723
 21
2.1606656080921289
 31
0.0
  0
LINE
  5
1E4
100
AcDbEntity
100
AcDbLine
  8
color#ffffffff
 62
256
370
-1
  6
BYLAYER
 10
2.4398626641363723
 20
2.1606656080921289
 30
0.0
 11
2.4528691983697564
 21
2.1767226211777304
 31
0.0
  0
LINE
  5
1E5
100
AcDbEntity
100
AcDbLine
  8
color#ffffffff
 62
256
370
-1
  6
BYLAYER
 10
2.4528691983697564
 20
2.1767226211777304
 30
0.0
 11
2.4664127308874626
 21
2.1923254648888362
 31
0.0
  0
LINE
  5
1E6
100
AcDbEntity
100
AcDbLine
  8
color#ffffffff
 62
256
370
-1
  6
BYLAYER
 10
2.4664127308874626
 20
2.1923254648888362
 30
0.0
 11
2.4804740864624049
 21
2.2074622939147202
 31
0.0
  0
LINE
  5
1E7
100
AcDbEntity
100
AcDbLine
  8
color#ffffffff
 62
256
370
-1
  6
BYLAYER
 10
2.4804740864624049
 20
2.2074622939147202
 30
0.0
 11
2.4950340898674974
 21
2.2221212629446572
 31
0.0
  0
LINE
  5
1E8
100
AcDbEntity
100
AcDbLine
  8
color#ffffffff
 62
256
370
-1
  6
BYLAYER
 10
2.4950340898674974
 20
2.2221212629446572
 30
0.0
 11
2.5100735658756568
 21
2.2362905266679216
 31
0.0
  0
LINE
  5
1E9
100
AcDbEntity
100
AcDbLine
  8
color#ffffffff
 62
256
370
-1
  6
BYLAYER
 10
2.5100735658756568
 20
2.2362905266679216
 30
0.0
 11
2.5255733392597963
 21
2.2499582397737874
 31
0.0
  0
LINE
  5
1EA
100
AcDbEntity
100
AcDbLine
  8
color#ffffffff
 62
256
370
-1
  6
BYLAYER
 10
2.5255733392597963
 20
2.2499582397737874
 30
0.0
 11
2.5415142347928317
 21
2.263112556951528
 31
0.0
  0
LINE
  5
1EB
100
AcDbEntity
100
AcDbLine
  8
color#ffffffff
 62
256
370
-1
  6
BYLAYER
 10
2.5415142347928317
 20
2.263112556951528
 30
0.0
 11
2.5578770772476784
 21
2.2757416328904183
 31
0.0
  0
LINE
  5
1EC
100
AcDbEntity
100
AcDbLine
  8
color#ffffffff
 62
256
370
-1
  6
BYLAYER
 10
2.5578770772476784
 20
2.2757416328904183
 30
0.0
 11
2.5746426913972509
 21
2.2878336222797326
 31
0.0
  0
LINE
  5
1ED
100
AcDbEntity
100
AcDbLine
  8
color#ffffffff
 62
256
370
-1
  6
BYLAYER
 10
2.5746426913972509
 20
2.2878336222797326
 30
0.0
 11
2.5917919020144637
 21
2.2993766798087454
 31
0.0
  0
LINE
  5
1EE
100
AcDbEntity
100
AcDbLine
  8
color#ffffffff
 62
256
370
-1
  6
BYLAYER
 10
2.5917919020144637
 20
2.2993766798087454
 30
0.0
 11
2.6093055338722326
 21
2.31035896016673
 31
0.0
  0
LINE
  5
1EF
100
AcDbEntity
100
AcDbLine
  8
color#ffffffff
 62
256
370
-1
  6
BYLAYER
 10
2.6093055338722326
 20
2.31035896016673
 30
0.0
 11
2.6271644117434727
 21
2.3207686180429619
 31
0.0
  0
LINE
  5
1F0
100
AcDbEntity
100
AcDbLine
  8
color#ffffffff
 62
256
370
-1
  6
BYLAYER
 10
2.6271644117434727
 20
2.3207686180429619
 30
0.0
 11
2.6453493604010974
 21
2.3305938081267144
 31
0.0
  0
LINE
  5
1F1
100
AcDbEntity
100
AcDbLine
  8
color#ffffffff
 62
256
370
-1
  6
BYLAYER
 10
2.6453493604010974
 20
2.3305938081267144
 30
0.0
 11
2.663841204618024
 21
2.339822685107261
 31
0.0
  0
LINE
  5
1F2
100
AcDbEntity
100
AcDbLine
  8
color#ffffffff
 62
256
370
-1
  6
BYLAYER
 10
2.663841204618024
 20
2.339822685107261
 30
0.0
 11
2.6826207691671651
 21
2.3484434036738779
 31
0.0
  0
LINE
  5
1F3
100
AcDbEntity
100
AcDbLine
  8
color#ffffffff
 62
256
370
-1
  6
BYLAYER
 10
2.6826207691671651
 20
2.3484434036738779
 30
0.0
 11
2.7016688788214376
 21
2.3564441185158373
 31
0.0
  0
LINE
  5
1F4
100
AcDbEntity
100
AcDbLine
  8
color#ffffffff
 62
256
370
-1
  6
BYLAYER
 10
2.7016688788214376
 20
2.3564441185158373
 30
0.0
 11
2.7209663583537558
 21
2.3638129843224149
 31
0.0
  0
LINE
  5
1F5
100
AcDbEntity
100
AcDbLine
  8
color#ffffffff
 62
256
370
-1
  6
BYLAYER
 10
2.7209663583537558
 20
2.3638129843224149
 30
0.0
 11
2.7404940325370335
 21
2.3705381557828842
 31
0.0
  0
LINE
  5
1F6
100
AcDbEntity
100
AcDbLine
  8
color#ffffffff
 62
256
370
-1
  6
BYLAYER
 10
2.7404940325370335
 20
2.3705381557828842
 30
0.0
 11
2.7602327261441868
 21
2.3766077875865199
 31
0.0
  0
LINE
  5
1F7
100
AcDbEntity
100
AcDbLine
  8
color#ffffffff
 62
256
370
-1
  6
BYLAYER
 10
2.7602327261441868
 20
2.3766077875865199
 30
0.0
 11
2.7801632639481313
 21
2.3820100344225952
 31
0.0
  0
LINE
  5
1F8
100
AcDbEntity
100
AcDbLine
  8
color#ffffffff
 62
256
370
-1
  6
BYLAYER
 10
2.7801632639481313
 20
2.3820100344225952
 30
0.0
 11
2.8002664707217813
 21
2.3867330509803852
 31
0.0
  0
LINE
  5
1F9
100
AcDbEntity
100
AcDbLine
  8
color#ffffffff
 62
256
370
-1
  6
BYLAYER
 10
2.8002664707217813
 20
2.3867330509803852
 30
0.0
 11
2.8205231712380501
 21
2.3907649919491649
 31
0.0
  0
LINE
  5
1FA
100
AcDbEntity
100
AcDbLine
  8
color#ffffffff
 62
256
370
-1
  6
BYLAYER
 10
2.8205231712380501
 20
2.3907649919491649
 30
0.0
 11
2.8409141902698565
 21
2.3940940120182068
 31
0.0
  0
LINE
  5
1FB
100
AcDbEntity
100
AcDbLine
  8
color#ffffffff
 62
256
370
-1
  6
BYLAYER
 10
2.8409141902698565
 20
2.3940940120182068
 30
0.0
 11
2.8614203525901121
 21
2.3967082658767858
 31
0.0
  0
LINE
  5
1FC
100
AcDbEntity
100
AcDbLine
  8
color#ffffffff
 62
256
370
-1
  6
BYLAYER
 10
2.8614203525901121
 20
2.3967082658767858
 30
0.0
 11
2.8820224829717338
 21
2.3985959082141761
 31
0.0
  0
LINE
  5
1FD
100
AcDbEntity
100
AcDbLine
  8
color#ffffffff
 62
256
370
-1
  6
BYLAYER
 10
2.8820224829717338
 20
2.3985959082141761
 30
0.0
 11
2.9027014061876346
 21
2.3997450937196523
 31
0.0
  0
LINE
  5
1FE
100
AcDbEntity
100
AcDbLine
  8
color#ffffffff
 62
256
370
-1
  6
BYLAYER
 10
2.9027014061876346
 20
2.3997450937196523
 30
0.0
 11
2.9501057003212137
 21
2.4005948445540848
 31
0.0
  0
LINE
  5
1FF
100
AcDbEntity
100
AcDbLine
  8
color#ffffffff
 62
256
370
-1
  6
BYLAYER
 10
2.9501057003212137
 20
2.4005948445540848
 30
0.0
 11
2.9974468162298451
 21
2.3976591418170372
 31
0.0
  0
LINE
  5
200
100
AcDbEntity
100
AcDbLine
  8
color#ffffffff
 62
256
370
-1
  6
BYLAYER
 10
2.9974468162298451
 20
2.3976591418170372
 30
0.0
 11
3.0444332568859704
 21
2.3910116907096342
 31
0.0
  0
LINE
  5
201
100
AcDbEntity
100
AcDbLine
  8
color#ffffffff
 62
256
370
-1
  6
BYLAYER
 10
3.0444332568859704
 20
2.3910116907096342
 30
0.0
 11
3.090773525262029
 21
2.3807261964329993
 31
0.0
  0
LINE
  5
202
100
AcDbEntity
100
AcDbLine
  8
color#ffffffff
 62
256
370
-1
  6
BYLAYER
 10
3.090773525262029
 20
2.3807261964329993
 30
0.0
 11
3.1361761243304613
 21
2.3668763641882569
 31
0.0
  0
LINE
  5
203
100
AcDbEntity
100
AcDbLine
  8
color#ffffffff
 62
256
370
-1
  6
BYLAYER
 10
3.1361761243304613
 20
2.3668763641882569
 30
0.0
 11
3.1803495570637086
 21
2.3495358991765318
 31
0.0
  0
LINE
  5
204
100
AcDbEntity
100
AcDbLine
  8
color#ffffffff
 62
256
370
-1
  6
BYLAYER
 10
3.1803495570637086
 20
2.3495358991765318
 30
0.0
 11
3.22300232643421
 21
2.3287785065989475
 31
0.0
  0
LINE
  5
205
100
AcDbEntity
100
AcDbLine
  8
color#ffffffff
 62
256
370
-1
  6
BYLAYER
 10
3.22300232643421
 20
2.3287785065989475
 30
0.0
 11
3.2638429354144076
 21
2.3046778916566288
 31
0.0
  0
LINE
  5
206
100
AcDbEntity
100
AcDbLine
  8
color#ffffffff
 62
256
370
-1
  6
BYLAYER
 10
3.2638429354144076
 20
2.3046778916566288
 30
0.0
 11
3.3025798869767389
 21
2.2773077595506996
 31
0.0
  0
LINE
  5
207
100
AcDbEntity
100
AcDbLine
  8
color#ffffffff
 62
256
370
-1
  6
BYLAYER
 10
3.3025798869767389
 20
2.2773077595506996
 30
0.0
 11
3.3270918736367348
 21
2.2572810040193705
 31
0.0
  0
LINE
  5
208
100
AcDbEntity
100
AcDbLine
  8
color#ffffffff
 62
256
370
-1
  6
BYLAYER
 10
3.3270918736367348
 20
2.2572810040193705
 30
0.0
 11
3.3411124591427548
 21
2.2456781386077092
 31
0.0
  0
LINE
  5
209
100
AcDbEntity
100
AcDbLine
  8
color#ffffffff
 62
256
370
-1
  6
BYLAYER
 10
3.3411124591427548
 20
2.2456781386077092
 30
0.0
 11
3.3680101248519625
 21
2.2212303321996503
 31
0.0
  0
LINE
  5
20A
100
AcDbEntity
100
AcDbLine
  8
color#ffffffff
 62
256
370
-1
  6
BYLAYER
 10
3.3680101248519625
 20
2.2212303321996503
 30
0.0
 11
3.3933388218004938
 21
2.1952170337491674
 31
0.0
  0
LINE
  5
20B
100
AcDbEntity
100
AcDbLine
  8
color#ffffffff
 62
256
370
-1
  6
BYLAYER
 10
3.3933388218004938
 20
2.1952170337491674
 30
0.0
 11
3.4170453959600664
 21
2.1677469737409312
 31
0.0
  0
LINE
  5
20C
100
AcDbEntity
100
AcDbLine
  8
color#ffffffff
 62
256
370
-1
  6
BYLAYER
 10
3.4170453959600664
 20
2.1677469737409312
 30
0.0
 11
3.4390766933023986
 21
2.1389288826596129
 31
0.0
  0
LINE
  5
20D
100
AcDbEntity
100
AcDbLine
  8
color#ffffffff
 62
256
370
-1
  6
BYLAYER
 10
3.4390766933023986
 20
2.1389288826596129
 30
0.0
 11
3.4593795597992099
 21
2.1088714909898822
 31
0.0
  0
LINE
  5
20E
100
AcDbEntity
100
AcDbLine
  8
color#ffffffff
 62
256
370
-1
  6
BYLAYER
 10
3.4593795597992099
 20
2.1088714909898822
 30
0.0
 11
3.4779008414222172
 21
2.0776835292164098
 31
0.0
  0
LINE
  5
20F
100
AcDbEntity
100
AcDbLine
  8
color#ffffffff
 62
256
370
-1
  6
BYLAYER
 10
3.4779008414222172
 20
2.0776835292164098
 30
0.0
 11
3.4945873841431396
 21
2.0454737278238668
 31
0.0
  0
LINE
  5
210
100
AcDbEntity
100
AcDbLine
  8
color#ffffffff
 62
256
370
-1
  6
BYLAYER
 10
3.4945873841431396
 20
2.0454737278238668
 30
0.0
 11
3.509386033933696
 21
2.0123508172969236
 31
0.0
  0
LINE
  5
211
100
AcDbEntity
100
AcDbLine
  8
color#ffffffff
 62
256
370
-1
  6
BYLAYER
 10
3.509386033933696
 20
2.0123508172969236
 30
0.0
 11
3.5222436367656025
 21
1.9784235281202507
 31
0.0
  0
LINE
  5
212
100
AcDbEntity
100
AcDbLine
  8
color#ffffffff
 62
256
370
-1
  6
BYLAYER
 10
3.5222436367656025
 20
1.9784235281202507
 30
0.0
 11
3.5331070386105798
 21
1.9438005907785185
 31
0.0
  0
LINE
  5
213
100
AcDbEntity
100
AcDbLine
  8
color#ffffffff
 62
256
370
-1
  6
BYLAYER
 10
3.5331070386105798
 20
1.9438005907785185
 30
0.0
 11
3.5419230854403456
 21
1.9085907357563974
 31
0.0
  0
LINE
  5
214
100
AcDbEntity
100
AcDbLine
  8
color#ffffffff
 62
256
370
-1
  6
BYLAYER
 10
3.5419230854403456
 20
1.9085907357563974
 30
0.0
 11
3.5486386232266174
 21
1.8729026935385593
 31
0.0
  0
LINE
  5
215
100
AcDbEntity
100
AcDbLine
  8
color#ffffffff
 62
256
370
-1
  6
BYLAYER
 10
3.5486386232266174
 20
1.8729026935385593
 30
0.0
 11
3.5532004979411149
 21
1.8368451946096735
 31
0.0
  0
LINE
  5
216
100
AcDbEntity
100
AcDbLine
  8
color#ffffffff
 62
256
370
-1
  6
BYLAYER
 10
3.5532004979411149
 20
1.8368451946096735
 30
0.0
 11
3.5555555555555554
 21
1.8005269694544106
 31
0.0
  0
LINE
  5
217
100
AcDbEntity
100
AcDbLine
  8
color#ffffffff
 62
256
370
-1
  6
BYLAYER
 10
3.5555555555555554
 20
1.8005269694544106
 30
0.0
 11
3.5555555555555554
 21
1.753728167455527
 31
0.0
  0
LINE
  5
218
100
AcDbEntity
100
AcDbLine
  8
color#ffffffff
 62
256
370
-1
  6
BYLAYER
 10
3.5555555555555554
 20
1.753728167455527
 30
0.0
 11
3.5542363767337748
 21
1.7268101387993668
 31
0.0
  0
LINE
  5
219
100
AcDbEntity
100
AcDbLine
  8
color#ffffffff
 62
256
370
-1
  6
BYLAYER
 10
3.5542363767337748
 20
1.7268101387993668
 30
0.0
 11
3.5516400739630454
 21
1.7000632310368482
 31
0.0
  0
LINE
  5
21A
100
AcDbEntity
100
AcDbLine
  8
color#ffffffff
 62
256
370
-1
  6
BYLAYER
 10
3.5516400739630454
 20
1.7000632310368482
 30
0.0
 11
3.5477968614949904
 21
1.6735247309344912
 31
0.0
  0
LINE
  5
21B
100
AcDbEntity
100
AcDbLine
  8
color#ffffffff
 62
256
370
-1
  6
BYLAYER
 10
3.5477968614949904
 20
1.6735247309344912
 30
0.0
 11
3.5427369535812301
 21
1.6472319252588159
 31
0.0
  0
LINE
  5
21C
100
AcDbEntity
100
AcDbLine
  8
color#ffffffff
 62
256
370
-1
  6
BYLAYER
 10
3.5427369535812301
 20
1.6472319252588159
 30
0.0
 11
3.5364905644733873
 21
1.6212221007763417
 31
0.0
  0
LINE
  5
21D
100
AcDbEntity
100
AcDbLine
  8
color#ffffffff
 62
256
370
-1
  6
BYLAYER
 10
3.5364905644733873
 20
1.6212221007763417
 30
0.0
 11
3.5290879084230831
 21
1.595532544253589
 31
0.0
  0
LINE
  5
21E
100
AcDbEntity
100
AcDbLine
  8
color#ffffffff
 62
256
370
-1
  6
BYLAYER
 10
3.5290879084230831
 20
1.595532544253589
 30
0.0
 11
3.5205591996819399
 21
1.570200542457078
 31
0.0
  0
LINE
  5
21F
100
AcDbEntity
100
AcDbLine
  8
color#ffffffff
 62
256
370
-1
  6
BYLAYER
 10
3.5205591996819399
 20
1.570200542457078
 30
0.0
 11
3.5109346525015792
 21
1.5452633821533281
 31
0.0
  0
LINE
  5
220
100
AcDbEntity
100
AcDbLine
  8
color#ffffffff
 62
256
370
-1
  6
BYLAYER
 10
3.5109346525015792
 20
1.5452633821533281
 30
0.0
 11
3.5002444811336226
 21
1.5207583501088604
 31
0.0
  0
LINE
  5
221
100
AcDbEntity
100
AcDbLine
  8
color#ffffffff
 62
256
370
-1
  6
BYLAYER
 10
3.5002444811336226
 20
1.5207583501088604
 30
0.0
 11
3.4885188998296917
 21
1.4967227330901944
 31
0.0
  0
LINE
  5
222
100
AcDbEntity
100
AcDbLine
  8
color#ffffffff
 62
256
370
-1
  6
BYLAYER
 10
3.4885188998296917
 20
1.4967227330901944
 30
0.0
 11
3.4757881228414096
 21
1.47319381786385
 31
0.0
  0
LINE
  5
223
100
AcDbEntity
100
AcDbLine
  8
color#ffffffff
 62
256
370
-1
  6
BYLAYER
 10
3.4757881228414096
 20
1.47319381786385
 30
0.0
 11
3.4620823644203971
 21
1.4502088911963469
 31
0.0
  0
LINE
  5
224
100
AcDbEntity
100
AcDbLine
  8
color#ffffffff
 62
256
370
-1
  6
BYLAYER
 10
3.4620823644203971
 20
1.4502088911963469
 30
0.0
 11
3.4474318388182752
 21
1.427805239854206
 31
0.0
  0
LINE
  5
225
100
AcDbEntity
100
AcDbLine
  8
color#ffffffff
 62
256
370
-1
  6
BYLAYER
 10
3.4474318388182752
 20
1.427805239854206
 30
0.0
 11
3.4318667602866677
 21
1.406020150603946
 31
0.0
  0
LINE
  5
226
100
AcDbEntity
100
AcDbLine
  8
color#ffffffff
 62
256
370
-1
  6
BYLAYER
 10
3.4318667602866677
 20
1.406020150603946
 30
0.0
 11
3.4154173430771939
 21
1.3848909102120881
 31
0.0
  0
LINE
  5
227
100
AcDbEntity
100
AcDbLine
  8
color#ffffffff
 62
256
370
-1
  6
BYLAYER
 10
3.4154173430771939
 20
1.3848909102120881
 30
0.0
 11
3.3981138014414776
 21
1.3644548054451517
 31
0.0
  0
LINE
  5
228
100
AcDbEntity
100
AcDbLine
  8
color#ffffffff
 62
256
370
-1
  6
BYLAYER
 10
3.3981138014414776
 20
1.3644548054451517
 30
0.0
 11
3.3799863496311406
 21
1.3447491230696569
 31
0.0
  0
LINE
  5
229
100
AcDbEntity
100
AcDbLine
  8
color#ffffffff
 62
256
370
-1
  6
BYLAYER
 10
3.3799863496311406
 20
1.3447491230696569
 30
0.0
 11
3.361065201897802
 21
1.3258111498521248
 31
0.0
  0
LINE
  5
22A
100
AcDbEntity
100
AcDbLine
  8
color#ffffffff
 62
256
370
-1
  6
BYLAYER
 10
3.361065201897802
 20
1.3258111498521248
 30
0.0
 11
3.3413805724930867
 21
1.3076781725590736
 31
0.0
  0
LINE
  5
22B
100
AcDbEntity
100
AcDbLine
  8
color#ffffffff
 62
256
370
-1
  6
BYLAYER
 10
3.3413805724930867
 20
1.3076781725590736
 30
0.0
 11
3.3209626756686159
 21
1.2903874779570239
 31
0.0
  0
LINE
  5
22C
100
AcDbEntity
100
AcDbLine
  8
color#ffffffff
 62
256
370
-1
  6
BYLAYER
 10
3.3209626756686159
 20
1.2903874779570239
 30
0.0
 11
3.2998417256760093
 21
1.2739763528124972
 31
0.0
  0
LINE
  5
22D
100
AcDbEntity
100
AcDbLine
  8
color#ffffffff
 62
256
370
-1
  6
BYLAYER
 10
3.2998417256760093
 20
1.2739763528124972
 30
0.0
 11
3.2780479367668907
 21
1.2584820838920123
 31
0.0
  0
LINE
  5
22E
100
AcDbEntity
100
AcDbLine
  8
color#ffffffff
 62
256
370
-1
  6
BYLAYER
 10
3.2780479367668907
 20
1.2584820838920123
 30
0.0
 11
3.2556115231928824
 21
1.2439419579620881
 31
0.0
  0
LINE
  5
22F
100
AcDbEntity
100
AcDbLine
  8
color#ffffffff
 62
256
370
-1
  6
BYLAYER
 10
3.2556115231928824
 20
1.2439419579620881
 30
0.0
 11
3.2325626992056042
 21
1.2303932617892466
 31
0.0
  0
LINE
  5
230
100
AcDbEntity
100
AcDbLine
  8
color#ffffffff
 62
256
370
-1
  6
BYLAYER
 10
3.2325626992056042
 20
1.2303932617892466
 30
0.0
 11
3.2089316790566782
 21
1.2178732821400073
 31
0.0
  0
LINE
  5
231
100
AcDbEntity
100
AcDbLine
  8
color#ffffffff
 62
256
370
-1
  6
BYLAYER
 10
3.2089316790566782
 20
1.2178732821400073
 30
0.0
 11
3.1847486769977285
 21
1.2064193057808887
 31
0.0
  0
LINE
  5
232
100
AcDbEntity
100
AcDbLine
  8
color#ffffffff
 62
256
370
-1
  6
BYLAYER
 10
3.1847486769977285
 20
1.2064193057808887
 30
0.0
 11
3.1600439072803734
 21
1.1960686194784129
 31
0.0
  0
LINE
  5
233
100
AcDbEntity
100
AcDbLine
  8
color#ffffffff
 62
256
370
-1
  6
BYLAYER
 10
3.1600439072803734
 20
1.1960686194784129
 30
0.0
 11
3.1348475841562387
 21
1.186858509999098
 31
0.0
  0
LINE
  5
234
100
AcDbEntity
100
AcDbLine
  8
color#ffffffff
 62
256
370
-1
  6
BYLAYER
 10
3.1348475841562387
 20
1.186858509999098
 30
0.0
 11
3.1091899218769417
 21
1.1788262641094667
 31
0.0
  0
LINE
  5
235
100
AcDbEntity
100
AcDbLine
  8
color#ffffffff
 62
256
370
-1
  6
BYLAYER
 10
3.1091899218769417
 20
1.1788262641094667
 30
0.0
 11
3.0902278853777352
 21
1.1733022000368791
 31
0.0
  0
LINE
  5
236
100
AcDbEntity
100
AcDbLine
  8
color#ffffffff
 62
256
370
-1
  6
BYLAYER
 10
3.0902278853777352
 20
1.1733022000368791
 30
0.0
 11
3.0711225092205683
 21
1.1684492662261878
 31
0.0
  0
LINE
  5
237
100
AcDbEntity
100
AcDbLine
  8
color#ffffffff
 62
256
370
-1
  6
BYLAYER
 10
3.0711225092205683
 20
1.1684492662261878
 30
0.0
 11
3.051891580414702
 21
1.164261624782768
 31
0.0
  0
LINE
  5
238
100
AcDbEntity
100
AcDbLine
  8
color#ffffffff
 62
256
370
-1
  6
BYLAYER
 10
3.051891580414702
 20
1.164261624782768
 30
0.0
 11
3.0325528859693969
 21
1.160733437811994
 31
0.0
  0
LINE
  5
239
100
AcDbEntity
100
AcDbLine
  8
color#ffffffff
 62
256
370
-1
  6
BYLAYER
 10
3.0325528859693969
 20
1.160733437811994
 30
0.0
 11
3.0131242128939166
 21
1.1578588674192412
 31
0.0
  0
LINE
  5
23A
100
AcDbEntity
100
AcDbLine
  8
color#ffffffff
 62
256
370
-1
  6
BYLAYER
 10
3.0131242128939166
 20
1.1578588674192412
 30
0.0
 11
2.9936233481975205
 21
1.1556320757098848
 31
0.0
  0
LINE
  5
23B
100
AcDbEntity
100
AcDbLine
  8
color#ffffffff
 62
256
370
-1
  6
BYLAYER
 10
2.9936233481975205
 20
1.1556320757098848
 30
0.0
 11
2.9740680788894704
 21
1.1540472247893006
 31
0.0
  0
LINE
  5
23C
100
AcDbEntity
100
AcDbLine
  8
color#ffffffff
 62
256
370
-1
  6
BYLAYER
 10
2.9740680788894704
 20
1.1540472247893006
 30
0.0
 11
2.9544761919790283
 21
1.1530984767628627
 31
0.0
  0
LINE
  5
23D
100
AcDbEntity
100
AcDbLine
  8
color#ffffffff
 62
256
370
-1
  6
BYLAYER
 10
2.9544761919790283
 20
1.1530984767628627
 30
0.0
 11
2.9348654744754552
 21
1.1527799937359466
 31
0.0
  0
LINE
  5
23E
100
AcDbEntity
100
AcDbLine
  8
color#ffffffff
 62
256
370
-1
  6
BYLAYER
 10
2.9348654744754552
 20
1.1527799937359466
 30
0.0
 11
2.8956586957259618
 21
1.1540104711021801
 31
0.0
  0
LINE
  5
23F
100
AcDbEntity
100
AcDbLine
  8
color#ffffffff
 62
256
370
-1
  6
BYLAYER
 10
2.8956586957259618
 20
1.1540104711021801
 30
0.0
 11
2.8565900387150815
 21
1.1576919537310022
 31
0.0
  0
LINE
  5
240
100
AcDbEntity
100
AcDbLine
  8
color#ffffffff
 62
256
370
-1
  6
BYLAYER
 10
2.8565900387150815
 20
1.1576919537310022
 30
0.0
 11
2.8178017995169058
 21
1.1637777384654138
 31
0.0
  0
LINE
  5
241
100
AcDbEntity
100
AcDbLine
  8
color#ffffffff
 62
256
370
-1
  6
BYLAYER
 10
2.8178017995169058
 20
1.1637777384654138
 30
0.0
 11
2.7794362742055259
 21
1.1722211221484153
 31
0.0
  0
LINE
  5
242
100
AcDbEntity
100
AcDbLine
  8
color#ffffffff
 62
256
370
-1
  6
BYLAYER
 10
2.7794362742055259
 20
1.1722211221484153
 30
0.0
 11
2.7416357588550309
 21
1.1829754016230081
 31
0.0
  0
LINE
  5
243
100
AcDbEntity
100
AcDbLine
  8
color#ffffffff
 62
256
370
-1
  6
BYLAYER
 10
2.7416357588550309
 20
1.1829754016230081
 30
0.0
 11
2.7045425495395157
 21
1.1959938737321929
 31
0.0
  0
LINE
  5
244
100
AcDbEntity
100
AcDbLine
  8
color#ffffffff
 62
256
370
-1
  6
BYLAYER
 10
2.7045425495395157
 20
1.1959938737321929
 30
0.0
 11
2.6682989423330685
 21
1.2112298353189703
 31
0.0
  0
LINE
  5
245
100
AcDbEntity
100
AcDbLine
  8
color#ffffffff
 62
256
370
-1
  6
BYLAYER
 10
2.6682989423330685
 20
1.2112298353189703
 30
0.0
 11
2.6330472333097803
 21
1.2286365832263431
 31
0.0
  0
LINE
  5
246
100
AcDbEntity
100
AcDbLine
  8
color#ffffffff
 62
256
370
-1
  6
BYLAYER
 10
2.6330472333097803
 20
1.2286365832263431
 30
0.0
 11
2.5989297185437454
 21
1.2481674142973089
 31
0.0
  0
LINE
  5
247
100
AcDbEntity
100
AcDbLine
  8
color#ffffffff
 62
256
370
-1
  6
BYLAYER
 10
2.5989297185437454
 20
1.2481674142973089
 30
0.0
 11
2.5660886941090522
 21
1.2697756253748709
 31
0.0
  0
LINE
  5
248
100
AcDbEntity
100
AcDbLine
  8
color#ffffffff
 62
256
370
-1
  6
BYLAYER
 10
2.5660886941090522
 20
1.2697756253748709
 30
0.0
 11
2.6792199823083078
 21
1.3855155806535084
 31
0.0
  0
LINE
  5
249
100
AcDbEntity
100
AcDbLine
  8
color#ffffffff
 62
256
370
-1
  6
BYLAYER
 10
2.6792199823083078
 20
1.3855155806535084
 30
0.0
 11
2.7043175525262084
 21
1.371288394227294
 31
0.0
  0
LINE
  5
24A
100
AcDbEntity
100
AcDbLine
  8
color#ffffffff
 62
256
370
-1
  6
BYLAYER
 10
2.7043175525262084
 20
1.371288394227294
 30
0.0
 11
2.7434349967518918
 21
1.3526654054072904
 31
0.0
  0
LINE
  5
24B
100
AcDbEntity
100
AcDbLine
  8
color#ffffffff
 62
256
370
-1
  6
BYLAYER
 10
2.7434349967518918
 20
1.3526654054072904
 30
0.0
 11
2.7840227031790725
 21
1.3374392500049268
 31
0.0
  0
LINE
  5
24C
100
AcDbEntity
100
AcDbLine
  8
color#ffffffff
 62
256
370
-1
  6
BYLAYER
 10
2.7840227031790725
 20
1.3374392500049268
 30
0.0
 11
2.8257487467710112
 21
1.3257623480089689
 31
0.0
  0
LINE
  5
24D
100
AcDbEntity
100
AcDbLine
  8
color#ffffffff
 62
256
370
-1
  6
BYLAYER
 10
2.8257487467710112
 20
1.3257623480089689
 30
0.0
 11
2.8682812024909681
 21
1.3177871194081829
 31
0.0
  0
LINE
  5
24E
100
AcDbEntity
100
AcDbLine
  8
color#ffffffff
 62
256
370
-1
  6
BYLAYER
 10
2.8682812024909681
 20
1.3177871194081829
 30
0.0
 11
2.9112881453022044
 21
1.3136659841913345
 31
0.0
  0
LINE
  5
24F
100
AcDbEntity
100
AcDbLine
  8
color#ffffffff
 62
256
370
-1
  6
BYLAYER
 10
2.9112881453022044
 20
1.3136659841913345
 30
0.0
 11
2.9400591308509032
 21
1.3131349928347684
 31
0.0
  0
LINE
  5
250
100
AcDbEntity
100
AcDbLine
  8
color#ffffffff
 62
256
370
-1
  6
BYLAYER
 10
2.9400591308509032
 20
1.3131349928347684
 30
0.0
 11
2.9687951291536976
 21
1.3144298355664448
 31
0.0
  0
LINE
  5
251
100
AcDbEntity
100
AcDbLine
  8
color#ffffffff
 62
256
370
-1
  6
BYLAYER
 10
2.9687951291536976
 20
1.3144298355664448
 30
0.0
 11
2.9973977920515527
 21
1.3175956738645174
 31
0.0
  0
LINE
  5
252
100
AcDbEntity
100
AcDbLine
  8
color#ffffffff
 62
256
370
-1
  6
BYLAYER
 10
2.9973977920515527
 20
1.3175956738645174
 30
0.0
 11
3.0257687713854335
 21
1.3226776692071407
 31
0.0
  0
LINE
  5
253
100
AcDbEntity
100
AcDbLine
  8
color#ffffffff
 62
256
370
-1
  6
BYLAYER
 10
3.0257687713854335
 20
1.3226776692071407
 30
0.0
 11
3.0538097189963076
 21
1.3297209830724646
 31
0.0
  0
LINE
  5
254
100
AcDbEntity
100
AcDbLine
  8
color#ffffffff
 62
256
370
-1
  6
BYLAYER
 10
3.0538097189963076
 20
1.3297209830724646
 30
0.0
 11
3.0814222867251408
 21
1.3387707769386443
 31
0.0
  0
LINE
  5
255
100
AcDbEntity
100
AcDbLine
  8
color#ffffffff
 62
256
370
-1
  6
BYLAYER
 10
3.0814222867251408
 20
1.3387707769386443
 30
0.0
 11
3.0978262494457924
 21
1.3446991699965014
 31
0.0
  0
LINE
  5
256
100
AcDbEntity
100
AcDbLine
  8
color#ffffffff
 62
256
370
-1
  6
BYLAYER
 10
3.0978262494457924
 20
1.3446991699965014
 30
0.0
 11
3.113961581853268
 21
1.3512750170853769
 31
0.0
  0
LINE
  5
257
100
AcDbEntity
100
AcDbLine
  8
color#ffffffff
 62
256
370
-1
  6
BYLAYER
 10
3.113961581853268
 20
1.3512750170853769
 30
0.0
 11
3.129812245060057
 21
1.3584802929244286
 31
0.0
  0
LINE
  5
258
100
AcDbEntity
100
AcDbLine
  8
color#ffffffff
 62
256
370
-1
  6
BYLAYER
 10
3.129812245060057
 20
1.3584802929244286
 30
0.0
 11
3.1453622001786474
 21
1.3662969722328115
 31
0.0
  0
LINE
  5
259
100
AcDbEntity
100
AcDbLine
  8
color#ffffffff
 62
256
370
-1
  6
BYLAYER
 10
3.1453622001786474
 20
1.3662969722328115
 30
0.0
 11
3.1605954083215284
 21
1.3747070297296824
 31
0.0
  0
LINE
  5
25A
100
AcDbEntity
100
AcDbLine
  8
color#ffffffff
 62
256
370
-1
  6
BYLAYER
 10
3.1605954083215284
 20
1.3747070297296824
 30
0.0
 11
3.1754958306011885
 21
1.3836924401341979
 31
0.0
  0
LINE
  5
25B
100
AcDbEntity
100
AcDbLine
  8
color#ffffffff
 62
256
370
-1
  6
BYLAYER
 10
3.1754958306011885
 20
1.3836924401341979
 30
0.0
 11
3.1900474281301161
 21
1.393235178165513
 31
0.0
  0
LINE
  5
25C
100
AcDbEntity
100
AcDbLine
  8
color#ffffffff
 62
256
370
-1
  6
BYLAYER
 10
3.1900474281301161
 20
1.393235178165513
 30
0.0
 11
3.2042341620208004
 21
1.4033172185427856
 31
0.0
  0
LINE
  5
25D
100
AcDbEntity
100
AcDbLine
  8
color#ffffffff
 62
256
370
-1
  6
BYLAYER
 10
3.2042341620208004
 20
1.4033172185427856
 30
0.0
 11
3.2180399933857289
 21
1.4139205359851712
 31
0.0
  0
LINE
  5
25E
100
AcDbEntity
100
AcDbLine
  8
color#ffffffff
 62
256
370
-1
  6
BYLAYER
 10
3.2180399933857289
 20
1.4139205359851712
 30
0.0
 11
3.2314488833373911
 21
1.4250271052118266
 31
0.0
  0
LINE
  5
25F
100
AcDbEntity
100
AcDbLine
  8
color#ffffffff
 62
256
370
-1
  6
BYLAYER
 10
3.2314488833373911
 20
1.4250271052118266
 30
0.0
 11
3.244444792988276
 21
1.4366189009419068
 31
0.0
  0
LINE
  5
260
100
AcDbEntity
100
AcDbLine
  8
color#ffffffff
 62
256
370
-1
  6
BYLAYER
 10
3.244444792988276
 20
1.4366189009419068
 30
0.0
 11
3.2570116834508713
 21
1.4486778978945694
 31
0.0
  0
LINE
  5
261
100
AcDbEntity
100
AcDbLine
  8
color#ffffffff
 62
256
370
-1
  6
BYLAYER
 10
3.2570116834508713
 20
1.4486778978945694
 30
0.0
 11
3.2691335158376664
 21
1.4611860707889699
 31
0.0
  0
LINE
  5
262
100
AcDbEntity
100
AcDbLine
  8
color#ffffffff
 62
256
370
-1
  6
BYLAYER
 10
3.2691335158376664
 20
1.4611860707889699
 30
0.0
 11
3.2807942512611503
 21
1.4741253943442654
 31
0.0
  0
LINE
  5
263
100
AcDbEntity
100
AcDbLine
  8
color#ffffffff
 62
256
370
-1
  6
BYLAYER
 10
3.2807942512611503
 20
1.4741253943442654
 30
0.0
 11
3.2919778508338102
 21
1.487477843279611
 31
0.0
  0
LINE
  5
264
100
AcDbEntity
100
AcDbLine
  8
color#ffffffff
 62
256
370
-1
  6
BYLAYER
 10
3.2919778508338102
 20
1.487477843279611
 30
0.0
 11
3.3026682756681347
 21
1.5012253923141641
 31
0.0
  0
LINE
  5
265
100
AcDbEntity
100
AcDbLine
  8
color#ffffffff
 62
256
370
-1
  6
BYLAYER
 10
3.3026682756681347
 20
1.5012253923141641
 30
0.0
 11
3.312849486876615
 21
1.5153500161670803
 31
0.0
  0
LINE
  5
266
100
AcDbEntity
100
AcDbLine
  8
color#ffffffff
 62
256
370
-1
  6
BYLAYER
 10
3.312849486876615
 20
1.5153500161670803
 30
0.0
 11
3.3225054455717364
 21
1.5298336895575169
 31
0.0
  0
LINE
  5
267
100
AcDbEntity
100
AcDbLine
  8
color#ffffffff
 62
256
370
-1
  6
BYLAYER
 10
3.3225054455717364
 20
1.5298336895575169
 30
0.0
 11
3.3316201128659899
 21
1.5446583872046291
 31
0.0
  0
LINE
  5
268
100
AcDbEntity
100
AcDbLine
  8
color#ffffffff
 62
256
370
-1
  6
BYLAYER
 10
3.3316201128659899
 20
1.5446583872046291
 30
0.0
 11
3.3401774498718639
 21
1.5598060838275731
 31
0.0
  0
LINE
  5
269
100
AcDbEntity
100
AcDbLine
  8
color#ffffffff
 62
256
370
-1
  6
BYLAYER
 10
3.3401774498718639
 20
1.5598060838275731
 30
0.0
 11
3.3481614177018457
 21
1.5752587541455061
 31
0.0
  0
LINE
  5
26A
100
AcDbEntity
100
AcDbLine
  8
color#ffffffff
 62
256
370
-1
  6
BYLAYER
 10
3.3481614177018457
 20
1.5752587541455061
 30
0.0
 11
3.3555559774684243
 21
1.5909983728775847
 31
0.0
  0
LINE
  5
26B
100
AcDbEntity
100
AcDbLine
  8
color#ffffffff
 62
256
370
-1
  6
BYLAYER
 10
3.3555559774684243
 20
1.5909983728775847
 30
0.0
 11
3.3623450902840899
 21
1.6070069147429631
 31
0.0
  0
LINE
  5
26C
100
AcDbEntity
100
AcDbLine
  8
color#ffffffff
 62
256
370
-1
  6
BYLAYER
 10
3.3623450902840899
 20
1.6070069147429631
 30
0.0
 11
3.3685127172613303
 21
1.6232663544607995
 31
0.0
  0
LINE
  5
26D
100
AcDbEntity
100
AcDbLine
  8
color#ffffffff
 62
256
370
-1
  6
BYLAYER
 10
3.3685127172613303
 20
1.6232663544607995
 30
0.0
 11
3.3740428195126322
 21
1.6397586667502497
 31
0.0
  0
LINE
  5
26E
100
AcDbEntity
100
AcDbLine
  8
color#ffffffff
 62
256
370
-1
  6
BYLAYER
 10
3.3740428195126322
 20
1.6397586667502497
 30
0.0
 11
3.3789193581504886
 21
1.656465826330469
 31
0.0
  0
LINE
  5
26F
100
AcDbEntity
100
AcDbLine
  8
color#ffffffff
 62
256
370
-1
  6
BYLAYER
 10
3.3789193581504886
 20
1.656465826330469
 30
0.0
 11
3.3831262942873832
 21
1.6733698079206154
 31
0.0
  0
LINE
  5
270
100
AcDbEntity
100
AcDbLine
  8
color#ffffffff
 62
256
370
-1
  6
BYLAYER
 10
3.3831262942873832
 20
1.6733698079206154
 30
0.0
 11
3.3866475890358085
 21
1.6904525862398441
 31
0.0
  0
LINE
  5
271
100
AcDbEntity
100
AcDbLine
  8
color#ffffffff
 62
256
370
-1
  6
BYLAYER
 10
3.3866475890358085
 20
1.6904525862398441
 30
0.0
 11
3.3894672035082496
 21
1.7076961360073117
 31
0.0
  0
LINE
  5
272
100
AcDbEntity
100
AcDbLine
  8
color#ffffffff
 62
256
370
-1
  6
BYLAYER
 10
3.3894672035082496
 20
1.7076961360073117
 30
0.0
 11
3.3916279459346979
 21
1.8170762536245699
 31
0.0
  0
LINE
  5
273
100
AcDbEntity
100
AcDbLine
  8
color#ffffffff
 62
256
370
-1
  6
BYLAYER
 10
3.3916279459346979
 20
1.8170762536245699
 30
0.0
 11
3.3619179971366715
 21
1.9480134462108849
 31
0.0
  0
LINE
  5
274
100
AcDbEntity
100
AcDbLine
  8
color#ffffffff
 62
256
370
-1
  6
BYLAYER
 10
3.3619179971366715
 20
1.9480134462108849
 30
0.0
 11
3.3559735802145334
 21
1.9622743092924051
 31
0.0
  0
LINE
  5
275
100
AcDbEntity
100
AcDbLine
  8
color#ffffffff
 62
256
370
-1
  6
BYLAYER
 10
3.3559735802145334
 20
1.9622743092924051
 30
0.0
 11
3.3426325165261423
 21
1.9900968413794979
 31
0.0
  0
LINE
  5
276
100
AcDbEntity
100
AcDbLine
  8
color#ffffffff
 62
256
370
-1
  6
BYLAYER
 10
3.3426325165261423
 20
1.9900968413794979
 30
0.0
 11
3.3274360021742648
 21
2.0169137956298373
 31
0.0
  0
LINE
  5
277
100
AcDbEntity
100
AcDbLine
  8
color#ffffffff
 62
256
370
-1
  6
BYLAYER
 10
3.3274360021742648
 20
2.0169137956298373
 30
0.0
 11
3.3104810641133025
 21
2.042637189160835
 31
0.0
  0
LINE
  5
278
100
AcDbEntity
100
AcDbLine
  8
color#ffffffff
 62
256
370
-1
  6
BYLAYER
 10
3.3104810641133025
 20
2.042637189160835
 30
0.0
 11
3.2918647292976568
 21
2.0671790390899041
 31
0.0
  0
LINE
  5
279
100
AcDbEntity
100
AcDbLine
  8
color#ffffffff
 62
256
370
-1
  6
BYLAYER
 10
3.2918647292976568
 20
2.0671790390899041
 30
0.0
 11
3.2716840246817274
 21
2.0904513625344556
 31
0.0
  0
LINE
  5
27A
100
AcDbEntity
100
AcDbLine
  8
color#ffffffff
 62
256
370
-1
  6
BYLAYER
 10
3.2716840246817274
 20
2.0904513625344556
 30
0.0
 11
3.2500359772199161
 21
2.1123661766119017
 31
0.0
  0
LINE
  5
27B
100
AcDbEntity
100
AcDbLine
  8
color#ffffffff
 62
256
370
-1
  6
BYLAYER
 10
3.2500359772199161
 20
2.1123661766119017
 30
0.0
 11
3.2270176138666242
 21
2.1328354984396549
 31
0.0
  0
LINE
  5
27C
100
AcDbEntity
100
AcDbLine
  8
color#ffffffff
 62
256
370
-1
  6
BYLAYER
 10
3.2270176138666242
 20
2.1328354984396549
 30
0.0
 11
3.2027259615762524
 21
2.1517713451351264
 31
0.0
  0
LINE
  5
27D
100
AcDbEntity
100
AcDbLine
  8
color#ffffffff
 62
256
370
-1
  6
BYLAYER
 10
3.2027259615762524
 20
2.1517713451351264
 30
0.0
 11
3.1772580473031993
 21
2.1690857338157294
 31
0.0
  0
LINE
  5
27E
100
AcDbEntity
100
AcDbLine
  8
color#ffffffff
 62
256
370
-1
  6
BYLAYER
 10
3.1772580473031993
 20
2.1690857338157294
 30
0.0
 11
3.1507108980018694
 21
2.1846906815988749
 31
0.0
  0
LINE
  5
27F
100
AcDbEntity
100
AcDbLine
  8
color#ffffffff
 62
256
370
-1
  6
BYLAYER
 10
3.1507108980018694
 20
2.1846906815988749
 30
0.0
 11
3.1231815406266619
 21
2.1984982056019748
 31
0.0
  0
LINE
  5
280
100
AcDbEntity
100
AcDbLine
  8
color#ffffffff
 62
256
370
-1
  6
BYLAYER
 10
3.1231815406266619
 20
2.1984982056019748
 30
0.0
 11
3.0947670021319764
 21
2.2104203229424417
 31
0.0
  0
LINE
  5
281
100
AcDbEntity
100
AcDbLine
  8
color#ffffffff
 62
256
370
-1
  6
BYLAYER
 10
3.0947670021319764
 20
2.2104203229424417
 30
0.0
 11
3.0655643094722169
 21
2.2203690507376876
 31
0.0
  0
LINE
  5
282
100
AcDbEntity
100
AcDbLine
  8
color#ffffffff
 62
256
370
-1
  6
BYLAYER
 10
3.0655643094722169
 20
2.2203690507376876
 30
0.0
 11
3.0356704896017823
 21
2.2282564061051238
 31
0.0
  0
LINE
  5
283
100
AcDbEntity
100
AcDbLine
  8
color#ffffffff
 62
256
370
-1
  6
BYLAYER
 10
3.0356704896017823
 20
2.2282564061051238
 30
0.0
 11
3.0131780705482125
 21
2.2333970034143187
 31
0.0
  0
LINE
  5
284
100
AcDbEntity
100
AcDbLine
  8
color#ffffffff
 62
256
370
-1
  6
BYLAYER
 10
3.0131780705482125
 20
2.2333970034143187
 30
0.0
 11
2.9905526465340584
 21
2.2372280274083791
 31
0.0
  0
LINE
  5
285
100
AcDbEntity
100
AcDbLine
  8
color#ffffffff
 62
256
370
-1
  6
BYLAYER
 10
2.9905526465340584
 20
2.2372280274083791
 30
0.0
 11
2.967840781789238
 21
2.2397766301853395
 31
0.0
  0
LINE
  5
286
100
AcDbEntity
100
AcDbLine
  8
color#ffffffff
 62
256
370
-1
  6
BYLAYER
 10
2.967840781789238
 20
2.2397766301853395
 30
0.0
 11
2.9450890405436669
 21
2.2410699638432363
 31
0.0
  0
LINE
  5
287
100
AcDbEntity
100
AcDbLine
  8
color#ffffffff
 62
256
370
-1
  6
BYLAYER
 10
2.9450890405436669
 20
2.2410699638432363
 30
0.0
 11
2.9223439870272632
 21
2.2411351804801032
 31
0.0
  0
LINE
  5
288
100
AcDbEntity
100
AcDbLine
  8
color#ffffffff
 62
256
370
-1
  6
BYLAYER
 10
2.9223439870272632
 20
2.2411351804801032
 30
0.0
 11
2.8996521854699426
 21
2.2399994321939762
 31
0.0
  0
LINE
  5
289
100
AcDbEntity
100
AcDbLine
  8
color#ffffffff
 62
256
370
-1
  6
BYLAYER
 10
2.8996521854699426
 20
2.2399994321939762
 30
0.0
 11
2.8770602001016226
 21
2.2376898710828899
 31
0.0
  0
LINE
  5
28A
100
AcDbEntity
100
AcDbLine
  8
color#ffffffff
 62
256
370
-1
  6
BYLAYER
 10
2.8770602001016226
 20
2.2376898710828899
 30
0.0
 11
2.8546145951522206
 21
2.2342336492448789
 31
0.0
  0
LINE
  5
28B
100
AcDbEntity
100
AcDbLine
  8
color#ffffffff
 62
256
370
-1
  6
BYLAYER
 10
2.8546145951522206
 20
2.2342336492448789
 30
0.0
 11
2.8323619348516518
 21
2.2296579187779786
 31
0.0
  0
LINE
  5
28C
100
AcDbEntity
100
AcDbLine
  8
color#ffffffff
 62
256
370
-1
  6
BYLAYER
 10
2.8323619348516518
 20
2.2296579187779786
 30
0.0
 11
2.8103487834298342
 21
2.2239898317802247
 31
0.0
  0
LINE
  5
28D
100
AcDbEntity
100
AcDbLine
  8
color#ffffffff
 62
256
370
-1
  6
BYLAYER
 10
2.8103487834298342
 20
2.2239898317802247
 30
0.0
 11
2.7886217051166846
 21
2.2172565403496503
 31
0.0
  0
LINE
  5
28E
100
AcDbEntity
100
AcDbLine
  8
color#ffffffff
 62
256
370
-1
  6
BYLAYER
 10
2.7886217051166846
 20
2.2172565403496503
 30
0.0
 11
2.7672272641421198
 21
2.2094851965842923
 31
0.0
  0
LINE
  5
28F
100
AcDbEntity
100
AcDbLine
  8
color#ffffffff
 62
256
370
-1
  6
BYLAYER
 10
2.7672272641421198
 20
2.2094851965842923
 30
0.0
 11
2.7462120247360566
 21
2.2007029525821853
 31
0.0
  0
LINE
  5
290
100
AcDbEntity
100
AcDbLine
  8
color#ffffffff
 62
256
370
-1
  6
BYLAYER
 10
2.7462120247360566
 20
2.2007029525821853
 30
0.0
 11
2.7256225511284118
 21
2.1909369604413635
 31
0.0
  0
LINE
  5
291
100
AcDbEntity
100
AcDbLine
  8
color#ffffffff
 62
256
370
-1
  6
BYLAYER
 10
2.7256225511284118
 20
2.1909369604413635
 30
0.0
 11
2.7055054075491025
 21
2.1802143722598624
 31
0.0
  0
LINE
  5
292
100
AcDbEntity
100
AcDbLine
  8
color#ffffffff
 62
256
370
-1
  6
BYLAYER
 10
2.7055054075491025
 20
2.1802143722598624
 30
0.0
 11
2.6859071582280456
 21
2.1685623401357175
 31
0.0
  0
LINE
  5
293
100
AcDbEntity
100
AcDbLine
  8
color#ffffffff
 62
256
370
-1
  6
BYLAYER
 10
2.6859071582280456
 20
2.1685623401357175
 30
0.0
 11
2.6668743673951578
 21
2.1560080161669628
 31
0.0
  0
LINE
  5
294
100
AcDbEntity
100
AcDbLine
  8
color#ffffffff
 62
256
370
-1
  6
BYLAYER
 10
2.6668743673951578
 20
2.1560080161669628
 30
0.0
 11
2.6484535992803542
 21
2.1425785524516345
 31
0.0
  0
LINE
  5
295
100
AcDbEntity
100
AcDbLine
  8
color#ffffffff
 62
256
370
-1
  6
BYLAYER
 10
2.6484535992803542
 20
2.1425785524516345
 30
0.0
 11
2.630691418113555
 21
2.1283011010877675
 31
0.0
  0
LINE
  5
296
100
AcDbEntity
100
AcDbLine
  8
color#ffffffff
 62
256
370
-1
  6
BYLAYER
 10
2.630691418113555
 20
2.1283011010877675
 30
0.0
 11
2.6136343881246749
 21
2.1132028141733952
 31
0.0
  0
LINE
  5
297
100
AcDbEntity
100
AcDbLine
  8
color#ffffffff
 62
256
370
-1
  6
BYLAYER
 10
2.6136343881246749
 20
2.1132028141733952
 30
0.0
 11
2.597329073543631
 21
2.0973108438065546
 31
0.0
  0
LINE
  5
298
100
AcDbEntity
100
AcDbLine
  8
color#ffffffff
 62
256
370
-1
  6
BYLAYER
 10
2.597329073543631
 20
2.0973108438065546
 30
0.0
 11
2.5818220386003397
 21
2.0806523420852798
 31
0.0
  0
LINE
  5
299
100
AcDbEntity
100
AcDbLine
  8
color#ffffffff
 62
256
370
-1
  6
BYLAYER
 10
2.5818220386003397
 20
2.0806523420852798
 30
0.0
 11
2.5671598475247199
 21
2.0632544611076056
 31
0.0
  0
LINE
  5
29A
100
AcDbEntity
100
AcDbLine
  8
color#ffffffff
 62
256
370
-1
  6
BYLAYER
 10
2.5671598475247199
 20
2.0632544611076056
 30
0.0
 11
2.5533890645466868
 21
2.0451443529715672
 31
0.0
  0
LINE
  5
29B
100
AcDbEntity
100
AcDbLine
  8
color#ffffffff
 62
256
370
-1
  6
BYLAYER
 10
2.5533890645466868
 20
2.0451443529715672
 30
0.0
 11
2.540556253896157
 21
2.0263491697751999
 31
0.0
  0
LINE
  5
29C
100
AcDbEntity
100
AcDbLine
  8
color#ffffffff
 62
256
370
-1
  6
BYLAYER
 10
2.540556253896157
 20
2.0263491697751999
 30
0.0
 11
2.5287079798030487
 21
2.0068960636165381
 31
0.0
  0
LINE
  5
29D
100
AcDbEntity
100
AcDbLine
  8
color#ffffffff
 62
256
370
-1
  6
BYLAYER
 10
2.5287079798030487
 20
2.0068960636165381
 30
0.0
 11
2.5178908064972765
 21
1.9868121865936175
 31
0.0
  0
LINE
  5
29E
100
AcDbEntity
100
AcDbLine
  8
color#ffffffff
 62
256
370
-1
  6
BYLAYER
 10
2.5178908064972765
 20
1.9868121865936175
 30
0.0
 11
2.5081512982087606
 21
1.9661246908044727
 31
0.0
  0
LINE
  5
29F
100
AcDbEntity
100
AcDbLine
  8
color#ffffffff
 62
256
370
-1
  6
BYLAYER
 10
2.5081512982087606
 20
1.9661246908044727
 30
0.0
 11
2.4995360191674143
 21
1.9448607283471395
 31
0.0
  0
LINE
  5
2A0
100
AcDbEntity
100
AcDbLine
  8
color#ffffffff
 62
256
370
-1
  6
BYLAYER
 10
2.4995360191674143
 20
1.9448607283471395
 30
0.0
 11
2.4896864784148396
 21
1.917294793618038
 31
0.0
  0
LINE
  5
2A1
100
AcDbEntity
100
AcDbLine
  8
color#ffffffff
 62
256
370
-1
  6
BYLAYER
 10
2.4896864784148396
 20
1.917294793618038
 30
0.0
 11
2.4817138900307438
 21
1.8892038819015857
 31
0.0
  0
LINE
  5
2A2
100
AcDbEntity
100
AcDbLine
  8
color#ffffffff
 62
256
370
-1
  6
BYLAYER
 10
2.4817138900307438
 20
1.8892038819015857
 30
0.0
 11
2.4755993442777617
 21
1.8606941127326426
 31
0.0
  0
LINE
  5
2A3
100
AcDbEntity
100
AcDbLine
  8
color#ffffffff
 62
256
370
-1
  6
BYLAYER
 10
2.4755993442777617
 20
1.8606941127326426
 30
0.0
 11
2.4713239314185276
 21
1.831871605646066
 31
0.0
  0
LINE
  5
2A4
100
AcDbEntity
100
AcDbLine
  8
color#ffffffff
 62
256
370
-1
  6
BYLAYER
 10
2.4713239314185276
 20
1.831871605646066
 30
0.0
 11
2.4688687417156761
 21
1.8028424801767164
 31
0.0
  0
LINE
  5
2A5
100
AcDbEntity
100
AcDbLine
  8
color#ffffffff
 62
256
370
-1
  6
BYLAYER
 10
2.4688687417156761
 20
1.8028424801767164
 30
0.0
 11
2.4682148654318423
 21
1.7737128558594515
 31
0.0
  0
LINE
  5
2A6
100
AcDbEntity
100
AcDbLine
  8
color#ffffffff
 62
256
370
-1
  6
BYLAYER
 10
2.4682148654318423
 20
1.7737128558594515
 30
0.0
 11
2.4693433928296611
 21
1.7445888522291295
 31
0.0
  0
LINE
  5
2A7
100
AcDbEntity
100
AcDbLine
  8
color#ffffffff
 62
256
370
-1
  6
BYLAYER
 10
2.4693433928296611
 20
1.7445888522291295
 30
0.0
 11
2.4722354141717666
 21
1.7155765888206114
 31
0.0
  0
LINE
  5
2A8
100
AcDbEntity
100
AcDbLine
  8
color#ffffffff
 62
256
370
-1
  6
BYLAYER
 10
2.4722354141717666
 20
1.7155765888206114
 30
0.0
 11
2.4798386322799755
 21
1.672499843106217
 31
0.0
  0
LINE
  5
2A9
100
AcDbEntity
100
AcDbLine
  8
color#ffffffff
 62
256
370
-1
  6
BYLAYER
 10
2.4798386322799755
 20
1.672499843106217
 30
0.0
 11
2.487056658381825
 21
1.6442312032172124
 31
0.0
  0
LINE
  5
2AA
100
AcDbEntity
100
AcDbLine
  8
color#ffffffff
 62
256
370
-1
  6
BYLAYER
 10
2.487056658381825
 20
1.6442312032172124
 30
0.0
 11
2.4959719943471819
 21
1.616445721922017
 31
0.0
  0
LINE
  5
2AB
100
AcDbEntity
100
AcDbLine
  8
color#ffffffff
 62
256
370
-1
  6
BYLAYER
 10
2.4959719943471819
 20
1.616445721922017
 30
0.0
 11
2.5065657304386812
 21
1.5892495187554891
 31
0.0
  0
LINE
  5
2AC
100
AcDbEntity
100
AcDbLine
  8
color#ffffffff
 62
256
370
-1
  6
BYLAYER
 10
2.5065657304386812
 20
1.5892495187554891
 30
0.0
 11
2.5188189569189583
 21
1.5627487132524871
 31
0.0
  0
LINE
  5
2AD
100
AcDbEntity
100
AcDbLine
  8
color#ffffffff
 62
256
370
-1
  6
BYLAYER
 10
2.5188189569189583
 20
1.5627487132524871
 30
0.0
 11
2.5327127640506482
 21
1.5370494249478699
 31
0.0
  0
LINE
  5
2AE
100
AcDbEntity
100
AcDbLine
  8
color#ffffffff
 62
256
370
-1
  6
BYLAYER
 10
2.5327127640506482
 20
1.5370494249478699
 30
0.0
 11
2.4197646766678482
 21
1.4191776602157031
 31
0.0
  0
LINE
  5
2AF
100
AcDbEntity
100
AcDbLine
  8
color#ffffffff
 62
256
370
-1
  6
BYLAYER
 10
2.4197646766678482
 20
1.4191776602157031
 30
0.0
 11
2.4055453558930959
 21
1.4401755648476575
 31
0.0
  0
LINE
  5
2B0
100
AcDbEntity
100
AcDbLine
  8
color#ffffffff
 62
256
370
-1
  6
BYLAYER
 10
2.4055453558930959
 20
1.4401755648476575
 30
0.0
 11
2.3922867629786797
 21
1.4617362881876406
 31
0.0
  0
LINE
  5
2B1
100
AcDbEntity
100
AcDbLine
  8
color#ffffffff
 62
256
370
-1
  6
BYLAYER
 10
2.3922867629786797
 20
1.4617362881876406
 30
0.0
 11
2.3799907580553925
 21
1.483819673343395
 31
0.0
  0
LINE
  5
2B2
100
AcDbEntity
100
AcDbLine
  8
color#ffffffff
 62
256
370
-1
  6
BYLAYER
 10
2.3799907580553925
 20
1.483819673343395
 30
0.0
 11
2.3686592012540268
 21
1.5063855634226653
 31
0.0
  0
LINE
  5
2B3
100
AcDbEntity
100
AcDbLine
  8
color#ffffffff
 62
256
370
-1
  6
BYLAYER
 10
2.3686592012540268
 20
1.5063855634226653
 30
0.0
 11
2.3582939527053761
 21
1.5293938015331925
 31
0.0
  0
LINE
  5
2B4
100
AcDbEntity
100
AcDbLine
  8
color#ffffffff
 62
256
370
-1
  6
BYLAYER
 10
2.3582939527053761
 20
1.5293938015331925
 30
0.0
 11
2.3488968725402319
 21
1.5528042307827212
 31
0.0
  0
LINE
  5
2B5
100
AcDbEntity
100
AcDbLine
  8
color#ffffffff
 62
256
370
-1
  6
BYLAYER
 10
2.3488968725402319
 20
1.5528042307827212
 30
0.0
 11
2.3404698208893882
 21
1.5765766942789949
 31
0.0
  0
LINE
  5
2B6
100
AcDbEntity
100
AcDbLine
  8
color#ffffffff
 62
256
370
-1
  6
BYLAYER
 10
2.3404698208893882
 20
1.5765766942789949
 30
0.0
 11
2.3330146578836359
 21
1.6006710351297562
 31
0.0
  0
LINE
  5
2B7
100
AcDbEntity
100
AcDbLine
  8
color#ffffffff
 62
256
370
-1
  6
BYLAYER
 10
2.3330146578836359
 20
1.6006710351297562
 30
0.0
 11
2.3265332436537696
 21
1.6250470964427481
 31
0.0
  0
LINE
  5
2B8
100
AcDbEntity
100
AcDbLine
  8
color#ffffffff
 62
256
370
-1
  6
BYLAYER
 10
2.3265332436537696
 20
1.6250470964427481
 30
0.0
 11
2.3210274383305807
 21
1.6496647213257143
 31
0.0
  0
LINE
  5
2B9
100
AcDbEntity
100
AcDbLine
  8
color#ffffffff
 62
256
370
-1
  6
BYLAYER
 10
2.3210274383305807
 20
1.6496647213257143
 30
0.0
 11
2.3164991020448618
 21
1.6744837528863978
 31
0.0
  0
LINE
  5
2BA
100
AcDbEntity
100
AcDbLine
  8
color#ffffffff
 62
256
370
-1
  6
BYLAYER
 10
2.3164991020448618
 20
1.6744837528863978
 30
0.0
 11
2.3129500949274062
 21
1.6994640342325416
 31
0.0
  0
LINE
  5
2BB
100
AcDbEntity
100
AcDbLine
  8
color#ffffffff
 62
256
370
-1
  6
BYLAYER
 10
2.3129500949274062
 20
1.6994640342325416
 30
0.0
 11
2.3103822771090066
 21
1.7245654084718893
 31
0.0
  0
LINE
  5
2BC
100
AcDbEntity
100
AcDbLine
  8
color#ffffffff
 62
256
370
-1
  6
BYLAYER
 10
2.3103822771090066
 20
1.7245654084718893
 30
0.0
 11
2.3087975087204553
 21
1.7497477187121839
 31
0.0
  0
LINE
  5
2BD
100
AcDbEntity
100
AcDbLine
  8
color#ffffffff
 62
256
370
-1
  6
BYLAYER
 10
2.3087975087204553
 20
1.7497477187121839
 30
0.0
 11
2.3081976498925445
 21
1.7749708080611686
 31
0.0
  0
LINE
  5
2BE
100
AcDbEntity
100
AcDbLine
  8
color#ffffffff
 62
256
370
-1
  6
BYLAYER
 10
2.3081976498925445
 20
1.7749708080611686
 30
0.0
 11
2.308584560756068
 21
1.8001945196265865
 31
0.0
  0
LINE
  5
2BF
100
AcDbEntity
100
AcDbLine
  8
color#ffffffff
 62
256
370
-1
  6
BYLAYER
 10
2.308584560756068
 20
1.8001945196265865
 30
0.0
 11
2.3099601014418178
 21
1.8253786965161807
 31
0.0
  0
LINE
  5
2C0
100
AcDbEntity
100
AcDbLine
  8
color#ffffffff
 62
256
370
-1
  6
BYLAYER
 10
2.3099601014418178
 20
1.8253786965161807
 30
0.0
 11
2.3123261320805857
 21
1.8504831818376952
 31
0.0
  0
LINE
  5
2C1
100
AcDbEntity
100
AcDbLine
  8
color#ffffffff
 62
256
370
-1
  6
BYLAYER
 10
2.3123261320805857
 20
1.8504831818376952
 30
0.0
 11
2.3156845128031658
 21
1.8754678186988727
 31
0.0
  0
LINE
  5
2C2
100
AcDbEntity
100
AcDbLine
  8
color#ffffffff
 62
256
370
-1
  6
BYLAYER
 10
2.3156845128031658
 20
1.8754678186988727
 30
0.0
 11
2.3200371037403507
 21
1.9002924502074552
 31
0.0
  0
LINE
  5
2C3
100
AcDbEntity
100
AcDbLine
  8
color#ffffffff
 62
256
370
-1
  6
BYLAYER
 10
2.3200371037403507
 20
1.9002924502074552
 30
0.0
 11
2.3253857650229319
 21
1.9249169194711884
 31
0.0
  0
LINE
  5
2C4
100
AcDbEntity
100
AcDbLine
  8
color#ffffffff
 62
256
370
-1
  6
BYLAYER
 10
2.3253857650229319
 20
1.9249169194711884
 30
0.0
 11
2.3317323567817021
 21
1.9493010695978141
 31
0.0
  0
LINE
  5
2C5
100
AcDbEntity
100
AcDbLine
  8
color#ffffffff
 62
256
370
-1
  6
BYLAYER
 10
2.3317323567817021
 20
1.9493010695978141
 30
0.0
 11
2.3390787391474568
 21
1.9734047436950743
 31
0.0
  0
LINE
  5
2C6
100
AcDbEntity
100
AcDbLine
  8
color#ffffffff
 62
256
370
-1
  6
BYLAYER
 10
2.3390787391474568
 20
1.9734047436950743
 30
0.0
 11
2.3474267722509849
 21
1.997187784870714
 31
0.0
  0
LINE
  5
2C7
100
AcDbEntity
100
AcDbLine
  8
color#ffffffff
 62
256
370
-1
  6
BYLAYER
 10
2.3474267722509849
 20
1.997187784870714
 30
0.0
 11
2.35677831622308
 21
2.0206100362324761
 31
0.0
  0
LINE
  5
2C8
100
AcDbEntity
100
AcDbLine
  8
color#ffffffff
 62
256
370
-1
  6
BYLAYER
 10
2.35677831622308
 20
2.0206100362324761
 30
0.0
 11
2.3671352311945366
 21
2.0436313408881031
 31
0.0
  0
LINE
  5
2C9
100
AcDbEntity
100
AcDbLine
  8
color#ffffffff
 62
256
370
-1
  6
BYLAYER
 10
2.3671352311945366
 20
2.0436313408881031
 30
0.0
 11
2.378499377296146
 21
2.0662115419453388
 31
0.0
  0
LINE
  5
2CA
100
AcDbEntity
100
AcDbLine
  8
color#ffffffff
 62
256
370
-1
  6
BYLAYER
 10
2.378499377296146
 20
2.0662115419453388
 30
0.0
 11
2.3908726146587012
 21
2.0883104825119263
 31
0.0
  0
LINE
  5
2CB
100
AcDbEntity
100
AcDbLine
  8
color#ffffffff
 62
256
370
-1
  6
BYLAYER
 10
2.3908726146587012
 20
2.0883104825119263
 30
0.0
 11
2.4042568034129936
 21
2.1098880056956091
 31
0.0
  0
LINE
  5
2CC
100
AcDbEntity
100
AcDbLine
  8
color#ffffffff
 62
256
370
-1
  6
BYLAYER
 10
1.7908118357038205
 20
2.0145949995326511
 30
0.0
 11
1.9061589391961933
 21
2.1336746330908398
 31
0.0
  0
LINE
  5
2CD
100
AcDbEntity
100
AcDbLine
  8
color#ffffffff
 62
256
370
-1
  6
BYLAYER
 10
1.9061589391961933
 20
2.1336746330908398
 30
0.0
 11
1.9249272344093729
 21
2.1044786763991024
 31
0.0
  0
LINE
  5
2CE
100
AcDbEntity
100
AcDbLine
  8
color#ffffffff
 62
256
370
-1
  6
BYLAYER
 10
1.9249272344093729
 20
2.1044786763991024
 30
0.0
 11
1.9420966158075277
 21
2.074316274166851
 31
0.0
  0
LINE
  5
2CF
100
AcDbEntity
100
AcDbLine
  8
color#ffffffff
 62
256
370
-1
  6
BYLAYER
 10
1.9420966158075277
 20
2.074316274166851
 30
0.0
 11
1.9576271894298678
 21
2.0432818864514894
 31
0.0
  0
LINE
  5
2D0
100
AcDbEntity
100
AcDbLine
  8
color#ffffffff
 62
256
370
-1
  6
BYLAYER
 10
1.9576271894298678
 20
2.0432818864514894
 30
0.0
 11
1.9714790613156028
 21
2.0114699733104238
 31
0.0
  0
LINE
  5
2D1
100
AcDbEntity
100
AcDbLine
  8
color#ffffffff
 62
256
370
-1
  6
BYLAYER
 10
1.9714790613156028
 20
2.0114699733104238
 30
0.0
 11
1.9836123375039441
 21
1.9789749948010593
 31
0.0
  0
LINE
  5
2D2
100
AcDbEntity
100
AcDbLine
  8
color#ffffffff
 62
256
370
-1
  6
BYLAYER
 10
1.9836123375039441
 20
1.9789749948010593
 30
0.0
 11
1.9939871240341027
 21
1.9458914109808001
 31
0.0
  0
LINE
  5
2D3
100
AcDbEntity
100
AcDbLine
  8
color#ffffffff
 62
256
370
-1
  6
BYLAYER
 10
1.9939871240341027
 20
1.9458914109808001
 30
0.0
 11
2.0025635269452873
 21
1.9123136819070525
 31
0.0
  0
LINE
  5
2D4
100
AcDbEntity
100
AcDbLine
  8
color#ffffffff
 62
256
370
-1
  6
BYLAYER
 10
2.0025635269452873
 20
1.9123136819070525
 30
0.0
 11
2.0093016522767098
 21
1.8783362676372211
 31
0.0
  0
LINE
  5
2D5
100
AcDbEntity
100
AcDbLine
  8
color#ffffffff
 62
256
370
-1
  6
BYLAYER
 10
2.0093016522767098
 20
1.8783362676372211
 30
0.0
 11
2.0141616060675807
 21
1.844053628228711
 31
0.0
  0
LINE
  5
2D6
100
AcDbEntity
100
AcDbLine
  8
color#ffffffff
 62
256
370
-1
  6
BYLAYER
 10
2.0141616060675807
 20
1.844053628228711
 30
0.0
 11
2.01710349435711
 21
1.8095602237389263
 31
0.0
  0
LINE
  5
2D7
100
AcDbEntity
100
AcDbLine
  8
color#ffffffff
 62
256
370
-1
  6
BYLAYER
 10
2.01710349435711
 20
1.8095602237389263
 30
0.0
 11
2.0180874231845083
 21
1.7749505142252735
 31
0.0
  0
LINE
  5
2D8
100
AcDbEntity
100
AcDbLine
  8
color#ffffffff
 62
256
370
-1
  6
BYLAYER
 10
2.0180874231845083
 20
1.7749505142252735
 30
0.0
 11
2.017073498588986
 21
1.7403189597451569
 31
0.0
  0
LINE
  5
2D9
100
AcDbEntity
100
AcDbLine
  8
color#ffffffff
 62
256
370
-1
  6
BYLAYER
 10
2.017073498588986
 20
1.7403189597451569
 30
0.0
 11
2.0140218266097536
 21
1.7057600203559824
 31
0.0
  0
LINE
  5
2DA
100
AcDbEntity
100
AcDbLine
  8
color#ffffffff
 62
256
370
-1
  6
BYLAYER
 10
2.0140218266097536
 20
1.7057600203559824
 30
0.0
 11
2.008892513286022
 21
1.6713681561151543
 31
0.0
  0
LINE
  5
2DB
100
AcDbEntity
100
AcDbLine
  8
color#ffffffff
 62
256
370
-1
  6
BYLAYER
 10
2.008892513286022
 20
1.6713681561151543
 30
0.0
 11
2.0055362742572216
 21
1.654264395943309
 31
0.0
  0
LINE
  5
2DC
100
AcDbEntity
100
AcDbLine
  8
color#ffffffff
 62
256
370
-1
  6
BYLAYER
 10
2.0055362742572216
 20
1.654264395943309
 30
0.0
 11
1.9969586428097825
 21
1.6173705451295328
 31
0.0
  0
LINE
  5
2DD
100
AcDbEntity
100
AcDbLine
  8
color#ffffffff
 62
256
370
-1
  6
BYLAYER
 10
1.9969586428097825
 20
1.6173705451295328
 30
0.0
 11
1.9860875761749834
 21
1.5811090240010717
 31
0.0
  0
LINE
  5
2DE
100
AcDbEntity
100
AcDbLine
  8
color#ffffffff
 62
256
370
-1
  6
BYLAYER
 10
1.9860875761749834
 20
1.5811090240010717
 30
0.0
 11
1.9730020511019895
 21
1.5455924344413765
 31
0.0
  0
LINE
  5
2DF
100
AcDbEntity
100
AcDbLine
  8
color#ffffffff
 62
256
370
-1
  6
BYLAYER
 10
1.9730020511019895
 20
1.5455924344413765
 30
0.0
 11
1.9577810443399639
 21
1.5109333783338998
 31
0.0
  0
LINE
  5
2E0
100
AcDbEntity
100
AcDbLine
  8
color#ffffffff
 62
256
370
-1
  6
BYLAYER
 10
1.9577810443399639
 20
1.5109333783338998
 30
0.0
 11
1.9405035326380728
 21
1.4772444575620918
 31
0.0
  0
LINE
  5
2E1
100
AcDbEntity
100
AcDbLine
  8
color#ffffffff
 62
256
370
-1
  6
BYLAYER
 10
1.9405035326380728
 20
1.4772444575620918
 30
0.0
 11
1.9212484927454803
 21
1.4446382740094055
 31
0.0
  0
LINE
  5
2E2
100
AcDbEntity
100
AcDbLine
  8
color#ffffffff
 62
256
370
-1
  6
BYLAYER
 10
1.9212484927454803
 20
1.4446382740094055
 30
0.0
 11
1.9000949014113511
 21
1.4132274295592917
 31
0.0
  0
LINE
  5
2E3
100
AcDbEntity
100
AcDbLine
  8
color#ffffffff
 62
256
370
-1
  6
BYLAYER
 10
1.9000949014113511
 20
1.4132274295592917
 30
0.0
 11
1.8771217353848497
 21
1.3831245260952021
 31
0.0
  0
LINE
  5
2E4
100
AcDbEntity
100
AcDbLine
  8
color#ffffffff
 62
256
370
-1
  6
BYLAYER
 10
1.8771217353848497
 20
1.3831245260952021
 30
0.0
 11
1.8524079714151414
 21
1.3544421655005878
 31
0.0
  0
LINE
  5
2E5
100
AcDbEntity
100
AcDbLine
  8
color#ffffffff
 62
256
370
-1
  6
BYLAYER
 10
1.8524079714151414
 20
1.3544421655005878
 30
0.0
 11
1.8260325862513906
 21
1.3272929496589003
 31
0.0
  0
LINE
  5
2E6
100
AcDbEntity
100
AcDbLine
  8
color#ffffffff
 62
256
370
-1
  6
BYLAYER
 10
1.8260325862513906
 20
1.3272929496589003
 30
0.0
 11
1.7980745566427627
 21
1.3017894804535923
 31
0.0
  0
LINE
  5
2E7
100
AcDbEntity
100
AcDbLine
  8
color#ffffffff
 62
256
370
-1
  6
BYLAYER
 10
1.7980745566427627
 20
1.3017894804535923
 30
0.0
 11
1.7686128593384214
 21
1.2780443597681146
 31
0.0
  0
LINE
  5
2E8
100
AcDbEntity
100
AcDbLine
  8
color#ffffffff
 62
256
370
-1
  6
BYLAYER
 10
1.7686128593384214
 20
1.2780443597681146
 30
0.0
 11
1.7377264710875324
 21
1.2561701894859185
 31
0.0
  0
LINE
  5
2E9
100
AcDbEntity
100
AcDbLine
  8
color#ffffffff
 62
256
370
-1
  6
BYLAYER
 10
1.7377264710875324
 20
1.2561701894859185
 30
0.0
 11
1.7054943686392596
 21
1.236279571490456
 31
0.0
  0
LINE
  5
2EA
100
AcDbEntity
100
AcDbLine
  8
color#ffffffff
 62
256
370
-1
  6
BYLAYER
 10
1.7054943686392596
 20
1.236279571490456
 30
0.0
 11
1.6888983548252183
 21
1.2271132826888282
 31
0.0
  0
LINE
  5
2EB
100
AcDbEntity
100
AcDbLine
  8
color#ffffffff
 62
256
370
-1
  6
BYLAYER
 10
1.6888983548252183
 20
1.2271132826888282
 30
0.0
 11
1.6675077852791846
 21
1.2157172563870509
 31
0.0
  0
LINE
  5
2EC
100
AcDbEntity
100
AcDbLine
  8
color#ffffffff
 62
256
370
-1
  6
BYLAYER
 10
1.6675077852791846
 20
1.2157172563870509
 30
0.0
 11
1.6457088583880652
 21
1.2052846914881263
 31
0.0
  0
LINE
  5
2ED
100
AcDbEntity
100
AcDbLine
  8
color#ffffffff
 62
256
370
-1
  6
BYLAYER
 10
1.6457088583880652
 20
1.2052846914881263
 30
0.0
 11
1.6235359753723988
 21
1.1958108350077394
 31
0.0
  0
LINE
  5
2EE
100
AcDbEntity
100
AcDbLine
  8
color#ffffffff
 62
256
370
-1
  6
BYLAYER
 10
1.6235359753723988
 20
1.1958108350077394
 30
0.0
 11
1.6010235374527209
 21
1.1872909339615785
 31
0.0
  0
LINE
  5
2EF
100
AcDbEntity
100
AcDbLine
  8
color#ffffffff
 62
256
370
-1
  6
BYLAYER
 10
1.6010235374527209
 20
1.1872909339615785
 30
0.0
 11
1.5782059458495703
 21
1.1797202353653278
 31
0.0
  0
LINE
  5
2F0
100
AcDbEntity
100
AcDbLine
  8
color#ffffffff
 62
256
370
-1
  6
BYLAYER
 10
1.5782059458495703
 20
1.1797202353653278
 30
0.0
 11
1.5551176017834833
 21
1.1730939862346743
 31
0.0
  0
LINE
  5
2F1
100
AcDbEntity
100
AcDbLine
  8
color#ffffffff
 62
256
370
-1
  6
BYLAYER
 10
1.5551176017834833
 20
1.1730939862346743
 30
0.0
 11
1.5317929064749967
 21
1.167407433585306
 31
0.0
  0
LINE
  5
2F2
100
AcDbEntity
100
AcDbLine
  8
color#ffffffff
 62
256
370
-1
  6
BYLAYER
 10
1.5317929064749967
 20
1.167407433585306
 30
0.0
 11
1.5082662611446489
 21
1.1626558244329057
 31
0.0
  0
LINE
  5
2F3
100
AcDbEntity
100
AcDbLine
  8
color#ffffffff
 62
256
370
-1
  6
BYLAYER
 10
1.5082662611446489
 20
1.1626558244329057
 30
0.0
 11
1.4845720670129761
 21
1.1588344057931623
 31
0.0
  0
LINE
  5
2F4
100
AcDbEntity
100
AcDbLine
  8
color#ffffffff
 62
256
370
-1
  6
BYLAYER
 10
1.4845720670129761
 20
1.1588344057931623
 30
0.0
 11
1.4607447253005155
 21
1.1559384246817619
 31
0.0
  0
LINE
  5
2F5
100
AcDbEntity
100
AcDbLine
  8
color#ffffffff
 62
256
370
-1
  6
BYLAYER
 10
1.4607447253005155
 20
1.1559384246817619
 30
0.0
 11
1.4368186372278045
 21
1.1539631281143903
 31
0.0
  0
LINE
  5
2F6
100
AcDbEntity
100
AcDbLine
  8
color#ffffffff
 62
256
370
-1
  6
BYLAYER
 10
1.4368186372278045
 20
1.1539631281143903
 30
0.0
 11
1.4128282040153806
 21
1.1529037631067327
 31
0.0
  0
LINE
  5
2F7
100
AcDbEntity
100
AcDbLine
  8
color#ffffffff
 62
256
370
-1
  6
BYLAYER
 10
1.4128282040153806
 20
1.1529037631067327
 30
0.0
 11
1.38880782688378
 21
1.1527555766744781
 31
0.0
  0
LINE
  5
2F8
100
AcDbEntity
100
AcDbLine
  8
color#ffffffff
 62
256
370
-1
  6
BYLAYER
 10
1.38880782688378
 20
1.1527555766744781
 30
0.0
 11
1.3647919070535406
 21
1.1535138158333109
 31
0.0
  0
LINE
  5
2F9
100
AcDbEntity
100
AcDbLine
  8
color#ffffffff
 62
256
370
-1
  6
BYLAYER
 10
1.3647919070535406
 20
1.1535138158333109
 30
0.0
 11
1.3408148457451994
 21
1.1551737275989176
 31
0.0
  0
LINE
  5
2FA
100
AcDbEntity
100
AcDbLine
  8
color#ffffffff
 62
256
370
-1
  6
BYLAYER
 10
1.3408148457451994
 20
1.1551737275989176
 30
0.0
 11
1.3169110441792937
 21
1.1577305589869848
 31
0.0
  0
LINE
  5
2FB
100
AcDbEntity
100
AcDbLine
  8
color#ffffffff
 62
256
370
-1
  6
BYLAYER
 10
1.3169110441792937
 20
1.1577305589869848
 30
0.0
 11
1.2931149035763605
 21
1.1611795570131989
 31
0.0
  0
LINE
  5
2FC
100
AcDbEntity
100
AcDbLine
  8
color#ffffffff
 62
256
370
-1
  6
BYLAYER
 10
1.2931149035763605
 20
1.1611795570131989
 30
0.0
 11
1.269460825156937
 21
1.1655159686932457
 31
0.0
  0
LINE
  5
2FD
100
AcDbEntity
100
AcDbLine
  8
color#ffffffff
 62
256
370
-1
  6
BYLAYER
 10
1.269460825156937
 20
1.1655159686932457
 30
0.0
 11
1.2459832101415607
 21
1.1707350410428115
 31
0.0
  0
LINE
  5
2FE
100
AcDbEntity
100
AcDbLine
  8
color#ffffffff
 62
256
370
-1
  6
BYLAYER
 10
1.2459832101415607
 20
1.1707350410428115
 30
0.0
 11
1.2227164597507683
 21
1.1768320210775829
 31
0.0
  0
LINE
  5
2FF
100
AcDbEntity
100
AcDbLine
  8
color#ffffffff
 62
256
370
-1
  6
BYLAYER
 10
1.2227164597507683
 20
1.1768320210775829
 30
0.0
 11
1.1996949752050969
 21
1.1838021558132463
 31
0.0
  0
LINE
  5
300
100
AcDbEntity
100
AcDbLine
  8
color#ffffffff
 62
256
370
-1
  6
BYLAYER
 10
1.1996949752050969
 20
1.1838021558132463
 30
0.0
 11
1.1769531577250842
 21
1.1916406922654881
 31
0.0
  0
LINE
  5
301
100
AcDbEntity
100
AcDbLine
  8
color#ffffffff
 62
256
370
-1
  6
BYLAYER
 10
1.1769531577250842
 20
1.1916406922654881
 30
0.0
 11
1.1545254085312666
 21
1.200342877449994
 31
0.0
  0
LINE
  5
302
100
AcDbEntity
100
AcDbLine
  8
color#ffffffff
 62
256
370
-1
  6
BYLAYER
 10
1.1545254085312666
 20
1.200342877449994
 30
0.0
 11
1.1324461288441821
 21
1.2099039583824509
 31
0.0
  0
LINE
  5
303
100
AcDbEntity
100
AcDbLine
  8
color#ffffffff
 62
256
370
-1
  6
BYLAYER
 10
1.1324461288441821
 20
1.2099039583824509
 30
0.0
 11
1.1107497198843674
 21
1.2203191820785446
 31
0.0
  0
LINE
  5
304
100
AcDbEntity
100
AcDbLine
  8
color#ffffffff
 62
256
370
-1
  6
BYLAYER
 10
1.1107497198843674
 20
1.2203191820785446
 30
0.0
 11
1.0894705828723596
 21
1.2315837955539619
 31
0.0
  0
LINE
  5
305
100
AcDbEntity
100
AcDbLine
  8
color#ffffffff
 62
256
370
-1
  6
BYLAYER
 10
1.0894705828723596
 20
1.2315837955539619
 30
0.0
 11
1.0686431190286962
 21
1.2436930458243891
 31
0.0
  0
LINE
  5
306
100
AcDbEntity
100
AcDbLine
  8
color#ffffffff
 62
256
370
-1
  6
BYLAYER
 10
1.0686431190286962
 20
1.2436930458243891
 30
0.0
 11
1.0483017295739141
 21
1.2566421799055116
 31
0.0
  0
LINE
  5
307
100
AcDbEntity
100
AcDbLine
  8
color#ffffffff
 62
256
370
-1
  6
BYLAYER
 10
1.0483017295739141
 20
1.2566421799055116
 30
0.0
 11
1.0284808157285505
 21
1.2704264448130169
 31
0.0
  0
LINE
  5
308
100
AcDbEntity
100
AcDbLine
  8
color#ffffffff
 62
256
370
-1
  6
BYLAYER
 10
1.0284808157285505
 20
1.2704264448130169
 30
0.0
 11
1.1420432896980151
 21
1.3840457263567292
 31
0.0
  0
LINE
  5
309
100
AcDbEntity
100
AcDbLine
  8
color#ffffffff
 62
256
370
-1
  6
BYLAYER
 10
1.1420432896980151
 20
1.3840457263567292
 30
0.0
 11
1.1807107509388937
 21
1.3635717024730549
 31
0.0
  0
LINE
  5
30A
100
AcDbEntity
100
AcDbLine
  8
color#ffffffff
 62
256
370
-1
  6
BYLAYER
 10
1.1807107509388937
 20
1.3635717024730549
 30
0.0
 11
1.2210217015049998
 21
1.3463100725217008
 31
0.0
  0
LINE
  5
30B
100
AcDbEntity
100
AcDbLine
  8
color#ffffffff
 62
256
370
-1
  6
BYLAYER
 10
1.2210217015049998
 20
1.3463100725217008
 30
0.0
 11
1.2626451313515692
 21
1.3324493797976831
 31
0.0
  0
LINE
  5
30C
100
AcDbEntity
100
AcDbLine
  8
color#ffffffff
 62
256
370
-1
  6
BYLAYER
 10
1.2626451313515692
 20
1.3324493797976831
 30
0.0
 11
1.3052500304338379
 21
1.3221781675960165
 31
0.0
  0
LINE
  5
30D
100
AcDbEntity
100
AcDbLine
  8
color#ffffffff
 62
256
370
-1
  6
BYLAYER
 10
1.3052500304338379
 20
1.3221781675960165
 30
0.0
 11
1.3485053887070408
 21
1.3156849792117151
 31
0.0
  0
LINE
  5
30E
100
AcDbEntity
100
AcDbLine
  8
color#ffffffff
 62
256
370
-1
  6
BYLAYER
 10
1.3485053887070408
 20
1.3156849792117151
 30
0.0
 11
1.3775401986891944
 21
1.3135481968762801
 31
0.0
  0
LINE
  5
30F
100
AcDbEntity
100
AcDbLine
  8
color#ffffffff
 62
256
370
-1
  6
BYLAYER
 10
1.3775401986891944
 20
1.3135481968762801
 30
0.0
 11
1.4066189090193455
 21
1.313230197937463
 31
0.0
  0
LINE
  5
310
100
AcDbEntity
100
AcDbLine
  8
color#ffffffff
 62
256
370
-1
  6
BYLAYER
 10
1.4066189090193455
 20
1.313230197937463
 30
0.0
 11
1.4356434426471933
 21
1.3147868470752675
 31
0.0
  0
LINE
  5
311
100
AcDbEntity
100
AcDbLine
  8
color#ffffffff
 62
256
370
-1
  6
BYLAYER
 10
1.4356434426471933
 20
1.3147868470752675
 30
0.0
 11
1.4645157225224372
 21
1.3182740089696994
 31
0.0
  0
LINE
  5
312
100
AcDbEntity
100
AcDbLine
  8
color#ffffffff
 62
256
370
-1
  6
BYLAYER
 10
1.4645157225224372
 20
1.3182740089696994
 30
0.0
 11
1.4931376715947768
 21
1.3237475483007626
 31
0.0
  0
LINE
  5
313
100
AcDbEntity
100
AcDbLine
  8
color#ffffffff
 62
256
370
-1
  6
BYLAYER
 10
1.4931376715947768
 20
1.3237475483007626
 30
0.0
 11
1.5214112128139115
 21
1.3312633297484606
 31
0.0
  0
LINE
  5
314
100
AcDbEntity
100
AcDbLine
  8
color#ffffffff
 62
256
370
-1
  6
BYLAYER
 10
1.5214112128139115
 20
1.3312633297484606
 30
0.0
 11
1.5492382691295405
 21
1.340877217992799
 31
0.0
  0
LINE
  5
315
100
AcDbEntity
100
AcDbLine
  8
color#ffffffff
 62
256
370
-1
  6
BYLAYER
 10
1.5492382691295405
 20
1.340877217992799
 30
0.0
 11
1.5786430062177237
 21
1.3522579532294385
 31
0.0
  0
LINE
  5
316
100
AcDbEntity
100
AcDbLine
  8
color#ffffffff
 62
256
370
-1
  6
BYLAYER
 10
1.5786430062177237
 20
1.3522579532294385
 30
0.0
 11
1.6070787228542431
 21
1.365726299553083
 31
0.0
  0
LINE
  5
317
100
AcDbEntity
100
AcDbLine
  8
color#ffffffff
 62
256
370
-1
  6
BYLAYER
 10
1.6070787228542431
 20
1.365726299553083
 30
0.0
 11
1.6344567712538658
 21
1.3811712231567224
 31
0.0
  0
LINE
  5
318
100
AcDbEntity
100
AcDbLine
  8
color#ffffffff
 62
256
370
-1
  6
BYLAYER
 10
1.6344567712538658
 20
1.3811712231567224
 30
0.0
 11
1.6606885036313566
 21
1.3984816902333479
 31
0.0
  0
LINE
  5
319
100
AcDbEntity
100
AcDbLine
  8
color#ffffffff
 62
256
370
-1
  6
BYLAYER
 10
1.6606885036313566
 20
1.3984816902333479
 30
0.0
 11
1.6856852722014812
 21
1.4175466669759489
 31
0.0
  0
LINE
  5
31A
100
AcDbEntity
100
AcDbLine
  8
color#ffffffff
 62
256
370
-1
  6
BYLAYER
 10
1.6856852722014812
 20
1.4175466669759489
 30
0.0
 11
1.7093584291790069
 21
1.4382551195775146
 31
0.0
  0
LINE
  5
31B
100
AcDbEntity
100
AcDbLine
  8
color#ffffffff
 62
256
370
-1
  6
BYLAYER
 10
1.7093584291790069
 20
1.4382551195775146
 30
0.0
 11
1.7316193267786979
 21
1.4604960142310364
 31
0.0
  0
LINE
  5
31C
100
AcDbEntity
100
AcDbLine
  8
color#ffffffff
 62
256
370
-1
  6
BYLAYER
 10
1.7316193267786979
 20
1.4604960142310364
 30
0.0
 11
1.752379317215321
 21
1.4841583171295041
 31
0.0
  0
LINE
  5
31D
100
AcDbEntity
100
AcDbLine
  8
color#ffffffff
 62
256
370
-1
  6
BYLAYER
 10
1.752379317215321
 20
1.4841583171295041
 30
0.0
 11
1.7715497527036417
 21
1.5091309944659068
 31
0.0
  0
LINE
  5
31E
100
AcDbEntity
100
AcDbLine
  8
color#ffffffff
 62
256
370
-1
  6
BYLAYER
 10
1.7715497527036417
 20
1.5091309944659068
 30
0.0
 11
1.7890419854584263
 21
1.5353030124332352
 31
0.0
  0
LINE
  5
31F
100
AcDbEntity
100
AcDbLine
  8
color#ffffffff
 62
256
370
-1
  6
BYLAYER
 10
1.7890419854584263
 20
1.5353030124332352
 30
0.0
 11
1.8047673676944405
 21
1.5625633372244794
 31
0.0
  0
LINE
  5
320
100
AcDbEntity
100
AcDbLine
  8
color#ffffffff
 62
256
370
-1
  6
BYLAYER
 10
1.8047673676944405
 20
1.5625633372244794
 30
0.0
 11
1.81863725162645
 21
1.5908009350326293
 31
0.0
  0
LINE
  5
321
100
AcDbEntity
100
AcDbLine
  8
color#ffffffff
 62
256
370
-1
  6
BYLAYER
 10
1.81863725162645
 20
1.5908009350326293
 30
0.0
 11
1.8305629894692208
 21
1.619904772050675
 31
0.0
  0
LINE
  5
322
100
AcDbEntity
100
AcDbLine
  8
color#ffffffff
 62
256
370
-1
  6
BYLAYER
 10
1.8305629894692208
 20
1.619904772050675
 30
0.0
 11
1.8404559334375188
 21
1.6497638144716065
 31
0.0
  0
LINE
  5
323
100
AcDbEntity
100
AcDbLine
  8
color#ffffffff
 62
256
370
-1
  6
BYLAYER
 10
1.8404559334375188
 20
1.6497638144716065
 30
0.0
 11
1.8446124052858548
 21
1.6649418396434639
 31
0.0
  0
LINE
  5
324
100
AcDbEntity
100
AcDbLine
  8
color#ffffffff
 62
256
370
-1
  6
BYLAYER
 10
1.8446124052858548
 20
1.6649418396434639
 30
0.0
 11
1.8532058434765841
 21
1.7141654752116184
 31
0.0
  0
LINE
  5
325
100
AcDbEntity
100
AcDbLine
  8
color#ffffffff
 62
256
370
-1
  6
BYLAYER
 10
1.8532058434765841
 20
1.7141654752116184
 30
0.0
 11
1.8567873309153127
 21
1.7640744100672008
 31
0.0
  0
LINE
  5
326
100
AcDbEntity
100
AcDbLine
  8
color#ffffffff
 62
256
370
-1
  6
BYLAYER
 10
1.8567873309153127
 20
1.7640744100672008
 30
0.0
 11
1.855292527431263
 21
1.8140949895747494
 31
0.0
  0
LINE
  5
327
100
AcDbEntity
100
AcDbLine
  8
color#ffffffff
 62
256
370
-1
  6
BYLAYER
 10
1.855292527431263
 20
1.8140949895747494
 30
0.0
 11
1.848657092853657
 21
1.8636535590988015
 31
0.0
  0
LINE
  5
328
100
AcDbEntity
100
AcDbLine
  8
color#ffffffff
 62
256
370
-1
  6
BYLAYER
 10
1.848657092853657
 20
1.8636535590988015
 30
0.0
 11
1.8368166870117189
 21
1.912176464003893
 31
0.0
  0
LINE
  5
329
100
AcDbEntity
100
AcDbLine
  8
color#ffffffff
 62
256
370
-1
  6
BYLAYER
 10
1.8368166870117189
 20
1.912176464003893
 30
0.0
 11
1.8197069697346713
 21
1.9590900496545613
 31
0.0
  0
LINE
  5
32A
100
AcDbEntity
100
AcDbLine
  8
color#ffffffff
 62
256
370
-1
  6
BYLAYER
 10
1.8197069697346713
 20
1.9590900496545613
 30
0.0
 11
1.8033779915136117
 21
1.9928740340152018
 31
0.0
  0
LINE
  5
32B
100
AcDbEntity
100
AcDbLine
  8
color#ffffffff
 62
256
370
-1
  6
BYLAYER
 10
1.8033779915136117
 20
1.9928740340152018
 30
0.0
 11
1.7908118357038205
 21
2.0145949995326511
 31
0.0
  0
LINE
  5
32C
100
AcDbEntity
100
AcDbLine
  8
color#ffffffff
 62
256
370
-1
  6
BYLAYER
 10
2.5630041618453285
 20
2.009947310361639
 30
0.0
 11
2.6768779953797277
 21
2.1302453957945904
 31
0.0
  0
LINE
  5
32D
100
AcDbEntity
100
AcDbLine
  8
color#ffffffff
 62
256
370
-1
  6
BYLAYER
 10
2.6768779953797277
 20
2.1302453957945904
 30
0.0
 11
2.6956326859902804
 21
2.1010550355111612
 31
0.0
  0
LINE
  5
32E
100
AcDbEntity
100
AcDbLine
  8
color#ffffffff
 62
256
370
-1
  6
BYLAYER
 10
2.6956326859902804
 20
2.1010550355111612
 30
0.0
 11
2.712700022011274
 21
2.0708673596391987
 31
0.0
  0
LINE
  5
32F
100
AcDbEntity
100
AcDbLine
  8
color#ffffffff
 62
256
370
-1
  6
BYLAYER
 10
2.712700022011274
 20
2.0708673596391987
 30
0.0
 11
2.7280550315283083
 21
2.0397829012990942
 31
0.0
  0
LINE
  5
330
100
AcDbEntity
100
AcDbLine
  8
color#ffffffff
 62
256
370
-1
  6
BYLAYER
 10
2.7280550315283083
 20
2.0397829012990942
 30
0.0
 11
2.7416727426269856
 21
2.0079021936112422
 31
0.0
  0
LINE
  5
331
100
AcDbEntity
100
AcDbLine
  8
color#ffffffff
 62
256
370
-1
  6
BYLAYER
 10
2.7416727426269856
 20
2.0079021936112422
 30
0.0
 11
2.7535281833929051
 21
1.9753257696960351
 31
0.0
  0
LINE
  5
332
100
AcDbEntity
100
AcDbLine
  8
color#ffffffff
 62
256
370
-1
  6
BYLAYER
 10
2.7535281833929051
 20
1.9753257696960351
 30
0.0
 11
2.7635963819116705
 21
1.942154162673865
 31
0.0
  0
LINE
  5
333
100
AcDbEntity
100
AcDbLine
  8
color#ffffffff
 62
256
370
-1
  6
BYLAYER
 10
2.7635963819116705
 20
1.942154162673865
 30
0.0
 11
2.7718523662688805
 21
1.9084879056651269
 31
0.0
  0
LINE
  5
334
100
AcDbEntity
100
AcDbLine
  8
color#ffffffff
 62
256
370
-1
  6
BYLAYER
 10
2.7718523662688805
 20
1.9084879056651269
 30
0.0
 11
2.7782711645501377
 21
1.8744275317902128
 31
0.0
  0
LINE
  5
335
100
AcDbEntity
100
AcDbLine
  8
color#ffffffff
 62
256
370
-1
  6
BYLAYER
 10
2.7782711645501377
 20
1.8744275317902128
 30
0.0
 11
2.7828278048410433
 21
1.8400735741695149
 31
0.0
  0
LINE
  5
336
100
AcDbEntity
100
AcDbLine
  8
color#ffffffff
 62
256
370
-1
  6
BYLAYER
 10
2.7828278048410433
 20
1.8400735741695149
 30
0.0
 11
2.7854973152271976
 21
1.805526565923427
 31
0.0
  0
LINE
  5
337
100
AcDbEntity
100
AcDbLine
  8
color#ffffffff
 62
256
370
-1
  6
BYLAYER
 10
2.7854973152271976
 20
1.805526565923427
 30
0.0
 11
2.7862547237942028
 21
1.7708870401723422
 31
0.0
  0
LINE
  5
338
100
AcDbEntity
100
AcDbLine
  8
color#ffffffff
 62
256
370
-1
  6
BYLAYER
 10
2.7862547237942028
 20
1.7708870401723422
 30
0.0
 11
2.7850750586276587
 21
1.7362555300366529
 31
0.0
  0
LINE
  5
339
100
AcDbEntity
100
AcDbLine
  8
color#ffffffff
 62
256
370
-1
  6
BYLAYER
 10
2.7850750586276587
 20
1.7362555300366529
 30
0.0
 11
2.7819333478131671
 21
1.7017325686367524
 31
0.0
  0
LINE
  5
33A
100
AcDbEntity
100
AcDbLine
  8
color#ffffffff
 62
256
370
-1
  6
BYLAYER
 10
2.7819333478131671
 20
1.7017325686367524
 30
0.0
 11
2.7768046194363292
 21
1.6674186890930338
 31
0.0
  0
LINE
  5
33B
100
AcDbEntity
100
AcDbLine
  8
color#ffffffff
 62
256
370
-1
  6
BYLAYER
 10
2.7768046194363292
 20
1.6674186890930338
 30
0.0
 11
2.7734873199387811
 21
1.6503715716173655
 31
0.0
  0
LINE
  5
33C
100
AcDbEntity
100
AcDbLine
  8
color#ffffffff
 62
256
370
-1
  6
BYLAYER
 10
2.7734873199387811
 20
1.6503715716173655
 30
0.0
 11
2.7688309034741447
 21
1.6290650625824437
 31
0.0
  0
LINE
  5
33D
100
AcDbEntity
100
AcDbLine
  8
color#ffffffff
 62
256
370
-1
  6
BYLAYER
 10
2.7688309034741447
 20
1.6290650625824437
 30
0.0
 11
2.7633797358140457
 21
1.607972357551493
 31
0.0
  0
LINE
  5
33E
100
AcDbEntity
100
AcDbLine
  8
color#ffffffff
 62
256
370
-1
  6
BYLAYER
 10
2.7633797358140457
 20
1.607972357551493
 30
0.0
 11
2.757151175700459
 21
1.5871132686039746
 31
0.0
  0
LINE
  5
33F
100
AcDbEntity
100
AcDbLine
  8
color#ffffffff
 62
256
370
-1
  6
BYLAYER
 10
2.757151175700459
 20
1.5871132686039746
 30
0.0
 11
2.7501625818753599
 21
1.5665076078193521
 31
0.0
  0
LINE
  5
340
100
AcDbEntity
100
AcDbLine
  8
color#ffffffff
 62
256
370
-1
  6
BYLAYER
 10
2.7501625818753599
 20
1.5665076078193521
 30
0.0
 11
2.7424313130807247
 21
1.546175187277087
 31
0.0
  0
LINE
  5
341
100
AcDbEntity
100
AcDbLine
  8
color#ffffffff
 62
256
370
-1
  6
BYLAYER
 10
2.7424313130807247
 20
1.546175187277087
 30
0.0
 11
2.7339747280585271
 21
1.5261358190566428
 31
0.0
  0
LINE
  5
342
100
AcDbEntity
100
AcDbLine
  8
color#ffffffff
 62
256
370
-1
  6
BYLAYER
 10
2.7339747280585271
 20
1.5261358190566428
 30
0.0
 11
2.7248101855507407
 21
1.5064093152374822
 31
0.0
  0
LINE
  5
343
100
AcDbEntity
100
AcDbLine
  8
color#ffffffff
 62
256
370
-1
  6
BYLAYER
 10
2.7248101855507407
 20
1.5064093152374822
 30
0.0
 11
2.7149550442993444
 21
1.4870154878990671
 31
0.0
  0
LINE
  5
344
100
AcDbEntity
100
AcDbLine
  8
color#ffffffff
 62
256
370
-1
  6
BYLAYER
 10
2.7149550442993444
 20
1.4870154878990671
 30
0.0
 11
2.704426663046311
 21
1.46797414912086
 31
0.0
  0
LINE
  5
345
100
AcDbEntity
100
AcDbLine
  8
color#ffffffff
 62
256
370
-1
  6
BYLAYER
 10
2.704426663046311
 20
1.46797414912086
 30
0.0
 11
2.693242400533614
 21
1.4493051109823254
 31
0.0
  0
LINE
  5
346
100
AcDbEntity
100
AcDbLine
  8
color#ffffffff
 62
256
370
-1
  6
BYLAYER
 10
2.693242400533614
 20
1.4493051109823254
 30
0.0
 11
2.6814196155032315
 21
1.4310281855629239
 31
0.0
  0
LINE
  5
347
100
AcDbEntity
100
AcDbLine
  8
color#ffffffff
 62
256
370
-1
  6
BYLAYER
 10
2.6814196155032315
 20
1.4310281855629239
 30
0.0
 11
2.6689756666971372
 21
1.4131631849421185
 31
0.0
  0
LINE
  5
348
100
AcDbEntity
100
AcDbLine
  8
color#ffffffff
 62
256
370
-1
  6
BYLAYER
 10
2.6689756666971372
 20
1.4131631849421185
 30
0.0
 11
2.6559279128573055
 21
1.3957299211993732
 31
0.0
  0
LINE
  5
349
100
AcDbEntity
100
AcDbLine
  8
color#ffffffff
 62
256
370
-1
  6
BYLAYER
 10
2.6559279128573055
 20
1.3957299211993732
 30
0.0
 11
2.6422937127257122
 21
1.3787482064141487
 31
0.0
  0
LINE
  5
34A
100
AcDbEntity
100
AcDbLine
  8
color#ffffffff
 62
256
370
-1
  6
BYLAYER
 10
2.6422937127257122
 20
1.3787482064141487
 30
0.0
 11
2.628090425044332
 21
1.3622378526659089
 31
0.0
  0
LINE
  5
34B
100
AcDbEntity
100
AcDbLine
  8
color#ffffffff
 62
256
370
-1
  6
BYLAYER
 10
2.628090425044332
 20
1.3622378526659089
 30
0.0
 11
2.6133354085551406
 21
1.3462186720341158
 31
0.0
  0
LINE
  5
34C
100
AcDbEntity
100
AcDbLine
  8
color#ffffffff
 62
256
370
-1
  6
BYLAYER
 10
2.6133354085551406
 20
1.3462186720341158
 30
0.0
 11
2.598046022000112
 21
1.3307104765982325
 31
0.0
  0
LINE
  5
34D
100
AcDbEntity
100
AcDbLine
  8
color#ffffffff
 62
256
370
-1
  6
BYLAYER
 10
2.598046022000112
 20
1.3307104765982325
 30
0.0
 11
2.5822396241212231
 21
1.3157330784377212
 31
0.0
  0
LINE
  5
34E
100
AcDbEntity
100
AcDbLine
  8
color#ffffffff
 62
256
370
-1
  6
BYLAYER
 10
2.5822396241212231
 20
1.3157330784377212
 30
0.0
 11
2.5659335736604465
 21
1.3013062896320449
 31
0.0
  0
LINE
  5
34F
100
AcDbEntity
100
AcDbLine
  8
color#ffffffff
 62
256
370
-1
  6
BYLAYER
 10
2.5659335736604465
 20
1.3013062896320449
 30
0.0
 11
2.5491452293597598
 21
1.2874499222606655
 31
0.0
  0
LINE
  5
350
100
AcDbEntity
100
AcDbLine
  8
color#ffffffff
 62
256
370
-1
  6
BYLAYER
 10
2.5491452293597598
 20
1.2874499222606655
 30
0.0
 11
2.5318919499611363
 21
1.2741837884030462
 31
0.0
  0
LINE
  5
351
100
AcDbEntity
100
AcDbLine
  8
color#ffffffff
 62
256
370
-1
  6
BYLAYER
 10
2.5318919499611363
 20
1.2741837884030462
 30
0.0
 11
2.5141910942065513
 21
1.2615277001386502
 31
0.0
  0
LINE
  5
352
100
AcDbEntity
100
AcDbLine
  8
color#ffffffff
 62
256
370
-1
  6
BYLAYER
 10
2.5141910942065513
 20
1.2615277001386502
 30
0.0
 11
2.4960600208379797
 21
1.2495014695469395
 31
0.0
  0
LINE
  5
353
100
AcDbEntity
100
AcDbLine
  8
color#ffffffff
 62
256
370
-1
  6
BYLAYER
 10
2.4960600208379797
 20
1.2495014695469395
 30
0.0
 11
2.4775160885973975
 21
1.238124908707376
 31
0.0
  0
LINE
  5
354
100
AcDbEntity
100
AcDbLine
  8
color#ffffffff
 62
256
370
-1
  6
BYLAYER
 10
2.4775160885973975
 20
1.238124908707376
 30
0.0
 11
2.4585766562267786
 21
1.227417829699424
 31
0.0
  0
LINE
  5
355
100
AcDbEntity
100
AcDbLine
  8
color#ffffffff
 62
256
370
-1
  6
BYLAYER
 10
2.4585766562267786
 20
1.227417829699424
 30
0.0
 11
2.4392590824680993
 21
1.2174000446025444
 31
0.0
  0
LINE
  5
356
100
AcDbEntity
100
AcDbLine
  8
color#ffffffff
 62
256
370
-1
  6
BYLAYER
 10
2.4392590824680993
 20
1.2174000446025444
 30
0.0
 11
2.4195807260633333
 21
1.2080913654962009
 31
0.0
  0
LINE
  5
357
100
AcDbEntity
100
AcDbLine
  8
color#ffffffff
 62
256
370
-1
  6
BYLAYER
 10
2.4195807260633333
 20
1.2080913654962009
 30
0.0
 11
2.3995589457544568
 21
1.1995116044598564
 31
0.0
  0
LINE
  5
358
100
AcDbEntity
100
AcDbLine
  8
color#ffffffff
 62
256
370
-1
  6
BYLAYER
 10
2.3995589457544568
 20
1.1995116044598564
 30
0.0
 11
2.379211100283444
 21
1.1916805735729723
 31
0.0
  0
LINE
  5
359
100
AcDbEntity
100
AcDbLine
  8
color#ffffffff
 62
256
370
-1
  6
BYLAYER
 10
2.379211100283444
 20
1.1916805735729723
 30
0.0
 11
2.3592300366564585
 21
1.1844216194958967
 31
0.0
  0
LINE
  5
35A
100
AcDbEntity
100
AcDbLine
  8
color#ffffffff
 62
256
370
-1
  6
BYLAYER
 10
2.3592300366564585
 20
1.1844216194958967
 30
0.0
 11
2.3390350211244022
 21
1.1779182851261609
 31
0.0
  0
LINE
  5
35B
100
AcDbEntity
100
AcDbLine
  8
color#ffffffff
 62
256
370
-1
  6
BYLAYER
 10
2.3390350211244022
 20
1.1779182851261609
 30
0.0
 11
2.3186487170604466
 21
1.1721658327656668
 31
0.0
  0
LINE
  5
35C
100
AcDbEntity
100
AcDbLine
  8
color#ffffffff
 62
256
370
-1
  6
BYLAYER
 10
2.3186487170604466
 20
1.1721658327656668
 30
0.0
 11
2.298093787837761
 21
1.1671595247163202
 31
0.0
  0
LINE
  5
35D
100
AcDbEntity
100
AcDbLine
  8
color#ffffffff
 62
256
370
-1
  6
BYLAYER
 10
2.298093787837761
 20
1.1671595247163202
 30
0.0
 11
2.2773928968295181
 21
1.1628946232800219
 31
0.0
  0
LINE
  5
35E
100
AcDbEntity
100
AcDbLine
  8
color#ffffffff
 62
256
370
-1
  6
BYLAYER
 10
2.2773928968295181
 20
1.1628946232800219
 30
0.0
 11
2.2565687074088867
 21
1.1593663907586773
 31
0.0
  0
LINE
  5
35F
100
AcDbEntity
100
AcDbLine
  8
color#ffffffff
 62
256
370
-1
  6
BYLAYER
 10
2.2565687074088867
 20
1.1593663907586773
 30
0.0
 11
2.2356438829490362
 21
1.156570089454191
 31
0.0
  0
LINE
  5
360
100
AcDbEntity
100
AcDbLine
  8
color#ffffffff
 62
256
370
-1
  6
BYLAYER
 10
2.2356438829490362
 20
1.156570089454191
 30
0.0
 11
2.2146410868231396
 21
1.1545009816684637
 31
0.0
  0
LINE
  5
361
100
AcDbEntity
100
AcDbLine
  8
color#ffffffff
 62
256
370
-1
  6
BYLAYER
 10
2.2146410868231396
 20
1.1545009816684637
 30
0.0
 11
2.193582982404366
 21
1.1531543297034013
 31
0.0
  0
LINE
  5
362
100
AcDbEntity
100
AcDbLine
  8
color#ffffffff
 62
256
370
-1
  6
BYLAYER
 10
2.193582982404366
 20
1.1531543297034013
 30
0.0
 11
2.1724922330658849
 21
1.1525253958609081
 31
0.0
  0
LINE
  5
363
100
AcDbEntity
100
AcDbLine
  8
color#ffffffff
 62
256
370
-1
  6
BYLAYER
 10
2.1724922330658849
 20
1.1525253958609081
 30
0.0
 11
2.1513915021808687
 21
1.1526094424428861
 31
0.0
  0
LINE
  5
364
100
AcDbEntity
100
AcDbLine
  8
color#ffffffff
 62
256
370
-1
  6
BYLAYER
 10
2.1513915021808687
 20
1.1526094424428861
 30
0.0
 11
2.1303034531224871
 21
1.1534017317512391
 31
0.0
  0
LINE
  5
365
100
AcDbEntity
100
AcDbLine
  8
color#ffffffff
 62
256
370
-1
  6
BYLAYER
 10
2.1303034531224871
 20
1.1534017317512391
 30
0.0
 11
2.1092507492639099
 21
1.1548975260878716
 31
0.0
  0
LINE
  5
366
100
AcDbEntity
100
AcDbLine
  8
color#ffffffff
 62
256
370
-1
  6
BYLAYER
 10
2.1092507492639099
 20
1.1548975260878716
 30
0.0
 11
2.0882560539783079
 21
1.1570920877546864
 31
0.0
  0
LINE
  5
367
100
AcDbEntity
100
AcDbLine
  8
color#ffffffff
 62
256
370
-1
  6
BYLAYER
 10
2.0882560539783079
 20
1.1570920877546864
 30
0.0
 11
2.0673420306388524
 21
1.1599806790535883
 31
0.0
  0
LINE
  5
368
100
AcDbEntity
100
AcDbLine
  8
color#ffffffff
 62
256
370
-1
  6
BYLAYER
 10
2.0673420306388524
 20
1.1599806790535883
 30
0.0
 11
2.0465313426187124
 21
1.1635585622864797
 31
0.0
  0
LINE
  5
369
100
AcDbEntity
100
AcDbLine
  8
color#ffffffff
 62
256
370
-1
  6
BYLAYER
 10
2.0465313426187124
 20
1.1635585622864797
 30
0.0
 11
2.0258466532910595
 21
1.1678209997552651
 31
0.0
  0
LINE
  5
36A
100
AcDbEntity
100
AcDbLine
  8
color#ffffffff
 62
256
370
-1
  6
BYLAYER
 10
2.0258466532910595
 20
1.1678209997552651
 30
0.0
 11
2.0053106260290634
 21
1.172763253761848
 31
0.0
  0
LINE
  5
36B
100
AcDbEntity
100
AcDbLine
  8
color#ffffffff
 62
256
370
-1
  6
BYLAYER
 10
2.0053106260290634
 20
1.172763253761848
 30
0.0
 11
1.9849459242058951
 21
1.1783805866081312
 31
0.0
  0
LINE
  5
36C
100
AcDbEntity
100
AcDbLine
  8
color#ffffffff
 62
256
370
-1
  6
BYLAYER
 10
1.9849459242058951
 20
1.1783805866081312
 30
0.0
 11
1.964775211194725
 21
1.1846682605960197
 31
0.0
  0
LINE
  5
36D
100
AcDbEntity
100
AcDbLine
  8
color#ffffffff
 62
256
370
-1
  6
BYLAYER
 10
1.964775211194725
 20
1.1846682605960197
 30
0.0
 11
1.9448211503687232
 21
1.1916215380274164
 31
0.0
  0
LINE
  5
36E
100
AcDbEntity
100
AcDbLine
  8
color#ffffffff
 62
256
370
-1
  6
BYLAYER
 10
1.9448211503687232
 20
1.1916215380274164
 30
0.0
 11
1.9251064051010605
 21
1.1992356812042249
 31
0.0
  0
LINE
  5
36F
100
AcDbEntity
100
AcDbLine
  8
color#ffffffff
 62
256
370
-1
  6
BYLAYER
 10
1.9251064051010605
 20
1.1992356812042249
 30
0.0
 11
1.9056536387649068
 21
1.2075059524283498
 31
0.0
  0
LINE
  5
370
100
AcDbEntity
100
AcDbLine
  8
color#ffffffff
 62
256
370
-1
  6
BYLAYER
 10
1.9056536387649068
 20
1.2075059524283498
 30
0.0
 11
1.8864855147334327
 21
1.2164276140016927
 31
0.0
  0
LINE
  5
371
100
AcDbEntity
100
AcDbLine
  8
color#ffffffff
 62
256
370
-1
  6
BYLAYER
 10
1.8864855147334327
 20
1.2164276140016927
 30
0.0
 11
1.8676246963798095
 21
1.2259959282261599
 31
0.0
  0
LINE
  5
372
100
AcDbEntity
100
AcDbLine
  8
color#ffffffff
 62
256
370
-1
  6
BYLAYER
 10
1.8676246963798095
 20
1.2259959282261599
 30
0.0
 11
1.8490938470772074
 21
1.2362061574036529
 31
0.0
  0
LINE
  5
373
100
AcDbEntity
100
AcDbLine
  8
color#ffffffff
 62
256
370
-1
  6
BYLAYER
 10
1.8490938470772074
 20
1.2362061574036529
 30
0.0
 11
1.8309156301987954
 21
1.2470535638360769
 31
0.0
  0
LINE
  5
374
100
AcDbEntity
100
AcDbLine
  8
color#ffffffff
 62
256
370
-1
  6
BYLAYER
 10
1.8309156301987954
 20
1.2470535638360769
 30
0.0
 11
1.8131127091177457
 21
1.2585334098253342
 31
0.0
  0
LINE
  5
375
100
AcDbEntity
100
AcDbLine
  8
color#ffffffff
 62
256
370
-1
  6
BYLAYER
 10
1.8131127091177457
 20
1.2585334098253342
 30
0.0
 11
1.7957077472072278
 21
1.2706409576733297
 31
0.0
  0
LINE
  5
376
100
AcDbEntity
100
AcDbLine
  8
color#ffffffff
 62
256
370
-1
  6
BYLAYER
 10
1.7957077472072278
 20
1.2706409576733297
 30
0.0
 11
1.9136824774756345
 21
1.3822494007156823
 31
0.0
  0
LINE
  5
377
100
AcDbEntity
100
AcDbLine
  8
color#ffffffff
 62
256
370
-1
  6
BYLAYER
 10
1.9136824774756345
 20
1.3822494007156823
 30
0.0
 11
2.1107923353354869
 21
1.315729972011882
 31
0.0
  0
LINE
  5
378
100
AcDbEntity
100
AcDbLine
  8
color#ffffffff
 62
256
370
-1
  6
BYLAYER
 10
2.1107923353354869
 20
1.315729972011882
 30
0.0
 11
2.1264463692270925
 21
1.3147777020958382
 31
0.0
  0
LINE
  5
379
100
AcDbEntity
100
AcDbLine
  8
color#ffffffff
 62
256
370
-1
  6
BYLAYER
 10
2.1264463692270925
 20
1.3147777020958382
 30
0.0
 11
2.1474299139285074
 21
1.3132948507872935
 31
0.0
  0
LINE
  5
37A
100
AcDbEntity
100
AcDbLine
  8
color#ffffffff
 62
256
370
-1
  6
BYLAYER
 10
2.1474299139285074
 20
1.3132948507872935
 30
0.0
 11
2.1683826744575669
 21
1.3128907871567073
 31
0.0
  0
LINE
  5
37B
100
AcDbEntity
100
AcDbLine
  8
color#ffffffff
 62
256
370
-1
  6
BYLAYER
 10
2.1683826744575669
 20
1.3128907871567073
 30
0.0
 11
2.1892709088295219
 21
1.3135413508408007
 31
0.0
  0
LINE
  5
37C
100
AcDbEntity
100
AcDbLine
  8
color#ffffffff
 62
256
370
-1
  6
BYLAYER
 10
2.1892709088295219
 20
1.3135413508408007
 30
0.0
 11
2.2100608750596185
 21
1.3152223814763018
 31
0.0
  0
LINE
  5
37D
100
AcDbEntity
100
AcDbLine
  8
color#ffffffff
 62
256
370
-1
  6
BYLAYER
 10
2.2100608750596185
 20
1.3152223814763018
 30
0.0
 11
2.2307188311631077
 21
1.317909718699932
 31
0.0
  0
LINE
  5
37E
100
AcDbEntity
100
AcDbLine
  8
color#ffffffff
 62
256
370
-1
  6
BYLAYER
 10
2.2307188311631077
 20
1.317909718699932
 30
0.0
 11
2.2512110351552366
 21
1.321579202148419
 31
0.0
  0
LINE
  5
37F
100
AcDbEntity
100
AcDbLine
  8
color#ffffffff
 62
256
370
-1
  6
BYLAYER
 10
2.2512110351552366
 20
1.321579202148419
 30
0.0
 11
2.2715037450512523
 21
1.3262066714584866
 31
0.0
  0
LINE
  5
380
100
AcDbEntity
100
AcDbLine
  8
color#ffffffff
 62
256
370
-1
  6
BYLAYER
 10
2.2715037450512523
 20
1.3262066714584866
 30
0.0
 11
2.2915632188664059
 21
1.3317679662668576
 31
0.0
  0
LINE
  5
381
100
AcDbEntity
100
AcDbLine
  8
color#ffffffff
 62
256
370
-1
  6
BYLAYER
 10
2.2915632188664059
 20
1.3317679662668576
 30
0.0
 11
2.3113557146159449
 21
1.3382389262102583
 31
0.0
  0
LINE
  5
382
100
AcDbEntity
100
AcDbLine
  8
color#ffffffff
 62
256
370
-1
  6
BYLAYER
 10
2.3113557146159449
 20
1.3382389262102583
 30
0.0
 11
2.3308474903151164
 21
1.3455953909254141
 31
0.0
  0
LINE
  5
383
100
AcDbEntity
100
AcDbLine
  8
color#ffffffff
 62
256
370
-1
  6
BYLAYER
 10
2.3308474903151164
 20
1.3455953909254141
 30
0.0
 11
2.3500048039791701
 21
1.3538132000490484
 31
0.0
  0
LINE
  5
384
100
AcDbEntity
100
AcDbLine
  8
color#ffffffff
 62
256
370
-1
  6
BYLAYER
 10
2.3500048039791701
 20
1.3538132000490484
 30
0.0
 11
2.3687939136233553
 21
1.3628681932178854
 31
0.0
  0
LINE
  5
385
100
AcDbEntity
100
AcDbLine
  8
color#ffffffff
 62
256
370
-1
  6
BYLAYER
 10
2.3687939136233553
 20
1.3628681932178854
 30
0.0
 11
2.3871810772629178
 21
1.3727362100686511
 31
0.0
  0
LINE
  5
386
100
AcDbEntity
100
AcDbLine
  8
color#ffffffff
 62
256
370
-1
  6
BYLAYER
 10
2.3871810772629178
 20
1.3727362100686511
 30
0.0
 11
2.4051325529131091
 21
1.3833930902380693
 31
0.0
  0
LINE
  5
387
100
AcDbEntity
100
AcDbLine
  8
color#ffffffff
 62
256
370
-1
  6
BYLAYER
 10
2.4051325529131091
 20
1.3833930902380693
 30
0.0
 11
2.4226145985891754
 21
1.3948146733628652
 31
0.0
  0
LINE
  5
388
100
AcDbEntity
100
AcDbLine
  8
color#ffffffff
 62
256
370
-1
  6
BYLAYER
 10
2.4226145985891754
 20
1.3948146733628652
 30
0.0
 11
2.4395934723063664
 21
1.4069767990797635
 31
0.0
  0
LINE
  5
389
100
AcDbEntity
100
AcDbLine
  8
color#ffffffff
 62
256
370
-1
  6
BYLAYER
 10
2.4395934723063664
 20
1.4069767990797635
 30
0.0
 11
2.45603543207993
 21
1.419855307025488
 31
0.0
  0
LINE
  5
38A
100
AcDbEntity
100
AcDbLine
  8
color#ffffffff
 62
256
370
-1
  6
BYLAYER
 10
2.45603543207993
 20
1.419855307025488
 30
0.0
 11
2.4719067359251152
 21
1.4334260368367642
 31
0.0
  0
LINE
  5
38B
100
AcDbEntity
100
AcDbLine
  8
color#ffffffff
 62
256
370
-1
  6
BYLAYER
 10
2.4719067359251152
 20
1.4334260368367642
 30
0.0
 11
2.4871736418571695
 21
1.4476648281503164
 31
0.0
  0
LINE
  5
38C
100
AcDbEntity
100
AcDbLine
  8
color#ffffffff
 62
256
370
-1
  6
BYLAYER
 10
2.4871736418571695
 20
1.4476648281503164
 30
0.0
 11
2.5018024078913421
 21
1.4625475206028693
 31
0.0
  0
LINE
  5
38D
100
AcDbEntity
100
AcDbLine
  8
color#ffffffff
 62
256
370
-1
  6
BYLAYER
 10
2.5018024078913421
 20
1.4625475206028693
 30
0.0
 11
2.5157592920428815
 21
1.4780499538311476
 31
0.0
  0
LINE
  5
38E
100
AcDbEntity
100
AcDbLine
  8
color#ffffffff
 62
256
370
-1
  6
BYLAYER
 10
2.5157592920428815
 20
1.4780499538311476
 30
0.0
 11
2.5290105523270356
 21
1.4941479674718758
 31
0.0
  0
LINE
  5
38F
100
AcDbEntity
100
AcDbLine
  8
color#ffffffff
 62
256
370
-1
  6
BYLAYER
 10
2.5290105523270356
 20
1.4941479674718758
 30
0.0
 11
2.5415224467590534
 21
1.510817401161779
 31
0.0
  0
LINE
  5
390
100
AcDbEntity
100
AcDbLine
  8
color#ffffffff
 62
256
370
-1
  6
BYLAYER
 10
2.5415224467590534
 20
1.510817401161779
 30
0.0
 11
2.5532612333541831
 21
1.5280340945375812
 31
0.0
  0
LINE
  5
391
100
AcDbEntity
100
AcDbLine
  8
color#ffffffff
 62
256
370
-1
  6
BYLAYER
 10
2.5532612333541831
 20
1.5280340945375812
 30
0.0
 11
2.5641931701276732
 21
1.5457738872360081
 31
0.0
  0
LINE
  5
392
100
AcDbEntity
100
AcDbLine
  8
color#ffffffff
 62
256
370
-1
  6
BYLAYER
 10
2.5641931701276732
 20
1.5457738872360081
 30
0.0
 11
2.5742845150947722
 21
1.5640126188937831
 31
0.0
  0
LINE
  5
393
100
AcDbEntity
100
AcDbLine
  8
color#ffffffff
 62
256
370
-1
  6
BYLAYER
 10
2.5742845150947722
 20
1.5640126188937831
 30
0.0
 11
2.5835015262707284
 21
1.5827261291476313
 31
0.0
  0
LINE
  5
394
100
AcDbEntity
100
AcDbLine
  8
color#ffffffff
 62
256
370
-1
  6
BYLAYER
 10
2.5835015262707284
 20
1.5827261291476313
 30
0.0
 11
2.5918104616707907
 21
1.6018902576342779
 31
0.0
  0
LINE
  5
395
100
AcDbEntity
100
AcDbLine
  8
color#ffffffff
 62
256
370
-1
  6
BYLAYER
 10
2.5918104616707907
 20
1.6018902576342779
 30
0.0
 11
2.5991775793102061
 21
1.6214808439904473
 31
0.0
  0
LINE
  5
396
100
AcDbEntity
100
AcDbLine
  8
color#ffffffff
 62
256
370
-1
  6
BYLAYER
 10
2.5991775793102061
 20
1.6214808439904473
 30
0.0
 11
2.6081868867899876
 21
1.6479445410674616
 31
0.0
  0
LINE
  5
397
100
AcDbEntity
100
AcDbLine
  8
color#ffffffff
 62
256
370
-1
  6
BYLAYER
 10
2.6081868867899876
 20
1.6479445410674616
 30
0.0
 11
2.6153110359671659
 21
1.6748271869165829
 31
0.0
  0
LINE
  5
398
100
AcDbEntity
100
AcDbLine
  8
color#ffffffff
 62
256
370
-1
  6
BYLAYER
 10
2.6153110359671659
 20
1.6748271869165829
 30
0.0
 11
2.6205934328014551
 21
1.7020398638309828
 31
0.0
  0
LINE
  5
399
100
AcDbEntity
100
AcDbLine
  8
color#ffffffff
 62
256
370
-1
  6
BYLAYER
 10
2.6205934328014551
 20
1.7020398638309828
 30
0.0
 11
2.624077483252568
 21
1.729493654103835
 31
0.0
  0
LINE
  5
39A
100
AcDbEntity
100
AcDbLine
  8
color#ffffffff
 62
256
370
-1
  6
BYLAYER
 10
2.624077483252568
 20
1.729493654103835
 30
0.0
 11
2.6260266099976537
 21
1.770931919576527
 31
0.0
  0
LINE
  5
39B
100
AcDbEntity
100
AcDbLine
  8
color#ffffffff
 62
256
370
-1
  6
BYLAYER
 10
2.6260266099976537
 20
1.770931919576527
 30
0.0
 11
2.6241736159039792
 21
1.8124125280048335
 31
0.0
  0
LINE
  5
39C
100
AcDbEntity
100
AcDbLine
  8
color#ffffffff
 62
256
370
-1
  6
BYLAYER
 10
2.6241736159039792
 20
1.8124125280048335
 30
0.0
 11
2.6186649960855757
 21
1.8536353821282137
 31
0.0
  0
LINE
  5
39D
100
AcDbEntity
100
AcDbLine
  8
color#ffffffff
 62
256
370
-1
  6
BYLAYER
 10
2.6186649960855757
 20
1.8536353821282137
 30
0.0
 11
2.6096472456564772
 21
1.8943003846861255
 31
0.0
  0
LINE
  5
39E
100
AcDbEntity
100
AcDbLine
  8
color#ffffffff
 62
256
370
-1
  6
BYLAYER
 10
2.6096472456564772
 20
1.8943003846861255
 30
0.0
 11
2.5972668597307154
 21
1.9341074384180277
 31
0.0
  0
LINE
  5
39F
100
AcDbEntity
100
AcDbLine
  8
color#ffffffff
 62
256
370
-1
  6
BYLAYER
 10
2.5972668597307154
 20
1.9341074384180277
 30
0.0
 11
2.5816703334223217
 21
1.9727564460633795
 31
0.0
  0
LINE
  5
3A0
100
AcDbEntity
100
AcDbLine
  8
color#ffffffff
 62
256
370
-1
  6
BYLAYER
 10
2.5816703334223217
 20
1.9727564460633795
 30
0.0
 11
2.5630041618453285
 21
2.009947310361639
 31
0.0
  0
ENDSEC
  0
SECTION
  2
OBJECTS
  0
DICTIONARY
  5
C
100
AcDbDictionary
280
0
281
1
  3
ACAD_GROUP
350
D
  3
ACAD_LAYOUT
350
1A
  3
ACAD_MLINESTYLE
350
17
  3
ACAD_PLOTSETTINGS
350
19
  3
ACAD_PLOTSTYLENAME
350
E
  3
AcDbVariableDictionary
350
3A1
  0
DICTIONARY
  5
D
100
AcDbDictionary
280
0
281
1
  0
ACDBDICTIONARYWDFLT
  5
E
100
AcDbDictionary
281
1
  3
Normal
350
F
100
AcDbDictionaryWithDefault
340
F
  0
ACDBPLACEHOLDER
  5
F
  0
DICTIONARY
  5
17
100
AcDbDictionary
280
0
281
1
  3
Standard
350
18
  0
MLINESTYLE
  5
18
100
AcDbMlineStyle
  2
STANDARD
 70
0
  3

 62
256
 51
90.0
 52
90.0
 71
2
 49
0.5
 62
256
  6
BYLAYER
 49
-0.5
 62
256
  6
BYLAYER
  0
DICTIONARY
  5
19
100
AcDbDictionary
280
0
281
1
  0
DICTIONARY
  5
1A
100
AcDbDictionary
281
1
  3
Layout1
350
1E
  3
Layout2
350
26
  3
Model
350
22
  0
LAYOUT
  5
1E
100
AcDbPlotSettings
  1

  2
C:\Program Files\AutoCAD 2002\plotters\DWF ePlot (optimized for plotting).pc3
  4

  6

 40
0.0
 41
0.0
 42
0.0
 43
0.0
 44
0.0
 45
0.0
 46
0.0
 47
0.0
 48
0.0
 49
0.0
140
0.0
141
0.0
142
1.0
143
1.0
 70
688
 72
0
 73
0
 74
5
  7

 75
16
147
1.0
148
0.0
149
0.0
100
AcDbLayout
  1
Layout1
 70
1
 71
1
 10
0.0
 20
0.0
 11
420.0
 21
297.0
 12
0.0
 22
0.0
 32
0.0
 14
100000000000000000000.0
 24
100000000000000000000.0
 34
100000000000000000000.0
 15
-100000000000000000000.0
 25
-100000000000000000000.0
 35
-100000000000000000000.0
146
0.0
 13
0.0
 23
0.0
 33
0.0
 16
1.0
 26
0.0
 36
0.0
 17
0.0
 27
1.0
 37
0.0
 76
0
330
1B
  0
LAYOUT
  5
22
100
AcDbPlotSettings
  1

  2
C:\Program Files\AutoCAD 2002\plotters\DWF ePlot (optimized for plotting).pc3
  4

  6

 40
0.0
 41
0.0
 42
0.0
 43
0.0
 44
0.0
 45
0.0
 46
0.0
 47
0.0
 48
0.0
 49
0.0
140
0.0
141
0.0
142
1.0
143
1.0
 70
1712
 72
0
 73
0
 74
0
  7

 75
0
147
1.0
148
0.0
149
0.0
100
AcDbLayout
  1
Model
 70
1
 71
0
 10
0.0
 20
0.0
 11
12.0
 21
9.0
 12
0.0
 22
0.0
 32
0.0
 14
0.0
 24
0.0
 34
0.0
 15
0.0
 25
0.0
 35
0.0
146
0.0
 13
0.0
 23
0.0
 33
0.0
 16
1.0
 26
0.0
 36
0.0
 17
0.0
 27
1.0
 37
0.0
 76
0
330
1F
  0
LAYOUT
  5
26
100
AcDbPlotSettings
  1

  2
C:\Program Files\AutoCAD 2002\plotters\DWF ePlot (optimized for plotting).pc3
  4

  6

 40
0.0
 41
0.0
 42
0.0
 43
0.0
 44
0.0
 45
0.0
 46
0.0
 47
0.0
 48
0.0
 49
0.0
140
0.0
141
0.0
142
1.0
143
1.0
 70
688
 72
0
 73
0
 74
5
  7

 75
16
147
1.0
148
0.0
149
0.0
100
AcDbLayout
  1
Layout2
 70
1
 71
2
 10
0.0
 20
0.0
 11
12.0
 21
9.0
 12
0.0
 22
0.0
 32
0.0
 14
0.0
 24
0.0
 34
0.0
 15
0.0
 25
0.0
 35
0.0
146
0.0
 13
0.0
 23
0.0
 33
0.0
 16
1.0
 26
0.0
 36
0.0
 17
0.0
 27
1.0
 37
0.0
 76
0
330
23
  0
DICTIONARY
  5
3A1
100
AcDbDictionary
281
1
  3
DIMASSOC
350
3A3
  3
HIDETEXT
350
3A2
  0
DICTIONARYVAR
  5
3A2
100
DictionaryVariables
280
0
  1
2
  0
DICTIONARYVAR
  5
3A3
100
DictionaryVariables
280
0
  1
1
  0
ENDSEC
  0
EOF
