  0
SECTION
  2
HEADER
  9
$ACADVER
  1
AC1021
  9
$ACADMAINTVER
 70
    25
  9
$DWGCODEPAGE
  3
ANSI_1251
  9
$INSBASE
 10
0.0
 20
0.0
 30
0.0
  9
$EXTMIN
 10
-6.90496
 20
-7.58102
 30
0.0
  9
$EXTMAX
 10
8.76447
 20
8.73848
 30
0.0
  9
$LIMMIN
 10
0.0
 20
0.0
  9
$LIMMAX
 10
12.0
 20
9.0
  9
$ORTHOMODE
 70
     0
  9
$REGENMODE
 70
     1
  9
$FILLMODE
 70
     1
  9
$QTEXTMODE
 70
     0
  9
$MIRRTEXT
 70
     1
  9
$LTSCALE
 40
1.0
  9
$ATTMODE
 70
     1
  9
$TEXTSIZE
 40
0.2
  9
$TRACEWID
 40
0.05
  9
$TEXTSTYLE
  7
Standard
  9
$CLAYER
  8
0
  9
$CELTYPE
  6
ByLayer
  9
$CECOLOR
 62
   256
  9
$CELTSCALE
 40
1.0
  9
$DISPSILH
 70
     0
  9
$DIMSCALE
 40
1.0
  9
$DIMASZ
 40
0.18
  9
$DIMEXO
 40
0.0625
  9
$DIMDLI
 40
0.38
  9
$DIMRND
 40
0.0
  9
$DIMDLE
 40
0.0
  9
$DIMEXE
 40
0.18
  9
$DIMTP
 40
0.0
  9
$DIMTM
 40
0.0
  9
$DIMTXT
 40
0.18
  9
$DIMCEN
 40
0.09
  9
$DIMTSZ
 40
0.0
  9
$DIMTOL
 70
     0
  9
$DIMLIM
 70
     0
  9
$DIMTIH
 70
     1
  9
$DIMTOH
 70
     1
  9
$DIMSE1
 70
     0
  9
$DIMSE2
 70
     0
  9
$DIMTAD
 70
     0
  9
$DIMZIN
 70
     0
  9
$DIMBLK
  1

  9
$DIMASO
 70
     1
  9
$DIMSHO
 70
     1
  9
$DIMPOST
  1

  9
$DIMAPOST
  1

  9
$DIMALT
 70
     0
  9
$DIMALTD
 70
     2
  9
$DIMALTF
 40
25.4
  9
$DIMLFAC
 40
1.0
  9
$DIMTOFL
 70
     0
  9
$DIMTVP
 40
0.0
  9
$DIMTIX
 70
     0
  9
$DIMSOXD
 70
     0
  9
$DIMSAH
 70
     0
  9
$DIMBLK1
  1

  9
$DIMBLK2
  1

  9
$DIMSTYLE
  2
Standard
  9
$DIMCLRD
 70
     0
  9
$DIMCLRE
 70
     0
  9
$DIMCLRT
 70
     0
  9
$DIMTFAC
 40
1.0
  9
$DIMGAP
 40
0.09
  9
$DIMJUST
 70
     0
  9
$DIMSD1
 70
     0
  9
$DIMSD2
 70
     0
  9
$DIMTOLJ
 70
     1
  9
$DIMTZIN
 70
     0
  9
$DIMALTZ
 70
     0
  9
$DIMALTTZ
 70
     0
  9
$DIMUPT
 70
     0
  9
$DIMDEC
 70
     4
  9
$DIMTDEC
 70
     4
  9
$DIMALTU
 70
     2
  9
$DIMALTTD
 70
     2
  9
$DIMTXSTY
  7
Standard
  9
$DIMAUNIT
 70
     0
  9
$DIMADEC
 70
     0
  9
$DIMALTRND
 40
0.0
  9
$DIMAZIN
 70
     0
  9
$DIMDSEP
 70
    46
  9
$DIMATFIT
 70
     3
  9
$DIMFRAC
 70
     0
  9
$DIMLDRBLK
  1

  9
$DIMLUNIT
 70
     2
  9
$DIMLWD
 70
    -2
  9
$DIMLWE
 70
    -2
  9
$DIMTMOVE
 70
     0
  9
$DIMFXL
 40
1.0
  9
$DIMFXLON
 70
     0
  9
$DIMJOGANG
 40
0.7853981633974483
  9
$DIMTFILL
 70
     0
  9
$DIMTFILLCLR
 70
     0
  9
$DIMARCSYM
 70
     0
  9
$DIMLTYPE
  6

  9
$DIMLTEX1
  6

  9
$DIMLTEX2
  6

  9
$LUNITS
 70
     2
  9
$LUPREC
 70
     4
  9
$SKETCHINC
 40
0.1
  9
$FILLETRAD
 40
0.5
  9
$AUNITS
 70
     0
  9
$AUPREC
 70
     0
  9
$MENU
  1
.
  9
$ELEVATION
 40
0.0
  9
$PELEVATION
 40
0.0
  9
$THICKNESS
 40
0.0
  9
$LIMCHECK
 70
     0
  9
$CHAMFERA
 40
0.5
  9
$CHAMFERB
 40
0.5
  9
$CHAMFERC
 40
1.0
  9
$CHAMFERD
 40
0.0
  9
$SKPOLY
 70
     0
  9
$TDCREATE
 40
2457190.879036238
  9
$TDUCREATE
 40
2457190.754036238
  9
$TDUPDATE
 40
2457190.87903625
  9
$TDUUPDATE
 40
2457190.75403625
  9
$TDINDWG
 40
0.0000000116
  9
$TDUSRTIMER
 40
0.0000000116
  9
$USRTIMER
 70
     1
  9
$ANGBASE
 50
0.0
  9
$ANGDIR
 70
     0
  9
$PDMODE
 70
     0
  9
$PDSIZE
 40
0.0
  9
$PLINEWID
 40
0.0
  9
$SPLFRAME
 70
     0
  9
$SPLINETYPE
 70
     6
  9
$SPLINESEGS
 70
     8
  9
$HANDSEED
  5
75
  9
$SURFTAB1
 70
     6
  9
$SURFTAB2
 70
     6
  9
$SURFTYPE
 70
     6
  9
$SURFU
 70
     6
  9
$SURFV
 70
     6
  9
$UCSBASE
  2

  9
$UCSNAME
  2

  9
$UCSORG
 10
0.0
 20
0.0
 30
0.0
  9
$UCSXDIR
 10
1.0
 20
0.0
 30
0.0
  9
$UCSYDIR
 10
0.0
 20
1.0
 30
0.0
  9
$UCSORTHOREF
  2

  9
$UCSORTHOVIEW
 70
     0
  9
$UCSORGTOP
 10
0.0
 20
0.0
 30
0.0
  9
$UCSORGBOTTOM
 10
0.0
 20
0.0
 30
0.0
  9
$UCSORGLEFT
 10
0.0
 20
0.0
 30
0.0
  9
$UCSORGRIGHT
 10
0.0
 20
0.0
 30
0.0
  9
$UCSORGFRONT
 10
0.0
 20
0.0
 30
0.0
  9
$UCSORGBACK
 10
0.0
 20
0.0
 30
0.0
  9
$PUCSBASE
  2

  9
$PUCSNAME
  2

  9
$PUCSORG
 10
0.0
 20
0.0
 30
0.0
  9
$PUCSXDIR
 10
1.0
 20
0.0
 30
0.0
  9
$PUCSYDIR
 10
0.0
 20
1.0
 30
0.0
  9
$PUCSORTHOREF
  2

  9
$PUCSORTHOVIEW
 70
     0
  9
$PUCSORGTOP
 10
0.0
 20
0.0
 30
0.0
  9
$PUCSORGBOTTOM
 10
0.0
 20
0.0
 30
0.0
  9
$PUCSORGLEFT
 10
0.0
 20
0.0
 30
0.0
  9
$PUCSORGRIGHT
 10
0.0
 20
0.0
 30
0.0
  9
$PUCSORGFRONT
 10
0.0
 20
0.0
 30
0.0
  9
$PUCSORGBACK
 10
0.0
 20
0.0
 30
0.0
  9
$USERI1
 70
     0
  9
$USERI2
 70
     0
  9
$USERI3
 70
     0
  9
$USERI4
 70
     0
  9
$USERI5
 70
     0
  9
$USERR1
 40
0.0
  9
$USERR2
 40
0.0
  9
$USERR3
 40
0.0
  9
$USERR4
 40
0.0
  9
$USERR5
 40
0.0
  9
$WORLDVIEW
 70
     1
  9
$SHADEDGE
 70
     3
  9
$SHADEDIF
 70
    70
  9
$TILEMODE
 70
     1
  9
$MAXACTVP
 70
    64
  9
$PINSBASE
 10
0.0
 20
0.0
 30
0.0
  9
$PLIMCHECK
 70
     0
  9
$PEXTMIN
 10
1.000000000000000E+20
 20
1.000000000000000E+20
 30
1.000000000000000E+20
  9
$PEXTMAX
 10
-1.000000000000000E+20
 20
-1.000000000000000E+20
 30
-1.000000000000000E+20
  9
$PLIMMIN
 10
0.0
 20
0.0
  9
$PLIMMAX
 10
12.0
 20
9.0
  9
$UNITMODE
 70
     0
  9
$VISRETAIN
 70
     1
  9
$PLINEGEN
 70
     0
  9
$PSLTSCALE
 70
     1
  9
$TREEDEPTH
 70
  3020
  9
$CMLSTYLE
  2
Standard
  9
$CMLJUST
 70
     0
  9
$CMLSCALE
 40
1.0
  9
$PROXYGRAPHICS
 70
     1
  9
$MEASUREMENT
 70
     0
  9
$CELWEIGHT
370
    -1
  9
$ENDCAPS
280
     0
  9
$JOINSTYLE
280
     0
  9
$LWDISPLAY
290
     0
  9
$INSUNITS
 70
     5
  9
$HYPERLINKBASE
  1

  9
$STYLESHEET
  1

  9
$XEDIT
290
     1
  9
$CEPSNTYPE
380
     0
  9
$PSTYLEMODE
290
     1
  9
$FINGERPRINTGUID
  2
{C4F997BB-8405-4565-BC06-0D6D33DD0A94}
  9
$VERSIONGUID
  2
{FAEB1C32-E019-11D5-929B-00C0DF256EC4}
  9
$EXTNAMES
290
     1
  9
$PSVPSCALE
 40
0.0
  9
$OLESTARTUP
290
     0
  9
$SORTENTS
280
   127
  9
$INDEXCTL
280
     0
  9
$HIDETEXT
280
     1
  9
$XCLIPFRAME
290
     0
  9
$HALOGAP
280
     0
  9
$OBSCOLOR
 70
   257
  9
$OBSLTYPE
280
     0
  9
$INTERSECTIONDISPLAY
280
     0
  9
$INTERSECTIONCOLOR
 70
   257
  9
$DIMASSOC
280
     2
  9
$PROJECTNAME
  1

  9
$CAMERADISPLAY
290
     0
  9
$LENSLENGTH
 40
50.0
  9
$CAMERAHEIGHT
 40
0.0
  9
$STEPSPERSEC
 40
2.0
  9
$STEPSIZE
 40
6.0
  9
$3DDWFPREC
 40
2.0
  9
$PSOLWIDTH
 40
0.25
  9
$PSOLHEIGHT
 40
4.0
  9
$LOFTANG1
 40
1.570796326794897
  9
$LOFTANG2
 40
1.570796326794897
  9
$LOFTMAG1
 40
0.0
  9
$LOFTMAG2
 40
0.0
  9
$LOFTPARAM
 70
     7
  9
$LOFTNORMALS
280
     1
  9
$LATITUDE
 40
37.795
  9
$LONGITUDE
 40
-122.394
  9
$NORTHDIRECTION
 40
0.0
  9
$TIMEZONE
 70
 -8000
  9
$LIGHTGLYPHDISPLAY
280
     1
  9
$TILEMODELIGHTSYNCH
280
     1
  9
$SOLIDHIST
280
     1
  9
$SHOWHIST
280
     1
  9
$DWFFRAME
280
     2
  9
$DGNFRAME
280
     2
  9
$REALWORLDSCALE
290
     1
  9
$INTERFERECOLOR
 62
   256
  9
$CSHADOW
280
     0
  9
$SHADOWPLANELOCATION
 40
0.0
  0
ENDSEC
  0
SECTION
  2
CLASSES
  0
CLASS
  1
ACDBDICTIONARYWDFLT
  2
AcDbDictionaryWithDefault
  3
ObjectDBX Classes
 90
        0
 91
        3
280
     0
281
     0
  0
CLASS
  1
VISUALSTYLE
  2
AcDbVisualStyle
  3
ObjectDBX Classes
 90
     4095
 91
        3
280
     0
281
     0
  0
CLASS
  1
SCALE
  2
AcDbScale
  3
ObjectDBX Classes
 90
     1153
 91
        3
280
     0
281
     0
  0
ENDSEC
  0
SECTION
  2
TABLES
  0
TABLE
  2
VPORT
  5
8
330
0
100
AcDbSymbolTable
 70
     1
  0
VPORT
  5
29
330
8
100
AcDbSymbolTableRecord
100
AcDbViewportTableRecord
  2
*Active
 70
     0
 10
0.0
 20
0.0
 11
1.0
 21
1.0
 12
10.42990654205607
 22
4.5
 13
0.0
 23
0.0
 14
0.5
 24
0.5
 15
0.5
 25
0.5
 16
0.0
 26
0.0
 36
1.0
 17
0.0
 27
0.0
 37
0.0
 40
9.0
 41
1.972972972850329
 42
50.0
 43
0.0
 44
0.0
 50
0.0
 51
0.0
 71
     0
 72
   100
 73
     1
 74
     3
 75
     0
 76
     0
 77
     0
 78
     0
281
     0
 65
     1
110
0.0
120
0.0
130
0.0
111
1.0
121
0.0
131
0.0
112
0.0
122
1.0
132
0.0
 79
     0
146
0.0
 60
     3
 61
     5
292
     1
282
     1
141
0.0
142
0.0
 63
   256
  0
ENDTAB
  0
TABLE
  2
LTYPE
  5
5
330
0
100
AcDbSymbolTable
 70
     1
  0
LTYPE
  5
14
330
5
100
AcDbSymbolTableRecord
100
AcDbLinetypeTableRecord
  2
ByBlock
 70
     0
  3

 72
    65
 73
     0
 40
0.0
  0
LTYPE
  5
15
330
5
100
AcDbSymbolTableRecord
100
AcDbLinetypeTableRecord
  2
ByLayer
 70
     0
  3

 72
    65
 73
     0
 40
0.0
  0
LTYPE
  5
16
330
5
100
AcDbSymbolTableRecord
100
AcDbLinetypeTableRecord
  2
Continuous
 70
     0
  3
Solid line
 72
    65
 73
     0
 40
0.0
  0
ENDTAB
  0
TABLE
  2
LAYER
  5
2
330
0
100
AcDbSymbolTable
 70
     2
  0
LAYER
  5
10
330
2
100
AcDbSymbolTableRecord
100
AcDbLayerTableRecord
  2
0
 70
     0
 62
     7
  6
Continuous
370
    -3
390
F
347
0
  0
LAYER
  5
5E
330
2
100
AcDbSymbolTableRecord
100
AcDbLayerTableRecord
  2
layer 1
 70
     0
 62
     7
  6
Continuous
370
    -3
390
F
347
0
  0
ENDTAB
  0
TABLE
  2
STYLE
  5
3
330
0
100
AcDbSymbolTable
 70
     1
  0
STYLE
  5
11
330
3
100
AcDbSymbolTableRecord
100
AcDbTextStyleTableRecord
  2
Standard
 70
     0
 40
0.0
 41
1.0
 50
0.0
 71
     0
 42
0.2
  3
txt
  4

  0
ENDTAB
  0
TABLE
  2
VIEW
  5
6
330
0
100
AcDbSymbolTable
 70
     0
  0
ENDTAB
  0
TABLE
  2
UCS
  5
7
330
0
100
AcDbSymbolTable
 70
     0
  0
ENDTAB
  0
TABLE
  2
APPID
  5
9
330
0
100
AcDbSymbolTable
 70
     2
  0
APPID
  5
12
330
9
100
AcDbSymbolTableRecord
100
AcDbRegAppTableRecord
  2
ACAD
 70
     0
  0
APPID
  5
5D
330
9
100
AcDbSymbolTableRecord
100
AcDbRegAppTableRecord
  2
ODA
 70
     0
  0
ENDTAB
  0
TABLE
  2
DIMSTYLE
  5
A
330
0
100
AcDbSymbolTable
 70
     1
100
AcDbDimStyleTable
  0
DIMSTYLE
105
27
330
A
100
AcDbSymbolTableRecord
100
AcDbDimStyleTableRecord
  2
Standard
 70
     0
340
11
  0
ENDTAB
  0
TABLE
  2
BLOCK_RECORD
  5
1
330
0
100
AcDbSymbolTable
 70
     1
  0
BLOCK_RECORD
  5
1F
330
1
100
AcDbSymbolTableRecord
100
AcDbBlockTableRecord
  2
*Model_Space
340
22
 70
     0
280
     1
281
     0
  0
BLOCK_RECORD
  5
1B
330
1
100
AcDbSymbolTableRecord
100
AcDbBlockTableRecord
  2
*Paper_Space
340
1E
 70
     0
280
     1
281
     0
  0
BLOCK_RECORD
  5
23
330
1
100
AcDbSymbolTableRecord
100
AcDbBlockTableRecord
  2
*Paper_Space0
340
26
 70
     0
280
     1
281
     0
  0
ENDTAB
  0
ENDSEC
  0
SECTION
  2
BLOCKS
  0
BLOCK
  5
20
330
1F
100
AcDbEntity
  8
0
100
AcDbBlockBegin
  2
*Model_Space
 70
     0
 10
0.0
 20
0.0
 30
0.0
  3
*Model_Space
  1

  0
ENDBLK
  5
21
330
1F
100
AcDbEntity
  8
0
100
AcDbBlockEnd
  0
BLOCK
  5
1C
330
1B
100
AcDbEntity
 67
     1
  8
0
100
AcDbBlockBegin
  2
*Paper_Space
 70
     0
 10
0.0
 20
0.0
 30
0.0
  3
*Paper_Space
  1

  0
ENDBLK
  5
1D
330
1B
100
AcDbEntity
 67
     1
  8
0
100
AcDbBlockEnd
  0
BLOCK
  5
24
330
23
100
AcDbEntity
  8
0
100
AcDbBlockBegin
  2
*Paper_Space0
 70
     0
 10
0.0
 20
0.0
 30
0.0
  3
*Paper_Space0
  1

  0
ENDBLK
  5
25
330
23
100
AcDbEntity
  8
0
100
AcDbBlockEnd
  0
ENDSEC
  0
SECTION
  2
ENTITIES
  0
SPLINE
  5
5F
330
1F
100
AcDbEntity
  8
layer 1
 62
   250
100
AcDbSpline
210
0.0
220
0.0
230
1.0
 70
    27
 71
     3
 72
     8
 73
     4
 74
     0
 42
0.0000000001
 43
0.0000000001
 40
0.0
 40
0.0
 40
0.0
 40
0.0
 40
1.0
 40
1.0
 40
1.0
 40
1.0
 10
-2.32914
 20
0.02957
 30
0.0
 10
-2.32914
 20
0.02957
 30
0.0
 10
-2.32914
 20
0.02957
 30
0.0
 10
-2.32914
 20
0.02957
 30
0.0
  0
SPLINE
  5
60
330
1F
100
AcDbEntity
  8
layer 1
 62
     1
100
AcDbSpline
210
0.0
220
0.0
230
1.0
 70
    11
 71
     3
 72
   224
 73
   220
 74
     0
 42
0.0000000001
 43
0.0000000001
 40
0.0
 40
0.0
 40
0.0
 40
0.0
 40
0.0181818181818182
 40
0.0181818181818182
 40
0.0181818181818182
 40
0.0181818181818182
 40
0.0363636363636364
 40
0.0363636363636364
 40
0.0363636363636364
 40
0.0363636363636364
 40
0.0545454545454545
 40
0.0545454545454545
 40
0.0545454545454545
 40
0.0545454545454545
 40
0.0727272727272727
 40
0.0727272727272727
 40
0.0727272727272727
 40
0.0727272727272727
 40
0.0909090909090909
 40
0.0909090909090909
 40
0.0909090909090909
 40
0.0909090909090909
 40
0.1090909090909091
 40
0.1090909090909091
 40
0.1090909090909091
 40
0.1090909090909091
 40
0.1272727272727273
 40
0.1272727272727273
 40
0.1272727272727273
 40
0.1272727272727273
 40
0.1454545454545455
 40
0.1454545454545455
 40
0.1454545454545455
 40
0.1454545454545455
 40
0.1636363636363637
 40
0.1636363636363637
 40
0.1636363636363637
 40
0.1636363636363637
 40
0.1818181818181819
 40
0.1818181818181819
 40
0.1818181818181819
 40
0.1818181818181819
 40
0.2
 40
0.2
 40
0.2
 40
0.2
 40
0.2181818181818182
 40
0.2181818181818182
 40
0.2181818181818182
 40
0.2181818181818182
 40
0.2363636363636364
 40
0.2363636363636364
 40
0.2363636363636364
 40
0.2363636363636364
 40
0.2545454545454546
 40
0.2545454545454546
 40
0.2545454545454546
 40
0.2545454545454546
 40
0.2727272727272728
 40
0.2727272727272728
 40
0.2727272727272728
 40
0.2727272727272728
 40
0.290909090909091
 40
0.290909090909091
 40
0.290909090909091
 40
0.290909090909091
 40
0.3090909090909091
 40
0.3090909090909091
 40
0.3090909090909091
 40
0.3090909090909091
 40
0.3272727272727273
 40
0.3272727272727273
 40
0.3272727272727273
 40
0.3272727272727273
 40
0.3454545454545455
 40
0.3454545454545455
 40
0.3454545454545455
 40
0.3454545454545455
 40
0.3636363636363637
 40
0.3636363636363637
 40
0.3636363636363637
 40
0.3636363636363637
 40
0.3818181818181819
 40
0.3818181818181819
 40
0.3818181818181819
 40
0.3818181818181819
 40
0.4000000000000001
 40
0.4000000000000001
 40
0.4000000000000001
 40
0.4000000000000001
 40
0.4181818181818183
 40
0.4181818181818183
 40
0.4181818181818183
 40
0.4181818181818183
 40
0.4363636363636365
 40
0.4363636363636365
 40
0.4363636363636365
 40
0.4363636363636365
 40
0.4545454545454546
 40
0.4545454545454546
 40
0.4545454545454546
 40
0.4545454545454546
 40
0.4727272727272728
 40
0.4727272727272728
 40
0.4727272727272728
 40
0.4727272727272728
 40
0.490909090909091
 40
0.490909090909091
 40
0.490909090909091
 40
0.490909090909091
 40
0.5090909090909091
 40
0.5090909090909091
 40
0.5090909090909091
 40
0.5090909090909091
 40
0.5272727272727273
 40
0.5272727272727273
 40
0.5272727272727273
 40
0.5272727272727273
 40
0.5454545454545455
 40
0.5454545454545455
 40
0.5454545454545455
 40
0.5454545454545455
 40
0.5636363636363637
 40
0.5636363636363637
 40
0.5636363636363637
 40
0.5636363636363637
 40
0.5818181818181819
 40
0.5818181818181819
 40
0.5818181818181819
 40
0.5818181818181819
 40
0.6000000000000001
 40
0.6000000000000001
 40
0.6000000000000001
 40
0.6000000000000001
 40
0.6181818181818183
 40
0.6181818181818183
 40
0.6181818181818183
 40
0.6181818181818183
 40
0.6363636363636365
 40
0.6363636363636365
 40
0.6363636363636365
 40
0.6363636363636365
 40
0.6545454545454547
 40
0.6545454545454547
 40
0.6545454545454547
 40
0.6545454545454547
 40
0.6727272727272728
 40
0.6727272727272728
 40
0.6727272727272728
 40
0.6727272727272728
 40
0.690909090909091
 40
0.690909090909091
 40
0.690909090909091
 40
0.690909090909091
 40
0.7090909090909092
 40
0.7090909090909092
 40
0.7090909090909092
 40
0.7090909090909092
 40
0.7272727272727274
 40
0.7272727272727274
 40
0.7272727272727274
 40
0.7272727272727274
 40
0.7454545454545456
 40
0.7454545454545456
 40
0.7454545454545456
 40
0.7454545454545456
 40
0.7636363636363638
 40
0.7636363636363638
 40
0.7636363636363638
 40
0.7636363636363638
 40
0.781818181818182
 40
0.781818181818182
 40
0.781818181818182
 40
0.781818181818182
 40
0.8000000000000002
 40
0.8000000000000002
 40
0.8000000000000002
 40
0.8000000000000002
 40
0.8181818181818183
 40
0.8181818181818183
 40
0.8181818181818183
 40
0.8181818181818183
 40
0.8363636363636365
 40
0.8363636363636365
 40
0.8363636363636365
 40
0.8363636363636365
 40
0.8545454545454547
 40
0.8545454545454547
 40
0.8545454545454547
 40
0.8545454545454547
 40
0.8727272727272729
 40
0.8727272727272729
 40
0.8727272727272729
 40
0.8727272727272729
 40
0.8909090909090911
 40
0.8909090909090911
 40
0.8909090909090911
 40
0.8909090909090911
 40
0.9090909090909093
 40
0.9090909090909093
 40
0.9090909090909093
 40
0.9090909090909093
 40
0.9272727272727275
 40
0.9272727272727275
 40
0.9272727272727275
 40
0.9272727272727275
 40
0.9454545454545457
 40
0.9454545454545457
 40
0.9454545454545457
 40
0.9454545454545457
 40
0.9636363636363638
 40
0.9636363636363638
 40
0.9636363636363638
 40
0.9636363636363638
 40
0.981818181818182
 40
0.981818181818182
 40
0.981818181818182
 40
0.981818181818182
 40
1.0
 40
1.0
 40
1.0
 40
1.0
 10
-2.47701
 20
-0.15204
 30
0.0
 10
-2.52222
 20
0.11869
 30
0.0
 10
-2.38065
 20
0.17045
 30
0.0
 10
-2.38065
 20
0.17045
 30
0.0
 10
-2.38065
 20
0.17045
 30
0.0
 10
-2.38065
 20
0.17045
 30
0.0
 10
-2.26716
 20
0.28326
 30
0.0
 10
-2.12047
 20
0.08667
 30
0.0
 10
-2.12047
 20
0.08667
 30
0.0
 10
-1.98316
 20
-0.09735
 30
0.0
 10
-1.72068
 20
-0.52283
 30
0.0
 10
-1.57597
 20
-0.98339
 30
0.0
 10
-1.57597
 20
-0.98339
 30
0.0
 10
-1.42833
 20
-1.45326
 30
0.0
 10
-1.0336
 20
-1.96206
 30
0.0
 10
-0.75344
 20
-1.93301
 30
0.0
 10
-0.75344
 20
-1.93301
 30
0.0
 10
-0.41328
 20
-1.89773
 30
0.0
 10
0.17703
 20
-2.91198
 30
0.0
 10
0.22112
 20
-3.0619
 30
0.0
 10
0.22112
 20
-3.0619
 30
0.0
 10
0.24874
 20
-3.15585
 30
0.0
 10
0.84405
 20
-4.61507
 30
0.0
 10
0.76792
 20
-3.64398
 30
0.0
 10
0.76792
 20
-3.64398
 30
0.0
 10
0.73388
 20
-3.20979
 30
0.0
 10
0.95923
 20
-3.35802
 30
0.0
 10
1.08542
 20
-3.95267
 30
0.0
 10
1.08542
 20
-3.95267
 30
0.0
 10
1.21161
 20
-4.54732
 30
0.0
 10
1.24074
 20
-3.72465
 30
0.0
 10
1.35001
 20
-4.14669
 30
0.0
 10
1.35001
 20
-4.14669
 30
0.0
 10
1.59102
 20
-5.07754
 30
0.0
 10
2.24598
 20
-4.12924
 30
0.0
 10
1.93206
 20
-6.12981
 30
0.0
 10
1.93206
 20
-6.12981
 30
0.0
 10
1.85034
 20
-6.65067
 30
0.0
 10
2.40076
 20
-6.81136
 30
0.0
 10
2.41034
 20
-6.05934
 30
0.0
 10
2.41034
 20
-6.05934
 30
0.0
 10
2.4149
 20
-5.70119
 30
0.0
 10
2.12953
 20
-5.57289
 30
0.0
 10
2.24959
 20
-5.0551
 30
0.0
 10
2.24959
 20
-5.0551
 30
0.0
 10
2.3907
 20
-4.44657
 30
0.0
 10
2.47008
 20
-4.40245
 30
0.0
 10
2.47008
 20
-4.62294
 30
0.0
 10
2.47008
 20
-4.62294
 30
0.0
 10
2.47008
 20
-4.84343
 30
0.0
 10
2.3907
 20
-4.87872
 30
0.0
 10
2.39952
 20
-5.07274
 30
0.0
 10
2.39952
 20
-5.07274
 30
0.0
 10
2.40834
 20
-5.26676
 30
0.0
 10
2.523
 20
-5.4211
 30
0.0
 10
2.63765
 20
-5.16093
 30
0.0
 10
2.63765
 20
-5.16093
 30
0.0
 10
2.7523
 20
-4.90076
 30
0.0
 10
2.43481
 20
-4.23489
 30
0.0
 10
2.69057
 20
-3.93503
 30
0.0
 10
2.69057
 20
-3.93503
 30
0.0
 10
2.94633
 20
-3.63517
 30
0.0
 10
2.9375
 20
-3.59107
 30
0.0
 10
2.9816
 20
-3.76746
 30
0.0
 10
2.9816
 20
-3.76746
 30
0.0
 10
3.0257
 20
-3.94385
 30
0.0
 10
3.08744
 20
-3.76746
 30
0.0
 10
3.10508
 20
-3.55579
 30
0.0
 10
3.10508
 20
-3.55579
 30
0.0
 10
3.12272
 20
-3.34412
 30
0.0
 10
3.22856
 20
-3.04427
 30
0.0
 10
3.27265
 20
-3.44996
 30
0.0
 10
3.27265
 20
-3.44996
 30
0.0
 10
3.31674
 20
-3.85565
 30
0.0
 10
3.32556
 20
-4.79934
 30
0.0
 10
3.31674
 20
-5.21385
 30
0.0
 10
3.31674
 20
-5.21385
 30
0.0
 10
3.3033
 20
-5.84551
 30
0.0
 10
3.28238
 20
-6.49133
 30
0.0
 10
3.25512
 20
-7.12288
 30
0.0
 10
3.25512
 20
-7.12288
 30
0.0
 10
3.2295
 20
-7.71756
 30
0.0
 10
3.50076
 20
-7.75581
 30
0.0
 10
3.54914
 20
-7.10519
 30
0.0
 10
3.54914
 20
-7.10519
 30
0.0
 10
3.60152
 20
-6.40115
 30
0.0
 10
3.38914
 20
-4.85439
 30
0.0
 10
3.38178
 20
-4.1638
 30
0.0
 10
3.38178
 20
-4.1638
 30
0.0
 10
3.37539
 20
-3.56498
 30
0.0
 10
3.63227
 20
-3.81584
 30
0.0
 10
3.54853
 20
-4.27292
 30
0.0
 10
3.54853
 20
-4.27292
 30
0.0
 10
3.3607
 20
-5.29766
 30
0.0
 10
3.91291
 20
-6.38835
 30
0.0
 10
3.64028
 20
-3.92626
 30
0.0
 10
3.64028
 20
-3.92626
 30
0.0
 10
3.61837
 20
-3.7284
 30
0.0
 10
3.63011
 20
-3.54624
 30
0.0
 10
3.64311
 20
-3.41472
 30
0.0
 10
3.64311
 20
-3.41472
 30
0.0
 10
3.69196
 20
-2.9206
 30
0.0
 10
3.84349
 20
-2.695
 30
0.0
 10
3.81951
 20
-2.48427
 30
0.0
 10
3.81951
 20
-2.48427
 30
0.0
 10
3.79553
 20
-2.27354
 30
0.0
 10
3.92533
 20
-2.07416
 30
0.0
 10
4.07526
 20
-1.99479
 30
0.0
 10
4.07526
 20
-1.99479
 30
0.0
 10
4.22519
 20
-1.91542
 30
0.0
 10
4.30816
 20
-1.66983
 30
0.0
 10
4.28142
 20
-1.43256
 30
0.0
 10
4.28142
 20
-1.43256
 30
0.0
 10
4.25047
 20
-1.15793
 30
0.0
 10
4.73053
 20
-0.31446
 30
0.0
 10
4.73011
 20
-0.76889
 30
0.0
 10
4.73011
 20
-0.76889
 30
0.0
 10
4.72984
 20
-1.0567
 30
0.0
 10
4.9962
 20
-1.10139
 30
0.0
 10
4.95721
 20
-0.81298
 30
0.0
 10
4.95721
 20
-0.81298
 30
0.0
 10
4.86698
 20
-0.14561
 30
0.0
 10
4.76138
 20
-0.5399
 30
0.0
 10
5.27471
 20
0.30709
 30
0.0
 10
5.27471
 20
0.30709
 30
0.0
 10
5.4511
 20
0.59813
 30
0.0
 10
6.84457
 20
2.88237
 30
0.0
 10
6.84457
 20
2.88237
 30
0.0
 10
6.84457
 20
2.88237
 30
0.0
 10
6.99393
 20
3.1896
 30
0.0
 10
7.4722
 20
4.05441
 30
0.0
 10
7.82231
 20
4.45295
 30
0.0
 10
7.82231
 20
4.45295
 30
0.0
 10
7.94777
 20
4.59576
 30
0.0
 10
7.9661
 20
4.76581
 30
0.0
 10
7.97346
 20
4.85792
 30
0.0
 10
7.97346
 20
4.85792
 30
0.0
 10
7.9911
 20
5.0784
 30
0.0
 10
8.17631
 20
5.04058
 30
0.0
 10
8.14985
 20
4.91966
 30
0.0
 10
8.14985
 20
4.91966
 30
0.0
 10
8.04192
 20
4.4264
 30
0.0
 10
8.42374
 20
4.63643
 30
0.0
 10
8.32624
 20
4.79619
 30
0.0
 10
8.32624
 20
4.79619
 30
0.0
 10
8.22475
 20
4.9625
 30
0.0
 10
8.22923
 20
4.96376
 30
0.0
 10
8.23805
 20
5.08723
 30
0.0
 10
8.23805
 20
5.08723
 30
0.0
 10
8.25692
 20
5.35144
 30
0.0
 10
8.50682
 20
5.12009
 30
0.0
 10
8.46735
 20
5.47529
 30
0.0
 10
8.46735
 20
5.47529
 30
0.0
 10
8.44971
 20
5.63404
 30
0.0
 10
8.57318
 20
5.64285
 30
0.0
 10
8.6261
 20
5.72223
 30
0.0
 10
8.6261
 20
5.72223
 30
0.0
 10
8.67902
 20
5.80161
 30
0.0
 10
8.88187
 20
5.92508
 30
0.0
 10
8.6702
 20
6.2073
 30
0.0
 10
8.6702
 20
6.2073
 30
0.0
 10
8.45853
 20
6.48952
 30
0.0
 10
6.75638
 20
8.73848
 30
0.0
 10
6.75638
 20
8.73848
 30
0.0
 10
6.75638
 20
8.73848
 30
0.0
 10
3.39323
 20
8.73848
 30
0.0
 10
0.03007
 20
8.73848
 30
0.0
 10
-3.33308
 20
8.73848
 30
0.0
 10
-3.33308
 20
8.73848
 30
0.0
 10
-4.52371
 20
7.45966
 30
0.0
 10
-5.71433
 20
6.18084
 30
0.0
 10
-6.90496
 20
4.90202
 30
0.0
 10
-6.90496
 20
4.90202
 30
0.0
 10
-6.1847
 20
4.13473
 30
0.0
 10
-5.46445
 20
3.36743
 30
0.0
 10
-4.74419
 20
2.60014
 30
0.0
 10
-4.74419
 20
2.60014
 30
0.0
 10
-4.48255
 20
2.31792
 30
0.0
 10
-4.2209
 20
2.0357
 30
0.0
 10
-3.95926
 20
1.75348
 30
0.0
 10
-3.95926
 20
1.75348
 30
0.0
 10
-3.95926
 20
1.75348
 30
0.0
 10
-3.41245
 20
1.10965
 30
0.0
 10
-3.46537
 20
0.54521
 30
0.0
 10
-3.46537
 20
0.54521
 30
0.0
 10
-3.51829
 20
-0.01923
 30
0.0
 10
-3.29779
 20
-0.96291
 30
0.0
 10
-3.40363
 20
-1.1393
 30
0.0
 10
-3.40363
 20
-1.1393
 30
0.0
 10
-3.50947
 20
-1.31569
 30
0.0
 10
-3.43891
 20
-2.06535
 30
0.0
 10
-3.43891
 20
-2.06535
 30
0.0
 10
-3.43891
 20
-2.06535
 30
0.0
 10
-3.43891
 20
-2.06535
 30
0.0
 10
-3.31544
 20
-2.57688
 30
0.0
 10
-3.13023
 20
-2.04771
 30
0.0
 10
-3.13023
 20
-2.04771
 30
0.0
 10
-2.94502
 20
-1.51854
 30
0.0
 10
-3.19049
 20
-1.51854
 30
0.0
 10
-3.2096
 20
-1.2716
 30
0.0
 10
-3.2096
 20
-1.2716
 30
0.0
 10
-3.25939
 20
-0.62819
 30
0.0
 10
-3.47286
 20
-0.07783
 30
0.0
 10
-3.18315
 20
0.48348
 30
0.0
 10
-3.18315
 20
0.48348
 30
0.0
 10
-3.15963
 20
0.52905
 30
0.0
 10
-3.0244
 20
0.65105
 30
0.0
 10
-2.99794
 20
0.43056
 30
0.0
 10
-2.99794
 20
0.43056
 30
0.0
 10
-2.97148
 20
0.21007
 30
0.0
 10
-3.09495
 20
0.02487
 30
0.0
 10
-2.77745
 20
0.12188
 30
0.0
 10
-2.77745
 20
0.12188
 30
0.0
 10
-2.53318
 20
0.19651
 30
0.0
 10
-2.58111
 20
0.10732
 30
0.0
 10
-2.65661
 20
-0.11419
 30
0.0
 10
-2.65661
 20
-0.11419
 30
0.0
 10
-3.02683
 20
-1.20036
 30
0.0
 10
-2.33541
 20
-1.00005
 30
0.0
 10
-2.47701
 20
-0.15204
 30
0.0
  0
SPLINE
  5
61
330
1F
100
AcDbEntity
  8
layer 1
 62
     2
100
AcDbSpline
210
0.0
220
0.0
230
1.0
 70
    11
 71
     3
 72
    12
 73
     8
 74
     0
 42
0.0000000001
 43
0.0000000001
 40
0.0
 40
0.0
 40
0.0
 40
0.0
 40
0.5
 40
0.5
 40
0.5
 40
0.5
 40
1.0
 40
1.0
 40
1.0
 40
1.0
 10
0.10823
 20
-1.08632
 30
0.0
 10
0.61976
 20
-1.66252
 30
0.0
 10
1.13128
 20
-2.23873
 30
0.0
 10
1.64281
 20
-2.81493
 30
0.0
 10
1.64281
 20
-2.81493
 30
0.0
 10
1.79537
 20
-1.36187
 30
0.0
 10
1.57671
 20
-0.9708
 30
0.0
 10
0.10823
 20
-1.08632
 30
0.0
  0
SPLINE
  5
62
330
1F
100
AcDbEntity
  8
layer 1
 62
     2
100
AcDbSpline
210
0.0
220
0.0
230
1.0
 70
    11
 71
     3
 72
    48
 73
    44
 74
     0
 42
0.0000000001
 43
0.0000000001
 40
0.0
 40
0.0
 40
0.0
 40
0.0
 40
0.0909090909090909
 40
0.0909090909090909
 40
0.0909090909090909
 40
0.0909090909090909
 40
0.1818181818181818
 40
0.1818181818181818
 40
0.1818181818181818
 40
0.1818181818181818
 40
0.2727272727272727
 40
0.2727272727272727
 40
0.2727272727272727
 40
0.2727272727272727
 40
0.3636363636363636
 40
0.3636363636363636
 40
0.3636363636363636
 40
0.3636363636363636
 40
0.4545454545454546
 40
0.4545454545454546
 40
0.4545454545454546
 40
0.4545454545454546
 40
0.5454545454545455
 40
0.5454545454545455
 40
0.5454545454545455
 40
0.5454545454545455
 40
0.6363636363636365
 40
0.6363636363636365
 40
0.6363636363636365
 40
0.6363636363636365
 40
0.7272727272727274
 40
0.7272727272727274
 40
0.7272727272727274
 40
0.7272727272727274
 40
0.8181818181818183
 40
0.8181818181818183
 40
0.8181818181818183
 40
0.8181818181818183
 40
0.9090909090909093
 40
0.9090909090909093
 40
0.9090909090909093
 40
0.9090909090909093
 40
1.0
 40
1.0
 40
1.0
 40
1.0
 10
0.02409
 20
7.49117
 30
0.0
 10
-1.30081
 20
7.65651
 30
0.0
 10
-1.87347
 20
4.23976
 30
0.0
 10
0.67449
 20
4.66399
 30
0.0
 10
0.67449
 20
4.66399
 30
0.0
 10
1.52998
 20
4.80642
 30
0.0
 10
3.10035
 20
4.70122
 30
0.0
 10
3.06681
 20
5.154
 30
0.0
 10
3.06681
 20
5.154
 30
0.0
 10
3.02916
 20
5.66206
 30
0.0
 10
3.05548
 20
6.96145
 30
0.0
 10
3.06425
 20
7.34129
 30
0.0
 10
3.06425
 20
7.34129
 30
0.0
 10
3.06553
 20
7.39705
 30
0.0
 10
3.06471
 20
7.56676
 30
0.0
 10
2.95216
 20
7.48235
 30
0.0
 10
2.95216
 20
7.48235
 30
0.0
 10
2.8816
 20
7.42943
 30
0.0
 10
2.86396
 20
7.48234
 30
0.0
 10
2.8375
 20
7.57054
 30
0.0
 10
2.8375
 20
7.57054
 30
0.0
 10
2.81104
 20
7.65874
 30
0.0
 10
2.66992
 20
7.77339
 30
0.0
 10
2.65229
 20
7.61464
 30
0.0
 10
2.65229
 20
7.61464
 30
0.0
 10
2.63466
 20
7.45589
 30
0.0
 10
2.51118
 20
6.97964
 30
0.0
 10
2.36125
 20
7.25304
 30
0.0
 10
2.36125
 20
7.25304
 30
0.0
 10
2.21132
 20
7.52644
 30
0.0
 10
2.18486
 20
7.70283
 30
0.0
 10
2.02611
 20
7.52644
 30
0.0
 10
2.02611
 20
7.52644
 30
0.0
 10
1.86736
 20
7.35005
 30
0.0
 10
1.71744
 20
7.22659
 30
0.0
 10
1.62042
 20
7.45589
 30
0.0
 10
1.62042
 20
7.45589
 30
0.0
 10
1.5234
 20
7.68519
 30
0.0
 10
1.45284
 20
8.00268
 30
0.0
 10
0.83549
 20
7.89686
 30
0.0
 10
0.83549
 20
7.89686
 30
0.0
 10
0.28785
 20
7.803
 30
0.0
 10
0.73027
 20
7.40304
 30
0.0
 10
0.02409
 20
7.49117
 30
0.0
  0
SPLINE
  5
63
330
1F
100
AcDbEntity
  8
layer 1
 62
     2
100
AcDbSpline
210
0.0
220
0.0
230
1.0
 70
    11
 71
     3
 72
    24
 73
    20
 74
     0
 42
0.0000000001
 43
0.0000000001
 40
0.0
 40
0.0
 40
0.0
 40
0.0
 40
0.2
 40
0.2
 40
0.2
 40
0.2
 40
0.4
 40
0.4
 40
0.4
 40
0.4
 40
0.6000000000000001
 40
0.6000000000000001
 40
0.6000000000000001
 40
0.6000000000000001
 40
0.8
 40
0.8
 40
0.8
 40
0.8
 40
1.0
 40
1.0
 40
1.0
 40
1.0
 10
-2.15832
 20
1.63238
 30
0.0
 10
-2.22431
 20
2.16272
 30
0.0
 10
-2.71366
 20
2.36472
 30
0.0
 10
-2.71836
 20
1.94106
 30
0.0
 10
-2.71836
 20
1.94106
 30
0.0
 10
-2.72449
 20
1.3886
 30
0.0
 10
-2.07366
 20
1.54952
 30
0.0
 10
-2.04002
 20
1.30392
 30
0.0
 10
-2.04002
 20
1.30392
 30
0.0
 10
-2.00638
 20
1.05832
 30
0.0
 10
-0.62729
 20
-1.04554
 30
0.0
 10
-0.63772
 20
1.13484
 30
0.0
 10
-0.63772
 20
1.13484
 30
0.0
 10
-0.64142
 20
1.90865
 30
0.0
 10
-1.68592
 20
2.38859
 30
0.0
 10
-1.9687
 20
1.73821
 30
0.0
 10
-1.9687
 20
1.73821
 30
0.0
 10
-2.0108
 20
1.64139
 30
0.0
 10
-2.13348
 20
1.43254
 30
0.0
 10
-2.15832
 20
1.63238
 30
0.0
  0
SPLINE
  5
64
330
1F
100
AcDbEntity
  8
layer 1
 62
     2
100
AcDbSpline
210
0.0
220
0.0
230
1.0
 70
    11
 71
     3
 72
    24
 73
    20
 74
     0
 42
0.0000000001
 43
0.0000000001
 40
0.0
 40
0.0
 40
0.0
 40
0.0
 40
0.2
 40
0.2
 40
0.2
 40
0.2
 40
0.4
 40
0.4
 40
0.4
 40
0.4
 40
0.6000000000000001
 40
0.6000000000000001
 40
0.6000000000000001
 40
0.6000000000000001
 40
0.8
 40
0.8
 40
0.8
 40
0.8
 40
1.0
 40
1.0
 40
1.0
 40
1.0
 10
1.75016
 20
2.03208
 30
0.0
 10
1.95261
 20
2.23935
 30
0.0
 10
2.55436
 20
2.54766
 30
0.0
 10
2.67393
 20
2.12179
 30
0.0
 10
2.67393
 20
2.12179
 30
0.0
 10
2.72729
 20
1.93174
 30
0.0
 10
2.87052
 20
1.72528
 30
0.0
 10
2.87079
 20
1.44139
 30
0.0
 10
2.87079
 20
1.44139
 30
0.0
 10
2.87138
 20
0.82436
 30
0.0
 10
2.94351
 20
0.35852
 30
0.0
 10
2.16543
 20
0.16613
 30
0.0
 10
2.16543
 20
0.16613
 30
0.0
 10
1.92401
 20
0.10644
 30
0.0
 10
1.07655
 20
1.17032
 30
0.0
 10
1.09639
 20
1.58567
 30
0.0
 10
1.09639
 20
1.58567
 30
0.0
 10
1.13125
 20
2.31535
 30
0.0
 10
1.56611
 20
1.84365
 30
0.0
 10
1.75016
 20
2.03208
 30
0.0
  0
SPLINE
  5
65
330
1F
100
AcDbEntity
  8
layer 1
 62
     2
100
AcDbSpline
210
0.0
220
0.0
230
1.0
 70
    11
 71
     3
 72
    36
 73
    32
 74
     0
 42
0.0000000001
 43
0.0000000001
 40
0.0
 40
0.0
 40
0.0
 40
0.0
 40
0.125
 40
0.125
 40
0.125
 40
0.125
 40
0.25
 40
0.25
 40
0.25
 40
0.25
 40
0.375
 40
0.375
 40
0.375
 40
0.375
 40
0.5
 40
0.5
 40
0.5
 40
0.5
 40
0.625
 40
0.625
 40
0.625
 40
0.625
 40
0.75
 40
0.75
 40
0.75
 40
0.75
 40
0.875
 40
0.875
 40
0.875
 40
0.875
 40
1.0
 40
1.0
 40
1.0
 40
1.0
 10
3.49385
 20
1.74693
 30
0.0
 10
3.35714
 20
1.33204
 30
0.0
 10
3.68787
 20
1.18867
 30
0.0
 10
3.78081
 20
1.57268
 30
0.0
 10
3.78081
 20
1.57268
 30
0.0
 10
3.83061
 20
1.77846
 30
0.0
 10
3.49702
 20
2.18554
 30
0.0
 10
3.9228
 20
2.19979
 30
0.0
 10
3.9228
 20
2.19979
 30
0.0
 10
3.98213
 20
2.20177
 30
0.0
 10
4.0377
 20
2.18969
 30
0.0
 10
4.07085
 20
2.14598
 30
0.0
 10
4.07085
 20
2.14598
 30
0.0
 10
4.17587
 20
2.0075
 30
0.0
 10
4.4107
 20
2.18422
 30
0.0
 10
4.54199
 20
2.20297
 30
0.0
 10
4.54199
 20
2.20297
 30
0.0
 10
4.99335
 20
2.26748
 30
0.0
 10
5.19815
 20
1.77169
 30
0.0
 10
5.00488
 20
1.49481
 30
0.0
 10
5.00488
 20
1.49481
 30
0.0
 10
4.83809
 20
1.07256
 30
0.0
 10
3.28192
 20
0.41877
 30
0.0
 10
3.09585
 20
0.76356
 30
0.0
 10
3.09585
 20
0.76356
 30
0.0
 10
3.02917
 20
0.88712
 30
0.0
 10
3.09445
 20
1.75639
 30
0.0
 10
3.13152
 20
2.24784
 30
0.0
 10
3.13152
 20
2.24784
 30
0.0
 10
3.16969
 20
2.75386
 30
0.0
 10
3.72588
 20
2.45113
 30
0.0
 10
3.49385
 20
1.74693
 30
0.0
  0
SPLINE
  5
66
330
1F
100
AcDbEntity
  8
layer 1
 62
     2
100
AcDbSpline
210
0.0
220
0.0
230
1.0
 70
    11
 71
     3
 72
    20
 73
    16
 74
     0
 42
0.0000000001
 43
0.0000000001
 40
0.0
 40
0.0
 40
0.0
 40
0.0
 40
0.25
 40
0.25
 40
0.25
 40
0.25
 40
0.5
 40
0.5
 40
0.5
 40
0.5
 40
0.75
 40
0.75
 40
0.75
 40
0.75
 40
1.0
 40
1.0
 40
1.0
 40
1.0
 10
-0.00568
 20
1.32102
 30
0.0
 10
0.00407
 20
1.61813
 30
0.0
 10
-0.06339
 20
1.86213
 30
0.0
 10
-0.15635
 20
1.86602
 30
0.0
 10
-0.15635
 20
1.86602
 30
0.0
 10
-0.24931
 20
1.86991
 30
0.0
 10
-0.33256
 20
1.63221
 30
0.0
 10
-0.3423
 20
1.33511
 30
0.0
 10
-0.3423
 20
1.33511
 30
0.0
 10
-0.35205
 20
1.03801
 30
0.0
 10
-0.28459
 20
0.794
 30
0.0
 10
-0.19163
 20
0.79011
 30
0.0
 10
-0.19163
 20
0.79011
 30
0.0
 10
-0.09867
 20
0.78622
 30
0.0
 10
-0.01542
 20
1.02392
 30
0.0
 10
-0.00568
 20
1.32102
 30
0.0
  0
SPLINE
  5
67
330
1F
100
AcDbEntity
  8
layer 1
 62
     2
100
AcDbSpline
210
0.0
220
0.0
230
1.0
 70
    11
 71
     3
 72
    20
 73
    16
 74
     0
 42
0.0000000001
 43
0.0000000001
 40
0.0
 40
0.0
 40
0.0
 40
0.0
 40
0.25
 40
0.25
 40
0.25
 40
0.25
 40
0.5
 40
0.5
 40
0.5
 40
0.5
 40
0.75
 40
0.75
 40
0.75
 40
0.75
 40
1.0
 40
1.0
 40
1.0
 40
1.0
 10
0.91937
 20
1.63975
 30
0.0
 10
0.89585
 20
1.82932
 30
0.0
 10
0.80119
 20
1.96413
 30
0.0
 10
0.70795
 20
1.94088
 30
0.0
 10
0.70795
 20
1.94088
 30
0.0
 10
0.61472
 20
1.91763
 30
0.0
 10
0.5582
 20
1.74511
 30
0.0
 10
0.58173
 20
1.55555
 30
0.0
 10
0.58173
 20
1.55555
 30
0.0
 10
0.60525
 20
1.36599
 30
0.0
 10
0.69991
 20
1.23118
 30
0.0
 10
0.79315
 20
1.25443
 30
0.0
 10
0.79315
 20
1.25443
 30
0.0
 10
0.88638
 20
1.27768
 30
0.0
 10
0.9429
 20
1.45019
 30
0.0
 10
0.91937
 20
1.63975
 30
0.0
  0
SPLINE
  5
68
330
1F
100
AcDbEntity
  8
layer 1
 62
     2
100
AcDbSpline
210
0.0
220
0.0
230
1.0
 70
    11
 71
     3
 72
    40
 73
    36
 74
     0
 42
0.0000000001
 43
0.0000000001
 40
0.0
 40
0.0
 40
0.0
 40
0.0
 40
0.1111111111111111
 40
0.1111111111111111
 40
0.1111111111111111
 40
0.1111111111111111
 40
0.2222222222222222
 40
0.2222222222222222
 40
0.2222222222222222
 40
0.2222222222222222
 40
0.3333333333333333
 40
0.3333333333333333
 40
0.3333333333333333
 40
0.3333333333333333
 40
0.4444444444444444
 40
0.4444444444444444
 40
0.4444444444444444
 40
0.4444444444444444
 40
0.5555555555555556
 40
0.5555555555555556
 40
0.5555555555555556
 40
0.5555555555555556
 40
0.6666666666666667
 40
0.6666666666666667
 40
0.6666666666666667
 40
0.6666666666666667
 40
0.7777777777777779
 40
0.7777777777777779
 40
0.7777777777777779
 40
0.7777777777777779
 40
0.8888888888888891
 40
0.8888888888888891
 40
0.8888888888888891
 40
0.8888888888888891
 40
1.0
 40
1.0
 40
1.0
 40
1.0
 10
-3.22327
 20
7.41141
 30
0.0
 10
-3.08786
 20
6.9611
 30
0.0
 10
-3.16422
 20
6.54692
 30
0.0
 10
-3.24973
 20
6.13259
 30
0.0
 10
-3.24973
 20
6.13259
 30
0.0
 10
-3.35317
 20
5.63133
 30
0.0
 10
-3.68577
 20
5.51033
 30
0.0
 10
-3.78771
 20
4.97724
 30
0.0
 10
-3.78771
 20
4.97724
 30
0.0
 10
-3.8751
 20
4.52029
 30
0.0
 10
-3.77477
 20
4.03974
 30
0.0
 10
-3.86709
 20
3.58376
 30
0.0
 10
-3.86709
 20
3.58376
 30
0.0
 10
-3.92149
 20
3.3151
 30
0.0
 10
-4.08985
 20
3.33408
 30
0.0
 10
-4.25515
 20
3.53966
 30
0.0
 10
-4.25515
 20
3.53966
 30
0.0
 10
-4.59124
 20
3.95767
 30
0.0
 10
-4.72992
 20
5.44519
 30
0.0
 10
-4.16695
 20
5.66957
 30
0.0
 10
-4.16695
 20
5.66957
 30
0.0
 10
-3.94425
 20
5.73922
 30
0.0
 10
-3.9517
 20
5.92186
 30
0.0
 10
-4.04348
 20
6.17668
 30
0.0
 10
-4.04348
 20
6.17668
 30
0.0
 10
-4.1172
 20
6.38139
 30
0.0
 10
-4.12779
 20
6.6054
 30
0.0
 10
-4.01702
 20
6.74995
 30
0.0
 10
-4.01702
 20
6.74995
 30
0.0
 10
-3.79179
 20
7.04386
 30
0.0
 10
-3.58977
 20
6.90409
 30
0.0
 10
-3.46139
 20
7.07627
 30
0.0
 10
-3.46139
 20
7.07627
 30
0.0
 10
-3.31774
 20
7.26891
 30
0.0
 10
-3.41133
 20
7.67621
 30
0.0
 10
-3.22327
 20
7.41141
 30
0.0
  0
SPLINE
  5
69
330
1F
100
AcDbEntity
  8
layer 1
 62
     2
100
AcDbSpline
210
0.0
220
0.0
230
1.0
 70
    11
 71
     3
 72
    32
 73
    28
 74
     0
 42
0.0000000001
 43
0.0000000001
 40
0.0
 40
0.0
 40
0.0
 40
0.0
 40
0.1428571428571428
 40
0.1428571428571428
 40
0.1428571428571428
 40
0.1428571428571428
 40
0.2857142857142857
 40
0.2857142857142857
 40
0.2857142857142857
 40
0.2857142857142857
 40
0.4285714285714285
 40
0.4285714285714285
 40
0.4285714285714285
 40
0.4285714285714285
 40
0.5714285714285714
 40
0.5714285714285714
 40
0.5714285714285714
 40
0.5714285714285714
 40
0.7142857142857142
 40
0.7142857142857142
 40
0.7142857142857142
 40
0.7142857142857142
 40
0.857142857142857
 40
0.857142857142857
 40
0.857142857142857
 40
0.857142857142857
 40
1.0
 40
1.0
 40
1.0
 40
1.0
 10
-4.52415
 20
6.22961
 30
0.0
 10
-4.47216
 20
6.26096
 30
0.0
 10
-4.39784
 20
6.27843
 30
0.0
 10
-4.34335
 20
6.25166
 30
0.0
 10
-4.34335
 20
6.25166
 30
0.0
 10
-4.29497
 20
6.2279
 30
0.0
 10
-4.28365
 20
6.15893
 30
0.0
 10
-4.2728
 20
6.10613
 30
0.0
 10
-4.2728
 20
6.10613
 30
0.0
 10
-4.26097
 20
6.04852
 30
0.0
 10
-4.24303
 20
5.9776
 30
0.0
 10
-4.27721
 20
5.92974
 30
0.0
 10
-4.27721
 20
5.92974
 30
0.0
 10
-4.32629
 20
5.86102
 30
0.0
 10
-4.40919
 20
5.80518
 30
0.0
 10
-4.49328
 20
5.79745
 30
0.0
 10
-4.49328
 20
5.79745
 30
0.0
 10
-4.55755
 20
5.79154
 30
0.0
 10
-4.62982
 20
5.83788
 30
0.0
 10
-4.66085
 20
5.89447
 30
0.0
 10
-4.66085
 20
5.89447
 30
0.0
 10
-4.68926
 20
5.94628
 30
0.0
 10
-4.66553
 20
6.01615
 30
0.0
 10
-4.64322
 20
6.07086
 30
0.0
 10
-4.64322
 20
6.07086
 30
0.0
 10
-4.61824
 20
6.13211
 30
0.0
 10
-4.58079
 20
6.19546
 30
0.0
 10
-4.52415
 20
6.22961
 30
0.0
  0
SPLINE
  5
6A
330
1F
100
AcDbEntity
  8
layer 1
 62
     2
100
AcDbSpline
210
0.0
220
0.0
230
1.0
 70
    11
 71
     3
 72
    20
 73
    16
 74
     0
 42
0.0000000001
 43
0.0000000001
 40
0.0
 40
0.0
 40
0.0
 40
0.0
 40
0.25
 40
0.25
 40
0.25
 40
0.25
 40
0.5
 40
0.5
 40
0.5
 40
0.5
 40
0.75
 40
0.75
 40
0.75
 40
0.75
 40
1.0
 40
1.0
 40
1.0
 40
1.0
 10
-4.79669
 20
4.92283
 30
0.0
 10
-4.8113
 20
5.32955
 30
0.0
 10
-4.74914
 20
5.68045
 30
0.0
 10
-4.92982
 20
5.67396
 30
0.0
 10
-4.92982
 20
5.67396
 30
0.0
 10
-5.1105
 20
5.66747
 30
0.0
 10
-5.24513
 20
5.3325
 30
0.0
 10
-5.23052
 20
4.92578
 30
0.0
 10
-5.23052
 20
4.92578
 30
0.0
 10
-5.21591
 20
4.51906
 30
0.0
 10
-5.05758
 20
4.19462
 30
0.0
 10
-4.8769
 20
4.20111
 30
0.0
 10
-4.8769
 20
4.20111
 30
0.0
 10
-4.69622
 20
4.2076
 30
0.0
 10
-4.78208
 20
4.51611
 30
0.0
 10
-4.79669
 20
4.92283
 30
0.0
  0
SPLINE
  5
6B
330
1F
100
AcDbEntity
  8
layer 1
 62
     2
100
AcDbSpline
210
0.0
220
0.0
230
1.0
 70
    11
 71
     3
 72
    20
 73
    16
 74
     0
 42
0.0000000001
 43
0.0000000001
 40
0.0
 40
0.0
 40
0.0
 40
0.0
 40
0.25
 40
0.25
 40
0.25
 40
0.25
 40
0.5
 40
0.5
 40
0.5
 40
0.5
 40
0.75
 40
0.75
 40
0.75
 40
0.75
 40
1.0
 40
1.0
 40
1.0
 40
1.0
 10
-2.6051
 20
7.19493
 30
0.0
 10
-2.5844
 20
7.46039
 30
0.0
 10
-2.64596
 20
7.68169
 30
0.0
 10
-2.7426
 20
7.68923
 30
0.0
 10
-2.7426
 20
7.68923
 30
0.0
 10
-2.83924
 20
7.69677
 30
0.0
 10
-2.93436
 20
7.48768
 30
0.0
 10
-2.95506
 20
7.22221
 30
0.0
 10
-2.95506
 20
7.22221
 30
0.0
 10
-2.97576
 20
6.95675
 30
0.0
 10
-2.9142
 20
6.73544
 30
0.0
 10
-2.81756
 20
6.72791
 30
0.0
 10
-2.81756
 20
6.72791
 30
0.0
 10
-2.72092
 20
6.72037
 30
0.0
 10
-2.6258
 20
6.92946
 30
0.0
 10
-2.6051
 20
7.19493
 30
0.0
  0
SPLINE
  5
6C
330
1F
100
AcDbEntity
  8
layer 1
 62
     2
100
AcDbSpline
210
0.0
220
0.0
230
1.0
 70
    11
 71
     3
 72
    20
 73
    16
 74
     0
 42
0.0000000001
 43
0.0000000001
 40
0.0
 40
0.0
 40
0.0
 40
0.0
 40
0.25
 40
0.25
 40
0.25
 40
0.25
 40
0.5
 40
0.5
 40
0.5
 40
0.5
 40
0.75
 40
0.75
 40
0.75
 40
0.75
 40
1.0
 40
1.0
 40
1.0
 40
1.0
 10
-2.21589
 20
7.76002
 30
0.0
 10
-2.141
 20
7.8303
 30
0.0
 10
-2.0169
 20
7.96626
 30
0.0
 10
-1.94882
 20
7.83917
 30
0.0
 10
-1.94882
 20
7.83917
 30
0.0
 10
-1.68762
 20
7.35162
 30
0.0
 10
-2.54854
 20
6.55949
 30
0.0
 10
-2.54854
 20
7.60986
 30
0.0
 10
-2.54854
 20
7.60986
 30
0.0
 10
-2.54854
 20
7.65216
 30
0.0
 10
-2.54757
 20
7.687
 30
0.0
 10
-2.5447
 20
7.71537
 30
0.0
 10
-2.5447
 20
7.71537
 30
0.0
 10
-2.51333
 20
8.02562
 30
0.0
 10
-2.36351
 20
7.62146
 30
0.0
 10
-2.21589
 20
7.76002
 30
0.0
  0
SPLINE
  5
6D
330
1F
100
AcDbEntity
  8
layer 1
 62
     2
100
AcDbSpline
210
0.0
220
0.0
230
1.0
 70
    11
 71
     3
 72
    16
 73
    12
 74
     0
 42
0.0000000001
 43
0.0000000001
 40
0.0
 40
0.0
 40
0.0
 40
0.0
 40
0.3333333333333333
 40
0.3333333333333333
 40
0.3333333333333333
 40
0.3333333333333333
 40
0.6666666666666666
 40
0.6666666666666666
 40
0.6666666666666666
 40
0.6666666666666666
 40
1.0
 40
1.0
 40
1.0
 40
1.0
 10
4.54845
 20
7.91888
 30
0.0
 10
4.54845
 20
7.91888
 30
0.0
 10
5.03352
 20
7.18687
 30
0.0
 10
5.03352
 20
7.18687
 30
0.0
 10
5.03352
 20
7.18687
 30
0.0
 10
5.03352
 20
7.18687
 30
0.0
 10
5.39512
 20
7.91888
 30
0.0
 10
5.39512
 20
7.91888
 30
0.0
 10
5.39512
 20
7.91888
 30
0.0
 10
5.39512
 20
7.91888
 30
0.0
 10
4.54845
 20
7.91888
 30
0.0
 10
4.54845
 20
7.91888
 30
0.0
  0
SPLINE
  5
6E
330
1F
100
AcDbEntity
  8
layer 1
 62
     2
100
AcDbSpline
210
0.0
220
0.0
230
1.0
 70
    11
 71
     3
 72
    76
 73
    72
 74
     0
 42
0.0000000001
 43
0.0000000001
 40
0.0
 40
0.0
 40
0.0
 40
0.0
 40
0.0555555555555556
 40
0.0555555555555556
 40
0.0555555555555556
 40
0.0555555555555556
 40
0.1111111111111111
 40
0.1111111111111111
 40
0.1111111111111111
 40
0.1111111111111111
 40
0.1666666666666667
 40
0.1666666666666667
 40
0.1666666666666667
 40
0.1666666666666667
 40
0.2222222222222222
 40
0.2222222222222222
 40
0.2222222222222222
 40
0.2222222222222222
 40
0.2777777777777778
 40
0.2777777777777778
 40
0.2777777777777778
 40
0.2777777777777778
 40
0.3333333333333334
 40
0.3333333333333334
 40
0.3333333333333334
 40
0.3333333333333334
 40
0.388888888888889
 40
0.388888888888889
 40
0.388888888888889
 40
0.388888888888889
 40
0.4444444444444445
 40
0.4444444444444445
 40
0.4444444444444445
 40
0.4444444444444445
 40
0.5000000000000001
 40
0.5000000000000001
 40
0.5000000000000001
 40
0.5000000000000001
 40
0.5555555555555557
 40
0.5555555555555557
 40
0.5555555555555557
 40
0.5555555555555557
 40
0.6111111111111113
 40
0.6111111111111113
 40
0.6111111111111113
 40
0.6111111111111113
 40
0.6666666666666669
 40
0.6666666666666669
 40
0.6666666666666669
 40
0.6666666666666669
 40
0.7222222222222224
 40
0.7222222222222224
 40
0.7222222222222224
 40
0.7222222222222224
 40
0.777777777777778
 40
0.777777777777778
 40
0.777777777777778
 40
0.777777777777778
 40
0.8333333333333336
 40
0.8333333333333336
 40
0.8333333333333336
 40
0.8333333333333336
 40
0.8888888888888892
 40
0.8888888888888892
 40
0.8888888888888892
 40
0.8888888888888892
 40
0.9444444444444448
 40
0.9444444444444448
 40
0.9444444444444448
 40
0.9444444444444448
 40
1.0
 40
1.0
 40
1.0
 40
1.0
 10
4.00167
 20
6.81647
 30
0.0
 10
4.27203
 20
7.45308
 30
0.0
 10
4.42675
 20
6.31846
 30
0.0
 10
4.4554
 20
5.81408
 30
0.0
 10
4.4554
 20
5.81408
 30
0.0
 10
4.47965
 20
5.38718
 30
0.0
 10
4.55507
 20
5.62782
 30
0.0
 10
4.68077
 20
5.53763
 30
0.0
 10
4.68077
 20
5.53763
 30
0.0
 10
4.80647
 20
5.44744
 30
0.0
 10
4.91653
 20
5.40552
 30
0.0
 10
5.03355
 20
5.53764
 30
0.0
 10
5.03355
 20
5.53764
 30
0.0
 10
5.14274
 20
5.66092
 30
0.0
 10
5.08631
 20
6.16683
 30
0.0
 10
6.1367
 20
5.35145
 30
0.0
 10
6.1367
 20
5.35145
 30
0.0
 10
6.57416
 20
5.01182
 30
0.0
 10
6.18511
 20
4.77219
 30
0.0
 10
6.45676
 20
4.71335
 30
0.0
 10
6.45676
 20
4.71335
 30
0.0
 10
6.57768
 20
4.68716
 30
0.0
 10
6.51447
 20
4.44969
 30
0.0
 10
6.53286
 20
4.32937
 30
0.0
 10
6.53286
 20
4.32937
 30
0.0
 10
6.5657
 20
4.11451
 30
0.0
 10
6.73652
 20
4.15417
 30
0.0
 10
6.74452
 20
4.36465
 30
0.0
 10
6.74452
 20
4.36465
 30
0.0
 10
6.74932
 20
5.41937
 30
0.0
 10
6.26556
 20
6.2925
 30
0.0
 10
6.7798
 20
5.96098
 30
0.0
 10
6.7798
 20
5.96098
 30
0.0
 10
7.01731
 20
5.80786
 30
0.0
 10
6.98677
 20
6.06259
 30
0.0
 10
6.8658
 20
6.39319
 30
0.0
 10
6.8658
 20
6.39319
 30
0.0
 10
6.61987
 20
7.06532
 30
0.0
 10
6.63816
 20
8.19935
 30
0.0
 10
6.94958
 20
7.29272
 30
0.0
 10
6.94958
 20
7.29272
 30
0.0
 10
6.96278
 20
7.25427
 30
0.0
 10
6.96132
 20
7.1541
 30
0.0
 10
7.14879
 20
7.18824
 30
0.0
 10
7.14879
 20
7.18824
 30
0.0
 10
7.28973
 20
7.21391
 30
0.0
 10
7.49989
 20
6.91151
 30
0.0
 10
7.97925
 20
6.23437
 30
0.0
 10
7.97925
 20
6.23437
 30
0.0
 10
8.03668
 20
6.15325
 30
0.0
 10
8.05913
 20
5.97514
 30
0.0
 10
7.94997
 20
5.79496
 30
0.0
 10
7.94997
 20
5.79496
 30
0.0
 10
7.8358
 20
5.6065
 30
0.0
 10
6.6831
 20
3.76546
 30
0.0
 10
6.57695
 20
3.79138
 30
0.0
 10
6.57695
 20
3.79138
 30
0.0
 10
6.28951
 20
3.86163
 30
0.0
 10
6.11633
 20
4.96749
 30
0.0
 10
4.28367
 20
5.10112
 30
0.0
 10
4.28367
 20
5.10112
 30
0.0
 10
3.88604
 20
5.13009
 30
0.0
 10
3.78439
 20
5.03112
 30
0.0
 10
3.91787
 20
5.34772
 30
0.0
 10
3.91787
 20
5.34772
 30
0.0
 10
4.01271
 20
5.57266
 30
0.0
 10
3.97438
 20
5.88758
 30
0.0
 10
3.93993
 20
5.94774
 30
0.0
 10
3.93993
 20
5.94774
 30
0.0
 10
3.79154
 20
6.20687
 30
0.0
 10
3.90996
 20
6.53231
 30
0.0
 10
4.00167
 20
6.81647
 30
0.0
  0
SPLINE
  5
6F
330
1F
100
AcDbEntity
  8
layer 1
 62
     2
100
AcDbSpline
210
0.0
220
0.0
230
1.0
 70
    11
 71
     3
 72
    16
 73
    12
 74
     0
 42
0.0000000001
 43
0.0000000001
 40
0.0
 40
0.0
 40
0.0
 40
0.0
 40
0.3333333333333333
 40
0.3333333333333333
 40
0.3333333333333333
 40
0.3333333333333333
 40
0.6666666666666666
 40
0.6666666666666666
 40
0.6666666666666666
 40
0.6666666666666666
 40
1.0
 40
1.0
 40
1.0
 40
1.0
 10
3.52542
 20
7.31917
 30
0.0
 10
3.51494
 20
7.45259
 30
0.0
 10
3.59168
 20
7.57329
 30
0.0
 10
3.69299
 20
7.40295
 30
0.0
 10
3.69299
 20
7.40295
 30
0.0
 10
4.06136
 20
6.78361
 30
0.0
 10
3.63871
 20
4.25323
 30
0.0
 10
3.53543
 20
5.32151
 30
0.0
 10
3.53543
 20
5.32151
 30
0.0
 10
3.49897
 20
5.69871
 30
0.0
 10
3.56991
 20
6.99406
 30
0.0
 10
3.52542
 20
7.31917
 30
0.0
  0
SPLINE
  5
70
330
1F
100
AcDbEntity
  8
layer 1
 62
     2
100
AcDbSpline
210
0.0
220
0.0
230
1.0
 70
    11
 71
     3
 72
    20
 73
    16
 74
     0
 42
0.0000000001
 43
0.0000000001
 40
0.0
 40
0.0
 40
0.0
 40
0.0
 40
0.25
 40
0.25
 40
0.25
 40
0.25
 40
0.5
 40
0.5
 40
0.5
 40
0.5
 40
0.75
 40
0.75
 40
0.75
 40
0.75
 40
1.0
 40
1.0
 40
1.0
 40
1.0
 10
3.22556
 20
6.84292
 30
0.0
 10
3.23113
 20
6.97829
 30
0.0
 10
3.33705
 20
7.04043
 30
0.0
 10
3.36667
 20
6.90465
 30
0.0
 10
3.36667
 20
6.90465
 30
0.0
 10
3.46615
 20
6.44868
 30
0.0
 10
3.48553
 20
5.87862
 30
0.0
 10
3.41958
 20
5.34361
 30
0.0
 10
3.41958
 20
5.34361
 30
0.0
 10
3.38801
 20
5.08743
 30
0.0
 10
3.25163
 20
5.03293
 30
0.0
 10
3.22555
 20
5.28628
 30
0.0
 10
3.22555
 20
5.28628
 30
0.0
 10
3.16821
 20
5.84326
 30
0.0
 10
3.20521
 20
6.34817
 30
0.0
 10
3.22556
 20
6.84292
 30
0.0
  0
SPLINE
  5
71
330
1F
100
AcDbEntity
  8
layer 1
 62
     2
100
AcDbSpline
210
0.0
220
0.0
230
1.0
 70
    11
 71
     3
 72
    12
 73
     8
 74
     0
 42
0.0000000001
 43
0.0000000001
 40
0.0
 40
0.0
 40
0.0
 40
0.0
 40
0.5
 40
0.5
 40
0.5
 40
0.5
 40
1.0
 40
1.0
 40
1.0
 40
1.0
 10
3.9006
 20
-0.36313
 30
0.0
 10
3.38025
 20
-1.20686
 30
0.0
 10
2.85991
 20
-2.05058
 30
0.0
 10
2.33956
 20
-2.89431
 30
0.0
 10
2.33956
 20
-2.89431
 30
0.0
 10
2.36285
 20
-0.94994
 30
0.0
 10
2.51206
 20
-0.66708
 30
0.0
 10
3.9006
 20
-0.36313
 30
0.0
  0
SPLINE
  5
72
330
1F
100
AcDbEntity
  8
layer 1
 62
     2
100
AcDbSpline
210
0.0
220
0.0
230
1.0
 70
    11
 71
     3
 72
    20
 73
    16
 74
     0
 42
0.0000000001
 43
0.0000000001
 40
0.0
 40
0.0
 40
0.0
 40
0.0
 40
0.25
 40
0.25
 40
0.25
 40
0.25
 40
0.5
 40
0.5
 40
0.5
 40
0.5
 40
0.75
 40
0.75
 40
0.75
 40
0.75
 40
1.0
 40
1.0
 40
1.0
 40
1.0
 10
2.16691
 20
-2.12729
 30
0.0
 10
2.14743
 20
-1.56958
 30
0.0
 10
2.07863
 20
-1.11932
 30
0.0
 10
2.01324
 20
-1.1216
 30
0.0
 10
2.01324
 20
-1.1216
 30
0.0
 10
1.94785
 20
-1.12388
 30
0.0
 10
1.91064
 20
-1.57785
 30
0.0
 10
1.93012
 20
-2.13556
 30
0.0
 10
1.93012
 20
-2.13556
 30
0.0
 10
1.9496
 20
-2.69327
 30
0.0
 10
2.0184
 20
-3.14353
 30
0.0
 10
2.08379
 20
-3.14125
 30
0.0
 10
2.08379
 20
-3.14125
 30
0.0
 10
2.14918
 20
-3.13896
 30
0.0
 10
2.18639
 20
-2.685
 30
0.0
 10
2.16691
 20
-2.12729
 30
0.0
  0
ENDSEC
  0
SECTION
  2
OBJECTS
  0
DICTIONARY
  5
C
330
0
100
AcDbDictionary
281
     1
  3
ACAD_GROUP
350
D
  3
ACAD_LAYOUT
350
1A
  3
ACAD_MLEADERSTYLE
350
74
  3
ACAD_MLINESTYLE
350
17
  3
ACAD_PLOTSETTINGS
350
19
  3
ACAD_PLOTSTYLENAME
350
E
  3
ACAD_SCALELIST
350
3B
  3
ACAD_TABLESTYLE
350
73
  3
ACAD_VISUALSTYLE
350
2A
  0
DICTIONARY
  5
D
102
{ACAD_REACTORS
330
C
102
}
330
C
100
AcDbDictionary
281
     1
  0
DICTIONARY
  5
1A
102
{ACAD_REACTORS
330
C
102
}
330
C
100
AcDbDictionary
281
     1
  3
Layout1
350
1E
  3
Layout2
350
26
  3
Model
350
22
  0
DICTIONARY
  5
74
102
{ACAD_REACTORS
330
C
102
}
330
C
100
AcDbDictionary
281
     1
  0
DICTIONARY
  5
17
102
{ACAD_REACTORS
330
C
102
}
330
C
100
AcDbDictionary
281
     1
  3
Standard
350
18
  0
DICTIONARY
  5
19
102
{ACAD_REACTORS
330
C
102
}
330
C
100
AcDbDictionary
281
     1
  0
ACDBDICTIONARYWDFLT
  5
E
102
{ACAD_REACTORS
330
C
102
}
330
C
100
AcDbDictionary
281
     1
  3
Normal
350
F
100
AcDbDictionaryWithDefault
340
F
  0
DICTIONARY
  5
3B
102
{ACAD_REACTORS
330
C
102
}
330
C
100
AcDbDictionary
281
     1
  3
A0
350
3C
  3
A1
350
3D
  3
A2
350
3E
  3
A3
350
3F
  3
A4
350
40
  3
A5
350
41
  3
A6
350
42
  3
A7
350
43
  3
A8
350
44
  3
A9
350
45
  3
B0
350
46
  3
B1
350
47
  3
B2
350
48
  3
B3
350
49
  3
B4
350
4A
  3
B5
350
4B
  3
B6
350
4C
  3
B7
350
4D
  3
B8
350
4E
  3
B9
350
4F
  3
C0
350
50
  3
C1
350
51
  3
C2
350
52
  3
C3
350
53
  3
C4
350
54
  3
C5
350
55
  3
C6
350
56
  3
C7
350
57
  3
C8
350
58
  3
C9
350
59
  3
D0
350
5A
  3
D1
350
5B
  3
D2
350
5C
  0
DICTIONARY
  5
73
102
{ACAD_REACTORS
330
C
102
}
330
C
100
AcDbDictionary
281
     1
  0
DICTIONARY
  5
2A
102
{ACAD_REACTORS
330
C
102
}
330
C
100
AcDbDictionary
281
     1
  3
2dWireframe
350
2F
  3
3D Hidden
350
31
  3
3dWireframe
350
30
  3
Basic
350
32
  3
Brighten
350
36
  3
ColorChange
350
3A
  3
Conceptual
350
34
  3
Dim
350
35
  3
Facepattern
350
39
  3
Flat
350
2B
  3
FlatWithEdges
350
2C
  3
Gouraud
350
2D
  3
GouraudWithEdges
350
2E
  3
Linepattern
350
38
  3
Realistic
350
33
  3
Thicken
350
37
  0
LAYOUT
  5
1E
102
{ACAD_REACTORS
330
1A
102
}
330
1A
100
AcDbPlotSettings
  1

  2
none_device
  4

  6

 40
0.0
 41
0.0
 42
0.0
 43
0.0
 44
0.0
 45
0.0
 46
0.0
 47
0.0
 48
0.0
 49
0.0
140
0.0
141
0.0
142
1.0
143
1.0
 70
   688
 72
     0
 73
     0
 74
     5
  7

 75
    16
 76
     0
 77
     2
 78
   300
147
1.0
148
0.0
149
0.0
100
AcDbLayout
  1
Layout1
 70
     1
 71
     1
 10
0.0
 20
0.0
 11
12.0
 21
9.0
 12
0.0
 22
0.0
 32
0.0
 14
1.000000000000000E+20
 24
1.000000000000000E+20
 34
1.000000000000000E+20
 15
-1.000000000000000E+20
 25
-1.000000000000000E+20
 35
-1.000000000000000E+20
146
0.0
 13
0.0
 23
0.0
 33
0.0
 16
1.0
 26
0.0
 36
0.0
 17
0.0
 27
1.0
 37
0.0
 76
     0
330
1B
  0
LAYOUT
  5
26
102
{ACAD_REACTORS
330
1A
102
}
330
1A
100
AcDbPlotSettings
  1

  2
none_device
  4

  6

 40
0.0
 41
0.0
 42
0.0
 43
0.0
 44
0.0
 45
0.0
 46
0.0
 47
0.0
 48
0.0
 49
0.0
140
0.0
141
0.0
142
1.0
143
1.0
 70
   688
 72
     0
 73
     0
 74
     5
  7

 75
    16
 76
     0
 77
     2
 78
   300
147
1.0
148
0.0
149
0.0
100
AcDbLayout
  1
Layout2
 70
     1
 71
     2
 10
0.0
 20
0.0
 11
0.0
 21
0.0
 12
0.0
 22
0.0
 32
0.0
 14
0.0
 24
0.0
 34
0.0
 15
0.0
 25
0.0
 35
0.0
146
0.0
 13
0.0
 23
0.0
 33
0.0
 16
1.0
 26
0.0
 36
0.0
 17
0.0
 27
1.0
 37
0.0
 76
     0
330
23
  0
LAYOUT
  5
22
102
{ACAD_REACTORS
330
1A
102
}
330
1A
100
AcDbPlotSettings
  1

  2
none_device
  4

  6

 40
0.0
 41
0.0
 42
0.0
 43
0.0
 44
0.0
 45
0.0
 46
0.0
 47
0.0
 48
0.0
 49
0.0
140
0.0
141
0.0
142
1.0
143
1.0
 70
  1712
 72
     0
 73
     0
 74
     0
  7

 75
     0
 76
     0
 77
     2
 78
   300
147
1.0
148
0.0
149
0.0
100
AcDbLayout
  1
Model
 70
     1
 71
     0
 10
0.0
 20
0.0
 11
12.0
 21
9.0
 12
0.0
 22
0.0
 32
0.0
 14
-6.90496
 24
-7.58102
 34
0.0
 15
8.76447
 25
8.73848
 35
0.0
146
0.0
 13
0.0
 23
0.0
 33
0.0
 16
1.0
 26
0.0
 36
0.0
 17
0.0
 27
1.0
 37
0.0
 76
     0
330
1F
331
29
  0
MLINESTYLE
  5
18
102
{ACAD_REACTORS
330
17
102
}
330
17
100
AcDbMlineStyle
  2
Standard
 70
     0
  3

 62
   256
 51
90.0
 52
90.0
 71
     2
 49
0.5
 62
   256
  6
BYLAYER
 49
-0.5
 62
   256
  6
BYLAYER
  0
ACDBPLACEHOLDER
  5
F
102
{ACAD_REACTORS
330
E
102
}
330
E
  0
SCALE
  5
3C
102
{ACAD_REACTORS
330
3B
102
}
330
3B
100
AcDbScale
 70
     0
300
1:1
140
1.0
141
1.0
290
     1
  0
SCALE
  5
3D
102
{ACAD_REACTORS
330
3B
102
}
330
3B
100
AcDbScale
 70
     0
300
1:2
140
1.0
141
2.0
290
     0
  0
SCALE
  5
3E
102
{ACAD_REACTORS
330
3B
102
}
330
3B
100
AcDbScale
 70
     0
300
1:4
140
1.0
141
4.0
290
     0
  0
SCALE
  5
3F
102
{ACAD_REACTORS
330
3B
102
}
330
3B
100
AcDbScale
 70
     0
300
1:5
140
1.0
141
5.0
290
     0
  0
SCALE
  5
40
102
{ACAD_REACTORS
330
3B
102
}
330
3B
100
AcDbScale
 70
     0
300
1:8
140
1.0
141
8.0
290
     0
  0
SCALE
  5
41
102
{ACAD_REACTORS
330
3B
102
}
330
3B
100
AcDbScale
 70
     0
300
1:10
140
1.0
141
10.0
290
     0
  0
SCALE
  5
42
102
{ACAD_REACTORS
330
3B
102
}
330
3B
100
AcDbScale
 70
     0
300
1:16
140
1.0
141
16.0
290
     0
  0
SCALE
  5
43
102
{ACAD_REACTORS
330
3B
102
}
330
3B
100
AcDbScale
 70
     0
300
1:20
140
1.0
141
20.0
290
     0
  0
SCALE
  5
44
102
{ACAD_REACTORS
330
3B
102
}
330
3B
100
AcDbScale
 70
     0
300
1:30
140
1.0
141
30.0
290
     0
  0
SCALE
  5
45
102
{ACAD_REACTORS
330
3B
102
}
330
3B
100
AcDbScale
 70
     0
300
1:40
140
1.0
141
40.0
290
     0
  0
SCALE
  5
46
102
{ACAD_REACTORS
330
3B
102
}
330
3B
100
AcDbScale
 70
     0
300
1:50
140
1.0
141
50.0
290
     0
  0
SCALE
  5
47
102
{ACAD_REACTORS
330
3B
102
}
330
3B
100
AcDbScale
 70
     0
300
1:100
140
1.0
141
100.0
290
     0
  0
SCALE
  5
48
102
{ACAD_REACTORS
330
3B
102
}
330
3B
100
AcDbScale
 70
     0
300
2:1
140
2.0
141
1.0
290
     0
  0
SCALE
  5
49
102
{ACAD_REACTORS
330
3B
102
}
330
3B
100
AcDbScale
 70
     0
300
4:1
140
4.0
141
1.0
290
     0
  0
SCALE
  5
4A
102
{ACAD_REACTORS
330
3B
102
}
330
3B
100
AcDbScale
 70
     0
300
8:1
140
8.0
141
1.0
290
     0
  0
SCALE
  5
4B
102
{ACAD_REACTORS
330
3B
102
}
330
3B
100
AcDbScale
 70
     0
300
10:1
140
10.0
141
1.0
290
     0
  0
SCALE
  5
4C
102
{ACAD_REACTORS
330
3B
102
}
330
3B
100
AcDbScale
 70
     0
300
100:1
140
100.0
141
1.0
290
     0
  0
SCALE
  5
4D
102
{ACAD_REACTORS
330
3B
102
}
330
3B
100
AcDbScale
 70
     0
300
1/128\" = 1\'-0\"
140
0.0078125
141
12.0
290
     0
  0
SCALE
  5
4E
102
{ACAD_REACTORS
330
3B
102
}
330
3B
100
AcDbScale
 70
     0
300
1/64\" = 1\'-0\"
140
0.015625
141
12.0
290
     0
  0
SCALE
  5
4F
102
{ACAD_REACTORS
330
3B
102
}
330
3B
100
AcDbScale
 70
     0
300
1/32\" = 1\'-0\"
140
0.03125
141
12.0
290
     0
  0
SCALE
  5
50
102
{ACAD_REACTORS
330
3B
102
}
330
3B
100
AcDbScale
 70
     0
300
1/16\" = 1\'-0\"
140
0.0625
141
12.0
290
     0
  0
SCALE
  5
51
102
{ACAD_REACTORS
330
3B
102
}
330
3B
100
AcDbScale
 70
     0
300
3/32\" = 1\'-0\"
140
0.09375
141
12.0
290
     0
  0
SCALE
  5
52
102
{ACAD_REACTORS
330
3B
102
}
330
3B
100
AcDbScale
 70
     0
300
1/8\" = 1\'-0\"
140
0.125
141
12.0
290
     0
  0
SCALE
  5
53
102
{ACAD_REACTORS
330
3B
102
}
330
3B
100
AcDbScale
 70
     0
300
3/16\" = 1\'-0\"
140
0.1875
141
12.0
290
     0
  0
SCALE
  5
54
102
{ACAD_REACTORS
330
3B
102
}
330
3B
100
AcDbScale
 70
     0
300
1/4\" = 1\'-0\"
140
0.25
141
12.0
290
     0
  0
SCALE
  5
55
102
{ACAD_REACTORS
330
3B
102
}
330
3B
100
AcDbScale
 70
     0
300
3/8\" = 1\'-0\"
140
0.375
141
12.0
290
     0
  0
SCALE
  5
56
102
{ACAD_REACTORS
330
3B
102
}
330
3B
100
AcDbScale
 70
     0
300
1/2\" = 1\'-0\"
140
0.5
141
12.0
290
     0
  0
SCALE
  5
57
102
{ACAD_REACTORS
330
3B
102
}
330
3B
100
AcDbScale
 70
     0
300
3/4\" = 1\'-0\"
140
0.75
141
12.0
290
     0
  0
SCALE
  5
58
102
{ACAD_REACTORS
330
3B
102
}
330
3B
100
AcDbScale
 70
     0
300
1\" = 1\'-0\"
140
1.0
141
12.0
290
     0
  0
SCALE
  5
59
102
{ACAD_REACTORS
330
3B
102
}
330
3B
100
AcDbScale
 70
     0
300
1-1/2\" = 1\'-0\"
140
1.5
141
12.0
290
     0
  0
SCALE
  5
5A
102
{ACAD_REACTORS
330
3B
102
}
330
3B
100
AcDbScale
 70
     0
300
3\" = 1\'-0\"
140
3.0
141
12.0
290
     0
  0
SCALE
  5
5B
102
{ACAD_REACTORS
330
3B
102
}
330
3B
100
AcDbScale
 70
     0
300
6\" = 1\'-0\"
140
6.0
141
12.0
290
     0
  0
SCALE
  5
5C
102
{ACAD_REACTORS
330
3B
102
}
330
3B
100
AcDbScale
 70
     0
300
1\'-0\" = 1\'-0\"
140
12.0
141
12.0
290
     0
  0
VISUALSTYLE
  5
2F
102
{ACAD_REACTORS
330
2A
102
}
330
2A
100
AcDbVisualStyle
  2
2dWireframe
 70
     4
 71
     0
 72
     2
 73
     0
 90
        0
 40
-0.6
 41
-30.0
 62
     5
 63
     7
421
 16777215
 74
     1
 91
        4
 64
     7
 65
   257
 75
     1
175
     1
 42
1.0
 92
        0
 66
   257
 43
1.0
 76
     1
 77
     6
 78
     2
 67
     7
 79
     5
170
     0
171
     0
290
     0
174
     0
 93
        1
 44
0.0
173
     0
291
     0
 45
0.0
  0
VISUALSTYLE
  5
31
102
{ACAD_REACTORS
330
2A
102
}
330
2A
100
AcDbVisualStyle
  2
3D Hidden
 70
     6
 71
     1
 72
     2
 73
     2
 90
        0
 40
-0.6
 41
-30.0
 62
     5
 63
     7
421
 16777215
 74
     2
 91
        2
 64
     7
 65
   257
 75
     2
175
     1
 42
40.0
 92
        0
 66
   257
 43
1.0
 76
     1
 77
     6
 78
     2
 67
     7
 79
     3
170
     0
171
     0
290
     0
174
     0
 93
        1
 44
0.0
173
     0
291
     0
 45
0.0
  0
VISUALSTYLE
  5
30
102
{ACAD_REACTORS
330
2A
102
}
330
2A
100
AcDbVisualStyle
  2
3dWireframe
 70
     5
 71
     0
 72
     2
 73
     0
 90
        0
 40
-0.6
 41
-30.0
 62
     5
 63
     7
421
 16777215
 74
     1
 91
        4
 64
     7
 65
   257
 75
     1
175
     1
 42
1.0
 92
        0
 66
   257
 43
1.0
 76
     1
 77
     6
 78
     2
 67
     7
 79
     5
170
     0
171
     0
290
     0
174
     0
 93
        1
 44
0.0
173
     0
291
     0
 45
0.0
  0
VISUALSTYLE
  5
32
102
{ACAD_REACTORS
330
2A
102
}
330
2A
100
AcDbVisualStyle
  2
Basic
 70
     7
 71
     1
 72
     0
 73
     1
 90
        0
 40
-0.6
 41
-30.0
 62
     5
 63
     7
421
 16777215
 74
     0
 91
        4
 64
     7
 65
   257
 75
     1
175
     1
 42
1.0
 92
        8
 66
     7
 43
1.0
 76
     1
 77
     6
 78
     2
 67
     7
 79
     5
170
     0
171
     0
290
     0
174
     0
 93
        1
 44
0.0
173
     0
291
     1
 45
0.0
  0
VISUALSTYLE
  5
36
102
{ACAD_REACTORS
330
2A
102
}
330
2A
100
AcDbVisualStyle
  2
Brighten
 70
    12
 71
     2
 72
     2
 73
     0
 90
        0
 40
-0.6
 41
-30.0
 62
     5
 63
     7
421
 16777215
 74
     1
 91
        4
 64
     7
 65
   257
 75
     1
175
     1
 42
1.0
 92
        8
 66
     7
 43
1.0
 76
     1
 77
     6
 78
     2
 67
     7
 79
     5
170
     0
171
     0
290
     0
174
     0
 93
        1
 44
50.0
173
     0
291
     1
 45
0.0
  0
VISUALSTYLE
  5
3A
102
{ACAD_REACTORS
330
2A
102
}
330
2A
100
AcDbVisualStyle
  2
ColorChange
 70
    16
 71
     2
 72
     2
 73
     3
 90
        0
 40
-0.6
 41
-30.0
 62
     5
 63
     8
421
  8421504
 74
     1
 91
        4
 64
     7
 65
   257
 75
     1
175
     1
 42
1.0
 92
        8
 66
     8
424
  8421504
 43
1.0
 76
     1
 77
     6
 78
     2
 67
     7
 79
     5
170
     0
171
     0
290
     0
174
     0
 93
        1
 44
0.0
173
     0
291
     1
 45
0.0
  0
VISUALSTYLE
  5
34
102
{ACAD_REACTORS
330
2A
102
}
330
2A
100
AcDbVisualStyle
  2
Conceptual
 70
     9
 71
     3
 72
     2
 73
     0
 90
        0
 40
-0.6
 41
-30.0
 62
     5
 63
     7
421
 16777215
 74
     2
 91
        2
 64
     7
 65
   257
 75
     1
175
     1
 42
40.0
 92
        8
 66
     7
 43
1.0
 76
     1
 77
     6
 78
     2
 67
     7
 79
     3
170
     0
171
     0
290
     0
174
     0
 93
        1
 44
0.0
173
     0
291
     0
 45
0.0
  0
VISUALSTYLE
  5
35
102
{ACAD_REACTORS
330
2A
102
}
330
2A
100
AcDbVisualStyle
  2
Dim
 70
    11
 71
     2
 72
     2
 73
     0
 90
        0
 40
-0.6
 41
-30.0
 62
     5
 63
     7
421
 16777215
 74
     1
 91
        4
 64
     7
 65
   257
 75
     1
175
     1
 42
1.0
 92
        8
 66
     7
 43
1.0
 76
     1
 77
     6
 78
     2
 67
     7
 79
     5
170
     0
171
     0
290
     0
174
     0
 93
        1
 44
-50.0
173
     0
291
     1
 45
0.0
  0
VISUALSTYLE
  5
39
102
{ACAD_REACTORS
330
2A
102
}
330
2A
100
AcDbVisualStyle
  2
Facepattern
 70
    15
 71
     2
 72
     2
 73
     0
 90
        0
 40
-0.6
 41
-30.0
 62
     5
 63
     7
421
 16777215
 74
     1
 91
        4
 64
     7
 65
   257
 75
     1
175
     1
 42
1.0
 92
        8
 66
     7
 43
1.0
 76
     1
 77
     6
 78
     2
 67
     7
 79
     5
170
     0
171
     0
290
     0
174
     0
 93
        1
 44
0.0
173
     0
291
     1
 45
0.0
  0
VISUALSTYLE
  5
2B
102
{ACAD_REACTORS
330
2A
102
}
330
2A
100
AcDbVisualStyle
  2
Flat
 70
     0
 71
     2
 72
     1
 73
     1
 90
        2
 40
-0.6
 41
30.0
 62
     5
 63
     7
421
 16777215
 74
     0
 91
        4
 64
     7
 65
   257
 75
     1
175
     1
 42
1.0
 92
        8
 66
     7
 43
1.0
 76
     1
 77
     6
 78
     2
 67
     7
 79
     5
170
     0
171
     0
290
     0
174
     0
 93
       13
 44
0.0
173
     0
291
     1
 45
0.0
  0
VISUALSTYLE
  5
2C
102
{ACAD_REACTORS
330
2A
102
}
330
2A
100
AcDbVisualStyle
  2
FlatWithEdges
 70
     1
 71
     2
 72
     1
 73
     1
 90
        2
 40
-0.6
 41
30.0
 62
     5
 63
     7
421
 16777215
 74
     1
 91
        4
 64
     7
 65
   257
 75
     1
175
     1
 42
1.0
 92
        0
 66
   257
 43
1.0
 76
     1
 77
     6
 78
     2
 67
     7
 79
     5
170
     0
171
     0
290
     0
174
     0
 93
       13
 44
0.0
173
     0
291
     1
 45
0.0
  0
VISUALSTYLE
  5
2D
102
{ACAD_REACTORS
330
2A
102
}
330
2A
100
AcDbVisualStyle
  2
Gouraud
 70
     2
 71
     2
 72
     2
 73
     1
 90
        2
 40
-0.6
 41
30.0
 62
     5
 63
     7
421
 16777215
 74
     0
 91
        4
 64
     7
 65
   257
 75
     1
175
     1
 42
1.0
 92
        0
 66
     7
 43
1.0
 76
     1
 77
     6
 78
     2
 67
     7
 79
     5
170
     0
171
     0
290
     0
174
     0
 93
       13
 44
0.0
173
     0
291
     1
 45
0.0
  0
VISUALSTYLE
  5
2E
102
{ACAD_REACTORS
330
2A
102
}
330
2A
100
AcDbVisualStyle
  2
GouraudWithEdges
 70
     3
 71
     2
 72
     2
 73
     1
 90
        2
 40
-0.6
 41
30.0
 62
     5
 63
     7
421
 16777215
 74
     1
 91
        4
 64
     7
 65
   257
 75
     1
175
     1
 42
1.0
 92
        0
 66
   257
 43
1.0
 76
     1
 77
     6
 78
     2
 67
     7
 79
     5
170
     0
171
     0
290
     0
174
     0
 93
       13
 44
0.0
173
     0
291
     1
 45
0.0
  0
VISUALSTYLE
  5
38
102
{ACAD_REACTORS
330
2A
102
}
330
2A
100
AcDbVisualStyle
  2
Linepattern
 70
    14
 71
     2
 72
     2
 73
     0
 90
        0
 40
-0.6
 41
-30.0
 62
     5
 63
     7
421
 16777215
 74
     1
 91
        4
 64
     7
 65
   257
 75
     7
175
     7
 42
1.0
 92
        8
 66
     7
 43
1.0
 76
     1
 77
     6
 78
     2
 67
     7
 79
     5
170
     0
171
     0
290
     0
174
     0
 93
        1
 44
0.0
173
     0
291
     1
 45
0.0
  0
VISUALSTYLE
  5
33
102
{ACAD_REACTORS
330
2A
102
}
330
2A
100
AcDbVisualStyle
  2
Realistic
 70
     8
 71
     2
 72
     2
 73
     0
 90
        0
 40
-0.6
 41
-30.0
 62
     5
 63
     7
421
 16777215
 74
     1
 91
        0
 64
     7
 65
   257
 75
     1
175
     1
 42
1.0
 92
        8
 66
     8
424
  7895160
 43
1.0
 76
     1
 77
     6
 78
     2
 67
     7
 79
     5
170
     0
171
     0
290
     0
174
     0
 93
       13
 44
0.0
173
     0
291
     0
 45
0.0
  0
VISUALSTYLE
  5
37
102
{ACAD_REACTORS
330
2A
102
}
330
2A
100
AcDbVisualStyle
  2
Thicken
 70
    13
 71
     2
 72
     2
 73
     0
 90
        0
 40
-0.6
 41
-30.0
 62
     5
 63
     7
421
 16777215
 74
     1
 91
        4
 64
     7
 65
   257
 75
     1
175
     1
 42
1.0
 92
       12
 66
     7
 43
1.0
 76
     1
 77
     6
 78
     2
 67
     7
 79
     5
170
     0
171
     0
290
     0
174
     0
 93
        1
 44
0.0
173
     0
291
     1
 45
0.0
  0
ENDSEC
  0
EOF
