  0
SECTION
  2
HEADER
  9
$ACADVER
  1
AC1012
  9
$DWGCODEPAGE
  3
dos850
  9
$INSBASE
 10
0.0
 20
0.0
 30
0.0
  9
$EXTMIN
 10
-6.915645
 20
-0.67324
 30
0.0
  9
$EXTMAX
 10
16.274405
 20
14.138043
 30
0.0
  9
$LIMMIN
 10
0.0
 20
0.0
  9
$LIMMAX
 10
0.0
 20
0.0
  9
$ORTHOMODE
 70
     0
  9
$REGENMODE
 70
     1
  9
$FILLMODE
 70
     1
  9
$QTEXTMODE
 70
     0
  9
$MIRRTEXT
 70
     1
  9
$DRAGMODE
 70
     2
  9
$LTSCALE
 40
1.0
  9
$OSMODE
 70
     0
  9
$ATTMODE
 70
     1
  9
$TEXTSIZE
 40
0.125
  9
$TRACEWID
 40
0.05
  9
$TEXTSTYLE
  7
STANDARD
  9
$CLAYER
  8
0
  9
$CELTYPE
  6
CONTINUOUS
  9
$CECOLOR
 62
     1
  9
$CELTSCALE
 40
1.0
  9
$DELOBJ
 70
     1
  9
$DISPSILH
 70
     0
  9
$DIMSCALE
 40
1.0
  9
$DIMASZ
 40
0.18
  9
$DIMEXO
 40
0.0625
  9
$DIMDLI
 40
0.38
  9
$DIMRND
 40
0.0
  9
$DIMDLE
 40
0.0
  9
$DIMEXE
 40
0.25
  9
$DIMTP
 40
0.01
  9
$DIMTM
 40
-0.01
  9
$DIMTXT
 40
0.125
  9
$DIMCEN
 40
0.09
  9
$DIMTSZ
 40
0.0
  9
$DIMTOL
 70
     0
  9
$DIMLIM
 70
     0
  9
$DIMTIH
 70
     1
  9
$DIMTOH
 70
     1
  9
$DIMSE1
 70
     0
  9
$DIMSE2
 70
     0
  9
$DIMTAD
 70
     0
  9
$DIMZIN
 70
     0
  9
$DIMBLK
  1

  9
$DIMASO
 70
     1
  9
$DIMSHO
 70
     1
  9
$DIMPOST
  1

  9
$DIMAPOST
  1

  9
$DIMALT
 70
     0
  9
$DIMALTD
 70
     2
  9
$DIMALTF
 40
25.4
  9
$DIMLFAC
 40
1.0
  9
$DIMTOFL
 70
     0
  9
$DIMTVP
 40
0.0
  9
$DIMTIX
 70
     0
  9
$DIMSOXD
 70
     0
  9
$DIMSAH
 70
     0
  9
$DIMBLK1
  1

  9
$DIMBLK2
  1

  9
$DIMSTYLE
  2
STANDARD
  9
$DIMCLRD
 70
     0
  9
$DIMCLRE
 70
     0
  9
$DIMCLRT
 70
     1
  9
$DIMTFAC
 40
1.0
  9
$DIMGAP
 40
0.09
  9
$DIMJUST
 70
     0
  9
$DIMSD1
 70
     0
  9
$DIMSD2
 70
     0
  9
$DIMTOLJ
 70
     1
  9
$DIMTZIN
 70
     0
  9
$DIMALTZ
 70
     0
  9
$DIMALTTZ
 70
     0
  9
$DIMFIT
 70
     3
  9
$DIMUPT
 70
     0
  9
$DIMUNIT
 70
     2
  9
$DIMDEC
 70
     4
  9
$DIMTDEC
 70
     4
  9
$DIMALTU
 70
     2
  9
$DIMALTTD
 70
     2
  9
$DIMTXSTY
  7
STANDARD
  9
$DIMAUNIT
 70
     0
  9
$LUNITS
 70
     2
  9
$LUPREC
 70
     4
  9
$SKETCHINC
 40
0.1
  9
$FILLETRAD
 40
0.0
  9
$AUNITS
 70
     0
  9
$AUPREC
 70
     0
  9
$MENU
  1
acad
  9
$ELEVATION
 40
0.0
  9
$PELEVATION
 40
0.0
  9
$THICKNESS
 40
0.0
  9
$LIMCHECK
 70
     0
  9
$BLIPMODE
 70
     1
  9
$CHAMFERA
 40
0.0
  9
$CHAMFERB
 40
0.0
  9
$CHAMFERC
 40
0.0
  9
$CHAMFERD
 40
0.0
  9
$SKPOLY
 70
     0
  9
$TDCREATE
 40
0.000000000
  9
$TDUPDATE
 40
0.000000000
  9
$TDINDWG
 40
0.0000000000
  9
$TDUSRTIMER
 40
0.0000000000
  9
$USRTIMER
 70
     1
  9
$ANGBASE
 50
0.0
  9
$ANGDIR
 70
     0
  9
$PDMODE
 70
     2
  9
$PDSIZE
 40
0.0
  9
$PLINEWID
 40
0.0
  9
$COORDS
 70
     2
  9
$SPLFRAME
 70
     0
  9
$SPLINETYPE
 70
     6
  9
$SPLINESEGS
 70
     8
  9
$ATTDIA
 70
     0
  9
$ATTREQ
 70
     1
  9
$HANDLING
 70
     1
  9
$HANDSEED
  5
5E1
  9
$SURFTAB1
 70
     6
  9
$SURFTAB2
 70
     6
  9
$SURFTYPE
 70
     6
  9
$SURFU
 70
     6
  9
$SURFV
 70
     6
  9
$UCSNAME
  2

  9
$UCSORG
 10
0.0
 20
0.0
 30
0.0
  9
$UCSXDIR
 10
1.0
 20
0.0
 30
0.0
  9
$UCSYDIR
 10
0.0
 20
1.0
 30
0.0
  9
$PUCSNAME
  2

  9
$PUCSORG
 10
0.0
 20
0.0
 30
0.0
  9
$PUCSXDIR
 10
1.0
 20
0.0
 30
0.0
  9
$PUCSYDIR
 10
0.0
 20
1.0
 30
0.0
  9
$USERI1
 70
     0
  9
$USERI2
 70
     0
  9
$USERI3
 70
     0
  9
$USERI4
 70
     0
  9
$USERI5
 70
     0
  9
$USERR1
 40
0.0
  9
$USERR2
 40
0.0
  9
$USERR3
 40
0.0
  9
$USERR4
 40
0.0
  9
$USERR5
 40
0.0
  9
$WORLDVIEW
 70
     1
  9
$SHADEDGE
 70
     3
  9
$SHADEDIF
 70
    70
  9
$TILEMODE
 70
     1
  9
$MAXACTVP
 70
    16
  9
$PINSBASE
 10
0.0
 20
0.0
 30
0.0
  9
$PLIMCHECK
 70
     0
  9
$PEXTMIN
 10
1.000000E+20
 20
1.000000E+20
 30
1.000000E+20
  9
$PEXTMAX
 10
-1.000000E+20
 20
-1.000000E+20
 30
-1.000000E+20
  9
$PLIMMIN
 10
0.0
 20
0.0
  9
$PLIMMAX
 10
12.0
 20
9.0
  9
$UNITMODE
 70
     0
  9
$VISRETAIN
 70
     0
  9
$PLINEGEN
 70
     1
  9
$PSLTSCALE
 70
     0
  9
$TREEDEPTH
 70
  3020
  9
$PICKSTYLE
 70
     1
  9
$CMLSTYLE
  2
STANDARD
  9
$CMLJUST
 70
     0
  9
$CMLSCALE
 40
1.0
  9
$SAVEIMAGES
 70
     0
  0
ENDSEC
  0
SECTION
  2
CLASSES
  0
ENDSEC
  0
SECTION
  2
TABLES
  0
TABLE
  2
VPORT
  5
7
100
AcDbSymbolTable
 70
     1
  0
VPORT
  5
16
100
AcDbSymbolTableRecord
100
AcDbViewportTableRecord
  2
*ACTIVE
 70
     0
 10
0.0
 20
0.0
 11
1.0
 21
1.0
 12
4.67938
 22
6.732401
 13
0.0
 23
0.0
 14
1.0
 24
1.0
 15
0.0
 25
0.0
 16
0.0
 26
0.0
 36
1.0
 17
0.0
 27
0.0
 37
0.0
 40
14.811283
 41
1.565702
 42
50.0
 43
0.0
 44
0.0
 50
0.0
 51
0.0
 71
     0
 72
   100
 73
     1
 74
     1
 75
     0
 76
     0
 77
     0
 78
     0
  0
ENDTAB
  0
TABLE
  2
LTYPE
  5
4
100
AcDbSymbolTable
 70
     6
  0
LTYPE
  5
12
100
AcDbSymbolTableRecord
100
AcDbLinetypeTableRecord
  2
BYBLOCK
 70
     0
  3

 72
    65
 73
     0
 40
0.0
  0
LTYPE
  5
13
100
AcDbSymbolTableRecord
100
AcDbLinetypeTableRecord
  2
BYLAYER
 70
     0
  3

 72
    65
 73
     0
 40
0.0
  0
LTYPE
  5
14
100
AcDbSymbolTableRecord
100
AcDbLinetypeTableRecord
  2
CONTINUOUS
 70
     0
  3
Solid line
 72
    65
 73
     0
 40
0.0
  0
LTYPE
  5
20
100
AcDbSymbolTableRecord
100
AcDbLinetypeTableRecord
  2
DASHED
 70
     0
  3
_ _ _ _ _ _ _ _ _ _ _ _ _ _ _ _
 72
    65
 73
     2
 40
0.75
 49
-0.25
 74
     0
 49
0.0
 74
     0
  0
LTYPE
  5
21
100
AcDbSymbolTableRecord
100
AcDbLinetypeTableRecord
  2
CENTER
 70
     0
  3
__ __ __ __ __ __ __ __ __ __ __ __ __ __ __ __
 72
    65
 73
     4
 40
2.0
 49
0.0
 74
     0
 49
-0.25
 74
     0
 49
0.0
 74
     0
 49
0.0
 74
     0
  0
LTYPE
  5
22
100
AcDbSymbolTableRecord
100
AcDbLinetypeTableRecord
  2
PHANTOM
 70
     0
  3
______  __  __  ______  __  __  ______  __  __  
 72
    65
 73
     6
 40
2.5
 49
0.0
 74
     0
 49
0.0
 74
     0
 49
-0.25
 74
     0
 49
0.0
 74
     0
 49
0.0
 74
     0
 49
0.0
 74
     0
  0
ENDTAB
  0
TABLE
  2
LAYER
  5
2
100
AcDbSymbolTable
 70
     2
  0
LAYER
  5
15
100
AcDbSymbolTableRecord
100
AcDbLayerTableRecord
  2
0
 70
     0
 62
     7
  6
CONTINUOUS
  0
LAYER
  5
24
100
AcDbSymbolTableRecord
100
AcDbLayerTableRecord
  2
CK_LEVEL_1
 70
     0
 62
     7
  6
CONTINUOUS
  0
ENDTAB
  0
TABLE
  2
STYLE
  5
3
100
AcDbSymbolTable
 70
     1
  0
STYLE
  5
18
100
AcDbSymbolTableRecord
100
AcDbTextStyleTableRecord
  2
STANDARD
 70
     0
 40
0.0
 41
1.0
 50
0.0
 71
     0
 42
0.0
  3
txt
  4

  0
ENDTAB
  0
TABLE
  2
VIEW
  5
5
100
AcDbSymbolTable
 70
     0
  0
ENDTAB
  0
TABLE
  2
UCS
  5
6
100
AcDbSymbolTable
 70
     1
  0
UCS
  5
23
100
AcDbSymbolTableRecord
100
AcDbUCSTableRecord
  2
CK_VIEW_1
 70
     0
 10
0.0
 20
0.0
 30
1.0
 11
1.0
 21
0.0
 31
0.0
 12
0.0
 22
1.0
 32
0.0
  0
ENDTAB
  0
TABLE
  2
APPID
  5
8
100
AcDbSymbolTable
 70
     1
  0
APPID
  5
17
100
AcDbSymbolTableRecord
100
AcDbRegAppTableRecord
  2
ACAD
 70
     0
  0
ENDTAB
  0
TABLE
  2
DIMSTYLE
  5
9
100
AcDbSymbolTable
 70
     1
  0
DIMSTYLE
105
19
100
AcDbSymbolTableRecord
100
AcDbDimStyleTableRecord
  2
STANDARD
 70
     0
  3

  4

  5

  6

  7

 40
1.0
 41
0.18
 42
0.0625
 43
0.38
 44
0.18
 45
0.0
 46
0.0
 47
0.0
 48
0.0
140
0.18
141
0.09
142
0.0
143
25.4
144
1.0
145
0.0
146
1.0
147
0.09
 71
     0
 72
     0
 73
     1
 74
     1
 75
     0
 76
     0
 77
     0
 78
     0
170
     0
171
     2
172
     0
173
     0
174
     0
175
     0
176
     0
177
     0
178
     0
270
     2
271
     4
272
     4
273
     2
274
     2
340
18
275
     0
280
     0
281
     0
282
     0
283
     1
284
     0
285
     0
286
     0
287
     0
288
     0
  0
ENDTAB
  0
TABLE
  2
BLOCK_RECORD
  5
C
100
AcDbSymbolTable
 70
     0
  0
BLOCK_RECORD
  5
1E
100
AcDbSymbolTableRecord
100
AcDbBlockTableRecord
  2
*MODEL_SPACE
  0
BLOCK_RECORD
  5
1F
100
AcDbSymbolTableRecord
100
AcDbBlockTableRecord
  2
*PAPER_SPACE
  0
ENDTAB
  0
ENDSEC
  0
SECTION
  2
BLOCKS
  0
BLOCK
  5
E
100
AcDbEntity
  8
0
100
AcDbBlockBegin
  2
*MODEL_SPACE
 70
     0
 10
0.0
 20
0.0
 30
0.0
  3
*MODEL_SPACE
  1

  0
ENDBLK
  5
F
100
AcDbEntity
  8
0
100
AcDbBlockEnd
  0
BLOCK
  5
10
100
AcDbEntity
 67
     1
  8
0
100
AcDbBlockBegin
  2
*PAPER_SPACE
 70
     0
 10
0.0
 20
0.0
 30
0.0
  3
*PAPER_SPACE
  1

  0
ENDBLK
  5
11
100
AcDbEntity
 67
     1
  8
0
100
AcDbBlockEnd
  0
ENDSEC
  0
SECTION
  2
ENTITIES
  0
LINE
  5
25
100
AcDbEntity
  8
CK_LEVEL_1
  6
CONTINUOUS
 62
     2
100
AcDbLine
 10
9.35876
 20
0.0
 30
0.0
 11
9.35876
 21
1.084874
 31
0.0
  0
LINE
  5
26
100
AcDbEntity
  8
CK_LEVEL_1
  6
CONTINUOUS
 62
     2
100
AcDbLine
 10
9.35876
 20
1.084874
 30
0.0
 11
0.0
 21
1.084874
 31
0.0
  0
LINE
  5
27
100
AcDbEntity
  8
CK_LEVEL_1
  6
CONTINUOUS
 62
     2
100
AcDbLine
 10
0.0
 20
1.084874
 30
0.0
 11
0.0
 21
0.0
 31
0.0
  0
LINE
  5
28
100
AcDbEntity
  8
CK_LEVEL_1
  6
CONTINUOUS
 62
     2
100
AcDbLine
 10
0.0
 20
0.0
 30
0.0
 11
9.35876
 21
0.0
 31
0.0
  0
LINE
  5
29
100
AcDbEntity
  8
CK_LEVEL_1
  6
CONTINUOUS
 62
     2
100
AcDbLine
 10
2.101087
 20
10.553495
 30
0.0
 11
2.101087
 21
5.493036
 31
0.0
  0
LINE
  5
2A
100
AcDbEntity
  8
CK_LEVEL_1
  6
CONTINUOUS
 62
     2
100
AcDbLine
 10
2.101087
 20
5.493036
 30
0.0
 11
2.149151
 21
5.493036
 31
0.0
  0
LINE
  5
2B
100
AcDbEntity
  8
CK_LEVEL_1
  6
CONTINUOUS
 62
     2
100
AcDbLine
 10
2.149151
 20
5.493036
 30
0.0
 11
2.149151
 21
11.143995
 31
0.0
  0
LINE
  5
2C
100
AcDbEntity
  8
CK_LEVEL_1
  6
CONTINUOUS
 62
     2
100
AcDbLine
 10
2.149151
 20
11.143996
 30
0.0
 11
2.101087
 21
11.700167
 31
0.0
  0
LINE
  5
2D
100
AcDbEntity
  8
CK_LEVEL_1
  6
CONTINUOUS
 62
     2
100
AcDbLine
 10
2.101087
 20
11.700166
 30
0.0
 11
2.272744
 21
11.720765
 31
0.0
  0
LINE
  5
2E
100
AcDbEntity
  8
CK_LEVEL_1
  6
CONTINUOUS
 62
     2
100
AcDbLine
 10
2.272744
 20
11.720765
 30
0.0
 11
2.307075
 21
11.480444
 31
0.0
  0
LINE
  5
2F
100
AcDbEntity
  8
CK_LEVEL_1
  6
CONTINUOUS
 62
     2
100
AcDbLine
 10
2.307075
 20
11.480444
 30
0.0
 11
2.307075
 21
11.761962
 31
0.0
  0
LINE
  5
30
100
AcDbEntity
  8
CK_LEVEL_1
  6
CONTINUOUS
 62
     2
100
AcDbLine
 10
2.307075
 20
11.761962
 30
0.0
 11
2.101087
 21
11.761962
 31
0.0
  0
LINE
  5
31
100
AcDbEntity
  8
CK_LEVEL_1
  6
CONTINUOUS
 62
     2
100
AcDbLine
 10
2.101087
 20
11.761962
 30
0.0
 11
2.101087
 21
10.553495
 31
0.0
  0
LINE
  5
32
100
AcDbEntity
  8
CK_LEVEL_1
  6
CONTINUOUS
 62
     2
100
AcDbLine
 10
2.101087
 20
10.553495
 30
0.0
 11
2.080488
 21
10.622158
 31
0.0
  0
LINE
  5
33
100
AcDbEntity
  8
CK_LEVEL_1
  6
CONTINUOUS
 62
     2
100
AcDbLine
 10
2.080488
 20
10.622158
 30
0.0
 11
2.03929
 21
10.670222
 31
0.0
  0
LINE
  5
34
100
AcDbEntity
  8
CK_LEVEL_1
  6
CONTINUOUS
 62
     2
100
AcDbLine
 10
2.03929
 20
10.670222
 30
0.0
 11
1.970627
 21
10.697687
 31
0.0
  0
LINE
  5
35
100
AcDbEntity
  8
CK_LEVEL_1
  6
CONTINUOUS
 62
     2
100
AcDbLine
 10
1.970627
 20
10.697687
 30
0.0
 11
1.901964
 21
10.704554
 31
0.0
  0
LINE
  5
36
100
AcDbEntity
  8
CK_LEVEL_1
  6
CONTINUOUS
 62
     2
100
AcDbLine
 10
1.901964
 20
10.704553
 30
0.0
 11
1.901964
 21
11.597171
 31
0.0
  0
LINE
  5
37
100
AcDbEntity
  8
CK_LEVEL_1
  6
CONTINUOUS
 62
     2
100
AcDbLine
 10
1.901964
 20
11.597171
 30
0.0
 11
1.744039
 21
11.597171
 31
0.0
  0
LINE
  5
38
100
AcDbEntity
  8
CK_LEVEL_1
  6
CONTINUOUS
 62
     2
100
AcDbLine
 10
1.744039
 20
11.597171
 30
0.0
 11
1.744039
 21
12.098411
 31
0.0
  0
LINE
  5
39
100
AcDbEntity
  8
CK_LEVEL_1
  6
CONTINUOUS
 62
     2
100
AcDbLine
 10
1.744039
 20
12.098411
 30
0.0
 11
1.901964
 21
12.098411
 31
0.0
  0
LINE
  5
3A
100
AcDbEntity
  8
CK_LEVEL_1
  6
CONTINUOUS
 62
     2
100
AcDbLine
 10
1.901964
 20
12.098411
 30
0.0
 11
1.901964
 21
13.464803
 31
0.0
  0
LINE
  5
3B
100
AcDbEntity
  8
CK_LEVEL_1
  6
CONTINUOUS
 62
     2
100
AcDbLine
 10
1.901964
 20
13.464803
 30
0.0
 11
2.101087
 21
13.464803
 31
0.0
  0
LINE
  5
3C
100
AcDbEntity
  8
CK_LEVEL_1
  6
CONTINUOUS
 62
     2
100
AcDbLine
 10
2.101087
 20
13.464803
 30
0.0
 11
2.101087
 21
11.919887
 31
0.0
  0
LINE
  5
3D
100
AcDbEntity
  8
CK_LEVEL_1
  6
CONTINUOUS
 62
     2
100
AcDbLine
 10
2.101087
 20
11.919887
 30
0.0
 11
2.499332
 21
11.919887
 31
0.0
  0
LINE
  5
3E
100
AcDbEntity
  8
CK_LEVEL_1
  6
CONTINUOUS
 62
     2
100
AcDbLine
 10
2.499332
 20
11.919887
 30
0.0
 11
2.499332
 21
11.473577
 31
0.0
  0
LINE
  5
3F
100
AcDbEntity
  8
CK_LEVEL_1
  6
CONTINUOUS
 62
     2
100
AcDbLine
 10
2.499332
 20
11.473578
 30
0.0
 11
2.307075
 21
11.473578
 31
0.0
  0
LINE
  5
40
100
AcDbEntity
  8
CK_LEVEL_1
  6
CONTINUOUS
 62
     2
100
AcDbLine
 10
2.307075
 20
11.473578
 30
0.0
 11
2.973106
 21
5.506768
 31
0.0
  0
LINE
  5
41
100
AcDbEntity
  8
CK_LEVEL_1
  6
CONTINUOUS
 62
     2
100
AcDbLine
 10
2.973106
 20
5.506768
 30
0.0
 11
2.794582
 21
5.493036
 31
0.0
  0
LINE
  5
42
100
AcDbEntity
  8
CK_LEVEL_1
  6
CONTINUOUS
 62
     2
100
AcDbLine
 10
2.794582
 20
5.493036
 30
0.0
 11
2.375738
 21
9.084108
 31
0.0
  0
LINE
  5
43
100
AcDbEntity
  8
CK_LEVEL_1
  6
CONTINUOUS
 62
     2
100
AcDbLine
 10
2.375738
 20
9.084108
 30
0.0
 11
2.375738
 21
5.493036
 31
0.0
  0
LINE
  5
44
100
AcDbEntity
  8
CK_LEVEL_1
  6
CONTINUOUS
 62
     2
100
AcDbLine
 10
2.375738
 20
5.493036
 30
0.0
 11
2.979972
 21
5.493036
 31
0.0
  0
LINE
  5
45
100
AcDbEntity
  8
CK_LEVEL_1
  6
CONTINUOUS
 62
     2
100
AcDbLine
 10
2.979972
 20
5.493036
 30
0.0
 11
2.979972
 21
5.905013
 31
0.0
  0
LINE
  5
46
100
AcDbEntity
  8
CK_LEVEL_1
  6
CONTINUOUS
 62
     2
100
AcDbLine
 10
2.979972
 20
5.905013
 30
0.0
 11
3.179095
 21
5.905013
 31
0.0
  0
LINE
  5
47
100
AcDbEntity
  8
CK_LEVEL_1
  6
CONTINUOUS
 62
     2
100
AcDbLine
 10
3.179095
 20
5.905013
 30
0.0
 11
3.179095
 21
5.032994
 31
0.0
  0
LINE
  5
48
100
AcDbEntity
  8
CK_LEVEL_1
  6
CONTINUOUS
 62
     2
100
AcDbLine
 10
3.179095
 20
5.032994
 30
0.0
 11
2.382605
 21
5.032994
 31
0.0
  0
LINE
  5
49
100
AcDbEntity
  8
CK_LEVEL_1
  6
CONTINUOUS
 62
     2
100
AcDbLine
 10
2.382605
 20
5.032994
 30
0.0
 11
2.382605
 21
1.647911
 31
0.0
  0
LINE
  5
4A
100
AcDbEntity
  8
CK_LEVEL_1
  6
CONTINUOUS
 62
     2
100
AcDbLine
 10
2.382605
 20
1.647911
 30
0.0
 11
2.149151
 21
1.647911
 31
0.0
  0
LINE
  5
4B
100
AcDbEntity
  8
CK_LEVEL_1
  6
CONTINUOUS
 62
     2
100
AcDbLine
 10
2.149151
 20
1.647911
 30
0.0
 11
2.149151
 21
5.032994
 31
0.0
  0
LINE
  5
4C
100
AcDbEntity
  8
CK_LEVEL_1
  6
CONTINUOUS
 62
     2
100
AcDbLine
 10
2.149151
 20
5.032994
 30
0.0
 11
2.101087
 21
5.032994
 31
0.0
  0
LINE
  5
4D
100
AcDbEntity
  8
CK_LEVEL_1
  6
CONTINUOUS
 62
     2
100
AcDbLine
 10
2.101087
 20
5.032994
 30
0.0
 11
2.101087
 21
1.647911
 31
0.0
  0
LINE
  5
4E
100
AcDbEntity
  8
CK_LEVEL_1
  6
CONTINUOUS
 62
     2
100
AcDbLine
 10
2.101087
 20
1.647911
 30
0.0
 11
3.563607
 21
1.647911
 31
0.0
  0
LINE
  5
4F
100
AcDbEntity
  8
CK_LEVEL_1
  6
CONTINUOUS
 62
     2
100
AcDbLine
 10
3.563607
 20
1.647911
 30
0.0
 11
3.563607
 21
1.551783
 31
0.0
  0
LINE
  5
50
100
AcDbEntity
  8
CK_LEVEL_1
  6
CONTINUOUS
 62
     2
100
AcDbLine
 10
3.563607
 20
1.551783
 30
0.0
 11
3.886323
 21
1.551783
 31
0.0
  0
LINE
  5
51
100
AcDbEntity
  8
CK_LEVEL_1
  6
CONTINUOUS
 62
     2
100
AcDbLine
 10
3.886323
 20
1.551783
 30
0.0
 11
3.886323
 21
1.126072
 31
0.0
  0
LINE
  5
52
100
AcDbEntity
  8
CK_LEVEL_1
  6
CONTINUOUS
 62
     2
100
AcDbLine
 10
3.886323
 20
1.126072
 30
0.0
 11
3.831393
 21
1.126072
 31
0.0
  0
LINE
  5
53
100
AcDbEntity
  8
CK_LEVEL_1
  6
CONTINUOUS
 62
     2
100
AcDbLine
 10
3.831393
 20
1.126072
 30
0.0
 11
3.810794
 21
1.105473
 31
0.0
  0
LINE
  5
54
100
AcDbEntity
  8
CK_LEVEL_1
  6
CONTINUOUS
 62
     2
100
AcDbLine
 10
3.810794
 20
1.105473
 30
0.0
 11
3.707799
 21
1.105473
 31
0.0
  0
LINE
  5
55
100
AcDbEntity
  8
CK_LEVEL_1
  6
CONTINUOUS
 62
     2
100
AcDbLine
 10
3.707799
 20
1.105473
 30
0.0
 11
3.735265
 21
1.050543
 31
0.0
  0
LINE
  5
56
100
AcDbEntity
  8
CK_LEVEL_1
  6
CONTINUOUS
 62
     2
100
AcDbLine
 10
3.735265
 20
1.050543
 30
0.0
 11
3.460613
 21
1.050543
 31
0.0
  0
LINE
  5
57
100
AcDbEntity
  8
CK_LEVEL_1
  6
CONTINUOUS
 62
     2
100
AcDbLine
 10
3.460613
 20
1.050543
 30
0.0
 11
3.52241
 21
1.146671
 31
0.0
  0
LINE
  5
58
100
AcDbEntity
  8
CK_LEVEL_1
  6
CONTINUOUS
 62
     2
100
AcDbLine
 10
3.52241
 20
1.146671
 30
0.0
 11
3.330153
 21
1.146671
 31
0.0
  0
LINE
  5
59
100
AcDbEntity
  8
CK_LEVEL_1
  6
CONTINUOUS
 62
     2
100
AcDbLine
 10
3.330153
 20
1.146671
 30
0.0
 11
3.405683
 21
1.057409
 31
0.0
  0
LINE
  5
5A
100
AcDbEntity
  8
CK_LEVEL_1
  6
CONTINUOUS
 62
     2
100
AcDbLine
 10
3.405683
 20
1.057409
 30
0.0
 11
3.096699
 21
1.057409
 31
0.0
  0
LINE
  5
5B
100
AcDbEntity
  8
CK_LEVEL_1
  6
CONTINUOUS
 62
     2
100
AcDbLine
 10
3.096699
 20
1.057409
 30
0.0
 11
3.15163
 21
1.146671
 31
0.0
  0
LINE
  5
5C
100
AcDbEntity
  8
CK_LEVEL_1
  6
CONTINUOUS
 62
     2
100
AcDbLine
 10
3.15163
 20
1.146671
 30
0.0
 11
3.028036
 21
1.146671
 31
0.0
  0
LINE
  5
5D
100
AcDbEntity
  8
CK_LEVEL_1
  6
CONTINUOUS
 62
     2
100
AcDbLine
 10
3.028036
 20
1.146671
 30
0.0
 11
2.973106
 21
1.215334
 31
0.0
  0
LINE
  5
5E
100
AcDbEntity
  8
CK_LEVEL_1
  6
CONTINUOUS
 62
     2
100
AcDbLine
 10
2.973106
 20
1.215334
 30
0.0
 11
0.878886
 21
1.215334
 31
0.0
  0
LINE
  5
5F
100
AcDbEntity
  8
CK_LEVEL_1
  6
CONTINUOUS
 62
     2
100
AcDbLine
 10
0.878886
 20
1.215334
 30
0.0
 11
0.844555
 21
1.174136
 31
0.0
  0
LINE
  5
60
100
AcDbEntity
  8
CK_LEVEL_1
  6
CONTINUOUS
 62
     2
100
AcDbLine
 10
0.844555
 20
1.174136
 30
0.0
 11
0.734694
 21
1.160404
 31
0.0
  0
LINE
  5
61
100
AcDbEntity
  8
CK_LEVEL_1
  6
CONTINUOUS
 62
     2
100
AcDbLine
 10
0.734694
 20
1.160404
 30
0.0
 11
0.803357
 21
1.057409
 31
0.0
  0
LINE
  5
62
100
AcDbEntity
  8
CK_LEVEL_1
  6
CONTINUOUS
 62
     2
100
AcDbLine
 10
0.803357
 20
1.057409
 30
0.0
 11
0.453176
 21
1.057409
 31
0.0
  0
LINE
  5
63
100
AcDbEntity
  8
CK_LEVEL_1
  6
CONTINUOUS
 62
     2
100
AcDbLine
 10
0.453176
 20
1.057409
 30
0.0
 11
0.528705
 21
1.146671
 31
0.0
  0
LINE
  5
64
100
AcDbEntity
  8
CK_LEVEL_1
  6
CONTINUOUS
 62
     2
100
AcDbLine
 10
0.528705
 20
1.146671
 30
0.0
 11
0.411978
 21
1.174136
 31
0.0
  0
LINE
  5
65
100
AcDbEntity
  8
CK_LEVEL_1
  6
CONTINUOUS
 62
     2
100
AcDbLine
 10
0.411978
 20
1.174136
 30
0.0
 11
0.384513
 21
1.215334
 31
0.0
  0
LINE
  5
66
100
AcDbEntity
  8
CK_LEVEL_1
  6
CONTINUOUS
 62
     2
100
AcDbLine
 10
0.384513
 20
1.215334
 30
0.0
 11
0.31585
 21
1.215334
 31
0.0
  0
LINE
  5
67
100
AcDbEntity
  8
CK_LEVEL_1
  6
CONTINUOUS
 62
     2
100
AcDbLine
 10
0.31585
 20
1.215334
 30
0.0
 11
0.31585
 21
1.647911
 31
0.0
  0
LINE
  5
68
100
AcDbEntity
  8
CK_LEVEL_1
  6
CONTINUOUS
 62
     2
100
AcDbLine
 10
0.31585
 20
1.647911
 30
0.0
 11
1.750906
 21
1.647911
 31
0.0
  0
LINE
  5
69
100
AcDbEntity
  8
CK_LEVEL_1
  6
CONTINUOUS
 62
     2
100
AcDbLine
 10
1.750906
 20
1.647911
 30
0.0
 11
1.750906
 21
10.608425
 31
0.0
  0
LINE
  5
6A
100
AcDbEntity
  8
CK_LEVEL_1
  6
CONTINUOUS
 62
     2
100
AcDbLine
 10
1.750906
 20
10.608425
 30
0.0
 11
1.750906
 21
10.601559
 31
0.0
  0
LINE
  5
6B
100
AcDbEntity
  8
CK_LEVEL_1
  6
CONTINUOUS
 62
     2
100
AcDbLine
 10
1.750906
 20
10.601559
 30
0.0
 11
1.778371
 21
10.63589
 31
0.0
  0
LINE
  5
6C
100
AcDbEntity
  8
CK_LEVEL_1
  6
CONTINUOUS
 62
     2
100
AcDbLine
 10
1.778371
 20
10.63589
 30
0.0
 11
1.812702
 21
10.670222
 31
0.0
  0
LINE
  5
6D
100
AcDbEntity
  8
CK_LEVEL_1
  6
CONTINUOUS
 62
     2
100
AcDbLine
 10
1.812702
 20
10.670222
 30
0.0
 11
1.8539
 21
10.697687
 31
0.0
  0
LINE
  5
6E
100
AcDbEntity
  8
CK_LEVEL_1
  6
CONTINUOUS
 62
     2
100
AcDbLine
 10
1.8539
 20
10.697687
 30
0.0
 11
1.901964
 21
10.704554
 31
0.0
  0
LINE
  5
6F
100
AcDbEntity
  8
CK_LEVEL_1
  6
CONTINUOUS
 62
     2
100
AcDbLine
 10
3.563607
 20
1.551783
 30
0.0
 11
3.625404
 21
1.551783
 31
0.0
  0
LINE
  5
70
100
AcDbEntity
  8
CK_LEVEL_1
  6
CONTINUOUS
 62
     2
100
AcDbLine
 10
3.625404
 20
1.551783
 30
0.0
 11
3.625404
 21
1.146671
 31
0.0
  0
LINE
  5
71
100
AcDbEntity
  8
CK_LEVEL_1
  6
CONTINUOUS
 62
     2
100
AcDbLine
 10
3.625404
 20
1.146671
 30
0.0
 11
3.330153
 21
1.146671
 31
0.0
  0
LINE
  5
72
100
AcDbEntity
  8
CK_LEVEL_1
  6
CONTINUOUS
 62
     2
100
AcDbLine
 10
3.330153
 20
1.146671
 30
0.0
 11
3.556741
 21
1.208468
 31
0.0
  0
LINE
  5
73
100
AcDbEntity
  8
CK_LEVEL_1
  6
CONTINUOUS
 62
     2
100
AcDbLine
 10
3.556741
 20
1.208468
 30
0.0
 11
3.563607
 21
1.551783
 31
0.0
  0
LINE
  5
74
100
AcDbEntity
  8
CK_LEVEL_1
  6
CONTINUOUS
 62
     2
100
AcDbLine
 10
2.149151
 20
1.647911
 30
0.0
 11
2.149151
 21
1.737172
 31
0.0
  0
LINE
  5
75
100
AcDbEntity
  8
CK_LEVEL_1
  6
CONTINUOUS
 62
     2
100
AcDbLine
 10
2.149151
 20
1.737172
 30
0.0
 11
2.382605
 21
1.730306
 31
0.0
  0
LINE
  5
76
100
AcDbEntity
  8
CK_LEVEL_1
  6
CONTINUOUS
 62
     2
100
AcDbLine
 10
2.382605
 20
1.730306
 30
0.0
 11
2.382605
 21
1.647911
 31
0.0
  0
LINE
  5
77
100
AcDbEntity
  8
CK_LEVEL_1
  6
CONTINUOUS
 62
     2
100
AcDbLine
 10
2.382605
 20
1.647911
 30
0.0
 11
2.149151
 21
1.647911
 31
0.0
  0
LINE
  5
78
100
AcDbEntity
  8
CK_LEVEL_1
  6
CONTINUOUS
 62
     2
100
AcDbLine
 10
2.149151
 20
4.936866
 30
0.0
 11
2.382605
 21
4.936866
 31
0.0
  0
LINE
  5
79
100
AcDbEntity
  8
CK_LEVEL_1
  6
CONTINUOUS
 62
     2
100
AcDbLine
 10
2.382605
 20
4.936866
 30
0.0
 11
2.382605
 21
5.032994
 31
0.0
  0
LINE
  5
7A
100
AcDbEntity
  8
CK_LEVEL_1
  6
CONTINUOUS
 62
     2
100
AcDbLine
 10
2.382605
 20
5.032994
 30
0.0
 11
2.149151
 21
5.032994
 31
0.0
  0
LINE
  5
7B
100
AcDbEntity
  8
CK_LEVEL_1
  6
CONTINUOUS
 62
     2
100
AcDbLine
 10
2.149151
 20
5.032994
 30
0.0
 11
2.149151
 21
4.936866
 31
0.0
  0
LINE
  5
7C
100
AcDbEntity
  8
CK_LEVEL_1
  6
CONTINUOUS
 62
     2
100
AcDbLine
 10
2.375738
 20
5.582297
 30
0.0
 11
2.149151
 21
5.582297
 31
0.0
  0
LINE
  5
7D
100
AcDbEntity
  8
CK_LEVEL_1
  6
CONTINUOUS
 62
     2
100
AcDbLine
 10
2.149151
 20
5.582297
 30
0.0
 11
2.149151
 21
5.493036
 31
0.0
  0
LINE
  5
7E
100
AcDbEntity
  8
CK_LEVEL_1
  6
CONTINUOUS
 62
     2
100
AcDbLine
 10
2.149151
 20
5.493036
 30
0.0
 11
2.375738
 21
5.493036
 31
0.0
  0
LINE
  5
7F
100
AcDbEntity
  8
CK_LEVEL_1
  6
CONTINUOUS
 62
     2
100
AcDbLine
 10
2.375738
 20
5.493036
 30
0.0
 11
2.375738
 21
5.582297
 31
0.0
  0
LINE
  5
80
100
AcDbEntity
  8
CK_LEVEL_1
  6
CONTINUOUS
 62
     2
100
AcDbLine
 10
2.149151
 20
10.388704
 30
0.0
 11
2.149151
 21
11.143996
 31
0.0
  0
LINE
  5
81
100
AcDbEntity
  8
CK_LEVEL_1
  6
CONTINUOUS
 62
     2
100
AcDbLine
 10
2.149151
 20
11.143996
 30
0.0
 11
2.375738
 21
9.084108
 31
0.0
  0
LINE
  5
82
100
AcDbEntity
  8
CK_LEVEL_1
  6
CONTINUOUS
 62
     2
100
AcDbLine
 10
2.375738
 20
9.084108
 30
0.0
 11
2.375738
 21
8.768258
 31
0.0
  0
LINE
  5
83
100
AcDbEntity
  8
CK_LEVEL_1
  6
CONTINUOUS
 62
     2
100
AcDbLine
 10
2.375738
 20
8.768258
 30
0.0
 11
2.149151
 21
10.388704
 31
0.0
  0
LINE
  5
84
100
AcDbEntity
  8
CK_LEVEL_1
  6
CONTINUOUS
 62
     2
100
AcDbLine
 10
2.101087
 20
10.704553
 30
0.0
 11
2.101087
 21
10.553494
 31
0.0
  0
LINE
  5
85
100
AcDbEntity
  8
CK_LEVEL_1
  6
CONTINUOUS
 62
     2
100
AcDbLine
 10
2.101087
 20
10.553495
 30
0.0
 11
2.080488
 21
10.622158
 31
0.0
  0
LINE
  5
86
100
AcDbEntity
  8
CK_LEVEL_1
  6
CONTINUOUS
 62
     2
100
AcDbLine
 10
2.080488
 20
10.622158
 30
0.0
 11
2.03929
 21
10.670222
 31
0.0
  0
LINE
  5
87
100
AcDbEntity
  8
CK_LEVEL_1
  6
CONTINUOUS
 62
     2
100
AcDbLine
 10
2.03929
 20
10.670222
 30
0.0
 11
1.970627
 21
10.697687
 31
0.0
  0
LINE
  5
88
100
AcDbEntity
  8
CK_LEVEL_1
  6
CONTINUOUS
 62
     2
100
AcDbLine
 10
1.970627
 20
10.697687
 30
0.0
 11
1.901964
 21
10.704554
 31
0.0
  0
LINE
  5
89
100
AcDbEntity
  8
CK_LEVEL_1
  6
CONTINUOUS
 62
     2
100
AcDbLine
 10
1.901964
 20
10.704553
 30
0.0
 11
1.901964
 21
10.855612
 31
0.0
  0
LINE
  5
8A
100
AcDbEntity
  8
CK_LEVEL_1
  6
CONTINUOUS
 62
     2
100
AcDbLine
 10
1.901964
 20
10.855612
 30
0.0
 11
2.101087
 21
10.704553
 31
0.0
  0
LINE
  5
8B
100
AcDbEntity
  8
CK_LEVEL_1
  6
CONTINUOUS
 62
     2
100
AcDbLine
 10
8.507339
 20
4.387562
 30
0.0
 11
6.028606
 21
4.387562
 31
0.0
  0
LINE
  5
8C
100
AcDbEntity
  8
CK_LEVEL_1
  6
CONTINUOUS
 62
     2
100
AcDbLine
 10
6.028607
 20
4.387562
 30
0.0
 11
5.994276
 21
4.37383
 31
0.0
  0
LINE
  5
8D
100
AcDbEntity
  8
CK_LEVEL_1
  6
CONTINUOUS
 62
     2
100
AcDbLine
 10
5.994276
 20
4.37383
 30
0.0
 11
5.96681
 21
4.353231
 31
0.0
  0
LINE
  5
8E
100
AcDbEntity
  8
CK_LEVEL_1
  6
CONTINUOUS
 62
     2
100
AcDbLine
 10
5.96681
 20
4.353231
 30
0.0
 11
5.932479
 21
4.291434
 31
0.0
  0
LINE
  5
8F
100
AcDbEntity
  8
CK_LEVEL_1
  6
CONTINUOUS
 62
     2
100
AcDbLine
 10
5.932479
 20
4.291434
 30
0.0
 11
5.918746
 21
4.222771
 31
0.0
  0
LINE
  5
90
100
AcDbEntity
  8
CK_LEVEL_1
  6
CONTINUOUS
 62
     2
100
AcDbLine
 10
5.918746
 20
4.222771
 30
0.0
 11
5.91188
 21
4.195306
 31
0.0
  0
LINE
  5
91
100
AcDbEntity
  8
CK_LEVEL_1
  6
CONTINUOUS
 62
     2
100
AcDbLine
 10
5.91188
 20
4.195306
 30
0.0
 11
5.91188
 21
4.181573
 31
0.0
  0
LINE
  5
92
100
AcDbEntity
  8
CK_LEVEL_1
  6
CONTINUOUS
 62
     2
100
AcDbLine
 10
5.91188
 20
4.181573
 30
0.0
 11
5.898147
 21
4.174707
 31
0.0
  0
LINE
  5
93
100
AcDbEntity
  8
CK_LEVEL_1
  6
CONTINUOUS
 62
     2
100
AcDbLine
 10
5.898147
 20
4.174707
 30
0.0
 11
5.884415
 21
4.154108
 31
0.0
  0
LINE
  5
94
100
AcDbEntity
  8
CK_LEVEL_1
  6
CONTINUOUS
 62
     2
100
AcDbLine
 10
5.884415
 20
4.154108
 30
0.0
 11
5.870682
 21
4.11291
 31
0.0
  0
LINE
  5
95
100
AcDbEntity
  8
CK_LEVEL_1
  6
CONTINUOUS
 62
     2
100
AcDbLine
 10
5.870682
 20
4.11291
 30
0.0
 11
5.870682
 21
3.639136
 31
0.0
  0
LINE
  5
96
100
AcDbEntity
  8
CK_LEVEL_1
  6
CONTINUOUS
 62
     2
100
AcDbLine
 10
5.870682
 20
3.639136
 30
0.0
 11
5.91188
 21
3.604805
 31
0.0
  0
LINE
  5
97
100
AcDbEntity
  8
CK_LEVEL_1
  6
CONTINUOUS
 62
     2
100
AcDbLine
 10
5.91188
 20
3.604805
 30
0.0
 11
5.953078
 21
3.591072
 31
0.0
  0
LINE
  5
98
100
AcDbEntity
  8
CK_LEVEL_1
  6
CONTINUOUS
 62
     2
100
AcDbLine
 10
5.953078
 20
3.591072
 30
0.0
 11
5.953078
 21
3.549874
 31
0.0
  0
LINE
  5
99
100
AcDbEntity
  8
CK_LEVEL_1
  6
CONTINUOUS
 62
     2
100
AcDbLine
 10
5.953078
 20
3.549874
 30
0.0
 11
5.959944
 21
3.50181
 31
0.0
  0
LINE
  5
9A
100
AcDbEntity
  8
CK_LEVEL_1
  6
CONTINUOUS
 62
     2
100
AcDbLine
 10
5.959944
 20
3.50181
 30
0.0
 11
5.973677
 21
3.453746
 31
0.0
  0
LINE
  5
9B
100
AcDbEntity
  8
CK_LEVEL_1
  6
CONTINUOUS
 62
     2
100
AcDbLine
 10
5.973677
 20
3.453746
 30
0.0
 11
5.994276
 21
3.419415
 31
0.0
  0
LINE
  5
9C
100
AcDbEntity
  8
CK_LEVEL_1
  6
CONTINUOUS
 62
     2
100
AcDbLine
 10
5.994276
 20
3.419415
 30
0.0
 11
5.987409
 21
3.419415
 31
0.0
  0
LINE
  5
9D
100
AcDbEntity
  8
CK_LEVEL_1
  6
CONTINUOUS
 62
     2
100
AcDbLine
 10
5.987409
 20
3.419415
 30
0.0
 11
6.049206
 21
1.084874
 31
0.0
  0
LINE
  5
9E
100
AcDbEntity
  8
CK_LEVEL_1
  6
CONTINUOUS
 62
     2
100
AcDbLine
 10
6.049206
 20
1.084874
 30
0.0
 11
6.193398
 21
1.084874
 31
0.0
  0
LINE
  5
9F
100
AcDbEntity
  8
CK_LEVEL_1
  6
CONTINUOUS
 62
     2
100
AcDbLine
 10
6.193398
 20
1.084874
 30
0.0
 11
6.234596
 21
3.584206
 31
0.0
  0
LINE
  5
A0
100
AcDbEntity
  8
CK_LEVEL_1
  6
CONTINUOUS
 62
     2
100
AcDbLine
 10
6.234596
 20
3.584206
 30
0.0
 11
6.358189
 21
3.584206
 31
0.0
  0
LINE
  5
A1
100
AcDbEntity
  8
CK_LEVEL_1
  6
CONTINUOUS
 62
     2
100
AcDbLine
 10
6.358189
 20
3.584206
 30
0.0
 11
6.33759
 21
1.084874
 31
0.0
  0
LINE
  5
A2
100
AcDbEntity
  8
CK_LEVEL_1
  6
CONTINUOUS
 62
     2
100
AcDbLine
 10
6.33759
 20
1.084874
 30
0.0
 11
6.495515
 21
1.084874
 31
0.0
  0
LINE
  5
A3
100
AcDbEntity
  8
CK_LEVEL_1
  6
CONTINUOUS
 62
     2
100
AcDbLine
 10
6.495515
 20
1.084874
 30
0.0
 11
6.550445
 21
3.584206
 31
0.0
  0
LINE
  5
A4
100
AcDbEntity
  8
CK_LEVEL_1
  6
CONTINUOUS
 62
     2
100
AcDbLine
 10
6.550445
 20
3.584206
 30
0.0
 11
8.184623
 21
3.584206
 31
0.0
  0
LINE
  5
A5
100
AcDbEntity
  8
CK_LEVEL_1
  6
CONTINUOUS
 62
     2
100
AcDbLine
 10
8.184623
 20
3.584206
 30
0.0
 11
8.315083
 21
1.084874
 31
0.0
  0
LINE
  5
A6
100
AcDbEntity
  8
CK_LEVEL_1
  6
CONTINUOUS
 62
     2
100
AcDbLine
 10
8.315083
 20
1.084874
 30
0.0
 11
8.459274
 21
1.084874
 31
0.0
  0
LINE
  5
A7
100
AcDbEntity
  8
CK_LEVEL_1
  6
CONTINUOUS
 62
     2
100
AcDbLine
 10
8.459275
 20
1.084874
 30
0.0
 11
8.397479
 21
3.591072
 31
0.0
  0
LINE
  5
A8
100
AcDbEntity
  8
CK_LEVEL_1
  6
CONTINUOUS
 62
     2
100
AcDbLine
 10
8.397479
 20
3.591072
 30
0.0
 11
8.459275
 21
3.591072
 31
0.0
  0
LINE
  5
A9
100
AcDbEntity
  8
CK_LEVEL_1
  6
CONTINUOUS
 62
     2
100
AcDbLine
 10
8.459275
 20
3.591072
 30
0.0
 11
8.56227
 21
1.084874
 31
0.0
  0
LINE
  5
AA
100
AcDbEntity
  8
CK_LEVEL_1
  6
CONTINUOUS
 62
     2
100
AcDbLine
 10
8.56227
 20
1.084874
 30
0.0
 11
8.733927
 21
1.084874
 31
0.0
  0
LINE
  5
AB
100
AcDbEntity
  8
CK_LEVEL_1
  6
CONTINUOUS
 62
     2
100
AcDbLine
 10
8.733927
 20
1.084874
 30
0.0
 11
8.733927
 21
3.419415
 31
0.0
  0
LINE
  5
AC
100
AcDbEntity
  8
CK_LEVEL_1
  6
CONTINUOUS
 62
     2
100
AcDbLine
 10
8.733927
 20
3.419415
 30
0.0
 11
8.74766
 21
3.419415
 31
0.0
  0
LINE
  5
AD
100
AcDbEntity
  8
CK_LEVEL_1
  6
CONTINUOUS
 62
     2
100
AcDbLine
 10
8.74766
 20
3.419415
 30
0.0
 11
8.761392
 21
3.453746
 31
0.0
  0
LINE
  5
AE
100
AcDbEntity
  8
CK_LEVEL_1
  6
CONTINUOUS
 62
     2
100
AcDbLine
 10
8.761392
 20
3.453746
 30
0.0
 11
8.775125
 21
3.508676
 31
0.0
  0
LINE
  5
AF
100
AcDbEntity
  8
CK_LEVEL_1
  6
CONTINUOUS
 62
     2
100
AcDbLine
 10
8.775125
 20
3.508676
 30
0.0
 11
8.781991
 21
3.591072
 31
0.0
  0
LINE
  5
B0
100
AcDbEntity
  8
CK_LEVEL_1
  6
CONTINUOUS
 62
     2
100
AcDbLine
 10
8.781991
 20
3.591072
 30
0.0
 11
8.830055
 21
3.604805
 31
0.0
  0
LINE
  5
B1
100
AcDbEntity
  8
CK_LEVEL_1
  6
CONTINUOUS
 62
     2
100
AcDbLine
 10
8.830055
 20
3.604805
 30
0.0
 11
8.85752
 21
3.639136
 31
0.0
  0
LINE
  5
B2
100
AcDbEntity
  8
CK_LEVEL_1
  6
CONTINUOUS
 62
     2
100
AcDbLine
 10
8.85752
 20
3.639136
 30
0.0
 11
8.85752
 21
4.11291
 31
0.0
  0
LINE
  5
B3
100
AcDbEntity
  8
CK_LEVEL_1
  6
CONTINUOUS
 62
     2
100
AcDbLine
 10
8.85752
 20
4.11291
 30
0.0
 11
8.843788
 21
4.154108
 31
0.0
  0
LINE
  5
B4
100
AcDbEntity
  8
CK_LEVEL_1
  6
CONTINUOUS
 62
     2
100
AcDbLine
 10
8.843788
 20
4.154108
 30
0.0
 11
8.830055
 21
4.174707
 31
0.0
  0
LINE
  5
B5
100
AcDbEntity
  8
CK_LEVEL_1
  6
CONTINUOUS
 62
     2
100
AcDbLine
 10
8.830055
 20
4.174707
 30
0.0
 11
8.816323
 21
4.181573
 31
0.0
  0
LINE
  5
B6
100
AcDbEntity
  8
CK_LEVEL_1
  6
CONTINUOUS
 62
     2
100
AcDbLine
 10
8.816323
 20
4.181573
 30
0.0
 11
8.816323
 21
4.222771
 31
0.0
  0
LINE
  5
B7
100
AcDbEntity
  8
CK_LEVEL_1
  6
CONTINUOUS
 62
     2
100
AcDbLine
 10
8.816323
 20
4.222771
 30
0.0
 11
8.80259
 21
4.291434
 31
0.0
  0
LINE
  5
B8
100
AcDbEntity
  8
CK_LEVEL_1
  6
CONTINUOUS
 62
     2
100
AcDbLine
 10
8.80259
 20
4.291434
 30
0.0
 11
8.768259
 21
4.353231
 31
0.0
  0
LINE
  5
B9
100
AcDbEntity
  8
CK_LEVEL_1
  6
CONTINUOUS
 62
     2
100
AcDbLine
 10
8.768259
 20
4.353231
 30
0.0
 11
8.740793
 21
4.37383
 31
0.0
  0
LINE
  5
BA
100
AcDbEntity
  8
CK_LEVEL_1
  6
CONTINUOUS
 62
     2
100
AcDbLine
 10
8.740793
 20
4.37383
 30
0.0
 11
8.706462
 21
4.387562
 31
0.0
  0
LINE
  5
BB
100
AcDbEntity
  8
CK_LEVEL_1
  6
CONTINUOUS
 62
     2
100
AcDbLine
 10
8.706462
 20
4.387562
 30
0.0
 11
8.500473
 21
4.387562
 31
0.0
  0
LINE
  5
BC
100
AcDbEntity
  8
CK_LEVEL_1
  6
CONTINUOUS
 62
     2
100
AcDbLine
 10
8.500473
 20
4.387562
 30
0.0
 11
8.507339
 21
4.387562
 31
0.0
  0
LINE
  5
BD
100
AcDbEntity
  8
CK_LEVEL_1
  6
CONTINUOUS
 62
     2
100
AcDbLine
 10
8.775125
 20
3.508676
 30
0.0
 11
8.781991
 21
3.591072
 31
0.0
  0
LINE
  5
BE
100
AcDbEntity
  8
CK_LEVEL_1
  6
CONTINUOUS
 62
     2
100
AcDbLine
 10
8.781991
 20
3.591072
 30
0.0
 11
8.678997
 21
3.591072
 31
0.0
  0
LINE
  5
BF
100
AcDbEntity
  8
CK_LEVEL_1
  6
CONTINUOUS
 62
     2
100
AcDbLine
 10
8.678997
 20
3.591072
 30
0.0
 11
8.775126
 21
3.508676
 31
0.0
  0
LINE
  5
C0
100
AcDbEntity
  8
CK_LEVEL_1
  6
CONTINUOUS
 62
     2
100
AcDbLine
 10
8.363147
 20
4.387562
 30
0.0
 11
8.507339
 21
4.387562
 31
0.0
  0
LINE
  5
C1
100
AcDbEntity
  8
CK_LEVEL_1
  6
CONTINUOUS
 62
     2
100
AcDbLine
 10
8.507339
 20
4.387562
 30
0.0
 11
8.569136
 21
4.360097
 31
0.0
  0
LINE
  5
C2
100
AcDbEntity
  8
CK_LEVEL_1
  6
CONTINUOUS
 62
     2
100
AcDbLine
 10
8.569136
 20
4.360097
 30
0.0
 11
8.624065
 21
4.332632
 31
0.0
  0
LINE
  5
C3
100
AcDbEntity
  8
CK_LEVEL_1
  6
CONTINUOUS
 62
     2
100
AcDbLine
 10
8.624066
 20
4.332632
 30
0.0
 11
8.672131
 21
4.2983
 31
0.0
  0
LINE
  5
C4
100
AcDbEntity
  8
CK_LEVEL_1
  6
CONTINUOUS
 62
     2
100
AcDbLine
 10
8.67213
 20
4.2983
 30
0.0
 11
8.699595
 21
4.270835
 31
0.0
  0
LINE
  5
C5
100
AcDbEntity
  8
CK_LEVEL_1
  6
CONTINUOUS
 62
     2
100
AcDbLine
 10
8.699596
 20
4.270835
 30
0.0
 11
8.074763
 21
4.270835
 31
0.0
  0
LINE
  5
C6
100
AcDbEntity
  8
CK_LEVEL_1
  6
CONTINUOUS
 62
     2
100
AcDbLine
 10
8.074763
 20
4.270835
 30
0.0
 11
8.177757
 21
4.305167
 31
0.0
  0
LINE
  5
C7
100
AcDbEntity
  8
CK_LEVEL_1
  6
CONTINUOUS
 62
     2
100
AcDbLine
 10
8.177757
 20
4.305167
 30
0.0
 11
8.225821
 21
4.312033
 31
0.0
  0
LINE
  5
C8
100
AcDbEntity
  8
CK_LEVEL_1
  6
CONTINUOUS
 62
     2
100
AcDbLine
 10
8.225821
 20
4.312033
 30
0.0
 11
8.280751
 21
4.325765
 31
0.0
  0
LINE
  5
C9
100
AcDbEntity
  8
CK_LEVEL_1
  6
CONTINUOUS
 62
     2
100
AcDbLine
 10
8.280752
 20
4.325765
 30
0.0
 11
8.315084
 21
4.339498
 31
0.0
  0
LINE
  5
CA
100
AcDbEntity
  8
CK_LEVEL_1
  6
CONTINUOUS
 62
     2
100
AcDbLine
 10
8.315083
 20
4.339498
 30
0.0
 11
8.342547
 21
4.360097
 31
0.0
  0
LINE
  5
CB
100
AcDbEntity
  8
CK_LEVEL_1
  6
CONTINUOUS
 62
     2
100
AcDbLine
 10
8.342548
 20
4.360097
 30
0.0
 11
8.363148
 21
4.387562
 31
0.0
  0
LINE
  5
CC
100
AcDbEntity
  8
CK_LEVEL_1
  6
CONTINUOUS
 62
     2
100
AcDbLine
 10
7.298872
 20
5.609763
 30
0.0
 11
7.333203
 21
5.609763
 31
0.0
  0
LINE
  5
CD
100
AcDbEntity
  8
CK_LEVEL_1
  6
CONTINUOUS
 62
     2
100
AcDbLine
 10
7.333203
 20
5.609763
 30
0.0
 11
7.374401
 21
5.602896
 31
0.0
  0
LINE
  5
CE
100
AcDbEntity
  8
CK_LEVEL_1
  6
CONTINUOUS
 62
     2
100
AcDbLine
 10
7.374401
 20
5.602896
 30
0.0
 11
7.456796
 21
5.602896
 31
0.0
  0
LINE
  5
CF
100
AcDbEntity
  8
CK_LEVEL_1
  6
CONTINUOUS
 62
     2
100
AcDbLine
 10
7.456796
 20
5.602896
 30
0.0
 11
7.532326
 21
5.582297
 31
0.0
  0
LINE
  5
D0
100
AcDbEntity
  8
CK_LEVEL_1
  6
CONTINUOUS
 62
     2
100
AcDbLine
 10
7.532326
 20
5.582297
 30
0.0
 11
7.669651
 21
5.527367
 31
0.0
  0
LINE
  5
D1
100
AcDbEntity
  8
CK_LEVEL_1
  6
CONTINUOUS
 62
     2
100
AcDbLine
 10
7.669651
 20
5.527367
 30
0.0
 11
7.772646
 21
5.46557
 31
0.0
  0
LINE
  5
D2
100
AcDbEntity
  8
CK_LEVEL_1
  6
CONTINUOUS
 62
     2
100
AcDbLine
 10
7.772646
 20
5.46557
 30
0.0
 11
7.806977
 21
5.431239
 31
0.0
  0
LINE
  5
D3
100
AcDbEntity
  8
CK_LEVEL_1
  6
CONTINUOUS
 62
     2
100
AcDbLine
 10
7.806977
 20
5.431239
 30
0.0
 11
7.834442
 21
5.41064
 31
0.0
  0
LINE
  5
D4
100
AcDbEntity
  8
CK_LEVEL_1
  6
CONTINUOUS
 62
     2
100
AcDbLine
 10
7.834442
 20
5.41064
 30
0.0
 11
7.889373
 21
5.383175
 31
0.0
  0
LINE
  5
D5
100
AcDbEntity
  8
CK_LEVEL_1
  6
CONTINUOUS
 62
     2
100
AcDbLine
 10
7.889373
 20
5.383175
 30
0.0
 11
7.958036
 21
5.369442
 31
0.0
  0
LINE
  5
D6
100
AcDbEntity
  8
CK_LEVEL_1
  6
CONTINUOUS
 62
     2
100
AcDbLine
 10
7.958036
 20
5.369442
 30
0.0
 11
8.033565
 21
5.369442
 31
0.0
  0
LINE
  5
D7
100
AcDbEntity
  8
CK_LEVEL_1
  6
CONTINUOUS
 62
     2
100
AcDbLine
 10
8.033565
 20
5.369442
 30
0.0
 11
8.122827
 21
5.383175
 31
0.0
  0
LINE
  5
D8
100
AcDbEntity
  8
CK_LEVEL_1
  6
CONTINUOUS
 62
     2
100
AcDbLine
 10
8.122827
 20
5.383175
 30
0.0
 11
8.170891
 21
5.396907
 31
0.0
  0
LINE
  5
D9
100
AcDbEntity
  8
CK_LEVEL_1
  6
CONTINUOUS
 62
     2
100
AcDbLine
 10
8.170891
 20
5.396907
 30
0.0
 11
8.218955
 21
5.417506
 31
0.0
  0
LINE
  5
DA
100
AcDbEntity
  8
CK_LEVEL_1
  6
CONTINUOUS
 62
     2
100
AcDbLine
 10
8.218955
 20
5.417506
 30
0.0
 11
8.301351
 21
5.479303
 31
0.0
  0
LINE
  5
DB
100
AcDbEntity
  8
CK_LEVEL_1
  6
CONTINUOUS
 62
     2
100
AcDbLine
 10
8.301351
 20
5.479303
 30
0.0
 11
8.342547
 21
5.520501
 31
0.0
  0
LINE
  5
DC
100
AcDbEntity
  8
CK_LEVEL_1
  6
CONTINUOUS
 62
     2
100
AcDbLine
 10
8.342548
 20
5.520501
 30
0.0
 11
8.383746
 21
5.568565
 31
0.0
  0
LINE
  5
DD
100
AcDbEntity
  8
CK_LEVEL_1
  6
CONTINUOUS
 62
     2
100
AcDbLine
 10
8.383746
 20
5.568565
 30
0.0
 11
8.397479
 21
5.609763
 31
0.0
  0
LINE
  5
DE
100
AcDbEntity
  8
CK_LEVEL_1
  6
CONTINUOUS
 62
     2
100
AcDbLine
 10
8.397479
 20
5.609763
 30
0.0
 11
8.411211
 21
5.657827
 31
0.0
  0
LINE
  5
DF
100
AcDbEntity
  8
CK_LEVEL_1
  6
CONTINUOUS
 62
     2
100
AcDbLine
 10
8.411211
 20
5.657827
 30
0.0
 11
8.424944
 21
5.774554
 31
0.0
  0
LINE
  5
E0
100
AcDbEntity
  8
CK_LEVEL_1
  6
CONTINUOUS
 62
     2
100
AcDbLine
 10
8.424944
 20
5.774554
 30
0.0
 11
8.424944
 21
5.925612
 31
0.0
  0
LINE
  5
E1
100
AcDbEntity
  8
CK_LEVEL_1
  6
CONTINUOUS
 62
     2
100
AcDbLine
 10
8.424944
 20
5.925612
 30
0.0
 11
8.418077
 21
5.946211
 31
0.0
  0
LINE
  5
E2
100
AcDbEntity
  8
CK_LEVEL_1
  6
CONTINUOUS
 62
     2
100
AcDbLine
 10
8.418078
 20
5.946211
 30
0.0
 11
8.363148
 21
6.001141
 31
0.0
  0
LINE
  5
E3
100
AcDbEntity
  8
CK_LEVEL_1
  6
CONTINUOUS
 62
     2
100
AcDbLine
 10
8.363147
 20
6.001141
 30
0.0
 11
8.321949
 21
6.02174
 31
0.0
  0
LINE
  5
E4
100
AcDbEntity
  8
CK_LEVEL_1
  6
CONTINUOUS
 62
     2
100
AcDbLine
 10
8.321949
 20
6.02174
 30
0.0
 11
8.280752
 21
6.035473
 31
0.0
  0
LINE
  5
E5
100
AcDbEntity
  8
CK_LEVEL_1
  6
CONTINUOUS
 62
     2
100
AcDbLine
 10
8.280752
 20
6.035473
 30
0.0
 11
8.315084
 21
6.069804
 31
0.0
  0
LINE
  5
E6
100
AcDbEntity
  8
CK_LEVEL_1
  6
CONTINUOUS
 62
     2
100
AcDbLine
 10
8.315083
 20
6.069804
 30
0.0
 11
8.35628
 21
6.124735
 31
0.0
  0
LINE
  5
E7
100
AcDbEntity
  8
CK_LEVEL_1
  6
CONTINUOUS
 62
     2
100
AcDbLine
 10
8.356281
 20
6.124735
 30
0.0
 11
8.356281
 21
6.165932
 31
0.0
  0
LINE
  5
E8
100
AcDbEntity
  8
CK_LEVEL_1
  6
CONTINUOUS
 62
     2
100
AcDbLine
 10
8.356281
 20
6.165932
 30
0.0
 11
8.349415
 21
6.20713
 31
0.0
  0
LINE
  5
E9
100
AcDbEntity
  8
CK_LEVEL_1
  6
CONTINUOUS
 62
     2
100
AcDbLine
 10
8.349415
 20
6.20713
 30
0.0
 11
8.335682
 21
6.262061
 31
0.0
  0
LINE
  5
EA
100
AcDbEntity
  8
CK_LEVEL_1
  6
CONTINUOUS
 62
     2
100
AcDbLine
 10
8.335682
 20
6.262061
 30
0.0
 11
8.308217
 21
6.385654
 31
0.0
  0
LINE
  5
EB
100
AcDbEntity
  8
CK_LEVEL_1
  6
CONTINUOUS
 62
     2
100
AcDbLine
 10
8.308217
 20
6.385654
 30
0.0
 11
8.267019
 21
6.52298
 31
0.0
  0
LINE
  5
EC
100
AcDbEntity
  8
CK_LEVEL_1
  6
CONTINUOUS
 62
     2
100
AcDbLine
 10
8.267019
 20
6.52298
 30
0.0
 11
8.225821
 21
6.667172
 31
0.0
  0
LINE
  5
ED
100
AcDbEntity
  8
CK_LEVEL_1
  6
CONTINUOUS
 62
     2
100
AcDbLine
 10
8.225821
 20
6.667172
 30
0.0
 11
8.184623
 21
6.797631
 31
0.0
  0
LINE
  5
EE
100
AcDbEntity
  8
CK_LEVEL_1
  6
CONTINUOUS
 62
     2
100
AcDbLine
 10
8.184623
 20
6.797631
 30
0.0
 11
8.157158
 21
6.900626
 31
0.0
  0
LINE
  5
EF
100
AcDbEntity
  8
CK_LEVEL_1
  6
CONTINUOUS
 62
     2
100
AcDbLine
 10
8.157158
 20
6.900626
 30
0.0
 11
8.143426
 21
6.934957
 31
0.0
  0
LINE
  5
F0
100
AcDbEntity
  8
CK_LEVEL_1
  6
CONTINUOUS
 62
     2
100
AcDbLine
 10
8.143426
 20
6.934957
 30
0.0
 11
8.136559
 21
6.955556
 31
0.0
  0
LINE
  5
F1
100
AcDbEntity
  8
CK_LEVEL_1
  6
CONTINUOUS
 62
     2
100
AcDbLine
 10
8.136559
 20
6.955556
 30
0.0
 11
8.109094
 21
7.031086
 31
0.0
  0
LINE
  5
F2
100
AcDbEntity
  8
CK_LEVEL_1
  6
CONTINUOUS
 62
     2
100
AcDbLine
 10
8.109094
 20
7.031086
 30
0.0
 11
8.088494
 21
7.127214
 31
0.0
  0
LINE
  5
F3
100
AcDbEntity
  8
CK_LEVEL_1
  6
CONTINUOUS
 62
     2
100
AcDbLine
 10
8.088495
 20
7.127214
 30
0.0
 11
8.06103
 21
7.312604
 31
0.0
  0
LINE
  5
F4
100
AcDbEntity
  8
CK_LEVEL_1
  6
CONTINUOUS
 62
     2
100
AcDbLine
 10
8.06103
 20
7.312604
 30
0.0
 11
8.040431
 21
7.394999
 31
0.0
  0
LINE
  5
F5
100
AcDbEntity
  8
CK_LEVEL_1
  6
CONTINUOUS
 62
     2
100
AcDbLine
 10
8.040431
 20
7.394999
 30
0.0
 11
8.012966
 21
7.484261
 31
0.0
  0
LINE
  5
F6
100
AcDbEntity
  8
CK_LEVEL_1
  6
CONTINUOUS
 62
     2
100
AcDbLine
 10
8.012966
 20
7.484261
 30
0.0
 11
7.964902
 21
7.580389
 31
0.0
  0
LINE
  5
F7
100
AcDbEntity
  8
CK_LEVEL_1
  6
CONTINUOUS
 62
     2
100
AcDbLine
 10
7.964902
 20
7.580389
 30
0.0
 11
7.903105
 21
7.676517
 31
0.0
  0
LINE
  5
F8
100
AcDbEntity
  8
CK_LEVEL_1
  6
CONTINUOUS
 62
     2
100
AcDbLine
 10
7.903105
 20
7.676517
 30
0.0
 11
7.861908
 21
7.724581
 31
0.0
  0
LINE
  5
F9
100
AcDbEntity
  8
CK_LEVEL_1
  6
CONTINUOUS
 62
     2
100
AcDbLine
 10
7.861908
 20
7.724581
 30
0.0
 11
7.806977
 21
7.765779
 31
0.0
  0
LINE
  5
FA
100
AcDbEntity
  8
CK_LEVEL_1
  6
CONTINUOUS
 62
     2
100
AcDbLine
 10
7.806977
 20
7.765779
 30
0.0
 11
7.676518
 21
7.841308
 31
0.0
  0
LINE
  5
FB
100
AcDbEntity
  8
CK_LEVEL_1
  6
CONTINUOUS
 62
     2
100
AcDbLine
 10
7.676518
 20
7.841308
 30
0.0
 11
7.50486
 21
7.916838
 31
0.0
  0
LINE
  5
FC
100
AcDbEntity
  8
CK_LEVEL_1
  6
CONTINUOUS
 62
     2
100
AcDbLine
 10
7.50486
 20
7.916838
 30
0.0
 11
7.470529
 21
7.93057
 31
0.0
  0
LINE
  5
FD
100
AcDbEntity
  8
CK_LEVEL_1
  6
CONTINUOUS
 62
     2
100
AcDbLine
 10
7.470529
 20
7.93057
 30
0.0
 11
7.443064
 21
7.937436
 31
0.0
  0
LINE
  5
FE
100
AcDbEntity
  8
CK_LEVEL_1
  6
CONTINUOUS
 62
     2
100
AcDbLine
 10
7.443064
 20
7.937436
 30
0.0
 11
7.401866
 21
7.951169
 31
0.0
  0
LINE
  5
FF
100
AcDbEntity
  8
CK_LEVEL_1
  6
CONTINUOUS
 62
     2
100
AcDbLine
 10
7.401866
 20
7.951169
 30
0.0
 11
7.298872
 21
7.978634
 31
0.0
  0
LINE
  5
100
100
AcDbEntity
  8
CK_LEVEL_1
  6
CONTINUOUS
 62
     2
100
AcDbLine
 10
7.298872
 20
7.978634
 30
0.0
 11
7.202743
 21
8.006099
 31
0.0
  0
LINE
  5
101
100
AcDbEntity
  8
CK_LEVEL_1
  6
CONTINUOUS
 62
     2
100
AcDbLine
 10
7.202743
 20
8.006099
 30
0.0
 11
7.168412
 21
8.012966
 31
0.0
  0
LINE
  5
102
100
AcDbEntity
  8
CK_LEVEL_1
  6
CONTINUOUS
 62
     2
100
AcDbLine
 10
7.168412
 20
8.012966
 30
0.0
 11
7.140947
 21
8.012966
 31
0.0
  0
LINE
  5
103
100
AcDbEntity
  8
CK_LEVEL_1
  6
CONTINUOUS
 62
     2
100
AcDbLine
 10
7.140947
 20
8.012966
 30
0.0
 11
7.099749
 21
8.033566
 31
0.0
  0
LINE
  5
104
100
AcDbEntity
  8
CK_LEVEL_1
  6
CONTINUOUS
 62
     2
100
AcDbLine
 10
7.099749
 20
8.033565
 30
0.0
 11
7.051685
 21
8.081629
 31
0.0
  0
LINE
  5
105
100
AcDbEntity
  8
CK_LEVEL_1
  6
CONTINUOUS
 62
     2
100
AcDbLine
 10
7.051685
 20
8.081629
 30
0.0
 11
7.010487
 21
8.129693
 31
0.0
  0
LINE
  5
106
100
AcDbEntity
  8
CK_LEVEL_1
  6
CONTINUOUS
 62
     2
100
AcDbLine
 10
7.010487
 20
8.129693
 30
0.0
 11
6.996755
 21
8.157158
 31
0.0
  0
LINE
  5
107
100
AcDbEntity
  8
CK_LEVEL_1
  6
CONTINUOUS
 62
     2
100
AcDbLine
 10
6.996755
 20
8.157158
 30
0.0
 11
6.983022
 21
8.17089
 31
0.0
  0
LINE
  5
108
100
AcDbEntity
  8
CK_LEVEL_1
  6
CONTINUOUS
 62
     2
100
AcDbLine
 10
6.983022
 20
8.17089
 30
0.0
 11
6.962423
 21
8.164023
 31
0.0
  0
LINE
  5
109
100
AcDbEntity
  8
CK_LEVEL_1
  6
CONTINUOUS
 62
     2
100
AcDbLine
 10
6.962423
 20
8.164024
 30
0.0
 11
6.928092
 21
8.150292
 31
0.0
  0
LINE
  5
10A
100
AcDbEntity
  8
CK_LEVEL_1
  6
CONTINUOUS
 62
     2
100
AcDbLine
 10
6.928092
 20
8.150292
 30
0.0
 11
6.852562
 21
8.109095
 31
0.0
  0
LINE
  5
10B
100
AcDbEntity
  8
CK_LEVEL_1
  6
CONTINUOUS
 62
     2
100
AcDbLine
 10
6.852562
 20
8.109094
 30
0.0
 11
6.831963
 21
8.095361
 31
0.0
  0
LINE
  5
10C
100
AcDbEntity
  8
CK_LEVEL_1
  6
CONTINUOUS
 62
     2
100
AcDbLine
 10
6.831963
 20
8.095361
 30
0.0
 11
6.797632
 21
8.061029
 31
0.0
  0
LINE
  5
10D
100
AcDbEntity
  8
CK_LEVEL_1
  6
CONTINUOUS
 62
     2
100
AcDbLine
 10
6.797632
 20
8.06103
 30
0.0
 11
6.722103
 21
7.978634
 31
0.0
  0
LINE
  5
10E
100
AcDbEntity
  8
CK_LEVEL_1
  6
CONTINUOUS
 62
     2
100
AcDbLine
 10
6.722103
 20
7.978634
 30
0.0
 11
6.646574
 21
7.87564
 31
0.0
  0
LINE
  5
10F
100
AcDbEntity
  8
CK_LEVEL_1
  6
CONTINUOUS
 62
     2
100
AcDbLine
 10
6.646574
 20
7.87564
 30
0.0
 11
6.612242
 21
7.834442
 31
0.0
  0
LINE
  5
110
100
AcDbEntity
  8
CK_LEVEL_1
  6
CONTINUOUS
 62
     2
100
AcDbLine
 10
6.612242
 20
7.834442
 30
0.0
 11
6.591643
 21
7.793244
 31
0.0
  0
LINE
  5
111
100
AcDbEntity
  8
CK_LEVEL_1
  6
CONTINUOUS
 62
     2
100
AcDbLine
 10
6.591643
 20
7.793244
 30
0.0
 11
6.577911
 21
7.779512
 31
0.0
  0
LINE
  5
112
100
AcDbEntity
  8
CK_LEVEL_1
  6
CONTINUOUS
 62
     2
100
AcDbLine
 10
6.577911
 20
7.779512
 30
0.0
 11
6.543579
 21
7.758913
 31
0.0
  0
LINE
  5
113
100
AcDbEntity
  8
CK_LEVEL_1
  6
CONTINUOUS
 62
     2
100
AcDbLine
 10
6.543579
 20
7.758913
 30
0.0
 11
6.46805
 21
7.697116
 31
0.0
  0
LINE
  5
114
100
AcDbEntity
  8
CK_LEVEL_1
  6
CONTINUOUS
 62
     2
100
AcDbLine
 10
6.46805
 20
7.697116
 30
0.0
 11
6.392521
 21
7.628453
 31
0.0
  0
LINE
  5
115
100
AcDbEntity
  8
CK_LEVEL_1
  6
CONTINUOUS
 62
     2
100
AcDbLine
 10
6.392521
 20
7.628453
 30
0.0
 11
6.358189
 21
7.594122
 31
0.0
  0
LINE
  5
116
100
AcDbEntity
  8
CK_LEVEL_1
  6
CONTINUOUS
 62
     2
100
AcDbLine
 10
6.358189
 20
7.594122
 30
0.0
 11
6.33759
 21
7.566656
 31
0.0
  0
LINE
  5
117
100
AcDbEntity
  8
CK_LEVEL_1
  6
CONTINUOUS
 62
     2
100
AcDbLine
 10
6.33759
 20
7.566656
 30
0.0
 11
6.310125
 21
7.566656
 31
0.0
  0
LINE
  5
118
100
AcDbEntity
  8
CK_LEVEL_1
  6
CONTINUOUS
 62
     2
100
AcDbLine
 10
6.310125
 20
7.566656
 30
0.0
 11
6.268927
 21
7.525459
 31
0.0
  0
LINE
  5
119
100
AcDbEntity
  8
CK_LEVEL_1
  6
CONTINUOUS
 62
     2
100
AcDbLine
 10
6.268927
 20
7.525459
 30
0.0
 11
6.220863
 21
7.463662
 31
0.0
  0
LINE
  5
11A
100
AcDbEntity
  8
CK_LEVEL_1
  6
CONTINUOUS
 62
     2
100
AcDbLine
 10
6.220863
 20
7.463662
 30
0.0
 11
6.186532
 21
7.408732
 31
0.0
  0
LINE
  5
11B
100
AcDbEntity
  8
CK_LEVEL_1
  6
CONTINUOUS
 62
     2
100
AcDbLine
 10
6.186532
 20
7.408732
 30
0.0
 11
6.179666
 21
7.388133
 31
0.0
  0
LINE
  5
11C
100
AcDbEntity
  8
CK_LEVEL_1
  6
CONTINUOUS
 62
     2
100
AcDbLine
 10
6.179666
 20
7.388133
 30
0.0
 11
6.172799
 21
7.3744
 31
0.0
  0
LINE
  5
11D
100
AcDbEntity
  8
CK_LEVEL_1
  6
CONTINUOUS
 62
     2
100
AcDbLine
 10
6.172799
 20
7.3744
 30
0.0
 11
6.1522
 21
7.346935
 31
0.0
  0
LINE
  5
11E
100
AcDbEntity
  8
CK_LEVEL_1
  6
CONTINUOUS
 62
     2
100
AcDbLine
 10
6.1522
 20
7.346935
 30
0.0
 11
6.111003
 21
7.305737
 31
0.0
  0
LINE
  5
11F
100
AcDbEntity
  8
CK_LEVEL_1
  6
CONTINUOUS
 62
     2
100
AcDbLine
 10
6.111003
 20
7.305737
 30
0.0
 11
6.062938
 21
7.26454
 31
0.0
  0
LINE
  5
120
100
AcDbEntity
  8
CK_LEVEL_1
  6
CONTINUOUS
 62
     2
100
AcDbLine
 10
6.062938
 20
7.26454
 30
0.0
 11
6.04234
 21
7.237074
 31
0.0
  0
LINE
  5
121
100
AcDbEntity
  8
CK_LEVEL_1
  6
CONTINUOUS
 62
     2
100
AcDbLine
 10
6.04234
 20
7.237074
 30
0.0
 11
5.987409
 21
7.182144
 31
0.0
  0
LINE
  5
122
100
AcDbEntity
  8
CK_LEVEL_1
  6
CONTINUOUS
 62
     2
100
AcDbLine
 10
5.987409
 20
7.182144
 30
0.0
 11
5.953078
 21
7.154679
 31
0.0
  0
LINE
  5
123
100
AcDbEntity
  8
CK_LEVEL_1
  6
CONTINUOUS
 62
     2
100
AcDbLine
 10
5.953078
 20
7.154679
 30
0.0
 11
5.932479
 21
7.13408
 31
0.0
  0
LINE
  5
124
100
AcDbEntity
  8
CK_LEVEL_1
  6
CONTINUOUS
 62
     2
100
AcDbLine
 10
5.932479
 20
7.13408
 30
0.0
 11
5.898147
 21
7.120347
 31
0.0
  0
LINE
  5
125
100
AcDbEntity
  8
CK_LEVEL_1
  6
CONTINUOUS
 62
     2
100
AcDbLine
 10
5.898147
 20
7.120347
 30
0.0
 11
5.836351
 21
7.113481
 31
0.0
  0
LINE
  5
126
100
AcDbEntity
  8
CK_LEVEL_1
  6
CONTINUOUS
 62
     2
100
AcDbLine
 10
5.836351
 20
7.113481
 30
0.0
 11
5.78142
 21
7.099748
 31
0.0
  0
LINE
  5
127
100
AcDbEntity
  8
CK_LEVEL_1
  6
CONTINUOUS
 62
     2
100
AcDbLine
 10
5.78142
 20
7.099748
 30
0.0
 11
5.747089
 21
7.099748
 31
0.0
  0
LINE
  5
128
100
AcDbEntity
  8
CK_LEVEL_1
  6
CONTINUOUS
 62
     2
100
AcDbLine
 10
5.747089
 20
7.099748
 30
0.0
 11
5.589164
 21
7.010487
 31
0.0
  0
LINE
  5
129
100
AcDbEntity
  8
CK_LEVEL_1
  6
CONTINUOUS
 62
     2
100
AcDbLine
 10
5.589164
 20
7.010487
 30
0.0
 11
5.554833
 21
7.010487
 31
0.0
  0
LINE
  5
12A
100
AcDbEntity
  8
CK_LEVEL_1
  6
CONTINUOUS
 62
     2
100
AcDbLine
 10
5.554833
 20
7.010487
 30
0.0
 11
5.499902
 21
7.017353
 31
0.0
  0
LINE
  5
12B
100
AcDbEntity
  8
CK_LEVEL_1
  6
CONTINUOUS
 62
     2
100
AcDbLine
 10
5.499902
 20
7.017353
 30
0.0
 11
5.465571
 21
6.996754
 31
0.0
  0
LINE
  5
12C
100
AcDbEntity
  8
CK_LEVEL_1
  6
CONTINUOUS
 62
     2
100
AcDbLine
 10
5.465571
 20
6.996754
 30
0.0
 11
5.424373
 21
6.962423
 31
0.0
  0
LINE
  5
12D
100
AcDbEntity
  8
CK_LEVEL_1
  6
CONTINUOUS
 62
     2
100
AcDbLine
 10
5.424373
 20
6.962423
 30
0.0
 11
5.403774
 21
6.983021
 31
0.0
  0
LINE
  5
12E
100
AcDbEntity
  8
CK_LEVEL_1
  6
CONTINUOUS
 62
     2
100
AcDbLine
 10
5.403774
 20
6.983021
 30
0.0
 11
5.362576
 21
6.996754
 31
0.0
  0
LINE
  5
12F
100
AcDbEntity
  8
CK_LEVEL_1
  6
CONTINUOUS
 62
     2
100
AcDbLine
 10
5.362576
 20
6.996754
 30
0.0
 11
5.307646
 21
6.996754
 31
0.0
  0
LINE
  5
130
100
AcDbEntity
  8
CK_LEVEL_1
  6
CONTINUOUS
 62
     2
100
AcDbLine
 10
5.307646
 20
6.996754
 30
0.0
 11
5.273315
 21
6.989888
 31
0.0
  0
LINE
  5
131
100
AcDbEntity
  8
CK_LEVEL_1
  6
CONTINUOUS
 62
     2
100
AcDbLine
 10
5.273315
 20
6.989888
 30
0.0
 11
5.225251
 21
7.00362
 31
0.0
  0
LINE
  5
132
100
AcDbEntity
  8
CK_LEVEL_1
  6
CONTINUOUS
 62
     2
100
AcDbLine
 10
5.225251
 20
7.00362
 30
0.0
 11
5.149721
 21
7.010487
 31
0.0
  0
LINE
  5
133
100
AcDbEntity
  8
CK_LEVEL_1
  6
CONTINUOUS
 62
     2
100
AcDbLine
 10
5.149721
 20
7.010487
 30
0.0
 11
5.081058
 21
7.024219
 31
0.0
  0
LINE
  5
134
100
AcDbEntity
  8
CK_LEVEL_1
  6
CONTINUOUS
 62
     2
100
AcDbLine
 10
5.081058
 20
7.024219
 30
0.0
 11
5.026128
 21
7.031086
 31
0.0
  0
LINE
  5
135
100
AcDbEntity
  8
CK_LEVEL_1
  6
CONTINUOUS
 62
     2
100
AcDbLine
 10
5.026128
 20
7.031086
 30
0.0
 11
5.026128
 21
6.962423
 31
0.0
  0
LINE
  5
136
100
AcDbEntity
  8
CK_LEVEL_1
  6
CONTINUOUS
 62
     2
100
AcDbLine
 10
5.026128
 20
6.962423
 30
0.0
 11
5.012395
 21
6.811364
 31
0.0
  0
LINE
  5
137
100
AcDbEntity
  8
CK_LEVEL_1
  6
CONTINUOUS
 62
     2
100
AcDbLine
 10
5.012395
 20
6.811364
 30
0.0
 11
4.98493
 21
6.619108
 31
0.0
  0
LINE
  5
138
100
AcDbEntity
  8
CK_LEVEL_1
  6
CONTINUOUS
 62
     2
100
AcDbLine
 10
4.98493
 20
6.619108
 30
0.0
 11
4.964331
 21
6.543579
 31
0.0
  0
LINE
  5
139
100
AcDbEntity
  8
CK_LEVEL_1
  6
CONTINUOUS
 62
     2
100
AcDbLine
 10
4.964331
 20
6.543579
 30
0.0
 11
4.950599
 21
6.488648
 31
0.0
  0
LINE
  5
13A
100
AcDbEntity
  8
CK_LEVEL_1
  6
CONTINUOUS
 62
     2
100
AcDbLine
 10
4.950599
 20
6.488648
 30
0.0
 11
4.916267
 21
6.433718
 31
0.0
  0
LINE
  5
13B
100
AcDbEntity
  8
CK_LEVEL_1
  6
CONTINUOUS
 62
     2
100
AcDbLine
 10
4.916267
 20
6.433718
 30
0.0
 11
4.888802
 21
6.39252
 31
0.0
  0
LINE
  5
13C
100
AcDbEntity
  8
CK_LEVEL_1
  6
CONTINUOUS
 62
     2
100
AcDbLine
 10
4.888802
 20
6.39252
 30
0.0
 11
4.854471
 21
6.365055
 31
0.0
  0
LINE
  5
13D
100
AcDbEntity
  8
CK_LEVEL_1
  6
CONTINUOUS
 62
     2
100
AcDbLine
 10
4.854471
 20
6.365055
 30
0.0
 11
4.820139
 21
6.351322
 31
0.0
  0
LINE
  5
13E
100
AcDbEntity
  8
CK_LEVEL_1
  6
CONTINUOUS
 62
     2
100
AcDbLine
 10
4.820139
 20
6.351322
 30
0.0
 11
4.806407
 21
6.351322
 31
0.0
  0
LINE
  5
13F
100
AcDbEntity
  8
CK_LEVEL_1
  6
CONTINUOUS
 62
     2
100
AcDbLine
 10
4.806407
 20
6.351322
 30
0.0
 11
4.778941
 21
6.365055
 31
0.0
  0
LINE
  5
140
100
AcDbEntity
  8
CK_LEVEL_1
  6
CONTINUOUS
 62
     2
100
AcDbLine
 10
4.778941
 20
6.365055
 30
0.0
 11
4.703412
 21
6.399386
 31
0.0
  0
LINE
  5
141
100
AcDbEntity
  8
CK_LEVEL_1
  6
CONTINUOUS
 62
     2
100
AcDbLine
 10
4.703412
 20
6.399386
 30
0.0
 11
4.710278
 21
6.33759
 31
0.0
  0
LINE
  5
142
100
AcDbEntity
  8
CK_LEVEL_1
  6
CONTINUOUS
 62
     2
100
AcDbLine
 10
4.710278
 20
6.33759
 30
0.0
 11
4.717145
 21
6.303258
 31
0.0
  0
LINE
  5
143
100
AcDbEntity
  8
CK_LEVEL_1
  6
CONTINUOUS
 62
     2
100
AcDbLine
 10
4.717145
 20
6.303258
 30
0.0
 11
4.737744
 21
6.275793
 31
0.0
  0
LINE
  5
144
100
AcDbEntity
  8
CK_LEVEL_1
  6
CONTINUOUS
 62
     2
100
AcDbLine
 10
4.737744
 20
6.275793
 30
0.0
 11
4.74461
 21
6.20713
 31
0.0
  0
LINE
  5
145
100
AcDbEntity
  8
CK_LEVEL_1
  6
CONTINUOUS
 62
     2
100
AcDbLine
 10
4.74461
 20
6.20713
 30
0.0
 11
4.765209
 21
6.145334
 31
0.0
  0
LINE
  5
146
100
AcDbEntity
  8
CK_LEVEL_1
  6
CONTINUOUS
 62
     2
100
AcDbLine
 10
4.765209
 20
6.145334
 30
0.0
 11
4.792674
 21
6.097269
 31
0.0
  0
LINE
  5
147
100
AcDbEntity
  8
CK_LEVEL_1
  6
CONTINUOUS
 62
     2
100
AcDbLine
 10
4.792674
 20
6.097269
 30
0.0
 11
4.820139
 21
6.062938
 31
0.0
  0
LINE
  5
148
100
AcDbEntity
  8
CK_LEVEL_1
  6
CONTINUOUS
 62
     2
100
AcDbLine
 10
4.820139
 20
6.062938
 30
0.0
 11
4.868203
 21
6.035473
 31
0.0
  0
LINE
  5
149
100
AcDbEntity
  8
CK_LEVEL_1
  6
CONTINUOUS
 62
     2
100
AcDbLine
 10
4.868203
 20
6.035473
 30
0.0
 11
4.943732
 21
6.02174
 31
0.0
  0
LINE
  5
14A
100
AcDbEntity
  8
CK_LEVEL_1
  6
CONTINUOUS
 62
     2
100
AcDbLine
 10
4.943732
 20
6.02174
 30
0.0
 11
5.012395
 21
6.008008
 31
0.0
  0
LINE
  5
14B
100
AcDbEntity
  8
CK_LEVEL_1
  6
CONTINUOUS
 62
     2
100
AcDbLine
 10
5.012395
 20
6.008008
 30
0.0
 11
5.039861
 21
6.001141
 31
0.0
  0
LINE
  5
14C
100
AcDbEntity
  8
CK_LEVEL_1
  6
CONTINUOUS
 62
     2
100
AcDbLine
 10
5.039861
 20
6.001141
 30
0.0
 11
5.087925
 21
6.001141
 31
0.0
  0
LINE
  5
14D
100
AcDbEntity
  8
CK_LEVEL_1
  6
CONTINUOUS
 62
     2
100
AcDbLine
 10
5.087925
 20
6.001141
 30
0.0
 11
5.129122
 21
6.008008
 31
0.0
  0
LINE
  5
14E
100
AcDbEntity
  8
CK_LEVEL_1
  6
CONTINUOUS
 62
     2
100
AcDbLine
 10
5.129122
 20
6.008008
 30
0.0
 11
5.218384
 21
6.035473
 31
0.0
  0
LINE
  5
14F
100
AcDbEntity
  8
CK_LEVEL_1
  6
CONTINUOUS
 62
     2
100
AcDbLine
 10
5.218384
 20
6.035473
 30
0.0
 11
5.252716
 21
6.02174
 31
0.0
  0
LINE
  5
150
100
AcDbEntity
  8
CK_LEVEL_1
  6
CONTINUOUS
 62
     2
100
AcDbLine
 10
5.252716
 20
6.02174
 30
0.0
 11
5.30078
 21
6.008008
 31
0.0
  0
LINE
  5
151
100
AcDbEntity
  8
CK_LEVEL_1
  6
CONTINUOUS
 62
     2
100
AcDbLine
 10
5.30078
 20
6.008008
 30
0.0
 11
5.431239
 21
5.994275
 31
0.0
  0
LINE
  5
152
100
AcDbEntity
  8
CK_LEVEL_1
  6
CONTINUOUS
 62
     2
100
AcDbLine
 10
5.431239
 20
5.994275
 30
0.0
 11
5.589164
 21
5.987409
 31
0.0
  0
LINE
  5
153
100
AcDbEntity
  8
CK_LEVEL_1
  6
CONTINUOUS
 62
     2
100
AcDbLine
 10
5.589164
 20
5.987409
 30
0.0
 11
5.767688
 21
5.994275
 31
0.0
  0
LINE
  5
154
100
AcDbEntity
  8
CK_LEVEL_1
  6
CONTINUOUS
 62
     2
100
AcDbLine
 10
5.767688
 20
5.994275
 30
0.0
 11
5.946211
 21
6.014874
 31
0.0
  0
LINE
  5
155
100
AcDbEntity
  8
CK_LEVEL_1
  6
CONTINUOUS
 62
     2
100
AcDbLine
 10
5.946211
 20
6.014874
 30
0.0
 11
6.111003
 21
6.049205
 31
0.0
  0
LINE
  5
156
100
AcDbEntity
  8
CK_LEVEL_1
  6
CONTINUOUS
 62
     2
100
AcDbLine
 10
6.111003
 20
6.049205
 30
0.0
 11
6.179666
 21
6.069804
 31
0.0
  0
LINE
  5
157
100
AcDbEntity
  8
CK_LEVEL_1
  6
CONTINUOUS
 62
     2
100
AcDbLine
 10
6.179666
 20
6.069804
 30
0.0
 11
6.241462
 21
6.097269
 31
0.0
  0
LINE
  5
158
100
AcDbEntity
  8
CK_LEVEL_1
  6
CONTINUOUS
 62
     2
100
AcDbLine
 10
6.241462
 20
6.097269
 30
0.0
 11
6.296393
 21
6.131601
 31
0.0
  0
LINE
  5
159
100
AcDbEntity
  8
CK_LEVEL_1
  6
CONTINUOUS
 62
     2
100
AcDbLine
 10
6.296393
 20
6.131601
 30
0.0
 11
6.33759
 21
6.165932
 31
0.0
  0
LINE
  5
15A
100
AcDbEntity
  8
CK_LEVEL_1
  6
CONTINUOUS
 62
     2
100
AcDbLine
 10
6.33759
 20
6.165932
 30
0.0
 11
6.351323
 21
6.104136
 31
0.0
  0
LINE
  5
15B
100
AcDbEntity
  8
CK_LEVEL_1
  6
CONTINUOUS
 62
     2
100
AcDbLine
 10
6.351323
 20
6.104136
 30
0.0
 11
6.365055
 21
6.02174
 31
0.0
  0
LINE
  5
15C
100
AcDbEntity
  8
CK_LEVEL_1
  6
CONTINUOUS
 62
     2
100
AcDbLine
 10
6.365055
 20
6.02174
 30
0.0
 11
6.41312
 21
5.829484
 31
0.0
  0
LINE
  5
15D
100
AcDbEntity
  8
CK_LEVEL_1
  6
CONTINUOUS
 62
     2
100
AcDbLine
 10
6.41312
 20
5.829484
 30
0.0
 11
6.474916
 21
5.630361
 31
0.0
  0
LINE
  5
15E
100
AcDbEntity
  8
CK_LEVEL_1
  6
CONTINUOUS
 62
     2
100
AcDbLine
 10
6.474916
 20
5.630361
 30
0.0
 11
6.509248
 21
5.5411
 31
0.0
  0
LINE
  5
15F
100
AcDbEntity
  8
CK_LEVEL_1
  6
CONTINUOUS
 62
     2
100
AcDbLine
 10
6.509248
 20
5.5411
 30
0.0
 11
6.550445
 21
5.46557
 31
0.0
  0
LINE
  5
160
100
AcDbEntity
  8
CK_LEVEL_1
  6
CONTINUOUS
 62
     2
100
AcDbLine
 10
6.550445
 20
5.46557
 30
0.0
 11
6.625975
 21
5.486169
 31
0.0
  0
LINE
  5
161
100
AcDbEntity
  8
CK_LEVEL_1
  6
CONTINUOUS
 62
     2
100
AcDbLine
 10
6.625975
 20
5.486169
 30
0.0
 11
6.715236
 21
5.513634
 31
0.0
  0
LINE
  5
162
100
AcDbEntity
  8
CK_LEVEL_1
  6
CONTINUOUS
 62
     2
100
AcDbLine
 10
6.715236
 20
5.513634
 30
0.0
 11
6.921225
 21
5.554832
 31
0.0
  0
LINE
  5
163
100
AcDbEntity
  8
CK_LEVEL_1
  6
CONTINUOUS
 62
     2
100
AcDbLine
 10
6.921225
 20
5.554832
 30
0.0
 11
7.127214
 21
5.589164
 31
0.0
  0
LINE
  5
164
100
AcDbEntity
  8
CK_LEVEL_1
  6
CONTINUOUS
 62
     2
100
AcDbLine
 10
7.127214
 20
5.589164
 30
0.0
 11
7.216476
 21
5.602896
 31
0.0
  0
LINE
  5
165
100
AcDbEntity
  8
CK_LEVEL_1
  6
CONTINUOUS
 62
     2
100
AcDbLine
 10
7.216476
 20
5.602896
 30
0.0
 11
7.298872
 21
5.609763
 31
0.0
  0
LINE
  5
166
100
AcDbEntity
  8
CK_LEVEL_1
  6
CONTINUOUS
 62
     2
100
AcDbLine
 10
7.292005
 20
5.609763
 30
0.0
 11
7.298872
 21
5.609763
 31
0.0
  0
LINE
  5
167
100
AcDbEntity
  8
CK_LEVEL_1
  6
CONTINUOUS
 62
     2
100
AcDbLine
 10
7.298872
 20
5.609763
 30
0.0
 11
7.292005
 21
5.630361
 31
0.0
  0
LINE
  5
168
100
AcDbEntity
  8
CK_LEVEL_1
  6
CONTINUOUS
 62
     2
100
AcDbLine
 10
7.292005
 20
5.630361
 30
0.0
 11
7.292005
 21
5.692158
 31
0.0
  0
LINE
  5
169
100
AcDbEntity
  8
CK_LEVEL_1
  6
CONTINUOUS
 62
     2
100
AcDbLine
 10
7.292005
 20
5.692158
 30
0.0
 11
7.298872
 21
5.712757
 31
0.0
  0
LINE
  5
16A
100
AcDbEntity
  8
CK_LEVEL_1
  6
CONTINUOUS
 62
     2
100
AcDbLine
 10
7.298872
 20
5.712757
 30
0.0
 11
7.312604
 21
5.774554
 31
0.0
  0
LINE
  5
16B
100
AcDbEntity
  8
CK_LEVEL_1
  6
CONTINUOUS
 62
     2
100
AcDbLine
 10
7.312604
 20
5.774554
 30
0.0
 11
7.312604
 21
5.802019
 31
0.0
  0
LINE
  5
16C
100
AcDbEntity
  8
CK_LEVEL_1
  6
CONTINUOUS
 62
     2
100
AcDbLine
 10
7.312604
 20
5.802019
 30
0.0
 11
7.305738
 21
5.815751
 31
0.0
  0
LINE
  5
16D
100
AcDbEntity
  8
CK_LEVEL_1
  6
CONTINUOUS
 62
     2
100
AcDbLine
 10
7.305738
 20
5.815751
 30
0.0
 11
7.312604
 21
5.829484
 31
0.0
  0
LINE
  5
16E
100
AcDbEntity
  8
CK_LEVEL_1
  6
CONTINUOUS
 62
     2
100
AcDbLine
 10
7.312604
 20
5.829484
 30
0.0
 11
7.340069
 21
5.843217
 31
0.0
  0
LINE
  5
16F
100
AcDbEntity
  8
CK_LEVEL_1
  6
CONTINUOUS
 62
     2
100
AcDbLine
 10
7.340069
 20
5.843217
 30
0.0
 11
7.360668
 21
5.850083
 31
0.0
  0
LINE
  5
170
100
AcDbEntity
  8
CK_LEVEL_1
  6
CONTINUOUS
 62
     2
100
AcDbLine
 10
7.360668
 20
5.850083
 30
0.0
 11
7.367534
 21
5.856949
 31
0.0
  0
LINE
  5
171
100
AcDbEntity
  8
CK_LEVEL_1
  6
CONTINUOUS
 62
     2
100
AcDbLine
 10
7.367534
 20
5.856949
 30
0.0
 11
7.326337
 21
5.959944
 31
0.0
  0
LINE
  5
172
100
AcDbEntity
  8
CK_LEVEL_1
  6
CONTINUOUS
 62
     2
100
AcDbLine
 10
7.326337
 20
5.959944
 30
0.0
 11
7.292005
 21
6.090403
 31
0.0
  0
LINE
  5
173
100
AcDbEntity
  8
CK_LEVEL_1
  6
CONTINUOUS
 62
     2
100
AcDbLine
 10
7.292005
 20
6.090403
 30
0.0
 11
7.257674
 21
6.241462
 31
0.0
  0
LINE
  5
174
100
AcDbEntity
  8
CK_LEVEL_1
  6
CONTINUOUS
 62
     2
100
AcDbLine
 10
7.257674
 20
6.241462
 30
0.0
 11
7.230209
 21
6.399386
 31
0.0
  0
LINE
  5
175
100
AcDbEntity
  8
CK_LEVEL_1
  6
CONTINUOUS
 62
     2
100
AcDbLine
 10
7.230209
 20
6.399386
 30
0.0
 11
7.20961
 21
6.557311
 31
0.0
  0
LINE
  5
176
100
AcDbEntity
  8
CK_LEVEL_1
  6
CONTINUOUS
 62
     2
100
AcDbLine
 10
7.20961
 20
6.557311
 30
0.0
 11
7.195877
 21
6.701503
 31
0.0
  0
LINE
  5
177
100
AcDbEntity
  8
CK_LEVEL_1
  6
CONTINUOUS
 62
     2
100
AcDbLine
 10
7.195877
 20
6.701503
 30
0.0
 11
7.189011
 21
6.81823
 31
0.0
  0
LINE
  5
178
100
AcDbEntity
  8
CK_LEVEL_1
  6
CONTINUOUS
 62
     2
100
AcDbLine
 10
7.189011
 20
6.81823
 30
0.0
 11
7.189011
 21
6.859428
 31
0.0
  0
LINE
  5
179
100
AcDbEntity
  8
CK_LEVEL_1
  6
CONTINUOUS
 62
     2
100
AcDbLine
 10
7.189011
 20
6.859428
 30
0.0
 11
7.195877
 21
6.89376
 31
0.0
  0
LINE
  5
17A
100
AcDbEntity
  8
CK_LEVEL_1
  6
CONTINUOUS
 62
     2
100
AcDbLine
 10
7.195877
 20
6.89376
 30
0.0
 11
7.237075
 21
6.7633
 31
0.0
  0
LINE
  5
17B
100
AcDbEntity
  8
CK_LEVEL_1
  6
CONTINUOUS
 62
     2
100
AcDbLine
 10
7.237075
 20
6.7633
 30
0.0
 11
7.257674
 21
6.701503
 31
0.0
  0
LINE
  5
17C
100
AcDbEntity
  8
CK_LEVEL_1
  6
CONTINUOUS
 62
     2
100
AcDbLine
 10
7.257674
 20
6.701503
 30
0.0
 11
7.292005
 21
6.653439
 31
0.0
  0
LINE
  5
17D
100
AcDbEntity
  8
CK_LEVEL_1
  6
CONTINUOUS
 62
     2
100
AcDbLine
 10
7.292005
 20
6.653439
 30
0.0
 11
7.305738
 21
6.564177
 31
0.0
  0
LINE
  5
17E
100
AcDbEntity
  8
CK_LEVEL_1
  6
CONTINUOUS
 62
     2
100
AcDbLine
 10
7.305738
 20
6.564177
 30
0.0
 11
7.340069
 21
6.454317
 31
0.0
  0
LINE
  5
17F
100
AcDbEntity
  8
CK_LEVEL_1
  6
CONTINUOUS
 62
     2
100
AcDbLine
 10
7.340069
 20
6.454317
 30
0.0
 11
7.422465
 21
6.220863
 31
0.0
  0
LINE
  5
180
100
AcDbEntity
  8
CK_LEVEL_1
  6
CONTINUOUS
 62
     2
100
AcDbLine
 10
7.422465
 20
6.220863
 30
0.0
 11
7.511727
 21
6.014874
 31
0.0
  0
LINE
  5
181
100
AcDbEntity
  8
CK_LEVEL_1
  6
CONTINUOUS
 62
     2
100
AcDbLine
 10
7.511727
 20
6.014874
 30
0.0
 11
7.552924
 21
5.939345
 31
0.0
  0
LINE
  5
182
100
AcDbEntity
  8
CK_LEVEL_1
  6
CONTINUOUS
 62
     2
100
AcDbLine
 10
7.552924
 20
5.939345
 30
0.0
 11
7.587256
 21
5.898147
 31
0.0
  0
LINE
  5
183
100
AcDbEntity
  8
CK_LEVEL_1
  6
CONTINUOUS
 62
     2
100
AcDbLine
 10
7.587256
 20
5.898147
 30
0.0
 11
7.525459
 21
5.891281
 31
0.0
  0
LINE
  5
184
100
AcDbEntity
  8
CK_LEVEL_1
  6
CONTINUOUS
 62
     2
100
AcDbLine
 10
7.525459
 20
5.891281
 30
0.0
 11
7.470529
 21
5.870682
 31
0.0
  0
LINE
  5
185
100
AcDbEntity
  8
CK_LEVEL_1
  6
CONTINUOUS
 62
     2
100
AcDbLine
 10
7.470529
 20
5.870682
 30
0.0
 11
7.63532
 21
5.856949
 31
0.0
  0
LINE
  5
186
100
AcDbEntity
  8
CK_LEVEL_1
  6
CONTINUOUS
 62
     2
100
AcDbLine
 10
7.63532
 20
5.856949
 30
0.0
 11
7.697117
 21
5.843217
 31
0.0
  0
LINE
  5
187
100
AcDbEntity
  8
CK_LEVEL_1
  6
CONTINUOUS
 62
     2
100
AcDbLine
 10
7.697117
 20
5.843217
 30
0.0
 11
7.738314
 21
5.829484
 31
0.0
  0
LINE
  5
188
100
AcDbEntity
  8
CK_LEVEL_1
  6
CONTINUOUS
 62
     2
100
AcDbLine
 10
7.738314
 20
5.829484
 30
0.0
 11
7.772646
 21
5.808885
 31
0.0
  0
LINE
  5
189
100
AcDbEntity
  8
CK_LEVEL_1
  6
CONTINUOUS
 62
     2
100
AcDbLine
 10
7.772646
 20
5.808885
 30
0.0
 11
7.82071
 21
5.78142
 31
0.0
  0
LINE
  5
18A
100
AcDbEntity
  8
CK_LEVEL_1
  6
CONTINUOUS
 62
     2
100
AcDbLine
 10
7.82071
 20
5.78142
 30
0.0
 11
7.861908
 21
5.747088
 31
0.0
  0
LINE
  5
18B
100
AcDbEntity
  8
CK_LEVEL_1
  6
CONTINUOUS
 62
     2
100
AcDbLine
 10
7.861908
 20
5.747088
 30
0.0
 11
7.868774
 21
5.733356
 31
0.0
  0
LINE
  5
18C
100
AcDbEntity
  8
CK_LEVEL_1
  6
CONTINUOUS
 62
     2
100
AcDbLine
 10
7.868774
 20
5.733356
 30
0.0
 11
7.868774
 21
5.72649
 31
0.0
  0
LINE
  5
18D
100
AcDbEntity
  8
CK_LEVEL_1
  6
CONTINUOUS
 62
     2
100
AcDbLine
 10
7.868774
 20
5.72649
 30
0.0
 11
7.861908
 21
5.719623
 31
0.0
  0
LINE
  5
18E
100
AcDbEntity
  8
CK_LEVEL_1
  6
CONTINUOUS
 62
     2
100
AcDbLine
 10
7.861908
 20
5.719623
 30
0.0
 11
7.855041
 21
5.699024
 31
0.0
  0
LINE
  5
18F
100
AcDbEntity
  8
CK_LEVEL_1
  6
CONTINUOUS
 62
     2
100
AcDbLine
 10
7.855041
 20
5.699024
 30
0.0
 11
7.834442
 21
5.65096
 31
0.0
  0
LINE
  5
190
100
AcDbEntity
  8
CK_LEVEL_1
  6
CONTINUOUS
 62
     2
100
AcDbLine
 10
7.834442
 20
5.65096
 30
0.0
 11
7.834442
 21
5.582297
 31
0.0
  0
LINE
  5
191
100
AcDbEntity
  8
CK_LEVEL_1
  6
CONTINUOUS
 62
     2
100
AcDbLine
 10
7.834442
 20
5.582297
 30
0.0
 11
7.841309
 21
5.547966
 31
0.0
  0
LINE
  5
192
100
AcDbEntity
  8
CK_LEVEL_1
  6
CONTINUOUS
 62
     2
100
AcDbLine
 10
7.841309
 20
5.547966
 30
0.0
 11
7.861908
 21
5.513634
 31
0.0
  0
LINE
  5
193
100
AcDbEntity
  8
CK_LEVEL_1
  6
CONTINUOUS
 62
     2
100
AcDbLine
 10
7.861908
 20
5.513634
 30
0.0
 11
7.827576
 21
5.527367
 31
0.0
  0
LINE
  5
194
100
AcDbEntity
  8
CK_LEVEL_1
  6
CONTINUOUS
 62
     2
100
AcDbLine
 10
7.827576
 20
5.527367
 30
0.0
 11
7.772646
 21
5.547966
 31
0.0
  0
LINE
  5
195
100
AcDbEntity
  8
CK_LEVEL_1
  6
CONTINUOUS
 62
     2
100
AcDbLine
 10
7.772646
 20
5.547966
 30
0.0
 11
7.642186
 21
5.575431
 31
0.0
  0
LINE
  5
196
100
AcDbEntity
  8
CK_LEVEL_1
  6
CONTINUOUS
 62
     2
100
AcDbLine
 10
7.642186
 20
5.575431
 30
0.0
 11
7.497994
 21
5.602896
 31
0.0
  0
LINE
  5
197
100
AcDbEntity
  8
CK_LEVEL_1
  6
CONTINUOUS
 62
     2
100
AcDbLine
 10
7.497994
 20
5.602896
 30
0.0
 11
7.429331
 21
5.609763
 31
0.0
  0
LINE
  5
198
100
AcDbEntity
  8
CK_LEVEL_1
  6
CONTINUOUS
 62
     2
100
AcDbLine
 10
7.429331
 20
5.609763
 30
0.0
 11
7.374401
 21
5.602896
 31
0.0
  0
LINE
  5
199
100
AcDbEntity
  8
CK_LEVEL_1
  6
CONTINUOUS
 62
     2
100
AcDbLine
 10
7.374401
 20
5.602896
 30
0.0
 11
7.374401
 21
5.609763
 31
0.0
  0
LINE
  5
19A
100
AcDbEntity
  8
CK_LEVEL_1
  6
CONTINUOUS
 62
     2
100
AcDbLine
 10
6.310125
 20
7.566656
 30
0.0
 11
6.33759
 21
7.566656
 31
0.0
  0
LINE
  5
19B
100
AcDbEntity
  8
CK_LEVEL_1
  6
CONTINUOUS
 62
     2
100
AcDbLine
 10
6.33759
 20
7.566656
 30
0.0
 11
6.358189
 21
7.594122
 31
0.0
  0
LINE
  5
19C
100
AcDbEntity
  8
CK_LEVEL_1
  6
CONTINUOUS
 62
     2
100
AcDbLine
 10
6.358189
 20
7.594122
 30
0.0
 11
6.392521
 21
7.628453
 31
0.0
  0
LINE
  5
19D
100
AcDbEntity
  8
CK_LEVEL_1
  6
CONTINUOUS
 62
     2
100
AcDbLine
 10
6.392521
 20
7.628453
 30
0.0
 11
6.46805
 21
7.697116
 31
0.0
  0
LINE
  5
19E
100
AcDbEntity
  8
CK_LEVEL_1
  6
CONTINUOUS
 62
     2
100
AcDbLine
 10
6.46805
 20
7.697116
 30
0.0
 11
6.543579
 21
7.758913
 31
0.0
  0
LINE
  5
19F
100
AcDbEntity
  8
CK_LEVEL_1
  6
CONTINUOUS
 62
     2
100
AcDbLine
 10
6.543579
 20
7.758913
 30
0.0
 11
6.577911
 21
7.779512
 31
0.0
  0
LINE
  5
1A0
100
AcDbEntity
  8
CK_LEVEL_1
  6
CONTINUOUS
 62
     2
100
AcDbLine
 10
6.577911
 20
7.779512
 30
0.0
 11
6.591643
 21
7.793244
 31
0.0
  0
LINE
  5
1A1
100
AcDbEntity
  8
CK_LEVEL_1
  6
CONTINUOUS
 62
     2
100
AcDbLine
 10
6.591643
 20
7.793244
 30
0.0
 11
6.612242
 21
7.834442
 31
0.0
  0
LINE
  5
1A2
100
AcDbEntity
  8
CK_LEVEL_1
  6
CONTINUOUS
 62
     2
100
AcDbLine
 10
6.612242
 20
7.834442
 30
0.0
 11
6.646574
 21
7.87564
 31
0.0
  0
LINE
  5
1A3
100
AcDbEntity
  8
CK_LEVEL_1
  6
CONTINUOUS
 62
     2
100
AcDbLine
 10
6.646574
 20
7.87564
 30
0.0
 11
6.722103
 21
7.978634
 31
0.0
  0
LINE
  5
1A4
100
AcDbEntity
  8
CK_LEVEL_1
  6
CONTINUOUS
 62
     2
100
AcDbLine
 10
6.722103
 20
7.978634
 30
0.0
 11
6.797632
 21
8.061029
 31
0.0
  0
LINE
  5
1A5
100
AcDbEntity
  8
CK_LEVEL_1
  6
CONTINUOUS
 62
     2
100
AcDbLine
 10
6.797632
 20
8.06103
 30
0.0
 11
6.831963
 21
8.095362
 31
0.0
  0
LINE
  5
1A6
100
AcDbEntity
  8
CK_LEVEL_1
  6
CONTINUOUS
 62
     2
100
AcDbLine
 10
6.831963
 20
8.095361
 30
0.0
 11
6.852562
 21
8.109094
 31
0.0
  0
LINE
  5
1A7
100
AcDbEntity
  8
CK_LEVEL_1
  6
CONTINUOUS
 62
     2
100
AcDbLine
 10
6.852562
 20
8.109094
 30
0.0
 11
6.804498
 21
8.157158
 31
0.0
  0
LINE
  5
1A8
100
AcDbEntity
  8
CK_LEVEL_1
  6
CONTINUOUS
 62
     2
100
AcDbLine
 10
6.804498
 20
8.157158
 30
0.0
 11
6.756434
 21
8.191489
 31
0.0
  0
LINE
  5
1A9
100
AcDbEntity
  8
CK_LEVEL_1
  6
CONTINUOUS
 62
     2
100
AcDbLine
 10
6.756434
 20
8.191489
 30
0.0
 11
6.83883
 21
8.24642
 31
0.0
  0
LINE
  5
1AA
100
AcDbEntity
  8
CK_LEVEL_1
  6
CONTINUOUS
 62
     2
100
AcDbLine
 10
6.83883
 20
8.24642
 30
0.0
 11
6.852562
 21
8.253286
 31
0.0
  0
LINE
  5
1AB
100
AcDbEntity
  8
CK_LEVEL_1
  6
CONTINUOUS
 62
     2
100
AcDbLine
 10
6.852562
 20
8.253286
 30
0.0
 11
6.866295
 21
8.280751
 31
0.0
  0
LINE
  5
1AC
100
AcDbEntity
  8
CK_LEVEL_1
  6
CONTINUOUS
 62
     2
100
AcDbLine
 10
6.866295
 20
8.280751
 30
0.0
 11
6.859429
 21
8.301351
 31
0.0
  0
LINE
  5
1AD
100
AcDbEntity
  8
CK_LEVEL_1
  6
CONTINUOUS
 62
     2
100
AcDbLine
 10
6.859429
 20
8.30135
 30
0.0
 11
6.900626
 21
8.308216
 31
0.0
  0
LINE
  5
1AE
100
AcDbEntity
  8
CK_LEVEL_1
  6
CONTINUOUS
 62
     2
100
AcDbLine
 10
6.900626
 20
8.308216
 30
0.0
 11
6.934958
 21
8.321949
 31
0.0
  0
LINE
  5
1AF
100
AcDbEntity
  8
CK_LEVEL_1
  6
CONTINUOUS
 62
     2
100
AcDbLine
 10
6.934958
 20
8.321949
 30
0.0
 11
6.962423
 21
8.35628
 31
0.0
  0
LINE
  5
1B0
100
AcDbEntity
  8
CK_LEVEL_1
  6
CONTINUOUS
 62
     2
100
AcDbLine
 10
6.962423
 20
8.35628
 30
0.0
 11
6.989888
 21
8.404345
 31
0.0
  0
LINE
  5
1B1
100
AcDbEntity
  8
CK_LEVEL_1
  6
CONTINUOUS
 62
     2
100
AcDbLine
 10
6.989888
 20
8.404344
 30
0.0
 11
6.94869
 21
8.404344
 31
0.0
  0
LINE
  5
1B2
100
AcDbEntity
  8
CK_LEVEL_1
  6
CONTINUOUS
 62
     2
100
AcDbLine
 10
6.94869
 20
8.404344
 30
0.0
 11
6.928092
 21
8.418077
 31
0.0
  0
LINE
  5
1B3
100
AcDbEntity
  8
CK_LEVEL_1
  6
CONTINUOUS
 62
     2
100
AcDbLine
 10
6.928092
 20
8.418077
 30
0.0
 11
6.928092
 21
8.43181
 31
0.0
  0
LINE
  5
1B4
100
AcDbEntity
  8
CK_LEVEL_1
  6
CONTINUOUS
 62
     2
100
AcDbLine
 10
6.928092
 20
8.43181
 30
0.0
 11
6.94869
 21
8.438677
 31
0.0
  0
LINE
  5
1B5
100
AcDbEntity
  8
CK_LEVEL_1
  6
CONTINUOUS
 62
     2
100
AcDbLine
 10
6.94869
 20
8.438676
 30
0.0
 11
6.969289
 21
8.452408
 31
0.0
  0
LINE
  5
1B6
100
AcDbEntity
  8
CK_LEVEL_1
  6
CONTINUOUS
 62
     2
100
AcDbLine
 10
6.969289
 20
8.452408
 30
0.0
 11
6.976156
 21
8.466141
 31
0.0
  0
LINE
  5
1B7
100
AcDbEntity
  8
CK_LEVEL_1
  6
CONTINUOUS
 62
     2
100
AcDbLine
 10
6.976156
 20
8.466141
 30
0.0
 11
6.976156
 21
8.534803
 31
0.0
  0
LINE
  5
1B8
100
AcDbEntity
  8
CK_LEVEL_1
  6
CONTINUOUS
 62
     2
100
AcDbLine
 10
6.976156
 20
8.534804
 30
0.0
 11
6.962423
 21
8.589734
 31
0.0
  0
LINE
  5
1B9
100
AcDbEntity
  8
CK_LEVEL_1
  6
CONTINUOUS
 62
     2
100
AcDbLine
 10
6.962423
 20
8.589734
 30
0.0
 11
6.934958
 21
8.644665
 31
0.0
  0
LINE
  5
1BA
100
AcDbEntity
  8
CK_LEVEL_1
  6
CONTINUOUS
 62
     2
100
AcDbLine
 10
6.934958
 20
8.644665
 30
0.0
 11
6.859429
 21
8.754525
 31
0.0
  0
LINE
  5
1BB
100
AcDbEntity
  8
CK_LEVEL_1
  6
CONTINUOUS
 62
     2
100
AcDbLine
 10
6.859429
 20
8.754525
 30
0.0
 11
6.797632
 21
8.850655
 31
0.0
  0
LINE
  5
1BC
100
AcDbEntity
  8
CK_LEVEL_1
  6
CONTINUOUS
 62
     2
100
AcDbLine
 10
6.797632
 20
8.850654
 30
0.0
 11
6.777033
 21
8.905583
 31
0.0
  0
LINE
  5
1BD
100
AcDbEntity
  8
CK_LEVEL_1
  6
CONTINUOUS
 62
     2
100
AcDbLine
 10
6.777033
 20
8.905584
 30
0.0
 11
6.742702
 21
8.974247
 31
0.0
  0
LINE
  5
1BE
100
AcDbEntity
  8
CK_LEVEL_1
  6
CONTINUOUS
 62
     2
100
AcDbLine
 10
6.742702
 20
8.974247
 30
0.0
 11
6.701504
 21
9.036044
 31
0.0
  0
LINE
  5
1BF
100
AcDbEntity
  8
CK_LEVEL_1
  6
CONTINUOUS
 62
     2
100
AcDbLine
 10
6.701504
 20
9.036044
 30
0.0
 11
6.646574
 21
9.090974
 31
0.0
  0
LINE
  5
1C0
100
AcDbEntity
  8
CK_LEVEL_1
  6
CONTINUOUS
 62
     2
100
AcDbLine
 10
6.646574
 20
9.090974
 30
0.0
 11
6.598509
 21
9.125305
 31
0.0
  0
LINE
  5
1C1
100
AcDbEntity
  8
CK_LEVEL_1
  6
CONTINUOUS
 62
     2
100
AcDbLine
 10
6.598509
 20
9.125305
 30
0.0
 11
6.564178
 21
9.145905
 31
0.0
  0
LINE
  5
1C2
100
AcDbEntity
  8
CK_LEVEL_1
  6
CONTINUOUS
 62
     2
100
AcDbLine
 10
6.564178
 20
9.145904
 30
0.0
 11
6.536713
 21
9.159636
 31
0.0
  0
LINE
  5
1C3
100
AcDbEntity
  8
CK_LEVEL_1
  6
CONTINUOUS
 62
     2
100
AcDbLine
 10
6.536713
 20
9.159637
 30
0.0
 11
6.516114
 21
9.166504
 31
0.0
  0
LINE
  5
1C4
100
AcDbEntity
  8
CK_LEVEL_1
  6
CONTINUOUS
 62
     2
100
AcDbLine
 10
6.516114
 20
9.166503
 30
0.0
 11
6.454317
 21
9.200835
 31
0.0
  0
LINE
  5
1C5
100
AcDbEntity
  8
CK_LEVEL_1
  6
CONTINUOUS
 62
     2
100
AcDbLine
 10
6.454317
 20
9.200835
 30
0.0
 11
6.426852
 21
9.214567
 31
0.0
  0
LINE
  5
1C6
100
AcDbEntity
  8
CK_LEVEL_1
  6
CONTINUOUS
 62
     2
100
AcDbLine
 10
6.426852
 20
9.214567
 30
0.0
 11
6.406253
 21
9.235167
 31
0.0
  0
LINE
  5
1C7
100
AcDbEntity
  8
CK_LEVEL_1
  6
CONTINUOUS
 62
     2
100
AcDbLine
 10
6.406253
 20
9.235166
 30
0.0
 11
6.385654
 21
9.248899
 31
0.0
  0
LINE
  5
1C8
100
AcDbEntity
  8
CK_LEVEL_1
  6
CONTINUOUS
 62
     2
100
AcDbLine
 10
6.385654
 20
9.248899
 30
0.0
 11
6.351323
 21
9.262631
 31
0.0
  0
LINE
  5
1C9
100
AcDbEntity
  8
CK_LEVEL_1
  6
CONTINUOUS
 62
     2
100
AcDbLine
 10
6.351323
 20
9.262631
 30
0.0
 11
6.296393
 21
9.283231
 31
0.0
  0
LINE
  5
1CA
100
AcDbEntity
  8
CK_LEVEL_1
  6
CONTINUOUS
 62
     2
100
AcDbLine
 10
6.296393
 20
9.28323
 30
0.0
 11
6.22773
 21
9.303829
 31
0.0
  0
LINE
  5
1CB
100
AcDbEntity
  8
CK_LEVEL_1
  6
CONTINUOUS
 62
     2
100
AcDbLine
 10
6.22773
 20
9.303829
 30
0.0
 11
6.138468
 21
9.310696
 31
0.0
  0
LINE
  5
1CC
100
AcDbEntity
  8
CK_LEVEL_1
  6
CONTINUOUS
 62
     2
100
AcDbLine
 10
6.138468
 20
9.310695
 30
0.0
 11
6.049206
 21
9.310695
 31
0.0
  0
LINE
  5
1CD
100
AcDbEntity
  8
CK_LEVEL_1
  6
CONTINUOUS
 62
     2
100
AcDbLine
 10
6.049206
 20
9.310695
 30
0.0
 11
5.946211
 21
9.290095
 31
0.0
  0
LINE
  5
1CE
100
AcDbEntity
  8
CK_LEVEL_1
  6
CONTINUOUS
 62
     2
100
AcDbLine
 10
5.946211
 20
9.290096
 30
0.0
 11
5.836351
 21
9.248899
 31
0.0
  0
LINE
  5
1CF
100
AcDbEntity
  8
CK_LEVEL_1
  6
CONTINUOUS
 62
     2
100
AcDbLine
 10
5.836351
 20
9.248899
 30
0.0
 11
5.85695
 21
9.290096
 31
0.0
  0
LINE
  5
1D0
100
AcDbEntity
  8
CK_LEVEL_1
  6
CONTINUOUS
 62
     2
100
AcDbLine
 10
5.85695
 20
9.290096
 30
0.0
 11
5.905014
 21
9.331294
 31
0.0
  0
LINE
  5
1D1
100
AcDbEntity
  8
CK_LEVEL_1
  6
CONTINUOUS
 62
     2
100
AcDbLine
 10
5.905014
 20
9.331294
 30
0.0
 11
5.973677
 21
9.351893
 31
0.0
  0
LINE
  5
1D2
100
AcDbEntity
  8
CK_LEVEL_1
  6
CONTINUOUS
 62
     2
100
AcDbLine
 10
5.973677
 20
9.351893
 30
0.0
 11
6.049206
 21
9.35876
 31
0.0
  0
LINE
  5
1D3
100
AcDbEntity
  8
CK_LEVEL_1
  6
CONTINUOUS
 62
     2
100
AcDbLine
 10
6.049206
 20
9.358759
 30
0.0
 11
5.987409
 21
9.372492
 31
0.0
  0
LINE
  5
1D4
100
AcDbEntity
  8
CK_LEVEL_1
  6
CONTINUOUS
 62
     2
100
AcDbLine
 10
5.987409
 20
9.372492
 30
0.0
 11
5.891281
 21
9.372492
 31
0.0
  0
LINE
  5
1D5
100
AcDbEntity
  8
CK_LEVEL_1
  6
CONTINUOUS
 62
     2
100
AcDbLine
 10
5.891281
 20
9.372492
 30
0.0
 11
5.85695
 21
9.358759
 31
0.0
  0
LINE
  5
1D6
100
AcDbEntity
  8
CK_LEVEL_1
  6
CONTINUOUS
 62
     2
100
AcDbLine
 10
5.85695
 20
9.358759
 30
0.0
 11
5.795153
 21
9.310695
 31
0.0
  0
LINE
  5
1D7
100
AcDbEntity
  8
CK_LEVEL_1
  6
CONTINUOUS
 62
     2
100
AcDbLine
 10
5.795153
 20
9.310695
 30
0.0
 11
5.747089
 21
9.2283
 31
0.0
  0
LINE
  5
1D8
100
AcDbEntity
  8
CK_LEVEL_1
  6
CONTINUOUS
 62
     2
100
AcDbLine
 10
5.747089
 20
9.2283
 30
0.0
 11
5.719624
 21
9.187102
 31
0.0
  0
LINE
  5
1D9
100
AcDbEntity
  8
CK_LEVEL_1
  6
CONTINUOUS
 62
     2
100
AcDbLine
 10
5.719624
 20
9.187102
 30
0.0
 11
5.705891
 21
9.187102
 31
0.0
  0
LINE
  5
1DA
100
AcDbEntity
  8
CK_LEVEL_1
  6
CONTINUOUS
 62
     2
100
AcDbLine
 10
5.705891
 20
9.187102
 30
0.0
 11
5.699025
 21
9.200835
 31
0.0
  0
LINE
  5
1DB
100
AcDbEntity
  8
CK_LEVEL_1
  6
CONTINUOUS
 62
     2
100
AcDbLine
 10
5.699025
 20
9.200835
 30
0.0
 11
5.678426
 21
9.248899
 31
0.0
  0
LINE
  5
1DC
100
AcDbEntity
  8
CK_LEVEL_1
  6
CONTINUOUS
 62
     2
100
AcDbLine
 10
5.678426
 20
9.248899
 30
0.0
 11
5.664693
 21
9.248899
 31
0.0
  0
LINE
  5
1DD
100
AcDbEntity
  8
CK_LEVEL_1
  6
CONTINUOUS
 62
     2
100
AcDbLine
 10
5.664693
 20
9.248899
 30
0.0
 11
5.650961
 21
9.2283
 31
0.0
  0
LINE
  5
1DE
100
AcDbEntity
  8
CK_LEVEL_1
  6
CONTINUOUS
 62
     2
100
AcDbLine
 10
5.650961
 20
9.2283
 30
0.0
 11
5.650961
 21
9.159637
 31
0.0
  0
LINE
  5
1DF
100
AcDbEntity
  8
CK_LEVEL_1
  6
CONTINUOUS
 62
     2
100
AcDbLine
 10
5.650961
 20
9.159637
 30
0.0
 11
5.664693
 21
9.104707
 31
0.0
  0
LINE
  5
1E0
100
AcDbEntity
  8
CK_LEVEL_1
  6
CONTINUOUS
 62
     2
100
AcDbLine
 10
5.664693
 20
9.104706
 30
0.0
 11
5.623496
 21
9.077241
 31
0.0
  0
LINE
  5
1E1
100
AcDbEntity
  8
CK_LEVEL_1
  6
CONTINUOUS
 62
     2
100
AcDbLine
 10
5.623496
 20
9.077241
 30
0.0
 11
5.589164
 21
9.036044
 31
0.0
  0
LINE
  5
1E2
100
AcDbEntity
  8
CK_LEVEL_1
  6
CONTINUOUS
 62
     2
100
AcDbLine
 10
5.589164
 20
9.036044
 30
0.0
 11
5.5411
 21
8.939915
 31
0.0
  0
LINE
  5
1E3
100
AcDbEntity
  8
CK_LEVEL_1
  6
CONTINUOUS
 62
     2
100
AcDbLine
 10
5.5411
 20
8.939915
 30
0.0
 11
5.513635
 21
8.843786
 31
0.0
  0
LINE
  5
1E4
100
AcDbEntity
  8
CK_LEVEL_1
  6
CONTINUOUS
 62
     2
100
AcDbLine
 10
5.513635
 20
8.843787
 30
0.0
 11
5.506769
 21
8.809456
 31
0.0
  0
LINE
  5
1E5
100
AcDbEntity
  8
CK_LEVEL_1
  6
CONTINUOUS
 62
     2
100
AcDbLine
 10
5.506769
 20
8.809456
 30
0.0
 11
5.506769
 21
8.781991
 31
0.0
  0
LINE
  5
1E6
100
AcDbEntity
  8
CK_LEVEL_1
  6
CONTINUOUS
 62
     2
100
AcDbLine
 10
5.506769
 20
8.781991
 30
0.0
 11
5.499902
 21
8.747659
 31
0.0
  0
LINE
  5
1E7
100
AcDbEntity
  8
CK_LEVEL_1
  6
CONTINUOUS
 62
     2
100
AcDbLine
 10
5.499902
 20
8.747659
 30
0.0
 11
5.499902
 21
8.720194
 31
0.0
  0
LINE
  5
1E8
100
AcDbEntity
  8
CK_LEVEL_1
  6
CONTINUOUS
 62
     2
100
AcDbLine
 10
5.499902
 20
8.720194
 30
0.0
 11
5.48617
 21
8.706461
 31
0.0
  0
LINE
  5
1E9
100
AcDbEntity
  8
CK_LEVEL_1
  6
CONTINUOUS
 62
     2
100
AcDbLine
 10
5.48617
 20
8.706461
 30
0.0
 11
5.458705
 21
8.685862
 31
0.0
  0
LINE
  5
1EA
100
AcDbEntity
  8
CK_LEVEL_1
  6
CONTINUOUS
 62
     2
100
AcDbLine
 10
5.458705
 20
8.685862
 30
0.0
 11
5.444972
 21
8.665263
 31
0.0
  0
LINE
  5
1EB
100
AcDbEntity
  8
CK_LEVEL_1
  6
CONTINUOUS
 62
     2
100
AcDbLine
 10
5.444972
 20
8.665264
 30
0.0
 11
5.451838
 21
8.6172
 31
0.0
  0
LINE
  5
1EC
100
AcDbEntity
  8
CK_LEVEL_1
  6
CONTINUOUS
 62
     2
100
AcDbLine
 10
5.451838
 20
8.6172
 30
0.0
 11
5.465571
 21
8.596601
 31
0.0
  0
LINE
  5
1ED
100
AcDbEntity
  8
CK_LEVEL_1
  6
CONTINUOUS
 62
     2
100
AcDbLine
 10
5.465571
 20
8.596601
 30
0.0
 11
5.48617
 21
8.589733
 31
0.0
  0
LINE
  5
1EE
100
AcDbEntity
  8
CK_LEVEL_1
  6
CONTINUOUS
 62
     2
100
AcDbLine
 10
5.48617
 20
8.589734
 30
0.0
 11
5.499902
 21
8.555403
 31
0.0
  0
LINE
  5
1EF
100
AcDbEntity
  8
CK_LEVEL_1
  6
CONTINUOUS
 62
     2
100
AcDbLine
 10
5.499902
 20
8.555403
 30
0.0
 11
5.534234
 21
8.52107
 31
0.0
  0
LINE
  5
1F0
100
AcDbEntity
  8
CK_LEVEL_1
  6
CONTINUOUS
 62
     2
100
AcDbLine
 10
5.534234
 20
8.521071
 30
0.0
 11
5.458705
 21
8.383746
 31
0.0
  0
LINE
  5
1F1
100
AcDbEntity
  8
CK_LEVEL_1
  6
CONTINUOUS
 62
     2
100
AcDbLine
 10
5.458705
 20
8.383746
 30
0.0
 11
5.417507
 21
8.321949
 31
0.0
  0
LINE
  5
1F2
100
AcDbEntity
  8
CK_LEVEL_1
  6
CONTINUOUS
 62
     2
100
AcDbLine
 10
5.417507
 20
8.321949
 30
0.0
 11
5.396908
 21
8.273885
 31
0.0
  0
LINE
  5
1F3
100
AcDbEntity
  8
CK_LEVEL_1
  6
CONTINUOUS
 62
     2
100
AcDbLine
 10
5.396908
 20
8.273885
 30
0.0
 11
5.390042
 21
8.24642
 31
0.0
  0
LINE
  5
1F4
100
AcDbEntity
  8
CK_LEVEL_1
  6
CONTINUOUS
 62
     2
100
AcDbLine
 10
5.390042
 20
8.24642
 30
0.0
 11
5.396908
 21
8.218954
 31
0.0
  0
LINE
  5
1F5
100
AcDbEntity
  8
CK_LEVEL_1
  6
CONTINUOUS
 62
     2
100
AcDbLine
 10
5.396908
 20
8.218954
 30
0.0
 11
5.424373
 21
8.191489
 31
0.0
  0
LINE
  5
1F6
100
AcDbEntity
  8
CK_LEVEL_1
  6
CONTINUOUS
 62
     2
100
AcDbLine
 10
5.424373
 20
8.191489
 30
0.0
 11
5.554833
 21
8.191489
 31
0.0
  0
LINE
  5
1F7
100
AcDbEntity
  8
CK_LEVEL_1
  6
CONTINUOUS
 62
     2
100
AcDbLine
 10
5.554833
 20
8.191489
 30
0.0
 11
5.575432
 21
8.184623
 31
0.0
  0
LINE
  5
1F8
100
AcDbEntity
  8
CK_LEVEL_1
  6
CONTINUOUS
 62
     2
100
AcDbLine
 10
5.575432
 20
8.184623
 30
0.0
 11
5.589164
 21
8.164023
 31
0.0
  0
LINE
  5
1F9
100
AcDbEntity
  8
CK_LEVEL_1
  6
CONTINUOUS
 62
     2
100
AcDbLine
 10
5.589164
 20
8.164024
 30
0.0
 11
5.568565
 21
8.129693
 31
0.0
  0
LINE
  5
1FA
100
AcDbEntity
  8
CK_LEVEL_1
  6
CONTINUOUS
 62
     2
100
AcDbLine
 10
5.568565
 20
8.129693
 30
0.0
 11
5.554833
 21
8.102227
 31
0.0
  0
LINE
  5
1FB
100
AcDbEntity
  8
CK_LEVEL_1
  6
CONTINUOUS
 62
     2
100
AcDbLine
 10
5.554833
 20
8.102227
 30
0.0
 11
5.561699
 21
8.088495
 31
0.0
  0
LINE
  5
1FC
100
AcDbEntity
  8
CK_LEVEL_1
  6
CONTINUOUS
 62
     2
100
AcDbLine
 10
5.561699
 20
8.088495
 30
0.0
 11
5.589164
 21
8.074762
 31
0.0
  0
LINE
  5
1FD
100
AcDbEntity
  8
CK_LEVEL_1
  6
CONTINUOUS
 62
     2
100
AcDbLine
 10
5.589164
 20
8.074762
 30
0.0
 11
5.637228
 21
8.040431
 31
0.0
  0
LINE
  5
1FE
100
AcDbEntity
  8
CK_LEVEL_1
  6
CONTINUOUS
 62
     2
100
AcDbLine
 10
5.637228
 20
8.040431
 30
0.0
 11
5.630362
 21
8.006099
 31
0.0
  0
LINE
  5
1FF
100
AcDbEntity
  8
CK_LEVEL_1
  6
CONTINUOUS
 62
     2
100
AcDbLine
 10
5.630362
 20
8.006099
 30
0.0
 11
5.644095
 21
7.978634
 31
0.0
  0
LINE
  5
200
100
AcDbEntity
  8
CK_LEVEL_1
  6
CONTINUOUS
 62
     2
100
AcDbLine
 10
5.644095
 20
7.978634
 30
0.0
 11
5.678426
 21
7.937436
 31
0.0
  0
LINE
  5
201
100
AcDbEntity
  8
CK_LEVEL_1
  6
CONTINUOUS
 62
     2
100
AcDbLine
 10
5.678426
 20
7.937436
 30
0.0
 11
5.692159
 21
7.916838
 31
0.0
  0
LINE
  5
202
100
AcDbEntity
  8
CK_LEVEL_1
  6
CONTINUOUS
 62
     2
100
AcDbLine
 10
5.692159
 20
7.916838
 30
0.0
 11
5.699025
 21
7.903105
 31
0.0
  0
LINE
  5
203
100
AcDbEntity
  8
CK_LEVEL_1
  6
CONTINUOUS
 62
     2
100
AcDbLine
 10
5.699025
 20
7.903105
 30
0.0
 11
5.699025
 21
7.87564
 31
0.0
  0
LINE
  5
204
100
AcDbEntity
  8
CK_LEVEL_1
  6
CONTINUOUS
 62
     2
100
AcDbLine
 10
5.699025
 20
7.87564
 30
0.0
 11
5.692159
 21
7.841308
 31
0.0
  0
LINE
  5
205
100
AcDbEntity
  8
CK_LEVEL_1
  6
CONTINUOUS
 62
     2
100
AcDbLine
 10
5.692159
 20
7.841308
 30
0.0
 11
5.699025
 21
7.806977
 31
0.0
  0
LINE
  5
206
100
AcDbEntity
  8
CK_LEVEL_1
  6
CONTINUOUS
 62
     2
100
AcDbLine
 10
5.699025
 20
7.806977
 30
0.0
 11
5.72649
 21
7.772645
 31
0.0
  0
LINE
  5
207
100
AcDbEntity
  8
CK_LEVEL_1
  6
CONTINUOUS
 62
     2
100
AcDbLine
 10
5.72649
 20
7.772645
 30
0.0
 11
5.753955
 21
7.758913
 31
0.0
  0
LINE
  5
208
100
AcDbEntity
  8
CK_LEVEL_1
  6
CONTINUOUS
 62
     2
100
AcDbLine
 10
5.753955
 20
7.758913
 30
0.0
 11
5.795153
 21
7.752046
 31
0.0
  0
LINE
  5
209
100
AcDbEntity
  8
CK_LEVEL_1
  6
CONTINUOUS
 62
     2
100
AcDbLine
 10
5.795153
 20
7.752046
 30
0.0
 11
5.884415
 21
7.758913
 31
0.0
  0
LINE
  5
20A
100
AcDbEntity
  8
CK_LEVEL_1
  6
CONTINUOUS
 62
     2
100
AcDbLine
 10
5.884415
 20
7.758913
 30
0.0
 11
5.994276
 21
7.786378
 31
0.0
  0
LINE
  5
20B
100
AcDbEntity
  8
CK_LEVEL_1
  6
CONTINUOUS
 62
     2
100
AcDbLine
 10
5.994276
 20
7.786378
 30
0.0
 11
6.09727
 21
7.834442
 31
0.0
  0
LINE
  5
20C
100
AcDbEntity
  8
CK_LEVEL_1
  6
CONTINUOUS
 62
     2
100
AcDbLine
 10
6.09727
 20
7.834442
 30
0.0
 11
6.090404
 21
7.806977
 31
0.0
  0
LINE
  5
20D
100
AcDbEntity
  8
CK_LEVEL_1
  6
CONTINUOUS
 62
     2
100
AcDbLine
 10
6.090404
 20
7.806977
 30
0.0
 11
6.090404
 21
7.786378
 31
0.0
  0
LINE
  5
20E
100
AcDbEntity
  8
CK_LEVEL_1
  6
CONTINUOUS
 62
     2
100
AcDbLine
 10
6.090404
 20
7.786378
 30
0.0
 11
6.09727
 21
7.74518
 31
0.0
  0
LINE
  5
20F
100
AcDbEntity
  8
CK_LEVEL_1
  6
CONTINUOUS
 62
     2
100
AcDbLine
 10
6.09727
 20
7.74518
 30
0.0
 11
6.124735
 21
7.710849
 31
0.0
  0
LINE
  5
210
100
AcDbEntity
  8
CK_LEVEL_1
  6
CONTINUOUS
 62
     2
100
AcDbLine
 10
6.124735
 20
7.710849
 30
0.0
 11
6.248328
 21
7.621587
 31
0.0
  0
LINE
  5
211
100
AcDbEntity
  8
CK_LEVEL_1
  6
CONTINUOUS
 62
     2
100
AcDbLine
 10
6.248328
 20
7.621587
 30
0.0
 11
6.28266
 21
7.594122
 31
0.0
  0
LINE
  5
212
100
AcDbEntity
  8
CK_LEVEL_1
  6
CONTINUOUS
 62
     2
100
AcDbLine
 10
6.28266
 20
7.594122
 30
0.0
 11
6.310125
 21
7.566656
 31
0.0
  0
LINE
  5
213
100
AcDbEntity
  8
CK_LEVEL_1
  6
CONTINUOUS
 62
     2
100
AcDbLine
 10
6.303259
 20
7.573523
 30
0.0
 11
6.310125
 21
7.566656
 31
0.0
  0
LINE
  5
214
100
AcDbEntity
  8
CK_LEVEL_1
  6
CONTINUOUS
 62
     2
100
AcDbLine
 10
5.026128
 20
6.962423
 30
0.0
 11
4.868203
 21
7.044818
 31
0.0
  0
LINE
  5
215
100
AcDbEntity
  8
CK_LEVEL_1
  6
CONTINUOUS
 62
     2
100
AcDbLine
 10
4.868203
 20
7.044818
 30
0.0
 11
4.696546
 21
7.113481
 31
0.0
  0
LINE
  5
216
100
AcDbEntity
  8
CK_LEVEL_1
  6
CONTINUOUS
 62
     2
100
AcDbLine
 10
4.696546
 20
7.113481
 30
0.0
 11
4.524889
 21
7.175278
 31
0.0
  0
LINE
  5
217
100
AcDbEntity
  8
CK_LEVEL_1
  6
CONTINUOUS
 62
     2
100
AcDbLine
 10
4.524889
 20
7.175278
 30
0.0
 11
4.456226
 21
7.195877
 31
0.0
  0
LINE
  5
218
100
AcDbEntity
  8
CK_LEVEL_1
  6
CONTINUOUS
 62
     2
100
AcDbLine
 10
4.456226
 20
7.195877
 30
0.0
 11
4.305167
 21
7.230208
 31
0.0
  0
LINE
  5
219
100
AcDbEntity
  8
CK_LEVEL_1
  6
CONTINUOUS
 62
     2
100
AcDbLine
 10
4.305167
 20
7.230208
 30
0.0
 11
4.229638
 21
7.257673
 31
0.0
  0
LINE
  5
21A
100
AcDbEntity
  8
CK_LEVEL_1
  6
CONTINUOUS
 62
     2
100
AcDbLine
 10
4.229638
 20
7.257673
 30
0.0
 11
4.174708
 21
7.292005
 31
0.0
  0
LINE
  5
21B
100
AcDbEntity
  8
CK_LEVEL_1
  6
CONTINUOUS
 62
     2
100
AcDbLine
 10
4.174708
 20
7.292005
 30
0.0
 11
4.13351
 21
7.326336
 31
0.0
  0
LINE
  5
21C
100
AcDbEntity
  8
CK_LEVEL_1
  6
CONTINUOUS
 62
     2
100
AcDbLine
 10
4.13351
 20
7.326336
 30
0.0
 11
4.099178
 21
7.360668
 31
0.0
  0
LINE
  5
21D
100
AcDbEntity
  8
CK_LEVEL_1
  6
CONTINUOUS
 62
     2
100
AcDbLine
 10
4.099178
 20
7.360668
 30
0.0
 11
4.051114
 21
7.401865
 31
0.0
  0
LINE
  5
21E
100
AcDbEntity
  8
CK_LEVEL_1
  6
CONTINUOUS
 62
     2
100
AcDbLine
 10
4.051114
 20
7.401865
 30
0.0
 11
4.00305
 21
7.436197
 31
0.0
  0
LINE
  5
21F
100
AcDbEntity
  8
CK_LEVEL_1
  6
CONTINUOUS
 62
     2
100
AcDbLine
 10
4.00305
 20
7.436197
 30
0.0
 11
3.975585
 21
7.463662
 31
0.0
  0
LINE
  5
220
100
AcDbEntity
  8
CK_LEVEL_1
  6
CONTINUOUS
 62
     2
100
AcDbLine
 10
3.975585
 20
7.463662
 30
0.0
 11
3.934387
 21
7.511726
 31
0.0
  0
LINE
  5
221
100
AcDbEntity
  8
CK_LEVEL_1
  6
CONTINUOUS
 62
     2
100
AcDbLine
 10
3.934387
 20
7.511726
 30
0.0
 11
3.913788
 21
7.546058
 31
0.0
  0
LINE
  5
222
100
AcDbEntity
  8
CK_LEVEL_1
  6
CONTINUOUS
 62
     2
100
AcDbLine
 10
3.913788
 20
7.546058
 30
0.0
 11
3.906922
 21
7.587255
 31
0.0
  0
LINE
  5
223
100
AcDbEntity
  8
CK_LEVEL_1
  6
CONTINUOUS
 62
     2
100
AcDbLine
 10
3.906922
 20
7.587255
 30
0.0
 11
3.893189
 21
7.635319
 31
0.0
  0
LINE
  5
224
100
AcDbEntity
  8
CK_LEVEL_1
  6
CONTINUOUS
 62
     2
100
AcDbLine
 10
3.893189
 20
7.635319
 30
0.0
 11
3.879457
 21
7.697116
 31
0.0
  0
LINE
  5
225
100
AcDbEntity
  8
CK_LEVEL_1
  6
CONTINUOUS
 62
     2
100
AcDbLine
 10
3.879457
 20
7.697116
 30
0.0
 11
3.865724
 21
7.74518
 31
0.0
  0
LINE
  5
226
100
AcDbEntity
  8
CK_LEVEL_1
  6
CONTINUOUS
 62
     2
100
AcDbLine
 10
3.865724
 20
7.74518
 30
0.0
 11
3.858858
 21
7.786378
 31
0.0
  0
LINE
  5
227
100
AcDbEntity
  8
CK_LEVEL_1
  6
CONTINUOUS
 62
     2
100
AcDbLine
 10
3.858858
 20
7.786378
 30
0.0
 11
3.845125
 21
7.848175
 31
0.0
  0
LINE
  5
228
100
AcDbEntity
  8
CK_LEVEL_1
  6
CONTINUOUS
 62
     2
100
AcDbLine
 10
3.845125
 20
7.848175
 30
0.0
 11
3.824526
 21
7.889372
 31
0.0
  0
LINE
  5
229
100
AcDbEntity
  8
CK_LEVEL_1
  6
CONTINUOUS
 62
     2
100
AcDbLine
 10
3.824526
 20
7.889372
 30
0.0
 11
3.797061
 21
7.916838
 31
0.0
  0
LINE
  5
22A
100
AcDbEntity
  8
CK_LEVEL_1
  6
CONTINUOUS
 62
     2
100
AcDbLine
 10
3.797061
 20
7.916838
 30
0.0
 11
3.776462
 21
7.944303
 31
0.0
  0
LINE
  5
22B
100
AcDbEntity
  8
CK_LEVEL_1
  6
CONTINUOUS
 62
     2
100
AcDbLine
 10
3.776462
 20
7.944303
 30
0.0
 11
3.755864
 21
8.006099
 31
0.0
  0
LINE
  5
22C
100
AcDbEntity
  8
CK_LEVEL_1
  6
CONTINUOUS
 62
     2
100
AcDbLine
 10
3.755864
 20
8.006099
 30
0.0
 11
3.721532
 21
8.061029
 31
0.0
  0
LINE
  5
22D
100
AcDbEntity
  8
CK_LEVEL_1
  6
CONTINUOUS
 62
     2
100
AcDbLine
 10
3.721532
 20
8.06103
 30
0.0
 11
3.707799
 21
8.074762
 31
0.0
  0
LINE
  5
22E
100
AcDbEntity
  8
CK_LEVEL_1
  6
CONTINUOUS
 62
     2
100
AcDbLine
 10
3.707799
 20
8.074762
 30
0.0
 11
3.680334
 21
8.109095
 31
0.0
  0
LINE
  5
22F
100
AcDbEntity
  8
CK_LEVEL_1
  6
CONTINUOUS
 62
     2
100
AcDbLine
 10
3.680334
 20
8.109094
 30
0.0
 11
3.611671
 21
8.177756
 31
0.0
  0
LINE
  5
230
100
AcDbEntity
  8
CK_LEVEL_1
  6
CONTINUOUS
 62
     2
100
AcDbLine
 10
3.611671
 20
8.177757
 30
0.0
 11
3.536142
 21
8.24642
 31
0.0
  0
LINE
  5
231
100
AcDbEntity
  8
CK_LEVEL_1
  6
CONTINUOUS
 62
     2
100
AcDbLine
 10
3.536142
 20
8.24642
 30
0.0
 11
3.508677
 21
8.267019
 31
0.0
  0
LINE
  5
232
100
AcDbEntity
  8
CK_LEVEL_1
  6
CONTINUOUS
 62
     2
100
AcDbLine
 10
3.508677
 20
8.267019
 30
0.0
 11
3.494944
 21
8.273886
 31
0.0
  0
LINE
  5
233
100
AcDbEntity
  8
CK_LEVEL_1
  6
CONTINUOUS
 62
     2
100
AcDbLine
 10
3.494944
 20
8.273885
 30
0.0
 11
3.282089
 21
8.273885
 31
0.0
  0
LINE
  5
234
100
AcDbEntity
  8
CK_LEVEL_1
  6
CONTINUOUS
 62
     2
100
AcDbLine
 10
3.282089
 20
8.273885
 30
0.0
 11
3.234025
 21
8.267018
 31
0.0
  0
LINE
  5
235
100
AcDbEntity
  8
CK_LEVEL_1
  6
CONTINUOUS
 62
     2
100
AcDbLine
 10
3.234025
 20
8.267019
 30
0.0
 11
3.213426
 21
8.273886
 31
0.0
  0
LINE
  5
236
100
AcDbEntity
  8
CK_LEVEL_1
  6
CONTINUOUS
 62
     2
100
AcDbLine
 10
3.213426
 20
8.273885
 30
0.0
 11
3.199694
 21
8.280751
 31
0.0
  0
LINE
  5
237
100
AcDbEntity
  8
CK_LEVEL_1
  6
CONTINUOUS
 62
     2
100
AcDbLine
 10
3.199694
 20
8.280751
 30
0.0
 11
3.179095
 21
8.308216
 31
0.0
  0
LINE
  5
238
100
AcDbEntity
  8
CK_LEVEL_1
  6
CONTINUOUS
 62
     2
100
AcDbLine
 10
3.179095
 20
8.308216
 30
0.0
 11
3.144763
 21
8.342548
 31
0.0
  0
LINE
  5
239
100
AcDbEntity
  8
CK_LEVEL_1
  6
CONTINUOUS
 62
     2
100
AcDbLine
 10
3.144763
 20
8.342548
 30
0.0
 11
3.110432
 21
8.342548
 31
0.0
  0
LINE
  5
23A
100
AcDbEntity
  8
CK_LEVEL_1
  6
CONTINUOUS
 62
     2
100
AcDbLine
 10
3.110432
 20
8.342548
 30
0.0
 11
3.082967
 21
8.328815
 31
0.0
  0
LINE
  5
23B
100
AcDbEntity
  8
CK_LEVEL_1
  6
CONTINUOUS
 62
     2
100
AcDbLine
 10
3.082967
 20
8.328815
 30
0.0
 11
3.069234
 21
8.287618
 31
0.0
  0
LINE
  5
23C
100
AcDbEntity
  8
CK_LEVEL_1
  6
CONTINUOUS
 62
     2
100
AcDbLine
 10
3.069234
 20
8.287617
 30
0.0
 11
3.0761
 21
8.260152
 31
0.0
  0
LINE
  5
23D
100
AcDbEntity
  8
CK_LEVEL_1
  6
CONTINUOUS
 62
     2
100
AcDbLine
 10
3.0761
 20
8.260152
 30
0.0
 11
3.096699
 21
8.225821
 31
0.0
  0
LINE
  5
23E
100
AcDbEntity
  8
CK_LEVEL_1
  6
CONTINUOUS
 62
     2
100
AcDbLine
 10
3.096699
 20
8.225821
 30
0.0
 11
3.069234
 21
8.191488
 31
0.0
  0
LINE
  5
23F
100
AcDbEntity
  8
CK_LEVEL_1
  6
CONTINUOUS
 62
     2
100
AcDbLine
 10
3.069234
 20
8.191489
 30
0.0
 11
3.069234
 21
8.164024
 31
0.0
  0
LINE
  5
240
100
AcDbEntity
  8
CK_LEVEL_1
  6
CONTINUOUS
 62
     2
100
AcDbLine
 10
3.069234
 20
8.164024
 30
0.0
 11
3.089833
 21
8.136559
 31
0.0
  0
LINE
  5
241
100
AcDbEntity
  8
CK_LEVEL_1
  6
CONTINUOUS
 62
     2
100
AcDbLine
 10
3.089833
 20
8.136559
 30
0.0
 11
3.15163
 21
8.088494
 31
0.0
  0
LINE
  5
242
100
AcDbEntity
  8
CK_LEVEL_1
  6
CONTINUOUS
 62
     2
100
AcDbLine
 10
3.15163
 20
8.088495
 30
0.0
 11
3.172229
 21
8.067896
 31
0.0
  0
LINE
  5
243
100
AcDbEntity
  8
CK_LEVEL_1
  6
CONTINUOUS
 62
     2
100
AcDbLine
 10
3.172229
 20
8.067896
 30
0.0
 11
3.185961
 21
8.061029
 31
0.0
  0
LINE
  5
244
100
AcDbEntity
  8
CK_LEVEL_1
  6
CONTINUOUS
 62
     2
100
AcDbLine
 10
3.185961
 20
8.06103
 30
0.0
 11
3.220293
 21
8.026698
 31
0.0
  0
LINE
  5
245
100
AcDbEntity
  8
CK_LEVEL_1
  6
CONTINUOUS
 62
     2
100
AcDbLine
 10
3.220293
 20
8.026698
 30
0.0
 11
3.240891
 21
7.999233
 31
0.0
  0
LINE
  5
246
100
AcDbEntity
  8
CK_LEVEL_1
  6
CONTINUOUS
 62
     2
100
AcDbLine
 10
3.240891
 20
7.999233
 30
0.0
 11
3.20656
 21
7.999233
 31
0.0
  0
LINE
  5
247
100
AcDbEntity
  8
CK_LEVEL_1
  6
CONTINUOUS
 62
     2
100
AcDbLine
 10
3.20656
 20
7.999233
 30
0.0
 11
3.179095
 21
7.978634
 31
0.0
  0
LINE
  5
248
100
AcDbEntity
  8
CK_LEVEL_1
  6
CONTINUOUS
 62
     2
100
AcDbLine
 10
3.179095
 20
7.978634
 30
0.0
 11
3.158496
 21
7.958035
 31
0.0
  0
LINE
  5
249
100
AcDbEntity
  8
CK_LEVEL_1
  6
CONTINUOUS
 62
     2
100
AcDbLine
 10
3.158496
 20
7.958035
 30
0.0
 11
3.15163
 21
7.93057
 31
0.0
  0
LINE
  5
24A
100
AcDbEntity
  8
CK_LEVEL_1
  6
CONTINUOUS
 62
     2
100
AcDbLine
 10
3.15163
 20
7.93057
 30
0.0
 11
3.144763
 21
7.889372
 31
0.0
  0
LINE
  5
24B
100
AcDbEntity
  8
CK_LEVEL_1
  6
CONTINUOUS
 62
     2
100
AcDbLine
 10
3.144763
 20
7.889372
 30
0.0
 11
3.144763
 21
7.758913
 31
0.0
  0
LINE
  5
24C
100
AcDbEntity
  8
CK_LEVEL_1
  6
CONTINUOUS
 62
     2
100
AcDbLine
 10
3.144763
 20
7.758913
 30
0.0
 11
3.15163
 21
7.717715
 31
0.0
  0
LINE
  5
24D
100
AcDbEntity
  8
CK_LEVEL_1
  6
CONTINUOUS
 62
     2
100
AcDbLine
 10
3.15163
 20
7.717715
 30
0.0
 11
3.20656
 21
7.642186
 31
0.0
  0
LINE
  5
24E
100
AcDbEntity
  8
CK_LEVEL_1
  6
CONTINUOUS
 62
     2
100
AcDbLine
 10
3.20656
 20
7.642186
 30
0.0
 11
3.234025
 21
7.607854
 31
0.0
  0
LINE
  5
24F
100
AcDbEntity
  8
CK_LEVEL_1
  6
CONTINUOUS
 62
     2
100
AcDbLine
 10
3.234025
 20
7.607854
 30
0.0
 11
3.240891
 21
7.580389
 31
0.0
  0
LINE
  5
250
100
AcDbEntity
  8
CK_LEVEL_1
  6
CONTINUOUS
 62
     2
100
AcDbLine
 10
3.240891
 20
7.580389
 30
0.0
 11
3.275223
 21
7.566656
 31
0.0
  0
LINE
  5
251
100
AcDbEntity
  8
CK_LEVEL_1
  6
CONTINUOUS
 62
     2
100
AcDbLine
 10
3.275223
 20
7.566656
 30
0.0
 11
3.302688
 21
7.566656
 31
0.0
  0
LINE
  5
252
100
AcDbEntity
  8
CK_LEVEL_1
  6
CONTINUOUS
 62
     2
100
AcDbLine
 10
3.302688
 20
7.566656
 30
0.0
 11
3.330153
 21
7.587255
 31
0.0
  0
LINE
  5
253
100
AcDbEntity
  8
CK_LEVEL_1
  6
CONTINUOUS
 62
     2
100
AcDbLine
 10
3.330153
 20
7.587255
 30
0.0
 11
3.33702
 21
7.614721
 31
0.0
  0
LINE
  5
254
100
AcDbEntity
  8
CK_LEVEL_1
  6
CONTINUOUS
 62
     2
100
AcDbLine
 10
3.33702
 20
7.614721
 30
0.0
 11
3.330153
 21
7.662785
 31
0.0
  0
LINE
  5
255
100
AcDbEntity
  8
CK_LEVEL_1
  6
CONTINUOUS
 62
     2
100
AcDbLine
 10
3.330153
 20
7.662785
 30
0.0
 11
3.323287
 21
7.69025
 31
0.0
  0
LINE
  5
256
100
AcDbEntity
  8
CK_LEVEL_1
  6
CONTINUOUS
 62
     2
100
AcDbLine
 10
3.323287
 20
7.69025
 30
0.0
 11
3.330153
 21
7.703982
 31
0.0
  0
LINE
  5
257
100
AcDbEntity
  8
CK_LEVEL_1
  6
CONTINUOUS
 62
     2
100
AcDbLine
 10
3.330153
 20
7.703982
 30
0.0
 11
3.33702
 21
7.683383
 31
0.0
  0
LINE
  5
258
100
AcDbEntity
  8
CK_LEVEL_1
  6
CONTINUOUS
 62
     2
100
AcDbLine
 10
3.33702
 20
7.683383
 30
0.0
 11
3.343886
 21
7.669651
 31
0.0
  0
LINE
  5
259
100
AcDbEntity
  8
CK_LEVEL_1
  6
CONTINUOUS
 62
     2
100
AcDbLine
 10
3.343886
 20
7.669651
 30
0.0
 11
3.357618
 21
7.655918
 31
0.0
  0
LINE
  5
25A
100
AcDbEntity
  8
CK_LEVEL_1
  6
CONTINUOUS
 62
     2
100
AcDbLine
 10
3.357618
 20
7.655918
 30
0.0
 11
3.371351
 21
7.649052
 31
0.0
  0
LINE
  5
25B
100
AcDbEntity
  8
CK_LEVEL_1
  6
CONTINUOUS
 62
     2
100
AcDbLine
 10
3.371351
 20
7.649052
 30
0.0
 11
3.398816
 21
7.655918
 31
0.0
  0
LINE
  5
25C
100
AcDbEntity
  8
CK_LEVEL_1
  6
CONTINUOUS
 62
     2
100
AcDbLine
 10
3.398816
 20
7.655918
 30
0.0
 11
3.405683
 21
7.552924
 31
0.0
  0
LINE
  5
25D
100
AcDbEntity
  8
CK_LEVEL_1
  6
CONTINUOUS
 62
     2
100
AcDbLine
 10
3.405683
 20
7.552924
 30
0.0
 11
3.426281
 21
7.470528
 31
0.0
  0
LINE
  5
25E
100
AcDbEntity
  8
CK_LEVEL_1
  6
CONTINUOUS
 62
     2
100
AcDbLine
 10
3.426281
 20
7.470528
 30
0.0
 11
3.440014
 21
7.436197
 31
0.0
  0
LINE
  5
25F
100
AcDbEntity
  8
CK_LEVEL_1
  6
CONTINUOUS
 62
     2
100
AcDbLine
 10
3.440014
 20
7.436197
 30
0.0
 11
3.453747
 21
7.415598
 31
0.0
  0
LINE
  5
260
100
AcDbEntity
  8
CK_LEVEL_1
  6
CONTINUOUS
 62
     2
100
AcDbLine
 10
3.453747
 20
7.415598
 30
0.0
 11
3.52241
 21
7.346935
 31
0.0
  0
LINE
  5
261
100
AcDbEntity
  8
CK_LEVEL_1
  6
CONTINUOUS
 62
     2
100
AcDbLine
 10
3.52241
 20
7.346935
 30
0.0
 11
3.563607
 21
7.31947
 31
0.0
  0
LINE
  5
262
100
AcDbEntity
  8
CK_LEVEL_1
  6
CONTINUOUS
 62
     2
100
AcDbLine
 10
3.563607
 20
7.31947
 30
0.0
 11
3.611671
 21
7.305737
 31
0.0
  0
LINE
  5
263
100
AcDbEntity
  8
CK_LEVEL_1
  6
CONTINUOUS
 62
     2
100
AcDbLine
 10
3.611671
 20
7.305737
 30
0.0
 11
3.673468
 21
7.257673
 31
0.0
  0
LINE
  5
264
100
AcDbEntity
  8
CK_LEVEL_1
  6
CONTINUOUS
 62
     2
100
AcDbLine
 10
3.673468
 20
7.257673
 30
0.0
 11
3.742131
 21
7.195877
 31
0.0
  0
LINE
  5
265
100
AcDbEntity
  8
CK_LEVEL_1
  6
CONTINUOUS
 62
     2
100
AcDbLine
 10
3.742131
 20
7.195877
 30
0.0
 11
3.810794
 21
7.127214
 31
0.0
  0
LINE
  5
266
100
AcDbEntity
  8
CK_LEVEL_1
  6
CONTINUOUS
 62
     2
100
AcDbLine
 10
3.810794
 20
7.127214
 30
0.0
 11
3.865724
 21
7.065417
 31
0.0
  0
LINE
  5
267
100
AcDbEntity
  8
CK_LEVEL_1
  6
CONTINUOUS
 62
     2
100
AcDbLine
 10
3.865724
 20
7.065417
 30
0.0
 11
3.906922
 21
7.024219
 31
0.0
  0
LINE
  5
268
100
AcDbEntity
  8
CK_LEVEL_1
  6
CONTINUOUS
 62
     2
100
AcDbLine
 10
3.906922
 20
7.024219
 30
0.0
 11
3.94812
 21
6.989888
 31
0.0
  0
LINE
  5
269
100
AcDbEntity
  8
CK_LEVEL_1
  6
CONTINUOUS
 62
     2
100
AcDbLine
 10
3.94812
 20
6.989888
 30
0.0
 11
3.989318
 21
6.94869
 31
0.0
  0
LINE
  5
26A
100
AcDbEntity
  8
CK_LEVEL_1
  6
CONTINUOUS
 62
     2
100
AcDbLine
 10
3.989318
 20
6.94869
 30
0.0
 11
4.099178
 21
6.845696
 31
0.0
  0
LINE
  5
26B
100
AcDbEntity
  8
CK_LEVEL_1
  6
CONTINUOUS
 62
     2
100
AcDbLine
 10
4.099178
 20
6.845696
 30
0.0
 11
4.360097
 21
6.625974
 31
0.0
  0
LINE
  5
26C
100
AcDbEntity
  8
CK_LEVEL_1
  6
CONTINUOUS
 62
     2
100
AcDbLine
 10
4.360097
 20
6.625974
 30
0.0
 11
4.490557
 21
6.529846
 31
0.0
  0
LINE
  5
26D
100
AcDbEntity
  8
CK_LEVEL_1
  6
CONTINUOUS
 62
     2
100
AcDbLine
 10
4.490557
 20
6.529846
 30
0.0
 11
4.607284
 21
6.44745
 31
0.0
  0
LINE
  5
26E
100
AcDbEntity
  8
CK_LEVEL_1
  6
CONTINUOUS
 62
     2
100
AcDbLine
 10
4.607284
 20
6.44745
 30
0.0
 11
4.703412
 21
6.399386
 31
0.0
  0
LINE
  5
26F
100
AcDbEntity
  8
CK_LEVEL_1
  6
CONTINUOUS
 62
     2
100
AcDbLine
 10
4.703412
 20
6.399386
 30
0.0
 11
4.696546
 21
6.406253
 31
0.0
  0
LINE
  5
270
100
AcDbEntity
  8
CK_LEVEL_1
  6
CONTINUOUS
 62
     2
100
AcDbLine
 10
6.172799
 20
7.3744
 30
0.0
 11
6.200264
 21
7.346935
 31
0.0
  0
LINE
  5
271
100
AcDbEntity
  8
CK_LEVEL_1
  6
CONTINUOUS
 62
     2
100
AcDbLine
 10
6.200264
 20
7.346935
 30
0.0
 11
6.241462
 21
7.312604
 31
0.0
  0
LINE
  5
272
100
AcDbEntity
  8
CK_LEVEL_1
  6
CONTINUOUS
 62
     2
100
AcDbLine
 10
6.241462
 20
7.312604
 30
0.0
 11
6.28266
 21
7.285138
 31
0.0
  0
LINE
  5
273
100
AcDbEntity
  8
CK_LEVEL_1
  6
CONTINUOUS
 62
     2
100
AcDbLine
 10
6.28266
 20
7.285138
 30
0.0
 11
6.310125
 21
7.271406
 31
0.0
  0
LINE
  5
274
100
AcDbEntity
  8
CK_LEVEL_1
  6
CONTINUOUS
 62
     2
100
AcDbLine
 10
6.310125
 20
7.271406
 30
0.0
 11
6.296393
 21
7.353801
 31
0.0
  0
LINE
  5
275
100
AcDbEntity
  8
CK_LEVEL_1
  6
CONTINUOUS
 62
     2
100
AcDbLine
 10
6.296393
 20
7.353801
 30
0.0
 11
6.296393
 21
7.401865
 31
0.0
  0
LINE
  5
276
100
AcDbEntity
  8
CK_LEVEL_1
  6
CONTINUOUS
 62
     2
100
AcDbLine
 10
6.296393
 20
7.401865
 30
0.0
 11
6.303259
 21
7.422464
 31
0.0
  0
LINE
  5
277
100
AcDbEntity
  8
CK_LEVEL_1
  6
CONTINUOUS
 62
     2
100
AcDbLine
 10
6.303259
 20
7.422464
 30
0.0
 11
6.316991
 21
7.449929
 31
0.0
  0
LINE
  5
278
100
AcDbEntity
  8
CK_LEVEL_1
  6
CONTINUOUS
 62
     2
100
AcDbLine
 10
6.316991
 20
7.449929
 30
0.0
 11
6.330724
 21
7.470528
 31
0.0
  0
LINE
  5
279
100
AcDbEntity
  8
CK_LEVEL_1
  6
CONTINUOUS
 62
     2
100
AcDbLine
 10
6.330724
 20
7.470528
 30
0.0
 11
6.330724
 21
7.518592
 31
0.0
  0
LINE
  5
27A
100
AcDbEntity
  8
CK_LEVEL_1
  6
CONTINUOUS
 62
     2
100
AcDbLine
 10
6.330724
 20
7.518592
 30
0.0
 11
6.33759
 21
7.566656
 31
0.0
  0
LINE
  5
27B
100
AcDbEntity
  8
CK_LEVEL_1
  6
CONTINUOUS
 62
     2
100
AcDbLine
 10
6.591643
 20
7.793244
 30
0.0
 11
6.571044
 21
7.765779
 31
0.0
  0
LINE
  5
27C
100
AcDbEntity
  8
CK_LEVEL_1
  6
CONTINUOUS
 62
     2
100
AcDbLine
 10
6.571044
 20
7.765779
 30
0.0
 11
6.543579
 21
7.724581
 31
0.0
  0
LINE
  5
27D
100
AcDbEntity
  8
CK_LEVEL_1
  6
CONTINUOUS
 62
     2
100
AcDbLine
 10
6.543579
 20
7.724581
 30
0.0
 11
6.481782
 21
7.614721
 31
0.0
  0
LINE
  5
27E
100
AcDbEntity
  8
CK_LEVEL_1
  6
CONTINUOUS
 62
     2
100
AcDbLine
 10
6.481782
 20
7.614721
 30
0.0
 11
6.419986
 21
7.518592
 31
0.0
  0
LINE
  5
27F
100
AcDbEntity
  8
CK_LEVEL_1
  6
CONTINUOUS
 62
     2
100
AcDbLine
 10
6.419986
 20
7.518592
 30
0.0
 11
6.399387
 21
7.477395
 31
0.0
  0
LINE
  5
280
100
AcDbEntity
  8
CK_LEVEL_1
  6
CONTINUOUS
 62
     2
100
AcDbLine
 10
6.399387
 20
7.477395
 30
0.0
 11
6.385654
 21
7.456796
 31
0.0
  0
LINE
  5
281
100
AcDbEntity
  8
CK_LEVEL_1
  6
CONTINUOUS
 62
     2
100
AcDbLine
 10
6.385654
 20
7.456796
 30
0.0
 11
6.433718
 21
7.326336
 31
0.0
  0
LINE
  5
282
100
AcDbEntity
  8
CK_LEVEL_1
  6
CONTINUOUS
 62
     2
100
AcDbLine
 10
6.433718
 20
7.326336
 30
0.0
 11
6.447451
 21
7.26454
 31
0.0
  0
LINE
  5
283
100
AcDbEntity
  8
CK_LEVEL_1
  6
CONTINUOUS
 62
     2
100
AcDbLine
 10
6.447451
 20
7.26454
 30
0.0
 11
6.454317
 21
7.216475
 31
0.0
  0
LINE
  5
284
100
AcDbEntity
  8
CK_LEVEL_1
  6
CONTINUOUS
 62
     2
100
AcDbLine
 10
6.454317
 20
7.216475
 30
0.0
 11
6.378788
 21
7.237074
 31
0.0
  0
LINE
  5
285
100
AcDbEntity
  8
CK_LEVEL_1
  6
CONTINUOUS
 62
     2
100
AcDbLine
 10
6.378788
 20
7.237074
 30
0.0
 11
6.344457
 21
7.237074
 31
0.0
  0
LINE
  5
286
100
AcDbEntity
  8
CK_LEVEL_1
  6
CONTINUOUS
 62
     2
100
AcDbLine
 10
6.344457
 20
7.237074
 30
0.0
 11
6.330724
 21
7.223342
 31
0.0
  0
LINE
  5
287
100
AcDbEntity
  8
CK_LEVEL_1
  6
CONTINUOUS
 62
     2
100
AcDbLine
 10
6.330724
 20
7.223342
 30
0.0
 11
6.330724
 21
7.154679
 31
0.0
  0
LINE
  5
288
100
AcDbEntity
  8
CK_LEVEL_1
  6
CONTINUOUS
 62
     2
100
AcDbLine
 10
6.330724
 20
7.154679
 30
0.0
 11
6.33759
 21
7.031086
 31
0.0
  0
LINE
  5
289
100
AcDbEntity
  8
CK_LEVEL_1
  6
CONTINUOUS
 62
     2
100
AcDbLine
 10
6.33759
 20
7.031086
 30
0.0
 11
6.33759
 21
6.399386
 31
0.0
  0
LINE
  5
28A
100
AcDbEntity
  8
CK_LEVEL_1
  6
CONTINUOUS
 62
     2
100
AcDbLine
 10
6.33759
 20
6.399386
 30
0.0
 11
6.344457
 21
6.33759
 31
0.0
  0
LINE
  5
28B
100
AcDbEntity
  8
CK_LEVEL_1
  6
CONTINUOUS
 62
     2
100
AcDbLine
 10
6.344457
 20
6.33759
 30
0.0
 11
6.351323
 21
6.296392
 31
0.0
  0
LINE
  5
28C
100
AcDbEntity
  8
CK_LEVEL_1
  6
CONTINUOUS
 62
     2
100
AcDbLine
 10
6.351323
 20
6.296392
 30
0.0
 11
6.316991
 21
6.351322
 31
0.0
  0
LINE
  5
28D
100
AcDbEntity
  8
CK_LEVEL_1
  6
CONTINUOUS
 62
     2
100
AcDbLine
 10
6.316991
 20
6.351322
 30
0.0
 11
6.28266
 21
6.433718
 31
0.0
  0
LINE
  5
28E
100
AcDbEntity
  8
CK_LEVEL_1
  6
CONTINUOUS
 62
     2
100
AcDbLine
 10
6.28266
 20
6.433718
 30
0.0
 11
6.255195
 21
6.529846
 31
0.0
  0
LINE
  5
28F
100
AcDbEntity
  8
CK_LEVEL_1
  6
CONTINUOUS
 62
     2
100
AcDbLine
 10
6.255195
 20
6.529846
 30
0.0
 11
6.234596
 21
6.639707
 31
0.0
  0
LINE
  5
290
100
AcDbEntity
  8
CK_LEVEL_1
  6
CONTINUOUS
 62
     2
100
AcDbLine
 10
6.234596
 20
6.639707
 30
0.0
 11
6.207131
 21
6.859428
 31
0.0
  0
LINE
  5
291
100
AcDbEntity
  8
CK_LEVEL_1
  6
CONTINUOUS
 62
     2
100
AcDbLine
 10
6.207131
 20
6.859428
 30
0.0
 11
6.207131
 21
7.017353
 31
0.0
  0
LINE
  5
292
100
AcDbEntity
  8
CK_LEVEL_1
  6
CONTINUOUS
 62
     2
100
AcDbLine
 10
6.207131
 20
7.017353
 30
0.0
 11
6.159067
 21
6.969289
 31
0.0
  0
LINE
  5
293
100
AcDbEntity
  8
CK_LEVEL_1
  6
CONTINUOUS
 62
     2
100
AcDbLine
 10
6.159067
 20
6.969289
 30
0.0
 11
6.111003
 21
6.907492
 31
0.0
  0
LINE
  5
294
100
AcDbEntity
  8
CK_LEVEL_1
  6
CONTINUOUS
 62
     2
100
AcDbLine
 10
6.111003
 20
6.907492
 30
0.0
 11
6.076671
 21
6.838829
 31
0.0
  0
LINE
  5
295
100
AcDbEntity
  8
CK_LEVEL_1
  6
CONTINUOUS
 62
     2
100
AcDbLine
 10
6.076671
 20
6.838829
 30
0.0
 11
6.056072
 21
6.783899
 31
0.0
  0
LINE
  5
296
100
AcDbEntity
  8
CK_LEVEL_1
  6
CONTINUOUS
 62
     2
100
AcDbLine
 10
6.056072
 20
6.783899
 30
0.0
 11
5.980543
 21
6.804498
 31
0.0
  0
LINE
  5
297
100
AcDbEntity
  8
CK_LEVEL_1
  6
CONTINUOUS
 62
     2
100
AcDbLine
 10
5.980543
 20
6.804498
 30
0.0
 11
5.905014
 21
6.81823
 31
0.0
  0
LINE
  5
298
100
AcDbEntity
  8
CK_LEVEL_1
  6
CONTINUOUS
 62
     2
100
AcDbLine
 10
5.905014
 20
6.81823
 30
0.0
 11
5.918746
 21
6.790765
 31
0.0
  0
LINE
  5
299
100
AcDbEntity
  8
CK_LEVEL_1
  6
CONTINUOUS
 62
     2
100
AcDbLine
 10
5.918746
 20
6.790765
 30
0.0
 11
5.932479
 21
6.756434
 31
0.0
  0
LINE
  5
29A
100
AcDbEntity
  8
CK_LEVEL_1
  6
CONTINUOUS
 62
     2
100
AcDbLine
 10
5.932479
 20
6.756434
 30
0.0
 11
5.946211
 21
6.715236
 31
0.0
  0
LINE
  5
29B
100
AcDbEntity
  8
CK_LEVEL_1
  6
CONTINUOUS
 62
     2
100
AcDbLine
 10
5.946211
 20
6.715236
 30
0.0
 11
5.953078
 21
6.687771
 31
0.0
  0
LINE
  5
29C
100
AcDbEntity
  8
CK_LEVEL_1
  6
CONTINUOUS
 62
     2
100
AcDbLine
 10
5.953078
 20
6.687771
 30
0.0
 11
5.953078
 21
6.667172
 31
0.0
  0
LINE
  5
29D
100
AcDbEntity
  8
CK_LEVEL_1
  6
CONTINUOUS
 62
     2
100
AcDbLine
 10
5.953078
 20
6.667172
 30
0.0
 11
5.946211
 21
6.667172
 31
0.0
  0
LINE
  5
29E
100
AcDbEntity
  8
CK_LEVEL_1
  6
CONTINUOUS
 62
     2
100
AcDbLine
 10
5.946211
 20
6.667172
 30
0.0
 11
5.91188
 21
6.680904
 31
0.0
  0
LINE
  5
29F
100
AcDbEntity
  8
CK_LEVEL_1
  6
CONTINUOUS
 62
     2
100
AcDbLine
 10
5.91188
 20
6.680904
 30
0.0
 11
5.877549
 21
6.701503
 31
0.0
  0
LINE
  5
2A0
100
AcDbEntity
  8
CK_LEVEL_1
  6
CONTINUOUS
 62
     2
100
AcDbLine
 10
5.877549
 20
6.701503
 30
0.0
 11
5.863816
 21
6.701503
 31
0.0
  0
LINE
  5
2A1
100
AcDbEntity
  8
CK_LEVEL_1
  6
CONTINUOUS
 62
     2
100
AcDbLine
 10
5.863816
 20
6.701503
 30
0.0
 11
5.843217
 21
6.694637
 31
0.0
  0
LINE
  5
2A2
100
AcDbEntity
  8
CK_LEVEL_1
  6
CONTINUOUS
 62
     2
100
AcDbLine
 10
5.843217
 20
6.694637
 30
0.0
 11
5.808886
 21
6.653439
 31
0.0
  0
LINE
  5
2A3
100
AcDbEntity
  8
CK_LEVEL_1
  6
CONTINUOUS
 62
     2
100
AcDbLine
 10
5.808886
 20
6.653439
 30
0.0
 11
5.788287
 21
6.646573
 31
0.0
  0
LINE
  5
2A4
100
AcDbEntity
  8
CK_LEVEL_1
  6
CONTINUOUS
 62
     2
100
AcDbLine
 10
5.788287
 20
6.646573
 30
0.0
 11
5.753955
 21
6.653439
 31
0.0
  0
LINE
  5
2A5
100
AcDbEntity
  8
CK_LEVEL_1
  6
CONTINUOUS
 62
     2
100
AcDbLine
 10
5.753955
 20
6.653439
 30
0.0
 11
5.712757
 21
6.694637
 31
0.0
  0
LINE
  5
2A6
100
AcDbEntity
  8
CK_LEVEL_1
  6
CONTINUOUS
 62
     2
100
AcDbLine
 10
5.712757
 20
6.694637
 30
0.0
 11
5.664693
 21
6.756434
 31
0.0
  0
LINE
  5
2A7
100
AcDbEntity
  8
CK_LEVEL_1
  6
CONTINUOUS
 62
     2
100
AcDbLine
 10
5.664693
 20
6.756434
 30
0.0
 11
5.59603
 21
6.804498
 31
0.0
  0
LINE
  5
2A8
100
AcDbEntity
  8
CK_LEVEL_1
  6
CONTINUOUS
 62
     2
100
AcDbLine
 10
5.59603
 20
6.804498
 30
0.0
 11
5.561699
 21
6.81823
 31
0.0
  0
LINE
  5
2A9
100
AcDbEntity
  8
CK_LEVEL_1
  6
CONTINUOUS
 62
     2
100
AcDbLine
 10
5.561699
 20
6.81823
 30
0.0
 11
5.520501
 21
6.811364
 31
0.0
  0
LINE
  5
2AA
100
AcDbEntity
  8
CK_LEVEL_1
  6
CONTINUOUS
 62
     2
100
AcDbLine
 10
5.520501
 20
6.811364
 30
0.0
 11
5.493036
 21
6.866294
 31
0.0
  0
LINE
  5
2AB
100
AcDbEntity
  8
CK_LEVEL_1
  6
CONTINUOUS
 62
     2
100
AcDbLine
 10
5.493036
 20
6.866294
 30
0.0
 11
5.472437
 21
6.914359
 31
0.0
  0
LINE
  5
2AC
100
AcDbEntity
  8
CK_LEVEL_1
  6
CONTINUOUS
 62
     2
100
AcDbLine
 10
5.472437
 20
6.914359
 30
0.0
 11
5.534234
 21
6.969289
 31
0.0
  0
LINE
  5
2AD
100
AcDbEntity
  8
CK_LEVEL_1
  6
CONTINUOUS
 62
     2
100
AcDbLine
 10
5.534234
 20
6.969289
 30
0.0
 11
5.802019
 21
6.969289
 31
0.0
  0
LINE
  5
2AE
100
AcDbEntity
  8
CK_LEVEL_1
  6
CONTINUOUS
 62
     2
100
AcDbLine
 10
5.802019
 20
6.969289
 30
0.0
 11
5.822618
 21
7.024219
 31
0.0
  0
LINE
  5
2AF
100
AcDbEntity
  8
CK_LEVEL_1
  6
CONTINUOUS
 62
     2
100
AcDbLine
 10
5.822618
 20
7.024219
 30
0.0
 11
5.836351
 21
7.044818
 31
0.0
  0
LINE
  5
2B0
100
AcDbEntity
  8
CK_LEVEL_1
  6
CONTINUOUS
 62
     2
100
AcDbLine
 10
5.836351
 20
7.044818
 30
0.0
 11
5.850083
 21
7.058551
 31
0.0
  0
LINE
  5
2B1
100
AcDbEntity
  8
CK_LEVEL_1
  6
CONTINUOUS
 62
     2
100
AcDbLine
 10
5.850083
 20
7.058551
 30
0.0
 11
5.870682
 21
7.065417
 31
0.0
  0
LINE
  5
2B2
100
AcDbEntity
  8
CK_LEVEL_1
  6
CONTINUOUS
 62
     2
100
AcDbLine
 10
5.870682
 20
7.065417
 30
0.0
 11
5.91188
 21
7.086016
 31
0.0
  0
LINE
  5
2B3
100
AcDbEntity
  8
CK_LEVEL_1
  6
CONTINUOUS
 62
     2
100
AcDbLine
 10
5.91188
 20
7.086016
 30
0.0
 11
5.953078
 21
7.099748
 31
0.0
  0
LINE
  5
2B4
100
AcDbEntity
  8
CK_LEVEL_1
  6
CONTINUOUS
 62
     2
100
AcDbLine
 10
5.953078
 20
7.099748
 30
0.0
 11
5.987409
 21
7.113481
 31
0.0
  0
LINE
  5
2B5
100
AcDbEntity
  8
CK_LEVEL_1
  6
CONTINUOUS
 62
     2
100
AcDbLine
 10
5.987409
 20
7.113481
 30
0.0
 11
6.021741
 21
7.168411
 31
0.0
  0
LINE
  5
2B6
100
AcDbEntity
  8
CK_LEVEL_1
  6
CONTINUOUS
 62
     2
100
AcDbLine
 10
6.021741
 20
7.168411
 30
0.0
 11
6.04234
 21
7.237074
 31
0.0
  0
LINE
  5
2B7
100
AcDbEntity
  8
CK_LEVEL_1
  6
CONTINUOUS
 62
     2
100
AcDbLine
 10
6.04234
 20
7.237074
 30
0.0
 11
6.028607
 21
7.237074
 31
0.0
  0
LINE
  5
2B8
100
AcDbEntity
  8
CK_LEVEL_1
  6
CONTINUOUS
 62
     2
100
AcDbLine
 10
5.273315
 20
6.989888
 30
0.0
 11
5.293914
 21
6.962423
 31
0.0
  0
LINE
  5
2B9
100
AcDbEntity
  8
CK_LEVEL_1
  6
CONTINUOUS
 62
     2
100
AcDbLine
 10
5.293914
 20
6.962423
 30
0.0
 11
5.307646
 21
6.941824
 31
0.0
  0
LINE
  5
2BA
100
AcDbEntity
  8
CK_LEVEL_1
  6
CONTINUOUS
 62
     2
100
AcDbLine
 10
5.307646
 20
6.941824
 30
0.0
 11
5.369443
 21
6.928091
 31
0.0
  0
LINE
  5
2BB
100
AcDbEntity
  8
CK_LEVEL_1
  6
CONTINUOUS
 62
     2
100
AcDbLine
 10
5.369443
 20
6.928091
 30
0.0
 11
5.390042
 21
6.907492
 31
0.0
  0
LINE
  5
2BC
100
AcDbEntity
  8
CK_LEVEL_1
  6
CONTINUOUS
 62
     2
100
AcDbLine
 10
5.390042
 20
6.907492
 30
0.0
 11
5.403774
 21
6.873161
 31
0.0
  0
LINE
  5
2BD
100
AcDbEntity
  8
CK_LEVEL_1
  6
CONTINUOUS
 62
     2
100
AcDbLine
 10
5.403774
 20
6.873161
 30
0.0
 11
5.410641
 21
6.845696
 31
0.0
  0
LINE
  5
2BE
100
AcDbEntity
  8
CK_LEVEL_1
  6
CONTINUOUS
 62
     2
100
AcDbLine
 10
5.410641
 20
6.845696
 30
0.0
 11
5.410641
 21
6.804498
 31
0.0
  0
LINE
  5
2BF
100
AcDbEntity
  8
CK_LEVEL_1
  6
CONTINUOUS
 62
     2
100
AcDbLine
 10
5.410641
 20
6.804498
 30
0.0
 11
5.417507
 21
6.701503
 31
0.0
  0
LINE
  5
2C0
100
AcDbEntity
  8
CK_LEVEL_1
  6
CONTINUOUS
 62
     2
100
AcDbLine
 10
5.417507
 20
6.701503
 30
0.0
 11
5.396908
 21
6.598509
 31
0.0
  0
LINE
  5
2C1
100
AcDbEntity
  8
CK_LEVEL_1
  6
CONTINUOUS
 62
     2
100
AcDbLine
 10
5.396908
 20
6.598509
 30
0.0
 11
5.383175
 21
6.564177
 31
0.0
  0
LINE
  5
2C2
100
AcDbEntity
  8
CK_LEVEL_1
  6
CONTINUOUS
 62
     2
100
AcDbLine
 10
5.383175
 20
6.564177
 30
0.0
 11
5.362576
 21
6.536712
 31
0.0
  0
LINE
  5
2C3
100
AcDbEntity
  8
CK_LEVEL_1
  6
CONTINUOUS
 62
     2
100
AcDbLine
 10
5.362576
 20
6.536712
 30
0.0
 11
5.35571
 21
6.598509
 31
0.0
  0
LINE
  5
2C4
100
AcDbEntity
  8
CK_LEVEL_1
  6
CONTINUOUS
 62
     2
100
AcDbLine
 10
5.35571
 20
6.598509
 30
0.0
 11
5.348844
 21
6.625974
 31
0.0
  0
LINE
  5
2C5
100
AcDbEntity
  8
CK_LEVEL_1
  6
CONTINUOUS
 62
     2
100
AcDbLine
 10
5.348844
 20
6.625974
 30
0.0
 11
5.341978
 21
6.646573
 31
0.0
  0
LINE
  5
2C6
100
AcDbEntity
  8
CK_LEVEL_1
  6
CONTINUOUS
 62
     2
100
AcDbLine
 10
5.341978
 20
6.646573
 30
0.0
 11
5.328245
 21
6.660306
 31
0.0
  0
LINE
  5
2C7
100
AcDbEntity
  8
CK_LEVEL_1
  6
CONTINUOUS
 62
     2
100
AcDbLine
 10
5.328245
 20
6.660306
 30
0.0
 11
5.293914
 21
6.674038
 31
0.0
  0
LINE
  5
2C8
100
AcDbEntity
  8
CK_LEVEL_1
  6
CONTINUOUS
 62
     2
100
AcDbLine
 10
5.293914
 20
6.674038
 30
0.0
 11
5.197785
 21
6.728969
 31
0.0
  0
LINE
  5
2C9
100
AcDbEntity
  8
CK_LEVEL_1
  6
CONTINUOUS
 62
     2
100
AcDbLine
 10
5.197785
 20
6.728969
 30
0.0
 11
5.094791
 21
6.783899
 31
0.0
  0
LINE
  5
2CA
100
AcDbEntity
  8
CK_LEVEL_1
  6
CONTINUOUS
 62
     2
100
AcDbLine
 10
5.094791
 20
6.783899
 30
0.0
 11
5.046727
 21
6.804498
 31
0.0
  0
LINE
  5
2CB
100
AcDbEntity
  8
CK_LEVEL_1
  6
CONTINUOUS
 62
     2
100
AcDbLine
 10
5.046727
 20
6.804498
 30
0.0
 11
5.012395
 21
6.811364
 31
0.0
  0
LINE
  5
2CC
100
AcDbEntity
  8
CK_LEVEL_1
  6
CONTINUOUS
 62
     2
100
AcDbLine
 10
5.012395
 20
6.811364
 30
0.0
 11
5.019262
 21
6.941824
 31
0.0
  0
LINE
  5
2CD
100
AcDbEntity
  8
CK_LEVEL_1
  6
CONTINUOUS
 62
     2
100
AcDbLine
 10
5.019262
 20
6.941824
 30
0.0
 11
5.026128
 21
6.989888
 31
0.0
  0
LINE
  5
2CE
100
AcDbEntity
  8
CK_LEVEL_1
  6
CONTINUOUS
 62
     2
100
AcDbLine
 10
5.026128
 20
6.989888
 30
0.0
 11
5.026128
 21
7.031086
 31
0.0
  0
LINE
  5
2CF
100
AcDbEntity
  8
CK_LEVEL_1
  6
CONTINUOUS
 62
     2
100
AcDbLine
 10
4.950599
 20
6.488648
 30
0.0
 11
4.916267
 21
6.433718
 31
0.0
  0
LINE
  5
2D0
100
AcDbEntity
  8
CK_LEVEL_1
  6
CONTINUOUS
 62
     2
100
AcDbLine
 10
4.916267
 20
6.433718
 30
0.0
 11
4.888802
 21
6.39252
 31
0.0
  0
LINE
  5
2D1
100
AcDbEntity
  8
CK_LEVEL_1
  6
CONTINUOUS
 62
     2
100
AcDbLine
 10
4.888802
 20
6.39252
 30
0.0
 11
4.854471
 21
6.365055
 31
0.0
  0
LINE
  5
2D2
100
AcDbEntity
  8
CK_LEVEL_1
  6
CONTINUOUS
 62
     2
100
AcDbLine
 10
4.854471
 20
6.365055
 30
0.0
 11
4.820139
 21
6.351322
 31
0.0
  0
LINE
  5
2D3
100
AcDbEntity
  8
CK_LEVEL_1
  6
CONTINUOUS
 62
     2
100
AcDbLine
 10
4.820139
 20
6.351322
 30
0.0
 11
4.806407
 21
6.351322
 31
0.0
  0
LINE
  5
2D4
100
AcDbEntity
  8
CK_LEVEL_1
  6
CONTINUOUS
 62
     2
100
AcDbLine
 10
4.806407
 20
6.351322
 30
0.0
 11
4.778941
 21
6.365055
 31
0.0
  0
LINE
  5
2D5
100
AcDbEntity
  8
CK_LEVEL_1
  6
CONTINUOUS
 62
     2
100
AcDbLine
 10
4.778941
 20
6.365055
 30
0.0
 11
4.703412
 21
6.399386
 31
0.0
  0
LINE
  5
2D6
100
AcDbEntity
  8
CK_LEVEL_1
  6
CONTINUOUS
 62
     2
100
AcDbLine
 10
4.703412
 20
6.399386
 30
0.0
 11
4.710278
 21
6.33759
 31
0.0
  0
LINE
  5
2D7
100
AcDbEntity
  8
CK_LEVEL_1
  6
CONTINUOUS
 62
     2
100
AcDbLine
 10
4.710278
 20
6.33759
 30
0.0
 11
4.717145
 21
6.303258
 31
0.0
  0
LINE
  5
2D8
100
AcDbEntity
  8
CK_LEVEL_1
  6
CONTINUOUS
 62
     2
100
AcDbLine
 10
4.717145
 20
6.303258
 30
0.0
 11
4.737744
 21
6.275793
 31
0.0
  0
LINE
  5
2D9
100
AcDbEntity
  8
CK_LEVEL_1
  6
CONTINUOUS
 62
     2
100
AcDbLine
 10
4.737744
 20
6.275793
 30
0.0
 11
4.765209
 21
6.255194
 31
0.0
  0
LINE
  5
2DA
100
AcDbEntity
  8
CK_LEVEL_1
  6
CONTINUOUS
 62
     2
100
AcDbLine
 10
4.765209
 20
6.255194
 30
0.0
 11
4.79954
 21
6.248328
 31
0.0
  0
LINE
  5
2DB
100
AcDbEntity
  8
CK_LEVEL_1
  6
CONTINUOUS
 62
     2
100
AcDbLine
 10
4.79954
 20
6.248328
 30
0.0
 11
4.827005
 21
6.255194
 31
0.0
  0
LINE
  5
2DC
100
AcDbEntity
  8
CK_LEVEL_1
  6
CONTINUOUS
 62
     2
100
AcDbLine
 10
4.827005
 20
6.255194
 30
0.0
 11
4.854471
 21
6.275793
 31
0.0
  0
LINE
  5
2DD
100
AcDbEntity
  8
CK_LEVEL_1
  6
CONTINUOUS
 62
     2
100
AcDbLine
 10
4.854471
 20
6.275793
 30
0.0
 11
4.881936
 21
6.303258
 31
0.0
  0
LINE
  5
2DE
100
AcDbEntity
  8
CK_LEVEL_1
  6
CONTINUOUS
 62
     2
100
AcDbLine
 10
4.881936
 20
6.303258
 30
0.0
 11
4.909401
 21
6.351322
 31
0.0
  0
LINE
  5
2DF
100
AcDbEntity
  8
CK_LEVEL_1
  6
CONTINUOUS
 62
     2
100
AcDbLine
 10
4.909401
 20
6.351322
 30
0.0
 11
4.93
 21
6.413119
 31
0.0
  0
LINE
  5
2E0
100
AcDbEntity
  8
CK_LEVEL_1
  6
CONTINUOUS
 62
     2
100
AcDbLine
 10
4.93
 20
6.413119
 30
0.0
 11
4.950599
 21
6.488648
 31
0.0
  0
LINE
  5
2E1
100
AcDbEntity
  8
CK_LEVEL_1
  6
CONTINUOUS
 62
     2
100
AcDbLine
 10
7.470529
 20
7.93057
 30
0.0
 11
7.333203
 21
7.93057
 31
0.0
  0
LINE
  5
2E2
100
AcDbEntity
  8
CK_LEVEL_1
  6
CONTINUOUS
 62
     2
100
AcDbLine
 10
7.333203
 20
7.93057
 30
0.0
 11
7.257674
 21
7.923704
 31
0.0
  0
LINE
  5
2E3
100
AcDbEntity
  8
CK_LEVEL_1
  6
CONTINUOUS
 62
     2
100
AcDbLine
 10
7.257674
 20
7.923704
 30
0.0
 11
7.20961
 21
7.916838
 31
0.0
  0
LINE
  5
2E4
100
AcDbEntity
  8
CK_LEVEL_1
  6
CONTINUOUS
 62
     2
100
AcDbLine
 10
7.20961
 20
7.916838
 30
0.0
 11
7.305738
 21
7.820709
 31
0.0
  0
LINE
  5
2E5
100
AcDbEntity
  8
CK_LEVEL_1
  6
CONTINUOUS
 62
     2
100
AcDbLine
 10
7.305738
 20
7.820709
 30
0.0
 11
7.346936
 21
7.772645
 31
0.0
  0
LINE
  5
2E6
100
AcDbEntity
  8
CK_LEVEL_1
  6
CONTINUOUS
 62
     2
100
AcDbLine
 10
7.346936
 20
7.772645
 30
0.0
 11
7.360668
 21
7.752046
 31
0.0
  0
LINE
  5
2E7
100
AcDbEntity
  8
CK_LEVEL_1
  6
CONTINUOUS
 62
     2
100
AcDbLine
 10
7.360668
 20
7.752046
 30
0.0
 11
7.367534
 21
7.731448
 31
0.0
  0
LINE
  5
2E8
100
AcDbEntity
  8
CK_LEVEL_1
  6
CONTINUOUS
 62
     2
100
AcDbLine
 10
7.367534
 20
7.731448
 30
0.0
 11
7.374401
 21
7.703982
 31
0.0
  0
LINE
  5
2E9
100
AcDbEntity
  8
CK_LEVEL_1
  6
CONTINUOUS
 62
     2
100
AcDbLine
 10
7.374401
 20
7.703982
 30
0.0
 11
7.388133
 21
7.697116
 31
0.0
  0
LINE
  5
2EA
100
AcDbEntity
  8
CK_LEVEL_1
  6
CONTINUOUS
 62
     2
100
AcDbLine
 10
7.388133
 20
7.697116
 30
0.0
 11
7.401866
 21
7.697116
 31
0.0
  0
LINE
  5
2EB
100
AcDbEntity
  8
CK_LEVEL_1
  6
CONTINUOUS
 62
     2
100
AcDbLine
 10
7.401866
 20
7.697116
 30
0.0
 11
7.443064
 21
7.710849
 31
0.0
  0
LINE
  5
2EC
100
AcDbEntity
  8
CK_LEVEL_1
  6
CONTINUOUS
 62
     2
100
AcDbLine
 10
7.443064
 20
7.710849
 30
0.0
 11
7.484261
 21
7.717715
 31
0.0
  0
LINE
  5
2ED
100
AcDbEntity
  8
CK_LEVEL_1
  6
CONTINUOUS
 62
     2
100
AcDbLine
 10
7.484261
 20
7.717715
 30
0.0
 11
7.607855
 21
7.717715
 31
0.0
  0
LINE
  5
2EE
100
AcDbEntity
  8
CK_LEVEL_1
  6
CONTINUOUS
 62
     2
100
AcDbLine
 10
7.607855
 20
7.717715
 30
0.0
 11
7.731448
 21
7.697116
 31
0.0
  0
LINE
  5
2EF
100
AcDbEntity
  8
CK_LEVEL_1
  6
CONTINUOUS
 62
     2
100
AcDbLine
 10
7.731448
 20
7.697116
 30
0.0
 11
7.786378
 21
7.669651
 31
0.0
  0
LINE
  5
2F0
100
AcDbEntity
  8
CK_LEVEL_1
  6
CONTINUOUS
 62
     2
100
AcDbLine
 10
7.786378
 20
7.669651
 30
0.0
 11
7.827576
 21
7.628453
 31
0.0
  0
LINE
  5
2F1
100
AcDbEntity
  8
CK_LEVEL_1
  6
CONTINUOUS
 62
     2
100
AcDbLine
 10
7.827576
 20
7.628453
 30
0.0
 11
7.882507
 21
7.518592
 31
0.0
  0
LINE
  5
2F2
100
AcDbEntity
  8
CK_LEVEL_1
  6
CONTINUOUS
 62
     2
100
AcDbLine
 10
7.882507
 20
7.518592
 30
0.0
 11
7.909972
 21
7.456796
 31
0.0
  0
LINE
  5
2F3
100
AcDbEntity
  8
CK_LEVEL_1
  6
CONTINUOUS
 62
     2
100
AcDbLine
 10
7.909972
 20
7.456796
 30
0.0
 11
7.930571
 21
7.381267
 31
0.0
  0
LINE
  5
2F4
100
AcDbEntity
  8
CK_LEVEL_1
  6
CONTINUOUS
 62
     2
100
AcDbLine
 10
7.930571
 20
7.381267
 30
0.0
 11
7.944303
 21
7.292005
 31
0.0
  0
LINE
  5
2F5
100
AcDbEntity
  8
CK_LEVEL_1
  6
CONTINUOUS
 62
     2
100
AcDbLine
 10
7.944303
 20
7.292005
 30
0.0
 11
7.951169
 21
7.18901
 31
0.0
  0
LINE
  5
2F6
100
AcDbEntity
  8
CK_LEVEL_1
  6
CONTINUOUS
 62
     2
100
AcDbLine
 10
7.951169
 20
7.18901
 30
0.0
 11
7.958036
 21
7.065417
 31
0.0
  0
LINE
  5
2F7
100
AcDbEntity
  8
CK_LEVEL_1
  6
CONTINUOUS
 62
     2
100
AcDbLine
 10
7.958036
 20
7.065417
 30
0.0
 11
7.944303
 21
6.783899
 31
0.0
  0
LINE
  5
2F8
100
AcDbEntity
  8
CK_LEVEL_1
  6
CONTINUOUS
 62
     2
100
AcDbLine
 10
7.944303
 20
6.783899
 30
0.0
 11
7.944303
 21
6.653439
 31
0.0
  0
LINE
  5
2F9
100
AcDbEntity
  8
CK_LEVEL_1
  6
CONTINUOUS
 62
     2
100
AcDbLine
 10
7.944303
 20
6.653439
 30
0.0
 11
7.958036
 21
6.543579
 31
0.0
  0
LINE
  5
2FA
100
AcDbEntity
  8
CK_LEVEL_1
  6
CONTINUOUS
 62
     2
100
AcDbLine
 10
7.958036
 20
6.543579
 30
0.0
 11
7.971768
 21
6.502381
 31
0.0
  0
LINE
  5
2FB
100
AcDbEntity
  8
CK_LEVEL_1
  6
CONTINUOUS
 62
     2
100
AcDbLine
 10
7.971768
 20
6.502381
 30
0.0
 11
7.985501
 21
6.474916
 31
0.0
  0
LINE
  5
2FC
100
AcDbEntity
  8
CK_LEVEL_1
  6
CONTINUOUS
 62
     2
100
AcDbLine
 10
7.985501
 20
6.474916
 30
0.0
 11
7.992367
 21
6.536712
 31
0.0
  0
LINE
  5
2FD
100
AcDbEntity
  8
CK_LEVEL_1
  6
CONTINUOUS
 62
     2
100
AcDbLine
 10
7.992367
 20
6.536712
 30
0.0
 11
8.0061
 21
6.63284
 31
0.0
  0
LINE
  5
2FE
100
AcDbEntity
  8
CK_LEVEL_1
  6
CONTINUOUS
 62
     2
100
AcDbLine
 10
8.0061
 20
6.63284
 30
0.0
 11
8.019832
 21
6.749567
 31
0.0
  0
LINE
  5
2FF
100
AcDbEntity
  8
CK_LEVEL_1
  6
CONTINUOUS
 62
     2
100
AcDbLine
 10
8.019832
 20
6.749567
 30
0.0
 11
8.033565
 21
6.880027
 31
0.0
  0
LINE
  5
300
100
AcDbEntity
  8
CK_LEVEL_1
  6
CONTINUOUS
 62
     2
100
AcDbLine
 10
8.033565
 20
6.880027
 30
0.0
 11
8.061029
 21
7.127214
 31
0.0
  0
LINE
  5
301
100
AcDbEntity
  8
CK_LEVEL_1
  6
CONTINUOUS
 62
     2
100
AcDbLine
 10
8.06103
 20
7.127214
 30
0.0
 11
8.06103
 21
7.312604
 31
0.0
  0
LINE
  5
302
100
AcDbEntity
  8
CK_LEVEL_1
  6
CONTINUOUS
 62
     2
100
AcDbLine
 10
8.06103
 20
7.312604
 30
0.0
 11
8.054164
 21
7.31947
 31
0.0
  0
LINE
  5
303
100
AcDbEntity
  8
CK_LEVEL_1
  6
CONTINUOUS
 62
     2
100
AcDbLine
 10
8.383746
 20
5.568565
 30
0.0
 11
8.342548
 21
5.520501
 31
0.0
  0
LINE
  5
304
100
AcDbEntity
  8
CK_LEVEL_1
  6
CONTINUOUS
 62
     2
100
AcDbLine
 10
8.342548
 20
5.520501
 30
0.0
 11
8.301352
 21
5.479303
 31
0.0
  0
LINE
  5
305
100
AcDbEntity
  8
CK_LEVEL_1
  6
CONTINUOUS
 62
     2
100
AcDbLine
 10
8.301351
 20
5.479303
 30
0.0
 11
8.218955
 21
5.417506
 31
0.0
  0
LINE
  5
306
100
AcDbEntity
  8
CK_LEVEL_1
  6
CONTINUOUS
 62
     2
100
AcDbLine
 10
8.218955
 20
5.417506
 30
0.0
 11
8.170891
 21
5.396907
 31
0.0
  0
LINE
  5
307
100
AcDbEntity
  8
CK_LEVEL_1
  6
CONTINUOUS
 62
     2
100
AcDbLine
 10
8.170891
 20
5.396907
 30
0.0
 11
8.122827
 21
5.383175
 31
0.0
  0
LINE
  5
308
100
AcDbEntity
  8
CK_LEVEL_1
  6
CONTINUOUS
 62
     2
100
AcDbLine
 10
8.122827
 20
5.383175
 30
0.0
 11
8.164024
 21
5.479303
 31
0.0
  0
LINE
  5
309
100
AcDbEntity
  8
CK_LEVEL_1
  6
CONTINUOUS
 62
     2
100
AcDbLine
 10
8.164025
 20
5.479303
 30
0.0
 11
8.21209
 21
5.493036
 31
0.0
  0
LINE
  5
30A
100
AcDbEntity
  8
CK_LEVEL_1
  6
CONTINUOUS
 62
     2
100
AcDbLine
 10
8.212089
 20
5.493036
 30
0.0
 11
8.273885
 21
5.513634
 31
0.0
  0
LINE
  5
30B
100
AcDbEntity
  8
CK_LEVEL_1
  6
CONTINUOUS
 62
     2
100
AcDbLine
 10
8.273885
 20
5.513634
 30
0.0
 11
8.383746
 21
5.568565
 31
0.0
  0
LINE
  5
30C
100
AcDbEntity
  8
CK_LEVEL_1
  6
CONTINUOUS
 62
     2
100
AcDbLine
 10
8.370013
 20
5.582297
 30
0.0
 11
8.383746
 21
5.568565
 31
0.0
  0
LINE
  5
30D
100
AcDbEntity
  8
CK_LEVEL_1
  6
CONTINUOUS
 62
     2
100
AcDbLine
 10
6.550445
 20
5.46557
 30
0.0
 11
6.529847
 21
5.458704
 31
0.0
  0
LINE
  5
30E
100
AcDbEntity
  8
CK_LEVEL_1
  6
CONTINUOUS
 62
     2
100
AcDbLine
 10
6.529847
 20
5.458704
 30
0.0
 11
6.502381
 21
5.451838
 31
0.0
  0
LINE
  5
30F
100
AcDbEntity
  8
CK_LEVEL_1
  6
CONTINUOUS
 62
     2
100
AcDbLine
 10
6.502381
 20
5.451838
 30
0.0
 11
6.454317
 21
5.438105
 31
0.0
  0
LINE
  5
310
100
AcDbEntity
  8
CK_LEVEL_1
  6
CONTINUOUS
 62
     2
100
AcDbLine
 10
6.454317
 20
5.438105
 30
0.0
 11
6.399387
 21
5.417506
 31
0.0
  0
LINE
  5
311
100
AcDbEntity
  8
CK_LEVEL_1
  6
CONTINUOUS
 62
     2
100
AcDbLine
 10
6.399387
 20
5.417506
 30
0.0
 11
6.330724
 21
5.396907
 31
0.0
  0
LINE
  5
312
100
AcDbEntity
  8
CK_LEVEL_1
  6
CONTINUOUS
 62
     2
100
AcDbLine
 10
6.330724
 20
5.396907
 30
0.0
 11
6.255195
 21
5.376309
 31
0.0
  0
LINE
  5
313
100
AcDbEntity
  8
CK_LEVEL_1
  6
CONTINUOUS
 62
     2
100
AcDbLine
 10
6.255195
 20
5.376309
 30
0.0
 11
6.076671
 21
5.314512
 31
0.0
  0
LINE
  5
314
100
AcDbEntity
  8
CK_LEVEL_1
  6
CONTINUOUS
 62
     2
100
AcDbLine
 10
6.076671
 20
5.314512
 30
0.0
 11
5.657827
 21
5.156587
 31
0.0
  0
LINE
  5
315
100
AcDbEntity
  8
CK_LEVEL_1
  6
CONTINUOUS
 62
     2
100
AcDbLine
 10
5.657827
 20
5.156587
 30
0.0
 11
5.204652
 21
4.971197
 31
0.0
  0
LINE
  5
316
100
AcDbEntity
  8
CK_LEVEL_1
  6
CONTINUOUS
 62
     2
100
AcDbLine
 10
5.204652
 20
4.971197
 30
0.0
 11
4.888802
 21
4.820139
 31
0.0
  0
LINE
  5
317
100
AcDbEntity
  8
CK_LEVEL_1
  6
CONTINUOUS
 62
     2
100
AcDbLine
 10
4.888802
 20
4.820139
 30
0.0
 11
4.74461
 21
4.737743
 31
0.0
  0
LINE
  5
318
100
AcDbEntity
  8
CK_LEVEL_1
  6
CONTINUOUS
 62
     2
100
AcDbLine
 10
4.74461
 20
4.737743
 30
0.0
 11
4.61415
 21
4.655348
 31
0.0
  0
LINE
  5
319
100
AcDbEntity
  8
CK_LEVEL_1
  6
CONTINUOUS
 62
     2
100
AcDbLine
 10
4.61415
 20
4.655348
 30
0.0
 11
4.497423
 21
4.579818
 31
0.0
  0
LINE
  5
31A
100
AcDbEntity
  8
CK_LEVEL_1
  6
CONTINUOUS
 62
     2
100
AcDbLine
 10
4.497423
 20
4.579818
 30
0.0
 11
4.401295
 21
4.497423
 31
0.0
  0
LINE
  5
31B
100
AcDbEntity
  8
CK_LEVEL_1
  6
CONTINUOUS
 62
     2
100
AcDbLine
 10
4.401295
 20
4.497423
 30
0.0
 11
4.325766
 21
4.415027
 31
0.0
  0
LINE
  5
31C
100
AcDbEntity
  8
CK_LEVEL_1
  6
CONTINUOUS
 62
     2
100
AcDbLine
 10
4.325766
 20
4.415027
 30
0.0
 11
4.277702
 21
4.339498
 31
0.0
  0
LINE
  5
31D
100
AcDbEntity
  8
CK_LEVEL_1
  6
CONTINUOUS
 62
     2
100
AcDbLine
 10
4.277702
 20
4.339498
 30
0.0
 11
4.257103
 21
4.277701
 31
0.0
  0
LINE
  5
31E
100
AcDbEntity
  8
CK_LEVEL_1
  6
CONTINUOUS
 62
     2
100
AcDbLine
 10
4.257103
 20
4.277701
 30
0.0
 11
4.236504
 21
4.209038
 31
0.0
  0
LINE
  5
31F
100
AcDbEntity
  8
CK_LEVEL_1
  6
CONTINUOUS
 62
     2
100
AcDbLine
 10
4.236504
 20
4.209038
 30
0.0
 11
4.229638
 21
4.051114
 31
0.0
  0
LINE
  5
320
100
AcDbEntity
  8
CK_LEVEL_1
  6
CONTINUOUS
 62
     2
100
AcDbLine
 10
4.229638
 20
4.051114
 30
0.0
 11
4.250237
 21
3.900055
 31
0.0
  0
LINE
  5
321
100
AcDbEntity
  8
CK_LEVEL_1
  6
CONTINUOUS
 62
     2
100
AcDbLine
 10
4.250237
 20
3.900055
 30
0.0
 11
4.263969
 21
3.838259
 31
0.0
  0
LINE
  5
322
100
AcDbEntity
  8
CK_LEVEL_1
  6
CONTINUOUS
 62
     2
100
AcDbLine
 10
4.263969
 20
3.838259
 30
0.0
 11
4.298301
 21
3.748997
 31
0.0
  0
LINE
  5
323
100
AcDbEntity
  8
CK_LEVEL_1
  6
CONTINUOUS
 62
     2
100
AcDbLine
 10
4.298301
 20
3.748997
 30
0.0
 11
4.346365
 21
3.639136
 31
0.0
  0
LINE
  5
324
100
AcDbEntity
  8
CK_LEVEL_1
  6
CONTINUOUS
 62
     2
100
AcDbLine
 10
4.346365
 20
3.639136
 30
0.0
 11
4.37383
 21
3.563607
 31
0.0
  0
LINE
  5
325
100
AcDbEntity
  8
CK_LEVEL_1
  6
CONTINUOUS
 62
     2
100
AcDbLine
 10
4.37383
 20
3.563607
 30
0.0
 11
4.449359
 21
3.391949
 31
0.0
  0
LINE
  5
326
100
AcDbEntity
  8
CK_LEVEL_1
  6
CONTINUOUS
 62
     2
100
AcDbLine
 10
4.449359
 20
3.391949
 30
0.0
 11
4.524889
 21
3.192827
 31
0.0
  0
LINE
  5
327
100
AcDbEntity
  8
CK_LEVEL_1
  6
CONTINUOUS
 62
     2
100
AcDbLine
 10
4.524889
 20
3.192827
 30
0.0
 11
4.607284
 21
3.000571
 31
0.0
  0
LINE
  5
328
100
AcDbEntity
  8
CK_LEVEL_1
  6
CONTINUOUS
 62
     2
100
AcDbLine
 10
4.607284
 20
3.000571
 30
0.0
 11
4.675947
 21
2.822047
 31
0.0
  0
LINE
  5
329
100
AcDbEntity
  8
CK_LEVEL_1
  6
CONTINUOUS
 62
     2
100
AcDbLine
 10
4.675947
 20
2.822047
 30
0.0
 11
4.724011
 21
2.677855
 31
0.0
  0
LINE
  5
32A
100
AcDbEntity
  8
CK_LEVEL_1
  6
CONTINUOUS
 62
     2
100
AcDbLine
 10
4.724011
 20
2.677855
 30
0.0
 11
4.74461
 21
2.622924
 31
0.0
  0
LINE
  5
32B
100
AcDbEntity
  8
CK_LEVEL_1
  6
CONTINUOUS
 62
     2
100
AcDbLine
 10
4.74461
 20
2.622924
 30
0.0
 11
4.751476
 21
2.588593
 31
0.0
  0
LINE
  5
32C
100
AcDbEntity
  8
CK_LEVEL_1
  6
CONTINUOUS
 62
     2
100
AcDbLine
 10
4.751476
 20
2.588593
 30
0.0
 11
4.751476
 21
2.567994
 31
0.0
  0
LINE
  5
32D
100
AcDbEntity
  8
CK_LEVEL_1
  6
CONTINUOUS
 62
     2
100
AcDbLine
 10
4.751476
 20
2.567994
 30
0.0
 11
4.758343
 21
2.540529
 31
0.0
  0
LINE
  5
32E
100
AcDbEntity
  8
CK_LEVEL_1
  6
CONTINUOUS
 62
     2
100
AcDbLine
 10
4.758343
 20
2.540529
 30
0.0
 11
4.765209
 21
2.451267
 31
0.0
  0
LINE
  5
32F
100
AcDbEntity
  8
CK_LEVEL_1
  6
CONTINUOUS
 62
     2
100
AcDbLine
 10
4.765209
 20
2.451267
 30
0.0
 11
4.778941
 21
2.341406
 31
0.0
  0
LINE
  5
330
100
AcDbEntity
  8
CK_LEVEL_1
  6
CONTINUOUS
 62
     2
100
AcDbLine
 10
4.778941
 20
2.341406
 30
0.0
 11
4.792674
 21
2.210947
 31
0.0
  0
LINE
  5
331
100
AcDbEntity
  8
CK_LEVEL_1
  6
CONTINUOUS
 62
     2
100
AcDbLine
 10
4.792674
 20
2.210947
 30
0.0
 11
4.79954
 21
2.087353
 31
0.0
  0
LINE
  5
332
100
AcDbEntity
  8
CK_LEVEL_1
  6
CONTINUOUS
 62
     2
100
AcDbLine
 10
4.79954
 20
2.087353
 30
0.0
 11
4.813273
 21
1.970626
 31
0.0
  0
LINE
  5
333
100
AcDbEntity
  8
CK_LEVEL_1
  6
CONTINUOUS
 62
     2
100
AcDbLine
 10
4.813273
 20
1.970626
 30
0.0
 11
4.820139
 21
1.874498
 31
0.0
  0
LINE
  5
334
100
AcDbEntity
  8
CK_LEVEL_1
  6
CONTINUOUS
 62
     2
100
AcDbLine
 10
4.820139
 20
1.874498
 30
0.0
 11
4.827005
 21
1.840167
 31
0.0
  0
LINE
  5
335
100
AcDbEntity
  8
CK_LEVEL_1
  6
CONTINUOUS
 62
     2
100
AcDbLine
 10
4.827005
 20
1.840167
 30
0.0
 11
4.827005
 21
1.812702
 31
0.0
  0
LINE
  5
336
100
AcDbEntity
  8
CK_LEVEL_1
  6
CONTINUOUS
 62
     2
100
AcDbLine
 10
4.827005
 20
1.812702
 30
0.0
 11
4.840738
 21
1.77837
 31
0.0
  0
LINE
  5
337
100
AcDbEntity
  8
CK_LEVEL_1
  6
CONTINUOUS
 62
     2
100
AcDbLine
 10
4.840738
 20
1.77837
 30
0.0
 11
4.861337
 21
1.750905
 31
0.0
  0
LINE
  5
338
100
AcDbEntity
  8
CK_LEVEL_1
  6
CONTINUOUS
 62
     2
100
AcDbLine
 10
4.861337
 20
1.750905
 30
0.0
 11
4.923134
 21
1.695975
 31
0.0
  0
LINE
  5
339
100
AcDbEntity
  8
CK_LEVEL_1
  6
CONTINUOUS
 62
     2
100
AcDbLine
 10
4.923134
 20
1.695975
 30
0.0
 11
5.012395
 21
1.661643
 31
0.0
  0
LINE
  5
33A
100
AcDbEntity
  8
CK_LEVEL_1
  6
CONTINUOUS
 62
     2
100
AcDbLine
 10
5.012395
 20
1.661643
 30
0.0
 11
5.11539
 21
1.641044
 31
0.0
  0
LINE
  5
33B
100
AcDbEntity
  8
CK_LEVEL_1
  6
CONTINUOUS
 62
     2
100
AcDbLine
 10
5.11539
 20
1.641044
 30
0.0
 11
5.17032
 21
1.634178
 31
0.0
  0
LINE
  5
33C
100
AcDbEntity
  8
CK_LEVEL_1
  6
CONTINUOUS
 62
     2
100
AcDbLine
 10
5.17032
 20
1.634178
 30
0.0
 11
5.238983
 21
1.627312
 31
0.0
  0
LINE
  5
33D
100
AcDbEntity
  8
CK_LEVEL_1
  6
CONTINUOUS
 62
     2
100
AcDbLine
 10
5.238983
 20
1.627312
 30
0.0
 11
5.410641
 21
1.613579
 31
0.0
  0
LINE
  5
33E
100
AcDbEntity
  8
CK_LEVEL_1
  6
CONTINUOUS
 62
     2
100
AcDbLine
 10
5.410641
 20
1.613579
 30
0.0
 11
5.575432
 21
1.620445
 31
0.0
  0
LINE
  5
33F
100
AcDbEntity
  8
CK_LEVEL_1
  6
CONTINUOUS
 62
     2
100
AcDbLine
 10
5.575432
 20
1.620445
 30
0.0
 11
5.637228
 21
1.627312
 31
0.0
  0
LINE
  5
340
100
AcDbEntity
  8
CK_LEVEL_1
  6
CONTINUOUS
 62
     2
100
AcDbLine
 10
5.637228
 20
1.627312
 30
0.0
 11
5.678426
 21
1.634178
 31
0.0
  0
LINE
  5
341
100
AcDbEntity
  8
CK_LEVEL_1
  6
CONTINUOUS
 62
     2
100
AcDbLine
 10
5.678426
 20
1.634178
 30
0.0
 11
5.712757
 21
1.641044
 31
0.0
  0
LINE
  5
342
100
AcDbEntity
  8
CK_LEVEL_1
  6
CONTINUOUS
 62
     2
100
AcDbLine
 10
5.712757
 20
1.641044
 30
0.0
 11
5.767688
 21
1.661643
 31
0.0
  0
LINE
  5
343
100
AcDbEntity
  8
CK_LEVEL_1
  6
CONTINUOUS
 62
     2
100
AcDbLine
 10
5.767688
 20
1.661643
 30
0.0
 11
5.795153
 21
1.675376
 31
0.0
  0
LINE
  5
344
100
AcDbEntity
  8
CK_LEVEL_1
  6
CONTINUOUS
 62
     2
100
AcDbLine
 10
5.795153
 20
1.675376
 30
0.0
 11
5.808886
 21
1.689108
 31
0.0
  0
LINE
  5
345
100
AcDbEntity
  8
CK_LEVEL_1
  6
CONTINUOUS
 62
     2
100
AcDbLine
 10
5.808886
 20
1.689108
 30
0.0
 11
5.815752
 21
1.72344
 31
0.0
  0
LINE
  5
346
100
AcDbEntity
  8
CK_LEVEL_1
  6
CONTINUOUS
 62
     2
100
AcDbLine
 10
5.815752
 20
1.72344
 30
0.0
 11
5.815752
 21
1.915696
 31
0.0
  0
LINE
  5
347
100
AcDbEntity
  8
CK_LEVEL_1
  6
CONTINUOUS
 62
     2
100
AcDbLine
 10
5.815752
 20
1.915696
 30
0.0
 11
5.808886
 21
2.087353
 31
0.0
  0
LINE
  5
348
100
AcDbEntity
  8
CK_LEVEL_1
  6
CONTINUOUS
 62
     2
100
AcDbLine
 10
5.808886
 20
2.087353
 30
0.0
 11
5.795153
 21
2.27961
 31
0.0
  0
LINE
  5
349
100
AcDbEntity
  8
CK_LEVEL_1
  6
CONTINUOUS
 62
     2
100
AcDbLine
 10
5.795153
 20
2.27961
 30
0.0
 11
5.774554
 21
2.478732
 31
0.0
  0
LINE
  5
34A
100
AcDbEntity
  8
CK_LEVEL_1
  6
CONTINUOUS
 62
     2
100
AcDbLine
 10
5.774554
 20
2.478732
 30
0.0
 11
5.753955
 21
2.664122
 31
0.0
  0
LINE
  5
34B
100
AcDbEntity
  8
CK_LEVEL_1
  6
CONTINUOUS
 62
     2
100
AcDbLine
 10
5.753955
 20
2.664122
 30
0.0
 11
5.740223
 21
2.815181
 31
0.0
  0
LINE
  5
34C
100
AcDbEntity
  8
CK_LEVEL_1
  6
CONTINUOUS
 62
     2
100
AcDbLine
 10
5.740223
 20
2.815181
 30
0.0
 11
5.740223
 21
2.883844
 31
0.0
  0
LINE
  5
34D
100
AcDbEntity
  8
CK_LEVEL_1
  6
CONTINUOUS
 62
     2
100
AcDbLine
 10
5.740223
 20
2.883844
 30
0.0
 11
5.733356
 21
2.931908
 31
0.0
  0
LINE
  5
34E
100
AcDbEntity
  8
CK_LEVEL_1
  6
CONTINUOUS
 62
     2
100
AcDbLine
 10
5.733356
 20
2.931908
 30
0.0
 11
5.760822
 21
2.904443
 31
0.0
  0
LINE
  5
34F
100
AcDbEntity
  8
CK_LEVEL_1
  6
CONTINUOUS
 62
     2
100
AcDbLine
 10
5.760822
 20
2.904443
 30
0.0
 11
5.802019
 21
2.870111
 31
0.0
  0
LINE
  5
350
100
AcDbEntity
  8
CK_LEVEL_1
  6
CONTINUOUS
 62
     2
100
AcDbLine
 10
5.802019
 20
2.870111
 30
0.0
 11
5.85695
 21
2.828913
 31
0.0
  0
LINE
  5
351
100
AcDbEntity
  8
CK_LEVEL_1
  6
CONTINUOUS
 62
     2
100
AcDbLine
 10
5.85695
 20
2.828913
 30
0.0
 11
5.925613
 21
2.780849
 31
0.0
  0
LINE
  5
352
100
AcDbEntity
  8
CK_LEVEL_1
  6
CONTINUOUS
 62
     2
100
AcDbLine
 10
5.925613
 20
2.780849
 30
0.0
 11
6.083537
 21
2.664122
 31
0.0
  0
LINE
  5
353
100
AcDbEntity
  8
CK_LEVEL_1
  6
CONTINUOUS
 62
     2
100
AcDbLine
 10
6.083537
 20
2.664122
 30
0.0
 11
6.268927
 21
2.533663
 31
0.0
  0
LINE
  5
354
100
AcDbEntity
  8
CK_LEVEL_1
  6
CONTINUOUS
 62
     2
100
AcDbLine
 10
6.268927
 20
2.533663
 30
0.0
 11
6.447451
 21
2.416936
 31
0.0
  0
LINE
  5
355
100
AcDbEntity
  8
CK_LEVEL_1
  6
CONTINUOUS
 62
     2
100
AcDbLine
 10
6.447451
 20
2.416936
 30
0.0
 11
6.605376
 21
2.307075
 31
0.0
  0
LINE
  5
356
100
AcDbEntity
  8
CK_LEVEL_1
  6
CONTINUOUS
 62
     2
100
AcDbLine
 10
6.605376
 20
2.307075
 30
0.0
 11
6.674039
 21
2.265877
 31
0.0
  0
LINE
  5
357
100
AcDbEntity
  8
CK_LEVEL_1
  6
CONTINUOUS
 62
     2
100
AcDbLine
 10
6.674039
 20
2.265877
 30
0.0
 11
6.728969
 21
2.231546
 31
0.0
  0
LINE
  5
358
100
AcDbEntity
  8
CK_LEVEL_1
  6
CONTINUOUS
 62
     2
100
AcDbLine
 10
6.728969
 20
2.231546
 30
0.0
 11
6.83883
 21
2.176615
 31
0.0
  0
LINE
  5
359
100
AcDbEntity
  8
CK_LEVEL_1
  6
CONTINUOUS
 62
     2
100
AcDbLine
 10
6.83883
 20
2.176615
 30
0.0
 11
6.886894
 21
2.142284
 31
0.0
  0
LINE
  5
35A
100
AcDbEntity
  8
CK_LEVEL_1
  6
CONTINUOUS
 62
     2
100
AcDbLine
 10
6.886894
 20
2.142284
 30
0.0
 11
7.003621
 21
2.053022
 31
0.0
  0
LINE
  5
35B
100
AcDbEntity
  8
CK_LEVEL_1
  6
CONTINUOUS
 62
     2
100
AcDbLine
 10
7.003621
 20
2.053022
 30
0.0
 11
7.127214
 21
1.956894
 31
0.0
  0
LINE
  5
35C
100
AcDbEntity
  8
CK_LEVEL_1
  6
CONTINUOUS
 62
     2
100
AcDbLine
 10
7.127214
 20
1.956894
 30
0.0
 11
7.175278
 21
1.915696
 31
0.0
  0
LINE
  5
35D
100
AcDbEntity
  8
CK_LEVEL_1
  6
CONTINUOUS
 62
     2
100
AcDbLine
 10
7.175278
 20
1.915696
 30
0.0
 11
7.20961
 21
1.888231
 31
0.0
  0
LINE
  5
35E
100
AcDbEntity
  8
CK_LEVEL_1
  6
CONTINUOUS
 62
     2
100
AcDbLine
 10
7.20961
 20
1.888231
 30
0.0
 11
7.237075
 21
1.860766
 31
0.0
  0
LINE
  5
35F
100
AcDbEntity
  8
CK_LEVEL_1
  6
CONTINUOUS
 62
     2
100
AcDbLine
 10
7.237075
 20
1.860766
 30
0.0
 11
7.257674
 21
1.833301
 31
0.0
  0
LINE
  5
360
100
AcDbEntity
  8
CK_LEVEL_1
  6
CONTINUOUS
 62
     2
100
AcDbLine
 10
7.257674
 20
1.833301
 30
0.0
 11
7.305738
 21
1.785237
 31
0.0
  0
LINE
  5
361
100
AcDbEntity
  8
CK_LEVEL_1
  6
CONTINUOUS
 62
     2
100
AcDbLine
 10
7.305738
 20
1.785237
 30
0.0
 11
7.367534
 21
1.750905
 31
0.0
  0
LINE
  5
362
100
AcDbEntity
  8
CK_LEVEL_1
  6
CONTINUOUS
 62
     2
100
AcDbLine
 10
7.367534
 20
1.750905
 30
0.0
 11
7.408732
 21
1.737172
 31
0.0
  0
LINE
  5
363
100
AcDbEntity
  8
CK_LEVEL_1
  6
CONTINUOUS
 62
     2
100
AcDbLine
 10
7.408732
 20
1.737172
 30
0.0
 11
7.463663
 21
1.730306
 31
0.0
  0
LINE
  5
364
100
AcDbEntity
  8
CK_LEVEL_1
  6
CONTINUOUS
 62
     2
100
AcDbLine
 10
7.463663
 20
1.730306
 30
0.0
 11
7.511727
 21
1.737172
 31
0.0
  0
LINE
  5
365
100
AcDbEntity
  8
CK_LEVEL_1
  6
CONTINUOUS
 62
     2
100
AcDbLine
 10
7.511727
 20
1.737172
 30
0.0
 11
7.573523
 21
1.744039
 31
0.0
  0
LINE
  5
366
100
AcDbEntity
  8
CK_LEVEL_1
  6
CONTINUOUS
 62
     2
100
AcDbLine
 10
7.573523
 20
1.744039
 30
0.0
 11
7.710849
 21
1.77837
 31
0.0
  0
LINE
  5
367
100
AcDbEntity
  8
CK_LEVEL_1
  6
CONTINUOUS
 62
     2
100
AcDbLine
 10
7.710849
 20
1.77837
 30
0.0
 11
7.841309
 21
1.812702
 31
0.0
  0
LINE
  5
368
100
AcDbEntity
  8
CK_LEVEL_1
  6
CONTINUOUS
 62
     2
100
AcDbLine
 10
7.841309
 20
1.812702
 30
0.0
 11
7.930571
 21
1.847033
 31
0.0
  0
LINE
  5
369
100
AcDbEntity
  8
CK_LEVEL_1
  6
CONTINUOUS
 62
     2
100
AcDbLine
 10
7.930571
 20
1.847033
 30
0.0
 11
7.971768
 21
1.867632
 31
0.0
  0
LINE
  5
36A
100
AcDbEntity
  8
CK_LEVEL_1
  6
CONTINUOUS
 62
     2
100
AcDbLine
 10
7.971768
 20
1.867632
 30
0.0
 11
8.040431
 21
1.895097
 31
0.0
  0
LINE
  5
36B
100
AcDbEntity
  8
CK_LEVEL_1
  6
CONTINUOUS
 62
     2
100
AcDbLine
 10
8.040431
 20
1.895097
 30
0.0
 11
8.122827
 21
1.929429
 31
0.0
  0
LINE
  5
36C
100
AcDbEntity
  8
CK_LEVEL_1
  6
CONTINUOUS
 62
     2
100
AcDbLine
 10
8.122827
 20
1.929429
 30
0.0
 11
8.218955
 21
1.977493
 31
0.0
  0
LINE
  5
36D
100
AcDbEntity
  8
CK_LEVEL_1
  6
CONTINUOUS
 62
     2
100
AcDbLine
 10
8.218955
 20
1.977493
 30
0.0
 11
8.514206
 21
2.114819
 31
0.0
  0
LINE
  5
36E
100
AcDbEntity
  8
CK_LEVEL_1
  6
CONTINUOUS
 62
     2
100
AcDbLine
 10
8.514206
 20
2.114819
 30
0.0
 11
8.589735
 21
2.156016
 31
0.0
  0
LINE
  5
36F
100
AcDbEntity
  8
CK_LEVEL_1
  6
CONTINUOUS
 62
     2
100
AcDbLine
 10
8.589735
 20
2.156016
 30
0.0
 11
8.630933
 21
2.176615
 31
0.0
  0
LINE
  5
370
100
AcDbEntity
  8
CK_LEVEL_1
  6
CONTINUOUS
 62
     2
100
AcDbLine
 10
8.630933
 20
2.176615
 30
0.0
 11
8.658398
 21
2.197214
 31
0.0
  0
LINE
  5
371
100
AcDbEntity
  8
CK_LEVEL_1
  6
CONTINUOUS
 62
     2
100
AcDbLine
 10
8.658398
 20
2.197214
 30
0.0
 11
8.6172
 21
2.224679
 31
0.0
  0
LINE
  5
372
100
AcDbEntity
  8
CK_LEVEL_1
  6
CONTINUOUS
 62
     2
100
AcDbLine
 10
8.6172
 20
2.224679
 30
0.0
 11
8.555403
 21
2.259011
 31
0.0
  0
LINE
  5
373
100
AcDbEntity
  8
CK_LEVEL_1
  6
CONTINUOUS
 62
     2
100
AcDbLine
 10
8.555403
 20
2.259011
 30
0.0
 11
8.424944
 21
2.348273
 31
0.0
  0
LINE
  5
374
100
AcDbEntity
  8
CK_LEVEL_1
  6
CONTINUOUS
 62
     2
100
AcDbLine
 10
8.424944
 20
2.348273
 30
0.0
 11
8.356281
 21
2.38947
 31
0.0
  0
LINE
  5
375
100
AcDbEntity
  8
CK_LEVEL_1
  6
CONTINUOUS
 62
     2
100
AcDbLine
 10
8.356281
 20
2.38947
 30
0.0
 11
8.301352
 21
2.430668
 31
0.0
  0
LINE
  5
376
100
AcDbEntity
  8
CK_LEVEL_1
  6
CONTINUOUS
 62
     2
100
AcDbLine
 10
8.301351
 20
2.430668
 30
0.0
 11
8.260153
 21
2.465
 31
0.0
  0
LINE
  5
377
100
AcDbEntity
  8
CK_LEVEL_1
  6
CONTINUOUS
 62
     2
100
AcDbLine
 10
8.260153
 20
2.465
 30
0.0
 11
8.239553
 21
2.492465
 31
0.0
  0
LINE
  5
378
100
AcDbEntity
  8
CK_LEVEL_1
  6
CONTINUOUS
 62
     2
100
AcDbLine
 10
8.239554
 20
2.492465
 30
0.0
 11
8.129693
 21
2.643523
 31
0.0
  0
LINE
  5
379
100
AcDbEntity
  8
CK_LEVEL_1
  6
CONTINUOUS
 62
     2
100
AcDbLine
 10
8.129693
 20
2.643523
 30
0.0
 11
8.054164
 21
2.719053
 31
0.0
  0
LINE
  5
37A
100
AcDbEntity
  8
CK_LEVEL_1
  6
CONTINUOUS
 62
     2
100
AcDbLine
 10
8.054164
 20
2.719053
 30
0.0
 11
8.019832
 21
2.739651
 31
0.0
  0
LINE
  5
37B
100
AcDbEntity
  8
CK_LEVEL_1
  6
CONTINUOUS
 62
     2
100
AcDbLine
 10
8.019832
 20
2.739651
 30
0.0
 11
7.999234
 21
2.753384
 31
0.0
  0
LINE
  5
37C
100
AcDbEntity
  8
CK_LEVEL_1
  6
CONTINUOUS
 62
     2
100
AcDbLine
 10
7.999234
 20
2.753384
 30
0.0
 11
7.985501
 21
2.746518
 31
0.0
  0
LINE
  5
37D
100
AcDbEntity
  8
CK_LEVEL_1
  6
CONTINUOUS
 62
     2
100
AcDbLine
 10
7.985501
 20
2.746518
 30
0.0
 11
7.978635
 21
2.725919
 31
0.0
  0
LINE
  5
37E
100
AcDbEntity
  8
CK_LEVEL_1
  6
CONTINUOUS
 62
     2
100
AcDbLine
 10
7.978635
 20
2.725919
 30
0.0
 11
7.971768
 21
2.698454
 31
0.0
  0
LINE
  5
37F
100
AcDbEntity
  8
CK_LEVEL_1
  6
CONTINUOUS
 62
     2
100
AcDbLine
 10
7.971768
 20
2.698454
 30
0.0
 11
7.964902
 21
2.677855
 31
0.0
  0
LINE
  5
380
100
AcDbEntity
  8
CK_LEVEL_1
  6
CONTINUOUS
 62
     2
100
AcDbLine
 10
7.964902
 20
2.677855
 30
0.0
 11
7.882507
 21
2.732785
 31
0.0
  0
LINE
  5
381
100
AcDbEntity
  8
CK_LEVEL_1
  6
CONTINUOUS
 62
     2
100
AcDbLine
 10
7.882507
 20
2.732785
 30
0.0
 11
7.779512
 21
2.815181
 31
0.0
  0
LINE
  5
382
100
AcDbEntity
  8
CK_LEVEL_1
  6
CONTINUOUS
 62
     2
100
AcDbLine
 10
7.779512
 20
2.815181
 30
0.0
 11
7.552924
 21
3.028036
 31
0.0
  0
LINE
  5
383
100
AcDbEntity
  8
CK_LEVEL_1
  6
CONTINUOUS
 62
     2
100
AcDbLine
 10
7.552924
 20
3.028036
 30
0.0
 11
7.44993
 21
3.13103
 31
0.0
  0
LINE
  5
384
100
AcDbEntity
  8
CK_LEVEL_1
  6
CONTINUOUS
 62
     2
100
AcDbLine
 10
7.44993
 20
3.13103
 30
0.0
 11
7.346936
 21
3.227158
 31
0.0
  0
LINE
  5
385
100
AcDbEntity
  8
CK_LEVEL_1
  6
CONTINUOUS
 62
     2
100
AcDbLine
 10
7.346936
 20
3.227158
 30
0.0
 11
7.271406
 21
3.302688
 31
0.0
  0
LINE
  5
386
100
AcDbEntity
  8
CK_LEVEL_1
  6
CONTINUOUS
 62
     2
100
AcDbLine
 10
7.271406
 20
3.302688
 30
0.0
 11
7.243941
 21
3.323286
 31
0.0
  0
LINE
  5
387
100
AcDbEntity
  8
CK_LEVEL_1
  6
CONTINUOUS
 62
     2
100
AcDbLine
 10
7.243941
 20
3.323286
 30
0.0
 11
7.223342
 21
3.343885
 31
0.0
  0
LINE
  5
388
100
AcDbEntity
  8
CK_LEVEL_1
  6
CONTINUOUS
 62
     2
100
AcDbLine
 10
7.223342
 20
3.343885
 30
0.0
 11
7.182145
 21
3.371351
 31
0.0
  0
LINE
  5
389
100
AcDbEntity
  8
CK_LEVEL_1
  6
CONTINUOUS
 62
     2
100
AcDbLine
 10
7.182145
 20
3.371351
 30
0.0
 11
7.127214
 21
3.398816
 31
0.0
  0
LINE
  5
38A
100
AcDbEntity
  8
CK_LEVEL_1
  6
CONTINUOUS
 62
     2
100
AcDbLine
 10
7.127214
 20
3.398816
 30
0.0
 11
6.996755
 21
3.453746
 31
0.0
  0
LINE
  5
38B
100
AcDbEntity
  8
CK_LEVEL_1
  6
CONTINUOUS
 62
     2
100
AcDbLine
 10
6.996755
 20
3.453746
 30
0.0
 11
6.790766
 21
3.522409
 31
0.0
  0
LINE
  5
38C
100
AcDbEntity
  8
CK_LEVEL_1
  6
CONTINUOUS
 62
     2
100
AcDbLine
 10
6.790766
 20
3.522409
 30
0.0
 11
6.735835
 21
3.529275
 31
0.0
  0
LINE
  5
38D
100
AcDbEntity
  8
CK_LEVEL_1
  6
CONTINUOUS
 62
     2
100
AcDbLine
 10
6.735835
 20
3.529275
 30
0.0
 11
6.797632
 21
3.549874
 31
0.0
  0
LINE
  5
38E
100
AcDbEntity
  8
CK_LEVEL_1
  6
CONTINUOUS
 62
     2
100
AcDbLine
 10
6.797632
 20
3.549874
 30
0.0
 11
6.989888
 21
3.639136
 31
0.0
  0
LINE
  5
38F
100
AcDbEntity
  8
CK_LEVEL_1
  6
CONTINUOUS
 62
     2
100
AcDbLine
 10
6.989888
 20
3.639136
 30
0.0
 11
7.106615
 21
3.694066
 31
0.0
  0
LINE
  5
390
100
AcDbEntity
  8
CK_LEVEL_1
  6
CONTINUOUS
 62
     2
100
AcDbLine
 10
7.106615
 20
3.694066
 30
0.0
 11
7.333203
 21
3.803927
 31
0.0
  0
LINE
  5
391
100
AcDbEntity
  8
CK_LEVEL_1
  6
CONTINUOUS
 62
     2
100
AcDbLine
 10
7.333203
 20
3.803927
 30
0.0
 11
7.429331
 21
3.858857
 31
0.0
  0
LINE
  5
392
100
AcDbEntity
  8
CK_LEVEL_1
  6
CONTINUOUS
 62
     2
100
AcDbLine
 10
7.429331
 20
3.858857
 30
0.0
 11
7.50486
 21
3.900055
 31
0.0
  0
LINE
  5
393
100
AcDbEntity
  8
CK_LEVEL_1
  6
CONTINUOUS
 62
     2
100
AcDbLine
 10
7.50486
 20
3.900055
 30
0.0
 11
7.566657
 21
3.941253
 31
0.0
  0
LINE
  5
394
100
AcDbEntity
  8
CK_LEVEL_1
  6
CONTINUOUS
 62
     2
100
AcDbLine
 10
7.566657
 20
3.941253
 30
0.0
 11
7.813844
 21
4.099178
 31
0.0
  0
LINE
  5
395
100
AcDbEntity
  8
CK_LEVEL_1
  6
CONTINUOUS
 62
     2
100
AcDbLine
 10
7.813844
 20
4.099178
 30
0.0
 11
7.896239
 21
4.154108
 31
0.0
  0
LINE
  5
396
100
AcDbEntity
  8
CK_LEVEL_1
  6
CONTINUOUS
 62
     2
100
AcDbLine
 10
7.896239
 20
4.154108
 30
0.0
 11
7.971768
 21
4.202172
 31
0.0
  0
LINE
  5
397
100
AcDbEntity
  8
CK_LEVEL_1
  6
CONTINUOUS
 62
     2
100
AcDbLine
 10
7.971768
 20
4.202172
 30
0.0
 11
8.074763
 21
4.270835
 31
0.0
  0
LINE
  5
398
100
AcDbEntity
  8
CK_LEVEL_1
  6
CONTINUOUS
 62
     2
100
AcDbLine
 10
8.074763
 20
4.270835
 30
0.0
 11
8.177757
 21
4.305167
 31
0.0
  0
LINE
  5
399
100
AcDbEntity
  8
CK_LEVEL_1
  6
CONTINUOUS
 62
     2
100
AcDbLine
 10
8.177757
 20
4.305167
 30
0.0
 11
8.225821
 21
4.312033
 31
0.0
  0
LINE
  5
39A
100
AcDbEntity
  8
CK_LEVEL_1
  6
CONTINUOUS
 62
     2
100
AcDbLine
 10
8.225821
 20
4.312033
 30
0.0
 11
8.280751
 21
4.325765
 31
0.0
  0
LINE
  5
39B
100
AcDbEntity
  8
CK_LEVEL_1
  6
CONTINUOUS
 62
     2
100
AcDbLine
 10
8.280752
 20
4.325765
 30
0.0
 11
8.315084
 21
4.339498
 31
0.0
  0
LINE
  5
39C
100
AcDbEntity
  8
CK_LEVEL_1
  6
CONTINUOUS
 62
     2
100
AcDbLine
 10
8.315083
 20
4.339498
 30
0.0
 11
8.342547
 21
4.360097
 31
0.0
  0
LINE
  5
39D
100
AcDbEntity
  8
CK_LEVEL_1
  6
CONTINUOUS
 62
     2
100
AcDbLine
 10
8.342548
 20
4.360097
 30
0.0
 11
8.383746
 21
4.415027
 31
0.0
  0
LINE
  5
39E
100
AcDbEntity
  8
CK_LEVEL_1
  6
CONTINUOUS
 62
     2
100
AcDbLine
 10
8.383746
 20
4.415027
 30
0.0
 11
8.397479
 21
4.463091
 31
0.0
  0
LINE
  5
39F
100
AcDbEntity
  8
CK_LEVEL_1
  6
CONTINUOUS
 62
     2
100
AcDbLine
 10
8.397479
 20
4.463091
 30
0.0
 11
8.424944
 21
4.586685
 31
0.0
  0
LINE
  5
3A0
100
AcDbEntity
  8
CK_LEVEL_1
  6
CONTINUOUS
 62
     2
100
AcDbLine
 10
8.424944
 20
4.586685
 30
0.0
 11
8.445543
 21
4.730877
 31
0.0
  0
LINE
  5
3A1
100
AcDbEntity
  8
CK_LEVEL_1
  6
CONTINUOUS
 62
     2
100
AcDbLine
 10
8.445543
 20
4.730877
 30
0.0
 11
8.445543
 21
4.861336
 31
0.0
  0
LINE
  5
3A2
100
AcDbEntity
  8
CK_LEVEL_1
  6
CONTINUOUS
 62
     2
100
AcDbLine
 10
8.445543
 20
4.861336
 30
0.0
 11
8.438676
 21
4.923133
 31
0.0
  0
LINE
  5
3A3
100
AcDbEntity
  8
CK_LEVEL_1
  6
CONTINUOUS
 62
     2
100
AcDbLine
 10
8.438676
 20
4.923133
 30
0.0
 11
8.424944
 21
4.991796
 31
0.0
  0
LINE
  5
3A4
100
AcDbEntity
  8
CK_LEVEL_1
  6
CONTINUOUS
 62
     2
100
AcDbLine
 10
8.424944
 20
4.991796
 30
0.0
 11
8.383746
 21
5.142855
 31
0.0
  0
LINE
  5
3A5
100
AcDbEntity
  8
CK_LEVEL_1
  6
CONTINUOUS
 62
     2
100
AcDbLine
 10
8.383746
 20
5.142855
 30
0.0
 11
8.363147
 21
5.211517
 31
0.0
  0
LINE
  5
3A6
100
AcDbEntity
  8
CK_LEVEL_1
  6
CONTINUOUS
 62
     2
100
AcDbLine
 10
8.363147
 20
5.211517
 30
0.0
 11
8.342547
 21
5.273314
 31
0.0
  0
LINE
  5
3A7
100
AcDbEntity
  8
CK_LEVEL_1
  6
CONTINUOUS
 62
     2
100
AcDbLine
 10
8.342548
 20
5.273314
 30
0.0
 11
8.321949
 21
5.321378
 31
0.0
  0
LINE
  5
3A8
100
AcDbEntity
  8
CK_LEVEL_1
  6
CONTINUOUS
 62
     2
100
AcDbLine
 10
8.321949
 20
5.321378
 30
0.0
 11
8.315083
 21
5.341977
 31
0.0
  0
LINE
  5
3A9
100
AcDbEntity
  8
CK_LEVEL_1
  6
CONTINUOUS
 62
     2
100
AcDbLine
 10
8.315083
 20
5.341977
 30
0.0
 11
8.308216
 21
5.383175
 31
0.0
  0
LINE
  5
3AA
100
AcDbEntity
  8
CK_LEVEL_1
  6
CONTINUOUS
 62
     2
100
AcDbLine
 10
8.308217
 20
5.383175
 30
0.0
 11
8.308217
 21
5.424373
 31
0.0
  0
LINE
  5
3AB
100
AcDbEntity
  8
CK_LEVEL_1
  6
CONTINUOUS
 62
     2
100
AcDbLine
 10
8.308217
 20
5.424373
 30
0.0
 11
8.301351
 21
5.479303
 31
0.0
  0
LINE
  5
3AC
100
AcDbEntity
  8
CK_LEVEL_1
  6
CONTINUOUS
 62
     2
100
AcDbLine
 10
8.576002
 20
2.156016
 30
0.0
 11
8.589735
 21
2.156016
 31
0.0
  0
LINE
  5
3AD
100
AcDbEntity
  8
CK_LEVEL_1
  6
CONTINUOUS
 62
     2
100
AcDbLine
 10
7.223342
 20
3.343885
 30
0.0
 11
7.182145
 21
3.371351
 31
0.0
  0
LINE
  5
3AE
100
AcDbEntity
  8
CK_LEVEL_1
  6
CONTINUOUS
 62
     2
100
AcDbLine
 10
7.182145
 20
3.371351
 30
0.0
 11
7.127214
 21
3.398816
 31
0.0
  0
LINE
  5
3AF
100
AcDbEntity
  8
CK_LEVEL_1
  6
CONTINUOUS
 62
     2
100
AcDbLine
 10
7.127214
 20
3.398816
 30
0.0
 11
6.996755
 21
3.453746
 31
0.0
  0
LINE
  5
3B0
100
AcDbEntity
  8
CK_LEVEL_1
  6
CONTINUOUS
 62
     2
100
AcDbLine
 10
6.996755
 20
3.453746
 30
0.0
 11
6.790766
 21
3.522409
 31
0.0
  0
LINE
  5
3B1
100
AcDbEntity
  8
CK_LEVEL_1
  6
CONTINUOUS
 62
     2
100
AcDbLine
 10
6.790766
 20
3.522409
 30
0.0
 11
6.735835
 21
3.529275
 31
0.0
  0
LINE
  5
3B2
100
AcDbEntity
  8
CK_LEVEL_1
  6
CONTINUOUS
 62
     2
100
AcDbLine
 10
6.735835
 20
3.529275
 30
0.0
 11
6.687771
 21
3.515543
 31
0.0
  0
LINE
  5
3B3
100
AcDbEntity
  8
CK_LEVEL_1
  6
CONTINUOUS
 62
     2
100
AcDbLine
 10
6.687771
 20
3.515543
 30
0.0
 11
6.646574
 21
3.50181
 31
0.0
  0
LINE
  5
3B4
100
AcDbEntity
  8
CK_LEVEL_1
  6
CONTINUOUS
 62
     2
100
AcDbLine
 10
6.646574
 20
3.50181
 30
0.0
 11
6.70837
 21
3.460612
 31
0.0
  0
LINE
  5
3B5
100
AcDbEntity
  8
CK_LEVEL_1
  6
CONTINUOUS
 62
     2
100
AcDbLine
 10
6.70837
 20
3.460612
 30
0.0
 11
6.735835
 21
3.44688
 31
0.0
  0
LINE
  5
3B6
100
AcDbEntity
  8
CK_LEVEL_1
  6
CONTINUOUS
 62
     2
100
AcDbLine
 10
6.735835
 20
3.44688
 30
0.0
 11
6.756434
 21
3.433147
 31
0.0
  0
LINE
  5
3B7
100
AcDbEntity
  8
CK_LEVEL_1
  6
CONTINUOUS
 62
     2
100
AcDbLine
 10
6.756434
 20
3.433147
 30
0.0
 11
6.859429
 21
3.440013
 31
0.0
  0
LINE
  5
3B8
100
AcDbEntity
  8
CK_LEVEL_1
  6
CONTINUOUS
 62
     2
100
AcDbLine
 10
6.859429
 20
3.440013
 30
0.0
 11
6.976156
 21
3.426281
 31
0.0
  0
LINE
  5
3B9
100
AcDbEntity
  8
CK_LEVEL_1
  6
CONTINUOUS
 62
     2
100
AcDbLine
 10
6.976156
 20
3.426281
 30
0.0
 11
7.092883
 21
3.398816
 31
0.0
  0
LINE
  5
3BA
100
AcDbEntity
  8
CK_LEVEL_1
  6
CONTINUOUS
 62
     2
100
AcDbLine
 10
7.092883
 20
3.398816
 30
0.0
 11
7.223342
 21
3.343885
 31
0.0
  0
LINE
  5
3BB
100
AcDbEntity
  8
CK_LEVEL_1
  6
CONTINUOUS
 62
     2
100
AcDbLine
 10
7.223342
 20
3.350752
 30
0.0
 11
7.223342
 21
3.343885
 31
0.0
  0
LINE
  5
3BC
100
AcDbEntity
  8
CK_LEVEL_1
  6
CONTINUOUS
 62
     2
100
AcDbLine
 10
5.733356
 20
2.931908
 30
0.0
 11
5.760822
 21
2.904443
 31
0.0
  0
LINE
  5
3BD
100
AcDbEntity
  8
CK_LEVEL_1
  6
CONTINUOUS
 62
     2
100
AcDbLine
 10
5.760822
 20
2.904443
 30
0.0
 11
5.802019
 21
2.870111
 31
0.0
  0
LINE
  5
3BE
100
AcDbEntity
  8
CK_LEVEL_1
  6
CONTINUOUS
 62
     2
100
AcDbLine
 10
5.802019
 20
2.870111
 30
0.0
 11
5.85695
 21
2.828913
 31
0.0
  0
LINE
  5
3BF
100
AcDbEntity
  8
CK_LEVEL_1
  6
CONTINUOUS
 62
     2
100
AcDbLine
 10
5.85695
 20
2.828913
 30
0.0
 11
5.925613
 21
2.780849
 31
0.0
  0
LINE
  5
3C0
100
AcDbEntity
  8
CK_LEVEL_1
  6
CONTINUOUS
 62
     2
100
AcDbLine
 10
5.925613
 20
2.780849
 30
0.0
 11
6.083537
 21
2.664122
 31
0.0
  0
LINE
  5
3C1
100
AcDbEntity
  8
CK_LEVEL_1
  6
CONTINUOUS
 62
     2
100
AcDbLine
 10
6.083537
 20
2.664122
 30
0.0
 11
6.268927
 21
2.533663
 31
0.0
  0
LINE
  5
3C2
100
AcDbEntity
  8
CK_LEVEL_1
  6
CONTINUOUS
 62
     2
100
AcDbLine
 10
6.268927
 20
2.533663
 30
0.0
 11
6.447451
 21
2.416936
 31
0.0
  0
LINE
  5
3C3
100
AcDbEntity
  8
CK_LEVEL_1
  6
CONTINUOUS
 62
     2
100
AcDbLine
 10
6.447451
 20
2.416936
 30
0.0
 11
6.605376
 21
2.307075
 31
0.0
  0
LINE
  5
3C4
100
AcDbEntity
  8
CK_LEVEL_1
  6
CONTINUOUS
 62
     2
100
AcDbLine
 10
6.605376
 20
2.307075
 30
0.0
 11
6.674039
 21
2.265877
 31
0.0
  0
LINE
  5
3C5
100
AcDbEntity
  8
CK_LEVEL_1
  6
CONTINUOUS
 62
     2
100
AcDbLine
 10
6.674039
 20
2.265877
 30
0.0
 11
6.728969
 21
2.231546
 31
0.0
  0
LINE
  5
3C6
100
AcDbEntity
  8
CK_LEVEL_1
  6
CONTINUOUS
 62
     2
100
AcDbLine
 10
6.728969
 20
2.231546
 30
0.0
 11
6.797632
 21
2.197214
 31
0.0
  0
LINE
  5
3C7
100
AcDbEntity
  8
CK_LEVEL_1
  6
CONTINUOUS
 62
     2
100
AcDbLine
 10
6.797632
 20
2.197214
 30
0.0
 11
6.804498
 21
2.224679
 31
0.0
  0
LINE
  5
3C8
100
AcDbEntity
  8
CK_LEVEL_1
  6
CONTINUOUS
 62
     2
100
AcDbLine
 10
6.804498
 20
2.224679
 30
0.0
 11
6.790766
 21
2.259011
 31
0.0
  0
LINE
  5
3C9
100
AcDbEntity
  8
CK_LEVEL_1
  6
CONTINUOUS
 62
     2
100
AcDbLine
 10
6.790766
 20
2.259011
 30
0.0
 11
6.763301
 21
2.286476
 31
0.0
  0
LINE
  5
3CA
100
AcDbEntity
  8
CK_LEVEL_1
  6
CONTINUOUS
 62
     2
100
AcDbLine
 10
6.763301
 20
2.286476
 30
0.0
 11
6.728969
 21
2.313941
 31
0.0
  0
LINE
  5
3CB
100
AcDbEntity
  8
CK_LEVEL_1
  6
CONTINUOUS
 62
     2
100
AcDbLine
 10
6.728969
 20
2.313941
 30
0.0
 11
6.694638
 21
2.33454
 31
0.0
  0
LINE
  5
3CC
100
AcDbEntity
  8
CK_LEVEL_1
  6
CONTINUOUS
 62
     2
100
AcDbLine
 10
6.694638
 20
2.33454
 30
0.0
 11
6.639707
 21
2.375738
 31
0.0
  0
LINE
  5
3CD
100
AcDbEntity
  8
CK_LEVEL_1
  6
CONTINUOUS
 62
     2
100
AcDbLine
 10
6.639707
 20
2.375738
 30
0.0
 11
6.495515
 21
2.465
 31
0.0
  0
LINE
  5
3CE
100
AcDbEntity
  8
CK_LEVEL_1
  6
CONTINUOUS
 62
     2
100
AcDbLine
 10
6.495515
 20
2.465
 30
0.0
 11
6.358189
 21
2.561128
 31
0.0
  0
LINE
  5
3CF
100
AcDbEntity
  8
CK_LEVEL_1
  6
CONTINUOUS
 62
     2
100
AcDbLine
 10
6.358189
 20
2.561128
 30
0.0
 11
6.275794
 21
2.622924
 31
0.0
  0
LINE
  5
3D0
100
AcDbEntity
  8
CK_LEVEL_1
  6
CONTINUOUS
 62
     2
100
AcDbLine
 10
6.275794
 20
2.622924
 30
0.0
 11
6.41312
 21
2.567994
 31
0.0
  0
LINE
  5
3D1
100
AcDbEntity
  8
CK_LEVEL_1
  6
CONTINUOUS
 62
     2
100
AcDbLine
 10
6.41312
 20
2.567994
 30
0.0
 11
6.584777
 21
2.513064
 31
0.0
  0
LINE
  5
3D2
100
AcDbEntity
  8
CK_LEVEL_1
  6
CONTINUOUS
 62
     2
100
AcDbLine
 10
6.584777
 20
2.513064
 30
0.0
 11
6.770167
 21
2.458133
 31
0.0
  0
LINE
  5
3D3
100
AcDbEntity
  8
CK_LEVEL_1
  6
CONTINUOUS
 62
     2
100
AcDbLine
 10
6.770167
 20
2.458133
 30
0.0
 11
6.962423
 21
2.416936
 31
0.0
  0
LINE
  5
3D4
100
AcDbEntity
  8
CK_LEVEL_1
  6
CONTINUOUS
 62
     2
100
AcDbLine
 10
6.962423
 20
2.416936
 30
0.0
 11
7.161546
 21
2.382604
 31
0.0
  0
LINE
  5
3D5
100
AcDbEntity
  8
CK_LEVEL_1
  6
CONTINUOUS
 62
     2
100
AcDbLine
 10
7.161546
 20
2.382604
 30
0.0
 11
7.353802
 21
2.362005
 31
0.0
  0
LINE
  5
3D6
100
AcDbEntity
  8
CK_LEVEL_1
  6
CONTINUOUS
 62
     2
100
AcDbLine
 10
7.353802
 20
2.362005
 30
0.0
 11
7.525459
 21
2.368872
 31
0.0
  0
LINE
  5
3D7
100
AcDbEntity
  8
CK_LEVEL_1
  6
CONTINUOUS
 62
     2
100
AcDbLine
 10
7.525459
 20
2.368872
 30
0.0
 11
7.600988
 21
2.382604
 31
0.0
  0
LINE
  5
3D8
100
AcDbEntity
  8
CK_LEVEL_1
  6
CONTINUOUS
 62
     2
100
AcDbLine
 10
7.600988
 20
2.382604
 30
0.0
 11
7.669651
 21
2.396337
 31
0.0
  0
LINE
  5
3D9
100
AcDbEntity
  8
CK_LEVEL_1
  6
CONTINUOUS
 62
     2
100
AcDbLine
 10
7.669651
 20
2.396337
 30
0.0
 11
7.484261
 21
2.423802
 31
0.0
  0
LINE
  5
3DA
100
AcDbEntity
  8
CK_LEVEL_1
  6
CONTINUOUS
 62
     2
100
AcDbLine
 10
7.484261
 20
2.423802
 30
0.0
 11
7.285139
 21
2.465
 31
0.0
  0
LINE
  5
3DB
100
AcDbEntity
  8
CK_LEVEL_1
  6
CONTINUOUS
 62
     2
100
AcDbLine
 10
7.285139
 20
2.465
 30
0.0
 11
6.880028
 21
2.554262
 31
0.0
  0
LINE
  5
3DC
100
AcDbEntity
  8
CK_LEVEL_1
  6
CONTINUOUS
 62
     2
100
AcDbLine
 10
6.880028
 20
2.554262
 30
0.0
 11
6.529847
 21
2.657256
 31
0.0
  0
LINE
  5
3DD
100
AcDbEntity
  8
CK_LEVEL_1
  6
CONTINUOUS
 62
     2
100
AcDbLine
 10
6.529847
 20
2.657256
 30
0.0
 11
6.392521
 21
2.712186
 31
0.0
  0
LINE
  5
3DE
100
AcDbEntity
  8
CK_LEVEL_1
  6
CONTINUOUS
 62
     2
100
AcDbLine
 10
6.392521
 20
2.712186
 30
0.0
 11
6.344457
 21
2.739651
 31
0.0
  0
LINE
  5
3DF
100
AcDbEntity
  8
CK_LEVEL_1
  6
CONTINUOUS
 62
     2
100
AcDbLine
 10
6.344457
 20
2.739651
 30
0.0
 11
6.303259
 21
2.76025
 31
0.0
  0
LINE
  5
3E0
100
AcDbEntity
  8
CK_LEVEL_1
  6
CONTINUOUS
 62
     2
100
AcDbLine
 10
6.303259
 20
2.76025
 30
0.0
 11
6.220863
 21
2.815181
 31
0.0
  0
LINE
  5
3E1
100
AcDbEntity
  8
CK_LEVEL_1
  6
CONTINUOUS
 62
     2
100
AcDbLine
 10
6.220863
 20
2.815181
 30
0.0
 11
6.138468
 21
2.883844
 31
0.0
  0
LINE
  5
3E2
100
AcDbEntity
  8
CK_LEVEL_1
  6
CONTINUOUS
 62
     2
100
AcDbLine
 10
6.138468
 20
2.883844
 30
0.0
 11
5.96681
 21
3.02117
 31
0.0
  0
LINE
  5
3E3
100
AcDbEntity
  8
CK_LEVEL_1
  6
CONTINUOUS
 62
     2
100
AcDbLine
 10
5.96681
 20
3.02117
 30
0.0
 11
5.884415
 21
3.082966
 31
0.0
  0
LINE
  5
3E4
100
AcDbEntity
  8
CK_LEVEL_1
  6
CONTINUOUS
 62
     2
100
AcDbLine
 10
5.884415
 20
3.082966
 30
0.0
 11
5.808886
 21
3.137897
 31
0.0
  0
LINE
  5
3E5
100
AcDbEntity
  8
CK_LEVEL_1
  6
CONTINUOUS
 62
     2
100
AcDbLine
 10
5.808886
 20
3.137897
 30
0.0
 11
5.705891
 21
3.206559
 31
0.0
  0
LINE
  5
3E6
100
AcDbEntity
  8
CK_LEVEL_1
  6
CONTINUOUS
 62
     2
100
AcDbLine
 10
5.705891
 20
3.206559
 30
0.0
 11
5.67156
 21
3.227158
 31
0.0
  0
LINE
  5
3E7
100
AcDbEntity
  8
CK_LEVEL_1
  6
CONTINUOUS
 62
     2
100
AcDbLine
 10
5.67156
 20
3.227158
 30
0.0
 11
5.623496
 21
3.26149
 31
0.0
  0
LINE
  5
3E8
100
AcDbEntity
  8
CK_LEVEL_1
  6
CONTINUOUS
 62
     2
100
AcDbLine
 10
5.623496
 20
3.26149
 30
0.0
 11
5.520501
 21
3.350752
 31
0.0
  0
LINE
  5
3E9
100
AcDbEntity
  8
CK_LEVEL_1
  6
CONTINUOUS
 62
     2
100
AcDbLine
 10
5.520501
 20
3.350752
 30
0.0
 11
5.472437
 21
3.405682
 31
0.0
  0
LINE
  5
3EA
100
AcDbEntity
  8
CK_LEVEL_1
  6
CONTINUOUS
 62
     2
100
AcDbLine
 10
5.472437
 20
3.405682
 30
0.0
 11
5.438106
 21
3.467479
 31
0.0
  0
LINE
  5
3EB
100
AcDbEntity
  8
CK_LEVEL_1
  6
CONTINUOUS
 62
     2
100
AcDbLine
 10
5.438106
 20
3.467479
 30
0.0
 11
5.417507
 21
3.536142
 31
0.0
  0
LINE
  5
3EC
100
AcDbEntity
  8
CK_LEVEL_1
  6
CONTINUOUS
 62
     2
100
AcDbLine
 10
5.417507
 20
3.536142
 30
0.0
 11
5.417507
 21
3.611671
 31
0.0
  0
LINE
  5
3ED
100
AcDbEntity
  8
CK_LEVEL_1
  6
CONTINUOUS
 62
     2
100
AcDbLine
 10
5.417507
 20
3.611671
 30
0.0
 11
5.390042
 21
3.577339
 31
0.0
  0
LINE
  5
3EE
100
AcDbEntity
  8
CK_LEVEL_1
  6
CONTINUOUS
 62
     2
100
AcDbLine
 10
5.390042
 20
3.577339
 30
0.0
 11
5.369443
 21
3.529275
 31
0.0
  0
LINE
  5
3EF
100
AcDbEntity
  8
CK_LEVEL_1
  6
CONTINUOUS
 62
     2
100
AcDbLine
 10
5.369443
 20
3.529275
 30
0.0
 11
5.348844
 21
3.494944
 31
0.0
  0
LINE
  5
3F0
100
AcDbEntity
  8
CK_LEVEL_1
  6
CONTINUOUS
 62
     2
100
AcDbLine
 10
5.348844
 20
3.494944
 30
0.0
 11
5.335111
 21
3.467479
 31
0.0
  0
LINE
  5
3F1
100
AcDbEntity
  8
CK_LEVEL_1
  6
CONTINUOUS
 62
     2
100
AcDbLine
 10
5.335111
 20
3.467479
 30
0.0
 11
5.362576
 21
3.371351
 31
0.0
  0
LINE
  5
3F2
100
AcDbEntity
  8
CK_LEVEL_1
  6
CONTINUOUS
 62
     2
100
AcDbLine
 10
5.362576
 20
3.371351
 30
0.0
 11
5.396908
 21
3.288955
 31
0.0
  0
LINE
  5
3F3
100
AcDbEntity
  8
CK_LEVEL_1
  6
CONTINUOUS
 62
     2
100
AcDbLine
 10
5.396908
 20
3.288955
 30
0.0
 11
5.451838
 21
3.206559
 31
0.0
  0
LINE
  5
3F4
100
AcDbEntity
  8
CK_LEVEL_1
  6
CONTINUOUS
 62
     2
100
AcDbLine
 10
5.451838
 20
3.206559
 30
0.0
 11
5.513635
 21
3.13103
 31
0.0
  0
LINE
  5
3F5
100
AcDbEntity
  8
CK_LEVEL_1
  6
CONTINUOUS
 62
     2
100
AcDbLine
 10
5.513635
 20
3.13103
 30
0.0
 11
5.630362
 21
3.014303
 31
0.0
  0
LINE
  5
3F6
100
AcDbEntity
  8
CK_LEVEL_1
  6
CONTINUOUS
 62
     2
100
AcDbLine
 10
5.630362
 20
3.014303
 30
0.0
 11
5.685292
 21
2.966239
 31
0.0
  0
LINE
  5
3F7
100
AcDbEntity
  8
CK_LEVEL_1
  6
CONTINUOUS
 62
     2
100
AcDbLine
 10
5.685292
 20
2.966239
 30
0.0
 11
5.733356
 21
2.931908
 31
0.0
  0
LINE
  5
3F8
100
AcDbEntity
  8
CK_LEVEL_1
  6
CONTINUOUS
 62
     2
100
AcDbLine
 10
5.72649
 20
2.938774
 30
0.0
 11
5.733356
 21
2.931908
 31
0.0
  0
LINE
  5
3F9
100
AcDbEntity
  8
CK_LEVEL_1
  6
CONTINUOUS
 62
     2
100
AcDbLine
 10
8.239554
 20
2.492465
 30
0.0
 11
8.129693
 21
2.643523
 31
0.0
  0
LINE
  5
3FA
100
AcDbEntity
  8
CK_LEVEL_1
  6
CONTINUOUS
 62
     2
100
AcDbLine
 10
8.129693
 20
2.643523
 30
0.0
 11
8.129693
 21
2.581727
 31
0.0
  0
LINE
  5
3FB
100
AcDbEntity
  8
CK_LEVEL_1
  6
CONTINUOUS
 62
     2
100
AcDbLine
 10
8.129693
 20
2.581727
 30
0.0
 11
8.122827
 21
2.485599
 31
0.0
  0
LINE
  5
3FC
100
AcDbEntity
  8
CK_LEVEL_1
  6
CONTINUOUS
 62
     2
100
AcDbLine
 10
8.122827
 20
2.485599
 30
0.0
 11
8.102227
 21
2.348273
 31
0.0
  0
LINE
  5
3FD
100
AcDbEntity
  8
CK_LEVEL_1
  6
CONTINUOUS
 62
     2
100
AcDbLine
 10
8.102228
 20
2.348273
 30
0.0
 11
8.088495
 21
2.320807
 31
0.0
  0
LINE
  5
3FE
100
AcDbEntity
  8
CK_LEVEL_1
  6
CONTINUOUS
 62
     2
100
AcDbLine
 10
8.088495
 20
2.320807
 30
0.0
 11
8.164025
 21
2.416936
 31
0.0
  0
LINE
  5
3FF
100
AcDbEntity
  8
CK_LEVEL_1
  6
CONTINUOUS
 62
     2
100
AcDbLine
 10
8.164025
 20
2.416936
 30
0.0
 11
8.239554
 21
2.492465
 31
0.0
  0
LINE
  5
400
100
AcDbEntity
  8
CK_LEVEL_1
  6
CONTINUOUS
 62
     2
100
AcDbLine
 10
8.232688
 20
2.492465
 30
0.0
 11
8.239554
 21
2.492465
 31
0.0
  0
LINE
  5
401
100
AcDbEntity
  8
CK_LEVEL_1
  6
CONTINUOUS
 62
     2
100
AcDbLine
 10
5.905014
 20
4.360097
 30
0.0
 11
5.829484
 21
4.291434
 31
0.0
  0
LINE
  5
402
100
AcDbEntity
  8
CK_LEVEL_1
  6
CONTINUOUS
 62
     2
100
AcDbLine
 10
5.829484
 20
4.291434
 30
0.0
 11
5.747089
 21
4.209038
 31
0.0
  0
LINE
  5
403
100
AcDbEntity
  8
CK_LEVEL_1
  6
CONTINUOUS
 62
     2
100
AcDbLine
 10
5.747089
 20
4.209038
 30
0.0
 11
5.568565
 21
4.009916
 31
0.0
  0
LINE
  5
404
100
AcDbEntity
  8
CK_LEVEL_1
  6
CONTINUOUS
 62
     2
100
AcDbLine
 10
5.568565
 20
4.009916
 30
0.0
 11
5.48617
 21
3.906922
 31
0.0
  0
LINE
  5
405
100
AcDbEntity
  8
CK_LEVEL_1
  6
CONTINUOUS
 62
     2
100
AcDbLine
 10
5.48617
 20
3.906922
 30
0.0
 11
5.417507
 21
3.797061
 31
0.0
  0
LINE
  5
406
100
AcDbEntity
  8
CK_LEVEL_1
  6
CONTINUOUS
 62
     2
100
AcDbLine
 10
5.417507
 20
3.797061
 30
0.0
 11
5.362576
 21
3.700933
 31
0.0
  0
LINE
  5
407
100
AcDbEntity
  8
CK_LEVEL_1
  6
CONTINUOUS
 62
     2
100
AcDbLine
 10
5.362576
 20
3.700933
 30
0.0
 11
5.335111
 21
3.604805
 31
0.0
  0
LINE
  5
408
100
AcDbEntity
  8
CK_LEVEL_1
  6
CONTINUOUS
 62
     2
100
AcDbLine
 10
5.335111
 20
3.604805
 30
0.0
 11
5.314512
 21
3.700933
 31
0.0
  0
LINE
  5
409
100
AcDbEntity
  8
CK_LEVEL_1
  6
CONTINUOUS
 62
     2
100
AcDbLine
 10
5.314512
 20
3.700933
 30
0.0
 11
5.273315
 21
3.797061
 31
0.0
  0
LINE
  5
40A
100
AcDbEntity
  8
CK_LEVEL_1
  6
CONTINUOUS
 62
     2
100
AcDbLine
 10
5.273315
 20
3.797061
 30
0.0
 11
5.225251
 21
3.879456
 31
0.0
  0
LINE
  5
40B
100
AcDbEntity
  8
CK_LEVEL_1
  6
CONTINUOUS
 62
     2
100
AcDbLine
 10
5.225251
 20
3.879456
 30
0.0
 11
5.17032
 21
3.934387
 31
0.0
  0
LINE
  5
40C
100
AcDbEntity
  8
CK_LEVEL_1
  6
CONTINUOUS
 62
     2
100
AcDbLine
 10
5.17032
 20
3.934387
 30
0.0
 11
5.218384
 21
3.920654
 31
0.0
  0
LINE
  5
40D
100
AcDbEntity
  8
CK_LEVEL_1
  6
CONTINUOUS
 62
     2
100
AcDbLine
 10
5.218384
 20
3.920654
 30
0.0
 11
5.259582
 21
3.893189
 31
0.0
  0
LINE
  5
40E
100
AcDbEntity
  8
CK_LEVEL_1
  6
CONTINUOUS
 62
     2
100
AcDbLine
 10
5.259582
 20
3.893189
 30
0.0
 11
5.321379
 21
3.831392
 31
0.0
  0
LINE
  5
40F
100
AcDbEntity
  8
CK_LEVEL_1
  6
CONTINUOUS
 62
     2
100
AcDbLine
 10
5.321379
 20
3.831392
 30
0.0
 11
5.369443
 21
3.900055
 31
0.0
  0
LINE
  5
410
100
AcDbEntity
  8
CK_LEVEL_1
  6
CONTINUOUS
 62
     2
100
AcDbLine
 10
5.369443
 20
3.900055
 30
0.0
 11
5.431239
 21
3.975584
 31
0.0
  0
LINE
  5
411
100
AcDbEntity
  8
CK_LEVEL_1
  6
CONTINUOUS
 62
     2
100
AcDbLine
 10
5.431239
 20
3.975584
 30
0.0
 11
5.59603
 21
4.140376
 31
0.0
  0
LINE
  5
412
100
AcDbEntity
  8
CK_LEVEL_1
  6
CONTINUOUS
 62
     2
100
AcDbLine
 10
5.59603
 20
4.140376
 30
0.0
 11
5.685292
 21
4.215905
 31
0.0
  0
LINE
  5
413
100
AcDbEntity
  8
CK_LEVEL_1
  6
CONTINUOUS
 62
     2
100
AcDbLine
 10
5.685292
 20
4.215905
 30
0.0
 11
5.767688
 21
4.277701
 31
0.0
  0
LINE
  5
414
100
AcDbEntity
  8
CK_LEVEL_1
  6
CONTINUOUS
 62
     2
100
AcDbLine
 10
5.767688
 20
4.277701
 30
0.0
 11
5.843217
 21
4.325765
 31
0.0
  0
LINE
  5
415
100
AcDbEntity
  8
CK_LEVEL_1
  6
CONTINUOUS
 62
     2
100
AcDbLine
 10
5.843217
 20
4.325765
 30
0.0
 11
5.905014
 21
4.360097
 31
0.0
  0
LINE
  5
416
100
AcDbEntity
  8
CK_LEVEL_1
  6
CONTINUOUS
 62
     2
100
AcDbLine
 10
5.898147
 20
4.360097
 30
0.0
 11
5.905014
 21
4.360097
 31
0.0
  0
LINE
  5
417
100
AcDbEntity
  8
CK_LEVEL_1
  6
CONTINUOUS
 62
     2
100
AcDbLine
 10
4.277702
 20
4.339498
 30
0.0
 11
4.284568
 21
4.229637
 31
0.0
  0
LINE
  5
418
100
AcDbEntity
  8
CK_LEVEL_1
  6
CONTINUOUS
 62
     2
100
AcDbLine
 10
4.284568
 20
4.229637
 30
0.0
 11
4.298301
 21
4.195306
 31
0.0
  0
LINE
  5
419
100
AcDbEntity
  8
CK_LEVEL_1
  6
CONTINUOUS
 62
     2
100
AcDbLine
 10
4.298301
 20
4.195306
 30
0.0
 11
4.325766
 21
4.181573
 31
0.0
  0
LINE
  5
41A
100
AcDbEntity
  8
CK_LEVEL_1
  6
CONTINUOUS
 62
     2
100
AcDbLine
 10
4.325766
 20
4.181573
 30
0.0
 11
4.37383
 21
4.202172
 31
0.0
  0
LINE
  5
41B
100
AcDbEntity
  8
CK_LEVEL_1
  6
CONTINUOUS
 62
     2
100
AcDbLine
 10
4.37383
 20
4.202172
 30
0.0
 11
4.421894
 21
4.250236
 31
0.0
  0
LINE
  5
41C
100
AcDbEntity
  8
CK_LEVEL_1
  6
CONTINUOUS
 62
     2
100
AcDbLine
 10
4.421894
 20
4.250236
 30
0.0
 11
4.511156
 21
4.353231
 31
0.0
  0
LINE
  5
41D
100
AcDbEntity
  8
CK_LEVEL_1
  6
CONTINUOUS
 62
     2
100
AcDbLine
 10
4.511156
 20
4.353231
 30
0.0
 11
4.545487
 21
4.380696
 31
0.0
  0
LINE
  5
41E
100
AcDbEntity
  8
CK_LEVEL_1
  6
CONTINUOUS
 62
     2
100
AcDbLine
 10
4.545487
 20
4.380696
 30
0.0
 11
4.593551
 21
4.415027
 31
0.0
  0
LINE
  5
41F
100
AcDbEntity
  8
CK_LEVEL_1
  6
CONTINUOUS
 62
     2
100
AcDbLine
 10
4.593551
 20
4.415027
 30
0.0
 11
4.710278
 21
4.476824
 31
0.0
  0
LINE
  5
420
100
AcDbEntity
  8
CK_LEVEL_1
  6
CONTINUOUS
 62
     2
100
AcDbLine
 10
4.710278
 20
4.476824
 30
0.0
 11
4.861337
 21
4.531754
 31
0.0
  0
LINE
  5
421
100
AcDbEntity
  8
CK_LEVEL_1
  6
CONTINUOUS
 62
     2
100
AcDbLine
 10
4.861337
 20
4.531754
 30
0.0
 11
5.032994
 21
4.559219
 31
0.0
  0
LINE
  5
422
100
AcDbEntity
  8
CK_LEVEL_1
  6
CONTINUOUS
 62
     2
100
AcDbLine
 10
5.032994
 20
4.559219
 30
0.0
 11
5.032994
 21
4.662214
 31
0.0
  0
LINE
  5
423
100
AcDbEntity
  8
CK_LEVEL_1
  6
CONTINUOUS
 62
     2
100
AcDbLine
 10
5.032994
 20
4.662214
 30
0.0
 11
5.06046
 21
4.785807
 31
0.0
  0
LINE
  5
424
100
AcDbEntity
  8
CK_LEVEL_1
  6
CONTINUOUS
 62
     2
100
AcDbLine
 10
5.06046
 20
4.785807
 30
0.0
 11
5.094791
 21
4.847604
 31
0.0
  0
LINE
  5
425
100
AcDbEntity
  8
CK_LEVEL_1
  6
CONTINUOUS
 62
     2
100
AcDbLine
 10
5.094791
 20
4.847604
 30
0.0
 11
5.135989
 21
4.909401
 31
0.0
  0
LINE
  5
426
100
AcDbEntity
  8
CK_LEVEL_1
  6
CONTINUOUS
 62
     2
100
AcDbLine
 10
5.135989
 20
4.909401
 30
0.0
 11
5.204652
 21
4.971197
 31
0.0
  0
LINE
  5
427
100
AcDbEntity
  8
CK_LEVEL_1
  6
CONTINUOUS
 62
     2
100
AcDbLine
 10
5.204652
 20
4.971197
 30
0.0
 11
5.190919
 21
4.971197
 31
0.0
  0
LINE
  5
428
100
AcDbEntity
  8
CK_LEVEL_1
  6
CONTINUOUS
 62
     2
100
AcDbLine
 10
5.712757
 20
1.641044
 30
0.0
 11
5.705891
 21
1.675376
 31
0.0
  0
LINE
  5
429
100
AcDbEntity
  8
CK_LEVEL_1
  6
CONTINUOUS
 62
     2
100
AcDbLine
 10
5.705891
 20
1.675376
 30
0.0
 11
5.685292
 21
1.702841
 31
0.0
  0
LINE
  5
42A
100
AcDbEntity
  8
CK_LEVEL_1
  6
CONTINUOUS
 62
     2
100
AcDbLine
 10
5.685292
 20
1.702841
 30
0.0
 11
5.664693
 21
1.695975
 31
0.0
  0
LINE
  5
42B
100
AcDbEntity
  8
CK_LEVEL_1
  6
CONTINUOUS
 62
     2
100
AcDbLine
 10
5.664693
 20
1.695975
 30
0.0
 11
5.637228
 21
1.695975
 31
0.0
  0
LINE
  5
42C
100
AcDbEntity
  8
CK_LEVEL_1
  6
CONTINUOUS
 62
     2
100
AcDbLine
 10
5.637228
 20
1.695975
 30
0.0
 11
5.657827
 21
1.66851
 31
0.0
  0
LINE
  5
42D
100
AcDbEntity
  8
CK_LEVEL_1
  6
CONTINUOUS
 62
     2
100
AcDbLine
 10
5.657827
 20
1.66851
 30
0.0
 11
5.678426
 21
1.634178
 31
0.0
  0
LINE
  5
42E
100
AcDbEntity
  8
CK_LEVEL_1
  6
CONTINUOUS
 62
     2
100
AcDbLine
 10
5.678426
 20
1.634178
 30
0.0
 11
5.712757
 21
1.641044
 31
0.0
  0
LINE
  5
42F
100
AcDbEntity
  8
CK_LEVEL_1
  6
CONTINUOUS
 62
     2
100
AcDbLine
 10
3.405683
 20
7.552924
 30
0.0
 11
3.398816
 21
7.655918
 31
0.0
  0
LINE
  5
430
100
AcDbEntity
  8
CK_LEVEL_1
  6
CONTINUOUS
 62
     2
100
AcDbLine
 10
3.398816
 20
7.655918
 30
0.0
 11
3.419415
 21
7.697116
 31
0.0
  0
LINE
  5
431
100
AcDbEntity
  8
CK_LEVEL_1
  6
CONTINUOUS
 62
     2
100
AcDbLine
 10
3.419415
 20
7.697116
 30
0.0
 11
3.426281
 21
7.731448
 31
0.0
  0
LINE
  5
432
100
AcDbEntity
  8
CK_LEVEL_1
  6
CONTINUOUS
 62
     2
100
AcDbLine
 10
3.426281
 20
7.731448
 30
0.0
 11
3.419415
 21
7.779512
 31
0.0
  0
LINE
  5
433
100
AcDbEntity
  8
CK_LEVEL_1
  6
CONTINUOUS
 62
     2
100
AcDbLine
 10
3.419415
 20
7.779512
 30
0.0
 11
3.440014
 21
7.786378
 31
0.0
  0
LINE
  5
434
100
AcDbEntity
  8
CK_LEVEL_1
  6
CONTINUOUS
 62
     2
100
AcDbLine
 10
3.440014
 20
7.786378
 30
0.0
 11
3.440014
 21
7.841308
 31
0.0
  0
LINE
  5
435
100
AcDbEntity
  8
CK_LEVEL_1
  6
CONTINUOUS
 62
     2
100
AcDbLine
 10
3.440014
 20
7.841308
 30
0.0
 11
3.433148
 21
7.87564
 31
0.0
  0
LINE
  5
436
100
AcDbEntity
  8
CK_LEVEL_1
  6
CONTINUOUS
 62
     2
100
AcDbLine
 10
3.433148
 20
7.87564
 30
0.0
 11
3.44688
 21
7.896239
 31
0.0
  0
LINE
  5
437
100
AcDbEntity
  8
CK_LEVEL_1
  6
CONTINUOUS
 62
     2
100
AcDbLine
 10
3.44688
 20
7.896239
 30
0.0
 11
3.460613
 21
7.882506
 31
0.0
  0
LINE
  5
438
100
AcDbEntity
  8
CK_LEVEL_1
  6
CONTINUOUS
 62
     2
100
AcDbLine
 10
3.460613
 20
7.882506
 30
0.0
 11
3.488078
 21
7.861907
 31
0.0
  0
LINE
  5
439
100
AcDbEntity
  8
CK_LEVEL_1
  6
CONTINUOUS
 62
     2
100
AcDbLine
 10
3.488078
 20
7.861907
 30
0.0
 11
3.543008
 21
7.827576
 31
0.0
  0
LINE
  5
43A
100
AcDbEntity
  8
CK_LEVEL_1
  6
CONTINUOUS
 62
     2
100
AcDbLine
 10
3.543008
 20
7.827576
 30
0.0
 11
3.556741
 21
7.758913
 31
0.0
  0
LINE
  5
43B
100
AcDbEntity
  8
CK_LEVEL_1
  6
CONTINUOUS
 62
     2
100
AcDbLine
 10
3.556741
 20
7.758913
 30
0.0
 11
3.549875
 21
7.69025
 31
0.0
  0
LINE
  5
43C
100
AcDbEntity
  8
CK_LEVEL_1
  6
CONTINUOUS
 62
     2
100
AcDbLine
 10
3.549875
 20
7.69025
 30
0.0
 11
3.543008
 21
7.662785
 31
0.0
  0
LINE
  5
43D
100
AcDbEntity
  8
CK_LEVEL_1
  6
CONTINUOUS
 62
     2
100
AcDbLine
 10
3.543008
 20
7.662785
 30
0.0
 11
3.543008
 21
7.573523
 31
0.0
  0
LINE
  5
43E
100
AcDbEntity
  8
CK_LEVEL_1
  6
CONTINUOUS
 62
     2
100
AcDbLine
 10
3.543008
 20
7.573523
 30
0.0
 11
3.549875
 21
7.532325
 31
0.0
  0
LINE
  5
43F
100
AcDbEntity
  8
CK_LEVEL_1
  6
CONTINUOUS
 62
     2
100
AcDbLine
 10
3.549875
 20
7.532325
 30
0.0
 11
3.52241
 21
7.55979
 31
0.0
  0
LINE
  5
440
100
AcDbEntity
  8
CK_LEVEL_1
  6
CONTINUOUS
 62
     2
100
AcDbLine
 10
3.52241
 20
7.55979
 30
0.0
 11
3.494944
 21
7.594122
 31
0.0
  0
LINE
  5
441
100
AcDbEntity
  8
CK_LEVEL_1
  6
CONTINUOUS
 62
     2
100
AcDbLine
 10
3.494944
 20
7.594122
 30
0.0
 11
3.474345
 21
7.635319
 31
0.0
  0
LINE
  5
442
100
AcDbEntity
  8
CK_LEVEL_1
  6
CONTINUOUS
 62
     2
100
AcDbLine
 10
3.474345
 20
7.635319
 30
0.0
 11
3.460613
 21
7.669651
 31
0.0
  0
LINE
  5
443
100
AcDbEntity
  8
CK_LEVEL_1
  6
CONTINUOUS
 62
     2
100
AcDbLine
 10
3.460613
 20
7.669651
 30
0.0
 11
3.405683
 21
7.552924
 31
0.0
  0
LINE
  5
444
100
AcDbEntity
  8
CK_LEVEL_1
  6
CONTINUOUS
 62
     2
100
AcDbLine
 10
3.398816
 20
7.566656
 30
0.0
 11
3.405683
 21
7.552924
 31
0.0
  0
LINE
  5
445
100
AcDbEntity
  8
CK_LEVEL_1
  6
CONTINUOUS
 62
     2
100
AcDbLine
 10
5.163454
 20
4.655348
 30
0.0
 11
5.142855
 21
4.634749
 31
0.0
  0
LINE
  5
446
100
AcDbEntity
  8
CK_LEVEL_1
  6
CONTINUOUS
 62
     2
100
AcDbLine
 10
5.142855
 20
4.634749
 30
0.0
 11
5.135989
 21
4.607284
 31
0.0
  0
LINE
  5
447
100
AcDbEntity
  8
CK_LEVEL_1
  6
CONTINUOUS
 62
     2
100
AcDbLine
 10
5.135989
 20
4.607284
 30
0.0
 11
5.135989
 21
4.579818
 31
0.0
  0
LINE
  5
448
100
AcDbEntity
  8
CK_LEVEL_1
  6
CONTINUOUS
 62
     2
100
AcDbLine
 10
5.135989
 20
4.579818
 30
0.0
 11
5.142855
 21
4.566086
 31
0.0
  0
LINE
  5
449
100
AcDbEntity
  8
CK_LEVEL_1
  6
CONTINUOUS
 62
     2
100
AcDbLine
 10
5.142855
 20
4.566086
 30
0.0
 11
5.184053
 21
4.572952
 31
0.0
  0
LINE
  5
44A
100
AcDbEntity
  8
CK_LEVEL_1
  6
CONTINUOUS
 62
     2
100
AcDbLine
 10
5.184053
 20
4.572952
 30
0.0
 11
5.238983
 21
4.572952
 31
0.0
  0
LINE
  5
44B
100
AcDbEntity
  8
CK_LEVEL_1
  6
CONTINUOUS
 62
     2
100
AcDbLine
 10
5.238983
 20
4.572952
 30
0.0
 11
5.287047
 21
4.566086
 31
0.0
  0
LINE
  5
44C
100
AcDbEntity
  8
CK_LEVEL_1
  6
CONTINUOUS
 62
     2
100
AcDbLine
 10
5.287047
 20
4.566086
 30
0.0
 11
5.328245
 21
4.566086
 31
0.0
  0
LINE
  5
44D
100
AcDbEntity
  8
CK_LEVEL_1
  6
CONTINUOUS
 62
     2
100
AcDbLine
 10
5.328245
 20
4.566086
 30
0.0
 11
5.403774
 21
4.524888
 31
0.0
  0
LINE
  5
44E
100
AcDbEntity
  8
CK_LEVEL_1
  6
CONTINUOUS
 62
     2
100
AcDbLine
 10
5.403774
 20
4.524888
 30
0.0
 11
5.48617
 21
4.504289
 31
0.0
  0
LINE
  5
44F
100
AcDbEntity
  8
CK_LEVEL_1
  6
CONTINUOUS
 62
     2
100
AcDbLine
 10
5.48617
 20
4.504289
 30
0.0
 11
5.554833
 21
4.497423
 31
0.0
  0
LINE
  5
450
100
AcDbEntity
  8
CK_LEVEL_1
  6
CONTINUOUS
 62
     2
100
AcDbLine
 10
5.554833
 20
4.497423
 30
0.0
 11
5.602897
 21
4.504289
 31
0.0
  0
LINE
  5
451
100
AcDbEntity
  8
CK_LEVEL_1
  6
CONTINUOUS
 62
     2
100
AcDbLine
 10
5.602897
 20
4.504289
 30
0.0
 11
5.630362
 21
4.504289
 31
0.0
  0
LINE
  5
452
100
AcDbEntity
  8
CK_LEVEL_1
  6
CONTINUOUS
 62
     2
100
AcDbLine
 10
5.630362
 20
4.504289
 30
0.0
 11
5.664693
 21
4.497423
 31
0.0
  0
LINE
  5
453
100
AcDbEntity
  8
CK_LEVEL_1
  6
CONTINUOUS
 62
     2
100
AcDbLine
 10
5.664693
 20
4.497423
 30
0.0
 11
5.699025
 21
4.48369
 31
0.0
  0
LINE
  5
454
100
AcDbEntity
  8
CK_LEVEL_1
  6
CONTINUOUS
 62
     2
100
AcDbLine
 10
5.699025
 20
4.48369
 30
0.0
 11
5.740223
 21
4.476824
 31
0.0
  0
LINE
  5
455
100
AcDbEntity
  8
CK_LEVEL_1
  6
CONTINUOUS
 62
     2
100
AcDbLine
 10
5.740223
 20
4.476824
 30
0.0
 11
5.78142
 21
4.476824
 31
0.0
  0
LINE
  5
456
100
AcDbEntity
  8
CK_LEVEL_1
  6
CONTINUOUS
 62
     2
100
AcDbLine
 10
5.78142
 20
4.476824
 30
0.0
 11
5.815752
 21
4.497423
 31
0.0
  0
LINE
  5
457
100
AcDbEntity
  8
CK_LEVEL_1
  6
CONTINUOUS
 62
     2
100
AcDbLine
 10
5.815752
 20
4.497423
 30
0.0
 11
5.884415
 21
4.552353
 31
0.0
  0
LINE
  5
458
100
AcDbEntity
  8
CK_LEVEL_1
  6
CONTINUOUS
 62
     2
100
AcDbLine
 10
5.884415
 20
4.552353
 30
0.0
 11
5.905014
 21
4.552353
 31
0.0
  0
LINE
  5
459
100
AcDbEntity
  8
CK_LEVEL_1
  6
CONTINUOUS
 62
     2
100
AcDbLine
 10
5.905014
 20
4.552353
 30
0.0
 11
5.932479
 21
4.559219
 31
0.0
  0
LINE
  5
45A
100
AcDbEntity
  8
CK_LEVEL_1
  6
CONTINUOUS
 62
     2
100
AcDbLine
 10
5.932479
 20
4.559219
 30
0.0
 11
5.973677
 21
4.572952
 31
0.0
  0
LINE
  5
45B
100
AcDbEntity
  8
CK_LEVEL_1
  6
CONTINUOUS
 62
     2
100
AcDbLine
 10
5.973677
 20
4.572952
 30
0.0
 11
6.021741
 21
4.593551
 31
0.0
  0
LINE
  5
45C
100
AcDbEntity
  8
CK_LEVEL_1
  6
CONTINUOUS
 62
     2
100
AcDbLine
 10
6.021741
 20
4.593551
 30
0.0
 11
5.980543
 21
4.607284
 31
0.0
  0
LINE
  5
45D
100
AcDbEntity
  8
CK_LEVEL_1
  6
CONTINUOUS
 62
     2
100
AcDbLine
 10
5.980543
 20
4.607284
 30
0.0
 11
5.939345
 21
4.634749
 31
0.0
  0
LINE
  5
45E
100
AcDbEntity
  8
CK_LEVEL_1
  6
CONTINUOUS
 62
     2
100
AcDbLine
 10
5.939345
 20
4.634749
 30
0.0
 11
5.973677
 21
4.627882
 31
0.0
  0
LINE
  5
45F
100
AcDbEntity
  8
CK_LEVEL_1
  6
CONTINUOUS
 62
     2
100
AcDbLine
 10
5.973677
 20
4.627882
 30
0.0
 11
6.021741
 21
4.61415
 31
0.0
  0
LINE
  5
460
100
AcDbEntity
  8
CK_LEVEL_1
  6
CONTINUOUS
 62
     2
100
AcDbLine
 10
6.021741
 20
4.61415
 30
0.0
 11
6.069805
 21
4.607284
 31
0.0
  0
LINE
  5
461
100
AcDbEntity
  8
CK_LEVEL_1
  6
CONTINUOUS
 62
     2
100
AcDbLine
 10
6.069805
 20
4.607284
 30
0.0
 11
6.111003
 21
4.61415
 31
0.0
  0
LINE
  5
462
100
AcDbEntity
  8
CK_LEVEL_1
  6
CONTINUOUS
 62
     2
100
AcDbLine
 10
6.111003
 20
4.61415
 30
0.0
 11
6.159067
 21
4.648481
 31
0.0
  0
LINE
  5
463
100
AcDbEntity
  8
CK_LEVEL_1
  6
CONTINUOUS
 62
     2
100
AcDbLine
 10
6.159067
 20
4.648481
 30
0.0
 11
6.172799
 21
4.675947
 31
0.0
  0
LINE
  5
464
100
AcDbEntity
  8
CK_LEVEL_1
  6
CONTINUOUS
 62
     2
100
AcDbLine
 10
6.172799
 20
4.675947
 30
0.0
 11
6.172799
 21
4.717144
 31
0.0
  0
LINE
  5
465
100
AcDbEntity
  8
CK_LEVEL_1
  6
CONTINUOUS
 62
     2
100
AcDbLine
 10
6.172799
 20
4.717144
 30
0.0
 11
6.22773
 21
4.724011
 31
0.0
  0
LINE
  5
466
100
AcDbEntity
  8
CK_LEVEL_1
  6
CONTINUOUS
 62
     2
100
AcDbLine
 10
6.22773
 20
4.724011
 30
0.0
 11
6.351323
 21
4.778941
 31
0.0
  0
LINE
  5
467
100
AcDbEntity
  8
CK_LEVEL_1
  6
CONTINUOUS
 62
     2
100
AcDbLine
 10
6.351323
 20
4.778941
 30
0.0
 11
6.392521
 21
4.806406
 31
0.0
  0
LINE
  5
468
100
AcDbEntity
  8
CK_LEVEL_1
  6
CONTINUOUS
 62
     2
100
AcDbLine
 10
6.392521
 20
4.806406
 30
0.0
 11
6.461184
 21
4.847604
 31
0.0
  0
LINE
  5
469
100
AcDbEntity
  8
CK_LEVEL_1
  6
CONTINUOUS
 62
     2
100
AcDbLine
 10
6.461184
 20
4.847604
 30
0.0
 11
6.550445
 21
4.888802
 31
0.0
  0
LINE
  5
46A
100
AcDbEntity
  8
CK_LEVEL_1
  6
CONTINUOUS
 62
     2
100
AcDbLine
 10
6.550445
 20
4.888802
 30
0.0
 11
6.639707
 21
4.916267
 31
0.0
  0
LINE
  5
46B
100
AcDbEntity
  8
CK_LEVEL_1
  6
CONTINUOUS
 62
     2
100
AcDbLine
 10
6.639707
 20
4.916267
 30
0.0
 11
6.859429
 21
4.971197
 31
0.0
  0
LINE
  5
46C
100
AcDbEntity
  8
CK_LEVEL_1
  6
CONTINUOUS
 62
     2
100
AcDbLine
 10
6.859429
 20
4.971197
 30
0.0
 11
6.962423
 21
4.991796
 31
0.0
  0
LINE
  5
46D
100
AcDbEntity
  8
CK_LEVEL_1
  6
CONTINUOUS
 62
     2
100
AcDbLine
 10
6.962423
 20
4.991796
 30
0.0
 11
7.07915
 21
5.012395
 31
0.0
  0
LINE
  5
46E
100
AcDbEntity
  8
CK_LEVEL_1
  6
CONTINUOUS
 62
     2
100
AcDbLine
 10
7.07915
 20
5.012395
 30
0.0
 11
7.298872
 21
5.060459
 31
0.0
  0
LINE
  5
46F
100
AcDbEntity
  8
CK_LEVEL_1
  6
CONTINUOUS
 62
     2
100
AcDbLine
 10
7.298872
 20
5.060459
 30
0.0
 11
7.388133
 21
5.081058
 31
0.0
  0
LINE
  5
470
100
AcDbEntity
  8
CK_LEVEL_1
  6
CONTINUOUS
 62
     2
100
AcDbLine
 10
7.388133
 20
5.081058
 30
0.0
 11
7.44993
 21
5.101657
 31
0.0
  0
LINE
  5
471
100
AcDbEntity
  8
CK_LEVEL_1
  6
CONTINUOUS
 62
     2
100
AcDbLine
 10
7.44993
 20
5.101657
 30
0.0
 11
7.559791
 21
5.156587
 31
0.0
  0
LINE
  5
472
100
AcDbEntity
  8
CK_LEVEL_1
  6
CONTINUOUS
 62
     2
100
AcDbLine
 10
7.559791
 20
5.156587
 30
0.0
 11
7.669651
 21
5.232116
 31
0.0
  0
LINE
  5
473
100
AcDbEntity
  8
CK_LEVEL_1
  6
CONTINUOUS
 62
     2
100
AcDbLine
 10
7.669651
 20
5.232116
 30
0.0
 11
7.76578
 21
5.314512
 31
0.0
  0
LINE
  5
474
100
AcDbEntity
  8
CK_LEVEL_1
  6
CONTINUOUS
 62
     2
100
AcDbLine
 10
7.76578
 20
5.314512
 30
0.0
 11
7.834442
 21
5.41064
 31
0.0
  0
LINE
  5
475
100
AcDbEntity
  8
CK_LEVEL_1
  6
CONTINUOUS
 62
     2
100
AcDbLine
 10
7.834442
 20
5.41064
 30
0.0
 11
7.806977
 21
5.431239
 31
0.0
  0
LINE
  5
476
100
AcDbEntity
  8
CK_LEVEL_1
  6
CONTINUOUS
 62
     2
100
AcDbLine
 10
7.806977
 20
5.431239
 30
0.0
 11
7.772646
 21
5.46557
 31
0.0
  0
LINE
  5
477
100
AcDbEntity
  8
CK_LEVEL_1
  6
CONTINUOUS
 62
     2
100
AcDbLine
 10
7.772646
 20
5.46557
 30
0.0
 11
7.669651
 21
5.527367
 31
0.0
  0
LINE
  5
478
100
AcDbEntity
  8
CK_LEVEL_1
  6
CONTINUOUS
 62
     2
100
AcDbLine
 10
7.669651
 20
5.527367
 30
0.0
 11
7.532326
 21
5.582297
 31
0.0
  0
LINE
  5
479
100
AcDbEntity
  8
CK_LEVEL_1
  6
CONTINUOUS
 62
     2
100
AcDbLine
 10
7.532326
 20
5.582297
 30
0.0
 11
7.456796
 21
5.602896
 31
0.0
  0
LINE
  5
47A
100
AcDbEntity
  8
CK_LEVEL_1
  6
CONTINUOUS
 62
     2
100
AcDbLine
 10
7.456796
 20
5.602896
 30
0.0
 11
7.374401
 21
5.602896
 31
0.0
  0
LINE
  5
47B
100
AcDbEntity
  8
CK_LEVEL_1
  6
CONTINUOUS
 62
     2
100
AcDbLine
 10
7.374401
 20
5.602896
 30
0.0
 11
7.333203
 21
5.609763
 31
0.0
  0
LINE
  5
47C
100
AcDbEntity
  8
CK_LEVEL_1
  6
CONTINUOUS
 62
     2
100
AcDbLine
 10
7.333203
 20
5.609763
 30
0.0
 11
7.298872
 21
5.609763
 31
0.0
  0
LINE
  5
47D
100
AcDbEntity
  8
CK_LEVEL_1
  6
CONTINUOUS
 62
     2
100
AcDbLine
 10
7.298872
 20
5.609763
 30
0.0
 11
7.230209
 21
5.602896
 31
0.0
  0
LINE
  5
47E
100
AcDbEntity
  8
CK_LEVEL_1
  6
CONTINUOUS
 62
     2
100
AcDbLine
 10
7.230209
 20
5.602896
 30
0.0
 11
7.147813
 21
5.59603
 31
0.0
  0
LINE
  5
47F
100
AcDbEntity
  8
CK_LEVEL_1
  6
CONTINUOUS
 62
     2
100
AcDbLine
 10
7.147813
 20
5.59603
 30
0.0
 11
6.962423
 21
5.561698
 31
0.0
  0
LINE
  5
480
100
AcDbEntity
  8
CK_LEVEL_1
  6
CONTINUOUS
 62
     2
100
AcDbLine
 10
6.962423
 20
5.561698
 30
0.0
 11
6.907493
 21
5.493036
 31
0.0
  0
LINE
  5
481
100
AcDbEntity
  8
CK_LEVEL_1
  6
CONTINUOUS
 62
     2
100
AcDbLine
 10
6.907493
 20
5.493036
 30
0.0
 11
6.790766
 21
5.479303
 31
0.0
  0
LINE
  5
482
100
AcDbEntity
  8
CK_LEVEL_1
  6
CONTINUOUS
 62
     2
100
AcDbLine
 10
6.790766
 20
5.479303
 30
0.0
 11
6.674039
 21
5.451838
 31
0.0
  0
LINE
  5
483
100
AcDbEntity
  8
CK_LEVEL_1
  6
CONTINUOUS
 62
     2
100
AcDbLine
 10
6.674039
 20
5.451838
 30
0.0
 11
6.440585
 21
5.376309
 31
0.0
  0
LINE
  5
484
100
AcDbEntity
  8
CK_LEVEL_1
  6
CONTINUOUS
 62
     2
100
AcDbLine
 10
6.440585
 20
5.376309
 30
0.0
 11
6.33759
 21
5.328244
 31
0.0
  0
LINE
  5
485
100
AcDbEntity
  8
CK_LEVEL_1
  6
CONTINUOUS
 62
     2
100
AcDbLine
 10
6.33759
 20
5.328244
 30
0.0
 11
6.248328
 21
5.28018
 31
0.0
  0
LINE
  5
486
100
AcDbEntity
  8
CK_LEVEL_1
  6
CONTINUOUS
 62
     2
100
AcDbLine
 10
6.248328
 20
5.28018
 30
0.0
 11
6.172799
 21
5.232116
 31
0.0
  0
LINE
  5
487
100
AcDbEntity
  8
CK_LEVEL_1
  6
CONTINUOUS
 62
     2
100
AcDbLine
 10
6.172799
 20
5.232116
 30
0.0
 11
6.117869
 21
5.190919
 31
0.0
  0
LINE
  5
488
100
AcDbEntity
  8
CK_LEVEL_1
  6
CONTINUOUS
 62
     2
100
AcDbLine
 10
6.117869
 20
5.190919
 30
0.0
 11
6.056072
 21
5.156587
 31
0.0
  0
LINE
  5
489
100
AcDbEntity
  8
CK_LEVEL_1
  6
CONTINUOUS
 62
     2
100
AcDbLine
 10
6.056072
 20
5.156587
 30
0.0
 11
5.973677
 21
5.135988
 31
0.0
  0
LINE
  5
48A
100
AcDbEntity
  8
CK_LEVEL_1
  6
CONTINUOUS
 62
     2
100
AcDbLine
 10
5.973677
 20
5.135988
 30
0.0
 11
5.905014
 21
5.129122
 31
0.0
  0
LINE
  5
48B
100
AcDbEntity
  8
CK_LEVEL_1
  6
CONTINUOUS
 62
     2
100
AcDbLine
 10
5.905014
 20
5.129122
 30
0.0
 11
5.850083
 21
5.129122
 31
0.0
  0
LINE
  5
48C
100
AcDbEntity
  8
CK_LEVEL_1
  6
CONTINUOUS
 62
     2
100
AcDbLine
 10
5.850083
 20
5.129122
 30
0.0
 11
5.822618
 21
5.122256
 31
0.0
  0
LINE
  5
48D
100
AcDbEntity
  8
CK_LEVEL_1
  6
CONTINUOUS
 62
     2
100
AcDbLine
 10
5.822618
 20
5.122256
 30
0.0
 11
5.795153
 21
5.108523
 31
0.0
  0
LINE
  5
48E
100
AcDbEntity
  8
CK_LEVEL_1
  6
CONTINUOUS
 62
     2
100
AcDbLine
 10
5.795153
 20
5.108523
 30
0.0
 11
5.705891
 21
5.060459
 31
0.0
  0
LINE
  5
48F
100
AcDbEntity
  8
CK_LEVEL_1
  6
CONTINUOUS
 62
     2
100
AcDbLine
 10
5.705891
 20
5.060459
 30
0.0
 11
5.630362
 21
4.978063
 31
0.0
  0
LINE
  5
490
100
AcDbEntity
  8
CK_LEVEL_1
  6
CONTINUOUS
 62
     2
100
AcDbLine
 10
5.630362
 20
4.978063
 30
0.0
 11
5.602897
 21
4.929999
 31
0.0
  0
LINE
  5
491
100
AcDbEntity
  8
CK_LEVEL_1
  6
CONTINUOUS
 62
     2
100
AcDbLine
 10
5.602897
 20
4.929999
 30
0.0
 11
5.582298
 21
4.868203
 31
0.0
  0
LINE
  5
492
100
AcDbEntity
  8
CK_LEVEL_1
  6
CONTINUOUS
 62
     2
100
AcDbLine
 10
5.582298
 20
4.868203
 30
0.0
 11
5.561699
 21
4.79954
 31
0.0
  0
LINE
  5
493
100
AcDbEntity
  8
CK_LEVEL_1
  6
CONTINUOUS
 62
     2
100
AcDbLine
 10
5.561699
 20
4.79954
 30
0.0
 11
5.534234
 21
4.744609
 31
0.0
  0
LINE
  5
494
100
AcDbEntity
  8
CK_LEVEL_1
  6
CONTINUOUS
 62
     2
100
AcDbLine
 10
5.534234
 20
4.744609
 30
0.0
 11
5.499902
 21
4.710278
 31
0.0
  0
LINE
  5
495
100
AcDbEntity
  8
CK_LEVEL_1
  6
CONTINUOUS
 62
     2
100
AcDbLine
 10
5.499902
 20
4.710278
 30
0.0
 11
5.458705
 21
4.689679
 31
0.0
  0
LINE
  5
496
100
AcDbEntity
  8
CK_LEVEL_1
  6
CONTINUOUS
 62
     2
100
AcDbLine
 10
5.458705
 20
4.689679
 30
0.0
 11
5.383175
 21
4.675947
 31
0.0
  0
LINE
  5
497
100
AcDbEntity
  8
CK_LEVEL_1
  6
CONTINUOUS
 62
     2
100
AcDbLine
 10
5.383175
 20
4.675947
 30
0.0
 11
5.280181
 21
4.675947
 31
0.0
  0
LINE
  5
498
100
AcDbEntity
  8
CK_LEVEL_1
  6
CONTINUOUS
 62
     2
100
AcDbLine
 10
5.280181
 20
4.675947
 30
0.0
 11
5.190919
 21
4.662214
 31
0.0
  0
LINE
  5
499
100
AcDbEntity
  8
CK_LEVEL_1
  6
CONTINUOUS
 62
     2
100
AcDbLine
 10
5.190919
 20
4.662214
 30
0.0
 11
5.163454
 21
4.655348
 31
0.0
  0
LINE
  5
49A
100
AcDbEntity
  8
CK_LEVEL_1
  6
CONTINUOUS
 62
     2
100
AcDbLine
 10
5.156588
 20
4.662214
 30
0.0
 11
5.163454
 21
4.655348
 31
0.0
  0
LINE
  5
49B
100
AcDbEntity
  8
CK_LEVEL_1
  6
CONTINUOUS
 62
     2
100
AcDbLine
 10
5.678426
 20
1.634178
 30
0.0
 11
5.712757
 21
1.53805
 31
0.0
  0
LINE
  5
49C
100
AcDbEntity
  8
CK_LEVEL_1
  6
CONTINUOUS
 62
     2
100
AcDbLine
 10
5.712757
 20
1.53805
 30
0.0
 11
5.733356
 21
1.428189
 31
0.0
  0
LINE
  5
49D
100
AcDbEntity
  8
CK_LEVEL_1
  6
CONTINUOUS
 62
     2
100
AcDbLine
 10
5.733356
 20
1.428189
 30
0.0
 11
5.747089
 21
1.311462
 31
0.0
  0
LINE
  5
49E
100
AcDbEntity
  8
CK_LEVEL_1
  6
CONTINUOUS
 62
     2
100
AcDbLine
 10
5.747089
 20
1.311462
 30
0.0
 11
5.747089
 21
1.194735
 31
0.0
  0
LINE
  5
49F
100
AcDbEntity
  8
CK_LEVEL_1
  6
CONTINUOUS
 62
     2
100
AcDbLine
 10
5.747089
 20
1.194735
 30
0.0
 11
5.753955
 21
1.16727
 31
0.0
  0
LINE
  5
4A0
100
AcDbEntity
  8
CK_LEVEL_1
  6
CONTINUOUS
 62
     2
100
AcDbLine
 10
5.753955
 20
1.16727
 30
0.0
 11
5.760822
 21
1.126072
 31
0.0
  0
LINE
  5
4A1
100
AcDbEntity
  8
CK_LEVEL_1
  6
CONTINUOUS
 62
     2
100
AcDbLine
 10
5.760822
 20
1.126072
 30
0.0
 11
5.760822
 21
1.03681
 31
0.0
  0
LINE
  5
4A2
100
AcDbEntity
  8
CK_LEVEL_1
  6
CONTINUOUS
 62
     2
100
AcDbLine
 10
5.760822
 20
1.03681
 30
0.0
 11
5.417507
 21
1.03681
 31
0.0
  0
LINE
  5
4A3
100
AcDbEntity
  8
CK_LEVEL_1
  6
CONTINUOUS
 62
     2
100
AcDbLine
 10
5.417507
 20
1.03681
 30
0.0
 11
5.376309
 21
1.057409
 31
0.0
  0
LINE
  5
4A4
100
AcDbEntity
  8
CK_LEVEL_1
  6
CONTINUOUS
 62
     2
100
AcDbLine
 10
5.376309
 20
1.057409
 30
0.0
 11
5.35571
 21
1.071142
 31
0.0
  0
LINE
  5
4A5
100
AcDbEntity
  8
CK_LEVEL_1
  6
CONTINUOUS
 62
     2
100
AcDbLine
 10
5.35571
 20
1.071142
 30
0.0
 11
5.348844
 21
1.084874
 31
0.0
  0
LINE
  5
4A6
100
AcDbEntity
  8
CK_LEVEL_1
  6
CONTINUOUS
 62
     2
100
AcDbLine
 10
5.348844
 20
1.084874
 30
0.0
 11
5.321379
 21
1.071142
 31
0.0
  0
LINE
  5
4A7
100
AcDbEntity
  8
CK_LEVEL_1
  6
CONTINUOUS
 62
     2
100
AcDbLine
 10
5.321379
 20
1.071142
 30
0.0
 11
5.280181
 21
1.064276
 31
0.0
  0
LINE
  5
4A8
100
AcDbEntity
  8
CK_LEVEL_1
  6
CONTINUOUS
 62
     2
100
AcDbLine
 10
5.280181
 20
1.064276
 30
0.0
 11
5.177187
 21
1.043677
 31
0.0
  0
LINE
  5
4A9
100
AcDbEntity
  8
CK_LEVEL_1
  6
CONTINUOUS
 62
     2
100
AcDbLine
 10
5.177187
 20
1.043677
 30
0.0
 11
5.046727
 21
1.023078
 31
0.0
  0
LINE
  5
4AA
100
AcDbEntity
  8
CK_LEVEL_1
  6
CONTINUOUS
 62
     2
100
AcDbLine
 10
5.046727
 20
1.023078
 30
0.0
 11
4.50429
 21
1.023078
 31
0.0
  0
LINE
  5
4AB
100
AcDbEntity
  8
CK_LEVEL_1
  6
CONTINUOUS
 62
     2
100
AcDbLine
 10
4.50429
 20
1.023078
 30
0.0
 11
4.476824
 21
1.029944
 31
0.0
  0
LINE
  5
4AC
100
AcDbEntity
  8
CK_LEVEL_1
  6
CONTINUOUS
 62
     2
100
AcDbLine
 10
4.476824
 20
1.029944
 30
0.0
 11
4.421894
 21
1.064276
 31
0.0
  0
LINE
  5
4AD
100
AcDbEntity
  8
CK_LEVEL_1
  6
CONTINUOUS
 62
     2
100
AcDbLine
 10
4.421894
 20
1.064276
 30
0.0
 11
4.408162
 21
1.084874
 31
0.0
  0
LINE
  5
4AE
100
AcDbEntity
  8
CK_LEVEL_1
  6
CONTINUOUS
 62
     2
100
AcDbLine
 10
4.408162
 20
1.084874
 30
0.0
 11
4.421894
 21
1.105473
 31
0.0
  0
LINE
  5
4AF
100
AcDbEntity
  8
CK_LEVEL_1
  6
CONTINUOUS
 62
     2
100
AcDbLine
 10
4.421894
 20
1.105473
 30
0.0
 11
4.463092
 21
1.146671
 31
0.0
  0
LINE
  5
4B0
100
AcDbEntity
  8
CK_LEVEL_1
  6
CONTINUOUS
 62
     2
100
AcDbLine
 10
4.463092
 20
1.146671
 30
0.0
 11
4.490557
 21
1.187869
 31
0.0
  0
LINE
  5
4B1
100
AcDbEntity
  8
CK_LEVEL_1
  6
CONTINUOUS
 62
     2
100
AcDbLine
 10
4.490557
 20
1.187869
 30
0.0
 11
4.511156
 21
1.229067
 31
0.0
  0
LINE
  5
4B2
100
AcDbEntity
  8
CK_LEVEL_1
  6
CONTINUOUS
 62
     2
100
AcDbLine
 10
4.511156
 20
1.229067
 30
0.0
 11
4.552354
 21
1.277131
 31
0.0
  0
LINE
  5
4B3
100
AcDbEntity
  8
CK_LEVEL_1
  6
CONTINUOUS
 62
     2
100
AcDbLine
 10
4.552354
 20
1.277131
 30
0.0
 11
4.600418
 21
1.325195
 31
0.0
  0
LINE
  5
4B4
100
AcDbEntity
  8
CK_LEVEL_1
  6
CONTINUOUS
 62
     2
100
AcDbLine
 10
4.600418
 20
1.325195
 30
0.0
 11
4.648482
 21
1.345794
 31
0.0
  0
LINE
  5
4B5
100
AcDbEntity
  8
CK_LEVEL_1
  6
CONTINUOUS
 62
     2
100
AcDbLine
 10
4.648482
 20
1.345794
 30
0.0
 11
4.669081
 21
1.35266
 31
0.0
  0
LINE
  5
4B6
100
AcDbEntity
  8
CK_LEVEL_1
  6
CONTINUOUS
 62
     2
100
AcDbLine
 10
4.669081
 20
1.35266
 30
0.0
 11
4.710278
 21
1.359526
 31
0.0
  0
LINE
  5
4B7
100
AcDbEntity
  8
CK_LEVEL_1
  6
CONTINUOUS
 62
     2
100
AcDbLine
 10
4.710278
 20
1.359526
 30
0.0
 11
4.79954
 21
1.380125
 31
0.0
  0
LINE
  5
4B8
100
AcDbEntity
  8
CK_LEVEL_1
  6
CONTINUOUS
 62
     2
100
AcDbLine
 10
4.79954
 20
1.380125
 30
0.0
 11
4.87507
 21
1.40759
 31
0.0
  0
LINE
  5
4B9
100
AcDbEntity
  8
CK_LEVEL_1
  6
CONTINUOUS
 62
     2
100
AcDbLine
 10
4.87507
 20
1.40759
 30
0.0
 11
4.93
 21
1.441922
 31
0.0
  0
LINE
  5
4BA
100
AcDbEntity
  8
CK_LEVEL_1
  6
CONTINUOUS
 62
     2
100
AcDbLine
 10
4.93
 20
1.441922
 30
0.0
 11
4.978064
 21
1.489986
 31
0.0
  0
LINE
  5
4BB
100
AcDbEntity
  8
CK_LEVEL_1
  6
CONTINUOUS
 62
     2
100
AcDbLine
 10
4.978064
 20
1.489986
 30
0.0
 11
5.005529
 21
1.524317
 31
0.0
  0
LINE
  5
4BC
100
AcDbEntity
  8
CK_LEVEL_1
  6
CONTINUOUS
 62
     2
100
AcDbLine
 10
5.005529
 20
1.524317
 30
0.0
 11
5.039861
 21
1.579248
 31
0.0
  0
LINE
  5
4BD
100
AcDbEntity
  8
CK_LEVEL_1
  6
CONTINUOUS
 62
     2
100
AcDbLine
 10
5.039861
 20
1.579248
 30
0.0
 11
5.074192
 21
1.620445
 31
0.0
  0
LINE
  5
4BE
100
AcDbEntity
  8
CK_LEVEL_1
  6
CONTINUOUS
 62
     2
100
AcDbLine
 10
5.074192
 20
1.620445
 30
0.0
 11
5.11539
 21
1.641044
 31
0.0
  0
LINE
  5
4BF
100
AcDbEntity
  8
CK_LEVEL_1
  6
CONTINUOUS
 62
     2
100
AcDbLine
 10
5.11539
 20
1.641044
 30
0.0
 11
5.108524
 21
1.641044
 31
0.0
  0
LINE
  5
4C0
100
AcDbEntity
  8
CK_LEVEL_1
  6
CONTINUOUS
 62
     2
100
AcDbLine
 10
7.930571
 20
1.847033
 30
0.0
 11
7.964902
 21
1.860766
 31
0.0
  0
LINE
  5
4C1
100
AcDbEntity
  8
CK_LEVEL_1
  6
CONTINUOUS
 62
     2
100
AcDbLine
 10
7.964902
 20
1.860766
 30
0.0
 11
8.06103
 21
1.90883
 31
0.0
  0
LINE
  5
4C2
100
AcDbEntity
  8
CK_LEVEL_1
  6
CONTINUOUS
 62
     2
100
AcDbLine
 10
8.06103
 20
1.90883
 30
0.0
 11
8.122828
 21
1.936295
 31
0.0
  0
LINE
  5
4C3
100
AcDbEntity
  8
CK_LEVEL_1
  6
CONTINUOUS
 62
     2
100
AcDbLine
 10
8.122827
 20
1.936295
 30
0.0
 11
8.239553
 21
1.991225
 31
0.0
  0
LINE
  5
4C4
100
AcDbEntity
  8
CK_LEVEL_1
  6
CONTINUOUS
 62
     2
100
AcDbLine
 10
8.239554
 20
1.991225
 30
0.0
 11
8.370013
 21
2.046156
 31
0.0
  0
LINE
  5
4C5
100
AcDbEntity
  8
CK_LEVEL_1
  6
CONTINUOUS
 62
     2
100
AcDbLine
 10
8.370013
 20
2.046156
 30
0.0
 11
8.48674
 21
2.101086
 31
0.0
  0
LINE
  5
4C6
100
AcDbEntity
  8
CK_LEVEL_1
  6
CONTINUOUS
 62
     2
100
AcDbLine
 10
8.48674
 20
2.101086
 30
0.0
 11
8.589735
 21
2.156016
 31
0.0
  0
LINE
  5
4C7
100
AcDbEntity
  8
CK_LEVEL_1
  6
CONTINUOUS
 62
     2
100
AcDbLine
 10
8.589735
 20
2.156016
 30
0.0
 11
8.624066
 21
2.128551
 31
0.0
  0
LINE
  5
4C8
100
AcDbEntity
  8
CK_LEVEL_1
  6
CONTINUOUS
 62
     2
100
AcDbLine
 10
8.624066
 20
2.128551
 30
0.0
 11
8.672131
 21
2.087353
 31
0.0
  0
LINE
  5
4C9
100
AcDbEntity
  8
CK_LEVEL_1
  6
CONTINUOUS
 62
     2
100
AcDbLine
 10
8.67213
 20
2.087353
 30
0.0
 11
8.761392
 21
1.991225
 31
0.0
  0
LINE
  5
4CA
100
AcDbEntity
  8
CK_LEVEL_1
  6
CONTINUOUS
 62
     2
100
AcDbLine
 10
8.761392
 20
1.991225
 30
0.0
 11
8.850654
 21
1.881365
 31
0.0
  0
LINE
  5
4CB
100
AcDbEntity
  8
CK_LEVEL_1
  6
CONTINUOUS
 62
     2
100
AcDbLine
 10
8.850654
 20
1.881365
 30
0.0
 11
8.878119
 21
1.833301
 31
0.0
  0
LINE
  5
4CC
100
AcDbEntity
  8
CK_LEVEL_1
  6
CONTINUOUS
 62
     2
100
AcDbLine
 10
8.878119
 20
1.833301
 30
0.0
 11
8.891852
 21
1.792103
 31
0.0
  0
LINE
  5
4CD
100
AcDbEntity
  8
CK_LEVEL_1
  6
CONTINUOUS
 62
     2
100
AcDbLine
 10
8.891852
 20
1.792103
 30
0.0
 11
8.850655
 21
1.744039
 31
0.0
  0
LINE
  5
4CE
100
AcDbEntity
  8
CK_LEVEL_1
  6
CONTINUOUS
 62
     2
100
AcDbLine
 10
8.850654
 20
1.744039
 30
0.0
 11
8.795724
 21
1.689108
 31
0.0
  0
LINE
  5
4CF
100
AcDbEntity
  8
CK_LEVEL_1
  6
CONTINUOUS
 62
     2
100
AcDbLine
 10
8.795724
 20
1.689108
 30
0.0
 11
8.658398
 21
1.565515
 31
0.0
  0
LINE
  5
4D0
100
AcDbEntity
  8
CK_LEVEL_1
  6
CONTINUOUS
 62
     2
100
AcDbLine
 10
8.658398
 20
1.565515
 30
0.0
 11
8.596601
 21
1.503718
 31
0.0
  0
LINE
  5
4D1
100
AcDbEntity
  8
CK_LEVEL_1
  6
CONTINUOUS
 62
     2
100
AcDbLine
 10
8.596601
 20
1.503718
 30
0.0
 11
8.534804
 21
1.455654
 31
0.0
  0
LINE
  5
4D2
100
AcDbEntity
  8
CK_LEVEL_1
  6
CONTINUOUS
 62
     2
100
AcDbLine
 10
8.534805
 20
1.455654
 30
0.0
 11
8.493608
 21
1.414457
 31
0.0
  0
LINE
  5
4D3
100
AcDbEntity
  8
CK_LEVEL_1
  6
CONTINUOUS
 62
     2
100
AcDbLine
 10
8.493607
 20
1.414457
 30
0.0
 11
8.466142
 21
1.393858
 31
0.0
  0
LINE
  5
4D4
100
AcDbEntity
  8
CK_LEVEL_1
  6
CONTINUOUS
 62
     2
100
AcDbLine
 10
8.466142
 20
1.393858
 30
0.0
 11
8.452409
 21
1.421323
 31
0.0
  0
LINE
  5
4D5
100
AcDbEntity
  8
CK_LEVEL_1
  6
CONTINUOUS
 62
     2
100
AcDbLine
 10
8.452409
 20
1.421323
 30
0.0
 11
8.424944
 21
1.428189
 31
0.0
  0
LINE
  5
4D6
100
AcDbEntity
  8
CK_LEVEL_1
  6
CONTINUOUS
 62
     2
100
AcDbLine
 10
8.424944
 20
1.428189
 30
0.0
 11
8.411211
 21
1.414457
 31
0.0
  0
LINE
  5
4D7
100
AcDbEntity
  8
CK_LEVEL_1
  6
CONTINUOUS
 62
     2
100
AcDbLine
 10
8.411211
 20
1.414457
 30
0.0
 11
8.390612
 21
1.386991
 31
0.0
  0
LINE
  5
4D8
100
AcDbEntity
  8
CK_LEVEL_1
  6
CONTINUOUS
 62
     2
100
AcDbLine
 10
8.390612
 20
1.386991
 30
0.0
 11
8.35628
 21
1.345794
 31
0.0
  0
LINE
  5
4D9
100
AcDbEntity
  8
CK_LEVEL_1
  6
CONTINUOUS
 62
     2
100
AcDbLine
 10
8.356281
 20
1.345794
 30
0.0
 11
8.315084
 21
1.304596
 31
0.0
  0
LINE
  5
4DA
100
AcDbEntity
  8
CK_LEVEL_1
  6
CONTINUOUS
 62
     2
100
AcDbLine
 10
8.315083
 20
1.304596
 30
0.0
 11
8.212089
 21
1.208468
 31
0.0
  0
LINE
  5
4DB
100
AcDbEntity
  8
CK_LEVEL_1
  6
CONTINUOUS
 62
     2
100
AcDbLine
 10
8.212089
 20
1.208468
 30
0.0
 11
8.109094
 21
1.126072
 31
0.0
  0
LINE
  5
4DC
100
AcDbEntity
  8
CK_LEVEL_1
  6
CONTINUOUS
 62
     2
100
AcDbLine
 10
8.109094
 20
1.126072
 30
0.0
 11
8.033565
 21
1.084874
 31
0.0
  0
LINE
  5
4DD
100
AcDbEntity
  8
CK_LEVEL_1
  6
CONTINUOUS
 62
     2
100
AcDbLine
 10
8.033565
 20
1.084874
 30
0.0
 11
7.978634
 21
1.057409
 31
0.0
  0
LINE
  5
4DE
100
AcDbEntity
  8
CK_LEVEL_1
  6
CONTINUOUS
 62
     2
100
AcDbLine
 10
7.978635
 20
1.057409
 30
0.0
 11
7.916838
 21
1.043677
 31
0.0
  0
LINE
  5
4DF
100
AcDbEntity
  8
CK_LEVEL_1
  6
CONTINUOUS
 62
     2
100
AcDbLine
 10
7.916838
 20
1.043677
 30
0.0
 11
7.841309
 21
1.029944
 31
0.0
  0
LINE
  5
4E0
100
AcDbEntity
  8
CK_LEVEL_1
  6
CONTINUOUS
 62
     2
100
AcDbLine
 10
7.841309
 20
1.029944
 30
0.0
 11
7.758913
 21
1.023078
 31
0.0
  0
LINE
  5
4E1
100
AcDbEntity
  8
CK_LEVEL_1
  6
CONTINUOUS
 62
     2
100
AcDbLine
 10
7.758913
 20
1.023078
 30
0.0
 11
7.669651
 21
1.023078
 31
0.0
  0
LINE
  5
4E2
100
AcDbEntity
  8
CK_LEVEL_1
  6
CONTINUOUS
 62
     2
100
AcDbLine
 10
7.669651
 20
1.023078
 30
0.0
 11
7.559791
 21
1.029944
 31
0.0
  0
LINE
  5
4E3
100
AcDbEntity
  8
CK_LEVEL_1
  6
CONTINUOUS
 62
     2
100
AcDbLine
 10
7.559791
 20
1.029944
 30
0.0
 11
7.491128
 21
1.043677
 31
0.0
  0
LINE
  5
4E4
100
AcDbEntity
  8
CK_LEVEL_1
  6
CONTINUOUS
 62
     2
100
AcDbLine
 10
7.491128
 20
1.043677
 30
0.0
 11
7.44993
 21
1.057409
 31
0.0
  0
LINE
  5
4E5
100
AcDbEntity
  8
CK_LEVEL_1
  6
CONTINUOUS
 62
     2
100
AcDbLine
 10
7.44993
 20
1.057409
 30
0.0
 11
7.436197
 21
1.078008
 31
0.0
  0
LINE
  5
4E6
100
AcDbEntity
  8
CK_LEVEL_1
  6
CONTINUOUS
 62
     2
100
AcDbLine
 10
7.436197
 20
1.078008
 30
0.0
 11
7.429331
 21
1.098607
 31
0.0
  0
LINE
  5
4E7
100
AcDbEntity
  8
CK_LEVEL_1
  6
CONTINUOUS
 62
     2
100
AcDbLine
 10
7.429331
 20
1.098607
 30
0.0
 11
7.456796
 21
1.132939
 31
0.0
  0
LINE
  5
4E8
100
AcDbEntity
  8
CK_LEVEL_1
  6
CONTINUOUS
 62
     2
100
AcDbLine
 10
7.456796
 20
1.132939
 30
0.0
 11
7.477395
 21
1.146671
 31
0.0
  0
LINE
  5
4E9
100
AcDbEntity
  8
CK_LEVEL_1
  6
CONTINUOUS
 62
     2
100
AcDbLine
 10
7.477395
 20
1.146671
 30
0.0
 11
7.477395
 21
1.208468
 31
0.0
  0
LINE
  5
4EA
100
AcDbEntity
  8
CK_LEVEL_1
  6
CONTINUOUS
 62
     2
100
AcDbLine
 10
7.477395
 20
1.208468
 30
0.0
 11
7.497994
 21
1.277131
 31
0.0
  0
LINE
  5
4EB
100
AcDbEntity
  8
CK_LEVEL_1
  6
CONTINUOUS
 62
     2
100
AcDbLine
 10
7.497994
 20
1.277131
 30
0.0
 11
7.539192
 21
1.338927
 31
0.0
  0
LINE
  5
4EC
100
AcDbEntity
  8
CK_LEVEL_1
  6
CONTINUOUS
 62
     2
100
AcDbLine
 10
7.539192
 20
1.338927
 30
0.0
 11
7.573523
 21
1.359526
 31
0.0
  0
LINE
  5
4ED
100
AcDbEntity
  8
CK_LEVEL_1
  6
CONTINUOUS
 62
     2
100
AcDbLine
 10
7.573523
 20
1.359526
 30
0.0
 11
7.607855
 21
1.373259
 31
0.0
  0
LINE
  5
4EE
100
AcDbEntity
  8
CK_LEVEL_1
  6
CONTINUOUS
 62
     2
100
AcDbLine
 10
7.607855
 20
1.373259
 30
0.0
 11
7.69025
 21
1.400724
 31
0.0
  0
LINE
  5
4EF
100
AcDbEntity
  8
CK_LEVEL_1
  6
CONTINUOUS
 62
     2
100
AcDbLine
 10
7.69025
 20
1.400724
 30
0.0
 11
7.772646
 21
1.441922
 31
0.0
  0
LINE
  5
4F0
100
AcDbEntity
  8
CK_LEVEL_1
  6
CONTINUOUS
 62
     2
100
AcDbLine
 10
7.772646
 20
1.441922
 30
0.0
 11
7.834442
 21
1.489986
 31
0.0
  0
LINE
  5
4F1
100
AcDbEntity
  8
CK_LEVEL_1
  6
CONTINUOUS
 62
     2
100
AcDbLine
 10
7.834442
 20
1.489986
 30
0.0
 11
7.848175
 21
1.517451
 31
0.0
  0
LINE
  5
4F2
100
AcDbEntity
  8
CK_LEVEL_1
  6
CONTINUOUS
 62
     2
100
AcDbLine
 10
7.848175
 20
1.517451
 30
0.0
 11
7.848175
 21
1.544916
 31
0.0
  0
LINE
  5
4F3
100
AcDbEntity
  8
CK_LEVEL_1
  6
CONTINUOUS
 62
     2
100
AcDbLine
 10
7.848175
 20
1.544916
 30
0.0
 11
7.855041
 21
1.59298
 31
0.0
  0
LINE
  5
4F4
100
AcDbEntity
  8
CK_LEVEL_1
  6
CONTINUOUS
 62
     2
100
AcDbLine
 10
7.855041
 20
1.59298
 30
0.0
 11
7.882507
 21
1.634178
 31
0.0
  0
LINE
  5
4F5
100
AcDbEntity
  8
CK_LEVEL_1
  6
CONTINUOUS
 62
     2
100
AcDbLine
 10
7.882507
 20
1.634178
 30
0.0
 11
7.916838
 21
1.675376
 31
0.0
  0
LINE
  5
4F6
100
AcDbEntity
  8
CK_LEVEL_1
  6
CONTINUOUS
 62
     2
100
AcDbLine
 10
7.916838
 20
1.675376
 30
0.0
 11
7.930571
 21
1.716574
 31
0.0
  0
LINE
  5
4F7
100
AcDbEntity
  8
CK_LEVEL_1
  6
CONTINUOUS
 62
     2
100
AcDbLine
 10
7.930571
 20
1.716574
 30
0.0
 11
7.930571
 21
1.853899
 31
0.0
  0
LINE
  5
4F8
100
AcDbEntity
  8
CK_LEVEL_1
  6
CONTINUOUS
 62
     2
100
AcDbLine
 10
7.930571
 20
1.853899
 30
0.0
 11
7.930571
 21
1.847033
 31
0.0
  0
LINE
  5
4F9
100
AcDbEntity
  8
CK_LEVEL_1
  6
CONTINUOUS
 62
     2
100
AcDbLine
 10
4.79954
 20
1.380125
 30
0.0
 11
4.87507
 21
1.40759
 31
0.0
  0
LINE
  5
4FA
100
AcDbEntity
  8
CK_LEVEL_1
  6
CONTINUOUS
 62
     2
100
AcDbLine
 10
4.87507
 20
1.40759
 30
0.0
 11
4.93
 21
1.441922
 31
0.0
  0
LINE
  5
4FB
100
AcDbEntity
  8
CK_LEVEL_1
  6
CONTINUOUS
 62
     2
100
AcDbLine
 10
4.93
 20
1.441922
 30
0.0
 11
4.998663
 21
1.435056
 31
0.0
  0
LINE
  5
4FC
100
AcDbEntity
  8
CK_LEVEL_1
  6
CONTINUOUS
 62
     2
100
AcDbLine
 10
4.998663
 20
1.435056
 30
0.0
 11
5.135989
 21
1.393858
 31
0.0
  0
LINE
  5
4FD
100
AcDbEntity
  8
CK_LEVEL_1
  6
CONTINUOUS
 62
     2
100
AcDbLine
 10
5.135989
 20
1.393858
 30
0.0
 11
5.184053
 21
1.366393
 31
0.0
  0
LINE
  5
4FE
100
AcDbEntity
  8
CK_LEVEL_1
  6
CONTINUOUS
 62
     2
100
AcDbLine
 10
5.184053
 20
1.366393
 30
0.0
 11
5.108524
 21
1.366393
 31
0.0
  0
LINE
  5
4FF
100
AcDbEntity
  8
CK_LEVEL_1
  6
CONTINUOUS
 62
     2
100
AcDbLine
 10
5.108524
 20
1.366393
 30
0.0
 11
4.888802
 21
1.380125
 31
0.0
  0
LINE
  5
500
100
AcDbEntity
  8
CK_LEVEL_1
  6
CONTINUOUS
 62
     2
100
AcDbLine
 10
4.888802
 20
1.380125
 30
0.0
 11
4.792674
 21
1.380125
 31
0.0
  0
LINE
  5
501
100
AcDbEntity
  8
CK_LEVEL_1
  6
CONTINUOUS
 62
     2
100
AcDbLine
 10
4.792674
 20
1.380125
 30
0.0
 11
4.79954
 21
1.380125
 31
0.0
  0
LINE
  5
502
100
AcDbEntity
  8
CK_LEVEL_1
  6
CONTINUOUS
 62
     2
100
AcDbLine
 10
7.772646
 20
1.441922
 30
0.0
 11
7.834442
 21
1.489986
 31
0.0
  0
LINE
  5
503
100
AcDbEntity
  8
CK_LEVEL_1
  6
CONTINUOUS
 62
     2
100
AcDbLine
 10
7.834442
 20
1.489986
 30
0.0
 11
7.848175
 21
1.517451
 31
0.0
  0
LINE
  5
504
100
AcDbEntity
  8
CK_LEVEL_1
  6
CONTINUOUS
 62
     2
100
AcDbLine
 10
7.848175
 20
1.517451
 30
0.0
 11
7.848175
 21
1.544916
 31
0.0
  0
LINE
  5
505
100
AcDbEntity
  8
CK_LEVEL_1
  6
CONTINUOUS
 62
     2
100
AcDbLine
 10
7.848175
 20
1.544916
 30
0.0
 11
7.944303
 21
1.496852
 31
0.0
  0
LINE
  5
506
100
AcDbEntity
  8
CK_LEVEL_1
  6
CONTINUOUS
 62
     2
100
AcDbLine
 10
7.944303
 20
1.496852
 30
0.0
 11
7.992367
 21
1.476253
 31
0.0
  0
LINE
  5
507
100
AcDbEntity
  8
CK_LEVEL_1
  6
CONTINUOUS
 62
     2
100
AcDbLine
 10
7.992367
 20
1.476253
 30
0.0
 11
8.026699
 21
1.469387
 31
0.0
  0
LINE
  5
508
100
AcDbEntity
  8
CK_LEVEL_1
  6
CONTINUOUS
 62
     2
100
AcDbLine
 10
8.026699
 20
1.469387
 30
0.0
 11
7.964902
 21
1.455654
 31
0.0
  0
LINE
  5
509
100
AcDbEntity
  8
CK_LEVEL_1
  6
CONTINUOUS
 62
     2
100
AcDbLine
 10
7.964902
 20
1.455654
 30
0.0
 11
7.82071
 21
1.441922
 31
0.0
  0
LINE
  5
50A
100
AcDbEntity
  8
CK_LEVEL_1
  6
CONTINUOUS
 62
     2
100
AcDbLine
 10
7.82071
 20
1.441922
 30
0.0
 11
7.772646
 21
1.441922
 31
0.0
  0
LINE
  5
50B
100
AcDbEntity
  8
CK_LEVEL_1
  6
CONTINUOUS
 62
     2
100
AcDbLine
 10
7.772646
 20
1.448788
 30
0.0
 11
7.772646
 21
1.441922
 31
0.0
  0
LINE
  5
50C
100
AcDbEntity
  8
CK_LEVEL_1
  6
CONTINUOUS
 62
     2
100
AcDbLine
 10
7.930571
 20
1.716574
 30
0.0
 11
7.930571
 21
1.847033
 31
0.0
  0
LINE
  5
50D
100
AcDbEntity
  8
CK_LEVEL_1
  6
CONTINUOUS
 62
     2
100
AcDbLine
 10
7.930571
 20
1.847033
 30
0.0
 11
8.122828
 21
1.936295
 31
0.0
  0
LINE
  5
50E
100
AcDbEntity
  8
CK_LEVEL_1
  6
CONTINUOUS
 62
     2
100
AcDbLine
 10
8.122827
 20
1.936295
 30
0.0
 11
8.157158
 21
1.943161
 31
0.0
  0
LINE
  5
50F
100
AcDbEntity
  8
CK_LEVEL_1
  6
CONTINUOUS
 62
     2
100
AcDbLine
 10
8.157158
 20
1.943161
 30
0.0
 11
8.184623
 21
1.950028
 31
0.0
  0
LINE
  5
510
100
AcDbEntity
  8
CK_LEVEL_1
  6
CONTINUOUS
 62
     2
100
AcDbLine
 10
8.184623
 20
1.950028
 30
0.0
 11
8.136559
 21
1.901964
 31
0.0
  0
LINE
  5
511
100
AcDbEntity
  8
CK_LEVEL_1
  6
CONTINUOUS
 62
     2
100
AcDbLine
 10
8.136559
 20
1.901964
 30
0.0
 11
8.061029
 21
1.833301
 31
0.0
  0
LINE
  5
512
100
AcDbEntity
  8
CK_LEVEL_1
  6
CONTINUOUS
 62
     2
100
AcDbLine
 10
8.06103
 20
1.833301
 30
0.0
 11
7.978635
 21
1.764638
 31
0.0
  0
LINE
  5
513
100
AcDbEntity
  8
CK_LEVEL_1
  6
CONTINUOUS
 62
     2
100
AcDbLine
 10
7.978635
 20
1.764638
 30
0.0
 11
7.930571
 21
1.716574
 31
0.0
  0
LINE
  5
514
100
AcDbEntity
  8
CK_LEVEL_1
  6
CONTINUOUS
 62
     2
100
AcDbLine
 10
3.755864
 20
7.944303
 30
0.0
 11
4.476824
 21
7.422464
 31
0.0
  0
LINE
  5
515
100
AcDbEntity
  8
CK_LEVEL_1
  6
CONTINUOUS
 62
     2
100
AcDbLine
 10
4.476824
 20
7.422464
 30
0.0
 11
4.42876
 21
7.449929
 31
0.0
  0
LINE
  5
516
100
AcDbEntity
  8
CK_LEVEL_1
  6
CONTINUOUS
 62
     2
100
AcDbLine
 10
4.42876
 20
7.449929
 30
0.0
 11
4.353231
 21
7.491127
 31
0.0
  0
LINE
  5
517
100
AcDbEntity
  8
CK_LEVEL_1
  6
CONTINUOUS
 62
     2
100
AcDbLine
 10
4.353231
 20
7.491127
 30
0.0
 11
4.154109
 21
7.600988
 31
0.0
  0
LINE
  5
518
100
AcDbEntity
  8
CK_LEVEL_1
  6
CONTINUOUS
 62
     2
100
AcDbLine
 10
4.154109
 20
7.600988
 30
0.0
 11
4.057981
 21
7.662785
 31
0.0
  0
LINE
  5
519
100
AcDbEntity
  8
CK_LEVEL_1
  6
CONTINUOUS
 62
     2
100
AcDbLine
 10
4.057981
 20
7.662785
 30
0.0
 11
3.900056
 21
7.758913
 31
0.0
  0
LINE
  5
51A
100
AcDbEntity
  8
CK_LEVEL_1
  6
CONTINUOUS
 62
     2
100
AcDbLine
 10
3.900056
 20
7.758913
 30
0.0
 11
3.872591
 21
7.772645
 31
0.0
  0
LINE
  5
51B
100
AcDbEntity
  8
CK_LEVEL_1
  6
CONTINUOUS
 62
     2
100
AcDbLine
 10
3.872591
 20
7.772645
 30
0.0
 11
3.845125
 21
7.80011
 31
0.0
  0
LINE
  5
51C
100
AcDbEntity
  8
CK_LEVEL_1
  6
CONTINUOUS
 62
     2
100
AcDbLine
 10
3.845125
 20
7.80011
 30
0.0
 11
3.81766
 21
7.813843
 31
0.0
  0
LINE
  5
51D
100
AcDbEntity
  8
CK_LEVEL_1
  6
CONTINUOUS
 62
     2
100
AcDbLine
 10
3.81766
 20
7.813843
 30
0.0
 11
3.755864
 21
7.848175
 31
0.0
  0
LINE
  5
51E
100
AcDbEntity
  8
CK_LEVEL_1
  6
CONTINUOUS
 62
     2
100
AcDbLine
 10
3.755864
 20
7.848175
 30
0.0
 11
3.700933
 21
7.87564
 31
0.0
  0
LINE
  5
51F
100
AcDbEntity
  8
CK_LEVEL_1
  6
CONTINUOUS
 62
     2
100
AcDbLine
 10
3.700933
 20
7.87564
 30
0.0
 11
3.680334
 21
7.889372
 31
0.0
  0
LINE
  5
520
100
AcDbEntity
  8
CK_LEVEL_1
  6
CONTINUOUS
 62
     2
100
AcDbLine
 10
3.680334
 20
7.889372
 30
0.0
 11
3.666602
 21
7.896239
 31
0.0
  0
LINE
  5
521
100
AcDbEntity
  8
CK_LEVEL_1
  6
CONTINUOUS
 62
     2
100
AcDbLine
 10
3.666602
 20
7.896239
 30
0.0
 11
3.44688
 21
8.033565
 31
0.0
  0
LINE
  5
522
100
AcDbEntity
  8
CK_LEVEL_1
  6
CONTINUOUS
 62
     2
100
AcDbLine
 10
3.44688
 20
8.033565
 30
0.0
 11
3.398816
 21
8.061029
 31
0.0
  0
LINE
  5
523
100
AcDbEntity
  8
CK_LEVEL_1
  6
CONTINUOUS
 62
     2
100
AcDbLine
 10
3.398816
 20
8.06103
 30
0.0
 11
3.282089
 21
8.129693
 31
0.0
  0
LINE
  5
524
100
AcDbEntity
  8
CK_LEVEL_1
  6
CONTINUOUS
 62
     2
100
AcDbLine
 10
3.282089
 20
8.129693
 30
0.0
 11
3.165362
 21
8.191489
 31
0.0
  0
LINE
  5
525
100
AcDbEntity
  8
CK_LEVEL_1
  6
CONTINUOUS
 62
     2
100
AcDbLine
 10
3.165362
 20
8.191489
 30
0.0
 11
3.124164
 21
8.218954
 31
0.0
  0
LINE
  5
526
100
AcDbEntity
  8
CK_LEVEL_1
  6
CONTINUOUS
 62
     2
100
AcDbLine
 10
3.124164
 20
8.218954
 30
0.0
 11
3.103566
 21
8.225821
 31
0.0
  0
LINE
  5
527
100
AcDbEntity
  8
CK_LEVEL_1
  6
CONTINUOUS
 62
     2
100
AcDbLine
 10
3.103566
 20
8.225821
 30
0.0
 11
3.034903
 21
8.294483
 31
0.0
  0
LINE
  5
528
100
AcDbEntity
  8
CK_LEVEL_1
  6
CONTINUOUS
 62
     2
100
AcDbLine
 10
3.034903
 20
8.294484
 30
0.0
 11
2.986839
 21
8.294484
 31
0.0
  0
LINE
  5
529
100
AcDbEntity
  8
CK_LEVEL_1
  6
CONTINUOUS
 62
     2
100
AcDbLine
 10
2.986839
 20
8.294484
 30
0.0
 11
2.945641
 21
8.301351
 31
0.0
  0
LINE
  5
52A
100
AcDbEntity
  8
CK_LEVEL_1
  6
CONTINUOUS
 62
     2
100
AcDbLine
 10
2.945641
 20
8.30135
 30
0.0
 11
2.897577
 21
8.328815
 31
0.0
  0
LINE
  5
52B
100
AcDbEntity
  8
CK_LEVEL_1
  6
CONTINUOUS
 62
     2
100
AcDbLine
 10
2.897577
 20
8.328815
 30
0.0
 11
2.870112
 21
8.37688
 31
0.0
  0
LINE
  5
52C
100
AcDbEntity
  8
CK_LEVEL_1
  6
CONTINUOUS
 62
     2
100
AcDbLine
 10
2.870112
 20
8.376879
 30
0.0
 11
2.849513
 21
8.418077
 31
0.0
  0
LINE
  5
52D
100
AcDbEntity
  8
CK_LEVEL_1
  6
CONTINUOUS
 62
     2
100
AcDbLine
 10
2.849513
 20
8.418077
 30
0.0
 11
2.828914
 21
8.445542
 31
0.0
  0
LINE
  5
52E
100
AcDbEntity
  8
CK_LEVEL_1
  6
CONTINUOUS
 62
     2
100
AcDbLine
 10
2.828914
 20
8.445542
 30
0.0
 11
2.78085
 21
8.479875
 31
0.0
  0
LINE
  5
52F
100
AcDbEntity
  8
CK_LEVEL_1
  6
CONTINUOUS
 62
     2
100
AcDbLine
 10
2.78085
 20
8.479874
 30
0.0
 11
2.870112
 21
8.473006
 31
0.0
  0
LINE
  5
530
100
AcDbEntity
  8
CK_LEVEL_1
  6
CONTINUOUS
 62
     2
100
AcDbLine
 10
2.870112
 20
8.473007
 30
0.0
 11
2.925042
 21
8.466141
 31
0.0
  0
LINE
  5
531
100
AcDbEntity
  8
CK_LEVEL_1
  6
CONTINUOUS
 62
     2
100
AcDbLine
 10
2.925042
 20
8.466141
 30
0.0
 11
3.000571
 21
8.424943
 31
0.0
  0
LINE
  5
532
100
AcDbEntity
  8
CK_LEVEL_1
  6
CONTINUOUS
 62
     2
100
AcDbLine
 10
3.000571
 20
8.424943
 30
0.0
 11
3.034903
 21
8.404344
 31
0.0
  0
LINE
  5
533
100
AcDbEntity
  8
CK_LEVEL_1
  6
CONTINUOUS
 62
     2
100
AcDbLine
 10
3.034903
 20
8.404344
 30
0.0
 11
3.055502
 21
8.376879
 31
0.0
  0
LINE
  5
534
100
AcDbEntity
  8
CK_LEVEL_1
  6
CONTINUOUS
 62
     2
100
AcDbLine
 10
3.055502
 20
8.376879
 30
0.0
 11
3.082967
 21
8.321949
 31
0.0
  0
LINE
  5
535
100
AcDbEntity
  8
CK_LEVEL_1
  6
CONTINUOUS
 62
     2
100
AcDbLine
 10
3.082967
 20
8.321949
 30
0.0
 11
3.103566
 21
8.308216
 31
0.0
  0
LINE
  5
536
100
AcDbEntity
  8
CK_LEVEL_1
  6
CONTINUOUS
 62
     2
100
AcDbLine
 10
3.103566
 20
8.308216
 30
0.0
 11
3.227159
 21
8.24642
 31
0.0
  0
LINE
  5
537
100
AcDbEntity
  8
CK_LEVEL_1
  6
CONTINUOUS
 62
     2
100
AcDbLine
 10
3.227159
 20
8.24642
 30
0.0
 11
3.309554
 21
8.198356
 31
0.0
  0
LINE
  5
538
100
AcDbEntity
  8
CK_LEVEL_1
  6
CONTINUOUS
 62
     2
100
AcDbLine
 10
3.309554
 20
8.198356
 30
0.0
 11
3.529276
 21
8.074761
 31
0.0
  0
LINE
  5
539
100
AcDbEntity
  8
CK_LEVEL_1
  6
CONTINUOUS
 62
     2
100
AcDbLine
 10
3.529276
 20
8.074762
 30
0.0
 11
3.570474
 21
8.054163
 31
0.0
  0
LINE
  5
53A
100
AcDbEntity
  8
CK_LEVEL_1
  6
CONTINUOUS
 62
     2
100
AcDbLine
 10
3.570474
 20
8.054163
 30
0.0
 11
3.604805
 21
8.033565
 31
0.0
  0
LINE
  5
53B
100
AcDbEntity
  8
CK_LEVEL_1
  6
CONTINUOUS
 62
     2
100
AcDbLine
 10
3.604805
 20
8.033565
 30
0.0
 11
3.652869
 21
8.006099
 31
0.0
  0
LINE
  5
53C
100
AcDbEntity
  8
CK_LEVEL_1
  6
CONTINUOUS
 62
     2
100
AcDbLine
 10
3.652869
 20
8.006099
 30
0.0
 11
3.755864
 21
7.944303
 31
0.0
  0
LINE
  5
53D
100
AcDbEntity
  8
CK_LEVEL_1
  6
CONTINUOUS
 62
     2
100
AcDbLine
 10
3.845125
 20
7.80011
 30
0.0
 11
3.858858
 21
7.786378
 31
0.0
  0
LINE
  5
53E
100
AcDbEntity
  8
CK_LEVEL_1
  6
CONTINUOUS
 62
     2
100
AcDbLine
 10
3.858858
 20
7.786378
 30
0.0
 11
3.851992
 21
7.855041
 31
0.0
  0
LINE
  5
53F
100
AcDbEntity
  8
CK_LEVEL_1
  6
CONTINUOUS
 62
     2
100
AcDbLine
 10
3.851992
 20
7.855041
 30
0.0
 11
3.824526
 21
7.896239
 31
0.0
  0
LINE
  5
540
100
AcDbEntity
  8
CK_LEVEL_1
  6
CONTINUOUS
 62
     2
100
AcDbLine
 10
3.824526
 20
7.896239
 30
0.0
 11
3.790195
 21
7.93057
 31
0.0
  0
LINE
  5
541
100
AcDbEntity
  8
CK_LEVEL_1
  6
CONTINUOUS
 62
     2
100
AcDbLine
 10
3.790195
 20
7.93057
 30
0.0
 11
3.755864
 21
7.944303
 31
0.0
  0
LINE
  5
542
100
AcDbEntity
  8
CK_LEVEL_1
  6
CONTINUOUS
 62
     2
100
AcDbLine
 10
3.755864
 20
7.944303
 30
0.0
 11
3.721532
 21
7.964902
 31
0.0
  0
LINE
  5
543
100
AcDbEntity
  8
CK_LEVEL_1
  6
CONTINUOUS
 62
     2
100
AcDbLine
 10
3.721532
 20
7.964902
 30
0.0
 11
3.611671
 21
8.033565
 31
0.0
  0
LINE
  5
544
100
AcDbEntity
  8
CK_LEVEL_1
  6
CONTINUOUS
 62
     2
100
AcDbLine
 10
3.611671
 20
8.033565
 30
0.0
 11
3.570474
 21
8.054163
 31
0.0
  0
LINE
  5
545
100
AcDbEntity
  8
CK_LEVEL_1
  6
CONTINUOUS
 62
     2
100
AcDbLine
 10
3.570474
 20
8.054163
 30
0.0
 11
3.549875
 21
8.054163
 31
0.0
  0
LINE
  5
546
100
AcDbEntity
  8
CK_LEVEL_1
  6
CONTINUOUS
 62
     2
100
AcDbLine
 10
3.549875
 20
8.054163
 30
0.0
 11
3.52241
 21
8.047297
 31
0.0
  0
LINE
  5
547
100
AcDbEntity
  8
CK_LEVEL_1
  6
CONTINUOUS
 62
     2
100
AcDbLine
 10
3.52241
 20
8.047297
 30
0.0
 11
3.467479
 21
8.019832
 31
0.0
  0
LINE
  5
548
100
AcDbEntity
  8
CK_LEVEL_1
  6
CONTINUOUS
 62
     2
100
AcDbLine
 10
3.467479
 20
8.019832
 30
0.0
 11
3.570474
 21
7.9855
 31
0.0
  0
LINE
  5
549
100
AcDbEntity
  8
CK_LEVEL_1
  6
CONTINUOUS
 62
     2
100
AcDbLine
 10
3.570474
 20
7.9855
 30
0.0
 11
3.618538
 21
7.964902
 31
0.0
  0
LINE
  5
54A
100
AcDbEntity
  8
CK_LEVEL_1
  6
CONTINUOUS
 62
     2
100
AcDbLine
 10
3.618538
 20
7.964902
 30
0.0
 11
3.646003
 21
7.951169
 31
0.0
  0
LINE
  5
54B
100
AcDbEntity
  8
CK_LEVEL_1
  6
CONTINUOUS
 62
     2
100
AcDbLine
 10
3.646003
 20
7.951169
 30
0.0
 11
3.659735
 21
7.923704
 31
0.0
  0
LINE
  5
54C
100
AcDbEntity
  8
CK_LEVEL_1
  6
CONTINUOUS
 62
     2
100
AcDbLine
 10
3.659735
 20
7.923704
 30
0.0
 11
3.666602
 21
7.896239
 31
0.0
  0
LINE
  5
54D
100
AcDbEntity
  8
CK_LEVEL_1
  6
CONTINUOUS
 62
     2
100
AcDbLine
 10
4.813273
 20
5.032994
 30
0.0
 11
5.685292
 21
5.568565
 31
0.0
  0
LINE
  5
54E
100
AcDbEntity
  8
CK_LEVEL_1
  6
CONTINUOUS
 62
     2
100
AcDbLine
 10
5.685292
 20
5.568565
 30
0.0
 11
5.843217
 21
5.589164
 31
0.0
  0
LINE
  5
54F
100
AcDbEntity
  8
CK_LEVEL_1
  6
CONTINUOUS
 62
     2
100
AcDbLine
 10
5.843217
 20
5.589164
 30
0.0
 11
7.292005
 21
5.712757
 31
0.0
  0
LINE
  5
550
100
AcDbEntity
  8
CK_LEVEL_1
  6
CONTINUOUS
 62
     2
100
AcDbLine
 10
7.292005
 20
5.712757
 30
0.0
 11
7.662785
 21
5.753955
 31
0.0
  0
LINE
  5
551
100
AcDbEntity
  8
CK_LEVEL_1
  6
CONTINUOUS
 62
     2
100
AcDbLine
 10
7.662785
 20
5.753955
 30
0.0
 11
5.939345
 21
4.696545
 31
0.0
  0
LINE
  5
552
100
AcDbEntity
  8
CK_LEVEL_1
  6
CONTINUOUS
 62
     2
100
AcDbLine
 10
5.939345
 20
4.696545
 30
0.0
 11
4.222772
 21
4.572952
 31
0.0
  0
LINE
  5
553
100
AcDbEntity
  8
CK_LEVEL_1
  6
CONTINUOUS
 62
     2
100
AcDbLine
 10
4.222772
 20
4.572952
 30
0.0
 11
4.222772
 21
4.662214
 31
0.0
  0
LINE
  5
554
100
AcDbEntity
  8
CK_LEVEL_1
  6
CONTINUOUS
 62
     2
100
AcDbLine
 10
4.222772
 20
4.662214
 30
0.0
 11
4.813273
 21
5.032994
 31
0.0
  0
LINE
  5
555
100
AcDbEntity
  8
CK_LEVEL_1
  6
CONTINUOUS
 62
     2
100
AcDbLine
 10
5.074192
 20
5.03986
 30
0.0
 11
5.074192
 21
5.005529
 31
0.0
  0
LINE
  5
556
100
AcDbEntity
  8
CK_LEVEL_1
  6
CONTINUOUS
 62
     2
100
AcDbLine
 10
5.074192
 20
5.005529
 30
0.0
 11
5.101657
 21
4.98493
 31
0.0
  0
LINE
  5
557
100
AcDbEntity
  8
CK_LEVEL_1
  6
CONTINUOUS
 62
     2
100
AcDbLine
 10
5.101657
 20
4.98493
 30
0.0
 11
5.142855
 21
4.978063
 31
0.0
  0
LINE
  5
558
100
AcDbEntity
  8
CK_LEVEL_1
  6
CONTINUOUS
 62
     2
100
AcDbLine
 10
5.142855
 20
4.978063
 30
0.0
 11
5.190919
 21
4.98493
 31
0.0
  0
LINE
  5
559
100
AcDbEntity
  8
CK_LEVEL_1
  6
CONTINUOUS
 62
     2
100
AcDbLine
 10
5.190919
 20
4.98493
 30
0.0
 11
5.225251
 21
4.991796
 31
0.0
  0
LINE
  5
55A
100
AcDbEntity
  8
CK_LEVEL_1
  6
CONTINUOUS
 62
     2
100
AcDbLine
 10
5.225251
 20
4.991796
 30
0.0
 11
5.335111
 21
5.019261
 31
0.0
  0
LINE
  5
55B
100
AcDbEntity
  8
CK_LEVEL_1
  6
CONTINUOUS
 62
     2
100
AcDbLine
 10
5.335111
 20
5.019261
 30
0.0
 11
5.396908
 21
5.032994
 31
0.0
  0
LINE
  5
55C
100
AcDbEntity
  8
CK_LEVEL_1
  6
CONTINUOUS
 62
     2
100
AcDbLine
 10
5.396908
 20
5.032994
 30
0.0
 11
5.5411
 21
5.09479
 31
0.0
  0
LINE
  5
55D
100
AcDbEntity
  8
CK_LEVEL_1
  6
CONTINUOUS
 62
     2
100
AcDbLine
 10
5.5411
 20
5.09479
 30
0.0
 11
5.609763
 21
5.135988
 31
0.0
  0
LINE
  5
55E
100
AcDbEntity
  8
CK_LEVEL_1
  6
CONTINUOUS
 62
     2
100
AcDbLine
 10
5.609763
 20
5.135988
 30
0.0
 11
5.678426
 21
5.190919
 31
0.0
  0
LINE
  5
55F
100
AcDbEntity
  8
CK_LEVEL_1
  6
CONTINUOUS
 62
     2
100
AcDbLine
 10
5.678426
 20
5.190919
 30
0.0
 11
5.650961
 21
5.190919
 31
0.0
  0
LINE
  5
560
100
AcDbEntity
  8
CK_LEVEL_1
  6
CONTINUOUS
 62
     2
100
AcDbLine
 10
5.650961
 20
5.190919
 30
0.0
 11
5.616629
 21
5.184052
 31
0.0
  0
LINE
  5
561
100
AcDbEntity
  8
CK_LEVEL_1
  6
CONTINUOUS
 62
     2
100
AcDbLine
 10
5.616629
 20
5.184052
 30
0.0
 11
5.527368
 21
5.163453
 31
0.0
  0
LINE
  5
562
100
AcDbEntity
  8
CK_LEVEL_1
  6
CONTINUOUS
 62
     2
100
AcDbLine
 10
5.527368
 20
5.163453
 30
0.0
 11
5.451838
 21
5.149721
 31
0.0
  0
LINE
  5
563
100
AcDbEntity
  8
CK_LEVEL_1
  6
CONTINUOUS
 62
     2
100
AcDbLine
 10
5.451838
 20
5.149721
 30
0.0
 11
5.424373
 21
5.142855
 31
0.0
  0
LINE
  5
564
100
AcDbEntity
  8
CK_LEVEL_1
  6
CONTINUOUS
 62
     2
100
AcDbLine
 10
5.424373
 20
5.142855
 30
0.0
 11
5.417507
 21
5.149721
 31
0.0
  0
LINE
  5
565
100
AcDbEntity
  8
CK_LEVEL_1
  6
CONTINUOUS
 62
     2
100
AcDbLine
 10
5.417507
 20
5.149721
 30
0.0
 11
5.417507
 21
5.197785
 31
0.0
  0
LINE
  5
566
100
AcDbEntity
  8
CK_LEVEL_1
  6
CONTINUOUS
 62
     2
100
AcDbLine
 10
5.417507
 20
5.197785
 30
0.0
 11
5.410641
 21
5.218384
 31
0.0
  0
LINE
  5
567
100
AcDbEntity
  8
CK_LEVEL_1
  6
CONTINUOUS
 62
     2
100
AcDbLine
 10
5.410641
 20
5.218384
 30
0.0
 11
5.396908
 21
5.22525
 31
0.0
  0
LINE
  5
568
100
AcDbEntity
  8
CK_LEVEL_1
  6
CONTINUOUS
 62
     2
100
AcDbLine
 10
5.396908
 20
5.22525
 30
0.0
 11
5.383175
 21
5.218384
 31
0.0
  0
LINE
  5
569
100
AcDbEntity
  8
CK_LEVEL_1
  6
CONTINUOUS
 62
     2
100
AcDbLine
 10
5.383175
 20
5.218384
 30
0.0
 11
5.348844
 21
5.204651
 31
0.0
  0
LINE
  5
56A
100
AcDbEntity
  8
CK_LEVEL_1
  6
CONTINUOUS
 62
     2
100
AcDbLine
 10
5.348844
 20
5.204651
 30
0.0
 11
5.259582
 21
5.17032
 31
0.0
  0
LINE
  5
56B
100
AcDbEntity
  8
CK_LEVEL_1
  6
CONTINUOUS
 62
     2
100
AcDbLine
 10
5.259582
 20
5.17032
 30
0.0
 11
5.156588
 21
5.108523
 31
0.0
  0
LINE
  5
56C
100
AcDbEntity
  8
CK_LEVEL_1
  6
CONTINUOUS
 62
     2
100
AcDbLine
 10
5.156588
 20
5.108523
 30
0.0
 11
5.074192
 21
5.03986
 31
0.0
  0
LINE
  5
56D
100
AcDbEntity
  8
CK_LEVEL_1
  6
CONTINUOUS
 62
     2
100
AcDbLine
 10
5.074192
 20
5.03986
 30
0.0
 11
4.813273
 21
5.032994
 31
0.0
  0
LINE
  5
56E
100
AcDbEntity
  8
CK_LEVEL_1
  6
CONTINUOUS
 62
     2
100
AcDbLine
 10
4.813273
 20
5.032994
 30
0.0
 11
5.843217
 21
5.589164
 31
0.0
  0
LINE
  5
56F
100
AcDbEntity
  8
CK_LEVEL_1
  6
CONTINUOUS
 62
     2
100
AcDbLine
 10
7.292005
 20
5.712757
 30
0.0
 11
7.298872
 21
5.712757
 31
0.0
  0
LINE
  5
570
100
AcDbEntity
  8
CK_LEVEL_1
  6
CONTINUOUS
 62
     2
100
AcDbLine
 10
7.298872
 20
5.712757
 30
0.0
 11
7.092883
 21
5.671559
 31
0.0
  0
LINE
  5
571
100
AcDbEntity
  8
CK_LEVEL_1
  6
CONTINUOUS
 62
     2
100
AcDbLine
 10
7.092883
 20
5.671559
 30
0.0
 11
6.907493
 21
5.630361
 31
0.0
  0
LINE
  5
572
100
AcDbEntity
  8
CK_LEVEL_1
  6
CONTINUOUS
 62
     2
100
AcDbLine
 10
6.907493
 20
5.630361
 30
0.0
 11
6.825097
 21
5.602896
 31
0.0
  0
LINE
  5
573
100
AcDbEntity
  8
CK_LEVEL_1
  6
CONTINUOUS
 62
     2
100
AcDbLine
 10
6.825097
 20
5.602896
 30
0.0
 11
6.756434
 21
5.575431
 31
0.0
  0
LINE
  5
574
100
AcDbEntity
  8
CK_LEVEL_1
  6
CONTINUOUS
 62
     2
100
AcDbLine
 10
6.756434
 20
5.575431
 30
0.0
 11
6.694638
 21
5.547966
 31
0.0
  0
LINE
  5
575
100
AcDbEntity
  8
CK_LEVEL_1
  6
CONTINUOUS
 62
     2
100
AcDbLine
 10
6.694638
 20
5.547966
 30
0.0
 11
6.65344
 21
5.513634
 31
0.0
  0
LINE
  5
576
100
AcDbEntity
  8
CK_LEVEL_1
  6
CONTINUOUS
 62
     2
100
AcDbLine
 10
6.564178
 20
5.506768
 30
0.0
 11
6.529847
 21
5.527367
 31
0.0
  0
LINE
  5
577
100
AcDbEntity
  8
CK_LEVEL_1
  6
CONTINUOUS
 62
     2
100
AcDbLine
 10
6.529847
 20
5.527367
 30
0.0
 11
6.481782
 21
5.5411
 31
0.0
  0
LINE
  5
578
100
AcDbEntity
  8
CK_LEVEL_1
  6
CONTINUOUS
 62
     2
100
AcDbLine
 10
6.481782
 20
5.5411
 30
0.0
 11
6.371922
 21
5.5411
 31
0.0
  0
LINE
  5
579
100
AcDbEntity
  8
CK_LEVEL_1
  6
CONTINUOUS
 62
     2
100
AcDbLine
 10
6.371922
 20
5.5411
 30
0.0
 11
6.323858
 21
5.534233
 31
0.0
  0
LINE
  5
57A
100
AcDbEntity
  8
CK_LEVEL_1
  6
CONTINUOUS
 62
     2
100
AcDbLine
 10
6.323858
 20
5.534233
 30
0.0
 11
6.262061
 21
5.520501
 31
0.0
  0
LINE
  5
57B
100
AcDbEntity
  8
CK_LEVEL_1
  6
CONTINUOUS
 62
     2
100
AcDbLine
 10
6.262061
 20
5.520501
 30
0.0
 11
6.200264
 21
5.499902
 31
0.0
  0
LINE
  5
57C
100
AcDbEntity
  8
CK_LEVEL_1
  6
CONTINUOUS
 62
     2
100
AcDbLine
 10
6.200264
 20
5.499902
 30
0.0
 11
6.1522
 21
5.479303
 31
0.0
  0
LINE
  5
57D
100
AcDbEntity
  8
CK_LEVEL_1
  6
CONTINUOUS
 62
     2
100
AcDbLine
 10
6.1522
 20
5.479303
 30
0.0
 11
6.124735
 21
5.451838
 31
0.0
  0
LINE
  5
57E
100
AcDbEntity
  8
CK_LEVEL_1
  6
CONTINUOUS
 62
     2
100
AcDbLine
 10
6.124735
 20
5.451838
 30
0.0
 11
6.117869
 21
5.431239
 31
0.0
  0
LINE
  5
57F
100
AcDbEntity
  8
CK_LEVEL_1
  6
CONTINUOUS
 62
     2
100
AcDbLine
 10
6.117869
 20
5.431239
 30
0.0
 11
6.124735
 21
5.41064
 31
0.0
  0
LINE
  5
580
100
AcDbEntity
  8
CK_LEVEL_1
  6
CONTINUOUS
 62
     2
100
AcDbLine
 10
6.124735
 20
5.41064
 30
0.0
 11
6.165933
 21
5.383175
 31
0.0
  0
LINE
  5
581
100
AcDbEntity
  8
CK_LEVEL_1
  6
CONTINUOUS
 62
     2
100
AcDbLine
 10
6.165933
 20
5.383175
 30
0.0
 11
6.165933
 21
5.376309
 31
0.0
  0
LINE
  5
582
100
AcDbEntity
  8
CK_LEVEL_1
  6
CONTINUOUS
 62
     2
100
AcDbLine
 10
6.165933
 20
5.376309
 30
0.0
 11
6.159067
 21
5.35571
 31
0.0
  0
LINE
  5
583
100
AcDbEntity
  8
CK_LEVEL_1
  6
CONTINUOUS
 62
     2
100
AcDbLine
 10
6.159067
 20
5.35571
 30
0.0
 11
6.172799
 21
5.335111
 31
0.0
  0
LINE
  5
584
100
AcDbEntity
  8
CK_LEVEL_1
  6
CONTINUOUS
 62
     2
100
AcDbLine
 10
6.172799
 20
5.335111
 30
0.0
 11
6.213997
 21
5.328244
 31
0.0
  0
LINE
  5
585
100
AcDbEntity
  8
CK_LEVEL_1
  6
CONTINUOUS
 62
     2
100
AcDbLine
 10
6.213997
 20
5.328244
 30
0.0
 11
6.275794
 21
5.321378
 31
0.0
  0
LINE
  5
586
100
AcDbEntity
  8
CK_LEVEL_1
  6
CONTINUOUS
 62
     2
100
AcDbLine
 10
6.275794
 20
5.321378
 30
0.0
 11
6.365055
 21
5.321378
 31
0.0
  0
LINE
  5
587
100
AcDbEntity
  8
CK_LEVEL_1
  6
CONTINUOUS
 62
     2
100
AcDbLine
 10
6.365055
 20
5.321378
 30
0.0
 11
6.392521
 21
5.335111
 31
0.0
  0
LINE
  5
588
100
AcDbEntity
  8
CK_LEVEL_1
  6
CONTINUOUS
 62
     2
100
AcDbLine
 10
6.392521
 20
5.335111
 30
0.0
 11
6.419986
 21
5.35571
 31
0.0
  0
LINE
  5
589
100
AcDbEntity
  8
CK_LEVEL_1
  6
CONTINUOUS
 62
     2
100
AcDbLine
 10
6.419986
 20
5.35571
 30
0.0
 11
6.481782
 21
5.403774
 31
0.0
  0
LINE
  5
58A
100
AcDbEntity
  8
CK_LEVEL_1
  6
CONTINUOUS
 62
     2
100
AcDbLine
 10
6.481782
 20
5.403774
 30
0.0
 11
6.536713
 21
5.458704
 31
0.0
  0
LINE
  5
58B
100
AcDbEntity
  8
CK_LEVEL_1
  6
CONTINUOUS
 62
     2
100
AcDbLine
 10
6.536713
 20
5.458704
 30
0.0
 11
6.557312
 21
5.486169
 31
0.0
  0
LINE
  5
58C
100
AcDbEntity
  8
CK_LEVEL_1
  6
CONTINUOUS
 62
     2
100
AcDbLine
 10
6.557312
 20
5.486169
 30
0.0
 11
6.564178
 21
5.506768
 31
0.0
  0
LINE
  5
58D
100
AcDbEntity
  8
CK_LEVEL_1
  6
CONTINUOUS
 62
     2
100
AcDbLine
 10
6.564178
 20
5.506768
 30
0.0
 11
6.564178
 21
5.513634
 31
0.0
  0
LINE
  5
58E
100
AcDbEntity
  8
CK_LEVEL_1
  6
CONTINUOUS
 62
     2
100
AcDbLine
 10
6.564178
 20
5.513634
 30
0.0
 11
6.65344
 21
5.513634
 31
0.0
  0
LINE
  5
58F
100
AcDbEntity
  8
CK_LEVEL_1
  6
CONTINUOUS
 62
     2
100
AcDbLine
 10
6.65344
 20
5.513634
 30
0.0
 11
6.632841
 21
5.486169
 31
0.0
  0
LINE
  5
590
100
AcDbEntity
  8
CK_LEVEL_1
  6
CONTINUOUS
 62
     2
100
AcDbLine
 10
6.632841
 20
5.486169
 30
0.0
 11
6.619108
 21
5.46557
 31
0.0
  0
LINE
  5
591
100
AcDbEntity
  8
CK_LEVEL_1
  6
CONTINUOUS
 62
     2
100
AcDbLine
 10
6.619108
 20
5.46557
 30
0.0
 11
6.619108
 21
5.451838
 31
0.0
  0
LINE
  5
592
100
AcDbEntity
  8
CK_LEVEL_1
  6
CONTINUOUS
 62
     2
100
AcDbLine
 10
6.619108
 20
5.451838
 30
0.0
 11
6.625975
 21
5.444971
 31
0.0
  0
LINE
  5
593
100
AcDbEntity
  8
CK_LEVEL_1
  6
CONTINUOUS
 62
     2
100
AcDbLine
 10
6.625975
 20
5.444971
 30
0.0
 11
6.687771
 21
5.444971
 31
0.0
  0
LINE
  5
594
100
AcDbEntity
  8
CK_LEVEL_1
  6
CONTINUOUS
 62
     2
100
AcDbLine
 10
6.687771
 20
5.444971
 30
0.0
 11
6.749568
 21
5.431239
 31
0.0
  0
LINE
  5
595
100
AcDbEntity
  8
CK_LEVEL_1
  6
CONTINUOUS
 62
     2
100
AcDbLine
 10
6.749568
 20
5.431239
 30
0.0
 11
6.756434
 21
5.417506
 31
0.0
  0
LINE
  5
596
100
AcDbEntity
  8
CK_LEVEL_1
  6
CONTINUOUS
 62
     2
100
AcDbLine
 10
6.756434
 20
5.417506
 30
0.0
 11
6.749568
 21
5.403774
 31
0.0
  0
LINE
  5
597
100
AcDbEntity
  8
CK_LEVEL_1
  6
CONTINUOUS
 62
     2
100
AcDbLine
 10
6.749568
 20
5.403774
 30
0.0
 11
6.735835
 21
5.383175
 31
0.0
  0
LINE
  5
598
100
AcDbEntity
  8
CK_LEVEL_1
  6
CONTINUOUS
 62
     2
100
AcDbLine
 10
6.735835
 20
5.383175
 30
0.0
 11
6.687771
 21
5.341977
 31
0.0
  0
LINE
  5
599
100
AcDbEntity
  8
CK_LEVEL_1
  6
CONTINUOUS
 62
     2
100
AcDbLine
 10
6.687771
 20
5.341977
 30
0.0
 11
6.65344
 21
5.300779
 31
0.0
  0
LINE
  5
59A
100
AcDbEntity
  8
CK_LEVEL_1
  6
CONTINUOUS
 62
     2
100
AcDbLine
 10
6.65344
 20
5.300779
 30
0.0
 11
6.619108
 21
5.273314
 31
0.0
  0
LINE
  5
59B
100
AcDbEntity
  8
CK_LEVEL_1
  6
CONTINUOUS
 62
     2
100
AcDbLine
 10
6.619108
 20
5.273314
 30
0.0
 11
6.591643
 21
5.259582
 31
0.0
  0
LINE
  5
59C
100
AcDbEntity
  8
CK_LEVEL_1
  6
CONTINUOUS
 62
     2
100
AcDbLine
 10
6.591643
 20
5.259582
 30
0.0
 11
6.564178
 21
5.266448
 31
0.0
  0
LINE
  5
59D
100
AcDbEntity
  8
CK_LEVEL_1
  6
CONTINUOUS
 62
     2
100
AcDbLine
 10
6.564178
 20
5.266448
 30
0.0
 11
6.550445
 21
5.266448
 31
0.0
  0
LINE
  5
59E
100
AcDbEntity
  8
CK_LEVEL_1
  6
CONTINUOUS
 62
     2
100
AcDbLine
 10
6.550445
 20
5.266448
 30
0.0
 11
6.529847
 21
5.273314
 31
0.0
  0
LINE
  5
59F
100
AcDbEntity
  8
CK_LEVEL_1
  6
CONTINUOUS
 62
     2
100
AcDbLine
 10
6.529847
 20
5.273314
 30
0.0
 11
6.481782
 21
5.28018
 31
0.0
  0
LINE
  5
5A0
100
AcDbEntity
  8
CK_LEVEL_1
  6
CONTINUOUS
 62
     2
100
AcDbLine
 10
6.481782
 20
5.28018
 30
0.0
 11
6.433718
 21
5.28018
 31
0.0
  0
LINE
  5
5A1
100
AcDbEntity
  8
CK_LEVEL_1
  6
CONTINUOUS
 62
     2
100
AcDbLine
 10
6.433718
 20
5.28018
 30
0.0
 11
6.454317
 21
5.252715
 31
0.0
  0
LINE
  5
5A2
100
AcDbEntity
  8
CK_LEVEL_1
  6
CONTINUOUS
 62
     2
100
AcDbLine
 10
6.454317
 20
5.252715
 30
0.0
 11
6.461184
 21
5.238983
 31
0.0
  0
LINE
  5
5A3
100
AcDbEntity
  8
CK_LEVEL_1
  6
CONTINUOUS
 62
     2
100
AcDbLine
 10
6.461184
 20
5.238983
 30
0.0
 11
6.454317
 21
5.232116
 31
0.0
  0
LINE
  5
5A4
100
AcDbEntity
  8
CK_LEVEL_1
  6
CONTINUOUS
 62
     2
100
AcDbLine
 10
6.454317
 20
5.232116
 30
0.0
 11
6.419986
 21
5.238983
 31
0.0
  0
LINE
  5
5A5
100
AcDbEntity
  8
CK_LEVEL_1
  6
CONTINUOUS
 62
     2
100
AcDbLine
 10
6.419986
 20
5.238983
 30
0.0
 11
6.371922
 21
5.245849
 31
0.0
  0
LINE
  5
5A6
100
AcDbEntity
  8
CK_LEVEL_1
  6
CONTINUOUS
 62
     2
100
AcDbLine
 10
6.371922
 20
5.245849
 30
0.0
 11
6.255195
 21
5.245849
 31
0.0
  0
LINE
  5
5A7
100
AcDbEntity
  8
CK_LEVEL_1
  6
CONTINUOUS
 62
     2
100
AcDbLine
 10
6.255195
 20
5.245849
 30
0.0
 11
6.303259
 21
5.204651
 31
0.0
  0
LINE
  5
5A8
100
AcDbEntity
  8
CK_LEVEL_1
  6
CONTINUOUS
 62
     2
100
AcDbLine
 10
6.303259
 20
5.204651
 30
0.0
 11
6.220863
 21
5.190919
 31
0.0
  0
LINE
  5
5A9
100
AcDbEntity
  8
CK_LEVEL_1
  6
CONTINUOUS
 62
     2
100
AcDbLine
 10
6.220863
 20
5.190919
 30
0.0
 11
6.186532
 21
5.184052
 31
0.0
  0
LINE
  5
5AA
100
AcDbEntity
  8
CK_LEVEL_1
  6
CONTINUOUS
 62
     2
100
AcDbLine
 10
6.186532
 20
5.184052
 30
0.0
 11
6.172799
 21
5.17032
 31
0.0
  0
LINE
  5
5AB
100
AcDbEntity
  8
CK_LEVEL_1
  6
CONTINUOUS
 62
     2
100
AcDbLine
 10
6.131601
 20
5.156587
 30
0.0
 11
6.117869
 21
5.177186
 31
0.0
  0
LINE
  5
5AC
100
AcDbEntity
  8
CK_LEVEL_1
  6
CONTINUOUS
 62
     2
100
AcDbLine
 10
6.117869
 20
5.177186
 30
0.0
 11
6.090404
 21
5.177186
 31
0.0
  0
LINE
  5
5AD
100
AcDbEntity
  8
CK_LEVEL_1
  6
CONTINUOUS
 62
     2
100
AcDbLine
 10
6.090404
 20
5.177186
 30
0.0
 11
6.021741
 21
5.156587
 31
0.0
  0
LINE
  5
5AE
100
AcDbEntity
  8
CK_LEVEL_1
  6
CONTINUOUS
 62
     2
100
AcDbLine
 10
6.021741
 20
5.156587
 30
0.0
 11
5.939345
 21
5.122256
 31
0.0
  0
LINE
  5
5AF
100
AcDbEntity
  8
CK_LEVEL_1
  6
CONTINUOUS
 62
     2
100
AcDbLine
 10
5.939345
 20
5.122256
 30
0.0
 11
5.91188
 21
5.115389
 31
0.0
  0
LINE
  5
5B0
100
AcDbEntity
  8
CK_LEVEL_1
  6
CONTINUOUS
 62
     2
100
AcDbLine
 10
5.91188
 20
5.115389
 30
0.0
 11
5.877549
 21
5.115389
 31
0.0
  0
LINE
  5
5B1
100
AcDbEntity
  8
CK_LEVEL_1
  6
CONTINUOUS
 62
     2
100
AcDbLine
 10
5.877549
 20
5.115389
 30
0.0
 11
5.836351
 21
5.108523
 31
0.0
  0
LINE
  5
5B2
100
AcDbEntity
  8
CK_LEVEL_1
  6
CONTINUOUS
 62
     2
100
AcDbLine
 10
5.836351
 20
5.108523
 30
0.0
 11
5.808886
 21
5.09479
 31
0.0
  0
LINE
  5
5B3
100
AcDbEntity
  8
CK_LEVEL_1
  6
CONTINUOUS
 62
     2
100
AcDbLine
 10
5.808886
 20
5.09479
 30
0.0
 11
5.843217
 21
5.115389
 31
0.0
  0
LINE
  5
5B4
100
AcDbEntity
  8
CK_LEVEL_1
  6
CONTINUOUS
 62
     2
100
AcDbLine
 10
5.843217
 20
5.115389
 30
0.0
 11
5.891281
 21
5.142855
 31
0.0
  0
LINE
  5
5B5
100
AcDbEntity
  8
CK_LEVEL_1
  6
CONTINUOUS
 62
     2
100
AcDbLine
 10
5.891281
 20
5.142855
 30
0.0
 11
5.946211
 21
5.17032
 31
0.0
  0
LINE
  5
5B6
100
AcDbEntity
  8
CK_LEVEL_1
  6
CONTINUOUS
 62
     2
100
AcDbLine
 10
5.946211
 20
5.17032
 30
0.0
 11
5.987409
 21
5.177186
 31
0.0
  0
LINE
  5
5B7
100
AcDbEntity
  8
CK_LEVEL_1
  6
CONTINUOUS
 62
     2
100
AcDbLine
 10
5.987409
 20
5.177186
 30
0.0
 11
5.870682
 21
5.163453
 31
0.0
  0
LINE
  5
5B8
100
AcDbEntity
  8
CK_LEVEL_1
  6
CONTINUOUS
 62
     2
100
AcDbLine
 10
5.870682
 20
5.163453
 30
0.0
 11
5.760822
 21
5.122256
 31
0.0
  0
LINE
  5
5B9
100
AcDbEntity
  8
CK_LEVEL_1
  6
CONTINUOUS
 62
     2
100
AcDbLine
 10
5.760822
 20
5.122256
 30
0.0
 11
5.67156
 21
5.067325
 31
0.0
  0
LINE
  5
5BA
100
AcDbEntity
  8
CK_LEVEL_1
  6
CONTINUOUS
 62
     2
100
AcDbLine
 10
5.67156
 20
5.067325
 30
0.0
 11
5.644095
 21
5.032994
 31
0.0
  0
LINE
  5
5BB
100
AcDbEntity
  8
CK_LEVEL_1
  6
CONTINUOUS
 62
     2
100
AcDbLine
 10
5.644095
 20
5.032994
 30
0.0
 11
5.623496
 21
4.998662
 31
0.0
  0
LINE
  5
5BC
100
AcDbEntity
  8
CK_LEVEL_1
  6
CONTINUOUS
 62
     2
100
AcDbLine
 10
5.623496
 20
4.998662
 30
0.0
 11
5.616629
 21
4.964331
 31
0.0
  0
LINE
  5
5BD
100
AcDbEntity
  8
CK_LEVEL_1
  6
CONTINUOUS
 62
     2
100
AcDbLine
 10
5.616629
 20
4.964331
 30
0.0
 11
5.623496
 21
4.936866
 31
0.0
  0
LINE
  5
5BE
100
AcDbEntity
  8
CK_LEVEL_1
  6
CONTINUOUS
 62
     2
100
AcDbLine
 10
5.623496
 20
4.936866
 30
0.0
 11
5.644095
 21
4.909401
 31
0.0
  0
LINE
  5
5BF
100
AcDbEntity
  8
CK_LEVEL_1
  6
CONTINUOUS
 62
     2
100
AcDbLine
 10
5.644095
 20
4.909401
 30
0.0
 11
5.678426
 21
4.881935
 31
0.0
  0
LINE
  5
5C0
100
AcDbEntity
  8
CK_LEVEL_1
  6
CONTINUOUS
 62
     2
100
AcDbLine
 10
5.678426
 20
4.881935
 30
0.0
 11
5.747089
 21
4.85447
 31
0.0
  0
LINE
  5
5C1
100
AcDbEntity
  8
CK_LEVEL_1
  6
CONTINUOUS
 62
     2
100
AcDbLine
 10
5.747089
 20
4.85447
 30
0.0
 11
5.829484
 21
4.85447
 31
0.0
  0
LINE
  5
5C2
100
AcDbEntity
  8
CK_LEVEL_1
  6
CONTINUOUS
 62
     2
100
AcDbLine
 10
5.829484
 20
4.85447
 30
0.0
 11
5.91188
 21
4.875069
 31
0.0
  0
LINE
  5
5C3
100
AcDbEntity
  8
CK_LEVEL_1
  6
CONTINUOUS
 62
     2
100
AcDbLine
 10
5.91188
 20
4.875069
 30
0.0
 11
5.980543
 21
4.916267
 31
0.0
  0
LINE
  5
5C4
100
AcDbEntity
  8
CK_LEVEL_1
  6
CONTINUOUS
 62
     2
100
AcDbLine
 10
5.980543
 20
4.916267
 30
0.0
 11
6.035473
 21
4.971197
 31
0.0
  0
LINE
  5
5C5
100
AcDbEntity
  8
CK_LEVEL_1
  6
CONTINUOUS
 62
     2
100
AcDbLine
 10
6.035473
 20
4.971197
 30
0.0
 11
6.049206
 21
5.005529
 31
0.0
  0
LINE
  5
5C6
100
AcDbEntity
  8
CK_LEVEL_1
  6
CONTINUOUS
 62
     2
100
AcDbLine
 10
6.049206
 20
5.005529
 30
0.0
 11
6.049206
 21
5.03986
 31
0.0
  0
LINE
  5
5C7
100
AcDbEntity
  8
CK_LEVEL_1
  6
CONTINUOUS
 62
     2
100
AcDbLine
 10
6.049206
 20
5.03986
 30
0.0
 11
6.069805
 21
5.060459
 31
0.0
  0
LINE
  5
5C8
100
AcDbEntity
  8
CK_LEVEL_1
  6
CONTINUOUS
 62
     2
100
AcDbLine
 10
6.069805
 20
5.060459
 30
0.0
 11
6.09727
 21
5.09479
 31
0.0
  0
LINE
  5
5C9
100
AcDbEntity
  8
CK_LEVEL_1
  6
CONTINUOUS
 62
     2
100
AcDbLine
 10
6.09727
 20
5.09479
 30
0.0
 11
6.117869
 21
5.129122
 31
0.0
  0
LINE
  5
5CA
100
AcDbEntity
  8
CK_LEVEL_1
  6
CONTINUOUS
 62
     2
100
AcDbLine
 10
6.117869
 20
5.129122
 30
0.0
 11
6.131601
 21
5.156587
 31
0.0
  0
LINE
  5
5CB
100
AcDbEntity
  8
CK_LEVEL_1
  6
CONTINUOUS
 62
     2
100
AcDbLine
 10
6.131601
 20
5.156587
 30
0.0
 11
6.172799
 21
5.17032
 31
0.0
  0
LINE
  5
5CC
100
AcDbEntity
  8
CK_LEVEL_1
  6
CONTINUOUS
 62
     2
100
AcDbLine
 10
6.172799
 20
5.17032
 30
0.0
 11
6.186532
 21
5.122256
 31
0.0
  0
LINE
  5
5CD
100
AcDbEntity
  8
CK_LEVEL_1
  6
CONTINUOUS
 62
     2
100
AcDbLine
 10
6.186532
 20
5.122256
 30
0.0
 11
6.213997
 21
5.074192
 31
0.0
  0
LINE
  5
5CE
100
AcDbEntity
  8
CK_LEVEL_1
  6
CONTINUOUS
 62
     2
100
AcDbLine
 10
6.213997
 20
5.074192
 30
0.0
 11
6.172799
 21
5.03986
 31
0.0
  0
LINE
  5
5CF
100
AcDbEntity
  8
CK_LEVEL_1
  6
CONTINUOUS
 62
     2
100
AcDbLine
 10
6.172799
 20
5.03986
 30
0.0
 11
6.145334
 21
5.012395
 31
0.0
  0
LINE
  5
5D0
100
AcDbEntity
  8
CK_LEVEL_1
  6
CONTINUOUS
 62
     2
100
AcDbLine
 10
6.145334
 20
5.012395
 30
0.0
 11
6.1522
 21
4.991796
 31
0.0
  0
LINE
  5
5D1
100
AcDbEntity
  8
CK_LEVEL_1
  6
CONTINUOUS
 62
     2
100
AcDbLine
 10
6.1522
 20
4.991796
 30
0.0
 11
6.165933
 21
4.971197
 31
0.0
  0
LINE
  5
5D2
100
AcDbEntity
  8
CK_LEVEL_1
  6
CONTINUOUS
 62
     2
100
AcDbLine
 10
6.165933
 20
4.971197
 30
0.0
 11
5.884415
 21
4.785807
 31
0.0
  0
LINE
  5
5D3
100
AcDbEntity
  8
CK_LEVEL_1
  6
CONTINUOUS
 62
     2
100
AcDbLine
 10
5.884415
 20
4.785807
 30
0.0
 11
5.870682
 21
4.785807
 31
0.0
  0
LINE
  5
5D4
100
AcDbEntity
  8
CK_LEVEL_1
  6
CONTINUOUS
 62
     2
100
AcDbLine
 10
5.870682
 20
4.785807
 30
0.0
 11
5.843217
 21
4.778941
 31
0.0
  0
LINE
  5
5D5
100
AcDbEntity
  8
CK_LEVEL_1
  6
CONTINUOUS
 62
     2
100
AcDbLine
 10
5.843217
 20
4.778941
 30
0.0
 11
5.808886
 21
4.778941
 31
0.0
  0
LINE
  5
5D6
100
AcDbEntity
  8
CK_LEVEL_1
  6
CONTINUOUS
 62
     2
100
AcDbLine
 10
5.808886
 20
4.778941
 30
0.0
 11
5.760822
 21
4.772075
 31
0.0
  0
LINE
  5
5D7
100
AcDbEntity
  8
CK_LEVEL_1
  6
CONTINUOUS
 62
     2
100
AcDbLine
 10
5.760822
 20
4.772075
 30
0.0
 11
5.699025
 21
4.772075
 31
0.0
  0
LINE
  5
5D8
100
AcDbEntity
  8
CK_LEVEL_1
  6
CONTINUOUS
 62
     2
100
AcDbLine
 10
5.699025
 20
4.772075
 30
0.0
 11
5.5411
 21
4.758342
 31
0.0
  0
LINE
  5
5D9
100
AcDbEntity
  8
CK_LEVEL_1
  6
CONTINUOUS
 62
     2
100
AcDbLine
 10
5.5411
 20
4.758342
 30
0.0
 11
5.335111
 21
4.744609
 31
0.0
  0
LINE
  5
5DA
100
AcDbEntity
  8
CK_LEVEL_1
  6
CONTINUOUS
 62
     2
100
AcDbLine
 10
5.335111
 20
4.744609
 30
0.0
 11
5.211518
 21
4.737743
 31
0.0
  0
LINE
  5
5DB
100
AcDbEntity
  8
CK_LEVEL_1
  6
CONTINUOUS
 62
     2
100
AcDbLine
 10
5.211518
 20
4.737743
 30
0.0
 11
5.081058
 21
4.724011
 31
0.0
  0
LINE
  5
5DC
100
AcDbEntity
  8
CK_LEVEL_1
  6
CONTINUOUS
 62
     2
100
AcDbLine
 10
5.081058
 20
4.724011
 30
0.0
 11
4.936866
 21
4.717144
 31
0.0
  0
LINE
  5
5DD
100
AcDbEntity
  8
CK_LEVEL_1
  6
CONTINUOUS
 62
     2
100
AcDbLine
 10
4.936866
 20
4.717144
 30
0.0
 11
4.778941
 21
4.703412
 31
0.0
  0
LINE
  5
5DE
100
AcDbEntity
  8
CK_LEVEL_1
  6
CONTINUOUS
 62
     2
100
AcDbLine
 10
4.778941
 20
4.703412
 30
0.0
 11
4.607284
 21
4.689679
 31
0.0
  0
LINE
  5
5DF
100
AcDbEntity
  8
CK_LEVEL_1
  6
CONTINUOUS
 62
     2
100
AcDbLine
 10
4.607284
 20
4.689679
 30
0.0
 11
4.229638
 21
4.662214
 31
0.0
  0
LINE
  5
5E0
100
AcDbEntity
  8
CK_LEVEL_1
  6
CONTINUOUS
 62
     2
100
AcDbLine
 10
4.229638
 20
4.662214
 30
0.0
 11
4.222772
 21
4.662214
 31
0.0
  0
ENDSEC
  0
SECTION
  2
OBJECTS
  0
DICTIONARY
  5
1A
100
AcDbDictionary
  3
ACAD_GROUP
350
1B
  3
ACAD_MLINESTYLE
350
1C
  0
DICTIONARY
  5
1B
102
{ACAD_REACTORS
330
1A
102
}
100
AcDbDictionary
  0
DICTIONARY
  5
1C
102
{ACAD_REACTORS
330
1A
102
}
100
AcDbDictionary
  3
STANDARD
350
1D
  0
MLINESTYLE
  5
1D
102
{ACAD_REACTORS
330
1C
102
}
100
AcDbMlineStyle
  2
STANDARD
 70
     0
  3

 62
     0
 51
90.0
 52
90.0
 71
     2
 49
0.5
 62
     0
  6
BYLAYER
 49
-0.5
 62
     0
  6
BYLAYER
  0
ENDSEC
  0
EOF
