  0
SECTION
  2
HEADER
  9
$ACADVER
  1
AC1015
  9
$ACADMAINTVER
 70
     6
  9
$DWGCODEPAGE
  3
ANSI_1252
  9
$INSBASE
 10
0.0
 20
0.0
 30
0.0
  9
$EXTMIN
 10
-9.40518
 20
-10.54028
 30
0.0
  9
$EXTMAX
 10
2.99168
 20
13.28866
 30
0.0
  9
$LIMMIN
 10
0.0
 20
0.0
  9
$LIMMAX
 10
12.0
 20
9.0
  9
$ORTHOMODE
 70
     0
  9
$REGENMODE
 70
     1
  9
$FILLMODE
 70
     1
  9
$QTEXTMODE
 70
     0
  9
$MIRRTEXT
 70
     1
  9
$LTSCALE
 40
1.0
  9
$ATTMODE
 70
     1
  9
$TEXTSIZE
 40
0.2
  9
$TRACEWID
 40
0.05
  9
$TEXTSTYLE
  7
Standard
  9
$CLAYER
  8
0
  9
$CELTYPE
  6
ByLayer
  9
$CECOLOR
 62
   256
  9
$CELTSCALE
 40
1.0
  9
$DISPSILH
 70
     0
  9
$DIMSCALE
 40
1.0
  9
$DIMASZ
 40
0.18
  9
$DIMEXO
 40
0.0625
  9
$DIMDLI
 40
0.38
  9
$DIMRND
 40
0.0
  9
$DIMDLE
 40
0.0
  9
$DIMEXE
 40
0.18
  9
$DIMTP
 40
0.0
  9
$DIMTM
 40
0.0
  9
$DIMTXT
 40
0.18
  9
$DIMCEN
 40
0.09
  9
$DIMTSZ
 40
0.0
  9
$DIMTOL
 70
     0
  9
$DIMLIM
 70
     0
  9
$DIMTIH
 70
     1
  9
$DIMTOH
 70
     1
  9
$DIMSE1
 70
     0
  9
$DIMSE2
 70
     0
  9
$DIMTAD
 70
     0
  9
$DIMZIN
 70
     0
  9
$DIMBLK
  1

  9
$DIMASO
 70
     1
  9
$DIMSHO
 70
     1
  9
$DIMPOST
  1

  9
$DIMAPOST
  1

  9
$DIMALT
 70
     0
  9
$DIMALTD
 70
     2
  9
$DIMALTF
 40
25.4
  9
$DIMLFAC
 40
1.0
  9
$DIMTOFL
 70
     0
  9
$DIMTVP
 40
0.0
  9
$DIMTIX
 70
     0
  9
$DIMSOXD
 70
     0
  9
$DIMSAH
 70
     0
  9
$DIMBLK1
  1

  9
$DIMBLK2
  1

  9
$DIMSTYLE
  2
Standard
  9
$DIMCLRD
 70
     0
  9
$DIMCLRE
 70
     0
  9
$DIMCLRT
 70
     0
  9
$DIMTFAC
 40
1.0
  9
$DIMGAP
 40
0.09
  9
$DIMJUST
 70
     0
  9
$DIMSD1
 70
     0
  9
$DIMSD2
 70
     0
  9
$DIMTOLJ
 70
     1
  9
$DIMTZIN
 70
     0
  9
$DIMALTZ
 70
     0
  9
$DIMALTTZ
 70
     0
  9
$DIMUPT
 70
     0
  9
$DIMDEC
 70
     4
  9
$DIMTDEC
 70
     4
  9
$DIMALTU
 70
     2
  9
$DIMALTTD
 70
     2
  9
$DIMTXSTY
  7
Standard
  9
$DIMAUNIT
 70
     0
  9
$DIMADEC
 70
     0
  9
$DIMALTRND
 40
0.0
  9
$DIMAZIN
 70
     0
  9
$DIMDSEP
 70
    46
  9
$DIMATFIT
 70
     3
  9
$DIMFRAC
 70
     0
  9
$DIMLDRBLK
  1

  9
$DIMLUNIT
 70
     2
  9
$DIMLWD
 70
    -2
  9
$DIMLWE
 70
    -2
  9
$DIMTMOVE
 70
     0
  9
$LUNITS
 70
     2
  9
$LUPREC
 70
     4
  9
$SKETCHINC
 40
0.1
  9
$FILLETRAD
 40
0.5
  9
$AUNITS
 70
     0
  9
$AUPREC
 70
     0
  9
$MENU
  1
.
  9
$ELEVATION
 40
0.0
  9
$PELEVATION
 40
0.0
  9
$THICKNESS
 40
0.0
  9
$LIMCHECK
 70
     0
  9
$CHAMFERA
 40
0.5
  9
$CHAMFERB
 40
0.5
  9
$CHAMFERC
 40
1.0
  9
$CHAMFERD
 40
0.0
  9
$SKPOLY
 70
     0
  9
$TDCREATE
 40
2458031.536741077
  9
$TDUCREATE
 40
2458031.30757441
  9
$TDUPDATE
 40
2458031.536741261
  9
$TDUUPDATE
 40
2458031.307574595
  9
$TDINDWG
 40
0.0000000116
  9
$TDUSRTIMER
 40
0.0000000116
  9
$USRTIMER
 70
     1
  9
$ANGBASE
 50
0.0
  9
$ANGDIR
 70
     0
  9
$PDMODE
 70
     0
  9
$PDSIZE
 40
0.0
  9
$PLINEWID
 40
0.0
  9
$SPLFRAME
 70
     0
  9
$SPLINETYPE
 70
     6
  9
$SPLINESEGS
 70
     8
  9
$HANDSEED
  5
FA
  9
$SURFTAB1
 70
     6
  9
$SURFTAB2
 70
     6
  9
$SURFTYPE
 70
     6
  9
$SURFU
 70
     6
  9
$SURFV
 70
     6
  9
$UCSBASE
  2

  9
$UCSNAME
  2

  9
$UCSORG
 10
0.0
 20
0.0
 30
0.0
  9
$UCSXDIR
 10
1.0
 20
0.0
 30
0.0
  9
$UCSYDIR
 10
0.0
 20
1.0
 30
0.0
  9
$UCSORTHOREF
  2

  9
$UCSORTHOVIEW
 70
     0
  9
$UCSORGTOP
 10
0.0
 20
0.0
 30
0.0
  9
$UCSORGBOTTOM
 10
0.0
 20
0.0
 30
0.0
  9
$UCSORGLEFT
 10
0.0
 20
0.0
 30
0.0
  9
$UCSORGRIGHT
 10
0.0
 20
0.0
 30
0.0
  9
$UCSORGFRONT
 10
0.0
 20
0.0
 30
0.0
  9
$UCSORGBACK
 10
0.0
 20
0.0
 30
0.0
  9
$PUCSBASE
  2

  9
$PUCSNAME
  2

  9
$PUCSORG
 10
0.0
 20
0.0
 30
0.0
  9
$PUCSXDIR
 10
1.0
 20
0.0
 30
0.0
  9
$PUCSYDIR
 10
0.0
 20
1.0
 30
0.0
  9
$PUCSORTHOREF
  2

  9
$PUCSORTHOVIEW
 70
     0
  9
$PUCSORGTOP
 10
0.0
 20
0.0
 30
0.0
  9
$PUCSORGBOTTOM
 10
0.0
 20
0.0
 30
0.0
  9
$PUCSORGLEFT
 10
0.0
 20
0.0
 30
0.0
  9
$PUCSORGRIGHT
 10
0.0
 20
0.0
 30
0.0
  9
$PUCSORGFRONT
 10
0.0
 20
0.0
 30
0.0
  9
$PUCSORGBACK
 10
0.0
 20
0.0
 30
0.0
  9
$USERI1
 70
     0
  9
$USERI2
 70
     0
  9
$USERI3
 70
     0
  9
$USERI4
 70
     0
  9
$USERI5
 70
     0
  9
$USERR1
 40
0.0
  9
$USERR2
 40
0.0
  9
$USERR3
 40
0.0
  9
$USERR4
 40
0.0
  9
$USERR5
 40
0.0
  9
$WORLDVIEW
 70
     1
  9
$SHADEDGE
 70
     3
  9
$SHADEDIF
 70
    70
  9
$TILEMODE
 70
     1
  9
$MAXACTVP
 70
    64
  9
$PINSBASE
 10
0.0
 20
0.0
 30
0.0
  9
$PLIMCHECK
 70
     0
  9
$PEXTMIN
 10
1.000000000000000E+20
 20
1.000000000000000E+20
 30
1.000000000000000E+20
  9
$PEXTMAX
 10
-1.000000000000000E+20
 20
-1.000000000000000E+20
 30
-1.000000000000000E+20
  9
$PLIMMIN
 10
0.0
 20
0.0
  9
$PLIMMAX
 10
12.0
 20
9.0
  9
$UNITMODE
 70
     0
  9
$VISRETAIN
 70
     1
  9
$PLINEGEN
 70
     0
  9
$PSLTSCALE
 70
     1
  9
$TREEDEPTH
 70
  3020
  9
$CMLSTYLE
  2
Standard
  9
$CMLJUST
 70
     0
  9
$CMLSCALE
 40
1.0
  9
$PROXYGRAPHICS
 70
     1
  9
$MEASUREMENT
 70
     0
  9
$CELWEIGHT
370
    -1
  9
$ENDCAPS
280
     0
  9
$JOINSTYLE
280
     0
  9
$LWDISPLAY
290
     0
  9
$INSUNITS
 70
     5
  9
$HYPERLINKBASE
  1

  9
$STYLESHEET
  1

  9
$XEDIT
290
     1
  9
$CEPSNTYPE
380
     0
  9
$PSTYLEMODE
290
     1
  9
$FINGERPRINTGUID
  2
{07840216-C6A2-436A-BBBF-B1F81BEEBED1}
  9
$VERSIONGUID
  2
{FAEB1C32-E019-11D5-929B-00C0DF256EC4}
  9
$EXTNAMES
290
     1
  9
$PSVPSCALE
 40
0.0
  9
$OLESTARTUP
290
     0
  0
ENDSEC
  0
SECTION
  2
CLASSES
  0
CLASS
  1
ACDBDICTIONARYWDFLT
  2
AcDbDictionaryWithDefault
  3
ObjectDBX Classes
 90
        0
280
     0
281
     0
  0
CLASS
  1
VISUALSTYLE
  2
AcDbVisualStyle
  3
ObjectDBX Classes
 90
     4095
280
     0
281
     0
  0
CLASS
  1
MATERIAL
  2
AcDbMaterial
  3
ObjectDBX Classes
 90
     1153
280
     0
281
     0
  0
CLASS
  1
DICTIONARYVAR
  2
AcDbDictionaryVar
  3
ObjectDBX Classes
 90
        0
280
     0
281
     0
  0
CLASS
  1
ACDBPLACEHOLDER
  2
AcDbPlaceHolder
  3
ObjectDBX Classes
 90
        0
280
     0
281
     0
  0
CLASS
  1
LAYOUT
  2
AcDbLayout
  3
ObjectDBX Classes
 90
        0
280
     0
281
     0
  0
ENDSEC
  0
SECTION
  2
TABLES
  0
TABLE
  2
VPORT
  5
8
330
0
100
AcDbSymbolTable
 70
     1
  0
VPORT
  5
29
330
8
100
AcDbSymbolTableRecord
100
AcDbViewportTableRecord
  2
*Active
 70
     0
 10
0.0
 20
0.0
 11
1.0
 21
1.0
 12
10.42990654205607
 22
4.5
 13
0.0
 23
0.0
 14
0.5
 24
0.5
 15
0.5
 25
0.5
 16
0.0
 26
0.0
 36
1.0
 17
0.0
 27
0.0
 37
0.0
 40
9.0
 41
1.972972972850329
 42
50.0
 43
0.0
 44
0.0
 50
0.0
 51
0.0
 71
     0
 72
   100
 73
     1
 74
     3
 75
     0
 76
     0
 77
     0
 78
     0
281
     0
 65
     1
110
0.0
120
0.0
130
0.0
111
1.0
121
0.0
131
0.0
112
0.0
122
1.0
132
0.0
 79
     0
146
0.0
  0
ENDTAB
  0
TABLE
  2
LTYPE
  5
5
330
0
100
AcDbSymbolTable
 70
     1
  0
LTYPE
  5
14
330
5
100
AcDbSymbolTableRecord
100
AcDbLinetypeTableRecord
  2
ByBlock
 70
     0
  3

 72
    65
 73
     0
 40
0.0
  0
LTYPE
  5
15
330
5
100
AcDbSymbolTableRecord
100
AcDbLinetypeTableRecord
  2
ByLayer
 70
     0
  3

 72
    65
 73
     0
 40
0.0
  0
LTYPE
  5
16
330
5
100
AcDbSymbolTableRecord
100
AcDbLinetypeTableRecord
  2
Continuous
 70
     0
  3
Solid line
 72
    65
 73
     0
 40
0.0
  0
ENDTAB
  0
TABLE
  2
LAYER
  5
2
330
0
100
AcDbSymbolTable
 70
     2
  0
LAYER
  5
10
330
2
100
AcDbSymbolTableRecord
100
AcDbLayerTableRecord
  2
0
 70
     0
 62
     7
  6
Continuous
370
    -3
390
F
  0
LAYER
  5
40
330
2
100
AcDbSymbolTableRecord
100
AcDbLayerTableRecord
  2
Layer 1
 70
     0
 62
     7
  6
Continuous
370
    -3
390
F
  0
ENDTAB
  0
TABLE
  2
STYLE
  5
3
330
0
100
AcDbSymbolTable
 70
     1
  0
STYLE
  5
11
330
3
100
AcDbSymbolTableRecord
100
AcDbTextStyleTableRecord
  2
Standard
 70
     0
 40
0.0
 41
1.0
 50
0.0
 71
     0
 42
0.2
  3
txt
  4

  0
ENDTAB
  0
TABLE
  2
VIEW
  5
6
330
0
100
AcDbSymbolTable
 70
     0
  0
ENDTAB
  0
TABLE
  2
UCS
  5
7
330
0
100
AcDbSymbolTable
 70
     0
  0
ENDTAB
  0
TABLE
  2
APPID
  5
9
330
0
100
AcDbSymbolTable
 70
     2
  0
APPID
  5
12
330
9
100
AcDbSymbolTableRecord
100
AcDbRegAppTableRecord
  2
ACAD
 70
     0
  0
APPID
  5
3F
330
9
100
AcDbSymbolTableRecord
100
AcDbRegAppTableRecord
  2
ODA
 70
     0
  0
ENDTAB
  0
TABLE
  2
DIMSTYLE
  5
A
330
0
100
AcDbSymbolTable
 70
     1
100
AcDbDimStyleTable
  0
DIMSTYLE
105
27
330
A
100
AcDbSymbolTableRecord
100
AcDbDimStyleTableRecord
  2
Standard
 70
     0
178
     0
340
11
  0
ENDTAB
  0
TABLE
  2
BLOCK_RECORD
  5
1
330
0
100
AcDbSymbolTable
 70
     1
  0
BLOCK_RECORD
  5
1F
330
1
100
AcDbSymbolTableRecord
100
AcDbBlockTableRecord
  2
*Model_Space
340
22
  0
BLOCK_RECORD
  5
1B
330
1
100
AcDbSymbolTableRecord
100
AcDbBlockTableRecord
  2
*Paper_Space
340
1E
  0
BLOCK_RECORD
  5
23
330
1
100
AcDbSymbolTableRecord
100
AcDbBlockTableRecord
  2
*Paper_Space0
340
26
  0
ENDTAB
  0
ENDSEC
  0
SECTION
  2
BLOCKS
  0
BLOCK
  5
20
330
1F
100
AcDbEntity
  8
0
100
AcDbBlockBegin
  2
*Model_Space
 70
     0
 10
0.0
 20
0.0
 30
0.0
  3
*Model_Space
  1

  0
ENDBLK
  5
21
330
1F
100
AcDbEntity
  8
0
100
AcDbBlockEnd
  0
BLOCK
  5
1C
330
1B
100
AcDbEntity
 67
     1
  8
0
100
AcDbBlockBegin
  2
*Paper_Space
 70
     0
 10
0.0
 20
0.0
 30
0.0
  3
*Paper_Space
  1

  0
ENDBLK
  5
1D
330
1B
100
AcDbEntity
 67
     1
  8
0
100
AcDbBlockEnd
  0
BLOCK
  5
24
330
23
100
AcDbEntity
  8
0
100
AcDbBlockBegin
  2
*Paper_Space0
 70
     0
 10
0.0
 20
0.0
 30
0.0
  3
*Paper_Space0
  1

  0
ENDBLK
  5
25
330
23
100
AcDbEntity
  8
0
100
AcDbBlockEnd
  0
ENDSEC
  0
SECTION
  2
ENTITIES
  0
SPLINE
  5
41
330
1F
100
AcDbEntity
  8
Layer 1
 62
   242
100
AcDbSpline
210
0.0
220
0.0
230
1.0
 70
    11
 71
     3
 72
    20
 73
    16
 74
     0
 42
0.0000000001
 43
0.0000000001
 12
1.0
 22
0.0
 32
0.0
 13
1.0
 23
0.0
 33
0.0
 40
0.0
 40
0.0
 40
0.0
 40
0.0
 40
0.2
 40
0.2
 40
0.2
 40
0.2
 40
0.4
 40
0.4
 40
0.4
 40
0.4
 40
0.6
 40
0.6
 40
0.6
 40
0.6
 40
1.0
 40
1.0
 40
1.0
 40
1.0
 10
-9.40518
 20
13.28485
 30
0.0
 10
-9.40518
 20
13.28485
 30
0.0
 10
-4.48827
 20
13.28485
 30
0.0
 10
-4.48827
 20
13.28485
 30
0.0
 10
-4.48827
 20
13.28485
 30
0.0
 10
-4.48827
 20
13.28485
 30
0.0
 10
-4.48827
 20
-10.53647
 30
0.0
 10
-4.48827
 20
-10.53647
 30
0.0
 10
-4.48827
 20
-10.53647
 30
0.0
 10
-4.48827
 20
-10.53647
 30
0.0
 10
-9.40518
 20
-10.53647
 30
0.0
 10
-9.40518
 20
-10.53647
 30
0.0
 10
-9.40518
 20
-10.53647
 30
0.0
 10
-9.40518
 20
-10.53647
 30
0.0
 10
-9.40518
 20
13.28485
 30
0.0
 10
-9.40518
 20
13.28485
 30
0.0
  0
SPLINE
  5
42
330
1F
100
AcDbEntity
  8
Layer 1
 62
   242
100
AcDbSpline
210
0.0
220
0.0
230
1.0
 70
    11
 71
     3
 72
    36
 73
    32
 74
     0
 42
0.0000000001
 43
0.0000000001
 12
1.0
 22
0.0
 32
0.0
 13
1.0
 23
0.0
 33
0.0
 40
0.0
 40
0.0
 40
0.0
 40
0.0
 40
0.1111111111111111
 40
0.1111111111111111
 40
0.1111111111111111
 40
0.1111111111111111
 40
0.2222222222222222
 40
0.2222222222222222
 40
0.2222222222222222
 40
0.2222222222222222
 40
0.3333333333333333
 40
0.3333333333333333
 40
0.3333333333333333
 40
0.3333333333333333
 40
0.4444444444444444
 40
0.4444444444444444
 40
0.4444444444444444
 40
0.4444444444444444
 40
0.5555555555555556
 40
0.5555555555555556
 40
0.5555555555555556
 40
0.5555555555555556
 40
0.6666666666666666
 40
0.6666666666666666
 40
0.6666666666666666
 40
0.6666666666666666
 40
0.7777777777777778
 40
0.7777777777777778
 40
0.7777777777777778
 40
0.7777777777777778
 40
1.0
 40
1.0
 40
1.0
 40
1.0
 10
-7.55388
 20
7.26276
 30
0.0
 10
-7.55388
 20
7.26276
 30
0.0
 10
-6.34034
 20
7.26276
 30
0.0
 10
-6.34034
 20
7.26276
 30
0.0
 10
-6.34034
 20
7.26276
 30
0.0
 10
-6.34034
 20
7.26276
 30
0.0
 10
-6.34034
 20
6.00409
 30
0.0
 10
-6.34034
 20
6.00409
 30
0.0
 10
-6.34034
 20
6.00409
 30
0.0
 10
-6.34034
 20
6.00409
 30
0.0
 10
-6.55487
 20
6.00409
 30
0.0
 10
-6.55487
 20
6.00409
 30
0.0
 10
-6.55487
 20
6.00409
 30
0.0
 10
-6.55487
 20
6.00409
 30
0.0
 10
-6.55487
 20
6.8553
 30
0.0
 10
-6.55487
 20
6.8553
 30
0.0
 10
-6.55487
 20
6.8553
 30
0.0
 10
-6.55487
 20
6.8553
 30
0.0
 10
-7.34298
 20
6.8553
 30
0.0
 10
-7.34298
 20
6.8553
 30
0.0
 10
-7.34298
 20
6.8553
 30
0.0
 10
-7.34298
 20
6.8553
 30
0.0
 10
-7.34298
 20
6.00409
 30
0.0
 10
-7.34298
 20
6.00409
 30
0.0
 10
-7.34298
 20
6.00409
 30
0.0
 10
-7.34298
 20
6.00409
 30
0.0
 10
-7.55388
 20
6.00409
 30
0.0
 10
-7.55388
 20
6.00409
 30
0.0
 10
-7.55388
 20
6.00409
 30
0.0
 10
-7.55388
 20
6.00409
 30
0.0
 10
-7.55388
 20
7.26276
 30
0.0
 10
-7.55388
 20
7.26276
 30
0.0
  0
SPLINE
  5
43
330
1F
100
AcDbEntity
  8
Layer 1
 62
   242
100
AcDbSpline
210
0.0
220
0.0
230
1.0
 70
    11
 71
     3
 72
    36
 73
    32
 74
     0
 42
0.0000000001
 43
0.0000000001
 12
1.0
 22
0.0
 32
0.0
 13
1.0
 23
0.0
 33
0.0
 40
0.0
 40
0.0
 40
0.0
 40
0.0
 40
0.1111111111111111
 40
0.1111111111111111
 40
0.1111111111111111
 40
0.1111111111111111
 40
0.2222222222222222
 40
0.2222222222222222
 40
0.2222222222222222
 40
0.2222222222222222
 40
0.3333333333333333
 40
0.3333333333333333
 40
0.3333333333333333
 40
0.3333333333333333
 40
0.4444444444444444
 40
0.4444444444444444
 40
0.4444444444444444
 40
0.4444444444444444
 40
0.5555555555555556
 40
0.5555555555555556
 40
0.5555555555555556
 40
0.5555555555555556
 40
0.6666666666666666
 40
0.6666666666666666
 40
0.6666666666666666
 40
0.6666666666666666
 40
0.7777777777777778
 40
0.7777777777777778
 40
0.7777777777777778
 40
0.7777777777777778
 40
1.0
 40
1.0
 40
1.0
 40
1.0
 10
-7.34298
 20
-2.22584
 30
0.0
 10
-7.34298
 20
-2.22584
 30
0.0
 10
-6.55487
 20
-2.22584
 30
0.0
 10
-6.55487
 20
-2.22584
 30
0.0
 10
-6.55487
 20
-2.22584
 30
0.0
 10
-6.55487
 20
-2.22584
 30
0.0
 10
-6.55487
 20
-3.07706
 30
0.0
 10
-6.55487
 20
-3.07706
 30
0.0
 10
-6.55487
 20
-3.07706
 30
0.0
 10
-6.55487
 20
-3.07706
 30
0.0
 10
-6.33959
 20
-3.07706
 30
0.0
 10
-6.33959
 20
-3.07706
 30
0.0
 10
-6.33959
 20
-3.07706
 30
0.0
 10
-6.33959
 20
-3.07706
 30
0.0
 10
-6.33959
 20
-1.79356
 30
0.0
 10
-6.33959
 20
-1.79356
 30
0.0
 10
-6.33959
 20
-1.79356
 30
0.0
 10
-6.33959
 20
-1.79356
 30
0.0
 10
-7.55313
 20
-1.79356
 30
0.0
 10
-7.55313
 20
-1.79356
 30
0.0
 10
-7.55313
 20
-1.79356
 30
0.0
 10
-7.55313
 20
-1.79356
 30
0.0
 10
-7.55313
 20
-3.07706
 30
0.0
 10
-7.55313
 20
-3.07706
 30
0.0
 10
-7.55313
 20
-3.07706
 30
0.0
 10
-7.55313
 20
-3.07706
 30
0.0
 10
-7.34298
 20
-3.07706
 30
0.0
 10
-7.34298
 20
-3.07706
 30
0.0
 10
-7.34298
 20
-3.07706
 30
0.0
 10
-7.34298
 20
-3.07706
 30
0.0
 10
-7.34298
 20
-2.22584
 30
0.0
 10
-7.34298
 20
-2.22584
 30
0.0
  0
SPLINE
  5
44
330
1F
100
AcDbEntity
  8
Layer 1
 62
   242
100
AcDbSpline
210
0.0
220
0.0
230
1.0
 70
    11
 71
     3
 72
    36
 73
    32
 74
     0
 42
0.0000000001
 43
0.0000000001
 12
1.0
 22
0.0
 32
0.0
 13
1.0
 23
0.0
 33
0.0
 40
0.0
 40
0.0
 40
0.0
 40
0.0
 40
0.1111111111111111
 40
0.1111111111111111
 40
0.1111111111111111
 40
0.1111111111111111
 40
0.2222222222222222
 40
0.2222222222222222
 40
0.2222222222222222
 40
0.2222222222222222
 40
0.3333333333333333
 40
0.3333333333333333
 40
0.3333333333333333
 40
0.3333333333333333
 40
0.4444444444444444
 40
0.4444444444444444
 40
0.4444444444444444
 40
0.4444444444444444
 40
0.5555555555555556
 40
0.5555555555555556
 40
0.5555555555555556
 40
0.5555555555555556
 40
0.6666666666666666
 40
0.6666666666666666
 40
0.6666666666666666
 40
0.6666666666666666
 40
0.7777777777777778
 40
0.7777777777777778
 40
0.7777777777777778
 40
0.7777777777777778
 40
1.0
 40
1.0
 40
1.0
 40
1.0
 10
-6.33959
 20
-3.28779
 30
0.0
 10
-6.33959
 20
-3.28779
 30
0.0
 10
-6.55487
 20
-3.28779
 30
0.0
 10
-6.55487
 20
-3.28779
 30
0.0
 10
-6.55487
 20
-3.28779
 30
0.0
 10
-6.55487
 20
-3.28779
 30
0.0
 10
-6.55487
 20
-4.13901
 30
0.0
 10
-6.55487
 20
-4.13901
 30
0.0
 10
-6.55487
 20
-4.13901
 30
0.0
 10
-6.55487
 20
-4.13901
 30
0.0
 10
-7.34298
 20
-4.13901
 30
0.0
 10
-7.34298
 20
-4.13901
 30
0.0
 10
-7.34298
 20
-4.13901
 30
0.0
 10
-7.34298
 20
-4.13901
 30
0.0
 10
-7.34298
 20
-3.28779
 30
0.0
 10
-7.34298
 20
-3.28779
 30
0.0
 10
-7.34298
 20
-3.28779
 30
0.0
 10
-7.34298
 20
-3.28779
 30
0.0
 10
-7.55313
 20
-3.28779
 30
0.0
 10
-7.55313
 20
-3.28779
 30
0.0
 10
-7.55313
 20
-3.28779
 30
0.0
 10
-7.55313
 20
-3.28779
 30
0.0
 10
-7.55313
 20
-4.51438
 30
0.0
 10
-7.55313
 20
-4.51438
 30
0.0
 10
-7.55313
 20
-4.51438
 30
0.0
 10
-7.55313
 20
-4.51438
 30
0.0
 10
-6.33959
 20
-4.51438
 30
0.0
 10
-6.33959
 20
-4.51438
 30
0.0
 10
-6.33959
 20
-4.51438
 30
0.0
 10
-6.33959
 20
-4.51438
 30
0.0
 10
-6.33959
 20
-3.28779
 30
0.0
 10
-6.33959
 20
-3.28779
 30
0.0
  0
SPLINE
  5
45
330
1F
100
AcDbEntity
  8
Layer 1
 62
   242
100
AcDbSpline
210
0.0
220
0.0
230
1.0
 70
    11
 71
     3
 72
    20
 73
    16
 74
     0
 42
0.0000000001
 43
0.0000000001
 12
1.0
 22
0.0
 32
0.0
 13
1.0
 23
0.0
 33
0.0
 40
0.0
 40
0.0
 40
0.0
 40
0.0
 40
0.2
 40
0.2
 40
0.2
 40
0.2
 40
0.4
 40
0.4
 40
0.4
 40
0.4
 40
0.6
 40
0.6
 40
0.6
 40
0.6
 40
1.0
 40
1.0
 40
1.0
 40
1.0
 10
-7.14596
 20
-2.42287
 30
0.0
 10
-7.14596
 20
-2.42287
 30
0.0
 10
-6.7519
 20
-2.42287
 30
0.0
 10
-6.7519
 20
-2.42287
 30
0.0
 10
-6.7519
 20
-2.42287
 30
0.0
 10
-6.7519
 20
-2.42287
 30
0.0
 10
-6.7519
 20
-3.94198
 30
0.0
 10
-6.7519
 20
-3.94198
 30
0.0
 10
-6.7519
 20
-3.94198
 30
0.0
 10
-6.7519
 20
-3.94198
 30
0.0
 10
-7.14596
 20
-3.94198
 30
0.0
 10
-7.14596
 20
-3.94198
 30
0.0
 10
-7.14596
 20
-3.94198
 30
0.0
 10
-7.14596
 20
-3.94198
 30
0.0
 10
-7.14596
 20
-2.42287
 30
0.0
 10
-7.14596
 20
-2.42287
 30
0.0
  0
SPLINE
  5
46
330
1F
100
AcDbEntity
  8
Layer 1
 62
   242
100
AcDbSpline
210
0.0
220
0.0
230
1.0
 70
    11
 71
     3
 72
    36
 73
    32
 74
     0
 42
0.0000000001
 43
0.0000000001
 12
1.0
 22
0.0
 32
0.0
 13
1.0
 23
0.0
 33
0.0
 40
0.0
 40
0.0
 40
0.0
 40
0.0
 40
0.1111111111111111
 40
0.1111111111111111
 40
0.1111111111111111
 40
0.1111111111111111
 40
0.2222222222222222
 40
0.2222222222222222
 40
0.2222222222222222
 40
0.2222222222222222
 40
0.3333333333333333
 40
0.3333333333333333
 40
0.3333333333333333
 40
0.3333333333333333
 40
0.4444444444444444
 40
0.4444444444444444
 40
0.4444444444444444
 40
0.4444444444444444
 40
0.5555555555555556
 40
0.5555555555555556
 40
0.5555555555555556
 40
0.5555555555555556
 40
0.6666666666666666
 40
0.6666666666666666
 40
0.6666666666666666
 40
0.6666666666666666
 40
0.7777777777777778
 40
0.7777777777777778
 40
0.7777777777777778
 40
0.7777777777777778
 40
1.0
 40
1.0
 40
1.0
 40
1.0
 10
-6.34034
 20
5.79335
 30
0.0
 10
-6.34034
 20
5.79335
 30
0.0
 10
-6.34034
 20
4.54194
 30
0.0
 10
-6.34034
 20
4.54194
 30
0.0
 10
-6.34034
 20
4.54194
 30
0.0
 10
-6.34034
 20
4.54194
 30
0.0
 10
-7.55388
 20
4.54194
 30
0.0
 10
-7.55388
 20
4.54194
 30
0.0
 10
-7.55388
 20
4.54194
 30
0.0
 10
-7.55388
 20
4.54194
 30
0.0
 10
-7.55388
 20
5.79335
 30
0.0
 10
-7.55388
 20
5.79335
 30
0.0
 10
-7.55388
 20
5.79335
 30
0.0
 10
-7.55388
 20
5.79335
 30
0.0
 10
-7.34298
 20
5.79335
 30
0.0
 10
-7.34298
 20
5.79335
 30
0.0
 10
-7.34298
 20
5.79335
 30
0.0
 10
-7.34298
 20
5.79335
 30
0.0
 10
-7.34298
 20
4.94213
 30
0.0
 10
-7.34298
 20
4.94213
 30
0.0
 10
-7.34298
 20
4.94213
 30
0.0
 10
-7.34298
 20
4.94213
 30
0.0
 10
-6.55487
 20
4.94213
 30
0.0
 10
-6.55487
 20
4.94213
 30
0.0
 10
-6.55487
 20
4.94213
 30
0.0
 10
-6.55487
 20
4.94213
 30
0.0
 10
-6.55487
 20
5.79335
 30
0.0
 10
-6.55487
 20
5.79335
 30
0.0
 10
-6.55487
 20
5.79335
 30
0.0
 10
-6.55487
 20
5.79335
 30
0.0
 10
-6.34034
 20
5.79335
 30
0.0
 10
-6.34034
 20
5.79335
 30
0.0
  0
SPLINE
  5
47
330
1F
100
AcDbEntity
  8
Layer 1
 62
   242
100
AcDbSpline
210
0.0
220
0.0
230
1.0
 70
    11
 71
     3
 72
    20
 73
    16
 74
     0
 42
0.0000000001
 43
0.0000000001
 12
1.0
 22
0.0
 32
0.0
 13
1.0
 23
0.0
 33
0.0
 40
0.0
 40
0.0
 40
0.0
 40
0.0
 40
0.2
 40
0.2
 40
0.2
 40
0.2
 40
0.4
 40
0.4
 40
0.4
 40
0.4
 40
0.6
 40
0.6
 40
0.6
 40
0.6
 40
1.0
 40
1.0
 40
1.0
 40
1.0
 10
-7.14596
 20
6.65827
 30
0.0
 10
-7.14596
 20
6.65827
 30
0.0
 10
-6.7519
 20
6.65827
 30
0.0
 10
-6.7519
 20
6.65827
 30
0.0
 10
-6.7519
 20
6.65827
 30
0.0
 10
-6.7519
 20
6.65827
 30
0.0
 10
-6.7519
 20
5.13916
 30
0.0
 10
-6.7519
 20
5.13916
 30
0.0
 10
-6.7519
 20
5.13916
 30
0.0
 10
-6.7519
 20
5.13916
 30
0.0
 10
-7.14596
 20
5.13916
 30
0.0
 10
-7.14596
 20
5.13916
 30
0.0
 10
-7.14596
 20
5.13916
 30
0.0
 10
-7.14596
 20
5.13916
 30
0.0
 10
-7.14596
 20
6.65827
 30
0.0
 10
-7.14596
 20
6.65827
 30
0.0
  0
SPLINE
  5
48
330
1F
100
AcDbEntity
  8
Layer 1
 62
   242
100
AcDbSpline
210
0.0
220
0.0
230
1.0
 70
    11
 71
     3
 72
    20
 73
    16
 74
     0
 42
0.0000000001
 43
0.0000000001
 12
1.0
 22
0.0
 32
0.0
 13
1.0
 23
0.0
 33
0.0
 40
0.0
 40
0.0
 40
0.0
 40
0.0
 40
0.2
 40
0.2
 40
0.2
 40
0.2
 40
0.4
 40
0.4
 40
0.4
 40
0.4
 40
0.6
 40
0.6
 40
0.6
 40
0.6
 40
1.0
 40
1.0
 40
1.0
 40
1.0
 10
-8.30046
 20
-5.41576
 30
0.0
 10
-8.30046
 20
-5.41576
 30
0.0
 10
-5.59226
 20
-5.41576
 30
0.0
 10
-5.59226
 20
-5.41576
 30
0.0
 10
-5.59226
 20
-5.41576
 30
0.0
 10
-5.59226
 20
-5.41576
 30
0.0
 10
-5.59226
 20
-5.83557
 30
0.0
 10
-5.59226
 20
-5.83557
 30
0.0
 10
-5.59226
 20
-5.83557
 30
0.0
 10
-5.59226
 20
-5.83557
 30
0.0
 10
-8.30046
 20
-5.83557
 30
0.0
 10
-8.30046
 20
-5.83557
 30
0.0
 10
-8.30046
 20
-5.83557
 30
0.0
 10
-8.30046
 20
-5.83557
 30
0.0
 10
-8.30046
 20
-5.41576
 30
0.0
 10
-8.30046
 20
-5.41576
 30
0.0
  0
SPLINE
  5
49
330
1F
100
AcDbEntity
  8
Layer 1
 62
   242
100
AcDbSpline
210
0.0
220
0.0
230
1.0
 70
    11
 71
     3
 72
    28
 73
    24
 74
     0
 42
0.0000000001
 43
0.0000000001
 12
1.0
 22
0.0
 32
0.0
 13
1.0
 23
0.0
 33
0.0
 40
0.0
 40
0.0
 40
0.0
 40
0.0
 40
0.1428571428571428
 40
0.1428571428571428
 40
0.1428571428571428
 40
0.1428571428571428
 40
0.2857142857142857
 40
0.2857142857142857
 40
0.2857142857142857
 40
0.2857142857142857
 40
0.4285714285714285
 40
0.4285714285714285
 40
0.4285714285714285
 40
0.4285714285714285
 40
0.5714285714285714
 40
0.5714285714285714
 40
0.5714285714285714
 40
0.5714285714285714
 40
0.7142857142857143
 40
0.7142857142857143
 40
0.7142857142857143
 40
0.7142857142857143
 40
1.0
 40
1.0
 40
1.0
 40
1.0
 10
-5.59226
 20
-0.89218
 30
0.0
 10
-5.59226
 20
-0.89218
 30
0.0
 10
-8.30046
 20
-0.89218
 30
0.0
 10
-8.30046
 20
-0.89218
 30
0.0
 10
-8.30046
 20
-0.89218
 30
0.0
 10
-8.30046
 20
-0.89218
 30
0.0
 10
-8.30046
 20
-0.47236
 30
0.0
 10
-8.30046
 20
-0.47236
 30
0.0
 10
-8.30046
 20
-0.47236
 30
0.0
 10
-8.30046
 20
-0.47236
 30
0.0
 10
-5.59301
 20
-0.47236
 30
0.0
 10
-5.59301
 20
-0.47236
 30
0.0
 10
-5.59301
 20
-0.47236
 30
0.0
 10
-5.59301
 20
-0.47236
 30
0.0
 10
-5.59301
 20
-0.84297
 30
0.0
 10
-5.59301
 20
-0.84297
 30
0.0
 10
-5.59301
 20
-0.84297
 30
0.0
 10
-5.59301
 20
-0.84297
 30
0.0
 10
-5.59226
 20
-0.84297
 30
0.0
 10
-5.59226
 20
-0.84297
 30
0.0
 10
-5.59226
 20
-0.84297
 30
0.0
 10
-5.59226
 20
-0.84297
 30
0.0
 10
-5.59226
 20
-0.89218
 30
0.0
 10
-5.59226
 20
-0.89218
 30
0.0
  0
SPLINE
  5
4A
330
1F
100
AcDbEntity
  8
Layer 1
 62
   242
100
AcDbSpline
210
0.0
220
0.0
230
1.0
 70
    11
 71
     3
 72
    36
 73
    32
 74
     0
 42
0.0000000001
 43
0.0000000001
 12
1.0
 22
0.0
 32
0.0
 13
1.0
 23
0.0
 33
0.0
 40
0.0
 40
0.0
 40
0.0
 40
0.0
 40
0.1111111111111111
 40
0.1111111111111111
 40
0.1111111111111111
 40
0.1111111111111111
 40
0.2222222222222222
 40
0.2222222222222222
 40
0.2222222222222222
 40
0.2222222222222222
 40
0.3333333333333333
 40
0.3333333333333333
 40
0.3333333333333333
 40
0.3333333333333333
 40
0.4444444444444444
 40
0.4444444444444444
 40
0.4444444444444444
 40
0.4444444444444444
 40
0.5555555555555556
 40
0.5555555555555556
 40
0.5555555555555556
 40
0.5555555555555556
 40
0.6666666666666666
 40
0.6666666666666666
 40
0.6666666666666666
 40
0.6666666666666666
 40
0.7777777777777778
 40
0.7777777777777778
 40
0.7777777777777778
 40
0.7777777777777778
 40
1.0
 40
1.0
 40
1.0
 40
1.0
 10
-8.30046
 20
-4.04978
 30
0.0
 10
-8.30046
 20
-4.04978
 30
0.0
 10
-7.83659
 20
-4.04978
 30
0.0
 10
-7.83659
 20
-4.04978
 30
0.0
 10
-7.83659
 20
-4.04978
 30
0.0
 10
-7.83659
 20
-4.04978
 30
0.0
 10
-7.83659
 20
-4.7278
 30
0.0
 10
-7.83659
 20
-4.7278
 30
0.0
 10
-7.83659
 20
-4.7278
 30
0.0
 10
-7.83659
 20
-4.7278
 30
0.0
 10
-6.05613
 20
-4.7278
 30
0.0
 10
-6.05613
 20
-4.7278
 30
0.0
 10
-6.05613
 20
-4.7278
 30
0.0
 10
-6.05613
 20
-4.7278
 30
0.0
 10
-6.05613
 20
-4.04978
 30
0.0
 10
-6.05613
 20
-4.04978
 30
0.0
 10
-6.05613
 20
-4.04978
 30
0.0
 10
-6.05613
 20
-4.04978
 30
0.0
 10
-5.59226
 20
-4.04978
 30
0.0
 10
-5.59226
 20
-4.04978
 30
0.0
 10
-5.59226
 20
-4.04978
 30
0.0
 10
-5.59226
 20
-4.04978
 30
0.0
 10
-5.59226
 20
-5.20232
 30
0.0
 10
-5.59226
 20
-5.20232
 30
0.0
 10
-5.59226
 20
-5.20232
 30
0.0
 10
-5.59226
 20
-5.20232
 30
0.0
 10
-8.30046
 20
-5.20232
 30
0.0
 10
-8.30046
 20
-5.20232
 30
0.0
 10
-8.30046
 20
-5.20232
 30
0.0
 10
-8.30046
 20
-5.20232
 30
0.0
 10
-8.30046
 20
-4.04978
 30
0.0
 10
-8.30046
 20
-4.04978
 30
0.0
  0
SPLINE
  5
4B
330
1F
100
AcDbEntity
  8
Layer 1
 62
   242
100
AcDbSpline
210
0.0
220
0.0
230
1.0
 70
    11
 71
     3
 72
    20
 73
    16
 74
     0
 42
0.0000000001
 43
0.0000000001
 12
1.0
 22
0.0
 32
0.0
 13
1.0
 23
0.0
 33
0.0
 40
0.0
 40
0.0
 40
0.0
 40
0.0
 40
0.2
 40
0.2
 40
0.2
 40
0.2
 40
0.4
 40
0.4
 40
0.4
 40
0.4
 40
0.6
 40
0.6
 40
0.6
 40
0.6
 40
1.0
 40
1.0
 40
1.0
 40
1.0
 10
-6.05613
 20
-2.47161
 30
0.0
 10
-6.05613
 20
-2.47161
 30
0.0
 10
-5.59226
 20
-2.47161
 30
0.0
 10
-5.59226
 20
-2.47161
 30
0.0
 10
-5.59226
 20
-2.47161
 30
0.0
 10
-5.59226
 20
-2.47161
 30
0.0
 10
-5.59226
 20
-3.83634
 30
0.0
 10
-5.59226
 20
-3.83634
 30
0.0
 10
-5.59226
 20
-3.83634
 30
0.0
 10
-5.59226
 20
-3.83634
 30
0.0
 10
-6.05613
 20
-3.83634
 30
0.0
 10
-6.05613
 20
-3.83634
 30
0.0
 10
-6.05613
 20
-3.83634
 30
0.0
 10
-6.05613
 20
-3.83634
 30
0.0
 10
-6.05613
 20
-2.47161
 30
0.0
 10
-6.05613
 20
-2.47161
 30
0.0
  0
SPLINE
  5
4C
330
1F
100
AcDbEntity
  8
Layer 1
 62
   242
100
AcDbSpline
210
0.0
220
0.0
230
1.0
 70
    11
 71
     3
 72
    36
 73
    32
 74
     0
 42
0.0000000001
 43
0.0000000001
 12
1.0
 22
0.0
 32
0.0
 13
1.0
 23
0.0
 33
0.0
 40
0.0
 40
0.0
 40
0.0
 40
0.0
 40
0.1111111111111111
 40
0.1111111111111111
 40
0.1111111111111111
 40
0.1111111111111111
 40
0.2222222222222222
 40
0.2222222222222222
 40
0.2222222222222222
 40
0.2222222222222222
 40
0.3333333333333333
 40
0.3333333333333333
 40
0.3333333333333333
 40
0.3333333333333333
 40
0.4444444444444444
 40
0.4444444444444444
 40
0.4444444444444444
 40
0.4444444444444444
 40
0.5555555555555556
 40
0.5555555555555556
 40
0.5555555555555556
 40
0.5555555555555556
 40
0.6666666666666666
 40
0.6666666666666666
 40
0.6666666666666666
 40
0.6666666666666666
 40
0.7777777777777778
 40
0.7777777777777778
 40
0.7777777777777778
 40
0.7777777777777778
 40
1.0
 40
1.0
 40
1.0
 40
1.0
 10
-7.83659
 20
-2.25817
 30
0.0
 10
-7.83659
 20
-2.25817
 30
0.0
 10
-8.30046
 20
-2.25817
 30
0.0
 10
-8.30046
 20
-2.25817
 30
0.0
 10
-8.30046
 20
-2.25817
 30
0.0
 10
-8.30046
 20
-2.25817
 30
0.0
 10
-8.30046
 20
-1.10561
 30
0.0
 10
-8.30046
 20
-1.10561
 30
0.0
 10
-8.30046
 20
-1.10561
 30
0.0
 10
-8.30046
 20
-1.10561
 30
0.0
 10
-5.59226
 20
-1.10561
 30
0.0
 10
-5.59226
 20
-1.10561
 30
0.0
 10
-5.59226
 20
-1.10561
 30
0.0
 10
-5.59226
 20
-1.10561
 30
0.0
 10
-5.59226
 20
-2.25817
 30
0.0
 10
-5.59226
 20
-2.25817
 30
0.0
 10
-5.59226
 20
-2.25817
 30
0.0
 10
-5.59226
 20
-2.25817
 30
0.0
 10
-6.05613
 20
-2.25817
 30
0.0
 10
-6.05613
 20
-2.25817
 30
0.0
 10
-6.05613
 20
-2.25817
 30
0.0
 10
-6.05613
 20
-2.25817
 30
0.0
 10
-6.05613
 20
-1.58013
 30
0.0
 10
-6.05613
 20
-1.58013
 30
0.0
 10
-6.05613
 20
-1.58013
 30
0.0
 10
-6.05613
 20
-1.58013
 30
0.0
 10
-7.83659
 20
-1.58013
 30
0.0
 10
-7.83659
 20
-1.58013
 30
0.0
 10
-7.83659
 20
-1.58013
 30
0.0
 10
-7.83659
 20
-1.58013
 30
0.0
 10
-7.83659
 20
-2.25817
 30
0.0
 10
-7.83659
 20
-2.25817
 30
0.0
  0
SPLINE
  5
4D
330
1F
100
AcDbEntity
  8
Layer 1
 62
   242
100
AcDbSpline
210
0.0
220
0.0
230
1.0
 70
    11
 71
     3
 72
    20
 73
    16
 74
     0
 42
0.0000000001
 43
0.0000000001
 12
1.0
 22
0.0
 32
0.0
 13
1.0
 23
0.0
 33
0.0
 40
0.0
 40
0.0
 40
0.0
 40
0.0
 40
0.2
 40
0.2
 40
0.2
 40
0.2
 40
0.4
 40
0.4
 40
0.4
 40
0.4
 40
0.6
 40
0.6
 40
0.6
 40
0.6
 40
1.0
 40
1.0
 40
1.0
 40
1.0
 10
-8.30046
 20
-2.47161
 30
0.0
 10
-8.30046
 20
-2.47161
 30
0.0
 10
-7.83659
 20
-2.47161
 30
0.0
 10
-7.83659
 20
-2.47161
 30
0.0
 10
-7.83659
 20
-2.47161
 30
0.0
 10
-7.83659
 20
-2.47161
 30
0.0
 10
-7.83659
 20
-3.83634
 30
0.0
 10
-7.83659
 20
-3.83634
 30
0.0
 10
-7.83659
 20
-3.83634
 30
0.0
 10
-7.83659
 20
-3.83634
 30
0.0
 10
-8.30046
 20
-3.83634
 30
0.0
 10
-8.30046
 20
-3.83634
 30
0.0
 10
-8.30046
 20
-3.83634
 30
0.0
 10
-8.30046
 20
-3.83634
 30
0.0
 10
-8.30046
 20
-2.47161
 30
0.0
 10
-8.30046
 20
-2.47161
 30
0.0
  0
SPLINE
  5
4E
330
1F
100
AcDbEntity
  8
Layer 1
 62
   242
100
AcDbSpline
210
0.0
220
0.0
230
1.0
 70
    11
 71
     3
 72
    20
 73
    16
 74
     0
 42
0.0000000001
 43
0.0000000001
 12
1.0
 22
0.0
 32
0.0
 13
1.0
 23
0.0
 33
0.0
 40
0.0
 40
0.0
 40
0.0
 40
0.0
 40
0.2
 40
0.2
 40
0.2
 40
0.2
 40
0.4
 40
0.4
 40
0.4
 40
0.4
 40
0.6
 40
0.6
 40
0.6
 40
0.6
 40
1.0
 40
1.0
 40
1.0
 40
1.0
 10
-6.34034
 20
2.24075
 30
0.0
 10
-6.34034
 20
2.24075
 30
0.0
 10
-7.55313
 20
2.24075
 30
0.0
 10
-7.55313
 20
2.24075
 30
0.0
 10
-7.55313
 20
2.24075
 30
0.0
 10
-7.55313
 20
2.24075
 30
0.0
 10
-7.55313
 20
1.84114
 30
0.0
 10
-7.55313
 20
1.84114
 30
0.0
 10
-7.55313
 20
1.84114
 30
0.0
 10
-7.55313
 20
1.84114
 30
0.0
 10
-6.34034
 20
1.84114
 30
0.0
 10
-6.34034
 20
1.84114
 30
0.0
 10
-6.34034
 20
1.84114
 30
0.0
 10
-6.34034
 20
1.84114
 30
0.0
 10
-6.34034
 20
2.24075
 30
0.0
 10
-6.34034
 20
2.24075
 30
0.0
  0
SPLINE
  5
4F
330
1F
100
AcDbEntity
  8
Layer 1
 62
   242
100
AcDbSpline
210
0.0
220
0.0
230
1.0
 70
    11
 71
     3
 72
    20
 73
    16
 74
     0
 42
0.0000000001
 43
0.0000000001
 12
1.0
 22
0.0
 32
0.0
 13
1.0
 23
0.0
 33
0.0
 40
0.0
 40
0.0
 40
0.0
 40
0.0
 40
0.2
 40
0.2
 40
0.2
 40
0.2
 40
0.4
 40
0.4
 40
0.4
 40
0.4
 40
0.6
 40
0.6
 40
0.6
 40
0.6
 40
1.0
 40
1.0
 40
1.0
 40
1.0
 10
-7.55313
 20
0.90724
 30
0.0
 10
-7.55313
 20
0.90724
 30
0.0
 10
-7.55313
 20
0.50763
 30
0.0
 10
-7.55313
 20
0.50763
 30
0.0
 10
-7.55313
 20
0.50763
 30
0.0
 10
-7.55313
 20
0.50763
 30
0.0
 10
-6.34034
 20
0.50763
 30
0.0
 10
-6.34034
 20
0.50763
 30
0.0
 10
-6.34034
 20
0.50763
 30
0.0
 10
-6.34034
 20
0.50763
 30
0.0
 10
-6.34034
 20
0.90724
 30
0.0
 10
-6.34034
 20
0.90724
 30
0.0
 10
-6.34034
 20
0.90724
 30
0.0
 10
-6.34034
 20
0.90724
 30
0.0
 10
-7.55313
 20
0.90724
 30
0.0
 10
-7.55313
 20
0.90724
 30
0.0
  0
SPLINE
  5
50
330
1F
100
AcDbEntity
  8
Layer 1
 62
   242
100
AcDbSpline
210
0.0
220
0.0
230
1.0
 70
    11
 71
     3
 72
    20
 73
    16
 74
     0
 42
0.0000000001
 43
0.0000000001
 12
1.0
 22
0.0
 32
0.0
 13
1.0
 23
0.0
 33
0.0
 40
0.0
 40
0.0
 40
0.0
 40
0.0
 40
0.2
 40
0.2
 40
0.2
 40
0.2
 40
0.4
 40
0.4
 40
0.4
 40
0.4
 40
0.6
 40
0.6
 40
0.6
 40
0.6
 40
1.0
 40
1.0
 40
1.0
 40
1.0
 10
-7.55313
 20
0.29251
 30
0.0
 10
-7.55313
 20
0.29251
 30
0.0
 10
-6.34034
 20
0.29251
 30
0.0
 10
-6.34034
 20
0.29251
 30
0.0
 10
-6.34034
 20
0.29251
 30
0.0
 10
-6.34034
 20
0.29251
 30
0.0
 10
-6.34034
 20
-0.25778
 30
0.0
 10
-6.34034
 20
-0.25778
 30
0.0
 10
-6.34034
 20
-0.25778
 30
0.0
 10
-6.34034
 20
-0.25778
 30
0.0
 10
-7.55313
 20
-0.25778
 30
0.0
 10
-7.55313
 20
-0.25778
 30
0.0
 10
-7.55313
 20
-0.25778
 30
0.0
 10
-7.55313
 20
-0.25778
 30
0.0
 10
-7.55313
 20
0.29251
 30
0.0
 10
-7.55313
 20
0.29251
 30
0.0
  0
SPLINE
  5
51
330
1F
100
AcDbEntity
  8
Layer 1
 62
   242
100
AcDbSpline
210
0.0
220
0.0
230
1.0
 70
    11
 71
     3
 72
    20
 73
    16
 74
     0
 42
0.0000000001
 43
0.0000000001
 12
1.0
 22
0.0
 32
0.0
 13
1.0
 23
0.0
 33
0.0
 40
0.0
 40
0.0
 40
0.0
 40
0.0
 40
0.2
 40
0.2
 40
0.2
 40
0.2
 40
0.4
 40
0.4
 40
0.4
 40
0.4
 40
0.6
 40
0.6
 40
0.6
 40
0.6
 40
1.0
 40
1.0
 40
1.0
 40
1.0
 10
-7.55313
 20
2.45587
 30
0.0
 10
-7.55313
 20
2.45587
 30
0.0
 10
-7.55313
 20
3.00616
 30
0.0
 10
-7.55313
 20
3.00616
 30
0.0
 10
-7.55313
 20
3.00616
 30
0.0
 10
-7.55313
 20
3.00616
 30
0.0
 10
-6.34034
 20
3.00616
 30
0.0
 10
-6.34034
 20
3.00616
 30
0.0
 10
-6.34034
 20
3.00616
 30
0.0
 10
-6.34034
 20
3.00616
 30
0.0
 10
-6.34034
 20
2.45587
 30
0.0
 10
-6.34034
 20
2.45587
 30
0.0
 10
-6.34034
 20
2.45587
 30
0.0
 10
-6.34034
 20
2.45587
 30
0.0
 10
-7.55313
 20
2.45587
 30
0.0
 10
-7.55313
 20
2.45587
 30
0.0
  0
SPLINE
  5
52
330
1F
100
AcDbEntity
  8
Layer 1
 62
   242
100
AcDbSpline
210
0.0
220
0.0
230
1.0
 70
    11
 71
     3
 72
    44
 73
    40
 74
     0
 42
0.0000000001
 43
0.0000000001
 12
1.0
 22
0.0
 32
0.0
 13
1.0
 23
0.0
 33
0.0
 40
0.0
 40
0.0
 40
0.0
 40
0.0
 40
0.0909090909090909
 40
0.0909090909090909
 40
0.0909090909090909
 40
0.0909090909090909
 40
0.1818181818181818
 40
0.1818181818181818
 40
0.1818181818181818
 40
0.1818181818181818
 40
0.2727272727272727
 40
0.2727272727272727
 40
0.2727272727272727
 40
0.2727272727272727
 40
0.3636363636363636
 40
0.3636363636363636
 40
0.3636363636363636
 40
0.3636363636363636
 40
0.4545454545454545
 40
0.4545454545454545
 40
0.4545454545454545
 40
0.4545454545454545
 40
0.5454545454545454
 40
0.5454545454545454
 40
0.5454545454545454
 40
0.5454545454545454
 40
0.6363636363636364
 40
0.6363636363636364
 40
0.6363636363636364
 40
0.6363636363636364
 40
0.7272727272727273
 40
0.7272727272727273
 40
0.7272727272727273
 40
0.7272727272727273
 40
0.8181818181818182
 40
0.8181818181818182
 40
0.8181818181818182
 40
0.8181818181818182
 40
1.0
 40
1.0
 40
1.0
 40
1.0
 10
-6.81492
 20
1.13847
 30
0.0
 10
-6.81492
 20
1.13847
 30
0.0
 10
-6.81492
 20
1.60991
 30
0.0
 10
-6.81492
 20
1.60991
 30
0.0
 10
-6.81492
 20
1.60991
 30
0.0
 10
-6.81492
 20
1.60991
 30
0.0
 10
-6.05689
 20
1.60991
 30
0.0
 10
-6.05689
 20
1.60991
 30
0.0
 10
-6.05689
 20
1.60991
 30
0.0
 10
-6.05689
 20
1.60991
 30
0.0
 10
-6.05689
 20
1.62771
 30
0.0
 10
-6.05689
 20
1.62771
 30
0.0
 10
-6.05689
 20
1.62771
 30
0.0
 10
-6.05689
 20
1.62771
 30
0.0
 10
-6.05613
 20
1.62771
 30
0.0
 10
-6.05613
 20
1.62771
 30
0.0
 10
-6.05613
 20
1.62771
 30
0.0
 10
-6.05613
 20
1.62771
 30
0.0
 10
-6.05613
 20
2.24075
 30
0.0
 10
-6.05613
 20
2.24075
 30
0.0
 10
-6.05613
 20
2.24075
 30
0.0
 10
-6.05613
 20
2.24075
 30
0.0
 10
-5.59301
 20
2.24075
 30
0.0
 10
-5.59301
 20
2.24075
 30
0.0
 10
-5.59301
 20
2.24075
 30
0.0
 10
-5.59301
 20
2.24075
 30
0.0
 10
-5.59301
 20
0.50763
 30
0.0
 10
-5.59301
 20
0.50763
 30
0.0
 10
-5.59301
 20
0.50763
 30
0.0
 10
-5.59301
 20
0.50763
 30
0.0
 10
-6.05613
 20
0.50763
 30
0.0
 10
-6.05613
 20
0.50763
 30
0.0
 10
-6.05613
 20
0.50763
 30
0.0
 10
-6.05613
 20
0.50763
 30
0.0
 10
-6.05613
 20
1.13847
 30
0.0
 10
-6.05613
 20
1.13847
 30
0.0
 10
-6.05613
 20
1.13847
 30
0.0
 10
-6.05613
 20
1.13847
 30
0.0
 10
-6.81492
 20
1.13847
 30
0.0
 10
-6.81492
 20
1.13847
 30
0.0
  0
SPLINE
  5
53
330
1F
100
AcDbEntity
  8
Layer 1
 62
   242
100
AcDbSpline
210
0.0
220
0.0
230
1.0
 70
    11
 71
     3
 72
    44
 73
    40
 74
     0
 42
0.0000000001
 43
0.0000000001
 12
1.0
 22
0.0
 32
0.0
 13
1.0
 23
0.0
 33
0.0
 40
0.0
 40
0.0
 40
0.0
 40
0.0
 40
0.0909090909090909
 40
0.0909090909090909
 40
0.0909090909090909
 40
0.0909090909090909
 40
0.1818181818181818
 40
0.1818181818181818
 40
0.1818181818181818
 40
0.1818181818181818
 40
0.2727272727272727
 40
0.2727272727272727
 40
0.2727272727272727
 40
0.2727272727272727
 40
0.3636363636363636
 40
0.3636363636363636
 40
0.3636363636363636
 40
0.3636363636363636
 40
0.4545454545454545
 40
0.4545454545454545
 40
0.4545454545454545
 40
0.4545454545454545
 40
0.5454545454545454
 40
0.5454545454545454
 40
0.5454545454545454
 40
0.5454545454545454
 40
0.6363636363636364
 40
0.6363636363636364
 40
0.6363636363636364
 40
0.6363636363636364
 40
0.7272727272727273
 40
0.7272727272727273
 40
0.7272727272727273
 40
0.7272727272727273
 40
0.8181818181818182
 40
0.8181818181818182
 40
0.8181818181818182
 40
0.8181818181818182
 40
1.0
 40
1.0
 40
1.0
 40
1.0
 10
-7.09915
 20
1.13847
 30
0.0
 10
-7.09915
 20
1.13847
 30
0.0
 10
-7.83659
 20
1.13847
 30
0.0
 10
-7.83659
 20
1.13847
 30
0.0
 10
-7.83659
 20
1.13847
 30
0.0
 10
-7.83659
 20
1.13847
 30
0.0
 10
-7.83659
 20
1.12067
 30
0.0
 10
-7.83659
 20
1.12067
 30
0.0
 10
-7.83659
 20
1.12067
 30
0.0
 10
-7.83659
 20
1.12067
 30
0.0
 10
-7.83734
 20
1.12067
 30
0.0
 10
-7.83734
 20
1.12067
 30
0.0
 10
-7.83734
 20
1.12067
 30
0.0
 10
-7.83734
 20
1.12067
 30
0.0
 10
-7.83734
 20
0.50763
 30
0.0
 10
-7.83734
 20
0.50763
 30
0.0
 10
-7.83734
 20
0.50763
 30
0.0
 10
-7.83734
 20
0.50763
 30
0.0
 10
-8.30046
 20
0.50763
 30
0.0
 10
-8.30046
 20
0.50763
 30
0.0
 10
-8.30046
 20
0.50763
 30
0.0
 10
-8.30046
 20
0.50763
 30
0.0
 10
-8.30046
 20
2.24075
 30
0.0
 10
-8.30046
 20
2.24075
 30
0.0
 10
-8.30046
 20
2.24075
 30
0.0
 10
-8.30046
 20
2.24075
 30
0.0
 10
-7.83734
 20
2.24075
 30
0.0
 10
-7.83734
 20
2.24075
 30
0.0
 10
-7.83734
 20
2.24075
 30
0.0
 10
-7.83734
 20
2.24075
 30
0.0
 10
-7.83734
 20
1.60991
 30
0.0
 10
-7.83734
 20
1.60991
 30
0.0
 10
-7.83734
 20
1.60991
 30
0.0
 10
-7.83734
 20
1.60991
 30
0.0
 10
-7.09915
 20
1.60991
 30
0.0
 10
-7.09915
 20
1.60991
 30
0.0
 10
-7.09915
 20
1.60991
 30
0.0
 10
-7.09915
 20
1.60991
 30
0.0
 10
-7.09915
 20
1.13847
 30
0.0
 10
-7.09915
 20
1.13847
 30
0.0
  0
SPLINE
  5
54
330
1F
100
AcDbEntity
  8
Layer 1
 62
   242
100
AcDbSpline
210
0.0
220
0.0
230
1.0
 70
    11
 71
     3
 72
    20
 73
    16
 74
     0
 42
0.0000000001
 43
0.0000000001
 12
1.0
 22
0.0
 32
0.0
 13
1.0
 23
0.0
 33
0.0
 40
0.0
 40
0.0
 40
0.0
 40
0.0
 40
0.2
 40
0.2
 40
0.2
 40
0.2
 40
0.4
 40
0.4
 40
0.4
 40
0.4
 40
0.6
 40
0.6
 40
0.6
 40
0.6
 40
1.0
 40
1.0
 40
1.0
 40
1.0
 10
-6.33959
 20
-8.52869
 30
0.0
 10
-6.33959
 20
-8.52869
 30
0.0
 10
-7.55313
 20
-8.52869
 30
0.0
 10
-7.55313
 20
-8.52869
 30
0.0
 10
-7.55313
 20
-8.52869
 30
0.0
 10
-7.55313
 20
-8.52869
 30
0.0
 10
-7.55313
 20
-8.12909
 30
0.0
 10
-7.55313
 20
-8.12909
 30
0.0
 10
-7.55313
 20
-8.12909
 30
0.0
 10
-7.55313
 20
-8.12909
 30
0.0
 10
-6.33959
 20
-8.12909
 30
0.0
 10
-6.33959
 20
-8.12909
 30
0.0
 10
-6.33959
 20
-8.12909
 30
0.0
 10
-6.33959
 20
-8.12909
 30
0.0
 10
-6.33959
 20
-8.52869
 30
0.0
 10
-6.33959
 20
-8.52869
 30
0.0
  0
SPLINE
  5
55
330
1F
100
AcDbEntity
  8
Layer 1
 62
   242
100
AcDbSpline
210
0.0
220
0.0
230
1.0
 70
    11
 71
     3
 72
    20
 73
    16
 74
     0
 42
0.0000000001
 43
0.0000000001
 12
1.0
 22
0.0
 32
0.0
 13
1.0
 23
0.0
 33
0.0
 40
0.0
 40
0.0
 40
0.0
 40
0.0
 40
0.2
 40
0.2
 40
0.2
 40
0.2
 40
0.4
 40
0.4
 40
0.4
 40
0.4
 40
0.6
 40
0.6
 40
0.6
 40
0.6
 40
1.0
 40
1.0
 40
1.0
 40
1.0
 10
-7.55313
 20
-6.79389
 30
0.0
 10
-7.55313
 20
-6.79389
 30
0.0
 10
-6.33959
 20
-6.79389
 30
0.0
 10
-6.33959
 20
-6.79389
 30
0.0
 10
-6.33959
 20
-6.79389
 30
0.0
 10
-6.33959
 20
-6.79389
 30
0.0
 10
-6.33959
 20
-7.21298
 30
0.0
 10
-6.33959
 20
-7.21298
 30
0.0
 10
-6.33959
 20
-7.21298
 30
0.0
 10
-6.33959
 20
-7.21298
 30
0.0
 10
-7.55313
 20
-7.21298
 30
0.0
 10
-7.55313
 20
-7.21298
 30
0.0
 10
-7.55313
 20
-7.21298
 30
0.0
 10
-7.55313
 20
-7.21298
 30
0.0
 10
-7.55313
 20
-6.79389
 30
0.0
 10
-7.55313
 20
-6.79389
 30
0.0
  0
SPLINE
  5
56
330
1F
100
AcDbEntity
  8
Layer 1
 62
   242
100
AcDbSpline
210
0.0
220
0.0
230
1.0
 70
    11
 71
     3
 72
    20
 73
    16
 74
     0
 42
0.0000000001
 43
0.0000000001
 12
1.0
 22
0.0
 32
0.0
 13
1.0
 23
0.0
 33
0.0
 40
0.0
 40
0.0
 40
0.0
 40
0.0
 40
0.2
 40
0.2
 40
0.2
 40
0.2
 40
0.4
 40
0.4
 40
0.4
 40
0.4
 40
0.6
 40
0.6
 40
0.6
 40
0.6
 40
1.0
 40
1.0
 40
1.0
 40
1.0
 10
-7.55313
 20
-6.58046
 30
0.0
 10
-7.55313
 20
-6.58046
 30
0.0
 10
-6.33959
 20
-6.58046
 30
0.0
 10
-6.33959
 20
-6.58046
 30
0.0
 10
-6.33959
 20
-6.58046
 30
0.0
 10
-6.33959
 20
-6.58046
 30
0.0
 10
-6.33959
 20
-6.04901
 30
0.0
 10
-6.33959
 20
-6.04901
 30
0.0
 10
-6.33959
 20
-6.04901
 30
0.0
 10
-6.33959
 20
-6.04901
 30
0.0
 10
-7.55313
 20
-6.04901
 30
0.0
 10
-7.55313
 20
-6.04901
 30
0.0
 10
-7.55313
 20
-6.04901
 30
0.0
 10
-7.55313
 20
-6.04901
 30
0.0
 10
-7.55313
 20
-6.58046
 30
0.0
 10
-7.55313
 20
-6.58046
 30
0.0
  0
SPLINE
  5
57
330
1F
100
AcDbEntity
  8
Layer 1
 62
   242
100
AcDbSpline
210
0.0
220
0.0
230
1.0
 70
    11
 71
     3
 72
    20
 73
    16
 74
     0
 42
0.0000000001
 43
0.0000000001
 12
1.0
 22
0.0
 32
0.0
 13
1.0
 23
0.0
 33
0.0
 40
0.0
 40
0.0
 40
0.0
 40
0.0
 40
0.2
 40
0.2
 40
0.2
 40
0.2
 40
0.4
 40
0.4
 40
0.4
 40
0.4
 40
0.6
 40
0.6
 40
0.6
 40
0.6
 40
1.0
 40
1.0
 40
1.0
 40
1.0
 10
-7.55313
 20
-9.29411
 30
0.0
 10
-7.55313
 20
-9.29411
 30
0.0
 10
-7.55313
 20
-8.74214
 30
0.0
 10
-7.55313
 20
-8.74214
 30
0.0
 10
-7.55313
 20
-8.74214
 30
0.0
 10
-7.55313
 20
-8.74214
 30
0.0
 10
-6.33959
 20
-8.74214
 30
0.0
 10
-6.33959
 20
-8.74214
 30
0.0
 10
-6.33959
 20
-8.74214
 30
0.0
 10
-6.33959
 20
-8.74214
 30
0.0
 10
-6.33959
 20
-9.29411
 30
0.0
 10
-6.33959
 20
-9.29411
 30
0.0
 10
-6.33959
 20
-9.29411
 30
0.0
 10
-6.33959
 20
-9.29411
 30
0.0
 10
-7.55313
 20
-9.29411
 30
0.0
 10
-7.55313
 20
-9.29411
 30
0.0
  0
SPLINE
  5
58
330
1F
100
AcDbEntity
  8
Layer 1
 62
   242
100
AcDbSpline
210
0.0
220
0.0
230
1.0
 70
    11
 71
     3
 72
    36
 73
    32
 74
     0
 42
0.0000000001
 43
0.0000000001
 12
1.0
 22
0.0
 32
0.0
 13
1.0
 23
0.0
 33
0.0
 40
0.0
 40
0.0
 40
0.0
 40
0.0
 40
0.1111111111111111
 40
0.1111111111111111
 40
0.1111111111111111
 40
0.1111111111111111
 40
0.2222222222222222
 40
0.2222222222222222
 40
0.2222222222222222
 40
0.2222222222222222
 40
0.3333333333333333
 40
0.3333333333333333
 40
0.3333333333333333
 40
0.3333333333333333
 40
0.4444444444444444
 40
0.4444444444444444
 40
0.4444444444444444
 40
0.4444444444444444
 40
0.5555555555555556
 40
0.5555555555555556
 40
0.5555555555555556
 40
0.5555555555555556
 40
0.6666666666666666
 40
0.6666666666666666
 40
0.6666666666666666
 40
0.6666666666666666
 40
0.7777777777777778
 40
0.7777777777777778
 40
0.7777777777777778
 40
0.7777777777777778
 40
1.0
 40
1.0
 40
1.0
 40
1.0
 10
-6.81492
 20
-7.42641
 30
0.0
 10
-6.81492
 20
-7.42641
 30
0.0
 10
-6.81492
 20
-7.91565
 30
0.0
 10
-6.81492
 20
-7.91565
 30
0.0
 10
-6.81492
 20
-7.91565
 30
0.0
 10
-6.81492
 20
-7.91565
 30
0.0
 10
-6.05613
 20
-7.91565
 30
0.0
 10
-6.05613
 20
-7.91565
 30
0.0
 10
-6.05613
 20
-7.91565
 30
0.0
 10
-6.05613
 20
-7.91565
 30
0.0
 10
-6.05613
 20
-8.52869
 30
0.0
 10
-6.05613
 20
-8.52869
 30
0.0
 10
-6.05613
 20
-8.52869
 30
0.0
 10
-6.05613
 20
-8.52869
 30
0.0
 10
-5.59226
 20
-8.52869
 30
0.0
 10
-5.59226
 20
-8.52869
 30
0.0
 10
-5.59226
 20
-8.52869
 30
0.0
 10
-5.59226
 20
-8.52869
 30
0.0
 10
-5.59226
 20
-6.79389
 30
0.0
 10
-5.59226
 20
-6.79389
 30
0.0
 10
-5.59226
 20
-6.79389
 30
0.0
 10
-5.59226
 20
-6.79389
 30
0.0
 10
-6.05613
 20
-6.79389
 30
0.0
 10
-6.05613
 20
-6.79389
 30
0.0
 10
-6.05613
 20
-6.79389
 30
0.0
 10
-6.05613
 20
-6.79389
 30
0.0
 10
-6.05613
 20
-7.42641
 30
0.0
 10
-6.05613
 20
-7.42641
 30
0.0
 10
-6.05613
 20
-7.42641
 30
0.0
 10
-6.05613
 20
-7.42641
 30
0.0
 10
-6.81492
 20
-7.42641
 30
0.0
 10
-6.81492
 20
-7.42641
 30
0.0
  0
SPLINE
  5
59
330
1F
100
AcDbEntity
  8
Layer 1
 62
   242
100
AcDbSpline
210
0.0
220
0.0
230
1.0
 70
    11
 71
     3
 72
    36
 73
    32
 74
     0
 42
0.0000000001
 43
0.0000000001
 12
1.0
 22
0.0
 32
0.0
 13
1.0
 23
0.0
 33
0.0
 40
0.0
 40
0.0
 40
0.0
 40
0.0
 40
0.1111111111111111
 40
0.1111111111111111
 40
0.1111111111111111
 40
0.1111111111111111
 40
0.2222222222222222
 40
0.2222222222222222
 40
0.2222222222222222
 40
0.2222222222222222
 40
0.3333333333333333
 40
0.3333333333333333
 40
0.3333333333333333
 40
0.3333333333333333
 40
0.4444444444444444
 40
0.4444444444444444
 40
0.4444444444444444
 40
0.4444444444444444
 40
0.5555555555555556
 40
0.5555555555555556
 40
0.5555555555555556
 40
0.5555555555555556
 40
0.6666666666666666
 40
0.6666666666666666
 40
0.6666666666666666
 40
0.6666666666666666
 40
0.7777777777777778
 40
0.7777777777777778
 40
0.7777777777777778
 40
0.7777777777777778
 40
1.0
 40
1.0
 40
1.0
 40
1.0
 10
-7.0984
 20
-7.91565
 30
0.0
 10
-7.0984
 20
-7.91565
 30
0.0
 10
-7.0984
 20
-7.42641
 30
0.0
 10
-7.0984
 20
-7.42641
 30
0.0
 10
-7.0984
 20
-7.42641
 30
0.0
 10
-7.0984
 20
-7.42641
 30
0.0
 10
-7.83659
 20
-7.42641
 30
0.0
 10
-7.83659
 20
-7.42641
 30
0.0
 10
-7.83659
 20
-7.42641
 30
0.0
 10
-7.83659
 20
-7.42641
 30
0.0
 10
-7.83659
 20
-6.79389
 30
0.0
 10
-7.83659
 20
-6.79389
 30
0.0
 10
-7.83659
 20
-6.79389
 30
0.0
 10
-7.83659
 20
-6.79389
 30
0.0
 10
-8.30046
 20
-6.79389
 30
0.0
 10
-8.30046
 20
-6.79389
 30
0.0
 10
-8.30046
 20
-6.79389
 30
0.0
 10
-8.30046
 20
-6.79389
 30
0.0
 10
-8.30046
 20
-8.52869
 30
0.0
 10
-8.30046
 20
-8.52869
 30
0.0
 10
-8.30046
 20
-8.52869
 30
0.0
 10
-8.30046
 20
-8.52869
 30
0.0
 10
-7.83659
 20
-8.52869
 30
0.0
 10
-7.83659
 20
-8.52869
 30
0.0
 10
-7.83659
 20
-8.52869
 30
0.0
 10
-7.83659
 20
-8.52869
 30
0.0
 10
-7.83659
 20
-7.91565
 30
0.0
 10
-7.83659
 20
-7.91565
 30
0.0
 10
-7.83659
 20
-7.91565
 30
0.0
 10
-7.83659
 20
-7.91565
 30
0.0
 10
-7.0984
 20
-7.91565
 30
0.0
 10
-7.0984
 20
-7.91565
 30
0.0
  0
SPLINE
  5
5A
330
1F
100
AcDbEntity
  8
Layer 1
 62
   242
100
AcDbSpline
210
0.0
220
0.0
230
1.0
 70
    11
 71
     3
 72
    20
 73
    16
 74
     0
 42
0.0000000001
 43
0.0000000001
 12
1.0
 22
0.0
 32
0.0
 13
1.0
 23
0.0
 33
0.0
 40
0.0
 40
0.0
 40
0.0
 40
0.0
 40
0.2
 40
0.2
 40
0.2
 40
0.2
 40
0.4
 40
0.4
 40
0.4
 40
0.4
 40
0.6
 40
0.6
 40
0.6
 40
0.6
 40
1.0
 40
1.0
 40
1.0
 40
1.0
 10
-6.16951
 20
-10.09615
 30
0.0
 10
-6.16951
 20
-10.09615
 30
0.0
 10
-6.16951
 20
-9.90889
 30
0.0
 10
-6.16951
 20
-9.90889
 30
0.0
 10
-6.16951
 20
-9.90889
 30
0.0
 10
-6.16951
 20
-9.90889
 30
0.0
 10
-7.72321
 20
-9.90889
 30
0.0
 10
-7.72321
 20
-9.90889
 30
0.0
 10
-7.72321
 20
-9.90889
 30
0.0
 10
-7.72321
 20
-9.90889
 30
0.0
 10
-7.72321
 20
-10.09615
 30
0.0
 10
-7.72321
 20
-10.09615
 30
0.0
 10
-7.72321
 20
-10.09615
 30
0.0
 10
-7.72321
 20
-10.09615
 30
0.0
 10
-6.16951
 20
-10.09615
 30
0.0
 10
-6.16951
 20
-10.09615
 30
0.0
  0
SPLINE
  5
5B
330
1F
100
AcDbEntity
  8
Layer 1
 62
   242
100
AcDbSpline
210
0.0
220
0.0
230
1.0
 70
    11
 71
     3
 72
    36
 73
    32
 74
     0
 42
0.0000000001
 43
0.0000000001
 12
1.0
 22
0.0
 32
0.0
 13
1.0
 23
0.0
 33
0.0
 40
0.0
 40
0.0
 40
0.0
 40
0.0
 40
0.1111111111111111
 40
0.1111111111111111
 40
0.1111111111111111
 40
0.1111111111111111
 40
0.2222222222222222
 40
0.2222222222222222
 40
0.2222222222222222
 40
0.2222222222222222
 40
0.3333333333333333
 40
0.3333333333333333
 40
0.3333333333333333
 40
0.3333333333333333
 40
0.4444444444444444
 40
0.4444444444444444
 40
0.4444444444444444
 40
0.4444444444444444
 40
0.5555555555555556
 40
0.5555555555555556
 40
0.5555555555555556
 40
0.5555555555555556
 40
0.6666666666666666
 40
0.6666666666666666
 40
0.6666666666666666
 40
0.6666666666666666
 40
0.7777777777777778
 40
0.7777777777777778
 40
0.7777777777777778
 40
0.7777777777777778
 40
1.0
 40
1.0
 40
1.0
 40
1.0
 10
-8.00667
 20
-10.09615
 30
0.0
 10
-8.00667
 20
-10.09615
 30
0.0
 10
-8.00667
 20
-9.69547
 30
0.0
 10
-8.00667
 20
-9.69547
 30
0.0
 10
-8.00667
 20
-9.69547
 30
0.0
 10
-8.00667
 20
-9.69547
 30
0.0
 10
-5.88605
 20
-9.69547
 30
0.0
 10
-5.88605
 20
-9.69547
 30
0.0
 10
-5.88605
 20
-9.69547
 30
0.0
 10
-5.88605
 20
-9.69547
 30
0.0
 10
-5.88605
 20
-10.09615
 30
0.0
 10
-5.88605
 20
-10.09615
 30
0.0
 10
-5.88605
 20
-10.09615
 30
0.0
 10
-5.88605
 20
-10.09615
 30
0.0
 10
-5.59226
 20
-10.09615
 30
0.0
 10
-5.59226
 20
-10.09615
 30
0.0
 10
-5.59226
 20
-10.09615
 30
0.0
 10
-5.59226
 20
-10.09615
 30
0.0
 10
-5.59226
 20
-9.50755
 30
0.0
 10
-5.59226
 20
-9.50755
 30
0.0
 10
-5.59226
 20
-9.50755
 30
0.0
 10
-5.59226
 20
-9.50755
 30
0.0
 10
-8.30046
 20
-9.50755
 30
0.0
 10
-8.30046
 20
-9.50755
 30
0.0
 10
-8.30046
 20
-9.50755
 30
0.0
 10
-8.30046
 20
-9.50755
 30
0.0
 10
-8.30046
 20
-10.09615
 30
0.0
 10
-8.30046
 20
-10.09615
 30
0.0
 10
-8.30046
 20
-10.09615
 30
0.0
 10
-8.30046
 20
-10.09615
 30
0.0
 10
-8.00667
 20
-10.09615
 30
0.0
 10
-8.00667
 20
-10.09615
 30
0.0
  0
SPLINE
  5
5C
330
1F
100
AcDbEntity
  8
Layer 1
 62
   242
100
AcDbSpline
210
0.0
220
0.0
230
1.0
 70
    11
 71
     3
 72
    20
 73
    16
 74
     0
 42
0.0000000001
 43
0.0000000001
 12
1.0
 22
0.0
 32
0.0
 13
1.0
 23
0.0
 33
0.0
 40
0.0
 40
0.0
 40
0.0
 40
0.0
 40
0.2
 40
0.2
 40
0.2
 40
0.2
 40
0.4
 40
0.4
 40
0.4
 40
0.4
 40
0.6
 40
0.6
 40
0.6
 40
0.6
 40
1.0
 40
1.0
 40
1.0
 40
1.0
 10
-8.96486
 20
-4.04978
 30
0.0
 10
-8.96486
 20
-4.04978
 30
0.0
 10
-8.58392
 20
-4.04978
 30
0.0
 10
-8.58392
 20
-4.04978
 30
0.0
 10
-8.58392
 20
-4.04978
 30
0.0
 10
-8.58392
 20
-4.04978
 30
0.0
 10
-8.58392
 20
-5.20232
 30
0.0
 10
-8.58392
 20
-5.20232
 30
0.0
 10
-8.58392
 20
-5.20232
 30
0.0
 10
-8.58392
 20
-5.20232
 30
0.0
 10
-8.96486
 20
-5.20232
 30
0.0
 10
-8.96486
 20
-5.20232
 30
0.0
 10
-8.96486
 20
-5.20232
 30
0.0
 10
-8.96486
 20
-5.20232
 30
0.0
 10
-8.96486
 20
-4.04978
 30
0.0
 10
-8.96486
 20
-4.04978
 30
0.0
  0
SPLINE
  5
5D
330
1F
100
AcDbEntity
  8
Layer 1
 62
   242
100
AcDbSpline
210
0.0
220
0.0
230
1.0
 70
    11
 71
     3
 72
    36
 73
    32
 74
     0
 42
0.0000000001
 43
0.0000000001
 12
1.0
 22
0.0
 32
0.0
 13
1.0
 23
0.0
 33
0.0
 40
0.0
 40
0.0
 40
0.0
 40
0.0
 40
0.1111111111111111
 40
0.1111111111111111
 40
0.1111111111111111
 40
0.1111111111111111
 40
0.2222222222222222
 40
0.2222222222222222
 40
0.2222222222222222
 40
0.2222222222222222
 40
0.3333333333333333
 40
0.3333333333333333
 40
0.3333333333333333
 40
0.3333333333333333
 40
0.4444444444444444
 40
0.4444444444444444
 40
0.4444444444444444
 40
0.4444444444444444
 40
0.5555555555555556
 40
0.5555555555555556
 40
0.5555555555555556
 40
0.5555555555555556
 40
0.6666666666666666
 40
0.6666666666666666
 40
0.6666666666666666
 40
0.6666666666666666
 40
0.7777777777777778
 40
0.7777777777777778
 40
0.7777777777777778
 40
0.7777777777777778
 40
1.0
 40
1.0
 40
1.0
 40
1.0
 10
-8.96486
 20
-5.41576
 30
0.0
 10
-8.96486
 20
-5.41576
 30
0.0
 10
-8.58392
 20
-5.41576
 30
0.0
 10
-8.58392
 20
-5.41576
 30
0.0
 10
-8.58392
 20
-5.41576
 30
0.0
 10
-8.58392
 20
-5.41576
 30
0.0
 10
-8.58392
 20
-6.04901
 30
0.0
 10
-8.58392
 20
-6.04901
 30
0.0
 10
-8.58392
 20
-6.04901
 30
0.0
 10
-8.58392
 20
-6.04901
 30
0.0
 10
-7.83659
 20
-6.04901
 30
0.0
 10
-7.83659
 20
-6.04901
 30
0.0
 10
-7.83659
 20
-6.04901
 30
0.0
 10
-7.83659
 20
-6.04901
 30
0.0
 10
-7.83659
 20
-6.58046
 30
0.0
 10
-7.83659
 20
-6.58046
 30
0.0
 10
-7.83659
 20
-6.58046
 30
0.0
 10
-7.83659
 20
-6.58046
 30
0.0
 10
-8.58392
 20
-6.58046
 30
0.0
 10
-8.58392
 20
-6.58046
 30
0.0
 10
-8.58392
 20
-6.58046
 30
0.0
 10
-8.58392
 20
-6.58046
 30
0.0
 10
-8.58392
 20
-7.21455
 30
0.0
 10
-8.58392
 20
-7.21455
 30
0.0
 10
-8.58392
 20
-7.21455
 30
0.0
 10
-8.58392
 20
-7.21455
 30
0.0
 10
-8.96486
 20
-7.21455
 30
0.0
 10
-8.96486
 20
-7.21455
 30
0.0
 10
-8.96486
 20
-7.21455
 30
0.0
 10
-8.96486
 20
-7.21455
 30
0.0
 10
-8.96486
 20
-5.41576
 30
0.0
 10
-8.96486
 20
-5.41576
 30
0.0
  0
SPLINE
  5
5E
330
1F
100
AcDbEntity
  8
Layer 1
 62
   242
100
AcDbSpline
210
0.0
220
0.0
230
1.0
 70
    11
 71
     3
 72
    20
 73
    16
 74
     0
 42
0.0000000001
 43
0.0000000001
 12
1.0
 22
0.0
 32
0.0
 13
1.0
 23
0.0
 33
0.0
 40
0.0
 40
0.0
 40
0.0
 40
0.0
 40
0.2
 40
0.2
 40
0.2
 40
0.2
 40
0.4
 40
0.4
 40
0.4
 40
0.4
 40
0.6
 40
0.6
 40
0.6
 40
0.6
 40
1.0
 40
1.0
 40
1.0
 40
1.0
 10
-8.96486
 20
-7.42799
 30
0.0
 10
-8.96486
 20
-7.42799
 30
0.0
 10
-8.58392
 20
-7.42799
 30
0.0
 10
-8.58392
 20
-7.42799
 30
0.0
 10
-8.58392
 20
-7.42799
 30
0.0
 10
-8.58392
 20
-7.42799
 30
0.0
 10
-8.58392
 20
-7.88208
 30
0.0
 10
-8.58392
 20
-7.88208
 30
0.0
 10
-8.58392
 20
-7.88208
 30
0.0
 10
-8.58392
 20
-7.88208
 30
0.0
 10
-8.96486
 20
-7.88208
 30
0.0
 10
-8.96486
 20
-7.88208
 30
0.0
 10
-8.96486
 20
-7.88208
 30
0.0
 10
-8.96486
 20
-7.88208
 30
0.0
 10
-8.96486
 20
-7.42799
 30
0.0
 10
-8.96486
 20
-7.42799
 30
0.0
  0
SPLINE
  5
5F
330
1F
100
AcDbEntity
  8
Layer 1
 62
   242
100
AcDbSpline
210
0.0
220
0.0
230
1.0
 70
    11
 71
     3
 72
    36
 73
    32
 74
     0
 42
0.0000000001
 43
0.0000000001
 12
1.0
 22
0.0
 32
0.0
 13
1.0
 23
0.0
 33
0.0
 40
0.0
 40
0.0
 40
0.0
 40
0.0
 40
0.1111111111111111
 40
0.1111111111111111
 40
0.1111111111111111
 40
0.1111111111111111
 40
0.2222222222222222
 40
0.2222222222222222
 40
0.2222222222222222
 40
0.2222222222222222
 40
0.3333333333333333
 40
0.3333333333333333
 40
0.3333333333333333
 40
0.3333333333333333
 40
0.4444444444444444
 40
0.4444444444444444
 40
0.4444444444444444
 40
0.4444444444444444
 40
0.5555555555555556
 40
0.5555555555555556
 40
0.5555555555555556
 40
0.5555555555555556
 40
0.6666666666666666
 40
0.6666666666666666
 40
0.6666666666666666
 40
0.6666666666666666
 40
0.7777777777777778
 40
0.7777777777777778
 40
0.7777777777777778
 40
0.7777777777777778
 40
1.0
 40
1.0
 40
1.0
 40
1.0
 10
-8.96486
 20
-8.09552
 30
0.0
 10
-8.96486
 20
-8.09552
 30
0.0
 10
-8.58392
 20
-8.09552
 30
0.0
 10
-8.58392
 20
-8.09552
 30
0.0
 10
-8.58392
 20
-8.09552
 30
0.0
 10
-8.58392
 20
-8.09552
 30
0.0
 10
-8.58392
 20
-8.74214
 30
0.0
 10
-8.58392
 20
-8.74214
 30
0.0
 10
-8.58392
 20
-8.74214
 30
0.0
 10
-8.58392
 20
-8.74214
 30
0.0
 10
-7.83659
 20
-8.74214
 30
0.0
 10
-7.83659
 20
-8.74214
 30
0.0
 10
-7.83659
 20
-8.74214
 30
0.0
 10
-7.83659
 20
-8.74214
 30
0.0
 10
-7.83659
 20
-9.29411
 30
0.0
 10
-7.83659
 20
-9.29411
 30
0.0
 10
-7.83659
 20
-9.29411
 30
0.0
 10
-7.83659
 20
-9.29411
 30
0.0
 10
-8.58392
 20
-9.29411
 30
0.0
 10
-8.58392
 20
-9.29411
 30
0.0
 10
-8.58392
 20
-9.29411
 30
0.0
 10
-8.58392
 20
-9.29411
 30
0.0
 10
-8.58392
 20
-10.09615
 30
0.0
 10
-8.58392
 20
-10.09615
 30
0.0
 10
-8.58392
 20
-10.09615
 30
0.0
 10
-8.58392
 20
-10.09615
 30
0.0
 10
-8.96486
 20
-10.09615
 30
0.0
 10
-8.96486
 20
-10.09615
 30
0.0
 10
-8.96486
 20
-10.09615
 30
0.0
 10
-8.96486
 20
-10.09615
 30
0.0
 10
-8.96486
 20
-8.09552
 30
0.0
 10
-8.96486
 20
-8.09552
 30
0.0
  0
SPLINE
  5
60
330
1F
100
AcDbEntity
  8
Layer 1
 62
   242
100
AcDbSpline
210
0.0
220
0.0
230
1.0
 70
    11
 71
     3
 72
    36
 73
    32
 74
     0
 42
0.0000000001
 43
0.0000000001
 12
1.0
 22
0.0
 32
0.0
 13
1.0
 23
0.0
 33
0.0
 40
0.0
 40
0.0
 40
0.0
 40
0.0
 40
0.1111111111111111
 40
0.1111111111111111
 40
0.1111111111111111
 40
0.1111111111111111
 40
0.2222222222222222
 40
0.2222222222222222
 40
0.2222222222222222
 40
0.2222222222222222
 40
0.3333333333333333
 40
0.3333333333333333
 40
0.3333333333333333
 40
0.3333333333333333
 40
0.4444444444444444
 40
0.4444444444444444
 40
0.4444444444444444
 40
0.4444444444444444
 40
0.5555555555555556
 40
0.5555555555555556
 40
0.5555555555555556
 40
0.5555555555555556
 40
0.6666666666666666
 40
0.6666666666666666
 40
0.6666666666666666
 40
0.6666666666666666
 40
0.7777777777777778
 40
0.7777777777777778
 40
0.7777777777777778
 40
0.7777777777777778
 40
1.0
 40
1.0
 40
1.0
 40
1.0
 10
-5.30879
 20
-10.09615
 30
0.0
 10
-5.30879
 20
-10.09615
 30
0.0
 10
-5.30879
 20
-9.29411
 30
0.0
 10
-5.30879
 20
-9.29411
 30
0.0
 10
-5.30879
 20
-9.29411
 30
0.0
 10
-5.30879
 20
-9.29411
 30
0.0
 10
-6.05613
 20
-9.29411
 30
0.0
 10
-6.05613
 20
-9.29411
 30
0.0
 10
-6.05613
 20
-9.29411
 30
0.0
 10
-6.05613
 20
-9.29411
 30
0.0
 10
-6.05613
 20
-8.74214
 30
0.0
 10
-6.05613
 20
-8.74214
 30
0.0
 10
-6.05613
 20
-8.74214
 30
0.0
 10
-6.05613
 20
-8.74214
 30
0.0
 10
-5.30879
 20
-8.74214
 30
0.0
 10
-5.30879
 20
-8.74214
 30
0.0
 10
-5.30879
 20
-8.74214
 30
0.0
 10
-5.30879
 20
-8.74214
 30
0.0
 10
-5.30879
 20
-8.09552
 30
0.0
 10
-5.30879
 20
-8.09552
 30
0.0
 10
-5.30879
 20
-8.09552
 30
0.0
 10
-5.30879
 20
-8.09552
 30
0.0
 10
-4.92859
 20
-8.09552
 30
0.0
 10
-4.92859
 20
-8.09552
 30
0.0
 10
-4.92859
 20
-8.09552
 30
0.0
 10
-4.92859
 20
-8.09552
 30
0.0
 10
-4.92859
 20
-10.09615
 30
0.0
 10
-4.92859
 20
-10.09615
 30
0.0
 10
-4.92859
 20
-10.09615
 30
0.0
 10
-4.92859
 20
-10.09615
 30
0.0
 10
-5.30879
 20
-10.09615
 30
0.0
 10
-5.30879
 20
-10.09615
 30
0.0
  0
SPLINE
  5
61
330
1F
100
AcDbEntity
  8
Layer 1
 62
   242
100
AcDbSpline
210
0.0
220
0.0
230
1.0
 70
    11
 71
     3
 72
    20
 73
    16
 74
     0
 42
0.0000000001
 43
0.0000000001
 12
1.0
 22
0.0
 32
0.0
 13
1.0
 23
0.0
 33
0.0
 40
0.0
 40
0.0
 40
0.0
 40
0.0
 40
0.2
 40
0.2
 40
0.2
 40
0.2
 40
0.4
 40
0.4
 40
0.4
 40
0.4
 40
0.6
 40
0.6
 40
0.6
 40
0.6
 40
1.0
 40
1.0
 40
1.0
 40
1.0
 10
-4.92859
 20
-7.88208
 30
0.0
 10
-4.92859
 20
-7.88208
 30
0.0
 10
-5.30879
 20
-7.88208
 30
0.0
 10
-5.30879
 20
-7.88208
 30
0.0
 10
-5.30879
 20
-7.88208
 30
0.0
 10
-5.30879
 20
-7.88208
 30
0.0
 10
-5.30879
 20
-7.42799
 30
0.0
 10
-5.30879
 20
-7.42799
 30
0.0
 10
-5.30879
 20
-7.42799
 30
0.0
 10
-5.30879
 20
-7.42799
 30
0.0
 10
-4.92859
 20
-7.42799
 30
0.0
 10
-4.92859
 20
-7.42799
 30
0.0
 10
-4.92859
 20
-7.42799
 30
0.0
 10
-4.92859
 20
-7.42799
 30
0.0
 10
-4.92859
 20
-7.88208
 30
0.0
 10
-4.92859
 20
-7.88208
 30
0.0
  0
SPLINE
  5
62
330
1F
100
AcDbEntity
  8
Layer 1
 62
   242
100
AcDbSpline
210
0.0
220
0.0
230
1.0
 70
    11
 71
     3
 72
    36
 73
    32
 74
     0
 42
0.0000000001
 43
0.0000000001
 12
1.0
 22
0.0
 32
0.0
 13
1.0
 23
0.0
 33
0.0
 40
0.0
 40
0.0
 40
0.0
 40
0.0
 40
0.1111111111111111
 40
0.1111111111111111
 40
0.1111111111111111
 40
0.1111111111111111
 40
0.2222222222222222
 40
0.2222222222222222
 40
0.2222222222222222
 40
0.2222222222222222
 40
0.3333333333333333
 40
0.3333333333333333
 40
0.3333333333333333
 40
0.3333333333333333
 40
0.4444444444444444
 40
0.4444444444444444
 40
0.4444444444444444
 40
0.4444444444444444
 40
0.5555555555555556
 40
0.5555555555555556
 40
0.5555555555555556
 40
0.5555555555555556
 40
0.6666666666666666
 40
0.6666666666666666
 40
0.6666666666666666
 40
0.6666666666666666
 40
0.7777777777777778
 40
0.7777777777777778
 40
0.7777777777777778
 40
0.7777777777777778
 40
1.0
 40
1.0
 40
1.0
 40
1.0
 10
-4.92859
 20
-7.21455
 30
0.0
 10
-4.92859
 20
-7.21455
 30
0.0
 10
-5.30879
 20
-7.21455
 30
0.0
 10
-5.30879
 20
-7.21455
 30
0.0
 10
-5.30879
 20
-7.21455
 30
0.0
 10
-5.30879
 20
-7.21455
 30
0.0
 10
-5.30879
 20
-6.58046
 30
0.0
 10
-5.30879
 20
-6.58046
 30
0.0
 10
-5.30879
 20
-6.58046
 30
0.0
 10
-5.30879
 20
-6.58046
 30
0.0
 10
-6.05613
 20
-6.58046
 30
0.0
 10
-6.05613
 20
-6.58046
 30
0.0
 10
-6.05613
 20
-6.58046
 30
0.0
 10
-6.05613
 20
-6.58046
 30
0.0
 10
-6.05613
 20
-6.04901
 30
0.0
 10
-6.05613
 20
-6.04901
 30
0.0
 10
-6.05613
 20
-6.04901
 30
0.0
 10
-6.05613
 20
-6.04901
 30
0.0
 10
-5.30879
 20
-6.04901
 30
0.0
 10
-5.30879
 20
-6.04901
 30
0.0
 10
-5.30879
 20
-6.04901
 30
0.0
 10
-5.30879
 20
-6.04901
 30
0.0
 10
-5.30879
 20
-5.41576
 30
0.0
 10
-5.30879
 20
-5.41576
 30
0.0
 10
-5.30879
 20
-5.41576
 30
0.0
 10
-5.30879
 20
-5.41576
 30
0.0
 10
-4.92859
 20
-5.41576
 30
0.0
 10
-4.92859
 20
-5.41576
 30
0.0
 10
-4.92859
 20
-5.41576
 30
0.0
 10
-4.92859
 20
-5.41576
 30
0.0
 10
-4.92859
 20
-7.21455
 30
0.0
 10
-4.92859
 20
-7.21455
 30
0.0
  0
SPLINE
  5
63
330
1F
100
AcDbEntity
  8
Layer 1
 62
   242
100
AcDbSpline
210
0.0
220
0.0
230
1.0
 70
    11
 71
     3
 72
    20
 73
    16
 74
     0
 42
0.0000000001
 43
0.0000000001
 12
1.0
 22
0.0
 32
0.0
 13
1.0
 23
0.0
 33
0.0
 40
0.0
 40
0.0
 40
0.0
 40
0.0
 40
0.2
 40
0.2
 40
0.2
 40
0.2
 40
0.4
 40
0.4
 40
0.4
 40
0.4
 40
0.6
 40
0.6
 40
0.6
 40
0.6
 40
1.0
 40
1.0
 40
1.0
 40
1.0
 10
-4.92859
 20
-5.20232
 30
0.0
 10
-4.92859
 20
-5.20232
 30
0.0
 10
-5.30879
 20
-5.20232
 30
0.0
 10
-5.30879
 20
-5.20232
 30
0.0
 10
-5.30879
 20
-5.20232
 30
0.0
 10
-5.30879
 20
-5.20232
 30
0.0
 10
-5.30879
 20
-4.04978
 30
0.0
 10
-5.30879
 20
-4.04978
 30
0.0
 10
-5.30879
 20
-4.04978
 30
0.0
 10
-5.30879
 20
-4.04978
 30
0.0
 10
-4.92859
 20
-4.04978
 30
0.0
 10
-4.92859
 20
-4.04978
 30
0.0
 10
-4.92859
 20
-4.04978
 30
0.0
 10
-4.92859
 20
-4.04978
 30
0.0
 10
-4.92859
 20
-5.20232
 30
0.0
 10
-4.92859
 20
-5.20232
 30
0.0
  0
SPLINE
  5
64
330
1F
100
AcDbEntity
  8
Layer 1
 62
   242
100
AcDbSpline
210
0.0
220
0.0
230
1.0
 70
    11
 71
     3
 72
    20
 73
    16
 74
     0
 42
0.0000000001
 43
0.0000000001
 12
1.0
 22
0.0
 32
0.0
 13
1.0
 23
0.0
 33
0.0
 40
0.0
 40
0.0
 40
0.0
 40
0.0
 40
0.2
 40
0.2
 40
0.2
 40
0.2
 40
0.4
 40
0.4
 40
0.4
 40
0.4
 40
0.6
 40
0.6
 40
0.6
 40
0.6
 40
1.0
 40
1.0
 40
1.0
 40
1.0
 10
-4.92859
 20
-3.83634
 30
0.0
 10
-4.92859
 20
-3.83634
 30
0.0
 10
-5.30879
 20
-3.83634
 30
0.0
 10
-5.30879
 20
-3.83634
 30
0.0
 10
-5.30879
 20
-3.83634
 30
0.0
 10
-5.30879
 20
-3.83634
 30
0.0
 10
-5.30879
 20
-2.47161
 30
0.0
 10
-5.30879
 20
-2.47161
 30
0.0
 10
-5.30879
 20
-2.47161
 30
0.0
 10
-5.30879
 20
-2.47161
 30
0.0
 10
-4.92859
 20
-2.47161
 30
0.0
 10
-4.92859
 20
-2.47161
 30
0.0
 10
-4.92859
 20
-2.47161
 30
0.0
 10
-4.92859
 20
-2.47161
 30
0.0
 10
-4.92859
 20
-3.83634
 30
0.0
 10
-4.92859
 20
-3.83634
 30
0.0
  0
SPLINE
  5
65
330
1F
100
AcDbEntity
  8
Layer 1
 62
   242
100
AcDbSpline
210
0.0
220
0.0
230
1.0
 70
    11
 71
     3
 72
    20
 73
    16
 74
     0
 42
0.0000000001
 43
0.0000000001
 12
1.0
 22
0.0
 32
0.0
 13
1.0
 23
0.0
 33
0.0
 40
0.0
 40
0.0
 40
0.0
 40
0.0
 40
0.2
 40
0.2
 40
0.2
 40
0.2
 40
0.4
 40
0.4
 40
0.4
 40
0.4
 40
0.6
 40
0.6
 40
0.6
 40
0.6
 40
1.0
 40
1.0
 40
1.0
 40
1.0
 10
-4.92859
 20
-2.25817
 30
0.0
 10
-4.92859
 20
-2.25817
 30
0.0
 10
-5.30879
 20
-2.25817
 30
0.0
 10
-5.30879
 20
-2.25817
 30
0.0
 10
-5.30879
 20
-2.25817
 30
0.0
 10
-5.30879
 20
-2.25817
 30
0.0
 10
-5.30879
 20
-1.10561
 30
0.0
 10
-5.30879
 20
-1.10561
 30
0.0
 10
-5.30879
 20
-1.10561
 30
0.0
 10
-5.30879
 20
-1.10561
 30
0.0
 10
-4.92859
 20
-1.10561
 30
0.0
 10
-4.92859
 20
-1.10561
 30
0.0
 10
-4.92859
 20
-1.10561
 30
0.0
 10
-4.92859
 20
-1.10561
 30
0.0
 10
-4.92859
 20
-2.25817
 30
0.0
 10
-4.92859
 20
-2.25817
 30
0.0
  0
SPLINE
  5
66
330
1F
100
AcDbEntity
  8
Layer 1
 62
   242
100
AcDbSpline
210
0.0
220
0.0
230
1.0
 70
    11
 71
     3
 72
    44
 73
    40
 74
     0
 42
0.0000000001
 43
0.0000000001
 12
1.0
 22
0.0
 32
0.0
 13
1.0
 23
0.0
 33
0.0
 40
0.0
 40
0.0
 40
0.0
 40
0.0
 40
0.0909090909090909
 40
0.0909090909090909
 40
0.0909090909090909
 40
0.0909090909090909
 40
0.1818181818181818
 40
0.1818181818181818
 40
0.1818181818181818
 40
0.1818181818181818
 40
0.2727272727272727
 40
0.2727272727272727
 40
0.2727272727272727
 40
0.2727272727272727
 40
0.3636363636363636
 40
0.3636363636363636
 40
0.3636363636363636
 40
0.3636363636363636
 40
0.4545454545454545
 40
0.4545454545454545
 40
0.4545454545454545
 40
0.4545454545454545
 40
0.5454545454545454
 40
0.5454545454545454
 40
0.5454545454545454
 40
0.5454545454545454
 40
0.6363636363636364
 40
0.6363636363636364
 40
0.6363636363636364
 40
0.6363636363636364
 40
0.7272727272727273
 40
0.7272727272727273
 40
0.7272727272727273
 40
0.7272727272727273
 40
0.8181818181818182
 40
0.8181818181818182
 40
0.8181818181818182
 40
0.8181818181818182
 40
1.0
 40
1.0
 40
1.0
 40
1.0
 10
-4.92859
 20
-0.89218
 30
0.0
 10
-4.92859
 20
-0.89218
 30
0.0
 10
-5.30879
 20
-0.89218
 30
0.0
 10
-5.30879
 20
-0.89218
 30
0.0
 10
-5.30879
 20
-0.89218
 30
0.0
 10
-5.30879
 20
-0.89218
 30
0.0
 10
-5.30879
 20
-0.25892
 30
0.0
 10
-5.30879
 20
-0.25892
 30
0.0
 10
-5.30879
 20
-0.25892
 30
0.0
 10
-5.30879
 20
-0.25892
 30
0.0
 10
-5.30954
 20
-0.25892
 30
0.0
 10
-5.30954
 20
-0.25892
 30
0.0
 10
-5.30954
 20
-0.25892
 30
0.0
 10
-5.30954
 20
-0.25892
 30
0.0
 10
-5.30954
 20
-0.25778
 30
0.0
 10
-5.30954
 20
-0.25778
 30
0.0
 10
-5.30954
 20
-0.25778
 30
0.0
 10
-5.30954
 20
-0.25778
 30
0.0
 10
-6.05613
 20
-0.25778
 30
0.0
 10
-6.05613
 20
-0.25778
 30
0.0
 10
-6.05613
 20
-0.25778
 30
0.0
 10
-6.05613
 20
-0.25778
 30
0.0
 10
-6.05613
 20
0.29251
 30
0.0
 10
-6.05613
 20
0.29251
 30
0.0
 10
-6.05613
 20
0.29251
 30
0.0
 10
-6.05613
 20
0.29251
 30
0.0
 10
-5.30879
 20
0.29251
 30
0.0
 10
-5.30879
 20
0.29251
 30
0.0
 10
-5.30879
 20
0.29251
 30
0.0
 10
-5.30879
 20
0.29251
 30
0.0
 10
-5.30879
 20
0.92661
 30
0.0
 10
-5.30879
 20
0.92661
 30
0.0
 10
-5.30879
 20
0.92661
 30
0.0
 10
-5.30879
 20
0.92661
 30
0.0
 10
-4.92859
 20
0.92661
 30
0.0
 10
-4.92859
 20
0.92661
 30
0.0
 10
-4.92859
 20
0.92661
 30
0.0
 10
-4.92859
 20
0.92661
 30
0.0
 10
-4.92859
 20
-0.89218
 30
0.0
 10
-4.92859
 20
-0.89218
 30
0.0
  0
SPLINE
  5
67
330
1F
100
AcDbEntity
  8
Layer 1
 62
   242
100
AcDbSpline
210
0.0
220
0.0
230
1.0
 70
    11
 71
     3
 72
    20
 73
    16
 74
     0
 42
0.0000000001
 43
0.0000000001
 12
1.0
 22
0.0
 32
0.0
 13
1.0
 23
0.0
 33
0.0
 40
0.0
 40
0.0
 40
0.0
 40
0.0
 40
0.2
 40
0.2
 40
0.2
 40
0.2
 40
0.4
 40
0.4
 40
0.4
 40
0.4
 40
0.6
 40
0.6
 40
0.6
 40
0.6
 40
1.0
 40
1.0
 40
1.0
 40
1.0
 10
-4.92859
 20
1.15424
 30
0.0
 10
-4.92859
 20
1.15424
 30
0.0
 10
-5.30879
 20
1.15424
 30
0.0
 10
-5.30879
 20
1.15424
 30
0.0
 10
-5.30879
 20
1.15424
 30
0.0
 10
-5.30879
 20
1.15424
 30
0.0
 10
-5.30879
 20
1.59414
 30
0.0
 10
-5.30879
 20
1.59414
 30
0.0
 10
-5.30879
 20
1.59414
 30
0.0
 10
-5.30879
 20
1.59414
 30
0.0
 10
-4.92859
 20
1.59414
 30
0.0
 10
-4.92859
 20
1.59414
 30
0.0
 10
-4.92859
 20
1.59414
 30
0.0
 10
-4.92859
 20
1.59414
 30
0.0
 10
-4.92859
 20
1.15424
 30
0.0
 10
-4.92859
 20
1.15424
 30
0.0
  0
SPLINE
  5
68
330
1F
100
AcDbEntity
  8
Layer 1
 62
   242
100
AcDbSpline
210
0.0
220
0.0
230
1.0
 70
    11
 71
     3
 72
    52
 73
    48
 74
     0
 42
0.0000000001
 43
0.0000000001
 12
1.0
 22
0.0
 32
0.0
 13
1.0
 23
0.0
 33
0.0
 40
0.0
 40
0.0
 40
0.0
 40
0.0
 40
0.0769230769230769
 40
0.0769230769230769
 40
0.0769230769230769
 40
0.0769230769230769
 40
0.1538461538461539
 40
0.1538461538461539
 40
0.1538461538461539
 40
0.1538461538461539
 40
0.2307692307692308
 40
0.2307692307692308
 40
0.2307692307692308
 40
0.2307692307692308
 40
0.3076923076923077
 40
0.3076923076923077
 40
0.3076923076923077
 40
0.3076923076923077
 40
0.3846153846153846
 40
0.3846153846153846
 40
0.3846153846153846
 40
0.3846153846153846
 40
0.4615384615384616
 40
0.4615384615384616
 40
0.4615384615384616
 40
0.4615384615384616
 40
0.5384615384615384
 40
0.5384615384615384
 40
0.5384615384615384
 40
0.5384615384615384
 40
0.6153846153846154
 40
0.6153846153846154
 40
0.6153846153846154
 40
0.6153846153846154
 40
0.6923076923076923
 40
0.6923076923076923
 40
0.6923076923076923
 40
0.6923076923076923
 40
0.7692307692307693
 40
0.7692307692307693
 40
0.7692307692307693
 40
0.7692307692307693
 40
0.8461538461538461
 40
0.8461538461538461
 40
0.8461538461538461
 40
0.8461538461538461
 40
1.0
 40
1.0
 40
1.0
 40
1.0
 10
-4.92859
 20
1.82177
 30
0.0
 10
-4.92859
 20
1.82177
 30
0.0
 10
-5.30879
 20
1.82177
 30
0.0
 10
-5.30879
 20
1.82177
 30
0.0
 10
-5.30879
 20
1.82177
 30
0.0
 10
-5.30879
 20
1.82177
 30
0.0
 10
-5.30879
 20
2.45419
 30
0.0
 10
-5.30879
 20
2.45419
 30
0.0
 10
-5.30879
 20
2.45419
 30
0.0
 10
-5.30879
 20
2.45419
 30
0.0
 10
-5.30954
 20
2.45419
 30
0.0
 10
-5.30954
 20
2.45419
 30
0.0
 10
-5.30954
 20
2.45419
 30
0.0
 10
-5.30954
 20
2.45419
 30
0.0
 10
-5.30954
 20
2.45587
 30
0.0
 10
-5.30954
 20
2.45587
 30
0.0
 10
-5.30954
 20
2.45587
 30
0.0
 10
-5.30954
 20
2.45587
 30
0.0
 10
-6.05613
 20
2.45587
 30
0.0
 10
-6.05613
 20
2.45587
 30
0.0
 10
-6.05613
 20
2.45587
 30
0.0
 10
-6.05613
 20
2.45587
 30
0.0
 10
-6.05613
 20
3.00616
 30
0.0
 10
-6.05613
 20
3.00616
 30
0.0
 10
-6.05613
 20
3.00616
 30
0.0
 10
-6.05613
 20
3.00616
 30
0.0
 10
-5.30879
 20
3.00616
 30
0.0
 10
-5.30879
 20
3.00616
 30
0.0
 10
-5.30879
 20
3.00616
 30
0.0
 10
-5.30879
 20
3.00616
 30
0.0
 10
-5.30879
 20
3.59135
 30
0.0
 10
-5.30879
 20
3.59135
 30
0.0
 10
-5.30879
 20
3.59135
 30
0.0
 10
-5.30879
 20
3.59135
 30
0.0
 10
-5.30954
 20
3.59135
 30
0.0
 10
-5.30954
 20
3.59135
 30
0.0
 10
-5.30954
 20
3.59135
 30
0.0
 10
-5.30954
 20
3.59135
 30
0.0
 10
-5.30954
 20
3.64056
 30
0.0
 10
-5.30954
 20
3.64056
 30
0.0
 10
-5.30954
 20
3.64056
 30
0.0
 10
-5.30954
 20
3.64056
 30
0.0
 10
-4.92859
 20
3.64056
 30
0.0
 10
-4.92859
 20
3.64056
 30
0.0
 10
-4.92859
 20
3.64056
 30
0.0
 10
-4.92859
 20
3.64056
 30
0.0
 10
-4.92859
 20
1.82177
 30
0.0
 10
-4.92859
 20
1.82177
 30
0.0
  0
SPLINE
  5
69
330
1F
100
AcDbEntity
  8
Layer 1
 62
   242
100
AcDbSpline
210
0.0
220
0.0
230
1.0
 70
    11
 71
     3
 72
    20
 73
    16
 74
     0
 42
0.0000000001
 43
0.0000000001
 12
1.0
 22
0.0
 32
0.0
 13
1.0
 23
0.0
 33
0.0
 40
0.0
 40
0.0
 40
0.0
 40
0.0
 40
0.2
 40
0.2
 40
0.2
 40
0.2
 40
0.4
 40
0.4
 40
0.4
 40
0.4
 40
0.6
 40
0.6
 40
0.6
 40
0.6
 40
1.0
 40
1.0
 40
1.0
 40
1.0
 10
-4.92859
 20
3.85399
 30
0.0
 10
-4.92859
 20
3.85399
 30
0.0
 10
-5.30954
 20
3.85399
 30
0.0
 10
-5.30954
 20
3.85399
 30
0.0
 10
-5.30954
 20
3.85399
 30
0.0
 10
-5.30954
 20
3.85399
 30
0.0
 10
-5.30954
 20
5.00655
 30
0.0
 10
-5.30954
 20
5.00655
 30
0.0
 10
-5.30954
 20
5.00655
 30
0.0
 10
-5.30954
 20
5.00655
 30
0.0
 10
-4.92859
 20
5.00655
 30
0.0
 10
-4.92859
 20
5.00655
 30
0.0
 10
-4.92859
 20
5.00655
 30
0.0
 10
-4.92859
 20
5.00655
 30
0.0
 10
-4.92859
 20
3.85399
 30
0.0
 10
-4.92859
 20
3.85399
 30
0.0
  0
SPLINE
  5
6A
330
1F
100
AcDbEntity
  8
Layer 1
 62
   242
100
AcDbSpline
210
0.0
220
0.0
230
1.0
 70
    11
 71
     3
 72
    20
 73
    16
 74
     0
 42
0.0000000001
 43
0.0000000001
 12
1.0
 22
0.0
 32
0.0
 13
1.0
 23
0.0
 33
0.0
 40
0.0
 40
0.0
 40
0.0
 40
0.0
 40
0.2
 40
0.2
 40
0.2
 40
0.2
 40
0.4
 40
0.4
 40
0.4
 40
0.4
 40
0.6
 40
0.6
 40
0.6
 40
0.6
 40
1.0
 40
1.0
 40
1.0
 40
1.0
 10
-4.92859
 20
5.21999
 30
0.0
 10
-4.92859
 20
5.21999
 30
0.0
 10
-5.30954
 20
5.21999
 30
0.0
 10
-5.30954
 20
5.21999
 30
0.0
 10
-5.30954
 20
5.21999
 30
0.0
 10
-5.30954
 20
5.21999
 30
0.0
 10
-5.30954
 20
6.58472
 30
0.0
 10
-5.30954
 20
6.58472
 30
0.0
 10
-5.30954
 20
6.58472
 30
0.0
 10
-5.30954
 20
6.58472
 30
0.0
 10
-4.92859
 20
6.58472
 30
0.0
 10
-4.92859
 20
6.58472
 30
0.0
 10
-4.92859
 20
6.58472
 30
0.0
 10
-4.92859
 20
6.58472
 30
0.0
 10
-4.92859
 20
5.21999
 30
0.0
 10
-4.92859
 20
5.21999
 30
0.0
  0
SPLINE
  5
6B
330
1F
100
AcDbEntity
  8
Layer 1
 62
   242
100
AcDbSpline
210
0.0
220
0.0
230
1.0
 70
    11
 71
     3
 72
    20
 73
    16
 74
     0
 42
0.0000000001
 43
0.0000000001
 12
1.0
 22
0.0
 32
0.0
 13
1.0
 23
0.0
 33
0.0
 40
0.0
 40
0.0
 40
0.0
 40
0.0
 40
0.2
 40
0.2
 40
0.2
 40
0.2
 40
0.4
 40
0.4
 40
0.4
 40
0.4
 40
0.6
 40
0.6
 40
0.6
 40
0.6
 40
1.0
 40
1.0
 40
1.0
 40
1.0
 10
-4.92859
 20
6.79816
 30
0.0
 10
-4.92859
 20
6.79816
 30
0.0
 10
-5.30954
 20
6.79816
 30
0.0
 10
-5.30954
 20
6.79816
 30
0.0
 10
-5.30954
 20
6.79816
 30
0.0
 10
-5.30954
 20
6.79816
 30
0.0
 10
-5.30954
 20
7.9507
 30
0.0
 10
-5.30954
 20
7.9507
 30
0.0
 10
-5.30954
 20
7.9507
 30
0.0
 10
-5.30954
 20
7.9507
 30
0.0
 10
-4.92859
 20
7.9507
 30
0.0
 10
-4.92859
 20
7.9507
 30
0.0
 10
-4.92859
 20
7.9507
 30
0.0
 10
-4.92859
 20
7.9507
 30
0.0
 10
-4.92859
 20
6.79816
 30
0.0
 10
-4.92859
 20
6.79816
 30
0.0
  0
SPLINE
  5
6C
330
1F
100
AcDbEntity
  8
Layer 1
 62
   242
100
AcDbSpline
210
0.0
220
0.0
230
1.0
 70
    11
 71
     3
 72
    36
 73
    32
 74
     0
 42
0.0000000001
 43
0.0000000001
 12
1.0
 22
0.0
 32
0.0
 13
1.0
 23
0.0
 33
0.0
 40
0.0
 40
0.0
 40
0.0
 40
0.0
 40
0.1111111111111111
 40
0.1111111111111111
 40
0.1111111111111111
 40
0.1111111111111111
 40
0.2222222222222222
 40
0.2222222222222222
 40
0.2222222222222222
 40
0.2222222222222222
 40
0.3333333333333333
 40
0.3333333333333333
 40
0.3333333333333333
 40
0.3333333333333333
 40
0.4444444444444444
 40
0.4444444444444444
 40
0.4444444444444444
 40
0.4444444444444444
 40
0.5555555555555556
 40
0.5555555555555556
 40
0.5555555555555556
 40
0.5555555555555556
 40
0.6666666666666666
 40
0.6666666666666666
 40
0.6666666666666666
 40
0.6666666666666666
 40
0.7777777777777778
 40
0.7777777777777778
 40
0.7777777777777778
 40
0.7777777777777778
 40
1.0
 40
1.0
 40
1.0
 40
1.0
 10
-4.92859
 20
8.16414
 30
0.0
 10
-4.92859
 20
8.16414
 30
0.0
 10
-5.30954
 20
8.16414
 30
0.0
 10
-5.30954
 20
8.16414
 30
0.0
 10
-5.30954
 20
8.16414
 30
0.0
 10
-5.30954
 20
8.16414
 30
0.0
 10
-5.30954
 20
8.79739
 30
0.0
 10
-5.30954
 20
8.79739
 30
0.0
 10
-5.30954
 20
8.79739
 30
0.0
 10
-5.30954
 20
8.79739
 30
0.0
 10
-6.05689
 20
8.79739
 30
0.0
 10
-6.05689
 20
8.79739
 30
0.0
 10
-6.05689
 20
8.79739
 30
0.0
 10
-6.05689
 20
8.79739
 30
0.0
 10
-6.05689
 20
9.32884
 30
0.0
 10
-6.05689
 20
9.32884
 30
0.0
 10
-6.05689
 20
9.32884
 30
0.0
 10
-6.05689
 20
9.32884
 30
0.0
 10
-5.30954
 20
9.32884
 30
0.0
 10
-5.30954
 20
9.32884
 30
0.0
 10
-5.30954
 20
9.32884
 30
0.0
 10
-5.30954
 20
9.32884
 30
0.0
 10
-5.30954
 20
9.96293
 30
0.0
 10
-5.30954
 20
9.96293
 30
0.0
 10
-5.30954
 20
9.96293
 30
0.0
 10
-5.30954
 20
9.96293
 30
0.0
 10
-4.92859
 20
9.96293
 30
0.0
 10
-4.92859
 20
9.96293
 30
0.0
 10
-4.92859
 20
9.96293
 30
0.0
 10
-4.92859
 20
9.96293
 30
0.0
 10
-4.92859
 20
8.16414
 30
0.0
 10
-4.92859
 20
8.16414
 30
0.0
  0
SPLINE
  5
6D
330
1F
100
AcDbEntity
  8
Layer 1
 62
   242
100
AcDbSpline
210
0.0
220
0.0
230
1.0
 70
    11
 71
     3
 72
    20
 73
    16
 74
     0
 42
0.0000000001
 43
0.0000000001
 12
1.0
 22
0.0
 32
0.0
 13
1.0
 23
0.0
 33
0.0
 40
0.0
 40
0.0
 40
0.0
 40
0.0
 40
0.2
 40
0.2
 40
0.2
 40
0.2
 40
0.4
 40
0.4
 40
0.4
 40
0.4
 40
0.6
 40
0.6
 40
0.6
 40
0.6
 40
1.0
 40
1.0
 40
1.0
 40
1.0
 10
-4.92859
 20
10.17637
 30
0.0
 10
-4.92859
 20
10.17637
 30
0.0
 10
-5.30954
 20
10.17637
 30
0.0
 10
-5.30954
 20
10.17637
 30
0.0
 10
-5.30954
 20
10.17637
 30
0.0
 10
-5.30954
 20
10.17637
 30
0.0
 10
-5.30954
 20
10.63046
 30
0.0
 10
-5.30954
 20
10.63046
 30
0.0
 10
-5.30954
 20
10.63046
 30
0.0
 10
-5.30954
 20
10.63046
 30
0.0
 10
-4.92859
 20
10.63046
 30
0.0
 10
-4.92859
 20
10.63046
 30
0.0
 10
-4.92859
 20
10.63046
 30
0.0
 10
-4.92859
 20
10.63046
 30
0.0
 10
-4.92859
 20
10.17637
 30
0.0
 10
-4.92859
 20
10.17637
 30
0.0
  0
SPLINE
  5
6E
330
1F
100
AcDbEntity
  8
Layer 1
 62
   242
100
AcDbSpline
210
0.0
220
0.0
230
1.0
 70
    11
 71
     3
 72
    36
 73
    32
 74
     0
 42
0.0000000001
 43
0.0000000001
 12
1.0
 22
0.0
 32
0.0
 13
1.0
 23
0.0
 33
0.0
 40
0.0
 40
0.0
 40
0.0
 40
0.0
 40
0.1111111111111111
 40
0.1111111111111111
 40
0.1111111111111111
 40
0.1111111111111111
 40
0.2222222222222222
 40
0.2222222222222222
 40
0.2222222222222222
 40
0.2222222222222222
 40
0.3333333333333333
 40
0.3333333333333333
 40
0.3333333333333333
 40
0.3333333333333333
 40
0.4444444444444444
 40
0.4444444444444444
 40
0.4444444444444444
 40
0.4444444444444444
 40
0.5555555555555556
 40
0.5555555555555556
 40
0.5555555555555556
 40
0.5555555555555556
 40
0.6666666666666666
 40
0.6666666666666666
 40
0.6666666666666666
 40
0.6666666666666666
 40
0.7777777777777778
 40
0.7777777777777778
 40
0.7777777777777778
 40
0.7777777777777778
 40
1.0
 40
1.0
 40
1.0
 40
1.0
 10
-4.92859
 20
10.8439
 30
0.0
 10
-4.92859
 20
10.8439
 30
0.0
 10
-5.30954
 20
10.8439
 30
0.0
 10
-5.30954
 20
10.8439
 30
0.0
 10
-5.30954
 20
10.8439
 30
0.0
 10
-5.30954
 20
10.8439
 30
0.0
 10
-5.30954
 20
11.49052
 30
0.0
 10
-5.30954
 20
11.49052
 30
0.0
 10
-5.30954
 20
11.49052
 30
0.0
 10
-5.30954
 20
11.49052
 30
0.0
 10
-6.05689
 20
11.49052
 30
0.0
 10
-6.05689
 20
11.49052
 30
0.0
 10
-6.05689
 20
11.49052
 30
0.0
 10
-6.05689
 20
11.49052
 30
0.0
 10
-6.05689
 20
12.04249
 30
0.0
 10
-6.05689
 20
12.04249
 30
0.0
 10
-6.05689
 20
12.04249
 30
0.0
 10
-6.05689
 20
12.04249
 30
0.0
 10
-5.30954
 20
12.04249
 30
0.0
 10
-5.30954
 20
12.04249
 30
0.0
 10
-5.30954
 20
12.04249
 30
0.0
 10
-5.30954
 20
12.04249
 30
0.0
 10
-5.30954
 20
12.84453
 30
0.0
 10
-5.30954
 20
12.84453
 30
0.0
 10
-5.30954
 20
12.84453
 30
0.0
 10
-5.30954
 20
12.84453
 30
0.0
 10
-4.92859
 20
12.84453
 30
0.0
 10
-4.92859
 20
12.84453
 30
0.0
 10
-4.92859
 20
12.84453
 30
0.0
 10
-4.92859
 20
12.84453
 30
0.0
 10
-4.92859
 20
10.8439
 30
0.0
 10
-4.92859
 20
10.8439
 30
0.0
  0
SPLINE
  5
6F
330
1F
100
AcDbEntity
  8
Layer 1
 62
   242
100
AcDbSpline
210
0.0
220
0.0
230
1.0
 70
    11
 71
     3
 72
    36
 73
    32
 74
     0
 42
0.0000000001
 43
0.0000000001
 12
1.0
 22
0.0
 32
0.0
 13
1.0
 23
0.0
 33
0.0
 40
0.0
 40
0.0
 40
0.0
 40
0.0
 40
0.1111111111111111
 40
0.1111111111111111
 40
0.1111111111111111
 40
0.1111111111111111
 40
0.2222222222222222
 40
0.2222222222222222
 40
0.2222222222222222
 40
0.2222222222222222
 40
0.3333333333333333
 40
0.3333333333333333
 40
0.3333333333333333
 40
0.3333333333333333
 40
0.4444444444444444
 40
0.4444444444444444
 40
0.4444444444444444
 40
0.4444444444444444
 40
0.5555555555555556
 40
0.5555555555555556
 40
0.5555555555555556
 40
0.5555555555555556
 40
0.6666666666666666
 40
0.6666666666666666
 40
0.6666666666666666
 40
0.6666666666666666
 40
0.7777777777777778
 40
0.7777777777777778
 40
0.7777777777777778
 40
0.7777777777777778
 40
1.0
 40
1.0
 40
1.0
 40
1.0
 10
-5.59301
 20
12.84453
 30
0.0
 10
-5.59301
 20
12.84453
 30
0.0
 10
-5.59301
 20
12.25593
 30
0.0
 10
-5.59301
 20
12.25593
 30
0.0
 10
-5.59301
 20
12.25593
 30
0.0
 10
-5.59301
 20
12.25593
 30
0.0
 10
-8.30121
 20
12.25593
 30
0.0
 10
-8.30121
 20
12.25593
 30
0.0
 10
-8.30121
 20
12.25593
 30
0.0
 10
-8.30121
 20
12.25593
 30
0.0
 10
-8.30121
 20
12.84453
 30
0.0
 10
-8.30121
 20
12.84453
 30
0.0
 10
-8.30121
 20
12.84453
 30
0.0
 10
-8.30121
 20
12.84453
 30
0.0
 10
-8.00742
 20
12.84453
 30
0.0
 10
-8.00742
 20
12.84453
 30
0.0
 10
-8.00742
 20
12.84453
 30
0.0
 10
-8.00742
 20
12.84453
 30
0.0
 10
-8.00742
 20
12.44385
 30
0.0
 10
-8.00742
 20
12.44385
 30
0.0
 10
-8.00742
 20
12.44385
 30
0.0
 10
-8.00742
 20
12.44385
 30
0.0
 10
-5.8868
 20
12.44385
 30
0.0
 10
-5.8868
 20
12.44385
 30
0.0
 10
-5.8868
 20
12.44385
 30
0.0
 10
-5.8868
 20
12.44385
 30
0.0
 10
-5.8868
 20
12.84453
 30
0.0
 10
-5.8868
 20
12.84453
 30
0.0
 10
-5.8868
 20
12.84453
 30
0.0
 10
-5.8868
 20
12.84453
 30
0.0
 10
-5.59301
 20
12.84453
 30
0.0
 10
-5.59301
 20
12.84453
 30
0.0
  0
SPLINE
  5
70
330
1F
100
AcDbEntity
  8
Layer 1
 62
   242
100
AcDbSpline
210
0.0
220
0.0
230
1.0
 70
    11
 71
     3
 72
    36
 73
    32
 74
     0
 42
0.0000000001
 43
0.0000000001
 12
1.0
 22
0.0
 32
0.0
 13
1.0
 23
0.0
 33
0.0
 40
0.0
 40
0.0
 40
0.0
 40
0.0
 40
0.1111111111111111
 40
0.1111111111111111
 40
0.1111111111111111
 40
0.1111111111111111
 40
0.2222222222222222
 40
0.2222222222222222
 40
0.2222222222222222
 40
0.2222222222222222
 40
0.3333333333333333
 40
0.3333333333333333
 40
0.3333333333333333
 40
0.3333333333333333
 40
0.4444444444444444
 40
0.4444444444444444
 40
0.4444444444444444
 40
0.4444444444444444
 40
0.5555555555555556
 40
0.5555555555555556
 40
0.5555555555555556
 40
0.5555555555555556
 40
0.6666666666666666
 40
0.6666666666666666
 40
0.6666666666666666
 40
0.6666666666666666
 40
0.7777777777777778
 40
0.7777777777777778
 40
0.7777777777777778
 40
0.7777777777777778
 40
1.0
 40
1.0
 40
1.0
 40
1.0
 10
-8.58467
 20
12.84453
 30
0.0
 10
-8.58467
 20
12.84453
 30
0.0
 10
-8.58467
 20
12.04249
 30
0.0
 10
-8.58467
 20
12.04249
 30
0.0
 10
-8.58467
 20
12.04249
 30
0.0
 10
-8.58467
 20
12.04249
 30
0.0
 10
-7.83734
 20
12.04249
 30
0.0
 10
-7.83734
 20
12.04249
 30
0.0
 10
-7.83734
 20
12.04249
 30
0.0
 10
-7.83734
 20
12.04249
 30
0.0
 10
-7.83734
 20
11.49052
 30
0.0
 10
-7.83734
 20
11.49052
 30
0.0
 10
-7.83734
 20
11.49052
 30
0.0
 10
-7.83734
 20
11.49052
 30
0.0
 10
-8.58467
 20
11.49052
 30
0.0
 10
-8.58467
 20
11.49052
 30
0.0
 10
-8.58467
 20
11.49052
 30
0.0
 10
-8.58467
 20
11.49052
 30
0.0
 10
-8.58467
 20
10.8439
 30
0.0
 10
-8.58467
 20
10.8439
 30
0.0
 10
-8.58467
 20
10.8439
 30
0.0
 10
-8.58467
 20
10.8439
 30
0.0
 10
-8.96486
 20
10.8439
 30
0.0
 10
-8.96486
 20
10.8439
 30
0.0
 10
-8.96486
 20
10.8439
 30
0.0
 10
-8.96486
 20
10.8439
 30
0.0
 10
-8.96486
 20
12.84453
 30
0.0
 10
-8.96486
 20
12.84453
 30
0.0
 10
-8.96486
 20
12.84453
 30
0.0
 10
-8.96486
 20
12.84453
 30
0.0
 10
-8.58467
 20
12.84453
 30
0.0
 10
-8.58467
 20
12.84453
 30
0.0
  0
SPLINE
  5
71
330
1F
100
AcDbEntity
  8
Layer 1
 62
   242
100
AcDbSpline
210
0.0
220
0.0
230
1.0
 70
    11
 71
     3
 72
    20
 73
    16
 74
     0
 42
0.0000000001
 43
0.0000000001
 12
1.0
 22
0.0
 32
0.0
 13
1.0
 23
0.0
 33
0.0
 40
0.0
 40
0.0
 40
0.0
 40
0.0
 40
0.2
 40
0.2
 40
0.2
 40
0.2
 40
0.4
 40
0.4
 40
0.4
 40
0.4
 40
0.6
 40
0.6
 40
0.6
 40
0.6
 40
1.0
 40
1.0
 40
1.0
 40
1.0
 10
-8.96486
 20
10.63046
 30
0.0
 10
-8.96486
 20
10.63046
 30
0.0
 10
-8.58467
 20
10.63046
 30
0.0
 10
-8.58467
 20
10.63046
 30
0.0
 10
-8.58467
 20
10.63046
 30
0.0
 10
-8.58467
 20
10.63046
 30
0.0
 10
-8.58467
 20
10.17637
 30
0.0
 10
-8.58467
 20
10.17637
 30
0.0
 10
-8.58467
 20
10.17637
 30
0.0
 10
-8.58467
 20
10.17637
 30
0.0
 10
-8.96486
 20
10.17637
 30
0.0
 10
-8.96486
 20
10.17637
 30
0.0
 10
-8.96486
 20
10.17637
 30
0.0
 10
-8.96486
 20
10.17637
 30
0.0
 10
-8.96486
 20
10.63046
 30
0.0
 10
-8.96486
 20
10.63046
 30
0.0
  0
SPLINE
  5
72
330
1F
100
AcDbEntity
  8
Layer 1
 62
   242
100
AcDbSpline
210
0.0
220
0.0
230
1.0
 70
    11
 71
     3
 72
    36
 73
    32
 74
     0
 42
0.0000000001
 43
0.0000000001
 12
1.0
 22
0.0
 32
0.0
 13
1.0
 23
0.0
 33
0.0
 40
0.0
 40
0.0
 40
0.0
 40
0.0
 40
0.1111111111111111
 40
0.1111111111111111
 40
0.1111111111111111
 40
0.1111111111111111
 40
0.2222222222222222
 40
0.2222222222222222
 40
0.2222222222222222
 40
0.2222222222222222
 40
0.3333333333333333
 40
0.3333333333333333
 40
0.3333333333333333
 40
0.3333333333333333
 40
0.4444444444444444
 40
0.4444444444444444
 40
0.4444444444444444
 40
0.4444444444444444
 40
0.5555555555555556
 40
0.5555555555555556
 40
0.5555555555555556
 40
0.5555555555555556
 40
0.6666666666666666
 40
0.6666666666666666
 40
0.6666666666666666
 40
0.6666666666666666
 40
0.7777777777777778
 40
0.7777777777777778
 40
0.7777777777777778
 40
0.7777777777777778
 40
1.0
 40
1.0
 40
1.0
 40
1.0
 10
-8.96486
 20
9.96293
 30
0.0
 10
-8.96486
 20
9.96293
 30
0.0
 10
-8.58467
 20
9.96293
 30
0.0
 10
-8.58467
 20
9.96293
 30
0.0
 10
-8.58467
 20
9.96293
 30
0.0
 10
-8.58467
 20
9.96293
 30
0.0
 10
-8.58467
 20
9.32884
 30
0.0
 10
-8.58467
 20
9.32884
 30
0.0
 10
-8.58467
 20
9.32884
 30
0.0
 10
-8.58467
 20
9.32884
 30
0.0
 10
-7.83734
 20
9.32884
 30
0.0
 10
-7.83734
 20
9.32884
 30
0.0
 10
-7.83734
 20
9.32884
 30
0.0
 10
-7.83734
 20
9.32884
 30
0.0
 10
-7.83734
 20
8.79739
 30
0.0
 10
-7.83734
 20
8.79739
 30
0.0
 10
-7.83734
 20
8.79739
 30
0.0
 10
-7.83734
 20
8.79739
 30
0.0
 10
-8.58467
 20
8.79739
 30
0.0
 10
-8.58467
 20
8.79739
 30
0.0
 10
-8.58467
 20
8.79739
 30
0.0
 10
-8.58467
 20
8.79739
 30
0.0
 10
-8.58467
 20
8.16414
 30
0.0
 10
-8.58467
 20
8.16414
 30
0.0
 10
-8.58467
 20
8.16414
 30
0.0
 10
-8.58467
 20
8.16414
 30
0.0
 10
-8.96486
 20
8.16414
 30
0.0
 10
-8.96486
 20
8.16414
 30
0.0
 10
-8.96486
 20
8.16414
 30
0.0
 10
-8.96486
 20
8.16414
 30
0.0
 10
-8.96486
 20
9.96293
 30
0.0
 10
-8.96486
 20
9.96293
 30
0.0
  0
SPLINE
  5
73
330
1F
100
AcDbEntity
  8
Layer 1
 62
   242
100
AcDbSpline
210
0.0
220
0.0
230
1.0
 70
    11
 71
     3
 72
    20
 73
    16
 74
     0
 42
0.0000000001
 43
0.0000000001
 12
1.0
 22
0.0
 32
0.0
 13
1.0
 23
0.0
 33
0.0
 40
0.0
 40
0.0
 40
0.0
 40
0.0
 40
0.2
 40
0.2
 40
0.2
 40
0.2
 40
0.4
 40
0.4
 40
0.4
 40
0.4
 40
0.6
 40
0.6
 40
0.6
 40
0.6
 40
1.0
 40
1.0
 40
1.0
 40
1.0
 10
-8.96486
 20
7.9507
 30
0.0
 10
-8.96486
 20
7.9507
 30
0.0
 10
-8.58467
 20
7.9507
 30
0.0
 10
-8.58467
 20
7.9507
 30
0.0
 10
-8.58467
 20
7.9507
 30
0.0
 10
-8.58467
 20
7.9507
 30
0.0
 10
-8.58467
 20
6.79816
 30
0.0
 10
-8.58467
 20
6.79816
 30
0.0
 10
-8.58467
 20
6.79816
 30
0.0
 10
-8.58467
 20
6.79816
 30
0.0
 10
-8.96486
 20
6.79816
 30
0.0
 10
-8.96486
 20
6.79816
 30
0.0
 10
-8.96486
 20
6.79816
 30
0.0
 10
-8.96486
 20
6.79816
 30
0.0
 10
-8.96486
 20
7.9507
 30
0.0
 10
-8.96486
 20
7.9507
 30
0.0
  0
SPLINE
  5
74
330
1F
100
AcDbEntity
  8
Layer 1
 62
   242
100
AcDbSpline
210
0.0
220
0.0
230
1.0
 70
    11
 71
     3
 72
    20
 73
    16
 74
     0
 42
0.0000000001
 43
0.0000000001
 12
1.0
 22
0.0
 32
0.0
 13
1.0
 23
0.0
 33
0.0
 40
0.0
 40
0.0
 40
0.0
 40
0.0
 40
0.2
 40
0.2
 40
0.2
 40
0.2
 40
0.4
 40
0.4
 40
0.4
 40
0.4
 40
0.6
 40
0.6
 40
0.6
 40
0.6
 40
1.0
 40
1.0
 40
1.0
 40
1.0
 10
-8.96486
 20
6.58472
 30
0.0
 10
-8.96486
 20
6.58472
 30
0.0
 10
-8.58467
 20
6.58472
 30
0.0
 10
-8.58467
 20
6.58472
 30
0.0
 10
-8.58467
 20
6.58472
 30
0.0
 10
-8.58467
 20
6.58472
 30
0.0
 10
-8.58467
 20
5.21999
 30
0.0
 10
-8.58467
 20
5.21999
 30
0.0
 10
-8.58467
 20
5.21999
 30
0.0
 10
-8.58467
 20
5.21999
 30
0.0
 10
-8.96486
 20
5.21999
 30
0.0
 10
-8.96486
 20
5.21999
 30
0.0
 10
-8.96486
 20
5.21999
 30
0.0
 10
-8.96486
 20
5.21999
 30
0.0
 10
-8.96486
 20
6.58472
 30
0.0
 10
-8.96486
 20
6.58472
 30
0.0
  0
SPLINE
  5
75
330
1F
100
AcDbEntity
  8
Layer 1
 62
   242
100
AcDbSpline
210
0.0
220
0.0
230
1.0
 70
    11
 71
     3
 72
    20
 73
    16
 74
     0
 42
0.0000000001
 43
0.0000000001
 12
1.0
 22
0.0
 32
0.0
 13
1.0
 23
0.0
 33
0.0
 40
0.0
 40
0.0
 40
0.0
 40
0.0
 40
0.2
 40
0.2
 40
0.2
 40
0.2
 40
0.4
 40
0.4
 40
0.4
 40
0.4
 40
0.6
 40
0.6
 40
0.6
 40
0.6
 40
1.0
 40
1.0
 40
1.0
 40
1.0
 10
-8.96486
 20
5.00655
 30
0.0
 10
-8.96486
 20
5.00655
 30
0.0
 10
-8.58467
 20
5.00655
 30
0.0
 10
-8.58467
 20
5.00655
 30
0.0
 10
-8.58467
 20
5.00655
 30
0.0
 10
-8.58467
 20
5.00655
 30
0.0
 10
-8.58467
 20
3.85399
 30
0.0
 10
-8.58467
 20
3.85399
 30
0.0
 10
-8.58467
 20
3.85399
 30
0.0
 10
-8.58467
 20
3.85399
 30
0.0
 10
-8.96486
 20
3.85399
 30
0.0
 10
-8.96486
 20
3.85399
 30
0.0
 10
-8.96486
 20
3.85399
 30
0.0
 10
-8.96486
 20
3.85399
 30
0.0
 10
-8.96486
 20
5.00655
 30
0.0
 10
-8.96486
 20
5.00655
 30
0.0
  0
SPLINE
  5
76
330
1F
100
AcDbEntity
  8
Layer 1
 62
   242
100
AcDbSpline
210
0.0
220
0.0
230
1.0
 70
    11
 71
     3
 72
    44
 73
    40
 74
     0
 42
0.0000000001
 43
0.0000000001
 12
1.0
 22
0.0
 32
0.0
 13
1.0
 23
0.0
 33
0.0
 40
0.0
 40
0.0
 40
0.0
 40
0.0
 40
0.0909090909090909
 40
0.0909090909090909
 40
0.0909090909090909
 40
0.0909090909090909
 40
0.1818181818181818
 40
0.1818181818181818
 40
0.1818181818181818
 40
0.1818181818181818
 40
0.2727272727272727
 40
0.2727272727272727
 40
0.2727272727272727
 40
0.2727272727272727
 40
0.3636363636363636
 40
0.3636363636363636
 40
0.3636363636363636
 40
0.3636363636363636
 40
0.4545454545454545
 40
0.4545454545454545
 40
0.4545454545454545
 40
0.4545454545454545
 40
0.5454545454545454
 40
0.5454545454545454
 40
0.5454545454545454
 40
0.5454545454545454
 40
0.6363636363636364
 40
0.6363636363636364
 40
0.6363636363636364
 40
0.6363636363636364
 40
0.7272727272727273
 40
0.7272727272727273
 40
0.7272727272727273
 40
0.7272727272727273
 40
0.8181818181818182
 40
0.8181818181818182
 40
0.8181818181818182
 40
0.8181818181818182
 40
1.0
 40
1.0
 40
1.0
 40
1.0
 10
-8.96486
 20
3.64056
 30
0.0
 10
-8.96486
 20
3.64056
 30
0.0
 10
-8.58467
 20
3.64056
 30
0.0
 10
-8.58467
 20
3.64056
 30
0.0
 10
-8.58467
 20
3.64056
 30
0.0
 10
-8.58467
 20
3.64056
 30
0.0
 10
-8.58467
 20
3.0073
 30
0.0
 10
-8.58467
 20
3.0073
 30
0.0
 10
-8.58467
 20
3.0073
 30
0.0
 10
-8.58467
 20
3.0073
 30
0.0
 10
-8.58392
 20
3.0073
 30
0.0
 10
-8.58392
 20
3.0073
 30
0.0
 10
-8.58392
 20
3.0073
 30
0.0
 10
-8.58392
 20
3.0073
 30
0.0
 10
-8.58392
 20
3.00616
 30
0.0
 10
-8.58392
 20
3.00616
 30
0.0
 10
-8.58392
 20
3.00616
 30
0.0
 10
-8.58392
 20
3.00616
 30
0.0
 10
-7.83734
 20
3.00616
 30
0.0
 10
-7.83734
 20
3.00616
 30
0.0
 10
-7.83734
 20
3.00616
 30
0.0
 10
-7.83734
 20
3.00616
 30
0.0
 10
-7.83734
 20
2.45587
 30
0.0
 10
-7.83734
 20
2.45587
 30
0.0
 10
-7.83734
 20
2.45587
 30
0.0
 10
-7.83734
 20
2.45587
 30
0.0
 10
-8.58467
 20
2.45587
 30
0.0
 10
-8.58467
 20
2.45587
 30
0.0
 10
-8.58467
 20
2.45587
 30
0.0
 10
-8.58467
 20
2.45587
 30
0.0
 10
-8.58467
 20
1.82177
 30
0.0
 10
-8.58467
 20
1.82177
 30
0.0
 10
-8.58467
 20
1.82177
 30
0.0
 10
-8.58467
 20
1.82177
 30
0.0
 10
-8.96486
 20
1.82177
 30
0.0
 10
-8.96486
 20
1.82177
 30
0.0
 10
-8.96486
 20
1.82177
 30
0.0
 10
-8.96486
 20
1.82177
 30
0.0
 10
-8.96486
 20
3.64056
 30
0.0
 10
-8.96486
 20
3.64056
 30
0.0
  0
SPLINE
  5
77
330
1F
100
AcDbEntity
  8
Layer 1
 62
   242
100
AcDbSpline
210
0.0
220
0.0
230
1.0
 70
    11
 71
     3
 72
    20
 73
    16
 74
     0
 42
0.0000000001
 43
0.0000000001
 12
1.0
 22
0.0
 32
0.0
 13
1.0
 23
0.0
 33
0.0
 40
0.0
 40
0.0
 40
0.0
 40
0.0
 40
0.2
 40
0.2
 40
0.2
 40
0.2
 40
0.4
 40
0.4
 40
0.4
 40
0.4
 40
0.6
 40
0.6
 40
0.6
 40
0.6
 40
1.0
 40
1.0
 40
1.0
 40
1.0
 10
-8.96486
 20
1.59414
 30
0.0
 10
-8.96486
 20
1.59414
 30
0.0
 10
-8.58467
 20
1.59414
 30
0.0
 10
-8.58467
 20
1.59414
 30
0.0
 10
-8.58467
 20
1.59414
 30
0.0
 10
-8.58467
 20
1.59414
 30
0.0
 10
-8.58467
 20
1.15424
 30
0.0
 10
-8.58467
 20
1.15424
 30
0.0
 10
-8.58467
 20
1.15424
 30
0.0
 10
-8.58467
 20
1.15424
 30
0.0
 10
-8.96486
 20
1.15424
 30
0.0
 10
-8.96486
 20
1.15424
 30
0.0
 10
-8.96486
 20
1.15424
 30
0.0
 10
-8.96486
 20
1.15424
 30
0.0
 10
-8.96486
 20
1.59414
 30
0.0
 10
-8.96486
 20
1.59414
 30
0.0
  0
SPLINE
  5
78
330
1F
100
AcDbEntity
  8
Layer 1
 62
   242
100
AcDbSpline
210
0.0
220
0.0
230
1.0
 70
    11
 71
     3
 72
    52
 73
    48
 74
     0
 42
0.0000000001
 43
0.0000000001
 12
1.0
 22
0.0
 32
0.0
 13
1.0
 23
0.0
 33
0.0
 40
0.0
 40
0.0
 40
0.0
 40
0.0
 40
0.0769230769230769
 40
0.0769230769230769
 40
0.0769230769230769
 40
0.0769230769230769
 40
0.1538461538461539
 40
0.1538461538461539
 40
0.1538461538461539
 40
0.1538461538461539
 40
0.2307692307692308
 40
0.2307692307692308
 40
0.2307692307692308
 40
0.2307692307692308
 40
0.3076923076923077
 40
0.3076923076923077
 40
0.3076923076923077
 40
0.3076923076923077
 40
0.3846153846153846
 40
0.3846153846153846
 40
0.3846153846153846
 40
0.3846153846153846
 40
0.4615384615384616
 40
0.4615384615384616
 40
0.4615384615384616
 40
0.4615384615384616
 40
0.5384615384615384
 40
0.5384615384615384
 40
0.5384615384615384
 40
0.5384615384615384
 40
0.6153846153846154
 40
0.6153846153846154
 40
0.6153846153846154
 40
0.6153846153846154
 40
0.6923076923076923
 40
0.6923076923076923
 40
0.6923076923076923
 40
0.6923076923076923
 40
0.7692307692307693
 40
0.7692307692307693
 40
0.7692307692307693
 40
0.7692307692307693
 40
0.8461538461538461
 40
0.8461538461538461
 40
0.8461538461538461
 40
0.8461538461538461
 40
1.0
 40
1.0
 40
1.0
 40
1.0
 10
-8.96486
 20
0.92661
 30
0.0
 10
-8.96486
 20
0.92661
 30
0.0
 10
-8.58467
 20
0.92661
 30
0.0
 10
-8.58467
 20
0.92661
 30
0.0
 10
-8.58467
 20
0.92661
 30
0.0
 10
-8.58467
 20
0.92661
 30
0.0
 10
-8.58467
 20
0.29419
 30
0.0
 10
-8.58467
 20
0.29419
 30
0.0
 10
-8.58467
 20
0.29419
 30
0.0
 10
-8.58467
 20
0.29419
 30
0.0
 10
-8.58392
 20
0.29419
 30
0.0
 10
-8.58392
 20
0.29419
 30
0.0
 10
-8.58392
 20
0.29419
 30
0.0
 10
-8.58392
 20
0.29419
 30
0.0
 10
-8.58392
 20
0.29251
 30
0.0
 10
-8.58392
 20
0.29251
 30
0.0
 10
-8.58392
 20
0.29251
 30
0.0
 10
-8.58392
 20
0.29251
 30
0.0
 10
-7.83734
 20
0.29251
 30
0.0
 10
-7.83734
 20
0.29251
 30
0.0
 10
-7.83734
 20
0.29251
 30
0.0
 10
-7.83734
 20
0.29251
 30
0.0
 10
-7.83734
 20
-0.25778
 30
0.0
 10
-7.83734
 20
-0.25778
 30
0.0
 10
-7.83734
 20
-0.25778
 30
0.0
 10
-7.83734
 20
-0.25778
 30
0.0
 10
-8.58467
 20
-0.25778
 30
0.0
 10
-8.58467
 20
-0.25778
 30
0.0
 10
-8.58467
 20
-0.25778
 30
0.0
 10
-8.58467
 20
-0.25778
 30
0.0
 10
-8.58467
 20
-0.84297
 30
0.0
 10
-8.58467
 20
-0.84297
 30
0.0
 10
-8.58467
 20
-0.84297
 30
0.0
 10
-8.58467
 20
-0.84297
 30
0.0
 10
-8.58392
 20
-0.84297
 30
0.0
 10
-8.58392
 20
-0.84297
 30
0.0
 10
-8.58392
 20
-0.84297
 30
0.0
 10
-8.58392
 20
-0.84297
 30
0.0
 10
-8.58392
 20
-0.89218
 30
0.0
 10
-8.58392
 20
-0.89218
 30
0.0
 10
-8.58392
 20
-0.89218
 30
0.0
 10
-8.58392
 20
-0.89218
 30
0.0
 10
-8.96486
 20
-0.89218
 30
0.0
 10
-8.96486
 20
-0.89218
 30
0.0
 10
-8.96486
 20
-0.89218
 30
0.0
 10
-8.96486
 20
-0.89218
 30
0.0
 10
-8.96486
 20
0.92661
 30
0.0
 10
-8.96486
 20
0.92661
 30
0.0
  0
SPLINE
  5
79
330
1F
100
AcDbEntity
  8
Layer 1
 62
   242
100
AcDbSpline
210
0.0
220
0.0
230
1.0
 70
    11
 71
     3
 72
    20
 73
    16
 74
     0
 42
0.0000000001
 43
0.0000000001
 12
1.0
 22
0.0
 32
0.0
 13
1.0
 23
0.0
 33
0.0
 40
0.0
 40
0.0
 40
0.0
 40
0.0
 40
0.2
 40
0.2
 40
0.2
 40
0.2
 40
0.4
 40
0.4
 40
0.4
 40
0.4
 40
0.6
 40
0.6
 40
0.6
 40
0.6
 40
1.0
 40
1.0
 40
1.0
 40
1.0
 10
-8.96486
 20
-1.10561
 30
0.0
 10
-8.96486
 20
-1.10561
 30
0.0
 10
-8.58392
 20
-1.10561
 30
0.0
 10
-8.58392
 20
-1.10561
 30
0.0
 10
-8.58392
 20
-1.10561
 30
0.0
 10
-8.58392
 20
-1.10561
 30
0.0
 10
-8.58392
 20
-2.25817
 30
0.0
 10
-8.58392
 20
-2.25817
 30
0.0
 10
-8.58392
 20
-2.25817
 30
0.0
 10
-8.58392
 20
-2.25817
 30
0.0
 10
-8.96486
 20
-2.25817
 30
0.0
 10
-8.96486
 20
-2.25817
 30
0.0
 10
-8.96486
 20
-2.25817
 30
0.0
 10
-8.96486
 20
-2.25817
 30
0.0
 10
-8.96486
 20
-1.10561
 30
0.0
 10
-8.96486
 20
-1.10561
 30
0.0
  0
SPLINE
  5
7A
330
1F
100
AcDbEntity
  8
Layer 1
 62
   242
100
AcDbSpline
210
0.0
220
0.0
230
1.0
 70
    11
 71
     3
 72
    20
 73
    16
 74
     0
 42
0.0000000001
 43
0.0000000001
 12
1.0
 22
0.0
 32
0.0
 13
1.0
 23
0.0
 33
0.0
 40
0.0
 40
0.0
 40
0.0
 40
0.0
 40
0.2
 40
0.2
 40
0.2
 40
0.2
 40
0.4
 40
0.4
 40
0.4
 40
0.4
 40
0.6
 40
0.6
 40
0.6
 40
0.6
 40
1.0
 40
1.0
 40
1.0
 40
1.0
 10
-8.96486
 20
-2.47161
 30
0.0
 10
-8.96486
 20
-2.47161
 30
0.0
 10
-8.58392
 20
-2.47161
 30
0.0
 10
-8.58392
 20
-2.47161
 30
0.0
 10
-8.58392
 20
-2.47161
 30
0.0
 10
-8.58392
 20
-2.47161
 30
0.0
 10
-8.58392
 20
-3.83634
 30
0.0
 10
-8.58392
 20
-3.83634
 30
0.0
 10
-8.58392
 20
-3.83634
 30
0.0
 10
-8.58392
 20
-3.83634
 30
0.0
 10
-8.96486
 20
-3.83634
 30
0.0
 10
-8.96486
 20
-3.83634
 30
0.0
 10
-8.96486
 20
-3.83634
 30
0.0
 10
-8.96486
 20
-3.83634
 30
0.0
 10
-8.96486
 20
-2.47161
 30
0.0
 10
-8.96486
 20
-2.47161
 30
0.0
  0
SPLINE
  5
7B
330
1F
100
AcDbEntity
  8
Layer 1
 62
   242
100
AcDbSpline
210
0.0
220
0.0
230
1.0
 70
    11
 71
     3
 72
    28
 73
    24
 74
     0
 42
0.0000000001
 43
0.0000000001
 12
1.0
 22
0.0
 32
0.0
 13
1.0
 23
0.0
 33
0.0
 40
0.0
 40
0.0
 40
0.0
 40
0.0
 40
0.1428571428571428
 40
0.1428571428571428
 40
0.1428571428571428
 40
0.1428571428571428
 40
0.2857142857142857
 40
0.2857142857142857
 40
0.2857142857142857
 40
0.2857142857142857
 40
0.4285714285714285
 40
0.4285714285714285
 40
0.4285714285714285
 40
0.4285714285714285
 40
0.5714285714285714
 40
0.5714285714285714
 40
0.5714285714285714
 40
0.5714285714285714
 40
0.7142857142857143
 40
0.7142857142857143
 40
0.7142857142857143
 40
0.7142857142857143
 40
1.0
 40
1.0
 40
1.0
 40
1.0
 10
-8.30046
 20
3.22074
 30
0.0
 10
-8.30046
 20
3.22074
 30
0.0
 10
-8.30046
 20
3.59135
 30
0.0
 10
-8.30046
 20
3.59135
 30
0.0
 10
-8.30046
 20
3.59135
 30
0.0
 10
-8.30046
 20
3.59135
 30
0.0
 10
-8.30121
 20
3.59135
 30
0.0
 10
-8.30121
 20
3.59135
 30
0.0
 10
-8.30121
 20
3.59135
 30
0.0
 10
-8.30121
 20
3.59135
 30
0.0
 10
-8.30121
 20
3.64056
 30
0.0
 10
-8.30121
 20
3.64056
 30
0.0
 10
-8.30121
 20
3.64056
 30
0.0
 10
-8.30121
 20
3.64056
 30
0.0
 10
-5.59301
 20
3.64056
 30
0.0
 10
-5.59301
 20
3.64056
 30
0.0
 10
-5.59301
 20
3.64056
 30
0.0
 10
-5.59301
 20
3.64056
 30
0.0
 10
-5.59301
 20
3.22074
 30
0.0
 10
-5.59301
 20
3.22074
 30
0.0
 10
-5.59301
 20
3.22074
 30
0.0
 10
-5.59301
 20
3.22074
 30
0.0
 10
-8.30046
 20
3.22074
 30
0.0
 10
-8.30046
 20
3.22074
 30
0.0
  0
SPLINE
  5
7C
330
1F
100
AcDbEntity
  8
Layer 1
 62
   242
100
AcDbSpline
210
0.0
220
0.0
230
1.0
 70
    11
 71
     3
 72
    20
 73
    16
 74
     0
 42
0.0000000001
 43
0.0000000001
 12
1.0
 22
0.0
 32
0.0
 13
1.0
 23
0.0
 33
0.0
 40
0.0
 40
0.0
 40
0.0
 40
0.0
 40
0.2
 40
0.2
 40
0.2
 40
0.2
 40
0.4
 40
0.4
 40
0.4
 40
0.4
 40
0.6
 40
0.6
 40
0.6
 40
0.6
 40
1.0
 40
1.0
 40
1.0
 40
1.0
 10
-8.30121
 20
8.16414
 30
0.0
 10
-8.30121
 20
8.16414
 30
0.0
 10
-5.59301
 20
8.16414
 30
0.0
 10
-5.59301
 20
8.16414
 30
0.0
 10
-5.59301
 20
8.16414
 30
0.0
 10
-5.59301
 20
8.16414
 30
0.0
 10
-5.59301
 20
8.58395
 30
0.0
 10
-5.59301
 20
8.58395
 30
0.0
 10
-5.59301
 20
8.58395
 30
0.0
 10
-5.59301
 20
8.58395
 30
0.0
 10
-8.30121
 20
8.58395
 30
0.0
 10
-8.30121
 20
8.58395
 30
0.0
 10
-8.30121
 20
8.58395
 30
0.0
 10
-8.30121
 20
8.58395
 30
0.0
 10
-8.30121
 20
8.16414
 30
0.0
 10
-8.30121
 20
8.16414
 30
0.0
  0
SPLINE
  5
7D
330
1F
100
AcDbEntity
  8
Layer 1
 62
   242
100
AcDbSpline
210
0.0
220
0.0
230
1.0
 70
    11
 71
     3
 72
    36
 73
    32
 74
     0
 42
0.0000000001
 43
0.0000000001
 12
1.0
 22
0.0
 32
0.0
 13
1.0
 23
0.0
 33
0.0
 40
0.0
 40
0.0
 40
0.0
 40
0.0
 40
0.1111111111111111
 40
0.1111111111111111
 40
0.1111111111111111
 40
0.1111111111111111
 40
0.2222222222222222
 40
0.2222222222222222
 40
0.2222222222222222
 40
0.2222222222222222
 40
0.3333333333333333
 40
0.3333333333333333
 40
0.3333333333333333
 40
0.3333333333333333
 40
0.4444444444444444
 40
0.4444444444444444
 40
0.4444444444444444
 40
0.4444444444444444
 40
0.5555555555555556
 40
0.5555555555555556
 40
0.5555555555555556
 40
0.5555555555555556
 40
0.6666666666666666
 40
0.6666666666666666
 40
0.6666666666666666
 40
0.6666666666666666
 40
0.7777777777777778
 40
0.7777777777777778
 40
0.7777777777777778
 40
0.7777777777777778
 40
1.0
 40
1.0
 40
1.0
 40
1.0
 10
-8.30121
 20
6.79816
 30
0.0
 10
-8.30121
 20
6.79816
 30
0.0
 10
-7.83734
 20
6.79816
 30
0.0
 10
-7.83734
 20
6.79816
 30
0.0
 10
-7.83734
 20
6.79816
 30
0.0
 10
-7.83734
 20
6.79816
 30
0.0
 10
-7.83734
 20
7.47618
 30
0.0
 10
-7.83734
 20
7.47618
 30
0.0
 10
-7.83734
 20
7.47618
 30
0.0
 10
-7.83734
 20
7.47618
 30
0.0
 10
-6.05689
 20
7.47618
 30
0.0
 10
-6.05689
 20
7.47618
 30
0.0
 10
-6.05689
 20
7.47618
 30
0.0
 10
-6.05689
 20
7.47618
 30
0.0
 10
-6.05689
 20
6.79816
 30
0.0
 10
-6.05689
 20
6.79816
 30
0.0
 10
-6.05689
 20
6.79816
 30
0.0
 10
-6.05689
 20
6.79816
 30
0.0
 10
-5.59301
 20
6.79816
 30
0.0
 10
-5.59301
 20
6.79816
 30
0.0
 10
-5.59301
 20
6.79816
 30
0.0
 10
-5.59301
 20
6.79816
 30
0.0
 10
-5.59301
 20
7.9507
 30
0.0
 10
-5.59301
 20
7.9507
 30
0.0
 10
-5.59301
 20
7.9507
 30
0.0
 10
-5.59301
 20
7.9507
 30
0.0
 10
-8.30121
 20
7.9507
 30
0.0
 10
-8.30121
 20
7.9507
 30
0.0
 10
-8.30121
 20
7.9507
 30
0.0
 10
-8.30121
 20
7.9507
 30
0.0
 10
-8.30121
 20
6.79816
 30
0.0
 10
-8.30121
 20
6.79816
 30
0.0
  0
SPLINE
  5
7E
330
1F
100
AcDbEntity
  8
Layer 1
 62
   242
100
AcDbSpline
210
0.0
220
0.0
230
1.0
 70
    11
 71
     3
 72
    20
 73
    16
 74
     0
 42
0.0000000001
 43
0.0000000001
 12
1.0
 22
0.0
 32
0.0
 13
1.0
 23
0.0
 33
0.0
 40
0.0
 40
0.0
 40
0.0
 40
0.0
 40
0.2
 40
0.2
 40
0.2
 40
0.2
 40
0.4
 40
0.4
 40
0.4
 40
0.4
 40
0.6
 40
0.6
 40
0.6
 40
0.6
 40
1.0
 40
1.0
 40
1.0
 40
1.0
 10
-6.05689
 20
5.21999
 30
0.0
 10
-6.05689
 20
5.21999
 30
0.0
 10
-5.59301
 20
5.21999
 30
0.0
 10
-5.59301
 20
5.21999
 30
0.0
 10
-5.59301
 20
5.21999
 30
0.0
 10
-5.59301
 20
5.21999
 30
0.0
 10
-5.59301
 20
6.58472
 30
0.0
 10
-5.59301
 20
6.58472
 30
0.0
 10
-5.59301
 20
6.58472
 30
0.0
 10
-5.59301
 20
6.58472
 30
0.0
 10
-6.05689
 20
6.58472
 30
0.0
 10
-6.05689
 20
6.58472
 30
0.0
 10
-6.05689
 20
6.58472
 30
0.0
 10
-6.05689
 20
6.58472
 30
0.0
 10
-6.05689
 20
5.21999
 30
0.0
 10
-6.05689
 20
5.21999
 30
0.0
  0
SPLINE
  5
7F
330
1F
100
AcDbEntity
  8
Layer 1
 62
   242
100
AcDbSpline
210
0.0
220
0.0
230
1.0
 70
    11
 71
     3
 72
    36
 73
    32
 74
     0
 42
0.0000000001
 43
0.0000000001
 12
1.0
 22
0.0
 32
0.0
 13
1.0
 23
0.0
 33
0.0
 40
0.0
 40
0.0
 40
0.0
 40
0.0
 40
0.1111111111111111
 40
0.1111111111111111
 40
0.1111111111111111
 40
0.1111111111111111
 40
0.2222222222222222
 40
0.2222222222222222
 40
0.2222222222222222
 40
0.2222222222222222
 40
0.3333333333333333
 40
0.3333333333333333
 40
0.3333333333333333
 40
0.3333333333333333
 40
0.4444444444444444
 40
0.4444444444444444
 40
0.4444444444444444
 40
0.4444444444444444
 40
0.5555555555555556
 40
0.5555555555555556
 40
0.5555555555555556
 40
0.5555555555555556
 40
0.6666666666666666
 40
0.6666666666666666
 40
0.6666666666666666
 40
0.6666666666666666
 40
0.7777777777777778
 40
0.7777777777777778
 40
0.7777777777777778
 40
0.7777777777777778
 40
1.0
 40
1.0
 40
1.0
 40
1.0
 10
-7.83734
 20
5.00655
 30
0.0
 10
-7.83734
 20
5.00655
 30
0.0
 10
-8.30121
 20
5.00655
 30
0.0
 10
-8.30121
 20
5.00655
 30
0.0
 10
-8.30121
 20
5.00655
 30
0.0
 10
-8.30121
 20
5.00655
 30
0.0
 10
-8.30121
 20
3.85399
 30
0.0
 10
-8.30121
 20
3.85399
 30
0.0
 10
-8.30121
 20
3.85399
 30
0.0
 10
-8.30121
 20
3.85399
 30
0.0
 10
-5.59301
 20
3.85399
 30
0.0
 10
-5.59301
 20
3.85399
 30
0.0
 10
-5.59301
 20
3.85399
 30
0.0
 10
-5.59301
 20
3.85399
 30
0.0
 10
-5.59301
 20
5.00655
 30
0.0
 10
-5.59301
 20
5.00655
 30
0.0
 10
-5.59301
 20
5.00655
 30
0.0
 10
-5.59301
 20
5.00655
 30
0.0
 10
-6.05689
 20
5.00655
 30
0.0
 10
-6.05689
 20
5.00655
 30
0.0
 10
-6.05689
 20
5.00655
 30
0.0
 10
-6.05689
 20
5.00655
 30
0.0
 10
-6.05689
 20
4.32851
 30
0.0
 10
-6.05689
 20
4.32851
 30
0.0
 10
-6.05689
 20
4.32851
 30
0.0
 10
-6.05689
 20
4.32851
 30
0.0
 10
-7.83734
 20
4.32851
 30
0.0
 10
-7.83734
 20
4.32851
 30
0.0
 10
-7.83734
 20
4.32851
 30
0.0
 10
-7.83734
 20
4.32851
 30
0.0
 10
-7.83734
 20
5.00655
 30
0.0
 10
-7.83734
 20
5.00655
 30
0.0
  0
SPLINE
  5
80
330
1F
100
AcDbEntity
  8
Layer 1
 62
   242
100
AcDbSpline
210
0.0
220
0.0
230
1.0
 70
    11
 71
     3
 72
    20
 73
    16
 74
     0
 42
0.0000000001
 43
0.0000000001
 12
1.0
 22
0.0
 32
0.0
 13
1.0
 23
0.0
 33
0.0
 40
0.0
 40
0.0
 40
0.0
 40
0.0
 40
0.2
 40
0.2
 40
0.2
 40
0.2
 40
0.4
 40
0.4
 40
0.4
 40
0.4
 40
0.6
 40
0.6
 40
0.6
 40
0.6
 40
1.0
 40
1.0
 40
1.0
 40
1.0
 10
-8.30121
 20
5.21999
 30
0.0
 10
-8.30121
 20
5.21999
 30
0.0
 10
-7.83734
 20
5.21999
 30
0.0
 10
-7.83734
 20
5.21999
 30
0.0
 10
-7.83734
 20
5.21999
 30
0.0
 10
-7.83734
 20
5.21999
 30
0.0
 10
-7.83734
 20
6.58472
 30
0.0
 10
-7.83734
 20
6.58472
 30
0.0
 10
-7.83734
 20
6.58472
 30
0.0
 10
-7.83734
 20
6.58472
 30
0.0
 10
-8.30121
 20
6.58472
 30
0.0
 10
-8.30121
 20
6.58472
 30
0.0
 10
-8.30121
 20
6.58472
 30
0.0
 10
-8.30121
 20
6.58472
 30
0.0
 10
-8.30121
 20
5.21999
 30
0.0
 10
-8.30121
 20
5.21999
 30
0.0
  0
SPLINE
  5
81
330
1F
100
AcDbEntity
  8
Layer 1
 62
   242
100
AcDbSpline
210
0.0
220
0.0
230
1.0
 70
    11
 71
     3
 72
    20
 73
    16
 74
     0
 42
0.0000000001
 43
0.0000000001
 12
1.0
 22
0.0
 32
0.0
 13
1.0
 23
0.0
 33
0.0
 40
0.0
 40
0.0
 40
0.0
 40
0.0
 40
0.2
 40
0.2
 40
0.2
 40
0.2
 40
0.4
 40
0.4
 40
0.4
 40
0.4
 40
0.6
 40
0.6
 40
0.6
 40
0.6
 40
1.0
 40
1.0
 40
1.0
 40
1.0
 10
-6.34034
 20
11.27707
 30
0.0
 10
-6.34034
 20
11.27707
 30
0.0
 10
-7.55388
 20
11.27707
 30
0.0
 10
-7.55388
 20
11.27707
 30
0.0
 10
-7.55388
 20
11.27707
 30
0.0
 10
-7.55388
 20
11.27707
 30
0.0
 10
-7.55388
 20
10.87747
 30
0.0
 10
-7.55388
 20
10.87747
 30
0.0
 10
-7.55388
 20
10.87747
 30
0.0
 10
-7.55388
 20
10.87747
 30
0.0
 10
-6.34034
 20
10.87747
 30
0.0
 10
-6.34034
 20
10.87747
 30
0.0
 10
-6.34034
 20
10.87747
 30
0.0
 10
-6.34034
 20
10.87747
 30
0.0
 10
-6.34034
 20
11.27707
 30
0.0
 10
-6.34034
 20
11.27707
 30
0.0
  0
SPLINE
  5
82
330
1F
100
AcDbEntity
  8
Layer 1
 62
   242
100
AcDbSpline
210
0.0
220
0.0
230
1.0
 70
    11
 71
     3
 72
    20
 73
    16
 74
     0
 42
0.0000000001
 43
0.0000000001
 12
1.0
 22
0.0
 32
0.0
 13
1.0
 23
0.0
 33
0.0
 40
0.0
 40
0.0
 40
0.0
 40
0.0
 40
0.2
 40
0.2
 40
0.2
 40
0.2
 40
0.4
 40
0.4
 40
0.4
 40
0.4
 40
0.6
 40
0.6
 40
0.6
 40
0.6
 40
1.0
 40
1.0
 40
1.0
 40
1.0
 10
-7.55388
 20
9.54227
 30
0.0
 10
-7.55388
 20
9.54227
 30
0.0
 10
-6.34034
 20
9.54227
 30
0.0
 10
-6.34034
 20
9.54227
 30
0.0
 10
-6.34034
 20
9.54227
 30
0.0
 10
-6.34034
 20
9.54227
 30
0.0
 10
-6.34034
 20
9.96136
 30
0.0
 10
-6.34034
 20
9.96136
 30
0.0
 10
-6.34034
 20
9.96136
 30
0.0
 10
-6.34034
 20
9.96136
 30
0.0
 10
-7.55388
 20
9.96136
 30
0.0
 10
-7.55388
 20
9.96136
 30
0.0
 10
-7.55388
 20
9.96136
 30
0.0
 10
-7.55388
 20
9.96136
 30
0.0
 10
-7.55388
 20
9.54227
 30
0.0
 10
-7.55388
 20
9.54227
 30
0.0
  0
SPLINE
  5
83
330
1F
100
AcDbEntity
  8
Layer 1
 62
   242
100
AcDbSpline
210
0.0
220
0.0
230
1.0
 70
    11
 71
     3
 72
    20
 73
    16
 74
     0
 42
0.0000000001
 43
0.0000000001
 12
1.0
 22
0.0
 32
0.0
 13
1.0
 23
0.0
 33
0.0
 40
0.0
 40
0.0
 40
0.0
 40
0.0
 40
0.2
 40
0.2
 40
0.2
 40
0.2
 40
0.4
 40
0.4
 40
0.4
 40
0.4
 40
0.6
 40
0.6
 40
0.6
 40
0.6
 40
1.0
 40
1.0
 40
1.0
 40
1.0
 10
-7.55388
 20
9.32884
 30
0.0
 10
-7.55388
 20
9.32884
 30
0.0
 10
-6.34034
 20
9.32884
 30
0.0
 10
-6.34034
 20
9.32884
 30
0.0
 10
-6.34034
 20
9.32884
 30
0.0
 10
-6.34034
 20
9.32884
 30
0.0
 10
-6.34034
 20
8.79739
 30
0.0
 10
-6.34034
 20
8.79739
 30
0.0
 10
-6.34034
 20
8.79739
 30
0.0
 10
-6.34034
 20
8.79739
 30
0.0
 10
-7.55388
 20
8.79739
 30
0.0
 10
-7.55388
 20
8.79739
 30
0.0
 10
-7.55388
 20
8.79739
 30
0.0
 10
-7.55388
 20
8.79739
 30
0.0
 10
-7.55388
 20
9.32884
 30
0.0
 10
-7.55388
 20
9.32884
 30
0.0
  0
SPLINE
  5
84
330
1F
100
AcDbEntity
  8
Layer 1
 62
   242
100
AcDbSpline
210
0.0
220
0.0
230
1.0
 70
    11
 71
     3
 72
    20
 73
    16
 74
     0
 42
0.0000000001
 43
0.0000000001
 12
1.0
 22
0.0
 32
0.0
 13
1.0
 23
0.0
 33
0.0
 40
0.0
 40
0.0
 40
0.0
 40
0.0
 40
0.2
 40
0.2
 40
0.2
 40
0.2
 40
0.4
 40
0.4
 40
0.4
 40
0.4
 40
0.6
 40
0.6
 40
0.6
 40
0.6
 40
1.0
 40
1.0
 40
1.0
 40
1.0
 10
-7.55388
 20
12.04249
 30
0.0
 10
-7.55388
 20
12.04249
 30
0.0
 10
-7.55388
 20
11.49052
 30
0.0
 10
-7.55388
 20
11.49052
 30
0.0
 10
-7.55388
 20
11.49052
 30
0.0
 10
-7.55388
 20
11.49052
 30
0.0
 10
-6.34034
 20
11.49052
 30
0.0
 10
-6.34034
 20
11.49052
 30
0.0
 10
-6.34034
 20
11.49052
 30
0.0
 10
-6.34034
 20
11.49052
 30
0.0
 10
-6.34034
 20
12.04249
 30
0.0
 10
-6.34034
 20
12.04249
 30
0.0
 10
-6.34034
 20
12.04249
 30
0.0
 10
-6.34034
 20
12.04249
 30
0.0
 10
-7.55388
 20
12.04249
 30
0.0
 10
-7.55388
 20
12.04249
 30
0.0
  0
SPLINE
  5
85
330
1F
100
AcDbEntity
  8
Layer 1
 62
   242
100
AcDbSpline
210
0.0
220
0.0
230
1.0
 70
    11
 71
     3
 72
    36
 73
    32
 74
     0
 42
0.0000000001
 43
0.0000000001
 12
1.0
 22
0.0
 32
0.0
 13
1.0
 23
0.0
 33
0.0
 40
0.0
 40
0.0
 40
0.0
 40
0.0
 40
0.1111111111111111
 40
0.1111111111111111
 40
0.1111111111111111
 40
0.1111111111111111
 40
0.2222222222222222
 40
0.2222222222222222
 40
0.2222222222222222
 40
0.2222222222222222
 40
0.3333333333333333
 40
0.3333333333333333
 40
0.3333333333333333
 40
0.3333333333333333
 40
0.4444444444444444
 40
0.4444444444444444
 40
0.4444444444444444
 40
0.4444444444444444
 40
0.5555555555555556
 40
0.5555555555555556
 40
0.5555555555555556
 40
0.5555555555555556
 40
0.6666666666666666
 40
0.6666666666666666
 40
0.6666666666666666
 40
0.6666666666666666
 40
0.7777777777777778
 40
0.7777777777777778
 40
0.7777777777777778
 40
0.7777777777777778
 40
1.0
 40
1.0
 40
1.0
 40
1.0
 10
-6.81568
 20
10.17479
 30
0.0
 10
-6.81568
 20
10.17479
 30
0.0
 10
-6.81568
 20
10.66403
 30
0.0
 10
-6.81568
 20
10.66403
 30
0.0
 10
-6.81568
 20
10.66403
 30
0.0
 10
-6.81568
 20
10.66403
 30
0.0
 10
-6.05689
 20
10.66403
 30
0.0
 10
-6.05689
 20
10.66403
 30
0.0
 10
-6.05689
 20
10.66403
 30
0.0
 10
-6.05689
 20
10.66403
 30
0.0
 10
-6.05689
 20
11.27707
 30
0.0
 10
-6.05689
 20
11.27707
 30
0.0
 10
-6.05689
 20
11.27707
 30
0.0
 10
-6.05689
 20
11.27707
 30
0.0
 10
-5.59301
 20
11.27707
 30
0.0
 10
-5.59301
 20
11.27707
 30
0.0
 10
-5.59301
 20
11.27707
 30
0.0
 10
-5.59301
 20
11.27707
 30
0.0
 10
-5.59301
 20
9.54227
 30
0.0
 10
-5.59301
 20
9.54227
 30
0.0
 10
-5.59301
 20
9.54227
 30
0.0
 10
-5.59301
 20
9.54227
 30
0.0
 10
-6.05689
 20
9.54227
 30
0.0
 10
-6.05689
 20
9.54227
 30
0.0
 10
-6.05689
 20
9.54227
 30
0.0
 10
-6.05689
 20
9.54227
 30
0.0
 10
-6.05689
 20
10.17479
 30
0.0
 10
-6.05689
 20
10.17479
 30
0.0
 10
-6.05689
 20
10.17479
 30
0.0
 10
-6.05689
 20
10.17479
 30
0.0
 10
-6.81568
 20
10.17479
 30
0.0
 10
-6.81568
 20
10.17479
 30
0.0
  0
SPLINE
  5
86
330
1F
100
AcDbEntity
  8
Layer 1
 62
   242
100
AcDbSpline
210
0.0
220
0.0
230
1.0
 70
    11
 71
     3
 72
    36
 73
    32
 74
     0
 42
0.0000000001
 43
0.0000000001
 12
1.0
 22
0.0
 32
0.0
 13
1.0
 23
0.0
 33
0.0
 40
0.0
 40
0.0
 40
0.0
 40
0.0
 40
0.1111111111111111
 40
0.1111111111111111
 40
0.1111111111111111
 40
0.1111111111111111
 40
0.2222222222222222
 40
0.2222222222222222
 40
0.2222222222222222
 40
0.2222222222222222
 40
0.3333333333333333
 40
0.3333333333333333
 40
0.3333333333333333
 40
0.3333333333333333
 40
0.4444444444444444
 40
0.4444444444444444
 40
0.4444444444444444
 40
0.4444444444444444
 40
0.5555555555555556
 40
0.5555555555555556
 40
0.5555555555555556
 40
0.5555555555555556
 40
0.6666666666666666
 40
0.6666666666666666
 40
0.6666666666666666
 40
0.6666666666666666
 40
0.7777777777777778
 40
0.7777777777777778
 40
0.7777777777777778
 40
0.7777777777777778
 40
1.0
 40
1.0
 40
1.0
 40
1.0
 10
-7.09915
 20
10.66403
 30
0.0
 10
-7.09915
 20
10.66403
 30
0.0
 10
-7.09915
 20
10.17479
 30
0.0
 10
-7.09915
 20
10.17479
 30
0.0
 10
-7.09915
 20
10.17479
 30
0.0
 10
-7.09915
 20
10.17479
 30
0.0
 10
-7.83734
 20
10.17479
 30
0.0
 10
-7.83734
 20
10.17479
 30
0.0
 10
-7.83734
 20
10.17479
 30
0.0
 10
-7.83734
 20
10.17479
 30
0.0
 10
-7.83734
 20
9.54227
 30
0.0
 10
-7.83734
 20
9.54227
 30
0.0
 10
-7.83734
 20
9.54227
 30
0.0
 10
-7.83734
 20
9.54227
 30
0.0
 10
-8.30121
 20
9.54227
 30
0.0
 10
-8.30121
 20
9.54227
 30
0.0
 10
-8.30121
 20
9.54227
 30
0.0
 10
-8.30121
 20
9.54227
 30
0.0
 10
-8.30121
 20
11.27707
 30
0.0
 10
-8.30121
 20
11.27707
 30
0.0
 10
-8.30121
 20
11.27707
 30
0.0
 10
-8.30121
 20
11.27707
 30
0.0
 10
-7.83734
 20
11.27707
 30
0.0
 10
-7.83734
 20
11.27707
 30
0.0
 10
-7.83734
 20
11.27707
 30
0.0
 10
-7.83734
 20
11.27707
 30
0.0
 10
-7.83734
 20
10.66403
 30
0.0
 10
-7.83734
 20
10.66403
 30
0.0
 10
-7.83734
 20
10.66403
 30
0.0
 10
-7.83734
 20
10.66403
 30
0.0
 10
-7.09915
 20
10.66403
 30
0.0
 10
-7.09915
 20
10.66403
 30
0.0
  0
SPLINE
  5
87
330
1F
100
AcDbEntity
  8
Layer 1
 62
   242
100
AcDbSpline
210
0.0
220
0.0
230
1.0
 70
    11
 71
     3
 72
    20
 73
    16
 74
     0
 42
0.0000000001
 43
0.0000000001
 12
1.0
 22
0.0
 32
0.0
 13
1.0
 23
0.0
 33
0.0
 40
0.0
 40
0.0
 40
0.0
 40
0.0
 40
0.2
 40
0.2
 40
0.2
 40
0.2
 40
0.4
 40
0.4
 40
0.4
 40
0.4
 40
0.6
 40
0.6
 40
0.6
 40
0.6
 40
1.0
 40
1.0
 40
1.0
 40
1.0
 10
-6.17026
 20
12.84453
 30
0.0
 10
-6.17026
 20
12.84453
 30
0.0
 10
-6.17026
 20
12.65727
 30
0.0
 10
-6.17026
 20
12.65727
 30
0.0
 10
-6.17026
 20
12.65727
 30
0.0
 10
-6.17026
 20
12.65727
 30
0.0
 10
-7.72396
 20
12.65727
 30
0.0
 10
-7.72396
 20
12.65727
 30
0.0
 10
-7.72396
 20
12.65727
 30
0.0
 10
-7.72396
 20
12.65727
 30
0.0
 10
-7.72396
 20
12.84453
 30
0.0
 10
-7.72396
 20
12.84453
 30
0.0
 10
-7.72396
 20
12.84453
 30
0.0
 10
-7.72396
 20
12.84453
 30
0.0
 10
-6.17026
 20
12.84453
 30
0.0
 10
-6.17026
 20
12.84453
 30
0.0
  0
SPLINE
  5
88
330
1F
100
AcDbEntity
  8
Layer 1
 62
   177
370
     9
100
AcDbSpline
210
0.0
220
0.0
230
1.0
 70
    11
 71
     3
 72
    20
 73
    16
 74
     0
 42
0.0000000001
 43
0.0000000001
 12
1.0
 22
0.0
 32
0.0
 13
1.0
 23
0.0
 33
0.0
 40
0.0
 40
0.0
 40
0.0
 40
0.0
 40
0.2
 40
0.2
 40
0.2
 40
0.2
 40
0.4
 40
0.4
 40
0.4
 40
0.4
 40
0.6
 40
0.6
 40
0.6
 40
0.6
 40
1.0
 40
1.0
 40
1.0
 40
1.0
 10
-1.92904
 20
13.28485
 30
0.0
 10
-1.92904
 20
13.28485
 30
0.0
 10
2.98787
 20
13.28485
 30
0.0
 10
2.98787
 20
13.28485
 30
0.0
 10
2.98787
 20
13.28485
 30
0.0
 10
2.98787
 20
13.28485
 30
0.0
 10
2.98787
 20
-10.53647
 30
0.0
 10
2.98787
 20
-10.53647
 30
0.0
 10
2.98787
 20
-10.53647
 30
0.0
 10
2.98787
 20
-10.53647
 30
0.0
 10
-1.92904
 20
-10.53647
 30
0.0
 10
-1.92904
 20
-10.53647
 30
0.0
 10
-1.92904
 20
-10.53647
 30
0.0
 10
-1.92904
 20
-10.53647
 30
0.0
 10
-1.92904
 20
13.28485
 30
0.0
 10
-1.92904
 20
13.28485
 30
0.0
  0
SPLINE
  5
89
330
1F
100
AcDbEntity
  8
Layer 1
 62
   177
370
     9
100
AcDbSpline
210
0.0
220
0.0
230
1.0
 70
    11
 71
     3
 72
    36
 73
    32
 74
     0
 42
0.0000000001
 43
0.0000000001
 12
1.0
 22
0.0
 32
0.0
 13
1.0
 23
0.0
 33
0.0
 40
0.0
 40
0.0
 40
0.0
 40
0.0
 40
0.1111111111111111
 40
0.1111111111111111
 40
0.1111111111111111
 40
0.1111111111111111
 40
0.2222222222222222
 40
0.2222222222222222
 40
0.2222222222222222
 40
0.2222222222222222
 40
0.3333333333333333
 40
0.3333333333333333
 40
0.3333333333333333
 40
0.3333333333333333
 40
0.4444444444444444
 40
0.4444444444444444
 40
0.4444444444444444
 40
0.4444444444444444
 40
0.5555555555555556
 40
0.5555555555555556
 40
0.5555555555555556
 40
0.5555555555555556
 40
0.6666666666666666
 40
0.6666666666666666
 40
0.6666666666666666
 40
0.6666666666666666
 40
0.7777777777777778
 40
0.7777777777777778
 40
0.7777777777777778
 40
0.7777777777777778
 40
1.0
 40
1.0
 40
1.0
 40
1.0
 10
-0.07774
 20
7.26276
 30
0.0
 10
-0.07774
 20
7.26276
 30
0.0
 10
1.1358
 20
7.26276
 30
0.0
 10
1.1358
 20
7.26276
 30
0.0
 10
1.1358
 20
7.26276
 30
0.0
 10
1.1358
 20
7.26276
 30
0.0
 10
1.1358
 20
6.00409
 30
0.0
 10
1.1358
 20
6.00409
 30
0.0
 10
1.1358
 20
6.00409
 30
0.0
 10
1.1358
 20
6.00409
 30
0.0
 10
0.92127
 20
6.00409
 30
0.0
 10
0.92127
 20
6.00409
 30
0.0
 10
0.92127
 20
6.00409
 30
0.0
 10
0.92127
 20
6.00409
 30
0.0
 10
0.92127
 20
6.8553
 30
0.0
 10
0.92127
 20
6.8553
 30
0.0
 10
0.92127
 20
6.8553
 30
0.0
 10
0.92127
 20
6.8553
 30
0.0
 10
0.13316
 20
6.8553
 30
0.0
 10
0.13316
 20
6.8553
 30
0.0
 10
0.13316
 20
6.8553
 30
0.0
 10
0.13316
 20
6.8553
 30
0.0
 10
0.13316
 20
6.00409
 30
0.0
 10
0.13316
 20
6.00409
 30
0.0
 10
0.13316
 20
6.00409
 30
0.0
 10
0.13316
 20
6.00409
 30
0.0
 10
-0.07774
 20
6.00409
 30
0.0
 10
-0.07774
 20
6.00409
 30
0.0
 10
-0.07774
 20
6.00409
 30
0.0
 10
-0.07774
 20
6.00409
 30
0.0
 10
-0.07774
 20
7.26276
 30
0.0
 10
-0.07774
 20
7.26276
 30
0.0
  0
SPLINE
  5
8A
330
1F
100
AcDbEntity
  8
Layer 1
 62
   177
370
     9
100
AcDbSpline
210
0.0
220
0.0
230
1.0
 70
    11
 71
     3
 72
    36
 73
    32
 74
     0
 42
0.0000000001
 43
0.0000000001
 12
1.0
 22
0.0
 32
0.0
 13
1.0
 23
0.0
 33
0.0
 40
0.0
 40
0.0
 40
0.0
 40
0.0
 40
0.1111111111111111
 40
0.1111111111111111
 40
0.1111111111111111
 40
0.1111111111111111
 40
0.2222222222222222
 40
0.2222222222222222
 40
0.2222222222222222
 40
0.2222222222222222
 40
0.3333333333333333
 40
0.3333333333333333
 40
0.3333333333333333
 40
0.3333333333333333
 40
0.4444444444444444
 40
0.4444444444444444
 40
0.4444444444444444
 40
0.4444444444444444
 40
0.5555555555555556
 40
0.5555555555555556
 40
0.5555555555555556
 40
0.5555555555555556
 40
0.6666666666666666
 40
0.6666666666666666
 40
0.6666666666666666
 40
0.6666666666666666
 40
0.7777777777777778
 40
0.7777777777777778
 40
0.7777777777777778
 40
0.7777777777777778
 40
1.0
 40
1.0
 40
1.0
 40
1.0
 10
0.13316
 20
-2.22584
 30
0.0
 10
0.13316
 20
-2.22584
 30
0.0
 10
0.92127
 20
-2.22584
 30
0.0
 10
0.92127
 20
-2.22584
 30
0.0
 10
0.92127
 20
-2.22584
 30
0.0
 10
0.92127
 20
-2.22584
 30
0.0
 10
0.92127
 20
-3.07706
 30
0.0
 10
0.92127
 20
-3.07706
 30
0.0
 10
0.92127
 20
-3.07706
 30
0.0
 10
0.92127
 20
-3.07706
 30
0.0
 10
1.13655
 20
-3.07706
 30
0.0
 10
1.13655
 20
-3.07706
 30
0.0
 10
1.13655
 20
-3.07706
 30
0.0
 10
1.13655
 20
-3.07706
 30
0.0
 10
1.13655
 20
-1.79356
 30
0.0
 10
1.13655
 20
-1.79356
 30
0.0
 10
1.13655
 20
-1.79356
 30
0.0
 10
1.13655
 20
-1.79356
 30
0.0
 10
-0.07699
 20
-1.79356
 30
0.0
 10
-0.07699
 20
-1.79356
 30
0.0
 10
-0.07699
 20
-1.79356
 30
0.0
 10
-0.07699
 20
-1.79356
 30
0.0
 10
-0.07699
 20
-3.07706
 30
0.0
 10
-0.07699
 20
-3.07706
 30
0.0
 10
-0.07699
 20
-3.07706
 30
0.0
 10
-0.07699
 20
-3.07706
 30
0.0
 10
0.13316
 20
-3.07706
 30
0.0
 10
0.13316
 20
-3.07706
 30
0.0
 10
0.13316
 20
-3.07706
 30
0.0
 10
0.13316
 20
-3.07706
 30
0.0
 10
0.13316
 20
-2.22584
 30
0.0
 10
0.13316
 20
-2.22584
 30
0.0
  0
SPLINE
  5
8B
330
1F
100
AcDbEntity
  8
Layer 1
 62
   177
370
     9
100
AcDbSpline
210
0.0
220
0.0
230
1.0
 70
    11
 71
     3
 72
    36
 73
    32
 74
     0
 42
0.0000000001
 43
0.0000000001
 12
1.0
 22
0.0
 32
0.0
 13
1.0
 23
0.0
 33
0.0
 40
0.0
 40
0.0
 40
0.0
 40
0.0
 40
0.1111111111111111
 40
0.1111111111111111
 40
0.1111111111111111
 40
0.1111111111111111
 40
0.2222222222222222
 40
0.2222222222222222
 40
0.2222222222222222
 40
0.2222222222222222
 40
0.3333333333333333
 40
0.3333333333333333
 40
0.3333333333333333
 40
0.3333333333333333
 40
0.4444444444444444
 40
0.4444444444444444
 40
0.4444444444444444
 40
0.4444444444444444
 40
0.5555555555555556
 40
0.5555555555555556
 40
0.5555555555555556
 40
0.5555555555555556
 40
0.6666666666666666
 40
0.6666666666666666
 40
0.6666666666666666
 40
0.6666666666666666
 40
0.7777777777777778
 40
0.7777777777777778
 40
0.7777777777777778
 40
0.7777777777777778
 40
1.0
 40
1.0
 40
1.0
 40
1.0
 10
1.13655
 20
-3.28779
 30
0.0
 10
1.13655
 20
-3.28779
 30
0.0
 10
0.92127
 20
-3.28779
 30
0.0
 10
0.92127
 20
-3.28779
 30
0.0
 10
0.92127
 20
-3.28779
 30
0.0
 10
0.92127
 20
-3.28779
 30
0.0
 10
0.92127
 20
-4.13901
 30
0.0
 10
0.92127
 20
-4.13901
 30
0.0
 10
0.92127
 20
-4.13901
 30
0.0
 10
0.92127
 20
-4.13901
 30
0.0
 10
0.13316
 20
-4.13901
 30
0.0
 10
0.13316
 20
-4.13901
 30
0.0
 10
0.13316
 20
-4.13901
 30
0.0
 10
0.13316
 20
-4.13901
 30
0.0
 10
0.13316
 20
-3.28779
 30
0.0
 10
0.13316
 20
-3.28779
 30
0.0
 10
0.13316
 20
-3.28779
 30
0.0
 10
0.13316
 20
-3.28779
 30
0.0
 10
-0.07699
 20
-3.28779
 30
0.0
 10
-0.07699
 20
-3.28779
 30
0.0
 10
-0.07699
 20
-3.28779
 30
0.0
 10
-0.07699
 20
-3.28779
 30
0.0
 10
-0.07699
 20
-4.51438
 30
0.0
 10
-0.07699
 20
-4.51438
 30
0.0
 10
-0.07699
 20
-4.51438
 30
0.0
 10
-0.07699
 20
-4.51438
 30
0.0
 10
1.13655
 20
-4.51438
 30
0.0
 10
1.13655
 20
-4.51438
 30
0.0
 10
1.13655
 20
-4.51438
 30
0.0
 10
1.13655
 20
-4.51438
 30
0.0
 10
1.13655
 20
-3.28779
 30
0.0
 10
1.13655
 20
-3.28779
 30
0.0
  0
SPLINE
  5
8C
330
1F
100
AcDbEntity
  8
Layer 1
 62
   177
370
     9
100
AcDbSpline
210
0.0
220
0.0
230
1.0
 70
    11
 71
     3
 72
    20
 73
    16
 74
     0
 42
0.0000000001
 43
0.0000000001
 12
1.0
 22
0.0
 32
0.0
 13
1.0
 23
0.0
 33
0.0
 40
0.0
 40
0.0
 40
0.0
 40
0.0
 40
0.2
 40
0.2
 40
0.2
 40
0.2
 40
0.4
 40
0.4
 40
0.4
 40
0.4
 40
0.6
 40
0.6
 40
0.6
 40
0.6
 40
1.0
 40
1.0
 40
1.0
 40
1.0
 10
0.33018
 20
-2.42287
 30
0.0
 10
0.33018
 20
-2.42287
 30
0.0
 10
0.72424
 20
-2.42287
 30
0.0
 10
0.72424
 20
-2.42287
 30
0.0
 10
0.72424
 20
-2.42287
 30
0.0
 10
0.72424
 20
-2.42287
 30
0.0
 10
0.72424
 20
-3.94198
 30
0.0
 10
0.72424
 20
-3.94198
 30
0.0
 10
0.72424
 20
-3.94198
 30
0.0
 10
0.72424
 20
-3.94198
 30
0.0
 10
0.33018
 20
-3.94198
 30
0.0
 10
0.33018
 20
-3.94198
 30
0.0
 10
0.33018
 20
-3.94198
 30
0.0
 10
0.33018
 20
-3.94198
 30
0.0
 10
0.33018
 20
-2.42287
 30
0.0
 10
0.33018
 20
-2.42287
 30
0.0
  0
SPLINE
  5
8D
330
1F
100
AcDbEntity
  8
Layer 1
 62
   177
370
     9
100
AcDbSpline
210
0.0
220
0.0
230
1.0
 70
    11
 71
     3
 72
    36
 73
    32
 74
     0
 42
0.0000000001
 43
0.0000000001
 12
1.0
 22
0.0
 32
0.0
 13
1.0
 23
0.0
 33
0.0
 40
0.0
 40
0.0
 40
0.0
 40
0.0
 40
0.1111111111111111
 40
0.1111111111111111
 40
0.1111111111111111
 40
0.1111111111111111
 40
0.2222222222222222
 40
0.2222222222222222
 40
0.2222222222222222
 40
0.2222222222222222
 40
0.3333333333333333
 40
0.3333333333333333
 40
0.3333333333333333
 40
0.3333333333333333
 40
0.4444444444444444
 40
0.4444444444444444
 40
0.4444444444444444
 40
0.4444444444444444
 40
0.5555555555555556
 40
0.5555555555555556
 40
0.5555555555555556
 40
0.5555555555555556
 40
0.6666666666666666
 40
0.6666666666666666
 40
0.6666666666666666
 40
0.6666666666666666
 40
0.7777777777777778
 40
0.7777777777777778
 40
0.7777777777777778
 40
0.7777777777777778
 40
1.0
 40
1.0
 40
1.0
 40
1.0
 10
1.1358
 20
5.79335
 30
0.0
 10
1.1358
 20
5.79335
 30
0.0
 10
1.1358
 20
4.54194
 30
0.0
 10
1.1358
 20
4.54194
 30
0.0
 10
1.1358
 20
4.54194
 30
0.0
 10
1.1358
 20
4.54194
 30
0.0
 10
-0.07774
 20
4.54194
 30
0.0
 10
-0.07774
 20
4.54194
 30
0.0
 10
-0.07774
 20
4.54194
 30
0.0
 10
-0.07774
 20
4.54194
 30
0.0
 10
-0.07774
 20
5.79335
 30
0.0
 10
-0.07774
 20
5.79335
 30
0.0
 10
-0.07774
 20
5.79335
 30
0.0
 10
-0.07774
 20
5.79335
 30
0.0
 10
0.13316
 20
5.79335
 30
0.0
 10
0.13316
 20
5.79335
 30
0.0
 10
0.13316
 20
5.79335
 30
0.0
 10
0.13316
 20
5.79335
 30
0.0
 10
0.13316
 20
4.94213
 30
0.0
 10
0.13316
 20
4.94213
 30
0.0
 10
0.13316
 20
4.94213
 30
0.0
 10
0.13316
 20
4.94213
 30
0.0
 10
0.92127
 20
4.94213
 30
0.0
 10
0.92127
 20
4.94213
 30
0.0
 10
0.92127
 20
4.94213
 30
0.0
 10
0.92127
 20
4.94213
 30
0.0
 10
0.92127
 20
5.79335
 30
0.0
 10
0.92127
 20
5.79335
 30
0.0
 10
0.92127
 20
5.79335
 30
0.0
 10
0.92127
 20
5.79335
 30
0.0
 10
1.1358
 20
5.79335
 30
0.0
 10
1.1358
 20
5.79335
 30
0.0
  0
SPLINE
  5
8E
330
1F
100
AcDbEntity
  8
Layer 1
 62
   177
370
     9
100
AcDbSpline
210
0.0
220
0.0
230
1.0
 70
    11
 71
     3
 72
    20
 73
    16
 74
     0
 42
0.0000000001
 43
0.0000000001
 12
1.0
 22
0.0
 32
0.0
 13
1.0
 23
0.0
 33
0.0
 40
0.0
 40
0.0
 40
0.0
 40
0.0
 40
0.2
 40
0.2
 40
0.2
 40
0.2
 40
0.4
 40
0.4
 40
0.4
 40
0.4
 40
0.6
 40
0.6
 40
0.6
 40
0.6
 40
1.0
 40
1.0
 40
1.0
 40
1.0
 10
0.33018
 20
6.65827
 30
0.0
 10
0.33018
 20
6.65827
 30
0.0
 10
0.72424
 20
6.65827
 30
0.0
 10
0.72424
 20
6.65827
 30
0.0
 10
0.72424
 20
6.65827
 30
0.0
 10
0.72424
 20
6.65827
 30
0.0
 10
0.72424
 20
5.13916
 30
0.0
 10
0.72424
 20
5.13916
 30
0.0
 10
0.72424
 20
5.13916
 30
0.0
 10
0.72424
 20
5.13916
 30
0.0
 10
0.33018
 20
5.13916
 30
0.0
 10
0.33018
 20
5.13916
 30
0.0
 10
0.33018
 20
5.13916
 30
0.0
 10
0.33018
 20
5.13916
 30
0.0
 10
0.33018
 20
6.65827
 30
0.0
 10
0.33018
 20
6.65827
 30
0.0
  0
SPLINE
  5
8F
330
1F
100
AcDbEntity
  8
Layer 1
 62
   177
370
     9
100
AcDbSpline
210
0.0
220
0.0
230
1.0
 70
    11
 71
     3
 72
    20
 73
    16
 74
     0
 42
0.0000000001
 43
0.0000000001
 12
1.0
 22
0.0
 32
0.0
 13
1.0
 23
0.0
 33
0.0
 40
0.0
 40
0.0
 40
0.0
 40
0.0
 40
0.2
 40
0.2
 40
0.2
 40
0.2
 40
0.4
 40
0.4
 40
0.4
 40
0.4
 40
0.6
 40
0.6
 40
0.6
 40
0.6
 40
1.0
 40
1.0
 40
1.0
 40
1.0
 10
-0.82432
 20
-5.41576
 30
0.0
 10
-0.82432
 20
-5.41576
 30
0.0
 10
1.88388
 20
-5.41576
 30
0.0
 10
1.88388
 20
-5.41576
 30
0.0
 10
1.88388
 20
-5.41576
 30
0.0
 10
1.88388
 20
-5.41576
 30
0.0
 10
1.88388
 20
-5.83557
 30
0.0
 10
1.88388
 20
-5.83557
 30
0.0
 10
1.88388
 20
-5.83557
 30
0.0
 10
1.88388
 20
-5.83557
 30
0.0
 10
-0.82432
 20
-5.83557
 30
0.0
 10
-0.82432
 20
-5.83557
 30
0.0
 10
-0.82432
 20
-5.83557
 30
0.0
 10
-0.82432
 20
-5.83557
 30
0.0
 10
-0.82432
 20
-5.41576
 30
0.0
 10
-0.82432
 20
-5.41576
 30
0.0
  0
SPLINE
  5
90
330
1F
100
AcDbEntity
  8
Layer 1
 62
   177
370
     9
100
AcDbSpline
210
0.0
220
0.0
230
1.0
 70
    11
 71
     3
 72
    28
 73
    24
 74
     0
 42
0.0000000001
 43
0.0000000001
 12
1.0
 22
0.0
 32
0.0
 13
1.0
 23
0.0
 33
0.0
 40
0.0
 40
0.0
 40
0.0
 40
0.0
 40
0.1428571428571428
 40
0.1428571428571428
 40
0.1428571428571428
 40
0.1428571428571428
 40
0.2857142857142857
 40
0.2857142857142857
 40
0.2857142857142857
 40
0.2857142857142857
 40
0.4285714285714285
 40
0.4285714285714285
 40
0.4285714285714285
 40
0.4285714285714285
 40
0.5714285714285714
 40
0.5714285714285714
 40
0.5714285714285714
 40
0.5714285714285714
 40
0.7142857142857143
 40
0.7142857142857143
 40
0.7142857142857143
 40
0.7142857142857143
 40
1.0
 40
1.0
 40
1.0
 40
1.0
 10
1.88388
 20
-0.89218
 30
0.0
 10
1.88388
 20
-0.89218
 30
0.0
 10
-0.82432
 20
-0.89218
 30
0.0
 10
-0.82432
 20
-0.89218
 30
0.0
 10
-0.82432
 20
-0.89218
 30
0.0
 10
-0.82432
 20
-0.89218
 30
0.0
 10
-0.82432
 20
-0.47236
 30
0.0
 10
-0.82432
 20
-0.47236
 30
0.0
 10
-0.82432
 20
-0.47236
 30
0.0
 10
-0.82432
 20
-0.47236
 30
0.0
 10
1.88313
 20
-0.47236
 30
0.0
 10
1.88313
 20
-0.47236
 30
0.0
 10
1.88313
 20
-0.47236
 30
0.0
 10
1.88313
 20
-0.47236
 30
0.0
 10
1.88313
 20
-0.84297
 30
0.0
 10
1.88313
 20
-0.84297
 30
0.0
 10
1.88313
 20
-0.84297
 30
0.0
 10
1.88313
 20
-0.84297
 30
0.0
 10
1.88388
 20
-0.84297
 30
0.0
 10
1.88388
 20
-0.84297
 30
0.0
 10
1.88388
 20
-0.84297
 30
0.0
 10
1.88388
 20
-0.84297
 30
0.0
 10
1.88388
 20
-0.89218
 30
0.0
 10
1.88388
 20
-0.89218
 30
0.0
  0
SPLINE
  5
91
330
1F
100
AcDbEntity
  8
Layer 1
 62
   177
370
     9
100
AcDbSpline
210
0.0
220
0.0
230
1.0
 70
    11
 71
     3
 72
    36
 73
    32
 74
     0
 42
0.0000000001
 43
0.0000000001
 12
1.0
 22
0.0
 32
0.0
 13
1.0
 23
0.0
 33
0.0
 40
0.0
 40
0.0
 40
0.0
 40
0.0
 40
0.1111111111111111
 40
0.1111111111111111
 40
0.1111111111111111
 40
0.1111111111111111
 40
0.2222222222222222
 40
0.2222222222222222
 40
0.2222222222222222
 40
0.2222222222222222
 40
0.3333333333333333
 40
0.3333333333333333
 40
0.3333333333333333
 40
0.3333333333333333
 40
0.4444444444444444
 40
0.4444444444444444
 40
0.4444444444444444
 40
0.4444444444444444
 40
0.5555555555555556
 40
0.5555555555555556
 40
0.5555555555555556
 40
0.5555555555555556
 40
0.6666666666666666
 40
0.6666666666666666
 40
0.6666666666666666
 40
0.6666666666666666
 40
0.7777777777777778
 40
0.7777777777777778
 40
0.7777777777777778
 40
0.7777777777777778
 40
1.0
 40
1.0
 40
1.0
 40
1.0
 10
-0.82432
 20
-4.04978
 30
0.0
 10
-0.82432
 20
-4.04978
 30
0.0
 10
-0.36045
 20
-4.04978
 30
0.0
 10
-0.36045
 20
-4.04978
 30
0.0
 10
-0.36045
 20
-4.04978
 30
0.0
 10
-0.36045
 20
-4.04978
 30
0.0
 10
-0.36045
 20
-4.7278
 30
0.0
 10
-0.36045
 20
-4.7278
 30
0.0
 10
-0.36045
 20
-4.7278
 30
0.0
 10
-0.36045
 20
-4.7278
 30
0.0
 10
1.42001
 20
-4.7278
 30
0.0
 10
1.42001
 20
-4.7278
 30
0.0
 10
1.42001
 20
-4.7278
 30
0.0
 10
1.42001
 20
-4.7278
 30
0.0
 10
1.42001
 20
-4.04978
 30
0.0
 10
1.42001
 20
-4.04978
 30
0.0
 10
1.42001
 20
-4.04978
 30
0.0
 10
1.42001
 20
-4.04978
 30
0.0
 10
1.88388
 20
-4.04978
 30
0.0
 10
1.88388
 20
-4.04978
 30
0.0
 10
1.88388
 20
-4.04978
 30
0.0
 10
1.88388
 20
-4.04978
 30
0.0
 10
1.88388
 20
-5.20232
 30
0.0
 10
1.88388
 20
-5.20232
 30
0.0
 10
1.88388
 20
-5.20232
 30
0.0
 10
1.88388
 20
-5.20232
 30
0.0
 10
-0.82432
 20
-5.20232
 30
0.0
 10
-0.82432
 20
-5.20232
 30
0.0
 10
-0.82432
 20
-5.20232
 30
0.0
 10
-0.82432
 20
-5.20232
 30
0.0
 10
-0.82432
 20
-4.04978
 30
0.0
 10
-0.82432
 20
-4.04978
 30
0.0
  0
SPLINE
  5
92
330
1F
100
AcDbEntity
  8
Layer 1
 62
   177
370
     9
100
AcDbSpline
210
0.0
220
0.0
230
1.0
 70
    11
 71
     3
 72
    20
 73
    16
 74
     0
 42
0.0000000001
 43
0.0000000001
 12
1.0
 22
0.0
 32
0.0
 13
1.0
 23
0.0
 33
0.0
 40
0.0
 40
0.0
 40
0.0
 40
0.0
 40
0.2
 40
0.2
 40
0.2
 40
0.2
 40
0.4
 40
0.4
 40
0.4
 40
0.4
 40
0.6
 40
0.6
 40
0.6
 40
0.6
 40
1.0
 40
1.0
 40
1.0
 40
1.0
 10
1.42001
 20
-2.47161
 30
0.0
 10
1.42001
 20
-2.47161
 30
0.0
 10
1.88388
 20
-2.47161
 30
0.0
 10
1.88388
 20
-2.47161
 30
0.0
 10
1.88388
 20
-2.47161
 30
0.0
 10
1.88388
 20
-2.47161
 30
0.0
 10
1.88388
 20
-3.83634
 30
0.0
 10
1.88388
 20
-3.83634
 30
0.0
 10
1.88388
 20
-3.83634
 30
0.0
 10
1.88388
 20
-3.83634
 30
0.0
 10
1.42001
 20
-3.83634
 30
0.0
 10
1.42001
 20
-3.83634
 30
0.0
 10
1.42001
 20
-3.83634
 30
0.0
 10
1.42001
 20
-3.83634
 30
0.0
 10
1.42001
 20
-2.47161
 30
0.0
 10
1.42001
 20
-2.47161
 30
0.0
  0
SPLINE
  5
93
330
1F
100
AcDbEntity
  8
Layer 1
 62
   177
370
     9
100
AcDbSpline
210
0.0
220
0.0
230
1.0
 70
    11
 71
     3
 72
    36
 73
    32
 74
     0
 42
0.0000000001
 43
0.0000000001
 12
1.0
 22
0.0
 32
0.0
 13
1.0
 23
0.0
 33
0.0
 40
0.0
 40
0.0
 40
0.0
 40
0.0
 40
0.1111111111111111
 40
0.1111111111111111
 40
0.1111111111111111
 40
0.1111111111111111
 40
0.2222222222222222
 40
0.2222222222222222
 40
0.2222222222222222
 40
0.2222222222222222
 40
0.3333333333333333
 40
0.3333333333333333
 40
0.3333333333333333
 40
0.3333333333333333
 40
0.4444444444444444
 40
0.4444444444444444
 40
0.4444444444444444
 40
0.4444444444444444
 40
0.5555555555555556
 40
0.5555555555555556
 40
0.5555555555555556
 40
0.5555555555555556
 40
0.6666666666666666
 40
0.6666666666666666
 40
0.6666666666666666
 40
0.6666666666666666
 40
0.7777777777777778
 40
0.7777777777777778
 40
0.7777777777777778
 40
0.7777777777777778
 40
1.0
 40
1.0
 40
1.0
 40
1.0
 10
-0.36045
 20
-2.25817
 30
0.0
 10
-0.36045
 20
-2.25817
 30
0.0
 10
-0.82432
 20
-2.25817
 30
0.0
 10
-0.82432
 20
-2.25817
 30
0.0
 10
-0.82432
 20
-2.25817
 30
0.0
 10
-0.82432
 20
-2.25817
 30
0.0
 10
-0.82432
 20
-1.10561
 30
0.0
 10
-0.82432
 20
-1.10561
 30
0.0
 10
-0.82432
 20
-1.10561
 30
0.0
 10
-0.82432
 20
-1.10561
 30
0.0
 10
1.88388
 20
-1.10561
 30
0.0
 10
1.88388
 20
-1.10561
 30
0.0
 10
1.88388
 20
-1.10561
 30
0.0
 10
1.88388
 20
-1.10561
 30
0.0
 10
1.88388
 20
-2.25817
 30
0.0
 10
1.88388
 20
-2.25817
 30
0.0
 10
1.88388
 20
-2.25817
 30
0.0
 10
1.88388
 20
-2.25817
 30
0.0
 10
1.42001
 20
-2.25817
 30
0.0
 10
1.42001
 20
-2.25817
 30
0.0
 10
1.42001
 20
-2.25817
 30
0.0
 10
1.42001
 20
-2.25817
 30
0.0
 10
1.42001
 20
-1.58013
 30
0.0
 10
1.42001
 20
-1.58013
 30
0.0
 10
1.42001
 20
-1.58013
 30
0.0
 10
1.42001
 20
-1.58013
 30
0.0
 10
-0.36045
 20
-1.58013
 30
0.0
 10
-0.36045
 20
-1.58013
 30
0.0
 10
-0.36045
 20
-1.58013
 30
0.0
 10
-0.36045
 20
-1.58013
 30
0.0
 10
-0.36045
 20
-2.25817
 30
0.0
 10
-0.36045
 20
-2.25817
 30
0.0
  0
SPLINE
  5
94
330
1F
100
AcDbEntity
  8
Layer 1
 62
   177
370
     9
100
AcDbSpline
210
0.0
220
0.0
230
1.0
 70
    11
 71
     3
 72
    20
 73
    16
 74
     0
 42
0.0000000001
 43
0.0000000001
 12
1.0
 22
0.0
 32
0.0
 13
1.0
 23
0.0
 33
0.0
 40
0.0
 40
0.0
 40
0.0
 40
0.0
 40
0.2
 40
0.2
 40
0.2
 40
0.2
 40
0.4
 40
0.4
 40
0.4
 40
0.4
 40
0.6
 40
0.6
 40
0.6
 40
0.6
 40
1.0
 40
1.0
 40
1.0
 40
1.0
 10
-0.82432
 20
-2.47161
 30
0.0
 10
-0.82432
 20
-2.47161
 30
0.0
 10
-0.36045
 20
-2.47161
 30
0.0
 10
-0.36045
 20
-2.47161
 30
0.0
 10
-0.36045
 20
-2.47161
 30
0.0
 10
-0.36045
 20
-2.47161
 30
0.0
 10
-0.36045
 20
-3.83634
 30
0.0
 10
-0.36045
 20
-3.83634
 30
0.0
 10
-0.36045
 20
-3.83634
 30
0.0
 10
-0.36045
 20
-3.83634
 30
0.0
 10
-0.82432
 20
-3.83634
 30
0.0
 10
-0.82432
 20
-3.83634
 30
0.0
 10
-0.82432
 20
-3.83634
 30
0.0
 10
-0.82432
 20
-3.83634
 30
0.0
 10
-0.82432
 20
-2.47161
 30
0.0
 10
-0.82432
 20
-2.47161
 30
0.0
  0
SPLINE
  5
95
330
1F
100
AcDbEntity
  8
Layer 1
 62
   177
370
     9
100
AcDbSpline
210
0.0
220
0.0
230
1.0
 70
    11
 71
     3
 72
    20
 73
    16
 74
     0
 42
0.0000000001
 43
0.0000000001
 12
1.0
 22
0.0
 32
0.0
 13
1.0
 23
0.0
 33
0.0
 40
0.0
 40
0.0
 40
0.0
 40
0.0
 40
0.2
 40
0.2
 40
0.2
 40
0.2
 40
0.4
 40
0.4
 40
0.4
 40
0.4
 40
0.6
 40
0.6
 40
0.6
 40
0.6
 40
1.0
 40
1.0
 40
1.0
 40
1.0
 10
1.1358
 20
2.24075
 30
0.0
 10
1.1358
 20
2.24075
 30
0.0
 10
-0.07699
 20
2.24075
 30
0.0
 10
-0.07699
 20
2.24075
 30
0.0
 10
-0.07699
 20
2.24075
 30
0.0
 10
-0.07699
 20
2.24075
 30
0.0
 10
-0.07699
 20
1.84114
 30
0.0
 10
-0.07699
 20
1.84114
 30
0.0
 10
-0.07699
 20
1.84114
 30
0.0
 10
-0.07699
 20
1.84114
 30
0.0
 10
1.1358
 20
1.84114
 30
0.0
 10
1.1358
 20
1.84114
 30
0.0
 10
1.1358
 20
1.84114
 30
0.0
 10
1.1358
 20
1.84114
 30
0.0
 10
1.1358
 20
2.24075
 30
0.0
 10
1.1358
 20
2.24075
 30
0.0
  0
SPLINE
  5
96
330
1F
100
AcDbEntity
  8
Layer 1
 62
   177
370
     9
100
AcDbSpline
210
0.0
220
0.0
230
1.0
 70
    11
 71
     3
 72
    20
 73
    16
 74
     0
 42
0.0000000001
 43
0.0000000001
 12
1.0
 22
0.0
 32
0.0
 13
1.0
 23
0.0
 33
0.0
 40
0.0
 40
0.0
 40
0.0
 40
0.0
 40
0.2
 40
0.2
 40
0.2
 40
0.2
 40
0.4
 40
0.4
 40
0.4
 40
0.4
 40
0.6
 40
0.6
 40
0.6
 40
0.6
 40
1.0
 40
1.0
 40
1.0
 40
1.0
 10
-0.07699
 20
0.90724
 30
0.0
 10
-0.07699
 20
0.90724
 30
0.0
 10
-0.07699
 20
0.50763
 30
0.0
 10
-0.07699
 20
0.50763
 30
0.0
 10
-0.07699
 20
0.50763
 30
0.0
 10
-0.07699
 20
0.50763
 30
0.0
 10
1.1358
 20
0.50763
 30
0.0
 10
1.1358
 20
0.50763
 30
0.0
 10
1.1358
 20
0.50763
 30
0.0
 10
1.1358
 20
0.50763
 30
0.0
 10
1.1358
 20
0.90724
 30
0.0
 10
1.1358
 20
0.90724
 30
0.0
 10
1.1358
 20
0.90724
 30
0.0
 10
1.1358
 20
0.90724
 30
0.0
 10
-0.07699
 20
0.90724
 30
0.0
 10
-0.07699
 20
0.90724
 30
0.0
  0
SPLINE
  5
97
330
1F
100
AcDbEntity
  8
Layer 1
 62
   177
370
     9
100
AcDbSpline
210
0.0
220
0.0
230
1.0
 70
    11
 71
     3
 72
    20
 73
    16
 74
     0
 42
0.0000000001
 43
0.0000000001
 12
1.0
 22
0.0
 32
0.0
 13
1.0
 23
0.0
 33
0.0
 40
0.0
 40
0.0
 40
0.0
 40
0.0
 40
0.2
 40
0.2
 40
0.2
 40
0.2
 40
0.4
 40
0.4
 40
0.4
 40
0.4
 40
0.6
 40
0.6
 40
0.6
 40
0.6
 40
1.0
 40
1.0
 40
1.0
 40
1.0
 10
-0.07699
 20
0.29251
 30
0.0
 10
-0.07699
 20
0.29251
 30
0.0
 10
1.1358
 20
0.29251
 30
0.0
 10
1.1358
 20
0.29251
 30
0.0
 10
1.1358
 20
0.29251
 30
0.0
 10
1.1358
 20
0.29251
 30
0.0
 10
1.1358
 20
-0.25778
 30
0.0
 10
1.1358
 20
-0.25778
 30
0.0
 10
1.1358
 20
-0.25778
 30
0.0
 10
1.1358
 20
-0.25778
 30
0.0
 10
-0.07699
 20
-0.25778
 30
0.0
 10
-0.07699
 20
-0.25778
 30
0.0
 10
-0.07699
 20
-0.25778
 30
0.0
 10
-0.07699
 20
-0.25778
 30
0.0
 10
-0.07699
 20
0.29251
 30
0.0
 10
-0.07699
 20
0.29251
 30
0.0
  0
SPLINE
  5
98
330
1F
100
AcDbEntity
  8
Layer 1
 62
   177
370
     9
100
AcDbSpline
210
0.0
220
0.0
230
1.0
 70
    11
 71
     3
 72
    20
 73
    16
 74
     0
 42
0.0000000001
 43
0.0000000001
 12
1.0
 22
0.0
 32
0.0
 13
1.0
 23
0.0
 33
0.0
 40
0.0
 40
0.0
 40
0.0
 40
0.0
 40
0.2
 40
0.2
 40
0.2
 40
0.2
 40
0.4
 40
0.4
 40
0.4
 40
0.4
 40
0.6
 40
0.6
 40
0.6
 40
0.6
 40
1.0
 40
1.0
 40
1.0
 40
1.0
 10
-0.07699
 20
2.45587
 30
0.0
 10
-0.07699
 20
2.45587
 30
0.0
 10
-0.07699
 20
3.00616
 30
0.0
 10
-0.07699
 20
3.00616
 30
0.0
 10
-0.07699
 20
3.00616
 30
0.0
 10
-0.07699
 20
3.00616
 30
0.0
 10
1.1358
 20
3.00616
 30
0.0
 10
1.1358
 20
3.00616
 30
0.0
 10
1.1358
 20
3.00616
 30
0.0
 10
1.1358
 20
3.00616
 30
0.0
 10
1.1358
 20
2.45587
 30
0.0
 10
1.1358
 20
2.45587
 30
0.0
 10
1.1358
 20
2.45587
 30
0.0
 10
1.1358
 20
2.45587
 30
0.0
 10
-0.07699
 20
2.45587
 30
0.0
 10
-0.07699
 20
2.45587
 30
0.0
  0
SPLINE
  5
99
330
1F
100
AcDbEntity
  8
Layer 1
 62
   177
370
     9
100
AcDbSpline
210
0.0
220
0.0
230
1.0
 70
    11
 71
     3
 72
    44
 73
    40
 74
     0
 42
0.0000000001
 43
0.0000000001
 12
1.0
 22
0.0
 32
0.0
 13
1.0
 23
0.0
 33
0.0
 40
0.0
 40
0.0
 40
0.0
 40
0.0
 40
0.0909090909090909
 40
0.0909090909090909
 40
0.0909090909090909
 40
0.0909090909090909
 40
0.1818181818181818
 40
0.1818181818181818
 40
0.1818181818181818
 40
0.1818181818181818
 40
0.2727272727272727
 40
0.2727272727272727
 40
0.2727272727272727
 40
0.2727272727272727
 40
0.3636363636363636
 40
0.3636363636363636
 40
0.3636363636363636
 40
0.3636363636363636
 40
0.4545454545454545
 40
0.4545454545454545
 40
0.4545454545454545
 40
0.4545454545454545
 40
0.5454545454545454
 40
0.5454545454545454
 40
0.5454545454545454
 40
0.5454545454545454
 40
0.6363636363636364
 40
0.6363636363636364
 40
0.6363636363636364
 40
0.6363636363636364
 40
0.7272727272727273
 40
0.7272727272727273
 40
0.7272727272727273
 40
0.7272727272727273
 40
0.8181818181818182
 40
0.8181818181818182
 40
0.8181818181818182
 40
0.8181818181818182
 40
1.0
 40
1.0
 40
1.0
 40
1.0
 10
0.66122
 20
1.13847
 30
0.0
 10
0.66122
 20
1.13847
 30
0.0
 10
0.66122
 20
1.60991
 30
0.0
 10
0.66122
 20
1.60991
 30
0.0
 10
0.66122
 20
1.60991
 30
0.0
 10
0.66122
 20
1.60991
 30
0.0
 10
1.41925
 20
1.60991
 30
0.0
 10
1.41925
 20
1.60991
 30
0.0
 10
1.41925
 20
1.60991
 30
0.0
 10
1.41925
 20
1.60991
 30
0.0
 10
1.41925
 20
1.62771
 30
0.0
 10
1.41925
 20
1.62771
 30
0.0
 10
1.41925
 20
1.62771
 30
0.0
 10
1.41925
 20
1.62771
 30
0.0
 10
1.42001
 20
1.62771
 30
0.0
 10
1.42001
 20
1.62771
 30
0.0
 10
1.42001
 20
1.62771
 30
0.0
 10
1.42001
 20
1.62771
 30
0.0
 10
1.42001
 20
2.24075
 30
0.0
 10
1.42001
 20
2.24075
 30
0.0
 10
1.42001
 20
2.24075
 30
0.0
 10
1.42001
 20
2.24075
 30
0.0
 10
1.88313
 20
2.24075
 30
0.0
 10
1.88313
 20
2.24075
 30
0.0
 10
1.88313
 20
2.24075
 30
0.0
 10
1.88313
 20
2.24075
 30
0.0
 10
1.88313
 20
0.50763
 30
0.0
 10
1.88313
 20
0.50763
 30
0.0
 10
1.88313
 20
0.50763
 30
0.0
 10
1.88313
 20
0.50763
 30
0.0
 10
1.42001
 20
0.50763
 30
0.0
 10
1.42001
 20
0.50763
 30
0.0
 10
1.42001
 20
0.50763
 30
0.0
 10
1.42001
 20
0.50763
 30
0.0
 10
1.42001
 20
1.13847
 30
0.0
 10
1.42001
 20
1.13847
 30
0.0
 10
1.42001
 20
1.13847
 30
0.0
 10
1.42001
 20
1.13847
 30
0.0
 10
0.66122
 20
1.13847
 30
0.0
 10
0.66122
 20
1.13847
 30
0.0
  0
SPLINE
  5
9A
330
1F
100
AcDbEntity
  8
Layer 1
 62
   177
370
     9
100
AcDbSpline
210
0.0
220
0.0
230
1.0
 70
    11
 71
     3
 72
    44
 73
    40
 74
     0
 42
0.0000000001
 43
0.0000000001
 12
1.0
 22
0.0
 32
0.0
 13
1.0
 23
0.0
 33
0.0
 40
0.0
 40
0.0
 40
0.0
 40
0.0
 40
0.0909090909090909
 40
0.0909090909090909
 40
0.0909090909090909
 40
0.0909090909090909
 40
0.1818181818181818
 40
0.1818181818181818
 40
0.1818181818181818
 40
0.1818181818181818
 40
0.2727272727272727
 40
0.2727272727272727
 40
0.2727272727272727
 40
0.2727272727272727
 40
0.3636363636363636
 40
0.3636363636363636
 40
0.3636363636363636
 40
0.3636363636363636
 40
0.4545454545454545
 40
0.4545454545454545
 40
0.4545454545454545
 40
0.4545454545454545
 40
0.5454545454545454
 40
0.5454545454545454
 40
0.5454545454545454
 40
0.5454545454545454
 40
0.6363636363636364
 40
0.6363636363636364
 40
0.6363636363636364
 40
0.6363636363636364
 40
0.7272727272727273
 40
0.7272727272727273
 40
0.7272727272727273
 40
0.7272727272727273
 40
0.8181818181818182
 40
0.8181818181818182
 40
0.8181818181818182
 40
0.8181818181818182
 40
1.0
 40
1.0
 40
1.0
 40
1.0
 10
0.37699
 20
1.13847
 30
0.0
 10
0.37699
 20
1.13847
 30
0.0
 10
-0.36045
 20
1.13847
 30
0.0
 10
-0.36045
 20
1.13847
 30
0.0
 10
-0.36045
 20
1.13847
 30
0.0
 10
-0.36045
 20
1.13847
 30
0.0
 10
-0.36045
 20
1.12067
 30
0.0
 10
-0.36045
 20
1.12067
 30
0.0
 10
-0.36045
 20
1.12067
 30
0.0
 10
-0.36045
 20
1.12067
 30
0.0
 10
-0.3612
 20
1.12067
 30
0.0
 10
-0.3612
 20
1.12067
 30
0.0
 10
-0.3612
 20
1.12067
 30
0.0
 10
-0.3612
 20
1.12067
 30
0.0
 10
-0.3612
 20
0.50763
 30
0.0
 10
-0.3612
 20
0.50763
 30
0.0
 10
-0.3612
 20
0.50763
 30
0.0
 10
-0.3612
 20
0.50763
 30
0.0
 10
-0.82432
 20
0.50763
 30
0.0
 10
-0.82432
 20
0.50763
 30
0.0
 10
-0.82432
 20
0.50763
 30
0.0
 10
-0.82432
 20
0.50763
 30
0.0
 10
-0.82432
 20
2.24075
 30
0.0
 10
-0.82432
 20
2.24075
 30
0.0
 10
-0.82432
 20
2.24075
 30
0.0
 10
-0.82432
 20
2.24075
 30
0.0
 10
-0.3612
 20
2.24075
 30
0.0
 10
-0.3612
 20
2.24075
 30
0.0
 10
-0.3612
 20
2.24075
 30
0.0
 10
-0.3612
 20
2.24075
 30
0.0
 10
-0.3612
 20
1.60991
 30
0.0
 10
-0.3612
 20
1.60991
 30
0.0
 10
-0.3612
 20
1.60991
 30
0.0
 10
-0.3612
 20
1.60991
 30
0.0
 10
0.37699
 20
1.60991
 30
0.0
 10
0.37699
 20
1.60991
 30
0.0
 10
0.37699
 20
1.60991
 30
0.0
 10
0.37699
 20
1.60991
 30
0.0
 10
0.37699
 20
1.13847
 30
0.0
 10
0.37699
 20
1.13847
 30
0.0
  0
SPLINE
  5
9B
330
1F
100
AcDbEntity
  8
Layer 1
 62
   177
370
     9
100
AcDbSpline
210
0.0
220
0.0
230
1.0
 70
    11
 71
     3
 72
    20
 73
    16
 74
     0
 42
0.0000000001
 43
0.0000000001
 12
1.0
 22
0.0
 32
0.0
 13
1.0
 23
0.0
 33
0.0
 40
0.0
 40
0.0
 40
0.0
 40
0.0
 40
0.2
 40
0.2
 40
0.2
 40
0.2
 40
0.4
 40
0.4
 40
0.4
 40
0.4
 40
0.6
 40
0.6
 40
0.6
 40
0.6
 40
1.0
 40
1.0
 40
1.0
 40
1.0
 10
1.13655
 20
-8.52869
 30
0.0
 10
1.13655
 20
-8.52869
 30
0.0
 10
-0.07699
 20
-8.52869
 30
0.0
 10
-0.07699
 20
-8.52869
 30
0.0
 10
-0.07699
 20
-8.52869
 30
0.0
 10
-0.07699
 20
-8.52869
 30
0.0
 10
-0.07699
 20
-8.12909
 30
0.0
 10
-0.07699
 20
-8.12909
 30
0.0
 10
-0.07699
 20
-8.12909
 30
0.0
 10
-0.07699
 20
-8.12909
 30
0.0
 10
1.13655
 20
-8.12909
 30
0.0
 10
1.13655
 20
-8.12909
 30
0.0
 10
1.13655
 20
-8.12909
 30
0.0
 10
1.13655
 20
-8.12909
 30
0.0
 10
1.13655
 20
-8.52869
 30
0.0
 10
1.13655
 20
-8.52869
 30
0.0
  0
SPLINE
  5
9C
330
1F
100
AcDbEntity
  8
Layer 1
 62
   177
370
     9
100
AcDbSpline
210
0.0
220
0.0
230
1.0
 70
    11
 71
     3
 72
    20
 73
    16
 74
     0
 42
0.0000000001
 43
0.0000000001
 12
1.0
 22
0.0
 32
0.0
 13
1.0
 23
0.0
 33
0.0
 40
0.0
 40
0.0
 40
0.0
 40
0.0
 40
0.2
 40
0.2
 40
0.2
 40
0.2
 40
0.4
 40
0.4
 40
0.4
 40
0.4
 40
0.6
 40
0.6
 40
0.6
 40
0.6
 40
1.0
 40
1.0
 40
1.0
 40
1.0
 10
-0.07699
 20
-6.79389
 30
0.0
 10
-0.07699
 20
-6.79389
 30
0.0
 10
1.13655
 20
-6.79389
 30
0.0
 10
1.13655
 20
-6.79389
 30
0.0
 10
1.13655
 20
-6.79389
 30
0.0
 10
1.13655
 20
-6.79389
 30
0.0
 10
1.13655
 20
-7.21298
 30
0.0
 10
1.13655
 20
-7.21298
 30
0.0
 10
1.13655
 20
-7.21298
 30
0.0
 10
1.13655
 20
-7.21298
 30
0.0
 10
-0.07699
 20
-7.21298
 30
0.0
 10
-0.07699
 20
-7.21298
 30
0.0
 10
-0.07699
 20
-7.21298
 30
0.0
 10
-0.07699
 20
-7.21298
 30
0.0
 10
-0.07699
 20
-6.79389
 30
0.0
 10
-0.07699
 20
-6.79389
 30
0.0
  0
SPLINE
  5
9D
330
1F
100
AcDbEntity
  8
Layer 1
 62
   177
370
     9
100
AcDbSpline
210
0.0
220
0.0
230
1.0
 70
    11
 71
     3
 72
    20
 73
    16
 74
     0
 42
0.0000000001
 43
0.0000000001
 12
1.0
 22
0.0
 32
0.0
 13
1.0
 23
0.0
 33
0.0
 40
0.0
 40
0.0
 40
0.0
 40
0.0
 40
0.2
 40
0.2
 40
0.2
 40
0.2
 40
0.4
 40
0.4
 40
0.4
 40
0.4
 40
0.6
 40
0.6
 40
0.6
 40
0.6
 40
1.0
 40
1.0
 40
1.0
 40
1.0
 10
-0.07699
 20
-6.58046
 30
0.0
 10
-0.07699
 20
-6.58046
 30
0.0
 10
1.13655
 20
-6.58046
 30
0.0
 10
1.13655
 20
-6.58046
 30
0.0
 10
1.13655
 20
-6.58046
 30
0.0
 10
1.13655
 20
-6.58046
 30
0.0
 10
1.13655
 20
-6.04901
 30
0.0
 10
1.13655
 20
-6.04901
 30
0.0
 10
1.13655
 20
-6.04901
 30
0.0
 10
1.13655
 20
-6.04901
 30
0.0
 10
-0.07699
 20
-6.04901
 30
0.0
 10
-0.07699
 20
-6.04901
 30
0.0
 10
-0.07699
 20
-6.04901
 30
0.0
 10
-0.07699
 20
-6.04901
 30
0.0
 10
-0.07699
 20
-6.58046
 30
0.0
 10
-0.07699
 20
-6.58046
 30
0.0
  0
SPLINE
  5
9E
330
1F
100
AcDbEntity
  8
Layer 1
 62
   177
370
     9
100
AcDbSpline
210
0.0
220
0.0
230
1.0
 70
    11
 71
     3
 72
    20
 73
    16
 74
     0
 42
0.0000000001
 43
0.0000000001
 12
1.0
 22
0.0
 32
0.0
 13
1.0
 23
0.0
 33
0.0
 40
0.0
 40
0.0
 40
0.0
 40
0.0
 40
0.2
 40
0.2
 40
0.2
 40
0.2
 40
0.4
 40
0.4
 40
0.4
 40
0.4
 40
0.6
 40
0.6
 40
0.6
 40
0.6
 40
1.0
 40
1.0
 40
1.0
 40
1.0
 10
-0.07699
 20
-9.29411
 30
0.0
 10
-0.07699
 20
-9.29411
 30
0.0
 10
-0.07699
 20
-8.74214
 30
0.0
 10
-0.07699
 20
-8.74214
 30
0.0
 10
-0.07699
 20
-8.74214
 30
0.0
 10
-0.07699
 20
-8.74214
 30
0.0
 10
1.13655
 20
-8.74214
 30
0.0
 10
1.13655
 20
-8.74214
 30
0.0
 10
1.13655
 20
-8.74214
 30
0.0
 10
1.13655
 20
-8.74214
 30
0.0
 10
1.13655
 20
-9.29411
 30
0.0
 10
1.13655
 20
-9.29411
 30
0.0
 10
1.13655
 20
-9.29411
 30
0.0
 10
1.13655
 20
-9.29411
 30
0.0
 10
-0.07699
 20
-9.29411
 30
0.0
 10
-0.07699
 20
-9.29411
 30
0.0
  0
SPLINE
  5
9F
330
1F
100
AcDbEntity
  8
Layer 1
 62
   177
370
     9
100
AcDbSpline
210
0.0
220
0.0
230
1.0
 70
    11
 71
     3
 72
    36
 73
    32
 74
     0
 42
0.0000000001
 43
0.0000000001
 12
1.0
 22
0.0
 32
0.0
 13
1.0
 23
0.0
 33
0.0
 40
0.0
 40
0.0
 40
0.0
 40
0.0
 40
0.1111111111111111
 40
0.1111111111111111
 40
0.1111111111111111
 40
0.1111111111111111
 40
0.2222222222222222
 40
0.2222222222222222
 40
0.2222222222222222
 40
0.2222222222222222
 40
0.3333333333333333
 40
0.3333333333333333
 40
0.3333333333333333
 40
0.3333333333333333
 40
0.4444444444444444
 40
0.4444444444444444
 40
0.4444444444444444
 40
0.4444444444444444
 40
0.5555555555555556
 40
0.5555555555555556
 40
0.5555555555555556
 40
0.5555555555555556
 40
0.6666666666666666
 40
0.6666666666666666
 40
0.6666666666666666
 40
0.6666666666666666
 40
0.7777777777777778
 40
0.7777777777777778
 40
0.7777777777777778
 40
0.7777777777777778
 40
1.0
 40
1.0
 40
1.0
 40
1.0
 10
0.66122
 20
-7.42641
 30
0.0
 10
0.66122
 20
-7.42641
 30
0.0
 10
0.66122
 20
-7.91565
 30
0.0
 10
0.66122
 20
-7.91565
 30
0.0
 10
0.66122
 20
-7.91565
 30
0.0
 10
0.66122
 20
-7.91565
 30
0.0
 10
1.42001
 20
-7.91565
 30
0.0
 10
1.42001
 20
-7.91565
 30
0.0
 10
1.42001
 20
-7.91565
 30
0.0
 10
1.42001
 20
-7.91565
 30
0.0
 10
1.42001
 20
-8.52869
 30
0.0
 10
1.42001
 20
-8.52869
 30
0.0
 10
1.42001
 20
-8.52869
 30
0.0
 10
1.42001
 20
-8.52869
 30
0.0
 10
1.88388
 20
-8.52869
 30
0.0
 10
1.88388
 20
-8.52869
 30
0.0
 10
1.88388
 20
-8.52869
 30
0.0
 10
1.88388
 20
-8.52869
 30
0.0
 10
1.88388
 20
-6.79389
 30
0.0
 10
1.88388
 20
-6.79389
 30
0.0
 10
1.88388
 20
-6.79389
 30
0.0
 10
1.88388
 20
-6.79389
 30
0.0
 10
1.42001
 20
-6.79389
 30
0.0
 10
1.42001
 20
-6.79389
 30
0.0
 10
1.42001
 20
-6.79389
 30
0.0
 10
1.42001
 20
-6.79389
 30
0.0
 10
1.42001
 20
-7.42641
 30
0.0
 10
1.42001
 20
-7.42641
 30
0.0
 10
1.42001
 20
-7.42641
 30
0.0
 10
1.42001
 20
-7.42641
 30
0.0
 10
0.66122
 20
-7.42641
 30
0.0
 10
0.66122
 20
-7.42641
 30
0.0
  0
SPLINE
  5
A0
330
1F
100
AcDbEntity
  8
Layer 1
 62
   177
370
     9
100
AcDbSpline
210
0.0
220
0.0
230
1.0
 70
    11
 71
     3
 72
    36
 73
    32
 74
     0
 42
0.0000000001
 43
0.0000000001
 12
1.0
 22
0.0
 32
0.0
 13
1.0
 23
0.0
 33
0.0
 40
0.0
 40
0.0
 40
0.0
 40
0.0
 40
0.1111111111111111
 40
0.1111111111111111
 40
0.1111111111111111
 40
0.1111111111111111
 40
0.2222222222222222
 40
0.2222222222222222
 40
0.2222222222222222
 40
0.2222222222222222
 40
0.3333333333333333
 40
0.3333333333333333
 40
0.3333333333333333
 40
0.3333333333333333
 40
0.4444444444444444
 40
0.4444444444444444
 40
0.4444444444444444
 40
0.4444444444444444
 40
0.5555555555555556
 40
0.5555555555555556
 40
0.5555555555555556
 40
0.5555555555555556
 40
0.6666666666666666
 40
0.6666666666666666
 40
0.6666666666666666
 40
0.6666666666666666
 40
0.7777777777777778
 40
0.7777777777777778
 40
0.7777777777777778
 40
0.7777777777777778
 40
1.0
 40
1.0
 40
1.0
 40
1.0
 10
0.37774
 20
-7.91565
 30
0.0
 10
0.37774
 20
-7.91565
 30
0.0
 10
0.37774
 20
-7.42641
 30
0.0
 10
0.37774
 20
-7.42641
 30
0.0
 10
0.37774
 20
-7.42641
 30
0.0
 10
0.37774
 20
-7.42641
 30
0.0
 10
-0.36045
 20
-7.42641
 30
0.0
 10
-0.36045
 20
-7.42641
 30
0.0
 10
-0.36045
 20
-7.42641
 30
0.0
 10
-0.36045
 20
-7.42641
 30
0.0
 10
-0.36045
 20
-6.79389
 30
0.0
 10
-0.36045
 20
-6.79389
 30
0.0
 10
-0.36045
 20
-6.79389
 30
0.0
 10
-0.36045
 20
-6.79389
 30
0.0
 10
-0.82432
 20
-6.79389
 30
0.0
 10
-0.82432
 20
-6.79389
 30
0.0
 10
-0.82432
 20
-6.79389
 30
0.0
 10
-0.82432
 20
-6.79389
 30
0.0
 10
-0.82432
 20
-8.52869
 30
0.0
 10
-0.82432
 20
-8.52869
 30
0.0
 10
-0.82432
 20
-8.52869
 30
0.0
 10
-0.82432
 20
-8.52869
 30
0.0
 10
-0.36045
 20
-8.52869
 30
0.0
 10
-0.36045
 20
-8.52869
 30
0.0
 10
-0.36045
 20
-8.52869
 30
0.0
 10
-0.36045
 20
-8.52869
 30
0.0
 10
-0.36045
 20
-7.91565
 30
0.0
 10
-0.36045
 20
-7.91565
 30
0.0
 10
-0.36045
 20
-7.91565
 30
0.0
 10
-0.36045
 20
-7.91565
 30
0.0
 10
0.37774
 20
-7.91565
 30
0.0
 10
0.37774
 20
-7.91565
 30
0.0
  0
SPLINE
  5
A1
330
1F
100
AcDbEntity
  8
Layer 1
 62
   177
370
     9
100
AcDbSpline
210
0.0
220
0.0
230
1.0
 70
    11
 71
     3
 72
    20
 73
    16
 74
     0
 42
0.0000000001
 43
0.0000000001
 12
1.0
 22
0.0
 32
0.0
 13
1.0
 23
0.0
 33
0.0
 40
0.0
 40
0.0
 40
0.0
 40
0.0
 40
0.2
 40
0.2
 40
0.2
 40
0.2
 40
0.4
 40
0.4
 40
0.4
 40
0.4
 40
0.6
 40
0.6
 40
0.6
 40
0.6
 40
1.0
 40
1.0
 40
1.0
 40
1.0
 10
1.30663
 20
-10.09615
 30
0.0
 10
1.30663
 20
-10.09615
 30
0.0
 10
1.30663
 20
-9.90889
 30
0.0
 10
1.30663
 20
-9.90889
 30
0.0
 10
1.30663
 20
-9.90889
 30
0.0
 10
1.30663
 20
-9.90889
 30
0.0
 10
-0.24707
 20
-9.90889
 30
0.0
 10
-0.24707
 20
-9.90889
 30
0.0
 10
-0.24707
 20
-9.90889
 30
0.0
 10
-0.24707
 20
-9.90889
 30
0.0
 10
-0.24707
 20
-10.09615
 30
0.0
 10
-0.24707
 20
-10.09615
 30
0.0
 10
-0.24707
 20
-10.09615
 30
0.0
 10
-0.24707
 20
-10.09615
 30
0.0
 10
1.30663
 20
-10.09615
 30
0.0
 10
1.30663
 20
-10.09615
 30
0.0
  0
SPLINE
  5
A2
330
1F
100
AcDbEntity
  8
Layer 1
 62
   177
370
     9
100
AcDbSpline
210
0.0
220
0.0
230
1.0
 70
    11
 71
     3
 72
    36
 73
    32
 74
     0
 42
0.0000000001
 43
0.0000000001
 12
1.0
 22
0.0
 32
0.0
 13
1.0
 23
0.0
 33
0.0
 40
0.0
 40
0.0
 40
0.0
 40
0.0
 40
0.1111111111111111
 40
0.1111111111111111
 40
0.1111111111111111
 40
0.1111111111111111
 40
0.2222222222222222
 40
0.2222222222222222
 40
0.2222222222222222
 40
0.2222222222222222
 40
0.3333333333333333
 40
0.3333333333333333
 40
0.3333333333333333
 40
0.3333333333333333
 40
0.4444444444444444
 40
0.4444444444444444
 40
0.4444444444444444
 40
0.4444444444444444
 40
0.5555555555555556
 40
0.5555555555555556
 40
0.5555555555555556
 40
0.5555555555555556
 40
0.6666666666666666
 40
0.6666666666666666
 40
0.6666666666666666
 40
0.6666666666666666
 40
0.7777777777777778
 40
0.7777777777777778
 40
0.7777777777777778
 40
0.7777777777777778
 40
1.0
 40
1.0
 40
1.0
 40
1.0
 10
-0.53053
 20
-10.09615
 30
0.0
 10
-0.53053
 20
-10.09615
 30
0.0
 10
-0.53053
 20
-9.69547
 30
0.0
 10
-0.53053
 20
-9.69547
 30
0.0
 10
-0.53053
 20
-9.69547
 30
0.0
 10
-0.53053
 20
-9.69547
 30
0.0
 10
1.59009
 20
-9.69547
 30
0.0
 10
1.59009
 20
-9.69547
 30
0.0
 10
1.59009
 20
-9.69547
 30
0.0
 10
1.59009
 20
-9.69547
 30
0.0
 10
1.59009
 20
-10.09615
 30
0.0
 10
1.59009
 20
-10.09615
 30
0.0
 10
1.59009
 20
-10.09615
 30
0.0
 10
1.59009
 20
-10.09615
 30
0.0
 10
1.88388
 20
-10.09615
 30
0.0
 10
1.88388
 20
-10.09615
 30
0.0
 10
1.88388
 20
-10.09615
 30
0.0
 10
1.88388
 20
-10.09615
 30
0.0
 10
1.88388
 20
-9.50755
 30
0.0
 10
1.88388
 20
-9.50755
 30
0.0
 10
1.88388
 20
-9.50755
 30
0.0
 10
1.88388
 20
-9.50755
 30
0.0
 10
-0.82432
 20
-9.50755
 30
0.0
 10
-0.82432
 20
-9.50755
 30
0.0
 10
-0.82432
 20
-9.50755
 30
0.0
 10
-0.82432
 20
-9.50755
 30
0.0
 10
-0.82432
 20
-10.09615
 30
0.0
 10
-0.82432
 20
-10.09615
 30
0.0
 10
-0.82432
 20
-10.09615
 30
0.0
 10
-0.82432
 20
-10.09615
 30
0.0
 10
-0.53053
 20
-10.09615
 30
0.0
 10
-0.53053
 20
-10.09615
 30
0.0
  0
SPLINE
  5
A3
330
1F
100
AcDbEntity
  8
Layer 1
 62
   177
370
     9
100
AcDbSpline
210
0.0
220
0.0
230
1.0
 70
    11
 71
     3
 72
    20
 73
    16
 74
     0
 42
0.0000000001
 43
0.0000000001
 12
1.0
 22
0.0
 32
0.0
 13
1.0
 23
0.0
 33
0.0
 40
0.0
 40
0.0
 40
0.0
 40
0.0
 40
0.2
 40
0.2
 40
0.2
 40
0.2
 40
0.4
 40
0.4
 40
0.4
 40
0.4
 40
0.6
 40
0.6
 40
0.6
 40
0.6
 40
1.0
 40
1.0
 40
1.0
 40
1.0
 10
-1.48872
 20
-4.04978
 30
0.0
 10
-1.48872
 20
-4.04978
 30
0.0
 10
-1.10778
 20
-4.04978
 30
0.0
 10
-1.10778
 20
-4.04978
 30
0.0
 10
-1.10778
 20
-4.04978
 30
0.0
 10
-1.10778
 20
-4.04978
 30
0.0
 10
-1.10778
 20
-5.20232
 30
0.0
 10
-1.10778
 20
-5.20232
 30
0.0
 10
-1.10778
 20
-5.20232
 30
0.0
 10
-1.10778
 20
-5.20232
 30
0.0
 10
-1.48872
 20
-5.20232
 30
0.0
 10
-1.48872
 20
-5.20232
 30
0.0
 10
-1.48872
 20
-5.20232
 30
0.0
 10
-1.48872
 20
-5.20232
 30
0.0
 10
-1.48872
 20
-4.04978
 30
0.0
 10
-1.48872
 20
-4.04978
 30
0.0
  0
SPLINE
  5
A4
330
1F
100
AcDbEntity
  8
Layer 1
 62
   177
370
     9
100
AcDbSpline
210
0.0
220
0.0
230
1.0
 70
    11
 71
     3
 72
    36
 73
    32
 74
     0
 42
0.0000000001
 43
0.0000000001
 12
1.0
 22
0.0
 32
0.0
 13
1.0
 23
0.0
 33
0.0
 40
0.0
 40
0.0
 40
0.0
 40
0.0
 40
0.1111111111111111
 40
0.1111111111111111
 40
0.1111111111111111
 40
0.1111111111111111
 40
0.2222222222222222
 40
0.2222222222222222
 40
0.2222222222222222
 40
0.2222222222222222
 40
0.3333333333333333
 40
0.3333333333333333
 40
0.3333333333333333
 40
0.3333333333333333
 40
0.4444444444444444
 40
0.4444444444444444
 40
0.4444444444444444
 40
0.4444444444444444
 40
0.5555555555555556
 40
0.5555555555555556
 40
0.5555555555555556
 40
0.5555555555555556
 40
0.6666666666666666
 40
0.6666666666666666
 40
0.6666666666666666
 40
0.6666666666666666
 40
0.7777777777777778
 40
0.7777777777777778
 40
0.7777777777777778
 40
0.7777777777777778
 40
1.0
 40
1.0
 40
1.0
 40
1.0
 10
-1.48872
 20
-5.41576
 30
0.0
 10
-1.48872
 20
-5.41576
 30
0.0
 10
-1.10778
 20
-5.41576
 30
0.0
 10
-1.10778
 20
-5.41576
 30
0.0
 10
-1.10778
 20
-5.41576
 30
0.0
 10
-1.10778
 20
-5.41576
 30
0.0
 10
-1.10778
 20
-6.04901
 30
0.0
 10
-1.10778
 20
-6.04901
 30
0.0
 10
-1.10778
 20
-6.04901
 30
0.0
 10
-1.10778
 20
-6.04901
 30
0.0
 10
-0.36045
 20
-6.04901
 30
0.0
 10
-0.36045
 20
-6.04901
 30
0.0
 10
-0.36045
 20
-6.04901
 30
0.0
 10
-0.36045
 20
-6.04901
 30
0.0
 10
-0.36045
 20
-6.58046
 30
0.0
 10
-0.36045
 20
-6.58046
 30
0.0
 10
-0.36045
 20
-6.58046
 30
0.0
 10
-0.36045
 20
-6.58046
 30
0.0
 10
-1.10778
 20
-6.58046
 30
0.0
 10
-1.10778
 20
-6.58046
 30
0.0
 10
-1.10778
 20
-6.58046
 30
0.0
 10
-1.10778
 20
-6.58046
 30
0.0
 10
-1.10778
 20
-7.21455
 30
0.0
 10
-1.10778
 20
-7.21455
 30
0.0
 10
-1.10778
 20
-7.21455
 30
0.0
 10
-1.10778
 20
-7.21455
 30
0.0
 10
-1.48872
 20
-7.21455
 30
0.0
 10
-1.48872
 20
-7.21455
 30
0.0
 10
-1.48872
 20
-7.21455
 30
0.0
 10
-1.48872
 20
-7.21455
 30
0.0
 10
-1.48872
 20
-5.41576
 30
0.0
 10
-1.48872
 20
-5.41576
 30
0.0
  0
SPLINE
  5
A5
330
1F
100
AcDbEntity
  8
Layer 1
 62
   177
370
     9
100
AcDbSpline
210
0.0
220
0.0
230
1.0
 70
    11
 71
     3
 72
    20
 73
    16
 74
     0
 42
0.0000000001
 43
0.0000000001
 12
1.0
 22
0.0
 32
0.0
 13
1.0
 23
0.0
 33
0.0
 40
0.0
 40
0.0
 40
0.0
 40
0.0
 40
0.2
 40
0.2
 40
0.2
 40
0.2
 40
0.4
 40
0.4
 40
0.4
 40
0.4
 40
0.6
 40
0.6
 40
0.6
 40
0.6
 40
1.0
 40
1.0
 40
1.0
 40
1.0
 10
-1.48872
 20
-7.42799
 30
0.0
 10
-1.48872
 20
-7.42799
 30
0.0
 10
-1.10778
 20
-7.42799
 30
0.0
 10
-1.10778
 20
-7.42799
 30
0.0
 10
-1.10778
 20
-7.42799
 30
0.0
 10
-1.10778
 20
-7.42799
 30
0.0
 10
-1.10778
 20
-7.88208
 30
0.0
 10
-1.10778
 20
-7.88208
 30
0.0
 10
-1.10778
 20
-7.88208
 30
0.0
 10
-1.10778
 20
-7.88208
 30
0.0
 10
-1.48872
 20
-7.88208
 30
0.0
 10
-1.48872
 20
-7.88208
 30
0.0
 10
-1.48872
 20
-7.88208
 30
0.0
 10
-1.48872
 20
-7.88208
 30
0.0
 10
-1.48872
 20
-7.42799
 30
0.0
 10
-1.48872
 20
-7.42799
 30
0.0
  0
SPLINE
  5
A6
330
1F
100
AcDbEntity
  8
Layer 1
 62
   177
370
     9
100
AcDbSpline
210
0.0
220
0.0
230
1.0
 70
    11
 71
     3
 72
    36
 73
    32
 74
     0
 42
0.0000000001
 43
0.0000000001
 12
1.0
 22
0.0
 32
0.0
 13
1.0
 23
0.0
 33
0.0
 40
0.0
 40
0.0
 40
0.0
 40
0.0
 40
0.1111111111111111
 40
0.1111111111111111
 40
0.1111111111111111
 40
0.1111111111111111
 40
0.2222222222222222
 40
0.2222222222222222
 40
0.2222222222222222
 40
0.2222222222222222
 40
0.3333333333333333
 40
0.3333333333333333
 40
0.3333333333333333
 40
0.3333333333333333
 40
0.4444444444444444
 40
0.4444444444444444
 40
0.4444444444444444
 40
0.4444444444444444
 40
0.5555555555555556
 40
0.5555555555555556
 40
0.5555555555555556
 40
0.5555555555555556
 40
0.6666666666666666
 40
0.6666666666666666
 40
0.6666666666666666
 40
0.6666666666666666
 40
0.7777777777777778
 40
0.7777777777777778
 40
0.7777777777777778
 40
0.7777777777777778
 40
1.0
 40
1.0
 40
1.0
 40
1.0
 10
-1.48872
 20
-8.09552
 30
0.0
 10
-1.48872
 20
-8.09552
 30
0.0
 10
-1.10778
 20
-8.09552
 30
0.0
 10
-1.10778
 20
-8.09552
 30
0.0
 10
-1.10778
 20
-8.09552
 30
0.0
 10
-1.10778
 20
-8.09552
 30
0.0
 10
-1.10778
 20
-8.74214
 30
0.0
 10
-1.10778
 20
-8.74214
 30
0.0
 10
-1.10778
 20
-8.74214
 30
0.0
 10
-1.10778
 20
-8.74214
 30
0.0
 10
-0.36045
 20
-8.74214
 30
0.0
 10
-0.36045
 20
-8.74214
 30
0.0
 10
-0.36045
 20
-8.74214
 30
0.0
 10
-0.36045
 20
-8.74214
 30
0.0
 10
-0.36045
 20
-9.29411
 30
0.0
 10
-0.36045
 20
-9.29411
 30
0.0
 10
-0.36045
 20
-9.29411
 30
0.0
 10
-0.36045
 20
-9.29411
 30
0.0
 10
-1.10778
 20
-9.29411
 30
0.0
 10
-1.10778
 20
-9.29411
 30
0.0
 10
-1.10778
 20
-9.29411
 30
0.0
 10
-1.10778
 20
-9.29411
 30
0.0
 10
-1.10778
 20
-10.09615
 30
0.0
 10
-1.10778
 20
-10.09615
 30
0.0
 10
-1.10778
 20
-10.09615
 30
0.0
 10
-1.10778
 20
-10.09615
 30
0.0
 10
-1.48872
 20
-10.09615
 30
0.0
 10
-1.48872
 20
-10.09615
 30
0.0
 10
-1.48872
 20
-10.09615
 30
0.0
 10
-1.48872
 20
-10.09615
 30
0.0
 10
-1.48872
 20
-8.09552
 30
0.0
 10
-1.48872
 20
-8.09552
 30
0.0
  0
SPLINE
  5
A7
330
1F
100
AcDbEntity
  8
Layer 1
 62
   177
370
     9
100
AcDbSpline
210
0.0
220
0.0
230
1.0
 70
    11
 71
     3
 72
    36
 73
    32
 74
     0
 42
0.0000000001
 43
0.0000000001
 12
1.0
 22
0.0
 32
0.0
 13
1.0
 23
0.0
 33
0.0
 40
0.0
 40
0.0
 40
0.0
 40
0.0
 40
0.1111111111111111
 40
0.1111111111111111
 40
0.1111111111111111
 40
0.1111111111111111
 40
0.2222222222222222
 40
0.2222222222222222
 40
0.2222222222222222
 40
0.2222222222222222
 40
0.3333333333333333
 40
0.3333333333333333
 40
0.3333333333333333
 40
0.3333333333333333
 40
0.4444444444444444
 40
0.4444444444444444
 40
0.4444444444444444
 40
0.4444444444444444
 40
0.5555555555555556
 40
0.5555555555555556
 40
0.5555555555555556
 40
0.5555555555555556
 40
0.6666666666666666
 40
0.6666666666666666
 40
0.6666666666666666
 40
0.6666666666666666
 40
0.7777777777777778
 40
0.7777777777777778
 40
0.7777777777777778
 40
0.7777777777777778
 40
1.0
 40
1.0
 40
1.0
 40
1.0
 10
2.16735
 20
-10.09615
 30
0.0
 10
2.16735
 20
-10.09615
 30
0.0
 10
2.16735
 20
-9.29411
 30
0.0
 10
2.16735
 20
-9.29411
 30
0.0
 10
2.16735
 20
-9.29411
 30
0.0
 10
2.16735
 20
-9.29411
 30
0.0
 10
1.42001
 20
-9.29411
 30
0.0
 10
1.42001
 20
-9.29411
 30
0.0
 10
1.42001
 20
-9.29411
 30
0.0
 10
1.42001
 20
-9.29411
 30
0.0
 10
1.42001
 20
-8.74214
 30
0.0
 10
1.42001
 20
-8.74214
 30
0.0
 10
1.42001
 20
-8.74214
 30
0.0
 10
1.42001
 20
-8.74214
 30
0.0
 10
2.16735
 20
-8.74214
 30
0.0
 10
2.16735
 20
-8.74214
 30
0.0
 10
2.16735
 20
-8.74214
 30
0.0
 10
2.16735
 20
-8.74214
 30
0.0
 10
2.16735
 20
-8.09552
 30
0.0
 10
2.16735
 20
-8.09552
 30
0.0
 10
2.16735
 20
-8.09552
 30
0.0
 10
2.16735
 20
-8.09552
 30
0.0
 10
2.54755
 20
-8.09552
 30
0.0
 10
2.54755
 20
-8.09552
 30
0.0
 10
2.54755
 20
-8.09552
 30
0.0
 10
2.54755
 20
-8.09552
 30
0.0
 10
2.54755
 20
-10.09615
 30
0.0
 10
2.54755
 20
-10.09615
 30
0.0
 10
2.54755
 20
-10.09615
 30
0.0
 10
2.54755
 20
-10.09615
 30
0.0
 10
2.16735
 20
-10.09615
 30
0.0
 10
2.16735
 20
-10.09615
 30
0.0
  0
SPLINE
  5
A8
330
1F
100
AcDbEntity
  8
Layer 1
 62
   177
370
     9
100
AcDbSpline
210
0.0
220
0.0
230
1.0
 70
    11
 71
     3
 72
    20
 73
    16
 74
     0
 42
0.0000000001
 43
0.0000000001
 12
1.0
 22
0.0
 32
0.0
 13
1.0
 23
0.0
 33
0.0
 40
0.0
 40
0.0
 40
0.0
 40
0.0
 40
0.2
 40
0.2
 40
0.2
 40
0.2
 40
0.4
 40
0.4
 40
0.4
 40
0.4
 40
0.6
 40
0.6
 40
0.6
 40
0.6
 40
1.0
 40
1.0
 40
1.0
 40
1.0
 10
2.54755
 20
-7.88208
 30
0.0
 10
2.54755
 20
-7.88208
 30
0.0
 10
2.16735
 20
-7.88208
 30
0.0
 10
2.16735
 20
-7.88208
 30
0.0
 10
2.16735
 20
-7.88208
 30
0.0
 10
2.16735
 20
-7.88208
 30
0.0
 10
2.16735
 20
-7.42799
 30
0.0
 10
2.16735
 20
-7.42799
 30
0.0
 10
2.16735
 20
-7.42799
 30
0.0
 10
2.16735
 20
-7.42799
 30
0.0
 10
2.54755
 20
-7.42799
 30
0.0
 10
2.54755
 20
-7.42799
 30
0.0
 10
2.54755
 20
-7.42799
 30
0.0
 10
2.54755
 20
-7.42799
 30
0.0
 10
2.54755
 20
-7.88208
 30
0.0
 10
2.54755
 20
-7.88208
 30
0.0
  0
SPLINE
  5
A9
330
1F
100
AcDbEntity
  8
Layer 1
 62
   177
370
     9
100
AcDbSpline
210
0.0
220
0.0
230
1.0
 70
    11
 71
     3
 72
    36
 73
    32
 74
     0
 42
0.0000000001
 43
0.0000000001
 12
1.0
 22
0.0
 32
0.0
 13
1.0
 23
0.0
 33
0.0
 40
0.0
 40
0.0
 40
0.0
 40
0.0
 40
0.1111111111111111
 40
0.1111111111111111
 40
0.1111111111111111
 40
0.1111111111111111
 40
0.2222222222222222
 40
0.2222222222222222
 40
0.2222222222222222
 40
0.2222222222222222
 40
0.3333333333333333
 40
0.3333333333333333
 40
0.3333333333333333
 40
0.3333333333333333
 40
0.4444444444444444
 40
0.4444444444444444
 40
0.4444444444444444
 40
0.4444444444444444
 40
0.5555555555555556
 40
0.5555555555555556
 40
0.5555555555555556
 40
0.5555555555555556
 40
0.6666666666666666
 40
0.6666666666666666
 40
0.6666666666666666
 40
0.6666666666666666
 40
0.7777777777777778
 40
0.7777777777777778
 40
0.7777777777777778
 40
0.7777777777777778
 40
1.0
 40
1.0
 40
1.0
 40
1.0
 10
2.54755
 20
-7.21455
 30
0.0
 10
2.54755
 20
-7.21455
 30
0.0
 10
2.16735
 20
-7.21455
 30
0.0
 10
2.16735
 20
-7.21455
 30
0.0
 10
2.16735
 20
-7.21455
 30
0.0
 10
2.16735
 20
-7.21455
 30
0.0
 10
2.16735
 20
-6.58046
 30
0.0
 10
2.16735
 20
-6.58046
 30
0.0
 10
2.16735
 20
-6.58046
 30
0.0
 10
2.16735
 20
-6.58046
 30
0.0
 10
1.42001
 20
-6.58046
 30
0.0
 10
1.42001
 20
-6.58046
 30
0.0
 10
1.42001
 20
-6.58046
 30
0.0
 10
1.42001
 20
-6.58046
 30
0.0
 10
1.42001
 20
-6.04901
 30
0.0
 10
1.42001
 20
-6.04901
 30
0.0
 10
1.42001
 20
-6.04901
 30
0.0
 10
1.42001
 20
-6.04901
 30
0.0
 10
2.16735
 20
-6.04901
 30
0.0
 10
2.16735
 20
-6.04901
 30
0.0
 10
2.16735
 20
-6.04901
 30
0.0
 10
2.16735
 20
-6.04901
 30
0.0
 10
2.16735
 20
-5.41576
 30
0.0
 10
2.16735
 20
-5.41576
 30
0.0
 10
2.16735
 20
-5.41576
 30
0.0
 10
2.16735
 20
-5.41576
 30
0.0
 10
2.54755
 20
-5.41576
 30
0.0
 10
2.54755
 20
-5.41576
 30
0.0
 10
2.54755
 20
-5.41576
 30
0.0
 10
2.54755
 20
-5.41576
 30
0.0
 10
2.54755
 20
-7.21455
 30
0.0
 10
2.54755
 20
-7.21455
 30
0.0
  0
SPLINE
  5
AA
330
1F
100
AcDbEntity
  8
Layer 1
 62
   177
370
     9
100
AcDbSpline
210
0.0
220
0.0
230
1.0
 70
    11
 71
     3
 72
    20
 73
    16
 74
     0
 42
0.0000000001
 43
0.0000000001
 12
1.0
 22
0.0
 32
0.0
 13
1.0
 23
0.0
 33
0.0
 40
0.0
 40
0.0
 40
0.0
 40
0.0
 40
0.2
 40
0.2
 40
0.2
 40
0.2
 40
0.4
 40
0.4
 40
0.4
 40
0.4
 40
0.6
 40
0.6
 40
0.6
 40
0.6
 40
1.0
 40
1.0
 40
1.0
 40
1.0
 10
2.54755
 20
-5.20232
 30
0.0
 10
2.54755
 20
-5.20232
 30
0.0
 10
2.16735
 20
-5.20232
 30
0.0
 10
2.16735
 20
-5.20232
 30
0.0
 10
2.16735
 20
-5.20232
 30
0.0
 10
2.16735
 20
-5.20232
 30
0.0
 10
2.16735
 20
-4.04978
 30
0.0
 10
2.16735
 20
-4.04978
 30
0.0
 10
2.16735
 20
-4.04978
 30
0.0
 10
2.16735
 20
-4.04978
 30
0.0
 10
2.54755
 20
-4.04978
 30
0.0
 10
2.54755
 20
-4.04978
 30
0.0
 10
2.54755
 20
-4.04978
 30
0.0
 10
2.54755
 20
-4.04978
 30
0.0
 10
2.54755
 20
-5.20232
 30
0.0
 10
2.54755
 20
-5.20232
 30
0.0
  0
SPLINE
  5
AB
330
1F
100
AcDbEntity
  8
Layer 1
 62
   177
370
     9
100
AcDbSpline
210
0.0
220
0.0
230
1.0
 70
    11
 71
     3
 72
    20
 73
    16
 74
     0
 42
0.0000000001
 43
0.0000000001
 12
1.0
 22
0.0
 32
0.0
 13
1.0
 23
0.0
 33
0.0
 40
0.0
 40
0.0
 40
0.0
 40
0.0
 40
0.2
 40
0.2
 40
0.2
 40
0.2
 40
0.4
 40
0.4
 40
0.4
 40
0.4
 40
0.6
 40
0.6
 40
0.6
 40
0.6
 40
1.0
 40
1.0
 40
1.0
 40
1.0
 10
2.54755
 20
-3.83634
 30
0.0
 10
2.54755
 20
-3.83634
 30
0.0
 10
2.16735
 20
-3.83634
 30
0.0
 10
2.16735
 20
-3.83634
 30
0.0
 10
2.16735
 20
-3.83634
 30
0.0
 10
2.16735
 20
-3.83634
 30
0.0
 10
2.16735
 20
-2.47161
 30
0.0
 10
2.16735
 20
-2.47161
 30
0.0
 10
2.16735
 20
-2.47161
 30
0.0
 10
2.16735
 20
-2.47161
 30
0.0
 10
2.54755
 20
-2.47161
 30
0.0
 10
2.54755
 20
-2.47161
 30
0.0
 10
2.54755
 20
-2.47161
 30
0.0
 10
2.54755
 20
-2.47161
 30
0.0
 10
2.54755
 20
-3.83634
 30
0.0
 10
2.54755
 20
-3.83634
 30
0.0
  0
SPLINE
  5
AC
330
1F
100
AcDbEntity
  8
Layer 1
 62
   177
370
     9
100
AcDbSpline
210
0.0
220
0.0
230
1.0
 70
    11
 71
     3
 72
    20
 73
    16
 74
     0
 42
0.0000000001
 43
0.0000000001
 12
1.0
 22
0.0
 32
0.0
 13
1.0
 23
0.0
 33
0.0
 40
0.0
 40
0.0
 40
0.0
 40
0.0
 40
0.2
 40
0.2
 40
0.2
 40
0.2
 40
0.4
 40
0.4
 40
0.4
 40
0.4
 40
0.6
 40
0.6
 40
0.6
 40
0.6
 40
1.0
 40
1.0
 40
1.0
 40
1.0
 10
2.54755
 20
-2.25817
 30
0.0
 10
2.54755
 20
-2.25817
 30
0.0
 10
2.16735
 20
-2.25817
 30
0.0
 10
2.16735
 20
-2.25817
 30
0.0
 10
2.16735
 20
-2.25817
 30
0.0
 10
2.16735
 20
-2.25817
 30
0.0
 10
2.16735
 20
-1.10561
 30
0.0
 10
2.16735
 20
-1.10561
 30
0.0
 10
2.16735
 20
-1.10561
 30
0.0
 10
2.16735
 20
-1.10561
 30
0.0
 10
2.54755
 20
-1.10561
 30
0.0
 10
2.54755
 20
-1.10561
 30
0.0
 10
2.54755
 20
-1.10561
 30
0.0
 10
2.54755
 20
-1.10561
 30
0.0
 10
2.54755
 20
-2.25817
 30
0.0
 10
2.54755
 20
-2.25817
 30
0.0
  0
SPLINE
  5
AD
330
1F
100
AcDbEntity
  8
Layer 1
 62
   177
370
     9
100
AcDbSpline
210
0.0
220
0.0
230
1.0
 70
    11
 71
     3
 72
    44
 73
    40
 74
     0
 42
0.0000000001
 43
0.0000000001
 12
1.0
 22
0.0
 32
0.0
 13
1.0
 23
0.0
 33
0.0
 40
0.0
 40
0.0
 40
0.0
 40
0.0
 40
0.0909090909090909
 40
0.0909090909090909
 40
0.0909090909090909
 40
0.0909090909090909
 40
0.1818181818181818
 40
0.1818181818181818
 40
0.1818181818181818
 40
0.1818181818181818
 40
0.2727272727272727
 40
0.2727272727272727
 40
0.2727272727272727
 40
0.2727272727272727
 40
0.3636363636363636
 40
0.3636363636363636
 40
0.3636363636363636
 40
0.3636363636363636
 40
0.4545454545454545
 40
0.4545454545454545
 40
0.4545454545454545
 40
0.4545454545454545
 40
0.5454545454545454
 40
0.5454545454545454
 40
0.5454545454545454
 40
0.5454545454545454
 40
0.6363636363636364
 40
0.6363636363636364
 40
0.6363636363636364
 40
0.6363636363636364
 40
0.7272727272727273
 40
0.7272727272727273
 40
0.7272727272727273
 40
0.7272727272727273
 40
0.8181818181818182
 40
0.8181818181818182
 40
0.8181818181818182
 40
0.8181818181818182
 40
1.0
 40
1.0
 40
1.0
 40
1.0
 10
2.54755
 20
-0.89218
 30
0.0
 10
2.54755
 20
-0.89218
 30
0.0
 10
2.16735
 20
-0.89218
 30
0.0
 10
2.16735
 20
-0.89218
 30
0.0
 10
2.16735
 20
-0.89218
 30
0.0
 10
2.16735
 20
-0.89218
 30
0.0
 10
2.16735
 20
-0.25892
 30
0.0
 10
2.16735
 20
-0.25892
 30
0.0
 10
2.16735
 20
-0.25892
 30
0.0
 10
2.16735
 20
-0.25892
 30
0.0
 10
2.1666
 20
-0.25892
 30
0.0
 10
2.1666
 20
-0.25892
 30
0.0
 10
2.1666
 20
-0.25892
 30
0.0
 10
2.1666
 20
-0.25892
 30
0.0
 10
2.1666
 20
-0.25778
 30
0.0
 10
2.1666
 20
-0.25778
 30
0.0
 10
2.1666
 20
-0.25778
 30
0.0
 10
2.1666
 20
-0.25778
 30
0.0
 10
1.42001
 20
-0.25778
 30
0.0
 10
1.42001
 20
-0.25778
 30
0.0
 10
1.42001
 20
-0.25778
 30
0.0
 10
1.42001
 20
-0.25778
 30
0.0
 10
1.42001
 20
0.29251
 30
0.0
 10
1.42001
 20
0.29251
 30
0.0
 10
1.42001
 20
0.29251
 30
0.0
 10
1.42001
 20
0.29251
 30
0.0
 10
2.16735
 20
0.29251
 30
0.0
 10
2.16735
 20
0.29251
 30
0.0
 10
2.16735
 20
0.29251
 30
0.0
 10
2.16735
 20
0.29251
 30
0.0
 10
2.16735
 20
0.92661
 30
0.0
 10
2.16735
 20
0.92661
 30
0.0
 10
2.16735
 20
0.92661
 30
0.0
 10
2.16735
 20
0.92661
 30
0.0
 10
2.54755
 20
0.92661
 30
0.0
 10
2.54755
 20
0.92661
 30
0.0
 10
2.54755
 20
0.92661
 30
0.0
 10
2.54755
 20
0.92661
 30
0.0
 10
2.54755
 20
-0.89218
 30
0.0
 10
2.54755
 20
-0.89218
 30
0.0
  0
SPLINE
  5
AE
330
1F
100
AcDbEntity
  8
Layer 1
 62
   177
370
     9
100
AcDbSpline
210
0.0
220
0.0
230
1.0
 70
    11
 71
     3
 72
    20
 73
    16
 74
     0
 42
0.0000000001
 43
0.0000000001
 12
1.0
 22
0.0
 32
0.0
 13
1.0
 23
0.0
 33
0.0
 40
0.0
 40
0.0
 40
0.0
 40
0.0
 40
0.2
 40
0.2
 40
0.2
 40
0.2
 40
0.4
 40
0.4
 40
0.4
 40
0.4
 40
0.6
 40
0.6
 40
0.6
 40
0.6
 40
1.0
 40
1.0
 40
1.0
 40
1.0
 10
2.54755
 20
1.15424
 30
0.0
 10
2.54755
 20
1.15424
 30
0.0
 10
2.16735
 20
1.15424
 30
0.0
 10
2.16735
 20
1.15424
 30
0.0
 10
2.16735
 20
1.15424
 30
0.0
 10
2.16735
 20
1.15424
 30
0.0
 10
2.16735
 20
1.59414
 30
0.0
 10
2.16735
 20
1.59414
 30
0.0
 10
2.16735
 20
1.59414
 30
0.0
 10
2.16735
 20
1.59414
 30
0.0
 10
2.54755
 20
1.59414
 30
0.0
 10
2.54755
 20
1.59414
 30
0.0
 10
2.54755
 20
1.59414
 30
0.0
 10
2.54755
 20
1.59414
 30
0.0
 10
2.54755
 20
1.15424
 30
0.0
 10
2.54755
 20
1.15424
 30
0.0
  0
SPLINE
  5
AF
330
1F
100
AcDbEntity
  8
Layer 1
 62
   177
370
     9
100
AcDbSpline
210
0.0
220
0.0
230
1.0
 70
    11
 71
     3
 72
    52
 73
    48
 74
     0
 42
0.0000000001
 43
0.0000000001
 12
1.0
 22
0.0
 32
0.0
 13
1.0
 23
0.0
 33
0.0
 40
0.0
 40
0.0
 40
0.0
 40
0.0
 40
0.0769230769230769
 40
0.0769230769230769
 40
0.0769230769230769
 40
0.0769230769230769
 40
0.1538461538461539
 40
0.1538461538461539
 40
0.1538461538461539
 40
0.1538461538461539
 40
0.2307692307692308
 40
0.2307692307692308
 40
0.2307692307692308
 40
0.2307692307692308
 40
0.3076923076923077
 40
0.3076923076923077
 40
0.3076923076923077
 40
0.3076923076923077
 40
0.3846153846153846
 40
0.3846153846153846
 40
0.3846153846153846
 40
0.3846153846153846
 40
0.4615384615384616
 40
0.4615384615384616
 40
0.4615384615384616
 40
0.4615384615384616
 40
0.5384615384615384
 40
0.5384615384615384
 40
0.5384615384615384
 40
0.5384615384615384
 40
0.6153846153846154
 40
0.6153846153846154
 40
0.6153846153846154
 40
0.6153846153846154
 40
0.6923076923076923
 40
0.6923076923076923
 40
0.6923076923076923
 40
0.6923076923076923
 40
0.7692307692307693
 40
0.7692307692307693
 40
0.7692307692307693
 40
0.7692307692307693
 40
0.8461538461538461
 40
0.8461538461538461
 40
0.8461538461538461
 40
0.8461538461538461
 40
1.0
 40
1.0
 40
1.0
 40
1.0
 10
2.54755
 20
1.82177
 30
0.0
 10
2.54755
 20
1.82177
 30
0.0
 10
2.16735
 20
1.82177
 30
0.0
 10
2.16735
 20
1.82177
 30
0.0
 10
2.16735
 20
1.82177
 30
0.0
 10
2.16735
 20
1.82177
 30
0.0
 10
2.16735
 20
2.45419
 30
0.0
 10
2.16735
 20
2.45419
 30
0.0
 10
2.16735
 20
2.45419
 30
0.0
 10
2.16735
 20
2.45419
 30
0.0
 10
2.1666
 20
2.45419
 30
0.0
 10
2.1666
 20
2.45419
 30
0.0
 10
2.1666
 20
2.45419
 30
0.0
 10
2.1666
 20
2.45419
 30
0.0
 10
2.1666
 20
2.45587
 30
0.0
 10
2.1666
 20
2.45587
 30
0.0
 10
2.1666
 20
2.45587
 30
0.0
 10
2.1666
 20
2.45587
 30
0.0
 10
1.42001
 20
2.45587
 30
0.0
 10
1.42001
 20
2.45587
 30
0.0
 10
1.42001
 20
2.45587
 30
0.0
 10
1.42001
 20
2.45587
 30
0.0
 10
1.42001
 20
3.00616
 30
0.0
 10
1.42001
 20
3.00616
 30
0.0
 10
1.42001
 20
3.00616
 30
0.0
 10
1.42001
 20
3.00616
 30
0.0
 10
2.16735
 20
3.00616
 30
0.0
 10
2.16735
 20
3.00616
 30
0.0
 10
2.16735
 20
3.00616
 30
0.0
 10
2.16735
 20
3.00616
 30
0.0
 10
2.16735
 20
3.59135
 30
0.0
 10
2.16735
 20
3.59135
 30
0.0
 10
2.16735
 20
3.59135
 30
0.0
 10
2.16735
 20
3.59135
 30
0.0
 10
2.1666
 20
3.59135
 30
0.0
 10
2.1666
 20
3.59135
 30
0.0
 10
2.1666
 20
3.59135
 30
0.0
 10
2.1666
 20
3.59135
 30
0.0
 10
2.1666
 20
3.64056
 30
0.0
 10
2.1666
 20
3.64056
 30
0.0
 10
2.1666
 20
3.64056
 30
0.0
 10
2.1666
 20
3.64056
 30
0.0
 10
2.54755
 20
3.64056
 30
0.0
 10
2.54755
 20
3.64056
 30
0.0
 10
2.54755
 20
3.64056
 30
0.0
 10
2.54755
 20
3.64056
 30
0.0
 10
2.54755
 20
1.82177
 30
0.0
 10
2.54755
 20
1.82177
 30
0.0
  0
SPLINE
  5
B0
330
1F
100
AcDbEntity
  8
Layer 1
 62
   177
370
     9
100
AcDbSpline
210
0.0
220
0.0
230
1.0
 70
    11
 71
     3
 72
    20
 73
    16
 74
     0
 42
0.0000000001
 43
0.0000000001
 12
1.0
 22
0.0
 32
0.0
 13
1.0
 23
0.0
 33
0.0
 40
0.0
 40
0.0
 40
0.0
 40
0.0
 40
0.2
 40
0.2
 40
0.2
 40
0.2
 40
0.4
 40
0.4
 40
0.4
 40
0.4
 40
0.6
 40
0.6
 40
0.6
 40
0.6
 40
1.0
 40
1.0
 40
1.0
 40
1.0
 10
2.54755
 20
3.85399
 30
0.0
 10
2.54755
 20
3.85399
 30
0.0
 10
2.1666
 20
3.85399
 30
0.0
 10
2.1666
 20
3.85399
 30
0.0
 10
2.1666
 20
3.85399
 30
0.0
 10
2.1666
 20
3.85399
 30
0.0
 10
2.1666
 20
5.00655
 30
0.0
 10
2.1666
 20
5.00655
 30
0.0
 10
2.1666
 20
5.00655
 30
0.0
 10
2.1666
 20
5.00655
 30
0.0
 10
2.54755
 20
5.00655
 30
0.0
 10
2.54755
 20
5.00655
 30
0.0
 10
2.54755
 20
5.00655
 30
0.0
 10
2.54755
 20
5.00655
 30
0.0
 10
2.54755
 20
3.85399
 30
0.0
 10
2.54755
 20
3.85399
 30
0.0
  0
SPLINE
  5
B1
330
1F
100
AcDbEntity
  8
Layer 1
 62
   177
370
     9
100
AcDbSpline
210
0.0
220
0.0
230
1.0
 70
    11
 71
     3
 72
    20
 73
    16
 74
     0
 42
0.0000000001
 43
0.0000000001
 12
1.0
 22
0.0
 32
0.0
 13
1.0
 23
0.0
 33
0.0
 40
0.0
 40
0.0
 40
0.0
 40
0.0
 40
0.2
 40
0.2
 40
0.2
 40
0.2
 40
0.4
 40
0.4
 40
0.4
 40
0.4
 40
0.6
 40
0.6
 40
0.6
 40
0.6
 40
1.0
 40
1.0
 40
1.0
 40
1.0
 10
2.54755
 20
5.21999
 30
0.0
 10
2.54755
 20
5.21999
 30
0.0
 10
2.1666
 20
5.21999
 30
0.0
 10
2.1666
 20
5.21999
 30
0.0
 10
2.1666
 20
5.21999
 30
0.0
 10
2.1666
 20
5.21999
 30
0.0
 10
2.1666
 20
6.58472
 30
0.0
 10
2.1666
 20
6.58472
 30
0.0
 10
2.1666
 20
6.58472
 30
0.0
 10
2.1666
 20
6.58472
 30
0.0
 10
2.54755
 20
6.58472
 30
0.0
 10
2.54755
 20
6.58472
 30
0.0
 10
2.54755
 20
6.58472
 30
0.0
 10
2.54755
 20
6.58472
 30
0.0
 10
2.54755
 20
5.21999
 30
0.0
 10
2.54755
 20
5.21999
 30
0.0
  0
SPLINE
  5
B2
330
1F
100
AcDbEntity
  8
Layer 1
 62
   177
370
     9
100
AcDbSpline
210
0.0
220
0.0
230
1.0
 70
    11
 71
     3
 72
    20
 73
    16
 74
     0
 42
0.0000000001
 43
0.0000000001
 12
1.0
 22
0.0
 32
0.0
 13
1.0
 23
0.0
 33
0.0
 40
0.0
 40
0.0
 40
0.0
 40
0.0
 40
0.2
 40
0.2
 40
0.2
 40
0.2
 40
0.4
 40
0.4
 40
0.4
 40
0.4
 40
0.6
 40
0.6
 40
0.6
 40
0.6
 40
1.0
 40
1.0
 40
1.0
 40
1.0
 10
2.54755
 20
6.79816
 30
0.0
 10
2.54755
 20
6.79816
 30
0.0
 10
2.1666
 20
6.79816
 30
0.0
 10
2.1666
 20
6.79816
 30
0.0
 10
2.1666
 20
6.79816
 30
0.0
 10
2.1666
 20
6.79816
 30
0.0
 10
2.1666
 20
7.9507
 30
0.0
 10
2.1666
 20
7.9507
 30
0.0
 10
2.1666
 20
7.9507
 30
0.0
 10
2.1666
 20
7.9507
 30
0.0
 10
2.54755
 20
7.9507
 30
0.0
 10
2.54755
 20
7.9507
 30
0.0
 10
2.54755
 20
7.9507
 30
0.0
 10
2.54755
 20
7.9507
 30
0.0
 10
2.54755
 20
6.79816
 30
0.0
 10
2.54755
 20
6.79816
 30
0.0
  0
SPLINE
  5
B3
330
1F
100
AcDbEntity
  8
Layer 1
 62
   177
370
     9
100
AcDbSpline
210
0.0
220
0.0
230
1.0
 70
    11
 71
     3
 72
    36
 73
    32
 74
     0
 42
0.0000000001
 43
0.0000000001
 12
1.0
 22
0.0
 32
0.0
 13
1.0
 23
0.0
 33
0.0
 40
0.0
 40
0.0
 40
0.0
 40
0.0
 40
0.1111111111111111
 40
0.1111111111111111
 40
0.1111111111111111
 40
0.1111111111111111
 40
0.2222222222222222
 40
0.2222222222222222
 40
0.2222222222222222
 40
0.2222222222222222
 40
0.3333333333333333
 40
0.3333333333333333
 40
0.3333333333333333
 40
0.3333333333333333
 40
0.4444444444444444
 40
0.4444444444444444
 40
0.4444444444444444
 40
0.4444444444444444
 40
0.5555555555555556
 40
0.5555555555555556
 40
0.5555555555555556
 40
0.5555555555555556
 40
0.6666666666666666
 40
0.6666666666666666
 40
0.6666666666666666
 40
0.6666666666666666
 40
0.7777777777777778
 40
0.7777777777777778
 40
0.7777777777777778
 40
0.7777777777777778
 40
1.0
 40
1.0
 40
1.0
 40
1.0
 10
2.54755
 20
8.16414
 30
0.0
 10
2.54755
 20
8.16414
 30
0.0
 10
2.1666
 20
8.16414
 30
0.0
 10
2.1666
 20
8.16414
 30
0.0
 10
2.1666
 20
8.16414
 30
0.0
 10
2.1666
 20
8.16414
 30
0.0
 10
2.1666
 20
8.79739
 30
0.0
 10
2.1666
 20
8.79739
 30
0.0
 10
2.1666
 20
8.79739
 30
0.0
 10
2.1666
 20
8.79739
 30
0.0
 10
1.41925
 20
8.79739
 30
0.0
 10
1.41925
 20
8.79739
 30
0.0
 10
1.41925
 20
8.79739
 30
0.0
 10
1.41925
 20
8.79739
 30
0.0
 10
1.41925
 20
9.32884
 30
0.0
 10
1.41925
 20
9.32884
 30
0.0
 10
1.41925
 20
9.32884
 30
0.0
 10
1.41925
 20
9.32884
 30
0.0
 10
2.1666
 20
9.32884
 30
0.0
 10
2.1666
 20
9.32884
 30
0.0
 10
2.1666
 20
9.32884
 30
0.0
 10
2.1666
 20
9.32884
 30
0.0
 10
2.1666
 20
9.96293
 30
0.0
 10
2.1666
 20
9.96293
 30
0.0
 10
2.1666
 20
9.96293
 30
0.0
 10
2.1666
 20
9.96293
 30
0.0
 10
2.54755
 20
9.96293
 30
0.0
 10
2.54755
 20
9.96293
 30
0.0
 10
2.54755
 20
9.96293
 30
0.0
 10
2.54755
 20
9.96293
 30
0.0
 10
2.54755
 20
8.16414
 30
0.0
 10
2.54755
 20
8.16414
 30
0.0
  0
SPLINE
  5
B4
330
1F
100
AcDbEntity
  8
Layer 1
 62
   177
370
     9
100
AcDbSpline
210
0.0
220
0.0
230
1.0
 70
    11
 71
     3
 72
    20
 73
    16
 74
     0
 42
0.0000000001
 43
0.0000000001
 12
1.0
 22
0.0
 32
0.0
 13
1.0
 23
0.0
 33
0.0
 40
0.0
 40
0.0
 40
0.0
 40
0.0
 40
0.2
 40
0.2
 40
0.2
 40
0.2
 40
0.4
 40
0.4
 40
0.4
 40
0.4
 40
0.6
 40
0.6
 40
0.6
 40
0.6
 40
1.0
 40
1.0
 40
1.0
 40
1.0
 10
2.54755
 20
10.17637
 30
0.0
 10
2.54755
 20
10.17637
 30
0.0
 10
2.1666
 20
10.17637
 30
0.0
 10
2.1666
 20
10.17637
 30
0.0
 10
2.1666
 20
10.17637
 30
0.0
 10
2.1666
 20
10.17637
 30
0.0
 10
2.1666
 20
10.63046
 30
0.0
 10
2.1666
 20
10.63046
 30
0.0
 10
2.1666
 20
10.63046
 30
0.0
 10
2.1666
 20
10.63046
 30
0.0
 10
2.54755
 20
10.63046
 30
0.0
 10
2.54755
 20
10.63046
 30
0.0
 10
2.54755
 20
10.63046
 30
0.0
 10
2.54755
 20
10.63046
 30
0.0
 10
2.54755
 20
10.17637
 30
0.0
 10
2.54755
 20
10.17637
 30
0.0
  0
SPLINE
  5
B5
330
1F
100
AcDbEntity
  8
Layer 1
 62
   177
370
     9
100
AcDbSpline
210
0.0
220
0.0
230
1.0
 70
    11
 71
     3
 72
    36
 73
    32
 74
     0
 42
0.0000000001
 43
0.0000000001
 12
1.0
 22
0.0
 32
0.0
 13
1.0
 23
0.0
 33
0.0
 40
0.0
 40
0.0
 40
0.0
 40
0.0
 40
0.1111111111111111
 40
0.1111111111111111
 40
0.1111111111111111
 40
0.1111111111111111
 40
0.2222222222222222
 40
0.2222222222222222
 40
0.2222222222222222
 40
0.2222222222222222
 40
0.3333333333333333
 40
0.3333333333333333
 40
0.3333333333333333
 40
0.3333333333333333
 40
0.4444444444444444
 40
0.4444444444444444
 40
0.4444444444444444
 40
0.4444444444444444
 40
0.5555555555555556
 40
0.5555555555555556
 40
0.5555555555555556
 40
0.5555555555555556
 40
0.6666666666666666
 40
0.6666666666666666
 40
0.6666666666666666
 40
0.6666666666666666
 40
0.7777777777777778
 40
0.7777777777777778
 40
0.7777777777777778
 40
0.7777777777777778
 40
1.0
 40
1.0
 40
1.0
 40
1.0
 10
2.54755
 20
10.8439
 30
0.0
 10
2.54755
 20
10.8439
 30
0.0
 10
2.1666
 20
10.8439
 30
0.0
 10
2.1666
 20
10.8439
 30
0.0
 10
2.1666
 20
10.8439
 30
0.0
 10
2.1666
 20
10.8439
 30
0.0
 10
2.1666
 20
11.49052
 30
0.0
 10
2.1666
 20
11.49052
 30
0.0
 10
2.1666
 20
11.49052
 30
0.0
 10
2.1666
 20
11.49052
 30
0.0
 10
1.41925
 20
11.49052
 30
0.0
 10
1.41925
 20
11.49052
 30
0.0
 10
1.41925
 20
11.49052
 30
0.0
 10
1.41925
 20
11.49052
 30
0.0
 10
1.41925
 20
12.04249
 30
0.0
 10
1.41925
 20
12.04249
 30
0.0
 10
1.41925
 20
12.04249
 30
0.0
 10
1.41925
 20
12.04249
 30
0.0
 10
2.1666
 20
12.04249
 30
0.0
 10
2.1666
 20
12.04249
 30
0.0
 10
2.1666
 20
12.04249
 30
0.0
 10
2.1666
 20
12.04249
 30
0.0
 10
2.1666
 20
12.84453
 30
0.0
 10
2.1666
 20
12.84453
 30
0.0
 10
2.1666
 20
12.84453
 30
0.0
 10
2.1666
 20
12.84453
 30
0.0
 10
2.54755
 20
12.84453
 30
0.0
 10
2.54755
 20
12.84453
 30
0.0
 10
2.54755
 20
12.84453
 30
0.0
 10
2.54755
 20
12.84453
 30
0.0
 10
2.54755
 20
10.8439
 30
0.0
 10
2.54755
 20
10.8439
 30
0.0
  0
SPLINE
  5
B6
330
1F
100
AcDbEntity
  8
Layer 1
 62
   177
370
     9
100
AcDbSpline
210
0.0
220
0.0
230
1.0
 70
    11
 71
     3
 72
    36
 73
    32
 74
     0
 42
0.0000000001
 43
0.0000000001
 12
1.0
 22
0.0
 32
0.0
 13
1.0
 23
0.0
 33
0.0
 40
0.0
 40
0.0
 40
0.0
 40
0.0
 40
0.1111111111111111
 40
0.1111111111111111
 40
0.1111111111111111
 40
0.1111111111111111
 40
0.2222222222222222
 40
0.2222222222222222
 40
0.2222222222222222
 40
0.2222222222222222
 40
0.3333333333333333
 40
0.3333333333333333
 40
0.3333333333333333
 40
0.3333333333333333
 40
0.4444444444444444
 40
0.4444444444444444
 40
0.4444444444444444
 40
0.4444444444444444
 40
0.5555555555555556
 40
0.5555555555555556
 40
0.5555555555555556
 40
0.5555555555555556
 40
0.6666666666666666
 40
0.6666666666666666
 40
0.6666666666666666
 40
0.6666666666666666
 40
0.7777777777777778
 40
0.7777777777777778
 40
0.7777777777777778
 40
0.7777777777777778
 40
1.0
 40
1.0
 40
1.0
 40
1.0
 10
1.88313
 20
12.84453
 30
0.0
 10
1.88313
 20
12.84453
 30
0.0
 10
1.88313
 20
12.25593
 30
0.0
 10
1.88313
 20
12.25593
 30
0.0
 10
1.88313
 20
12.25593
 30
0.0
 10
1.88313
 20
12.25593
 30
0.0
 10
-0.82507
 20
12.25593
 30
0.0
 10
-0.82507
 20
12.25593
 30
0.0
 10
-0.82507
 20
12.25593
 30
0.0
 10
-0.82507
 20
12.25593
 30
0.0
 10
-0.82507
 20
12.84453
 30
0.0
 10
-0.82507
 20
12.84453
 30
0.0
 10
-0.82507
 20
12.84453
 30
0.0
 10
-0.82507
 20
12.84453
 30
0.0
 10
-0.53128
 20
12.84453
 30
0.0
 10
-0.53128
 20
12.84453
 30
0.0
 10
-0.53128
 20
12.84453
 30
0.0
 10
-0.53128
 20
12.84453
 30
0.0
 10
-0.53128
 20
12.44385
 30
0.0
 10
-0.53128
 20
12.44385
 30
0.0
 10
-0.53128
 20
12.44385
 30
0.0
 10
-0.53128
 20
12.44385
 30
0.0
 10
1.58934
 20
12.44385
 30
0.0
 10
1.58934
 20
12.44385
 30
0.0
 10
1.58934
 20
12.44385
 30
0.0
 10
1.58934
 20
12.44385
 30
0.0
 10
1.58934
 20
12.84453
 30
0.0
 10
1.58934
 20
12.84453
 30
0.0
 10
1.58934
 20
12.84453
 30
0.0
 10
1.58934
 20
12.84453
 30
0.0
 10
1.88313
 20
12.84453
 30
0.0
 10
1.88313
 20
12.84453
 30
0.0
  0
SPLINE
  5
B7
330
1F
100
AcDbEntity
  8
Layer 1
 62
   177
370
     9
100
AcDbSpline
210
0.0
220
0.0
230
1.0
 70
    11
 71
     3
 72
    36
 73
    32
 74
     0
 42
0.0000000001
 43
0.0000000001
 12
1.0
 22
0.0
 32
0.0
 13
1.0
 23
0.0
 33
0.0
 40
0.0
 40
0.0
 40
0.0
 40
0.0
 40
0.1111111111111111
 40
0.1111111111111111
 40
0.1111111111111111
 40
0.1111111111111111
 40
0.2222222222222222
 40
0.2222222222222222
 40
0.2222222222222222
 40
0.2222222222222222
 40
0.3333333333333333
 40
0.3333333333333333
 40
0.3333333333333333
 40
0.3333333333333333
 40
0.4444444444444444
 40
0.4444444444444444
 40
0.4444444444444444
 40
0.4444444444444444
 40
0.5555555555555556
 40
0.5555555555555556
 40
0.5555555555555556
 40
0.5555555555555556
 40
0.6666666666666666
 40
0.6666666666666666
 40
0.6666666666666666
 40
0.6666666666666666
 40
0.7777777777777778
 40
0.7777777777777778
 40
0.7777777777777778
 40
0.7777777777777778
 40
1.0
 40
1.0
 40
1.0
 40
1.0
 10
-1.10853
 20
12.84453
 30
0.0
 10
-1.10853
 20
12.84453
 30
0.0
 10
-1.10853
 20
12.04249
 30
0.0
 10
-1.10853
 20
12.04249
 30
0.0
 10
-1.10853
 20
12.04249
 30
0.0
 10
-1.10853
 20
12.04249
 30
0.0
 10
-0.3612
 20
12.04249
 30
0.0
 10
-0.3612
 20
12.04249
 30
0.0
 10
-0.3612
 20
12.04249
 30
0.0
 10
-0.3612
 20
12.04249
 30
0.0
 10
-0.3612
 20
11.49052
 30
0.0
 10
-0.3612
 20
11.49052
 30
0.0
 10
-0.3612
 20
11.49052
 30
0.0
 10
-0.3612
 20
11.49052
 30
0.0
 10
-1.10853
 20
11.49052
 30
0.0
 10
-1.10853
 20
11.49052
 30
0.0
 10
-1.10853
 20
11.49052
 30
0.0
 10
-1.10853
 20
11.49052
 30
0.0
 10
-1.10853
 20
10.8439
 30
0.0
 10
-1.10853
 20
10.8439
 30
0.0
 10
-1.10853
 20
10.8439
 30
0.0
 10
-1.10853
 20
10.8439
 30
0.0
 10
-1.48872
 20
10.8439
 30
0.0
 10
-1.48872
 20
10.8439
 30
0.0
 10
-1.48872
 20
10.8439
 30
0.0
 10
-1.48872
 20
10.8439
 30
0.0
 10
-1.48872
 20
12.84453
 30
0.0
 10
-1.48872
 20
12.84453
 30
0.0
 10
-1.48872
 20
12.84453
 30
0.0
 10
-1.48872
 20
12.84453
 30
0.0
 10
-1.10853
 20
12.84453
 30
0.0
 10
-1.10853
 20
12.84453
 30
0.0
  0
SPLINE
  5
B8
330
1F
100
AcDbEntity
  8
Layer 1
 62
   177
370
     9
100
AcDbSpline
210
0.0
220
0.0
230
1.0
 70
    11
 71
     3
 72
    20
 73
    16
 74
     0
 42
0.0000000001
 43
0.0000000001
 12
1.0
 22
0.0
 32
0.0
 13
1.0
 23
0.0
 33
0.0
 40
0.0
 40
0.0
 40
0.0
 40
0.0
 40
0.2
 40
0.2
 40
0.2
 40
0.2
 40
0.4
 40
0.4
 40
0.4
 40
0.4
 40
0.6
 40
0.6
 40
0.6
 40
0.6
 40
1.0
 40
1.0
 40
1.0
 40
1.0
 10
-1.48872
 20
10.63046
 30
0.0
 10
-1.48872
 20
10.63046
 30
0.0
 10
-1.10853
 20
10.63046
 30
0.0
 10
-1.10853
 20
10.63046
 30
0.0
 10
-1.10853
 20
10.63046
 30
0.0
 10
-1.10853
 20
10.63046
 30
0.0
 10
-1.10853
 20
10.17637
 30
0.0
 10
-1.10853
 20
10.17637
 30
0.0
 10
-1.10853
 20
10.17637
 30
0.0
 10
-1.10853
 20
10.17637
 30
0.0
 10
-1.48872
 20
10.17637
 30
0.0
 10
-1.48872
 20
10.17637
 30
0.0
 10
-1.48872
 20
10.17637
 30
0.0
 10
-1.48872
 20
10.17637
 30
0.0
 10
-1.48872
 20
10.63046
 30
0.0
 10
-1.48872
 20
10.63046
 30
0.0
  0
SPLINE
  5
B9
330
1F
100
AcDbEntity
  8
Layer 1
 62
   177
370
     9
100
AcDbSpline
210
0.0
220
0.0
230
1.0
 70
    11
 71
     3
 72
    36
 73
    32
 74
     0
 42
0.0000000001
 43
0.0000000001
 12
1.0
 22
0.0
 32
0.0
 13
1.0
 23
0.0
 33
0.0
 40
0.0
 40
0.0
 40
0.0
 40
0.0
 40
0.1111111111111111
 40
0.1111111111111111
 40
0.1111111111111111
 40
0.1111111111111111
 40
0.2222222222222222
 40
0.2222222222222222
 40
0.2222222222222222
 40
0.2222222222222222
 40
0.3333333333333333
 40
0.3333333333333333
 40
0.3333333333333333
 40
0.3333333333333333
 40
0.4444444444444444
 40
0.4444444444444444
 40
0.4444444444444444
 40
0.4444444444444444
 40
0.5555555555555556
 40
0.5555555555555556
 40
0.5555555555555556
 40
0.5555555555555556
 40
0.6666666666666666
 40
0.6666666666666666
 40
0.6666666666666666
 40
0.6666666666666666
 40
0.7777777777777778
 40
0.7777777777777778
 40
0.7777777777777778
 40
0.7777777777777778
 40
1.0
 40
1.0
 40
1.0
 40
1.0
 10
-1.48872
 20
9.96293
 30
0.0
 10
-1.48872
 20
9.96293
 30
0.0
 10
-1.10853
 20
9.96293
 30
0.0
 10
-1.10853
 20
9.96293
 30
0.0
 10
-1.10853
 20
9.96293
 30
0.0
 10
-1.10853
 20
9.96293
 30
0.0
 10
-1.10853
 20
9.32884
 30
0.0
 10
-1.10853
 20
9.32884
 30
0.0
 10
-1.10853
 20
9.32884
 30
0.0
 10
-1.10853
 20
9.32884
 30
0.0
 10
-0.3612
 20
9.32884
 30
0.0
 10
-0.3612
 20
9.32884
 30
0.0
 10
-0.3612
 20
9.32884
 30
0.0
 10
-0.3612
 20
9.32884
 30
0.0
 10
-0.3612
 20
8.79739
 30
0.0
 10
-0.3612
 20
8.79739
 30
0.0
 10
-0.3612
 20
8.79739
 30
0.0
 10
-0.3612
 20
8.79739
 30
0.0
 10
-1.10853
 20
8.79739
 30
0.0
 10
-1.10853
 20
8.79739
 30
0.0
 10
-1.10853
 20
8.79739
 30
0.0
 10
-1.10853
 20
8.79739
 30
0.0
 10
-1.10853
 20
8.16414
 30
0.0
 10
-1.10853
 20
8.16414
 30
0.0
 10
-1.10853
 20
8.16414
 30
0.0
 10
-1.10853
 20
8.16414
 30
0.0
 10
-1.48872
 20
8.16414
 30
0.0
 10
-1.48872
 20
8.16414
 30
0.0
 10
-1.48872
 20
8.16414
 30
0.0
 10
-1.48872
 20
8.16414
 30
0.0
 10
-1.48872
 20
9.96293
 30
0.0
 10
-1.48872
 20
9.96293
 30
0.0
  0
SPLINE
  5
BA
330
1F
100
AcDbEntity
  8
Layer 1
 62
   177
370
     9
100
AcDbSpline
210
0.0
220
0.0
230
1.0
 70
    11
 71
     3
 72
    20
 73
    16
 74
     0
 42
0.0000000001
 43
0.0000000001
 12
1.0
 22
0.0
 32
0.0
 13
1.0
 23
0.0
 33
0.0
 40
0.0
 40
0.0
 40
0.0
 40
0.0
 40
0.2
 40
0.2
 40
0.2
 40
0.2
 40
0.4
 40
0.4
 40
0.4
 40
0.4
 40
0.6
 40
0.6
 40
0.6
 40
0.6
 40
1.0
 40
1.0
 40
1.0
 40
1.0
 10
-1.48872
 20
7.9507
 30
0.0
 10
-1.48872
 20
7.9507
 30
0.0
 10
-1.10853
 20
7.9507
 30
0.0
 10
-1.10853
 20
7.9507
 30
0.0
 10
-1.10853
 20
7.9507
 30
0.0
 10
-1.10853
 20
7.9507
 30
0.0
 10
-1.10853
 20
6.79816
 30
0.0
 10
-1.10853
 20
6.79816
 30
0.0
 10
-1.10853
 20
6.79816
 30
0.0
 10
-1.10853
 20
6.79816
 30
0.0
 10
-1.48872
 20
6.79816
 30
0.0
 10
-1.48872
 20
6.79816
 30
0.0
 10
-1.48872
 20
6.79816
 30
0.0
 10
-1.48872
 20
6.79816
 30
0.0
 10
-1.48872
 20
7.9507
 30
0.0
 10
-1.48872
 20
7.9507
 30
0.0
  0
SPLINE
  5
BB
330
1F
100
AcDbEntity
  8
Layer 1
 62
   177
370
     9
100
AcDbSpline
210
0.0
220
0.0
230
1.0
 70
    11
 71
     3
 72
    20
 73
    16
 74
     0
 42
0.0000000001
 43
0.0000000001
 12
1.0
 22
0.0
 32
0.0
 13
1.0
 23
0.0
 33
0.0
 40
0.0
 40
0.0
 40
0.0
 40
0.0
 40
0.2
 40
0.2
 40
0.2
 40
0.2
 40
0.4
 40
0.4
 40
0.4
 40
0.4
 40
0.6
 40
0.6
 40
0.6
 40
0.6
 40
1.0
 40
1.0
 40
1.0
 40
1.0
 10
-1.48872
 20
6.58472
 30
0.0
 10
-1.48872
 20
6.58472
 30
0.0
 10
-1.10853
 20
6.58472
 30
0.0
 10
-1.10853
 20
6.58472
 30
0.0
 10
-1.10853
 20
6.58472
 30
0.0
 10
-1.10853
 20
6.58472
 30
0.0
 10
-1.10853
 20
5.21999
 30
0.0
 10
-1.10853
 20
5.21999
 30
0.0
 10
-1.10853
 20
5.21999
 30
0.0
 10
-1.10853
 20
5.21999
 30
0.0
 10
-1.48872
 20
5.21999
 30
0.0
 10
-1.48872
 20
5.21999
 30
0.0
 10
-1.48872
 20
5.21999
 30
0.0
 10
-1.48872
 20
5.21999
 30
0.0
 10
-1.48872
 20
6.58472
 30
0.0
 10
-1.48872
 20
6.58472
 30
0.0
  0
SPLINE
  5
BC
330
1F
100
AcDbEntity
  8
Layer 1
 62
   177
370
     9
100
AcDbSpline
210
0.0
220
0.0
230
1.0
 70
    11
 71
     3
 72
    20
 73
    16
 74
     0
 42
0.0000000001
 43
0.0000000001
 12
1.0
 22
0.0
 32
0.0
 13
1.0
 23
0.0
 33
0.0
 40
0.0
 40
0.0
 40
0.0
 40
0.0
 40
0.2
 40
0.2
 40
0.2
 40
0.2
 40
0.4
 40
0.4
 40
0.4
 40
0.4
 40
0.6
 40
0.6
 40
0.6
 40
0.6
 40
1.0
 40
1.0
 40
1.0
 40
1.0
 10
-1.48872
 20
5.00655
 30
0.0
 10
-1.48872
 20
5.00655
 30
0.0
 10
-1.10853
 20
5.00655
 30
0.0
 10
-1.10853
 20
5.00655
 30
0.0
 10
-1.10853
 20
5.00655
 30
0.0
 10
-1.10853
 20
5.00655
 30
0.0
 10
-1.10853
 20
3.85399
 30
0.0
 10
-1.10853
 20
3.85399
 30
0.0
 10
-1.10853
 20
3.85399
 30
0.0
 10
-1.10853
 20
3.85399
 30
0.0
 10
-1.48872
 20
3.85399
 30
0.0
 10
-1.48872
 20
3.85399
 30
0.0
 10
-1.48872
 20
3.85399
 30
0.0
 10
-1.48872
 20
3.85399
 30
0.0
 10
-1.48872
 20
5.00655
 30
0.0
 10
-1.48872
 20
5.00655
 30
0.0
  0
SPLINE
  5
BD
330
1F
100
AcDbEntity
  8
Layer 1
 62
   177
370
     9
100
AcDbSpline
210
0.0
220
0.0
230
1.0
 70
    11
 71
     3
 72
    44
 73
    40
 74
     0
 42
0.0000000001
 43
0.0000000001
 12
1.0
 22
0.0
 32
0.0
 13
1.0
 23
0.0
 33
0.0
 40
0.0
 40
0.0
 40
0.0
 40
0.0
 40
0.0909090909090909
 40
0.0909090909090909
 40
0.0909090909090909
 40
0.0909090909090909
 40
0.1818181818181818
 40
0.1818181818181818
 40
0.1818181818181818
 40
0.1818181818181818
 40
0.2727272727272727
 40
0.2727272727272727
 40
0.2727272727272727
 40
0.2727272727272727
 40
0.3636363636363636
 40
0.3636363636363636
 40
0.3636363636363636
 40
0.3636363636363636
 40
0.4545454545454545
 40
0.4545454545454545
 40
0.4545454545454545
 40
0.4545454545454545
 40
0.5454545454545454
 40
0.5454545454545454
 40
0.5454545454545454
 40
0.5454545454545454
 40
0.6363636363636364
 40
0.6363636363636364
 40
0.6363636363636364
 40
0.6363636363636364
 40
0.7272727272727273
 40
0.7272727272727273
 40
0.7272727272727273
 40
0.7272727272727273
 40
0.8181818181818182
 40
0.8181818181818182
 40
0.8181818181818182
 40
0.8181818181818182
 40
1.0
 40
1.0
 40
1.0
 40
1.0
 10
-1.48872
 20
3.64056
 30
0.0
 10
-1.48872
 20
3.64056
 30
0.0
 10
-1.10853
 20
3.64056
 30
0.0
 10
-1.10853
 20
3.64056
 30
0.0
 10
-1.10853
 20
3.64056
 30
0.0
 10
-1.10853
 20
3.64056
 30
0.0
 10
-1.10853
 20
3.0073
 30
0.0
 10
-1.10853
 20
3.0073
 30
0.0
 10
-1.10853
 20
3.0073
 30
0.0
 10
-1.10853
 20
3.0073
 30
0.0
 10
-1.10778
 20
3.0073
 30
0.0
 10
-1.10778
 20
3.0073
 30
0.0
 10
-1.10778
 20
3.0073
 30
0.0
 10
-1.10778
 20
3.0073
 30
0.0
 10
-1.10778
 20
3.00616
 30
0.0
 10
-1.10778
 20
3.00616
 30
0.0
 10
-1.10778
 20
3.00616
 30
0.0
 10
-1.10778
 20
3.00616
 30
0.0
 10
-0.3612
 20
3.00616
 30
0.0
 10
-0.3612
 20
3.00616
 30
0.0
 10
-0.3612
 20
3.00616
 30
0.0
 10
-0.3612
 20
3.00616
 30
0.0
 10
-0.3612
 20
2.45587
 30
0.0
 10
-0.3612
 20
2.45587
 30
0.0
 10
-0.3612
 20
2.45587
 30
0.0
 10
-0.3612
 20
2.45587
 30
0.0
 10
-1.10853
 20
2.45587
 30
0.0
 10
-1.10853
 20
2.45587
 30
0.0
 10
-1.10853
 20
2.45587
 30
0.0
 10
-1.10853
 20
2.45587
 30
0.0
 10
-1.10853
 20
1.82177
 30
0.0
 10
-1.10853
 20
1.82177
 30
0.0
 10
-1.10853
 20
1.82177
 30
0.0
 10
-1.10853
 20
1.82177
 30
0.0
 10
-1.48872
 20
1.82177
 30
0.0
 10
-1.48872
 20
1.82177
 30
0.0
 10
-1.48872
 20
1.82177
 30
0.0
 10
-1.48872
 20
1.82177
 30
0.0
 10
-1.48872
 20
3.64056
 30
0.0
 10
-1.48872
 20
3.64056
 30
0.0
  0
SPLINE
  5
BE
330
1F
100
AcDbEntity
  8
Layer 1
 62
   177
370
     9
100
AcDbSpline
210
0.0
220
0.0
230
1.0
 70
    11
 71
     3
 72
    20
 73
    16
 74
     0
 42
0.0000000001
 43
0.0000000001
 12
1.0
 22
0.0
 32
0.0
 13
1.0
 23
0.0
 33
0.0
 40
0.0
 40
0.0
 40
0.0
 40
0.0
 40
0.2
 40
0.2
 40
0.2
 40
0.2
 40
0.4
 40
0.4
 40
0.4
 40
0.4
 40
0.6
 40
0.6
 40
0.6
 40
0.6
 40
1.0
 40
1.0
 40
1.0
 40
1.0
 10
-1.48872
 20
1.59414
 30
0.0
 10
-1.48872
 20
1.59414
 30
0.0
 10
-1.10853
 20
1.59414
 30
0.0
 10
-1.10853
 20
1.59414
 30
0.0
 10
-1.10853
 20
1.59414
 30
0.0
 10
-1.10853
 20
1.59414
 30
0.0
 10
-1.10853
 20
1.15424
 30
0.0
 10
-1.10853
 20
1.15424
 30
0.0
 10
-1.10853
 20
1.15424
 30
0.0
 10
-1.10853
 20
1.15424
 30
0.0
 10
-1.48872
 20
1.15424
 30
0.0
 10
-1.48872
 20
1.15424
 30
0.0
 10
-1.48872
 20
1.15424
 30
0.0
 10
-1.48872
 20
1.15424
 30
0.0
 10
-1.48872
 20
1.59414
 30
0.0
 10
-1.48872
 20
1.59414
 30
0.0
  0
SPLINE
  5
BF
330
1F
100
AcDbEntity
  8
Layer 1
 62
   177
370
     9
100
AcDbSpline
210
0.0
220
0.0
230
1.0
 70
    11
 71
     3
 72
    52
 73
    48
 74
     0
 42
0.0000000001
 43
0.0000000001
 12
1.0
 22
0.0
 32
0.0
 13
1.0
 23
0.0
 33
0.0
 40
0.0
 40
0.0
 40
0.0
 40
0.0
 40
0.0769230769230769
 40
0.0769230769230769
 40
0.0769230769230769
 40
0.0769230769230769
 40
0.1538461538461539
 40
0.1538461538461539
 40
0.1538461538461539
 40
0.1538461538461539
 40
0.2307692307692308
 40
0.2307692307692308
 40
0.2307692307692308
 40
0.2307692307692308
 40
0.3076923076923077
 40
0.3076923076923077
 40
0.3076923076923077
 40
0.3076923076923077
 40
0.3846153846153846
 40
0.3846153846153846
 40
0.3846153846153846
 40
0.3846153846153846
 40
0.4615384615384616
 40
0.4615384615384616
 40
0.4615384615384616
 40
0.4615384615384616
 40
0.5384615384615384
 40
0.5384615384615384
 40
0.5384615384615384
 40
0.5384615384615384
 40
0.6153846153846154
 40
0.6153846153846154
 40
0.6153846153846154
 40
0.6153846153846154
 40
0.6923076923076923
 40
0.6923076923076923
 40
0.6923076923076923
 40
0.6923076923076923
 40
0.7692307692307693
 40
0.7692307692307693
 40
0.7692307692307693
 40
0.7692307692307693
 40
0.8461538461538461
 40
0.8461538461538461
 40
0.8461538461538461
 40
0.8461538461538461
 40
1.0
 40
1.0
 40
1.0
 40
1.0
 10
-1.48872
 20
0.92661
 30
0.0
 10
-1.48872
 20
0.92661
 30
0.0
 10
-1.10853
 20
0.92661
 30
0.0
 10
-1.10853
 20
0.92661
 30
0.0
 10
-1.10853
 20
0.92661
 30
0.0
 10
-1.10853
 20
0.92661
 30
0.0
 10
-1.10853
 20
0.29419
 30
0.0
 10
-1.10853
 20
0.29419
 30
0.0
 10
-1.10853
 20
0.29419
 30
0.0
 10
-1.10853
 20
0.29419
 30
0.0
 10
-1.10778
 20
0.29419
 30
0.0
 10
-1.10778
 20
0.29419
 30
0.0
 10
-1.10778
 20
0.29419
 30
0.0
 10
-1.10778
 20
0.29419
 30
0.0
 10
-1.10778
 20
0.29251
 30
0.0
 10
-1.10778
 20
0.29251
 30
0.0
 10
-1.10778
 20
0.29251
 30
0.0
 10
-1.10778
 20
0.29251
 30
0.0
 10
-0.3612
 20
0.29251
 30
0.0
 10
-0.3612
 20
0.29251
 30
0.0
 10
-0.3612
 20
0.29251
 30
0.0
 10
-0.3612
 20
0.29251
 30
0.0
 10
-0.3612
 20
-0.25778
 30
0.0
 10
-0.3612
 20
-0.25778
 30
0.0
 10
-0.3612
 20
-0.25778
 30
0.0
 10
-0.3612
 20
-0.25778
 30
0.0
 10
-1.10853
 20
-0.25778
 30
0.0
 10
-1.10853
 20
-0.25778
 30
0.0
 10
-1.10853
 20
-0.25778
 30
0.0
 10
-1.10853
 20
-0.25778
 30
0.0
 10
-1.10853
 20
-0.84297
 30
0.0
 10
-1.10853
 20
-0.84297
 30
0.0
 10
-1.10853
 20
-0.84297
 30
0.0
 10
-1.10853
 20
-0.84297
 30
0.0
 10
-1.10778
 20
-0.84297
 30
0.0
 10
-1.10778
 20
-0.84297
 30
0.0
 10
-1.10778
 20
-0.84297
 30
0.0
 10
-1.10778
 20
-0.84297
 30
0.0
 10
-1.10778
 20
-0.89218
 30
0.0
 10
-1.10778
 20
-0.89218
 30
0.0
 10
-1.10778
 20
-0.89218
 30
0.0
 10
-1.10778
 20
-0.89218
 30
0.0
 10
-1.48872
 20
-0.89218
 30
0.0
 10
-1.48872
 20
-0.89218
 30
0.0
 10
-1.48872
 20
-0.89218
 30
0.0
 10
-1.48872
 20
-0.89218
 30
0.0
 10
-1.48872
 20
0.92661
 30
0.0
 10
-1.48872
 20
0.92661
 30
0.0
  0
SPLINE
  5
C0
330
1F
100
AcDbEntity
  8
Layer 1
 62
   177
370
     9
100
AcDbSpline
210
0.0
220
0.0
230
1.0
 70
    11
 71
     3
 72
    20
 73
    16
 74
     0
 42
0.0000000001
 43
0.0000000001
 12
1.0
 22
0.0
 32
0.0
 13
1.0
 23
0.0
 33
0.0
 40
0.0
 40
0.0
 40
0.0
 40
0.0
 40
0.2
 40
0.2
 40
0.2
 40
0.2
 40
0.4
 40
0.4
 40
0.4
 40
0.4
 40
0.6
 40
0.6
 40
0.6
 40
0.6
 40
1.0
 40
1.0
 40
1.0
 40
1.0
 10
-1.48872
 20
-1.10561
 30
0.0
 10
-1.48872
 20
-1.10561
 30
0.0
 10
-1.10778
 20
-1.10561
 30
0.0
 10
-1.10778
 20
-1.10561
 30
0.0
 10
-1.10778
 20
-1.10561
 30
0.0
 10
-1.10778
 20
-1.10561
 30
0.0
 10
-1.10778
 20
-2.25817
 30
0.0
 10
-1.10778
 20
-2.25817
 30
0.0
 10
-1.10778
 20
-2.25817
 30
0.0
 10
-1.10778
 20
-2.25817
 30
0.0
 10
-1.48872
 20
-2.25817
 30
0.0
 10
-1.48872
 20
-2.25817
 30
0.0
 10
-1.48872
 20
-2.25817
 30
0.0
 10
-1.48872
 20
-2.25817
 30
0.0
 10
-1.48872
 20
-1.10561
 30
0.0
 10
-1.48872
 20
-1.10561
 30
0.0
  0
SPLINE
  5
C1
330
1F
100
AcDbEntity
  8
Layer 1
 62
   177
370
     9
100
AcDbSpline
210
0.0
220
0.0
230
1.0
 70
    11
 71
     3
 72
    20
 73
    16
 74
     0
 42
0.0000000001
 43
0.0000000001
 12
1.0
 22
0.0
 32
0.0
 13
1.0
 23
0.0
 33
0.0
 40
0.0
 40
0.0
 40
0.0
 40
0.0
 40
0.2
 40
0.2
 40
0.2
 40
0.2
 40
0.4
 40
0.4
 40
0.4
 40
0.4
 40
0.6
 40
0.6
 40
0.6
 40
0.6
 40
1.0
 40
1.0
 40
1.0
 40
1.0
 10
-1.48872
 20
-2.47161
 30
0.0
 10
-1.48872
 20
-2.47161
 30
0.0
 10
-1.10778
 20
-2.47161
 30
0.0
 10
-1.10778
 20
-2.47161
 30
0.0
 10
-1.10778
 20
-2.47161
 30
0.0
 10
-1.10778
 20
-2.47161
 30
0.0
 10
-1.10778
 20
-3.83634
 30
0.0
 10
-1.10778
 20
-3.83634
 30
0.0
 10
-1.10778
 20
-3.83634
 30
0.0
 10
-1.10778
 20
-3.83634
 30
0.0
 10
-1.48872
 20
-3.83634
 30
0.0
 10
-1.48872
 20
-3.83634
 30
0.0
 10
-1.48872
 20
-3.83634
 30
0.0
 10
-1.48872
 20
-3.83634
 30
0.0
 10
-1.48872
 20
-2.47161
 30
0.0
 10
-1.48872
 20
-2.47161
 30
0.0
  0
SPLINE
  5
C2
330
1F
100
AcDbEntity
  8
Layer 1
 62
   177
370
     9
100
AcDbSpline
210
0.0
220
0.0
230
1.0
 70
    11
 71
     3
 72
    28
 73
    24
 74
     0
 42
0.0000000001
 43
0.0000000001
 12
1.0
 22
0.0
 32
0.0
 13
1.0
 23
0.0
 33
0.0
 40
0.0
 40
0.0
 40
0.0
 40
0.0
 40
0.1428571428571428
 40
0.1428571428571428
 40
0.1428571428571428
 40
0.1428571428571428
 40
0.2857142857142857
 40
0.2857142857142857
 40
0.2857142857142857
 40
0.2857142857142857
 40
0.4285714285714285
 40
0.4285714285714285
 40
0.4285714285714285
 40
0.4285714285714285
 40
0.5714285714285714
 40
0.5714285714285714
 40
0.5714285714285714
 40
0.5714285714285714
 40
0.7142857142857143
 40
0.7142857142857143
 40
0.7142857142857143
 40
0.7142857142857143
 40
1.0
 40
1.0
 40
1.0
 40
1.0
 10
-0.82432
 20
3.22074
 30
0.0
 10
-0.82432
 20
3.22074
 30
0.0
 10
-0.82432
 20
3.59135
 30
0.0
 10
-0.82432
 20
3.59135
 30
0.0
 10
-0.82432
 20
3.59135
 30
0.0
 10
-0.82432
 20
3.59135
 30
0.0
 10
-0.82507
 20
3.59135
 30
0.0
 10
-0.82507
 20
3.59135
 30
0.0
 10
-0.82507
 20
3.59135
 30
0.0
 10
-0.82507
 20
3.59135
 30
0.0
 10
-0.82507
 20
3.64056
 30
0.0
 10
-0.82507
 20
3.64056
 30
0.0
 10
-0.82507
 20
3.64056
 30
0.0
 10
-0.82507
 20
3.64056
 30
0.0
 10
1.88313
 20
3.64056
 30
0.0
 10
1.88313
 20
3.64056
 30
0.0
 10
1.88313
 20
3.64056
 30
0.0
 10
1.88313
 20
3.64056
 30
0.0
 10
1.88313
 20
3.22074
 30
0.0
 10
1.88313
 20
3.22074
 30
0.0
 10
1.88313
 20
3.22074
 30
0.0
 10
1.88313
 20
3.22074
 30
0.0
 10
-0.82432
 20
3.22074
 30
0.0
 10
-0.82432
 20
3.22074
 30
0.0
  0
SPLINE
  5
C3
330
1F
100
AcDbEntity
  8
Layer 1
 62
   177
370
     9
100
AcDbSpline
210
0.0
220
0.0
230
1.0
 70
    11
 71
     3
 72
    20
 73
    16
 74
     0
 42
0.0000000001
 43
0.0000000001
 12
1.0
 22
0.0
 32
0.0
 13
1.0
 23
0.0
 33
0.0
 40
0.0
 40
0.0
 40
0.0
 40
0.0
 40
0.2
 40
0.2
 40
0.2
 40
0.2
 40
0.4
 40
0.4
 40
0.4
 40
0.4
 40
0.6
 40
0.6
 40
0.6
 40
0.6
 40
1.0
 40
1.0
 40
1.0
 40
1.0
 10
-0.82507
 20
8.16414
 30
0.0
 10
-0.82507
 20
8.16414
 30
0.0
 10
1.88313
 20
8.16414
 30
0.0
 10
1.88313
 20
8.16414
 30
0.0
 10
1.88313
 20
8.16414
 30
0.0
 10
1.88313
 20
8.16414
 30
0.0
 10
1.88313
 20
8.58395
 30
0.0
 10
1.88313
 20
8.58395
 30
0.0
 10
1.88313
 20
8.58395
 30
0.0
 10
1.88313
 20
8.58395
 30
0.0
 10
-0.82507
 20
8.58395
 30
0.0
 10
-0.82507
 20
8.58395
 30
0.0
 10
-0.82507
 20
8.58395
 30
0.0
 10
-0.82507
 20
8.58395
 30
0.0
 10
-0.82507
 20
8.16414
 30
0.0
 10
-0.82507
 20
8.16414
 30
0.0
  0
SPLINE
  5
C4
330
1F
100
AcDbEntity
  8
Layer 1
 62
   177
370
     9
100
AcDbSpline
210
0.0
220
0.0
230
1.0
 70
    11
 71
     3
 72
    36
 73
    32
 74
     0
 42
0.0000000001
 43
0.0000000001
 12
1.0
 22
0.0
 32
0.0
 13
1.0
 23
0.0
 33
0.0
 40
0.0
 40
0.0
 40
0.0
 40
0.0
 40
0.1111111111111111
 40
0.1111111111111111
 40
0.1111111111111111
 40
0.1111111111111111
 40
0.2222222222222222
 40
0.2222222222222222
 40
0.2222222222222222
 40
0.2222222222222222
 40
0.3333333333333333
 40
0.3333333333333333
 40
0.3333333333333333
 40
0.3333333333333333
 40
0.4444444444444444
 40
0.4444444444444444
 40
0.4444444444444444
 40
0.4444444444444444
 40
0.5555555555555556
 40
0.5555555555555556
 40
0.5555555555555556
 40
0.5555555555555556
 40
0.6666666666666666
 40
0.6666666666666666
 40
0.6666666666666666
 40
0.6666666666666666
 40
0.7777777777777778
 40
0.7777777777777778
 40
0.7777777777777778
 40
0.7777777777777778
 40
1.0
 40
1.0
 40
1.0
 40
1.0
 10
-0.82507
 20
6.79816
 30
0.0
 10
-0.82507
 20
6.79816
 30
0.0
 10
-0.3612
 20
6.79816
 30
0.0
 10
-0.3612
 20
6.79816
 30
0.0
 10
-0.3612
 20
6.79816
 30
0.0
 10
-0.3612
 20
6.79816
 30
0.0
 10
-0.3612
 20
7.47618
 30
0.0
 10
-0.3612
 20
7.47618
 30
0.0
 10
-0.3612
 20
7.47618
 30
0.0
 10
-0.3612
 20
7.47618
 30
0.0
 10
1.41925
 20
7.47618
 30
0.0
 10
1.41925
 20
7.47618
 30
0.0
 10
1.41925
 20
7.47618
 30
0.0
 10
1.41925
 20
7.47618
 30
0.0
 10
1.41925
 20
6.79816
 30
0.0
 10
1.41925
 20
6.79816
 30
0.0
 10
1.41925
 20
6.79816
 30
0.0
 10
1.41925
 20
6.79816
 30
0.0
 10
1.88313
 20
6.79816
 30
0.0
 10
1.88313
 20
6.79816
 30
0.0
 10
1.88313
 20
6.79816
 30
0.0
 10
1.88313
 20
6.79816
 30
0.0
 10
1.88313
 20
7.9507
 30
0.0
 10
1.88313
 20
7.9507
 30
0.0
 10
1.88313
 20
7.9507
 30
0.0
 10
1.88313
 20
7.9507
 30
0.0
 10
-0.82507
 20
7.9507
 30
0.0
 10
-0.82507
 20
7.9507
 30
0.0
 10
-0.82507
 20
7.9507
 30
0.0
 10
-0.82507
 20
7.9507
 30
0.0
 10
-0.82507
 20
6.79816
 30
0.0
 10
-0.82507
 20
6.79816
 30
0.0
  0
SPLINE
  5
C5
330
1F
100
AcDbEntity
  8
Layer 1
 62
   177
370
     9
100
AcDbSpline
210
0.0
220
0.0
230
1.0
 70
    11
 71
     3
 72
    20
 73
    16
 74
     0
 42
0.0000000001
 43
0.0000000001
 12
1.0
 22
0.0
 32
0.0
 13
1.0
 23
0.0
 33
0.0
 40
0.0
 40
0.0
 40
0.0
 40
0.0
 40
0.2
 40
0.2
 40
0.2
 40
0.2
 40
0.4
 40
0.4
 40
0.4
 40
0.4
 40
0.6
 40
0.6
 40
0.6
 40
0.6
 40
1.0
 40
1.0
 40
1.0
 40
1.0
 10
1.41925
 20
5.21999
 30
0.0
 10
1.41925
 20
5.21999
 30
0.0
 10
1.88313
 20
5.21999
 30
0.0
 10
1.88313
 20
5.21999
 30
0.0
 10
1.88313
 20
5.21999
 30
0.0
 10
1.88313
 20
5.21999
 30
0.0
 10
1.88313
 20
6.58472
 30
0.0
 10
1.88313
 20
6.58472
 30
0.0
 10
1.88313
 20
6.58472
 30
0.0
 10
1.88313
 20
6.58472
 30
0.0
 10
1.41925
 20
6.58472
 30
0.0
 10
1.41925
 20
6.58472
 30
0.0
 10
1.41925
 20
6.58472
 30
0.0
 10
1.41925
 20
6.58472
 30
0.0
 10
1.41925
 20
5.21999
 30
0.0
 10
1.41925
 20
5.21999
 30
0.0
  0
SPLINE
  5
C6
330
1F
100
AcDbEntity
  8
Layer 1
 62
   177
370
     9
100
AcDbSpline
210
0.0
220
0.0
230
1.0
 70
    11
 71
     3
 72
    36
 73
    32
 74
     0
 42
0.0000000001
 43
0.0000000001
 12
1.0
 22
0.0
 32
0.0
 13
1.0
 23
0.0
 33
0.0
 40
0.0
 40
0.0
 40
0.0
 40
0.0
 40
0.1111111111111111
 40
0.1111111111111111
 40
0.1111111111111111
 40
0.1111111111111111
 40
0.2222222222222222
 40
0.2222222222222222
 40
0.2222222222222222
 40
0.2222222222222222
 40
0.3333333333333333
 40
0.3333333333333333
 40
0.3333333333333333
 40
0.3333333333333333
 40
0.4444444444444444
 40
0.4444444444444444
 40
0.4444444444444444
 40
0.4444444444444444
 40
0.5555555555555556
 40
0.5555555555555556
 40
0.5555555555555556
 40
0.5555555555555556
 40
0.6666666666666666
 40
0.6666666666666666
 40
0.6666666666666666
 40
0.6666666666666666
 40
0.7777777777777778
 40
0.7777777777777778
 40
0.7777777777777778
 40
0.7777777777777778
 40
1.0
 40
1.0
 40
1.0
 40
1.0
 10
-0.3612
 20
5.00655
 30
0.0
 10
-0.3612
 20
5.00655
 30
0.0
 10
-0.82507
 20
5.00655
 30
0.0
 10
-0.82507
 20
5.00655
 30
0.0
 10
-0.82507
 20
5.00655
 30
0.0
 10
-0.82507
 20
5.00655
 30
0.0
 10
-0.82507
 20
3.85399
 30
0.0
 10
-0.82507
 20
3.85399
 30
0.0
 10
-0.82507
 20
3.85399
 30
0.0
 10
-0.82507
 20
3.85399
 30
0.0
 10
1.88313
 20
3.85399
 30
0.0
 10
1.88313
 20
3.85399
 30
0.0
 10
1.88313
 20
3.85399
 30
0.0
 10
1.88313
 20
3.85399
 30
0.0
 10
1.88313
 20
5.00655
 30
0.0
 10
1.88313
 20
5.00655
 30
0.0
 10
1.88313
 20
5.00655
 30
0.0
 10
1.88313
 20
5.00655
 30
0.0
 10
1.41925
 20
5.00655
 30
0.0
 10
1.41925
 20
5.00655
 30
0.0
 10
1.41925
 20
5.00655
 30
0.0
 10
1.41925
 20
5.00655
 30
0.0
 10
1.41925
 20
4.32851
 30
0.0
 10
1.41925
 20
4.32851
 30
0.0
 10
1.41925
 20
4.32851
 30
0.0
 10
1.41925
 20
4.32851
 30
0.0
 10
-0.3612
 20
4.32851
 30
0.0
 10
-0.3612
 20
4.32851
 30
0.0
 10
-0.3612
 20
4.32851
 30
0.0
 10
-0.3612
 20
4.32851
 30
0.0
 10
-0.3612
 20
5.00655
 30
0.0
 10
-0.3612
 20
5.00655
 30
0.0
  0
SPLINE
  5
C7
330
1F
100
AcDbEntity
  8
Layer 1
 62
   177
370
     9
100
AcDbSpline
210
0.0
220
0.0
230
1.0
 70
    11
 71
     3
 72
    20
 73
    16
 74
     0
 42
0.0000000001
 43
0.0000000001
 12
1.0
 22
0.0
 32
0.0
 13
1.0
 23
0.0
 33
0.0
 40
0.0
 40
0.0
 40
0.0
 40
0.0
 40
0.2
 40
0.2
 40
0.2
 40
0.2
 40
0.4
 40
0.4
 40
0.4
 40
0.4
 40
0.6
 40
0.6
 40
0.6
 40
0.6
 40
1.0
 40
1.0
 40
1.0
 40
1.0
 10
-0.82507
 20
5.21999
 30
0.0
 10
-0.82507
 20
5.21999
 30
0.0
 10
-0.3612
 20
5.21999
 30
0.0
 10
-0.3612
 20
5.21999
 30
0.0
 10
-0.3612
 20
5.21999
 30
0.0
 10
-0.3612
 20
5.21999
 30
0.0
 10
-0.3612
 20
6.58472
 30
0.0
 10
-0.3612
 20
6.58472
 30
0.0
 10
-0.3612
 20
6.58472
 30
0.0
 10
-0.3612
 20
6.58472
 30
0.0
 10
-0.82507
 20
6.58472
 30
0.0
 10
-0.82507
 20
6.58472
 30
0.0
 10
-0.82507
 20
6.58472
 30
0.0
 10
-0.82507
 20
6.58472
 30
0.0
 10
-0.82507
 20
5.21999
 30
0.0
 10
-0.82507
 20
5.21999
 30
0.0
  0
SPLINE
  5
C8
330
1F
100
AcDbEntity
  8
Layer 1
 62
   177
370
     9
100
AcDbSpline
210
0.0
220
0.0
230
1.0
 70
    11
 71
     3
 72
    20
 73
    16
 74
     0
 42
0.0000000001
 43
0.0000000001
 12
1.0
 22
0.0
 32
0.0
 13
1.0
 23
0.0
 33
0.0
 40
0.0
 40
0.0
 40
0.0
 40
0.0
 40
0.2
 40
0.2
 40
0.2
 40
0.2
 40
0.4
 40
0.4
 40
0.4
 40
0.4
 40
0.6
 40
0.6
 40
0.6
 40
0.6
 40
1.0
 40
1.0
 40
1.0
 40
1.0
 10
1.1358
 20
11.27707
 30
0.0
 10
1.1358
 20
11.27707
 30
0.0
 10
-0.07774
 20
11.27707
 30
0.0
 10
-0.07774
 20
11.27707
 30
0.0
 10
-0.07774
 20
11.27707
 30
0.0
 10
-0.07774
 20
11.27707
 30
0.0
 10
-0.07774
 20
10.87747
 30
0.0
 10
-0.07774
 20
10.87747
 30
0.0
 10
-0.07774
 20
10.87747
 30
0.0
 10
-0.07774
 20
10.87747
 30
0.0
 10
1.1358
 20
10.87747
 30
0.0
 10
1.1358
 20
10.87747
 30
0.0
 10
1.1358
 20
10.87747
 30
0.0
 10
1.1358
 20
10.87747
 30
0.0
 10
1.1358
 20
11.27707
 30
0.0
 10
1.1358
 20
11.27707
 30
0.0
  0
SPLINE
  5
C9
330
1F
100
AcDbEntity
  8
Layer 1
 62
   177
370
     9
100
AcDbSpline
210
0.0
220
0.0
230
1.0
 70
    11
 71
     3
 72
    20
 73
    16
 74
     0
 42
0.0000000001
 43
0.0000000001
 12
1.0
 22
0.0
 32
0.0
 13
1.0
 23
0.0
 33
0.0
 40
0.0
 40
0.0
 40
0.0
 40
0.0
 40
0.2
 40
0.2
 40
0.2
 40
0.2
 40
0.4
 40
0.4
 40
0.4
 40
0.4
 40
0.6
 40
0.6
 40
0.6
 40
0.6
 40
1.0
 40
1.0
 40
1.0
 40
1.0
 10
-0.07774
 20
9.54227
 30
0.0
 10
-0.07774
 20
9.54227
 30
0.0
 10
1.1358
 20
9.54227
 30
0.0
 10
1.1358
 20
9.54227
 30
0.0
 10
1.1358
 20
9.54227
 30
0.0
 10
1.1358
 20
9.54227
 30
0.0
 10
1.1358
 20
9.96136
 30
0.0
 10
1.1358
 20
9.96136
 30
0.0
 10
1.1358
 20
9.96136
 30
0.0
 10
1.1358
 20
9.96136
 30
0.0
 10
-0.07774
 20
9.96136
 30
0.0
 10
-0.07774
 20
9.96136
 30
0.0
 10
-0.07774
 20
9.96136
 30
0.0
 10
-0.07774
 20
9.96136
 30
0.0
 10
-0.07774
 20
9.54227
 30
0.0
 10
-0.07774
 20
9.54227
 30
0.0
  0
SPLINE
  5
CA
330
1F
100
AcDbEntity
  8
Layer 1
 62
   177
370
     9
100
AcDbSpline
210
0.0
220
0.0
230
1.0
 70
    11
 71
     3
 72
    20
 73
    16
 74
     0
 42
0.0000000001
 43
0.0000000001
 12
1.0
 22
0.0
 32
0.0
 13
1.0
 23
0.0
 33
0.0
 40
0.0
 40
0.0
 40
0.0
 40
0.0
 40
0.2
 40
0.2
 40
0.2
 40
0.2
 40
0.4
 40
0.4
 40
0.4
 40
0.4
 40
0.6
 40
0.6
 40
0.6
 40
0.6
 40
1.0
 40
1.0
 40
1.0
 40
1.0
 10
-0.07774
 20
9.32884
 30
0.0
 10
-0.07774
 20
9.32884
 30
0.0
 10
1.1358
 20
9.32884
 30
0.0
 10
1.1358
 20
9.32884
 30
0.0
 10
1.1358
 20
9.32884
 30
0.0
 10
1.1358
 20
9.32884
 30
0.0
 10
1.1358
 20
8.79739
 30
0.0
 10
1.1358
 20
8.79739
 30
0.0
 10
1.1358
 20
8.79739
 30
0.0
 10
1.1358
 20
8.79739
 30
0.0
 10
-0.07774
 20
8.79739
 30
0.0
 10
-0.07774
 20
8.79739
 30
0.0
 10
-0.07774
 20
8.79739
 30
0.0
 10
-0.07774
 20
8.79739
 30
0.0
 10
-0.07774
 20
9.32884
 30
0.0
 10
-0.07774
 20
9.32884
 30
0.0
  0
SPLINE
  5
CB
330
1F
100
AcDbEntity
  8
Layer 1
 62
   177
370
     9
100
AcDbSpline
210
0.0
220
0.0
230
1.0
 70
    11
 71
     3
 72
    20
 73
    16
 74
     0
 42
0.0000000001
 43
0.0000000001
 12
1.0
 22
0.0
 32
0.0
 13
1.0
 23
0.0
 33
0.0
 40
0.0
 40
0.0
 40
0.0
 40
0.0
 40
0.2
 40
0.2
 40
0.2
 40
0.2
 40
0.4
 40
0.4
 40
0.4
 40
0.4
 40
0.6
 40
0.6
 40
0.6
 40
0.6
 40
1.0
 40
1.0
 40
1.0
 40
1.0
 10
-0.07774
 20
12.04249
 30
0.0
 10
-0.07774
 20
12.04249
 30
0.0
 10
-0.07774
 20
11.49052
 30
0.0
 10
-0.07774
 20
11.49052
 30
0.0
 10
-0.07774
 20
11.49052
 30
0.0
 10
-0.07774
 20
11.49052
 30
0.0
 10
1.1358
 20
11.49052
 30
0.0
 10
1.1358
 20
11.49052
 30
0.0
 10
1.1358
 20
11.49052
 30
0.0
 10
1.1358
 20
11.49052
 30
0.0
 10
1.1358
 20
12.04249
 30
0.0
 10
1.1358
 20
12.04249
 30
0.0
 10
1.1358
 20
12.04249
 30
0.0
 10
1.1358
 20
12.04249
 30
0.0
 10
-0.07774
 20
12.04249
 30
0.0
 10
-0.07774
 20
12.04249
 30
0.0
  0
SPLINE
  5
CC
330
1F
100
AcDbEntity
  8
Layer 1
 62
   177
370
     9
100
AcDbSpline
210
0.0
220
0.0
230
1.0
 70
    11
 71
     3
 72
    36
 73
    32
 74
     0
 42
0.0000000001
 43
0.0000000001
 12
1.0
 22
0.0
 32
0.0
 13
1.0
 23
0.0
 33
0.0
 40
0.0
 40
0.0
 40
0.0
 40
0.0
 40
0.1111111111111111
 40
0.1111111111111111
 40
0.1111111111111111
 40
0.1111111111111111
 40
0.2222222222222222
 40
0.2222222222222222
 40
0.2222222222222222
 40
0.2222222222222222
 40
0.3333333333333333
 40
0.3333333333333333
 40
0.3333333333333333
 40
0.3333333333333333
 40
0.4444444444444444
 40
0.4444444444444444
 40
0.4444444444444444
 40
0.4444444444444444
 40
0.5555555555555556
 40
0.5555555555555556
 40
0.5555555555555556
 40
0.5555555555555556
 40
0.6666666666666666
 40
0.6666666666666666
 40
0.6666666666666666
 40
0.6666666666666666
 40
0.7777777777777778
 40
0.7777777777777778
 40
0.7777777777777778
 40
0.7777777777777778
 40
1.0
 40
1.0
 40
1.0
 40
1.0
 10
0.66046
 20
10.17479
 30
0.0
 10
0.66046
 20
10.17479
 30
0.0
 10
0.66046
 20
10.66403
 30
0.0
 10
0.66046
 20
10.66403
 30
0.0
 10
0.66046
 20
10.66403
 30
0.0
 10
0.66046
 20
10.66403
 30
0.0
 10
1.41925
 20
10.66403
 30
0.0
 10
1.41925
 20
10.66403
 30
0.0
 10
1.41925
 20
10.66403
 30
0.0
 10
1.41925
 20
10.66403
 30
0.0
 10
1.41925
 20
11.27707
 30
0.0
 10
1.41925
 20
11.27707
 30
0.0
 10
1.41925
 20
11.27707
 30
0.0
 10
1.41925
 20
11.27707
 30
0.0
 10
1.88313
 20
11.27707
 30
0.0
 10
1.88313
 20
11.27707
 30
0.0
 10
1.88313
 20
11.27707
 30
0.0
 10
1.88313
 20
11.27707
 30
0.0
 10
1.88313
 20
9.54227
 30
0.0
 10
1.88313
 20
9.54227
 30
0.0
 10
1.88313
 20
9.54227
 30
0.0
 10
1.88313
 20
9.54227
 30
0.0
 10
1.41925
 20
9.54227
 30
0.0
 10
1.41925
 20
9.54227
 30
0.0
 10
1.41925
 20
9.54227
 30
0.0
 10
1.41925
 20
9.54227
 30
0.0
 10
1.41925
 20
10.17479
 30
0.0
 10
1.41925
 20
10.17479
 30
0.0
 10
1.41925
 20
10.17479
 30
0.0
 10
1.41925
 20
10.17479
 30
0.0
 10
0.66046
 20
10.17479
 30
0.0
 10
0.66046
 20
10.17479
 30
0.0
  0
SPLINE
  5
CD
330
1F
100
AcDbEntity
  8
Layer 1
 62
   177
370
     9
100
AcDbSpline
210
0.0
220
0.0
230
1.0
 70
    11
 71
     3
 72
    36
 73
    32
 74
     0
 42
0.0000000001
 43
0.0000000001
 12
1.0
 22
0.0
 32
0.0
 13
1.0
 23
0.0
 33
0.0
 40
0.0
 40
0.0
 40
0.0
 40
0.0
 40
0.1111111111111111
 40
0.1111111111111111
 40
0.1111111111111111
 40
0.1111111111111111
 40
0.2222222222222222
 40
0.2222222222222222
 40
0.2222222222222222
 40
0.2222222222222222
 40
0.3333333333333333
 40
0.3333333333333333
 40
0.3333333333333333
 40
0.3333333333333333
 40
0.4444444444444444
 40
0.4444444444444444
 40
0.4444444444444444
 40
0.4444444444444444
 40
0.5555555555555556
 40
0.5555555555555556
 40
0.5555555555555556
 40
0.5555555555555556
 40
0.6666666666666666
 40
0.6666666666666666
 40
0.6666666666666666
 40
0.6666666666666666
 40
0.7777777777777778
 40
0.7777777777777778
 40
0.7777777777777778
 40
0.7777777777777778
 40
1.0
 40
1.0
 40
1.0
 40
1.0
 10
0.37699
 20
10.66403
 30
0.0
 10
0.37699
 20
10.66403
 30
0.0
 10
0.37699
 20
10.17479
 30
0.0
 10
0.37699
 20
10.17479
 30
0.0
 10
0.37699
 20
10.17479
 30
0.0
 10
0.37699
 20
10.17479
 30
0.0
 10
-0.3612
 20
10.17479
 30
0.0
 10
-0.3612
 20
10.17479
 30
0.0
 10
-0.3612
 20
10.17479
 30
0.0
 10
-0.3612
 20
10.17479
 30
0.0
 10
-0.3612
 20
9.54227
 30
0.0
 10
-0.3612
 20
9.54227
 30
0.0
 10
-0.3612
 20
9.54227
 30
0.0
 10
-0.3612
 20
9.54227
 30
0.0
 10
-0.82507
 20
9.54227
 30
0.0
 10
-0.82507
 20
9.54227
 30
0.0
 10
-0.82507
 20
9.54227
 30
0.0
 10
-0.82507
 20
9.54227
 30
0.0
 10
-0.82507
 20
11.27707
 30
0.0
 10
-0.82507
 20
11.27707
 30
0.0
 10
-0.82507
 20
11.27707
 30
0.0
 10
-0.82507
 20
11.27707
 30
0.0
 10
-0.3612
 20
11.27707
 30
0.0
 10
-0.3612
 20
11.27707
 30
0.0
 10
-0.3612
 20
11.27707
 30
0.0
 10
-0.3612
 20
11.27707
 30
0.0
 10
-0.3612
 20
10.66403
 30
0.0
 10
-0.3612
 20
10.66403
 30
0.0
 10
-0.3612
 20
10.66403
 30
0.0
 10
-0.3612
 20
10.66403
 30
0.0
 10
0.37699
 20
10.66403
 30
0.0
 10
0.37699
 20
10.66403
 30
0.0
  0
SPLINE
  5
CE
330
1F
100
AcDbEntity
  8
Layer 1
 62
   177
370
     9
100
AcDbSpline
210
0.0
220
0.0
230
1.0
 70
    11
 71
     3
 72
    20
 73
    16
 74
     0
 42
0.0000000001
 43
0.0000000001
 12
1.0
 22
0.0
 32
0.0
 13
1.0
 23
0.0
 33
0.0
 40
0.0
 40
0.0
 40
0.0
 40
0.0
 40
0.2
 40
0.2
 40
0.2
 40
0.2
 40
0.4
 40
0.4
 40
0.4
 40
0.4
 40
0.6
 40
0.6
 40
0.6
 40
0.6
 40
1.0
 40
1.0
 40
1.0
 40
1.0
 10
1.30588
 20
12.84453
 30
0.0
 10
1.30588
 20
12.84453
 30
0.0
 10
1.30588
 20
12.65727
 30
0.0
 10
1.30588
 20
12.65727
 30
0.0
 10
1.30588
 20
12.65727
 30
0.0
 10
1.30588
 20
12.65727
 30
0.0
 10
-0.24782
 20
12.65727
 30
0.0
 10
-0.24782
 20
12.65727
 30
0.0
 10
-0.24782
 20
12.65727
 30
0.0
 10
-0.24782
 20
12.65727
 30
0.0
 10
-0.24782
 20
12.84453
 30
0.0
 10
-0.24782
 20
12.84453
 30
0.0
 10
-0.24782
 20
12.84453
 30
0.0
 10
-0.24782
 20
12.84453
 30
0.0
 10
1.30588
 20
12.84453
 30
0.0
 10
1.30588
 20
12.84453
 30
0.0
  0
ENDSEC
  0
SECTION
  2
OBJECTS
  0
DICTIONARY
  5
C
330
0
100
AcDbDictionary
281
     1
  3
ACAD_GROUP
350
D
  3
ACAD_LAYOUT
350
1A
  3
ACAD_MATERIAL
350
3B
  3
ACAD_MLEADERSTYLE
350
D1
  3
ACAD_MLINESTYLE
350
17
  3
ACAD_PLOTSETTINGS
350
19
  3
ACAD_PLOTSTYLENAME
350
E
  3
ACAD_VISUALSTYLE
350
2A
  3
AcDbVariableDictionary
350
CF
  0
DICTIONARY
  5
D
102
{ACAD_REACTORS
330
C
102
}
330
C
100
AcDbDictionary
281
     1
  0
DICTIONARY
  5
1A
102
{ACAD_REACTORS
330
C
102
}
330
C
100
AcDbDictionary
281
     1
  3
Layout1
350
1E
  3
Layout2
350
26
  3
Model
350
22
  0
DICTIONARY
  5
3B
102
{ACAD_REACTORS
330
C
102
}
330
C
100
AcDbDictionary
281
     1
  3
ByBlock
350
3D
  3
ByLayer
350
3C
  3
Global
350
3E
  0
DICTIONARY
  5
D1
102
{ACAD_REACTORS
330
C
102
}
330
C
100
AcDbDictionary
281
     1
  0
DICTIONARY
  5
17
102
{ACAD_REACTORS
330
C
102
}
330
C
100
AcDbDictionary
281
     1
  3
Standard
350
18
  0
DICTIONARY
  5
19
102
{ACAD_REACTORS
330
C
102
}
330
C
100
AcDbDictionary
281
     1
  0
ACDBDICTIONARYWDFLT
  5
E
102
{ACAD_REACTORS
330
C
102
}
330
C
100
AcDbDictionary
281
     1
  3
Normal
350
F
100
AcDbDictionaryWithDefault
340
F
  0
DICTIONARY
  5
2A
102
{ACAD_REACTORS
330
C
102
}
330
C
100
AcDbDictionary
281
     1
  3
2dWireframe
350
2F
  3
3D Hidden
350
31
  3
3dWireframe
350
30
  3
Basic
350
32
  3
Brighten
350
36
  3
ColorChange
350
3A
  3
Conceptual
350
34
  3
Dim
350
35
  3
Facepattern
350
39
  3
Flat
350
2B
  3
FlatWithEdges
350
2C
  3
Gouraud
350
2D
  3
GouraudWithEdges
350
2E
  3
Linepattern
350
38
  3
Realistic
350
33
  3
Thicken
350
37
  0
DICTIONARY
  5
CF
102
{ACAD_REACTORS
330
C
102
}
330
C
100
AcDbDictionary
281
     1
  3
DIMASSOC
350
D2
  3
HIDETEXT
350
D3
  0
LAYOUT
  5
1E
102
{ACAD_REACTORS
330
1A
102
}
330
1A
100
AcDbPlotSettings
  1

  2
none_device
  4

  6

 40
0.0
 41
0.0
 42
0.0
 43
0.0
 44
0.0
 45
0.0
 46
0.0
 47
0.0
 48
0.0
 49
0.0
140
0.0
141
0.0
142
1.0
143
1.0
 70
   688
 72
     0
 73
     0
 74
     5
  7

 75
    16
147
1.0
148
0.0
149
0.0
100
AcDbLayout
  1
Layout1
 70
     1
 71
     1
 10
0.0
 20
0.0
 11
12.0
 21
9.0
 12
0.0
 22
0.0
 32
0.0
 14
1.000000000000000E+20
 24
1.000000000000000E+20
 34
1.000000000000000E+20
 15
-1.000000000000000E+20
 25
-1.000000000000000E+20
 35
-1.000000000000000E+20
146
0.0
 13
0.0
 23
0.0
 33
0.0
 16
1.0
 26
0.0
 36
0.0
 17
0.0
 27
1.0
 37
0.0
 76
     0
330
1B
  0
LAYOUT
  5
26
102
{ACAD_REACTORS
330
1A
102
}
330
1A
100
AcDbPlotSettings
  1

  2
none_device
  4

  6

 40
0.0
 41
0.0
 42
0.0
 43
0.0
 44
0.0
 45
0.0
 46
0.0
 47
0.0
 48
0.0
 49
0.0
140
0.0
141
0.0
142
1.0
143
1.0
 70
   688
 72
     0
 73
     0
 74
     5
  7

 75
    16
147
1.0
148
0.0
149
0.0
100
AcDbLayout
  1
Layout2
 70
     1
 71
     2
 10
0.0
 20
0.0
 11
0.0
 21
0.0
 12
0.0
 22
0.0
 32
0.0
 14
0.0
 24
0.0
 34
0.0
 15
0.0
 25
0.0
 35
0.0
146
0.0
 13
0.0
 23
0.0
 33
0.0
 16
1.0
 26
0.0
 36
0.0
 17
0.0
 27
1.0
 37
0.0
 76
     0
330
23
  0
LAYOUT
  5
22
102
{ACAD_REACTORS
330
1A
102
}
330
1A
100
AcDbPlotSettings
  1

  2
none_device
  4

  6

 40
0.0
 41
0.0
 42
0.0
 43
0.0
 44
0.0
 45
0.0
 46
0.0
 47
0.0
 48
0.0
 49
0.0
140
0.0
141
0.0
142
1.0
143
1.0
 70
  1712
 72
     0
 73
     0
 74
     0
  7

 75
     0
147
1.0
148
0.0
149
0.0
100
AcDbLayout
  1
Model
 70
     1
 71
     0
 10
0.0
 20
0.0
 11
12.0
 21
9.0
 12
0.0
 22
0.0
 32
0.0
 14
-9.40518
 24
-10.54028
 34
0.0
 15
2.99168
 25
13.28866
 35
0.0
146
0.0
 13
0.0
 23
0.0
 33
0.0
 16
1.0
 26
0.0
 36
0.0
 17
0.0
 27
1.0
 37
0.0
 76
     0
330
1F
331
29
  0
MATERIAL
  5
3D
102
{ACAD_REACTORS
330
3B
102
}
102
{ACAD_XDICTIONARY
360
F6
102
}
330
3B
100
AcDbMaterial
  1
ByBlock
  0
MATERIAL
  5
3C
102
{ACAD_REACTORS
330
3B
102
}
102
{ACAD_XDICTIONARY
360
F4
102
}
330
3B
100
AcDbMaterial
  1
ByLayer
  0
MATERIAL
  5
3E
102
{ACAD_REACTORS
330
3B
102
}
102
{ACAD_XDICTIONARY
360
F8
102
}
330
3B
100
AcDbMaterial
  1
Global
  0
MLINESTYLE
  5
18
102
{ACAD_REACTORS
330
17
102
}
330
17
100
AcDbMlineStyle
  2
Standard
 70
     0
  3

 62
   256
 51
90.0
 52
90.0
 71
     2
 49
0.5
 62
   256
  6
BYLAYER
 49
-0.5
 62
   256
  6
BYLAYER
  0
ACDBPLACEHOLDER
  5
F
102
{ACAD_REACTORS
330
E
102
}
330
E
  0
VISUALSTYLE
  5
2F
102
{ACAD_REACTORS
330
2A
102
}
102
{ACAD_XDICTIONARY
360
DC
102
}
330
2A
100
AcDbVisualStyle
  2
2dWireframe
 70
     4
 71
     0
 72
     2
 73
     0
 90
        0
 40
-0.6
 41
-30.0
 62
     5
 63
     7
 74
     1
 91
        4
 64
     7
 65
   257
 75
     1
175
     1
 42
1.0
 92
        0
 66
   257
 43
1.0
 76
     1
 77
     6
 78
     2
 67
     7
 79
     5
170
     0
171
     0
290
     0
174
     0
 93
        1
 44
0.0
173
     0
291
     0
 45
0.0
1001
ACAD
1000
AcDbSavedByObjectVersion
1070
     0
  0
VISUALSTYLE
  5
31
102
{ACAD_REACTORS
330
2A
102
}
102
{ACAD_XDICTIONARY
360
E0
102
}
330
2A
100
AcDbVisualStyle
  2
3D Hidden
 70
     6
 71
     1
 72
     2
 73
     2
 90
        0
 40
-0.6
 41
-30.0
 62
     5
 63
     7
 74
     2
 91
        2
 64
     7
 65
   257
 75
     2
175
     1
 42
40.0
 92
        0
 66
   257
 43
1.0
 76
     1
 77
     6
 78
     2
 67
     7
 79
     3
170
     0
171
     0
290
     0
174
     0
 93
        1
 44
0.0
173
     0
291
     0
 45
0.0
1001
ACAD
1000
AcDbSavedByObjectVersion
1070
     0
  0
VISUALSTYLE
  5
30
102
{ACAD_REACTORS
330
2A
102
}
102
{ACAD_XDICTIONARY
360
DE
102
}
330
2A
100
AcDbVisualStyle
  2
3dWireframe
 70
     5
 71
     0
 72
     2
 73
     0
 90
        0
 40
-0.6
 41
-30.0
 62
     5
 63
     7
 74
     1
 91
        4
 64
     7
 65
   257
 75
     1
175
     1
 42
1.0
 92
        0
 66
   257
 43
1.0
 76
     1
 77
     6
 78
     2
 67
     7
 79
     5
170
     0
171
     0
290
     0
174
     0
 93
        1
 44
0.0
173
     0
291
     0
 45
0.0
1001
ACAD
1000
AcDbSavedByObjectVersion
1070
     0
  0
VISUALSTYLE
  5
32
102
{ACAD_REACTORS
330
2A
102
}
102
{ACAD_XDICTIONARY
360
E2
102
}
330
2A
100
AcDbVisualStyle
  2
Basic
 70
     7
 71
     1
 72
     0
 73
     1
 90
        0
 40
-0.6
 41
-30.0
 62
     5
 63
     7
 74
     0
 91
        4
 64
     7
 65
   257
 75
     1
175
     1
 42
1.0
 92
        8
 66
     7
 43
1.0
 76
     1
 77
     6
 78
     2
 67
     7
 79
     5
170
     0
171
     0
290
     0
174
     0
 93
        1
 44
0.0
173
     0
291
     1
 45
0.0
1001
ACAD
1000
AcDbSavedByObjectVersion
1070
     0
  0
VISUALSTYLE
  5
36
102
{ACAD_REACTORS
330
2A
102
}
102
{ACAD_XDICTIONARY
360
EA
102
}
330
2A
100
AcDbVisualStyle
  2
Brighten
 70
    12
 71
     2
 72
     2
 73
     0
 90
        0
 40
-0.6
 41
-30.0
 62
     5
 63
     7
 74
     1
 91
        4
 64
     7
 65
   257
 75
     1
175
     1
 42
1.0
 92
        8
 66
     7
 43
1.0
 76
     1
 77
     6
 78
     2
 67
     7
 79
     5
170
     0
171
     0
290
     0
174
     0
 93
        1
 44
50.0
173
     0
291
     1
 45
0.0
1001
ACAD
1000
AcDbSavedByObjectVersion
1070
     0
  0
VISUALSTYLE
  5
3A
102
{ACAD_REACTORS
330
2A
102
}
102
{ACAD_XDICTIONARY
360
F2
102
}
330
2A
100
AcDbVisualStyle
  2
ColorChange
 70
    16
 71
     2
 72
     2
 73
     3
 90
        0
 40
-0.6
 41
-30.0
 62
     5
 63
     8
 74
     1
 91
        4
 64
     7
 65
   257
 75
     1
175
     1
 42
1.0
 92
        8
 66
     8
 43
1.0
 76
     1
 77
     6
 78
     2
 67
     7
 79
     5
170
     0
171
     0
290
     0
174
     0
 93
        1
 44
0.0
173
     0
291
     1
 45
0.0
1001
ACAD
1000
AcDbSavedByObjectVersion
1070
     0
  0
VISUALSTYLE
  5
34
102
{ACAD_REACTORS
330
2A
102
}
102
{ACAD_XDICTIONARY
360
E6
102
}
330
2A
100
AcDbVisualStyle
  2
Conceptual
 70
     9
 71
     3
 72
     2
 73
     0
 90
        0
 40
-0.6
 41
-30.0
 62
     5
 63
     7
 74
     2
 91
        2
 64
     7
 65
   257
 75
     1
175
     1
 42
40.0
 92
        8
 66
     7
 43
1.0
 76
     1
 77
     6
 78
     2
 67
     7
 79
     3
170
     0
171
     0
290
     0
174
     0
 93
        1
 44
0.0
173
     0
291
     0
 45
0.0
1001
ACAD
1000
AcDbSavedByObjectVersion
1070
     0
  0
VISUALSTYLE
  5
35
102
{ACAD_REACTORS
330
2A
102
}
102
{ACAD_XDICTIONARY
360
E8
102
}
330
2A
100
AcDbVisualStyle
  2
Dim
 70
    11
 71
     2
 72
     2
 73
     0
 90
        0
 40
-0.6
 41
-30.0
 62
     5
 63
     7
 74
     1
 91
        4
 64
     7
 65
   257
 75
     1
175
     1
 42
1.0
 92
        8
 66
     7
 43
1.0
 76
     1
 77
     6
 78
     2
 67
     7
 79
     5
170
     0
171
     0
290
     0
174
     0
 93
        1
 44
-50.0
173
     0
291
     1
 45
0.0
1001
ACAD
1000
AcDbSavedByObjectVersion
1070
     0
  0
VISUALSTYLE
  5
39
102
{ACAD_REACTORS
330
2A
102
}
102
{ACAD_XDICTIONARY
360
F0
102
}
330
2A
100
AcDbVisualStyle
  2
Facepattern
 70
    15
 71
     2
 72
     2
 73
     0
 90
        0
 40
-0.6
 41
-30.0
 62
     5
 63
     7
 74
     1
 91
        4
 64
     7
 65
   257
 75
     1
175
     1
 42
1.0
 92
        8
 66
     7
 43
1.0
 76
     1
 77
     6
 78
     2
 67
     7
 79
     5
170
     0
171
     0
290
     0
174
     0
 93
        1
 44
0.0
173
     0
291
     1
 45
0.0
1001
ACAD
1000
AcDbSavedByObjectVersion
1070
     0
  0
VISUALSTYLE
  5
2B
102
{ACAD_REACTORS
330
2A
102
}
102
{ACAD_XDICTIONARY
360
D4
102
}
330
2A
100
AcDbVisualStyle
  2
Flat
 70
     0
 71
     2
 72
     1
 73
     1
 90
        2
 40
-0.6
 41
30.0
 62
     5
 63
     7
 74
     0
 91
        4
 64
     7
 65
   257
 75
     1
175
     1
 42
1.0
 92
        8
 66
     7
 43
1.0
 76
     1
 77
     6
 78
     2
 67
     7
 79
     5
170
     0
171
     0
290
     0
174
     0
 93
       13
 44
0.0
173
     0
291
     1
 45
0.0
1001
ACAD
1000
AcDbSavedByObjectVersion
1070
     0
  0
VISUALSTYLE
  5
2C
102
{ACAD_REACTORS
330
2A
102
}
102
{ACAD_XDICTIONARY
360
D6
102
}
330
2A
100
AcDbVisualStyle
  2
FlatWithEdges
 70
     1
 71
     2
 72
     1
 73
     1
 90
        2
 40
-0.6
 41
30.0
 62
     5
 63
     7
 74
     1
 91
        4
 64
     7
 65
   257
 75
     1
175
     1
 42
1.0
 92
        0
 66
   257
 43
1.0
 76
     1
 77
     6
 78
     2
 67
     7
 79
     5
170
     0
171
     0
290
     0
174
     0
 93
       13
 44
0.0
173
     0
291
     1
 45
0.0
1001
ACAD
1000
AcDbSavedByObjectVersion
1070
     0
  0
VISUALSTYLE
  5
2D
102
{ACAD_REACTORS
330
2A
102
}
102
{ACAD_XDICTIONARY
360
D8
102
}
330
2A
100
AcDbVisualStyle
  2
Gouraud
 70
     2
 71
     2
 72
     2
 73
     1
 90
        2
 40
-0.6
 41
30.0
 62
     5
 63
     7
 74
     0
 91
        4
 64
     7
 65
   257
 75
     1
175
     1
 42
1.0
 92
        0
 66
     7
 43
1.0
 76
     1
 77
     6
 78
     2
 67
     7
 79
     5
170
     0
171
     0
290
     0
174
     0
 93
       13
 44
0.0
173
     0
291
     1
 45
0.0
1001
ACAD
1000
AcDbSavedByObjectVersion
1070
     0
  0
VISUALSTYLE
  5
2E
102
{ACAD_REACTORS
330
2A
102
}
102
{ACAD_XDICTIONARY
360
DA
102
}
330
2A
100
AcDbVisualStyle
  2
GouraudWithEdges
 70
     3
 71
     2
 72
     2
 73
     1
 90
        2
 40
-0.6
 41
30.0
 62
     5
 63
     7
 74
     1
 91
        4
 64
     7
 65
   257
 75
     1
175
     1
 42
1.0
 92
        0
 66
   257
 43
1.0
 76
     1
 77
     6
 78
     2
 67
     7
 79
     5
170
     0
171
     0
290
     0
174
     0
 93
       13
 44
0.0
173
     0
291
     1
 45
0.0
1001
ACAD
1000
AcDbSavedByObjectVersion
1070
     0
  0
VISUALSTYLE
  5
38
102
{ACAD_REACTORS
330
2A
102
}
102
{ACAD_XDICTIONARY
360
EE
102
}
330
2A
100
AcDbVisualStyle
  2
Linepattern
 70
    14
 71
     2
 72
     2
 73
     0
 90
        0
 40
-0.6
 41
-30.0
 62
     5
 63
     7
 74
     1
 91
        4
 64
     7
 65
   257
 75
     7
175
     7
 42
1.0
 92
        8
 66
     7
 43
1.0
 76
     1
 77
     6
 78
     2
 67
     7
 79
     5
170
     0
171
     0
290
     0
174
     0
 93
        1
 44
0.0
173
     0
291
     1
 45
0.0
1001
ACAD
1000
AcDbSavedByObjectVersion
1070
     0
  0
VISUALSTYLE
  5
33
102
{ACAD_REACTORS
330
2A
102
}
102
{ACAD_XDICTIONARY
360
E4
102
}
330
2A
100
AcDbVisualStyle
  2
Realistic
 70
     8
 71
     2
 72
     2
 73
     0
 90
        0
 40
-0.6
 41
-30.0
 62
     5
 63
     7
 74
     1
 91
        0
 64
     7
 65
   257
 75
     1
175
     1
 42
1.0
 92
        8
 66
     8
 43
1.0
 76
     1
 77
     6
 78
     2
 67
     7
 79
     5
170
     0
171
     0
290
     0
174
     0
 93
       13
 44
0.0
173
     0
291
     0
 45
0.0
1001
ACAD
1000
AcDbSavedByObjectVersion
1070
     0
  0
VISUALSTYLE
  5
37
102
{ACAD_REACTORS
330
2A
102
}
102
{ACAD_XDICTIONARY
360
EC
102
}
330
2A
100
AcDbVisualStyle
  2
Thicken
 70
    13
 71
     2
 72
     2
 73
     0
 90
        0
 40
-0.6
 41
-30.0
 62
     5
 63
     7
 74
     1
 91
        4
 64
     7
 65
   257
 75
     1
175
     1
 42
1.0
 92
       12
 66
     7
 43
1.0
 76
     1
 77
     6
 78
     2
 67
     7
 79
     5
170
     0
171
     0
290
     0
174
     0
 93
        1
 44
0.0
173
     0
291
     1
 45
0.0
1001
ACAD
1000
AcDbSavedByObjectVersion
1070
     0
  0
DICTIONARYVAR
  5
D2
102
{ACAD_REACTORS
330
CF
102
}
330
CF
100
DictionaryVariables
280
     0
  1
2
  0
DICTIONARYVAR
  5
D3
102
{ACAD_REACTORS
330
CF
102
}
330
CF
100
DictionaryVariables
280
     0
  1
1
  0
DICTIONARY
  5
F6
330
3D
100
AcDbDictionary
280
     1
281
     1
  3
ACAD_XREC_ROUNDTRIP
360
F7
  0
DICTIONARY
  5
F4
330
3C
100
AcDbDictionary
280
     1
281
     1
  3
ACAD_XREC_ROUNDTRIP
360
F5
  0
DICTIONARY
  5
F8
330
3E
100
AcDbDictionary
280
     1
281
     1
  3
ACAD_XREC_ROUNDTRIP
360
F9
  0
DICTIONARY
  5
DC
330
2F
100
AcDbDictionary
280
     1
281
     1
  3
ACAD_XREC_ROUNDTRIP
360
DD
  0
DICTIONARY
  5
E0
330
31
100
AcDbDictionary
280
     1
281
     1
  3
ACAD_XREC_ROUNDTRIP
360
E1
  0
DICTIONARY
  5
DE
330
30
100
AcDbDictionary
280
     1
281
     1
  3
ACAD_XREC_ROUNDTRIP
360
DF
  0
DICTIONARY
  5
E2
330
32
100
AcDbDictionary
280
     1
281
     1
  3
ACAD_XREC_ROUNDTRIP
360
E3
  0
DICTIONARY
  5
EA
330
36
100
AcDbDictionary
280
     1
281
     1
  3
ACAD_XREC_ROUNDTRIP
360
EB
  0
DICTIONARY
  5
F2
330
3A
100
AcDbDictionary
280
     1
281
     1
  3
ACAD_XREC_ROUNDTRIP
360
F3
  0
DICTIONARY
  5
E6
330
34
100
AcDbDictionary
280
     1
281
     1
  3
ACAD_XREC_ROUNDTRIP
360
E7
  0
DICTIONARY
  5
E8
330
35
100
AcDbDictionary
280
     1
281
     1
  3
ACAD_XREC_ROUNDTRIP
360
E9
  0
DICTIONARY
  5
F0
330
39
100
AcDbDictionary
280
     1
281
     1
  3
ACAD_XREC_ROUNDTRIP
360
F1
  0
DICTIONARY
  5
D4
330
2B
100
AcDbDictionary
280
     1
281
     1
  3
ACAD_XREC_ROUNDTRIP
360
D5
  0
DICTIONARY
  5
D6
330
2C
100
AcDbDictionary
280
     1
281
     1
  3
ACAD_XREC_ROUNDTRIP
360
D7
  0
DICTIONARY
  5
D8
330
2D
100
AcDbDictionary
280
     1
281
     1
  3
ACAD_XREC_ROUNDTRIP
360
D9
  0
DICTIONARY
  5
DA
330
2E
100
AcDbDictionary
280
     1
281
     1
  3
ACAD_XREC_ROUNDTRIP
360
DB
  0
DICTIONARY
  5
EE
330
38
100
AcDbDictionary
280
     1
281
     1
  3
ACAD_XREC_ROUNDTRIP
360
EF
  0
DICTIONARY
  5
E4
330
33
100
AcDbDictionary
280
     1
281
     1
  3
ACAD_XREC_ROUNDTRIP
360
E5
  0
DICTIONARY
  5
EC
330
37
100
AcDbDictionary
280
     1
281
     1
  3
ACAD_XREC_ROUNDTRIP
360
ED
  0
XRECORD
  5
F7
102
{ACAD_REACTORS
330
F6
102
}
330
F6
100
AcDbXrecord
280
     1
102
MATERIAL
148
0.0
149
0.0
149
0.0
 93
        0
 94
      127
282
     0
 72
     1
 77
     1
171
     1
175
     1
179
     1
273
     0
  0
XRECORD
  5
F5
102
{ACAD_REACTORS
330
F4
102
}
330
F4
100
AcDbXrecord
280
     1
102
MATERIAL
148
0.0
149
0.0
149
0.0
 93
        0
 94
      127
282
     0
 72
     1
 77
     1
171
     1
175
     1
179
     1
273
     0
  0
XRECORD
  5
F9
102
{ACAD_REACTORS
330
F8
102
}
330
F8
100
AcDbXrecord
280
     1
102
MATERIAL
148
0.0
149
0.0
149
0.0
 93
        0
 94
      127
282
     0
 72
     1
 77
     1
171
     1
175
     1
179
     1
273
     0
  0
XRECORD
  5
DD
102
{ACAD_REACTORS
330
DC
102
}
330
DC
100
AcDbXrecord
280
     1
102
RTVSPropertyOp0
 70
     1
102
RTVSPropertyOp1
 70
     1
102
RTVSPropertyOp2
 70
     1
102
RTVSPropertyOp3
 70
     1
102
RTVSPropertyOp4
 70
     1
102
RTVSPropertyOp5
 70
     1
102
RTVSPropertyOp6
 70
     1
102
RTVSPropertyOp7
 70
     1
102
RTVSPropertyOp8
 70
     1
102
RTVSPropertyOp9
 70
     1
102
RTVSPropertyOp10
 70
     1
102
RTVSPropertyOp11
 70
     1
102
RTVSPropertyOp12
 70
     1
102
RTVSPropertyOp13
 70
     1
102
RTVSPropertyOp14
 70
     1
102
RTVSPropertyOp15
 70
     1
102
RTVSPropertyOp16
 70
     1
102
RTVSPropertyOp17
 70
     1
102
RTVSPropertyOp18
 70
     1
102
RTVSPropertyOp19
 70
     1
102
RTVSPropertyOp20
 70
     1
102
RTVSPropertyOp21
 70
     1
102
RTVSPropertyOp22
 70
     1
102
RTVSPropertyOp23
 70
     1
102
RTVSPropertyOp24
 70
     1
102
RTVSPropertyOp25
 70
     1
102
RTVSPropertyOp26
 70
     1
102
RTVSPropertyOp27
 70
     1
102
RTVSPropertyOp28
 70
     1
102
RTVSPropertyOp29
 70
     1
102
RTVSPropertyOp30
 70
     1
102
RTVSPropertyOp31
 70
     1
102
RTVSPropertyOp32
 70
     1
  0
XRECORD
  5
E1
102
{ACAD_REACTORS
330
E0
102
}
330
E0
100
AcDbXrecord
280
     1
102
RTVSPropertyOp0
 70
     1
102
RTVSPropertyOp1
 70
     1
102
RTVSPropertyOp2
 70
     1
102
RTVSPropertyOp3
 70
     1
102
RTVSPropertyOp4
 70
     1
102
RTVSPropertyOp5
 70
     1
102
RTVSPropertyOp6
 70
     1
102
RTVSPropertyOp7
 70
     1
102
RTVSPropertyOp8
 70
     1
102
RTVSPropertyOp9
 70
     1
102
RTVSPropertyOp10
 70
     1
102
RTVSPropertyOp11
 70
     1
102
RTVSPropertyOp12
 70
     1
102
RTVSPropertyOp13
 70
     1
102
RTVSPropertyOp14
 70
     1
102
RTVSPropertyOp15
 70
     1
102
RTVSPropertyOp16
 70
     1
102
RTVSPropertyOp17
 70
     1
102
RTVSPropertyOp18
 70
     1
102
RTVSPropertyOp19
 70
     1
102
RTVSPropertyOp20
 70
     1
102
RTVSPropertyOp21
 70
     1
102
RTVSPropertyOp22
 70
     1
102
RTVSPropertyOp23
 70
     1
102
RTVSPropertyOp24
 70
     1
102
RTVSPropertyOp25
 70
     1
102
RTVSPropertyOp26
 70
     1
102
RTVSPropertyOp27
 70
     1
102
RTVSPropertyOp28
 70
     1
102
RTVSPropertyOp29
 70
     1
102
RTVSPropertyOp30
 70
     1
102
RTVSPropertyOp31
 70
     1
102
RTVSPropertyOp32
 70
     1
  0
XRECORD
  5
DF
102
{ACAD_REACTORS
330
DE
102
}
330
DE
100
AcDbXrecord
280
     1
102
RTVSPropertyOp0
 70
     1
102
RTVSPropertyOp1
 70
     1
102
RTVSPropertyOp2
 70
     1
102
RTVSPropertyOp3
 70
     1
102
RTVSPropertyOp4
 70
     1
102
RTVSPropertyOp5
 70
     1
102
RTVSPropertyOp6
 70
     1
102
RTVSPropertyOp7
 70
     1
102
RTVSPropertyOp8
 70
     1
102
RTVSPropertyOp9
 70
     1
102
RTVSPropertyOp10
 70
     1
102
RTVSPropertyOp11
 70
     1
102
RTVSPropertyOp12
 70
     1
102
RTVSPropertyOp13
 70
     1
102
RTVSPropertyOp14
 70
     1
102
RTVSPropertyOp15
 70
     1
102
RTVSPropertyOp16
 70
     1
102
RTVSPropertyOp17
 70
     1
102
RTVSPropertyOp18
 70
     1
102
RTVSPropertyOp19
 70
     1
102
RTVSPropertyOp20
 70
     1
102
RTVSPropertyOp21
 70
     1
102
RTVSPropertyOp22
 70
     1
102
RTVSPropertyOp23
 70
     1
102
RTVSPropertyOp24
 70
     1
102
RTVSPropertyOp25
 70
     1
102
RTVSPropertyOp26
 70
     1
102
RTVSPropertyOp27
 70
     1
102
RTVSPropertyOp28
 70
     1
102
RTVSPropertyOp29
 70
     1
102
RTVSPropertyOp30
 70
     1
102
RTVSPropertyOp31
 70
     1
102
RTVSPropertyOp32
 70
     1
  0
XRECORD
  5
E3
102
{ACAD_REACTORS
330
E2
102
}
330
E2
100
AcDbXrecord
280
     1
102
RTVSPropertyOp0
 70
     1
102
RTVSPropertyOp1
 70
     1
102
RTVSPropertyOp2
 70
     1
102
RTVSPropertyOp3
 70
     1
102
RTVSPropertyOp4
 70
     1
102
RTVSPropertyOp5
 70
     1
102
RTVSPropertyOp6
 70
     1
102
RTVSPropertyOp7
 70
     1
102
RTVSPropertyOp8
 70
     1
102
RTVSPropertyOp9
 70
     1
102
RTVSPropertyOp10
 70
     1
102
RTVSPropertyOp11
 70
     1
102
RTVSPropertyOp12
 70
     1
102
RTVSPropertyOp13
 70
     1
102
RTVSPropertyOp14
 70
     1
102
RTVSPropertyOp15
 70
     1
102
RTVSPropertyOp16
 70
     1
102
RTVSPropertyOp17
 70
     1
102
RTVSPropertyOp18
 70
     1
102
RTVSPropertyOp19
 70
     1
102
RTVSPropertyOp20
 70
     1
102
RTVSPropertyOp21
 70
     1
102
RTVSPropertyOp22
 70
     1
102
RTVSPropertyOp23
 70
     1
102
RTVSPropertyOp24
 70
     1
102
RTVSPropertyOp25
 70
     1
102
RTVSPropertyOp26
 70
     1
102
RTVSPropertyOp27
 70
     1
102
RTVSPropertyOp28
 70
     1
102
RTVSPropertyOp29
 70
     1
102
RTVSPropertyOp30
 70
     1
102
RTVSPropertyOp31
 70
     1
102
RTVSPropertyOp32
 70
     1
  0
XRECORD
  5
EB
102
{ACAD_REACTORS
330
EA
102
}
330
EA
100
AcDbXrecord
280
     1
102
RTVSPropertyOp0
 70
     1
102
RTVSPropertyOp1
 70
     1
102
RTVSPropertyOp2
 70
     1
102
RTVSPropertyOp3
 70
     1
102
RTVSPropertyOp4
 70
     1
102
RTVSPropertyOp5
 70
     1
102
RTVSPropertyOp6
 70
     1
102
RTVSPropertyOp7
 70
     1
102
RTVSPropertyOp8
 70
     1
102
RTVSPropertyOp9
 70
     1
102
RTVSPropertyOp10
 70
     1
102
RTVSPropertyOp11
 70
     1
102
RTVSPropertyOp12
 70
     1
102
RTVSPropertyOp13
 70
     1
102
RTVSPropertyOp14
 70
     1
102
RTVSPropertyOp15
 70
     1
102
RTVSPropertyOp16
 70
     1
102
RTVSPropertyOp17
 70
     1
102
RTVSPropertyOp18
 70
     1
102
RTVSPropertyOp19
 70
     1
102
RTVSPropertyOp20
 70
     1
102
RTVSPropertyOp21
 70
     1
102
RTVSPropertyOp22
 70
     1
102
RTVSPropertyOp23
 70
     1
102
RTVSPropertyOp24
 70
     1
102
RTVSPropertyOp25
 70
     1
102
RTVSPropertyOp26
 70
     1
102
RTVSPropertyOp27
 70
     1
102
RTVSPropertyOp28
 70
     1
102
RTVSPropertyOp29
 70
     1
102
RTVSPropertyOp30
 70
     1
102
RTVSPropertyOp31
 70
     1
102
RTVSPropertyOp32
 70
     1
  0
XRECORD
  5
F3
102
{ACAD_REACTORS
330
F2
102
}
330
F2
100
AcDbXrecord
280
     1
102
RTVSPropertyOp0
 70
     1
102
RTVSPropertyOp1
 70
     1
102
RTVSPropertyOp2
 70
     1
102
RTVSPropertyOp3
 70
     1
102
RTVSPropertyOp4
 70
     1
102
RTVSPropertyOp5
 70
     1
102
RTVSPropertyOp6
 70
     1
102
RTVSPropertyOp7
 70
     1
102
RTVSPropertyOp8
 70
     1
102
RTVSPropertyOp9
 70
     1
102
RTVSPropertyOp10
 70
     1
102
RTVSPropertyOp11
 70
     1
102
RTVSPropertyOp12
 70
     1
102
RTVSPropertyOp13
 70
     1
102
RTVSPropertyOp14
 70
     1
102
RTVSPropertyOp15
 70
     1
102
RTVSPropertyOp16
 70
     1
102
RTVSPropertyOp17
 70
     1
102
RTVSPropertyOp18
 70
     1
102
RTVSPropertyOp19
 70
     1
102
RTVSPropertyOp20
 70
     1
102
RTVSPropertyOp21
 70
     1
102
RTVSPropertyOp22
 70
     1
102
RTVSPropertyOp23
 70
     1
102
RTVSPropertyOp24
 70
     1
102
RTVSPropertyOp25
 70
     1
102
RTVSPropertyOp26
 70
     1
102
RTVSPropertyOp27
 70
     1
102
RTVSPropertyOp28
 70
     1
102
RTVSPropertyOp29
 70
     1
102
RTVSPropertyOp30
 70
     1
102
RTVSPropertyOp31
 70
     1
102
RTVSPropertyOp32
 70
     1
  0
XRECORD
  5
E7
102
{ACAD_REACTORS
330
E6
102
}
330
E6
100
AcDbXrecord
280
     1
102
RTVSPropertyOp0
 70
     1
102
RTVSPropertyOp1
 70
     1
102
RTVSPropertyOp2
 70
     1
102
RTVSPropertyOp3
 70
     1
102
RTVSPropertyOp4
 70
     1
102
RTVSPropertyOp5
 70
     1
102
RTVSPropertyOp6
 70
     1
102
RTVSPropertyOp7
 70
     1
102
RTVSPropertyOp8
 70
     1
102
RTVSPropertyOp9
 70
     1
102
RTVSPropertyOp10
 70
     1
102
RTVSPropertyOp11
 70
     1
102
RTVSPropertyOp12
 70
     1
102
RTVSPropertyOp13
 70
     1
102
RTVSPropertyOp14
 70
     1
102
RTVSPropertyOp15
 70
     1
102
RTVSPropertyOp16
 70
     1
102
RTVSPropertyOp17
 70
     1
102
RTVSPropertyOp18
 70
     1
102
RTVSPropertyOp19
 70
     1
102
RTVSPropertyOp20
 70
     1
102
RTVSPropertyOp21
 70
     1
102
RTVSPropertyOp22
 70
     1
102
RTVSPropertyOp23
 70
     1
102
RTVSPropertyOp24
 70
     1
102
RTVSPropertyOp25
 70
     1
102
RTVSPropertyOp26
 70
     1
102
RTVSPropertyOp27
 70
     1
102
RTVSPropertyOp28
 70
     1
102
RTVSPropertyOp29
 70
     1
102
RTVSPropertyOp30
 70
     1
102
RTVSPropertyOp31
 70
     1
102
RTVSPropertyOp32
 70
     1
  0
XRECORD
  5
E9
102
{ACAD_REACTORS
330
E8
102
}
330
E8
100
AcDbXrecord
280
     1
102
RTVSPropertyOp0
 70
     1
102
RTVSPropertyOp1
 70
     1
102
RTVSPropertyOp2
 70
     1
102
RTVSPropertyOp3
 70
     1
102
RTVSPropertyOp4
 70
     1
102
RTVSPropertyOp5
 70
     1
102
RTVSPropertyOp6
 70
     1
102
RTVSPropertyOp7
 70
     1
102
RTVSPropertyOp8
 70
     1
102
RTVSPropertyOp9
 70
     1
102
RTVSPropertyOp10
 70
     1
102
RTVSPropertyOp11
 70
     1
102
RTVSPropertyOp12
 70
     1
102
RTVSPropertyOp13
 70
     1
102
RTVSPropertyOp14
 70
     1
102
RTVSPropertyOp15
 70
     1
102
RTVSPropertyOp16
 70
     1
102
RTVSPropertyOp17
 70
     1
102
RTVSPropertyOp18
 70
     1
102
RTVSPropertyOp19
 70
     1
102
RTVSPropertyOp20
 70
     1
102
RTVSPropertyOp21
 70
     1
102
RTVSPropertyOp22
 70
     1
102
RTVSPropertyOp23
 70
     1
102
RTVSPropertyOp24
 70
     1
102
RTVSPropertyOp25
 70
     1
102
RTVSPropertyOp26
 70
     1
102
RTVSPropertyOp27
 70
     1
102
RTVSPropertyOp28
 70
     1
102
RTVSPropertyOp29
 70
     1
102
RTVSPropertyOp30
 70
     1
102
RTVSPropertyOp31
 70
     1
102
RTVSPropertyOp32
 70
     1
  0
XRECORD
  5
F1
102
{ACAD_REACTORS
330
F0
102
}
330
F0
100
AcDbXrecord
280
     1
102
RTVSPropertyOp0
 70
     1
102
RTVSPropertyOp1
 70
     1
102
RTVSPropertyOp2
 70
     1
102
RTVSPropertyOp3
 70
     1
102
RTVSPropertyOp4
 70
     1
102
RTVSPropertyOp5
 70
     1
102
RTVSPropertyOp6
 70
     1
102
RTVSPropertyOp7
 70
     1
102
RTVSPropertyOp8
 70
     1
102
RTVSPropertyOp9
 70
     1
102
RTVSPropertyOp10
 70
     1
102
RTVSPropertyOp11
 70
     1
102
RTVSPropertyOp12
 70
     1
102
RTVSPropertyOp13
 70
     1
102
RTVSPropertyOp14
 70
     1
102
RTVSPropertyOp15
 70
     1
102
RTVSPropertyOp16
 70
     1
102
RTVSPropertyOp17
 70
     1
102
RTVSPropertyOp18
 70
     1
102
RTVSPropertyOp19
 70
     1
102
RTVSPropertyOp20
 70
     1
102
RTVSPropertyOp21
 70
     1
102
RTVSPropertyOp22
 70
     1
102
RTVSPropertyOp23
 70
     1
102
RTVSPropertyOp24
 70
     1
102
RTVSPropertyOp25
 70
     1
102
RTVSPropertyOp26
 70
     1
102
RTVSPropertyOp27
 70
     1
102
RTVSPropertyOp28
 70
     1
102
RTVSPropertyOp29
 70
     1
102
RTVSPropertyOp30
 70
     1
102
RTVSPropertyOp31
 70
     1
102
RTVSPropertyOp32
 70
     1
  0
XRECORD
  5
D5
102
{ACAD_REACTORS
330
D4
102
}
330
D4
100
AcDbXrecord
280
     1
102
RTVSPropertyOp0
 70
     1
102
RTVSPropertyOp1
 70
     1
102
RTVSPropertyOp2
 70
     1
102
RTVSPropertyOp3
 70
     1
102
RTVSPropertyOp4
 70
     1
102
RTVSPropertyOp5
 70
     1
102
RTVSPropertyOp6
 70
     1
102
RTVSPropertyOp7
 70
     1
102
RTVSPropertyOp8
 70
     1
102
RTVSPropertyOp9
 70
     1
102
RTVSPropertyOp10
 70
     1
102
RTVSPropertyOp11
 70
     1
102
RTVSPropertyOp12
 70
     1
102
RTVSPropertyOp13
 70
     1
102
RTVSPropertyOp14
 70
     1
102
RTVSPropertyOp15
 70
     1
102
RTVSPropertyOp16
 70
     1
102
RTVSPropertyOp17
 70
     1
102
RTVSPropertyOp18
 70
     1
102
RTVSPropertyOp19
 70
     1
102
RTVSPropertyOp20
 70
     1
102
RTVSPropertyOp21
 70
     1
102
RTVSPropertyOp22
 70
     1
102
RTVSPropertyOp23
 70
     1
102
RTVSPropertyOp24
 70
     1
102
RTVSPropertyOp25
 70
     1
102
RTVSPropertyOp26
 70
     1
102
RTVSPropertyOp27
 70
     1
102
RTVSPropertyOp28
 70
     1
102
RTVSPropertyOp29
 70
     1
102
RTVSPropertyOp30
 70
     1
102
RTVSPropertyOp31
 70
     1
102
RTVSPropertyOp32
 70
     1
  0
XRECORD
  5
D7
102
{ACAD_REACTORS
330
D6
102
}
330
D6
100
AcDbXrecord
280
     1
102
RTVSPropertyOp0
 70
     1
102
RTVSPropertyOp1
 70
     1
102
RTVSPropertyOp2
 70
     1
102
RTVSPropertyOp3
 70
     1
102
RTVSPropertyOp4
 70
     1
102
RTVSPropertyOp5
 70
     1
102
RTVSPropertyOp6
 70
     1
102
RTVSPropertyOp7
 70
     1
102
RTVSPropertyOp8
 70
     1
102
RTVSPropertyOp9
 70
     1
102
RTVSPropertyOp10
 70
     1
102
RTVSPropertyOp11
 70
     1
102
RTVSPropertyOp12
 70
     1
102
RTVSPropertyOp13
 70
     1
102
RTVSPropertyOp14
 70
     1
102
RTVSPropertyOp15
 70
     1
102
RTVSPropertyOp16
 70
     1
102
RTVSPropertyOp17
 70
     1
102
RTVSPropertyOp18
 70
     1
102
RTVSPropertyOp19
 70
     1
102
RTVSPropertyOp20
 70
     1
102
RTVSPropertyOp21
 70
     1
102
RTVSPropertyOp22
 70
     1
102
RTVSPropertyOp23
 70
     1
102
RTVSPropertyOp24
 70
     1
102
RTVSPropertyOp25
 70
     1
102
RTVSPropertyOp26
 70
     1
102
RTVSPropertyOp27
 70
     1
102
RTVSPropertyOp28
 70
     1
102
RTVSPropertyOp29
 70
     1
102
RTVSPropertyOp30
 70
     1
102
RTVSPropertyOp31
 70
     1
102
RTVSPropertyOp32
 70
     1
  0
XRECORD
  5
D9
102
{ACAD_REACTORS
330
D8
102
}
330
D8
100
AcDbXrecord
280
     1
102
RTVSPropertyOp0
 70
     1
102
RTVSPropertyOp1
 70
     1
102
RTVSPropertyOp2
 70
     1
102
RTVSPropertyOp3
 70
     1
102
RTVSPropertyOp4
 70
     1
102
RTVSPropertyOp5
 70
     1
102
RTVSPropertyOp6
 70
     1
102
RTVSPropertyOp7
 70
     1
102
RTVSPropertyOp8
 70
     1
102
RTVSPropertyOp9
 70
     1
102
RTVSPropertyOp10
 70
     1
102
RTVSPropertyOp11
 70
     1
102
RTVSPropertyOp12
 70
     1
102
RTVSPropertyOp13
 70
     1
102
RTVSPropertyOp14
 70
     1
102
RTVSPropertyOp15
 70
     1
102
RTVSPropertyOp16
 70
     1
102
RTVSPropertyOp17
 70
     1
102
RTVSPropertyOp18
 70
     1
102
RTVSPropertyOp19
 70
     1
102
RTVSPropertyOp20
 70
     1
102
RTVSPropertyOp21
 70
     1
102
RTVSPropertyOp22
 70
     1
102
RTVSPropertyOp23
 70
     1
102
RTVSPropertyOp24
 70
     1
102
RTVSPropertyOp25
 70
     1
102
RTVSPropertyOp26
 70
     1
102
RTVSPropertyOp27
 70
     1
102
RTVSPropertyOp28
 70
     1
102
RTVSPropertyOp29
 70
     1
102
RTVSPropertyOp30
 70
     1
102
RTVSPropertyOp31
 70
     1
102
RTVSPropertyOp32
 70
     1
  0
XRECORD
  5
DB
102
{ACAD_REACTORS
330
DA
102
}
330
DA
100
AcDbXrecord
280
     1
102
RTVSPropertyOp0
 70
     1
102
RTVSPropertyOp1
 70
     1
102
RTVSPropertyOp2
 70
     1
102
RTVSPropertyOp3
 70
     1
102
RTVSPropertyOp4
 70
     1
102
RTVSPropertyOp5
 70
     1
102
RTVSPropertyOp6
 70
     1
102
RTVSPropertyOp7
 70
     1
102
RTVSPropertyOp8
 70
     1
102
RTVSPropertyOp9
 70
     1
102
RTVSPropertyOp10
 70
     1
102
RTVSPropertyOp11
 70
     1
102
RTVSPropertyOp12
 70
     1
102
RTVSPropertyOp13
 70
     1
102
RTVSPropertyOp14
 70
     1
102
RTVSPropertyOp15
 70
     1
102
RTVSPropertyOp16
 70
     1
102
RTVSPropertyOp17
 70
     1
102
RTVSPropertyOp18
 70
     1
102
RTVSPropertyOp19
 70
     1
102
RTVSPropertyOp20
 70
     1
102
RTVSPropertyOp21
 70
     1
102
RTVSPropertyOp22
 70
     1
102
RTVSPropertyOp23
 70
     1
102
RTVSPropertyOp24
 70
     1
102
RTVSPropertyOp25
 70
     1
102
RTVSPropertyOp26
 70
     1
102
RTVSPropertyOp27
 70
     1
102
RTVSPropertyOp28
 70
     1
102
RTVSPropertyOp29
 70
     1
102
RTVSPropertyOp30
 70
     1
102
RTVSPropertyOp31
 70
     1
102
RTVSPropertyOp32
 70
     1
  0
XRECORD
  5
EF
102
{ACAD_REACTORS
330
EE
102
}
330
EE
100
AcDbXrecord
280
     1
102
RTVSPropertyOp0
 70
     1
102
RTVSPropertyOp1
 70
     1
102
RTVSPropertyOp2
 70
     1
102
RTVSPropertyOp3
 70
     1
102
RTVSPropertyOp4
 70
     1
102
RTVSPropertyOp5
 70
     1
102
RTVSPropertyOp6
 70
     1
102
RTVSPropertyOp7
 70
     1
102
RTVSPropertyOp8
 70
     1
102
RTVSPropertyOp9
 70
     1
102
RTVSPropertyOp10
 70
     1
102
RTVSPropertyOp11
 70
     1
102
RTVSPropertyOp12
 70
     1
102
RTVSPropertyOp13
 70
     1
102
RTVSPropertyOp14
 70
     1
102
RTVSPropertyOp15
 70
     1
102
RTVSPropertyOp16
 70
     1
102
RTVSPropertyOp17
 70
     1
102
RTVSPropertyOp18
 70
     1
102
RTVSPropertyOp19
 70
     1
102
RTVSPropertyOp20
 70
     1
102
RTVSPropertyOp21
 70
     1
102
RTVSPropertyOp22
 70
     1
102
RTVSPropertyOp23
 70
     1
102
RTVSPropertyOp24
 70
     1
102
RTVSPropertyOp25
 70
     1
102
RTVSPropertyOp26
 70
     1
102
RTVSPropertyOp27
 70
     1
102
RTVSPropertyOp28
 70
     1
102
RTVSPropertyOp29
 70
     1
102
RTVSPropertyOp30
 70
     1
102
RTVSPropertyOp31
 70
     1
102
RTVSPropertyOp32
 70
     1
  0
XRECORD
  5
E5
102
{ACAD_REACTORS
330
E4
102
}
330
E4
100
AcDbXrecord
280
     1
102
RTVSPropertyOp0
 70
     1
102
RTVSPropertyOp1
 70
     1
102
RTVSPropertyOp2
 70
     1
102
RTVSPropertyOp3
 70
     1
102
RTVSPropertyOp4
 70
     1
102
RTVSPropertyOp5
 70
     1
102
RTVSPropertyOp6
 70
     1
102
RTVSPropertyOp7
 70
     1
102
RTVSPropertyOp8
 70
     1
102
RTVSPropertyOp9
 70
     1
102
RTVSPropertyOp10
 70
     1
102
RTVSPropertyOp11
 70
     1
102
RTVSPropertyOp12
 70
     1
102
RTVSPropertyOp13
 70
     1
102
RTVSPropertyOp14
 70
     1
102
RTVSPropertyOp15
 70
     1
102
RTVSPropertyOp16
 70
     1
102
RTVSPropertyOp17
 70
     1
102
RTVSPropertyOp18
 70
     1
102
RTVSPropertyOp19
 70
     1
102
RTVSPropertyOp20
 70
     1
102
RTVSPropertyOp21
 70
     1
102
RTVSPropertyOp22
 70
     1
102
RTVSPropertyOp23
 70
     1
102
RTVSPropertyOp24
 70
     1
102
RTVSPropertyOp25
 70
     1
102
RTVSPropertyOp26
 70
     1
102
RTVSPropertyOp27
 70
     1
102
RTVSPropertyOp28
 70
     1
102
RTVSPropertyOp29
 70
     1
102
RTVSPropertyOp30
 70
     1
102
RTVSPropertyOp31
 70
     1
102
RTVSPropertyOp32
 70
     1
  0
XRECORD
  5
ED
102
{ACAD_REACTORS
330
EC
102
}
330
EC
100
AcDbXrecord
280
     1
102
RTVSPropertyOp0
 70
     1
102
RTVSPropertyOp1
 70
     1
102
RTVSPropertyOp2
 70
     1
102
RTVSPropertyOp3
 70
     1
102
RTVSPropertyOp4
 70
     1
102
RTVSPropertyOp5
 70
     1
102
RTVSPropertyOp6
 70
     1
102
RTVSPropertyOp7
 70
     1
102
RTVSPropertyOp8
 70
     1
102
RTVSPropertyOp9
 70
     1
102
RTVSPropertyOp10
 70
     1
102
RTVSPropertyOp11
 70
     1
102
RTVSPropertyOp12
 70
     1
102
RTVSPropertyOp13
 70
     1
102
RTVSPropertyOp14
 70
     1
102
RTVSPropertyOp15
 70
     1
102
RTVSPropertyOp16
 70
     1
102
RTVSPropertyOp17
 70
     1
102
RTVSPropertyOp18
 70
     1
102
RTVSPropertyOp19
 70
     1
102
RTVSPropertyOp20
 70
     1
102
RTVSPropertyOp21
 70
     1
102
RTVSPropertyOp22
 70
     1
102
RTVSPropertyOp23
 70
     1
102
RTVSPropertyOp24
 70
     1
102
RTVSPropertyOp25
 70
     1
102
RTVSPropertyOp26
 70
     1
102
RTVSPropertyOp27
 70
     1
102
RTVSPropertyOp28
 70
     1
102
RTVSPropertyOp29
 70
     1
102
RTVSPropertyOp30
 70
     1
102
RTVSPropertyOp31
 70
     1
102
RTVSPropertyOp32
 70
     1
  0
ENDSEC
  0
EOF
