  0
SECTION
  2
HEADER
  9
$ACADVER
  1
AC1015
  9
$ACADMAINTVER
 70
     6
  9
$DWGCODEPAGE
  3
ANSI_1252
  9
$INSBASE
 10
0.0
 20
0.0
 30
0.0
  9
$EXTMIN
 10
-10.8377
 20
-6.45527
 30
0.0
  9
$EXTMAX
 10
4.41655
 20
12.16697
 30
0.0
  9
$LIMMIN
 10
0.0
 20
0.0
  9
$LIMMAX
 10
12.0
 20
9.0
  9
$ORTHOMODE
 70
     0
  9
$REGENMODE
 70
     1
  9
$FILLMODE
 70
     1
  9
$QTEXTMODE
 70
     0
  9
$MIRRTEXT
 70
     1
  9
$LTSCALE
 40
1.0
  9
$ATTMODE
 70
     1
  9
$TEXTSIZE
 40
0.2
  9
$TRACEWID
 40
0.05
  9
$TEXTSTYLE
  7
Standard
  9
$CLAYER
  8
0
  9
$CELTYPE
  6
ByLayer
  9
$CECOLOR
 62
   256
  9
$CELTSCALE
 40
1.0
  9
$DISPSILH
 70
     0
  9
$DIMSCALE
 40
1.0
  9
$DIMASZ
 40
0.18
  9
$DIMEXO
 40
0.0625
  9
$DIMDLI
 40
0.38
  9
$DIMRND
 40
0.0
  9
$DIMDLE
 40
0.0
  9
$DIMEXE
 40
0.18
  9
$DIMTP
 40
0.0
  9
$DIMTM
 40
0.0
  9
$DIMTXT
 40
0.18
  9
$DIMCEN
 40
0.09
  9
$DIMTSZ
 40
0.0
  9
$DIMTOL
 70
     0
  9
$DIMLIM
 70
     0
  9
$DIMTIH
 70
     1
  9
$DIMTOH
 70
     1
  9
$DIMSE1
 70
     0
  9
$DIMSE2
 70
     0
  9
$DIMTAD
 70
     0
  9
$DIMZIN
 70
     0
  9
$DIMBLK
  1

  9
$DIMASO
 70
     1
  9
$DIMSHO
 70
     1
  9
$DIMPOST
  1

  9
$DIMAPOST
  1

  9
$DIMALT
 70
     0
  9
$DIMALTD
 70
     2
  9
$DIMALTF
 40
25.4
  9
$DIMLFAC
 40
1.0
  9
$DIMTOFL
 70
     0
  9
$DIMTVP
 40
0.0
  9
$DIMTIX
 70
     0
  9
$DIMSOXD
 70
     0
  9
$DIMSAH
 70
     0
  9
$DIMBLK1
  1

  9
$DIMBLK2
  1

  9
$DIMSTYLE
  2
Standard
  9
$DIMCLRD
 70
     0
  9
$DIMCLRE
 70
     0
  9
$DIMCLRT
 70
     0
  9
$DIMTFAC
 40
1.0
  9
$DIMGAP
 40
0.09
  9
$DIMJUST
 70
     0
  9
$DIMSD1
 70
     0
  9
$DIMSD2
 70
     0
  9
$DIMTOLJ
 70
     1
  9
$DIMTZIN
 70
     0
  9
$DIMALTZ
 70
     0
  9
$DIMALTTZ
 70
     0
  9
$DIMUPT
 70
     0
  9
$DIMDEC
 70
     4
  9
$DIMTDEC
 70
     4
  9
$DIMALTU
 70
     2
  9
$DIMALTTD
 70
     2
  9
$DIMTXSTY
  7
Standard
  9
$DIMAUNIT
 70
     0
  9
$DIMADEC
 70
     0
  9
$DIMALTRND
 40
0.0
  9
$DIMAZIN
 70
     0
  9
$DIMDSEP
 70
    46
  9
$DIMATFIT
 70
     3
  9
$DIMFRAC
 70
     0
  9
$DIMLDRBLK
  1

  9
$DIMLUNIT
 70
     2
  9
$DIMLWD
 70
    -2
  9
$DIMLWE
 70
    -2
  9
$DIMTMOVE
 70
     0
  9
$LUNITS
 70
     2
  9
$LUPREC
 70
     4
  9
$SKETCHINC
 40
0.1
  9
$FILLETRAD
 40
0.5
  9
$AUNITS
 70
     0
  9
$AUPREC
 70
     0
  9
$MENU
  1
.
  9
$ELEVATION
 40
0.0
  9
$PELEVATION
 40
0.0
  9
$THICKNESS
 40
0.0
  9
$LIMCHECK
 70
     0
  9
$CHAMFERA
 40
0.5
  9
$CHAMFERB
 40
0.5
  9
$CHAMFERC
 40
1.0
  9
$CHAMFERD
 40
0.0
  9
$SKPOLY
 70
     0
  9
$TDCREATE
 40
2458031.528252234
  9
$TDUCREATE
 40
2458031.299085567
  9
$TDUPDATE
 40
2458031.528252407
  9
$TDUUPDATE
 40
2458031.299085741
  9
$TDINDWG
 40
0.0000000116
  9
$TDUSRTIMER
 40
0.0000000116
  9
$USRTIMER
 70
     1
  9
$ANGBASE
 50
0.0
  9
$ANGDIR
 70
     0
  9
$PDMODE
 70
     0
  9
$PDSIZE
 40
0.0
  9
$PLINEWID
 40
0.0
  9
$SPLFRAME
 70
     0
  9
$SPLINETYPE
 70
     6
  9
$SPLINESEGS
 70
     8
  9
$HANDSEED
  5
CC
  9
$SURFTAB1
 70
     6
  9
$SURFTAB2
 70
     6
  9
$SURFTYPE
 70
     6
  9
$SURFU
 70
     6
  9
$SURFV
 70
     6
  9
$UCSBASE
  2

  9
$UCSNAME
  2

  9
$UCSORG
 10
0.0
 20
0.0
 30
0.0
  9
$UCSXDIR
 10
1.0
 20
0.0
 30
0.0
  9
$UCSYDIR
 10
0.0
 20
1.0
 30
0.0
  9
$UCSORTHOREF
  2

  9
$UCSORTHOVIEW
 70
     0
  9
$UCSORGTOP
 10
0.0
 20
0.0
 30
0.0
  9
$UCSORGBOTTOM
 10
0.0
 20
0.0
 30
0.0
  9
$UCSORGLEFT
 10
0.0
 20
0.0
 30
0.0
  9
$UCSORGRIGHT
 10
0.0
 20
0.0
 30
0.0
  9
$UCSORGFRONT
 10
0.0
 20
0.0
 30
0.0
  9
$UCSORGBACK
 10
0.0
 20
0.0
 30
0.0
  9
$PUCSBASE
  2

  9
$PUCSNAME
  2

  9
$PUCSORG
 10
0.0
 20
0.0
 30
0.0
  9
$PUCSXDIR
 10
1.0
 20
0.0
 30
0.0
  9
$PUCSYDIR
 10
0.0
 20
1.0
 30
0.0
  9
$PUCSORTHOREF
  2

  9
$PUCSORTHOVIEW
 70
     0
  9
$PUCSORGTOP
 10
0.0
 20
0.0
 30
0.0
  9
$PUCSORGBOTTOM
 10
0.0
 20
0.0
 30
0.0
  9
$PUCSORGLEFT
 10
0.0
 20
0.0
 30
0.0
  9
$PUCSORGRIGHT
 10
0.0
 20
0.0
 30
0.0
  9
$PUCSORGFRONT
 10
0.0
 20
0.0
 30
0.0
  9
$PUCSORGBACK
 10
0.0
 20
0.0
 30
0.0
  9
$USERI1
 70
     0
  9
$USERI2
 70
     0
  9
$USERI3
 70
     0
  9
$USERI4
 70
     0
  9
$USERI5
 70
     0
  9
$USERR1
 40
0.0
  9
$USERR2
 40
0.0
  9
$USERR3
 40
0.0
  9
$USERR4
 40
0.0
  9
$USERR5
 40
0.0
  9
$WORLDVIEW
 70
     1
  9
$SHADEDGE
 70
     3
  9
$SHADEDIF
 70
    70
  9
$TILEMODE
 70
     1
  9
$MAXACTVP
 70
    64
  9
$PINSBASE
 10
0.0
 20
0.0
 30
0.0
  9
$PLIMCHECK
 70
     0
  9
$PEXTMIN
 10
1.000000000000000E+20
 20
1.000000000000000E+20
 30
1.000000000000000E+20
  9
$PEXTMAX
 10
-1.000000000000000E+20
 20
-1.000000000000000E+20
 30
-1.000000000000000E+20
  9
$PLIMMIN
 10
0.0
 20
0.0
  9
$PLIMMAX
 10
12.0
 20
9.0
  9
$UNITMODE
 70
     0
  9
$VISRETAIN
 70
     1
  9
$PLINEGEN
 70
     0
  9
$PSLTSCALE
 70
     1
  9
$TREEDEPTH
 70
  3020
  9
$CMLSTYLE
  2
Standard
  9
$CMLJUST
 70
     0
  9
$CMLSCALE
 40
1.0
  9
$PROXYGRAPHICS
 70
     1
  9
$MEASUREMENT
 70
     0
  9
$CELWEIGHT
370
    -1
  9
$ENDCAPS
280
     0
  9
$JOINSTYLE
280
     0
  9
$LWDISPLAY
290
     0
  9
$INSUNITS
 70
     5
  9
$HYPERLINKBASE
  1

  9
$STYLESHEET
  1

  9
$XEDIT
290
     1
  9
$CEPSNTYPE
380
     0
  9
$PSTYLEMODE
290
     1
  9
$FINGERPRINTGUID
  2
{E56B6DD5-A132-4411-959C-60B731064A58}
  9
$VERSIONGUID
  2
{FAEB1C32-E019-11D5-929B-00C0DF256EC4}
  9
$EXTNAMES
290
     1
  9
$PSVPSCALE
 40
0.0
  9
$OLESTARTUP
290
     0
  0
ENDSEC
  0
SECTION
  2
CLASSES
  0
CLASS
  1
ACDBDICTIONARYWDFLT
  2
AcDbDictionaryWithDefault
  3
ObjectDBX Classes
 90
        0
280
     0
281
     0
  0
CLASS
  1
VISUALSTYLE
  2
AcDbVisualStyle
  3
ObjectDBX Classes
 90
     4095
280
     0
281
     0
  0
CLASS
  1
MATERIAL
  2
AcDbMaterial
  3
ObjectDBX Classes
 90
     1153
280
     0
281
     0
  0
CLASS
  1
DICTIONARYVAR
  2
AcDbDictionaryVar
  3
ObjectDBX Classes
 90
        0
280
     0
281
     0
  0
CLASS
  1
ACDBPLACEHOLDER
  2
AcDbPlaceHolder
  3
ObjectDBX Classes
 90
        0
280
     0
281
     0
  0
CLASS
  1
LAYOUT
  2
AcDbLayout
  3
ObjectDBX Classes
 90
        0
280
     0
281
     0
  0
ENDSEC
  0
SECTION
  2
TABLES
  0
TABLE
  2
VPORT
  5
8
330
0
100
AcDbSymbolTable
 70
     1
  0
VPORT
  5
29
330
8
100
AcDbSymbolTableRecord
100
AcDbViewportTableRecord
  2
*Active
 70
     0
 10
0.0
 20
0.0
 11
1.0
 21
1.0
 12
10.42990654205607
 22
4.5
 13
0.0
 23
0.0
 14
0.5
 24
0.5
 15
0.5
 25
0.5
 16
0.0
 26
0.0
 36
1.0
 17
0.0
 27
0.0
 37
0.0
 40
9.0
 41
1.972972972850329
 42
50.0
 43
0.0
 44
0.0
 50
0.0
 51
0.0
 71
     0
 72
   100
 73
     1
 74
     3
 75
     0
 76
     0
 77
     0
 78
     0
281
     0
 65
     1
110
0.0
120
0.0
130
0.0
111
1.0
121
0.0
131
0.0
112
0.0
122
1.0
132
0.0
 79
     0
146
0.0
  0
ENDTAB
  0
TABLE
  2
LTYPE
  5
5
330
0
100
AcDbSymbolTable
 70
     1
  0
LTYPE
  5
14
330
5
100
AcDbSymbolTableRecord
100
AcDbLinetypeTableRecord
  2
ByBlock
 70
     0
  3

 72
    65
 73
     0
 40
0.0
  0
LTYPE
  5
15
330
5
100
AcDbSymbolTableRecord
100
AcDbLinetypeTableRecord
  2
ByLayer
 70
     0
  3

 72
    65
 73
     0
 40
0.0
  0
LTYPE
  5
16
330
5
100
AcDbSymbolTableRecord
100
AcDbLinetypeTableRecord
  2
Continuous
 70
     0
  3
Solid line
 72
    65
 73
     0
 40
0.0
  0
ENDTAB
  0
TABLE
  2
LAYER
  5
2
330
0
100
AcDbSymbolTable
 70
     2
  0
LAYER
  5
10
330
2
100
AcDbSymbolTableRecord
100
AcDbLayerTableRecord
  2
0
 70
     0
 62
     7
  6
Continuous
370
    -3
390
F
  0
LAYER
  5
40
330
2
100
AcDbSymbolTableRecord
100
AcDbLayerTableRecord
  2
Layer 1
 70
     0
 62
     7
  6
Continuous
370
    -3
390
F
  0
ENDTAB
  0
TABLE
  2
STYLE
  5
3
330
0
100
AcDbSymbolTable
 70
     1
  0
STYLE
  5
11
330
3
100
AcDbSymbolTableRecord
100
AcDbTextStyleTableRecord
  2
Standard
 70
     0
 40
0.0
 41
1.0
 50
0.0
 71
     0
 42
0.2
  3
txt
  4

  0
ENDTAB
  0
TABLE
  2
VIEW
  5
6
330
0
100
AcDbSymbolTable
 70
     0
  0
ENDTAB
  0
TABLE
  2
UCS
  5
7
330
0
100
AcDbSymbolTable
 70
     0
  0
ENDTAB
  0
TABLE
  2
APPID
  5
9
330
0
100
AcDbSymbolTable
 70
     2
  0
APPID
  5
12
330
9
100
AcDbSymbolTableRecord
100
AcDbRegAppTableRecord
  2
ACAD
 70
     0
  0
APPID
  5
3F
330
9
100
AcDbSymbolTableRecord
100
AcDbRegAppTableRecord
  2
ODA
 70
     0
  0
ENDTAB
  0
TABLE
  2
DIMSTYLE
  5
A
330
0
100
AcDbSymbolTable
 70
     1
100
AcDbDimStyleTable
  0
DIMSTYLE
105
27
330
A
100
AcDbSymbolTableRecord
100
AcDbDimStyleTableRecord
  2
Standard
 70
     0
178
     0
340
11
  0
ENDTAB
  0
TABLE
  2
BLOCK_RECORD
  5
1
330
0
100
AcDbSymbolTable
 70
     1
  0
BLOCK_RECORD
  5
1F
330
1
100
AcDbSymbolTableRecord
100
AcDbBlockTableRecord
  2
*Model_Space
340
22
  0
BLOCK_RECORD
  5
1B
330
1
100
AcDbSymbolTableRecord
100
AcDbBlockTableRecord
  2
*Paper_Space
340
1E
  0
BLOCK_RECORD
  5
23
330
1
100
AcDbSymbolTableRecord
100
AcDbBlockTableRecord
  2
*Paper_Space0
340
26
  0
ENDTAB
  0
ENDSEC
  0
SECTION
  2
BLOCKS
  0
BLOCK
  5
20
330
1F
100
AcDbEntity
  8
0
100
AcDbBlockBegin
  2
*Model_Space
 70
     0
 10
0.0
 20
0.0
 30
0.0
  3
*Model_Space
  1

  0
ENDBLK
  5
21
330
1F
100
AcDbEntity
  8
0
100
AcDbBlockEnd
  0
BLOCK
  5
1C
330
1B
100
AcDbEntity
 67
     1
  8
0
100
AcDbBlockBegin
  2
*Paper_Space
 70
     0
 10
0.0
 20
0.0
 30
0.0
  3
*Paper_Space
  1

  0
ENDBLK
  5
1D
330
1B
100
AcDbEntity
 67
     1
  8
0
100
AcDbBlockEnd
  0
BLOCK
  5
24
330
23
100
AcDbEntity
  8
0
100
AcDbBlockBegin
  2
*Paper_Space0
 70
     0
 10
0.0
 20
0.0
 30
0.0
  3
*Paper_Space0
  1

  0
ENDBLK
  5
25
330
23
100
AcDbEntity
  8
0
100
AcDbBlockEnd
  0
ENDSEC
  0
SECTION
  2
ENTITIES
  0
SPLINE
  5
41
330
1F
100
AcDbEntity
  8
Layer 1
 62
   177
370
     9
100
AcDbSpline
210
0.0
220
0.0
230
1.0
 70
    11
 71
     3
 72
    20
 73
    16
 74
     0
 42
0.0000000001
 43
0.0000000001
 12
1.0
 22
0.0
 32
0.0
 13
1.0
 23
0.0
 33
0.0
 40
0.0
 40
0.0
 40
0.0
 40
0.0
 40
0.2
 40
0.2
 40
0.2
 40
0.2
 40
0.4
 40
0.4
 40
0.4
 40
0.4
 40
0.6
 40
0.6
 40
0.6
 40
0.6
 40
1.0
 40
1.0
 40
1.0
 40
1.0
 10
-10.83389
 20
12.16316
 30
0.0
 10
-10.83389
 20
12.16316
 30
0.0
 10
-3.96973
 20
12.16316
 30
0.0
 10
-3.96973
 20
12.16316
 30
0.0
 10
-3.96973
 20
12.16316
 30
0.0
 10
-3.96973
 20
12.16316
 30
0.0
 10
-3.98913
 20
-6.45146
 30
0.0
 10
-3.98913
 20
-6.45146
 30
0.0
 10
-3.98913
 20
-6.45146
 30
0.0
 10
-3.98913
 20
-6.45146
 30
0.0
 10
-10.8145
 20
-6.45146
 30
0.0
 10
-10.8145
 20
-6.45146
 30
0.0
 10
-10.8145
 20
-6.45146
 30
0.0
 10
-10.8145
 20
-6.45146
 30
0.0
 10
-10.83389
 20
12.16316
 30
0.0
 10
-10.83389
 20
12.16316
 30
0.0
  0
SPLINE
  5
42
330
1F
100
AcDbEntity
  8
Layer 1
 62
   177
370
     9
100
AcDbSpline
210
0.0
220
0.0
230
1.0
 70
    11
 71
     3
 72
    20
 73
    16
 74
     0
 42
0.0000000001
 43
0.0000000001
 12
1.0
 22
0.0
 32
0.0
 13
1.0
 23
0.0
 33
0.0
 40
0.0
 40
0.0
 40
0.0
 40
0.0
 40
0.2
 40
0.2
 40
0.2
 40
0.2
 40
0.4
 40
0.4
 40
0.4
 40
0.4
 40
0.6
 40
0.6
 40
0.6
 40
0.6
 40
1.0
 40
1.0
 40
1.0
 40
1.0
 10
-10.65616
 20
12.00793
 30
0.0
 10
-10.65616
 20
12.00793
 30
0.0
 10
-10.65707
 20
10.78784
 30
0.0
 10
-10.65707
 20
10.78784
 30
0.0
 10
-10.65707
 20
10.78784
 30
0.0
 10
-10.65707
 20
10.78784
 30
0.0
 10
-9.94094
 20
10.47962
 30
0.0
 10
-9.94094
 20
10.47962
 30
0.0
 10
-9.94094
 20
10.47962
 30
0.0
 10
-9.94094
 20
10.47962
 30
0.0
 10
-8.67811
 20
12.0078
 30
0.0
 10
-8.67811
 20
12.0078
 30
0.0
 10
-8.67811
 20
12.0078
 30
0.0
 10
-8.67811
 20
12.0078
 30
0.0
 10
-10.65616
 20
12.00793
 30
0.0
 10
-10.65616
 20
12.00793
 30
0.0
  0
SPLINE
  5
43
330
1F
100
AcDbEntity
  8
Layer 1
 62
   177
370
     9
100
AcDbSpline
210
0.0
220
0.0
230
1.0
 70
    11
 71
     3
 72
    24
 73
    20
 74
     0
 42
0.0000000001
 43
0.0000000001
 12
1.0
 22
0.0
 32
0.0
 13
1.0
 23
0.0
 33
0.0
 40
0.0
 40
0.0
 40
0.0
 40
0.0
 40
0.1666666666666667
 40
0.1666666666666667
 40
0.1666666666666667
 40
0.1666666666666667
 40
0.3333333333333333
 40
0.3333333333333333
 40
0.3333333333333333
 40
0.3333333333333333
 40
0.5
 40
0.5
 40
0.5
 40
0.5
 40
0.6666666666666666
 40
0.6666666666666666
 40
0.6666666666666666
 40
0.6666666666666666
 40
1.0
 40
1.0
 40
1.0
 40
1.0
 10
-8.46315
 20
12.00748
 30
0.0
 10
-8.46315
 20
12.00748
 30
0.0
 10
-8.93501
 20
11.43452
 30
0.0
 10
-8.93501
 20
11.43452
 30
0.0
 10
-8.93501
 20
11.43452
 30
0.0
 10
-8.93501
 20
11.43452
 30
0.0
 10
-7.97528
 20
10.34157
 30
0.0
 10
-7.97528
 20
10.34157
 30
0.0
 10
-7.97528
 20
10.34157
 30
0.0
 10
-7.97528
 20
10.34157
 30
0.0
 10
-7.77096
 20
10.47185
 30
0.0
 10
-7.77096
 20
10.47185
 30
0.0
 10
-7.77096
 20
10.47185
 30
0.0
 10
-7.77096
 20
10.47185
 30
0.0
 10
-7.68472
 20
12.00749
 30
0.0
 10
-7.68472
 20
12.00749
 30
0.0
 10
-7.68472
 20
12.00749
 30
0.0
 10
-7.68472
 20
12.00749
 30
0.0
 10
-8.46315
 20
12.00748
 30
0.0
 10
-8.46315
 20
12.00748
 30
0.0
  0
SPLINE
  5
44
330
1F
100
AcDbEntity
  8
Layer 1
 62
   177
370
     9
100
AcDbSpline
210
0.0
220
0.0
230
1.0
 70
    11
 71
     3
 72
    20
 73
    16
 74
     0
 42
0.0000000001
 43
0.0000000001
 12
1.0
 22
0.0
 32
0.0
 13
1.0
 23
0.0
 33
0.0
 40
0.0
 40
0.0
 40
0.0
 40
0.0
 40
0.2
 40
0.2
 40
0.2
 40
0.2
 40
0.4
 40
0.4
 40
0.4
 40
0.4
 40
0.6
 40
0.6
 40
0.6
 40
0.6
 40
1.0
 40
1.0
 40
1.0
 40
1.0
 10
-9.04446
 20
11.30697
 30
0.0
 10
-9.04446
 20
11.30697
 30
0.0
 10
-9.77688
 20
10.42306
 30
0.0
 10
-9.77688
 20
10.42306
 30
0.0
 10
-9.77688
 20
10.42306
 30
0.0
 10
-9.77688
 20
10.42306
 30
0.0
 10
-8.63316
 20
9.91875
 30
0.0
 10
-8.63316
 20
9.91875
 30
0.0
 10
-8.63316
 20
9.91875
 30
0.0
 10
-8.63316
 20
9.91875
 30
0.0
 10
-8.10349
 20
10.26281
 30
0.0
 10
-8.10349
 20
10.26281
 30
0.0
 10
-8.10349
 20
10.26281
 30
0.0
 10
-8.10349
 20
10.26281
 30
0.0
 10
-9.04446
 20
11.30697
 30
0.0
 10
-9.04446
 20
11.30697
 30
0.0
  0
SPLINE
  5
45
330
1F
100
AcDbEntity
  8
Layer 1
 62
   177
370
     9
100
AcDbSpline
210
0.0
220
0.0
230
1.0
 70
    11
 71
     3
 72
    16
 73
    12
 74
     0
 42
0.0000000001
 43
0.0000000001
 12
1.0
 22
0.0
 32
0.0
 13
1.0
 23
0.0
 33
0.0
 40
0.0
 40
0.0
 40
0.0
 40
0.0
 40
0.25
 40
0.25
 40
0.25
 40
0.25
 40
0.5
 40
0.5
 40
0.5
 40
0.5
 40
1.0
 40
1.0
 40
1.0
 40
1.0
 10
-10.65686
 20
10.61187
 30
0.0
 10
-10.65686
 20
10.61187
 30
0.0
 10
-10.65654
 20
8.60248
 30
0.0
 10
-10.65654
 20
8.60248
 30
0.0
 10
-10.65654
 20
8.60248
 30
0.0
 10
-10.65654
 20
8.60248
 30
0.0
 10
-8.7962
 20
9.8132
 30
0.0
 10
-8.7962
 20
9.8132
 30
0.0
 10
-8.7962
 20
9.8132
 30
0.0
 10
-8.7962
 20
9.8132
 30
0.0
 10
-10.65686
 20
10.61187
 30
0.0
 10
-10.65686
 20
10.61187
 30
0.0
  0
SPLINE
  5
46
330
1F
100
AcDbEntity
  8
Layer 1
 62
   177
370
     9
100
AcDbSpline
210
0.0
220
0.0
230
1.0
 70
    11
 71
     3
 72
    20
 73
    16
 74
     0
 42
0.0000000001
 43
0.0000000001
 12
1.0
 22
0.0
 32
0.0
 13
1.0
 23
0.0
 33
0.0
 40
0.0
 40
0.0
 40
0.0
 40
0.0
 40
0.2
 40
0.2
 40
0.2
 40
0.2
 40
0.4
 40
0.4
 40
0.4
 40
0.4
 40
0.6
 40
0.6
 40
0.6
 40
0.6
 40
1.0
 40
1.0
 40
1.0
 40
1.0
 10
-9.38388
 20
9.23328
 30
0.0
 10
-9.38388
 20
9.23328
 30
0.0
 10
-7.77633
 20
10.27049
 30
0.0
 10
-7.77633
 20
10.27049
 30
0.0
 10
-7.77633
 20
10.27049
 30
0.0
 10
-7.77633
 20
10.27049
 30
0.0
 10
-7.87547
 20
8.55259
 30
0.0
 10
-7.87547
 20
8.55259
 30
0.0
 10
-7.87547
 20
8.55259
 30
0.0
 10
-7.87547
 20
8.55259
 30
0.0
 10
-9.20107
 20
9.01474
 30
0.0
 10
-9.20107
 20
9.01474
 30
0.0
 10
-9.20107
 20
9.01474
 30
0.0
 10
-9.20107
 20
9.01474
 30
0.0
 10
-9.38388
 20
9.23328
 30
0.0
 10
-9.38388
 20
9.23328
 30
0.0
  0
SPLINE
  5
47
330
1F
100
AcDbEntity
  8
Layer 1
 62
   177
370
     9
100
AcDbSpline
210
0.0
220
0.0
230
1.0
 70
    11
 71
     3
 72
    20
 73
    16
 74
     0
 42
0.0000000001
 43
0.0000000001
 12
1.0
 22
0.0
 32
0.0
 13
1.0
 23
0.0
 33
0.0
 40
0.0
 40
0.0
 40
0.0
 40
0.0
 40
0.2
 40
0.2
 40
0.2
 40
0.2
 40
0.4
 40
0.4
 40
0.4
 40
0.4
 40
0.6
 40
0.6
 40
0.6
 40
0.6
 40
1.0
 40
1.0
 40
1.0
 40
1.0
 10
-7.52128
 20
12.00741
 30
0.0
 10
-7.52128
 20
12.00741
 30
0.0
 10
-5.72436
 20
12.00804
 30
0.0
 10
-5.72436
 20
12.00804
 30
0.0
 10
-5.72436
 20
12.00804
 30
0.0
 10
-5.72436
 20
12.00804
 30
0.0
 10
-6.14024
 20
10.90195
 30
0.0
 10
-6.14024
 20
10.90195
 30
0.0
 10
-6.14024
 20
10.90195
 30
0.0
 10
-6.14024
 20
10.90195
 30
0.0
 10
-7.56524
 20
11.33289
 30
0.0
 10
-7.56524
 20
11.33289
 30
0.0
 10
-7.56524
 20
11.33289
 30
0.0
 10
-7.56524
 20
11.33289
 30
0.0
 10
-7.52128
 20
12.00741
 30
0.0
 10
-7.52128
 20
12.00741
 30
0.0
  0
SPLINE
  5
48
330
1F
100
AcDbEntity
  8
Layer 1
 62
   177
370
     9
100
AcDbSpline
210
0.0
220
0.0
230
1.0
 70
    11
 71
     3
 72
    20
 73
    16
 74
     0
 42
0.0000000001
 43
0.0000000001
 12
1.0
 22
0.0
 32
0.0
 13
1.0
 23
0.0
 33
0.0
 40
0.0
 40
0.0
 40
0.0
 40
0.0
 40
0.2
 40
0.2
 40
0.2
 40
0.2
 40
0.4
 40
0.4
 40
0.4
 40
0.4
 40
0.6
 40
0.6
 40
0.6
 40
0.6
 40
1.0
 40
1.0
 40
1.0
 40
1.0
 10
-5.5528
 20
12.00708
 30
0.0
 10
-5.5528
 20
12.00708
 30
0.0
 10
-5.98679
 20
10.85599
 30
0.0
 10
-5.98679
 20
10.85599
 30
0.0
 10
-5.98679
 20
10.85599
 30
0.0
 10
-5.98679
 20
10.85599
 30
0.0
 10
-4.14591
 20
10.2999
 30
0.0
 10
-4.14591
 20
10.2999
 30
0.0
 10
-4.14591
 20
10.2999
 30
0.0
 10
-4.14591
 20
10.2999
 30
0.0
 10
-4.14521
 20
12.00794
 30
0.0
 10
-4.14521
 20
12.00794
 30
0.0
 10
-4.14521
 20
12.00794
 30
0.0
 10
-4.14521
 20
12.00794
 30
0.0
 10
-5.5528
 20
12.00708
 30
0.0
 10
-5.5528
 20
12.00708
 30
0.0
  0
SPLINE
  5
49
330
1F
100
AcDbEntity
  8
Layer 1
 62
   177
370
     9
100
AcDbSpline
210
0.0
220
0.0
230
1.0
 70
    11
 71
     3
 72
    16
 73
    12
 74
     0
 42
0.0000000001
 43
0.0000000001
 12
1.0
 22
0.0
 32
0.0
 13
1.0
 23
0.0
 33
0.0
 40
0.0
 40
0.0
 40
0.0
 40
0.0
 40
0.25
 40
0.25
 40
0.25
 40
0.25
 40
0.5
 40
0.5
 40
0.5
 40
0.5
 40
1.0
 40
1.0
 40
1.0
 40
1.0
 10
-7.5686
 20
11.16481
 30
0.0
 10
-7.5686
 20
11.16481
 30
0.0
 10
-7.66576
 20
9.3766
 30
0.0
 10
-7.66576
 20
9.3766
 30
0.0
 10
-7.66576
 20
9.3766
 30
0.0
 10
-7.66576
 20
9.3766
 30
0.0
 10
-5.46327
 20
10.52871
 30
0.0
 10
-5.46327
 20
10.52871
 30
0.0
 10
-5.46327
 20
10.52871
 30
0.0
 10
-5.46327
 20
10.52871
 30
0.0
 10
-7.5686
 20
11.16481
 30
0.0
 10
-7.5686
 20
11.16481
 30
0.0
  0
SPLINE
  5
4A
330
1F
100
AcDbEntity
  8
Layer 1
 62
   177
370
     9
100
AcDbSpline
210
0.0
220
0.0
230
1.0
 70
    11
 71
     3
 72
    24
 73
    20
 74
     0
 42
0.0000000001
 43
0.0000000001
 12
1.0
 22
0.0
 32
0.0
 13
1.0
 23
0.0
 33
0.0
 40
0.0
 40
0.0
 40
0.0
 40
0.0
 40
0.1666666666666667
 40
0.1666666666666667
 40
0.1666666666666667
 40
0.1666666666666667
 40
0.3333333333333333
 40
0.3333333333333333
 40
0.3333333333333333
 40
0.3333333333333333
 40
0.5
 40
0.5
 40
0.5
 40
0.5
 40
0.6666666666666666
 40
0.6666666666666666
 40
0.6666666666666666
 40
0.6666666666666666
 40
1.0
 40
1.0
 40
1.0
 40
1.0
 10
-5.24307
 20
10.46117
 30
0.0
 10
-5.24307
 20
10.46117
 30
0.0
 10
-4.14532
 20
10.13529
 30
0.0
 10
-4.14532
 20
10.13529
 30
0.0
 10
-4.14532
 20
10.13529
 30
0.0
 10
-4.14532
 20
10.13529
 30
0.0
 10
-4.14425
 20
8.02724
 30
0.0
 10
-4.14425
 20
8.02724
 30
0.0
 10
-4.14425
 20
8.02724
 30
0.0
 10
-4.14425
 20
8.02724
 30
0.0
 10
-4.29139
 20
7.93486
 30
0.0
 10
-4.29139
 20
7.93486
 30
0.0
 10
-4.29139
 20
7.93486
 30
0.0
 10
-4.29139
 20
7.93486
 30
0.0
 10
-6.11689
 20
10.003
 30
0.0
 10
-6.11689
 20
10.003
 30
0.0
 10
-6.11689
 20
10.003
 30
0.0
 10
-6.11689
 20
10.003
 30
0.0
 10
-5.24307
 20
10.46117
 30
0.0
 10
-5.24307
 20
10.46117
 30
0.0
  0
SPLINE
  5
4B
330
1F
100
AcDbEntity
  8
Layer 1
 62
   177
370
     9
100
AcDbSpline
210
0.0
220
0.0
230
1.0
 70
    11
 71
     3
 72
    24
 73
    20
 74
     0
 42
0.0000000001
 43
0.0000000001
 12
1.0
 22
0.0
 32
0.0
 13
1.0
 23
0.0
 33
0.0
 40
0.0
 40
0.0
 40
0.0
 40
0.0
 40
0.1666666666666667
 40
0.1666666666666667
 40
0.1666666666666667
 40
0.1666666666666667
 40
0.3333333333333333
 40
0.3333333333333333
 40
0.3333333333333333
 40
0.3333333333333333
 40
0.5
 40
0.5
 40
0.5
 40
0.5
 40
0.6666666666666666
 40
0.6666666666666666
 40
0.6666666666666666
 40
0.6666666666666666
 40
1.0
 40
1.0
 40
1.0
 40
1.0
 10
-7.68159
 20
9.18989
 30
0.0
 10
-7.68159
 20
9.18989
 30
0.0
 10
-6.2636
 20
9.92543
 30
0.0
 10
-6.2636
 20
9.92543
 30
0.0
 10
-6.2636
 20
9.92543
 30
0.0
 10
-6.2636
 20
9.92543
 30
0.0
 10
-5.592
 20
9.16113
 30
0.0
 10
-5.592
 20
9.16113
 30
0.0
 10
-5.592
 20
9.16113
 30
0.0
 10
-5.592
 20
9.16113
 30
0.0
 10
-6.50711
 20
8.06704
 30
0.0
 10
-6.50711
 20
8.06704
 30
0.0
 10
-6.50711
 20
8.06704
 30
0.0
 10
-6.50711
 20
8.06704
 30
0.0
 10
-7.7201
 20
8.49295
 30
0.0
 10
-7.7201
 20
8.49295
 30
0.0
 10
-7.7201
 20
8.49295
 30
0.0
 10
-7.7201
 20
8.49295
 30
0.0
 10
-7.68159
 20
9.18989
 30
0.0
 10
-7.68159
 20
9.18989
 30
0.0
  0
SPLINE
  5
4C
330
1F
100
AcDbEntity
  8
Layer 1
 62
   177
370
     9
100
AcDbSpline
210
0.0
220
0.0
230
1.0
 70
    11
 71
     3
 72
    20
 73
    16
 74
     0
 42
0.0000000001
 43
0.0000000001
 12
1.0
 22
0.0
 32
0.0
 13
1.0
 23
0.0
 33
0.0
 40
0.0
 40
0.0
 40
0.0
 40
0.0
 40
0.2
 40
0.2
 40
0.2
 40
0.2
 40
0.4
 40
0.4
 40
0.4
 40
0.4
 40
0.6
 40
0.6
 40
0.6
 40
0.6
 40
1.0
 40
1.0
 40
1.0
 40
1.0
 10
-5.49308
 20
9.04147
 30
0.0
 10
-5.49308
 20
9.04147
 30
0.0
 10
-6.6804
 20
7.60241
 30
0.0
 10
-6.6804
 20
7.60241
 30
0.0
 10
-6.6804
 20
7.60241
 30
0.0
 10
-6.6804
 20
7.60241
 30
0.0
 10
-5.58186
 20
7.12951
 30
0.0
 10
-5.58186
 20
7.12951
 30
0.0
 10
-5.58186
 20
7.12951
 30
0.0
 10
-5.58186
 20
7.12951
 30
0.0
 10
-4.43442
 20
7.84966
 30
0.0
 10
-4.43442
 20
7.84966
 30
0.0
 10
-4.43442
 20
7.84966
 30
0.0
 10
-4.43442
 20
7.84966
 30
0.0
 10
-5.49308
 20
9.04147
 30
0.0
 10
-5.49308
 20
9.04147
 30
0.0
  0
SPLINE
  5
4D
330
1F
100
AcDbEntity
  8
Layer 1
 62
   177
370
     9
100
AcDbSpline
210
0.0
220
0.0
230
1.0
 70
    11
 71
     3
 72
    16
 73
    12
 74
     0
 42
0.0000000001
 43
0.0000000001
 12
1.0
 22
0.0
 32
0.0
 13
1.0
 23
0.0
 33
0.0
 40
0.0
 40
0.0
 40
0.0
 40
0.0
 40
0.25
 40
0.25
 40
0.25
 40
0.25
 40
0.5
 40
0.5
 40
0.5
 40
0.5
 40
1.0
 40
1.0
 40
1.0
 40
1.0
 10
-4.14478
 20
7.83807
 30
0.0
 10
-4.14478
 20
7.83807
 30
0.0
 10
-5.42248
 20
7.05389
 30
0.0
 10
-5.42248
 20
7.05389
 30
0.0
 10
-5.42248
 20
7.05389
 30
0.0
 10
-5.42248
 20
7.05389
 30
0.0
 10
-4.14532
 20
6.50882
 30
0.0
 10
-4.14532
 20
6.50882
 30
0.0
 10
-4.14532
 20
6.50882
 30
0.0
 10
-4.14532
 20
6.50882
 30
0.0
 10
-4.14478
 20
7.83807
 30
0.0
 10
-4.14478
 20
7.83807
 30
0.0
  0
SPLINE
  5
4E
330
1F
100
AcDbEntity
  8
Layer 1
 62
   177
370
     9
100
AcDbSpline
210
0.0
220
0.0
230
1.0
 70
    11
 71
     3
 72
    20
 73
    16
 74
     0
 42
0.0000000001
 43
0.0000000001
 12
1.0
 22
0.0
 32
0.0
 13
1.0
 23
0.0
 33
0.0
 40
0.0
 40
0.0
 40
0.0
 40
0.0
 40
0.2
 40
0.2
 40
0.2
 40
0.2
 40
0.4
 40
0.4
 40
0.4
 40
0.4
 40
0.6
 40
0.6
 40
0.6
 40
0.6
 40
1.0
 40
1.0
 40
1.0
 40
1.0
 10
-6.79187
 20
7.46971
 30
0.0
 10
-6.79187
 20
7.46971
 30
0.0
 10
-7.31577
 20
6.84093
 30
0.0
 10
-7.31577
 20
6.84093
 30
0.0
 10
-7.31577
 20
6.84093
 30
0.0
 10
-7.31577
 20
6.84093
 30
0.0
 10
-6.43882
 20
5.83533
 30
0.0
 10
-6.43882
 20
5.83533
 30
0.0
 10
-6.43882
 20
5.83533
 30
0.0
 10
-6.43882
 20
5.83533
 30
0.0
 10
-4.14517
 20
6.33376
 30
0.0
 10
-4.14517
 20
6.33376
 30
0.0
 10
-4.14517
 20
6.33376
 30
0.0
 10
-4.14517
 20
6.33376
 30
0.0
 10
-6.79187
 20
7.46971
 30
0.0
 10
-6.79187
 20
7.46971
 30
0.0
  0
SPLINE
  5
4F
330
1F
100
AcDbEntity
  8
Layer 1
 62
   177
370
     9
100
AcDbSpline
210
0.0
220
0.0
230
1.0
 70
    11
 71
     3
 72
    20
 73
    16
 74
     0
 42
0.0000000001
 43
0.0000000001
 12
1.0
 22
0.0
 32
0.0
 13
1.0
 23
0.0
 33
0.0
 40
0.0
 40
0.0
 40
0.0
 40
0.0
 40
0.2
 40
0.2
 40
0.2
 40
0.2
 40
0.4
 40
0.4
 40
0.4
 40
0.4
 40
0.6
 40
0.6
 40
0.6
 40
0.6
 40
1.0
 40
1.0
 40
1.0
 40
1.0
 10
-8.27554
 20
7.72091
 30
0.0
 10
-8.27554
 20
7.72091
 30
0.0
 10
-8.85199
 20
6.23374
 30
0.0
 10
-8.85199
 20
6.23374
 30
0.0
 10
-8.85199
 20
6.23374
 30
0.0
 10
-8.85199
 20
6.23374
 30
0.0
 10
-7.77629
 20
5.54586
 30
0.0
 10
-7.77629
 20
5.54586
 30
0.0
 10
-7.77629
 20
5.54586
 30
0.0
 10
-7.77629
 20
5.54586
 30
0.0
 10
-6.61139
 20
5.79904
 30
0.0
 10
-6.61139
 20
5.79904
 30
0.0
 10
-6.61139
 20
5.79904
 30
0.0
 10
-6.61139
 20
5.79904
 30
0.0
 10
-8.27554
 20
7.72091
 30
0.0
 10
-8.27554
 20
7.72091
 30
0.0
  0
SPLINE
  5
50
330
1F
100
AcDbEntity
  8
Layer 1
 62
   177
370
     9
100
AcDbSpline
210
0.0
220
0.0
230
1.0
 70
    11
 71
     3
 72
    16
 73
    12
 74
     0
 42
0.0000000001
 43
0.0000000001
 12
1.0
 22
0.0
 32
0.0
 13
1.0
 23
0.0
 33
0.0
 40
0.0
 40
0.0
 40
0.0
 40
0.0
 40
0.25
 40
0.25
 40
0.25
 40
0.25
 40
0.5
 40
0.5
 40
0.5
 40
0.5
 40
1.0
 40
1.0
 40
1.0
 40
1.0
 10
-8.97789
 20
8.76209
 30
0.0
 10
-8.97789
 20
8.76209
 30
0.0
 10
-7.41782
 20
6.96691
 30
0.0
 10
-7.41782
 20
6.96691
 30
0.0
 10
-7.41782
 20
6.96691
 30
0.0
 10
-7.41782
 20
6.96691
 30
0.0
 10
-6.60848
 20
7.94011
 30
0.0
 10
-6.60848
 20
7.94011
 30
0.0
 10
-6.60848
 20
7.94011
 30
0.0
 10
-6.60848
 20
7.94011
 30
0.0
 10
-8.97789
 20
8.76209
 30
0.0
 10
-8.97789
 20
8.76209
 30
0.0
  0
SPLINE
  5
51
330
1F
100
AcDbEntity
  8
Layer 1
 62
   177
370
     9
100
AcDbSpline
210
0.0
220
0.0
230
1.0
 70
    11
 71
     3
 72
    24
 73
    20
 74
     0
 42
0.0000000001
 43
0.0000000001
 12
1.0
 22
0.0
 32
0.0
 13
1.0
 23
0.0
 33
0.0
 40
0.0
 40
0.0
 40
0.0
 40
0.0
 40
0.1666666666666667
 40
0.1666666666666667
 40
0.1666666666666667
 40
0.1666666666666667
 40
0.3333333333333333
 40
0.3333333333333333
 40
0.3333333333333333
 40
0.3333333333333333
 40
0.5
 40
0.5
 40
0.5
 40
0.5
 40
0.6666666666666666
 40
0.6666666666666666
 40
0.6666666666666666
 40
0.6666666666666666
 40
1.0
 40
1.0
 40
1.0
 40
1.0
 10
-10.656
 20
8.40419
 30
0.0
 10
-10.656
 20
8.40419
 30
0.0
 10
-10.65805
 20
7.55724
 30
0.0
 10
-10.65805
 20
7.55724
 30
0.0
 10
-10.65805
 20
7.55724
 30
0.0
 10
-10.65805
 20
7.55724
 30
0.0
 10
-8.50947
 20
7.55603
 30
0.0
 10
-8.50947
 20
7.55603
 30
0.0
 10
-8.50947
 20
7.55603
 30
0.0
 10
-8.50947
 20
7.55603
 30
0.0
 10
-8.39684
 20
7.849
 30
0.0
 10
-8.39684
 20
7.849
 30
0.0
 10
-8.39684
 20
7.849
 30
0.0
 10
-8.39684
 20
7.849
 30
0.0
 10
-9.51902
 20
9.13912
 30
0.0
 10
-9.51902
 20
9.13912
 30
0.0
 10
-9.51902
 20
9.13912
 30
0.0
 10
-9.51902
 20
9.13912
 30
0.0
 10
-10.656
 20
8.40419
 30
0.0
 10
-10.656
 20
8.40419
 30
0.0
  0
SPLINE
  5
52
330
1F
100
AcDbEntity
  8
Layer 1
 62
   177
370
     9
100
AcDbSpline
210
0.0
220
0.0
230
1.0
 70
    11
 71
     3
 72
    20
 73
    16
 74
     0
 42
0.0000000001
 43
0.0000000001
 12
1.0
 22
0.0
 32
0.0
 13
1.0
 23
0.0
 33
0.0
 40
0.0
 40
0.0
 40
0.0
 40
0.0
 40
0.2
 40
0.2
 40
0.2
 40
0.2
 40
0.4
 40
0.4
 40
0.4
 40
0.4
 40
0.6
 40
0.6
 40
0.6
 40
0.6
 40
1.0
 40
1.0
 40
1.0
 40
1.0
 10
-10.65654
 20
7.38995
 30
0.0
 10
-10.65654
 20
7.38995
 30
0.0
 10
-8.57134
 20
7.39298
 30
0.0
 10
-8.57134
 20
7.39298
 30
0.0
 10
-8.57134
 20
7.39298
 30
0.0
 10
-8.57134
 20
7.39298
 30
0.0
 10
-9.67901
 20
4.53725
 30
0.0
 10
-9.67901
 20
4.53725
 30
0.0
 10
-9.67901
 20
4.53725
 30
0.0
 10
-9.67901
 20
4.53725
 30
0.0
 10
-10.65938
 20
5.97444
 30
0.0
 10
-10.65938
 20
5.97444
 30
0.0
 10
-10.65938
 20
5.97444
 30
0.0
 10
-10.65938
 20
5.97444
 30
0.0
 10
-10.65654
 20
7.38995
 30
0.0
 10
-10.65654
 20
7.38995
 30
0.0
  0
SPLINE
  5
53
330
1F
100
AcDbEntity
  8
Layer 1
 62
   177
370
     9
100
AcDbSpline
210
0.0
220
0.0
230
1.0
 70
    11
 71
     3
 72
    20
 73
    16
 74
     0
 42
0.0000000001
 43
0.0000000001
 12
1.0
 22
0.0
 32
0.0
 13
1.0
 23
0.0
 33
0.0
 40
0.0
 40
0.0
 40
0.0
 40
0.0
 40
0.2
 40
0.2
 40
0.2
 40
0.2
 40
0.4
 40
0.4
 40
0.4
 40
0.4
 40
0.6
 40
0.6
 40
0.6
 40
0.6
 40
1.0
 40
1.0
 40
1.0
 40
1.0
 10
-8.90508
 20
6.08121
 30
0.0
 10
-8.90508
 20
6.08121
 30
0.0
 10
-9.57255
 20
4.38052
 30
0.0
 10
-9.57255
 20
4.38052
 30
0.0
 10
-9.57255
 20
4.38052
 30
0.0
 10
-9.57255
 20
4.38052
 30
0.0
 10
-8.88018
 20
3.37382
 30
0.0
 10
-8.88018
 20
3.37382
 30
0.0
 10
-8.88018
 20
3.37382
 30
0.0
 10
-8.88018
 20
3.37382
 30
0.0
 10
-7.43972
 20
5.13117
 30
0.0
 10
-7.43972
 20
5.13117
 30
0.0
 10
-7.43972
 20
5.13117
 30
0.0
 10
-7.43972
 20
5.13117
 30
0.0
 10
-8.90508
 20
6.08121
 30
0.0
 10
-8.90508
 20
6.08121
 30
0.0
  0
SPLINE
  5
54
330
1F
100
AcDbEntity
  8
Layer 1
 62
   177
370
     9
100
AcDbSpline
210
0.0
220
0.0
230
1.0
 70
    11
 71
     3
 72
    20
 73
    16
 74
     0
 42
0.0000000001
 43
0.0000000001
 12
1.0
 22
0.0
 32
0.0
 13
1.0
 23
0.0
 33
0.0
 40
0.0
 40
0.0
 40
0.0
 40
0.0
 40
0.2
 40
0.2
 40
0.2
 40
0.2
 40
0.4
 40
0.4
 40
0.4
 40
0.4
 40
0.6
 40
0.6
 40
0.6
 40
0.6
 40
1.0
 40
1.0
 40
1.0
 40
1.0
 10
-7.58219
 20
5.41908
 30
0.0
 10
-7.58219
 20
5.41908
 30
0.0
 10
-5.56018
 20
5.86768
 30
0.0
 10
-5.56018
 20
5.86768
 30
0.0
 10
-5.56018
 20
5.86768
 30
0.0
 10
-5.56018
 20
5.86768
 30
0.0
 10
-4.63483
 20
4.51016
 30
0.0
 10
-4.63483
 20
4.51016
 30
0.0
 10
-4.63483
 20
4.51016
 30
0.0
 10
-4.63483
 20
4.51016
 30
0.0
 10
-5.34781
 20
3.96106
 30
0.0
 10
-5.34781
 20
3.96106
 30
0.0
 10
-5.34781
 20
3.96106
 30
0.0
 10
-5.34781
 20
3.96106
 30
0.0
 10
-7.58219
 20
5.41908
 30
0.0
 10
-7.58219
 20
5.41908
 30
0.0
  0
SPLINE
  5
55
330
1F
100
AcDbEntity
  8
Layer 1
 62
   177
370
     9
100
AcDbSpline
210
0.0
220
0.0
230
1.0
 70
    11
 71
     3
 72
    20
 73
    16
 74
     0
 42
0.0000000001
 43
0.0000000001
 12
1.0
 22
0.0
 32
0.0
 13
1.0
 23
0.0
 33
0.0
 40
0.0
 40
0.0
 40
0.0
 40
0.0
 40
0.2
 40
0.2
 40
0.2
 40
0.2
 40
0.4
 40
0.4
 40
0.4
 40
0.4
 40
0.6
 40
0.6
 40
0.6
 40
0.6
 40
1.0
 40
1.0
 40
1.0
 40
1.0
 10
-5.415
 20
5.89497
 30
0.0
 10
-5.415
 20
5.89497
 30
0.0
 10
-4.14535
 20
6.17189
 30
0.0
 10
-4.14535
 20
6.17189
 30
0.0
 10
-4.14535
 20
6.17189
 30
0.0
 10
-4.14535
 20
6.17189
 30
0.0
 10
-4.14491
 20
4.8924
 30
0.0
 10
-4.14491
 20
4.8924
 30
0.0
 10
-4.14491
 20
4.8924
 30
0.0
 10
-4.14491
 20
4.8924
 30
0.0
 10
-4.50588
 20
4.61692
 30
0.0
 10
-4.50588
 20
4.61692
 30
0.0
 10
-4.50588
 20
4.61692
 30
0.0
 10
-4.50588
 20
4.61692
 30
0.0
 10
-5.415
 20
5.89497
 30
0.0
 10
-5.415
 20
5.89497
 30
0.0
  0
SPLINE
  5
56
330
1F
100
AcDbEntity
  8
Layer 1
 62
   177
370
     9
100
AcDbSpline
210
0.0
220
0.0
230
1.0
 70
    11
 71
     3
 72
    20
 73
    16
 74
     0
 42
0.0000000001
 43
0.0000000001
 12
1.0
 22
0.0
 32
0.0
 13
1.0
 23
0.0
 33
0.0
 40
0.0
 40
0.0
 40
0.0
 40
0.0
 40
0.2
 40
0.2
 40
0.2
 40
0.2
 40
0.4
 40
0.4
 40
0.4
 40
0.4
 40
0.6
 40
0.6
 40
0.6
 40
0.6
 40
1.0
 40
1.0
 40
1.0
 40
1.0
 10
-10.65676
 20
5.68076
 30
0.0
 10
-10.65676
 20
5.68076
 30
0.0
 10
-10.65635
 20
2.47881
 30
0.0
 10
-10.65635
 20
2.47881
 30
0.0
 10
-10.65635
 20
2.47881
 30
0.0
 10
-10.65635
 20
2.47881
 30
0.0
 10
-9.68513
 20
2.38794
 30
0.0
 10
-9.68513
 20
2.38794
 30
0.0
 10
-9.68513
 20
2.38794
 30
0.0
 10
-9.68513
 20
2.38794
 30
0.0
 10
-8.9921
 20
3.24517
 30
0.0
 10
-8.9921
 20
3.24517
 30
0.0
 10
-8.9921
 20
3.24517
 30
0.0
 10
-8.9921
 20
3.24517
 30
0.0
 10
-10.65676
 20
5.68076
 30
0.0
 10
-10.65676
 20
5.68076
 30
0.0
  0
SPLINE
  5
57
330
1F
100
AcDbEntity
  8
Layer 1
 62
   177
370
     9
100
AcDbSpline
210
0.0
220
0.0
230
1.0
 70
    11
 71
     3
 72
    24
 73
    20
 74
     0
 42
0.0000000001
 43
0.0000000001
 12
1.0
 22
0.0
 32
0.0
 13
1.0
 23
0.0
 33
0.0
 40
0.0
 40
0.0
 40
0.0
 40
0.0
 40
0.1666666666666667
 40
0.1666666666666667
 40
0.1666666666666667
 40
0.1666666666666667
 40
0.3333333333333333
 40
0.3333333333333333
 40
0.3333333333333333
 40
0.3333333333333333
 40
0.5
 40
0.5
 40
0.5
 40
0.5
 40
0.6666666666666666
 40
0.6666666666666666
 40
0.6666666666666666
 40
0.6666666666666666
 40
1.0
 40
1.0
 40
1.0
 40
1.0
 10
-7.9119
 20
4.30559
 30
0.0
 10
-7.9119
 20
4.30559
 30
0.0
 10
-7.30575
 20
5.04914
 30
0.0
 10
-7.30575
 20
5.04914
 30
0.0
 10
-7.30575
 20
5.04914
 30
0.0
 10
-7.30575
 20
5.04914
 30
0.0
 10
-5.46537
 20
3.87954
 30
0.0
 10
-5.46537
 20
3.87954
 30
0.0
 10
-5.46537
 20
3.87954
 30
0.0
 10
-5.46537
 20
3.87954
 30
0.0
 10
-6.52504
 20
3.06574
 30
0.0
 10
-6.52504
 20
3.06574
 30
0.0
 10
-6.52504
 20
3.06574
 30
0.0
 10
-6.52504
 20
3.06574
 30
0.0
 10
-7.67501
 20
3.19175
 30
0.0
 10
-7.67501
 20
3.19175
 30
0.0
 10
-7.67501
 20
3.19175
 30
0.0
 10
-7.67501
 20
3.19175
 30
0.0
 10
-7.9119
 20
4.30559
 30
0.0
 10
-7.9119
 20
4.30559
 30
0.0
  0
SPLINE
  5
58
330
1F
100
AcDbEntity
  8
Layer 1
 62
   177
370
     9
100
AcDbSpline
210
0.0
220
0.0
230
1.0
 70
    11
 71
     3
 72
    16
 73
    12
 74
     0
 42
0.0000000001
 43
0.0000000001
 12
1.0
 22
0.0
 32
0.0
 13
1.0
 23
0.0
 33
0.0
 40
0.0
 40
0.0
 40
0.0
 40
0.0
 40
0.25
 40
0.25
 40
0.25
 40
0.25
 40
0.5
 40
0.5
 40
0.5
 40
0.5
 40
1.0
 40
1.0
 40
1.0
 40
1.0
 10
-8.0419
 20
4.14205
 30
0.0
 10
-8.0419
 20
4.14205
 30
0.0
 10
-9.50114
 20
2.36145
 30
0.0
 10
-9.50114
 20
2.36145
 30
0.0
 10
-9.50114
 20
2.36145
 30
0.0
 10
-9.50114
 20
2.36145
 30
0.0
 10
-7.6409
 20
2.18968
 30
0.0
 10
-7.6409
 20
2.18968
 30
0.0
 10
-7.6409
 20
2.18968
 30
0.0
 10
-7.6409
 20
2.18968
 30
0.0
 10
-8.0419
 20
4.14205
 30
0.0
 10
-8.0419
 20
4.14205
 30
0.0
  0
SPLINE
  5
59
330
1F
100
AcDbEntity
  8
Layer 1
 62
   177
370
     9
100
AcDbSpline
210
0.0
220
0.0
230
1.0
 70
    11
 71
     3
 72
    16
 73
    12
 74
     0
 42
0.0000000001
 43
0.0000000001
 12
1.0
 22
0.0
 32
0.0
 13
1.0
 23
0.0
 33
0.0
 40
0.0
 40
0.0
 40
0.0
 40
0.0
 40
0.25
 40
0.25
 40
0.25
 40
0.25
 40
0.5
 40
0.5
 40
0.5
 40
0.5
 40
1.0
 40
1.0
 40
1.0
 40
1.0
 10
-6.28306
 20
3.04057
 30
0.0
 10
-6.28306
 20
3.04057
 30
0.0
 10
-4.14539
 20
4.68511
 30
0.0
 10
-4.14539
 20
4.68511
 30
0.0
 10
-4.14539
 20
4.68511
 30
0.0
 10
-4.14539
 20
4.68511
 30
0.0
 10
-4.14526
 20
2.78643
 30
0.0
 10
-4.14526
 20
2.78643
 30
0.0
 10
-4.14526
 20
2.78643
 30
0.0
 10
-4.14526
 20
2.78643
 30
0.0
 10
-6.28306
 20
3.04057
 30
0.0
 10
-6.28306
 20
3.04057
 30
0.0
  0
SPLINE
  5
5A
330
1F
100
AcDbEntity
  8
Layer 1
 62
   177
370
     9
100
AcDbSpline
210
0.0
220
0.0
230
1.0
 70
    11
 71
     3
 72
    16
 73
    12
 74
     0
 42
0.0000000001
 43
0.0000000001
 12
1.0
 22
0.0
 32
0.0
 13
1.0
 23
0.0
 33
0.0
 40
0.0
 40
0.0
 40
0.0
 40
0.0
 40
0.25
 40
0.25
 40
0.25
 40
0.25
 40
0.5
 40
0.5
 40
0.5
 40
0.5
 40
1.0
 40
1.0
 40
1.0
 40
1.0
 10
-7.64419
 20
3.02706
 30
0.0
 10
-7.64419
 20
3.02706
 30
0.0
 10
-7.2223
 20
0.91495
 30
0.0
 10
-7.2223
 20
0.91495
 30
0.0
 10
-7.2223
 20
0.91495
 30
0.0
 10
-7.2223
 20
0.91495
 30
0.0
 10
-5.31414
 20
2.75638
 30
0.0
 10
-5.31414
 20
2.75638
 30
0.0
 10
-5.31414
 20
2.75638
 30
0.0
 10
-5.31414
 20
2.75638
 30
0.0
 10
-7.64419
 20
3.02706
 30
0.0
 10
-7.64419
 20
3.02706
 30
0.0
  0
SPLINE
  5
5B
330
1F
100
AcDbEntity
  8
Layer 1
 62
   177
370
     9
100
AcDbSpline
210
0.0
220
0.0
230
1.0
 70
    11
 71
     3
 72
    24
 73
    20
 74
     0
 42
0.0000000001
 43
0.0000000001
 12
1.0
 22
0.0
 32
0.0
 13
1.0
 23
0.0
 33
0.0
 40
0.0
 40
0.0
 40
0.0
 40
0.0
 40
0.1666666666666667
 40
0.1666666666666667
 40
0.1666666666666667
 40
0.1666666666666667
 40
0.3333333333333333
 40
0.3333333333333333
 40
0.3333333333333333
 40
0.3333333333333333
 40
0.5
 40
0.5
 40
0.5
 40
0.5
 40
0.6666666666666666
 40
0.6666666666666666
 40
0.6666666666666666
 40
0.6666666666666666
 40
1.0
 40
1.0
 40
1.0
 40
1.0
 10
-5.09303
 20
2.72177
 30
0.0
 10
-5.09303
 20
2.72177
 30
0.0
 10
-4.14564
 20
2.62257
 30
0.0
 10
-4.14564
 20
2.62257
 30
0.0
 10
-4.14564
 20
2.62257
 30
0.0
 10
-4.14564
 20
2.62257
 30
0.0
 10
-4.14553
 20
2.60898
 30
0.0
 10
-4.14553
 20
2.60898
 30
0.0
 10
-4.14553
 20
2.60898
 30
0.0
 10
-4.14553
 20
2.60898
 30
0.0
 10
-5.54881
 20
0.23004
 30
0.0
 10
-5.54881
 20
0.23004
 30
0.0
 10
-5.54881
 20
0.23004
 30
0.0
 10
-5.54881
 20
0.23004
 30
0.0
 10
-6.3117
 20
1.53816
 30
0.0
 10
-6.3117
 20
1.53816
 30
0.0
 10
-6.3117
 20
1.53816
 30
0.0
 10
-6.3117
 20
1.53816
 30
0.0
 10
-5.09303
 20
2.72177
 30
0.0
 10
-5.09303
 20
2.72177
 30
0.0
  0
SPLINE
  5
5C
330
1F
100
AcDbEntity
  8
Layer 1
 62
   177
370
     9
100
AcDbSpline
210
0.0
220
0.0
230
1.0
 70
    11
 71
     3
 72
    20
 73
    16
 74
     0
 42
0.0000000001
 43
0.0000000001
 12
1.0
 22
0.0
 32
0.0
 13
1.0
 23
0.0
 33
0.0
 40
0.0
 40
0.0
 40
0.0
 40
0.0
 40
0.2
 40
0.2
 40
0.2
 40
0.2
 40
0.4
 40
0.4
 40
0.4
 40
0.4
 40
0.6
 40
0.6
 40
0.6
 40
0.6
 40
1.0
 40
1.0
 40
1.0
 40
1.0
 10
-10.6552
 20
2.31262
 30
0.0
 10
-10.6552
 20
2.31262
 30
0.0
 10
-8.66104
 20
2.12609
 30
0.0
 10
-8.66104
 20
2.12609
 30
0.0
 10
-8.66104
 20
2.12609
 30
0.0
 10
-8.66104
 20
2.12609
 30
0.0
 10
-9.64351
 20
-0.42644
 30
0.0
 10
-9.64351
 20
-0.42644
 30
0.0
 10
-9.64351
 20
-0.42644
 30
0.0
 10
-9.64351
 20
-0.42644
 30
0.0
 10
-10.65819
 20
1.83246
 30
0.0
 10
-10.65819
 20
1.83246
 30
0.0
 10
-10.65819
 20
1.83246
 30
0.0
 10
-10.65819
 20
1.83246
 30
0.0
 10
-10.6552
 20
2.31262
 30
0.0
 10
-10.6552
 20
2.31262
 30
0.0
  0
SPLINE
  5
5D
330
1F
100
AcDbEntity
  8
Layer 1
 62
   177
370
     9
100
AcDbSpline
210
0.0
220
0.0
230
1.0
 70
    11
 71
     3
 72
    24
 73
    20
 74
     0
 42
0.0000000001
 43
0.0000000001
 12
1.0
 22
0.0
 32
0.0
 13
1.0
 23
0.0
 33
0.0
 40
0.0
 40
0.0
 40
0.0
 40
0.0
 40
0.1666666666666667
 40
0.1666666666666667
 40
0.1666666666666667
 40
0.1666666666666667
 40
0.3333333333333333
 40
0.3333333333333333
 40
0.3333333333333333
 40
0.3333333333333333
 40
0.5
 40
0.5
 40
0.5
 40
0.5
 40
0.6666666666666666
 40
0.6666666666666666
 40
0.6666666666666666
 40
0.6666666666666666
 40
1.0
 40
1.0
 40
1.0
 40
1.0
 10
-8.48407
 20
2.09916
 30
0.0
 10
-8.48407
 20
2.09916
 30
0.0
 10
-7.61077
 20
2.02017
 30
0.0
 10
-7.61077
 20
2.02017
 30
0.0
 10
-7.61077
 20
2.02017
 30
0.0
 10
-7.61077
 20
2.02017
 30
0.0
 10
-7.35435
 20
0.78041
 30
0.0
 10
-7.35435
 20
0.78041
 30
0.0
 10
-7.35435
 20
0.78041
 30
0.0
 10
-7.35435
 20
0.78041
 30
0.0
 10
-8.06141
 20
0.10453
 30
0.0
 10
-8.06141
 20
0.10453
 30
0.0
 10
-8.06141
 20
0.10453
 30
0.0
 10
-8.06141
 20
0.10453
 30
0.0
 10
-9.17001
 20
0.32529
 30
0.0
 10
-9.17001
 20
0.32529
 30
0.0
 10
-9.17001
 20
0.32529
 30
0.0
 10
-9.17001
 20
0.32529
 30
0.0
 10
-8.48407
 20
2.09916
 30
0.0
 10
-8.48407
 20
2.09916
 30
0.0
  0
SPLINE
  5
5E
330
1F
100
AcDbEntity
  8
Layer 1
 62
   177
370
     9
100
AcDbSpline
210
0.0
220
0.0
230
1.0
 70
    11
 71
     3
 72
    16
 73
    12
 74
     0
 42
0.0000000001
 43
0.0000000001
 12
1.0
 22
0.0
 32
0.0
 13
1.0
 23
0.0
 33
0.0
 40
0.0
 40
0.0
 40
0.0
 40
0.0
 40
0.25
 40
0.25
 40
0.25
 40
0.25
 40
0.5
 40
0.5
 40
0.5
 40
0.5
 40
1.0
 40
1.0
 40
1.0
 40
1.0
 10
-7.82739
 20
0.06152
 30
0.0
 10
-7.82739
 20
0.06152
 30
0.0
 10
-6.41874
 20
1.43999
 30
0.0
 10
-6.41874
 20
1.43999
 30
0.0
 10
-6.41874
 20
1.43999
 30
0.0
 10
-6.41874
 20
1.43999
 30
0.0
 10
-5.34514
 20
-0.43166
 30
0.0
 10
-5.34514
 20
-0.43166
 30
0.0
 10
-5.34514
 20
-0.43166
 30
0.0
 10
-5.34514
 20
-0.43166
 30
0.0
 10
-7.82739
 20
0.06152
 30
0.0
 10
-7.82739
 20
0.06152
 30
0.0
  0
SPLINE
  5
5F
330
1F
100
AcDbEntity
  8
Layer 1
 62
   177
370
     9
100
AcDbSpline
210
0.0
220
0.0
230
1.0
 70
    11
 71
     3
 72
    16
 73
    12
 74
     0
 42
0.0000000001
 43
0.0000000001
 12
1.0
 22
0.0
 32
0.0
 13
1.0
 23
0.0
 33
0.0
 40
0.0
 40
0.0
 40
0.0
 40
0.0
 40
0.25
 40
0.25
 40
0.25
 40
0.25
 40
0.5
 40
0.5
 40
0.5
 40
0.5
 40
1.0
 40
1.0
 40
1.0
 40
1.0
 10
-4.14522
 20
1.19776
 30
0.0
 10
-4.14522
 20
1.19776
 30
0.0
 10
-4.73229
 20
1.29291
 30
0.0
 10
-4.73229
 20
1.29291
 30
0.0
 10
-4.73229
 20
1.29291
 30
0.0
 10
-4.73229
 20
1.29291
 30
0.0
 10
-4.14515
 20
2.28632
 30
0.0
 10
-4.14515
 20
2.28632
 30
0.0
 10
-4.14515
 20
2.28632
 30
0.0
 10
-4.14515
 20
2.28632
 30
0.0
 10
-4.14522
 20
1.19776
 30
0.0
 10
-4.14522
 20
1.19776
 30
0.0
  0
SPLINE
  5
60
330
1F
100
AcDbEntity
  8
Layer 1
 62
   177
370
     9
100
AcDbSpline
210
0.0
220
0.0
230
1.0
 70
    11
 71
     3
 72
    24
 73
    20
 74
     0
 42
0.0000000001
 43
0.0000000001
 12
1.0
 22
0.0
 32
0.0
 13
1.0
 23
0.0
 33
0.0
 40
0.0
 40
0.0
 40
0.0
 40
0.0
 40
0.1666666666666667
 40
0.1666666666666667
 40
0.1666666666666667
 40
0.1666666666666667
 40
0.3333333333333333
 40
0.3333333333333333
 40
0.3333333333333333
 40
0.3333333333333333
 40
0.5
 40
0.5
 40
0.5
 40
0.5
 40
0.6666666666666666
 40
0.6666666666666666
 40
0.6666666666666666
 40
0.6666666666666666
 40
1.0
 40
1.0
 40
1.0
 40
1.0
 10
-5.45125
 20
0.07952
 30
0.0
 10
-5.45125
 20
0.07952
 30
0.0
 10
-4.86462
 20
-0.92494
 30
0.0
 10
-4.86462
 20
-0.92494
 30
0.0
 10
-4.86462
 20
-0.92494
 30
0.0
 10
-4.86462
 20
-0.92494
 30
0.0
 10
-4.14537
 20
-0.61673
 30
0.0
 10
-4.14537
 20
-0.61673
 30
0.0
 10
-4.14537
 20
-0.61673
 30
0.0
 10
-4.14537
 20
-0.61673
 30
0.0
 10
-4.14549
 20
1.0347
 30
0.0
 10
-4.14549
 20
1.0347
 30
0.0
 10
-4.14549
 20
1.0347
 30
0.0
 10
-4.14549
 20
1.0347
 30
0.0
 10
-4.8232
 20
1.14034
 30
0.0
 10
-4.8232
 20
1.14034
 30
0.0
 10
-4.8232
 20
1.14034
 30
0.0
 10
-4.8232
 20
1.14034
 30
0.0
 10
-5.45125
 20
0.07952
 30
0.0
 10
-5.45125
 20
0.07952
 30
0.0
  0
SPLINE
  5
61
330
1F
100
AcDbEntity
  8
Layer 1
 62
   177
370
     9
100
AcDbSpline
210
0.0
220
0.0
230
1.0
 70
    11
 71
     3
 72
    24
 73
    20
 74
     0
 42
0.0000000001
 43
0.0000000001
 12
1.0
 22
0.0
 32
0.0
 13
1.0
 23
0.0
 33
0.0
 40
0.0
 40
0.0
 40
0.0
 40
0.0
 40
0.1666666666666667
 40
0.1666666666666667
 40
0.1666666666666667
 40
0.1666666666666667
 40
0.3333333333333333
 40
0.3333333333333333
 40
0.3333333333333333
 40
0.3333333333333333
 40
0.5
 40
0.5
 40
0.5
 40
0.5
 40
0.6666666666666666
 40
0.6666666666666666
 40
0.6666666666666666
 40
0.6666666666666666
 40
1.0
 40
1.0
 40
1.0
 40
1.0
 10
-9.23667
 20
0.16381
 30
0.0
 10
-9.23667
 20
0.16381
 30
0.0
 10
-9.55382
 20
-0.64249
 30
0.0
 10
-9.55382
 20
-0.64249
 30
0.0
 10
-9.55382
 20
-0.64249
 30
0.0
 10
-9.55382
 20
-0.64249
 30
0.0
 10
-9.09887
 20
-1.67603
 30
0.0
 10
-9.09887
 20
-1.67603
 30
0.0
 10
-9.09887
 20
-1.67603
 30
0.0
 10
-9.09887
 20
-1.67603
 30
0.0
 10
-8.45245
 20
-1.6828
 30
0.0
 10
-8.45245
 20
-1.6828
 30
0.0
 10
-8.45245
 20
-1.6828
 30
0.0
 10
-8.45245
 20
-1.6828
 30
0.0
 10
-7.4765
 20
-0.18506
 30
0.0
 10
-7.4765
 20
-0.18506
 30
0.0
 10
-7.4765
 20
-0.18506
 30
0.0
 10
-7.4765
 20
-0.18506
 30
0.0
 10
-9.23667
 20
0.16381
 30
0.0
 10
-9.23667
 20
0.16381
 30
0.0
  0
SPLINE
  5
62
330
1F
100
AcDbEntity
  8
Layer 1
 62
   177
370
     9
100
AcDbSpline
210
0.0
220
0.0
230
1.0
 70
    11
 71
     3
 72
    24
 73
    20
 74
     0
 42
0.0000000001
 43
0.0000000001
 12
1.0
 22
0.0
 32
0.0
 13
1.0
 23
0.0
 33
0.0
 40
0.0
 40
0.0
 40
0.0
 40
0.0
 40
0.1666666666666667
 40
0.1666666666666667
 40
0.1666666666666667
 40
0.1666666666666667
 40
0.3333333333333333
 40
0.3333333333333333
 40
0.3333333333333333
 40
0.3333333333333333
 40
0.5
 40
0.5
 40
0.5
 40
0.5
 40
0.6666666666666666
 40
0.6666666666666666
 40
0.6666666666666666
 40
0.6666666666666666
 40
1.0
 40
1.0
 40
1.0
 40
1.0
 10
-7.31471
 20
-0.21748
 30
0.0
 10
-7.31471
 20
-0.21748
 30
0.0
 10
-5.24109
 20
-0.62709
 30
0.0
 10
-5.24109
 20
-0.62709
 30
0.0
 10
-5.24109
 20
-0.62709
 30
0.0
 10
-5.24109
 20
-0.62709
 30
0.0
 10
-5.02315
 20
-0.96969
 30
0.0
 10
-5.02315
 20
-0.96969
 30
0.0
 10
-5.02315
 20
-0.96969
 30
0.0
 10
-5.02315
 20
-0.96969
 30
0.0
 10
-6.80038
 20
-1.74153
 30
0.0
 10
-6.80038
 20
-1.74153
 30
0.0
 10
-6.80038
 20
-1.74153
 30
0.0
 10
-6.80038
 20
-1.74153
 30
0.0
 10
-7.65145
 20
-0.71799
 30
0.0
 10
-7.65145
 20
-0.71799
 30
0.0
 10
-7.65145
 20
-0.71799
 30
0.0
 10
-7.65145
 20
-0.71799
 30
0.0
 10
-7.31471
 20
-0.21748
 30
0.0
 10
-7.31471
 20
-0.21748
 30
0.0
  0
SPLINE
  5
63
330
1F
100
AcDbEntity
  8
Layer 1
 62
   177
370
     9
100
AcDbSpline
210
0.0
220
0.0
230
1.0
 70
    11
 71
     3
 72
    16
 73
    12
 74
     0
 42
0.0000000001
 43
0.0000000001
 12
1.0
 22
0.0
 32
0.0
 13
1.0
 23
0.0
 33
0.0
 40
0.0
 40
0.0
 40
0.0
 40
0.0
 40
0.25
 40
0.25
 40
0.25
 40
0.25
 40
0.5
 40
0.5
 40
0.5
 40
0.5
 40
1.0
 40
1.0
 40
1.0
 40
1.0
 10
-10.65666
 20
1.4355
 30
0.0
 10
-10.65666
 20
1.4355
 30
0.0
 10
-10.65648
 20
-1.6734
 30
0.0
 10
-10.65648
 20
-1.6734
 30
0.0
 10
-10.65648
 20
-1.6734
 30
0.0
 10
-10.65648
 20
-1.6734
 30
0.0
 10
-9.27804
 20
-1.67494
 30
0.0
 10
-9.27804
 20
-1.67494
 30
0.0
 10
-9.27804
 20
-1.67494
 30
0.0
 10
-9.27804
 20
-1.67494
 30
0.0
 10
-10.65666
 20
1.4355
 30
0.0
 10
-10.65666
 20
1.4355
 30
0.0
  0
SPLINE
  5
64
330
1F
100
AcDbEntity
  8
Layer 1
 62
   177
370
     9
100
AcDbSpline
210
0.0
220
0.0
230
1.0
 70
    11
 71
     3
 72
    16
 73
    12
 74
     0
 42
0.0000000001
 43
0.0000000001
 12
1.0
 22
0.0
 32
0.0
 13
1.0
 23
0.0
 33
0.0
 40
0.0
 40
0.0
 40
0.0
 40
0.0
 40
0.25
 40
0.25
 40
0.25
 40
0.25
 40
0.5
 40
0.5
 40
0.5
 40
0.5
 40
1.0
 40
1.0
 40
1.0
 40
1.0
 10
-7.73702
 20
-0.86826
 30
0.0
 10
-7.73702
 20
-0.86826
 30
0.0
 10
-9.22008
 20
-3.15099
 30
0.0
 10
-9.22008
 20
-3.15099
 30
0.0
 10
-9.22008
 20
-3.15099
 30
0.0
 10
-9.22008
 20
-3.15099
 30
0.0
 10
-6.61681
 20
-2.21135
 30
0.0
 10
-6.61681
 20
-2.21135
 30
0.0
 10
-6.61681
 20
-2.21135
 30
0.0
 10
-6.61681
 20
-2.21135
 30
0.0
 10
-7.73702
 20
-0.86826
 30
0.0
 10
-7.73702
 20
-0.86826
 30
0.0
  0
SPLINE
  5
65
330
1F
100
AcDbEntity
  8
Layer 1
 62
   177
370
     9
100
AcDbSpline
210
0.0
220
0.0
230
1.0
 70
    11
 71
     3
 72
    20
 73
    16
 74
     0
 42
0.0000000001
 43
0.0000000001
 12
1.0
 22
0.0
 32
0.0
 13
1.0
 23
0.0
 33
0.0
 40
0.0
 40
0.0
 40
0.0
 40
0.0
 40
0.2
 40
0.2
 40
0.2
 40
0.2
 40
0.4
 40
0.4
 40
0.4
 40
0.4
 40
0.6
 40
0.6
 40
0.6
 40
0.6
 40
1.0
 40
1.0
 40
1.0
 40
1.0
 10
-4.43075
 20
-2.14423
 30
0.0
 10
-4.43075
 20
-2.14423
 30
0.0
 10
-5.59053
 20
-1.41433
 30
0.0
 10
-5.59053
 20
-1.41433
 30
0.0
 10
-5.59053
 20
-1.41433
 30
0.0
 10
-5.59053
 20
-1.41433
 30
0.0
 10
-6.69191
 20
-1.89254
 30
0.0
 10
-6.69191
 20
-1.89254
 30
0.0
 10
-6.69191
 20
-1.89254
 30
0.0
 10
-6.69191
 20
-1.89254
 30
0.0
 10
-5.4801
 20
-3.32273
 30
0.0
 10
-5.4801
 20
-3.32273
 30
0.0
 10
-5.4801
 20
-3.32273
 30
0.0
 10
-5.4801
 20
-3.32273
 30
0.0
 10
-4.43075
 20
-2.14423
 30
0.0
 10
-4.43075
 20
-2.14423
 30
0.0
  0
SPLINE
  5
66
330
1F
100
AcDbEntity
  8
Layer 1
 62
   177
370
     9
100
AcDbSpline
210
0.0
220
0.0
230
1.0
 70
    11
 71
     3
 72
    16
 73
    12
 74
     0
 42
0.0000000001
 43
0.0000000001
 12
1.0
 22
0.0
 32
0.0
 13
1.0
 23
0.0
 33
0.0
 40
0.0
 40
0.0
 40
0.0
 40
0.0
 40
0.25
 40
0.25
 40
0.25
 40
0.25
 40
0.5
 40
0.5
 40
0.5
 40
0.5
 40
1.0
 40
1.0
 40
1.0
 40
1.0
 10
-5.40696
 20
-1.33883
 30
0.0
 10
-5.40696
 20
-1.33883
 30
0.0
 10
-4.14533
 20
-0.79424
 30
0.0
 10
-4.14533
 20
-0.79424
 30
0.0
 10
-4.14533
 20
-0.79424
 30
0.0
 10
-4.14533
 20
-0.79424
 30
0.0
 10
-4.14498
 20
-2.12401
 30
0.0
 10
-4.14498
 20
-2.12401
 30
0.0
 10
-4.14498
 20
-2.12401
 30
0.0
 10
-4.14498
 20
-2.12401
 30
0.0
 10
-5.40696
 20
-1.33883
 30
0.0
 10
-5.40696
 20
-1.33883
 30
0.0
  0
SPLINE
  5
67
330
1F
100
AcDbEntity
  8
Layer 1
 62
   177
370
     9
100
AcDbSpline
210
0.0
220
0.0
230
1.0
 70
    11
 71
     3
 72
    24
 73
    20
 74
     0
 42
0.0000000001
 43
0.0000000001
 12
1.0
 22
0.0
 32
0.0
 13
1.0
 23
0.0
 33
0.0
 40
0.0
 40
0.0
 40
0.0
 40
0.0
 40
0.1666666666666667
 40
0.1666666666666667
 40
0.1666666666666667
 40
0.1666666666666667
 40
0.3333333333333333
 40
0.3333333333333333
 40
0.3333333333333333
 40
0.3333333333333333
 40
0.5
 40
0.5
 40
0.5
 40
0.5
 40
0.6666666666666666
 40
0.6666666666666666
 40
0.6666666666666666
 40
0.6666666666666666
 40
1.0
 40
1.0
 40
1.0
 40
1.0
 10
-4.29468
 20
-2.22039
 30
0.0
 10
-4.29468
 20
-2.22039
 30
0.0
 10
-6.12453
 20
-4.29198
 30
0.0
 10
-6.12453
 20
-4.29198
 30
0.0
 10
-6.12453
 20
-4.29198
 30
0.0
 10
-6.12453
 20
-4.29198
 30
0.0
 10
-5.24009
 20
-4.74502
 30
0.0
 10
-5.24009
 20
-4.74502
 30
0.0
 10
-5.24009
 20
-4.74502
 30
0.0
 10
-5.24009
 20
-4.74502
 30
0.0
 10
-4.14553
 20
-4.41377
 30
0.0
 10
-4.14553
 20
-4.41377
 30
0.0
 10
-4.14553
 20
-4.41377
 30
0.0
 10
-4.14553
 20
-4.41377
 30
0.0
 10
-4.14526
 20
-2.3088
 30
0.0
 10
-4.14526
 20
-2.3088
 30
0.0
 10
-4.14526
 20
-2.3088
 30
0.0
 10
-4.14526
 20
-2.3088
 30
0.0
 10
-4.29468
 20
-2.22039
 30
0.0
 10
-4.29468
 20
-2.22039
 30
0.0
  0
SPLINE
  5
68
330
1F
100
AcDbEntity
  8
Layer 1
 62
   177
370
     9
100
AcDbSpline
210
0.0
220
0.0
230
1.0
 70
    11
 71
     3
 72
    20
 73
    16
 74
     0
 42
0.0000000001
 43
0.0000000001
 12
1.0
 22
0.0
 32
0.0
 13
1.0
 23
0.0
 33
0.0
 40
0.0
 40
0.0
 40
0.0
 40
0.0
 40
0.2
 40
0.2
 40
0.2
 40
0.2
 40
0.4
 40
0.4
 40
0.4
 40
0.4
 40
0.6
 40
0.6
 40
0.6
 40
0.6
 40
1.0
 40
1.0
 40
1.0
 40
1.0
 10
-10.65396
 20
-1.8372
 30
0.0
 10
-10.65396
 20
-1.8372
 30
0.0
 10
-8.57403
 20
-1.84879
 30
0.0
 10
-8.57403
 20
-1.84879
 30
0.0
 10
-8.57403
 20
-1.84879
 30
0.0
 10
-8.57403
 20
-1.84879
 30
0.0
 10
-9.84586
 20
-3.79792
 30
0.0
 10
-9.84586
 20
-3.79792
 30
0.0
 10
-9.84586
 20
-3.79792
 30
0.0
 10
-9.84586
 20
-3.79792
 30
0.0
 10
-10.65693
 20
-3.28748
 30
0.0
 10
-10.65693
 20
-3.28748
 30
0.0
 10
-10.65693
 20
-3.28748
 30
0.0
 10
-10.65693
 20
-3.28748
 30
0.0
 10
-10.65396
 20
-1.8372
 30
0.0
 10
-10.65396
 20
-1.8372
 30
0.0
  0
SPLINE
  5
69
330
1F
100
AcDbEntity
  8
Layer 1
 62
   177
370
     9
100
AcDbSpline
210
0.0
220
0.0
230
1.0
 70
    11
 71
     3
 72
    20
 73
    16
 74
     0
 42
0.0000000001
 43
0.0000000001
 12
1.0
 22
0.0
 32
0.0
 13
1.0
 23
0.0
 33
0.0
 40
0.0
 40
0.0
 40
0.0
 40
0.0
 40
0.2
 40
0.2
 40
0.2
 40
0.2
 40
0.4
 40
0.4
 40
0.4
 40
0.4
 40
0.6
 40
0.6
 40
0.6
 40
0.6
 40
1.0
 40
1.0
 40
1.0
 40
1.0
 10
-9.36192
 20
-3.34395
 30
0.0
 10
-9.36192
 20
-3.34395
 30
0.0
 10
-9.72488
 20
-3.8767
 30
0.0
 10
-9.72488
 20
-3.8767
 30
0.0
 10
-9.72488
 20
-3.8767
 30
0.0
 10
-9.72488
 20
-3.8767
 30
0.0
 10
-7.74322
 20
-5.14773
 30
0.0
 10
-7.74322
 20
-5.14773
 30
0.0
 10
-7.74322
 20
-5.14773
 30
0.0
 10
-7.74322
 20
-5.14773
 30
0.0
 10
-7.86838
 20
-2.84057
 30
0.0
 10
-7.86838
 20
-2.84057
 30
0.0
 10
-7.86838
 20
-2.84057
 30
0.0
 10
-7.86838
 20
-2.84057
 30
0.0
 10
-9.36192
 20
-3.34395
 30
0.0
 10
-9.36192
 20
-3.34395
 30
0.0
  0
SPLINE
  5
6A
330
1F
100
AcDbEntity
  8
Layer 1
 62
   177
370
     9
100
AcDbSpline
210
0.0
220
0.0
230
1.0
 70
    11
 71
     3
 72
    24
 73
    20
 74
     0
 42
0.0000000001
 43
0.0000000001
 12
1.0
 22
0.0
 32
0.0
 13
1.0
 23
0.0
 33
0.0
 40
0.0
 40
0.0
 40
0.0
 40
0.0
 40
0.1666666666666667
 40
0.1666666666666667
 40
0.1666666666666667
 40
0.1666666666666667
 40
0.3333333333333333
 40
0.3333333333333333
 40
0.3333333333333333
 40
0.3333333333333333
 40
0.5
 40
0.5
 40
0.5
 40
0.5
 40
0.6666666666666666
 40
0.6666666666666666
 40
0.6666666666666666
 40
0.6666666666666666
 40
1.0
 40
1.0
 40
1.0
 40
1.0
 10
-7.67648
 20
-3.46979
 30
0.0
 10
-7.67648
 20
-3.46979
 30
0.0
 10
-6.26638
 20
-4.1997
 30
0.0
 10
-6.26638
 20
-4.1997
 30
0.0
 10
-6.26638
 20
-4.1997
 30
0.0
 10
-6.26638
 20
-4.1997
 30
0.0
 10
-5.59053
 20
-3.42785
 30
0.0
 10
-5.59053
 20
-3.42785
 30
0.0
 10
-5.59053
 20
-3.42785
 30
0.0
 10
-5.59053
 20
-3.42785
 30
0.0
 10
-6.50001
 20
-2.33719
 30
0.0
 10
-6.50001
 20
-2.33719
 30
0.0
 10
-6.50001
 20
-2.33719
 30
0.0
 10
-6.50001
 20
-2.33719
 30
0.0
 10
-7.7182
 20
-2.79024
 30
0.0
 10
-7.7182
 20
-2.79024
 30
0.0
 10
-7.7182
 20
-2.79024
 30
0.0
 10
-7.7182
 20
-2.79024
 30
0.0
 10
-7.67648
 20
-3.46979
 30
0.0
 10
-7.67648
 20
-3.46979
 30
0.0
  0
SPLINE
  5
6B
330
1F
100
AcDbEntity
  8
Layer 1
 62
   177
370
     9
100
AcDbSpline
210
0.0
220
0.0
230
1.0
 70
    11
 71
     3
 72
    16
 73
    12
 74
     0
 42
0.0000000001
 43
0.0000000001
 12
1.0
 22
0.0
 32
0.0
 13
1.0
 23
0.0
 33
0.0
 40
0.0
 40
0.0
 40
0.0
 40
0.0
 40
0.25
 40
0.25
 40
0.25
 40
0.25
 40
0.5
 40
0.5
 40
0.5
 40
0.5
 40
1.0
 40
1.0
 40
1.0
 40
1.0
 10
-10.65652
 20
-3.47154
 30
0.0
 10
-10.65652
 20
-3.47154
 30
0.0
 10
-8.94473
 20
-4.56045
 30
0.0
 10
-8.94473
 20
-4.56045
 30
0.0
 10
-8.94473
 20
-4.56045
 30
0.0
 10
-8.94473
 20
-4.56045
 30
0.0
 10
-10.65673
 20
-6.21853
 30
0.0
 10
-10.65673
 20
-6.21853
 30
0.0
 10
-10.65673
 20
-6.21853
 30
0.0
 10
-10.65673
 20
-6.21853
 30
0.0
 10
-10.65652
 20
-3.47154
 30
0.0
 10
-10.65652
 20
-3.47154
 30
0.0
  0
SPLINE
  5
6C
330
1F
100
AcDbEntity
  8
Layer 1
 62
   177
370
     9
100
AcDbSpline
210
0.0
220
0.0
230
1.0
 70
    11
 71
     3
 72
    24
 73
    20
 74
     0
 42
0.0000000001
 43
0.0000000001
 12
1.0
 22
0.0
 32
0.0
 13
1.0
 23
0.0
 33
0.0
 40
0.0
 40
0.0
 40
0.0
 40
0.0
 40
0.1666666666666667
 40
0.1666666666666667
 40
0.1666666666666667
 40
0.1666666666666667
 40
0.3333333333333333
 40
0.3333333333333333
 40
0.3333333333333333
 40
0.3333333333333333
 40
0.5
 40
0.5
 40
0.5
 40
0.5
 40
0.6666666666666666
 40
0.6666666666666666
 40
0.6666666666666666
 40
0.6666666666666666
 40
1.0
 40
1.0
 40
1.0
 40
1.0
 10
-9.90546
 20
-5.72062
 30
0.0
 10
-9.90546
 20
-5.72062
 30
0.0
 10
-8.79038
 20
-4.65693
 30
0.0
 10
-8.79038
 20
-4.65693
 30
0.0
 10
-8.79038
 20
-4.65693
 30
0.0
 10
-8.79038
 20
-4.65693
 30
0.0
 10
-7.73489
 20
-5.3323
 30
0.0
 10
-7.73489
 20
-5.3323
 30
0.0
 10
-7.73489
 20
-5.3323
 30
0.0
 10
-7.73489
 20
-5.3323
 30
0.0
 10
-7.68406
 20
-6.29634
 30
0.0
 10
-7.68406
 20
-6.29634
 30
0.0
 10
-7.68406
 20
-6.29634
 30
0.0
 10
-7.68406
 20
-6.29634
 30
0.0
 10
-8.34551
 20
-6.29558
 30
0.0
 10
-8.34551
 20
-6.29558
 30
0.0
 10
-8.34551
 20
-6.29558
 30
0.0
 10
-8.34551
 20
-6.29558
 30
0.0
 10
-9.90546
 20
-5.72062
 30
0.0
 10
-9.90546
 20
-5.72062
 30
0.0
  0
SPLINE
  5
6D
330
1F
100
AcDbEntity
  8
Layer 1
 62
   177
370
     9
100
AcDbSpline
210
0.0
220
0.0
230
1.0
 70
    11
 71
     3
 72
    16
 73
    12
 74
     0
 42
0.0000000001
 43
0.0000000001
 12
1.0
 22
0.0
 32
0.0
 13
1.0
 23
0.0
 33
0.0
 40
0.0
 40
0.0
 40
0.0
 40
0.0
 40
0.25
 40
0.25
 40
0.25
 40
0.25
 40
0.5
 40
0.5
 40
0.5
 40
0.5
 40
1.0
 40
1.0
 40
1.0
 40
1.0
 10
-7.67168
 20
-3.65277
 30
0.0
 10
-7.67168
 20
-3.65277
 30
0.0
 10
-7.57635
 20
-5.45814
 30
0.0
 10
-7.57635
 20
-5.45814
 30
0.0
 10
-7.57635
 20
-5.45814
 30
0.0
 10
-7.57635
 20
-5.45814
 30
0.0
 10
-5.45202
 20
-4.80878
 30
0.0
 10
-5.45202
 20
-4.80878
 30
0.0
 10
-5.45202
 20
-4.80878
 30
0.0
 10
-5.45202
 20
-4.80878
 30
0.0
 10
-7.67168
 20
-3.65277
 30
0.0
 10
-7.67168
 20
-3.65277
 30
0.0
  0
SPLINE
  5
6E
330
1F
100
AcDbEntity
  8
Layer 1
 62
   177
370
     9
100
AcDbSpline
210
0.0
220
0.0
230
1.0
 70
    11
 71
     3
 72
    20
 73
    16
 74
     0
 42
0.0000000001
 43
0.0000000001
 12
1.0
 22
0.0
 32
0.0
 13
1.0
 23
0.0
 33
0.0
 40
0.0
 40
0.0
 40
0.0
 40
0.0
 40
0.2
 40
0.2
 40
0.2
 40
0.2
 40
0.4
 40
0.4
 40
0.4
 40
0.4
 40
0.6
 40
0.6
 40
0.6
 40
0.6
 40
1.0
 40
1.0
 40
1.0
 40
1.0
 10
-7.55662
 20
-5.61602
 30
0.0
 10
-7.55662
 20
-5.61602
 30
0.0
 10
-6.14122
 20
-5.18129
 30
0.0
 10
-6.14122
 20
-5.18129
 30
0.0
 10
-6.14122
 20
-5.18129
 30
0.0
 10
-6.14122
 20
-5.18129
 30
0.0
 10
-5.72045
 20
-6.29352
 30
0.0
 10
-5.72045
 20
-6.29352
 30
0.0
 10
-5.72045
 20
-6.29352
 30
0.0
 10
-5.72045
 20
-6.29352
 30
0.0
 10
-7.52629
 20
-6.29559
 30
0.0
 10
-7.52629
 20
-6.29559
 30
0.0
 10
-7.52629
 20
-6.29559
 30
0.0
 10
-7.52629
 20
-6.29559
 30
0.0
 10
-7.55662
 20
-5.61602
 30
0.0
 10
-7.55662
 20
-5.61602
 30
0.0
  0
SPLINE
  5
6F
330
1F
100
AcDbEntity
  8
Layer 1
 62
   177
370
     9
100
AcDbSpline
210
0.0
220
0.0
230
1.0
 70
    11
 71
     3
 72
    20
 73
    16
 74
     0
 42
0.0000000001
 43
0.0000000001
 12
1.0
 22
0.0
 32
0.0
 13
1.0
 23
0.0
 33
0.0
 40
0.0
 40
0.0
 40
0.0
 40
0.0
 40
0.2
 40
0.2
 40
0.2
 40
0.2
 40
0.4
 40
0.4
 40
0.4
 40
0.4
 40
0.6
 40
0.6
 40
0.6
 40
0.6
 40
1.0
 40
1.0
 40
1.0
 40
1.0
 10
-4.14524
 20
-4.58486
 30
0.0
 10
-4.14524
 20
-4.58486
 30
0.0
 10
-5.98984
 20
-5.14054
 30
0.0
 10
-5.98984
 20
-5.14054
 30
0.0
 10
-5.98984
 20
-5.14054
 30
0.0
 10
-5.98984
 20
-5.14054
 30
0.0
 10
-5.55382
 20
-6.29543
 30
0.0
 10
-5.55382
 20
-6.29543
 30
0.0
 10
-5.55382
 20
-6.29543
 30
0.0
 10
-5.55382
 20
-6.29543
 30
0.0
 10
-4.14633
 20
-6.29436
 30
0.0
 10
-4.14633
 20
-6.29436
 30
0.0
 10
-4.14633
 20
-6.29436
 30
0.0
 10
-4.14633
 20
-6.29436
 30
0.0
 10
-4.14524
 20
-4.58486
 30
0.0
 10
-4.14524
 20
-4.58486
 30
0.0
  0
SPLINE
  5
70
330
1F
100
AcDbEntity
  8
Layer 1
 62
   177
370
     9
100
AcDbSpline
210
0.0
220
0.0
230
1.0
 70
    11
 71
     3
 72
    16
 73
    12
 74
     0
 42
0.0000000001
 43
0.0000000001
 12
1.0
 22
0.0
 32
0.0
 13
1.0
 23
0.0
 33
0.0
 40
0.0
 40
0.0
 40
0.0
 40
0.0
 40
0.25
 40
0.25
 40
0.25
 40
0.25
 40
0.5
 40
0.5
 40
0.5
 40
0.5
 40
1.0
 40
1.0
 40
1.0
 40
1.0
 10
-10.50581
 20
-6.29539
 30
0.0
 10
-10.50581
 20
-6.29539
 30
0.0
 10
-10.03568
 20
-5.84407
 30
0.0
 10
-10.03568
 20
-5.84407
 30
0.0
 10
-10.03568
 20
-5.84407
 30
0.0
 10
-10.03568
 20
-5.84407
 30
0.0
 10
-8.81665
 20
-6.29543
 30
0.0
 10
-8.81665
 20
-6.29543
 30
0.0
 10
-8.81665
 20
-6.29543
 30
0.0
 10
-8.81665
 20
-6.29543
 30
0.0
 10
-10.50581
 20
-6.29539
 30
0.0
 10
-10.50581
 20
-6.29539
 30
0.0
  0
SPLINE
  5
71
330
1F
100
AcDbEntity
  8
Layer 1
 62
   242
100
AcDbSpline
210
0.0
220
0.0
230
1.0
 70
    11
 71
     3
 72
    20
 73
    16
 74
     0
 42
0.0000000001
 43
0.0000000001
 12
1.0
 22
0.0
 32
0.0
 13
1.0
 23
0.0
 33
0.0
 40
0.0
 40
0.0
 40
0.0
 40
0.0
 40
0.2
 40
0.2
 40
0.2
 40
0.2
 40
0.4
 40
0.4
 40
0.4
 40
0.4
 40
0.6
 40
0.6
 40
0.6
 40
0.6
 40
1.0
 40
1.0
 40
1.0
 40
1.0
 10
-2.44761
 20
12.16316
 30
0.0
 10
-2.44761
 20
12.16316
 30
0.0
 10
4.41655
 20
12.16316
 30
0.0
 10
4.41655
 20
12.16316
 30
0.0
 10
4.41655
 20
12.16316
 30
0.0
 10
4.41655
 20
12.16316
 30
0.0
 10
4.39715
 20
-6.45146
 30
0.0
 10
4.39715
 20
-6.45146
 30
0.0
 10
4.39715
 20
-6.45146
 30
0.0
 10
4.39715
 20
-6.45146
 30
0.0
 10
-2.42822
 20
-6.45146
 30
0.0
 10
-2.42822
 20
-6.45146
 30
0.0
 10
-2.42822
 20
-6.45146
 30
0.0
 10
-2.42822
 20
-6.45146
 30
0.0
 10
-2.44761
 20
12.16316
 30
0.0
 10
-2.44761
 20
12.16316
 30
0.0
  0
SPLINE
  5
72
330
1F
100
AcDbEntity
  8
Layer 1
 62
   242
100
AcDbSpline
210
0.0
220
0.0
230
1.0
 70
    11
 71
     3
 72
    20
 73
    16
 74
     0
 42
0.0000000001
 43
0.0000000001
 12
1.0
 22
0.0
 32
0.0
 13
1.0
 23
0.0
 33
0.0
 40
0.0
 40
0.0
 40
0.0
 40
0.0
 40
0.2
 40
0.2
 40
0.2
 40
0.2
 40
0.4
 40
0.4
 40
0.4
 40
0.4
 40
0.6
 40
0.6
 40
0.6
 40
0.6
 40
1.0
 40
1.0
 40
1.0
 40
1.0
 10
-2.26988
 20
12.00793
 30
0.0
 10
-2.26988
 20
12.00793
 30
0.0
 10
-2.27079
 20
10.78784
 30
0.0
 10
-2.27079
 20
10.78784
 30
0.0
 10
-2.27079
 20
10.78784
 30
0.0
 10
-2.27079
 20
10.78784
 30
0.0
 10
-1.55466
 20
10.47962
 30
0.0
 10
-1.55466
 20
10.47962
 30
0.0
 10
-1.55466
 20
10.47962
 30
0.0
 10
-1.55466
 20
10.47962
 30
0.0
 10
-0.29183
 20
12.0078
 30
0.0
 10
-0.29183
 20
12.0078
 30
0.0
 10
-0.29183
 20
12.0078
 30
0.0
 10
-0.29183
 20
12.0078
 30
0.0
 10
-2.26988
 20
12.00793
 30
0.0
 10
-2.26988
 20
12.00793
 30
0.0
  0
SPLINE
  5
73
330
1F
100
AcDbEntity
  8
Layer 1
 62
   242
100
AcDbSpline
210
0.0
220
0.0
230
1.0
 70
    11
 71
     3
 72
    24
 73
    20
 74
     0
 42
0.0000000001
 43
0.0000000001
 12
1.0
 22
0.0
 32
0.0
 13
1.0
 23
0.0
 33
0.0
 40
0.0
 40
0.0
 40
0.0
 40
0.0
 40
0.1666666666666667
 40
0.1666666666666667
 40
0.1666666666666667
 40
0.1666666666666667
 40
0.3333333333333333
 40
0.3333333333333333
 40
0.3333333333333333
 40
0.3333333333333333
 40
0.5
 40
0.5
 40
0.5
 40
0.5
 40
0.6666666666666666
 40
0.6666666666666666
 40
0.6666666666666666
 40
0.6666666666666666
 40
1.0
 40
1.0
 40
1.0
 40
1.0
 10
-0.07687
 20
12.00748
 30
0.0
 10
-0.07687
 20
12.00748
 30
0.0
 10
-0.54873
 20
11.43452
 30
0.0
 10
-0.54873
 20
11.43452
 30
0.0
 10
-0.54873
 20
11.43452
 30
0.0
 10
-0.54873
 20
11.43452
 30
0.0
 10
0.411
 20
10.34157
 30
0.0
 10
0.411
 20
10.34157
 30
0.0
 10
0.411
 20
10.34157
 30
0.0
 10
0.411
 20
10.34157
 30
0.0
 10
0.61532
 20
10.47185
 30
0.0
 10
0.61532
 20
10.47185
 30
0.0
 10
0.61532
 20
10.47185
 30
0.0
 10
0.61532
 20
10.47185
 30
0.0
 10
0.70156
 20
12.00749
 30
0.0
 10
0.70156
 20
12.00749
 30
0.0
 10
0.70156
 20
12.00749
 30
0.0
 10
0.70156
 20
12.00749
 30
0.0
 10
-0.07687
 20
12.00748
 30
0.0
 10
-0.07687
 20
12.00748
 30
0.0
  0
SPLINE
  5
74
330
1F
100
AcDbEntity
  8
Layer 1
 62
   242
100
AcDbSpline
210
0.0
220
0.0
230
1.0
 70
    11
 71
     3
 72
    20
 73
    16
 74
     0
 42
0.0000000001
 43
0.0000000001
 12
1.0
 22
0.0
 32
0.0
 13
1.0
 23
0.0
 33
0.0
 40
0.0
 40
0.0
 40
0.0
 40
0.0
 40
0.2
 40
0.2
 40
0.2
 40
0.2
 40
0.4
 40
0.4
 40
0.4
 40
0.4
 40
0.6
 40
0.6
 40
0.6
 40
0.6
 40
1.0
 40
1.0
 40
1.0
 40
1.0
 10
-0.65818
 20
11.30697
 30
0.0
 10
-0.65818
 20
11.30697
 30
0.0
 10
-1.3906
 20
10.42306
 30
0.0
 10
-1.3906
 20
10.42306
 30
0.0
 10
-1.3906
 20
10.42306
 30
0.0
 10
-1.3906
 20
10.42306
 30
0.0
 10
-0.24688
 20
9.91875
 30
0.0
 10
-0.24688
 20
9.91875
 30
0.0
 10
-0.24688
 20
9.91875
 30
0.0
 10
-0.24688
 20
9.91875
 30
0.0
 10
0.28279
 20
10.26281
 30
0.0
 10
0.28279
 20
10.26281
 30
0.0
 10
0.28279
 20
10.26281
 30
0.0
 10
0.28279
 20
10.26281
 30
0.0
 10
-0.65818
 20
11.30697
 30
0.0
 10
-0.65818
 20
11.30697
 30
0.0
  0
SPLINE
  5
75
330
1F
100
AcDbEntity
  8
Layer 1
 62
   242
100
AcDbSpline
210
0.0
220
0.0
230
1.0
 70
    11
 71
     3
 72
    16
 73
    12
 74
     0
 42
0.0000000001
 43
0.0000000001
 12
1.0
 22
0.0
 32
0.0
 13
1.0
 23
0.0
 33
0.0
 40
0.0
 40
0.0
 40
0.0
 40
0.0
 40
0.25
 40
0.25
 40
0.25
 40
0.25
 40
0.5
 40
0.5
 40
0.5
 40
0.5
 40
1.0
 40
1.0
 40
1.0
 40
1.0
 10
-2.27058
 20
10.61187
 30
0.0
 10
-2.27058
 20
10.61187
 30
0.0
 10
-2.27026
 20
8.60248
 30
0.0
 10
-2.27026
 20
8.60248
 30
0.0
 10
-2.27026
 20
8.60248
 30
0.0
 10
-2.27026
 20
8.60248
 30
0.0
 10
-0.40992
 20
9.8132
 30
0.0
 10
-0.40992
 20
9.8132
 30
0.0
 10
-0.40992
 20
9.8132
 30
0.0
 10
-0.40992
 20
9.8132
 30
0.0
 10
-2.27058
 20
10.61187
 30
0.0
 10
-2.27058
 20
10.61187
 30
0.0
  0
SPLINE
  5
76
330
1F
100
AcDbEntity
  8
Layer 1
 62
   242
100
AcDbSpline
210
0.0
220
0.0
230
1.0
 70
    11
 71
     3
 72
    20
 73
    16
 74
     0
 42
0.0000000001
 43
0.0000000001
 12
1.0
 22
0.0
 32
0.0
 13
1.0
 23
0.0
 33
0.0
 40
0.0
 40
0.0
 40
0.0
 40
0.0
 40
0.2
 40
0.2
 40
0.2
 40
0.2
 40
0.4
 40
0.4
 40
0.4
 40
0.4
 40
0.6
 40
0.6
 40
0.6
 40
0.6
 40
1.0
 40
1.0
 40
1.0
 40
1.0
 10
-0.9976
 20
9.23328
 30
0.0
 10
-0.9976
 20
9.23328
 30
0.0
 10
0.60995
 20
10.27049
 30
0.0
 10
0.60995
 20
10.27049
 30
0.0
 10
0.60995
 20
10.27049
 30
0.0
 10
0.60995
 20
10.27049
 30
0.0
 10
0.51081
 20
8.55259
 30
0.0
 10
0.51081
 20
8.55259
 30
0.0
 10
0.51081
 20
8.55259
 30
0.0
 10
0.51081
 20
8.55259
 30
0.0
 10
-0.81479
 20
9.01474
 30
0.0
 10
-0.81479
 20
9.01474
 30
0.0
 10
-0.81479
 20
9.01474
 30
0.0
 10
-0.81479
 20
9.01474
 30
0.0
 10
-0.9976
 20
9.23328
 30
0.0
 10
-0.9976
 20
9.23328
 30
0.0
  0
SPLINE
  5
77
330
1F
100
AcDbEntity
  8
Layer 1
 62
   242
100
AcDbSpline
210
0.0
220
0.0
230
1.0
 70
    11
 71
     3
 72
    20
 73
    16
 74
     0
 42
0.0000000001
 43
0.0000000001
 12
1.0
 22
0.0
 32
0.0
 13
1.0
 23
0.0
 33
0.0
 40
0.0
 40
0.0
 40
0.0
 40
0.0
 40
0.2
 40
0.2
 40
0.2
 40
0.2
 40
0.4
 40
0.4
 40
0.4
 40
0.4
 40
0.6
 40
0.6
 40
0.6
 40
0.6
 40
1.0
 40
1.0
 40
1.0
 40
1.0
 10
0.865
 20
12.00741
 30
0.0
 10
0.865
 20
12.00741
 30
0.0
 10
2.66192
 20
12.00804
 30
0.0
 10
2.66192
 20
12.00804
 30
0.0
 10
2.66192
 20
12.00804
 30
0.0
 10
2.66192
 20
12.00804
 30
0.0
 10
2.24604
 20
10.90195
 30
0.0
 10
2.24604
 20
10.90195
 30
0.0
 10
2.24604
 20
10.90195
 30
0.0
 10
2.24604
 20
10.90195
 30
0.0
 10
0.82104
 20
11.33289
 30
0.0
 10
0.82104
 20
11.33289
 30
0.0
 10
0.82104
 20
11.33289
 30
0.0
 10
0.82104
 20
11.33289
 30
0.0
 10
0.865
 20
12.00741
 30
0.0
 10
0.865
 20
12.00741
 30
0.0
  0
SPLINE
  5
78
330
1F
100
AcDbEntity
  8
Layer 1
 62
   242
100
AcDbSpline
210
0.0
220
0.0
230
1.0
 70
    11
 71
     3
 72
    20
 73
    16
 74
     0
 42
0.0000000001
 43
0.0000000001
 12
1.0
 22
0.0
 32
0.0
 13
1.0
 23
0.0
 33
0.0
 40
0.0
 40
0.0
 40
0.0
 40
0.0
 40
0.2
 40
0.2
 40
0.2
 40
0.2
 40
0.4
 40
0.4
 40
0.4
 40
0.4
 40
0.6
 40
0.6
 40
0.6
 40
0.6
 40
1.0
 40
1.0
 40
1.0
 40
1.0
 10
2.83348
 20
12.00708
 30
0.0
 10
2.83348
 20
12.00708
 30
0.0
 10
2.39949
 20
10.85599
 30
0.0
 10
2.39949
 20
10.85599
 30
0.0
 10
2.39949
 20
10.85599
 30
0.0
 10
2.39949
 20
10.85599
 30
0.0
 10
4.24037
 20
10.2999
 30
0.0
 10
4.24037
 20
10.2999
 30
0.0
 10
4.24037
 20
10.2999
 30
0.0
 10
4.24037
 20
10.2999
 30
0.0
 10
4.24107
 20
12.00794
 30
0.0
 10
4.24107
 20
12.00794
 30
0.0
 10
4.24107
 20
12.00794
 30
0.0
 10
4.24107
 20
12.00794
 30
0.0
 10
2.83348
 20
12.00708
 30
0.0
 10
2.83348
 20
12.00708
 30
0.0
  0
SPLINE
  5
79
330
1F
100
AcDbEntity
  8
Layer 1
 62
   242
100
AcDbSpline
210
0.0
220
0.0
230
1.0
 70
    11
 71
     3
 72
    16
 73
    12
 74
     0
 42
0.0000000001
 43
0.0000000001
 12
1.0
 22
0.0
 32
0.0
 13
1.0
 23
0.0
 33
0.0
 40
0.0
 40
0.0
 40
0.0
 40
0.0
 40
0.25
 40
0.25
 40
0.25
 40
0.25
 40
0.5
 40
0.5
 40
0.5
 40
0.5
 40
1.0
 40
1.0
 40
1.0
 40
1.0
 10
0.81768
 20
11.16481
 30
0.0
 10
0.81768
 20
11.16481
 30
0.0
 10
0.72052
 20
9.3766
 30
0.0
 10
0.72052
 20
9.3766
 30
0.0
 10
0.72052
 20
9.3766
 30
0.0
 10
0.72052
 20
9.3766
 30
0.0
 10
2.92301
 20
10.52871
 30
0.0
 10
2.92301
 20
10.52871
 30
0.0
 10
2.92301
 20
10.52871
 30
0.0
 10
2.92301
 20
10.52871
 30
0.0
 10
0.81768
 20
11.16481
 30
0.0
 10
0.81768
 20
11.16481
 30
0.0
  0
SPLINE
  5
7A
330
1F
100
AcDbEntity
  8
Layer 1
 62
   242
100
AcDbSpline
210
0.0
220
0.0
230
1.0
 70
    11
 71
     3
 72
    24
 73
    20
 74
     0
 42
0.0000000001
 43
0.0000000001
 12
1.0
 22
0.0
 32
0.0
 13
1.0
 23
0.0
 33
0.0
 40
0.0
 40
0.0
 40
0.0
 40
0.0
 40
0.1666666666666667
 40
0.1666666666666667
 40
0.1666666666666667
 40
0.1666666666666667
 40
0.3333333333333333
 40
0.3333333333333333
 40
0.3333333333333333
 40
0.3333333333333333
 40
0.5
 40
0.5
 40
0.5
 40
0.5
 40
0.6666666666666666
 40
0.6666666666666666
 40
0.6666666666666666
 40
0.6666666666666666
 40
1.0
 40
1.0
 40
1.0
 40
1.0
 10
3.14321
 20
10.46117
 30
0.0
 10
3.14321
 20
10.46117
 30
0.0
 10
4.24096
 20
10.13529
 30
0.0
 10
4.24096
 20
10.13529
 30
0.0
 10
4.24096
 20
10.13529
 30
0.0
 10
4.24096
 20
10.13529
 30
0.0
 10
4.24203
 20
8.02724
 30
0.0
 10
4.24203
 20
8.02724
 30
0.0
 10
4.24203
 20
8.02724
 30
0.0
 10
4.24203
 20
8.02724
 30
0.0
 10
4.09489
 20
7.93486
 30
0.0
 10
4.09489
 20
7.93486
 30
0.0
 10
4.09489
 20
7.93486
 30
0.0
 10
4.09489
 20
7.93486
 30
0.0
 10
2.26939
 20
10.003
 30
0.0
 10
2.26939
 20
10.003
 30
0.0
 10
2.26939
 20
10.003
 30
0.0
 10
2.26939
 20
10.003
 30
0.0
 10
3.14321
 20
10.46117
 30
0.0
 10
3.14321
 20
10.46117
 30
0.0
  0
SPLINE
  5
7B
330
1F
100
AcDbEntity
  8
Layer 1
 62
   242
100
AcDbSpline
210
0.0
220
0.0
230
1.0
 70
    11
 71
     3
 72
    24
 73
    20
 74
     0
 42
0.0000000001
 43
0.0000000001
 12
1.0
 22
0.0
 32
0.0
 13
1.0
 23
0.0
 33
0.0
 40
0.0
 40
0.0
 40
0.0
 40
0.0
 40
0.1666666666666667
 40
0.1666666666666667
 40
0.1666666666666667
 40
0.1666666666666667
 40
0.3333333333333333
 40
0.3333333333333333
 40
0.3333333333333333
 40
0.3333333333333333
 40
0.5
 40
0.5
 40
0.5
 40
0.5
 40
0.6666666666666666
 40
0.6666666666666666
 40
0.6666666666666666
 40
0.6666666666666666
 40
1.0
 40
1.0
 40
1.0
 40
1.0
 10
0.70469
 20
9.18989
 30
0.0
 10
0.70469
 20
9.18989
 30
0.0
 10
2.12268
 20
9.92543
 30
0.0
 10
2.12268
 20
9.92543
 30
0.0
 10
2.12268
 20
9.92543
 30
0.0
 10
2.12268
 20
9.92543
 30
0.0
 10
2.79428
 20
9.16113
 30
0.0
 10
2.79428
 20
9.16113
 30
0.0
 10
2.79428
 20
9.16113
 30
0.0
 10
2.79428
 20
9.16113
 30
0.0
 10
1.87917
 20
8.06704
 30
0.0
 10
1.87917
 20
8.06704
 30
0.0
 10
1.87917
 20
8.06704
 30
0.0
 10
1.87917
 20
8.06704
 30
0.0
 10
0.66618
 20
8.49295
 30
0.0
 10
0.66618
 20
8.49295
 30
0.0
 10
0.66618
 20
8.49295
 30
0.0
 10
0.66618
 20
8.49295
 30
0.0
 10
0.70469
 20
9.18989
 30
0.0
 10
0.70469
 20
9.18989
 30
0.0
  0
SPLINE
  5
7C
330
1F
100
AcDbEntity
  8
Layer 1
 62
   242
100
AcDbSpline
210
0.0
220
0.0
230
1.0
 70
    11
 71
     3
 72
    20
 73
    16
 74
     0
 42
0.0000000001
 43
0.0000000001
 12
1.0
 22
0.0
 32
0.0
 13
1.0
 23
0.0
 33
0.0
 40
0.0
 40
0.0
 40
0.0
 40
0.0
 40
0.2
 40
0.2
 40
0.2
 40
0.2
 40
0.4
 40
0.4
 40
0.4
 40
0.4
 40
0.6
 40
0.6
 40
0.6
 40
0.6
 40
1.0
 40
1.0
 40
1.0
 40
1.0
 10
2.8932
 20
9.04147
 30
0.0
 10
2.8932
 20
9.04147
 30
0.0
 10
1.70588
 20
7.60241
 30
0.0
 10
1.70588
 20
7.60241
 30
0.0
 10
1.70588
 20
7.60241
 30
0.0
 10
1.70588
 20
7.60241
 30
0.0
 10
2.80442
 20
7.12951
 30
0.0
 10
2.80442
 20
7.12951
 30
0.0
 10
2.80442
 20
7.12951
 30
0.0
 10
2.80442
 20
7.12951
 30
0.0
 10
3.95186
 20
7.84966
 30
0.0
 10
3.95186
 20
7.84966
 30
0.0
 10
3.95186
 20
7.84966
 30
0.0
 10
3.95186
 20
7.84966
 30
0.0
 10
2.8932
 20
9.04147
 30
0.0
 10
2.8932
 20
9.04147
 30
0.0
  0
SPLINE
  5
7D
330
1F
100
AcDbEntity
  8
Layer 1
 62
   242
100
AcDbSpline
210
0.0
220
0.0
230
1.0
 70
    11
 71
     3
 72
    16
 73
    12
 74
     0
 42
0.0000000001
 43
0.0000000001
 12
1.0
 22
0.0
 32
0.0
 13
1.0
 23
0.0
 33
0.0
 40
0.0
 40
0.0
 40
0.0
 40
0.0
 40
0.25
 40
0.25
 40
0.25
 40
0.25
 40
0.5
 40
0.5
 40
0.5
 40
0.5
 40
1.0
 40
1.0
 40
1.0
 40
1.0
 10
4.2415
 20
7.83807
 30
0.0
 10
4.2415
 20
7.83807
 30
0.0
 10
2.9638
 20
7.05389
 30
0.0
 10
2.9638
 20
7.05389
 30
0.0
 10
2.9638
 20
7.05389
 30
0.0
 10
2.9638
 20
7.05389
 30
0.0
 10
4.24096
 20
6.50882
 30
0.0
 10
4.24096
 20
6.50882
 30
0.0
 10
4.24096
 20
6.50882
 30
0.0
 10
4.24096
 20
6.50882
 30
0.0
 10
4.2415
 20
7.83807
 30
0.0
 10
4.2415
 20
7.83807
 30
0.0
  0
SPLINE
  5
7E
330
1F
100
AcDbEntity
  8
Layer 1
 62
   242
100
AcDbSpline
210
0.0
220
0.0
230
1.0
 70
    11
 71
     3
 72
    20
 73
    16
 74
     0
 42
0.0000000001
 43
0.0000000001
 12
1.0
 22
0.0
 32
0.0
 13
1.0
 23
0.0
 33
0.0
 40
0.0
 40
0.0
 40
0.0
 40
0.0
 40
0.2
 40
0.2
 40
0.2
 40
0.2
 40
0.4
 40
0.4
 40
0.4
 40
0.4
 40
0.6
 40
0.6
 40
0.6
 40
0.6
 40
1.0
 40
1.0
 40
1.0
 40
1.0
 10
1.59441
 20
7.46971
 30
0.0
 10
1.59441
 20
7.46971
 30
0.0
 10
1.07051
 20
6.84093
 30
0.0
 10
1.07051
 20
6.84093
 30
0.0
 10
1.07051
 20
6.84093
 30
0.0
 10
1.07051
 20
6.84093
 30
0.0
 10
1.94746
 20
5.83533
 30
0.0
 10
1.94746
 20
5.83533
 30
0.0
 10
1.94746
 20
5.83533
 30
0.0
 10
1.94746
 20
5.83533
 30
0.0
 10
4.24111
 20
6.33376
 30
0.0
 10
4.24111
 20
6.33376
 30
0.0
 10
4.24111
 20
6.33376
 30
0.0
 10
4.24111
 20
6.33376
 30
0.0
 10
1.59441
 20
7.46971
 30
0.0
 10
1.59441
 20
7.46971
 30
0.0
  0
SPLINE
  5
7F
330
1F
100
AcDbEntity
  8
Layer 1
 62
   242
100
AcDbSpline
210
0.0
220
0.0
230
1.0
 70
    11
 71
     3
 72
    20
 73
    16
 74
     0
 42
0.0000000001
 43
0.0000000001
 12
1.0
 22
0.0
 32
0.0
 13
1.0
 23
0.0
 33
0.0
 40
0.0
 40
0.0
 40
0.0
 40
0.0
 40
0.2
 40
0.2
 40
0.2
 40
0.2
 40
0.4
 40
0.4
 40
0.4
 40
0.4
 40
0.6
 40
0.6
 40
0.6
 40
0.6
 40
1.0
 40
1.0
 40
1.0
 40
1.0
 10
0.11074
 20
7.72091
 30
0.0
 10
0.11074
 20
7.72091
 30
0.0
 10
-0.46571
 20
6.23374
 30
0.0
 10
-0.46571
 20
6.23374
 30
0.0
 10
-0.46571
 20
6.23374
 30
0.0
 10
-0.46571
 20
6.23374
 30
0.0
 10
0.60999
 20
5.54586
 30
0.0
 10
0.60999
 20
5.54586
 30
0.0
 10
0.60999
 20
5.54586
 30
0.0
 10
0.60999
 20
5.54586
 30
0.0
 10
1.77489
 20
5.79904
 30
0.0
 10
1.77489
 20
5.79904
 30
0.0
 10
1.77489
 20
5.79904
 30
0.0
 10
1.77489
 20
5.79904
 30
0.0
 10
0.11074
 20
7.72091
 30
0.0
 10
0.11074
 20
7.72091
 30
0.0
  0
SPLINE
  5
80
330
1F
100
AcDbEntity
  8
Layer 1
 62
   242
100
AcDbSpline
210
0.0
220
0.0
230
1.0
 70
    11
 71
     3
 72
    16
 73
    12
 74
     0
 42
0.0000000001
 43
0.0000000001
 12
1.0
 22
0.0
 32
0.0
 13
1.0
 23
0.0
 33
0.0
 40
0.0
 40
0.0
 40
0.0
 40
0.0
 40
0.25
 40
0.25
 40
0.25
 40
0.25
 40
0.5
 40
0.5
 40
0.5
 40
0.5
 40
1.0
 40
1.0
 40
1.0
 40
1.0
 10
-0.59161
 20
8.76209
 30
0.0
 10
-0.59161
 20
8.76209
 30
0.0
 10
0.96846
 20
6.96691
 30
0.0
 10
0.96846
 20
6.96691
 30
0.0
 10
0.96846
 20
6.96691
 30
0.0
 10
0.96846
 20
6.96691
 30
0.0
 10
1.7778
 20
7.94011
 30
0.0
 10
1.7778
 20
7.94011
 30
0.0
 10
1.7778
 20
7.94011
 30
0.0
 10
1.7778
 20
7.94011
 30
0.0
 10
-0.59161
 20
8.76209
 30
0.0
 10
-0.59161
 20
8.76209
 30
0.0
  0
SPLINE
  5
81
330
1F
100
AcDbEntity
  8
Layer 1
 62
   242
100
AcDbSpline
210
0.0
220
0.0
230
1.0
 70
    11
 71
     3
 72
    24
 73
    20
 74
     0
 42
0.0000000001
 43
0.0000000001
 12
1.0
 22
0.0
 32
0.0
 13
1.0
 23
0.0
 33
0.0
 40
0.0
 40
0.0
 40
0.0
 40
0.0
 40
0.1666666666666667
 40
0.1666666666666667
 40
0.1666666666666667
 40
0.1666666666666667
 40
0.3333333333333333
 40
0.3333333333333333
 40
0.3333333333333333
 40
0.3333333333333333
 40
0.5
 40
0.5
 40
0.5
 40
0.5
 40
0.6666666666666666
 40
0.6666666666666666
 40
0.6666666666666666
 40
0.6666666666666666
 40
1.0
 40
1.0
 40
1.0
 40
1.0
 10
-2.26972
 20
8.40419
 30
0.0
 10
-2.26972
 20
8.40419
 30
0.0
 10
-2.27177
 20
7.55724
 30
0.0
 10
-2.27177
 20
7.55724
 30
0.0
 10
-2.27177
 20
7.55724
 30
0.0
 10
-2.27177
 20
7.55724
 30
0.0
 10
-0.12319
 20
7.55603
 30
0.0
 10
-0.12319
 20
7.55603
 30
0.0
 10
-0.12319
 20
7.55603
 30
0.0
 10
-0.12319
 20
7.55603
 30
0.0
 10
-0.01056
 20
7.849
 30
0.0
 10
-0.01056
 20
7.849
 30
0.0
 10
-0.01056
 20
7.849
 30
0.0
 10
-0.01056
 20
7.849
 30
0.0
 10
-1.13274
 20
9.13912
 30
0.0
 10
-1.13274
 20
9.13912
 30
0.0
 10
-1.13274
 20
9.13912
 30
0.0
 10
-1.13274
 20
9.13912
 30
0.0
 10
-2.26972
 20
8.40419
 30
0.0
 10
-2.26972
 20
8.40419
 30
0.0
  0
SPLINE
  5
82
330
1F
100
AcDbEntity
  8
Layer 1
 62
   242
100
AcDbSpline
210
0.0
220
0.0
230
1.0
 70
    11
 71
     3
 72
    20
 73
    16
 74
     0
 42
0.0000000001
 43
0.0000000001
 12
1.0
 22
0.0
 32
0.0
 13
1.0
 23
0.0
 33
0.0
 40
0.0
 40
0.0
 40
0.0
 40
0.0
 40
0.2
 40
0.2
 40
0.2
 40
0.2
 40
0.4
 40
0.4
 40
0.4
 40
0.4
 40
0.6
 40
0.6
 40
0.6
 40
0.6
 40
1.0
 40
1.0
 40
1.0
 40
1.0
 10
-2.27026
 20
7.38995
 30
0.0
 10
-2.27026
 20
7.38995
 30
0.0
 10
-0.18506
 20
7.39298
 30
0.0
 10
-0.18506
 20
7.39298
 30
0.0
 10
-0.18506
 20
7.39298
 30
0.0
 10
-0.18506
 20
7.39298
 30
0.0
 10
-1.29273
 20
4.53725
 30
0.0
 10
-1.29273
 20
4.53725
 30
0.0
 10
-1.29273
 20
4.53725
 30
0.0
 10
-1.29273
 20
4.53725
 30
0.0
 10
-2.2731
 20
5.97444
 30
0.0
 10
-2.2731
 20
5.97444
 30
0.0
 10
-2.2731
 20
5.97444
 30
0.0
 10
-2.2731
 20
5.97444
 30
0.0
 10
-2.27026
 20
7.38995
 30
0.0
 10
-2.27026
 20
7.38995
 30
0.0
  0
SPLINE
  5
83
330
1F
100
AcDbEntity
  8
Layer 1
 62
   242
100
AcDbSpline
210
0.0
220
0.0
230
1.0
 70
    11
 71
     3
 72
    20
 73
    16
 74
     0
 42
0.0000000001
 43
0.0000000001
 12
1.0
 22
0.0
 32
0.0
 13
1.0
 23
0.0
 33
0.0
 40
0.0
 40
0.0
 40
0.0
 40
0.0
 40
0.2
 40
0.2
 40
0.2
 40
0.2
 40
0.4
 40
0.4
 40
0.4
 40
0.4
 40
0.6
 40
0.6
 40
0.6
 40
0.6
 40
1.0
 40
1.0
 40
1.0
 40
1.0
 10
-0.5188
 20
6.08121
 30
0.0
 10
-0.5188
 20
6.08121
 30
0.0
 10
-1.18627
 20
4.38052
 30
0.0
 10
-1.18627
 20
4.38052
 30
0.0
 10
-1.18627
 20
4.38052
 30
0.0
 10
-1.18627
 20
4.38052
 30
0.0
 10
-0.4939
 20
3.37382
 30
0.0
 10
-0.4939
 20
3.37382
 30
0.0
 10
-0.4939
 20
3.37382
 30
0.0
 10
-0.4939
 20
3.37382
 30
0.0
 10
0.94656
 20
5.13117
 30
0.0
 10
0.94656
 20
5.13117
 30
0.0
 10
0.94656
 20
5.13117
 30
0.0
 10
0.94656
 20
5.13117
 30
0.0
 10
-0.5188
 20
6.08121
 30
0.0
 10
-0.5188
 20
6.08121
 30
0.0
  0
SPLINE
  5
84
330
1F
100
AcDbEntity
  8
Layer 1
 62
   242
100
AcDbSpline
210
0.0
220
0.0
230
1.0
 70
    11
 71
     3
 72
    20
 73
    16
 74
     0
 42
0.0000000001
 43
0.0000000001
 12
1.0
 22
0.0
 32
0.0
 13
1.0
 23
0.0
 33
0.0
 40
0.0
 40
0.0
 40
0.0
 40
0.0
 40
0.2
 40
0.2
 40
0.2
 40
0.2
 40
0.4
 40
0.4
 40
0.4
 40
0.4
 40
0.6
 40
0.6
 40
0.6
 40
0.6
 40
1.0
 40
1.0
 40
1.0
 40
1.0
 10
0.80409
 20
5.41908
 30
0.0
 10
0.80409
 20
5.41908
 30
0.0
 10
2.8261
 20
5.86768
 30
0.0
 10
2.8261
 20
5.86768
 30
0.0
 10
2.8261
 20
5.86768
 30
0.0
 10
2.8261
 20
5.86768
 30
0.0
 10
3.75145
 20
4.51016
 30
0.0
 10
3.75145
 20
4.51016
 30
0.0
 10
3.75145
 20
4.51016
 30
0.0
 10
3.75145
 20
4.51016
 30
0.0
 10
3.03847
 20
3.96106
 30
0.0
 10
3.03847
 20
3.96106
 30
0.0
 10
3.03847
 20
3.96106
 30
0.0
 10
3.03847
 20
3.96106
 30
0.0
 10
0.80409
 20
5.41908
 30
0.0
 10
0.80409
 20
5.41908
 30
0.0
  0
SPLINE
  5
85
330
1F
100
AcDbEntity
  8
Layer 1
 62
   242
100
AcDbSpline
210
0.0
220
0.0
230
1.0
 70
    11
 71
     3
 72
    20
 73
    16
 74
     0
 42
0.0000000001
 43
0.0000000001
 12
1.0
 22
0.0
 32
0.0
 13
1.0
 23
0.0
 33
0.0
 40
0.0
 40
0.0
 40
0.0
 40
0.0
 40
0.2
 40
0.2
 40
0.2
 40
0.2
 40
0.4
 40
0.4
 40
0.4
 40
0.4
 40
0.6
 40
0.6
 40
0.6
 40
0.6
 40
1.0
 40
1.0
 40
1.0
 40
1.0
 10
2.97128
 20
5.89497
 30
0.0
 10
2.97128
 20
5.89497
 30
0.0
 10
4.24093
 20
6.17189
 30
0.0
 10
4.24093
 20
6.17189
 30
0.0
 10
4.24093
 20
6.17189
 30
0.0
 10
4.24093
 20
6.17189
 30
0.0
 10
4.24137
 20
4.8924
 30
0.0
 10
4.24137
 20
4.8924
 30
0.0
 10
4.24137
 20
4.8924
 30
0.0
 10
4.24137
 20
4.8924
 30
0.0
 10
3.8804
 20
4.61692
 30
0.0
 10
3.8804
 20
4.61692
 30
0.0
 10
3.8804
 20
4.61692
 30
0.0
 10
3.8804
 20
4.61692
 30
0.0
 10
2.97128
 20
5.89497
 30
0.0
 10
2.97128
 20
5.89497
 30
0.0
  0
SPLINE
  5
86
330
1F
100
AcDbEntity
  8
Layer 1
 62
   242
100
AcDbSpline
210
0.0
220
0.0
230
1.0
 70
    11
 71
     3
 72
    20
 73
    16
 74
     0
 42
0.0000000001
 43
0.0000000001
 12
1.0
 22
0.0
 32
0.0
 13
1.0
 23
0.0
 33
0.0
 40
0.0
 40
0.0
 40
0.0
 40
0.0
 40
0.2
 40
0.2
 40
0.2
 40
0.2
 40
0.4
 40
0.4
 40
0.4
 40
0.4
 40
0.6
 40
0.6
 40
0.6
 40
0.6
 40
1.0
 40
1.0
 40
1.0
 40
1.0
 10
-2.27048
 20
5.68076
 30
0.0
 10
-2.27048
 20
5.68076
 30
0.0
 10
-2.27007
 20
2.47881
 30
0.0
 10
-2.27007
 20
2.47881
 30
0.0
 10
-2.27007
 20
2.47881
 30
0.0
 10
-2.27007
 20
2.47881
 30
0.0
 10
-1.29885
 20
2.38794
 30
0.0
 10
-1.29885
 20
2.38794
 30
0.0
 10
-1.29885
 20
2.38794
 30
0.0
 10
-1.29885
 20
2.38794
 30
0.0
 10
-0.60582
 20
3.24517
 30
0.0
 10
-0.60582
 20
3.24517
 30
0.0
 10
-0.60582
 20
3.24517
 30
0.0
 10
-0.60582
 20
3.24517
 30
0.0
 10
-2.27048
 20
5.68076
 30
0.0
 10
-2.27048
 20
5.68076
 30
0.0
  0
SPLINE
  5
87
330
1F
100
AcDbEntity
  8
Layer 1
 62
   242
100
AcDbSpline
210
0.0
220
0.0
230
1.0
 70
    11
 71
     3
 72
    24
 73
    20
 74
     0
 42
0.0000000001
 43
0.0000000001
 12
1.0
 22
0.0
 32
0.0
 13
1.0
 23
0.0
 33
0.0
 40
0.0
 40
0.0
 40
0.0
 40
0.0
 40
0.1666666666666667
 40
0.1666666666666667
 40
0.1666666666666667
 40
0.1666666666666667
 40
0.3333333333333333
 40
0.3333333333333333
 40
0.3333333333333333
 40
0.3333333333333333
 40
0.5
 40
0.5
 40
0.5
 40
0.5
 40
0.6666666666666666
 40
0.6666666666666666
 40
0.6666666666666666
 40
0.6666666666666666
 40
1.0
 40
1.0
 40
1.0
 40
1.0
 10
0.47438
 20
4.30559
 30
0.0
 10
0.47438
 20
4.30559
 30
0.0
 10
1.08053
 20
5.04914
 30
0.0
 10
1.08053
 20
5.04914
 30
0.0
 10
1.08053
 20
5.04914
 30
0.0
 10
1.08053
 20
5.04914
 30
0.0
 10
2.92091
 20
3.87954
 30
0.0
 10
2.92091
 20
3.87954
 30
0.0
 10
2.92091
 20
3.87954
 30
0.0
 10
2.92091
 20
3.87954
 30
0.0
 10
1.86124
 20
3.06574
 30
0.0
 10
1.86124
 20
3.06574
 30
0.0
 10
1.86124
 20
3.06574
 30
0.0
 10
1.86124
 20
3.06574
 30
0.0
 10
0.71127
 20
3.19175
 30
0.0
 10
0.71127
 20
3.19175
 30
0.0
 10
0.71127
 20
3.19175
 30
0.0
 10
0.71127
 20
3.19175
 30
0.0
 10
0.47438
 20
4.30559
 30
0.0
 10
0.47438
 20
4.30559
 30
0.0
  0
SPLINE
  5
88
330
1F
100
AcDbEntity
  8
Layer 1
 62
   242
100
AcDbSpline
210
0.0
220
0.0
230
1.0
 70
    11
 71
     3
 72
    16
 73
    12
 74
     0
 42
0.0000000001
 43
0.0000000001
 12
1.0
 22
0.0
 32
0.0
 13
1.0
 23
0.0
 33
0.0
 40
0.0
 40
0.0
 40
0.0
 40
0.0
 40
0.25
 40
0.25
 40
0.25
 40
0.25
 40
0.5
 40
0.5
 40
0.5
 40
0.5
 40
1.0
 40
1.0
 40
1.0
 40
1.0
 10
0.34438
 20
4.14205
 30
0.0
 10
0.34438
 20
4.14205
 30
0.0
 10
-1.11486
 20
2.36145
 30
0.0
 10
-1.11486
 20
2.36145
 30
0.0
 10
-1.11486
 20
2.36145
 30
0.0
 10
-1.11486
 20
2.36145
 30
0.0
 10
0.74538
 20
2.18968
 30
0.0
 10
0.74538
 20
2.18968
 30
0.0
 10
0.74538
 20
2.18968
 30
0.0
 10
0.74538
 20
2.18968
 30
0.0
 10
0.34438
 20
4.14205
 30
0.0
 10
0.34438
 20
4.14205
 30
0.0
  0
SPLINE
  5
89
330
1F
100
AcDbEntity
  8
Layer 1
 62
   242
100
AcDbSpline
210
0.0
220
0.0
230
1.0
 70
    11
 71
     3
 72
    16
 73
    12
 74
     0
 42
0.0000000001
 43
0.0000000001
 12
1.0
 22
0.0
 32
0.0
 13
1.0
 23
0.0
 33
0.0
 40
0.0
 40
0.0
 40
0.0
 40
0.0
 40
0.25
 40
0.25
 40
0.25
 40
0.25
 40
0.5
 40
0.5
 40
0.5
 40
0.5
 40
1.0
 40
1.0
 40
1.0
 40
1.0
 10
2.10322
 20
3.04057
 30
0.0
 10
2.10322
 20
3.04057
 30
0.0
 10
4.24089
 20
4.68511
 30
0.0
 10
4.24089
 20
4.68511
 30
0.0
 10
4.24089
 20
4.68511
 30
0.0
 10
4.24089
 20
4.68511
 30
0.0
 10
4.24102
 20
2.78643
 30
0.0
 10
4.24102
 20
2.78643
 30
0.0
 10
4.24102
 20
2.78643
 30
0.0
 10
4.24102
 20
2.78643
 30
0.0
 10
2.10322
 20
3.04057
 30
0.0
 10
2.10322
 20
3.04057
 30
0.0
  0
SPLINE
  5
8A
330
1F
100
AcDbEntity
  8
Layer 1
 62
   242
100
AcDbSpline
210
0.0
220
0.0
230
1.0
 70
    11
 71
     3
 72
    16
 73
    12
 74
     0
 42
0.0000000001
 43
0.0000000001
 12
1.0
 22
0.0
 32
0.0
 13
1.0
 23
0.0
 33
0.0
 40
0.0
 40
0.0
 40
0.0
 40
0.0
 40
0.25
 40
0.25
 40
0.25
 40
0.25
 40
0.5
 40
0.5
 40
0.5
 40
0.5
 40
1.0
 40
1.0
 40
1.0
 40
1.0
 10
0.74209
 20
3.02706
 30
0.0
 10
0.74209
 20
3.02706
 30
0.0
 10
1.16398
 20
0.91495
 30
0.0
 10
1.16398
 20
0.91495
 30
0.0
 10
1.16398
 20
0.91495
 30
0.0
 10
1.16398
 20
0.91495
 30
0.0
 10
3.07214
 20
2.75638
 30
0.0
 10
3.07214
 20
2.75638
 30
0.0
 10
3.07214
 20
2.75638
 30
0.0
 10
3.07214
 20
2.75638
 30
0.0
 10
0.74209
 20
3.02706
 30
0.0
 10
0.74209
 20
3.02706
 30
0.0
  0
SPLINE
  5
8B
330
1F
100
AcDbEntity
  8
Layer 1
 62
   242
100
AcDbSpline
210
0.0
220
0.0
230
1.0
 70
    11
 71
     3
 72
    24
 73
    20
 74
     0
 42
0.0000000001
 43
0.0000000001
 12
1.0
 22
0.0
 32
0.0
 13
1.0
 23
0.0
 33
0.0
 40
0.0
 40
0.0
 40
0.0
 40
0.0
 40
0.1666666666666667
 40
0.1666666666666667
 40
0.1666666666666667
 40
0.1666666666666667
 40
0.3333333333333333
 40
0.3333333333333333
 40
0.3333333333333333
 40
0.3333333333333333
 40
0.5
 40
0.5
 40
0.5
 40
0.5
 40
0.6666666666666666
 40
0.6666666666666666
 40
0.6666666666666666
 40
0.6666666666666666
 40
1.0
 40
1.0
 40
1.0
 40
1.0
 10
3.29325
 20
2.72177
 30
0.0
 10
3.29325
 20
2.72177
 30
0.0
 10
4.24064
 20
2.62257
 30
0.0
 10
4.24064
 20
2.62257
 30
0.0
 10
4.24064
 20
2.62257
 30
0.0
 10
4.24064
 20
2.62257
 30
0.0
 10
4.24075
 20
2.60898
 30
0.0
 10
4.24075
 20
2.60898
 30
0.0
 10
4.24075
 20
2.60898
 30
0.0
 10
4.24075
 20
2.60898
 30
0.0
 10
2.83747
 20
0.23004
 30
0.0
 10
2.83747
 20
0.23004
 30
0.0
 10
2.83747
 20
0.23004
 30
0.0
 10
2.83747
 20
0.23004
 30
0.0
 10
2.07458
 20
1.53816
 30
0.0
 10
2.07458
 20
1.53816
 30
0.0
 10
2.07458
 20
1.53816
 30
0.0
 10
2.07458
 20
1.53816
 30
0.0
 10
3.29325
 20
2.72177
 30
0.0
 10
3.29325
 20
2.72177
 30
0.0
  0
SPLINE
  5
8C
330
1F
100
AcDbEntity
  8
Layer 1
 62
   242
100
AcDbSpline
210
0.0
220
0.0
230
1.0
 70
    11
 71
     3
 72
    20
 73
    16
 74
     0
 42
0.0000000001
 43
0.0000000001
 12
1.0
 22
0.0
 32
0.0
 13
1.0
 23
0.0
 33
0.0
 40
0.0
 40
0.0
 40
0.0
 40
0.0
 40
0.2
 40
0.2
 40
0.2
 40
0.2
 40
0.4
 40
0.4
 40
0.4
 40
0.4
 40
0.6
 40
0.6
 40
0.6
 40
0.6
 40
1.0
 40
1.0
 40
1.0
 40
1.0
 10
-2.26892
 20
2.31262
 30
0.0
 10
-2.26892
 20
2.31262
 30
0.0
 10
-0.27476
 20
2.12609
 30
0.0
 10
-0.27476
 20
2.12609
 30
0.0
 10
-0.27476
 20
2.12609
 30
0.0
 10
-0.27476
 20
2.12609
 30
0.0
 10
-1.25723
 20
-0.42644
 30
0.0
 10
-1.25723
 20
-0.42644
 30
0.0
 10
-1.25723
 20
-0.42644
 30
0.0
 10
-1.25723
 20
-0.42644
 30
0.0
 10
-2.27191
 20
1.83246
 30
0.0
 10
-2.27191
 20
1.83246
 30
0.0
 10
-2.27191
 20
1.83246
 30
0.0
 10
-2.27191
 20
1.83246
 30
0.0
 10
-2.26892
 20
2.31262
 30
0.0
 10
-2.26892
 20
2.31262
 30
0.0
  0
SPLINE
  5
8D
330
1F
100
AcDbEntity
  8
Layer 1
 62
   242
100
AcDbSpline
210
0.0
220
0.0
230
1.0
 70
    11
 71
     3
 72
    24
 73
    20
 74
     0
 42
0.0000000001
 43
0.0000000001
 12
1.0
 22
0.0
 32
0.0
 13
1.0
 23
0.0
 33
0.0
 40
0.0
 40
0.0
 40
0.0
 40
0.0
 40
0.1666666666666667
 40
0.1666666666666667
 40
0.1666666666666667
 40
0.1666666666666667
 40
0.3333333333333333
 40
0.3333333333333333
 40
0.3333333333333333
 40
0.3333333333333333
 40
0.5
 40
0.5
 40
0.5
 40
0.5
 40
0.6666666666666666
 40
0.6666666666666666
 40
0.6666666666666666
 40
0.6666666666666666
 40
1.0
 40
1.0
 40
1.0
 40
1.0
 10
-0.09779
 20
2.09916
 30
0.0
 10
-0.09779
 20
2.09916
 30
0.0
 10
0.77551
 20
2.02017
 30
0.0
 10
0.77551
 20
2.02017
 30
0.0
 10
0.77551
 20
2.02017
 30
0.0
 10
0.77551
 20
2.02017
 30
0.0
 10
1.03193
 20
0.78041
 30
0.0
 10
1.03193
 20
0.78041
 30
0.0
 10
1.03193
 20
0.78041
 30
0.0
 10
1.03193
 20
0.78041
 30
0.0
 10
0.32487
 20
0.10453
 30
0.0
 10
0.32487
 20
0.10453
 30
0.0
 10
0.32487
 20
0.10453
 30
0.0
 10
0.32487
 20
0.10453
 30
0.0
 10
-0.78373
 20
0.32529
 30
0.0
 10
-0.78373
 20
0.32529
 30
0.0
 10
-0.78373
 20
0.32529
 30
0.0
 10
-0.78373
 20
0.32529
 30
0.0
 10
-0.09779
 20
2.09916
 30
0.0
 10
-0.09779
 20
2.09916
 30
0.0
  0
SPLINE
  5
8E
330
1F
100
AcDbEntity
  8
Layer 1
 62
   242
100
AcDbSpline
210
0.0
220
0.0
230
1.0
 70
    11
 71
     3
 72
    16
 73
    12
 74
     0
 42
0.0000000001
 43
0.0000000001
 12
1.0
 22
0.0
 32
0.0
 13
1.0
 23
0.0
 33
0.0
 40
0.0
 40
0.0
 40
0.0
 40
0.0
 40
0.25
 40
0.25
 40
0.25
 40
0.25
 40
0.5
 40
0.5
 40
0.5
 40
0.5
 40
1.0
 40
1.0
 40
1.0
 40
1.0
 10
0.55889
 20
0.06152
 30
0.0
 10
0.55889
 20
0.06152
 30
0.0
 10
1.96754
 20
1.43999
 30
0.0
 10
1.96754
 20
1.43999
 30
0.0
 10
1.96754
 20
1.43999
 30
0.0
 10
1.96754
 20
1.43999
 30
0.0
 10
3.04114
 20
-0.43166
 30
0.0
 10
3.04114
 20
-0.43166
 30
0.0
 10
3.04114
 20
-0.43166
 30
0.0
 10
3.04114
 20
-0.43166
 30
0.0
 10
0.55889
 20
0.06152
 30
0.0
 10
0.55889
 20
0.06152
 30
0.0
  0
SPLINE
  5
8F
330
1F
100
AcDbEntity
  8
Layer 1
 62
   242
100
AcDbSpline
210
0.0
220
0.0
230
1.0
 70
    11
 71
     3
 72
    16
 73
    12
 74
     0
 42
0.0000000001
 43
0.0000000001
 12
1.0
 22
0.0
 32
0.0
 13
1.0
 23
0.0
 33
0.0
 40
0.0
 40
0.0
 40
0.0
 40
0.0
 40
0.25
 40
0.25
 40
0.25
 40
0.25
 40
0.5
 40
0.5
 40
0.5
 40
0.5
 40
1.0
 40
1.0
 40
1.0
 40
1.0
 10
4.24106
 20
1.19776
 30
0.0
 10
4.24106
 20
1.19776
 30
0.0
 10
3.65399
 20
1.29291
 30
0.0
 10
3.65399
 20
1.29291
 30
0.0
 10
3.65399
 20
1.29291
 30
0.0
 10
3.65399
 20
1.29291
 30
0.0
 10
4.24113
 20
2.28632
 30
0.0
 10
4.24113
 20
2.28632
 30
0.0
 10
4.24113
 20
2.28632
 30
0.0
 10
4.24113
 20
2.28632
 30
0.0
 10
4.24106
 20
1.19776
 30
0.0
 10
4.24106
 20
1.19776
 30
0.0
  0
SPLINE
  5
90
330
1F
100
AcDbEntity
  8
Layer 1
 62
   242
100
AcDbSpline
210
0.0
220
0.0
230
1.0
 70
    11
 71
     3
 72
    24
 73
    20
 74
     0
 42
0.0000000001
 43
0.0000000001
 12
1.0
 22
0.0
 32
0.0
 13
1.0
 23
0.0
 33
0.0
 40
0.0
 40
0.0
 40
0.0
 40
0.0
 40
0.1666666666666667
 40
0.1666666666666667
 40
0.1666666666666667
 40
0.1666666666666667
 40
0.3333333333333333
 40
0.3333333333333333
 40
0.3333333333333333
 40
0.3333333333333333
 40
0.5
 40
0.5
 40
0.5
 40
0.5
 40
0.6666666666666666
 40
0.6666666666666666
 40
0.6666666666666666
 40
0.6666666666666666
 40
1.0
 40
1.0
 40
1.0
 40
1.0
 10
2.93503
 20
0.07952
 30
0.0
 10
2.93503
 20
0.07952
 30
0.0
 10
3.52166
 20
-0.92494
 30
0.0
 10
3.52166
 20
-0.92494
 30
0.0
 10
3.52166
 20
-0.92494
 30
0.0
 10
3.52166
 20
-0.92494
 30
0.0
 10
4.24091
 20
-0.61673
 30
0.0
 10
4.24091
 20
-0.61673
 30
0.0
 10
4.24091
 20
-0.61673
 30
0.0
 10
4.24091
 20
-0.61673
 30
0.0
 10
4.24079
 20
1.0347
 30
0.0
 10
4.24079
 20
1.0347
 30
0.0
 10
4.24079
 20
1.0347
 30
0.0
 10
4.24079
 20
1.0347
 30
0.0
 10
3.56308
 20
1.14034
 30
0.0
 10
3.56308
 20
1.14034
 30
0.0
 10
3.56308
 20
1.14034
 30
0.0
 10
3.56308
 20
1.14034
 30
0.0
 10
2.93503
 20
0.07952
 30
0.0
 10
2.93503
 20
0.07952
 30
0.0
  0
SPLINE
  5
91
330
1F
100
AcDbEntity
  8
Layer 1
 62
   242
100
AcDbSpline
210
0.0
220
0.0
230
1.0
 70
    11
 71
     3
 72
    24
 73
    20
 74
     0
 42
0.0000000001
 43
0.0000000001
 12
1.0
 22
0.0
 32
0.0
 13
1.0
 23
0.0
 33
0.0
 40
0.0
 40
0.0
 40
0.0
 40
0.0
 40
0.1666666666666667
 40
0.1666666666666667
 40
0.1666666666666667
 40
0.1666666666666667
 40
0.3333333333333333
 40
0.3333333333333333
 40
0.3333333333333333
 40
0.3333333333333333
 40
0.5
 40
0.5
 40
0.5
 40
0.5
 40
0.6666666666666666
 40
0.6666666666666666
 40
0.6666666666666666
 40
0.6666666666666666
 40
1.0
 40
1.0
 40
1.0
 40
1.0
 10
-0.85039
 20
0.16381
 30
0.0
 10
-0.85039
 20
0.16381
 30
0.0
 10
-1.16754
 20
-0.64249
 30
0.0
 10
-1.16754
 20
-0.64249
 30
0.0
 10
-1.16754
 20
-0.64249
 30
0.0
 10
-1.16754
 20
-0.64249
 30
0.0
 10
-0.71259
 20
-1.67603
 30
0.0
 10
-0.71259
 20
-1.67603
 30
0.0
 10
-0.71259
 20
-1.67603
 30
0.0
 10
-0.71259
 20
-1.67603
 30
0.0
 10
-0.06617
 20
-1.6828
 30
0.0
 10
-0.06617
 20
-1.6828
 30
0.0
 10
-0.06617
 20
-1.6828
 30
0.0
 10
-0.06617
 20
-1.6828
 30
0.0
 10
0.90978
 20
-0.18506
 30
0.0
 10
0.90978
 20
-0.18506
 30
0.0
 10
0.90978
 20
-0.18506
 30
0.0
 10
0.90978
 20
-0.18506
 30
0.0
 10
-0.85039
 20
0.16381
 30
0.0
 10
-0.85039
 20
0.16381
 30
0.0
  0
SPLINE
  5
92
330
1F
100
AcDbEntity
  8
Layer 1
 62
   242
100
AcDbSpline
210
0.0
220
0.0
230
1.0
 70
    11
 71
     3
 72
    24
 73
    20
 74
     0
 42
0.0000000001
 43
0.0000000001
 12
1.0
 22
0.0
 32
0.0
 13
1.0
 23
0.0
 33
0.0
 40
0.0
 40
0.0
 40
0.0
 40
0.0
 40
0.1666666666666667
 40
0.1666666666666667
 40
0.1666666666666667
 40
0.1666666666666667
 40
0.3333333333333333
 40
0.3333333333333333
 40
0.3333333333333333
 40
0.3333333333333333
 40
0.5
 40
0.5
 40
0.5
 40
0.5
 40
0.6666666666666666
 40
0.6666666666666666
 40
0.6666666666666666
 40
0.6666666666666666
 40
1.0
 40
1.0
 40
1.0
 40
1.0
 10
1.07157
 20
-0.21748
 30
0.0
 10
1.07157
 20
-0.21748
 30
0.0
 10
3.14519
 20
-0.62709
 30
0.0
 10
3.14519
 20
-0.62709
 30
0.0
 10
3.14519
 20
-0.62709
 30
0.0
 10
3.14519
 20
-0.62709
 30
0.0
 10
3.36313
 20
-0.96969
 30
0.0
 10
3.36313
 20
-0.96969
 30
0.0
 10
3.36313
 20
-0.96969
 30
0.0
 10
3.36313
 20
-0.96969
 30
0.0
 10
1.5859
 20
-1.74153
 30
0.0
 10
1.5859
 20
-1.74153
 30
0.0
 10
1.5859
 20
-1.74153
 30
0.0
 10
1.5859
 20
-1.74153
 30
0.0
 10
0.73483
 20
-0.71799
 30
0.0
 10
0.73483
 20
-0.71799
 30
0.0
 10
0.73483
 20
-0.71799
 30
0.0
 10
0.73483
 20
-0.71799
 30
0.0
 10
1.07157
 20
-0.21748
 30
0.0
 10
1.07157
 20
-0.21748
 30
0.0
  0
SPLINE
  5
93
330
1F
100
AcDbEntity
  8
Layer 1
 62
   242
100
AcDbSpline
210
0.0
220
0.0
230
1.0
 70
    11
 71
     3
 72
    16
 73
    12
 74
     0
 42
0.0000000001
 43
0.0000000001
 12
1.0
 22
0.0
 32
0.0
 13
1.0
 23
0.0
 33
0.0
 40
0.0
 40
0.0
 40
0.0
 40
0.0
 40
0.25
 40
0.25
 40
0.25
 40
0.25
 40
0.5
 40
0.5
 40
0.5
 40
0.5
 40
1.0
 40
1.0
 40
1.0
 40
1.0
 10
-2.27038
 20
1.4355
 30
0.0
 10
-2.27038
 20
1.4355
 30
0.0
 10
-2.2702
 20
-1.6734
 30
0.0
 10
-2.2702
 20
-1.6734
 30
0.0
 10
-2.2702
 20
-1.6734
 30
0.0
 10
-2.2702
 20
-1.6734
 30
0.0
 10
-0.89176
 20
-1.67494
 30
0.0
 10
-0.89176
 20
-1.67494
 30
0.0
 10
-0.89176
 20
-1.67494
 30
0.0
 10
-0.89176
 20
-1.67494
 30
0.0
 10
-2.27038
 20
1.4355
 30
0.0
 10
-2.27038
 20
1.4355
 30
0.0
  0
SPLINE
  5
94
330
1F
100
AcDbEntity
  8
Layer 1
 62
   242
100
AcDbSpline
210
0.0
220
0.0
230
1.0
 70
    11
 71
     3
 72
    16
 73
    12
 74
     0
 42
0.0000000001
 43
0.0000000001
 12
1.0
 22
0.0
 32
0.0
 13
1.0
 23
0.0
 33
0.0
 40
0.0
 40
0.0
 40
0.0
 40
0.0
 40
0.25
 40
0.25
 40
0.25
 40
0.25
 40
0.5
 40
0.5
 40
0.5
 40
0.5
 40
1.0
 40
1.0
 40
1.0
 40
1.0
 10
0.64926
 20
-0.86826
 30
0.0
 10
0.64926
 20
-0.86826
 30
0.0
 10
-0.8338
 20
-3.15099
 30
0.0
 10
-0.8338
 20
-3.15099
 30
0.0
 10
-0.8338
 20
-3.15099
 30
0.0
 10
-0.8338
 20
-3.15099
 30
0.0
 10
1.76947
 20
-2.21135
 30
0.0
 10
1.76947
 20
-2.21135
 30
0.0
 10
1.76947
 20
-2.21135
 30
0.0
 10
1.76947
 20
-2.21135
 30
0.0
 10
0.64926
 20
-0.86826
 30
0.0
 10
0.64926
 20
-0.86826
 30
0.0
  0
SPLINE
  5
95
330
1F
100
AcDbEntity
  8
Layer 1
 62
   242
100
AcDbSpline
210
0.0
220
0.0
230
1.0
 70
    11
 71
     3
 72
    20
 73
    16
 74
     0
 42
0.0000000001
 43
0.0000000001
 12
1.0
 22
0.0
 32
0.0
 13
1.0
 23
0.0
 33
0.0
 40
0.0
 40
0.0
 40
0.0
 40
0.0
 40
0.2
 40
0.2
 40
0.2
 40
0.2
 40
0.4
 40
0.4
 40
0.4
 40
0.4
 40
0.6
 40
0.6
 40
0.6
 40
0.6
 40
1.0
 40
1.0
 40
1.0
 40
1.0
 10
3.95553
 20
-2.14423
 30
0.0
 10
3.95553
 20
-2.14423
 30
0.0
 10
2.79575
 20
-1.41433
 30
0.0
 10
2.79575
 20
-1.41433
 30
0.0
 10
2.79575
 20
-1.41433
 30
0.0
 10
2.79575
 20
-1.41433
 30
0.0
 10
1.69437
 20
-1.89254
 30
0.0
 10
1.69437
 20
-1.89254
 30
0.0
 10
1.69437
 20
-1.89254
 30
0.0
 10
1.69437
 20
-1.89254
 30
0.0
 10
2.90618
 20
-3.32273
 30
0.0
 10
2.90618
 20
-3.32273
 30
0.0
 10
2.90618
 20
-3.32273
 30
0.0
 10
2.90618
 20
-3.32273
 30
0.0
 10
3.95553
 20
-2.14423
 30
0.0
 10
3.95553
 20
-2.14423
 30
0.0
  0
SPLINE
  5
96
330
1F
100
AcDbEntity
  8
Layer 1
 62
   242
100
AcDbSpline
210
0.0
220
0.0
230
1.0
 70
    11
 71
     3
 72
    16
 73
    12
 74
     0
 42
0.0000000001
 43
0.0000000001
 12
1.0
 22
0.0
 32
0.0
 13
1.0
 23
0.0
 33
0.0
 40
0.0
 40
0.0
 40
0.0
 40
0.0
 40
0.25
 40
0.25
 40
0.25
 40
0.25
 40
0.5
 40
0.5
 40
0.5
 40
0.5
 40
1.0
 40
1.0
 40
1.0
 40
1.0
 10
2.97932
 20
-1.33883
 30
0.0
 10
2.97932
 20
-1.33883
 30
0.0
 10
4.24095
 20
-0.79424
 30
0.0
 10
4.24095
 20
-0.79424
 30
0.0
 10
4.24095
 20
-0.79424
 30
0.0
 10
4.24095
 20
-0.79424
 30
0.0
 10
4.2413
 20
-2.12401
 30
0.0
 10
4.2413
 20
-2.12401
 30
0.0
 10
4.2413
 20
-2.12401
 30
0.0
 10
4.2413
 20
-2.12401
 30
0.0
 10
2.97932
 20
-1.33883
 30
0.0
 10
2.97932
 20
-1.33883
 30
0.0
  0
SPLINE
  5
97
330
1F
100
AcDbEntity
  8
Layer 1
 62
   242
100
AcDbSpline
210
0.0
220
0.0
230
1.0
 70
    11
 71
     3
 72
    24
 73
    20
 74
     0
 42
0.0000000001
 43
0.0000000001
 12
1.0
 22
0.0
 32
0.0
 13
1.0
 23
0.0
 33
0.0
 40
0.0
 40
0.0
 40
0.0
 40
0.0
 40
0.1666666666666667
 40
0.1666666666666667
 40
0.1666666666666667
 40
0.1666666666666667
 40
0.3333333333333333
 40
0.3333333333333333
 40
0.3333333333333333
 40
0.3333333333333333
 40
0.5
 40
0.5
 40
0.5
 40
0.5
 40
0.6666666666666666
 40
0.6666666666666666
 40
0.6666666666666666
 40
0.6666666666666666
 40
1.0
 40
1.0
 40
1.0
 40
1.0
 10
4.0916
 20
-2.22039
 30
0.0
 10
4.0916
 20
-2.22039
 30
0.0
 10
2.26175
 20
-4.29198
 30
0.0
 10
2.26175
 20
-4.29198
 30
0.0
 10
2.26175
 20
-4.29198
 30
0.0
 10
2.26175
 20
-4.29198
 30
0.0
 10
3.14619
 20
-4.74502
 30
0.0
 10
3.14619
 20
-4.74502
 30
0.0
 10
3.14619
 20
-4.74502
 30
0.0
 10
3.14619
 20
-4.74502
 30
0.0
 10
4.24075
 20
-4.41377
 30
0.0
 10
4.24075
 20
-4.41377
 30
0.0
 10
4.24075
 20
-4.41377
 30
0.0
 10
4.24075
 20
-4.41377
 30
0.0
 10
4.24102
 20
-2.3088
 30
0.0
 10
4.24102
 20
-2.3088
 30
0.0
 10
4.24102
 20
-2.3088
 30
0.0
 10
4.24102
 20
-2.3088
 30
0.0
 10
4.0916
 20
-2.22039
 30
0.0
 10
4.0916
 20
-2.22039
 30
0.0
  0
SPLINE
  5
98
330
1F
100
AcDbEntity
  8
Layer 1
 62
   242
100
AcDbSpline
210
0.0
220
0.0
230
1.0
 70
    11
 71
     3
 72
    20
 73
    16
 74
     0
 42
0.0000000001
 43
0.0000000001
 12
1.0
 22
0.0
 32
0.0
 13
1.0
 23
0.0
 33
0.0
 40
0.0
 40
0.0
 40
0.0
 40
0.0
 40
0.2
 40
0.2
 40
0.2
 40
0.2
 40
0.4
 40
0.4
 40
0.4
 40
0.4
 40
0.6
 40
0.6
 40
0.6
 40
0.6
 40
1.0
 40
1.0
 40
1.0
 40
1.0
 10
-2.26768
 20
-1.8372
 30
0.0
 10
-2.26768
 20
-1.8372
 30
0.0
 10
-0.18775
 20
-1.84879
 30
0.0
 10
-0.18775
 20
-1.84879
 30
0.0
 10
-0.18775
 20
-1.84879
 30
0.0
 10
-0.18775
 20
-1.84879
 30
0.0
 10
-1.45958
 20
-3.79792
 30
0.0
 10
-1.45958
 20
-3.79792
 30
0.0
 10
-1.45958
 20
-3.79792
 30
0.0
 10
-1.45958
 20
-3.79792
 30
0.0
 10
-2.27065
 20
-3.28748
 30
0.0
 10
-2.27065
 20
-3.28748
 30
0.0
 10
-2.27065
 20
-3.28748
 30
0.0
 10
-2.27065
 20
-3.28748
 30
0.0
 10
-2.26768
 20
-1.8372
 30
0.0
 10
-2.26768
 20
-1.8372
 30
0.0
  0
SPLINE
  5
99
330
1F
100
AcDbEntity
  8
Layer 1
 62
   242
100
AcDbSpline
210
0.0
220
0.0
230
1.0
 70
    11
 71
     3
 72
    20
 73
    16
 74
     0
 42
0.0000000001
 43
0.0000000001
 12
1.0
 22
0.0
 32
0.0
 13
1.0
 23
0.0
 33
0.0
 40
0.0
 40
0.0
 40
0.0
 40
0.0
 40
0.2
 40
0.2
 40
0.2
 40
0.2
 40
0.4
 40
0.4
 40
0.4
 40
0.4
 40
0.6
 40
0.6
 40
0.6
 40
0.6
 40
1.0
 40
1.0
 40
1.0
 40
1.0
 10
-0.97564
 20
-3.34395
 30
0.0
 10
-0.97564
 20
-3.34395
 30
0.0
 10
-1.3386
 20
-3.8767
 30
0.0
 10
-1.3386
 20
-3.8767
 30
0.0
 10
-1.3386
 20
-3.8767
 30
0.0
 10
-1.3386
 20
-3.8767
 30
0.0
 10
0.64306
 20
-5.14773
 30
0.0
 10
0.64306
 20
-5.14773
 30
0.0
 10
0.64306
 20
-5.14773
 30
0.0
 10
0.64306
 20
-5.14773
 30
0.0
 10
0.5179
 20
-2.84057
 30
0.0
 10
0.5179
 20
-2.84057
 30
0.0
 10
0.5179
 20
-2.84057
 30
0.0
 10
0.5179
 20
-2.84057
 30
0.0
 10
-0.97564
 20
-3.34395
 30
0.0
 10
-0.97564
 20
-3.34395
 30
0.0
  0
SPLINE
  5
9A
330
1F
100
AcDbEntity
  8
Layer 1
 62
   242
100
AcDbSpline
210
0.0
220
0.0
230
1.0
 70
    11
 71
     3
 72
    24
 73
    20
 74
     0
 42
0.0000000001
 43
0.0000000001
 12
1.0
 22
0.0
 32
0.0
 13
1.0
 23
0.0
 33
0.0
 40
0.0
 40
0.0
 40
0.0
 40
0.0
 40
0.1666666666666667
 40
0.1666666666666667
 40
0.1666666666666667
 40
0.1666666666666667
 40
0.3333333333333333
 40
0.3333333333333333
 40
0.3333333333333333
 40
0.3333333333333333
 40
0.5
 40
0.5
 40
0.5
 40
0.5
 40
0.6666666666666666
 40
0.6666666666666666
 40
0.6666666666666666
 40
0.6666666666666666
 40
1.0
 40
1.0
 40
1.0
 40
1.0
 10
0.7098
 20
-3.46979
 30
0.0
 10
0.7098
 20
-3.46979
 30
0.0
 10
2.1199
 20
-4.1997
 30
0.0
 10
2.1199
 20
-4.1997
 30
0.0
 10
2.1199
 20
-4.1997
 30
0.0
 10
2.1199
 20
-4.1997
 30
0.0
 10
2.79575
 20
-3.42785
 30
0.0
 10
2.79575
 20
-3.42785
 30
0.0
 10
2.79575
 20
-3.42785
 30
0.0
 10
2.79575
 20
-3.42785
 30
0.0
 10
1.88627
 20
-2.33719
 30
0.0
 10
1.88627
 20
-2.33719
 30
0.0
 10
1.88627
 20
-2.33719
 30
0.0
 10
1.88627
 20
-2.33719
 30
0.0
 10
0.66808
 20
-2.79024
 30
0.0
 10
0.66808
 20
-2.79024
 30
0.0
 10
0.66808
 20
-2.79024
 30
0.0
 10
0.66808
 20
-2.79024
 30
0.0
 10
0.7098
 20
-3.46979
 30
0.0
 10
0.7098
 20
-3.46979
 30
0.0
  0
SPLINE
  5
9B
330
1F
100
AcDbEntity
  8
Layer 1
 62
   242
100
AcDbSpline
210
0.0
220
0.0
230
1.0
 70
    11
 71
     3
 72
    16
 73
    12
 74
     0
 42
0.0000000001
 43
0.0000000001
 12
1.0
 22
0.0
 32
0.0
 13
1.0
 23
0.0
 33
0.0
 40
0.0
 40
0.0
 40
0.0
 40
0.0
 40
0.25
 40
0.25
 40
0.25
 40
0.25
 40
0.5
 40
0.5
 40
0.5
 40
0.5
 40
1.0
 40
1.0
 40
1.0
 40
1.0
 10
-2.27024
 20
-3.47154
 30
0.0
 10
-2.27024
 20
-3.47154
 30
0.0
 10
-0.55845
 20
-4.56045
 30
0.0
 10
-0.55845
 20
-4.56045
 30
0.0
 10
-0.55845
 20
-4.56045
 30
0.0
 10
-0.55845
 20
-4.56045
 30
0.0
 10
-2.27045
 20
-6.21853
 30
0.0
 10
-2.27045
 20
-6.21853
 30
0.0
 10
-2.27045
 20
-6.21853
 30
0.0
 10
-2.27045
 20
-6.21853
 30
0.0
 10
-2.27024
 20
-3.47154
 30
0.0
 10
-2.27024
 20
-3.47154
 30
0.0
  0
SPLINE
  5
9C
330
1F
100
AcDbEntity
  8
Layer 1
 62
   242
100
AcDbSpline
210
0.0
220
0.0
230
1.0
 70
    11
 71
     3
 72
    24
 73
    20
 74
     0
 42
0.0000000001
 43
0.0000000001
 12
1.0
 22
0.0
 32
0.0
 13
1.0
 23
0.0
 33
0.0
 40
0.0
 40
0.0
 40
0.0
 40
0.0
 40
0.1666666666666667
 40
0.1666666666666667
 40
0.1666666666666667
 40
0.1666666666666667
 40
0.3333333333333333
 40
0.3333333333333333
 40
0.3333333333333333
 40
0.3333333333333333
 40
0.5
 40
0.5
 40
0.5
 40
0.5
 40
0.6666666666666666
 40
0.6666666666666666
 40
0.6666666666666666
 40
0.6666666666666666
 40
1.0
 40
1.0
 40
1.0
 40
1.0
 10
-1.51918
 20
-5.72062
 30
0.0
 10
-1.51918
 20
-5.72062
 30
0.0
 10
-0.4041
 20
-4.65693
 30
0.0
 10
-0.4041
 20
-4.65693
 30
0.0
 10
-0.4041
 20
-4.65693
 30
0.0
 10
-0.4041
 20
-4.65693
 30
0.0
 10
0.65139
 20
-5.3323
 30
0.0
 10
0.65139
 20
-5.3323
 30
0.0
 10
0.65139
 20
-5.3323
 30
0.0
 10
0.65139
 20
-5.3323
 30
0.0
 10
0.70222
 20
-6.29634
 30
0.0
 10
0.70222
 20
-6.29634
 30
0.0
 10
0.70222
 20
-6.29634
 30
0.0
 10
0.70222
 20
-6.29634
 30
0.0
 10
0.04077
 20
-6.29558
 30
0.0
 10
0.04077
 20
-6.29558
 30
0.0
 10
0.04077
 20
-6.29558
 30
0.0
 10
0.04077
 20
-6.29558
 30
0.0
 10
-1.51918
 20
-5.72062
 30
0.0
 10
-1.51918
 20
-5.72062
 30
0.0
  0
SPLINE
  5
9D
330
1F
100
AcDbEntity
  8
Layer 1
 62
   242
100
AcDbSpline
210
0.0
220
0.0
230
1.0
 70
    11
 71
     3
 72
    16
 73
    12
 74
     0
 42
0.0000000001
 43
0.0000000001
 12
1.0
 22
0.0
 32
0.0
 13
1.0
 23
0.0
 33
0.0
 40
0.0
 40
0.0
 40
0.0
 40
0.0
 40
0.25
 40
0.25
 40
0.25
 40
0.25
 40
0.5
 40
0.5
 40
0.5
 40
0.5
 40
1.0
 40
1.0
 40
1.0
 40
1.0
 10
0.7146
 20
-3.65277
 30
0.0
 10
0.7146
 20
-3.65277
 30
0.0
 10
0.80993
 20
-5.45814
 30
0.0
 10
0.80993
 20
-5.45814
 30
0.0
 10
0.80993
 20
-5.45814
 30
0.0
 10
0.80993
 20
-5.45814
 30
0.0
 10
2.93426
 20
-4.80878
 30
0.0
 10
2.93426
 20
-4.80878
 30
0.0
 10
2.93426
 20
-4.80878
 30
0.0
 10
2.93426
 20
-4.80878
 30
0.0
 10
0.7146
 20
-3.65277
 30
0.0
 10
0.7146
 20
-3.65277
 30
0.0
  0
SPLINE
  5
9E
330
1F
100
AcDbEntity
  8
Layer 1
 62
   242
100
AcDbSpline
210
0.0
220
0.0
230
1.0
 70
    11
 71
     3
 72
    20
 73
    16
 74
     0
 42
0.0000000001
 43
0.0000000001
 12
1.0
 22
0.0
 32
0.0
 13
1.0
 23
0.0
 33
0.0
 40
0.0
 40
0.0
 40
0.0
 40
0.0
 40
0.2
 40
0.2
 40
0.2
 40
0.2
 40
0.4
 40
0.4
 40
0.4
 40
0.4
 40
0.6
 40
0.6
 40
0.6
 40
0.6
 40
1.0
 40
1.0
 40
1.0
 40
1.0
 10
0.82966
 20
-5.61602
 30
0.0
 10
0.82966
 20
-5.61602
 30
0.0
 10
2.24506
 20
-5.18129
 30
0.0
 10
2.24506
 20
-5.18129
 30
0.0
 10
2.24506
 20
-5.18129
 30
0.0
 10
2.24506
 20
-5.18129
 30
0.0
 10
2.66583
 20
-6.29352
 30
0.0
 10
2.66583
 20
-6.29352
 30
0.0
 10
2.66583
 20
-6.29352
 30
0.0
 10
2.66583
 20
-6.29352
 30
0.0
 10
0.85999
 20
-6.29559
 30
0.0
 10
0.85999
 20
-6.29559
 30
0.0
 10
0.85999
 20
-6.29559
 30
0.0
 10
0.85999
 20
-6.29559
 30
0.0
 10
0.82966
 20
-5.61602
 30
0.0
 10
0.82966
 20
-5.61602
 30
0.0
  0
SPLINE
  5
9F
330
1F
100
AcDbEntity
  8
Layer 1
 62
   242
100
AcDbSpline
210
0.0
220
0.0
230
1.0
 70
    11
 71
     3
 72
    20
 73
    16
 74
     0
 42
0.0000000001
 43
0.0000000001
 12
1.0
 22
0.0
 32
0.0
 13
1.0
 23
0.0
 33
0.0
 40
0.0
 40
0.0
 40
0.0
 40
0.0
 40
0.2
 40
0.2
 40
0.2
 40
0.2
 40
0.4
 40
0.4
 40
0.4
 40
0.4
 40
0.6
 40
0.6
 40
0.6
 40
0.6
 40
1.0
 40
1.0
 40
1.0
 40
1.0
 10
4.24104
 20
-4.58486
 30
0.0
 10
4.24104
 20
-4.58486
 30
0.0
 10
2.39644
 20
-5.14054
 30
0.0
 10
2.39644
 20
-5.14054
 30
0.0
 10
2.39644
 20
-5.14054
 30
0.0
 10
2.39644
 20
-5.14054
 30
0.0
 10
2.83246
 20
-6.29543
 30
0.0
 10
2.83246
 20
-6.29543
 30
0.0
 10
2.83246
 20
-6.29543
 30
0.0
 10
2.83246
 20
-6.29543
 30
0.0
 10
4.23995
 20
-6.29436
 30
0.0
 10
4.23995
 20
-6.29436
 30
0.0
 10
4.23995
 20
-6.29436
 30
0.0
 10
4.23995
 20
-6.29436
 30
0.0
 10
4.24104
 20
-4.58486
 30
0.0
 10
4.24104
 20
-4.58486
 30
0.0
  0
SPLINE
  5
A0
330
1F
100
AcDbEntity
  8
Layer 1
 62
   242
100
AcDbSpline
210
0.0
220
0.0
230
1.0
 70
    11
 71
     3
 72
    16
 73
    12
 74
     0
 42
0.0000000001
 43
0.0000000001
 12
1.0
 22
0.0
 32
0.0
 13
1.0
 23
0.0
 33
0.0
 40
0.0
 40
0.0
 40
0.0
 40
0.0
 40
0.25
 40
0.25
 40
0.25
 40
0.25
 40
0.5
 40
0.5
 40
0.5
 40
0.5
 40
1.0
 40
1.0
 40
1.0
 40
1.0
 10
-2.11953
 20
-6.29539
 30
0.0
 10
-2.11953
 20
-6.29539
 30
0.0
 10
-1.6494
 20
-5.84407
 30
0.0
 10
-1.6494
 20
-5.84407
 30
0.0
 10
-1.6494
 20
-5.84407
 30
0.0
 10
-1.6494
 20
-5.84407
 30
0.0
 10
-0.43037
 20
-6.29543
 30
0.0
 10
-0.43037
 20
-6.29543
 30
0.0
 10
-0.43037
 20
-6.29543
 30
0.0
 10
-0.43037
 20
-6.29543
 30
0.0
 10
-2.11953
 20
-6.29539
 30
0.0
 10
-2.11953
 20
-6.29539
 30
0.0
  0
ENDSEC
  0
SECTION
  2
OBJECTS
  0
DICTIONARY
  5
C
330
0
100
AcDbDictionary
281
     1
  3
ACAD_GROUP
350
D
  3
ACAD_LAYOUT
350
1A
  3
ACAD_MATERIAL
350
3B
  3
ACAD_MLEADERSTYLE
350
A3
  3
ACAD_MLINESTYLE
350
17
  3
ACAD_PLOTSETTINGS
350
19
  3
ACAD_PLOTSTYLENAME
350
E
  3
ACAD_VISUALSTYLE
350
2A
  3
AcDbVariableDictionary
350
A1
  0
DICTIONARY
  5
D
102
{ACAD_REACTORS
330
C
102
}
330
C
100
AcDbDictionary
281
     1
  0
DICTIONARY
  5
1A
102
{ACAD_REACTORS
330
C
102
}
330
C
100
AcDbDictionary
281
     1
  3
Layout1
350
1E
  3
Layout2
350
26
  3
Model
350
22
  0
DICTIONARY
  5
3B
102
{ACAD_REACTORS
330
C
102
}
330
C
100
AcDbDictionary
281
     1
  3
ByBlock
350
3D
  3
ByLayer
350
3C
  3
Global
350
3E
  0
DICTIONARY
  5
A3
102
{ACAD_REACTORS
330
C
102
}
330
C
100
AcDbDictionary
281
     1
  0
DICTIONARY
  5
17
102
{ACAD_REACTORS
330
C
102
}
330
C
100
AcDbDictionary
281
     1
  3
Standard
350
18
  0
DICTIONARY
  5
19
102
{ACAD_REACTORS
330
C
102
}
330
C
100
AcDbDictionary
281
     1
  0
ACDBDICTIONARYWDFLT
  5
E
102
{ACAD_REACTORS
330
C
102
}
330
C
100
AcDbDictionary
281
     1
  3
Normal
350
F
100
AcDbDictionaryWithDefault
340
F
  0
DICTIONARY
  5
2A
102
{ACAD_REACTORS
330
C
102
}
330
C
100
AcDbDictionary
281
     1
  3
2dWireframe
350
2F
  3
3D Hidden
350
31
  3
3dWireframe
350
30
  3
Basic
350
32
  3
Brighten
350
36
  3
ColorChange
350
3A
  3
Conceptual
350
34
  3
Dim
350
35
  3
Facepattern
350
39
  3
Flat
350
2B
  3
FlatWithEdges
350
2C
  3
Gouraud
350
2D
  3
GouraudWithEdges
350
2E
  3
Linepattern
350
38
  3
Realistic
350
33
  3
Thicken
350
37
  0
DICTIONARY
  5
A1
102
{ACAD_REACTORS
330
C
102
}
330
C
100
AcDbDictionary
281
     1
  3
DIMASSOC
350
A4
  3
HIDETEXT
350
A5
  0
LAYOUT
  5
1E
102
{ACAD_REACTORS
330
1A
102
}
330
1A
100
AcDbPlotSettings
  1

  2
none_device
  4

  6

 40
0.0
 41
0.0
 42
0.0
 43
0.0
 44
0.0
 45
0.0
 46
0.0
 47
0.0
 48
0.0
 49
0.0
140
0.0
141
0.0
142
1.0
143
1.0
 70
   688
 72
     0
 73
     0
 74
     5
  7

 75
    16
147
1.0
148
0.0
149
0.0
100
AcDbLayout
  1
Layout1
 70
     1
 71
     1
 10
0.0
 20
0.0
 11
12.0
 21
9.0
 12
0.0
 22
0.0
 32
0.0
 14
1.000000000000000E+20
 24
1.000000000000000E+20
 34
1.000000000000000E+20
 15
-1.000000000000000E+20
 25
-1.000000000000000E+20
 35
-1.000000000000000E+20
146
0.0
 13
0.0
 23
0.0
 33
0.0
 16
1.0
 26
0.0
 36
0.0
 17
0.0
 27
1.0
 37
0.0
 76
     0
330
1B
  0
LAYOUT
  5
26
102
{ACAD_REACTORS
330
1A
102
}
330
1A
100
AcDbPlotSettings
  1

  2
none_device
  4

  6

 40
0.0
 41
0.0
 42
0.0
 43
0.0
 44
0.0
 45
0.0
 46
0.0
 47
0.0
 48
0.0
 49
0.0
140
0.0
141
0.0
142
1.0
143
1.0
 70
   688
 72
     0
 73
     0
 74
     5
  7

 75
    16
147
1.0
148
0.0
149
0.0
100
AcDbLayout
  1
Layout2
 70
     1
 71
     2
 10
0.0
 20
0.0
 11
0.0
 21
0.0
 12
0.0
 22
0.0
 32
0.0
 14
0.0
 24
0.0
 34
0.0
 15
0.0
 25
0.0
 35
0.0
146
0.0
 13
0.0
 23
0.0
 33
0.0
 16
1.0
 26
0.0
 36
0.0
 17
0.0
 27
1.0
 37
0.0
 76
     0
330
23
  0
LAYOUT
  5
22
102
{ACAD_REACTORS
330
1A
102
}
330
1A
100
AcDbPlotSettings
  1

  2
none_device
  4

  6

 40
0.0
 41
0.0
 42
0.0
 43
0.0
 44
0.0
 45
0.0
 46
0.0
 47
0.0
 48
0.0
 49
0.0
140
0.0
141
0.0
142
1.0
143
1.0
 70
  1712
 72
     0
 73
     0
 74
     0
  7

 75
     0
147
1.0
148
0.0
149
0.0
100
AcDbLayout
  1
Model
 70
     1
 71
     0
 10
0.0
 20
0.0
 11
12.0
 21
9.0
 12
0.0
 22
0.0
 32
0.0
 14
-10.8377
 24
-6.45527
 34
0.0
 15
4.41655
 25
12.16697
 35
0.0
146
0.0
 13
0.0
 23
0.0
 33
0.0
 16
1.0
 26
0.0
 36
0.0
 17
0.0
 27
1.0
 37
0.0
 76
     0
330
1F
331
29
  0
MATERIAL
  5
3D
102
{ACAD_REACTORS
330
3B
102
}
102
{ACAD_XDICTIONARY
360
C8
102
}
330
3B
100
AcDbMaterial
  1
ByBlock
  0
MATERIAL
  5
3C
102
{ACAD_REACTORS
330
3B
102
}
102
{ACAD_XDICTIONARY
360
C6
102
}
330
3B
100
AcDbMaterial
  1
ByLayer
  0
MATERIAL
  5
3E
102
{ACAD_REACTORS
330
3B
102
}
102
{ACAD_XDICTIONARY
360
CA
102
}
330
3B
100
AcDbMaterial
  1
Global
  0
MLINESTYLE
  5
18
102
{ACAD_REACTORS
330
17
102
}
330
17
100
AcDbMlineStyle
  2
Standard
 70
     0
  3

 62
   256
 51
90.0
 52
90.0
 71
     2
 49
0.5
 62
   256
  6
BYLAYER
 49
-0.5
 62
   256
  6
BYLAYER
  0
ACDBPLACEHOLDER
  5
F
102
{ACAD_REACTORS
330
E
102
}
330
E
  0
VISUALSTYLE
  5
2F
102
{ACAD_REACTORS
330
2A
102
}
102
{ACAD_XDICTIONARY
360
AE
102
}
330
2A
100
AcDbVisualStyle
  2
2dWireframe
 70
     4
 71
     0
 72
     2
 73
     0
 90
        0
 40
-0.6
 41
-30.0
 62
     5
 63
     7
 74
     1
 91
        4
 64
     7
 65
   257
 75
     1
175
     1
 42
1.0
 92
        0
 66
   257
 43
1.0
 76
     1
 77
     6
 78
     2
 67
     7
 79
     5
170
     0
171
     0
290
     0
174
     0
 93
        1
 44
0.0
173
     0
291
     0
 45
0.0
1001
ACAD
1000
AcDbSavedByObjectVersion
1070
     0
  0
VISUALSTYLE
  5
31
102
{ACAD_REACTORS
330
2A
102
}
102
{ACAD_XDICTIONARY
360
B2
102
}
330
2A
100
AcDbVisualStyle
  2
3D Hidden
 70
     6
 71
     1
 72
     2
 73
     2
 90
        0
 40
-0.6
 41
-30.0
 62
     5
 63
     7
 74
     2
 91
        2
 64
     7
 65
   257
 75
     2
175
     1
 42
40.0
 92
        0
 66
   257
 43
1.0
 76
     1
 77
     6
 78
     2
 67
     7
 79
     3
170
     0
171
     0
290
     0
174
     0
 93
        1
 44
0.0
173
     0
291
     0
 45
0.0
1001
ACAD
1000
AcDbSavedByObjectVersion
1070
     0
  0
VISUALSTYLE
  5
30
102
{ACAD_REACTORS
330
2A
102
}
102
{ACAD_XDICTIONARY
360
B0
102
}
330
2A
100
AcDbVisualStyle
  2
3dWireframe
 70
     5
 71
     0
 72
     2
 73
     0
 90
        0
 40
-0.6
 41
-30.0
 62
     5
 63
     7
 74
     1
 91
        4
 64
     7
 65
   257
 75
     1
175
     1
 42
1.0
 92
        0
 66
   257
 43
1.0
 76
     1
 77
     6
 78
     2
 67
     7
 79
     5
170
     0
171
     0
290
     0
174
     0
 93
        1
 44
0.0
173
     0
291
     0
 45
0.0
1001
ACAD
1000
AcDbSavedByObjectVersion
1070
     0
  0
VISUALSTYLE
  5
32
102
{ACAD_REACTORS
330
2A
102
}
102
{ACAD_XDICTIONARY
360
B4
102
}
330
2A
100
AcDbVisualStyle
  2
Basic
 70
     7
 71
     1
 72
     0
 73
     1
 90
        0
 40
-0.6
 41
-30.0
 62
     5
 63
     7
 74
     0
 91
        4
 64
     7
 65
   257
 75
     1
175
     1
 42
1.0
 92
        8
 66
     7
 43
1.0
 76
     1
 77
     6
 78
     2
 67
     7
 79
     5
170
     0
171
     0
290
     0
174
     0
 93
        1
 44
0.0
173
     0
291
     1
 45
0.0
1001
ACAD
1000
AcDbSavedByObjectVersion
1070
     0
  0
VISUALSTYLE
  5
36
102
{ACAD_REACTORS
330
2A
102
}
102
{ACAD_XDICTIONARY
360
BC
102
}
330
2A
100
AcDbVisualStyle
  2
Brighten
 70
    12
 71
     2
 72
     2
 73
     0
 90
        0
 40
-0.6
 41
-30.0
 62
     5
 63
     7
 74
     1
 91
        4
 64
     7
 65
   257
 75
     1
175
     1
 42
1.0
 92
        8
 66
     7
 43
1.0
 76
     1
 77
     6
 78
     2
 67
     7
 79
     5
170
     0
171
     0
290
     0
174
     0
 93
        1
 44
50.0
173
     0
291
     1
 45
0.0
1001
ACAD
1000
AcDbSavedByObjectVersion
1070
     0
  0
VISUALSTYLE
  5
3A
102
{ACAD_REACTORS
330
2A
102
}
102
{ACAD_XDICTIONARY
360
C4
102
}
330
2A
100
AcDbVisualStyle
  2
ColorChange
 70
    16
 71
     2
 72
     2
 73
     3
 90
        0
 40
-0.6
 41
-30.0
 62
     5
 63
     8
 74
     1
 91
        4
 64
     7
 65
   257
 75
     1
175
     1
 42
1.0
 92
        8
 66
     8
 43
1.0
 76
     1
 77
     6
 78
     2
 67
     7
 79
     5
170
     0
171
     0
290
     0
174
     0
 93
        1
 44
0.0
173
     0
291
     1
 45
0.0
1001
ACAD
1000
AcDbSavedByObjectVersion
1070
     0
  0
VISUALSTYLE
  5
34
102
{ACAD_REACTORS
330
2A
102
}
102
{ACAD_XDICTIONARY
360
B8
102
}
330
2A
100
AcDbVisualStyle
  2
Conceptual
 70
     9
 71
     3
 72
     2
 73
     0
 90
        0
 40
-0.6
 41
-30.0
 62
     5
 63
     7
 74
     2
 91
        2
 64
     7
 65
   257
 75
     1
175
     1
 42
40.0
 92
        8
 66
     7
 43
1.0
 76
     1
 77
     6
 78
     2
 67
     7
 79
     3
170
     0
171
     0
290
     0
174
     0
 93
        1
 44
0.0
173
     0
291
     0
 45
0.0
1001
ACAD
1000
AcDbSavedByObjectVersion
1070
     0
  0
VISUALSTYLE
  5
35
102
{ACAD_REACTORS
330
2A
102
}
102
{ACAD_XDICTIONARY
360
BA
102
}
330
2A
100
AcDbVisualStyle
  2
Dim
 70
    11
 71
     2
 72
     2
 73
     0
 90
        0
 40
-0.6
 41
-30.0
 62
     5
 63
     7
 74
     1
 91
        4
 64
     7
 65
   257
 75
     1
175
     1
 42
1.0
 92
        8
 66
     7
 43
1.0
 76
     1
 77
     6
 78
     2
 67
     7
 79
     5
170
     0
171
     0
290
     0
174
     0
 93
        1
 44
-50.0
173
     0
291
     1
 45
0.0
1001
ACAD
1000
AcDbSavedByObjectVersion
1070
     0
  0
VISUALSTYLE
  5
39
102
{ACAD_REACTORS
330
2A
102
}
102
{ACAD_XDICTIONARY
360
C2
102
}
330
2A
100
AcDbVisualStyle
  2
Facepattern
 70
    15
 71
     2
 72
     2
 73
     0
 90
        0
 40
-0.6
 41
-30.0
 62
     5
 63
     7
 74
     1
 91
        4
 64
     7
 65
   257
 75
     1
175
     1
 42
1.0
 92
        8
 66
     7
 43
1.0
 76
     1
 77
     6
 78
     2
 67
     7
 79
     5
170
     0
171
     0
290
     0
174
     0
 93
        1
 44
0.0
173
     0
291
     1
 45
0.0
1001
ACAD
1000
AcDbSavedByObjectVersion
1070
     0
  0
VISUALSTYLE
  5
2B
102
{ACAD_REACTORS
330
2A
102
}
102
{ACAD_XDICTIONARY
360
A6
102
}
330
2A
100
AcDbVisualStyle
  2
Flat
 70
     0
 71
     2
 72
     1
 73
     1
 90
        2
 40
-0.6
 41
30.0
 62
     5
 63
     7
 74
     0
 91
        4
 64
     7
 65
   257
 75
     1
175
     1
 42
1.0
 92
        8
 66
     7
 43
1.0
 76
     1
 77
     6
 78
     2
 67
     7
 79
     5
170
     0
171
     0
290
     0
174
     0
 93
       13
 44
0.0
173
     0
291
     1
 45
0.0
1001
ACAD
1000
AcDbSavedByObjectVersion
1070
     0
  0
VISUALSTYLE
  5
2C
102
{ACAD_REACTORS
330
2A
102
}
102
{ACAD_XDICTIONARY
360
A8
102
}
330
2A
100
AcDbVisualStyle
  2
FlatWithEdges
 70
     1
 71
     2
 72
     1
 73
     1
 90
        2
 40
-0.6
 41
30.0
 62
     5
 63
     7
 74
     1
 91
        4
 64
     7
 65
   257
 75
     1
175
     1
 42
1.0
 92
        0
 66
   257
 43
1.0
 76
     1
 77
     6
 78
     2
 67
     7
 79
     5
170
     0
171
     0
290
     0
174
     0
 93
       13
 44
0.0
173
     0
291
     1
 45
0.0
1001
ACAD
1000
AcDbSavedByObjectVersion
1070
     0
  0
VISUALSTYLE
  5
2D
102
{ACAD_REACTORS
330
2A
102
}
102
{ACAD_XDICTIONARY
360
AA
102
}
330
2A
100
AcDbVisualStyle
  2
Gouraud
 70
     2
 71
     2
 72
     2
 73
     1
 90
        2
 40
-0.6
 41
30.0
 62
     5
 63
     7
 74
     0
 91
        4
 64
     7
 65
   257
 75
     1
175
     1
 42
1.0
 92
        0
 66
     7
 43
1.0
 76
     1
 77
     6
 78
     2
 67
     7
 79
     5
170
     0
171
     0
290
     0
174
     0
 93
       13
 44
0.0
173
     0
291
     1
 45
0.0
1001
ACAD
1000
AcDbSavedByObjectVersion
1070
     0
  0
VISUALSTYLE
  5
2E
102
{ACAD_REACTORS
330
2A
102
}
102
{ACAD_XDICTIONARY
360
AC
102
}
330
2A
100
AcDbVisualStyle
  2
GouraudWithEdges
 70
     3
 71
     2
 72
     2
 73
     1
 90
        2
 40
-0.6
 41
30.0
 62
     5
 63
     7
 74
     1
 91
        4
 64
     7
 65
   257
 75
     1
175
     1
 42
1.0
 92
        0
 66
   257
 43
1.0
 76
     1
 77
     6
 78
     2
 67
     7
 79
     5
170
     0
171
     0
290
     0
174
     0
 93
       13
 44
0.0
173
     0
291
     1
 45
0.0
1001
ACAD
1000
AcDbSavedByObjectVersion
1070
     0
  0
VISUALSTYLE
  5
38
102
{ACAD_REACTORS
330
2A
102
}
102
{ACAD_XDICTIONARY
360
C0
102
}
330
2A
100
AcDbVisualStyle
  2
Linepattern
 70
    14
 71
     2
 72
     2
 73
     0
 90
        0
 40
-0.6
 41
-30.0
 62
     5
 63
     7
 74
     1
 91
        4
 64
     7
 65
   257
 75
     7
175
     7
 42
1.0
 92
        8
 66
     7
 43
1.0
 76
     1
 77
     6
 78
     2
 67
     7
 79
     5
170
     0
171
     0
290
     0
174
     0
 93
        1
 44
0.0
173
     0
291
     1
 45
0.0
1001
ACAD
1000
AcDbSavedByObjectVersion
1070
     0
  0
VISUALSTYLE
  5
33
102
{ACAD_REACTORS
330
2A
102
}
102
{ACAD_XDICTIONARY
360
B6
102
}
330
2A
100
AcDbVisualStyle
  2
Realistic
 70
     8
 71
     2
 72
     2
 73
     0
 90
        0
 40
-0.6
 41
-30.0
 62
     5
 63
     7
 74
     1
 91
        0
 64
     7
 65
   257
 75
     1
175
     1
 42
1.0
 92
        8
 66
     8
 43
1.0
 76
     1
 77
     6
 78
     2
 67
     7
 79
     5
170
     0
171
     0
290
     0
174
     0
 93
       13
 44
0.0
173
     0
291
     0
 45
0.0
1001
ACAD
1000
AcDbSavedByObjectVersion
1070
     0
  0
VISUALSTYLE
  5
37
102
{ACAD_REACTORS
330
2A
102
}
102
{ACAD_XDICTIONARY
360
BE
102
}
330
2A
100
AcDbVisualStyle
  2
Thicken
 70
    13
 71
     2
 72
     2
 73
     0
 90
        0
 40
-0.6
 41
-30.0
 62
     5
 63
     7
 74
     1
 91
        4
 64
     7
 65
   257
 75
     1
175
     1
 42
1.0
 92
       12
 66
     7
 43
1.0
 76
     1
 77
     6
 78
     2
 67
     7
 79
     5
170
     0
171
     0
290
     0
174
     0
 93
        1
 44
0.0
173
     0
291
     1
 45
0.0
1001
ACAD
1000
AcDbSavedByObjectVersion
1070
     0
  0
DICTIONARYVAR
  5
A4
102
{ACAD_REACTORS
330
A1
102
}
330
A1
100
DictionaryVariables
280
     0
  1
2
  0
DICTIONARYVAR
  5
A5
102
{ACAD_REACTORS
330
A1
102
}
330
A1
100
DictionaryVariables
280
     0
  1
1
  0
DICTIONARY
  5
C8
330
3D
100
AcDbDictionary
280
     1
281
     1
  3
ACAD_XREC_ROUNDTRIP
360
C9
  0
DICTIONARY
  5
C6
330
3C
100
AcDbDictionary
280
     1
281
     1
  3
ACAD_XREC_ROUNDTRIP
360
C7
  0
DICTIONARY
  5
CA
330
3E
100
AcDbDictionary
280
     1
281
     1
  3
ACAD_XREC_ROUNDTRIP
360
CB
  0
DICTIONARY
  5
AE
330
2F
100
AcDbDictionary
280
     1
281
     1
  3
ACAD_XREC_ROUNDTRIP
360
AF
  0
DICTIONARY
  5
B2
330
31
100
AcDbDictionary
280
     1
281
     1
  3
ACAD_XREC_ROUNDTRIP
360
B3
  0
DICTIONARY
  5
B0
330
30
100
AcDbDictionary
280
     1
281
     1
  3
ACAD_XREC_ROUNDTRIP
360
B1
  0
DICTIONARY
  5
B4
330
32
100
AcDbDictionary
280
     1
281
     1
  3
ACAD_XREC_ROUNDTRIP
360
B5
  0
DICTIONARY
  5
BC
330
36
100
AcDbDictionary
280
     1
281
     1
  3
ACAD_XREC_ROUNDTRIP
360
BD
  0
DICTIONARY
  5
C4
330
3A
100
AcDbDictionary
280
     1
281
     1
  3
ACAD_XREC_ROUNDTRIP
360
C5
  0
DICTIONARY
  5
B8
330
34
100
AcDbDictionary
280
     1
281
     1
  3
ACAD_XREC_ROUNDTRIP
360
B9
  0
DICTIONARY
  5
BA
330
35
100
AcDbDictionary
280
     1
281
     1
  3
ACAD_XREC_ROUNDTRIP
360
BB
  0
DICTIONARY
  5
C2
330
39
100
AcDbDictionary
280
     1
281
     1
  3
ACAD_XREC_ROUNDTRIP
360
C3
  0
DICTIONARY
  5
A6
330
2B
100
AcDbDictionary
280
     1
281
     1
  3
ACAD_XREC_ROUNDTRIP
360
A7
  0
DICTIONARY
  5
A8
330
2C
100
AcDbDictionary
280
     1
281
     1
  3
ACAD_XREC_ROUNDTRIP
360
A9
  0
DICTIONARY
  5
AA
330
2D
100
AcDbDictionary
280
     1
281
     1
  3
ACAD_XREC_ROUNDTRIP
360
AB
  0
DICTIONARY
  5
AC
330
2E
100
AcDbDictionary
280
     1
281
     1
  3
ACAD_XREC_ROUNDTRIP
360
AD
  0
DICTIONARY
  5
C0
330
38
100
AcDbDictionary
280
     1
281
     1
  3
ACAD_XREC_ROUNDTRIP
360
C1
  0
DICTIONARY
  5
B6
330
33
100
AcDbDictionary
280
     1
281
     1
  3
ACAD_XREC_ROUNDTRIP
360
B7
  0
DICTIONARY
  5
BE
330
37
100
AcDbDictionary
280
     1
281
     1
  3
ACAD_XREC_ROUNDTRIP
360
BF
  0
XRECORD
  5
C9
102
{ACAD_REACTORS
330
C8
102
}
330
C8
100
AcDbXrecord
280
     1
102
MATERIAL
148
0.0
149
0.0
149
0.0
 93
        0
 94
      127
282
     0
 72
     1
 77
     1
171
     1
175
     1
179
     1
273
     0
  0
XRECORD
  5
C7
102
{ACAD_REACTORS
330
C6
102
}
330
C6
100
AcDbXrecord
280
     1
102
MATERIAL
148
0.0
149
0.0
149
0.0
 93
        0
 94
      127
282
     0
 72
     1
 77
     1
171
     1
175
     1
179
     1
273
     0
  0
XRECORD
  5
CB
102
{ACAD_REACTORS
330
CA
102
}
330
CA
100
AcDbXrecord
280
     1
102
MATERIAL
148
0.0
149
0.0
149
0.0
 93
        0
 94
      127
282
     0
 72
     1
 77
     1
171
     1
175
     1
179
     1
273
     0
  0
XRECORD
  5
AF
102
{ACAD_REACTORS
330
AE
102
}
330
AE
100
AcDbXrecord
280
     1
102
RTVSPropertyOp0
 70
     1
102
RTVSPropertyOp1
 70
     1
102
RTVSPropertyOp2
 70
     1
102
RTVSPropertyOp3
 70
     1
102
RTVSPropertyOp4
 70
     1
102
RTVSPropertyOp5
 70
     1
102
RTVSPropertyOp6
 70
     1
102
RTVSPropertyOp7
 70
     1
102
RTVSPropertyOp8
 70
     1
102
RTVSPropertyOp9
 70
     1
102
RTVSPropertyOp10
 70
     1
102
RTVSPropertyOp11
 70
     1
102
RTVSPropertyOp12
 70
     1
102
RTVSPropertyOp13
 70
     1
102
RTVSPropertyOp14
 70
     1
102
RTVSPropertyOp15
 70
     1
102
RTVSPropertyOp16
 70
     1
102
RTVSPropertyOp17
 70
     1
102
RTVSPropertyOp18
 70
     1
102
RTVSPropertyOp19
 70
     1
102
RTVSPropertyOp20
 70
     1
102
RTVSPropertyOp21
 70
     1
102
RTVSPropertyOp22
 70
     1
102
RTVSPropertyOp23
 70
     1
102
RTVSPropertyOp24
 70
     1
102
RTVSPropertyOp25
 70
     1
102
RTVSPropertyOp26
 70
     1
102
RTVSPropertyOp27
 70
     1
102
RTVSPropertyOp28
 70
     1
102
RTVSPropertyOp29
 70
     1
102
RTVSPropertyOp30
 70
     1
102
RTVSPropertyOp31
 70
     1
102
RTVSPropertyOp32
 70
     1
  0
XRECORD
  5
B3
102
{ACAD_REACTORS
330
B2
102
}
330
B2
100
AcDbXrecord
280
     1
102
RTVSPropertyOp0
 70
     1
102
RTVSPropertyOp1
 70
     1
102
RTVSPropertyOp2
 70
     1
102
RTVSPropertyOp3
 70
     1
102
RTVSPropertyOp4
 70
     1
102
RTVSPropertyOp5
 70
     1
102
RTVSPropertyOp6
 70
     1
102
RTVSPropertyOp7
 70
     1
102
RTVSPropertyOp8
 70
     1
102
RTVSPropertyOp9
 70
     1
102
RTVSPropertyOp10
 70
     1
102
RTVSPropertyOp11
 70
     1
102
RTVSPropertyOp12
 70
     1
102
RTVSPropertyOp13
 70
     1
102
RTVSPropertyOp14
 70
     1
102
RTVSPropertyOp15
 70
     1
102
RTVSPropertyOp16
 70
     1
102
RTVSPropertyOp17
 70
     1
102
RTVSPropertyOp18
 70
     1
102
RTVSPropertyOp19
 70
     1
102
RTVSPropertyOp20
 70
     1
102
RTVSPropertyOp21
 70
     1
102
RTVSPropertyOp22
 70
     1
102
RTVSPropertyOp23
 70
     1
102
RTVSPropertyOp24
 70
     1
102
RTVSPropertyOp25
 70
     1
102
RTVSPropertyOp26
 70
     1
102
RTVSPropertyOp27
 70
     1
102
RTVSPropertyOp28
 70
     1
102
RTVSPropertyOp29
 70
     1
102
RTVSPropertyOp30
 70
     1
102
RTVSPropertyOp31
 70
     1
102
RTVSPropertyOp32
 70
     1
  0
XRECORD
  5
B1
102
{ACAD_REACTORS
330
B0
102
}
330
B0
100
AcDbXrecord
280
     1
102
RTVSPropertyOp0
 70
     1
102
RTVSPropertyOp1
 70
     1
102
RTVSPropertyOp2
 70
     1
102
RTVSPropertyOp3
 70
     1
102
RTVSPropertyOp4
 70
     1
102
RTVSPropertyOp5
 70
     1
102
RTVSPropertyOp6
 70
     1
102
RTVSPropertyOp7
 70
     1
102
RTVSPropertyOp8
 70
     1
102
RTVSPropertyOp9
 70
     1
102
RTVSPropertyOp10
 70
     1
102
RTVSPropertyOp11
 70
     1
102
RTVSPropertyOp12
 70
     1
102
RTVSPropertyOp13
 70
     1
102
RTVSPropertyOp14
 70
     1
102
RTVSPropertyOp15
 70
     1
102
RTVSPropertyOp16
 70
     1
102
RTVSPropertyOp17
 70
     1
102
RTVSPropertyOp18
 70
     1
102
RTVSPropertyOp19
 70
     1
102
RTVSPropertyOp20
 70
     1
102
RTVSPropertyOp21
 70
     1
102
RTVSPropertyOp22
 70
     1
102
RTVSPropertyOp23
 70
     1
102
RTVSPropertyOp24
 70
     1
102
RTVSPropertyOp25
 70
     1
102
RTVSPropertyOp26
 70
     1
102
RTVSPropertyOp27
 70
     1
102
RTVSPropertyOp28
 70
     1
102
RTVSPropertyOp29
 70
     1
102
RTVSPropertyOp30
 70
     1
102
RTVSPropertyOp31
 70
     1
102
RTVSPropertyOp32
 70
     1
  0
XRECORD
  5
B5
102
{ACAD_REACTORS
330
B4
102
}
330
B4
100
AcDbXrecord
280
     1
102
RTVSPropertyOp0
 70
     1
102
RTVSPropertyOp1
 70
     1
102
RTVSPropertyOp2
 70
     1
102
RTVSPropertyOp3
 70
     1
102
RTVSPropertyOp4
 70
     1
102
RTVSPropertyOp5
 70
     1
102
RTVSPropertyOp6
 70
     1
102
RTVSPropertyOp7
 70
     1
102
RTVSPropertyOp8
 70
     1
102
RTVSPropertyOp9
 70
     1
102
RTVSPropertyOp10
 70
     1
102
RTVSPropertyOp11
 70
     1
102
RTVSPropertyOp12
 70
     1
102
RTVSPropertyOp13
 70
     1
102
RTVSPropertyOp14
 70
     1
102
RTVSPropertyOp15
 70
     1
102
RTVSPropertyOp16
 70
     1
102
RTVSPropertyOp17
 70
     1
102
RTVSPropertyOp18
 70
     1
102
RTVSPropertyOp19
 70
     1
102
RTVSPropertyOp20
 70
     1
102
RTVSPropertyOp21
 70
     1
102
RTVSPropertyOp22
 70
     1
102
RTVSPropertyOp23
 70
     1
102
RTVSPropertyOp24
 70
     1
102
RTVSPropertyOp25
 70
     1
102
RTVSPropertyOp26
 70
     1
102
RTVSPropertyOp27
 70
     1
102
RTVSPropertyOp28
 70
     1
102
RTVSPropertyOp29
 70
     1
102
RTVSPropertyOp30
 70
     1
102
RTVSPropertyOp31
 70
     1
102
RTVSPropertyOp32
 70
     1
  0
XRECORD
  5
BD
102
{ACAD_REACTORS
330
BC
102
}
330
BC
100
AcDbXrecord
280
     1
102
RTVSPropertyOp0
 70
     1
102
RTVSPropertyOp1
 70
     1
102
RTVSPropertyOp2
 70
     1
102
RTVSPropertyOp3
 70
     1
102
RTVSPropertyOp4
 70
     1
102
RTVSPropertyOp5
 70
     1
102
RTVSPropertyOp6
 70
     1
102
RTVSPropertyOp7
 70
     1
102
RTVSPropertyOp8
 70
     1
102
RTVSPropertyOp9
 70
     1
102
RTVSPropertyOp10
 70
     1
102
RTVSPropertyOp11
 70
     1
102
RTVSPropertyOp12
 70
     1
102
RTVSPropertyOp13
 70
     1
102
RTVSPropertyOp14
 70
     1
102
RTVSPropertyOp15
 70
     1
102
RTVSPropertyOp16
 70
     1
102
RTVSPropertyOp17
 70
     1
102
RTVSPropertyOp18
 70
     1
102
RTVSPropertyOp19
 70
     1
102
RTVSPropertyOp20
 70
     1
102
RTVSPropertyOp21
 70
     1
102
RTVSPropertyOp22
 70
     1
102
RTVSPropertyOp23
 70
     1
102
RTVSPropertyOp24
 70
     1
102
RTVSPropertyOp25
 70
     1
102
RTVSPropertyOp26
 70
     1
102
RTVSPropertyOp27
 70
     1
102
RTVSPropertyOp28
 70
     1
102
RTVSPropertyOp29
 70
     1
102
RTVSPropertyOp30
 70
     1
102
RTVSPropertyOp31
 70
     1
102
RTVSPropertyOp32
 70
     1
  0
XRECORD
  5
C5
102
{ACAD_REACTORS
330
C4
102
}
330
C4
100
AcDbXrecord
280
     1
102
RTVSPropertyOp0
 70
     1
102
RTVSPropertyOp1
 70
     1
102
RTVSPropertyOp2
 70
     1
102
RTVSPropertyOp3
 70
     1
102
RTVSPropertyOp4
 70
     1
102
RTVSPropertyOp5
 70
     1
102
RTVSPropertyOp6
 70
     1
102
RTVSPropertyOp7
 70
     1
102
RTVSPropertyOp8
 70
     1
102
RTVSPropertyOp9
 70
     1
102
RTVSPropertyOp10
 70
     1
102
RTVSPropertyOp11
 70
     1
102
RTVSPropertyOp12
 70
     1
102
RTVSPropertyOp13
 70
     1
102
RTVSPropertyOp14
 70
     1
102
RTVSPropertyOp15
 70
     1
102
RTVSPropertyOp16
 70
     1
102
RTVSPropertyOp17
 70
     1
102
RTVSPropertyOp18
 70
     1
102
RTVSPropertyOp19
 70
     1
102
RTVSPropertyOp20
 70
     1
102
RTVSPropertyOp21
 70
     1
102
RTVSPropertyOp22
 70
     1
102
RTVSPropertyOp23
 70
     1
102
RTVSPropertyOp24
 70
     1
102
RTVSPropertyOp25
 70
     1
102
RTVSPropertyOp26
 70
     1
102
RTVSPropertyOp27
 70
     1
102
RTVSPropertyOp28
 70
     1
102
RTVSPropertyOp29
 70
     1
102
RTVSPropertyOp30
 70
     1
102
RTVSPropertyOp31
 70
     1
102
RTVSPropertyOp32
 70
     1
  0
XRECORD
  5
B9
102
{ACAD_REACTORS
330
B8
102
}
330
B8
100
AcDbXrecord
280
     1
102
RTVSPropertyOp0
 70
     1
102
RTVSPropertyOp1
 70
     1
102
RTVSPropertyOp2
 70
     1
102
RTVSPropertyOp3
 70
     1
102
RTVSPropertyOp4
 70
     1
102
RTVSPropertyOp5
 70
     1
102
RTVSPropertyOp6
 70
     1
102
RTVSPropertyOp7
 70
     1
102
RTVSPropertyOp8
 70
     1
102
RTVSPropertyOp9
 70
     1
102
RTVSPropertyOp10
 70
     1
102
RTVSPropertyOp11
 70
     1
102
RTVSPropertyOp12
 70
     1
102
RTVSPropertyOp13
 70
     1
102
RTVSPropertyOp14
 70
     1
102
RTVSPropertyOp15
 70
     1
102
RTVSPropertyOp16
 70
     1
102
RTVSPropertyOp17
 70
     1
102
RTVSPropertyOp18
 70
     1
102
RTVSPropertyOp19
 70
     1
102
RTVSPropertyOp20
 70
     1
102
RTVSPropertyOp21
 70
     1
102
RTVSPropertyOp22
 70
     1
102
RTVSPropertyOp23
 70
     1
102
RTVSPropertyOp24
 70
     1
102
RTVSPropertyOp25
 70
     1
102
RTVSPropertyOp26
 70
     1
102
RTVSPropertyOp27
 70
     1
102
RTVSPropertyOp28
 70
     1
102
RTVSPropertyOp29
 70
     1
102
RTVSPropertyOp30
 70
     1
102
RTVSPropertyOp31
 70
     1
102
RTVSPropertyOp32
 70
     1
  0
XRECORD
  5
BB
102
{ACAD_REACTORS
330
BA
102
}
330
BA
100
AcDbXrecord
280
     1
102
RTVSPropertyOp0
 70
     1
102
RTVSPropertyOp1
 70
     1
102
RTVSPropertyOp2
 70
     1
102
RTVSPropertyOp3
 70
     1
102
RTVSPropertyOp4
 70
     1
102
RTVSPropertyOp5
 70
     1
102
RTVSPropertyOp6
 70
     1
102
RTVSPropertyOp7
 70
     1
102
RTVSPropertyOp8
 70
     1
102
RTVSPropertyOp9
 70
     1
102
RTVSPropertyOp10
 70
     1
102
RTVSPropertyOp11
 70
     1
102
RTVSPropertyOp12
 70
     1
102
RTVSPropertyOp13
 70
     1
102
RTVSPropertyOp14
 70
     1
102
RTVSPropertyOp15
 70
     1
102
RTVSPropertyOp16
 70
     1
102
RTVSPropertyOp17
 70
     1
102
RTVSPropertyOp18
 70
     1
102
RTVSPropertyOp19
 70
     1
102
RTVSPropertyOp20
 70
     1
102
RTVSPropertyOp21
 70
     1
102
RTVSPropertyOp22
 70
     1
102
RTVSPropertyOp23
 70
     1
102
RTVSPropertyOp24
 70
     1
102
RTVSPropertyOp25
 70
     1
102
RTVSPropertyOp26
 70
     1
102
RTVSPropertyOp27
 70
     1
102
RTVSPropertyOp28
 70
     1
102
RTVSPropertyOp29
 70
     1
102
RTVSPropertyOp30
 70
     1
102
RTVSPropertyOp31
 70
     1
102
RTVSPropertyOp32
 70
     1
  0
XRECORD
  5
C3
102
{ACAD_REACTORS
330
C2
102
}
330
C2
100
AcDbXrecord
280
     1
102
RTVSPropertyOp0
 70
     1
102
RTVSPropertyOp1
 70
     1
102
RTVSPropertyOp2
 70
     1
102
RTVSPropertyOp3
 70
     1
102
RTVSPropertyOp4
 70
     1
102
RTVSPropertyOp5
 70
     1
102
RTVSPropertyOp6
 70
     1
102
RTVSPropertyOp7
 70
     1
102
RTVSPropertyOp8
 70
     1
102
RTVSPropertyOp9
 70
     1
102
RTVSPropertyOp10
 70
     1
102
RTVSPropertyOp11
 70
     1
102
RTVSPropertyOp12
 70
     1
102
RTVSPropertyOp13
 70
     1
102
RTVSPropertyOp14
 70
     1
102
RTVSPropertyOp15
 70
     1
102
RTVSPropertyOp16
 70
     1
102
RTVSPropertyOp17
 70
     1
102
RTVSPropertyOp18
 70
     1
102
RTVSPropertyOp19
 70
     1
102
RTVSPropertyOp20
 70
     1
102
RTVSPropertyOp21
 70
     1
102
RTVSPropertyOp22
 70
     1
102
RTVSPropertyOp23
 70
     1
102
RTVSPropertyOp24
 70
     1
102
RTVSPropertyOp25
 70
     1
102
RTVSPropertyOp26
 70
     1
102
RTVSPropertyOp27
 70
     1
102
RTVSPropertyOp28
 70
     1
102
RTVSPropertyOp29
 70
     1
102
RTVSPropertyOp30
 70
     1
102
RTVSPropertyOp31
 70
     1
102
RTVSPropertyOp32
 70
     1
  0
XRECORD
  5
A7
102
{ACAD_REACTORS
330
A6
102
}
330
A6
100
AcDbXrecord
280
     1
102
RTVSPropertyOp0
 70
     1
102
RTVSPropertyOp1
 70
     1
102
RTVSPropertyOp2
 70
     1
102
RTVSPropertyOp3
 70
     1
102
RTVSPropertyOp4
 70
     1
102
RTVSPropertyOp5
 70
     1
102
RTVSPropertyOp6
 70
     1
102
RTVSPropertyOp7
 70
     1
102
RTVSPropertyOp8
 70
     1
102
RTVSPropertyOp9
 70
     1
102
RTVSPropertyOp10
 70
     1
102
RTVSPropertyOp11
 70
     1
102
RTVSPropertyOp12
 70
     1
102
RTVSPropertyOp13
 70
     1
102
RTVSPropertyOp14
 70
     1
102
RTVSPropertyOp15
 70
     1
102
RTVSPropertyOp16
 70
     1
102
RTVSPropertyOp17
 70
     1
102
RTVSPropertyOp18
 70
     1
102
RTVSPropertyOp19
 70
     1
102
RTVSPropertyOp20
 70
     1
102
RTVSPropertyOp21
 70
     1
102
RTVSPropertyOp22
 70
     1
102
RTVSPropertyOp23
 70
     1
102
RTVSPropertyOp24
 70
     1
102
RTVSPropertyOp25
 70
     1
102
RTVSPropertyOp26
 70
     1
102
RTVSPropertyOp27
 70
     1
102
RTVSPropertyOp28
 70
     1
102
RTVSPropertyOp29
 70
     1
102
RTVSPropertyOp30
 70
     1
102
RTVSPropertyOp31
 70
     1
102
RTVSPropertyOp32
 70
     1
  0
XRECORD
  5
A9
102
{ACAD_REACTORS
330
A8
102
}
330
A8
100
AcDbXrecord
280
     1
102
RTVSPropertyOp0
 70
     1
102
RTVSPropertyOp1
 70
     1
102
RTVSPropertyOp2
 70
     1
102
RTVSPropertyOp3
 70
     1
102
RTVSPropertyOp4
 70
     1
102
RTVSPropertyOp5
 70
     1
102
RTVSPropertyOp6
 70
     1
102
RTVSPropertyOp7
 70
     1
102
RTVSPropertyOp8
 70
     1
102
RTVSPropertyOp9
 70
     1
102
RTVSPropertyOp10
 70
     1
102
RTVSPropertyOp11
 70
     1
102
RTVSPropertyOp12
 70
     1
102
RTVSPropertyOp13
 70
     1
102
RTVSPropertyOp14
 70
     1
102
RTVSPropertyOp15
 70
     1
102
RTVSPropertyOp16
 70
     1
102
RTVSPropertyOp17
 70
     1
102
RTVSPropertyOp18
 70
     1
102
RTVSPropertyOp19
 70
     1
102
RTVSPropertyOp20
 70
     1
102
RTVSPropertyOp21
 70
     1
102
RTVSPropertyOp22
 70
     1
102
RTVSPropertyOp23
 70
     1
102
RTVSPropertyOp24
 70
     1
102
RTVSPropertyOp25
 70
     1
102
RTVSPropertyOp26
 70
     1
102
RTVSPropertyOp27
 70
     1
102
RTVSPropertyOp28
 70
     1
102
RTVSPropertyOp29
 70
     1
102
RTVSPropertyOp30
 70
     1
102
RTVSPropertyOp31
 70
     1
102
RTVSPropertyOp32
 70
     1
  0
XRECORD
  5
AB
102
{ACAD_REACTORS
330
AA
102
}
330
AA
100
AcDbXrecord
280
     1
102
RTVSPropertyOp0
 70
     1
102
RTVSPropertyOp1
 70
     1
102
RTVSPropertyOp2
 70
     1
102
RTVSPropertyOp3
 70
     1
102
RTVSPropertyOp4
 70
     1
102
RTVSPropertyOp5
 70
     1
102
RTVSPropertyOp6
 70
     1
102
RTVSPropertyOp7
 70
     1
102
RTVSPropertyOp8
 70
     1
102
RTVSPropertyOp9
 70
     1
102
RTVSPropertyOp10
 70
     1
102
RTVSPropertyOp11
 70
     1
102
RTVSPropertyOp12
 70
     1
102
RTVSPropertyOp13
 70
     1
102
RTVSPropertyOp14
 70
     1
102
RTVSPropertyOp15
 70
     1
102
RTVSPropertyOp16
 70
     1
102
RTVSPropertyOp17
 70
     1
102
RTVSPropertyOp18
 70
     1
102
RTVSPropertyOp19
 70
     1
102
RTVSPropertyOp20
 70
     1
102
RTVSPropertyOp21
 70
     1
102
RTVSPropertyOp22
 70
     1
102
RTVSPropertyOp23
 70
     1
102
RTVSPropertyOp24
 70
     1
102
RTVSPropertyOp25
 70
     1
102
RTVSPropertyOp26
 70
     1
102
RTVSPropertyOp27
 70
     1
102
RTVSPropertyOp28
 70
     1
102
RTVSPropertyOp29
 70
     1
102
RTVSPropertyOp30
 70
     1
102
RTVSPropertyOp31
 70
     1
102
RTVSPropertyOp32
 70
     1
  0
XRECORD
  5
AD
102
{ACAD_REACTORS
330
AC
102
}
330
AC
100
AcDbXrecord
280
     1
102
RTVSPropertyOp0
 70
     1
102
RTVSPropertyOp1
 70
     1
102
RTVSPropertyOp2
 70
     1
102
RTVSPropertyOp3
 70
     1
102
RTVSPropertyOp4
 70
     1
102
RTVSPropertyOp5
 70
     1
102
RTVSPropertyOp6
 70
     1
102
RTVSPropertyOp7
 70
     1
102
RTVSPropertyOp8
 70
     1
102
RTVSPropertyOp9
 70
     1
102
RTVSPropertyOp10
 70
     1
102
RTVSPropertyOp11
 70
     1
102
RTVSPropertyOp12
 70
     1
102
RTVSPropertyOp13
 70
     1
102
RTVSPropertyOp14
 70
     1
102
RTVSPropertyOp15
 70
     1
102
RTVSPropertyOp16
 70
     1
102
RTVSPropertyOp17
 70
     1
102
RTVSPropertyOp18
 70
     1
102
RTVSPropertyOp19
 70
     1
102
RTVSPropertyOp20
 70
     1
102
RTVSPropertyOp21
 70
     1
102
RTVSPropertyOp22
 70
     1
102
RTVSPropertyOp23
 70
     1
102
RTVSPropertyOp24
 70
     1
102
RTVSPropertyOp25
 70
     1
102
RTVSPropertyOp26
 70
     1
102
RTVSPropertyOp27
 70
     1
102
RTVSPropertyOp28
 70
     1
102
RTVSPropertyOp29
 70
     1
102
RTVSPropertyOp30
 70
     1
102
RTVSPropertyOp31
 70
     1
102
RTVSPropertyOp32
 70
     1
  0
XRECORD
  5
C1
102
{ACAD_REACTORS
330
C0
102
}
330
C0
100
AcDbXrecord
280
     1
102
RTVSPropertyOp0
 70
     1
102
RTVSPropertyOp1
 70
     1
102
RTVSPropertyOp2
 70
     1
102
RTVSPropertyOp3
 70
     1
102
RTVSPropertyOp4
 70
     1
102
RTVSPropertyOp5
 70
     1
102
RTVSPropertyOp6
 70
     1
102
RTVSPropertyOp7
 70
     1
102
RTVSPropertyOp8
 70
     1
102
RTVSPropertyOp9
 70
     1
102
RTVSPropertyOp10
 70
     1
102
RTVSPropertyOp11
 70
     1
102
RTVSPropertyOp12
 70
     1
102
RTVSPropertyOp13
 70
     1
102
RTVSPropertyOp14
 70
     1
102
RTVSPropertyOp15
 70
     1
102
RTVSPropertyOp16
 70
     1
102
RTVSPropertyOp17
 70
     1
102
RTVSPropertyOp18
 70
     1
102
RTVSPropertyOp19
 70
     1
102
RTVSPropertyOp20
 70
     1
102
RTVSPropertyOp21
 70
     1
102
RTVSPropertyOp22
 70
     1
102
RTVSPropertyOp23
 70
     1
102
RTVSPropertyOp24
 70
     1
102
RTVSPropertyOp25
 70
     1
102
RTVSPropertyOp26
 70
     1
102
RTVSPropertyOp27
 70
     1
102
RTVSPropertyOp28
 70
     1
102
RTVSPropertyOp29
 70
     1
102
RTVSPropertyOp30
 70
     1
102
RTVSPropertyOp31
 70
     1
102
RTVSPropertyOp32
 70
     1
  0
XRECORD
  5
B7
102
{ACAD_REACTORS
330
B6
102
}
330
B6
100
AcDbXrecord
280
     1
102
RTVSPropertyOp0
 70
     1
102
RTVSPropertyOp1
 70
     1
102
RTVSPropertyOp2
 70
     1
102
RTVSPropertyOp3
 70
     1
102
RTVSPropertyOp4
 70
     1
102
RTVSPropertyOp5
 70
     1
102
RTVSPropertyOp6
 70
     1
102
RTVSPropertyOp7
 70
     1
102
RTVSPropertyOp8
 70
     1
102
RTVSPropertyOp9
 70
     1
102
RTVSPropertyOp10
 70
     1
102
RTVSPropertyOp11
 70
     1
102
RTVSPropertyOp12
 70
     1
102
RTVSPropertyOp13
 70
     1
102
RTVSPropertyOp14
 70
     1
102
RTVSPropertyOp15
 70
     1
102
RTVSPropertyOp16
 70
     1
102
RTVSPropertyOp17
 70
     1
102
RTVSPropertyOp18
 70
     1
102
RTVSPropertyOp19
 70
     1
102
RTVSPropertyOp20
 70
     1
102
RTVSPropertyOp21
 70
     1
102
RTVSPropertyOp22
 70
     1
102
RTVSPropertyOp23
 70
     1
102
RTVSPropertyOp24
 70
     1
102
RTVSPropertyOp25
 70
     1
102
RTVSPropertyOp26
 70
     1
102
RTVSPropertyOp27
 70
     1
102
RTVSPropertyOp28
 70
     1
102
RTVSPropertyOp29
 70
     1
102
RTVSPropertyOp30
 70
     1
102
RTVSPropertyOp31
 70
     1
102
RTVSPropertyOp32
 70
     1
  0
XRECORD
  5
BF
102
{ACAD_REACTORS
330
BE
102
}
330
BE
100
AcDbXrecord
280
     1
102
RTVSPropertyOp0
 70
     1
102
RTVSPropertyOp1
 70
     1
102
RTVSPropertyOp2
 70
     1
102
RTVSPropertyOp3
 70
     1
102
RTVSPropertyOp4
 70
     1
102
RTVSPropertyOp5
 70
     1
102
RTVSPropertyOp6
 70
     1
102
RTVSPropertyOp7
 70
     1
102
RTVSPropertyOp8
 70
     1
102
RTVSPropertyOp9
 70
     1
102
RTVSPropertyOp10
 70
     1
102
RTVSPropertyOp11
 70
     1
102
RTVSPropertyOp12
 70
     1
102
RTVSPropertyOp13
 70
     1
102
RTVSPropertyOp14
 70
     1
102
RTVSPropertyOp15
 70
     1
102
RTVSPropertyOp16
 70
     1
102
RTVSPropertyOp17
 70
     1
102
RTVSPropertyOp18
 70
     1
102
RTVSPropertyOp19
 70
     1
102
RTVSPropertyOp20
 70
     1
102
RTVSPropertyOp21
 70
     1
102
RTVSPropertyOp22
 70
     1
102
RTVSPropertyOp23
 70
     1
102
RTVSPropertyOp24
 70
     1
102
RTVSPropertyOp25
 70
     1
102
RTVSPropertyOp26
 70
     1
102
RTVSPropertyOp27
 70
     1
102
RTVSPropertyOp28
 70
     1
102
RTVSPropertyOp29
 70
     1
102
RTVSPropertyOp30
 70
     1
102
RTVSPropertyOp31
 70
     1
102
RTVSPropertyOp32
 70
     1
  0
ENDSEC
  0
EOF
