  0
SECTION
  2
HEADER
  9
$ACADVER
  1
AC1015
  9
$ACADMAINTVER
 70
     6
  9
$DWGCODEPAGE
  3
DOS850
  9
$INSBASE
 10
0.0
 20
0.0
 30
0.0
  9
$EXTMIN
 10
-5.23874
 20
1.55339
 30
1.000000E+20
  9
$EXTMAX
 10
8.72704
 20
9.38369
 30
-1.000000E+20
  9
$LIMMIN
 10
0.0
 20
0.0
  9
$LIMMAX
 10
0.0
 20
0.0
  9
$ORTHOMODE
 70
     0
  9
$REGENMODE
 70
     1
  9
$FILLMODE
 70
     1
  9
$QTEXTMODE
 70
     0
  9
$MIRRTEXT
 70
     1
  9
$LTSCALE
 40
1.0
  9
$ATTMODE
 70
     1
  9
$TEXTSIZE
 40
0.2
  9
$TRACEWID
 40
0.05
  9
$TEXTSTYLE
  7
Standard
  9
$CLAYER
  8
0
  9
$CELTYPE
  6
Continuous
  9
$CECOLOR
 62
   256
  9
$CELTSCALE
 40
1.0
  9
$DISPSILH
 70
     0
  9
$DIMSCALE
 40
1.0
  9
$DIMASZ
 40
0.18
  9
$DIMEXO
 40
0.0625
  9
$DIMDLI
 40
0.38
  9
$DIMRND
 40
0.0
  9
$DIMDLE
 40
0.0
  9
$DIMEXE
 40
0.18
  9
$DIMTP
 40
0.0
  9
$DIMTM
 40
0.0
  9
$DIMTXT
 40
0.18
  9
$DIMCEN
 40
0.09
  9
$DIMTSZ
 40
0.0
  9
$DIMTOL
 70
     0
  9
$DIMLIM
 70
     0
  9
$DIMTIH
 70
     1
  9
$DIMTOH
 70
     1
  9
$DIMSE1
 70
     0
  9
$DIMSE2
 70
     0
  9
$DIMTAD
 70
     0
  9
$DIMZIN
 70
     0
  9
$DIMBLK
  1

  9
$DIMASO
 70
     1
  9
$DIMSHO
 70
     1
  9
$DIMPOST
  1

  9
$DIMAPOST
  1

  9
$DIMALT
 70
     0
  9
$DIMALTD
 70
     2
  9
$DIMALTF
 40
25.4
  9
$DIMLFAC
 40
1.0
  9
$DIMTOFL
 70
     0
  9
$DIMTVP
 40
0.0
  9
$DIMTIX
 70
     0
  9
$DIMSOXD
 70
     0
  9
$DIMSAH
 70
     0
  9
$DIMBLK1
  1

  9
$DIMBLK2
  1

  9
$DIMSTYLE
  2
Standard
  9
$DIMCLRD
 70
     0
  9
$DIMCLRE
 70
     0
  9
$DIMCLRT
 70
     0
  9
$DIMTFAC
 40
1.0
  9
$DIMGAP
 40
0.09
  9
$DIMJUST
 70
     0
  9
$DIMSD1
 70
     0
  9
$DIMSD2
 70
     0
  9
$DIMTOLJ
 70
     1
  9
$DIMTZIN
 70
     0
  9
$DIMALTZ
 70
     0
  9
$DIMALTTZ
 70
     0
  9
$DIMUPT
 70
     0
  9
$DIMDEC
 70
     4
  9
$DIMTDEC
 70
     4
  9
$DIMALTU
 70
     2
  9
$DIMALTTD
 70
     2
  9
$DIMTXSTY
  7
Standard
  9
$DIMAUNIT
 70
     0
  9
$DIMADEC
 70
     0
  9
$DIMALTRND
 40
0.0
  9
$DIMAZIN
 70
     0
  9
$DIMDSEP
 70
     0
  9
$DIMATFIT
 70
     3
  9
$DIMFRAC
 70
     0
  9
$DIMLDRBLK
  1

  9
$DIMLUNIT
 70
     2
  9
$DIMLWD
 70
     0
  9
$DIMLWE
 70
     0
  9
$DIMTMOVE
 70
     0
  9
$LUNITS
 70
     2
  9
$LUPREC
 70
     4
  9
$SKETCHINC
 40
0.1
  9
$FILLETRAD
 40
0.0
  9
$AUNITS
 70
     0
  9
$AUPREC
 70
     0
  9
$MENU
  1
acad
  9
$ELEVATION
 40
0.0
  9
$PELEVATION
 40
0.0
  9
$THICKNESS
 40
0.0
  9
$LIMCHECK
 70
     0
  9
$CHAMFERA
 40
0.0
  9
$CHAMFERB
 40
0.0
  9
$CHAMFERC
 40
0.0
  9
$CHAMFERD
 40
0.0
  9
$SKPOLY
 70
     0
  9
$TDCREATE
 40
0.000000000
  9
$TDUCREATE
 40
0.000000000
  9
$TDUPDATE
 40
0.000000000
  9
$TDUUPDATE
 40
0.000000000
  9
$TDINDWG
 40
0.0000000000
  9
$TDUSRTIMER
 40
0.0000000000
  9
$USRTIMER
 70
     1
  9
$ANGBASE
 50
0.0
  9
$ANGDIR
 70
     0
  9
$PDMODE
 70
     0
  9
$PDSIZE
 40
0.0
  9
$PLINEWID
 40
0.0
  9
$SPLFRAME
 70
     0
  9
$SPLINETYPE
 70
     6
  9
$SPLINESEGS
 70
     8
  9
$HANDSEED
  5
33
  9
$SURFTAB1
 70
     6
  9
$SURFTAB2
 70
     6
  9
$SURFTYPE
 70
     6
  9
$SURFU
 70
     6
  9
$SURFV
 70
     6
  9
$UCSBASE
  2

  9
$UCSNAME
  2

  9
$UCSORG
 10
0.0
 20
0.0
 30
0.0
  9
$UCSXDIR
 10
1.0
 20
0.0
 30
0.0
  9
$UCSYDIR
 10
0.0
 20
1.0
 30
0.0
  9
$UCSORTHOREF
  2

  9
$UCSORTHOVIEW
 70
     0
  9
$UCSORGTOP
 10
0.0
 20
0.0
 30
0.0
  9
$UCSORGBOTTOM
 10
0.0
 20
0.0
 30
0.0
  9
$UCSORGLEFT
 10
0.0
 20
0.0
 30
0.0
  9
$UCSORGRIGHT
 10
0.0
 20
0.0
 30
0.0
  9
$UCSORGFRONT
 10
0.0
 20
0.0
 30
0.0
  9
$UCSORGBACK
 10
0.0
 20
0.0
 30
0.0
  9
$PUCSBASE
  2

  9
$PUCSNAME
  2

  9
$PUCSORG
 10
0.0
 20
0.0
 30
0.0
  9
$PUCSXDIR
 10
1.0
 20
0.0
 30
0.0
  9
$PUCSYDIR
 10
0.0
 20
1.0
 30
0.0
  9
$PUCSORTHOREF
  2

  9
$PUCSORTHOVIEW
 70
     0
  9
$PUCSORGTOP
 10
0.0
 20
0.0
 30
0.0
  9
$PUCSORGBOTTOM
 10
0.0
 20
0.0
 30
0.0
  9
$PUCSORGLEFT
 10
0.0
 20
0.0
 30
0.0
  9
$PUCSORGRIGHT
 10
0.0
 20
0.0
 30
0.0
  9
$PUCSORGFRONT
 10
0.0
 20
0.0
 30
0.0
  9
$PUCSORGBACK
 10
0.0
 20
0.0
 30
0.0
  9
$USERI1
 70
     0
  9
$USERI2
 70
     0
  9
$USERI3
 70
     0
  9
$USERI4
 70
     0
  9
$USERI5
 70
     0
  9
$USERR1
 40
0.0
  9
$USERR2
 40
0.0
  9
$USERR3
 40
0.0
  9
$USERR4
 40
0.0
  9
$USERR5
 40
0.0
  9
$WORLDVIEW
 70
     1
  9
$SHADEDGE
 70
     3
  9
$SHADEDIF
 70
    70
  9
$TILEMODE
 70
     1
  9
$MAXACTVP
 70
    16
  9
$PINSBASE
 10
0.0
 20
0.0
 30
0.0
  9
$PLIMCHECK
 70
     0
  9
$PEXTMIN
 10
1.000000E+20
 20
1.000000E+20
 30
1.000000E+20
  9
$PEXTMAX
 10
-1.000000E+20
 20
-1.000000E+20
 30
-1.000000E+20
  9
$PLIMMIN
 10
0.0
 20
0.0
  9
$PLIMMAX
 10
12.0
 20
9.0
  9
$UNITMODE
 70
     0
  9
$VISRETAIN
 70
     0
  9
$PLINEGEN
 70
     1
  9
$PSLTSCALE
 70
     0
  9
$TREEDEPTH
 70
  3020
  9
$CMLSTYLE
  2
Standard
  9
$CMLJUST
 70
     0
  9
$CMLSCALE
 40
1.0
  9
$PROXYGRAPHICS
 70
     0
  9
$MEASUREMENT
 70
     0
  9
$CELWEIGHT
370
     0
  9
$ENDCAPS
280
     0
  9
$JOINSTYLE
280
     0
  9
$LWDISPLAY
290
     0
  9
$INSUNITS
 70
     5
  9
$HYPERLINKBASE
  1

  9
$XEDIT
290
     1
  9
$CEPSNTYPE
380
     0
  9
$PSTYLEMODE
290
     1
  9
$FINGERPRINTGUID
  2

  9
$VERSIONGUID
  2

  9
$EXTNAMES
290
     1
  9
$PSVPSCALE
 40
0.0
  0
ENDSEC
  0
SECTION
  2
CLASSES
  0
CLASS
  1
LWPOLYLINE
  2
AcDbPolyline
  3
AutoCAD 2000
 90
    32768
280
     0
281
     1
  0
CLASS
  1
IMAGE
  2
AcDbRasterImage
  3
ISM
 90
    32895
280
     0
281
     1
  0
CLASS
  1
OLE2FRAME
  2
AcDbOle2Frame
  3
AutoCAD 2000
 90
    32768
280
     0
281
     1
  0
CLASS
  1
HATCH
  2
AcDbHatch
  3
AutoCAD 2000
 90
    32768
280
     0
281
     1
  0
CLASS
  1
DICTIONARYVAR
  2
AcDbDictionaryVar
  3
AutoCAD 2000
 90
    32768
280
     0
281
     0
  0
CLASS
  1
RASTERVARIABLES
  2
AcDbRasterVariables
  3
ISM
 90
    32768
280
     0
281
     0
  0
CLASS
  1
IMAGEDEF
  2
AcDbRasterImageDef
  3
ISM
 90
    32768
280
     0
281
     0
  0
CLASS
  1
IMAGEDEF_REACTOR
  2
AcDbRasterImageDefReactor
  3
ISM
 90
    32769
280
     0
281
     0
  0
CLASS
  1
IDBUFFER
  2
AcDbIdBuffer
  3
AutoCAD 2000
 90
    32768
280
     0
281
     0
  0
CLASS
  1
SPATIAL_FILTER
  2
AcDbSpatialFilter
  3
AutoCAD 2000
 90
    32768
280
     0
281
     0
  0
CLASS
  1
XRECORD
  2
AcDbXrecord
  3
AutoCAD 2000
 90
    32768
280
     0
281
     0
  0
CLASS
  1
SORTENTSTABLE
  2
AcDbSortentsTable
  3
AutoCAD 2000
 90
    32768
280
     0
281
     0
  0
CLASS
  1
LAYER_INDEX
  2
AcDbLayerIndex
  3
AutoCAD 2000
 90
    32768
280
     0
281
     0
  0
CLASS
  1
SPATIAL_INDEX
  2
AcDbSpatialIndex
  3
AutoCAD 2000
 90
    32768
280
     0
281
     0
  0
CLASS
  1
OBJECT_PTR
  2
CAseDLPNTableRecord
  3
"ASE-LPNTableRecord"
 90
    32769
280
     0
281
     0
  0
CLASS
  1
LAYOUT
  2
AcDbLayout
  3
AutoCAD 2000
 90
        0
280
     0
281
     0
  0
CLASS
  1
PLOTSETTINGS
  2
AcDbPlotSettings
  3
AutoCAD 2000
 90
    32768
280
     0
281
     0
  0
CLASS
  1
ACDBDICTIONARYWDFLT
  2
AcDbDictionaryWithDefault
  3
AutoCAD 2000
 90
        0
280
     0
281
     0
  0
CLASS
  1
ACDBPLACEHOLDER
  2
AcDbPlaceHolder
  3
AutoCAD 2000
 90
        0
280
     0
281
     0
  0
CLASS
  1
VBA_PROJECT
  2
AcDbVbaProject
  3
acadvba
 90
    32768
280
     0
281
     0
  0
CLASS
  1
WIPEOUT
  2
AcDbWipeout
  3
WipeOut|AutoCAD Express Tool|expresstools@autodesk.com
 90
    32895
280
     0
281
     1
  0
CLASS
  1
WIPEOUTVARIABLES
  2
AcDbWipeoutVariables
  3
WipeOut|AutoCAD Express Tool|expresstools@autodesk.com
 90
        0
280
     0
281
     0
  0
CLASS
  1
RTEXT
  2
RText
  3
RText|AutoCAD Express Tool|expresstools@autodesk.com
 90
    32768
280
     0
281
     1
  0
CLASS
  1
ARCALIGNEDTEXT
  2
AcDbArcAlignedText
  3
ATEXT|AutoCAD Express Tool|expresstools@autodesk.com
 90
    32768
280
     0
281
     1
  0
ENDSEC
  0
SECTION
  2
TABLES
  0
TABLE
  2
VPORT
  5
7
100
AcDbSymbolTable
 70
     1
  0
VPORT
  5
15
100
AcDbSymbolTableRecord
100
AcDbViewportTableRecord
  2
*ACTIVE
 70
     0
 10
0.0
 20
0.0
 11
1.0
 21
1.0
 12
6.591288
 22
4.579184
 13
0.0
 23
0.0
 14
1.0
 24
1.0
 15
0.0
 25
0.0
 16
0.0
 26
0.0
 36
1.0
 17
0.0
 27
0.0
 37
0.0
 40
9.158369
 41
0.688564
 42
50.0
 43
0.0
 44
0.0
 50
0.0
 51
0.0
 71
     0
 72
   100
 73
     1
 74
     1
 75
     0
 76
     0
 77
     0
 78
     0
281
     0
 65
     0
110
0.0
120
0.0
130
0.0
111
1.0
121
0.0
131
0.0
112
0.0
122
1.0
132
0.0
345
0
346
0
 79
     0
146
0.0
  0
ENDTAB
  0
TABLE
  2
LTYPE
  5
4
100
AcDbSymbolTable
 70
     3
  0
LTYPE
  5
11
100
AcDbSymbolTableRecord
100
AcDbLinetypeTableRecord
  2
ByBlock
 70
    64
  3

 72
    65
 73
     0
 40
0.0
  0
LTYPE
  5
12
100
AcDbSymbolTableRecord
100
AcDbLinetypeTableRecord
  2
ByLayer
 70
    64
  3

 72
    65
 73
     0
 40
0.0
  0
LTYPE
  5
13
100
AcDbSymbolTableRecord
100
AcDbLinetypeTableRecord
  2
Continuous
 70
    64
  3
Solid line
 72
    65
 73
     0
 40
0.0
  0
ENDTAB
  0
TABLE
  2
LAYER
  5
2
100
AcDbSymbolTable
 70
     2
  0
LAYER
  5
14
100
AcDbSymbolTableRecord
100
AcDbLayerTableRecord
  2
0
 70
     0
 62
     7
  6
Continuous
290
     1
370
    -3
390
1D
  0
LAYER
  5
24
100
AcDbSymbolTableRecord
100
AcDbLayerTableRecord
  2
Ebene 1
 70
     0
 62
     7
  6
Continuous
290
     1
370
    -3
390
1F
  0
ENDTAB
  0
TABLE
  2
STYLE
  5
3
100
AcDbSymbolTable
 70
     1
  0
STYLE
  5
17
100
AcDbSymbolTableRecord
100
AcDbTextStyleTableRecord
  2
Standard
 70
     0
 40
0.0
 41
1.0
 50
0.0
 71
     0
 42
0.0
  3
txt
  4

  0
ENDTAB
  0
TABLE
  2
VIEW
  5
5
100
AcDbSymbolTable
 70
     0
  0
ENDTAB
  0
TABLE
  2
UCS
  5
6
100
AcDbSymbolTable
 70
     0
  0
ENDTAB
  0
TABLE
  2
APPID
  5
8
100
AcDbSymbolTable
 70
     1
  0
APPID
  5
16
100
AcDbSymbolTableRecord
100
AcDbRegAppTableRecord
  2
ACAD
 70
     0
  0
ENDTAB
  0
TABLE
  2
DIMSTYLE
  5
9
100
AcDbSymbolTable
 70
     1
100
AcDbDimStyleTable
 71
     0
  0
DIMSTYLE
105
18
100
AcDbSymbolTableRecord
100
AcDbDimStyleTableRecord
  2
Standard
 70
     0
  3

  4

 40
1.0
 41
0.18
 42
0.0625
 43
0.38
 44
0.18
 45
0.0
 46
0.0
 47
0.0
 48
0.0
 71
     0
 72
     0
 73
     1
 74
     1
 75
     0
 76
     0
 77
     0
 78
     0
 79
     0
140
0.18
141
0.09
142
0.0
143
25.4
144
1.0
145
0.0
146
1.0
147
0.09
148
0.0
170
     0
171
     2
172
     0
173
     0
174
     0
175
     0
176
     0
177
     0
178
     0
179
     0
271
     4
272
     4
273
     2
274
     2
275
     0
276
     0
277
     2
278
    46
279
     0
280
     0
281
     0
282
     0
283
     1
284
     0
285
     0
286
     0
288
     0
340
17
341
0
342
0
343
0
344
0
371
    -2
372
    -2
  0
ENDTAB
  0
TABLE
  2
BLOCK_RECORD
  5
1
100
AcDbSymbolTable
 70
     0
  0
BLOCK_RECORD
  5
A
100
AcDbSymbolTableRecord
100
AcDbBlockTableRecord
  2
*MODEL_SPACE
340
20
  0
BLOCK_RECORD
  5
B
100
AcDbSymbolTableRecord
100
AcDbBlockTableRecord
  2
*PAPER_SPACE
340
21
  0
ENDTAB
  0
ENDSEC
  0
SECTION
  2
BLOCKS
  0
BLOCK
  5
D
100
AcDbEntity
  8
0
100
AcDbBlockBegin
  2
*MODEL_SPACE
 70
     0
 10
0.0
 20
0.0
 30
0.0
  3
*MODEL_SPACE
  1

  0
ENDBLK
  5
E
100
AcDbEntity
  8
0
100
AcDbBlockEnd
  0
BLOCK
  5
F
100
AcDbEntity
 67
     1
  8
0
100
AcDbBlockBegin
  2
*PAPER_SPACE
 70
     0
 10
0.0
 20
0.0
 30
0.0
  3
*PAPER_SPACE
  1

  0
ENDBLK
  5
10
100
AcDbEntity
 67
     1
  8
0
100
AcDbBlockEnd
  0
ENDSEC
  0
SECTION
  2
ENTITIES
  0
SPLINE
  5
25
100
AcDbEntity
  8
Ebene 1
 62
     1
100
AcDbSpline
210
0.0
220
0.0
230
1.0
 70
     1
 71
     3
 72
   240
 73
   236
 74
     0
 42
0.0000000001
 43
0.0000000001
 40
0.0
 40
0.0
 40
0.0
 40
0.0
 40
0.0169491525423729
 40
0.0169491525423729
 40
0.0169491525423729
 40
0.0169491525423729
 40
0.0338983050847458
 40
0.0338983050847458
 40
0.0338983050847458
 40
0.0338983050847458
 40
0.0508474576271186
 40
0.0508474576271186
 40
0.0508474576271186
 40
0.0508474576271186
 40
0.0677966101694915
 40
0.0677966101694915
 40
0.0677966101694915
 40
0.0677966101694915
 40
0.0847457627118644
 40
0.0847457627118644
 40
0.0847457627118644
 40
0.0847457627118644
 40
0.1016949152542373
 40
0.1016949152542373
 40
0.1016949152542373
 40
0.1016949152542373
 40
0.1186440677966102
 40
0.1186440677966102
 40
0.1186440677966102
 40
0.1186440677966102
 40
0.1355932203389831
 40
0.1355932203389831
 40
0.1355932203389831
 40
0.1355932203389831
 40
0.1525423728813559
 40
0.1525423728813559
 40
0.1525423728813559
 40
0.1525423728813559
 40
0.1694915254237288
 40
0.1694915254237288
 40
0.1694915254237288
 40
0.1694915254237288
 40
0.1864406779661017
 40
0.1864406779661017
 40
0.1864406779661017
 40
0.1864406779661017
 40
0.2033898305084746
 40
0.2033898305084746
 40
0.2033898305084746
 40
0.2033898305084746
 40
0.2203389830508475
 40
0.2203389830508475
 40
0.2203389830508475
 40
0.2203389830508475
 40
0.2372881355932204
 40
0.2372881355932204
 40
0.2372881355932204
 40
0.2372881355932204
 40
0.2542372881355933
 40
0.2542372881355933
 40
0.2542372881355933
 40
0.2542372881355933
 40
0.2711864406779662
 40
0.2711864406779662
 40
0.2711864406779662
 40
0.2711864406779662
 40
0.2881355932203391
 40
0.2881355932203391
 40
0.2881355932203391
 40
0.2881355932203391
 40
0.3050847457627119
 40
0.3050847457627119
 40
0.3050847457627119
 40
0.3050847457627119
 40
0.3220338983050848
 40
0.3220338983050848
 40
0.3220338983050848
 40
0.3220338983050848
 40
0.3389830508474577
 40
0.3389830508474577
 40
0.3389830508474577
 40
0.3389830508474577
 40
0.3559322033898306
 40
0.3559322033898306
 40
0.3559322033898306
 40
0.3559322033898306
 40
0.3728813559322035
 40
0.3728813559322035
 40
0.3728813559322035
 40
0.3728813559322035
 40
0.3898305084745764
 40
0.3898305084745764
 40
0.3898305084745764
 40
0.3898305084745764
 40
0.4067796610169493
 40
0.4067796610169493
 40
0.4067796610169493
 40
0.4067796610169493
 40
0.4237288135593222
 40
0.4237288135593222
 40
0.4237288135593222
 40
0.4237288135593222
 40
0.4406779661016951
 40
0.4406779661016951
 40
0.4406779661016951
 40
0.4406779661016951
 40
0.457627118644068
 40
0.457627118644068
 40
0.457627118644068
 40
0.457627118644068
 40
0.4745762711864409
 40
0.4745762711864409
 40
0.4745762711864409
 40
0.4745762711864409
 40
0.4915254237288138
 40
0.4915254237288138
 40
0.4915254237288138
 40
0.4915254237288138
 40
0.5084745762711866
 40
0.5084745762711866
 40
0.5084745762711866
 40
0.5084745762711866
 40
0.5254237288135595
 40
0.5254237288135595
 40
0.5254237288135595
 40
0.5254237288135595
 40
0.5423728813559323
 40
0.5423728813559323
 40
0.5423728813559323
 40
0.5423728813559323
 40
0.5593220338983052
 40
0.5593220338983052
 40
0.5593220338983052
 40
0.5593220338983052
 40
0.576271186440678
 40
0.576271186440678
 40
0.576271186440678
 40
0.576271186440678
 40
0.5932203389830508
 40
0.5932203389830508
 40
0.5932203389830508
 40
0.5932203389830508
 40
0.6101694915254237
 40
0.6101694915254237
 40
0.6101694915254237
 40
0.6101694915254237
 40
0.6271186440677965
 40
0.6271186440677965
 40
0.6271186440677965
 40
0.6271186440677965
 40
0.6440677966101693
 40
0.6440677966101693
 40
0.6440677966101693
 40
0.6440677966101693
 40
0.6610169491525422
 40
0.6610169491525422
 40
0.6610169491525422
 40
0.6610169491525422
 40
0.677966101694915
 40
0.677966101694915
 40
0.677966101694915
 40
0.677966101694915
 40
0.6949152542372878
 40
0.6949152542372878
 40
0.6949152542372878
 40
0.6949152542372878
 40
0.7118644067796607
 40
0.7118644067796607
 40
0.7118644067796607
 40
0.7118644067796607
 40
0.7288135593220335
 40
0.7288135593220335
 40
0.7288135593220335
 40
0.7288135593220335
 40
0.7457627118644064
 40
0.7457627118644064
 40
0.7457627118644064
 40
0.7457627118644064
 40
0.7627118644067792
 40
0.7627118644067792
 40
0.7627118644067792
 40
0.7627118644067792
 40
0.779661016949152
 40
0.779661016949152
 40
0.779661016949152
 40
0.779661016949152
 40
0.7966101694915249
 40
0.7966101694915249
 40
0.7966101694915249
 40
0.7966101694915249
 40
0.8135593220338977
 40
0.8135593220338977
 40
0.8135593220338977
 40
0.8135593220338977
 40
0.8305084745762705
 40
0.8305084745762705
 40
0.8305084745762705
 40
0.8305084745762705
 40
0.8474576271186434
 40
0.8474576271186434
 40
0.8474576271186434
 40
0.8474576271186434
 40
0.8644067796610162
 40
0.8644067796610162
 40
0.8644067796610162
 40
0.8644067796610162
 40
0.881355932203389
 40
0.881355932203389
 40
0.881355932203389
 40
0.881355932203389
 40
0.8983050847457619
 40
0.8983050847457619
 40
0.8983050847457619
 40
0.8983050847457619
 40
0.9152542372881347
 40
0.9152542372881347
 40
0.9152542372881347
 40
0.9152542372881347
 40
0.9322033898305075
 40
0.9322033898305075
 40
0.9322033898305075
 40
0.9322033898305075
 40
0.9491525423728804
 40
0.9491525423728804
 40
0.9491525423728804
 40
0.9491525423728804
 40
0.9661016949152532
 40
0.9661016949152532
 40
0.9661016949152532
 40
0.9661016949152532
 40
0.9830508474576261
 40
0.9830508474576261
 40
0.9830508474576261
 40
0.9830508474576261
 40
1.0
 40
1.0
 40
1.0
 40
1.0
 10
0.0206
 20
7.0411100000000006
 30
0.0
 10
-0.24654
 20
7.5722600000000009
 30
0.0
 10
-0.83645
 20
8.2609000000000012
 30
0.0
 10
-1.4712400000000001
 20
8.5427
 30
0.0
 10
-1.4712400000000001
 20
8.5427
 30
0.0
 10
-2.1262700000000003
 20
8.8334800000000016
 30
0.0
 10
-2.9316000000000004
 20
8.8889600000000009
 30
0.0
 10
-2.9250900000000004
 20
8.85642
 30
0.0
 10
-2.9250900000000004
 20
8.85642
 30
0.0
 10
-2.91859
 20
8.8238800000000008
 30
0.0
 10
-2.5299500000000004
 20
8.7692800000000002
 30
0.0
 10
-2.3810100000000003
 20
8.4381200000000014
 30
0.0
 10
-2.3810100000000003
 20
8.4381200000000014
 30
0.0
 10
-2.23204
 20
8.1069399999999998
 30
0.0
 10
-2.7795500000000004
 20
8.4206900000000005
 30
0.0
 10
-3.1225600000000004
 20
8.7692800000000002
 30
0.0
 10
-3.1225600000000004
 20
8.7692800000000002
 30
0.0
 10
-3.4655900000000002
 20
9.1178699999999999
 30
0.0
 10
-3.9723100000000002
 20
9.2573100000000004
 30
0.0
 10
-4.5103
 20
9.2398800000000012
 30
0.0
 10
-4.5103
 20
9.2398800000000012
 30
0.0
 10
-5.0482800000000001
 20
9.2224500000000003
 30
0.0
 10
-5.2387400000000008
 20
9.0830200000000012
 30
0.0
 10
-5.2387400000000008
 20
9.0830200000000012
 30
0.0
 10
-5.2387400000000008
 20
9.0830200000000012
 30
0.0
 10
-5.2387400000000008
 20
9.0830200000000012
 30
0.0
 10
-4.9749700000000008
 20
7.3748900000000006
 30
0.0
 10
-3.8891500000000003
 20
6.5557000000000007
 30
0.0
 10
-3.8891500000000003
 20
6.5557000000000007
 30
0.0
 10
-2.8032900000000001
 20
5.7365100000000009
 30
0.0
 10
-2.0933600000000001
 20
5.7713700000000001
 30
0.0
 10
-1.6204100000000001
 20
5.7539400000000001
 30
0.0
 10
-1.6204100000000001
 20
5.7539400000000001
 30
0.0
 10
-1.14747
 20
5.7365100000000009
 30
0.0
 10
-1.4958900000000002
 20
5.47506
 30
0.0
 10
-2.2523600000000004
 20
5.5273600000000007
 30
0.0
 10
-2.2523600000000004
 20
5.5273600000000007
 30
0.0
 10
-3.0088500000000002
 20
5.5796400000000004
 30
0.0
 10
-3.3768900000000004
 20
5.88504
 30
0.0
 10
-3.4122400000000002
 20
5.8585200000000004
 30
0.0
 10
-3.4122400000000002
 20
5.8585200000000004
 30
0.0
 10
-3.4476000000000004
 20
5.8319900000000002
 30
0.0
 10
-2.8173900000000001
 20
4.8775600000000008
 30
0.0
 10
-2.3927
 20
5.1439000000000004
 30
0.0
 10
-2.3927
 20
5.1439000000000004
 30
0.0
 10
-1.9680200000000001
 20
5.4102400000000008
 30
0.0
 10
-1.43174
 20
5.1264700000000003
 30
0.0
 10
-1.7023600000000001
 20
4.9347500000000002
 30
0.0
 10
-1.7023600000000001
 20
4.9347500000000002
 30
0.0
 10
-1.9729500000000002
 20
4.7430300000000001
 30
0.0
 10
-2.5086400000000002
 20
4.3155600000000005
 30
0.0
 10
-2.6804200000000002
 20
4.0366800000000005
 30
0.0
 10
-2.6804200000000002
 20
4.0366800000000005
 30
0.0
 10
-2.8521900000000002
 20
3.7578000000000005
 30
0.0
 10
-2.8669200000000004
 20
3.6100800000000004
 30
0.0
 10
-2.8669200000000004
 20
3.6100800000000004
 30
0.0
 10
-2.8669200000000004
 20
3.6100800000000004
 30
0.0
 10
-2.8669200000000004
 20
3.6100800000000004
 30
0.0
 10
-2.7481100000000001
 20
3.8082700000000003
 30
0.0
 10
-2.5624200000000004
 20
4.0092600000000003
 30
0.0
 10
-2.5624200000000004
 20
4.0092600000000003
 30
0.0
 10
-2.31596
 20
4.2760100000000003
 30
0.0
 10
-1.9586700000000001
 20
4.5662600000000007
 30
0.0
 10
-1.6730500000000001
 20
4.5861400000000003
 30
0.0
 10
-1.6730500000000001
 20
4.5861400000000003
 30
0.0
 10
-1.17228
 20
4.6210100000000001
 30
0.0
 10
-1.7571800000000002
 20
4.1691100000000008
 30
0.0
 10
-2.0522200000000002
 20
4.0296900000000004
 30
0.0
 10
-2.0522200000000002
 20
4.0296900000000004
 30
0.0
 10
-2.3472900000000001
 20
3.8902700000000001
 30
0.0
 10
-2.53701
 20
3.7495300000000005
 30
0.0
 10
-2.53701
 20
3.7495300000000005
 30
0.0
 10
-2.53701
 20
3.7495300000000005
 30
0.0
 10
-2.53701
 20
3.7495300000000005
 30
0.0
 10
-1.7835500000000002
 20
3.9011200000000001
 30
0.0
 10
-1.4745100000000002
 20
4.16174
 30
0.0
 10
-1.4745100000000002
 20
4.16174
 30
0.0
 10
-1.1763700000000001
 20
4.4131600000000004
 30
0.0
 10
-1.0211600000000001
 20
4.5338500000000002
 30
0.0
 10
-0.78
 20
5.3356200000000005
 30
0.0
 10
-0.78
 20
5.3356200000000005
 30
0.0
 10
-0.53886
 20
6.1374000000000004
 30
0.0
 10
0.49452
 20
5.5796600000000005
 30
0.0
 10
0.05103
 20
4.98705
 30
0.0
 10
0.05103
 20
4.98705
 30
0.0
 10
-0.3924300000000001
 20
4.3944200000000002
 30
0.0
 10
-0.9798500000000001
 20
4.3093600000000007
 30
0.0
 10
-1.0058900000000002
 20
4.28986
 30
0.0
 10
-1.0058900000000002
 20
4.28986
 30
0.0
 10
-1.0319200000000002
 20
4.2703300000000004
 30
0.0
 10
-0.39985
 20
4.2484900000000003
 30
0.0
 10
-0.04743
 20
4.5512800000000002
 30
0.0
 10
-0.04743
 20
4.5512800000000002
 30
0.0
 10
0.30499
 20
4.8541000000000007
 30
0.0
 10
0.46643
 20
4.8945800000000004
 30
0.0
 10
0.5636800000000001
 20
4.6733000000000002
 30
0.0
 10
0.5636800000000001
 20
4.6733000000000002
 30
0.0
 10
0.6425900000000001
 20
4.4937800000000001
 30
0.0
 10
0.3908100000000001
 20
4.2724299999999999
 30
0.0
 10
-0.0239
 20
4.1155400000000002
 30
0.0
 10
-0.0239
 20
4.1155400000000002
 30
0.0
 10
-0.4386100000000001
 20
3.9586800000000002
 30
0.0
 10
-0.75936
 20
4.01098
 30
0.0
 10
-0.7058100000000001
 20
3.8715200000000003
 30
0.0
 10
-0.7058100000000001
 20
3.8715200000000003
 30
0.0
 10
-0.65227
 20
3.7321000000000004
 30
0.0
 10
-0.16369
 20
2.9477600000000002
 30
0.0
 10
0.35937
 20
2.6863100000000002
 30
0.0
 10
0.35937
 20
2.6863100000000002
 30
0.0
 10
0.8824400000000001
 20
2.4248600000000002
 30
0.0
 10
1.23587
 20
2.1285500000000002
 30
0.0
 10
1.40334
 20
1.9194000000000002
 30
0.0
 10
1.40334
 20
1.9194000000000002
 30
0.0
 10
1.5708200000000001
 20
1.7102400000000002
 30
0.0
 10
1.6789800000000001
 20
1.55339
 30
0.0
 10
1.6789800000000001
 20
1.55339
 30
0.0
 10
1.6789800000000001
 20
1.55339
 30
0.0
 10
1.6789800000000001
 20
1.55339
 30
0.0
 10
1.4064000000000001
 20
2.5468800000000003
 30
0.0
 10
0.9588000000000001
 20
2.8954600000000004
 30
0.0
 10
0.9588000000000001
 20
2.8954600000000004
 30
0.0
 10
0.51119
 20
3.2440700000000002
 30
0.0
 10
0.65388
 20
3.6100800000000004
 30
0.0
 10
0.8944800000000001
 20
3.5055200000000002
 30
0.0
 10
0.8944800000000001
 20
3.5055200000000002
 30
0.0
 10
1.13507
 20
3.4009200000000002
 30
0.0
 10
1.2283200000000001
 20
2.9651900000000002
 30
0.0
 10
1.2283200000000001
 20
2.9651900000000002
 30
0.0
 10
1.2283200000000001
 20
2.9651900000000002
 30
0.0
 10
1.2283200000000001
 20
2.9651900000000002
 30
0.0
 10
1.4698300000000002
 20
3.2440700000000002
 30
0.0
 10
1.12897
 20
3.8366600000000002
 30
0.0
 10
1.12897
 20
3.8366600000000002
 30
0.0
 10
0.7881100000000001
 20
4.4292899999999999
 30
0.0
 10
0.6402300000000001
 20
4.8824500000000004
 30
0.0
 10
0.9063500000000001
 20
4.8475900000000003
 30
0.0
 10
0.9063500000000001
 20
4.8475900000000003
 30
0.0
 10
1.1724700000000001
 20
4.8127200000000006
 30
0.0
 10
1.0996900000000001
 20
4.18527
 30
0.0
 10
1.0996900000000001
 20
4.18527
 30
0.0
 10
1.0996900000000001
 20
4.18527
 30
0.0
 10
1.0996900000000001
 20
4.18527
 30
0.0
 10
1.4551200000000002
 20
4.3944200000000002
 30
0.0
 10
1.16079
 20
4.8998800000000005
 30
0.0
 10
1.16079
 20
4.8998800000000005
 30
0.0
 10
0.8664700000000001
 20
5.4053500000000003
 30
0.0
 10
1.0093100000000002
 20
5.5099100000000005
 30
0.0
 10
1.11982
 20
5.3356200000000005
 30
0.0
 10
1.11982
 20
5.3356200000000005
 30
0.0
 10
1.2303300000000001
 20
5.1613300000000004
 30
0.0
 10
1.42205
 20
5.1613300000000004
 30
0.0
 10
1.42205
 20
5.1613300000000004
 30
0.0
 10
1.42205
 20
5.1613300000000004
 30
0.0
 10
1.42205
 20
5.1613300000000004
 30
0.0
 10
1.4288800000000001
 20
5.3704900000000002
 30
0.0
 10
1.05335
 20
5.7016500000000008
 30
0.0
 10
1.05335
 20
5.7016500000000008
 30
0.0
 10
0.80291
 20
5.9224700000000006
 30
0.0
 10
0.57577
 20
6.1432700000000002
 30
0.0
 10
0.4522000000000001
 20
6.2659200000000004
 30
0.0
 10
0.4522000000000001
 20
6.2659200000000004
 30
0.0
 10
0.3419700000000001
 20
6.257060000000001
 30
0.0
 10
0.37715
 20
6.1203100000000008
 30
0.0
 10
0.58489
 20
5.9456600000000002
 30
0.0
 10
0.58489
 20
5.9456600000000002
 30
0.0
 10
0.9580900000000001
 20
5.6319300000000005
 30
0.0
 10
0.83862
 20
5.3530500000000005
 30
0.0
 10
0.83862
 20
5.3530500000000005
 30
0.0
 10
0.83862
 20
5.3530500000000005
 30
0.0
 10
0.83862
 20
5.3530500000000005
 30
0.0
 10
0.7769700000000001
 20
5.4227800000000004
 30
0.0
 10
0.59441
 20
5.6145000000000005
 30
0.0
 10
0.59441
 20
5.6145000000000005
 30
0.0
 10
0.4118600000000001
 20
5.8062200000000006
 30
0.0
 10
0.1434
 20
5.8585200000000004
 30
0.0
 10
-0.35863
 20
5.9630900000000002
 30
0.0
 10
-0.35863
 20
5.9630900000000002
 30
0.0
 10
-0.8606800000000001
 20
6.0676700000000006
 30
0.0
 10
-0.7864600000000001
 20
6.2942500000000008
 30
0.0
 10
-0.7864600000000001
 20
6.2942500000000008
 30
0.0
 10
-0.7864600000000001
 20
6.2942500000000008
 30
0.0
 10
-0.7864600000000001
 20
6.2942500000000008
 30
0.0
 10
-0.6946500000000001
 20
6.2594100000000008
 30
0.0
 10
-0.47382
 20
6.1722400000000004
 30
0.0
 10
-0.47382
 20
6.1722400000000004
 30
0.0
 10
-0.2529900000000001
 20
6.0851000000000006
 30
0.0
 10
-0.11137
 20
6.3291200000000005
 30
0.0
 10
-0.6880000000000001
 20
6.7300100000000009
 30
0.0
 10
-0.6880000000000001
 20
6.7300100000000009
 30
0.0
 10
-1.2646000000000002
 20
7.1308900000000008
 30
0.0
 10
-1.19794
 20
6.5034200000000002
 30
0.0
 10
-1.19794
 20
6.5034200000000002
 30
0.0
 10
-1.19794
 20
6.5034200000000002
 30
0.0
 10
-1.19794
 20
6.5034200000000002
 30
0.0
 10
-1.3375700000000001
 20
6.7648500000000009
 30
0.0
 10
-1.5747700000000002
 20
6.9740200000000003
 30
0.0
 10
-1.5747700000000002
 20
6.9740200000000003
 30
0.0
 10
-1.8119400000000001
 20
7.1831700000000005
 30
0.0
 10
-2.2537600000000002
 20
7.1675500000000003
 30
0.0
 10
-2.7835100000000002
 20
7.4097700000000009
 30
0.0
 10
-2.7835100000000002
 20
7.4097700000000009
 30
0.0
 10
-3.3132500000000005
 20
7.6519800000000009
 30
0.0
 10
-3.7040400000000004
 20
8.5174599999999998
 30
0.0
 10
-3.6650400000000003
 20
8.5252600000000012
 30
0.0
 10
-3.6650400000000003
 20
8.5252600000000012
 30
0.0
 10
-3.6260400000000002
 20
8.5330700000000004
 30
0.0
 10
-3.4887700000000001
 20
8.3849400000000003
 30
0.0
 10
-3.16046
 20
8.1017200000000003
 30
0.0
 10
-3.16046
 20
8.1017200000000003
 30
0.0
 10
-2.8321400000000003
 20
7.8185000000000002
 30
0.0
 10
-2.2329500000000002
 20
7.7235000000000005
 30
0.0
 10
-1.6669200000000002
 20
7.5317700000000007
 30
0.0
 10
-1.6669200000000002
 20
7.5317700000000007
 30
0.0
 10
-1.1009100000000001
 20
7.3400500000000006
 30
0.0
 10
-0.2236
 20
6.6428500000000001
 30
0.0
 10
-0.18829
 20
6.6428600000000007
 30
0.0
 10
-0.18829
 20
6.6428600000000007
 30
0.0
 10
-0.15297
 20
6.6428600000000007
 30
0.0
 10
-0.35987
 20
6.9565900000000003
 30
0.0
 10
-0.6662400000000001
 20
7.2180400000000002
 30
0.0
 10
-0.6662400000000001
 20
7.2180400000000002
 30
0.0
 10
-0.9726100000000001
 20
7.479470000000001
 30
0.0
 10
-1.3695400000000002
 20
7.6537700000000006
 30
0.0
 10
-1.5822900000000002
 20
7.8106500000000008
 30
0.0
 10
-1.5822900000000002
 20
7.8106500000000008
 30
0.0
 10
-1.7950400000000002
 20
7.9675200000000004
 30
0.0
 10
-1.8615400000000002
 20
8.3335400000000011
 30
0.0
 10
-1.1956
 20
8.1766700000000014
 30
0.0
 10
-1.1956
 20
8.1766700000000014
 30
0.0
 10
-1.0336800000000002
 20
8.1385300000000012
 30
0.0
 10
-0.7546600000000001
 20
7.9638700000000009
 30
0.0
 10
-0.52439
 20
7.7293400000000005
 30
0.0
 10
-0.52439
 20
7.7293400000000005
 30
0.0
 10
-0.21874
 20
7.4180600000000005
 30
0.0
 10
0.02427
 20
7.0338500000000002
 30
0.0
 10
0.0206
 20
7.0411100000000006
 30
0.0
  0
SPLINE
  5
26
100
AcDbEntity
  8
Ebene 1
 62
     1
100
AcDbSpline
210
0.0
220
0.0
230
1.0
 70
     1
 71
     3
 72
    68
 73
    64
 74
     0
 42
0.0000000001
 43
0.0000000001
 40
0.0
 40
0.0
 40
0.0
 40
0.0
 40
0.0625
 40
0.0625
 40
0.0625
 40
0.0625
 40
0.125
 40
0.125
 40
0.125
 40
0.125
 40
0.1875
 40
0.1875
 40
0.1875
 40
0.1875
 40
0.25
 40
0.25
 40
0.25
 40
0.25
 40
0.3125
 40
0.3125
 40
0.3125
 40
0.3125
 40
0.375
 40
0.375
 40
0.375
 40
0.375
 40
0.4375
 40
0.4375
 40
0.4375
 40
0.4375
 40
0.5
 40
0.5
 40
0.5
 40
0.5
 40
0.5625
 40
0.5625
 40
0.5625
 40
0.5625
 40
0.625
 40
0.625
 40
0.625
 40
0.625
 40
0.6875
 40
0.6875
 40
0.6875
 40
0.6875
 40
0.75
 40
0.75
 40
0.75
 40
0.75
 40
0.8125
 40
0.8125
 40
0.8125
 40
0.8125
 40
0.875
 40
0.875
 40
0.875
 40
0.875
 40
0.9375
 40
0.9375
 40
0.9375
 40
0.9375
 40
1.0
 40
1.0
 40
1.0
 40
1.0
 10
1.7528100000000002
 20
4.7460300000000002
 30
0.0
 10
1.8053100000000002
 20
4.7460300000000002
 30
0.0
 10
1.8507000000000002
 20
4.7017900000000008
 30
0.0
 10
1.8773700000000002
 20
4.6339600000000001
 30
0.0
 10
1.8773700000000002
 20
4.6339600000000001
 30
0.0
 10
1.9023800000000002
 20
4.5703300000000002
 30
0.0
 10
1.9088500000000002
 20
4.4831700000000003
 30
0.0
 10
1.8956900000000001
 20
4.3834300000000006
 30
0.0
 10
1.8956900000000001
 20
4.3834300000000006
 30
0.0
 10
1.8825300000000003
 20
4.2835900000000002
 30
0.0
 10
1.8540800000000002
 20
4.1812400000000007
 30
0.0
 10
1.8285100000000001
 20
4.0947000000000005
 30
0.0
 10
1.8285100000000001
 20
4.0947000000000005
 30
0.0
 10
1.8163000000000002
 20
4.0531500000000005
 30
0.0
 10
1.8051100000000002
 20
4.0155000000000003
 30
0.0
 10
1.7945600000000002
 20
3.9844500000000003
 30
0.0
 10
1.7945600000000002
 20
3.9844500000000003
 30
0.0
 10
1.8303800000000001
 20
3.9396300000000002
 30
0.0
 10
1.8605500000000001
 20
3.8384500000000004
 30
0.0
 10
1.8804700000000001
 20
3.7028200000000004
 30
0.0
 10
1.8804700000000001
 20
3.7028200000000004
 30
0.0
 10
1.9061000000000001
 20
3.5285300000000004
 30
0.0
 10
1.9127800000000001
 20
3.2897500000000002
 30
0.0
 10
1.8992800000000001
 20
3.0164500000000003
 30
0.0
 10
1.8992800000000001
 20
3.0164500000000003
 30
0.0
 10
1.8857700000000002
 20
2.7429100000000002
 30
0.0
 10
1.8565600000000002
 20
2.4624800000000002
 30
0.0
 10
1.8304400000000001
 20
2.22539
 30
0.0
 10
1.8304400000000001
 20
2.22539
 30
0.0
 10
1.80349
 20
1.9813000000000001
 30
0.0
 10
1.7817000000000001
 20
1.7864200000000001
 30
0.0
 10
1.7602800000000001
 20
1.7131000000000001
 30
0.0
 10
1.7602800000000001
 20
1.7131000000000001
 30
0.0
 10
1.7384600000000001
 20
1.7810700000000002
 30
0.0
 10
1.7153800000000001
 20
1.9781300000000002
 30
0.0
 10
1.6868200000000002
 20
2.2234600000000002
 30
0.0
 10
1.6868200000000002
 20
2.2234600000000002
 30
0.0
 10
1.6590500000000001
 20
2.46224
 30
0.0
 10
1.6280400000000002
 20
2.7429100000000002
 30
0.0
 10
1.6127600000000002
 20
3.0164500000000003
 30
0.0
 10
1.6127600000000002
 20
3.0164500000000003
 30
0.0
 10
1.59745
 20
3.2897500000000002
 30
0.0
 10
1.6025200000000002
 20
3.5283900000000004
 30
0.0
 10
1.6269400000000001
 20
3.7025400000000004
 30
0.0
 10
1.6269400000000001
 20
3.7025400000000004
 30
0.0
 10
1.6476100000000002
 20
3.8501300000000005
 30
0.0
 10
1.6807200000000002
 20
3.9568600000000003
 30
0.0
 10
1.7203900000000001
 20
3.9947900000000005
 30
0.0
 10
1.7203900000000001
 20
3.9947900000000005
 30
0.0
 10
1.7104800000000002
 20
4.0235200000000004
 30
0.0
 10
1.6999400000000002
 20
4.0572900000000001
 30
0.0
 10
1.6885200000000002
 20
4.0940099999999999
 30
0.0
 10
1.6885200000000002
 20
4.0940099999999999
 30
0.0
 10
1.66144
 20
4.1811700000000007
 30
0.0
 10
1.6312000000000002
 20
4.2835900000000002
 30
0.0
 10
1.6163000000000001
 20
4.3834300000000006
 30
0.0
 10
1.6163000000000001
 20
4.3834300000000006
 30
0.0
 10
1.60138
 20
4.4831700000000003
 30
0.0
 10
1.6063100000000001
 20
4.57029
 30
0.0
 10
1.6301300000000001
 20
4.6338500000000007
 30
0.0
 10
1.6301300000000001
 20
4.6338500000000007
 30
0.0
 10
1.6555500000000001
 20
4.7017900000000008
 30
0.0
 10
1.7002700000000002
 20
4.7460300000000002
 30
0.0
 10
1.7528100000000002
 20
4.7460300000000002
 30
0.0
  0
SPLINE
  5
27
100
AcDbEntity
  8
Ebene 1
 62
     1
100
AcDbSpline
210
0.0
220
0.0
230
1.0
 70
     1
 71
     3
 72
    44
 73
    40
 74
     0
 42
0.0000000001
 43
0.0000000001
 40
0.0
 40
0.0
 40
0.0
 40
0.0
 40
0.1
 40
0.1
 40
0.1
 40
0.1
 40
0.2
 40
0.2
 40
0.2
 40
0.2
 40
0.3
 40
0.3
 40
0.3
 40
0.3
 40
0.4
 40
0.4
 40
0.4
 40
0.4
 40
0.5
 40
0.5
 40
0.5
 40
0.5
 40
0.6
 40
0.6
 40
0.6
 40
0.6
 40
0.7
 40
0.7
 40
0.7
 40
0.7
 40
0.7999999999999999
 40
0.7999999999999999
 40
0.7999999999999999
 40
0.7999999999999999
 40
0.8999999999999999
 40
0.8999999999999999
 40
0.8999999999999999
 40
0.8999999999999999
 40
1.0
 40
1.0
 40
1.0
 40
1.0
 10
1.6431200000000001
 20
5.0736600000000003
 30
0.0
 10
1.6141300000000001
 20
5.0910200000000003
 30
0.0
 10
0.28325
 20
8.5197500000000002
 30
0.0
 10
-0.10385
 20
8.7523
 30
0.0
 10
-0.10385
 20
8.7523
 30
0.0
 10
-0.35544
 20
8.9034500000000012
 30
0.0
 10
-0.14214
 20
8.5185100000000009
 30
0.0
 10
-0.07737
 20
8.4493500000000008
 30
0.0
 10
-0.07737
 20
8.4493500000000008
 30
0.0
 10
-0.0126
 20
8.3801900000000007
 30
0.0
 10
0.13437
 20
8.1608400000000003
 30
0.0
 10
0.13437
 20
8.1608400000000003
 30
0.0
 10
0.13437
 20
8.1608400000000003
 30
0.0
 10
0.12116
 20
8.1510600000000011
 30
0.0
 10
-0.31331
 20
8.5566500000000012
 30
0.0
 10
-0.42149
 20
8.8244300000000013
 30
0.0
 10
-0.42149
 20
8.8244300000000013
 30
0.0
 10
-0.52964
 20
9.0921900000000004
 30
0.0
 10
-0.18324
 20
8.9831099999999999
 30
0.0
 10
-0.18324
 20
8.9831099999999999
 30
0.0
 10
-0.18324
 20
8.9831099999999999
 30
0.0
 10
-0.18324
 20
8.9831099999999999
 30
0.0
 10
-0.32139
 20
9.2944200000000006
 30
0.0
 10
-0.46767
 20
9.2786500000000007
 30
0.0
 10
-0.46767
 20
9.2786500000000007
 30
0.0
 10
-0.61394
 20
9.2628900000000005
 30
0.0
 10
-0.51154
 20
8.9918300000000002
 30
0.0
 10
-0.51154
 20
8.9918300000000002
 30
0.0
 10
-0.51154
 20
8.9918300000000002
 30
0.0
 10
-0.51154
 20
8.9918300000000002
 30
0.0
 10
-0.67293
 20
9.2139199999999999
 30
0.0
 10
-0.59353
 20
9.3149100000000011
 30
0.0
 10
-0.59353
 20
9.3149100000000011
 30
0.0
 10
-0.51412
 20
9.415890000000001
 30
0.0
 10
-0.3156000000000001
 20
9.5457300000000007
 30
0.0
 10
0.16083
 20
8.5791800000000009
 30
0.0
 10
0.16083
 20
8.5791800000000009
 30
0.0
 10
0.6372800000000001
 20
7.6126600000000009
 30
0.0
 10
1.6431200000000001
 20
5.0736600000000003
 30
0.0
 10
1.6431200000000001
 20
5.0736600000000003
 30
0.0
  0
SPLINE
  5
28
100
AcDbEntity
  8
Ebene 1
 62
     1
100
AcDbSpline
210
0.0
220
0.0
230
1.0
 70
     1
 71
     3
 72
    44
 73
    40
 74
     0
 42
0.0000000001
 43
0.0000000001
 40
0.0
 40
0.0
 40
0.0
 40
0.0
 40
0.1
 40
0.1
 40
0.1
 40
0.1
 40
0.2
 40
0.2
 40
0.2
 40
0.2
 40
0.3
 40
0.3
 40
0.3
 40
0.3
 40
0.4
 40
0.4
 40
0.4
 40
0.4
 40
0.5
 40
0.5
 40
0.5
 40
0.5
 40
0.6
 40
0.6
 40
0.6
 40
0.6
 40
0.7
 40
0.7
 40
0.7
 40
0.7
 40
0.7999999999999999
 40
0.7999999999999999
 40
0.7999999999999999
 40
0.7999999999999999
 40
0.8999999999999999
 40
0.8999999999999999
 40
0.8999999999999999
 40
0.8999999999999999
 40
1.0
 40
1.0
 40
1.0
 40
1.0
 10
1.8391900000000001
 20
5.0736600000000003
 30
0.0
 10
1.8681300000000001
 20
5.0910200000000003
 30
0.0
 10
3.1990400000000001
 20
8.5197500000000002
 30
0.0
 10
3.5861300000000003
 20
8.7523
 30
0.0
 10
3.5861300000000003
 20
8.7523
 30
0.0
 10
3.8377600000000003
 20
8.9034500000000012
 30
0.0
 10
3.6244400000000003
 20
8.5185100000000009
 30
0.0
 10
3.5596700000000001
 20
8.4493500000000008
 30
0.0
 10
3.5596700000000001
 20
8.4493500000000008
 30
0.0
 10
3.4949100000000004
 20
8.3801900000000007
 30
0.0
 10
3.3479400000000004
 20
8.1608400000000003
 30
0.0
 10
3.3479400000000004
 20
8.1608400000000003
 30
0.0
 10
3.3479400000000004
 20
8.1608400000000003
 30
0.0
 10
3.3611000000000004
 20
8.1510600000000011
 30
0.0
 10
3.7955900000000002
 20
8.5566500000000012
 30
0.0
 10
3.9037700000000002
 20
8.8244300000000013
 30
0.0
 10
3.9037700000000002
 20
8.8244300000000013
 30
0.0
 10
4.0119500000000006
 20
9.0921900000000004
 30
0.0
 10
3.6655100000000003
 20
8.9831099999999999
 30
0.0
 10
3.6655100000000003
 20
8.9831099999999999
 30
0.0
 10
3.6655100000000003
 20
8.9831099999999999
 30
0.0
 10
3.6655100000000003
 20
8.9831099999999999
 30
0.0
 10
3.8036600000000003
 20
9.2944200000000006
 30
0.0
 10
3.9499300000000002
 20
9.2786500000000007
 30
0.0
 10
3.9499300000000002
 20
9.2786500000000007
 30
0.0
 10
4.0962100000000001
 20
9.2628900000000005
 30
0.0
 10
3.9938200000000004
 20
8.9918300000000002
 30
0.0
 10
3.9938200000000004
 20
8.9918300000000002
 30
0.0
 10
3.9938200000000004
 20
8.9918300000000002
 30
0.0
 10
3.9938200000000004
 20
8.9918300000000002
 30
0.0
 10
4.1552000000000007
 20
9.2139199999999999
 30
0.0
 10
4.0758200000000002
 20
9.3149100000000011
 30
0.0
 10
4.0758200000000002
 20
9.3149100000000011
 30
0.0
 10
3.9963700000000002
 20
9.415890000000001
 30
0.0
 10
3.7978700000000005
 20
9.5457300000000007
 30
0.0
 10
3.3214800000000002
 20
8.5791800000000009
 30
0.0
 10
3.3214800000000002
 20
8.5791800000000009
 30
0.0
 10
2.8450200000000003
 20
7.6126600000000009
 30
0.0
 10
1.8391900000000001
 20
5.0736600000000003
 30
0.0
 10
1.8391900000000001
 20
5.0736600000000003
 30
0.0
  0
SPLINE
  5
29
100
AcDbEntity
  8
Ebene 1
 62
     1
100
AcDbSpline
210
0.0
220
0.0
230
1.0
 70
     1
 71
     3
 72
    36
 73
    32
 74
     0
 42
0.0000000001
 43
0.0000000001
 40
0.0
 40
0.0
 40
0.0
 40
0.0
 40
0.125
 40
0.125
 40
0.125
 40
0.125
 40
0.25
 40
0.25
 40
0.25
 40
0.25
 40
0.375
 40
0.375
 40
0.375
 40
0.375
 40
0.5
 40
0.5
 40
0.5
 40
0.5
 40
0.625
 40
0.625
 40
0.625
 40
0.625
 40
0.75
 40
0.75
 40
0.75
 40
0.75
 40
0.875
 40
0.875
 40
0.875
 40
0.875
 40
1.0
 40
1.0
 40
1.0
 40
1.0
 10
1.7461400000000002
 20
5.0459200000000006
 30
0.0
 10
1.7747900000000001
 20
5.0459200000000006
 30
0.0
 10
1.8004900000000001
 20
5.0309700000000008
 30
0.0
 10
1.8210700000000002
 20
5.0083700000000002
 30
0.0
 10
1.8210700000000002
 20
5.0083700000000002
 30
0.0
 10
1.8427100000000001
 20
4.9846400000000006
 30
0.0
 10
1.8622800000000002
 20
4.9531500000000008
 30
0.0
 10
1.8730900000000001
 20
4.9179000000000004
 30
0.0
 10
1.8730900000000001
 20
4.9179000000000004
 30
0.0
 10
1.8874900000000001
 20
4.8826300000000007
 30
0.0
 10
1.8872200000000001
 20
4.8496200000000007
 30
0.0
 10
1.8681300000000001
 20
4.8274000000000008
 30
0.0
 10
1.8681300000000001
 20
4.8274000000000008
 30
0.0
 10
1.8473900000000001
 20
4.8032200000000005
 30
0.0
 10
1.8048000000000002
 20
4.7898800000000001
 30
0.0
 10
1.7527400000000002
 20
4.7898800000000001
 30
0.0
 10
1.7527400000000002
 20
4.7898800000000001
 30
0.0
 10
1.7007200000000002
 20
4.7898800000000001
 30
0.0
 10
1.6566900000000002
 20
4.8031500000000005
 30
0.0
 10
1.6337800000000002
 20
4.8274000000000008
 30
0.0
 10
1.6337800000000002
 20
4.8274000000000008
 30
0.0
 10
1.6128500000000001
 20
4.8495500000000007
 30
0.0
 10
1.6103400000000001
 20
4.8826300000000007
 30
0.0
 10
1.6226200000000002
 20
4.9179000000000004
 30
0.0
 10
1.6226200000000002
 20
4.9179000000000004
 30
0.0
 10
1.6319600000000001
 20
4.9531500000000008
 30
0.0
 10
1.65046
 20
4.9847000000000001
 30
0.0
 10
1.6715500000000001
 20
5.0083700000000002
 30
0.0
 10
1.6715500000000001
 20
5.0083700000000002
 30
0.0
 10
1.6918600000000001
 20
5.0310800000000002
 30
0.0
 10
1.7175300000000002
 20
5.0459200000000006
 30
0.0
 10
1.7461400000000002
 20
5.0459200000000006
 30
0.0
  0
SPLINE
  5
2A
100
AcDbEntity
  8
Ebene 1
 62
     1
100
AcDbSpline
210
0.0
220
0.0
230
1.0
 70
     1
 71
     3
 72
   240
 73
   236
 74
     0
 42
0.0000000001
 43
0.0000000001
 40
0.0
 40
0.0
 40
0.0
 40
0.0
 40
0.0169491525423729
 40
0.0169491525423729
 40
0.0169491525423729
 40
0.0169491525423729
 40
0.0338983050847458
 40
0.0338983050847458
 40
0.0338983050847458
 40
0.0338983050847458
 40
0.0508474576271186
 40
0.0508474576271186
 40
0.0508474576271186
 40
0.0508474576271186
 40
0.0677966101694915
 40
0.0677966101694915
 40
0.0677966101694915
 40
0.0677966101694915
 40
0.0847457627118644
 40
0.0847457627118644
 40
0.0847457627118644
 40
0.0847457627118644
 40
0.1016949152542373
 40
0.1016949152542373
 40
0.1016949152542373
 40
0.1016949152542373
 40
0.1186440677966102
 40
0.1186440677966102
 40
0.1186440677966102
 40
0.1186440677966102
 40
0.1355932203389831
 40
0.1355932203389831
 40
0.1355932203389831
 40
0.1355932203389831
 40
0.1525423728813559
 40
0.1525423728813559
 40
0.1525423728813559
 40
0.1525423728813559
 40
0.1694915254237288
 40
0.1694915254237288
 40
0.1694915254237288
 40
0.1694915254237288
 40
0.1864406779661017
 40
0.1864406779661017
 40
0.1864406779661017
 40
0.1864406779661017
 40
0.2033898305084746
 40
0.2033898305084746
 40
0.2033898305084746
 40
0.2033898305084746
 40
0.2203389830508475
 40
0.2203389830508475
 40
0.2203389830508475
 40
0.2203389830508475
 40
0.2372881355932204
 40
0.2372881355932204
 40
0.2372881355932204
 40
0.2372881355932204
 40
0.2542372881355933
 40
0.2542372881355933
 40
0.2542372881355933
 40
0.2542372881355933
 40
0.2711864406779662
 40
0.2711864406779662
 40
0.2711864406779662
 40
0.2711864406779662
 40
0.2881355932203391
 40
0.2881355932203391
 40
0.2881355932203391
 40
0.2881355932203391
 40
0.3050847457627119
 40
0.3050847457627119
 40
0.3050847457627119
 40
0.3050847457627119
 40
0.3220338983050848
 40
0.3220338983050848
 40
0.3220338983050848
 40
0.3220338983050848
 40
0.3389830508474577
 40
0.3389830508474577
 40
0.3389830508474577
 40
0.3389830508474577
 40
0.3559322033898306
 40
0.3559322033898306
 40
0.3559322033898306
 40
0.3559322033898306
 40
0.3728813559322035
 40
0.3728813559322035
 40
0.3728813559322035
 40
0.3728813559322035
 40
0.3898305084745764
 40
0.3898305084745764
 40
0.3898305084745764
 40
0.3898305084745764
 40
0.4067796610169493
 40
0.4067796610169493
 40
0.4067796610169493
 40
0.4067796610169493
 40
0.4237288135593222
 40
0.4237288135593222
 40
0.4237288135593222
 40
0.4237288135593222
 40
0.4406779661016951
 40
0.4406779661016951
 40
0.4406779661016951
 40
0.4406779661016951
 40
0.457627118644068
 40
0.457627118644068
 40
0.457627118644068
 40
0.457627118644068
 40
0.4745762711864409
 40
0.4745762711864409
 40
0.4745762711864409
 40
0.4745762711864409
 40
0.4915254237288138
 40
0.4915254237288138
 40
0.4915254237288138
 40
0.4915254237288138
 40
0.5084745762711866
 40
0.5084745762711866
 40
0.5084745762711866
 40
0.5084745762711866
 40
0.5254237288135595
 40
0.5254237288135595
 40
0.5254237288135595
 40
0.5254237288135595
 40
0.5423728813559323
 40
0.5423728813559323
 40
0.5423728813559323
 40
0.5423728813559323
 40
0.5593220338983052
 40
0.5593220338983052
 40
0.5593220338983052
 40
0.5593220338983052
 40
0.576271186440678
 40
0.576271186440678
 40
0.576271186440678
 40
0.576271186440678
 40
0.5932203389830508
 40
0.5932203389830508
 40
0.5932203389830508
 40
0.5932203389830508
 40
0.6101694915254237
 40
0.6101694915254237
 40
0.6101694915254237
 40
0.6101694915254237
 40
0.6271186440677965
 40
0.6271186440677965
 40
0.6271186440677965
 40
0.6271186440677965
 40
0.6440677966101693
 40
0.6440677966101693
 40
0.6440677966101693
 40
0.6440677966101693
 40
0.6610169491525422
 40
0.6610169491525422
 40
0.6610169491525422
 40
0.6610169491525422
 40
0.677966101694915
 40
0.677966101694915
 40
0.677966101694915
 40
0.677966101694915
 40
0.6949152542372878
 40
0.6949152542372878
 40
0.6949152542372878
 40
0.6949152542372878
 40
0.7118644067796607
 40
0.7118644067796607
 40
0.7118644067796607
 40
0.7118644067796607
 40
0.7288135593220335
 40
0.7288135593220335
 40
0.7288135593220335
 40
0.7288135593220335
 40
0.7457627118644064
 40
0.7457627118644064
 40
0.7457627118644064
 40
0.7457627118644064
 40
0.7627118644067792
 40
0.7627118644067792
 40
0.7627118644067792
 40
0.7627118644067792
 40
0.779661016949152
 40
0.779661016949152
 40
0.779661016949152
 40
0.779661016949152
 40
0.7966101694915249
 40
0.7966101694915249
 40
0.7966101694915249
 40
0.7966101694915249
 40
0.8135593220338977
 40
0.8135593220338977
 40
0.8135593220338977
 40
0.8135593220338977
 40
0.8305084745762705
 40
0.8305084745762705
 40
0.8305084745762705
 40
0.8305084745762705
 40
0.8474576271186434
 40
0.8474576271186434
 40
0.8474576271186434
 40
0.8474576271186434
 40
0.8644067796610162
 40
0.8644067796610162
 40
0.8644067796610162
 40
0.8644067796610162
 40
0.881355932203389
 40
0.881355932203389
 40
0.881355932203389
 40
0.881355932203389
 40
0.8983050847457619
 40
0.8983050847457619
 40
0.8983050847457619
 40
0.8983050847457619
 40
0.9152542372881347
 40
0.9152542372881347
 40
0.9152542372881347
 40
0.9152542372881347
 40
0.9322033898305075
 40
0.9322033898305075
 40
0.9322033898305075
 40
0.9322033898305075
 40
0.9491525423728804
 40
0.9491525423728804
 40
0.9491525423728804
 40
0.9491525423728804
 40
0.9661016949152532
 40
0.9661016949152532
 40
0.9661016949152532
 40
0.9661016949152532
 40
0.9830508474576261
 40
0.9830508474576261
 40
0.9830508474576261
 40
0.9830508474576261
 40
1.0
 40
1.0
 40
1.0
 40
1.0
 10
3.4676900000000002
 20
7.0411100000000006
 30
0.0
 10
3.7348200000000005
 20
7.5722600000000009
 30
0.0
 10
4.3247600000000004
 20
8.2609000000000012
 30
0.0
 10
4.9595500000000001
 20
8.5427
 30
0.0
 10
4.9595500000000001
 20
8.5427
 30
0.0
 10
5.6145300000000002
 20
8.8334800000000016
 30
0.0
 10
6.4198600000000008
 20
8.8889600000000009
 30
0.0
 10
6.4133900000000006
 20
8.85642
 30
0.0
 10
6.4133900000000006
 20
8.85642
 30
0.0
 10
6.4068400000000008
 20
8.8238800000000008
 30
0.0
 10
6.0182300000000009
 20
8.7692800000000002
 30
0.0
 10
5.8692600000000006
 20
8.4381200000000014
 30
0.0
 10
5.8692600000000006
 20
8.4381200000000014
 30
0.0
 10
5.7203000000000008
 20
8.1069399999999998
 30
0.0
 10
6.2678600000000007
 20
8.4206900000000005
 30
0.0
 10
6.6108600000000006
 20
8.7692800000000002
 30
0.0
 10
6.6108600000000006
 20
8.7692800000000002
 30
0.0
 10
6.953850000000001
 20
9.1178699999999999
 30
0.0
 10
7.4606200000000005
 20
9.2573100000000004
 30
0.0
 10
7.9986100000000002
 20
9.2398800000000012
 30
0.0
 10
7.9986100000000002
 20
9.2398800000000012
 30
0.0
 10
8.5365300000000008
 20
9.2224500000000003
 30
0.0
 10
8.7270400000000006
 20
9.0830200000000012
 30
0.0
 10
8.7270400000000006
 20
9.0830200000000012
 30
0.0
 10
8.7270400000000006
 20
9.0830200000000012
 30
0.0
 10
8.7270400000000006
 20
9.0830200000000012
 30
0.0
 10
8.4632900000000006
 20
7.3748900000000006
 30
0.0
 10
7.377390000000001
 20
6.5557000000000007
 30
0.0
 10
7.377390000000001
 20
6.5557000000000007
 30
0.0
 10
6.2915700000000001
 20
5.7365100000000009
 30
0.0
 10
5.5816000000000008
 20
5.7713700000000001
 30
0.0
 10
5.1086600000000004
 20
5.7539400000000001
 30
0.0
 10
5.1086600000000004
 20
5.7539400000000001
 30
0.0
 10
4.6357800000000005
 20
5.7365100000000009
 30
0.0
 10
4.9841500000000005
 20
5.47506
 30
0.0
 10
5.7406300000000003
 20
5.5273600000000007
 30
0.0
 10
5.7406300000000003
 20
5.5273600000000007
 30
0.0
 10
6.4971700000000006
 20
5.5796400000000004
 30
0.0
 10
6.8651700000000009
 20
5.88504
 30
0.0
 10
6.9005200000000002
 20
5.8585200000000004
 30
0.0
 10
6.9005200000000002
 20
5.8585200000000004
 30
0.0
 10
6.9358700000000004
 20
5.8319900000000002
 30
0.0
 10
6.3056900000000002
 20
4.8775600000000008
 30
0.0
 10
5.8809800000000001
 20
5.1439000000000004
 30
0.0
 10
5.8809800000000001
 20
5.1439000000000004
 30
0.0
 10
5.4563400000000009
 20
5.4102400000000008
 30
0.0
 10
4.9200000000000008
 20
5.1264700000000003
 30
0.0
 10
5.1906500000000007
 20
4.9347500000000002
 30
0.0
 10
5.1906500000000007
 20
4.9347500000000002
 30
0.0
 10
5.4612300000000005
 20
4.7430300000000001
 30
0.0
 10
5.9969400000000004
 20
4.3155600000000005
 30
0.0
 10
6.1687100000000008
 20
4.0366800000000005
 30
0.0
 10
6.1687100000000008
 20
4.0366800000000005
 30
0.0
 10
6.3404900000000008
 20
3.7578000000000005
 30
0.0
 10
6.3552300000000006
 20
3.6100800000000004
 30
0.0
 10
6.3552300000000006
 20
3.6100800000000004
 30
0.0
 10
6.3552300000000006
 20
3.6100800000000004
 30
0.0
 10
6.3552300000000006
 20
3.6100800000000004
 30
0.0
 10
6.2363800000000005
 20
3.8082700000000003
 30
0.0
 10
6.0506800000000007
 20
4.0092600000000003
 30
0.0
 10
6.0506800000000007
 20
4.0092600000000003
 30
0.0
 10
5.8042200000000008
 20
4.2760100000000003
 30
0.0
 10
5.4469700000000003
 20
4.5662600000000007
 30
0.0
 10
5.1613700000000007
 20
4.5861400000000003
 30
0.0
 10
5.1613700000000007
 20
4.5861400000000003
 30
0.0
 10
4.66052
 20
4.6210100000000001
 30
0.0
 10
5.2455000000000007
 20
4.1691100000000008
 30
0.0
 10
5.54054
 20
4.0296900000000004
 30
0.0
 10
5.54054
 20
4.0296900000000004
 30
0.0
 10
5.8355700000000006
 20
3.8902700000000001
 30
0.0
 10
6.0252600000000003
 20
3.7495300000000005
 30
0.0
 10
6.0252600000000003
 20
3.7495300000000005
 30
0.0
 10
6.0252600000000003
 20
3.7495300000000005
 30
0.0
 10
6.0252600000000003
 20
3.7495300000000005
 30
0.0
 10
5.2718200000000008
 20
3.9011200000000001
 30
0.0
 10
4.96279
 20
4.16174
 30
0.0
 10
4.96279
 20
4.16174
 30
0.0
 10
4.6646600000000005
 20
4.4131600000000004
 30
0.0
 10
4.5094200000000004
 20
4.5338500000000002
 30
0.0
 10
4.2682600000000006
 20
5.3356200000000005
 30
0.0
 10
4.2682600000000006
 20
5.3356200000000005
 30
0.0
 10
4.0271800000000004
 20
6.1374000000000004
 30
0.0
 10
2.9937800000000001
 20
5.5796600000000005
 30
0.0
 10
3.4372400000000001
 20
4.98705
 30
0.0
 10
3.4372400000000001
 20
4.98705
 30
0.0
 10
3.8806900000000004
 20
4.3944200000000002
 30
0.0
 10
4.4681500000000005
 20
4.3093600000000007
 30
0.0
 10
4.4941900000000006
 20
4.28986
 30
0.0
 10
4.4941900000000006
 20
4.28986
 30
0.0
 10
4.5202400000000003
 20
4.2703300000000004
 30
0.0
 10
3.8881300000000003
 20
4.2484900000000003
 30
0.0
 10
3.5357000000000003
 20
4.5512800000000002
 30
0.0
 10
3.5357000000000003
 20
4.5512800000000002
 30
0.0
 10
3.1832600000000002
 20
4.8541000000000007
 30
0.0
 10
3.0218300000000005
 20
4.8945800000000004
 30
0.0
 10
2.9246000000000003
 20
4.6733000000000002
 30
0.0
 10
2.9246000000000003
 20
4.6733000000000002
 30
0.0
 10
2.8457100000000004
 20
4.4937800000000001
 30
0.0
 10
3.0974800000000005
 20
4.2724299999999999
 30
0.0
 10
3.5122000000000004
 20
4.1155400000000002
 30
0.0
 10
3.5122000000000004
 20
4.1155400000000002
 30
0.0
 10
3.9269200000000004
 20
3.9586800000000002
 30
0.0
 10
4.2476600000000007
 20
4.01098
 30
0.0
 10
4.1941200000000007
 20
3.8715200000000003
 30
0.0
 10
4.1941200000000007
 20
3.8715200000000003
 30
0.0
 10
4.1405200000000004
 20
3.7321000000000004
 30
0.0
 10
3.6520000000000001
 20
2.9477600000000002
 30
0.0
 10
3.1289000000000002
 20
2.6863100000000002
 30
0.0
 10
3.1289000000000002
 20
2.6863100000000002
 30
0.0
 10
2.6058700000000004
 20
2.4248600000000002
 30
0.0
 10
2.2524000000000002
 20
2.1285500000000002
 30
0.0
 10
2.0849700000000002
 20
1.9194000000000002
 30
0.0
 10
2.0849700000000002
 20
1.9194000000000002
 30
0.0
 10
1.9174700000000002
 20
1.7102400000000002
 30
0.0
 10
1.8093100000000002
 20
1.55339
 30
0.0
 10
1.8093100000000002
 20
1.55339
 30
0.0
 10
1.8093100000000002
 20
1.55339
 30
0.0
 10
1.8093100000000002
 20
1.55339
 30
0.0
 10
2.0818700000000003
 20
2.5468800000000003
 30
0.0
 10
2.5294500000000002
 20
2.8954600000000004
 30
0.0
 10
2.5294500000000002
 20
2.8954600000000004
 30
0.0
 10
2.9770400000000001
 20
3.2440700000000002
 30
0.0
 10
2.8344100000000001
 20
3.6100800000000004
 30
0.0
 10
2.5938100000000004
 20
3.5055200000000002
 30
0.0
 10
2.5938100000000004
 20
3.5055200000000002
 30
0.0
 10
2.3532000000000002
 20
3.4009200000000002
 30
0.0
 10
2.2599100000000001
 20
2.9651900000000002
 30
0.0
 10
2.2599100000000001
 20
2.9651900000000002
 30
0.0
 10
2.2599100000000001
 20
2.9651900000000002
 30
0.0
 10
2.2599100000000001
 20
2.9651900000000002
 30
0.0
 10
2.0184800000000003
 20
3.2440700000000002
 30
0.0
 10
2.3593300000000004
 20
3.8366600000000002
 30
0.0
 10
2.3593300000000004
 20
3.8366600000000002
 30
0.0
 10
2.7001900000000001
 20
4.4292899999999999
 30
0.0
 10
2.8480500000000002
 20
4.8824500000000004
 30
0.0
 10
2.58196
 20
4.8475900000000003
 30
0.0
 10
2.58196
 20
4.8475900000000003
 30
0.0
 10
2.3157900000000002
 20
4.8127200000000006
 30
0.0
 10
2.3886200000000004
 20
4.18527
 30
0.0
 10
2.3886200000000004
 20
4.18527
 30
0.0
 10
2.3886200000000004
 20
4.18527
 30
0.0
 10
2.3886200000000004
 20
4.18527
 30
0.0
 10
2.03315
 20
4.3944200000000002
 30
0.0
 10
2.3275000000000001
 20
4.8998800000000005
 30
0.0
 10
2.3275000000000001
 20
4.8998800000000005
 30
0.0
 10
2.6217800000000002
 20
5.4053500000000003
 30
0.0
 10
2.4789500000000002
 20
5.5099100000000005
 30
0.0
 10
2.36843
 20
5.3356200000000005
 30
0.0
 10
2.36843
 20
5.3356200000000005
 30
0.0
 10
2.2579800000000003
 20
5.1613300000000004
 30
0.0
 10
2.06623
 20
5.1613300000000004
 30
0.0
 10
2.06623
 20
5.1613300000000004
 30
0.0
 10
2.06623
 20
5.1613300000000004
 30
0.0
 10
2.06623
 20
5.1613300000000004
 30
0.0
 10
2.0594100000000002
 20
5.3704900000000002
 30
0.0
 10
2.4349200000000004
 20
5.7016500000000008
 30
0.0
 10
2.4349200000000004
 20
5.7016500000000008
 30
0.0
 10
2.6853800000000003
 20
5.9224700000000006
 30
0.0
 10
2.9124800000000004
 20
6.1432700000000002
 30
0.0
 10
3.0360900000000002
 20
6.2659200000000004
 30
0.0
 10
3.0360900000000002
 20
6.2659200000000004
 30
0.0
 10
3.1463300000000003
 20
6.257060000000001
 30
0.0
 10
3.1111200000000001
 20
6.1203100000000008
 30
0.0
 10
2.9033800000000003
 20
5.9456600000000002
 30
0.0
 10
2.9033800000000003
 20
5.9456600000000002
 30
0.0
 10
2.5301400000000003
 20
5.6319300000000005
 30
0.0
 10
2.6496900000000001
 20
5.3530500000000005
 30
0.0
 10
2.6496900000000001
 20
5.3530500000000005
 30
0.0
 10
2.6496900000000001
 20
5.3530500000000005
 30
0.0
 10
2.6496900000000001
 20
5.3530500000000005
 30
0.0
 10
2.7112900000000004
 20
5.4227800000000004
 30
0.0
 10
2.8938800000000002
 20
5.6145000000000005
 30
0.0
 10
2.8938800000000002
 20
5.6145000000000005
 30
0.0
 10
3.0764000000000005
 20
5.8062200000000006
 30
0.0
 10
3.3448400000000005
 20
5.8585200000000004
 30
0.0
 10
3.8469300000000004
 20
5.9630900000000002
 30
0.0
 10
3.8469300000000004
 20
5.9630900000000002
 30
0.0
 10
4.3489400000000007
 20
6.0676700000000006
 30
0.0
 10
4.2747400000000004
 20
6.2942500000000008
 30
0.0
 10
4.2747400000000004
 20
6.2942500000000008
 30
0.0
 10
4.2747400000000004
 20
6.2942500000000008
 30
0.0
 10
4.2747400000000004
 20
6.2942500000000008
 30
0.0
 10
4.1829600000000005
 20
6.2594100000000008
 30
0.0
 10
3.9621300000000002
 20
6.1722400000000004
 30
0.0
 10
3.9621300000000002
 20
6.1722400000000004
 30
0.0
 10
3.7412300000000003
 20
6.0851000000000006
 30
0.0
 10
3.5997100000000004
 20
6.3291200000000005
 30
0.0
 10
4.1762800000000002
 20
6.7300100000000009
 30
0.0
 10
4.1762800000000002
 20
6.7300100000000009
 30
0.0
 10
4.7529200000000005
 20
7.1308900000000008
 30
0.0
 10
4.6862200000000005
 20
6.5034200000000002
 30
0.0
 10
4.6862200000000005
 20
6.5034200000000002
 30
0.0
 10
4.6862200000000005
 20
6.5034200000000002
 30
0.0
 10
4.6862200000000005
 20
6.5034200000000002
 30
0.0
 10
4.8258900000000002
 20
6.7648500000000009
 30
0.0
 10
5.06304
 20
6.9740200000000003
 30
0.0
 10
5.06304
 20
6.9740200000000003
 30
0.0
 10
5.3002100000000008
 20
7.1831700000000005
 30
0.0
 10
5.7420700000000009
 20
7.1675500000000003
 30
0.0
 10
6.2717900000000002
 20
7.4097700000000009
 30
0.0
 10
6.2717900000000002
 20
7.4097700000000009
 30
0.0
 10
6.8015100000000004
 20
7.6519800000000009
 30
0.0
 10
7.1923200000000005
 20
8.5174599999999998
 30
0.0
 10
7.1533200000000008
 20
8.5252600000000012
 30
0.0
 10
7.1533200000000008
 20
8.5252600000000012
 30
0.0
 10
7.1143200000000002
 20
8.5330700000000004
 30
0.0
 10
6.9770700000000003
 20
8.3849400000000003
 30
0.0
 10
6.6487600000000002
 20
8.1017200000000003
 30
0.0
 10
6.6487600000000002
 20
8.1017200000000003
 30
0.0
 10
6.3204400000000005
 20
7.8185000000000002
 30
0.0
 10
5.7212600000000009
 20
7.7235000000000005
 30
0.0
 10
5.15524
 20
7.5317700000000007
 30
0.0
 10
5.15524
 20
7.5317700000000007
 30
0.0
 10
4.5892100000000005
 20
7.3400500000000006
 30
0.0
 10
3.7118800000000003
 20
6.6428500000000001
 30
0.0
 10
3.6766000000000001
 20
6.6428600000000007
 30
0.0
 10
3.6766000000000001
 20
6.6428600000000007
 30
0.0
 10
3.6412500000000003
 20
6.6428600000000007
 30
0.0
 10
3.8481700000000005
 20
6.9565900000000003
 30
0.0
 10
4.1545000000000005
 20
7.2180400000000002
 30
0.0
 10
4.1545000000000005
 20
7.2180400000000002
 30
0.0
 10
4.4609100000000002
 20
7.479470000000001
 30
0.0
 10
4.85785
 20
7.6537700000000006
 30
0.0
 10
5.0705500000000008
 20
7.8106500000000008
 30
0.0
 10
5.0705500000000008
 20
7.8106500000000008
 30
0.0
 10
5.2833300000000003
 20
7.9675200000000004
 30
0.0
 10
5.3498100000000006
 20
8.3335400000000011
 30
0.0
 10
4.6838800000000003
 20
8.1766700000000014
 30
0.0
 10
4.6838800000000003
 20
8.1766700000000014
 30
0.0
 10
4.52196
 20
8.1385300000000012
 30
0.0
 10
4.2429700000000006
 20
7.9638700000000009
 30
0.0
 10
4.0127000000000006
 20
7.7293400000000005
 30
0.0
 10
4.0127000000000006
 20
7.7293400000000005
 30
0.0
 10
3.7070500000000002
 20
7.4180600000000005
 30
0.0
 10
3.4640400000000002
 20
7.0338500000000002
 30
0.0
 10
3.4676900000000002
 20
7.0411100000000006
 30
0.0
  0
SPLINE
  5
2B
100
AcDbEntity
  8
Ebene 1
 62
     1
100
AcDbSpline
210
0.0
220
0.0
230
1.0
 70
     1
 71
     3
 72
    48
 73
    44
 74
     0
 42
0.0000000001
 43
0.0000000001
 40
0.0
 40
0.0
 40
0.0
 40
0.0
 40
0.0909090909090909
 40
0.0909090909090909
 40
0.0909090909090909
 40
0.0909090909090909
 40
0.1818181818181818
 40
0.1818181818181818
 40
0.1818181818181818
 40
0.1818181818181818
 40
0.2727272727272727
 40
0.2727272727272727
 40
0.2727272727272727
 40
0.2727272727272727
 40
0.3636363636363637
 40
0.3636363636363637
 40
0.3636363636363637
 40
0.3636363636363637
 40
0.4545454545454546
 40
0.4545454545454546
 40
0.4545454545454546
 40
0.4545454545454546
 40
0.5454545454545455
 40
0.5454545454545455
 40
0.5454545454545455
 40
0.5454545454545455
 40
0.6363636363636365
 40
0.6363636363636365
 40
0.6363636363636365
 40
0.6363636363636365
 40
0.7272727272727274
 40
0.7272727272727274
 40
0.7272727272727274
 40
0.7272727272727274
 40
0.8181818181818183
 40
0.8181818181818183
 40
0.8181818181818183
 40
0.8181818181818183
 40
0.9090909090909093
 40
0.9090909090909093
 40
0.9090909090909093
 40
0.9090909090909093
 40
1.0
 40
1.0
 40
1.0
 40
1.0
 10
3.9255400000000003
 20
6.6733300000000009
 30
0.0
 10
3.9255400000000003
 20
6.6733300000000009
 30
0.0
 10
3.7506700000000004
 20
6.5098100000000008
 30
0.0
 10
3.6936200000000001
 20
6.3199300000000003
 30
0.0
 10
3.6936200000000001
 20
6.3199300000000003
 30
0.0
 10
3.6365000000000003
 20
6.1300400000000002
 30
0.0
 10
3.7447500000000002
 20
6.0720300000000007
 30
0.0
 10
3.7915300000000003
 20
6.0667400000000002
 30
0.0
 10
3.7915300000000003
 20
6.0667400000000002
 30
0.0
 10
3.8383100000000003
 20
6.0614900000000009
 30
0.0
 10
3.8685600000000004
 20
6.0509300000000001
 30
0.0
 10
3.8685600000000004
 20
6.0509300000000001
 30
0.0
 10
3.8685600000000004
 20
6.0509300000000001
 30
0.0
 10
3.8685600000000004
 20
6.0509300000000001
 30
0.0
 10
3.7995900000000002
 20
6.0087200000000003
 30
0.0
 10
3.6181000000000001
 20
5.9929100000000002
 30
0.0
 10
3.6181000000000001
 20
5.9929100000000002
 30
0.0
 10
3.4366900000000005
 20
5.9770800000000008
 30
0.0
 10
3.3630300000000002
 20
5.9451800000000006
 30
0.0
 10
3.2323200000000001
 20
5.9085100000000006
 30
0.0
 10
3.2323200000000001
 20
5.9085100000000006
 30
0.0
 10
3.1015500000000005
 20
5.8718500000000002
 30
0.0
 10
2.9421800000000005
 20
5.7187300000000008
 30
0.0
 10
2.8952500000000003
 20
5.7286000000000001
 30
0.0
 10
2.8952500000000003
 20
5.7286000000000001
 30
0.0
 10
2.8484000000000003
 20
5.7384700000000004
 30
0.0
 10
3.0575200000000002
 20
5.9689800000000002
 30
0.0
 10
3.2851700000000004
 20
6.0667400000000002
 30
0.0
 10
3.2851700000000004
 20
6.0667400000000002
 30
0.0
 10
3.5128200000000005
 20
6.1645100000000008
 30
0.0
 10
3.5968800000000001
 20
6.2671900000000003
 30
0.0
 10
3.5662900000000004
 20
6.3146500000000003
 30
0.0
 10
3.5662900000000004
 20
6.3146500000000003
 30
0.0
 10
3.5357700000000003
 20
6.3621200000000009
 30
0.0
 10
3.3812200000000003
 20
6.1933500000000006
 30
0.0
 10
3.3812200000000003
 20
6.1933500000000006
 30
0.0
 10
3.3812200000000003
 20
6.1933500000000006
 30
0.0
 10
3.3812200000000003
 20
6.1933500000000006
 30
0.0
 10
3.4084400000000001
 20
6.3568500000000006
 30
0.0
 10
3.5731100000000002
 20
6.4834400000000008
 30
0.0
 10
3.5731100000000002
 20
6.4834400000000008
 30
0.0
 10
3.7377200000000004
 20
6.610030000000001
 30
0.0
 10
3.9255400000000003
 20
6.6733300000000009
 30
0.0
 10
3.9255400000000003
 20
6.6733300000000009
 30
0.0
  0
SPLINE
  5
2C
100
AcDbEntity
  8
Ebene 1
 62
     1
100
AcDbSpline
210
0.0
220
0.0
230
1.0
 70
     1
 71
     3
 72
    64
 73
    60
 74
     0
 42
0.0000000001
 43
0.0000000001
 40
0.0
 40
0.0
 40
0.0
 40
0.0
 40
0.0666666666666667
 40
0.0666666666666667
 40
0.0666666666666667
 40
0.0666666666666667
 40
0.1333333333333333
 40
0.1333333333333333
 40
0.1333333333333333
 40
0.1333333333333333
 40
0.2
 40
0.2
 40
0.2
 40
0.2
 40
0.2666666666666667
 40
0.2666666666666667
 40
0.2666666666666667
 40
0.2666666666666667
 40
0.3333333333333333
 40
0.3333333333333333
 40
0.3333333333333333
 40
0.3333333333333333
 40
0.4
 40
0.4
 40
0.4
 40
0.4
 40
0.4666666666666666
 40
0.4666666666666666
 40
0.4666666666666666
 40
0.4666666666666666
 40
0.5333333333333333
 40
0.5333333333333333
 40
0.5333333333333333
 40
0.5333333333333333
 40
0.6
 40
0.6
 40
0.6
 40
0.6
 40
0.6666666666666666
 40
0.6666666666666666
 40
0.6666666666666666
 40
0.6666666666666666
 40
0.7333333333333333
 40
0.7333333333333333
 40
0.7333333333333333
 40
0.7333333333333333
 40
0.7999999999999999
 40
0.7999999999999999
 40
0.7999999999999999
 40
0.7999999999999999
 40
0.8666666666666666
 40
0.8666666666666666
 40
0.8666666666666666
 40
0.8666666666666666
 40
0.9333333333333332
 40
0.9333333333333332
 40
0.9333333333333332
 40
0.9333333333333332
 40
1.0
 40
1.0
 40
1.0
 40
1.0
 10
4.79488
 20
6.7841000000000005
 30
0.0
 10
4.79488
 20
6.7841000000000005
 30
0.0
 10
5.0392100000000006
 20
7.1902600000000003
 30
0.0
 10
5.3814400000000004
 20
7.2641000000000009
 30
0.0
 10
5.3814400000000004
 20
7.2641000000000009
 30
0.0
 10
5.7236100000000008
 20
7.3379500000000002
 30
0.0
 10
6.0697700000000001
 20
7.4803700000000006
 30
0.0
 10
6.1683000000000003
 20
7.5858500000000006
 30
0.0
 10
6.1683000000000003
 20
7.5858500000000006
 30
0.0
 10
6.2668300000000006
 20
7.6913400000000003
 30
0.0
 10
6.3242200000000004
 20
7.844310000000001
 30
0.0
 10
6.3242200000000004
 20
7.844310000000001
 30
0.0
 10
6.3242200000000004
 20
7.844310000000001
 30
0.0
 10
6.3242200000000004
 20
7.844310000000001
 30
0.0
 10
5.8007100000000005
 20
7.6077800000000009
 30
0.0
 10
5.4938900000000004
 20
7.5661500000000004
 30
0.0
 10
5.4938900000000004
 20
7.5661500000000004
 30
0.0
 10
5.1871400000000003
 20
7.5245200000000008
 30
0.0
 10
4.9754700000000005
 20
7.374880000000001
 30
0.0
 10
5.0112300000000003
 20
7.374880000000001
 30
0.0
 10
5.0112300000000003
 20
7.374880000000001
 30
0.0
 10
5.0469900000000001
 20
7.374880000000001
 30
0.0
 10
5.3988000000000005
 20
7.4967500000000005
 30
0.0
 10
5.4775600000000004
 20
7.4545600000000007
 30
0.0
 10
5.4775600000000004
 20
7.4545600000000007
 30
0.0
 10
5.5563200000000004
 20
7.4123600000000005
 30
0.0
 10
5.44862
 20
7.3326800000000008
 30
0.0
 10
5.2650700000000006
 20
7.3010100000000007
 30
0.0
 10
5.2650700000000006
 20
7.3010100000000007
 30
0.0
 10
5.0815100000000006
 20
7.2693700000000003
 30
0.0
 10
4.8935400000000007
 20
7.3087600000000004
 30
0.0
 10
4.8740500000000004
 20
7.2957400000000003
 30
0.0
 10
4.8740500000000004
 20
7.2957400000000003
 30
0.0
 10
4.8544800000000006
 20
7.2827200000000003
 30
0.0
 10
4.9658900000000008
 20
7.1595400000000007
 30
0.0
 10
4.8777000000000008
 20
7.0478400000000008
 30
0.0
 10
4.8777000000000008
 20
7.0478400000000008
 30
0.0
 10
4.7895700000000003
 20
6.9361400000000009
 30
0.0
 10
4.6069800000000001
 20
7.0421300000000002
 30
0.0
 10
4.7033800000000001
 20
7.1638800000000007
 30
0.0
 10
4.7033800000000001
 20
7.1638800000000007
 30
0.0
 10
4.7997700000000005
 20
7.2856300000000003
 30
0.0
 10
4.7999800000000006
 20
7.2983400000000005
 30
0.0
 10
4.7896400000000003
 20
7.2957400000000003
 30
0.0
 10
4.7896400000000003
 20
7.2957400000000003
 30
0.0
 10
4.7792400000000006
 20
7.2931400000000002
 30
0.0
 10
4.6322700000000001
 20
7.1697200000000008
 30
0.0
 10
4.4638800000000005
 20
7.0689300000000008
 30
0.0
 10
4.4638800000000005
 20
7.0689300000000008
 30
0.0
 10
4.2954800000000004
 20
6.9681500000000005
 30
0.0
 10
4.2192000000000007
 20
6.8824700000000005
 30
0.0
 10
4.2432500000000006
 20
6.8790400000000007
 30
0.0
 10
4.2432500000000006
 20
6.8790400000000007
 30
0.0
 10
4.2673000000000005
 20
6.8756100000000009
 30
0.0
 10
4.5120400000000007
 20
7.0742100000000008
 30
0.0
 10
4.6853200000000008
 20
6.9898200000000008
 30
0.0
 10
4.6853200000000008
 20
6.9898200000000008
 30
0.0
 10
4.8586100000000005
 20
6.9054100000000007
 30
0.0
 10
4.79488
 20
6.7841000000000005
 30
0.0
 10
4.79488
 20
6.7841000000000005
 30
0.0
  0
SPLINE
  5
2D
100
AcDbEntity
  8
Ebene 1
 62
     1
100
AcDbSpline
210
0.0
220
0.0
230
1.0
 70
     1
 71
     3
 72
    68
 73
    64
 74
     0
 42
0.0000000001
 43
0.0000000001
 40
0.0
 40
0.0
 40
0.0
 40
0.0
 40
0.0625
 40
0.0625
 40
0.0625
 40
0.0625
 40
0.125
 40
0.125
 40
0.125
 40
0.125
 40
0.1875
 40
0.1875
 40
0.1875
 40
0.1875
 40
0.25
 40
0.25
 40
0.25
 40
0.25
 40
0.3125
 40
0.3125
 40
0.3125
 40
0.3125
 40
0.375
 40
0.375
 40
0.375
 40
0.375
 40
0.4375
 40
0.4375
 40
0.4375
 40
0.4375
 40
0.5
 40
0.5
 40
0.5
 40
0.5
 40
0.5625
 40
0.5625
 40
0.5625
 40
0.5625
 40
0.625
 40
0.625
 40
0.625
 40
0.625
 40
0.6875
 40
0.6875
 40
0.6875
 40
0.6875
 40
0.75
 40
0.75
 40
0.75
 40
0.75
 40
0.8125
 40
0.8125
 40
0.8125
 40
0.8125
 40
0.875
 40
0.875
 40
0.875
 40
0.875
 40
0.9375
 40
0.9375
 40
0.9375
 40
0.9375
 40
1.0
 40
1.0
 40
1.0
 40
1.0
 10
3.5097200000000002
 20
6.9159700000000006
 30
0.0
 10
3.5097200000000002
 20
6.9159700000000006
 30
0.0
 10
4.0983499999999999
 20
7.844310000000001
 30
0.0
 10
4.4233600000000006
 20
7.9867300000000006
 30
0.0
 10
4.4233600000000006
 20
7.9867300000000006
 30
0.0
 10
4.7483700000000004
 20
8.129150000000001
 30
0.0
 10
5.0025500000000003
 20
8.0975000000000001
 30
0.0
 10
5.0418900000000004
 20
7.9972800000000008
 30
0.0
 10
5.0418900000000004
 20
7.9972800000000008
 30
0.0
 10
5.0812400000000002
 20
7.897050000000001
 30
0.0
 10
4.6410900000000002
 20
7.6438700000000006
 30
0.0
 10
4.4856500000000006
 20
7.5858500000000006
 30
0.0
 10
4.4856500000000006
 20
7.5858500000000006
 30
0.0
 10
4.3302000000000005
 20
7.5278200000000002
 30
0.0
 10
4.2552400000000006
 20
7.4292100000000003
 30
0.0
 10
4.2309900000000003
 20
7.4170600000000002
 30
0.0
 10
4.2309900000000003
 20
7.4170600000000002
 30
0.0
 10
4.2066600000000003
 20
7.4049200000000006
 30
0.0
 10
4.31656
 20
7.6496700000000004
 30
0.0
 10
4.5026000000000002
 20
7.7124400000000009
 30
0.0
 10
4.5026000000000002
 20
7.7124400000000009
 30
0.0
 10
4.6887000000000008
 20
7.7752100000000004
 30
0.0
 10
4.7689000000000004
 20
7.849590000000001
 30
0.0
 10
4.7024800000000004
 20
7.8654000000000011
 30
0.0
 10
4.7024800000000004
 20
7.8654000000000011
 30
0.0
 10
4.6359900000000005
 20
7.8812200000000008
 30
0.0
 10
4.4664900000000003
 20
7.7968300000000008
 30
0.0
 10
4.4664900000000003
 20
7.7968300000000008
 30
0.0
 10
4.4664900000000003
 20
7.7968300000000008
 30
0.0
 10
4.4664900000000003
 20
7.7968300000000008
 30
0.0
 10
4.4995700000000003
 20
7.8865100000000004
 30
0.0
 10
4.5956100000000006
 20
7.9339800000000009
 30
0.0
 10
4.5956100000000006
 20
7.9339800000000009
 30
0.0
 10
4.6916600000000006
 20
7.9814500000000006
 30
0.0
 10
4.5049400000000004
 20
8.0447400000000009
 30
0.0
 10
4.2350500000000002
 20
7.8021200000000004
 30
0.0
 10
4.2350500000000002
 20
7.8021200000000004
 30
0.0
 10
3.9652300000000005
 20
7.5594800000000006
 30
0.0
 10
3.8246700000000002
 20
7.1796900000000008
 30
0.0
 10
3.9224400000000004
 20
7.2008100000000006
 30
0.0
 10
3.9224400000000004
 20
7.2008100000000006
 30
0.0
 10
4.0202200000000001
 20
7.2219000000000007
 30
0.0
 10
4.1048300000000006
 20
7.3328300000000004
 30
0.0
 10
4.12012
 20
7.3379500000000002
 30
0.0
 10
4.12012
 20
7.3379500000000002
 30
0.0
 10
4.1354200000000008
 20
7.3430400000000002
 30
0.0
 10
4.0873900000000001
 20
7.2249600000000003
 30
0.0
 10
3.9367800000000002
 20
7.1111200000000006
 30
0.0
 10
3.9367800000000002
 20
7.1111200000000006
 30
0.0
 10
3.7861500000000001
 20
6.9973100000000006
 30
0.0
 10
3.6243000000000003
 20
6.8263000000000007
 30
0.0
 10
3.5412100000000004
 20
6.6786000000000003
 30
0.0
 10
3.5412100000000004
 20
6.6786000000000003
 30
0.0
 10
3.4581100000000005
 20
6.5309100000000004
 30
0.0
 10
3.3141100000000003
 20
6.2038900000000003
 30
0.0
 10
3.3141100000000003
 20
6.2038900000000003
 30
0.0
 10
3.3141100000000003
 20
6.2038900000000003
 30
0.0
 10
3.3141100000000003
 20
6.2038900000000003
 30
0.0
 10
3.3455900000000001
 20
6.4781700000000004
 30
0.0
 10
3.4072600000000004
 20
6.6627900000000002
 30
0.0
 10
3.4072600000000004
 20
6.6627900000000002
 30
0.0
 10
3.4689300000000003
 20
6.8474000000000004
 30
0.0
 10
3.5097200000000002
 20
6.9159700000000006
 30
0.0
 10
3.5097200000000002
 20
6.9159700000000006
 30
0.0
  0
SPLINE
  5
2E
100
AcDbEntity
  8
Ebene 1
 62
     1
100
AcDbSpline
210
0.0
220
0.0
230
1.0
 70
     1
 71
     3
 72
    28
 73
    24
 74
     0
 42
0.0000000001
 43
0.0000000001
 40
0.0
 40
0.0
 40
0.0
 40
0.0
 40
0.1666666666666667
 40
0.1666666666666667
 40
0.1666666666666667
 40
0.1666666666666667
 40
0.3333333333333333
 40
0.3333333333333333
 40
0.3333333333333333
 40
0.3333333333333333
 40
0.5
 40
0.5
 40
0.5
 40
0.5
 40
0.6666666666666666
 40
0.6666666666666666
 40
0.6666666666666666
 40
0.6666666666666666
 40
0.8333333333333333
 40
0.8333333333333333
 40
0.8333333333333333
 40
0.8333333333333333
 40
1.0
 40
1.0
 40
1.0
 40
1.0
 10
4.3351600000000001
 20
4.5338500000000002
 30
0.0
 10
4.3351600000000001
 20
4.5338500000000002
 30
0.0
 10
3.7427500000000005
 20
4.7952900000000005
 30
0.0
 10
3.5383800000000001
 20
5.0916000000000006
 30
0.0
 10
3.5383800000000001
 20
5.0916000000000006
 30
0.0
 10
3.3340900000000002
 20
5.3879200000000003
 30
0.0
 10
3.8095800000000004
 20
5.6842100000000002
 30
0.0
 10
4.0812600000000003
 20
5.3704900000000002
 30
0.0
 10
4.0812600000000003
 20
5.3704900000000002
 30
0.0
 10
4.3529400000000003
 20
5.0567400000000005
 30
0.0
 10
4.3585200000000004
 20
4.70817
 30
0.0
 10
4.3585200000000004
 20
4.70817
 30
0.0
 10
4.3585200000000004
 20
4.70817
 30
0.0
 10
4.3585200000000004
 20
4.70817
 30
0.0
 10
4.0115300000000005
 20
5.3704900000000002
 30
0.0
 10
3.8359700000000001
 20
5.2310600000000003
 30
0.0
 10
3.8359700000000001
 20
5.2310600000000003
 30
0.0
 10
3.6604100000000002
 20
5.0916000000000006
 30
0.0
 10
3.9565500000000005
 20
4.8301600000000002
 30
0.0
 10
4.1191599999999999
 20
4.7430300000000001
 30
0.0
 10
4.1191599999999999
 20
4.7430300000000001
 30
0.0
 10
4.2939600000000002
 20
4.6640000000000006
 30
0.0
 10
4.3473600000000001
 20
4.5420100000000003
 30
0.0
 10
4.3351600000000001
 20
4.5338500000000002
 30
0.0
  0
SPLINE
  5
2F
100
AcDbEntity
  8
Ebene 1
 62
     1
100
AcDbSpline
210
0.0
220
0.0
230
1.0
 70
     1
 71
     3
 72
    48
 73
    44
 74
     0
 42
0.0000000001
 43
0.0000000001
 40
0.0
 40
0.0
 40
0.0
 40
0.0
 40
0.0909090909090909
 40
0.0909090909090909
 40
0.0909090909090909
 40
0.0909090909090909
 40
0.1818181818181818
 40
0.1818181818181818
 40
0.1818181818181818
 40
0.1818181818181818
 40
0.2727272727272727
 40
0.2727272727272727
 40
0.2727272727272727
 40
0.2727272727272727
 40
0.3636363636363637
 40
0.3636363636363637
 40
0.3636363636363637
 40
0.3636363636363637
 40
0.4545454545454546
 40
0.4545454545454546
 40
0.4545454545454546
 40
0.4545454545454546
 40
0.5454545454545455
 40
0.5454545454545455
 40
0.5454545454545455
 40
0.5454545454545455
 40
0.6363636363636365
 40
0.6363636363636365
 40
0.6363636363636365
 40
0.6363636363636365
 40
0.7272727272727274
 40
0.7272727272727274
 40
0.7272727272727274
 40
0.7272727272727274
 40
0.8181818181818183
 40
0.8181818181818183
 40
0.8181818181818183
 40
0.8181818181818183
 40
0.9090909090909093
 40
0.9090909090909093
 40
0.9090909090909093
 40
0.9090909090909093
 40
1.0
 40
1.0
 40
1.0
 40
1.0
 10
-0.4372800000000001
 20
6.6733300000000009
 30
0.0
 10
-0.4372800000000001
 20
6.6733300000000009
 30
0.0
 10
-0.26241
 20
6.5098100000000008
 30
0.0
 10
-0.2053
 20
6.3199300000000003
 30
0.0
 10
-0.2053
 20
6.3199300000000003
 30
0.0
 10
-0.14822
 20
6.1300400000000002
 30
0.0
 10
-0.25648
 20
6.0720300000000007
 30
0.0
 10
-0.30325
 20
6.0667400000000002
 30
0.0
 10
-0.30325
 20
6.0667400000000002
 30
0.0
 10
-0.3500200000000001
 20
6.0614900000000009
 30
0.0
 10
-0.38025
 20
6.0509300000000001
 30
0.0
 10
-0.38025
 20
6.0509300000000001
 30
0.0
 10
-0.38025
 20
6.0509300000000001
 30
0.0
 10
-0.38025
 20
6.0509300000000001
 30
0.0
 10
-0.31129
 20
6.0087200000000003
 30
0.0
 10
-0.12984
 20
5.9929100000000002
 30
0.0
 10
-0.12984
 20
5.9929100000000002
 30
0.0
 10
0.05162
 20
5.9770800000000008
 30
0.0
 10
0.12521
 20
5.9451800000000006
 30
0.0
 10
0.25597
 20
5.9085100000000006
 30
0.0
 10
0.25597
 20
5.9085100000000006
 30
0.0
 10
0.3867100000000001
 20
5.8718500000000002
 30
0.0
 10
0.54613
 20
5.7187300000000008
 30
0.0
 10
0.5930200000000001
 20
5.7286000000000001
 30
0.0
 10
0.5930200000000001
 20
5.7286000000000001
 30
0.0
 10
0.6399100000000001
 20
5.7384700000000004
 30
0.0
 10
0.43077
 20
5.9689800000000002
 30
0.0
 10
0.20312
 20
6.0667400000000002
 30
0.0
 10
0.20312
 20
6.0667400000000002
 30
0.0
 10
-0.02452
 20
6.1645100000000008
 30
0.0
 10
-0.10858
 20
6.2671900000000003
 30
0.0
 10
-0.07801
 20
6.3146500000000003
 30
0.0
 10
-0.07801
 20
6.3146500000000003
 30
0.0
 10
-0.04745
 20
6.3621200000000009
 30
0.0
 10
0.10702
 20
6.1933500000000006
 30
0.0
 10
0.10702
 20
6.1933500000000006
 30
0.0
 10
0.10702
 20
6.1933500000000006
 30
0.0
 10
0.10702
 20
6.1933500000000006
 30
0.0
 10
0.07984
 20
6.3568500000000006
 30
0.0
 10
-0.08481
 20
6.4834400000000008
 30
0.0
 10
-0.08481
 20
6.4834400000000008
 30
0.0
 10
-0.24945
 20
6.610030000000001
 30
0.0
 10
-0.4372800000000001
 20
6.6733300000000009
 30
0.0
 10
-0.4372800000000001
 20
6.6733300000000009
 30
0.0
  0
SPLINE
  5
30
100
AcDbEntity
  8
Ebene 1
 62
     1
100
AcDbSpline
210
0.0
220
0.0
230
1.0
 70
     1
 71
     3
 72
    64
 73
    60
 74
     0
 42
0.0000000001
 43
0.0000000001
 40
0.0
 40
0.0
 40
0.0
 40
0.0
 40
0.0666666666666667
 40
0.0666666666666667
 40
0.0666666666666667
 40
0.0666666666666667
 40
0.1333333333333333
 40
0.1333333333333333
 40
0.1333333333333333
 40
0.1333333333333333
 40
0.2
 40
0.2
 40
0.2
 40
0.2
 40
0.2666666666666667
 40
0.2666666666666667
 40
0.2666666666666667
 40
0.2666666666666667
 40
0.3333333333333333
 40
0.3333333333333333
 40
0.3333333333333333
 40
0.3333333333333333
 40
0.4
 40
0.4
 40
0.4
 40
0.4
 40
0.4666666666666666
 40
0.4666666666666666
 40
0.4666666666666666
 40
0.4666666666666666
 40
0.5333333333333333
 40
0.5333333333333333
 40
0.5333333333333333
 40
0.5333333333333333
 40
0.6
 40
0.6
 40
0.6
 40
0.6
 40
0.6666666666666666
 40
0.6666666666666666
 40
0.6666666666666666
 40
0.6666666666666666
 40
0.7333333333333333
 40
0.7333333333333333
 40
0.7333333333333333
 40
0.7333333333333333
 40
0.7999999999999999
 40
0.7999999999999999
 40
0.7999999999999999
 40
0.7999999999999999
 40
0.8666666666666666
 40
0.8666666666666666
 40
0.8666666666666666
 40
0.8666666666666666
 40
0.9333333333333332
 40
0.9333333333333332
 40
0.9333333333333332
 40
0.9333333333333332
 40
1.0
 40
1.0
 40
1.0
 40
1.0
 10
-1.3066300000000002
 20
6.7841000000000005
 30
0.0
 10
-1.3066300000000002
 20
6.7841000000000005
 30
0.0
 10
-1.5509400000000002
 20
7.1902600000000003
 30
0.0
 10
-1.8931500000000001
 20
7.2641000000000009
 30
0.0
 10
-1.8931500000000001
 20
7.2641000000000009
 30
0.0
 10
-2.2353500000000004
 20
7.3379500000000002
 30
0.0
 10
-2.5814400000000002
 20
7.4803700000000006
 30
0.0
 10
-2.6799900000000001
 20
7.5858500000000006
 30
0.0
 10
-2.6799900000000001
 20
7.5858500000000006
 30
0.0
 10
-2.7785200000000003
 20
7.6913400000000003
 30
0.0
 10
-2.8359500000000004
 20
7.844310000000001
 30
0.0
 10
-2.8359500000000004
 20
7.844310000000001
 30
0.0
 10
-2.8359500000000004
 20
7.844310000000001
 30
0.0
 10
-2.8359500000000004
 20
7.844310000000001
 30
0.0
 10
-2.3123900000000002
 20
7.6077800000000009
 30
0.0
 10
-2.0056400000000001
 20
7.5661500000000004
 30
0.0
 10
-2.0056400000000001
 20
7.5661500000000004
 30
0.0
 10
-1.6988700000000001
 20
7.5245200000000008
 30
0.0
 10
-1.48719
 20
7.374880000000001
 30
0.0
 10
-1.5229300000000001
 20
7.374880000000001
 30
0.0
 10
-1.5229300000000001
 20
7.374880000000001
 30
0.0
 10
-1.5586600000000002
 20
7.374880000000001
 30
0.0
 10
-1.9105400000000001
 20
7.4967500000000005
 30
0.0
 10
-1.9892800000000002
 20
7.4545600000000007
 30
0.0
 10
-1.9892800000000002
 20
7.4545600000000007
 30
0.0
 10
-2.0680200000000002
 20
7.4123600000000005
 30
0.0
 10
-1.9603400000000002
 20
7.3326800000000008
 30
0.0
 10
-1.7767700000000002
 20
7.3010100000000007
 30
0.0
 10
-1.7767700000000002
 20
7.3010100000000007
 30
0.0
 10
-1.59318
 20
7.2693700000000003
 30
0.0
 10
-1.40527
 20
7.3087600000000004
 30
0.0
 10
-1.3857300000000001
 20
7.2957400000000003
 30
0.0
 10
-1.3857300000000001
 20
7.2957400000000003
 30
0.0
 10
-1.3662000000000001
 20
7.2827200000000003
 30
0.0
 10
-1.4776
 20
7.1595400000000007
 30
0.0
 10
-1.3894300000000002
 20
7.0478400000000008
 30
0.0
 10
-1.3894300000000002
 20
7.0478400000000008
 30
0.0
 10
-1.3012800000000002
 20
6.9361400000000009
 30
0.0
 10
-1.1187
 20
7.0421300000000002
 30
0.0
 10
-1.2151000000000001
 20
7.1638800000000007
 30
0.0
 10
-1.2151000000000001
 20
7.1638800000000007
 30
0.0
 10
-1.31149
 20
7.2856300000000003
 30
0.0
 10
-1.3117100000000002
 20
7.2983400000000005
 30
0.0
 10
-1.30135
 20
7.2957400000000003
 30
0.0
 10
-1.30135
 20
7.2957400000000003
 30
0.0
 10
-1.2909700000000002
 20
7.2931400000000002
 30
0.0
 10
-1.1439700000000002
 20
7.1697200000000008
 30
0.0
 10
-0.9755600000000001
 20
7.0689300000000008
 30
0.0
 10
-0.9755600000000001
 20
7.0689300000000008
 30
0.0
 10
-0.8071600000000001
 20
6.9681500000000005
 30
0.0
 10
-0.73092
 20
6.8824700000000005
 30
0.0
 10
-0.75495
 20
6.8790400000000007
 30
0.0
 10
-0.75495
 20
6.8790400000000007
 30
0.0
 10
-0.779
 20
6.8756100000000009
 30
0.0
 10
-1.0237400000000001
 20
7.0742100000000008
 30
0.0
 10
-1.1970400000000001
 20
6.9898200000000008
 30
0.0
 10
-1.1970400000000001
 20
6.9898200000000008
 30
0.0
 10
-1.3703500000000002
 20
6.9054100000000007
 30
0.0
 10
-1.3066300000000002
 20
6.7841000000000005
 30
0.0
 10
-1.3066300000000002
 20
6.7841000000000005
 30
0.0
  0
SPLINE
  5
31
100
AcDbEntity
  8
Ebene 1
 62
     1
100
AcDbSpline
210
0.0
220
0.0
230
1.0
 70
     1
 71
     3
 72
    68
 73
    64
 74
     0
 42
0.0000000001
 43
0.0000000001
 40
0.0
 40
0.0
 40
0.0
 40
0.0
 40
0.0625
 40
0.0625
 40
0.0625
 40
0.0625
 40
0.125
 40
0.125
 40
0.125
 40
0.125
 40
0.1875
 40
0.1875
 40
0.1875
 40
0.1875
 40
0.25
 40
0.25
 40
0.25
 40
0.25
 40
0.3125
 40
0.3125
 40
0.3125
 40
0.3125
 40
0.375
 40
0.375
 40
0.375
 40
0.375
 40
0.4375
 40
0.4375
 40
0.4375
 40
0.4375
 40
0.5
 40
0.5
 40
0.5
 40
0.5
 40
0.5625
 40
0.5625
 40
0.5625
 40
0.5625
 40
0.625
 40
0.625
 40
0.625
 40
0.625
 40
0.6875
 40
0.6875
 40
0.6875
 40
0.6875
 40
0.75
 40
0.75
 40
0.75
 40
0.75
 40
0.8125
 40
0.8125
 40
0.8125
 40
0.8125
 40
0.875
 40
0.875
 40
0.875
 40
0.875
 40
0.9375
 40
0.9375
 40
0.9375
 40
0.9375
 40
1.0
 40
1.0
 40
1.0
 40
1.0
 10
-0.02146
 20
6.9159700000000006
 30
0.0
 10
-0.02146
 20
6.9159700000000006
 30
0.0
 10
-0.61004
 20
7.844310000000001
 30
0.0
 10
-0.9350500000000001
 20
7.9867300000000006
 30
0.0
 10
-0.9350500000000001
 20
7.9867300000000006
 30
0.0
 10
-1.2600600000000002
 20
8.129150000000001
 30
0.0
 10
-1.5142700000000002
 20
8.0975000000000001
 30
0.0
 10
-1.5536000000000001
 20
7.9972800000000008
 30
0.0
 10
-1.5536000000000001
 20
7.9972800000000008
 30
0.0
 10
-1.5929200000000001
 20
7.897050000000001
 30
0.0
 10
-1.1528400000000001
 20
7.6438700000000006
 30
0.0
 10
-0.9973700000000001
 20
7.5858500000000006
 30
0.0
 10
-0.9973700000000001
 20
7.5858500000000006
 30
0.0
 10
-0.84189
 20
7.5278200000000002
 30
0.0
 10
-0.7669400000000001
 20
7.4292100000000003
 30
0.0
 10
-0.7426700000000001
 20
7.4170600000000002
 30
0.0
 10
-0.7426700000000001
 20
7.4170600000000002
 30
0.0
 10
-0.71838
 20
7.4049200000000006
 30
0.0
 10
-0.8282600000000001
 20
7.6496700000000004
 30
0.0
 10
-1.0143300000000002
 20
7.7124400000000009
 30
0.0
 10
-1.0143300000000002
 20
7.7124400000000009
 30
0.0
 10
-1.2004000000000001
 20
7.7752100000000004
 30
0.0
 10
-1.2806200000000001
 20
7.849590000000001
 30
0.0
 10
-1.2141700000000002
 20
7.8654000000000011
 30
0.0
 10
-1.2141700000000002
 20
7.8654000000000011
 30
0.0
 10
-1.1477300000000001
 20
7.8812200000000008
 30
0.0
 10
-0.97816
 20
7.7968300000000008
 30
0.0
 10
-0.97816
 20
7.7968300000000008
 30
0.0
 10
-0.97816
 20
7.7968300000000008
 30
0.0
 10
-0.97816
 20
7.7968300000000008
 30
0.0
 10
-1.01129
 20
7.8865100000000004
 30
0.0
 10
-1.1073200000000001
 20
7.9339800000000009
 30
0.0
 10
-1.1073200000000001
 20
7.9339800000000009
 30
0.0
 10
-1.2033500000000001
 20
7.9814500000000006
 30
0.0
 10
-1.0166600000000001
 20
8.0447400000000009
 30
0.0
 10
-0.7468
 20
7.8021200000000004
 30
0.0
 10
-0.7468
 20
7.8021200000000004
 30
0.0
 10
-0.4769200000000001
 20
7.5594800000000006
 30
0.0
 10
-0.33634
 20
7.1796900000000008
 30
0.0
 10
-0.43413
 20
7.2008100000000006
 30
0.0
 10
-0.43413
 20
7.2008100000000006
 30
0.0
 10
-0.5319
 20
7.2219000000000007
 30
0.0
 10
-0.61653
 20
7.3328300000000004
 30
0.0
 10
-0.6318400000000001
 20
7.3379500000000002
 30
0.0
 10
-0.6318400000000001
 20
7.3379500000000002
 30
0.0
 10
-0.6471600000000001
 20
7.3430400000000002
 30
0.0
 10
-0.59911
 20
7.2249600000000003
 30
0.0
 10
-0.4484800000000001
 20
7.1111200000000006
 30
0.0
 10
-0.4484800000000001
 20
7.1111200000000006
 30
0.0
 10
-0.29786
 20
6.9973100000000006
 30
0.0
 10
-0.13603
 20
6.8263000000000007
 30
0.0
 10
-0.05293
 20
6.6786000000000003
 30
0.0
 10
-0.05293
 20
6.6786000000000003
 30
0.0
 10
0.03014
 20
6.5309100000000004
 30
0.0
 10
0.17418
 20
6.2038900000000003
 30
0.0
 10
0.17418
 20
6.2038900000000003
 30
0.0
 10
0.17418
 20
6.2038900000000003
 30
0.0
 10
0.17418
 20
6.2038900000000003
 30
0.0
 10
0.14271
 20
6.4781700000000004
 30
0.0
 10
0.08104
 20
6.6627900000000002
 30
0.0
 10
0.08104
 20
6.6627900000000002
 30
0.0
 10
0.01937
 20
6.8474000000000004
 30
0.0
 10
-0.02146
 20
6.9159700000000006
 30
0.0
 10
-0.02146
 20
6.9159700000000006
 30
0.0
  0
SPLINE
  5
32
100
AcDbEntity
  8
Ebene 1
 62
     1
100
AcDbSpline
210
0.0
220
0.0
230
1.0
 70
     1
 71
     3
 72
    28
 73
    24
 74
     0
 42
0.0000000001
 43
0.0000000001
 40
0.0
 40
0.0
 40
0.0
 40
0.0
 40
0.1666666666666667
 40
0.1666666666666667
 40
0.1666666666666667
 40
0.1666666666666667
 40
0.3333333333333333
 40
0.3333333333333333
 40
0.3333333333333333
 40
0.3333333333333333
 40
0.5
 40
0.5
 40
0.5
 40
0.5
 40
0.6666666666666666
 40
0.6666666666666666
 40
0.6666666666666666
 40
0.6666666666666666
 40
0.8333333333333333
 40
0.8333333333333333
 40
0.8333333333333333
 40
0.8333333333333333
 40
1.0
 40
1.0
 40
1.0
 40
1.0
 10
-0.8468500000000001
 20
4.5338500000000002
 30
0.0
 10
-0.8468500000000001
 20
4.5338500000000002
 30
0.0
 10
-0.2544300000000001
 20
4.7952900000000005
 30
0.0
 10
-0.05012
 20
5.0916000000000006
 30
0.0
 10
-0.05012
 20
5.0916000000000006
 30
0.0
 10
0.15418
 20
5.3879200000000003
 30
0.0
 10
-0.32127
 20
5.6842100000000002
 30
0.0
 10
-0.5929500000000001
 20
5.3704900000000002
 30
0.0
 10
-0.5929500000000001
 20
5.3704900000000002
 30
0.0
 10
-0.86465
 20
5.0567400000000005
 30
0.0
 10
-0.87021
 20
4.70817
 30
0.0
 10
-0.87021
 20
4.70817
 30
0.0
 10
-0.87021
 20
4.70817
 30
0.0
 10
-0.87021
 20
4.70817
 30
0.0
 10
-0.52324
 20
5.3704900000000002
 30
0.0
 10
-0.34768
 20
5.2310600000000003
 30
0.0
 10
-0.34768
 20
5.2310600000000003
 30
0.0
 10
-0.17213
 20
5.0916000000000006
 30
0.0
 10
-0.4682500000000001
 20
4.8301600000000002
 30
0.0
 10
-0.63088
 20
4.7430300000000001
 30
0.0
 10
-0.63088
 20
4.7430300000000001
 30
0.0
 10
-0.8057000000000001
 20
4.6640000000000006
 30
0.0
 10
-0.8590700000000001
 20
4.5420100000000003
 30
0.0
 10
-0.8468500000000001
 20
4.5338500000000002
 30
0.0
  0
ENDSEC
  0
SECTION
  2
OBJECTS
  0
DICTIONARY
  5
19
100
AcDbDictionary
280
     0
281
     1
  3
ACAD_GROUP
350
1A
  3
ACAD_MLINESTYLE
350
1B
  3
ACAD_LAYOUT
350
1E
  3
ACAD_PLOTSETTINGS
350
22
  3
ACAD_PLOTSTYLENAME
350
1F
  3
ACAD_WIPEOUT_VARS
350
23
  0
DICTIONARY
  5
1A
102
{ACAD_REACTORS
330
19
102
}
100
AcDbDictionary
280
     0
281
     1
  0
DICTIONARY
  5
1B
102
{ACAD_REACTORS
330
19
102
}
100
AcDbDictionary
280
     0
281
     1
  3
Standard
350
1C
  0
MLINESTYLE
  5
1C
102
{ACAD_REACTORS
330
1B
102
}
100
AcDbMlineStyle
  2
Standard
 70
     0
  3

 62
     0
 51
90.0
 52
90.0
 71
     2
 49
0.5
 62
   256
  6
BYLAYER
 49
-0.5
 62
   256
  6
BYLAYER
  0
ACDBDICTIONARYWDFLT
  5
1F
102
{ACAD_REACTORS
330
19
102
}
100
AcDbDictionary
281
     1
  3
Normal
350
1D
100
AcDbDictionaryWithDefault
340
1D
  0
ACDBPLACEHOLDER
  5
1D
102
{ACAD_REACTORS
330
1F
102
}
  0
LAYOUT
  5
20
102
{ACAD_REACTORS
330
1E
102
}
100
AcDbPlotSettings
  1

  2

  4

  6

 40
0.0
 41
0.0
 42
0.0
 43
0.0
 44
0.0
 45
0.0
 46
0.0
 47
0.0
 48
0.0
 49
0.0
140
0.0
141
0.0
142
1.0
143
1.0
 70
  1024
 72
     0
 73
     0
 74
     0
  7

 75
     0
147
1.0
148
0.0
149
0.0
100
AcDbLayout
  1
Model
 70
     0
 71
     0
 10
0.0
 20
0.0
 11
0.0
 21
0.0
 12
0.0
 22
0.0
 32
0.0
 14
0.0
 24
0.0
 34
0.0
 15
0.0
 25
0.0
 35
0.0
146
0.0
 13
0.0
 23
0.0
 33
0.0
 16
0.0
 26
0.0
 36
0.0
 17
0.0
 27
0.0
 37
0.0
 76
     0
330
A
331
0
345
0
346
0
  0
LAYOUT
  5
21
102
{ACAD_REACTORS
330
1E
102
}
100
AcDbPlotSettings
  1

  2

  4

  6

 40
0.0
 41
0.0
 42
0.0
 43
0.0
 44
0.0
 45
0.0
 46
0.0
 47
0.0
 48
0.0
 49
0.0
140
0.0
141
0.0
142
1.0
143
1.0
 70
     0
 72
     0
 73
     0
 74
     0
  7

 75
     0
147
1.0
148
0.0
149
0.0
100
AcDbLayout
  1
Layout1
 70
     0
 71
     0
 10
0.0
 20
0.0
 11
0.0
 21
0.0
 12
0.0
 22
0.0
 32
0.0
 14
0.0
 24
0.0
 34
0.0
 15
0.0
 25
0.0
 35
0.0
146
0.0
 13
0.0
 23
0.0
 33
0.0
 16
0.0
 26
0.0
 36
0.0
 17
0.0
 27
0.0
 37
0.0
 76
     0
330
B
331
0
345
0
346
0
  0
DICTIONARY
  5
1E
102
{ACAD_REACTORS
330
19
102
}
100
AcDbDictionary
280
     0
281
     1
  3
Layout1
350
21
  3
Model
350
20
  0
DICTIONARY
  5
22
102
{ACAD_REACTORS
330
19
102
}
100
AcDbDictionary
280
     0
281
     1
  0
WIPEOUTVARIABLES
  5
23
100
AcDbWipeoutVariables
 70
     1
  0
ENDSEC
  0
EOF
