  0
SECTION
  2
HEADER
  9
$ACADVER
  1
AC1015
  9
$ACADMAINTVER
 70
     6
  9
$DWGCODEPAGE
  3
DOS850
  9
$INSBASE
 10
0.0
 20
0.0
 30
0.0
  9
$EXTMIN
 10
-7.03624
 20
-13.8223
 30
1.000000E 20
  9
$EXTMAX
 10
7.17183
 20
13.82994
 30
-1.000000E 20
  9
$LIMMIN
 10
0.0
 20
0.0
  9
$LIMMAX
 10
0.0
 20
0.0
  9
$ORTHOMODE
 70
     0
  9
$REGENMODE
 70
     1
  9
$FILLMODE
 70
     1
  9
$QTEXTMODE
 70
     0
  9
$MIRRTEXT
 70
     1
  9
$LTSCALE
 40
1.0
  9
$ATTMODE
 70
     1
  9
$TEXTSIZE
 40
0.2
  9
$TRACEWID
 40
0.05
  9
$TEXTSTYLE
  7
Standard
  9
$CLAYER
  8
0
  9
$CELTYPE
  6
Continuous
  9
$CECOLOR
 62
   256
  9
$CELTSCALE
 40
1.0
  9
$DISPSILH
 70
     0
  9
$DIMSCALE
 40
1.0
  9
$DIMASZ
 40
0.18
  9
$DIMEXO
 40
0.0625
  9
$DIMDLI
 40
0.38
  9
$DIMRND
 40
0.0
  9
$DIMDLE
 40
0.0
  9
$DIMEXE
 40
0.18
  9
$DIMTP
 40
0.0
  9
$DIMTM
 40
0.0
  9
$DIMTXT
 40
0.18
  9
$DIMCEN
 40
0.09
  9
$DIMTSZ
 40
0.0
  9
$DIMTOL
 70
     0
  9
$DIMLIM
 70
     0
  9
$DIMTIH
 70
     1
  9
$DIMTOH
 70
     1
  9
$DIMSE1
 70
     0
  9
$DIMSE2
 70
     0
  9
$DIMTAD
 70
     0
  9
$DIMZIN
 70
     0
  9
$DIMBLK
  1

  9
$DIMASO
 70
     1
  9
$DIMSHO
 70
     1
  9
$DIMPOST
  1

  9
$DIMAPOST
  1

  9
$DIMALT
 70
     0
  9
$DIMALTD
 70
     2
  9
$DIMALTF
 40
25.4
  9
$DIMLFAC
 40
1.0
  9
$DIMTOFL
 70
     0
  9
$DIMTVP
 40
0.0
  9
$DIMTIX
 70
     0
  9
$DIMSOXD
 70
     0
  9
$DIMSAH
 70
     0
  9
$DIMBLK1
  1

  9
$DIMBLK2
  1

  9
$DIMSTYLE
  2
Standard
  9
$DIMCLRD
 70
     0
  9
$DIMCLRE
 70
     0
  9
$DIMCLRT
 70
     0
  9
$DIMTFAC
 40
1.0
  9
$DIMGAP
 40
0.09
  9
$DIMJUST
 70
     0
  9
$DIMSD1
 70
     0
  9
$DIMSD2
 70
     0
  9
$DIMTOLJ
 70
     1
  9
$DIMTZIN
 70
     0
  9
$DIMALTZ
 70
     0
  9
$DIMALTTZ
 70
     0
  9
$DIMUPT
 70
     0
  9
$DIMDEC
 70
     4
  9
$DIMTDEC
 70
     4
  9
$DIMALTU
 70
     2
  9
$DIMALTTD
 70
     2
  9
$DIMTXSTY
  7
Standard
  9
$DIMAUNIT
 70
     0
  9
$DIMADEC
 70
     0
  9
$DIMALTRND
 40
0.0
  9
$DIMAZIN
 70
     0
  9
$DIMDSEP
 70
     0
  9
$DIMATFIT
 70
     3
  9
$DIMFRAC
 70
     0
  9
$DIMLDRBLK
  1

  9
$DIMLUNIT
 70
     2
  9
$DIMLWD
 70
     0
  9
$DIMLWE
 70
     0
  9
$DIMTMOVE
 70
     0
  9
$LUNITS
 70
     2
  9
$LUPREC
 70
     4
  9
$SKETCHINC
 40
0.1
  9
$FILLETRAD
 40
0.0
  9
$AUNITS
 70
     0
  9
$AUPREC
 70
     0
  9
$MENU
  1
acad
  9
$ELEVATION
 40
0.0
  9
$PELEVATION
 40
0.0
  9
$THICKNESS
 40
0.0
  9
$LIMCHECK
 70
     0
  9
$CHAMFERA
 40
0.0
  9
$CHAMFERB
 40
0.0
  9
$CHAMFERC
 40
0.0
  9
$CHAMFERD
 40
0.0
  9
$SKPOLY
 70
     0
  9
$TDCREATE
 40
0.000000000
  9
$TDUCREATE
 40
0.000000000
  9
$TDUPDATE
 40
0.000000000
  9
$TDUUPDATE
 40
0.000000000
  9
$TDINDWG
 40
0.0000000000
  9
$TDUSRTIMER
 40
0.0000000000
  9
$USRTIMER
 70
     1
  9
$ANGBASE
 50
0.0
  9
$ANGDIR
 70
     0
  9
$PDMODE
 70
     0
  9
$PDSIZE
 40
0.0
  9
$PLINEWID
 40
0.0
  9
$SPLFRAME
 70
     0
  9
$SPLINETYPE
 70
     6
  9
$SPLINESEGS
 70
     8
  9
$HANDSEED
  5
B9
  9
$SURFTAB1
 70
     6
  9
$SURFTAB2
 70
     6
  9
$SURFTYPE
 70
     6
  9
$SURFU
 70
     6
  9
$SURFV
 70
     6
  9
$UCSBASE
  2

  9
$UCSNAME
  2

  9
$UCSORG
 10
0.0
 20
0.0
 30
0.0
  9
$UCSXDIR
 10
1.0
 20
0.0
 30
0.0
  9
$UCSYDIR
 10
0.0
 20
1.0
 30
0.0
  9
$UCSORTHOREF
  2

  9
$UCSORTHOVIEW
 70
     0
  9
$UCSORGTOP
 10
0.0
 20
0.0
 30
0.0
  9
$UCSORGBOTTOM
 10
0.0
 20
0.0
 30
0.0
  9
$UCSORGLEFT
 10
0.0
 20
0.0
 30
0.0
  9
$UCSORGRIGHT
 10
0.0
 20
0.0
 30
0.0
  9
$UCSORGFRONT
 10
0.0
 20
0.0
 30
0.0
  9
$UCSORGBACK
 10
0.0
 20
0.0
 30
0.0
  9
$PUCSBASE
  2

  9
$PUCSNAME
  2

  9
$PUCSORG
 10
0.0
 20
0.0
 30
0.0
  9
$PUCSXDIR
 10
1.0
 20
0.0
 30
0.0
  9
$PUCSYDIR
 10
0.0
 20
1.0
 30
0.0
  9
$PUCSORTHOREF
  2

  9
$PUCSORTHOVIEW
 70
     0
  9
$PUCSORGTOP
 10
0.0
 20
0.0
 30
0.0
  9
$PUCSORGBOTTOM
 10
0.0
 20
0.0
 30
0.0
  9
$PUCSORGLEFT
 10
0.0
 20
0.0
 30
0.0
  9
$PUCSORGRIGHT
 10
0.0
 20
0.0
 30
0.0
  9
$PUCSORGFRONT
 10
0.0
 20
0.0
 30
0.0
  9
$PUCSORGBACK
 10
0.0
 20
0.0
 30
0.0
  9
$USERI1
 70
     0
  9
$USERI2
 70
     0
  9
$USERI3
 70
     0
  9
$USERI4
 70
     0
  9
$USERI5
 70
     0
  9
$USERR1
 40
0.0
  9
$USERR2
 40
0.0
  9
$USERR3
 40
0.0
  9
$USERR4
 40
0.0
  9
$USERR5
 40
0.0
  9
$WORLDVIEW
 70
     1
  9
$SHADEDGE
 70
     3
  9
$SHADEDIF
 70
    70
  9
$TILEMODE
 70
     1
  9
$MAXACTVP
 70
    16
  9
$PINSBASE
 10
0.0
 20
0.0
 30
0.0
  9
$PLIMCHECK
 70
     0
  9
$PEXTMIN
 10
1.000000E 20
 20
1.000000E 20
 30
1.000000E 20
  9
$PEXTMAX
 10
-1.000000E 20
 20
-1.000000E 20
 30
-1.000000E 20
  9
$PLIMMIN
 10
0.0
 20
0.0
  9
$PLIMMAX
 10
12.0
 20
9.0
  9
$UNITMODE
 70
     0
  9
$VISRETAIN
 70
     0
  9
$PLINEGEN
 70
     1
  9
$PSLTSCALE
 70
     0
  9
$TREEDEPTH
 70
  3020
  9
$CMLSTYLE
  2
Standard
  9
$CMLJUST
 70
     0
  9
$CMLSCALE
 40
1.0
  9
$PROXYGRAPHICS
 70
     0
  9
$MEASUREMENT
 70
     0
  9
$CELWEIGHT
370
     0
  9
$ENDCAPS
280
     0
  9
$JOINSTYLE
280
     0
  9
$LWDISPLAY
290
     0
  9
$INSUNITS
 70
     5
  9
$HYPERLINKBASE
  1

  9
$XEDIT
290
     1
  9
$CEPSNTYPE
380
     0
  9
$PSTYLEMODE
290
     1
  9
$FINGERPRINTGUID
  2

  9
$VERSIONGUID
  2

  9
$EXTNAMES
290
     1
  9
$PSVPSCALE
 40
0.0
  0
ENDSEC
  0
SECTION
  2
CLASSES
  0
CLASS
  1
LWPOLYLINE
  2
AcDbPolyline
  3
AutoCAD 2000
 90
    32768
280
     0
281
     1
  0
CLASS
  1
IMAGE
  2
AcDbRasterImage
  3
ISM
 90
    32895
280
     0
281
     1
  0
CLASS
  1
OLE2FRAME
  2
AcDbOle2Frame
  3
AutoCAD 2000
 90
    32768
280
     0
281
     1
  0
CLASS
  1
HATCH
  2
AcDbHatch
  3
AutoCAD 2000
 90
    32768
280
     0
281
     1
  0
CLASS
  1
DICTIONARYVAR
  2
AcDbDictionaryVar
  3
AutoCAD 2000
 90
    32768
280
     0
281
     0
  0
CLASS
  1
RASTERVARIABLES
  2
AcDbRasterVariables
  3
ISM
 90
    32768
280
     0
281
     0
  0
CLASS
  1
IMAGEDEF
  2
AcDbRasterImageDef
  3
ISM
 90
    32768
280
     0
281
     0
  0
CLASS
  1
IMAGEDEF_REACTOR
  2
AcDbRasterImageDefReactor
  3
ISM
 90
    32769
280
     0
281
     0
  0
CLASS
  1
IDBUFFER
  2
AcDbIdBuffer
  3
AutoCAD 2000
 90
    32768
280
     0
281
     0
  0
CLASS
  1
SPATIAL_FILTER
  2
AcDbSpatialFilter
  3
AutoCAD 2000
 90
    32768
280
     0
281
     0
  0
CLASS
  1
XRECORD
  2
AcDbXrecord
  3
AutoCAD 2000
 90
    32768
280
     0
281
     0
  0
CLASS
  1
SORTENTSTABLE
  2
AcDbSortentsTable
  3
AutoCAD 2000
 90
    32768
280
     0
281
     0
  0
CLASS
  1
LAYER_INDEX
  2
AcDbLayerIndex
  3
AutoCAD 2000
 90
    32768
280
     0
281
     0
  0
CLASS
  1
SPATIAL_INDEX
  2
AcDbSpatialIndex
  3
AutoCAD 2000
 90
    32768
280
     0
281
     0
  0
CLASS
  1
OBJECT_PTR
  2
CAseDLPNTableRecord
  3
\"ASE-LPNTableRecord\"
 90
    32769
280
     0
281
     0
  0
CLASS
  1
LAYOUT
  2
AcDbLayout
  3
AutoCAD 2000
 90
        0
280
     0
281
     0
  0
CLASS
  1
PLOTSETTINGS
  2
AcDbPlotSettings
  3
AutoCAD 2000
 90
    32768
280
     0
281
     0
  0
CLASS
  1
ACDBDICTIONARYWDFLT
  2
AcDbDictionaryWithDefault
  3
AutoCAD 2000
 90
        0
280
     0
281
     0
  0
CLASS
  1
ACDBPLACEHOLDER
  2
AcDbPlaceHolder
  3
AutoCAD 2000
 90
        0
280
     0
281
     0
  0
CLASS
  1
VBA_PROJECT
  2
AcDbVbaProject
  3
acadvba
 90
    32768
280
     0
281
     0
  0
CLASS
  1
WIPEOUT
  2
AcDbWipeout
  3
WipeOut|AutoCAD Express Tool|expresstools@autodesk.com
 90
    32895
280
     0
281
     1
  0
CLASS
  1
WIPEOUTVARIABLES
  2
AcDbWipeoutVariables
  3
WipeOut|AutoCAD Express Tool|expresstools@autodesk.com
 90
        0
280
     0
281
     0
  0
CLASS
  1
RTEXT
  2
RText
  3
RText|AutoCAD Express Tool|expresstools@autodesk.com
 90
    32768
280
     0
281
     1
  0
CLASS
  1
ARCALIGNEDTEXT
  2
AcDbArcAlignedText
  3
ATEXT|AutoCAD Express Tool|expresstools@autodesk.com
 90
    32768
280
     0
281
     1
  0
ENDSEC
  0
SECTION
  2
TABLES
  0
TABLE
  2
VPORT
  5
7
100
AcDbSymbolTable
 70
     1
  0
VPORT
  5
15
100
AcDbSymbolTableRecord
100
AcDbViewportTableRecord
  2
*ACTIVE
 70
     0
 10
0.0
 20
0.0
 11
1.0
 21
1.0
 12
6.591288
 22
4.579184
 13
0.0
 23
0.0
 14
1.0
 24
1.0
 15
0.0
 25
0.0
 16
0.0
 26
0.0
 36
1.0
 17
0.0
 27
0.0
 37
0.0
 40
9.158369
 41
0.688564
 42
50.0
 43
0.0
 44
0.0
 50
0.0
 51
0.0
 71
     0
 72
   100
 73
     1
 74
     1
 75
     0
 76
     0
 77
     0
 78
     0
281
     0
 65
     0
110
0.0
120
0.0
130
0.0
111
1.0
121
0.0
131
0.0
112
0.0
122
1.0
132
0.0
345
0
346
0
 79
     0
146
0.0
  0
ENDTAB
  0
TABLE
  2
LTYPE
  5
4
100
AcDbSymbolTable
 70
     3
  0
LTYPE
  5
11
100
AcDbSymbolTableRecord
100
AcDbLinetypeTableRecord
  2
ByBlock
 70
    64
  3

 72
    65
 73
     0
 40
0.0
  0
LTYPE
  5
12
100
AcDbSymbolTableRecord
100
AcDbLinetypeTableRecord
  2
ByLayer
 70
    64
  3

 72
    65
 73
     0
 40
0.0
  0
LTYPE
  5
13
100
AcDbSymbolTableRecord
100
AcDbLinetypeTableRecord
  2
Continuous
 70
    64
  3
Solid line
 72
    65
 73
     0
 40
0.0
  0
ENDTAB
  0
TABLE
  2
LAYER
  5
2
100
AcDbSymbolTable
 70
     2
  0
LAYER
  5
14
100
AcDbSymbolTableRecord
100
AcDbLayerTableRecord
  2
0
 70
     0
 62
     7
  6
Continuous
290
     1
370
    -3
390
1D
  0
LAYER
  5
24
100
AcDbSymbolTableRecord
100
AcDbLayerTableRecord
  2
Ebene 1
 70
     0
 62
     7
  6
Continuous
290
     1
370
    -3
390
1F
  0
ENDTAB
  0
TABLE
  2
STYLE
  5
3
100
AcDbSymbolTable
 70
     1
  0
STYLE
  5
17
100
AcDbSymbolTableRecord
100
AcDbTextStyleTableRecord
  2
Standard
 70
     0
 40
0.0
 41
1.0
 50
0.0
 71
     0
 42
0.0
  3
txt
  4

  0
ENDTAB
  0
TABLE
  2
VIEW
  5
5
100
AcDbSymbolTable
 70
     0
  0
ENDTAB
  0
TABLE
  2
UCS
  5
6
100
AcDbSymbolTable
 70
     0
  0
ENDTAB
  0
TABLE
  2
APPID
  5
8
100
AcDbSymbolTable
 70
     1
  0
APPID
  5
16
100
AcDbSymbolTableRecord
100
AcDbRegAppTableRecord
  2
ACAD
 70
     0
  0
ENDTAB
  0
TABLE
  2
DIMSTYLE
  5
9
100
AcDbSymbolTable
 70
     1
100
AcDbDimStyleTable
 71
     0
  0
DIMSTYLE
105
18
100
AcDbSymbolTableRecord
100
AcDbDimStyleTableRecord
  2
Standard
 70
     0
  3

  4

 40
1.0
 41
0.18
 42
0.0625
 43
0.38
 44
0.18
 45
0.0
 46
0.0
 47
0.0
 48
0.0
 71
     0
 72
     0
 73
     1
 74
     1
 75
     0
 76
     0
 77
     0
 78
     0
 79
     0
140
0.18
141
0.09
142
0.0
143
25.4
144
1.0
145
0.0
146
1.0
147
0.09
148
0.0
170
     0
171
     2
172
     0
173
     0
174
     0
175
     0
176
     0
177
     0
178
     0
179
     0
271
     4
272
     4
273
     2
274
     2
275
     0
276
     0
277
     2
278
    46
279
     0
280
     0
281
     0
282
     0
283
     1
284
     0
285
     0
286
     0
288
     0
340
17
341
0
342
0
343
0
344
0
371
    -2
372
    -2
  0
ENDTAB
  0
TABLE
  2
BLOCK_RECORD
  5
1
100
AcDbSymbolTable
 70
     0
  0
BLOCK_RECORD
  5
A
100
AcDbSymbolTableRecord
100
AcDbBlockTableRecord
  2
*MODEL_SPACE
340
20
  0
BLOCK_RECORD
  5
B
100
AcDbSymbolTableRecord
100
AcDbBlockTableRecord
  2
*PAPER_SPACE
340
21
  0
ENDTAB
  0
ENDSEC
  0
SECTION
  2
BLOCKS
  0
BLOCK
  5
D
100
AcDbEntity
  8
0
100
AcDbBlockBegin
  2
*MODEL_SPACE
 70
     0
 10
0.0
 20
0.0
 30
0.0
  3
*MODEL_SPACE
  1

  0
ENDBLK
  5
E
100
AcDbEntity
  8
0
100
AcDbBlockEnd
  0
BLOCK
  5
F
100
AcDbEntity
 67
     1
  8
0
100
AcDbBlockBegin
  2
*PAPER_SPACE
 70
     0
 10
0.0
 20
0.0
 30
0.0
  3
*PAPER_SPACE
  1

  0
ENDBLK
  5
10
100
AcDbEntity
 67
     1
  8
0
100
AcDbBlockEnd
  0
ENDSEC
  0
SECTION
  2
ENTITIES
  0
SPLINE
  5
25
100
AcDbEntity
  8
Ebene 1
100
AcDbSpline
210
0.0
220
0.0
230
1.0
 70
     1
 71
     3
 72
   228
 73
   224
 74
     0
 42
0.0000000001
 43
0.0000000001
 40
0.0
 40
0.0
 40
0.0
 40
0.0
 40
0.0178571428571429
 40
0.0178571428571429
 40
0.0178571428571429
 40
0.0178571428571429
 40
0.0357142857142857
 40
0.0357142857142857
 40
0.0357142857142857
 40
0.0357142857142857
 40
0.0535714285714286
 40
0.0535714285714286
 40
0.0535714285714286
 40
0.0535714285714286
 40
0.0714285714285714
 40
0.0714285714285714
 40
0.0714285714285714
 40
0.0714285714285714
 40
0.0892857142857143
 40
0.0892857142857143
 40
0.0892857142857143
 40
0.0892857142857143
 40
0.1071428571428571
 40
0.1071428571428571
 40
0.1071428571428571
 40
0.1071428571428571
 40
0.125
 40
0.125
 40
0.125
 40
0.125
 40
0.1428571428571428
 40
0.1428571428571428
 40
0.1428571428571428
 40
0.1428571428571428
 40
0.1607142857142857
 40
0.1607142857142857
 40
0.1607142857142857
 40
0.1607142857142857
 40
0.1785714285714285
 40
0.1785714285714285
 40
0.1785714285714285
 40
0.1785714285714285
 40
0.1964285714285714
 40
0.1964285714285714
 40
0.1964285714285714
 40
0.1964285714285714
 40
0.2142857142857142
 40
0.2142857142857142
 40
0.2142857142857142
 40
0.2142857142857142
 40
0.2321428571428571
 40
0.2321428571428571
 40
0.2321428571428571
 40
0.2321428571428571
 40
0.2499999999999999
 40
0.2499999999999999
 40
0.2499999999999999
 40
0.2499999999999999
 40
0.2678571428571428
 40
0.2678571428571428
 40
0.2678571428571428
 40
0.2678571428571428
 40
0.2857142857142856
 40
0.2857142857142856
 40
0.2857142857142856
 40
0.2857142857142856
 40
0.3035714285714285
 40
0.3035714285714285
 40
0.3035714285714285
 40
0.3035714285714285
 40
0.3214285714285713
 40
0.3214285714285713
 40
0.3214285714285713
 40
0.3214285714285713
 40
0.3392857142857142
 40
0.3392857142857142
 40
0.3392857142857142
 40
0.3392857142857142
 40
0.357142857142857
 40
0.357142857142857
 40
0.357142857142857
 40
0.357142857142857
 40
0.3749999999999999
 40
0.3749999999999999
 40
0.3749999999999999
 40
0.3749999999999999
 40
0.3928571428571427
 40
0.3928571428571427
 40
0.3928571428571427
 40
0.3928571428571427
 40
0.4107142857142856
 40
0.4107142857142856
 40
0.4107142857142856
 40
0.4107142857142856
 40
0.4285714285714284
 40
0.4285714285714284
 40
0.4285714285714284
 40
0.4285714285714284
 40
0.4464285714285713
 40
0.4464285714285713
 40
0.4464285714285713
 40
0.4464285714285713
 40
0.4642857142857141
 40
0.4642857142857141
 40
0.4642857142857141
 40
0.4642857142857141
 40
0.482142857142857
 40
0.482142857142857
 40
0.482142857142857
 40
0.482142857142857
 40
0.4999999999999998
 40
0.4999999999999998
 40
0.4999999999999998
 40
0.4999999999999998
 40
0.5178571428571427
 40
0.5178571428571427
 40
0.5178571428571427
 40
0.5178571428571427
 40
0.5357142857142856
 40
0.5357142857142856
 40
0.5357142857142856
 40
0.5357142857142856
 40
0.5535714285714285
 40
0.5535714285714285
 40
0.5535714285714285
 40
0.5535714285714285
 40
0.5714285714285714
 40
0.5714285714285714
 40
0.5714285714285714
 40
0.5714285714285714
 40
0.5892857142857143
 40
0.5892857142857143
 40
0.5892857142857143
 40
0.5892857142857143
 40
0.6071428571428572
 40
0.6071428571428572
 40
0.6071428571428572
 40
0.6071428571428572
 40
0.6250000000000001
 40
0.6250000000000001
 40
0.6250000000000001
 40
0.6250000000000001
 40
0.642857142857143
 40
0.642857142857143
 40
0.642857142857143
 40
0.642857142857143
 40
0.6607142857142859
 40
0.6607142857142859
 40
0.6607142857142859
 40
0.6607142857142859
 40
0.6785714285714288
 40
0.6785714285714288
 40
0.6785714285714288
 40
0.6785714285714288
 40
0.6964285714285717
 40
0.6964285714285717
 40
0.6964285714285717
 40
0.6964285714285717
 40
0.7142857142857146
 40
0.7142857142857146
 40
0.7142857142857146
 40
0.7142857142857146
 40
0.7321428571428575
 40
0.7321428571428575
 40
0.7321428571428575
 40
0.7321428571428575
 40
0.7500000000000004
 40
0.7500000000000004
 40
0.7500000000000004
 40
0.7500000000000004
 40
0.7678571428571434
 40
0.7678571428571434
 40
0.7678571428571434
 40
0.7678571428571434
 40
0.7857142857142863
 40
0.7857142857142863
 40
0.7857142857142863
 40
0.7857142857142863
 40
0.8035714285714292
 40
0.8035714285714292
 40
0.8035714285714292
 40
0.8035714285714292
 40
0.8214285714285721
 40
0.8214285714285721
 40
0.8214285714285721
 40
0.8214285714285721
 40
0.839285714285715
 40
0.839285714285715
 40
0.839285714285715
 40
0.839285714285715
 40
0.8571428571428579
 40
0.8571428571428579
 40
0.8571428571428579
 40
0.8571428571428579
 40
0.8750000000000008
 40
0.8750000000000008
 40
0.8750000000000008
 40
0.8750000000000008
 40
0.8928571428571437
 40
0.8928571428571437
 40
0.8928571428571437
 40
0.8928571428571437
 40
0.9107142857142866
 40
0.9107142857142866
 40
0.9107142857142866
 40
0.9107142857142866
 40
0.9285714285714295
 40
0.9285714285714295
 40
0.9285714285714295
 40
0.9285714285714295
 40
0.9464285714285724
 40
0.9464285714285724
 40
0.9464285714285724
 40
0.9464285714285724
 40
0.9642857142857153
 40
0.9642857142857153
 40
0.9642857142857153
 40
0.9642857142857153
 40
0.9821428571428582
 40
0.9821428571428582
 40
0.9821428571428582
 40
0.9821428571428582
 40
1.0
 40
1.0
 40
1.0
 40
1.0
 10
-0.3653400000000001
 20
13.814830000000001
 30
0.0
 10
0.32903
 20
13.659740000000001
 30
0.0
 10
1.8094400000000002
 20
13.240290000000002
 30
0.0
 10
1.57681
 20
12.426060000000001
 30
0.0
 10
1.57681
 20
12.426060000000001
 30
0.0
 10
1.48516
 20
12.249820000000001
 30
0.0
 10
1.2349000000000001
 20
12.249820000000001
 30
0.0
 10
1.0692300000000001
 20
12.292120000000001
 30
0.0
 10
1.0692300000000001
 20
12.292120000000001
 30
0.0
 10
0.7661000000000001
 20
13.617440000000002
 30
0.0
 10
-1.5778700000000001
 20
13.240290000000002
 30
0.0
 10
-1.9973200000000002
 20
11.985460000000002
 30
0.0
 10
-1.9973200000000002
 20
11.985460000000002
 30
0.0
 10
-1.3663800000000001
 20
11.104260000000002
 30
0.0
 10
-0.22435
 20
10.684810000000001
 30
0.0
 10
0.5546100000000001
 20
9.9340300000000017
 30
0.0
 10
0.5546100000000001
 20
9.9340300000000017
 30
0.0
 10
1.0304600000000002
 20
10.22306
 30
0.0
 10
1.5909000000000002
 20
10.089120000000001
 30
0.0
 10
2.0949500000000003
 20
9.9798500000000008
 30
0.0
 10
2.0949500000000003
 20
9.9798500000000008
 30
0.0
 10
3.1100900000000005
 20
11.146560000000001
 30
0.0
 10
4.2521200000000006
 20
12.27097
 30
0.0
 10
5.6021200000000002
 20
12.91248
 30
0.0
 10
5.6021200000000002
 20
12.91248
 30
0.0
 10
7.8685600000000004
 20
10.75178
 30
0.0
 10
4.9218400000000004
 20
7.2446100000000007
 30
0.0
 10
6.7300600000000008
 20
5.0169400000000008
 30
0.0
 10
6.7300600000000008
 20
5.0169400000000008
 30
0.0
 10
6.7617800000000008
 20
4.3331300000000006
 30
0.0
 10
6.0251000000000001
 20
4.4459200000000001
 30
0.0
 10
5.9651800000000001
 20
4.0687700000000007
 30
0.0
 10
5.9651800000000001
 20
4.0687700000000007
 30
0.0
 10
6.4833200000000009
 20
3.7162900000000003
 30
0.0
 10
6.8358000000000008
 20
3.14175
 30
0.0
 10
7.0578600000000007
 20
2.5707300000000002
 30
0.0
 10
7.0578600000000007
 20
2.5707300000000002
 30
0.0
 10
7.1777000000000006
 20
2.0173400000000004
 30
0.0
 10
7.1741800000000007
 20
1.4005000000000001
 30
0.0
 10
7.1706600000000007
 20
0.8294800000000001
 30
0.0
 10
7.1706600000000007
 20
0.8294800000000001
 30
0.0
 10
6.7899800000000008
 20
-0.7778100000000001
 30
0.0
 10
5.7713100000000006
 20
-2.1454300000000002
 30
0.0
 10
5.1403700000000008
 20
-3.6011700000000002
 30
0.0
 10
5.1403700000000008
 20
-3.6011700000000002
 30
0.0
 10
5.7995100000000006
 20
-4.8137000000000008
 30
0.0
 10
4.65395
 20
-5.8253200000000005
 30
0.0
 10
4.8830600000000004
 20
-7.0836700000000006
 30
0.0
 10
4.8830600000000004
 20
-7.0836700000000006
 30
0.0
 10
5.2954600000000003
 20
-7.3057300000000005
 30
0.0
 10
5.8171300000000006
 20
-7.3480300000000005
 30
0.0
 10
6.2013400000000001
 20
-7.196460000000001
 30
0.0
 10
6.2013400000000001
 20
-7.196460000000001
 30
0.0
 10
5.6479400000000002
 20
-7.7251800000000008
 30
0.0
 10
5.2566900000000008
 20
-7.7674800000000008
 30
0.0
 10
6.0638700000000005
 20
-8.2292300000000012
 30
0.0
 10
6.0638700000000005
 20
-8.2292300000000012
 30
0.0
 10
4.85839
 20
-8.4301400000000015
 30
0.0
 10
5.6444200000000002
 20
-8.9377100000000009
 30
0.0
 10
6.3987300000000005
 20
-9.06813
 30
0.0
 10
6.3987300000000005
 20
-9.06813
 30
0.0
 10
6.2013400000000001
 20
-9.3677400000000013
 30
0.0
 10
5.8841100000000006
 20
-9.3078099999999999
 30
0.0
 10
5.7360600000000002
 20
-9.4135600000000004
 30
0.0
 10
5.7360600000000002
 20
-9.4135600000000004
 30
0.0
 10
4.8337200000000005
 20
-10.065650000000002
 30
0.0
 10
6.8322700000000003
 20
-11.658850000000001
 30
0.0
 10
5.4117800000000003
 20
-12.39906
 30
0.0
 10
5.4117800000000003
 20
-12.39906
 30
0.0
 10
5.6972900000000006
 20
-12.83966
 30
0.0
 10
5.3906300000000007
 20
-13.368380000000002
 30
0.0
 10
4.91479
 20
-13.456500000000002
 30
0.0
 10
4.91479
 20
-13.456500000000002
 30
0.0
 10
4.0265400000000007
 20
-13.287310000000002
 30
0.0
 10
1.7424700000000002
 20
-14.200230000000001
 30
0.0
 10
1.1503100000000002
 20
-13.636260000000002
 30
0.0
 10
1.1503100000000002
 20
-13.636260000000002
 30
0.0
 10
0.9705400000000001
 20
-13.463550000000001
 30
0.0
 10
1.0657100000000002
 20
-13.04762
 30
0.0
 10
1.2560500000000001
 20
-12.554150000000002
 30
0.0
 10
1.2560500000000001
 20
-12.554150000000002
 30
0.0
 10
-0.17853
 20
-12.906630000000002
 30
0.0
 10
0.6462600000000001
 20
-11.073740000000001
 30
0.0
 10
1.47811
 20
-10.855200000000002
 30
0.0
 10
1.47811
 20
-10.855200000000002
 30
0.0
 10
1.6120500000000002
 20
-10.633140000000001
 30
0.0
 10
1.3335900000000001
 20
-10.456900000000001
 30
0.0
 10
1.3230200000000001
 20
-10.192540000000001
 30
0.0
 10
1.3230200000000001
 20
-10.192540000000001
 30
0.0
 10
0.36075
 20
-10.943320000000002
 30
0.0
 10
0.8965200000000001
 20
-10.368780000000001
 30
0.0
 10
-0.09393
 20
-10.435750000000001
 30
0.0
 10
-0.09393
 20
-10.435750000000001
 30
0.0
 10
-0.35477
 20
-10.855200000000002
 30
0.0
 10
-0.6473300000000001
 20
-11.295800000000002
 30
0.0
 10
-1.028
 20
-11.627130000000001
 30
0.0
 10
-1.028
 20
-11.627130000000001
 30
0.0
 10
-1.1020300000000001
 20
-11.362770000000001
 30
0.0
 10
-0.80242
 20
-10.855200000000002
 30
0.0
 10
-1.0526800000000001
 20
-10.545020000000001
 30
0.0
 10
-1.0526800000000001
 20
-10.545020000000001
 30
0.0
 10
-1.0526800000000001
 20
-10.545020000000001
 30
0.0
 10
-1.6906700000000001
 20
-11.426220000000001
 30
0.0
 10
-1.6906700000000001
 20
-11.426220000000001
 30
0.0
 10
-1.6906700000000001
 20
-11.426220000000001
 30
0.0
 10
-1.7682100000000001
 20
-11.207680000000002
 30
0.0
 10
-1.5673000000000001
 20
-10.943320000000002
 30
0.0
 10
-1.6730400000000001
 20
-10.70011
 30
0.0
 10
-1.6730400000000001
 20
-10.70011
 30
0.0
 10
-2.8327000000000004
 20
-11.165380000000001
 30
0.0
 10
-4.2179400000000005
 20
-12.113550000000002
 30
0.0
 10
-5.3881800000000002
 20
-11.22883
 30
0.0
 10
-5.3881800000000002
 20
-11.22883
 30
0.0
 10
-6.9602300000000001
 20
-8.9130400000000005
 30
0.0
 10
-5.2789100000000007
 20
-6.0932000000000004
 30
0.0
 10
-3.7667700000000002
 20
-4.2180100000000005
 30
0.0
 10
-3.7667700000000002
 20
-4.2180100000000005
 30
0.0
 10
-3.8407900000000001
 20
-4.0629200000000001
 30
0.0
 10
-3.8830900000000002
 20
-3.9078300000000001
 30
0.0
 10
-3.8548900000000001
 20
-3.7315900000000002
 30
0.0
 10
-3.8548900000000001
 20
-3.7315900000000002
 30
0.0
 10
-4.1545000000000005
 20
-3.9994700000000005
 30
0.0
 10
-4.36599
 20
-4.6797600000000008
 30
0.0
 10
-4.8876600000000003
 20
-4.8560000000000008
 30
0.0
 10
-4.8876600000000003
 20
-4.8560000000000008
 30
0.0
 10
-5.5996600000000001
 20
-4.8348500000000003
 30
0.0
 10
-6.8298200000000007
 20
-4.9687900000000003
 30
0.0
 10
-6.9813800000000006
 20
-4.0417700000000005
 30
0.0
 10
-6.9813800000000006
 20
-4.0417700000000005
 30
0.0
 10
-6.6853000000000007
 20
-2.8080900000000004
 30
0.0
 10
-6.1565800000000008
 20
-1.6378600000000001
 30
0.0
 10
-5.0674200000000003
 20
-0.8447800000000001
 30
0.0
 10
-5.0674200000000003
 20
-0.8447800000000001
 30
0.0
 10
-5.1907900000000007
 20
-0.66854
 30
0.0
 10
-5.6278600000000001
 20
-1.02102
 30
0.0
 10
-5.7406600000000001
 20
-0.73199
 30
0.0
 10
-5.7406600000000001
 20
-0.73199
 30
0.0
 10
-5.5503200000000001
 20
-0.42533
 30
0.0
 10
-5.1343900000000007
 20
-0.29139
 30
0.0
 10
-4.9581500000000007
 20
0.01173
 30
0.0
 10
-4.9581500000000007
 20
0.01173
 30
0.0
 10
-5.2824300000000006
 20
0.65324
 30
0.0
 10
-5.3494000000000002
 20
1.6437100000000002
 30
0.0
 10
-4.4682000000000004
 20
2.0631600000000003
 30
0.0
 10
-4.4682000000000004
 20
2.0631600000000003
 30
0.0
 10
-5.2225100000000007
 20
2.7469700000000001
 30
0.0
 10
-4.38361
 20
4.6644600000000001
 30
0.0
 10
-5.4551500000000006
 20
5.0416100000000004
 30
0.0
 10
-5.4551500000000006
 20
5.0416100000000004
 30
0.0
 10
-5.5820400000000001
 20
5.2813000000000008
 30
0.0
 10
-5.5256400000000001
 20
5.5914800000000007
 30
0.0
 10
-5.7089300000000005
 20
5.8100200000000006
 30
0.0
 10
-5.7089300000000005
 20
5.8100200000000006
 30
0.0
 10
-6.0155900000000004
 20
5.8346900000000002
 30
0.0
 10
-6.4808600000000007
 20
5.5914800000000007
 30
0.0
 10
-6.6712000000000007
 20
5.9862600000000006
 30
0.0
 10
-6.6712000000000007
 20
5.9862600000000006
 30
0.0
 10
-6.7734200000000007
 20
6.8709800000000003
 30
0.0
 10
-7.337390000000001
 20
7.8403000000000009
 30
0.0
 10
-6.8227700000000002
 20
8.7673200000000016
 30
0.0
 10
-6.8227700000000002
 20
8.7673200000000016
 30
0.0
 10
-5.7653300000000005
 20
10.441600000000001
 30
0.0
 10
-2.3674300000000001
 20
9.49343
 30
0.0
 10
-3.2133800000000003
 20
7.2869100000000007
 30
0.0
 10
-3.2133800000000003
 20
7.2869100000000007
 30
0.0
 10
-2.8820500000000004
 20
6.6912200000000004
 30
0.0
 10
-3.2169000000000003
 20
6.3634100000000009
 30
0.0
 10
-3.7350500000000002
 20
6.1202000000000005
 30
0.0
 10
-3.7350500000000002
 20
6.1202000000000005
 30
0.0
 10
-3.8020200000000002
 20
5.9862600000000006
 30
0.0
 10
-3.6892200000000002
 20
5.0169400000000008
 30
0.0
 10
-3.7843900000000001
 20
5.4363900000000003
 30
0.0
 10
-3.7843900000000001
 20
5.4363900000000003
 30
0.0
 10
-3.7914400000000001
 20
5.5245100000000003
 30
0.0
 10
-3.8266900000000001
 20
5.6337800000000007
 30
0.0
 10
-3.9112900000000002
 20
5.6796000000000006
 30
0.0
 10
-3.9112900000000002
 20
5.6796000000000006
 30
0.0
 10
-3.9359600000000001
 20
5.6055800000000007
 30
0.0
 10
-3.9042400000000002
 20
5.4610600000000007
 30
0.0
 10
-3.9183400000000002
 20
5.3870400000000007
 30
0.0
 10
-3.9183400000000002
 20
5.3870400000000007
 30
0.0
 10
-3.9712100000000001
 20
5.1121100000000004
 30
0.0
 10
-4.0346500000000001
 20
4.9076700000000004
 30
0.0
 10
-3.9853100000000001
 20
4.6327400000000001
 30
0.0
 10
-3.9853100000000001
 20
4.6327400000000001
 30
0.0
 10
-3.8548900000000001
 20
3.8960500000000002
 30
0.0
 10
-3.4072400000000003
 20
3.09945
 30
0.0
 10
-3.4918400000000003
 20
2.5037600000000002
 30
0.0
 10
-3.4918400000000003
 20
2.5037600000000002
 30
0.0
 10
-3.2204300000000003
 20
2.4614600000000002
 30
0.0
 10
-3.0723900000000004
 20
2.6130300000000002
 30
0.0
 10
-3.0512400000000004
 20
2.8809100000000001
 30
0.0
 10
-3.0512400000000004
 20
2.8809100000000001
 30
0.0
 10
-2.9948400000000004
 20
3.09945
 30
0.0
 10
-2.5330900000000001
 20
3.4730800000000004
 30
0.0
 10
-2.9948400000000004
 20
3.4096300000000004
 30
0.0
 10
-2.9948400000000004
 20
3.4096300000000004
 30
0.0
 10
-2.9948400000000004
 20
3.4096300000000004
 30
0.0
 10
-2.9278700000000004
 20
3.5400500000000004
 30
0.0
 10
-2.9278700000000004
 20
3.5400500000000004
 30
0.0
 10
-2.9278700000000004
 20
3.5400500000000004
 30
0.0
 10
-3.7984900000000001
 20
3.1875700000000005
 30
0.0
 10
-2.9454900000000004
 20
4.8195500000000004
 30
0.0
 10
-3.3896200000000003
 20
5.1720300000000003
 30
0.0
 10
-3.3896200000000003
 20
5.1720300000000003
 30
0.0
 10
-2.8644200000000004
 20
5.3940900000000003
 30
0.0
 10
-2.2264300000000001
 20
6.1871700000000009
 30
0.0
 10
-1.3205600000000002
 20
5.8100200000000006
 30
0.0
 10
-1.3205600000000002
 20
5.8100200000000006
 30
0.0
 10
-1.22892
 20
6.0109300000000001
 30
0.0
 10
-1.2112900000000002
 20
6.229470000000001
 30
0.0
 10
-1.22892
 20
6.4726800000000004
 30
0.0
 10
-1.22892
 20
6.4726800000000004
 30
0.0
 10
-1.2747400000000002
 20
6.6735900000000008
 30
0.0
 10
-1.4580300000000002
 20
6.5819500000000009
 30
0.0
 10
-1.5955000000000001
 20
6.6277700000000008
 30
0.0
 10
-1.5955000000000001
 20
6.6277700000000008
 30
0.0
 10
-1.8316600000000001
 20
8.4148399999999999
 30
0.0
 10
-2.9243400000000004
 20
10.022150000000002
 30
0.0
 10
-3.8055400000000001
 20
11.611830000000001
 30
0.0
 10
-3.8055400000000001
 20
11.611830000000001
 30
0.0
 10
-3.1922300000000003
 20
12.91248
 30
0.0
 10
-1.8951000000000002
 20
13.969920000000002
 30
0.0
 10
-0.3653400000000001
 20
13.814830000000001
 30
0.0
  0
SPLINE
  5
26
100
AcDbEntity
  8
Ebene 1
100
AcDbSpline
210
0.0
220
0.0
230
1.0
 70
     1
 71
     3
 72
    28
 73
    24
 74
     0
 42
0.0000000001
 43
0.0000000001
 40
0.0
 40
0.0
 40
0.0
 40
0.0
 40
0.1666666666666667
 40
0.1666666666666667
 40
0.1666666666666667
 40
0.1666666666666667
 40
0.3333333333333333
 40
0.3333333333333333
 40
0.3333333333333333
 40
0.3333333333333333
 40
0.5
 40
0.5
 40
0.5
 40
0.5
 40
0.6666666666666666
 40
0.6666666666666666
 40
0.6666666666666666
 40
0.6666666666666666
 40
0.8333333333333333
 40
0.8333333333333333
 40
0.8333333333333333
 40
0.8333333333333333
 40
1.0
 40
1.0
 40
1.0
 40
1.0
 10
5.8700100000000006
 20
4.5974900000000005
 30
0.0
 10
5.7466400000000002
 20
4.8653700000000004
 30
0.0
 10
5.8946800000000001
 20
5.1050600000000008
 30
0.0
 10
6.0004200000000001
 20
5.3271200000000007
 30
0.0
 10
6.0004200000000001
 20
5.3271200000000007
 30
0.0
 10
5.3871100000000007
 20
6.6912200000000004
 30
0.0
 10
5.1403700000000008
 20
8.1927800000000008
 30
0.0
 10
5.1650500000000008
 20
9.66967
 30
0.0
 10
5.1650500000000008
 20
9.66967
 30
0.0
 10
4.3684400000000005
 20
8.5910799999999998
 30
0.0
 10
3.9172700000000003
 20
7.2657600000000002
 30
0.0
 10
3.8714500000000003
 20
5.9439600000000006
 30
0.0
 10
3.8714500000000003
 20
5.9439600000000006
 30
0.0
 10
4.5411600000000005
 20
6.0532300000000001
 30
0.0
 10
5.0416800000000004
 20
5.5703300000000002
 30
0.0
 10
5.6444200000000002
 20
5.4575400000000007
 30
0.0
 10
5.6444200000000002
 20
5.4575400000000007
 30
0.0
 10
5.3835800000000003
 20
5.3024500000000003
 30
0.0
 10
5.5986000000000002
 20
5.3271200000000007
 30
0.0
 10
5.6867200000000002
 20
5.1262100000000004
 30
0.0
 10
5.6867200000000002
 20
5.1262100000000004
 30
0.0
 10
5.1192200000000003
 20
5.2601500000000003
 30
0.0
 10
5.5598200000000002
 20
4.6891300000000005
 30
0.0
 10
5.8700100000000006
 20
4.5974900000000005
 30
0.0
  0
SPLINE
  5
27
100
AcDbEntity
  8
Ebene 1
 62
     7
100
AcDbSpline
210
0.0
220
0.0
230
1.0
 70
     1
 71
     3
 72
   364
 73
   360
 74
     0
 42
0.0000000001
 43
0.0000000001
 40
0.0
 40
0.0
 40
0.0
 40
0.0
 40
0.0111111111111111
 40
0.0111111111111111
 40
0.0111111111111111
 40
0.0111111111111111
 40
0.0222222222222222
 40
0.0222222222222222
 40
0.0222222222222222
 40
0.0222222222222222
 40
0.0333333333333333
 40
0.0333333333333333
 40
0.0333333333333333
 40
0.0333333333333333
 40
0.0444444444444444
 40
0.0444444444444444
 40
0.0444444444444444
 40
0.0444444444444444
 40
0.0555555555555556
 40
0.0555555555555556
 40
0.0555555555555556
 40
0.0555555555555556
 40
0.0666666666666667
 40
0.0666666666666667
 40
0.0666666666666667
 40
0.0666666666666667
 40
0.0777777777777778
 40
0.0777777777777778
 40
0.0777777777777778
 40
0.0777777777777778
 40
0.0888888888888889
 40
0.0888888888888889
 40
0.0888888888888889
 40
0.0888888888888889
 40
0.1
 40
0.1
 40
0.1
 40
0.1
 40
0.1111111111111111
 40
0.1111111111111111
 40
0.1111111111111111
 40
0.1111111111111111
 40
0.1222222222222222
 40
0.1222222222222222
 40
0.1222222222222222
 40
0.1222222222222222
 40
0.1333333333333333
 40
0.1333333333333333
 40
0.1333333333333333
 40
0.1333333333333333
 40
0.1444444444444444
 40
0.1444444444444444
 40
0.1444444444444444
 40
0.1444444444444444
 40
0.1555555555555555
 40
0.1555555555555555
 40
0.1555555555555555
 40
0.1555555555555555
 40
0.1666666666666666
 40
0.1666666666666666
 40
0.1666666666666666
 40
0.1666666666666666
 40
0.1777777777777777
 40
0.1777777777777777
 40
0.1777777777777777
 40
0.1777777777777777
 40
0.1888888888888888
 40
0.1888888888888888
 40
0.1888888888888888
 40
0.1888888888888888
 40
0.1999999999999999
 40
0.1999999999999999
 40
0.1999999999999999
 40
0.1999999999999999
 40
0.211111111111111
 40
0.211111111111111
 40
0.211111111111111
 40
0.211111111111111
 40
0.2222222222222221
 40
0.2222222222222221
 40
0.2222222222222221
 40
0.2222222222222221
 40
0.2333333333333332
 40
0.2333333333333332
 40
0.2333333333333332
 40
0.2333333333333332
 40
0.2444444444444443
 40
0.2444444444444443
 40
0.2444444444444443
 40
0.2444444444444443
 40
0.2555555555555554
 40
0.2555555555555554
 40
0.2555555555555554
 40
0.2555555555555554
 40
0.2666666666666666
 40
0.2666666666666666
 40
0.2666666666666666
 40
0.2666666666666666
 40
0.2777777777777777
 40
0.2777777777777777
 40
0.2777777777777777
 40
0.2777777777777777
 40
0.2888888888888888
 40
0.2888888888888888
 40
0.2888888888888888
 40
0.2888888888888888
 40
0.2999999999999999
 40
0.2999999999999999
 40
0.2999999999999999
 40
0.2999999999999999
 40
0.3111111111111111
 40
0.3111111111111111
 40
0.3111111111111111
 40
0.3111111111111111
 40
0.3222222222222222
 40
0.3222222222222222
 40
0.3222222222222222
 40
0.3222222222222222
 40
0.3333333333333333
 40
0.3333333333333333
 40
0.3333333333333333
 40
0.3333333333333333
 40
0.3444444444444444
 40
0.3444444444444444
 40
0.3444444444444444
 40
0.3444444444444444
 40
0.3555555555555556
 40
0.3555555555555556
 40
0.3555555555555556
 40
0.3555555555555556
 40
0.3666666666666667
 40
0.3666666666666667
 40
0.3666666666666667
 40
0.3666666666666667
 40
0.3777777777777778
 40
0.3777777777777778
 40
0.3777777777777778
 40
0.3777777777777778
 40
0.388888888888889
 40
0.388888888888889
 40
0.388888888888889
 40
0.388888888888889
 40
0.4000000000000001
 40
0.4000000000000001
 40
0.4000000000000001
 40
0.4000000000000001
 40
0.4111111111111112
 40
0.4111111111111112
 40
0.4111111111111112
 40
0.4111111111111112
 40
0.4222222222222223
 40
0.4222222222222223
 40
0.4222222222222223
 40
0.4222222222222223
 40
0.4333333333333335
 40
0.4333333333333335
 40
0.4333333333333335
 40
0.4333333333333335
 40
0.4444444444444446
 40
0.4444444444444446
 40
0.4444444444444446
 40
0.4444444444444446
 40
0.4555555555555557
 40
0.4555555555555557
 40
0.4555555555555557
 40
0.4555555555555557
 40
0.4666666666666668
 40
0.4666666666666668
 40
0.4666666666666668
 40
0.4666666666666668
 40
0.477777777777778
 40
0.477777777777778
 40
0.477777777777778
 40
0.477777777777778
 40
0.4888888888888891
 40
0.4888888888888891
 40
0.4888888888888891
 40
0.4888888888888891
 40
0.5000000000000002
 40
0.5000000000000002
 40
0.5000000000000002
 40
0.5000000000000002
 40
0.5111111111111113
 40
0.5111111111111113
 40
0.5111111111111113
 40
0.5111111111111113
 40
0.5222222222222224
 40
0.5222222222222224
 40
0.5222222222222224
 40
0.5222222222222224
 40
0.5333333333333334
 40
0.5333333333333334
 40
0.5333333333333334
 40
0.5333333333333334
 40
0.5444444444444445
 40
0.5444444444444445
 40
0.5444444444444445
 40
0.5444444444444445
 40
0.5555555555555556
 40
0.5555555555555556
 40
0.5555555555555556
 40
0.5555555555555556
 40
0.5666666666666667
 40
0.5666666666666667
 40
0.5666666666666667
 40
0.5666666666666667
 40
0.5777777777777777
 40
0.5777777777777777
 40
0.5777777777777777
 40
0.5777777777777777
 40
0.5888888888888888
 40
0.5888888888888888
 40
0.5888888888888888
 40
0.5888888888888888
 40
0.5999999999999999
 40
0.5999999999999999
 40
0.5999999999999999
 40
0.5999999999999999
 40
0.6111111111111109
 40
0.6111111111111109
 40
0.6111111111111109
 40
0.6111111111111109
 40
0.622222222222222
 40
0.622222222222222
 40
0.622222222222222
 40
0.622222222222222
 40
0.6333333333333331
 40
0.6333333333333331
 40
0.6333333333333331
 40
0.6333333333333331
 40
0.6444444444444442
 40
0.6444444444444442
 40
0.6444444444444442
 40
0.6444444444444442
 40
0.6555555555555552
 40
0.6555555555555552
 40
0.6555555555555552
 40
0.6555555555555552
 40
0.6666666666666663
 40
0.6666666666666663
 40
0.6666666666666663
 40
0.6666666666666663
 40
0.6777777777777774
 40
0.6777777777777774
 40
0.6777777777777774
 40
0.6777777777777774
 40
0.6888888888888884
 40
0.6888888888888884
 40
0.6888888888888884
 40
0.6888888888888884
 40
0.6999999999999995
 40
0.6999999999999995
 40
0.6999999999999995
 40
0.6999999999999995
 40
0.7111111111111106
 40
0.7111111111111106
 40
0.7111111111111106
 40
0.7111111111111106
 40
0.7222222222222217
 40
0.7222222222222217
 40
0.7222222222222217
 40
0.7222222222222217
 40
0.7333333333333327
 40
0.7333333333333327
 40
0.7333333333333327
 40
0.7333333333333327
 40
0.7444444444444438
 40
0.7444444444444438
 40
0.7444444444444438
 40
0.7444444444444438
 40
0.7555555555555549
 40
0.7555555555555549
 40
0.7555555555555549
 40
0.7555555555555549
 40
0.7666666666666659
 40
0.7666666666666659
 40
0.7666666666666659
 40
0.7666666666666659
 40
0.777777777777777
 40
0.777777777777777
 40
0.777777777777777
 40
0.777777777777777
 40
0.7888888888888881
 40
0.7888888888888881
 40
0.7888888888888881
 40
0.7888888888888881
 40
0.7999999999999992
 40
0.7999999999999992
 40
0.7999999999999992
 40
0.7999999999999992
 40
0.8111111111111102
 40
0.8111111111111102
 40
0.8111111111111102
 40
0.8111111111111102
 40
0.8222222222222213
 40
0.8222222222222213
 40
0.8222222222222213
 40
0.8222222222222213
 40
0.8333333333333324
 40
0.8333333333333324
 40
0.8333333333333324
 40
0.8333333333333324
 40
0.8444444444444434
 40
0.8444444444444434
 40
0.8444444444444434
 40
0.8444444444444434
 40
0.8555555555555545
 40
0.8555555555555545
 40
0.8555555555555545
 40
0.8555555555555545
 40
0.8666666666666656
 40
0.8666666666666656
 40
0.8666666666666656
 40
0.8666666666666656
 40
0.8777777777777767
 40
0.8777777777777767
 40
0.8777777777777767
 40
0.8777777777777767
 40
0.8888888888888877
 40
0.8888888888888877
 40
0.8888888888888877
 40
0.8888888888888877
 40
0.8999999999999988
 40
0.8999999999999988
 40
0.8999999999999988
 40
0.8999999999999988
 40
0.9111111111111099
 40
0.9111111111111099
 40
0.9111111111111099
 40
0.9111111111111099
 40
0.9222222222222209
 40
0.9222222222222209
 40
0.9222222222222209
 40
0.9222222222222209
 40
0.933333333333332
 40
0.933333333333332
 40
0.933333333333332
 40
0.933333333333332
 40
0.9444444444444431
 40
0.9444444444444431
 40
0.9444444444444431
 40
0.9444444444444431
 40
0.9555555555555542
 40
0.9555555555555542
 40
0.9555555555555542
 40
0.9555555555555542
 40
0.9666666666666652
 40
0.9666666666666652
 40
0.9666666666666652
 40
0.9666666666666652
 40
0.9777777777777763
 40
0.9777777777777763
 40
0.9777777777777763
 40
0.9777777777777763
 40
0.9888888888888874
 40
0.9888888888888874
 40
0.9888888888888874
 40
0.9888888888888874
 40
1.0
 40
1.0
 40
1.0
 40
1.0
 10
-0.6473300000000001
 20
8.8237200000000016
 30
0.0
 10
-0.6473300000000001
 20
8.8237200000000016
 30
0.0
 10
-0.6543800000000001
 20
9.010530000000001
 30
0.0
 10
-0.6543800000000001
 20
9.010530000000001
 30
0.0
 10
-0.6543800000000001
 20
9.010530000000001
 30
0.0
 10
-0.7566000000000001
 20
9.186770000000001
 30
0.0
 10
-0.9892300000000001
 20
9.010530000000001
 30
0.0
 10
-1.0949800000000001
 20
8.8765900000000002
 30
0.0
 10
-1.0949800000000001
 20
8.8765900000000002
 30
0.0
 10
-1.0949800000000001
 20
8.8765900000000002
 30
0.0
 10
-1.0879300000000001
 20
8.8096200000000007
 30
0.0
 10
-1.0879300000000001
 20
8.8096200000000007
 30
0.0
 10
-1.0879300000000001
 20
8.8096200000000007
 30
0.0
 10
-0.9786600000000001
 20
8.8096200000000007
 30
0.0
 10
-0.9962800000000001
 20
8.5664100000000012
 30
0.0
 10
-0.8517600000000001
 20
8.6580500000000011
 30
0.0
 10
-0.8517600000000001
 20
8.6580500000000011
 30
0.0
 10
-0.8517600000000001
 20
8.6580500000000011
 30
0.0
 10
-0.9434100000000001
 20
8.5241100000000003
 30
0.0
 10
-0.9434100000000001
 20
8.5241100000000003
 30
0.0
 10
-0.9434100000000001
 20
8.5241100000000003
 30
0.0
 10
-1.14785
 20
8.1927800000000008
 30
0.0
 10
-0.60855
 20
8.7884700000000002
 30
0.0
 10
-0.6684800000000001
 20
8.6333800000000007
 30
0.0
 10
-0.6684800000000001
 20
8.6333800000000007
 30
0.0
 10
-0.6684800000000001
 20
8.6333800000000007
 30
0.0
 10
-0.9328400000000001
 20
8.1716300000000004
 30
0.0
 10
-0.9328400000000001
 20
8.1716300000000004
 30
0.0
 10
-0.9328400000000001
 20
8.1716300000000004
 30
0.0
 10
-0.7495500000000001
 20
8.2385999999999999
 30
0.0
 10
-0.5768300000000001
 20
8.3901700000000012
 30
0.0
 10
-0.4710900000000001
 20
8.5664100000000012
 30
0.0
 10
-0.4710900000000001
 20
8.5664100000000012
 30
0.0
 10
-0.28427
 20
8.8342900000000011
 30
0.0
 10
-0.15738
 20
9.2290700000000001
 30
0.0
 10
0.11049
 20
9.4264600000000005
 30
0.0
 10
0.11049
 20
9.4264600000000005
 30
0.0
 10
0.12811
 20
9.3841600000000014
 30
0.0
 10
0.09639
 20
9.3383400000000005
 30
0.0
 10
0.07877
 20
9.3171900000000001
 30
0.0
 10
0.07877
 20
9.3171900000000001
 30
0.0
 10
0.04001
 20
9.2290700000000001
 30
0.0
 10
0.11754
 20
9.2079200000000014
 30
0.0
 10
0.15279
 20
9.271370000000001
 30
0.0
 10
0.15279
 20
9.271370000000001
 30
0.0
 10
0.3819
 20
9.7789400000000004
 30
0.0
 10
0.9388200000000001
 20
10.067970000000001
 30
0.0
 10
1.47811
 20
9.9798500000000008
 30
0.0
 10
1.47811
 20
9.9798500000000008
 30
0.0
 10
1.47811
 20
9.9798500000000008
 30
0.0
 10
1.7636200000000002
 20
9.6485200000000013
 30
0.0
 10
1.7636200000000002
 20
9.6485200000000013
 30
0.0
 10
1.7636200000000002
 20
9.6485200000000013
 30
0.0
 10
1.7460000000000002
 20
9.5145800000000005
 30
0.0
 10
1.4040900000000001
 20
9.6273700000000009
 30
0.0
 10
1.5521300000000002
 20
9.4511300000000009
 30
0.0
 10
1.5521300000000002
 20
9.4511300000000009
 30
0.0
 10
1.7600900000000002
 20
9.3171900000000001
 30
0.0
 10
2.0315000000000003
 20
9.4264600000000005
 30
0.0
 10
2.0843800000000003
 20
9.1621000000000006
 30
0.0
 10
2.0843800000000003
 20
9.1621000000000006
 30
0.0
 10
2.4227600000000002
 20
9.3171900000000001
 30
0.0
 10
2.1196200000000003
 20
9.4722800000000014
 30
0.0
 10
2.0174000000000003
 20
9.7366400000000013
 30
0.0
 10
2.0174000000000003
 20
9.7366400000000013
 30
0.0
 10
2.2288900000000003
 20
9.7190200000000004
 30
0.0
 10
2.3593100000000002
 20
9.5427800000000005
 30
0.0
 10
2.4932500000000002
 20
9.3806400000000014
 30
0.0
 10
2.4932500000000002
 20
9.3806400000000014
 30
0.0
 10
2.6342400000000001
 20
9.2044000000000015
 30
0.0
 10
2.6800700000000002
 20
9.1339000000000006
 30
0.0
 10
2.5743200000000002
 20
9.3982600000000005
 30
0.0
 10
2.5743200000000002
 20
9.3982600000000005
 30
0.0
 10
2.5073500000000002
 20
9.5639200000000013
 30
0.0
 10
2.4016100000000002
 20
9.72607
 30
0.0
 10
2.2535700000000003
 20
9.8247600000000013
 30
0.0
 10
2.2535700000000003
 20
9.8247600000000013
 30
0.0
 10
2.4298100000000002
 20
9.9128800000000012
 30
0.0
 10
2.6624400000000001
 20
9.8459099999999999
 30
0.0
 10
2.8492600000000001
 20
9.8036100000000008
 30
0.0
 10
2.8492600000000001
 20
9.8036100000000008
 30
0.0
 10
2.8492600000000001
 20
9.9798500000000008
 30
0.0
 10
2.5108800000000002
 20
9.9798500000000008
 30
0.0
 10
2.3839800000000002
 20
10.04682
 30
0.0
 10
2.3839800000000002
 20
10.04682
 30
0.0
 10
2.4685800000000002
 20
10.30766
 30
0.0
 10
2.7399900000000001
 20
10.462750000000002
 30
0.0
 10
2.9197500000000001
 20
10.684810000000001
 30
0.0
 10
2.9197500000000001
 20
10.684810000000001
 30
0.0
 10
3.4696200000000004
 20
11.192380000000002
 30
0.0
 10
4.0018600000000006
 20
11.74225
 30
0.0
 10
4.69625
 20
12.00661
 30
0.0
 10
4.69625
 20
12.00661
 30
0.0
 10
4.61165
 20
12.27097
 30
0.0
 10
5.1685700000000008
 20
12.602300000000001
 30
0.0
 10
5.5175300000000007
 20
12.778540000000001
 30
0.0
 10
5.5175300000000007
 20
12.778540000000001
 30
0.0
 10
5.7184400000000002
 20
12.56
 30
0.0
 10
5.7642600000000002
 20
12.18285
 30
0.0
 10
5.7607400000000002
 20
11.851520000000001
 30
0.0
 10
5.7607400000000002
 20
11.851520000000001
 30
0.0
 10
5.7607400000000002
 20
11.851520000000001
 30
0.0
 10
5.9581300000000006
 20
12.228670000000001
 30
0.0
 10
5.9581300000000006
 20
12.228670000000001
 30
0.0
 10
5.9581300000000006
 20
12.228670000000001
 30
0.0
 10
6.6912800000000008
 20
10.596690000000001
 30
0.0
 10
6.0955900000000005
 20
8.7673200000000016
 30
0.0
 10
5.8559100000000006
 20
7.1106700000000007
 30
0.0
 10
5.8559100000000006
 20
7.1106700000000007
 30
0.0
 10
5.7607400000000002
 20
8.1258100000000013
 30
0.0
 10
5.8664800000000001
 20
9.0739800000000006
 30
0.0
 10
5.9651800000000001
 20
9.9798500000000008
 30
0.0
 10
5.9651800000000001
 20
9.9798500000000008
 30
0.0
 10
6.0180500000000006
 20
10.067970000000001
 30
0.0
 10
6.1343700000000005
 20
10.177240000000001
 30
0.0
 10
5.9792700000000005
 20
10.265360000000001
 30
0.0
 10
5.9792700000000005
 20
10.265360000000001
 30
0.0
 10
6.3247000000000009
 20
10.684810000000001
 30
0.0
 10
5.8171300000000006
 20
11.079590000000001
 30
0.0
 10
5.8876300000000006
 20
11.611830000000001
 30
0.0
 10
5.8876300000000006
 20
11.611830000000001
 30
0.0
 10
5.8241800000000001
 20
11.675280000000001
 30
0.0
 10
5.6867200000000002
 20
11.523710000000001
 30
0.0
 10
5.6937700000000007
 20
11.721100000000002
 30
0.0
 10
5.6937700000000007
 20
11.721100000000002
 30
0.0
 10
5.5845000000000002
 20
12.18285
 30
0.0
 10
5.4893300000000007
 20
11.897340000000002
 30
0.0
 10
5.5351500000000007
 20
11.65413
 30
0.0
 10
5.5351500000000007
 20
11.65413
 30
0.0
 10
5.5351500000000007
 20
11.65413
 30
0.0
 10
5.3906300000000007
 20
11.91849
 30
0.0
 10
5.3906300000000007
 20
11.91849
 30
0.0
 10
5.3906300000000007
 20
11.91849
 30
0.0
 10
5.0663500000000008
 20
12.292120000000001
 30
0.0
 10
5.3941600000000003
 20
11.21353
 30
0.0
 10
5.1826700000000008
 20
11.65413
 30
0.0
 10
5.1826700000000008
 20
11.65413
 30
0.0
 10
5.1403700000000008
 20
11.74225
 30
0.0
 10
5.0064300000000008
 20
11.83037
 30
0.0
 10
5.0593000000000004
 20
11.65413
 30
0.0
 10
5.0593000000000004
 20
11.65413
 30
0.0
 10
5.0593000000000004
 20
11.65413
 30
0.0
 10
5.0734000000000004
 20
11.499040000000001
 30
0.0
 10
5.0734000000000004
 20
11.499040000000001
 30
0.0
 10
5.0734000000000004
 20
11.499040000000001
 30
0.0
 10
5.0734000000000004
 20
11.499040000000001
 30
0.0
 10
4.92889
 20
11.788070000000001
 30
0.0
 10
4.92889
 20
11.788070000000001
 30
0.0
 10
4.92889
 20
11.788070000000001
 30
0.0
 10
4.87601
 20
11.435590000000001
 30
0.0
 10
5.1121700000000008
 20
11.079590000000001
 30
0.0
 10
5.0064300000000008
 20
10.705960000000001
 30
0.0
 10
5.0064300000000008
 20
10.705960000000001
 30
0.0
 10
4.9782300000000008
 20
10.705960000000001
 30
0.0
 10
4.96061
 20
10.75178
 30
0.0
 10
4.9641300000000008
 20
10.772930000000001
 30
0.0
 10
4.9641300000000008
 20
10.772930000000001
 30
0.0
 10
4.9641300000000008
 20
10.772930000000001
 30
0.0
 10
4.81257
 20
11.280500000000002
 30
0.0
 10
4.81257
 20
11.280500000000002
 30
0.0
 10
4.81257
 20
11.280500000000002
 30
0.0
 10
4.81257
 20
11.280500000000002
 30
0.0
 10
4.78437
 20
11.058440000000001
 30
0.0
 10
4.78437
 20
11.058440000000001
 30
0.0
 10
4.78437
 20
11.058440000000001
 30
0.0
 10
4.4812400000000006
 20
11.146560000000001
 30
0.0
 10
4.6645300000000001
 20
10.57554
 30
0.0
 10
4.5869800000000005
 20
10.374630000000002
 30
0.0
 10
4.5869800000000005
 20
10.374630000000002
 30
0.0
 10
4.4565600000000005
 20
10.420450000000001
 30
0.0
 10
4.5517300000000001
 20
10.642510000000001
 30
0.0
 10
4.4565600000000005
 20
10.727110000000001
 30
0.0
 10
4.4565600000000005
 20
10.727110000000001
 30
0.0
 10
4.3684400000000005
 20
9.9340300000000017
 30
0.0
 10
3.7234100000000003
 20
9.4264600000000005
 30
0.0
 10
3.5260200000000004
 20
8.7426500000000011
 30
0.0
 10
3.5260200000000004
 20
8.7426500000000011
 30
0.0
 10
3.4449500000000004
 20
8.8342900000000011
 30
0.0
 10
3.4484700000000004
 20
9.0316800000000015
 30
0.0
 10
3.3180500000000004
 20
9.0528300000000002
 30
0.0
 10
3.3180500000000004
 20
9.0528300000000002
 30
0.0
 10
3.2828100000000004
 20
8.8977400000000006
 30
0.0
 10
3.4238000000000004
 20
8.8096200000000007
 30
0.0
 10
3.4167500000000004
 20
8.6756799999999998
 30
0.0
 10
3.4167500000000004
 20
8.6756799999999998
 30
0.0
 10
3.2017400000000005
 20
8.9188900000000011
 30
0.0
 10
3.1065700000000001
 20
9.3171900000000001
 30
0.0
 10
2.8316300000000001
 20
9.4722800000000014
 30
0.0
 10
2.8316300000000001
 20
9.4722800000000014
 30
0.0
 10
3.1030400000000005
 20
8.8096200000000007
 30
0.0
 10
3.8608700000000002
 20
7.9072700000000005
 30
0.0
 10
3.6599600000000003
 20
7.3538800000000002
 30
0.0
 10
3.6599600000000003
 20
7.3538800000000002
 30
0.0
 10
3.5048700000000004
 20
8.1046600000000009
 30
0.0
 10
3.0043500000000001
 20
8.8342900000000011
 30
0.0
 10
2.3240600000000002
 20
9.2290700000000001
 30
0.0
 10
2.3240600000000002
 20
9.2290700000000001
 30
0.0
 10
2.5990000000000002
 20
8.8096200000000007
 30
0.0
 10
2.9127000000000001
 20
8.4359900000000003
 30
0.0
 10
3.0677900000000005
 20
7.9495700000000005
 30
0.0
 10
3.0677900000000005
 20
7.9495700000000005
 30
0.0
 10
2.97262
 20
7.9953900000000004
 30
0.0
 10
2.9409000000000001
 20
8.1927800000000008
 30
0.0
 10
2.8104800000000001
 20
8.2139300000000013
 30
0.0
 10
2.8104800000000001
 20
8.2139300000000013
 30
0.0
 10
2.9514800000000001
 20
7.9495700000000005
 30
0.0
 10
3.1911600000000004
 20
7.1776400000000002
 30
0.0
 10
2.7893300000000001
 20
7.5970900000000006
 30
0.0
 10
2.7893300000000001
 20
7.5970900000000006
 30
0.0
 10
2.8809800000000001
 20
7.3115800000000002
 30
0.0
 10
3.04312
 20
7.0895200000000003
 30
0.0
 10
3.04312
 20
6.8040100000000008
 30
0.0
 10
3.04312
 20
6.8040100000000008
 30
0.0
 10
2.9409000000000001
 20
6.8498300000000008
 30
0.0
 10
2.98672
 20
7.0683700000000007
 30
0.0
 10
2.8316300000000001
 20
7.0014000000000003
 30
0.0
 10
2.8316300000000001
 20
7.0014000000000003
 30
0.0
 10
2.6871200000000002
 20
6.8251600000000003
 30
0.0
 10
2.4756300000000002
 20
6.8251600000000003
 30
0.0
 10
2.2817600000000002
 20
6.7581900000000008
 30
0.0
 10
2.2817600000000002
 20
6.7581900000000008
 30
0.0
 10
1.2772000000000001
 20
5.7465700000000002
 30
0.0
 10
-0.25255
 20
7.3538800000000002
 30
0.0
 10
-1.13375
 20
6.2541400000000005
 30
0.0
 10
-1.13375
 20
6.2541400000000005
 30
0.0
 10
-1.2994100000000002
 20
7.0014000000000003
 30
0.0
 10
-0.2878
 20
7.2234600000000002
 30
0.0
 10
0.07172
 20
7.5970900000000006
 30
0.0
 10
0.07172
 20
7.5970900000000006
 30
0.0
 10
-0.5274800000000001
 20
7.4666700000000006
 30
0.0
 10
-0.9821800000000001
 20
6.9591000000000003
 30
0.0
 10
-1.5073800000000002
 20
6.6912200000000004
 30
0.0
 10
-1.5073800000000002
 20
6.6912200000000004
 30
0.0
 10
-1.6836200000000001
 20
7.0260700000000007
 30
0.0
 10
-1.1267
 20
7.3327300000000006
 30
0.0
 10
-1.14432
 20
7.4666700000000006
 30
0.0
 10
-1.14432
 20
7.4666700000000006
 30
0.0
 10
-1.2747400000000002
 20
7.3997000000000002
 30
0.0
 10
-1.3804800000000002
 20
7.2869100000000007
 30
0.0
 10
-1.4932800000000002
 20
7.2023100000000007
 30
0.0
 10
-1.4932800000000002
 20
7.2023100000000007
 30
0.0
 10
-1.6695200000000001
 20
7.4208500000000006
 30
0.0
 10
-1.7541100000000001
 20
7.7733300000000005
 30
0.0
 10
-1.6166500000000001
 20
8.06236
 30
0.0
 10
-1.6166500000000001
 20
8.06236
 30
0.0
 10
-1.5778700000000001
 20
7.9495700000000005
 30
0.0
 10
-1.4650800000000002
 20
7.7310300000000005
 30
0.0
 10
-1.3804800000000002
 20
7.794480000000001
 30
0.0
 10
-1.3804800000000002
 20
7.794480000000001
 30
0.0
 10
-1.3910600000000002
 20
8.2139300000000013
 30
0.0
 10
-1.5567200000000001
 20
8.6756799999999998
 30
0.0
 10
-1.5355800000000002
 20
9.1409500000000001
 30
0.0
 10
-1.5355800000000002
 20
9.1409500000000001
 30
0.0
 10
-1.7259100000000001
 20
8.8554400000000015
 30
0.0
 10
-1.7717400000000001
 20
8.4782900000000012
 30
0.0
 10
-1.7576400000000001
 20
8.1046600000000009
 30
0.0
 10
-1.7576400000000001
 20
8.1046600000000009
 30
0.0
 10
-1.7576400000000001
 20
8.06236
 30
0.0
 10
-1.7435400000000001
 20
7.9953900000000004
 30
0.0
 10
-1.7928900000000001
 20
7.9953900000000004
 30
0.0
 10
-1.7928900000000001
 20
7.9953900000000004
 30
0.0
 10
-1.9550300000000003
 20
8.4148399999999999
 30
0.0
 10
-2.1171700000000002
 20
8.8096200000000007
 30
0.0
 10
-2.1312700000000002
 20
9.2502200000000006
 30
0.0
 10
-2.1312700000000002
 20
9.2502200000000006
 30
0.0
 10
-1.7435400000000001
 20
8.5241100000000003
 30
0.0
 10
-1.6765700000000001
 20
9.6485200000000013
 30
0.0
 10
-2.0149500000000002
 20
9.8670600000000004
 30
0.0
 10
-2.0149500000000002
 20
9.8670600000000004
 30
0.0
 10
-2.2334800000000001
 20
10.156090000000001
 30
0.0
 10
-2.2652100000000002
 20
10.508570000000001
 30
0.0
 10
-2.5436700000000001
 20
10.8399
 30
0.0
 10
-2.5436700000000001
 20
10.8399
 30
0.0
 10
-2.63531
 20
10.4839
 30
0.0
 10
-2.2581600000000002
 20
9.6485200000000013
 30
0.0
 10
-2.4555500000000001
 20
9.5604000000000013
 30
0.0
 10
-2.4555500000000001
 20
9.5604000000000013
 30
0.0
 10
-2.9067200000000004
 20
10.22306
 30
0.0
 10
-3.3191200000000003
 20
10.970320000000001
 30
0.0
 10
-3.5870100000000003
 20
11.699950000000001
 30
0.0
 10
-3.5870100000000003
 20
11.699950000000001
 30
0.0
 10
-3.3015000000000003
 20
12.493030000000001
 30
0.0
 10
-2.70581
 20
12.27097
 30
0.0
 10
-2.4872700000000001
 20
12.468360000000001
 30
0.0
 10
-2.4872700000000001
 20
12.468360000000001
 30
0.0
 10
-2.4837400000000001
 20
12.626970000000002
 30
0.0
 10
-2.76573
 20
12.514180000000001
 30
0.0
 10
-2.79393
 20
12.644600000000001
 30
0.0
 10
-2.79393
 20
12.644600000000001
 30
0.0
 10
-2.5753900000000001
 20
13.109870000000001
 30
0.0
 10
-2.1277400000000002
 20
13.462350000000001
 30
0.0
 10
-1.5849200000000001
 20
13.286110000000001
 30
0.0
 10
-1.5849200000000001
 20
13.286110000000001
 30
0.0
 10
-1.5849200000000001
 20
13.286110000000001
 30
0.0
 10
-1.8175600000000001
 20
13.508170000000002
 30
0.0
 10
-1.8175600000000001
 20
13.508170000000002
 30
0.0
 10
-1.8175600000000001
 20
13.508170000000002
 30
0.0
 10
-0.6438
 20
13.793680000000002
 30
0.0
 10
-0.3441900000000001
 20
13.860650000000001
 30
0.0
 10
0.4629700000000001
 20
13.240290000000002
 30
0.0
 10
0.4629700000000001
 20
13.240290000000002
 30
0.0
 10
0.29378
 20
13.240290000000002
 30
0.0
 10
0.14574
 20
13.197990000000001
 30
0.0
 10
-0.01286
 20
13.240290000000002
 30
0.0
 10
-0.01286
 20
13.240290000000002
 30
0.0
 10
-0.01286
 20
13.240290000000002
 30
0.0
 10
-0.3441900000000001
 20
13.286110000000001
 30
0.0
 10
-0.3441900000000001
 20
13.286110000000001
 30
0.0
 10
-0.3441900000000001
 20
13.286110000000001
 30
0.0
 10
-0.4569900000000001
 20
13.374230000000001
 30
0.0
 10
-0.21378
 20
13.395380000000001
 30
0.0
 10
-0.19615
 20
13.462350000000001
 30
0.0
 10
-0.19615
 20
13.462350000000001
 30
0.0
 10
-0.9222600000000001
 20
13.4412
 30
0.0
 10
-1.4968000000000001
 20
12.91248
 30
0.0
 10
-1.9938000000000002
 20
12.426060000000001
 30
0.0
 10
-1.9938000000000002
 20
12.426060000000001
 30
0.0
 10
-2.3110300000000001
 20
12.35909
 30
0.0
 10
-1.7611600000000001
 20
12.82436
 30
0.0
 10
-1.8915800000000003
 20
13.064050000000002
 30
0.0
 10
-1.8915800000000003
 20
13.064050000000002
 30
0.0
 10
-2.3744800000000001
 20
12.979450000000002
 30
0.0
 10
-2.2546300000000001
 20
12.337940000000001
 30
0.0
 10
-2.3004600000000002
 20
12.031280000000001
 30
0.0
 10
-2.3004600000000002
 20
12.031280000000001
 30
0.0
 10
-2.4026700000000001
 20
12.052430000000001
 30
0.0
 10
-2.5648200000000001
 20
12.161700000000002
 30
0.0
 10
-2.6388400000000001
 20
12.073580000000002
 30
0.0
 10
-2.6388400000000001
 20
12.073580000000002
 30
0.0
 10
-1.7153400000000001
 20
11.410920000000001
 30
0.0
 10
-0.6861
 20
10.727110000000001
 30
0.0
 10
0.17394
 20
9.9551800000000004
 30
0.0
 10
0.17394
 20
9.9551800000000004
 30
0.0
 10
-0.03401
 20
9.9128800000000012
 30
0.0
 10
-0.22788
 20
9.9128800000000012
 30
0.0
 10
-0.40412
 20
9.9798500000000008
 30
0.0
 10
-0.40412
 20
9.9798500000000008
 30
0.0
 10
-0.62265
 20
10.22306
 30
0.0
 10
-1.03505
 20
10.13142
 30
0.0
 10
-1.26417
 20
9.9551800000000004
 30
0.0
 10
-1.26417
 20
9.9551800000000004
 30
0.0
 10
-1.4368800000000002
 20
9.8247600000000013
 30
0.0
 10
-1.3699100000000002
 20
9.7366400000000013
 30
0.0
 10
-1.3099900000000002
 20
9.6027000000000005
 30
0.0
 10
-1.3099900000000002
 20
9.6027000000000005
 30
0.0
 10
-1.16547
 20
9.7366400000000013
 30
0.0
 10
-0.9328400000000001
 20
9.9798500000000008
 30
0.0
 10
-1.0068600000000001
 20
9.6485200000000013
 30
0.0
 10
-1.0068600000000001
 20
9.6485200000000013
 30
0.0
 10
-0.80242
 20
9.9340300000000017
 30
0.0
 10
-0.6684800000000001
 20
9.5604000000000013
 30
0.0
 10
-0.7566000000000001
 20
9.3841600000000014
 30
0.0
 10
-0.7566000000000001
 20
9.3841600000000014
 30
0.0
 10
-0.44641
 20
9.3383400000000005
 30
0.0
 10
-0.05516
 20
9.8459099999999999
 30
0.0
 10
0.396
 20
9.8247600000000013
 30
0.0
 10
0.396
 20
9.8247600000000013
 30
0.0
 10
-0.04811
 20
9.5604000000000013
 30
0.0
 10
-0.19968
 20
9.0457800000000006
 30
0.0
 10
-0.6473300000000001
 20
8.8237200000000016
 30
0.0
  0
SPLINE
  5
28
100
AcDbEntity
  8
Ebene 1
 62
     7
100
AcDbSpline
210
0.0
220
0.0
230
1.0
 70
     1
 71
     3
 72
    12
 73
     8
 74
     0
 42
0.0000000001
 43
0.0000000001
 40
0.0
 40
0.0
 40
0.0
 40
0.0
 40
0.5
 40
0.5
 40
0.5
 40
0.5
 40
1.0
 40
1.0
 40
1.0
 40
1.0
 10
0.64273
 20
13.35308
 30
0.0
 10
0.7308500000000001
 20
13.307260000000001
 30
0.0
 10
0.8295500000000001
 20
13.26496
 30
0.0
 10
0.8824200000000001
 20
13.17684
 30
0.0
 10
0.8824200000000001
 20
13.17684
 30
0.0
 10
0.78373
 20
13.197990000000001
 30
0.0
 10
0.69913
 20
13.26496
 30
0.0
 10
0.64273
 20
13.35308
 30
0.0
  0
SPLINE
  5
29
100
AcDbEntity
  8
Ebene 1
 62
     7
100
AcDbSpline
210
0.0
220
0.0
230
1.0
 70
     1
 71
     3
 72
    12
 73
     8
 74
     0
 42
0.0000000001
 43
0.0000000001
 40
0.0
 40
0.0
 40
0.0
 40
0.0
 40
0.5
 40
0.5
 40
0.5
 40
0.5
 40
1.0
 40
1.0
 40
1.0
 40
1.0
 10
1.2807200000000001
 20
12.954780000000001
 30
0.0
 10
1.3335900000000001
 20
12.954780000000001
 30
0.0
 10
1.4076200000000001
 20
12.954780000000001
 30
0.0
 10
1.4322900000000001
 20
12.91248
 30
0.0
 10
1.4322900000000001
 20
12.91248
 30
0.0
 10
1.4005700000000001
 20
12.866660000000001
 30
0.0
 10
1.2807200000000001
 20
12.887810000000002
 30
0.0
 10
1.2807200000000001
 20
12.954780000000001
 30
0.0
  0
SPLINE
  5
2A
100
AcDbEntity
  8
Ebene 1
 62
     7
100
AcDbSpline
210
0.0
220
0.0
230
1.0
 70
     1
 71
     3
 72
    16
 73
    12
 74
     0
 42
0.0000000001
 43
0.0000000001
 40
0.0
 40
0.0
 40
0.0
 40
0.0
 40
0.3333333333333333
 40
0.3333333333333333
 40
0.3333333333333333
 40
0.3333333333333333
 40
0.6666666666666666
 40
0.6666666666666666
 40
0.6666666666666666
 40
0.6666666666666666
 40
1.0
 40
1.0
 40
1.0
 40
1.0
 10
1.0833300000000001
 20
12.778540000000001
 30
0.0
 10
1.0833300000000001
 20
12.778540000000001
 30
0.0
 10
1.2807200000000001
 20
12.757390000000001
 30
0.0
 10
1.2807200000000001
 20
12.757390000000001
 30
0.0
 10
1.2807200000000001
 20
12.757390000000001
 30
0.0
 10
1.2807200000000001
 20
12.690420000000001
 30
0.0
 10
1.3089200000000001
 20
12.581150000000001
 30
0.0
 10
1.2349000000000001
 20
12.535330000000002
 30
0.0
 10
1.2349000000000001
 20
12.535330000000002
 30
0.0
 10
1.1291600000000002
 20
12.535330000000002
 30
0.0
 10
1.0093100000000002
 20
12.669270000000001
 30
0.0
 10
1.0833300000000001
 20
12.778540000000001
 30
0.0
  0
SPLINE
  5
2B
100
AcDbEntity
  8
Ebene 1
100
AcDbSpline
210
0.0
220
0.0
230
1.0
 70
     1
 71
     3
 72
    24
 73
    20
 74
     0
 42
0.0000000001
 43
0.0000000001
 40
0.0
 40
0.0
 40
0.0
 40
0.0
 40
0.2
 40
0.2
 40
0.2
 40
0.2
 40
0.4
 40
0.4
 40
0.4
 40
0.4
 40
0.6000000000000001
 40
0.6000000000000001
 40
0.6000000000000001
 40
0.6000000000000001
 40
0.8
 40
0.8
 40
0.8
 40
0.8
 40
1.0
 40
1.0
 40
1.0
 40
1.0
 10
-2.9701700000000004
 20
12.031280000000001
 30
0.0
 10
-2.70228
 20
12.052430000000001
 30
0.0
 10
-2.4872700000000001
 20
11.897340000000002
 30
0.0
 10
-2.3357000000000001
 20
11.699950000000001
 30
0.0
 10
-2.3357000000000001
 20
11.699950000000001
 30
0.0
 10
-2.2757800000000001
 20
11.632980000000002
 30
0.0
 10
-2.2158600000000002
 20
11.56601
 30
0.0
 10
-2.2229100000000002
 20
11.47789
 30
0.0
 10
-2.2229100000000002
 20
11.47789
 30
0.0
 10
-2.5048900000000001
 20
11.721100000000002
 30
0.0
 10
-2.9278700000000004
 20
12.073580000000002
 30
0.0
 10
-3.2803500000000003
 20
11.763400000000001
 30
0.0
 10
-3.2803500000000003
 20
11.763400000000001
 30
0.0
 10
-3.2803500000000003
 20
11.763400000000001
 30
0.0
 10
-3.3578900000000003
 20
11.763400000000001
 30
0.0
 10
-3.3578900000000003
 20
11.763400000000001
 30
0.0
 10
-3.3578900000000003
 20
11.763400000000001
 30
0.0
 10
-3.2733000000000003
 20
11.91849
 30
0.0
 10
-3.0970600000000004
 20
11.964310000000001
 30
0.0
 10
-2.9701700000000004
 20
12.031280000000001
 30
0.0
  0
SPLINE
  5
2C
100
AcDbEntity
  8
Ebene 1
100
AcDbSpline
210
0.0
220
0.0
230
1.0
 70
     1
 71
     3
 72
    12
 73
     8
 74
     0
 42
0.0000000001
 43
0.0000000001
 40
0.0
 40
0.0
 40
0.0
 40
0.0
 40
0.5
 40
0.5
 40
0.5
 40
0.5
 40
1.0
 40
1.0
 40
1.0
 40
1.0
 10
-3.2345300000000003
 20
11.74225
 30
0.0
 10
-2.9419700000000004
 20
11.74225
 30
0.0
 10
-3.1182100000000004
 20
11.38977
 30
0.0
 10
-3.3226500000000003
 20
11.410920000000001
 30
0.0
 10
-3.3226500000000003
 20
11.410920000000001
 30
0.0
 10
-3.4565900000000003
 20
11.499040000000001
 30
0.0
 10
-3.3649400000000003
 20
11.721100000000002
 30
0.0
 10
-3.2345300000000003
 20
11.74225
 30
0.0
  0
SPLINE
  5
2D
100
AcDbEntity
  8
Ebene 1
 62
     7
100
AcDbSpline
210
0.0
220
0.0
230
1.0
 70
     1
 71
     3
 72
    12
 73
     8
 74
     0
 42
0.0000000001
 43
0.0000000001
 40
0.0
 40
0.0
 40
0.0
 40
0.0
 40
0.5
 40
0.5
 40
0.5
 40
0.5
 40
1.0
 40
1.0
 40
1.0
 40
1.0
 10
5.4294100000000007
 20
10.727110000000001
 30
0.0
 10
5.4540800000000003
 20
10.550870000000002
 30
0.0
 10
5.3906300000000007
 20
10.265360000000001
 30
0.0
 10
5.2143900000000007
 20
10.13142
 30
0.0
 10
5.2143900000000007
 20
10.13142
 30
0.0
 10
5.2531700000000008
 20
10.353480000000001
 30
0.0
 10
5.2989900000000008
 20
10.57554
 30
0.0
 10
5.4294100000000007
 20
10.727110000000001
 30
0.0
  0
SPLINE
  5
2E
100
AcDbEntity
  8
Ebene 1
 62
     7
100
AcDbSpline
210
0.0
220
0.0
230
1.0
 70
     1
 71
     3
 72
    32
 73
    28
 74
     0
 42
0.0000000001
 43
0.0000000001
 40
0.0
 40
0.0
 40
0.0
 40
0.0
 40
0.1428571428571429
 40
0.1428571428571429
 40
0.1428571428571429
 40
0.1428571428571429
 40
0.2857142857142857
 40
0.2857142857142857
 40
0.2857142857142857
 40
0.2857142857142857
 40
0.4285714285714286
 40
0.4285714285714286
 40
0.4285714285714286
 40
0.4285714285714286
 40
0.5714285714285714
 40
0.5714285714285714
 40
0.5714285714285714
 40
0.5714285714285714
 40
0.7142857142857142
 40
0.7142857142857142
 40
0.7142857142857142
 40
0.7142857142857142
 40
0.857142857142857
 40
0.857142857142857
 40
0.857142857142857
 40
0.857142857142857
 40
1.0
 40
1.0
 40
1.0
 40
1.0
 10
5.0099600000000004
 20
9.9340300000000017
 30
0.0
 10
5.0099600000000004
 20
9.9340300000000017
 30
0.0
 10
5.0734000000000004
 20
9.9128800000000012
 30
0.0
 10
5.0734000000000004
 20
9.9128800000000012
 30
0.0
 10
5.0734000000000004
 20
9.9128800000000012
 30
0.0
 10
4.5623100000000001
 20
9.1621000000000006
 30
0.0
 10
4.0758900000000002
 20
8.3478700000000003
 30
0.0
 10
3.8855500000000003
 20
7.4666700000000006
 30
0.0
 10
3.8855500000000003
 20
7.4666700000000006
 30
0.0
 10
3.8644000000000003
 20
7.706360000000001
 30
0.0
 10
3.5330700000000004
 20
8.2597500000000004
 30
0.0
 10
3.9243200000000003
 20
8.2809000000000008
 30
0.0
 10
3.9243200000000003
 20
8.2809000000000008
 30
0.0
 10
3.9489900000000002
 20
8.3690200000000008
 30
0.0
 10
3.8855500000000003
 20
8.4148399999999999
 30
0.0
 10
3.8608700000000002
 20
8.4782900000000012
 30
0.0
 10
3.8608700000000002
 20
8.4782900000000012
 30
0.0
 10
3.8820200000000002
 20
8.5664100000000012
 30
0.0
 10
3.9948100000000002
 20
8.4782900000000012
 30
0.0
 10
4.0335900000000002
 20
8.5452600000000007
 30
0.0
 10
4.0335900000000002
 20
8.5452600000000007
 30
0.0
 10
4.0335900000000002
 20
8.5452600000000007
 30
0.0
 10
4.0230100000000002
 20
8.7673200000000016
 30
0.0
 10
4.0230100000000002
 20
8.7673200000000016
 30
0.0
 10
4.0230100000000002
 20
8.7673200000000016
 30
0.0
 10
4.3895900000000001
 20
9.095130000000001
 30
0.0
 10
4.6892000000000005
 20
9.5392500000000009
 30
0.0
 10
5.0099600000000004
 20
9.9340300000000017
 30
0.0
  0
SPLINE
  5
2F
100
AcDbEntity
  8
Ebene 1
 62
     7
100
AcDbSpline
210
0.0
220
0.0
230
1.0
 70
     1
 71
     3
 72
    24
 73
    20
 74
     0
 42
0.0000000001
 43
0.0000000001
 40
0.0
 40
0.0
 40
0.0
 40
0.0
 40
0.2
 40
0.2
 40
0.2
 40
0.2
 40
0.4
 40
0.4
 40
0.4
 40
0.4
 40
0.6000000000000001
 40
0.6000000000000001
 40
0.6000000000000001
 40
0.6000000000000001
 40
0.8
 40
0.8
 40
0.8
 40
0.8
 40
1.0
 40
1.0
 40
1.0
 40
1.0
 10
5.4928500000000007
 20
9.66967
 30
0.0
 10
5.5316300000000007
 20
9.66967
 30
0.0
 10
5.5774500000000007
 20
9.66967
 30
0.0
 10
5.6021200000000002
 20
9.6485200000000013
 30
0.0
 10
5.6021200000000002
 20
9.6485200000000013
 30
0.0
 10
5.6021200000000002
 20
9.6485200000000013
 30
0.0
 10
5.5598200000000002
 20
9.4511300000000009
 30
0.0
 10
5.5598200000000002
 20
9.4511300000000009
 30
0.0
 10
5.5598200000000002
 20
9.4511300000000009
 30
0.0
 10
5.5598200000000002
 20
9.4511300000000009
 30
0.0
 10
5.6479400000000002
 20
9.3383400000000005
 30
0.0
 10
5.6479400000000002
 20
9.3383400000000005
 30
0.0
 10
5.6479400000000002
 20
9.3383400000000005
 30
0.0
 10
5.5704000000000002
 20
8.8554400000000015
 30
0.0
 10
5.7078700000000007
 20
8.4148399999999999
 30
0.0
 10
5.5774500000000007
 20
7.9284200000000009
 30
0.0
 10
5.5774500000000007
 20
7.9284200000000009
 30
0.0
 10
5.4681800000000003
 20
8.4782900000000012
 30
0.0
 10
5.3166100000000007
 20
9.1198000000000015
 30
0.0
 10
5.4928500000000007
 20
9.66967
 30
0.0
  0
SPLINE
  5
30
100
AcDbEntity
  8
Ebene 1
 62
     7
100
AcDbSpline
210
0.0
220
0.0
230
1.0
 70
     1
 71
     3
 72
    88
 73
    84
 74
     0
 42
0.0000000001
 43
0.0000000001
 40
0.0
 40
0.0
 40
0.0
 40
0.0
 40
0.0476190476190476
 40
0.0476190476190476
 40
0.0476190476190476
 40
0.0476190476190476
 40
0.0952380952380952
 40
0.0952380952380952
 40
0.0952380952380952
 40
0.0952380952380952
 40
0.1428571428571429
 40
0.1428571428571429
 40
0.1428571428571429
 40
0.1428571428571429
 40
0.1904761904761905
 40
0.1904761904761905
 40
0.1904761904761905
 40
0.1904761904761905
 40
0.2380952380952381
 40
0.2380952380952381
 40
0.2380952380952381
 40
0.2380952380952381
 40
0.2857142857142857
 40
0.2857142857142857
 40
0.2857142857142857
 40
0.2857142857142857
 40
0.3333333333333333
 40
0.3333333333333333
 40
0.3333333333333333
 40
0.3333333333333333
 40
0.3809523809523809
 40
0.3809523809523809
 40
0.3809523809523809
 40
0.3809523809523809
 40
0.4285714285714286
 40
0.4285714285714286
 40
0.4285714285714286
 40
0.4285714285714286
 40
0.4761904761904762
 40
0.4761904761904762
 40
0.4761904761904762
 40
0.4761904761904762
 40
0.5238095238095237
 40
0.5238095238095237
 40
0.5238095238095237
 40
0.5238095238095237
 40
0.5714285714285714
 40
0.5714285714285714
 40
0.5714285714285714
 40
0.5714285714285714
 40
0.6190476190476191
 40
0.6190476190476191
 40
0.6190476190476191
 40
0.6190476190476191
 40
0.6666666666666667
 40
0.6666666666666667
 40
0.6666666666666667
 40
0.6666666666666667
 40
0.7142857142857144
 40
0.7142857142857144
 40
0.7142857142857144
 40
0.7142857142857144
 40
0.7619047619047621
 40
0.7619047619047621
 40
0.7619047619047621
 40
0.7619047619047621
 40
0.8095238095238098
 40
0.8095238095238098
 40
0.8095238095238098
 40
0.8095238095238098
 40
0.8571428571428574
 40
0.8571428571428574
 40
0.8571428571428574
 40
0.8571428571428574
 40
0.9047619047619051
 40
0.9047619047619051
 40
0.9047619047619051
 40
0.9047619047619051
 40
0.9523809523809528
 40
0.9523809523809528
 40
0.9523809523809528
 40
0.9523809523809528
 40
1.0
 40
1.0
 40
1.0
 40
1.0
 10
-5.1520100000000006
 20
5.4152400000000007
 30
0.0
 10
-5.4551500000000006
 20
4.5763400000000001
 30
0.0
 10
-5.2789100000000007
 20
5.6584500000000002
 30
0.0
 10
-5.5714700000000006
 20
5.8981400000000006
 30
0.0
 10
-5.5714700000000006
 20
5.8981400000000006
 30
0.0
 10
-5.4904000000000002
 20
6.1202000000000005
 30
0.0
 10
-5.3599800000000002
 20
5.9862600000000006
 30
0.0
 10
-5.3317800000000002
 20
5.8346900000000002
 30
0.0
 10
-5.3317800000000002
 20
5.8346900000000002
 30
0.0
 10
-5.1238200000000003
 20
6.0532300000000001
 30
0.0
 10
-5.4939200000000001
 20
6.2541400000000005
 30
0.0
 10
-5.6631100000000005
 20
5.9862600000000006
 30
0.0
 10
-5.6631100000000005
 20
5.9862600000000006
 30
0.0
 10
-6.0473100000000004
 20
5.9439600000000006
 30
0.0
 10
-5.0850400000000002
 20
6.3845600000000005
 30
0.0
 10
-5.5714700000000006
 20
6.2541400000000005
 30
0.0
 10
-5.5714700000000006
 20
6.2541400000000005
 30
0.0
 10
-5.5714700000000006
 20
6.2541400000000005
 30
0.0
 10
-5.7089300000000005
 20
6.1625000000000005
 30
0.0
 10
-5.7089300000000005
 20
6.1625000000000005
 30
0.0
 10
-5.7089300000000005
 20
6.1625000000000005
 30
0.0
 10
-5.8746
 20
5.9862600000000006
 30
0.0
 10
-6.1565800000000008
 20
5.8981400000000006
 30
0.0
 10
-6.3821700000000003
 20
6.0320800000000006
 30
0.0
 10
-6.3821700000000003
 20
6.0320800000000006
 30
0.0
 10
-6.6042300000000003
 20
6.229470000000001
 30
0.0
 10
-6.3786400000000008
 20
6.5819500000000009
 30
0.0
 10
-6.3434000000000008
 20
6.8498300000000008
 30
0.0
 10
-6.3434000000000008
 20
6.8498300000000008
 30
0.0
 10
-6.6077600000000007
 20
6.6277700000000008
 30
0.0
 10
-6.5866100000000003
 20
7.2869100000000007
 30
0.0
 10
-6.6958800000000007
 20
7.5970900000000006
 30
0.0
 10
-6.6958800000000007
 20
7.5970900000000006
 30
0.0
 10
-6.6958800000000007
 20
7.5970900000000006
 30
0.0
 10
-6.7381700000000002
 20
7.7733300000000005
 30
0.0
 10
-6.7381700000000002
 20
7.7733300000000005
 30
0.0
 10
-6.7381700000000002
 20
7.7733300000000005
 30
0.0
 10
-6.7980900000000002
 20
8.0835100000000004
 30
0.0
 10
-6.9038400000000006
 20
7.8191500000000005
 30
0.0
 10
-6.8121900000000002
 20
7.664060000000001
 30
0.0
 10
-6.8121900000000002
 20
7.664060000000001
 30
0.0
 10
-6.8439200000000007
 20
7.5547900000000006
 30
0.0
 10
-6.7064500000000002
 20
7.3997000000000002
 30
0.0
 10
-6.8051400000000006
 20
7.3327300000000006
 30
0.0
 10
-6.8051400000000006
 20
7.3327300000000006
 30
0.0
 10
-7.5030500000000009
 20
8.8765900000000002
 30
0.0
 10
-5.4516200000000001
 20
9.9340300000000017
 30
0.0
 10
-4.1862200000000005
 20
9.3630100000000009
 30
0.0
 10
-4.1862200000000005
 20
9.3630100000000009
 30
0.0
 10
-3.6363500000000002
 20
9.1409500000000001
 30
0.0
 10
-3.2415800000000004
 20
8.4782900000000012
 30
0.0
 10
-3.3649400000000003
 20
7.9284200000000009
 30
0.0
 10
-3.3649400000000003
 20
7.9284200000000009
 30
0.0
 10
-3.3896200000000003
 20
8.2597500000000004
 30
0.0
 10
-3.5729100000000003
 20
8.7215000000000007
 30
0.0
 10
-3.9324400000000002
 20
8.9435600000000015
 30
0.0
 10
-3.9324400000000002
 20
8.9435600000000015
 30
0.0
 10
-3.6998000000000002
 20
8.2385999999999999
 30
0.0
 10
-3.6081500000000002
 20
7.3538800000000002
 30
0.0
 10
-3.2169000000000003
 20
6.6912200000000004
 30
0.0
 10
-3.2169000000000003
 20
6.6912200000000004
 30
0.0
 10
-3.3684700000000003
 20
6.4938300000000009
 30
0.0
 10
-3.6821800000000002
 20
6.4726800000000004
 30
0.0
 10
-3.9112900000000002
 20
6.4938300000000009
 30
0.0
 10
-3.9112900000000002
 20
6.4938300000000009
 30
0.0
 10
-3.7562000000000002
 20
6.3387400000000005
 30
0.0
 10
-3.6081500000000002
 20
6.3175900000000009
 30
0.0
 10
-3.8443200000000002
 20
6.1202000000000005
 30
0.0
 10
-3.8443200000000002
 20
6.1202000000000005
 30
0.0
 10
-3.9465300000000005
 20
6.2541400000000005
 30
0.0
 10
-4.13687
 20
6.4938300000000009
 30
0.0
 10
-4.3307400000000005
 20
6.4515300000000009
 30
0.0
 10
-4.3307400000000005
 20
6.4515300000000009
 30
0.0
 10
-4.1827000000000005
 20
6.2541400000000005
 30
0.0
 10
-4.2285200000000005
 20
5.9439600000000006
 30
0.0
 10
-4.1192500000000001
 20
5.7219000000000007
 30
0.0
 10
-4.1192500000000001
 20
5.7219000000000007
 30
0.0
 10
-4.4188600000000005
 20
5.6796000000000006
 30
0.0
 10
-4.8629800000000003
 20
5.4363900000000003
 30
0.0
 10
-5.1449700000000007
 20
5.6337800000000007
 30
0.0
 10
-5.1449700000000007
 20
5.6337800000000007
 30
0.0
 10
-5.2330900000000007
 20
5.5703300000000002
 30
0.0
 10
-5.1802100000000006
 20
5.4822100000000002
 30
0.0
 10
-5.1520100000000006
 20
5.4152400000000007
 30
0.0
  0
SPLINE
  5
31
100
AcDbEntity
  8
Ebene 1
100
AcDbSpline
210
0.0
220
0.0
230
1.0
 70
     1
 71
     3
 72
    20
 73
    16
 74
     0
 42
0.0000000001
 43
0.0000000001
 40
0.0
 40
0.0
 40
0.0
 40
0.0
 40
0.25
 40
0.25
 40
0.25
 40
0.25
 40
0.5
 40
0.5
 40
0.5
 40
0.5
 40
0.75
 40
0.75
 40
0.75
 40
0.75
 40
1.0
 40
1.0
 40
1.0
 40
1.0
 10
1.4393400000000001
 20
9.186770000000001
 30
0.0
 10
1.4393400000000001
 20
9.186770000000001
 30
0.0
 10
1.6578800000000002
 20
9.1409500000000001
 30
0.0
 10
1.6578800000000002
 20
9.1409500000000001
 30
0.0
 10
1.6578800000000002
 20
9.1409500000000001
 30
0.0
 10
1.6367300000000002
 20
9.1198000000000015
 30
0.0
 10
1.6332000000000002
 20
9.0528300000000002
 30
0.0
 10
1.5909000000000002
 20
9.0528300000000002
 30
0.0
 10
1.5909000000000002
 20
9.0528300000000002
 30
0.0
 10
0.76963
 20
9.0528300000000002
 30
0.0
 10
0.28321
 20
8.3690200000000008
 30
0.0
 10
-0.4287900000000001
 20
8.1046600000000009
 30
0.0
 10
-0.4287900000000001
 20
8.1046600000000009
 30
0.0
 10
0.07172
 20
8.6122300000000003
 30
0.0
 10
0.7520000000000001
 20
9.010530000000001
 30
0.0
 10
1.4393400000000001
 20
9.186770000000001
 30
0.0
  0
SPLINE
  5
32
100
AcDbEntity
  8
Ebene 1
100
AcDbSpline
210
0.0
220
0.0
230
1.0
 70
     1
 71
     3
 72
    20
 73
    16
 74
     0
 42
0.0000000001
 43
0.0000000001
 40
0.0
 40
0.0
 40
0.0
 40
0.0
 40
0.25
 40
0.25
 40
0.25
 40
0.25
 40
0.5
 40
0.5
 40
0.5
 40
0.5
 40
0.75
 40
0.75
 40
0.75
 40
0.75
 40
1.0
 40
1.0
 40
1.0
 40
1.0
 10
-0.01286
 20
7.9953900000000004
 30
0.0
 10
-0.01286
 20
7.9953900000000004
 30
0.0
 10
0.15984
 20
7.9953900000000004
 30
0.0
 10
0.15984
 20
7.9953900000000004
 30
0.0
 10
0.15984
 20
7.9953900000000004
 30
0.0
 10
0.17394
 20
7.9953900000000004
 30
0.0
 10
0.20566
 20
7.9953900000000004
 30
0.0
 10
0.20214
 20
7.9707200000000009
 30
0.0
 10
0.20214
 20
7.9707200000000009
 30
0.0
 10
0.20214
 20
7.9707200000000009
 30
0.0
 10
-0.11861
 20
7.8826000000000009
 30
0.0
 10
-0.11861
 20
7.8826000000000009
 30
0.0
 10
-0.11861
 20
7.8826000000000009
 30
0.0
 10
-0.20673
 20
7.9707200000000009
 30
0.0
 10
-0.04106
 20
7.9707200000000009
 30
0.0
 10
-0.01286
 20
7.9953900000000004
 30
0.0
  0
SPLINE
  5
33
100
AcDbEntity
  8
Ebene 1
100
AcDbSpline
210
0.0
220
0.0
230
1.0
 70
     1
 71
     3
 72
    36
 73
    32
 74
     0
 42
0.0000000001
 43
0.0000000001
 40
0.0
 40
0.0
 40
0.0
 40
0.0
 40
0.125
 40
0.125
 40
0.125
 40
0.125
 40
0.25
 40
0.25
 40
0.25
 40
0.25
 40
0.375
 40
0.375
 40
0.375
 40
0.375
 40
0.5
 40
0.5
 40
0.5
 40
0.5
 40
0.625
 40
0.625
 40
0.625
 40
0.625
 40
0.75
 40
0.75
 40
0.75
 40
0.75
 40
0.875
 40
0.875
 40
0.875
 40
0.875
 40
1.0
 40
1.0
 40
1.0
 40
1.0
 10
-4.5105000000000004
 20
7.9284200000000009
 30
0.0
 10
-4.5105000000000004
 20
7.9284200000000009
 30
0.0
 10
-4.42943
 20
7.9284200000000009
 30
0.0
 10
-4.42943
 20
7.9284200000000009
 30
0.0
 10
-4.42943
 20
7.9284200000000009
 30
0.0
 10
-4.4223800000000004
 20
7.6429100000000005
 30
0.0
 10
-4.6479700000000008
 20
7.7733300000000005
 30
0.0
 10
-4.7924900000000008
 20
7.618240000000001
 30
0.0
 10
-4.7924900000000008
 20
7.618240000000001
 30
0.0
 10
-4.7819100000000008
 20
7.4666700000000006
 30
0.0
 10
-4.8312600000000003
 20
7.2446100000000007
 30
0.0
 10
-5.0427500000000007
 20
7.2446100000000007
 30
0.0
 10
-5.0427500000000007
 20
7.2446100000000007
 30
0.0
 10
-5.1625900000000007
 20
7.3115800000000002
 30
0.0
 10
-5.2154600000000002
 20
7.618240000000001
 30
0.0
 10
-5.0357000000000003
 20
7.4208500000000006
 30
0.0
 10
-5.0357000000000003
 20
7.4208500000000006
 30
0.0
 10
-5.0251200000000003
 20
7.4208500000000006
 30
0.0
 10
-4.9934000000000003
 20
7.4208500000000006
 30
0.0
 10
-4.9969200000000003
 20
7.4420000000000002
 30
0.0
 10
-4.9969200000000003
 20
7.4420000000000002
 30
0.0
 10
-4.9969200000000003
 20
7.4420000000000002
 30
0.0
 10
-5.0145500000000007
 20
7.7310300000000005
 30
0.0
 10
-5.0145500000000007
 20
7.7310300000000005
 30
0.0
 10
-5.0145500000000007
 20
7.7310300000000005
 30
0.0
 10
-4.9370000000000003
 20
7.706360000000001
 30
0.0
 10
-4.9757800000000003
 20
7.575940000000001
 30
0.0
 10
-4.8911800000000003
 20
7.5970900000000006
 30
0.0
 10
-4.8911800000000003
 20
7.5970900000000006
 30
0.0
 10
-4.8277300000000007
 20
7.7733300000000005
 30
0.0
 10
-4.6585400000000003
 20
7.8614500000000005
 30
0.0
 10
-4.5105000000000004
 20
7.9284200000000009
 30
0.0
  0
SPLINE
  5
34
100
AcDbEntity
  8
Ebene 1
100
AcDbSpline
210
0.0
220
0.0
230
1.0
 70
     1
 71
     3
 72
    20
 73
    16
 74
     0
 42
0.0000000001
 43
0.0000000001
 40
0.0
 40
0.0
 40
0.0
 40
0.0
 40
0.25
 40
0.25
 40
0.25
 40
0.25
 40
0.5
 40
0.5
 40
0.5
 40
0.5
 40
0.75
 40
0.75
 40
0.75
 40
0.75
 40
1.0
 40
1.0
 40
1.0
 40
1.0
 10
-5.7018800000000001
 20
7.5970900000000006
 30
0.0
 10
-5.6666400000000001
 20
7.5970900000000006
 30
0.0
 10
-5.6208100000000005
 20
7.5970900000000006
 30
0.0
 10
-5.5996600000000001
 20
7.575940000000001
 30
0.0
 10
-5.5996600000000001
 20
7.575940000000001
 30
0.0
 10
-5.7582800000000001
 20
7.4208500000000006
 30
0.0
 10
-5.9979700000000005
 20
7.3327300000000006
 30
0.0
 10
-6.2059300000000004
 20
7.2657600000000002
 30
0.0
 10
-6.2059300000000004
 20
7.2657600000000002
 30
0.0
 10
-6.2905200000000008
 20
7.3538800000000002
 30
0.0
 10
-6.1283800000000008
 20
7.4208500000000006
 30
0.0
 10
-6.0614100000000004
 20
7.4420000000000002
 30
0.0
 10
-6.0614100000000004
 20
7.4420000000000002
 30
0.0
 10
-6.0614100000000004
 20
7.4420000000000002
 30
0.0
 10
-5.7018800000000001
 20
7.5970900000000006
 30
0.0
 10
-5.7018800000000001
 20
7.5970900000000006
 30
0.0
  0
SPLINE
  5
35
100
AcDbEntity
  8
Ebene 1
100
AcDbSpline
210
0.0
220
0.0
230
1.0
 70
     1
 71
     3
 72
    20
 73
    16
 74
     0
 42
0.0000000001
 43
0.0000000001
 40
0.0
 40
0.0
 40
0.0
 40
0.0
 40
0.25
 40
0.25
 40
0.25
 40
0.25
 40
0.5
 40
0.5
 40
0.5
 40
0.5
 40
0.75
 40
0.75
 40
0.75
 40
0.75
 40
1.0
 40
1.0
 40
1.0
 40
1.0
 10
-4.22499
 20
7.530120000000001
 30
0.0
 10
-3.7667700000000002
 20
7.618240000000001
 30
0.0
 10
-3.3578900000000003
 20
6.9802500000000007
 30
0.0
 10
-3.8055400000000001
 20
6.6912200000000004
 30
0.0
 10
-3.8055400000000001
 20
6.6912200000000004
 30
0.0
 10
-3.8055400000000001
 20
6.6912200000000004
 30
0.0
 10
-4.0487500000000001
 20
6.7581900000000008
 30
0.0
 10
-4.0487500000000001
 20
6.7581900000000008
 30
0.0
 10
-4.0487500000000001
 20
6.7581900000000008
 30
0.0
 10
-4.5774700000000008
 20
6.3634100000000009
 30
0.0
 10
-4.9757800000000003
 20
7.5970900000000006
 30
0.0
 10
-4.2919600000000004
 20
7.4666700000000006
 30
0.0
 10
-4.2919600000000004
 20
7.4666700000000006
 30
0.0
 10
-4.2567200000000005
 20
7.4666700000000006
 30
0.0
 10
-4.2179400000000005
 20
7.487820000000001
 30
0.0
 10
-4.22499
 20
7.530120000000001
 30
0.0
  0
SPLINE
  5
36
100
AcDbEntity
  8
Ebene 1
100
AcDbSpline
210
0.0
220
0.0
230
1.0
 70
     1
 71
     3
 72
    24
 73
    20
 74
     0
 42
0.0000000001
 43
0.0000000001
 40
0.0
 40
0.0
 40
0.0
 40
0.0
 40
0.2
 40
0.2
 40
0.2
 40
0.2
 40
0.4
 40
0.4
 40
0.4
 40
0.4
 40
0.6000000000000001
 40
0.6000000000000001
 40
0.6000000000000001
 40
0.6000000000000001
 40
0.8
 40
0.8
 40
0.8
 40
0.8
 40
1.0
 40
1.0
 40
1.0
 40
1.0
 10
0.46649
 20
7.4420000000000002
 30
0.0
 10
0.52642
 20
7.4208500000000006
 30
0.0
 10
0.6039600000000001
 20
7.4420000000000002
 30
0.0
 10
0.64273
 20
7.3997000000000002
 30
0.0
 10
0.64273
 20
7.3997000000000002
 30
0.0
 10
0.3537
 20
7.3327300000000006
 30
0.0
 10
0.01533
 20
7.2869100000000007
 30
0.0
 10
-0.25607
 20
7.2657600000000002
 30
0.0
 10
-0.25607
 20
7.2657600000000002
 30
0.0
 10
-0.25607
 20
7.2657600000000002
 30
0.0
 10
-0.10451
 20
7.3327300000000006
 30
0.0
 10
-0.10451
 20
7.3327300000000006
 30
0.0
 10
-0.10451
 20
7.3327300000000006
 30
0.0
 10
-0.10451
 20
7.3327300000000006
 30
0.0
 10
0.11402
 20
7.3785500000000006
 30
0.0
 10
0.11402
 20
7.3785500000000006
 30
0.0
 10
0.11402
 20
7.3785500000000006
 30
0.0
 10
0.11402
 20
7.3785500000000006
 30
0.0
 10
0.46649
 20
7.4420000000000002
 30
0.0
 10
0.46649
 20
7.4420000000000002
 30
0.0
  0
SPLINE
  5
37
100
AcDbEntity
  8
Ebene 1
100
AcDbSpline
210
0.0
220
0.0
230
1.0
 70
     1
 71
     3
 72
    20
 73
    16
 74
     0
 42
0.0000000001
 43
0.0000000001
 40
0.0
 40
0.0
 40
0.0
 40
0.0
 40
0.25
 40
0.25
 40
0.25
 40
0.25
 40
0.5
 40
0.5
 40
0.5
 40
0.5
 40
0.75
 40
0.75
 40
0.75
 40
0.75
 40
1.0
 40
1.0
 40
1.0
 40
1.0
 10
-5.5044900000000005
 20
7.2869100000000007
 30
0.0
 10
-5.1061900000000007
 20
7.2869100000000007
 30
0.0
 10
-5.0321700000000007
 20
6.6066200000000004
 30
0.0
 10
-5.4340000000000002
 20
6.5149800000000004
 30
0.0
 10
-5.4340000000000002
 20
6.5149800000000004
 30
0.0
 10
-5.5362200000000001
 20
6.3634100000000009
 30
0.0
 10
-5.6807300000000005
 20
6.229470000000001
 30
0.0
 10
-5.8781200000000009
 20
6.2752900000000009
 30
0.0
 10
-5.8781200000000009
 20
6.2752900000000009
 30
0.0
 10
-6.1037100000000004
 20
6.3175900000000009
 30
0.0
 10
-6.3434000000000008
 20
6.5608000000000004
 30
0.0
 10
-6.2235500000000004
 20
6.8040100000000008
 30
0.0
 10
-6.2235500000000004
 20
6.8040100000000008
 30
0.0
 10
-5.9274700000000005
 20
6.8498300000000008
 30
0.0
 10
-5.7723800000000001
 20
7.2023100000000007
 30
0.0
 10
-5.5044900000000005
 20
7.2869100000000007
 30
0.0
  0
SPLINE
  5
38
100
AcDbEntity
  8
Ebene 1
100
AcDbSpline
210
0.0
220
0.0
230
1.0
 70
     1
 71
     3
 72
    28
 73
    24
 74
     0
 42
0.0000000001
 43
0.0000000001
 40
0.0
 40
0.0
 40
0.0
 40
0.0
 40
0.1666666666666667
 40
0.1666666666666667
 40
0.1666666666666667
 40
0.1666666666666667
 40
0.3333333333333333
 40
0.3333333333333333
 40
0.3333333333333333
 40
0.3333333333333333
 40
0.5
 40
0.5
 40
0.5
 40
0.5
 40
0.6666666666666666
 40
0.6666666666666666
 40
0.6666666666666666
 40
0.6666666666666666
 40
0.8333333333333333
 40
0.8333333333333333
 40
0.8333333333333333
 40
0.8333333333333333
 40
1.0
 40
1.0
 40
1.0
 40
1.0
 10
1.5027800000000002
 20
7.2446100000000007
 30
0.0
 10
1.56976
 20
7.2446100000000007
 30
0.0
 10
1.6719700000000002
 20
7.2657600000000002
 30
0.0
 10
1.6966500000000002
 20
7.1776400000000002
 30
0.0
 10
1.6966500000000002
 20
7.1776400000000002
 30
0.0
 10
1.6966500000000002
 20
7.1776400000000002
 30
0.0
 10
1.41466
 20
7.1564900000000007
 30
0.0
 10
1.41466
 20
7.1564900000000007
 30
0.0
 10
1.41466
 20
7.1564900000000007
 30
0.0
 10
1.2913000000000001
 20
6.9802500000000007
 30
0.0
 10
1.0163600000000002
 20
7.0895200000000003
 30
0.0
 10
0.8260200000000001
 20
7.0683700000000007
 30
0.0
 10
0.8260200000000001
 20
7.0683700000000007
 30
0.0
 10
0.8013500000000001
 20
7.1106700000000007
 30
0.0
 10
0.8330700000000001
 20
7.1564900000000007
 30
0.0
 10
0.8718500000000001
 20
7.2023100000000007
 30
0.0
 10
0.8718500000000001
 20
7.2023100000000007
 30
0.0
 10
0.8718500000000001
 20
7.2023100000000007
 30
0.0
 10
1.1714500000000001
 20
7.2234600000000002
 30
0.0
 10
1.1714500000000001
 20
7.2234600000000002
 30
0.0
 10
1.1714500000000001
 20
7.2234600000000002
 30
0.0
 10
1.1714500000000001
 20
7.2234600000000002
 30
0.0
 10
1.5027800000000002
 20
7.2446100000000007
 30
0.0
 10
1.5027800000000002
 20
7.2446100000000007
 30
0.0
  0
SPLINE
  5
39
100
AcDbEntity
  8
Ebene 1
100
AcDbSpline
210
0.0
220
0.0
230
1.0
 70
     1
 71
     3
 72
    24
 73
    20
 74
     0
 42
0.0000000001
 43
0.0000000001
 40
0.0
 40
0.0
 40
0.0
 40
0.0
 40
0.2
 40
0.2
 40
0.2
 40
0.2
 40
0.4
 40
0.4
 40
0.4
 40
0.4
 40
0.6000000000000001
 40
0.6000000000000001
 40
0.6000000000000001
 40
0.6000000000000001
 40
0.8
 40
0.8
 40
0.8
 40
0.8
 40
1.0
 40
1.0
 40
1.0
 40
1.0
 10
-4.8876600000000003
 20
6.8709800000000003
 30
0.0
 10
-4.8876600000000003
 20
6.8709800000000003
 30
0.0
 10
-4.8277300000000007
 20
6.8709800000000003
 30
0.0
 10
-4.8277300000000007
 20
6.8709800000000003
 30
0.0
 10
-4.8277300000000007
 20
6.8709800000000003
 30
0.0
 10
-4.7078900000000008
 20
6.6066200000000004
 30
0.0
 10
-4.42591
 20
6.4515300000000009
 30
0.0
 10
-4.31311
 20
6.1871700000000009
 30
0.0
 10
-4.31311
 20
6.1871700000000009
 30
0.0
 10
-4.35541
 20
5.8769900000000002
 30
0.0
 10
-4.6127200000000004
 20
6.0990500000000001
 30
0.0
 10
-4.7924900000000008
 20
6.0990500000000001
 30
0.0
 10
-4.7924900000000008
 20
6.0990500000000001
 30
0.0
 10
-4.8806100000000008
 20
6.0320800000000006
 30
0.0
 10
-4.8806100000000008
 20
5.8346900000000002
 30
0.0
 10
-5.0145500000000007
 20
5.8558400000000006
 30
0.0
 10
-5.0145500000000007
 20
5.8558400000000006
 30
0.0
 10
-5.1766900000000007
 20
6.1625000000000005
 30
0.0
 10
-5.0498000000000003
 20
6.6066200000000004
 30
0.0
 10
-4.8876600000000003
 20
6.8709800000000003
 30
0.0
  0
SPLINE
  5
3A
100
AcDbEntity
  8
Ebene 1
100
AcDbSpline
210
0.0
220
0.0
230
1.0
 70
     1
 71
     3
 72
    28
 73
    24
 74
     0
 42
0.0000000001
 43
0.0000000001
 40
0.0
 40
0.0
 40
0.0
 40
0.0
 40
0.1666666666666667
 40
0.1666666666666667
 40
0.1666666666666667
 40
0.1666666666666667
 40
0.3333333333333333
 40
0.3333333333333333
 40
0.3333333333333333
 40
0.3333333333333333
 40
0.5
 40
0.5
 40
0.5
 40
0.5
 40
0.6666666666666666
 40
0.6666666666666666
 40
0.6666666666666666
 40
0.6666666666666666
 40
0.8333333333333333
 40
0.8333333333333333
 40
0.8333333333333333
 40
0.8333333333333333
 40
1.0
 40
1.0
 40
1.0
 40
1.0
 10
1.1961300000000001
 20
6.8709800000000003
 30
0.0
 10
1.3089200000000001
 20
6.8709800000000003
 30
0.0
 10
1.42171
 20
6.8498300000000008
 30
0.0
 10
1.5239300000000002
 20
6.8251600000000003
 30
0.0
 10
1.5239300000000002
 20
6.8251600000000003
 30
0.0
 10
1.56976
 20
6.8498300000000008
 30
0.0
 10
1.6085300000000002
 20
6.7828600000000003
 30
0.0
 10
1.5873800000000002
 20
6.7370400000000004
 30
0.0
 10
1.5873800000000002
 20
6.7370400000000004
 30
0.0
 10
1.4005700000000001
 20
6.7828600000000003
 30
0.0
 10
1.2525200000000001
 20
6.5819500000000009
 30
0.0
 10
1.0833300000000001
 20
6.7158900000000008
 30
0.0
 10
1.0833300000000001
 20
6.7158900000000008
 30
0.0
 10
1.0304600000000002
 20
6.6912200000000004
 30
0.0
 10
0.9282400000000001
 20
6.6735900000000008
 30
0.0
 10
0.8859500000000001
 20
6.7158900000000008
 30
0.0
 10
0.8859500000000001
 20
6.7158900000000008
 30
0.0
 10
0.9211900000000001
 20
6.7370400000000004
 30
0.0
 10
0.99521
 20
6.7581900000000008
 30
0.0
 10
1.0410400000000002
 20
6.7370400000000004
 30
0.0
 10
1.0410400000000002
 20
6.7370400000000004
 30
0.0
 10
1.0410400000000002
 20
6.7370400000000004
 30
0.0
 10
1.1961300000000001
 20
6.8709800000000003
 30
0.0
 10
1.1961300000000001
 20
6.8709800000000003
 30
0.0
  0
SPLINE
  5
3B
100
AcDbEntity
  8
Ebene 1
 62
     7
100
AcDbSpline
210
0.0
220
0.0
230
1.0
 70
     1
 71
     3
 72
    76
 73
    72
 74
     0
 42
0.0000000001
 43
0.0000000001
 40
0.0
 40
0.0
 40
0.0
 40
0.0
 40
0.0555555555555556
 40
0.0555555555555556
 40
0.0555555555555556
 40
0.0555555555555556
 40
0.1111111111111111
 40
0.1111111111111111
 40
0.1111111111111111
 40
0.1111111111111111
 40
0.1666666666666667
 40
0.1666666666666667
 40
0.1666666666666667
 40
0.1666666666666667
 40
0.2222222222222222
 40
0.2222222222222222
 40
0.2222222222222222
 40
0.2222222222222222
 40
0.2777777777777778
 40
0.2777777777777778
 40
0.2777777777777778
 40
0.2777777777777778
 40
0.3333333333333334
 40
0.3333333333333334
 40
0.3333333333333334
 40
0.3333333333333334
 40
0.388888888888889
 40
0.388888888888889
 40
0.388888888888889
 40
0.388888888888889
 40
0.4444444444444445
 40
0.4444444444444445
 40
0.4444444444444445
 40
0.4444444444444445
 40
0.5000000000000001
 40
0.5000000000000001
 40
0.5000000000000001
 40
0.5000000000000001
 40
0.5555555555555557
 40
0.5555555555555557
 40
0.5555555555555557
 40
0.5555555555555557
 40
0.6111111111111113
 40
0.6111111111111113
 40
0.6111111111111113
 40
0.6111111111111113
 40
0.6666666666666669
 40
0.6666666666666669
 40
0.6666666666666669
 40
0.6666666666666669
 40
0.7222222222222224
 40
0.7222222222222224
 40
0.7222222222222224
 40
0.7222222222222224
 40
0.777777777777778
 40
0.777777777777778
 40
0.777777777777778
 40
0.777777777777778
 40
0.8333333333333336
 40
0.8333333333333336
 40
0.8333333333333336
 40
0.8333333333333336
 40
0.8888888888888892
 40
0.8888888888888892
 40
0.8888888888888892
 40
0.8888888888888892
 40
0.9444444444444448
 40
0.9444444444444448
 40
0.9444444444444448
 40
0.9444444444444448
 40
1.0
 40
1.0
 40
1.0
 40
1.0
 10
0.6674100000000001
 20
4.88652
 30
0.0
 10
0.7520000000000001
 20
4.8407
 30
0.0
 10
0.8824200000000001
 20
4.8653700000000004
 30
0.0
 10
0.9282400000000001
 20
4.9499700000000004
 30
0.0
 10
0.9282400000000001
 20
4.9499700000000004
 30
0.0
 10
0.43125
 20
5.2178500000000003
 30
0.0
 10
0.5087900000000001
 20
5.8100200000000006
 30
0.0
 10
0.3360800000000001
 20
6.1871700000000009
 30
0.0
 10
0.3360800000000001
 20
6.1871700000000009
 30
0.0
 10
0.28321
 20
6.1625000000000005
 30
0.0
 10
0.25853
 20
6.0990500000000001
 30
0.0
 10
0.24091
 20
6.0532300000000001
 30
0.0
 10
0.24091
 20
6.0532300000000001
 30
0.0
 10
0.17394
 20
5.8769900000000002
 30
0.0
 10
0.19861
 20
6.1202000000000005
 30
0.0
 10
0.14221
 20
6.1625000000000005
 30
0.0
 10
0.14221
 20
6.1625000000000005
 30
0.0
 10
0.08934
 20
6.0320800000000006
 30
0.0
 10
-0.02696
 20
6.0990500000000001
 30
0.0
 10
-0.03754
 20
5.9439600000000006
 30
0.0
 10
-0.03754
 20
5.9439600000000006
 30
0.0
 10
-0.40412
 20
6.2541400000000005
 30
0.0
 10
-0.8764400000000001
 20
5.9862600000000006
 30
0.0
 10
-1.17605
 20
5.8100200000000006
 30
0.0
 10
-1.17605
 20
5.8100200000000006
 30
0.0
 10
-1.09145
 20
6.2083200000000005
 30
0.0
 10
-0.7354500000000001
 20
6.4726800000000004
 30
0.0
 10
-0.3653400000000001
 20
6.5608000000000004
 30
0.0
 10
-0.3653400000000001
 20
6.5608000000000004
 30
0.0
 10
0.20214
 20
6.4515300000000009
 30
0.0
 10
0.6956100000000001
 20
6.2964400000000005
 30
0.0
 10
1.2631000000000001
 20
6.2752900000000009
 30
0.0
 10
1.2631000000000001
 20
6.2752900000000009
 30
0.0
 10
0.8366000000000001
 20
5.9651100000000001
 30
0.0
 10
1.7037000000000002
 20
6.0320800000000006
 30
0.0
 10
1.9610100000000001
 20
6.0990500000000001
 30
0.0
 10
1.9610100000000001
 20
6.0990500000000001
 30
0.0
 10
2.3099600000000002
 20
6.3175900000000009
 30
0.0
 10
2.1231500000000003
 20
6.3845600000000005
 30
0.0
 10
1.8341200000000002
 20
6.2083200000000005
 30
0.0
 10
1.8341200000000002
 20
6.2083200000000005
 30
0.0
 10
1.7424700000000002
 20
6.2083200000000005
 30
0.0
 10
1.6226300000000002
 20
6.0990500000000001
 30
0.0
 10
1.5521300000000002
 20
6.1871700000000009
 30
0.0
 10
1.5521300000000002
 20
6.1871700000000009
 30
0.0
 10
2.0138800000000003
 20
6.5396500000000009
 30
0.0
 10
2.7364600000000001
 20
6.9802500000000007
 30
0.0
 10
3.1841100000000004
 20
6.3175900000000009
 30
0.0
 10
3.1841100000000004
 20
6.3175900000000009
 30
0.0
 10
3.3497800000000004
 20
6.1871700000000009
 30
0.0
 10
3.7586500000000003
 20
6.2752900000000009
 30
0.0
 10
3.7269300000000003
 20
5.9651100000000001
 30
0.0
 10
3.7269300000000003
 20
5.9651100000000001
 30
0.0
 10
3.2369800000000004
 20
6.1871700000000009
 30
0.0
 10
2.6271900000000001
 20
6.6066200000000004
 30
0.0
 10
2.2147900000000003
 20
5.9862600000000006
 30
0.0
 10
2.2147900000000003
 20
5.9862600000000006
 30
0.0
 10
1.7600900000000002
 20
5.6126300000000002
 30
0.0
 10
1.0551400000000002
 20
5.6126300000000002
 30
0.0
 10
0.7167600000000001
 20
6.0990500000000001
 30
0.0
 10
0.7167600000000001
 20
6.0990500000000001
 30
0.0
 10
0.7167600000000001
 20
6.0990500000000001
 30
0.0
 10
0.8824200000000001
 20
5.8346900000000002
 30
0.0
 10
0.8824200000000001
 20
5.8346900000000002
 30
0.0
 10
0.8824200000000001
 20
5.8346900000000002
 30
0.0
 10
0.99521
 20
5.7219000000000007
 30
0.0
 10
0.9070900000000001
 20
5.7219000000000007
 30
0.0
 10
0.8930000000000001
 20
5.6584500000000002
 30
0.0
 10
0.8930000000000001
 20
5.6584500000000002
 30
0.0
 10
1.5873800000000002
 20
5.5245100000000003
 30
0.0
 10
1.3371200000000001
 20
4.2908300000000006
 30
0.0
 10
0.6674100000000001
 20
4.88652
 30
0.0
  0
SPLINE
  5
3C
100
AcDbEntity
  8
Ebene 1
 62
     7
100
AcDbSpline
210
0.0
220
0.0
230
1.0
 70
     1
 71
     3
 72
    60
 73
    56
 74
     0
 42
0.0000000001
 43
0.0000000001
 40
0.0
 40
0.0
 40
0.0
 40
0.0
 40
0.0714285714285714
 40
0.0714285714285714
 40
0.0714285714285714
 40
0.0714285714285714
 40
0.1428571428571429
 40
0.1428571428571429
 40
0.1428571428571429
 40
0.1428571428571429
 40
0.2142857142857143
 40
0.2142857142857143
 40
0.2142857142857143
 40
0.2142857142857143
 40
0.2857142857142857
 40
0.2857142857142857
 40
0.2857142857142857
 40
0.2857142857142857
 40
0.3571428571428571
 40
0.3571428571428571
 40
0.3571428571428571
 40
0.3571428571428571
 40
0.4285714285714285
 40
0.4285714285714285
 40
0.4285714285714285
 40
0.4285714285714285
 40
0.4999999999999999
 40
0.4999999999999999
 40
0.4999999999999999
 40
0.4999999999999999
 40
0.5714285714285713
 40
0.5714285714285713
 40
0.5714285714285713
 40
0.5714285714285713
 40
0.6428571428571427
 40
0.6428571428571427
 40
0.6428571428571427
 40
0.6428571428571427
 40
0.7142857142857141
 40
0.7142857142857141
 40
0.7142857142857141
 40
0.7142857142857141
 40
0.7857142857142855
 40
0.7857142857142855
 40
0.7857142857142855
 40
0.7857142857142855
 40
0.8571428571428569
 40
0.8571428571428569
 40
0.8571428571428569
 40
0.8571428571428569
 40
0.9285714285714283
 40
0.9285714285714283
 40
0.9285714285714283
 40
0.9285714285714283
 40
1.0
 40
1.0
 40
1.0
 40
1.0
 10
2.9373800000000001
 20
6.1413500000000001
 30
0.0
 10
3.2687100000000004
 20
6.2752900000000009
 30
0.0
 10
3.7798000000000003
 20
5.5914800000000007
 30
0.0
 10
3.3392000000000004
 20
5.6796000000000006
 30
0.0
 10
3.3392000000000004
 20
5.6796000000000006
 30
0.0
 10
3.6564300000000003
 20
5.4822100000000002
 30
0.0
 10
3.7128300000000003
 20
5.0169400000000008
 30
0.0
 10
3.4872400000000003
 20
4.7314300000000005
 30
0.0
 10
3.4872400000000003
 20
4.7314300000000005
 30
0.0
 10
3.4942900000000003
 20
4.6891300000000005
 30
0.0
 10
3.5542200000000004
 20
4.6644600000000001
 30
0.0
 10
3.5824100000000003
 20
4.7067600000000001
 30
0.0
 10
3.5824100000000003
 20
4.7067600000000001
 30
0.0
 10
3.6811100000000003
 20
4.88652
 30
0.0
 10
3.8009500000000003
 20
5.0627600000000008
 30
0.0
 10
3.9454700000000003
 20
5.2178500000000003
 30
0.0
 10
3.9454700000000003
 20
5.2178500000000003
 30
0.0
 10
4.0794100000000002
 20
5.3271200000000007
 30
0.0
 10
4.2450800000000006
 20
5.4152400000000007
 30
0.0
 10
4.4107400000000005
 20
5.4575400000000007
 30
0.0
 10
4.4107400000000005
 20
5.4575400000000007
 30
0.0
 10
4.4036900000000001
 20
4.8653700000000004
 30
0.0
 10
3.6247100000000003
 20
4.62216
 30
0.0
 10
3.3956000000000004
 20
4.0934400000000002
 30
0.0
 10
3.3956000000000004
 20
4.0934400000000002
 30
0.0
 10
3.0677900000000005
 20
4.2238600000000002
 30
0.0
 10
3.3603500000000004
 20
4.3789500000000006
 30
0.0
 10
3.3956000000000004
 20
4.5974900000000005
 30
0.0
 10
3.3956000000000004
 20
4.5974900000000005
 30
0.0
 10
3.4555200000000004
 20
4.75258
 30
0.0
 10
3.4555200000000004
 20
4.92882
 30
0.0
 10
3.3497800000000004
 20
5.0627600000000008
 30
0.0
 10
3.3497800000000004
 20
5.0627600000000008
 30
0.0
 10
3.3039500000000004
 20
5.1508800000000008
 30
0.0
 10
3.2475600000000004
 20
5.2601500000000003
 30
0.0
 10
3.1347600000000004
 20
5.3024500000000003
 30
0.0
 10
3.1347600000000004
 20
5.3024500000000003
 30
0.0
 10
3.0889400000000005
 20
5.3271200000000007
 30
0.0
 10
3.0536900000000005
 20
5.2813000000000008
 30
0.0
 10
3.0677900000000005
 20
5.2390000000000008
 30
0.0
 10
3.0677900000000005
 20
5.2390000000000008
 30
0.0
 10
3.3497800000000004
 20
5.0169400000000008
 30
0.0
 10
3.4520000000000004
 20
4.4670700000000005
 30
0.0
 10
3.0536900000000005
 20
4.3542800000000002
 30
0.0
 10
3.0536900000000005
 20
4.3542800000000002
 30
0.0
 10
3.2123100000000004
 20
4.5763400000000001
 30
0.0
 10
3.2475600000000004
 20
5.0627600000000008
 30
0.0
 10
2.8316300000000001
 20
5.0839100000000004
 30
0.0
 10
2.8316300000000001
 20
5.0839100000000004
 30
0.0
 10
3.05722
 20
5.3024500000000003
 30
0.0
 10
3.1241900000000005
 20
5.6337800000000007
 30
0.0
 10
3.3110000000000004
 20
5.8558400000000006
 30
0.0
 10
3.3110000000000004
 20
5.8558400000000006
 30
0.0
 10
3.1065700000000001
 20
5.8769900000000002
 30
0.0
 10
2.8316300000000001
 20
5.8346900000000002
 30
0.0
 10
2.9373800000000001
 20
6.1413500000000001
 30
0.0
  0
SPLINE
  5
3D
100
AcDbEntity
  8
Ebene 1
 62
     7
100
AcDbSpline
210
0.0
220
0.0
230
1.0
 70
     1
 71
     3
 72
    44
 73
    40
 74
     0
 42
0.0000000001
 43
0.0000000001
 40
0.0
 40
0.0
 40
0.0
 40
0.0
 40
0.1
 40
0.1
 40
0.1
 40
0.1
 40
0.2
 40
0.2
 40
0.2
 40
0.2
 40
0.3
 40
0.3
 40
0.3
 40
0.3
 40
0.4
 40
0.4
 40
0.4
 40
0.4
 40
0.5
 40
0.5
 40
0.5
 40
0.5
 40
0.6
 40
0.6
 40
0.6
 40
0.6
 40
0.7
 40
0.7
 40
0.7
 40
0.7
 40
0.7999999999999999
 40
0.7999999999999999
 40
0.7999999999999999
 40
0.7999999999999999
 40
0.8999999999999999
 40
0.8999999999999999
 40
0.8999999999999999
 40
0.8999999999999999
 40
1.0
 40
1.0
 40
1.0
 40
1.0
 10
2.7364600000000001
 20
6.1202000000000005
 30
0.0
 10
2.8316300000000001
 20
6.0109300000000001
 30
0.0
 10
2.8140100000000001
 20
5.4822100000000002
 30
0.0
 10
2.5919500000000002
 20
5.5033600000000007
 30
0.0
 10
2.5919500000000002
 20
5.5033600000000007
 30
0.0
 10
2.4791500000000002
 20
5.2813000000000008
 30
0.0
 10
2.3557900000000003
 20
5.1050600000000008
 30
0.0
 10
2.1196200000000003
 20
4.9957900000000004
 30
0.0
 10
2.1196200000000003
 20
4.9957900000000004
 30
0.0
 10
2.2253700000000003
 20
4.9746400000000008
 30
0.0
 10
2.2147900000000003
 20
4.92882
 30
0.0
 10
2.2500400000000003
 20
4.8195500000000004
 30
0.0
 10
2.2500400000000003
 20
4.8195500000000004
 30
0.0
 10
2.0949500000000003
 20
4.75258
 30
0.0
 10
1.9046100000000001
 20
4.75258
 30
0.0
 10
1.7741900000000002
 20
4.8653700000000004
 30
0.0
 10
1.7741900000000002
 20
4.8653700000000004
 30
0.0
 10
1.7777200000000002
 20
5.1508800000000008
 30
0.0
 10
1.8869900000000002
 20
5.4152400000000007
 30
0.0
 10
2.1372500000000003
 20
5.5456600000000007
 30
0.0
 10
2.1372500000000003
 20
5.5456600000000007
 30
0.0
 10
2.2324200000000003
 20
5.5914800000000007
 30
0.0
 10
2.2852900000000003
 20
5.7219000000000007
 30
0.0
 10
2.3134900000000003
 20
5.8100200000000006
 30
0.0
 10
2.3134900000000003
 20
5.8100200000000006
 30
0.0
 10
2.1760200000000003
 20
5.7888700000000002
 30
0.0
 10
2.1196200000000003
 20
5.5703300000000002
 30
0.0
 10
1.9715800000000001
 20
5.5456600000000007
 30
0.0
 10
1.9715800000000001
 20
5.5456600000000007
 30
0.0
 10
1.7460000000000002
 20
5.2813000000000008
 30
0.0
 10
1.3124500000000001
 20
5.3940900000000003
 30
0.0
 10
1.1362100000000002
 20
5.6126300000000002
 30
0.0
 10
1.1362100000000002
 20
5.6126300000000002
 30
0.0
 10
1.1362100000000002
 20
5.6126300000000002
 30
0.0
 10
2.0279800000000003
 20
5.6796000000000006
 30
0.0
 10
2.0279800000000003
 20
5.6796000000000006
 30
0.0
 10
2.0279800000000003
 20
5.6796000000000006
 30
0.0
 10
2.2500400000000003
 20
5.8558400000000006
 30
0.0
 10
2.4932500000000002
 20
6.0109300000000001
 30
0.0
 10
2.7364600000000001
 20
6.1202000000000005
 30
0.0
  0
SPLINE
  5
3E
100
AcDbEntity
  8
Ebene 1
 62
     7
100
AcDbSpline
210
0.0
220
0.0
230
1.0
 70
     1
 71
     3
 72
   208
 73
   204
 74
     0
 42
0.0000000001
 43
0.0000000001
 40
0.0
 40
0.0
 40
0.0
 40
0.0
 40
0.0196078431372549
 40
0.0196078431372549
 40
0.0196078431372549
 40
0.0196078431372549
 40
0.0392156862745098
 40
0.0392156862745098
 40
0.0392156862745098
 40
0.0392156862745098
 40
0.0588235294117647
 40
0.0588235294117647
 40
0.0588235294117647
 40
0.0588235294117647
 40
0.0784313725490196
 40
0.0784313725490196
 40
0.0784313725490196
 40
0.0784313725490196
 40
0.0980392156862745
 40
0.0980392156862745
 40
0.0980392156862745
 40
0.0980392156862745
 40
0.1176470588235294
 40
0.1176470588235294
 40
0.1176470588235294
 40
0.1176470588235294
 40
0.1372549019607843
 40
0.1372549019607843
 40
0.1372549019607843
 40
0.1372549019607843
 40
0.1568627450980392
 40
0.1568627450980392
 40
0.1568627450980392
 40
0.1568627450980392
 40
0.1764705882352941
 40
0.1764705882352941
 40
0.1764705882352941
 40
0.1764705882352941
 40
0.196078431372549
 40
0.196078431372549
 40
0.196078431372549
 40
0.196078431372549
 40
0.2156862745098039
 40
0.2156862745098039
 40
0.2156862745098039
 40
0.2156862745098039
 40
0.2352941176470588
 40
0.2352941176470588
 40
0.2352941176470588
 40
0.2352941176470588
 40
0.2549019607843137
 40
0.2549019607843137
 40
0.2549019607843137
 40
0.2549019607843137
 40
0.2745098039215685
 40
0.2745098039215685
 40
0.2745098039215685
 40
0.2745098039215685
 40
0.2941176470588234
 40
0.2941176470588234
 40
0.2941176470588234
 40
0.2941176470588234
 40
0.3137254901960783
 40
0.3137254901960783
 40
0.3137254901960783
 40
0.3137254901960783
 40
0.3333333333333332
 40
0.3333333333333332
 40
0.3333333333333332
 40
0.3333333333333332
 40
0.3529411764705881
 40
0.3529411764705881
 40
0.3529411764705881
 40
0.3529411764705881
 40
0.372549019607843
 40
0.372549019607843
 40
0.372549019607843
 40
0.372549019607843
 40
0.3921568627450979
 40
0.3921568627450979
 40
0.3921568627450979
 40
0.3921568627450979
 40
0.4117647058823528
 40
0.4117647058823528
 40
0.4117647058823528
 40
0.4117647058823528
 40
0.4313725490196076
 40
0.4313725490196076
 40
0.4313725490196076
 40
0.4313725490196076
 40
0.4509803921568625
 40
0.4509803921568625
 40
0.4509803921568625
 40
0.4509803921568625
 40
0.4705882352941174
 40
0.4705882352941174
 40
0.4705882352941174
 40
0.4705882352941174
 40
0.4901960784313723
 40
0.4901960784313723
 40
0.4901960784313723
 40
0.4901960784313723
 40
0.5098039215686272
 40
0.5098039215686272
 40
0.5098039215686272
 40
0.5098039215686272
 40
0.5294117647058821
 40
0.5294117647058821
 40
0.5294117647058821
 40
0.5294117647058821
 40
0.5490196078431371
 40
0.5490196078431371
 40
0.5490196078431371
 40
0.5490196078431371
 40
0.568627450980392
 40
0.568627450980392
 40
0.568627450980392
 40
0.568627450980392
 40
0.588235294117647
 40
0.588235294117647
 40
0.588235294117647
 40
0.588235294117647
 40
0.6078431372549019
 40
0.6078431372549019
 40
0.6078431372549019
 40
0.6078431372549019
 40
0.6274509803921569
 40
0.6274509803921569
 40
0.6274509803921569
 40
0.6274509803921569
 40
0.6470588235294118
 40
0.6470588235294118
 40
0.6470588235294118
 40
0.6470588235294118
 40
0.6666666666666667
 40
0.6666666666666667
 40
0.6666666666666667
 40
0.6666666666666667
 40
0.6862745098039217
 40
0.6862745098039217
 40
0.6862745098039217
 40
0.6862745098039217
 40
0.7058823529411766
 40
0.7058823529411766
 40
0.7058823529411766
 40
0.7058823529411766
 40
0.7254901960784316
 40
0.7254901960784316
 40
0.7254901960784316
 40
0.7254901960784316
 40
0.7450980392156865
 40
0.7450980392156865
 40
0.7450980392156865
 40
0.7450980392156865
 40
0.7647058823529415
 40
0.7647058823529415
 40
0.7647058823529415
 40
0.7647058823529415
 40
0.7843137254901964
 40
0.7843137254901964
 40
0.7843137254901964
 40
0.7843137254901964
 40
0.8039215686274513
 40
0.8039215686274513
 40
0.8039215686274513
 40
0.8039215686274513
 40
0.8235294117647063
 40
0.8235294117647063
 40
0.8235294117647063
 40
0.8235294117647063
 40
0.8431372549019612
 40
0.8431372549019612
 40
0.8431372549019612
 40
0.8431372549019612
 40
0.8627450980392162
 40
0.8627450980392162
 40
0.8627450980392162
 40
0.8627450980392162
 40
0.8823529411764711
 40
0.8823529411764711
 40
0.8823529411764711
 40
0.8823529411764711
 40
0.9019607843137261
 40
0.9019607843137261
 40
0.9019607843137261
 40
0.9019607843137261
 40
0.921568627450981
 40
0.921568627450981
 40
0.921568627450981
 40
0.921568627450981
 40
0.941176470588236
 40
0.941176470588236
 40
0.941176470588236
 40
0.941176470588236
 40
0.9607843137254909
 40
0.9607843137254909
 40
0.9607843137254909
 40
0.9607843137254909
 40
0.9803921568627458
 40
0.9803921568627458
 40
0.9803921568627458
 40
0.9803921568627458
 40
1.0
 40
1.0
 40
1.0
 40
1.0
 10
0.53347
 20
4.9746400000000008
 30
0.0
 10
0.19156
 20
5.1050600000000008
 30
0.0
 10
0.09639
 20
5.5245100000000003
 30
0.0
 10
-0.15033
 20
5.7677200000000006
 30
0.0
 10
-0.15033
 20
5.7677200000000006
 30
0.0
 10
-0.36182
 20
5.8910900000000002
 30
0.0
 10
-0.6297
 20
5.8276400000000006
 30
0.0
 10
-0.8200400000000001
 20
5.6831300000000002
 30
0.0
 10
-0.8200400000000001
 20
5.6831300000000002
 30
0.0
 10
-1.1020300000000001
 20
5.4681100000000002
 30
0.0
 10
-0.9293100000000001
 20
5.5703300000000002
 30
0.0
 10
-0.67905
 20
5.6126300000000002
 30
0.0
 10
-0.67905
 20
5.6126300000000002
 30
0.0
 10
-1.0385800000000001
 20
5.2390000000000008
 30
0.0
 10
-1.15137
 20
4.6644600000000001
 30
0.0
 10
-0.60855
 20
4.4001000000000001
 30
0.0
 10
-0.60855
 20
4.4001000000000001
 30
0.0
 10
-0.7918400000000001
 20
4.3119800000000001
 30
0.0
 10
-1.0103800000000001
 20
4.0476200000000002
 30
0.0
 10
-0.9116900000000001
 20
3.8502300000000003
 30
0.0
 10
-0.9116900000000001
 20
3.8502300000000003
 30
0.0
 10
-0.8588100000000001
 20
4.0264700000000007
 30
0.0
 10
-0.7354500000000001
 20
4.2238600000000002
 30
0.0
 10
-0.5380600000000001
 20
4.3119800000000001
 30
0.0
 10
-0.5380600000000001
 20
4.3119800000000001
 30
0.0
 10
0.10697
 20
4.3860000000000001
 30
0.0
 10
-1.2958900000000002
 20
4.6715100000000005
 30
0.0
 10
-0.7918400000000001
 20
5.2178500000000003
 30
0.0
 10
-0.7918400000000001
 20
5.2178500000000003
 30
0.0
 10
-0.5204300000000001
 20
5.9651100000000001
 30
0.0
 10
0.65683
 20
5.0169400000000008
 30
0.0
 10
-0.29485
 20
5.0169400000000008
 30
0.0
 10
-0.29485
 20
5.0169400000000008
 30
0.0
 10
-0.36182
 20
4.9499700000000004
 30
0.0
 10
-0.39002
 20
4.8653700000000004
 30
0.0
 10
-0.39002
 20
4.7737300000000005
 30
0.0
 10
-0.39002
 20
4.7737300000000005
 30
0.0
 10
-0.4146900000000001
 20
4.3331300000000006
 30
0.0
 10
0.3396
 20
4.5551900000000005
 30
0.0
 10
0.6180600000000001
 20
4.3542800000000002
 30
0.0
 10
0.6180600000000001
 20
4.3542800000000002
 30
0.0
 10
0.07877
 20
4.1780400000000002
 30
0.0
 10
-0.29485
 20
4.3542800000000002
 30
0.0
 10
-0.5133800000000001
 20
3.9383500000000002
 30
0.0
 10
-0.5133800000000001
 20
3.9383500000000002
 30
0.0
 10
-0.5133800000000001
 20
3.9383500000000002
 30
0.0
 10
-0.38297
 20
4.0264700000000007
 30
0.0
 10
-0.38297
 20
4.0264700000000007
 30
0.0
 10
-0.38297
 20
4.0264700000000007
 30
0.0
 10
-0.06221
 20
4.1780400000000002
 30
0.0
 10
0.27263
 20
4.1357400000000002
 30
0.0
 10
0.6603600000000001
 20
4.1780400000000002
 30
0.0
 10
0.6603600000000001
 20
4.1780400000000002
 30
0.0
 10
0.20566
 20
3.7515400000000003
 30
0.0
 10
-0.4358400000000001
 20
3.1593700000000005
 30
0.0
 10
-0.6332300000000001
 20
2.5777800000000002
 30
0.0
 10
-0.6332300000000001
 20
2.5777800000000002
 30
0.0
 10
-0.78127
 20
2.1407100000000003
 30
0.0
 10
-0.67905
 20
1.7071600000000002
 30
0.0
 10
-0.05164
 20
1.3582000000000001
 30
0.0
 10
-0.05164
 20
1.3582000000000001
 30
0.0
 10
0.32198
 20
0.8964500000000001
 30
0.0
 10
0.5898600000000001
 20
0.5404500000000001
 30
0.0
 10
0.79783
 20
0.20912
 30
0.0
 10
0.79783
 20
0.20912
 30
0.0
 10
1.1185800000000001
 20
0.7378400000000001
 30
0.0
 10
1.7706700000000002
 20
0.6074200000000001
 30
0.0
 10
1.9821600000000001
 20
0.14215
 30
0.0
 10
1.9821600000000001
 20
0.14215
 30
0.0
 10
2.2711900000000003
 20
0.25494
 30
0.0
 10
2.0279800000000003
 20
0.4100300000000001
 30
0.0
 10
2.0174000000000003
 20
0.5404500000000001
 30
0.0
 10
2.0174000000000003
 20
0.5404500000000001
 30
0.0
 10
2.6941700000000002
 20
0.6285700000000001
 30
0.0
 10
2.7858100000000001
 20
1.7741300000000002
 30
0.0
 10
3.1805900000000005
 20
1.8657700000000002
 30
0.0
 10
3.1805900000000005
 20
1.8657700000000002
 30
0.0
 10
3.2933800000000004
 20
2.5707300000000002
 30
0.0
 10
2.8351600000000001
 20
3.3426600000000004
 30
0.0
 10
2.5038300000000002
 20
3.9806500000000002
 30
0.0
 10
2.5038300000000002
 20
3.9806500000000002
 30
0.0
 10
2.7999100000000001
 20
3.9806500000000002
 30
0.0
 10
3.1136200000000001
 20
4.2696800000000001
 30
0.0
 10
3.3497800000000004
 20
3.9806500000000002
 30
0.0
 10
3.3497800000000004
 20
3.9806500000000002
 30
0.0
 10
3.2052600000000004
 20
3.3638100000000004
 30
0.0
 10
3.7022600000000003
 20
2.9020600000000001
 30
0.0
 10
3.8608700000000002
 20
2.3486700000000003
 30
0.0
 10
3.8608700000000002
 20
2.3486700000000003
 30
0.0
 10
4.0018600000000006
 20
1.55559
 30
0.0
 10
2.9232800000000001
 20
1.6014100000000002
 30
0.0
 10
2.98672
 20
0.8717800000000001
 30
0.0
 10
2.98672
 20
0.8717800000000001
 30
0.0
 10
3.1171400000000005
 20
1.0726900000000001
 30
0.0
 10
3.2933800000000004
 20
1.3123800000000001
 30
0.0
 10
3.5083900000000003
 20
1.4463200000000001
 30
0.0
 10
3.5083900000000003
 20
1.4463200000000001
 30
0.0
 10
3.6070900000000004
 20
1.0726900000000001
 30
0.0
 10
3.0889400000000005
 20
0.38536
 30
0.0
 10
2.6131000000000002
 20
0.18797
 30
0.0
 10
2.6131000000000002
 20
0.18797
 30
0.0
 10
2.6236700000000002
 20
0.5862700000000001
 30
0.0
 10
2.9056500000000001
 20
0.72021
 30
0.0
 10
2.4580000000000002
 20
0.65324
 30
0.0
 10
2.4580000000000002
 20
0.65324
 30
0.0
 10
2.4509500000000002
 20
0.32191
 30
0.0
 10
2.2888100000000002
 20
-0.07285
 30
0.0
 10
2.0738000000000003
 20
-0.38303
 30
0.0
 10
2.0738000000000003
 20
-0.38303
 30
0.0
 10
1.9892100000000001
 20
-0.42533
 30
0.0
 10
1.8975600000000001
 20
-0.38303
 30
0.0
 10
1.8129700000000002
 20
-0.38303
 30
0.0
 10
1.8129700000000002
 20
-0.38303
 30
0.0
 10
1.8129700000000002
 20
-0.38303
 30
0.0
 10
1.6966500000000002
 20
-0.33721
 30
0.0
 10
1.6966500000000002
 20
-0.33721
 30
0.0
 10
1.6966500000000002
 20
-0.33721
 30
0.0
 10
1.5909000000000002
 20
-0.18212
 30
0.0
 10
2.1372500000000003
 20
-0.35836
 30
0.0
 10
1.9715800000000001
 20
-0.13982
 30
0.0
 10
1.9715800000000001
 20
-0.13982
 30
0.0
 10
1.9398600000000001
 20
-0.07285
 30
0.0
 10
1.8905100000000001
 20
-0.07285
 30
0.0
 10
1.8517400000000002
 20
-0.07285
 30
0.0
 10
1.8517400000000002
 20
-0.07285
 30
0.0
 10
1.8517400000000002
 20
-0.07285
 30
0.0
 10
1.6437800000000002
 20
-0.094
 30
0.0
 10
1.6437800000000002
 20
-0.094
 30
0.0
 10
1.6437800000000002
 20
-0.094
 30
0.0
 10
1.6332000000000002
 20
-0.03055
 30
0.0
 10
1.6332000000000002
 20
0.05755
 30
0.0
 10
1.5909000000000002
 20
0.09985
 30
0.0
 10
1.5909000000000002
 20
0.09985
 30
0.0
 10
1.4604900000000001
 20
-0.0517
 30
0.0
 10
1.3371200000000001
 20
-0.27024
 30
0.0
 10
1.1503100000000002
 20
-0.42533
 30
0.0
 10
1.1503100000000002
 20
-0.42533
 30
0.0
 10
0.6145400000000001
 20
0.16682
 30
0.0
 10
0.5017400000000001
 20
-0.20679
 30
0.0
 10
-0.1609
 20
0.16682
 30
0.0
 10
-0.1609
 20
0.16682
 30
0.0
 10
-0.25255
 20
0.5404500000000001
 30
0.0
 10
-0.3723900000000001
 20
0.8964500000000001
 30
0.0
 10
-0.5592100000000001
 20
1.2242600000000001
 30
0.0
 10
-0.5592100000000001
 20
1.2242600000000001
 30
0.0
 10
-0.31952
 20
1.2242600000000001
 30
0.0
 10
0.03648
 20
0.43118
 30
0.0
 10
-0.06221
 20
0.8717800000000001
 30
0.0
 10
-0.06221
 20
0.8717800000000001
 30
0.0
 10
-0.2314
 20
1.4463200000000001
 30
0.0
 10
-1.1020300000000001
 20
1.3582000000000001
 30
0.0
 10
-1.22892
 20
1.9750400000000001
 30
0.0
 10
-1.22892
 20
1.9750400000000001
 30
0.0
 10
-1.2042400000000002
 20
2.2253000000000003
 30
0.0
 10
-1.3064600000000002
 20
2.6729500000000002
 30
0.0
 10
-1.17252
 20
2.5672100000000002
 30
0.0
 10
-1.17252
 20
2.5672100000000002
 30
0.0
 10
-0.9363600000000001
 20
2.3839200000000003
 30
0.0
 10
-1.0738300000000001
 20
2.5918800000000002
 30
0.0
 10
-1.0949800000000001
 20
2.7117200000000001
 30
0.0
 10
-1.0949800000000001
 20
2.7117200000000001
 30
0.0
 10
-1.13022
 20
2.8809100000000001
 30
0.0
 10
-1.0879300000000001
 20
3.0677300000000001
 30
0.0
 10
-1.0526800000000001
 20
3.2333900000000004
 30
0.0
 10
-1.0526800000000001
 20
3.2333900000000004
 30
0.0
 10
-1.0526800000000001
 20
3.2333900000000004
 30
0.0
 10
-0.9116900000000001
 20
3.6070200000000003
 30
0.0
 10
-0.9116900000000001
 20
3.6070200000000003
 30
0.0
 10
-0.9116900000000001
 20
3.6070200000000003
 30
0.0
 10
-0.8764400000000001
 20
4.3119800000000001
 30
0.0
 10
-1.3381900000000002
 20
2.2852200000000003
 30
0.0
 10
-1.5179500000000001
 20
3.1206
 30
0.0
 10
-1.5179500000000001
 20
3.1206
 30
0.0
 10
-1.5990200000000001
 20
3.2087200000000005
 30
0.0
 10
-1.6272200000000001
 20
3.3426600000000004
 30
0.0
 10
-1.6624700000000001
 20
3.4519300000000004
 30
0.0
 10
-1.6624700000000001
 20
3.4519300000000004
 30
0.0
 10
-1.4016300000000002
 20
3.3849600000000004
 30
0.0
 10
-1.2853100000000002
 20
3.3849600000000004
 30
0.0
 10
-1.6060700000000001
 20
3.6281700000000003
 30
0.0
 10
-1.6060700000000001
 20
3.6281700000000003
 30
0.0
 10
-1.6941900000000001
 20
3.9595000000000002
 30
0.0
 10
-1.4791800000000002
 20
4.1357400000000002
 30
0.0
 10
-1.3593400000000002
 20
3.7374400000000003
 30
0.0
 10
-1.3593400000000002
 20
3.7374400000000003
 30
0.0
 10
-1.27122
 20
3.2545400000000004
 30
0.0
 10
-1.10907
 20
3.4519300000000004
 30
0.0
 10
-1.27122
 20
3.8255600000000003
 30
0.0
 10
-1.27122
 20
3.8255600000000003
 30
0.0
 10
-1.3205600000000002
 20
4.2696800000000001
 30
0.0
 10
-1.9761700000000002
 20
4.2238600000000002
 30
0.0
 10
-1.9938000000000002
 20
4.6433100000000005
 30
0.0
 10
-1.9938000000000002
 20
4.6433100000000005
 30
0.0
 10
-1.6201700000000001
 20
4.9499700000000004
 30
0.0
 10
-1.16547
 20
4.1780400000000002
 30
0.0
 10
-1.0667800000000001
 20
4.2696800000000001
 30
0.0
 10
-1.0667800000000001
 20
4.2696800000000001
 30
0.0
 10
-2.1665100000000002
 20
5.2249000000000008
 30
0.0
 10
-0.03049
 20
6.9379500000000007
 30
0.0
 10
0.27616
 20
5.2601500000000003
 30
0.0
 10
0.27616
 20
5.2601500000000003
 30
0.0
 10
0.27616
 20
5.2601500000000003
 30
0.0
 10
0.53347
 20
4.9746400000000008
 30
0.0
 10
0.53347
 20
4.9746400000000008
 30
0.0
  0
SPLINE
  5
3F
100
AcDbEntity
  8
Ebene 1
 62
     7
100
AcDbSpline
210
0.0
220
0.0
230
1.0
 70
     1
 71
     3
 72
    72
 73
    68
 74
     0
 42
0.0000000001
 43
0.0000000001
 40
0.0
 40
0.0
 40
0.0
 40
0.0
 40
0.0588235294117647
 40
0.0588235294117647
 40
0.0588235294117647
 40
0.0588235294117647
 40
0.1176470588235294
 40
0.1176470588235294
 40
0.1176470588235294
 40
0.1176470588235294
 40
0.1764705882352941
 40
0.1764705882352941
 40
0.1764705882352941
 40
0.1764705882352941
 40
0.2352941176470588
 40
0.2352941176470588
 40
0.2352941176470588
 40
0.2352941176470588
 40
0.2941176470588235
 40
0.2941176470588235
 40
0.2941176470588235
 40
0.2941176470588235
 40
0.3529411764705883
 40
0.3529411764705883
 40
0.3529411764705883
 40
0.3529411764705883
 40
0.411764705882353
 40
0.411764705882353
 40
0.411764705882353
 40
0.411764705882353
 40
0.4705882352941177
 40
0.4705882352941177
 40
0.4705882352941177
 40
0.4705882352941177
 40
0.5294117647058824
 40
0.5294117647058824
 40
0.5294117647058824
 40
0.5294117647058824
 40
0.5882352941176471
 40
0.5882352941176471
 40
0.5882352941176471
 40
0.5882352941176471
 40
0.6470588235294118
 40
0.6470588235294118
 40
0.6470588235294118
 40
0.6470588235294118
 40
0.7058823529411765
 40
0.7058823529411765
 40
0.7058823529411765
 40
0.7058823529411765
 40
0.7647058823529412
 40
0.7647058823529412
 40
0.7647058823529412
 40
0.7647058823529412
 40
0.823529411764706
 40
0.823529411764706
 40
0.823529411764706
 40
0.823529411764706
 40
0.8823529411764707
 40
0.8823529411764707
 40
0.8823529411764707
 40
0.8823529411764707
 40
0.9411764705882354
 40
0.9411764705882354
 40
0.9411764705882354
 40
0.9411764705882354
 40
1.0
 40
1.0
 40
1.0
 40
1.0
 10
-2.0079000000000002
 20
5.2636700000000003
 30
0.0
 10
-1.8034600000000001
 20
5.3694200000000007
 30
0.0
 10
-1.5884500000000001
 20
5.4716400000000007
 30
0.0
 10
-1.3628600000000002
 20
5.5033600000000007
 30
0.0
 10
-1.3628600000000002
 20
5.5033600000000007
 30
0.0
 10
-1.4545000000000001
 20
5.2813000000000008
 30
0.0
 10
-1.6483700000000001
 20
5.0839100000000004
 30
0.0
 10
-1.5849200000000001
 20
4.7984
 30
0.0
 10
-1.5849200000000001
 20
4.7984
 30
0.0
 10
-1.7893600000000001
 20
4.8407
 30
0.0
 10
-2.1101200000000002
 20
4.8195500000000004
 30
0.0
 10
-2.1735600000000002
 20
4.5551900000000005
 30
0.0
 10
-2.1735600000000002
 20
4.5551900000000005
 30
0.0
 10
-2.1982400000000002
 20
4.4882200000000001
 30
0.0
 10
-2.2370100000000002
 20
4.4459200000000001
 30
0.0
 10
-2.1911900000000002
 20
4.3789500000000006
 30
0.0
 10
-2.1911900000000002
 20
4.3789500000000006
 30
0.0
 10
-1.6977200000000001
 20
4.0018000000000002
 30
0.0
 10
-2.9913200000000004
 20
3.5612000000000004
 30
0.0
 10
-2.3462800000000001
 20
3.9595000000000002
 30
0.0
 10
-2.3462800000000001
 20
3.9595000000000002
 30
0.0
 10
-2.2828300000000001
 20
3.9806500000000002
 30
0.0
 10
-2.2229100000000002
 20
4.0476200000000002
 30
0.0
 10
-2.2229100000000002
 20
4.1145900000000006
 30
0.0
 10
-2.2229100000000002
 20
4.1145900000000006
 30
0.0
 10
-2.5542400000000001
 20
4.0476200000000002
 30
0.0
 10
-2.81508
 20
3.7374400000000003
 30
0.0
 10
-3.1605100000000004
 20
3.7162900000000003
 30
0.0
 10
-3.1605100000000004
 20
3.7162900000000003
 30
0.0
 10
-3.1217300000000003
 20
3.8044100000000003
 30
0.0
 10
-3.0230400000000004
 20
3.8255600000000003
 30
0.0
 10
-2.9525400000000004
 20
3.8713800000000003
 30
0.0
 10
-2.9525400000000004
 20
3.8713800000000003
 30
0.0
 10
-2.8891000000000004
 20
3.9383500000000002
 30
0.0
 10
-2.8115500000000004
 20
4.0018000000000002
 30
0.0
 10
-2.79393
 20
4.0934400000000002
 30
0.0
 10
-2.79393
 20
4.0934400000000002
 30
0.0
 10
-2.9137700000000004
 20
4.1145900000000006
 30
0.0
 10
-2.9913200000000004
 20
3.8713800000000003
 30
0.0
 10
-3.1393600000000004
 20
3.8713800000000003
 30
0.0
 10
-3.1393600000000004
 20
3.8713800000000003
 30
0.0
 10
-3.1992800000000003
 20
4.5763400000000001
 30
0.0
 10
-3.2662500000000003
 20
5.0839100000000004
 30
0.0
 10
-2.5542400000000001
 20
5.4575400000000007
 30
0.0
 10
-2.5542400000000001
 20
5.4575400000000007
 30
0.0
 10
-2.4767000000000001
 20
5.5703300000000002
 30
0.0
 10
-2.60711
 20
5.5703300000000002
 30
0.0
 10
-2.6529400000000001
 20
5.5914800000000007
 30
0.0
 10
-2.6529400000000001
 20
5.5914800000000007
 30
0.0
 10
-2.2793100000000002
 20
5.8346900000000002
 30
0.0
 10
-1.6906700000000001
 20
5.9228100000000001
 30
0.0
 10
-1.2958900000000002
 20
5.6796000000000006
 30
0.0
 10
-1.2958900000000002
 20
5.6796000000000006
 30
0.0
 10
-1.3628600000000002
 20
5.6126300000000002
 30
0.0
 10
-1.5003300000000002
 20
5.6337800000000007
 30
0.0
 10
-1.5955000000000001
 20
5.6126300000000002
 30
0.0
 10
-1.5955000000000001
 20
5.6126300000000002
 30
0.0
 10
-1.7893600000000001
 20
5.5703300000000002
 30
0.0
 10
-2.0220000000000002
 20
5.5456600000000007
 30
0.0
 10
-2.1700400000000002
 20
5.3940900000000003
 30
0.0
 10
-2.1700400000000002
 20
5.3940900000000003
 30
0.0
 10
-1.8316600000000001
 20
5.4927900000000003
 30
0.0
 10
-1.8986300000000003
 20
5.3940900000000003
 30
0.0
 10
-2.0819200000000002
 20
5.3236000000000008
 30
0.0
 10
-2.0819200000000002
 20
5.3236000000000008
 30
0.0
 10
-2.5154700000000001
 20
5.1579300000000003
 30
0.0
 10
-2.4097200000000001
 20
5.0627600000000008
 30
0.0
 10
-2.0079000000000002
 20
5.2636700000000003
 30
0.0
  0
SPLINE
  5
40
100
AcDbEntity
  8
Ebene 1
 62
     7
100
AcDbSpline
210
0.0
220
0.0
230
1.0
 70
     1
 71
     3
 72
    12
 73
     8
 74
     0
 42
0.0000000001
 43
0.0000000001
 40
0.0
 40
0.0
 40
0.0
 40
0.0
 40
0.5
 40
0.5
 40
0.5
 40
0.5
 40
1.0
 40
1.0
 40
1.0
 40
1.0
 10
-4.0276100000000001
 20
5.6584500000000002
 30
0.0
 10
-4.0276100000000001
 20
5.6584500000000002
 30
0.0
 10
-3.9888300000000005
 20
5.3271200000000007
 30
0.0
 10
-3.9888300000000005
 20
5.3271200000000007
 30
0.0
 10
-3.9888300000000005
 20
5.3271200000000007
 30
0.0
 10
-4.21089
 20
5.2813000000000008
 30
0.0
 10
-4.12277
 20
5.5703300000000002
 30
0.0
 10
-4.0276100000000001
 20
5.6584500000000002
 30
0.0
  0
SPLINE
  5
41
100
AcDbEntity
  8
Ebene 1
 62
     7
100
AcDbSpline
210
0.0
220
0.0
230
1.0
 70
     1
 71
     3
 72
    16
 73
    12
 74
     0
 42
0.0000000001
 43
0.0000000001
 40
0.0
 40
0.0
 40
0.0
 40
0.0
 40
0.3333333333333333
 40
0.3333333333333333
 40
0.3333333333333333
 40
0.3333333333333333
 40
0.6666666666666666
 40
0.6666666666666666
 40
0.6666666666666666
 40
0.6666666666666666
 40
1.0
 40
1.0
 40
1.0
 40
1.0
 10
-4.2919600000000004
 20
5.5703300000000002
 30
0.0
 10
-4.1439200000000005
 20
5.5456600000000007
 30
0.0
 10
-4.26729
 20
5.3940900000000003
 30
0.0
 10
-4.2038500000000001
 20
5.3024500000000003
 30
0.0
 10
-4.2038500000000001
 20
5.3024500000000003
 30
0.0
 10
-4.2038500000000001
 20
5.3024500000000003
 30
0.0
 10
-4.2320400000000005
 20
5.2601500000000003
 30
0.0
 10
-4.2320400000000005
 20
5.2601500000000003
 30
0.0
 10
-4.2320400000000005
 20
5.2601500000000003
 30
0.0
 10
-4.41533
 20
5.2178500000000003
 30
0.0
 10
-4.41533
 20
5.5245100000000003
 30
0.0
 10
-4.2919600000000004
 20
5.5703300000000002
 30
0.0
  0
SPLINE
  5
42
100
AcDbEntity
  8
Ebene 1
 62
     7
100
AcDbSpline
210
0.0
220
0.0
230
1.0
 70
     1
 71
     3
 72
    12
 73
     8
 74
     0
 42
0.0000000001
 43
0.0000000001
 40
0.0
 40
0.0
 40
0.0
 40
0.0
 40
0.5
 40
0.5
 40
0.5
 40
0.5
 40
1.0
 40
1.0
 40
1.0
 40
1.0
 10
-4.5563200000000004
 20
5.5245100000000003
 30
0.0
 10
-4.42591
 20
5.5245100000000003
 30
0.0
 10
-4.4611600000000005
 20
5.3024500000000003
 30
0.0
 10
-4.42943
 20
5.2178500000000003
 30
0.0
 10
-4.42943
 20
5.2178500000000003
 30
0.0
 10
-4.6585400000000003
 20
5.0839100000000004
 30
0.0
 10
-4.7607600000000003
 20
5.4363900000000003
 30
0.0
 10
-4.5563200000000004
 20
5.5245100000000003
 30
0.0
  0
SPLINE
  5
43
100
AcDbEntity
  8
Ebene 1
 62
     7
100
AcDbSpline
210
0.0
220
0.0
230
1.0
 70
     1
 71
     3
 72
    12
 73
     8
 74
     0
 42
0.0000000001
 43
0.0000000001
 40
0.0
 40
0.0
 40
0.0
 40
0.0
 40
0.5
 40
0.5
 40
0.5
 40
0.5
 40
1.0
 40
1.0
 40
1.0
 40
1.0
 10
-4.7995400000000004
 20
5.4822100000000002
 30
0.0
 10
-4.7043700000000008
 20
5.3940900000000003
 30
0.0
 10
-4.6796900000000008
 20
5.1050600000000008
 30
0.0
 10
-4.8806100000000008
 20
5.1508800000000008
 30
0.0
 10
-4.8806100000000008
 20
5.1508800000000008
 30
0.0
 10
-4.9264300000000008
 20
5.2601500000000003
 30
0.0
 10
-4.9229000000000003
 20
5.4152400000000007
 30
0.0
 10
-4.7995400000000004
 20
5.4822100000000002
 30
0.0
  0
SPLINE
  5
44
100
AcDbEntity
  8
Ebene 1
 62
     7
100
AcDbSpline
210
0.0
220
0.0
230
1.0
 70
     1
 71
     3
 72
    16
 73
    12
 74
     0
 42
0.0000000001
 43
0.0000000001
 40
0.0
 40
0.0
 40
0.0
 40
0.0
 40
0.3333333333333333
 40
0.3333333333333333
 40
0.3333333333333333
 40
0.3333333333333333
 40
0.6666666666666666
 40
0.6666666666666666
 40
0.6666666666666666
 40
0.6666666666666666
 40
1.0
 40
1.0
 40
1.0
 40
1.0
 10
-5.1520100000000006
 20
5.4152400000000007
 30
0.0
 10
-5.1520100000000006
 20
5.4152400000000007
 30
0.0
 10
-5.1061900000000007
 20
5.3940900000000003
 30
0.0
 10
-5.1061900000000007
 20
5.3940900000000003
 30
0.0
 10
-5.1061900000000007
 20
5.3940900000000003
 30
0.0
 10
-4.9052800000000003
 20
5.4363900000000003
 30
0.0
 10
-4.9934000000000003
 20
5.1720300000000003
 30
0.0
 10
-4.9581500000000007
 20
5.0627600000000008
 30
0.0
 10
-4.9581500000000007
 20
5.0627600000000008
 30
0.0
 10
-5.1343900000000007
 20
5.0169400000000008
 30
0.0
 10
-5.1661100000000006
 20
5.2813000000000008
 30
0.0
 10
-5.1520100000000006
 20
5.4152400000000007
 30
0.0
  0
SPLINE
  5
45
100
AcDbEntity
  8
Ebene 1
100
AcDbSpline
210
0.0
220
0.0
230
1.0
 70
     1
 71
     3
 72
    20
 73
    16
 74
     0
 42
0.0000000001
 43
0.0000000001
 40
0.0
 40
0.0
 40
0.0
 40
0.0
 40
0.25
 40
0.25
 40
0.25
 40
0.25
 40
0.5
 40
0.5
 40
0.5
 40
0.5
 40
0.75
 40
0.75
 40
0.75
 40
0.75
 40
1.0
 40
1.0
 40
1.0
 40
1.0
 10
-0.1891
 20
5.4152400000000007
 30
0.0
 10
-0.1891
 20
5.4152400000000007
 30
0.0
 10
-0.10803
 20
5.4152400000000007
 30
0.0
 10
-0.10803
 20
5.4152400000000007
 30
0.0
 10
-0.10803
 20
5.4152400000000007
 30
0.0
 10
-0.22083
 20
5.2390000000000008
 30
0.0
 10
-0.5274800000000001
 20
5.1508800000000008
 30
0.0
 10
-0.5204300000000001
 20
4.88652
 30
0.0
 10
-0.5204300000000001
 20
4.88652
 30
0.0
 10
-0.6156
 20
4.9746400000000008
 30
0.0
 10
-0.69315
 20
5.1508800000000008
 30
0.0
 10
-0.5803600000000001
 20
5.2813000000000008
 30
0.0
 10
-0.5803600000000001
 20
5.2813000000000008
 30
0.0
 10
-0.43936
 20
5.1720300000000003
 30
0.0
 10
-0.31952
 20
5.3694200000000007
 30
0.0
 10
-0.1891
 20
5.4152400000000007
 30
0.0
  0
SPLINE
  5
46
100
AcDbEntity
  8
Ebene 1
 62
     7
100
AcDbSpline
210
0.0
220
0.0
230
1.0
 70
     1
 71
     3
 72
    12
 73
     8
 74
     0
 42
0.0000000001
 43
0.0000000001
 40
0.0
 40
0.0
 40
0.0
 40
0.0
 40
0.5
 40
0.5
 40
0.5
 40
0.5
 40
1.0
 40
1.0
 40
1.0
 40
1.0
 10
1.54861
 20
5.3024500000000003
 30
0.0
 10
1.7178000000000002
 20
5.3694200000000007
 30
0.0
 10
1.7847700000000002
 20
5.1720300000000003
 30
0.0
 10
1.6755000000000002
 20
5.0627600000000008
 30
0.0
 10
1.6755000000000002
 20
5.0627600000000008
 30
0.0
 10
1.49926
 20
4.9957900000000004
 30
0.0
 10
1.4957300000000002
 20
5.1931800000000008
 30
0.0
 10
1.54861
 20
5.3024500000000003
 30
0.0
  0
SPLINE
  5
47
100
AcDbEntity
  8
Ebene 1
 62
     7
100
AcDbSpline
210
0.0
220
0.0
230
1.0
 70
     1
 71
     3
 72
    12
 73
     8
 74
     0
 42
0.0000000001
 43
0.0000000001
 40
0.0
 40
0.0
 40
0.0
 40
0.0
 40
0.5
 40
0.5
 40
0.5
 40
0.5
 40
1.0
 40
1.0
 40
1.0
 40
1.0
 10
5.1650500000000008
 20
5.1508800000000008
 30
0.0
 10
5.2284900000000007
 20
5.1720300000000003
 30
0.0
 10
5.3236600000000003
 20
5.0627600000000008
 30
0.0
 10
5.2320200000000003
 20
5.0416100000000004
 30
0.0
 10
5.2320200000000003
 20
5.0416100000000004
 30
0.0
 10
5.1262700000000008
 20
5.0627600000000008
 30
0.0
 10
5.0275800000000004
 20
5.0839100000000004
 30
0.0
 10
5.1650500000000008
 20
5.1508800000000008
 30
0.0
  0
SPLINE
  5
48
100
AcDbEntity
  8
Ebene 1
 62
     7
100
AcDbSpline
210
0.0
220
0.0
230
1.0
 70
     1
 71
     3
 72
    24
 73
    20
 74
     0
 42
0.0000000001
 43
0.0000000001
 40
0.0
 40
0.0
 40
0.0
 40
0.0
 40
0.2
 40
0.2
 40
0.2
 40
0.2
 40
0.4
 40
0.4
 40
0.4
 40
0.4
 40
0.6000000000000001
 40
0.6000000000000001
 40
0.6000000000000001
 40
0.6000000000000001
 40
0.8
 40
0.8
 40
0.8
 40
0.8
 40
1.0
 40
1.0
 40
1.0
 40
1.0
 10
6.2436300000000005
 20
5.1050600000000008
 30
0.0
 10
6.5714400000000008
 20
5.1508800000000008
 30
0.0
 10
6.7547300000000003
 20
4.6433100000000005
 30
0.0
 10
6.3529000000000009
 20
4.6433100000000005
 30
0.0
 10
6.3529000000000009
 20
4.6433100000000005
 30
0.0
 10
6.3070800000000009
 20
4.62216
 30
0.0
 10
6.2612600000000009
 20
4.5763400000000001
 30
0.0
 10
6.2083900000000005
 20
4.5974900000000005
 30
0.0
 10
6.2083900000000005
 20
4.5974900000000005
 30
0.0
 10
6.2189600000000009
 20
4.6433100000000005
 30
0.0
 10
6.2542100000000005
 20
4.6644600000000001
 30
0.0
 10
6.2894600000000009
 20
4.6891300000000005
 30
0.0
 10
6.2894600000000009
 20
4.6891300000000005
 30
0.0
 10
6.3529000000000009
 20
4.7067600000000001
 30
0.0
 10
6.4798000000000009
 20
4.7314300000000005
 30
0.0
 10
6.4375000000000009
 20
4.8407
 30
0.0
 10
6.4375000000000009
 20
4.8407
 30
0.0
 10
6.3035600000000009
 20
4.8407
 30
0.0
 10
6.0321500000000006
 20
4.9746400000000008
 30
0.0
 10
6.2436300000000005
 20
5.1050600000000008
 30
0.0
  0
SPLINE
  5
49
100
AcDbEntity
  8
Ebene 1
 62
     7
100
AcDbSpline
210
0.0
220
0.0
230
1.0
 70
     1
 71
     3
 72
    16
 73
    12
 74
     0
 42
0.0000000001
 43
0.0000000001
 40
0.0
 40
0.0
 40
0.0
 40
0.0
 40
0.3333333333333333
 40
0.3333333333333333
 40
0.3333333333333333
 40
0.3333333333333333
 40
0.6666666666666666
 40
0.6666666666666666
 40
0.6666666666666666
 40
0.6666666666666666
 40
1.0
 40
1.0
 40
1.0
 40
1.0
 10
6.0251000000000001
 20
5.0416100000000004
 30
0.0
 10
6.0251000000000001
 20
5.0416100000000004
 30
0.0
 10
6.0638700000000005
 20
5.0416100000000004
 30
0.0
 10
6.0638700000000005
 20
5.0416100000000004
 30
0.0
 10
6.0638700000000005
 20
5.0416100000000004
 30
0.0
 10
6.0321500000000006
 20
4.92882
 30
0.0
 10
5.9687000000000001
 20
4.7984
 30
0.0
 10
6.0180500000000006
 20
4.6891300000000005
 30
0.0
 10
6.0180500000000006
 20
4.6891300000000005
 30
0.0
 10
5.9123000000000001
 20
4.7314300000000005
 30
0.0
 10
5.9405000000000001
 20
4.9499700000000004
 30
0.0
 10
6.0251000000000001
 20
5.0416100000000004
 30
0.0
  0
SPLINE
  5
4A
100
AcDbEntity
  8
Ebene 1
 62
     7
100
AcDbSpline
210
0.0
220
0.0
230
1.0
 70
     1
 71
     3
 72
    20
 73
    16
 74
     0
 42
0.0000000001
 43
0.0000000001
 40
0.0
 40
0.0
 40
0.0
 40
0.0
 40
0.25
 40
0.25
 40
0.25
 40
0.25
 40
0.5
 40
0.5
 40
0.5
 40
0.5
 40
0.75
 40
0.75
 40
0.75
 40
0.75
 40
1.0
 40
1.0
 40
1.0
 40
1.0
 10
-0.05869
 20
5.0169400000000008
 30
0.0
 10
0.05058
 20
5.0416100000000004
 30
0.0
 10
0.19861
 20
4.9957900000000004
 30
0.0
 10
0.22328
 20
4.88652
 30
0.0
 10
0.22328
 20
4.88652
 30
0.0
 10
0.10697
 20
4.8407
 30
0.0
 10
0.06819
 20
4.7067600000000001
 30
0.0
 10
0.02591
 20
4.5974900000000005
 30
0.0
 10
0.02591
 20
4.5974900000000005
 30
0.0
 10
-0.08336
 20
4.5763400000000001
 30
0.0
 10
-0.22435
 20
4.5974900000000005
 30
0.0
 10
-0.27017
 20
4.7067600000000001
 30
0.0
 10
-0.27017
 20
4.7067600000000001
 30
0.0
 10
-0.27017
 20
4.8407
 30
0.0
 10
-0.15033
 20
4.9499700000000004
 30
0.0
 10
-0.05869
 20
5.0169400000000008
 30
0.0
  0
SPLINE
  5
4B
100
AcDbEntity
  8
Ebene 1
 62
     7
100
AcDbSpline
210
0.0
220
0.0
230
1.0
 70
     1
 71
     3
 72
    64
 73
    60
 74
     0
 42
0.0000000001
 43
0.0000000001
 40
0.0
 40
0.0
 40
0.0
 40
0.0
 40
0.0666666666666667
 40
0.0666666666666667
 40
0.0666666666666667
 40
0.0666666666666667
 40
0.1333333333333333
 40
0.1333333333333333
 40
0.1333333333333333
 40
0.1333333333333333
 40
0.2
 40
0.2
 40
0.2
 40
0.2
 40
0.2666666666666667
 40
0.2666666666666667
 40
0.2666666666666667
 40
0.2666666666666667
 40
0.3333333333333333
 40
0.3333333333333333
 40
0.3333333333333333
 40
0.3333333333333333
 40
0.4
 40
0.4
 40
0.4
 40
0.4
 40
0.4666666666666666
 40
0.4666666666666666
 40
0.4666666666666666
 40
0.4666666666666666
 40
0.5333333333333333
 40
0.5333333333333333
 40
0.5333333333333333
 40
0.5333333333333333
 40
0.6
 40
0.6
 40
0.6
 40
0.6
 40
0.6666666666666666
 40
0.6666666666666666
 40
0.6666666666666666
 40
0.6666666666666666
 40
0.7333333333333333
 40
0.7333333333333333
 40
0.7333333333333333
 40
0.7333333333333333
 40
0.7999999999999999
 40
0.7999999999999999
 40
0.7999999999999999
 40
0.7999999999999999
 40
0.8666666666666666
 40
0.8666666666666666
 40
0.8666666666666666
 40
0.8666666666666666
 40
0.9333333333333332
 40
0.9333333333333332
 40
0.9333333333333332
 40
0.9333333333333332
 40
1.0
 40
1.0
 40
1.0
 40
1.0
 10
5.1862000000000004
 20
4.9957900000000004
 30
0.0
 10
5.1862000000000004
 20
4.9957900000000004
 30
0.0
 10
5.9581300000000006
 20
4.3789500000000006
 30
0.0
 10
5.9581300000000006
 20
4.3789500000000006
 30
0.0
 10
5.9581300000000006
 20
4.3789500000000006
 30
0.0
 10
5.6127000000000002
 20
4.4001000000000001
 30
0.0
 10
5.6937700000000007
 20
4.1145900000000006
 30
0.0
 10
5.9087800000000001
 20
3.9136800000000003
 30
0.0
 10
5.9087800000000001
 20
3.9136800000000003
 30
0.0
 10
5.7854100000000006
 20
3.8713800000000003
 30
0.0
 10
5.4822800000000003
 20
4.0934400000000002
 30
0.0
 10
5.4999000000000002
 20
3.8925300000000003
 30
0.0
 10
5.4999000000000002
 20
3.8925300000000003
 30
0.0
 10
5.6056500000000007
 20
3.7374400000000003
 30
0.0
 10
6.1061700000000005
 20
3.8044100000000003
 30
0.0
 10
5.8876300000000006
 20
3.5400500000000004
 30
0.0
 10
5.8876300000000006
 20
3.5400500000000004
 30
0.0
 10
5.6056500000000007
 20
3.4519300000000004
 30
0.0
 10
5.3060400000000003
 20
3.7374400000000003
 30
0.0
 10
5.1192200000000003
 20
3.6951400000000003
 30
0.0
 10
5.1192200000000003
 20
3.6951400000000003
 30
0.0
 10
5.2813700000000008
 20
3.4519300000000004
 30
0.0
 10
5.6197500000000007
 20
3.4730800000000004
 30
0.0
 10
5.8418100000000006
 20
3.3638100000000004
 30
0.0
 10
5.8418100000000006
 20
3.3638100000000004
 30
0.0
 10
5.4999000000000002
 20
3.0324800000000001
 30
0.0
 10
4.9641300000000008
 20
3.3179900000000004
 30
0.0
 10
4.75265
 20
3.6070200000000003
 30
0.0
 10
4.75265
 20
3.6070200000000003
 30
0.0
 10
4.87601
 20
3.6493200000000003
 30
0.0
 10
5.0346300000000008
 20
3.4307800000000004
 30
0.0
 10
5.1192200000000003
 20
3.5858700000000003
 30
0.0
 10
5.1192200000000003
 20
3.5858700000000003
 30
0.0
 10
4.77379
 20
3.8044100000000003
 30
0.0
 10
5.0064300000000008
 20
3.9595000000000002
 30
0.0
 10
5.2707900000000008
 20
4.1145900000000006
 30
0.0
 10
5.2707900000000008
 20
4.1145900000000006
 30
0.0
 10
5.2778400000000003
 20
4.2450100000000006
 30
0.0
 10
4.9500300000000008
 20
4.0476200000000002
 30
0.0
 10
4.81609
 20
4.0687700000000007
 30
0.0
 10
4.81609
 20
4.0687700000000007
 30
0.0
 10
4.92889
 20
4.1780400000000002
 30
0.0
 10
5.3765300000000007
 20
4.3542800000000002
 30
0.0
 10
5.1474200000000003
 20
4.4882200000000001
 30
0.0
 10
5.1474200000000003
 20
4.4882200000000001
 30
0.0
 10
5.1474200000000003
 20
4.4882200000000001
 30
0.0
 10
5.6444200000000002
 20
4.4882200000000001
 30
0.0
 10
5.6444200000000002
 20
4.4882200000000001
 30
0.0
 10
5.6444200000000002
 20
4.4882200000000001
 30
0.0
 10
5.4470300000000007
 20
4.75258
 30
0.0
 10
5.1403700000000008
 20
4.8407
 30
0.0
 10
4.81609
 20
4.7984
 30
0.0
 10
4.81609
 20
4.7984
 30
0.0
 10
4.81609
 20
4.88652
 30
0.0
 10
4.9218400000000004
 20
4.92882
 30
0.0
 10
4.98881
 20
4.92882
 30
0.0
 10
4.98881
 20
4.92882
 30
0.0
 10
4.98881
 20
4.92882
 30
0.0
 10
5.1862000000000004
 20
4.9957900000000004
 30
0.0
 10
5.1862000000000004
 20
4.9957900000000004
 30
0.0
  0
SPLINE
  5
4C
100
AcDbEntity
  8
Ebene 1
 62
     7
100
AcDbSpline
210
0.0
220
0.0
230
1.0
 70
     1
 71
     3
 72
    20
 73
    16
 74
     0
 42
0.0000000001
 43
0.0000000001
 40
0.0
 40
0.0
 40
0.0
 40
0.0
 40
0.25
 40
0.25
 40
0.25
 40
0.25
 40
0.5
 40
0.5
 40
0.5
 40
0.5
 40
0.75
 40
0.75
 40
0.75
 40
0.75
 40
1.0
 40
1.0
 40
1.0
 40
1.0
 10
2.7822900000000002
 20
4.9746400000000008
 30
0.0
 10
2.8774500000000001
 20
4.9746400000000008
 30
0.0
 10
2.97262
 20
4.9746400000000008
 30
0.0
 10
3.04312
 20
4.9076700000000004
 30
0.0
 10
3.04312
 20
4.9076700000000004
 30
0.0
 10
3.0396000000000001
 20
4.7314300000000005
 30
0.0
 10
3.0607400000000005
 20
4.4670700000000005
 30
0.0
 10
2.8104800000000001
 20
4.4882200000000001
 30
0.0
 10
2.8104800000000001
 20
4.4882200000000001
 30
0.0
 10
2.8704100000000001
 20
4.6433100000000005
 30
0.0
 10
2.8739300000000001
 20
4.8195500000000004
 30
0.0
 10
2.7364600000000001
 20
4.92882
 30
0.0
 10
2.7364600000000001
 20
4.92882
 30
0.0
 10
2.7364600000000001
 20
4.92882
 30
0.0
 10
2.7822900000000002
 20
4.9746400000000008
 30
0.0
 10
2.7822900000000002
 20
4.9746400000000008
 30
0.0
  0
SPLINE
  5
4D
100
AcDbEntity
  8
Ebene 1
 62
     7
100
AcDbSpline
210
0.0
220
0.0
230
1.0
 70
     1
 71
     3
 72
    52
 73
    48
 74
     0
 42
0.0000000001
 43
0.0000000001
 40
0.0
 40
0.0
 40
0.0
 40
0.0
 40
0.0833333333333333
 40
0.0833333333333333
 40
0.0833333333333333
 40
0.0833333333333333
 40
0.1666666666666667
 40
0.1666666666666667
 40
0.1666666666666667
 40
0.1666666666666667
 40
0.25
 40
0.25
 40
0.25
 40
0.25
 40
0.3333333333333333
 40
0.3333333333333333
 40
0.3333333333333333
 40
0.3333333333333333
 40
0.4166666666666666
 40
0.4166666666666666
 40
0.4166666666666666
 40
0.4166666666666666
 40
0.4999999999999999
 40
0.4999999999999999
 40
0.4999999999999999
 40
0.4999999999999999
 40
0.5833333333333333
 40
0.5833333333333333
 40
0.5833333333333333
 40
0.5833333333333333
 40
0.6666666666666666
 40
0.6666666666666666
 40
0.6666666666666666
 40
0.6666666666666666
 40
0.75
 40
0.75
 40
0.75
 40
0.75
 40
0.8333333333333334
 40
0.8333333333333334
 40
0.8333333333333334
 40
0.8333333333333334
 40
0.9166666666666667
 40
0.9166666666666667
 40
0.9166666666666667
 40
0.9166666666666667
 40
1.0
 40
1.0
 40
1.0
 40
1.0
 10
-4.7114200000000004
 20
4.9499700000000004
 30
0.0
 10
-4.41181
 20
5.0169400000000008
 30
0.0
 10
-4.47525
 20
4.5305200000000001
 30
0.0
 10
-4.6409200000000004
 20
4.4459200000000001
 30
0.0
 10
-4.6409200000000004
 20
4.4459200000000001
 30
0.0
 10
-4.6550200000000004
 20
4.3507500000000006
 30
0.0
 10
-4.5563200000000004
 20
4.3719000000000001
 30
0.0
 10
-4.5210800000000004
 20
4.3683800000000002
 30
0.0
 10
-4.5210800000000004
 20
4.3683800000000002
 30
0.0
 10
-4.1862200000000005
 20
4.3613300000000006
 30
0.0
 10
-4.3060600000000004
 20
3.8678600000000003
 30
0.0
 10
-4.13687
 20
3.6281700000000003
 30
0.0
 10
-4.13687
 20
3.6281700000000003
 30
0.0
 10
-4.1650700000000001
 20
3.5189000000000004
 30
0.0
 10
-4.3342600000000004
 20
3.5612000000000004
 30
0.0
 10
-4.3307400000000005
 20
3.4519300000000004
 30
0.0
 10
-4.3307400000000005
 20
3.4519300000000004
 30
0.0
 10
-4.2003200000000005
 20
3.4519300000000004
 30
0.0
 10
-4.0734300000000001
 20
3.5189000000000004
 30
0.0
 10
-3.9676800000000005
 20
3.4096300000000004
 30
0.0
 10
-3.9676800000000005
 20
3.4096300000000004
 30
0.0
 10
-4.0945800000000006
 20
3.3179900000000004
 30
0.0
 10
-4.5492700000000008
 20
3.2545400000000004
 30
0.0
 10
-4.1827000000000005
 20
3.0783
 30
0.0
 10
-4.1827000000000005
 20
3.0783
 30
0.0
 10
-3.9394900000000002
 20
3.2545400000000004
 30
0.0
 10
-3.7526700000000002
 20
3.08535
 30
0.0
 10
-3.6116800000000002
 20
2.9302600000000001
 30
0.0
 10
-3.6116800000000002
 20
2.9302600000000001
 30
0.0
 10
-3.9958800000000005
 20
3.0642
 30
0.0
 10
-4.39771
 20
2.9901800000000001
 30
0.0
 10
-4.7501900000000008
 20
2.7469700000000001
 30
0.0
 10
-4.7501900000000008
 20
2.7469700000000001
 30
0.0
 10
-4.8418300000000007
 20
2.9901800000000001
 30
0.0
 10
-4.44353
 20
3.0113300000000001
 30
0.0
 10
-4.42591
 20
3.1875700000000005
 30
0.0
 10
-4.42591
 20
3.1875700000000005
 30
0.0
 10
-4.4470600000000005
 20
3.2968400000000004
 30
0.0
 10
-4.57395
 20
3.2968400000000004
 30
0.0
 10
-4.6585400000000003
 20
3.2756900000000004
 30
0.0
 10
-4.6585400000000003
 20
3.2756900000000004
 30
0.0
 10
-4.6867400000000004
 20
3.8008800000000003
 30
0.0
 10
-4.8524100000000008
 20
4.3789500000000006
 30
0.0
 10
-4.9017500000000007
 20
4.8653700000000004
 30
0.0
 10
-4.9017500000000007
 20
4.8653700000000004
 30
0.0
 10
-4.9017500000000007
 20
4.8653700000000004
 30
0.0
 10
-4.7114200000000004
 20
4.9499700000000004
 30
0.0
 10
-4.7114200000000004
 20
4.9499700000000004
 30
0.0
  0
SPLINE
  5
4E
100
AcDbEntity
  8
Ebene 1
 62
     7
100
AcDbSpline
210
0.0
220
0.0
230
1.0
 70
     1
 71
     3
 72
    16
 73
    12
 74
     0
 42
0.0000000001
 43
0.0000000001
 40
0.0
 40
0.0
 40
0.0
 40
0.0
 40
0.3333333333333333
 40
0.3333333333333333
 40
0.3333333333333333
 40
0.3333333333333333
 40
0.6666666666666666
 40
0.6666666666666666
 40
0.6666666666666666
 40
0.6666666666666666
 40
1.0
 40
1.0
 40
1.0
 40
1.0
 10
1.54861
 20
4.9499700000000004
 30
0.0
 10
1.6931200000000002
 20
4.9746400000000008
 30
0.0
 10
1.6543500000000002
 20
4.8195500000000004
 30
0.0
 10
1.6085300000000002
 20
4.7314300000000005
 30
0.0
 10
1.6085300000000002
 20
4.7314300000000005
 30
0.0
 10
1.6085300000000002
 20
4.7314300000000005
 30
0.0
 10
1.44286
 20
4.7314300000000005
 30
0.0
 10
1.44286
 20
4.7314300000000005
 30
0.0
 10
1.44286
 20
4.7314300000000005
 30
0.0
 10
1.43581
 20
4.8195500000000004
 30
0.0
 10
1.4957300000000002
 20
4.9076700000000004
 30
0.0
 10
1.54861
 20
4.9499700000000004
 30
0.0
  0
SPLINE
  5
4F
100
AcDbEntity
  8
Ebene 1
 62
     7
100
AcDbSpline
210
0.0
220
0.0
230
1.0
 70
     1
 71
     3
 72
    16
 73
    12
 74
     0
 42
0.0000000001
 43
0.0000000001
 40
0.0
 40
0.0
 40
0.0
 40
0.0
 40
0.3333333333333333
 40
0.3333333333333333
 40
0.3333333333333333
 40
0.3333333333333333
 40
0.6666666666666666
 40
0.6666666666666666
 40
0.6666666666666666
 40
0.6666666666666666
 40
1.0
 40
1.0
 40
1.0
 40
1.0
 10
2.6060500000000002
 20
4.8407
 30
0.0
 10
2.7470400000000001
 20
4.8653700000000004
 30
0.0
 10
2.8386800000000001
 20
4.6644600000000001
 30
0.0
 10
2.7223600000000001
 20
4.5763400000000001
 30
0.0
 10
2.7223600000000001
 20
4.5763400000000001
 30
0.0
 10
2.7822900000000002
 20
4.7067600000000001
 30
0.0
 10
2.6624400000000001
 20
4.7984
 30
0.0
 10
2.5461200000000002
 20
4.7737300000000005
 30
0.0
 10
2.5461200000000002
 20
4.7737300000000005
 30
0.0
 10
2.5461200000000002
 20
4.7737300000000005
 30
0.0
 10
2.6060500000000002
 20
4.8407
 30
0.0
 10
2.6060500000000002
 20
4.8407
 30
0.0
  0
SPLINE
  5
50
100
AcDbEntity
  8
Ebene 1
 62
     7
100
AcDbSpline
210
0.0
220
0.0
230
1.0
 70
     1
 71
     3
 72
    12
 73
     8
 74
     0
 42
0.0000000001
 43
0.0000000001
 40
0.0
 40
0.0
 40
0.0
 40
0.0
 40
0.5
 40
0.5
 40
0.5
 40
0.5
 40
1.0
 40
1.0
 40
1.0
 40
1.0
 10
1.7248500000000002
 20
4.75258
 30
0.0
 10
1.8305900000000002
 20
4.7314300000000005
 30
0.0
 10
1.9504300000000001
 20
4.6644600000000001
 30
0.0
 10
2.0279800000000003
 20
4.5974900000000005
 30
0.0
 10
2.0279800000000003
 20
4.5974900000000005
 30
0.0
 10
1.9187100000000001
 20
4.5551900000000005
 30
0.0
 10
1.7319000000000002
 20
4.62216
 30
0.0
 10
1.7248500000000002
 20
4.75258
 30
0.0
  0
SPLINE
  5
51
100
AcDbEntity
  8
Ebene 1
 62
     7
100
AcDbSpline
210
0.0
220
0.0
230
1.0
 70
     1
 71
     3
 72
    12
 73
     8
 74
     0
 42
0.0000000001
 43
0.0000000001
 40
0.0
 40
0.0
 40
0.0
 40
0.0
 40
0.5
 40
0.5
 40
0.5
 40
0.5
 40
1.0
 40
1.0
 40
1.0
 40
1.0
 10
0.6004400000000001
 20
4.5974900000000005
 30
0.0
 10
0.6004400000000001
 20
4.5974900000000005
 30
0.0
 10
0.76963
 20
4.4459200000000001
 30
0.0
 10
0.76963
 20
4.4459200000000001
 30
0.0
 10
0.76963
 20
4.4459200000000001
 30
0.0
 10
0.67798
 20
4.4212500000000006
 30
0.0
 10
0.53347
 20
4.4882200000000001
 30
0.0
 10
0.6004400000000001
 20
4.5974900000000005
 30
0.0
  0
SPLINE
  5
52
100
AcDbEntity
  8
Ebene 1
 62
     7
100
AcDbSpline
210
0.0
220
0.0
230
1.0
 70
     1
 71
     3
 72
    16
 73
    12
 74
     0
 42
0.0000000001
 43
0.0000000001
 40
0.0
 40
0.0
 40
0.0
 40
0.0
 40
0.3333333333333333
 40
0.3333333333333333
 40
0.3333333333333333
 40
0.3333333333333333
 40
0.6666666666666666
 40
0.6666666666666666
 40
0.6666666666666666
 40
0.6666666666666666
 40
1.0
 40
1.0
 40
1.0
 40
1.0
 10
4.0406400000000007
 20
4.5305200000000001
 30
0.0
 10
4.0406400000000007
 20
4.5305200000000001
 30
0.0
 10
4.0794100000000002
 20
4.5305200000000001
 30
0.0
 10
4.0794100000000002
 20
4.5305200000000001
 30
0.0
 10
4.0794100000000002
 20
4.5305200000000001
 30
0.0
 10
4.0794100000000002
 20
4.5305200000000001
 30
0.0
 10
4.0582600000000006
 20
4.2238600000000002
 30
0.0
 10
4.0582600000000006
 20
4.2238600000000002
 30
0.0
 10
4.0582600000000006
 20
4.2238600000000002
 30
0.0
 10
3.9630900000000002
 20
4.3119800000000001
 30
0.0
 10
3.9807200000000003
 20
4.4212500000000006
 30
0.0
 10
4.0406400000000007
 20
4.5305200000000001
 30
0.0
  0
SPLINE
  5
53
100
AcDbEntity
  8
Ebene 1
 62
     7
100
AcDbSpline
210
0.0
220
0.0
230
1.0
 70
     1
 71
     3
 72
    48
 73
    44
 74
     0
 42
0.0000000001
 43
0.0000000001
 40
0.0
 40
0.0
 40
0.0
 40
0.0
 40
0.0909090909090909
 40
0.0909090909090909
 40
0.0909090909090909
 40
0.0909090909090909
 40
0.1818181818181818
 40
0.1818181818181818
 40
0.1818181818181818
 40
0.1818181818181818
 40
0.2727272727272727
 40
0.2727272727272727
 40
0.2727272727272727
 40
0.2727272727272727
 40
0.3636363636363637
 40
0.3636363636363637
 40
0.3636363636363637
 40
0.3636363636363637
 40
0.4545454545454546
 40
0.4545454545454546
 40
0.4545454545454546
 40
0.4545454545454546
 40
0.5454545454545455
 40
0.5454545454545455
 40
0.5454545454545455
 40
0.5454545454545455
 40
0.6363636363636365
 40
0.6363636363636365
 40
0.6363636363636365
 40
0.6363636363636365
 40
0.7272727272727274
 40
0.7272727272727274
 40
0.7272727272727274
 40
0.7272727272727274
 40
0.8181818181818183
 40
0.8181818181818183
 40
0.8181818181818183
 40
0.8181818181818183
 40
0.9090909090909093
 40
0.9090909090909093
 40
0.9090909090909093
 40
0.9090909090909093
 40
1.0
 40
1.0
 40
1.0
 40
1.0
 10
1.2807200000000001
 20
4.4882200000000001
 30
0.0
 10
1.53451
 20
4.4670700000000005
 30
0.0
 10
1.8094400000000002
 20
4.4670700000000005
 30
0.0
 10
2.0068300000000003
 20
4.2908300000000006
 30
0.0
 10
2.0068300000000003
 20
4.2908300000000006
 30
0.0
 10
2.0526500000000003
 20
3.9806500000000002
 30
0.0
 10
1.9328100000000001
 20
3.6739900000000003
 30
0.0
 10
1.8975600000000001
 20
3.3638100000000004
 30
0.0
 10
1.8975600000000001
 20
3.3638100000000004
 30
0.0
 10
1.8129700000000002
 20
3.3426600000000004
 30
0.0
 10
1.8587900000000002
 20
3.4977500000000004
 30
0.0
 10
1.7741900000000002
 20
3.4519300000000004
 30
0.0
 10
1.7741900000000002
 20
3.4519300000000004
 30
0.0
 10
1.8164900000000002
 20
3.05715
 30
0.0
 10
1.55566
 20
2.6588500000000002
 30
0.0
 10
1.2666200000000001
 20
2.5037600000000002
 30
0.0
 10
1.2666200000000001
 20
2.5037600000000002
 30
0.0
 10
1.2666200000000001
 20
2.5037600000000002
 30
0.0
 10
1.2666200000000001
 20
2.3944900000000002
 30
0.0
 10
1.2666200000000001
 20
2.3944900000000002
 30
0.0
 10
1.2666200000000001
 20
2.3944900000000002
 30
0.0
 10
1.50631
 20
2.2605500000000003
 30
0.0
 10
1.7142700000000002
 20
2.5249100000000002
 30
0.0
 10
1.8094400000000002
 20
2.7046700000000001
 30
0.0
 10
1.8094400000000002
 20
2.7046700000000001
 30
0.0
 10
1.8094400000000002
 20
2.7046700000000001
 30
0.0
 10
1.7847700000000002
 20
2.5918800000000002
 30
0.0
 10
1.7847700000000002
 20
2.5918800000000002
 30
0.0
 10
1.7847700000000002
 20
2.5918800000000002
 30
0.0
 10
1.7495200000000002
 20
2.1935800000000003
 30
0.0
 10
1.2454700000000001
 20
2.1266100000000003
 30
0.0
 10
1.0022600000000002
 20
2.3944900000000002
 30
0.0
 10
1.0022600000000002
 20
2.3944900000000002
 30
0.0
 10
0.8366000000000001
 20
2.7892700000000001
 30
0.0
 10
0.8436500000000001
 20
3.4307800000000004
 30
0.0
 10
0.32903
 20
3.4730800000000004
 30
0.0
 10
0.32903
 20
3.4730800000000004
 30
0.0
 10
0.28321
 20
3.5189000000000004
 30
0.0
 10
0.28673
 20
3.5858700000000003
 30
0.0
 10
0.29026
 20
3.6493200000000003
 30
0.0
 10
0.29026
 20
3.6493200000000003
 30
0.0
 10
0.49469
 20
4.0476200000000002
 30
0.0
 10
0.9634900000000001
 20
4.2238600000000002
 30
0.0
 10
1.2807200000000001
 20
4.4882200000000001
 30
0.0
  0
SPLINE
  5
54
100
AcDbEntity
  8
Ebene 1
 62
     7
100
AcDbSpline
210
0.0
220
0.0
230
1.0
 70
     1
 71
     3
 72
    24
 73
    20
 74
     0
 42
0.0000000001
 43
0.0000000001
 40
0.0
 40
0.0
 40
0.0
 40
0.0
 40
0.2
 40
0.2
 40
0.2
 40
0.2
 40
0.4
 40
0.4
 40
0.4
 40
0.4
 40
0.6000000000000001
 40
0.6000000000000001
 40
0.6000000000000001
 40
0.6000000000000001
 40
0.8
 40
0.8
 40
0.8
 40
0.8
 40
1.0
 40
1.0
 40
1.0
 40
1.0
 10
3.7762800000000003
 20
4.3789500000000006
 30
0.0
 10
3.8326700000000002
 20
4.3789500000000006
 30
0.0
 10
3.8362000000000003
 20
4.3119800000000001
 30
0.0
 10
3.8467700000000002
 20
4.2696800000000001
 30
0.0
 10
3.8467700000000002
 20
4.2696800000000001
 30
0.0
 10
4.1005600000000006
 20
4.0934400000000002
 30
0.0
 10
3.8785000000000003
 20
3.7374400000000003
 30
0.0
 10
3.6035600000000003
 20
3.7832600000000003
 30
0.0
 10
3.6035600000000003
 20
3.7832600000000003
 30
0.0
 10
3.6035600000000003
 20
3.7832600000000003
 30
0.0
 10
3.5824100000000003
 20
3.8255600000000003
 30
0.0
 10
3.5824100000000003
 20
3.8255600000000003
 30
0.0
 10
3.5824100000000003
 20
3.8255600000000003
 30
0.0
 10
3.7516000000000003
 20
3.8502300000000003
 30
0.0
 10
3.6282400000000004
 20
3.9806500000000002
 30
0.0
 10
3.6423400000000004
 20
4.0934400000000002
 30
0.0
 10
3.6423400000000004
 20
4.0934400000000002
 30
0.0
 10
3.6423400000000004
 20
4.0934400000000002
 30
0.0
 10
3.7762800000000003
 20
4.3789500000000006
 30
0.0
 10
3.7762800000000003
 20
4.3789500000000006
 30
0.0
  0
SPLINE
  5
55
100
AcDbEntity
  8
Ebene 1
 62
     7
100
AcDbSpline
210
0.0
220
0.0
230
1.0
 70
     1
 71
     3
 72
    20
 73
    16
 74
     0
 42
0.0000000001
 43
0.0000000001
 40
0.0
 40
0.0
 40
0.0
 40
0.0
 40
0.25
 40
0.25
 40
0.25
 40
0.25
 40
0.5
 40
0.5
 40
0.5
 40
0.5
 40
0.75
 40
0.75
 40
0.75
 40
0.75
 40
1.0
 40
1.0
 40
1.0
 40
1.0
 10
2.7364600000000001
 20
4.2696800000000001
 30
0.0
 10
2.8104800000000001
 20
4.2696800000000001
 30
0.0
 10
2.9761500000000001
 20
4.2908300000000006
 30
0.0
 10
2.9550000000000001
 20
4.1780400000000002
 30
0.0
 10
2.9550000000000001
 20
4.1780400000000002
 30
0.0
 10
2.7681900000000002
 20
4.1145900000000006
 30
0.0
 10
2.4650500000000002
 20
4.0476200000000002
 30
0.0
 10
2.3487400000000003
 20
4.2238600000000002
 30
0.0
 10
2.3487400000000003
 20
4.2238600000000002
 30
0.0
 10
2.3487400000000003
 20
4.2238600000000002
 30
0.0
 10
2.4298100000000002
 20
4.2238600000000002
 30
0.0
 10
2.4298100000000002
 20
4.2238600000000002
 30
0.0
 10
2.4298100000000002
 20
4.2238600000000002
 30
0.0
 10
2.5249800000000002
 20
4.1780400000000002
 30
0.0
 10
2.6694900000000001
 20
4.2027100000000006
 30
0.0
 10
2.7364600000000001
 20
4.2696800000000001
 30
0.0
  0
SPLINE
  5
56
100
AcDbEntity
  8
Ebene 1
 62
     7
100
AcDbSpline
210
0.0
220
0.0
230
1.0
 70
     1
 71
     3
 72
    20
 73
    16
 74
     0
 42
0.0000000001
 43
0.0000000001
 40
0.0
 40
0.0
 40
0.0
 40
0.0
 40
0.25
 40
0.25
 40
0.25
 40
0.25
 40
0.5
 40
0.5
 40
0.5
 40
0.5
 40
0.75
 40
0.75
 40
0.75
 40
0.75
 40
1.0
 40
1.0
 40
1.0
 40
1.0
 10
-1.9092000000000002
 20
4.1780400000000002
 30
0.0
 10
-1.9092000000000002
 20
4.1780400000000002
 30
0.0
 10
-1.7717400000000001
 20
3.9136800000000003
 30
0.0
 10
-1.7717400000000001
 20
3.9136800000000003
 30
0.0
 10
-1.7717400000000001
 20
3.9136800000000003
 30
0.0
 10
-1.6589400000000001
 20
3.9136800000000003
 30
0.0
 10
-1.7505900000000001
 20
4.0687700000000007
 30
0.0
 10
-1.6906700000000001
 20
4.1145900000000006
 30
0.0
 10
-1.6906700000000001
 20
4.1145900000000006
 30
0.0
 10
-1.6448400000000001
 20
4.0264700000000007
 30
0.0
 10
-1.6871400000000001
 20
3.8925300000000003
 30
0.0
 10
-1.7153400000000001
 20
3.8044100000000003
 30
0.0
 10
-1.7153400000000001
 20
3.8044100000000003
 30
0.0
 10
-1.8387100000000001
 20
3.8713800000000003
 30
0.0
 10
-1.9197800000000003
 20
4.0476200000000002
 30
0.0
 10
-1.9092000000000002
 20
4.1780400000000002
 30
0.0
  0
SPLINE
  5
57
100
AcDbEntity
  8
Ebene 1
 62
     7
100
AcDbSpline
210
0.0
220
0.0
230
1.0
 70
     1
 71
     3
 72
    16
 73
    12
 74
     0
 42
0.0000000001
 43
0.0000000001
 40
0.0
 40
0.0
 40
0.0
 40
0.0
 40
0.3333333333333333
 40
0.3333333333333333
 40
0.3333333333333333
 40
0.3333333333333333
 40
0.6666666666666666
 40
0.6666666666666666
 40
0.6666666666666666
 40
0.6666666666666666
 40
1.0
 40
1.0
 40
1.0
 40
1.0
 10
2.1654500000000003
 20
4.0687700000000007
 30
0.0
 10
2.2923400000000003
 20
3.9806500000000002
 30
0.0
 10
2.4333300000000002
 20
3.8255600000000003
 30
0.0
 10
2.4721000000000002
 20
3.6739900000000003
 30
0.0
 10
2.4721000000000002
 20
3.6739900000000003
 30
0.0
 10
2.3346400000000003
 20
3.4730800000000004
 30
0.0
 10
2.1619200000000003
 20
3.2756900000000004
 30
0.0
 10
1.9962600000000001
 20
3.1206
 30
0.0
 10
1.9962600000000001
 20
3.1206
 30
0.0
 10
1.9645300000000001
 20
3.4519300000000004
 30
0.0
 10
2.1654500000000003
 20
3.7374400000000003
 30
0.0
 10
2.1654500000000003
 20
4.0687700000000007
 30
0.0
  0
SPLINE
  5
58
100
AcDbEntity
  8
Ebene 1
 62
     7
100
AcDbSpline
210
0.0
220
0.0
230
1.0
 70
     1
 71
     3
 72
    20
 73
    16
 74
     0
 42
0.0000000001
 43
0.0000000001
 40
0.0
 40
0.0
 40
0.0
 40
0.0
 40
0.25
 40
0.25
 40
0.25
 40
0.25
 40
0.5
 40
0.5
 40
0.5
 40
0.5
 40
0.75
 40
0.75
 40
0.75
 40
0.75
 40
1.0
 40
1.0
 40
1.0
 40
1.0
 10
4.1040800000000006
 20
3.9806500000000002
 30
0.0
 10
4.2239300000000002
 20
3.7162900000000003
 30
0.0
 10
4.0970300000000002
 20
3.2756900000000004
 30
0.0
 10
3.7762800000000003
 20
3.2087200000000005
 30
0.0
 10
3.7762800000000003
 20
3.2087200000000005
 30
0.0
 10
3.6282400000000004
 20
3.2545400000000004
 30
0.0
 10
3.5436400000000003
 20
3.4096300000000004
 30
0.0
 10
3.5612600000000003
 20
3.5612000000000004
 30
0.0
 10
3.5612600000000003
 20
3.5612000000000004
 30
0.0
 10
3.6458600000000003
 20
3.6951400000000003
 30
0.0
 10
3.8150500000000003
 20
3.7162900000000003
 30
0.0
 10
3.9701400000000002
 20
3.7374400000000003
 30
0.0
 10
3.9701400000000002
 20
3.7374400000000003
 30
0.0
 10
4.0406400000000007
 20
3.8044100000000003
 30
0.0
 10
4.0935100000000002
 20
3.8925300000000003
 30
0.0
 10
4.1040800000000006
 20
3.9806500000000002
 30
0.0
  0
SPLINE
  5
59
100
AcDbEntity
  8
Ebene 1
 62
     7
100
AcDbSpline
210
0.0
220
0.0
230
1.0
 70
     1
 71
     3
 72
    36
 73
    32
 74
     0
 42
0.0000000001
 43
0.0000000001
 40
0.0
 40
0.0
 40
0.0
 40
0.0
 40
0.125
 40
0.125
 40
0.125
 40
0.125
 40
0.25
 40
0.25
 40
0.25
 40
0.25
 40
0.375
 40
0.375
 40
0.375
 40
0.375
 40
0.5
 40
0.5
 40
0.5
 40
0.5
 40
0.625
 40
0.625
 40
0.625
 40
0.625
 40
0.75
 40
0.75
 40
0.75
 40
0.75
 40
0.875
 40
0.875
 40
0.875
 40
0.875
 40
1.0
 40
1.0
 40
1.0
 40
1.0
 10
-2.2722600000000002
 20
3.6704700000000003
 30
0.0
 10
-2.1101200000000002
 20
3.7762100000000003
 30
0.0
 10
-1.9761700000000002
 20
3.9489300000000003
 30
0.0
 10
-1.8915800000000003
 20
3.6493200000000003
 30
0.0
 10
-1.8915800000000003
 20
3.6493200000000003
 30
0.0
 10
-2.0114200000000002
 20
3.4730800000000004
 30
0.0
 10
-2.2229100000000002
 20
3.3426600000000004
 30
0.0
 10
-2.4344000000000001
 20
3.3426600000000004
 30
0.0
 10
-2.4344000000000001
 20
3.3426600000000004
 30
0.0
 10
-2.4344000000000001
 20
3.3426600000000004
 30
0.0
 10
-2.3956300000000001
 20
3.4977500000000004
 30
0.0
 10
-2.3956300000000001
 20
3.4977500000000004
 30
0.0
 10
-2.3956300000000001
 20
3.4977500000000004
 30
0.0
 10
-2.3462800000000001
 20
3.6281700000000003
 30
0.0
 10
-2.57891
 20
3.4907000000000004
 30
0.0
 10
-2.6106400000000001
 20
3.4730800000000004
 30
0.0
 10
-2.6106400000000001
 20
3.4730800000000004
 30
0.0
 10
-2.6035900000000001
 20
3.5189000000000004
 30
0.0
 10
-2.57186
 20
3.6281700000000003
 30
0.0
 10
-2.6529400000000001
 20
3.6070200000000003
 30
0.0
 10
-2.6529400000000001
 20
3.6070200000000003
 30
0.0
 10
-2.6529400000000001
 20
3.6070200000000003
 30
0.0
 10
-2.76573
 20
3.5612000000000004
 30
0.0
 10
-2.76573
 20
3.5612000000000004
 30
0.0
 10
-2.76573
 20
3.5612000000000004
 30
0.0
 10
-2.71991
 20
3.7303900000000003
 30
0.0
 10
-2.5013700000000001
 20
3.7303900000000003
 30
0.0
 10
-2.3639000000000001
 20
3.6845700000000003
 30
0.0
 10
-2.3639000000000001
 20
3.6845700000000003
 30
0.0
 10
-2.5154700000000001
 20
3.5294800000000004
 30
0.0
 10
-2.3991500000000001
 20
3.5858700000000003
 30
0.0
 10
-2.2722600000000002
 20
3.6704700000000003
 30
0.0
  0
SPLINE
  5
5A
100
AcDbEntity
  8
Ebene 1
 62
     7
100
AcDbSpline
210
0.0
220
0.0
230
1.0
 70
     1
 71
     3
 72
   124
 73
   120
 74
     0
 42
0.0000000001
 43
0.0000000001
 40
0.0
 40
0.0
 40
0.0
 40
0.0
 40
0.0333333333333333
 40
0.0333333333333333
 40
0.0333333333333333
 40
0.0333333333333333
 40
0.0666666666666667
 40
0.0666666666666667
 40
0.0666666666666667
 40
0.0666666666666667
 40
0.1
 40
0.1
 40
0.1
 40
0.1
 40
0.1333333333333333
 40
0.1333333333333333
 40
0.1333333333333333
 40
0.1333333333333333
 40
0.1666666666666667
 40
0.1666666666666667
 40
0.1666666666666667
 40
0.1666666666666667
 40
0.2
 40
0.2
 40
0.2
 40
0.2
 40
0.2333333333333333
 40
0.2333333333333333
 40
0.2333333333333333
 40
0.2333333333333333
 40
0.2666666666666667
 40
0.2666666666666667
 40
0.2666666666666667
 40
0.2666666666666667
 40
0.3
 40
0.3
 40
0.3
 40
0.3
 40
0.3333333333333333
 40
0.3333333333333333
 40
0.3333333333333333
 40
0.3333333333333333
 40
0.3666666666666666
 40
0.3666666666666666
 40
0.3666666666666666
 40
0.3666666666666666
 40
0.4
 40
0.4
 40
0.4
 40
0.4
 40
0.4333333333333333
 40
0.4333333333333333
 40
0.4333333333333333
 40
0.4333333333333333
 40
0.4666666666666666
 40
0.4666666666666666
 40
0.4666666666666666
 40
0.4666666666666666
 40
0.4999999999999999
 40
0.4999999999999999
 40
0.4999999999999999
 40
0.4999999999999999
 40
0.5333333333333333
 40
0.5333333333333333
 40
0.5333333333333333
 40
0.5333333333333333
 40
0.5666666666666667
 40
0.5666666666666667
 40
0.5666666666666667
 40
0.5666666666666667
 40
0.6
 40
0.6
 40
0.6
 40
0.6
 40
0.6333333333333333
 40
0.6333333333333333
 40
0.6333333333333333
 40
0.6333333333333333
 40
0.6666666666666666
 40
0.6666666666666666
 40
0.6666666666666666
 40
0.6666666666666666
 40
0.7
 40
0.7
 40
0.7
 40
0.7
 40
0.7333333333333333
 40
0.7333333333333333
 40
0.7333333333333333
 40
0.7333333333333333
 40
0.7666666666666666
 40
0.7666666666666666
 40
0.7666666666666666
 40
0.7666666666666666
 40
0.7999999999999999
 40
0.7999999999999999
 40
0.7999999999999999
 40
0.7999999999999999
 40
0.8333333333333333
 40
0.8333333333333333
 40
0.8333333333333333
 40
0.8333333333333333
 40
0.8666666666666666
 40
0.8666666666666666
 40
0.8666666666666666
 40
0.8666666666666666
 40
0.8999999999999999
 40
0.8999999999999999
 40
0.8999999999999999
 40
0.8999999999999999
 40
0.9333333333333332
 40
0.9333333333333332
 40
0.9333333333333332
 40
0.9333333333333332
 40
0.9666666666666666
 40
0.9666666666666666
 40
0.9666666666666666
 40
0.9666666666666666
 40
1.0
 40
1.0
 40
1.0
 40
1.0
 10
6.0251000000000001
 20
3.7162900000000003
 30
0.0
 10
6.7582500000000003
 20
3.1664200000000005
 30
0.0
 10
6.4022500000000004
 20
2.3944900000000002
 30
0.0
 10
6.3952000000000009
 20
1.53444
 30
0.0
 10
6.3952000000000009
 20
1.53444
 30
0.0
 10
6.3317500000000004
 20
1.55559
 30
0.0
 10
6.2401100000000005
 20
1.7318300000000002
 30
0.0
 10
6.1555100000000005
 20
1.6437100000000002
 30
0.0
 10
6.1555100000000005
 20
1.6437100000000002
 30
0.0
 10
6.2753600000000009
 20
1.3123800000000001
 30
0.0
 10
6.3705300000000005
 20
0.9387500000000001
 30
0.0
 10
6.3705300000000005
 20
0.5616000000000001
 30
0.0
 10
6.3705300000000005
 20
0.5616000000000001
 30
0.0
 10
6.2788800000000009
 20
0.6955400000000001
 30
0.0
 10
6.2824100000000005
 20
1.2700800000000001
 30
0.0
 10
6.1555100000000005
 20
1.1572900000000002
 30
0.0
 10
6.1555100000000005
 20
1.1572900000000002
 30
0.0
 10
6.1449400000000001
 20
0.67439
 30
0.0
 10
6.2189600000000009
 20
0.12452
 30
0.0
 10
6.1308400000000001
 20
-0.40418
 30
0.0
 10
6.1308400000000001
 20
-0.40418
 30
0.0
 10
6.0709200000000001
 20
-0.29139
 30
0.0
 10
5.8559100000000006
 20
-0.38303
 30
0.0
 10
5.9581300000000006
 20
-0.18212
 30
0.0
 10
5.9581300000000006
 20
-0.18212
 30
0.0
 10
6.1343700000000005
 20
0.8294800000000001
 30
0.0
 10
5.7043400000000002
 20
-0.7989600000000001
 30
0.0
 10
5.2143900000000007
 20
-0.31606
 30
0.0
 10
5.2143900000000007
 20
-0.31606
 30
0.0
 10
5.2813700000000008
 20
-0.4923
 30
0.0
 10
5.4047300000000007
 20
-0.64739
 30
0.0
 10
5.4294100000000007
 20
-0.8447800000000001
 30
0.0
 10
5.4294100000000007
 20
-0.8447800000000001
 30
0.0
 10
5.6056500000000007
 20
-1.26071
 30
0.0
 10
5.8770600000000002
 20
-0.07285
 30
0.0
 10
5.8982000000000001
 20
-0.68969
 30
0.0
 10
5.8982000000000001
 20
-0.68969
 30
0.0
 10
5.8982000000000001
 20
-0.68969
 30
0.0
 10
5.8911500000000006
 20
-0.9082300000000001
 30
0.0
 10
5.8911500000000006
 20
-0.9082300000000001
 30
0.0
 10
5.8911500000000006
 20
-0.9082300000000001
 30
0.0
 10
5.6303200000000002
 20
-0.9752000000000001
 30
0.0
 10
5.5845000000000002
 20
-1.3276800000000002
 30
0.0
 10
5.5175300000000007
 20
-1.4827700000000001
 30
0.0
 10
5.5175300000000007
 20
-1.4827700000000001
 30
0.0
 10
5.4576000000000002
 20
-1.21841
 30
0.0
 10
5.3448100000000007
 20
-0.9082300000000001
 30
0.0
 10
5.0522500000000008
 20
-0.8447800000000001
 30
0.0
 10
5.0522500000000008
 20
-0.8447800000000001
 30
0.0
 10
4.91479
 20
-0.9082300000000001
 30
0.0
 10
5.1580000000000004
 20
-1.15144
 30
0.0
 10
5.0734000000000004
 20
-1.3276800000000002
 30
0.0
 10
5.0734000000000004
 20
-1.3276800000000002
 30
0.0
 10
4.63985
 20
-1.4404700000000001
 30
0.0
 10
4.1463800000000006
 20
-1.21841
 30
0.0
 10
4.0582600000000006
 20
-1.6378600000000001
 30
0.0
 10
4.0582600000000006
 20
-1.6378600000000001
 30
0.0
 10
3.8820200000000002
 20
-1.26071
 30
0.0
 10
3.6811100000000003
 20
-1.8387700000000002
 30
0.0
 10
3.5506900000000003
 20
-2.0361600000000002
 30
0.0
 10
3.5506900000000003
 20
-2.0361600000000002
 30
0.0
 10
3.5506900000000003
 20
-2.0361600000000002
 30
0.0
 10
3.4061700000000004
 20
-1.9691900000000002
 30
0.0
 10
3.4061700000000004
 20
-1.9691900000000002
 30
0.0
 10
3.4061700000000004
 20
-1.9691900000000002
 30
0.0
 10
2.9021300000000001
 20
-2.54373
 30
0.0
 10
1.9398600000000001
 20
-2.3886400000000001
 30
0.0
 10
1.2807200000000001
 20
-2.56488
 30
0.0
 10
1.2807200000000001
 20
-2.56488
 30
0.0
 10
1.47811
 20
-2.2758500000000002
 30
0.0
 10
1.9116600000000001
 20
-2.1665800000000002
 30
0.0
 10
2.0738000000000003
 20
-1.9022200000000002
 30
0.0
 10
2.0738000000000003
 20
-1.9022200000000002
 30
0.0
 10
1.6014800000000002
 20
-1.9233700000000002
 30
0.0
 10
1.1150600000000002
 20
-2.1454300000000002
 30
0.0
 10
0.6074900000000001
 20
-2.0996100000000002
 30
0.0
 10
0.6074900000000001
 20
-2.0996100000000002
 30
0.0
 10
2.1760200000000003
 20
-1.79295
 30
0.0
 10
3.2193600000000004
 20
0.7378400000000001
 30
0.0
 10
4.9429800000000004
 20
-0.16097
 30
0.0
 10
4.9429800000000004
 20
-0.16097
 30
0.0
 10
4.84077
 20
-0.33721
 30
0.0
 10
4.0512100000000002
 20
-0.7989600000000001
 30
0.0
 10
4.4636100000000001
 20
-0.66854
 30
0.0
 10
4.4636100000000001
 20
-0.66854
 30
0.0
 10
4.6927200000000004
 20
-0.5134500000000001
 30
0.0
 10
5.1474200000000003
 20
-0.6015700000000001
 30
0.0
 10
5.1862000000000004
 20
-0.18212
 30
0.0
 10
5.1862000000000004
 20
-0.18212
 30
0.0
 10
4.8654400000000004
 20
0.4100300000000001
 30
0.0
 10
4.2591700000000001
 20
0.25494
 30
0.0
 10
3.7128300000000003
 20
0.0787
 30
0.0
 10
3.7128300000000003
 20
0.0787
 30
0.0
 10
3.7128300000000003
 20
0.0787
 30
0.0
 10
3.7093100000000003
 20
0.4100300000000001
 30
0.0
 10
3.7093100000000003
 20
0.4100300000000001
 30
0.0
 10
3.7093100000000003
 20
0.4100300000000001
 30
0.0
 10
3.7798000000000003
 20
1.3123800000000001
 30
0.0
 10
4.5869800000000005
 20
1.1819600000000001
 30
0.0
 10
5.0311000000000003
 20
1.7318300000000002
 30
0.0
 10
5.0311000000000003
 20
1.7318300000000002
 30
0.0
 10
4.83019
 20
1.7988000000000002
 30
0.0
 10
4.5517300000000001
 20
1.8199500000000002
 30
0.0
 10
4.3543400000000005
 20
1.6895300000000002
 30
0.0
 10
4.3543400000000005
 20
1.6895300000000002
 30
0.0
 10
4.0335900000000002
 20
2.1935800000000003
 30
0.0
 10
4.61165
 20
2.4826100000000002
 30
0.0
 10
4.3085200000000006
 20
2.9232100000000001
 30
0.0
 10
4.3085200000000006
 20
2.9232100000000001
 30
0.0
 10
4.71035
 20
2.7681200000000001
 30
0.0
 10
5.0769300000000008
 20
2.9972300000000001
 30
0.0
 10
5.4258800000000003
 20
2.7082000000000002
 30
0.0
 10
5.4258800000000003
 20
2.7082000000000002
 30
0.0
 10
5.4752300000000007
 20
2.6659000000000002
 30
0.0
 10
5.5986000000000002
 20
2.4226900000000002
 30
0.0
 10
5.6444200000000002
 20
2.5707300000000002
 30
0.0
 10
5.6444200000000002
 20
2.5707300000000002
 30
0.0
 10
5.2461200000000003
 20
3.1206
 30
0.0
 10
6.1449400000000001
 20
3.2087200000000005
 30
0.0
 10
6.0251000000000001
 20
3.7162900000000003
 30
0.0
  0
SPLINE
  5
5B
100
AcDbEntity
  8
Ebene 1
 62
     7
100
AcDbSpline
210
0.0
220
0.0
230
1.0
 70
     1
 71
     3
 72
    16
 73
    12
 74
     0
 42
0.0000000001
 43
0.0000000001
 40
0.0
 40
0.0
 40
0.0
 40
0.0
 40
0.3333333333333333
 40
0.3333333333333333
 40
0.3333333333333333
 40
0.3333333333333333
 40
0.6666666666666666
 40
0.6666666666666666
 40
0.6666666666666666
 40
0.6666666666666666
 40
1.0
 40
1.0
 40
1.0
 40
1.0
 10
2.5179300000000002
 20
3.5612000000000004
 30
0.0
 10
2.6976900000000001
 20
3.3849600000000004
 30
0.0
 10
2.8668800000000001
 20
3.09945
 30
0.0
 10
2.8668800000000001
 20
2.8139400000000001
 30
0.0
 10
2.8668800000000001
 20
2.8139400000000001
 30
0.0
 10
2.6377700000000002
 20
2.9443600000000001
 30
0.0
 10
2.3522600000000002
 20
2.8562400000000001
 30
0.0
 10
2.1266700000000003
 20
2.9443600000000001
 30
0.0
 10
2.1266700000000003
 20
2.9443600000000001
 30
0.0
 10
2.1654500000000003
 20
3.1875700000000005
 30
0.0
 10
2.4333300000000002
 20
3.3426600000000004
 30
0.0
 10
2.5179300000000002
 20
3.5612000000000004
 30
0.0
  0
SPLINE
  5
5C
100
AcDbEntity
  8
Ebene 1
 62
     7
100
AcDbSpline
210
0.0
220
0.0
230
1.0
 70
     1
 71
     3
 72
    44
 73
    40
 74
     0
 42
0.0000000001
 43
0.0000000001
 40
0.0
 40
0.0
 40
0.0
 40
0.0
 40
0.1
 40
0.1
 40
0.1
 40
0.1
 40
0.2
 40
0.2
 40
0.2
 40
0.2
 40
0.3
 40
0.3
 40
0.3
 40
0.3
 40
0.4
 40
0.4
 40
0.4
 40
0.4
 40
0.5
 40
0.5
 40
0.5
 40
0.5
 40
0.6
 40
0.6
 40
0.6
 40
0.6
 40
0.7
 40
0.7
 40
0.7
 40
0.7
 40
0.7999999999999999
 40
0.7999999999999999
 40
0.7999999999999999
 40
0.7999999999999999
 40
0.8999999999999999
 40
0.8999999999999999
 40
0.8999999999999999
 40
0.8999999999999999
 40
1.0
 40
1.0
 40
1.0
 40
1.0
 10
0.15984
 20
3.5400500000000004
 30
0.0
 10
0.22328
 20
3.3638100000000004
 30
0.0
 10
0.396
 20
3.3179900000000004
 30
0.0
 10
0.5722400000000001
 20
3.2968400000000004
 30
0.0
 10
0.5722400000000001
 20
3.2968400000000004
 30
0.0
 10
0.6004400000000001
 20
3.1206
 30
0.0
 10
0.79783
 20
2.9901800000000001
 30
0.0
 10
0.76963
 20
2.7892700000000001
 30
0.0
 10
0.76963
 20
2.7892700000000001
 30
0.0
 10
0.5228900000000001
 20
2.7469700000000001
 30
0.0
 10
0.25853
 20
2.7469700000000001
 30
0.0
 10
0.00829
 20
2.7681200000000001
 30
0.0
 10
0.00829
 20
2.7681200000000001
 30
0.0
 10
-0.10803
 20
2.7892700000000001
 30
0.0
 10
-0.2032
 20
2.7223000000000002
 30
0.0
 10
-0.30542
 20
2.6800000000000002
 30
0.0
 10
-0.30542
 20
2.6800000000000002
 30
0.0
 10
-0.37592
 20
2.6588500000000002
 30
0.0
 10
-0.43936
 20
2.6130300000000002
 30
0.0
 10
-0.4922400000000001
 20
2.5707300000000002
 30
0.0
 10
-0.4922400000000001
 20
2.5707300000000002
 30
0.0
 10
-0.3723900000000001
 20
3.0324800000000001
 30
0.0
 10
0.4488700000000001
 20
2.6377000000000002
 30
0.0
 10
0.6603600000000001
 20
3.0324800000000001
 30
0.0
 10
0.6603600000000001
 20
3.0324800000000001
 30
0.0
 10
0.5969100000000001
 20
3.0324800000000001
 30
0.0
 10
0.5228900000000001
 20
3.05715
 30
0.0
 10
0.46649
 20
3.0113300000000001
 30
0.0
 10
0.46649
 20
3.0113300000000001
 30
0.0
 10
0.46649
 20
3.0113300000000001
 30
0.0
 10
0.02943
 20
2.9443600000000001
 30
0.0
 10
0.02943
 20
2.9443600000000001
 30
0.0
 10
0.02943
 20
2.9443600000000001
 30
0.0
 10
-0.07279
 20
2.9901800000000001
 30
0.0
 10
-0.316
 20
2.8139400000000001
 30
0.0
 10
-0.3019
 20
2.9443600000000001
 30
0.0
 10
-0.3019
 20
2.9443600000000001
 30
0.0
 10
-0.3019
 20
2.9443600000000001
 30
0.0
 10
0.15984
 20
3.5400500000000004
 30
0.0
 10
0.15984
 20
3.5400500000000004
 30
0.0
  0
SPLINE
  5
5D
100
AcDbEntity
  8
Ebene 1
 62
     7
100
AcDbSpline
210
0.0
220
0.0
230
1.0
 70
     1
 71
     3
 72
    20
 73
    16
 74
     0
 42
0.0000000001
 43
0.0000000001
 40
0.0
 40
0.0
 40
0.0
 40
0.0
 40
0.25
 40
0.25
 40
0.25
 40
0.25
 40
0.5
 40
0.5
 40
0.5
 40
0.5
 40
0.75
 40
0.75
 40
0.75
 40
0.75
 40
1.0
 40
1.0
 40
1.0
 40
1.0
 10
-1.8457600000000001
 20
3.4977500000000004
 30
0.0
 10
-1.7259100000000001
 20
3.4307800000000004
 30
0.0
 10
-1.7576400000000001
 20
3.2333900000000004
 30
0.0
 10
-1.7153400000000001
 20
3.09945
 30
0.0
 10
-1.7153400000000001
 20
3.09945
 30
0.0
 10
-1.7153400000000001
 20
3.09945
 30
0.0
 10
-1.7505900000000001
 20
3.09945
 30
0.0
 10
-1.7505900000000001
 20
3.09945
 30
0.0
 10
-1.7505900000000001
 20
3.09945
 30
0.0
 10
-1.7470600000000001
 20
3.2087200000000005
 30
0.0
 10
-1.8951000000000002
 20
3.1875700000000005
 30
0.0
 10
-1.9479800000000003
 20
3.2545400000000004
 30
0.0
 10
-1.9479800000000003
 20
3.2545400000000004
 30
0.0
 10
-1.9338800000000003
 20
3.3426600000000004
 30
0.0
 10
-1.8986300000000003
 20
3.4307800000000004
 30
0.0
 10
-1.8457600000000001
 20
3.4977500000000004
 30
0.0
  0
SPLINE
  5
5E
100
AcDbEntity
  8
Ebene 1
 62
     7
100
AcDbSpline
210
0.0
220
0.0
230
1.0
 70
     1
 71
     3
 72
    96
 73
    92
 74
     0
 42
0.0000000001
 43
0.0000000001
 40
0.0
 40
0.0
 40
0.0
 40
0.0
 40
0.0434782608695652
 40
0.0434782608695652
 40
0.0434782608695652
 40
0.0434782608695652
 40
0.0869565217391304
 40
0.0869565217391304
 40
0.0869565217391304
 40
0.0869565217391304
 40
0.1304347826086957
 40
0.1304347826086957
 40
0.1304347826086957
 40
0.1304347826086957
 40
0.1739130434782609
 40
0.1739130434782609
 40
0.1739130434782609
 40
0.1739130434782609
 40
0.2173913043478261
 40
0.2173913043478261
 40
0.2173913043478261
 40
0.2173913043478261
 40
0.2608695652173913
 40
0.2608695652173913
 40
0.2608695652173913
 40
0.2608695652173913
 40
0.3043478260869565
 40
0.3043478260869565
 40
0.3043478260869565
 40
0.3043478260869565
 40
0.3478260869565217
 40
0.3478260869565217
 40
0.3478260869565217
 40
0.3478260869565217
 40
0.3913043478260869
 40
0.3913043478260869
 40
0.3913043478260869
 40
0.3913043478260869
 40
0.4347826086956521
 40
0.4347826086956521
 40
0.4347826086956521
 40
0.4347826086956521
 40
0.4782608695652173
 40
0.4782608695652173
 40
0.4782608695652173
 40
0.4782608695652173
 40
0.5217391304347825
 40
0.5217391304347825
 40
0.5217391304347825
 40
0.5217391304347825
 40
0.5652173913043477
 40
0.5652173913043477
 40
0.5652173913043477
 40
0.5652173913043477
 40
0.6086956521739129
 40
0.6086956521739129
 40
0.6086956521739129
 40
0.6086956521739129
 40
0.6521739130434781
 40
0.6521739130434781
 40
0.6521739130434781
 40
0.6521739130434781
 40
0.6956521739130432
 40
0.6956521739130432
 40
0.6956521739130432
 40
0.6956521739130432
 40
0.7391304347826084
 40
0.7391304347826084
 40
0.7391304347826084
 40
0.7391304347826084
 40
0.7826086956521736
 40
0.7826086956521736
 40
0.7826086956521736
 40
0.7826086956521736
 40
0.8260869565217388
 40
0.8260869565217388
 40
0.8260869565217388
 40
0.8260869565217388
 40
0.869565217391304
 40
0.869565217391304
 40
0.869565217391304
 40
0.869565217391304
 40
0.9130434782608692
 40
0.9130434782608692
 40
0.9130434782608692
 40
0.9130434782608692
 40
0.9565217391304344
 40
0.9565217391304344
 40
0.9565217391304344
 40
0.9565217391304344
 40
1.0
 40
1.0
 40
1.0
 40
1.0
 10
-2.59301
 20
3.3849600000000004
 30
0.0
 10
-2.4626000000000001
 20
3.09945
 30
0.0
 10
-1.8915800000000003
 20
3.4730800000000004
 30
0.0
 10
-2.2370100000000002
 20
3.05715
 30
0.0
 10
-2.2370100000000002
 20
3.05715
 30
0.0
 10
-2.0642900000000002
 20
3.0113300000000001
 30
0.0
 10
-1.8351800000000003
 20
3.1875700000000005
 30
0.0
 10
-1.9021500000000002
 20
2.9232100000000001
 30
0.0
 10
-1.9021500000000002
 20
2.9232100000000001
 30
0.0
 10
-1.2747400000000002
 20
3.1206
 30
0.0
 10
-1.4051600000000002
 20
2.2182500000000003
 30
0.0
 10
-1.3981100000000002
 20
1.7988000000000002
 30
0.0
 10
-1.3981100000000002
 20
1.7988000000000002
 30
0.0
 10
-1.3593400000000002
 20
1.7106800000000002
 30
0.0
 10
-1.2853100000000002
 20
1.6437100000000002
 30
0.0
 10
-1.22187
 20
1.55559
 30
0.0
 10
-1.22187
 20
1.55559
 30
0.0
 10
-0.2596
 20
1.2700800000000001
 30
0.0
 10
-0.6261800000000001
 20
-0.20679
 30
0.0
 10
0.4841200000000001
 20
-0.27024
 30
0.0
 10
0.4841200000000001
 20
-0.27024
 30
0.0
 10
0.51937
 20
-1.04217
 30
0.0
 10
1.2137500000000001
 20
-1.5039200000000001
 30
0.0
 10
1.8764100000000001
 20
-1.26071
 30
0.0
 10
1.8764100000000001
 20
-1.26071
 30
0.0
 10
1.5450800000000002
 20
-1.6590100000000001
 30
0.0
 10
0.80488
 20
-1.9233700000000002
 30
0.0
 10
0.39952
 20
-1.8810700000000002
 30
0.0
 10
0.39952
 20
-1.8810700000000002
 30
0.0
 10
0.39952
 20
-1.8810700000000002
 30
0.0
 10
0.17394
 20
-0.9540500000000001
 30
0.0
 10
0.17394
 20
-0.9540500000000001
 30
0.0
 10
0.17394
 20
-0.9540500000000001
 30
0.0
 10
-0.06574
 20
-1.04217
 30
0.0
 10
0.05763
 20
-1.4193200000000001
 30
0.0
 10
-0.06221
 20
-1.6167100000000001
 30
0.0
 10
-0.06221
 20
-1.6167100000000001
 30
0.0
 10
-0.23845
 20
-1.4827700000000001
 30
0.0
 10
-0.26312
 20
-1.2430800000000002
 30
0.0
 10
-0.30542
 20
-1.04217
 30
0.0
 10
-0.30542
 20
-1.04217
 30
0.0
 10
-0.5345300000000001
 20
-1.08447
 30
0.0
 10
-0.5133800000000001
 20
-1.3946500000000002
 30
0.0
 10
-0.5909300000000001
 20
-1.5708900000000001
 30
0.0
 10
-0.5909300000000001
 20
-1.5708900000000001
 30
0.0
 10
-0.8482400000000001
 20
-1.5497400000000001
 30
0.0
 10
-1.0174300000000001
 20
-1.2853800000000002
 30
0.0
 10
-1.11965
 20
-1.06332
 30
0.0
 10
-1.11965
 20
-1.06332
 30
0.0
 10
-1.3276100000000002
 20
-0.64739
 30
0.0
 10
-1.3064600000000002
 20
-0.13982
 30
0.0
 10
-1.3417100000000002
 20
0.32191
 30
0.0
 10
-1.3417100000000002
 20
0.32191
 30
0.0
 10
-1.5461500000000001
 20
-0.13982
 30
0.0
 10
-1.3910600000000002
 20
-0.64739
 30
0.0
 10
-1.1971900000000002
 20
-1.10914
 30
0.0
 10
-1.1971900000000002
 20
-1.10914
 30
0.0
 10
-1.1126
 20
-1.4404700000000001
 30
0.0
 10
-0.68962
 20
-1.5708900000000001
 30
0.0
 10
-0.5662600000000001
 20
-1.8141
 30
0.0
 10
-0.5662600000000001
 20
-1.8141
 30
0.0
 10
-0.7777400000000001
 20
-2.0361600000000002
 30
0.0
 10
-1.2112900000000002
 20
-1.7048300000000001
 30
0.0
 10
-1.22892
 20
-1.4404700000000001
 30
0.0
 10
-1.22892
 20
-1.4404700000000001
 30
0.0
 10
-1.2747400000000002
 20
-1.21841
 30
0.0
 10
-1.5602500000000001
 20
-1.17611
 30
0.0
 10
-1.6695200000000001
 20
-1.04217
 30
0.0
 10
-1.6695200000000001
 20
-1.04217
 30
0.0
 10
-1.4192600000000002
 20
-0.73199
 30
0.0
 10
-1.4509800000000002
 20
-0.33721
 30
0.0
 10
-1.5814000000000001
 20
0.01173
 30
0.0
 10
-1.5814000000000001
 20
0.01173
 30
0.0
 10
-1.20072
 20
0.5193000000000001
 30
0.0
 10
-1.2606400000000002
 20
1.1819600000000001
 30
0.0
 10
-1.5637700000000001
 20
1.7106800000000002
 30
0.0
 10
-1.5637700000000001
 20
1.7106800000000002
 30
0.0
 10
-1.7188600000000001
 20
1.8869200000000002
 30
0.0
 10
-2.0220000000000002
 20
1.8657700000000002
 30
0.0
 10
-2.2123400000000002
 20
1.7529800000000002
 30
0.0
 10
-2.2123400000000002
 20
1.7529800000000002
 30
0.0
 10
-2.3462800000000001
 20
2.1724300000000003
 30
0.0
 10
-2.8609000000000004
 20
2.2182500000000003
 30
0.0
 10
-3.0794400000000004
 20
2.5460600000000002
 30
0.0
 10
-3.0794400000000004
 20
2.5460600000000002
 30
0.0
 10
-3.0794400000000004
 20
2.5460600000000002
 30
0.0
 10
-3.0371400000000004
 20
2.6800000000000002
 30
0.0
 10
-3.0371400000000004
 20
2.6800000000000002
 30
0.0
 10
-3.0371400000000004
 20
2.6800000000000002
 30
0.0
 10
-2.8750000000000004
 20
2.3944900000000002
 30
0.0
 10
-2.7833500000000004
 20
3.1875700000000005
 30
0.0
 10
-2.59301
 20
3.3849600000000004
 30
0.0
  0
SPLINE
  5
5F
100
AcDbEntity
  8
Ebene 1
 62
     7
100
AcDbSpline
210
0.0
220
0.0
230
1.0
 70
     1
 71
     3
 72
    20
 73
    16
 74
     0
 42
0.0000000001
 43
0.0000000001
 40
0.0
 40
0.0
 40
0.0
 40
0.0
 40
0.25
 40
0.25
 40
0.25
 40
0.25
 40
0.5
 40
0.5
 40
0.5
 40
0.5
 40
0.75
 40
0.75
 40
0.75
 40
0.75
 40
1.0
 40
1.0
 40
1.0
 40
1.0
 10
4.87601
 20
3.2756900000000004
 30
0.0
 10
4.96061
 20
3.2968400000000004
 30
0.0
 10
4.9923300000000008
 20
3.2087200000000005
 30
0.0
 10
5.0522500000000008
 20
3.1875700000000005
 30
0.0
 10
5.0522500000000008
 20
3.1875700000000005
 30
0.0
 10
5.0522500000000008
 20
3.1875700000000005
 30
0.0
 10
5.1826700000000008
 20
3.09945
 30
0.0
 10
5.1826700000000008
 20
3.09945
 30
0.0
 10
5.1826700000000008
 20
3.09945
 30
0.0
 10
5.0875000000000004
 20
3.0113300000000001
 30
0.0
 10
4.69977
 20
3.1206
 30
0.0
 10
4.87249
 20
3.2333900000000004
 30
0.0
 10
4.87249
 20
3.2333900000000004
 30
0.0
 10
4.87249
 20
3.2333900000000004
 30
0.0
 10
4.87601
 20
3.2756900000000004
 30
0.0
 10
4.87601
 20
3.2756900000000004
 30
0.0
  0
SPLINE
  5
60
100
AcDbEntity
  8
Ebene 1
 62
     7
100
AcDbSpline
210
0.0
220
0.0
230
1.0
 70
     1
 71
     3
 72
    20
 73
    16
 74
     0
 42
0.0000000001
 43
0.0000000001
 40
0.0
 40
0.0
 40
0.0
 40
0.0
 40
0.25
 40
0.25
 40
0.25
 40
0.25
 40
0.5
 40
0.5
 40
0.5
 40
0.5
 40
0.75
 40
0.75
 40
0.75
 40
0.75
 40
1.0
 40
1.0
 40
1.0
 40
1.0
 10
2.0315000000000003
 20
2.8350900000000001
 30
0.0
 10
2.3029100000000002
 20
2.8350900000000001
 30
0.0
 10
2.6236700000000002
 20
2.8809100000000001
 30
0.0
 10
2.8210600000000001
 20
2.6800000000000002
 30
0.0
 10
2.8210600000000001
 20
2.6800000000000002
 30
0.0
 10
2.8210600000000001
 20
2.6800000000000002
 30
0.0
 10
2.7611400000000001
 20
2.6588500000000002
 30
0.0
 10
2.7611400000000001
 20
2.6588500000000002
 30
0.0
 10
2.7611400000000001
 20
2.6588500000000002
 30
0.0
 10
2.5144000000000002
 20
2.7469700000000001
 30
0.0
 10
2.1760200000000003
 20
2.5918800000000002
 30
0.0
 10
1.9680600000000001
 20
2.7469700000000001
 30
0.0
 10
1.9680600000000001
 20
2.7469700000000001
 30
0.0
 10
1.9680600000000001
 20
2.7469700000000001
 30
0.0
 10
2.0315000000000003
 20
2.8350900000000001
 30
0.0
 10
2.0315000000000003
 20
2.8350900000000001
 30
0.0
  0
SPLINE
  5
61
100
AcDbEntity
  8
Ebene 1
 62
     7
100
AcDbSpline
210
0.0
220
0.0
230
1.0
 70
     1
 71
     3
 72
    24
 73
    20
 74
     0
 42
0.0000000001
 43
0.0000000001
 40
0.0
 40
0.0
 40
0.0
 40
0.0
 40
0.2
 40
0.2
 40
0.2
 40
0.2
 40
0.4
 40
0.4
 40
0.4
 40
0.4
 40
0.6000000000000001
 40
0.6000000000000001
 40
0.6000000000000001
 40
0.6000000000000001
 40
0.8
 40
0.8
 40
0.8
 40
0.8
 40
1.0
 40
1.0
 40
1.0
 40
1.0
 10
-4.2708200000000005
 20
2.8139400000000001
 30
0.0
 10
-4.2708200000000005
 20
2.8139400000000001
 30
0.0
 10
-4.1827000000000005
 20
2.7892700000000001
 30
0.0
 10
-4.1827000000000005
 20
2.7892700000000001
 30
0.0
 10
-4.1827000000000005
 20
2.7892700000000001
 30
0.0
 10
-4.30959
 20
2.7046700000000001
 30
0.0
 10
-4.23909
 20
2.4826100000000002
 30
0.0
 10
-4.0769500000000001
 20
2.5460600000000002
 30
0.0
 10
-4.0769500000000001
 20
2.5460600000000002
 30
0.0
 10
-4.0769500000000001
 20
2.5460600000000002
 30
0.0
 10
-4.0099800000000005
 20
2.4614600000000002
 30
0.0
 10
-4.0099800000000005
 20
2.4614600000000002
 30
0.0
 10
-4.0099800000000005
 20
2.4614600000000002
 30
0.0
 10
-4.0099800000000005
 20
2.3063700000000003
 30
0.0
 10
-4.2214700000000001
 20
2.2852200000000003
 30
0.0
 10
-4.31311
 20
2.1724300000000003
 30
0.0
 10
-4.31311
 20
2.1724300000000003
 30
0.0
 10
-4.3342600000000004
 20
2.3698200000000003
 30
0.0
 10
-4.60215
 20
2.7892700000000001
 30
0.0
 10
-4.2708200000000005
 20
2.8139400000000001
 30
0.0
  0
SPLINE
  5
62
100
AcDbEntity
  8
Ebene 1
 62
     7
100
AcDbSpline
210
0.0
220
0.0
230
1.0
 70
     1
 71
     3
 72
    28
 73
    24
 74
     0
 42
0.0000000001
 43
0.0000000001
 40
0.0
 40
0.0
 40
0.0
 40
0.0
 40
0.1666666666666667
 40
0.1666666666666667
 40
0.1666666666666667
 40
0.1666666666666667
 40
0.3333333333333333
 40
0.3333333333333333
 40
0.3333333333333333
 40
0.3333333333333333
 40
0.5
 40
0.5
 40
0.5
 40
0.5
 40
0.6666666666666666
 40
0.6666666666666666
 40
0.6666666666666666
 40
0.6666666666666666
 40
0.8333333333333333
 40
0.8333333333333333
 40
0.8333333333333333
 40
0.8333333333333333
 40
1.0
 40
1.0
 40
1.0
 40
1.0
 10
3.8855500000000003
 20
2.7223000000000002
 30
0.0
 10
4.0089100000000002
 20
2.6800000000000002
 30
0.0
 10
4.1252300000000002
 20
2.5918800000000002
 30
0.0
 10
4.2345000000000006
 20
2.5249100000000002
 30
0.0
 10
4.2345000000000006
 20
2.5249100000000002
 30
0.0
 10
4.2345000000000006
 20
2.5249100000000002
 30
0.0
 10
4.2098300000000002
 20
2.4614600000000002
 30
0.0
 10
4.2098300000000002
 20
2.4614600000000002
 30
0.0
 10
4.2098300000000002
 20
2.4614600000000002
 30
0.0
 10
4.2098300000000002
 20
2.4614600000000002
 30
0.0
 10
4.1111300000000002
 20
2.4614600000000002
 30
0.0
 10
4.1111300000000002
 20
2.4614600000000002
 30
0.0
 10
4.1111300000000002
 20
2.4614600000000002
 30
0.0
 10
3.9948100000000002
 20
2.1724300000000003
 30
0.0
 10
4.1710500000000001
 20
1.8869200000000002
 30
0.0
 10
4.2098300000000002
 20
1.6225600000000002
 30
0.0
 10
4.2098300000000002
 20
1.6225600000000002
 30
0.0
 10
4.0935100000000002
 20
1.6648600000000002
 30
0.0
 10
3.9807200000000003
 20
1.7529800000000002
 30
0.0
 10
3.9066900000000002
 20
1.8657700000000002
 30
0.0
 10
3.9066900000000002
 20
1.8657700000000002
 30
0.0
 10
3.9666200000000003
 20
2.1266100000000003
 30
0.0
 10
3.9842400000000002
 20
2.4614600000000002
 30
0.0
 10
3.8855500000000003
 20
2.7223000000000002
 30
0.0
  0
SPLINE
  5
63
100
AcDbEntity
  8
Ebene 1
 62
     7
100
AcDbSpline
210
0.0
220
0.0
230
1.0
 70
     1
 71
     3
 72
    12
 73
     8
 74
     0
 42
0.0000000001
 43
0.0000000001
 40
0.0
 40
0.0
 40
0.0
 40
0.0
 40
0.5
 40
0.5
 40
0.5
 40
0.5
 40
1.0
 40
1.0
 40
1.0
 40
1.0
 10
0.07172
 20
2.6130300000000002
 30
0.0
 10
0.3114
 20
2.6800000000000002
 30
0.0
 10
0.18099
 20
2.4156400000000002
 30
0.0
 10
0.19861
 20
2.2852200000000003
 30
0.0
 10
0.19861
 20
2.2852200000000003
 30
0.0
 10
-0.02696
 20
2.1266100000000003
 30
0.0
 10
-0.00934
 20
2.4826100000000002
 30
0.0
 10
0.07172
 20
2.6130300000000002
 30
0.0
  0
SPLINE
  5
64
100
AcDbEntity
  8
Ebene 1
 62
     7
100
AcDbSpline
210
0.0
220
0.0
230
1.0
 70
     1
 71
     3
 72
    12
 73
     8
 74
     0
 42
0.0000000001
 43
0.0000000001
 40
0.0
 40
0.0
 40
0.0
 40
0.0
 40
0.5
 40
0.5
 40
0.5
 40
0.5
 40
1.0
 40
1.0
 40
1.0
 40
1.0
 10
-0.07983
 20
2.5918800000000002
 30
0.0
 10
-0.04459
 20
2.5460600000000002
 30
0.0
 10
-0.03401
 20
2.4156400000000002
 30
0.0
 10
-0.10451
 20
2.3944900000000002
 30
0.0
 10
-0.10451
 20
2.3944900000000002
 30
0.0
 10
-0.2314
 20
2.4156400000000002
 30
0.0
 10
-0.11861
 20
2.5249100000000002
 30
0.0
 10
-0.07983
 20
2.5918800000000002
 30
0.0
  0
SPLINE
  5
65
100
AcDbEntity
  8
Ebene 1
 62
     7
100
AcDbSpline
210
0.0
220
0.0
230
1.0
 70
     1
 71
     3
 72
    12
 73
     8
 74
     0
 42
0.0000000001
 43
0.0000000001
 40
0.0
 40
0.0
 40
0.0
 40
0.0
 40
0.5
 40
0.5
 40
0.5
 40
0.5
 40
1.0
 40
1.0
 40
1.0
 40
1.0
 10
0.7097100000000001
 20
2.5918800000000002
 30
0.0
 10
0.9106200000000001
 20
2.6130300000000002
 30
0.0
 10
0.9493900000000001
 20
2.2852200000000003
 30
0.0
 10
0.8612700000000001
 20
2.1512800000000003
 30
0.0
 10
0.8612700000000001
 20
2.1512800000000003
 30
0.0
 10
0.54757
 20
2.0173400000000004
 30
0.0
 10
0.5933900000000001
 20
2.4367900000000002
 30
0.0
 10
0.7097100000000001
 20
2.5918800000000002
 30
0.0
  0
SPLINE
  5
66
100
AcDbEntity
  8
Ebene 1
 62
     7
100
AcDbSpline
210
0.0
220
0.0
230
1.0
 70
     1
 71
     3
 72
    16
 73
    12
 74
     0
 42
0.0000000001
 43
0.0000000001
 40
0.0
 40
0.0
 40
0.0
 40
0.0
 40
0.3333333333333333
 40
0.3333333333333333
 40
0.3333333333333333
 40
0.3333333333333333
 40
0.6666666666666666
 40
0.6666666666666666
 40
0.6666666666666666
 40
0.6666666666666666
 40
1.0
 40
1.0
 40
1.0
 40
1.0
 10
0.3360800000000001
 20
2.5460600000000002
 30
0.0
 10
0.3360800000000001
 20
2.5460600000000002
 30
0.0
 10
0.5722400000000001
 20
2.5249100000000002
 30
0.0
 10
0.5722400000000001
 20
2.5249100000000002
 30
0.0
 10
0.5722400000000001
 20
2.5249100000000002
 30
0.0
 10
0.5722400000000001
 20
2.5249100000000002
 30
0.0
 10
0.5087900000000001
 20
2.1724300000000003
 30
0.0
 10
0.5087900000000001
 20
2.1724300000000003
 30
0.0
 10
0.5087900000000001
 20
2.1724300000000003
 30
0.0
 10
0.24091
 20
2.0420100000000003
 30
0.0
 10
0.23738
 20
2.3944900000000002
 30
0.0
 10
0.3360800000000001
 20
2.5460600000000002
 30
0.0
  0
SPLINE
  5
67
100
AcDbEntity
  8
Ebene 1
 62
     7
100
AcDbSpline
210
0.0
220
0.0
230
1.0
 70
     1
 71
     3
 72
    12
 73
     8
 74
     0
 42
0.0000000001
 43
0.0000000001
 40
0.0
 40
0.0
 40
0.0
 40
0.0
 40
0.5
 40
0.5
 40
0.5
 40
0.5
 40
1.0
 40
1.0
 40
1.0
 40
1.0
 10
2.5179300000000002
 20
2.5249100000000002
 30
0.0
 10
2.7258900000000001
 20
2.5249100000000002
 30
0.0
 10
2.6976900000000001
 20
2.1724300000000003
 30
0.0
 10
2.4791500000000002
 20
2.2394000000000003
 30
0.0
 10
2.4791500000000002
 20
2.2394000000000003
 30
0.0
 10
2.4756300000000002
 20
2.3275200000000003
 30
0.0
 10
2.4474300000000002
 20
2.4614600000000002
 30
0.0
 10
2.5179300000000002
 20
2.5249100000000002
 30
0.0
  0
SPLINE
  5
68
100
AcDbEntity
  8
Ebene 1
 62
     7
100
AcDbSpline
210
0.0
220
0.0
230
1.0
 70
     1
 71
     3
 72
    12
 73
     8
 74
     0
 42
0.0000000001
 43
0.0000000001
 40
0.0
 40
0.0
 40
0.0
 40
0.0
 40
0.5
 40
0.5
 40
0.5
 40
0.5
 40
1.0
 40
1.0
 40
1.0
 40
1.0
 10
1.9010900000000002
 20
2.5037600000000002
 30
0.0
 10
2.1125700000000003
 20
2.5460600000000002
 30
0.0
 10
2.1584000000000003
 20
2.1724300000000003
 30
0.0
 10
2.0279800000000003
 20
2.0631600000000003
 30
0.0
 10
2.0279800000000003
 20
2.0631600000000003
 30
0.0
 10
1.7741900000000002
 20
1.9961900000000001
 30
0.0
 10
1.8376400000000002
 20
2.3698200000000003
 30
0.0
 10
1.9010900000000002
 20
2.5037600000000002
 30
0.0
  0
SPLINE
  5
69
100
AcDbEntity
  8
Ebene 1
 62
     7
100
AcDbSpline
210
0.0
220
0.0
230
1.0
 70
     1
 71
     3
 72
    12
 73
     8
 74
     0
 42
0.0000000001
 43
0.0000000001
 40
0.0
 40
0.0
 40
0.0
 40
0.0
 40
0.5
 40
0.5
 40
0.5
 40
0.5
 40
1.0
 40
1.0
 40
1.0
 40
1.0
 10
2.2747100000000002
 20
2.5037600000000002
 30
0.0
 10
2.4262800000000002
 20
2.4826100000000002
 30
0.0
 10
2.4086600000000002
 20
2.0631600000000003
 30
0.0
 10
2.2147900000000003
 20
2.1266100000000003
 30
0.0
 10
2.2147900000000003
 20
2.1266100000000003
 30
0.0
 10
2.2570900000000003
 20
2.2852200000000003
 30
0.0
 10
2.0738000000000003
 20
2.5037600000000002
 30
0.0
 10
2.2747100000000002
 20
2.5037600000000002
 30
0.0
  0
SPLINE
  5
6A
100
AcDbEntity
  8
Ebene 1
 62
     7
100
AcDbSpline
210
0.0
220
0.0
230
1.0
 70
     1
 71
     3
 72
    16
 73
    12
 74
     0
 42
0.0000000001
 43
0.0000000001
 40
0.0
 40
0.0
 40
0.0
 40
0.0
 40
0.3333333333333333
 40
0.3333333333333333
 40
0.3333333333333333
 40
0.3333333333333333
 40
0.6666666666666666
 40
0.6666666666666666
 40
0.6666666666666666
 40
0.6666666666666666
 40
1.0
 40
1.0
 40
1.0
 40
1.0
 10
6.7970300000000003
 20
2.4367900000000002
 30
0.0
 10
7.1318800000000007
 20
1.9080700000000002
 30
0.0
 10
6.9908900000000003
 20
1.1149900000000001
 30
0.0
 10
6.7723500000000003
 20
0.5616000000000001
 30
0.0
 10
6.7723500000000003
 20
0.5616000000000001
 30
0.0
 10
6.6948100000000004
 20
0.8294800000000001
 30
0.0
 10
6.6384100000000004
 20
1.1149900000000001
 30
0.0
 10
6.4868500000000004
 20
1.3793500000000001
 30
0.0
 10
6.4868500000000004
 20
1.3793500000000001
 30
0.0
 10
6.4974200000000009
 20
1.7741300000000002
 30
0.0
 10
6.7230100000000004
 20
2.0631600000000003
 30
0.0
 10
6.7970300000000003
 20
2.4367900000000002
 30
0.0
  0
SPLINE
  5
6B
100
AcDbEntity
  8
Ebene 1
 62
     7
100
AcDbSpline
210
0.0
220
0.0
230
1.0
 70
     1
 71
     3
 72
   100
 73
    96
 74
     0
 42
0.0000000001
 43
0.0000000001
 40
0.0
 40
0.0
 40
0.0
 40
0.0
 40
0.0416666666666667
 40
0.0416666666666667
 40
0.0416666666666667
 40
0.0416666666666667
 40
0.0833333333333333
 40
0.0833333333333333
 40
0.0833333333333333
 40
0.0833333333333333
 40
0.125
 40
0.125
 40
0.125
 40
0.125
 40
0.1666666666666667
 40
0.1666666666666667
 40
0.1666666666666667
 40
0.1666666666666667
 40
0.2083333333333333
 40
0.2083333333333333
 40
0.2083333333333333
 40
0.2083333333333333
 40
0.25
 40
0.25
 40
0.25
 40
0.25
 40
0.2916666666666666
 40
0.2916666666666666
 40
0.2916666666666666
 40
0.2916666666666666
 40
0.3333333333333333
 40
0.3333333333333333
 40
0.3333333333333333
 40
0.3333333333333333
 40
0.375
 40
0.375
 40
0.375
 40
0.375
 40
0.4166666666666667
 40
0.4166666666666667
 40
0.4166666666666667
 40
0.4166666666666667
 40
0.4583333333333334
 40
0.4583333333333334
 40
0.4583333333333334
 40
0.4583333333333334
 40
0.5
 40
0.5
 40
0.5
 40
0.5
 40
0.5416666666666666
 40
0.5416666666666666
 40
0.5416666666666666
 40
0.5416666666666666
 40
0.5833333333333333
 40
0.5833333333333333
 40
0.5833333333333333
 40
0.5833333333333333
 40
0.6249999999999999
 40
0.6249999999999999
 40
0.6249999999999999
 40
0.6249999999999999
 40
0.6666666666666665
 40
0.6666666666666665
 40
0.6666666666666665
 40
0.6666666666666665
 40
0.7083333333333332
 40
0.7083333333333332
 40
0.7083333333333332
 40
0.7083333333333332
 40
0.7499999999999998
 40
0.7499999999999998
 40
0.7499999999999998
 40
0.7499999999999998
 40
0.7916666666666664
 40
0.7916666666666664
 40
0.7916666666666664
 40
0.7916666666666664
 40
0.833333333333333
 40
0.833333333333333
 40
0.833333333333333
 40
0.833333333333333
 40
0.8749999999999997
 40
0.8749999999999997
 40
0.8749999999999997
 40
0.8749999999999997
 40
0.9166666666666663
 40
0.9166666666666663
 40
0.9166666666666663
 40
0.9166666666666663
 40
0.9583333333333329
 40
0.9583333333333329
 40
0.9583333333333329
 40
0.9583333333333329
 40
1.0
 40
1.0
 40
1.0
 40
1.0
 10
-3.7174200000000002
 20
2.3698200000000003
 30
0.0
 10
-3.1957500000000003
 20
2.4156400000000002
 30
0.0
 10
-3.2274800000000003
 20
1.6895300000000002
 30
0.0
 10
-3.5411800000000002
 20
1.53444
 30
0.0
 10
-3.5411800000000002
 20
1.53444
 30
0.0
 10
-3.4248700000000003
 20
1.3335300000000001
 30
0.0
 10
-3.2380500000000003
 20
1.6648600000000002
 30
0.0
 10
-3.2133800000000003
 20
1.7741300000000002
 30
0.0
 10
-3.2133800000000003
 20
1.7741300000000002
 30
0.0
 10
-3.2098500000000003
 20
1.00925
 30
0.0
 10
-4.51403
 20
1.4357500000000001
 30
0.0
 10
-4.60215
 20
0.7378400000000001
 30
0.0
 10
-4.60215
 20
0.7378400000000001
 30
0.0
 10
-4.3800800000000004
 20
0.8506300000000001
 30
0.0
 10
-4.0804800000000006
 20
1.0268700000000002
 30
0.0
 10
-3.8055400000000001
 20
1.1361400000000001
 30
0.0
 10
-3.8055400000000001
 20
1.1361400000000001
 30
0.0
 10
-3.5200300000000002
 20
1.1819600000000001
 30
0.0
 10
-3.2592000000000003
 20
1.4886200000000001
 30
0.0
 10
-2.9525400000000004
 20
1.3335300000000001
 30
0.0
 10
-2.9525400000000004
 20
1.3335300000000001
 30
0.0
 10
-2.73753
 20
1.0480200000000002
 30
0.0
 10
-2.9560700000000004
 20
0.6955400000000001
 30
0.0
 10
-3.1041100000000004
 20
0.43118
 30
0.0
 10
-3.1041100000000004
 20
0.43118
 30
0.0
 10
-3.5658600000000003
 20
0.36421
 30
0.0
 10
-4.1897500000000001
 20
0.32191
 30
0.0
 10
-4.44001
 20
-0.094
 30
0.0
 10
-4.44001
 20
-0.094
 30
0.0
 10
-4.44001
 20
-0.094
 30
0.0
 10
-3.6257800000000002
 20
0.16682
 30
0.0
 10
-3.6257800000000002
 20
0.16682
 30
0.0
 10
-3.6257800000000002
 20
0.16682
 30
0.0
 10
-3.2415800000000004
 20
0.16682
 30
0.0
 10
-2.9313900000000004
 20
0.34306
 30
0.0
 10
-2.59301
 20
0.49815
 30
0.0
 10
-2.59301
 20
0.49815
 30
0.0
 10
-2.0220000000000002
 20
0.25494
 30
0.0
 10
-2.8291700000000004
 20
-0.094
 30
0.0
 10
-3.0054100000000004
 20
0.20912
 30
0.0
 10
-3.0054100000000004
 20
0.20912
 30
0.0
 10
-2.80803
 20
-0.5134500000000001
 30
0.0
 10
-3.5411800000000002
 20
-0.55927
 30
0.0
 10
-4.0099800000000005
 20
-0.9082300000000001
 30
0.0
 10
-4.0099800000000005
 20
-0.9082300000000001
 30
0.0
 10
-3.9676800000000005
 20
-0.99987
 30
0.0
 10
-3.4636400000000003
 20
-0.7778100000000001
 30
0.0
 10
-3.2556800000000004
 20
-0.68969
 30
0.0
 10
-3.2556800000000004
 20
-0.68969
 30
0.0
 10
-3.0900100000000004
 20
-0.66854
 30
0.0
 10
-2.8609000000000004
 20
-0.38303
 30
0.0
 10
-2.7692500000000004
 20
-0.64739
 30
0.0
 10
-2.7692500000000004
 20
-0.64739
 30
0.0
 10
-2.5084200000000001
 20
-0.99987
 30
0.0
 10
-3.4565900000000003
 20
-1.08447
 30
0.0
 10
-3.0195100000000004
 20
-1.15144
 30
0.0
 10
-3.0195100000000004
 20
-1.15144
 30
0.0
 10
-2.9595900000000004
 20
-1.15144
 30
0.0
 10
-2.7833500000000004
 20
-1.08447
 30
0.0
 10
-2.8432700000000004
 20
-1.2430800000000002
 30
0.0
 10
-2.8432700000000004
 20
-1.2430800000000002
 30
0.0
 10
-3.2451000000000003
 20
-1.2853800000000002
 30
0.0
 10
-3.6152000000000002
 20
-1.5285900000000001
 30
0.0
 10
-4.0417000000000005
 20
-1.4827700000000001
 30
0.0
 10
-4.0417000000000005
 20
-1.4827700000000001
 30
0.0
 10
-4.0311300000000001
 20
-1.3946500000000002
 30
0.0
 10
-3.6962700000000002
 20
-1.3523500000000002
 30
0.0
 10
-3.9183400000000002
 20
-1.2430800000000002
 30
0.0
 10
-3.9183400000000002
 20
-1.2430800000000002
 30
0.0
 10
-4.5387000000000004
 20
-1.8387700000000002
 30
0.0
 10
-4.5845200000000004
 20
-0.7989600000000001
 30
0.0
 10
-4.2320400000000005
 20
-0.4676300000000001
 30
0.0
 10
-4.2320400000000005
 20
-0.4676300000000001
 30
0.0
 10
-4.4329600000000005
 20
-0.42533
 30
0.0
 10
-4.5704200000000004
 20
-0.8870800000000001
 30
0.0
 10
-4.8171600000000003
 20
-0.66854
 30
0.0
 10
-4.8171600000000003
 20
-0.66854
 30
0.0
 10
-5.1907900000000007
 20
-0.38303
 30
0.0
 10
-4.3025400000000005
 20
0.49815
 30
0.0
 10
-4.8806100000000008
 20
0.32191
 30
0.0
 10
-4.8806100000000008
 20
0.32191
 30
0.0
 10
-4.8806100000000008
 20
0.32191
 30
0.0
 10
-5.0004500000000007
 20
0.5580700000000001
 30
0.0
 10
-5.0004500000000007
 20
0.5580700000000001
 30
0.0
 10
-5.0004500000000007
 20
0.5580700000000001
 30
0.0
 10
-4.9793000000000003
 20
0.76956
 30
0.0
 10
-4.55985
 20
1.4674700000000001
 30
0.0
 10
-5.0145500000000007
 20
1.1572900000000002
 30
0.0
 10
-5.0145500000000007
 20
1.1572900000000002
 30
0.0
 10
-5.0568500000000007
 20
1.2242600000000001
 30
0.0
 10
-5.0392200000000003
 20
1.3123800000000001
 30
0.0
 10
-5.0427500000000007
 20
1.3793500000000001
 30
0.0
 10
-5.0427500000000007
 20
1.3793500000000001
 30
0.0
 10
-4.7114200000000004
 20
1.7741300000000002
 30
0.0
 10
-4.2179400000000005
 20
2.1266100000000003
 30
0.0
 10
-3.7174200000000002
 20
2.3698200000000003
 30
0.0
  0
SPLINE
  5
6C
100
AcDbEntity
  8
Ebene 1
 62
     7
100
AcDbSpline
210
0.0
220
0.0
230
1.0
 70
     1
 71
     3
 72
    12
 73
     8
 74
     0
 42
0.0000000001
 43
0.0000000001
 40
0.0
 40
0.0
 40
0.0
 40
0.0
 40
0.5
 40
0.5
 40
0.5
 40
0.5
 40
1.0
 40
1.0
 40
1.0
 40
1.0
 10
1.7248500000000002
 20
2.2605500000000003
 30
0.0
 10
1.8975600000000001
 20
2.1512800000000003
 30
0.0
 10
1.5944300000000002
 20
1.9503700000000002
 30
0.0
 10
1.4675400000000001
 20
2.0631600000000003
 30
0.0
 10
1.4675400000000001
 20
2.0631600000000003
 30
0.0
 10
1.44991
 20
2.1935800000000003
 30
0.0
 10
1.6649300000000002
 20
2.1724300000000003
 30
0.0
 10
1.7248500000000002
 20
2.2605500000000003
 30
0.0
  0
SPLINE
  5
6D
100
AcDbEntity
  8
Ebene 1
 62
     7
100
AcDbSpline
210
0.0
220
0.0
230
1.0
 70
     1
 71
     3
 72
    36
 73
    32
 74
     0
 42
0.0000000001
 43
0.0000000001
 40
0.0
 40
0.0
 40
0.0
 40
0.0
 40
0.125
 40
0.125
 40
0.125
 40
0.125
 40
0.25
 40
0.25
 40
0.25
 40
0.25
 40
0.375
 40
0.375
 40
0.375
 40
0.375
 40
0.5
 40
0.5
 40
0.5
 40
0.5
 40
0.625
 40
0.625
 40
0.625
 40
0.625
 40
0.75
 40
0.75
 40
0.75
 40
0.75
 40
0.875
 40
0.875
 40
0.875
 40
0.875
 40
1.0
 40
1.0
 40
1.0
 40
1.0
 10
3.0043500000000001
 20
2.2394000000000003
 30
0.0
 10
3.05017
 20
2.2605500000000003
 30
0.0
 10
3.0854200000000001
 20
2.2182500000000003
 30
0.0
 10
3.0677900000000005
 20
2.1724300000000003
 30
0.0
 10
3.0677900000000005
 20
2.1724300000000003
 30
0.0
 10
2.8457300000000001
 20
1.6895300000000002
 30
0.0
 10
2.6307200000000002
 20
1.1149900000000001
 30
0.0
 10
2.2042200000000003
 20
0.76251
 30
0.0
 10
2.2042200000000003
 20
0.76251
 30
0.0
 10
1.6896000000000002
 20
0.9387500000000001
 30
0.0
 10
1.1256300000000001
 20
0.78366
 30
0.0
 10
0.6286400000000001
 20
0.80481
 30
0.0
 10
0.6286400000000001
 20
0.80481
 30
0.0
 10
0.2973
 20
1.2489300000000001
 30
0.0
 10
-0.07983
 20
1.6648600000000002
 30
0.0
 10
-0.5592100000000001
 20
1.9503700000000002
 30
0.0
 10
-0.5592100000000001
 20
1.9503700000000002
 30
0.0
 10
-0.5592100000000001
 20
1.9503700000000002
 30
0.0
 10
-0.6050300000000001
 20
2.1724300000000003
 30
0.0
 10
-0.6050300000000001
 20
2.1724300000000003
 30
0.0
 10
-0.6050300000000001
 20
2.1724300000000003
 30
0.0
 10
-0.09746
 20
1.9961900000000001
 30
0.0
 10
0.47354
 20
1.6225600000000002
 30
0.0
 10
0.99521
 20
1.3335300000000001
 30
0.0
 10
0.99521
 20
1.3335300000000001
 30
0.0
 10
0.99521
 20
1.3335300000000001
 30
0.0
 10
2.2253700000000003
 20
1.4005000000000001
 30
0.0
 10
2.2253700000000003
 20
1.4005000000000001
 30
0.0
 10
2.2253700000000003
 20
1.4005000000000001
 30
0.0
 10
2.5179300000000002
 20
1.6437100000000002
 30
0.0
 10
2.7999100000000001
 20
1.9292200000000002
 30
0.0
 10
3.0043500000000001
 20
2.2394000000000003
 30
0.0
  0
SPLINE
  5
6E
100
AcDbEntity
  8
Ebene 1
 62
     7
100
AcDbSpline
210
0.0
220
0.0
230
1.0
 70
     1
 71
     3
 72
    12
 73
     8
 74
     0
 42
0.0000000001
 43
0.0000000001
 40
0.0
 40
0.0
 40
0.0
 40
0.0
 40
0.5
 40
0.5
 40
0.5
 40
0.5
 40
1.0
 40
1.0
 40
1.0
 40
1.0
 10
1.0410400000000002
 20
2.2182500000000003
 30
0.0
 10
1.1185800000000001
 20
2.1935800000000003
 30
0.0
 10
1.2913000000000001
 20
2.1512800000000003
 30
0.0
 10
1.2137500000000001
 20
2.0420100000000003
 30
0.0
 10
1.2137500000000001
 20
2.0420100000000003
 30
0.0
 10
1.0939100000000002
 20
1.9503700000000002
 30
0.0
 10
0.9493900000000001
 20
2.1089800000000003
 30
0.0
 10
1.0410400000000002
 20
2.2182500000000003
 30
0.0
  0
SPLINE
  5
6F
100
AcDbEntity
  8
Ebene 1
 62
     7
100
AcDbSpline
210
0.0
220
0.0
230
1.0
 70
     1
 71
     3
 72
    24
 73
    20
 74
     0
 42
0.0000000001
 43
0.0000000001
 40
0.0
 40
0.0
 40
0.0
 40
0.0
 40
0.2
 40
0.2
 40
0.2
 40
0.2
 40
0.4
 40
0.4
 40
0.4
 40
0.4
 40
0.6000000000000001
 40
0.6000000000000001
 40
0.6000000000000001
 40
0.6000000000000001
 40
0.8
 40
0.8
 40
0.8
 40
0.8
 40
1.0
 40
1.0
 40
1.0
 40
1.0
 10
-2.9243400000000004
 20
2.1935800000000003
 30
0.0
 10
-2.5330900000000001
 20
2.0843100000000003
 30
0.0
 10
-2.1065900000000002
 20
1.6014100000000002
 30
0.0
 10
-2.64236
 20
1.3335300000000001
 30
0.0
 10
-2.64236
 20
1.3335300000000001
 30
0.0
 10
-2.64236
 20
1.3335300000000001
 30
0.0
 10
-3.1182100000000004
 20
1.4886200000000001
 30
0.0
 10
-3.1182100000000004
 20
1.4886200000000001
 30
0.0
 10
-3.1182100000000004
 20
1.4886200000000001
 30
0.0
 10
-3.1182100000000004
 20
1.4886200000000001
 30
0.0
 10
-3.0371400000000004
 20
1.9080700000000002
 30
0.0
 10
-3.0371400000000004
 20
1.9080700000000002
 30
0.0
 10
-3.0371400000000004
 20
1.9080700000000002
 30
0.0
 10
-2.8679500000000004
 20
1.8657700000000002
 30
0.0
 10
-2.7833500000000004
 20
1.6648600000000002
 30
0.0
 10
-2.64236
 20
1.6014100000000002
 30
0.0
 10
-2.64236
 20
1.6014100000000002
 30
0.0
 10
-2.3850500000000001
 20
1.8411000000000002
 30
0.0
 10
-2.9313900000000004
 20
1.9503700000000002
 30
0.0
 10
-2.9243400000000004
 20
2.1935800000000003
 30
0.0
  0
SPLINE
  5
70
100
AcDbEntity
  8
Ebene 1
 62
     7
100
AcDbSpline
210
0.0
220
0.0
230
1.0
 70
     1
 71
     3
 72
    12
 73
     8
 74
     0
 42
0.0000000001
 43
0.0000000001
 40
0.0
 40
0.0
 40
0.0
 40
0.0
 40
0.5
 40
0.5
 40
0.5
 40
0.5
 40
1.0
 40
1.0
 40
1.0
 40
1.0
 10
-0.12566
 20
2.1935800000000003
 30
0.0
 10
-0.03049
 20
2.2182500000000003
 30
0.0
 10
0.00476
 20
2.1266100000000003
 30
0.0
 10
-0.01991
 20
2.0420100000000003
 30
0.0
 10
-0.01991
 20
2.0420100000000003
 30
0.0
 10
-0.09393
 20
2.0420100000000003
 30
0.0
 10
-0.13976
 20
2.1266100000000003
 30
0.0
 10
-0.12566
 20
2.1935800000000003
 30
0.0
  0
SPLINE
  5
71
100
AcDbEntity
  8
Ebene 1
 62
     7
100
AcDbSpline
210
0.0
220
0.0
230
1.0
 70
     1
 71
     3
 72
    12
 73
     8
 74
     0
 42
0.0000000001
 43
0.0000000001
 40
0.0
 40
0.0
 40
0.0
 40
0.0
 40
0.5
 40
0.5
 40
0.5
 40
0.5
 40
1.0
 40
1.0
 40
1.0
 40
1.0
 10
2.6271900000000001
 20
2.1724300000000003
 30
0.0
 10
2.7893300000000001
 20
2.1266100000000003
 30
0.0
 10
2.6095700000000002
 20
1.9080700000000002
 30
0.0
 10
2.5390700000000002
 20
1.8411000000000002
 30
0.0
 10
2.5390700000000002
 20
1.8411000000000002
 30
0.0
 10
2.5108800000000002
 20
1.9503700000000002
 30
0.0
 10
2.4932500000000002
 20
2.1512800000000003
 30
0.0
 10
2.6271900000000001
 20
2.1724300000000003
 30
0.0
  0
SPLINE
  5
72
100
AcDbEntity
  8
Ebene 1
 62
     7
100
AcDbSpline
210
0.0
220
0.0
230
1.0
 70
     1
 71
     3
 72
    12
 73
     8
 74
     0
 42
0.0000000001
 43
0.0000000001
 40
0.0
 40
0.0
 40
0.0
 40
0.0
 40
0.5
 40
0.5
 40
0.5
 40
0.5
 40
1.0
 40
1.0
 40
1.0
 40
1.0
 10
0.15984
 20
2.1512800000000003
 30
0.0
 10
0.25853
 20
2.1266100000000003
 30
0.0
 10
0.28673
 20
1.9503700000000002
 30
0.0
 10
0.20214
 20
1.9080700000000002
 30
0.0
 10
0.20214
 20
1.9080700000000002
 30
0.0
 10
0.07877
 20
1.9292200000000002
 30
0.0
 10
0.09992
 20
2.0843100000000003
 30
0.0
 10
0.15984
 20
2.1512800000000003
 30
0.0
  0
SPLINE
  5
73
100
AcDbEntity
  8
Ebene 1
 62
     7
100
AcDbSpline
210
0.0
220
0.0
230
1.0
 70
     1
 71
     3
 72
    16
 73
    12
 74
     0
 42
0.0000000001
 43
0.0000000001
 40
0.0
 40
0.0
 40
0.0
 40
0.0
 40
0.3333333333333333
 40
0.3333333333333333
 40
0.3333333333333333
 40
0.3333333333333333
 40
0.6666666666666666
 40
0.6666666666666666
 40
0.6666666666666666
 40
0.6666666666666666
 40
1.0
 40
1.0
 40
1.0
 40
1.0
 10
2.3628300000000002
 20
2.0631600000000003
 30
0.0
 10
2.3945600000000002
 20
2.0631600000000003
 30
0.0
 10
2.4262800000000002
 20
2.0631600000000003
 30
0.0
 10
2.4474300000000002
 20
2.0420100000000003
 30
0.0
 10
2.4474300000000002
 20
2.0420100000000003
 30
0.0
 10
2.4262800000000002
 20
1.8657700000000002
 30
0.0
 10
2.4086600000000002
 20
1.6014100000000002
 30
0.0
 10
2.2147900000000003
 20
1.53444
 30
0.0
 10
2.2147900000000003
 20
1.53444
 30
0.0
 10
2.3064400000000003
 20
1.7106800000000002
 30
0.0
 10
2.2183200000000003
 20
1.9292200000000002
 30
0.0
 10
2.3628300000000002
 20
2.0631600000000003
 30
0.0
  0
SPLINE
  5
74
100
AcDbEntity
  8
Ebene 1
 62
     7
100
AcDbSpline
210
0.0
220
0.0
230
1.0
 70
     1
 71
     3
 72
    12
 73
     8
 74
     0
 42
0.0000000001
 43
0.0000000001
 40
0.0
 40
0.0
 40
0.0
 40
0.0
 40
0.5
 40
0.5
 40
0.5
 40
0.5
 40
1.0
 40
1.0
 40
1.0
 40
1.0
 10
0.4242
 20
2.0420100000000003
 30
0.0
 10
0.52642
 20
1.9961900000000001
 30
0.0
 10
0.54757
 20
1.8199500000000002
 30
0.0
 10
0.46649
 20
1.7529800000000002
 30
0.0
 10
0.46649
 20
1.7529800000000002
 30
0.0
 10
0.3114
 20
1.7741300000000002
 30
0.0
 10
0.3431300000000001
 20
1.9503700000000002
 30
0.0
 10
0.4242
 20
2.0420100000000003
 30
0.0
  0
SPLINE
  5
75
100
AcDbEntity
  8
Ebene 1
 62
     7
100
AcDbSpline
210
0.0
220
0.0
230
1.0
 70
     1
 71
     3
 72
    12
 73
     8
 74
     0
 42
0.0000000001
 43
0.0000000001
 40
0.0
 40
0.0
 40
0.0
 40
0.0
 40
0.5
 40
0.5
 40
0.5
 40
0.5
 40
1.0
 40
1.0
 40
1.0
 40
1.0
 10
0.64273
 20
2.0173400000000004
 30
0.0
 10
0.9564400000000001
 20
2.0631600000000003
 30
0.0
 10
0.8542200000000001
 20
1.7318300000000002
 30
0.0
 10
0.8154500000000001
 20
1.55559
 30
0.0
 10
0.8154500000000001
 20
1.55559
 30
0.0
 10
0.6004400000000001
 20
1.57674
 30
0.0
 10
0.5440400000000001
 20
1.8657700000000002
 30
0.0
 10
0.64273
 20
2.0173400000000004
 30
0.0
  0
SPLINE
  5
76
100
AcDbEntity
  8
Ebene 1
 62
     7
100
AcDbSpline
210
0.0
220
0.0
230
1.0
 70
     1
 71
     3
 72
    20
 73
    16
 74
     0
 42
0.0000000001
 43
0.0000000001
 40
0.0
 40
0.0
 40
0.0
 40
0.0
 40
0.25
 40
0.25
 40
0.25
 40
0.25
 40
0.5
 40
0.5
 40
0.5
 40
0.5
 40
0.75
 40
0.75
 40
0.75
 40
0.75
 40
1.0
 40
1.0
 40
1.0
 40
1.0
 10
2.0561800000000003
 20
1.9961900000000001
 30
0.0
 10
2.3487400000000003
 20
1.9961900000000001
 30
0.0
 10
2.0491300000000003
 20
1.6225600000000002
 30
0.0
 10
2.1830700000000003
 20
1.53444
 30
0.0
 10
2.1830700000000003
 20
1.53444
 30
0.0
 10
2.1830700000000003
 20
1.53444
 30
0.0
 10
2.1584000000000003
 20
1.4886200000000001
 30
0.0
 10
2.1584000000000003
 20
1.4886200000000001
 30
0.0
 10
2.1584000000000003
 20
1.4886200000000001
 30
0.0
 10
2.1584000000000003
 20
1.4886200000000001
 30
0.0
 10
1.9292800000000001
 20
1.4886200000000001
 30
0.0
 10
1.9292800000000001
 20
1.4886200000000001
 30
0.0
 10
1.9292800000000001
 20
1.4886200000000001
 30
0.0
 10
1.9328100000000001
 20
1.6648600000000002
 30
0.0
 10
1.8552600000000001
 20
1.9292200000000002
 30
0.0
 10
2.0561800000000003
 20
1.9961900000000001
 30
0.0
  0
SPLINE
  5
77
100
AcDbEntity
  8
Ebene 1
 62
     7
100
AcDbSpline
210
0.0
220
0.0
230
1.0
 70
     1
 71
     3
 72
    20
 73
    16
 74
     0
 42
0.0000000001
 43
0.0000000001
 40
0.0
 40
0.0
 40
0.0
 40
0.0
 40
0.25
 40
0.25
 40
0.25
 40
0.25
 40
0.5
 40
0.5
 40
0.5
 40
0.5
 40
0.75
 40
0.75
 40
0.75
 40
0.75
 40
1.0
 40
1.0
 40
1.0
 40
1.0
 10
1.56976
 20
1.9292200000000002
 30
0.0
 10
1.7847700000000002
 20
1.9503700000000002
 30
0.0
 10
1.8728900000000002
 20
1.4674700000000001
 30
0.0
 10
1.6155800000000002
 20
1.4886200000000001
 30
0.0
 10
1.6155800000000002
 20
1.4886200000000001
 30
0.0
 10
1.57681
 20
1.4674700000000001
 30
0.0
 10
1.52746
 20
1.4674700000000001
 30
0.0
 10
1.4816400000000001
 20
1.4674700000000001
 30
0.0
 10
1.4816400000000001
 20
1.4674700000000001
 30
0.0
 10
1.44991
 20
1.4463200000000001
 30
0.0
 10
1.4111400000000001
 20
1.4463200000000001
 30
0.0
 10
1.3758900000000001
 20
1.4463200000000001
 30
0.0
 10
1.3758900000000001
 20
1.4463200000000001
 30
0.0
 10
1.2384200000000001
 20
1.57674
 30
0.0
 10
1.3159700000000001
 20
1.9750400000000001
 30
0.0
 10
1.56976
 20
1.9292200000000002
 30
0.0
  0
SPLINE
  5
78
100
AcDbEntity
  8
Ebene 1
 62
     7
100
AcDbSpline
210
0.0
220
0.0
230
1.0
 70
     1
 71
     3
 72
    12
 73
     8
 74
     0
 42
0.0000000001
 43
0.0000000001
 40
0.0
 40
0.0
 40
0.0
 40
0.0
 40
0.5
 40
0.5
 40
0.5
 40
0.5
 40
1.0
 40
1.0
 40
1.0
 40
1.0
 10
0.99521
 20
1.8869200000000002
 30
0.0
 10
1.2913000000000001
 20
1.9750400000000001
 30
0.0
 10
1.1855500000000001
 20
1.57674
 30
0.0
 10
1.1890800000000001
 20
1.42517
 30
0.0
 10
1.1890800000000001
 20
1.42517
 30
0.0
 10
0.8824200000000001
 20
1.3335300000000001
 30
0.0
 10
0.8542200000000001
 20
1.7106800000000002
 30
0.0
 10
0.99521
 20
1.8869200000000002
 30
0.0
  0
SPLINE
  5
79
100
AcDbEntity
  8
Ebene 1
 62
     7
100
AcDbSpline
210
0.0
220
0.0
230
1.0
 70
     1
 71
     3
 72
    16
 73
    12
 74
     0
 42
0.0000000001
 43
0.0000000001
 40
0.0
 40
0.0
 40
0.0
 40
0.0
 40
0.3333333333333333
 40
0.3333333333333333
 40
0.3333333333333333
 40
0.3333333333333333
 40
0.6666666666666666
 40
0.6666666666666666
 40
0.6666666666666666
 40
0.6666666666666666
 40
1.0
 40
1.0
 40
1.0
 40
1.0
 10
3.8185800000000003
 20
1.7529800000000002
 30
0.0
 10
3.8185800000000003
 20
1.7529800000000002
 30
0.0
 10
4.1005600000000006
 20
1.51329
 30
0.0
 10
4.1005600000000006
 20
1.51329
 30
0.0
 10
4.1005600000000006
 20
1.51329
 30
0.0
 10
3.9348900000000002
 20
1.3582000000000001
 30
0.0
 10
3.7410300000000003
 20
1.1819600000000001
 30
0.0
 10
3.6282400000000004
 20
0.9810500000000001
 30
0.0
 10
3.6282400000000004
 20
0.9810500000000001
 30
0.0
 10
3.7093100000000003
 20
1.2242600000000001
 30
0.0
 10
3.6035600000000003
 20
1.55559
 30
0.0
 10
3.8185800000000003
 20
1.7529800000000002
 30
0.0
  0
SPLINE
  5
7A
100
AcDbEntity
  8
Ebene 1
 62
     7
100
AcDbSpline
210
0.0
220
0.0
230
1.0
 70
     1
 71
     3
 72
    36
 73
    32
 74
     0
 42
0.0000000001
 43
0.0000000001
 40
0.0
 40
0.0
 40
0.0
 40
0.0
 40
0.125
 40
0.125
 40
0.125
 40
0.125
 40
0.25
 40
0.25
 40
0.25
 40
0.25
 40
0.375
 40
0.375
 40
0.375
 40
0.375
 40
0.5
 40
0.5
 40
0.5
 40
0.5
 40
0.625
 40
0.625
 40
0.625
 40
0.625
 40
0.75
 40
0.75
 40
0.75
 40
0.75
 40
0.875
 40
0.875
 40
0.875
 40
0.875
 40
1.0
 40
1.0
 40
1.0
 40
1.0
 10
-1.9761700000000002
 20
1.7318300000000002
 30
0.0
 10
-1.7541100000000001
 20
1.7741300000000002
 30
0.0
 10
-1.5285300000000002
 20
1.57674
 30
0.0
 10
-1.5849200000000001
 20
1.3335300000000001
 30
0.0
 10
-1.5849200000000001
 20
1.3335300000000001
 30
0.0
 10
-1.5849200000000001
 20
1.3335300000000001
 30
0.0
 10
-1.7787900000000001
 20
1.4674700000000001
 30
0.0
 10
-1.7787900000000001
 20
1.4674700000000001
 30
0.0
 10
-1.7787900000000001
 20
1.4674700000000001
 30
0.0
 10
-1.8210800000000003
 20
1.4674700000000001
 30
0.0
 10
-1.8281300000000003
 20
1.42517
 30
0.0
 10
-1.8210800000000003
 20
1.3793500000000001
 30
0.0
 10
-1.8210800000000003
 20
1.3793500000000001
 30
0.0
 10
-1.7435400000000001
 20
1.1819600000000001
 30
0.0
 10
-2.1947100000000002
 20
0.7378400000000001
 30
0.0
 10
-1.7611600000000001
 20
0.9176000000000001
 30
0.0
 10
-1.7611600000000001
 20
0.9176000000000001
 30
0.0
 10
-1.8598600000000001
 20
0.6285700000000001
 30
0.0
 10
-2.1418400000000002
 20
0.8964500000000001
 30
0.0
 10
-2.2017600000000002
 20
0.6955400000000001
 30
0.0
 10
-2.2017600000000002
 20
0.6955400000000001
 30
0.0
 10
-2.2017600000000002
 20
0.6955400000000001
 30
0.0
 10
-2.2581600000000002
 20
0.6955400000000001
 30
0.0
 10
-2.2581600000000002
 20
0.6955400000000001
 30
0.0
 10
-2.2581600000000002
 20
0.6955400000000001
 30
0.0
 10
-2.2581600000000002
 20
0.6955400000000001
 30
0.0
 10
-2.3286500000000001
 20
0.80481
 30
0.0
 10
-2.3286500000000001
 20
0.80481
 30
0.0
 10
-2.3286500000000001
 20
0.80481
 30
0.0
 10
-2.2088100000000002
 20
1.1149900000000001
 30
0.0
 10
-2.3039800000000001
 20
1.57674
 30
0.0
 10
-1.9761700000000002
 20
1.7318300000000002
 30
0.0
  0
SPLINE
  5
7B
100
AcDbEntity
  8
Ebene 1
 62
     7
100
AcDbSpline
210
0.0
220
0.0
230
1.0
 70
     1
 71
     3
 72
    12
 73
     8
 74
     0
 42
0.0000000001
 43
0.0000000001
 40
0.0
 40
0.0
 40
0.0
 40
0.0
 40
0.5
 40
0.5
 40
0.5
 40
0.5
 40
1.0
 40
1.0
 40
1.0
 40
1.0
 10
-2.4167700000000001
 20
1.4005000000000001
 30
0.0
 10
-2.2687300000000001
 20
1.3793500000000001
 30
0.0
 10
-2.5542400000000001
 20
1.2489300000000001
 30
0.0
 10
-2.4767000000000001
 20
1.3582000000000001
 30
0.0
 10
-2.4767000000000001
 20
1.3582000000000001
 30
0.0
 10
-2.4767000000000001
 20
1.3582000000000001
 30
0.0
 10
-2.4167700000000001
 20
1.4005000000000001
 30
0.0
 10
-2.4167700000000001
 20
1.4005000000000001
 30
0.0
  0
SPLINE
  5
7C
100
AcDbEntity
  8
Ebene 1
 62
     7
100
AcDbSpline
210
0.0
220
0.0
230
1.0
 70
     1
 71
     3
 72
    12
 73
     8
 74
     0
 42
0.0000000001
 43
0.0000000001
 40
0.0
 40
0.0
 40
0.0
 40
0.0
 40
0.5
 40
0.5
 40
0.5
 40
0.5
 40
1.0
 40
1.0
 40
1.0
 40
1.0
 10
-2.3498000000000001
 20
1.2700800000000001
 30
0.0
 10
-2.3180800000000001
 20
1.2489300000000001
 30
0.0
 10
-2.3180800000000001
 20
1.1572900000000002
 30
0.0
 10
-2.3498000000000001
 20
1.1361400000000001
 30
0.0
 10
-2.3498000000000001
 20
1.1361400000000001
 30
0.0
 10
-2.4238200000000001
 20
1.1572900000000002
 30
0.0
 10
-2.3991500000000001
 20
1.2489300000000001
 30
0.0
 10
-2.3498000000000001
 20
1.2700800000000001
 30
0.0
  0
SPLINE
  5
7D
100
AcDbEntity
  8
Ebene 1
 62
     7
100
AcDbSpline
210
0.0
220
0.0
230
1.0
 70
     1
 71
     3
 72
    20
 73
    16
 74
     0
 42
0.0000000001
 43
0.0000000001
 40
0.0
 40
0.0
 40
0.0
 40
0.0
 40
0.25
 40
0.25
 40
0.25
 40
0.25
 40
0.5
 40
0.5
 40
0.5
 40
0.5
 40
0.75
 40
0.75
 40
0.75
 40
0.75
 40
1.0
 40
1.0
 40
1.0
 40
1.0
 10
-2.7269600000000001
 20
1.2489300000000001
 30
0.0
 10
-2.3674300000000001
 20
1.2242600000000001
 30
0.0
 10
-2.4062000000000001
 20
0.8294800000000001
 30
0.0
 10
-2.4449700000000001
 20
0.5616000000000001
 30
0.0
 10
-2.4449700000000001
 20
0.5616000000000001
 30
0.0
 10
-2.6176900000000001
 20
0.6285700000000001
 30
0.0
 10
-2.75868
 20
0.49815
 30
0.0
 10
-2.9172900000000004
 20
0.477
 30
0.0
 10
-2.9172900000000004
 20
0.477
 30
0.0
 10
-2.9172900000000004
 20
0.477
 30
0.0
 10
-2.8644200000000004
 20
0.6074200000000001
 30
0.0
 10
-2.8644200000000004
 20
0.6074200000000001
 30
0.0
 10
-2.8644200000000004
 20
0.6074200000000001
 30
0.0
 10
-2.5330900000000001
 20
0.6074200000000001
 30
0.0
 10
-2.68466
 20
1.0268700000000002
 30
0.0
 10
-2.7269600000000001
 20
1.2489300000000001
 30
0.0
  0
SPLINE
  5
7E
100
AcDbEntity
  8
Ebene 1
100
AcDbSpline
210
0.0
220
0.0
230
1.0
 70
     1
 71
     3
 72
    24
 73
    20
 74
     0
 42
0.0000000001
 43
0.0000000001
 40
0.0
 40
0.0
 40
0.0
 40
0.0
 40
0.2
 40
0.2
 40
0.2
 40
0.2
 40
0.4
 40
0.4
 40
0.4
 40
0.4
 40
0.6000000000000001
 40
0.6000000000000001
 40
0.6000000000000001
 40
0.6000000000000001
 40
0.8
 40
0.8
 40
0.8
 40
0.8
 40
1.0
 40
1.0
 40
1.0
 40
1.0
 10
-1.22892
 20
1.0938400000000001
 30
0.0
 10
-1.14432
 20
0.65324
 30
0.0
 10
-0.8870100000000001
 20
0.25494
 30
0.0
 10
-0.6050300000000001
 20
-0.094
 30
0.0
 10
-0.6050300000000001
 20
-0.094
 30
0.0
 10
-0.4287900000000001
 20
-0.11515
 30
0.0
 10
-0.1891
 20
-0.07285
 30
0.0
 10
-0.09393
 20
-0.29139
 30
0.0
 10
-0.09393
 20
-0.29139
 30
0.0
 10
0.08934
 20
-0.22794
 30
0.0
 10
0.2973
 20
-0.35836
 30
0.0
 10
0.3360800000000001
 20
-0.55927
 30
0.0
 10
0.3360800000000001
 20
-0.55927
 30
0.0
 10
0.25501
 20
-0.64739
 30
0.0
 10
0.17041
 20
-0.4676300000000001
 30
0.0
 10
0.07172
 20
-0.5134500000000001
 30
0.0
 10
0.07172
 20
-0.5134500000000001
 30
0.0
 10
-0.81652
 20
-0.9082300000000001
 30
0.0
 10
-1.26417
 20
0.4100300000000001
 30
0.0
 10
-1.22892
 20
1.0938400000000001
 30
0.0
  0
SPLINE
  5
7F
100
AcDbEntity
  8
Ebene 1
 62
     7
100
AcDbSpline
210
0.0
220
0.0
230
1.0
 70
     1
 71
     3
 72
    20
 73
    16
 74
     0
 42
0.0000000001
 43
0.0000000001
 40
0.0
 40
0.0
 40
0.0
 40
0.0
 40
0.25
 40
0.25
 40
0.25
 40
0.25
 40
0.5
 40
0.5
 40
0.5
 40
0.5
 40
0.75
 40
0.75
 40
0.75
 40
0.75
 40
1.0
 40
1.0
 40
1.0
 40
1.0
 10
-1.5814000000000001
 20
0.9810500000000001
 30
0.0
 10
-1.5814000000000001
 20
0.9810500000000001
 30
0.0
 10
-1.5849200000000001
 20
0.45233
 30
0.0
 10
-1.5849200000000001
 20
0.45233
 30
0.0
 10
-1.5849200000000001
 20
0.45233
 30
0.0
 10
-1.7893600000000001
 20
0.4100300000000001
 30
0.0
 10
-1.9338800000000003
 20
0.14215
 30
0.0
 10
-2.1242200000000002
 20
0.0787
 30
0.0
 10
-2.1242200000000002
 20
0.0787
 30
0.0
 10
-2.1806100000000002
 20
0.20912
 30
0.0
 10
-2.2440600000000002
 20
0.36421
 30
0.0
 10
-2.2581600000000002
 20
0.5193000000000001
 30
0.0
 10
-2.2581600000000002
 20
0.5193000000000001
 30
0.0
 10
-1.9444500000000002
 20
0.477
 30
0.0
 10
-1.6941900000000001
 20
0.72021
 30
0.0
 10
-1.5814000000000001
 20
0.9810500000000001
 30
0.0
  0
SPLINE
  5
80
100
AcDbEntity
  8
Ebene 1
 62
     7
100
AcDbSpline
210
0.0
220
0.0
230
1.0
 70
     1
 71
     3
 72
    32
 73
    28
 74
     0
 42
0.0000000001
 43
0.0000000001
 40
0.0
 40
0.0
 40
0.0
 40
0.0
 40
0.1428571428571429
 40
0.1428571428571429
 40
0.1428571428571429
 40
0.1428571428571429
 40
0.2857142857142857
 40
0.2857142857142857
 40
0.2857142857142857
 40
0.2857142857142857
 40
0.4285714285714286
 40
0.4285714285714286
 40
0.4285714285714286
 40
0.4285714285714286
 40
0.5714285714285714
 40
0.5714285714285714
 40
0.5714285714285714
 40
0.5714285714285714
 40
0.7142857142857142
 40
0.7142857142857142
 40
0.7142857142857142
 40
0.7142857142857142
 40
0.857142857142857
 40
0.857142857142857
 40
0.857142857142857
 40
0.857142857142857
 40
1.0
 40
1.0
 40
1.0
 40
1.0
 10
3.4661000000000004
 20
0.6955400000000001
 30
0.0
 10
3.5224900000000003
 20
0.49815
 30
0.0
 10
3.3427300000000004
 20
0.18797
 30
0.0
 10
3.3497800000000004
 20
-0.07285
 30
0.0
 10
3.3497800000000004
 20
-0.07285
 30
0.0
 10
2.7717100000000001
 20
-0.29139
 30
0.0
 10
2.3804600000000002
 20
-0.8870800000000001
 30
0.0
 10
1.8341200000000002
 20
-1.13029
 30
0.0
 10
1.8341200000000002
 20
-1.13029
 30
0.0
 10
1.6296800000000002
 20
-1.10914
 30
0.0
 10
1.4393400000000001
 20
-0.9082300000000001
 30
0.0
 10
1.2631000000000001
 20
-0.7989600000000001
 30
0.0
 10
1.2631000000000001
 20
-0.7989600000000001
 30
0.0
 10
0.9458700000000001
 20
-0.8870800000000001
 30
0.0
 10
0.73438
 20
-0.66854
 30
0.0
 10
0.7379000000000001
 20
-0.35836
 30
0.0
 10
0.7379000000000001
 20
-0.35836
 30
0.0
 10
1.0022600000000002
 20
-0.55927
 30
0.0
 10
1.3512200000000001
 20
-0.9752000000000001
 30
0.0
 10
1.6578800000000002
 20
-0.5346000000000001
 30
0.0
 10
1.6578800000000002
 20
-0.5346000000000001
 30
0.0
 10
2.0279800000000003
 20
-0.64739
 30
0.0
 10
2.3804600000000002
 20
-0.4923
 30
0.0
 10
2.5038300000000002
 20
-0.11515
 30
0.0
 10
2.5038300000000002
 20
-0.11515
 30
0.0
 10
2.8175300000000001
 20
0.14215
 30
0.0
 10
3.2475600000000004
 20
0.32191
 30
0.0
 10
3.4661000000000004
 20
0.6955400000000001
 30
0.0
  0
SPLINE
  5
81
100
AcDbEntity
  8
Ebene 1
100
AcDbSpline
210
0.0
220
0.0
230
1.0
 70
     1
 71
     3
 72
    12
 73
     8
 74
     0
 42
0.0000000001
 43
0.0000000001
 40
0.0
 40
0.0
 40
0.0
 40
0.0
 40
0.5
 40
0.5
 40
0.5
 40
0.5
 40
1.0
 40
1.0
 40
1.0
 40
1.0
 10
6.0251000000000001
 20
0.6074200000000001
 30
0.0
 10
6.1026400000000001
 20
0.5404500000000001
 30
0.0
 10
6.0885400000000001
 20
0.38536
 30
0.0
 10
6.0850200000000001
 20
0.27609
 30
0.0
 10
6.0850200000000001
 20
0.27609
 30
0.0
 10
5.9193500000000006
 20
0.27609
 30
0.0
 10
5.9969000000000001
 20
0.5193000000000001
 30
0.0
 10
6.0251000000000001
 20
0.6074200000000001
 30
0.0
  0
SPLINE
  5
82
100
AcDbEntity
  8
Ebene 1
 62
     7
100
AcDbSpline
210
0.0
220
0.0
230
1.0
 70
     1
 71
     3
 72
    28
 73
    24
 74
     0
 42
0.0000000001
 43
0.0000000001
 40
0.0
 40
0.0
 40
0.0
 40
0.0
 40
0.1666666666666667
 40
0.1666666666666667
 40
0.1666666666666667
 40
0.1666666666666667
 40
0.3333333333333333
 40
0.3333333333333333
 40
0.3333333333333333
 40
0.3333333333333333
 40
0.5
 40
0.5
 40
0.5
 40
0.5
 40
0.6666666666666666
 40
0.6666666666666666
 40
0.6666666666666666
 40
0.6666666666666666
 40
0.8333333333333333
 40
0.8333333333333333
 40
0.8333333333333333
 40
0.8333333333333333
 40
1.0
 40
1.0
 40
1.0
 40
1.0
 10
-1.7999300000000003
 20
0.01173
 30
0.0
 10
-1.6730400000000001
 20
0.01173
 30
0.0
 10
-1.6448400000000001
 20
-0.42533
 30
0.0
 10
-1.8175600000000001
 20
-0.35836
 30
0.0
 10
-1.8175600000000001
 20
-0.35836
 30
0.0
 10
-1.8175600000000001
 20
-0.35836
 30
0.0
 10
-1.8598600000000001
 20
-0.64739
 30
0.0
 10
-1.8598600000000001
 20
-0.64739
 30
0.0
 10
-1.8598600000000001
 20
-0.64739
 30
0.0
 10
-1.8598600000000001
 20
-0.64739
 30
0.0
 10
-1.8704300000000003
 20
-0.42533
 30
0.0
 10
-1.8704300000000003
 20
-0.42533
 30
0.0
 10
-1.8704300000000003
 20
-0.42533
 30
0.0
 10
-2.0149500000000002
 20
-0.42533
 30
0.0
 10
-2.1347900000000002
 20
-0.07285
 30
0.0
 10
-1.9162500000000002
 20
-0.094
 30
0.0
 10
-1.9162500000000002
 20
-0.094
 30
0.0
 10
-1.9162500000000002
 20
-0.094
 30
0.0
 10
-1.8492800000000003
 20
-0.0517
 30
0.0
 10
-1.8492800000000003
 20
-0.0517
 30
0.0
 10
-1.8492800000000003
 20
-0.0517
 30
0.0
 10
-1.8492800000000003
 20
-0.0517
 30
0.0
 10
-1.7999300000000003
 20
0.01173
 30
0.0
 10
-1.7999300000000003
 20
0.01173
 30
0.0
  0
SPLINE
  5
83
100
AcDbEntity
  8
Ebene 1
 62
     7
100
AcDbSpline
210
0.0
220
0.0
230
1.0
 70
     1
 71
     3
 72
    20
 73
    16
 74
     0
 42
0.0000000001
 43
0.0000000001
 40
0.0
 40
0.0
 40
0.0
 40
0.0
 40
0.25
 40
0.25
 40
0.25
 40
0.25
 40
0.5
 40
0.5
 40
0.5
 40
0.5
 40
0.75
 40
0.75
 40
0.75
 40
0.75
 40
1.0
 40
1.0
 40
1.0
 40
1.0
 10
-2.3498000000000001
 20
-0.03055
 30
0.0
 10
-2.3498000000000001
 20
-0.03055
 30
0.0
 10
-2.2687300000000001
 20
-0.03055
 30
0.0
 10
-2.2687300000000001
 20
-0.03055
 30
0.0
 10
-2.2687300000000001
 20
-0.03055
 30
0.0
 10
-2.2193900000000002
 20
-0.31606
 30
0.0
 10
-2.6388400000000001
 20
-0.44648
 30
0.0
 10
-2.8291700000000004
 20
-0.35836
 30
0.0
 10
-2.8291700000000004
 20
-0.35836
 30
0.0
 10
-2.8714700000000004
 20
-0.094
 30
0.0
 10
-2.5154700000000001
 20
-0.27024
 30
0.0
 10
-2.4344000000000001
 20
-0.0517
 30
0.0
 10
-2.4344000000000001
 20
-0.0517
 30
0.0
 10
-2.4344000000000001
 20
-0.0517
 30
0.0
 10
-2.3498000000000001
 20
-0.03055
 30
0.0
 10
-2.3498000000000001
 20
-0.03055
 30
0.0
  0
SPLINE
  5
84
100
AcDbEntity
  8
Ebene 1
 62
     7
100
AcDbSpline
210
0.0
220
0.0
230
1.0
 70
     1
 71
     3
 72
    20
 73
    16
 74
     0
 42
0.0000000001
 43
0.0000000001
 40
0.0
 40
0.0
 40
0.0
 40
0.0
 40
0.25
 40
0.25
 40
0.25
 40
0.25
 40
0.5
 40
0.5
 40
0.5
 40
0.5
 40
0.75
 40
0.75
 40
0.75
 40
0.75
 40
1.0
 40
1.0
 40
1.0
 40
1.0
 10
-5.0850400000000002
 20
-0.27024
 30
0.0
 10
-5.0885700000000007
 20
-0.36893
 30
0.0
 10
-5.0498000000000003
 20
-0.42533
 30
0.0
 10
-5.0004500000000007
 20
-0.53812
 30
0.0
 10
-5.0004500000000007
 20
-0.53812
 30
0.0
 10
-4.9828200000000002
 20
-0.5733700000000001
 30
0.0
 10
-4.9017500000000007
 20
-0.6791200000000001
 30
0.0
 10
-4.9581500000000007
 20
-0.71084
 30
0.0
 10
-4.9581500000000007
 20
-0.71084
 30
0.0
 10
-5.1308700000000007
 20
-0.5804200000000001
 30
0.0
 10
-5.3564500000000006
 20
-0.73199
 30
0.0
 10
-5.5432700000000006
 20
-0.66854
 30
0.0
 10
-5.5432700000000006
 20
-0.66854
 30
0.0
 10
-5.4304700000000006
 20
-0.5134500000000001
 30
0.0
 10
-5.2330900000000007
 20
-0.40418
 30
0.0
 10
-5.0850400000000002
 20
-0.27024
 30
0.0
  0
SPLINE
  5
85
100
AcDbEntity
  8
Ebene 1
 62
     7
100
AcDbSpline
210
0.0
220
0.0
230
1.0
 70
     1
 71
     3
 72
    32
 73
    28
 74
     0
 42
0.0000000001
 43
0.0000000001
 40
0.0
 40
0.0
 40
0.0
 40
0.0
 40
0.1428571428571429
 40
0.1428571428571429
 40
0.1428571428571429
 40
0.1428571428571429
 40
0.2857142857142857
 40
0.2857142857142857
 40
0.2857142857142857
 40
0.2857142857142857
 40
0.4285714285714286
 40
0.4285714285714286
 40
0.4285714285714286
 40
0.4285714285714286
 40
0.5714285714285714
 40
0.5714285714285714
 40
0.5714285714285714
 40
0.5714285714285714
 40
0.7142857142857142
 40
0.7142857142857142
 40
0.7142857142857142
 40
0.7142857142857142
 40
0.857142857142857
 40
0.857142857142857
 40
0.857142857142857
 40
0.857142857142857
 40
1.0
 40
1.0
 40
1.0
 40
1.0
 10
-2.2193900000000002
 20
-0.27024
 30
0.0
 10
-2.2193900000000002
 20
-0.27024
 30
0.0
 10
-2.1347900000000002
 20
-0.27024
 30
0.0
 10
-2.1347900000000002
 20
-0.27024
 30
0.0
 10
-2.1347900000000002
 20
-0.27024
 30
0.0
 10
-1.9832200000000002
 20
-0.4676300000000001
 30
0.0
 10
-2.0396200000000002
 20
-0.73199
 30
0.0
 10
-2.1347900000000002
 20
-0.9540500000000001
 30
0.0
 10
-2.1347900000000002
 20
-0.9540500000000001
 30
0.0
 10
-2.3357000000000001
 20
-0.99987
 30
0.0
 10
-2.5260400000000001
 20
-1.21841
 30
0.0
 10
-2.76573
 20
-1.21841
 30
0.0
 10
-2.76573
 20
-1.21841
 30
0.0
 10
-2.72343
 20
-1.02102
 30
0.0
 10
-2.5260400000000001
 20
-0.9540500000000001
 30
0.0
 10
-2.4344000000000001
 20
-0.7778100000000001
 30
0.0
 10
-2.4344000000000001
 20
-0.7778100000000001
 30
0.0
 10
-2.3039800000000001
 20
-0.8236300000000001
 30
0.0
 10
-2.0572400000000002
 20
-0.7566600000000001
 30
0.0
 10
-2.1347900000000002
 20
-0.5804200000000001
 30
0.0
 10
-2.1347900000000002
 20
-0.5804200000000001
 30
0.0
 10
-2.3039800000000001
 20
-0.5804200000000001
 30
0.0
 10
-2.5824400000000001
 20
-0.73199
 30
0.0
 10
-2.70228
 20
-0.5134500000000001
 30
0.0
 10
-2.70228
 20
-0.5134500000000001
 30
0.0
 10
-2.5753900000000001
 20
-0.40418
 30
0.0
 10
-2.3462800000000001
 20
-0.40418
 30
0.0
 10
-2.2193900000000002
 20
-0.27024
 30
0.0
  0
SPLINE
  5
86
100
AcDbEntity
  8
Ebene 1
 62
     7
100
AcDbSpline
210
0.0
220
0.0
230
1.0
 70
     1
 71
     3
 72
    16
 73
    12
 74
     0
 42
0.0000000001
 43
0.0000000001
 40
0.0
 40
0.0
 40
0.0
 40
0.0
 40
0.3333333333333333
 40
0.3333333333333333
 40
0.3333333333333333
 40
0.3333333333333333
 40
0.6666666666666666
 40
0.6666666666666666
 40
0.6666666666666666
 40
0.6666666666666666
 40
1.0
 40
1.0
 40
1.0
 40
1.0
 10
1.3265400000000001
 20
-0.35836
 30
0.0
 10
1.3265400000000001
 20
-0.35836
 30
0.0
 10
1.45696
 20
-0.38303
 30
0.0
 10
1.45696
 20
-0.38303
 30
0.0
 10
1.45696
 20
-0.38303
 30
0.0
 10
1.42171
 20
-0.4676300000000001
 30
0.0
 10
1.3195000000000001
 20
-0.4923
 30
0.0
 10
1.2454700000000001
 20
-0.4676300000000001
 30
0.0
 10
1.2454700000000001
 20
-0.4676300000000001
 30
0.0
 10
1.2454700000000001
 20
-0.4676300000000001
 30
0.0
 10
1.3265400000000001
 20
-0.35836
 30
0.0
 10
1.3265400000000001
 20
-0.35836
 30
0.0
  0
SPLINE
  5
87
100
AcDbEntity
  8
Ebene 1
 62
     7
100
AcDbSpline
210
0.0
220
0.0
230
1.0
 70
     1
 71
     3
 72
    80
 73
    76
 74
     0
 42
0.0000000001
 43
0.0000000001
 40
0.0
 40
0.0
 40
0.0
 40
0.0
 40
0.0526315789473684
 40
0.0526315789473684
 40
0.0526315789473684
 40
0.0526315789473684
 40
0.1052631578947368
 40
0.1052631578947368
 40
0.1052631578947368
 40
0.1052631578947368
 40
0.1578947368421053
 40
0.1578947368421053
 40
0.1578947368421053
 40
0.1578947368421053
 40
0.2105263157894737
 40
0.2105263157894737
 40
0.2105263157894737
 40
0.2105263157894737
 40
0.2631578947368421
 40
0.2631578947368421
 40
0.2631578947368421
 40
0.2631578947368421
 40
0.3157894736842105
 40
0.3157894736842105
 40
0.3157894736842105
 40
0.3157894736842105
 40
0.3684210526315789
 40
0.3684210526315789
 40
0.3684210526315789
 40
0.3684210526315789
 40
0.4210526315789474
 40
0.4210526315789474
 40
0.4210526315789474
 40
0.4210526315789474
 40
0.4736842105263158
 40
0.4736842105263158
 40
0.4736842105263158
 40
0.4736842105263158
 40
0.5263157894736842
 40
0.5263157894736842
 40
0.5263157894736842
 40
0.5263157894736842
 40
0.5789473684210527
 40
0.5789473684210527
 40
0.5789473684210527
 40
0.5789473684210527
 40
0.631578947368421
 40
0.631578947368421
 40
0.631578947368421
 40
0.631578947368421
 40
0.6842105263157894
 40
0.6842105263157894
 40
0.6842105263157894
 40
0.6842105263157894
 40
0.7368421052631577
 40
0.7368421052631577
 40
0.7368421052631577
 40
0.7368421052631577
 40
0.7894736842105261
 40
0.7894736842105261
 40
0.7894736842105261
 40
0.7894736842105261
 40
0.8421052631578945
 40
0.8421052631578945
 40
0.8421052631578945
 40
0.8421052631578945
 40
0.8947368421052628
 40
0.8947368421052628
 40
0.8947368421052628
 40
0.8947368421052628
 40
0.9473684210526312
 40
0.9473684210526312
 40
0.9473684210526312
 40
0.9473684210526312
 40
1.0
 40
1.0
 40
1.0
 40
1.0
 10
-4.8665100000000008
 20
-0.7989600000000001
 30
0.0
 10
-4.5492700000000008
 20
-1.08447
 30
0.0
 10
-5.4516200000000001
 20
-1.6167100000000001
 30
0.0
 10
-5.2189900000000007
 20
-1.9903400000000002
 30
0.0
 10
-5.2189900000000007
 20
-1.9903400000000002
 30
0.0
 10
-4.8559300000000007
 20
-2.0784600000000002
 30
0.0
 10
-4.5069800000000004
 20
-1.8810700000000002
 30
0.0
 10
-4.1650700000000001
 20
-1.7718
 30
0.0
 10
-4.1650700000000001
 20
-1.7718
 30
0.0
 10
-4.2214700000000001
 20
-2.0361600000000002
 30
0.0
 10
-4.2849200000000005
 20
-2.4097900000000001
 30
0.0
 10
-4.0981000000000005
 20
-2.653
 30
0.0
 10
-4.0981000000000005
 20
-2.653
 30
0.0
 10
-4.4646800000000004
 20
-2.8080900000000004
 30
0.0
 10
-5.0956200000000003
 20
-2.9385100000000004
 30
0.0
 10
-5.1343900000000007
 20
-3.3121400000000003
 30
0.0
 10
-5.1343900000000007
 20
-3.3121400000000003
 30
0.0
 10
-5.3740800000000002
 20
-3.2698400000000003
 30
0.0
 10
-5.4375200000000001
 20
-3.4672300000000003
 30
0.0
 10
-5.5080200000000001
 20
-3.6434700000000002
 30
0.0
 10
-5.5080200000000001
 20
-3.6434700000000002
 30
0.0
 10
-5.7406600000000001
 20
-3.6434700000000002
 30
0.0
 10
-5.8569700000000005
 20
-3.8655300000000001
 30
0.0
 10
-6.0719900000000004
 20
-3.9536500000000001
 30
0.0
 10
-6.0719900000000004
 20
-3.9536500000000001
 30
0.0
 10
-6.0719900000000004
 20
-3.9536500000000001
 30
0.0
 10
-6.0367400000000009
 20
-4.1087400000000001
 30
0.0
 10
-6.0367400000000009
 20
-4.1087400000000001
 30
0.0
 10
-6.0367400000000009
 20
-4.1087400000000001
 30
0.0
 10
-6.0367400000000009
 20
-4.1087400000000001
 30
0.0
 10
-6.2482300000000004
 20
-4.1298900000000005
 30
0.0
 10
-6.2482300000000004
 20
-4.1298900000000005
 30
0.0
 10
-6.2482300000000004
 20
-4.1298900000000005
 30
0.0
 10
-6.2905200000000008
 20
-4.2180100000000005
 30
0.0
 10
-6.1283800000000008
 20
-4.3519500000000004
 30
0.0
 10
-6.2588000000000008
 20
-4.4154
 30
0.0
 10
-6.2588000000000008
 20
-4.4154
 30
0.0
 10
-6.4984900000000003
 20
-4.50352
 30
0.0
 10
-6.7029200000000007
 20
-4.2180100000000005
 30
0.0
 10
-6.7840000000000007
 20
-4.0417700000000005
 30
0.0
 10
-6.7840000000000007
 20
-4.0417700000000005
 30
0.0
 10
-6.4456100000000003
 20
-3.6892900000000002
 30
0.0
 10
-6.0367400000000009
 20
-3.3791100000000003
 30
0.0
 10
-6.0261600000000008
 20
-2.8292400000000004
 30
0.0
 10
-6.0261600000000008
 20
-2.8292400000000004
 30
0.0
 10
-6.0261600000000008
 20
-2.8292400000000004
 30
0.0
 10
-6.1812600000000009
 20
-3.1147500000000004
 30
0.0
 10
-6.1812600000000009
 20
-3.1147500000000004
 30
0.0
 10
-6.1812600000000009
 20
-3.1147500000000004
 30
0.0
 10
-6.1883000000000008
 20
-3.0477800000000004
 30
0.0
 10
-6.0755100000000004
 20
-2.7199700000000004
 30
0.0
 10
-6.1918300000000004
 20
-2.8962100000000004
 30
0.0
 10
-6.1918300000000004
 20
-2.8962100000000004
 30
0.0
 10
-6.2094500000000004
 20
-2.9173600000000004
 30
0.0
 10
-6.2376500000000004
 20
-2.9596600000000004
 30
0.0
 10
-6.2341300000000004
 20
-2.8962100000000004
 30
0.0
 10
-6.2341300000000004
 20
-2.8962100000000004
 30
0.0
 10
-6.1953500000000004
 20
-2.67415
 30
0.0
 10
-6.3116700000000003
 20
-2.7376
 30
0.0
 10
-6.4068400000000008
 20
-2.8503900000000004
 30
0.0
 10
-6.4068400000000008
 20
-2.8503900000000004
 30
0.0
 10
-6.6500500000000002
 20
-3.1394200000000003
 30
0.0
 10
-6.5020100000000003
 20
-2.9279400000000004
 30
0.0
 10
-6.4103700000000003
 20
-2.66005
 30
0.0
 10
-6.4103700000000003
 20
-2.66005
 30
0.0
 10
-6.2447000000000008
 20
-2.1630600000000002
 30
0.0
 10
-5.9380400000000009
 20
-1.6977800000000001
 30
0.0
 10
-5.4657200000000001
 20
-1.4193200000000001
 30
0.0
 10
-5.4657200000000001
 20
-1.4193200000000001
 30
0.0
 10
-5.4516200000000001
 20
-1.5039200000000001
 30
0.0
 10
-5.6560600000000001
 20
-1.6590100000000001
 30
0.0
 10
-5.5080200000000001
 20
-1.6590100000000001
 30
0.0
 10
-5.5080200000000001
 20
-1.6590100000000001
 30
0.0
 10
-5.5080200000000001
 20
-1.6590100000000001
 30
0.0
 10
-4.8665100000000008
 20
-0.7989600000000001
 30
0.0
 10
-4.8665100000000008
 20
-0.7989600000000001
 30
0.0
  0
SPLINE
  5
88
100
AcDbEntity
  8
Ebene 1
 62
     7
100
AcDbSpline
210
0.0
220
0.0
230
1.0
 70
     1
 71
     3
 72
    20
 73
    16
 74
     0
 42
0.0000000001
 43
0.0000000001
 40
0.0
 40
0.0
 40
0.0
 40
0.0
 40
0.25
 40
0.25
 40
0.25
 40
0.25
 40
0.5
 40
0.5
 40
0.5
 40
0.5
 40
0.75
 40
0.75
 40
0.75
 40
0.75
 40
1.0
 40
1.0
 40
1.0
 40
1.0
 10
-4.6691200000000004
 20
-1.06332
 30
0.0
 10
-4.6691200000000004
 20
-1.06332
 30
0.0
 10
-4.5845200000000004
 20
-1.4404700000000001
 30
0.0
 10
-4.5845200000000004
 20
-1.4404700000000001
 30
0.0
 10
-4.5845200000000004
 20
-1.4404700000000001
 30
0.0
 10
-4.44353
 20
-1.6590100000000001
 30
0.0
 10
-4.1932700000000001
 20
-1.5039200000000001
 30
0.0
 10
-4.0311300000000001
 20
-1.6378600000000001
 30
0.0
 10
-4.0311300000000001
 20
-1.6378600000000001
 30
0.0
 10
-4.4047600000000005
 20
-1.6167100000000001
 30
0.0
 10
-4.7149400000000004
 20
-1.8387700000000002
 30
0.0
 10
-5.0568500000000007
 20
-1.9022200000000002
 30
0.0
 10
-5.0568500000000007
 20
-1.9022200000000002
 30
0.0
 10
-5.0004500000000007
 20
-1.6378600000000001
 30
0.0
 10
-4.8065800000000003
 20
-1.3276800000000002
 30
0.0
 10
-4.6691200000000004
 20
-1.06332
 30
0.0
  0
SPLINE
  5
89
100
AcDbEntity
  8
Ebene 1
 62
     7
100
AcDbSpline
210
0.0
220
0.0
230
1.0
 70
     1
 71
     3
 72
    16
 73
    12
 74
     0
 42
0.0000000001
 43
0.0000000001
 40
0.0
 40
0.0
 40
0.0
 40
0.0
 40
0.3333333333333333
 40
0.3333333333333333
 40
0.3333333333333333
 40
0.3333333333333333
 40
0.6666666666666666
 40
0.6666666666666666
 40
0.6666666666666666
 40
0.6666666666666666
 40
1.0
 40
1.0
 40
1.0
 40
1.0
 10
-1.7999300000000003
 20
-1.17611
 30
0.0
 10
-1.5884500000000001
 20
-1.19726
 30
0.0
 10
-1.2676900000000002
 20
-1.3523500000000002
 30
0.0
 10
-1.2958900000000002
 20
-1.5955600000000001
 30
0.0
 10
-1.2958900000000002
 20
-1.5955600000000001
 30
0.0
 10
-1.4650800000000002
 20
-1.4616200000000001
 30
0.0
 10
-1.6307400000000001
 20
-1.19726
 30
0.0
 10
-1.8598600000000001
 20
-1.26071
 30
0.0
 10
-1.8598600000000001
 20
-1.26071
 30
0.0
 10
-1.8598600000000001
 20
-1.26071
 30
0.0
 10
-1.7999300000000003
 20
-1.17611
 30
0.0
 10
-1.7999300000000003
 20
-1.17611
 30
0.0
  0
SPLINE
  5
8A
100
AcDbEntity
  8
Ebene 1
 62
     7
100
AcDbSpline
210
0.0
220
0.0
230
1.0
 70
     1
 71
     3
 72
    24
 73
    20
 74
     0
 42
0.0000000001
 43
0.0000000001
 40
0.0
 40
0.0
 40
0.0
 40
0.0
 40
0.2
 40
0.2
 40
0.2
 40
0.2
 40
0.4
 40
0.4
 40
0.4
 40
0.4
 40
0.6000000000000001
 40
0.6000000000000001
 40
0.6000000000000001
 40
0.6000000000000001
 40
0.8
 40
0.8
 40
0.8
 40
0.8
 40
1.0
 40
1.0
 40
1.0
 40
1.0
 10
-3.0582900000000004
 20
-1.3735000000000002
 30
0.0
 10
-3.0582900000000004
 20
-1.3735000000000002
 30
0.0
 10
-2.8855700000000004
 20
-1.3735000000000002
 30
0.0
 10
-2.8855700000000004
 20
-1.3735000000000002
 30
0.0
 10
-2.8855700000000004
 20
-1.3735000000000002
 30
0.0
 10
-2.8855700000000004
 20
-1.3735000000000002
 30
0.0
 10
-3.3825700000000003
 20
-1.5955600000000001
 30
0.0
 10
-3.3825700000000003
 20
-1.5955600000000001
 30
0.0
 10
-3.3825700000000003
 20
-1.5955600000000001
 30
0.0
 10
-3.3896200000000003
 20
-1.5708900000000001
 30
0.0
 10
-3.3966700000000003
 20
-1.5285900000000001
 30
0.0
 10
-3.3649400000000003
 20
-1.5285900000000001
 30
0.0
 10
-3.3649400000000003
 20
-1.5285900000000001
 30
0.0
 10
-3.3649400000000003
 20
-1.5285900000000001
 30
0.0
 10
-3.2133800000000003
 20
-1.4616200000000001
 30
0.0
 10
-3.2133800000000003
 20
-1.4616200000000001
 30
0.0
 10
-3.2133800000000003
 20
-1.4616200000000001
 30
0.0
 10
-3.2133800000000003
 20
-1.4616200000000001
 30
0.0
 10
-3.0582900000000004
 20
-1.3735000000000002
 30
0.0
 10
-3.0582900000000004
 20
-1.3735000000000002
 30
0.0
  0
SPLINE
  5
8B
100
AcDbEntity
  8
Ebene 1
 62
     7
100
AcDbSpline
210
0.0
220
0.0
230
1.0
 70
     1
 71
     3
 72
   100
 73
    96
 74
     0
 42
0.0000000001
 43
0.0000000001
 40
0.0
 40
0.0
 40
0.0
 40
0.0
 40
0.0416666666666667
 40
0.0416666666666667
 40
0.0416666666666667
 40
0.0416666666666667
 40
0.0833333333333333
 40
0.0833333333333333
 40
0.0833333333333333
 40
0.0833333333333333
 40
0.125
 40
0.125
 40
0.125
 40
0.125
 40
0.1666666666666667
 40
0.1666666666666667
 40
0.1666666666666667
 40
0.1666666666666667
 40
0.2083333333333333
 40
0.2083333333333333
 40
0.2083333333333333
 40
0.2083333333333333
 40
0.25
 40
0.25
 40
0.25
 40
0.25
 40
0.2916666666666666
 40
0.2916666666666666
 40
0.2916666666666666
 40
0.2916666666666666
 40
0.3333333333333333
 40
0.3333333333333333
 40
0.3333333333333333
 40
0.3333333333333333
 40
0.375
 40
0.375
 40
0.375
 40
0.375
 40
0.4166666666666667
 40
0.4166666666666667
 40
0.4166666666666667
 40
0.4166666666666667
 40
0.4583333333333334
 40
0.4583333333333334
 40
0.4583333333333334
 40
0.4583333333333334
 40
0.5
 40
0.5
 40
0.5
 40
0.5
 40
0.5416666666666666
 40
0.5416666666666666
 40
0.5416666666666666
 40
0.5416666666666666
 40
0.5833333333333333
 40
0.5833333333333333
 40
0.5833333333333333
 40
0.5833333333333333
 40
0.6249999999999999
 40
0.6249999999999999
 40
0.6249999999999999
 40
0.6249999999999999
 40
0.6666666666666665
 40
0.6666666666666665
 40
0.6666666666666665
 40
0.6666666666666665
 40
0.7083333333333332
 40
0.7083333333333332
 40
0.7083333333333332
 40
0.7083333333333332
 40
0.7499999999999998
 40
0.7499999999999998
 40
0.7499999999999998
 40
0.7499999999999998
 40
0.7916666666666664
 40
0.7916666666666664
 40
0.7916666666666664
 40
0.7916666666666664
 40
0.833333333333333
 40
0.833333333333333
 40
0.833333333333333
 40
0.833333333333333
 40
0.8749999999999997
 40
0.8749999999999997
 40
0.8749999999999997
 40
0.8749999999999997
 40
0.9166666666666663
 40
0.9166666666666663
 40
0.9166666666666663
 40
0.9166666666666663
 40
0.9583333333333329
 40
0.9583333333333329
 40
0.9583333333333329
 40
0.9583333333333329
 40
1.0
 40
1.0
 40
1.0
 40
1.0
 10
-2.2193900000000002
 20
-1.3735000000000002
 30
0.0
 10
-2.0502000000000002
 20
-1.3946500000000002
 30
0.0
 10
-1.8422300000000003
 20
-1.3276800000000002
 30
0.0
 10
-1.7153400000000001
 20
-1.4616200000000001
 30
0.0
 10
-1.7153400000000001
 20
-1.4616200000000001
 30
0.0
 10
-1.7611600000000001
 20
-1.7259800000000001
 30
0.0
 10
-1.9092000000000002
 20
-1.9903400000000002
 30
0.0
 10
-2.1982400000000002
 20
-2.0150100000000002
 30
0.0
 10
-2.1982400000000002
 20
-2.0150100000000002
 30
0.0
 10
-1.7752600000000001
 20
-1.9691900000000002
 30
0.0
 10
-0.9187400000000001
 20
-2.8503900000000004
 30
0.0
 10
-1.7999300000000003
 20
-3.0266300000000004
 30
0.0
 10
-1.7999300000000003
 20
-3.0266300000000004
 30
0.0
 10
-1.4086800000000002
 20
-3.1605700000000003
 30
0.0
 10
-1.13727
 20
-3.6892900000000002
 30
0.0
 10
-1.7576400000000001
 20
-3.7562600000000002
 30
0.0
 10
-1.7576400000000001
 20
-3.7562600000000002
 30
0.0
 10
-1.5496700000000001
 20
-3.9078300000000001
 30
0.0
 10
-1.4368800000000002
 20
-3.8655300000000001
 30
0.0
 10
-1.6836200000000001
 20
-4.0417700000000005
 30
0.0
 10
-1.6836200000000001
 20
-4.0417700000000005
 30
0.0
 10
-1.0421
 20
-3.8655300000000001
 30
0.0
 10
-1.4756500000000001
 20
-4.5916399999999999
 30
0.0
 10
-1.8387100000000001
 20
-4.6163100000000004
 30
0.0
 10
-1.8387100000000001
 20
-4.6163100000000004
 30
0.0
 10
-1.4932800000000002
 20
-4.9229700000000003
 30
0.0
 10
-0.6050300000000001
 20
-4.2180100000000005
 30
0.0
 10
-1.13375
 20
-4.7678800000000008
 30
0.0
 10
-1.13375
 20
-4.7678800000000008
 30
0.0
 10
-1.0421
 20
-4.7255800000000008
 30
0.0
 10
-0.9716100000000001
 20
-4.8806700000000003
 30
0.0
 10
-0.8764400000000001
 20
-4.7678800000000008
 30
0.0
 10
-0.8764400000000001
 20
-4.7678800000000008
 30
0.0
 10
-0.5803600000000001
 20
-4.7255800000000008
 30
0.0
 10
-1.2042400000000002
 20
-5.0322400000000007
 30
0.0
 10
-1.3311400000000002
 20
-4.9229700000000003
 30
0.0
 10
-1.3311400000000002
 20
-4.9229700000000003
 30
0.0
 10
-1.3311400000000002
 20
-4.9229700000000003
 30
0.0
 10
-1.5144300000000002
 20
-4.9018200000000007
 30
0.0
 10
-1.5144300000000002
 20
-4.9018200000000007
 30
0.0
 10
-1.5144300000000002
 20
-4.9018200000000007
 30
0.0
 10
-1.6307400000000001
 20
-4.8560000000000008
 30
0.0
 10
-1.4545000000000001
 20
-4.8137000000000008
 30
0.0
 10
-1.4721300000000002
 20
-4.7467300000000003
 30
0.0
 10
-1.4721300000000002
 20
-4.7467300000000003
 30
0.0
 10
-1.9197800000000003
 20
-4.8137000000000008
 30
0.0
 10
-2.5366200000000001
 20
-5.2543000000000006
 30
0.0
 10
-2.8186000000000004
 20
-4.6586100000000004
 30
0.0
 10
-2.8186000000000004
 20
-4.6586100000000004
 30
0.0
 10
-2.8327000000000004
 20
-4.8348500000000003
 30
0.0
 10
-2.9313900000000004
 20
-4.8348500000000003
 30
0.0
 10
-3.0124600000000004
 20
-4.6586100000000004
 30
0.0
 10
-3.0124600000000004
 20
-4.6586100000000004
 30
0.0
 10
-2.8750000000000004
 20
-4.1757100000000005
 30
0.0
 10
-1.9092000000000002
 20
-4.3731
 30
0.0
 10
-1.7047700000000001
 20
-4.0629200000000001
 30
0.0
 10
-1.7047700000000001
 20
-4.0629200000000001
 30
0.0
 10
-2.1876600000000002
 20
-3.7985600000000002
 30
0.0
 10
-2.6458900000000001
 20
-4.3061300000000005
 30
0.0
 10
-3.1393600000000004
 20
-4.28498
 30
0.0
 10
-3.1393600000000004
 20
-4.28498
 30
0.0
 10
-3.2909200000000003
 20
-4.19686
 30
0.0
 10
-3.4389600000000002
 20
-3.7562600000000002
 30
0.0
 10
-3.1957500000000003
 20
-3.9078300000000001
 30
0.0
 10
-3.1957500000000003
 20
-3.9078300000000001
 30
0.0
 10
-3.2063300000000003
 20
-3.5130500000000002
 30
0.0
 10
-2.63531
 20
-3.4883800000000003
 30
0.0
 10
-2.3498000000000001
 20
-3.3579600000000003
 30
0.0
 10
-2.3498000000000001
 20
-3.3579600000000003
 30
0.0
 10
-1.8563300000000003
 20
-3.2909900000000003
 30
0.0
 10
-2.0396200000000002
 20
-3.0477800000000004
 30
0.0
 10
-2.4167700000000001
 20
-3.2698400000000003
 30
0.0
 10
-2.4167700000000001
 20
-3.2698400000000003
 30
0.0
 10
-2.8397500000000004
 20
-3.5130500000000002
 30
0.0
 10
-3.5834800000000002
 20
-3.6223200000000002
 30
0.0
 10
-3.3578900000000003
 20
-2.8962100000000004
 30
0.0
 10
-3.3578900000000003
 20
-2.8962100000000004
 30
0.0
 10
-2.9384400000000004
 20
-2.7411200000000004
 30
0.0
 10
-2.5154700000000001
 20
-2.5190600000000001
 30
0.0
 10
-2.0572400000000002
 20
-2.4520900000000001
 30
0.0
 10
-2.0572400000000002
 20
-2.4520900000000001
 30
0.0
 10
-1.8034600000000001
 20
-2.5190600000000001
 30
0.0
 10
-1.9127300000000003
 20
-2.2124000000000001
 30
0.0
 10
-2.0889700000000002
 20
-2.3428200000000001
 30
0.0
 10
-2.0889700000000002
 20
-2.3428200000000001
 30
0.0
 10
-2.58596
 20
-2.3216700000000001
 30
0.0
 10
-3.6610300000000002
 20
-3.0266300000000004
 30
0.0
 10
-3.6751300000000002
 20
-2.1912500000000001
 30
0.0
 10
-3.6751300000000002
 20
-2.1912500000000001
 30
0.0
 10
-3.7244700000000002
 20
-2.0361600000000002
 30
0.0
 10
-3.8372700000000002
 20
-2.3428200000000001
 30
0.0
 10
-3.8302200000000002
 20
-2.1665800000000002
 30
0.0
 10
-3.8302200000000002
 20
-2.1665800000000002
 30
0.0
 10
-3.4565900000000003
 20
-1.7259800000000001
 30
0.0
 10
-2.78688
 20
-1.4616200000000001
 30
0.0
 10
-2.2193900000000002
 20
-1.3735000000000002
 30
0.0
  0
SPLINE
  5
8C
100
AcDbEntity
  8
Ebene 1
 62
     7
100
AcDbSpline
210
0.0
220
0.0
230
1.0
 70
     1
 71
     3
 72
    16
 73
    12
 74
     0
 42
0.0000000001
 43
0.0000000001
 40
0.0
 40
0.0
 40
0.0
 40
0.0
 40
0.3333333333333333
 40
0.3333333333333333
 40
0.3333333333333333
 40
0.3333333333333333
 40
0.6666666666666666
 40
0.6666666666666666
 40
0.6666666666666666
 40
0.6666666666666666
 40
1.0
 40
1.0
 40
1.0
 40
1.0
 10
-0.43231
 20
-1.3735000000000002
 30
0.0
 10
-0.31952
 20
-1.4616200000000001
 30
0.0
 10
-0.23845
 20
-1.6590100000000001
 30
0.0
 10
-0.175
 20
-1.79295
 30
0.0
 10
-0.175
 20
-1.79295
 30
0.0
 10
-0.27017
 20
-1.79295
 30
0.0
 10
-0.39002
 20
-1.8141
 30
0.0
 10
-0.4710900000000001
 20
-1.7718
 30
0.0
 10
-0.4710900000000001
 20
-1.7718
 30
0.0
 10
-0.5415800000000001
 20
-1.6378600000000001
 30
0.0
 10
-0.4499400000000001
 20
-1.5039200000000001
 30
0.0
 10
-0.43231
 20
-1.3735000000000002
 30
0.0
  0
SPLINE
  5
8D
100
AcDbEntity
  8
Ebene 1
 62
     7
100
AcDbSpline
210
0.0
220
0.0
230
1.0
 70
     1
 71
     3
 72
    16
 73
    12
 74
     0
 42
0.0000000001
 43
0.0000000001
 40
0.0
 40
0.0
 40
0.0
 40
0.0
 40
0.3333333333333333
 40
0.3333333333333333
 40
0.3333333333333333
 40
0.3333333333333333
 40
0.6666666666666666
 40
0.6666666666666666
 40
0.6666666666666666
 40
0.6666666666666666
 40
1.0
 40
1.0
 40
1.0
 40
1.0
 10
0.11402
 20
-1.4404700000000001
 30
0.0
 10
0.21271
 20
-1.5708900000000001
 30
0.0
 10
0.22328
 20
-1.7718
 30
0.0
 10
0.24091
 20
-1.9480400000000002
 30
0.0
 10
0.24091
 20
-1.9480400000000002
 30
0.0
 10
0.24091
 20
-1.9480400000000002
 30
0.0
 10
0.13164
 20
-1.8810700000000002
 30
0.0
 10
0.13164
 20
-1.8810700000000002
 30
0.0
 10
0.13164
 20
-1.8810700000000002
 30
0.0
 10
-0.14681
 20
-1.9233700000000002
 30
0.0
 10
0.07524
 20
-1.5708900000000001
 30
0.0
 10
0.11402
 20
-1.4404700000000001
 30
0.0
  0
SPLINE
  5
8E
100
AcDbEntity
  8
Ebene 1
 62
     7
100
AcDbSpline
210
0.0
220
0.0
230
1.0
 70
     1
 71
     3
 72
    12
 73
     8
 74
     0
 42
0.0000000001
 43
0.0000000001
 40
0.0
 40
0.0
 40
0.0
 40
0.0
 40
0.5
 40
0.5
 40
0.5
 40
0.5
 40
1.0
 40
1.0
 40
1.0
 40
1.0
 10
-3.8055400000000001
 20
-1.6590100000000001
 30
0.0
 10
-3.5200300000000002
 20
-1.7471300000000001
 30
0.0
 10
-4.2849200000000005
 20
-1.8141
 30
0.0
 10
-3.9394900000000002
 20
-1.7259800000000001
 30
0.0
 10
-3.9394900000000002
 20
-1.7259800000000001
 30
0.0
 10
-3.8936600000000001
 20
-1.7259800000000001
 30
0.0
 10
-3.8372700000000002
 20
-1.7048300000000001
 30
0.0
 10
-3.8055400000000001
 20
-1.6590100000000001
 30
0.0
  0
SPLINE
  5
8F
100
AcDbEntity
  8
Ebene 1
 62
     7
100
AcDbSpline
210
0.0
220
0.0
230
1.0
 70
     1
 71
     3
 72
    24
 73
    20
 74
     0
 42
0.0000000001
 43
0.0000000001
 40
0.0
 40
0.0
 40
0.0
 40
0.0
 40
0.2
 40
0.2
 40
0.2
 40
0.2
 40
0.4
 40
0.4
 40
0.4
 40
0.4
 40
0.6000000000000001
 40
0.6000000000000001
 40
0.6000000000000001
 40
0.6000000000000001
 40
0.8
 40
0.8
 40
0.8
 40
0.8
 40
1.0
 40
1.0
 40
1.0
 40
1.0
 10
4.9218400000000004
 20
-1.7259800000000001
 30
0.0
 10
5.0416800000000004
 20
-1.7048300000000001
 30
0.0
 10
5.01701
 20
-2.0150100000000002
 30
0.0
 10
4.87601
 20
-1.9233700000000002
 30
0.0
 10
4.87601
 20
-1.9233700000000002
 30
0.0
 10
4.87601
 20
-1.9233700000000002
 30
0.0
 10
4.84077
 20
-1.9480400000000002
 30
0.0
 10
4.84077
 20
-1.9480400000000002
 30
0.0
 10
4.84077
 20
-1.9480400000000002
 30
0.0
 10
4.78437
 20
-2.2335500000000001
 30
0.0
 10
4.4248400000000006
 20
-2.1912500000000001
 30
0.0
 10
4.1992500000000001
 20
-2.1912500000000001
 30
0.0
 10
4.1992500000000001
 20
-2.1912500000000001
 30
0.0
 10
4.1922000000000006
 20
-2.1242800000000002
 30
0.0
 10
4.2168800000000006
 20
-2.0573100000000002
 30
0.0
 10
4.2662200000000006
 20
-2.0150100000000002
 30
0.0
 10
4.2662200000000006
 20
-2.0150100000000002
 30
0.0
 10
4.5200100000000001
 20
-2.0573100000000002
 30
0.0
 10
4.7033000000000005
 20
-1.8141
 30
0.0
 10
4.9218400000000004
 20
-1.7259800000000001
 30
0.0
  0
SPLINE
  5
90
100
AcDbEntity
  8
Ebene 1
 62
     7
100
AcDbSpline
210
0.0
220
0.0
230
1.0
 70
     1
 71
     3
 72
    16
 73
    12
 74
     0
 42
0.0000000001
 43
0.0000000001
 40
0.0
 40
0.0
 40
0.0
 40
0.0
 40
0.3333333333333333
 40
0.3333333333333333
 40
0.3333333333333333
 40
0.3333333333333333
 40
0.6666666666666666
 40
0.6666666666666666
 40
0.6666666666666666
 40
0.6666666666666666
 40
1.0
 40
1.0
 40
1.0
 40
1.0
 10
-3.8936600000000001
 20
-1.8810700000000002
 30
0.0
 10
-3.8936600000000001
 20
-1.8810700000000002
 30
0.0
 10
-3.7914400000000001
 20
-1.8810700000000002
 30
0.0
 10
-3.7914400000000001
 20
-1.8810700000000002
 30
0.0
 10
-3.7914400000000001
 20
-1.8810700000000002
 30
0.0
 10
-4.0417000000000005
 20
-1.9691900000000002
 30
0.0
 10
-3.9782600000000001
 20
-2.2758500000000002
 30
0.0
 10
-3.9218600000000001
 20
-2.4767600000000001
 30
0.0
 10
-3.9218600000000001
 20
-2.4767600000000001
 30
0.0
 10
-4.1932700000000001
 20
-2.4309400000000001
 30
0.0
 10
-4.1545000000000005
 20
-1.8810700000000002
 30
0.0
 10
-3.8936600000000001
 20
-1.8810700000000002
 30
0.0
  0
SPLINE
  5
91
100
AcDbEntity
  8
Ebene 1
 62
     7
100
AcDbSpline
210
0.0
220
0.0
230
1.0
 70
     1
 71
     3
 72
    88
 73
    84
 74
     0
 42
0.0000000001
 43
0.0000000001
 40
0.0
 40
0.0
 40
0.0
 40
0.0
 40
0.0476190476190476
 40
0.0476190476190476
 40
0.0476190476190476
 40
0.0476190476190476
 40
0.0952380952380952
 40
0.0952380952380952
 40
0.0952380952380952
 40
0.0952380952380952
 40
0.1428571428571429
 40
0.1428571428571429
 40
0.1428571428571429
 40
0.1428571428571429
 40
0.1904761904761905
 40
0.1904761904761905
 40
0.1904761904761905
 40
0.1904761904761905
 40
0.2380952380952381
 40
0.2380952380952381
 40
0.2380952380952381
 40
0.2380952380952381
 40
0.2857142857142857
 40
0.2857142857142857
 40
0.2857142857142857
 40
0.2857142857142857
 40
0.3333333333333333
 40
0.3333333333333333
 40
0.3333333333333333
 40
0.3333333333333333
 40
0.3809523809523809
 40
0.3809523809523809
 40
0.3809523809523809
 40
0.3809523809523809
 40
0.4285714285714286
 40
0.4285714285714286
 40
0.4285714285714286
 40
0.4285714285714286
 40
0.4761904761904762
 40
0.4761904761904762
 40
0.4761904761904762
 40
0.4761904761904762
 40
0.5238095238095237
 40
0.5238095238095237
 40
0.5238095238095237
 40
0.5238095238095237
 40
0.5714285714285714
 40
0.5714285714285714
 40
0.5714285714285714
 40
0.5714285714285714
 40
0.6190476190476191
 40
0.6190476190476191
 40
0.6190476190476191
 40
0.6190476190476191
 40
0.6666666666666667
 40
0.6666666666666667
 40
0.6666666666666667
 40
0.6666666666666667
 40
0.7142857142857144
 40
0.7142857142857144
 40
0.7142857142857144
 40
0.7142857142857144
 40
0.7619047619047621
 40
0.7619047619047621
 40
0.7619047619047621
 40
0.7619047619047621
 40
0.8095238095238098
 40
0.8095238095238098
 40
0.8095238095238098
 40
0.8095238095238098
 40
0.8571428571428574
 40
0.8571428571428574
 40
0.8571428571428574
 40
0.8571428571428574
 40
0.9047619047619051
 40
0.9047619047619051
 40
0.9047619047619051
 40
0.9047619047619051
 40
0.9523809523809528
 40
0.9523809523809528
 40
0.9523809523809528
 40
0.9523809523809528
 40
1.0
 40
1.0
 40
1.0
 40
1.0
 10
-1.2042400000000002
 20
-1.8810700000000002
 30
0.0
 10
-0.67552
 20
-2.0784600000000002
 30
0.0
 10
-0.45346
 20
-2.7199700000000004
 30
0.0
 10
-0.175
 20
-3.1605700000000003
 30
0.0
 10
-0.175
 20
-3.1605700000000003
 30
0.0
 10
-0.3019
 20
-2.56488
 30
0.0
 10
-0.06926
 20
-2.6071800000000001
 30
0.0
 10
-0.4992900000000001
 20
-2.1454300000000002
 30
0.0
 10
-0.4992900000000001
 20
-2.1454300000000002
 30
0.0
 10
-0.4992900000000001
 20
-2.1454300000000002
 30
0.0
 10
-0.3441900000000001
 20
-2.1242800000000002
 30
0.0
 10
-0.3441900000000001
 20
-2.1242800000000002
 30
0.0
 10
-0.3441900000000001
 20
-2.1242800000000002
 30
0.0
 10
0.04706
 20
-2.3674900000000001
 30
0.0
 10
0.16336
 20
-2.8503900000000004
 30
0.0
 10
0.19861
 20
-3.2909900000000003
 30
0.0
 10
0.19861
 20
-3.2909900000000003
 30
0.0
 10
0.19861
 20
-3.2909900000000003
 30
0.0
 10
-0.07983
 20
-2.8962100000000004
 30
0.0
 10
-0.07983
 20
-2.8962100000000004
 30
0.0
 10
-0.07983
 20
-2.8962100000000004
 30
0.0
 10
-0.07983
 20
-2.8962100000000004
 30
0.0
 10
-0.10451
 20
-3.0266300000000004
 30
0.0
 10
-0.10451
 20
-3.0266300000000004
 30
0.0
 10
-0.10451
 20
-3.0266300000000004
 30
0.0
 10
-0.09393
 20
-3.2028700000000003
 30
0.0
 10
0.07877
 20
-3.4249300000000003
 30
0.0
 10
0.24091
 20
-3.3791100000000003
 30
0.0
 10
0.24091
 20
-3.3791100000000003
 30
0.0
 10
0.29378
 20
-3.6223200000000002
 30
0.0
 10
0.32198
 20
-3.9078300000000001
 30
0.0
 10
0.26558
 20
-4.1510400000000001
 30
0.0
 10
0.26558
 20
-4.1510400000000001
 30
0.0
 10
0.09639
 20
-4.1298900000000005
 30
0.0
 10
0.18804
 20
-3.8655300000000001
 30
0.0
 10
0.05763
 20
-3.7985600000000002
 30
0.0
 10
0.05763
 20
-3.7985600000000002
 30
0.0
 10
0.12106
 20
-3.6892900000000002
 30
0.0
 10
0.01886
 20
-3.5553500000000002
 30
0.0
 10
-0.05164
 20
-3.4672300000000003
 30
0.0
 10
-0.05164
 20
-3.4672300000000003
 30
0.0
 10
-0.08688
 20
-3.8866800000000001
 30
0.0
 10
0.04001
 20
-4.4365500000000004
 30
0.0
 10
-0.41117
 20
-4.6586100000000004
 30
0.0
 10
-0.41117
 20
-4.6586100000000004
 30
0.0
 10
-0.36182
 20
-4.46122
 30
0.0
 10
-0.15386
 20
-4.1298900000000005
 30
0.0
 10
-0.28075
 20
-3.8866800000000001
 30
0.0
 10
-0.28075
 20
-3.8866800000000001
 30
0.0
 10
-0.5451100000000001
 20
-3.9994700000000005
 30
0.0
 10
-1.03505
 20
-4.3942500000000004
 30
0.0
 10
-1.22187
 20
-3.9748000000000001
 30
0.0
 10
-1.22187
 20
-3.9748000000000001
 30
0.0
 10
-1.0315300000000001
 20
-3.6892900000000002
 30
0.0
 10
-0.5028100000000001
 20
-3.8232300000000001
 30
0.0
 10
-0.3935400000000001
 20
-3.4883800000000003
 30
0.0
 10
-0.3935400000000001
 20
-3.4883800000000003
 30
0.0
 10
-0.78832
 20
-3.3579600000000003
 30
0.0
 10
-1.0421
 20
-3.6434700000000002
 30
0.0
 10
-1.3099900000000002
 20
-3.2451700000000003
 30
0.0
 10
-1.3099900000000002
 20
-3.2451700000000003
 30
0.0
 10
-1.21482
 20
-3.1359000000000004
 30
0.0
 10
-0.8975900000000001
 20
-3.0936000000000003
 30
0.0
 10
-0.7002
 20
-3.1147500000000004
 30
0.0
 10
-0.7002
 20
-3.1147500000000004
 30
0.0
 10
-0.5486300000000001
 20
-2.653
 30
0.0
 10
-0.9716100000000001
 20
-2.9173600000000004
 30
0.0
 10
-1.13375
 20
-2.8503900000000004
 30
0.0
 10
-1.13375
 20
-2.8503900000000004
 30
0.0
 10
-0.9504600000000001
 20
-2.3674900000000001
 30
0.0
 10
-1.6131200000000001
 20
-2.3886400000000001
 30
0.0
 10
-1.6166500000000001
 20
-2.0361600000000002
 30
0.0
 10
-1.6166500000000001
 20
-2.0361600000000002
 30
0.0
 10
-1.5003300000000002
 20
-2.0573100000000002
 30
0.0
 10
-1.4086800000000002
 20
-2.2758500000000002
 30
0.0
 10
-1.24302
 20
-2.1912500000000001
 30
0.0
 10
-1.24302
 20
-2.1912500000000001
 30
0.0
 10
-1.14432
 20
-2.2335500000000001
 30
0.0
 10
-0.8799600000000001
 20
-2.1912500000000001
 30
0.0
 10
-1.0879300000000001
 20
-2.0784600000000002
 30
0.0
 10
-1.0879300000000001
 20
-2.0784600000000002
 30
0.0
 10
-1.13375
 20
-2.0150100000000002
 30
0.0
 10
-1.23597
 20
-1.9480400000000002
 30
0.0
 10
-1.2042400000000002
 20
-1.8810700000000002
 30
0.0
  0
SPLINE
  5
92
100
AcDbEntity
  8
Ebene 1
 62
     7
100
AcDbSpline
210
0.0
220
0.0
230
1.0
 70
     1
 71
     3
 72
    16
 73
    12
 74
     0
 42
0.0000000001
 43
0.0000000001
 40
0.0
 40
0.0
 40
0.0
 40
0.0
 40
0.3333333333333333
 40
0.3333333333333333
 40
0.3333333333333333
 40
0.3333333333333333
 40
0.6666666666666666
 40
0.6666666666666666
 40
0.6666666666666666
 40
0.6666666666666666
 40
1.0
 40
1.0
 40
1.0
 40
1.0
 10
0.3114
 20
-4.3731
 30
0.0
 10
0.6039600000000001
 20
-3.5553500000000002
 30
0.0
 10
0.39247
 20
-2.0573100000000002
 30
0.0
 10
-0.6050300000000001
 20
-1.9903400000000002
 30
0.0
 10
-0.6050300000000001
 20
-1.9903400000000002
 30
0.0
 10
-0.6050300000000001
 20
-1.9903400000000002
 30
0.0
 10
-0.32305
 20
-1.8810700000000002
 30
0.0
 10
-0.32305
 20
-1.8810700000000002
 30
0.0
 10
-0.32305
 20
-1.8810700000000002
 30
0.0
 10
0.7872500000000001
 20
-1.9691900000000002
 30
0.0
 10
1.0480900000000002
 20
-3.6892900000000002
 30
0.0
 10
0.3114
 20
-4.3731
 30
0.0
  0
SPLINE
  5
93
100
AcDbEntity
  8
Ebene 1
 62
     7
100
AcDbSpline
210
0.0
220
0.0
230
1.0
 70
     1
 71
     3
 72
    28
 73
    24
 74
     0
 42
0.0000000001
 43
0.0000000001
 40
0.0
 40
0.0
 40
0.0
 40
0.0
 40
0.1666666666666667
 40
0.1666666666666667
 40
0.1666666666666667
 40
0.1666666666666667
 40
0.3333333333333333
 40
0.3333333333333333
 40
0.3333333333333333
 40
0.3333333333333333
 40
0.5
 40
0.5
 40
0.5
 40
0.5
 40
0.6666666666666666
 40
0.6666666666666666
 40
0.6666666666666666
 40
0.6666666666666666
 40
0.8333333333333333
 40
0.8333333333333333
 40
0.8333333333333333
 40
0.8333333333333333
 40
1.0
 40
1.0
 40
1.0
 40
1.0
 10
5.2954600000000003
 20
-1.9022200000000002
 30
0.0
 10
5.3448100000000007
 20
-2.0573100000000002
 30
0.0
 10
5.2919400000000003
 20
-2.2547000000000001
 30
0.0
 10
5.2073400000000003
 20
-2.3886400000000001
 30
0.0
 10
5.2073400000000003
 20
-2.3886400000000001
 30
0.0
 10
5.3342400000000003
 20
-2.6953
 30
0.0
 10
4.81257
 20
-3.1605700000000003
 30
0.0
 10
4.5305800000000005
 20
-2.9385100000000004
 30
0.0
 10
4.5305800000000005
 20
-2.9385100000000004
 30
0.0
 10
4.4001700000000001
 20
-2.9596600000000004
 30
0.0
 10
4.1992500000000001
 20
-3.0266300000000004
 30
0.0
 10
4.1040800000000006
 20
-2.8962100000000004
 30
0.0
 10
4.1040800000000006
 20
-2.8962100000000004
 30
0.0
 10
4.2098300000000002
 20
-2.7199700000000004
 30
0.0
 10
4.3931200000000006
 20
-2.7834200000000004
 30
0.0
 10
4.4636100000000001
 20
-2.56488
 30
0.0
 10
4.4636100000000001
 20
-2.56488
 30
0.0
 10
4.5164800000000005
 20
-2.653
 30
0.0
 10
4.6151800000000005
 20
-2.63185
 30
0.0
 10
4.6574800000000005
 20
-2.5190600000000001
 30
0.0
 10
4.6574800000000005
 20
-2.5190600000000001
 30
0.0
 10
4.97471
 20
-2.653
 30
0.0
 10
5.1192200000000003
 20
-2.1242800000000002
 30
0.0
 10
5.2954600000000003
 20
-1.9022200000000002
 30
0.0
  0
SPLINE
  5
94
100
AcDbEntity
  8
Ebene 1
 62
     7
100
AcDbSpline
210
0.0
220
0.0
230
1.0
 70
     1
 71
     3
 72
    20
 73
    16
 74
     0
 42
0.0000000001
 43
0.0000000001
 40
0.0
 40
0.0
 40
0.0
 40
0.0
 40
0.25
 40
0.25
 40
0.25
 40
0.25
 40
0.5
 40
0.5
 40
0.5
 40
0.5
 40
0.75
 40
0.75
 40
0.75
 40
0.75
 40
1.0
 40
1.0
 40
1.0
 40
1.0
 10
1.6578800000000002
 20
-2.0150100000000002
 30
0.0
 10
1.6790200000000002
 20
-2.0150100000000002
 30
0.0
 10
1.7213200000000002
 20
-1.9903400000000002
 30
0.0
 10
1.7248500000000002
 20
-2.0361600000000002
 30
0.0
 10
1.7248500000000002
 20
-2.0361600000000002
 30
0.0
 10
1.7248500000000002
 20
-2.0361600000000002
 30
0.0
 10
0.8436500000000001
 20
-2.7199700000000004
 30
0.0
 10
0.8436500000000001
 20
-2.7199700000000004
 30
0.0
 10
0.8436500000000001
 20
-2.7199700000000004
 30
0.0
 10
0.8436500000000001
 20
-2.7199700000000004
 30
0.0
 10
0.6074900000000001
 20
-2.2335500000000001
 30
0.0
 10
0.6074900000000001
 20
-2.2335500000000001
 30
0.0
 10
0.6074900000000001
 20
-2.2335500000000001
 30
0.0
 10
0.6074900000000001
 20
-2.2335500000000001
 30
0.0
 10
1.6578800000000002
 20
-2.0150100000000002
 30
0.0
 10
1.6578800000000002
 20
-2.0150100000000002
 30
0.0
  0
SPLINE
  5
95
100
AcDbEntity
  8
Ebene 1
 62
     7
100
AcDbSpline
210
0.0
220
0.0
230
1.0
 70
     1
 71
     3
 72
    44
 73
    40
 74
     0
 42
0.0000000001
 43
0.0000000001
 40
0.0
 40
0.0
 40
0.0
 40
0.0
 40
0.1
 40
0.1
 40
0.1
 40
0.1
 40
0.2
 40
0.2
 40
0.2
 40
0.2
 40
0.3
 40
0.3
 40
0.3
 40
0.3
 40
0.4
 40
0.4
 40
0.4
 40
0.4
 40
0.5
 40
0.5
 40
0.5
 40
0.5
 40
0.6
 40
0.6
 40
0.6
 40
0.6
 40
0.7
 40
0.7
 40
0.7
 40
0.7
 40
0.7999999999999999
 40
0.7999999999999999
 40
0.7999999999999999
 40
0.7999999999999999
 40
0.8999999999999999
 40
0.8999999999999999
 40
0.8999999999999999
 40
0.8999999999999999
 40
1.0
 40
1.0
 40
1.0
 40
1.0
 10
-4.0276100000000001
 20
-2.7411200000000004
 30
0.0
 10
-3.7597200000000002
 20
-2.7622700000000004
 30
0.0
 10
-4.2496700000000001
 20
-2.9385100000000004
 30
0.0
 10
-4.22499
 20
-3.1147500000000004
 30
0.0
 10
-4.22499
 20
-3.1147500000000004
 30
0.0
 10
-4.22499
 20
-3.1147500000000004
 30
0.0
 10
-4.22499
 20
-3.3121400000000003
 30
0.0
 10
-4.22499
 20
-3.3121400000000003
 30
0.0
 10
-4.22499
 20
-3.3121400000000003
 30
0.0
 10
-4.22499
 20
-3.3121400000000003
 30
0.0
 10
-4.0945800000000006
 20
-3.6892900000000002
 30
0.0
 10
-4.0945800000000006
 20
-3.6892900000000002
 30
0.0
 10
-4.0945800000000006
 20
-3.6892900000000002
 30
0.0
 10
-4.2884400000000005
 20
-4.3731
 30
0.0
 10
-5.0427500000000007
 20
-4.9899400000000007
 30
0.0
 10
-5.7477100000000005
 20
-4.5704900000000004
 30
0.0
 10
-5.7477100000000005
 20
-4.5704900000000004
 30
0.0
 10
-5.7477100000000005
 20
-4.5704900000000004
 30
0.0
 10
-6.0578900000000004
 20
-4.50352
 30
0.0
 10
-6.0578900000000004
 20
-4.50352
 30
0.0
 10
-6.0578900000000004
 20
-4.50352
 30
0.0
 10
-5.9486200000000009
 20
-4.32728
 30
0.0
 10
-5.7195100000000005
 20
-4.3942500000000004
 30
0.0
 10
-5.5538400000000001
 20
-4.32728
 30
0.0
 10
-5.5538400000000001
 20
-4.32728
 30
0.0
 10
-5.4128500000000006
 20
-4.2603100000000005
 30
0.0
 10
-5.4622000000000002
 20
-4.1757100000000005
 30
0.0
 10
-5.5185900000000006
 20
-4.0629200000000001
 30
0.0
 10
-5.5185900000000006
 20
-4.0629200000000001
 30
0.0
 10
-5.3494000000000002
 20
-3.9994700000000005
 30
0.0
 10
-5.1907900000000007
 20
-3.9536500000000001
 30
0.0
 10
-5.1026700000000007
 20
-3.7774100000000002
 30
0.0
 10
-5.1026700000000007
 20
-3.7774100000000002
 30
0.0
 10
-4.6691200000000004
 20
-3.7315900000000002
 30
0.0
 10
-4.4329600000000005
 20
-3.2909900000000003
 30
0.0
 10
-4.3730400000000005
 20
-2.9385100000000004
 30
0.0
 10
-4.3730400000000005
 20
-2.9385100000000004
 30
0.0
 10
-4.3730400000000005
 20
-2.9385100000000004
 30
0.0
 10
-4.0276100000000001
 20
-2.7411200000000004
 30
0.0
 10
-4.0276100000000001
 20
-2.7411200000000004
 30
0.0
  0
SPLINE
  5
96
100
AcDbEntity
  8
Ebene 1
 62
     7
100
AcDbSpline
210
0.0
220
0.0
230
1.0
 70
     1
 71
     3
 72
    28
 73
    24
 74
     0
 42
0.0000000001
 43
0.0000000001
 40
0.0
 40
0.0
 40
0.0
 40
0.0
 40
0.1666666666666667
 40
0.1666666666666667
 40
0.1666666666666667
 40
0.1666666666666667
 40
0.3333333333333333
 40
0.3333333333333333
 40
0.3333333333333333
 40
0.3333333333333333
 40
0.5
 40
0.5
 40
0.5
 40
0.5
 40
0.6666666666666666
 40
0.6666666666666666
 40
0.6666666666666666
 40
0.6666666666666666
 40
0.8333333333333333
 40
0.8333333333333333
 40
0.8333333333333333
 40
0.8333333333333333
 40
1.0
 40
1.0
 40
1.0
 40
1.0
 10
-3.7174200000000002
 20
-2.8962100000000004
 30
0.0
 10
-3.6187300000000002
 20
-2.9385100000000004
 30
0.0
 10
-3.7280000000000002
 20
-3.1817200000000003
 30
0.0
 10
-3.5693800000000002
 20
-3.2275400000000003
 30
0.0
 10
-3.5693800000000002
 20
-3.2275400000000003
 30
0.0
 10
-3.5693800000000002
 20
-3.2275400000000003
 30
0.0
 10
-3.5799600000000003
 20
-2.9596600000000004
 30
0.0
 10
-3.5799600000000003
 20
-2.9596600000000004
 30
0.0
 10
-3.5799600000000003
 20
-2.9596600000000004
 30
0.0
 10
-3.5658600000000003
 20
-2.9596600000000004
 30
0.0
 10
-3.5482300000000002
 20
-2.9173600000000004
 30
0.0
 10
-3.5235600000000002
 20
-2.9385100000000004
 30
0.0
 10
-3.5235600000000002
 20
-2.9385100000000004
 30
0.0
 10
-3.5059400000000003
 20
-3.1359000000000004
 30
0.0
 10
-3.4847900000000003
 20
-3.3121400000000003
 30
0.0
 10
-3.3719900000000003
 20
-3.4672300000000003
 30
0.0
 10
-3.3719900000000003
 20
-3.4672300000000003
 30
0.0
 10
-3.5517600000000003
 20
-3.5553500000000002
 30
0.0
 10
-3.7949700000000002
 20
-3.6011700000000002
 30
0.0
 10
-3.9994100000000001
 20
-3.5342000000000002
 30
0.0
 10
-3.9994100000000001
 20
-3.5342000000000002
 30
0.0
 10
-4.2567200000000005
 20
-3.2698400000000003
 30
0.0
 10
-3.9888300000000005
 20
-2.9596600000000004
 30
0.0
 10
-3.7174200000000002
 20
-2.8962100000000004
 30
0.0
  0
SPLINE
  5
97
100
AcDbEntity
  8
Ebene 1
 62
     7
100
AcDbSpline
210
0.0
220
0.0
230
1.0
 70
     1
 71
     3
 72
    20
 73
    16
 74
     0
 42
0.0000000001
 43
0.0000000001
 40
0.0
 40
0.0
 40
0.0
 40
0.0
 40
0.25
 40
0.25
 40
0.25
 40
0.25
 40
0.5
 40
0.5
 40
0.5
 40
0.5
 40
0.75
 40
0.75
 40
0.75
 40
0.75
 40
1.0
 40
1.0
 40
1.0
 40
1.0
 10
0.8189700000000001
 20
-3.0477800000000004
 30
0.0
 10
0.8189700000000001
 20
-3.0477800000000004
 30
0.0
 10
1.7424700000000002
 20
-3.3579600000000003
 30
0.0
 10
1.7424700000000002
 20
-3.3579600000000003
 30
0.0
 10
1.7424700000000002
 20
-3.3579600000000003
 30
0.0
 10
1.4252400000000001
 20
-3.4672300000000003
 30
0.0
 10
1.1221100000000002
 20
-3.6434700000000002
 30
0.0
 10
0.8436500000000001
 20
-3.8408600000000002
 30
0.0
 10
0.8436500000000001
 20
-3.8408600000000002
 30
0.0
 10
0.8436500000000001
 20
-3.8408600000000002
 30
0.0
 10
0.78373
 20
-3.8232300000000001
 30
0.0
 10
0.78373
 20
-3.8232300000000001
 30
0.0
 10
0.78373
 20
-3.8232300000000001
 30
0.0
 10
0.78373
 20
-3.8232300000000001
 30
0.0
 10
0.8189700000000001
 20
-3.0477800000000004
 30
0.0
 10
0.8189700000000001
 20
-3.0477800000000004
 30
0.0
  0
SPLINE
  5
98
100
AcDbEntity
  8
Ebene 1
 62
     7
100
AcDbSpline
210
0.0
220
0.0
230
1.0
 70
     1
 71
     3
 72
    24
 73
    20
 74
     0
 42
0.0000000001
 43
0.0000000001
 40
0.0
 40
0.0
 40
0.0
 40
0.0
 40
0.2
 40
0.2
 40
0.2
 40
0.2
 40
0.4
 40
0.4
 40
0.4
 40
0.4
 40
0.6000000000000001
 40
0.6000000000000001
 40
0.6000000000000001
 40
0.6000000000000001
 40
0.8
 40
0.8
 40
0.8
 40
0.8
 40
1.0
 40
1.0
 40
1.0
 40
1.0
 10
3.8185800000000003
 20
-3.4672300000000003
 30
0.0
 10
3.9630900000000002
 20
-3.6011700000000002
 30
0.0
 10
4.1992500000000001
 20
-3.4037800000000002
 30
0.0
 10
4.3261500000000002
 20
-3.5553500000000002
 30
0.0
 10
4.3261500000000002
 20
-3.5553500000000002
 30
0.0
 10
3.6106100000000003
 20
-3.8655300000000001
 30
0.0
 10
2.7787600000000001
 20
-3.9078300000000001
 30
0.0
 10
1.9962600000000001
 20
-4.0206200000000001
 30
0.0
 10
1.9962600000000001
 20
-4.0206200000000001
 30
0.0
 10
2.1020000000000003
 20
-3.8866800000000001
 30
0.0
 10
2.2747100000000002
 20
-3.8232300000000001
 30
0.0
 10
2.4298100000000002
 20
-3.7562600000000002
 30
0.0
 10
2.4298100000000002
 20
-3.7562600000000002
 30
0.0
 10
2.5884200000000002
 20
-3.6434700000000002
 30
0.0
 10
2.8034300000000001
 20
-3.5553500000000002
 30
0.0
 10
2.96557
 20
-3.5130500000000002
 30
0.0
 10
2.96557
 20
-3.5130500000000002
 30
0.0
 10
3.2017400000000005
 20
-3.6434700000000002
 30
0.0
 10
3.5612600000000003
 20
-3.5342000000000002
 30
0.0
 10
3.8185800000000003
 20
-3.4672300000000003
 30
0.0
  0
SPLINE
  5
99
100
AcDbEntity
  8
Ebene 1
 62
     7
100
AcDbSpline
210
0.0
220
0.0
230
1.0
 70
     1
 71
     3
 72
    24
 73
    20
 74
     0
 42
0.0000000001
 43
0.0000000001
 40
0.0
 40
0.0
 40
0.0
 40
0.0
 40
0.2
 40
0.2
 40
0.2
 40
0.2
 40
0.4
 40
0.4
 40
0.4
 40
0.4
 40
0.6000000000000001
 40
0.6000000000000001
 40
0.6000000000000001
 40
0.6000000000000001
 40
0.8
 40
0.8
 40
0.8
 40
0.8
 40
1.0
 40
1.0
 40
1.0
 40
1.0
 10
4.9218400000000004
 20
-3.6011700000000002
 30
0.0
 10
5.2179200000000003
 20
-3.6011700000000002
 30
0.0
 10
5.0275800000000004
 20
-4.1510400000000001
 30
0.0
 10
4.7949400000000004
 20
-3.9536500000000001
 30
0.0
 10
4.7949400000000004
 20
-3.9536500000000001
 30
0.0
 10
4.75617
 20
-4.2180100000000005
 30
0.0
 10
4.5341100000000001
 20
-3.9536500000000001
 30
0.0
 10
4.3931200000000006
 20
-3.9325000000000001
 30
0.0
 10
4.3931200000000006
 20
-3.9325000000000001
 30
0.0
 10
4.2873700000000001
 20
-3.9994700000000005
 30
0.0
 10
4.3085200000000006
 20
-4.19686
 30
0.0
 10
4.1569600000000007
 20
-4.0629200000000001
 30
0.0
 10
4.1569600000000007
 20
-4.0629200000000001
 30
0.0
 10
4.0653100000000002
 20
-4.23916
 30
0.0
 10
3.8785000000000003
 20
-4.1087400000000001
 30
0.0
 10
3.7798000000000003
 20
-3.9994700000000005
 30
0.0
 10
3.7798000000000003
 20
-3.9994700000000005
 30
0.0
 10
3.7798000000000003
 20
-3.9994700000000005
 30
0.0
 10
4.9218400000000004
 20
-3.6011700000000002
 30
0.0
 10
4.9218400000000004
 20
-3.6011700000000002
 30
0.0
  0
SPLINE
  5
9A
100
AcDbEntity
  8
Ebene 1
 62
     7
100
AcDbSpline
210
0.0
220
0.0
230
1.0
 70
     1
 71
     3
 72
    16
 73
    12
 74
     0
 42
0.0000000001
 43
0.0000000001
 40
0.0
 40
0.0
 40
0.0
 40
0.0
 40
0.3333333333333333
 40
0.3333333333333333
 40
0.3333333333333333
 40
0.3333333333333333
 40
0.6666666666666666
 40
0.6666666666666666
 40
0.6666666666666666
 40
0.6666666666666666
 40
1.0
 40
1.0
 40
1.0
 40
1.0
 10
-3.4777400000000003
 20
-3.6646200000000002
 30
0.0
 10
-3.4601100000000002
 20
-3.6646200000000002
 30
0.0
 10
-3.4283900000000003
 20
-3.6646200000000002
 30
0.0
 10
-3.4319100000000002
 20
-3.6892900000000002
 30
0.0
 10
-3.4319100000000002
 20
-3.6892900000000002
 30
0.0
 10
-3.4812600000000002
 20
-3.8866800000000001
 30
0.0
 10
-3.4354400000000003
 20
-4.1087400000000001
 30
0.0
 10
-3.3719900000000003
 20
-4.3061300000000005
 30
0.0
 10
-3.3719900000000003
 20
-4.3061300000000005
 30
0.0
 10
-3.7244700000000002
 20
-4.3061300000000005
 30
0.0
 10
-3.8936600000000001
 20
-3.6892900000000002
 30
0.0
 10
-3.4777400000000003
 20
-3.6646200000000002
 30
0.0
  0
SPLINE
  5
9B
100
AcDbEntity
  8
Ebene 1
 62
     7
100
AcDbSpline
210
0.0
220
0.0
230
1.0
 70
     1
 71
     3
 72
    20
 73
    16
 74
     0
 42
0.0000000001
 43
0.0000000001
 40
0.0
 40
0.0
 40
0.0
 40
0.0
 40
0.25
 40
0.25
 40
0.25
 40
0.25
 40
0.5
 40
0.5
 40
0.5
 40
0.5
 40
0.75
 40
0.75
 40
0.75
 40
0.75
 40
1.0
 40
1.0
 40
1.0
 40
1.0
 10
1.6155800000000002
 20
-3.9078300000000001
 30
0.0
 10
1.6543500000000002
 20
-3.9078300000000001
 30
0.0
 10
1.7107500000000002
 20
-3.8866800000000001
 30
0.0
 10
1.7424700000000002
 20
-3.9325000000000001
 30
0.0
 10
1.7424700000000002
 20
-3.9325000000000001
 30
0.0
 10
1.44991
 20
-4.1087400000000001
 30
0.0
 10
1.0692300000000001
 20
-4.19686
 30
0.0
 10
0.7379000000000001
 20
-4.3061300000000005
 30
0.0
 10
0.7379000000000001
 20
-4.3061300000000005
 30
0.0
 10
0.7379000000000001
 20
-4.1757100000000005
 30
0.0
 10
0.9352900000000001
 20
-4.1510400000000001
 30
0.0
 10
1.0198900000000002
 20
-4.0629200000000001
 30
0.0
 10
1.0198900000000002
 20
-4.0629200000000001
 30
0.0
 10
1.1820300000000001
 20
-3.9078300000000001
 30
0.0
 10
1.4393400000000001
 20
-3.9994700000000005
 30
0.0
 10
1.6155800000000002
 20
-3.9078300000000001
 30
0.0
  0
SPLINE
  5
9C
100
AcDbEntity
  8
Ebene 1
 62
     7
100
AcDbSpline
210
0.0
220
0.0
230
1.0
 70
     1
 71
     3
 72
    56
 73
    52
 74
     0
 42
0.0000000001
 43
0.0000000001
 40
0.0
 40
0.0
 40
0.0
 40
0.0
 40
0.0769230769230769
 40
0.0769230769230769
 40
0.0769230769230769
 40
0.0769230769230769
 40
0.1538461538461539
 40
0.1538461538461539
 40
0.1538461538461539
 40
0.1538461538461539
 40
0.2307692307692308
 40
0.2307692307692308
 40
0.2307692307692308
 40
0.2307692307692308
 40
0.3076923076923077
 40
0.3076923076923077
 40
0.3076923076923077
 40
0.3076923076923077
 40
0.3846153846153846
 40
0.3846153846153846
 40
0.3846153846153846
 40
0.3846153846153846
 40
0.4615384615384616
 40
0.4615384615384616
 40
0.4615384615384616
 40
0.4615384615384616
 40
0.5384615384615386
 40
0.5384615384615386
 40
0.5384615384615386
 40
0.5384615384615386
 40
0.6153846153846154
 40
0.6153846153846154
 40
0.6153846153846154
 40
0.6153846153846154
 40
0.6923076923076923
 40
0.6923076923076923
 40
0.6923076923076923
 40
0.6923076923076923
 40
0.7692307692307692
 40
0.7692307692307692
 40
0.7692307692307692
 40
0.7692307692307692
 40
0.846153846153846
 40
0.846153846153846
 40
0.846153846153846
 40
0.846153846153846
 40
0.9230769230769229
 40
0.9230769230769229
 40
0.9230769230769229
 40
0.9230769230769229
 40
1.0
 40
1.0
 40
1.0
 40
1.0
 10
3.0466400000000005
 20
-4.0840700000000005
 30
0.0
 10
3.1277200000000001
 20
-4.0840700000000005
 30
0.0
 10
3.2334600000000004
 20
-4.0417700000000005
 30
0.0
 10
3.2863300000000004
 20
-4.1298900000000005
 30
0.0
 10
3.2863300000000004
 20
-4.1298900000000005
 30
0.0
 10
3.2898600000000005
 20
-4.3519500000000004
 30
0.0
 10
3.0995200000000001
 20
-4.5493399999999999
 30
0.0
 10
3.1982100000000004
 20
-4.8137000000000008
 30
0.0
 10
3.1982100000000004
 20
-4.8137000000000008
 30
0.0
 10
2.8774500000000001
 20
-5.0322400000000007
 30
0.0
 10
2.8880300000000001
 20
-5.6490800000000005
 30
0.0
 10
3.1418100000000004
 20
-6.0473800000000004
 30
0.0
 10
3.1418100000000004
 20
-6.0473800000000004
 30
0.0
 10
3.3956000000000004
 20
-5.5856300000000001
 30
0.0
 10
3.5824100000000003
 20
-5.0322400000000007
 30
0.0
 10
3.7093100000000003
 20
-4.4823700000000004
 30
0.0
 10
3.7093100000000003
 20
-4.4823700000000004
 30
0.0
 10
3.7093100000000003
 20
-4.4823700000000004
 30
0.0
 10
3.8185800000000003
 20
-4.8560000000000008
 30
0.0
 10
3.8185800000000003
 20
-4.8560000000000008
 30
0.0
 10
3.8185800000000003
 20
-4.8560000000000008
 30
0.0
 10
3.4343700000000004
 20
-5.9169600000000004
 30
0.0
 10
3.7057800000000003
 20
-7.0167000000000002
 30
0.0
 10
3.4837200000000004
 20
-8.0988100000000003
 30
0.0
 10
3.4837200000000004
 20
-8.0988100000000003
 30
0.0
 10
3.2193600000000004
 20
-8.1657799999999998
 30
0.0
 10
2.9409000000000001
 20
-8.1869300000000003
 30
0.0
 10
2.6553900000000001
 20
-8.1657799999999998
 30
0.0
 10
2.6553900000000001
 20
-8.1657799999999998
 30
0.0
 10
2.6060500000000002
 20
-7.8767500000000004
 30
0.0
 10
2.6835900000000001
 20
-7.5242700000000005
 30
0.0
 10
2.4509500000000002
 20
-7.3480300000000005
 30
0.0
 10
2.4509500000000002
 20
-7.3480300000000005
 30
0.0
 10
2.4086600000000002
 20
-7.2176100000000005
 30
0.0
 10
2.5778500000000002
 20
-6.8862800000000002
 30
0.0
 10
2.3240600000000002
 20
-6.9744000000000002
 30
0.0
 10
2.3240600000000002
 20
-6.9744000000000002
 30
0.0
 10
2.3346400000000003
 20
-6.8193100000000006
 30
0.0
 10
2.2958600000000002
 20
-6.7100400000000002
 30
0.0
 10
2.1725000000000003
 20
-6.7523400000000002
 30
0.0
 10
2.1725000000000003
 20
-6.7523400000000002
 30
0.0
 10
2.0843800000000003
 20
-6.0932000000000004
 30
0.0
 10
1.55566
 20
-6.0050800000000004
 30
0.0
 10
1.1996500000000001
 20
-5.5398100000000001
 30
0.0
 10
1.1996500000000001
 20
-5.5398100000000001
 30
0.0
 10
1.0868600000000002
 20
-5.1203600000000007
 30
0.0
 10
1.1326800000000001
 20
-4.6797600000000008
 30
0.0
 10
1.42171
 20
-4.3519500000000004
 30
0.0
 10
1.42171
 20
-4.3519500000000004
 30
0.0
 10
1.9363300000000001
 20
-4.1757100000000005
 30
0.0
 10
2.5285000000000002
 20
-4.2180100000000005
 30
0.0
 10
3.0466400000000005
 20
-4.0840700000000005
 30
0.0
  0
SPLINE
  5
9D
100
AcDbEntity
  8
Ebene 1
 62
     7
100
AcDbSpline
210
0.0
220
0.0
230
1.0
 70
     1
 71
     3
 72
   108
 73
   104
 74
     0
 42
0.0000000001
 43
0.0000000001
 40
0.0
 40
0.0
 40
0.0
 40
0.0
 40
0.0384615384615385
 40
0.0384615384615385
 40
0.0384615384615385
 40
0.0384615384615385
 40
0.0769230769230769
 40
0.0769230769230769
 40
0.0769230769230769
 40
0.0769230769230769
 40
0.1153846153846154
 40
0.1153846153846154
 40
0.1153846153846154
 40
0.1153846153846154
 40
0.1538461538461539
 40
0.1538461538461539
 40
0.1538461538461539
 40
0.1538461538461539
 40
0.1923076923076923
 40
0.1923076923076923
 40
0.1923076923076923
 40
0.1923076923076923
 40
0.2307692307692308
 40
0.2307692307692308
 40
0.2307692307692308
 40
0.2307692307692308
 40
0.2692307692307693
 40
0.2692307692307693
 40
0.2692307692307693
 40
0.2692307692307693
 40
0.3076923076923077
 40
0.3076923076923077
 40
0.3076923076923077
 40
0.3076923076923077
 40
0.3461538461538462
 40
0.3461538461538462
 40
0.3461538461538462
 40
0.3461538461538462
 40
0.3846153846153846
 40
0.3846153846153846
 40
0.3846153846153846
 40
0.3846153846153846
 40
0.423076923076923
 40
0.423076923076923
 40
0.423076923076923
 40
0.423076923076923
 40
0.4615384615384615
 40
0.4615384615384615
 40
0.4615384615384615
 40
0.4615384615384615
 40
0.4999999999999999
 40
0.4999999999999999
 40
0.4999999999999999
 40
0.4999999999999999
 40
0.5384615384615383
 40
0.5384615384615383
 40
0.5384615384615383
 40
0.5384615384615383
 40
0.5769230769230768
 40
0.5769230769230768
 40
0.5769230769230768
 40
0.5769230769230768
 40
0.6153846153846152
 40
0.6153846153846152
 40
0.6153846153846152
 40
0.6153846153846152
 40
0.6538461538461536
 40
0.6538461538461536
 40
0.6538461538461536
 40
0.6538461538461536
 40
0.6923076923076921
 40
0.6923076923076921
 40
0.6923076923076921
 40
0.6923076923076921
 40
0.7307692307692305
 40
0.7307692307692305
 40
0.7307692307692305
 40
0.7307692307692305
 40
0.7692307692307689
 40
0.7692307692307689
 40
0.7692307692307689
 40
0.7692307692307689
 40
0.8076923076923074
 40
0.8076923076923074
 40
0.8076923076923074
 40
0.8076923076923074
 40
0.8461538461538458
 40
0.8461538461538458
 40
0.8461538461538458
 40
0.8461538461538458
 40
0.8846153846153843
 40
0.8846153846153843
 40
0.8846153846153843
 40
0.8846153846153843
 40
0.9230769230769227
 40
0.9230769230769227
 40
0.9230769230769227
 40
0.9230769230769227
 40
0.9615384615384611
 40
0.9615384615384611
 40
0.9615384615384611
 40
0.9615384615384611
 40
1.0
 40
1.0
 40
1.0
 40
1.0
 10
-4.0276100000000001
 20
-10.61199
 30
0.0
 10
-3.9994100000000001
 20
-10.569690000000001
 30
0.0
 10
-3.9676800000000005
 20
-10.50272
 30
0.0
 10
-3.9888300000000005
 20
-10.435750000000001
 30
0.0
 10
-3.9888300000000005
 20
-10.435750000000001
 30
0.0
 10
-3.9888300000000005
 20
-10.435750000000001
 30
0.0
 10
-4.42591
 20
-10.435750000000001
 30
0.0
 10
-4.42591
 20
-10.435750000000001
 30
0.0
 10
-4.42591
 20
-10.435750000000001
 30
0.0
 10
-4.45411
 20
-10.368780000000001
 30
0.0
 10
-4.5246000000000004
 20
-10.368780000000001
 30
0.0
 10
-4.5951000000000004
 20
-10.368780000000001
 30
0.0
 10
-4.5951000000000004
 20
-10.368780000000001
 30
0.0
 10
-4.6550200000000004
 20
-10.213690000000001
 30
0.0
 10
-4.8171600000000003
 20
-10.32648
 30
0.0
 10
-4.9264300000000008
 20
-10.32648
 30
0.0
 10
-4.9264300000000008
 20
-10.32648
 30
0.0
 10
-4.9934000000000003
 20
-10.213690000000001
 30
0.0
 10
-4.9370000000000003
 20
-10.083270000000001
 30
0.0
 10
-5.1026700000000007
 20
-10.083270000000001
 30
0.0
 10
-5.1026700000000007
 20
-10.083270000000001
 30
0.0
 10
-5.0110200000000003
 20
-9.9528500000000015
 30
0.0
 10
-5.1625900000000007
 20
-9.9281800000000011
 30
0.0
 10
-5.2648100000000007
 20
-9.9740000000000002
 30
0.0
 10
-5.2648100000000007
 20
-9.9740000000000002
 30
0.0
 10
-5.0392200000000003
 20
-9.8400600000000011
 30
0.0
 10
-5.2894800000000002
 20
-9.8858800000000002
 30
0.0
 10
-5.3317800000000002
 20
-9.7942400000000003
 30
0.0
 10
-5.3317800000000002
 20
-9.7942400000000003
 30
0.0
 10
-5.8111500000000005
 20
-9.7307900000000007
 30
0.0
 10
-5.4904000000000002
 20
-10.435750000000001
 30
0.0
 10
-5.4868700000000006
 20
-10.721260000000001
 30
0.0
 10
-5.4868700000000006
 20
-10.721260000000001
 30
0.0
 10
-6.1883000000000008
 20
-9.1139500000000009
 30
0.0
 10
-5.6595900000000006
 20
-7.1294900000000005
 30
0.0
 10
-4.6937900000000008
 20
-5.7407200000000005
 30
0.0
 10
-4.6937900000000008
 20
-5.7407200000000005
 30
0.0
 10
-4.6937900000000008
 20
-5.7407200000000005
 30
0.0
 10
-4.8453600000000003
 20
-6.2236200000000004
 30
0.0
 10
-4.8453600000000003
 20
-6.2236200000000004
 30
0.0
 10
-4.8453600000000003
 20
-6.2236200000000004
 30
0.0
 10
-4.8453600000000003
 20
-6.2236200000000004
 30
0.0
 10
-4.7819100000000008
 20
-6.1813200000000004
 30
0.0
 10
-4.7819100000000008
 20
-6.1813200000000004
 30
0.0
 10
-4.7819100000000008
 20
-6.1813200000000004
 30
0.0
 10
-4.48583
 20
-5.5398100000000001
 30
0.0
 10
-4.15097
 20
-4.8806700000000003
 30
0.0
 10
-3.6892200000000002
 20
-4.32728
 30
0.0
 10
-3.6892200000000002
 20
-4.32728
 30
0.0
 10
-3.5200300000000002
 20
-4.7925500000000003
 30
0.0
 10
-3.1358300000000003
 20
-5.1203600000000007
 30
0.0
 10
-2.5753900000000001
 20
-5.0992100000000002
 30
0.0
 10
-2.5753900000000001
 20
-5.0992100000000002
 30
0.0
 10
-3.2133800000000003
 20
-6.0050800000000004
 30
0.0
 10
-1.3346600000000002
 20
-5.8076900000000009
 30
0.0
 10
-1.4615500000000001
 20
-5.0569100000000002
 30
0.0
 10
-1.4615500000000001
 20
-5.0569100000000002
 30
0.0
 10
-1.14432
 20
-5.0780600000000007
 30
0.0
 10
-0.8623400000000001
 20
-4.9441200000000007
 30
0.0
 10
-0.5909300000000001
 20
-4.7925500000000003
 30
0.0
 10
-0.5909300000000001
 20
-4.7925500000000003
 30
0.0
 10
-0.5204300000000001
 20
-5.0780600000000007
 30
0.0
 10
-0.5451100000000001
 20
-5.4305400000000006
 30
0.0
 10
-0.28075
 20
-5.6067800000000005
 30
0.0
 10
-0.28075
 20
-5.6067800000000005
 30
0.0
 10
-0.15033
 20
-5.2120000000000006
 30
0.0
 10
0.06116
 20
-4.5704900000000004
 30
0.0
 10
0.4841200000000001
 20
-5.1203600000000007
 30
0.0
 10
0.4841200000000001
 20
-5.1203600000000007
 30
0.0
 10
0.17041
 20
-5.3635700000000002
 30
0.0
 10
-0.26312
 20
-5.6067800000000005
 30
0.0
 10
-0.5133800000000001
 20
-5.9592600000000004
 30
0.0
 10
-0.5133800000000001
 20
-5.9592600000000004
 30
0.0
 10
-0.25255
 20
-5.8499900000000009
 30
0.0
 10
-0.03401
 20
-5.5856300000000001
 30
0.0
 10
0.24091
 20
-5.4975100000000001
 30
0.0
 10
0.24091
 20
-5.4975100000000001
 30
0.0
 10
-0.22083
 20
-6.3117400000000004
 30
0.0
 10
-0.72487
 20
-7.1717900000000006
 30
0.0
 10
-1.5179500000000001
 20
-7.7674800000000008
 30
0.0
 10
-1.5179500000000001
 20
-7.7674800000000008
 30
0.0
 10
-2.4414500000000001
 20
-8.0318400000000008
 30
0.0
 10
-3.0089400000000004
 20
-8.849590000000001
 30
0.0
 10
-3.5235600000000002
 20
-9.6180000000000003
 30
0.0
 10
-3.5235600000000002
 20
-9.6180000000000003
 30
0.0
 10
-3.7421000000000002
 20
-9.7766100000000016
 30
0.0
 10
-4.0840000000000005
 20
-9.9070300000000007
 30
0.0
 10
-4.1756500000000001
 20
-10.15024
 30
0.0
 10
-4.1756500000000001
 20
-10.15024
 30
0.0
 10
-3.9782600000000001
 20
-10.259510000000001
 30
0.0
 10
-3.7456200000000002
 20
-10.305330000000001
 30
0.0
 10
-3.5411800000000002
 20
-10.171390000000001
 30
0.0
 10
-3.5411800000000002
 20
-10.171390000000001
 30
0.0
 10
-2.79393
 20
-10.129090000000001
 30
0.0
 10
-4.0840000000000005
 20
-10.78823
 30
0.0
 10
-4.0099800000000005
 20
-10.745930000000001
 30
0.0
 10
-4.0099800000000005
 20
-10.745930000000001
 30
0.0
 10
-3.9535800000000005
 20
-10.70011
 30
0.0
 10
-3.8231700000000002
 20
-10.523870000000001
 30
0.0
 10
-3.9606300000000005
 20
-10.59084
 30
0.0
 10
-3.9606300000000005
 20
-10.59084
 30
0.0
 10
-3.9606300000000005
 20
-10.59084
 30
0.0
 10
-4.0276100000000001
 20
-10.61199
 30
0.0
 10
-4.0276100000000001
 20
-10.61199
 30
0.0
  0
SPLINE
  5
9E
100
AcDbEntity
  8
Ebene 1
 62
     7
100
AcDbSpline
210
0.0
220
0.0
230
1.0
 70
     1
 71
     3
 72
    12
 73
     8
 74
     0
 42
0.0000000001
 43
0.0000000001
 40
0.0
 40
0.0
 40
0.0
 40
0.0
 40
0.5
 40
0.5
 40
0.5
 40
0.5
 40
1.0
 40
1.0
 40
1.0
 40
1.0
 10
-0.7847900000000001
 20
-4.3731
 30
0.0
 10
-0.6684800000000001
 20
-4.3731
 30
0.0
 10
-0.73897
 20
-4.5281900000000004
 30
0.0
 10
-0.80947
 20
-4.5493399999999999
 30
0.0
 10
-0.80947
 20
-4.5493399999999999
 30
0.0
 10
-0.8940600000000001
 20
-4.50352
 30
0.0
 10
-0.8129900000000001
 20
-4.4365500000000004
 30
0.0
 10
-0.7847900000000001
 20
-4.3731
 30
0.0
  0
SPLINE
  5
9F
100
AcDbEntity
  8
Ebene 1
 62
     7
100
AcDbSpline
210
0.0
220
0.0
230
1.0
 70
     1
 71
     3
 72
    20
 73
    16
 74
     0
 42
0.0000000001
 43
0.0000000001
 40
0.0
 40
0.0
 40
0.0
 40
0.0
 40
0.25
 40
0.25
 40
0.25
 40
0.25
 40
0.5
 40
0.5
 40
0.5
 40
0.5
 40
0.75
 40
0.75
 40
0.75
 40
0.75
 40
1.0
 40
1.0
 40
1.0
 40
1.0
 10
1.0833300000000001
 20
-4.3942500000000004
 30
0.0
 10
1.1044800000000001
 20
-4.3942500000000004
 30
0.0
 10
1.1503100000000002
 20
-4.3731
 30
0.0
 10
1.1503100000000002
 20
-4.4154
 30
0.0
 10
1.1503100000000002
 20
-4.4154
 30
0.0
 10
1.0375100000000002
 20
-4.6163100000000004
 30
0.0
 10
0.8789000000000001
 20
-4.8348500000000003
 30
0.0
 10
0.8436500000000001
 20
-5.0569100000000002
 30
0.0
 10
0.8436500000000001
 20
-5.0569100000000002
 30
0.0
 10
0.65683
 20
-4.9899400000000007
 30
0.0
 10
0.65683
 20
-4.7678800000000008
 30
0.0
 10
0.67093
 20
-4.5916399999999999
 30
0.0
 10
0.67093
 20
-4.5916399999999999
 30
0.0
 10
0.67093
 20
-4.5916399999999999
 30
0.0
 10
1.0833300000000001
 20
-4.3942500000000004
 30
0.0
 10
1.0833300000000001
 20
-4.3942500000000004
 30
0.0
  0
SPLINE
  5
A0
100
AcDbEntity
  8
Ebene 1
 62
     7
100
AcDbSpline
210
0.0
220
0.0
230
1.0
 70
     1
 71
     3
 72
    16
 73
    12
 74
     0
 42
0.0000000001
 43
0.0000000001
 40
0.0
 40
0.0
 40
0.0
 40
0.0
 40
0.3333333333333333
 40
0.3333333333333333
 40
0.3333333333333333
 40
0.3333333333333333
 40
0.6666666666666666
 40
0.6666666666666666
 40
0.6666666666666666
 40
0.6666666666666666
 40
1.0
 40
1.0
 40
1.0
 40
1.0
 10
-3.3896200000000003
 20
-4.4823700000000004
 30
0.0
 10
-3.3896200000000003
 20
-4.4823700000000004
 30
0.0
 10
-3.1499300000000003
 20
-4.4823700000000004
 30
0.0
 10
-3.1499300000000003
 20
-4.4823700000000004
 30
0.0
 10
-3.1499300000000003
 20
-4.4823700000000004
 30
0.0
 10
-3.1499300000000003
 20
-4.4823700000000004
 30
0.0
 10
-3.1041100000000004
 20
-4.7467300000000003
 30
0.0
 10
-3.1041100000000004
 20
-4.7467300000000003
 30
0.0
 10
-3.1041100000000004
 20
-4.7467300000000003
 30
0.0
 10
-3.2592000000000003
 20
-4.7678800000000008
 30
0.0
 10
-3.4248700000000003
 20
-4.6586100000000004
 30
0.0
 10
-3.3896200000000003
 20
-4.4823700000000004
 30
0.0
  0
SPLINE
  5
A1
100
AcDbEntity
  8
Ebene 1
 62
     7
100
AcDbSpline
210
0.0
220
0.0
230
1.0
 70
     1
 71
     3
 72
    20
 73
    16
 74
     0
 42
0.0000000001
 43
0.0000000001
 40
0.0
 40
0.0
 40
0.0
 40
0.0
 40
0.25
 40
0.25
 40
0.25
 40
0.25
 40
0.5
 40
0.5
 40
0.5
 40
0.5
 40
0.75
 40
0.75
 40
0.75
 40
0.75
 40
1.0
 40
1.0
 40
1.0
 40
1.0
 10
0.46649
 20
-4.4823700000000004
 30
0.0
 10
0.46649
 20
-4.4823700000000004
 30
0.0
 10
0.5087900000000001
 20
-4.4823700000000004
 30
0.0
 10
0.5087900000000001
 20
-4.4823700000000004
 30
0.0
 10
0.5087900000000001
 20
-4.4823700000000004
 30
0.0
 10
0.50527
 20
-4.6586100000000004
 30
0.0
 10
0.5828100000000001
 20
-4.8560000000000008
 30
0.0
 10
0.6392100000000001
 20
-5.0569100000000002
 30
0.0
 10
0.6392100000000001
 20
-5.0569100000000002
 30
0.0
 10
0.4700200000000001
 20
-5.0110900000000003
 30
0.0
 10
0.31493
 20
-4.8806700000000003
 30
0.0
 10
0.18099
 20
-4.7678800000000008
 30
0.0
 10
0.18099
 20
-4.7678800000000008
 30
0.0
 10
0.23738
 20
-4.6586100000000004
 30
0.0
 10
0.41715
 20
-4.6374600000000008
 30
0.0
 10
0.46649
 20
-4.4823700000000004
 30
0.0
  0
SPLINE
  5
A2
100
AcDbEntity
  8
Ebene 1
 62
     7
100
AcDbSpline
210
0.0
220
0.0
230
1.0
 70
     1
 71
     3
 72
    12
 73
     8
 74
     0
 42
0.0000000001
 43
0.0000000001
 40
0.0
 40
0.0
 40
0.0
 40
0.0
 40
0.5
 40
0.5
 40
0.5
 40
0.5
 40
1.0
 40
1.0
 40
1.0
 40
1.0
 10
-0.39002
 20
-4.7925500000000003
 30
0.0
 10
0.00124
 20
-4.8348500000000003
 30
0.0
 10
-0.316
 20
-5.2331500000000002
 30
0.0
 10
-0.32305
 20
-5.4516900000000001
 30
0.0
 10
-0.32305
 20
-5.4516900000000001
 30
0.0
 10
-0.4217400000000001
 20
-5.2754500000000002
 30
0.0
 10
-0.48871
 20
-4.9899400000000007
 30
0.0
 10
-0.39002
 20
-4.7925500000000003
 30
0.0
  0
SPLINE
  5
A3
100
AcDbEntity
  8
Ebene 1
 62
     7
100
AcDbSpline
210
0.0
220
0.0
230
1.0
 70
     1
 71
     3
 72
    24
 73
    20
 74
     0
 42
0.0000000001
 43
0.0000000001
 40
0.0
 40
0.0
 40
0.0
 40
0.0
 40
0.2
 40
0.2
 40
0.2
 40
0.2
 40
0.4
 40
0.4
 40
0.4
 40
0.4
 40
0.6000000000000001
 40
0.6000000000000001
 40
0.6000000000000001
 40
0.6000000000000001
 40
0.8
 40
0.8
 40
0.8
 40
0.8
 40
1.0
 40
1.0
 40
1.0
 40
1.0
 10
-1.9092000000000002
 20
-4.9687900000000003
 30
0.0
 10
-1.7928900000000001
 20
-5.0110900000000003
 30
0.0
 10
-1.5990200000000001
 20
-4.9899400000000007
 30
0.0
 10
-1.5567200000000001
 20
-5.1450300000000002
 30
0.0
 10
-1.5567200000000001
 20
-5.1450300000000002
 30
0.0
 10
-1.8457600000000001
 20
-5.3212700000000002
 30
0.0
 10
-2.1982400000000002
 20
-5.4093900000000001
 30
0.0
 10
-2.5225200000000001
 20
-5.4975100000000001
 30
0.0
 10
-2.5225200000000001
 20
-5.4975100000000001
 30
0.0
 10
-2.5189900000000001
 20
-5.3882400000000006
 30
0.0
 10
-2.3216000000000001
 20
-5.3212700000000002
 30
0.0
 10
-2.3956300000000001
 20
-5.1873300000000002
 30
0.0
 10
-2.3956300000000001
 20
-5.1873300000000002
 30
0.0
 10
-2.3956300000000001
 20
-5.1873300000000002
 30
0.0
 10
-2.4132500000000001
 20
-5.1203600000000007
 30
0.0
 10
-2.4132500000000001
 20
-5.1203600000000007
 30
0.0
 10
-2.4132500000000001
 20
-5.1203600000000007
 30
0.0
 10
-2.2264300000000001
 20
-5.1203600000000007
 30
0.0
 10
-2.0572400000000002
 20
-5.0569100000000002
 30
0.0
 10
-1.9092000000000002
 20
-4.9687900000000003
 30
0.0
  0
SPLINE
  5
A4
100
AcDbEntity
  8
Ebene 1
 62
     7
100
AcDbSpline
210
0.0
220
0.0
230
1.0
 70
     1
 71
     3
 72
    96
 73
    92
 74
     0
 42
0.0000000001
 43
0.0000000001
 40
0.0
 40
0.0
 40
0.0
 40
0.0
 40
0.0434782608695652
 40
0.0434782608695652
 40
0.0434782608695652
 40
0.0434782608695652
 40
0.0869565217391304
 40
0.0869565217391304
 40
0.0869565217391304
 40
0.0869565217391304
 40
0.1304347826086957
 40
0.1304347826086957
 40
0.1304347826086957
 40
0.1304347826086957
 40
0.1739130434782609
 40
0.1739130434782609
 40
0.1739130434782609
 40
0.1739130434782609
 40
0.2173913043478261
 40
0.2173913043478261
 40
0.2173913043478261
 40
0.2173913043478261
 40
0.2608695652173913
 40
0.2608695652173913
 40
0.2608695652173913
 40
0.2608695652173913
 40
0.3043478260869565
 40
0.3043478260869565
 40
0.3043478260869565
 40
0.3043478260869565
 40
0.3478260869565217
 40
0.3478260869565217
 40
0.3478260869565217
 40
0.3478260869565217
 40
0.3913043478260869
 40
0.3913043478260869
 40
0.3913043478260869
 40
0.3913043478260869
 40
0.4347826086956521
 40
0.4347826086956521
 40
0.4347826086956521
 40
0.4347826086956521
 40
0.4782608695652173
 40
0.4782608695652173
 40
0.4782608695652173
 40
0.4782608695652173
 40
0.5217391304347825
 40
0.5217391304347825
 40
0.5217391304347825
 40
0.5217391304347825
 40
0.5652173913043477
 40
0.5652173913043477
 40
0.5652173913043477
 40
0.5652173913043477
 40
0.6086956521739129
 40
0.6086956521739129
 40
0.6086956521739129
 40
0.6086956521739129
 40
0.6521739130434781
 40
0.6521739130434781
 40
0.6521739130434781
 40
0.6521739130434781
 40
0.6956521739130432
 40
0.6956521739130432
 40
0.6956521739130432
 40
0.6956521739130432
 40
0.7391304347826084
 40
0.7391304347826084
 40
0.7391304347826084
 40
0.7391304347826084
 40
0.7826086956521736
 40
0.7826086956521736
 40
0.7826086956521736
 40
0.7826086956521736
 40
0.8260869565217388
 40
0.8260869565217388
 40
0.8260869565217388
 40
0.8260869565217388
 40
0.869565217391304
 40
0.869565217391304
 40
0.869565217391304
 40
0.869565217391304
 40
0.9130434782608692
 40
0.9130434782608692
 40
0.9130434782608692
 40
0.9130434782608692
 40
0.9565217391304344
 40
0.9565217391304344
 40
0.9565217391304344
 40
0.9565217391304344
 40
1.0
 40
1.0
 40
1.0
 40
1.0
 10
-0.28075
 20
-6.6642200000000003
 30
0.0
 10
0.06819
 20
-6.2024700000000008
 30
0.0
 10
0.27263
 20
-5.6067800000000005
 30
0.0
 10
0.79783
 20
-5.2966000000000006
 30
0.0
 10
0.79783
 20
-5.2966000000000006
 30
0.0
 10
0.79078
 20
-6.0050800000000004
 30
0.0
 10
0.98111
 20
-6.7100400000000002
 30
0.0
 10
1.3899900000000001
 20
-7.3057300000000005
 30
0.0
 10
1.3899900000000001
 20
-7.3057300000000005
 30
0.0
 10
1.1009600000000002
 20
-7.5912400000000009
 30
0.0
 10
0.73438
 20
-7.7674800000000008
 30
0.0
 10
0.40657
 20
-7.9895400000000008
 30
0.0
 10
0.40657
 20
-7.9895400000000008
 30
0.0
 10
0.65683
 20
-8.0318400000000008
 30
0.0
 10
1.0198900000000002
 20
-7.7251800000000008
 30
0.0
 10
1.3230200000000001
 20
-7.7921500000000004
 30
0.0
 10
1.3230200000000001
 20
-7.7921500000000004
 30
0.0
 10
1.1608800000000001
 20
-8.2538999999999998
 30
0.0
 10
0.67798
 20
-8.4971100000000011
 30
0.0
 10
0.2973
 20
-8.761470000000001
 30
0.0
 10
0.2973
 20
-8.761470000000001
 30
0.0
 10
0.48059
 20
-9.0258300000000009
 30
0.0
 10
0.9740700000000001
 20
-8.7368000000000006
 30
0.0
 10
1.2349000000000001
 20
-8.7826200000000014
 30
0.0
 10
1.2349000000000001
 20
-8.7826200000000014
 30
0.0
 10
1.1362100000000002
 20
-9.24437
 30
0.0
 10
0.6074900000000001
 20
-9.4417600000000004
 30
0.0
 10
0.25501
 20
-9.6849700000000016
 30
0.0
 10
0.25501
 20
-9.6849700000000016
 30
0.0
 10
0.25853
 20
-9.9281800000000011
 30
0.0
 10
0.5616600000000001
 20
-10.083270000000001
 30
0.0
 10
0.6180600000000001
 20
-10.305330000000001
 30
0.0
 10
0.6180600000000001
 20
-10.305330000000001
 30
0.0
 10
0.31845
 20
-10.389930000000001
 30
0.0
 10
-0.01991
 20
-10.305330000000001
 30
0.0
 10
-0.29485
 20
-10.259510000000001
 30
0.0
 10
-0.29485
 20
-10.259510000000001
 30
0.0
 10
-0.3019
 20
-10.545020000000001
 30
0.0
 10
-0.46756
 20
-10.855200000000002
 30
0.0
 10
-0.6684800000000001
 20
-11.031440000000002
 30
0.0
 10
-0.6684800000000001
 20
-11.031440000000002
 30
0.0
 10
-0.78127
 20
-10.456900000000001
 30
0.0
 10
-0.5556800000000001
 20
-9.8400600000000011
 30
0.0
 10
0.11049
 20
-9.9951500000000006
 30
0.0
 10
0.11049
 20
-9.9951500000000006
 30
0.0
 10
0.22681
 20
-9.8189100000000007
 30
0.0
 10
-0.15386
 20
-9.8612100000000016
 30
0.0
 10
-0.23493
 20
-9.7942400000000003
 30
0.0
 10
-0.23493
 20
-9.7942400000000003
 30
0.0
 10
-0.23493
 20
-9.7942400000000003
 30
0.0
 10
0.5546100000000001
 20
-9.2232200000000013
 30
0.0
 10
0.5546100000000001
 20
-9.2232200000000013
 30
0.0
 10
0.5546100000000001
 20
-9.2232200000000013
 30
0.0
 10
0.22328
 20
-9.1351000000000013
 30
0.0
 10
0.08582
 20
-9.6426700000000007
 30
0.0
 10
-0.22788
 20
-9.6638200000000012
 30
0.0
 10
-0.22788
 20
-9.6638200000000012
 30
0.0
 10
0.32198
 20
-8.849590000000001
 30
0.0
 10
-0.04811
 20
-7.7921500000000004
 30
0.0
 10
-0.28427
 20
-6.9955500000000006
 30
0.0
 10
-0.28427
 20
-6.9955500000000006
 30
0.0
 10
-0.20673
 20
-6.9285800000000002
 30
0.0
 10
-0.13271
 20
-6.8651300000000006
 30
0.0
 10
-0.04106
 20
-6.8404600000000002
 30
0.0
 10
-0.04106
 20
-6.8404600000000002
 30
0.0
 10
-0.19968
 20
-7.0413700000000006
 30
0.0
 10
-0.04459
 20
-7.4361500000000005
 30
0.0
 10
0.26911
 20
-7.2599100000000005
 30
0.0
 10
0.26911
 20
-7.2599100000000005
 30
0.0
 10
0.43125
 20
-7.6123900000000004
 30
0.0
 10
0.9176700000000001
 20
-7.3727000000000009
 30
0.0
 10
1.1890800000000001
 20
-7.281060000000001
 30
0.0
 10
1.1890800000000001
 20
-7.281060000000001
 30
0.0
 10
0.98816
 20
-7.1717900000000006
 30
0.0
 10
0.69913
 20
-7.3268800000000009
 30
0.0
 10
0.48764
 20
-7.238760000000001
 30
0.0
 10
0.48764
 20
-7.238760000000001
 30
0.0
 10
0.6674100000000001
 20
-6.9532500000000006
 30
0.0
 10
0.8718500000000001
 20
-6.6007700000000007
 30
0.0
 10
0.8366000000000001
 20
-6.2447700000000008
 30
0.0
 10
0.8366000000000001
 20
-6.2447700000000008
 30
0.0
 10
0.70618
 20
-6.3364100000000008
 30
0.0
 10
0.6180600000000001
 20
-6.5761000000000003
 30
0.0
 10
0.39952
 20
-6.6219200000000003
 30
0.0
 10
0.39952
 20
-6.6219200000000003
 30
0.0
 10
-0.01991
 20
-6.7981600000000002
 30
0.0
 10
0.29378
 20
-6.3998600000000003
 30
0.0
 10
0.19861
 20
-6.1813200000000004
 30
0.0
 10
0.19861
 20
-6.1813200000000004
 30
0.0
 10
0.04706
 20
-6.2694400000000003
 30
0.0
 10
-0.06926
 20
-6.5761000000000003
 30
0.0
 10
-0.28075
 20
-6.6642200000000003
 30
0.0
  0
SPLINE
  5
A5
100
AcDbEntity
  8
Ebene 1
100
AcDbSpline
210
0.0
220
0.0
230
1.0
 70
     1
 71
     3
 72
    28
 73
    24
 74
     0
 42
0.0000000001
 43
0.0000000001
 40
0.0
 40
0.0
 40
0.0
 40
0.0
 40
0.1666666666666667
 40
0.1666666666666667
 40
0.1666666666666667
 40
0.1666666666666667
 40
0.3333333333333333
 40
0.3333333333333333
 40
0.3333333333333333
 40
0.3333333333333333
 40
0.5
 40
0.5
 40
0.5
 40
0.5
 40
0.6666666666666666
 40
0.6666666666666666
 40
0.6666666666666666
 40
0.6666666666666666
 40
0.8333333333333333
 40
0.8333333333333333
 40
0.8333333333333333
 40
0.8333333333333333
 40
1.0
 40
1.0
 40
1.0
 40
1.0
 10
2.6060500000000002
 20
-5.3212700000000002
 30
0.0
 10
2.6060500000000002
 20
-5.3212700000000002
 30
0.0
 10
2.7223600000000001
 20
-5.6067800000000005
 30
0.0
 10
2.7223600000000001
 20
-5.6067800000000005
 30
0.0
 10
2.7223600000000001
 20
-5.6067800000000005
 30
0.0
 10
2.7223600000000001
 20
-5.6067800000000005
 30
0.0
 10
2.7787600000000001
 20
-5.5644800000000005
 30
0.0
 10
2.7787600000000001
 20
-5.5644800000000005
 30
0.0
 10
2.7787600000000001
 20
-5.5644800000000005
 30
0.0
 10
2.8739300000000001
 20
-5.7160500000000001
 30
0.0
 10
2.9021300000000001
 20
-5.9169600000000004
 30
0.0
 10
2.8880300000000001
 20
-6.1143500000000008
 30
0.0
 10
2.8880300000000001
 20
-6.1143500000000008
 30
0.0
 10
2.8598300000000001
 20
-6.1143500000000008
 30
0.0
 10
2.8281100000000001
 20
-6.1143500000000008
 30
0.0
 10
2.8104800000000001
 20
-6.0932000000000004
 30
0.0
 10
2.8104800000000001
 20
-6.0932000000000004
 30
0.0
 10
2.8104800000000001
 20
-6.0932000000000004
 30
0.0
 10
2.7540900000000001
 20
-5.8499900000000009
 30
0.0
 10
2.7540900000000001
 20
-5.8499900000000009
 30
0.0
 10
2.7540900000000001
 20
-5.8499900000000009
 30
0.0
 10
2.5637500000000002
 20
-5.76187
 30
0.0
 10
2.6131000000000002
 20
-5.5186600000000006
 30
0.0
 10
2.6060500000000002
 20
-5.3212700000000002
 30
0.0
  0
SPLINE
  5
A6
100
AcDbEntity
  8
Ebene 1
 62
     7
100
AcDbSpline
210
0.0
220
0.0
230
1.0
 70
     1
 71
     3
 72
    28
 73
    24
 74
     0
 42
0.0000000001
 43
0.0000000001
 40
0.0
 40
0.0
 40
0.0
 40
0.0
 40
0.1666666666666667
 40
0.1666666666666667
 40
0.1666666666666667
 40
0.1666666666666667
 40
0.3333333333333333
 40
0.3333333333333333
 40
0.3333333333333333
 40
0.3333333333333333
 40
0.5
 40
0.5
 40
0.5
 40
0.5
 40
0.6666666666666666
 40
0.6666666666666666
 40
0.6666666666666666
 40
0.6666666666666666
 40
0.8333333333333333
 40
0.8333333333333333
 40
0.8333333333333333
 40
0.8333333333333333
 40
1.0
 40
1.0
 40
1.0
 40
1.0
 10
4.1710500000000001
 20
-5.3424200000000006
 30
0.0
 10
4.1710500000000001
 20
-5.3424200000000006
 30
0.0
 10
4.2450800000000006
 20
-5.5186600000000006
 30
0.0
 10
4.2450800000000006
 20
-5.5186600000000006
 30
0.0
 10
4.2450800000000006
 20
-5.5186600000000006
 30
0.0
 10
4.2450800000000006
 20
-5.5186600000000006
 30
0.0
 10
4.3860700000000001
 20
-5.4975100000000001
 30
0.0
 10
4.3860700000000001
 20
-5.4975100000000001
 30
0.0
 10
4.3860700000000001
 20
-5.4975100000000001
 30
0.0
 10
4.3825400000000005
 20
-5.5856300000000001
 30
0.0
 10
4.4107400000000005
 20
-5.6279300000000001
 30
0.0
 10
4.4565600000000005
 20
-5.6949000000000005
 30
0.0
 10
4.4565600000000005
 20
-5.6949000000000005
 30
0.0
 10
4.3649200000000006
 20
-6.2694400000000003
 30
0.0
 10
4.2063000000000006
 20
-6.8404600000000002
 30
0.0
 10
4.2168800000000006
 20
-7.4361500000000005
 30
0.0
 10
4.2168800000000006
 20
-7.4361500000000005
 30
0.0
 10
4.0899800000000006
 20
-7.3727000000000009
 30
0.0
 10
4.2803200000000006
 20
-7.1717900000000006
 30
0.0
 10
4.1040800000000006
 20
-7.104820000000001
 30
0.0
 10
4.1040800000000006
 20
-7.104820000000001
 30
0.0
 10
4.3120500000000002
 20
-6.5338000000000003
 30
0.0
 10
3.8855500000000003
 20
-5.8922900000000009
 30
0.0
 10
4.1710500000000001
 20
-5.3424200000000006
 30
0.0
  0
SPLINE
  5
A7
100
AcDbEntity
  8
Ebene 1
 62
     7
100
AcDbSpline
210
0.0
220
0.0
230
1.0
 70
     1
 71
     3
 72
    16
 73
    12
 74
     0
 42
0.0000000001
 43
0.0000000001
 40
0.0
 40
0.0
 40
0.0
 40
0.0
 40
0.3333333333333333
 40
0.3333333333333333
 40
0.3333333333333333
 40
0.3333333333333333
 40
0.6666666666666666
 40
0.6666666666666666
 40
0.6666666666666666
 40
0.6666666666666666
 40
1.0
 40
1.0
 40
1.0
 40
1.0
 10
1.0198900000000002
 20
-5.3882400000000006
 30
0.0
 10
1.2525200000000001
 20
-5.8253200000000005
 30
0.0
 10
1.5027800000000002
 20
-6.3575600000000003
 30
0.0
 10
1.8517400000000002
 20
-6.7100400000000002
 30
0.0
 10
1.8517400000000002
 20
-6.7100400000000002
 30
0.0
 10
1.8517400000000002
 20
-6.7100400000000002
 30
0.0
 10
2.4262800000000002
 20
-8.0529900000000012
 30
0.0
 10
2.4262800000000002
 20
-8.0529900000000012
 30
0.0
 10
2.4262800000000002
 20
-8.0529900000000012
 30
0.0
 10
1.6719700000000002
 20
-7.3727000000000009
 30
0.0
 10
0.8260200000000001
 20
-6.5126500000000007
 30
0.0
 10
1.0198900000000002
 20
-5.3882400000000006
 30
0.0
  0
SPLINE
  5
A8
100
AcDbEntity
  8
Ebene 1
 62
     7
100
AcDbSpline
210
0.0
220
0.0
230
1.0
 70
     1
 71
     3
 72
    16
 73
    12
 74
     0
 42
0.0000000001
 43
0.0000000001
 40
0.0
 40
0.0
 40
0.0
 40
0.0
 40
0.3333333333333333
 40
0.3333333333333333
 40
0.3333333333333333
 40
0.3333333333333333
 40
0.6666666666666666
 40
0.6666666666666666
 40
0.6666666666666666
 40
0.6666666666666666
 40
1.0
 40
1.0
 40
1.0
 40
1.0
 10
4.7456000000000005
 20
-6.1813200000000004
 30
0.0
 10
4.7597000000000005
 20
-6.1813200000000004
 30
0.0
 10
4.7949400000000004
 20
-6.1813200000000004
 30
0.0
 10
4.78789
 20
-6.2024700000000008
 30
0.0
 10
4.78789
 20
-6.2024700000000008
 30
0.0
 10
4.72797
 20
-6.5761000000000003
 30
0.0
 10
4.78789
 20
-7.0167000000000002
 30
0.0
 10
4.5693600000000005
 20
-7.3268800000000009
 30
0.0
 10
4.5693600000000005
 20
-7.3268800000000009
 30
0.0
 10
4.4847600000000005
 20
-6.9532500000000006
 30
0.0
 10
4.68215
 20
-6.5549500000000007
 30
0.0
 10
4.7456000000000005
 20
-6.1813200000000004
 30
0.0
  0
SPLINE
  5
A9
100
AcDbEntity
  8
Ebene 1
 62
     7
100
AcDbSpline
210
0.0
220
0.0
230
1.0
 70
     1
 71
     3
 72
    20
 73
    16
 74
     0
 42
0.0000000001
 43
0.0000000001
 40
0.0
 40
0.0
 40
0.0
 40
0.0
 40
0.25
 40
0.25
 40
0.25
 40
0.25
 40
0.5
 40
0.5
 40
0.5
 40
0.5
 40
0.75
 40
0.75
 40
0.75
 40
0.75
 40
1.0
 40
1.0
 40
1.0
 40
1.0
 10
3.9525200000000003
 20
-6.8862800000000002
 30
0.0
 10
3.9912900000000002
 20
-6.8862800000000002
 30
0.0
 10
4.0089100000000002
 20
-6.9074300000000006
 30
0.0
 10
4.0335900000000002
 20
-6.9285800000000002
 30
0.0
 10
4.0335900000000002
 20
-6.9285800000000002
 30
0.0
 10
3.9560400000000002
 20
-7.2599100000000005
 30
0.0
 10
4.0617900000000002
 20
-7.5700900000000004
 30
0.0
 10
4.0794100000000002
 20
-7.8767500000000004
 30
0.0
 10
4.0794100000000002
 20
-7.8767500000000004
 30
0.0
 10
4.0124400000000007
 20
-7.9225700000000003
 30
0.0
 10
3.9243200000000003
 20
-7.9683900000000003
 30
0.0
 10
3.8467700000000002
 20
-7.9895400000000008
 30
0.0
 10
3.8467700000000002
 20
-7.9895400000000008
 30
0.0
 10
3.8221000000000003
 20
-7.6335400000000009
 30
0.0
 10
3.7410300000000003
 20
-7.2176100000000005
 30
0.0
 10
3.9525200000000003
 20
-6.8862800000000002
 30
0.0
  0
SPLINE
  5
AA
100
AcDbEntity
  8
Ebene 1
 62
     7
100
AcDbSpline
210
0.0
220
0.0
230
1.0
 70
     1
 71
     3
 72
    40
 73
    36
 74
     0
 42
0.0000000001
 43
0.0000000001
 40
0.0
 40
0.0
 40
0.0
 40
0.0
 40
0.1111111111111111
 40
0.1111111111111111
 40
0.1111111111111111
 40
0.1111111111111111
 40
0.2222222222222222
 40
0.2222222222222222
 40
0.2222222222222222
 40
0.2222222222222222
 40
0.3333333333333333
 40
0.3333333333333333
 40
0.3333333333333333
 40
0.3333333333333333
 40
0.4444444444444444
 40
0.4444444444444444
 40
0.4444444444444444
 40
0.4444444444444444
 40
0.5555555555555556
 40
0.5555555555555556
 40
0.5555555555555556
 40
0.5555555555555556
 40
0.6666666666666667
 40
0.6666666666666667
 40
0.6666666666666667
 40
0.6666666666666667
 40
0.7777777777777779
 40
0.7777777777777779
 40
0.7777777777777779
 40
0.7777777777777779
 40
0.8888888888888891
 40
0.8888888888888891
 40
0.8888888888888891
 40
0.8888888888888891
 40
1.0
 40
1.0
 40
1.0
 40
1.0
 10
1.5027800000000002
 20
-7.4150000000000009
 30
0.0
 10
1.6614000000000002
 20
-7.5031200000000009
 30
0.0
 10
1.8200200000000002
 20
-7.6582100000000004
 30
0.0
 10
1.9222400000000002
 20
-7.8097800000000008
 30
0.0
 10
1.9222400000000002
 20
-7.8097800000000008
 30
0.0
 10
1.3159700000000001
 20
-8.1199600000000007
 30
0.0
 10
1.7600900000000002
 20
-9.06813
 30
0.0
 10
1.1996500000000001
 20
-9.3571600000000004
 30
0.0
 10
1.1996500000000001
 20
-9.3571600000000004
 30
0.0
 10
1.0974300000000001
 20
-9.4664300000000008
 30
0.0
 10
0.98111
 20
-9.5757000000000012
 30
0.0
 10
0.8471700000000001
 20
-9.5968500000000017
 30
0.0
 10
0.8471700000000001
 20
-9.5968500000000017
 30
0.0
 10
0.8471700000000001
 20
-9.5968500000000017
 30
0.0
 10
0.80488
 20
-9.5334000000000003
 30
0.0
 10
0.80488
 20
-9.5334000000000003
 30
0.0
 10
0.80488
 20
-9.5334000000000003
 30
0.0
 10
1.0198900000000002
 20
-9.3113400000000013
 30
0.0
 10
1.2807200000000001
 20
-9.06813
 30
0.0
 10
1.3265400000000001
 20
-8.761470000000001
 30
0.0
 10
1.3265400000000001
 20
-8.761470000000001
 30
0.0
 10
1.2067000000000001
 20
-8.5182600000000015
 30
0.0
 10
0.9035700000000001
 20
-8.8707400000000014
 30
0.0
 10
0.7097100000000001
 20
-8.7368000000000006
 30
0.0
 10
0.7097100000000001
 20
-8.7368000000000006
 30
0.0
 10
1.0304600000000002
 20
-8.4512900000000002
 30
0.0
 10
1.45696
 20
-8.0776599999999998
 30
0.0
 10
1.3899900000000001
 20
-7.6123900000000004
 30
0.0
 10
1.3899900000000001
 20
-7.6123900000000004
 30
0.0
 10
1.3300700000000001
 20
-7.5700900000000004
 30
0.0
 10
1.2772000000000001
 20
-7.6793600000000009
 30
0.0
 10
1.2454700000000001
 20
-7.6335400000000009
 30
0.0
 10
1.2454700000000001
 20
-7.6335400000000009
 30
0.0
 10
1.2454700000000001
 20
-7.6335400000000009
 30
0.0
 10
1.5027800000000002
 20
-7.4150000000000009
 30
0.0
 10
1.5027800000000002
 20
-7.4150000000000009
 30
0.0
  0
SPLINE
  5
AB
100
AcDbEntity
  8
Ebene 1
 62
     7
100
AcDbSpline
210
0.0
220
0.0
230
1.0
 70
     1
 71
     3
 72
   104
 73
   100
 74
     0
 42
0.0000000001
 43
0.0000000001
 40
0.0
 40
0.0
 40
0.0
 40
0.0
 40
0.04
 40
0.04
 40
0.04
 40
0.04
 40
0.08
 40
0.08
 40
0.08
 40
0.08
 40
0.12
 40
0.12
 40
0.12
 40
0.12
 40
0.16
 40
0.16
 40
0.16
 40
0.16
 40
0.2
 40
0.2
 40
0.2
 40
0.2
 40
0.24
 40
0.24
 40
0.24
 40
0.24
 40
0.28
 40
0.28
 40
0.28
 40
0.28
 40
0.32
 40
0.32
 40
0.32
 40
0.32
 40
0.36
 40
0.36
 40
0.36
 40
0.36
 40
0.4
 40
0.4
 40
0.4
 40
0.4
 40
0.44
 40
0.44
 40
0.44
 40
0.44
 40
0.4799999999999999
 40
0.4799999999999999
 40
0.4799999999999999
 40
0.4799999999999999
 40
0.5199999999999999
 40
0.5199999999999999
 40
0.5199999999999999
 40
0.5199999999999999
 40
0.5599999999999999
 40
0.5599999999999999
 40
0.5599999999999999
 40
0.5599999999999999
 40
0.6
 40
0.6
 40
0.6
 40
0.6
 40
0.64
 40
0.64
 40
0.64
 40
0.64
 40
0.6800000000000001
 40
0.6800000000000001
 40
0.6800000000000001
 40
0.6800000000000001
 40
0.7200000000000001
 40
0.7200000000000001
 40
0.7200000000000001
 40
0.7200000000000001
 40
0.7600000000000001
 40
0.7600000000000001
 40
0.7600000000000001
 40
0.7600000000000001
 40
0.8000000000000002
 40
0.8000000000000002
 40
0.8000000000000002
 40
0.8000000000000002
 40
0.8400000000000002
 40
0.8400000000000002
 40
0.8400000000000002
 40
0.8400000000000002
 40
0.8800000000000002
 40
0.8800000000000002
 40
0.8800000000000002
 40
0.8800000000000002
 40
0.9200000000000003
 40
0.9200000000000003
 40
0.9200000000000003
 40
0.9200000000000003
 40
0.9600000000000003
 40
0.9600000000000003
 40
0.9600000000000003
 40
0.9600000000000003
 40
1.0
 40
1.0
 40
1.0
 40
1.0
 10
4.8548600000000004
 20
-7.4361500000000005
 30
0.0
 10
5.0452000000000004
 20
-7.8556000000000008
 30
0.0
 10
4.4001700000000001
 20
-8.0776599999999998
 30
0.0
 10
4.0829300000000002
 20
-8.2962000000000007
 30
0.0
 10
4.0829300000000002
 20
-8.2962000000000007
 30
0.0
 10
4.0829300000000002
 20
-8.2962000000000007
 30
0.0
 10
3.5542200000000004
 20
-8.5394100000000002
 30
0.0
 10
3.5542200000000004
 20
-8.5394100000000002
 30
0.0
 10
3.5542200000000004
 20
-8.5394100000000002
 30
0.0
 10
3.4907700000000004
 20
-8.5605600000000006
 30
0.0
 10
3.4414200000000004
 20
-8.6275300000000001
 30
0.0
 10
3.4731500000000004
 20
-8.7156500000000001
 30
0.0
 10
3.4731500000000004
 20
-8.7156500000000001
 30
0.0
 10
3.9384200000000003
 20
-8.761470000000001
 30
0.0
 10
4.4777100000000001
 20
-8.0318400000000008
 30
0.0
 10
4.5305800000000005
 20
-8.5182600000000015
 30
0.0
 10
4.5305800000000005
 20
-8.5182600000000015
 30
0.0
 10
4.68215
 20
-8.6275300000000001
 30
0.0
 10
4.8689600000000004
 20
-8.8707400000000014
 30
0.0
 10
5.0487300000000008
 20
-8.8707400000000014
 30
0.0
 10
5.0487300000000008
 20
-8.8707400000000014
 30
0.0
 10
4.9641300000000008
 20
-8.6486800000000006
 30
0.0
 10
4.78789
 20
-8.4724400000000006
 30
0.0
 10
4.6574800000000005
 20
-8.2962000000000007
 30
0.0
 10
4.6574800000000005
 20
-8.2962000000000007
 30
0.0
 10
4.8478200000000005
 20
-7.7921500000000004
 30
0.0
 10
5.0839800000000004
 20
-7.9437200000000008
 30
0.0
 10
5.4717000000000002
 20
-8.1869300000000003
 30
0.0
 10
5.4717000000000002
 20
-8.1869300000000003
 30
0.0
 10
5.5704000000000002
 20
-7.9895400000000008
 30
0.0
 10
5.1826700000000008
 20
-7.9683900000000003
 30
0.0
 10
5.1932500000000008
 20
-7.7674800000000008
 30
0.0
 10
5.1932500000000008
 20
-7.7674800000000008
 30
0.0
 10
5.4329300000000007
 20
-7.9014200000000008
 30
0.0
 10
5.5633500000000007
 20
-8.0106900000000003
 30
0.0
 10
5.7748400000000002
 20
-8.1869300000000003
 30
0.0
 10
5.7748400000000002
 20
-8.1869300000000003
 30
0.0
 10
5.5104800000000003
 20
-8.3420200000000015
 30
0.0
 10
5.3236600000000003
 20
-8.2538999999999998
 30
0.0
 10
5.0522500000000008
 20
-8.1199600000000007
 30
0.0
 10
5.0522500000000008
 20
-8.1199600000000007
 30
0.0
 10
4.9429800000000004
 20
-8.6063800000000015
 30
0.0
 10
5.7677900000000006
 20
-9.0892800000000005
 30
0.0
 10
6.2401100000000005
 20
-9.1139500000000009
 30
0.0
 10
6.2401100000000005
 20
-9.1139500000000009
 30
0.0
 10
5.5598200000000002
 20
-9.3994600000000013
 30
0.0
 10
4.8337200000000005
 20
-9.0011600000000005
 30
0.0
 10
4.2873700000000001
 20
-8.6275300000000001
 30
0.0
 10
4.2873700000000001
 20
-8.6275300000000001
 30
0.0
 10
4.1005600000000006
 20
-9.1139500000000009
 30
0.0
 10
4.6433800000000005
 20
-9.6180000000000003
 30
0.0
 10
4.4142700000000001
 20
-10.104420000000001
 30
0.0
 10
4.4142700000000001
 20
-10.104420000000001
 30
0.0
 10
3.9560400000000002
 20
-9.8189100000000007
 30
0.0
 10
3.5436400000000003
 20
-9.3783100000000008
 30
0.0
 10
3.2510800000000004
 20
-9.0011600000000005
 30
0.0
 10
3.2510800000000004
 20
-9.0011600000000005
 30
0.0
 10
3.3427300000000004
 20
-9.7307900000000007
 30
0.0
 10
2.7681900000000002
 20
-10.305330000000001
 30
0.0
 10
2.3240600000000002
 20
-10.834050000000001
 30
0.0
 10
2.3240600000000002
 20
-10.834050000000001
 30
0.0
 10
2.4474300000000002
 20
-10.305330000000001
 30
0.0
 10
2.4615300000000002
 20
-9.6426700000000007
 30
0.0
 10
2.3628300000000002
 20
-9.1351000000000013
 30
0.0
 10
2.3628300000000002
 20
-9.1351000000000013
 30
0.0
 10
1.9892100000000001
 20
-9.5757000000000012
 30
0.0
 10
1.4957300000000002
 20
-10.037450000000002
 30
0.0
 10
0.9599700000000001
 20
-10.280660000000001
 30
0.0
 10
0.9599700000000001
 20
-10.280660000000001
 30
0.0
 10
1.1996500000000001
 20
-9.9070300000000007
 30
0.0
 10
1.45696
 20
-9.5334000000000003
 30
0.0
 10
1.54861
 20
-9.0892800000000005
 30
0.0
 10
1.54861
 20
-9.0892800000000005
 30
0.0
 10
1.54861
 20
-9.0892800000000005
 30
0.0
 10
1.56976
 20
-9.0469800000000014
 30
0.0
 10
1.56976
 20
-9.0469800000000014
 30
0.0
 10
1.56976
 20
-9.0469800000000014
 30
0.0
 10
1.5521300000000002
 20
-8.8037700000000001
 30
0.0
 10
1.7319000000000002
 20
-8.9130400000000005
 30
0.0
 10
1.6191000000000002
 20
-9.06813
 30
0.0
 10
1.6191000000000002
 20
-9.06813
 30
0.0
 10
1.6191000000000002
 20
-9.06813
 30
0.0
 10
1.57681
 20
-9.24437
 30
0.0
 10
1.57681
 20
-9.24437
 30
0.0
 10
1.57681
 20
-9.24437
 30
0.0
 10
1.7918200000000002
 20
-8.98001
 30
0.0
 10
2.0702800000000003
 20
-8.849590000000001
 30
0.0
 10
2.3346400000000003
 20
-8.761470000000001
 30
0.0
 10
2.3346400000000003
 20
-8.761470000000001
 30
0.0
 10
2.2465200000000003
 20
-8.4724400000000006
 30
0.0
 10
1.9081400000000002
 20
-8.4971100000000011
 30
0.0
 10
1.6790200000000002
 20
-8.4301400000000015
 30
0.0
 10
1.6790200000000002
 20
-8.4301400000000015
 30
0.0
 10
1.7178000000000002
 20
-8.2750500000000002
 30
0.0
 10
1.7565700000000002
 20
-8.0988100000000003
 30
0.0
 10
1.9081400000000002
 20
-8.0106900000000003
 30
0.0
 10
1.9081400000000002
 20
-8.0106900000000003
 30
0.0
 10
2.9021300000000001
 20
-8.6063800000000015
 30
0.0
 10
4.0582600000000006
 20
-8.3208700000000011
 30
0.0
 10
4.8548600000000004
 20
-7.4361500000000005
 30
0.0
  0
SPLINE
  5
AC
100
AcDbEntity
  8
Ebene 1
 62
     7
100
AcDbSpline
210
0.0
220
0.0
230
1.0
 70
     1
 71
     3
 72
    16
 73
    12
 74
     0
 42
0.0000000001
 43
0.0000000001
 40
0.0
 40
0.0
 40
0.0
 40
0.0
 40
0.3333333333333333
 40
0.3333333333333333
 40
0.3333333333333333
 40
0.3333333333333333
 40
0.6666666666666666
 40
0.6666666666666666
 40
0.6666666666666666
 40
0.6666666666666666
 40
1.0
 40
1.0
 40
1.0
 40
1.0
 10
4.2380300000000002
 20
-7.5489400000000009
 30
0.0
 10
4.2380300000000002
 20
-7.5489400000000009
 30
0.0
 10
4.3684400000000005
 20
-7.6582100000000004
 30
0.0
 10
4.3684400000000005
 20
-7.6582100000000004
 30
0.0
 10
4.3684400000000005
 20
-7.6582100000000004
 30
0.0
 10
4.3437700000000001
 20
-7.7005100000000004
 30
0.0
 10
4.2979500000000002
 20
-7.7674800000000008
 30
0.0
 10
4.2450800000000006
 20
-7.7463300000000004
 30
0.0
 10
4.2450800000000006
 20
-7.7463300000000004
 30
0.0
 10
4.2450800000000006
 20
-7.7463300000000004
 30
0.0
 10
4.2380300000000002
 20
-7.5489400000000009
 30
0.0
 10
4.2380300000000002
 20
-7.5489400000000009
 30
0.0
  0
SPLINE
  5
AD
100
AcDbEntity
  8
Ebene 1
 62
     7
100
AcDbSpline
210
0.0
220
0.0
230
1.0
 70
     1
 71
     3
 72
    56
 73
    52
 74
     0
 42
0.0000000001
 43
0.0000000001
 40
0.0
 40
0.0
 40
0.0
 40
0.0
 40
0.0769230769230769
 40
0.0769230769230769
 40
0.0769230769230769
 40
0.0769230769230769
 40
0.1538461538461539
 40
0.1538461538461539
 40
0.1538461538461539
 40
0.1538461538461539
 40
0.2307692307692308
 40
0.2307692307692308
 40
0.2307692307692308
 40
0.2307692307692308
 40
0.3076923076923077
 40
0.3076923076923077
 40
0.3076923076923077
 40
0.3076923076923077
 40
0.3846153846153846
 40
0.3846153846153846
 40
0.3846153846153846
 40
0.3846153846153846
 40
0.4615384615384616
 40
0.4615384615384616
 40
0.4615384615384616
 40
0.4615384615384616
 40
0.5384615384615386
 40
0.5384615384615386
 40
0.5384615384615386
 40
0.5384615384615386
 40
0.6153846153846154
 40
0.6153846153846154
 40
0.6153846153846154
 40
0.6153846153846154
 40
0.6923076923076923
 40
0.6923076923076923
 40
0.6923076923076923
 40
0.6923076923076923
 40
0.7692307692307692
 40
0.7692307692307692
 40
0.7692307692307692
 40
0.7692307692307692
 40
0.846153846153846
 40
0.846153846153846
 40
0.846153846153846
 40
0.846153846153846
 40
0.9230769230769229
 40
0.9230769230769229
 40
0.9230769230769229
 40
0.9230769230769229
 40
1.0
 40
1.0
 40
1.0
 40
1.0
 10
-1.17605
 20
-7.6652600000000009
 30
0.0
 10
-1.0844
 20
-7.7322300000000004
 30
0.0
 10
-1.1020300000000001
 20
-8.0565100000000012
 30
0.0
 10
-1.3663800000000001
 20
-8.0001200000000008
 30
0.0
 10
-1.3663800000000001
 20
-8.0001200000000008
 30
0.0
 10
-1.4333600000000002
 20
-7.9860200000000008
 30
0.0
 10
-1.4580300000000002
 20
-8.1023300000000003
 30
0.0
 10
-1.4404100000000002
 20
-8.1869300000000003
 30
0.0
 10
-1.4404100000000002
 20
-8.1869300000000003
 30
0.0
 10
-1.4404100000000002
 20
-8.1869300000000003
 30
0.0
 10
-0.32657
 20
-7.6123900000000004
 30
0.0
 10
-0.32657
 20
-7.6123900000000004
 30
0.0
 10
-0.32657
 20
-7.6123900000000004
 30
0.0
 10
-0.26665
 20
-7.6793600000000009
 30
0.0
 10
-0.25255
 20
-7.7674800000000008
 30
0.0
 10
-0.30542
 20
-7.8556000000000008
 30
0.0
 10
-0.30542
 20
-7.8556000000000008
 30
0.0
 10
-0.3512400000000001
 20
-8.1199600000000007
 30
0.0
 10
-0.6543800000000001
 20
-8.0988100000000003
 30
0.0
 10
-0.8341400000000001
 20
-8.2538999999999998
 30
0.0
 10
-0.8341400000000001
 20
-8.2538999999999998
 30
0.0
 10
-1.0562
 20
-8.4512900000000002
 30
0.0
 10
-1.3734300000000002
 20
-8.6063800000000015
 30
0.0
 10
-1.4862300000000002
 20
-8.8707400000000014
 30
0.0
 10
-1.4862300000000002
 20
-8.8707400000000014
 30
0.0
 10
-1.2465400000000002
 20
-8.8249200000000005
 30
0.0
 10
-1.07735
 20
-8.585230000000001
 30
0.0
 10
-0.8658600000000001
 20
-8.4512900000000002
 30
0.0
 10
-0.8658600000000001
 20
-8.4512900000000002
 30
0.0
 10
-0.6861
 20
-8.5394100000000002
 30
0.0
 10
-0.5556800000000001
 20
-8.3843200000000007
 30
0.0
 10
-0.3723900000000001
 20
-8.4054700000000011
 30
0.0
 10
-0.3723900000000001
 20
-8.4054700000000011
 30
0.0
 10
-0.47461
 20
-9.06813
 30
0.0
 10
-1.0879300000000001
 20
-9.2232200000000013
 30
0.0
 10
-1.5637700000000001
 20
-9.4875800000000012
 30
0.0
 10
-1.5637700000000001
 20
-9.4875800000000012
 30
0.0
 10
-1.5708200000000001
 20
-9.3994600000000013
 30
0.0
 10
-1.6695200000000001
 20
-9.3994600000000013
 30
0.0
 10
-1.7505900000000001
 20
-9.3994600000000013
 30
0.0
 10
-1.7505900000000001
 20
-9.3994600000000013
 30
0.0
 10
-1.7400100000000001
 20
-9.3113400000000013
 30
0.0
 10
-1.5355800000000002
 20
-9.2020700000000009
 30
0.0
 10
-1.6448400000000001
 20
-9.15625
 30
0.0
 10
-1.6448400000000001
 20
-9.15625
 30
0.0
 10
-2.0361000000000002
 20
-9.4664300000000008
 30
0.0
 10
-2.62826
 20
-9.7307900000000007
 30
0.0
 10
-3.0723900000000004
 20
-9.5334000000000003
 30
0.0
 10
-3.0723900000000004
 20
-9.5334000000000003
 30
0.0
 10
-2.8291700000000004
 20
-8.6486800000000006
 30
0.0
 10
-1.8457600000000001
 20
-8.1305300000000003
 30
0.0
 10
-1.17605
 20
-7.6652600000000009
 30
0.0
  0
SPLINE
  5
AE
100
AcDbEntity
  8
Ebene 1
100
AcDbSpline
210
0.0
220
0.0
230
1.0
 70
     1
 71
     3
 72
    32
 73
    28
 74
     0
 42
0.0000000001
 43
0.0000000001
 40
0.0
 40
0.0
 40
0.0
 40
0.0
 40
0.1428571428571429
 40
0.1428571428571429
 40
0.1428571428571429
 40
0.1428571428571429
 40
0.2857142857142857
 40
0.2857142857142857
 40
0.2857142857142857
 40
0.2857142857142857
 40
0.4285714285714286
 40
0.4285714285714286
 40
0.4285714285714286
 40
0.4285714285714286
 40
0.5714285714285714
 40
0.5714285714285714
 40
0.5714285714285714
 40
0.5714285714285714
 40
0.7142857142857142
 40
0.7142857142857142
 40
0.7142857142857142
 40
0.7142857142857142
 40
0.857142857142857
 40
0.857142857142857
 40
0.857142857142857
 40
0.857142857142857
 40
1.0
 40
1.0
 40
1.0
 40
1.0
 10
-2.9701700000000004
 20
-8.5394100000000002
 30
0.0
 10
-2.9384400000000004
 20
-8.5394100000000002
 30
0.0
 10
-2.8891000000000004
 20
-8.5394100000000002
 30
0.0
 10
-2.9032000000000004
 20
-8.585230000000001
 30
0.0
 10
-2.9032000000000004
 20
-8.585230000000001
 30
0.0
 10
-3.1992800000000003
 20
-8.8249200000000005
 30
0.0
 10
-3.3473200000000003
 20
-9.3783100000000008
 30
0.0
 10
-3.7773400000000001
 20
-9.3994600000000013
 30
0.0
 10
-3.7773400000000001
 20
-9.3994600000000013
 30
0.0
 10
-3.7773400000000001
 20
-9.3994600000000013
 30
0.0
 10
-3.8513700000000002
 20
-9.2901900000000008
 30
0.0
 10
-3.8513700000000002
 20
-9.2901900000000008
 30
0.0
 10
-3.8513700000000002
 20
-9.2901900000000008
 30
0.0
 10
-3.9500600000000001
 20
-9.3783100000000008
 30
0.0
 10
-4.0804800000000006
 20
-9.4875800000000012
 30
0.0
 10
-4.13687
 20
-9.3113400000000013
 30
0.0
 10
-4.13687
 20
-9.3113400000000013
 30
0.0
 10
-4.13687
 20
-9.3113400000000013
 30
0.0
 10
-4.40123
 20
-9.3994600000000013
 30
0.0
 10
-4.40123
 20
-9.3994600000000013
 30
0.0
 10
-4.40123
 20
-9.3994600000000013
 30
0.0
 10
-4.41533
 20
-9.3571600000000004
 30
0.0
 10
-4.38361
 20
-9.3113400000000013
 30
0.0
 10
-4.35189
 20
-9.2901900000000008
 30
0.0
 10
-4.35189
 20
-9.2901900000000008
 30
0.0
 10
-3.8619400000000002
 20
-9.2020700000000009
 30
0.0
 10
-3.3473200000000003
 20
-8.98001
 30
0.0
 10
-2.9701700000000004
 20
-8.5394100000000002
 30
0.0
  0
SPLINE
  5
AF
100
AcDbEntity
  8
Ebene 1
 62
     7
100
AcDbSpline
210
0.0
220
0.0
230
1.0
 70
     1
 71
     3
 72
    16
 73
    12
 74
     0
 42
0.0000000001
 43
0.0000000001
 40
0.0
 40
0.0
 40
0.0
 40
0.0
 40
0.3333333333333333
 40
0.3333333333333333
 40
0.3333333333333333
 40
0.3333333333333333
 40
0.6666666666666666
 40
0.6666666666666666
 40
0.6666666666666666
 40
0.6666666666666666
 40
1.0
 40
1.0
 40
1.0
 40
1.0
 10
2.2747100000000002
 20
-9.4664300000000008
 30
0.0
 10
2.2747100000000002
 20
-9.4664300000000008
 30
0.0
 10
2.3134900000000003
 20
-9.8612100000000016
 30
0.0
 10
2.3134900000000003
 20
-9.8612100000000016
 30
0.0
 10
2.3134900000000003
 20
-9.8612100000000016
 30
0.0
 10
2.0879000000000003
 20
-9.7942400000000003
 30
0.0
 10
1.8764100000000001
 20
-9.9951500000000006
 30
0.0
 10
1.6649300000000002
 20
-10.037450000000002
 30
0.0
 10
1.6649300000000002
 20
-10.037450000000002
 30
0.0
 10
1.8623100000000001
 20
-9.8612100000000016
 30
0.0
 10
2.0984700000000003
 20
-9.6849700000000016
 30
0.0
 10
2.2747100000000002
 20
-9.4664300000000008
 30
0.0
  0
SPLINE
  5
B0
100
AcDbEntity
  8
Ebene 1
 62
     7
100
AcDbSpline
210
0.0
220
0.0
230
1.0
 70
     1
 71
     3
 72
    68
 73
    64
 74
     0
 42
0.0000000001
 43
0.0000000001
 40
0.0
 40
0.0
 40
0.0
 40
0.0
 40
0.0625
 40
0.0625
 40
0.0625
 40
0.0625
 40
0.125
 40
0.125
 40
0.125
 40
0.125
 40
0.1875
 40
0.1875
 40
0.1875
 40
0.1875
 40
0.25
 40
0.25
 40
0.25
 40
0.25
 40
0.3125
 40
0.3125
 40
0.3125
 40
0.3125
 40
0.375
 40
0.375
 40
0.375
 40
0.375
 40
0.4375
 40
0.4375
 40
0.4375
 40
0.4375
 40
0.5
 40
0.5
 40
0.5
 40
0.5
 40
0.5625
 40
0.5625
 40
0.5625
 40
0.5625
 40
0.625
 40
0.625
 40
0.625
 40
0.625
 40
0.6875
 40
0.6875
 40
0.6875
 40
0.6875
 40
0.75
 40
0.75
 40
0.75
 40
0.75
 40
0.8125
 40
0.8125
 40
0.8125
 40
0.8125
 40
0.875
 40
0.875
 40
0.875
 40
0.875
 40
0.9375
 40
0.9375
 40
0.9375
 40
0.9375
 40
1.0
 40
1.0
 40
1.0
 40
1.0
 10
3.3110000000000004
 20
-9.4875800000000012
 30
0.0
 10
3.6564300000000003
 20
-9.7942400000000003
 30
0.0
 10
4.0335900000000002
 20
-10.171390000000001
 30
0.0
 10
4.5200100000000001
 20
-10.280660000000001
 30
0.0
 10
4.5200100000000001
 20
-10.280660000000001
 30
0.0
 10
4.5200100000000001
 20
-10.280660000000001
 30
0.0
 10
4.5517300000000001
 20
-9.9528500000000015
 30
0.0
 10
4.5517300000000001
 20
-9.9528500000000015
 30
0.0
 10
4.5517300000000001
 20
-9.9528500000000015
 30
0.0
 10
4.7033000000000005
 20
-10.129090000000001
 30
0.0
 10
4.7315000000000005
 20
-9.9528500000000015
 30
0.0
 10
4.75265
 20
-9.7307900000000007
 30
0.0
 10
4.75265
 20
-9.7307900000000007
 30
0.0
 10
4.8830600000000004
 20
-10.129090000000001
 30
0.0
 10
4.6892000000000005
 20
-10.50272
 30
0.0
 10
4.2345000000000006
 20
-10.50272
 30
0.0
 10
4.2345000000000006
 20
-10.50272
 30
0.0
 10
4.5517300000000001
 20
-10.633140000000001
 30
0.0
 10
5.2496400000000003
 20
-10.721260000000001
 30
0.0
 10
5.4470300000000007
 20
-11.249980000000001
 30
0.0
 10
5.4470300000000007
 20
-11.249980000000001
 30
0.0
 10
5.0099600000000004
 20
-10.809380000000001
 30
0.0
 10
4.2345000000000006
 20
-10.67896
 30
0.0
 10
3.6423400000000004
 20
-10.922170000000001
 30
0.0
 10
3.6423400000000004
 20
-10.922170000000001
 30
0.0
 10
4.0335900000000002
 20
-11.073740000000001
 30
0.0
 10
5.3095600000000003
 20
-10.67896
 30
0.0
 10
5.1157000000000004
 20
-11.539010000000001
 30
0.0
 10
5.1157000000000004
 20
-11.539010000000001
 30
0.0
 10
4.4847600000000005
 20
-11.119560000000002
 30
0.0
 10
3.5577400000000003
 20
-10.943320000000002
 30
0.0
 10
2.8492600000000001
 20
-11.274650000000001
 30
0.0
 10
2.8492600000000001
 20
-11.274650000000001
 30
0.0
 10
2.7717100000000001
 20
-11.249980000000001
 30
0.0
 10
2.6835900000000001
 20
-11.341620000000001
 30
0.0
 10
2.6518700000000002
 20
-11.22883
 30
0.0
 10
2.6518700000000002
 20
-11.22883
 30
0.0
 10
3.0043500000000001
 20
-10.922170000000001
 30
0.0
 10
3.5718400000000003
 20
-10.721260000000001
 30
0.0
 10
4.0159600000000006
 20
-10.569690000000001
 30
0.0
 10
4.0159600000000006
 20
-10.569690000000001
 30
0.0
 10
3.9560400000000002
 20
-10.456900000000001
 30
0.0
 10
3.8326700000000002
 20
-10.545020000000001
 30
0.0
 10
3.7304600000000003
 20
-10.523870000000001
 30
0.0
 10
3.7304600000000003
 20
-10.523870000000001
 30
0.0
 10
3.5859400000000003
 20
-10.50272
 30
0.0
 10
3.5189700000000004
 20
-10.61199
 30
0.0
 10
3.4167500000000004
 20
-10.67896
 30
0.0
 10
3.4167500000000004
 20
-10.67896
 30
0.0
 10
3.4167500000000004
 20
-10.67896
 30
0.0
 10
3.0536900000000005
 20
-10.834050000000001
 30
0.0
 10
3.0536900000000005
 20
-10.834050000000001
 30
0.0
 10
3.0536900000000005
 20
-10.834050000000001
 30
0.0
 10
3.2581300000000004
 20
-10.50272
 30
0.0
 10
3.7163600000000003
 20
-10.481570000000001
 30
0.0
 10
4.0159600000000006
 20
-10.32648
 30
0.0
 10
4.0159600000000006
 20
-10.32648
 30
0.0
 10
3.9348900000000002
 20
-9.9740000000000002
 30
0.0
 10
3.5048700000000004
 20
-10.23836
 30
0.0
 10
3.2969100000000005
 20
-10.305330000000001
 30
0.0
 10
3.2969100000000005
 20
-10.305330000000001
 30
0.0
 10
3.6176600000000003
 20
-10.06212
 30
0.0
 10
3.4238000000000004
 20
-9.7096400000000003
 30
0.0
 10
3.3110000000000004
 20
-9.4875800000000012
 30
0.0
  0
SPLINE
  5
B1
100
AcDbEntity
  8
Ebene 1
 62
     7
100
AcDbSpline
210
0.0
220
0.0
230
1.0
 70
     1
 71
     3
 72
    64
 73
    60
 74
     0
 42
0.0000000001
 43
0.0000000001
 40
0.0
 40
0.0
 40
0.0
 40
0.0
 40
0.0666666666666667
 40
0.0666666666666667
 40
0.0666666666666667
 40
0.0666666666666667
 40
0.1333333333333333
 40
0.1333333333333333
 40
0.1333333333333333
 40
0.1333333333333333
 40
0.2
 40
0.2
 40
0.2
 40
0.2
 40
0.2666666666666667
 40
0.2666666666666667
 40
0.2666666666666667
 40
0.2666666666666667
 40
0.3333333333333333
 40
0.3333333333333333
 40
0.3333333333333333
 40
0.3333333333333333
 40
0.4
 40
0.4
 40
0.4
 40
0.4
 40
0.4666666666666666
 40
0.4666666666666666
 40
0.4666666666666666
 40
0.4666666666666666
 40
0.5333333333333333
 40
0.5333333333333333
 40
0.5333333333333333
 40
0.5333333333333333
 40
0.6
 40
0.6
 40
0.6
 40
0.6
 40
0.6666666666666666
 40
0.6666666666666666
 40
0.6666666666666666
 40
0.6666666666666666
 40
0.7333333333333333
 40
0.7333333333333333
 40
0.7333333333333333
 40
0.7333333333333333
 40
0.7999999999999999
 40
0.7999999999999999
 40
0.7999999999999999
 40
0.7999999999999999
 40
0.8666666666666666
 40
0.8666666666666666
 40
0.8666666666666666
 40
0.8666666666666666
 40
0.9333333333333332
 40
0.9333333333333332
 40
0.9333333333333332
 40
0.9333333333333332
 40
1.0
 40
1.0
 40
1.0
 40
1.0
 10
-1.028
 20
-9.5545500000000008
 30
0.0
 10
-0.9293100000000001
 20
-9.5545500000000008
 30
0.0
 10
-0.8693900000000001
 20
-9.6638200000000012
 30
0.0
 10
-0.80947
 20
-9.7307900000000007
 30
0.0
 10
-0.80947
 20
-9.7307900000000007
 30
0.0
 10
-1.2994100000000002
 20
-10.4146
 30
0.0
 10
-2.2193900000000002
 20
-10.70011
 30
0.0
 10
-2.9631200000000004
 20
-11.05259
 30
0.0
 10
-2.9631200000000004
 20
-11.05259
 30
0.0
 10
-2.8609000000000004
 20
-10.897500000000001
 30
0.0
 10
-2.5965400000000001
 20
-10.834050000000001
 30
0.0
 10
-2.5330900000000001
 20
-10.67896
 30
0.0
 10
-2.5330900000000001
 20
-10.67896
 30
0.0
 10
-2.5683400000000001
 20
-10.633140000000001
 30
0.0
 10
-2.6247400000000001
 20
-10.70011
 30
0.0
 10
-2.66351
 20
-10.721260000000001
 30
0.0
 10
-2.66351
 20
-10.721260000000001
 30
0.0
 10
-2.69523
 20
-10.767080000000002
 30
0.0
 10
-2.75163
 20
-10.745930000000001
 30
0.0
 10
-2.79393
 20
-10.745930000000001
 30
0.0
 10
-2.79393
 20
-10.745930000000001
 30
0.0
 10
-2.9736900000000004
 20
-10.70011
 30
0.0
 10
-3.1111600000000004
 20
-10.96447
 30
0.0
 10
-3.2944500000000003
 20
-10.985620000000001
 30
0.0
 10
-3.2944500000000003
 20
-10.985620000000001
 30
0.0
 10
-3.1534600000000004
 20
-10.633140000000001
 30
0.0
 10
-2.8750000000000004
 20
-10.721260000000001
 30
0.0
 10
-2.65998
 20
-10.481570000000001
 30
0.0
 10
-2.65998
 20
-10.481570000000001
 30
0.0
 10
-2.65998
 20
-10.481570000000001
 30
0.0
 10
-2.5330900000000001
 20
-10.545020000000001
 30
0.0
 10
-2.5330900000000001
 20
-10.545020000000001
 30
0.0
 10
-2.5330900000000001
 20
-10.545020000000001
 30
0.0
 10
-2.3498000000000001
 20
-10.347630000000001
 30
0.0
 10
-2.1206900000000002
 20
-10.23836
 30
0.0
 10
-1.9092000000000002
 20
-10.129090000000001
 30
0.0
 10
-1.9092000000000002
 20
-10.129090000000001
 30
0.0
 10
-1.9127300000000003
 20
-10.06212
 30
0.0
 10
-1.9620800000000003
 20
-10.016300000000001
 30
0.0
 10
-2.0043700000000002
 20
-9.9740000000000002
 30
0.0
 10
-2.0043700000000002
 20
-9.9740000000000002
 30
0.0
 10
-2.1841400000000002
 20
-10.213690000000001
 30
0.0
 10
-2.4449700000000001
 20
-10.104420000000001
 30
0.0
 10
-2.66351
 20
-10.129090000000001
 30
0.0
 10
-2.66351
 20
-10.129090000000001
 30
0.0
 10
-2.7622000000000004
 20
-10.037450000000002
 30
0.0
 10
-2.8362200000000004
 20
-10.280660000000001
 30
0.0
 10
-2.9172900000000004
 20
-10.213690000000001
 30
0.0
 10
-2.9172900000000004
 20
-10.213690000000001
 30
0.0
 10
-2.9419700000000004
 20
-10.171390000000001
 30
0.0
 10
-2.9102500000000004
 20
-10.129090000000001
 30
0.0
 10
-2.8961500000000004
 20
-10.083270000000001
 30
0.0
 10
-2.8961500000000004
 20
-10.083270000000001
 30
0.0
 10
-2.5542400000000001
 20
-10.016300000000001
 30
0.0
 10
-2.1629900000000002
 20
-9.7942400000000003
 30
0.0
 10
-1.8669100000000001
 20
-9.9740000000000002
 30
0.0
 10
-1.8669100000000001
 20
-9.9740000000000002
 30
0.0
 10
-1.6272200000000001
 20
-9.6849700000000016
 30
0.0
 10
-1.2253900000000002
 20
-9.7766100000000016
 30
0.0
 10
-1.028
 20
-9.5545500000000008
 30
0.0
  0
SPLINE
  5
B2
100
AcDbEntity
  8
Ebene 1
 62
     7
100
AcDbSpline
210
0.0
220
0.0
230
1.0
 70
     1
 71
     3
 72
    20
 73
    16
 74
     0
 42
0.0000000001
 43
0.0000000001
 40
0.0
 40
0.0
 40
0.0
 40
0.0
 40
0.25
 40
0.25
 40
0.25
 40
0.25
 40
0.5
 40
0.5
 40
0.5
 40
0.5
 40
0.75
 40
0.75
 40
0.75
 40
0.75
 40
1.0
 40
1.0
 40
1.0
 40
1.0
 10
0.64273
 20
-9.6638200000000012
 30
0.0
 10
0.64273
 20
-9.6638200000000012
 30
0.0
 10
1.1467800000000001
 20
-9.7942400000000003
 30
0.0
 10
1.1467800000000001
 20
-9.7942400000000003
 30
0.0
 10
1.1467800000000001
 20
-9.7942400000000003
 30
0.0
 10
1.0833300000000001
 20
-9.9740000000000002
 30
0.0
 10
0.9564400000000001
 20
-10.129090000000001
 30
0.0
 10
0.8154500000000001
 20
-10.280660000000001
 30
0.0
 10
0.8154500000000001
 20
-10.280660000000001
 30
0.0
 10
0.6462600000000001
 20
-10.171390000000001
 30
0.0
 10
0.46649
 20
-10.016300000000001
 30
0.0
 10
0.39952
 20
-9.8189100000000007
 30
0.0
 10
0.39952
 20
-9.8189100000000007
 30
0.0
 10
0.47354
 20
-9.7766100000000016
 30
0.0
 10
0.5933900000000001
 20
-9.7519400000000012
 30
0.0
 10
0.64273
 20
-9.6638200000000012
 30
0.0
  0
SPLINE
  5
B3
100
AcDbEntity
  8
Ebene 1
 62
     7
100
AcDbSpline
210
0.0
220
0.0
230
1.0
 70
     1
 71
     3
 72
    64
 73
    60
 74
     0
 42
0.0000000001
 43
0.0000000001
 40
0.0
 40
0.0
 40
0.0
 40
0.0
 40
0.0666666666666667
 40
0.0666666666666667
 40
0.0666666666666667
 40
0.0666666666666667
 40
0.1333333333333333
 40
0.1333333333333333
 40
0.1333333333333333
 40
0.1333333333333333
 40
0.2
 40
0.2
 40
0.2
 40
0.2
 40
0.2666666666666667
 40
0.2666666666666667
 40
0.2666666666666667
 40
0.2666666666666667
 40
0.3333333333333333
 40
0.3333333333333333
 40
0.3333333333333333
 40
0.3333333333333333
 40
0.4
 40
0.4
 40
0.4
 40
0.4
 40
0.4666666666666666
 40
0.4666666666666666
 40
0.4666666666666666
 40
0.4666666666666666
 40
0.5333333333333333
 40
0.5333333333333333
 40
0.5333333333333333
 40
0.5333333333333333
 40
0.6
 40
0.6
 40
0.6
 40
0.6
 40
0.6666666666666666
 40
0.6666666666666666
 40
0.6666666666666666
 40
0.6666666666666666
 40
0.7333333333333333
 40
0.7333333333333333
 40
0.7333333333333333
 40
0.7333333333333333
 40
0.7999999999999999
 40
0.7999999999999999
 40
0.7999999999999999
 40
0.7999999999999999
 40
0.8666666666666666
 40
0.8666666666666666
 40
0.8666666666666666
 40
0.8666666666666666
 40
0.9333333333333332
 40
0.9333333333333332
 40
0.9333333333333332
 40
0.9333333333333332
 40
1.0
 40
1.0
 40
1.0
 40
1.0
 10
2.2077400000000003
 20
-9.9281800000000011
 30
0.0
 10
2.2077400000000003
 20
-9.9281800000000011
 30
0.0
 10
2.3346400000000003
 20
-9.9281800000000011
 30
0.0
 10
2.3346400000000003
 20
-9.9281800000000011
 30
0.0
 10
2.3346400000000003
 20
-9.9281800000000011
 30
0.0
 10
2.3945600000000002
 20
-10.347630000000001
 30
0.0
 10
2.2006900000000003
 20
-10.745930000000001
 30
0.0
 10
2.1725000000000003
 20
-11.119560000000002
 30
0.0
 10
2.1725000000000003
 20
-11.119560000000002
 30
0.0
 10
2.2570900000000003
 20
-11.14071
 30
0.0
 10
2.2923400000000003
 20
-11.05259
 30
0.0
 10
2.3240600000000002
 20
-10.985620000000001
 30
0.0
 10
2.3240600000000002
 20
-10.985620000000001
 30
0.0
 10
2.3240600000000002
 20
-10.985620000000001
 30
0.0
 10
2.7893300000000001
 20
-10.4146
 30
0.0
 10
2.7893300000000001
 20
-10.4146
 30
0.0
 10
2.7893300000000001
 20
-10.4146
 30
0.0
 10
2.8563100000000001
 20
-10.456900000000001
 30
0.0
 10
2.8845000000000001
 20
-10.569690000000001
 30
0.0
 10
2.9127000000000001
 20
-10.633140000000001
 30
0.0
 10
2.9127000000000001
 20
-10.633140000000001
 30
0.0
 10
2.9338500000000001
 20
-10.943320000000002
 30
0.0
 10
2.5108800000000002
 20
-11.05259
 30
0.0
 10
2.5355500000000002
 20
-11.362770000000001
 30
0.0
 10
2.5355500000000002
 20
-11.362770000000001
 30
0.0
 10
2.1619200000000003
 20
-11.539010000000001
 30
0.0
 10
1.8200200000000002
 20
-11.84567
 30
0.0
 10
1.5662300000000002
 20
-12.177000000000001
 30
0.0
 10
1.5662300000000002
 20
-12.177000000000001
 30
0.0
 10
1.2349000000000001
 20
-12.088880000000001
 30
0.0
 10
0.8507000000000001
 20
-12.02191
 30
0.0
 10
0.5828100000000001
 20
-12.31094
 30
0.0
 10
0.5828100000000001
 20
-12.31094
 30
0.0
 10
0.54052
 20
-12.088880000000001
 30
0.0
 10
0.6004400000000001
 20
-11.84567
 30
0.0
 10
0.70618
 20
-11.648280000000002
 30
0.0
 10
0.70618
 20
-11.648280000000002
 30
0.0
 10
0.8789000000000001
 20
-11.383920000000002
 30
0.0
 10
1.1044800000000001
 20
-11.119560000000002
 30
0.0
 10
1.4111400000000001
 20
-11.010290000000001
 30
0.0
 10
1.4111400000000001
 20
-11.010290000000001
 30
0.0
 10
1.5098300000000002
 20
-11.010290000000001
 30
0.0
 10
1.6155800000000002
 20
-11.165380000000001
 30
0.0
 10
1.7636200000000002
 20
-11.098410000000001
 30
0.0
 10
1.7636200000000002
 20
-11.098410000000001
 30
0.0
 10
1.8552600000000001
 20
-10.985620000000001
 30
0.0
 10
1.6649300000000002
 20
-11.031440000000002
 30
0.0
 10
1.6367300000000002
 20
-10.985620000000001
 30
0.0
 10
1.6367300000000002
 20
-10.985620000000001
 30
0.0
 10
1.9469100000000001
 20
-10.70011
 30
0.0
 10
2.2500400000000003
 20
-10.633140000000001
 30
0.0
 10
2.2253700000000003
 20
-10.171390000000001
 30
0.0
 10
2.2253700000000003
 20
-10.171390000000001
 30
0.0
 10
2.1266700000000003
 20
-10.104420000000001
 30
0.0
 10
1.9927300000000001
 20
-10.213690000000001
 30
0.0
 10
1.9081400000000002
 20
-10.15024
 30
0.0
 10
1.9081400000000002
 20
-10.15024
 30
0.0
 10
1.9081400000000002
 20
-10.15024
 30
0.0
 10
2.2077400000000003
 20
-9.9281800000000011
 30
0.0
 10
2.2077400000000003
 20
-9.9281800000000011
 30
0.0
  0
SPLINE
  5
B4
100
AcDbEntity
  8
Ebene 1
 62
     7
100
AcDbSpline
210
0.0
220
0.0
230
1.0
 70
     1
 71
     3
 72
    44
 73
    40
 74
     0
 42
0.0000000001
 43
0.0000000001
 40
0.0
 40
0.0
 40
0.0
 40
0.0
 40
0.1
 40
0.1
 40
0.1
 40
0.1
 40
0.2
 40
0.2
 40
0.2
 40
0.2
 40
0.3
 40
0.3
 40
0.3
 40
0.3
 40
0.4
 40
0.4
 40
0.4
 40
0.4
 40
0.5
 40
0.5
 40
0.5
 40
0.5
 40
0.6
 40
0.6
 40
0.6
 40
0.6
 40
0.7
 40
0.7
 40
0.7
 40
0.7
 40
0.7999999999999999
 40
0.7999999999999999
 40
0.7999999999999999
 40
0.7999999999999999
 40
0.8999999999999999
 40
0.8999999999999999
 40
0.8999999999999999
 40
0.8999999999999999
 40
1.0
 40
1.0
 40
1.0
 40
1.0
 10
3.3779800000000004
 20
-11.186530000000001
 30
0.0
 10
4.3931200000000006
 20
-10.985620000000001
 30
0.0
 10
5.2002900000000007
 20
-11.870340000000001
 30
0.0
 10
5.3624400000000003
 20
-12.772690000000001
 30
0.0
 10
5.3624400000000003
 20
-12.772690000000001
 30
0.0
 10
5.2179200000000003
 20
-13.125170000000001
 30
0.0
 10
4.8055200000000005
 20
-13.149840000000001
 30
0.0
 10
4.4812400000000006
 20
-13.170990000000002
 30
0.0
 10
4.4812400000000006
 20
-13.170990000000002
 30
0.0
 10
4.0159600000000006
 20
-13.213290000000001
 30
0.0
 10
5.2989900000000008
 20
-13.170990000000002
 30
0.0
 10
4.78789
 20
-13.259110000000002
 30
0.0
 10
4.78789
 20
-13.259110000000002
 30
0.0
 10
4.78789
 20
-13.259110000000002
 30
0.0
 10
4.6363300000000001
 20
-13.301410000000001
 30
0.0
 10
4.6363300000000001
 20
-13.301410000000001
 30
0.0
 10
4.6363300000000001
 20
-13.301410000000001
 30
0.0
 10
4.6363300000000001
 20
-13.301410000000001
 30
0.0
 10
4.2168800000000006
 20
-13.326080000000001
 30
0.0
 10
4.2168800000000006
 20
-13.326080000000001
 30
0.0
 10
4.2168800000000006
 20
-13.326080000000001
 30
0.0
 10
3.2616600000000004
 20
-12.860810000000001
 30
0.0
 10
1.9292800000000001
 20
-12.088880000000001
 30
0.0
 10
1.1573500000000001
 20
-13.301410000000001
 30
0.0
 10
1.1573500000000001
 20
-13.301410000000001
 30
0.0
 10
1.2031800000000001
 20
-12.466030000000002
 30
0.0
 10
1.9433800000000001
 20
-11.648280000000002
 30
0.0
 10
2.7364600000000001
 20
-11.472040000000002
 30
0.0
 10
2.7364600000000001
 20
-11.472040000000002
 30
0.0
 10
3.2193600000000004
 20
-11.383920000000002
 30
0.0
 10
3.7586500000000003
 20
-11.648280000000002
 30
0.0
 10
4.1886800000000006
 20
-11.602460000000001
 30
0.0
 10
4.1886800000000006
 20
-11.602460000000001
 30
0.0
 10
3.8926000000000003
 20
-11.383920000000002
 30
0.0
 10
3.4555200000000004
 20
-11.383920000000002
 30
0.0
 10
3.1136200000000001
 20
-11.295800000000002
 30
0.0
 10
3.1136200000000001
 20
-11.295800000000002
 30
0.0
 10
3.1136200000000001
 20
-11.295800000000002
 30
0.0
 10
3.3779800000000004
 20
-11.186530000000001
 30
0.0
 10
3.3779800000000004
 20
-11.186530000000001
 30
0.0
  0
SPLINE
  5
B5
100
AcDbEntity
  8
Ebene 1
100
AcDbSpline
210
0.0
220
0.0
230
1.0
 70
     1
 71
     3
 72
    20
 73
    16
 74
     0
 42
0.0000000001
 43
0.0000000001
 40
0.0
 40
0.0
 40
0.0
 40
0.0
 40
0.25
 40
0.25
 40
0.25
 40
0.25
 40
0.5
 40
0.5
 40
0.5
 40
0.5
 40
0.75
 40
0.75
 40
0.75
 40
0.75
 40
1.0
 40
1.0
 40
1.0
 40
1.0
 10
4.5905100000000001
 20
-11.803370000000001
 30
0.0
 10
5.0064300000000008
 20
-11.891490000000001
 30
0.0
 10
5.1862000000000004
 20
-12.374390000000002
 30
0.0
 10
5.0734000000000004
 20
-12.75154
 30
0.0
 10
5.0734000000000004
 20
-12.75154
 30
0.0
 10
5.0275800000000004
 20
-12.75154
 30
0.0
 10
4.9817600000000004
 20
-12.730390000000002
 30
0.0
 10
4.9500300000000008
 20
-12.705720000000001
 30
0.0
 10
4.9500300000000008
 20
-12.705720000000001
 30
0.0
 10
4.8689600000000004
 20
-12.39906
 30
0.0
 10
4.96061
 20
-12.046580000000001
 30
0.0
 10
4.6187000000000005
 20
-11.891490000000001
 30
0.0
 10
4.6187000000000005
 20
-11.891490000000001
 30
0.0
 10
4.5869800000000005
 20
-11.870340000000001
 30
0.0
 10
4.5869800000000005
 20
-11.824520000000001
 30
0.0
 10
4.5905100000000001
 20
-11.803370000000001
 30
0.0
  0
SPLINE
  5
B6
100
AcDbEntity
  8
Ebene 1
 62
     7
100
AcDbSpline
210
0.0
220
0.0
230
1.0
 70
     1
 71
     3
 72
    20
 73
    16
 74
     0
 42
0.0000000001
 43
0.0000000001
 40
0.0
 40
0.0
 40
0.0
 40
0.0
 40
0.25
 40
0.25
 40
0.25
 40
0.25
 40
0.5
 40
0.5
 40
0.5
 40
0.5
 40
0.75
 40
0.75
 40
0.75
 40
0.75
 40
1.0
 40
1.0
 40
1.0
 40
1.0
 10
1.4393400000000001
 20
-12.243970000000001
 30
0.0
 10
1.4534400000000001
 20
-12.243970000000001
 30
0.0
 10
1.48516
 20
-12.243970000000001
 30
0.0
 10
1.4816400000000001
 20
-12.265120000000001
 30
0.0
 10
1.4816400000000001
 20
-12.265120000000001
 30
0.0
 10
1.4005700000000001
 20
-12.508330000000001
 30
0.0
 10
1.0727600000000002
 20
-12.48718
 30
0.0
 10
0.8718500000000001
 20
-12.441360000000001
 30
0.0
 10
0.8718500000000001
 20
-12.441360000000001
 30
0.0
 10
0.99521
 20
-12.353240000000001
 30
0.0
 10
1.1820300000000001
 20
-12.22282
 30
0.0
 10
1.3476900000000001
 20
-12.289790000000002
 30
0.0
 10
1.3476900000000001
 20
-12.289790000000002
 30
0.0
 10
1.3476900000000001
 20
-12.289790000000002
 30
0.0
 10
1.4393400000000001
 20
-12.243970000000001
 30
0.0
 10
1.4393400000000001
 20
-12.243970000000001
 30
0.0
  0
SPLINE
  5
B7
100
AcDbEntity
  8
Ebene 1
 62
     7
100
AcDbSpline
210
0.0
220
0.0
230
1.0
 70
     1
 71
     3
 72
    12
 73
     8
 74
     0
 42
0.0000000001
 43
0.0000000001
 40
0.0
 40
0.0
 40
0.0
 40
0.0
 40
0.5
 40
0.5
 40
0.5
 40
0.5
 40
1.0
 40
1.0
 40
1.0
 40
1.0
 10
2.6518700000000002
 20
-12.75154
 30
0.0
 10
2.8245800000000001
 20
-12.75154
 30
0.0
 10
3.0043500000000001
 20
-12.860810000000001
 30
0.0
 10
3.1312400000000005
 20
-12.970080000000001
 30
0.0
 10
3.1312400000000005
 20
-12.970080000000001
 30
0.0
 10
2.9691000000000001
 20
-12.92778
 30
0.0
 10
2.7999100000000001
 20
-12.818510000000002
 30
0.0
 10
2.6518700000000002
 20
-12.75154
 30
0.0
  0
SPLINE
  5
B8
100
AcDbEntity
  8
Ebene 1
 62
     7
100
AcDbSpline
210
0.0
220
0.0
230
1.0
 70
     1
 71
     3
 72
    20
 73
    16
 74
     0
 42
0.0000000001
 43
0.0000000001
 40
0.0
 40
0.0
 40
0.0
 40
0.0
 40
0.25
 40
0.25
 40
0.25
 40
0.25
 40
0.5
 40
0.5
 40
0.5
 40
0.5
 40
0.75
 40
0.75
 40
0.75
 40
0.75
 40
1.0
 40
1.0
 40
1.0
 40
1.0
 10
1.6578800000000002
 20
-13.326080000000001
 30
0.0
 10
1.6578800000000002
 20
-13.326080000000001
 30
0.0
 10
2.5602200000000002
 20
-13.326080000000001
 30
0.0
 10
2.5602200000000002
 20
-13.326080000000001
 30
0.0
 10
2.5602200000000002
 20
-13.326080000000001
 30
0.0
 10
2.5602200000000002
 20
-13.326080000000001
 30
0.0
 10
3.06427
 20
-13.456500000000002
 30
0.0
 10
3.06427
 20
-13.456500000000002
 30
0.0
 10
3.06427
 20
-13.456500000000002
 30
0.0
 10
3.06427
 20
-13.456500000000002
 30
0.0
 10
1.42171
 20
-13.586920000000001
 30
0.0
 10
1.42171
 20
-13.586920000000001
 30
0.0
 10
1.42171
 20
-13.586920000000001
 30
0.0
 10
1.42171
 20
-13.586920000000001
 30
0.0
 10
1.6578800000000002
 20
-13.326080000000001
 30
0.0
 10
1.6578800000000002
 20
-13.326080000000001
 30
0.0
  0
ENDSEC
  0
SECTION
  2
OBJECTS
  0
DICTIONARY
  5
19
100
AcDbDictionary
280
     0
281
     1
  3
ACAD_GROUP
350
1A
  3
ACAD_MLINESTYLE
350
1B
  3
ACAD_LAYOUT
350
1E
  3
ACAD_PLOTSETTINGS
350
22
  3
ACAD_PLOTSTYLENAME
350
1F
  3
ACAD_WIPEOUT_VARS
350
23
  0
DICTIONARY
  5
1A
102
{ACAD_REACTORS
330
19
102
}
100
AcDbDictionary
280
     0
281
     1
  0
DICTIONARY
  5
1B
102
{ACAD_REACTORS
330
19
102
}
100
AcDbDictionary
280
     0
281
     1
  3
Standard
350
1C
  0
MLINESTYLE
  5
1C
102
{ACAD_REACTORS
330
1B
102
}
100
AcDbMlineStyle
  2
Standard
 70
     0
  3

 62
     0
 51
90.0
 52
90.0
 71
     2
 49
0.5
 62
   256
  6
BYLAYER
 49
-0.5
 62
   256
  6
BYLAYER
  0
ACDBDICTIONARYWDFLT
  5
1F
102
{ACAD_REACTORS
330
19
102
}
100
AcDbDictionary
281
     1
  3
Normal
350
1D
100
AcDbDictionaryWithDefault
340
1D
  0
ACDBPLACEHOLDER
  5
1D
102
{ACAD_REACTORS
330
1F
102
}
  0
LAYOUT
  5
20
102
{ACAD_REACTORS
330
1E
102
}
100
AcDbPlotSettings
  1

  2

  4

  6

 40
0.0
 41
0.0
 42
0.0
 43
0.0
 44
0.0
 45
0.0
 46
0.0
 47
0.0
 48
0.0
 49
0.0
140
0.0
141
0.0
142
1.0
143
1.0
 70
  1024
 72
     0
 73
     0
 74
     0
  7

 75
     0
147
1.0
148
0.0
149
0.0
100
AcDbLayout
  1
Model
 70
     0
 71
     0
 10
0.0
 20
0.0
 11
0.0
 21
0.0
 12
0.0
 22
0.0
 32
0.0
 14
0.0
 24
0.0
 34
0.0
 15
0.0
 25
0.0
 35
0.0
146
0.0
 13
0.0
 23
0.0
 33
0.0
 16
0.0
 26
0.0
 36
0.0
 17
0.0
 27
0.0
 37
0.0
 76
     0
330
A
331
0
345
0
346
0
  0
LAYOUT
  5
21
102
{ACAD_REACTORS
330
1E
102
}
100
AcDbPlotSettings
  1

  2

  4

  6

 40
0.0
 41
0.0
 42
0.0
 43
0.0
 44
0.0
 45
0.0
 46
0.0
 47
0.0
 48
0.0
 49
0.0
140
0.0
141
0.0
142
1.0
143
1.0
 70
     0
 72
     0
 73
     0
 74
     0
  7

 75
     0
147
1.0
148
0.0
149
0.0
100
AcDbLayout
  1
Layout1
 70
     0
 71
     0
 10
0.0
 20
0.0
 11
0.0
 21
0.0
 12
0.0
 22
0.0
 32
0.0
 14
0.0
 24
0.0
 34
0.0
 15
0.0
 25
0.0
 35
0.0
146
0.0
 13
0.0
 23
0.0
 33
0.0
 16
0.0
 26
0.0
 36
0.0
 17
0.0
 27
0.0
 37
0.0
 76
     0
330
B
331
0
345
0
346
0
  0
DICTIONARY
  5
1E
102
{ACAD_REACTORS
330
19
102
}
100
AcDbDictionary
280
     0
281
     1
  3
Layout1
350
21
  3
Model
350
20
  0
DICTIONARY
  5
22
102
{ACAD_REACTORS
330
19
102
}
100
AcDbDictionary
280
     0
281
     1
  0
WIPEOUTVARIABLES
  5
23
100
AcDbWipeoutVariables
 70
     1
  0
ENDSEC
  0
EOF
