  0
SECTION
  2
HEADER
  9
$ACADVER
  1
AC1021
  9
$ACADMAINTVER
 70
    25
  9
$DWGCODEPAGE
  3
ANSI_1256
  9
$INSBASE
 10
0.0
 20
0.0
 30
0.0
  9
$EXTMIN
 10
-89.3887
 20
-132.7656
 30
0.0
  9
$EXTMAX
 10
96.9003
 20
97.4072
 30
0.0
  9
$LIMMIN
 10
0.0
 20
0.0
  9
$LIMMAX
 10
12.0
 20
9.0
  9
$ORTHOMODE
 70
     0
  9
$REGENMODE
 70
     1
  9
$FILLMODE
 70
     1
  9
$QTEXTMODE
 70
     0
  9
$MIRRTEXT
 70
     1
  9
$LTSCALE
 40
1.0
  9
$ATTMODE
 70
     1
  9
$TEXTSIZE
 40
0.2
  9
$TRACEWID
 40
0.05
  9
$TEXTSTYLE
  7
Standard
  9
$CLAYER
  8
0
  9
$CELTYPE
  6
ByLayer
  9
$CECOLOR
 62
   256
  9
$CELTSCALE
 40
1.0
  9
$DISPSILH
 70
     0
  9
$DIMSCALE
 40
1.0
  9
$DIMASZ
 40
0.18
  9
$DIMEXO
 40
0.0625
  9
$DIMDLI
 40
0.38
  9
$DIMRND
 40
0.0
  9
$DIMDLE
 40
0.0
  9
$DIMEXE
 40
0.18
  9
$DIMTP
 40
0.0
  9
$DIMTM
 40
0.0
  9
$DIMTXT
 40
0.18
  9
$DIMCEN
 40
0.09
  9
$DIMTSZ
 40
0.0
  9
$DIMTOL
 70
     0
  9
$DIMLIM
 70
     0
  9
$DIMTIH
 70
     1
  9
$DIMTOH
 70
     1
  9
$DIMSE1
 70
     0
  9
$DIMSE2
 70
     0
  9
$DIMTAD
 70
     0
  9
$DIMZIN
 70
     0
  9
$DIMBLK
  1

  9
$DIMASO
 70
     1
  9
$DIMSHO
 70
     1
  9
$DIMPOST
  1

  9
$DIMAPOST
  1

  9
$DIMALT
 70
     0
  9
$DIMALTD
 70
     2
  9
$DIMALTF
 40
25.4
  9
$DIMLFAC
 40
1.0
  9
$DIMTOFL
 70
     0
  9
$DIMTVP
 40
0.0
  9
$DIMTIX
 70
     0
  9
$DIMSOXD
 70
     0
  9
$DIMSAH
 70
     0
  9
$DIMBLK1
  1

  9
$DIMBLK2
  1

  9
$DIMSTYLE
  2
Standard
  9
$DIMCLRD
 70
     0
  9
$DIMCLRE
 70
     0
  9
$DIMCLRT
 70
     0
  9
$DIMTFAC
 40
1.0
  9
$DIMGAP
 40
0.09
  9
$DIMJUST
 70
     0
  9
$DIMSD1
 70
     0
  9
$DIMSD2
 70
     0
  9
$DIMTOLJ
 70
     1
  9
$DIMTZIN
 70
     0
  9
$DIMALTZ
 70
     0
  9
$DIMALTTZ
 70
     0
  9
$DIMUPT
 70
     0
  9
$DIMDEC
 70
     4
  9
$DIMTDEC
 70
     4
  9
$DIMALTU
 70
     2
  9
$DIMALTTD
 70
     2
  9
$DIMTXSTY
  7
Standard
  9
$DIMAUNIT
 70
     0
  9
$DIMADEC
 70
     0
  9
$DIMALTRND
 40
0.0
  9
$DIMAZIN
 70
     0
  9
$DIMDSEP
 70
    46
  9
$DIMATFIT
 70
     3
  9
$DIMFRAC
 70
     0
  9
$DIMLDRBLK
  1

  9
$DIMLUNIT
 70
     2
  9
$DIMLWD
 70
    -2
  9
$DIMLWE
 70
    -2
  9
$DIMTMOVE
 70
     0
  9
$DIMFXL
 40
1.0
  9
$DIMFXLON
 70
     0
  9
$DIMJOGANG
 40
0.7853981633974483
  9
$DIMTFILL
 70
     0
  9
$DIMTFILLCLR
 70
     0
  9
$DIMARCSYM
 70
     0
  9
$DIMLTYPE
  6

  9
$DIMLTEX1
  6

  9
$DIMLTEX2
  6

  9
$LUNITS
 70
     2
  9
$LUPREC
 70
     4
  9
$SKETCHINC
 40
0.1
  9
$FILLETRAD
 40
0.5
  9
$AUNITS
 70
     0
  9
$AUPREC
 70
     0
  9
$MENU
  1
.
  9
$ELEVATION
 40
0.0
  9
$PELEVATION
 40
0.0
  9
$THICKNESS
 40
0.0
  9
$LIMCHECK
 70
     0
  9
$CHAMFERA
 40
0.0
  9
$CHAMFERB
 40
0.0
  9
$CHAMFERC
 40
0.0
  9
$CHAMFERD
 40
0.0
  9
$SKPOLY
 70
     0
  9
$TDCREATE
 40
2457887.618921725
  9
$TDUCREATE
 40
2457887.493921725
  9
$TDUPDATE
 40
2457887.618921782
  9
$TDUUPDATE
 40
2457887.493921782
  9
$TDINDWG
 40
0.0000000116
  9
$TDUSRTIMER
 40
0.0000000116
  9
$USRTIMER
 70
     1
  9
$ANGBASE
 50
0.0
  9
$ANGDIR
 70
     0
  9
$PDMODE
 70
     0
  9
$PDSIZE
 40
0.0
  9
$PLINEWID
 40
0.0
  9
$SPLFRAME
 70
     0
  9
$SPLINETYPE
 70
     6
  9
$SPLINESEGS
 70
     8
  9
$HANDSEED
  5
D6
  9
$SURFTAB1
 70
     6
  9
$SURFTAB2
 70
     6
  9
$SURFTYPE
 70
     6
  9
$SURFU
 70
     6
  9
$SURFV
 70
     6
  9
$UCSBASE
  2

  9
$UCSNAME
  2

  9
$UCSORG
 10
0.0
 20
0.0
 30
0.0
  9
$UCSXDIR
 10
1.0
 20
0.0
 30
0.0
  9
$UCSYDIR
 10
0.0
 20
1.0
 30
0.0
  9
$UCSORTHOREF
  2

  9
$UCSORTHOVIEW
 70
     0
  9
$UCSORGTOP
 10
0.0
 20
0.0
 30
0.0
  9
$UCSORGBOTTOM
 10
0.0
 20
0.0
 30
0.0
  9
$UCSORGLEFT
 10
0.0
 20
0.0
 30
0.0
  9
$UCSORGRIGHT
 10
0.0
 20
0.0
 30
0.0
  9
$UCSORGFRONT
 10
0.0
 20
0.0
 30
0.0
  9
$UCSORGBACK
 10
0.0
 20
0.0
 30
0.0
  9
$PUCSBASE
  2

  9
$PUCSNAME
  2

  9
$PUCSORG
 10
0.0
 20
0.0
 30
0.0
  9
$PUCSXDIR
 10
1.0
 20
0.0
 30
0.0
  9
$PUCSYDIR
 10
0.0
 20
1.0
 30
0.0
  9
$PUCSORTHOREF
  2

  9
$PUCSORTHOVIEW
 70
     0
  9
$PUCSORGTOP
 10
0.0
 20
0.0
 30
0.0
  9
$PUCSORGBOTTOM
 10
0.0
 20
0.0
 30
0.0
  9
$PUCSORGLEFT
 10
0.0
 20
0.0
 30
0.0
  9
$PUCSORGRIGHT
 10
0.0
 20
0.0
 30
0.0
  9
$PUCSORGFRONT
 10
0.0
 20
0.0
 30
0.0
  9
$PUCSORGBACK
 10
0.0
 20
0.0
 30
0.0
  9
$USERI1
 70
     0
  9
$USERI2
 70
     0
  9
$USERI3
 70
     0
  9
$USERI4
 70
     0
  9
$USERI5
 70
     0
  9
$USERR1
 40
0.0
  9
$USERR2
 40
0.0
  9
$USERR3
 40
0.0
  9
$USERR4
 40
0.0
  9
$USERR5
 40
0.0
  9
$WORLDVIEW
 70
     1
  9
$SHADEDGE
 70
     3
  9
$SHADEDIF
 70
    70
  9
$TILEMODE
 70
     1
  9
$MAXACTVP
 70
    64
  9
$PINSBASE
 10
0.0
 20
0.0
 30
0.0
  9
$PLIMCHECK
 70
     0
  9
$PEXTMIN
 10
1.000000000000000E+20
 20
1.000000000000000E+20
 30
1.000000000000000E+20
  9
$PEXTMAX
 10
-1.000000000000000E+20
 20
-1.000000000000000E+20
 30
-1.000000000000000E+20
  9
$PLIMMIN
 10
0.0
 20
0.0
  9
$PLIMMAX
 10
12.0
 20
9.0
  9
$UNITMODE
 70
     0
  9
$VISRETAIN
 70
     1
  9
$PLINEGEN
 70
     0
  9
$PSLTSCALE
 70
     1
  9
$TREEDEPTH
 70
  3020
  9
$CMLSTYLE
  2
Standard
  9
$CMLJUST
 70
     0
  9
$CMLSCALE
 40
1.0
  9
$PROXYGRAPHICS
 70
     1
  9
$MEASUREMENT
 70
     0
  9
$CELWEIGHT
370
    -1
  9
$ENDCAPS
280
     0
  9
$JOINSTYLE
280
     0
  9
$LWDISPLAY
290
     0
  9
$INSUNITS
 70
     4
  9
$HYPERLINKBASE
  1

  9
$STYLESHEET
  1

  9
$XEDIT
290
     1
  9
$CEPSNTYPE
380
     0
  9
$PSTYLEMODE
290
     1
  9
$FINGERPRINTGUID
  2
{4E1F1F79-19A6-4325-B07A-6C21B77A29B1}
  9
$VERSIONGUID
  2
{FAEB1C32-E019-11D5-929B-00C0DF256EC4}
  9
$EXTNAMES
290
     1
  9
$PSVPSCALE
 40
0.0
  9
$OLESTARTUP
290
     0
  9
$SORTENTS
280
   127
  9
$INDEXCTL
280
     0
  9
$HIDETEXT
280
     1
  9
$XCLIPFRAME
290
     0
  9
$HALOGAP
280
     0
  9
$OBSCOLOR
 70
   257
  9
$OBSLTYPE
280
     0
  9
$INTERSECTIONDISPLAY
280
     0
  9
$INTERSECTIONCOLOR
 70
   257
  9
$DIMASSOC
280
     2
  9
$PROJECTNAME
  1

  9
$CAMERADISPLAY
290
     0
  9
$LENSLENGTH
 40
50.0
  9
$CAMERAHEIGHT
 40
0.0
  9
$STEPSPERSEC
 40
2.0
  9
$STEPSIZE
 40
6.0
  9
$3DDWFPREC
 40
2.0
  9
$PSOLWIDTH
 40
0.25
  9
$PSOLHEIGHT
 40
4.0
  9
$LOFTANG1
 40
1.570796326794897
  9
$LOFTANG2
 40
1.570796326794897
  9
$LOFTMAG1
 40
0.0
  9
$LOFTMAG2
 40
0.0
  9
$LOFTPARAM
 70
     7
  9
$LOFTNORMALS
280
     1
  9
$LATITUDE
 40
37.795
  9
$LONGITUDE
 40
-122.394
  9
$NORTHDIRECTION
 40
0.0
  9
$TIMEZONE
 70
 -8000
  9
$LIGHTGLYPHDISPLAY
280
     1
  9
$TILEMODELIGHTSYNCH
280
     1
  9
$CMATERIAL
347
44
  9
$SOLIDHIST
280
     0
  9
$SHOWHIST
280
     1
  9
$DWFFRAME
280
     2
  9
$DGNFRAME
280
     2
  9
$REALWORLDSCALE
290
     1
  9
$INTERFERECOLOR
 62
   256
  9
$CSHADOW
280
     0
  9
$SHADOWPLANELOCATION
 40
0.0
  0
ENDSEC
  0
SECTION
  2
CLASSES
  0
CLASS
  1
ACDBDICTIONARYWDFLT
  2
AcDbDictionaryWithDefault
  3
ObjectDBX Classes
 90
        0
 91
        4
280
     0
281
     0
  0
CLASS
  1
VISUALSTYLE
  2
AcDbVisualStyle
  3
ObjectDBX Classes
 90
     4095
 91
        4
280
     0
281
     0
  0
CLASS
  1
MATERIAL
  2
AcDbMaterial
  3
ObjectDBX Classes
 90
     1153
 91
        4
280
     0
281
     0
  0
CLASS
  1
SCALE
  2
AcDbScale
  3
ObjectDBX Classes
 90
     1153
 91
        4
280
     0
281
     0
  0
CLASS
  1
TABLESTYLE
  2
AcDbTableStyle
  3
ObjectDBX Classes
 90
     4095
 91
        4
280
     0
281
     0
  0
CLASS
  1
MLEADERSTYLE
  2
AcDbMLeaderStyle
  3
ACDB_MLEADERSTYLE_CLASS
 90
     4095
 91
        4
280
     0
281
     0
  0
CLASS
  1
SUN
  2
AcDbSun
  3
SCENEOE
 90
     1153
 91
        4
280
     0
281
     0
  0
CLASS
  1
DICTIONARYVAR
  2
AcDbDictionaryVar
  3
ObjectDBX Classes
 90
        0
 91
        4
280
     0
281
     0
  0
CLASS
  1
CELLSTYLEMAP
  2
AcDbCellStyleMap
  3
ObjectDBX Classes
 90
     1152
 91
        4
280
     0
281
     0
  0
ENDSEC
  0
SECTION
  2
TABLES
  0
TABLE
  2
VPORT
  5
8
330
0
100
AcDbSymbolTable
 70
     1
  0
VPORT
  5
29
330
8
100
AcDbSymbolTableRecord
100
AcDbViewportTableRecord
  2
*Active
 70
     0
 10
0.0
 20
0.0
 11
1.0
 21
1.0
 12
10.42990654205607
 22
4.5
 13
0.0
 23
0.0
 14
0.5
 24
0.5
 15
0.5
 25
0.5
 16
0.0
 26
0.0
 36
1.0
 17
0.0
 27
0.0
 37
0.0
 40
9.0
 41
1.972972972850329
 42
50.0
 43
0.0
 44
0.0
 50
0.0
 51
0.0
 71
     0
 72
   100
 73
     1
 74
     3
 75
     0
 76
     0
 77
     0
 78
     0
281
     0
 65
     1
110
0.0
120
0.0
130
0.0
111
1.0
121
0.0
131
0.0
112
0.0
122
1.0
132
0.0
 79
     0
146
0.0
 60
     3
 61
     5
292
     1
282
     1
141
0.0
142
0.0
 63
   250
361
6D
  0
ENDTAB
  0
TABLE
  2
LTYPE
  5
5
330
0
100
AcDbSymbolTable
 70
     1
  0
LTYPE
  5
14
330
5
100
AcDbSymbolTableRecord
100
AcDbLinetypeTableRecord
  2
ByBlock
 70
     0
  3

 72
    65
 73
     0
 40
0.0
  0
LTYPE
  5
15
330
5
100
AcDbSymbolTableRecord
100
AcDbLinetypeTableRecord
  2
ByLayer
 70
     0
  3

 72
    65
 73
     0
 40
0.0
  0
LTYPE
  5
16
330
5
100
AcDbSymbolTableRecord
100
AcDbLinetypeTableRecord
  2
Continuous
 70
     0
  3
Solid line
 72
    65
 73
     0
 40
0.0
  0
ENDTAB
  0
TABLE
  2
LAYER
  5
2
330
0
100
AcDbSymbolTable
 70
     2
  0
LAYER
  5
10
330
2
100
AcDbSymbolTableRecord
100
AcDbLayerTableRecord
  2
0
 70
     0
 62
     7
  6
Continuous
370
    -3
390
F
347
46
  0
LAYER
  5
6F
330
2
100
AcDbSymbolTableRecord
100
AcDbLayerTableRecord
  2
Layer 1
 70
     0
 62
     7
  6
Continuous
370
    -3
390
F
347
46
  0
ENDTAB
  0
TABLE
  2
STYLE
  5
3
330
0
100
AcDbSymbolTable
 70
     1
  0
STYLE
  5
11
330
3
100
AcDbSymbolTableRecord
100
AcDbTextStyleTableRecord
  2
Standard
 70
     0
 40
0.0
 41
1.0
 50
0.0
 71
     0
 42
0.2
  3
txt
  4

  0
ENDTAB
  0
TABLE
  2
VIEW
  5
6
330
0
100
AcDbSymbolTable
 70
     0
  0
ENDTAB
  0
TABLE
  2
UCS
  5
7
330
0
100
AcDbSymbolTable
 70
     0
  0
ENDTAB
  0
TABLE
  2
APPID
  5
9
330
0
100
AcDbSymbolTable
 70
     3
  0
APPID
  5
12
330
9
100
AcDbSymbolTableRecord
100
AcDbRegAppTableRecord
  2
ACAD
 70
     0
  0
APPID
  5
6E
330
9
100
AcDbSymbolTableRecord
100
AcDbRegAppTableRecord
  2
ODA
 70
     0
  0
APPID
  5
CE
330
9
100
AcDbSymbolTableRecord
100
AcDbRegAppTableRecord
  2
ACAD_MLEADERVER
 70
     0
  0
ENDTAB
  0
TABLE
  2
DIMSTYLE
  5
A
330
0
100
AcDbSymbolTable
 70
     1
100
AcDbDimStyleTable
  0
DIMSTYLE
105
27
330
A
100
AcDbSymbolTableRecord
100
AcDbDimStyleTableRecord
  2
Standard
 70
     0
178
     0
340
11
  0
ENDTAB
  0
TABLE
  2
BLOCK_RECORD
  5
1
330
0
100
AcDbSymbolTable
 70
     1
  0
BLOCK_RECORD
  5
1F
330
1
100
AcDbSymbolTableRecord
100
AcDbBlockTableRecord
  2
*Model_Space
340
22
 70
     0
280
     1
281
     0
  0
BLOCK_RECORD
  5
1B
330
1
100
AcDbSymbolTableRecord
100
AcDbBlockTableRecord
  2
*Paper_Space
340
1E
 70
     0
280
     1
281
     0
  0
BLOCK_RECORD
  5
23
330
1
100
AcDbSymbolTableRecord
100
AcDbBlockTableRecord
  2
*Paper_Space0
340
26
 70
     0
280
     1
281
     0
  0
ENDTAB
  0
ENDSEC
  0
SECTION
  2
BLOCKS
  0
BLOCK
  5
20
330
1F
100
AcDbEntity
  8
0
100
AcDbBlockBegin
  2
*Model_Space
 70
     0
 10
0.0
 20
0.0
 30
0.0
  3
*Model_Space
  1
*Model_Space
  0
ENDBLK
  5
21
330
1F
100
AcDbEntity
  8
0
100
AcDbBlockEnd
  0
BLOCK
  5
1C
330
1B
100
AcDbEntity
 67
     1
  8
0
100
AcDbBlockBegin
  2
*Paper_Space
 70
     0
 10
0.0
 20
0.0
 30
0.0
  3
*Paper_Space
  1
*Paper_Space
  0
ENDBLK
  5
1D
330
1B
100
AcDbEntity
 67
     1
  8
0
100
AcDbBlockEnd
  0
BLOCK
  5
24
330
23
100
AcDbEntity
  8
0
100
AcDbBlockBegin
  2
*Paper_Space0
 70
     0
 10
0.0
 20
0.0
 30
0.0
  3
*Paper_Space0
  1
*Paper_Space0
  0
ENDBLK
  5
25
330
23
100
AcDbEntity
  8
0
100
AcDbBlockEnd
  0
ENDSEC
  0
SECTION
  2
ENTITIES
  0
SPLINE
  5
70
330
1F
100
AcDbEntity
  8
Layer 1
100
AcDbSpline
210
0.0
220
0.0
230
1.0
 70
    11
 71
     3
 72
    16
 73
    12
 74
     0
 42
0.000000001
 43
0.0000000001
 40
0.0
 40
0.0
 40
0.0
 40
0.0
 40
0.25
 40
0.25
 40
0.25
 40
0.25
 40
0.5
 40
0.5
 40
0.5
 40
0.5
 40
1.0
 40
1.0
 40
1.0
 40
1.0
 10
-48.8649
 20
-17.504
 30
0.0
 10
-47.1938
 20
-16.6501
 30
0.0
 10
-47.9573
 20
-18.3278
 30
0.0
 10
-46.2299
 20
-16.2611
 30
0.0
 10
-46.2299
 20
-16.2611
 30
0.0
 10
-44.2426
 20
-18.2239
 30
0.0
 10
-41.7005
 20
-17.4518
 30
0.0
 10
-39.5856
 20
-16.3866
 30
0.0
 10
-39.5856
 20
-16.3866
 30
0.0
 10
-41.8345
 20
-20.3062
 30
0.0
 10
-48.7595
 20
-21.641
 30
0.0
 10
-48.8649
 20
-17.504
 30
0.0
  0
SPLINE
  5
71
330
1F
100
AcDbEntity
  8
Layer 1
100
AcDbSpline
210
0.0
220
0.0
230
1.0
 70
    11
 71
     3
 72
    88
 73
    84
 74
     0
 42
0.000000001
 43
0.0000000001
 40
0.0
 40
0.0
 40
0.0
 40
0.0
 40
0.0454545454545455
 40
0.0454545454545455
 40
0.0454545454545455
 40
0.0454545454545455
 40
0.0909090909090909
 40
0.0909090909090909
 40
0.0909090909090909
 40
0.0909090909090909
 40
0.1363636363636364
 40
0.1363636363636364
 40
0.1363636363636364
 40
0.1363636363636364
 40
0.1818181818181818
 40
0.1818181818181818
 40
0.1818181818181818
 40
0.1818181818181818
 40
0.2272727272727273
 40
0.2272727272727273
 40
0.2272727272727273
 40
0.2272727272727273
 40
0.2727272727272727
 40
0.2727272727272727
 40
0.2727272727272727
 40
0.2727272727272727
 40
0.3181818181818182
 40
0.3181818181818182
 40
0.3181818181818182
 40
0.3181818181818182
 40
0.3636363636363636
 40
0.3636363636363636
 40
0.3636363636363636
 40
0.3636363636363636
 40
0.4090909090909091
 40
0.4090909090909091
 40
0.4090909090909091
 40
0.4090909090909091
 40
0.4545454545454545
 40
0.4545454545454545
 40
0.4545454545454545
 40
0.4545454545454545
 40
0.5
 40
0.5
 40
0.5
 40
0.5
 40
0.5454545454545454
 40
0.5454545454545454
 40
0.5454545454545454
 40
0.5454545454545454
 40
0.5909090909090909
 40
0.5909090909090909
 40
0.5909090909090909
 40
0.5909090909090909
 40
0.6363636363636364
 40
0.6363636363636364
 40
0.6363636363636364
 40
0.6363636363636364
 40
0.6818181818181818
 40
0.6818181818181818
 40
0.6818181818181818
 40
0.6818181818181818
 40
0.7272727272727273
 40
0.7272727272727273
 40
0.7272727272727273
 40
0.7272727272727273
 40
0.7727272727272727
 40
0.7727272727272727
 40
0.7727272727272727
 40
0.7727272727272727
 40
0.8181818181818182
 40
0.8181818181818182
 40
0.8181818181818182
 40
0.8181818181818182
 40
0.8636363636363636
 40
0.8636363636363636
 40
0.8636363636363636
 40
0.8636363636363636
 40
0.9090909090909091
 40
0.9090909090909091
 40
0.9090909090909091
 40
0.9090909090909091
 40
1.0
 40
1.0
 40
1.0
 40
1.0
 10
-7.6663
 20
26.8406
 30
0.0
 10
-6.3496
 20
28.8756
 30
0.0
 10
-3.4425
 20
29.6412
 30
0.0
 10
-1.3507
 20
29.4193
 30
0.0
 10
-1.3507
 20
29.4193
 30
0.0
 10
2.3962
 20
29.0227
 30
0.0
 10
0.9534
 20
27.1884
 30
0.0
 10
4.6797
 20
28.8721
 30
0.0
 10
4.6797
 20
28.8721
 30
0.0
 10
6.8052
 20
29.8329
 30
0.0
 10
9.3131
 20
30.345
 30
0.0
 10
11.8487
 20
29.9273
 30
0.0
 10
11.8487
 20
29.9273
 30
0.0
 10
13.6438
 20
29.6316
 30
0.0
 10
13.6257
 20
29.1864
 30
0.0
 10
14.83
 20
28.6442
 30
0.0
 10
14.83
 20
28.6442
 30
0.0
 10
17.3023
 20
27.5308
 30
0.0
 10
15.0243
 20
29.7757
 30
0.0
 10
16.2356
 20
29.2481
 30
0.0
 10
16.2356
 20
29.2481
 30
0.0
 10
15.8164
 20
23.546
 30
0.0
 10
15.2196
 20
19.011
 30
0.0
 10
8.7785
 20
19.3096
 30
0.0
 10
8.7785
 20
19.3096
 30
0.0
 10
12.1032
 20
19.4853
 30
0.0
 10
15.1618
 20
24.0053
 30
0.0
 10
13.2342
 20
28.4233
 30
0.0
 10
13.2342
 20
28.4233
 30
0.0
 10
11.8226
 20
25.7673
 30
0.0
 10
12.5199
 20
24.8923
 30
0.0
 10
10.1324
 20
22.5932
 30
0.0
 10
10.1324
 20
22.5932
 30
0.0
 10
8.6053
 20
21.1234
 30
0.0
 10
7.1877
 20
20.1033
 30
0.0
 10
5.4362
 20
18.3624
 30
0.0
 10
5.4362
 20
18.3624
 30
0.0
 10
2.224
 20
15.1687
 30
0.0
 10
-0.0104
 20
12.5844
 30
0.0
 10
-0.5039
 20
6.2207
 30
0.0
 10
-0.5039
 20
6.2207
 30
0.0
 10
-2.5103
 20
13.9353
 30
0.0
 10
-2.2905
 20
12.6969
 30
0.0
 10
-7.3566
 20
17.1476
 30
0.0
 10
-7.3566
 20
17.1476
 30
0.0
 10
-12.2174
 20
21.4175
 30
0.0
 10
-4.9897
 20
27.4485
 30
0.0
 10
-1.913
 20
22.0651
 30
0.0
 10
-1.913
 20
22.0651
 30
0.0
 10
-1.1268
 20
19.8844
 30
0.0
 10
-2.6378
 20
16.875
 30
0.0
 10
-5.1794
 20
18.0075
 30
0.0
 10
-5.1794
 20
18.0075
 30
0.0
 10
-6.2999
 20
18.5065
 30
0.0
 10
-6.8857
 20
19.7785
 30
0.0
 10
-5.9279
 20
20.7388
 30
0.0
 10
-5.9279
 20
20.7388
 30
0.0
 10
-3.6514
 20
23.0204
 30
0.0
 10
-5.9881
 20
19.8011
 30
0.0
 10
-3.7794
 20
20.7479
 30
0.0
 10
-3.7794
 20
20.7479
 30
0.0
 10
-5.2592
 20
25.4405
 30
0.0
 10
-10.5678
 20
17.3589
 30
0.0
 10
-4.5504
 20
16.8765
 30
0.0
 10
-4.5504
 20
16.8765
 30
0.0
 10
-0.3332
 20
16.5386
 30
0.0
 10
-0.1776
 20
20.9115
 30
0.0
 10
-1.2659
 20
23.8547
 30
0.0
 10
-1.2659
 20
23.8547
 30
0.0
 10
2.6356
 20
21.6615
 30
0.0
 10
2.3515
 20
20.8001
 30
0.0
 10
7.9949
 20
22.5867
 30
0.0
 10
7.9949
 20
22.5867
 30
0.0
 10
6.2269
 20
23.7543
 30
0.0
 10
5.8298
 20
23.3095
 30
0.0
 10
4.6155
 20
24.8662
 30
0.0
 10
4.6155
 20
24.8662
 30
0.0
 10
3.743
 20
25.9852
 30
0.0
 10
3.4021
 20
27.2075
 30
0.0
 10
1.9283
 20
28.1282
 30
0.0
 10
1.9283
 20
28.1282
 30
0.0
 10
-1.1048
 20
30.0232
 30
0.0
 10
-5.208
 20
28.6939
 30
0.0
 10
-7.6663
 20
26.8406
 30
0.0
  0
SPLINE
  5
72
330
1F
100
AcDbEntity
  8
Layer 1
100
AcDbSpline
210
0.0
220
0.0
230
1.0
 70
    11
 71
     3
 72
   596
 73
   592
 74
     0
 42
0.000000001
 43
0.0000000001
 40
0.0
 40
0.0
 40
0.0
 40
0.0
 40
0.0067114093959732
 40
0.0067114093959732
 40
0.0067114093959732
 40
0.0067114093959732
 40
0.0134228187919463
 40
0.0134228187919463
 40
0.0134228187919463
 40
0.0134228187919463
 40
0.0201342281879195
 40
0.0201342281879195
 40
0.0201342281879195
 40
0.0201342281879195
 40
0.0268456375838926
 40
0.0268456375838926
 40
0.0268456375838926
 40
0.0268456375838926
 40
0.0335570469798658
 40
0.0335570469798658
 40
0.0335570469798658
 40
0.0335570469798658
 40
0.0402684563758389
 40
0.0402684563758389
 40
0.0402684563758389
 40
0.0402684563758389
 40
0.0469798657718121
 40
0.0469798657718121
 40
0.0469798657718121
 40
0.0469798657718121
 40
0.0536912751677852
 40
0.0536912751677852
 40
0.0536912751677852
 40
0.0536912751677852
 40
0.0604026845637584
 40
0.0604026845637584
 40
0.0604026845637584
 40
0.0604026845637584
 40
0.0671140939597315
 40
0.0671140939597315
 40
0.0671140939597315
 40
0.0671140939597315
 40
0.0738255033557047
 40
0.0738255033557047
 40
0.0738255033557047
 40
0.0738255033557047
 40
0.0805369127516778
 40
0.0805369127516778
 40
0.0805369127516778
 40
0.0805369127516778
 40
0.087248322147651
 40
0.087248322147651
 40
0.087248322147651
 40
0.087248322147651
 40
0.0939597315436242
 40
0.0939597315436242
 40
0.0939597315436242
 40
0.0939597315436242
 40
0.1006711409395973
 40
0.1006711409395973
 40
0.1006711409395973
 40
0.1006711409395973
 40
0.1073825503355705
 40
0.1073825503355705
 40
0.1073825503355705
 40
0.1073825503355705
 40
0.1140939597315436
 40
0.1140939597315436
 40
0.1140939597315436
 40
0.1140939597315436
 40
0.1208053691275168
 40
0.1208053691275168
 40
0.1208053691275168
 40
0.1208053691275168
 40
0.1275167785234899
 40
0.1275167785234899
 40
0.1275167785234899
 40
0.1275167785234899
 40
0.1342281879194631
 40
0.1342281879194631
 40
0.1342281879194631
 40
0.1342281879194631
 40
0.1409395973154362
 40
0.1409395973154362
 40
0.1409395973154362
 40
0.1409395973154362
 40
0.1476510067114094
 40
0.1476510067114094
 40
0.1476510067114094
 40
0.1476510067114094
 40
0.1543624161073825
 40
0.1543624161073825
 40
0.1543624161073825
 40
0.1543624161073825
 40
0.1610738255033557
 40
0.1610738255033557
 40
0.1610738255033557
 40
0.1610738255033557
 40
0.1677852348993289
 40
0.1677852348993289
 40
0.1677852348993289
 40
0.1677852348993289
 40
0.174496644295302
 40
0.174496644295302
 40
0.174496644295302
 40
0.174496644295302
 40
0.1812080536912752
 40
0.1812080536912752
 40
0.1812080536912752
 40
0.1812080536912752
 40
0.1879194630872483
 40
0.1879194630872483
 40
0.1879194630872483
 40
0.1879194630872483
 40
0.1946308724832215
 40
0.1946308724832215
 40
0.1946308724832215
 40
0.1946308724832215
 40
0.2013422818791946
 40
0.2013422818791946
 40
0.2013422818791946
 40
0.2013422818791946
 40
0.2080536912751678
 40
0.2080536912751678
 40
0.2080536912751678
 40
0.2080536912751678
 40
0.2147651006711409
 40
0.2147651006711409
 40
0.2147651006711409
 40
0.2147651006711409
 40
0.2214765100671141
 40
0.2214765100671141
 40
0.2214765100671141
 40
0.2214765100671141
 40
0.2281879194630873
 40
0.2281879194630873
 40
0.2281879194630873
 40
0.2281879194630873
 40
0.2348993288590604
 40
0.2348993288590604
 40
0.2348993288590604
 40
0.2348993288590604
 40
0.2416107382550336
 40
0.2416107382550336
 40
0.2416107382550336
 40
0.2416107382550336
 40
0.2483221476510067
 40
0.2483221476510067
 40
0.2483221476510067
 40
0.2483221476510067
 40
0.2550335570469799
 40
0.2550335570469799
 40
0.2550335570469799
 40
0.2550335570469799
 40
0.261744966442953
 40
0.261744966442953
 40
0.261744966442953
 40
0.261744966442953
 40
0.2684563758389262
 40
0.2684563758389262
 40
0.2684563758389262
 40
0.2684563758389262
 40
0.2751677852348993
 40
0.2751677852348993
 40
0.2751677852348993
 40
0.2751677852348993
 40
0.2818791946308725
 40
0.2818791946308725
 40
0.2818791946308725
 40
0.2818791946308725
 40
0.2885906040268457
 40
0.2885906040268457
 40
0.2885906040268457
 40
0.2885906040268457
 40
0.2953020134228188
 40
0.2953020134228188
 40
0.2953020134228188
 40
0.2953020134228188
 40
0.302013422818792
 40
0.302013422818792
 40
0.302013422818792
 40
0.302013422818792
 40
0.3087248322147651
 40
0.3087248322147651
 40
0.3087248322147651
 40
0.3087248322147651
 40
0.3154362416107382
 40
0.3154362416107382
 40
0.3154362416107382
 40
0.3154362416107382
 40
0.3221476510067114
 40
0.3221476510067114
 40
0.3221476510067114
 40
0.3221476510067114
 40
0.3288590604026846
 40
0.3288590604026846
 40
0.3288590604026846
 40
0.3288590604026846
 40
0.3355704697986577
 40
0.3355704697986577
 40
0.3355704697986577
 40
0.3355704697986577
 40
0.3422818791946309
 40
0.3422818791946309
 40
0.3422818791946309
 40
0.3422818791946309
 40
0.348993288590604
 40
0.348993288590604
 40
0.348993288590604
 40
0.348993288590604
 40
0.3557046979865772
 40
0.3557046979865772
 40
0.3557046979865772
 40
0.3557046979865772
 40
0.3624161073825503
 40
0.3624161073825503
 40
0.3624161073825503
 40
0.3624161073825503
 40
0.3691275167785235
 40
0.3691275167785235
 40
0.3691275167785235
 40
0.3691275167785235
 40
0.3758389261744967
 40
0.3758389261744967
 40
0.3758389261744967
 40
0.3758389261744967
 40
0.3825503355704698
 40
0.3825503355704698
 40
0.3825503355704698
 40
0.3825503355704698
 40
0.3892617449664429
 40
0.3892617449664429
 40
0.3892617449664429
 40
0.3892617449664429
 40
0.3959731543624161
 40
0.3959731543624161
 40
0.3959731543624161
 40
0.3959731543624161
 40
0.4026845637583892
 40
0.4026845637583892
 40
0.4026845637583892
 40
0.4026845637583892
 40
0.4093959731543624
 40
0.4093959731543624
 40
0.4093959731543624
 40
0.4093959731543624
 40
0.4161073825503356
 40
0.4161073825503356
 40
0.4161073825503356
 40
0.4161073825503356
 40
0.4228187919463087
 40
0.4228187919463087
 40
0.4228187919463087
 40
0.4228187919463087
 40
0.4295302013422819
 40
0.4295302013422819
 40
0.4295302013422819
 40
0.4295302013422819
 40
0.436241610738255
 40
0.436241610738255
 40
0.436241610738255
 40
0.436241610738255
 40
0.4429530201342282
 40
0.4429530201342282
 40
0.4429530201342282
 40
0.4429530201342282
 40
0.4496644295302014
 40
0.4496644295302014
 40
0.4496644295302014
 40
0.4496644295302014
 40
0.4563758389261745
 40
0.4563758389261745
 40
0.4563758389261745
 40
0.4563758389261745
 40
0.4630872483221476
 40
0.4630872483221476
 40
0.4630872483221476
 40
0.4630872483221476
 40
0.4697986577181208
 40
0.4697986577181208
 40
0.4697986577181208
 40
0.4697986577181208
 40
0.4765100671140939
 40
0.4765100671140939
 40
0.4765100671140939
 40
0.4765100671140939
 40
0.4832214765100671
 40
0.4832214765100671
 40
0.4832214765100671
 40
0.4832214765100671
 40
0.4899328859060403
 40
0.4899328859060403
 40
0.4899328859060403
 40
0.4899328859060403
 40
0.4966442953020134
 40
0.4966442953020134
 40
0.4966442953020134
 40
0.4966442953020134
 40
0.5033557046979866
 40
0.5033557046979866
 40
0.5033557046979866
 40
0.5033557046979866
 40
0.5100671140939598
 40
0.5100671140939598
 40
0.5100671140939598
 40
0.5100671140939598
 40
0.5167785234899329
 40
0.5167785234899329
 40
0.5167785234899329
 40
0.5167785234899329
 40
0.5234899328859061
 40
0.5234899328859061
 40
0.5234899328859061
 40
0.5234899328859061
 40
0.5302013422818792
 40
0.5302013422818792
 40
0.5302013422818792
 40
0.5302013422818792
 40
0.5369127516778524
 40
0.5369127516778524
 40
0.5369127516778524
 40
0.5369127516778524
 40
0.5436241610738255
 40
0.5436241610738255
 40
0.5436241610738255
 40
0.5436241610738255
 40
0.5503355704697986
 40
0.5503355704697986
 40
0.5503355704697986
 40
0.5503355704697986
 40
0.5570469798657718
 40
0.5570469798657718
 40
0.5570469798657718
 40
0.5570469798657718
 40
0.5637583892617449
 40
0.5637583892617449
 40
0.5637583892617449
 40
0.5637583892617449
 40
0.5704697986577181
 40
0.5704697986577181
 40
0.5704697986577181
 40
0.5704697986577181
 40
0.5771812080536913
 40
0.5771812080536913
 40
0.5771812080536913
 40
0.5771812080536913
 40
0.5838926174496645
 40
0.5838926174496645
 40
0.5838926174496645
 40
0.5838926174496645
 40
0.5906040268456376
 40
0.5906040268456376
 40
0.5906040268456376
 40
0.5906040268456376
 40
0.5973154362416108
 40
0.5973154362416108
 40
0.5973154362416108
 40
0.5973154362416108
 40
0.6040268456375839
 40
0.6040268456375839
 40
0.6040268456375839
 40
0.6040268456375839
 40
0.610738255033557
 40
0.610738255033557
 40
0.610738255033557
 40
0.610738255033557
 40
0.6174496644295302
 40
0.6174496644295302
 40
0.6174496644295302
 40
0.6174496644295302
 40
0.6241610738255033
 40
0.6241610738255033
 40
0.6241610738255033
 40
0.6241610738255033
 40
0.6308724832214765
 40
0.6308724832214765
 40
0.6308724832214765
 40
0.6308724832214765
 40
0.6375838926174496
 40
0.6375838926174496
 40
0.6375838926174496
 40
0.6375838926174496
 40
0.6442953020134228
 40
0.6442953020134228
 40
0.6442953020134228
 40
0.6442953020134228
 40
0.6510067114093959
 40
0.6510067114093959
 40
0.6510067114093959
 40
0.6510067114093959
 40
0.6577181208053692
 40
0.6577181208053692
 40
0.6577181208053692
 40
0.6577181208053692
 40
0.6644295302013423
 40
0.6644295302013423
 40
0.6644295302013423
 40
0.6644295302013423
 40
0.6711409395973155
 40
0.6711409395973155
 40
0.6711409395973155
 40
0.6711409395973155
 40
0.6778523489932886
 40
0.6778523489932886
 40
0.6778523489932886
 40
0.6778523489932886
 40
0.6845637583892618
 40
0.6845637583892618
 40
0.6845637583892618
 40
0.6845637583892618
 40
0.6912751677852349
 40
0.6912751677852349
 40
0.6912751677852349
 40
0.6912751677852349
 40
0.697986577181208
 40
0.697986577181208
 40
0.697986577181208
 40
0.697986577181208
 40
0.7046979865771812
 40
0.7046979865771812
 40
0.7046979865771812
 40
0.7046979865771812
 40
0.7114093959731543
 40
0.7114093959731543
 40
0.7114093959731543
 40
0.7114093959731543
 40
0.7181208053691275
 40
0.7181208053691275
 40
0.7181208053691275
 40
0.7181208053691275
 40
0.7248322147651006
 40
0.7248322147651006
 40
0.7248322147651006
 40
0.7248322147651006
 40
0.7315436241610739
 40
0.7315436241610739
 40
0.7315436241610739
 40
0.7315436241610739
 40
0.738255033557047
 40
0.738255033557047
 40
0.738255033557047
 40
0.738255033557047
 40
0.7449664429530202
 40
0.7449664429530202
 40
0.7449664429530202
 40
0.7449664429530202
 40
0.7516778523489933
 40
0.7516778523489933
 40
0.7516778523489933
 40
0.7516778523489933
 40
0.7583892617449665
 40
0.7583892617449665
 40
0.7583892617449665
 40
0.7583892617449665
 40
0.7651006711409396
 40
0.7651006711409396
 40
0.7651006711409396
 40
0.7651006711409396
 40
0.7718120805369127
 40
0.7718120805369127
 40
0.7718120805369127
 40
0.7718120805369127
 40
0.7785234899328859
 40
0.7785234899328859
 40
0.7785234899328859
 40
0.7785234899328859
 40
0.785234899328859
 40
0.785234899328859
 40
0.785234899328859
 40
0.785234899328859
 40
0.7919463087248322
 40
0.7919463087248322
 40
0.7919463087248322
 40
0.7919463087248322
 40
0.7986577181208053
 40
0.7986577181208053
 40
0.7986577181208053
 40
0.7986577181208053
 40
0.8053691275167785
 40
0.8053691275167785
 40
0.8053691275167785
 40
0.8053691275167785
 40
0.8120805369127517
 40
0.8120805369127517
 40
0.8120805369127517
 40
0.8120805369127517
 40
0.8187919463087249
 40
0.8187919463087249
 40
0.8187919463087249
 40
0.8187919463087249
 40
0.825503355704698
 40
0.825503355704698
 40
0.825503355704698
 40
0.825503355704698
 40
0.8322147651006712
 40
0.8322147651006712
 40
0.8322147651006712
 40
0.8322147651006712
 40
0.8389261744966443
 40
0.8389261744966443
 40
0.8389261744966443
 40
0.8389261744966443
 40
0.8456375838926175
 40
0.8456375838926175
 40
0.8456375838926175
 40
0.8456375838926175
 40
0.8523489932885906
 40
0.8523489932885906
 40
0.8523489932885906
 40
0.8523489932885906
 40
0.8590604026845637
 40
0.8590604026845637
 40
0.8590604026845637
 40
0.8590604026845637
 40
0.8657718120805369
 40
0.8657718120805369
 40
0.8657718120805369
 40
0.8657718120805369
 40
0.87248322147651
 40
0.87248322147651
 40
0.87248322147651
 40
0.87248322147651
 40
0.8791946308724832
 40
0.8791946308724832
 40
0.8791946308724832
 40
0.8791946308724832
 40
0.8859060402684564
 40
0.8859060402684564
 40
0.8859060402684564
 40
0.8859060402684564
 40
0.8926174496644296
 40
0.8926174496644296
 40
0.8926174496644296
 40
0.8926174496644296
 40
0.8993288590604027
 40
0.8993288590604027
 40
0.8993288590604027
 40
0.8993288590604027
 40
0.9060402684563759
 40
0.9060402684563759
 40
0.9060402684563759
 40
0.9060402684563759
 40
0.912751677852349
 40
0.912751677852349
 40
0.912751677852349
 40
0.912751677852349
 40
0.9194630872483222
 40
0.9194630872483222
 40
0.9194630872483222
 40
0.9194630872483222
 40
0.9261744966442953
 40
0.9261744966442953
 40
0.9261744966442953
 40
0.9261744966442953
 40
0.9328859060402684
 40
0.9328859060402684
 40
0.9328859060402684
 40
0.9328859060402684
 40
0.9395973154362416
 40
0.9395973154362416
 40
0.9395973154362416
 40
0.9395973154362416
 40
0.9463087248322147
 40
0.9463087248322147
 40
0.9463087248322147
 40
0.9463087248322147
 40
0.9530201342281879
 40
0.9530201342281879
 40
0.9530201342281879
 40
0.9530201342281879
 40
0.959731543624161
 40
0.959731543624161
 40
0.959731543624161
 40
0.959731543624161
 40
0.9664429530201343
 40
0.9664429530201343
 40
0.9664429530201343
 40
0.9664429530201343
 40
0.9731543624161074
 40
0.9731543624161074
 40
0.9731543624161074
 40
0.9731543624161074
 40
0.9798657718120806
 40
0.9798657718120806
 40
0.9798657718120806
 40
0.9798657718120806
 40
0.9865771812080537
 40
0.9865771812080537
 40
0.9865771812080537
 40
0.9865771812080537
 40
1.0
 40
1.0
 40
1.0
 40
1.0
 10
-4.0108
 20
86.2008
 30
0.0
 10
-8.0338
 20
80.1337
 30
0.0
 10
-8.5297
 20
77.4224
 30
0.0
 10
-6.584
 20
68.4493
 30
0.0
 10
-6.584
 20
68.4493
 30
0.0
 10
-5.0233
 20
61.2537
 30
0.0
 10
0.6045
 20
62.5162
 30
0.0
 10
-1.5601
 20
52.0848
 30
0.0
 10
-1.5601
 20
52.0848
 30
0.0
 10
-3.182
 20
44.2673
 30
0.0
 10
-11.5522
 20
47.8359
 30
0.0
 10
-16.2193
 20
44.706
 30
0.0
 10
-16.2193
 20
44.706
 30
0.0
 10
-19.5881
 20
42.447
 30
0.0
 10
-21.5524
 20
34.4412
 30
0.0
 10
-23.1578
 20
29.5302
 30
0.0
 10
-23.1578
 20
29.5302
 30
0.0
 10
-29.6225
 20
9.7527
 30
0.0
 10
-27.8841
 20
14.1702
 30
0.0
 10
-40.6458
 20
2.8136
 30
0.0
 10
-40.6458
 20
2.8136
 30
0.0
 10
-43.8721
 20
-0.0573
 30
0.0
 10
-49.007
 20
-4.9186
 30
0.0
 10
-53.1344
 20
-6.8081
 30
0.0
 10
-53.1344
 20
-6.8081
 30
0.0
 10
-58.4987
 20
-9.2648
 30
0.0
 10
-63.9659
 20
-13.7868
 30
0.0
 10
-60.6708
 20
-18.3459
 30
0.0
 10
-60.6708
 20
-18.3459
 30
0.0
 10
-60.6708
 20
-18.3459
 30
0.0
 10
-59.5714
 20
-15.471
 30
0.0
 10
-59.5714
 20
-15.471
 30
0.0
 10
-59.5714
 20
-15.471
 30
0.0
 10
-59.5714
 20
-15.471
 30
0.0
 10
-59.7577
 20
-18.7224
 30
0.0
 10
-59.7577
 20
-18.7224
 30
0.0
 10
-59.7577
 20
-18.7224
 30
0.0
 10
-57.695
 20
-15.5091
 30
0.0
 10
-57.081
 20
-12.1965
 30
0.0
 10
-53.0796
 20
-11.6182
 30
0.0
 10
-53.0796
 20
-11.6182
 30
0.0
 10
-53.0796
 20
-11.6182
 30
0.0
 10
-55.7031
 20
-16.2395
 30
0.0
 10
-55.7031
 20
-16.2395
 30
0.0
 10
-55.7031
 20
-16.2395
 30
0.0
 10
-54.4476
 20
-14.8922
 30
0.0
 10
-51.2966
 20
-14.101
 30
0.0
 10
-49.6053
 20
-11.1709
 30
0.0
 10
-49.6053
 20
-11.1709
 30
0.0
 10
-47.0748
 20
-6.7865
 30
0.0
 10
-49.3599
 20
-7.5214
 30
0.0
 10
-44.0799
 20
-4.8101
 30
0.0
 10
-44.0799
 20
-4.8101
 30
0.0
 10
-39.2407
 20
-2.3253
 30
0.0
 10
-33.2519
 20
0.5251
 30
0.0
 10
-29.1607
 20
3.6555
 30
0.0
 10
-29.1607
 20
3.6555
 30
0.0
 10
-19.1268
 20
11.334
 30
0.0
 10
-15.658
 20
31.487
 30
0.0
 10
-12.2013
 20
33.4237
 30
0.0
 10
-12.2013
 20
33.4237
 30
0.0
 10
-12.2013
 20
33.4237
 30
0.0
 10
-11.8444
 20
28.9765
 30
0.0
 10
-11.8444
 20
28.9765
 30
0.0
 10
-11.8444
 20
28.9765
 30
0.0
 10
-11.8444
 20
28.9765
 30
0.0
 10
-9.7993
 20
30.0257
 30
0.0
 10
-9.7993
 20
30.0257
 30
0.0
 10
-9.7993
 20
30.0257
 30
0.0
 10
-12.3243
 20
28.7516
 30
0.0
 10
-14.1917
 20
24.0881
 30
0.0
 10
-12.74
 20
20.6952
 30
0.0
 10
-12.74
 20
20.6952
 30
0.0
 10
-12.0261
 20
19.026
 30
0.0
 10
-6.8862
 20
15.5869
 30
0.0
 10
-5.3265
 20
14.8635
 30
0.0
 10
-5.3265
 20
14.8635
 30
0.0
 10
-5.3265
 20
14.8635
 30
0.0
 10
-9.0774
 20
14.3771
 30
0.0
 10
-9.0774
 20
14.3771
 30
0.0
 10
-9.0774
 20
14.3771
 30
0.0
 10
-9.0774
 20
14.3771
 30
0.0
 10
-2.1574
 20
7.2884
 30
0.0
 10
-2.1574
 20
7.2884
 30
0.0
 10
-2.1574
 20
7.2884
 30
0.0
 10
-2.1574
 20
7.2884
 30
0.0
 10
-7.2903
 20
9.448
 30
0.0
 10
-7.2903
 20
9.448
 30
0.0
 10
-7.2903
 20
9.448
 30
0.0
 10
-7.1397
 20
2.6987
 30
0.0
 10
-3.5284
 20
6.2493
 30
0.0
 10
-1.4406
 20
5.4471
 30
0.0
 10
-1.4406
 20
5.4471
 30
0.0
 10
-1.4406
 20
5.4471
 30
0.0
 10
-2.043
 20
-1.7284
 30
0.0
 10
-2.043
 20
-1.7284
 30
0.0
 10
-2.043
 20
-1.7284
 30
0.0
 10
-3.1905
 20
0.5045
 30
0.0
 10
-1.5801
 20
2.0411
 30
0.0
 10
-3.7412
 20
3.7604
 30
0.0
 10
-3.7412
 20
3.7604
 30
0.0
 10
-6.4475
 20
5.9135
 30
0.0
 10
-5.2788
 20
3.7147
 30
0.0
 10
-7.9258
 20
7.2181
 30
0.0
 10
-7.9258
 20
7.2181
 30
0.0
 10
-9.8982
 20
-1.7515
 30
0.0
 10
-5.077
 20
0.8037
 30
0.0
 10
-3.9862
 20
-3.3132
 30
0.0
 10
-3.9862
 20
-3.3132
 30
0.0
 10
-2.9531
 20
-7.2132
 30
0.0
 10
-8.7732
 20
-10.3752
 30
0.0
 10
-11.8695
 20
-10.8105
 30
0.0
 10
-11.8695
 20
-10.8105
 30
0.0
 10
-11.8695
 20
-10.8105
 30
0.0
 10
-7.6768
 20
-2.3212
 30
0.0
 10
-7.6768
 20
-2.3212
 30
0.0
 10
-7.6768
 20
-2.3212
 30
0.0
 10
-7.6768
 20
-2.3212
 30
0.0
 10
-8.7863
 20
-1.7103
 30
0.0
 10
-8.7863
 20
-1.7103
 30
0.0
 10
-8.7863
 20
-1.7103
 30
0.0
 10
-8.7863
 20
-1.7103
 30
0.0
 10
-12.9899
 20
-7.2413
 30
0.0
 10
-12.9899
 20
-7.2413
 30
0.0
 10
-12.9899
 20
-7.2413
 30
0.0
 10
-12.9899
 20
-7.2413
 30
0.0
 10
-15.3523
 20
-3.9221
 30
0.0
 10
-15.3523
 20
-3.9221
 30
0.0
 10
-15.3523
 20
-3.9221
 30
0.0
 10
-11.9358
 20
-3.3965
 30
0.0
 10
-8.6688
 20
-1.5512
 30
0.0
 10
-9.1276
 20
2.2148
 30
0.0
 10
-9.1276
 20
2.2148
 30
0.0
 10
-9.1597
 20
-4.644
 30
0.0
 10
-22.9113
 20
-1.8735
 30
0.0
 10
-28.9202
 20
-5.5205
 30
0.0
 10
-28.9202
 20
-5.5205
 30
0.0
 10
-31.8684
 20
-7.3101
 30
0.0
 10
-35.0586
 20
-7.6178
 30
0.0
 10
-37.2031
 20
-10.4084
 30
0.0
 10
-37.2031
 20
-10.4084
 30
0.0
 10
-39.0329
 20
-12.7888
 30
0.0
 10
-40.951
 20
-17.7756
 30
0.0
 10
-45.4022
 20
-15.363
 30
0.0
 10
-45.4022
 20
-15.363
 30
0.0
 10
-47.2108
 20
-13.3019
 30
0.0
 10
-46.8881
 20
-10.6438
 30
0.0
 10
-43.7019
 20
-10.2136
 30
0.0
 10
-43.7019
 20
-10.2136
 30
0.0
 10
-43.7019
 20
-10.2136
 30
0.0
 10
-42.0252
 20
-12.3481
 30
0.0
 10
-42.0252
 20
-12.3481
 30
0.0
 10
-42.0252
 20
-12.3481
 30
0.0
 10
-38.5369
 20
-7.2985
 30
0.0
 10
-50.8849
 20
-8.2162
 30
0.0
 10
-47.1662
 20
-15.3791
 30
0.0
 10
-47.1662
 20
-15.3791
 30
0.0
 10
-48.0436
 20
-16.1266
 30
0.0
 10
-53.4978
 20
-17.9086
 30
0.0
 10
-48.4809
 20
-20.6018
 30
0.0
 10
-48.4809
 20
-20.6018
 30
0.0
 10
-45.9087
 20
-21.9828
 30
0.0
 10
-42.7019
 20
-20.7344
 30
0.0
 10
-40.827
 20
-19.5321
 30
0.0
 10
-40.827
 20
-19.5321
 30
0.0
 10
-36.293
 20
-16.6245
 30
0.0
 10
-36.3748
 20
-9.9741
 30
0.0
 10
-32.0506
 20
-7.5104
 30
0.0
 10
-32.0506
 20
-7.5104
 30
0.0
 10
-34.7323
 20
-11.9776
 30
0.0
 10
-39.0389
 20
-19.6611
 30
0.0
 10
-30.8448
 20
-22.5169
 30
0.0
 10
-30.8448
 20
-22.5169
 30
0.0
 10
-27.5914
 20
-23.6504
 30
0.0
 10
-24.0459
 20
-22.4622
 30
0.0
 10
-23.0399
 20
-19.7685
 30
0.0
 10
-23.0399
 20
-19.7685
 30
0.0
 10
-21.2608
 20
-15.0051
 30
0.0
 10
-27.2611
 20
-13.3259
 30
0.0
 10
-26.9805
 20
-17.359
 30
0.0
 10
-26.9805
 20
-17.359
 30
0.0
 10
-24.1799
 20
-12.9168
 30
0.0
 10
-21.6629
 20
-19.1837
 30
0.0
 10
-25.4504
 20
-20.9156
 30
0.0
 10
-25.4504
 20
-20.9156
 30
0.0
 10
-28.9418
 20
-22.5124
 30
0.0
 10
-32.2695
 20
-20.2771
 30
0.0
 10
-33.137
 20
-17.5352
 30
0.0
 10
-33.137
 20
-17.5352
 30
0.0
 10
-34.9823
 20
-11.702
 30
0.0
 10
-27.5754
 20
-5.2584
 30
0.0
 10
-22.6674
 20
-4.9788
 30
0.0
 10
-22.6674
 20
-4.9788
 30
0.0
 10
-22.6674
 20
-4.9788
 30
0.0
 10
-22.2904
 20
-10.1062
 30
0.0
 10
-22.2904
 20
-10.1062
 30
0.0
 10
-22.2904
 20
-10.1062
 30
0.0
 10
-21.7979
 20
-8.44
 30
0.0
 10
-23.1438
 20
-4.783
 30
0.0
 10
-18.6499
 20
-4.8879
 30
0.0
 10
-18.6499
 20
-4.8879
 30
0.0
 10
-15.4065
 20
-4.9637
 30
0.0
 10
-14.1485
 20
-7.9235
 30
0.0
 10
-14.9106
 20
-11.2151
 30
0.0
 10
-14.9106
 20
-11.2151
 30
0.0
 10
-16.4632
 20
-7.3668
 30
0.0
 10
-16.0993
 20
-6.535
 30
0.0
 10
-21.4109
 20
-6.8974
 30
0.0
 10
-21.4109
 20
-6.8974
 30
0.0
 10
-21.4109
 20
-6.8974
 30
0.0
 10
-17.0084
 20
-12.596
 30
0.0
 10
-17.0084
 20
-12.596
 30
0.0
 10
-17.0084
 20
-12.596
 30
0.0
 10
-17.0084
 20
-12.596
 30
0.0
 10
-18.7277
 20
-15.109
 30
0.0
 10
-18.7277
 20
-15.109
 30
0.0
 10
-18.7277
 20
-15.109
 30
0.0
 10
-9.8133
 20
-10.7276
 30
0.0
 10
-10.6963
 20
-15.7044
 30
0.0
 10
-8.8621
 20
-20.5722
 30
0.0
 10
-8.8621
 20
-20.5722
 30
0.0
 10
-6.71
 20
-11.9625
 30
0.0
 10
-5.5891
 20
-14.0077
 30
0.0
 10
-13.5878
 20
-11.5579
 30
0.0
 10
-13.5878
 20
-11.5579
 30
0.0
 10
-4.6388
 20
-7.2669
 30
0.0
 10
-3.4947
 20
-11.6172
 30
0.0
 10
-0.9878
 20
1.8232
 30
0.0
 10
-0.9878
 20
1.8232
 30
0.0
 10
3.3434
 20
-4.029
 30
0.0
 10
-1.8452
 20
-7.8156
 30
0.0
 10
9.8834
 20
-15.7651
 30
0.0
 10
9.8834
 20
-15.7651
 30
0.0
 10
11.0284
 20
-16.5412
 30
0.0
 10
12.8928
 20
-17.7199
 30
0.0
 10
12.808
 20
-19.6586
 30
0.0
 10
12.808
 20
-19.6586
 30
0.0
 10
12.6594
 20
-23.04
 30
0.0
 10
10.158
 20
-17.0994
 30
0.0
 10
9.4743
 20
-21.774
 30
0.0
 10
9.4743
 20
-21.774
 30
0.0
 10
8.7544
 20
-26.6965
 30
0.0
 10
15.3626
 20
-26.184
 30
0.0
 10
18.7998
 20
-24.8532
 30
0.0
 10
18.7998
 20
-24.8532
 30
0.0
 10
16.219
 20
-38.0998
 30
0.0
 10
10.1545
 20
-49.8279
 30
0.0
 10
19.0894
 20
-63.5248
 30
0.0
 10
19.0894
 20
-63.5248
 30
0.0
 10
24.8413
 20
-72.3423
 30
0.0
 10
40.1511
 20
-79.2116
 30
0.0
 10
52.2883
 20
-70.9939
 30
0.0
 10
52.2883
 20
-70.9939
 30
0.0
 10
61.29
 20
-64.8992
 30
0.0
 10
66.1739
 20
-45.8496
 30
0.0
 10
52.0654
 20
-41.16
 30
0.0
 10
52.0654
 20
-41.16
 30
0.0
 10
45.0751
 20
-38.8368
 30
0.0
 10
38.235
 20
-43.0635
 30
0.0
 10
38.361
 20
-49.7998
 30
0.0
 10
38.361
 20
-49.7998
 30
0.0
 10
38.5653
 20
-60.7282
 30
0.0
 10
53.477
 20
-54.1972
 30
0.0
 10
47.8145
 20
-49.8159
 30
0.0
 10
47.8145
 20
-49.8159
 30
0.0
 10
49.5996
 20
-56.1982
 30
0.0
 10
40.4302
 20
-56.5707
 30
0.0
 10
40.0467
 20
-50.1923
 30
0.0
 10
40.0467
 20
-50.1923
 30
0.0
 10
39.7224
 20
-44.7959
 30
0.0
 10
44.3201
 20
-41.1299
 30
0.0
 10
49.9234
 20
-42.0475
 30
0.0
 10
49.9234
 20
-42.0475
 30
0.0
 10
60.7428
 20
-43.8195
 30
0.0
 10
61.4
 20
-58.6529
 30
0.0
 10
54.8826
 20
-65.5242
 30
0.0
 10
54.8826
 20
-65.5242
 30
0.0
 10
43.2544
 20
-77.7849
 30
0.0
 10
15.0504
 20
-73.8382
 30
0.0
 10
15.945
 20
-42.8954
 30
0.0
 10
15.945
 20
-42.8954
 30
0.0
 10
19.4679
 20
-52.368
 30
0.0
 10
15.5157
 20
-57.42
 30
0.0
 10
25.154
 20
-64.6859
 30
0.0
 10
25.154
 20
-64.6859
 30
0.0
 10
31.1774
 20
-69.2269
 30
0.0
 10
41.9005
 20
-71.5597
 30
0.0
 10
49.3747
 20
-67.229
 30
0.0
 10
49.3747
 20
-67.229
 30
0.0
 10
54.8821
 20
-64.0378
 30
0.0
 10
60.9517
 20
-53.6551
 30
0.0
 10
54.5874
 20
-46.2969
 30
0.0
 10
54.5874
 20
-46.2969
 30
0.0
 10
52.4037
 20
-43.7724
 30
0.0
 10
47.0525
 20
-41.4792
 30
0.0
 10
43.4828
 20
-44.7678
 30
0.0
 10
43.4828
 20
-44.7678
 30
0.0
 10
38.7992
 20
-49.0829
 30
0.0
 10
43.1214
 20
-55.5908
 30
0.0
 10
45.8783
 20
-52.622
 30
0.0
 10
45.8783
 20
-52.622
 30
0.0
 10
47.174
 20
-51.2265
 30
0.0
 10
46.4641
 20
-50.8053
 30
0.0
 10
45.5907
 20
-50.6472
 30
0.0
 10
45.5907
 20
-50.6472
 30
0.0
 10
42.9597
 20
-50.1693
 30
0.0
 10
45.9205
 20
-52.9342
 30
0.0
 10
43.4517
 20
-50.8906
 30
0.0
 10
43.4517
 20
-50.8906
 30
0.0
 10
41.7344
 20
-49.469
 30
0.0
 10
43.649
 20
-46.2055
 30
0.0
 10
44.7403
 20
-45.5725
 30
0.0
 10
44.7403
 20
-45.5725
 30
0.0
 10
49.4856
 20
-42.8216
 30
0.0
 10
53.4072
 20
-47.452
 30
0.0
 10
53.7626
 20
-51.5111
 30
0.0
 10
53.7626
 20
-51.5111
 30
0.0
 10
54.612
 20
-61.2116
 30
0.0
 10
46.3683
 20
-66.4981
 30
0.0
 10
37.0663
 20
-65.9434
 30
0.0
 10
37.0663
 20
-65.9434
 30
0.0
 10
18.4374
 20
-64.832
 30
0.0
 10
14.1714
 20
-42.8939
 30
0.0
 10
20.2154
 20
-25.2779
 30
0.0
 10
20.2154
 20
-25.2779
 30
0.0
 10
24.2906
 20
-33.731
 30
0.0
 10
28.6971
 20
-35.1095
 30
0.0
 10
40.2168
 20
-34.5035
 30
0.0
 10
40.2168
 20
-34.5035
 30
0.0
 10
40.2168
 20
-34.5035
 30
0.0
 10
39.9769
 20
-40.9868
 30
0.0
 10
39.9769
 20
-40.9868
 30
0.0
 10
39.9769
 20
-40.9868
 30
0.0
 10
39.9769
 20
-40.9868
 30
0.0
 10
41.274
 20
-41.1289
 30
0.0
 10
41.274
 20
-41.1289
 30
0.0
 10
41.274
 20
-41.1289
 30
0.0
 10
41.274
 20
-41.1289
 30
0.0
 10
41.6937
 20
-34.4122
 30
0.0
 10
41.6937
 20
-34.4122
 30
0.0
 10
41.6937
 20
-34.4122
 30
0.0
 10
45.0264
 20
-36.3323
 30
0.0
 10
40.6706
 20
-38.7529
 30
0.0
 10
50.4153
 20
-38.9296
 30
0.0
 10
50.4153
 20
-38.9296
 30
0.0
 10
50.4153
 20
-38.9296
 30
0.0
 10
43.5521
 20
-32.9785
 30
0.0
 10
43.5521
 20
-32.9785
 30
0.0
 10
43.5521
 20
-32.9785
 30
0.0
 10
46.5113
 20
-32.4358
 30
0.0
 10
48.8772
 20
-37.4176
 30
0.0
 10
53.854
 20
-31.9549
 30
0.0
 10
53.854
 20
-31.9549
 30
0.0
 10
53.854
 20
-31.9549
 30
0.0
 10
45.8387
 20
-31.1131
 30
0.0
 10
45.8387
 20
-31.1131
 30
0.0
 10
45.8387
 20
-31.1131
 30
0.0
 10
47.6694
 20
-28.4058
 30
0.0
 10
57.3378
 20
-24.175
 30
0.0
 10
58.1646
 20
-30.2547
 30
0.0
 10
58.1646
 20
-30.2547
 30
0.0
 10
58.1646
 20
-30.2547
 30
0.0
 10
55.628
 20
-31.6924
 30
0.0
 10
55.628
 20
-31.6924
 30
0.0
 10
55.628
 20
-31.6924
 30
0.0
 10
61.7082
 20
-34.9061
 30
0.0
 10
60.78
 20
-21.6339
 30
0.0
 10
49.2823
 20
-27.5811
 30
0.0
 10
49.2823
 20
-27.5811
 30
0.0
 10
43.1841
 20
-30.7351
 30
0.0
 10
43.6465
 20
-34.8524
 30
0.0
 10
33.2828
 20
-33.8771
 30
0.0
 10
33.2828
 20
-33.8771
 30
0.0
 10
53.5131
 20
-31.8616
 30
0.0
 10
53.4644
 20
-6.2815
 30
0.0
 10
38.8183
 20
-9.1609
 30
0.0
 10
38.8183
 20
-9.1609
 30
0.0
 10
39.0422
 20
-9.8672
 30
0.0
 10
41.1982
 20
-11.4003
 30
0.0
 10
42.0105
 20
-12.973
 30
0.0
 10
42.0105
 20
-12.973
 30
0.0
 10
46.0525
 20
-20.7966
 30
0.0
 10
50.1222
 20
-20.2459
 30
0.0
 10
44.4602
 20
-27.5896
 30
0.0
 10
44.4602
 20
-27.5896
 30
0.0
 10
45.8793
 20
-21.7394
 30
0.0
 10
42.6249
 20
-13.8048
 30
0.0
 10
38.1321
 20
-13.474
 30
0.0
 10
38.1321
 20
-13.474
 30
0.0
 10
40.0803
 20
-15.0895
 30
0.0
 10
39.3529
 20
-18.6385
 30
0.0
 10
39.4573
 20
-21.785
 30
0.0
 10
39.4573
 20
-21.785
 30
0.0
 10
39.6305
 20
-27.0078
 30
0.0
 10
41.9818
 20
-26.6122
 30
0.0
 10
42.9206
 20
-29.6924
 30
0.0
 10
42.9206
 20
-29.6924
 30
0.0
 10
42.9206
 20
-29.6924
 30
0.0
 10
32.8732
 20
-32.2531
 30
0.0
 10
32.8732
 20
-32.2531
 30
0.0
 10
32.8732
 20
-32.2531
 30
0.0
 10
37.6848
 20
-27.6569
 30
0.0
 10
36.617
 20
-27.558
 30
0.0
 10
36.861
 20
-19.761
 30
0.0
 10
36.861
 20
-19.761
 30
0.0
 10
31.0981
 20
-21.3327
 30
0.0
 10
32.9078
 20
-26.9485
 30
0.0
 10
31.6724
 20
-31.5332
 30
0.0
 10
31.6724
 20
-31.5332
 30
0.0
 10
27.6248
 20
-34.6943
 30
0.0
 10
21.7164
 20
-27.5253
 30
0.0
 10
21.243
 20
-23.4582
 30
0.0
 10
21.243
 20
-23.4582
 30
0.0
 10
20.5989
 20
-17.9192
 30
0.0
 10
21.9699
 20
-9.9942
 30
0.0
 10
17.3676
 20
-7.6103
 30
0.0
 10
17.3676
 20
-7.6103
 30
0.0
 10
21.6973
 20
-15.845
 30
0.0
 10
20.4564
 20
-30.0724
 30
0.0
 10
10.8311
 20
-23.3412
 30
0.0
 10
10.8311
 20
-23.3412
 30
0.0
 10
12.2016
 20
-20.6601
 30
0.0
 10
15.3943
 20
-22.0998
 30
0.0
 10
11.8507
 20
-15.7195
 30
0.0
 10
11.8507
 20
-15.7195
 30
0.0
 10
11.8507
 20
-15.7195
 30
0.0
 10
14.9279
 20
-20.2595
 30
0.0
 10
14.9279
 20
-20.2595
 30
0.0
 10
14.9279
 20
-20.2595
 30
0.0
 10
16.7572
 20
-13.7752
 30
0.0
 10
10.0902
 20
-9.4506
 30
0.0
 10
8.9552
 20
-4.3051
 30
0.0
 10
8.9552
 20
-4.3051
 30
0.0
 10
8.9552
 20
-4.3051
 30
0.0
 10
17.3008
 20
-14.7873
 30
0.0
 10
17.3008
 20
-14.7873
 30
0.0
 10
17.3008
 20
-14.7873
 30
0.0
 10
18.0317
 20
-5.4833
 30
0.0
 10
10.9652
 20
-7.1891
 30
0.0
 10
10.4456
 20
3.5792
 30
0.0
 10
10.4456
 20
3.5792
 30
0.0
 10
12.9385
 20
-3.0346
 30
0.0
 10
14.4646
 20
-3.8689
 30
0.0
 10
20.9538
 20
-6.3979
 30
0.0
 10
20.9538
 20
-6.3979
 30
0.0
 10
20.9538
 20
-6.3979
 30
0.0
 10
23.2831
 20
-15.3164
 30
0.0
 10
23.2831
 20
-15.3164
 30
0.0
 10
23.2831
 20
-15.3164
 30
0.0
 10
23.2831
 20
-15.3164
 30
0.0
 10
24.3062
 20
-15.1888
 30
0.0
 10
24.3062
 20
-15.1888
 30
0.0
 10
24.3062
 20
-15.1888
 30
0.0
 10
24.3062
 20
-15.1888
 30
0.0
 10
23.3599
 20
-6.7734
 30
0.0
 10
23.3599
 20
-6.7734
 30
0.0
 10
23.3599
 20
-6.7734
 30
0.0
 10
23.3599
 20
-6.7734
 30
0.0
 10
29.6514
 20
-17.9518
 30
0.0
 10
29.6514
 20
-17.9518
 30
0.0
 10
29.6514
 20
-17.9518
 30
0.0
 10
29.6514
 20
-17.9518
 30
0.0
 10
29.6845
 20
-9.7844
 30
0.0
 10
29.6845
 20
-9.7844
 30
0.0
 10
29.6845
 20
-9.7844
 30
0.0
 10
33.2256
 20
-11.1533
 30
0.0
 10
34.5664
 20
-17.3735
 30
0.0
 10
27.4155
 20
-19.4889
 30
0.0
 10
27.4155
 20
-19.4889
 30
0.0
 10
33.709
 20
-21.0913
 30
0.0
 10
35.2888
 20
-13.9534
 30
0.0
 10
31.1579
 20
-9.1207
 30
0.0
 10
31.1579
 20
-9.1207
 30
0.0
 10
36.1316
 20
-9.5404
 30
0.0
 10
38.9609
 20
-7.4566
 30
0.0
 10
37.1331
 20
-2.9708
 30
0.0
 10
37.1331
 20
-2.9708
 30
0.0
 10
30.3236
 20
-0.5111
 30
0.0
 10
34.4846
 20
-8.3321
 30
0.0
 10
34.7587
 20
-5.0661
 30
0.0
 10
34.7587
 20
-5.0661
 30
0.0
 10
34.7843
 20
-4.7624
 30
0.0
 10
32.6016
 20
-2.6807
 30
0.0
 10
35.5558
 20
-3.2856
 30
0.0
 10
35.5558
 20
-3.2856
 30
0.0
 10
37.7003
 20
-3.7243
 30
0.0
 10
36.8093
 20
-5.9215
 30
0.0
 10
36.3761
 20
-7.0801
 30
0.0
 10
36.3761
 20
-7.0801
 30
0.0
 10
33.2155
 20
-8.4014
 30
0.0
 10
23.9156
 20
-5.5701
 30
0.0
 10
19.5483
 20
-4.3945
 30
0.0
 10
19.5483
 20
-4.3945
 30
0.0
 10
9.4652
 20
-1.6797
 30
0.0
 10
13.3376
 20
5.1564
 30
0.0
 10
10.4843
 20
7.5228
 30
0.0
 10
10.4843
 20
7.5228
 30
0.0
 10
-0.7167
 20
1.3538
 30
0.0
 10
9.1926
 20
-10.1037
 30
0.0
 10
11.7152
 20
-15.4825
 30
0.0
 10
11.7152
 20
-15.4825
 30
0.0
 10
-2.2774
 20
-9.2573
 30
0.0
 10
-5.6197
 20
22.3266
 30
0.0
 10
12.7483
 20
14.4318
 30
0.0
 10
12.7483
 20
14.4318
 30
0.0
 10
12.7483
 20
14.4318
 30
0.0
 10
13.6167
 20
16.8454
 30
0.0
 10
13.6167
 20
16.8454
 30
0.0
 10
13.6167
 20
16.8454
 30
0.0
 10
13.6167
 20
16.8454
 30
0.0
 10
6.647
 20
17.3544
 30
0.0
 10
6.647
 20
17.3544
 30
0.0
 10
6.647
 20
17.3544
 30
0.0
 10
11.8462
 20
18.6179
 30
0.0
 10
16.1929
 20
16.4553
 30
0.0
 10
17.8099
 20
21.7323
 30
0.0
 10
17.8099
 20
21.7323
 30
0.0
 10
19.364
 20
26.8064
 30
0.0
 10
15.1709
 20
31.7395
 30
0.0
 10
18.2125
 20
32.9292
 30
0.0
 10
18.2125
 20
32.9292
 30
0.0
 10
24.9336
 20
20.8608
 30
0.0
 10
24.0291
 20
11.7582
 30
0.0
 10
34.3094
 20
3.1354
 30
0.0
 10
34.3094
 20
3.1354
 30
0.0
 10
37.6065
 20
0.3704
 30
0.0
 10
43.7137
 20
-3.3092
 30
0.0
 10
48.3732
 20
-5.7574
 30
0.0
 10
48.3732
 20
-5.7574
 30
0.0
 10
54.5031
 20
-8.9787
 30
0.0
 10
52.8616
 20
-12.9228
 30
0.0
 10
59.9407
 20
-17.4789
 30
0.0
 10
59.9407
 20
-17.4789
 30
0.0
 10
59.9407
 20
-17.4789
 30
0.0
 10
57.0984
 20
-12.8551
 30
0.0
 10
57.0984
 20
-12.8551
 30
0.0
 10
57.0984
 20
-12.8551
 30
0.0
 10
62.7528
 20
-13.5077
 30
0.0
 10
61.8944
 20
-17.74
 30
0.0
 10
63.2443
 20
-19.9056
 30
0.0
 10
63.2443
 20
-19.9056
 30
0.0
 10
63.2443
 20
-19.9056
 30
0.0
 10
63.7508
 20
-15.8876
 30
0.0
 10
63.7508
 20
-15.8876
 30
0.0
 10
63.7508
 20
-15.8876
 30
0.0
 10
63.7508
 20
-15.8876
 30
0.0
 10
64.675
 20
-19.2088
 30
0.0
 10
64.675
 20
-19.2088
 30
0.0
 10
64.675
 20
-19.2088
 30
0.0
 10
64.675
 20
-19.2088
 30
0.0
 10
65.692
 20
-16.9845
 30
0.0
 10
65.692
 20
-16.9845
 30
0.0
 10
65.692
 20
-16.9845
 30
0.0
 10
65.5133
 20
-9.569
 30
0.0
 10
60.5561
 20
-9.7999
 30
0.0
 10
55.2937
 20
-6.4953
 30
0.0
 10
55.2937
 20
-6.4953
 30
0.0
 10
50.9811
 20
-3.7871
 30
0.0
 10
47.1996
 20
0.4357
 30
0.0
 10
43.8538
 20
3.7489
 30
0.0
 10
43.8538
 20
3.7489
 30
0.0
 10
31.6322
 20
15.8509
 30
0.0
 10
34.588
 20
10.8701
 30
0.0
 10
28.0028
 20
30.8264
 30
0.0
 10
28.0028
 20
30.8264
 30
0.0
 10
26.4276
 20
35.6003
 30
0.0
 10
25.0356
 20
43.1132
 30
0.0
 10
20.9478
 20
45.0207
 30
0.0
 10
20.9478
 20
45.0207
 30
0.0
 10
15.4947
 20
47.5659
 30
0.0
 10
8.2594
 20
44.2371
 30
0.0
 10
7.1741
 20
53.0396
 30
0.0
 10
7.1741
 20
53.0396
 30
0.0
 10
6.0215
 20
62.3842
 30
0.0
 10
11.0987
 20
60.7507
 30
0.0
 10
13.188
 20
68.3835
 30
0.0
 10
13.188
 20
68.3835
 30
0.0
 10
15.2768
 20
76.0148
 30
0.0
 10
15.7843
 20
80.221
 30
0.0
 10
12.0003
 20
86.2008
 30
0.0
 10
12.0003
 20
86.2008
 30
0.0
 10
14.1177
 20
88.4899
 30
0.0
 10
16.1056
 20
91.3909
 30
0.0
 10
13.2437
 20
94.699
 30
0.0
 10
13.2437
 20
94.699
 30
0.0
 10
10.5711
 20
97.7873
 30
0.0
 10
7.3945
 20
95.6819
 30
0.0
 10
4.5607
 20
96.6096
 30
0.0
 10
4.5607
 20
96.6096
 30
0.0
 10
-4.7422
 20
99.6542
 30
0.0
 10
-8.8445
 20
93.5063
 30
0.0
 10
-4.0108
 20
86.2008
 30
0.0
  0
SPLINE
  5
73
330
1F
100
AcDbEntity
  8
Layer 1
100
AcDbSpline
210
0.0
220
0.0
230
1.0
 70
    11
 71
     3
 72
    24
 73
    20
 74
     0
 42
0.000000001
 43
0.0000000001
 40
0.0
 40
0.0
 40
0.0
 40
0.0
 40
0.1666666666666667
 40
0.1666666666666667
 40
0.1666666666666667
 40
0.1666666666666667
 40
0.3333333333333333
 40
0.3333333333333333
 40
0.3333333333333333
 40
0.3333333333333333
 40
0.5
 40
0.5
 40
0.5
 40
0.5
 40
0.6666666666666666
 40
0.6666666666666666
 40
0.6666666666666666
 40
0.6666666666666666
 40
1.0
 40
1.0
 40
1.0
 40
1.0
 10
-66.7971
 20
-119.6532
 30
0.0
 10
-67.1214
 20
-116.0403
 30
0.0
 10
-64.9724
 20
-110.7257
 30
0.0
 10
-63.2551
 20
-107.6043
 30
0.0
 10
-63.2551
 20
-107.6043
 30
0.0
 10
-62.5919
 20
-106.3985
 30
0.0
 10
-62.1823
 20
-105.4613
 30
0.0
 10
-60.9825
 20
-104.5743
 30
0.0
 10
-60.9825
 20
-104.5743
 30
0.0
 10
-60.9825
 20
-104.5743
 30
0.0
 10
-64.2756
 20
-113.303
 30
0.0
 10
-64.2756
 20
-113.303
 30
0.0
 10
-64.2756
 20
-113.303
 30
0.0
 10
-61.8871
 20
-111.6158
 30
0.0
 10
-62.0282
 20
-108.5772
 30
0.0
 10
-60.1542
 20
-106.5522
 30
0.0
 10
-60.1542
 20
-106.5522
 30
0.0
 10
-61.2877
 20
-115.5469
 30
0.0
 10
-66.5587
 20
-115.8948
 30
0.0
 10
-66.7971
 20
-119.6532
 30
0.0
  0
SPLINE
  5
74
330
1F
100
AcDbEntity
  8
Layer 1
100
AcDbSpline
210
0.0
220
0.0
230
1.0
 70
    11
 71
     3
 72
   432
 73
   428
 74
     0
 42
0.000000001
 43
0.0000000001
 40
0.0
 40
0.0
 40
0.0
 40
0.0
 40
0.0092592592592593
 40
0.0092592592592593
 40
0.0092592592592593
 40
0.0092592592592593
 40
0.0185185185185185
 40
0.0185185185185185
 40
0.0185185185185185
 40
0.0185185185185185
 40
0.0277777777777778
 40
0.0277777777777778
 40
0.0277777777777778
 40
0.0277777777777778
 40
0.037037037037037
 40
0.037037037037037
 40
0.037037037037037
 40
0.037037037037037
 40
0.0462962962962963
 40
0.0462962962962963
 40
0.0462962962962963
 40
0.0462962962962963
 40
0.0555555555555556
 40
0.0555555555555556
 40
0.0555555555555556
 40
0.0555555555555556
 40
0.0648148148148148
 40
0.0648148148148148
 40
0.0648148148148148
 40
0.0648148148148148
 40
0.0740740740740741
 40
0.0740740740740741
 40
0.0740740740740741
 40
0.0740740740740741
 40
0.0833333333333333
 40
0.0833333333333333
 40
0.0833333333333333
 40
0.0833333333333333
 40
0.0925925925925926
 40
0.0925925925925926
 40
0.0925925925925926
 40
0.0925925925925926
 40
0.1018518518518518
 40
0.1018518518518518
 40
0.1018518518518518
 40
0.1018518518518518
 40
0.1111111111111111
 40
0.1111111111111111
 40
0.1111111111111111
 40
0.1111111111111111
 40
0.1203703703703704
 40
0.1203703703703704
 40
0.1203703703703704
 40
0.1203703703703704
 40
0.1296296296296296
 40
0.1296296296296296
 40
0.1296296296296296
 40
0.1296296296296296
 40
0.1388888888888889
 40
0.1388888888888889
 40
0.1388888888888889
 40
0.1388888888888889
 40
0.1481481481481481
 40
0.1481481481481481
 40
0.1481481481481481
 40
0.1481481481481481
 40
0.1574074074074074
 40
0.1574074074074074
 40
0.1574074074074074
 40
0.1574074074074074
 40
0.1666666666666667
 40
0.1666666666666667
 40
0.1666666666666667
 40
0.1666666666666667
 40
0.1759259259259259
 40
0.1759259259259259
 40
0.1759259259259259
 40
0.1759259259259259
 40
0.1851851851851852
 40
0.1851851851851852
 40
0.1851851851851852
 40
0.1851851851851852
 40
0.1944444444444444
 40
0.1944444444444444
 40
0.1944444444444444
 40
0.1944444444444444
 40
0.2037037037037037
 40
0.2037037037037037
 40
0.2037037037037037
 40
0.2037037037037037
 40
0.212962962962963
 40
0.212962962962963
 40
0.212962962962963
 40
0.212962962962963
 40
0.2222222222222222
 40
0.2222222222222222
 40
0.2222222222222222
 40
0.2222222222222222
 40
0.2314814814814815
 40
0.2314814814814815
 40
0.2314814814814815
 40
0.2314814814814815
 40
0.2407407407407407
 40
0.2407407407407407
 40
0.2407407407407407
 40
0.2407407407407407
 40
0.25
 40
0.25
 40
0.25
 40
0.25
 40
0.2592592592592592
 40
0.2592592592592592
 40
0.2592592592592592
 40
0.2592592592592592
 40
0.2685185185185185
 40
0.2685185185185185
 40
0.2685185185185185
 40
0.2685185185185185
 40
0.2777777777777778
 40
0.2777777777777778
 40
0.2777777777777778
 40
0.2777777777777778
 40
0.287037037037037
 40
0.287037037037037
 40
0.287037037037037
 40
0.287037037037037
 40
0.2962962962962963
 40
0.2962962962962963
 40
0.2962962962962963
 40
0.2962962962962963
 40
0.3055555555555556
 40
0.3055555555555556
 40
0.3055555555555556
 40
0.3055555555555556
 40
0.3148148148148148
 40
0.3148148148148148
 40
0.3148148148148148
 40
0.3148148148148148
 40
0.3240740740740741
 40
0.3240740740740741
 40
0.3240740740740741
 40
0.3240740740740741
 40
0.3333333333333333
 40
0.3333333333333333
 40
0.3333333333333333
 40
0.3333333333333333
 40
0.3425925925925926
 40
0.3425925925925926
 40
0.3425925925925926
 40
0.3425925925925926
 40
0.3518518518518519
 40
0.3518518518518519
 40
0.3518518518518519
 40
0.3518518518518519
 40
0.3611111111111111
 40
0.3611111111111111
 40
0.3611111111111111
 40
0.3611111111111111
 40
0.3703703703703703
 40
0.3703703703703703
 40
0.3703703703703703
 40
0.3703703703703703
 40
0.3796296296296297
 40
0.3796296296296297
 40
0.3796296296296297
 40
0.3796296296296297
 40
0.3888888888888889
 40
0.3888888888888889
 40
0.3888888888888889
 40
0.3888888888888889
 40
0.3981481481481481
 40
0.3981481481481481
 40
0.3981481481481481
 40
0.3981481481481481
 40
0.4074074074074074
 40
0.4074074074074074
 40
0.4074074074074074
 40
0.4074074074074074
 40
0.4166666666666667
 40
0.4166666666666667
 40
0.4166666666666667
 40
0.4166666666666667
 40
0.4259259259259259
 40
0.4259259259259259
 40
0.4259259259259259
 40
0.4259259259259259
 40
0.4351851851851852
 40
0.4351851851851852
 40
0.4351851851851852
 40
0.4351851851851852
 40
0.4444444444444444
 40
0.4444444444444444
 40
0.4444444444444444
 40
0.4444444444444444
 40
0.4537037037037037
 40
0.4537037037037037
 40
0.4537037037037037
 40
0.4537037037037037
 40
0.462962962962963
 40
0.462962962962963
 40
0.462962962962963
 40
0.462962962962963
 40
0.4722222222222222
 40
0.4722222222222222
 40
0.4722222222222222
 40
0.4722222222222222
 40
0.4814814814814815
 40
0.4814814814814815
 40
0.4814814814814815
 40
0.4814814814814815
 40
0.4907407407407408
 40
0.4907407407407408
 40
0.4907407407407408
 40
0.4907407407407408
 40
0.5
 40
0.5
 40
0.5
 40
0.5
 40
0.5092592592592593
 40
0.5092592592592593
 40
0.5092592592592593
 40
0.5092592592592593
 40
0.5185185185185185
 40
0.5185185185185185
 40
0.5185185185185185
 40
0.5185185185185185
 40
0.5277777777777778
 40
0.5277777777777778
 40
0.5277777777777778
 40
0.5277777777777778
 40
0.5370370370370371
 40
0.5370370370370371
 40
0.5370370370370371
 40
0.5370370370370371
 40
0.5462962962962963
 40
0.5462962962962963
 40
0.5462962962962963
 40
0.5462962962962963
 40
0.5555555555555556
 40
0.5555555555555556
 40
0.5555555555555556
 40
0.5555555555555556
 40
0.5648148148148148
 40
0.5648148148148148
 40
0.5648148148148148
 40
0.5648148148148148
 40
0.5740740740740741
 40
0.5740740740740741
 40
0.5740740740740741
 40
0.5740740740740741
 40
0.5833333333333334
 40
0.5833333333333334
 40
0.5833333333333334
 40
0.5833333333333334
 40
0.5925925925925926
 40
0.5925925925925926
 40
0.5925925925925926
 40
0.5925925925925926
 40
0.6018518518518519
 40
0.6018518518518519
 40
0.6018518518518519
 40
0.6018518518518519
 40
0.6111111111111112
 40
0.6111111111111112
 40
0.6111111111111112
 40
0.6111111111111112
 40
0.6203703703703703
 40
0.6203703703703703
 40
0.6203703703703703
 40
0.6203703703703703
 40
0.6296296296296297
 40
0.6296296296296297
 40
0.6296296296296297
 40
0.6296296296296297
 40
0.6388888888888888
 40
0.6388888888888888
 40
0.6388888888888888
 40
0.6388888888888888
 40
0.6481481481481481
 40
0.6481481481481481
 40
0.6481481481481481
 40
0.6481481481481481
 40
0.6574074074074074
 40
0.6574074074074074
 40
0.6574074074074074
 40
0.6574074074074074
 40
0.6666666666666666
 40
0.6666666666666666
 40
0.6666666666666666
 40
0.6666666666666666
 40
0.6759259259259259
 40
0.6759259259259259
 40
0.6759259259259259
 40
0.6759259259259259
 40
0.6851851851851852
 40
0.6851851851851852
 40
0.6851851851851852
 40
0.6851851851851852
 40
0.6944444444444444
 40
0.6944444444444444
 40
0.6944444444444444
 40
0.6944444444444444
 40
0.7037037037037037
 40
0.7037037037037037
 40
0.7037037037037037
 40
0.7037037037037037
 40
0.7129629629629629
 40
0.7129629629629629
 40
0.7129629629629629
 40
0.7129629629629629
 40
0.7222222222222222
 40
0.7222222222222222
 40
0.7222222222222222
 40
0.7222222222222222
 40
0.7314814814814815
 40
0.7314814814814815
 40
0.7314814814814815
 40
0.7314814814814815
 40
0.7407407407407407
 40
0.7407407407407407
 40
0.7407407407407407
 40
0.7407407407407407
 40
0.75
 40
0.75
 40
0.75
 40
0.75
 40
0.7592592592592593
 40
0.7592592592592593
 40
0.7592592592592593
 40
0.7592592592592593
 40
0.7685185185185185
 40
0.7685185185185185
 40
0.7685185185185185
 40
0.7685185185185185
 40
0.7777777777777778
 40
0.7777777777777778
 40
0.7777777777777778
 40
0.7777777777777778
 40
0.7870370370370371
 40
0.7870370370370371
 40
0.7870370370370371
 40
0.7870370370370371
 40
0.7962962962962963
 40
0.7962962962962963
 40
0.7962962962962963
 40
0.7962962962962963
 40
0.8055555555555556
 40
0.8055555555555556
 40
0.8055555555555556
 40
0.8055555555555556
 40
0.8148148148148148
 40
0.8148148148148148
 40
0.8148148148148148
 40
0.8148148148148148
 40
0.8240740740740741
 40
0.8240740740740741
 40
0.8240740740740741
 40
0.8240740740740741
 40
0.8333333333333334
 40
0.8333333333333334
 40
0.8333333333333334
 40
0.8333333333333334
 40
0.8425925925925926
 40
0.8425925925925926
 40
0.8425925925925926
 40
0.8425925925925926
 40
0.8518518518518519
 40
0.8518518518518519
 40
0.8518518518518519
 40
0.8518518518518519
 40
0.8611111111111112
 40
0.8611111111111112
 40
0.8611111111111112
 40
0.8611111111111112
 40
0.8703703703703703
 40
0.8703703703703703
 40
0.8703703703703703
 40
0.8703703703703703
 40
0.8796296296296297
 40
0.8796296296296297
 40
0.8796296296296297
 40
0.8796296296296297
 40
0.8888888888888888
 40
0.8888888888888888
 40
0.8888888888888888
 40
0.8888888888888888
 40
0.8981481481481481
 40
0.8981481481481481
 40
0.8981481481481481
 40
0.8981481481481481
 40
0.9074074074074074
 40
0.9074074074074074
 40
0.9074074074074074
 40
0.9074074074074074
 40
0.9166666666666666
 40
0.9166666666666666
 40
0.9166666666666666
 40
0.9166666666666666
 40
0.9259259259259259
 40
0.9259259259259259
 40
0.9259259259259259
 40
0.9259259259259259
 40
0.9351851851851852
 40
0.9351851851851852
 40
0.9351851851851852
 40
0.9351851851851852
 40
0.9444444444444444
 40
0.9444444444444444
 40
0.9444444444444444
 40
0.9444444444444444
 40
0.9537037037037037
 40
0.9537037037037037
 40
0.9537037037037037
 40
0.9537037037037037
 40
0.9629629629629629
 40
0.9629629629629629
 40
0.9629629629629629
 40
0.9629629629629629
 40
0.9722222222222222
 40
0.9722222222222222
 40
0.9722222222222222
 40
0.9722222222222222
 40
0.9814814814814815
 40
0.9814814814814815
 40
0.9814814814814815
 40
0.9814814814814815
 40
1.0
 40
1.0
 40
1.0
 40
1.0
 10
-40.1071
 20
-81.8792
 30
0.0
 10
-34.3789
 20
-78.9149
 30
0.0
 10
-23.1131
 20
-70.3424
 30
0.0
 10
-25.7421
 20
-60.6679
 30
0.0
 10
-25.7421
 20
-60.6679
 30
0.0
 10
-24.3144
 20
-80.7326
 30
0.0
 10
-43.7054
 20
-79.9204
 30
0.0
 10
-43.0553
 20
-94.2839
 30
0.0
 10
-43.0553
 20
-94.2839
 30
0.0
 10
-40.9696
 20
-89.5275
 30
0.0
 10
-33.525
 20
-90.0988
 30
0.0
 10
-30.5542
 20
-84.6336
 30
0.0
 10
-30.5542
 20
-84.6336
 30
0.0
 10
-28.9584
 20
-81.6985
 30
0.0
 10
-24.8787
 20
-69.9428
 30
0.0
 10
-23.9058
 20
-68.737
 30
0.0
 10
-23.9058
 20
-68.737
 30
0.0
 10
-23.8616
 20
-74.8884
 30
0.0
 10
-28.6004
 20
-83.8244
 30
0.0
 10
-31.1616
 20
-87.5512
 30
0.0
 10
-31.1616
 20
-87.5512
 30
0.0
 10
-22.2522
 20
-82.5634
 30
0.0
 10
-23.0589
 20
-74.2649
 30
0.0
 10
-22.8114
 20
-62.0976
 30
0.0
 10
-22.8114
 20
-62.0976
 30
0.0
 10
-22.8114
 20
-62.0976
 30
0.0
 10
-21.1689
 20
-75.5862
 30
0.0
 10
-21.1689
 20
-75.5862
 30
0.0
 10
-21.1689
 20
-75.5862
 30
0.0
 10
-15.4442
 20
-66.9082
 30
0.0
 10
-21.8908
 20
-60.6363
 30
0.0
 10
-23.7743
 20
-54.9246
 30
0.0
 10
-23.7743
 20
-54.9246
 30
0.0
 10
-23.7743
 20
-54.9246
 30
0.0
 10
-12.4091
 20
-63.3792
 30
0.0
 10
-12.4091
 20
-63.3792
 30
0.0
 10
-12.4091
 20
-63.3792
 30
0.0
 10
-11.7053
 20
-50.612
 30
0.0
 10
-23.0117
 20
-56.2168
 30
0.0
 10
-26.1678
 20
-48.6186
 30
0.0
 10
-26.1678
 20
-48.6186
 30
0.0
 10
-22.8411
 20
-49.9052
 30
0.0
 10
-16.0762
 20
-52.4282
 30
0.0
 10
-13.8423
 20
-47.9906
 30
0.0
 10
-13.8423
 20
-47.9906
 30
0.0
 10
-24.1985
 20
-50.6221
 30
0.0
 10
-38.0525
 20
-41.3015
 30
0.0
 10
-32.1586
 20
-31.6161
 30
0.0
 10
-32.1586
 20
-31.6161
 30
0.0
 10
-25.9027
 20
-21.3363
 30
0.0
 10
-5.2728
 20
-35.6074
 30
0.0
 10
-8.0438
 20
-21.4196
 30
0.0
 10
-8.0438
 20
-21.4196
 30
0.0
 10
-8.0438
 20
-21.4196
 30
0.0
 10
-11.8218
 20
-25.2779
 30
0.0
 10
-11.8218
 20
-25.2779
 30
0.0
 10
-11.8218
 20
-25.2779
 30
0.0
 10
-7.7095
 20
-8.8236
 30
0.0
 10
-27.5146
 20
-22.3237
 30
0.0
 10
-16.3839
 20
-22.2659
 30
0.0
 10
-16.3839
 20
-22.2659
 30
0.0
 10
-16.027
 20
-20.4839
 30
0.0
 10
-18.5606
 20
-18.7048
 30
0.0
 10
-15.3769
 20
-19.2183
 30
0.0
 10
-15.3769
 20
-19.2183
 30
0.0
 10
-13.3644
 20
-19.5431
 30
0.0
 10
-12.7395
 20
-21.409
 30
0.0
 10
-13.7866
 20
-23.5064
 30
0.0
 10
-13.7866
 20
-23.5064
 30
0.0
 10
-15.3523
 20
-26.6423
 30
0.0
 10
-21.6363
 20
-25.3833
 30
0.0
 10
-25.1718
 20
-25.6253
 30
0.0
 10
-25.1718
 20
-25.6253
 30
0.0
 10
-23.1413
 20
-23.4803
 30
0.0
 10
-15.7057
 20
-17.0563
 30
0.0
 10
-22.4254
 20
-12.7838
 30
0.0
 10
-22.4254
 20
-12.7838
 30
0.0
 10
-29.6606
 20
-8.1835
 30
0.0
 10
-32.8538
 20
-21.8468
 30
0.0
 10
-25.4936
 20
-18.7118
 30
0.0
 10
-25.4936
 20
-18.7118
 30
0.0
 10
-31.1852
 20
-16.5136
 30
0.0
 10
-25.6206
 20
-12.7913
 30
0.0
 10
-22.8662
 20
-15.3455
 30
0.0
 10
-22.8662
 20
-15.3455
 30
0.0
 10
-19.8748
 20
-18.1195
 30
0.0
 10
-22.8596
 20
-22.2454
 30
0.0
 10
-24.6769
 20
-23.784
 30
0.0
 10
-24.6769
 20
-23.784
 30
0.0
 10
-33.6691
 20
-31.3952
 30
0.0
 10
-31.9156
 20
-25.4104
 30
0.0
 10
-34.1886
 20
-39.3397
 30
0.0
 10
-34.1886
 20
-39.3397
 30
0.0
 10
-37.4205
 20
-36.0964
 30
0.0
 10
-48.4914
 20
-39.1686
 30
0.0
 10
-48.1671
 20
-47.5975
 30
0.0
 10
-48.1671
 20
-47.5975
 30
0.0
 10
-47.9382
 20
-47.5338
 30
0.0
 10
-43.4876
 20
-45.0685
 30
0.0
 10
-41.9464
 20
-44.3301
 30
0.0
 10
-41.9464
 20
-44.3301
 30
0.0
 10
-38.7317
 20
-42.7905
 30
0.0
 10
-39.2648
 20
-40.5817
 30
0.0
 10
-37.3266
 20
-38.9999
 30
0.0
 10
-37.3266
 20
-38.9999
 30
0.0
 10
-29.38
 20
-39.4376
 30
0.0
 10
-25.2923
 20
-58.6243
 30
0.0
 10
-30.1948
 20
-67.9925
 30
0.0
 10
-30.1948
 20
-67.9925
 30
0.0
 10
-34.8628
 20
-76.913
 30
0.0
 10
-47.0768
 20
-81.4515
 30
0.0
 10
-57.9244
 20
-74.649
 30
0.0
 10
-57.9244
 20
-74.649
 30
0.0
 10
-69.0465
 20
-67.6748
 30
0.0
 10
-65.5507
 20
-50.7907
 30
0.0
 10
-53.049
 20
-51.7676
 30
0.0
 10
-53.049
 20
-51.7676
 30
0.0
 10
-40.5037
 20
-52.7475
 30
0.0
 10
-44.3585
 20
-70.2189
 30
0.0
 10
-53.1303
 20
-65.6196
 30
0.0
 10
-53.1303
 20
-65.6196
 30
0.0
 10
-54.2739
 20
-65.0202
 30
0.0
 10
-55.1418
 20
-63.9906
 30
0.0
 10
-55.0721
 20
-62.5047
 30
0.0
 10
-55.0721
 20
-62.5047
 30
0.0
 10
-54.9109
 20
-59.0666
 30
0.0
 10
-54.3838
 20
-62.5344
 30
0.0
 10
-53.052
 20
-61.0761
 30
0.0
 10
-53.052
 20
-61.0761
 30
0.0
 10
-51.1414
 20
-58.9848
 30
0.0
 10
-57.4159
 20
-58.6484
 30
0.0
 10
-56.4244
 20
-63.6779
 30
0.0
 10
-56.4244
 20
-63.6779
 30
0.0
 10
-55.9435
 20
-66.1166
 30
0.0
 10
-53.2423
 20
-67.8756
 30
0.0
 10
-50.0908
 20
-67.7541
 30
0.0
 10
-50.0908
 20
-67.7541
 30
0.0
 10
-43.8646
 20
-67.5131
 30
0.0
 10
-41.9399
 20
-59.9576
 30
0.0
 10
-44.8354
 20
-54.7735
 30
0.0
 10
-44.8354
 20
-54.7735
 30
0.0
 10
-49.6174
 20
-46.2125
 30
0.0
 10
-67.4944
 20
-49.2862
 30
0.0
 10
-66.9748
 20
-64.2195
 30
0.0
 10
-66.9748
 20
-64.2195
 30
0.0
 10
-66.5973
 20
-75.0716
 30
0.0
 10
-54.4777
 20
-82.3209
 30
0.0
 10
-42.227
 20
-79.7241
 30
0.0
 10
-42.227
 20
-79.7241
 30
0.0
 10
-30.0201
 20
-77.1363
 30
0.0
 10
-27.2717
 20
-67.6843
 30
0.0
 10
-26.6015
 20
-54.4944
 30
0.0
 10
-26.6015
 20
-54.4944
 30
0.0
 10
-24.0935
 20
-60.7874
 30
0.0
 10
-28.735
 20
-71.4442
 30
0.0
 10
-31.759
 20
-74.9296
 30
0.0
 10
-31.759
 20
-74.9296
 30
0.0
 10
-35.047
 20
-78.7196
 30
0.0
 10
-43.0132
 20
-83.1377
 30
0.0
 10
-50.4884
 20
-82.9554
 30
0.0
 10
-50.4884
 20
-82.9554
 30
0.0
 10
-67.5225
 20
-82.5398
 30
0.0
 10
-76.0067
 20
-59.2242
 30
0.0
 10
-65.874
 20
-52.4538
 30
0.0
 10
-65.874
 20
-52.4538
 30
0.0
 10
-73.3803
 20
-49.596
 30
0.0
 10
-75.0223
 20
-61.952
 30
0.0
 10
-73.2086
 20
-68.2671
 30
0.0
 10
-73.2086
 20
-68.2671
 30
0.0
 10
-70.9471
 20
-76.1424
 30
0.0
 10
-66.7158
 20
-77.9189
 30
0.0
 10
-61.0684
 20
-81.6382
 30
0.0
 10
-61.0684
 20
-81.6382
 30
0.0
 10
-69.7629
 20
-80.8887
 30
0.0
 10
-76.7843
 20
-73.8729
 30
0.0
 10
-79.4975
 20
-67.2315
 30
0.0
 10
-79.4975
 20
-67.2315
 30
0.0
 10
-74.1147
 20
-58.5475
 30
0.0
 10
-77.8651
 20
-62.7592
 30
0.0
 10
-75.8345
 20
-53.2058
 30
0.0
 10
-75.8345
 20
-53.2058
 30
0.0
 10
-81.122
 20
-54.7811
 30
0.0
 10
-80.0051
 20
-59.1856
 30
0.0
 10
-80.1014
 20
-64.8405
 30
0.0
 10
-80.1014
 20
-64.8405
 30
0.0
 10
-84.6887
 20
-58.6208
 30
0.0
 10
-77.9138
 20
-42.5846
 30
0.0
 10
-72.1313
 20
-49.0834
 30
0.0
 10
-72.1313
 20
-49.0834
 30
0.0
 10
-72.1313
 20
-49.0834
 30
0.0
 10
-74.0067
 20
-51.1838
 30
0.0
 10
-74.0067
 20
-51.1838
 30
0.0
 10
-74.0067
 20
-51.1838
 30
0.0
 10
-67.3046
 20
-51.0884
 30
0.0
 10
-73.9621
 20
-40.788
 30
0.0
 10
-80.3881
 20
-49.6808
 30
0.0
 10
-80.3881
 20
-49.6808
 30
0.0
 10
-83.6817
 20
-54.2389
 30
0.0
 10
-83.0316
 20
-60.2769
 30
0.0
 10
-81.2575
 20
-65.8586
 30
0.0
 10
-81.2575
 20
-65.8586
 30
0.0
 10
-84.5913
 20
-62.6573
 30
0.0
 10
-85.9256
 20
-60.3723
 30
0.0
 10
-85.5792
 20
-53.8579
 30
0.0
 10
-85.5792
 20
-53.8579
 30
0.0
 10
-88.3256
 20
-55.4964
 30
0.0
 10
-89.6077
 20
-60.4134
 30
0.0
 10
-87.1856
 20
-63.9706
 30
0.0
 10
-87.1856
 20
-63.9706
 30
0.0
 10
-83.7735
 20
-68.9805
 30
0.0
 10
-81.5527
 20
-64.6974
 30
0.0
 10
-79.5678
 20
-69.6752
 30
0.0
 10
-79.5678
 20
-69.6752
 30
0.0
 10
-88.0555
 20
-66.3219
 30
0.0
 10
-87.2403
 20
-74.7383
 30
0.0
 10
-85.3538
 20
-77.3467
 30
0.0
 10
-85.3538
 20
-77.3467
 30
0.0
 10
-82.0296
 20
-75.7006
 30
0.0
 10
-84.523
 20
-72.3644
 30
0.0
 10
-81.9759
 20
-70.9568
 30
0.0
 10
-81.9759
 20
-70.9568
 30
0.0
 10
-78.9549
 20
-69.2872
 30
0.0
 10
-77.6472
 20
-72.7695
 30
0.0
 10
-76.5709
 20
-73.7022
 30
0.0
 10
-76.5709
 20
-73.7022
 30
0.0
 10
-76.5709
 20
-73.7022
 30
0.0
 10
-81.1084
 20
-76.3628
 30
0.0
 10
-81.1084
 20
-76.3628
 30
0.0
 10
-81.1084
 20
-76.3628
 30
0.0
 10
-81.1084
 20
-76.3628
 30
0.0
 10
-80.5974
 20
-77.2342
 30
0.0
 10
-80.5974
 20
-77.2342
 30
0.0
 10
-80.5974
 20
-77.2342
 30
0.0
 10
-72.4114
 20
-70.9357
 30
0.0
 10
-73.1398
 20
-86.2721
 30
0.0
 10
-45.5934
 20
-83.3806
 30
0.0
 10
-45.5934
 20
-83.3806
 30
0.0
 10
-50.4276
 20
-88.4483
 30
0.0
 10
-56.2869
 20
-88.4573
 30
0.0
 10
-64.6099
 20
-89.2705
 30
0.0
 10
-64.6099
 20
-89.2705
 30
0.0
 10
-71.0139
 20
-89.896
 30
0.0
 10
-77.9323
 20
-96.1624
 30
0.0
 10
-81.6265
 20
-88.1295
 30
0.0
 10
-81.6265
 20
-88.1295
 30
0.0
 10
-85.3538
 20
-80.0233
 30
0.0
 10
-73.0228
 20
-75.3076
 30
0.0
 10
-71.3873
 20
-82.7145
 30
0.0
 10
-71.3873
 20
-82.7145
 30
0.0
 10
-70.3462
 20
-87.4287
 30
0.0
 10
-75.6332
 20
-88.9954
 30
0.0
 10
-77.3385
 20
-86.3474
 30
0.0
 10
-77.3385
 20
-86.3474
 30
0.0
 10
-79.7029
 20
-82.6753
 30
0.0
 10
-73.6217
 20
-79.7753
 30
0.0
 10
-73.2613
 20
-84.8128
 30
0.0
 10
-73.2613
 20
-84.8128
 30
0.0
 10
-73.2613
 20
-84.8128
 30
0.0
 10
-73.9832
 20
-81.3807
 30
0.0
 10
-73.9832
 20
-81.3807
 30
0.0
 10
-73.9832
 20
-81.3807
 30
0.0
 10
-79.8675
 20
-79.0279
 30
0.0
 10
-81.134
 20
-89.1681
 30
0.0
 10
-74.3396
 20
-88.5903
 30
0.0
 10
-74.3396
 20
-88.5903
 30
0.0
 10
-68.6204
 20
-88.1039
 30
0.0
 10
-69.1083
 20
-80.5223
 30
0.0
 10
-73.1057
 20
-78.3597
 30
0.0
 10
-73.1057
 20
-78.3597
 30
0.0
 10
-82.4658
 20
-73.2961
 30
0.0
 10
-89.811
 20
-90.7198
 30
0.0
 10
-76.7587
 20
-94.5194
 30
0.0
 10
-76.7587
 20
-94.5194
 30
0.0
 10
-80.2219
 20
-96.2723
 30
0.0
 10
-79.8218
 20
-94.8833
 30
0.0
 10
-82.6144
 20
-98.0373
 30
0.0
 10
-82.6144
 20
-98.0373
 30
0.0
 10
-88.0214
 20
-104.1441
 30
0.0
 10
-91.2397
 20
-92.7207
 30
0.0
 10
-84.2042
 20
-94.9712
 30
0.0
 10
-84.2042
 20
-94.9712
 30
0.0
 10
-84.2042
 20
-94.9712
 30
0.0
 10
-83.0582
 20
-94.4265
 30
0.0
 10
-83.0582
 20
-94.4265
 30
0.0
 10
-83.0582
 20
-94.4265
 30
0.0
 10
-84.1048
 20
-93.4341
 30
0.0
 10
-86.6901
 20
-93.9516
 30
0.0
 10
-88.1037
 20
-93.9386
 30
0.0
 10
-88.1037
 20
-93.9386
 30
0.0
 10
-90.439
 20
-97.2216
 30
0.0
 10
-89.7563
 20
-102.3846
 30
0.0
 10
-84.6862
 20
-101.1246
 30
0.0
 10
-84.6862
 20
-101.1246
 30
0.0
 10
-81.6089
 20
-100.3596
 30
0.0
 10
-80.8836
 20
-95.8311
 30
0.0
 10
-76.5689
 20
-95.2764
 30
0.0
 10
-76.5689
 20
-95.2764
 30
0.0
 10
-86.2052
 20
-108.6972
 30
0.0
 10
-70.1349
 20
-113.9345
 30
0.0
 10
-69.0727
 20
-106.2776
 30
0.0
 10
-69.0727
 20
-106.2776
 30
0.0
 10
-68.0908
 20
-99.2
 30
0.0
 10
-77.2481
 20
-101.0428
 30
0.0
 10
-74.8732
 20
-105.1882
 30
0.0
 10
-74.8732
 20
-105.1882
 30
0.0
 10
-74.0916
 20
-106.5522
 30
0.0
 10
-73.3637
 20
-106.0803
 30
0.0
 10
-73.3707
 20
-105.9407
 30
0.0
 10
-73.3707
 20
-105.9407
 30
0.0
 10
-73.4726
 20
-103.8886
 30
0.0
 10
-74.1794
 20
-107.7097
 30
0.0
 10
-74.4661
 20
-104.2385
 30
0.0
 10
-74.4661
 20
-104.2385
 30
0.0
 10
-74.6383
 20
-102.1512
 30
0.0
 10
-72.0058
 20
-101.4544
 30
0.0
 10
-70.551
 20
-103.492
 30
0.0
 10
-70.551
 20
-103.492
 30
0.0
 10
-70.551
 20
-103.492
 30
0.0
 10
-70.8121
 20
-107.7032
 30
0.0
 10
-70.8121
 20
-107.7032
 30
0.0
 10
-70.8121
 20
-107.7032
 30
0.0
 10
-75.9113
 20
-112.1293
 30
0.0
 10
-82.7183
 20
-102.4082
 30
0.0
 10
-74.1734
 20
-94.5595
 30
0.0
 10
-74.1734
 20
-94.5595
 30
0.0
 10
-69.2453
 20
-90.0326
 30
0.0
 10
-61.4273
 20
-91.1174
 30
0.0
 10
-53.8196
 20
-89.148
 30
0.0
 10
-53.8196
 20
-89.148
 30
0.0
 10
-57.2984
 20
-94.8422
 30
0.0
 10
-67.9838
 20
-96.0479
 30
0.0
 10
-67.5556
 20
-105.9101
 30
0.0
 10
-67.5556
 20
-105.9101
 30
0.0
 10
-63.6386
 20
-101.6542
 30
0.0
 10
-63.0869
 20
-102.1281
 30
0.0
 10
-58.8465
 20
-98.841
 30
0.0
 10
-58.8465
 20
-98.841
 30
0.0
 10
-55.8461
 20
-96.5158
 30
0.0
 10
-54.9676
 20
-91.1063
 30
0.0
 10
-52.165
 20
-89.6611
 30
0.0
 10
-52.165
 20
-89.6611
 30
0.0
 10
-56.4059
 20
-98.6282
 30
0.0
 10
-58.7888
 20
-98.4731
 30
0.0
 10
-63.2084
 20
-104.6802
 30
0.0
 10
-63.2084
 20
-104.6802
 30
0.0
 10
-65.8448
 20
-108.3824
 30
0.0
 10
-71.0068
 20
-118.469
 30
0.0
 10
-67.0782
 20
-124.0687
 30
0.0
 10
-67.0782
 20
-124.0687
 30
0.0
 10
-63.7847
 20
-117.7797
 30
0.0
 10
-64.3208
 20
-119.482
 30
0.0
 10
-60.9047
 20
-115.0514
 30
0.0
 10
-60.9047
 20
-115.0514
 30
0.0
 10
-57.9194
 20
-111.179
 30
0.0
 10
-59.09
 20
-107.2384
 30
0.0
 10
-57.2838
 20
-103.6446
 30
0.0
 10
-57.2838
 20
-103.6446
 30
0.0
 10
-57.1598
 20
-108.0632
 30
0.0
 10
-56.5575
 20
-108.7735
 30
0.0
 10
-56.0434
 20
-112.1203
 30
0.0
 10
-56.0434
 20
-112.1203
 30
0.0
 10
-55.7608
 20
-113.9651
 30
0.0
 10
-57.3672
 20
-116.9841
 30
0.0
 10
-57.1418
 20
-119.8485
 30
0.0
 10
-57.1418
 20
-119.8485
 30
0.0
 10
-56.7678
 20
-124.6008
 30
0.0
 10
-52.4225
 20
-128.9777
 30
0.0
 10
-47.6832
 20
-129.2332
 30
0.0
 10
-47.6832
 20
-129.2332
 30
0.0
 10
-47.6832
 20
-129.2332
 30
0.0
 10
-55.2111
 20
-113.8893
 30
0.0
 10
-55.2111
 20
-113.8893
 30
0.0
 10
-55.2111
 20
-113.8893
 30
0.0
 10
-55.2111
 20
-113.8893
 30
0.0
 10
-46.1657
 20
-118.5679
 30
0.0
 10
-46.1657
 20
-118.5679
 30
0.0
 10
-46.1657
 20
-118.5679
 30
0.0
 10
-45.7877
 20
-125.6967
 30
0.0
 10
-40.4876
 20
-127.5932
 30
0.0
 10
-33.5707
 20
-128.4381
 30
0.0
 10
-33.5707
 20
-128.4381
 30
0.0
 10
-36.6956
 20
-120.4549
 30
0.0
 10
-41.5679
 20
-122.1416
 30
0.0
 10
-44.738
 20
-118.6557
 30
0.0
 10
-44.738
 20
-118.6557
 30
0.0
 10
-29.8409
 20
-118.5538
 30
0.0
 10
-30.997
 20
-97.3446
 30
0.0
 10
-43.1758
 20
-98.3747
 30
0.0
 10
-43.1758
 20
-98.3747
 30
0.0
 10
-50.1229
 20
-98.962
 30
0.0
 10
-50.8628
 20
-107.9427
 30
0.0
 10
-45.6647
 20
-108.7529
 30
0.0
 10
-45.6647
 20
-108.7529
 30
0.0
 10
-42.3515
 20
-109.2689
 30
0.0
 10
-39.9751
 20
-105.6812
 30
0.0
 10
-42.3515
 20
-103.6336
 30
0.0
 10
-42.3515
 20
-103.6336
 30
0.0
 10
-42.7381
 20
-103.3002
 30
0.0
 10
-43.1783
 20
-103.0502
 30
0.0
 10
-43.7576
 20
-103.2094
 30
0.0
 10
-43.7576
 20
-103.2094
 30
0.0
 10
-45.9574
 20
-103.8118
 30
0.0
 10
-43.7526
 20
-103.5487
 30
0.0
 10
-43.4604
 20
-103.8961
 30
0.0
 10
-43.4604
 20
-103.8961
 30
0.0
 10
-40.7853
 20
-107.0717
 30
0.0
 10
-43.086
 20
-104.752
 30
0.0
 10
-43.1101
 20
-107.3865
 30
0.0
 10
-43.1101
 20
-107.3865
 30
0.0
 10
-43.1101
 20
-107.3865
 30
0.0
 10
-46.8379
 20
-106.9291
 30
0.0
 10
-46.8379
 20
-106.9291
 30
0.0
 10
-46.8379
 20
-106.9291
 30
0.0
 10
-50.4557
 20
-103.5322
 30
0.0
 10
-44.6989
 20
-97.4269
 30
0.0
 10
-39.1644
 20
-100.5076
 30
0.0
 10
-39.1644
 20
-100.5076
 30
0.0
 10
-34.9943
 20
-102.8294
 30
0.0
 10
-34.1384
 20
-109.0124
 30
0.0
 10
-37.2217
 20
-113.6709
 30
0.0
 10
-37.2217
 20
-113.6709
 30
0.0
 10
-41.5534
 20
-120.2164
 30
0.0
 10
-57.4455
 20
-118.0368
 30
0.0
 10
-55.5058
 20
-102.5754
 30
0.0
 10
-55.5058
 20
-102.5754
 30
0.0
 10
-54.1208
 20
-91.537
 30
0.0
 10
-48.1159
 20
-86.0241
 30
0.0
 10
-40.1071
 20
-81.8792
 30
0.0
  0
SPLINE
  5
75
330
1F
100
AcDbEntity
  8
Layer 1
100
AcDbSpline
210
0.0
220
0.0
230
1.0
 70
    11
 71
     3
 72
   140
 73
   136
 74
     0
 42
0.000000001
 43
0.0000000001
 40
0.0
 40
0.0
 40
0.0
 40
0.0
 40
0.0285714285714286
 40
0.0285714285714286
 40
0.0285714285714286
 40
0.0285714285714286
 40
0.0571428571428571
 40
0.0571428571428571
 40
0.0571428571428571
 40
0.0571428571428571
 40
0.0857142857142857
 40
0.0857142857142857
 40
0.0857142857142857
 40
0.0857142857142857
 40
0.1142857142857143
 40
0.1142857142857143
 40
0.1142857142857143
 40
0.1142857142857143
 40
0.1428571428571428
 40
0.1428571428571428
 40
0.1428571428571428
 40
0.1428571428571428
 40
0.1714285714285714
 40
0.1714285714285714
 40
0.1714285714285714
 40
0.1714285714285714
 40
0.2
 40
0.2
 40
0.2
 40
0.2
 40
0.2285714285714286
 40
0.2285714285714286
 40
0.2285714285714286
 40
0.2285714285714286
 40
0.2571428571428571
 40
0.2571428571428571
 40
0.2571428571428571
 40
0.2571428571428571
 40
0.2857142857142857
 40
0.2857142857142857
 40
0.2857142857142857
 40
0.2857142857142857
 40
0.3142857142857143
 40
0.3142857142857143
 40
0.3142857142857143
 40
0.3142857142857143
 40
0.3428571428571429
 40
0.3428571428571429
 40
0.3428571428571429
 40
0.3428571428571429
 40
0.3714285714285714
 40
0.3714285714285714
 40
0.3714285714285714
 40
0.3714285714285714
 40
0.4
 40
0.4
 40
0.4
 40
0.4
 40
0.4285714285714285
 40
0.4285714285714285
 40
0.4285714285714285
 40
0.4285714285714285
 40
0.4571428571428571
 40
0.4571428571428571
 40
0.4571428571428571
 40
0.4571428571428571
 40
0.4857142857142857
 40
0.4857142857142857
 40
0.4857142857142857
 40
0.4857142857142857
 40
0.5142857142857142
 40
0.5142857142857142
 40
0.5142857142857142
 40
0.5142857142857142
 40
0.5428571428571428
 40
0.5428571428571428
 40
0.5428571428571428
 40
0.5428571428571428
 40
0.5714285714285714
 40
0.5714285714285714
 40
0.5714285714285714
 40
0.5714285714285714
 40
0.6
 40
0.6
 40
0.6
 40
0.6
 40
0.6285714285714286
 40
0.6285714285714286
 40
0.6285714285714286
 40
0.6285714285714286
 40
0.6571428571428571
 40
0.6571428571428571
 40
0.6571428571428571
 40
0.6571428571428571
 40
0.6857142857142857
 40
0.6857142857142857
 40
0.6857142857142857
 40
0.6857142857142857
 40
0.7142857142857143
 40
0.7142857142857143
 40
0.7142857142857143
 40
0.7142857142857143
 40
0.7428571428571429
 40
0.7428571428571429
 40
0.7428571428571429
 40
0.7428571428571429
 40
0.7714285714285715
 40
0.7714285714285715
 40
0.7714285714285715
 40
0.7714285714285715
 40
0.8
 40
0.8
 40
0.8
 40
0.8
 40
0.8285714285714286
 40
0.8285714285714286
 40
0.8285714285714286
 40
0.8285714285714286
 40
0.8571428571428571
 40
0.8571428571428571
 40
0.8571428571428571
 40
0.8571428571428571
 40
0.8857142857142857
 40
0.8857142857142857
 40
0.8857142857142857
 40
0.8857142857142857
 40
0.9142857142857143
 40
0.9142857142857143
 40
0.9142857142857143
 40
0.9142857142857143
 40
0.9428571428571428
 40
0.9428571428571428
 40
0.9428571428571428
 40
0.9428571428571428
 40
1.0
 40
1.0
 40
1.0
 40
1.0
 10
36.0869
 20
-75.6339
 30
0.0
 10
40.8263
 20
-81.3024
 30
0.0
 10
41.6084
 20
-78.4049
 30
0.0
 10
43.1655
 20
-89.1857
 30
0.0
 10
43.1655
 20
-89.1857
 30
0.0
 10
44.0947
 20
-95.6172
 30
0.0
 10
45.8166
 20
-100.0624
 30
0.0
 10
43.4933
 20
-106.3318
 30
0.0
 10
43.4933
 20
-106.3318
 30
0.0
 10
46.937
 20
-104.5447
 30
0.0
 10
48.7025
 20
-97.0795
 30
0.0
 10
48.308
 20
-91.5797
 30
0.0
 10
48.308
 20
-91.5797
 30
0.0
 10
47.7523
 20
-83.8354
 30
0.0
 10
43.1781
 20
-82.8721
 30
0.0
 10
41.2484
 20
-79.0309
 30
0.0
 10
41.2484
 20
-79.0309
 30
0.0
 10
47.8557
 20
-82.0273
 30
0.0
 10
56.1732
 20
-93.7865
 30
0.0
 10
53.6607
 20
-105.4834
 30
0.0
 10
53.6607
 20
-105.4834
 30
0.0
 10
51.0714
 20
-106.6064
 30
0.0
 10
49.0153
 20
-104.5427
 30
0.0
 10
43.3387
 20
-108.3739
 30
0.0
 10
43.3387
 20
-108.3739
 30
0.0
 10
39.3399
 20
-111.0726
 30
0.0
 10
38.4021
 20
-111.0264
 30
0.0
 10
34.4123
 20
-113.1338
 30
0.0
 10
34.4123
 20
-113.1338
 30
0.0
 10
42.0647
 20
-115.5368
 30
0.0
 10
50.329
 20
-114.0073
 30
0.0
 10
53.0031
 20
-107.8624
 30
0.0
 10
53.0031
 20
-107.8624
 30
0.0
 10
52.0162
 20
-116.5067
 30
0.0
 10
40.884
 20
-124.385
 30
0.0
 10
30.8973
 20
-118.8806
 30
0.0
 10
30.8973
 20
-118.8806
 30
0.0
 10
27.4908
 20
-117.0032
 30
0.0
 10
23.6546
 20
-112.9993
 30
0.0
 10
24.7218
 20
-106.8252
 30
0.0
 10
24.7218
 20
-106.8252
 30
0.0
 10
26.1118
 20
-98.7843
 30
0.0
 10
34.8435
 20
-100.6849
 30
0.0
 10
32.8692
 20
-105.5572
 30
0.0
 10
32.8692
 20
-105.5572
 30
0.0
 10
32.8692
 20
-105.5572
 30
0.0
 10
29.8793
 20
-105.3378
 30
0.0
 10
29.8793
 20
-105.3378
 30
0.0
 10
29.8793
 20
-105.3378
 30
0.0
 10
30.9656
 20
-109.0817
 30
0.0
 10
35.854
 20
-106.269
 30
0.0
 10
34.5252
 20
-102.5232
 30
0.0
 10
34.5252
 20
-102.5232
 30
0.0
 10
33.5348
 20
-99.7301
 30
0.0
 10
29.4938
 20
-98.8109
 30
0.0
 10
26.4517
 20
-100.8334
 30
0.0
 10
26.4517
 20
-100.8334
 30
0.0
 10
17.3802
 20
-106.8649
 30
0.0
 10
23.2038
 20
-126.1625
 30
0.0
 10
41.6515
 20
-122.0115
 30
0.0
 10
41.6515
 20
-122.0115
 30
0.0
 10
50.0173
 20
-120.1291
 30
0.0
 10
49.7904
 20
-115.8174
 30
0.0
 10
53.6974
 20
-110.9361
 30
0.0
 10
53.6974
 20
-110.9361
 30
0.0
 10
53.0453
 20
-114.6614
 30
0.0
 10
51.3415
 20
-116.4856
 30
0.0
 10
52.6025
 20
-120.9473
 30
0.0
 10
52.6025
 20
-120.9473
 30
0.0
 10
54.0272
 20
-125.9853
 30
0.0
 10
54.6421
 20
-123.6566
 30
0.0
 10
54.1647
 20
-130.1298
 30
0.0
 10
54.1647
 20
-130.1298
 30
0.0
 10
61.785
 20
-121.3715
 30
0.0
 10
55.2832
 20
-118.473
 30
0.0
 10
55.8509
 20
-108.7434
 30
0.0
 10
55.8509
 20
-108.7434
 30
0.0
 10
59.5596
 20
-118.4318
 30
0.0
 10
58.9276
 20
-126.2544
 30
0.0
 10
72.2967
 20
-127.9757
 30
0.0
 10
72.2967
 20
-127.9757
 30
0.0
 10
68.579
 20
-118.9032
 30
0.0
 10
56.8328
 20
-112.0404
 30
0.0
 10
56.4915
 20
-104.9131
 30
0.0
 10
56.4915
 20
-104.9131
 30
0.0
 10
59.6656
 20
-108.271
 30
0.0
 10
59.274
 20
-111.7041
 30
0.0
 10
64.565
 20
-115.7959
 30
0.0
 10
64.565
 20
-115.7959
 30
0.0
 10
67.8039
 20
-118.3008
 30
0.0
 10
74.4965
 20
-121.0131
 30
0.0
 10
78.6946
 20
-117.7918
 30
0.0
 10
78.6946
 20
-117.7918
 30
0.0
 10
82.4947
 20
-114.8757
 30
0.0
 10
82.1519
 20
-106.2931
 30
0.0
 10
76.2474
 20
-106.8398
 30
0.0
 10
76.2474
 20
-106.8398
 30
0.0
 10
74.0412
 20
-107.0441
 30
0.0
 10
71.5869
 20
-109.6264
 30
0.0
 10
73.3128
 20
-112.1584
 30
0.0
 10
73.3128
 20
-112.1584
 30
0.0
 10
74.6636
 20
-114.1398
 30
0.0
 10
79.0651
 20
-113.0128
 30
0.0
 10
77.4291
 20
-110.3025
 30
0.0
 10
77.4291
 20
-110.3025
 30
0.0
 10
77.4241
 20
-110.3041
 30
0.0
 10
71.9499
 20
-115.8159
 30
0.0
 10
74.0748
 20
-109.546
 30
0.0
 10
74.0748
 20
-109.546
 30
0.0
 10
74.887
 20
-107.1495
 30
0.0
 10
78.3081
 20
-107.8744
 30
0.0
 10
79.3517
 20
-109.5335
 30
0.0
 10
79.3517
 20
-109.5335
 30
0.0
 10
81.9641
 20
-113.6865
 30
0.0
 10
77.6384
 20
-118.1944
 30
0.0
 10
72.4805
 20
-117.6201
 30
0.0
 10
72.4805
 20
-117.6201
 30
0.0
 10
64.9214
 20
-116.7793
 30
0.0
 10
57.7615
 20
-108.275
 30
0.0
 10
55.859
 20
-100.9072
 30
0.0
 10
55.859
 20
-100.9072
 30
0.0
 10
55.859
 20
-100.9072
 30
0.0
 10
54.0156
 20
-109.7689
 30
0.0
 10
54.0156
 20
-109.7689
 30
0.0
 10
54.0156
 20
-109.7689
 30
0.0
 10
55.5854
 20
-96.0203
 30
0.0
 10
55.4323
 20
-94.7076
 30
0.0
 10
49.32
 20
-84.2817
 30
0.0
 10
49.32
 20
-84.2817
 30
0.0
 10
54.0693
 20
-88.136
 30
0.0
 10
58.5587
 20
-96.2096
 30
0.0
 10
60.2303
 20
-104.0833
 30
0.0
 10
60.2303
 20
-104.0833
 30
0.0
 10
64.2392
 20
-88.5788
 30
0.0
 10
48.3572
 20
-78.1127
 30
0.0
 10
36.0869
 20
-75.6339
 30
0.0
  0
SPLINE
  5
76
330
1F
100
AcDbEntity
  8
Layer 1
100
AcDbSpline
210
0.0
220
0.0
230
1.0
 70
    11
 71
     3
 72
    16
 73
    12
 74
     0
 42
0.000000001
 43
0.0000000001
 40
0.0
 40
0.0
 40
0.0
 40
0.0
 40
0.25
 40
0.25
 40
0.25
 40
0.25
 40
0.5
 40
0.5
 40
0.5
 40
0.5
 40
1.0
 40
1.0
 40
1.0
 40
1.0
 10
0.4173
 20
-50.7571
 30
0.0
 10
0.7657
 20
-49.2647
 30
0.0
 10
2.2194
 20
-31.2305
 30
0.0
 10
5.6867
 20
-31.4605
 30
0.0
 10
5.6867
 20
-31.4605
 30
0.0
 10
6.6576
 20
-34.5497
 30
0.0
 10
5.6029
 20
-39.4758
 30
0.0
 10
4.7455
 20
-42.5836
 30
0.0
 10
4.7455
 20
-42.5836
 30
0.0
 10
4.0151
 20
-45.2321
 30
0.0
 10
2.6236
 20
-48.9404
 30
0.0
 10
0.4173
 20
-50.7571
 30
0.0
  0
SPLINE
  5
77
330
1F
100
AcDbEntity
  8
Layer 1
100
AcDbSpline
210
0.0
220
0.0
230
1.0
 70
    11
 71
     3
 72
   136
 73
   132
 74
     0
 42
0.000000001
 43
0.0000000001
 40
0.0
 40
0.0
 40
0.0
 40
0.0
 40
0.0294117647058824
 40
0.0294117647058824
 40
0.0294117647058824
 40
0.0294117647058824
 40
0.0588235294117647
 40
0.0588235294117647
 40
0.0588235294117647
 40
0.0588235294117647
 40
0.0882352941176471
 40
0.0882352941176471
 40
0.0882352941176471
 40
0.0882352941176471
 40
0.1176470588235294
 40
0.1176470588235294
 40
0.1176470588235294
 40
0.1176470588235294
 40
0.1470588235294118
 40
0.1470588235294118
 40
0.1470588235294118
 40
0.1470588235294118
 40
0.1764705882352941
 40
0.1764705882352941
 40
0.1764705882352941
 40
0.1764705882352941
 40
0.2058823529411765
 40
0.2058823529411765
 40
0.2058823529411765
 40
0.2058823529411765
 40
0.2352941176470588
 40
0.2352941176470588
 40
0.2352941176470588
 40
0.2352941176470588
 40
0.2647058823529412
 40
0.2647058823529412
 40
0.2647058823529412
 40
0.2647058823529412
 40
0.2941176470588235
 40
0.2941176470588235
 40
0.2941176470588235
 40
0.2941176470588235
 40
0.3235294117647059
 40
0.3235294117647059
 40
0.3235294117647059
 40
0.3235294117647059
 40
0.3529411764705883
 40
0.3529411764705883
 40
0.3529411764705883
 40
0.3529411764705883
 40
0.3823529411764706
 40
0.3823529411764706
 40
0.3823529411764706
 40
0.3823529411764706
 40
0.4117647058823529
 40
0.4117647058823529
 40
0.4117647058823529
 40
0.4117647058823529
 40
0.4411764705882353
 40
0.4411764705882353
 40
0.4411764705882353
 40
0.4411764705882353
 40
0.4705882352941176
 40
0.4705882352941176
 40
0.4705882352941176
 40
0.4705882352941176
 40
0.5
 40
0.5
 40
0.5
 40
0.5
 40
0.5294117647058824
 40
0.5294117647058824
 40
0.5294117647058824
 40
0.5294117647058824
 40
0.5588235294117647
 40
0.5588235294117647
 40
0.5588235294117647
 40
0.5588235294117647
 40
0.5882352941176471
 40
0.5882352941176471
 40
0.5882352941176471
 40
0.5882352941176471
 40
0.6176470588235294
 40
0.6176470588235294
 40
0.6176470588235294
 40
0.6176470588235294
 40
0.6470588235294118
 40
0.6470588235294118
 40
0.6470588235294118
 40
0.6470588235294118
 40
0.6764705882352942
 40
0.6764705882352942
 40
0.6764705882352942
 40
0.6764705882352942
 40
0.7058823529411765
 40
0.7058823529411765
 40
0.7058823529411765
 40
0.7058823529411765
 40
0.7352941176470589
 40
0.7352941176470589
 40
0.7352941176470589
 40
0.7352941176470589
 40
0.7647058823529411
 40
0.7647058823529411
 40
0.7647058823529411
 40
0.7647058823529411
 40
0.7941176470588235
 40
0.7941176470588235
 40
0.7941176470588235
 40
0.7941176470588235
 40
0.8235294117647058
 40
0.8235294117647058
 40
0.8235294117647058
 40
0.8235294117647058
 40
0.8529411764705882
 40
0.8529411764705882
 40
0.8529411764705882
 40
0.8529411764705882
 40
0.8823529411764706
 40
0.8823529411764706
 40
0.8823529411764706
 40
0.8823529411764706
 40
0.9117647058823529
 40
0.9117647058823529
 40
0.9117647058823529
 40
0.9117647058823529
 40
0.9411764705882353
 40
0.9411764705882353
 40
0.9411764705882353
 40
0.9411764705882353
 40
1.0
 40
1.0
 40
1.0
 40
1.0
 10
-21.9194
 20
-32.8048
 30
0.0
 10
-25.1603
 20
-28.1945
 30
0.0
 10
-29.3414
 20
-38.1309
 30
0.0
 10
-22.0529
 20
-37.8679
 30
0.0
 10
-22.0529
 20
-37.8679
 30
0.0
 10
-16.7679
 20
-37.6771
 30
0.0
 10
-16.7519
 20
-30.6784
 30
0.0
 10
-19.9195
 20
-28.5599
 30
0.0
 10
-19.9195
 20
-28.5599
 30
0.0
 10
-27.3967
 20
-23.5596
 30
0.0
 10
-36.1359
 20
-36.2339
 30
0.0
 10
-27.5166
 20
-43.3888
 30
0.0
 10
-27.5166
 20
-43.3888
 30
0.0
 10
-19.8522
 20
-49.7506
 30
0.0
 10
-10.3173
 20
-45.4219
 30
0.0
 10
-5.186
 20
-40.7157
 30
0.0
 10
-5.186
 20
-40.7157
 30
0.0
 10
1.7014
 20
-34.3991
 30
0.0
 10
2.6497
 20
-30.21
 30
0.0
 10
3.6888
 20
-18.5266
 30
0.0
 10
3.6888
 20
-18.5266
 30
0.0
 10
6.6219
 20
-29.1799
 30
0.0
 10
4.998
 20
-26.4571
 30
0.0
 10
0.5845
 20
-34.5688
 30
0.0
 10
0.5845
 20
-34.5688
 30
0.0
 10
-2.2468
 20
-39.773
 30
0.0
 10
-1.9059
 20
-47.9058
 30
0.0
 10
-2.2839
 20
-54.2896
 30
0.0
 10
-2.2839
 20
-54.2896
 30
0.0
 10
7.4226
 20
-45.6784
 30
0.0
 10
8.0727
 20
-44.3095
 30
0.0
 10
7.0767
 20
-27.3777
 30
0.0
 10
7.0767
 20
-27.3777
 30
0.0
 10
9.2152
 20
-36.1466
 30
0.0
 10
12.5565
 20
-45.5057
 30
0.0
 10
6.1541
 20
-53.7625
 30
0.0
 10
6.1541
 20
-53.7625
 30
0.0
 10
-3.3165
 20
-65.9755
 30
0.0
 10
-16.5054
 20
-55.0547
 30
0.0
 10
-9.9966
 20
-49.8766
 30
0.0
 10
-9.9966
 20
-49.8766
 30
0.0
 10
-9.9966
 20
-49.8766
 30
0.0
 10
-7.09
 20
-50.481
 30
0.0
 10
-7.09
 20
-50.481
 30
0.0
 10
-7.09
 20
-50.481
 30
0.0
 10
-5.4209
 20
-45.0745
 30
0.0
 10
-14.144
 20
-47.1528
 30
0.0
 10
-13.122
 20
-54.4066
 30
0.0
 10
-13.122
 20
-54.4066
 30
0.0
 10
-12.4618
 20
-59.0892
 30
0.0
 10
-8.1261
 20
-61.5981
 30
0.0
 10
-2.5159
 20
-60.8843
 30
0.0
 10
-2.5159
 20
-60.8843
 30
0.0
 10
2.6763
 20
-60.2232
 30
0.0
 10
5.7249
 20
-57.2298
 30
0.0
 10
7.7032
 20
-54.0351
 30
0.0
 10
7.7032
 20
-54.0351
 30
0.0
 10
10.5942
 20
-49.3681
 30
0.0
 10
10.2072
 20
-42.9918
 30
0.0
 10
11.4391
 20
-40.7654
 30
0.0
 10
11.4391
 20
-40.7654
 30
0.0
 10
12.5309
 20
-51.5357
 30
0.0
 10
12.057
 20
-52.3243
 30
0.0
 10
5.8027
 20
-57.649
 30
0.0
 10
5.8027
 20
-57.649
 30
0.0
 10
1.5056
 20
-61.307
 30
0.0
 10
0.4836
 20
-66.3736
 30
0.0
 10
-4.5238
 20
-69.6361
 30
0.0
 10
-4.5238
 20
-69.6361
 30
0.0
 10
1.35
 20
-69.7676
 30
0.0
 10
7.6631
 20
-62.5605
 30
0.0
 10
8.3644
 20
-58.1605
 30
0.0
 10
8.3644
 20
-58.1605
 30
0.0
 10
7.9402
 20
-64.5785
 30
0.0
 10
2.115
 20
-76.3231
 30
0.0
 10
13.3562
 20
-78.6805
 30
0.0
 10
13.3562
 20
-78.6805
 30
0.0
 10
18.0398
 20
-79.6629
 30
0.0
 10
21.9764
 20
-77.0751
 30
0.0
 10
22.6777
 20
-73.1124
 30
0.0
 10
22.6777
 20
-73.1124
 30
0.0
 10
24.0225
 20
-65.5157
 30
0.0
 10
14.5504
 20
-66.9991
 30
0.0
 10
16.6513
 20
-70.5
 30
0.0
 10
16.6513
 20
-70.5
 30
0.0
 10
16.8149
 20
-70.4337
 30
0.0
 10
22.4543
 20
-65.338
 30
0.0
 10
21.7726
 20
-72.2509
 30
0.0
 10
21.7726
 20
-72.2509
 30
0.0
 10
21.0563
 20
-79.5158
 30
0.0
 10
5.0181
 20
-80.6669
 30
0.0
 10
8.7705
 20
-62.7522
 30
0.0
 10
8.7705
 20
-62.7522
 30
0.0
 10
11.4627
 20
-49.8977
 30
0.0
 10
17.4017
 20
-48.6588
 30
0.0
 10
8.3352
 20
-26.9847
 30
0.0
 10
8.3352
 20
-26.9847
 30
0.0
 10
9.417
 20
-28.6839
 30
0.0
 10
14.3466
 20
-34.858
 30
0.0
 10
16.2813
 20
-28.9796
 30
0.0
 10
16.2813
 20
-28.9796
 30
0.0
 10
15.7768
 20
-27.5218
 30
0.0
 10
7.9462
 20
-25.6649
 30
0.0
 10
6.5727
 20
-22.4783
 30
0.0
 10
6.5727
 20
-22.4783
 30
0.0
 10
4.9212
 20
-18.6461
 30
0.0
 10
4.4167
 20
-13.7697
 30
0.0
 10
2.3204
 20
-10.318
 30
0.0
 10
2.3204
 20
-10.318
 30
0.0
 10
2.3841
 20
-14.2064
 30
0.0
 10
0.0277
 20
-31.8776
 30
0.0
 10
-1.3382
 20
-34.359
 30
0.0
 10
-1.3382
 20
-34.359
 30
0.0
 10
-3.8642
 20
-38.9477
 30
0.0
 10
-11.5296
 20
-45.6237
 30
0.0
 10
-19.8567
 20
-44.7146
 30
0.0
 10
-19.8567
 20
-44.7146
 30
0.0
 10
-30.5211
 20
-43.551
 30
0.0
 10
-31.8062
 20
-31.6201
 30
0.0
 10
-25.5819
 20
-29.1965
 30
0.0
 10
-25.5819
 20
-29.1965
 30
0.0
 10
-20.0871
 20
-27.0575
 30
0.0
 10
-17.0958
 20
-32.987
 30
0.0
 10
-19.8743
 20
-35.8258
 30
0.0
 10
-19.8743
 20
-35.8258
 30
0.0
 10
-20.9516
 20
-36.9267
 30
0.0
 10
-24.2301
 20
-37.4056
 30
0.0
 10
-24.8546
 20
-35.1381
 30
0.0
 10
-24.8546
 20
-35.1381
 30
0.0
 10
-25.9012
 20
-31.3345
 30
0.0
 10
-22.7668
 20
-34.3449
 30
0.0
 10
-21.9194
 20
-32.8048
 30
0.0
  0
SPLINE
  5
78
330
1F
100
AcDbEntity
  8
Layer 1
100
AcDbSpline
210
0.0
220
0.0
230
1.0
 70
    11
 71
     3
 72
   100
 73
    96
 74
     0
 42
0.000000001
 43
0.0000000001
 40
0.0
 40
0.0
 40
0.0
 40
0.0
 40
0.04
 40
0.04
 40
0.04
 40
0.04
 40
0.08
 40
0.08
 40
0.08
 40
0.08
 40
0.12
 40
0.12
 40
0.12
 40
0.12
 40
0.16
 40
0.16
 40
0.16
 40
0.16
 40
0.2
 40
0.2
 40
0.2
 40
0.2
 40
0.24
 40
0.24
 40
0.24
 40
0.24
 40
0.28
 40
0.28
 40
0.28
 40
0.28
 40
0.32
 40
0.32
 40
0.32
 40
0.32
 40
0.36
 40
0.36
 40
0.36
 40
0.36
 40
0.4
 40
0.4
 40
0.4
 40
0.4
 40
0.44
 40
0.44
 40
0.44
 40
0.44
 40
0.48
 40
0.48
 40
0.48
 40
0.48
 40
0.52
 40
0.52
 40
0.52
 40
0.52
 40
0.56
 40
0.56
 40
0.56
 40
0.56
 40
0.6
 40
0.6
 40
0.6
 40
0.6
 40
0.64
 40
0.64
 40
0.64
 40
0.64
 40
0.68
 40
0.68
 40
0.68
 40
0.68
 40
0.72
 40
0.72
 40
0.72
 40
0.72
 40
0.76
 40
0.76
 40
0.76
 40
0.76
 40
0.8
 40
0.8
 40
0.8
 40
0.8
 40
0.84
 40
0.84
 40
0.84
 40
0.84
 40
0.88
 40
0.88
 40
0.88
 40
0.88
 40
0.92
 40
0.92
 40
0.92
 40
0.92
 40
1.0
 40
1.0
 40
1.0
 40
1.0
 10
-24.1628
 20
-92.0551
 30
0.0
 10
-24.1628
 20
-92.0551
 30
0.0
 10
-24.4495
 20
-82.5654
 30
0.0
 10
-24.4495
 20
-82.5654
 30
0.0
 10
-24.4495
 20
-82.5654
 30
0.0
 10
-27.1587
 20
-84.9027
 30
0.0
 10
-27.7214
 20
-88.8659
 30
0.0
 10
-25.8761
 20
-92.4406
 30
0.0
 10
-25.8761
 20
-92.4406
 30
0.0
 10
-23.7773
 20
-96.5053
 30
0.0
 10
-25.3008
 20
-92.4768
 30
0.0
 10
-24.1874
 20
-93.158
 30
0.0
 10
-24.1874
 20
-93.158
 30
0.0
 10
-25.0192
 20
-101.4695
 30
0.0
 10
-25.1216
 20
-113.6032
 30
0.0
 10
-31.4101
 20
-116.5544
 30
0.0
 10
-31.4101
 20
-116.5544
 30
0.0
 10
-25.2953
 20
-110.6514
 30
0.0
 10
-23.826
 20
-98.3626
 30
0.0
 10
-28.3404
 20
-88.5773
 30
0.0
 10
-28.3404
 20
-88.5773
 30
0.0
 10
-35.0551
 20
-98.6347
 30
0.0
 10
-23.1744
 20
-104.3675
 30
0.0
 10
-31.258
 20
-114.6679
 30
0.0
 10
-31.258
 20
-114.6679
 30
0.0
 10
-28.488
 20
-108.4848
 30
0.0
 10
-29.1516
 20
-103.6014
 30
0.0
 10
-32.5787
 20
-97.7974
 30
0.0
 10
-32.5787
 20
-97.7974
 30
0.0
 10
-34.9391
 20
-104.6707
 30
0.0
 10
-28.7234
 20
-118.9966
 30
0.0
 10
-39.2487
 20
-118.8339
 30
0.0
 10
-39.2487
 20
-118.8339
 30
0.0
 10
-17.2223
 20
-121.878
 30
0.0
 10
-28.9177
 20
-90.3895
 30
0.0
 10
-16.4582
 20
-81.7271
 30
0.0
 10
-16.4582
 20
-81.7271
 30
0.0
 10
-9.482
 20
-76.8768
 30
0.0
 10
0.5573
 20
-77.055
 30
0.0
 10
2.6361
 20
-85.9343
 30
0.0
 10
2.6361
 20
-85.9343
 30
0.0
 10
5.7239
 20
-99.1257
 30
0.0
 10
-12.9081
 20
-98.7768
 30
0.0
 10
-8.0458
 20
-88.8689
 30
0.0
 10
-8.0458
 20
-88.8689
 30
0.0
 10
-8.0458
 20
-88.8689
 30
0.0
 10
-5.1167
 20
-89.7073
 30
0.0
 10
-5.1167
 20
-89.7073
 30
0.0
 10
-5.1167
 20
-89.7073
 30
0.0
 10
-5.821
 20
-83.6281
 30
0.0
 10
-13.8197
 20
-90.9216
 30
0.0
 10
-8.2185
 20
-95.9204
 30
0.0
 10
-8.2185
 20
-95.9204
 30
0.0
 10
-4.1032
 20
-99.593
 30
0.0
 10
1.4991
 20
-96.6097
 30
0.0
 10
3.2124
 20
-92.8884
 30
0.0
 10
3.2124
 20
-92.8884
 30
0.0
 10
5.4412
 20
-88.0467
 30
0.0
 10
3.7681
 20
-83.1859
 30
0.0
 10
0.9348
 20
-80.3973
 30
0.0
 10
0.9348
 20
-80.3973
 30
0.0
 10
-3.7663
 20
-75.7699
 30
0.0
 10
-5.8104
 20
-77.6067
 30
0.0
 10
-12.0387
 20
-77.6539
 30
0.0
 10
-12.0387
 20
-77.6539
 30
0.0
 10
-5.4987
 20
-75.3854
 30
0.0
 10
2.492
 20
-77.7749
 30
0.0
 10
3.5041
 20
-69.2756
 30
0.0
 10
3.5041
 20
-69.2756
 30
0.0
 10
-1.5154
 20
-72.6264
 30
0.0
 10
-1.3703
 20
-70.8112
 30
0.0
 10
-6.8506
 20
-72.64
 30
0.0
 10
-6.8506
 20
-72.64
 30
0.0
 10
-11.8966
 20
-74.3242
 30
0.0
 10
-12.3635
 20
-78.0781
 30
0.0
 10
-14.269
 20
-78.6935
 30
0.0
 10
-14.269
 20
-78.6935
 30
0.0
 10
-11.7816
 20
-71.6661
 30
0.0
 10
-11.7375
 20
-65.5689
 30
0.0
 10
-17.7639
 20
-62.1162
 30
0.0
 10
-17.7639
 20
-62.1162
 30
0.0
 10
-16.3167
 20
-66.2491
 30
0.0
 10
-17.6986
 20
-67.0352
 30
0.0
 10
-17.4261
 20
-71.0522
 30
0.0
 10
-17.4261
 20
-71.0522
 30
0.0
 10
-17.1931
 20
-74.4918
 30
0.0
 10
-14.0748
 20
-76.538
 30
0.0
 10
-15.4547
 20
-79.2041
 30
0.0
 10
-15.4547
 20
-79.2041
 30
0.0
 10
-15.7353
 20
-79.7462
 30
0.0
 10
-19.676
 20
-82.9474
 30
0.0
 10
-20.8105
 20
-84.6005
 30
0.0
 10
-20.8105
 20
-84.6005
 30
0.0
 10
-22.4234
 20
-86.9493
 30
0.0
 10
-22.9134
 20
-90.0019
 30
0.0
 10
-24.1628
 20
-92.0551
 30
0.0
  0
SPLINE
  5
79
330
1F
100
AcDbEntity
  8
Layer 1
100
AcDbSpline
210
0.0
220
0.0
230
1.0
 70
    11
 71
     3
 72
   108
 73
   104
 74
     0
 42
0.000000001
 43
0.0000000001
 40
0.0
 40
0.0
 40
0.0
 40
0.0
 40
0.037037037037037
 40
0.037037037037037
 40
0.037037037037037
 40
0.037037037037037
 40
0.0740740740740741
 40
0.0740740740740741
 40
0.0740740740740741
 40
0.0740740740740741
 40
0.1111111111111111
 40
0.1111111111111111
 40
0.1111111111111111
 40
0.1111111111111111
 40
0.1481481481481481
 40
0.1481481481481481
 40
0.1481481481481481
 40
0.1481481481481481
 40
0.1851851851851852
 40
0.1851851851851852
 40
0.1851851851851852
 40
0.1851851851851852
 40
0.2222222222222222
 40
0.2222222222222222
 40
0.2222222222222222
 40
0.2222222222222222
 40
0.2592592592592592
 40
0.2592592592592592
 40
0.2592592592592592
 40
0.2592592592592592
 40
0.2962962962962963
 40
0.2962962962962963
 40
0.2962962962962963
 40
0.2962962962962963
 40
0.3333333333333333
 40
0.3333333333333333
 40
0.3333333333333333
 40
0.3333333333333333
 40
0.3703703703703703
 40
0.3703703703703703
 40
0.3703703703703703
 40
0.3703703703703703
 40
0.4074074074074074
 40
0.4074074074074074
 40
0.4074074074074074
 40
0.4074074074074074
 40
0.4444444444444444
 40
0.4444444444444444
 40
0.4444444444444444
 40
0.4444444444444444
 40
0.4814814814814815
 40
0.4814814814814815
 40
0.4814814814814815
 40
0.4814814814814815
 40
0.5185185185185185
 40
0.5185185185185185
 40
0.5185185185185185
 40
0.5185185185185185
 40
0.5555555555555556
 40
0.5555555555555556
 40
0.5555555555555556
 40
0.5555555555555556
 40
0.5925925925925926
 40
0.5925925925925926
 40
0.5925925925925926
 40
0.5925925925925926
 40
0.6296296296296297
 40
0.6296296296296297
 40
0.6296296296296297
 40
0.6296296296296297
 40
0.6666666666666666
 40
0.6666666666666666
 40
0.6666666666666666
 40
0.6666666666666666
 40
0.7037037037037037
 40
0.7037037037037037
 40
0.7037037037037037
 40
0.7037037037037037
 40
0.7407407407407407
 40
0.7407407407407407
 40
0.7407407407407407
 40
0.7407407407407407
 40
0.7777777777777778
 40
0.7777777777777778
 40
0.7777777777777778
 40
0.7777777777777778
 40
0.8148148148148148
 40
0.8148148148148148
 40
0.8148148148148148
 40
0.8148148148148148
 40
0.8518518518518519
 40
0.8518518518518519
 40
0.8518518518518519
 40
0.8518518518518519
 40
0.8888888888888888
 40
0.8888888888888888
 40
0.8888888888888888
 40
0.8888888888888888
 40
0.9259259259259259
 40
0.9259259259259259
 40
0.9259259259259259
 40
0.9259259259259259
 40
1.0
 40
1.0
 40
1.0
 40
1.0
 10
81.7116
 20
-67.2144
 30
0.0
 10
81.7116
 20
-67.2144
 30
0.0
 10
74.5828
 20
-67.1452
 30
0.0
 10
74.5828
 20
-67.1452
 30
0.0
 10
74.5828
 20
-67.1452
 30
0.0
 10
84.2723
 20
-61.2081
 30
0.0
 10
73.1371
 20
-46.8471
 30
0.0
 10
72.4252
 20
-55.2991
 30
0.0
 10
72.4252
 20
-55.2991
 30
0.0
 10
72.4252
 20
-55.2991
 30
0.0
 10
75.1159
 20
-54.4728
 30
0.0
 10
75.1159
 20
-54.4728
 30
0.0
 10
75.1159
 20
-54.4728
 30
0.0
 10
80.1072
 20
-57.3257
 30
0.0
 10
74.9201
 20
-68.6416
 30
0.0
 10
69.1994
 20
-68.6863
 30
0.0
 10
69.1994
 20
-68.6863
 30
0.0
 10
72.7114
 20
-68.1341
 30
0.0
 10
74.0196
 20
-62.9515
 30
0.0
 10
73.887
 20
-58.3874
 30
0.0
 10
73.887
 20
-58.3874
 30
0.0
 10
73.887
 20
-58.3874
 30
0.0
 10
61.4607
 20
-70.9247
 30
0.0
 10
61.4607
 20
-70.9247
 30
0.0
 10
61.4607
 20
-70.9247
 30
0.0
 10
65.6589
 20
-65.5142
 30
0.0
 10
64.4174
 20
-66.5925
 30
0.0
 10
66.6262
 20
-59.3336
 30
0.0
 10
66.6262
 20
-59.3336
 30
0.0
 10
64.0174
 20
-61.2141
 30
0.0
 10
61.3292
 20
-61.8833
 30
0.0
 10
59.7233
 20
-64.3968
 30
0.0
 10
59.7233
 20
-64.3968
 30
0.0
 10
57.7359
 20
-67.5081
 30
0.0
 10
58.3338
 20
-69.9985
 30
0.0
 10
55.9985
 20
-73.6103
 30
0.0
 10
55.9985
 20
-73.6103
 30
0.0
 10
61.2679
 20
-72.7585
 30
0.0
 10
63.7648
 20
-69.2862
 30
0.0
 10
70.9559
 20
-70.2851
 30
0.0
 10
70.9559
 20
-70.2851
 30
0.0
 10
76.1445
 20
-71.006
 30
0.0
 10
79.5144
 20
-74.4411
 30
0.0
 10
80.038
 20
-80.0133
 30
0.0
 10
80.038
 20
-80.0133
 30
0.0
 10
80.5786
 20
-85.7701
 30
0.0
 10
76.7203
 20
-90.5441
 30
0.0
 10
71.9117
 20
-90.6038
 30
0.0
 10
71.9117
 20
-90.6038
 30
0.0
 10
65.1614
 20
-90.6872
 30
0.0
 10
62.7438
 20
-96.5108
 30
0.0
 10
65.1037
 20
-100.9293
 30
0.0
 10
65.1037
 20
-100.9293
 30
0.0
 10
69.9439
 20
-98.2783
 30
0.0
 10
67.3636
 20
-92.6168
 30
0.0
 10
73.1722
 20
-91.0647
 30
0.0
 10
73.1722
 20
-91.0647
 30
0.0
 10
69.1382
 20
-95.1594
 30
0.0
 10
65.9249
 20
-104.7806
 30
0.0
 10
75.2826
 20
-104.5336
 30
0.0
 10
75.2826
 20
-104.5336
 30
0.0
 10
78.4401
 20
-104.4503
 30
0.0
 10
80.9998
 20
-101.5327
 30
0.0
 10
80.2483
 20
-98.0163
 30
0.0
 10
80.2483
 20
-98.0163
 30
0.0
 10
79.0244
 20
-92.2905
 30
0.0
 10
71.9182
 20
-96.6579
 30
0.0
 10
75.7941
 20
-98.5609
 30
0.0
 10
75.7941
 20
-98.5609
 30
0.0
 10
75.7941
 20
-98.5609
 30
0.0
 10
77.0632
 20
-95.9762
 30
0.0
 10
77.0632
 20
-95.9762
 30
0.0
 10
77.0632
 20
-95.9762
 30
0.0
 10
80.8266
 20
-97.3732
 30
0.0
 10
80.0721
 20
-103.1953
 30
0.0
 10
75.6967
 20
-103.3856
 30
0.0
 10
75.6967
 20
-103.3856
 30
0.0
 10
71.4599
 20
-103.5698
 30
0.0
 10
69.7205
 20
-98.9841
 30
0.0
 10
71.6768
 20
-95.0696
 30
0.0
 10
71.6768
 20
-95.0696
 30
0.0
 10
75.379
 20
-87.6616
 30
0.0
 10
80.8929
 20
-92.4943
 30
0.0
 10
80.5244
 20
-77.5896
 30
0.0
 10
80.5244
 20
-77.5896
 30
0.0
 10
80.5244
 20
-77.5896
 30
0.0
 10
84.4982
 20
-81.0012
 30
0.0
 10
84.4982
 20
-81.0012
 30
0.0
 10
84.4982
 20
-81.0012
 30
0.0
 10
82.701
 20
-77.2367
 30
0.0
 10
84.1518
 20
-74.3237
 30
0.0
 10
80.6117
 20
-72.137
 30
0.0
 10
80.6117
 20
-72.137
 30
0.0
 10
78.2122
 20
-70.6551
 30
0.0
 10
73.5612
 20
-70.9839
 30
0.0
 10
70.5829
 20
-69.4021
 30
0.0
 10
70.5829
 20
-69.4021
 30
0.0
 10
70.5829
 20
-69.4021
 30
0.0
 10
82.6544
 20
-69.6556
 30
0.0
 10
82.6544
 20
-69.6556
 30
0.0
 10
82.6544
 20
-69.6556
 30
0.0
 10
82.7814
 20
-68.5081
 30
0.0
 10
82.8115
 20
-68.9313
 30
0.0
 10
81.7116
 20
-67.2144
 30
0.0
  0
SPLINE
  5
7A
330
1F
100
AcDbEntity
  8
Layer 1
100
AcDbSpline
210
0.0
220
0.0
230
1.0
 70
    11
 71
     3
 72
    56
 73
    52
 74
     0
 42
0.000000001
 43
0.0000000001
 40
0.0
 40
0.0
 40
0.0
 40
0.0
 40
0.0714285714285714
 40
0.0714285714285714
 40
0.0714285714285714
 40
0.0714285714285714
 40
0.1428571428571428
 40
0.1428571428571428
 40
0.1428571428571428
 40
0.1428571428571428
 40
0.2142857142857143
 40
0.2142857142857143
 40
0.2142857142857143
 40
0.2142857142857143
 40
0.2857142857142857
 40
0.2857142857142857
 40
0.2857142857142857
 40
0.2857142857142857
 40
0.3571428571428572
 40
0.3571428571428572
 40
0.3571428571428572
 40
0.3571428571428572
 40
0.4285714285714285
 40
0.4285714285714285
 40
0.4285714285714285
 40
0.4285714285714285
 40
0.5
 40
0.5
 40
0.5
 40
0.5
 40
0.5714285714285714
 40
0.5714285714285714
 40
0.5714285714285714
 40
0.5714285714285714
 40
0.6428571428571429
 40
0.6428571428571429
 40
0.6428571428571429
 40
0.6428571428571429
 40
0.7142857142857143
 40
0.7142857142857143
 40
0.7142857142857143
 40
0.7142857142857143
 40
0.7857142857142857
 40
0.7857142857142857
 40
0.7857142857142857
 40
0.7857142857142857
 40
0.8571428571428571
 40
0.8571428571428571
 40
0.8571428571428571
 40
0.8571428571428571
 40
1.0
 40
1.0
 40
1.0
 40
1.0
 10
12.6278
 20
-82.3395
 30
0.0
 10
13.0495
 20
-79.3767
 30
0.0
 10
10.7574
 20
-79.3893
 30
0.0
 10
8.4673
 20
-79.9771
 30
0.0
 10
8.4673
 20
-79.9771
 30
0.0
 10
2.225
 20
-87.4162
 30
0.0
 10
12.6464
 20
-90.2941
 30
0.0
 10
21.4448
 20
-87.6054
 30
0.0
 10
21.4448
 20
-87.6054
 30
0.0
 10
18.7044
 20
-91.4698
 30
0.0
 10
10.5028
 20
-91.1625
 30
0.0
 10
5.7987
 20
-95.4767
 30
0.0
 10
5.7987
 20
-95.4767
 30
0.0
 10
1.8063
 20
-99.1382
 30
0.0
 10
-1.0395
 20
-107.0431
 30
0.0
 10
3.7771
 20
-112.169
 30
0.0
 10
3.7771
 20
-112.169
 30
0.0
 10
4.9267
 20
-99.3686
 30
0.0
 10
10.5571
 20
-100.0428
 30
0.0
 10
17.0549
 20
-95.6915
 30
0.0
 10
17.0549
 20
-95.6915
 30
0.0
 10
19.3314
 20
-94.167
 30
0.0
 10
20.74
 20
-92.2714
 30
0.0
 10
22.6927
 20
-90.9532
 30
0.0
 10
22.6927
 20
-90.9532
 30
0.0
 10
20.6978
 20
-94.9491
 30
0.0
 10
15.3948
 20
-98.5363
 30
0.0
 10
11.416
 20
-101.093
 30
0.0
 10
11.416
 20
-101.093
 30
0.0
 10
6.4206
 20
-104.3027
 30
0.0
 10
3.1592
 20
-113.2136
 30
0.0
 10
10.8618
 20
-112.8697
 30
0.0
 10
10.8618
 20
-112.8697
 30
0.0
 10
0.2436
 20
-109.5822
 30
0.0
 10
17.5639
 20
-98.1789
 30
0.0
 10
19.4052
 20
-96.3381
 30
0.0
 10
19.4052
 20
-96.3381
 30
0.0
 10
24.2053
 20
-91.5395
 30
0.0
 10
29.2051
 20
-82.602
 30
0.0
 10
25.7253
 20
-73.2087
 30
0.0
 10
25.7253
 20
-73.2087
 30
0.0
 10
25.0687
 20
-80.4339
 30
0.0
 10
24.0441
 20
-85.8223
 30
0.0
 10
17.8611
 20
-87.5637
 30
0.0
 10
17.8611
 20
-87.5637
 30
0.0
 10
10.2308
 20
-89.7128
 30
0.0
 10
6.9412
 20
-84.1316
 30
0.0
 10
9.2057
 20
-81.8807
 30
0.0
 10
9.2057
 20
-81.8807
 30
0.0
 10
12.2829
 20
-78.8215
 30
0.0
 10
8.9522
 20
-83.4795
 30
0.0
 10
12.6278
 20
-82.3395
 30
0.0
  0
SPLINE
  5
7B
330
1F
100
AcDbEntity
  8
Layer 1
100
AcDbSpline
210
0.0
220
0.0
230
1.0
 70
    11
 71
     3
 72
    84
 73
    80
 74
     0
 42
0.000000001
 43
0.0000000001
 40
0.0
 40
0.0
 40
0.0
 40
0.0
 40
0.0476190476190476
 40
0.0476190476190476
 40
0.0476190476190476
 40
0.0476190476190476
 40
0.0952380952380952
 40
0.0952380952380952
 40
0.0952380952380952
 40
0.0952380952380952
 40
0.1428571428571428
 40
0.1428571428571428
 40
0.1428571428571428
 40
0.1428571428571428
 40
0.1904761904761905
 40
0.1904761904761905
 40
0.1904761904761905
 40
0.1904761904761905
 40
0.2380952380952381
 40
0.2380952380952381
 40
0.2380952380952381
 40
0.2380952380952381
 40
0.2857142857142857
 40
0.2857142857142857
 40
0.2857142857142857
 40
0.2857142857142857
 40
0.3333333333333333
 40
0.3333333333333333
 40
0.3333333333333333
 40
0.3333333333333333
 40
0.3809523809523809
 40
0.3809523809523809
 40
0.3809523809523809
 40
0.3809523809523809
 40
0.4285714285714285
 40
0.4285714285714285
 40
0.4285714285714285
 40
0.4285714285714285
 40
0.4761904761904762
 40
0.4761904761904762
 40
0.4761904761904762
 40
0.4761904761904762
 40
0.5238095238095238
 40
0.5238095238095238
 40
0.5238095238095238
 40
0.5238095238095238
 40
0.5714285714285714
 40
0.5714285714285714
 40
0.5714285714285714
 40
0.5714285714285714
 40
0.6190476190476191
 40
0.6190476190476191
 40
0.6190476190476191
 40
0.6190476190476191
 40
0.6666666666666666
 40
0.6666666666666666
 40
0.6666666666666666
 40
0.6666666666666666
 40
0.7142857142857143
 40
0.7142857142857143
 40
0.7142857142857143
 40
0.7142857142857143
 40
0.7619047619047619
 40
0.7619047619047619
 40
0.7619047619047619
 40
0.7619047619047619
 40
0.8095238095238095
 40
0.8095238095238095
 40
0.8095238095238095
 40
0.8095238095238095
 40
0.8571428571428571
 40
0.8571428571428571
 40
0.8571428571428571
 40
0.8571428571428571
 40
0.9047619047619048
 40
0.9047619047619048
 40
0.9047619047619048
 40
0.9047619047619048
 40
1.0
 40
1.0
 40
1.0
 40
1.0
 10
-11.1205
 20
-110.0827
 30
0.0
 10
-9.85
 20
-104.8047
 30
0.0
 10
-12.0653
 20
-104.0241
 30
0.0
 10
-12.5316
 20
-100.1
 30
0.0
 10
-12.5316
 20
-100.1
 30
0.0
 10
-12.5316
 20
-100.1
 30
0.0
 10
-8.354
 20
-105.0336
 30
0.0
 10
-8.354
 20
-105.0336
 30
0.0
 10
-8.354
 20
-105.0336
 30
0.0
 10
-9.1723
 20
-107.4402
 30
0.0
 10
-12.9729
 20
-111.8622
 30
0.0
 10
-9.2752
 20
-119.1452
 30
0.0
 10
-9.2752
 20
-119.1452
 30
0.0
 10
-4.1077
 20
-116.7035
 30
0.0
 10
-5.6162
 20
-111.7086
 30
0.0
 10
-7.0604
 20
-106.3403
 30
0.0
 10
-7.0604
 20
-106.3403
 30
0.0
 10
-2.6353
 20
-108.5767
 30
0.0
 10
-0.3437
 20
-120.0844
 30
0.0
 10
-8.9253
 20
-122.0376
 30
0.0
 10
-8.9253
 20
-122.0376
 30
0.0
 10
-19.7398
 20
-124.4984
 30
0.0
 10
-21.8295
 20
-110.2584
 30
0.0
 10
-14.3754
 20
-110.5455
 30
0.0
 10
-14.3754
 20
-110.5455
 30
0.0
 10
-12.9332
 20
-112.6996
 30
0.0
 10
-14.6134
 20
-110.0445
 30
0.0
 10
-13.761
 20
-112.4907
 30
0.0
 10
-13.761
 20
-112.4907
 30
0.0
 10
-13.761
 20
-112.4907
 30
0.0
 10
-13.5256
 20
-113.0991
 30
0.0
 10
-13.5256
 20
-113.0991
 30
0.0
 10
-13.5256
 20
-113.0991
 30
0.0
 10
-11.6577
 20
-112.0731
 30
0.0
 10
-12.1998
 20
-110.6409
 30
0.0
 10
-13.644
 20
-109.7353
 30
0.0
 10
-13.644
 20
-109.7353
 30
0.0
 10
-17.4331
 20
-107.0346
 30
0.0
 10
-22.1368
 20
-113.8943
 30
0.0
 10
-18.6886
 20
-119.5799
 30
0.0
 10
-18.6886
 20
-119.5799
 30
0.0
 10
-12.9247
 20
-129.0851
 30
0.0
 10
3.0151
 20
-122.3875
 30
0.0
 10
-3.1278
 20
-109.534
 30
0.0
 10
-3.1278
 20
-109.534
 30
0.0
 10
-4.6523
 20
-106.3433
 30
0.0
 10
-8.9253
 20
-103.0653
 30
0.0
 10
-11.4052
 20
-99.1638
 30
0.0
 10
-11.4052
 20
-99.1638
 30
0.0
 10
-8.3495
 20
-101.0041
 30
0.0
 10
-8.3058
 20
-102.1652
 30
0.0
 10
-3.1268
 20
-102.5623
 30
0.0
 10
-3.1268
 20
-102.5623
 30
0.0
 10
-4.6855
 20
-98.581
 30
0.0
 10
-7.8079
 20
-96.8511
 30
0.0
 10
-13.2053
 20
-96.9811
 30
0.0
 10
-13.2053
 20
-96.9811
 30
0.0
 10
-17.5922
 20
-85.0151
 30
0.0
 10
-8.7105
 20
-83.0579
 30
0.0
 10
-5.3601
 20
-84.5553
 30
0.0
 10
-5.3601
 20
-84.5553
 30
0.0
 10
-2.5666
 20
-85.8038
 30
0.0
 10
-3.4636
 20
-87.1627
 30
0.0
 10
-2.6323
 20
-89.6224
 30
0.0
 10
-2.6323
 20
-89.6224
 30
0.0
 10
1.6632
 20
-81.0303
 30
0.0
 10
-14.2655
 20
-78.2362
 30
0.0
 10
-16.3031
 20
-88.6631
 30
0.0
 10
-16.3031
 20
-88.6631
 30
0.0
 10
-16.7318
 20
-90.8593
 30
0.0
 10
-16.519
 20
-93.0766
 30
0.0
 10
-15.7153
 20
-94.9084
 30
0.0
 10
-15.7153
 20
-94.9084
 30
0.0
 10
-14.2324
 20
-98.2878
 30
0.0
 10
-14.0672
 20
-96.2613
 30
0.0
 10
-14.8995
 20
-100.2556
 30
0.0
 10
-14.8995
 20
-100.2556
 30
0.0
 10
-15.6485
 20
-103.8494
 30
0.0
 10
-12.7445
 20
-108.0616
 30
0.0
 10
-11.1205
 20
-110.0827
 30
0.0
  0
SPLINE
  5
7C
330
1F
100
AcDbEntity
  8
Layer 1
100
AcDbSpline
210
0.0
220
0.0
230
1.0
 70
    11
 71
     3
 72
    24
 73
    20
 74
     0
 42
0.000000001
 43
0.0000000001
 40
0.0
 40
0.0
 40
0.0
 40
0.0
 40
0.1666666666666667
 40
0.1666666666666667
 40
0.1666666666666667
 40
0.1666666666666667
 40
0.3333333333333333
 40
0.3333333333333333
 40
0.3333333333333333
 40
0.3333333333333333
 40
0.5
 40
0.5
 40
0.5
 40
0.5
 40
0.6666666666666666
 40
0.6666666666666666
 40
0.6666666666666666
 40
0.6666666666666666
 40
1.0
 40
1.0
 40
1.0
 40
1.0
 10
64.7106
 20
-35.116
 30
0.0
 10
64.7201
 20
-32.6673
 30
0.0
 10
64.6002
 20
-30.4665
 30
0.0
 10
65.7628
 20
-28.7904
 30
0.0
 10
65.7628
 20
-28.7904
 30
0.0
 10
68.1352
 20
-25.3703
 30
0.0
 10
74.0447
 20
-25.1865
 30
0.0
 10
73.5628
 20
-30.6131
 30
0.0
 10
73.5628
 20
-30.6131
 30
0.0
 10
73.3022
 20
-33.5477
 30
0.0
 10
72.2049
 20
-33.9132
 30
0.0
 10
69.4826
 20
-34.1511
 30
0.0
 10
69.4826
 20
-34.1511
 30
0.0
 10
70.6833
 20
-31.8736
 30
0.0
 10
71.4795
 20
-31.1829
 30
0.0
 10
70.9981
 20
-27.8807
 30
0.0
 10
70.9981
 20
-27.8807
 30
0.0
 10
64.9912
 20
-32.4268
 30
0.0
 10
67.1643
 20
-31.8525
 30
0.0
 10
64.7106
 20
-35.116
 30
0.0
  0
SPLINE
  5
7D
330
1F
100
AcDbEntity
  8
Layer 1
100
AcDbSpline
210
0.0
220
0.0
230
1.0
 70
    11
 71
     3
 72
    92
 73
    88
 74
     0
 42
0.000000001
 43
0.0000000001
 40
0.0
 40
0.0
 40
0.0
 40
0.0
 40
0.0434782608695652
 40
0.0434782608695652
 40
0.0434782608695652
 40
0.0434782608695652
 40
0.0869565217391304
 40
0.0869565217391304
 40
0.0869565217391304
 40
0.0869565217391304
 40
0.1304347826086956
 40
0.1304347826086956
 40
0.1304347826086956
 40
0.1304347826086956
 40
0.1739130434782609
 40
0.1739130434782609
 40
0.1739130434782609
 40
0.1739130434782609
 40
0.2173913043478261
 40
0.2173913043478261
 40
0.2173913043478261
 40
0.2173913043478261
 40
0.2608695652173913
 40
0.2608695652173913
 40
0.2608695652173913
 40
0.2608695652173913
 40
0.3043478260869565
 40
0.3043478260869565
 40
0.3043478260869565
 40
0.3043478260869565
 40
0.3478260869565217
 40
0.3478260869565217
 40
0.3478260869565217
 40
0.3478260869565217
 40
0.391304347826087
 40
0.391304347826087
 40
0.391304347826087
 40
0.391304347826087
 40
0.4347826086956522
 40
0.4347826086956522
 40
0.4347826086956522
 40
0.4347826086956522
 40
0.4782608695652174
 40
0.4782608695652174
 40
0.4782608695652174
 40
0.4782608695652174
 40
0.5217391304347826
 40
0.5217391304347826
 40
0.5217391304347826
 40
0.5217391304347826
 40
0.5652173913043478
 40
0.5652173913043478
 40
0.5652173913043478
 40
0.5652173913043478
 40
0.6086956521739131
 40
0.6086956521739131
 40
0.6086956521739131
 40
0.6086956521739131
 40
0.6521739130434783
 40
0.6521739130434783
 40
0.6521739130434783
 40
0.6521739130434783
 40
0.6956521739130435
 40
0.6956521739130435
 40
0.6956521739130435
 40
0.6956521739130435
 40
0.7391304347826086
 40
0.7391304347826086
 40
0.7391304347826086
 40
0.7391304347826086
 40
0.782608695652174
 40
0.782608695652174
 40
0.782608695652174
 40
0.782608695652174
 40
0.8260869565217391
 40
0.8260869565217391
 40
0.8260869565217391
 40
0.8260869565217391
 40
0.8695652173913043
 40
0.8695652173913043
 40
0.8695652173913043
 40
0.8695652173913043
 40
0.9130434782608695
 40
0.9130434782608695
 40
0.9130434782608695
 40
0.9130434782608695
 40
1.0
 40
1.0
 40
1.0
 40
1.0
 10
65.4134
 20
-36.891
 30
0.0
 10
62.6384
 20
-38.6646
 30
0.0
 10
61.9552
 20
-42.8221
 30
0.0
 10
62.2624
 20
-47.3827
 30
0.0
 10
62.2624
 20
-47.3827
 30
0.0
 10
62.6665
 20
-53.387
 30
0.0
 10
62.0199
 20
-54.5783
 30
0.0
 10
60.8939
 20
-59.7096
 30
0.0
 10
60.8939
 20
-59.7096
 30
0.0
 10
67.7888
 20
-54.9703
 30
0.0
 10
65.6779
 20
-59.5846
 30
0.0
 10
69.2707
 20
-52.7018
 30
0.0
 10
69.2707
 20
-52.7018
 30
0.0
 10
70.4896
 20
-50.366
 30
0.0
 10
70.0895
 20
-51.3871
 30
0.0
 10
71.853
 20
-49.9599
 30
0.0
 10
71.853
 20
-49.9599
 30
0.0
 10
64.5866
 20
-48.9002
 30
0.0
 10
66.0073
 20
-53.1707
 30
0.0
 10
62.7021
 20
-56.0426
 30
0.0
 10
62.7021
 20
-56.0426
 30
0.0
 10
62.7021
 20
-56.0426
 30
0.0
 10
63.434
 20
-51.0568
 30
0.0
 10
63.434
 20
-51.0568
 30
0.0
 10
63.434
 20
-51.0568
 30
0.0
 10
66.2718
 20
-50.613
 30
0.0
 10
67.6929
 20
-49.0026
 30
0.0
 10
68.3711
 20
-46.2703
 30
0.0
 10
68.3711
 20
-46.2703
 30
0.0
 10
69.4861
 20
-41.7789
 30
0.0
 10
69.2797
 20
-42.6419
 30
0.0
 10
72.4945
 20
-40.4758
 30
0.0
 10
72.4945
 20
-40.4758
 30
0.0
 10
63.3482
 20
-38.1149
 30
0.0
 10
65.8843
 20
-46.6824
 30
0.0
 10
63.4812
 20
-49.6788
 30
0.0
 10
63.4812
 20
-49.6788
 30
0.0
 10
61.0435
 20
-33.6552
 30
0.0
 10
76.7027
 20
-34.9368
 30
0.0
 10
76.0331
 20
-42.9195
 30
0.0
 10
76.0331
 20
-42.9195
 30
0.0
 10
75.9121
 20
-44.3562
 30
0.0
 10
75.4337
 20
-45.7899
 30
0.0
 10
74.3669
 20
-46.3757
 30
0.0
 10
74.3669
 20
-46.3757
 30
0.0
 10
72.0136
 20
-47.6683
 30
0.0
 10
73.7244
 20
-45.5253
 30
0.0
 10
71.113
 20
-45.5825
 30
0.0
 10
71.113
 20
-45.5825
 30
0.0
 10
70.4373
 20
-50.3781
 30
0.0
 10
77.914
 20
-47.7055
 30
0.0
 10
77.5812
 20
-41.7338
 30
0.0
 10
77.5812
 20
-41.7338
 30
0.0
 10
77.2966
 20
-36.621
 30
0.0
 10
73.5628
 20
-35.6737
 30
0.0
 10
68.4615
 20
-35.4563
 30
0.0
 10
68.4615
 20
-35.4563
 30
0.0
 10
73.2852
 20
-31.9394
 30
0.0
 10
83.3737
 20
-37.7645
 30
0.0
 10
78.8447
 20
-47.9535
 30
0.0
 10
78.8447
 20
-47.9535
 30
0.0
 10
83.7341
 20
-42.8808
 30
0.0
 10
79.2478
 20
-37.0667
 30
0.0
 10
79.1474
 20
-36.768
 30
0.0
 10
79.1474
 20
-36.768
 30
0.0
 10
78.9456
 20
-36.1651
 30
0.0
 10
78.8161
 20
-33.7561
 30
0.0
 10
78.4316
 20
-32.6477
 30
0.0
 10
78.4316
 20
-32.6477
 30
0.0
 10
78.4316
 20
-32.6477
 30
0.0
 10
75.0426
 20
-32.1763
 30
0.0
 10
75.0426
 20
-32.1763
 30
0.0
 10
75.0426
 20
-32.1763
 30
0.0
 10
75.0426
 20
-32.1763
 30
0.0
 10
76.1269
 20
-29.5303
 30
0.0
 10
76.1269
 20
-29.5303
 30
0.0
 10
76.1269
 20
-29.5303
 30
0.0
 10
76.1269
 20
-29.5303
 30
0.0
 10
74.1481
 20
-30.9374
 30
0.0
 10
74.1481
 20
-30.9374
 30
0.0
 10
74.1481
 20
-30.9374
 30
0.0
 10
74.2686
 20
-25.6383
 30
0.0
 10
70.6939
 20
-23.2684
 30
0.0
 10
66.6282
 20
-26.2402
 30
0.0
 10
66.6282
 20
-26.2402
 30
0.0
 10
64.2287
 20
-27.9937
 30
0.0
 10
62.7995
 20
-35.5678
 30
0.0
 10
65.4134
 20
-36.891
 30
0.0
  0
SPLINE
  5
7E
330
1F
100
AcDbEntity
  8
Layer 1
100
AcDbSpline
210
0.0
220
0.0
230
1.0
 70
    11
 71
     3
 72
    52
 73
    48
 74
     0
 42
0.000000001
 43
0.0000000001
 40
0.0
 40
0.0
 40
0.0
 40
0.0
 40
0.0769230769230769
 40
0.0769230769230769
 40
0.0769230769230769
 40
0.0769230769230769
 40
0.1538461538461539
 40
0.1538461538461539
 40
0.1538461538461539
 40
0.1538461538461539
 40
0.2307692307692308
 40
0.2307692307692308
 40
0.2307692307692308
 40
0.2307692307692308
 40
0.3076923076923077
 40
0.3076923076923077
 40
0.3076923076923077
 40
0.3076923076923077
 40
0.3846153846153846
 40
0.3846153846153846
 40
0.3846153846153846
 40
0.3846153846153846
 40
0.4615384615384616
 40
0.4615384615384616
 40
0.4615384615384616
 40
0.4615384615384616
 40
0.5384615384615384
 40
0.5384615384615384
 40
0.5384615384615384
 40
0.5384615384615384
 40
0.6153846153846154
 40
0.6153846153846154
 40
0.6153846153846154
 40
0.6153846153846154
 40
0.6923076923076923
 40
0.6923076923076923
 40
0.6923076923076923
 40
0.6923076923076923
 40
0.7692307692307693
 40
0.7692307692307693
 40
0.7692307692307693
 40
0.7692307692307693
 40
0.8461538461538461
 40
0.8461538461538461
 40
0.8461538461538461
 40
0.8461538461538461
 40
1.0
 40
1.0
 40
1.0
 40
1.0
 10
44.8688
 20
-60.2648
 30
0.0
 10
37.7435
 20
-59.9185
 30
0.0
 10
34.8827
 20
-60.4566
 30
0.0
 10
29.818
 20
-56.1846
 30
0.0
 10
29.818
 20
-56.1846
 30
0.0
 10
26.7554
 20
-53.6009
 30
0.0
 10
22.8363
 20
-49.6271
 30
0.0
 10
22.2189
 20
-43.6865
 30
0.0
 10
22.2189
 20
-43.6865
 30
0.0
 10
25.7338
 20
-49.1427
 30
0.0
 10
28.2031
 20
-56.8061
 30
0.0
 10
38.4779
 20
-54.1967
 30
0.0
 10
38.4779
 20
-54.1967
 30
0.0
 10
32.1342
 20
-53.5808
 30
0.0
 10
25.28
 20
-48.9198
 30
0.0
 10
24.3709
 20
-43.5846
 30
0.0
 10
24.3709
 20
-43.5846
 30
0.0
 10
32.8456
 20
-53.6215
 30
0.0
 10
42.8714
 20
-43.9295
 30
0.0
 10
37.2852
 20
-37.6736
 30
0.0
 10
37.2852
 20
-37.6736
 30
0.0
 10
34.0679
 20
-34.0703
 30
0.0
 10
28.3286
 20
-36.4011
 30
0.0
 10
29.1599
 20
-40.7413
 30
0.0
 10
29.1599
 20
-40.7413
 30
0.0
 10
29.5716
 20
-42.8919
 30
0.0
 10
32.8305
 20
-44.062
 30
0.0
 10
31.2663
 20
-41.1545
 30
0.0
 10
31.2663
 20
-41.1545
 30
0.0
 10
31.0419
 20
-40.7363
 30
0.0
 10
29.5952
 20
-40.3181
 30
0.0
 10
31.0821
 20
-38.3865
 30
0.0
 10
31.0821
 20
-38.3865
 30
0.0
 10
31.8476
 20
-37.3915
 30
0.0
 10
33.1438
 20
-37.4467
 30
0.0
 10
34.6628
 20
-37.4698
 30
0.0
 10
34.6628
 20
-37.4698
 30
0.0
 10
43.2589
 20
-47.2607
 30
0.0
 10
23.1265
 20
-53.3956
 30
0.0
 10
20.4493
 20
-29.2878
 30
0.0
 10
20.4493
 20
-29.2878
 30
0.0
 10
17.3254
 20
-35.5612
 30
0.0
 10
20.6843
 20
-50.0217
 30
0.0
 10
23.9763
 20
-54.8067
 30
0.0
 10
23.9763
 20
-54.8067
 30
0.0
 10
28.0832
 20
-60.7769
 30
0.0
 10
36.2431
 20
-64.2055
 30
0.0
 10
44.8688
 20
-60.2648
 30
0.0
  0
SPLINE
  5
7F
330
1F
100
AcDbEntity
  8
Layer 1
100
AcDbSpline
210
0.0
220
0.0
230
1.0
 70
    11
 71
     3
 72
    56
 73
    52
 74
     0
 42
0.000000001
 43
0.0000000001
 40
0.0
 40
0.0
 40
0.0
 40
0.0
 40
0.0714285714285714
 40
0.0714285714285714
 40
0.0714285714285714
 40
0.0714285714285714
 40
0.1428571428571428
 40
0.1428571428571428
 40
0.1428571428571428
 40
0.1428571428571428
 40
0.2142857142857143
 40
0.2142857142857143
 40
0.2142857142857143
 40
0.2142857142857143
 40
0.2857142857142857
 40
0.2857142857142857
 40
0.2857142857142857
 40
0.2857142857142857
 40
0.3571428571428572
 40
0.3571428571428572
 40
0.3571428571428572
 40
0.3571428571428572
 40
0.4285714285714285
 40
0.4285714285714285
 40
0.4285714285714285
 40
0.4285714285714285
 40
0.5
 40
0.5
 40
0.5
 40
0.5
 40
0.5714285714285714
 40
0.5714285714285714
 40
0.5714285714285714
 40
0.5714285714285714
 40
0.6428571428571429
 40
0.6428571428571429
 40
0.6428571428571429
 40
0.6428571428571429
 40
0.7142857142857143
 40
0.7142857142857143
 40
0.7142857142857143
 40
0.7142857142857143
 40
0.7857142857142857
 40
0.7857142857142857
 40
0.7857142857142857
 40
0.7857142857142857
 40
0.8571428571428571
 40
0.8571428571428571
 40
0.8571428571428571
 40
0.8571428571428571
 40
1.0
 40
1.0
 40
1.0
 40
1.0
 10
1.611
 20
-116.0177
 30
0.0
 10
4.4619
 20
-117.3867
 30
0.0
 10
6.3795
 20
-120.483
 30
0.0
 10
11.8447
 20
-118.5277
 30
0.0
 10
11.8447
 20
-118.5277
 30
0.0
 10
14.9746
 20
-117.4083
 30
0.0
 10
17.2903
 20
-113.69
 30
0.0
 10
15.195
 20
-109.8251
 30
0.0
 10
15.195
 20
-109.8251
 30
0.0
 10
14.5996
 20
-112.1795
 30
0.0
 10
14.3095
 20
-113.6197
 30
0.0
 10
12.2955
 20
-114.7236
 30
0.0
 10
12.2955
 20
-114.7236
 30
0.0
 10
10.3427
 20
-115.7933
 30
0.0
 10
7.1706
 20
-115.5243
 30
0.0
 10
5.5025
 20
-114.4987
 30
0.0
 10
5.5025
 20
-114.4987
 30
0.0
 10
2.0668
 20
-112.3863
 30
0.0
 10
0.9996
 20
-108.4868
 30
0.0
 10
1.0031
 20
-103.3349
 30
0.0
 10
1.0031
 20
-103.3349
 30
0.0
 10
-5.8943
 20
-110.6876
 30
0.0
 10
9.0335
 20
-133.5318
 30
0.0
 10
-11.744
 20
-130.5243
 30
0.0
 10
-11.744
 20
-130.5243
 30
0.0
 10
-9.0839
 20
-133.3636
 30
0.0
 10
-3.7613
 20
-133.4771
 30
0.0
 10
-0.7328
 20
-131.0238
 30
0.0
 10
-0.7328
 20
-131.0238
 30
0.0
 10
2.2852
 20
-128.5786
 30
0.0
 10
1.6688
 20
-123.2028
 30
0.0
 10
1.3214
 20
-118.7847
 30
0.0
 10
1.3214
 20
-118.7847
 30
0.0
 10
1.3214
 20
-118.7847
 30
0.0
 10
2.6858
 20
-120.741
 30
0.0
 10
2.6858
 20
-120.741
 30
0.0
 10
2.6858
 20
-120.741
 30
0.0
 10
5.1777
 20
-124.8282
 30
0.0
 10
8.7198
 20
-128.2117
 30
0.0
 10
13.687
 20
-129.2809
 30
0.0
 10
13.687
 20
-129.2809
 30
0.0
 10
27.174
 20
-132.1839
 30
0.0
 10
24.008
 20
-117.6482
 30
0.0
 10
20.2892
 20
-122.4844
 30
0.0
 10
20.2892
 20
-122.4844
 30
0.0
 10
21.6431
 20
-125.2404
 30
0.0
 10
20.7877
 20
-122.2465
 30
0.0
 10
22.5301
 20
-123.3343
 30
0.0
 10
22.5301
 20
-123.3343
 30
0.0
 10
23.7088
 20
-131.8215
 30
0.0
 10
6.0492
 20
-129.6413
 30
0.0
 10
1.611
 20
-116.0177
 30
0.0
  0
SPLINE
  5
80
330
1F
100
AcDbEntity
  8
Layer 1
100
AcDbSpline
210
0.0
220
0.0
230
1.0
 70
    11
 71
     3
 72
    48
 73
    44
 74
     0
 42
0.000000001
 43
0.0000000001
 40
0.0
 40
0.0
 40
0.0
 40
0.0
 40
0.0833333333333333
 40
0.0833333333333333
 40
0.0833333333333333
 40
0.0833333333333333
 40
0.1666666666666667
 40
0.1666666666666667
 40
0.1666666666666667
 40
0.1666666666666667
 40
0.25
 40
0.25
 40
0.25
 40
0.25
 40
0.3333333333333333
 40
0.3333333333333333
 40
0.3333333333333333
 40
0.3333333333333333
 40
0.4166666666666667
 40
0.4166666666666667
 40
0.4166666666666667
 40
0.4166666666666667
 40
0.5
 40
0.5
 40
0.5
 40
0.5
 40
0.5833333333333334
 40
0.5833333333333334
 40
0.5833333333333334
 40
0.5833333333333334
 40
0.6666666666666666
 40
0.6666666666666666
 40
0.6666666666666666
 40
0.6666666666666666
 40
0.75
 40
0.75
 40
0.75
 40
0.75
 40
0.8333333333333334
 40
0.8333333333333334
 40
0.8333333333333334
 40
0.8333333333333334
 40
1.0
 40
1.0
 40
1.0
 40
1.0
 10
49.9093
 20
-78.4701
 30
0.0
 10
54.7345
 20
-80.1644
 30
0.0
 10
54.225
 20
-81.7537
 30
0.0
 10
56.6591
 20
-85.4639
 30
0.0
 10
56.6591
 20
-85.4639
 30
0.0
 10
57.8283
 20
-87.2465
 30
0.0
 10
62.3788
 20
-90.6023
 30
0.0
 10
66.1985
 20
-88.9076
 30
0.0
 10
66.1985
 20
-88.9076
 30
0.0
 10
62.0611
 20
-85.9177
 30
0.0
 10
63.2398
 20
-89.4527
 30
0.0
 10
61.2067
 20
-83.0378
 30
0.0
 10
61.2067
 20
-83.0378
 30
0.0
 10
60.2092
 20
-79.8923
 30
0.0
 10
57.6752
 20
-79.5243
 30
0.0
 10
53.8936
 20
-78.8396
 30
0.0
 10
53.8936
 20
-78.8396
 30
0.0
 10
57.379
 20
-78.807
 30
0.0
 10
58.9588
 20
-77.2172
 30
0.0
 10
61.5581
 20
-81.3902
 30
0.0
 10
61.5581
 20
-81.3902
 30
0.0
 10
63.3633
 20
-84.2892
 30
0.0
 10
63.9978
 20
-84.1271
 30
0.0
 10
67.5469
 20
-87.1009
 30
0.0
 10
67.5469
 20
-87.1009
 30
0.0
 10
68.9379
 20
-80.1167
 30
0.0
 10
65.6815
 20
-78.9139
 30
0.0
 10
60.3859
 20
-77.5083
 30
0.0
 10
60.3859
 20
-77.5083
 30
0.0
 10
63.0385
 20
-76.0832
 30
0.0
 10
66.0404
 20
-78.9867
 30
0.0
 10
67.7226
 20
-79.9274
 30
0.0
 10
67.7226
 20
-79.9274
 30
0.0
 10
70.6733
 20
-81.578
 30
0.0
 10
72.733
 20
-80.8601
 30
0.0
 10
73.4011
 20
-84.5322
 30
0.0
 10
73.4011
 20
-84.5322
 30
0.0
 10
75.8564
 20
-78.6524
 30
0.0
 10
71.0116
 20
-75.4808
 30
0.0
 10
65.5299
 20
-75.3733
 30
0.0
 10
65.5299
 20
-75.3733
 30
0.0
 10
61.1259
 20
-75.287
 30
0.0
 10
54.7014
 20
-77.549
 30
0.0
 10
49.9093
 20
-78.4701
 30
0.0
  0
SPLINE
  5
81
330
1F
100
AcDbEntity
  8
Layer 1
100
AcDbSpline
210
0.0
220
0.0
230
1.0
 70
    11
 71
     3
 72
    56
 73
    52
 74
     0
 42
0.000000001
 43
0.0000000001
 40
0.0
 40
0.0
 40
0.0
 40
0.0
 40
0.0714285714285714
 40
0.0714285714285714
 40
0.0714285714285714
 40
0.0714285714285714
 40
0.1428571428571428
 40
0.1428571428571428
 40
0.1428571428571428
 40
0.1428571428571428
 40
0.2142857142857143
 40
0.2142857142857143
 40
0.2142857142857143
 40
0.2142857142857143
 40
0.2857142857142857
 40
0.2857142857142857
 40
0.2857142857142857
 40
0.2857142857142857
 40
0.3571428571428572
 40
0.3571428571428572
 40
0.3571428571428572
 40
0.3571428571428572
 40
0.4285714285714285
 40
0.4285714285714285
 40
0.4285714285714285
 40
0.4285714285714285
 40
0.5
 40
0.5
 40
0.5
 40
0.5
 40
0.5714285714285714
 40
0.5714285714285714
 40
0.5714285714285714
 40
0.5714285714285714
 40
0.6428571428571429
 40
0.6428571428571429
 40
0.6428571428571429
 40
0.6428571428571429
 40
0.7142857142857143
 40
0.7142857142857143
 40
0.7142857142857143
 40
0.7142857142857143
 40
0.7857142857142857
 40
0.7857142857142857
 40
0.7857142857142857
 40
0.7857142857142857
 40
0.8571428571428571
 40
0.8571428571428571
 40
0.8571428571428571
 40
0.8571428571428571
 40
1.0
 40
1.0
 40
1.0
 40
1.0
 10
-33.8367
 20
-47.5945
 30
0.0
 10
-35.4381
 20
-46.9334
 30
0.0
 10
-35.3924
 20
-46.4786
 30
0.0
 10
-36.8527
 20
-47.5689
 30
0.0
 10
-36.8527
 20
-47.5689
 30
0.0
 10
-35.9436
 20
-50.0874
 30
0.0
 10
-36.4596
 20
-47.7808
 30
0.0
 10
-34.6886
 20
-48.5307
 30
0.0
 10
-34.6886
 20
-48.5307
 30
0.0
 10
-34.4336
 20
-53.7133
 30
0.0
 10
-41.8029
 20
-50.2541
 30
0.0
 10
-39.1975
 20
-45.831
 30
0.0
 10
-39.1975
 20
-45.831
 30
0.0
 10
-37.1368
 20
-42.3331
 30
0.0
 10
-31.7173
 20
-44.3065
 30
0.0
 10
-31.4954
 20
-48.1738
 30
0.0
 10
-31.4954
 20
-48.1738
 30
0.0
 10
-31.4553
 20
-48.8761
 30
0.0
 10
-34.2619
 20
-57.1429
 30
0.0
 10
-34.8026
 20
-58.6971
 30
0.0
 10
-34.8026
 20
-58.6971
 30
0.0
 10
-36.2689
 20
-62.9144
 30
0.0
 10
-37.8577
 20
-63.7753
 30
0.0
 10
-41.5564
 20
-65.8058
 30
0.0
 10
-41.5564
 20
-65.8058
 30
0.0
 10
-35.6414
 20
-66.3816
 30
0.0
 10
-31.8875
 20
-61.7789
 30
0.0
 10
-31.144
 20
-56.6871
 30
0.0
 10
-31.144
 20
-56.6871
 30
0.0
 10
-30.7856
 20
-63.2602
 30
0.0
 10
-35.6042
 20
-68.4017
 30
0.0
 10
-39.6302
 20
-70.4633
 30
0.0
 10
-39.6302
 20
-70.4633
 30
0.0
 10
-47.2796
 20
-74.3809
 30
0.0
 10
-52.411
 20
-71.1099
 30
0.0
 10
-57.8662
 20
-68.3831
 30
0.0
 10
-57.8662
 20
-68.3831
 30
0.0
 10
-52.0852
 20
-77.311
 30
0.0
 10
-30.9412
 20
-75.6399
 30
0.0
 10
-29.361
 20
-58.2483
 30
0.0
 10
-29.361
 20
-58.2483
 30
0.0
 10
-28.8278
 20
-52.3785
 30
0.0
 10
-30.6415
 20
-39.9522
 30
0.0
 10
-38.2718
 20
-43.3406
 30
0.0
 10
-38.2718
 20
-43.3406
 30
0.0
 10
-41.1146
 20
-44.6026
 30
0.0
 10
-41.9454
 20
-49.1311
 30
0.0
 10
-39.5941
 20
-51.2305
 30
0.0
 10
-39.5941
 20
-51.2305
 30
0.0
 10
-36.9943
 20
-53.5517
 30
0.0
 10
-32.7143
 20
-52.4423
 30
0.0
 10
-33.8367
 20
-47.5945
 30
0.0
  0
SPLINE
  5
82
330
1F
100
AcDbEntity
  8
Layer 1
100
AcDbSpline
210
0.0
220
0.0
230
1.0
 70
    11
 71
     3
 72
    28
 73
    24
 74
     0
 42
0.000000001
 43
0.0000000001
 40
0.0
 40
0.0
 40
0.0
 40
0.0
 40
0.1428571428571428
 40
0.1428571428571428
 40
0.1428571428571428
 40
0.1428571428571428
 40
0.2857142857142857
 40
0.2857142857142857
 40
0.2857142857142857
 40
0.2857142857142857
 40
0.4285714285714285
 40
0.4285714285714285
 40
0.4285714285714285
 40
0.4285714285714285
 40
0.5714285714285714
 40
0.5714285714285714
 40
0.5714285714285714
 40
0.5714285714285714
 40
0.7142857142857143
 40
0.7142857142857143
 40
0.7142857142857143
 40
0.7142857142857143
 40
1.0
 40
1.0
 40
1.0
 40
1.0
 10
80.4044
 20
-88.8544
 30
0.0
 10
81.4461
 20
-91.0521
 30
0.0
 10
81.2257
 20
-92.7283
 30
0.0
 10
83.0088
 20
-94.3763
 30
0.0
 10
83.0088
 20
-94.3763
 30
0.0
 10
84.3712
 20
-95.6363
 30
0.0
 10
85.9048
 20
-96.3587
 30
0.0
 10
87.3872
 20
-98.0599
 30
0.0
 10
87.3872
 20
-98.0599
 30
0.0
 10
90.5306
 20
-101.6678
 30
0.0
 10
89.6361
 20
-107.2474
 30
0.0
 10
83.7095
 20
-106.7012
 30
0.0
 10
83.7095
 20
-106.7012
 30
0.0
 10
85.6738
 20
-105.8137
 30
0.0
 10
87.5312
 20
-105.4513
 30
0.0
 10
87.9429
 20
-103.228
 30
0.0
 10
87.9429
 20
-103.228
 30
0.0
 10
88.359
 20
-100.979
 30
0.0
 10
86.4876
 20
-99.4781
 30
0.0
 10
85.2211
 20
-98.5423
 30
0.0
 10
85.2211
 20
-98.5423
 30
0.0
 10
83.2096
 20
-97.0554
 30
0.0
 10
77.9175
 20
-93.178
 30
0.0
 10
80.4044
 20
-88.8544
 30
0.0
  0
SPLINE
  5
83
330
1F
100
AcDbEntity
  8
Layer 1
100
AcDbSpline
210
0.0
220
0.0
230
1.0
 70
    11
 71
     3
 72
    60
 73
    56
 74
     0
 42
0.000000001
 43
0.0000000001
 40
0.0
 40
0.0
 40
0.0
 40
0.0
 40
0.0666666666666667
 40
0.0666666666666667
 40
0.0666666666666667
 40
0.0666666666666667
 40
0.1333333333333333
 40
0.1333333333333333
 40
0.1333333333333333
 40
0.1333333333333333
 40
0.2
 40
0.2
 40
0.2
 40
0.2
 40
0.2666666666666667
 40
0.2666666666666667
 40
0.2666666666666667
 40
0.2666666666666667
 40
0.3333333333333333
 40
0.3333333333333333
 40
0.3333333333333333
 40
0.3333333333333333
 40
0.4
 40
0.4
 40
0.4
 40
0.4
 40
0.4666666666666667
 40
0.4666666666666667
 40
0.4666666666666667
 40
0.4666666666666667
 40
0.5333333333333333
 40
0.5333333333333333
 40
0.5333333333333333
 40
0.5333333333333333
 40
0.6
 40
0.6
 40
0.6
 40
0.6
 40
0.6666666666666666
 40
0.6666666666666666
 40
0.6666666666666666
 40
0.6666666666666666
 40
0.7333333333333333
 40
0.7333333333333333
 40
0.7333333333333333
 40
0.7333333333333333
 40
0.8
 40
0.8
 40
0.8
 40
0.8
 40
0.8666666666666667
 40
0.8666666666666667
 40
0.8666666666666667
 40
0.8666666666666667
 40
1.0
 40
1.0
 40
1.0
 40
1.0
 10
81.185
 20
-82.3701
 30
0.0
 10
80.7674
 20
-88.6481
 30
0.0
 10
75.9949
 20
-91.0802
 30
0.0
 10
81.6047
 20
-96.6428
 30
0.0
 10
81.6047
 20
-96.6428
 30
0.0
 10
82.7673
 20
-97.7959
 30
0.0
 10
85.8214
 20
-99.8781
 30
0.0
 10
86.5835
 20
-101.0277
 30
0.0
 10
86.5835
 20
-101.0277
 30
0.0
 10
88.74
 20
-104.2806
 30
0.0
 10
85.7978
 20
-105.8735
 30
0.0
 10
82.3195
 20
-105.514
 30
0.0
 10
82.3195
 20
-105.514
 30
0.0
 10
80.5866
 20
-103.0733
 30
0.0
 10
80.5947
 20
-104.1858
 30
0.0
 10
81.0309
 20
-100.5915
 30
0.0
 10
81.0309
 20
-100.5915
 30
0.0
 10
80.3351
 20
-102.2355
 30
0.0
 10
78.5993
 20
-105.7319
 30
0.0
 10
82.6388
 20
-107.527
 30
0.0
 10
82.6388
 20
-107.527
 30
0.0
 10
85.7165
 20
-108.895
 30
0.0
 10
88.9358
 20
-106.7434
 30
0.0
 10
89.7857
 20
-104.6667
 30
0.0
 10
89.7857
 20
-104.6667
 30
0.0
 10
92.7093
 20
-97.5233
 30
0.0
 10
83.942
 20
-94.925
 30
0.0
 10
82.4937
 20
-90.5215
 30
0.0
 10
82.4937
 20
-90.5215
 30
0.0
 10
83.9831
 20
-91.7674
 30
0.0
 10
85.2487
 20
-93.6354
 30
0.0
 10
88.474
 20
-93.5796
 30
0.0
 10
88.474
 20
-93.5796
 30
0.0
 10
92.4422
 20
-93.5114
 30
0.0
 10
91.9036
 20
-90.6043
 30
0.0
 10
95.1279
 20
-91.7137
 30
0.0
 10
95.1279
 20
-91.7137
 30
0.0
 10
93.0863
 20
-87.9081
 30
0.0
 10
90.9568
 20
-91.4356
 30
0.0
 10
87.4569
 20
-90.7544
 30
0.0
 10
87.4569
 20
-90.7544
 30
0.0
 10
84.841
 20
-90.2454
 30
0.0
 10
83.0901
 20
-87.9121
 30
0.0
 10
82.6614
 20
-85.1943
 30
0.0
 10
82.6614
 20
-85.1943
 30
0.0
 10
84.3657
 20
-86.236
 30
0.0
 10
86.0082
 20
-87.8936
 30
0.0
 10
89.2706
 20
-87.1938
 30
0.0
 10
89.2706
 20
-87.1938
 30
0.0
 10
91.9101
 20
-86.627
 30
0.0
 10
93.1641
 20
-84.6552
 30
0.0
 10
93.0567
 20
-81.6703
 30
0.0
 10
93.0567
 20
-81.6703
 30
0.0
 10
88.9107
 20
-87.3348
 30
0.0
 10
86.1522
 20
-85.4248
 30
0.0
 10
81.185
 20
-82.3701
 30
0.0
  0
SPLINE
  5
84
330
1F
100
AcDbEntity
  8
Layer 1
100
AcDbSpline
210
0.0
220
0.0
230
1.0
 70
    11
 71
     3
 72
    20
 73
    16
 74
     0
 42
0.000000001
 43
0.0000000001
 40
0.0
 40
0.0
 40
0.0
 40
0.0
 40
0.2
 40
0.2
 40
0.2
 40
0.2
 40
0.4
 40
0.4
 40
0.4
 40
0.4
 40
0.6
 40
0.6
 40
0.6
 40
0.6
 40
1.0
 40
1.0
 40
1.0
 40
1.0
 10
19.223
 20
-109.3643
 30
0.0
 10
21.3454
 20
-105.7615
 30
0.0
 10
20.5974
 20
-103.8118
 30
0.0
 10
24.1028
 20
-100.6075
 30
0.0
 10
24.1028
 20
-100.6075
 30
0.0
 10
29.5505
 20
-95.6283
 30
0.0
 10
33.6949
 20
-90.4346
 30
0.0
 10
32.6819
 20
-82.2702
 30
0.0
 10
32.6819
 20
-82.2702
 30
0.0
 10
32.2075
 20
-78.445
 30
0.0
 10
30.0449
 20
-74.2429
 30
0.0
 10
27.4948
 20
-73.8252
 30
0.0
 10
27.4948
 20
-73.8252
 30
0.0
 10
33.5775
 20
-87.4041
 30
0.0
 10
17.4911
 20
-99.2923
 30
0.0
 10
19.223
 20
-109.3643
 30
0.0
  0
SPLINE
  5
85
330
1F
100
AcDbEntity
  8
Layer 1
 62
   250
100
AcDbSpline
210
0.0
220
0.0
230
1.0
 70
    11
 71
     3
 72
    36
 73
    32
 74
     0
 42
0.000000001
 43
0.0000000001
 40
0.0
 40
0.0
 40
0.0
 40
0.0
 40
0.1111111111111111
 40
0.1111111111111111
 40
0.1111111111111111
 40
0.1111111111111111
 40
0.2222222222222222
 40
0.2222222222222222
 40
0.2222222222222222
 40
0.2222222222222222
 40
0.3333333333333333
 40
0.3333333333333333
 40
0.3333333333333333
 40
0.3333333333333333
 40
0.4444444444444444
 40
0.4444444444444444
 40
0.4444444444444444
 40
0.4444444444444444
 40
0.5555555555555556
 40
0.5555555555555556
 40
0.5555555555555556
 40
0.5555555555555556
 40
0.6666666666666666
 40
0.6666666666666666
 40
0.6666666666666666
 40
0.6666666666666666
 40
0.7777777777777778
 40
0.7777777777777778
 40
0.7777777777777778
 40
0.7777777777777778
 40
1.0
 40
1.0
 40
1.0
 40
1.0
 10
-6.7918
 20
-11.8953
 30
0.0
 10
-3.2402
 20
-11.7582
 30
0.0
 10
-1.5289
 20
-10.0143
 30
0.0
 10
-0.4291
 20
-7.3412
 30
0.0
 10
-0.4291
 20
-7.3412
 30
0.0
 10
1.2155
 20
-18.891
 30
0.0
 10
-9.347
 20
-21.0838
 30
0.0
 10
-7.6377
 20
-29.3656
 30
0.0
 10
-7.6377
 20
-29.3656
 30
0.0
 10
-7.0519
 20
-32.2039
 30
0.0
 10
-4.578
 20
-33.3374
 30
0.0
 10
-1.4195
 20
-32.2145
 30
0.0
 10
-1.4195
 20
-32.2145
 30
0.0
 10
-1.1414
 20
-31.0548
 30
0.0
 10
-1.0049
 20
-30.9128
 30
0.0
 10
-1.3317
 20
-29.5408
 30
0.0
 10
-1.3317
 20
-29.5408
 30
0.0
 10
-3.946
 20
-33.2466
 30
0.0
 10
-4.3014
 20
-29.0188
 30
0.0
 10
-2.6203
 20
-25.8366
 30
0.0
 10
-2.6203
 20
-25.8366
 30
0.0
 10
-1.5018
 20
-23.7197
 30
0.0
 10
0.0769
 20
-22.0672
 30
0.0
 10
1.0212
 20
-19.6832
 30
0.0
 10
1.0212
 20
-19.6832
 30
0.0
 10
2.869
 20
-15.0162
 30
0.0
 10
1.853
 20
-6.7739
 30
0.0
 10
-0.4607
 20
-2.7228
 30
0.0
 10
-0.4607
 20
-2.7228
 30
0.0
 10
-3.3803
 20
-9.9551
 30
0.0
 10
0.6522
 20
-6.1871
 30
0.0
 10
-6.7918
 20
-11.8953
 30
0.0
  0
SPLINE
  5
86
330
1F
100
AcDbEntity
  8
Layer 1
100
AcDbSpline
210
0.0
220
0.0
230
1.0
 70
    11
 71
     3
 72
    48
 73
    44
 74
     0
 42
0.000000001
 43
0.0000000001
 40
0.0
 40
0.0
 40
0.0
 40
0.0
 40
0.0833333333333333
 40
0.0833333333333333
 40
0.0833333333333333
 40
0.0833333333333333
 40
0.1666666666666667
 40
0.1666666666666667
 40
0.1666666666666667
 40
0.1666666666666667
 40
0.25
 40
0.25
 40
0.25
 40
0.25
 40
0.3333333333333333
 40
0.3333333333333333
 40
0.3333333333333333
 40
0.3333333333333333
 40
0.4166666666666667
 40
0.4166666666666667
 40
0.4166666666666667
 40
0.4166666666666667
 40
0.5
 40
0.5
 40
0.5
 40
0.5
 40
0.5833333333333334
 40
0.5833333333333334
 40
0.5833333333333334
 40
0.5833333333333334
 40
0.6666666666666666
 40
0.6666666666666666
 40
0.6666666666666666
 40
0.6666666666666666
 40
0.75
 40
0.75
 40
0.75
 40
0.75
 40
0.8333333333333334
 40
0.8333333333333334
 40
0.8333333333333334
 40
0.8333333333333334
 40
1.0
 40
1.0
 40
1.0
 40
1.0
 10
-24.9128
 20
-118.2596
 30
0.0
 10
-16.4296
 20
-108.406
 30
0.0
 10
-23.5122
 20
-102.6687
 30
0.0
 10
-18.9983
 20
-93.1053
 30
0.0
 10
-18.9983
 20
-93.1053
 30
0.0
 10
-23.3842
 20
-95.6925
 30
0.0
 10
-21.3486
 20
-106.3092
 30
0.0
 10
-23.3762
 20
-111.3487
 30
0.0
 10
-23.3762
 20
-111.3487
 30
0.0
 10
-25.9529
 20
-117.7516
 30
0.0
 10
-29.2264
 20
-119.2777
 30
0.0
 10
-37.5455
 20
-119.7154
 30
0.0
 10
-37.5455
 20
-119.7154
 30
0.0
 10
-35.411
 20
-120.0969
 30
0.0
 10
-30.2816
 20
-120.8344
 30
0.0
 10
-28.2892
 20
-121.5276
 30
0.0
 10
-28.2892
 20
-121.5276
 30
0.0
 10
-25.3701
 20
-122.5432
 30
0.0
 10
-23.4927
 20
-125.4346
 30
0.0
 10
-26.9127
 20
-126.9381
 30
0.0
 10
-26.9127
 20
-126.9381
 30
0.0
 10
-25.4775
 20
-127.1359
 30
0.0
 10
-25.5584
 20
-126.9446
 30
0.0
 10
-24.5995
 20
-126.4075
 30
0.0
 10
-24.5995
 20
-126.4075
 30
0.0
 10
-23.4922
 20
-122.4789
 30
0.0
 10
-25.9901
 20
-121.8439
 30
0.0
 10
-28.5618
 20
-120.4353
 30
0.0
 10
-28.5618
 20
-120.4353
 30
0.0
 10
-25.47
 20
-120.2405
 30
0.0
 10
-22.4269
 20
-120.7305
 30
0.0
 10
-21.0038
 20
-122.7404
 30
0.0
 10
-21.0038
 20
-122.7404
 30
0.0
 10
-18.7634
 20
-125.9045
 30
0.0
 10
-21.8085
 20
-127.3743
 30
0.0
 10
-22.8893
 20
-128.7327
 30
0.0
 10
-22.8893
 20
-128.7327
 30
0.0
 10
-19.0189
 20
-129.0475
 30
0.0
 10
-16.7298
 20
-126.7258
 30
0.0
 10
-17.8282
 20
-122.5954
 30
0.0
 10
-17.8282
 20
-122.5954
 30
0.0
 10
-18.7056
 20
-119.2968
 30
0.0
 10
-21.2437
 20
-118.5568
 30
0.0
 10
-24.9128
 20
-118.2596
 30
0.0
  0
SPLINE
  5
87
330
1F
100
AcDbEntity
  8
Layer 1
100
AcDbSpline
210
0.0
220
0.0
230
1.0
 70
    11
 71
     3
 72
    56
 73
    52
 74
     0
 42
0.000000001
 43
0.0000000001
 40
0.0
 40
0.0
 40
0.0
 40
0.0
 40
0.0714285714285714
 40
0.0714285714285714
 40
0.0714285714285714
 40
0.0714285714285714
 40
0.1428571428571428
 40
0.1428571428571428
 40
0.1428571428571428
 40
0.1428571428571428
 40
0.2142857142857143
 40
0.2142857142857143
 40
0.2142857142857143
 40
0.2142857142857143
 40
0.2857142857142857
 40
0.2857142857142857
 40
0.2857142857142857
 40
0.2857142857142857
 40
0.3571428571428572
 40
0.3571428571428572
 40
0.3571428571428572
 40
0.3571428571428572
 40
0.4285714285714285
 40
0.4285714285714285
 40
0.4285714285714285
 40
0.4285714285714285
 40
0.5
 40
0.5
 40
0.5
 40
0.5
 40
0.5714285714285714
 40
0.5714285714285714
 40
0.5714285714285714
 40
0.5714285714285714
 40
0.6428571428571429
 40
0.6428571428571429
 40
0.6428571428571429
 40
0.6428571428571429
 40
0.7142857142857143
 40
0.7142857142857143
 40
0.7142857142857143
 40
0.7142857142857143
 40
0.7857142857142857
 40
0.7857142857142857
 40
0.7857142857142857
 40
0.7857142857142857
 40
0.8571428571428571
 40
0.8571428571428571
 40
0.8571428571428571
 40
0.8571428571428571
 40
1.0
 40
1.0
 40
1.0
 40
1.0
 10
-69.6956
 20
-41.6288
 30
0.0
 10
-67.3915
 20
-41.0355
 30
0.0
 10
-69.6148
 20
-41.8291
 30
0.0
 10
-68.3955
 20
-41.7965
 30
0.0
 10
-68.3955
 20
-41.7965
 30
0.0
 10
-67.3945
 20
-41.7694
 30
0.0
 10
-67.7971
 20
-42.676
 30
0.0
 10
-67.4778
 20
-40.8804
 30
0.0
 10
-67.4778
 20
-40.8804
 30
0.0
 10
-72.063
 20
-37.7304
 30
0.0
 10
-74.5655
 20
-49.355
 30
0.0
 10
-66.63
 20
-49.7556
 30
0.0
 10
-66.63
 20
-49.7556
 30
0.0
 10
-63.7992
 20
-49.8987
 30
0.0
 10
-61.6492
 20
-48.3475
 30
0.0
 10
-61.2606
 20
-45.8431
 30
0.0
 10
-61.2606
 20
-45.8431
 30
0.0
 10
-60.9042
 20
-43.547
 30
0.0
 10
-62.0287
 20
-40.5576
 30
0.0
 10
-61.734
 20
-37.255
 30
0.0
 10
-61.734
 20
-37.255
 30
0.0
 10
-62.5869
 20
-43.7708
 30
0.0
 10
-56.69
 20
-45.5574
 30
0.0
 10
-54.6323
 20
-42.6419
 30
0.0
 10
-54.6323
 20
-42.6419
 30
0.0
 10
-52.9401
 20
-40.2443
 30
0.0
 10
-55.1127
 20
-39.4412
 30
0.0
 10
-55.1775
 20
-39.3955
 30
0.0
 10
-55.1775
 20
-39.3955
 30
0.0
 10
-56.2181
 20
-39.9748
 30
0.0
 10
-54.8763
 20
-38.4803
 30
0.0
 10
-55.8004
 20
-40.2082
 30
0.0
 10
-55.8004
 20
-40.2082
 30
0.0
 10
-56.1699
 20
-40.8989
 30
0.0
 10
-55.4887
 20
-42.6303
 30
0.0
 10
-59.1974
 20
-41.8337
 30
0.0
 10
-59.1974
 20
-41.8337
 30
0.0
 10
-65.1983
 20
-31.9519
 30
0.0
 10
-49.381
 20
-21.911
 30
0.0
 10
-41.5549
 20
-32.1306
 30
0.0
 10
-41.5549
 20
-32.1306
 30
0.0
 10
-43.8846
 20
-26.1474
 30
0.0
 10
-54.7096
 20
-23.918
 30
0.0
 10
-61.3399
 20
-32.616
 30
0.0
 10
-61.3399
 20
-32.616
 30
0.0
 10
-65.245
 20
-37.7389
 30
0.0
 10
-62.3033
 20
-40.2157
 30
0.0
 10
-63.2315
 20
-45.0856
 30
0.0
 10
-63.2315
 20
-45.0856
 30
0.0
 10
-63.9182
 20
-48.6909
 30
0.0
 10
-71.7081
 20
-49.2009
 30
0.0
 10
-69.6956
 20
-41.6288
 30
0.0
  0
SPLINE
  5
88
330
1F
100
AcDbEntity
  8
Layer 1
100
AcDbSpline
210
0.0
220
0.0
230
1.0
 70
    11
 71
     3
 72
    28
 73
    24
 74
     0
 42
0.000000001
 43
0.0000000001
 40
0.0
 40
0.0
 40
0.0
 40
0.0
 40
0.1428571428571428
 40
0.1428571428571428
 40
0.1428571428571428
 40
0.1428571428571428
 40
0.2857142857142857
 40
0.2857142857142857
 40
0.2857142857142857
 40
0.2857142857142857
 40
0.4285714285714285
 40
0.4285714285714285
 40
0.4285714285714285
 40
0.4285714285714285
 40
0.5714285714285714
 40
0.5714285714285714
 40
0.5714285714285714
 40
0.5714285714285714
 40
0.7142857142857143
 40
0.7142857142857143
 40
0.7142857142857143
 40
0.7142857142857143
 40
1.0
 40
1.0
 40
1.0
 40
1.0
 10
-38.5253
 20
-35.9021
 30
0.0
 10
-46.0241
 20
-31.7933
 30
0.0
 10
-45.5377
 20
-36.6169
 30
0.0
 10
-52.3648
 20
-34.5372
 30
0.0
 10
-52.3648
 20
-34.5372
 30
0.0
 10
-51.8347
 20
-37.2183
 30
0.0
 10
-49.3308
 20
-38.5556
 30
0.0
 10
-46.2515
 20
-38.8684
 30
0.0
 10
-46.2515
 20
-38.8684
 30
0.0
 10
-41.8681
 20
-39.3136
 30
0.0
 10
-41.448
 20
-36.7188
 30
0.0
 10
-37.5691
 20
-37.6581
 30
0.0
 10
-37.5691
 20
-37.6581
 30
0.0
 10
-37.3336
 20
-37.6771
 30
0.0
 10
-38.5228
 20
-36.7856
 30
0.0
 10
-34.8036
 20
-38.0557
 30
0.0
 10
-34.8036
 20
-38.0557
 30
0.0
 10
-34.0722
 20
-30.4299
 30
0.0
 10
-37.1599
 20
-29.8395
 30
0.0
 10
-40.1006
 20
-25.7774
 30
0.0
 10
-40.1006
 20
-25.7774
 30
0.0
 10
-41.6553
 20
-30.2818
 30
0.0
 10
-40.0449
 20
-32.8088
 30
0.0
 10
-38.5253
 20
-35.9021
 30
0.0
  0
SPLINE
  5
89
330
1F
100
AcDbEntity
  8
Layer 1
100
AcDbSpline
210
0.0
220
0.0
230
1.0
 70
    11
 71
     3
 72
    36
 73
    32
 74
     0
 42
0.000000001
 43
0.0000000001
 40
0.0
 40
0.0
 40
0.0
 40
0.0
 40
0.1111111111111111
 40
0.1111111111111111
 40
0.1111111111111111
 40
0.1111111111111111
 40
0.2222222222222222
 40
0.2222222222222222
 40
0.2222222222222222
 40
0.2222222222222222
 40
0.3333333333333333
 40
0.3333333333333333
 40
0.3333333333333333
 40
0.3333333333333333
 40
0.4444444444444444
 40
0.4444444444444444
 40
0.4444444444444444
 40
0.4444444444444444
 40
0.5555555555555556
 40
0.5555555555555556
 40
0.5555555555555556
 40
0.5555555555555556
 40
0.6666666666666666
 40
0.6666666666666666
 40
0.6666666666666666
 40
0.6666666666666666
 40
0.7777777777777778
 40
0.7777777777777778
 40
0.7777777777777778
 40
0.7777777777777778
 40
1.0
 40
1.0
 40
1.0
 40
1.0
 10
30.054
 20
-97.8024
 30
0.0
 10
33.9525
 20
-98.6051
 30
0.0
 10
35.604
 20
-96.2081
 30
0.0
 10
36.5859
 20
-92.7037
 30
0.0
 10
36.5859
 20
-92.7037
 30
0.0
 10
38.0171
 20
-87.5959
 30
0.0
 10
36.7365
 20
-85.8781
 30
0.0
 10
36.3118
 20
-81.4771
 30
0.0
 10
36.3118
 20
-81.4771
 30
0.0
 10
40.5185
 20
-87.6908
 30
0.0
 10
39.1842
 20
-94.1901
 30
0.0
 10
35.5388
 20
-99.6076
 30
0.0
 10
35.5388
 20
-99.6076
 30
0.0
 10
43.3653
 20
-97.4641
 30
0.0
 10
44.5109
 20
-79.8305
 30
0.0
 10
31.2286
 20
-75.0204
 30
0.0
 10
31.2286
 20
-75.0204
 30
0.0
 10
33.6939
 20
-78.5013
 30
0.0
 10
35.5478
 20
-80.6252
 30
0.0
 10
35.7125
 20
-86.7706
 30
0.0
 10
35.7125
 20
-86.7706
 30
0.0
 10
35.7767
 20
-89.1596
 30
0.0
 10
35.4584
 20
-91.778
 30
0.0
 10
34.6989
 20
-93.7714
 30
0.0
 10
34.6989
 20
-93.7714
 30
0.0
 10
34.0815
 20
-95.3933
 30
0.0
 10
33.2366
 20
-96.6207
 30
0.0
 10
31.7743
 20
-97.2477
 30
0.0
 10
31.7743
 20
-97.2477
 30
0.0
 10
31.7743
 20
-97.2477
 30
0.0
 10
30.054
 20
-97.8024
 30
0.0
 10
30.054
 20
-97.8024
 30
0.0
  0
SPLINE
  5
8A
330
1F
100
AcDbEntity
  8
Layer 1
100
AcDbSpline
210
0.0
220
0.0
230
1.0
 70
    11
 71
     3
 72
    84
 73
    80
 74
     0
 42
0.000000001
 43
0.0000000001
 40
0.0
 40
0.0
 40
0.0
 40
0.0
 40
0.0476190476190476
 40
0.0476190476190476
 40
0.0476190476190476
 40
0.0476190476190476
 40
0.0952380952380952
 40
0.0952380952380952
 40
0.0952380952380952
 40
0.0952380952380952
 40
0.1428571428571428
 40
0.1428571428571428
 40
0.1428571428571428
 40
0.1428571428571428
 40
0.1904761904761905
 40
0.1904761904761905
 40
0.1904761904761905
 40
0.1904761904761905
 40
0.2380952380952381
 40
0.2380952380952381
 40
0.2380952380952381
 40
0.2380952380952381
 40
0.2857142857142857
 40
0.2857142857142857
 40
0.2857142857142857
 40
0.2857142857142857
 40
0.3333333333333333
 40
0.3333333333333333
 40
0.3333333333333333
 40
0.3333333333333333
 40
0.3809523809523809
 40
0.3809523809523809
 40
0.3809523809523809
 40
0.3809523809523809
 40
0.4285714285714285
 40
0.4285714285714285
 40
0.4285714285714285
 40
0.4285714285714285
 40
0.4761904761904762
 40
0.4761904761904762
 40
0.4761904761904762
 40
0.4761904761904762
 40
0.5238095238095238
 40
0.5238095238095238
 40
0.5238095238095238
 40
0.5238095238095238
 40
0.5714285714285714
 40
0.5714285714285714
 40
0.5714285714285714
 40
0.5714285714285714
 40
0.6190476190476191
 40
0.6190476190476191
 40
0.6190476190476191
 40
0.6190476190476191
 40
0.6666666666666666
 40
0.6666666666666666
 40
0.6666666666666666
 40
0.6666666666666666
 40
0.7142857142857143
 40
0.7142857142857143
 40
0.7142857142857143
 40
0.7142857142857143
 40
0.7619047619047619
 40
0.7619047619047619
 40
0.7619047619047619
 40
0.7619047619047619
 40
0.8095238095238095
 40
0.8095238095238095
 40
0.8095238095238095
 40
0.8095238095238095
 40
0.8571428571428571
 40
0.8571428571428571
 40
0.8571428571428571
 40
0.8571428571428571
 40
0.9047619047619048
 40
0.9047619047619048
 40
0.9047619047619048
 40
0.9047619047619048
 40
1.0
 40
1.0
 40
1.0
 40
1.0
 10
47.9822
 20
-27.3883
 30
0.0
 10
49.0228
 20
-25.9511
 30
0.0
 10
57.1195
 20
-23.279
 30
0.0
 10
60.653
 20
-27.4807
 30
0.0
 10
60.653
 20
-27.4807
 30
0.0
 10
61.9511
 20
-29.0243
 30
0.0
 10
62.6052
 20
-32.1673
 30
0.0
 10
61.7493
 20
-34.5547
 30
0.0
 10
61.7493
 20
-34.5547
 30
0.0
 10
60.9341
 20
-36.8298
 30
0.0
 10
59.2283
 20
-37.9583
 30
0.0
 10
56.6029
 20
-38.4392
 30
0.0
 10
56.6029
 20
-38.4392
 30
0.0
 10
54.61
 20
-37.3172
 30
0.0
 10
58.4427
 20
-39.7102
 30
0.0
 10
55.9327
 20
-37.8614
 30
0.0
 10
55.9327
 20
-37.8614
 30
0.0
 10
54.9674
 20
-37.1506
 30
0.0
 10
53.2667
 20
-36.3007
 30
0.0
 10
51.464
 20
-36.5165
 30
0.0
 10
51.464
 20
-36.5165
 30
0.0
 10
49.3712
 20
-41.0967
 30
0.0
 10
62.6128
 20
-42.5615
 30
0.0
 10
63.5851
 20
-33.245
 30
0.0
 10
63.5851
 20
-33.245
 30
0.0
 10
63.9862
 20
-29.3998
 30
0.0
 10
62.0229
 20
-26.7206
 30
0.0
 10
59.7369
 20
-25.4235
 30
0.0
 10
59.7369
 20
-25.4235
 30
0.0
 10
56.1617
 20
-23.3949
 30
0.0
 10
53.7054
 20
-24.4346
 30
0.0
 10
50.0313
 20
-25.2558
 30
0.0
 10
50.0313
 20
-25.2558
 30
0.0
 10
50.0936
 20
-25.1494
 30
0.0
 10
50.204
 20
-24.8783
 30
0.0
 10
50.2401
 20
-24.9506
 30
0.0
 10
50.2401
 20
-24.9506
 30
0.0
 10
50.2401
 20
-24.9506
 30
0.0
 10
52.6557
 20
-20.7806
 30
0.0
 10
52.6557
 20
-20.7806
 30
0.0
 10
52.6557
 20
-20.7806
 30
0.0
 10
55.2234
 20
-14.4313
 30
0.0
 10
60.1003
 20
-19.9889
 30
0.0
 10
57.5813
 20
-22.3367
 30
0.0
 10
57.5813
 20
-22.3367
 30
0.0
 10
56.6717
 20
-23.1846
 30
0.0
 10
54.9689
 20
-23.1535
 30
0.0
 10
54.9619
 20
-21.8839
 30
0.0
 10
54.9619
 20
-21.8839
 30
0.0
 10
54.9619
 20
-21.8839
 30
0.0
 10
55.5989
 20
-20.64
 30
0.0
 10
55.5989
 20
-20.64
 30
0.0
 10
55.5989
 20
-20.64
 30
0.0
 10
53.5995
 20
-20.3785
 30
0.0
 10
53.5488
 20
-21.6329
 30
0.0
 10
53.9142
 20
-23.1766
 30
0.0
 10
53.9142
 20
-23.1766
 30
0.0
 10
61.8216
 20
-25.5565
 30
0.0
 10
59.4226
 20
-14.6111
 30
0.0
 10
53.9117
 20
-17.3384
 30
0.0
 10
53.9117
 20
-17.3384
 30
0.0
 10
52.4921
 20
-18.0412
 30
0.0
 10
52.3701
 20
-19.5858
 30
0.0
 10
51.5669
 20
-20.8217
 30
0.0
 10
51.5669
 20
-20.8217
 30
0.0
 10
51.2502
 20
-15.7124
 30
0.0
 10
50.9459
 20
-16.5738
 30
0.0
 10
53.0091
 20
-15.4112
 30
0.0
 10
53.0091
 20
-15.4112
 30
0.0
 10
53.091
 20
-15.3645
 30
0.0
 10
53.2506
 20
-15.3194
 30
0.0
 10
53.3535
 20
-15.2436
 30
0.0
 10
53.3535
 20
-15.2436
 30
0.0
 10
47.7362
 20
-13.7306
 30
0.0
 10
52.2702
 20
-17.9021
 30
0.0
 10
49.0489
 20
-24.4064
 30
0.0
 10
49.0489
 20
-24.4064
 30
0.0
 10
48.3045
 20
-25.9104
 30
0.0
 10
48.4576
 20
-26.3271
 30
0.0
 10
47.9822
 20
-27.3883
 30
0.0
  0
SPLINE
  5
8B
330
1F
100
AcDbEntity
  8
Layer 1
100
AcDbSpline
210
0.0
220
0.0
230
1.0
 70
    11
 71
     3
 72
    52
 73
    48
 74
     0
 42
0.000000001
 43
0.0000000001
 40
0.0
 40
0.0
 40
0.0
 40
0.0
 40
0.0769230769230769
 40
0.0769230769230769
 40
0.0769230769230769
 40
0.0769230769230769
 40
0.1538461538461539
 40
0.1538461538461539
 40
0.1538461538461539
 40
0.1538461538461539
 40
0.2307692307692308
 40
0.2307692307692308
 40
0.2307692307692308
 40
0.2307692307692308
 40
0.3076923076923077
 40
0.3076923076923077
 40
0.3076923076923077
 40
0.3076923076923077
 40
0.3846153846153846
 40
0.3846153846153846
 40
0.3846153846153846
 40
0.3846153846153846
 40
0.4615384615384616
 40
0.4615384615384616
 40
0.4615384615384616
 40
0.4615384615384616
 40
0.5384615384615384
 40
0.5384615384615384
 40
0.5384615384615384
 40
0.5384615384615384
 40
0.6153846153846154
 40
0.6153846153846154
 40
0.6153846153846154
 40
0.6153846153846154
 40
0.6923076923076923
 40
0.6923076923076923
 40
0.6923076923076923
 40
0.6923076923076923
 40
0.7692307692307693
 40
0.7692307692307693
 40
0.7692307692307693
 40
0.7692307692307693
 40
0.8461538461538461
 40
0.8461538461538461
 40
0.8461538461538461
 40
0.8461538461538461
 40
1.0
 40
1.0
 40
1.0
 40
1.0
 10
-50.5667
 20
-25.0415
 30
0.0
 10
-53.4938
 20
-25.0821
 30
0.0
 10
-54.2558
 20
-23.4672
 30
0.0
 10
-57.196
 20
-23.6479
 30
0.0
 10
-57.196
 20
-23.6479
 30
0.0
 10
-59.964
 20
-23.8186
 30
0.0
 10
-61.4599
 20
-25.3196
 30
0.0
 10
-63.5442
 20
-23.0952
 30
0.0
 10
-63.5442
 20
-23.0952
 30
0.0
 10
-63.9669
 20
-24.8959
 30
0.0
 10
-63.4006
 20
-25.7277
 30
0.0
 10
-62.8143
 20
-26.9224
 30
0.0
 10
-62.8143
 20
-26.9224
 30
0.0
 10
-69.162
 20
-23.9501
 30
0.0
 10
-71.7849
 20
-31.2506
 30
0.0
 10
-66.528
 20
-31.8721
 30
0.0
 10
-66.528
 20
-31.8721
 30
0.0
 10
-68.3397
 20
-30.7326
 30
0.0
 10
-68.7007
 20
-30.4399
 30
0.0
 10
-68.0451
 20
-27.9099
 30
0.0
 10
-68.0451
 20
-27.9099
 30
0.0
 10
-64.5653
 20
-26.2869
 30
0.0
 10
-63.2641
 20
-27.2246
 30
0.0
 10
-62.1436
 20
-30.3977
 30
0.0
 10
-62.1436
 20
-30.3977
 30
0.0
 10
-62.1436
 20
-30.3977
 30
0.0
 10
-61.7757
 20
-31.3711
 30
0.0
 10
-61.7757
 20
-31.3711
 30
0.0
 10
-61.7757
 20
-31.3711
 30
0.0
 10
-61.7451
 20
-31.4484
 30
0.0
 10
-61.6928
 20
-31.5935
 30
0.0
 10
-61.6341
 20
-31.6959
 30
0.0
 10
-61.6341
 20
-31.6959
 30
0.0
 10
-61.5774
 20
-29.7989
 30
0.0
 10
-61.972
 20
-28.5865
 30
0.0
 10
-62.5126
 20
-27.1935
 30
0.0
 10
-62.5126
 20
-27.1935
 30
0.0
 10
-55.315
 20
-30.1583
 30
0.0
 10
-58.5077
 20
-23.9657
 30
0.0
 10
-46.1421
 20
-26.9646
 30
0.0
 10
-46.1421
 20
-26.9646
 30
0.0
 10
-47.6722
 20
-22.7674
 30
0.0
 10
-50.8162
 20
-19.3971
 30
0.0
 10
-55.7292
 20
-19.6631
 30
0.0
 10
-55.7292
 20
-19.6631
 30
0.0
 10
-54.0646
 20
-22.4321
 30
0.0
 10
-53.5259
 20
-23.5039
 30
0.0
 10
-50.5667
 20
-25.0415
 30
0.0
  0
SPLINE
  5
8C
330
1F
100
AcDbEntity
  8
Layer 1
100
AcDbSpline
210
0.0
220
0.0
230
1.0
 70
    11
 71
     3
 72
    48
 73
    44
 74
     0
 42
0.000000001
 43
0.0000000001
 40
0.0
 40
0.0
 40
0.0
 40
0.0
 40
0.0833333333333333
 40
0.0833333333333333
 40
0.0833333333333333
 40
0.0833333333333333
 40
0.1666666666666667
 40
0.1666666666666667
 40
0.1666666666666667
 40
0.1666666666666667
 40
0.25
 40
0.25
 40
0.25
 40
0.25
 40
0.3333333333333333
 40
0.3333333333333333
 40
0.3333333333333333
 40
0.3333333333333333
 40
0.4166666666666667
 40
0.4166666666666667
 40
0.4166666666666667
 40
0.4166666666666667
 40
0.5
 40
0.5
 40
0.5
 40
0.5
 40
0.5833333333333334
 40
0.5833333333333334
 40
0.5833333333333334
 40
0.5833333333333334
 40
0.6666666666666666
 40
0.6666666666666666
 40
0.6666666666666666
 40
0.6666666666666666
 40
0.75
 40
0.75
 40
0.75
 40
0.75
 40
0.8333333333333334
 40
0.8333333333333334
 40
0.8333333333333334
 40
0.8333333333333334
 40
1.0
 40
1.0
 40
1.0
 40
1.0
 10
81.7116
 20
-67.2144
 30
0.0
 10
85.8691
 20
-69.4799
 30
0.0
 10
81.9074
 20
-76.2317
 30
0.0
 10
88.358
 20
-77.9591
 30
0.0
 10
88.358
 20
-77.9591
 30
0.0
 10
93.8654
 20
-79.4345
 30
0.0
 10
98.2638
 20
-75.278
 30
0.0
 10
96.5089
 20
-69.8414
 30
0.0
 10
96.5089
 20
-69.8414
 30
0.0
 10
94.8573
 20
-64.7246
 30
0.0
 10
87.475
 20
-63.8195
 30
0.0
 10
85.7075
 20
-68.3148
 30
0.0
 10
85.7075
 20
-68.3148
 30
0.0
 10
84.5629
 20
-71.2274
 30
0.0
 10
86.2431
 20
-73.8277
 30
0.0
 10
88.1783
 20
-74.4015
 30
0.0
 10
88.1783
 20
-74.4015
 30
0.0
 10
90.8313
 20
-75.1881
 30
0.0
 10
94.4663
 20
-73.2579
 30
0.0
 10
91.4548
 20
-71.3955
 30
0.0
 10
91.4548
 20
-71.3955
 30
0.0
 10
89.4729
 20
-72.5551
 30
0.0
 10
91.2118
 20
-71.7384
 30
0.0
 10
90.6049
 20
-73.1194
 30
0.0
 10
90.6049
 20
-73.1194
 30
0.0
 10
85.5167
 20
-73.6907
 30
0.0
 10
85.713
 20
-67.9077
 30
0.0
 10
89.5743
 20
-67.0503
 30
0.0
 10
89.5743
 20
-67.0503
 30
0.0
 10
93.151
 20
-66.2556
 30
0.0
 10
95.9356
 20
-69.7184
 30
0.0
 10
95.038
 20
-73.3523
 30
0.0
 10
95.038
 20
-73.3523
 30
0.0
 10
94.152
 20
-76.9381
 30
0.0
 10
88.6195
 20
-77.3793
 30
0.0
 10
86.3094
 20
-74.922
 30
0.0
 10
86.3094
 20
-74.922
 30
0.0
 10
83.5484
 20
-71.9854
 30
0.0
 10
86.1563
 20
-68.0101
 30
0.0
 10
81.6795
 20
-66.471
 30
0.0
 10
81.6795
 20
-66.471
 30
0.0
 10
81.06
 20
-67.1432
 30
0.0
 10
81.0495
 20
-66.2521
 30
0.0
 10
81.7116
 20
-67.2144
 30
0.0
  0
SPLINE
  5
8D
330
1F
100
AcDbEntity
  8
Layer 1
100
AcDbSpline
210
0.0
220
0.0
230
1.0
 70
    11
 71
     3
 72
    20
 73
    16
 74
     0
 42
0.000000001
 43
0.0000000001
 40
0.0
 40
0.0
 40
0.0
 40
0.0
 40
0.2
 40
0.2
 40
0.2
 40
0.2
 40
0.4
 40
0.4
 40
0.4
 40
0.4
 40
0.6
 40
0.6
 40
0.6
 40
0.6
 40
1.0
 40
1.0
 40
1.0
 40
1.0
 10
79.4732
 20
-65.083
 30
0.0
 10
86.8089
 20
-65.2486
 30
0.0
 10
92.9703
 20
-59.5681
 30
0.0
 10
91.4463
 20
-52.2781
 30
0.0
 10
91.4463
 20
-52.2781
 30
0.0
 10
90.1039
 20
-54.2128
 30
0.0
 10
91.0698
 20
-54.5256
 30
0.0
 10
88.6416
 20
-55.4889
 30
0.0
 10
88.6416
 20
-55.4889
 30
0.0
 10
84.0665
 20
-57.3031
 30
0.0
 10
84.4349
 20
-55.2339
 30
0.0
 10
81.9199
 20
-61.0891
 30
0.0
 10
81.9199
 20
-61.0891
 30
0.0
 10
81.178
 20
-62.816
 30
0.0
 10
80.287
 20
-64.0514
 30
0.0
 10
79.4732
 20
-65.083
 30
0.0
  0
SPLINE
  5
8E
330
1F
100
AcDbEntity
  8
Layer 1
100
AcDbSpline
210
0.0
220
0.0
230
1.0
 70
    11
 71
     3
 72
    36
 73
    32
 74
     0
 42
0.000000001
 43
0.0000000001
 40
0.0
 40
0.0
 40
0.0
 40
0.0
 40
0.1111111111111111
 40
0.1111111111111111
 40
0.1111111111111111
 40
0.1111111111111111
 40
0.2222222222222222
 40
0.2222222222222222
 40
0.2222222222222222
 40
0.2222222222222222
 40
0.3333333333333333
 40
0.3333333333333333
 40
0.3333333333333333
 40
0.3333333333333333
 40
0.4444444444444444
 40
0.4444444444444444
 40
0.4444444444444444
 40
0.4444444444444444
 40
0.5555555555555556
 40
0.5555555555555556
 40
0.5555555555555556
 40
0.5555555555555556
 40
0.6666666666666666
 40
0.6666666666666666
 40
0.6666666666666666
 40
0.6666666666666666
 40
0.7777777777777778
 40
0.7777777777777778
 40
0.7777777777777778
 40
0.7777777777777778
 40
1.0
 40
1.0
 40
1.0
 40
1.0
 10
41.8845
 20
-75.1274
 30
0.0
 10
54.7179
 20
-80.2487
 30
0.0
 10
59.0597
 20
-70.8152
 30
0.0
 10
69.728
 20
-72.3769
 30
0.0
 10
69.728
 20
-72.3769
 30
0.0
 10
74.2369
 20
-73.0371
 30
0.0
 10
77.5902
 20
-76.4672
 30
0.0
 10
77.9778
 20
-81.2406
 30
0.0
 10
77.9778
 20
-81.2406
 30
0.0
 10
78.5857
 20
-88.7218
 30
0.0
 10
70.0603
 20
-89.7389
 30
0.0
 10
69.849
 20
-84.6572
 30
0.0
 10
69.849
 20
-84.6572
 30
0.0
 10
71.226
 20
-84.0719
 30
0.0
 10
71.0844
 20
-85.4739
 30
0.0
 10
71.8429
 20
-83.2722
 30
0.0
 10
71.8429
 20
-83.2722
 30
0.0
 10
68.6302
 20
-80.8009
 30
0.0
 10
67.5825
 20
-85.7229
 30
0.0
 10
69.2095
 20
-87.7831
 30
0.0
 10
69.2095
 20
-87.7831
 30
0.0
 10
70.8781
 20
-89.896
 30
0.0
 10
74.3885
 20
-89.652
 30
0.0
 10
76.5807
 20
-88.0522
 30
0.0
 10
76.5807
 20
-88.0522
 30
0.0
 10
82.821
 20
-83.4991
 30
0.0
 10
78.285
 20
-64.7863
 30
0.0
 10
58.6525
 20
-73.5391
 30
0.0
 10
58.6525
 20
-73.5391
 30
0.0
 10
53.2431
 20
-75.9506
 30
0.0
 10
47.8431
 20
-76.9832
 30
0.0
 10
41.8845
 20
-75.1274
 30
0.0
  0
SPLINE
  5
8F
330
1F
100
AcDbEntity
  8
Layer 1
100
AcDbSpline
210
0.0
220
0.0
230
1.0
 70
    11
 71
     3
 72
    48
 73
    44
 74
     0
 42
0.000000001
 43
0.0000000001
 40
0.0
 40
0.0
 40
0.0
 40
0.0
 40
0.0833333333333333
 40
0.0833333333333333
 40
0.0833333333333333
 40
0.0833333333333333
 40
0.1666666666666667
 40
0.1666666666666667
 40
0.1666666666666667
 40
0.1666666666666667
 40
0.25
 40
0.25
 40
0.25
 40
0.25
 40
0.3333333333333333
 40
0.3333333333333333
 40
0.3333333333333333
 40
0.3333333333333333
 40
0.4166666666666667
 40
0.4166666666666667
 40
0.4166666666666667
 40
0.4166666666666667
 40
0.5
 40
0.5
 40
0.5
 40
0.5
 40
0.5833333333333334
 40
0.5833333333333334
 40
0.5833333333333334
 40
0.5833333333333334
 40
0.6666666666666666
 40
0.6666666666666666
 40
0.6666666666666666
 40
0.6666666666666666
 40
0.75
 40
0.75
 40
0.75
 40
0.75
 40
0.8333333333333334
 40
0.8333333333333334
 40
0.8333333333333334
 40
0.8333333333333334
 40
1.0
 40
1.0
 40
1.0
 40
1.0
 10
6.5045
 20
-10.2989
 30
0.0
 10
5.3127
 20
-8.2312
 30
0.0
 10
2.4017
 20
-4.904
 30
0.0
 10
3.7626
 20
-1.6591
 30
0.0
 10
3.7626
 20
-1.6591
 30
0.0
 10
5.3127
 20
2.0386
 30
0.0
 10
6.5768
 20
2.6776
 30
0.0
 10
6.3895
 20
7.9259
 30
0.0
 10
6.3895
 20
7.9259
 30
0.0
 10
1.7029
 20
5.2734
 30
0.0
 10
3.8298
 20
2.5662
 30
0.0
 10
2.2817
 20
-1.0246
 30
0.0
 10
2.2817
 20
-1.0246
 30
0.0
 10
1.862
 20
2.5631
 30
0.0
 10
1.5372
 20
6.1258
 30
0.0
 10
2.9022
 20
9.4103
 30
0.0
 10
2.9022
 20
9.4103
 30
0.0
 10
3.9468
 20
11.9243
 30
0.0
 10
6.1526
 20
14.747
 30
0.0
 10
9.6203
 20
13.2968
 30
0.0
 10
9.6203
 20
13.2968
 30
0.0
 10
11.6188
 20
11.2331
 30
0.0
 10
10.7523
 20
8.4811
 30
0.0
 10
7.4919
 20
9.4651
 30
0.0
 10
7.4919
 20
9.4651
 30
0.0
 10
6.9683
 20
12.1633
 30
0.0
 10
7.0888
 20
9.2336
 30
0.0
 10
8.4251
 20
11.3209
 30
0.0
 10
8.4251
 20
11.3209
 30
0.0
 10
5.2701
 20
11.8686
 30
0.0
 10
6.1541
 20
8.3928
 30
0.0
 10
8.2133
 20
7.9857
 30
0.0
 10
8.2133
 20
7.9857
 30
0.0
 10
10.4572
 20
7.5429
 30
0.0
 10
12.0645
 20
9.1699
 30
0.0
 10
11.9667
 20
11.3686
 30
0.0
 10
11.9667
 20
11.3686
 30
0.0
 10
11.7382
 20
16.51
 30
0.0
 10
5.4799
 20
15.5236
 30
0.0
 10
3.1793
 20
12.107
 30
0.0
 10
3.1793
 20
12.107
 30
0.0
 10
-1.162
 20
5.6604
 30
0.0
 10
1.8671
 20
-6.8462
 30
0.0
 10
6.5045
 20
-10.2989
 30
0.0
  0
SPLINE
  5
90
330
1F
100
AcDbEntity
  8
Layer 1
100
AcDbSpline
210
0.0
220
0.0
230
1.0
 70
    11
 71
     3
 72
    16
 73
    12
 74
     0
 42
0.000000001
 43
0.0000000001
 40
0.0
 40
0.0
 40
0.0
 40
0.0
 40
0.25
 40
0.25
 40
0.25
 40
0.25
 40
0.5
 40
0.5
 40
0.5
 40
0.5
 40
1.0
 40
1.0
 40
1.0
 40
1.0
 10
-16.519
 20
-42.7091
 30
0.0
 10
-10.3781
 20
-41.0194
 30
0.0
 10
-9.6657
 20
-32.1843
 30
0.0
 10
-17.273
 20
-28.7457
 30
0.0
 10
-17.273
 20
-28.7457
 30
0.0
 10
-16.0109
 20
-31.6708
 30
0.0
 10
-17.2554
 20
-33.1577
 30
0.0
 10
-16.1304
 20
-35.8363
 30
0.0
 10
-16.1304
 20
-35.8363
 30
0.0
 10
-14.5532
 20
-39.5923
 30
0.0
 10
-15.3543
 20
-39.4964
 30
0.0
 10
-16.519
 20
-42.7091
 30
0.0
  0
SPLINE
  5
91
330
1F
100
AcDbEntity
  8
Layer 1
100
AcDbSpline
210
0.0
220
0.0
230
1.0
 70
    11
 71
     3
 72
    16
 73
    12
 74
     0
 42
0.000000001
 43
0.0000000001
 40
0.0
 40
0.0
 40
0.0
 40
0.0
 40
0.25
 40
0.25
 40
0.25
 40
0.25
 40
0.5
 40
0.5
 40
0.5
 40
0.5
 40
1.0
 40
1.0
 40
1.0
 40
1.0
 10
-12.3635
 20
-75.4998
 30
0.0
 10
-12.3635
 20
-75.4998
 30
0.0
 10
-9.6924
 20
-73.1771
 30
0.0
 10
-9.6924
 20
-73.1771
 30
0.0
 10
-9.6924
 20
-73.1771
 30
0.0
 10
-5.8933
 20
-69.6642
 30
0.0
 10
-5.818
 20
-69.7425
 30
0.0
 10
-5.6448
 20
-63.1759
 30
0.0
 10
-5.6448
 20
-63.1759
 30
0.0
 10
-9.7631
 20
-67.6813
 30
0.0
 10
-10.7586
 20
-62.0048
 30
0.0
 10
-12.3635
 20
-75.4998
 30
0.0
  0
SPLINE
  5
92
330
1F
100
AcDbEntity
  8
Layer 1
100
AcDbSpline
210
0.0
220
0.0
230
1.0
 70
    11
 71
     3
 72
    44
 73
    40
 74
     0
 42
0.000000001
 43
0.0000000001
 40
0.0
 40
0.0
 40
0.0
 40
0.0
 40
0.0909090909090909
 40
0.0909090909090909
 40
0.0909090909090909
 40
0.0909090909090909
 40
0.1818181818181818
 40
0.1818181818181818
 40
0.1818181818181818
 40
0.1818181818181818
 40
0.2727272727272727
 40
0.2727272727272727
 40
0.2727272727272727
 40
0.2727272727272727
 40
0.3636363636363636
 40
0.3636363636363636
 40
0.3636363636363636
 40
0.3636363636363636
 40
0.4545454545454545
 40
0.4545454545454545
 40
0.4545454545454545
 40
0.4545454545454545
 40
0.5454545454545454
 40
0.5454545454545454
 40
0.5454545454545454
 40
0.5454545454545454
 40
0.6363636363636364
 40
0.6363636363636364
 40
0.6363636363636364
 40
0.6363636363636364
 40
0.7272727272727273
 40
0.7272727272727273
 40
0.7272727272727273
 40
0.7272727272727273
 40
0.8181818181818182
 40
0.8181818181818182
 40
0.8181818181818182
 40
0.8181818181818182
 40
1.0
 40
1.0
 40
1.0
 40
1.0
 10
-72.5359
 20
-45.6704
 30
0.0
 10
-73.8316
 20
-34.9503
 30
0.0
 10
-64.3991
 20
-42.305
 30
0.0
 10
-63.1296
 20
-34.4915
 30
0.0
 10
-63.1296
 20
-34.4915
 30
0.0
 10
-64.7525
 20
-35.5763
 30
0.0
 10
-67.3824
 20
-36.8017
 30
0.0
 10
-69.6213
 20
-36.4975
 30
0.0
 10
-69.6213
 20
-36.4975
 30
0.0
 10
-70.5189
 20
-36.3755
 30
0.0
 10
-70.3588
 20
-36.3609
 30
0.0
 10
-70.7845
 20
-36.141
 30
0.0
 10
-70.7845
 20
-36.141
 30
0.0
 10
-69.0983
 20
-35.8127
 30
0.0
 10
-65.7294
 20
-35.6059
 30
0.0
 10
-64.5125
 20
-34.4965
 30
0.0
 10
-64.5125
 20
-34.4965
 30
0.0
 10
-62.9021
 20
-33.0287
 30
0.0
 10
-63.7239
 20
-30.5207
 30
0.0
 10
-65.9743
 20
-30.4966
 30
0.0
 10
-65.9743
 20
-30.4966
 30
0.0
 10
-64.2028
 20
-31.1829
 30
0.0
 10
-64.5989
 20
-33.5081
 30
0.0
 10
-66.4312
 20
-34.3088
 30
0.0
 10
-66.4312
 20
-34.3088
 30
0.0
 10
-68.2996
 20
-35.1255
 30
0.0
 10
-69.9471
 20
-34.6692
 30
0.0
 10
-70.8392
 20
-36.3529
 30
0.0
 10
-70.8392
 20
-36.3529
 30
0.0
 10
-70.8392
 20
-36.3529
 30
0.0
 10
-72.0083
 20
-38.0436
 30
0.0
 10
-72.0083
 20
-38.0436
 30
0.0
 10
-72.0083
 20
-38.0436
 30
0.0
 10
-72.5936
 20
-38.6656
 30
0.0
 10
-73.0253
 20
-39.1475
 30
0.0
 10
-73.3652
 20
-40.1133
 30
0.0
 10
-73.3652
 20
-40.1133
 30
0.0
 10
-74.1398
 20
-42.3136
 30
0.0
 10
-73.8707
 20
-44.1569
 30
0.0
 10
-72.5359
 20
-45.6704
 30
0.0
  0
SPLINE
  5
93
330
1F
100
AcDbEntity
  8
Layer 1
100
AcDbSpline
210
0.0
220
0.0
230
1.0
 70
    11
 71
     3
 72
    20
 73
    16
 74
     0
 42
0.000000001
 43
0.0000000001
 40
0.0
 40
0.0
 40
0.0
 40
0.0
 40
0.2
 40
0.2
 40
0.2
 40
0.2
 40
0.4
 40
0.4
 40
0.4
 40
0.4
 40
0.6
 40
0.6
 40
0.6
 40
0.6
 40
1.0
 40
1.0
 40
1.0
 40
1.0
 10
-33.6585
 20
-52.9347
 30
0.0
 10
-41.1352
 20
-54.9618
 30
0.0
 10
-41.7727
 20
-52.6556
 30
0.0
 10
-45.4388
 20
-49.2682
 30
0.0
 10
-45.4388
 20
-49.2682
 30
0.0
 10
-45.4388
 20
-49.2682
 30
0.0
 10
-46.001
 20
-48.7712
 30
0.0
 10
-46.001
 20
-48.7712
 30
0.0
 10
-46.001
 20
-48.7712
 30
0.0
 10
-46.0497
 20
-52.7932
 30
0.0
 10
-44.6708
 20
-55.15
 30
0.0
 10
-41.09
 20
-56.1274
 30
0.0
 10
-41.09
 20
-56.1274
 30
0.0
 10
-37.316
 20
-57.1575
 30
0.0
 10
-35.0832
 20
-55.2675
 30
0.0
 10
-33.6585
 20
-52.9347
 30
0.0
  0
SPLINE
  5
94
330
1F
100
AcDbEntity
  8
Layer 1
100
AcDbSpline
210
0.0
220
0.0
230
1.0
 70
    11
 71
     3
 72
    24
 73
    20
 74
     0
 42
0.000000001
 43
0.0000000001
 40
0.0
 40
0.0
 40
0.0
 40
0.0
 40
0.1666666666666667
 40
0.1666666666666667
 40
0.1666666666666667
 40
0.1666666666666667
 40
0.3333333333333333
 40
0.3333333333333333
 40
0.3333333333333333
 40
0.3333333333333333
 40
0.5
 40
0.5
 40
0.5
 40
0.5
 40
0.6666666666666666
 40
0.6666666666666666
 40
0.6666666666666666
 40
0.6666666666666666
 40
1.0
 40
1.0
 40
1.0
 40
1.0
 10
24.7474
 20
-16.6542
 30
0.0
 10
20.24
 20
-14.7812
 30
0.0
 10
21.0327
 20
-27.9003
 30
0.0
 10
30.8637
 20
-23.2187
 30
0.0
 10
30.8637
 20
-23.2187
 30
0.0
 10
35.4404
 20
-21.0396
 30
0.0
 10
37.8133
 20
-14.4705
 30
0.0
 10
33.2115
 20
-10.4279
 30
0.0
 10
33.2115
 20
-10.4279
 30
0.0
 10
38.7058
 20
-19.1777
 30
0.0
 10
28.7558
 20
-24.8663
 30
0.0
 10
24.515
 20
-21.9592
 30
0.0
 10
24.515
 20
-21.9592
 30
0.0
 10
23.8067
 20
-21.4738
 30
0.0
 10
23.0145
 20
-20.3308
 30
0.0
 10
23.128
 20
-19.2404
 30
0.0
 10
23.128
 20
-19.2404
 30
0.0
 10
23.4678
 20
-15.9694
 30
0.0
 10
24.2946
 20
-19.644
 30
0.0
 10
24.7474
 20
-16.6542
 30
0.0
  0
SPLINE
  5
95
330
1F
100
AcDbEntity
  8
Layer 1
100
AcDbSpline
210
0.0
220
0.0
230
1.0
 70
    11
 71
     3
 72
    24
 73
    20
 74
     0
 42
0.000000001
 43
0.0000000001
 40
0.0
 40
0.0
 40
0.0
 40
0.0
 40
0.1666666666666667
 40
0.1666666666666667
 40
0.1666666666666667
 40
0.1666666666666667
 40
0.3333333333333333
 40
0.3333333333333333
 40
0.3333333333333333
 40
0.3333333333333333
 40
0.5
 40
0.5
 40
0.5
 40
0.5
 40
0.6666666666666666
 40
0.6666666666666666
 40
0.6666666666666666
 40
0.6666666666666666
 40
1.0
 40
1.0
 40
1.0
 40
1.0
 10
78.0621
 20
-64.4736
 30
0.0
 10
81.7337
 20
-58.3332
 30
0.0
 10
79.8693
 20
-60.0901
 30
0.0
 10
80.9641
 20
-53.2901
 30
0.0
 10
80.9641
 20
-53.2901
 30
0.0
 10
81.2759
 20
-51.3525
 30
0.0
 10
82.2924
 20
-49.6753
 30
0.0
 10
84.2949
 20
-49.481
 30
0.0
 10
84.2949
 20
-49.481
 30
0.0
 10
87.2481
 20
-49.1944
 30
0.0
 10
87.7315
 20
-50.8992
 30
0.0
 10
88.8811
 20
-52.4945
 30
0.0
 10
88.8811
 20
-52.4945
 30
0.0
 10
88.4745
 20
-47.5348
 30
0.0
 10
82.4445
 20
-46.6849
 30
0.0
 10
80.0621
 20
-50.732
 30
0.0
 10
80.0621
 20
-50.732
 30
0.0
 10
78.4582
 20
-53.4563
 30
0.0
 10
80.1936
 20
-59.7699
 30
0.0
 10
78.0621
 20
-64.4736
 30
0.0
  0
SPLINE
  5
96
330
1F
100
AcDbEntity
  8
Layer 1
100
AcDbSpline
210
0.0
220
0.0
230
1.0
 70
    11
 71
     3
 72
    12
 73
     8
 74
     0
 42
0.000000001
 43
0.0000000001
 40
0.0
 40
0.0
 40
0.0
 40
0.0
 40
0.3333333333333333
 40
0.3333333333333333
 40
0.3333333333333333
 40
0.3333333333333333
 40
1.0
 40
1.0
 40
1.0
 40
1.0
 10
-9.6783
 20
-38.899
 30
0.0
 10
-5.7301
 20
-37.6922
 30
0.0
 10
-4.8777
 20
-29.5328
 30
0.0
 10
-13.4392
 20
-29.5082
 30
0.0
 10
-13.4392
 20
-29.5082
 30
0.0
 10
-11.8866
 20
-33.3274
 30
0.0
 10
-8.1186
 20
-32.5392
 30
0.0
 10
-9.6783
 20
-38.899
 30
0.0
  0
SPLINE
  5
97
330
1F
100
AcDbEntity
  8
Layer 1
100
AcDbSpline
210
0.0
220
0.0
230
1.0
 70
    11
 71
     3
 72
    12
 73
     8
 74
     0
 42
0.000000001
 43
0.0000000001
 40
0.0
 40
0.0
 40
0.0
 40
0.0
 40
0.3333333333333333
 40
0.3333333333333333
 40
0.3333333333333333
 40
0.3333333333333333
 40
1.0
 40
1.0
 40
1.0
 40
1.0
 10
-81.5286
 20
-107.4758
 30
0.0
 10
-79.5764
 20
-105.4493
 30
0.0
 10
-81.1325
 20
-101.1532
 30
0.0
 10
-79.1291
 20
-97.9736
 30
0.0
 10
-79.1291
 20
-97.9736
 30
0.0
 10
-82.7746
 20
-99.0273
 30
0.0
 10
-84.1028
 20
-104.0823
 30
0.0
 10
-81.5286
 20
-107.4758
 30
0.0
  0
SPLINE
  5
98
330
1F
100
AcDbEntity
  8
Layer 1
100
AcDbSpline
210
0.0
220
0.0
230
1.0
 70
    11
 71
     3
 72
    16
 73
    12
 74
     0
 42
0.000000001
 43
0.0000000001
 40
0.0
 40
0.0
 40
0.0
 40
0.0
 40
0.25
 40
0.25
 40
0.25
 40
0.25
 40
0.5
 40
0.5
 40
0.5
 40
0.5
 40
1.0
 40
1.0
 40
1.0
 40
1.0
 10
13.1438
 20
-109.9823
 30
0.0
 10
13.8441
 20
-106.1621
 30
0.0
 10
17.9544
 20
-105.9553
 30
0.0
 10
17.7501
 20
-100.5473
 30
0.0
 10
17.7501
 20
-100.5473
 30
0.0
 10
16.1292
 20
-102.9443
 30
0.0
 10
12.7458
 20
-105.8453
 30
0.0
 10
12.3145
 20
-106.6922
 30
0.0
 10
12.3145
 20
-106.6922
 30
0.0
 10
10.9757
 20
-109.3216
 30
0.0
 10
13.1388
 20
-109.9778
 30
0.0
 10
13.1438
 20
-109.9823
 30
0.0
  0
ENDSEC
  0
SECTION
  2
OBJECTS
  0
DICTIONARY
  5
C
330
0
100
AcDbDictionary
281
     1
  3
ACAD_DETAILVIEWSTYLE
350
D4
  3
ACAD_GROUP
350
D
  3
ACAD_LAYOUT
350
1A
  3
ACAD_MATERIAL
350
43
  3
ACAD_MLEADERSTYLE
350
6B
  3
ACAD_MLINESTYLE
350
17
  3
ACAD_PLOTSETTINGS
350
19
  3
ACAD_PLOTSTYLENAME
350
E
  3
ACAD_SCALELIST
350
47
  3
ACAD_SECTIONVIEWSTYLE
350
D5
  3
ACAD_TABLESTYLE
350
69
  3
ACAD_VISUALSTYLE
350
2A
  3
ACDB_RECOMPOSE_DATA
350
D1
  3
AcDbVariableDictionary
350
99
  0
SUN
  5
6D
330
29
100
AcDbSun
 90
        1
290
     0
 63
     7
421
 16777215
 40
1.0
291
     1
 91
  2455826
 92
 54000000
292
     0
 70
     2
 71
   256
280
     1
  0
DICTIONARY
  5
D4
102
{ACAD_REACTORS
330
C
102
}
330
C
100
AcDbDictionary
281
     1
  0
DICTIONARY
  5
D
102
{ACAD_REACTORS
330
C
102
}
330
C
100
AcDbDictionary
281
     1
  0
DICTIONARY
  5
1A
102
{ACAD_REACTORS
330
C
102
}
330
C
100
AcDbDictionary
281
     1
  3
Layout1
350
1E
  3
Layout2
350
26
  3
Model
350
22
  0
DICTIONARY
  5
43
102
{ACAD_REACTORS
330
C
102
}
330
C
100
AcDbDictionary
281
     1
  3
ByBlock
350
45
  3
ByLayer
350
44
  3
Global
350
46
  0
DICTIONARY
  5
6B
102
{ACAD_REACTORS
330
C
102
}
330
C
100
AcDbDictionary
281
     1
  3
Standard
350
6C
  0
DICTIONARY
  5
17
102
{ACAD_REACTORS
330
C
102
}
330
C
100
AcDbDictionary
281
     1
  3
Standard
350
18
  0
DICTIONARY
  5
19
102
{ACAD_REACTORS
330
C
102
}
330
C
100
AcDbDictionary
281
     1
  0
ACDBDICTIONARYWDFLT
  5
E
102
{ACAD_REACTORS
330
C
102
}
330
C
100
AcDbDictionary
281
     1
  3
Normal
350
F
100
AcDbDictionaryWithDefault
340
F
  0
DICTIONARY
  5
47
102
{ACAD_REACTORS
330
C
102
}
330
C
100
AcDbDictionary
281
     1
  3
A0
350
48
  3
A1
350
49
  3
A2
350
4A
  3
A3
350
4B
  3
A4
350
4C
  3
A5
350
4D
  3
A6
350
4E
  3
A7
350
4F
  3
A8
350
50
  3
A9
350
51
  3
B0
350
52
  3
B1
350
53
  3
B2
350
54
  3
B3
350
55
  3
B4
350
56
  3
B5
350
57
  3
B6
350
58
  3
B7
350
59
  3
B8
350
5A
  3
B9
350
5B
  3
C0
350
5C
  3
C1
350
5D
  3
C2
350
5E
  3
C3
350
5F
  3
C4
350
60
  3
C5
350
61
  3
C6
350
62
  3
C7
350
63
  3
C8
350
64
  3
C9
350
65
  3
D0
350
66
  3
D1
350
67
  3
D2
350
68
  0
DICTIONARY
  5
D5
102
{ACAD_REACTORS
330
C
102
}
330
C
100
AcDbDictionary
281
     1
  0
DICTIONARY
  5
69
102
{ACAD_REACTORS
330
C
102
}
330
C
100
AcDbDictionary
281
     1
  3
Standard
350
6A
  0
DICTIONARY
  5
2A
102
{ACAD_REACTORS
330
C
102
}
330
C
100
AcDbDictionary
281
     1
  3
2dWireframe
350
2F
  3
Basic
350
32
  3
Brighten
350
36
  3
ColorChange
350
3A
  3
Conceptual
350
34
  3
Dim
350
35
  3
EdgeColorOff
350
3D
  3
Facepattern
350
39
  3
Flat
350
2B
  3
FlatWithEdges
350
2C
  3
Gouraud
350
2D
  3
GouraudWithEdges
350
2E
  3
Hidden
350
31
  3
JitterOff
350
3B
  3
Linepattern
350
38
  3
OverhangOff
350
3C
  3
Realistic
350
33
  3
Shaded
350
42
  3
Shaded with edges
350
41
  3
Shades of Gray
350
3E
  3
Sketchy
350
3F
  3
Thicken
350
37
  3
Wireframe
350
30
  3
X-Ray
350
40
  0
XRECORD
  5
D1
102
{ACAD_REACTORS
330
C
102
}
330
C
100
AcDbXrecord
280
     1
 90
        1
330
6A
  0
DICTIONARY
  5
99
102
{ACAD_REACTORS
330
C
102
}
330
C
100
AcDbDictionary
281
     1
  3
CANNOSCALE
350
9A
  3
CMLEADERSTYLE
350
D3
  3
CTABLESTYLE
350
D2
  3
XCLIPFRAME
350
9B
  0
LAYOUT
  5
1E
102
{ACAD_REACTORS
330
1A
102
}
330
1A
100
AcDbPlotSettings
  1

  2
none_device
  4

  6

 40
0.0
 41
0.0
 42
0.0
 43
0.0
 44
0.0
 45
0.0
 46
0.0
 47
0.0
 48
0.0
 49
0.0
140
0.0
141
0.0
142
1.0
143
1.0
 70
   688
 72
     0
 73
     0
 74
     5
  7

 75
    16
 76
     0
 77
     2
 78
   300
147
1.0
148
0.0
149
0.0
100
AcDbLayout
  1
Layout1
 70
     1
 71
     1
 10
0.0
 20
0.0
 11
12.0
 21
9.0
 12
0.0
 22
0.0
 32
0.0
 14
1.000000000000000E+20
 24
1.000000000000000E+20
 34
1.000000000000000E+20
 15
-1.000000000000000E+20
 25
-1.000000000000000E+20
 35
-1.000000000000000E+20
146
0.0
 13
0.0
 23
0.0
 33
0.0
 16
1.0
 26
0.0
 36
0.0
 17
0.0
 27
1.0
 37
0.0
 76
     0
330
1B
  0
LAYOUT
  5
26
102
{ACAD_REACTORS
330
1A
102
}
330
1A
100
AcDbPlotSettings
  1

  2
none_device
  4

  6

 40
0.0
 41
0.0
 42
0.0
 43
0.0
 44
0.0
 45
0.0
 46
0.0
 47
0.0
 48
0.0
 49
0.0
140
0.0
141
0.0
142
1.0
143
1.0
 70
   688
 72
     0
 73
     0
 74
     5
  7

 75
    16
 76
     0
 77
     2
 78
   300
147
1.0
148
0.0
149
0.0
100
AcDbLayout
  1
Layout2
 70
     1
 71
     2
 10
0.0
 20
0.0
 11
0.0
 21
0.0
 12
0.0
 22
0.0
 32
0.0
 14
0.0
 24
0.0
 34
0.0
 15
0.0
 25
0.0
 35
0.0
146
0.0
 13
0.0
 23
0.0
 33
0.0
 16
1.0
 26
0.0
 36
0.0
 17
0.0
 27
1.0
 37
0.0
 76
     0
330
23
  0
LAYOUT
  5
22
102
{ACAD_REACTORS
330
1A
102
}
330
1A
100
AcDbPlotSettings
  1

  2
none_device
  4
Letter_(8.50_x_11.00_Inches)
  6

 40
6.35
 41
6.35
 42
6.35000508
 43
6.35000508
 44
215.9
 45
279.4
 46
0.0
 47
0.0
 48
0.0
 49
0.0
140
0.0
141
0.0
142
1.0
143
1.0
 70
  1712
 72
     0
 73
     0
 74
     0
  7

 75
     0
 76
     0
 77
     2
 78
   300
147
1.0
148
0.0
149
0.0
100
AcDbLayout
  1
Model
 70
     1
 71
     0
 10
0.0
 20
0.0
 11
12.0
 21
9.0
 12
0.0
 22
0.0
 32
0.0
 14
-89.3887
 24
-132.7656
 34
0.0
 15
96.9003
 25
97.4072
 35
0.0
146
0.0
 13
0.0
 23
0.0
 33
0.0
 16
1.0
 26
0.0
 36
0.0
 17
0.0
 27
1.0
 37
0.0
 76
     0
330
1F
331
29
  0
MATERIAL
  5
45
102
{ACAD_REACTORS
330
43
102
}
330
43
100
AcDbMaterial
  1
ByBlock
 72
     1
 94
      127
  0
MATERIAL
  5
44
102
{ACAD_REACTORS
330
43
102
}
330
43
100
AcDbMaterial
  1
ByLayer
 72
     1
 94
      127
  0
MATERIAL
  5
46
102
{ACAD_REACTORS
330
43
102
}
330
43
100
AcDbMaterial
  1
Global
 72
     1
 94
      127
  0
MLEADERSTYLE
  5
6C
102
{ACAD_REACTORS
330
6B
102
}
102
{ACAD_XDICTIONARY
360
CF
102
}
330
6B
100
AcDbMLeaderStyle
170
     2
171
     1
172
     0
 90
        2
 40
0.0
 41
0.0
173
     1
 91
-1056964608
340
14
 92
       -2
290
     1
 42
0.09
291
     1
 43
0.36
  3
Standard
341
0
 44
0.18
300

342
11
174
     1
178
     6
175
     1
176
     0
 93
-1056964608
 45
0.18
292
     0
297
     0
 46
0.18
343
0
 94
-1056964608
 47
1.0
 49
1.0
140
1.0
293
     1
141
0.0
294
     1
177
     0
142
1.0
295
     0
296
     0
143
0.125
1001
ACAD_MLEADERVER
1070
     2
  0
MLINESTYLE
  5
18
102
{ACAD_REACTORS
330
17
102
}
330
17
100
AcDbMlineStyle
  2
Standard
 70
     0
  3

 62
   256
 51
90.0
 52
90.0
 71
     2
 49
0.5
 62
   256
  6
BYLAYER
 49
-0.5
 62
   256
  6
BYLAYER
  0
ACDBPLACEHOLDER
  5
F
102
{ACAD_REACTORS
330
E
102
}
330
E
  0
SCALE
  5
48
102
{ACAD_REACTORS
330
47
102
}
330
47
100
AcDbScale
 70
     0
300
1:1
140
1.0
141
1.0
290
     1
  0
SCALE
  5
49
102
{ACAD_REACTORS
330
47
102
}
330
47
100
AcDbScale
 70
     0
300
1:2
140
1.0
141
2.0
290
     0
  0
SCALE
  5
4A
102
{ACAD_REACTORS
330
47
102
}
330
47
100
AcDbScale
 70
     0
300
1:4
140
1.0
141
4.0
290
     0
  0
SCALE
  5
4B
102
{ACAD_REACTORS
330
47
102
}
330
47
100
AcDbScale
 70
     0
300
1:5
140
1.0
141
5.0
290
     0
  0
SCALE
  5
4C
102
{ACAD_REACTORS
330
47
102
}
330
47
100
AcDbScale
 70
     0
300
1:8
140
1.0
141
8.0
290
     0
  0
SCALE
  5
4D
102
{ACAD_REACTORS
330
47
102
}
330
47
100
AcDbScale
 70
     0
300
1:10
140
1.0
141
10.0
290
     0
  0
SCALE
  5
4E
102
{ACAD_REACTORS
330
47
102
}
330
47
100
AcDbScale
 70
     0
300
1:16
140
1.0
141
16.0
290
     0
  0
SCALE
  5
4F
102
{ACAD_REACTORS
330
47
102
}
330
47
100
AcDbScale
 70
     0
300
1:20
140
1.0
141
20.0
290
     0
  0
SCALE
  5
50
102
{ACAD_REACTORS
330
47
102
}
330
47
100
AcDbScale
 70
     0
300
1:30
140
1.0
141
30.0
290
     0
  0
SCALE
  5
51
102
{ACAD_REACTORS
330
47
102
}
330
47
100
AcDbScale
 70
     0
300
1:40
140
1.0
141
40.0
290
     0
  0
SCALE
  5
52
102
{ACAD_REACTORS
330
47
102
}
330
47
100
AcDbScale
 70
     0
300
1:50
140
1.0
141
50.0
290
     0
  0
SCALE
  5
53
102
{ACAD_REACTORS
330
47
102
}
330
47
100
AcDbScale
 70
     0
300
1:100
140
1.0
141
100.0
290
     0
  0
SCALE
  5
54
102
{ACAD_REACTORS
330
47
102
}
330
47
100
AcDbScale
 70
     0
300
2:1
140
2.0
141
1.0
290
     0
  0
SCALE
  5
55
102
{ACAD_REACTORS
330
47
102
}
330
47
100
AcDbScale
 70
     0
300
4:1
140
4.0
141
1.0
290
     0
  0
SCALE
  5
56
102
{ACAD_REACTORS
330
47
102
}
330
47
100
AcDbScale
 70
     0
300
8:1
140
8.0
141
1.0
290
     0
  0
SCALE
  5
57
102
{ACAD_REACTORS
330
47
102
}
330
47
100
AcDbScale
 70
     0
300
10:1
140
10.0
141
1.0
290
     0
  0
SCALE
  5
58
102
{ACAD_REACTORS
330
47
102
}
330
47
100
AcDbScale
 70
     0
300
100:1
140
100.0
141
1.0
290
     0
  0
SCALE
  5
59
102
{ACAD_REACTORS
330
47
102
}
330
47
100
AcDbScale
 70
     0
300
1/128\" = 1\'-0\"
140
0.0078125
141
12.0
290
     0
  0
SCALE
  5
5A
102
{ACAD_REACTORS
330
47
102
}
330
47
100
AcDbScale
 70
     0
300
1/64\" = 1\'-0\"
140
0.015625
141
12.0
290
     0
  0
SCALE
  5
5B
102
{ACAD_REACTORS
330
47
102
}
330
47
100
AcDbScale
 70
     0
300
1/32\" = 1\'-0\"
140
0.03125
141
12.0
290
     0
  0
SCALE
  5
5C
102
{ACAD_REACTORS
330
47
102
}
330
47
100
AcDbScale
 70
     0
300
1/16\" = 1\'-0\"
140
0.0625
141
12.0
290
     0
  0
SCALE
  5
5D
102
{ACAD_REACTORS
330
47
102
}
330
47
100
AcDbScale
 70
     0
300
3/32\" = 1\'-0\"
140
0.09375
141
12.0
290
     0
  0
SCALE
  5
5E
102
{ACAD_REACTORS
330
47
102
}
330
47
100
AcDbScale
 70
     0
300
1/8\" = 1\'-0\"
140
0.125
141
12.0
290
     0
  0
SCALE
  5
5F
102
{ACAD_REACTORS
330
47
102
}
330
47
100
AcDbScale
 70
     0
300
3/16\" = 1\'-0\"
140
0.1875
141
12.0
290
     0
  0
SCALE
  5
60
102
{ACAD_REACTORS
330
47
102
}
330
47
100
AcDbScale
 70
     0
300
1/4\" = 1\'-0\"
140
0.25
141
12.0
290
     0
  0
SCALE
  5
61
102
{ACAD_REACTORS
330
47
102
}
330
47
100
AcDbScale
 70
     0
300
3/8\" = 1\'-0\"
140
0.375
141
12.0
290
     0
  0
SCALE
  5
62
102
{ACAD_REACTORS
330
47
102
}
330
47
100
AcDbScale
 70
     0
300
1/2\" = 1\'-0\"
140
0.5
141
12.0
290
     0
  0
SCALE
  5
63
102
{ACAD_REACTORS
330
47
102
}
330
47
100
AcDbScale
 70
     0
300
3/4\" = 1\'-0\"
140
0.75
141
12.0
290
     0
  0
SCALE
  5
64
102
{ACAD_REACTORS
330
47
102
}
330
47
100
AcDbScale
 70
     0
300
1\" = 1\'-0\"
140
1.0
141
12.0
290
     0
  0
SCALE
  5
65
102
{ACAD_REACTORS
330
47
102
}
330
47
100
AcDbScale
 70
     0
300
1-1/2\" = 1\'-0\"
140
1.5
141
12.0
290
     0
  0
SCALE
  5
66
102
{ACAD_REACTORS
330
47
102
}
330
47
100
AcDbScale
 70
     0
300
3\" = 1\'-0\"
140
3.0
141
12.0
290
     0
  0
SCALE
  5
67
102
{ACAD_REACTORS
330
47
102
}
330
47
100
AcDbScale
 70
     0
300
6\" = 1\'-0\"
140
6.0
141
12.0
290
     0
  0
SCALE
  5
68
102
{ACAD_REACTORS
330
47
102
}
330
47
100
AcDbScale
 70
     0
300
1\'-0\" = 1\'-0\"
140
12.0
141
12.0
290
     0
  0
TABLESTYLE
  5
6A
102
{ACAD_REACTORS
330
69
102
}
102
{ACAD_XDICTIONARY
360
CC
102
}
330
69
100
AcDbTableStyle
  3
Standard
 70
     0
 71
     0
 40
0.06
 41
0.06
280
     0
281
     0
  7
Standard
140
0.18
170
     2
 62
     0
 63
   257
283
     0
 90
        4
 91
        0
  1

274
    -2
284
     1
 64
     0
275
    -2
285
     1
 65
     0
276
    -2
286
     1
 66
     0
277
    -2
287
     1
 67
     0
278
    -2
288
     1
 68
     0
279
    -2
289
     1
 69
     0
  7
Standard
140
0.25
170
     5
 62
     0
 63
   257
283
     0
 90
        4
 91
        0
  1

274
    -2
284
     1
 64
     0
275
    -2
285
     1
 65
     0
276
    -2
286
     1
 66
     0
277
    -2
287
     1
 67
     0
278
    -2
288
     1
 68
     0
279
    -2
289
     1
 69
     0
  7
Standard
140
0.18
170
     5
 62
     0
 63
   257
283
     0
 90
        4
 91
        0
  1

274
    -2
284
     1
 64
     0
275
    -2
285
     1
 65
     0
276
    -2
286
     1
 66
     0
277
    -2
287
     1
 67
     0
278
    -2
288
     1
 68
     0
279
    -2
289
     1
 69
     0
  0
VISUALSTYLE
  5
2F
102
{ACAD_REACTORS
330
2A
102
}
102
{ACAD_XDICTIONARY
360
A4
102
}
330
2A
100
AcDbVisualStyle
  2
2dWireframe
 70
     4
 71
     0
 72
     2
 73
     0
 90
        0
 40
0.6
 41
30.0
 62
     5
 63
     7
421
 16777215
 74
     1
 91
        4
 64
     7
 65
   257
 75
     1
175
     1
 42
1.0
 92
        0
 66
   257
 43
1.0
 76
     1
 77
     6
 78
     2
 67
     7
 79
     5
170
     0
171
     0
290
     0
174
     0
 93
        1
 44
0.0
173
     0
291
     0
 45
0.0
  0
VISUALSTYLE
  5
32
102
{ACAD_REACTORS
330
2A
102
}
102
{ACAD_XDICTIONARY
360
AA
102
}
330
2A
100
AcDbVisualStyle
  2
Basic
 70
     7
 71
     1
 72
     0
 73
     1
 90
        0
 40
0.6
 41
30.0
 62
     5
 63
     7
421
 16777215
 74
     0
 91
        4
 64
     7
 65
   257
 75
     1
175
     1
 42
1.0
 92
        8
 66
     7
 43
1.0
 76
     1
 77
     6
 78
     2
 67
     7
 79
     5
170
     0
171
     0
290
     0
174
     0
 93
        1
 44
0.0
173
     0
291
     1
 45
0.0
  0
VISUALSTYLE
  5
36
102
{ACAD_REACTORS
330
2A
102
}
102
{ACAD_XDICTIONARY
360
B2
102
}
330
2A
100
AcDbVisualStyle
  2
Brighten
 70
    12
 71
     2
 72
     2
 73
     0
 90
        0
 40
0.6
 41
30.0
 62
     5
 63
     7
421
 16777215
 74
     1
 91
        4
 64
     7
 65
   257
 75
     1
175
     1
 42
1.0
 92
        8
 66
     7
 43
1.0
 76
     1
 77
     6
 78
     2
 67
     7
 79
     5
170
     0
171
     0
290
     0
174
     0
 93
        1
 44
50.0
173
     0
291
     1
 45
0.0
  0
VISUALSTYLE
  5
3A
102
{ACAD_REACTORS
330
2A
102
}
102
{ACAD_XDICTIONARY
360
BA
102
}
330
2A
100
AcDbVisualStyle
  2
ColorChange
 70
    16
 71
     2
 72
     2
 73
     3
 90
        0
 40
0.6
 41
30.0
 62
     5
 63
     8
421
  8421504
 74
     1
 91
        4
 64
     7
 65
   257
 75
     1
175
     1
 42
1.0
 92
        8
 66
     8
424
  8421504
 43
1.0
 76
     1
 77
     6
 78
     2
 67
     7
 79
     5
170
     0
171
     0
290
     0
174
     0
 93
        1
 44
0.0
173
     0
291
     1
 45
0.0
  0
VISUALSTYLE
  5
34
102
{ACAD_REACTORS
330
2A
102
}
102
{ACAD_XDICTIONARY
360
AE
102
}
330
2A
100
AcDbVisualStyle
  2
Conceptual
 70
     9
 71
     3
 72
     2
 73
     0
 90
        0
 40
0.6
 41
30.0
 62
     5
 63
     7
421
 16777215
 74
     2
 91
        2
 64
     7
 65
   257
 75
     1
175
     1
 42
179.0
 92
        8
 66
     7
 43
1.0
 76
     1
 77
     6
 78
     2
 67
     7
 79
     3
170
     0
171
     0
290
     0
174
     0
 93
        1
 44
0.0
173
     0
291
     0
 45
0.0
  0
VISUALSTYLE
  5
35
102
{ACAD_REACTORS
330
2A
102
}
102
{ACAD_XDICTIONARY
360
B0
102
}
330
2A
100
AcDbVisualStyle
  2
Dim
 70
    11
 71
     2
 72
     2
 73
     0
 90
        0
 40
0.6
 41
30.0
 62
     5
 63
     7
421
 16777215
 74
     1
 91
        4
 64
     7
 65
   257
 75
     1
175
     1
 42
1.0
 92
        8
 66
     7
 43
1.0
 76
     1
 77
     6
 78
     2
 67
     7
 79
     5
170
     0
171
     0
290
     0
174
     0
 93
        1
 44
-50.0
173
     0
291
     1
 45
0.0
  0
VISUALSTYLE
  5
3D
102
{ACAD_REACTORS
330
2A
102
}
102
{ACAD_XDICTIONARY
360
C0
102
}
330
2A
100
AcDbVisualStyle
  2
EdgeColorOff
 70
    22
 71
     2
 72
     2
 73
     0
 90
        0
 40
0.6
 41
30.0
 62
     5
 63
     7
421
 16777215
 74
     1
 91
        4
 64
     7
 65
   257
 75
     1
175
     1
 42
1.0
 92
        8
 66
     7
 43
1.0
 76
     1
 77
     6
 78
     2
 67
     7
 79
     5
170
     0
171
     0
290
     0
174
     0
 93
        1
 44
0.0
173
     0
291
     1
 45
0.0
  0
VISUALSTYLE
  5
39
102
{ACAD_REACTORS
330
2A
102
}
102
{ACAD_XDICTIONARY
360
B8
102
}
330
2A
100
AcDbVisualStyle
  2
Facepattern
 70
    15
 71
     2
 72
     2
 73
     0
 90
        0
 40
0.6
 41
30.0
 62
     5
 63
     7
421
 16777215
 74
     1
 91
        4
 64
     7
 65
   257
 75
     1
175
     1
 42
1.0
 92
        8
 66
     7
 43
1.0
 76
     1
 77
     6
 78
     2
 67
     7
 79
     5
170
     0
171
     0
290
     0
174
     0
 93
        1
 44
0.0
173
     0
291
     1
 45
0.0
  0
VISUALSTYLE
  5
2B
102
{ACAD_REACTORS
330
2A
102
}
102
{ACAD_XDICTIONARY
360
9C
102
}
330
2A
100
AcDbVisualStyle
  2
Flat
 70
     0
 71
     2
 72
     1
 73
     1
 90
        2
 40
0.6
 41
30.0
 62
     5
 63
     7
421
 16777215
 74
     0
 91
        0
 64
     7
 65
   257
 75
     1
175
     1
 42
1.0
 92
        8
 66
     7
 43
1.0
 76
     1
 77
     6
 78
     2
 67
     7
 79
     5
170
     0
171
     0
290
     0
174
     0
 93
       13
 44
0.0
173
     0
291
     1
 45
0.0
  0
VISUALSTYLE
  5
2C
102
{ACAD_REACTORS
330
2A
102
}
102
{ACAD_XDICTIONARY
360
9E
102
}
330
2A
100
AcDbVisualStyle
  2
FlatWithEdges
 70
     1
 71
     2
 72
     1
 73
     1
 90
        2
 40
0.6
 41
30.0
 62
     5
 63
     7
421
 16777215
 74
     1
 91
        0
 64
     7
 65
   257
 75
     1
175
     1
 42
1.0
 92
        0
 66
   257
 43
1.0
 76
     1
 77
     6
 78
     2
 67
     7
 79
     5
170
     0
171
     0
290
     0
174
     0
 93
       13
 44
0.0
173
     0
291
     1
 45
0.0
  0
VISUALSTYLE
  5
2D
102
{ACAD_REACTORS
330
2A
102
}
102
{ACAD_XDICTIONARY
360
A0
102
}
330
2A
100
AcDbVisualStyle
  2
Gouraud
 70
     2
 71
     2
 72
     2
 73
     1
 90
        2
 40
0.6
 41
30.0
 62
     5
 63
     7
421
 16777215
 74
     0
 91
        0
 64
     7
 65
   257
 75
     1
175
     1
 42
1.0
 92
        0
 66
     7
 43
1.0
 76
     1
 77
     6
 78
     2
 67
     7
 79
     5
170
     0
171
     0
290
     0
174
     0
 93
       13
 44
0.0
173
     0
291
     1
 45
0.0
  0
VISUALSTYLE
  5
2E
102
{ACAD_REACTORS
330
2A
102
}
102
{ACAD_XDICTIONARY
360
A2
102
}
330
2A
100
AcDbVisualStyle
  2
GouraudWithEdges
 70
     3
 71
     2
 72
     2
 73
     1
 90
        2
 40
0.6
 41
30.0
 62
     5
 63
     7
421
 16777215
 74
     1
 91
        0
 64
     7
 65
   257
 75
     1
175
     1
 42
1.0
 92
        0
 66
   257
 43
1.0
 76
     1
 77
     6
 78
     2
 67
     7
 79
     5
170
     0
171
     0
290
     0
174
     0
 93
       13
 44
0.0
173
     0
291
     1
 45
0.0
  0
VISUALSTYLE
  5
31
102
{ACAD_REACTORS
330
2A
102
}
102
{ACAD_XDICTIONARY
360
A8
102
}
330
2A
100
AcDbVisualStyle
  2
Hidden
 70
     6
 71
     1
 72
     2
 73
     2
 90
        0
 40
0.6
 41
30.0
 62
     5
 63
     7
421
 16777215
 74
     2
 91
        2
 64
     7
 65
   257
 75
     2
175
     1
 42
40.0
 92
        0
 66
   257
 43
1.0
 76
     1
 77
     6
 78
     2
 67
     7
 79
     3
170
     0
171
     0
290
     0
174
     0
 93
        1
 44
0.0
173
     0
291
     0
 45
0.0
  0
VISUALSTYLE
  5
3B
102
{ACAD_REACTORS
330
2A
102
}
102
{ACAD_XDICTIONARY
360
BC
102
}
330
2A
100
AcDbVisualStyle
  2
JitterOff
 70
    20
 71
     2
 72
     2
 73
     0
 90
        0
 40
0.6
 41
30.0
 62
     5
 63
     7
421
 16777215
 74
     1
 91
        4
 64
     7
 65
   257
 75
     1
175
     1
 42
1.0
 92
       10
 66
     7
 43
1.0
 76
     1
 77
     6
 78
     2
 67
     7
 79
     5
170
     0
171
     0
290
     0
174
     0
 93
        1
 44
0.0
173
     0
291
     1
 45
0.0
  0
VISUALSTYLE
  5
38
102
{ACAD_REACTORS
330
2A
102
}
102
{ACAD_XDICTIONARY
360
B6
102
}
330
2A
100
AcDbVisualStyle
  2
Linepattern
 70
    14
 71
     2
 72
     2
 73
     0
 90
        0
 40
0.6
 41
30.0
 62
     5
 63
     7
421
 16777215
 74
     1
 91
        4
 64
     7
 65
   257
 75
     7
175
     7
 42
1.0
 92
        8
 66
     7
 43
1.0
 76
     1
 77
     6
 78
     2
 67
     7
 79
     5
170
     0
171
     0
290
     0
174
     0
 93
        1
 44
0.0
173
     0
291
     1
 45
0.0
  0
VISUALSTYLE
  5
3C
102
{ACAD_REACTORS
330
2A
102
}
102
{ACAD_XDICTIONARY
360
BE
102
}
330
2A
100
AcDbVisualStyle
  2
OverhangOff
 70
    21
 71
     2
 72
     2
 73
     0
 90
        0
 40
0.6
 41
30.0
 62
     5
 63
     7
421
 16777215
 74
     1
 91
        4
 64
     7
 65
   257
 75
     1
175
     1
 42
1.0
 92
        9
 66
     7
 43
1.0
 76
     1
 77
     6
 78
     2
 67
     7
 79
     5
170
     0
171
     0
290
     0
174
     0
 93
        1
 44
0.0
173
     0
291
     1
 45
0.0
  0
VISUALSTYLE
  5
33
102
{ACAD_REACTORS
330
2A
102
}
102
{ACAD_XDICTIONARY
360
AC
102
}
330
2A
100
AcDbVisualStyle
  2
Realistic
 70
     8
 71
     2
 72
     3
 73
     0
 90
        2
 40
0.6
 41
30.0
 62
     5
 63
     7
421
 16777215
 74
     0
 91
        0
 64
     7
 65
   257
 75
     1
175
     1
 42
1.0
 92
        8
 66
   257
 43
1.0
 76
     1
 77
     6
 78
     2
 67
     7
 79
     3
170
     0
171
     0
290
     0
174
     0
 93
       13
 44
0.0
173
     0
291
     0
 45
0.0
  0
VISUALSTYLE
  5
42
102
{ACAD_REACTORS
330
2A
102
}
102
{ACAD_XDICTIONARY
360
CA
102
}
330
2A
100
AcDbVisualStyle
  2
Shaded
 70
    27
 71
     2
 72
     2
 73
     1
 90
        2
 40
0.6
 41
30.0
 62
     5
 63
     7
421
 16777215
 74
     0
 91
        4
 64
     7
 65
   257
 75
     1
175
     1
 42
1.0
 92
        8
 66
   257
 43
1.0
 76
     1
 77
     6
 78
     2
 67
     8
425
  7895160
 79
     3
170
     0
171
     0
290
     0
174
     0
 93
        5
 44
0.0
173
     0
291
     0
 45
0.0
  0
VISUALSTYLE
  5
41
102
{ACAD_REACTORS
330
2A
102
}
102
{ACAD_XDICTIONARY
360
C8
102
}
330
2A
100
AcDbVisualStyle
  2
Shaded with edges
 70
    26
 71
     2
 72
     2
 73
     1
 90
        2
 40
0.6
 41
30.0
 62
     5
 63
     7
421
 16777215
 74
     1
 91
       10
 64
     7
 65
   257
 75
     2
175
     1
 42
1.0
 92
        8
 66
   257
 43
1.0
 76
     1
 77
     6
 78
     2
 67
     7
 79
     3
170
     0
171
     0
290
     0
174
     0
 93
        5
 44
0.0
173
     0
291
     0
 45
0.0
  0
VISUALSTYLE
  5
3E
102
{ACAD_REACTORS
330
2A
102
}
102
{ACAD_XDICTIONARY
360
C2
102
}
330
2A
100
AcDbVisualStyle
  2
Shades of Gray
 70
    23
 71
     2
 72
     2
 73
     3
 90
        0
 40
0.6
 41
30.0
 62
     5
 63
     7
421
 16777215
 74
     2
 91
        2
 64
     7
 65
     7
 75
     1
175
     1
 42
40.0
 92
        8
 66
     7
 43
1.0
 76
     1
 77
     6
 78
     2
 67
     7
 79
     3
170
     0
171
     0
290
     0
174
     0
 93
        1
 44
0.0
173
     0
291
     0
 45
0.0
  0
VISUALSTYLE
  5
3F
102
{ACAD_REACTORS
330
2A
102
}
102
{ACAD_XDICTIONARY
360
C4
102
}
330
2A
100
AcDbVisualStyle
  2
Sketchy
 70
    24
 71
     1
 72
     2
 73
     2
 90
        0
 40
0.6
 41
30.0
 62
     5
 63
     7
421
 16777215
 74
     2
 91
        2
 64
     7
 65
     7
 75
     1
175
     1
 42
40.0
 92
       11
 66
     7
 43
1.0
 76
     1
 77
     6
 78
     2
 67
     7
 79
     6
170
     0
171
     0
290
     0
174
     0
 93
        1
 44
0.0
173
     0
291
     0
 45
0.0
  0
VISUALSTYLE
  5
37
102
{ACAD_REACTORS
330
2A
102
}
102
{ACAD_XDICTIONARY
360
B4
102
}
330
2A
100
AcDbVisualStyle
  2
Thicken
 70
    13
 71
     2
 72
     2
 73
     0
 90
        0
 40
0.6
 41
30.0
 62
     5
 63
     7
421
 16777215
 74
     1
 91
        4
 64
     7
 65
   257
 75
     1
175
     1
 42
1.0
 92
       12
 66
     7
 43
1.0
 76
     1
 77
     6
 78
     2
 67
     7
 79
     5
170
     0
171
     0
290
     0
174
     0
 93
        1
 44
0.0
173
     0
291
     1
 45
0.0
  0
VISUALSTYLE
  5
30
102
{ACAD_REACTORS
330
2A
102
}
102
{ACAD_XDICTIONARY
360
A6
102
}
330
2A
100
AcDbVisualStyle
  2
Wireframe
 70
     5
 71
     0
 72
     2
 73
     0
 90
        0
 40
0.6
 41
30.0
 62
     5
 63
     7
421
 16777215
 74
     1
 91
        4
 64
     7
 65
   257
 75
     1
175
     1
 42
1.0
 92
        0
 66
   257
 43
1.0
 76
     1
 77
     6
 78
     2
 67
     7
 79
     3
170
     0
171
     0
290
     0
174
     0
 93
        1
 44
0.0
173
     0
291
     0
 45
0.0
  0
VISUALSTYLE
  5
40
102
{ACAD_REACTORS
330
2A
102
}
102
{ACAD_XDICTIONARY
360
C6
102
}
330
2A
100
AcDbVisualStyle
  2
X-Ray
 70
    25
 71
     2
 72
     2
 73
     1
 90
        1
 40
0.5
 41
30.0
 62
     5
 63
     7
421
 16777215
 74
     1
 91
        0
 64
     7
 65
   257
 75
     1
175
     1
 42
1.0
 92
        8
 66
     7
 43
1.0
 76
     1
 77
     6
 78
     2
 67
     7
 79
     3
170
     0
171
     0
290
     0
174
     0
 93
       13
 44
0.0
173
     0
291
     0
 45
0.0
  0
DICTIONARYVAR
  5
9A
102
{ACAD_REACTORS
330
99
102
}
330
99
100
DictionaryVariables
280
     0
  1
1:1
  0
DICTIONARYVAR
  5
D3
102
{ACAD_REACTORS
330
99
102
}
330
99
100
DictionaryVariables
280
     0
  1
Standard
  0
DICTIONARYVAR
  5
D2
102
{ACAD_REACTORS
330
99
102
}
330
99
100
DictionaryVariables
280
     0
  1
Standard
  0
DICTIONARYVAR
  5
9B
102
{ACAD_REACTORS
330
99
102
}
330
99
100
DictionaryVariables
280
     0
  1
2
  0
DICTIONARY
  5
CF
330
6C
100
AcDbDictionary
280
     1
281
     1
  3
ACAD_XREC_ROUNDTRIP
360
D0
  0
DICTIONARY
  5
CC
330
6A
100
AcDbDictionary
280
     1
281
     1
  3
ACAD_ROUNDTRIP_2008_TABLESTYLE_CELLSTYLEMAP
360
CD
  0
DICTIONARY
  5
A4
330
2F
100
AcDbDictionary
280
     1
281
     1
  3
ACAD_XREC_ROUNDTRIP
360
A5
  0
DICTIONARY
  5
AA
330
32
100
AcDbDictionary
280
     1
281
     1
  3
ACAD_XREC_ROUNDTRIP
360
AB
  0
DICTIONARY
  5
B2
330
36
100
AcDbDictionary
280
     1
281
     1
  3
ACAD_XREC_ROUNDTRIP
360
B3
  0
DICTIONARY
  5
BA
330
3A
100
AcDbDictionary
280
     1
281
     1
  3
ACAD_XREC_ROUNDTRIP
360
BB
  0
DICTIONARY
  5
AE
330
34
100
AcDbDictionary
280
     1
281
     1
  3
ACAD_XREC_ROUNDTRIP
360
AF
  0
DICTIONARY
  5
B0
330
35
100
AcDbDictionary
280
     1
281
     1
  3
ACAD_XREC_ROUNDTRIP
360
B1
  0
DICTIONARY
  5
C0
330
3D
100
AcDbDictionary
280
     1
281
     1
  3
ACAD_XREC_ROUNDTRIP
360
C1
  0
DICTIONARY
  5
B8
330
39
100
AcDbDictionary
280
     1
281
     1
  3
ACAD_XREC_ROUNDTRIP
360
B9
  0
DICTIONARY
  5
9C
330
2B
100
AcDbDictionary
280
     1
281
     1
  3
ACAD_XREC_ROUNDTRIP
360
9D
  0
DICTIONARY
  5
9E
330
2C
100
AcDbDictionary
280
     1
281
     1
  3
ACAD_XREC_ROUNDTRIP
360
9F
  0
DICTIONARY
  5
A0
330
2D
100
AcDbDictionary
280
     1
281
     1
  3
ACAD_XREC_ROUNDTRIP
360
A1
  0
DICTIONARY
  5
A2
330
2E
100
AcDbDictionary
280
     1
281
     1
  3
ACAD_XREC_ROUNDTRIP
360
A3
  0
DICTIONARY
  5
A8
330
31
100
AcDbDictionary
280
     1
281
     1
  3
ACAD_XREC_ROUNDTRIP
360
A9
  0
DICTIONARY
  5
BC
330
3B
100
AcDbDictionary
280
     1
281
     1
  3
ACAD_XREC_ROUNDTRIP
360
BD
  0
DICTIONARY
  5
B6
330
38
100
AcDbDictionary
280
     1
281
     1
  3
ACAD_XREC_ROUNDTRIP
360
B7
  0
DICTIONARY
  5
BE
330
3C
100
AcDbDictionary
280
     1
281
     1
  3
ACAD_XREC_ROUNDTRIP
360
BF
  0
DICTIONARY
  5
AC
330
33
100
AcDbDictionary
280
     1
281
     1
  3
ACAD_XREC_ROUNDTRIP
360
AD
  0
DICTIONARY
  5
CA
330
42
100
AcDbDictionary
280
     1
281
     1
  3
ACAD_XREC_ROUNDTRIP
360
CB
  0
DICTIONARY
  5
C8
330
41
100
AcDbDictionary
280
     1
281
     1
  3
ACAD_XREC_ROUNDTRIP
360
C9
  0
DICTIONARY
  5
C2
330
3E
100
AcDbDictionary
280
     1
281
     1
  3
ACAD_XREC_ROUNDTRIP
360
C3
  0
DICTIONARY
  5
C4
330
3F
100
AcDbDictionary
280
     1
281
     1
  3
ACAD_XREC_ROUNDTRIP
360
C5
  0
DICTIONARY
  5
B4
330
37
100
AcDbDictionary
280
     1
281
     1
  3
ACAD_XREC_ROUNDTRIP
360
B5
  0
DICTIONARY
  5
A6
330
30
100
AcDbDictionary
280
     1
281
     1
  3
ACAD_XREC_ROUNDTRIP
360
A7
  0
DICTIONARY
  5
C6
330
40
100
AcDbDictionary
280
     1
281
     1
  3
ACAD_XREC_ROUNDTRIP
360
C7
  0
XRECORD
  5
D0
102
{ACAD_REACTORS
330
CF
102
}
330
CF
100
AcDbXrecord
280
     1
102
ACAD_ROUNDTRIP_2010_MLEADER_STYLE
  0
CELLSTYLEMAP
  5
CD
102
{ACAD_REACTORS
330
CC
102
}
330
CC
100
AcDbCellStyleMap
 90
        3
300
CELLSTYLE
  1
TABLEFORMAT_BEGIN
 90
        5
170
     1
 91
        0
 92
    32768
 62
   257
 93
        1
300
CONTENTFORMAT
  1
CONTENTFORMAT_BEGIN
 90
        0
 91
        0
 92
        4
 93
        0
300

 40
0.0
140
1.0
 94
        5
 62
     0
340
11
144
0.25
309
CONTENTFORMAT_END
171
     1
301
MARGIN
  1
CELLMARGIN_BEGIN
 40
0.06
 40
0.06
 40
0.06
 40
0.06
 40
0.06
 40
0.06
309
CELLMARGIN_END
 94
        6
 95
        1
302
GRIDFORMAT
  1
GRIDFORMAT_BEGIN
 90
        0
 91
        1
 62
     0
 92
       -2
340
14
 93
        0
 40
0.045
309
GRIDFORMAT_END
 95
        2
302
GRIDFORMAT
  1
GRIDFORMAT_BEGIN
 90
        0
 91
        1
 62
     0
 92
       -2
340
14
 93
        0
 40
0.045
309
GRIDFORMAT_END
 95
        4
302
GRIDFORMAT
  1
GRIDFORMAT_BEGIN
 90
        0
 91
        1
 62
     0
 92
       -2
340
14
 93
        0
 40
0.045
309
GRIDFORMAT_END
 95
        8
302
GRIDFORMAT
  1
GRIDFORMAT_BEGIN
 90
        0
 91
        1
 62
     0
 92
       -2
340
14
 93
        0
 40
0.045
309
GRIDFORMAT_END
 95
       16
302
GRIDFORMAT
  1
GRIDFORMAT_BEGIN
 90
        0
 91
        1
 62
     0
 92
       -2
340
14
 93
        0
 40
0.045
309
GRIDFORMAT_END
 95
       32
302
GRIDFORMAT
  1
GRIDFORMAT_BEGIN
 90
        0
 91
        1
 62
     0
 92
       -2
340
14
 93
        0
 40
0.045
309
GRIDFORMAT_END
309
TABLEFORMAT_END
  1
CELLSTYLE_BEGIN
 90
        1
 91
        1
300
_TITLE
309
CELLSTYLE_END
300
CELLSTYLE
  1
TABLEFORMAT_BEGIN
 90
        5
170
     1
 91
        0
 92
        0
 62
   257
 93
        1
300
CONTENTFORMAT
  1
CONTENTFORMAT_BEGIN
 90
        0
 91
        0
 92
        4
 93
        0
300

 40
0.0
140
1.0
 94
        5
 62
     0
340
11
144
0.18
309
CONTENTFORMAT_END
171
     1
301
MARGIN
  1
CELLMARGIN_BEGIN
 40
0.06
 40
0.06
 40
0.06
 40
0.06
 40
0.06
 40
0.06
309
CELLMARGIN_END
 94
        6
 95
        1
302
GRIDFORMAT
  1
GRIDFORMAT_BEGIN
 90
        0
 91
        1
 62
     0
 92
       -2
340
14
 93
        0
 40
0.045
309
GRIDFORMAT_END
 95
        2
302
GRIDFORMAT
  1
GRIDFORMAT_BEGIN
 90
        0
 91
        1
 62
     0
 92
       -2
340
14
 93
        0
 40
0.045
309
GRIDFORMAT_END
 95
        4
302
GRIDFORMAT
  1
GRIDFORMAT_BEGIN
 90
        0
 91
        1
 62
     0
 92
       -2
340
14
 93
        0
 40
0.045
309
GRIDFORMAT_END
 95
        8
302
GRIDFORMAT
  1
GRIDFORMAT_BEGIN
 90
        0
 91
        1
 62
     0
 92
       -2
340
14
 93
        0
 40
0.045
309
GRIDFORMAT_END
 95
       16
302
GRIDFORMAT
  1
GRIDFORMAT_BEGIN
 90
        0
 91
        1
 62
     0
 92
       -2
340
14
 93
        0
 40
0.045
309
GRIDFORMAT_END
 95
       32
302
GRIDFORMAT
  1
GRIDFORMAT_BEGIN
 90
        0
 91
        1
 62
     0
 92
       -2
340
14
 93
        0
 40
0.045
309
GRIDFORMAT_END
309
TABLEFORMAT_END
  1
CELLSTYLE_BEGIN
 90
        2
 91
        1
300
_HEADER
309
CELLSTYLE_END
300
CELLSTYLE
  1
TABLEFORMAT_BEGIN
 90
        5
170
     1
 91
        0
 92
        0
 62
   257
 93
        1
300
CONTENTFORMAT
  1
CONTENTFORMAT_BEGIN
 90
        0
 91
        0
 92
        4
 93
        0
300

 40
0.0
140
1.0
 94
        2
 62
     0
340
11
144
0.18
309
CONTENTFORMAT_END
171
     1
301
MARGIN
  1
CELLMARGIN_BEGIN
 40
0.06
 40
0.06
 40
0.06
 40
0.06
 40
0.06
 40
0.06
309
CELLMARGIN_END
 94
        6
 95
        1
302
GRIDFORMAT
  1
GRIDFORMAT_BEGIN
 90
        0
 91
        1
 62
     0
 92
       -2
340
14
 93
        0
 40
0.045
309
GRIDFORMAT_END
 95
        2
302
GRIDFORMAT
  1
GRIDFORMAT_BEGIN
 90
        0
 91
        1
 62
     0
 92
       -2
340
14
 93
        0
 40
0.045
309
GRIDFORMAT_END
 95
        4
302
GRIDFORMAT
  1
GRIDFORMAT_BEGIN
 90
        0
 91
        1
 62
     0
 92
       -2
340
14
 93
        0
 40
0.045
309
GRIDFORMAT_END
 95
        8
302
GRIDFORMAT
  1
GRIDFORMAT_BEGIN
 90
        0
 91
        1
 62
     0
 92
       -2
340
14
 93
        0
 40
0.045
309
GRIDFORMAT_END
 95
       16
302
GRIDFORMAT
  1
GRIDFORMAT_BEGIN
 90
        0
 91
        1
 62
     0
 92
       -2
340
14
 93
        0
 40
0.045
309
GRIDFORMAT_END
 95
       32
302
GRIDFORMAT
  1
GRIDFORMAT_BEGIN
 90
        0
 91
        1
 62
     0
 92
       -2
340
14
 93
        0
 40
0.045
309
GRIDFORMAT_END
309
TABLEFORMAT_END
  1
CELLSTYLE_BEGIN
 90
        3
 91
        2
300
_DATA
309
CELLSTYLE_END
  0
XRECORD
  5
A5
102
{ACAD_REACTORS
330
A4
102
}
330
A4
100
AcDbXrecord
280
     1
102
RTVSPropertyOp0
 70
     1
102
RTVSPropertyOp1
 70
     1
102
RTVSPropertyOp2
 70
     1
102
RTVSPropertyOp3
 70
     1
102
RTVSPropertyOp4
 70
     1
102
RTVSPropertyOp5
 70
     1
102
RTVSPropertyOp6
 70
     1
102
RTVSPropertyOp7
 70
     1
102
RTVSPropertyOp8
 70
     1
102
RTVSPropertyOp9
 70
     1
102
RTVSPropertyOp10
 70
     1
102
RTVSPropertyOp11
 70
     1
102
RTVSPropertyOp12
 70
     1
102
RTVSPropertyOp13
 70
     1
102
RTVSPropertyOp14
 70
     1
102
RTVSPropertyOp15
 70
     1
102
RTVSPropertyOp16
 70
     1
102
RTVSPropertyOp17
 70
     1
102
RTVSPropertyOp18
 70
     1
102
RTVSPropertyOp19
 70
     1
102
RTVSPropertyOp20
 70
     1
102
RTVSPropertyOp21
 70
     1
102
RTVSPropertyOp22
 70
     1
102
RTVSPropertyOp23
 70
     1
102
RTVSPropertyOp24
 70
     1
102
RTVSPropertyOp25
 70
     1
102
RTVSPropertyOp26
 70
     1
102
RTVSPropertyOp27
 70
     1
102
RTVSPropertyOp28
 70
     1
102
RTVSPropertyOp29
 70
     1
102
RTVSPropertyOp30
 70
     1
102
RTVSPropertyOp31
 70
     1
102
RTVSPropertyOp32
 70
     1
102
RTVSPropertyOp33
 70
     1
102
RTVSPropertyOp34
 70
     1
102
RTVSPropertyOp35
 70
     1
102
RTVSPropertyOp36
 70
     1
102
RTVSPropertyOp37
 70
     1
102
RTVSPropertyOp38
 70
     1
102
RTVSPropertyOp39
 70
     1
102
RTVSPropertyOp40
 70
     1
102
RTVSPropertyOp41
 70
     1
102
RTVSPropertyOp42
 70
     1
102
RTVSPropertyOp43
 70
     1
102
RTVSPropertyOp44
 70
     1
102
RTVSPropertyOp45
 70
     1
102
RTVSPropertyOp46
 70
     1
102
RTVSPropertyOp47
 70
     1
102
RTVSPropertyOp48
 70
     1
102
RTVSPropertyOp49
 70
     1
102
RTVSPropertyOp50
 70
     1
102
RTVSPropertyOp51
 70
     0
102
RTVSPropertyOp52
 70
     0
102
RTVSPropertyOp53
 70
     1
102
RTVSPropertyOp54
 70
     1
102
RTVSPropertyOp55
 70
     1
102
RTVSPropertyOp56
 70
     1
102
RTVSPropertyOp57
 70
     1
102
RTVSPost2010Prop28
280
     1
102
RTVSPost2010PropOp28
 70
     1
102
RTVSPost2010Prop29
280
     1
102
RTVSPost2010PropOp29
 70
     1
102
RTVSPost2010Prop30
280
     0
102
RTVSPost2010PropOp30
 70
     1
102
RTVSPost2010Prop31
280
     0
102
RTVSPost2010PropOp31
 70
     1
102
RTVSPost2010Prop32
280
     0
102
RTVSPost2010PropOp32
 70
     1
102
RTVSPost2010Prop33
280
     0
102
RTVSPost2010PropOp33
 70
     1
102
RTVSPost2010Prop34
280
     0
102
RTVSPost2010PropOp34
 70
     1
102
RTVSPost2010Prop35
280
     0
102
RTVSPost2010PropOp35
 70
     1
102
RTVSPost2010Prop36
280
     0
102
RTVSPost2010PropOp36
 70
     1
102
RTVSPost2010Prop37
 90
       50
102
RTVSPost2010PropOp37
 70
     1
102
RTVSPost2010Prop38
140
0.0
102
RTVSPost2010PropOp38
 70
     1
102
RTVSPost2010Prop39
140
1.0
102
RTVSPost2010PropOp39
 70
     1
102
RTVSPost2010Prop40
 90
        0
102
RTVSPost2010PropOp40
 70
     1
102
RTVSPost2010Prop41ColorIndex
 90
       18
102
RTVSPost2010Prop41ColorRGB
 90
        0
102
RTVSPost2010PropOp41
 70
     1
102
RTVSPost2010Prop42
 90
       50
102
RTVSPost2010PropOp42
 70
     1
102
RTVSPost2010Prop43
 90
        3
102
RTVSPost2010PropOp43
 70
     1
102
RTVSPost2010Prop44ColorIndex
 90
        5
102
RTVSPost2010Prop44ColorRGB
 90
      255
102
RTVSPost2010PropOp44
 70
     1
102
RTVSPost2010Prop45
280
     0
102
RTVSPost2010PropOp45
 70
     1
102
RTVSPost2010Prop46
 90
       50
102
RTVSPost2010PropOp46
 70
     1
102
RTVSPost2010Prop47
 90
       50
102
RTVSPost2010PropOp47
 70
     1
102
RTVSPost2010Prop48
 90
       50
102
RTVSPost2010PropOp48
 70
     1
102
RTVSPost2010Prop49
280
     0
102
RTVSPost2010PropOp49
 70
     1
102
RTVSPost2010Prop50
 90
       50
102
RTVSPost2010PropOp50
 70
     1
102
RTVSPost2010Prop51ColorIndex
 90
      256
102
RTVSPost2010Prop51ColorRGB
 90
-16777216
102
RTVSPost2010PropOp51
 70
     0
102
RTVSPost2010Prop52
140
1.0
102
RTVSPost2010PropOp52
 70
     0
102
RTVSPost2010Prop53
 90
        2
102
RTVSPost2010PropOp53
 70
     1
102
RTVSPost2010Prop54
  1
strokes_ogs.tif
102
RTVSPost2010PropOp54
 70
     1
102
RTVSPost2010Prop55
280
     0
102
RTVSPost2010PropOp55
 70
     1
102
RTVSPost2010Prop56
140
1.0
102
RTVSPost2010PropOp56
 70
     1
102
RTVSPost2010Prop57
140
1.0
102
RTVSPost2010PropOp57
 70
     1
  0
XRECORD
  5
AB
102
{ACAD_REACTORS
330
AA
102
}
330
AA
100
AcDbXrecord
280
     1
102
RTVSPropertyOp0
 70
     1
102
RTVSPropertyOp1
 70
     1
102
RTVSPropertyOp2
 70
     1
102
RTVSPropertyOp3
 70
     1
102
RTVSPropertyOp4
 70
     1
102
RTVSPropertyOp5
 70
     1
102
RTVSPropertyOp6
 70
     1
102
RTVSPropertyOp7
 70
     1
102
RTVSPropertyOp8
 70
     1
102
RTVSPropertyOp9
 70
     1
102
RTVSPropertyOp10
 70
     1
102
RTVSPropertyOp11
 70
     1
102
RTVSPropertyOp12
 70
     1
102
RTVSPropertyOp13
 70
     1
102
RTVSPropertyOp14
 70
     1
102
RTVSPropertyOp15
 70
     1
102
RTVSPropertyOp16
 70
     1
102
RTVSPropertyOp17
 70
     1
102
RTVSPropertyOp18
 70
     1
102
RTVSPropertyOp19
 70
     1
102
RTVSPropertyOp20
 70
     1
102
RTVSPropertyOp21
 70
     1
102
RTVSPropertyOp22
 70
     1
102
RTVSPropertyOp23
 70
     1
102
RTVSPropertyOp24
 70
     1
102
RTVSPropertyOp25
 70
     1
102
RTVSPropertyOp26
 70
     1
102
RTVSPropertyOp27
 70
     1
102
RTVSPropertyOp28
 70
     1
102
RTVSPropertyOp29
 70
     1
102
RTVSPropertyOp30
 70
     1
102
RTVSPropertyOp31
 70
     1
102
RTVSPropertyOp32
 70
     1
102
RTVSPropertyOp33
 70
     1
102
RTVSPropertyOp34
 70
     1
102
RTVSPropertyOp35
 70
     1
102
RTVSPropertyOp36
 70
     1
102
RTVSPropertyOp37
 70
     1
102
RTVSPropertyOp38
 70
     1
102
RTVSPropertyOp39
 70
     1
102
RTVSPropertyOp40
 70
     1
102
RTVSPropertyOp41
 70
     1
102
RTVSPropertyOp42
 70
     1
102
RTVSPropertyOp43
 70
     1
102
RTVSPropertyOp44
 70
     1
102
RTVSPropertyOp45
 70
     1
102
RTVSPropertyOp46
 70
     1
102
RTVSPropertyOp47
 70
     1
102
RTVSPropertyOp48
 70
     1
102
RTVSPropertyOp49
 70
     1
102
RTVSPropertyOp50
 70
     1
102
RTVSPropertyOp51
 70
     0
102
RTVSPropertyOp52
 70
     0
102
RTVSPropertyOp53
 70
     1
102
RTVSPropertyOp54
 70
     1
102
RTVSPropertyOp55
 70
     1
102
RTVSPropertyOp56
 70
     1
102
RTVSPropertyOp57
 70
     1
102
RTVSPost2010Prop28
280
     0
102
RTVSPost2010PropOp28
 70
     1
102
RTVSPost2010Prop29
280
     1
102
RTVSPost2010PropOp29
 70
     1
102
RTVSPost2010Prop30
280
     1
102
RTVSPost2010PropOp30
 70
     1
102
RTVSPost2010Prop31
280
     0
102
RTVSPost2010PropOp31
 70
     1
102
RTVSPost2010Prop32
280
     0
102
RTVSPost2010PropOp32
 70
     1
102
RTVSPost2010Prop33
280
     0
102
RTVSPost2010PropOp33
 70
     1
102
RTVSPost2010Prop34
280
     0
102
RTVSPost2010PropOp34
 70
     1
102
RTVSPost2010Prop35
280
     0
102
RTVSPost2010PropOp35
 70
     1
102
RTVSPost2010Prop36
280
     0
102
RTVSPost2010PropOp36
 70
     1
102
RTVSPost2010Prop37
 90
       50
102
RTVSPost2010PropOp37
 70
     1
102
RTVSPost2010Prop38
140
0.0
102
RTVSPost2010PropOp38
 70
     1
102
RTVSPost2010Prop39
140
1.0
102
RTVSPost2010PropOp39
 70
     1
102
RTVSPost2010Prop40
 90
        0
102
RTVSPost2010PropOp40
 70
     1
102
RTVSPost2010Prop41ColorIndex
 90
       18
102
RTVSPost2010Prop41ColorRGB
 90
        0
102
RTVSPost2010PropOp41
 70
     1
102
RTVSPost2010Prop42
 90
       50
102
RTVSPost2010PropOp42
 70
     1
102
RTVSPost2010Prop43
 90
        3
102
RTVSPost2010PropOp43
 70
     1
102
RTVSPost2010Prop44ColorIndex
 90
        5
102
RTVSPost2010Prop44ColorRGB
 90
      255
102
RTVSPost2010PropOp44
 70
     1
102
RTVSPost2010Prop45
280
     0
102
RTVSPost2010PropOp45
 70
     1
102
RTVSPost2010Prop46
 90
       50
102
RTVSPost2010PropOp46
 70
     1
102
RTVSPost2010Prop47
 90
       50
102
RTVSPost2010PropOp47
 70
     1
102
RTVSPost2010Prop48
 90
       50
102
RTVSPost2010PropOp48
 70
     1
102
RTVSPost2010Prop49
280
     0
102
RTVSPost2010PropOp49
 70
     1
102
RTVSPost2010Prop50
 90
       50
102
RTVSPost2010PropOp50
 70
     1
102
RTVSPost2010Prop51ColorIndex
 90
      256
102
RTVSPost2010Prop51ColorRGB
 90
-16777216
102
RTVSPost2010PropOp51
 70
     0
102
RTVSPost2010Prop52
140
1.0
102
RTVSPost2010PropOp52
 70
     0
102
RTVSPost2010Prop53
 90
        2
102
RTVSPost2010PropOp53
 70
     1
102
RTVSPost2010Prop54
  1
strokes_ogs.tif
102
RTVSPost2010PropOp54
 70
     1
102
RTVSPost2010Prop55
280
     0
102
RTVSPost2010PropOp55
 70
     1
102
RTVSPost2010Prop56
140
1.0
102
RTVSPost2010PropOp56
 70
     1
102
RTVSPost2010Prop57
140
1.0
102
RTVSPost2010PropOp57
 70
     1
  0
XRECORD
  5
B3
102
{ACAD_REACTORS
330
B2
102
}
330
B2
100
AcDbXrecord
280
     1
102
RTVSPropertyOp0
 70
     1
102
RTVSPropertyOp1
 70
     1
102
RTVSPropertyOp2
 70
     1
102
RTVSPropertyOp3
 70
     1
102
RTVSPropertyOp4
 70
     1
102
RTVSPropertyOp5
 70
     1
102
RTVSPropertyOp6
 70
     1
102
RTVSPropertyOp7
 70
     1
102
RTVSPropertyOp8
 70
     1
102
RTVSPropertyOp9
 70
     1
102
RTVSPropertyOp10
 70
     1
102
RTVSPropertyOp11
 70
     1
102
RTVSPropertyOp12
 70
     1
102
RTVSPropertyOp13
 70
     1
102
RTVSPropertyOp14
 70
     1
102
RTVSPropertyOp15
 70
     1
102
RTVSPropertyOp16
 70
     1
102
RTVSPropertyOp17
 70
     1
102
RTVSPropertyOp18
 70
     1
102
RTVSPropertyOp19
 70
     1
102
RTVSPropertyOp20
 70
     1
102
RTVSPropertyOp21
 70
     1
102
RTVSPropertyOp22
 70
     1
102
RTVSPropertyOp23
 70
     1
102
RTVSPropertyOp24
 70
     1
102
RTVSPropertyOp25
 70
     1
102
RTVSPropertyOp26
 70
     1
102
RTVSPropertyOp27
 70
     1
102
RTVSPropertyOp28
 70
     1
102
RTVSPropertyOp29
 70
     1
102
RTVSPropertyOp30
 70
     1
102
RTVSPropertyOp31
 70
     1
102
RTVSPropertyOp32
 70
     1
102
RTVSPropertyOp33
 70
     1
102
RTVSPropertyOp34
 70
     1
102
RTVSPropertyOp35
 70
     1
102
RTVSPropertyOp36
 70
     1
102
RTVSPropertyOp37
 70
     1
102
RTVSPropertyOp38
 70
     1
102
RTVSPropertyOp39
 70
     1
102
RTVSPropertyOp40
 70
     1
102
RTVSPropertyOp41
 70
     1
102
RTVSPropertyOp42
 70
     1
102
RTVSPropertyOp43
 70
     1
102
RTVSPropertyOp44
 70
     1
102
RTVSPropertyOp45
 70
     1
102
RTVSPropertyOp46
 70
     1
102
RTVSPropertyOp47
 70
     1
102
RTVSPropertyOp48
 70
     1
102
RTVSPropertyOp49
 70
     1
102
RTVSPropertyOp50
 70
     1
102
RTVSPropertyOp51
 70
     0
102
RTVSPropertyOp52
 70
     0
102
RTVSPropertyOp53
 70
     1
102
RTVSPropertyOp54
 70
     1
102
RTVSPropertyOp55
 70
     1
102
RTVSPropertyOp56
 70
     1
102
RTVSPropertyOp57
 70
     1
102
RTVSPost2010Prop28
280
     0
102
RTVSPost2010PropOp28
 70
     1
102
RTVSPost2010Prop29
280
     1
102
RTVSPost2010PropOp29
 70
     1
102
RTVSPost2010Prop30
280
     1
102
RTVSPost2010PropOp30
 70
     1
102
RTVSPost2010Prop31
280
     0
102
RTVSPost2010PropOp31
 70
     1
102
RTVSPost2010Prop32
280
     0
102
RTVSPost2010PropOp32
 70
     1
102
RTVSPost2010Prop33
280
     0
102
RTVSPost2010PropOp33
 70
     1
102
RTVSPost2010Prop34
280
     0
102
RTVSPost2010PropOp34
 70
     1
102
RTVSPost2010Prop35
280
     0
102
RTVSPost2010PropOp35
 70
     1
102
RTVSPost2010Prop36
280
     0
102
RTVSPost2010PropOp36
 70
     1
102
RTVSPost2010Prop37
 90
       50
102
RTVSPost2010PropOp37
 70
     1
102
RTVSPost2010Prop38
140
0.0
102
RTVSPost2010PropOp38
 70
     1
102
RTVSPost2010Prop39
140
1.0
102
RTVSPost2010PropOp39
 70
     1
102
RTVSPost2010Prop40
 90
        0
102
RTVSPost2010PropOp40
 70
     1
102
RTVSPost2010Prop41ColorIndex
 90
       18
102
RTVSPost2010Prop41ColorRGB
 90
        0
102
RTVSPost2010PropOp41
 70
     1
102
RTVSPost2010Prop42
 90
       50
102
RTVSPost2010PropOp42
 70
     1
102
RTVSPost2010Prop43
 90
        3
102
RTVSPost2010PropOp43
 70
     1
102
RTVSPost2010Prop44ColorIndex
 90
        5
102
RTVSPost2010Prop44ColorRGB
 90
      255
102
RTVSPost2010PropOp44
 70
     1
102
RTVSPost2010Prop45
280
     0
102
RTVSPost2010PropOp45
 70
     1
102
RTVSPost2010Prop46
 90
       50
102
RTVSPost2010PropOp46
 70
     1
102
RTVSPost2010Prop47
 90
       50
102
RTVSPost2010PropOp47
 70
     1
102
RTVSPost2010Prop48
 90
       50
102
RTVSPost2010PropOp48
 70
     1
102
RTVSPost2010Prop49
280
     0
102
RTVSPost2010PropOp49
 70
     1
102
RTVSPost2010Prop50
 90
       50
102
RTVSPost2010PropOp50
 70
     1
102
RTVSPost2010Prop51ColorIndex
 90
      256
102
RTVSPost2010Prop51ColorRGB
 90
-16777216
102
RTVSPost2010PropOp51
 70
     0
102
RTVSPost2010Prop52
140
1.0
102
RTVSPost2010PropOp52
 70
     0
102
RTVSPost2010Prop53
 90
        2
102
RTVSPost2010PropOp53
 70
     1
102
RTVSPost2010Prop54
  1
strokes_ogs.tif
102
RTVSPost2010PropOp54
 70
     1
102
RTVSPost2010Prop55
280
     0
102
RTVSPost2010PropOp55
 70
     1
102
RTVSPost2010Prop56
140
1.0
102
RTVSPost2010PropOp56
 70
     1
102
RTVSPost2010Prop57
140
1.0
102
RTVSPost2010PropOp57
 70
     1
  0
XRECORD
  5
BB
102
{ACAD_REACTORS
330
BA
102
}
330
BA
100
AcDbXrecord
280
     1
102
RTVSPropertyOp0
 70
     1
102
RTVSPropertyOp1
 70
     1
102
RTVSPropertyOp2
 70
     1
102
RTVSPropertyOp3
 70
     1
102
RTVSPropertyOp4
 70
     1
102
RTVSPropertyOp5
 70
     1
102
RTVSPropertyOp6
 70
     1
102
RTVSPropertyOp7
 70
     1
102
RTVSPropertyOp8
 70
     1
102
RTVSPropertyOp9
 70
     1
102
RTVSPropertyOp10
 70
     1
102
RTVSPropertyOp11
 70
     1
102
RTVSPropertyOp12
 70
     1
102
RTVSPropertyOp13
 70
     1
102
RTVSPropertyOp14
 70
     1
102
RTVSPropertyOp15
 70
     1
102
RTVSPropertyOp16
 70
     1
102
RTVSPropertyOp17
 70
     1
102
RTVSPropertyOp18
 70
     1
102
RTVSPropertyOp19
 70
     1
102
RTVSPropertyOp20
 70
     1
102
RTVSPropertyOp21
 70
     1
102
RTVSPropertyOp22
 70
     1
102
RTVSPropertyOp23
 70
     1
102
RTVSPropertyOp24
 70
     1
102
RTVSPropertyOp25
 70
     1
102
RTVSPropertyOp26
 70
     1
102
RTVSPropertyOp27
 70
     1
102
RTVSPropertyOp28
 70
     1
102
RTVSPropertyOp29
 70
     1
102
RTVSPropertyOp30
 70
     1
102
RTVSPropertyOp31
 70
     1
102
RTVSPropertyOp32
 70
     1
102
RTVSPropertyOp33
 70
     1
102
RTVSPropertyOp34
 70
     1
102
RTVSPropertyOp35
 70
     1
102
RTVSPropertyOp36
 70
     1
102
RTVSPropertyOp37
 70
     1
102
RTVSPropertyOp38
 70
     1
102
RTVSPropertyOp39
 70
     1
102
RTVSPropertyOp40
 70
     1
102
RTVSPropertyOp41
 70
     1
102
RTVSPropertyOp42
 70
     1
102
RTVSPropertyOp43
 70
     1
102
RTVSPropertyOp44
 70
     1
102
RTVSPropertyOp45
 70
     1
102
RTVSPropertyOp46
 70
     1
102
RTVSPropertyOp47
 70
     1
102
RTVSPropertyOp48
 70
     1
102
RTVSPropertyOp49
 70
     1
102
RTVSPropertyOp50
 70
     1
102
RTVSPropertyOp51
 70
     0
102
RTVSPropertyOp52
 70
     0
102
RTVSPropertyOp53
 70
     1
102
RTVSPropertyOp54
 70
     1
102
RTVSPropertyOp55
 70
     1
102
RTVSPropertyOp56
 70
     1
102
RTVSPropertyOp57
 70
     1
102
RTVSPost2010Prop28
280
     0
102
RTVSPost2010PropOp28
 70
     1
102
RTVSPost2010Prop29
280
     1
102
RTVSPost2010PropOp29
 70
     1
102
RTVSPost2010Prop30
280
     1
102
RTVSPost2010PropOp30
 70
     1
102
RTVSPost2010Prop31
280
     0
102
RTVSPost2010PropOp31
 70
     1
102
RTVSPost2010Prop32
280
     0
102
RTVSPost2010PropOp32
 70
     1
102
RTVSPost2010Prop33
280
     0
102
RTVSPost2010PropOp33
 70
     1
102
RTVSPost2010Prop34
280
     0
102
RTVSPost2010PropOp34
 70
     1
102
RTVSPost2010Prop35
280
     0
102
RTVSPost2010PropOp35
 70
     1
102
RTVSPost2010Prop36
280
     0
102
RTVSPost2010PropOp36
 70
     1
102
RTVSPost2010Prop37
 90
       50
102
RTVSPost2010PropOp37
 70
     1
102
RTVSPost2010Prop38
140
0.0
102
RTVSPost2010PropOp38
 70
     1
102
RTVSPost2010Prop39
140
1.0
102
RTVSPost2010PropOp39
 70
     1
102
RTVSPost2010Prop40
 90
        0
102
RTVSPost2010PropOp40
 70
     1
102
RTVSPost2010Prop41ColorIndex
 90
       18
102
RTVSPost2010Prop41ColorRGB
 90
        0
102
RTVSPost2010PropOp41
 70
     1
102
RTVSPost2010Prop42
 90
       50
102
RTVSPost2010PropOp42
 70
     1
102
RTVSPost2010Prop43
 90
        3
102
RTVSPost2010PropOp43
 70
     1
102
RTVSPost2010Prop44ColorIndex
 90
        5
102
RTVSPost2010Prop44ColorRGB
 90
      255
102
RTVSPost2010PropOp44
 70
     1
102
RTVSPost2010Prop45
280
     0
102
RTVSPost2010PropOp45
 70
     1
102
RTVSPost2010Prop46
 90
       50
102
RTVSPost2010PropOp46
 70
     1
102
RTVSPost2010Prop47
 90
       50
102
RTVSPost2010PropOp47
 70
     1
102
RTVSPost2010Prop48
 90
       50
102
RTVSPost2010PropOp48
 70
     1
102
RTVSPost2010Prop49
280
     0
102
RTVSPost2010PropOp49
 70
     1
102
RTVSPost2010Prop50
 90
       50
102
RTVSPost2010PropOp50
 70
     1
102
RTVSPost2010Prop51ColorIndex
 90
      256
102
RTVSPost2010Prop51ColorRGB
 90
-16777216
102
RTVSPost2010PropOp51
 70
     0
102
RTVSPost2010Prop52
140
1.0
102
RTVSPost2010PropOp52
 70
     0
102
RTVSPost2010Prop53
 90
        2
102
RTVSPost2010PropOp53
 70
     1
102
RTVSPost2010Prop54
  1
strokes_ogs.tif
102
RTVSPost2010PropOp54
 70
     1
102
RTVSPost2010Prop55
280
     0
102
RTVSPost2010PropOp55
 70
     1
102
RTVSPost2010Prop56
140
1.0
102
RTVSPost2010PropOp56
 70
     1
102
RTVSPost2010Prop57
140
1.0
102
RTVSPost2010PropOp57
 70
     1
  0
XRECORD
  5
AF
102
{ACAD_REACTORS
330
AE
102
}
330
AE
100
AcDbXrecord
280
     1
102
RTVSPropertyOp0
 70
     1
102
RTVSPropertyOp1
 70
     1
102
RTVSPropertyOp2
 70
     1
102
RTVSPropertyOp3
 70
     1
102
RTVSPropertyOp4
 70
     1
102
RTVSPropertyOp5
 70
     1
102
RTVSPropertyOp6
 70
     1
102
RTVSPropertyOp7
 70
     1
102
RTVSPropertyOp8
 70
     1
102
RTVSPropertyOp9
 70
     1
102
RTVSPropertyOp10
 70
     1
102
RTVSPropertyOp11
 70
     1
102
RTVSPropertyOp12
 70
     1
102
RTVSPropertyOp13
 70
     1
102
RTVSPropertyOp14
 70
     1
102
RTVSPropertyOp15
 70
     1
102
RTVSPropertyOp16
 70
     1
102
RTVSPropertyOp17
 70
     1
102
RTVSPropertyOp18
 70
     1
102
RTVSPropertyOp19
 70
     1
102
RTVSPropertyOp20
 70
     1
102
RTVSPropertyOp21
 70
     1
102
RTVSPropertyOp22
 70
     1
102
RTVSPropertyOp23
 70
     1
102
RTVSPropertyOp24
 70
     1
102
RTVSPropertyOp25
 70
     1
102
RTVSPropertyOp26
 70
     1
102
RTVSPropertyOp27
 70
     1
102
RTVSPropertyOp28
 70
     1
102
RTVSPropertyOp29
 70
     1
102
RTVSPropertyOp30
 70
     1
102
RTVSPropertyOp31
 70
     1
102
RTVSPropertyOp32
 70
     1
102
RTVSPropertyOp33
 70
     1
102
RTVSPropertyOp34
 70
     1
102
RTVSPropertyOp35
 70
     1
102
RTVSPropertyOp36
 70
     1
102
RTVSPropertyOp37
 70
     1
102
RTVSPropertyOp38
 70
     1
102
RTVSPropertyOp39
 70
     1
102
RTVSPropertyOp40
 70
     1
102
RTVSPropertyOp41
 70
     1
102
RTVSPropertyOp42
 70
     1
102
RTVSPropertyOp43
 70
     1
102
RTVSPropertyOp44
 70
     1
102
RTVSPropertyOp45
 70
     1
102
RTVSPropertyOp46
 70
     1
102
RTVSPropertyOp47
 70
     1
102
RTVSPropertyOp48
 70
     1
102
RTVSPropertyOp49
 70
     1
102
RTVSPropertyOp50
 70
     1
102
RTVSPropertyOp51
 70
     0
102
RTVSPropertyOp52
 70
     0
102
RTVSPropertyOp53
 70
     1
102
RTVSPropertyOp54
 70
     1
102
RTVSPropertyOp55
 70
     1
102
RTVSPropertyOp56
 70
     1
102
RTVSPropertyOp57
 70
     1
102
RTVSPost2010Prop28
280
     0
102
RTVSPost2010PropOp28
 70
     1
102
RTVSPost2010Prop29
280
     1
102
RTVSPost2010PropOp29
 70
     1
102
RTVSPost2010Prop30
280
     1
102
RTVSPost2010PropOp30
 70
     1
102
RTVSPost2010Prop31
280
     0
102
RTVSPost2010PropOp31
 70
     1
102
RTVSPost2010Prop32
280
     0
102
RTVSPost2010PropOp32
 70
     1
102
RTVSPost2010Prop33
280
     0
102
RTVSPost2010PropOp33
 70
     1
102
RTVSPost2010Prop34
280
     0
102
RTVSPost2010PropOp34
 70
     1
102
RTVSPost2010Prop35
280
     0
102
RTVSPost2010PropOp35
 70
     1
102
RTVSPost2010Prop36
280
     0
102
RTVSPost2010PropOp36
 70
     1
102
RTVSPost2010Prop37
 90
       50
102
RTVSPost2010PropOp37
 70
     1
102
RTVSPost2010Prop38
140
0.0
102
RTVSPost2010PropOp38
 70
     1
102
RTVSPost2010Prop39
140
1.0
102
RTVSPost2010PropOp39
 70
     1
102
RTVSPost2010Prop40
 90
        0
102
RTVSPost2010PropOp40
 70
     1
102
RTVSPost2010Prop41ColorIndex
 90
       18
102
RTVSPost2010Prop41ColorRGB
 90
        0
102
RTVSPost2010PropOp41
 70
     1
102
RTVSPost2010Prop42
 90
       50
102
RTVSPost2010PropOp42
 70
     1
102
RTVSPost2010Prop43
 90
        3
102
RTVSPost2010PropOp43
 70
     1
102
RTVSPost2010Prop44ColorIndex
 90
        5
102
RTVSPost2010Prop44ColorRGB
 90
      255
102
RTVSPost2010PropOp44
 70
     1
102
RTVSPost2010Prop45
280
     0
102
RTVSPost2010PropOp45
 70
     1
102
RTVSPost2010Prop46
 90
       50
102
RTVSPost2010PropOp46
 70
     1
102
RTVSPost2010Prop47
 90
       50
102
RTVSPost2010PropOp47
 70
     1
102
RTVSPost2010Prop48
 90
       50
102
RTVSPost2010PropOp48
 70
     1
102
RTVSPost2010Prop49
280
     0
102
RTVSPost2010PropOp49
 70
     1
102
RTVSPost2010Prop50
 90
       50
102
RTVSPost2010PropOp50
 70
     1
102
RTVSPost2010Prop51ColorIndex
 90
      256
102
RTVSPost2010Prop51ColorRGB
 90
-16777216
102
RTVSPost2010PropOp51
 70
     0
102
RTVSPost2010Prop52
140
1.0
102
RTVSPost2010PropOp52
 70
     0
102
RTVSPost2010Prop53
 90
        2
102
RTVSPost2010PropOp53
 70
     1
102
RTVSPost2010Prop54
  1
strokes_ogs.tif
102
RTVSPost2010PropOp54
 70
     1
102
RTVSPost2010Prop55
280
     0
102
RTVSPost2010PropOp55
 70
     1
102
RTVSPost2010Prop56
140
1.0
102
RTVSPost2010PropOp56
 70
     1
102
RTVSPost2010Prop57
140
1.0
102
RTVSPost2010PropOp57
 70
     1
  0
XRECORD
  5
B1
102
{ACAD_REACTORS
330
B0
102
}
330
B0
100
AcDbXrecord
280
     1
102
RTVSPropertyOp0
 70
     1
102
RTVSPropertyOp1
 70
     1
102
RTVSPropertyOp2
 70
     1
102
RTVSPropertyOp3
 70
     1
102
RTVSPropertyOp4
 70
     1
102
RTVSPropertyOp5
 70
     1
102
RTVSPropertyOp6
 70
     1
102
RTVSPropertyOp7
 70
     1
102
RTVSPropertyOp8
 70
     1
102
RTVSPropertyOp9
 70
     1
102
RTVSPropertyOp10
 70
     1
102
RTVSPropertyOp11
 70
     1
102
RTVSPropertyOp12
 70
     1
102
RTVSPropertyOp13
 70
     1
102
RTVSPropertyOp14
 70
     1
102
RTVSPropertyOp15
 70
     1
102
RTVSPropertyOp16
 70
     1
102
RTVSPropertyOp17
 70
     1
102
RTVSPropertyOp18
 70
     1
102
RTVSPropertyOp19
 70
     1
102
RTVSPropertyOp20
 70
     1
102
RTVSPropertyOp21
 70
     1
102
RTVSPropertyOp22
 70
     1
102
RTVSPropertyOp23
 70
     1
102
RTVSPropertyOp24
 70
     1
102
RTVSPropertyOp25
 70
     1
102
RTVSPropertyOp26
 70
     1
102
RTVSPropertyOp27
 70
     1
102
RTVSPropertyOp28
 70
     1
102
RTVSPropertyOp29
 70
     1
102
RTVSPropertyOp30
 70
     1
102
RTVSPropertyOp31
 70
     1
102
RTVSPropertyOp32
 70
     1
102
RTVSPropertyOp33
 70
     1
102
RTVSPropertyOp34
 70
     1
102
RTVSPropertyOp35
 70
     1
102
RTVSPropertyOp36
 70
     1
102
RTVSPropertyOp37
 70
     1
102
RTVSPropertyOp38
 70
     1
102
RTVSPropertyOp39
 70
     1
102
RTVSPropertyOp40
 70
     1
102
RTVSPropertyOp41
 70
     1
102
RTVSPropertyOp42
 70
     1
102
RTVSPropertyOp43
 70
     1
102
RTVSPropertyOp44
 70
     1
102
RTVSPropertyOp45
 70
     1
102
RTVSPropertyOp46
 70
     1
102
RTVSPropertyOp47
 70
     1
102
RTVSPropertyOp48
 70
     1
102
RTVSPropertyOp49
 70
     1
102
RTVSPropertyOp50
 70
     1
102
RTVSPropertyOp51
 70
     0
102
RTVSPropertyOp52
 70
     0
102
RTVSPropertyOp53
 70
     1
102
RTVSPropertyOp54
 70
     1
102
RTVSPropertyOp55
 70
     1
102
RTVSPropertyOp56
 70
     1
102
RTVSPropertyOp57
 70
     1
102
RTVSPost2010Prop28
280
     0
102
RTVSPost2010PropOp28
 70
     1
102
RTVSPost2010Prop29
280
     1
102
RTVSPost2010PropOp29
 70
     1
102
RTVSPost2010Prop30
280
     1
102
RTVSPost2010PropOp30
 70
     1
102
RTVSPost2010Prop31
280
     0
102
RTVSPost2010PropOp31
 70
     1
102
RTVSPost2010Prop32
280
     0
102
RTVSPost2010PropOp32
 70
     1
102
RTVSPost2010Prop33
280
     0
102
RTVSPost2010PropOp33
 70
     1
102
RTVSPost2010Prop34
280
     0
102
RTVSPost2010PropOp34
 70
     1
102
RTVSPost2010Prop35
280
     0
102
RTVSPost2010PropOp35
 70
     1
102
RTVSPost2010Prop36
280
     0
102
RTVSPost2010PropOp36
 70
     1
102
RTVSPost2010Prop37
 90
       50
102
RTVSPost2010PropOp37
 70
     1
102
RTVSPost2010Prop38
140
0.0
102
RTVSPost2010PropOp38
 70
     1
102
RTVSPost2010Prop39
140
1.0
102
RTVSPost2010PropOp39
 70
     1
102
RTVSPost2010Prop40
 90
        0
102
RTVSPost2010PropOp40
 70
     1
102
RTVSPost2010Prop41ColorIndex
 90
       18
102
RTVSPost2010Prop41ColorRGB
 90
        0
102
RTVSPost2010PropOp41
 70
     1
102
RTVSPost2010Prop42
 90
       50
102
RTVSPost2010PropOp42
 70
     1
102
RTVSPost2010Prop43
 90
        3
102
RTVSPost2010PropOp43
 70
     1
102
RTVSPost2010Prop44ColorIndex
 90
        5
102
RTVSPost2010Prop44ColorRGB
 90
      255
102
RTVSPost2010PropOp44
 70
     1
102
RTVSPost2010Prop45
280
     0
102
RTVSPost2010PropOp45
 70
     1
102
RTVSPost2010Prop46
 90
       50
102
RTVSPost2010PropOp46
 70
     1
102
RTVSPost2010Prop47
 90
       50
102
RTVSPost2010PropOp47
 70
     1
102
RTVSPost2010Prop48
 90
       50
102
RTVSPost2010PropOp48
 70
     1
102
RTVSPost2010Prop49
280
     0
102
RTVSPost2010PropOp49
 70
     1
102
RTVSPost2010Prop50
 90
       50
102
RTVSPost2010PropOp50
 70
     1
102
RTVSPost2010Prop51ColorIndex
 90
      256
102
RTVSPost2010Prop51ColorRGB
 90
-16777216
102
RTVSPost2010PropOp51
 70
     0
102
RTVSPost2010Prop52
140
1.0
102
RTVSPost2010PropOp52
 70
     0
102
RTVSPost2010Prop53
 90
        2
102
RTVSPost2010PropOp53
 70
     1
102
RTVSPost2010Prop54
  1
strokes_ogs.tif
102
RTVSPost2010PropOp54
 70
     1
102
RTVSPost2010Prop55
280
     0
102
RTVSPost2010PropOp55
 70
     1
102
RTVSPost2010Prop56
140
1.0
102
RTVSPost2010PropOp56
 70
     1
102
RTVSPost2010Prop57
140
1.0
102
RTVSPost2010PropOp57
 70
     1
  0
XRECORD
  5
C1
102
{ACAD_REACTORS
330
C0
102
}
330
C0
100
AcDbXrecord
280
     1
102
RTVSPropertyOp0
 70
     0
102
RTVSPropertyOp1
 70
     0
102
RTVSPropertyOp2
 70
     0
102
RTVSPropertyOp3
 70
     0
102
RTVSPropertyOp4
 70
     0
102
RTVSPropertyOp5
 70
     0
102
RTVSPropertyOp6
 70
     0
102
RTVSPropertyOp7
 70
     0
102
RTVSPropertyOp8
 70
     0
102
RTVSPropertyOp9
 70
     0
102
RTVSPropertyOp10
 70
     0
102
RTVSPropertyOp11
 70
     0
102
RTVSPropertyOp12
 70
     0
102
RTVSPropertyOp13
 70
     0
102
RTVSPropertyOp14
 70
     2
102
RTVSPropertyOp15
 70
     0
102
RTVSPropertyOp16
 70
     0
102
RTVSPropertyOp17
 70
     0
102
RTVSPropertyOp18
 70
     0
102
RTVSPropertyOp19
 70
     0
102
RTVSPropertyOp20
 70
     0
102
RTVSPropertyOp21
 70
     0
102
RTVSPropertyOp22
 70
     0
102
RTVSPropertyOp23
 70
     0
102
RTVSPropertyOp24
 70
     0
102
RTVSPropertyOp25
 70
     0
102
RTVSPropertyOp26
 70
     0
102
RTVSPropertyOp27
 70
     0
102
RTVSPropertyOp28
 70
     0
102
RTVSPropertyOp29
 70
     0
102
RTVSPropertyOp30
 70
     0
102
RTVSPropertyOp31
 70
     0
102
RTVSPropertyOp32
 70
     0
102
RTVSPropertyOp33
 70
     0
102
RTVSPropertyOp34
 70
     0
102
RTVSPropertyOp35
 70
     0
102
RTVSPropertyOp36
 70
     0
102
RTVSPropertyOp37
 70
     0
102
RTVSPropertyOp38
 70
     0
102
RTVSPropertyOp39
 70
     0
102
RTVSPropertyOp40
 70
     0
102
RTVSPropertyOp41
 70
     0
102
RTVSPropertyOp42
 70
     0
102
RTVSPropertyOp43
 70
     0
102
RTVSPropertyOp44
 70
     0
102
RTVSPropertyOp45
 70
     0
102
RTVSPropertyOp46
 70
     0
102
RTVSPropertyOp47
 70
     0
102
RTVSPropertyOp48
 70
     0
102
RTVSPropertyOp49
 70
     0
102
RTVSPropertyOp50
 70
     0
102
RTVSPropertyOp51
 70
     0
102
RTVSPropertyOp52
 70
     0
102
RTVSPropertyOp53
 70
     0
102
RTVSPropertyOp54
 70
     0
102
RTVSPropertyOp55
 70
     0
102
RTVSPropertyOp56
 70
     0
102
RTVSPropertyOp57
 70
     0
102
RTVSPost2010Prop28
280
     0
102
RTVSPost2010PropOp28
 70
     0
102
RTVSPost2010Prop29
280
     1
102
RTVSPost2010PropOp29
 70
     0
102
RTVSPost2010Prop30
280
     1
102
RTVSPost2010PropOp30
 70
     0
102
RTVSPost2010Prop31
280
     0
102
RTVSPost2010PropOp31
 70
     0
102
RTVSPost2010Prop32
280
     0
102
RTVSPost2010PropOp32
 70
     0
102
RTVSPost2010Prop33
280
     0
102
RTVSPost2010PropOp33
 70
     0
102
RTVSPost2010Prop34
280
     0
102
RTVSPost2010PropOp34
 70
     0
102
RTVSPost2010Prop35
280
     0
102
RTVSPost2010PropOp35
 70
     0
102
RTVSPost2010Prop36
280
     0
102
RTVSPost2010PropOp36
 70
     0
102
RTVSPost2010Prop37
 90
       50
102
RTVSPost2010PropOp37
 70
     0
102
RTVSPost2010Prop38
140
0.0
102
RTVSPost2010PropOp38
 70
     0
102
RTVSPost2010Prop39
140
1.0
102
RTVSPost2010PropOp39
 70
     0
102
RTVSPost2010Prop40
 90
        0
102
RTVSPost2010PropOp40
 70
     0
102
RTVSPost2010Prop41ColorIndex
 90
       18
102
RTVSPost2010Prop41ColorRGB
 90
        0
102
RTVSPost2010PropOp41
 70
     0
102
RTVSPost2010Prop42
 90
       50
102
RTVSPost2010PropOp42
 70
     0
102
RTVSPost2010Prop43
 90
        3
102
RTVSPost2010PropOp43
 70
     0
102
RTVSPost2010Prop44ColorIndex
 90
        5
102
RTVSPost2010Prop44ColorRGB
 90
      255
102
RTVSPost2010PropOp44
 70
     0
102
RTVSPost2010Prop45
280
     0
102
RTVSPost2010PropOp45
 70
     0
102
RTVSPost2010Prop46
 90
       50
102
RTVSPost2010PropOp46
 70
     0
102
RTVSPost2010Prop47
 90
       50
102
RTVSPost2010PropOp47
 70
     0
102
RTVSPost2010Prop48
 90
       50
102
RTVSPost2010PropOp48
 70
     0
102
RTVSPost2010Prop49
280
     0
102
RTVSPost2010PropOp49
 70
     0
102
RTVSPost2010Prop50
 90
       50
102
RTVSPost2010PropOp50
 70
     0
102
RTVSPost2010Prop51ColorIndex
 90
      256
102
RTVSPost2010Prop51ColorRGB
 90
-16777216
102
RTVSPost2010PropOp51
 70
     0
102
RTVSPost2010Prop52
140
1.0
102
RTVSPost2010PropOp52
 70
     0
102
RTVSPost2010Prop53
 90
        2
102
RTVSPost2010PropOp53
 70
     0
102
RTVSPost2010Prop54
  1
strokes_ogs.tif
102
RTVSPost2010PropOp54
 70
     0
102
RTVSPost2010Prop55
280
     0
102
RTVSPost2010PropOp55
 70
     0
102
RTVSPost2010Prop56
140
1.0
102
RTVSPost2010PropOp56
 70
     0
102
RTVSPost2010Prop57
140
1.0
102
RTVSPost2010PropOp57
 70
     0
  0
XRECORD
  5
B9
102
{ACAD_REACTORS
330
B8
102
}
330
B8
100
AcDbXrecord
280
     1
102
RTVSPropertyOp0
 70
     1
102
RTVSPropertyOp1
 70
     1
102
RTVSPropertyOp2
 70
     1
102
RTVSPropertyOp3
 70
     1
102
RTVSPropertyOp4
 70
     1
102
RTVSPropertyOp5
 70
     1
102
RTVSPropertyOp6
 70
     1
102
RTVSPropertyOp7
 70
     1
102
RTVSPropertyOp8
 70
     1
102
RTVSPropertyOp9
 70
     1
102
RTVSPropertyOp10
 70
     1
102
RTVSPropertyOp11
 70
     1
102
RTVSPropertyOp12
 70
     1
102
RTVSPropertyOp13
 70
     1
102
RTVSPropertyOp14
 70
     1
102
RTVSPropertyOp15
 70
     1
102
RTVSPropertyOp16
 70
     1
102
RTVSPropertyOp17
 70
     1
102
RTVSPropertyOp18
 70
     1
102
RTVSPropertyOp19
 70
     1
102
RTVSPropertyOp20
 70
     1
102
RTVSPropertyOp21
 70
     1
102
RTVSPropertyOp22
 70
     1
102
RTVSPropertyOp23
 70
     1
102
RTVSPropertyOp24
 70
     1
102
RTVSPropertyOp25
 70
     1
102
RTVSPropertyOp26
 70
     1
102
RTVSPropertyOp27
 70
     1
102
RTVSPropertyOp28
 70
     1
102
RTVSPropertyOp29
 70
     1
102
RTVSPropertyOp30
 70
     1
102
RTVSPropertyOp31
 70
     1
102
RTVSPropertyOp32
 70
     1
102
RTVSPropertyOp33
 70
     1
102
RTVSPropertyOp34
 70
     1
102
RTVSPropertyOp35
 70
     1
102
RTVSPropertyOp36
 70
     1
102
RTVSPropertyOp37
 70
     1
102
RTVSPropertyOp38
 70
     1
102
RTVSPropertyOp39
 70
     1
102
RTVSPropertyOp40
 70
     1
102
RTVSPropertyOp41
 70
     1
102
RTVSPropertyOp42
 70
     1
102
RTVSPropertyOp43
 70
     1
102
RTVSPropertyOp44
 70
     1
102
RTVSPropertyOp45
 70
     1
102
RTVSPropertyOp46
 70
     1
102
RTVSPropertyOp47
 70
     1
102
RTVSPropertyOp48
 70
     1
102
RTVSPropertyOp49
 70
     1
102
RTVSPropertyOp50
 70
     1
102
RTVSPropertyOp51
 70
     0
102
RTVSPropertyOp52
 70
     0
102
RTVSPropertyOp53
 70
     1
102
RTVSPropertyOp54
 70
     1
102
RTVSPropertyOp55
 70
     1
102
RTVSPropertyOp56
 70
     1
102
RTVSPropertyOp57
 70
     1
102
RTVSPost2010Prop28
280
     0
102
RTVSPost2010PropOp28
 70
     1
102
RTVSPost2010Prop29
280
     1
102
RTVSPost2010PropOp29
 70
     1
102
RTVSPost2010Prop30
280
     1
102
RTVSPost2010PropOp30
 70
     1
102
RTVSPost2010Prop31
280
     0
102
RTVSPost2010PropOp31
 70
     1
102
RTVSPost2010Prop32
280
     0
102
RTVSPost2010PropOp32
 70
     1
102
RTVSPost2010Prop33
280
     0
102
RTVSPost2010PropOp33
 70
     1
102
RTVSPost2010Prop34
280
     0
102
RTVSPost2010PropOp34
 70
     1
102
RTVSPost2010Prop35
280
     0
102
RTVSPost2010PropOp35
 70
     1
102
RTVSPost2010Prop36
280
     0
102
RTVSPost2010PropOp36
 70
     1
102
RTVSPost2010Prop37
 90
       50
102
RTVSPost2010PropOp37
 70
     1
102
RTVSPost2010Prop38
140
0.0
102
RTVSPost2010PropOp38
 70
     1
102
RTVSPost2010Prop39
140
1.0
102
RTVSPost2010PropOp39
 70
     1
102
RTVSPost2010Prop40
 90
        0
102
RTVSPost2010PropOp40
 70
     1
102
RTVSPost2010Prop41ColorIndex
 90
       18
102
RTVSPost2010Prop41ColorRGB
 90
        0
102
RTVSPost2010PropOp41
 70
     1
102
RTVSPost2010Prop42
 90
       50
102
RTVSPost2010PropOp42
 70
     1
102
RTVSPost2010Prop43
 90
        3
102
RTVSPost2010PropOp43
 70
     1
102
RTVSPost2010Prop44ColorIndex
 90
        5
102
RTVSPost2010Prop44ColorRGB
 90
      255
102
RTVSPost2010PropOp44
 70
     1
102
RTVSPost2010Prop45
280
     0
102
RTVSPost2010PropOp45
 70
     1
102
RTVSPost2010Prop46
 90
       50
102
RTVSPost2010PropOp46
 70
     1
102
RTVSPost2010Prop47
 90
       50
102
RTVSPost2010PropOp47
 70
     1
102
RTVSPost2010Prop48
 90
       50
102
RTVSPost2010PropOp48
 70
     1
102
RTVSPost2010Prop49
280
     0
102
RTVSPost2010PropOp49
 70
     1
102
RTVSPost2010Prop50
 90
       50
102
RTVSPost2010PropOp50
 70
     1
102
RTVSPost2010Prop51ColorIndex
 90
      256
102
RTVSPost2010Prop51ColorRGB
 90
-16777216
102
RTVSPost2010PropOp51
 70
     0
102
RTVSPost2010Prop52
140
1.0
102
RTVSPost2010PropOp52
 70
     0
102
RTVSPost2010Prop53
 90
        2
102
RTVSPost2010PropOp53
 70
     1
102
RTVSPost2010Prop54
  1
strokes_ogs.tif
102
RTVSPost2010PropOp54
 70
     1
102
RTVSPost2010Prop55
280
     0
102
RTVSPost2010PropOp55
 70
     1
102
RTVSPost2010Prop56
140
1.0
102
RTVSPost2010PropOp56
 70
     1
102
RTVSPost2010Prop57
140
1.0
102
RTVSPost2010PropOp57
 70
     1
  0
XRECORD
  5
9D
102
{ACAD_REACTORS
330
9C
102
}
330
9C
100
AcDbXrecord
280
     1
102
RTVSPropertyOp0
 70
     1
102
RTVSPropertyOp1
 70
     1
102
RTVSPropertyOp2
 70
     1
102
RTVSPropertyOp3
 70
     1
102
RTVSPropertyOp4
 70
     1
102
RTVSPropertyOp5
 70
     1
102
RTVSPropertyOp6
 70
     1
102
RTVSPropertyOp7
 70
     1
102
RTVSPropertyOp8
 70
     1
102
RTVSPropertyOp9
 70
     1
102
RTVSPropertyOp10
 70
     1
102
RTVSPropertyOp11
 70
     1
102
RTVSPropertyOp12
 70
     1
102
RTVSPropertyOp13
 70
     1
102
RTVSPropertyOp14
 70
     1
102
RTVSPropertyOp15
 70
     1
102
RTVSPropertyOp16
 70
     1
102
RTVSPropertyOp17
 70
     1
102
RTVSPropertyOp18
 70
     1
102
RTVSPropertyOp19
 70
     1
102
RTVSPropertyOp20
 70
     1
102
RTVSPropertyOp21
 70
     1
102
RTVSPropertyOp22
 70
     1
102
RTVSPropertyOp23
 70
     1
102
RTVSPropertyOp24
 70
     1
102
RTVSPropertyOp25
 70
     1
102
RTVSPropertyOp26
 70
     1
102
RTVSPropertyOp27
 70
     1
102
RTVSPropertyOp28
 70
     1
102
RTVSPropertyOp29
 70
     1
102
RTVSPropertyOp30
 70
     1
102
RTVSPropertyOp31
 70
     1
102
RTVSPropertyOp32
 70
     1
102
RTVSPropertyOp33
 70
     1
102
RTVSPropertyOp34
 70
     1
102
RTVSPropertyOp35
 70
     1
102
RTVSPropertyOp36
 70
     1
102
RTVSPropertyOp37
 70
     1
102
RTVSPropertyOp38
 70
     1
102
RTVSPropertyOp39
 70
     1
102
RTVSPropertyOp40
 70
     1
102
RTVSPropertyOp41
 70
     1
102
RTVSPropertyOp42
 70
     1
102
RTVSPropertyOp43
 70
     1
102
RTVSPropertyOp44
 70
     1
102
RTVSPropertyOp45
 70
     1
102
RTVSPropertyOp46
 70
     1
102
RTVSPropertyOp47
 70
     1
102
RTVSPropertyOp48
 70
     1
102
RTVSPropertyOp49
 70
     1
102
RTVSPropertyOp50
 70
     1
102
RTVSPropertyOp51
 70
     0
102
RTVSPropertyOp52
 70
     0
102
RTVSPropertyOp53
 70
     1
102
RTVSPropertyOp54
 70
     1
102
RTVSPropertyOp55
 70
     1
102
RTVSPropertyOp56
 70
     1
102
RTVSPropertyOp57
 70
     1
102
RTVSPost2010Prop28
280
     0
102
RTVSPost2010PropOp28
 70
     1
102
RTVSPost2010Prop29
280
     1
102
RTVSPost2010PropOp29
 70
     1
102
RTVSPost2010Prop30
280
     1
102
RTVSPost2010PropOp30
 70
     1
102
RTVSPost2010Prop31
280
     0
102
RTVSPost2010PropOp31
 70
     1
102
RTVSPost2010Prop32
280
     0
102
RTVSPost2010PropOp32
 70
     1
102
RTVSPost2010Prop33
280
     0
102
RTVSPost2010PropOp33
 70
     1
102
RTVSPost2010Prop34
280
     0
102
RTVSPost2010PropOp34
 70
     1
102
RTVSPost2010Prop35
280
     0
102
RTVSPost2010PropOp35
 70
     1
102
RTVSPost2010Prop36
280
     0
102
RTVSPost2010PropOp36
 70
     1
102
RTVSPost2010Prop37
 90
       50
102
RTVSPost2010PropOp37
 70
     1
102
RTVSPost2010Prop38
140
0.0
102
RTVSPost2010PropOp38
 70
     1
102
RTVSPost2010Prop39
140
1.0
102
RTVSPost2010PropOp39
 70
     1
102
RTVSPost2010Prop40
 90
        0
102
RTVSPost2010PropOp40
 70
     1
102
RTVSPost2010Prop41ColorIndex
 90
       18
102
RTVSPost2010Prop41ColorRGB
 90
        0
102
RTVSPost2010PropOp41
 70
     1
102
RTVSPost2010Prop42
 90
       50
102
RTVSPost2010PropOp42
 70
     1
102
RTVSPost2010Prop43
 90
        3
102
RTVSPost2010PropOp43
 70
     1
102
RTVSPost2010Prop44ColorIndex
 90
        5
102
RTVSPost2010Prop44ColorRGB
 90
      255
102
RTVSPost2010PropOp44
 70
     1
102
RTVSPost2010Prop45
280
     0
102
RTVSPost2010PropOp45
 70
     1
102
RTVSPost2010Prop46
 90
       50
102
RTVSPost2010PropOp46
 70
     1
102
RTVSPost2010Prop47
 90
       50
102
RTVSPost2010PropOp47
 70
     1
102
RTVSPost2010Prop48
 90
       50
102
RTVSPost2010PropOp48
 70
     1
102
RTVSPost2010Prop49
280
     0
102
RTVSPost2010PropOp49
 70
     1
102
RTVSPost2010Prop50
 90
       50
102
RTVSPost2010PropOp50
 70
     1
102
RTVSPost2010Prop51ColorIndex
 90
      256
102
RTVSPost2010Prop51ColorRGB
 90
-16777216
102
RTVSPost2010PropOp51
 70
     0
102
RTVSPost2010Prop52
140
1.0
102
RTVSPost2010PropOp52
 70
     0
102
RTVSPost2010Prop53
 90
        2
102
RTVSPost2010PropOp53
 70
     1
102
RTVSPost2010Prop54
  1
strokes_ogs.tif
102
RTVSPost2010PropOp54
 70
     1
102
RTVSPost2010Prop55
280
     0
102
RTVSPost2010PropOp55
 70
     1
102
RTVSPost2010Prop56
140
1.0
102
RTVSPost2010PropOp56
 70
     1
102
RTVSPost2010Prop57
140
1.0
102
RTVSPost2010PropOp57
 70
     1
  0
XRECORD
  5
9F
102
{ACAD_REACTORS
330
9E
102
}
330
9E
100
AcDbXrecord
280
     1
102
RTVSPropertyOp0
 70
     1
102
RTVSPropertyOp1
 70
     1
102
RTVSPropertyOp2
 70
     1
102
RTVSPropertyOp3
 70
     1
102
RTVSPropertyOp4
 70
     1
102
RTVSPropertyOp5
 70
     1
102
RTVSPropertyOp6
 70
     1
102
RTVSPropertyOp7
 70
     1
102
RTVSPropertyOp8
 70
     1
102
RTVSPropertyOp9
 70
     1
102
RTVSPropertyOp10
 70
     1
102
RTVSPropertyOp11
 70
     1
102
RTVSPropertyOp12
 70
     1
102
RTVSPropertyOp13
 70
     1
102
RTVSPropertyOp14
 70
     1
102
RTVSPropertyOp15
 70
     1
102
RTVSPropertyOp16
 70
     1
102
RTVSPropertyOp17
 70
     1
102
RTVSPropertyOp18
 70
     1
102
RTVSPropertyOp19
 70
     1
102
RTVSPropertyOp20
 70
     1
102
RTVSPropertyOp21
 70
     1
102
RTVSPropertyOp22
 70
     1
102
RTVSPropertyOp23
 70
     1
102
RTVSPropertyOp24
 70
     1
102
RTVSPropertyOp25
 70
     1
102
RTVSPropertyOp26
 70
     1
102
RTVSPropertyOp27
 70
     1
102
RTVSPropertyOp28
 70
     1
102
RTVSPropertyOp29
 70
     1
102
RTVSPropertyOp30
 70
     1
102
RTVSPropertyOp31
 70
     1
102
RTVSPropertyOp32
 70
     1
102
RTVSPropertyOp33
 70
     1
102
RTVSPropertyOp34
 70
     1
102
RTVSPropertyOp35
 70
     1
102
RTVSPropertyOp36
 70
     1
102
RTVSPropertyOp37
 70
     1
102
RTVSPropertyOp38
 70
     1
102
RTVSPropertyOp39
 70
     1
102
RTVSPropertyOp40
 70
     1
102
RTVSPropertyOp41
 70
     1
102
RTVSPropertyOp42
 70
     1
102
RTVSPropertyOp43
 70
     1
102
RTVSPropertyOp44
 70
     1
102
RTVSPropertyOp45
 70
     1
102
RTVSPropertyOp46
 70
     1
102
RTVSPropertyOp47
 70
     1
102
RTVSPropertyOp48
 70
     1
102
RTVSPropertyOp49
 70
     1
102
RTVSPropertyOp50
 70
     1
102
RTVSPropertyOp51
 70
     0
102
RTVSPropertyOp52
 70
     0
102
RTVSPropertyOp53
 70
     1
102
RTVSPropertyOp54
 70
     1
102
RTVSPropertyOp55
 70
     1
102
RTVSPropertyOp56
 70
     1
102
RTVSPropertyOp57
 70
     1
102
RTVSPost2010Prop28
280
     0
102
RTVSPost2010PropOp28
 70
     1
102
RTVSPost2010Prop29
280
     1
102
RTVSPost2010PropOp29
 70
     1
102
RTVSPost2010Prop30
280
     1
102
RTVSPost2010PropOp30
 70
     1
102
RTVSPost2010Prop31
280
     0
102
RTVSPost2010PropOp31
 70
     1
102
RTVSPost2010Prop32
280
     0
102
RTVSPost2010PropOp32
 70
     1
102
RTVSPost2010Prop33
280
     0
102
RTVSPost2010PropOp33
 70
     1
102
RTVSPost2010Prop34
280
     0
102
RTVSPost2010PropOp34
 70
     1
102
RTVSPost2010Prop35
280
     0
102
RTVSPost2010PropOp35
 70
     1
102
RTVSPost2010Prop36
280
     0
102
RTVSPost2010PropOp36
 70
     1
102
RTVSPost2010Prop37
 90
       50
102
RTVSPost2010PropOp37
 70
     1
102
RTVSPost2010Prop38
140
0.0
102
RTVSPost2010PropOp38
 70
     1
102
RTVSPost2010Prop39
140
1.0
102
RTVSPost2010PropOp39
 70
     1
102
RTVSPost2010Prop40
 90
        0
102
RTVSPost2010PropOp40
 70
     1
102
RTVSPost2010Prop41ColorIndex
 90
       18
102
RTVSPost2010Prop41ColorRGB
 90
        0
102
RTVSPost2010PropOp41
 70
     1
102
RTVSPost2010Prop42
 90
       50
102
RTVSPost2010PropOp42
 70
     1
102
RTVSPost2010Prop43
 90
        3
102
RTVSPost2010PropOp43
 70
     1
102
RTVSPost2010Prop44ColorIndex
 90
        5
102
RTVSPost2010Prop44ColorRGB
 90
      255
102
RTVSPost2010PropOp44
 70
     1
102
RTVSPost2010Prop45
280
     0
102
RTVSPost2010PropOp45
 70
     1
102
RTVSPost2010Prop46
 90
       50
102
RTVSPost2010PropOp46
 70
     1
102
RTVSPost2010Prop47
 90
       50
102
RTVSPost2010PropOp47
 70
     1
102
RTVSPost2010Prop48
 90
       50
102
RTVSPost2010PropOp48
 70
     1
102
RTVSPost2010Prop49
280
     0
102
RTVSPost2010PropOp49
 70
     1
102
RTVSPost2010Prop50
 90
       50
102
RTVSPost2010PropOp50
 70
     1
102
RTVSPost2010Prop51ColorIndex
 90
      256
102
RTVSPost2010Prop51ColorRGB
 90
-16777216
102
RTVSPost2010PropOp51
 70
     0
102
RTVSPost2010Prop52
140
1.0
102
RTVSPost2010PropOp52
 70
     0
102
RTVSPost2010Prop53
 90
        2
102
RTVSPost2010PropOp53
 70
     1
102
RTVSPost2010Prop54
  1
strokes_ogs.tif
102
RTVSPost2010PropOp54
 70
     1
102
RTVSPost2010Prop55
280
     0
102
RTVSPost2010PropOp55
 70
     1
102
RTVSPost2010Prop56
140
1.0
102
RTVSPost2010PropOp56
 70
     1
102
RTVSPost2010Prop57
140
1.0
102
RTVSPost2010PropOp57
 70
     1
  0
XRECORD
  5
A1
102
{ACAD_REACTORS
330
A0
102
}
330
A0
100
AcDbXrecord
280
     1
102
RTVSPropertyOp0
 70
     1
102
RTVSPropertyOp1
 70
     1
102
RTVSPropertyOp2
 70
     1
102
RTVSPropertyOp3
 70
     1
102
RTVSPropertyOp4
 70
     1
102
RTVSPropertyOp5
 70
     1
102
RTVSPropertyOp6
 70
     1
102
RTVSPropertyOp7
 70
     1
102
RTVSPropertyOp8
 70
     1
102
RTVSPropertyOp9
 70
     1
102
RTVSPropertyOp10
 70
     1
102
RTVSPropertyOp11
 70
     1
102
RTVSPropertyOp12
 70
     1
102
RTVSPropertyOp13
 70
     1
102
RTVSPropertyOp14
 70
     1
102
RTVSPropertyOp15
 70
     1
102
RTVSPropertyOp16
 70
     1
102
RTVSPropertyOp17
 70
     1
102
RTVSPropertyOp18
 70
     1
102
RTVSPropertyOp19
 70
     1
102
RTVSPropertyOp20
 70
     1
102
RTVSPropertyOp21
 70
     1
102
RTVSPropertyOp22
 70
     1
102
RTVSPropertyOp23
 70
     1
102
RTVSPropertyOp24
 70
     1
102
RTVSPropertyOp25
 70
     1
102
RTVSPropertyOp26
 70
     1
102
RTVSPropertyOp27
 70
     1
102
RTVSPropertyOp28
 70
     1
102
RTVSPropertyOp29
 70
     1
102
RTVSPropertyOp30
 70
     1
102
RTVSPropertyOp31
 70
     1
102
RTVSPropertyOp32
 70
     1
102
RTVSPropertyOp33
 70
     1
102
RTVSPropertyOp34
 70
     1
102
RTVSPropertyOp35
 70
     1
102
RTVSPropertyOp36
 70
     1
102
RTVSPropertyOp37
 70
     1
102
RTVSPropertyOp38
 70
     1
102
RTVSPropertyOp39
 70
     1
102
RTVSPropertyOp40
 70
     1
102
RTVSPropertyOp41
 70
     1
102
RTVSPropertyOp42
 70
     1
102
RTVSPropertyOp43
 70
     1
102
RTVSPropertyOp44
 70
     1
102
RTVSPropertyOp45
 70
     1
102
RTVSPropertyOp46
 70
     1
102
RTVSPropertyOp47
 70
     1
102
RTVSPropertyOp48
 70
     1
102
RTVSPropertyOp49
 70
     1
102
RTVSPropertyOp50
 70
     1
102
RTVSPropertyOp51
 70
     0
102
RTVSPropertyOp52
 70
     0
102
RTVSPropertyOp53
 70
     1
102
RTVSPropertyOp54
 70
     1
102
RTVSPropertyOp55
 70
     1
102
RTVSPropertyOp56
 70
     1
102
RTVSPropertyOp57
 70
     1
102
RTVSPost2010Prop28
280
     0
102
RTVSPost2010PropOp28
 70
     1
102
RTVSPost2010Prop29
280
     1
102
RTVSPost2010PropOp29
 70
     1
102
RTVSPost2010Prop30
280
     1
102
RTVSPost2010PropOp30
 70
     1
102
RTVSPost2010Prop31
280
     0
102
RTVSPost2010PropOp31
 70
     1
102
RTVSPost2010Prop32
280
     0
102
RTVSPost2010PropOp32
 70
     1
102
RTVSPost2010Prop33
280
     0
102
RTVSPost2010PropOp33
 70
     1
102
RTVSPost2010Prop34
280
     0
102
RTVSPost2010PropOp34
 70
     1
102
RTVSPost2010Prop35
280
     0
102
RTVSPost2010PropOp35
 70
     1
102
RTVSPost2010Prop36
280
     0
102
RTVSPost2010PropOp36
 70
     1
102
RTVSPost2010Prop37
 90
       50
102
RTVSPost2010PropOp37
 70
     1
102
RTVSPost2010Prop38
140
0.0
102
RTVSPost2010PropOp38
 70
     1
102
RTVSPost2010Prop39
140
1.0
102
RTVSPost2010PropOp39
 70
     1
102
RTVSPost2010Prop40
 90
        0
102
RTVSPost2010PropOp40
 70
     1
102
RTVSPost2010Prop41ColorIndex
 90
       18
102
RTVSPost2010Prop41ColorRGB
 90
        0
102
RTVSPost2010PropOp41
 70
     1
102
RTVSPost2010Prop42
 90
       50
102
RTVSPost2010PropOp42
 70
     1
102
RTVSPost2010Prop43
 90
        3
102
RTVSPost2010PropOp43
 70
     1
102
RTVSPost2010Prop44ColorIndex
 90
        5
102
RTVSPost2010Prop44ColorRGB
 90
      255
102
RTVSPost2010PropOp44
 70
     1
102
RTVSPost2010Prop45
280
     0
102
RTVSPost2010PropOp45
 70
     1
102
RTVSPost2010Prop46
 90
       50
102
RTVSPost2010PropOp46
 70
     1
102
RTVSPost2010Prop47
 90
       50
102
RTVSPost2010PropOp47
 70
     1
102
RTVSPost2010Prop48
 90
       50
102
RTVSPost2010PropOp48
 70
     1
102
RTVSPost2010Prop49
280
     0
102
RTVSPost2010PropOp49
 70
     1
102
RTVSPost2010Prop50
 90
       50
102
RTVSPost2010PropOp50
 70
     1
102
RTVSPost2010Prop51ColorIndex
 90
      256
102
RTVSPost2010Prop51ColorRGB
 90
-16777216
102
RTVSPost2010PropOp51
 70
     0
102
RTVSPost2010Prop52
140
1.0
102
RTVSPost2010PropOp52
 70
     0
102
RTVSPost2010Prop53
 90
        2
102
RTVSPost2010PropOp53
 70
     1
102
RTVSPost2010Prop54
  1
strokes_ogs.tif
102
RTVSPost2010PropOp54
 70
     1
102
RTVSPost2010Prop55
280
     0
102
RTVSPost2010PropOp55
 70
     1
102
RTVSPost2010Prop56
140
1.0
102
RTVSPost2010PropOp56
 70
     1
102
RTVSPost2010Prop57
140
1.0
102
RTVSPost2010PropOp57
 70
     1
  0
XRECORD
  5
A3
102
{ACAD_REACTORS
330
A2
102
}
330
A2
100
AcDbXrecord
280
     1
102
RTVSPropertyOp0
 70
     1
102
RTVSPropertyOp1
 70
     1
102
RTVSPropertyOp2
 70
     1
102
RTVSPropertyOp3
 70
     1
102
RTVSPropertyOp4
 70
     1
102
RTVSPropertyOp5
 70
     1
102
RTVSPropertyOp6
 70
     1
102
RTVSPropertyOp7
 70
     1
102
RTVSPropertyOp8
 70
     1
102
RTVSPropertyOp9
 70
     1
102
RTVSPropertyOp10
 70
     1
102
RTVSPropertyOp11
 70
     1
102
RTVSPropertyOp12
 70
     1
102
RTVSPropertyOp13
 70
     1
102
RTVSPropertyOp14
 70
     1
102
RTVSPropertyOp15
 70
     1
102
RTVSPropertyOp16
 70
     1
102
RTVSPropertyOp17
 70
     1
102
RTVSPropertyOp18
 70
     1
102
RTVSPropertyOp19
 70
     1
102
RTVSPropertyOp20
 70
     1
102
RTVSPropertyOp21
 70
     1
102
RTVSPropertyOp22
 70
     1
102
RTVSPropertyOp23
 70
     1
102
RTVSPropertyOp24
 70
     1
102
RTVSPropertyOp25
 70
     1
102
RTVSPropertyOp26
 70
     1
102
RTVSPropertyOp27
 70
     1
102
RTVSPropertyOp28
 70
     1
102
RTVSPropertyOp29
 70
     1
102
RTVSPropertyOp30
 70
     1
102
RTVSPropertyOp31
 70
     1
102
RTVSPropertyOp32
 70
     1
102
RTVSPropertyOp33
 70
     1
102
RTVSPropertyOp34
 70
     1
102
RTVSPropertyOp35
 70
     1
102
RTVSPropertyOp36
 70
     1
102
RTVSPropertyOp37
 70
     1
102
RTVSPropertyOp38
 70
     1
102
RTVSPropertyOp39
 70
     1
102
RTVSPropertyOp40
 70
     1
102
RTVSPropertyOp41
 70
     1
102
RTVSPropertyOp42
 70
     1
102
RTVSPropertyOp43
 70
     1
102
RTVSPropertyOp44
 70
     1
102
RTVSPropertyOp45
 70
     1
102
RTVSPropertyOp46
 70
     1
102
RTVSPropertyOp47
 70
     1
102
RTVSPropertyOp48
 70
     1
102
RTVSPropertyOp49
 70
     1
102
RTVSPropertyOp50
 70
     1
102
RTVSPropertyOp51
 70
     0
102
RTVSPropertyOp52
 70
     0
102
RTVSPropertyOp53
 70
     1
102
RTVSPropertyOp54
 70
     1
102
RTVSPropertyOp55
 70
     1
102
RTVSPropertyOp56
 70
     1
102
RTVSPropertyOp57
 70
     1
102
RTVSPost2010Prop28
280
     0
102
RTVSPost2010PropOp28
 70
     1
102
RTVSPost2010Prop29
280
     1
102
RTVSPost2010PropOp29
 70
     1
102
RTVSPost2010Prop30
280
     1
102
RTVSPost2010PropOp30
 70
     1
102
RTVSPost2010Prop31
280
     0
102
RTVSPost2010PropOp31
 70
     1
102
RTVSPost2010Prop32
280
     0
102
RTVSPost2010PropOp32
 70
     1
102
RTVSPost2010Prop33
280
     0
102
RTVSPost2010PropOp33
 70
     1
102
RTVSPost2010Prop34
280
     0
102
RTVSPost2010PropOp34
 70
     1
102
RTVSPost2010Prop35
280
     0
102
RTVSPost2010PropOp35
 70
     1
102
RTVSPost2010Prop36
280
     0
102
RTVSPost2010PropOp36
 70
     1
102
RTVSPost2010Prop37
 90
       50
102
RTVSPost2010PropOp37
 70
     1
102
RTVSPost2010Prop38
140
0.0
102
RTVSPost2010PropOp38
 70
     1
102
RTVSPost2010Prop39
140
1.0
102
RTVSPost2010PropOp39
 70
     1
102
RTVSPost2010Prop40
 90
        0
102
RTVSPost2010PropOp40
 70
     1
102
RTVSPost2010Prop41ColorIndex
 90
       18
102
RTVSPost2010Prop41ColorRGB
 90
        0
102
RTVSPost2010PropOp41
 70
     1
102
RTVSPost2010Prop42
 90
       50
102
RTVSPost2010PropOp42
 70
     1
102
RTVSPost2010Prop43
 90
        3
102
RTVSPost2010PropOp43
 70
     1
102
RTVSPost2010Prop44ColorIndex
 90
        5
102
RTVSPost2010Prop44ColorRGB
 90
      255
102
RTVSPost2010PropOp44
 70
     1
102
RTVSPost2010Prop45
280
     0
102
RTVSPost2010PropOp45
 70
     1
102
RTVSPost2010Prop46
 90
       50
102
RTVSPost2010PropOp46
 70
     1
102
RTVSPost2010Prop47
 90
       50
102
RTVSPost2010PropOp47
 70
     1
102
RTVSPost2010Prop48
 90
       50
102
RTVSPost2010PropOp48
 70
     1
102
RTVSPost2010Prop49
280
     0
102
RTVSPost2010PropOp49
 70
     1
102
RTVSPost2010Prop50
 90
       50
102
RTVSPost2010PropOp50
 70
     1
102
RTVSPost2010Prop51ColorIndex
 90
      256
102
RTVSPost2010Prop51ColorRGB
 90
-16777216
102
RTVSPost2010PropOp51
 70
     0
102
RTVSPost2010Prop52
140
1.0
102
RTVSPost2010PropOp52
 70
     0
102
RTVSPost2010Prop53
 90
        2
102
RTVSPost2010PropOp53
 70
     1
102
RTVSPost2010Prop54
  1
strokes_ogs.tif
102
RTVSPost2010PropOp54
 70
     1
102
RTVSPost2010Prop55
280
     0
102
RTVSPost2010PropOp55
 70
     1
102
RTVSPost2010Prop56
140
1.0
102
RTVSPost2010PropOp56
 70
     1
102
RTVSPost2010Prop57
140
1.0
102
RTVSPost2010PropOp57
 70
     1
  0
XRECORD
  5
A9
102
{ACAD_REACTORS
330
A8
102
}
330
A8
100
AcDbXrecord
280
     1
102
RTVSPropertyOp0
 70
     1
102
RTVSPropertyOp1
 70
     1
102
RTVSPropertyOp2
 70
     1
102
RTVSPropertyOp3
 70
     1
102
RTVSPropertyOp4
 70
     1
102
RTVSPropertyOp5
 70
     1
102
RTVSPropertyOp6
 70
     1
102
RTVSPropertyOp7
 70
     1
102
RTVSPropertyOp8
 70
     1
102
RTVSPropertyOp9
 70
     1
102
RTVSPropertyOp10
 70
     1
102
RTVSPropertyOp11
 70
     1
102
RTVSPropertyOp12
 70
     1
102
RTVSPropertyOp13
 70
     1
102
RTVSPropertyOp14
 70
     1
102
RTVSPropertyOp15
 70
     1
102
RTVSPropertyOp16
 70
     1
102
RTVSPropertyOp17
 70
     1
102
RTVSPropertyOp18
 70
     1
102
RTVSPropertyOp19
 70
     1
102
RTVSPropertyOp20
 70
     1
102
RTVSPropertyOp21
 70
     1
102
RTVSPropertyOp22
 70
     1
102
RTVSPropertyOp23
 70
     1
102
RTVSPropertyOp24
 70
     1
102
RTVSPropertyOp25
 70
     1
102
RTVSPropertyOp26
 70
     1
102
RTVSPropertyOp27
 70
     1
102
RTVSPropertyOp28
 70
     1
102
RTVSPropertyOp29
 70
     1
102
RTVSPropertyOp30
 70
     1
102
RTVSPropertyOp31
 70
     1
102
RTVSPropertyOp32
 70
     1
102
RTVSPropertyOp33
 70
     1
102
RTVSPropertyOp34
 70
     1
102
RTVSPropertyOp35
 70
     1
102
RTVSPropertyOp36
 70
     1
102
RTVSPropertyOp37
 70
     1
102
RTVSPropertyOp38
 70
     1
102
RTVSPropertyOp39
 70
     1
102
RTVSPropertyOp40
 70
     1
102
RTVSPropertyOp41
 70
     1
102
RTVSPropertyOp42
 70
     1
102
RTVSPropertyOp43
 70
     1
102
RTVSPropertyOp44
 70
     1
102
RTVSPropertyOp45
 70
     1
102
RTVSPropertyOp46
 70
     1
102
RTVSPropertyOp47
 70
     1
102
RTVSPropertyOp48
 70
     1
102
RTVSPropertyOp49
 70
     1
102
RTVSPropertyOp50
 70
     1
102
RTVSPropertyOp51
 70
     0
102
RTVSPropertyOp52
 70
     0
102
RTVSPropertyOp53
 70
     1
102
RTVSPropertyOp54
 70
     1
102
RTVSPropertyOp55
 70
     1
102
RTVSPropertyOp56
 70
     1
102
RTVSPropertyOp57
 70
     1
102
RTVSPost2010Prop28
280
     0
102
RTVSPost2010PropOp28
 70
     1
102
RTVSPost2010Prop29
280
     1
102
RTVSPost2010PropOp29
 70
     1
102
RTVSPost2010Prop30
280
     1
102
RTVSPost2010PropOp30
 70
     1
102
RTVSPost2010Prop31
280
     0
102
RTVSPost2010PropOp31
 70
     1
102
RTVSPost2010Prop32
280
     0
102
RTVSPost2010PropOp32
 70
     1
102
RTVSPost2010Prop33
280
     0
102
RTVSPost2010PropOp33
 70
     1
102
RTVSPost2010Prop34
280
     0
102
RTVSPost2010PropOp34
 70
     1
102
RTVSPost2010Prop35
280
     0
102
RTVSPost2010PropOp35
 70
     1
102
RTVSPost2010Prop36
280
     0
102
RTVSPost2010PropOp36
 70
     1
102
RTVSPost2010Prop37
 90
       50
102
RTVSPost2010PropOp37
 70
     1
102
RTVSPost2010Prop38
140
0.0
102
RTVSPost2010PropOp38
 70
     1
102
RTVSPost2010Prop39
140
1.0
102
RTVSPost2010PropOp39
 70
     1
102
RTVSPost2010Prop40
 90
        0
102
RTVSPost2010PropOp40
 70
     1
102
RTVSPost2010Prop41ColorIndex
 90
       18
102
RTVSPost2010Prop41ColorRGB
 90
        0
102
RTVSPost2010PropOp41
 70
     1
102
RTVSPost2010Prop42
 90
       50
102
RTVSPost2010PropOp42
 70
     1
102
RTVSPost2010Prop43
 90
        3
102
RTVSPost2010PropOp43
 70
     1
102
RTVSPost2010Prop44ColorIndex
 90
        5
102
RTVSPost2010Prop44ColorRGB
 90
      255
102
RTVSPost2010PropOp44
 70
     1
102
RTVSPost2010Prop45
280
     0
102
RTVSPost2010PropOp45
 70
     1
102
RTVSPost2010Prop46
 90
       50
102
RTVSPost2010PropOp46
 70
     1
102
RTVSPost2010Prop47
 90
       50
102
RTVSPost2010PropOp47
 70
     1
102
RTVSPost2010Prop48
 90
       50
102
RTVSPost2010PropOp48
 70
     1
102
RTVSPost2010Prop49
280
     0
102
RTVSPost2010PropOp49
 70
     1
102
RTVSPost2010Prop50
 90
       50
102
RTVSPost2010PropOp50
 70
     1
102
RTVSPost2010Prop51ColorIndex
 90
      256
102
RTVSPost2010Prop51ColorRGB
 90
-16777216
102
RTVSPost2010PropOp51
 70
     0
102
RTVSPost2010Prop52
140
1.0
102
RTVSPost2010PropOp52
 70
     0
102
RTVSPost2010Prop53
 90
        2
102
RTVSPost2010PropOp53
 70
     1
102
RTVSPost2010Prop54
  1
strokes_ogs.tif
102
RTVSPost2010PropOp54
 70
     1
102
RTVSPost2010Prop55
280
     0
102
RTVSPost2010PropOp55
 70
     1
102
RTVSPost2010Prop56
140
1.0
102
RTVSPost2010PropOp56
 70
     1
102
RTVSPost2010Prop57
140
1.0
102
RTVSPost2010PropOp57
 70
     1
  0
XRECORD
  5
BD
102
{ACAD_REACTORS
330
BC
102
}
330
BC
100
AcDbXrecord
280
     1
102
RTVSPropertyOp0
 70
     0
102
RTVSPropertyOp1
 70
     0
102
RTVSPropertyOp2
 70
     0
102
RTVSPropertyOp3
 70
     0
102
RTVSPropertyOp4
 70
     0
102
RTVSPropertyOp5
 70
     0
102
RTVSPropertyOp6
 70
     0
102
RTVSPropertyOp7
 70
     0
102
RTVSPropertyOp8
 70
     0
102
RTVSPropertyOp9
 70
     0
102
RTVSPropertyOp10
 70
     0
102
RTVSPropertyOp11
 70
     0
102
RTVSPropertyOp12
 70
     0
102
RTVSPropertyOp13
 70
     0
102
RTVSPropertyOp14
 70
     2
102
RTVSPropertyOp15
 70
     0
102
RTVSPropertyOp16
 70
     0
102
RTVSPropertyOp17
 70
     0
102
RTVSPropertyOp18
 70
     0
102
RTVSPropertyOp19
 70
     0
102
RTVSPropertyOp20
 70
     0
102
RTVSPropertyOp21
 70
     0
102
RTVSPropertyOp22
 70
     0
102
RTVSPropertyOp23
 70
     0
102
RTVSPropertyOp24
 70
     0
102
RTVSPropertyOp25
 70
     0
102
RTVSPropertyOp26
 70
     0
102
RTVSPropertyOp27
 70
     0
102
RTVSPropertyOp28
 70
     0
102
RTVSPropertyOp29
 70
     0
102
RTVSPropertyOp30
 70
     0
102
RTVSPropertyOp31
 70
     0
102
RTVSPropertyOp32
 70
     0
102
RTVSPropertyOp33
 70
     0
102
RTVSPropertyOp34
 70
     0
102
RTVSPropertyOp35
 70
     0
102
RTVSPropertyOp36
 70
     0
102
RTVSPropertyOp37
 70
     0
102
RTVSPropertyOp38
 70
     0
102
RTVSPropertyOp39
 70
     0
102
RTVSPropertyOp40
 70
     0
102
RTVSPropertyOp41
 70
     0
102
RTVSPropertyOp42
 70
     0
102
RTVSPropertyOp43
 70
     0
102
RTVSPropertyOp44
 70
     0
102
RTVSPropertyOp45
 70
     0
102
RTVSPropertyOp46
 70
     0
102
RTVSPropertyOp47
 70
     0
102
RTVSPropertyOp48
 70
     0
102
RTVSPropertyOp49
 70
     0
102
RTVSPropertyOp50
 70
     0
102
RTVSPropertyOp51
 70
     0
102
RTVSPropertyOp52
 70
     0
102
RTVSPropertyOp53
 70
     0
102
RTVSPropertyOp54
 70
     0
102
RTVSPropertyOp55
 70
     0
102
RTVSPropertyOp56
 70
     0
102
RTVSPropertyOp57
 70
     0
102
RTVSPost2010Prop28
280
     0
102
RTVSPost2010PropOp28
 70
     0
102
RTVSPost2010Prop29
280
     1
102
RTVSPost2010PropOp29
 70
     0
102
RTVSPost2010Prop30
280
     1
102
RTVSPost2010PropOp30
 70
     0
102
RTVSPost2010Prop31
280
     0
102
RTVSPost2010PropOp31
 70
     0
102
RTVSPost2010Prop32
280
     0
102
RTVSPost2010PropOp32
 70
     0
102
RTVSPost2010Prop33
280
     0
102
RTVSPost2010PropOp33
 70
     0
102
RTVSPost2010Prop34
280
     0
102
RTVSPost2010PropOp34
 70
     0
102
RTVSPost2010Prop35
280
     0
102
RTVSPost2010PropOp35
 70
     0
102
RTVSPost2010Prop36
280
     0
102
RTVSPost2010PropOp36
 70
     0
102
RTVSPost2010Prop37
 90
       50
102
RTVSPost2010PropOp37
 70
     0
102
RTVSPost2010Prop38
140
0.0
102
RTVSPost2010PropOp38
 70
     0
102
RTVSPost2010Prop39
140
1.0
102
RTVSPost2010PropOp39
 70
     0
102
RTVSPost2010Prop40
 90
        0
102
RTVSPost2010PropOp40
 70
     0
102
RTVSPost2010Prop41ColorIndex
 90
       18
102
RTVSPost2010Prop41ColorRGB
 90
        0
102
RTVSPost2010PropOp41
 70
     0
102
RTVSPost2010Prop42
 90
       50
102
RTVSPost2010PropOp42
 70
     0
102
RTVSPost2010Prop43
 90
        3
102
RTVSPost2010PropOp43
 70
     0
102
RTVSPost2010Prop44ColorIndex
 90
        5
102
RTVSPost2010Prop44ColorRGB
 90
      255
102
RTVSPost2010PropOp44
 70
     0
102
RTVSPost2010Prop45
280
     0
102
RTVSPost2010PropOp45
 70
     0
102
RTVSPost2010Prop46
 90
       50
102
RTVSPost2010PropOp46
 70
     0
102
RTVSPost2010Prop47
 90
       50
102
RTVSPost2010PropOp47
 70
     0
102
RTVSPost2010Prop48
 90
       50
102
RTVSPost2010PropOp48
 70
     0
102
RTVSPost2010Prop49
280
     0
102
RTVSPost2010PropOp49
 70
     0
102
RTVSPost2010Prop50
 90
       50
102
RTVSPost2010PropOp50
 70
     0
102
RTVSPost2010Prop51ColorIndex
 90
      256
102
RTVSPost2010Prop51ColorRGB
 90
-16777216
102
RTVSPost2010PropOp51
 70
     0
102
RTVSPost2010Prop52
140
1.0
102
RTVSPost2010PropOp52
 70
     0
102
RTVSPost2010Prop53
 90
        2
102
RTVSPost2010PropOp53
 70
     0
102
RTVSPost2010Prop54
  1
strokes_ogs.tif
102
RTVSPost2010PropOp54
 70
     0
102
RTVSPost2010Prop55
280
     0
102
RTVSPost2010PropOp55
 70
     0
102
RTVSPost2010Prop56
140
1.0
102
RTVSPost2010PropOp56
 70
     0
102
RTVSPost2010Prop57
140
1.0
102
RTVSPost2010PropOp57
 70
     0
  0
XRECORD
  5
B7
102
{ACAD_REACTORS
330
B6
102
}
330
B6
100
AcDbXrecord
280
     1
102
RTVSPropertyOp0
 70
     1
102
RTVSPropertyOp1
 70
     1
102
RTVSPropertyOp2
 70
     1
102
RTVSPropertyOp3
 70
     1
102
RTVSPropertyOp4
 70
     1
102
RTVSPropertyOp5
 70
     1
102
RTVSPropertyOp6
 70
     1
102
RTVSPropertyOp7
 70
     1
102
RTVSPropertyOp8
 70
     1
102
RTVSPropertyOp9
 70
     1
102
RTVSPropertyOp10
 70
     1
102
RTVSPropertyOp11
 70
     1
102
RTVSPropertyOp12
 70
     1
102
RTVSPropertyOp13
 70
     1
102
RTVSPropertyOp14
 70
     1
102
RTVSPropertyOp15
 70
     1
102
RTVSPropertyOp16
 70
     1
102
RTVSPropertyOp17
 70
     1
102
RTVSPropertyOp18
 70
     1
102
RTVSPropertyOp19
 70
     1
102
RTVSPropertyOp20
 70
     1
102
RTVSPropertyOp21
 70
     1
102
RTVSPropertyOp22
 70
     1
102
RTVSPropertyOp23
 70
     1
102
RTVSPropertyOp24
 70
     1
102
RTVSPropertyOp25
 70
     1
102
RTVSPropertyOp26
 70
     1
102
RTVSPropertyOp27
 70
     1
102
RTVSPropertyOp28
 70
     1
102
RTVSPropertyOp29
 70
     1
102
RTVSPropertyOp30
 70
     1
102
RTVSPropertyOp31
 70
     1
102
RTVSPropertyOp32
 70
     1
102
RTVSPropertyOp33
 70
     1
102
RTVSPropertyOp34
 70
     1
102
RTVSPropertyOp35
 70
     1
102
RTVSPropertyOp36
 70
     1
102
RTVSPropertyOp37
 70
     1
102
RTVSPropertyOp38
 70
     1
102
RTVSPropertyOp39
 70
     1
102
RTVSPropertyOp40
 70
     1
102
RTVSPropertyOp41
 70
     1
102
RTVSPropertyOp42
 70
     1
102
RTVSPropertyOp43
 70
     1
102
RTVSPropertyOp44
 70
     1
102
RTVSPropertyOp45
 70
     1
102
RTVSPropertyOp46
 70
     1
102
RTVSPropertyOp47
 70
     1
102
RTVSPropertyOp48
 70
     1
102
RTVSPropertyOp49
 70
     1
102
RTVSPropertyOp50
 70
     1
102
RTVSPropertyOp51
 70
     0
102
RTVSPropertyOp52
 70
     0
102
RTVSPropertyOp53
 70
     1
102
RTVSPropertyOp54
 70
     1
102
RTVSPropertyOp55
 70
     1
102
RTVSPropertyOp56
 70
     1
102
RTVSPropertyOp57
 70
     1
102
RTVSPost2010Prop28
280
     0
102
RTVSPost2010PropOp28
 70
     1
102
RTVSPost2010Prop29
280
     1
102
RTVSPost2010PropOp29
 70
     1
102
RTVSPost2010Prop30
280
     1
102
RTVSPost2010PropOp30
 70
     1
102
RTVSPost2010Prop31
280
     0
102
RTVSPost2010PropOp31
 70
     1
102
RTVSPost2010Prop32
280
     0
102
RTVSPost2010PropOp32
 70
     1
102
RTVSPost2010Prop33
280
     0
102
RTVSPost2010PropOp33
 70
     1
102
RTVSPost2010Prop34
280
     0
102
RTVSPost2010PropOp34
 70
     1
102
RTVSPost2010Prop35
280
     0
102
RTVSPost2010PropOp35
 70
     1
102
RTVSPost2010Prop36
280
     0
102
RTVSPost2010PropOp36
 70
     1
102
RTVSPost2010Prop37
 90
       50
102
RTVSPost2010PropOp37
 70
     1
102
RTVSPost2010Prop38
140
0.0
102
RTVSPost2010PropOp38
 70
     1
102
RTVSPost2010Prop39
140
1.0
102
RTVSPost2010PropOp39
 70
     1
102
RTVSPost2010Prop40
 90
        0
102
RTVSPost2010PropOp40
 70
     1
102
RTVSPost2010Prop41ColorIndex
 90
       18
102
RTVSPost2010Prop41ColorRGB
 90
        0
102
RTVSPost2010PropOp41
 70
     1
102
RTVSPost2010Prop42
 90
       50
102
RTVSPost2010PropOp42
 70
     1
102
RTVSPost2010Prop43
 90
        3
102
RTVSPost2010PropOp43
 70
     1
102
RTVSPost2010Prop44ColorIndex
 90
        5
102
RTVSPost2010Prop44ColorRGB
 90
      255
102
RTVSPost2010PropOp44
 70
     1
102
RTVSPost2010Prop45
280
     0
102
RTVSPost2010PropOp45
 70
     1
102
RTVSPost2010Prop46
 90
       50
102
RTVSPost2010PropOp46
 70
     1
102
RTVSPost2010Prop47
 90
       50
102
RTVSPost2010PropOp47
 70
     1
102
RTVSPost2010Prop48
 90
       50
102
RTVSPost2010PropOp48
 70
     1
102
RTVSPost2010Prop49
280
     0
102
RTVSPost2010PropOp49
 70
     1
102
RTVSPost2010Prop50
 90
       50
102
RTVSPost2010PropOp50
 70
     1
102
RTVSPost2010Prop51ColorIndex
 90
      256
102
RTVSPost2010Prop51ColorRGB
 90
-16777216
102
RTVSPost2010PropOp51
 70
     0
102
RTVSPost2010Prop52
140
1.0
102
RTVSPost2010PropOp52
 70
     0
102
RTVSPost2010Prop53
 90
        2
102
RTVSPost2010PropOp53
 70
     1
102
RTVSPost2010Prop54
  1
strokes_ogs.tif
102
RTVSPost2010PropOp54
 70
     1
102
RTVSPost2010Prop55
280
     0
102
RTVSPost2010PropOp55
 70
     1
102
RTVSPost2010Prop56
140
1.0
102
RTVSPost2010PropOp56
 70
     1
102
RTVSPost2010Prop57
140
1.0
102
RTVSPost2010PropOp57
 70
     1
  0
XRECORD
  5
BF
102
{ACAD_REACTORS
330
BE
102
}
330
BE
100
AcDbXrecord
280
     1
102
RTVSPropertyOp0
 70
     0
102
RTVSPropertyOp1
 70
     0
102
RTVSPropertyOp2
 70
     0
102
RTVSPropertyOp3
 70
     0
102
RTVSPropertyOp4
 70
     0
102
RTVSPropertyOp5
 70
     0
102
RTVSPropertyOp6
 70
     0
102
RTVSPropertyOp7
 70
     0
102
RTVSPropertyOp8
 70
     0
102
RTVSPropertyOp9
 70
     0
102
RTVSPropertyOp10
 70
     0
102
RTVSPropertyOp11
 70
     0
102
RTVSPropertyOp12
 70
     0
102
RTVSPropertyOp13
 70
     0
102
RTVSPropertyOp14
 70
     2
102
RTVSPropertyOp15
 70
     0
102
RTVSPropertyOp16
 70
     0
102
RTVSPropertyOp17
 70
     0
102
RTVSPropertyOp18
 70
     0
102
RTVSPropertyOp19
 70
     0
102
RTVSPropertyOp20
 70
     0
102
RTVSPropertyOp21
 70
     0
102
RTVSPropertyOp22
 70
     0
102
RTVSPropertyOp23
 70
     0
102
RTVSPropertyOp24
 70
     0
102
RTVSPropertyOp25
 70
     0
102
RTVSPropertyOp26
 70
     0
102
RTVSPropertyOp27
 70
     0
102
RTVSPropertyOp28
 70
     0
102
RTVSPropertyOp29
 70
     0
102
RTVSPropertyOp30
 70
     0
102
RTVSPropertyOp31
 70
     0
102
RTVSPropertyOp32
 70
     0
102
RTVSPropertyOp33
 70
     0
102
RTVSPropertyOp34
 70
     0
102
RTVSPropertyOp35
 70
     0
102
RTVSPropertyOp36
 70
     0
102
RTVSPropertyOp37
 70
     0
102
RTVSPropertyOp38
 70
     0
102
RTVSPropertyOp39
 70
     0
102
RTVSPropertyOp40
 70
     0
102
RTVSPropertyOp41
 70
     0
102
RTVSPropertyOp42
 70
     0
102
RTVSPropertyOp43
 70
     0
102
RTVSPropertyOp44
 70
     0
102
RTVSPropertyOp45
 70
     0
102
RTVSPropertyOp46
 70
     0
102
RTVSPropertyOp47
 70
     0
102
RTVSPropertyOp48
 70
     0
102
RTVSPropertyOp49
 70
     0
102
RTVSPropertyOp50
 70
     0
102
RTVSPropertyOp51
 70
     0
102
RTVSPropertyOp52
 70
     0
102
RTVSPropertyOp53
 70
     0
102
RTVSPropertyOp54
 70
     0
102
RTVSPropertyOp55
 70
     0
102
RTVSPropertyOp56
 70
     0
102
RTVSPropertyOp57
 70
     0
102
RTVSPost2010Prop28
280
     0
102
RTVSPost2010PropOp28
 70
     0
102
RTVSPost2010Prop29
280
     1
102
RTVSPost2010PropOp29
 70
     0
102
RTVSPost2010Prop30
280
     1
102
RTVSPost2010PropOp30
 70
     0
102
RTVSPost2010Prop31
280
     0
102
RTVSPost2010PropOp31
 70
     0
102
RTVSPost2010Prop32
280
     0
102
RTVSPost2010PropOp32
 70
     0
102
RTVSPost2010Prop33
280
     0
102
RTVSPost2010PropOp33
 70
     0
102
RTVSPost2010Prop34
280
     0
102
RTVSPost2010PropOp34
 70
     0
102
RTVSPost2010Prop35
280
     0
102
RTVSPost2010PropOp35
 70
     0
102
RTVSPost2010Prop36
280
     0
102
RTVSPost2010PropOp36
 70
     0
102
RTVSPost2010Prop37
 90
       50
102
RTVSPost2010PropOp37
 70
     0
102
RTVSPost2010Prop38
140
0.0
102
RTVSPost2010PropOp38
 70
     0
102
RTVSPost2010Prop39
140
1.0
102
RTVSPost2010PropOp39
 70
     0
102
RTVSPost2010Prop40
 90
        0
102
RTVSPost2010PropOp40
 70
     0
102
RTVSPost2010Prop41ColorIndex
 90
       18
102
RTVSPost2010Prop41ColorRGB
 90
        0
102
RTVSPost2010PropOp41
 70
     0
102
RTVSPost2010Prop42
 90
       50
102
RTVSPost2010PropOp42
 70
     0
102
RTVSPost2010Prop43
 90
        3
102
RTVSPost2010PropOp43
 70
     0
102
RTVSPost2010Prop44ColorIndex
 90
        5
102
RTVSPost2010Prop44ColorRGB
 90
      255
102
RTVSPost2010PropOp44
 70
     0
102
RTVSPost2010Prop45
280
     0
102
RTVSPost2010PropOp45
 70
     0
102
RTVSPost2010Prop46
 90
       50
102
RTVSPost2010PropOp46
 70
     0
102
RTVSPost2010Prop47
 90
       50
102
RTVSPost2010PropOp47
 70
     0
102
RTVSPost2010Prop48
 90
       50
102
RTVSPost2010PropOp48
 70
     0
102
RTVSPost2010Prop49
280
     0
102
RTVSPost2010PropOp49
 70
     0
102
RTVSPost2010Prop50
 90
       50
102
RTVSPost2010PropOp50
 70
     0
102
RTVSPost2010Prop51ColorIndex
 90
      256
102
RTVSPost2010Prop51ColorRGB
 90
-16777216
102
RTVSPost2010PropOp51
 70
     0
102
RTVSPost2010Prop52
140
1.0
102
RTVSPost2010PropOp52
 70
     0
102
RTVSPost2010Prop53
 90
        2
102
RTVSPost2010PropOp53
 70
     0
102
RTVSPost2010Prop54
  1
strokes_ogs.tif
102
RTVSPost2010PropOp54
 70
     0
102
RTVSPost2010Prop55
280
     0
102
RTVSPost2010PropOp55
 70
     0
102
RTVSPost2010Prop56
140
1.0
102
RTVSPost2010PropOp56
 70
     0
102
RTVSPost2010Prop57
140
1.0
102
RTVSPost2010PropOp57
 70
     0
  0
XRECORD
  5
AD
102
{ACAD_REACTORS
330
AC
102
}
330
AC
100
AcDbXrecord
280
     1
102
RTVSPropertyOp0
 70
     1
102
RTVSPropertyOp1
 70
     1
102
RTVSPropertyOp2
 70
     1
102
RTVSPropertyOp3
 70
     1
102
RTVSPropertyOp4
 70
     1
102
RTVSPropertyOp5
 70
     1
102
RTVSPropertyOp6
 70
     1
102
RTVSPropertyOp7
 70
     1
102
RTVSPropertyOp8
 70
     1
102
RTVSPropertyOp9
 70
     1
102
RTVSPropertyOp10
 70
     1
102
RTVSPropertyOp11
 70
     1
102
RTVSPropertyOp12
 70
     1
102
RTVSPropertyOp13
 70
     1
102
RTVSPropertyOp14
 70
     1
102
RTVSPropertyOp15
 70
     1
102
RTVSPropertyOp16
 70
     1
102
RTVSPropertyOp17
 70
     1
102
RTVSPropertyOp18
 70
     1
102
RTVSPropertyOp19
 70
     1
102
RTVSPropertyOp20
 70
     1
102
RTVSPropertyOp21
 70
     1
102
RTVSPropertyOp22
 70
     1
102
RTVSPropertyOp23
 70
     1
102
RTVSPropertyOp24
 70
     1
102
RTVSPropertyOp25
 70
     1
102
RTVSPropertyOp26
 70
     1
102
RTVSPropertyOp27
 70
     1
102
RTVSPropertyOp28
 70
     1
102
RTVSPropertyOp29
 70
     1
102
RTVSPropertyOp30
 70
     1
102
RTVSPropertyOp31
 70
     1
102
RTVSPropertyOp32
 70
     1
102
RTVSPropertyOp33
 70
     1
102
RTVSPropertyOp34
 70
     1
102
RTVSPropertyOp35
 70
     1
102
RTVSPropertyOp36
 70
     1
102
RTVSPropertyOp37
 70
     1
102
RTVSPropertyOp38
 70
     1
102
RTVSPropertyOp39
 70
     1
102
RTVSPropertyOp40
 70
     1
102
RTVSPropertyOp41
 70
     1
102
RTVSPropertyOp42
 70
     1
102
RTVSPropertyOp43
 70
     1
102
RTVSPropertyOp44
 70
     1
102
RTVSPropertyOp45
 70
     1
102
RTVSPropertyOp46
 70
     1
102
RTVSPropertyOp47
 70
     1
102
RTVSPropertyOp48
 70
     1
102
RTVSPropertyOp49
 70
     1
102
RTVSPropertyOp50
 70
     1
102
RTVSPropertyOp51
 70
     0
102
RTVSPropertyOp52
 70
     0
102
RTVSPropertyOp53
 70
     1
102
RTVSPropertyOp54
 70
     1
102
RTVSPropertyOp55
 70
     1
102
RTVSPropertyOp56
 70
     1
102
RTVSPropertyOp57
 70
     1
102
RTVSPost2010Prop28
280
     0
102
RTVSPost2010PropOp28
 70
     1
102
RTVSPost2010Prop29
280
     1
102
RTVSPost2010PropOp29
 70
     1
102
RTVSPost2010Prop30
280
     1
102
RTVSPost2010PropOp30
 70
     1
102
RTVSPost2010Prop31
280
     0
102
RTVSPost2010PropOp31
 70
     1
102
RTVSPost2010Prop32
280
     0
102
RTVSPost2010PropOp32
 70
     1
102
RTVSPost2010Prop33
280
     0
102
RTVSPost2010PropOp33
 70
     1
102
RTVSPost2010Prop34
280
     0
102
RTVSPost2010PropOp34
 70
     1
102
RTVSPost2010Prop35
280
     0
102
RTVSPost2010PropOp35
 70
     1
102
RTVSPost2010Prop36
280
     0
102
RTVSPost2010PropOp36
 70
     1
102
RTVSPost2010Prop37
 90
       50
102
RTVSPost2010PropOp37
 70
     1
102
RTVSPost2010Prop38
140
0.0
102
RTVSPost2010PropOp38
 70
     1
102
RTVSPost2010Prop39
140
1.0
102
RTVSPost2010PropOp39
 70
     1
102
RTVSPost2010Prop40
 90
        0
102
RTVSPost2010PropOp40
 70
     1
102
RTVSPost2010Prop41ColorIndex
 90
       18
102
RTVSPost2010Prop41ColorRGB
 90
        0
102
RTVSPost2010PropOp41
 70
     1
102
RTVSPost2010Prop42
 90
       50
102
RTVSPost2010PropOp42
 70
     1
102
RTVSPost2010Prop43
 90
        3
102
RTVSPost2010PropOp43
 70
     1
102
RTVSPost2010Prop44ColorIndex
 90
        5
102
RTVSPost2010Prop44ColorRGB
 90
      255
102
RTVSPost2010PropOp44
 70
     1
102
RTVSPost2010Prop45
280
     0
102
RTVSPost2010PropOp45
 70
     1
102
RTVSPost2010Prop46
 90
       50
102
RTVSPost2010PropOp46
 70
     1
102
RTVSPost2010Prop47
 90
       50
102
RTVSPost2010PropOp47
 70
     1
102
RTVSPost2010Prop48
 90
       50
102
RTVSPost2010PropOp48
 70
     1
102
RTVSPost2010Prop49
280
     0
102
RTVSPost2010PropOp49
 70
     1
102
RTVSPost2010Prop50
 90
       50
102
RTVSPost2010PropOp50
 70
     1
102
RTVSPost2010Prop51ColorIndex
 90
      256
102
RTVSPost2010Prop51ColorRGB
 90
-16777216
102
RTVSPost2010PropOp51
 70
     0
102
RTVSPost2010Prop52
140
1.0
102
RTVSPost2010PropOp52
 70
     0
102
RTVSPost2010Prop53
 90
        2
102
RTVSPost2010PropOp53
 70
     1
102
RTVSPost2010Prop54
  1
strokes_ogs.tif
102
RTVSPost2010PropOp54
 70
     1
102
RTVSPost2010Prop55
280
     0
102
RTVSPost2010PropOp55
 70
     1
102
RTVSPost2010Prop56
140
1.0
102
RTVSPost2010PropOp56
 70
     1
102
RTVSPost2010Prop57
140
1.0
102
RTVSPost2010PropOp57
 70
     1
  0
XRECORD
  5
CB
102
{ACAD_REACTORS
330
CA
102
}
330
CA
100
AcDbXrecord
280
     1
102
RTVSPropertyOp0
 70
     1
102
RTVSPropertyOp1
 70
     1
102
RTVSPropertyOp2
 70
     1
102
RTVSPropertyOp3
 70
     1
102
RTVSPropertyOp4
 70
     1
102
RTVSPropertyOp5
 70
     1
102
RTVSPropertyOp6
 70
     1
102
RTVSPropertyOp7
 70
     1
102
RTVSPropertyOp8
 70
     1
102
RTVSPropertyOp9
 70
     1
102
RTVSPropertyOp10
 70
     1
102
RTVSPropertyOp11
 70
     1
102
RTVSPropertyOp12
 70
     1
102
RTVSPropertyOp13
 70
     1
102
RTVSPropertyOp14
 70
     1
102
RTVSPropertyOp15
 70
     1
102
RTVSPropertyOp16
 70
     1
102
RTVSPropertyOp17
 70
     1
102
RTVSPropertyOp18
 70
     1
102
RTVSPropertyOp19
 70
     1
102
RTVSPropertyOp20
 70
     1
102
RTVSPropertyOp21
 70
     1
102
RTVSPropertyOp22
 70
     1
102
RTVSPropertyOp23
 70
     1
102
RTVSPropertyOp24
 70
     1
102
RTVSPropertyOp25
 70
     1
102
RTVSPropertyOp26
 70
     1
102
RTVSPropertyOp27
 70
     1
102
RTVSPropertyOp28
 70
     1
102
RTVSPropertyOp29
 70
     1
102
RTVSPropertyOp30
 70
     1
102
RTVSPropertyOp31
 70
     1
102
RTVSPropertyOp32
 70
     1
102
RTVSPropertyOp33
 70
     1
102
RTVSPropertyOp34
 70
     1
102
RTVSPropertyOp35
 70
     1
102
RTVSPropertyOp36
 70
     1
102
RTVSPropertyOp37
 70
     1
102
RTVSPropertyOp38
 70
     1
102
RTVSPropertyOp39
 70
     1
102
RTVSPropertyOp40
 70
     1
102
RTVSPropertyOp41
 70
     1
102
RTVSPropertyOp42
 70
     1
102
RTVSPropertyOp43
 70
     1
102
RTVSPropertyOp44
 70
     1
102
RTVSPropertyOp45
 70
     1
102
RTVSPropertyOp46
 70
     1
102
RTVSPropertyOp47
 70
     1
102
RTVSPropertyOp48
 70
     1
102
RTVSPropertyOp49
 70
     1
102
RTVSPropertyOp50
 70
     1
102
RTVSPropertyOp51
 70
     0
102
RTVSPropertyOp52
 70
     0
102
RTVSPropertyOp53
 70
     1
102
RTVSPropertyOp54
 70
     1
102
RTVSPropertyOp55
 70
     1
102
RTVSPropertyOp56
 70
     1
102
RTVSPropertyOp57
 70
     1
102
RTVSPost2010Prop28
280
     0
102
RTVSPost2010PropOp28
 70
     1
102
RTVSPost2010Prop29
280
     1
102
RTVSPost2010PropOp29
 70
     1
102
RTVSPost2010Prop30
280
     1
102
RTVSPost2010PropOp30
 70
     1
102
RTVSPost2010Prop31
280
     0
102
RTVSPost2010PropOp31
 70
     1
102
RTVSPost2010Prop32
280
     0
102
RTVSPost2010PropOp32
 70
     1
102
RTVSPost2010Prop33
280
     0
102
RTVSPost2010PropOp33
 70
     1
102
RTVSPost2010Prop34
280
     0
102
RTVSPost2010PropOp34
 70
     1
102
RTVSPost2010Prop35
280
     0
102
RTVSPost2010PropOp35
 70
     1
102
RTVSPost2010Prop36
280
     0
102
RTVSPost2010PropOp36
 70
     1
102
RTVSPost2010Prop37
 90
       50
102
RTVSPost2010PropOp37
 70
     1
102
RTVSPost2010Prop38
140
0.0
102
RTVSPost2010PropOp38
 70
     1
102
RTVSPost2010Prop39
140
1.0
102
RTVSPost2010PropOp39
 70
     1
102
RTVSPost2010Prop40
 90
        0
102
RTVSPost2010PropOp40
 70
     1
102
RTVSPost2010Prop41ColorIndex
 90
       18
102
RTVSPost2010Prop41ColorRGB
 90
        0
102
RTVSPost2010PropOp41
 70
     1
102
RTVSPost2010Prop42
 90
       50
102
RTVSPost2010PropOp42
 70
     1
102
RTVSPost2010Prop43
 90
        3
102
RTVSPost2010PropOp43
 70
     1
102
RTVSPost2010Prop44ColorIndex
 90
        5
102
RTVSPost2010Prop44ColorRGB
 90
      255
102
RTVSPost2010PropOp44
 70
     1
102
RTVSPost2010Prop45
280
     0
102
RTVSPost2010PropOp45
 70
     1
102
RTVSPost2010Prop46
 90
       50
102
RTVSPost2010PropOp46
 70
     1
102
RTVSPost2010Prop47
 90
       50
102
RTVSPost2010PropOp47
 70
     1
102
RTVSPost2010Prop48
 90
       50
102
RTVSPost2010PropOp48
 70
     1
102
RTVSPost2010Prop49
280
     0
102
RTVSPost2010PropOp49
 70
     1
102
RTVSPost2010Prop50
 90
       50
102
RTVSPost2010PropOp50
 70
     1
102
RTVSPost2010Prop51ColorIndex
 90
      256
102
RTVSPost2010Prop51ColorRGB
 90
-16777216
102
RTVSPost2010PropOp51
 70
     0
102
RTVSPost2010Prop52
140
1.0
102
RTVSPost2010PropOp52
 70
     0
102
RTVSPost2010Prop53
 90
        2
102
RTVSPost2010PropOp53
 70
     1
102
RTVSPost2010Prop54
  1
strokes_ogs.tif
102
RTVSPost2010PropOp54
 70
     1
102
RTVSPost2010Prop55
280
     0
102
RTVSPost2010PropOp55
 70
     1
102
RTVSPost2010Prop56
140
1.0
102
RTVSPost2010PropOp56
 70
     1
102
RTVSPost2010Prop57
140
1.0
102
RTVSPost2010PropOp57
 70
     1
  0
XRECORD
  5
C9
102
{ACAD_REACTORS
330
C8
102
}
330
C8
100
AcDbXrecord
280
     1
102
RTVSPropertyOp0
 70
     1
102
RTVSPropertyOp1
 70
     1
102
RTVSPropertyOp2
 70
     1
102
RTVSPropertyOp3
 70
     1
102
RTVSPropertyOp4
 70
     1
102
RTVSPropertyOp5
 70
     1
102
RTVSPropertyOp6
 70
     1
102
RTVSPropertyOp7
 70
     1
102
RTVSPropertyOp8
 70
     1
102
RTVSPropertyOp9
 70
     1
102
RTVSPropertyOp10
 70
     1
102
RTVSPropertyOp11
 70
     1
102
RTVSPropertyOp12
 70
     1
102
RTVSPropertyOp13
 70
     1
102
RTVSPropertyOp14
 70
     1
102
RTVSPropertyOp15
 70
     1
102
RTVSPropertyOp16
 70
     1
102
RTVSPropertyOp17
 70
     1
102
RTVSPropertyOp18
 70
     1
102
RTVSPropertyOp19
 70
     1
102
RTVSPropertyOp20
 70
     1
102
RTVSPropertyOp21
 70
     1
102
RTVSPropertyOp22
 70
     1
102
RTVSPropertyOp23
 70
     1
102
RTVSPropertyOp24
 70
     1
102
RTVSPropertyOp25
 70
     1
102
RTVSPropertyOp26
 70
     1
102
RTVSPropertyOp27
 70
     1
102
RTVSPropertyOp28
 70
     1
102
RTVSPropertyOp29
 70
     1
102
RTVSPropertyOp30
 70
     1
102
RTVSPropertyOp31
 70
     1
102
RTVSPropertyOp32
 70
     1
102
RTVSPropertyOp33
 70
     1
102
RTVSPropertyOp34
 70
     1
102
RTVSPropertyOp35
 70
     1
102
RTVSPropertyOp36
 70
     1
102
RTVSPropertyOp37
 70
     1
102
RTVSPropertyOp38
 70
     1
102
RTVSPropertyOp39
 70
     1
102
RTVSPropertyOp40
 70
     1
102
RTVSPropertyOp41
 70
     1
102
RTVSPropertyOp42
 70
     1
102
RTVSPropertyOp43
 70
     1
102
RTVSPropertyOp44
 70
     1
102
RTVSPropertyOp45
 70
     1
102
RTVSPropertyOp46
 70
     1
102
RTVSPropertyOp47
 70
     1
102
RTVSPropertyOp48
 70
     1
102
RTVSPropertyOp49
 70
     1
102
RTVSPropertyOp50
 70
     1
102
RTVSPropertyOp51
 70
     0
102
RTVSPropertyOp52
 70
     0
102
RTVSPropertyOp53
 70
     1
102
RTVSPropertyOp54
 70
     1
102
RTVSPropertyOp55
 70
     1
102
RTVSPropertyOp56
 70
     1
102
RTVSPropertyOp57
 70
     1
102
RTVSPost2010Prop28
280
     0
102
RTVSPost2010PropOp28
 70
     1
102
RTVSPost2010Prop29
280
     1
102
RTVSPost2010PropOp29
 70
     1
102
RTVSPost2010Prop30
280
     1
102
RTVSPost2010PropOp30
 70
     1
102
RTVSPost2010Prop31
280
     0
102
RTVSPost2010PropOp31
 70
     1
102
RTVSPost2010Prop32
280
     0
102
RTVSPost2010PropOp32
 70
     1
102
RTVSPost2010Prop33
280
     0
102
RTVSPost2010PropOp33
 70
     1
102
RTVSPost2010Prop34
280
     0
102
RTVSPost2010PropOp34
 70
     1
102
RTVSPost2010Prop35
280
     0
102
RTVSPost2010PropOp35
 70
     1
102
RTVSPost2010Prop36
280
     0
102
RTVSPost2010PropOp36
 70
     1
102
RTVSPost2010Prop37
 90
       50
102
RTVSPost2010PropOp37
 70
     1
102
RTVSPost2010Prop38
140
0.0
102
RTVSPost2010PropOp38
 70
     1
102
RTVSPost2010Prop39
140
1.0
102
RTVSPost2010PropOp39
 70
     1
102
RTVSPost2010Prop40
 90
        0
102
RTVSPost2010PropOp40
 70
     1
102
RTVSPost2010Prop41ColorIndex
 90
       18
102
RTVSPost2010Prop41ColorRGB
 90
        0
102
RTVSPost2010PropOp41
 70
     1
102
RTVSPost2010Prop42
 90
       50
102
RTVSPost2010PropOp42
 70
     1
102
RTVSPost2010Prop43
 90
        3
102
RTVSPost2010PropOp43
 70
     1
102
RTVSPost2010Prop44ColorIndex
 90
        5
102
RTVSPost2010Prop44ColorRGB
 90
      255
102
RTVSPost2010PropOp44
 70
     1
102
RTVSPost2010Prop45
280
     0
102
RTVSPost2010PropOp45
 70
     1
102
RTVSPost2010Prop46
 90
       50
102
RTVSPost2010PropOp46
 70
     1
102
RTVSPost2010Prop47
 90
       50
102
RTVSPost2010PropOp47
 70
     1
102
RTVSPost2010Prop48
 90
       50
102
RTVSPost2010PropOp48
 70
     1
102
RTVSPost2010Prop49
280
     0
102
RTVSPost2010PropOp49
 70
     1
102
RTVSPost2010Prop50
 90
       50
102
RTVSPost2010PropOp50
 70
     1
102
RTVSPost2010Prop51ColorIndex
 90
      256
102
RTVSPost2010Prop51ColorRGB
 90
-16777216
102
RTVSPost2010PropOp51
 70
     0
102
RTVSPost2010Prop52
140
1.0
102
RTVSPost2010PropOp52
 70
     0
102
RTVSPost2010Prop53
 90
        2
102
RTVSPost2010PropOp53
 70
     1
102
RTVSPost2010Prop54
  1
strokes_ogs.tif
102
RTVSPost2010PropOp54
 70
     1
102
RTVSPost2010Prop55
280
     0
102
RTVSPost2010PropOp55
 70
     1
102
RTVSPost2010Prop56
140
1.0
102
RTVSPost2010PropOp56
 70
     1
102
RTVSPost2010Prop57
140
1.0
102
RTVSPost2010PropOp57
 70
     1
  0
XRECORD
  5
C3
102
{ACAD_REACTORS
330
C2
102
}
330
C2
100
AcDbXrecord
280
     1
102
RTVSPropertyOp0
 70
     1
102
RTVSPropertyOp1
 70
     1
102
RTVSPropertyOp2
 70
     1
102
RTVSPropertyOp3
 70
     1
102
RTVSPropertyOp4
 70
     1
102
RTVSPropertyOp5
 70
     1
102
RTVSPropertyOp6
 70
     1
102
RTVSPropertyOp7
 70
     1
102
RTVSPropertyOp8
 70
     1
102
RTVSPropertyOp9
 70
     1
102
RTVSPropertyOp10
 70
     1
102
RTVSPropertyOp11
 70
     1
102
RTVSPropertyOp12
 70
     1
102
RTVSPropertyOp13
 70
     1
102
RTVSPropertyOp14
 70
     1
102
RTVSPropertyOp15
 70
     1
102
RTVSPropertyOp16
 70
     1
102
RTVSPropertyOp17
 70
     1
102
RTVSPropertyOp18
 70
     1
102
RTVSPropertyOp19
 70
     1
102
RTVSPropertyOp20
 70
     1
102
RTVSPropertyOp21
 70
     1
102
RTVSPropertyOp22
 70
     1
102
RTVSPropertyOp23
 70
     1
102
RTVSPropertyOp24
 70
     1
102
RTVSPropertyOp25
 70
     1
102
RTVSPropertyOp26
 70
     1
102
RTVSPropertyOp27
 70
     1
102
RTVSPropertyOp28
 70
     1
102
RTVSPropertyOp29
 70
     1
102
RTVSPropertyOp30
 70
     1
102
RTVSPropertyOp31
 70
     1
102
RTVSPropertyOp32
 70
     1
102
RTVSPropertyOp33
 70
     1
102
RTVSPropertyOp34
 70
     1
102
RTVSPropertyOp35
 70
     1
102
RTVSPropertyOp36
 70
     1
102
RTVSPropertyOp37
 70
     1
102
RTVSPropertyOp38
 70
     1
102
RTVSPropertyOp39
 70
     1
102
RTVSPropertyOp40
 70
     1
102
RTVSPropertyOp41
 70
     1
102
RTVSPropertyOp42
 70
     1
102
RTVSPropertyOp43
 70
     1
102
RTVSPropertyOp44
 70
     1
102
RTVSPropertyOp45
 70
     1
102
RTVSPropertyOp46
 70
     1
102
RTVSPropertyOp47
 70
     1
102
RTVSPropertyOp48
 70
     1
102
RTVSPropertyOp49
 70
     1
102
RTVSPropertyOp50
 70
     1
102
RTVSPropertyOp51
 70
     0
102
RTVSPropertyOp52
 70
     0
102
RTVSPropertyOp53
 70
     1
102
RTVSPropertyOp54
 70
     1
102
RTVSPropertyOp55
 70
     1
102
RTVSPropertyOp56
 70
     1
102
RTVSPropertyOp57
 70
     1
102
RTVSPost2010Prop28
280
     0
102
RTVSPost2010PropOp28
 70
     1
102
RTVSPost2010Prop29
280
     1
102
RTVSPost2010PropOp29
 70
     1
102
RTVSPost2010Prop30
280
     1
102
RTVSPost2010PropOp30
 70
     1
102
RTVSPost2010Prop31
280
     0
102
RTVSPost2010PropOp31
 70
     1
102
RTVSPost2010Prop32
280
     0
102
RTVSPost2010PropOp32
 70
     1
102
RTVSPost2010Prop33
280
     0
102
RTVSPost2010PropOp33
 70
     1
102
RTVSPost2010Prop34
280
     0
102
RTVSPost2010PropOp34
 70
     1
102
RTVSPost2010Prop35
280
     0
102
RTVSPost2010PropOp35
 70
     1
102
RTVSPost2010Prop36
280
     0
102
RTVSPost2010PropOp36
 70
     1
102
RTVSPost2010Prop37
 90
       50
102
RTVSPost2010PropOp37
 70
     1
102
RTVSPost2010Prop38
140
0.0
102
RTVSPost2010PropOp38
 70
     1
102
RTVSPost2010Prop39
140
1.0
102
RTVSPost2010PropOp39
 70
     1
102
RTVSPost2010Prop40
 90
        0
102
RTVSPost2010PropOp40
 70
     1
102
RTVSPost2010Prop41ColorIndex
 90
       18
102
RTVSPost2010Prop41ColorRGB
 90
        0
102
RTVSPost2010PropOp41
 70
     1
102
RTVSPost2010Prop42
 90
       50
102
RTVSPost2010PropOp42
 70
     1
102
RTVSPost2010Prop43
 90
        3
102
RTVSPost2010PropOp43
 70
     1
102
RTVSPost2010Prop44ColorIndex
 90
        5
102
RTVSPost2010Prop44ColorRGB
 90
      255
102
RTVSPost2010PropOp44
 70
     1
102
RTVSPost2010Prop45
280
     0
102
RTVSPost2010PropOp45
 70
     1
102
RTVSPost2010Prop46
 90
       50
102
RTVSPost2010PropOp46
 70
     1
102
RTVSPost2010Prop47
 90
       50
102
RTVSPost2010PropOp47
 70
     1
102
RTVSPost2010Prop48
 90
       50
102
RTVSPost2010PropOp48
 70
     1
102
RTVSPost2010Prop49
280
     0
102
RTVSPost2010PropOp49
 70
     1
102
RTVSPost2010Prop50
 90
       50
102
RTVSPost2010PropOp50
 70
     1
102
RTVSPost2010Prop51ColorIndex
 90
      256
102
RTVSPost2010Prop51ColorRGB
 90
-16777216
102
RTVSPost2010PropOp51
 70
     0
102
RTVSPost2010Prop52
140
1.0
102
RTVSPost2010PropOp52
 70
     0
102
RTVSPost2010Prop53
 90
        2
102
RTVSPost2010PropOp53
 70
     1
102
RTVSPost2010Prop54
  1
strokes_ogs.tif
102
RTVSPost2010PropOp54
 70
     1
102
RTVSPost2010Prop55
280
     0
102
RTVSPost2010PropOp55
 70
     1
102
RTVSPost2010Prop56
140
1.0
102
RTVSPost2010PropOp56
 70
     1
102
RTVSPost2010Prop57
140
1.0
102
RTVSPost2010PropOp57
 70
     1
  0
XRECORD
  5
C5
102
{ACAD_REACTORS
330
C4
102
}
330
C4
100
AcDbXrecord
280
     1
102
RTVSPropertyOp0
 70
     1
102
RTVSPropertyOp1
 70
     1
102
RTVSPropertyOp2
 70
     1
102
RTVSPropertyOp3
 70
     1
102
RTVSPropertyOp4
 70
     1
102
RTVSPropertyOp5
 70
     1
102
RTVSPropertyOp6
 70
     1
102
RTVSPropertyOp7
 70
     1
102
RTVSPropertyOp8
 70
     1
102
RTVSPropertyOp9
 70
     1
102
RTVSPropertyOp10
 70
     1
102
RTVSPropertyOp11
 70
     1
102
RTVSPropertyOp12
 70
     1
102
RTVSPropertyOp13
 70
     1
102
RTVSPropertyOp14
 70
     1
102
RTVSPropertyOp15
 70
     1
102
RTVSPropertyOp16
 70
     1
102
RTVSPropertyOp17
 70
     1
102
RTVSPropertyOp18
 70
     1
102
RTVSPropertyOp19
 70
     1
102
RTVSPropertyOp20
 70
     1
102
RTVSPropertyOp21
 70
     1
102
RTVSPropertyOp22
 70
     1
102
RTVSPropertyOp23
 70
     1
102
RTVSPropertyOp24
 70
     1
102
RTVSPropertyOp25
 70
     1
102
RTVSPropertyOp26
 70
     1
102
RTVSPropertyOp27
 70
     1
102
RTVSPropertyOp28
 70
     1
102
RTVSPropertyOp29
 70
     1
102
RTVSPropertyOp30
 70
     1
102
RTVSPropertyOp31
 70
     1
102
RTVSPropertyOp32
 70
     1
102
RTVSPropertyOp33
 70
     1
102
RTVSPropertyOp34
 70
     1
102
RTVSPropertyOp35
 70
     1
102
RTVSPropertyOp36
 70
     1
102
RTVSPropertyOp37
 70
     1
102
RTVSPropertyOp38
 70
     1
102
RTVSPropertyOp39
 70
     1
102
RTVSPropertyOp40
 70
     1
102
RTVSPropertyOp41
 70
     1
102
RTVSPropertyOp42
 70
     1
102
RTVSPropertyOp43
 70
     1
102
RTVSPropertyOp44
 70
     1
102
RTVSPropertyOp45
 70
     1
102
RTVSPropertyOp46
 70
     1
102
RTVSPropertyOp47
 70
     1
102
RTVSPropertyOp48
 70
     1
102
RTVSPropertyOp49
 70
     1
102
RTVSPropertyOp50
 70
     1
102
RTVSPropertyOp51
 70
     0
102
RTVSPropertyOp52
 70
     0
102
RTVSPropertyOp53
 70
     1
102
RTVSPropertyOp54
 70
     1
102
RTVSPropertyOp55
 70
     1
102
RTVSPropertyOp56
 70
     1
102
RTVSPropertyOp57
 70
     1
102
RTVSPost2010Prop28
280
     0
102
RTVSPost2010PropOp28
 70
     1
102
RTVSPost2010Prop29
280
     1
102
RTVSPost2010PropOp29
 70
     1
102
RTVSPost2010Prop30
280
     1
102
RTVSPost2010PropOp30
 70
     1
102
RTVSPost2010Prop31
280
     0
102
RTVSPost2010PropOp31
 70
     1
102
RTVSPost2010Prop32
280
     0
102
RTVSPost2010PropOp32
 70
     1
102
RTVSPost2010Prop33
280
     0
102
RTVSPost2010PropOp33
 70
     1
102
RTVSPost2010Prop34
280
     0
102
RTVSPost2010PropOp34
 70
     1
102
RTVSPost2010Prop35
280
     0
102
RTVSPost2010PropOp35
 70
     1
102
RTVSPost2010Prop36
280
     0
102
RTVSPost2010PropOp36
 70
     1
102
RTVSPost2010Prop37
 90
       50
102
RTVSPost2010PropOp37
 70
     1
102
RTVSPost2010Prop38
140
0.0
102
RTVSPost2010PropOp38
 70
     1
102
RTVSPost2010Prop39
140
1.0
102
RTVSPost2010PropOp39
 70
     1
102
RTVSPost2010Prop40
 90
        0
102
RTVSPost2010PropOp40
 70
     1
102
RTVSPost2010Prop41ColorIndex
 90
       18
102
RTVSPost2010Prop41ColorRGB
 90
        0
102
RTVSPost2010PropOp41
 70
     1
102
RTVSPost2010Prop42
 90
       50
102
RTVSPost2010PropOp42
 70
     1
102
RTVSPost2010Prop43
 90
        3
102
RTVSPost2010PropOp43
 70
     1
102
RTVSPost2010Prop44ColorIndex
 90
        5
102
RTVSPost2010Prop44ColorRGB
 90
      255
102
RTVSPost2010PropOp44
 70
     1
102
RTVSPost2010Prop45
280
     0
102
RTVSPost2010PropOp45
 70
     1
102
RTVSPost2010Prop46
 90
       50
102
RTVSPost2010PropOp46
 70
     1
102
RTVSPost2010Prop47
 90
       50
102
RTVSPost2010PropOp47
 70
     1
102
RTVSPost2010Prop48
 90
       50
102
RTVSPost2010PropOp48
 70
     1
102
RTVSPost2010Prop49
280
     0
102
RTVSPost2010PropOp49
 70
     1
102
RTVSPost2010Prop50
 90
       50
102
RTVSPost2010PropOp50
 70
     1
102
RTVSPost2010Prop51ColorIndex
 90
      256
102
RTVSPost2010Prop51ColorRGB
 90
-16777216
102
RTVSPost2010PropOp51
 70
     0
102
RTVSPost2010Prop52
140
1.0
102
RTVSPost2010PropOp52
 70
     0
102
RTVSPost2010Prop53
 90
        2
102
RTVSPost2010PropOp53
 70
     1
102
RTVSPost2010Prop54
  1
strokes_ogs.tif
102
RTVSPost2010PropOp54
 70
     1
102
RTVSPost2010Prop55
280
     0
102
RTVSPost2010PropOp55
 70
     1
102
RTVSPost2010Prop56
140
1.0
102
RTVSPost2010PropOp56
 70
     1
102
RTVSPost2010Prop57
140
1.0
102
RTVSPost2010PropOp57
 70
     1
  0
XRECORD
  5
B5
102
{ACAD_REACTORS
330
B4
102
}
330
B4
100
AcDbXrecord
280
     1
102
RTVSPropertyOp0
 70
     1
102
RTVSPropertyOp1
 70
     1
102
RTVSPropertyOp2
 70
     1
102
RTVSPropertyOp3
 70
     1
102
RTVSPropertyOp4
 70
     1
102
RTVSPropertyOp5
 70
     1
102
RTVSPropertyOp6
 70
     1
102
RTVSPropertyOp7
 70
     1
102
RTVSPropertyOp8
 70
     1
102
RTVSPropertyOp9
 70
     1
102
RTVSPropertyOp10
 70
     1
102
RTVSPropertyOp11
 70
     1
102
RTVSPropertyOp12
 70
     1
102
RTVSPropertyOp13
 70
     1
102
RTVSPropertyOp14
 70
     1
102
RTVSPropertyOp15
 70
     1
102
RTVSPropertyOp16
 70
     1
102
RTVSPropertyOp17
 70
     1
102
RTVSPropertyOp18
 70
     1
102
RTVSPropertyOp19
 70
     1
102
RTVSPropertyOp20
 70
     1
102
RTVSPropertyOp21
 70
     1
102
RTVSPropertyOp22
 70
     1
102
RTVSPropertyOp23
 70
     1
102
RTVSPropertyOp24
 70
     1
102
RTVSPropertyOp25
 70
     1
102
RTVSPropertyOp26
 70
     1
102
RTVSPropertyOp27
 70
     1
102
RTVSPropertyOp28
 70
     1
102
RTVSPropertyOp29
 70
     1
102
RTVSPropertyOp30
 70
     1
102
RTVSPropertyOp31
 70
     1
102
RTVSPropertyOp32
 70
     1
102
RTVSPropertyOp33
 70
     1
102
RTVSPropertyOp34
 70
     1
102
RTVSPropertyOp35
 70
     1
102
RTVSPropertyOp36
 70
     1
102
RTVSPropertyOp37
 70
     1
102
RTVSPropertyOp38
 70
     1
102
RTVSPropertyOp39
 70
     1
102
RTVSPropertyOp40
 70
     1
102
RTVSPropertyOp41
 70
     1
102
RTVSPropertyOp42
 70
     1
102
RTVSPropertyOp43
 70
     1
102
RTVSPropertyOp44
 70
     1
102
RTVSPropertyOp45
 70
     1
102
RTVSPropertyOp46
 70
     1
102
RTVSPropertyOp47
 70
     1
102
RTVSPropertyOp48
 70
     1
102
RTVSPropertyOp49
 70
     1
102
RTVSPropertyOp50
 70
     1
102
RTVSPropertyOp51
 70
     0
102
RTVSPropertyOp52
 70
     0
102
RTVSPropertyOp53
 70
     1
102
RTVSPropertyOp54
 70
     1
102
RTVSPropertyOp55
 70
     1
102
RTVSPropertyOp56
 70
     1
102
RTVSPropertyOp57
 70
     1
102
RTVSPost2010Prop28
280
     0
102
RTVSPost2010PropOp28
 70
     1
102
RTVSPost2010Prop29
280
     1
102
RTVSPost2010PropOp29
 70
     1
102
RTVSPost2010Prop30
280
     1
102
RTVSPost2010PropOp30
 70
     1
102
RTVSPost2010Prop31
280
     0
102
RTVSPost2010PropOp31
 70
     1
102
RTVSPost2010Prop32
280
     0
102
RTVSPost2010PropOp32
 70
     1
102
RTVSPost2010Prop33
280
     0
102
RTVSPost2010PropOp33
 70
     1
102
RTVSPost2010Prop34
280
     0
102
RTVSPost2010PropOp34
 70
     1
102
RTVSPost2010Prop35
280
     0
102
RTVSPost2010PropOp35
 70
     1
102
RTVSPost2010Prop36
280
     0
102
RTVSPost2010PropOp36
 70
     1
102
RTVSPost2010Prop37
 90
       50
102
RTVSPost2010PropOp37
 70
     1
102
RTVSPost2010Prop38
140
0.0
102
RTVSPost2010PropOp38
 70
     1
102
RTVSPost2010Prop39
140
1.0
102
RTVSPost2010PropOp39
 70
     1
102
RTVSPost2010Prop40
 90
        0
102
RTVSPost2010PropOp40
 70
     1
102
RTVSPost2010Prop41ColorIndex
 90
       18
102
RTVSPost2010Prop41ColorRGB
 90
        0
102
RTVSPost2010PropOp41
 70
     1
102
RTVSPost2010Prop42
 90
       50
102
RTVSPost2010PropOp42
 70
     1
102
RTVSPost2010Prop43
 90
        3
102
RTVSPost2010PropOp43
 70
     1
102
RTVSPost2010Prop44ColorIndex
 90
        5
102
RTVSPost2010Prop44ColorRGB
 90
      255
102
RTVSPost2010PropOp44
 70
     1
102
RTVSPost2010Prop45
280
     0
102
RTVSPost2010PropOp45
 70
     1
102
RTVSPost2010Prop46
 90
       50
102
RTVSPost2010PropOp46
 70
     1
102
RTVSPost2010Prop47
 90
       50
102
RTVSPost2010PropOp47
 70
     1
102
RTVSPost2010Prop48
 90
       50
102
RTVSPost2010PropOp48
 70
     1
102
RTVSPost2010Prop49
280
     0
102
RTVSPost2010PropOp49
 70
     1
102
RTVSPost2010Prop50
 90
       50
102
RTVSPost2010PropOp50
 70
     1
102
RTVSPost2010Prop51ColorIndex
 90
      256
102
RTVSPost2010Prop51ColorRGB
 90
-16777216
102
RTVSPost2010PropOp51
 70
     0
102
RTVSPost2010Prop52
140
1.0
102
RTVSPost2010PropOp52
 70
     0
102
RTVSPost2010Prop53
 90
        2
102
RTVSPost2010PropOp53
 70
     1
102
RTVSPost2010Prop54
  1
strokes_ogs.tif
102
RTVSPost2010PropOp54
 70
     1
102
RTVSPost2010Prop55
280
     0
102
RTVSPost2010PropOp55
 70
     1
102
RTVSPost2010Prop56
140
1.0
102
RTVSPost2010PropOp56
 70
     1
102
RTVSPost2010Prop57
140
1.0
102
RTVSPost2010PropOp57
 70
     1
  0
XRECORD
  5
A7
102
{ACAD_REACTORS
330
A6
102
}
330
A6
100
AcDbXrecord
280
     1
102
RTVSPropertyOp0
 70
     1
102
RTVSPropertyOp1
 70
     1
102
RTVSPropertyOp2
 70
     1
102
RTVSPropertyOp3
 70
     1
102
RTVSPropertyOp4
 70
     1
102
RTVSPropertyOp5
 70
     1
102
RTVSPropertyOp6
 70
     1
102
RTVSPropertyOp7
 70
     1
102
RTVSPropertyOp8
 70
     1
102
RTVSPropertyOp9
 70
     1
102
RTVSPropertyOp10
 70
     1
102
RTVSPropertyOp11
 70
     1
102
RTVSPropertyOp12
 70
     1
102
RTVSPropertyOp13
 70
     1
102
RTVSPropertyOp14
 70
     1
102
RTVSPropertyOp15
 70
     1
102
RTVSPropertyOp16
 70
     1
102
RTVSPropertyOp17
 70
     1
102
RTVSPropertyOp18
 70
     1
102
RTVSPropertyOp19
 70
     1
102
RTVSPropertyOp20
 70
     1
102
RTVSPropertyOp21
 70
     1
102
RTVSPropertyOp22
 70
     1
102
RTVSPropertyOp23
 70
     1
102
RTVSPropertyOp24
 70
     1
102
RTVSPropertyOp25
 70
     1
102
RTVSPropertyOp26
 70
     1
102
RTVSPropertyOp27
 70
     1
102
RTVSPropertyOp28
 70
     1
102
RTVSPropertyOp29
 70
     1
102
RTVSPropertyOp30
 70
     1
102
RTVSPropertyOp31
 70
     1
102
RTVSPropertyOp32
 70
     1
102
RTVSPropertyOp33
 70
     1
102
RTVSPropertyOp34
 70
     1
102
RTVSPropertyOp35
 70
     1
102
RTVSPropertyOp36
 70
     1
102
RTVSPropertyOp37
 70
     1
102
RTVSPropertyOp38
 70
     1
102
RTVSPropertyOp39
 70
     1
102
RTVSPropertyOp40
 70
     1
102
RTVSPropertyOp41
 70
     1
102
RTVSPropertyOp42
 70
     1
102
RTVSPropertyOp43
 70
     1
102
RTVSPropertyOp44
 70
     1
102
RTVSPropertyOp45
 70
     1
102
RTVSPropertyOp46
 70
     1
102
RTVSPropertyOp47
 70
     1
102
RTVSPropertyOp48
 70
     1
102
RTVSPropertyOp49
 70
     1
102
RTVSPropertyOp50
 70
     1
102
RTVSPropertyOp51
 70
     0
102
RTVSPropertyOp52
 70
     0
102
RTVSPropertyOp53
 70
     1
102
RTVSPropertyOp54
 70
     1
102
RTVSPropertyOp55
 70
     1
102
RTVSPropertyOp56
 70
     1
102
RTVSPropertyOp57
 70
     1
102
RTVSPost2010Prop28
280
     0
102
RTVSPost2010PropOp28
 70
     1
102
RTVSPost2010Prop29
280
     1
102
RTVSPost2010PropOp29
 70
     1
102
RTVSPost2010Prop30
280
     1
102
RTVSPost2010PropOp30
 70
     1
102
RTVSPost2010Prop31
280
     0
102
RTVSPost2010PropOp31
 70
     1
102
RTVSPost2010Prop32
280
     0
102
RTVSPost2010PropOp32
 70
     1
102
RTVSPost2010Prop33
280
     0
102
RTVSPost2010PropOp33
 70
     1
102
RTVSPost2010Prop34
280
     0
102
RTVSPost2010PropOp34
 70
     1
102
RTVSPost2010Prop35
280
     0
102
RTVSPost2010PropOp35
 70
     1
102
RTVSPost2010Prop36
280
     0
102
RTVSPost2010PropOp36
 70
     1
102
RTVSPost2010Prop37
 90
       50
102
RTVSPost2010PropOp37
 70
     1
102
RTVSPost2010Prop38
140
0.0
102
RTVSPost2010PropOp38
 70
     1
102
RTVSPost2010Prop39
140
1.0
102
RTVSPost2010PropOp39
 70
     1
102
RTVSPost2010Prop40
 90
        0
102
RTVSPost2010PropOp40
 70
     1
102
RTVSPost2010Prop41ColorIndex
 90
       18
102
RTVSPost2010Prop41ColorRGB
 90
        0
102
RTVSPost2010PropOp41
 70
     1
102
RTVSPost2010Prop42
 90
       50
102
RTVSPost2010PropOp42
 70
     1
102
RTVSPost2010Prop43
 90
        3
102
RTVSPost2010PropOp43
 70
     1
102
RTVSPost2010Prop44ColorIndex
 90
        5
102
RTVSPost2010Prop44ColorRGB
 90
      255
102
RTVSPost2010PropOp44
 70
     1
102
RTVSPost2010Prop45
280
     0
102
RTVSPost2010PropOp45
 70
     1
102
RTVSPost2010Prop46
 90
       50
102
RTVSPost2010PropOp46
 70
     1
102
RTVSPost2010Prop47
 90
       50
102
RTVSPost2010PropOp47
 70
     1
102
RTVSPost2010Prop48
 90
       50
102
RTVSPost2010PropOp48
 70
     1
102
RTVSPost2010Prop49
280
     0
102
RTVSPost2010PropOp49
 70
     1
102
RTVSPost2010Prop50
 90
       50
102
RTVSPost2010PropOp50
 70
     1
102
RTVSPost2010Prop51ColorIndex
 90
      256
102
RTVSPost2010Prop51ColorRGB
 90
-16777216
102
RTVSPost2010PropOp51
 70
     0
102
RTVSPost2010Prop52
140
1.0
102
RTVSPost2010PropOp52
 70
     0
102
RTVSPost2010Prop53
 90
        2
102
RTVSPost2010PropOp53
 70
     1
102
RTVSPost2010Prop54
  1
strokes_ogs.tif
102
RTVSPost2010PropOp54
 70
     1
102
RTVSPost2010Prop55
280
     0
102
RTVSPost2010PropOp55
 70
     1
102
RTVSPost2010Prop56
140
1.0
102
RTVSPost2010PropOp56
 70
     1
102
RTVSPost2010Prop57
140
1.0
102
RTVSPost2010PropOp57
 70
     1
  0
XRECORD
  5
C7
102
{ACAD_REACTORS
330
C6
102
}
330
C6
100
AcDbXrecord
280
     1
102
RTVSPropertyOp0
 70
     1
102
RTVSPropertyOp1
 70
     1
102
RTVSPropertyOp2
 70
     1
102
RTVSPropertyOp3
 70
     1
102
RTVSPropertyOp4
 70
     1
102
RTVSPropertyOp5
 70
     1
102
RTVSPropertyOp6
 70
     1
102
RTVSPropertyOp7
 70
     1
102
RTVSPropertyOp8
 70
     1
102
RTVSPropertyOp9
 70
     1
102
RTVSPropertyOp10
 70
     1
102
RTVSPropertyOp11
 70
     1
102
RTVSPropertyOp12
 70
     1
102
RTVSPropertyOp13
 70
     1
102
RTVSPropertyOp14
 70
     1
102
RTVSPropertyOp15
 70
     1
102
RTVSPropertyOp16
 70
     1
102
RTVSPropertyOp17
 70
     1
102
RTVSPropertyOp18
 70
     1
102
RTVSPropertyOp19
 70
     1
102
RTVSPropertyOp20
 70
     1
102
RTVSPropertyOp21
 70
     1
102
RTVSPropertyOp22
 70
     1
102
RTVSPropertyOp23
 70
     1
102
RTVSPropertyOp24
 70
     1
102
RTVSPropertyOp25
 70
     1
102
RTVSPropertyOp26
 70
     1
102
RTVSPropertyOp27
 70
     1
102
RTVSPropertyOp28
 70
     1
102
RTVSPropertyOp29
 70
     1
102
RTVSPropertyOp30
 70
     1
102
RTVSPropertyOp31
 70
     1
102
RTVSPropertyOp32
 70
     1
102
RTVSPropertyOp33
 70
     1
102
RTVSPropertyOp34
 70
     1
102
RTVSPropertyOp35
 70
     1
102
RTVSPropertyOp36
 70
     1
102
RTVSPropertyOp37
 70
     1
102
RTVSPropertyOp38
 70
     1
102
RTVSPropertyOp39
 70
     1
102
RTVSPropertyOp40
 70
     1
102
RTVSPropertyOp41
 70
     1
102
RTVSPropertyOp42
 70
     1
102
RTVSPropertyOp43
 70
     1
102
RTVSPropertyOp44
 70
     1
102
RTVSPropertyOp45
 70
     1
102
RTVSPropertyOp46
 70
     1
102
RTVSPropertyOp47
 70
     1
102
RTVSPropertyOp48
 70
     1
102
RTVSPropertyOp49
 70
     1
102
RTVSPropertyOp50
 70
     1
102
RTVSPropertyOp51
 70
     0
102
RTVSPropertyOp52
 70
     0
102
RTVSPropertyOp53
 70
     1
102
RTVSPropertyOp54
 70
     1
102
RTVSPropertyOp55
 70
     1
102
RTVSPropertyOp56
 70
     1
102
RTVSPropertyOp57
 70
     1
102
RTVSPost2010Prop28
280
     0
102
RTVSPost2010PropOp28
 70
     1
102
RTVSPost2010Prop29
280
     1
102
RTVSPost2010PropOp29
 70
     1
102
RTVSPost2010Prop30
280
     1
102
RTVSPost2010PropOp30
 70
     1
102
RTVSPost2010Prop31
280
     0
102
RTVSPost2010PropOp31
 70
     1
102
RTVSPost2010Prop32
280
     0
102
RTVSPost2010PropOp32
 70
     1
102
RTVSPost2010Prop33
280
     0
102
RTVSPost2010PropOp33
 70
     1
102
RTVSPost2010Prop34
280
     0
102
RTVSPost2010PropOp34
 70
     1
102
RTVSPost2010Prop35
280
     0
102
RTVSPost2010PropOp35
 70
     1
102
RTVSPost2010Prop36
280
     0
102
RTVSPost2010PropOp36
 70
     1
102
RTVSPost2010Prop37
 90
       50
102
RTVSPost2010PropOp37
 70
     1
102
RTVSPost2010Prop38
140
0.0
102
RTVSPost2010PropOp38
 70
     1
102
RTVSPost2010Prop39
140
1.0
102
RTVSPost2010PropOp39
 70
     1
102
RTVSPost2010Prop40
 90
        0
102
RTVSPost2010PropOp40
 70
     1
102
RTVSPost2010Prop41ColorIndex
 90
       18
102
RTVSPost2010Prop41ColorRGB
 90
        0
102
RTVSPost2010PropOp41
 70
     1
102
RTVSPost2010Prop42
 90
       50
102
RTVSPost2010PropOp42
 70
     1
102
RTVSPost2010Prop43
 90
        3
102
RTVSPost2010PropOp43
 70
     1
102
RTVSPost2010Prop44ColorIndex
 90
        5
102
RTVSPost2010Prop44ColorRGB
 90
      255
102
RTVSPost2010PropOp44
 70
     1
102
RTVSPost2010Prop45
280
     0
102
RTVSPost2010PropOp45
 70
     1
102
RTVSPost2010Prop46
 90
       50
102
RTVSPost2010PropOp46
 70
     1
102
RTVSPost2010Prop47
 90
       50
102
RTVSPost2010PropOp47
 70
     1
102
RTVSPost2010Prop48
 90
       50
102
RTVSPost2010PropOp48
 70
     1
102
RTVSPost2010Prop49
280
     0
102
RTVSPost2010PropOp49
 70
     1
102
RTVSPost2010Prop50
 90
       50
102
RTVSPost2010PropOp50
 70
     1
102
RTVSPost2010Prop51ColorIndex
 90
      256
102
RTVSPost2010Prop51ColorRGB
 90
-16777216
102
RTVSPost2010PropOp51
 70
     0
102
RTVSPost2010Prop52
140
1.0
102
RTVSPost2010PropOp52
 70
     0
102
RTVSPost2010Prop53
 90
        2
102
RTVSPost2010PropOp53
 70
     1
102
RTVSPost2010Prop54
  1
strokes_ogs.tif
102
RTVSPost2010PropOp54
 70
     1
102
RTVSPost2010Prop55
280
     0
102
RTVSPost2010PropOp55
 70
     1
102
RTVSPost2010Prop56
140
1.0
102
RTVSPost2010PropOp56
 70
     1
102
RTVSPost2010Prop57
140
1.0
102
RTVSPost2010PropOp57
 70
     1
  0
ENDSEC
  0
EOF
