  0
SECTION
  2
HEADER
  9
$ACADVER
  1
AC1018
  9
$ACADMAINTVER
 70
     0
  9
$DWGCODEPAGE
  3
ANSI_1252
  9
$INSBASE
 10
0.0
 20
0.0
 30
0.0
  9
$EXTMIN
 10
1.000000000000000E+20
 20
1.000000000000000E+20
 30
1.000000000000000E+20
  9
$EXTMAX
 10
-1.000000000000000E+20
 20
-1.000000000000000E+20
 30
-1.000000000000000E+20
  9
$LIMMIN
 10
0.0
 20
0.0
  9
$LIMMAX
 10
12.0
 20
9.0
  9
$ORTHOMODE
 70
     0
  9
$REGENMODE
 70
     1
  9
$FILLMODE
 70
     1
  9
$QTEXTMODE
 70
     0
  9
$MIRRTEXT
 70
     1
  9
$LTSCALE
 40
1.0
  9
$ATTMODE
 70
     1
  9
$TEXTSIZE
 40
0.2
  9
$TRACEWID
 40
0.05
  9
$TEXTSTYLE
  7
Standard
  9
$CLAYER
  8
0
  9
$CELTYPE
  6
ByLayer
  9
$CECOLOR
 62
   256
  9
$CELTSCALE
 40
1.0
  9
$DISPSILH
 70
     0
  9
$DIMSCALE
 40
1.0
  9
$DIMASZ
 40
0.18
  9
$DIMEXO
 40
0.0625
  9
$DIMDLI
 40
0.38
  9
$DIMRND
 40
0.0
  9
$DIMDLE
 40
0.0
  9
$DIMEXE
 40
0.18
  9
$DIMTP
 40
0.0
  9
$DIMTM
 40
0.0
  9
$DIMTXT
 40
0.18
  9
$DIMCEN
 40
0.09
  9
$DIMTSZ
 40
0.0
  9
$DIMTOL
 70
     0
  9
$DIMLIM
 70
     0
  9
$DIMTIH
 70
     1
  9
$DIMTOH
 70
     1
  9
$DIMSE1
 70
     0
  9
$DIMSE2
 70
     0
  9
$DIMTAD
 70
     0
  9
$DIMZIN
 70
     0
  9
$DIMBLK
  1

  9
$DIMASO
 70
     1
  9
$DIMSHO
 70
     1
  9
$DIMPOST
  1

  9
$DIMAPOST
  1

  9
$DIMALT
 70
     0
  9
$DIMALTD
 70
     2
  9
$DIMALTF
 40
25.4
  9
$DIMLFAC
 40
1.0
  9
$DIMTOFL
 70
     0
  9
$DIMTVP
 40
0.0
  9
$DIMTIX
 70
     0
  9
$DIMSOXD
 70
     0
  9
$DIMSAH
 70
     0
  9
$DIMBLK1
  1

  9
$DIMBLK2
  1

  9
$DIMSTYLE
  2
Standard
  9
$DIMCLRD
 70
     0
  9
$DIMCLRE
 70
     0
  9
$DIMCLRT
 70
     0
  9
$DIMTFAC
 40
1.0
  9
$DIMGAP
 40
0.09
  9
$DIMJUST
 70
     0
  9
$DIMSD1
 70
     0
  9
$DIMSD2
 70
     0
  9
$DIMTOLJ
 70
     1
  9
$DIMTZIN
 70
     0
  9
$DIMALTZ
 70
     0
  9
$DIMALTTZ
 70
     0
  9
$DIMUPT
 70
     0
  9
$DIMDEC
 70
     4
  9
$DIMTDEC
 70
     4
  9
$DIMALTU
 70
     2
  9
$DIMALTTD
 70
     2
  9
$DIMTXSTY
  7
Standard
  9
$DIMAUNIT
 70
     0
  9
$DIMADEC
 70
     0
  9
$DIMALTRND
 40
0.0
  9
$DIMAZIN
 70
     0
  9
$DIMDSEP
 70
    46
  9
$DIMATFIT
 70
     3
  9
$DIMFRAC
 70
     0
  9
$DIMLDRBLK
  1

  9
$DIMLUNIT
 70
     2
  9
$DIMLWD
 70
    -2
  9
$DIMLWE
 70
    -2
  9
$DIMTMOVE
 70
     0
  9
$LUNITS
 70
     2
  9
$LUPREC
 70
     4
  9
$SKETCHINC
 40
0.1
  9
$FILLETRAD
 40
0.5
  9
$AUNITS
 70
     0
  9
$AUPREC
 70
     0
  9
$MENU
  1
.
  9
$ELEVATION
 40
0.0
  9
$PELEVATION
 40
0.0
  9
$THICKNESS
 40
0.0
  9
$LIMCHECK
 70
     0
  9
$CHAMFERA
 40
0.5
  9
$CHAMFERB
 40
0.5
  9
$CHAMFERC
 40
1.0
  9
$CHAMFERD
 40
0.0
  9
$SKPOLY
 70
     0
  9
$TDCREATE
 40
2455737.144902882
  9
$TDUCREATE
 40
2455737.394902882
  9
$TDUPDATE
 40
2455737.144902893
  9
$TDUUPDATE
 40
2455737.394902893
  9
$TDINDWG
 40
0.0000000116
  9
$TDUSRTIMER
 40
0.0000000116
  9
$USRTIMER
 70
     1
  9
$ANGBASE
 50
0.0
  9
$ANGDIR
 70
     0
  9
$PDMODE
 70
     0
  9
$PDSIZE
 40
0.0
  9
$PLINEWID
 40
0.0
  9
$SPLFRAME
 70
     0
  9
$SPLINETYPE
 70
     6
  9
$SPLINESEGS
 70
     8
  9
$HANDSEED
  5
4A
  9
$SURFTAB1
 70
     6
  9
$SURFTAB2
 70
     6
  9
$SURFTYPE
 70
     6
  9
$SURFU
 70
     6
  9
$SURFV
 70
     6
  9
$UCSBASE
  2

  9
$UCSNAME
  2

  9
$UCSORG
 10
0.0
 20
0.0
 30
0.0
  9
$UCSXDIR
 10
1.0
 20
0.0
 30
0.0
  9
$UCSYDIR
 10
0.0
 20
1.0
 30
0.0
  9
$UCSORTHOREF
  2

  9
$UCSORTHOVIEW
 70
     0
  9
$UCSORGTOP
 10
0.0
 20
0.0
 30
0.0
  9
$UCSORGBOTTOM
 10
0.0
 20
0.0
 30
0.0
  9
$UCSORGLEFT
 10
0.0
 20
0.0
 30
0.0
  9
$UCSORGRIGHT
 10
0.0
 20
0.0
 30
0.0
  9
$UCSORGFRONT
 10
0.0
 20
0.0
 30
0.0
  9
$UCSORGBACK
 10
0.0
 20
0.0
 30
0.0
  9
$PUCSBASE
  2

  9
$PUCSNAME
  2

  9
$PUCSORG
 10
0.0
 20
0.0
 30
0.0
  9
$PUCSXDIR
 10
1.0
 20
0.0
 30
0.0
  9
$PUCSYDIR
 10
0.0
 20
1.0
 30
0.0
  9
$PUCSORTHOREF
  2

  9
$PUCSORTHOVIEW
 70
     0
  9
$PUCSORGTOP
 10
0.0
 20
0.0
 30
0.0
  9
$PUCSORGBOTTOM
 10
0.0
 20
0.0
 30
0.0
  9
$PUCSORGLEFT
 10
0.0
 20
0.0
 30
0.0
  9
$PUCSORGRIGHT
 10
0.0
 20
0.0
 30
0.0
  9
$PUCSORGFRONT
 10
0.0
 20
0.0
 30
0.0
  9
$PUCSORGBACK
 10
0.0
 20
0.0
 30
0.0
  9
$USERI1
 70
     0
  9
$USERI2
 70
     0
  9
$USERI3
 70
     0
  9
$USERI4
 70
     0
  9
$USERI5
 70
     0
  9
$USERR1
 40
0.0
  9
$USERR2
 40
0.0
  9
$USERR3
 40
0.0
  9
$USERR4
 40
0.0
  9
$USERR5
 40
0.0
  9
$WORLDVIEW
 70
     1
  9
$SHADEDGE
 70
     3
  9
$SHADEDIF
 70
    70
  9
$TILEMODE
 70
     1
  9
$MAXACTVP
 70
    64
  9
$PINSBASE
 10
0.0
 20
0.0
 30
0.0
  9
$PLIMCHECK
 70
     0
  9
$PEXTMIN
 10
1.000000000000000E+20
 20
1.000000000000000E+20
 30
1.000000000000000E+20
  9
$PEXTMAX
 10
-1.000000000000000E+20
 20
-1.000000000000000E+20
 30
-1.000000000000000E+20
  9
$PLIMMIN
 10
0.0
 20
0.0
  9
$PLIMMAX
 10
12.0
 20
9.0
  9
$UNITMODE
 70
     0
  9
$VISRETAIN
 70
     1
  9
$PLINEGEN
 70
     0
  9
$PSLTSCALE
 70
     1
  9
$TREEDEPTH
 70
  3020
  9
$CMLSTYLE
  2
Standard
  9
$CMLJUST
 70
     0
  9
$CMLSCALE
 40
1.0
  9
$PROXYGRAPHICS
 70
     1
  9
$MEASUREMENT
 70
     0
  9
$CELWEIGHT
370
    -1
  9
$ENDCAPS
280
     0
  9
$JOINSTYLE
280
     0
  9
$LWDISPLAY
290
     1
  9
$INSUNITS
 70
     1
  9
$HYPERLINKBASE
  1

  9
$STYLESHEET
  1

  9
$XEDIT
290
     1
  9
$CEPSNTYPE
380
     0
  9
$PSTYLEMODE
290
     1
  9
$FINGERPRINTGUID
  2
{35B8E0F8-6A96-437C-BD48-F90210CC8480}
  9
$VERSIONGUID
  2
{FAEB1C32-E019-11D5-929B-00C0DF256EC4}
  9
$EXTNAMES
290
     1
  9
$PSVPSCALE
 40
0.0
  9
$OLESTARTUP
290
     0
  9
$SORTENTS
280
   127
  9
$INDEXCTL
280
     0
  9
$HIDETEXT
280
     1
  9
$XCLIPFRAME
290
     0
  9
$HALOGAP
280
     0
  9
$OBSCOLOR
 70
   257
  9
$OBSLTYPE
280
     0
  9
$INTERSECTIONDISPLAY
280
     0
  9
$INTERSECTIONCOLOR
 70
   257
  9
$DIMASSOC
280
     2
  9
$PROJECTNAME
  1

  0
ENDSEC
  0
SECTION
  2
CLASSES
  0
CLASS
  1
ACDBDICTIONARYWDFLT
  2
AcDbDictionaryWithDefault
  3
ObjectDBX Classes
 90
        0
 91
        3
280
     0
281
     0
  0
CLASS
  1
VISUALSTYLE
  2
AcDbVisualStyle
  3
ObjectDBX Classes
 90
     4095
 91
        3
280
     0
281
     0
  0
ENDSEC
  0
SECTION
  2
TABLES
  0
TABLE
  2
VPORT
  5
8
330
0
100
AcDbSymbolTable
 70
     1
  0
VPORT
  5
29
330
8
100
AcDbSymbolTableRecord
100
AcDbViewportTableRecord
  2
*Active
 70
     0
 10
0.0
 20
0.0
 11
1.0
 21
1.0
 12
0.0
 22
0.0
 13
0.0
 23
0.0
 14
0.5
 24
0.5
 15
0.5
 25
0.5
 16
0.0
 26
0.0
 36
1.0
 17
36.89766166612281
 27
50.7999999873
 37
0.0
 40
101.5999999746
 41
0.7263319227430555
 42
50.0
 43
0.0
 44
0.0
 50
0.0
 51
0.0
 71
     0
 72
   100
 73
     1
 74
     3
 75
     0
 76
     0
 77
     0
 78
     0
281
     0
 65
     1
110
0.0
120
0.0
130
0.0
111
1.0
121
0.0
131
0.0
112
0.0
122
1.0
132
0.0
 79
     0
146
0.0
  0
ENDTAB
  0
TABLE
  2
LTYPE
  5
5
330
0
100
AcDbSymbolTable
 70
     1
  0
LTYPE
  5
14
330
5
100
AcDbSymbolTableRecord
100
AcDbLinetypeTableRecord
  2
ByBlock
 70
     0
  3

 72
    65
 73
     0
 40
0.0
  0
LTYPE
  5
15
330
5
100
AcDbSymbolTableRecord
100
AcDbLinetypeTableRecord
  2
ByLayer
 70
     0
  3

 72
    65
 73
     0
 40
0.0
  0
LTYPE
  5
16
330
5
100
AcDbSymbolTableRecord
100
AcDbLinetypeTableRecord
  2
Continuous
 70
     0
  3
Solid line
 72
    65
 73
     0
 40
0.0
  0
ENDTAB
  0
TABLE
  2
LAYER
  5
2
330
0
100
AcDbSymbolTable
 70
     2
  0
LAYER
  5
10
330
2
100
AcDbSymbolTableRecord
100
AcDbLayerTableRecord
  2
0
 70
     0
 62
     7
  6
Continuous
370
    -3
390
F
  0
LAYER
  5
3B
330
2
100
AcDbSymbolTableRecord
100
AcDbLayerTableRecord
  2
Layer 1
 70
     0
 62
     7
  6
Continuous
370
    -3
390
F
  0
ENDTAB
  0
TABLE
  2
STYLE
  5
3
330
0
100
AcDbSymbolTable
 70
     1
  0
STYLE
  5
11
330
3
100
AcDbSymbolTableRecord
100
AcDbTextStyleTableRecord
  2
Standard
 70
     0
 40
0.0
 41
1.0
 50
0.0
 71
     0
 42
0.2
  3
txt
  4

  0
ENDTAB
  0
TABLE
  2
VIEW
  5
6
330
0
100
AcDbSymbolTable
 70
     0
  0
ENDTAB
  0
TABLE
  2
UCS
  5
7
330
0
100
AcDbSymbolTable
 70
     0
  0
ENDTAB
  0
TABLE
  2
APPID
  5
9
330
0
100
AcDbSymbolTable
 70
     1
  0
APPID
  5
12
330
9
100
AcDbSymbolTableRecord
100
AcDbRegAppTableRecord
  2
ACAD
 70
     0
  0
ENDTAB
  0
TABLE
  2
DIMSTYLE
  5
A
330
0
100
AcDbSymbolTable
 70
     1
100
AcDbDimStyleTable
  0
DIMSTYLE
105
27
330
A
100
AcDbSymbolTableRecord
100
AcDbDimStyleTableRecord
  2
Standard
 70
     0
340
11
  0
ENDTAB
  0
TABLE
  2
BLOCK_RECORD
  5
1
330
0
100
AcDbSymbolTable
 70
     1
  0
BLOCK_RECORD
  5
1F
330
1
100
AcDbSymbolTableRecord
100
AcDbBlockTableRecord
  2
*Model_Space
340
22
  0
BLOCK_RECORD
  5
1B
330
1
100
AcDbSymbolTableRecord
100
AcDbBlockTableRecord
  2
*Paper_Space
340
1E
  0
BLOCK_RECORD
  5
23
330
1
100
AcDbSymbolTableRecord
100
AcDbBlockTableRecord
  2
*Paper_Space0
340
26
  0
ENDTAB
  0
ENDSEC
  0
SECTION
  2
BLOCKS
  0
BLOCK
  5
20
330
1F
100
AcDbEntity
  8
0
100
AcDbBlockBegin
  2
*Model_Space
 70
     0
 71
     0
 10
0.0
 20
0.0
 30
0.0
  3
*Model_Space
  1

  0
ENDBLK
  5
21
330
1F
100
AcDbEntity
  8
0
100
AcDbBlockEnd
  0
BLOCK
  5
1C
330
1B
100
AcDbEntity
 67
     1
  8
0
100
AcDbBlockBegin
  2
*Paper_Space
 70
     0
 71
     0
 10
0.0
 20
0.0
 30
0.0
  3
*Paper_Space
  1

  0
ENDBLK
  5
1D
330
1B
100
AcDbEntity
 67
     1
  8
0
100
AcDbBlockEnd
  0
BLOCK
  5
24
330
23
100
AcDbEntity
  8
0
100
AcDbBlockBegin
  2
*Paper_Space0
 70
     0
 71
     0
 10
0.0
 20
0.0
 30
0.0
  3
*Paper_Space0
  1

  0
ENDBLK
  5
25
330
23
100
AcDbEntity
  8
0
100
AcDbBlockEnd
  0
ENDSEC
  0
SECTION
  2
ENTITIES
  0
SPLINE
  5
3C
330
1F
100
AcDbEntity
  8
Layer 1
370
     0
100
AcDbSpline
210
0.0
220
0.0
230
1.0
 70
    11
 71
     3
 72
   911
 73
   907
 74
     0
 42
0.0000000001
 43
0.0000000001
 40
0.0
 40
0.0
 40
0.0
 40
0.0
 40
1.0
 40
1.0
 40
1.0
 40
2.0
 40
2.0
 40
2.0
 40
3.0
 40
3.0
 40
3.0
 40
4.0
 40
4.0
 40
4.0
 40
5.0
 40
5.0
 40
5.0
 40
6.0
 40
6.0
 40
6.0
 40
7.0
 40
7.0
 40
7.0
 40
8.0
 40
8.0
 40
8.0
 40
9.0
 40
9.0
 40
9.0
 40
10.0
 40
10.0
 40
10.0
 40
11.0
 40
11.0
 40
11.0
 40
12.0
 40
12.0
 40
12.0
 40
13.0
 40
13.0
 40
13.0
 40
14.0
 40
14.0
 40
14.0
 40
15.0
 40
15.0
 40
15.0
 40
16.0
 40
16.0
 40
16.0
 40
17.0
 40
17.0
 40
17.0
 40
18.0
 40
18.0
 40
18.0
 40
19.0
 40
19.0
 40
19.0
 40
20.0
 40
20.0
 40
20.0
 40
21.0
 40
21.0
 40
21.0
 40
22.0
 40
22.0
 40
22.0
 40
23.0
 40
23.0
 40
23.0
 40
24.0
 40
24.0
 40
24.0
 40
25.0
 40
25.0
 40
25.0
 40
26.0
 40
26.0
 40
26.0
 40
27.0
 40
27.0
 40
27.0
 40
28.0
 40
28.0
 40
28.0
 40
29.0
 40
29.0
 40
29.0
 40
30.0
 40
30.0
 40
30.0
 40
31.0
 40
31.0
 40
31.0
 40
32.0
 40
32.0
 40
32.0
 40
33.0
 40
33.0
 40
33.0
 40
34.0
 40
34.0
 40
34.0
 40
35.0
 40
35.0
 40
35.0
 40
36.0
 40
36.0
 40
36.0
 40
37.0
 40
37.0
 40
37.0
 40
38.0
 40
38.0
 40
38.0
 40
39.0
 40
39.0
 40
39.0
 40
40.0
 40
40.0
 40
40.0
 40
41.0
 40
41.0
 40
41.0
 40
42.0
 40
42.0
 40
42.0
 40
43.0
 40
43.0
 40
43.0
 40
44.0
 40
44.0
 40
44.0
 40
45.0
 40
45.0
 40
45.0
 40
46.0
 40
46.0
 40
46.0
 40
47.0
 40
47.0
 40
47.0
 40
48.0
 40
48.0
 40
48.0
 40
49.0
 40
49.0
 40
49.0
 40
50.0
 40
50.0
 40
50.0
 40
51.0
 40
51.0
 40
51.0
 40
52.0
 40
52.0
 40
52.0
 40
53.0
 40
53.0
 40
53.0
 40
54.0
 40
54.0
 40
54.0
 40
55.0
 40
55.0
 40
55.0
 40
56.0
 40
56.0
 40
56.0
 40
57.0
 40
57.0
 40
57.0
 40
58.0
 40
58.0
 40
58.0
 40
59.0
 40
59.0
 40
59.0
 40
60.0
 40
60.0
 40
60.0
 40
61.0
 40
61.0
 40
61.0
 40
62.0
 40
62.0
 40
62.0
 40
63.0
 40
63.0
 40
63.0
 40
64.0
 40
64.0
 40
64.0
 40
65.0
 40
65.0
 40
65.0
 40
66.0
 40
66.0
 40
66.0
 40
67.0
 40
67.0
 40
67.0
 40
68.0
 40
68.0
 40
68.0
 40
69.0
 40
69.0
 40
69.0
 40
70.0
 40
70.0
 40
70.0
 40
71.0
 40
71.0
 40
71.0
 40
72.0
 40
72.0
 40
72.0
 40
73.0
 40
73.0
 40
73.0
 40
74.0
 40
74.0
 40
74.0
 40
75.0
 40
75.0
 40
75.0
 40
76.0
 40
76.0
 40
76.0
 40
77.0
 40
77.0
 40
77.0
 40
78.0
 40
78.0
 40
78.0
 40
79.0
 40
79.0
 40
79.0
 40
80.0
 40
80.0
 40
80.0
 40
81.0
 40
81.0
 40
81.0
 40
82.0
 40
82.0
 40
82.0
 40
83.0
 40
83.0
 40
83.0
 40
84.0
 40
84.0
 40
84.0
 40
85.0
 40
85.0
 40
85.0
 40
86.0
 40
86.0
 40
86.0
 40
87.0
 40
87.0
 40
87.0
 40
88.0
 40
88.0
 40
88.0
 40
89.0
 40
89.0
 40
89.0
 40
90.0
 40
90.0
 40
90.0
 40
91.0
 40
91.0
 40
91.0
 40
92.0
 40
92.0
 40
92.0
 40
93.0
 40
93.0
 40
93.0
 40
94.0
 40
94.0
 40
94.0
 40
95.0
 40
95.0
 40
95.0
 40
96.0
 40
96.0
 40
96.0
 40
97.0
 40
97.0
 40
97.0
 40
98.0
 40
98.0
 40
98.0
 40
99.0
 40
99.0
 40
99.0
 40
100.0
 40
100.0
 40
100.0
 40
101.0
 40
101.0
 40
101.0
 40
102.0
 40
102.0
 40
102.0
 40
103.0
 40
103.0
 40
103.0
 40
104.0
 40
104.0
 40
104.0
 40
105.0
 40
105.0
 40
105.0
 40
106.0
 40
106.0
 40
106.0
 40
107.0
 40
107.0
 40
107.0
 40
108.0
 40
108.0
 40
108.0
 40
109.0
 40
109.0
 40
109.0
 40
110.0
 40
110.0
 40
110.0
 40
111.0
 40
111.0
 40
111.0
 40
112.0
 40
112.0
 40
112.0
 40
113.0
 40
113.0
 40
113.0
 40
114.0
 40
114.0
 40
114.0
 40
115.0
 40
115.0
 40
115.0
 40
116.0
 40
116.0
 40
116.0
 40
117.0
 40
117.0
 40
117.0
 40
118.0
 40
118.0
 40
118.0
 40
119.0
 40
119.0
 40
119.0
 40
120.0
 40
120.0
 40
120.0
 40
121.0
 40
121.0
 40
121.0
 40
122.0
 40
122.0
 40
122.0
 40
123.0
 40
123.0
 40
123.0
 40
124.0
 40
124.0
 40
124.0
 40
125.0
 40
125.0
 40
125.0
 40
126.0
 40
126.0
 40
126.0
 40
127.0
 40
127.0
 40
127.0
 40
128.0
 40
128.0
 40
128.0
 40
129.0
 40
129.0
 40
129.0
 40
130.0
 40
130.0
 40
130.0
 40
131.0
 40
131.0
 40
131.0
 40
132.0
 40
132.0
 40
132.0
 40
133.0
 40
133.0
 40
133.0
 40
134.0
 40
134.0
 40
134.0
 40
135.0
 40
135.0
 40
135.0
 40
136.0
 40
136.0
 40
136.0
 40
137.0
 40
137.0
 40
137.0
 40
138.0
 40
138.0
 40
138.0
 40
139.0
 40
139.0
 40
139.0
 40
140.0
 40
140.0
 40
140.0
 40
141.0
 40
141.0
 40
141.0
 40
142.0
 40
142.0
 40
142.0
 40
143.0
 40
143.0
 40
143.0
 40
144.0
 40
144.0
 40
144.0
 40
145.0
 40
145.0
 40
145.0
 40
146.0
 40
146.0
 40
146.0
 40
147.0
 40
147.0
 40
147.0
 40
148.0
 40
148.0
 40
148.0
 40
149.0
 40
149.0
 40
149.0
 40
150.0
 40
150.0
 40
150.0
 40
151.0
 40
151.0
 40
151.0
 40
152.0
 40
152.0
 40
152.0
 40
153.0
 40
153.0
 40
153.0
 40
154.0
 40
154.0
 40
154.0
 40
155.0
 40
155.0
 40
155.0
 40
156.0
 40
156.0
 40
156.0
 40
157.0
 40
157.0
 40
157.0
 40
158.0
 40
158.0
 40
158.0
 40
159.0
 40
159.0
 40
159.0
 40
160.0
 40
160.0
 40
160.0
 40
161.0
 40
161.0
 40
161.0
 40
162.0
 40
162.0
 40
162.0
 40
163.0
 40
163.0
 40
163.0
 40
164.0
 40
164.0
 40
164.0
 40
165.0
 40
165.0
 40
165.0
 40
166.0
 40
166.0
 40
166.0
 40
167.0
 40
167.0
 40
167.0
 40
168.0
 40
168.0
 40
168.0
 40
169.0
 40
169.0
 40
169.0
 40
170.0
 40
170.0
 40
170.0
 40
171.0
 40
171.0
 40
171.0
 40
172.0
 40
172.0
 40
172.0
 40
173.0
 40
173.0
 40
173.0
 40
174.0
 40
174.0
 40
174.0
 40
175.0
 40
175.0
 40
175.0
 40
176.0
 40
176.0
 40
176.0
 40
177.0
 40
177.0
 40
177.0
 40
178.0
 40
178.0
 40
178.0
 40
179.0
 40
179.0
 40
179.0
 40
180.0
 40
180.0
 40
180.0
 40
181.0
 40
181.0
 40
181.0
 40
182.0
 40
182.0
 40
182.0
 40
183.0
 40
183.0
 40
183.0
 40
184.0
 40
184.0
 40
184.0
 40
185.0
 40
185.0
 40
185.0
 40
186.0
 40
186.0
 40
186.0
 40
187.0
 40
187.0
 40
187.0
 40
188.0
 40
188.0
 40
188.0
 40
189.0
 40
189.0
 40
189.0
 40
190.0
 40
190.0
 40
190.0
 40
191.0
 40
191.0
 40
191.0
 40
192.0
 40
192.0
 40
192.0
 40
193.0
 40
193.0
 40
193.0
 40
194.0
 40
194.0
 40
194.0
 40
195.0
 40
195.0
 40
195.0
 40
196.0
 40
196.0
 40
196.0
 40
197.0
 40
197.0
 40
197.0
 40
198.0
 40
198.0
 40
198.0
 40
199.0
 40
199.0
 40
199.0
 40
200.0
 40
200.0
 40
200.0
 40
201.0
 40
201.0
 40
201.0
 40
202.0
 40
202.0
 40
202.0
 40
203.0
 40
203.0
 40
203.0
 40
204.0
 40
204.0
 40
204.0
 40
205.0
 40
205.0
 40
205.0
 40
206.0
 40
206.0
 40
206.0
 40
207.0
 40
207.0
 40
207.0
 40
208.0
 40
208.0
 40
208.0
 40
209.0
 40
209.0
 40
209.0
 40
210.0
 40
210.0
 40
210.0
 40
211.0
 40
211.0
 40
211.0
 40
212.0
 40
212.0
 40
212.0
 40
213.0
 40
213.0
 40
213.0
 40
214.0
 40
214.0
 40
214.0
 40
215.0
 40
215.0
 40
215.0
 40
216.0
 40
216.0
 40
216.0
 40
217.0
 40
217.0
 40
217.0
 40
218.0
 40
218.0
 40
218.0
 40
219.0
 40
219.0
 40
219.0
 40
220.0
 40
220.0
 40
220.0
 40
221.0
 40
221.0
 40
221.0
 40
222.0
 40
222.0
 40
222.0
 40
223.0
 40
223.0
 40
223.0
 40
224.0
 40
224.0
 40
224.0
 40
225.0
 40
225.0
 40
225.0
 40
226.0
 40
226.0
 40
226.0
 40
227.0
 40
227.0
 40
227.0
 40
228.0
 40
228.0
 40
228.0
 40
229.0
 40
229.0
 40
229.0
 40
230.0
 40
230.0
 40
230.0
 40
231.0
 40
231.0
 40
231.0
 40
232.0
 40
232.0
 40
232.0
 40
233.0
 40
233.0
 40
233.0
 40
234.0
 40
234.0
 40
234.0
 40
235.0
 40
235.0
 40
235.0
 40
236.0
 40
236.0
 40
236.0
 40
237.0
 40
237.0
 40
237.0
 40
238.0
 40
238.0
 40
238.0
 40
239.0
 40
239.0
 40
239.0
 40
240.0
 40
240.0
 40
240.0
 40
241.0
 40
241.0
 40
241.0
 40
242.0
 40
242.0
 40
242.0
 40
243.0
 40
243.0
 40
243.0
 40
244.0
 40
244.0
 40
244.0
 40
245.0
 40
245.0
 40
245.0
 40
246.0
 40
246.0
 40
246.0
 40
247.0
 40
247.0
 40
247.0
 40
248.0
 40
248.0
 40
248.0
 40
249.0
 40
249.0
 40
249.0
 40
250.0
 40
250.0
 40
250.0
 40
251.0
 40
251.0
 40
251.0
 40
252.0
 40
252.0
 40
252.0
 40
253.0
 40
253.0
 40
253.0
 40
254.0
 40
254.0
 40
254.0
 40
255.0
 40
255.0
 40
255.0
 40
256.0
 40
256.0
 40
256.0
 40
257.0
 40
257.0
 40
257.0
 40
258.0
 40
258.0
 40
258.0
 40
259.0
 40
259.0
 40
259.0
 40
260.0
 40
260.0
 40
260.0
 40
261.0
 40
261.0
 40
261.0
 40
262.0
 40
262.0
 40
262.0
 40
263.0
 40
263.0
 40
263.0
 40
264.0
 40
264.0
 40
264.0
 40
265.0
 40
265.0
 40
265.0
 40
266.0
 40
266.0
 40
266.0
 40
267.0
 40
267.0
 40
267.0
 40
268.0
 40
268.0
 40
268.0
 40
269.0
 40
269.0
 40
269.0
 40
270.0
 40
270.0
 40
270.0
 40
271.0
 40
271.0
 40
271.0
 40
272.0
 40
272.0
 40
272.0
 40
273.0
 40
273.0
 40
273.0
 40
274.0
 40
274.0
 40
274.0
 40
275.0
 40
275.0
 40
275.0
 40
276.0
 40
276.0
 40
276.0
 40
277.0
 40
277.0
 40
277.0
 40
278.0
 40
278.0
 40
278.0
 40
279.0
 40
279.0
 40
279.0
 40
280.0
 40
280.0
 40
280.0
 40
281.0
 40
281.0
 40
281.0
 40
282.0
 40
282.0
 40
282.0
 40
283.0
 40
283.0
 40
283.0
 40
284.0
 40
284.0
 40
284.0
 40
285.0
 40
285.0
 40
285.0
 40
286.0
 40
286.0
 40
286.0
 40
287.0
 40
287.0
 40
287.0
 40
288.0
 40
288.0
 40
288.0
 40
289.0
 40
289.0
 40
289.0
 40
290.0
 40
290.0
 40
290.0
 40
291.0
 40
291.0
 40
291.0
 40
292.0
 40
292.0
 40
292.0
 40
293.0
 40
293.0
 40
293.0
 40
294.0
 40
294.0
 40
294.0
 40
295.0
 40
295.0
 40
295.0
 40
296.0
 40
296.0
 40
296.0
 40
297.0
 40
297.0
 40
297.0
 40
298.0
 40
298.0
 40
298.0
 40
299.0
 40
299.0
 40
299.0
 40
300.0
 40
300.0
 40
300.0
 40
301.0
 40
301.0
 40
301.0
 40
302.0
 40
302.0
 40
302.0
 40
302.0
 10
64.42087400733229
 20
43.49467501082772
 30
0.0
 10
65.77376300438989
 20
45.06736109984427
 30
0.0
 10
71.36584199604744
 20
48.38636609033396
 30
0.0
 10
68.17258299076936
 20
50.45204534328977
 30
0.0
 10
65.8288845321539
 20
51.9678873567997
 30
0.0
 10
60.44764538419365
 20
49.44125432791747
 30
0.0
 10
58.41056042376542
 20
48.12247177616383
 30
0.0
 10
59.21120061453748
 20
49.81056856393625
 30
0.0
 10
59.70281574028263
 20
51.46800400188994
 30
0.0
 10
60.26643336166951
 20
53.18262802489879
 30
0.0
 10
61.01195202467757
 20
55.4517401662586
 30
0.0
 10
63.50482311780435
 20
61.59572345465315
 30
0.0
 10
59.50920137401159
 20
61.29548338311363
 30
0.0
 10
55.05744898797175
 20
60.96113686627014
 30
0.0
 10
50.89163952720765
 20
55.15270587813891
 30
0.0
 10
48.75016817357635
 20
51.83318412332643
 30
0.0
 10
46.73823241019044
 20
48.71399467098123
 30
0.0
 10
44.33734536651983
 20
45.22583549216576
 30
0.0
 10
45.61271971515932
 20
41.52959254604121
 30
0.0
 10
45.89211695901309
 20
40.72068412610455
 30
0.0
 10
46.22904729747052
 20
39.99618054555651
 30
0.0
 10
46.61524250136703
 20
39.34574651794134
 30
0.0
 10
45.14177516232567
 20
39.0832302419653
 30
0.0
 10
43.71137151684994
 20
38.79108614481612
 30
0.0
 10
42.3939670032904
 20
38.5426947603296
 30
0.0
 10
38.76421440003117
 20
37.85712075876489
 30
0.0
 10
35.04230549254151
 20
37.02823078501378
 30
0.0
 10
31.50298664577009
 20
35.52513562479928
 30
0.0
 10
29.62334254901778
 20
34.72621798176984
 30
0.0
 10
27.7710869613732
 20
33.92936739603155
 30
0.0
 10
25.95517713109801
 20
33.01607258289182
 30
0.0
 10
25.85940347660807
 20
32.96784124609832
 30
0.0
 10
25.76414658644091
 20
32.91788736156219
 30
0.0
 10
25.6682006771767
 20
32.86896700567165
 30
0.0
 10
27.22710638425225
 20
34.26629773448898
 30
0.0
 10
28.83579372108967
 20
35.63606769942432
 30
0.0
 10
30.48048230574794
 20
37.0092827598449
 30
0.0
 10
33.11735839015816
 20
39.21173230356512
 30
0.0
 10
35.77645534044825
 20
41.58436956425669
 30
0.0
 10
37.9732204766178
 20
44.33768987606836
 30
0.0
 10
39.07117240776693
 20
45.71435003197419
 30
0.0
 10
40.05336913061166
 20
47.18816188056407
 30
0.0
 10
40.850908735447
 20
48.7825520711377
 30
0.0
 10
41.64879284983086
 20
50.37694226171132
 30
0.0
 10
42.26167533665681
 20
52.09311657768853
 30
0.0
 10
42.61996526712279
 20
53.94416638191327
 30
0.0
 10
42.91589896930575
 20
55.4718939748473
 30
0.0
 10
43.07023924704495
 20
57.13156872486642
 30
0.0
 10
43.07058375659346
 20
58.83758000916214
 30
0.0
 10
43.07023924704495
 20
59.88661158442071
 30
0.0
 10
43.00857203785897
 20
60.95269638233128
 30
0.0
 10
42.88696016722965
 20
62.01585284907937
 30
0.0
 10
43.08608668627709
 20
61.99862737165312
 30
0.0
 10
43.29658202042586
 20
61.98949786861721
 30
0.0
 10
43.52258028425825
 20
61.9872585565518
 30
0.0
 10
43.52258028425825
 20
61.9872585565518
 30
0.0
 10
43.5232693033553
 20
61.9872585565518
 30
0.0
 10
43.5232693033553
 20
61.9872585565518
 30
0.0
 10
43.56116535369304
 20
61.98691404700327
 30
0.0
 10
43.59906140403079
 20
61.98674179222901
 30
0.0
 10
43.63764647346559
 20
61.98674179222901
 30
0.0
 10
44.86272242802043
 20
61.9872585565518
 30
0.0
 10
46.21044378185017
 20
62.1548624519092
 30
0.0
 10
47.58193629452813
 20
62.48180201345941
 30
0.0
 10
49.63796928012523
 20
62.97410615830162
 30
0.0
 10
51.74533418845256
 20
63.82108288335029
 30
0.0
 10
53.51680228696802
 20
65.06407333442843
 30
0.0
 10
54.40150280758018
 20
65.68660208861307
 30
0.0
 10
55.20248750790077
 20
66.41076115961259
 30
0.0
 10
55.85705565009824
 20
67.24964191027092
 30
0.0
 10
56.51127928274718
 20
68.08766138705795
 30
0.0
 10
57.01770831907891
 20
69.04522567718314
 30
0.0
 10
57.2905598815107
 20
70.10838214393124
 30
0.0
 10
57.2905598815107
 20
70.10838214393124
 30
0.0
 10
57.2905598815107
 20
70.10872665347976
 30
0.0
 10
57.2905598815107
 20
70.10872665347976
 30
0.0
 10
57.37530923044784
 20
70.43721650799834
 30
0.0
 10
57.42285154814429
 20
70.75433754741559
 30
0.0
 10
57.42354056724134
 20
71.07008054863873
 30
0.0
 10
57.42388507678987
 20
71.4343993962039
 30
0.0
 10
57.35601669573045
 20
71.80388588699695
 30
0.0
 10
57.19306367927813
 20
72.14098848022864
 30
0.0
 10
57.07248533729438
 20
72.39299721497467
 30
0.0
 10
56.89919703438631
 20
72.62002900745263
 30
0.0
 10
56.6976589484992
 20
72.79865720836284
 30
0.0
 10
56.54676376624526
 20
72.9333604418361
 30
0.0
 10
56.38208820205031
 20
73.04153644007295
 30
0.0
 10
56.21431205191865
 20
73.12663029855862
 30
0.0
 10
55.96178655284984
 20
73.25427108628713
 30
0.0
 10
55.70305988190757
 20
73.33178573470525
 30
0.0
 10
55.44605575870794
 20
73.37984481672449
 30
0.0
 10
55.18870712595977
 20
73.4275593891952
 30
0.0
 10
54.93204751230866
 20
73.44599065004128
 30
0.0
 10
54.67263182226935
 20
73.44633515958981
 30
0.0
 10
53.99739310716038
 20
73.44461261184718
 30
0.0
 10
53.30010578094581
 20
73.3228284864436
 30
0.0
 10
52.59041611098434
 20
73.14557832372749
 30
0.0
 10
51.52898219197887
 20
72.87789440452359
 30
0.0
 10
50.44653319051337
 20
72.4768852900405
 30
0.0
 10
49.51739093814149
 20
72.08190509265661
 30
0.0
 10
49.05299206672981
 20
71.88415661180326
 30
0.0
 10
48.62786728384998
 20
71.68795842391829
 30
0.0
 10
48.26509872925318
 20
71.50864120391104
 30
0.0
 10
47.90095213646227
 20
71.32863496480674
 30
0.0
 10
47.60295137698815
 20
71.16878253429114
 30
0.0
 10
47.37109645083084
 20
71.02891165759
 30
0.0
 10
45.65612791827347
 20
69.9905598783357
 30
0.0
 10
44.00351561399912
 20
68.65472410393008
 30
0.0
 10
42.61169703795819
 20
67.23982338813796
 30
0.0
 10
42.3843207359317
 20
67.00796846198065
 30
0.0
 10
42.16107854848751
 20
66.7762857905976
 30
0.0
 10
41.94851615704759
 20
66.54322508102045
 30
0.0
 10
41.38765461204892
 20
68.33519149767315
 30
0.0
 10
40.60217284141196
 20
70.02432181409114
 30
0.0
 10
39.54521754653731
 20
71.48366426164297
 30
0.0
 10
39.34781357523249
 20
71.82180038352024
 30
0.0
 10
39.19243976884773
 20
72.17578394462967
 30
0.0
 10
39.07392848415513
 20
72.54372014245435
 30
0.0
 10
38.88513725156344
 20
73.13334823475486
 30
0.0
 10
38.79384222120432
 20
73.75932208442475
 30
0.0
 10
38.7934977116558
 20
74.40321043061795
 30
0.0
 10
38.79143065436465
 20
75.79967988556398
 30
0.0
 10
39.23240287647663
 20
77.2810709442214
 30
0.0
 10
40.00272622697849
 20
78.56057940744319
 30
0.0
 10
40.7709825201892
 20
79.8418104184076
 30
0.0
 10
41.8616997508193
 20
80.91116805702916
 30
0.0
 10
43.09538844408726
 20
81.53438583031085
 30
0.0
 10
43.62800020610689
 20
81.80534259022575
 30
0.0
 10
44.32253145593326
 20
82.04305417870799
 30
0.0
 10
45.08424206772199
 20
82.20600719516031
 30
0.0
 10
45.84595267951074
 20
82.36982148548394
 30
0.0
 10
46.67518716281037
 20
82.46094426106879
 30
0.0
 10
47.48340656364999
 20
82.46059975152028
 30
0.0
 10
48.15347763553108
 20
82.46077200629453
 30
0.0
 10
48.80907930637412
 20
82.39807126846299
 30
0.0
 10
49.39887965344889
 20
82.27094724505727
 30
0.0
 10
49.8415744233035
 20
82.17603486443863
 30
0.0
 10
50.24637314282035
 20
82.04477672645062
 30
0.0
 10
50.59363876773354
 20
81.88337400296666
 30
0.0
 10
50.85477700551547
 20
81.76245115143439
 30
0.0
 10
51.08318683618754
 20
81.62499184157292
 30
0.0
 10
51.27645669291005
 20
81.47547469751308
 30
0.0
 10
51.56618922321957
 20
81.24964868845495
 30
0.0
 10
51.7749620096257
 20
81.00229083261401
 30
0.0
 10
51.92034503910325
 20
80.71565888824122
 30
0.0
 10
51.98924694880824
 20
80.57768281405697
 30
0.0
 10
52.04505749566929
 20
80.42868243431991
 30
0.0
 10
52.08467609374966
 20
80.26245657715661
 30
0.0
 10
52.07296276909982
 20
80.17030027292618
 30
0.0
 10
52.06607257812932
 20
80.07745494959869
 30
0.0
 10
52.06607257812932
 20
79.98495413581973
 30
0.0
 10
52.06607257812932
 20
79.78341604993263
 30
0.0
 10
52.09397785155984
 20
79.5865288429506
 30
0.0
 10
52.14220918835334
 20
79.39463702442218
 30
0.0
 10
52.11223685763166
 20
78.99948457226402
 30
0.0
 10
52.01301810765647
 20
78.53267413401267
 30
0.0
 10
51.81216904086641
 20
77.98731551869761
 30
0.0
 10
51.81216904086641
 20
77.98731551869761
 30
0.0
 10
53.42654078525448
 20
77.39355331181481
 30
0.0
 10
53.42654078525448
 20
77.39355331181481
 30
0.0
 10
53.52162542064737
 20
77.30983749152324
 30
0.0
 10
53.61843260378289
 20
77.23008353103971
 30
0.0
 10
53.71627331556399
 20
77.15808103539798
 30
0.0
 10
54.11073674862509
 20
76.86834850508848
 30
0.0
 10
54.51105684401113
 20
76.66698267397562
 30
0.0
 10
54.87933755138433
 20
76.49731172132707
 30
0.0
 10
55.24796276830607
 20
76.32832978777556
 30
0.0
 10
55.58696016405465
 20
76.18932018494573
 30
0.0
 10
55.87014701294219
 20
76.04962156301885
 30
0.0
 10
56.65872936951587
 20
75.6622205757025
 30
0.0
 10
57.57684731633496
 20
75.31133760052981
 30
0.0
 10
58.56455619195609
 20
75.05261092958754
 30
0.0
 10
59.55192055802869
 20
74.79457327774233
 30
0.0
 10
60.60784232425777
 20
74.62834742057903
 30
0.0
 10
61.67203231965144
 20
74.62783065625624
 30
0.0
 10
62.45820310938545
 20
74.6280029110305
 30
0.0
 10
63.24988605189586
 20
74.71912568661536
 30
0.0
 10
64.01641979736395
 20
74.94288463838234
 30
0.0
 10
64.78157550463794
 20
75.1662990806008
 30
0.0
 10
65.52330456261224
 20
75.52613930403514
 30
0.0
 10
66.17821721435823
 20
76.05599498966656
 30
0.0
 10
66.5888725962
 20
76.38861895876744
 30
0.0
 10
66.91856823413842
 20
76.74897594652457
 30
0.0
 10
67.15352374623245
 20
77.15687525197815
 30
0.0
 10
67.27100150227947
 20
77.36030814038214
 30
0.0
 10
67.36298555173565
 20
77.57528209866175
 30
0.0
 10
67.42499727047014
 20
77.79714624791183
 30
0.0
 10
67.48700898920464
 20
78.0186658876134
 30
0.0
 10
67.51767033902337
 20
78.24673120873693
 30
0.0
 10
67.51767033902337
 20
78.46997339618112
 30
0.0
 10
67.51767033902337
 20
78.7938123717946
 30
0.0
 10
67.45290254390066
 20
79.10455998456415
 30
0.0
 10
67.34679360295497
 20
79.38361271886937
 30
0.0
 10
67.15938040855738
 20
79.87384980642042
 30
0.0
 10
66.85965710134064
 20
80.26900225857858
 30
0.0
 10
66.5254828392714
 20
80.60524357793896
 30
0.0
 10
66.02008733158526
 20
81.10788300923693
 30
0.0
 10
65.42064071715178
 20
81.49132213674523
 30
0.0
 10
64.81464842129634
 20
81.79759112538395
 30
0.0
 10
64.20727808724679
 20
82.1017930567315
 30
0.0
 10
63.596462657712
 20
82.32348495120733
 30
0.0
 10
63.0435248323294
 20
82.4549153439696
 30
0.0
 10
62.93776040093223
 20
82.4797200314634
 30
0.0
 10
62.82579479766161
 20
82.50159638779475
 30
0.0
 10
62.69694822651326
 20
82.52398950844886
 30
0.0
 10
62.25080836117341
 20
82.6009873925442
 30
0.0
 10
61.60175237175234
 20
82.6822916459961
 30
0.0
 10
60.82522784937703
 20
82.74723169589306
 30
0.0
 10
60.05042587474434
 20
82.81199949101575
 30
0.0
 10
59.15504555812791
 20
82.85868053484089
 30
0.0
 10
58.24140623543965
 20
82.85868053484089
 30
0.0
 10
57.58856064098481
 20
82.85868053484089
 30
0.0
 10
56.92606877917126
 20
82.83490937599267
 30
0.0
 10
56.28872611440004
 20
82.77427569545227
 30
0.0
 10
55.81020235149884
 20
82.72845592549845
 30
0.0
 10
55.34545897053864
 20
82.66231009218164
 30
0.0
 10
54.90448674842666
 20
82.56601967336891
 30
0.0
 10
54.57341307229415
 20
82.49332815863015
 30
0.0
 10
54.25508624945707
 20
82.40427244033644
 30
0.0
 10
53.95157333720655
 20
82.2886894868063
 30
0.0
 10
53.84615341535791
 20
82.24855412440314
 30
0.0
 10
53.74314506034894
 20
82.20411239264342
 30
0.0
 10
53.64151474353407
 20
82.1569145844955
 30
0.0
 10
53.50164386683292
 20
82.36689315432147
 30
0.0
 10
53.34489202225406
 20
82.56291908743219
 30
0.0
 10
53.17435979573419
 20
82.74189179789091
 30
0.0
 10
53.01554089386417
 20
82.90897892892554
 30
0.0
 10
52.84431964824726
 20
83.06039087550226
 30
0.0
 10
52.66586370211132
 20
83.20129528084898
 30
0.0
 10
53.3648735760685
 20
83.39714895918544
 30
0.0
 10
54.06078286408897
 20
83.65518661103066
 30
0.0
 10
54.72396374499957
 20
83.9612833448951
 30
0.0
 10
55.62692327168355
 20
84.37934568203016
 30
0.0
 10
56.46683755098746
 20
84.88267413242517
 30
0.0
 10
57.16584742494465
 20
85.46196693826992
 30
0.0
 10
57.50174423475651
 20
85.74136418212369
 30
0.0
 10
57.89586315826909
 20
86.10551077491459
 30
0.0
 10
58.30893010695055
 20
86.53425290805394
 30
0.0
 10
58.92766925610142
 20
87.17779674469861
 30
0.0
 10
59.58602700333266
 20
87.96000567462458
 30
0.0
 10
60.11588268896408
 20
88.81438935496655
 30
0.0
 10
60.3808105317798
 20
89.24244246900884
 30
0.0
 10
60.61369898658269
 20
89.68909909867148
 30
0.0
 10
60.78733179903928
 20
90.15814884898825
 30
0.0
 10
60.96027559239882
 20
90.62650958020797
 30
0.0
 10
61.07740883889732
 20
91.12053627279279
 30
0.0
 10
61.07809785799436
 20
91.64384627700224
 30
0.0
 10
61.07809785799436
 20
91.89671628561958
 30
0.0
 10
61.04984807501532
 20
92.15630423043315
 30
0.0
 10
60.98301322260147
 20
92.4141696275041
 30
0.0
 10
60.886895058563
 20
92.7857231755883
 30
0.0
 10
60.74943574870153
 20
93.1278211572736
 30
0.0
 10
60.56271157340099
 20
93.4337456363638
 30
0.0
 10
60.42318520624837
 20
93.6628444861329
 30
0.0
 10
60.25506454656818
 20
93.87058374389348
 30
0.0
 10
60.06351723758829
 20
94.0481784161581
 30
0.0
 10
59.77654078366698
 20
94.31517331626496
 30
0.0
 10
59.4375433879184
 20
94.50895993731027
 30
0.0
 10
59.09096678210226
 20
94.62574867426024
 30
0.0
 10
58.74370115718908
 20
94.74374319463004
 30
0.0
 10
58.39126788904802
 20
94.78921845503534
 30
0.0
 10
58.05054794555681
 20
94.7893907098096
 30
0.0
 10
57.45247936931744
 20
94.78766816206698
 30
0.0
 10
56.88231606650859
 20
94.65434296678781
 30
0.0
 10
56.33420137480534
 20
94.46451820555055
 30
0.0
 10
55.51392413976735
 20
94.17668047775791
 30
0.0
 10
54.73843314603761
 20
93.75190020442662
 30
0.0
 10
54.06319443092865
 20
93.31454533257414
 30
0.0
 10
53.72626409247121
 20
93.09560951448651
 30
0.0
 10
53.41551647970168
 20
92.87305634613938
 30
0.0
 10
53.14094236952727
 20
92.66014944515094
 30
0.0
 10
52.86567924025581
 20
92.44672577983971
 30
0.0
 10
52.62762314222504
 20
92.24415416530702
 30
0.0
 10
52.42918564227465
 20
92.0563964613609
 30
0.0
 10
52.16219074216779
 20
91.80318194319504
 30
0.0
 10
51.73120929696303
 20
91.39993351664656
 30
0.0
 10
51.23993868076641
 20
90.90986868386976
 30
0.0
 10
50.50096569918032
 20
90.17261825002629
 30
0.0
 10
49.62212184089308
 20
89.24020315694342
 30
0.0
 10
48.89692924124799
 20
88.25266653609656
 30
0.0
 10
48.53484970574824
 20
87.75708955054337
 30
0.0
 10
48.20928818239212
 20
87.24773218304918
 30
0.0
 10
47.95986326926003
 20
86.7185655165148
 30
0.0
 10
47.83549532224252
 20
86.45363767369909
 30
0.0
 10
47.73007540039387
 20
86.18285316855845
 30
0.0
 10
47.6532497710728
 20
85.90104435786502
 30
0.0
 10
47.5760796322032
 20
85.61975231149437
 30
0.0
 10
47.52750378586119
 20
85.32623017615109
 30
0.0
 10
47.52715927631266
 20
85.01806638499549
 30
0.0
 10
47.52681476676413
 20
84.90627303649913
 30
0.0
 10
47.53680554367136
 20
84.79189586638884
 30
0.0
 10
47.55127494470941
 20
84.67700193195576
 30
0.0
 10
47.52888182405528
 20
84.67700193195576
 30
0.0
 10
47.50614419385263
 20
84.67837997014985
 30
0.0
 10
47.48340656364999
 20
84.67837997014985
 30
0.0
 10
46.51085610816396
 20
84.67820771537559
 30
0.0
 10
45.53589408583825
 20
84.57106524578433
 30
0.0
 10
44.61846515811622
 20
84.37435029357655
 30
0.0
 10
43.70103623039419
 20
84.17677406749748
 30
0.0
 10
42.84148490682436
 20
83.8915201613188
 30
0.0
 10
42.09252114833104
 20
83.51273191271557
 30
0.0
 10
41.68289929513483
 20
83.30447589063222
 30
0.0
 10
41.29188095755897
 20
83.06452499008456
 30
0.0
 10
40.92015515470052
 20
82.79770234475197
 30
0.0
 10
42.93346895628052
 20
84.91867538024603
 30
0.0
 10
44.3990125757058
 20
88.48176538586567
 30
0.0
 10
44.95091687244282
 20
91.30433211693087
 30
0.0
 10
45.5159125320238
 20
94.19028860492466
 30
0.0
 10
46.62626680691982
 20
99.91121416773053
 30
0.0
 10
42.38225367864055
 20
99.46851939787594
 30
0.0
 10
39.25135090164549
 20
99.14226885542277
 30
0.0
 10
32.81608478997306
 20
93.52021753304356
 30
0.0
 10
33.20830891096876
 20
90.0871798819921
 30
0.0
 10
32.3043158556392
 20
92.76177976196581
 30
0.0
 10
28.60772839996612
 20
103.1377183444413
 30
0.0
 10
24.64828015876849
 20
101.406385608329
 30
0.0
 10
21.41729735792693
 20
99.99337969505375
 30
0.0
 10
22.47494167189863
 20
90.8862697797958
 30
0.0
 10
22.90643988142617
 20
88.12760956998198
 30
0.0
 10
21.86137016597563
 20
88.42991669881266
 30
0.0
 10
20.62905951090177
 20
88.91722545520125
 30
0.0
 10
19.52611219129903
 20
89.32874211091435
 30
0.0
 10
17.57291530593663
 20
90.05703529649617
 30
0.0
 10
9.63765461998642
 20
94.31413978761938
 30
0.0
 10
8.62910291667953
 20
91.09073619684537
 30
0.0
 10
8.074270288780044
 20
89.3087605570999
 30
0.0
 10
12.31914469093063
 20
85.47609182975945
 30
0.0
 10
13.55386691284417
 20
84.37211098151114
 30
0.0
 10
16.08308376334034
 20
82.1100612858961
 30
0.0
 10
18.84174397315415
 20
80.19148761016046
 30
0.0
 10
22.09615342329541
 20
79.13522133438286
 30
0.0
 10
22.28063828653054
 20
79.07510441816525
 30
0.0
 10
22.46460638544288
 20
79.01808808788437
 30
0.0
 10
22.64840222958096
 20
78.96227754102333
 30
0.0
 10
22.29700249008547
 20
78.95797117166676
 30
0.0
 10
21.9464640244613
 20
78.94884166863085
 30
0.0
 10
21.59782036135402
 20
78.93058266255902
 30
0.0
 10
19.36970485626869
 20
78.81155461354365
 30
0.0
 10
16.87735052746469
 20
78.41209579202892
 30
0.0
 10
14.58860134183896
 20
77.45642630442062
 30
0.0
 10
13.44500189551028
 20
76.97790254151941
 30
0.0
 10
12.35152858849198
 20
76.35744084462593
 30
0.0
 10
11.38173420939415
 20
75.55335555836861
 30
0.0
 10
10.95454236922317
 20
75.19919974248492
 30
0.0
 10
10.55353325474009
 20
74.80645885716645
 30
0.0
 10
10.18301323530147
 20
74.37840574312415
 30
0.0
 10
9.999561900711916
 20
74.39993758990697
 30
0.0
 10
9.810081649023175
 20
74.41061738591124
 30
0.0
 10
9.610955129975734
 20
74.41096189545976
 30
0.0
 10
9.610955129975734
 20
74.41096189545976
 30
0.0
 10
9.609404837007371
 20
74.41096189545976
 30
0.0
 10
9.609404837007371
 20
74.41096189545976
 30
0.0
 10
9.605615231973596
 20
74.41061738591124
 30
0.0
 10
9.584255639965047
 20
74.41130640500829
 30
0.0
 10
9.535507538848762
 20
74.4080335642973
 30
0.0
 10
8.951391599324653
 20
74.4002820994555
 30
0.0
 10
8.352117239665443
 20
74.31191540025883
 30
0.0
 10
7.746641708132785
 20
74.16567109690997
 30
0.0
 10
6.801307506980229
 20
73.9358832280438
 30
0.0
 10
5.842365178660937
 20
73.56829153976766
 30
0.0
 10
4.957147893725991
 20
73.11646726687714
 30
0.0
 10
4.071758354016783
 20
72.662920446244
 30
0.0
 10
3.262849934080121
 20
72.1306531937729
 30
0.0
 10
2.618444823564139
 20
71.52638344566007
 30
0.0
 10
2.349382866166127
 20
71.27282441794569
 30
0.0
 10
2.065162488633015
 20
70.96603866498418
 30
0.0
 10
1.780425346777116
 20
70.61515568981149
 30
0.0
 10
1.354439290025974
 20
70.08874509966532
 30
0.0
 10
0.9291422523718812
 20
69.46742212890051
 30
0.0
 10
0.5934176973342845
 20
68.7868435157894
 30
0.0
 10
0.4259860567511424
 20
68.44612357229819
 30
0.0
 10
0.2809475368221243
 20
68.09007295389762
 30
0.0
 10
0.1744940863279043
 20
67.71800264149064
 30
0.0
 10
0.0687296549307343
 20
67.34610458385792
 30
0.0
 10
0.0005167643227875
 20
66.95715330357322
 30
0.0
 10
0.0
 20
66.55132105541078
 30
0.0
 10
0.0
 20
66.29001056285459
 30
0.0
 10
0.0292833116246236
 20
66.02163762455362
 30
0.0
 10
0.0983574761038829
 20
65.75378145057545
 30
0.0
 10
0.200676812015803
 20
65.3526000813181
 30
0.0
 10
0.3996310762889811
 20
64.95383027890044
 30
0.0
 10
0.6921196829866924
 20
64.61569415702316
 30
0.0
 10
0.9839192705873535
 20
64.2761799969518
 30
0.0
 10
1.359951442802373
 20
64.00091686768033
 30
0.0
 10
1.791966416652703
 20
63.79455564811386
 30
0.0
 10
2.136820474726212
 20
63.62953557437039
 30
0.0
 10
2.493215602675307
 20
63.57338051796082
 30
0.0
 10
2.822394476290929
 20
63.57338051796082
 30
0.0
 10
3.144338649387527
 20
63.57389728228361
 30
0.0
 10
3.448540580735087
 20
63.62505695023957
 30
0.0
 10
3.744818792466573
 20
63.70205483433491
 30
0.0
 10
4.262272134351099
 20
63.83830836077654
 30
0.0
 10
4.761121960615275
 20
64.05603839544433
 30
0.0
 10
5.25222032203764
 20
64.31097546135281
 30
0.0
 10
5.98637016994438
 20
64.6940700793126
 30
0.0
 10
6.699504935391096
 20
65.16656492511461
 30
0.0
 10
7.320138887058855
 20
65.6139105738743
 30
0.0
 10
7.940083819629563
 20
66.06108396785973
 30
0.0
 10
8.464944116807375
 20
66.48310816480284
 30
0.0
 10
8.800840926619234
 20
66.76216089910807
 30
0.0
 10
8.800840926619234
 20
66.76216089910807
 30
0.0
 10
8.801013181393497
 20
66.76216089910807
 30
0.0
 10
8.801013181393497
 20
66.76216089910807
 30
0.0
 10
8.935199650543979
 20
66.87378199283017
 30
0.0
 10
9.079376896601683
 20
67.00469562126966
 30
0.0
 10
9.237851288923176
 20
67.1569688417177
 30
0.0
 10
9.788894311788887
 20
67.68820256554324
 30
0.0
 10
10.50823024910905
 20
68.47626815779412
 30
0.0
 10
11.1266248887114
 20
69.3452934939484
 30
0.0
 10
11.43530544418979
 20
69.78092581805825
 30
0.0
 10
11.71849229307732
 20
70.23481714823991
 30
0.0
 10
11.93915065890757
 20
70.70662297494488
 30
0.0
 10
11.94070095187594
 20
70.70989581565587
 30
0.0
 10
11.94190673529577
 20
70.71334091114112
 30
0.0
 10
11.94328477348987
 20
70.7166137518521
 30
0.0
 10
12.10589328039367
 20
70.47907441814412
 30
0.0
 10
12.28624402904649
 20
70.25290389953747
 30
0.0
 10
12.47934163099475
 20
70.03534611964395
 30
0.0
 10
13.13132595157828
 20
69.30636391496508
 30
0.0
 10
13.93334418054444
 20
68.6647148808373
 30
0.0
 10
14.73243407834814
 20
68.10884872429223
 30
0.0
 10
15.53169623092611
 20
67.55453286071554
 30
0.0
 10
16.32699652369603
 20
67.09254555614353
 30
0.0
 10
16.96416693369299
 20
66.75992158704265
 30
0.0
 10
17.73414577464633
 20
66.35942923688236
 30
0.0
 10
18.64244519933245
 20
66.047475840693
 30
0.0
 10
19.6029378206201
 20
65.82406139847454
 30
0.0
 10
20.56325818713349
 20
65.60219724922446
 30
0.0
 10
21.57180989044038
 20
65.47197263988201
 30
0.0
 10
22.5352308428905
 20
65.47128362078496
 30
0.0
 10
23.08110622252834
 20
65.47162813033349
 30
0.0
 10
23.61268445590239
 20
65.51314153093074
 30
0.0
 10
24.1196302565569
 20
65.61287704522873
 30
0.0
 10
24.41935356377363
 20
65.67230494234929
 30
0.0
 10
24.69341090962526
 20
65.7503363550902
 30
0.0
 10
24.94920924940506
 20
65.85713431513294
 30
0.0
 10
25.14058430361069
 20
65.937232785165
 30
0.0
 10
25.32231309045762
 20
66.03386771352626
 30
0.0
 10
25.49146727878339
 20
66.15410154596148
 30
0.0
 10
25.74450954217498
 20
66.3330742564202
 30
0.0
 10
25.97188584420147
 20
66.57302515696786
 30
0.0
 10
26.12450357419804
 20
66.861207394309
 30
0.0
 10
26.27867159716297
 20
67.14801159345606
 30
0.0
 10
26.34826252596502
 20
67.4706447856497
 30
0.0
 10
26.34671223299665
 20
67.76296113757316
 30
0.0
 10
26.34619546867387
 20
68.06251219001562
 30
0.0
 10
26.28263345697101
 20
68.33209091173643
 30
0.0
 10
26.19409450300009
 20
68.57393661480096
 30
0.0
 10
26.03613687500138
 20
68.9971665951639
 30
0.0
 10
25.80221489155292
 20
69.35063339195054
 30
0.0
 10
25.53883734170557
 20
69.68187932285731
 30
0.0
 10
25.14230685135331
 20
70.17521699634509
 30
0.0
 10
24.66757269348589
 20
70.61429441594018
 30
0.0
 10
24.19507784768387
 20
70.99394393841472
 30
0.0
 10
23.95891655217
 20
71.1832519353292
 30
0.0
 10
23.7232720209789
 20
71.35619572868873
 30
0.0
 10
23.49727375714652
 20
71.50933022300809
 30
0.0
 10
23.27075872899134
 20
71.66246471732744
 30
0.0
 10
23.05526800638896
 20
71.79510089350956
 30
0.0
 10
22.85097384411365
 20
71.90603296813461
 30
0.0
 10
21.71994899630613
 20
72.51857094541202
 30
0.0
 10
20.24372558087657
 20
73.2654676466142
 30
0.0
 10
18.6486463712059
 20
73.86835935653292
 30
0.0
 10
17.85059000204777
 20
74.16980521149227
 30
0.0
 10
17.02204453784518
 20
74.43542207340504
 30
0.0
 10
16.18557535402652
 20
74.6280029110305
 30
0.0
 10
15.59215765669224
 20
74.76425643747213
 30
0.0
 10
14.99477809954992
 20
74.86330293267307
 30
0.0
 10
14.39929334492448
 20
74.91032848604672
 30
0.0
 10
15.19321559950031
 20
75.33648679757214
 30
0.0
 10
16.05793456629802
 20
75.68047958177432
 30
0.0
 10
16.96141085730479
 20
75.94540742459004
 30
0.0
 10
18.51979980005755
 20
76.40394963367679
 30
0.0
 10
20.17947455007666
 20
76.63546005028559
 30
0.0
 10
21.71443684352973
 20
76.7157307750919
 30
0.0
 10
22.12457546104872
 20
76.73743487664898
 30
0.0
 10
22.53764240973018
 20
76.74828692742751
 30
0.0
 10
22.9517428870572
 20
76.74811467265326
 30
0.0
 10
25.70506319886887
 20
76.7488036917503
 30
0.0
 10
28.51712238870405
 20
76.2639065022014
 30
0.0
 10
31.04633923920022
 20
75.23950735966235
 30
0.0
 10
33.57762314698754
 20
74.21441919802626
 30
0.0
 10
35.8212415817565
 20
72.65913084121021
 30
0.0
 10
37.5015869046871
 20
70.51283635389957
 30
0.0
 10
37.5801350817508
 20
70.41241182050454
 30
0.0
 10
37.65420463468367
 20
70.30561386046179
 30
0.0
 10
37.72999673535917
 20
70.20122746725872
 30
0.0
 10
37.85126409643996
 20
70.00520153414801
 30
0.0
 10
37.98252223442798
 20
69.81313746084533
 30
0.0
 10
38.12377114932323
 20
69.62572426644773
 30
0.0
 10
38.95024955623466
 20
68.33708630019004
 30
0.0
 10
39.59103731649113
 20
66.81797144596912
 30
0.0
 10
40.03752169137951
 20
65.18051756182987
 30
0.0
 10
40.59183755495621
 20
63.15256210443756
 30
0.0
 10
40.85332030228667
 20
60.95407442052537
 30
0.0
 10
40.85263128318962
 20
58.83758000916214
 30
0.0
 10
40.85263128318962
 20
57.69277477941361
 30
0.0
 10
40.77546114432003
 20
56.57277423715889
 30
0.0
 10
40.63111164348805
 20
55.51702472570408
 30
0.0
 10
40.35550400466807
 20
56.06048853850224
 30
0.0
 10
39.99135741187716
 20
56.57415227535299
 30
0.0
 10
39.54211696060058
 20
57.04923094276894
 30
0.0
 10
38.81899141824664
 20
57.81438665004293
 30
0.0
 10
37.93463540718301
 20
58.46309812991548
 30
0.0
 10
36.99756943519505
 20
58.99260930599838
 30
0.0
 10
36.05964218933578
 20
59.52074244388718
 30
0.0
 10
35.06969400164925
 20
59.92778047546945
 30
0.0
 10
34.11729735475193
 20
60.17978921021547
 30
0.0
 10
33.446020499451
 20
60.356005844286
 30
0.0
 10
32.70670300831638
 20
60.46521537116842
 30
0.0
 10
31.96738551718177
 20
60.46607664503973
 30
0.0
 10
31.57843423689706
 20
60.46590439026547
 30
0.0
 10
31.18931070183809
 20
60.43541529522101
 30
0.0
 10
30.80638833865257
 20
60.35945093977125
 30
0.0
 10
30.519239629957
 20
60.30209009994184
 30
0.0
 10
30.23519150719815
 20
60.21923555352159
 30
0.0
 10
29.95872259450685
 20
60.09693466379521
 30
0.0
 10
29.75150010106907
 20
60.00495061433904
 30
0.0
 10
29.54841172221359
 20
59.89040118945449
 30
0.0
 10
29.35703666800796
 20
59.74553492429973
 30
0.0
 10
29.0707492331837
 20
59.52935518260031
 30
0.0
 10
28.81064452404734
 20
59.23807235932243
 30
0.0
 10
28.63425563520255
 20
58.88495007208432
 30
0.0
 10
28.45631645338939
 20
58.53251680394326
 30
0.0
 10
28.36846651851552
 20
58.12926837739477
 30
0.0
 10
28.36967230193536
 20
57.72395289355512
 30
0.0
 10
28.36967230193536
 20
57.44042153511906
 30
0.0
 10
28.40980766433852
 20
57.15430635506907
 30
0.0
 10
28.48318819817434
 20
56.86543509863087
 30
0.0
 10
28.55674098678443
 20
56.57639158741841
 30
0.0
 10
28.66336669205291
 20
56.28355847117217
 30
0.0
 10
28.80151502101143
 20
55.98211261621281
 30
0.0
 10
29.07746716937994
 20
55.37973767061688
 30
0.0
 10
29.44764267927004
 20
54.85022649453397
 30
0.0
 10
29.86191541137133
 20
54.37842066782901
 30
0.0
 10
30.48427191078171
 20
53.67045354561017
 30
0.0
 10
31.20550265061877
 20
53.08582084176327
 30
0.0
 10
31.91812065174269
 20
52.55906574206857
 30
0.0
 10
32.63091090764088
 20
52.03386093534223
 30
0.0
 10
33.33801675598841
 20
51.56636147799383
 30
0.0
 10
33.93264023674254
 20
51.12780082272153
 30
0.0
 10
34.25975205306701
 20
50.88716090307683
 30
0.0
 10
34.63836804689596
 20
50.61930472909865
 30
0.0
 10
35.03627657544232
 20
50.33215602040308
 30
0.0
 10
35.63210583961628
 20
49.9022081038439
 30
0.0
 10
36.27030977825881
 20
49.42816296507352
 30
0.0
 10
36.80826143828057
 20
48.96755369869561
 30
0.0
 10
37.07697888613006
 20
48.73776582982945
 30
0.0
 10
37.32037488216297
 20
48.51176756599706
 30
0.0
 10
37.51708983437073
 20
48.3040283082365
 30
0.0
 10
37.6407687622912
 20
48.17380369889405
 30
0.0
 10
37.74343260775164
 20
48.05219182826473
 30
0.0
 10
37.82542588030059
 20
47.94367132047936
 30
0.0
 10
36.9105807741925
 20
46.49983180261115
 30
0.0
 10
35.82520344156453
 20
45.14246418142272
 30
0.0
 10
34.62320962676087
 20
43.85193141264813
 30
0.0
 10
32.92667235504958
 20
42.02878688185392
 30
0.0
 10
31.00723740544264
 20
40.33793401769329
 30
0.0
 10
29.05920816330812
 20
38.71150443910685
 30
0.0
 10
26.07937282334127
 20
36.22380098920794
 30
0.0
 10
23.1758463483727
 20
33.72231715736803
 30
0.0
 10
20.46093885122157
 20
31.00930446273379
 30
0.0
 10
19.84581705233021
 20
30.39469942816521
 30
0.0
 10
19.24189181376592
 20
29.76734754030122
 30
0.0
 10
18.64761284256032
 20
29.1286268373359
 30
0.0
 10
18.79385714590918
 20
29.68638779639785
 30
0.0
 10
18.91322970447308
 20
30.24587130320242
 30
0.0
 10
19.00762532076893
 20
30.80914441504077
 30
0.0
 10
19.27427571132727
 20
32.40043401967767
 30
0.0
 10
19.35437418135933
 20
34.01790635000247
 30
0.0
 10
19.35850829594163
 20
35.73631997804509
 30
0.0
 10
19.35850829594163
 20
35.73631997804509
 30
0.0
 10
19.35850829594163
 20
35.80177679226483
 30
0.0
 10
19.35850829594163
 20
35.80177679226483
 30
0.0
 10
19.35833604116736
 20
36.38882106295141
 30
0.0
 10
19.3416273280639
 20
37.25629610613731
 30
0.0
 10
19.26790228467955
 20
38.23780380988499
 30
0.0
 10
19.21260850214129
 20
38.97436522463141
 30
0.0
 10
19.12561984113874
 20
39.77431639630642
 30
0.0
 10
18.98695474785743
 20
40.57220051069029
 30
0.0
 10
18.88274060942862
 20
41.17130261557523
 30
0.0
 10
18.74975992369798
 20
41.76868217271755
 30
0.0
 10
18.57526583737007
 20
42.34091253281755
 30
0.0
 10
18.44417995415632
 20
42.77017143027968
 30
0.0
 10
18.2894951668686
 20
43.18530543625229
 30
0.0
 10
18.10104844382543
 20
43.57770181202224
 30
0.0
 10
17.81751708538937
 20
44.16405706361176
 30
0.0
 10
17.45991617402044
 20
44.70941567892682
 30
0.0
 10
16.95107557084904
 20
45.14246418142272
 30
0.0
 10
16.69717203358612
 20
45.35778264925084
 30
0.0
 10
16.40330538869431
 20
45.54140623861465
 30
0.0
 10
16.07481553417574
 20
45.66853026202037
 30
0.0
 10
15.74701469875422
 20
45.79634330452314
 30
0.0
 10
15.38631320144856
 20
45.86386717603403
 30
0.0
 10
15.01992729659224
 20
45.86352266648551
 30
0.0
 10
14.81632215341398
 20
45.86352266648551
 30
0.0
 10
14.61099446249309
 20
45.84319660312254
 30
0.0
 10
14.40652804544351
 20
45.80426702413921
 30
0.0
 10
13.68684759857482
 20
45.66887477156889
 30
0.0
 10
13.0371025900567
 20
45.39809026642826
 30
0.0
 10
12.49157171996739
 20
45.0084499670465
 30
0.0
 10
12.08229437631971
 20
44.71665037944584
 30
0.0
 10
11.73416747753521
 20
44.36111652536805
 30
0.0
 10
11.45115288342194
 20
43.96527505411285
 30
0.0
 10
11.02551133621932
 20
43.37099608290725
 30
0.0
 10
10.74421928984867
 20
42.69265678186156
 30
0.0
 10
10.56765814622961
 20
41.97573241138107
 30
0.0
 10
10.39126925738482
 20
41.25743000270648
 30
0.0
 10
10.31737195922621
 20
40.49709742911184
 30
0.0
 10
10.31702744967769
 20
39.70954860118373
 30
0.0
 10
10.31771646877474
 20
38.37526311974646
 30
0.0
 10
10.52993435066613
 20
36.96105142305141
 30
0.0
 10
10.87444389919111
 20
35.55097384093865
 30
0.0
 10
11.39275851494695
 20
33.43671874164082
 30
0.0
 10
12.21079643791952
 20
31.33452147654137
 30
0.0
 10
13.12598605357614
 20
29.58062336500068
 30
0.0
 10
13.58435600788863
 20
28.70350205445607
 30
0.0
 10
14.06684163059787
 20
27.91354165968828
 30
0.0
 10
14.56138508750549
 20
27.24726019284097
 30
0.0
 10
14.80891519812069
 20
26.91377494986878
 30
0.0
 10
15.05971814944688
 20
26.61129556626384
 30
0.0
 10
15.31741129174356
 20
26.34223360886583
 30
0.0
 10
15.46434461418947
 20
26.18892685977221
 30
0.0
 10
15.61386175824931
 20
26.0480224544255
 30
0.0
 10
15.76751301689146
 20
25.917108825986
 30
0.0
 10
15.70308973131728
 20
25.85337455950888
 30
0.0
 10
15.63711615277475
 20
25.78998480258028
 30
0.0
 10
15.57424316016894
 20
25.72556151700611
 30
0.0
 10
15.06333549970639
 20
25.20087347460256
 30
0.0
 10
14.60117594036012
 20
24.65585936883604
 30
0.0
 10
14.23375650685823
 20
24.07708332731406
 30
0.0
 10
14.05047742704294
 20
23.78700628745603
 30
0.0
 10
13.89062499652734
 20
23.48762748978782
 30
0.0
 10
13.76539577563851
 20
23.17274576243598
 30
0.0
 10
13.75833332989375
 20
23.15517577546121
 30
0.0
 10
13.75247666756883
 20
23.13691676938938
 30
0.0
 10
13.74575873137259
 20
23.11865776331756
 30
0.0
 10
13.49598930869197
 20
22.76381292833683
 30
0.0
 10
13.24811468852825
 20
22.40586750741937
 30
0.0
 10
13.00575222114092
 20
22.04137640507993
 30
0.0
 10
12.05456135766344
 20
20.61062825005568
 30
0.0
 10
11.11129421380204
 20
19.22604437453377
 30
0.0
 10
10.2503648520381
 20
17.78564995215081
 30
0.0
 10
10.20523410118133
 20
17.73604057716321
 30
0.0
 10
10.16113687897013
 20
17.68436414488447
 30
0.0
 10
10.1185899497273
 20
17.63130967441162
 30
0.0
 10
10.1185899497273
 20
17.63130967441162
 30
0.0
 10
10.14632296838356
 20
17.60926106330602
 30
0.0
 10
10.14632296838356
 20
17.60926106330602
 30
0.0
 10
10.073114689322
 20
17.48454860673997
 30
0.0
 10
9.999045136389128
 20
17.3608696788195
 30
0.0
 10
9.926870385973144
 20
17.23581271270494
 30
0.0
 10
8.982569713466164
 20
15.59560275217749
 30
0.0
 10
8.156780325651777
 20
13.8651312899365
 30
0.0
 10
7.580071341420955
 20
11.91624077393066
 30
0.0
 10
7.473790145700997
 20
11.5569173148191
 30
0.0
 10
7.318071829767705
 20
10.96849500593843
 30
0.0
 10
7.137721081114876
 20
10.21711968060544
 30
0.0
 10
6.868142359394076
 20
9.09229600467137
 30
0.0
 10
6.548092988814366
 20
7.616417098790341
 30
0.0
 10
6.293500432454403
 20
6.099886066183362
 30
0.0
 10
6.166031899500159
 20
5.341276040331348
 30
0.0
 10
6.054927570100852
 20
4.572675237572109
 30
0.0
 10
5.974829100068793
 20
3.830257160500769
 30
0.0
 10
5.895247394359521
 20
3.087150064332379
 30
0.0
 10
5.846154783694711
 20
2.371259222497463
 30
0.0
 10
5.845982528920449
 20
1.709456379780969
 30
0.0
 10
5.846154783694711
 20
1.343242729698912
 30
0.0
 10
5.860968694281286
 20
0.9935655379460531
 30
0.0
 10
5.896797687327884
 20
0.6600802949738689
 30
0.0
 10
5.922119139144471
 20
0.4327039929473796
 30
0.0
 10
5.955708820125657
 20
0.2135959200854899
 30
0.0
 10
6.003767902144892
 20
0.0
 30
0.0
 10
6.722931584690795
 20
0.3510552299469584
 30
0.0
 10
7.41797959883995
 20
0.7496527775903646
 30
0.0
 10
8.07823214858808
 20
1.195103623833168
 30
0.0
 10
8.068930390777906
 20
1.354611544800236
 30
0.0
 10
8.063762747550031
 20
1.525832790417153
 30
0.0
 10
8.063762747550031
 20
1.709456379780969
 30
0.0
 10
8.063418238001507
 20
2.444639756333284
 30
0.0
 10
8.139554848225528
 20
3.346565754371692
 30
0.0
 10
8.263750540468784
 20
4.291899955524247
 30
0.0
 10
8.449613441898014
 20
5.711279295447181
 30
0.0
 10
8.741413029498675
 20
7.231944442636459
 30
0.0
 10
9.022016056772275
 20
8.512141924955298
 30
0.0
 10
9.162403697796204
 20
9.152240666114718
 30
0.0
 10
9.299863007657674
 20
9.732739255379316
 30
0.0
 10
9.419407820995843
 20
10.21057399918347
 30
0.0
 10
9.53878037955975
 20
10.6880642334391
 30
0.0
 10
9.641271970245933
 20
11.06633571771953
 30
0.0
 10
9.70672878446568
 20
11.28682182877552
 30
0.0
 10
9.991810435870104
 20
12.24938150735432
 30
0.0
 10
10.3482055638192
 20
13.15750867726618
 30
0.0
 10
10.75851643611245
 20
14.03876410239309
 30
0.0
 10
10.85635714789355
 20
13.95332573435889
 30
0.0
 10
10.95695393606285
 20
13.87271050000404
 30
0.0
 10
11.06116807449165
 20
13.7989854566197
 30
0.0
 10
11.5679416203719
 20
13.44517415028454
 30
0.0
 10
12.141550018666
 20
13.19953884218623
 30
0.0
 10
12.74995388136112
 20
12.99627820855649
 30
0.0
 10
13.66100938243544
 20
12.69517686314565
 30
0.0
 10
14.65440266560723
 20
12.50225151597166
 30
0.0
 10
15.56097954255073
 20
12.37719454985709
 30
0.0
 10
16.01400959886108
 20
12.31483832157407
 30
0.0
 10
16.44430202496878
 20
12.27074109936287
 30
0.0
 10
16.8299804645425
 20
12.24145778773825
 30
0.0
 10
17.21617566843901
 20
12.21217447611362
 30
0.0
 10
17.55568982851038
 20
12.19839409417262
 30
0.0
 10
17.83801540352661
 20
12.19839409417262
 30
0.0
 10
17.92155896904392
 20
12.19839409417262
 30
0.0
 10
18.00045165565614
 20
12.19977213236672
 30
0.0
 10
18.07589924678311
 20
12.2021836992064
 30
0.0
 10
19.79500189392278
 20
12.265573456135
 30
0.0
 10
21.72201605359728
 20
12.2118299665651
 30
0.0
 10
23.67538519373393
 20
12.27728678078484
 30
0.0
 10
25.62944335296764
 20
12.34481065229574
 30
0.0
 10
27.61536864543991
 20
12.52774522256251
 30
0.0
 10
29.47692599089466
 20
13.11341145505498
 30
0.0
 10
29.98301051767786
 20
13.27326388557057
 30
0.0
 10
30.42880587346919
 20
13.45447590809471
 30
0.0
 10
30.82223577788472
 20
13.66187065630676
 30
0.0
 10
31.41048583199113
 20
13.97296277862482
 30
0.0
 10
31.88935410444086
 20
14.34399956238622
 30
0.0
 10
32.23920355096798
 20
14.80770941470085
 30
0.0
 10
32.41318087297309
 20
15.03887532176111
 30
0.0
 10
32.5518459662544
 20
15.29312336857255
 30
0.0
 10
32.64486354435615
 20
15.56184081642204
 30
0.0
 10
32.73822563200642
 20
15.83055826427153
 30
0.0
 10
32.7842176567345
 20
16.11202256541644
 30
0.0
 10
32.78387314718598
 20
16.38694118513938
 30
0.0
 10
32.78404540196024
 20
16.69562174061776
 30
0.0
 10
32.72720132645362
 20
16.9939670096404
 30
0.0
 10
32.63159992673793
 20
17.26991915800891
 30
0.0
 10
32.46279024796069
 20
17.75326605458946
 30
0.0
 10
32.18339300410693
 20
18.16908907965912
 30
0.0
 10
31.84732393952081
 20
18.53495822019265
 30
0.0
 10
31.34089490318908
 20
19.08203938325033
 30
0.0
 10
30.69838459518999
 20
19.52749022949313
 30
0.0
 10
29.97422552419047
 20
19.88095702627976
 30
0.0
 10
29.24937743409391
 20
20.23270127532377
 30
0.0
 10
28.44081352370577
 20
20.48936088897488
 30
0.0
 10
27.59452581775415
 20
20.6137288359924
 30
0.0
 10
26.17893608286499
 20
20.82146809375297
 30
0.0
 10
24.69220512620542
 20
20.92688801560161
 30
0.0
 10
23.19531113786437
 20
20.92688801560161
 30
0.0
 10
21.15340304375679
 20
20.92654350605309
 30
0.0
 10
19.09340819835165
 20
20.73120659203942
 30
0.0
 10
17.17018364371093
 20
20.32227375794027
 30
0.0
 10
16.76779649103375
 20
20.23649088035754
 30
0.0
 10
16.2196817993305
 20
20.1338270348971
 30
0.0
 10
15.61282822960374
 20
20.00808104968548
 30
0.0
 10
15.12930907824892
 20
19.90782877106471
 30
0.0
 10
14.60806613133062
 20
19.79207356276032
 30
0.0
 10
14.07993299344182
 20
19.65461425289885
 30
0.0
 10
14.33383653070474
 20
20.03564181356748
 30
0.0
 10
14.59170192777569
 20
20.42114799836694
 30
0.0
 10
14.85266791078336
 20
20.81319986458837
 30
0.0
 10
15.11208360082267
 20
21.20318467351865
 30
0.0
 10
15.37632242454134
 20
21.58765732967253
 30
0.0
 10
15.64503987239082
 20
21.96696234259854
 30
0.0
 10
15.64503987239082
 20
21.96696234259854
 30
0.0
 10
15.72169324693763
 20
21.95938313253099
 30
0.0
 10
15.72169324693763
 20
21.95938313253099
 30
0.0
 10
15.7259996162942
 20
22.00348035474219
 30
0.0
 10
15.73616264797568
 20
22.05584580611798
 30
0.0
 10
15.7494262655939
 20
22.11131184343051
 30
0.0
 10
16.41277940127875
 20
23.04148762444796
 30
0.0
 10
17.1050713390397
 20
23.93859048880702
 30
0.0
 10
17.81958414268052
 20
24.81157768476933
 30
0.0
 10
18.36632079618967
 20
25.31146103967908
 30
0.0
 10
18.9673177035915
 20
25.80376518452128
 30
0.0
 10
19.55246717176119
 20
26.25576171218606
 30
0.0
 10
20.01255967381631
 20
26.61164007581237
 30
0.0
 10
20.46300590851272
 20
26.94374728059045
 30
0.0
 10
20.87211099738614
 20
27.24071451141899
 30
0.0
 10
21.28138834103382
 20
27.53802625179605
 30
0.0
 10
21.64829101021293
 20
27.79950899912651
 30
0.0
 10
21.94835882697819
 20
28.01965060063398
 30
0.0
 10
23.54826117032821
 20
29.1933946324586
 30
0.0
 10
25.2144816017693
 20
30.16112195426528
 30
0.0
 10
26.95184325498079
 20
31.03479816932463
 30
0.0
 10
28.68886039864376
 20
31.90847438438399
 30
0.0
 10
30.49684650930287
 20
32.68775498314751
 30
0.0
 10
32.37028943418174
 20
33.48391654978874
 30
0.0
 10
35.66121689646664
 20
34.88365884544575
 30
0.0
 10
39.2251681759576
 20
35.68877766034864
 30
0.0
 10
42.8049668946807
 20
36.36332735636056
 30
0.0
 10
43.67760958109449
 20
36.5280029205555
 30
0.0
 10
44.58435871281225
 20
36.70852592398259
 30
0.0
 10
45.50729979331068
 20
36.88525932237591
 30
0.0
 10
45.21550020571001
 20
36.48872883202365
 30
0.0
 10
44.95952961115595
 20
36.07187227830843
 30
0.0
 10
44.73422036642062
 20
35.64261338084629
 30
0.0
 10
44.25673013216499
 20
34.73276366319181
 30
0.0
 10
43.90636392131508
 20
33.77089300371006
 30
0.0
 10
43.60939669048654
 20
32.83003742668833
 30
0.0
 10
43.31277396920653
 20
31.88952635921512
 30
0.0
 10
43.07023924704495
 20
30.96865233600784
 30
0.0
 10
42.82770452488335
 20
30.1476860818728
 30
0.0
 10
42.70815971154519
 20
29.74150932416185
 30
0.0
 10
42.52625866992399
 20
29.06041394672795
 30
0.0
 10
42.37019584444217
 20
28.26563041828081
 30
0.0
 10
42.21516654760593
 20
27.46946885163958
 30
0.0
 10
42.08390840961791
 20
26.56685383450412
 30
0.0
 10
42.08287488097234
 20
25.68973252395951
 30
0.0
 10
42.08287488097234
 20
25.33075357439648
 30
0.0
 10
42.10526800162646
 20
24.97453070122165
 30
0.0
 10
42.16486815352128
 20
24.62347547127469
 30
0.0
 10
42.20999890437806
 20
24.35992566665308
 30
0.0
 10
42.27580022814633
 20
24.09844291932261
 30
0.0
 10
42.37811956405825
 20
23.84074977702592
 30
0.0
 10
42.4546006838308
 20
23.64747992030341
 30
0.0
 10
42.55244139561189
 20
23.45558810177499
 30
0.0
 10
42.67990992856613
 20
23.2723090219597
 30
0.0
 10
42.87042370890045
 20
22.99807942133381
 30
0.0
 10
43.13776311855584
 20
22.74176431723123
 30
0.0
 10
43.4695258137854
 20
22.56916503342021
 30
0.0
 10
43.79956596127234
 20
22.39449869231804
 30
0.0
 10
44.17852646464981
 20
22.31216091022057
 30
0.0
 10
44.54990775795974
 20
22.31353894841467
 30
0.0
 10
44.74696721971604
 20
22.31353894841467
 30
0.0
 10
44.94299315282675
 20
22.33489854042322
 30
0.0
 10
45.13901908593747
 20
22.37348360985802
 30
0.0
 10
45.13901908593747
 20
22.37348360985802
 30
0.0
 10
45.13970810503452
 20
22.37348360985802
 30
0.0
 10
45.13970810503452
 20
22.37348360985802
 30
0.0
 10
45.77326116477197
 20
22.49716253777849
 30
0.0
 10
46.32103134692669
 20
22.79447427815555
 30
0.0
 10
46.76062553084457
 20
23.15689832320383
 30
0.0
 10
47.09238822607413
 20
23.42906086653857
 30
0.0
 10
47.37075194128231
 20
23.73739691246843
 30
0.0
 10
47.61363117299243
 20
24.05710177349961
 30
0.0
 10
47.97777776578334
 20
24.53734808414344
 30
0.0
 10
48.26544323880169
 20
25.04446613957222
 30
0.0
 10
48.51521266148231
 20
25.52367892157047
 30
0.0
 10
48.76360404596883
 20
26.00220268447167
 30
0.0
 10
48.97478839921464
 20
26.4548882312335
 30
0.0
 10
49.15875649812698
 20
26.81180012350539
 30
0.0
 10
49.51360133310772
 20
27.5001302014583
 30
0.0
 10
49.9104763330085
 20
28.20051811360959
 30
0.0
 10
50.27290037805678
 20
28.96119519675276
 30
0.0
 10
50.47547199258947
 20
29.38735350827816
 30
0.0
 10
50.66564126337526
 20
29.83452690226359
 30
0.0
 10
50.82790526073052
 20
30.30788302193692
 30
0.0
 10
50.85408798641843
 20
30.23967013132897
 30
0.0
 10
50.87889267391223
 20
30.17214625981807
 30
0.0
 10
50.90679794734275
 20
30.1035888596616
 30
0.0
 10
51.13486326846628
 20
29.54892848653638
 30
0.0
 10
51.4149495314171
 20
28.98496635560098
 30
0.0
 10
51.80321179260476
 20
28.46785752326498
 30
0.0
 10
51.9706434331879
 20
28.24633788356342
 30
0.0
 10
52.16873642358976
 20
28.01930609108545
 30
0.0
 10
52.39714625426183
 20
27.77987195486059
 30
0.0
 10
52.79712184009934
 20
27.36232638204831
 30
0.0
 10
53.29045951358711
 20
26.90895181618943
 30
0.0
 10
53.84822047264906
 20
26.45316568349088
 30
0.0
 10
54.68468965646772
 20
25.77103677741141
 30
0.0
 10
55.65999618834195
 20
25.08718532358932
 30
0.0
 10
56.66975367506868
 20
24.55388454247264
 30
0.0
 10
57.17514918275483
 20
24.28792317101135
 30
0.0
 10
57.68984644825115
 20
24.05882432124224
 30
0.0
 10
58.20971135697535
 20
23.89104817111057
 30
0.0
 10
58.7302652847966
 20
23.72430554962448
 30
0.0
 10
59.25770940358835
 20
23.61509602274206
 30
0.0
 10
59.79962292341816
 20
23.61406249409649
 30
0.0
 10
60.18719616550876
 20
23.61406249409649
 30
0.0
 10
60.58579371315216
 20
23.67262911734573
 30
0.0
 10
60.97129989795162
 20
23.82352429959968
 30
0.0
 10
61.25965439006703
 20
23.93583441241882
 30
0.0
 10
61.53801810527522
 20
24.10188801480786
 30
0.0
 10
61.78055282743681
 20
24.3175509921845
 30
0.0
 10
62.14642196797034
 20
24.64104545824946
 30
0.0
 10
62.42202960679033
 20
25.06720376977487
 30
0.0
 10
62.6022081006689
 20
25.54503851357902
 30
0.0
 10
62.78376463274156
 20
26.02425129557727
 30
0.0
 10
62.87919377768299
 20
26.558241095791
 30
0.0
 10
62.90882159885613
 20
27.15768771022447
 30
0.0
 10
62.90882159885613
 20
27.15768771022447
 30
0.0
 10
62.90882159885613
 20
27.15837672932152
 30
0.0
 10
62.90882159885613
 20
27.15837672932152
 30
0.0
 10
62.91157767524433
 20
27.21659884302224
 30
0.0
 10
62.91295571343843
 20
27.27550997582001
 30
0.0
 10
62.91295571343843
 20
27.33476561816631
 30
0.0
 10
62.91295571343843
 20
27.72164984115987
 30
0.0
 10
62.85232203289803
 20
28.09682073950357
 30
0.0
 10
62.75103622563169
 20
28.45442165087251
 30
0.0
 10
62.57258027949575
 20
29.08005099099388
 30
0.0
 10
62.27354599137606
 20
29.65331487973945
 30
0.0
 10
61.91732311820122
 20
30.18730467995318
 30
0.0
 10
61.38126626069635
 20
30.98725585162819
 30
0.0
 10
60.71016166016968
 20
31.70486924120573
 30
0.0
 10
60.03457843551219
 20
32.33291014816677
 30
0.0
 10
59.35830619175765
 20
32.9606065455793
 30
0.0
 10
58.67652179522671
 20
33.49597438398712
 30
0.0
 10
58.11772730751918
 20
33.90421819898923
 30
0.0
 10
57.86382377025627
 20
34.08853080745009
 30
0.0
 10
57.56961261581593
 20
34.26250812945521
 30
0.0
 10
57.2381944301349
 20
34.43441839416918
 30
0.0
 10
60.94580619136077
 20
34.54190537330897
 30
0.0
 10
64.87321504454559
 20
35.61849771244955
 30
0.0
 10
68.1085042147437
 20
36.82359211318994
 30
0.0
 10
69.98745929239897
 20
37.52363551579271
 30
0.0
 10
75.10824922167433
 20
38.89581704756771
 30
0.0
 10
73.48044160489378
 20
41.83069389145205
 30
0.0
 10
72.09241263388662
 20
44.33252223284048
 30
0.0
 10
66.79798989215467
 20
43.9480495766866
 30
0.0
 10
64.42087400733229
 20
43.49467501082772
 30
0.0
  0
SPLINE
  5
3D
330
1F
100
AcDbEntity
  8
Layer 1
370
     0
100
AcDbSpline
210
0.0
220
0.0
230
1.0
 70
    11
 71
     3
 72
    62
 73
    58
 74
     0
 42
0.0000000001
 43
0.0000000001
 40
0.0
 40
0.0
 40
0.0
 40
0.0
 40
1.0
 40
1.0
 40
1.0
 40
2.0
 40
2.0
 40
2.0
 40
3.0
 40
3.0
 40
3.0
 40
4.0
 40
4.0
 40
4.0
 40
5.0
 40
5.0
 40
5.0
 40
6.0
 40
6.0
 40
6.0
 40
7.0
 40
7.0
 40
7.0
 40
8.0
 40
8.0
 40
8.0
 40
9.0
 40
9.0
 40
9.0
 40
10.0
 40
10.0
 40
10.0
 40
11.0
 40
11.0
 40
11.0
 40
12.0
 40
12.0
 40
12.0
 40
13.0
 40
13.0
 40
13.0
 40
14.0
 40
14.0
 40
14.0
 40
15.0
 40
15.0
 40
15.0
 40
16.0
 40
16.0
 40
16.0
 40
17.0
 40
17.0
 40
17.0
 40
18.0
 40
18.0
 40
18.0
 40
19.0
 40
19.0
 40
19.0
 40
19.0
 10
43.3647949110338
 20
64.80086803935534
 30
0.0
 10
43.60181748041899
 20
65.07389185656139
 30
0.0
 10
43.8874158961462
 20
65.37413192810091
 30
0.0
 10
44.19334037523639
 20
65.68505179564471
 30
0.0
 10
45.45596787058045
 20
66.97058917596569
 30
0.0
 10
46.98662379467696
 20
68.2049668883307
 30
0.0
 10
48.51934677606461
 20
69.13135306431438
 30
0.0
 10
48.61512043055455
 20
69.1895751780151
 30
0.0
 10
48.7646375746144
 20
69.27311874353242
 30
0.0
 10
48.94722763533264
 20
69.36803112415105
 30
0.0
 10
49.58973794333173
 20
69.70341116964012
 30
0.0
 10
50.65048284324016
 20
70.1857245375751
 30
0.0
 10
51.74154458341879
 20
70.56985268418046
 30
0.0
 10
52.28759221783088
 20
70.76226126703166
 30
0.0
 10
52.84225259095611
 20
70.93072643626037
 30
0.0
 10
53.35247123232161
 20
71.04785968275887
 30
0.0
 10
53.86200085459006
 20
71.16585420312867
 30
0.0
 10
54.32881129284141
 20
71.22941621483155
 30
0.0
 10
54.67263182226935
 20
71.22838268618597
 30
0.0
 10
54.85039874930823
 20
71.22872719573449
 30
0.0
 10
54.99371472149463
 20
71.2116739730825
 30
0.0
 10
55.08776582824195
 20
71.18962536197691
 30
0.0
 10
55.14116480826332
 20
71.17722301823001
 30
0.0
 10
55.1780273299555
 20
71.16378714583753
 30
0.0
 10
55.20007594106109
 20
71.15414087847883
 30
0.0
 10
55.20248750790077
 20
71.13622638195552
 30
0.0
 10
55.20558809383749
 20
71.10918238239631
 30
0.0
 10
55.20558809383749
 20
71.07008054863873
 30
0.0
 10
55.20593260338602
 20
70.98567570925012
 30
0.0
 10
55.19111869279944
 20
70.84787188984012
 30
0.0
 10
55.14288735600595
 20
70.66131996931384
 30
0.0
 10
55.01645235169727
 20
70.17073837221426
 30
0.0
 10
54.81835936129541
 20
69.70668401035111
 30
0.0
 10
54.55377602802822
 20
69.26278345707667
 30
0.0
 10
54.09178872345622
 20
68.4869479537984
 30
0.0
 10
53.42171765157513
 20
67.77277965970612
 30
0.0
 10
52.60109590698862
 20
67.14284395022818
 30
0.0
 10
51.3722303474
 20
66.19750974907562
 30
0.0
 10
49.80884601619363
 20
65.45061304787346
 30
0.0
 10
48.2103217110377
 20
64.95314125980339
 30
0.0
 10
46.61283093452735
 20
64.45394692399069
 30
0.0
 10
44.9781331267763
 20
64.20348848221302
 30
0.0
 10
43.63764647346559
 20
64.20469426563285
 30
0.0
 10
43.60560708545277
 20
64.20469426563285
 30
0.0
 10
43.57322318789141
 20
64.20486652040712
 30
0.0
 10
43.5411837998786
 20
64.20521102995565
 30
0.0
 10
43.5411837998786
 20
64.20521102995565
 30
0.0
 10
43.52568087019497
 20
64.20521102995565
 30
0.0
 10
43.52568087019497
 20
64.20521102995565
 30
0.0
 10
43.52568087019497
 20
64.20521102995565
 30
0.0
 10
43.54221732852417
 20
64.20521102995565
 30
0.0
 10
43.54221732852417
 20
64.20521102995565
 30
0.0
 10
43.29072535810093
 20
64.20710583247254
 30
0.0
 10
43.08574217672857
 20
64.22174748828485
 30
0.0
 10
42.9248562175674
 20
64.24224580642208
 30
0.0
 10
43.03372123490129
 20
64.40123696306637
 30
0.0
 10
43.18461641715524
 20
64.59381780069182
 30
0.0
 10
43.3647949110338
 20
64.80086803935534
 30
0.0
  0
SPLINE
  5
3E
330
1F
100
AcDbEntity
  8
Layer 1
370
     0
100
AcDbSpline
210
0.0
220
0.0
230
1.0
 70
    11
 71
     3
 72
    77
 73
    73
 74
     0
 42
0.0000000001
 43
0.0000000001
 40
0.0
 40
0.0
 40
0.0
 40
0.0
 40
1.0
 40
1.0
 40
1.0
 40
2.0
 40
2.0
 40
2.0
 40
3.0
 40
3.0
 40
3.0
 40
4.0
 40
4.0
 40
4.0
 40
5.0
 40
5.0
 40
5.0
 40
6.0
 40
6.0
 40
6.0
 40
7.0
 40
7.0
 40
7.0
 40
8.0
 40
8.0
 40
8.0
 40
9.0
 40
9.0
 40
9.0
 40
10.0
 40
10.0
 40
10.0
 40
11.0
 40
11.0
 40
11.0
 40
12.0
 40
12.0
 40
12.0
 40
13.0
 40
13.0
 40
13.0
 40
14.0
 40
14.0
 40
14.0
 40
15.0
 40
15.0
 40
15.0
 40
16.0
 40
16.0
 40
16.0
 40
17.0
 40
17.0
 40
17.0
 40
18.0
 40
18.0
 40
18.0
 40
19.0
 40
19.0
 40
19.0
 40
20.0
 40
20.0
 40
20.0
 40
21.0
 40
21.0
 40
21.0
 40
22.0
 40
22.0
 40
22.0
 40
23.0
 40
23.0
 40
23.0
 40
24.0
 40
24.0
 40
24.0
 40
24.0
 10
54.82524955226591
 20
80.24678139269872
 30
0.0
 10
55.19421927873617
 20
80.37700600204117
 30
0.0
 10
55.72166339752792
 20
80.48311494298686
 30
0.0
 10
56.31594236873352
 20
80.5477104833353
 30
0.0
 10
56.91125486858469
 20
80.61316729755505
 30
0.0
 10
57.57546927814086
 20
80.64107257098557
 30
0.0
 10
58.24140623543965
 20
80.6409003162113
 30
0.0
 10
59.19845376124206
 20
80.64107257098557
 30
0.0
 10
60.15929089207823
 20
80.58388398593043
 30
0.0
 10
60.94270560542405
 20
80.5105034520946
 30
0.0
 10
61.33406845254843
 20
80.4738131851767
 30
0.0
 10
61.68202309655867
 20
80.43298880367648
 30
0.0
 10
61.95935328312127
 20
80.39405922469315
 30
0.0
 10
62.09819063117684
 20
80.37476668997576
 30
0.0
 10
62.21980250180616
 20
80.35581866480688
 30
0.0
 10
62.31833223268431
 20
80.33859318738064
 30
0.0
 10
62.4161729444654
 20
80.32171221950291
 30
0.0
 10
62.493343083335
 20
80.30603703504502
 30
0.0
 10
62.53365070051242
 20
80.29639076768632
 30
0.0
 10
62.53365070051242
 20
80.29639076768632
 30
0.0
 10
62.53365070051242
 20
80.29639076768632
 30
0.0
 10
62.53365070051242
 20
80.29639076768632
 30
0.0
 10
62.80340167700749
 20
80.23317326553199
 30
0.0
 10
63.14791122553247
 20
80.11948511451874
 30
0.0
 10
63.49414332180008
 20
79.96790091316775
 30
0.0
 10
64.01469724962134
 20
79.74310843275519
 30
0.0
 10
64.54248587796161
 20
79.42495386469237
 30
0.0
 10
64.87734915912789
 20
79.11368948760006
 30
0.0
 10
65.04546981880809
 20
78.95952146463512
 30
0.0
 10
65.16329208440362
 20
78.8103488301238
 30
0.0
 10
65.22530380313812
 20
78.69769420775613
 30
0.0
 10
65.28869356006672
 20
78.58245576377453
 30
0.0
 10
65.29937335607099
 20
78.51682669478052
 30
0.0
 10
65.29971786561951
 20
78.46997339618112
 30
0.0
 10
65.29971786561951
 20
78.4470635112042
 30
0.0
 10
65.29696178923132
 20
78.42467039055009
 30
0.0
 10
65.28834905051819
 20
78.39263100253726
 30
0.0
 10
65.27491317812571
 20
78.34543319438934
 30
0.0
 10
65.24597437604962
 20
78.27343069874762
 30
0.0
 10
65.1698377658256
 20
78.16887205077029
 30
0.0
 10
65.0940456651501
 20
78.06517467666427
 30
0.0
 10
64.97071124677817
 20
77.9318494813851
 30
0.0
 10
64.7836425619291
 20
77.78060978958263
 30
0.0
 10
64.38228893789748
 20
77.45642630442062
 30
0.0
 10
63.91926810467991
 20
77.22560490690888
 30
0.0
 10
63.39389104317931
 20
77.07160913871822
 30
0.0
 10
62.86989201987281
 20
76.91813013485033
 30
0.0
 10
62.28560382557443
 20
76.84543862011157
 30
0.0
 10
61.67203231965144
 20
76.84561087488582
 30
0.0
 10
60.84210881725475
 20
76.84509411056304
 30
0.0
 10
59.9615424112249
 20
76.97910832493925
 30
0.0
 10
59.12610675605181
 20
77.19821639780115
 30
0.0
 10
58.2903265913302
 20
77.41663545156598
 30
0.0
 10
57.49933266791684
 20
77.71980385426797
 30
0.0
 10
56.84820962120462
 20
78.04002547962195
 30
0.0
 10
56.34522568035814
 20
78.28548853294599
 30
0.0
 10
55.88151582804351
 20
78.46325545998488
 30
0.0
 10
55.51220159202473
 20
78.65394149509346
 30
0.0
 10
55.32754447401534
 20
78.7483371113893
 30
0.0
 10
55.16665851485417
 20
78.84411076587925
 30
0.0
 10
55.03126626228385
 20
78.94384628017724
 30
0.0
 10
54.89587400971353
 20
79.04392630402374
 30
0.0
 10
54.78494193508849
 20
79.14710691380698
 30
0.0
 10
54.6898572996956
 20
79.264584669854
 30
0.0
 10
54.53034937872852
 20
79.46078285773898
 30
0.0
 10
54.42906357146218
 20
79.62304685509424
 30
0.0
 10
54.36808538137326
 20
79.74465872572357
 30
0.0
 10
54.36670734317916
 20
79.83733179427678
 30
0.0
 10
54.36326224769391
 20
79.92966035328148
 30
0.0
 10
54.35671656627193
 20
80.02061087409207
 30
0.0
 10
54.44181042475761
 20
80.0829671023751
 30
0.0
 10
54.6002848170791
 20
80.1692667442806
 30
0.0
 10
54.82524955226591
 20
80.24678139269872
 30
0.0
  0
SPLINE
  5
3F
330
1F
100
AcDbEntity
  8
Layer 1
370
     0
100
AcDbSpline
210
0.0
220
0.0
230
1.0
 70
    11
 71
     3
 72
    77
 73
    73
 74
     0
 42
0.0000000001
 43
0.0000000001
 40
0.0
 40
0.0
 40
0.0
 40
0.0
 40
1.0
 40
1.0
 40
1.0
 40
2.0
 40
2.0
 40
2.0
 40
3.0
 40
3.0
 40
3.0
 40
4.0
 40
4.0
 40
4.0
 40
5.0
 40
5.0
 40
5.0
 40
6.0
 40
6.0
 40
6.0
 40
7.0
 40
7.0
 40
7.0
 40
8.0
 40
8.0
 40
8.0
 40
9.0
 40
9.0
 40
9.0
 40
10.0
 40
10.0
 40
10.0
 40
11.0
 40
11.0
 40
11.0
 40
12.0
 40
12.0
 40
12.0
 40
13.0
 40
13.0
 40
13.0
 40
14.0
 40
14.0
 40
14.0
 40
15.0
 40
15.0
 40
15.0
 40
16.0
 40
16.0
 40
16.0
 40
17.0
 40
17.0
 40
17.0
 40
18.0
 40
18.0
 40
18.0
 40
19.0
 40
19.0
 40
19.0
 40
20.0
 40
20.0
 40
20.0
 40
21.0
 40
21.0
 40
21.0
 40
22.0
 40
22.0
 40
22.0
 40
23.0
 40
23.0
 40
23.0
 40
24.0
 40
24.0
 40
24.0
 40
24.0
 10
49.83537325143005
 20
85.45507674729943
 30
0.0
 10
49.95216198838002
 20
85.79838051240458
 30
0.0
 10
50.20330944925473
 20
86.25726723103985
 30
0.0
 10
50.53817273042102
 20
86.73475746529549
 30
0.0
 10
51.03977863307339
 20
87.4547824217127
 30
0.0
 10
51.71915146276466
 20
88.22372773402046
 30
0.0
 10
52.35856118482703
 20
88.88501381241417
 30
0.0
 10
52.67792153630969
 20
89.2164319980952
 30
0.0
 10
52.98763562043365
 20
89.52218422241113
 30
0.0
 10
53.26186522105954
 20
89.78676755567831
 30
0.0
 10
53.53609482168542
 20
90.05169539849402
 30
0.0
 10
53.77380641016766
 20
90.27493758593822
 30
0.0
 10
53.9550184326918
 20
90.44667559587792
 30
0.0
 10
54.1286512451484
 20
90.61152341484713
 30
0.0
 10
54.40632594125953
 20
90.84423961487575
 30
0.0
 10
54.73739961739204
 20
91.08625757271454
 30
0.0
 10
55.23418238636507
 20
91.45074867505399
 30
0.0
 10
55.85808917874381
 20
91.84176701262984
 30
0.0
 10
56.46821558918156
 20
92.12547062584017
 30
0.0
 10
56.77276203007764
 20
92.26775306938099
 30
0.0
 10
57.07386337548848
 20
92.38333602291111
 30
0.0
 10
57.34705944746879
 20
92.45947263313514
 30
0.0
 10
57.61956650035206
 20
92.53612600768194
 30
0.0
 10
57.86382377025627
 20
92.57195500072854
 30
0.0
 10
58.05054794555681
 20
92.57143823640575
 30
0.0
 10
58.17767196896253
 20
92.57143823640575
 30
0.0
 10
58.27689071893772
 20
92.55593530672213
 30
0.0
 10
58.35027125277355
 20
92.53440345993933
 30
0.0
 10
58.40608179963459
 20
92.51786700161013
 30
0.0
 10
58.44811196455464
 20
92.49874672166699
 30
0.0
 10
58.48497448624681
 20
92.47583683669008
 30
0.0
 10
58.53975150446229
 20
92.4408691175148
 30
0.0
 10
58.58832735080431
 20
92.399011207369
 30
0.0
 10
58.64999455999028
 20
92.30961097952677
 30
0.0
 10
58.70993922143363
 20
92.2203830064588
 30
0.0
 10
58.77918564068715
 20
92.07861732724076
 30
0.0
 10
58.83534069709673
 20
91.86002601870166
 30
0.0
 10
58.85084362678035
 20
91.80077037635537
 30
0.0
 10
58.86014538459052
 20
91.73049042845626
 30
0.0
 10
58.86048989413905
 20
91.64384627700224
 30
0.0
 10
58.86048989413905
 20
91.52499048276111
 30
0.0
 10
58.84119735942165
 20
91.37564559347554
 30
0.0
 10
58.79537758946783
 20
91.20270180011599
 30
0.0
 10
58.71614039330708
 20
90.90022241651106
 30
0.0
 10
58.55387639595181
 20
90.53021916139522
 30
0.0
 10
58.32960067986205
 20
90.14712454343544
 30
0.0
 10
57.99439288914724
 20
89.57041555920462
 30
0.0
 10
57.52482637450768
 20
88.96407875380065
 30
0.0
 10
57.04940319754321
 20
88.43629012546037
 30
0.0
 10
56.57535805877283
 20
87.90781247802305
 30
0.0
 10
56.0923556717408
 20
87.45271536442155
 30
0.0
 10
55.74922416140992
 20
87.1681504773399
 30
0.0
 10
55.07398544630095
 20
86.60487736550157
 30
0.0
 10
54.06870658370505
 20
86.04453258482567
 30
0.0
 10
53.01898598934942
 20
85.64972464221604
 30
0.0
 10
52.49395343739734
 20
85.45111488749139
 30
0.0
 10
51.95789657989247
 20
85.29160696652433
 30
0.0
 10
51.44733342897845
 20
85.18343096828748
 30
0.0
 10
50.93745929716147
 20
85.07508271527637
 30
0.0
 10
50.45307887193535
 20
85.01909991364106
 30
0.0
 10
50.03966741370537
 20
85.01944442318958
 30
0.0
 10
50.03966741370537
 20
85.01944442318958
 30
0.0
 10
50.00418293020729
 20
85.01944442318958
 30
0.0
 10
50.00418293020729
 20
85.01944442318958
 30
0.0
 10
49.93321396321114
 20
85.01944442318958
 30
0.0
 10
49.86741263944287
 20
85.01909991364106
 30
0.0
 10
49.80677895890248
 20
85.01909991364106
 30
0.0
 10
49.78473034779687
 20
85.01909991364106
 30
0.0
 10
49.765782322628
 20
85.01927216841533
 30
0.0
 10
49.7451117497165
 20
85.01944442318958
 30
0.0
 10
49.74476724016797
 20
85.10798337716051
 30
0.0
 10
49.76750487037063
 20
85.26042885238282
 30
0.0
 10
49.83537325143005
 20
85.45507674729943
 30
0.0
  0
SPLINE
  5
40
330
1F
100
AcDbEntity
  8
Layer 1
370
     0
100
AcDbSpline
210
0.0
220
0.0
230
1.0
 70
    11
 71
     3
 72
    80
 73
    76
 74
     0
 42
0.0000000001
 43
0.0000000001
 40
0.0
 40
0.0
 40
0.0
 40
0.0
 40
1.0
 40
1.0
 40
1.0
 40
2.0
 40
2.0
 40
2.0
 40
3.0
 40
3.0
 40
3.0
 40
4.0
 40
4.0
 40
4.0
 40
5.0
 40
5.0
 40
5.0
 40
6.0
 40
6.0
 40
6.0
 40
7.0
 40
7.0
 40
7.0
 40
8.0
 40
8.0
 40
8.0
 40
9.0
 40
9.0
 40
9.0
 40
10.0
 40
10.0
 40
10.0
 40
11.0
 40
11.0
 40
11.0
 40
12.0
 40
12.0
 40
12.0
 40
13.0
 40
13.0
 40
13.0
 40
14.0
 40
14.0
 40
14.0
 40
15.0
 40
15.0
 40
15.0
 40
16.0
 40
16.0
 40
16.0
 40
17.0
 40
17.0
 40
17.0
 40
18.0
 40
18.0
 40
18.0
 40
19.0
 40
19.0
 40
19.0
 40
20.0
 40
20.0
 40
20.0
 40
21.0
 40
21.0
 40
21.0
 40
22.0
 40
22.0
 40
22.0
 40
23.0
 40
23.0
 40
23.0
 40
24.0
 40
24.0
 40
24.0
 40
25.0
 40
25.0
 40
25.0
 40
25.0
 10
10.06415744106035
 20
71.98561467384388
 30
0.0
 10
9.995255531355353
 20
71.75806611704313
 30
0.0
 10
9.83747015813091
 20
71.43009302684735
 30
0.0
 10
9.62180718075427
 20
71.08437769490251
 30
0.0
 10
9.299173988560623
 20
70.56313474798422
 30
0.0
 10
8.852689613672245
 20
69.99521075724078
 30
0.0
 10
8.427737085566678
 20
69.5170315038881
 30
0.0
 10
8.215519203675287
 20
69.27742511288898
 30
0.0
 10
8.00829671023751
 20
69.05935056867267
 30
0.0
 10
7.826051159067793
 20
68.87831080092279
 30
0.0
 10
7.644666881769389
 20
68.69744328794717
 30
0.0
 10
7.485158960802321
 20
68.5522325132439
 30
0.0
 10
7.383700898761714
 20
68.4681721834038
 30
0.0
 10
7.383700898761714
 20
68.4681721834038
 30
0.0
 10
7.383873153535976
 20
68.4681721834038
 30
0.0
 10
7.383873153535976
 20
68.4681721834038
 30
0.0
 10
6.916201441413311
 20
68.0792209031191
 30
0.0
 10
6.022543672539503
 20
67.36953123315762
 30
0.0
 10
5.091678872424997
 20
66.78007539563137
 30
0.0
 10
4.627624510561844
 20
66.48551973164251
 30
0.0
 10
4.153579371791467
 20
66.2219699270209
 30
0.0
 10
3.740167913561486
 20
66.04489201907906
 30
0.0
 10
3.533978948769283
 20
65.95618081033388
 30
0.0
 10
3.343465168434967
 20
65.88934595792003
 30
0.0
 10
3.184129502242162
 20
65.84783255732276
 30
0.0
 10
3.02496609082362
 20
65.80580239240273
 30
0.0
 10
2.897325303095113
 20
65.79064397226762
 30
0.0
 10
2.822394476290929
 20
65.79133299136467
 30
0.0
 10
2.783637152081869
 20
65.79133299136467
 30
0.0
 10
2.758660209813807
 20
65.79477808684992
 30
0.0
 10
2.747980413809533
 20
65.79684514414107
 30
0.0
 10
2.747980413809533
 20
65.79684514414107
 30
0.0
 10
2.744363063550021
 20
65.79770641801238
 30
0.0
 10
2.744363063550021
 20
65.79770641801238
 30
0.0
 10
2.614310708981839
 20
65.86075166539246
 30
0.0
 10
2.522154404751406
 20
65.92328014844973
 30
0.0
 10
2.456525335757397
 20
65.97960745963357
 30
0.0
 10
2.356962076233676
 20
66.06694063018466
 30
0.0
 10
2.312003580151166
 20
66.13584253988965
 30
0.0
 10
2.276002332330305
 20
66.21800806721286
 30
0.0
 10
2.241551377477807
 20
66.3000013397618
 30
0.0
 10
2.21829698295237
 20
66.40455998773913
 30
0.0
 10
2.217952473403845
 20
66.55132105541078
 30
0.0
 10
2.21691894475827
 20
66.7514811031038
 30
0.0
 10
2.268250867488493
 20
67.02622746805247
 30
0.0
 10
2.379527451662063
 20
67.33215194714266
 30
0.0
 10
2.54385850630848
 20
67.79155543010073
 30
0.0
 10
2.837208386877504
 20
68.31210935792197
 30
0.0
 10
3.167076279590176
 20
68.77547470068808
 30
0.0
 10
3.49504936978596
 20
69.2391845530027
 30
0.0
 10
3.861779784190805
 20
69.65190699213564
 30
0.0
 10
4.138420951656367
 20
69.91115042740068
 30
0.0
 10
4.425741915126204
 20
70.18227944208985
 30
0.0
 10
4.814865450185173
 20
70.47356226536772
 30
0.0
 10
5.260488551202239
 20
70.74658608257377
 30
0.0
 10
5.928837075340708
 20
71.15724146441555
 30
0.0
 10
6.72534315153047
 20
71.52896726727401
 30
0.0
 10
7.503245712099884
 20
71.78855521208759
 30
0.0
 10
7.892369247158853
 20
71.91860756665577
 30
0.0
 10
8.276669648538471
 20
72.0212714121162
 30
0.0
 10
8.635476343327243
 20
72.09000106704694
 30
0.0
 10
8.994455292890276
 20
72.15890297675195
 30
0.0
 10
9.32794053586246
 20
72.19318167683018
 30
0.0
 10
9.610266110878683
 20
72.19300942205592
 30
0.0
 10
9.610266110878683
 20
72.19300942205592
 30
0.0
 10
9.610955129975734
 20
72.19300942205592
 30
0.0
 10
9.610955129975734
 20
72.19300942205592
 30
0.0
 10
9.837986922453698
 20
72.19335393160445
 30
0.0
 10
10.00128444845454
 20
72.17130532049885
 30
0.0
 10
10.09757486726727
 20
72.14736190687636
 30
0.0
 10
10.09998643410695
 20
72.1466728877793
 30
0.0
 10
10.10153672707531
 20
72.14615612345652
 30
0.0
 10
10.10394829391499
 20
72.14546710435947
 30
0.0
 10
10.09636908384744
 20
72.10240341079384
 30
0.0
 10
10.08396674010054
 20
72.04831541167542
 30
0.0
 10
10.06415744106035
 20
71.98561467384388
 30
0.0
  0
SPLINE
  5
41
330
1F
100
AcDbEntity
  8
Layer 1
370
     0
100
AcDbSpline
210
0.0
220
0.0
230
1.0
 70
    11
 71
     3
 72
    53
 73
    49
 74
     0
 42
0.0000000001
 43
0.0000000001
 40
0.0
 40
0.0
 40
0.0
 40
0.0
 40
1.0
 40
1.0
 40
1.0
 40
2.0
 40
2.0
 40
2.0
 40
3.0
 40
3.0
 40
3.0
 40
4.0
 40
4.0
 40
4.0
 40
5.0
 40
5.0
 40
5.0
 40
6.0
 40
6.0
 40
6.0
 40
7.0
 40
7.0
 40
7.0
 40
8.0
 40
8.0
 40
8.0
 40
9.0
 40
9.0
 40
9.0
 40
10.0
 40
10.0
 40
10.0
 40
11.0
 40
11.0
 40
11.0
 40
12.0
 40
12.0
 40
12.0
 40
13.0
 40
13.0
 40
13.0
 40
14.0
 40
14.0
 40
14.0
 40
15.0
 40
15.0
 40
15.0
 40
16.0
 40
16.0
 40
16.0
 40
16.0
 10
15.68810356595645
 20
72.46655000358476
 30
0.0
 10
16.75815022367505
 20
72.22091469548644
 30
0.0
 10
17.88366291870617
 20
71.81456568300122
 30
0.0
 10
18.93924017538672
 20
71.35757376688284
 30
0.0
 10
19.99550645116432
 20
70.90109861508724
 30
0.0
 10
20.98304307201118
 20
70.39570310740108
 30
0.0
 10
21.79436305878752
 20
69.9561089234832
 30
0.0
 10
21.98315429137921
 20
69.8541340971198
 30
0.0
 10
22.25635036335952
 20
69.68032902988895
 30
0.0
 10
22.53953721224706
 20
69.4701782052887
 30
0.0
 10
22.96586777854673
 20
69.15598549703392
 30
0.0
 10
23.42406547808496
 20
68.75153128706559
 30
0.0
 10
23.73360730743466
 20
68.38514538220927
 30
0.0
 10
23.88898111381942
 20
68.20358885013661
 30
0.0
 10
24.00559759599513
 20
68.03167858542264
 30
0.0
 10
24.06743705995536
 20
67.90937769569626
 30
0.0
 10
24.0700208815693
 20
67.9042100524684
 30
0.0
 10
24.07122666498914
 20
67.90059270220888
 30
0.0
 10
24.07363823182881
 20
67.89559731375527
 30
0.0
 10
23.98837211856888
 20
67.8614908684513
 30
0.0
 10
23.86159260471169
 20
67.82221677991944
 30
0.0
 10
23.6907158686433
 20
67.78879935371252
 30
0.0
 10
23.36170924980193
 20
67.7236870490413
 30
0.0
 10
22.96517875944968
 20
67.68906383941454
 30
0.0
 10
22.5352308428905
 20
67.6892360941888
 30
0.0
 10
21.77524277884438
 20
67.68871932986602
 30
0.0
 10
20.91241861456356
 20
67.7967230733286
 30
0.0
 10
20.1035101946269
 20
67.98448077727471
 30
0.0
 10
19.2947740294645
 20
68.17086044302673
 30
0.0
 10
18.5356472392897
 20
68.44026690997327
 30
0.0
 10
17.99011636920039
 20
68.72620983524901
 30
0.0
 10
17.2428751584497
 20
69.11516111553371
 30
0.0
 10
16.199011226419
 20
69.7388956531382
 30
0.0
 10
15.30518120277093
 20
70.43962807483801
 30
0.0
 10
14.85835231833402
 20
70.7891330118166
 30
0.0
 10
14.44907497468634
 20
71.1584472478354
 30
0.0
 10
14.13436550210877
 20
71.51174178984776
 30
0.0
 10
13.81793348178857
 20
71.86400280321456
 30
0.0
 10
13.60330403305751
 20
72.20196667031756
 30
0.0
 10
13.51200900269839
 20
72.44966903570703
 30
0.0
 10
13.48513725791344
 20
72.5196044740576
 30
0.0
 10
13.461882863388
 20
72.61038274009394
 30
0.0
 10
13.4425903286706
 20
72.7166639358139
 30
0.0
 10
13.51734890070052
 20
72.7194200122021
 30
0.0
 10
13.59159070840766
 20
72.72320961723587
 30
0.0
 10
13.66858859250299
 20
72.72320961723587
 30
0.0
 10
14.28767225120239
 20
72.72355412678439
 30
0.0
 10
14.97496880050973
 20
72.63105331300544
 30
0.0
 10
15.68810356595645
 20
72.46655000358476
 30
0.0
  0
SPLINE
  5
42
330
1F
100
AcDbEntity
  8
Layer 1
370
     0
100
AcDbSpline
210
0.0
220
0.0
230
1.0
 70
    11
 71
     3
 72
    20
 73
    16
 74
     0
 42
0.0000000001
 43
0.0000000001
 40
0.0
 40
0.0
 40
0.0
 40
0.0
 40
1.0
 40
1.0
 40
1.0
 40
2.0
 40
2.0
 40
2.0
 40
3.0
 40
3.0
 40
3.0
 40
4.0
 40
4.0
 40
4.0
 40
5.0
 40
5.0
 40
5.0
 40
5.0
 10
38.10172253821763
 20
79.70262856080352
 30
0.0
 10
37.1705132285546
 20
78.14992402560141
 30
0.0
 10
36.61309677904117
 20
76.36777613108167
 30
0.0
 10
36.57881807896294
 20
74.5687472686842
 30
0.0
 10
35.15185952897245
 20
75.7118299506901
 30
0.0
 10
33.55901963136719
 20
76.61582300601965
 30
0.0
 10
31.87832979888806
 20
77.29554034525945
 30
0.0
 10
31.34365097957728
 20
77.51172008695887
 30
0.0
 10
30.80001491200486
 20
77.70567896277845
 30
0.0
 10
30.2496609082362
 20
77.87827824658946
 30
0.0
 10
33.47082518694479
 20
78.0333075434257
 30
0.0
 10
36.50819362151532
 20
79.09732528404511
 30
0.0
 10
39.30991752489474
 20
81.34387204997654
 30
0.0
 10
38.85723197813292
 20
80.83675399454776
 30
0.0
 10
38.45208874906753
 20
80.28553871690778
 30
0.0
 10
38.10172253821763
 20
79.70262856080352
 30
0.0
  0
SPLINE
  5
43
330
1F
100
AcDbEntity
  8
Layer 1
370
     0
100
AcDbSpline
210
0.0
220
0.0
230
1.0
 70
    11
 71
     3
 72
    68
 73
    64
 74
     0
 42
0.0000000001
 43
0.0000000001
 40
0.0
 40
0.0
 40
0.0
 40
0.0
 40
1.0
 40
1.0
 40
1.0
 40
2.0
 40
2.0
 40
2.0
 40
3.0
 40
3.0
 40
3.0
 40
4.0
 40
4.0
 40
4.0
 40
5.0
 40
5.0
 40
5.0
 40
6.0
 40
6.0
 40
6.0
 40
7.0
 40
7.0
 40
7.0
 40
8.0
 40
8.0
 40
8.0
 40
9.0
 40
9.0
 40
9.0
 40
10.0
 40
10.0
 40
10.0
 40
11.0
 40
11.0
 40
11.0
 40
12.0
 40
12.0
 40
12.0
 40
13.0
 40
13.0
 40
13.0
 40
14.0
 40
14.0
 40
14.0
 40
15.0
 40
15.0
 40
15.0
 40
16.0
 40
16.0
 40
16.0
 40
17.0
 40
17.0
 40
17.0
 40
18.0
 40
18.0
 40
18.0
 40
19.0
 40
19.0
 40
19.0
 40
20.0
 40
20.0
 40
20.0
 40
21.0
 40
21.0
 40
21.0
 40
21.0
 10
36.96535779240797
 20
51.66850855913149
 30
0.0
 10
36.32198621053756
 20
52.14737683158121
 30
0.0
 10
35.69962971112718
 20
52.58076984362565
 30
0.0
 10
35.24780543823666
 20
52.9139105770493
 30
0.0
 10
34.36878932517516
 20
53.55952147098512
 30
0.0
 10
33.41346434711539
 20
54.17171493871402
 30
0.0
 10
32.60369465330741
 20
54.829900431171
 30
0.0
 10
32.19906818856482
 20
55.15804577614104
 30
0.0
 10
31.83233777415997
 20
55.49514836937274
 30
0.0
 10
31.52882486190946
 20
55.84138046564035
 30
0.0
 10
31.2246229305619
 20
56.18778481668222
 30
0.0
 10
30.98484428478851
 20
56.54090710392033
 30
0.0
 10
30.8177571537539
 20
56.90574271580829
 30
0.0
 10
30.72646212339478
 20
57.10486923485573
 30
0.0
 10
30.66737873582274
 20
57.27436793273002
 30
0.0
 10
30.63275552619598
 20
57.41113822349444
 30
0.0
 10
30.59796006179496
 20
57.54825302380738
 30
0.0
 10
30.58728026579068
 20
57.6519503979134
 30
0.0
 10
30.58745252056494
 20
57.72395289355512
 30
0.0
 10
30.58745252056494
 20
57.7856201027411
 30
0.0
 10
30.59468722108397
 20
57.82437742695016
 30
0.0
 10
30.6014051572802
 20
57.85004338831527
 30
0.0
 10
30.6151855392212
 20
57.89396835575221
 30
0.0
 10
30.62190347541744
 20
57.904992661305
 30
0.0
 10
30.65170355136485
 20
57.93841008751193
 30
0.0
 10
30.6744411815675
 20
57.96218124636015
 30
0.0
 10
30.7144042891964
 20
57.99542641779281
 30
0.0
 10
30.7819281607073
 20
58.03228893948499
 30
0.0
 10
30.88183592977954
 20
58.08758272202324
 30
0.0
 10
31.0432386532635
 20
58.14649385482102
 30
0.0
 10
31.24908310850718
 20
58.18628470767565
 30
0.0
 10
31.45441079942806
 20
58.22659232485308
 30
0.0
 10
31.70211316481753
 20
58.24829642641015
 30
0.0
 10
31.96738551718177
 20
58.24812417163589
 30
0.0
 10
32.48036023493547
 20
58.2489854455072
 30
0.0
 10
33.05896402168317
 20
58.16595864431268
 30
0.0
 10
33.55126816652538
 20
58.03521727064745
 30
0.0
 10
34.29592555566213
 20
57.839363592311
 30
0.0
 10
35.13222248470653
 20
57.49898815836831
 30
0.0
 10
35.90840249753332
 20
57.06059975787027
 30
0.0
 10
36.68527152945715
 20
56.62341714079206
 30
0.0
 10
37.40271266426043
 20
56.08667126419014
 30
0.0
 10
37.92877874485809
 20
55.5275322669341
 30
0.0
 10
38.34735784631594
 20
55.08259818501408
 30
0.0
 10
38.62158744694182
 20
54.64352076541898
 30
0.0
 10
38.8017659408204
 20
54.18170571562124
 30
0.0
 10
38.98056639650486
 20
53.71954615627498
 30
0.0
 10
39.06703829318463
 20
53.22706975665852
 30
0.0
 10
39.06772731228168
 20
52.66586370211132
 30
0.0
 10
39.06772731228168
 20
52.52495929676459
 30
0.0
 10
39.06187064995676
 20
52.37974852206131
 30
0.0
 10
39.05050183485543
 20
52.23023137800147
 30
0.0
 10
39.03534341472033
 20
52.02714299914599
 30
0.0
 10
39.00950519858096
 20
51.71053872405153
 30
0.0
 10
38.96196288088451
 20
51.35035399106867
 30
0.0
 10
38.92613388783791
 20
51.08111977889639
 30
0.0
 10
38.87721353194736
 20
50.78914793652147
 30
0.0
 10
38.81451279411582
 20
50.51354029770147
 30
0.0
 10
38.79074163526759
 20
50.41001517836972
 30
0.0
 10
38.76490341912822
 20
50.30872937110338
 30
0.0
 10
38.73768716479475
 20
50.21226669751638
 30
0.0
 10
38.19129502083413
 20
50.72730847256123
 30
0.0
 10
37.56979979529505
 20
51.21789006966081
 30
0.0
 10
36.96535779240797
 20
51.66850855913149
 30
0.0
  0
SPLINE
  5
44
330
1F
100
AcDbEntity
  8
Layer 1
370
     0
100
AcDbSpline
210
0.0
220
0.0
230
1.0
 70
    11
 71
     3
 72
    65
 73
    61
 74
     0
 42
0.0000000001
 43
0.0000000001
 40
0.0
 40
0.0
 40
0.0
 40
0.0
 40
1.0
 40
1.0
 40
1.0
 40
2.0
 40
2.0
 40
2.0
 40
3.0
 40
3.0
 40
3.0
 40
4.0
 40
4.0
 40
4.0
 40
5.0
 40
5.0
 40
5.0
 40
6.0
 40
6.0
 40
6.0
 40
7.0
 40
7.0
 40
7.0
 40
8.0
 40
8.0
 40
8.0
 40
9.0
 40
9.0
 40
9.0
 40
10.0
 40
10.0
 40
10.0
 40
11.0
 40
11.0
 40
11.0
 40
12.0
 40
12.0
 40
12.0
 40
13.0
 40
13.0
 40
13.0
 40
14.0
 40
14.0
 40
14.0
 40
15.0
 40
15.0
 40
15.0
 40
16.0
 40
16.0
 40
16.0
 40
17.0
 40
17.0
 40
17.0
 40
18.0
 40
18.0
 40
18.0
 40
19.0
 40
19.0
 40
19.0
 40
20.0
 40
20.0
 40
20.0
 40
20.0
 10
15.50895860072345
 20
17.71778157109139
 30
0.0
 10
16.29616291910304
 20
17.89313693129061
 30
0.0
 10
17.04667697056472
 20
18.02852918386093
 30
0.0
 10
17.6318264387344
 20
18.15289713087844
 30
0.0
 10
19.37917886885312
 20
18.52496744328543
 30
0.0
 10
21.29585774207187
 20
18.70928005174629
 30
0.0
 10
23.19531113786437
 20
18.70893554219777
 30
0.0
 10
24.58781873300235
 20
18.70893554219777
 30
0.0
 10
25.97154133465295
 20
18.61040581131962
 30
0.0
 10
27.27258164465755
 20
18.41954752143678
 30
0.0
 10
27.7366360065207
 20
18.35167914037736
 30
0.0
 10
28.19827880154418
 20
18.22455511697164
 30
0.0
 10
28.62081976281008
 20
18.0557454381944
 30
0.0
 10
29.25506184164457
 20
17.80425346777116
 30
0.0
 10
29.79955918308831
 20
17.45216470917862
 30
0.0
 10
30.13631726677148
 20
17.11488986117267
 30
0.0
 10
30.30547145509724
 20
16.94745822058952
 30
0.0
 10
30.42174342772443
 20
16.78622775187983
 30
0.0
 10
30.48599445852433
 20
16.65910372847411
 30
0.0
 10
30.55127901796982
 20
16.53025715732577
 30
0.0
 10
30.56592067378213
 20
16.44344075109747
 30
0.0
 10
30.56592067378213
 20
16.38694118513938
 30
0.0
 10
30.56505939991082
 20
16.34077690563703
 30
0.0
 10
30.55937499236016
 20
16.30632595078453
 30
0.0
 10
30.53250324757521
 20
16.24707030843823
 30
0.0
 10
30.51166041988945
 20
16.20331759577556
 30
0.0
 10
30.47583142684285
 20
16.14509548207484
 30
0.0
 10
30.40968559352605
 20
16.07171494823902
 30
0.0
 10
30.31115586264791
 20
15.9625054213566
 30
0.0
 10
30.14182941954788
 20
15.82125650646135
 30
0.0
 10
29.87862412447479
 20
15.67311740059561
 30
0.0
 10
29.61593559372449
 20
15.52497829472987
 30
0.0
 10
29.26160752306654
 20
15.3709825265392
 30
0.0
 10
28.8094387406275
 20
15.22835557344986
 30
0.0
 10
27.26138508433049
 20
14.7381184858988
 30
0.0
 10
25.46304524103007
 20
14.55552842518056
 30
0.0
 10
23.60045436692975
 20
14.49420572554312
 30
0.0
 10
21.73717447373237
 20
14.43047145906599
 30
0.0
 10
19.81550021206002
 20
14.48421494863589
 30
0.0
 10
17.99545626720252
 20
14.41875813441614
 30
0.0
 10
17.95273708318543
 20
14.41703558667352
 30
0.0
 10
17.89933810316406
 20
14.41634656757647
 30
0.0
 10
17.83801540352661
 20
14.41634656757647
 30
0.0
 10
17.47628037757537
 20
14.41565754847942
 30
0.0
 10
16.86425916462074
 20
14.45079752242897
 30
0.0
 10
16.1824747680898
 20
14.53313530452644
 30
0.0
 10
15.67001681465888
 20
14.59480251371241
 30
0.0
 10
15.11363389379104
 20
14.68299695813481
 30
0.0
 10
14.57809380060895
 20
14.7987521664392
 30
0.0
 10
14.17639566702882
 20
14.88591308221602
 30
0.0
 10
13.78623860332427
 20
14.98892143722499
 30
0.0
 10
13.43742268544273
 20
15.10502115507791
 30
0.0
 10
13.17611219288653
 20
15.19183756130621
 30
0.0
 10
12.93805609485576
 20
15.28657768715058
 30
0.0
 10
12.73841281148554
 20
15.38304036073757
 30
0.0
 10
12.58855115787717
 20
15.45538736592782
 30
0.0
 10
12.46056586060014
 20
15.52842339021512
 30
0.0
 10
12.35790201513969
 20
15.59904784766274
 30
0.0
 10
10.94334580889611
 20
16.55506184481957
 30
0.0
 10
15.15411376574272
 20
17.63888888447917
 30
0.0
 10
15.50895860072345
 20
17.71778157109139
 30
0.0
  0
SPLINE
  5
45
330
1F
100
AcDbEntity
  8
Layer 1
370
     0
100
AcDbSpline
210
0.0
220
0.0
230
1.0
 70
    11
 71
     3
 72
    56
 73
    52
 74
     0
 42
0.0000000001
 43
0.0000000001
 40
0.0
 40
0.0
 40
0.0
 40
0.0
 40
1.0
 40
1.0
 40
1.0
 40
2.0
 40
2.0
 40
2.0
 40
3.0
 40
3.0
 40
3.0
 40
4.0
 40
4.0
 40
4.0
 40
5.0
 40
5.0
 40
5.0
 40
6.0
 40
6.0
 40
6.0
 40
7.0
 40
7.0
 40
7.0
 40
8.0
 40
8.0
 40
8.0
 40
9.0
 40
9.0
 40
9.0
 40
10.0
 40
10.0
 40
10.0
 40
11.0
 40
11.0
 40
11.0
 40
12.0
 40
12.0
 40
12.0
 40
13.0
 40
13.0
 40
13.0
 40
14.0
 40
14.0
 40
14.0
 40
15.0
 40
15.0
 40
15.0
 40
16.0
 40
16.0
 40
16.0
 40
17.0
 40
17.0
 40
17.0
 40
17.0
 10
17.14055582253778
 20
35.74114311172444
 30
0.0
 10
17.13711072705253
 20
34.08853080745009
 30
0.0
 10
17.05839029521457
 20
32.59473740504576
 30
0.0
 10
16.82033419718381
 20
31.1763915937684
 30
0.0
 10
16.68080783003119
 20
30.34577907227467
 30
0.0
 10
16.48564317079179
 20
29.54100476692031
 30
0.0
 10
16.21950954455624
 20
28.7382975188571
 30
0.0
 10
15.91909721824245
 20
29.1603217158002
 30
0.0
 10
15.60593803863324
 20
29.66192761845258
 30
0.0
 10
15.30001355954305
 20
30.21899955841747
 30
0.0
 10
14.56706949505615
 20
31.54949543482096
 30
0.0
 10
13.86633707335633
 20
33.19797362451301
 30
0.0
 10
13.35801323450772
 20
34.8774576735723
 30
0.0
 10
12.84796684791648
 20
36.55590819398603
 30
0.0
 10
12.53308512056465
 20
38.27053221699487
 30
0.0
 10
12.53497992308153
 20
39.70954860118373
 30
0.0
 10
12.53480766830727
 20
40.2841905281234
 30
0.0
 10
12.58424478852061
 20
40.81335719465778
 30
0.0
 10
12.68243000985023
 20
41.27534449922977
 30
0.0
 10
12.75563828891179
 20
41.62192110504591
 30
0.0
 10
12.85606282230682
 20
41.9306016605243
 30
0.0
 10
12.97888047635598
 20
42.19621852243706
 30
0.0
 10
13.1647433777852
 20
42.59653861782309
 30
0.0
 10
13.39435899187711
 20
42.89695094413688
 30
0.0
 10
13.68081868147563
 20
43.12777234164862
 30
0.0
 10
13.96900091881678
 20
43.35756021051478
 30
0.0
 10
14.32332898947472
 20
43.52947047522875
 30
0.0
 10
14.81993950367349
 20
43.62524412971869
 30
0.0
 10
14.89728189731735
 20
43.63971353075674
 30
0.0
 10
14.96291096631136
 20
43.64557019308167
 30
0.0
 10
15.01992729659224
 20
43.64557019308167
 30
0.0
 10
15.10123155004414
 20
43.64522568353314
 30
0.0
 10
15.16513807129552
 20
43.63489039707739
 30
0.0
 10
15.22611626138444
 20
43.61663139100557
 30
0.0
 10
15.3379096098808
 20
43.58252494570159
 30
0.0
 10
15.45245903476536
 20
43.51844616967595
 30
0.0
 10
15.59319118533781
 20
43.381331369363
 30
0.0
 10
15.71445854641861
 20
43.26213106557336
 30
0.0
 10
15.84761148692352
 20
43.08712021492266
 30
0.0
 10
15.97559678420055
 20
42.85974391289618
 30
0.0
 10
16.20142279325867
 20
42.4628689129954
 30
0.0
 10
16.40692273895382
 20
41.91199814490395
 30
0.0
 10
16.56729193379221
 20
41.29153644801045
 30
0.0
 10
16.81034342027658
 20
40.35963811925037
 30
0.0
 10
16.9581380165938
 20
39.27443304139667
 30
0.0
 10
17.03978677959422
 20
38.28259005119325
 30
0.0
 10
17.12212456169169
 20
37.28971353234424
 30
0.0
 10
17.14055582253778
 20
36.38744302475731
 30
0.0
 10
17.14055582253778
 20
35.80177679226483
 30
0.0
 10
17.14055582253778
 20
35.80177679226483
 30
0.0
 10
17.14055582253778
 20
35.74114311172444
 30
0.0
 10
17.14055582253778
 20
35.74114311172444
 30
0.0
  0
SPLINE
  5
46
330
1F
100
AcDbEntity
  8
Layer 1
370
     0
100
AcDbSpline
210
0.0
220
0.0
230
1.0
 70
    11
 71
     3
 72
    83
 73
    79
 74
     0
 42
0.0000000001
 43
0.0000000001
 40
0.0
 40
0.0
 40
0.0
 40
0.0
 40
1.0
 40
1.0
 40
1.0
 40
2.0
 40
2.0
 40
2.0
 40
3.0
 40
3.0
 40
3.0
 40
4.0
 40
4.0
 40
4.0
 40
5.0
 40
5.0
 40
5.0
 40
6.0
 40
6.0
 40
6.0
 40
7.0
 40
7.0
 40
7.0
 40
8.0
 40
8.0
 40
8.0
 40
9.0
 40
9.0
 40
9.0
 40
10.0
 40
10.0
 40
10.0
 40
11.0
 40
11.0
 40
11.0
 40
12.0
 40
12.0
 40
12.0
 40
13.0
 40
13.0
 40
13.0
 40
14.0
 40
14.0
 40
14.0
 40
15.0
 40
15.0
 40
15.0
 40
16.0
 40
16.0
 40
16.0
 40
17.0
 40
17.0
 40
17.0
 40
18.0
 40
18.0
 40
18.0
 40
19.0
 40
19.0
 40
19.0
 40
20.0
 40
20.0
 40
20.0
 40
21.0
 40
21.0
 40
21.0
 40
22.0
 40
22.0
 40
22.0
 40
23.0
 40
23.0
 40
23.0
 40
24.0
 40
24.0
 40
24.0
 40
25.0
 40
25.0
 40
25.0
 40
26.0
 40
26.0
 40
26.0
 40
26.0
 10
49.30448403715305
 20
33.43120658886442
 30
0.0
 10
49.20388724898375
 20
32.93028970530909
 30
0.0
 10
49.07331813009279
 20
32.41559243981277
 30
0.0
 10
48.97168781327791
 20
31.90812987483547
 30
0.0
 10
48.83491752251349
 20
31.226000968756
 30
0.0
 10
48.58687064757551
 20
30.57935654617461
 30
0.0
 10
48.26992186293252
 20
29.91341958887581
 30
0.0
 10
47.95400660693511
 20
29.24782714112554
 30
0.0
 10
47.56953395078123
 20
28.56707627324018
 30
0.0
 10
47.18781737101555
 20
27.82810329165409
 30
0.0
 10
46.99730359068123
 20
27.4587890556353
 30
0.0
 10
46.81436902041447
 20
27.06880424670502
 30
0.0
 10
46.6204101445949
 20
26.68881021468196
 30
0.0
 10
46.33205565247949
 20
26.11933593097017
 30
0.0
 10
46.01545137738503
 20
25.57569986339774
 30
0.0
 10
45.68334417260694
 20
25.19605034092321
 30
0.0
 10
45.51832409886347
 20
25.00588107013742
 30
0.0
 10
45.35261500602296
 20
24.85705294517463
 30
0.0
 10
45.19276257550737
 20
24.75266655197156
 30
0.0
 10
45.0318766163462
 20
24.64759113967144
 30
0.0
 10
44.8802924149952
 20
24.58351236364579
 30
0.0
 10
44.71044920757239
 20
24.54940591834182
 30
0.0
 10
44.71044920757239
 20
24.54940591834182
 30
0.0
 10
44.71113822666944
 20
24.54975042789034
 30
0.0
 10
44.71113822666944
 20
24.54975042789034
 30
0.0
 10
44.63810220238214
 20
24.53528102685229
 30
0.0
 10
44.58435871281225
 20
24.53114691226999
 30
0.0
 10
44.54990775795974
 20
24.53114691226999
 30
0.0
 10
44.52682561820858
 20
24.53114691226999
 30
0.0
 10
44.5133897458161
 20
24.53286946001262
 30
0.0
 10
44.50477700710297
 20
24.53424749820672
 30
0.0
 10
44.49754230658395
 20
24.54320474646837
 30
0.0
 10
44.48617349148262
 20
24.55939669524904
 30
0.0
 10
44.47135958089605
 20
24.58799098777661
 30
0.0
 10
44.43415254965535
 20
24.65758191657866
 30
0.0
 10
44.38454317466775
 20
24.79745279327981
 30
0.0
 10
44.35215927710641
 20
24.98968912135675
 30
0.0
 10
44.31874185089949
 20
25.18158093988516
 30
0.0
 10
44.30048284482766
 20
25.42273762385265
 30
0.0
 10
44.30048284482766
 20
25.68973252395951
 30
0.0
 10
44.29944931618208
 20
26.33913302292911
 30
0.0
 10
44.4072808048704
 20
27.13253851318214
 30
0.0
 10
44.54680717202302
 20
27.83912759720689
 30
0.0
 10
44.68530001053006
 20
28.5467502098772
 30
0.0
 10
44.85307616066174
 20
29.17479111683825
 30
0.0
 10
44.95505098702512
 20
29.52033419400881
 30
0.0
 10
45.29439289232224
 20
30.67237412427635
 30
0.0
 10
45.6068630528344
 20
31.89710556928267
 30
0.0
 10
46.01338432009388
 20
33.02330728341084
 30
0.0
 10
46.21595593462657
 20
33.58623588570067
 30
0.0
 10
46.44092066981338
 20
34.12332627185111
 30
0.0
 10
46.6975802834645
 20
34.61184081165954
 30
0.0
 10
46.95423989711561
 20
35.10069986101649
 30
0.0
 10
47.24156086058544
 20
35.54029404493437
 30
0.0
 10
47.56608885529598
 20
35.91580945282661
 30
0.0
 10
47.76142576930965
 20
36.14318575485309
 30
0.0
 10
47.95090602099839
 20
36.30200465672311
 30
0.0
 10
48.09973414596118
 20
36.38847655340288
 30
0.0
 10
48.17380369889405
 20
36.43257377561408
 30
0.0
 10
48.23753796537117
 20
36.45944552039903
 30
0.0
 10
48.28990341674697
 20
36.47494845008266
 30
0.0
 10
48.34261337767129
 20
36.49045137976628
 30
0.0
 10
48.38361001394577
 20
36.49561902299416
 30
0.0
 10
48.42288410247762
 20
36.49596353254267
 30
0.0
 10
48.47835013979014
 20
36.4949300038971
 30
0.0
 10
48.53553872484528
 20
36.48700628428103
 30
0.0
 10
48.62786728384998
 20
36.44635415755508
 30
0.0
 10
48.71950682375763
 20
36.40570203082913
 30
0.0
 10
48.84559731851777
 20
36.32784287286248
 30
0.0
 10
48.99993759625696
 20
36.18383788157904
 30
0.0
 10
49.17736001374733
 20
36.01537271235033
 30
0.0
 10
49.2803683687563
 20
35.84759656221865
 30
0.0
 10
49.35857203627147
 20
35.63021103709939
 30
0.0
 10
49.43470864649549
 20
35.41420355017423
 30
0.0
 10
49.47501626367291
 20
35.14410806413064
 30
0.0
 10
49.47467175412439
 20
34.82578124129356
 30
0.0
 10
49.47570528276997
 20
34.4140923308062
 30
0.0
 10
49.4057698444194
 20
33.93074543422565
 30
0.0
 10
49.30448403715305
 20
33.43120658886442
 30
0.0
  0
SPLINE
  5
47
330
1F
100
AcDbEntity
  8
Layer 1
370
     0
100
AcDbSpline
210
0.0
220
0.0
230
1.0
 70
    11
 71
     3
 72
    95
 73
    91
 74
     0
 42
0.0000000001
 43
0.0000000001
 40
0.0
 40
0.0
 40
0.0
 40
0.0
 40
1.0
 40
1.0
 40
1.0
 40
2.0
 40
2.0
 40
2.0
 40
3.0
 40
3.0
 40
3.0
 40
4.0
 40
4.0
 40
4.0
 40
5.0
 40
5.0
 40
5.0
 40
6.0
 40
6.0
 40
6.0
 40
7.0
 40
7.0
 40
7.0
 40
8.0
 40
8.0
 40
8.0
 40
9.0
 40
9.0
 40
9.0
 40
10.0
 40
10.0
 40
10.0
 40
11.0
 40
11.0
 40
11.0
 40
12.0
 40
12.0
 40
12.0
 40
13.0
 40
13.0
 40
13.0
 40
14.0
 40
14.0
 40
14.0
 40
15.0
 40
15.0
 40
15.0
 40
16.0
 40
16.0
 40
16.0
 40
17.0
 40
17.0
 40
17.0
 40
18.0
 40
18.0
 40
18.0
 40
19.0
 40
19.0
 40
19.0
 40
20.0
 40
20.0
 40
20.0
 40
21.0
 40
21.0
 40
21.0
 40
22.0
 40
22.0
 40
22.0
 40
23.0
 40
23.0
 40
23.0
 40
24.0
 40
24.0
 40
24.0
 40
25.0
 40
25.0
 40
25.0
 40
26.0
 40
26.0
 40
26.0
 40
27.0
 40
27.0
 40
27.0
 40
28.0
 40
28.0
 40
28.0
 40
29.0
 40
29.0
 40
29.0
 40
30.0
 40
30.0
 40
30.0
 40
30.0
 10
57.46384818441877
 20
33.00814886327574
 30
0.0
 10
57.46384818441877
 20
33.00814886327574
 30
0.0
 10
56.81031357086687
 20
32.11242403711078
 30
0.0
 10
56.81031357086687
 20
32.11242403711078
 30
0.0
 10
57.57994790227168
 20
31.55225151120916
 30
0.0
 10
58.61416556694368
 20
30.71095919371115
 30
0.0
 10
59.41101615268197
 20
29.80558810018749
 30
0.0
 10
59.80961370032538
 20
29.35462510116829
 30
0.0
 10
60.14723305787986
 20
28.88850368201399
 30
0.0
 10
60.36944171667847
 20
28.45786674635776
 30
0.0
 10
60.48106281040057
 20
28.24254827852964
 30
0.0
 10
60.56408961159509
 20
28.03756509715728
 30
0.0
 10
60.61748859161646
 20
27.84877386456559
 30
0.0
 10
60.67088757163783
 20
27.65998263197389
 30
0.0
 10
60.69534774958311
 20
27.48876138635698
 30
0.0
 10
60.69534774958311
 20
27.33476561816631
 30
0.0
 10
60.69534774958311
 20
27.31133896886661
 30
0.0
 10
60.69465873048606
 20
27.28791231956691
 30
0.0
 10
60.69328069229196
 20
27.26448567026721
 30
0.0
 10
60.69328069229196
 20
27.26448567026721
 30
0.0
 10
60.69362520184048
 20
27.26517468936426
 30
0.0
 10
60.69362520184048
 20
27.26517468936426
 30
0.0
 10
60.67536619576866
 20
26.88828124327793
 30
0.0
 10
60.62058917755319
 20
26.60233831800219
 30
0.0
 10
60.55375432513934
 20
26.40286728940623
 30
0.0
 10
60.50414495015175
 20
26.25231661670081
 30
0.0
 10
60.44936793193627
 20
26.15068629988594
 30
0.0
 10
60.40079208559425
 20
26.08143988063242
 30
0.0
 10
60.3642740734506
 20
26.02976344835367
 30
0.0
 10
60.3312011567922
 20
25.99496798395265
 30
0.0
 10
60.29812824013381
 20
25.96740722007065
 30
0.0
 10
60.24920788424325
 20
25.92709960289323
 30
0.0
 10
60.19959850925566
 20
25.89953883901123
 30
0.0
 10
60.12242837038606
 20
25.8743896419689
 30
0.0
 10
60.04560274106499
 20
25.84992946402363
 30
0.0
 10
59.93949380011929
 20
25.83201496750033
 30
0.0
 10
59.79962292341816
 20
25.83201496750033
 30
0.0
 10
59.62461207276746
 20
25.83167045795181
 30
0.0
 10
59.39826929938655
 20
25.86164278867348
 30
0.0
 10
59.14023164754133
 20
25.92882215063585
 30
0.0
 10
58.68789061032803
 20
26.04561088758582
 30
0.0
 10
58.14287650456151
 20
26.27539875645198
 30
0.0
 10
57.58442652640251
 20
26.57960068779954
 30
0.0
 10
56.74520126619565
 20
27.03504231094957
 30
0.0
 10
55.87324759887891
 20
27.65343695055192
 30
0.0
 10
55.14598794194267
 20
28.25770669866474
 30
0.0
 10
54.78218585870029
 20
28.55949706317263
 30
0.0
 10
54.45386825895598
 20
28.85749782264674
 30
0.0
 10
54.18308375381535
 20
29.12655978004475
 30
0.0
 10
53.91298826777176
 20
29.39424369924866
 30
0.0
 10
53.69904783813774
 20
29.63643391186173
 30
0.0
 10
53.57536891021727
 20
29.80214300470224
 30
0.0
 10
53.35005966548193
 20
30.0994547450793
 30
0.0
 10
53.14025335043021
 20
30.50046385956238
 30
0.0
 10
52.9593858374546
 20
30.94419215806256
 30
0.0
 10
52.77748479583341
 20
31.38792045656274
 30
0.0
 10
52.62245549899717
 20
31.87195637224034
 30
0.0
 10
52.48155109365045
 20
32.33704426274907
 30
0.0
 10
52.37923175773853
 20
32.67156303436683
 30
0.0
 10
52.34650335062865
 20
32.9206434379504
 30
0.0
 10
52.34684786017718
 20
33.07636175388369
 30
0.0
 10
52.3471923697257
 20
33.21829968787598
 30
0.0
 10
52.3706190190254
 20
33.27824434931933
 30
0.0
 10
52.37819822909295
 20
33.29546982674558
 30
0.0
 10
52.37819822909295
 20
33.29546982674558
 30
0.0
 10
52.38543292961198
 20
33.30718315139543
 30
0.0
 10
52.38543292961198
 20
33.30718315139543
 30
0.0
 10
52.38784449645165
 20
33.30925020868658
 30
0.0
 10
52.39507919697068
 20
33.31579589010855
 30
0.0
 10
52.41540526033365
 20
33.32682019566136
 30
0.0
 10
52.44537759105533
 20
33.34335665399055
 30
0.0
 10
52.50635578114424
 20
33.36816134148435
 30
0.0
 10
52.60144041653714
 20
33.38710936665323
 30
0.0
 10
52.69618054238151
 20
33.40640190137062
 30
0.0
 10
52.82296005623871
 20
33.41880424511752
 30
0.0
 10
52.9717881812015
 20
33.41880424511752
 30
0.0
 10
53.24601778182738
 20
33.41949326421457
 30
0.0
 10
53.59362791628909
 20
33.37608506110043
 30
0.0
 10
53.9619086236623
 20
33.2944362981
 30
0.0
 10
54.5148464490449
 20
33.17282442747069
 30
0.0
 10
55.116015611221
 20
32.96680771745275
 30
0.0
 10
55.63519150084815
 20
32.74218749181446
 30
0.0
 10
55.89495170043599
 20
32.62987737899531
 30
0.0
 10
56.13473034620937
 20
32.51343315159387
 30
0.0
 10
56.33764647029059
 20
32.40319009606587
 30
0.0
 10
56.54021808482328
 20
32.29363605963493
 30
0.0
 10
56.70661619676085
 20
32.1885606473348
 30
0.0
 10
56.81031357086687
 20
32.11276854665931
 30
0.0
 10
56.81031357086687
 20
32.11276854665931
 30
0.0
 10
57.46384818441877
 20
33.00814886327574
 30
0.0
 10
57.46384818441877
 20
33.00814886327574
 30
0.0
  0
HATCH
  5
48
330
1F
100
AcDbEntity
  8
Layer 1
 62
    30
420
 16352540
100
AcDbHatch
 10
0.0
 20
0.0
 30
0.0
210
0.0
220
0.0
230
1.0
  2
SOLID
 70
     1
 71
     0
 91
       12
 92
        1
 93
        1
 72
     4
 94
        3
 73
     0
 74
     1
 95
      911
 96
      907
 40
0.0
 40
0.0
 40
0.0
 40
0.0
 40
1.0
 40
1.0
 40
1.0
 40
2.0
 40
2.0
 40
2.0
 40
3.0
 40
3.0
 40
3.0
 40
4.0
 40
4.0
 40
4.0
 40
5.0
 40
5.0
 40
5.0
 40
6.0
 40
6.0
 40
6.0
 40
7.0
 40
7.0
 40
7.0
 40
8.0
 40
8.0
 40
8.0
 40
9.0
 40
9.0
 40
9.0
 40
10.0
 40
10.0
 40
10.0
 40
11.0
 40
11.0
 40
11.0
 40
12.0
 40
12.0
 40
12.0
 40
13.0
 40
13.0
 40
13.0
 40
14.0
 40
14.0
 40
14.0
 40
15.0
 40
15.0
 40
15.0
 40
16.0
 40
16.0
 40
16.0
 40
17.0
 40
17.0
 40
17.0
 40
18.0
 40
18.0
 40
18.0
 40
19.0
 40
19.0
 40
19.0
 40
20.0
 40
20.0
 40
20.0
 40
21.0
 40
21.0
 40
21.0
 40
22.0
 40
22.0
 40
22.0
 40
23.0
 40
23.0
 40
23.0
 40
24.0
 40
24.0
 40
24.0
 40
25.0
 40
25.0
 40
25.0
 40
26.0
 40
26.0
 40
26.0
 40
27.0
 40
27.0
 40
27.0
 40
28.0
 40
28.0
 40
28.0
 40
29.0
 40
29.0
 40
29.0
 40
30.0
 40
30.0
 40
30.0
 40
31.0
 40
31.0
 40
31.0
 40
32.0
 40
32.0
 40
32.0
 40
33.0
 40
33.0
 40
33.0
 40
34.0
 40
34.0
 40
34.0
 40
35.0
 40
35.0
 40
35.0
 40
36.0
 40
36.0
 40
36.0
 40
37.0
 40
37.0
 40
37.0
 40
38.0
 40
38.0
 40
38.0
 40
39.0
 40
39.0
 40
39.0
 40
40.0
 40
40.0
 40
40.0
 40
41.0
 40
41.0
 40
41.0
 40
42.0
 40
42.0
 40
42.0
 40
43.0
 40
43.0
 40
43.0
 40
44.0
 40
44.0
 40
44.0
 40
45.0
 40
45.0
 40
45.0
 40
46.0
 40
46.0
 40
46.0
 40
47.0
 40
47.0
 40
47.0
 40
48.0
 40
48.0
 40
48.0
 40
49.0
 40
49.0
 40
49.0
 40
50.0
 40
50.0
 40
50.0
 40
51.0
 40
51.0
 40
51.0
 40
52.0
 40
52.0
 40
52.0
 40
53.0
 40
53.0
 40
53.0
 40
54.0
 40
54.0
 40
54.0
 40
55.0
 40
55.0
 40
55.0
 40
56.0
 40
56.0
 40
56.0
 40
57.0
 40
57.0
 40
57.0
 40
58.0
 40
58.0
 40
58.0
 40
59.0
 40
59.0
 40
59.0
 40
60.0
 40
60.0
 40
60.0
 40
61.0
 40
61.0
 40
61.0
 40
62.0
 40
62.0
 40
62.0
 40
63.0
 40
63.0
 40
63.0
 40
64.0
 40
64.0
 40
64.0
 40
65.0
 40
65.0
 40
65.0
 40
66.0
 40
66.0
 40
66.0
 40
67.0
 40
67.0
 40
67.0
 40
68.0
 40
68.0
 40
68.0
 40
69.0
 40
69.0
 40
69.0
 40
70.0
 40
70.0
 40
70.0
 40
71.0
 40
71.0
 40
71.0
 40
72.0
 40
72.0
 40
72.0
 40
73.0
 40
73.0
 40
73.0
 40
74.0
 40
74.0
 40
74.0
 40
75.0
 40
75.0
 40
75.0
 40
76.0
 40
76.0
 40
76.0
 40
77.0
 40
77.0
 40
77.0
 40
78.0
 40
78.0
 40
78.0
 40
79.0
 40
79.0
 40
79.0
 40
80.0
 40
80.0
 40
80.0
 40
81.0
 40
81.0
 40
81.0
 40
82.0
 40
82.0
 40
82.0
 40
83.0
 40
83.0
 40
83.0
 40
84.0
 40
84.0
 40
84.0
 40
85.0
 40
85.0
 40
85.0
 40
86.0
 40
86.0
 40
86.0
 40
87.0
 40
87.0
 40
87.0
 40
88.0
 40
88.0
 40
88.0
 40
89.0
 40
89.0
 40
89.0
 40
90.0
 40
90.0
 40
90.0
 40
91.0
 40
91.0
 40
91.0
 40
92.0
 40
92.0
 40
92.0
 40
93.0
 40
93.0
 40
93.0
 40
94.0
 40
94.0
 40
94.0
 40
95.0
 40
95.0
 40
95.0
 40
96.0
 40
96.0
 40
96.0
 40
97.0
 40
97.0
 40
97.0
 40
98.0
 40
98.0
 40
98.0
 40
99.0
 40
99.0
 40
99.0
 40
100.0
 40
100.0
 40
100.0
 40
101.0
 40
101.0
 40
101.0
 40
102.0
 40
102.0
 40
102.0
 40
103.0
 40
103.0
 40
103.0
 40
104.0
 40
104.0
 40
104.0
 40
105.0
 40
105.0
 40
105.0
 40
106.0
 40
106.0
 40
106.0
 40
107.0
 40
107.0
 40
107.0
 40
108.0
 40
108.0
 40
108.0
 40
109.0
 40
109.0
 40
109.0
 40
110.0
 40
110.0
 40
110.0
 40
111.0
 40
111.0
 40
111.0
 40
112.0
 40
112.0
 40
112.0
 40
113.0
 40
113.0
 40
113.0
 40
114.0
 40
114.0
 40
114.0
 40
115.0
 40
115.0
 40
115.0
 40
116.0
 40
116.0
 40
116.0
 40
117.0
 40
117.0
 40
117.0
 40
118.0
 40
118.0
 40
118.0
 40
119.0
 40
119.0
 40
119.0
 40
120.0
 40
120.0
 40
120.0
 40
121.0
 40
121.0
 40
121.0
 40
122.0
 40
122.0
 40
122.0
 40
123.0
 40
123.0
 40
123.0
 40
124.0
 40
124.0
 40
124.0
 40
125.0
 40
125.0
 40
125.0
 40
126.0
 40
126.0
 40
126.0
 40
127.0
 40
127.0
 40
127.0
 40
128.0
 40
128.0
 40
128.0
 40
129.0
 40
129.0
 40
129.0
 40
130.0
 40
130.0
 40
130.0
 40
131.0
 40
131.0
 40
131.0
 40
132.0
 40
132.0
 40
132.0
 40
133.0
 40
133.0
 40
133.0
 40
134.0
 40
134.0
 40
134.0
 40
135.0
 40
135.0
 40
135.0
 40
136.0
 40
136.0
 40
136.0
 40
137.0
 40
137.0
 40
137.0
 40
138.0
 40
138.0
 40
138.0
 40
139.0
 40
139.0
 40
139.0
 40
140.0
 40
140.0
 40
140.0
 40
141.0
 40
141.0
 40
141.0
 40
142.0
 40
142.0
 40
142.0
 40
143.0
 40
143.0
 40
143.0
 40
144.0
 40
144.0
 40
144.0
 40
145.0
 40
145.0
 40
145.0
 40
146.0
 40
146.0
 40
146.0
 40
147.0
 40
147.0
 40
147.0
 40
148.0
 40
148.0
 40
148.0
 40
149.0
 40
149.0
 40
149.0
 40
150.0
 40
150.0
 40
150.0
 40
151.0
 40
151.0
 40
151.0
 40
152.0
 40
152.0
 40
152.0
 40
153.0
 40
153.0
 40
153.0
 40
154.0
 40
154.0
 40
154.0
 40
155.0
 40
155.0
 40
155.0
 40
156.0
 40
156.0
 40
156.0
 40
157.0
 40
157.0
 40
157.0
 40
158.0
 40
158.0
 40
158.0
 40
159.0
 40
159.0
 40
159.0
 40
160.0
 40
160.0
 40
160.0
 40
161.0
 40
161.0
 40
161.0
 40
162.0
 40
162.0
 40
162.0
 40
163.0
 40
163.0
 40
163.0
 40
164.0
 40
164.0
 40
164.0
 40
165.0
 40
165.0
 40
165.0
 40
166.0
 40
166.0
 40
166.0
 40
167.0
 40
167.0
 40
167.0
 40
168.0
 40
168.0
 40
168.0
 40
169.0
 40
169.0
 40
169.0
 40
170.0
 40
170.0
 40
170.0
 40
171.0
 40
171.0
 40
171.0
 40
172.0
 40
172.0
 40
172.0
 40
173.0
 40
173.0
 40
173.0
 40
174.0
 40
174.0
 40
174.0
 40
175.0
 40
175.0
 40
175.0
 40
176.0
 40
176.0
 40
176.0
 40
177.0
 40
177.0
 40
177.0
 40
178.0
 40
178.0
 40
178.0
 40
179.0
 40
179.0
 40
179.0
 40
180.0
 40
180.0
 40
180.0
 40
181.0
 40
181.0
 40
181.0
 40
182.0
 40
182.0
 40
182.0
 40
183.0
 40
183.0
 40
183.0
 40
184.0
 40
184.0
 40
184.0
 40
185.0
 40
185.0
 40
185.0
 40
186.0
 40
186.0
 40
186.0
 40
187.0
 40
187.0
 40
187.0
 40
188.0
 40
188.0
 40
188.0
 40
189.0
 40
189.0
 40
189.0
 40
190.0
 40
190.0
 40
190.0
 40
191.0
 40
191.0
 40
191.0
 40
192.0
 40
192.0
 40
192.0
 40
193.0
 40
193.0
 40
193.0
 40
194.0
 40
194.0
 40
194.0
 40
195.0
 40
195.0
 40
195.0
 40
196.0
 40
196.0
 40
196.0
 40
197.0
 40
197.0
 40
197.0
 40
198.0
 40
198.0
 40
198.0
 40
199.0
 40
199.0
 40
199.0
 40
200.0
 40
200.0
 40
200.0
 40
201.0
 40
201.0
 40
201.0
 40
202.0
 40
202.0
 40
202.0
 40
203.0
 40
203.0
 40
203.0
 40
204.0
 40
204.0
 40
204.0
 40
205.0
 40
205.0
 40
205.0
 40
206.0
 40
206.0
 40
206.0
 40
207.0
 40
207.0
 40
207.0
 40
208.0
 40
208.0
 40
208.0
 40
209.0
 40
209.0
 40
209.0
 40
210.0
 40
210.0
 40
210.0
 40
211.0
 40
211.0
 40
211.0
 40
212.0
 40
212.0
 40
212.0
 40
213.0
 40
213.0
 40
213.0
 40
214.0
 40
214.0
 40
214.0
 40
215.0
 40
215.0
 40
215.0
 40
216.0
 40
216.0
 40
216.0
 40
217.0
 40
217.0
 40
217.0
 40
218.0
 40
218.0
 40
218.0
 40
219.0
 40
219.0
 40
219.0
 40
220.0
 40
220.0
 40
220.0
 40
221.0
 40
221.0
 40
221.0
 40
222.0
 40
222.0
 40
222.0
 40
223.0
 40
223.0
 40
223.0
 40
224.0
 40
224.0
 40
224.0
 40
225.0
 40
225.0
 40
225.0
 40
226.0
 40
226.0
 40
226.0
 40
227.0
 40
227.0
 40
227.0
 40
228.0
 40
228.0
 40
228.0
 40
229.0
 40
229.0
 40
229.0
 40
230.0
 40
230.0
 40
230.0
 40
231.0
 40
231.0
 40
231.0
 40
232.0
 40
232.0
 40
232.0
 40
233.0
 40
233.0
 40
233.0
 40
234.0
 40
234.0
 40
234.0
 40
235.0
 40
235.0
 40
235.0
 40
236.0
 40
236.0
 40
236.0
 40
237.0
 40
237.0
 40
237.0
 40
238.0
 40
238.0
 40
238.0
 40
239.0
 40
239.0
 40
239.0
 40
240.0
 40
240.0
 40
240.0
 40
241.0
 40
241.0
 40
241.0
 40
242.0
 40
242.0
 40
242.0
 40
243.0
 40
243.0
 40
243.0
 40
244.0
 40
244.0
 40
244.0
 40
245.0
 40
245.0
 40
245.0
 40
246.0
 40
246.0
 40
246.0
 40
247.0
 40
247.0
 40
247.0
 40
248.0
 40
248.0
 40
248.0
 40
249.0
 40
249.0
 40
249.0
 40
250.0
 40
250.0
 40
250.0
 40
251.0
 40
251.0
 40
251.0
 40
252.0
 40
252.0
 40
252.0
 40
253.0
 40
253.0
 40
253.0
 40
254.0
 40
254.0
 40
254.0
 40
255.0
 40
255.0
 40
255.0
 40
256.0
 40
256.0
 40
256.0
 40
257.0
 40
257.0
 40
257.0
 40
258.0
 40
258.0
 40
258.0
 40
259.0
 40
259.0
 40
259.0
 40
260.0
 40
260.0
 40
260.0
 40
261.0
 40
261.0
 40
261.0
 40
262.0
 40
262.0
 40
262.0
 40
263.0
 40
263.0
 40
263.0
 40
264.0
 40
264.0
 40
264.0
 40
265.0
 40
265.0
 40
265.0
 40
266.0
 40
266.0
 40
266.0
 40
267.0
 40
267.0
 40
267.0
 40
268.0
 40
268.0
 40
268.0
 40
269.0
 40
269.0
 40
269.0
 40
270.0
 40
270.0
 40
270.0
 40
271.0
 40
271.0
 40
271.0
 40
272.0
 40
272.0
 40
272.0
 40
273.0
 40
273.0
 40
273.0
 40
274.0
 40
274.0
 40
274.0
 40
275.0
 40
275.0
 40
275.0
 40
276.0
 40
276.0
 40
276.0
 40
277.0
 40
277.0
 40
277.0
 40
278.0
 40
278.0
 40
278.0
 40
279.0
 40
279.0
 40
279.0
 40
280.0
 40
280.0
 40
280.0
 40
281.0
 40
281.0
 40
281.0
 40
282.0
 40
282.0
 40
282.0
 40
283.0
 40
283.0
 40
283.0
 40
284.0
 40
284.0
 40
284.0
 40
285.0
 40
285.0
 40
285.0
 40
286.0
 40
286.0
 40
286.0
 40
287.0
 40
287.0
 40
287.0
 40
288.0
 40
288.0
 40
288.0
 40
289.0
 40
289.0
 40
289.0
 40
290.0
 40
290.0
 40
290.0
 40
291.0
 40
291.0
 40
291.0
 40
292.0
 40
292.0
 40
292.0
 40
293.0
 40
293.0
 40
293.0
 40
294.0
 40
294.0
 40
294.0
 40
295.0
 40
295.0
 40
295.0
 40
296.0
 40
296.0
 40
296.0
 40
297.0
 40
297.0
 40
297.0
 40
298.0
 40
298.0
 40
298.0
 40
299.0
 40
299.0
 40
299.0
 40
300.0
 40
300.0
 40
300.0
 40
301.0
 40
301.0
 40
301.0
 40
302.0
 40
302.0
 40
302.0
 40
302.0
 10
64.42087400733229
 20
43.49467501082772
 10
65.77376300438989
 20
45.06736109984427
 10
71.36584199604744
 20
48.38636609033396
 10
68.17258299076936
 20
50.45204534328977
 10
65.8288845321539
 20
51.9678873567997
 10
60.44764538419365
 20
49.44125432791747
 10
58.41056042376542
 20
48.12247177616383
 10
59.21120061453748
 20
49.81056856393625
 10
59.70281574028263
 20
51.46800400188994
 10
60.26643336166951
 20
53.18262802489879
 10
61.01195202467757
 20
55.4517401662586
 10
63.50482311780435
 20
61.59572345465315
 10
59.50920137401159
 20
61.29548338311363
 10
55.05744898797175
 20
60.96113686627014
 10
50.89163952720765
 20
55.15270587813891
 10
48.75016817357635
 20
51.83318412332643
 10
46.73823241019044
 20
48.71399467098123
 10
44.33734536651983
 20
45.22583549216576
 10
45.61271971515932
 20
41.52959254604121
 10
45.89211695901309
 20
40.72068412610455
 10
46.22904729747052
 20
39.99618054555651
 10
46.61524250136703
 20
39.34574651794134
 10
45.14177516232567
 20
39.0832302419653
 10
43.71137151684994
 20
38.79108614481612
 10
42.3939670032904
 20
38.5426947603296
 10
38.76421440003117
 20
37.85712075876489
 10
35.04230549254151
 20
37.02823078501378
 10
31.50298664577009
 20
35.52513562479928
 10
29.62334254901778
 20
34.72621798176984
 10
27.7710869613732
 20
33.92936739603155
 10
25.95517713109801
 20
33.01607258289182
 10
25.85940347660807
 20
32.96784124609832
 10
25.76414658644091
 20
32.91788736156219
 10
25.6682006771767
 20
32.86896700567165
 10
27.22710638425225
 20
34.26629773448898
 10
28.83579372108967
 20
35.63606769942432
 10
30.48048230574794
 20
37.0092827598449
 10
33.11735839015816
 20
39.21173230356512
 10
35.77645534044825
 20
41.58436956425669
 10
37.9732204766178
 20
44.33768987606836
 10
39.07117240776693
 20
45.71435003197419
 10
40.05336913061166
 20
47.18816188056407
 10
40.850908735447
 20
48.7825520711377
 10
41.64879284983086
 20
50.37694226171132
 10
42.26167533665681
 20
52.09311657768853
 10
42.61996526712279
 20
53.94416638191327
 10
42.91589896930575
 20
55.4718939748473
 10
43.07023924704495
 20
57.13156872486642
 10
43.07058375659346
 20
58.83758000916214
 10
43.07023924704495
 20
59.88661158442071
 10
43.00857203785897
 20
60.95269638233128
 10
42.88696016722965
 20
62.01585284907937
 10
43.08608668627709
 20
61.99862737165312
 10
43.29658202042586
 20
61.98949786861721
 10
43.52258028425825
 20
61.9872585565518
 10
43.52258028425825
 20
61.9872585565518
 10
43.5232693033553
 20
61.9872585565518
 10
43.5232693033553
 20
61.9872585565518
 10
43.56116535369304
 20
61.98691404700327
 10
43.59906140403079
 20
61.98674179222901
 10
43.63764647346559
 20
61.98674179222901
 10
44.86272242802043
 20
61.9872585565518
 10
46.21044378185017
 20
62.1548624519092
 10
47.58193629452813
 20
62.48180201345941
 10
49.63796928012523
 20
62.97410615830162
 10
51.74533418845256
 20
63.82108288335029
 10
53.51680228696802
 20
65.06407333442843
 10
54.40150280758018
 20
65.68660208861307
 10
55.20248750790077
 20
66.41076115961259
 10
55.85705565009824
 20
67.24964191027092
 10
56.51127928274718
 20
68.08766138705795
 10
57.01770831907891
 20
69.04522567718314
 10
57.2905598815107
 20
70.10838214393124
 10
57.2905598815107
 20
70.10838214393124
 10
57.2905598815107
 20
70.10872665347976
 10
57.2905598815107
 20
70.10872665347976
 10
57.37530923044784
 20
70.43721650799834
 10
57.42285154814429
 20
70.75433754741559
 10
57.42354056724134
 20
71.07008054863873
 10
57.42388507678987
 20
71.4343993962039
 10
57.35601669573045
 20
71.80388588699695
 10
57.19306367927813
 20
72.14098848022864
 10
57.07248533729438
 20
72.39299721497467
 10
56.89919703438631
 20
72.62002900745263
 10
56.6976589484992
 20
72.79865720836284
 10
56.54676376624526
 20
72.9333604418361
 10
56.38208820205031
 20
73.04153644007295
 10
56.21431205191865
 20
73.12663029855862
 10
55.96178655284984
 20
73.25427108628713
 10
55.70305988190757
 20
73.33178573470525
 10
55.44605575870794
 20
73.37984481672449
 10
55.18870712595977
 20
73.4275593891952
 10
54.93204751230866
 20
73.44599065004128
 10
54.67263182226935
 20
73.44633515958981
 10
53.99739310716038
 20
73.44461261184718
 10
53.30010578094581
 20
73.3228284864436
 10
52.59041611098434
 20
73.14557832372749
 10
51.52898219197887
 20
72.87789440452359
 10
50.44653319051337
 20
72.4768852900405
 10
49.51739093814149
 20
72.08190509265661
 10
49.05299206672981
 20
71.88415661180326
 10
48.62786728384998
 20
71.68795842391829
 10
48.26509872925318
 20
71.50864120391104
 10
47.90095213646227
 20
71.32863496480674
 10
47.60295137698815
 20
71.16878253429114
 10
47.37109645083084
 20
71.02891165759
 10
45.65612791827347
 20
69.9905598783357
 10
44.00351561399912
 20
68.65472410393008
 10
42.61169703795819
 20
67.23982338813796
 10
42.3843207359317
 20
67.00796846198065
 10
42.16107854848751
 20
66.7762857905976
 10
41.94851615704759
 20
66.54322508102045
 10
41.38765461204892
 20
68.33519149767315
 10
40.60217284141196
 20
70.02432181409114
 10
39.54521754653731
 20
71.48366426164297
 10
39.34781357523249
 20
71.82180038352024
 10
39.19243976884773
 20
72.17578394462967
 10
39.07392848415513
 20
72.54372014245435
 10
38.88513725156344
 20
73.13334823475486
 10
38.79384222120432
 20
73.75932208442475
 10
38.7934977116558
 20
74.40321043061795
 10
38.79143065436465
 20
75.79967988556398
 10
39.23240287647663
 20
77.2810709442214
 10
40.00272622697849
 20
78.56057940744319
 10
40.7709825201892
 20
79.8418104184076
 10
41.8616997508193
 20
80.91116805702916
 10
43.09538844408726
 20
81.53438583031085
 10
43.62800020610689
 20
81.80534259022575
 10
44.32253145593326
 20
82.04305417870799
 10
45.08424206772199
 20
82.20600719516031
 10
45.84595267951074
 20
82.36982148548394
 10
46.67518716281037
 20
82.46094426106879
 10
47.48340656364999
 20
82.46059975152028
 10
48.15347763553108
 20
82.46077200629453
 10
48.80907930637412
 20
82.39807126846299
 10
49.39887965344889
 20
82.27094724505727
 10
49.8415744233035
 20
82.17603486443863
 10
50.24637314282035
 20
82.04477672645062
 10
50.59363876773354
 20
81.88337400296666
 10
50.85477700551547
 20
81.76245115143439
 10
51.08318683618754
 20
81.62499184157292
 10
51.27645669291005
 20
81.47547469751308
 10
51.56618922321957
 20
81.24964868845495
 10
51.7749620096257
 20
81.00229083261401
 10
51.92034503910325
 20
80.71565888824122
 10
51.98924694880824
 20
80.57768281405697
 10
52.04505749566929
 20
80.42868243431991
 10
52.08467609374966
 20
80.26245657715661
 10
52.07296276909982
 20
80.17030027292618
 10
52.06607257812932
 20
80.07745494959869
 10
52.06607257812932
 20
79.98495413581973
 10
52.06607257812932
 20
79.78341604993263
 10
52.09397785155984
 20
79.5865288429506
 10
52.14220918835334
 20
79.39463702442218
 10
52.11223685763166
 20
78.99948457226402
 10
52.01301810765647
 20
78.53267413401267
 10
51.81216904086641
 20
77.98731551869761
 10
51.81216904086641
 20
77.98731551869761
 10
53.42654078525448
 20
77.39355331181481
 10
53.42654078525448
 20
77.39355331181481
 10
53.52162542064737
 20
77.30983749152324
 10
53.61843260378289
 20
77.23008353103971
 10
53.71627331556399
 20
77.15808103539798
 10
54.11073674862509
 20
76.86834850508848
 10
54.51105684401113
 20
76.66698267397562
 10
54.87933755138433
 20
76.49731172132707
 10
55.24796276830607
 20
76.32832978777556
 10
55.58696016405465
 20
76.18932018494573
 10
55.87014701294219
 20
76.04962156301885
 10
56.65872936951587
 20
75.6622205757025
 10
57.57684731633496
 20
75.31133760052981
 10
58.56455619195609
 20
75.05261092958754
 10
59.55192055802869
 20
74.79457327774233
 10
60.60784232425777
 20
74.62834742057903
 10
61.67203231965144
 20
74.62783065625624
 10
62.45820310938545
 20
74.6280029110305
 10
63.24988605189586
 20
74.71912568661536
 10
64.01641979736395
 20
74.94288463838234
 10
64.78157550463794
 20
75.1662990806008
 10
65.52330456261224
 20
75.52613930403514
 10
66.17821721435823
 20
76.05599498966656
 10
66.5888725962
 20
76.38861895876744
 10
66.91856823413842
 20
76.74897594652457
 10
67.15352374623245
 20
77.15687525197815
 10
67.27100150227947
 20
77.36030814038214
 10
67.36298555173565
 20
77.57528209866175
 10
67.42499727047014
 20
77.79714624791183
 10
67.48700898920464
 20
78.0186658876134
 10
67.51767033902337
 20
78.24673120873693
 10
67.51767033902337
 20
78.46997339618112
 10
67.51767033902337
 20
78.7938123717946
 10
67.45290254390066
 20
79.10455998456415
 10
67.34679360295497
 20
79.38361271886937
 10
67.15938040855738
 20
79.87384980642042
 10
66.85965710134064
 20
80.26900225857858
 10
66.5254828392714
 20
80.60524357793896
 10
66.02008733158526
 20
81.10788300923693
 10
65.42064071715178
 20
81.49132213674523
 10
64.81464842129634
 20
81.79759112538395
 10
64.20727808724679
 20
82.1017930567315
 10
63.596462657712
 20
82.32348495120733
 10
63.0435248323294
 20
82.4549153439696
 10
62.93776040093223
 20
82.4797200314634
 10
62.82579479766161
 20
82.50159638779475
 10
62.69694822651326
 20
82.52398950844886
 10
62.25080836117341
 20
82.6009873925442
 10
61.60175237175234
 20
82.6822916459961
 10
60.82522784937703
 20
82.74723169589306
 10
60.05042587474434
 20
82.81199949101575
 10
59.15504555812791
 20
82.85868053484089
 10
58.24140623543965
 20
82.85868053484089
 10
57.58856064098481
 20
82.85868053484089
 10
56.92606877917126
 20
82.83490937599267
 10
56.28872611440004
 20
82.77427569545227
 10
55.81020235149884
 20
82.72845592549845
 10
55.34545897053864
 20
82.66231009218164
 10
54.90448674842666
 20
82.56601967336891
 10
54.57341307229415
 20
82.49332815863015
 10
54.25508624945707
 20
82.40427244033644
 10
53.95157333720655
 20
82.2886894868063
 10
53.84615341535791
 20
82.24855412440314
 10
53.74314506034894
 20
82.20411239264342
 10
53.64151474353407
 20
82.1569145844955
 10
53.50164386683292
 20
82.36689315432147
 10
53.34489202225406
 20
82.56291908743219
 10
53.17435979573419
 20
82.74189179789091
 10
53.01554089386417
 20
82.90897892892554
 10
52.84431964824726
 20
83.06039087550226
 10
52.66586370211132
 20
83.20129528084898
 10
53.3648735760685
 20
83.39714895918544
 10
54.06078286408897
 20
83.65518661103066
 10
54.72396374499957
 20
83.9612833448951
 10
55.62692327168355
 20
84.37934568203016
 10
56.46683755098746
 20
84.88267413242517
 10
57.16584742494465
 20
85.46196693826992
 10
57.50174423475651
 20
85.74136418212369
 10
57.89586315826909
 20
86.10551077491459
 10
58.30893010695055
 20
86.53425290805394
 10
58.92766925610142
 20
87.17779674469861
 10
59.58602700333266
 20
87.96000567462458
 10
60.11588268896408
 20
88.81438935496655
 10
60.3808105317798
 20
89.24244246900884
 10
60.61369898658269
 20
89.68909909867148
 10
60.78733179903928
 20
90.15814884898825
 10
60.96027559239882
 20
90.62650958020797
 10
61.07740883889732
 20
91.12053627279279
 10
61.07809785799436
 20
91.64384627700224
 10
61.07809785799436
 20
91.89671628561958
 10
61.04984807501532
 20
92.15630423043315
 10
60.98301322260147
 20
92.4141696275041
 10
60.886895058563
 20
92.7857231755883
 10
60.74943574870153
 20
93.1278211572736
 10
60.56271157340099
 20
93.4337456363638
 10
60.42318520624837
 20
93.6628444861329
 10
60.25506454656818
 20
93.87058374389348
 10
60.06351723758829
 20
94.0481784161581
 10
59.77654078366698
 20
94.31517331626496
 10
59.4375433879184
 20
94.50895993731027
 10
59.09096678210226
 20
94.62574867426024
 10
58.74370115718908
 20
94.74374319463004
 10
58.39126788904802
 20
94.78921845503534
 10
58.05054794555681
 20
94.7893907098096
 10
57.45247936931744
 20
94.78766816206698
 10
56.88231606650859
 20
94.65434296678781
 10
56.33420137480534
 20
94.46451820555055
 10
55.51392413976735
 20
94.17668047775791
 10
54.73843314603761
 20
93.75190020442662
 10
54.06319443092865
 20
93.31454533257414
 10
53.72626409247121
 20
93.09560951448651
 10
53.41551647970168
 20
92.87305634613938
 10
53.14094236952727
 20
92.66014944515094
 10
52.86567924025581
 20
92.44672577983971
 10
52.62762314222504
 20
92.24415416530702
 10
52.42918564227465
 20
92.0563964613609
 10
52.16219074216779
 20
91.80318194319504
 10
51.73120929696303
 20
91.39993351664656
 10
51.23993868076641
 20
90.90986868386976
 10
50.50096569918032
 20
90.17261825002629
 10
49.62212184089308
 20
89.24020315694342
 10
48.89692924124799
 20
88.25266653609656
 10
48.53484970574824
 20
87.75708955054337
 10
48.20928818239212
 20
87.24773218304918
 10
47.95986326926003
 20
86.7185655165148
 10
47.83549532224252
 20
86.45363767369909
 10
47.73007540039387
 20
86.18285316855845
 10
47.6532497710728
 20
85.90104435786502
 10
47.5760796322032
 20
85.61975231149437
 10
47.52750378586119
 20
85.32623017615109
 10
47.52715927631266
 20
85.01806638499549
 10
47.52681476676413
 20
84.90627303649913
 10
47.53680554367136
 20
84.79189586638884
 10
47.55127494470941
 20
84.67700193195576
 10
47.52888182405528
 20
84.67700193195576
 10
47.50614419385263
 20
84.67837997014985
 10
47.48340656364999
 20
84.67837997014985
 10
46.51085610816396
 20
84.67820771537559
 10
45.53589408583825
 20
84.57106524578433
 10
44.61846515811622
 20
84.37435029357655
 10
43.70103623039419
 20
84.17677406749748
 10
42.84148490682436
 20
83.8915201613188
 10
42.09252114833104
 20
83.51273191271557
 10
41.68289929513483
 20
83.30447589063222
 10
41.29188095755897
 20
83.06452499008456
 10
40.92015515470052
 20
82.79770234475197
 10
42.93346895628052
 20
84.91867538024603
 10
44.3990125757058
 20
88.48176538586567
 10
44.95091687244282
 20
91.30433211693087
 10
45.5159125320238
 20
94.19028860492466
 10
46.62626680691982
 20
99.91121416773053
 10
42.38225367864055
 20
99.46851939787594
 10
39.25135090164549
 20
99.14226885542277
 10
32.81608478997306
 20
93.52021753304356
 10
33.20830891096876
 20
90.0871798819921
 10
32.3043158556392
 20
92.76177976196581
 10
28.60772839996612
 20
103.1377183444413
 10
24.64828015876849
 20
101.406385608329
 10
21.41729735792693
 20
99.99337969505375
 10
22.47494167189863
 20
90.8862697797958
 10
22.90643988142617
 20
88.12760956998198
 10
21.86137016597563
 20
88.42991669881266
 10
20.62905951090177
 20
88.91722545520125
 10
19.52611219129903
 20
89.32874211091435
 10
17.57291530593663
 20
90.05703529649617
 10
9.63765461998642
 20
94.31413978761938
 10
8.62910291667953
 20
91.09073619684537
 10
8.074270288780044
 20
89.3087605570999
 10
12.31914469093063
 20
85.47609182975945
 10
13.55386691284417
 20
84.37211098151114
 10
16.08308376334034
 20
82.1100612858961
 10
18.84174397315415
 20
80.19148761016046
 10
22.09615342329541
 20
79.13522133438286
 10
22.28063828653054
 20
79.07510441816525
 10
22.46460638544288
 20
79.01808808788437
 10
22.64840222958096
 20
78.96227754102333
 10
22.29700249008547
 20
78.95797117166676
 10
21.9464640244613
 20
78.94884166863085
 10
21.59782036135402
 20
78.93058266255902
 10
19.36970485626869
 20
78.81155461354365
 10
16.87735052746469
 20
78.41209579202892
 10
14.58860134183896
 20
77.45642630442062
 10
13.44500189551028
 20
76.97790254151941
 10
12.35152858849198
 20
76.35744084462593
 10
11.38173420939415
 20
75.55335555836861
 10
10.95454236922317
 20
75.19919974248492
 10
10.55353325474009
 20
74.80645885716645
 10
10.18301323530147
 20
74.37840574312415
 10
9.999561900711916
 20
74.39993758990697
 10
9.810081649023175
 20
74.41061738591124
 10
9.610955129975734
 20
74.41096189545976
 10
9.610955129975734
 20
74.41096189545976
 10
9.609404837007371
 20
74.41096189545976
 10
9.609404837007371
 20
74.41096189545976
 10
9.605615231973596
 20
74.41061738591124
 10
9.584255639965047
 20
74.41130640500829
 10
9.535507538848762
 20
74.4080335642973
 10
8.951391599324653
 20
74.4002820994555
 10
8.352117239665443
 20
74.31191540025883
 10
7.746641708132785
 20
74.16567109690997
 10
6.801307506980229
 20
73.9358832280438
 10
5.842365178660937
 20
73.56829153976766
 10
4.957147893725991
 20
73.11646726687714
 10
4.071758354016783
 20
72.662920446244
 10
3.262849934080121
 20
72.1306531937729
 10
2.618444823564139
 20
71.52638344566007
 10
2.349382866166127
 20
71.27282441794569
 10
2.065162488633015
 20
70.96603866498418
 10
1.780425346777116
 20
70.61515568981149
 10
1.354439290025974
 20
70.08874509966532
 10
0.9291422523718812
 20
69.46742212890051
 10
0.5934176973342845
 20
68.7868435157894
 10
0.4259860567511424
 20
68.44612357229819
 10
0.2809475368221243
 20
68.09007295389762
 10
0.1744940863279043
 20
67.71800264149064
 10
0.0687296549307343
 20
67.34610458385792
 10
0.0005167643227875
 20
66.95715330357322
 10
0.0
 20
66.55132105541078
 10
0.0
 20
66.29001056285459
 10
0.0292833116246236
 20
66.02163762455362
 10
0.0983574761038829
 20
65.75378145057545
 10
0.200676812015803
 20
65.3526000813181
 10
0.3996310762889811
 20
64.95383027890044
 10
0.6921196829866924
 20
64.61569415702316
 10
0.9839192705873535
 20
64.2761799969518
 10
1.359951442802373
 20
64.00091686768033
 10
1.791966416652703
 20
63.79455564811386
 10
2.136820474726212
 20
63.62953557437039
 10
2.493215602675307
 20
63.57338051796082
 10
2.822394476290929
 20
63.57338051796082
 10
3.144338649387527
 20
63.57389728228361
 10
3.448540580735087
 20
63.62505695023957
 10
3.744818792466573
 20
63.70205483433491
 10
4.262272134351099
 20
63.83830836077654
 10
4.761121960615275
 20
64.05603839544433
 10
5.25222032203764
 20
64.31097546135281
 10
5.98637016994438
 20
64.6940700793126
 10
6.699504935391096
 20
65.16656492511461
 10
7.320138887058855
 20
65.6139105738743
 10
7.940083819629563
 20
66.06108396785973
 10
8.464944116807375
 20
66.48310816480284
 10
8.800840926619234
 20
66.76216089910807
 10
8.800840926619234
 20
66.76216089910807
 10
8.801013181393497
 20
66.76216089910807
 10
8.801013181393497
 20
66.76216089910807
 10
8.935199650543979
 20
66.87378199283017
 10
9.079376896601683
 20
67.00469562126966
 10
9.237851288923176
 20
67.1569688417177
 10
9.788894311788887
 20
67.68820256554324
 10
10.50823024910905
 20
68.47626815779412
 10
11.1266248887114
 20
69.3452934939484
 10
11.43530544418979
 20
69.78092581805825
 10
11.71849229307732
 20
70.23481714823991
 10
11.93915065890757
 20
70.70662297494488
 10
11.94070095187594
 20
70.70989581565587
 10
11.94190673529577
 20
70.71334091114112
 10
11.94328477348987
 20
70.7166137518521
 10
12.10589328039367
 20
70.47907441814412
 10
12.28624402904649
 20
70.25290389953747
 10
12.47934163099475
 20
70.03534611964395
 10
13.13132595157828
 20
69.30636391496508
 10
13.93334418054444
 20
68.6647148808373
 10
14.73243407834814
 20
68.10884872429223
 10
15.53169623092611
 20
67.55453286071554
 10
16.32699652369603
 20
67.09254555614353
 10
16.96416693369299
 20
66.75992158704265
 10
17.73414577464633
 20
66.35942923688236
 10
18.64244519933245
 20
66.047475840693
 10
19.6029378206201
 20
65.82406139847454
 10
20.56325818713349
 20
65.60219724922446
 10
21.57180989044038
 20
65.47197263988201
 10
22.5352308428905
 20
65.47128362078496
 10
23.08110622252834
 20
65.47162813033349
 10
23.61268445590239
 20
65.51314153093074
 10
24.1196302565569
 20
65.61287704522873
 10
24.41935356377363
 20
65.67230494234929
 10
24.69341090962526
 20
65.7503363550902
 10
24.94920924940506
 20
65.85713431513294
 10
25.14058430361069
 20
65.937232785165
 10
25.32231309045762
 20
66.03386771352626
 10
25.49146727878339
 20
66.15410154596148
 10
25.74450954217498
 20
66.3330742564202
 10
25.97188584420147
 20
66.57302515696786
 10
26.12450357419804
 20
66.861207394309
 10
26.27867159716297
 20
67.14801159345606
 10
26.34826252596502
 20
67.4706447856497
 10
26.34671223299665
 20
67.76296113757316
 10
26.34619546867387
 20
68.06251219001562
 10
26.28263345697101
 20
68.33209091173643
 10
26.19409450300009
 20
68.57393661480096
 10
26.03613687500138
 20
68.9971665951639
 10
25.80221489155292
 20
69.35063339195054
 10
25.53883734170557
 20
69.68187932285731
 10
25.14230685135331
 20
70.17521699634509
 10
24.66757269348589
 20
70.61429441594018
 10
24.19507784768387
 20
70.99394393841472
 10
23.95891655217
 20
71.1832519353292
 10
23.7232720209789
 20
71.35619572868873
 10
23.49727375714652
 20
71.50933022300809
 10
23.27075872899134
 20
71.66246471732744
 10
23.05526800638896
 20
71.79510089350956
 10
22.85097384411365
 20
71.90603296813461
 10
21.71994899630613
 20
72.51857094541202
 10
20.24372558087657
 20
73.2654676466142
 10
18.6486463712059
 20
73.86835935653292
 10
17.85059000204777
 20
74.16980521149227
 10
17.02204453784518
 20
74.43542207340504
 10
16.18557535402652
 20
74.6280029110305
 10
15.59215765669224
 20
74.76425643747213
 10
14.99477809954992
 20
74.86330293267307
 10
14.39929334492448
 20
74.91032848604672
 10
15.19321559950031
 20
75.33648679757214
 10
16.05793456629802
 20
75.68047958177432
 10
16.96141085730479
 20
75.94540742459004
 10
18.51979980005755
 20
76.40394963367679
 10
20.17947455007666
 20
76.63546005028559
 10
21.71443684352973
 20
76.7157307750919
 10
22.12457546104872
 20
76.73743487664898
 10
22.53764240973018
 20
76.74828692742751
 10
22.9517428870572
 20
76.74811467265326
 10
25.70506319886887
 20
76.7488036917503
 10
28.51712238870405
 20
76.2639065022014
 10
31.04633923920022
 20
75.23950735966235
 10
33.57762314698754
 20
74.21441919802626
 10
35.8212415817565
 20
72.65913084121021
 10
37.5015869046871
 20
70.51283635389957
 10
37.5801350817508
 20
70.41241182050454
 10
37.65420463468367
 20
70.30561386046179
 10
37.72999673535917
 20
70.20122746725872
 10
37.85126409643996
 20
70.00520153414801
 10
37.98252223442798
 20
69.81313746084533
 10
38.12377114932323
 20
69.62572426644773
 10
38.95024955623466
 20
68.33708630019004
 10
39.59103731649113
 20
66.81797144596912
 10
40.03752169137951
 20
65.18051756182987
 10
40.59183755495621
 20
63.15256210443756
 10
40.85332030228667
 20
60.95407442052537
 10
40.85263128318962
 20
58.83758000916214
 10
40.85263128318962
 20
57.69277477941361
 10
40.77546114432003
 20
56.57277423715889
 10
40.63111164348805
 20
55.51702472570408
 10
40.35550400466807
 20
56.06048853850224
 10
39.99135741187716
 20
56.57415227535299
 10
39.54211696060058
 20
57.04923094276894
 10
38.81899141824664
 20
57.81438665004293
 10
37.93463540718301
 20
58.46309812991548
 10
36.99756943519505
 20
58.99260930599838
 10
36.05964218933578
 20
59.52074244388718
 10
35.06969400164925
 20
59.92778047546945
 10
34.11729735475193
 20
60.17978921021547
 10
33.446020499451
 20
60.356005844286
 10
32.70670300831638
 20
60.46521537116842
 10
31.96738551718177
 20
60.46607664503973
 10
31.57843423689706
 20
60.46590439026547
 10
31.18931070183809
 20
60.43541529522101
 10
30.80638833865257
 20
60.35945093977125
 10
30.519239629957
 20
60.30209009994184
 10
30.23519150719815
 20
60.21923555352159
 10
29.95872259450685
 20
60.09693466379521
 10
29.75150010106907
 20
60.00495061433904
 10
29.54841172221359
 20
59.89040118945449
 10
29.35703666800796
 20
59.74553492429973
 10
29.0707492331837
 20
59.52935518260031
 10
28.81064452404734
 20
59.23807235932243
 10
28.63425563520255
 20
58.88495007208432
 10
28.45631645338939
 20
58.53251680394326
 10
28.36846651851552
 20
58.12926837739477
 10
28.36967230193536
 20
57.72395289355512
 10
28.36967230193536
 20
57.44042153511906
 10
28.40980766433852
 20
57.15430635506907
 10
28.48318819817434
 20
56.86543509863087
 10
28.55674098678443
 20
56.57639158741841
 10
28.66336669205291
 20
56.28355847117217
 10
28.80151502101143
 20
55.98211261621281
 10
29.07746716937994
 20
55.37973767061688
 10
29.44764267927004
 20
54.85022649453397
 10
29.86191541137133
 20
54.37842066782901
 10
30.48427191078171
 20
53.67045354561017
 10
31.20550265061877
 20
53.08582084176327
 10
31.91812065174269
 20
52.55906574206857
 10
32.63091090764088
 20
52.03386093534223
 10
33.33801675598841
 20
51.56636147799383
 10
33.93264023674254
 20
51.12780082272153
 10
34.25975205306701
 20
50.88716090307683
 10
34.63836804689596
 20
50.61930472909865
 10
35.03627657544232
 20
50.33215602040308
 10
35.63210583961628
 20
49.9022081038439
 10
36.27030977825881
 20
49.42816296507352
 10
36.80826143828057
 20
48.96755369869561
 10
37.07697888613006
 20
48.73776582982945
 10
37.32037488216297
 20
48.51176756599706
 10
37.51708983437073
 20
48.3040283082365
 10
37.6407687622912
 20
48.17380369889405
 10
37.74343260775164
 20
48.05219182826473
 10
37.82542588030059
 20
47.94367132047936
 10
36.9105807741925
 20
46.49983180261115
 10
35.82520344156453
 20
45.14246418142272
 10
34.62320962676087
 20
43.85193141264813
 10
32.92667235504958
 20
42.02878688185392
 10
31.00723740544264
 20
40.33793401769329
 10
29.05920816330812
 20
38.71150443910685
 10
26.07937282334127
 20
36.22380098920794
 10
23.1758463483727
 20
33.72231715736803
 10
20.46093885122157
 20
31.00930446273379
 10
19.84581705233021
 20
30.39469942816521
 10
19.24189181376592
 20
29.76734754030122
 10
18.64761284256032
 20
29.1286268373359
 10
18.79385714590918
 20
29.68638779639785
 10
18.91322970447308
 20
30.24587130320242
 10
19.00762532076893
 20
30.80914441504077
 10
19.27427571132727
 20
32.40043401967767
 10
19.35437418135933
 20
34.01790635000247
 10
19.35850829594163
 20
35.73631997804509
 10
19.35850829594163
 20
35.73631997804509
 10
19.35850829594163
 20
35.80177679226483
 10
19.35850829594163
 20
35.80177679226483
 10
19.35833604116736
 20
36.38882106295141
 10
19.3416273280639
 20
37.25629610613731
 10
19.26790228467955
 20
38.23780380988499
 10
19.21260850214129
 20
38.97436522463141
 10
19.12561984113874
 20
39.77431639630642
 10
18.98695474785743
 20
40.57220051069029
 10
18.88274060942862
 20
41.17130261557523
 10
18.74975992369798
 20
41.76868217271755
 10
18.57526583737007
 20
42.34091253281755
 10
18.44417995415632
 20
42.77017143027968
 10
18.2894951668686
 20
43.18530543625229
 10
18.10104844382543
 20
43.57770181202224
 10
17.81751708538937
 20
44.16405706361176
 10
17.45991617402044
 20
44.70941567892682
 10
16.95107557084904
 20
45.14246418142272
 10
16.69717203358612
 20
45.35778264925084
 10
16.40330538869431
 20
45.54140623861465
 10
16.07481553417574
 20
45.66853026202037
 10
15.74701469875422
 20
45.79634330452314
 10
15.38631320144856
 20
45.86386717603403
 10
15.01992729659224
 20
45.86352266648551
 10
14.81632215341398
 20
45.86352266648551
 10
14.61099446249309
 20
45.84319660312254
 10
14.40652804544351
 20
45.80426702413921
 10
13.68684759857482
 20
45.66887477156889
 10
13.0371025900567
 20
45.39809026642826
 10
12.49157171996739
 20
45.0084499670465
 10
12.08229437631971
 20
44.71665037944584
 10
11.73416747753521
 20
44.36111652536805
 10
11.45115288342194
 20
43.96527505411285
 10
11.02551133621932
 20
43.37099608290725
 10
10.74421928984867
 20
42.69265678186156
 10
10.56765814622961
 20
41.97573241138107
 10
10.39126925738482
 20
41.25743000270648
 10
10.31737195922621
 20
40.49709742911184
 10
10.31702744967769
 20
39.70954860118373
 10
10.31771646877474
 20
38.37526311974646
 10
10.52993435066613
 20
36.96105142305141
 10
10.87444389919111
 20
35.55097384093865
 10
11.39275851494695
 20
33.43671874164082
 10
12.21079643791952
 20
31.33452147654137
 10
13.12598605357614
 20
29.58062336500068
 10
13.58435600788863
 20
28.70350205445607
 10
14.06684163059787
 20
27.91354165968828
 10
14.56138508750549
 20
27.24726019284097
 10
14.80891519812069
 20
26.91377494986878
 10
15.05971814944688
 20
26.61129556626384
 10
15.31741129174356
 20
26.34223360886583
 10
15.46434461418947
 20
26.18892685977221
 10
15.61386175824931
 20
26.0480224544255
 10
15.76751301689146
 20
25.917108825986
 10
15.70308973131728
 20
25.85337455950888
 10
15.63711615277475
 20
25.78998480258028
 10
15.57424316016894
 20
25.72556151700611
 10
15.06333549970639
 20
25.20087347460256
 10
14.60117594036012
 20
24.65585936883604
 10
14.23375650685823
 20
24.07708332731406
 10
14.05047742704294
 20
23.78700628745603
 10
13.89062499652734
 20
23.48762748978782
 10
13.76539577563851
 20
23.17274576243598
 10
13.75833332989375
 20
23.15517577546121
 10
13.75247666756883
 20
23.13691676938938
 10
13.74575873137259
 20
23.11865776331756
 10
13.49598930869197
 20
22.76381292833683
 10
13.24811468852825
 20
22.40586750741937
 10
13.00575222114092
 20
22.04137640507993
 10
12.05456135766344
 20
20.61062825005568
 10
11.11129421380204
 20
19.22604437453377
 10
10.2503648520381
 20
17.78564995215081
 10
10.20523410118133
 20
17.73604057716321
 10
10.16113687897013
 20
17.68436414488447
 10
10.1185899497273
 20
17.63130967441162
 10
10.1185899497273
 20
17.63130967441162
 10
10.14632296838356
 20
17.60926106330602
 10
10.14632296838356
 20
17.60926106330602
 10
10.073114689322
 20
17.48454860673997
 10
9.999045136389128
 20
17.3608696788195
 10
9.926870385973144
 20
17.23581271270494
 10
8.982569713466164
 20
15.59560275217749
 10
8.156780325651777
 20
13.8651312899365
 10
7.580071341420955
 20
11.91624077393066
 10
7.473790145700997
 20
11.5569173148191
 10
7.318071829767705
 20
10.96849500593843
 10
7.137721081114876
 20
10.21711968060544
 10
6.868142359394076
 20
9.09229600467137
 10
6.548092988814366
 20
7.616417098790341
 10
6.293500432454403
 20
6.099886066183362
 10
6.166031899500159
 20
5.341276040331348
 10
6.054927570100852
 20
4.572675237572109
 10
5.974829100068793
 20
3.830257160500769
 10
5.895247394359521
 20
3.087150064332379
 10
5.846154783694711
 20
2.371259222497463
 10
5.845982528920449
 20
1.709456379780969
 10
5.846154783694711
 20
1.343242729698912
 10
5.860968694281286
 20
0.9935655379460531
 10
5.896797687327884
 20
0.6600802949738689
 10
5.922119139144471
 20
0.4327039929473796
 10
5.955708820125657
 20
0.2135959200854899
 10
6.003767902144892
 20
0.0
 10
6.722931584690795
 20
0.3510552299469584
 10
7.41797959883995
 20
0.7496527775903646
 10
8.07823214858808
 20
1.195103623833168
 10
8.068930390777906
 20
1.354611544800236
 10
8.063762747550031
 20
1.525832790417153
 10
8.063762747550031
 20
1.709456379780969
 10
8.063418238001507
 20
2.444639756333284
 10
8.139554848225528
 20
3.346565754371692
 10
8.263750540468784
 20
4.291899955524247
 10
8.449613441898014
 20
5.711279295447181
 10
8.741413029498675
 20
7.231944442636459
 10
9.022016056772275
 20
8.512141924955298
 10
9.162403697796204
 20
9.152240666114718
 10
9.299863007657674
 20
9.732739255379316
 10
9.419407820995843
 20
10.21057399918347
 10
9.53878037955975
 20
10.6880642334391
 10
9.641271970245933
 20
11.06633571771953
 10
9.70672878446568
 20
11.28682182877552
 10
9.991810435870104
 20
12.24938150735432
 10
10.3482055638192
 20
13.15750867726618
 10
10.75851643611245
 20
14.03876410239309
 10
10.85635714789355
 20
13.95332573435889
 10
10.95695393606285
 20
13.87271050000404
 10
11.06116807449165
 20
13.7989854566197
 10
11.5679416203719
 20
13.44517415028454
 10
12.141550018666
 20
13.19953884218623
 10
12.74995388136112
 20
12.99627820855649
 10
13.66100938243544
 20
12.69517686314565
 10
14.65440266560723
 20
12.50225151597166
 10
15.56097954255073
 20
12.37719454985709
 10
16.01400959886108
 20
12.31483832157407
 10
16.44430202496878
 20
12.27074109936287
 10
16.8299804645425
 20
12.24145778773825
 10
17.21617566843901
 20
12.21217447611362
 10
17.55568982851038
 20
12.19839409417262
 10
17.83801540352661
 20
12.19839409417262
 10
17.92155896904392
 20
12.19839409417262
 10
18.00045165565614
 20
12.19977213236672
 10
18.07589924678311
 20
12.2021836992064
 10
19.79500189392278
 20
12.265573456135
 10
21.72201605359728
 20
12.2118299665651
 10
23.67538519373393
 20
12.27728678078484
 10
25.62944335296764
 20
12.34481065229574
 10
27.61536864543991
 20
12.52774522256251
 10
29.47692599089466
 20
13.11341145505498
 10
29.98301051767786
 20
13.27326388557057
 10
30.42880587346919
 20
13.45447590809471
 10
30.82223577788472
 20
13.66187065630676
 10
31.41048583199113
 20
13.97296277862482
 10
31.88935410444086
 20
14.34399956238622
 10
32.23920355096798
 20
14.80770941470085
 10
32.41318087297309
 20
15.03887532176111
 10
32.5518459662544
 20
15.29312336857255
 10
32.64486354435615
 20
15.56184081642204
 10
32.73822563200642
 20
15.83055826427153
 10
32.7842176567345
 20
16.11202256541644
 10
32.78387314718598
 20
16.38694118513938
 10
32.78404540196024
 20
16.69562174061776
 10
32.72720132645362
 20
16.9939670096404
 10
32.63159992673793
 20
17.26991915800891
 10
32.46279024796069
 20
17.75326605458946
 10
32.18339300410693
 20
18.16908907965912
 10
31.84732393952081
 20
18.53495822019265
 10
31.34089490318908
 20
19.08203938325033
 10
30.69838459518999
 20
19.52749022949313
 10
29.97422552419047
 20
19.88095702627976
 10
29.24937743409391
 20
20.23270127532377
 10
28.44081352370577
 20
20.48936088897488
 10
27.59452581775415
 20
20.6137288359924
 10
26.17893608286499
 20
20.82146809375297
 10
24.69220512620542
 20
20.92688801560161
 10
23.19531113786437
 20
20.92688801560161
 10
21.15340304375679
 20
20.92654350605309
 10
19.09340819835165
 20
20.73120659203942
 10
17.17018364371093
 20
20.32227375794027
 10
16.76779649103375
 20
20.23649088035754
 10
16.2196817993305
 20
20.1338270348971
 10
15.61282822960374
 20
20.00808104968548
 10
15.12930907824892
 20
19.90782877106471
 10
14.60806613133062
 20
19.79207356276032
 10
14.07993299344182
 20
19.65461425289885
 10
14.33383653070474
 20
20.03564181356748
 10
14.59170192777569
 20
20.42114799836694
 10
14.85266791078336
 20
20.81319986458837
 10
15.11208360082267
 20
21.20318467351865
 10
15.37632242454134
 20
21.58765732967253
 10
15.64503987239082
 20
21.96696234259854
 10
15.64503987239082
 20
21.96696234259854
 10
15.72169324693763
 20
21.95938313253099
 10
15.72169324693763
 20
21.95938313253099
 10
15.7259996162942
 20
22.00348035474219
 10
15.73616264797568
 20
22.05584580611798
 10
15.7494262655939
 20
22.11131184343051
 10
16.41277940127875
 20
23.04148762444796
 10
17.1050713390397
 20
23.93859048880702
 10
17.81958414268052
 20
24.81157768476933
 10
18.36632079618967
 20
25.31146103967908
 10
18.9673177035915
 20
25.80376518452128
 10
19.55246717176119
 20
26.25576171218606
 10
20.01255967381631
 20
26.61164007581237
 10
20.46300590851272
 20
26.94374728059045
 10
20.87211099738614
 20
27.24071451141899
 10
21.28138834103382
 20
27.53802625179605
 10
21.64829101021293
 20
27.79950899912651
 10
21.94835882697819
 20
28.01965060063398
 10
23.54826117032821
 20
29.1933946324586
 10
25.2144816017693
 20
30.16112195426528
 10
26.95184325498079
 20
31.03479816932463
 10
28.68886039864376
 20
31.90847438438399
 10
30.49684650930287
 20
32.68775498314751
 10
32.37028943418174
 20
33.48391654978874
 10
35.66121689646664
 20
34.88365884544575
 10
39.2251681759576
 20
35.68877766034864
 10
42.8049668946807
 20
36.36332735636056
 10
43.67760958109449
 20
36.5280029205555
 10
44.58435871281225
 20
36.70852592398259
 10
45.50729979331068
 20
36.88525932237591
 10
45.21550020571001
 20
36.48872883202365
 10
44.95952961115595
 20
36.07187227830843
 10
44.73422036642062
 20
35.64261338084629
 10
44.25673013216499
 20
34.73276366319181
 10
43.90636392131508
 20
33.77089300371006
 10
43.60939669048654
 20
32.83003742668833
 10
43.31277396920653
 20
31.88952635921512
 10
43.07023924704495
 20
30.96865233600784
 10
42.82770452488335
 20
30.1476860818728
 10
42.70815971154519
 20
29.74150932416185
 10
42.52625866992399
 20
29.06041394672795
 10
42.37019584444217
 20
28.26563041828081
 10
42.21516654760593
 20
27.46946885163958
 10
42.08390840961791
 20
26.56685383450412
 10
42.08287488097234
 20
25.68973252395951
 10
42.08287488097234
 20
25.33075357439648
 10
42.10526800162646
 20
24.97453070122165
 10
42.16486815352128
 20
24.62347547127469
 10
42.20999890437806
 20
24.35992566665308
 10
42.27580022814633
 20
24.09844291932261
 10
42.37811956405825
 20
23.84074977702592
 10
42.4546006838308
 20
23.64747992030341
 10
42.55244139561189
 20
23.45558810177499
 10
42.67990992856613
 20
23.2723090219597
 10
42.87042370890045
 20
22.99807942133381
 10
43.13776311855584
 20
22.74176431723123
 10
43.4695258137854
 20
22.56916503342021
 10
43.79956596127234
 20
22.39449869231804
 10
44.17852646464981
 20
22.31216091022057
 10
44.54990775795974
 20
22.31353894841467
 10
44.74696721971604
 20
22.31353894841467
 10
44.94299315282675
 20
22.33489854042322
 10
45.13901908593747
 20
22.37348360985802
 10
45.13901908593747
 20
22.37348360985802
 10
45.13970810503452
 20
22.37348360985802
 10
45.13970810503452
 20
22.37348360985802
 10
45.77326116477197
 20
22.49716253777849
 10
46.32103134692669
 20
22.79447427815555
 10
46.76062553084457
 20
23.15689832320383
 10
47.09238822607413
 20
23.42906086653857
 10
47.37075194128231
 20
23.73739691246843
 10
47.61363117299243
 20
24.05710177349961
 10
47.97777776578334
 20
24.53734808414344
 10
48.26544323880169
 20
25.04446613957222
 10
48.51521266148231
 20
25.52367892157047
 10
48.76360404596883
 20
26.00220268447167
 10
48.97478839921464
 20
26.4548882312335
 10
49.15875649812698
 20
26.81180012350539
 10
49.51360133310772
 20
27.5001302014583
 10
49.9104763330085
 20
28.20051811360959
 10
50.27290037805678
 20
28.96119519675276
 10
50.47547199258947
 20
29.38735350827816
 10
50.66564126337526
 20
29.83452690226359
 10
50.82790526073052
 20
30.30788302193692
 10
50.85408798641843
 20
30.23967013132897
 10
50.87889267391223
 20
30.17214625981807
 10
50.90679794734275
 20
30.1035888596616
 10
51.13486326846628
 20
29.54892848653638
 10
51.4149495314171
 20
28.98496635560098
 10
51.80321179260476
 20
28.46785752326498
 10
51.9706434331879
 20
28.24633788356342
 10
52.16873642358976
 20
28.01930609108545
 10
52.39714625426183
 20
27.77987195486059
 10
52.79712184009934
 20
27.36232638204831
 10
53.29045951358711
 20
26.90895181618943
 10
53.84822047264906
 20
26.45316568349088
 10
54.68468965646772
 20
25.77103677741141
 10
55.65999618834195
 20
25.08718532358932
 10
56.66975367506868
 20
24.55388454247264
 10
57.17514918275483
 20
24.28792317101135
 10
57.68984644825115
 20
24.05882432124224
 10
58.20971135697535
 20
23.89104817111057
 10
58.7302652847966
 20
23.72430554962448
 10
59.25770940358835
 20
23.61509602274206
 10
59.79962292341816
 20
23.61406249409649
 10
60.18719616550876
 20
23.61406249409649
 10
60.58579371315216
 20
23.67262911734573
 10
60.97129989795162
 20
23.82352429959968
 10
61.25965439006703
 20
23.93583441241882
 10
61.53801810527522
 20
24.10188801480786
 10
61.78055282743681
 20
24.3175509921845
 10
62.14642196797034
 20
24.64104545824946
 10
62.42202960679033
 20
25.06720376977487
 10
62.6022081006689
 20
25.54503851357902
 10
62.78376463274156
 20
26.02425129557727
 10
62.87919377768299
 20
26.558241095791
 10
62.90882159885613
 20
27.15768771022447
 10
62.90882159885613
 20
27.15768771022447
 10
62.90882159885613
 20
27.15837672932152
 10
62.90882159885613
 20
27.15837672932152
 10
62.91157767524433
 20
27.21659884302224
 10
62.91295571343843
 20
27.27550997582001
 10
62.91295571343843
 20
27.33476561816631
 10
62.91295571343843
 20
27.72164984115987
 10
62.85232203289803
 20
28.09682073950357
 10
62.75103622563169
 20
28.45442165087251
 10
62.57258027949575
 20
29.08005099099388
 10
62.27354599137606
 20
29.65331487973945
 10
61.91732311820122
 20
30.18730467995318
 10
61.38126626069635
 20
30.98725585162819
 10
60.71016166016968
 20
31.70486924120573
 10
60.03457843551219
 20
32.33291014816677
 10
59.35830619175765
 20
32.9606065455793
 10
58.67652179522671
 20
33.49597438398712
 10
58.11772730751918
 20
33.90421819898923
 10
57.86382377025627
 20
34.08853080745009
 10
57.56961261581593
 20
34.26250812945521
 10
57.2381944301349
 20
34.43441839416918
 10
60.94580619136077
 20
34.54190537330897
 10
64.87321504454559
 20
35.61849771244955
 10
68.1085042147437
 20
36.82359211318994
 10
69.98745929239897
 20
37.52363551579271
 10
75.10824922167433
 20
38.89581704756771
 10
73.48044160489378
 20
41.83069389145205
 10
72.09241263388662
 20
44.33252223284048
 10
66.79798989215467
 20
43.9480495766866
 10
64.42087400733229
 20
43.49467501082772
 97
        0
 92
        1
 93
        1
 72
     4
 94
        3
 73
     0
 74
     1
 95
       62
 96
       58
 40
0.0
 40
0.0
 40
0.0
 40
0.0
 40
1.0
 40
1.0
 40
1.0
 40
2.0
 40
2.0
 40
2.0
 40
3.0
 40
3.0
 40
3.0
 40
4.0
 40
4.0
 40
4.0
 40
5.0
 40
5.0
 40
5.0
 40
6.0
 40
6.0
 40
6.0
 40
7.0
 40
7.0
 40
7.0
 40
8.0
 40
8.0
 40
8.0
 40
9.0
 40
9.0
 40
9.0
 40
10.0
 40
10.0
 40
10.0
 40
11.0
 40
11.0
 40
11.0
 40
12.0
 40
12.0
 40
12.0
 40
13.0
 40
13.0
 40
13.0
 40
14.0
 40
14.0
 40
14.0
 40
15.0
 40
15.0
 40
15.0
 40
16.0
 40
16.0
 40
16.0
 40
17.0
 40
17.0
 40
17.0
 40
18.0
 40
18.0
 40
18.0
 40
19.0
 40
19.0
 40
19.0
 40
19.0
 10
43.3647949110338
 20
64.80086803935534
 10
43.60181748041899
 20
65.07389185656139
 10
43.8874158961462
 20
65.37413192810091
 10
44.19334037523639
 20
65.68505179564471
 10
45.45596787058045
 20
66.97058917596569
 10
46.98662379467696
 20
68.2049668883307
 10
48.51934677606461
 20
69.13135306431438
 10
48.61512043055455
 20
69.1895751780151
 10
48.7646375746144
 20
69.27311874353242
 10
48.94722763533264
 20
69.36803112415105
 10
49.58973794333173
 20
69.70341116964012
 10
50.65048284324016
 20
70.1857245375751
 10
51.74154458341879
 20
70.56985268418046
 10
52.28759221783088
 20
70.76226126703166
 10
52.84225259095611
 20
70.93072643626037
 10
53.35247123232161
 20
71.04785968275887
 10
53.86200085459006
 20
71.16585420312867
 10
54.32881129284141
 20
71.22941621483155
 10
54.67263182226935
 20
71.22838268618597
 10
54.85039874930823
 20
71.22872719573449
 10
54.99371472149463
 20
71.2116739730825
 10
55.08776582824195
 20
71.18962536197691
 10
55.14116480826332
 20
71.17722301823001
 10
55.1780273299555
 20
71.16378714583753
 10
55.20007594106109
 20
71.15414087847883
 10
55.20248750790077
 20
71.13622638195552
 10
55.20558809383749
 20
71.10918238239631
 10
55.20558809383749
 20
71.07008054863873
 10
55.20593260338602
 20
70.98567570925012
 10
55.19111869279944
 20
70.84787188984012
 10
55.14288735600595
 20
70.66131996931384
 10
55.01645235169727
 20
70.17073837221426
 10
54.81835936129541
 20
69.70668401035111
 10
54.55377602802822
 20
69.26278345707667
 10
54.09178872345622
 20
68.4869479537984
 10
53.42171765157513
 20
67.77277965970612
 10
52.60109590698862
 20
67.14284395022818
 10
51.3722303474
 20
66.19750974907562
 10
49.80884601619363
 20
65.45061304787346
 10
48.2103217110377
 20
64.95314125980339
 10
46.61283093452735
 20
64.45394692399069
 10
44.9781331267763
 20
64.20348848221302
 10
43.63764647346559
 20
64.20469426563285
 10
43.60560708545277
 20
64.20469426563285
 10
43.57322318789141
 20
64.20486652040712
 10
43.5411837998786
 20
64.20521102995565
 10
43.5411837998786
 20
64.20521102995565
 10
43.52568087019497
 20
64.20521102995565
 10
43.52568087019497
 20
64.20521102995565
 10
43.52568087019497
 20
64.20521102995565
 10
43.54221732852417
 20
64.20521102995565
 10
43.54221732852417
 20
64.20521102995565
 10
43.29072535810093
 20
64.20710583247254
 10
43.08574217672857
 20
64.22174748828485
 10
42.9248562175674
 20
64.24224580642208
 10
43.03372123490129
 20
64.40123696306637
 10
43.18461641715524
 20
64.59381780069182
 10
43.3647949110338
 20
64.80086803935534
 97
        0
 92
        1
 93
        1
 72
     4
 94
        3
 73
     0
 74
     1
 95
       77
 96
       73
 40
0.0
 40
0.0
 40
0.0
 40
0.0
 40
1.0
 40
1.0
 40
1.0
 40
2.0
 40
2.0
 40
2.0
 40
3.0
 40
3.0
 40
3.0
 40
4.0
 40
4.0
 40
4.0
 40
5.0
 40
5.0
 40
5.0
 40
6.0
 40
6.0
 40
6.0
 40
7.0
 40
7.0
 40
7.0
 40
8.0
 40
8.0
 40
8.0
 40
9.0
 40
9.0
 40
9.0
 40
10.0
 40
10.0
 40
10.0
 40
11.0
 40
11.0
 40
11.0
 40
12.0
 40
12.0
 40
12.0
 40
13.0
 40
13.0
 40
13.0
 40
14.0
 40
14.0
 40
14.0
 40
15.0
 40
15.0
 40
15.0
 40
16.0
 40
16.0
 40
16.0
 40
17.0
 40
17.0
 40
17.0
 40
18.0
 40
18.0
 40
18.0
 40
19.0
 40
19.0
 40
19.0
 40
20.0
 40
20.0
 40
20.0
 40
21.0
 40
21.0
 40
21.0
 40
22.0
 40
22.0
 40
22.0
 40
23.0
 40
23.0
 40
23.0
 40
24.0
 40
24.0
 40
24.0
 40
24.0
 10
54.82524955226591
 20
80.24678139269872
 10
55.19421927873617
 20
80.37700600204117
 10
55.72166339752792
 20
80.48311494298686
 10
56.31594236873352
 20
80.5477104833353
 10
56.91125486858469
 20
80.61316729755505
 10
57.57546927814086
 20
80.64107257098557
 10
58.24140623543965
 20
80.6409003162113
 10
59.19845376124206
 20
80.64107257098557
 10
60.15929089207823
 20
80.58388398593043
 10
60.94270560542405
 20
80.5105034520946
 10
61.33406845254843
 20
80.4738131851767
 10
61.68202309655867
 20
80.43298880367648
 10
61.95935328312127
 20
80.39405922469315
 10
62.09819063117684
 20
80.37476668997576
 10
62.21980250180616
 20
80.35581866480688
 10
62.31833223268431
 20
80.33859318738064
 10
62.4161729444654
 20
80.32171221950291
 10
62.493343083335
 20
80.30603703504502
 10
62.53365070051242
 20
80.29639076768632
 10
62.53365070051242
 20
80.29639076768632
 10
62.53365070051242
 20
80.29639076768632
 10
62.53365070051242
 20
80.29639076768632
 10
62.80340167700749
 20
80.23317326553199
 10
63.14791122553247
 20
80.11948511451874
 10
63.49414332180008
 20
79.96790091316775
 10
64.01469724962134
 20
79.74310843275519
 10
64.54248587796161
 20
79.42495386469237
 10
64.87734915912789
 20
79.11368948760006
 10
65.04546981880809
 20
78.95952146463512
 10
65.16329208440362
 20
78.8103488301238
 10
65.22530380313812
 20
78.69769420775613
 10
65.28869356006672
 20
78.58245576377453
 10
65.29937335607099
 20
78.51682669478052
 10
65.29971786561951
 20
78.46997339618112
 10
65.29971786561951
 20
78.4470635112042
 10
65.29696178923132
 20
78.42467039055009
 10
65.28834905051819
 20
78.39263100253726
 10
65.27491317812571
 20
78.34543319438934
 10
65.24597437604962
 20
78.27343069874762
 10
65.1698377658256
 20
78.16887205077029
 10
65.0940456651501
 20
78.06517467666427
 10
64.97071124677817
 20
77.9318494813851
 10
64.7836425619291
 20
77.78060978958263
 10
64.38228893789748
 20
77.45642630442062
 10
63.91926810467991
 20
77.22560490690888
 10
63.39389104317931
 20
77.07160913871822
 10
62.86989201987281
 20
76.91813013485033
 10
62.28560382557443
 20
76.84543862011157
 10
61.67203231965144
 20
76.84561087488582
 10
60.84210881725475
 20
76.84509411056304
 10
59.9615424112249
 20
76.97910832493925
 10
59.12610675605181
 20
77.19821639780115
 10
58.2903265913302
 20
77.41663545156598
 10
57.49933266791684
 20
77.71980385426797
 10
56.84820962120462
 20
78.04002547962195
 10
56.34522568035814
 20
78.28548853294599
 10
55.88151582804351
 20
78.46325545998488
 10
55.51220159202473
 20
78.65394149509346
 10
55.32754447401534
 20
78.7483371113893
 10
55.16665851485417
 20
78.84411076587925
 10
55.03126626228385
 20
78.94384628017724
 10
54.89587400971353
 20
79.04392630402374
 10
54.78494193508849
 20
79.14710691380698
 10
54.6898572996956
 20
79.264584669854
 10
54.53034937872852
 20
79.46078285773898
 10
54.42906357146218
 20
79.62304685509424
 10
54.36808538137326
 20
79.74465872572357
 10
54.36670734317916
 20
79.83733179427678
 10
54.36326224769391
 20
79.92966035328148
 10
54.35671656627193
 20
80.02061087409207
 10
54.44181042475761
 20
80.0829671023751
 10
54.6002848170791
 20
80.1692667442806
 10
54.82524955226591
 20
80.24678139269872
 97
        0
 92
        1
 93
        1
 72
     4
 94
        3
 73
     0
 74
     1
 95
       77
 96
       73
 40
0.0
 40
0.0
 40
0.0
 40
0.0
 40
1.0
 40
1.0
 40
1.0
 40
2.0
 40
2.0
 40
2.0
 40
3.0
 40
3.0
 40
3.0
 40
4.0
 40
4.0
 40
4.0
 40
5.0
 40
5.0
 40
5.0
 40
6.0
 40
6.0
 40
6.0
 40
7.0
 40
7.0
 40
7.0
 40
8.0
 40
8.0
 40
8.0
 40
9.0
 40
9.0
 40
9.0
 40
10.0
 40
10.0
 40
10.0
 40
11.0
 40
11.0
 40
11.0
 40
12.0
 40
12.0
 40
12.0
 40
13.0
 40
13.0
 40
13.0
 40
14.0
 40
14.0
 40
14.0
 40
15.0
 40
15.0
 40
15.0
 40
16.0
 40
16.0
 40
16.0
 40
17.0
 40
17.0
 40
17.0
 40
18.0
 40
18.0
 40
18.0
 40
19.0
 40
19.0
 40
19.0
 40
20.0
 40
20.0
 40
20.0
 40
21.0
 40
21.0
 40
21.0
 40
22.0
 40
22.0
 40
22.0
 40
23.0
 40
23.0
 40
23.0
 40
24.0
 40
24.0
 40
24.0
 40
24.0
 10
49.83537325143005
 20
85.45507674729943
 10
49.95216198838002
 20
85.79838051240458
 10
50.20330944925473
 20
86.25726723103985
 10
50.53817273042102
 20
86.73475746529549
 10
51.03977863307339
 20
87.4547824217127
 10
51.71915146276466
 20
88.22372773402046
 10
52.35856118482703
 20
88.88501381241417
 10
52.67792153630969
 20
89.2164319980952
 10
52.98763562043365
 20
89.52218422241113
 10
53.26186522105954
 20
89.78676755567831
 10
53.53609482168542
 20
90.05169539849402
 10
53.77380641016766
 20
90.27493758593822
 10
53.9550184326918
 20
90.44667559587792
 10
54.1286512451484
 20
90.61152341484713
 10
54.40632594125953
 20
90.84423961487575
 10
54.73739961739204
 20
91.08625757271454
 10
55.23418238636507
 20
91.45074867505399
 10
55.85808917874381
 20
91.84176701262984
 10
56.46821558918156
 20
92.12547062584017
 10
56.77276203007764
 20
92.26775306938099
 10
57.07386337548848
 20
92.38333602291111
 10
57.34705944746879
 20
92.45947263313514
 10
57.61956650035206
 20
92.53612600768194
 10
57.86382377025627
 20
92.57195500072854
 10
58.05054794555681
 20
92.57143823640575
 10
58.17767196896253
 20
92.57143823640575
 10
58.27689071893772
 20
92.55593530672213
 10
58.35027125277355
 20
92.53440345993933
 10
58.40608179963459
 20
92.51786700161013
 10
58.44811196455464
 20
92.49874672166699
 10
58.48497448624681
 20
92.47583683669008
 10
58.53975150446229
 20
92.4408691175148
 10
58.58832735080431
 20
92.399011207369
 10
58.64999455999028
 20
92.30961097952677
 10
58.70993922143363
 20
92.2203830064588
 10
58.77918564068715
 20
92.07861732724076
 10
58.83534069709673
 20
91.86002601870166
 10
58.85084362678035
 20
91.80077037635537
 10
58.86014538459052
 20
91.73049042845626
 10
58.86048989413905
 20
91.64384627700224
 10
58.86048989413905
 20
91.52499048276111
 10
58.84119735942165
 20
91.37564559347554
 10
58.79537758946783
 20
91.20270180011599
 10
58.71614039330708
 20
90.90022241651106
 10
58.55387639595181
 20
90.53021916139522
 10
58.32960067986205
 20
90.14712454343544
 10
57.99439288914724
 20
89.57041555920462
 10
57.52482637450768
 20
88.96407875380065
 10
57.04940319754321
 20
88.43629012546037
 10
56.57535805877283
 20
87.90781247802305
 10
56.0923556717408
 20
87.45271536442155
 10
55.74922416140992
 20
87.1681504773399
 10
55.07398544630095
 20
86.60487736550157
 10
54.06870658370505
 20
86.04453258482567
 10
53.01898598934942
 20
85.64972464221604
 10
52.49395343739734
 20
85.45111488749139
 10
51.95789657989247
 20
85.29160696652433
 10
51.44733342897845
 20
85.18343096828748
 10
50.93745929716147
 20
85.07508271527637
 10
50.45307887193535
 20
85.01909991364106
 10
50.03966741370537
 20
85.01944442318958
 10
50.03966741370537
 20
85.01944442318958
 10
50.00418293020729
 20
85.01944442318958
 10
50.00418293020729
 20
85.01944442318958
 10
49.93321396321114
 20
85.01944442318958
 10
49.86741263944287
 20
85.01909991364106
 10
49.80677895890248
 20
85.01909991364106
 10
49.78473034779687
 20
85.01909991364106
 10
49.765782322628
 20
85.01927216841533
 10
49.7451117497165
 20
85.01944442318958
 10
49.74476724016797
 20
85.10798337716051
 10
49.76750487037063
 20
85.26042885238282
 10
49.83537325143005
 20
85.45507674729943
 97
        0
 92
        1
 93
        1
 72
     4
 94
        3
 73
     0
 74
     1
 95
       80
 96
       76
 40
0.0
 40
0.0
 40
0.0
 40
0.0
 40
1.0
 40
1.0
 40
1.0
 40
2.0
 40
2.0
 40
2.0
 40
3.0
 40
3.0
 40
3.0
 40
4.0
 40
4.0
 40
4.0
 40
5.0
 40
5.0
 40
5.0
 40
6.0
 40
6.0
 40
6.0
 40
7.0
 40
7.0
 40
7.0
 40
8.0
 40
8.0
 40
8.0
 40
9.0
 40
9.0
 40
9.0
 40
10.0
 40
10.0
 40
10.0
 40
11.0
 40
11.0
 40
11.0
 40
12.0
 40
12.0
 40
12.0
 40
13.0
 40
13.0
 40
13.0
 40
14.0
 40
14.0
 40
14.0
 40
15.0
 40
15.0
 40
15.0
 40
16.0
 40
16.0
 40
16.0
 40
17.0
 40
17.0
 40
17.0
 40
18.0
 40
18.0
 40
18.0
 40
19.0
 40
19.0
 40
19.0
 40
20.0
 40
20.0
 40
20.0
 40
21.0
 40
21.0
 40
21.0
 40
22.0
 40
22.0
 40
22.0
 40
23.0
 40
23.0
 40
23.0
 40
24.0
 40
24.0
 40
24.0
 40
25.0
 40
25.0
 40
25.0
 40
25.0
 10
10.06415744106035
 20
71.98561467384388
 10
9.995255531355353
 20
71.75806611704313
 10
9.83747015813091
 20
71.43009302684735
 10
9.62180718075427
 20
71.08437769490251
 10
9.299173988560623
 20
70.56313474798422
 10
8.852689613672245
 20
69.99521075724078
 10
8.427737085566678
 20
69.5170315038881
 10
8.215519203675287
 20
69.27742511288898
 10
8.00829671023751
 20
69.05935056867267
 10
7.826051159067793
 20
68.87831080092279
 10
7.644666881769389
 20
68.69744328794717
 10
7.485158960802321
 20
68.5522325132439
 10
7.383700898761714
 20
68.4681721834038
 10
7.383700898761714
 20
68.4681721834038
 10
7.383873153535976
 20
68.4681721834038
 10
7.383873153535976
 20
68.4681721834038
 10
6.916201441413311
 20
68.0792209031191
 10
6.022543672539503
 20
67.36953123315762
 10
5.091678872424997
 20
66.78007539563137
 10
4.627624510561844
 20
66.48551973164251
 10
4.153579371791467
 20
66.2219699270209
 10
3.740167913561486
 20
66.04489201907906
 10
3.533978948769283
 20
65.95618081033388
 10
3.343465168434967
 20
65.88934595792003
 10
3.184129502242162
 20
65.84783255732276
 10
3.02496609082362
 20
65.80580239240273
 10
2.897325303095113
 20
65.79064397226762
 10
2.822394476290929
 20
65.79133299136467
 10
2.783637152081869
 20
65.79133299136467
 10
2.758660209813807
 20
65.79477808684992
 10
2.747980413809533
 20
65.79684514414107
 10
2.747980413809533
 20
65.79684514414107
 10
2.744363063550021
 20
65.79770641801238
 10
2.744363063550021
 20
65.79770641801238
 10
2.614310708981839
 20
65.86075166539246
 10
2.522154404751406
 20
65.92328014844973
 10
2.456525335757397
 20
65.97960745963357
 10
2.356962076233676
 20
66.06694063018466
 10
2.312003580151166
 20
66.13584253988965
 10
2.276002332330305
 20
66.21800806721286
 10
2.241551377477807
 20
66.3000013397618
 10
2.21829698295237
 20
66.40455998773913
 10
2.217952473403845
 20
66.55132105541078
 10
2.21691894475827
 20
66.7514811031038
 10
2.268250867488493
 20
67.02622746805247
 10
2.379527451662063
 20
67.33215194714266
 10
2.54385850630848
 20
67.79155543010073
 10
2.837208386877504
 20
68.31210935792197
 10
3.167076279590176
 20
68.77547470068808
 10
3.49504936978596
 20
69.2391845530027
 10
3.861779784190805
 20
69.65190699213564
 10
4.138420951656367
 20
69.91115042740068
 10
4.425741915126204
 20
70.18227944208985
 10
4.814865450185173
 20
70.47356226536772
 10
5.260488551202239
 20
70.74658608257377
 10
5.928837075340708
 20
71.15724146441555
 10
6.72534315153047
 20
71.52896726727401
 10
7.503245712099884
 20
71.78855521208759
 10
7.892369247158853
 20
71.91860756665577
 10
8.276669648538471
 20
72.0212714121162
 10
8.635476343327243
 20
72.09000106704694
 10
8.994455292890276
 20
72.15890297675195
 10
9.32794053586246
 20
72.19318167683018
 10
9.610266110878683
 20
72.19300942205592
 10
9.610266110878683
 20
72.19300942205592
 10
9.610955129975734
 20
72.19300942205592
 10
9.610955129975734
 20
72.19300942205592
 10
9.837986922453698
 20
72.19335393160445
 10
10.00128444845454
 20
72.17130532049885
 10
10.09757486726727
 20
72.14736190687636
 10
10.09998643410695
 20
72.1466728877793
 10
10.10153672707531
 20
72.14615612345652
 10
10.10394829391499
 20
72.14546710435947
 10
10.09636908384744
 20
72.10240341079384
 10
10.08396674010054
 20
72.04831541167542
 10
10.06415744106035
 20
71.98561467384388
 97
        0
 92
        1
 93
        1
 72
     4
 94
        3
 73
     0
 74
     1
 95
       53
 96
       49
 40
0.0
 40
0.0
 40
0.0
 40
0.0
 40
1.0
 40
1.0
 40
1.0
 40
2.0
 40
2.0
 40
2.0
 40
3.0
 40
3.0
 40
3.0
 40
4.0
 40
4.0
 40
4.0
 40
5.0
 40
5.0
 40
5.0
 40
6.0
 40
6.0
 40
6.0
 40
7.0
 40
7.0
 40
7.0
 40
8.0
 40
8.0
 40
8.0
 40
9.0
 40
9.0
 40
9.0
 40
10.0
 40
10.0
 40
10.0
 40
11.0
 40
11.0
 40
11.0
 40
12.0
 40
12.0
 40
12.0
 40
13.0
 40
13.0
 40
13.0
 40
14.0
 40
14.0
 40
14.0
 40
15.0
 40
15.0
 40
15.0
 40
16.0
 40
16.0
 40
16.0
 40
16.0
 10
15.68810356595645
 20
72.46655000358476
 10
16.75815022367505
 20
72.22091469548644
 10
17.88366291870617
 20
71.81456568300122
 10
18.93924017538672
 20
71.35757376688284
 10
19.99550645116432
 20
70.90109861508724
 10
20.98304307201118
 20
70.39570310740108
 10
21.79436305878752
 20
69.9561089234832
 10
21.98315429137921
 20
69.8541340971198
 10
22.25635036335952
 20
69.68032902988895
 10
22.53953721224706
 20
69.4701782052887
 10
22.96586777854673
 20
69.15598549703392
 10
23.42406547808496
 20
68.75153128706559
 10
23.73360730743466
 20
68.38514538220927
 10
23.88898111381942
 20
68.20358885013661
 10
24.00559759599513
 20
68.03167858542264
 10
24.06743705995536
 20
67.90937769569626
 10
24.0700208815693
 20
67.9042100524684
 10
24.07122666498914
 20
67.90059270220888
 10
24.07363823182881
 20
67.89559731375527
 10
23.98837211856888
 20
67.8614908684513
 10
23.86159260471169
 20
67.82221677991944
 10
23.6907158686433
 20
67.78879935371252
 10
23.36170924980193
 20
67.7236870490413
 10
22.96517875944968
 20
67.68906383941454
 10
22.5352308428905
 20
67.6892360941888
 10
21.77524277884438
 20
67.68871932986602
 10
20.91241861456356
 20
67.7967230733286
 10
20.1035101946269
 20
67.98448077727471
 10
19.2947740294645
 20
68.17086044302673
 10
18.5356472392897
 20
68.44026690997327
 10
17.99011636920039
 20
68.72620983524901
 10
17.2428751584497
 20
69.11516111553371
 10
16.199011226419
 20
69.7388956531382
 10
15.30518120277093
 20
70.43962807483801
 10
14.85835231833402
 20
70.7891330118166
 10
14.44907497468634
 20
71.1584472478354
 10
14.13436550210877
 20
71.51174178984776
 10
13.81793348178857
 20
71.86400280321456
 10
13.60330403305751
 20
72.20196667031756
 10
13.51200900269839
 20
72.44966903570703
 10
13.48513725791344
 20
72.5196044740576
 10
13.461882863388
 20
72.61038274009394
 10
13.4425903286706
 20
72.7166639358139
 10
13.51734890070052
 20
72.7194200122021
 10
13.59159070840766
 20
72.72320961723587
 10
13.66858859250299
 20
72.72320961723587
 10
14.28767225120239
 20
72.72355412678439
 10
14.97496880050973
 20
72.63105331300544
 10
15.68810356595645
 20
72.46655000358476
 97
        0
 92
        1
 93
        1
 72
     4
 94
        3
 73
     0
 74
     1
 95
       20
 96
       16
 40
0.0
 40
0.0
 40
0.0
 40
0.0
 40
1.0
 40
1.0
 40
1.0
 40
2.0
 40
2.0
 40
2.0
 40
3.0
 40
3.0
 40
3.0
 40
4.0
 40
4.0
 40
4.0
 40
5.0
 40
5.0
 40
5.0
 40
5.0
 10
38.10172253821763
 20
79.70262856080352
 10
37.1705132285546
 20
78.14992402560141
 10
36.61309677904117
 20
76.36777613108167
 10
36.57881807896294
 20
74.5687472686842
 10
35.15185952897245
 20
75.7118299506901
 10
33.55901963136719
 20
76.61582300601965
 10
31.87832979888806
 20
77.29554034525945
 10
31.34365097957728
 20
77.51172008695887
 10
30.80001491200486
 20
77.70567896277845
 10
30.2496609082362
 20
77.87827824658946
 10
33.47082518694479
 20
78.0333075434257
 10
36.50819362151532
 20
79.09732528404511
 10
39.30991752489474
 20
81.34387204997654
 10
38.85723197813292
 20
80.83675399454776
 10
38.45208874906753
 20
80.28553871690778
 10
38.10172253821763
 20
79.70262856080352
 97
        0
 92
        1
 93
        1
 72
     4
 94
        3
 73
     0
 74
     1
 95
       68
 96
       64
 40
0.0
 40
0.0
 40
0.0
 40
0.0
 40
1.0
 40
1.0
 40
1.0
 40
2.0
 40
2.0
 40
2.0
 40
3.0
 40
3.0
 40
3.0
 40
4.0
 40
4.0
 40
4.0
 40
5.0
 40
5.0
 40
5.0
 40
6.0
 40
6.0
 40
6.0
 40
7.0
 40
7.0
 40
7.0
 40
8.0
 40
8.0
 40
8.0
 40
9.0
 40
9.0
 40
9.0
 40
10.0
 40
10.0
 40
10.0
 40
11.0
 40
11.0
 40
11.0
 40
12.0
 40
12.0
 40
12.0
 40
13.0
 40
13.0
 40
13.0
 40
14.0
 40
14.0
 40
14.0
 40
15.0
 40
15.0
 40
15.0
 40
16.0
 40
16.0
 40
16.0
 40
17.0
 40
17.0
 40
17.0
 40
18.0
 40
18.0
 40
18.0
 40
19.0
 40
19.0
 40
19.0
 40
20.0
 40
20.0
 40
20.0
 40
21.0
 40
21.0
 40
21.0
 40
21.0
 10
36.96535779240797
 20
51.66850855913149
 10
36.32198621053756
 20
52.14737683158121
 10
35.69962971112718
 20
52.58076984362565
 10
35.24780543823666
 20
52.9139105770493
 10
34.36878932517516
 20
53.55952147098512
 10
33.41346434711539
 20
54.17171493871402
 10
32.60369465330741
 20
54.829900431171
 10
32.19906818856482
 20
55.15804577614104
 10
31.83233777415997
 20
55.49514836937274
 10
31.52882486190946
 20
55.84138046564035
 10
31.2246229305619
 20
56.18778481668222
 10
30.98484428478851
 20
56.54090710392033
 10
30.8177571537539
 20
56.90574271580829
 10
30.72646212339478
 20
57.10486923485573
 10
30.66737873582274
 20
57.27436793273002
 10
30.63275552619598
 20
57.41113822349444
 10
30.59796006179496
 20
57.54825302380738
 10
30.58728026579068
 20
57.6519503979134
 10
30.58745252056494
 20
57.72395289355512
 10
30.58745252056494
 20
57.7856201027411
 10
30.59468722108397
 20
57.82437742695016
 10
30.6014051572802
 20
57.85004338831527
 10
30.6151855392212
 20
57.89396835575221
 10
30.62190347541744
 20
57.904992661305
 10
30.65170355136485
 20
57.93841008751193
 10
30.6744411815675
 20
57.96218124636015
 10
30.7144042891964
 20
57.99542641779281
 10
30.7819281607073
 20
58.03228893948499
 10
30.88183592977954
 20
58.08758272202324
 10
31.0432386532635
 20
58.14649385482102
 10
31.24908310850718
 20
58.18628470767565
 10
31.45441079942806
 20
58.22659232485308
 10
31.70211316481753
 20
58.24829642641015
 10
31.96738551718177
 20
58.24812417163589
 10
32.48036023493547
 20
58.2489854455072
 10
33.05896402168317
 20
58.16595864431268
 10
33.55126816652538
 20
58.03521727064745
 10
34.29592555566213
 20
57.839363592311
 10
35.13222248470653
 20
57.49898815836831
 10
35.90840249753332
 20
57.06059975787027
 10
36.68527152945715
 20
56.62341714079206
 10
37.40271266426043
 20
56.08667126419014
 10
37.92877874485809
 20
55.5275322669341
 10
38.34735784631594
 20
55.08259818501408
 10
38.62158744694182
 20
54.64352076541898
 10
38.8017659408204
 20
54.18170571562124
 10
38.98056639650486
 20
53.71954615627498
 10
39.06703829318463
 20
53.22706975665852
 10
39.06772731228168
 20
52.66586370211132
 10
39.06772731228168
 20
52.52495929676459
 10
39.06187064995676
 20
52.37974852206131
 10
39.05050183485543
 20
52.23023137800147
 10
39.03534341472033
 20
52.02714299914599
 10
39.00950519858096
 20
51.71053872405153
 10
38.96196288088451
 20
51.35035399106867
 10
38.92613388783791
 20
51.08111977889639
 10
38.87721353194736
 20
50.78914793652147
 10
38.81451279411582
 20
50.51354029770147
 10
38.79074163526759
 20
50.41001517836972
 10
38.76490341912822
 20
50.30872937110338
 10
38.73768716479475
 20
50.21226669751638
 10
38.19129502083413
 20
50.72730847256123
 10
37.56979979529505
 20
51.21789006966081
 10
36.96535779240797
 20
51.66850855913149
 97
        0
 92
        1
 93
        1
 72
     4
 94
        3
 73
     0
 74
     1
 95
       65
 96
       61
 40
0.0
 40
0.0
 40
0.0
 40
0.0
 40
1.0
 40
1.0
 40
1.0
 40
2.0
 40
2.0
 40
2.0
 40
3.0
 40
3.0
 40
3.0
 40
4.0
 40
4.0
 40
4.0
 40
5.0
 40
5.0
 40
5.0
 40
6.0
 40
6.0
 40
6.0
 40
7.0
 40
7.0
 40
7.0
 40
8.0
 40
8.0
 40
8.0
 40
9.0
 40
9.0
 40
9.0
 40
10.0
 40
10.0
 40
10.0
 40
11.0
 40
11.0
 40
11.0
 40
12.0
 40
12.0
 40
12.0
 40
13.0
 40
13.0
 40
13.0
 40
14.0
 40
14.0
 40
14.0
 40
15.0
 40
15.0
 40
15.0
 40
16.0
 40
16.0
 40
16.0
 40
17.0
 40
17.0
 40
17.0
 40
18.0
 40
18.0
 40
18.0
 40
19.0
 40
19.0
 40
19.0
 40
20.0
 40
20.0
 40
20.0
 40
20.0
 10
15.50895860072345
 20
17.71778157109139
 10
16.29616291910304
 20
17.89313693129061
 10
17.04667697056472
 20
18.02852918386093
 10
17.6318264387344
 20
18.15289713087844
 10
19.37917886885312
 20
18.52496744328543
 10
21.29585774207187
 20
18.70928005174629
 10
23.19531113786437
 20
18.70893554219777
 10
24.58781873300235
 20
18.70893554219777
 10
25.97154133465295
 20
18.61040581131962
 10
27.27258164465755
 20
18.41954752143678
 10
27.7366360065207
 20
18.35167914037736
 10
28.19827880154418
 20
18.22455511697164
 10
28.62081976281008
 20
18.0557454381944
 10
29.25506184164457
 20
17.80425346777116
 10
29.79955918308831
 20
17.45216470917862
 10
30.13631726677148
 20
17.11488986117267
 10
30.30547145509724
 20
16.94745822058952
 10
30.42174342772443
 20
16.78622775187983
 10
30.48599445852433
 20
16.65910372847411
 10
30.55127901796982
 20
16.53025715732577
 10
30.56592067378213
 20
16.44344075109747
 10
30.56592067378213
 20
16.38694118513938
 10
30.56505939991082
 20
16.34077690563703
 10
30.55937499236016
 20
16.30632595078453
 10
30.53250324757521
 20
16.24707030843823
 10
30.51166041988945
 20
16.20331759577556
 10
30.47583142684285
 20
16.14509548207484
 10
30.40968559352605
 20
16.07171494823902
 10
30.31115586264791
 20
15.9625054213566
 10
30.14182941954788
 20
15.82125650646135
 10
29.87862412447479
 20
15.67311740059561
 10
29.61593559372449
 20
15.52497829472987
 10
29.26160752306654
 20
15.3709825265392
 10
28.8094387406275
 20
15.22835557344986
 10
27.26138508433049
 20
14.7381184858988
 10
25.46304524103007
 20
14.55552842518056
 10
23.60045436692975
 20
14.49420572554312
 10
21.73717447373237
 20
14.43047145906599
 10
19.81550021206002
 20
14.48421494863589
 10
17.99545626720252
 20
14.41875813441614
 10
17.95273708318543
 20
14.41703558667352
 10
17.89933810316406
 20
14.41634656757647
 10
17.83801540352661
 20
14.41634656757647
 10
17.47628037757537
 20
14.41565754847942
 10
16.86425916462074
 20
14.45079752242897
 10
16.1824747680898
 20
14.53313530452644
 10
15.67001681465888
 20
14.59480251371241
 10
15.11363389379104
 20
14.68299695813481
 10
14.57809380060895
 20
14.7987521664392
 10
14.17639566702882
 20
14.88591308221602
 10
13.78623860332427
 20
14.98892143722499
 10
13.43742268544273
 20
15.10502115507791
 10
13.17611219288653
 20
15.19183756130621
 10
12.93805609485576
 20
15.28657768715058
 10
12.73841281148554
 20
15.38304036073757
 10
12.58855115787717
 20
15.45538736592782
 10
12.46056586060014
 20
15.52842339021512
 10
12.35790201513969
 20
15.59904784766274
 10
10.94334580889611
 20
16.55506184481957
 10
15.15411376574272
 20
17.63888888447917
 10
15.50895860072345
 20
17.71778157109139
 97
        0
 92
        1
 93
        1
 72
     4
 94
        3
 73
     0
 74
     1
 95
       56
 96
       52
 40
0.0
 40
0.0
 40
0.0
 40
0.0
 40
1.0
 40
1.0
 40
1.0
 40
2.0
 40
2.0
 40
2.0
 40
3.0
 40
3.0
 40
3.0
 40
4.0
 40
4.0
 40
4.0
 40
5.0
 40
5.0
 40
5.0
 40
6.0
 40
6.0
 40
6.0
 40
7.0
 40
7.0
 40
7.0
 40
8.0
 40
8.0
 40
8.0
 40
9.0
 40
9.0
 40
9.0
 40
10.0
 40
10.0
 40
10.0
 40
11.0
 40
11.0
 40
11.0
 40
12.0
 40
12.0
 40
12.0
 40
13.0
 40
13.0
 40
13.0
 40
14.0
 40
14.0
 40
14.0
 40
15.0
 40
15.0
 40
15.0
 40
16.0
 40
16.0
 40
16.0
 40
17.0
 40
17.0
 40
17.0
 40
17.0
 10
17.14055582253778
 20
35.74114311172444
 10
17.13711072705253
 20
34.08853080745009
 10
17.05839029521457
 20
32.59473740504576
 10
16.82033419718381
 20
31.1763915937684
 10
16.68080783003119
 20
30.34577907227467
 10
16.48564317079179
 20
29.54100476692031
 10
16.21950954455624
 20
28.7382975188571
 10
15.91909721824245
 20
29.1603217158002
 10
15.60593803863324
 20
29.66192761845258
 10
15.30001355954305
 20
30.21899955841747
 10
14.56706949505615
 20
31.54949543482096
 10
13.86633707335633
 20
33.19797362451301
 10
13.35801323450772
 20
34.8774576735723
 10
12.84796684791648
 20
36.55590819398603
 10
12.53308512056465
 20
38.27053221699487
 10
12.53497992308153
 20
39.70954860118373
 10
12.53480766830727
 20
40.2841905281234
 10
12.58424478852061
 20
40.81335719465778
 10
12.68243000985023
 20
41.27534449922977
 10
12.75563828891179
 20
41.62192110504591
 10
12.85606282230682
 20
41.9306016605243
 10
12.97888047635598
 20
42.19621852243706
 10
13.1647433777852
 20
42.59653861782309
 10
13.39435899187711
 20
42.89695094413688
 10
13.68081868147563
 20
43.12777234164862
 10
13.96900091881678
 20
43.35756021051478
 10
14.32332898947472
 20
43.52947047522875
 10
14.81993950367349
 20
43.62524412971869
 10
14.89728189731735
 20
43.63971353075674
 10
14.96291096631136
 20
43.64557019308167
 10
15.01992729659224
 20
43.64557019308167
 10
15.10123155004414
 20
43.64522568353314
 10
15.16513807129552
 20
43.63489039707739
 10
15.22611626138444
 20
43.61663139100557
 10
15.3379096098808
 20
43.58252494570159
 10
15.45245903476536
 20
43.51844616967595
 10
15.59319118533781
 20
43.381331369363
 10
15.71445854641861
 20
43.26213106557336
 10
15.84761148692352
 20
43.08712021492266
 10
15.97559678420055
 20
42.85974391289618
 10
16.20142279325867
 20
42.4628689129954
 10
16.40692273895382
 20
41.91199814490395
 10
16.56729193379221
 20
41.29153644801045
 10
16.81034342027658
 20
40.35963811925037
 10
16.9581380165938
 20
39.27443304139667
 10
17.03978677959422
 20
38.28259005119325
 10
17.12212456169169
 20
37.28971353234424
 10
17.14055582253778
 20
36.38744302475731
 10
17.14055582253778
 20
35.80177679226483
 10
17.14055582253778
 20
35.80177679226483
 10
17.14055582253778
 20
35.74114311172444
 10
17.14055582253778
 20
35.74114311172444
 97
        0
 92
        1
 93
        1
 72
     4
 94
        3
 73
     0
 74
     1
 95
       83
 96
       79
 40
0.0
 40
0.0
 40
0.0
 40
0.0
 40
1.0
 40
1.0
 40
1.0
 40
2.0
 40
2.0
 40
2.0
 40
3.0
 40
3.0
 40
3.0
 40
4.0
 40
4.0
 40
4.0
 40
5.0
 40
5.0
 40
5.0
 40
6.0
 40
6.0
 40
6.0
 40
7.0
 40
7.0
 40
7.0
 40
8.0
 40
8.0
 40
8.0
 40
9.0
 40
9.0
 40
9.0
 40
10.0
 40
10.0
 40
10.0
 40
11.0
 40
11.0
 40
11.0
 40
12.0
 40
12.0
 40
12.0
 40
13.0
 40
13.0
 40
13.0
 40
14.0
 40
14.0
 40
14.0
 40
15.0
 40
15.0
 40
15.0
 40
16.0
 40
16.0
 40
16.0
 40
17.0
 40
17.0
 40
17.0
 40
18.0
 40
18.0
 40
18.0
 40
19.0
 40
19.0
 40
19.0
 40
20.0
 40
20.0
 40
20.0
 40
21.0
 40
21.0
 40
21.0
 40
22.0
 40
22.0
 40
22.0
 40
23.0
 40
23.0
 40
23.0
 40
24.0
 40
24.0
 40
24.0
 40
25.0
 40
25.0
 40
25.0
 40
26.0
 40
26.0
 40
26.0
 40
26.0
 10
49.30448403715305
 20
33.43120658886442
 10
49.20388724898375
 20
32.93028970530909
 10
49.07331813009279
 20
32.41559243981277
 10
48.97168781327791
 20
31.90812987483547
 10
48.83491752251349
 20
31.226000968756
 10
48.58687064757551
 20
30.57935654617461
 10
48.26992186293252
 20
29.91341958887581
 10
47.95400660693511
 20
29.24782714112554
 10
47.56953395078123
 20
28.56707627324018
 10
47.18781737101555
 20
27.82810329165409
 10
46.99730359068123
 20
27.4587890556353
 10
46.81436902041447
 20
27.06880424670502
 10
46.6204101445949
 20
26.68881021468196
 10
46.33205565247949
 20
26.11933593097017
 10
46.01545137738503
 20
25.57569986339774
 10
45.68334417260694
 20
25.19605034092321
 10
45.51832409886347
 20
25.00588107013742
 10
45.35261500602296
 20
24.85705294517463
 10
45.19276257550737
 20
24.75266655197156
 10
45.0318766163462
 20
24.64759113967144
 10
44.8802924149952
 20
24.58351236364579
 10
44.71044920757239
 20
24.54940591834182
 10
44.71044920757239
 20
24.54940591834182
 10
44.71113822666944
 20
24.54975042789034
 10
44.71113822666944
 20
24.54975042789034
 10
44.63810220238214
 20
24.53528102685229
 10
44.58435871281225
 20
24.53114691226999
 10
44.54990775795974
 20
24.53114691226999
 10
44.52682561820858
 20
24.53114691226999
 10
44.5133897458161
 20
24.53286946001262
 10
44.50477700710297
 20
24.53424749820672
 10
44.49754230658395
 20
24.54320474646837
 10
44.48617349148262
 20
24.55939669524904
 10
44.47135958089605
 20
24.58799098777661
 10
44.43415254965535
 20
24.65758191657866
 10
44.38454317466775
 20
24.79745279327981
 10
44.35215927710641
 20
24.98968912135675
 10
44.31874185089949
 20
25.18158093988516
 10
44.30048284482766
 20
25.42273762385265
 10
44.30048284482766
 20
25.68973252395951
 10
44.29944931618208
 20
26.33913302292911
 10
44.4072808048704
 20
27.13253851318214
 10
44.54680717202302
 20
27.83912759720689
 10
44.68530001053006
 20
28.5467502098772
 10
44.85307616066174
 20
29.17479111683825
 10
44.95505098702512
 20
29.52033419400881
 10
45.29439289232224
 20
30.67237412427635
 10
45.6068630528344
 20
31.89710556928267
 10
46.01338432009388
 20
33.02330728341084
 10
46.21595593462657
 20
33.58623588570067
 10
46.44092066981338
 20
34.12332627185111
 10
46.6975802834645
 20
34.61184081165954
 10
46.95423989711561
 20
35.10069986101649
 10
47.24156086058544
 20
35.54029404493437
 10
47.56608885529598
 20
35.91580945282661
 10
47.76142576930965
 20
36.14318575485309
 10
47.95090602099839
 20
36.30200465672311
 10
48.09973414596118
 20
36.38847655340288
 10
48.17380369889405
 20
36.43257377561408
 10
48.23753796537117
 20
36.45944552039903
 10
48.28990341674697
 20
36.47494845008266
 10
48.34261337767129
 20
36.49045137976628
 10
48.38361001394577
 20
36.49561902299416
 10
48.42288410247762
 20
36.49596353254267
 10
48.47835013979014
 20
36.4949300038971
 10
48.53553872484528
 20
36.48700628428103
 10
48.62786728384998
 20
36.44635415755508
 10
48.71950682375763
 20
36.40570203082913
 10
48.84559731851777
 20
36.32784287286248
 10
48.99993759625696
 20
36.18383788157904
 10
49.17736001374733
 20
36.01537271235033
 10
49.2803683687563
 20
35.84759656221865
 10
49.35857203627147
 20
35.63021103709939
 10
49.43470864649549
 20
35.41420355017423
 10
49.47501626367291
 20
35.14410806413064
 10
49.47467175412439
 20
34.82578124129356
 10
49.47570528276997
 20
34.4140923308062
 10
49.4057698444194
 20
33.93074543422565
 10
49.30448403715305
 20
33.43120658886442
 97
        0
 92
        1
 93
        1
 72
     4
 94
        3
 73
     0
 74
     1
 95
       95
 96
       91
 40
0.0
 40
0.0
 40
0.0
 40
0.0
 40
1.0
 40
1.0
 40
1.0
 40
2.0
 40
2.0
 40
2.0
 40
3.0
 40
3.0
 40
3.0
 40
4.0
 40
4.0
 40
4.0
 40
5.0
 40
5.0
 40
5.0
 40
6.0
 40
6.0
 40
6.0
 40
7.0
 40
7.0
 40
7.0
 40
8.0
 40
8.0
 40
8.0
 40
9.0
 40
9.0
 40
9.0
 40
10.0
 40
10.0
 40
10.0
 40
11.0
 40
11.0
 40
11.0
 40
12.0
 40
12.0
 40
12.0
 40
13.0
 40
13.0
 40
13.0
 40
14.0
 40
14.0
 40
14.0
 40
15.0
 40
15.0
 40
15.0
 40
16.0
 40
16.0
 40
16.0
 40
17.0
 40
17.0
 40
17.0
 40
18.0
 40
18.0
 40
18.0
 40
19.0
 40
19.0
 40
19.0
 40
20.0
 40
20.0
 40
20.0
 40
21.0
 40
21.0
 40
21.0
 40
22.0
 40
22.0
 40
22.0
 40
23.0
 40
23.0
 40
23.0
 40
24.0
 40
24.0
 40
24.0
 40
25.0
 40
25.0
 40
25.0
 40
26.0
 40
26.0
 40
26.0
 40
27.0
 40
27.0
 40
27.0
 40
28.0
 40
28.0
 40
28.0
 40
29.0
 40
29.0
 40
29.0
 40
30.0
 40
30.0
 40
30.0
 40
30.0
 10
57.46384818441877
 20
33.00814886327574
 10
57.46384818441877
 20
33.00814886327574
 10
56.81031357086687
 20
32.11242403711078
 10
56.81031357086687
 20
32.11242403711078
 10
57.57994790227168
 20
31.55225151120916
 10
58.61416556694368
 20
30.71095919371115
 10
59.41101615268197
 20
29.80558810018749
 10
59.80961370032538
 20
29.35462510116829
 10
60.14723305787986
 20
28.88850368201399
 10
60.36944171667847
 20
28.45786674635776
 10
60.48106281040057
 20
28.24254827852964
 10
60.56408961159509
 20
28.03756509715728
 10
60.61748859161646
 20
27.84877386456559
 10
60.67088757163783
 20
27.65998263197389
 10
60.69534774958311
 20
27.48876138635698
 10
60.69534774958311
 20
27.33476561816631
 10
60.69534774958311
 20
27.31133896886661
 10
60.69465873048606
 20
27.28791231956691
 10
60.69328069229196
 20
27.26448567026721
 10
60.69328069229196
 20
27.26448567026721
 10
60.69362520184048
 20
27.26517468936426
 10
60.69362520184048
 20
27.26517468936426
 10
60.67536619576866
 20
26.88828124327793
 10
60.62058917755319
 20
26.60233831800219
 10
60.55375432513934
 20
26.40286728940623
 10
60.50414495015175
 20
26.25231661670081
 10
60.44936793193627
 20
26.15068629988594
 10
60.40079208559425
 20
26.08143988063242
 10
60.3642740734506
 20
26.02976344835367
 10
60.3312011567922
 20
25.99496798395265
 10
60.29812824013381
 20
25.96740722007065
 10
60.24920788424325
 20
25.92709960289323
 10
60.19959850925566
 20
25.89953883901123
 10
60.12242837038606
 20
25.8743896419689
 10
60.04560274106499
 20
25.84992946402363
 10
59.93949380011929
 20
25.83201496750033
 10
59.79962292341816
 20
25.83201496750033
 10
59.62461207276746
 20
25.83167045795181
 10
59.39826929938655
 20
25.86164278867348
 10
59.14023164754133
 20
25.92882215063585
 10
58.68789061032803
 20
26.04561088758582
 10
58.14287650456151
 20
26.27539875645198
 10
57.58442652640251
 20
26.57960068779954
 10
56.74520126619565
 20
27.03504231094957
 10
55.87324759887891
 20
27.65343695055192
 10
55.14598794194267
 20
28.25770669866474
 10
54.78218585870029
 20
28.55949706317263
 10
54.45386825895598
 20
28.85749782264674
 10
54.18308375381535
 20
29.12655978004475
 10
53.91298826777176
 20
29.39424369924866
 10
53.69904783813774
 20
29.63643391186173
 10
53.57536891021727
 20
29.80214300470224
 10
53.35005966548193
 20
30.0994547450793
 10
53.14025335043021
 20
30.50046385956238
 10
52.9593858374546
 20
30.94419215806256
 10
52.77748479583341
 20
31.38792045656274
 10
52.62245549899717
 20
31.87195637224034
 10
52.48155109365045
 20
32.33704426274907
 10
52.37923175773853
 20
32.67156303436683
 10
52.34650335062865
 20
32.9206434379504
 10
52.34684786017718
 20
33.07636175388369
 10
52.3471923697257
 20
33.21829968787598
 10
52.3706190190254
 20
33.27824434931933
 10
52.37819822909295
 20
33.29546982674558
 10
52.37819822909295
 20
33.29546982674558
 10
52.38543292961198
 20
33.30718315139543
 10
52.38543292961198
 20
33.30718315139543
 10
52.38784449645165
 20
33.30925020868658
 10
52.39507919697068
 20
33.31579589010855
 10
52.41540526033365
 20
33.32682019566136
 10
52.44537759105533
 20
33.34335665399055
 10
52.50635578114424
 20
33.36816134148435
 10
52.60144041653714
 20
33.38710936665323
 10
52.69618054238151
 20
33.40640190137062
 10
52.82296005623871
 20
33.41880424511752
 10
52.9717881812015
 20
33.41880424511752
 10
53.24601778182738
 20
33.41949326421457
 10
53.59362791628909
 20
33.37608506110043
 10
53.9619086236623
 20
33.2944362981
 10
54.5148464490449
 20
33.17282442747069
 10
55.116015611221
 20
32.96680771745275
 10
55.63519150084815
 20
32.74218749181446
 10
55.89495170043599
 20
32.62987737899531
 10
56.13473034620937
 20
32.51343315159387
 10
56.33764647029059
 20
32.40319009606587
 10
56.54021808482328
 20
32.29363605963493
 10
56.70661619676085
 20
32.1885606473348
 10
56.81031357086687
 20
32.11276854665931
 10
56.81031357086687
 20
32.11276854665931
 10
57.46384818441877
 20
33.00814886327574
 10
57.46384818441877
 20
33.00814886327574
 97
        0
 75
     2
 76
     1
 98
        0
  0
ENDSEC
  0
SECTION
  2
OBJECTS
  0
DICTIONARY
  5
C
330
0
100
AcDbDictionary
281
     1
  3
ACAD_GROUP
350
D
  3
ACAD_LAYOUT
350
1A
  3
ACAD_MLINESTYLE
350
17
  3
ACAD_PLOTSETTINGS
350
19
  3
ACAD_PLOTSTYLENAME
350
E
  3
ACAD_TABLESTYLE
350
49
  3
ACAD_VISUALSTYLE
350
2A
  0
DICTIONARY
  5
D
102
{ACAD_REACTORS
330
C
102
}
330
C
100
AcDbDictionary
281
     1
  0
DICTIONARY
  5
1A
102
{ACAD_REACTORS
330
C
102
}
330
C
100
AcDbDictionary
281
     1
  3
Layout1
350
1E
  3
Layout2
350
26
  3
Model
350
22
  0
DICTIONARY
  5
17
102
{ACAD_REACTORS
330
C
102
}
330
C
100
AcDbDictionary
281
     1
  3
Standard
350
18
  0
DICTIONARY
  5
19
102
{ACAD_REACTORS
330
C
102
}
330
C
100
AcDbDictionary
281
     1
  0
ACDBDICTIONARYWDFLT
  5
E
102
{ACAD_REACTORS
330
C
102
}
330
C
100
AcDbDictionary
281
     1
  3
Normal
350
F
100
AcDbDictionaryWithDefault
340
F
  0
DICTIONARY
  5
49
102
{ACAD_REACTORS
330
C
102
}
330
C
100
AcDbDictionary
281
     1
  0
DICTIONARY
  5
2A
102
{ACAD_REACTORS
330
C
102
}
330
C
100
AcDbDictionary
281
     1
  3
2dWireframe
350
2F
  3
3D Hidden
350
31
  3
3dWireframe
350
30
  3
Basic
350
32
  3
Brighten
350
36
  3
ColorChange
350
3A
  3
Conceptual
350
34
  3
Dim
350
35
  3
Facepattern
350
39
  3
Flat
350
2B
  3
FlatWithEdges
350
2C
  3
Gouraud
350
2D
  3
GouraudWithEdges
350
2E
  3
Linepattern
350
38
  3
Realistic
350
33
  3
Thicken
350
37
  0
LAYOUT
  5
1E
102
{ACAD_REACTORS
330
1A
102
}
330
1A
100
AcDbPlotSettings
  1

  2
none_device
  4

  6

 40
0.0
 41
0.0
 42
0.0
 43
0.0
 44
0.0
 45
0.0
 46
0.0
 47
0.0
 48
0.0
 49
0.0
140
0.0
141
0.0
142
1.0
143
1.0
 70
   688
 72
     0
 73
     0
 74
     5
  7

 75
    16
 76
     0
 77
     2
 78
   300
147
1.0
148
0.0
149
0.0
100
AcDbLayout
  1
Layout1
 70
     1
 71
     1
 10
0.0
 20
0.0
 11
12.0
 21
9.0
 12
0.0
 22
0.0
 32
0.0
 14
1.000000000000000E+20
 24
1.000000000000000E+20
 34
1.000000000000000E+20
 15
-1.000000000000000E+20
 25
-1.000000000000000E+20
 35
-1.000000000000000E+20
146
0.0
 13
0.0
 23
0.0
 33
0.0
 16
1.0
 26
0.0
 36
0.0
 17
0.0
 27
1.0
 37
0.0
 76
     0
330
1B
  0
LAYOUT
  5
26
102
{ACAD_REACTORS
330
1A
102
}
330
1A
100
AcDbPlotSettings
  1

  2
none_device
  4

  6

 40
0.0
 41
0.0
 42
0.0
 43
0.0
 44
0.0
 45
0.0
 46
0.0
 47
0.0
 48
0.0
 49
0.0
140
0.0
141
0.0
142
1.0
143
1.0
 70
   688
 72
     0
 73
     0
 74
     5
  7

 75
    16
 76
     0
 77
     2
 78
   300
147
1.0
148
0.0
149
0.0
100
AcDbLayout
  1
Layout2
 70
     1
 71
     2
 10
0.0
 20
0.0
 11
0.0
 21
0.0
 12
0.0
 22
0.0
 32
0.0
 14
0.0
 24
0.0
 34
0.0
 15
0.0
 25
0.0
 35
0.0
146
0.0
 13
0.0
 23
0.0
 33
0.0
 16
1.0
 26
0.0
 36
0.0
 17
0.0
 27
1.0
 37
0.0
 76
     0
330
23
  0
LAYOUT
  5
22
102
{ACAD_REACTORS
330
1A
102
}
330
1A
100
AcDbPlotSettings
  1

  2
none_device
  4

  6

 40
0.0
 41
0.0
 42
0.0
 43
0.0
 44
0.0
 45
0.0
 46
0.0
 47
0.0
 48
0.0
 49
0.0
140
0.0
141
0.0
142
1.0
143
1.0
 70
  1712
 72
     0
 73
     0
 74
     0
  7

 75
     0
 76
     0
 77
     2
 78
   300
147
1.0
148
0.0
149
0.0
100
AcDbLayout
  1
Model
 70
     1
 71
     0
 10
0.0
 20
0.0
 11
12.0
 21
9.0
 12
0.0
 22
0.0
 32
0.0
 14
1.000000000000000E+20
 24
1.000000000000000E+20
 34
1.000000000000000E+20
 15
-1.000000000000000E+20
 25
-1.000000000000000E+20
 35
-1.000000000000000E+20
146
0.0
 13
0.0
 23
0.0
 33
0.0
 16
1.0
 26
0.0
 36
0.0
 17
0.0
 27
1.0
 37
0.0
 76
     0
330
1F
331
29
  0
MLINESTYLE
  5
18
102
{ACAD_REACTORS
330
17
102
}
330
17
100
AcDbMlineStyle
  2
Standard
 70
     0
  3

 62
   256
 51
90.0
 52
90.0
 71
     2
 49
0.5
 62
   256
  6
BYLAYER
 49
-0.5
 62
   256
  6
BYLAYER
  0
ACDBPLACEHOLDER
  5
F
102
{ACAD_REACTORS
330
E
102
}
330
E
  0
VISUALSTYLE
  5
2F
102
{ACAD_REACTORS
330
2A
102
}
330
2A
100
AcDbVisualStyle
  2
2dWireframe
 70
     4
 71
     0
 72
     2
 73
     0
 90
        0
 40
-0.6
 41
-30.0
 62
     5
 63
     7
421
 16777215
 74
     1
 91
        4
 64
     7
 65
   257
 75
     1
175
     1
 42
1.0
 92
        0
 66
   257
 43
1.0
 76
     1
 77
     6
 78
     2
 67
     7
 79
     5
170
     0
171
     0
290
     0
174
     0
 93
        1
 44
0.0
173
     0
291
     0
 45
0.0
1001
ACAD
1000
AcDbSavedByObjectVersion
1070
     0
  0
VISUALSTYLE
  5
31
102
{ACAD_REACTORS
330
2A
102
}
330
2A
100
AcDbVisualStyle
  2
3D Hidden
 70
     6
 71
     1
 72
     2
 73
     2
 90
        0
 40
-0.6
 41
-30.0
 62
     5
 63
     7
421
 16777215
 74
     2
 91
        2
 64
     7
 65
   257
 75
     2
175
     1
 42
40.0
 92
        0
 66
   257
 43
1.0
 76
     1
 77
     6
 78
     2
 67
     7
 79
     3
170
     0
171
     0
290
     0
174
     0
 93
        1
 44
0.0
173
     0
291
     0
 45
0.0
1001
ACAD
1000
AcDbSavedByObjectVersion
1070
     0
  0
VISUALSTYLE
  5
30
102
{ACAD_REACTORS
330
2A
102
}
330
2A
100
AcDbVisualStyle
  2
3dWireframe
 70
     5
 71
     0
 72
     2
 73
     0
 90
        0
 40
-0.6
 41
-30.0
 62
     5
 63
     7
421
 16777215
 74
     1
 91
        4
 64
     7
 65
   257
 75
     1
175
     1
 42
1.0
 92
        0
 66
   257
 43
1.0
 76
     1
 77
     6
 78
     2
 67
     7
 79
     5
170
     0
171
     0
290
     0
174
     0
 93
        1
 44
0.0
173
     0
291
     0
 45
0.0
1001
ACAD
1000
AcDbSavedByObjectVersion
1070
     0
  0
VISUALSTYLE
  5
32
102
{ACAD_REACTORS
330
2A
102
}
330
2A
100
AcDbVisualStyle
  2
Basic
 70
     7
 71
     1
 72
     0
 73
     1
 90
        0
 40
-0.6
 41
-30.0
 62
     5
 63
     7
421
 16777215
 74
     0
 91
        4
 64
     7
 65
   257
 75
     1
175
     1
 42
1.0
 92
        8
 66
     7
 43
1.0
 76
     1
 77
     6
 78
     2
 67
     7
 79
     5
170
     0
171
     0
290
     0
174
     0
 93
        1
 44
0.0
173
     0
291
     1
 45
0.0
1001
ACAD
1000
AcDbSavedByObjectVersion
1070
     0
  0
VISUALSTYLE
  5
36
102
{ACAD_REACTORS
330
2A
102
}
330
2A
100
AcDbVisualStyle
  2
Brighten
 70
    12
 71
     2
 72
     2
 73
     0
 90
        0
 40
-0.6
 41
-30.0
 62
     5
 63
     7
421
 16777215
 74
     1
 91
        4
 64
     7
 65
   257
 75
     1
175
     1
 42
1.0
 92
        8
 66
     7
 43
1.0
 76
     1
 77
     6
 78
     2
 67
     7
 79
     5
170
     0
171
     0
290
     0
174
     0
 93
        1
 44
50.0
173
     0
291
     1
 45
0.0
1001
ACAD
1000
AcDbSavedByObjectVersion
1070
     0
  0
VISUALSTYLE
  5
3A
102
{ACAD_REACTORS
330
2A
102
}
330
2A
100
AcDbVisualStyle
  2
ColorChange
 70
    16
 71
     2
 72
     2
 73
     3
 90
        0
 40
-0.6
 41
-30.0
 62
     5
 63
     8
421
  8421504
 74
     1
 91
        4
 64
     7
 65
   257
 75
     1
175
     1
 42
1.0
 92
        8
 66
     8
424
  8421504
 43
1.0
 76
     1
 77
     6
 78
     2
 67
     7
 79
     5
170
     0
171
     0
290
     0
174
     0
 93
        1
 44
0.0
173
     0
291
     1
 45
0.0
1001
ACAD
1000
AcDbSavedByObjectVersion
1070
     0
  0
VISUALSTYLE
  5
34
102
{ACAD_REACTORS
330
2A
102
}
330
2A
100
AcDbVisualStyle
  2
Conceptual
 70
     9
 71
     3
 72
     2
 73
     0
 90
        0
 40
-0.6
 41
-30.0
 62
     5
 63
     7
421
 16777215
 74
     2
 91
        2
 64
     7
 65
   257
 75
     1
175
     1
 42
40.0
 92
        8
 66
     7
 43
1.0
 76
     1
 77
     6
 78
     2
 67
     7
 79
     3
170
     0
171
     0
290
     0
174
     0
 93
        1
 44
0.0
173
     0
291
     0
 45
0.0
1001
ACAD
1000
AcDbSavedByObjectVersion
1070
     0
  0
VISUALSTYLE
  5
35
102
{ACAD_REACTORS
330
2A
102
}
330
2A
100
AcDbVisualStyle
  2
Dim
 70
    11
 71
     2
 72
     2
 73
     0
 90
        0
 40
-0.6
 41
-30.0
 62
     5
 63
     7
421
 16777215
 74
     1
 91
        4
 64
     7
 65
   257
 75
     1
175
     1
 42
1.0
 92
        8
 66
     7
 43
1.0
 76
     1
 77
     6
 78
     2
 67
     7
 79
     5
170
     0
171
     0
290
     0
174
     0
 93
        1
 44
-50.0
173
     0
291
     1
 45
0.0
1001
ACAD
1000
AcDbSavedByObjectVersion
1070
     0
  0
VISUALSTYLE
  5
39
102
{ACAD_REACTORS
330
2A
102
}
330
2A
100
AcDbVisualStyle
  2
Facepattern
 70
    15
 71
     2
 72
     2
 73
     0
 90
        0
 40
-0.6
 41
-30.0
 62
     5
 63
     7
421
 16777215
 74
     1
 91
        4
 64
     7
 65
   257
 75
     1
175
     1
 42
1.0
 92
        8
 66
     7
 43
1.0
 76
     1
 77
     6
 78
     2
 67
     7
 79
     5
170
     0
171
     0
290
     0
174
     0
 93
        1
 44
0.0
173
     0
291
     1
 45
0.0
1001
ACAD
1000
AcDbSavedByObjectVersion
1070
     0
  0
VISUALSTYLE
  5
2B
102
{ACAD_REACTORS
330
2A
102
}
330
2A
100
AcDbVisualStyle
  2
Flat
 70
     0
 71
     2
 72
     1
 73
     1
 90
        2
 40
-0.6
 41
30.0
 62
     5
 63
     7
421
 16777215
 74
     0
 91
        4
 64
     7
 65
   257
 75
     1
175
     1
 42
1.0
 92
        8
 66
     7
 43
1.0
 76
     1
 77
     6
 78
     2
 67
     7
 79
     5
170
     0
171
     0
290
     0
174
     0
 93
       13
 44
0.0
173
     0
291
     1
 45
0.0
1001
ACAD
1000
AcDbSavedByObjectVersion
1070
     0
  0
VISUALSTYLE
  5
2C
102
{ACAD_REACTORS
330
2A
102
}
330
2A
100
AcDbVisualStyle
  2
FlatWithEdges
 70
     1
 71
     2
 72
     1
 73
     1
 90
        2
 40
-0.6
 41
30.0
 62
     5
 63
     7
421
 16777215
 74
     1
 91
        4
 64
     7
 65
   257
 75
     1
175
     1
 42
1.0
 92
        0
 66
   257
 43
1.0
 76
     1
 77
     6
 78
     2
 67
     7
 79
     5
170
     0
171
     0
290
     0
174
     0
 93
       13
 44
0.0
173
     0
291
     1
 45
0.0
1001
ACAD
1000
AcDbSavedByObjectVersion
1070
     0
  0
VISUALSTYLE
  5
2D
102
{ACAD_REACTORS
330
2A
102
}
330
2A
100
AcDbVisualStyle
  2
Gouraud
 70
     2
 71
     2
 72
     2
 73
     1
 90
        2
 40
-0.6
 41
30.0
 62
     5
 63
     7
421
 16777215
 74
     0
 91
        4
 64
     7
 65
   257
 75
     1
175
     1
 42
1.0
 92
        0
 66
     7
 43
1.0
 76
     1
 77
     6
 78
     2
 67
     7
 79
     5
170
     0
171
     0
290
     0
174
     0
 93
       13
 44
0.0
173
     0
291
     1
 45
0.0
1001
ACAD
1000
AcDbSavedByObjectVersion
1070
     0
  0
VISUALSTYLE
  5
2E
102
{ACAD_REACTORS
330
2A
102
}
330
2A
100
AcDbVisualStyle
  2
GouraudWithEdges
 70
     3
 71
     2
 72
     2
 73
     1
 90
        2
 40
-0.6
 41
30.0
 62
     5
 63
     7
421
 16777215
 74
     1
 91
        4
 64
     7
 65
   257
 75
     1
175
     1
 42
1.0
 92
        0
 66
   257
 43
1.0
 76
     1
 77
     6
 78
     2
 67
     7
 79
     5
170
     0
171
     0
290
     0
174
     0
 93
       13
 44
0.0
173
     0
291
     1
 45
0.0
1001
ACAD
1000
AcDbSavedByObjectVersion
1070
     0
  0
VISUALSTYLE
  5
38
102
{ACAD_REACTORS
330
2A
102
}
330
2A
100
AcDbVisualStyle
  2
Linepattern
 70
    14
 71
     2
 72
     2
 73
     0
 90
        0
 40
-0.6
 41
-30.0
 62
     5
 63
     7
421
 16777215
 74
     1
 91
        4
 64
     7
 65
   257
 75
     7
175
     7
 42
1.0
 92
        8
 66
     7
 43
1.0
 76
     1
 77
     6
 78
     2
 67
     7
 79
     5
170
     0
171
     0
290
     0
174
     0
 93
        1
 44
0.0
173
     0
291
     1
 45
0.0
1001
ACAD
1000
AcDbSavedByObjectVersion
1070
     0
  0
VISUALSTYLE
  5
33
102
{ACAD_REACTORS
330
2A
102
}
330
2A
100
AcDbVisualStyle
  2
Realistic
 70
     8
 71
     2
 72
     2
 73
     0
 90
        0
 40
-0.6
 41
-30.0
 62
     5
 63
     7
421
 16777215
 74
     1
 91
        0
 64
     7
 65
   257
 75
     1
175
     1
 42
1.0
 92
        8
 66
     8
424
  7895160
 43
1.0
 76
     1
 77
     6
 78
     2
 67
     7
 79
     5
170
     0
171
     0
290
     0
174
     0
 93
       13
 44
0.0
173
     0
291
     0
 45
0.0
1001
ACAD
1000
AcDbSavedByObjectVersion
1070
     0
  0
VISUALSTYLE
  5
37
102
{ACAD_REACTORS
330
2A
102
}
330
2A
100
AcDbVisualStyle
  2
Thicken
 70
    13
 71
     2
 72
     2
 73
     0
 90
        0
 40
-0.6
 41
-30.0
 62
     5
 63
     7
421
 16777215
 74
     1
 91
        4
 64
     7
 65
   257
 75
     1
175
     1
 42
1.0
 92
       12
 66
     7
 43
1.0
 76
     1
 77
     6
 78
     2
 67
     7
 79
     5
170
     0
171
     0
290
     0
174
     0
 93
        1
 44
0.0
173
     0
291
     1
 45
0.0
1001
ACAD
1000
AcDbSavedByObjectVersion
1070
     0
  0
ENDSEC
  0
EOF
