  0
SECTION
  2
HEADER
  9
$ACADVER
  1
AC1006
  9
$EXTMIN
 10
0.000000
 20
0.000000
 30
0.000000
  9
$EXTMAX
 10
355.000000
 20
355.000000
 30
0.000000
  0
ENDSEC
  0
SECTION
  2
ENTITIES
  0
POLYLINE
  8
0
 66
1
 70
1
  0
VERTEX
  8
0
 10
177.383705
 20
341.392666
 42
0.094221
  0
VERTEX
  8
0
 10
177.271440
 20
339.459825
 42
0.164089
  0
VERTEX
  8
0
 10
177.970070
 20
338.032358
 42
0.164099
  0
VERTEX
  8
0
 10
179.390482
 20
337.319622
 42
0.094234
  0
VERTEX
  8
0
 10
181.324213
 20
337.412784
 42
-0.219228
  0
VERTEX
  8
0
 10
183.968271
 20
336.888977
 42
-0.092959
  0
VERTEX
  8
0
 10
186.511494
 20
334.203559
 42
-0.074560
  0
VERTEX
  8
0
 10
188.365264
 20
330.096444
 42
-0.068893
  0
VERTEX
  8
0
 10
189.000000
 20
325.511626
 42
-0.108901
  0
VERTEX
  8
0
 10
188.246367
 20
322.092478
 42
-0.081973
  0
VERTEX
  8
0
 10
186.074186
 20
318.900132
 42
-0.052051
  0
VERTEX
  8
0
 10
182.055345
 20
315.475514
 42
-0.016114
  0
VERTEX
  8
0
 10
175.354889
 20
311.185431
 42
0.001391
  0
VERTEX
  8
0
 10
171.817894
 20
309.064968
 42
0.001687
  0
VERTEX
  8
0
 10
168.513624
 20
307.056277
 42
0.001424
  0
VERTEX
  8
0
 10
165.743460
 20
305.348585
 42
0.011655
  0
VERTEX
  8
0
 10
164.500000
 20
304.536415
 42
-0.054159
  0
VERTEX
  8
0
 10
163.282507
 20
303.881244
 42
-0.102703
  0
VERTEX
  8
0
 10
162.191800
 20
303.681884
 42
-0.073212
  0
VERTEX
  8
0
 10
160.875312
 20
303.907955
 42
-0.017561
  0
VERTEX
  8
0
 10
158.788289
 20
304.672964
 42
-0.035100
  0
VERTEX
  8
0
 10
157.322909
 20
305.392856
 42
-0.036137
  0
VERTEX
  8
0
 10
155.987621
 20
306.304518
 42
-0.038656
  0
VERTEX
  8
0
 10
154.956185
 20
307.262648
 42
-0.109844
  0
VERTEX
  8
0
 10
154.466292
 20
308.106203
 42
0.055458
  0
VERTEX
  8
0
 10
154.159402
 20
308.796874
 42
0.089947
  0
VERTEX
  8
0
 10
153.742651
 20
309.283354
 42
0.125829
  0
VERTEX
  8
0
 10
153.287354
 20
309.493648
 42
0.186085
  0
VERTEX
  8
0
 10
152.859830
 20
309.413370
 42
0.115158
  0
VERTEX
  8
0
 10
152.519189
 20
309.074440
 42
0.081852
  0
VERTEX
  8
0
 10
152.310980
 20
308.575409
 42
0.075535
  0
VERTEX
  8
0
 10
152.263860
 20
307.995984
 42
0.074329
  0
VERTEX
  8
0
 10
152.390293
 20
307.425296
 42
-0.124265
  0
VERTEX
  8
0
 10
152.461802
 20
306.827952
 42
-0.085142
  0
VERTEX
  8
0
 10
152.260371
 20
306.172122
 42
-0.076509
  0
VERTEX
  8
0
 10
151.821899
 20
305.558700
 42
-0.070781
  0
VERTEX
  8
0
 10
151.208467
 20
305.086374
 42
0.102754
  0
VERTEX
  8
0
 10
150.627205
 20
304.576955
 42
0.437366
  0
VERTEX
  8
0
 10
150.699930
 20
304.173206
 42
0.093377
  0
VERTEX
  8
0
 10
151.562251
 20
303.827011
 42
0.008790
  0
VERTEX
  8
0
 10
153.817793
 20
303.421278
 42
-0.030599
  0
VERTEX
  8
0
 10
155.789881
 20
302.977008
 42
-0.046901
  0
VERTEX
  8
0
 10
157.417679
 20
302.333454
 42
-0.054887
  0
VERTEX
  8
0
 10
158.692336
 20
301.498538
 42
-0.075443
  0
VERTEX
  8
0
 10
159.605172
 20
300.479832
 42
-0.087588
  0
VERTEX
  8
0
 10
160.263154
 20
298.946306
 42
-0.119525
  0
VERTEX
  8
0
 10
160.252151
 20
297.448111
 42
-0.053430
  0
VERTEX
  8
0
 10
159.474351
 20
295.330637
 42
-0.006350
  0
VERTEX
  8
0
 10
157.199402
 20
290.868481
 42
0.001809
  0
VERTEX
  8
0
 10
155.671164
 20
287.937041
 42
0.002310
  0
VERTEX
  8
0
 10
154.285013
 20
285.223866
 42
0.001792
  0
VERTEX
  8
0
 10
153.141762
 20
282.940085
 42
0.019439
  0
VERTEX
  8
0
 10
152.720064
 20
282.000000
 42
-0.053704
  0
VERTEX
  8
0
 10
152.348243
 20
281.303072
 42
-0.317344
  0
VERTEX
  8
0
 10
151.982155
 20
281.165774
 42
-0.168155
  0
VERTEX
  8
0
 10
151.540332
 20
281.460939
 42
-0.017361
  0
VERTEX
  8
0
 10
150.808041
 20
282.500000
 42
-0.073620
  0
VERTEX
  8
0
 10
147.939207
 20
288.718856
 42
-0.043143
  0
VERTEX
  8
0
 10
146.315000
 20
296.772110
 42
-0.043516
  0
VERTEX
  8
0
 10
146.109317
 20
304.741374
 42
-0.095764
  0
VERTEX
  8
0
 10
147.623287
 20
310.618565
 42
-0.068240
  0
VERTEX
  8
0
 10
149.761859
 20
313.887466
 42
-0.073979
  0
VERTEX
  8
0
 10
152.650403
 20
316.357744
 42
-0.069243
  0
VERTEX
  8
0
 10
156.301774
 20
317.995139
 42
-0.050179
  0
VERTEX
  8
0
 10
160.689904
 20
318.807306
 42
-0.016463
  0
VERTEX
  8
0
 10
163.491961
 20
318.947005
 42
-0.050704
  0
VERTEX
  8
0
 10
165.380745
 20
318.787155
 42
-0.071610
  0
VERTEX
  8
0
 10
166.812591
 20
318.298747
 42
-0.066061
  0
VERTEX
  8
0
 10
168.092588
 20
317.416209
 42
0.034208
  0
VERTEX
  8
0
 10
168.985824
 20
316.712639
 42
0.076202
  0
VERTEX
  8
0
 10
169.764329
 20
316.339767
 42
0.121936
  0
VERTEX
  8
0
 10
170.379902
 20
316.307795
 42
0.198099
  0
VERTEX
  8
0
 10
170.811050
 20
316.591452
 42
-0.104106
  0
VERTEX
  8
0
 10
171.309964
 20
317.070979
 42
-0.017181
  0
VERTEX
  8
0
 10
172.472621
 20
317.742490
 42
-0.018237
  0
VERTEX
  8
0
 10
173.918046
 20
318.445945
 42
-0.015220
  0
VERTEX
  8
0
 10
175.500000
 20
319.088878
 42
0.031712
  0
VERTEX
  8
0
 10
177.524037
 20
319.990310
 42
0.070122
  0
VERTEX
  8
0
 10
178.894796
 20
320.973901
 42
0.077342
  0
VERTEX
  8
0
 10
179.858853
 20
322.231589
 42
0.045983
  0
VERTEX
  8
0
 10
180.609004
 20
323.968357
 42
0.025354
  0
VERTEX
  8
0
 10
180.998272
 20
325.402054
 42
0.023581
  0
VERTEX
  8
0
 10
181.251680
 20
326.902849
 42
0.024295
  0
VERTEX
  8
0
 10
181.348774
 20
328.257748
 42
0.069797
  0
VERTEX
  8
0
 10
181.239512
 20
329.192106
 42
0.210254
  0
VERTEX
  8
0
 10
179.734490
 20
331.090803
 42
0.112276
  0
VERTEX
  8
0
 10
176.787210
 20
331.882612
 42
0.130085
  0
VERTEX
  8
0
 10
174.071725
 20
331.275742
 42
0.280047
  0
VERTEX
  8
0
 10
173.000000
 20
329.512333
 42
0.105105
  0
VERTEX
  8
0
 10
173.146650
 20
328.822404
 42
0.202254
  0
VERTEX
  8
0
 10
173.551937
 20
328.442721
 42
0.121174
  0
VERTEX
  8
0
 10
174.287669
 20
328.359604
 42
0.029315
  0
VERTEX
  8
0
 10
175.500000
 20
328.589356
 42
-0.030631
  0
VERTEX
  8
0
 10
176.893794
 20
328.849703
 42
-0.198755
  0
VERTEX
  8
0
 10
177.568075
 20
328.663833
 42
-0.199168
  0
VERTEX
  8
0
 10
177.912989
 20
328.056130
 42
-0.030770
  0
VERTEX
  8
0
 10
178.000000
 20
326.643592
 42
-0.159280
  0
VERTEX
  8
0
 10
177.192768
 20
324.173878
 42
-0.163009
  0
VERTEX
  8
0
 10
175.089577
 20
322.685663
 42
-0.073924
  0
VERTEX
  8
0
 10
171.036690
 20
322.093625
 42
-0.014581
  0
VERTEX
  8
0
 10
163.672679
 20
322.327046
 42
-0.003658
  0
VERTEX
  8
0
 10
159.833257
 20
322.589159
 42
-0.005708
  0
VERTEX
  8
0
 10
156.531462
 20
322.876791
 42
-0.001945
  0
VERTEX
  8
0
 10
153.696684
 20
323.167516
 42
-0.171479
  0
VERTEX
  8
0
 10
153.318401
 20
323.348265
 42
-0.269205
  0
VERTEX
  8
0
 10
152.992446
 20
324.576250
 42
-0.039172
  0
VERTEX
  8
0
 10
153.900940
 20
327.105930
 42
-0.038104
  0
VERTEX
  8
0
 10
155.497706
 20
330.033922
 42
-0.033140
  0
VERTEX
  8
0
 10
157.589464
 20
332.833484
 42
0.006828
  0
VERTEX
  8
0
 10
158.896264
 20
334.403074
 42
0.010022
  0
VERTEX
  8
0
 10
159.998155
 20
335.821115
 42
0.005801
  0
VERTEX
  8
0
 10
160.880368
 20
337.033779
 42
0.155573
  0
VERTEX
  8
0
 10
161.000000
 20
337.408964
 42
0.382595
  0
VERTEX
  8
0
 10
160.498421
 20
337.968510
 42
0.073640
  0
VERTEX
  8
0
 10
159.016048
 20
337.912349
 42
0.050833
  0
VERTEX
  8
0
 10
156.986652
 20
337.314569
 42
0.036398
  0
VERTEX
  8
0
 10
154.866074
 20
336.261816
 42
-0.021570
  0
VERTEX
  8
0
 10
152.940612
 20
335.233733
 42
-0.180582
  0
VERTEX
  8
0
 10
151.974668
 20
335.146578
 42
-0.147852
  0
VERTEX
  8
0
 10
151.089374
 20
335.702730
 42
-0.013066
  0
VERTEX
  8
0
 10
149.389304
 20
337.761816
 42
0.040465
  0
VERTEX
  8
0
 10
147.268689
 20
340.061374
 42
0.159612
  0
VERTEX
  8
0
 10
145.539628
 20
340.851054
 42
0.230414
  0
VERTEX
  8
0
 10
144.077239
 20
340.332012
 42
0.087545
  0
VERTEX
  8
0
 10
142.818046
 20
338.500000
 42
-0.063797
  0
VERTEX
  8
0
 10
141.781627
 20
336.828176
 42
-0.172630
  0
VERTEX
  8
0
 10
140.606382
 20
336.113216
 42
-0.192238
  0
VERTEX
  8
0
 10
139.333511
 20
336.338526
 42
-0.080935
  0
VERTEX
  8
0
 10
138.000000
 20
337.500000
 42
0.085950
  0
VERTEX
  8
0
 10
136.588963
 20
338.704493
 42
0.204330
  0
VERTEX
  8
0
 10
135.248307
 20
338.882499
 42
0.198354
  0
VERTEX
  8
0
 10
134.163476
 20
338.035794
 42
0.081225
  0
VERTEX
  8
0
 10
133.502805
 20
336.250000
 42
-0.003281
  0
VERTEX
  8
0
 10
133.234294
 20
334.917271
 42
-0.001404
  0
VERTEX
  8
0
 10
132.858691
 20
333.139215
 42
-0.001389
  0
VERTEX
  8
0
 10
132.447732
 20
331.246130
 42
-0.001828
  0
VERTEX
  8
0
 10
132.061773
 20
329.521796
 42
0.042579
  0
VERTEX
  8
0
 10
131.657937
 20
326.630014
 42
0.073643
  0
VERTEX
  8
0
 10
131.883833
 20
324.217795
 42
0.391224
  0
VERTEX
  8
0
 10
132.558417
 20
323.771413
 42
0.266856
  0
VERTEX
  8
0
 10
133.319623
 20
324.390542
 42
-0.181647
  0
VERTEX
  8
0
 10
134.374934
 20
325.579822
 42
-0.144139
  0
VERTEX
  8
0
 10
136.070961
 20
325.922442
 42
-0.108147
  0
VERTEX
  8
0
 10
138.088431
 20
325.292985
 42
-0.075866
  0
VERTEX
  8
0
 10
139.961045
 20
323.811439
 42
-0.108777
  0
VERTEX
  8
0
 10
141.231121
 20
321.660185
 42
-0.051281
  0
VERTEX
  8
0
 10
141.920226
 20
318.491635
 42
-0.047021
  0
VERTEX
  8
0
 10
141.984654
 20
314.852848
 42
-0.046426
  0
VERTEX
  8
0
 10
141.369714
 20
311.250000
 42
-0.077351
  0
VERTEX
  8
0
 10
140.659266
 20
309.642870
 42
-0.265577
  0
VERTEX
  8
0
 10
139.685079
 20
309.134457
 42
-0.144479
  0
VERTEX
  8
0
 10
138.265893
 20
309.612871
 42
-0.021852
  0
VERTEX
  8
0
 10
135.864919
 20
311.460209
 42
0.039953
  0
VERTEX
  8
0
 10
134.475112
 20
312.451657
 42
0.024840
  0
VERTEX
  8
0
 10
132.707075
 20
313.394961
 42
0.024860
  0
VERTEX
  8
0
 10
130.857931
 20
314.156644
 42
0.040643
  0
VERTEX
  8
0
 10
129.220563
 20
314.591835
 42
-0.025232
  0
VERTEX
  8
0
 10
125.778596
 20
315.394091
 42
-0.070059
  0
VERTEX
  8
0
 10
123.514835
 20
316.403219
 42
-0.092263
  0
VERTEX
  8
0
 10
121.983531
 20
317.810531
 42
-0.070173
  0
VERTEX
  8
0
 10
120.881814
 20
319.810802
 42
0.011247
  0
VERTEX
  8
0
 10
120.252136
 20
321.361055
 42
0.181961
  0
VERTEX
  8
0
 10
119.867256
 20
321.759330
 42
0.356629
  0
VERTEX
  8
0
 10
119.472150
 20
321.661544
 42
0.033219
  0
VERTEX
  8
0
 10
118.884142
 20
320.757416
 42
0.046989
  0
VERTEX
  8
0
 10
118.532285
 20
319.961629
 42
0.032659
  0
VERTEX
  8
0
 10
118.282206
 20
319.010475
 42
0.033044
  0
VERTEX
  8
0
 10
118.161672
 20
318.056951
 42
0.056632
  0
VERTEX
  8
0
 10
118.204460
 20
317.257416
 42
-0.096666
  0
VERTEX
  8
0
 10
118.182337
 20
316.410788
 42
-0.199554
  0
VERTEX
  8
0
 10
117.808212
 20
315.878669
 42
-0.119204
  0
VERTEX
  8
0
 10
116.990957
 20
315.601675
 42
-0.026253
  0
VERTEX
  8
0
 10
115.500000
 20
315.546487
 42
-0.019641
  0
VERTEX
  8
0
 10
114.194561
 20
315.618058
 42
-0.014294
  0
VERTEX
  8
0
 10
112.751266
 20
315.795946
 42
-0.014481
  0
VERTEX
  8
0
 10
111.389950
 20
316.043916
 42
-0.030524
  0
VERTEX
  8
0
 10
110.355372
 20
316.330431
 42
0.135950
  0
VERTEX
  8
0
 10
108.347383
 20
316.452975
 42
0.137983
  0
VERTEX
  8
0
 10
106.575648
 20
315.522635
 42
0.153801
  0
VERTEX
  8
0
 10
105.670195
 20
313.895603
 42
0.175265
  0
VERTEX
  8
0
 10
105.925612
 20
312.138996
 42
-0.044884
  0
VERTEX
  8
0
 10
106.266216
 20
311.337168
 42
-0.027876
  0
VERTEX
  8
0
 10
106.525521
 20
310.347462
 42
-0.027860
  0
VERTEX
  8
0
 10
106.673338
 20
309.333758
 42
-0.044408
  0
VERTEX
  8
0
 10
106.673629
 20
308.458442
 42
0.248479
  0
VERTEX
  8
0
 10
107.409141
 20
306.712310
 42
0.200501
  0
VERTEX
  8
0
 10
109.387270
 20
306.123558
 42
0.099143
  0
VERTEX
  8
0
 10
112.496193
 20
307.099286
 42
0.048601
  0
VERTEX
  8
0
 10
115.938525
 20
309.448639
 42
-0.036114
  0
VERTEX
  8
0
 10
119.259137
 20
311.838379
 42
-0.106289
  0
VERTEX
  8
0
 10
121.898292
 20
312.771423
 42
-0.104612
  0
VERTEX
  8
0
 10
124.712588
 20
312.544594
 42
-0.034356
  0
VERTEX
  8
0
 10
128.626629
 20
311.082165
 42
-0.016012
  0
VERTEX
  8
0
 10
132.209574
 20
309.314665
 42
-0.186946
  0
VERTEX
  8
0
 10
133.209065
 20
308.153870
 42
-0.410524
  0
VERTEX
  8
0
 10
132.776530
 20
307.229955
 42
-0.043308
  0
VERTEX
  8
0
 10
130.241250
 20
306.535673
 42
0.038978
  0
VERTEX
  8
0
 10
126.521788
 20
305.551595
 42
0.093547
  0
VERTEX
  8
0
 10
124.061601
 20
304.132791
 42
0.109491
  0
VERTEX
  8
0
 10
122.518034
 20
302.072629
 42
0.066684
  0
VERTEX
  8
0
 10
121.639539
 20
299.147262
 42
0.017941
  0
VERTEX
  8
0
 10
121.078005
 20
294.593210
 42
0.284306
  0
VERTEX
  8
0
 10
121.750724
 20
293.259599
 42
0.415003
  0
VERTEX
  8
0
 10
122.919820
 20
293.542146
 42
0.023344
  0
VERTEX
  8
0
 10
124.893941
 20
297.153705
 42
-0.043876
  0
VERTEX
  8
0
 10
126.989588
 20
300.639850
 42
-0.118920
  0
VERTEX
  8
0
 10
129.171477
 20
302.496801
 42
-0.126464
  0
VERTEX
  8
0
 10
131.872596
 20
303.091744
 42
-0.052826
  0
VERTEX
  8
0
 10
135.591965
 20
302.566274
 42
-0.119013
  0
VERTEX
  8
0
 10
137.564807
 20
301.532119
 42
-0.091203
  0
VERTEX
  8
0
 10
139.080160
 20
299.616120
 42
-0.045857
  0
VERTEX
  8
0
 10
140.514627
 20
296.181328
 42
-0.008569
  0
VERTEX
  8
0
 10
142.447500
 20
289.628241
 42
0.013442
  0
VERTEX
  8
0
 10
143.537168
 20
286.062341
 42
0.009113
  0
VERTEX
  8
0
 10
144.960456
 20
282.060110
 42
0.009186
  0
VERTEX
  8
0
 10
146.477821
 20
278.241990
 42
0.018103
  0
VERTEX
  8
0
 10
147.847153
 20
275.278517
 42
-0.003195
  0
VERTEX
  8
0
 10
149.055406
 20
272.856010
 42
-0.004823
  0
VERTEX
  8
0
 10
150.073851
 20
270.729342
 42
-0.002008
  0
VERTEX
  8
0
 10
150.918815
 20
268.901229
 42
-0.107648
  0
VERTEX
  8
0
 10
151.000000
 20
268.528517
 42
-0.421451
  0
VERTEX
  8
0
 10
150.425184
 20
267.967696
 42
-0.059535
  0
VERTEX
  8
0
 10
148.605258
 20
268.230802
 42
-0.036406
  0
VERTEX
  8
0
 10
145.836565
 20
269.195527
 42
-0.014825
  0
VERTEX
  8
0
 10
142.221483
 20
270.887347
 42
0.018352
  0
VERTEX
  8
0
 10
139.341220
 20
272.210600
 42
0.007109
  0
VERTEX
  8
0
 10
135.262352
 20
273.838537
 42
0.007026
  0
VERTEX
  8
0
 10
130.788157
 20
275.479220
 42
0.008632
  0
VERTEX
  8
0
 10
126.565249
 20
276.879379
 42
-0.026006
  0
VERTEX
  8
0
 10
116.613378
 20
280.567371
 42
-0.075225
  0
VERTEX
  8
0
 10
110.392592
 20
284.442060
 42
-0.114784
  0
VERTEX
  8
0
 10
107.101463
 20
288.908816
 42
-0.120347
  0
VERTEX
  8
0
 10
106.194893
 20
294.290294
 42
-0.022235
  0
VERTEX
  8
0
 10
106.430044
 20
296.289049
 42
-0.066294
  0
VERTEX
  8
0
 10
106.828473
 20
297.605123
 42
-0.105675
  0
VERTEX
  8
0
 10
107.424090
 20
298.410245
 42
-0.134767
  0
VERTEX
  8
0
 10
108.250000
 20
298.814697
 42
-0.079253
  0
VERTEX
  8
0
 10
109.027899
 20
298.837483
 42
-0.160559
  0
VERTEX
  8
0
 10
109.574003
 20
298.575506
 42
-0.143453
  0
VERTEX
  8
0
 10
109.895907
 20
298.013474
 42
-0.058863
  0
VERTEX
  8
0
 10
110.000000
 20
297.132341
 42
0.068775
  0
VERTEX
  8
0
 10
110.234035
 20
295.438938
 42
0.219771
  0
VERTEX
  8
0
 10
110.956969
 20
294.593300
 42
0.331455
  0
VERTEX
  8
0
 10
111.811244
 20
294.774771
 42
0.103879
  0
VERTEX
  8
0
 10
112.495391
 20
295.985479
 42
0.115909
  0
VERTEX
  8
0
 10
112.741684
 20
299.196905
 42
0.192901
  0
VERTEX
  8
0
 10
111.376646
 20
301.498248
 42
0.181963
  0
VERTEX
  8
0
 10
108.722450
 20
302.302804
 42
0.103597
  0
VERTEX
  8
0
 10
105.449849
 20
301.389603
 42
-0.005469
  0
VERTEX
  8
0
 10
104.395675
 20
300.857242
 42
-0.007736
  0
VERTEX
  8
0
 10
103.444887
 20
300.408196
 42
-0.004793
  0
VERTEX
  8
0
 10
102.639929
 20
300.052409
 42
-0.101999
  0
VERTEX
  8
0
 10
102.385693
 20
300.000000
 42
-0.420066
  0
VERTEX
  8
0
 10
101.886097
 20
300.509660
 42
-0.007508
  0
VERTEX
  8
0
 10
102.033599
 20
304.727394
 42
-0.016299
  0
VERTEX
  8
0
 10
102.381447
 20
308.930566
 42
-0.041056
  0
VERTEX
  8
0
 10
102.982898
 20
311.940370
 42
0.011012
  0
VERTEX
  8
0
 10
103.334911
 20
313.278275
 42
0.016540
  0
VERTEX
  8
0
 10
103.577263
 20
314.460614
 42
0.011451
  0
VERTEX
  8
0
 10
103.720403
 20
315.432716
 42
0.231164
  0
VERTEX
  8
0
 10
103.626026
 20
315.707307
 42
0.300658
  0
VERTEX
  8
0
 10
102.612393
 20
315.914130
 42
0.094327
  0
VERTEX
  8
0
 10
101.243532
 20
315.034916
 42
0.067297
  0
VERTEX
  8
0
 10
99.879577
 20
313.339118
 42
0.056109
  0
VERTEX
  8
0
 10
98.913016
 20
311.236435
 42
-0.007814
  0
VERTEX
  8
0
 10
98.141104
 20
309.014793
 42
-0.160558
  0
VERTEX
  8
0
 10
97.707557
 20
308.465790
 42
-0.371190
  0
VERTEX
  8
0
 10
97.226994
 20
308.527094
 42
-0.032088
  0
VERTEX
  8
0
 10
96.398754
 20
309.574863
 42
0.011899
  0
VERTEX
  8
0
 10
94.440515
 20
312.268816
 42
0.104763
  0
VERTEX
  8
0
 10
93.329436
 20
313.223205
 42
0.181870
  0
VERTEX
  8
0
 10
92.195809
 20
313.384240
 42
0.052254
  0
VERTEX
  8
0
 10
90.486392
 20
312.811846
 42
0.084329
  0
VERTEX
  8
0
 10
88.572623
 20
311.514372
 42
0.273525
  0
VERTEX
  8
0
 10
88.175525
 20
310.094823
 42
0.186337
  0
VERTEX
  8
0
 10
89.248587
 20
308.622078
 42
0.043863
  0
VERTEX
  8
0
 10
91.993115
 20
307.175738
 42
-0.060700
  0
VERTEX
  8
0
 10
94.618810
 20
305.677286
 42
-0.101766
  0
VERTEX
  8
0
 10
96.303168
 20
303.788026
 42
-0.070467
  0
VERTEX
  8
0
 10
97.472326
 20
300.899379
 42
-0.017435
  0
VERTEX
  8
0
 10
98.535205
 20
295.888597
 42
0.000000
  0
VERTEX
  8
0
 10
99.170580
 20
292.277195
 42
0.000000
  0
VERTEX
  8
0
 10
93.835290
 20
292.755891
 42
-0.013664
  0
VERTEX
  8
0
 10
91.722785
 20
293.003781
 42
-0.017294
  0
VERTEX
  8
0
 10
89.788179
 20
293.353265
 42
-0.015455
  0
VERTEX
  8
0
 10
88.209780
 20
293.746584
 42
-0.118950
  0
VERTEX
  8
0
 10
87.550000
 20
294.117294
 42
0.066746
  0
VERTEX
  8
0
 10
86.440088
 20
294.901990
 42
0.239636
  0
VERTEX
  8
0
 10
85.598291
 20
294.911844
 42
0.270074
  0
VERTEX
  8
0
 10
85.164329
 20
294.255989
 42
0.078348
  0
VERTEX
  8
0
 10
85.289489
 20
293.000996
 42
-0.046215
  0
VERTEX
  8
0
 10
85.422423
 20
292.194768
 42
-0.054994
  0
VERTEX
  8
0
 10
85.392509
 20
291.424696
 42
-0.064046
  0
VERTEX
  8
0
 10
85.215530
 20
290.801315
 42
-0.154380
  0
VERTEX
  8
0
 10
84.906120
 20
290.441979
 42
0.098696
  0
VERTEX
  8
0
 10
84.558979
 20
290.118370
 42
0.052378
  0
VERTEX
  8
0
 10
84.266173
 20
289.605845
 42
0.049241
  0
VERTEX
  8
0
 10
84.067206
 20
288.997277
 42
0.054450
  0
VERTEX
  8
0
 10
84.000000
 20
288.381966
 42
0.061640
  0
VERTEX
  8
0
 10
84.066057
 20
287.848176
 42
0.131270
  0
VERTEX
  8
0
 10
84.266603
 20
287.487361
 42
0.191597
  0
VERTEX
  8
0
 10
84.563369
 20
287.353462
 42
0.150832
  0
VERTEX
  8
0
 10
84.907586
 20
287.442885
 42
-0.111506
  0
VERTEX
  8
0
 10
85.565695
 20
287.669393
 42
-0.006708
  0
VERTEX
  8
0
 10
87.662083
 20
287.871206
 42
-0.009781
  0
VERTEX
  8
0
 10
90.187890
 20
288.030531
 42
-0.007054
  0
VERTEX
  8
0
 10
93.010114
 20
288.113324
 42
0.000000
  0
VERTEX
  8
0
 10
100.205056
 20
288.222844
 42
0.000000
  0
VERTEX
  8
0
 10
105.129777
 20
283.372174
 42
-0.017060
  0
VERTEX
  8
0
 10
106.994998
 20
281.405219
 42
-0.023443
  0
VERTEX
  8
0
 10
108.523257
 20
279.507074
 42
-0.021360
  0
VERTEX
  8
0
 10
109.614818
 20
277.870691
 42
-0.186056
  0
VERTEX
  8
0
 10
109.766484
 20
277.025966
 42
-0.317884
  0
VERTEX
  8
0
 10
107.555670
 20
274.903649
 42
-0.027050
  0
VERTEX
  8
0
 10
99.272840
 20
274.111677
 42
-0.033197
  0
VERTEX
  8
0
 10
90.442615
 20
274.333632
 42
-0.083847
  0
VERTEX
  8
0
 10
84.250000
 20
275.973070
 42
-0.021410
  0
VERTEX
  8
0
 10
82.085683
 20
277.069527
 42
-0.075088
  0
VERTEX
  8
0
 10
80.856062
 20
278.027049
 42
-0.110186
  0
VERTEX
  8
0
 10
80.220113
 20
279.088478
 42
-0.080247
  0
VERTEX
  8
0
 10
80.000000
 20
280.451108
 42
0.029741
  0
VERTEX
  8
0
 10
79.941863
 20
281.427645
 42
0.046332
  0
VERTEX
  8
0
 10
79.765000
 20
282.251263
 42
0.058608
  0
VERTEX
  8
0
 10
79.507831
 20
282.825275
 42
0.264017
  0
VERTEX
  8
0
 10
79.200000
 20
283.000000
 42
0.171381
  0
VERTEX
  8
0
 10
77.960221
 20
282.562192
 42
0.119335
  0
VERTEX
  8
0
 10
77.048791
 20
281.373959
 42
0.088726
  0
VERTEX
  8
0
 10
76.605856
 20
279.562296
 42
0.055977
  0
VERTEX
  8
0
 10
76.712859
 20
277.382017
 42
-0.024094
  0
VERTEX
  8
0
 10
76.871170
 20
275.983223
 42
-0.053934
  0
VERTEX
  8
0
 10
76.824991
 20
274.916035
 42
-0.087225
  0
VERTEX
  8
0
 10
76.595893
 20
274.236152
 42
-0.274544
  0
VERTEX
  8
0
 10
76.198230
 20
274.000000
 42
0.253840
  0
VERTEX
  8
0
 10
75.151914
 20
273.432222
 42
0.093473
  0
VERTEX
  8
0
 10
74.491826
 20
271.826544
 42
0.082548
  0
VERTEX
  8
0
 10
74.416811
 20
269.899582
 42
0.142685
  0
VERTEX
  8
0
 10
75.050060
 20
268.439681
 42
0.169714
  0
VERTEX
  8
0
 10
76.297548
 20
267.688762
 42
0.233574
  0
VERTEX
  8
0
 10
77.544094
 20
268.011436
 42
0.172276
  0
VERTEX
  8
0
 10
78.312188
 20
269.361133
 42
0.108410
  0
VERTEX
  8
0
 10
78.239233
 20
271.193174
 42
-0.045168
  0
VERTEX
  8
0
 10
78.041164
 20
272.378991
 42
-0.295179
  0
VERTEX
  8
0
 10
78.316449
 20
272.884303
 42
-0.154560
  0
VERTEX
  8
0
 10
79.069586
 20
273.030099
 42
-0.012470
  0
VERTEX
  8
0
 10
81.092467
 20
272.744178
 42
-0.014122
  0
VERTEX
  8
0
 10
82.598283
 20
272.448963
 42
-0.009346
  0
VERTEX
  8
0
 10
84.310007
 20
272.029117
 42
-0.009409
  0
VERTEX
  8
0
 10
85.959297
 20
271.558360
 42
-0.017998
  0
VERTEX
  8
0
 10
87.260749
 20
271.108436
 42
0.000000
  0
VERTEX
  8
0
 10
90.021497
 20
270.041329
 42
0.000000
  0
VERTEX
  8
0
 10
85.760749
 20
264.524475
 42
-0.026441
  0
VERTEX
  8
0
 10
82.582002
 20
260.829965
 42
-0.109388
  0
VERTEX
  8
0
 10
80.148510
 20
259.202304
 42
-0.327765
  0
VERTEX
  8
0
 10
78.667551
 20
259.599212
 42
-0.170494
  0
VERTEX
  8
0
 10
78.000000
 20
261.500000
 42
0.144766
  0
VERTEX
  8
0
 10
77.525200
 20
263.105525
 42
0.192400
  0
VERTEX
  8
0
 10
76.294220
 20
263.976132
 42
0.128191
  0
VERTEX
  8
0
 10
74.354429
 20
263.938158
 42
0.054261
  0
VERTEX
  8
0
 10
71.921546
 20
262.958013
 42
0.198809
  0
VERTEX
  8
0
 10
70.819538
 20
261.614324
 42
0.207761
  0
VERTEX
  8
0
 10
71.016090
 20
259.917106
 42
0.113235
  0
VERTEX
  8
0
 10
72.726725
 20
258.082694
 42
0.049794
  0
VERTEX
  8
0
 10
75.664545
 20
256.495695
 42
-0.041021
  0
VERTEX
  8
0
 10
78.015399
 20
255.278453
 42
-0.215337
  0
VERTEX
  8
0
 10
78.801492
 20
254.096302
 42
-0.073956
  0
VERTEX
  8
0
 10
78.831780
 20
252.075276
 42
-0.002395
  0
VERTEX
  8
0
 10
77.714808
 20
244.000000
 42
0.114794
  0
VERTEX
  8
0
 10
77.849764
 20
242.440972
 42
0.451412
  0
VERTEX
  8
0
 10
78.628292
 20
242.104628
 42
0.149511
  0
VERTEX
  8
0
 10
79.853374
 20
243.216681
 42
0.043711
  0
VERTEX
  8
0
 10
80.971526
 20
245.534192
 42
-0.043859
  0
VERTEX
  8
0
 10
84.761314
 20
253.383081
 42
-0.046978
  0
VERTEX
  8
0
 10
89.788653
 20
260.258316
 42
-0.050318
  0
VERTEX
  8
0
 10
95.617147
 20
265.633750
 42
-0.071544
  0
VERTEX
  8
0
 10
101.787513
 20
269.017358
 42
-0.028226
  0
VERTEX
  8
0
 10
104.630746
 20
269.904060
 42
-0.024159
  0
VERTEX
  8
0
 10
107.707069
 20
270.519856
 42
-0.021886
  0
VERTEX
  8
0
 10
111.118008
 20
270.881010
 42
-0.015432
  0
VERTEX
  8
0
 10
114.972413
 20
271.000000
 42
-0.021799
  0
VERTEX
  8
0
 10
123.733564
 20
270.617849
 42
-0.170871
  0
VERTEX
  8
0
 10
127.391056
 20
268.959644
 42
-0.316100
  0
VERTEX
  8
0
 10
127.959527
 20
266.071547
 42
-0.062961
  0
VERTEX
  8
0
 10
125.082058
 20
261.311548
 42
0.009764
  0
VERTEX
  8
0
 10
123.505590
 20
259.237623
 42
0.008245
  0
VERTEX
  8
0
 10
121.917686
 20
256.984642
 42
0.008336
  0
VERTEX
  8
0
 10
120.537403
 20
254.881460
 42
0.022838
  0
VERTEX
  8
0
 10
119.657041
 20
253.338296
 42
-0.033178
  0
VERTEX
  8
0
 10
118.837284
 20
251.967956
 42
-0.020204
  0
VERTEX
  8
0
 10
117.701295
 20
250.460658
 42
-0.020210
  0
VERTEX
  8
0
 10
116.448461
 20
249.051255
 42
-0.033436
  0
VERTEX
  8
0
 10
115.269980
 20
247.981921
 42
-0.043765
  0
VERTEX
  8
0
 10
113.557207
 20
246.853492
 42
-0.075444
  0
VERTEX
  8
0
 10
111.953612
 20
246.278141
 42
-0.055832
  0
VERTEX
  8
0
 10
109.937024
 20
246.111738
 42
-0.014882
  0
VERTEX
  8
0
 10
106.714251
 20
246.302039
 42
-0.033816
  0
VERTEX
  8
0
 10
102.039425
 20
247.038951
 42
-0.082413
  0
VERTEX
  8
0
 10
98.821232
 20
248.355820
 42
-0.109029
  0
VERTEX
  8
0
 10
96.745761
 20
250.368589
 42
-0.093228
  0
VERTEX
  8
0
 10
95.564054
 20
253.182275
 42
0.007621
  0
VERTEX
  8
0
 10
95.100353
 20
255.190361
 42
0.172431
  0
VERTEX
  8
0
 10
94.778115
 20
255.678269
 42
0.409088
  0
VERTEX
  8
0
 10
94.388564
 20
255.626934
 42
0.026990
  0
VERTEX
  8
0
 10
93.675509
 20
254.604908
 42
-0.031102
  0
VERTEX
  8
0
 10
93.035688
 20
253.703720
 42
-0.011793
  0
VERTEX
  8
0
 10
92.037493
 20
252.526188
 42
-0.011627
  0
VERTEX
  8
0
 10
90.889051
 20
251.293414
 42
-0.013931
  0
VERTEX
  8
0
 10
89.750000
 20
250.189610
 42
0.014393
  0
VERTEX
  8
0
 10
87.486015
 20
247.991629
 42
0.220198
  0
VERTEX
  8
0
 10
87.133678
 20
246.988985
 42
0.460836
  0
VERTEX
  8
0
 10
87.711844
 20
246.583525
 42
0.027221
  0
VERTEX
  8
0
 10
90.025438
 20
247.315703
 42
-0.029182
  0
VERTEX
  8
0
 10
91.427251
 20
247.753296
 42
-0.051753
  0
VERTEX
  8
0
 10
92.624534
 20
247.923016
 42
-0.065181
  0
VERTEX
  8
0
 10
93.613005
 20
247.831046
 42
-0.102853
  0
VERTEX
  8
0
 10
94.385170
 20
247.478839
 42
0.012902
  0
VERTEX
  8
0
 10
98.374855
 20
244.707445
 42
0.050209
  0
VERTEX
  8
0
 10
101.037044
 20
243.318153
 42
0.058053
  0
VERTEX
  8
0
 10
103.726076
 20
242.589336
 42
0.021281
  0
VERTEX
  8
0
 10
107.648080
 20
242.171468
 42
-0.012865
  0
VERTEX
  8
0
 10
110.457443
 20
241.919872
 42
-0.035392
  0
VERTEX
  8
0
 10
112.411461
 20
241.552574
 42
-0.052545
  0
VERTEX
  8
0
 10
113.641225
 20
241.087509
 42
-0.283296
  0
VERTEX
  8
0
 10
114.000000
 20
240.505114
 42
-0.222580
  0
VERTEX
  8
0
 10
113.166013
 20
238.724475
 42
-0.013474
  0
VERTEX
  8
0
 10
108.415053
 20
234.977411
 42
-0.019921
  0
VERTEX
  8
0
 10
103.409789
 20
231.545572
 42
-0.070589
  0
VERTEX
  8
0
 10
99.863481
 20
229.960847
 42
-0.029505
  0
VERTEX
  8
0
 10
98.213598
 20
229.591370
 42
-0.012439
  0
VERTEX
  8
0
 10
95.962015
 20
229.282249
 42
-0.012256
  0
VERTEX
  8
0
 10
93.533031
 20
229.070269
 42
-0.015636
  0
VERTEX
  8
0
 10
91.286539
 20
229.000000
 42
-0.017379
  0
VERTEX
  8
0
 10
88.291920
 20
229.104121
 42
-0.076936
  0
VERTEX
  8
0
 10
86.577385
 20
229.493074
 42
-0.099636
  0
VERTEX
  8
0
 10
85.286831
 20
230.329903
 42
-0.040090
  0
VERTEX
  8
0
 10
83.899742
 20
231.921736
 42
0.018398
  0
VERTEX
  8
0
 10
82.454631
 20
233.732984
 42
0.158667
  0
VERTEX
  8
0
 10
81.582420
 20
234.262788
 42
0.153359
  0
VERTEX
  8
0
 10
80.551336
 20
234.187183
 42
0.016859
  0
VERTEX
  8
0
 10
78.351171
 20
233.227637
 42
0.027622
  0
VERTEX
  8
0
 10
77.078022
 20
232.531780
 42
0.041112
  0
VERTEX
  8
0
 10
76.058231
 20
231.776284
 42
0.048235
  0
VERTEX
  8
0
 10
75.393311
 20
231.069110
 42
0.247507
  0
VERTEX
  8
0
 10
75.303653
 20
230.555902
 42
0.180342
  0
VERTEX
  8
0
 10
75.696052
 20
230.059745
 42
0.019964
  0
VERTEX
  8
0
 10
76.983763
 20
229.348099
 42
0.022302
  0
VERTEX
  8
0
 10
78.642862
 20
228.606492
 42
0.016280
  0
VERTEX
  8
0
 10
80.544437
 20
227.926988
 42
-0.020696
  0
VERTEX
  8
0
 10
82.931287
 20
227.050242
 42
-0.057658
  0
VERTEX
  8
0
 10
84.488036
 20
226.182324
 42
-0.083424
  0
VERTEX
  8
0
 10
85.459446
 20
225.201444
 42
-0.095857
  0
VERTEX
  8
0
 10
85.999734
 20
224.001127
 42
0.076211
  0
VERTEX
  8
0
 10
86.673853
 20
222.332520
 42
0.134193
  0
VERTEX
  8
0
 10
87.736191
 20
221.306669
 42
0.322440
  0
VERTEX
  8
0
 10
88.586372
 20
221.411508
 42
0.209036
  0
VERTEX
  8
0
 10
89.000000
 20
222.357650
 42
-0.133236
  0
VERTEX
  8
0
 10
89.352364
 20
223.656502
 42
-0.147241
  0
VERTEX
  8
0
 10
90.303847
 20
224.540398
 42
-0.060366
  0
VERTEX
  8
0
 10
92.291541
 20
225.233743
 42
-0.008060
  0
VERTEX
  8
0
 10
96.651927
 20
226.112718
 42
0.050762
  0
VERTEX
  8
0
 10
103.951379
 20
228.245209
 42
0.054074
  0
VERTEX
  8
0
 10
110.506892
 20
231.773186
 42
0.057723
  0
VERTEX
  8
0
 10
115.767400
 20
236.359869
 42
0.077876
  0
VERTEX
  8
0
 10
119.238037
 20
241.623089
 42
-0.047570
  0
VERTEX
  8
0
 10
120.099199
 20
243.118127
 42
-0.126654
  0
VERTEX
  8
0
 10
121.033029
 20
243.906544
 42
-0.336876
  0
VERTEX
  8
0
 10
121.691999
 20
243.772504
 42
-0.182035
  0
VERTEX
  8
0
 10
122.000000
 20
242.954545
 42
0.180847
  0
VERTEX
  8
0
 10
122.669211
 20
241.164841
 42
0.053190
  0
VERTEX
  8
0
 10
124.852630
 20
239.135397
 42
0.052838
  0
VERTEX
  8
0
 10
127.556810
 20
237.525406
 42
0.108278
  0
VERTEX
  8
0
 10
129.954545
 20
237.000000
 42
0.091166
  0
VERTEX
  8
0
 10
132.776540
 20
237.518854
 42
0.105612
  0
VERTEX
  8
0
 10
135.066751
 20
239.000100
 42
0.132515
  0
VERTEX
  8
0
 10
136.222842
 20
241.006410
 42
0.189899
  0
VERTEX
  8
0
 10
135.987735
 20
243.022918
 42
0.056735
  0
VERTEX
  8
0
 10
135.465126
 20
243.779088
 42
0.052769
  0
VERTEX
  8
0
 10
134.774192
 20
244.419232
 42
0.056578
  0
VERTEX
  8
0
 10
134.027558
 20
244.855480
 42
0.104313
  0
VERTEX
  8
0
 10
133.342372
 20
245.000000
 42
0.037130
  0
VERTEX
  8
0
 10
132.552747
 20
244.941282
 42
0.308772
  0
VERTEX
  8
0
 10
132.303001
 20
244.709819
 42
0.212152
  0
VERTEX
  8
0
 10
132.381462
 20
244.309834
 42
0.020233
  0
VERTEX
  8
0
 10
133.000000
 20
243.500000
 42
-0.045289
  0
VERTEX
  8
0
 10
133.569081
 20
242.672106
 42
-0.128626
  0
VERTEX
  8
0
 10
133.744889
 20
242.000000
 42
-0.128626
  0
VERTEX
  8
0
 10
133.569081
 20
241.327894
 42
-0.045289
  0
VERTEX
  8
0
 10
133.000000
 20
240.500000
 42
-0.277464
  0
VERTEX
  8
0
 10
130.045220
 20
239.465540
 42
-0.203496
  0
VERTEX
  8
0
 10
127.123218
 20
241.490691
 42
-0.107384
  0
VERTEX
  8
0
 10
125.282493
 20
246.544695
 42
-0.080367
  0
VERTEX
  8
0
 10
125.431398
 20
252.486012
 42
-0.050046
  0
VERTEX
  8
0
 10
125.904528
 20
254.098204
 42
-0.025278
  0
VERTEX
  8
0
 10
126.799835
 20
256.019811
 42
-0.024824
  0
VERTEX
  8
0
 10
127.934524
 20
257.929204
 42
-0.033688
  0
VERTEX
  8
0
 10
129.152916
 20
259.521381
 42
-0.027061
  0
VERTEX
  8
0
 10
131.121815
 20
261.533100
 42
-0.094832
  0
VERTEX
  8
0
 10
132.658362
 20
262.481408
 42
-0.077015
  0
VERTEX
  8
0
 10
134.602616
 20
262.896058
 42
-0.014100
  0
VERTEX
  8
0
 10
138.287868
 20
263.000000
 42
-0.039806
  0
VERTEX
  8
0
 10
142.649693
 20
262.652198
 42
-0.042722
  0
VERTEX
  8
0
 10
146.795731
 20
261.617663
 42
-0.042394
  0
VERTEX
  8
0
 10
150.733393
 20
259.884371
 42
-0.038074
  0
VERTEX
  8
0
 10
154.475055
 20
257.456893
 42
-0.038191
  0
VERTEX
  8
0
 10
155.411544
 20
256.622234
 42
-0.123755
  0
VERTEX
  8
0
 10
155.822277
 20
255.905251
 42
-0.146414
  0
VERTEX
  8
0
 10
155.809645
 20
255.153174
 42
-0.061646
  0
VERTEX
  8
0
 10
155.383275
 20
254.225193
 42
0.082197
  0
VERTEX
  8
0
 10
154.748671
 20
252.680489
 42
0.134599
  0
VERTEX
  8
0
 10
154.807423
 20
251.276092
 42
0.125963
  0
VERTEX
  8
0
 10
155.586297
 20
250.033786
 42
0.067298
  0
VERTEX
  8
0
 10
157.064648
 20
248.965402
 42
0.015091
  0
VERTEX
  8
0
 10
158.064310
 20
248.468603
 42
0.203840
  0
VERTEX
  8
0
 10
158.463550
 20
248.457074
 42
0.372086
  0
VERTEX
  8
0
 10
158.602078
 20
248.719900
 42
0.034777
  0
VERTEX
  8
0
 10
158.370506
 20
249.476861
 42
-0.274491
  0
VERTEX
  8
0
 10
158.571361
 20
250.651338
 42
-0.337688
  0
VERTEX
  8
0
 10
159.626684
 20
250.881024
 42
-0.083808
  0
VERTEX
  8
0
 10
161.812014
 20
249.372283
 42
-0.043129
  0
VERTEX
  8
0
 10
163.993728
 20
246.849962
 42
-0.028760
  0
VERTEX
  8
0
 10
166.261317
 20
243.307594
 42
-0.110602
  0
VERTEX
  8
0
 10
167.008484
 20
240.818285
 42
-0.306452
  0
VERTEX
  8
0
 10
166.298543
 20
239.588194
 42
-0.176429
  0
VERTEX
  8
0
 10
164.525397
 20
239.404270
 42
0.019934
  0
VERTEX
  8
0
 10
163.183148
 20
239.684811
 42
0.005093
  0
VERTEX
  8
0
 10
160.989310
 20
240.029836
 42
0.005181
  0
VERTEX
  8
0
 10
158.474983
 20
240.372483
 42
0.005235
  0
VERTEX
  8
0
 10
155.962628
 20
240.661695
 42
-0.015505
  0
VERTEX
  8
0
 10
152.513557
 20
241.130699
 42
-0.064146
  0
VERTEX
  8
0
 10
150.504451
 20
241.739611
 42
-0.084643
  0
VERTEX
  8
0
 10
149.003052
 20
242.747661
 42
-0.039779
  0
VERTEX
  8
0
 10
147.437230
 20
244.493408
 42
-0.057302
  0
VERTEX
  8
0
 10
145.818040
 20
247.212326
 42
-0.081956
  0
VERTEX
  8
0
 10
145.100212
 20
249.920535
 42
-0.101196
  0
VERTEX
  8
0
 10
145.351626
 20
252.280019
 42
-0.143527
  0
VERTEX
  8
0
 10
146.524166
 20
254.020056
 42
0.087930
  0
VERTEX
  8
0
 10
147.463929
 20
255.129770
 42
0.403600
  0
VERTEX
  8
0
 10
147.282075
 20
255.873025
 42
0.142665
  0
VERTEX
  8
0
 10
145.982173
 20
256.247112
 42
0.020611
  0
VERTEX
  8
0
 10
143.196363
 20
256.123271
 42
0.013034
  0
VERTEX
  8
0
 10
139.980725
 20
255.762560
 42
0.145607
  0
VERTEX
  8
0
 10
138.820511
 20
255.234730
 42
0.377664
  0
VERTEX
  8
0
 10
138.715472
 20
254.446330
 42
0.061500
  0
VERTEX
  8
0
 10
139.811652
 20
253.177698
 42
-0.075903
  0
VERTEX
  8
0
 10
140.636987
 20
252.165250
 42
-0.020529
  0
VERTEX
  8
0
 10
141.616106
 20
250.335602
 42
-0.020289
  0
VERTEX
  8
0
 10
142.569172
 20
248.141207
 42
-0.019783
  0
VERTEX
  8
0
 10
143.350080
 20
245.858392
 42
0.016545
  0
VERTEX
  8
0
 10
144.103554
 20
243.608308
 42
0.018899
  0
VERTEX
  8
0
 10
144.974904
 20
241.512448
 42
0.018373
  0
VERTEX
  8
0
 10
145.839860
 20
239.803507
 42
0.093467
  0
VERTEX
  8
0
 10
146.516932
 20
238.985947
 42
-0.047827
  0
VERTEX
  8
0
 10
147.084394
 20
238.415176
 42
-0.041393
  0
VERTEX
  8
0
 10
147.564349
 20
237.719870
 42
-0.043467
  0
VERTEX
  8
0
 10
147.893515
 20
237.010680
 42
-0.087138
  0
VERTEX
  8
0
 10
148.000000
 20
236.404307
 42
-0.105502
  0
VERTEX
  8
0
 10
147.464549
 20
233.894909
 42
-0.025818
  0
VERTEX
  8
0
 10
145.532316
 20
230.110519
 42
-0.025425
  0
VERTEX
  8
0
 10
143.230528
 20
226.555037
 42
-0.113995
  0
VERTEX
  8
0
 10
141.375790
 20
224.933525
 42
0.054498
  0
VERTEX
  8
0
 10
139.884321
 20
223.912532
 42
0.279458
  0
VERTEX
  8
0
 10
139.585140
 20
222.999368
 42
0.348191
  0
VERTEX
  8
0
 10
140.246327
 20
222.473091
 42
0.064571
  0
VERTEX
  8
0
 10
141.898763
 20
222.683777
 42
-0.063174
  0
VERTEX
  8
0
 10
142.768914
 20
222.797183
 42
-0.036917
  0
VERTEX
  8
0
 10
143.819399
 20
222.723125
 42
-0.036337
  0
VERTEX
  8
0
 10
144.877161
 20
222.490112
 42
-0.050525
  0
VERTEX
  8
0
 10
145.773546
 20
222.121195
 42
0.076244
  0
VERTEX
  8
0
 10
146.895477
 20
221.725332
 42
0.310873
  0
VERTEX
  8
0
 10
147.522366
 20
222.002128
 42
0.106672
  0
VERTEX
  8
0
 10
147.894510
 20
223.055316
 42
0.007831
  0
VERTEX
  8
0
 10
148.237541
 20
226.120333
 42
-0.062897
  0
VERTEX
  8
0
 10
149.188575
 20
230.345036
 42
-0.084056
  0
VERTEX
  8
0
 10
151.120185
 20
233.759975
 42
-0.121218
  0
VERTEX
  8
0
 10
153.493501
 20
235.553163
 42
-0.245787
  0
VERTEX
  8
0
 10
155.763461
 20
235.379794
 42
0.052645
  0
VERTEX
  8
0
 10
156.674911
 20
234.936074
 42
0.088233
  0
VERTEX
  8
0
 10
157.512001
 20
234.790785
 42
0.087927
  0
VERTEX
  8
0
 10
158.349893
 20
234.942876
 42
0.051959
  0
VERTEX
  8
0
 10
159.263919
 20
235.394350
 42
-0.182893
  0
VERTEX
  8
0
 10
161.414515
 20
235.832149
 42
-0.102392
  0
VERTEX
  8
0
 10
163.941425
 20
234.866465
 42
-0.078566
  0
VERTEX
  8
0
 10
166.447894
 20
232.641745
 42
-0.055811
  0
VERTEX
  8
0
 10
168.500000
 20
229.485952
 42
-0.043208
  0
VERTEX
  8
0
 10
169.476553
 20
227.031686
 42
-0.032638
  0
VERTEX
  8
0
 10
170.129992
 20
224.203761
 42
-0.024069
  0
VERTEX
  8
0
 10
170.545211
 20
220.567670
 42
-0.009313
  0
VERTEX
  8
0
 10
170.783304
 20
215.500000
 42
-0.009439
  0
VERTEX
  8
0
 10
170.861504
 20
207.221398
 42
-0.120376
  0
VERTEX
  8
0
 10
170.101365
 20
204.232373
 42
-0.435389
  0
VERTEX
  8
0
 10
168.544907
 20
203.816834
 42
-0.067300
  0
VERTEX
  8
0
 10
165.791922
 20
206.111177
 42
0.050629
  0
VERTEX
  8
0
 10
161.650072
 20
209.802937
 42
0.061781
  0
VERTEX
  8
0
 10
157.105762
 20
212.305773
 42
0.049689
  0
VERTEX
  8
0
 10
151.331317
 20
213.970786
 42
0.020417
  0
VERTEX
  8
0
 10
143.252837
 20
215.114186
 42
-0.006272
  0
VERTEX
  8
0
 10
138.935131
 20
215.601195
 42
-0.007350
  0
VERTEX
  8
0
 10
134.854005
 20
216.174493
 42
-0.006568
  0
VERTEX
  8
0
 10
131.424032
 20
216.754088
 42
-0.044134
  0
VERTEX
  8
0
 10
129.760797
 20
217.212157
 42
-0.087268
  0
VERTEX
  8
0
 10
126.838984
 20
218.928232
 42
-0.034877
  0
VERTEX
  8
0
 10
123.510953
 20
222.186937
 42
-0.032913
  0
VERTEX
  8
0
 10
120.756795
 20
225.732733
 42
-0.149753
  0
VERTEX
  8
0
 10
120.000000
 20
228.202881
 42
0.020121
  0
VERTEX
  8
0
 10
119.956010
 20
229.295567
 42
0.201930
  0
VERTEX
  8
0
 10
119.750000
 20
229.692267
 42
0.337951
  0
VERTEX
  8
0
 10
119.404141
 20
229.706635
 42
0.043807
  0
VERTEX
  8
0
 10
118.800000
 20
229.200000
 42
-0.119879
  0
VERTEX
  8
0
 10
118.036963
 20
228.735552
 42
-0.027221
  0
VERTEX
  8
0
 10
116.559836
 20
228.352500
 42
-0.026676
  0
VERTEX
  8
0
 10
114.762006
 20
228.088198
 42
-0.023161
  0
VERTEX
  8
0
 10
112.859017
 20
228.000000
 42
0.023109
  0
VERTEX
  8
0
 10
109.310338
 20
227.835901
 42
0.175985
  0
VERTEX
  8
0
 10
107.822231
 20
227.133835
 42
0.313467
  0
VERTEX
  8
0
 10
107.609600
 20
225.924460
 42
0.061871
  0
VERTEX
  8
0
 10
108.839626
 20
223.949727
 42
0.024304
  0
VERTEX
  8
0
 10
110.070762
 20
222.571966
 42
0.182950
  0
VERTEX
  8
0
 10
110.851075
 20
222.213111
 42
0.137684
  0
VERTEX
  8
0
 10
111.787384
 20
222.407301
 42
0.011818
  0
VERTEX
  8
0
 10
113.953292
 20
223.595562
 42
-0.009114
  0
VERTEX
  8
0
 10
116.106838
 20
224.792240
 42
-0.128349
  0
VERTEX
  8
0
 10
116.959595
 20
224.995206
 42
-0.226571
  0
VERTEX
  8
0
 10
117.585740
 20
224.679304
 42
-0.035832
  0
VERTEX
  8
0
 10
118.369026
 20
223.500000
 42
0.037914
  0
VERTEX
  8
0
 10
119.046544
 20
222.489086
 42
0.010262
  0
VERTEX
  8
0
 10
120.269339
 20
220.997704
 42
0.010326
  0
VERTEX
  8
0
 10
121.731409
 20
219.357158
 42
0.010545
  0
VERTEX
  8
0
 10
123.250000
 20
217.790055
 42
-0.012567
  0
VERTEX
  8
0
 10
124.686341
 20
216.295788
 42
-0.017150
  0
VERTEX
  8
0
 10
125.898437
 20
214.874726
 42
-0.014022
  0
VERTEX
  8
0
 10
126.816863
 20
213.651090
 42
-0.155184
  0
VERTEX
  8
0
 10
127.000000
 20
213.075239
 42
-0.246005
  0
VERTEX
  8
0
 10
126.341195
 20
211.817269
 42
-0.074958
  0
VERTEX
  8
0
 10
124.349045
 20
210.839428
 42
-0.051303
  0
VERTEX
  8
0
 10
121.273408
 20
210.202679
 42
-0.025413
  0
VERTEX
  8
0
 10
117.288248
 20
210.000000
 42
-0.037876
  0
VERTEX
  8
0
 10
112.781949
 20
210.341849
 42
-0.083906
  0
VERTEX
  8
0
 10
109.519443
 20
211.418845
 42
-0.130680
  0
VERTEX
  8
0
 10
107.665750
 20
213.132476
 42
-0.178609
  0
VERTEX
  8
0
 10
107.193102
 20
215.336341
 42
-0.129015
  0
VERTEX
  8
0
 10
107.895846
 20
217.003878
 42
-0.183033
  0
VERTEX
  8
0
 10
109.251664
 20
217.841278
 42
-0.260995
  0
VERTEX
  8
0
 10
110.469882
 20
217.438421
 42
-0.187353
  0
VERTEX
  8
0
 10
111.000000
 20
216.073324
 42
0.072764
  0
VERTEX
  8
0
 10
111.205023
 20
214.671969
 42
0.268992
  0
VERTEX
  8
0
 10
111.831457
 20
214.082854
 42
0.224887
  0
VERTEX
  8
0
 10
112.760025
 20
214.283929
 42
0.055659
  0
VERTEX
  8
0
 10
113.912073
 20
215.394054
 42
0.222838
  0
VERTEX
  8
0
 10
114.301130
 20
216.891382
 42
0.159649
  0
VERTEX
  8
0
 10
113.457999
 20
218.431338
 42
0.108726
  0
VERTEX
  8
0
 10
111.499103
 20
219.596641
 42
0.080182
  0
VERTEX
  8
0
 10
109.000000
 20
220.000000
 42
0.114970
  0
VERTEX
  8
0
 10
105.642493
 20
219.217630
 42
0.196805
  0
VERTEX
  8
0
 10
103.765033
 20
217.095416
 42
0.175045
  0
VERTEX
  8
0
 10
103.798337
 20
214.051739
 42
0.091018
  0
VERTEX
  8
0
 10
105.773268
 20
210.750000
 42
-0.032872
  0
VERTEX
  8
0
 10
106.568952
 20
209.713851
 42
-0.400937
  0
VERTEX
  8
0
 10
106.490220
 20
209.264554
 42
-0.153198
  0
VERTEX
  8
0
 10
105.825823
 20
209.036489
 42
-0.007053
  0
VERTEX
  8
0
 10
103.404988
 20
209.006161
 42
-0.032128
  0
VERTEX
  8
0
 10
101.697995
 20
209.118663
 42
-0.022368
  0
VERTEX
  8
0
 10
99.795573
 20
209.454581
 42
-0.022642
  0
VERTEX
  8
0
 10
97.991951
 20
209.943618
 42
-0.042689
  0
VERTEX
  8
0
 10
96.601219
 20
210.524046
 42
0.015297
  0
VERTEX
  8
0
 10
94.006598
 20
211.777744
 42
0.416175
  0
VERTEX
  8
0
 10
93.363019
 20
211.528697
 42
0.334466
  0
VERTEX
  8
0
 10
93.545010
 20
210.760816
 42
0.013978
  0
VERTEX
  8
0
 10
95.897595
 20
208.917590
 42
0.000000
  0
VERTEX
  8
0
 10
98.952411
 20
206.659067
 42
0.000000
  0
VERTEX
  8
0
 10
96.928215
 20
203.383850
 42
0.000000
  0
VERTEX
  8
0
 10
94.904019
 20
200.108632
 42
0.000000
  0
VERTEX
  8
0
 10
98.526706
 20
199.429012
 42
0.047805
  0
VERTEX
  8
0
 10
101.483921
 20
199.162413
 42
0.178947
  0
VERTEX
  8
0
 10
103.201357
 20
199.808418
 42
0.241225
  0
VERTEX
  8
0
 10
103.782755
 20
201.249507
 42
0.084599
  0
VERTEX
  8
0
 10
103.194313
 20
203.472874
 42
0.000000
  0
VERTEX
  8
0
 10
102.042878
 20
206.000000
 42
0.000000
  0
VERTEX
  8
0
 10
110.521439
 20
206.000000
 42
-0.010454
  0
VERTEX
  8
0
 10
116.897992
 20
205.866667
 42
-0.232761
  0
VERTEX
  8
0
 10
118.477900
 20
205.005216
 42
-0.198136
  0
VERTEX
  8
0
 10
118.897763
 20
203.153919
 42
-0.007412
  0
VERTEX
  8
0
 10
117.573721
 20
196.000000
 42
-0.008692
  0
VERTEX
  8
0
 10
116.932671
 20
193.067505
 42
-0.043527
  0
VERTEX
  8
0
 10
116.404792
 20
191.472443
 42
-0.214918
  0
VERTEX
  8
0
 10
115.951551
 20
191.057928
 42
-0.389877
  0
VERTEX
  8
0
 10
115.528394
 20
191.250000
 42
0.138183
  0
VERTEX
  8
0
 10
114.519062
 20
192.508850
 42
0.169507
  0
VERTEX
  8
0
 10
113.080770
 20
192.929480
 42
0.145513
  0
VERTEX
  8
0
 10
111.522046
 20
192.377571
 42
0.096106
  0
VERTEX
  8
0
 10
110.217900
 20
190.977306
 42
0.065269
  0
VERTEX
  8
0
 10
109.571472
 20
189.559931
 42
0.329416
  0
VERTEX
  8
0
 10
109.843514
 20
188.788185
 42
0.102393
  0
VERTEX
  8
0
 10
111.095302
 20
188.271612
 42
0.005555
  0
VERTEX
  8
0
 10
115.322561
 20
187.518988
 42
-0.030956
  0
VERTEX
  8
0
 10
117.317679
 20
187.058203
 42
-0.087478
  0
VERTEX
  8
0
 10
118.592249
 20
186.421343
 42
-0.100438
  0
VERTEX
  8
0
 10
119.471275
 20
185.444419
 42
-0.049307
  0
VERTEX
  8
0
 10
120.177745
 20
183.919966
 42
0.061624
  0
VERTEX
  8
0
 10
121.417381
 20
181.408593
 42
0.133434
  0
VERTEX
  8
0
 10
123.017915
 20
179.993788
 42
0.187099
  0
VERTEX
  8
0
 10
124.740450
 20
179.840667
 42
0.139385
  0
VERTEX
  8
0
 10
126.374133
 20
180.860919
 42
0.052815
  0
VERTEX
  8
0
 10
127.686181
 20
182.660305
 42
0.204345
  0
VERTEX
  8
0
 10
127.849805
 20
184.001932
 42
0.216928
  0
VERTEX
  8
0
 10
126.997712
 20
184.995257
 42
0.059357
  0
VERTEX
  8
0
 10
124.987028
 20
185.652594
 42
-0.116130
  0
VERTEX
  8
0
 10
122.781673
 20
186.660336
 42
-0.148562
  0
VERTEX
  8
0
 10
121.497868
 20
188.473970
 42
-0.080845
  0
VERTEX
  8
0
 10
120.995577
 20
191.592874
 42
-0.017638
  0
VERTEX
  8
0
 10
121.197227
 20
197.049882
 42
-0.020825
  0
VERTEX
  8
0
 10
121.512719
 20
199.808990
 42
-0.030207
  0
VERTEX
  8
0
 10
122.037784
 20
202.203180
 42
-0.034772
  0
VERTEX
  8
0
 10
122.758296
 20
204.203056
 42
-0.056276
  0
VERTEX
  8
0
 10
123.667844
 20
205.763438
 42
-0.140089
  0
VERTEX
  8
0
 10
128.687125
 20
209.596928
 42
-0.060170
  0
VERTEX
  8
0
 10
136.920946
 20
211.731710
 42
-0.058601
  0
VERTEX
  8
0
 10
145.836947
 20
211.878119
 42
-0.096746
  0
VERTEX
  8
0
 10
153.024177
 20
209.705616
 42
-0.024439
  0
VERTEX
  8
0
 10
155.794652
 20
208.062564
 42
-0.070767
  0
VERTEX
  8
0
 10
157.458682
 20
206.586928
 42
-0.300473
  0
VERTEX
  8
0
 10
157.564444
 20
205.711661
 42
-0.295493
  0
VERTEX
  8
0
 10
156.799020
 20
205.260475
 42
0.038351
  0
VERTEX
  8
0
 10
154.053564
 20
205.165272
 42
0.055999
  0
VERTEX
  8
0
 10
151.695950
 20
204.630113
 42
0.046364
  0
VERTEX
  8
0
 10
149.212470
 20
203.497883
 42
0.017983
  0
VERTEX
  8
0
 10
146.000000
 20
201.500000
 42
-0.058349
  0
VERTEX
  8
0
 10
140.644826
 20
198.740741
 42
-0.100818
  0
VERTEX
  8
0
 10
135.715705
 20
197.954128
 42
-0.163892
  0
VERTEX
  8
0
 10
132.359618
 20
199.246583
 42
-0.223172
  0
VERTEX
  8
0
 10
131.000000
 20
202.140983
 42
0.097567
  0
VERTEX
  8
0
 10
130.706723
 20
203.629624
 42
0.197062
  0
VERTEX
  8
0
 10
129.881826
 20
204.466524
 42
0.161993
  0
VERTEX
  8
0
 10
128.566917
 20
204.574969
 42
0.063206
  0
VERTEX
  8
0
 10
126.842639
 20
203.915783
 42
0.028888
  0
VERTEX
  8
0
 10
125.525891
 20
203.110003
 42
0.314431
  0
VERTEX
  8
0
 10
125.321367
 20
202.557596
 42
0.151400
  0
VERTEX
  8
0
 10
125.735463
 20
201.890024
 42
0.006773
  0
VERTEX
  8
0
 10
127.830987
 20
200.119539
 42
-0.030229
  0
VERTEX
  8
0
 10
130.097295
 20
198.014961
 42
-0.151489
  0
VERTEX
  8
0
 10
130.859105
 20
196.482168
 42
-0.271336
  0
VERTEX
  8
0
 10
130.408388
 20
195.317883
 42
-0.093788
  0
VERTEX
  8
0
 10
128.750000
 20
194.444999
 42
0.030946
  0
VERTEX
  8
0
 10
126.015175
 20
193.417656
 42
0.170713
  0
VERTEX
  8
0
 10
124.891140
 20
192.350641
 42
0.246553
  0
VERTEX
  8
0
 10
124.904242
 20
191.067959
 42
0.065220
  0
VERTEX
  8
0
 10
126.141003
 20
189.349909
 42
0.016993
  0
VERTEX
  8
0
 10
127.045847
 20
188.450070
 42
0.021882
  0
VERTEX
  8
0
 10
127.938998
 20
187.690286
 42
0.020385
  0
VERTEX
  8
0
 10
128.721338
 20
187.131335
 42
0.145923
  0
VERTEX
  8
0
 10
129.161769
 20
187.000000
 42
0.205982
  0
VERTEX
  8
0
 10
129.600934
 20
187.188936
 42
0.015694
  0
VERTEX
  8
0
 10
130.477795
 20
188.175000
 42
0.019540
  0
VERTEX
  8
0
 10
131.473497
 20
189.467566
 42
0.013554
  0
VERTEX
  8
0
 10
132.500000
 20
191.000000
 42
-0.022643
  0
VERTEX
  8
0
 10
133.943603
 20
193.072646
 42
-0.074948
  0
VERTEX
  8
0
 10
135.137107
 20
194.224237
 42
-0.097904
  0
VERTEX
  8
0
 10
136.430495
 20
194.806063
 42
-0.056947
  0
VERTEX
  8
0
 10
138.127768
 20
195.000000
 42
0.000000
  0
VERTEX
  8
0
 10
141.230447
 20
195.000000
 42
0.000000
  0
VERTEX
  8
0
 10
140.537430
 20
189.250000
 42
-0.036952
  0
VERTEX
  8
0
 10
139.626472
 20
184.608907
 42
-0.104267
  0
VERTEX
  8
0
 10
138.121494
 20
181.685862
 42
-0.175881
  0
VERTEX
  8
0
 10
136.087150
 20
180.468232
 42
-0.155912
  0
VERTEX
  8
0
 10
133.626456
 20
180.760429
 42
0.078244
  0
VERTEX
  8
0
 10
132.036732
 20
181.202722
 42
0.197494
  0
VERTEX
  8
0
 10
130.902522
 20
180.882974
 42
0.171166
  0
VERTEX
  8
0
 10
130.215955
 20
179.804727
 42
0.057050
  0
VERTEX
  8
0
 10
130.000000
 20
177.918213
 42
0.358157
  0
VERTEX
  8
0
 10
130.601226
 20
177.186545
 42
0.069619
  0
VERTEX
  8
0
 10
132.438202
 20
177.083398
 42
0.054594
  0
VERTEX
  8
0
 10
134.796809
 20
177.541904
 42
0.054612
  0
VERTEX
  8
0
 10
137.000000
 20
178.500000
 42
-0.029309
  0
VERTEX
  8
0
 10
139.409941
 20
179.696143
 42
-0.161056
  0
VERTEX
  8
0
 10
140.837083
 20
179.814497
 42
-0.241022
  0
VERTEX
  8
0
 10
141.719759
 20
179.056348
 42
-0.068498
  0
VERTEX
  8
0
 10
142.183578
 20
177.250000
 42
0.034815
  0
VERTEX
  8
0
 10
142.434930
 20
175.900614
 42
0.128930
  0
VERTEX
  8
0
 10
142.854274
 20
175.151294
 42
0.171375
  0
VERTEX
  8
0
 10
143.510174
 20
174.822489
 42
0.074158
  0
VERTEX
  8
0
 10
144.500000
 20
174.845069
 42
0.027006
  0
VERTEX
  8
0
 10
146.296519
 20
175.255967
 42
0.290020
  0
VERTEX
  8
0
 10
146.770968
 20
175.788914
 42
0.196621
  0
VERTEX
  8
0
 10
146.582603
 20
176.610235
 42
0.013196
  0
VERTEX
  8
0
 10
145.114004
 20
178.582196
 42
-0.142993
  0
VERTEX
  8
0
 10
143.204727
 20
183.328522
 42
-0.070114
  0
VERTEX
  8
0
 10
143.478106
 20
189.896099
 42
-0.069184
  0
VERTEX
  8
0
 10
145.580992
 20
196.247103
 42
-0.126134
  0
VERTEX
  8
0
 10
149.114292
 20
200.367500
 42
-0.100686
  0
VERTEX
  8
0
 10
151.952303
 20
201.602059
 42
-0.056759
  0
VERTEX
  8
0
 10
155.704455
 20
201.964234
 42
-0.057096
  0
VERTEX
  8
0
 10
159.402704
 20
201.476080
 42
-0.109270
  0
VERTEX
  8
0
 10
162.069193
 20
200.145055
 42
0.000000
  0
VERTEX
  8
0
 10
164.359953
 20
198.290109
 42
0.000000
  0
VERTEX
  8
0
 10
160.776528
 20
197.617855
 42
0.065964
  0
VERTEX
  8
0
 10
158.373415
 20
196.828993
 42
0.121277
  0
VERTEX
  8
0
 10
156.795025
 20
195.525504
 42
0.182513
  0
VERTEX
  8
0
 10
156.363701
 20
194.014574
 42
0.179479
  0
VERTEX
  8
0
 10
157.034538
 20
192.582783
 42
0.100285
  0
VERTEX
  8
0
 10
157.622471
 20
192.199633
 42
0.173017
  0
VERTEX
  8
0
 10
158.199379
 20
192.179423
 42
0.120037
  0
VERTEX
  8
0
 10
158.810409
 20
192.551158
 42
0.037349
  0
VERTEX
  8
0
 10
159.516213
 20
193.371235
 42
-0.158371
  0
VERTEX
  8
0
 10
161.267256
 20
194.623119
 42
-0.146608
  0
VERTEX
  8
0
 10
163.480328
 20
194.657215
 42
-0.135195
  0
VERTEX
  8
0
 10
165.480107
 20
193.446233
 42
-0.128611
  0
VERTEX
  8
0
 10
166.624497
 20
191.359989
 42
-0.050653
  0
VERTEX
  8
0
 10
166.844240
 20
189.851827
 42
-0.009442
  0
VERTEX
  8
0
 10
166.913085
 20
187.051756
 42
-0.010028
  0
VERTEX
  8
0
 10
166.865862
 20
183.762489
 42
-0.009011
  0
VERTEX
  8
0
 10
166.687199
 20
180.358140
 42
-0.042736
  0
VERTEX
  8
0
 10
165.506575
 20
172.845352
 42
-0.023877
  0
VERTEX
  8
0
 10
162.866658
 20
163.967679
 42
-0.022286
  0
VERTEX
  8
0
 10
159.079905
 20
154.523879
 42
-0.020932
  0
VERTEX
  8
0
 10
154.395062
 20
145.250000
 42
-0.009399
  0
VERTEX
  8
0
 10
152.144929
 20
141.395736
 42
-0.080136
  0
VERTEX
  8
0
 10
150.848855
 20
139.879128
 42
-0.133819
  0
VERTEX
  8
0
 10
149.406885
 20
139.204397
 42
-0.042927
  0
VERTEX
  8
0
 10
147.030514
 20
139.000000
 42
-0.021715
  0
VERTEX
  8
0
 10
144.816970
 20
139.096179
 42
-0.120474
  0
VERTEX
  8
0
 10
143.697614
 20
139.475387
 42
-0.154927
  0
VERTEX
  8
0
 10
143.024999
 20
140.278897
 42
-0.043362
  0
VERTEX
  8
0
 10
142.530340
 20
141.861863
 42
0.104919
  0
VERTEX
  8
0
 10
141.672472
 20
143.755957
 42
0.072822
  0
VERTEX
  8
0
 10
140.014959
 20
145.432337
 42
0.071084
  0
VERTEX
  8
0
 10
137.898854
 20
146.598670
 42
0.089532
  0
VERTEX
  8
0
 10
135.702947
 20
147.005577
 42
-0.042939
  0
VERTEX
  8
0
 10
135.019840
 20
147.067541
 42
-0.007809
  0
VERTEX
  8
0
 10
133.770402
 20
147.310300
 42
-0.008355
  0
VERTEX
  8
0
 10
132.312980
 20
147.642688
 42
-0.007493
  0
VERTEX
  8
0
 10
130.813314
 20
148.035099
 42
-0.111603
  0
VERTEX
  8
0
 10
127.067046
 20
150.048736
 42
-0.092089
  0
VERTEX
  8
0
 10
124.238632
 20
153.606734
 42
-0.173947
  0
VERTEX
  8
0
 10
123.806414
 20
156.597083
 42
-0.356522
  0
VERTEX
  8
0
 10
125.523833
 20
158.000000
 42
0.109497
  0
VERTEX
  8
0
 10
126.134873
 20
158.135438
 42
0.055837
  0
VERTEX
  8
0
 10
126.809406
 20
158.546966
 42
0.051571
  0
VERTEX
  8
0
 10
127.440623
 20
159.149817
 42
0.053534
  0
VERTEX
  8
0
 10
127.926150
 20
159.862011
 42
0.077731
  0
VERTEX
  8
0
 10
128.288195
 20
160.897844
 42
0.129750
  0
VERTEX
  8
0
 10
128.217626
 20
161.812984
 42
0.093319
  0
VERTEX
  8
0
 10
127.663644
 20
162.778035
 42
0.027355
  0
VERTEX
  8
0
 10
126.478521
 20
164.020178
 42
-0.028076
  0
VERTEX
  8
0
 10
125.496190
 20
165.052748
 42
-0.023099
  0
VERTEX
  8
0
 10
124.565674
 20
166.256315
 42
-0.023703
  0
VERTEX
  8
0
 10
123.813301
 20
167.444309
 42
-0.055615
  0
VERTEX
  8
0
 10
123.398907
 20
168.408167
 42
0.059431
  0
VERTEX
  8
0
 10
122.463105
 20
170.539958
 42
0.062487
  0
VERTEX
  8
0
 10
121.064743
 20
172.352248
 42
0.069908
  0
VERTEX
  8
0
 10
119.441652
 20
173.584116
 42
0.128100
  0
VERTEX
  8
0
 10
117.845012
 20
174.000000
 42
0.084540
  0
VERTEX
  8
0
 10
116.741890
 20
173.812143
 42
0.195180
  0
VERTEX
  8
0
 10
116.122465
 20
173.265714
 42
0.091952
  0
VERTEX
  8
0
 10
115.794305
 20
172.120304
 42
0.011178
  0
VERTEX
  8
0
 10
115.601940
 20
169.500000
 42
-0.225148
  0
VERTEX
  8
0
 10
114.999678
 20
168.381232
 42
-0.117993
  0
VERTEX
  8
0
 10
113.510567
 20
167.753138
 42
-0.033303
  0
VERTEX
  8
0
 10
110.313645
 20
167.439907
 42
-0.002686
  0
VERTEX
  8
0
 10
101.860755
 20
167.222502
 42
-0.003807
  0
VERTEX
  8
0
 10
93.561792
 20
167.116857
 42
-0.030136
  0
VERTEX
  8
0
 10
89.726166
 20
167.328558
 42
-0.061702
  0
VERTEX
  8
0
 10
87.150896
 20
167.955054
 42
-0.050082
  0
VERTEX
  8
0
 10
84.605311
 20
169.222502
 42
-0.021850
  0
VERTEX
  8
0
 10
82.640886
 20
170.583056
 42
-0.096908
  0
VERTEX
  8
0
 10
81.710193
 20
171.626911
 42
-0.126162
  0
VERTEX
  8
0
 10
81.368431
 20
172.798035
 42
-0.048661
  0
VERTEX
  8
0
 10
81.478027
 20
174.500000
 42
0.053489
  0
VERTEX
  8
0
 10
81.617401
 20
177.046528
 42
0.135838
  0
VERTEX
  8
0
 10
81.036022
 20
178.787933
 42
0.176937
  0
VERTEX
  8
0
 10
79.769981
 20
179.707738
 42
0.105013
  0
VERTEX
  8
0
 10
77.886910
 20
179.837492
 42
0.064556
  0
VERTEX
  8
0
 10
76.739686
 20
179.520737
 42
0.116588
  0
VERTEX
  8
0
 10
75.956388
 20
178.949077
 42
0.104213
  0
VERTEX
  8
0
 10
75.457746
 20
178.037487
 42
0.044732
  0
VERTEX
  8
0
 10
75.176071
 20
176.672209
 42
-0.054742
  0
VERTEX
  8
0
 10
74.861422
 20
175.287455
 42
-0.091674
  0
VERTEX
  8
0
 10
74.274531
 20
174.251989
 42
-0.087794
  0
VERTEX
  8
0
 10
73.335849
 20
173.465862
 42
-0.046687
  0
VERTEX
  8
0
 10
71.952966
 20
172.833759
 42
0.062687
  0
VERTEX
  8
0
 10
70.694678
 20
172.209341
 42
0.033017
  0
VERTEX
  8
0
 10
69.305398
 20
171.149123
 42
0.032251
  0
VERTEX
  8
0
 10
68.005881
 20
169.857504
 42
0.042624
  0
VERTEX
  8
0
 10
67.011155
 20
168.518049
 42
0.080877
  0
VERTEX
  8
0
 10
65.850004
 20
165.710599
 42
0.110389
  0
VERTEX
  8
0
 10
65.820305
 20
162.981690
 42
0.098997
  0
VERTEX
  8
0
 10
66.981035
 20
160.284225
 42
0.054976
  0
VERTEX
  8
0
 10
69.334060
 20
157.566208
 42
-0.056043
  0
VERTEX
  8
0
 10
70.571566
 20
156.130582
 42
-0.111184
  0
VERTEX
  8
0
 10
71.123273
 20
154.741191
 42
-0.060396
  0
VERTEX
  8
0
 10
71.195360
 20
152.733395
 42
-0.007975
  0
VERTEX
  8
0
 10
70.766548
 20
148.489746
 42
0.000311
  0
VERTEX
  8
0
 10
70.399624
 20
145.341726
 42
0.000193
  0
VERTEX
  8
0
 10
69.972393
 20
141.643863
 42
0.000193
  0
VERTEX
  8
0
 10
69.553390
 20
137.992476
 42
0.000349
  0
VERTEX
  8
0
 10
69.213289
 20
135.000000
 42
-0.009181
  0
VERTEX
  8
0
 10
68.873744
 20
132.419534
 42
-0.011515
  0
VERTEX
  8
0
 10
68.460214
 20
130.042188
 42
-0.009780
  0
VERTEX
  8
0
 10
68.031285
 20
128.076230
 42
-0.083730
  0
VERTEX
  8
0
 10
67.680556
 20
127.250000
 42
-0.181744
  0
VERTEX
  8
0
 10
66.948503
 20
126.701854
 42
-0.031735
  0
VERTEX
  8
0
 10
65.236454
 20
126.319534
 42
-0.026618
  0
VERTEX
  8
0
 10
62.838964
 20
126.071631
 42
-0.012151
  0
VERTEX
  8
0
 10
59.690983
 20
125.991308
 42
0.010694
  0
VERTEX
  8
0
 10
51.819695
 20
125.813417
 42
0.030846
  0
VERTEX
  8
0
 10
46.395279
 20
125.238153
 42
0.044067
  0
VERTEX
  8
0
 10
42.938515
 20
124.335569
 42
0.316835
  0
VERTEX
  8
0
 10
42.000000
 20
123.003165
 42
0.340852
  0
VERTEX
  8
0
 10
43.106089
 20
121.569137
 42
0.033700
  0
VERTEX
  8
0
 10
47.666128
 20
120.694930
 42
0.023918
  0
VERTEX
  8
0
 10
54.969486
 20
120.151944
 42
0.006596
  0
VERTEX
  8
0
 10
66.486384
 20
120.000000
 42
-0.003807
  0
VERTEX
  8
0
 10
72.423618
 20
119.954799
 42
-0.001601
  0
VERTEX
  8
0
 10
80.407767
 20
119.807657
 42
-0.001583
  0
VERTEX
  8
0
 10
88.942836
 20
119.595987
 42
-0.002061
  0
VERTEX
  8
0
 10
96.756237
 20
119.345216
 42
0.000000
  0
VERTEX
  8
0
 10
114.833089
 20
118.690431
 42
0.000000
  0
VERTEX
  8
0
 10
114.829834
 20
72.595216
 42
0.001242
  0
VERTEX
  8
0
 10
114.886458
 20
49.140311
 42
0.005449
  0
VERTEX
  8
0
 10
115.105295
 20
35.287765
 42
0.006443
  0
VERTEX
  8
0
 10
115.464341
 20
26.221068
 42
0.070607
  0
VERTEX
  8
0
 10
116.163289
 20
22.653094
 42
0.021371
  0
VERTEX
  8
0
 10
116.748186
 20
21.176542
 42
0.030300
  0
VERTEX
  8
0
 10
117.401091
 20
19.923884
 42
0.030567
  0
VERTEX
  8
0
 10
118.033323
 20
19.004047
 42
0.219830
  0
VERTEX
  8
0
 10
118.500000
 20
18.764206
 42
0.377671
  0
VERTEX
  8
0
 10
121.077337
 20
20.849519
 42
0.019632
  0
VERTEX
  8
0
 10
122.563749
 20
32.303235
 42
0.017082
  0
VERTEX
  8
0
 10
123.556735
 20
50.133366
 42
0.004385
  0
VERTEX
  8
0
 10
123.923465
 20
79.000000
 42
-0.002428
  0
VERTEX
  8
0
 10
124.004511
 20
88.219147
 42
-0.002528
  0
VERTEX
  8
0
 10
124.174637
 20
97.314063
 42
-0.002431
  0
VERTEX
  8
0
 10
124.399740
 20
105.176751
 42
-0.011052
  0
VERTEX
  8
0
 10
124.654211
 20
109.750000
 42
0.000000
  0
VERTEX
  8
0
 10
125.296435
 20
118.000000
 42
0.000000
  0
VERTEX
  8
0
 10
165.008646
 20
118.000000
 42
-0.001487
  0
VERTEX
  8
0
 10
180.559902
 20
117.953757
 42
-0.002098
  0
VERTEX
  8
0
 10
194.418269
 20
117.813197
 42
-0.001210
  0
VERTEX
  8
0
 10
206.107860
 20
117.617299
 42
-0.029268
  0
VERTEX
  8
0
 10
209.360429
 20
117.364076
 42
0.000000
  0
VERTEX
  8
0
 10
214.000000
 20
116.728152
 42
0.000000
  0
VERTEX
  8
0
 10
214.076852
 20
71.114076
 42
0.001943
  0
VERTEX
  8
0
 10
214.246549
 20
40.650840
 42
0.016027
  0
VERTEX
  8
0
 10
214.821551
 20
26.805536
 42
0.031569
  0
VERTEX
  8
0
 10
215.857235
 20
19.274997
 42
0.356836
  0
VERTEX
  8
0
 10
218.027679
 20
17.500000
 42
0.336915
  0
VERTEX
  8
0
 10
220.201433
 20
19.152298
 42
0.038681
  0
VERTEX
  8
0
 10
221.461251
 20
25.578512
 42
0.020032
  0
VERTEX
  8
0
 10
222.348413
 20
37.197551
 42
0.003032
  0
VERTEX
  8
0
 10
223.049682
 20
60.500000
 42
0.000526
  0
VERTEX
  8
0
 10
223.375632
 20
74.688131
 42
0.000586
  0
VERTEX
  8
0
 10
223.659648
 20
88.376563
 42
0.000540
  0
VERTEX
  8
0
 10
223.875517
 20
100.047870
 42
0.003081
  0
VERTEX
  8
0
 10
223.945299
 20
106.250000
 42
0.000000
  0
VERTEX
  8
0
 10
224.000000
 20
117.000000
 42
0.000000
  0
VERTEX
  8
0
 10
260.883369
 20
117.000000
 42
0.000745
  0
VERTEX
  8
0
 10
285.265185
 20
117.036329
 42
0.013243
  0
VERTEX
  8
0
 10
293.123117
 20
117.267926
 42
0.041634
  0
VERTEX
  8
0
 10
296.983440
 20
117.808655
 42
0.280161
  0
VERTEX
  8
0
 10
298.314972
 20
119.096452
 42
0.064769
  0
VERTEX
  8
0
 10
298.588422
 20
121.247919
 42
0.152191
  0
VERTEX
  8
0
 10
298.107273
 20
122.776243
 42
0.164087
  0
VERTEX
  8
0
 10
296.876964
 20
123.689319
 42
0.078456
  0
VERTEX
  8
0
 10
294.909190
 20
124.000000
 42
0.000000
  0
VERTEX
  8
0
 10
292.032357
 20
124.000000
 42
0.000000
  0
VERTEX
  8
0
 10
293.701391
 20
127.500000
 42
-0.029740
  0
VERTEX
  8
0
 10
294.659532
 20
129.235536
 42
-0.082848
  0
VERTEX
  8
0
 10
295.583850
 20
130.270025
 42
-0.104014
  0
VERTEX
  8
0
 10
296.660270
 20
130.815430
 42
-0.065518
  0
VERTEX
  8
0
 10
298.062768
 20
131.000000
 42
0.049261
  0
VERTEX
  8
0
 10
299.184922
 20
131.110826
 42
0.041803
  0
VERTEX
  8
0
 10
300.329921
 20
131.440625
 42
0.043740
  0
VERTEX
  8
0
 10
301.328844
 20
131.924916
 42
0.085010
  0
VERTEX
  8
0
 10
302.000000
 20
132.500000
 42
0.062675
  0
VERTEX
  8
0
 10
302.508164
 20
133.297120
 42
0.376912
  0
VERTEX
  8
0
 10
302.383749
 20
133.732175
 42
0.133116
  0
VERTEX
  8
0
 10
301.670990
 20
133.957892
 42
0.010504
  0
VERTEX
  8
0
 10
299.666804
 20
134.000000
 42
0.000000
  0
VERTEX
  8
0
 10
296.088718
 20
134.000000
 42
0.000000
  0
VERTEX
  8
0
 10
297.544359
 20
138.125727
 42
0.003076
  0
VERTEX
  8
0
 10
298.102097
 20
139.738074
 42
0.004477
  0
VERTEX
  8
0
 10
298.572405
 20
141.167196
 42
0.002296
  0
VERTEX
  8
0
 10
298.954120
 20
142.382304
 42
0.075087
  0
VERTEX
  8
0
 10
299.000000
 20
142.686092
 42
0.389241
  0
VERTEX
  8
0
 10
298.853316
 20
142.845967
 42
0.013046
  0
VERTEX
  8
0
 10
297.921144
 20
142.901886
 42
0.018500
  0
VERTEX
  8
0
 10
296.735551
 20
142.898124
 42
0.011035
  0
VERTEX
  8
0
 10
295.327300
 20
142.810365
 42
0.033868
  0
VERTEX
  8
0
 10
293.199819
 20
142.484439
 42
0.128575
  0
VERTEX
  8
0
 10
292.014075
 20
141.873933
 42
0.109159
  0
VERTEX
  8
0
 10
291.174578
 20
140.703266
 42
0.021050
  0
VERTEX
  8
0
 10
290.243966
 20
138.250000
 42
-0.017311
  0
VERTEX
  8
0
 10
289.640150
 20
136.621617
 42
-0.025812
  0
VERTEX
  8
0
 10
288.991466
 20
135.248437
 42
-0.023610
  0
VERTEX
  8
0
 10
288.376210
 20
134.222373
 42
-0.250937
  0
VERTEX
  8
0
 10
287.961026
 20
134.000000
 42
-0.411036
  0
VERTEX
  8
0
 10
287.710023
 20
134.248291
 42
-0.037848
  0
VERTEX
  8
0
 10
287.772553
 20
135.211932
 42
-0.031946
  0
VERTEX
  8
0
 10
288.048415
 20
136.543188
 42
-0.017749
  0
VERTEX
  8
0
 10
288.544359
 20
138.125727
 42
0.002865
  0
VERTEX
  8
0
 10
289.730824
 20
141.550962
 42
0.084406
  0
VERTEX
  8
0
 10
289.876517
 20
142.457727
 42
0.342255
  0
VERTEX
  8
0
 10
289.549180
 20
142.872074
 42
0.060740
  0
VERTEX
  8
0
 10
288.500000
 20
143.000000
 42
-0.099038
  0
VERTEX
  8
0
 10
287.927543
 20
143.114514
 42
-0.097945
  0
VERTEX
  8
0
 10
287.440625
 20
143.440625
 42
-0.097945
  0
VERTEX
  8
0
 10
287.114514
 20
143.927543
 42
-0.099038
  0
VERTEX
  8
0
 10
287.000000
 20
144.500000
 42
-0.197486
  0
VERTEX
  8
0
 10
287.289638
 20
145.204715
 42
-0.123761
  0
VERTEX
  8
0
 10
288.062926
 20
145.673117
 42
-0.060027
  0
VERTEX
  8
0
 10
289.487352
 20
145.930027
 42
-0.014634
  0
VERTEX
  8
0
 10
291.877555
 20
146.000000
 42
0.022202
  0
VERTEX
  8
0
 10
294.032454
 20
146.095735
 42
0.037886
  0
VERTEX
  8
0
 10
295.808947
 20
146.390690
 42
0.046800
  0
VERTEX
  8
0
 10
297.163260
 20
146.860332
 42
0.113165
  0
VERTEX
  8
0
 10
298.000000
 20
147.500000
 42
0.044520
  0
VERTEX
  8
0
 10
298.558392
 20
148.309680
 42
0.352811
  0
VERTEX
  8
0
 10
298.489309
 20
148.728195
 42
0.170405
  0
VERTEX
  8
0
 10
297.935689
 20
148.956595
 42
0.013430
  0
VERTEX
  8
0
 10
296.319989
 20
149.000000
 42
-0.062662
  0
VERTEX
  8
0
 10
294.646560
 20
149.210548
 42
-0.144801
  0
VERTEX
  8
0
 10
293.568869
 20
149.853512
 42
-0.086585
  0
VERTEX
  8
0
 10
292.691332
 20
151.214999
 42
-0.013649
  0
VERTEX
  8
0
 10
291.527587
 20
154.193348
 42
-0.010164
  0
VERTEX
  8
0
 10
290.628588
 20
156.862563
 42
-0.050820
  0
VERTEX
  8
0
 10
290.310688
 20
158.407086
 42
-0.117571
  0
VERTEX
  8
0
 10
290.432295
 20
159.318584
 42
-0.224236
  0
VERTEX
  8
0
 10
290.955043
 20
159.818348
 42
0.089977
  0
VERTEX
  8
0
 10
292.653486
 20
160.748905
 42
0.050316
  0
VERTEX
  8
0
 10
294.331717
 20
162.413229
 42
0.050889
  0
VERTEX
  8
0
 10
295.596062
 20
164.312555
 42
0.122007
  0
VERTEX
  8
0
 10
296.000000
 20
165.943296
 42
0.210164
  0
VERTEX
  8
0
 10
294.842266
 20
168.575993
 42
0.109182
  0
VERTEX
  8
0
 10
291.675773
 20
170.408804
 42
0.092240
  0
VERTEX
  8
0
 10
287.522107
 20
170.923282
 42
0.106344
  0
VERTEX
  8
0
 10
283.684259
 20
169.850296
 42
0.044039
  0
VERTEX
  8
0
 10
281.717968
 20
168.582926
 42
0.116449
  0
VERTEX
  8
0
 10
280.674202
 20
167.287926
 42
0.114021
  0
VERTEX
  8
0
 10
280.307769
 20
165.645223
 42
0.041271
  0
VERTEX
  8
0
 10
280.524120
 20
163.250000
 42
-0.037159
  0
VERTEX
  8
0
 10
280.742644
 20
161.033924
 42
-0.295833
  0
VERTEX
  8
0
 10
280.229234
 20
160.198879
 42
-0.199232
  0
VERTEX
  8
0
 10
279.052582
 20
160.138850
 42
-0.018575
  0
VERTEX
  8
0
 10
276.297053
 20
161.237804
 42
-0.035300
  0
VERTEX
  8
0
 10
273.147837
 20
162.906255
 42
-0.183615
  0
VERTEX
  8
0
 10
271.979059
 20
164.444217
 42
-0.233377
  0
VERTEX
  8
0
 10
272.271223
 20
166.127148
 42
-0.057459
  0
VERTEX
  8
0
 10
274.230034
 20
168.250000
 42
0.000000
  0
VERTEX
  8
0
 10
277.424452
 20
171.000000
 42
0.000000
  0
VERTEX
  8
0
 10
274.412226
 20
171.000000
 42
0.036807
  0
VERTEX
  8
0
 10
273.161771
 20
170.907823
 42
0.033371
  0
VERTEX
  8
0
 10
271.895623
 20
170.632813
 42
0.034996
  0
VERTEX
  8
0
 10
270.794795
 20
170.230279
 42
0.084137
  0
VERTEX
  8
0
 10
270.075000
 20
169.750000
 42
-0.026382
  0
VERTEX
  8
0
 10
269.367600
 20
169.149887
 42
-0.164145
  0
VERTEX
  8
0
 10
268.923333
 20
169.000000
 42
-0.247772
  0
VERTEX
  8
0
 10
268.586056
 20
169.178067
 42
-0.062037
  0
VERTEX
  8
0
 10
268.291667
 20
169.750000
 42
0.198893
  0
VERTEX
  8
0
 10
267.819006
 20
170.263401
 42
0.047650
  0
VERTEX
  8
0
 10
266.703256
 20
170.656580
 42
0.038759
  0
VERTEX
  8
0
 10
265.155618
 20
170.916027
 42
0.022158
  0
VERTEX
  8
0
 10
263.261679
 20
171.000000
 42
0.005391
  0
VERTEX
  8
0
 10
260.335252
 20
170.968448
 42
0.135437
  0
VERTEX
  8
0
 10
259.573597
 20
170.740498
 42
0.425906
  0
VERTEX
  8
0
 10
259.476189
 20
170.273158
 42
0.033957
  0
VERTEX
  8
0
 10
260.345012
 20
169.171259
 42
-0.034521
  0
VERTEX
  8
0
 10
261.601991
 20
167.573378
 42
-0.179612
  0
VERTEX
  8
0
 10
261.866352
 20
166.502855
 42
-0.164244
  0
VERTEX
  8
0
 10
261.377999
 20
165.462593
 42
-0.027766
  0
VERTEX
  8
0
 10
259.750000
 20
163.943562
 42
-0.072776
  0
VERTEX
  8
0
 10
258.240912
 20
163.018389
 42
-0.054033
  0
VERTEX
  8
0
 10
256.368396
 20
162.445884
 42
-0.035439
  0
VERTEX
  8
0
 10
253.753025
 20
162.136075
 42
-0.010692
  0
VERTEX
  8
0
 10
249.750000
 20
162.033269
 42
-0.010251
  0
VERTEX
  8
0
 10
246.490571
 20
162.086105
 42
-0.023938
  0
VERTEX
  8
0
 10
244.060179
 20
162.292150
 42
-0.025274
  0
VERTEX
  8
0
 10
242.363054
 20
162.606203
 42
-0.347358
  0
VERTEX
  8
0
 10
242.000000
 20
163.065741
 42
-0.098905
  0
VERTEX
  8
0
 10
242.351203
 20
164.823822
 42
-0.083334
  0
VERTEX
  8
0
 10
243.362175
 20
166.434119
 42
-0.088541
  0
VERTEX
  8
0
 10
244.775813
 20
167.547805
 42
-0.136583
  0
VERTEX
  8
0
 10
246.285184
 20
167.883999
 42
-0.005383
  0
VERTEX
  8
0
 10
247.430898
 20
167.811615
 42
-0.206795
  0
VERTEX
  8
0
 10
247.653698
 20
167.695141
 42
-0.531814
  0
VERTEX
  8
0
 10
247.610841
 20
167.554753
 42
-0.010337
  0
VERTEX
  8
0
 10
246.750000
 20
167.310674
 42
0.118975
  0
VERTEX
  8
0
 10
245.132129
 20
166.442626
 42
0.371949
  0
VERTEX
  8
0
 10
244.985055
 20
165.311728
 42
0.187260
  0
VERTEX
  8
0
 10
246.385492
 20
164.316790
 42
0.061947
  0
VERTEX
  8
0
 10
248.932612
 20
164.000000
 42
0.023123
  0
VERTEX
  8
0
 10
250.983381
 20
164.094892
 42
0.086993
  0
VERTEX
  8
0
 10
252.220732
 20
164.432051
 42
0.127740
  0
VERTEX
  8
0
 10
253.010635
 20
165.088886
 42
0.079085
  0
VERTEX
  8
0
 10
253.555163
 20
166.173804
 42
0.164596
  0
VERTEX
  8
0
 10
253.514342
 20
168.329445
 42
0.182317
  0
VERTEX
  8
0
 10
252.167638
 20
169.909380
 42
0.106606
  0
VERTEX
  8
0
 10
249.383350
 20
170.745832
 42
0.039434
  0
VERTEX
  8
0
 10
245.265497
 20
170.748321
 42
0.045661
  0
VERTEX
  8
0
 10
241.332310
 20
170.075264
 42
0.086209
  0
VERTEX
  8
0
 10
238.419010
 20
168.729524
 42
0.113485
  0
VERTEX
  8
0
 10
236.640583
 20
166.782098
 42
0.129229
  0
VERTEX
  8
0
 10
236.000000
 20
164.345012
 42
-0.052449
  0
VERTEX
  8
0
 10
235.878448
 20
163.189421
 42
-0.149843
  0
VERTEX
  8
0
 10
235.490237
 20
162.490604
 42
-0.144787
  0
VERTEX
  8
0
 10
234.767125
 20
162.115364
 42
-0.047810
  0
VERTEX
  8
0
 10
233.563409
 20
162.000000
 42
0.000000
  0
VERTEX
  8
0
 10
231.126817
 20
162.000000
 42
0.000000
  0
VERTEX
  8
0
 10
234.063409
 20
170.687588
 42
0.001217
  0
VERTEX
  8
0
 10
235.189053
 20
174.044596
 42
0.001916
  0
VERTEX
  8
0
 10
236.137376
 20
176.932700
 42
0.000459
  0
VERTEX
  8
0
 10
236.955551
 20
179.464967
 42
0.078057
  0
VERTEX
  8
0
 10
237.000000
 20
179.747953
 42
0.397903
  0
VERTEX
  8
0
 10
236.870035
 20
179.885408
 42
0.009754
  0
VERTEX
  8
0
 10
235.921144
 20
179.920057
 42
0.015867
  0
VERTEX
  8
0
 10
234.735581
 20
179.902582
 42
0.009459
  0
VERTEX
  8
0
 10
233.327300
 20
179.810365
 42
0.033868
  0
VERTEX
  8
0
 10
231.199819
 20
179.484439
 42
0.128575
  0
VERTEX
  8
0
 10
230.014075
 20
178.873933
 42
0.109159
  0
VERTEX
  8
0
 10
229.174578
 20
177.703266
 42
0.021050
  0
VERTEX
  8
0
 10
228.243966
 20
175.250000
 42
-0.018801
  0
VERTEX
  8
0
 10
227.287602
 20
172.694247
 42
-0.125051
  0
VERTEX
  8
0
 10
226.476891
 20
171.615499
 42
-0.143110
  0
VERTEX
  8
0
 10
225.300533
 20
171.127521
 42
-0.027239
  0
VERTEX
  8
0
 10
222.961480
 20
171.000000
 42
0.000000
  0
VERTEX
  8
0
 10
219.089628
 20
171.000000
 42
0.000000
  0
VERTEX
  8
0
 10
221.536221
 20
177.500000
 42
0.000000
  0
VERTEX
  8
0
 10
223.982814
 20
184.000000
 42
0.000000
  0
VERTEX
  8
0
 10
218.997848
 20
184.000000
 42
0.000000
  0
VERTEX
  8
0
 10
214.012881
 20
184.000000
 42
0.000000
  0
VERTEX
  8
0
 10
209.781227
 20
177.626156
 42
0.000000
  0
VERTEX
  8
0
 10
205.549574
 20
171.252312
 42
0.000000
  0
VERTEX
  8
0
 10
198.849800
 20
170.690627
 42
0.017361
  0
VERTEX
  8
0
 10
196.059209
 20
170.358784
 42
0.015903
  0
VERTEX
  8
0
 10
193.214800
 20
169.826830
 42
0.016142
  0
VERTEX
  8
0
 10
190.707285
 20
169.189318
 42
0.049040
  0
VERTEX
  8
0
 10
189.075013
 20
168.538791
 42
0.000000
  0
VERTEX
  8
0
 10
186.000000
 20
166.948640
 42
0.000000
  0
VERTEX
  8
0
 10
186.000000
 20
175.349320
 42
0.000000
  0
VERTEX
  8
0
 10
186.000000
 20
183.750000
 42
0.000000
  0
VERTEX
  8
0
 10
188.971119
 20
184.344224
 42
0.062447
  0
VERTEX
  8
0
 10
192.818742
 20
185.628373
 42
0.052708
  0
VERTEX
  8
0
 10
196.475477
 20
187.881303
 42
0.054271
  0
VERTEX
  8
0
 10
199.468110
 20
190.759634
 42
0.079119
  0
VERTEX
  8
0
 10
201.341458
 20
193.895367
 42
0.039066
  0
VERTEX
  8
0
 10
202.250729
 20
196.808779
 42
0.093928
  0
VERTEX
  8
0
 10
202.334278
 20
199.058508
 42
0.091090
  0
VERTEX
  8
0
 10
201.587686
 20
201.224986
 42
0.035241
  0
VERTEX
  8
0
 10
199.829783
 20
203.884859
 42
-0.040900
  0
VERTEX
  8
0
 10
199.129238
 20
204.971348
 42
-0.030821
  0
VERTEX
  8
0
 10
198.537499
 20
206.263925
 42
-0.031524
  0
VERTEX
  8
0
 10
198.130858
 20
207.557061
 42
-0.060484
  0
VERTEX
  8
0
 10
198.000000
 20
208.634859
 42
0.040374
  0
VERTEX
  8
0
 10
197.926756
 20
209.540450
 42
0.059722
  0
VERTEX
  8
0
 10
197.706250
 20
210.305240
 42
0.078543
  0
VERTEX
  8
0
 10
197.382616
 20
210.825160
 42
0.217656
  0
VERTEX
  8
0
 10
197.000000
 20
211.000000
 42
0.136626
  0
VERTEX
  8
0
 10
196.618661
 20
210.893816
 42
0.100269
  0
VERTEX
  8
0
 10
196.293750
 20
210.595343
 42
0.086403
  0
VERTEX
  8
0
 10
196.075037
 20
210.148899
 42
0.070908
  0
VERTEX
  8
0
 10
196.000000
 20
209.622445
 42
-0.088854
  0
VERTEX
  8
0
 10
195.888833
 20
209.001828
 42
-0.043224
  0
VERTEX
  8
0
 10
195.544058
 20
208.271148
 42
-0.041049
  0
VERTEX
  8
0
 10
195.041744
 20
207.551413
 42
-0.046708
  0
VERTEX
  8
0
 10
194.447856
 20
206.956724
 42
0.067358
  0
VERTEX
  8
0
 10
193.733603
 20
206.180055
 42
0.267338
  0
VERTEX
  8
0
 10
193.679680
 20
205.558852
 42
0.129546
  0
VERTEX
  8
0
 10
194.240384
 20
204.884347
 42
0.013794
  0
VERTEX
  8
0
 10
195.947856
 20
203.736078
 42
-0.187033
  0
VERTEX
  8
0
 10
198.543983
 20
200.224049
 42
-0.173750
  0
VERTEX
  8
0
 10
198.197320
 20
195.748345
 42
-0.135184
  0
VERTEX
  8
0
 10
194.830650
 20
191.670053
 42
-0.107033
  0
VERTEX
  8
0
 10
189.540958
 20
189.441706
 42
-0.069748
  0
VERTEX
  8
0
 10
186.552093
 20
189.303599
 42
-0.239331
  0
VERTEX
  8
0
 10
184.957328
 20
190.309939
 42
-0.120650
  0
VERTEX
  8
0
 10
184.192017
 20
192.802416
 42
-0.013912
  0
VERTEX
  8
0
 10
184.015313
 20
198.700779
 42
-0.021941
  0
VERTEX
  8
0
 10
184.323988
 20
206.090335
 42
-0.044758
  0
VERTEX
  8
0
 10
185.334570
 20
211.803434
 42
-0.055539
  0
VERTEX
  8
0
 10
187.139669
 20
216.382572
 42
-0.061990
  0
VERTEX
  8
0
 10
189.857847
 20
220.269364
 42
-0.041076
  0
VERTEX
  8
0
 10
193.216915
 20
223.427574
 42
-0.063846
  0
VERTEX
  8
0
 10
196.612525
 20
225.485985
 42
-0.063725
  0
VERTEX
  8
0
 10
200.422427
 20
226.623606
 42
-0.040745
  0
VERTEX
  8
0
 10
205.033623
 20
227.000000
 42
-0.029518
  0
VERTEX
  8
0
 10
208.991198
 20
226.766160
 42
-0.074980
  0
VERTEX
  8
0
 10
211.760014
 20
226.006672
 42
-0.120288
  0
VERTEX
  8
0
 10
213.396458
 20
224.744932
 42
-0.170254
  0
VERTEX
  8
0
 10
214.000000
 20
223.023833
 42
0.072605
  0
VERTEX
  8
0
 10
214.237987
 20
221.393563
 42
0.225344
  0
VERTEX
  8
0
 10
214.962541
 20
220.589119
 42
0.321340
  0
VERTEX
  8
0
 10
215.818227
 20
220.787235
 42
0.103898
  0
VERTEX
  8
0
 10
216.495391
 20
221.985479
 42
-0.070903
  0
VERTEX
  8
0
 10
217.192318
 20
223.432287
 42
-0.254051
  0
VERTEX
  8
0
 10
218.070387
 20
223.892494
 42
-0.170747
  0
VERTEX
  8
0
 10
219.215703
 20
223.470450
 42
-0.032383
  0
VERTEX
  8
0
 10
220.859172
 20
221.920787
 42
-0.125707
  0
VERTEX
  8
0
 10
222.875248
 20
218.229693
 42
-0.079687
  0
VERTEX
  8
0
 10
223.322011
 20
213.321921
 42
-0.081282
  0
VERTEX
  8
0
 10
222.218872
 20
208.620355
 42
-0.142736
  0
VERTEX
  8
0
 10
219.738630
 20
205.529483
 42
-0.104223
  0
VERTEX
  8
0
 10
216.348724
 20
204.082984
 42
-0.110284
  0
VERTEX
  8
0
 10
212.735638
 20
204.169930
 42
-0.136585
  0
VERTEX
  8
0
 10
210.033631
 20
205.699926
 42
-0.198569
  0
VERTEX
  8
0
 10
209.000000
 20
208.200000
 42
0.077867
  0
VERTEX
  8
0
 10
208.810249
 20
209.411046
 42
0.268396
  0
VERTEX
  8
0
 10
208.243184
 20
209.924193
 42
0.202684
  0
VERTEX
  8
0
 10
207.365773
 20
209.756489
 42
0.049187
  0
VERTEX
  8
0
 10
206.200000
 20
208.800000
 42
0.123055
  0
VERTEX
  8
0
 10
205.294416
 20
207.291033
 42
0.087110
  0
VERTEX
  8
0
 10
205.053227
 20
205.321577
 42
0.086776
  0
VERTEX
  8
0
 10
205.497543
 20
203.380647
 42
0.120557
  0
VERTEX
  8
0
 10
206.555804
 20
201.953687
 42
0.062248
  0
VERTEX
  8
0
 10
207.456296
 20
201.378545
 42
0.016371
  0
VERTEX
  8
0
 10
209.027585
 20
200.693158
 42
0.016363
  0
VERTEX
  8
0
 10
210.882129
 20
200.024902
 42
0.016120
  0
VERTEX
  8
0
 10
212.785634
 20
199.475702
 42
-0.021705
  0
VERTEX
  8
0
 10
215.052725
 20
198.794086
 42
-0.060777
  0
VERTEX
  8
0
 10
216.538894
 20
198.063554
 42
-0.088885
  0
VERTEX
  8
0
 10
217.467168
 20
197.189059
 42
-0.101874
  0
VERTEX
  8
0
 10
217.979830
 20
196.085443
 42
0.063651
  0
VERTEX
  8
0
 10
218.715442
 20
194.124909
 42
0.414199
  0
VERTEX
  8
0
 10
219.624218
 20
193.844451
 42
0.207885
  0
VERTEX
  8
0
 10
220.504561
 20
194.944685
 42
0.033064
  0
VERTEX
  8
0
 10
221.062447
 20
197.714016
 42
-0.054056
  0
VERTEX
  8
0
 10
221.795573
 20
200.700862
 42
-0.056150
  0
VERTEX
  8
0
 10
223.145973
 20
203.420438
 42
-0.064153
  0
VERTEX
  8
0
 10
224.794539
 20
205.372946
 42
-0.189136
  0
VERTEX
  8
0
 10
226.404988
 20
205.993167
 42
-0.226403
  0
VERTEX
  8
0
 10
227.903349
 20
205.266530
 42
-0.031869
  0
VERTEX
  8
0
 10
229.926170
 20
202.373811
 42
-0.032618
  0
VERTEX
  8
0
 10
231.567905
 20
199.230408
 42
-0.198161
  0
VERTEX
  8
0
 10
231.612577
 20
197.432776
 42
-0.101291
  0
VERTEX
  8
0
 10
231.167660
 20
196.736042
 42
-0.038032
  0
VERTEX
  8
0
 10
230.296146
 20
195.964586
 42
-0.035750
  0
VERTEX
  8
0
 10
229.190382
 20
195.244737
 42
-0.036186
  0
VERTEX
  8
0
 10
227.997722
 20
194.693038
 42
0.048910
  0
VERTEX
  8
0
 10
225.942374
 20
193.678130
 42
0.199170
  0
VERTEX
  8
0
 10
225.147769
 20
192.567895
 42
0.212984
  0
VERTEX
  8
0
 10
225.398796
 20
191.274497
 42
0.056018
  0
VERTEX
  8
0
 10
226.828741
 20
189.654988
 42
0.046402
  0
VERTEX
  8
0
 10
228.523593
 20
188.385633
 42
0.169211
  0
VERTEX
  8
0
 10
229.817366
 20
188.103318
 42
0.212912
  0
VERTEX
  8
0
 10
230.817997
 20
188.703076
 42
0.076132
  0
VERTEX
  8
0
 10
231.572667
 20
190.228954
 42
-0.067843
  0
VERTEX
  8
0
 10
232.942262
 20
193.117063
 42
-0.044059
  0
VERTEX
  8
0
 10
235.229415
 20
196.025703
 42
-0.044815
  0
VERTEX
  8
0
 10
237.843963
 20
198.350557
 42
-0.110408
  0
VERTEX
  8
0
 10
240.178893
 20
199.385779
 42
0.046642
  0
VERTEX
  8
0
 10
242.549113
 20
200.094664
 42
0.480491
  0
VERTEX
  8
0
 10
242.803577
 20
200.943892
 42
0.189606
  0
VERTEX
  8
0
 10
241.550921
 20
201.785016
 42
0.021172
  0
VERTEX
  8
0
 10
238.101242
 20
202.392182
 42
-0.066200
  0
VERTEX
  8
0
 10
234.359691
 20
203.403930
 42
-0.116762
  0
VERTEX
  8
0
 10
231.784425
 20
205.276754
 42
-0.104184
  0
VERTEX
  8
0
 10
230.140291
 20
208.272527
 42
-0.045551
  0
VERTEX
  8
0
 10
229.220819
 20
212.733260
 42
-0.021903
  0
VERTEX
  8
0
 10
229.060025
 20
215.078926
 42
-0.069543
  0
VERTEX
  8
0
 10
229.238821
 20
216.637505
 42
-0.089214
  0
VERTEX
  8
0
 10
229.804231
 20
217.866985
 42
-0.052994
  0
VERTEX
  8
0
 10
230.864387
 20
219.088285
 42
0.053580
  0
VERTEX
  8
0
 10
232.232752
 20
220.668368
 42
0.100288
  0
VERTEX
  8
0
 10
232.899108
 20
222.215256
 42
0.143001
  0
VERTEX
  8
0
 10
232.797153
 20
223.532703
 42
0.165464
  0
VERTEX
  8
0
 10
232.000000
 20
224.500000
 42
0.139169
  0
VERTEX
  8
0
 10
231.620352
 20
224.607943
 42
0.191142
  0
VERTEX
  8
0
 10
231.293750
 20
224.478525
 42
0.138808
  0
VERTEX
  8
0
 10
231.073267
 20
224.110654
 42
0.066118
  0
VERTEX
  8
0
 10
231.000000
 20
223.559017
 42
-0.280609
  0
VERTEX
  8
0
 10
230.273779
 20
222.366898
 42
-0.149663
  0
VERTEX
  8
0
 10
228.513748
 20
222.047747
 42
-0.094873
  0
VERTEX
  8
0
 10
226.176207
 20
222.788587
 42
-0.080300
  0
VERTEX
  8
0
 10
224.119426
 20
224.372877
 42
0.038033
  0
VERTEX
  8
0
 10
222.985550
 20
225.409408
 42
0.018141
  0
VERTEX
  8
0
 10
221.386176
 20
226.571301
 42
0.017866
  0
VERTEX
  8
0
 10
219.618781
 20
227.670190
 42
0.024231
  0
VERTEX
  8
0
 10
217.945112
 20
228.524751
 42
-0.014402
  0
VERTEX
  8
0
 10
216.433515
 20
229.259482
 42
-0.021374
  0
VERTEX
  8
0
 10
215.158877
 20
229.996045
 42
-0.017509
  0
VERTEX
  8
0
 10
214.187737
 20
230.662916
 42
-0.237850
  0
VERTEX
  8
0
 10
214.000000
 20
231.035243
 42
-0.323921
  0
VERTEX
  8
0
 10
214.607751
 20
231.874929
 42
-0.037502
  0
VERTEX
  8
0
 10
216.999626
 20
232.467378
 42
-0.029553
  0
VERTEX
  8
0
 10
220.588246
 20
232.859179
 42
-0.011929
  0
VERTEX
  8
0
 10
225.515602
 20
232.986345
 42
-0.036302
  0
VERTEX
  8
0
 10
231.224162
 20
232.582507
 42
-0.071969
  0
VERTEX
  8
0
 10
235.567577
 20
231.301092
 42
-0.076165
  0
VERTEX
  8
0
 10
239.211569
 20
228.900036
 42
-0.045165
  0
VERTEX
  8
0
 10
242.750000
 20
225.070269
 42
-0.023664
  0
VERTEX
  8
0
 10
244.405058
 20
222.693605
 42
-0.053938
  0
VERTEX
  8
0
 10
245.361094
 20
220.730525
 42
-0.057052
  0
VERTEX
  8
0
 10
245.844816
 20
218.678003
 42
-0.029376
  0
VERTEX
  8
0
 10
246.000000
 20
216.038892
 42
0.014882
  0
VERTEX
  8
0
 10
246.078703
 20
213.395272
 42
0.080955
  0
VERTEX
  8
0
 10
246.391863
 20
212.001941
 42
0.145374
  0
VERTEX
  8
0
 10
247.039171
 20
211.187185
 42
0.088965
  0
VERTEX
  8
0
 10
248.161673
 20
210.667972
 42
0.121960
  0
VERTEX
  8
0
 10
251.114759
 20
210.629413
 42
0.207164
  0
VERTEX
  8
0
 10
253.066317
 20
212.077020
 42
0.293293
  0
VERTEX
  8
0
 10
252.974746
 20
214.042737
 42
0.163003
  0
VERTEX
  8
0
 10
250.961343
 20
215.512269
 42
-0.221027
  0
VERTEX
  8
0
 10
249.239707
 20
217.091841
 42
-0.066027
  0
VERTEX
  8
0
 10
248.294779
 20
220.622825
 42
-0.065536
  0
VERTEX
  8
0
 10
248.299449
 20
224.314915
 42
-0.204604
  0
VERTEX
  8
0
 10
249.541269
 20
226.406518
 42
0.118987
  0
VERTEX
  8
0
 10
250.874797
 20
227.981523
 42
0.287177
  0
VERTEX
  8
0
 10
250.737996
 20
229.438802
 42
0.198788
  0
VERTEX
  8
0
 10
249.164329
 20
230.351211
 42
0.073594
  0
VERTEX
  8
0
 10
246.552256
 20
230.314767
 42
-0.040188
  0
VERTEX
  8
0
 10
243.480335
 20
230.066812
 42
-0.661202
  0
VERTEX
  8
0
 10
243.185732
 20
230.758620
 42
-0.118793
  0
VERTEX
  8
0
 10
245.078234
 20
231.967613
 42
-0.017901
  0
VERTEX
  8
0
 10
249.414135
 20
233.290876
 42
-0.007625
  0
VERTEX
  8
0
 10
254.748122
 20
234.625409
 42
-0.058634
  0
VERTEX
  8
0
 10
257.305166
 20
234.915013
 42
-0.209307
  0
VERTEX
  8
0
 10
258.451856
 20
234.407033
 42
-0.230844
  0
VERTEX
  8
0
 10
258.793837
 20
233.250000
 42
0.095489
  0
VERTEX
  8
0
 10
258.812653
 20
232.467662
 42
0.136537
  0
VERTEX
  8
0
 10
259.135063
 20
231.857108
 42
0.114034
  0
VERTEX
  8
0
 10
259.780511
 20
231.428238
 42
0.054630
  0
VERTEX
  8
0
 10
260.750000
 20
231.180449
 42
0.191376
  0
VERTEX
  8
0
 10
262.315195
 20
231.558672
 42
0.231116
  0
VERTEX
  8
0
 10
263.034061
 20
232.870617
 42
0.136414
  0
VERTEX
  8
0
 10
262.571814
 20
234.898193
 42
0.072651
  0
VERTEX
  8
0
 10
261.022681
 20
236.977319
 42
-0.093876
  0
VERTEX
  8
0
 10
259.784171
 20
238.794673
 42
-0.192694
  0
VERTEX
  8
0
 10
259.732874
 20
240.488655
 42
-0.178146
  0
VERTEX
  8
0
 10
260.881170
 20
241.843576
 42
-0.079609
  0
VERTEX
  8
0
 10
263.103847
 20
242.670769
 42
0.046106
  0
VERTEX
  8
0
 10
265.977893
 20
243.526991
 42
0.212402
  0
VERTEX
  8
0
 10
267.159255
 20
244.744034
 42
0.265528
  0
VERTEX
  8
0
 10
266.909205
 20
246.226144
 42
0.066549
  0
VERTEX
  8
0
 10
265.048266
 20
247.965632
 42
0.042361
  0
VERTEX
  8
0
 10
262.916966
 20
249.226177
 42
0.143908
  0
VERTEX
  8
0
 10
261.340618
 20
249.486363
 42
0.243933
  0
VERTEX
  8
0
 10
260.370214
 20
248.821344
 42
0.123493
  0
VERTEX
  8
0
 10
260.000000
 20
247.345275
 42
-0.157420
  0
VERTEX
  8
0
 10
258.826227
 20
243.709501
 42
-0.065036
  0
VERTEX
  8
0
 10
255.243352
 20
239.897646
 42
-0.063104
  0
VERTEX
  8
0
 10
250.593335
 20
236.979568
 42
-0.109025
  0
VERTEX
  8
0
 10
246.154338
 20
236.000000
 42
0.000000
  0
VERTEX
  8
0
 10
243.940125
 20
236.000000
 42
0.000000
  0
VERTEX
  8
0
 10
246.095063
 20
238.914709
 42
0.147672
  0
VERTEX
  8
0
 10
248.055820
 20
244.398071
 42
0.164948
  0
VERTEX
  8
0
 10
246.527190
 20
249.779604
 42
0.169186
  0
VERTEX
  8
0
 10
242.085470
 20
253.030976
 42
0.155092
  0
VERTEX
  8
0
 10
236.403736
 20
252.968230
 42
0.066855
  0
VERTEX
  8
0
 10
234.212703
 20
251.903658
 42
0.110929
  0
VERTEX
  8
0
 10
232.797643
 20
250.426836
 42
0.126141
  0
VERTEX
  8
0
 10
232.257722
 20
248.631504
 42
0.102250
  0
VERTEX
  8
0
 10
232.584314
 20
246.640877
 42
0.110941
  0
VERTEX
  8
0
 10
233.414184
 20
245.394410
 42
0.217942
  0
VERTEX
  8
0
 10
234.516666
 20
245.012765
 42
0.296937
  0
VERTEX
  8
0
 10
235.273413
 20
245.616260
 42
0.145024
  0
VERTEX
  8
0
 10
235.314959
 20
246.903596
 42
-0.076743
  0
VERTEX
  8
0
 10
235.222397
 20
247.802664
 42
-0.130940
  0
VERTEX
  8
0
 10
235.451950
 20
248.516846
 42
-0.117994
  0
VERTEX
  8
0
 10
236.029797
 20
249.071034
 42
-0.055624
  0
VERTEX
  8
0
 10
236.980242
 20
249.493729
 42
-0.219172
  0
VERTEX
  8
0
 10
240.183615
 20
249.093848
 42
-0.163966
  0
VERTEX
  8
0
 10
242.477748
 20
246.314482
 42
-0.148361
  0
VERTEX
  8
0
 10
242.747790
 20
242.486957
 42
-0.186014
  0
VERTEX
  8
0
 10
240.777494
 20
239.556704
 42
-0.089631
  0
VERTEX
  8
0
 10
239.137926
 20
238.800337
 42
-0.034422
  0
VERTEX
  8
0
 10
236.662057
 20
238.337958
 42
-0.022559
  0
VERTEX
  8
0
 10
233.049825
 20
238.082143
 42
-0.006745
  0
VERTEX
  8
0
 10
227.527494
 20
238.015313
 42
-0.007233
  0
VERTEX
  8
0
 10
218.500246
 20
238.158445
 42
-0.106076
  0
VERTEX
  8
0
 10
215.430061
 20
238.915243
 42
-0.383486
  0
VERTEX
  8
0
 10
214.785316
 20
240.504618
 42
-0.076298
  0
VERTEX
  8
0
 10
216.385838
 20
243.439213
 42
-0.027062
  0
VERTEX
  8
0
 10
221.054411
 20
248.918100
 42
-0.031909
  0
VERTEX
  8
0
 10
226.051807
 20
253.547379
 42
-0.032636
  0
VERTEX
  8
0
 10
231.493765
 20
257.417116
 42
-0.030897
  0
VERTEX
  8
0
 10
237.490984
 20
260.624503
 42
-0.019888
  0
VERTEX
  8
0
 10
240.742133
 20
261.959244
 42
-0.043154
  0
VERTEX
  8
0
 10
243.346691
 20
262.661990
 42
-0.041435
  0
VERTEX
  8
0
 10
246.098554
 20
262.922714
 42
-0.017023
  0
VERTEX
  8
0
 10
249.849259
 20
262.838675
 42
-0.043155
  0
VERTEX
  8
0
 10
255.170820
 20
262.074080
 42
-0.067217
  0
VERTEX
  8
0
 10
259.495248
 20
260.430574
 42
-0.095647
  0
VERTEX
  8
0
 10
262.151275
 20
258.246762
 42
-0.241466
  0
VERTEX
  8
0
 10
262.677191
 20
255.873579
 42
0.096397
  0
VERTEX
  8
0
 10
262.582650
 20
254.388578
 42
0.223722
  0
VERTEX
  8
0
 10
263.169602
 20
253.470465
 42
0.222125
  0
VERTEX
  8
0
 10
264.255439
 20
253.334434
 42
0.095337
  0
VERTEX
  8
0
 10
265.566335
 20
254.055053
 42
0.060041
  0
VERTEX
  8
0
 10
266.296718
 20
254.826391
 42
0.175235
  0
VERTEX
  8
0
 10
266.504039
 20
255.517986
 42
0.112330
  0
VERTEX
  8
0
 10
266.256520
 20
256.380643
 42
0.018098
  0
VERTEX
  8
0
 10
265.352448
 20
257.891143
 42
0.022388
  0
VERTEX
  8
0
 10
264.570535
 20
258.985713
 42
0.016887
  0
VERTEX
  8
0
 10
263.619502
 20
260.117492
 42
0.017162
  0
VERTEX
  8
0
 10
262.651523
 20
261.121906
 42
0.037376
  0
VERTEX
  8
0
 10
261.829918
 20
261.806704
 42
-0.086845
  0
VERTEX
  8
0
 10
260.680186
 20
262.974908
 42
-0.098792
  0
VERTEX
  8
0
 10
260.059102
 20
264.414800
 42
-0.163714
  0
VERTEX
  8
0
 10
260.186454
 20
265.524490
 42
-0.290801
  0
VERTEX
  8
0
 10
260.934900
 20
266.000000
 42
0.057989
  0
VERTEX
  8
0
 10
261.458448
 20
266.060924
 42
0.010954
  0
VERTEX
  8
0
 10
262.391433
 20
266.302737
 42
0.011572
  0
VERTEX
  8
0
 10
263.474130
 20
266.636055
 42
0.010382
  0
VERTEX
  8
0
 10
264.580472
 20
267.030595
 42
0.000000
  0
VERTEX
  8
0
 10
267.291143
 20
268.061191
 42
0.000000
  0
VERTEX
  8
0
 10
264.971257
 20
270.530595
 42
0.052951
  0
VERTEX
  8
0
 10
262.755717
 20
272.438013
 42
0.183069
  0
VERTEX
  8
0
 10
260.949131
 20
272.885618
 42
0.218863
  0
VERTEX
  8
0
 10
259.512672
 20
272.004546
 42
0.075987
  0
VERTEX
  8
0
 10
258.456797
 20
269.750000
 42
0.000000
  0
VERTEX
  8
0
 10
257.500000
 20
266.500000
 42
0.000000
  0
VERTEX
  8
0
 10
250.500000
 20
266.731959
 42
-0.010546
  0
VERTEX
  8
0
 10
246.300962
 20
266.959834
 42
-0.064893
  0
VERTEX
  8
0
 10
244.185203
 20
267.399546
 42
-0.098053
  0
VERTEX
  8
0
 10
242.657688
 20
268.294535
 42
-0.039684
  0
VERTEX
  8
0
 10
240.976735
 20
270.042028
 42
0.033615
  0
VERTEX
  8
0
 10
239.139580
 20
271.998838
 42
0.237977
  0
VERTEX
  8
0
 10
237.925363
 20
272.351225
 42
0.370528
  0
VERTEX
  8
0
 10
237.306579
 20
271.580217
 42
0.053180
  0
VERTEX
  8
0
 10
237.611220
 20
269.412889
 42
-0.115017
  0
VERTEX
  8
0
 10
237.633912
 20
268.068396
 42
-0.147388
  0
VERTEX
  8
0
 10
237.038219
 20
266.990372
 42
-0.066759
  0
VERTEX
  8
0
 10
235.524167
 20
265.863129
 42
-0.009797
  0
VERTEX
  8
0
 10
232.136301
 20
264.068804
 42
0.014293
  0
VERTEX
  8
0
 10
229.569177
 20
262.679476
 42
0.011117
  0
VERTEX
  8
0
 10
226.857502
 20
261.028554
 42
0.011274
  0
VERTEX
  8
0
 10
224.397102
 20
259.375258
 42
0.026588
  0
VERTEX
  8
0
 10
222.661275
 20
258.007457
 42
-0.014930
  0
VERTEX
  8
0
 10
221.267850
 20
256.855833
 42
-0.019023
  0
VERTEX
  8
0
 10
219.913745
 20
255.883441
 42
-0.017247
  0
VERTEX
  8
0
 10
218.741825
 20
255.164537
 42
-0.129658
  0
VERTEX
  8
0
 10
218.117985
 20
255.000000
 42
-0.346972
  0
VERTEX
  8
0
 10
217.213540
 20
255.713536
 42
-0.077565
  0
VERTEX
  8
0
 10
217.045097
 20
257.812536
 42
-0.063725
  0
VERTEX
  8
0
 10
217.555693
 20
260.305483
 42
-0.101916
  0
VERTEX
  8
0
 10
218.654988
 20
262.171259
 42
0.065674
  0
VERTEX
  8
0
 10
219.478840
 20
263.364173
 42
0.448217
  0
VERTEX
  8
0
 10
219.250505
 20
263.953753
 42
0.141459
  0
VERTEX
  8
0
 10
218.082512
 20
264.044462
 42
0.014660
  0
VERTEX
  8
0
 10
215.371955
 20
263.401606
 42
0.101981
  0
VERTEX
  8
0
 10
214.220931
 20
262.823510
 42
0.171472
  0
VERTEX
  8
0
 10
213.650623
 20
261.918794
 42
0.068693
  0
VERTEX
  8
0
 10
213.507455
 20
260.251154
 42
0.007142
  0
VERTEX
  8
0
 10
213.766757
 20
256.316944
 42
0.000000
  0
VERTEX
  8
0
 10
214.289604
 20
249.803367
 42
0.000000
  0
VERTEX
  8
0
 10
207.108788
 20
242.901684
 42
-0.008581
  0
VERTEX
  8
0
 10
204.261354
 20
240.257431
 42
-0.012395
  0
VERTEX
  8
0
 10
201.648207
 20
238.027370
 42
-0.008124
  0
VERTEX
  8
0
 10
199.411605
 20
236.271996
 42
-0.163735
  0
VERTEX
  8
0
 10
198.603276
 20
236.000000
 42
-0.242660
  0
VERTEX
  8
0
 10
198.002536
 20
236.309793
 42
-0.062868
  0
VERTEX
  8
0
 10
197.470921
 20
237.299328
 42
-0.043375
  0
VERTEX
  8
0
 10
197.022812
 20
238.853423
 42
-0.019038
  0
VERTEX
  8
0
 10
196.689797
 20
240.971371
 42
0.031006
  0
VERTEX
  8
0
 10
195.863194
 20
245.517024
 42
0.092260
  0
VERTEX
  8
0
 10
194.560753
 20
248.388155
 42
0.096865
  0
VERTEX
  8
0
 10
192.352697
 20
250.519830
 42
0.036351
  0
VERTEX
  8
0
 10
188.565535
 20
252.598628
 42
-0.016290
  0
VERTEX
  8
0
 10
186.418228
 20
253.667625
 42
-0.015702
  0
VERTEX
  8
0
 10
184.318051
 20
254.886588
 42
-0.015837
  0
VERTEX
  8
0
 10
182.537761
 20
256.075921
 42
-0.053701
  0
VERTEX
  8
0
 10
181.496367
 20
257.004015
 42
0.059849
  0
VERTEX
  8
0
 10
180.067553
 20
258.246296
 42
0.088618
  0
VERTEX
  8
0
 10
178.555088
 20
258.920541
 42
0.164072
  0
VERTEX
  8
0
 10
177.469218
 20
258.830566
 42
0.299197
  0
VERTEX
  8
0
 10
177.000000
 20
258.116631
 42
-0.181292
  0
VERTEX
  8
0
 10
176.859028
 20
257.740611
 42
-0.060024
  0
VERTEX
  8
0
 10
176.413983
 20
257.339505
 42
-0.050535
  0
VERTEX
  8
0
 10
175.768595
 20
256.976274
 42
-0.038985
  0
VERTEX
  8
0
 10
175.005047
 20
256.711571
 42
0.114472
  0
VERTEX
  8
0
 10
173.438225
 20
255.888424
 42
0.117836
  0
VERTEX
  8
0
 10
172.413755
 20
254.467054
 42
0.119570
  0
VERTEX
  8
0
 10
172.151382
 20
252.753374
 42
0.120267
  0
VERTEX
  8
0
 10
172.704594
 20
251.114077
 42
0.134935
  0
VERTEX
  8
0
 10
173.570574
 20
250.327012
 42
0.078241
  0
VERTEX
  8
0
 10
174.917444
 20
249.890694
 42
0.042121
  0
VERTEX
  8
0
 10
177.061274
 20
249.734074
 42
0.009507
  0
VERTEX
  8
0
 10
180.716604
 20
249.844784
 42
-0.008640
  0
VERTEX
  8
0
 10
185.018367
 20
249.982538
 42
-0.067619
  0
VERTEX
  8
0
 10
187.002012
 20
249.742744
 42
-0.116313
  0
VERTEX
  8
0
 10
188.376645
 20
249.014959
 42
-0.046477
  0
VERTEX
  8
0
 10
189.852863
 20
247.459925
 42
-0.084232
  0
VERTEX
  8
0
 10
191.298827
 20
244.803329
 42
-0.068107
  0
VERTEX
  8
0
 10
191.926885
 20
241.613054
 42
-0.066133
  0
VERTEX
  8
0
 10
191.680686
 20
238.278376
 42
-0.070475
  0
VERTEX
  8
0
 10
190.569354
 20
235.200340
 42
-0.068102
  0
VERTEX
  8
0
 10
188.958584
 20
232.959262
 42
-0.021858
  0
VERTEX
  8
0
 10
186.004313
 20
230.106632
 42
-0.017195
  0
VERTEX
  8
0
 10
182.897888
 20
227.543823
 42
-0.165336
  0
VERTEX
  8
0
 10
181.298245
 20
227.000000
 42
-0.235665
  0
VERTEX
  8
0
 10
180.836510
 20
227.230427
 42
-0.006301
  0
VERTEX
  8
0
 10
179.452017
 20
229.119643
 42
-0.011870
  0
VERTEX
  8
0
 10
177.870905
 20
231.450261
 42
-0.007691
  0
VERTEX
  8
0
 10
176.148711
 20
234.215806
 42
-0.034674
  0
VERTEX
  8
0
 10
172.509880
 20
241.339338
 42
-0.034463
  0
VERTEX
  8
0
 10
169.881859
 20
248.911724
 42
-0.033493
  0
VERTEX
  8
0
 10
168.262067
 20
256.977419
 42
-0.029135
  0
VERTEX
  8
0
 10
167.633605
 20
265.574099
 42
-0.007276
  0
VERTEX
  8
0
 10
167.632664
 20
271.095594
 42
-0.047857
  0
VERTEX
  8
0
 10
167.935988
 20
273.841357
 42
-0.076586
  0
VERTEX
  8
0
 10
168.708145
 20
275.901890
 42
-0.034938
  0
VERTEX
  8
0
 10
170.290648
 20
278.310669
 42
-0.040222
  0
VERTEX
  8
0
 10
173.045585
 20
281.379755
 42
-0.082605
  0
VERTEX
  8
0
 10
175.714740
 20
283.182608
 42
-0.059206
  0
VERTEX
  8
0
 10
179.373656
 20
284.358467
 42
-0.012947
  0
VERTEX
  8
0
 10
185.908550
 20
285.458565
 42
0.000000
  0
VERTEX
  8
0
 10
194.500000
 20
286.677056
 42
0.000000
  0
VERTEX
  8
0
 10
190.750000
 20
288.351948
 42
-0.033845
  0
VERTEX
  8
0
 10
188.214731
 20
289.696812
 42
-0.169831
  0
VERTEX
  8
0
 10
187.220965
 20
290.928331
 42
-0.215620
  0
VERTEX
  8
0
 10
187.336028
 20
292.324473
 42
-0.057212
  0
VERTEX
  8
0
 10
188.669380
 20
294.187163
 42
0.021735
  0
VERTEX
  8
0
 10
189.619495
 20
295.333435
 42
0.183167
  0
VERTEX
  8
0
 10
189.805706
 20
295.965920
 42
0.193547
  0
VERTEX
  8
0
 10
189.520645
 20
296.543654
 42
0.024679
  0
VERTEX
  8
0
 10
188.422215
 20
297.433219
 42
0.111512
  0
VERTEX
  8
0
 10
186.745173
 20
298.160648
 42
0.214757
  0
VERTEX
  8
0
 10
185.349533
 20
297.825126
 42
0.151275
  0
VERTEX
  8
0
 10
184.337123
 20
296.381223
 42
0.052226
  0
VERTEX
  8
0
 10
183.807804
 20
293.859206
 42
-0.077943
  0
VERTEX
  8
0
 10
183.349302
 20
292.122322
 42
-0.118250
  0
VERTEX
  8
0
 10
182.409401
 20
290.883558
 42
-0.062379
  0
VERTEX
  8
0
 10
180.566420
 20
289.723680
 42
-0.009701
  0
VERTEX
  8
0
 10
176.622315
 20
287.973112
 42
0.029994
  0
VERTEX
  8
0
 10
170.027437
 20
284.719713
 42
0.091530
  0
VERTEX
  8
0
 10
166.227748
 20
281.514003
 42
0.097858
  0
VERTEX
  8
0
 10
163.962819
 20
277.291498
 42
0.037300
  0
VERTEX
  8
0
 10
162.481623
 20
270.750000
 42
-0.016458
  0
VERTEX
  8
0
 10
162.148428
 20
268.929523
 42
-0.025852
  0
VERTEX
  8
0
 10
161.731035
 20
267.395312
 42
-0.023469
  0
VERTEX
  8
0
 10
161.291375
 20
266.242138
 42
-0.298309
  0
VERTEX
  8
0
 10
160.921640
 20
266.000000
 42
-0.354545
  0
VERTEX
  8
0
 10
158.907471
 20
267.633570
 42
-0.033427
  0
VERTEX
  8
0
 10
157.947132
 20
274.394622
 42
-0.037579
  0
VERTEX
  8
0
 10
157.953422
 20
281.747862
 42
-0.100656
  0
VERTEX
  8
0
 10
159.376860
 20
286.761874
 42
-0.069470
  0
VERTEX
  8
0
 10
161.849507
 20
290.255107
 42
-0.031649
  0
VERTEX
  8
0
 10
165.940300
 20
294.087782
 42
-0.031632
  0
VERTEX
  8
0
 10
170.562776
 20
297.432062
 42
-0.058736
  0
VERTEX
  8
0
 10
174.733609
 20
299.424898
 42
-0.064175
  0
VERTEX
  8
0
 10
181.773445
 20
300.853575
 42
-0.069857
  0
VERTEX
  8
0
 10
188.737580
 20
300.383207
 42
-0.068913
  0
VERTEX
  8
0
 10
195.380968
 20
297.999250
 42
-0.059983
  0
VERTEX
  8
0
 10
201.478061
 20
293.810396
 42
-0.027500
  0
VERTEX
  8
0
 10
204.910685
 20
290.436473
 42
-0.051482
  0
VERTEX
  8
0
 10
207.221619
 20
287.307644
 42
-0.062630
  0
VERTEX
  8
0
 10
208.547979
 20
284.240786
 42
-0.070892
  0
VERTEX
  8
0
 10
209.000000
 20
281.068712
 42
-0.037952
  0
VERTEX
  8
0
 10
208.881908
 20
279.515133
 42
-0.112415
  0
VERTEX
  8
0
 10
208.492011
 20
278.526414
 42
-0.127028
  0
VERTEX
  8
0
 10
207.745651
 20
277.873677
 42
-0.055049
  0
VERTEX
  8
0
 10
206.500000
 20
277.410644
 42
0.040880
  0
VERTEX
  8
0
 10
204.673354
 20
276.789828
 42
0.258257
  0
VERTEX
  8
0
 10
204.095256
 20
276.038765
 42
0.324196
  0
VERTEX
  8
0
 10
204.478811
 20
275.295655
 42
0.052931
  0
VERTEX
  8
0
 10
206.086974
 20
274.687507
 42
-0.319248
  0
VERTEX
  8
0
 10
207.546181
 20
272.944409
 42
-0.209630
  0
VERTEX
  8
0
 10
206.652359
 20
270.371372
 42
-0.095829
  0
VERTEX
  8
0
 10
203.001697
 20
267.697824
 42
-0.077077
  0
VERTEX
  8
0
 10
198.326172
 20
266.316923
 42
-0.069910
  0
VERTEX
  8
0
 10
194.884545
 20
266.338472
 42
-0.062617
  0
VERTEX
  8
0
 10
191.442405
 20
267.294540
 42
-0.071932
  0
VERTEX
  8
0
 10
188.849355
 20
268.847521
 42
-0.225607
  0
VERTEX
  8
0
 10
188.000000
 20
270.634088
 42
-0.100041
  0
VERTEX
  8
0
 10
188.143828
 20
271.345739
 42
-0.204526
  0
VERTEX
  8
0
 10
188.545777
 20
271.734308
 42
-0.124150
  0
VERTEX
  8
0
 10
189.278395
 20
271.821123
 42
-0.029213
  0
VERTEX
  8
0
 10
190.500000
 20
271.589356
 42
0.028852
  0
VERTEX
  8
0
 10
191.797427
 20
271.342233
 42
0.151681
  0
VERTEX
  8
0
 10
192.503927
 20
271.463898
 42
0.214229
  0
VERTEX
  8
0
 10
192.880507
 20
271.932339
 42
0.063846
  0
VERTEX
  8
0
 10
193.000000
 20
272.864317
 42
0.166644
  0
VERTEX
  8
0
 10
192.525678
 20
274.247955
 42
0.144666
  0
VERTEX
  8
0
 10
191.275280
 20
275.146211
 42
0.107065
  0
VERTEX
  8
0
 10
189.395618
 20
275.377240
 42
0.065918
  0
VERTEX
  8
0
 10
187.212705
 20
274.882981
 42
0.287882
  0
VERTEX
  8
0
 10
185.198513
 20
272.265523
 42
0.158372
  0
VERTEX
  8
0
 10
186.108823
 20
268.172860
 42
0.112420
  0
VERTEX
  8
0
 10
189.695363
 20
264.375820
 42
0.148579
  0
VERTEX
  8
0
 10
194.223077
 20
263.000000
 42
-0.031915
  0
VERTEX
  8
0
 10
195.603604
 20
262.911790
 42
-0.032068
  0
VERTEX
  8
0
 10
196.959428
 20
262.648601
 42
-0.033824
  0
VERTEX
  8
0
 10
198.105820
 20
262.264278
 42
-0.098897
  0
VERTEX
  8
0
 10
198.796253
 20
261.803747
 42
0.060611
  0
VERTEX
  8
0
 10
199.447925
 20
261.293451
 42
0.172531
  0
VERTEX
  8
0
 10
200.004522
 20
261.179724
 42
0.147433
  0
VERTEX
  8
0
 10
200.565929
 20
261.439173
 42
0.040633
  0
VERTEX
  8
0
 10
201.246253
 20
262.149373
 42
-0.059925
  0
VERTEX
  8
0
 10
201.950108
 20
262.829689
 42
-0.022342
  0
VERTEX
  8
0
 10
203.083802
 20
263.611985
 42
-0.021758
  0
VERTEX
  8
0
 10
204.408333
 20
264.363034
 42
-0.024586
  0
VERTEX
  8
0
 10
205.741157
 20
264.963284
 42
0.086470
  0
VERTEX
  8
0
 10
208.368348
 20
266.561414
 42
0.062054
  0
VERTEX
  8
0
 10
210.658986
 20
269.132214
 42
0.056561
  0
VERTEX
  8
0
 10
212.431852
 20
272.448953
 42
0.048678
  0
VERTEX
  8
0
 10
213.527328
 20
276.250000
 42
-0.022738
  0
VERTEX
  8
0
 10
213.861887
 20
277.686711
 42
-0.034160
  0
VERTEX
  8
0
 10
214.293997
 20
278.898438
 42
-0.036707
  0
VERTEX
  8
0
 10
214.754892
 20
279.774679
 42
-0.258858
  0
VERTEX
  8
0
 10
215.160951
 20
280.000000
 42
-0.113537
  0
VERTEX
  8
0
 10
216.984433
 20
279.580528
 42
-0.032328
  0
VERTEX
  8
0
 10
219.527520
 20
278.135092
 42
-0.033205
  0
VERTEX
  8
0
 10
222.012286
 20
276.254523
 42
-0.056806
  0
VERTEX
  8
0
 10
223.769665
 20
274.341644
 42
0.007107
  0
VERTEX
  8
0
 10
225.064054
 20
272.616788
 42
0.170406
  0
VERTEX
  8
0
 10
225.563759
 20
272.292788
 42
0.364731
  0
VERTEX
  8
0
 10
225.949353
 20
272.484699
 42
0.025551
  0
VERTEX
  8
0
 10
226.405755
 20
273.703062
 42
-0.109655
  0
VERTEX
  8
0
 10
226.989029
 20
274.708278
 42
-0.070787
  0
VERTEX
  8
0
 10
228.035395
 20
275.563563
 42
-0.051707
  0
VERTEX
  8
0
 10
229.601648
 20
276.302055
 42
-0.023260
  0
VERTEX
  8
0
 10
231.782290
 20
276.954584
 42
0.017185
  0
VERTEX
  8
0
 10
233.771796
 20
277.523686
 42
0.014229
  0
VERTEX
  8
0
 10
235.848548
 20
278.261665
 42
0.014468
  0
VERTEX
  8
0
 10
237.714881
 20
279.048156
 42
0.037018
  0
VERTEX
  8
0
 10
239.000000
 20
279.753164
 42
-0.027972
  0
VERTEX
  8
0
 10
244.107364
 20
282.676330
 42
-0.145902
  0
VERTEX
  8
0
 10
247.266199
 20
283.232064
 42
-0.239775
  0
VERTEX
  8
0
 10
249.322139
 20
281.866556
 42
-0.082287
  0
VERTEX
  8
0
 10
250.583236
 20
278.408008
 42
0.059728
  0
VERTEX
  8
0
 10
251.433971
 20
275.703476
 42
0.196507
  0
VERTEX
  8
0
 10
252.765312
 20
274.441511
 42
0.161926
  0
VERTEX
  8
0
 10
254.793347
 20
274.341008
 42
0.038039
  0
VERTEX
  8
0
 10
258.031387
 20
275.514154
 42
0.050194
  0
VERTEX
  8
0
 10
260.487096
 20
276.933063
 42
0.083530
  0
VERTEX
  8
0
 10
262.163198
 20
278.627755
 42
0.115494
  0
VERTEX
  8
0
 10
262.862336
 20
280.361839
 42
0.178574
  0
VERTEX
  8
0
 10
262.544667
 20
281.927727
 42
0.128542
  0
VERTEX
  8
0
 10
261.161219
 20
283.246688
 42
0.027125
  0
VERTEX
  8
0
 10
258.133006
 20
284.715540
 42
0.028638
  0
VERTEX
  8
0
 10
254.580466
 20
285.972701
 42
0.036542
  0
VERTEX
  8
0
 10
251.183891
 20
286.695989
 42
-0.025354
  0
VERTEX
  8
0
 10
248.714822
 20
287.164335
 42
-0.101714
  0
VERTEX
  8
0
 10
247.331913
 20
287.816880
 42
-0.107249
  0
VERTEX
  8
0
 10
246.357010
 20
288.943114
 42
-0.029810
  0
VERTEX
  8
0
 10
245.356190
 20
291.067813
 42
0.041180
  0
VERTEX
  8
0
 10
244.152879
 20
293.478794
 42
0.083177
  0
VERTEX
  8
0
 10
242.771163
 20
295.082395
 42
0.161114
  0
VERTEX
  8
0
 10
241.513209
 20
295.576302
 42
0.274572
  0
VERTEX
  8
0
 10
240.543035
 20
295.069633
 42
0.172694
  0
VERTEX
  8
0
 10
240.454102
 20
294.655548
 42
0.076482
  0
VERTEX
  8
0
 10
240.612460
 20
294.111249
 42
0.062460
  0
VERTEX
  8
0
 10
240.979826
 20
293.526003
 42
0.048229
  0
VERTEX
  8
0
 10
241.511010
 20
292.990862
 42
-0.125620
  0
VERTEX
  8
0
 10
242.674815
 20
291.388423
 42
-0.156340
  0
VERTEX
  8
0
 10
242.799341
 20
289.561046
 42
-0.099676
  0
VERTEX
  8
0
 10
241.767599
 20
287.374174
 42
-0.032828
  0
VERTEX
  8
0
 10
239.451862
 20
284.653401
 42
-0.023782
  0
VERTEX
  8
0
 10
237.142018
 20
282.490922
 42
-0.091648
  0
VERTEX
  8
0
 10
235.445345
 20
281.514691
 42
-0.073173
  0
VERTEX
  8
0
 10
233.324114
 20
281.099586
 42
-0.011792
  0
VERTEX
  8
0
 10
229.101901
 20
281.000000
 42
-0.014262
  0
VERTEX
  8
0
 10
225.236666
 20
281.110273
 42
-0.050898
  0
VERTEX
  8
0
 10
222.796602
 20
281.500926
 42
-0.062328
  0
VERTEX
  8
0
 10
220.749445
 20
282.330374
 42
-0.029374
  0
VERTEX
  8
0
 10
218.340999
 20
283.867941
 42
-0.033843
  0
VERTEX
  8
0
 10
214.799385
 20
286.818290
 42
-0.019947
  0
VERTEX
  8
0
 10
210.969037
 20
290.778935
 42
-0.014180
  0
VERTEX
  8
0
 10
207.646789
 20
294.719820
 42
-0.169616
  0
VERTEX
  8
0
 10
207.000000
 20
296.571591
 42
-0.167400
  0
VERTEX
  8
0
 10
207.175083
 20
297.079885
 42
-0.065805
  0
VERTEX
  8
0
 10
207.710974
 20
297.605722
 42
-0.055381
  0
VERTEX
  8
0
 10
208.494225
 20
298.068710
 42
-0.044355
  0
VERTEX
  8
0
 10
209.420338
 20
298.390650
 42
0.233222
  0
VERTEX
  8
0
 10
211.854325
 20
300.458124
 42
0.109285
  0
VERTEX
  8
0
 10
212.657649
 20
304.619831
 42
0.118428
  0
VERTEX
  8
0
 10
211.610610
 20
308.512134
 42
0.274675
  0
VERTEX
  8
0
 10
209.106538
 20
310.000000
 42
0.045452
  0
VERTEX
  8
0
 10
206.927613
 20
309.801516
 42
0.092168
  0
VERTEX
  8
0
 10
205.325681
 20
309.188465
 42
0.124877
  0
VERTEX
  8
0
 10
204.353925
 20
308.192333
 42
0.131893
  0
VERTEX
  8
0
 10
204.000000
 20
306.873959
 42
0.063057
  0
VERTEX
  8
0
 10
204.118862
 20
305.935213
 42
0.214251
  0
VERTEX
  8
0
 10
204.494832
 20
305.464551
 42
0.152458
  0
VERTEX
  8
0
 10
205.200669
 20
305.341882
 42
0.028856
  0
VERTEX
  8
0
 10
206.500000
 20
305.589356
 42
-0.099623
  0
VERTEX
  8
0
 10
208.127064
 20
305.666397
 42
-0.269578
  0
VERTEX
  8
0
 10
208.994180
 20
304.968185
 42
-0.217210
  0
VERTEX
  8
0
 10
208.916545
 20
303.707964
 42
-0.074160
  0
VERTEX
  8
0
 10
207.800000
 20
302.200000
 42
-0.142196
  0
VERTEX
  8
0
 10
206.170968
 20
301.303912
 42
-0.069381
  0
VERTEX
  8
0
 10
203.786197
 20
301.108252
 42
-0.036769
  0
VERTEX
  8
0
 10
200.100438
 20
301.590805
 42
-0.007918
  0
VERTEX
  8
0
 10
193.813347
 20
302.993583
 42
0.012693
  0
VERTEX
  8
0
 10
189.789355
 20
303.851162
 42
0.020594
  0
VERTEX
  8
0
 10
186.329095
 20
304.350822
 42
0.024063
  0
VERTEX
  8
0
 10
183.305956
 20
304.514563
 42
0.034095
  0
VERTEX
  8
0
 10
180.617881
 20
304.347226
 42
-0.039239
  0
VERTEX
  8
0
 10
176.821260
 20
304.150010
 42
-0.529045
  0
VERTEX
  8
0
 10
176.190673
 20
305.131582
 42
-0.160032
  0
VERTEX
  8
0
 10
177.704978
 20
306.859645
 42
-0.013726
  0
VERTEX
  8
0
 10
182.916119
 20
309.750000
 42
-0.020711
  0
VERTEX
  8
0
 10
187.085717
 20
311.700448
 42
-0.059074
  0
VERTEX
  8
0
 10
190.161332
 20
312.578576
 42
-0.035955
  0
VERTEX
  8
0
 10
194.099534
 20
312.926921
 42
-0.004086
  0
VERTEX
  8
0
 10
203.041884
 20
313.000000
 42
-0.005504
  0
VERTEX
  8
0
 10
210.873216
 20
312.913789
 42
-0.022884
  0
VERTEX
  8
0
 10
215.585302
 20
312.593927
 42
-0.033729
  0
VERTEX
  8
0
 10
219.284146
 20
311.917144
 42
-0.024953
  0
VERTEX
  8
0
 10
223.260630
 20
310.694490
 42
-0.023903
  0
VERTEX
  8
0
 10
229.896968
 20
307.920023
 42
-0.019365
  0
VERTEX
  8
0
 10
236.733494
 20
304.339024
 42
-0.019361
  0
VERTEX
  8
0
 10
243.274199
 20
300.238784
 42
-0.023856
  0
VERTEX
  8
0
 10
249.021013
 20
295.902851
 42
0.008187
  0
VERTEX
  8
0
 10
251.315318
 20
294.056248
 42
0.015223
  0
VERTEX
  8
0
 10
253.243673
 20
292.647650
 42
0.011928
  0
VERTEX
  8
0
 10
254.749220
 20
291.668598
 42
0.587101
  0
VERTEX
  8
0
 10
255.000000
 20
291.808556
 42
0.133500
  0
VERTEX
  8
0
 10
254.876816
 20
292.261694
 42
0.027058
  0
VERTEX
  8
0
 10
254.412500
 20
292.962774
 42
0.026769
  0
VERTEX
  8
0
 10
253.765648
 20
293.742390
 42
0.022282
  0
VERTEX
  8
0
 10
253.000000
 20
294.500000
 42
-0.053176
  0
VERTEX
  8
0
 10
251.659801
 20
296.000641
 42
-0.117771
  0
VERTEX
  8
0
 10
251.082452
 20
297.412141
 42
-0.179725
  0
VERTEX
  8
0
 10
251.316025
 20
298.553572
 42
-0.158757
  0
VERTEX
  8
0
 10
252.250000
 20
299.337719
 42
0.207454
  0
VERTEX
  8
0
 10
252.442310
 20
299.532832
 42
0.404067
  0
VERTEX
  8
0
 10
252.364615
 20
299.717133
 42
0.075293
  0
VERTEX
  8
0
 10
251.818190
 20
299.858708
 42
0.018262
  0
VERTEX
  8
0
 10
250.884859
 20
299.921053
 42
-0.096728
  0
VERTEX
  8
0
 10
248.693817
 20
300.417999
 42
-0.038541
  0
VERTEX
  8
0
 10
245.968017
 20
301.882199
 42
-0.035284
  0
VERTEX
  8
0
 10
243.613122
 20
303.637416
 42
-0.218307
  0
VERTEX
  8
0
 10
243.000000
 20
304.974755
 42
-0.223992
  0
VERTEX
  8
0
 10
243.181884
 20
305.360389
 42
-0.033549
  0
VERTEX
  8
0
 10
243.896852
 20
305.873301
 42
-0.032285
  0
VERTEX
  8
0
 10
244.883682
 20
306.400526
 42
-0.022680
  0
VERTEX
  8
0
 10
246.053114
 20
306.868671
 42
0.020810
  0
VERTEX
  8
0
 10
247.724107
 20
307.530365
 42
0.144716
  0
VERTEX
  8
0
 10
248.385949
 20
308.094759
 42
0.216797
  0
VERTEX
  8
0
 10
248.493395
 20
308.804357
 42
0.053723
  0
VERTEX
  8
0
 10
248.041698
 20
309.922087
 42
0.092008
  0
VERTEX
  8
0
 10
247.308429
 20
310.838382
 42
0.024305
  0
VERTEX
  8
0
 10
245.824476
 20
311.999149
 42
0.023819
  0
VERTEX
  8
0
 10
243.976322
 20
313.177431
 42
0.022461
  0
VERTEX
  8
0
 10
241.988583
 20
314.199739
 42
-0.014570
  0
VERTEX
  8
0
 10
240.077207
 20
315.144948
 42
-0.021554
  0
VERTEX
  8
0
 10
238.465396
 20
316.092569
 42
-0.017791
  0
VERTEX
  8
0
 10
237.239241
 20
316.949866
 42
-0.235475
  0
VERTEX
  8
0
 10
237.000000
 20
317.429697
 42
-0.125720
  0
VERTEX
  8
0
 10
237.128369
 20
317.932160
 42
-0.022082
  0
VERTEX
  8
0
 10
237.637617
 20
318.773273
 42
-0.022720
  0
VERTEX
  8
0
 10
238.339579
 20
319.727981
 42
-0.018690
  0
VERTEX
  8
0
 10
239.170610
 20
320.681606
 42
0.024655
  0
VERTEX
  8
0
 10
240.724602
 20
322.508371
 42
0.339697
  0
VERTEX
  8
0
 10
240.725136
 20
323.323826
 42
0.200987
  0
VERTEX
  8
0
 10
239.832502
 20
323.834709
 42
0.010577
  0
VERTEX
  8
0
 10
236.489876
 20
324.176791
 42
0.012298
  0
VERTEX
  8
0
 10
233.952172
 20
324.319650
 42
0.164948
  0
VERTEX
  8
0
 10
233.072597
 20
324.052076
 42
0.235662
  0
VERTEX
  8
0
 10
232.700020
 20
323.346192
 42
0.027172
  0
VERTEX
  8
0
 10
232.758300
 20
321.500000
 42
-0.034036
  0
VERTEX
  8
0
 10
232.812917
 20
318.439198
 42
-0.068607
  0
VERTEX
  8
0
 10
232.364611
 20
316.072476
 42
-0.094826
  0
VERTEX
  8
0
 10
231.440248
 20
314.432615
 42
-0.141200
  0
VERTEX
  8
0
 10
230.078165
 20
313.524809
 42
-0.099529
  0
VERTEX
  8
0
 10
228.902100
 20
313.396194
 42
-0.013231
  0
VERTEX
  8
0
 10
226.406350
 20
313.686849
 42
-0.014892
  0
VERTEX
  8
0
 10
223.432214
 20
314.204059
 42
-0.012005
  0
VERTEX
  8
0
 10
220.270587
 20
314.930913
 42
0.018972
  0
VERTEX
  8
0
 10
216.588598
 20
315.723563
 42
0.010206
  0
VERTEX
  8
0
 10
211.998407
 20
316.434640
 42
0.010150
  0
VERTEX
  8
0
 10
207.283053
 20
316.969666
 42
0.015681
  0
VERTEX
  8
0
 10
203.190098
 20
317.220978
 42
-0.010079
  0
VERTEX
  8
0
 10
196.226576
 20
317.570298
 42
-0.195144
  0
VERTEX
  8
0
 10
194.324526
 20
318.502553
 42
-0.413144
  0
VERTEX
  8
0
 10
194.403754
 20
319.969911
 42
-0.026599
  0
VERTEX
  8
0
 10
198.075854
 20
322.939989
 42
-0.033129
  0
VERTEX
  8
0
 10
202.662531
 20
325.819941
 42
-0.044878
  0
VERTEX
  8
0
 10
207.157935
 20
327.745785
 42
-0.048942
  0
VERTEX
  8
0
 10
211.588705
 20
328.723802
 42
-0.053861
  0
VERTEX
  8
0
 10
215.981948
 20
328.775756
 42
0.013351
  0
VERTEX
  8
0
 10
218.332592
 20
328.613087
 42
0.047940
  0
VERTEX
  8
0
 10
219.832976
 20
328.693306
 42
0.095012
  0
VERTEX
  8
0
 10
220.693447
 20
328.996405
 42
0.266735
  0
VERTEX
  8
0
 10
221.000000
 20
329.530161
 42
0.359521
  0
VERTEX
  8
0
 10
219.409200
 20
331.456589
 42
0.048206
  0
VERTEX
  8
0
 10
213.771622
 20
331.987715
 42
0.044878
  0
VERTEX
  8
0
 10
206.841761
 20
331.347667
 42
0.052288
  0
VERTEX
  8
0
 10
200.500000
 20
329.480895
 42
-0.001218
  0
VERTEX
  8
0
 10
198.183180
 20
328.533102
 42
-0.001933
  0
VERTEX
  8
0
 10
196.194011
 20
327.733943
 42
-0.000413
  0
VERTEX
  8
0
 10
194.443082
 20
327.040021
 42
-0.089398
  0
VERTEX
  8
0
 10
194.266846
 20
327.004631
 42
-0.276374
  0
VERTEX
  8
0
 10
194.132208
 20
327.081617
 42
-0.001468
  0
VERTEX
  8
0
 10
193.365908
 20
328.454325
 42
-0.005750
  0
VERTEX
  8
0
 10
192.504952
 20
330.050299
 42
-0.003547
  0
VERTEX
  8
0
 10
191.527230
 20
331.946265
 42
0.059149
  0
VERTEX
  8
0
 10
189.156074
 20
335.509312
 42
0.026072
  0
VERTEX
  8
0
 10
185.261076
 20
339.628126
 42
0.021359
  0
VERTEX
  8
0
 10
181.192056
 20
343.185977
 42
0.170567
  0
VERTEX
  8
0
 10
178.875250
 20
344.000000
 42
0.220594
  0
VERTEX
  8
0
 10
178.509364
 20
343.830319
 42
0.045709
  0
VERTEX
  8
0
 10
178.091786
 20
343.234096
 42
0.040082
  0
VERTEX
  8
0
 10
177.695477
 20
342.391188
 42
0.028376
  0
SEQEND
  0
POLYLINE
  8
0
 66
1
 70
1
  0
VERTEX
  8
0
 10
147.547849
 20
332.314052
 42
-0.024694
  0
VERTEX
  8
0
 10
150.350120
 20
332.627801
 42
-0.291287
  0
VERTEX
  8
0
 10
151.266271
 20
332.121619
 42
-0.283127
  0
VERTEX
  8
0
 10
151.210388
 20
331.061637
 42
-0.023760
  0
VERTEX
  8
0
 10
149.472116
 20
328.784492
 42
0.021725
  0
VERTEX
  8
0
 10
148.525841
 20
327.555270
 42
0.024240
  0
VERTEX
  8
0
 10
147.726184
 20
326.291483
 42
0.024541
  0
VERTEX
  8
0
 10
147.155957
 20
325.159422
 42
0.104765
  0
VERTEX
  8
0
 10
147.000000
 20
324.423275
 42
-0.152274
  0
VERTEX
  8
0
 10
146.679792
 20
323.396236
 42
-0.334860
  0
VERTEX
  8
0
 10
145.943024
 20
323.152000
 42
-0.102605
  0
VERTEX
  8
0
 10
144.636519
 20
323.918637
 42
-0.017921
  0
VERTEX
  8
0
 10
142.577512
 20
325.919095
 42
0.029060
  0
VERTEX
  8
0
 10
141.326090
 20
327.081904
 42
0.024623
  0
VERTEX
  8
0
 10
139.879310
 20
328.162180
 42
0.025354
  0
VERTEX
  8
0
 10
138.459786
 20
329.015857
 42
0.061285
  0
VERTEX
  8
0
 10
137.319382
 20
329.455976
 42
-0.047367
  0
VERTEX
  8
0
 10
136.406199
 20
329.779585
 42
-0.070697
  0
VERTEX
  8
0
 10
135.697059
 20
330.240539
 42
-0.095116
  0
VERTEX
  8
0
 10
135.291192
 20
330.759637
 42
-0.201585
  0
VERTEX
  8
0
 10
135.253100
 20
331.259299
 42
-0.196952
  0
VERTEX
  8
0
 10
136.190197
 20
332.348053
 42
-0.066924
  0
VERTEX
  8
0
 10
138.199096
 20
333.053132
 42
-0.063435
  0
VERTEX
  8
0
 10
140.505377
 20
333.231525
 42
-0.104764
  0
VERTEX
  8
0
 10
142.387153
 20
332.734416
 42
0.067730
  0
VERTEX
  8
0
 10
143.340893
 20
332.405833
 42
0.028822
  0
VERTEX
  8
0
 10
144.681557
 20
332.218404
 42
0.027865
  0
VERTEX
  8
0
 10
146.156043
 20
332.180708
 42
0.032692
  0
SEQEND
  0
POLYLINE
  8
0
 66
1
 70
1
  0
VERTEX
  8
0
 10
213.337557
 20
175.177420
 42
-0.028358
  0
VERTEX
  8
0
 10
212.602073
 20
173.577935
 42
-0.037862
  0
VERTEX
  8
0
 10
211.748795
 20
172.227117
 42
-0.041829
  0
VERTEX
  8
0
 10
210.904728
 20
171.269932
 42
-0.193488
  0
VERTEX
  8
0
 10
210.233300
 20
171.000000
 42
-0.061869
  0
VERTEX
  8
0
 10
209.498685
 20
171.091249
 42
-0.343397
  0
VERTEX
  8
0
 10
209.270039
 20
171.384597
 42
-0.134190
  0
VERTEX
  8
0
 10
209.422297
 20
171.942827
 42
-0.010803
  0
VERTEX
  8
0
 10
210.232146
 20
173.250000
 42
0.001677
  0
VERTEX
  8
0
 10
210.890922
 20
174.271213
 42
0.001010
  0
VERTEX
  8
0
 10
211.665767
 20
175.486641
 42
0.001011
  0
VERTEX
  8
0
 10
212.431102
 20
176.697926
 42
0.001769
  0
VERTEX
  8
0
 10
213.059301
 20
177.704522
 42
-0.019554
  0
VERTEX
  8
0
 10
214.293851
 20
179.534451
 42
-0.683887
  0
VERTEX
  8
0
 10
214.652787
 20
179.438401
 42
-0.114349
  0
VERTEX
  8
0
 10
214.519983
 20
178.318582
 42
-0.007135
  0
SEQEND
  0
POLYLINE
  8
0
 66
1
 70
1
  0
VERTEX
  8
0
 10
200.091160
 20
165.003927
 42
-0.055234
  0
VERTEX
  8
0
 10
196.209877
 20
162.365238
 42
-0.090216
  0
VERTEX
  8
0
 10
192.426961
 20
161.166911
 42
-0.279655
  0
VERTEX
  8
0
 10
190.678650
 20
161.944621
 42
-0.299788
  0
VERTEX
  8
0
 10
190.633526
 20
163.797964
 42
-0.089339
  0
VERTEX
  8
0
 10
192.160612
 20
165.482582
 42
-0.059928
  0
VERTEX
  8
0
 10
194.400392
 20
166.814508
 42
-0.055149
  0
VERTEX
  8
0
 10
197.102752
 20
167.670002
 42
-0.050995
  0
VERTEX
  8
0
 10
200.000000
 20
167.944618
 42
0.000000
  0
VERTEX
  8
0
 10
203.500000
 20
167.918719
 42
0.000000
  0
SEQEND
  0
POLYLINE
  8
0
 66
1
 70
1
  0
VERTEX
  8
0
 10
209.455641
 20
163.874273
 42
0.003076
  0
VERTEX
  8
0
 10
208.897903
 20
162.261926
 42
0.004477
  0
VERTEX
  8
0
 10
208.427595
 20
160.832804
 42
0.002296
  0
VERTEX
  8
0
 10
208.045880
 20
159.617696
 42
0.075087
  0
VERTEX
  8
0
 10
208.000000
 20
159.313908
 42
0.389241
  0
VERTEX
  8
0
 10
208.146684
 20
159.154033
 42
0.013046
  0
VERTEX
  8
0
 10
209.078856
 20
159.098114
 42
0.018500
  0
VERTEX
  8
0
 10
210.264449
 20
159.101876
 42
0.011035
  0
VERTEX
  8
0
 10
211.672700
 20
159.189635
 42
0.033868
  0
VERTEX
  8
0
 10
213.800181
 20
159.515561
 42
0.128575
  0
VERTEX
  8
0
 10
214.985925
 20
160.126067
 42
0.109159
  0
VERTEX
  8
0
 10
215.825422
 20
161.296734
 42
0.021050
  0
VERTEX
  8
0
 10
216.756034
 20
163.750000
 42
-0.018801
  0
VERTEX
  8
0
 10
217.713556
 20
166.308852
 42
-0.125522
  0
VERTEX
  8
0
 10
218.524914
 20
167.386385
 42
-0.142992
  0
VERTEX
  8
0
 10
219.704050
 20
167.873277
 42
-0.026891
  0
VERTEX
  8
0
 10
222.058582
 20
168.000000
 42
-0.010307
  0
VERTEX
  8
0
 10
224.531193
 20
167.949023
 42
-0.171689
  0
VERTEX
  8
0
 10
225.282356
 20
167.647875
 42
-0.282410
  0
VERTEX
  8
0
 10
225.477163
 20
167.015789
 42
-0.027956
  0
VERTEX
  8
0
 10
224.975249
 20
165.434900
 42
0.021234
  0
VERTEX
  8
0
 10
224.601780
 20
164.311154
 42
0.016245
  0
VERTEX
  8
0
 10
224.286479
 20
163.054922
 42
0.016515
  0
VERTEX
  8
0
 10
224.068108
 20
161.857559
 42
0.036858
  0
VERTEX
  8
0
 10
224.000000
 20
160.934900
 42
0.287470
  0
VERTEX
  8
0
 10
224.687613
 20
159.837760
 42
0.087182
  0
VERTEX
  8
0
 10
226.662432
 20
159.275907
 42
0.024071
  0
VERTEX
  8
0
 10
230.917056
 20
159.041117
 42
0.001749
  0
VERTEX
  8
0
 10
242.671259
 20
159.000000
 42
0.002597
  0
VERTEX
  8
0
 10
253.306990
 20
159.055247
 42
0.018442
  0
VERTEX
  8
0
 10
258.458896
 20
159.298949
 42
0.038761
  0
VERTEX
  8
0
 10
261.477318
 20
159.791112
 42
0.124754
  0
VERTEX
  8
0
 10
263.261578
 20
160.736725
 42
-0.016816
  0
VERTEX
  8
0
 10
264.471220
 20
161.759600
 42
-0.168649
  0
VERTEX
  8
0
 10
265.087195
 20
161.973449
 42
-0.210016
  0
VERTEX
  8
0
 10
265.632518
 20
161.733827
 42
-0.027856
  0
VERTEX
  8
0
 10
266.450561
 20
160.736725
 42
0.089934
  0
VERTEX
  8
0
 10
267.188684
 20
160.035119
 42
0.053622
  0
VERTEX
  8
0
 10
268.270455
 20
159.480827
 42
0.048585
  0
VERTEX
  8
0
 10
269.573995
 20
159.121075
 42
0.043072
  0
VERTEX
  8
0
 10
270.976874
 20
159.000000
 42
-0.017104
  0
VERTEX
  8
0
 10
272.857434
 20
158.935651
 42
-0.165306
  0
VERTEX
  8
0
 10
273.584130
 20
158.631780
 42
-0.251695
  0
VERTEX
  8
0
 10
273.810331
 20
158.019606
 42
-0.041652
  0
VERTEX
  8
0
 10
273.523142
 20
156.750000
 42
0.016781
  0
VERTEX
  8
0
 10
272.451810
 20
152.911211
 42
0.076318
  0
VERTEX
  8
0
 10
272.252487
 20
150.606130
 42
0.130153
  0
VERTEX
  8
0
 10
272.796693
 20
148.990674
 42
0.094278
  0
VERTEX
  8
0
 10
274.127134
 20
147.623506
 42
0.058739
  0
VERTEX
  8
0
 10
275.285030
 20
147.000430
 42
0.029013
  0
VERTEX
  8
0
 10
276.873774
 20
146.476905
 42
0.028319
  0
VERTEX
  8
0
 10
278.606299
 20
146.119055
 42
0.036782
  0
VERTEX
  8
0
 10
280.222506
 20
146.000000
 42
-0.022348
  0
VERTEX
  8
0
 10
281.984017
 20
145.921230
 42
-0.072280
  0
VERTEX
  8
0
 10
283.120418
 20
145.650728
 42
-0.129433
  0
VERTEX
  8
0
 10
283.760787
 20
145.178479
 42
-0.171124
  0
VERTEX
  8
0
 10
284.000000
 20
144.500000
 42
-0.064853
  0
VERTEX
  8
0
 10
283.925306
 20
143.926543
 42
-0.082425
  0
VERTEX
  8
0
 10
283.706250
 20
143.440625
 42
-0.098894
  0
VERTEX
  8
0
 10
283.381354
 20
143.115568
 42
-0.148195
  0
VERTEX
  8
0
 10
283.000000
 20
143.000000
 42
0.269200
  0
VERTEX
  8
0
 10
282.614885
 20
142.776454
 42
0.056233
  0
VERTEX
  8
0
 10
282.293750
 20
142.030625
 42
0.044902
  0
VERTEX
  8
0
 10
282.072621
 20
140.964371
 42
0.028694
  0
VERTEX
  8
0
 10
282.000000
 20
139.700000
 42
-0.074672
  0
VERTEX
  8
0
 10
281.548486
 20
136.693551
 42
-0.192474
  0
VERTEX
  8
0
 10
280.195061
 20
135.014512
 42
-0.110868
  0
VERTEX
  8
0
 10
277.469713
 20
134.197574
 42
-0.017601
  0
VERTEX
  8
0
 10
271.859017
 20
134.000000
 42
-0.013098
  0
VERTEX
  8
0
 10
266.551796
 20
134.139052
 42
-0.104314
  0
VERTEX
  8
0
 10
264.195652
 20
134.766505
 42
-0.290552
  0
VERTEX
  8
0
 10
263.462128
 20
135.998229
 42
-0.116267
  0
VERTEX
  8
0
 10
263.988940
 20
137.979333
 42
-0.086657
  0
VERTEX
  8
0
 10
265.067832
 20
139.357260
 42
-0.159223
  0
VERTEX
  8
0
 10
266.356946
 20
139.929609
 42
-0.196215
  0
VERTEX
  8
0
 10
267.545672
 20
139.580748
 42
-0.133643
  0
VERTEX
  8
0
 10
268.388540
 20
138.429863
 42
0.210723
  0
VERTEX
  8
0
 10
269.509795
 20
137.300457
 42
0.152705
  0
VERTEX
  8
0
 10
271.300782
 20
137.173835
 42
0.135826
  0
VERTEX
  8
0
 10
272.998673
 20
138.106886
 42
0.165758
  0
VERTEX
  8
0
 10
273.814919
 20
139.714654
 42
0.206767
  0
VERTEX
  8
0
 10
273.354737
 20
141.400093
 42
0.146356
  0
VERTEX
  8
0
 10
271.721422
 20
142.531521
 42
0.081323
  0
VERTEX
  8
0
 10
268.808835
 20
142.980315
 42
0.030992
  0
VERTEX
  8
0
 10
264.699819
 20
142.686563
 42
0.065758
  0
VERTEX
  8
0
 10
261.660029
 20
141.862729
 42
0.081993
  0
VERTEX
  8
0
 10
259.183928
 20
140.311696
 42
0.093348
  0
VERTEX
  8
0
 10
257.568468
 20
138.236265
 42
0.119377
  0
VERTEX
  8
0
 10
257.000000
 20
135.889216
 42
-0.085606
  0
VERTEX
  8
0
 10
256.851743
 20
135.029640
 42
-0.144350
  0
VERTEX
  8
0
 10
256.425045
 20
134.442334
 42
-0.117712
  0
VERTEX
  8
0
 10
255.674879
 20
134.106054
 42
-0.046802
  0
VERTEX
  8
0
 10
254.544359
 20
134.000000
 42
-0.034319
  0
VERTEX
  8
0
 10
253.046747
 20
134.102914
 42
-0.308181
  0
VERTEX
  8
0
 10
252.583426
 20
134.521832
 42
-0.138523
  0
VERTEX
  8
0
 10
252.615554
 20
135.378188
 42
-0.006598
  0
VERTEX
  8
0
 10
253.544359
 20
138.125727
 42
0.002652
  0
VERTEX
  8
0
 10
254.102147
 20
139.733803
 42
0.003931
  0
VERTEX
  8
0
 10
254.572405
 20
141.149464
 42
0.001796
  0
VERTEX
  8
0
 10
254.958957
 20
142.359276
 42
0.076567
  0
VERTEX
  8
0
 10
255.000000
 20
142.625727
 42
0.393937
  0
VERTEX
  8
0
 10
254.859054
 20
142.776858
 42
0.003160
  0
VERTEX
  8
0
 10
253.076037
 20
142.890057
 42
0.008914
  0
VERTEX
  8
0
 10
250.961736
 20
142.973094
 42
0.005357
  0
VERTEX
  8
0
 10
248.450340
 20
143.000000
 42
0.032682
  0
VERTEX
  8
0
 10
243.056589
 20
142.647062
 42
0.075460
  0
VERTEX
  8
0
 10
239.164433
 20
141.522299
 42
0.107429
  0
VERTEX
  8
0
 10
236.641282
 20
139.620107
 42
0.129053
  0
VERTEX
  8
0
 10
235.341388
 20
136.956938
 42
-0.037694
  0
VERTEX
  8
0
 10
234.910195
 20
135.415415
 42
-0.128216
  0
VERTEX
  8
0
 10
234.323355
 20
134.563385
 42
-0.135167
  0
VERTEX
  8
0
 10
233.414896
 20
134.131351
 42
-0.043830
  0
VERTEX
  8
0
 10
231.919359
 20
134.000000
 42
0.000000
  0
VERTEX
  8
0
 10
229.088718
 20
134.000000
 42
0.000000
  0
VERTEX
  8
0
 10
230.544359
 20
138.125727
 42
0.002652
  0
VERTEX
  8
0
 10
231.102147
 20
139.733803
 42
0.003931
  0
VERTEX
  8
0
 10
231.572405
 20
141.149464
 42
0.001796
  0
VERTEX
  8
0
 10
231.958957
 20
142.359276
 42
0.076567
  0
VERTEX
  8
0
 10
232.000000
 20
142.625727
 42
0.392041
  0
VERTEX
  8
0
 10
231.860193
 20
142.776628
 42
0.003671
  0
VERTEX
  8
0
 10
230.217705
 20
142.890057
 42
0.009620
  0
VERTEX
  8
0
 10
228.259074
 20
142.973093
 42
0.005783
  0
VERTEX
  8
0
 10
225.932612
 20
143.000000
 42
-0.006180
  0
VERTEX
  8
0
 10
222.187841
 20
143.046289
 42
-0.085618
  0
VERTEX
  8
0
 10
220.864680
 20
143.308368
 42
-0.285702
  0
VERTEX
  8
0
 10
220.398996
 20
143.923674
 42
-0.099985
  0
VERTEX
  8
0
 10
220.523877
 20
145.075229
 42
0.039754
  0
VERTEX
  8
0
 10
220.786027
 20
146.205709
 42
0.260718
  0
VERTEX
  8
0
 10
220.587566
 20
146.730287
 42
0.185964
  0
VERTEX
  8
0
 10
219.968078
 20
146.943382
 42
0.020429
  0
VERTEX
  8
0
 10
218.442126
 20
146.825229
 42
0.086258
  0
VERTEX
  8
0
 10
216.111414
 20
146.129166
 42
0.140413
  0
VERTEX
  8
0
 10
214.599048
 20
144.744613
 42
0.159307
  0
VERTEX
  8
0
 10
214.159876
 20
142.906509
 42
0.119772
  0
VERTEX
  8
0
 10
214.817758
 20
140.920208
 42
-0.152724
  0
VERTEX
  8
0
 10
215.413885
 20
138.634667
 42
-0.139781
  0
VERTEX
  8
0
 10
214.633656
 20
136.324645
 42
-0.126908
  0
VERTEX
  8
0
 10
212.665271
 20
134.616129
 42
-0.116111
  0
VERTEX
  8
0
 10
210.047848
 20
134.000000
 42
0.000000
  0
VERTEX
  8
0
 10
207.141801
 20
134.000000
 42
0.000000
  0
VERTEX
  8
0
 10
210.160246
 20
143.000000
 42
-0.005011
  0
VERTEX
  8
0
 10
212.162155
 20
148.776363
 42
-0.064773
  0
VERTEX
  8
0
 10
213.198875
 20
150.802205
 42
-0.166287
  0
VERTEX
  8
0
 10
214.403054
 20
151.696657
 42
-0.077482
  0
VERTEX
  8
0
 10
216.348798
 20
152.000000
 42
0.043449
  0
VERTEX
  8
0
 10
217.802426
 20
152.126556
 42
0.062910
  0
VERTEX
  8
0
 10
219.032657
 20
152.506223
 42
0.070575
  0
VERTEX
  8
0
 10
220.023065
 20
153.135346
 42
0.076580
  0
VERTEX
  8
0
 10
220.767927
 20
154.000000
 42
0.225449
  0
VERTEX
  8
0
 10
220.892945
 20
155.084574
 42
0.275160
  0
VERTEX
  8
0
 10
220.127883
 20
155.735603
 42
0.040010
  0
VERTEX
  8
0
 10
217.522575
 20
155.965560
 42
0.002015
  0
VERTEX
  8
0
 10
208.976355
 20
156.000000
 42
0.013496
  0
VERTEX
  8
0
 10
200.133085
 20
155.761261
 42
0.038142
  0
VERTEX
  8
0
 10
194.011534
 20
154.959528
 42
0.059510
  0
VERTEX
  8
0
 10
190.179746
 20
153.666905
 42
0.274766
  0
VERTEX
  8
0
 10
188.929715
 20
151.801027
 42
-0.646317
  0
VERTEX
  8
0
 10
188.600062
 20
151.673446
 42
-0.088335
  0
VERTEX
  8
0
 10
188.009604
 20
152.507062
 42
-0.035459
  0
VERTEX
  8
0
 10
187.342159
 20
154.232081
 42
-0.060605
  0
VERTEX
  8
0
 10
187.070285
 20
155.750000
 42
-0.198560
  0
VERTEX
  8
0
 10
187.237230
 20
156.228247
 42
-0.093863
  0
VERTEX
  8
0
 10
187.764497
 20
156.633879
 42
-0.070173
  0
VERTEX
  8
0
 10
188.570050
 20
156.908407
 42
-0.047118
  0
VERTEX
  8
0
 10
189.539838
 20
157.000000
 42
0.087446
  0
VERTEX
  8
0
 10
192.568200
 20
157.533716
 42
0.037969
  0
VERTEX
  8
0
 10
196.306119
 20
159.224520
 42
0.036372
  0
VERTEX
  8
0
 10
200.070321
 20
161.655405
 42
0.042463
  0
VERTEX
  8
0
 10
203.237591
 20
164.495541
 42
-0.030336
  0
VERTEX
  8
0
 10
204.648699
 20
165.823944
 42
-0.031763
  0
VERTEX
  8
0
 10
206.189575
 20
166.949921
 42
-0.033517
  0
VERTEX
  8
0
 10
207.636483
 20
167.741395
 42
-0.106695
  0
VERTEX
  8
0
 10
208.705641
 20
167.981547
 42
-0.046359
  0
VERTEX
  8
0
 10
209.992186
 20
167.872851
 42
-0.312968
  0
VERTEX
  8
0
 10
210.421262
 20
167.445349
 42
-0.123905
  0
VERTEX
  8
0
 10
210.362722
 20
166.558877
 42
-0.006673
  0
SEQEND
  0
POLYLINE
  8
0
 66
1
 70
1
  0
VERTEX
  8
0
 10
290.527073
 20
166.956195
 42
-0.215272
  0
VERTEX
  8
0
 10
290.656600
 20
165.961600
 42
-0.068835
  0
VERTEX
  8
0
 10
290.017213
 20
164.574866
 42
-0.067767
  0
VERTEX
  8
0
 10
289.007341
 20
163.387533
 42
-0.184725
  0
VERTEX
  8
0
 10
287.994187
 20
163.000000
 42
-0.286554
  0
VERTEX
  8
0
 10
287.316612
 20
163.423063
 42
-0.046713
  0
VERTEX
  8
0
 10
286.743943
 20
164.939270
 42
-0.046620
  0
VERTEX
  8
0
 10
286.455907
 20
166.572121
 42
-0.220165
  0
VERTEX
  8
0
 10
286.775429
 20
167.442095
 42
-0.140430
  0
VERTEX
  8
0
 10
287.612777
 20
167.906483
 42
-0.089268
  0
VERTEX
  8
0
 10
288.733810
 20
167.961754
 42
-0.088551
  0
VERTEX
  8
0
 10
289.812154
 20
167.621745
 42
-0.134589
  0
SEQEND
  0
POLYLINE
  8
0
 66
1
 70
1
  0
VERTEX
  8
0
 10
71.000000
 20
162.940983
 42
-0.047867
  0
VERTEX
  8
0
 10
70.928459
 20
162.195401
 42
-0.104212
  0
VERTEX
  8
0
 10
70.706250
 20
161.668350
 42
-0.181468
  0
VERTEX
  8
0
 10
70.378123
 20
161.441401
 42
-0.202618
  0
VERTEX
  8
0
 10
70.000000
 20
161.500000
 42
-0.088250
  0
VERTEX
  8
0
 10
69.617164
 20
161.842344
 42
-0.053305
  0
VERTEX
  8
0
 10
69.293750
 20
162.359775
 42
-0.051278
  0
VERTEX
  8
0
 10
69.074167
 20
162.961978
 42
-0.061875
  0
VERTEX
  8
0
 10
69.000000
 20
163.559017
 42
-0.067639
  0
VERTEX
  8
0
 10
69.074854
 20
164.109818
 42
-0.084330
  0
VERTEX
  8
0
 10
69.293750
 20
164.576711
 42
-0.099650
  0
VERTEX
  8
0
 10
69.618660
 20
164.888931
 42
-0.142666
  0
VERTEX
  8
0
 10
70.000000
 20
165.000000
 42
-0.195654
  0
VERTEX
  8
0
 10
70.381985
 20
164.844577
 42
-0.086673
  0
VERTEX
  8
0
 10
70.706250
 20
164.395164
 42
-0.066561
  0
VERTEX
  8
0
 10
70.926392
 20
163.729059
 42
-0.046600
  0
SEQEND
  0
POLYLINE
  8
0
 66
1
 70
1
  0
VERTEX
  8
0
 10
110.125000
 20
164.176794
 42
-0.026502
  0
VERTEX
  8
0
 10
112.152016
 20
163.969882
 42
-0.122760
  0
VERTEX
  8
0
 10
113.228854
 20
163.515853
 42
-0.142908
  0
VERTEX
  8
0
 10
113.879508
 20
162.648476
 42
-0.040597
  0
VERTEX
  8
0
 10
114.347812
 20
161.010938
 42
-0.051220
  0
VERTEX
  8
0
 10
114.616132
 20
158.196369
 42
-0.139546
  0
VERTEX
  8
0
 10
114.059473
 20
156.293581
 42
-0.114217
  0
VERTEX
  8
0
 10
112.495417
 20
154.741863
 42
-0.028654
  0
VERTEX
  8
0
 10
109.315555
 20
153.018304
 42
0.013234
  0
VERTEX
  8
0
 10
106.566837
 20
151.636292
 42
0.113764
  0
VERTEX
  8
0
 10
105.539091
 20
150.736900
 42
0.171094
  0
VERTEX
  8
0
 10
105.215277
 20
149.637519
 42
0.039566
  0
VERTEX
  8
0
 10
105.472269
 20
147.695300
 42
-0.012553
  0
VERTEX
  8
0
 10
105.770381
 20
146.107056
 42
-0.004880
  0
VERTEX
  8
0
 10
106.106012
 20
143.896432
 42
-0.004827
  0
VERTEX
  8
0
 10
106.423167
 20
141.494136
 42
-0.005966
  0
VERTEX
  8
0
 10
106.670290
 20
139.250000
 42
0.019163
  0
VERTEX
  8
0
 10
107.143796
 20
135.791593
 42
0.136332
  0
VERTEX
  8
0
 10
107.865526
 20
134.279719
 42
0.488250
  0
VERTEX
  8
0
 10
108.673781
 20
134.323399
 42
0.075410
  0
VERTEX
  8
0
 10
109.500000
 20
136.000000
 42
-0.041204
  0
VERTEX
  8
0
 10
109.814323
 20
136.765341
 42
-0.050911
  0
VERTEX
  8
0
 10
110.232600
 20
137.412500
 42
-0.059490
  0
VERTEX
  8
0
 10
110.686051
 20
137.857892
 42
-0.165895
  0
VERTEX
  8
0
 10
111.102571
 20
138.000000
 42
0.257507
  0
VERTEX
  8
0
 10
111.400868
 20
138.164537
 42
0.157848
  0
VERTEX
  8
0
 10
111.502658
 20
138.563917
 42
0.077340
  0
VERTEX
  8
0
 10
111.359032
 20
139.212501
 42
0.029783
  0
VERTEX
  8
0
 10
110.971952
 20
140.052407
 42
-0.042283
  0
VERTEX
  8
0
 10
110.579623
 20
140.962836
 42
-0.033441
  0
VERTEX
  8
0
 10
110.308544
 20
142.000588
 42
-0.034458
  0
VERTEX
  8
0
 10
110.187727
 20
143.004577
 42
-0.068222
  0
VERTEX
  8
0
 10
110.255997
 20
143.802407
 42
-0.193371
  0
VERTEX
  8
0
 10
110.548604
 20
144.226804
 42
-0.359093
  0
VERTEX
  8
0
 10
110.938863
 20
144.185929
 42
-0.078448
  0
VERTEX
  8
0
 10
111.493981
 20
143.408943
 42
-0.013444
  0
VERTEX
  8
0
 10
112.263951
 20
141.760173
 42
0.023098
  0
VERTEX
  8
0
 10
113.103261
 20
140.049821
 42
0.072372
  0
VERTEX
  8
0
 10
113.873088
 20
139.030573
 42
0.125448
  0
VERTEX
  8
0
 10
114.638294
 20
138.582397
 42
0.163085
  0
VERTEX
  8
0
 10
115.444723
 20
138.617162
 42
-0.199963
  0
VERTEX
  8
0
 10
116.213960
 20
138.595377
 42
-0.215955
  0
VERTEX
  8
0
 10
116.707802
 20
138.035019
 42
-0.065672
  0
VERTEX
  8
0
 10
116.946697
 20
136.607837
 42
-0.008674
  0
VERTEX
  8
0
 10
117.000000
 20
133.535560
 42
-0.045983
  0
VERTEX
  8
0
 10
116.517848
 20
128.303984
 42
-0.239127
  0
VERTEX
  8
0
 10
114.809377
 20
126.071662
 42
-0.116866
  0
VERTEX
  8
0
 10
111.135084
 20
125.267594
 42
-0.008227
  0
VERTEX
  8
0
 10
100.543848
 20
125.624546
 42
-0.002740
  0
VERTEX
  8
0
 10
92.093958
 20
126.095046
 42
-0.034955
  0
VERTEX
  8
0
 10
88.947077
 20
126.509613
 42
-0.124622
  0
VERTEX
  8
0
 10
87.493459
 20
127.209696
 42
-0.209862
  0
VERTEX
  8
0
 10
86.902257
 20
128.402127
 42
0.002337
  0
VERTEX
  8
0
 10
86.560904
 20
135.059158
 42
0.006443
  0
VERTEX
  8
0
 10
86.237977
 20
139.745949
 42
0.007282
  0
VERTEX
  8
0
 10
85.818479
 20
144.091202
 42
0.003787
  0
VERTEX
  8
0
 10
85.175167
 20
149.500000
 42
-0.003612
  0
VERTEX
  8
0
 10
84.737883
 20
153.165649
 42
-0.003924
  0
VERTEX
  8
0
 10
84.366298
 20
156.737500
 42
-0.003692
  0
VERTEX
  8
0
 10
84.094622
 20
159.801818
 42
-0.019128
  0
VERTEX
  8
0
 10
84.021909
 20
161.500000
 42
0.000000
  0
VERTEX
  8
0
 10
84.008285
 20
164.500000
 42
0.000000
  0
VERTEX
  8
0
 10
95.254143
 20
164.426794
 42
-0.001230
  0
VERTEX
  8
0
 10
99.825454
 20
164.385794
 42
-0.001345
  0
VERTEX
  8
0
 10
104.261373
 20
164.323159
 42
-0.001257
  0
VERTEX
  8
0
 10
108.056121
 20
164.249823
 42
-0.006724
  0
SEQEND
  0
POLYLINE
  8
0
 66
1
 70
1
  0
VERTEX
  8
0
 10
125.000000
 20
160.940983
 42
-0.105429
  0
VERTEX
  8
0
 10
124.923444
 20
160.581949
 42
-0.099231
  0
VERTEX
  8
0
 10
124.706250
 20
160.276414
 42
-0.096318
  0
VERTEX
  8
0
 10
124.381732
 20
160.071618
 42
-0.092995
  0
VERTEX
  8
0
 10
124.000000
 20
160.000000
 42
-0.153634
  0
VERTEX
  8
0
 10
123.618621
 20
160.120018
 42
-0.097988
  0
VERTEX
  8
0
 10
123.293750
 20
160.457961
 42
-0.080552
  0
VERTEX
  8
0
 10
123.074545
 20
160.962904
 42
-0.062283
  0
VERTEX
  8
0
 10
123.000000
 20
161.559017
 42
-0.066118
  0
VERTEX
  8
0
 10
123.073267
 20
162.110654
 42
-0.138808
  0
VERTEX
  8
0
 10
123.293750
 20
162.478525
 42
-0.191142
  0
VERTEX
  8
0
 10
123.620352
 20
162.607943
 42
-0.139169
  0
VERTEX
  8
0
 10
124.000000
 20
162.500000
 42
-0.060810
  0
VERTEX
  8
0
 10
124.382515
 20
162.193797
 42
-0.051032
  0
VERTEX
  8
0
 10
124.706250
 20
161.787100
 42
-0.053229
  0
VERTEX
  8
0
 10
124.926698
 20
161.346558
 42
-0.089642
  0
SEQEND
  0
POLYLINE
  8
0
 66
1
 70
1
  0
VERTEX
  8
0
 10
284.756326
 20
152.442302
 42
0.000000
  0
VERTEX
  8
0
 10
285.848215
 20
148.884604
 42
0.000000
  0
VERTEX
  8
0
 10
282.682297
 20
149.192302
 42
-0.089892
  0
VERTEX
  8
0
 10
280.545220
 20
149.798017
 42
-0.165735
  0
VERTEX
  8
0
 10
279.280211
 20
151.059425
 42
-0.180979
  0
VERTEX
  8
0
 10
279.110869
 20
152.742819
 42
-0.109156
  0
VERTEX
  8
0
 10
280.039869
 20
154.548039
 42
-0.088112
  0
VERTEX
  8
0
 10
281.443611
 20
155.735931
 42
-0.241128
  0
VERTEX
  8
0
 10
282.703532
 20
155.803163
 42
-0.170378
  0
VERTEX
  8
0
 10
283.815672
 20
154.751561
 42
-0.044547
  0
SEQEND
  0
POLYLINE
  8
0
 66
1
 70
1
  0
VERTEX
  8
0
 10
202.807775
 20
142.904650
 42
0.000000
  0
VERTEX
  8
0
 10
199.757352
 20
133.809300
 42
0.000000
  0
VERTEX
  8
0
 10
195.128676
 20
134.498193
 42
-0.002781
  0
VERTEX
  8
0
 10
193.346600
 20
134.773562
 42
-0.004450
  0
VERTEX
  8
0
 10
191.828430
 20
135.030683
 42
-0.001078
  0
VERTEX
  8
0
 10
190.507340
 20
135.269478
 42
-0.200830
  0
VERTEX
  8
0
 10
190.393640
 20
135.343543
 42
-0.095895
  0
VERTEX
  8
0
 10
190.338132
 20
135.472725
 42
-0.001135
  0
VERTEX
  8
0
 10
190.142918
 20
136.378130
 42
-0.003379
  0
VERTEX
  8
0
 10
189.926284
 20
137.428827
 42
-0.002195
  0
VERTEX
  8
0
 10
189.689473
 20
138.645836
 42
-0.010873
  0
VERTEX
  8
0
 10
189.343768
 20
140.708651
 42
-0.253445
  0
VERTEX
  8
0
 10
189.541884
 20
141.247813
 42
-0.264994
  0
VERTEX
  8
0
 10
190.094423
 20
141.362204
 42
-0.011747
  0
VERTEX
  8
0
 10
192.009906
 20
140.690159
 42
0.109454
  0
VERTEX
  8
0
 10
195.904407
 20
140.129878
 42
0.140885
  0
VERTEX
  8
0
 10
199.279723
 20
141.381445
 42
0.202974
  0
VERTEX
  8
0
 10
200.736451
 20
143.837870
 42
0.209876
  0
VERTEX
  8
0
 10
199.960131
 20
146.548039
 42
0.124342
  0
VERTEX
  8
0
 10
198.520348
 20
147.599257
 42
0.102642
  0
VERTEX
  8
0
 10
196.644740
 20
147.937993
 42
0.093596
  0
VERTEX
  8
0
 10
194.641197
 20
147.505626
 42
0.084292
  0
VERTEX
  8
0
 10
192.849590
 20
146.363881
 42
-0.013971
  0
VERTEX
  8
0
 10
191.735103
 20
145.410542
 42
-0.175490
  0
VERTEX
  8
0
 10
191.219548
 20
145.232659
 42
-0.270279
  0
VERTEX
  8
0
 10
190.831461
 20
145.466951
 42
-0.033337
  0
VERTEX
  8
0
 10
190.399568
 20
146.401126
 42
-0.188594
  0
VERTEX
  8
0
 10
190.413961
 20
148.649431
 42
-0.162441
  0
VERTEX
  8
0
 10
191.947177
 20
150.465008
 42
-0.096270
  0
VERTEX
  8
0
 10
195.089378
 20
151.631623
 42
-0.040910
  0
VERTEX
  8
0
 10
199.584087
 20
152.000000
 42
0.000000
  0
VERTEX
  8
0
 10
205.858199
 20
152.000000
 42
0.000000
  0
SEQEND
  0
POLYLINE
  8
0
 66
1
 70
1
  0
VERTEX
  8
0
 10
81.912419
 20
134.675431
 42
-0.023856
  0
VERTEX
  8
0
 10
83.753063
 20
130.081391
 42
-0.203620
  0
VERTEX
  8
0
 10
83.604785
 20
127.916214
 42
-0.234682
  0
VERTEX
  8
0
 10
81.971765
 20
126.701245
 42
-0.031748
  0
VERTEX
  8
0
 10
77.603843
 20
126.196025
 42
0.000000
  0
VERTEX
  8
0
 10
71.727122
 20
125.892050
 42
0.000000
  0
VERTEX
  8
0
 10
72.409402
 20
130.196025
 42
-0.034511
  0
VERTEX
  8
0
 10
72.848152
 20
132.102402
 42
-0.021146
  0
VERTEX
  8
0
 10
73.612172
 20
134.279622
 42
-0.021159
  0
VERTEX
  8
0
 10
74.555851
 20
136.380984
 42
-0.035009
  0
VERTEX
  8
0
 10
75.545841
 20
138.053751
 42
0.015807
  0
VERTEX
  8
0
 10
76.491638
 20
139.520380
 42
0.017779
  0
VERTEX
  8
0
 10
77.304339
 20
140.988423
 42
0.017290
  0
VERTEX
  8
0
 10
77.904097
 20
142.277510
 42
0.085591
  0
VERTEX
  8
0
 10
78.085953
 20
143.053751
 42
-0.153853
  0
VERTEX
  8
0
 10
78.195165
 20
143.339836
 42
-0.480235
  0
VERTEX
  8
0
 10
78.372111
 20
143.340789
 42
-0.079341
  0
VERTEX
  8
0
 10
78.636473
 20
142.881644
 42
-0.016550
  0
VERTEX
  8
0
 10
78.939409
 20
142.000000
 42
0.016766
  0
VERTEX
  8
0
 10
79.380340
 20
140.718538
 42
0.005164
  0
VERTEX
  8
0
 10
80.129326
 20
138.817158
 42
0.005159
  0
VERTEX
  8
0
 10
81.011755
 20
136.705908
 42
0.005640
  0
SEQEND
  0
POLYLINE
  8
0
 66
1
 70
1
  0
VERTEX
  8
0
 10
222.845793
 20
136.987487
 42
0.157222
  0
VERTEX
  8
0
 10
222.764577
 20
133.537678
 42
0.279607
  0
VERTEX
  8
0
 10
224.798442
 20
131.691163
 42
0.046217
  0
VERTEX
  8
0
 10
230.909526
 20
131.081115
 42
0.001782
  0
VERTEX
  8
0
 10
253.668615
 20
131.000000
 42
-0.001604
  0
VERTEX
  8
0
 10
269.242164
 20
130.950037
 42
-0.008549
  0
VERTEX
  8
0
 10
277.747628
 20
130.750000
 42
-0.009508
  0
VERTEX
  8
0
 10
282.964459
 20
130.438562
 42
-0.640105
  0
VERTEX
  8
0
 10
283.200000
 20
129.800000
 42
0.070065
  0
VERTEX
  8
0
 10
282.740040
 20
129.189262
 42
0.038919
  0
VERTEX
  8
0
 10
282.352500
 20
128.339313
 42
0.037936
  0
VERTEX
  8
0
 10
282.088274
 20
127.399824
 42
0.049622
  0
VERTEX
  8
0
 10
282.000000
 20
126.512554
 42
0.000000
  0
VERTEX
  8
0
 10
282.000000
 20
124.425109
 42
0.000000
  0
VERTEX
  8
0
 10
238.250000
 20
124.773858
 42
-0.000850
  0
VERTEX
  8
0
 10
221.388332
 20
124.936921
 42
-0.001358
  0
VERTEX
  8
0
 10
206.984375
 20
125.139810
 42
-0.000245
  0
VERTEX
  8
0
 10
194.263044
 20
125.359785
 42
-0.074442
  0
VERTEX
  8
0
 10
193.250000
 20
125.529919
 42
-0.151621
  0
VERTEX
  8
0
 10
192.770905
 20
125.869028
 42
-0.063014
  0
VERTEX
  8
0
 10
192.367188
 20
126.561177
 42
-0.054400
  0
VERTEX
  8
0
 10
192.092528
 20
127.470018
 42
-0.046230
  0
VERTEX
  8
0
 10
192.000000
 20
128.468615
 42
0.000000
  0
VERTEX
  8
0
 10
192.000000
 20
131.000000
 42
0.000000
  0
VERTEX
  8
0
 10
202.565741
 20
131.000000
 42
0.008666
  0
VERTEX
  8
0
 10
206.747549
 20
131.072486
 42
0.011267
  0
VERTEX
  8
0
 10
210.572460
 20
131.291495
 42
0.009053
  0
VERTEX
  8
0
 10
213.741849
 20
131.602563
 42
0.094141
  0
VERTEX
  8
0
 10
214.985656
 20
131.992323
 42
0.088162
  0
VERTEX
  8
0
 10
215.778814
 20
132.617185
 42
0.034474
  0
VERTEX
  8
0
 10
216.635221
 20
133.723532
 42
0.032795
  0
VERTEX
  8
0
 10
217.417709
 20
135.076800
 42
0.034992
  0
VERTEX
  8
0
 10
217.997466
 20
136.492323
 42
-0.029454
  0
VERTEX
  8
0
 10
218.683364
 20
138.221295
 42
-0.088162
  0
VERTEX
  8
0
 10
219.411664
 20
139.257967
 42
-0.118125
  0
VERTEX
  8
0
 10
220.317195
 20
139.809844
 42
-0.078204
  0
VERTEX
  8
0
 10
221.525533
 20
140.000000
 42
-0.033084
  0
VERTEX
  8
0
 10
222.889858
 20
139.909626
 42
-0.262133
  0
VERTEX
  8
0
 10
223.377099
 20
139.543039
 42
-0.174509
  0
VERTEX
  8
0
 10
223.426022
 20
138.819454
 42
-0.014351
  0
SEQEND
  0
POLYLINE
  8
0
 66
1
 70
1
  0
VERTEX
  8
0
 10
245.850155
 20
137.000000
 42
-0.101986
  0
VERTEX
  8
0
 10
244.722277
 20
135.112847
 42
-0.129104
  0
VERTEX
  8
0
 10
243.019922
 20
134.016780
 42
-0.232552
  0
VERTEX
  8
0
 10
241.636083
 20
134.214232
 42
-0.247922
  0
VERTEX
  8
0
 10
241.000000
 20
135.418213
 42
-0.059422
  0
VERTEX
  8
0
 10
241.231738
 20
137.361255
 42
-0.106009
  0
VERTEX
  8
0
 10
241.926902
 20
138.805372
 42
-0.125117
  0
VERTEX
  8
0
 10
243.057185
 20
139.686198
 42
-0.103630
  0
VERTEX
  8
0
 10
244.554969
 20
140.000000
 42
-0.034136
  0
VERTEX
  8
0
 10
245.895107
 20
139.908399
 42
-0.262478
  0
VERTEX
  8
0
 10
246.378128
 20
139.541307
 42
-0.172962
  0
VERTEX
  8
0
 10
246.425262
 20
138.817425
 42
-0.014480
  0
SEQEND
  0
POLYLINE
  8
0
 66
1
 70
1
  0
VERTEX
  8
0
 10
130.000000
 20
129.875380
 42
0.002722
  0
VERTEX
  8
0
 10
132.469199
 20
129.081176
 42
0.001729
  0
VERTEX
  8
0
 10
135.353125
 20
128.181821
 42
0.001736
  0
VERTEX
  8
0
 10
138.189953
 20
127.318677
 42
0.003216
  0
VERTEX
  8
0
 10
140.500000
 20
126.640737
 42
0.000000
  0
VERTEX
  8
0
 10
145.500000
 20
125.208232
 42
0.000000
  0
VERTEX
  8
0
 10
133.750000
 20
125.104116
 42
0.000000
  0
VERTEX
  8
0
 10
122.000000
 20
125.000000
 42
0.000000
  0
VERTEX
  8
0
 10
122.000000
 20
127.418213
 42
0.023275
  0
VERTEX
  8
0
 10
121.950899
 20
128.472423
 42
0.016735
  0
VERTEX
  8
0
 10
121.802127
 20
129.641723
 42
0.016958
  0
VERTEX
  8
0
 10
121.585032
 20
130.747109
 42
0.034655
  0
VERTEX
  8
0
 10
121.326391
 20
131.591821
 42
-0.027555
  0
VERTEX
  8
0
 10
121.032450
 20
132.505323
 42
-0.307214
  0
VERTEX
  8
0
 10
121.153557
 20
132.847788
 42
-0.246007
  0
VERTEX
  8
0
 10
121.552897
 20
132.909094
 42
-0.019844
  0
VERTEX
  8
0
 10
122.576391
 20
132.512368
 42
0.014012
  0
VERTEX
  8
0
 10
123.657024
 20
132.078935
 42
0.003028
  0
VERTEX
  8
0
 10
125.550565
 20
131.393377
 42
0.003157
  0
VERTEX
  8
0
 10
127.753263
 20
130.626569
 42
0.003013
  0
SEQEND
  0
POLYLINE
  8
0
 66
1
 70
1
  0
VERTEX
  8
0
 10
286.683114
 20
126.812500
 42
-0.054073
  0
VERTEX
  8
0
 10
286.461564
 20
126.395823
 42
-0.470617
  0
VERTEX
  8
0
 10
286.279315
 20
126.378580
 42
-0.168741
  0
VERTEX
  8
0
 10
286.137993
 20
126.670344
 42
-0.018894
  0
VERTEX
  8
0
 10
286.078947
 20
127.416667
 42
-0.028489
  0
VERTEX
  8
0
 10
286.089945
 20
128.112848
 42
-0.077125
  0
VERTEX
  8
0
 10
286.200665
 20
128.592839
 42
-0.208169
  0
VERTEX
  8
0
 10
286.385309
 20
128.775380
 42
-0.296942
  0
VERTEX
  8
0
 10
286.604167
 20
128.729167
 42
-0.126455
  0
VERTEX
  8
0
 10
286.797407
 20
128.402231
 42
-0.060344
  0
VERTEX
  8
0
 10
286.876576
 20
127.916927
 42
-0.054150
  0
VERTEX
  8
0
 10
286.839148
 20
127.359369
 42
-0.051402
  0
SEQEND
  0
ENDSEC
  0
EOF
