  0
SECTION
  2
HEADER
  9
$ACADVER
  1
AC1009
  9
$DWGCODEPAGE
  3
ansi_1252
  9
$INSBASE
 10
0.0
 20
0.0
 30
0.0
  9
$EXTMIN
 10
3.550005764431432
 20
-375.8258236355251
 30
0.0
  9
$EXTMAX
 10
246.4499942355686
 20
-4.174176364474846
 30
0.0
  9
$LIMMIN
 10
0.0
 20
0.0
  9
$LIMMAX
 10
12.0
 20
9.0
  9
$ORTHOMODE
 70
     0
  9
$REGENMODE
 70
     1
  9
$FILLMODE
 70
     1
  9
$QTEXTMODE
 70
     0
  9
$MIRRTEXT
 70
     1
  9
$DRAGMODE
 70
     2
  9
$LTSCALE
 40
1.0
  9
$OSMODE
 70
    37
  9
$ATTMODE
 70
     1
  9
$TEXTSIZE
 40
0.2
  9
$TRACEWID
 40
0.05
  9
$TEXTSTYLE
  7
STANDARD
  9
$CLAYER
  8
0
  9
$CELTYPE
  6
BYLAYER
  9
$CECOLOR
 62
   256
  9
$DIMSCALE
 40
1.0
  9
$DIMASZ
 40
0.18
  9
$DIMEXO
 40
0.0625
  9
$DIMDLI
 40
0.38
  9
$DIMRND
 40
0.0
  9
$DIMDLE
 40
0.0
  9
$DIMEXE
 40
0.18
  9
$DIMTP
 40
0.0
  9
$DIMTM
 40
0.0
  9
$DIMTXT
 40
0.18
  9
$DIMCEN
 40
0.09
  9
$DIMTSZ
 40
0.0
  9
$DIMTOL
 70
     0
  9
$DIMLIM
 70
     0
  9
$DIMTIH
 70
     1
  9
$DIMTOH
 70
     1
  9
$DIMSE1
 70
     0
  9
$DIMSE2
 70
     0
  9
$DIMTAD
 70
     0
  9
$DIMZIN
 70
     0
  9
$DIMBLK
  1

  9
$DIMASO
 70
     1
  9
$DIMSHO
 70
     1
  9
$DIMPOST
  1

  9
$DIMAPOST
  1

  9
$DIMALT
 70
     0
  9
$DIMALTD
 70
     2
  9
$DIMALTF
 40
25.4
  9
$DIMLFAC
 40
1.0
  9
$DIMTOFL
 70
     0
  9
$DIMTVP
 40
0.0
  9
$DIMTIX
 70
     0
  9
$DIMSOXD
 70
     0
  9
$DIMSAH
 70
     0
  9
$DIMBLK1
  1

  9
$DIMBLK2
  1

  9
$DIMSTYLE
  2
STANDARD
  9
$DIMCLRD
 70
     0
  9
$DIMCLRE
 70
     0
  9
$DIMCLRT
 70
     0
  9
$DIMTFAC
 40
1.0
  9
$DIMGAP
 40
0.09
  9
$LUNITS
 70
     2
  9
$LUPREC
 70
     4
  9
$SKETCHINC
 40
0.1
  9
$FILLETRAD
 40
0.5
  9
$AUNITS
 70
     0
  9
$AUPREC
 70
     0
  9
$MENU
  1
.
  9
$ELEVATION
 40
0.0
  9
$PELEVATION
 40
0.0
  9
$THICKNESS
 40
0.0
  9
$LIMCHECK
 70
     0
  9
$CHAMFERA
 40
0.0
  9
$CHAMFERB
 40
0.0
  9
$SKPOLY
 70
     0
  9
$TDCREATE
 40
2454910.5
  9
$TDUPDATE
 40
2458117.330691493
  9
$TDINDWG
 40
0.0000000116
  9
$TDUSRTIMER
 40
0.0000000116
  9
$USRTIMER
 70
     1
  9
$ANGBASE
 50
0.0
  9
$ANGDIR
 70
     0
  9
$PDMODE
 70
     0
  9
$PDSIZE
 40
0.0
  9
$PLINEWID
 40
0.0
  9
$COORDS
 70
     1
  9
$SPLFRAME
 70
     0
  9
$SPLINETYPE
 70
     6
  9
$SPLINESEGS
 70
     8
  9
$ATTDIA
 70
     0
  9
$ATTREQ
 70
     1
  9
$HANDLING
 70
     1
  9
$HANDSEED
  5
3CC
  9
$SURFTAB1
 70
     6
  9
$SURFTAB2
 70
     6
  9
$SURFTYPE
 70
     6
  9
$SURFU
 70
     6
  9
$SURFV
 70
     6
  9
$UCSNAME
  2

  9
$UCSORG
 10
0.0
 20
0.0
 30
0.0
  9
$UCSXDIR
 10
1.0
 20
0.0
 30
0.0
  9
$UCSYDIR
 10
0.0
 20
1.0
 30
0.0
  9
$PUCSNAME
  2

  9
$PUCSORG
 10
0.0
 20
0.0
 30
0.0
  9
$PUCSXDIR
 10
1.0
 20
0.0
 30
0.0
  9
$PUCSYDIR
 10
0.0
 20
1.0
 30
0.0
  9
$USERI1
 70
     0
  9
$USERI2
 70
     0
  9
$USERI3
 70
     0
  9
$USERI4
 70
     0
  9
$USERI5
 70
     0
  9
$USERR1
 40
0.0
  9
$USERR2
 40
0.0
  9
$USERR3
 40
0.0
  9
$USERR4
 40
0.0
  9
$USERR5
 40
0.0
  9
$WORLDVIEW
 70
     1
  9
$SHADEDGE
 70
     3
  9
$SHADEDIF
 70
    70
  9
$TILEMODE
 70
     1
  9
$MAXACTVP
 70
    64
  9
$PLIMCHECK
 70
     0
  9
$PEXTMIN
 10
1.000000000000000E+20
 20
1.000000000000000E+20
 30
1.000000000000000E+20
  9
$PEXTMAX
 10
-1.000000000000000E+20
 20
-1.000000000000000E+20
 30
-1.000000000000000E+20
  9
$PLIMMIN
 10
0.0
 20
0.0
  9
$PLIMMAX
 10
12.0
 20
9.0
  9
$UNITMODE
 70
     0
  9
$VISRETAIN
 70
     1
  9
$PLINEGEN
 70
     0
  9
$PSLTSCALE
 70
     1
  0
ENDSEC
  0
SECTION
  2
TABLES
  0
TABLE
  2
VPORT
 70
     1
  0
VPORT
  2
*ACTIVE
 70
     0
 10
0.0
 20
0.0
 11
1.0
 21
1.0
 12
10.42990654205607
 22
4.5
 13
0.0
 23
0.0
 14
0.5
 24
0.5
 15
0.5
 25
0.5
 16
0.0
 26
0.0
 36
1.0
 17
0.0
 27
0.0
 37
0.0
 40
9.0
 41
1.972972972850329
 42
50.0
 43
0.0
 44
0.0
 50
0.0
 51
0.0
 71
     0
 72
   100
 73
     1
 74
     3
 75
     0
 76
     0
 77
     0
 78
     0
  0
ENDTAB
  0
TABLE
  2
LTYPE
 70
     2
  0
LTYPE
  2
CONTINUOUS
 70
     0
  3
Solid line
 72
    65
 73
     0
 40
0.0
  0
LTYPE
  2
CONTINUOUS2
 70
     0
  3
Solid Line
 72
    65
 73
     0
 40
0.0
  0
ENDTAB
  0
TABLE
  2
LAYER
 70
     2
  0
LAYER
  2
0
 70
     0
 62
     7
  6
CONTINUOUS
  0
LAYER
  2
LAYER_2
 70
     0
 62
    62
  6
CONTINUOUS
  0
ENDTAB
  0
TABLE
  2
STYLE
 70
     1
  0
STYLE
  2
STANDARD
 70
     0
 40
0.0
 41
1.0
 50
0.0
 71
     0
 42
0.2
  3
txt
  4

  0
ENDTAB
  0
TABLE
  2
VIEW
 70
     0
  0
ENDTAB
  0
TABLE
  2
UCS
 70
     0
  0
ENDTAB
  0
TABLE
  2
APPID
 70
     1
  0
APPID
  2
ACAD
 70
     0
  0
ENDTAB
  0
TABLE
  2
DIMSTYLE
 70
     1
  0
DIMSTYLE
  2
STANDARD
 70
     0
  3

  4

  5

  6

  7

 40
1.0
 41
0.18
 42
0.0625
 43
0.38
 44
0.18
 45
0.0
 46
0.0
 47
0.0
 48
0.0
140
0.18
141
0.09
142
0.0
143
25.4
144
1.0
145
0.0
146
1.0
147
0.09
 71
     0
 72
     0
 73
     1
 74
     1
 75
     0
 76
     0
 77
     0
 78
     0
170
     0
171
     2
172
     0
173
     0
174
     0
175
     0
176
     0
177
     0
178
     0
  0
ENDTAB
  0
ENDSEC
  0
SECTION
  2
BLOCKS
  0
BLOCK
  8
0
  2
$MODEL_SPACE
 70
     0
 10
0.0
 20
0.0
 30
0.0
  3
$MODEL_SPACE
  1

  0
ENDBLK
  5
21
  8
0
  0
BLOCK
 67
     1
  8
0
  2
$PAPER_SPACE
 70
     0
 10
0.0
 20
0.0
 30
0.0
  3
$PAPER_SPACE
  1

  0
ENDBLK
  5
1D
 67
     1
  8
0
  0
ENDSEC
  0
SECTION
  2
ENTITIES
  0
POLYLINE
  5
70
  8
LAYER_2
 66
     1
 10
0.0
 20
0.0
 30
0.0
 70
     1
  0
VERTEX
  5
83
  8
LAYER_2
 10
162.3484954833984
 20
-4.174176364474846
 30
0.0
  0
VERTEX
  5
84
  8
LAYER_2
 10
222.3484937879775
 20
-4.174176364474846
 30
0.0
  0
VERTEX
  5
85
  8
LAYER_2
 10
222.3890860292647
 20
-4.182345681720328
 30
0.0
  0
VERTEX
  5
86
  8
LAYER_2
 10
222.421244515313
 20
-4.204423226250555
 30
0.0
  0
VERTEX
  5
87
  8
LAYER_2
 10
222.4424136850569
 20
-4.236763387256197
 30
0.0
  0
VERTEX
  5
88
  8
LAYER_2
 10
222.4500379774306
 20
-4.275720553927925
 30
0.0
  0
VERTEX
  5
89
  8
LAYER_2
 10
222.4500379774306
 20
-8.174190606011365
 30
0.0
 42
1.0
  0
VERTEX
  5
8A
  8
LAYER_2
 10
226.4700379774306
 20
-8.174190606011365
 30
0.0
  0
VERTEX
  5
8B
  8
LAYER_2
 10
242.3485649956597
 20
-8.174190606011365
 30
0.0
  0
VERTEX
  5
8C
  8
LAYER_2
 10
242.3891007158492
 20
-8.182359250386634
 30
0.0
  0
VERTEX
  5
8D
  8
LAYER_2
 10
242.4212188296848
 20
-8.20443208482537
 30
0.0
  0
VERTEX
  5
8E
  8
LAYER_2
 10
242.442363776101
 20
-8.236759461296968
 30
0.0
  0
VERTEX
  5
8F
  8
LAYER_2
 10
242.4499799940322
 20
-8.27569173177082
 30
0.0
  0
VERTEX
  5
90
  8
LAYER_2
 10
242.4499799940322
 20
-24.15417568630648
 30
0.0
 42
1.0
  0
VERTEX
  5
91
  8
LAYER_2
 10
242.4499799940322
 20
-28.17417568630648
 30
0.0
  0
VERTEX
  5
92
  8
LAYER_2
 10
246.348493109809
 20
-28.17417568630648
 30
0.0
  0
VERTEX
  5
93
  8
LAYER_2
 10
246.3890967898898
 20
-28.18234500355197
 30
0.0
  0
VERTEX
  5
94
  8
LAYER_2
 10
246.4212384541829
 20
-28.20442254808219
 30
0.0
  0
VERTEX
  5
95
  8
LAYER_2
 10
246.442382727729
 20
-28.23676270908783
 30
0.0
  0
VERTEX
  5
96
  8
LAYER_2
 10
246.4499942355686
 20
-28.27571987575956
 30
0.0
  0
VERTEX
  5
97
  8
LAYER_2
 10
246.4499942355686
 20
-88.27571818033854
 30
0.0
  0
VERTEX
  5
98
  8
LAYER_2
 10
246.4418134795295
 20
-88.31628081533644
 30
0.0
  0
VERTEX
  5
99
  8
LAYER_2
 10
246.4197204589844
 20
-88.34845814175075
 30
0.0
  0
VERTEX
  5
9A
  8
LAYER_2
 10
246.3873890452915
 20
-88.36966230074565
 30
0.0
  0
VERTEX
  5
9B
  8
LAYER_2
 10
246.348493109809
 20
-88.37730543348525
 30
0.0
  0
VERTEX
  5
9C
  8
LAYER_2
 10
242.4499799940322
 20
-88.37730543348525
 30
0.0
 42
1.0
  0
VERTEX
  5
9D
  8
LAYER_2
 10
242.4499799940322
 20
-92.39730543348524
 30
0.0
  0
VERTEX
  5
9E
  8
LAYER_2
 10
242.4499799940322
 20
-108.2757032606337
 30
0.0
  0
VERTEX
  5
9F
  8
LAYER_2
 10
242.4418187512292
 20
-108.3163022306231
 30
0.0
  0
VERTEX
  5
A0
  8
LAYER_2
 10
242.4197654300266
 20
-108.3484755198161
 30
0.0
  0
VERTEX
  5
A1
  8
LAYER_2
 10
242.3874656412337
 20
-108.3696594927046
 30
0.0
  0
VERTEX
  5
A2
  8
LAYER_2
 10
242.3485649956597
 20
-108.3772905137804
 30
0.0
  0
VERTEX
  5
A3
  8
LAYER_2
 10
226.4700379774306
 20
-108.3772905137804
 30
0.0
 42
1.0
  0
VERTEX
  5
A4
  8
LAYER_2
 10
222.4500379774306
 20
-108.3772905137804
 30
0.0
  0
VERTEX
  5
A5
  8
LAYER_2
 10
222.4500379774306
 20
-112.2757175021702
 30
0.0
  0
VERTEX
  5
A6
  8
LAYER_2
 10
222.4418626043532
 20
-112.3163097434574
 30
0.0
  0
VERTEX
  5
A7
  8
LAYER_2
 10
222.4197749667698
 20
-112.3484682295058
 30
0.0
  0
VERTEX
  5
A8
  8
LAYER_2
 10
222.3874327871534
 20
-112.3696373992496
 30
0.0
  0
VERTEX
  5
A9
  8
LAYER_2
 10
222.3484937879775
 20
-112.3772616916233
 30
0.0
  0
VERTEX
  5
AA
  8
LAYER_2
 10
162.3484954833984
 20
-112.3772616916233
 30
0.0
  0
VERTEX
  5
AB
  8
LAYER_2
 10
162.3078965134091
 20
-112.3690863185459
 30
0.0
  0
VERTEX
  5
AC
  8
LAYER_2
 10
162.2757232242161
 20
-112.3469986809625
 30
0.0
  0
VERTEX
  5
AD
  8
LAYER_2
 10
162.2545392513275
 20
-112.3146565013462
 30
0.0
  0
VERTEX
  5
AE
  8
LAYER_2
 10
162.2469082302517
 20
-112.2757175021702
 30
0.0
  0
VERTEX
  5
AF
  8
LAYER_2
 10
162.2469082302517
 20
-108.3772905137804
 30
0.0
 42
1.0
  0
VERTEX
  5
B0
  8
LAYER_2
 10
158.2269082302517
 20
-108.3772905137804
 30
0.0
  0
VERTEX
  5
B1
  8
LAYER_2
 10
142.3485104031033
 20
-108.3772905137804
 30
0.0
  0
VERTEX
  5
B2
  8
LAYER_2
 10
142.307911433114
 20
-108.3691144678328
 30
0.0
  0
VERTEX
  5
B3
  8
LAYER_2
 10
142.2757381439209
 20
-108.3470221201579
 30
0.0
  0
VERTEX
  5
B4
  8
LAYER_2
 10
142.2545541710324
 20
-108.3146671560076
 30
0.0
  0
VERTEX
  5
B5
  8
LAYER_2
 10
142.2469231499566
 20
-108.2757032606337
 30
0.0
  0
VERTEX
  5
B6
  8
LAYER_2
 10
142.2469231499566
 20
-92.39730543348524
 30
0.0
 42
1.0
  0
VERTEX
  5
B7
  8
LAYER_2
 10
142.2469231499566
 20
-88.37730543348525
 30
0.0
  0
VERTEX
  5
B8
  8
LAYER_2
 10
138.3485392252604
 20
-88.37730543348525
 30
0.0
  0
VERTEX
  5
B9
  8
LAYER_2
 10
138.3079086303711
 20
-88.36912333170574
 30
0.0
  0
VERTEX
  5
BA
  8
LAYER_2
 10
138.2757077534994
 20
-88.34702089097766
 30
0.0
  0
VERTEX
  5
BB
  8
LAYER_2
 10
138.2545042673747
 20
-88.3146639082167
 30
0.0
  0
VERTEX
  5
BC
  8
LAYER_2
 10
138.2468658447266
 20
-88.27571818033854
 30
0.0
  0
VERTEX
  5
BD
  8
LAYER_2
 10
138.2468658447266
 20
-28.27571987575956
 30
0.0
  0
VERTEX
  5
BE
  8
LAYER_2
 10
138.2550614039103
 20
-28.23510946697661
 30
0.0
  0
VERTEX
  5
BF
  8
LAYER_2
 10
138.2771934509278
 20
-28.20295299953888
 30
0.0
  0
VERTEX
  5
C0
  8
LAYER_2
 10
138.309580039978
 20
-28.18179392284822
 30
0.0
  0
VERTEX
  5
C1
  8
LAYER_2
 10
138.3485392252604
 20
-28.17417568630648
 30
0.0
  0
VERTEX
  5
C2
  8
LAYER_2
 10
142.2469231499566
 20
-28.17417568630648
 30
0.0
 42
1.0
  0
VERTEX
  5
C3
  8
LAYER_2
 10
142.2469231499566
 20
-24.15417568630648
 30
0.0
  0
VERTEX
  5
C4
  8
LAYER_2
 10
142.2469231499566
 20
-8.27569173177082
 30
0.0
  0
VERTEX
  5
C5
  8
LAYER_2
 10
142.2550991959042
 20
-8.235106219185742
 30
0.0
  0
VERTEX
  5
C6
  8
LAYER_2
 10
142.2771915435791
 20
-8.202962536282058
 30
0.0
  0
VERTEX
  5
C7
  8
LAYER_2
 10
142.3095465077294
 20
-8.181808169682892
 30
0.0
  0
VERTEX
  5
C8
  8
LAYER_2
 10
142.3485104031033
 20
-8.174190606011365
 30
0.0
  0
VERTEX
  5
C9
  8
LAYER_2
 10
158.2269082302517
 20
-8.174190606011365
 30
0.0
 42
1.0
  0
VERTEX
  5
CA
  8
LAYER_2
 10
162.2469082302517
 20
-8.174190606011365
 30
0.0
  0
VERTEX
  5
CB
  8
LAYER_2
 10
162.2469082302517
 20
-4.275720553927925
 30
0.0
  0
VERTEX
  5
CC
  8
LAYER_2
 10
162.2550903320313
 20
-4.235128312640718
 30
0.0
  0
VERTEX
  5
CD
  8
LAYER_2
 10
162.2771927727593
 20
-4.202969826592351
 30
0.0
  0
VERTEX
  5
CE
  8
LAYER_2
 10
162.3095497555203
 20
-4.181800656848502
 30
0.0
  0
SEQEND
  5
3C0
  8
LAYER_2
  0
POLYLINE
  5
71
  8
LAYER_2
 66
     1
 10
0.0
 20
0.0
 30
0.0
 70
     1
  0
VERTEX
  5
CF
  8
LAYER_2
 10
117.3331983778212
 20
-223.899265882704
 30
0.0
  0
VERTEX
  5
D0
  8
LAYER_2
 10
117.3331983778212
 20
-163.8993106418186
 30
0.0
  0
VERTEX
  5
D1
  8
LAYER_2
 10
117.3255868699816
 20
-163.8603649139404
 30
0.0
  0
VERTEX
  5
D2
  8
LAYER_2
 10
117.3044425964356
 20
-163.8280079311795
 30
0.0
  0
VERTEX
  5
D3
  8
LAYER_2
 10
117.2723009321425
 20
-163.8059054904514
 30
0.0
  0
VERTEX
  5
D4
  8
LAYER_2
 10
117.2316972520617
 20
-163.7977233886719
 30
0.0
  0
VERTEX
  5
D5
  8
LAYER_2
 10
113.3332271999783
 20
-163.7977233886719
 30
0.0
 42
-1.0
  0
VERTEX
  5
D6
  8
LAYER_2
 10
113.3332271999783
 20
-159.7777233886719
 30
0.0
  0
VERTEX
  5
D7
  8
LAYER_2
 10
113.3332271999783
 20
-143.8993255615235
 30
0.0
  0
VERTEX
  5
D8
  8
LAYER_2
 10
113.3256035804748
 20
-143.8603482087453
 30
0.0
  0
VERTEX
  5
D9
  8
LAYER_2
 10
113.3044391208225
 20
-143.8279636383057
 30
0.0
  0
VERTEX
  5
DA
  8
LAYER_2
 10
113.2722934193081
 20
-143.8058416843415
 30
0.0
  0
VERTEX
  5
DB
  8
LAYER_2
 10
113.2317260742188
 20
-143.7976521809896
 30
0.0
  0
VERTEX
  5
DC
  8
LAYER_2
 10
13.23171454535594
 20
-143.7976521809896
 30
0.0
  0
VERTEX
  5
DD
  8
LAYER_2
 10
13.19276545312672
 20
-143.8052966594696
 30
0.0
  0
VERTEX
  5
DE
  8
LAYER_2
 10
13.16040106879342
 20
-143.8265102386475
 30
0.0
  0
VERTEX
  5
DF
  8
LAYER_2
 10
13.138291226493
 20
-143.8587131341299
 30
0.0
  0
VERTEX
  5
E0
  8
LAYER_2
 10
13.13010576036243
 20
-143.8993255615235
 30
0.0
  0
VERTEX
  5
E1
  8
LAYER_2
 10
13.13010576036243
 20
-159.7777233886719
 30
0.0
 42
-1.0
  0
VERTEX
  5
E2
  8
LAYER_2
 10
13.13010576036243
 20
-163.7977233886719
 30
0.0
  0
VERTEX
  5
E3
  8
LAYER_2
 10
9.23170030381948
 20
-163.7977233886719
 30
0.0
  0
VERTEX
  5
E4
  8
LAYER_2
 10
9.192751211590258
 20
-163.8053483539157
 30
0.0
  0
VERTEX
  5
E5
  8
LAYER_2
 10
9.160386827256957
 20
-163.8265222337511
 30
0.0
  0
VERTEX
  5
E6
  8
LAYER_2
 10
9.138276984956539
 20
-163.8586935043335
 30
0.0
  0
VERTEX
  5
E7
  8
LAYER_2
 10
9.130091518825964
 20
-163.8993106418186
 30
0.0
  0
VERTEX
  5
E8
  8
LAYER_2
 10
9.130091518825964
 20
-223.899265882704
 30
0.0
  0
VERTEX
  5
E9
  8
LAYER_2
 10
9.137728932168763
 20
-223.9381685468886
 30
0.0
  0
VERTEX
  5
EA
  8
LAYER_2
 10
9.15892535315622
 20
-223.9705147637261
 30
0.0
  0
VERTEX
  5
EB
  8
LAYER_2
 10
9.19110705322693
 20
-223.9926225874159
 30
0.0
  0
VERTEX
  5
EC
  8
LAYER_2
 10
9.23170030381948
 20
-224.0008100721571
 30
0.0
  0
VERTEX
  5
ED
  8
LAYER_2
 10
13.13010576036243
 20
-224.0008100721571
 30
0.0
 42
-1.0
  0
VERTEX
  5
EE
  8
LAYER_2
 10
13.13010576036243
 20
-228.0208100721571
 30
0.0
  0
VERTEX
  5
EF
  8
LAYER_2
 10
13.13010576036243
 20
-243.8993370903863
 30
0.0
  0
VERTEX
  5
F0
  8
LAYER_2
 10
13.13010576036243
 20
-251.899279446072
 30
0.0
  0
VERTEX
  5
F1
  8
LAYER_2
 10
13.13774014578927
 20
-251.9381868203481
 30
0.0
  0
VERTEX
  5
F2
  8
LAYER_2
 10
13.15893152025013
 20
-251.9705014122857
 30
0.0
  0
VERTEX
  5
F3
  8
LAYER_2
 10
13.19111221101552
 20
-251.992569536633
 30
0.0
  0
VERTEX
  5
F4
  8
LAYER_2
 10
13.23171454535594
 20
-252.000737508138
 30
0.0
  0
VERTEX
  5
F5
  8
LAYER_2
 10
113.2317260742188
 20
-252.000737508138
 30
0.0
  0
VERTEX
  5
F6
  8
LAYER_2
 10
113.2706583446927
 20
-251.9931266731686
 30
0.0
  0
VERTEX
  5
F7
  8
LAYER_2
 10
113.3029857211643
 20
-251.9719871097141
 30
0.0
  0
VERTEX
  5
F8
  8
LAYER_2
 10
113.325058555603
 20
-251.939858229955
 30
0.0
  0
VERTEX
  5
F9
  8
LAYER_2
 10
113.3332271999783
 20
-251.899279446072
 30
0.0
  0
VERTEX
  5
FA
  8
LAYER_2
 10
113.3332271999783
 20
-243.8993370903863
 30
0.0
  0
VERTEX
  5
FB
  8
LAYER_2
 10
113.3332271999783
 20
-228.0208100721571
 30
0.0
 42
-1.0
  0
VERTEX
  5
FC
  8
LAYER_2
 10
113.3332271999783
 20
-224.0008100721571
 30
0.0
  0
VERTEX
  5
FD
  8
LAYER_2
 10
117.2316972520617
 20
-224.0008100721571
 30
0.0
  0
VERTEX
  5
FE
  8
LAYER_2
 10
117.2706476900313
 20
-223.9931797239516
 30
0.0
  0
VERTEX
  5
FF
  8
LAYER_2
 10
117.3029730478923
 20
-223.9720004611545
 30
0.0
  0
VERTEX
  5
100
  8
LAYER_2
 10
117.3250357892778
 20
-223.9398399564955
 30
0.0
  0
SEQEND
  5
3C1
  8
LAYER_2
  0
POLYLINE
  5
72
  8
LAYER_2
 66
     1
 10
0.0
 20
0.0
 30
0.0
 70
     1
  0
VERTEX
  5
101
  8
LAYER_2
 10
218.1309648301867
 20
-142.214070977105
 30
0.0
  0
VERTEX
  5
102
  8
LAYER_2
 10
136.1309743245443
 20
-142.214070977105
 30
0.0
  0
VERTEX
  5
103
  8
LAYER_2
 10
132.131046210395
 20
-142.214070977105
 30
0.0
  0
VERTEX
  5
104
  8
LAYER_2
 10
132.0920688576169
 20
-142.2217093997531
 30
0.0
  0
VERTEX
  5
105
  8
LAYER_2
 10
132.0596842871772
 20
-142.2429128858778
 30
0.0
  0
VERTEX
  5
106
  8
LAYER_2
 10
132.037562333213
 20
-142.2751137627496
 30
0.0
  0
VERTEX
  5
107
  8
LAYER_2
 10
132.0293728298611
 20
-142.3157443576389
 30
0.0
  0
VERTEX
  5
108
  8
LAYER_2
 10
132.0293728298611
 20
-162.1945482042101
 30
0.0
  0
VERTEX
  5
109
  8
LAYER_2
 10
132.0370112525092
 20
-162.2334872033861
 30
0.0
  0
VERTEX
  5
10A
  8
LAYER_2
 10
132.0582147386339
 20
-162.2658293830024
 30
0.0
  0
VERTEX
  5
10B
  8
LAYER_2
 10
132.0904156155057
 20
-162.2879170205858
 30
0.0
  0
VERTEX
  5
10C
  8
LAYER_2
 10
132.131046210395
 20
-162.2960923936632
 30
0.0
  0
VERTEX
  5
10D
  8
LAYER_2
 10
136.0294301350912
 20
-162.2960923936632
 30
0.0
 42
-1.0
  0
VERTEX
  5
10E
  8
LAYER_2
 10
136.0294301350912
 20
-166.3160923936632
 30
0.0
  0
VERTEX
  5
10F
  8
LAYER_2
 10
136.0294301350912
 20
-218.3112737358941
 30
0.0
 42
-1.0
  0
VERTEX
  5
110
  8
LAYER_2
 10
136.0294301350912
 20
-222.3312737358941
 30
0.0
  0
VERTEX
  5
111
  8
LAYER_2
 10
132.131046210395
 20
-222.3312737358941
 30
0.0
  0
VERTEX
  5
112
  8
LAYER_2
 10
132.0920688576169
 20
-222.3389087941911
 30
0.0
  0
VERTEX
  5
113
  8
LAYER_2
 10
132.0596842871772
 20
-222.3600887298584
 30
0.0
  0
VERTEX
  5
114
  8
LAYER_2
 10
132.037562333213
 20
-222.39222568406
 30
0.0
  0
VERTEX
  5
115
  8
LAYER_2
 10
132.0293728298611
 20
-222.4327317979601
 30
0.0
  0
VERTEX
  5
116
  8
LAYER_2
 10
132.0293728298611
 20
-242.3118370903863
 30
0.0
  0
VERTEX
  5
117
  8
LAYER_2
 10
132.0293728298611
 20
-250.3117794460721
 30
0.0
  0
VERTEX
  5
118
  8
LAYER_2
 10
132.0370112525092
 20
-250.3506868203481
 30
0.0
  0
VERTEX
  5
119
  8
LAYER_2
 10
132.0582147386339
 20
-250.3830014122857
 30
0.0
  0
VERTEX
  5
11A
  8
LAYER_2
 10
132.0904156155057
 20
-250.4050695366329
 30
0.0
  0
VERTEX
  5
11B
  8
LAYER_2
 10
132.131046210395
 20
-250.413237508138
 30
0.0
  0
VERTEX
  5
11C
  8
LAYER_2
 10
136.1309743245443
 20
-250.413237508138
 30
0.0
  0
VERTEX
  5
11D
  8
LAYER_2
 10
236.1309858534071
 20
-250.413237508138
 30
0.0
  0
VERTEX
  5
11E
  8
LAYER_2
 10
240.13095703125
 20
-250.413237508138
 30
0.0
  0
VERTEX
  5
11F
  8
LAYER_2
 10
240.1699141979218
 20
-250.4056266731686
 30
0.0
  0
VERTEX
  5
120
  8
LAYER_2
 10
240.2022543589274
 20
-250.3844871097141
 30
0.0
  0
VERTEX
  5
121
  8
LAYER_2
 10
240.2243319034576
 20
-250.352358229955
 30
0.0
  0
VERTEX
  5
122
  8
LAYER_2
 10
240.2325012207031
 20
-250.3117794460721
 30
0.0
  0
VERTEX
  5
123
  8
LAYER_2
 10
240.2325012207031
 20
-242.3118370903863
 30
0.0
  0
VERTEX
  5
124
  8
LAYER_2
 10
240.2325012207031
 20
-222.4329040527344
 30
0.0
  0
VERTEX
  5
125
  8
LAYER_2
 10
240.2248829841614
 20
-222.3939515961541
 30
0.0
  0
VERTEX
  5
126
  8
LAYER_2
 10
240.2037239074707
 20
-222.3615798102485
 30
0.0
  0
VERTEX
  5
127
  8
LAYER_2
 10
240.171567440033
 20
-222.3394625663757
 30
0.0
  0
VERTEX
  5
128
  8
LAYER_2
 10
240.13095703125
 20
-222.3312737358941
 30
0.0
  0
VERTEX
  5
129
  8
LAYER_2
 10
236.2324869791667
 20
-222.3312737358941
 30
0.0
 42
-1.0
  0
VERTEX
  5
12A
  8
LAYER_2
 10
236.2324869791667
 20
-218.3112737358941
 30
0.0
  0
VERTEX
  5
12B
  8
LAYER_2
 10
236.2324869791667
 20
-166.3160923936632
 30
0.0
 42
-1.0
  0
VERTEX
  5
12C
  8
LAYER_2
 10
236.2324869791667
 20
-162.2960923936632
 30
0.0
  0
VERTEX
  5
12D
  8
LAYER_2
 10
240.13095703125
 20
-162.2960923936632
 30
0.0
  0
VERTEX
  5
12E
  8
LAYER_2
 10
240.1699141979218
 20
-162.2884681012895
 30
0.0
  0
VERTEX
  5
12F
  8
LAYER_2
 10
240.2022543589274
 20
-162.2672989315457
 30
0.0
  0
VERTEX
  5
130
  8
LAYER_2
 10
240.2243319034576
 20
-162.2351404454973
 30
0.0
  0
VERTEX
  5
131
  8
LAYER_2
 10
240.2325012207031
 20
-162.1945482042101
 30
0.0
  0
VERTEX
  5
132
  8
LAYER_2
 10
240.2325012207031
 20
-142.3157443576389
 30
0.0
  0
VERTEX
  5
133
  8
LAYER_2
 10
240.2248829841614
 20
-142.2767670048608
 30
0.0
  0
VERTEX
  5
134
  8
LAYER_2
 10
240.2037239074707
 20
-142.2443824344211
 30
0.0
  0
VERTEX
  5
135
  8
LAYER_2
 10
240.171567440033
 20
-142.2222604804569
 30
0.0
  0
VERTEX
  5
136
  8
LAYER_2
 10
240.13095703125
 20
-142.214070977105
 30
0.0
  0
VERTEX
  5
137
  8
LAYER_2
 10
236.2324869791667
 20
-142.214070977105
 30
0.0
  0
VERTEX
  5
138
  8
LAYER_2
 10
236.2324869791667
 20
-140.3156941731771
 30
0.0
  0
VERTEX
  5
139
  8
LAYER_2
 10
236.221951703065
 20
-139.8989373329406
 30
0.0
  0
VERTEX
  5
13A
  8
LAYER_2
 10
236.1906844125854
 20
-139.4876345420877
 30
0.0
  0
VERTEX
  5
13B
  8
LAYER_2
 10
236.1391929144661
 20
-139.0822957679009
 30
0.0
  0
VERTEX
  5
13C
  8
LAYER_2
 10
236.0679850154453
 20
-138.6834309776624
 30
0.0
  0
VERTEX
  5
13D
  8
LAYER_2
 10
235.9775685222613
 20
-138.2915501386548
 30
0.0
  0
VERTEX
  5
13E
  8
LAYER_2
 10
235.8684512416522
 20
-137.9071632181605
 30
0.0
  0
VERTEX
  5
13F
  8
LAYER_2
 10
235.7411409803563
 20
-137.5307801834618
 30
0.0
  0
VERTEX
  5
140
  8
LAYER_2
 10
235.5961455451118
 20
-137.1629110018412
 30
0.0
  0
VERTEX
  5
141
  8
LAYER_2
 10
235.4339727426569
 20
-136.8040656405811
 30
0.0
  0
VERTEX
  5
142
  8
LAYER_2
 10
235.2551303797298
 20
-136.454754066964
 30
0.0
  0
VERTEX
  5
143
  8
LAYER_2
 10
235.0601262630688
 20
-136.1154862482722
 30
0.0
  0
VERTEX
  5
144
  8
LAYER_2
 10
234.8494681994121
 20
-135.7867721517881
 30
0.0
  0
VERTEX
  5
145
  8
LAYER_2
 10
234.6236639954978
 20
-135.4691217447942
 30
0.0
  0
VERTEX
  5
146
  8
LAYER_2
 10
234.3832214580642
 20
-135.1630449945728
 30
0.0
  0
VERTEX
  5
147
  8
LAYER_2
 10
234.1286483938496
 20
-134.8690518684065
 30
0.0
  0
VERTEX
  5
148
  8
LAYER_2
 10
233.8604526095921
 20
-134.5876523335775
 30
0.0
  0
VERTEX
  5
149
  8
LAYER_2
 10
233.5791419120299
 20
-134.3193563573683
 30
0.0
  0
VERTEX
  5
14A
  8
LAYER_2
 10
233.2852241079013
 20
-134.0646739070614
 30
0.0
  0
VERTEX
  5
14B
  8
LAYER_2
 10
232.9792070039445
 20
-133.8241149499392
 30
0.0
  0
VERTEX
  5
14C
  8
LAYER_2
 10
232.6615984068977
 20
-133.598189453284
 30
0.0
  0
VERTEX
  5
14D
  8
LAYER_2
 10
232.3329061234991
 20
-133.3874073843782
 30
0.0
  0
VERTEX
  5
14E
  8
LAYER_2
 10
231.993637960487
 20
-133.1922787105044
 30
0.0
  0
VERTEX
  5
14F
  8
LAYER_2
 10
231.6443017245995
 20
-133.0133133989449
 30
0.0
  0
VERTEX
  5
150
  8
LAYER_2
 10
231.2854052225749
 20
-132.851021416982
 30
0.0
  0
VERTEX
  5
151
  8
LAYER_2
 10
230.9174562611514
 20
-132.7059127318983
 30
0.0
  0
VERTEX
  5
152
  8
LAYER_2
 10
230.5409626470672
 20
-132.5784973109762
 30
0.0
  0
VERTEX
  5
153
  8
LAYER_2
 10
230.1564321870606
 20
-132.469285121498
 30
0.0
  0
VERTEX
  5
154
  8
LAYER_2
 10
229.7643726878697
 20
-132.3787861307462
 30
0.0
  0
VERTEX
  5
155
  8
LAYER_2
 10
229.3652919562327
 20
-132.3075103060032
 30
0.0
  0
VERTEX
  5
156
  8
LAYER_2
 10
228.9596977988879
 20
-132.2559676145514
 30
0.0
  0
VERTEX
  5
157
  8
LAYER_2
 10
228.5480980225736
 20
-132.2246680236732
 30
0.0
  0
VERTEX
  5
158
  8
LAYER_2
 10
228.1310004340278
 20
-132.214121500651
 30
0.0
  0
VERTEX
  5
159
  8
LAYER_2
 10
227.7142435937913
 20
-132.2246569016017
 30
0.0
  0
VERTEX
  5
15A
  8
LAYER_2
 10
227.3029408029385
 20
-132.2559245613714
 30
0.0
  0
VERTEX
  5
15B
  8
LAYER_2
 10
226.8976020287516
 20
-132.3074166653367
 30
0.0
  0
VERTEX
  5
15C
  8
LAYER_2
 10
226.4987372385131
 20
-132.3786253988742
 30
0.0
  0
VERTEX
  5
15D
  8
LAYER_2
 10
226.1068563995055
 20
-132.4690429473606
 30
0.0
  0
VERTEX
  5
15E
  8
LAYER_2
 10
225.7224694790112
 20
-132.5781614961723
 30
0.0
  0
VERTEX
  5
15F
  8
LAYER_2
 10
225.3460864443125
 20
-132.705473230686
 30
0.0
  0
VERTEX
  5
160
  8
LAYER_2
 10
224.9782172626919
 20
-132.8504703362783
 30
0.0
  0
VERTEX
  5
161
  8
LAYER_2
 10
224.6193719014319
 20
-133.0126449983256
 30
0.0
  0
VERTEX
  5
162
  8
LAYER_2
 10
224.2700603278147
 20
-133.1914894022048
 30
0.0
  0
VERTEX
  5
163
  8
LAYER_2
 10
223.9307925091229
 20
-133.3864957332922
 30
0.0
  0
VERTEX
  5
164
  8
LAYER_2
 10
223.6020784126388
 20
-133.5971561769644
 30
0.0
  0
VERTEX
  5
165
  8
LAYER_2
 10
223.2844280056448
 20
-133.8229629185982
 30
0.0
  0
VERTEX
  5
166
  8
LAYER_2
 10
222.9783512554235
 20
-134.06340814357
 30
0.0
  0
VERTEX
  5
167
  8
LAYER_2
 10
222.6843581292571
 20
-134.3179840372565
 30
0.0
  0
VERTEX
  5
168
  8
LAYER_2
 10
222.4029585944282
 20
-134.5861827850342
 30
0.0
  0
VERTEX
  5
169
  8
LAYER_2
 10
222.134662618219
 20
-134.8674965722797
 30
0.0
  0
VERTEX
  5
16A
  8
LAYER_2
 10
221.8799801679121
 20
-135.1614175843696
 30
0.0
  0
VERTEX
  5
16B
  8
LAYER_2
 10
221.6394212107898
 20
-135.4674380066805
 30
0.0
  0
VERTEX
  5
16C
  8
LAYER_2
 10
221.4134957141346
 20
-135.7850500245889
 30
0.0
  0
VERTEX
  5
16D
  8
LAYER_2
 10
221.2027136452289
 20
-136.1137458234715
 30
0.0
  0
VERTEX
  5
16E
  8
LAYER_2
 10
221.0075849713551
 20
-136.4530175887049
 30
0.0
  0
VERTEX
  5
16F
  8
LAYER_2
 10
220.8286196597955
 20
-136.8023575056655
 30
0.0
  0
VERTEX
  5
170
  8
LAYER_2
 10
220.6663276778327
 20
-137.16125775973
 30
0.0
  0
VERTEX
  5
171
  8
LAYER_2
 10
220.521218992749
 20
-137.5292105362751
 30
0.0
  0
VERTEX
  5
172
  8
LAYER_2
 10
220.3938035718269
 20
-137.9057080206772
 30
0.0
  0
VERTEX
  5
173
  8
LAYER_2
 10
220.2845913823487
 20
-138.2902423983129
 30
0.0
  0
VERTEX
  5
174
  8
LAYER_2
 10
220.1940923915969
 20
-138.682305854559
 30
0.0
  0
VERTEX
  5
175
  8
LAYER_2
 10
220.1228165668539
 20
-139.0813905747918
 30
0.0
  0
VERTEX
  5
176
  8
LAYER_2
 10
220.0712738754021
 20
-139.486988744388
 30
0.0
  0
VERTEX
  5
177
  8
LAYER_2
 10
220.0399742845239
 20
-139.8985925487243
 30
0.0
  0
VERTEX
  5
178
  8
LAYER_2
 10
220.0294277615017
 20
-140.3156941731771
 30
0.0
  0
VERTEX
  5
179
  8
LAYER_2
 10
220.0196089554992
 20
-140.5101656815244
 30
0.0
  0
VERTEX
  5
17A
  8
LAYER_2
 10
219.9907933202055
 20
-140.6989340470897
 30
0.0
  0
VERTEX
  5
17B
  8
LAYER_2
 10
219.9439420296914
 20
-140.8810550016661
 30
0.0
  0
VERTEX
  5
17C
  8
LAYER_2
 10
219.8800162580278
 20
-141.055584277047
 30
0.0
  0
VERTEX
  5
17D
  8
LAYER_2
 10
219.7999771792855
 20
-141.2215776050256
 30
0.0
  0
VERTEX
  5
17E
  8
LAYER_2
 10
219.7047859675354
 20
-141.3780907173951
 30
0.0
  0
VERTEX
  5
17F
  8
LAYER_2
 10
219.5954037968483
 20
-141.5241793459488
 30
0.0
  0
VERTEX
  5
180
  8
LAYER_2
 10
219.472791841295
 20
-141.6588992224799
 30
0.0
  0
VERTEX
  5
181
  8
LAYER_2
 10
219.3379112749464
 20
-141.7813060787817
 30
0.0
  0
VERTEX
  5
182
  8
LAYER_2
 10
219.1917232718733
 20
-141.8904556466474
 30
0.0
  0
VERTEX
  5
183
  8
LAYER_2
 10
219.0351890061465
 20
-141.9854036578702
 30
0.0
  0
VERTEX
  5
184
  8
LAYER_2
 10
218.8692696518368
 20
-142.0652058442434
 30
0.0
  0
VERTEX
  5
185
  8
LAYER_2
 10
218.6949263830152
 20
-142.1289179375602
 30
0.0
  0
VERTEX
  5
186
  8
LAYER_2
 10
218.5131203737524
 20
-142.1755956696139
 30
0.0
  0
VERTEX
  5
187
  8
LAYER_2
 10
218.3248127981193
 20
-142.2042947721978
 30
0.0
  0
SEQEND
  5
3C2
  8
LAYER_2
  0
POLYLINE
  5
73
  8
LAYER_2
 66
     1
 10
0.0
 20
0.0
 30
0.0
 70
     1
  0
VERTEX
  5
188
  8
LAYER_2
 10
229.3379896375869
 20
-143.924991522895
 30
0.0
  0
VERTEX
  5
189
  8
LAYER_2
 10
229.0410696758165
 20
-144.0083036210802
 30
0.0
  0
VERTEX
  5
18A
  8
LAYER_2
 10
228.7400166087681
 20
-144.0678122626411
 30
0.0
  0
VERTEX
  5
18B
  8
LAYER_2
 10
228.436208138201
 20
-144.1035174475776
 30
0.0
  0
VERTEX
  5
18C
  8
LAYER_2
 10
228.1310219658746
 20
-144.1154191758898
 30
0.0
  0
VERTEX
  5
18D
  8
LAYER_2
 10
227.8258357935482
 20
-144.1035174475776
 30
0.0
  0
VERTEX
  5
18E
  8
LAYER_2
 10
227.5220273229811
 20
-144.0678122626411
 30
0.0
  0
VERTEX
  5
18F
  8
LAYER_2
 10
227.2209742559327
 20
-144.0083036210802
 30
0.0
  0
VERTEX
  5
190
  8
LAYER_2
 10
226.9240542941623
 20
-143.924991522895
 30
0.0
  0
VERTEX
  5
191
  8
LAYER_2
 10
226.6358398430878
 20
-143.8172908233272
 30
0.0
  0
VERTEX
  5
192
  8
LAYER_2
 10
226.3579692575667
 20
-143.6880732483334
 30
0.0
  0
VERTEX
  5
193
  8
LAYER_2
 10
226.0916340225273
 20
-143.5381639050113
 30
0.0
  0
VERTEX
  5
194
  8
LAYER_2
 10
225.8380256228977
 20
-143.3683879004584
 30
0.0
  0
VERTEX
  5
195
  8
LAYER_2
 10
225.5983355436061
 20
-143.1795703417725
 30
0.0
  0
VERTEX
  5
196
  8
LAYER_2
 10
225.3737552695804
 20
-142.9725363360511
 30
0.0
  0
VERTEX
  5
197
  8
LAYER_2
 10
225.165476285749
 20
-142.7481109903918
 30
0.0
  0
VERTEX
  5
198
  8
LAYER_2
 10
224.97469007704
 20
-142.5071194118924
 30
0.0
  0
VERTEX
  5
199
  8
LAYER_2
 10
224.8037531190448
 20
-142.2505938675669
 30
0.0
  0
VERTEX
  5
19A
  8
LAYER_2
 10
224.6544092390272
 20
-141.9829064157274
 30
0.0
  0
VERTEX
  5
19B
  8
LAYER_2
 10
224.5270278427336
 20
-141.7053378648228
 30
0.0
  0
VERTEX
  5
19C
  8
LAYER_2
 10
224.4219783359104
 20
-141.4191690233019
 30
0.0
  0
VERTEX
  5
19D
  8
LAYER_2
 10
224.339630124304
 20
-141.1256806996134
 30
0.0
  0
VERTEX
  5
19E
  8
LAYER_2
 10
224.280352613661
 20
-140.8261537022061
 30
0.0
  0
VERTEX
  5
19F
  8
LAYER_2
 10
224.2445152097278
 20
-140.5218688395288
 30
0.0
  0
VERTEX
  5
1A0
  8
LAYER_2
 10
224.2324873182509
 20
-140.2141069200304
 30
0.0
  0
VERTEX
  5
1A1
  8
LAYER_2
 10
224.2445152097278
 20
-139.9063449164232
 30
0.0
  0
VERTEX
  5
1A2
  8
LAYER_2
 10
224.280352613661
 20
-139.6020594649845
 30
0.0
  0
VERTEX
  5
1A3
  8
LAYER_2
 10
224.339630124304
 20
-139.3025308695105
 30
0.0
  0
VERTEX
  5
1A4
  8
LAYER_2
 10
224.4219783359104
 20
-139.0090394337972
 30
0.0
  0
VERTEX
  5
1A5
  8
LAYER_2
 10
224.5270278427336
 20
-138.7228654616409
 30
0.0
  0
VERTEX
  5
1A6
  8
LAYER_2
 10
224.6544092390272
 20
-138.4452892568376
 30
0.0
  0
VERTEX
  5
1A7
  8
LAYER_2
 10
224.8037531190448
 20
-138.1775911231836
 30
0.0
  0
VERTEX
  5
1A8
  8
LAYER_2
 10
224.97469007704
 20
-137.9210513644748
 30
0.0
  0
VERTEX
  5
1A9
  8
LAYER_2
 10
225.165476285749
 20
-137.6800740003586
 30
0.0
  0
VERTEX
  5
1AA
  8
LAYER_2
 10
225.3737552695804
 20
-137.455659336514
 30
0.0
  0
VERTEX
  5
1AB
  8
LAYER_2
 10
225.5983355436061
 20
-137.2486329846912
 30
0.0
  0
VERTEX
  5
1AC
  8
LAYER_2
 10
225.8380256228977
 20
-137.0598205566407
 30
0.0
  0
VERTEX
  5
1AD
  8
LAYER_2
 10
226.0916340225273
 20
-136.8900476641126
 30
0.0
  0
VERTEX
  5
1AE
  8
LAYER_2
 10
226.3579692575667
 20
-136.7401399188572
 30
0.0
  0
VERTEX
  5
1AF
  8
LAYER_2
 10
226.6358398430878
 20
-136.6109229326248
 30
0.0
  0
VERTEX
  5
1B0
  8
LAYER_2
 10
226.9240542941623
 20
-136.5032223171658
 30
0.0
  0
VERTEX
  5
1B1
  8
LAYER_2
 10
227.2209742559327
 20
-136.4199102189806
 30
0.0
  0
VERTEX
  5
1B2
  8
LAYER_2
 10
227.5220273229811
 20
-136.3604015774197
 30
0.0
  0
VERTEX
  5
1B3
  8
LAYER_2
 10
227.8258357935482
 20
-136.3246963924832
 30
0.0
  0
VERTEX
  5
1B4
  8
LAYER_2
 10
228.1310219658746
 20
-136.312794664171
 30
0.0
  0
VERTEX
  5
1B5
  8
LAYER_2
 10
228.436208138201
 20
-136.3246963924832
 30
0.0
  0
VERTEX
  5
1B6
  8
LAYER_2
 10
228.7400166087681
 20
-136.3604015774197
 30
0.0
  0
VERTEX
  5
1B7
  8
LAYER_2
 10
229.0410696758165
 20
-136.4199102189806
 30
0.0
  0
VERTEX
  5
1B8
  8
LAYER_2
 10
229.3379896375869
 20
-136.5032223171658
 30
0.0
  0
VERTEX
  5
1B9
  8
LAYER_2
 10
229.626201985942
 20
-136.6109229326248
 30
0.0
  0
VERTEX
  5
1BA
  8
LAYER_2
 10
229.9040659268697
 20
-136.7401399188572
 30
0.0
  0
VERTEX
  5
1BB
  8
LAYER_2
 10
230.1703894707892
 20
-136.8900476641126
 30
0.0
  0
VERTEX
  5
1BC
  8
LAYER_2
 10
230.4239806281196
 20
-137.0598205566407
 30
0.0
  0
VERTEX
  5
1BD
  8
LAYER_2
 10
230.6636474092801
 20
-137.2486329846912
 30
0.0
  0
VERTEX
  5
1BE
  8
LAYER_2
 10
230.8881978246901
 20
-137.455659336514
 30
0.0
  0
VERTEX
  5
1BF
  8
LAYER_2
 10
231.0964398847685
 20
-137.6800740003586
 30
0.0
  0
VERTEX
  5
1C0
  8
LAYER_2
 10
231.2871815999349
 20
-137.9210513644748
 30
0.0
  0
VERTEX
  5
1C1
  8
LAYER_2
 10
231.4581556499004
 20
-138.1775911231836
 30
0.0
  0
VERTEX
  5
1C2
  8
LAYER_2
 10
231.6075169404348
 20
-138.4452892568376
 30
0.0
  0
VERTEX
  5
1C3
  8
LAYER_2
 10
231.7349006076654
 20
-138.7228654616409
 30
0.0
  0
VERTEX
  5
1C4
  8
LAYER_2
 10
231.8399417877197
 20
-139.0090394337972
 30
0.0
  0
VERTEX
  5
1C5
  8
LAYER_2
 10
231.9222756167252
 20
-139.3025308695105
 30
0.0
  0
VERTEX
  5
1C6
  8
LAYER_2
 10
231.9815372308095
 20
-139.6020594649845
 30
0.0
  0
VERTEX
  5
1C7
  8
LAYER_2
 10
232.0173617660999
 20
-139.9063449164232
 30
0.0
  0
VERTEX
  5
1C8
  8
LAYER_2
 10
232.0293843587239
 20
-140.2141069200304
 30
0.0
  0
VERTEX
  5
1C9
  8
LAYER_2
 10
232.0173617660999
 20
-140.5218688395288
 30
0.0
  0
VERTEX
  5
1CA
  8
LAYER_2
 10
231.9815372308095
 20
-140.8261537022061
 30
0.0
  0
VERTEX
  5
1CB
  8
LAYER_2
 10
231.9222756167252
 20
-141.1256806996134
 30
0.0
  0
VERTEX
  5
1CC
  8
LAYER_2
 10
231.8399417877197
 20
-141.4191690233019
 30
0.0
  0
VERTEX
  5
1CD
  8
LAYER_2
 10
231.7349006076654
 20
-141.7053378648228
 30
0.0
  0
VERTEX
  5
1CE
  8
LAYER_2
 10
231.6075169404348
 20
-141.9829064157274
 30
0.0
  0
VERTEX
  5
1CF
  8
LAYER_2
 10
231.4581556499004
 20
-142.2505938675669
 30
0.0
  0
VERTEX
  5
1D0
  8
LAYER_2
 10
231.2871815999349
 20
-142.5071194118924
 30
0.0
  0
VERTEX
  5
1D1
  8
LAYER_2
 10
231.0964398847685
 20
-142.7481109903918
 30
0.0
  0
VERTEX
  5
1D2
  8
LAYER_2
 10
230.8881978246901
 20
-142.9725363360511
 30
0.0
  0
VERTEX
  5
1D3
  8
LAYER_2
 10
230.6636474092801
 20
-143.1795703417725
 30
0.0
  0
VERTEX
  5
1D4
  8
LAYER_2
 10
230.4239806281196
 20
-143.3683879004584
 30
0.0
  0
VERTEX
  5
1D5
  8
LAYER_2
 10
230.1703894707892
 20
-143.5381639050113
 30
0.0
  0
VERTEX
  5
1D6
  8
LAYER_2
 10
229.9040659268697
 20
-143.6880732483334
 30
0.0
  0
VERTEX
  5
1D7
  8
LAYER_2
 10
229.626201985942
 20
-143.8172908233272
 30
0.0
  0
SEQEND
  5
3C3
  8
LAYER_2
  0
POLYLINE
  5
74
  8
LAYER_2
 66
     1
 10
0.0
 20
0.0
 30
0.0
 70
     1
  0
VERTEX
  5
1D8
  8
LAYER_2
 10
216.1465898301867
 20
-242.4993364122179
 30
0.0
  0
VERTEX
  5
1D9
  8
LAYER_2
 10
216.1465898301867
 20
-246.5343614366319
 30
0.0
 42
-1.0
  0
VERTEX
  5
1DA
  8
LAYER_2
 10
212.1265898301867
 20
-246.5343614366319
 30
0.0
  0
VERTEX
  5
1DB
  8
LAYER_2
 10
160.1313654242621
 20
-246.5343614366319
 30
0.0
 42
-1.0
  0
VERTEX
  5
1DC
  8
LAYER_2
 10
156.1113654242621
 20
-246.5343614366319
 30
0.0
  0
VERTEX
  5
1DD
  8
LAYER_2
 10
156.1113654242621
 20
-242.4993364122179
 30
0.0
 42
-1.0
  0
VERTEX
  5
1DE
  8
LAYER_2
 10
160.1313654242621
 20
-242.4993364122179
 30
0.0
  0
VERTEX
  5
1DF
  8
LAYER_2
 10
212.1265898301867
 20
-242.4993364122179
 30
0.0
 42
-1.0
  0
SEQEND
  5
3C4
  8
LAYER_2
  0
POLYLINE
  5
75
  8
LAYER_2
 66
     1
 10
0.0
 20
0.0
 30
0.0
 70
     1
  0
VERTEX
  5
1E0
  8
LAYER_2
 10
93.24341125488286
 20
-244.0868364122179
 30
0.0
  0
VERTEX
  5
1E1
  8
LAYER_2
 10
93.24341125488286
 20
-248.121861436632
 30
0.0
 42
-1.0
  0
VERTEX
  5
1E2
  8
LAYER_2
 10
89.22341125488286
 20
-248.121861436632
 30
0.0
  0
VERTEX
  5
1E3
  8
LAYER_2
 10
37.22820838080516
 20
-248.121861436632
 30
0.0
 42
-1.0
  0
VERTEX
  5
1E4
  8
LAYER_2
 10
33.20820838080516
 20
-248.121861436632
 30
0.0
  0
VERTEX
  5
1E5
  8
LAYER_2
 10
33.20820838080516
 20
-244.0868364122179
 30
0.0
 42
-1.0
  0
VERTEX
  5
1E6
  8
LAYER_2
 10
37.22820838080516
 20
-244.0868364122179
 30
0.0
  0
VERTEX
  5
1E7
  8
LAYER_2
 10
89.22341125488285
 20
-244.0868364122179
 30
0.0
 42
-1.0
  0
SEQEND
  5
3C5
  8
LAYER_2
  0
POLYLINE
  5
76
  8
LAYER_2
 66
     1
 10
0.0
 20
0.0
 30
0.0
 70
     1
  0
VERTEX
  5
1E8
  8
LAYER_2
 10
11.24662899441194
 20
-347.7243520100911
 30
0.0
  0
VERTEX
  5
1E9
  8
LAYER_2
 10
11.24662899441194
 20
-287.7243752373589
 30
0.0
  0
VERTEX
  5
1EA
  8
LAYER_2
 10
11.25424622164837
 20
-287.6854147063361
 30
0.0
  0
VERTEX
  5
1EB
  8
LAYER_2
 10
11.27539823320181
 20
-287.6530671437582
 30
0.0
  0
VERTEX
  5
1EC
  8
LAYER_2
 10
11.30753552383851
 20
-287.6309821976556
 30
0.0
  0
VERTEX
  5
1ED
  8
LAYER_2
 10
11.34810858832469
 20
-287.6228095160591
 30
0.0
  0
VERTEX
  5
1EE
  8
LAYER_2
 10
15.24662170410159
 20
-287.6228095160591
 30
0.0
 42
1.0
  0
VERTEX
  5
1EF
  8
LAYER_2
 10
15.24662170410159
 20
-283.6028095160591
 30
0.0
  0
VERTEX
  5
1F0
  8
LAYER_2
 10
15.24662170410159
 20
-267.7244116889105
 30
0.0
  0
VERTEX
  5
1F1
  8
LAYER_2
 10
15.25424229568908
 20
-267.6854410648346
 30
0.0
  0
VERTEX
  5
1F2
  8
LAYER_2
 10
15.27540170881487
 20
-267.6530712975396
 30
0.0
  0
VERTEX
  5
1F3
  8
LAYER_2
 10
15.30754640102391
 20
-267.63096414672
 30
0.0
  0
VERTEX
  5
1F4
  8
LAYER_2
 10
15.34812282986115
 20
-267.6227813720703
 30
0.0
  0
VERTEX
  5
1F5
  8
LAYER_2
 10
115.3480912950304
 20
-267.6227813720703
 30
0.0
  0
VERTEX
  5
1F6
  8
LAYER_2
 10
115.3870437516107
 20
-267.6304191218482
 30
0.0
  0
VERTEX
  5
1F7
  8
LAYER_2
 10
115.4194155375163
 20
-267.6516178978814
 30
0.0
  0
VERTEX
  5
1F8
  8
LAYER_2
 10
115.4415327813891
 20
-267.6838059902191
 30
0.0
  0
VERTEX
  5
1F9
  8
LAYER_2
 10
115.4497216118707
 20
-267.7244116889105
 30
0.0
  0
VERTEX
  5
1FA
  8
LAYER_2
 10
115.4497216118707
 20
-283.6028095160591
 30
0.0
 42
1.0
  0
VERTEX
  5
1FB
  8
LAYER_2
 10
115.4497216118707
 20
-287.6228095160591
 30
0.0
  0
VERTEX
  5
1FC
  8
LAYER_2
 10
119.3481486002605
 20
-287.6228095160591
 30
0.0
  0
VERTEX
  5
1FD
  8
LAYER_2
 10
119.3870875994365
 20
-287.6304432286157
 30
0.0
  0
VERTEX
  5
1FE
  8
LAYER_2
 10
119.4194297790527
 20
-287.6516298929851
 30
0.0
  0
VERTEX
  5
1FF
  8
LAYER_2
 10
119.4415174166361
 20
-287.6837977992163
 30
0.0
  0
VERTEX
  5
200
  8
LAYER_2
 10
119.4496927897135
 20
-287.7243752373589
 30
0.0
  0
VERTEX
  5
201
  8
LAYER_2
 10
119.4496927897135
 20
-347.7243520100911
 30
0.0
  0
VERTEX
  5
202
  8
LAYER_2
 10
119.4420563856761
 20
-347.7632546742757
 30
0.0
  0
VERTEX
  5
203
  8
LAYER_2
 10
119.4208670298259
 20
-347.7956008911133
 30
0.0
  0
VERTEX
  5
204
  8
LAYER_2
 10
119.3887045065562
 20
-347.817708714803
 30
0.0
  0
VERTEX
  5
205
  8
LAYER_2
 10
119.3481486002605
 20
-347.8258961995442
 30
0.0
  0
VERTEX
  5
206
  8
LAYER_2
 10
115.4497216118707
 20
-347.8258961995442
 30
0.0
 42
1.0
  0
VERTEX
  5
207
  8
LAYER_2
 10
115.4497216118707
 20
-351.8458961995442
 30
0.0
  0
VERTEX
  5
208
  8
LAYER_2
 10
115.4497216118707
 20
-367.7243801540799
 30
0.0
  0
VERTEX
  5
209
  8
LAYER_2
 10
115.4497216118707
 20
-375.7243871053059
 30
0.0
  0
VERTEX
  5
20A
  8
LAYER_2
 10
115.4420778062609
 20
-375.7632729477352
 30
0.0
  0
VERTEX
  5
20B
  8
LAYER_2
 10
115.4208689371745
 20
-375.7955821567111
 30
0.0
  0
VERTEX
  5
20C
  8
LAYER_2
 10
115.3886788262262
 20
-375.8176529725392
 30
0.0
  0
VERTEX
  5
20D
  8
LAYER_2
 10
115.3480912950304
 20
-375.8258236355251
 30
0.0
  0
VERTEX
  5
20E
  8
LAYER_2
 10
15.34812282986115
 20
-375.8258236355251
 30
0.0
  0
VERTEX
  5
20F
  8
LAYER_2
 10
15.30918147563939
 20
-375.8182101090749
 30
0.0
  0
VERTEX
  5
210
  8
LAYER_2
 10
15.27685510847307
 20
-375.7970678541395
 30
0.0
  0
VERTEX
  5
211
  8
LAYER_2
 10
15.25478732056091
 20
-375.7649443573421
 30
0.0
  0
VERTEX
  5
212
  8
LAYER_2
 10
15.24662170410159
 20
-375.7243871053059
 30
0.0
  0
VERTEX
  5
213
  8
LAYER_2
 10
15.24662170410159
 20
-367.7243801540799
 30
0.0
  0
VERTEX
  5
214
  8
LAYER_2
 10
15.24662170410159
 20
-351.8458961995442
 30
0.0
 42
1.0
  0
VERTEX
  5
215
  8
LAYER_2
 10
15.24662170410159
 20
-347.8258961995442
 30
0.0
  0
VERTEX
  5
216
  8
LAYER_2
 10
11.34810858832469
 20
-347.8258961995442
 30
0.0
  0
VERTEX
  5
217
  8
LAYER_2
 10
11.30917059845399
 20
-347.8182628234227
 30
0.0
  0
VERTEX
  5
218
  8
LAYER_2
 10
11.27685163286002
 20
-347.7970785140991
 30
0.0
  0
VERTEX
  5
219
  8
LAYER_2
 10
11.25479124652019
 20
-347.7649170001347
 30
0.0
  0
SEQEND
  5
3C6
  8
LAYER_2
  0
POLYLINE
  5
77
  8
LAYER_2
 66
     1
 10
0.0
 20
0.0
 30
0.0
 70
     1
  0
VERTEX
  5
21A
  8
LAYER_2
 10
39.35639458550351
 20
-371.9469690958658
 30
0.0
  0
VERTEX
  5
21B
  8
LAYER_2
 10
91.3515759277344
 20
-371.9469690958658
 30
0.0
 42
1.0
  0
VERTEX
  5
21C
  8
LAYER_2
 10
95.3715759277344
 20
-371.9469690958658
 30
0.0
  0
VERTEX
  5
21D
  8
LAYER_2
 10
95.3715759277344
 20
-367.9119010077583
 30
0.0
 42
1.0
  0
VERTEX
  5
21E
  8
LAYER_2
 10
91.3515759277344
 20
-367.9119010077583
 30
0.0
  0
VERTEX
  5
21F
  8
LAYER_2
 10
39.35639458550351
 20
-367.9119010077583
 30
0.0
 42
1.0
  0
VERTEX
  5
220
  8
LAYER_2
 10
35.33639458550351
 20
-367.9119010077583
 30
0.0
  0
VERTEX
  5
221
  8
LAYER_2
 10
35.33639458550351
 20
-371.9469690958658
 30
0.0
 42
1.0
  0
SEQEND
  5
3C7
  8
LAYER_2
  0
POLYLINE
  5
78
  8
LAYER_2
 66
     1
 10
0.0
 20
0.0
 30
0.0
 70
     1
  0
VERTEX
  5
222
  8
LAYER_2
 10
156.24740363227
 20
-266.0391571044922
 30
0.0
  0
VERTEX
  5
223
  8
LAYER_2
 10
238.2474372016059
 20
-266.0391571044922
 30
0.0
  0
VERTEX
  5
224
  8
LAYER_2
 10
242.2474083794488
 20
-266.0391571044922
 30
0.0
  0
VERTEX
  5
225
  8
LAYER_2
 10
242.2863359398312
 20
-266.0467941813999
 30
0.0
  0
VERTEX
  5
226
  8
LAYER_2
 10
242.3186949412028
 20
-266.0679882473416
 30
0.0
  0
VERTEX
  5
227
  8
LAYER_2
 10
242.3408074749841
 20
-266.1001635551453
 30
0.0
  0
VERTEX
  5
228
  8
LAYER_2
 10
242.3489956325955
 20
-266.1407443576389
 30
0.0
  0
VERTEX
  5
229
  8
LAYER_2
 10
242.3489956325955
 20
-286.0196773952908
 30
0.0
  0
VERTEX
  5
22A
  8
LAYER_2
 10
242.3413646115197
 20
-286.0586163944668
 30
0.0
  0
VERTEX
  5
22B
  8
LAYER_2
 10
242.3201806386312
 20
-286.0909585740831
 30
0.0
  0
VERTEX
  5
22C
  8
LAYER_2
 10
242.2880073494381
 20
-286.1130462116665
 30
0.0
  0
VERTEX
  5
22D
  8
LAYER_2
 10
242.2474083794488
 20
-286.1212215847439
 30
0.0
  0
VERTEX
  5
22E
  8
LAYER_2
 10
238.348981391059
 20
-286.1212215847439
 30
0.0
 42
1.0
  0
VERTEX
  5
22F
  8
LAYER_2
 10
238.348981391059
 20
-290.1412215847439
 30
0.0
  0
VERTEX
  5
230
  8
LAYER_2
 10
238.348981391059
 20
-342.1363598632813
 30
0.0
 42
1.0
  0
VERTEX
  5
231
  8
LAYER_2
 10
238.348981391059
 20
-346.1563598632813
 30
0.0
  0
VERTEX
  5
232
  8
LAYER_2
 10
242.2474083794488
 20
-346.1563598632813
 30
0.0
  0
VERTEX
  5
233
  8
LAYER_2
 10
242.2863359398312
 20
-346.1639932394028
 30
0.0
  0
VERTEX
  5
234
  8
LAYER_2
 10
242.3186949412028
 20
-346.1851775487264
 30
0.0
  0
VERTEX
  5
235
  8
LAYER_2
 10
242.3408074749841
 20
-346.2173390626907
 30
0.0
  0
VERTEX
  5
236
  8
LAYER_2
 10
242.3489956325955
 20
-346.2579040527344
 30
0.0
  0
VERTEX
  5
237
  8
LAYER_2
 10
242.3489956325955
 20
-366.1368801540799
 30
0.0
  0
VERTEX
  5
238
  8
LAYER_2
 10
242.3489956325955
 20
-374.136887105306
 30
0.0
  0
VERTEX
  5
239
  8
LAYER_2
 10
242.3413646115197
 20
-374.1757729477353
 30
0.0
  0
VERTEX
  5
23A
  8
LAYER_2
 10
242.3201806386312
 20
-374.2080821567112
 30
0.0
  0
VERTEX
  5
23B
  8
LAYER_2
 10
242.2880073494381
 20
-374.2301529725393
 30
0.0
  0
VERTEX
  5
23C
  8
LAYER_2
 10
242.2474083794488
 20
-374.2383236355251
 30
0.0
  0
VERTEX
  5
23D
  8
LAYER_2
 10
238.2474372016059
 20
-374.2383236355251
 30
0.0
  0
VERTEX
  5
23E
  8
LAYER_2
 10
138.2474256727431
 20
-374.2383236355251
 30
0.0
  0
VERTEX
  5
23F
  8
LAYER_2
 10
134.2474544949002
 20
-374.2383236355251
 30
0.0
  0
VERTEX
  5
240
  8
LAYER_2
 10
134.2084905995263
 20
-374.2307101090749
 30
0.0
  0
VERTEX
  5
241
  8
LAYER_2
 10
134.176135635376
 20
-374.2095678541396
 30
0.0
  0
VERTEX
  5
242
  8
LAYER_2
 10
134.1540432877011
 20
-374.1774443573422
 30
0.0
  0
VERTEX
  5
243
  8
LAYER_2
 10
134.1458672417535
 20
-374.136887105306
 30
0.0
  0
VERTEX
  5
244
  8
LAYER_2
 10
134.1458672417535
 20
-366.1368801540799
 30
0.0
  0
VERTEX
  5
245
  8
LAYER_2
 10
134.1458672417535
 20
-346.2579901801215
 30
0.0
  0
VERTEX
  5
246
  8
LAYER_2
 10
134.1534922069974
 20
-346.2190377235412
 30
0.0
  0
VERTEX
  5
247
  8
LAYER_2
 10
134.1746660868327
 20
-346.1866659376356
 30
0.0
  0
VERTEX
  5
248
  8
LAYER_2
 10
134.2068373574151
 20
-346.1645486937629
 30
0.0
  0
VERTEX
  5
249
  8
LAYER_2
 10
134.2474544949002
 20
-346.1563598632813
 30
0.0
  0
VERTEX
  5
24A
  8
LAYER_2
 10
138.1459245469835
 20
-346.1563598632813
 30
0.0
 42
1.0
  0
VERTEX
  5
24B
  8
LAYER_2
 10
138.1459245469835
 20
-342.1363598632813
 30
0.0
  0
VERTEX
  5
24C
  8
LAYER_2
 10
138.1459245469835
 20
-290.1412215847439
 30
0.0
 42
1.0
  0
VERTEX
  5
24D
  8
LAYER_2
 10
138.1459245469835
 20
-286.1212215847439
 30
0.0
  0
VERTEX
  5
24E
  8
LAYER_2
 10
134.2474544949002
 20
-286.1212215847439
 30
0.0
  0
VERTEX
  5
24F
  8
LAYER_2
 10
134.2084905995263
 20
-286.1136003202862
 30
0.0
  0
VERTEX
  5
250
  8
LAYER_2
 10
134.176135635376
 20
-286.0924361970689
 30
0.0
  0
VERTEX
  5
251
  8
LAYER_2
 10
134.1540432877011
 20
-286.0602787203259
 30
0.0
  0
VERTEX
  5
252
  8
LAYER_2
 10
134.1458672417535
 20
-286.0196773952908
 30
0.0
  0
VERTEX
  5
253
  8
LAYER_2
 10
134.1458672417535
 20
-266.1407443576389
 30
0.0
  0
VERTEX
  5
254
  8
LAYER_2
 10
134.1534922069974
 20
-266.1018167972564
 30
0.0
  0
VERTEX
  5
255
  8
LAYER_2
 10
134.1746660868327
 20
-266.0694577958849
 30
0.0
  0
VERTEX
  5
256
  8
LAYER_2
 10
134.2068373574151
 20
-266.0473452621036
 30
0.0
  0
VERTEX
  5
257
  8
LAYER_2
 10
134.2474544949002
 20
-266.0391571044922
 30
0.0
  0
VERTEX
  5
258
  8
LAYER_2
 10
138.1459245469835
 20
-266.0391571044922
 30
0.0
  0
VERTEX
  5
259
  8
LAYER_2
 10
138.1459245469835
 20
-264.1407372368707
 30
0.0
  0
VERTEX
  5
25A
  8
LAYER_2
 10
138.1564599453058
 20
-263.7239843090065
 30
0.0
  0
VERTEX
  5
25B
  8
LAYER_2
 10
138.1877275866767
 20
-263.3126851860848
 30
0.0
  0
VERTEX
  5
25C
  8
LAYER_2
 10
138.2392196407024
 20
-262.9073498432732
 30
0.0
  0
VERTEX
  5
25D
  8
LAYER_2
 10
138.3104282769892
 20
-262.5084882557392
 30
0.0
  0
VERTEX
  5
25E
  8
LAYER_2
 10
138.4008456651432
 20
-262.1166103986506
 30
0.0
  0
VERTEX
  5
25F
  8
LAYER_2
 10
138.5099639747706
 20
-261.7322262471749
 30
0.0
  0
VERTEX
  5
260
  8
LAYER_2
 10
138.6372753754775
 20
-261.3558457764797
 30
0.0
  0
VERTEX
  5
261
  8
LAYER_2
 10
138.7822720368703
 20
-260.9879789617327
 30
0.0
  0
VERTEX
  5
262
  8
LAYER_2
 10
138.9444461285551
 20
-260.6291357781014
 30
0.0
  0
VERTEX
  5
263
  8
LAYER_2
 10
139.123289820138
 20
-260.2798262007535
 30
0.0
  0
VERTEX
  5
264
  8
LAYER_2
 10
139.3182952812252
 20
-259.9405602048565
 30
0.0
  0
VERTEX
  5
265
  8
LAYER_2
 10
139.528954681423
 20
-259.6118477655782
 30
0.0
  0
VERTEX
  5
266
  8
LAYER_2
 10
139.7547601903375
 20
-259.294198858086
 30
0.0
  0
VERTEX
  5
267
  8
LAYER_2
 10
139.9952039775749
 20
-258.9881234575477
 30
0.0
  0
VERTEX
  5
268
  8
LAYER_2
 10
140.2497782127415
 20
-258.6941315391308
 30
0.0
  0
VERTEX
  5
269
  8
LAYER_2
 10
140.5179750654433
 20
-258.4127330780029
 30
0.0
  0
VERTEX
  5
26A
  8
LAYER_2
 10
140.7992867052866
 20
-258.1444380493317
 30
0.0
  0
VERTEX
  5
26B
  8
LAYER_2
 10
141.0932053018776
 20
-257.8897564282847
 30
0.0
  0
VERTEX
  5
26C
  8
LAYER_2
 10
141.3992230248224
 20
-257.6491981900297
 30
0.0
  0
VERTEX
  5
26D
  8
LAYER_2
 10
141.7168320437273
 20
-257.4232733097341
 30
0.0
  0
VERTEX
  5
26E
  8
LAYER_2
 10
142.0455245281984
 20
-257.2124917625656
 30
0.0
  0
VERTEX
  5
26F
  8
LAYER_2
 10
142.3847926478419
 20
-257.0173635236919
 30
0.0
  0
VERTEX
  5
270
  8
LAYER_2
 10
142.7341285722641
 20
-256.8383985682805
 30
0.0
  0
VERTEX
  5
271
  8
LAYER_2
 10
143.0930244710711
 20
-256.676106871499
 30
0.0
  0
VERTEX
  5
272
  8
LAYER_2
 10
143.460972513869
 20
-256.530998408515
 30
0.0
  0
VERTEX
  5
273
  8
LAYER_2
 10
143.8374648702642
 20
-256.4035831544962
 30
0.0
  0
VERTEX
  5
274
  8
LAYER_2
 10
144.2219937098627
 20
-256.2943710846102
 30
0.0
  0
VERTEX
  5
275
  8
LAYER_2
 10
144.6140512022708
 20
-256.2038721740246
 30
0.0
  0
VERTEX
  5
276
  8
LAYER_2
 10
145.0131295170946
 20
-256.132596397907
 30
0.0
  0
VERTEX
  5
277
  8
LAYER_2
 10
145.4187208239403
 20
-256.081053731425
 30
0.0
  0
VERTEX
  5
278
  8
LAYER_2
 10
145.8303172924142
 20
-256.0497541497461
 30
0.0
  0
VERTEX
  5
279
  8
LAYER_2
 10
146.2474110921224
 20
-256.0392076280382
 30
0.0
  0
VERTEX
  5
27A
  8
LAYER_2
 10
146.6641679323589
 20
-256.0497431498952
 30
0.0
  0
VERTEX
  5
27B
  8
LAYER_2
 10
147.0754707232118
 20
-256.0810111513568
 30
0.0
  0
VERTEX
  5
27C
  8
LAYER_2
 10
147.4808094973987
 20
-256.1325037862588
 30
0.0
  0
VERTEX
  5
27D
  8
LAYER_2
 10
147.8796742876371
 20
-256.203713208437
 30
0.0
  0
VERTEX
  5
27E
  8
LAYER_2
 10
148.2715551266447
 20
-256.2941315717271
 30
0.0
  0
VERTEX
  5
27F
  8
LAYER_2
 10
148.655942047139
 20
-256.403251029965
 30
0.0
  0
VERTEX
  5
280
  8
LAYER_2
 10
149.0323250818377
 20
-256.5305637369863
 30
0.0
  0
VERTEX
  5
281
  8
LAYER_2
 10
149.4001942634583
 20
-256.6755618466271
 30
0.0
  0
VERTEX
  5
282
  8
LAYER_2
 10
149.7590396247184
 20
-256.837737512723
 30
0.0
  0
VERTEX
  5
283
  8
LAYER_2
 10
150.1083511983355
 20
-257.0165828891098
 30
0.0
  0
VERTEX
  5
284
  8
LAYER_2
 10
150.4476190170273
 20
-257.2115901296233
 30
0.0
  0
VERTEX
  5
285
  8
LAYER_2
 10
150.7763331135114
 20
-257.4222513880994
 30
0.0
  0
VERTEX
  5
286
  8
LAYER_2
 10
151.0939835205053
 20
-257.6480588183738
 30
0.0
  0
VERTEX
  5
287
  8
LAYER_2
 10
151.4000602707267
 20
-257.8885045742823
 30
0.0
  0
VERTEX
  5
288
  8
LAYER_2
 10
151.6940533968931
 20
-258.1430808096607
 30
0.0
  0
VERTEX
  5
289
  8
LAYER_2
 10
151.975452931722
 20
-258.4112796783447
 30
0.0
  0
VERTEX
  5
28A
  8
LAYER_2
 10
152.2437489079312
 20
-258.6925933341703
 30
0.0
  0
VERTEX
  5
28B
  8
LAYER_2
 10
152.4984313582381
 20
-258.9865139309731
 30
0.0
  0
VERTEX
  5
28C
  8
LAYER_2
 10
152.7389903153603
 20
-259.292533622589
 30
0.0
  0
VERTEX
  5
28D
  8
LAYER_2
 10
152.9649158120155
 20
-259.6101445628537
 30
0.0
  0
VERTEX
  5
28E
  8
LAYER_2
 10
153.1756978809213
 20
-259.9388389056031
 30
0.0
  0
VERTEX
  5
28F
  8
LAYER_2
 10
153.3708265547951
 20
-260.278108804673
 30
0.0
  0
VERTEX
  5
290
  8
LAYER_2
 10
153.5497918663546
 20
-260.6274464138991
 30
0.0
  0
VERTEX
  5
291
  8
LAYER_2
 10
153.7120838483175
 20
-260.9863438871172
 30
0.0
  0
VERTEX
  5
292
  8
LAYER_2
 10
153.8571925334012
 20
-261.3542933781631
 30
0.0
  0
VERTEX
  5
293
  8
LAYER_2
 10
153.9846079543233
 20
-261.7307870408727
 30
0.0
  0
VERTEX
  5
294
  8
LAYER_2
 10
154.0938201438015
 20
-262.1153170290817
 30
0.0
  0
VERTEX
  5
295
  8
LAYER_2
 10
154.1843191345533
 20
-262.5073754966259
 30
0.0
  0
VERTEX
  5
296
  8
LAYER_2
 10
154.2555949592963
 20
-262.9064545973411
 30
0.0
  0
VERTEX
  5
297
  8
LAYER_2
 10
154.3071376507481
 20
-263.3120464850631
 30
0.0
  0
VERTEX
  5
298
  8
LAYER_2
 10
154.3384372416263
 20
-263.7236433136277
 30
0.0
  0
VERTEX
  5
299
  8
LAYER_2
 10
154.3489837646484
 20
-264.1407372368707
 30
0.0
  0
VERTEX
  5
29A
  8
LAYER_2
 10
154.3588020870255
 20
-264.3352163255215
 30
0.0
  0
VERTEX
  5
29B
  8
LAYER_2
 10
154.3876163555516
 20
-264.5239913251665
 30
0.0
  0
VERTEX
  5
29C
  8
LAYER_2
 10
154.4344655223191
 20
-264.7061180306806
 30
0.0
  0
VERTEX
  5
29D
  8
LAYER_2
 10
154.4983885394202
 20
-264.8806522369385
 30
0.0
  0
VERTEX
  5
29E
  8
LAYER_2
 10
154.5784243589474
 20
-265.0466497388152
 30
0.0
  0
VERTEX
  5
29F
  8
LAYER_2
 10
154.6736119329929
 20
-265.2031663311853
 30
0.0
  0
VERTEX
  5
2A0
  8
LAYER_2
 10
154.7829902136492
 20
-265.3492578089238
 30
0.0
  0
VERTEX
  5
2A1
  8
LAYER_2
 10
154.9055981530084
 20
-265.4839799669055
 30
0.0
  0
VERTEX
  5
2A2
  8
LAYER_2
 10
155.0404747031629
 20
-265.6063886000051
 30
0.0
  0
VERTEX
  5
2A3
  8
LAYER_2
 10
155.1866588162051
 20
-265.7155395030976
 30
0.0
  0
VERTEX
  5
2A4
  8
LAYER_2
 10
155.3431894442274
 20
-265.8104884710577
 30
0.0
  0
VERTEX
  5
2A5
  8
LAYER_2
 10
155.5091055393219
 20
-265.8902912987604
 30
0.0
  0
VERTEX
  5
2A6
  8
LAYER_2
 10
155.6834460535811
 20
-265.9540037810803
 30
0.0
  0
VERTEX
  5
2A7
  8
LAYER_2
 10
155.8652499390973
 20
-266.0006817128924
 30
0.0
  0
VERTEX
  5
2A8
  8
LAYER_2
 10
156.0535561479628
 20
-266.0293808890714
 30
0.0
  0
SEQEND
  5
3C8
  8
LAYER_2
  0
POLYLINE
  5
79
  8
LAYER_2
 66
     1
 10
0.0
 20
0.0
 30
0.0
 70
     1
  0
VERTEX
  5
2A9
  8
LAYER_2
 10
145.0403788248698
 20
-267.7500776502822
 30
0.0
  0
VERTEX
  5
2AA
  8
LAYER_2
 10
145.3373236828381
 20
-267.8333756181929
 30
0.0
  0
VERTEX
  5
2AB
  8
LAYER_2
 10
145.6383895344205
 20
-267.8928741667006
 30
0.0
  0
VERTEX
  5
2AC
  8
LAYER_2
 10
145.942202715079
 20
-267.9285732958052
 30
0.0
  0
VERTEX
  5
2AD
  8
LAYER_2
 10
146.2473895602756
 20
-267.9404730055068
 30
0.0
  0
VERTEX
  5
2AE
  8
LAYER_2
 10
146.5525764054722
 20
-267.9285732958052
 30
0.0
  0
VERTEX
  5
2AF
  8
LAYER_2
 10
146.8563895861308
 20
-267.8928741667006
 30
0.0
  0
VERTEX
  5
2B0
  8
LAYER_2
 10
147.1574554377132
 20
-267.8333756181929
 30
0.0
  0
VERTEX
  5
2B1
  8
LAYER_2
 10
147.4544002956815
 20
-267.7500776502822
 30
0.0
  0
VERTEX
  5
2B2
  8
LAYER_2
 10
147.7425986819798
 20
-267.64237518443
 30
0.0
  0
VERTEX
  5
2B3
  8
LAYER_2
 10
148.0204537073772
 20
-267.5131533198887
 30
0.0
  0
VERTEX
  5
2B4
  8
LAYER_2
 10
148.2867743915982
 20
-267.3632386777136
 30
0.0
  0
VERTEX
  5
2B5
  8
LAYER_2
 10
148.5403697543674
 20
-267.1934578789605
 30
0.0
  0
VERTEX
  5
2B6
  8
LAYER_2
 10
148.7800488154094
 20
-267.0046375446849
 30
0.0
  0
VERTEX
  5
2B7
  8
LAYER_2
 10
149.0046205944486
 20
-266.7976042959425
 30
0.0
  0
VERTEX
  5
2B8
  8
LAYER_2
 10
149.2128941112095
 20
-266.5731847537888
 30
0.0
  0
VERTEX
  5
2B9
  8
LAYER_2
 10
149.4036783854167
 20
-266.3322055392795
 30
0.0
  0
VERTEX
  5
2BA
  8
LAYER_2
 10
149.5746277074019
 20
-266.0756816771295
 30
0.0
  0
VERTEX
  5
2BB
  8
LAYER_2
 10
149.7239773909251
 20
-265.8079979260763
 30
0.0
  0
VERTEX
  5
2BC
  8
LAYER_2
 10
149.8513595441977
 20
-265.5304330759578
 30
0.0
  0
VERTEX
  5
2BD
  8
LAYER_2
 10
149.9564062754313
 20
-265.2442659166124
 30
0.0
  0
VERTEX
  5
2BE
  8
LAYER_2
 10
150.0387496928374
 20
-264.9507752378781
 30
0.0
  0
VERTEX
  5
2BF
  8
LAYER_2
 10
150.0980219046275
 20
-264.6512398295932
 30
0.0
  0
VERTEX
  5
2C0
  8
LAYER_2
 10
150.1338550190131
 20
-264.3469384815958
 30
0.0
  0
VERTEX
  5
2C1
  8
LAYER_2
 10
150.1458811442058
 20
-264.039149983724
 30
0.0
  0
VERTEX
  5
2C2
  8
LAYER_2
 10
150.1338550190131
 20
-263.7314005123245
 30
0.0
  0
VERTEX
  5
2C3
  8
LAYER_2
 10
150.0980219046275
 20
-263.4271220419142
 30
0.0
  0
VERTEX
  5
2C4
  8
LAYER_2
 10
150.0387496928374
 20
-263.1275973995527
 30
0.0
  0
VERTEX
  5
2C5
  8
LAYER_2
 10
149.9564062754313
 20
-262.8341094122993
 30
0.0
  0
VERTEX
  5
2C6
  8
LAYER_2
 10
149.8513595441977
 20
-262.5479409072134
 30
0.0
  0
VERTEX
  5
2C7
  8
LAYER_2
 10
149.7239773909251
 20
-262.2703747113546
 30
0.0
  0
VERTEX
  5
2C8
  8
LAYER_2
 10
149.5746277074019
 20
-262.0026936517822
 30
0.0
  0
VERTEX
  5
2C9
  8
LAYER_2
 10
149.4036783854167
 20
-261.7461805555556
 30
0.0
  0
VERTEX
  5
2CA
  8
LAYER_2
 10
149.2128941112095
 20
-261.5052013410463
 30
0.0
  0
VERTEX
  5
2CB
  8
LAYER_2
 10
149.0046205944486
 20
-261.2807817988926
 30
0.0
  0
VERTEX
  5
2CC
  8
LAYER_2
 10
148.7800488154094
 20
-261.0737485501502
 30
0.0
  0
VERTEX
  5
2CD
  8
LAYER_2
 10
148.5403697543674
 20
-260.8849282158746
 30
0.0
  0
VERTEX
  5
2CE
  8
LAYER_2
 10
148.2867743915982
 20
-260.7151474171214
 30
0.0
  0
VERTEX
  5
2CF
  8
LAYER_2
 10
148.0204537073772
 20
-260.5652327749464
 30
0.0
  0
VERTEX
  5
2D0
  8
LAYER_2
 10
147.7425986819798
 20
-260.4360109104051
 30
0.0
  0
VERTEX
  5
2D1
  8
LAYER_2
 10
147.4544002956815
 20
-260.3283084445529
 30
0.0
  0
VERTEX
  5
2D2
  8
LAYER_2
 10
147.1574554377132
 20
-260.2449963463678
 30
0.0
  0
VERTEX
  5
2D3
  8
LAYER_2
 10
146.8563895861308
 20
-260.1854877048069
 30
0.0
  0
VERTEX
  5
2D4
  8
LAYER_2
 10
146.5525764054722
 20
-260.1497825198703
 30
0.0
  0
VERTEX
  5
2D5
  8
LAYER_2
 10
146.2473895602756
 20
-260.1378807915582
 30
0.0
  0
VERTEX
  5
2D6
  8
LAYER_2
 10
145.942202715079
 20
-260.1497825198703
 30
0.0
  0
VERTEX
  5
2D7
  8
LAYER_2
 10
145.6383895344205
 20
-260.1854877048069
 30
0.0
  0
VERTEX
  5
2D8
  8
LAYER_2
 10
145.3373236828381
 20
-260.2449963463678
 30
0.0
  0
VERTEX
  5
2D9
  8
LAYER_2
 10
145.0403788248698
 20
-260.3283084445529
 30
0.0
  0
VERTEX
  5
2DA
  8
LAYER_2
 10
144.7521806067891
 20
-260.4360109104051
 30
0.0
  0
VERTEX
  5
2DB
  8
LAYER_2
 10
144.4743267589146
 20
-260.5652327749464
 30
0.0
  0
VERTEX
  5
2DC
  8
LAYER_2
 10
144.208009270827
 20
-260.7151474171214
 30
0.0
  0
VERTEX
  5
2DD
  8
LAYER_2
 10
143.9544201321073
 20
-260.8849282158746
 30
0.0
  0
VERTEX
  5
2DE
  8
LAYER_2
 10
143.714751332336
 20
-261.0737485501502
 30
0.0
  0
VERTEX
  5
2DF
  8
LAYER_2
 10
143.4901948610942
 20
-261.2807817988926
 30
0.0
  0
VERTEX
  5
2E0
  8
LAYER_2
 10
143.2819427079625
 20
-261.5052013410463
 30
0.0
  0
VERTEX
  5
2E1
  8
LAYER_2
 10
143.0911868625217
 20
-261.7461805555556
 30
0.0
  0
VERTEX
  5
2E2
  8
LAYER_2
 10
142.9202375405365
 20
-262.0026936517822
 30
0.0
  0
VERTEX
  5
2E3
  8
LAYER_2
 10
142.7708878570133
 20
-262.2703747113546
 30
0.0
  0
VERTEX
  5
2E4
  8
LAYER_2
 10
142.6435057037407
 20
-262.5479409072134
 30
0.0
  0
VERTEX
  5
2E5
  8
LAYER_2
 10
142.5384589725071
 20
-262.8341094122993
 30
0.0
  0
VERTEX
  5
2E6
  8
LAYER_2
 10
142.456115555101
 20
-263.1275973995527
 30
0.0
  0
VERTEX
  5
2E7
  8
LAYER_2
 10
142.3968433433109
 20
-263.4271220419142
 30
0.0
  0
VERTEX
  5
2E8
  8
LAYER_2
 10
142.3610102289253
 20
-263.7314005123245
 30
0.0
  0
VERTEX
  5
2E9
  8
LAYER_2
 10
142.3489841037327
 20
-264.039149983724
 30
0.0
  0
VERTEX
  5
2EA
  8
LAYER_2
 10
142.3610102289253
 20
-264.3469384815958
 30
0.0
  0
VERTEX
  5
2EB
  8
LAYER_2
 10
142.3968433433109
 20
-264.6512398295932
 30
0.0
  0
VERTEX
  5
2EC
  8
LAYER_2
 10
142.456115555101
 20
-264.9507752378781
 30
0.0
  0
VERTEX
  5
2ED
  8
LAYER_2
 10
142.5384589725071
 20
-265.2442659166124
 30
0.0
  0
VERTEX
  5
2EE
  8
LAYER_2
 10
142.6435057037407
 20
-265.5304330759578
 30
0.0
  0
VERTEX
  5
2EF
  8
LAYER_2
 10
142.7708878570133
 20
-265.8079979260763
 30
0.0
  0
VERTEX
  5
2F0
  8
LAYER_2
 10
142.9202375405365
 20
-266.0756816771295
 30
0.0
  0
VERTEX
  5
2F1
  8
LAYER_2
 10
143.0911868625217
 20
-266.3322055392795
 30
0.0
  0
VERTEX
  5
2F2
  8
LAYER_2
 10
143.2819427079625
 20
-266.5731847537888
 30
0.0
  0
VERTEX
  5
2F3
  8
LAYER_2
 10
143.4901948610942
 20
-266.7976042959425
 30
0.0
  0
VERTEX
  5
2F4
  8
LAYER_2
 10
143.714751332336
 20
-267.0046375446849
 30
0.0
  0
VERTEX
  5
2F5
  8
LAYER_2
 10
143.9544201321073
 20
-267.1934578789605
 30
0.0
  0
VERTEX
  5
2F6
  8
LAYER_2
 10
144.208009270827
 20
-267.3632386777136
 30
0.0
  0
VERTEX
  5
2F7
  8
LAYER_2
 10
144.4743267589146
 20
-267.5131533198887
 30
0.0
  0
VERTEX
  5
2F8
  8
LAYER_2
 10
144.7521806067891
 20
-267.64237518443
 30
0.0
  0
SEQEND
  5
3C9
  8
LAYER_2
  0
POLYLINE
  5
7A
  8
LAYER_2
 66
     1
 10
0.0
 20
0.0
 30
0.0
 70
     1
  0
VERTEX
  5
2F9
  8
LAYER_2
 10
214.246959974501
 20
-366.3244010077582
 30
0.0
  0
VERTEX
  5
2FA
  8
LAYER_2
 10
162.25177863227
 20
-366.3244010077582
 30
0.0
 42
1.0
  0
VERTEX
  5
2FB
  8
LAYER_2
 10
158.23177863227
 20
-366.3244010077582
 30
0.0
  0
VERTEX
  5
2FC
  8
LAYER_2
 10
158.23177863227
 20
-370.3594690958658
 30
0.0
 42
1.0
  0
VERTEX
  5
2FD
  8
LAYER_2
 10
162.25177863227
 20
-370.3594690958658
 30
0.0
  0
VERTEX
  5
2FE
  8
LAYER_2
 10
214.246959974501
 20
-370.3594690958658
 30
0.0
 42
1.0
  0
VERTEX
  5
2FF
  8
LAYER_2
 10
218.2669599745009
 20
-370.3594690958658
 30
0.0
  0
VERTEX
  5
300
  8
LAYER_2
 10
218.2669599745009
 20
-366.3244010077582
 30
0.0
 42
1.0
  0
SEQEND
  5
3CA
  8
LAYER_2
  0
POLYLINE
  5
7B
  8
LAYER_2
 66
     1
 10
0.0
 20
0.0
 30
0.0
 70
     1
  0
VERTEX
  5
301
  8
LAYER_2
 10
107.6572700486975
 20
-118.1334025021731
 30
0.0
  0
VERTEX
  5
302
  8
LAYER_2
 10
107.6637690395592
 20
-118.1334133572048
 30
0.0
  0
VERTEX
  5
303
  8
LAYER_2
 10
107.8253298264625
 20
-118.1289863411413
 30
0.0
  0
VERTEX
  5
304
  8
LAYER_2
 10
107.9863996603361
 20
-118.1157407077098
 30
0.0
  0
VERTEX
  5
305
  8
LAYER_2
 10
108.1469662693318
 20
-118.0937295790487
 30
0.0
  0
VERTEX
  5
306
  8
LAYER_2
 10
108.3070173816011
 20
-118.0630060772964
 30
0.0
  0
VERTEX
  5
307
  8
LAYER_2
 10
108.4665407252957
 20
-118.0236233245913
 30
0.0
  0
VERTEX
  5
308
  8
LAYER_2
 10
108.6255240285674
 20
-117.9756344430719
 30
0.0
  0
VERTEX
  5
309
  8
LAYER_2
 10
108.7839550195677
 20
-117.9190925548766
 30
0.0
  0
VERTEX
  5
30A
  8
LAYER_2
 10
108.9418214264483
 20
-117.8540507821438
 30
0.0
  0
VERTEX
  5
30B
  8
LAYER_2
 10
109.0991109773608
 20
-117.7805622470119
 30
0.0
  0
VERTEX
  5
30C
  8
LAYER_2
 10
109.255811400457
 20
-117.6986800716194
 30
0.0
  0
VERTEX
  5
30D
  8
LAYER_2
 10
109.567395775807
 20
-117.5099472886062
 30
0.0
  0
VERTEX
  5
30E
  8
LAYER_2
 10
109.8764763777115
 20
-117.2882774102116
 30
0.0
  0
VERTEX
  5
30F
  8
LAYER_2
 10
110.1829550313837
 20
-117.0340954135428
 30
0.0
  0
VERTEX
  5
310
  8
LAYER_2
 10
110.4867335620369
 20
-116.7478262757075
 30
0.0
  0
VERTEX
  5
311
  8
LAYER_2
 10
110.7877137948845
 20
-116.4298949738128
 30
0.0
  0
VERTEX
  5
312
  8
LAYER_2
 10
111.0857975551397
 20
-116.0807264849662
 30
0.0
  0
VERTEX
  5
313
  8
LAYER_2
 10
111.3808866680158
 20
-115.7007457862752
 30
0.0
  0
VERTEX
  5
314
  8
LAYER_2
 10
111.6728829587261
 20
-115.2903778548471
 30
0.0
  0
VERTEX
  5
315
  8
LAYER_2
 10
111.9616882524839
 20
-114.8500476677893
 30
0.0
  0
VERTEX
  5
316
  8
LAYER_2
 10
112.2472043745025
 20
-114.3801802022091
 30
0.0
  0
VERTEX
  5
317
  8
LAYER_2
 10
112.5293331499951
 20
-113.8812004352141
 30
0.0
  0
VERTEX
  5
318
  8
LAYER_2
 10
112.8079764041751
 20
-113.3535333439116
 30
0.0
  0
VERTEX
  5
319
  8
LAYER_2
 10
113.0830359622557
 20
-112.7976039054089
 30
0.0
  0
VERTEX
  5
31A
  8
LAYER_2
 10
113.3544136494502
 20
-112.2138370968135
 30
0.0
  0
VERTEX
  5
31B
  8
LAYER_2
 10
113.6220112909719
 20
-111.6026578952328
 30
0.0
  0
VERTEX
  5
31C
  8
LAYER_2
 10
113.8857307120341
 20
-110.9644912777741
 30
0.0
  0
VERTEX
  5
31D
  8
LAYER_2
 10
114.1454737378501
 20
-110.2997622215449
 30
0.0
  0
VERTEX
  5
31E
  8
LAYER_2
 10
114.4011421936332
 20
-109.6088957036525
 30
0.0
  0
VERTEX
  5
31F
  8
LAYER_2
 10
114.6526379045966
 20
-108.8923167012044
 30
0.0
  0
VERTEX
  5
320
  8
LAYER_2
 10
114.8998626959537
 20
-108.150450191308
 30
0.0
  0
VERTEX
  5
321
  8
LAYER_2
 10
115.1427183929177
 20
-107.3837211510705
 30
0.0
  0
VERTEX
  5
322
  8
LAYER_2
 10
115.3811068207019
 20
-106.5925545575995
 30
0.0
  0
VERTEX
  5
323
  8
LAYER_2
 10
115.6149298045196
 20
-105.7773753880023
 30
0.0
  0
VERTEX
  5
324
  8
LAYER_2
 10
115.8440891695841
 20
-104.9386086193863
 30
0.0
  0
VERTEX
  5
325
  8
LAYER_2
 10
116.0684867411086
 20
-104.076679228859
 30
0.0
  0
VERTEX
  5
326
  8
LAYER_2
 10
116.2880243443065
 20
-103.1920121935276
 30
0.0
  0
VERTEX
  5
327
  8
LAYER_2
 10
116.5026038043911
 20
-102.2850324904996
 30
0.0
  0
VERTEX
  5
328
  8
LAYER_2
 10
116.7121269465757
 20
-101.3561650968824
 30
0.0
  0
VERTEX
  5
329
  8
LAYER_2
 10
116.9164955960734
 20
-100.4058349897835
 30
0.0
  0
VERTEX
  5
32A
  8
LAYER_2
 10
117.1156115780976
 20
-99.43446714631006
 30
0.0
  0
VERTEX
  5
32B
  8
LAYER_2
 10
117.3093767178617
 20
-98.44248654356961
 30
0.0
  0
VERTEX
  5
32C
  8
LAYER_2
 10
117.4976928405788
 20
-97.43031815866954
 30
0.0
  0
VERTEX
  5
32D
  8
LAYER_2
 10
117.6804617714623
 20
-96.39838696871723
 30
0.0
  0
VERTEX
  5
32E
  8
LAYER_2
 10
117.8575853357255
 20
-95.34711795082009
 30
0.0
  0
VERTEX
  5
32F
  8
LAYER_2
 10
118.0289653585817
 20
-94.2769360820855
 30
0.0
  0
VERTEX
  5
330
  8
LAYER_2
 10
118.194503665244
 20
-93.18826633962084
 30
0.0
  0
VERTEX
  5
331
  8
LAYER_2
 10
118.3541020809259
 20
-92.08153370053353
 30
0.0
  0
VERTEX
  5
332
  8
LAYER_2
 10
118.5076624308406
 20
-90.95716314193095
 30
0.0
  0
VERTEX
  5
333
  8
LAYER_2
 10
118.6550865402014
 20
-89.8155796409205
 30
0.0
  0
VERTEX
  5
334
  8
LAYER_2
 10
118.7962762342215
 20
-88.65720817460956
 30
0.0
  0
VERTEX
  5
335
  8
LAYER_2
 10
118.9311333381144
 20
-87.48247372010556
 30
0.0
  0
VERTEX
  5
336
  8
LAYER_2
 10
119.0595596770932
 20
-86.29180125451586
 30
0.0
  0
VERTEX
  5
337
  8
LAYER_2
 10
119.1814570763712
 20
-85.08561575494785
 30
0.0
  0
VERTEX
  5
338
  8
LAYER_2
 10
119.2967273611618
 20
-83.86434219850895
 30
0.0
  0
VERTEX
  5
339
  8
LAYER_2
 10
119.4052723566782
 20
-82.62840556230654
 30
0.0
  0
VERTEX
  5
33A
  8
LAYER_2
 10
119.5069938881336
 20
-81.37823082344802
 30
0.0
  0
VERTEX
  5
33B
  8
LAYER_2
 10
119.6017937807415
 20
-80.11424295904078
 30
0.0
  0
VERTEX
  5
33C
  8
LAYER_2
 10
119.6895738597151
 20
-78.83686694619222
 30
0.0
  0
VERTEX
  5
33D
  8
LAYER_2
 10
119.7702359502676
 20
-77.54652776200973
 30
0.0
  0
VERTEX
  5
33E
  8
LAYER_2
 10
119.8436818776124
 20
-76.2436503836007
 30
0.0
  0
VERTEX
  5
33F
  8
LAYER_2
 10
119.9098134669627
 20
-74.92865978807251
 30
0.0
  0
VERTEX
  5
340
  8
LAYER_2
 10
119.9685325435319
 20
-73.60198095253259
 30
0.0
  0
VERTEX
  5
341
  8
LAYER_2
 10
120.0197409325332
 20
-72.26403885408831
 30
0.0
  0
VERTEX
  5
342
  8
LAYER_2
 10
120.0633404591798
 20
-70.91525846984706
 30
0.0
  0
VERTEX
  5
343
  8
LAYER_2
 10
120.0992329486852
 20
-69.55606477691626
 30
0.0
  0
VERTEX
  5
344
  8
LAYER_2
 10
120.1273202262625
 20
-68.18688275240329
 30
0.0
  0
VERTEX
  5
345
  8
LAYER_2
 10
120.1475041171251
 20
-66.80813737341555
 30
0.0
  0
VERTEX
  5
346
  8
LAYER_2
 10
120.1596864464862
 20
-65.4202536170604
 30
0.0
  0
VERTEX
  5
347
  8
LAYER_2
 10
120.1637690395592
 20
-64.02365646044527
 30
0.0
  0
VERTEX
  5
348
  8
LAYER_2
 10
120.1596864464862
 20
-62.62705930383014
 30
0.0
  0
VERTEX
  5
349
  8
LAYER_2
 10
120.1475041171251
 20
-61.239175547475
 30
0.0
  0
VERTEX
  5
34A
  8
LAYER_2
 10
120.1273202262625
 20
-59.86043016848724
 30
0.0
  0
VERTEX
  5
34B
  8
LAYER_2
 10
120.0992329486852
 20
-58.49124814397426
 30
0.0
  0
VERTEX
  5
34C
  8
LAYER_2
 10
120.0633404591798
 20
-57.13205445104346
 30
0.0
  0
VERTEX
  5
34D
  8
LAYER_2
 10
120.0197409325332
 20
-55.78327406680221
 30
0.0
  0
VERTEX
  5
34E
  8
LAYER_2
 10
119.9685325435319
 20
-54.44533196835794
 30
0.0
  0
VERTEX
  5
34F
  8
LAYER_2
 10
119.9098134669627
 20
-53.11865313281801
 30
0.0
  0
VERTEX
  5
350
  8
LAYER_2
 10
119.8436818776124
 20
-51.80366253728984
 30
0.0
  0
VERTEX
  5
351
  8
LAYER_2
 10
119.7702359502676
 20
-50.5007851588808
 30
0.0
  0
VERTEX
  5
352
  8
LAYER_2
 10
119.6895738597151
 20
-49.2104459746983
 30
0.0
  0
VERTEX
  5
353
  8
LAYER_2
 10
119.6017937807415
 20
-47.93306996184974
 30
0.0
  0
VERTEX
  5
354
  8
LAYER_2
 10
119.5069938881336
 20
-46.6690820974425
 30
0.0
  0
VERTEX
  5
355
  8
LAYER_2
 10
119.4052723566782
 20
-45.41890735858398
 30
0.0
  0
VERTEX
  5
356
  8
LAYER_2
 10
119.2967273611618
 20
-44.18297072238156
 30
0.0
  0
VERTEX
  5
357
  8
LAYER_2
 10
119.1814570763712
 20
-42.96169716594267
 30
0.0
  0
VERTEX
  5
358
  8
LAYER_2
 10
119.0595596770932
 20
-41.75551166637467
 30
0.0
  0
VERTEX
  5
359
  8
LAYER_2
 10
118.9311333381144
 20
-40.56483920078496
 30
0.0
  0
VERTEX
  5
35A
  8
LAYER_2
 10
118.7962762342215
 20
-39.39010474628095
 30
0.0
  0
VERTEX
  5
35B
  8
LAYER_2
 10
118.6550865402014
 20
-38.23173327997002
 30
0.0
  0
VERTEX
  5
35C
  8
LAYER_2
 10
118.5076624308406
 20
-37.09014977895956
 30
0.0
  0
VERTEX
  5
35D
  8
LAYER_2
 10
118.3541020809259
 20
-35.96577922035699
 30
0.0
  0
VERTEX
  5
35E
  8
LAYER_2
 10
118.194503665244
 20
-34.85904658126968
 30
0.0
  0
VERTEX
  5
35F
  8
LAYER_2
 10
118.0289653585817
 20
-33.77037683880502
 30
0.0
  0
VERTEX
  5
360
  8
LAYER_2
 10
117.8575853357255
 20
-32.70019497007042
 30
0.0
  0
VERTEX
  5
361
  8
LAYER_2
 10
117.6804617714623
 20
-31.64892595217328
 30
0.0
  0
VERTEX
  5
362
  8
LAYER_2
 10
117.4976928405788
 20
-30.61699476222097
 30
0.0
  0
VERTEX
  5
363
  8
LAYER_2
 10
117.3093767178617
 20
-29.6048263773209
 30
0.0
  0
VERTEX
  5
364
  8
LAYER_2
 10
117.1156115780976
 20
-28.61284577458047
 30
0.0
  0
VERTEX
  5
365
  8
LAYER_2
 10
116.9164955960734
 20
-27.64147793110706
 30
0.0
  0
VERTEX
  5
366
  8
LAYER_2
 10
116.7121269465757
 20
-26.69114782400807
 30
0.0
  0
VERTEX
  5
367
  8
LAYER_2
 10
116.5026038043911
 20
-25.76228043039089
 30
0.0
  0
VERTEX
  5
368
  8
LAYER_2
 10
116.2880243443065
 20
-24.85530072736293
 30
0.0
  0
VERTEX
  5
369
  8
LAYER_2
 10
116.0684867411086
 20
-23.97063369203156
 30
0.0
  0
VERTEX
  5
36A
  8
LAYER_2
 10
115.8440891695841
 20
-23.1087043015042
 30
0.0
  0
VERTEX
  5
36B
  8
LAYER_2
 10
115.6149298045196
 20
-22.26993753288822
 30
0.0
  0
VERTEX
  5
36C
  8
LAYER_2
 10
115.3811068207019
 20
-21.45475836329102
 30
0.0
  0
VERTEX
  5
36D
  8
LAYER_2
 10
115.1427183929177
 20
-20.66359176982001
 30
0.0
  0
VERTEX
  5
36E
  8
LAYER_2
 10
114.8998626959537
 20
-19.89686272958257
 30
0.0
  0
VERTEX
  5
36F
  8
LAYER_2
 10
114.6526379045966
 20
-19.15499621968609
 30
0.0
  0
VERTEX
  5
370
  8
LAYER_2
 10
114.4011421936332
 20
-18.43841721723798
 30
0.0
  0
VERTEX
  5
371
  8
LAYER_2
 10
114.1454737378501
 20
-17.74755069934562
 30
0.0
  0
VERTEX
  5
372
  8
LAYER_2
 10
113.8857307120341
 20
-17.08282164311641
 30
0.0
  0
VERTEX
  5
373
  8
LAYER_2
 10
113.6220112909719
 20
-16.44465502565775
 30
0.0
  0
VERTEX
  5
374
  8
LAYER_2
 10
113.3544136494502
 20
-15.83347582407703
 30
0.0
  0
VERTEX
  5
375
  8
LAYER_2
 10
113.0830359622557
 20
-15.24970901548163
 30
0.0
  0
VERTEX
  5
376
  8
LAYER_2
 10
112.8079764041751
 20
-14.69377957697897
 30
0.0
  0
VERTEX
  5
377
  8
LAYER_2
 10
112.5293331499951
 20
-14.16611248567642
 30
0.0
  0
VERTEX
  5
378
  8
LAYER_2
 10
112.2472043745025
 20
-13.66713271868139
 30
0.0
  0
VERTEX
  5
379
  8
LAYER_2
 10
111.9616882524839
 20
-13.19726525310127
 30
0.0
  0
VERTEX
  5
37A
  8
LAYER_2
 10
111.6728829587261
 20
-12.75693506604345
 30
0.0
  0
VERTEX
  5
37B
  8
LAYER_2
 10
111.3808866680158
 20
-12.34656713461533
 30
0.0
  0
VERTEX
  5
37C
  8
LAYER_2
 10
111.0857975551397
 20
-11.9665864359243
 30
0.0
  0
VERTEX
  5
37D
  8
LAYER_2
 10
110.7877137948845
 20
-11.61741794707775
 30
0.0
  0
VERTEX
  5
37E
  8
LAYER_2
 10
110.4867335620369
 20
-11.29948664518308
 30
0.0
  0
VERTEX
  5
37F
  8
LAYER_2
 10
110.1829550313837
 20
-11.01321750734769
 30
0.0
  0
VERTEX
  5
380
  8
LAYER_2
 10
109.8764763777115
 20
-10.75903551067897
 30
0.0
  0
VERTEX
  5
381
  8
LAYER_2
 10
109.567395775807
 20
-10.53736563228431
 30
0.0
  0
VERTEX
  5
382
  8
LAYER_2
 10
109.255811400457
 20
-10.3486328492711
 30
0.0
  0
VERTEX
  5
383
  8
LAYER_2
 10
109.0991109773608
 20
-10.26675067387861
 30
0.0
  0
VERTEX
  5
384
  8
LAYER_2
 10
108.9418214264483
 20
-10.19326213874675
 30
0.0
  0
VERTEX
  5
385
  8
LAYER_2
 10
108.7839550195677
 20
-10.12822036601395
 30
0.0
  0
VERTEX
  5
386
  8
LAYER_2
 10
108.6255240285674
 20
-10.07167847781864
 30
0.0
  0
VERTEX
  5
387
  8
LAYER_2
 10
108.4665407252957
 20
-10.02368959629923
 30
0.0
  0
VERTEX
  5
388
  8
LAYER_2
 10
108.3070173816011
 20
-9.984306843594165
 30
0.0
  0
VERTEX
  5
389
  8
LAYER_2
 10
108.1469662693318
 20
-9.953583341841856
 30
0.0
  0
VERTEX
  5
38A
  8
LAYER_2
 10
107.9863996603361
 20
-9.931572213180727
 30
0.0
  0
VERTEX
  5
38B
  8
LAYER_2
 10
107.8253298264625
 20
-9.918326579749206
 30
0.0
  0
VERTEX
  5
38C
  8
LAYER_2
 10
107.6637690395592
 20
-9.913899563685716
 30
0.0
  0
VERTEX
  5
38D
  8
LAYER_2
 10
107.5167245000383
 20
-9.917678175818496
 30
0.0
  0
VERTEX
  5
38E
  8
LAYER_2
 10
107.3700856281497
 20
-9.929434224909539
 30
0.0
  0
VERTEX
  5
38F
  8
LAYER_2
 10
103.6555233425564
 20
-9.930328030056415
 30
0.0
  0
VERTEX
  5
390
  8
LAYER_2
 10
21.65551130506731
 20
-9.930328030056415
 30
0.0
  0
VERTEX
  5
391
  8
LAYER_2
 10
21.61656221283808
 20
-9.937939537896044
 30
0.0
  0
VERTEX
  5
392
  8
LAYER_2
 10
21.58419782850478
 20
-9.959083811442056
 30
0.0
  0
VERTEX
  5
393
  8
LAYER_2
 10
21.56208798620437
 20
-9.99122547573514
 30
0.0
  0
VERTEX
  5
394
  8
LAYER_2
 10
21.55390252007379
 20
-10.03182915581598
 30
0.0
  0
VERTEX
  5
395
  8
LAYER_2
 10
21.55390252007379
 20
-13.93029920789931
 30
0.0
  0
VERTEX
  5
396
  8
LAYER_2
 10
15.65548994276264
 20
-13.93029920789931
 30
0.0
  0
VERTEX
  5
397
  8
LAYER_2
 10
13.48751288519969
 20
-13.93029920789931
 30
0.0
  0
VERTEX
  5
398
  8
LAYER_2
 10
13.48751288519969
 20
-10.03182915581598
 30
0.0
  0
VERTEX
  5
399
  8
LAYER_2
 10
13.47987715403242
 20
-9.992878717846366
 30
0.0
  0
VERTEX
  5
39A
  8
LAYER_2
 10
13.45869250827368
 20
-9.960553359985369
 30
0.0
  0
VERTEX
  5
39B
  8
LAYER_2
 10
13.42654276953805
 20
-9.938490618599786
 30
0.0
  0
VERTEX
  5
39C
  8
LAYER_2
 10
13.38601175944012
 20
-9.930328030056415
 30
0.0
  0
VERTEX
  5
39D
  8
LAYER_2
 10
9.921106974283873
 20
-9.930328030056415
 30
0.0
  0
VERTEX
  5
39E
  8
LAYER_2
 10
9.882157882054685
 20
-9.937939537896044
 30
0.0
  0
VERTEX
  5
39F
  8
LAYER_2
 10
9.8497934977214
 20
-9.959083811442056
 30
0.0
  0
VERTEX
  5
3A0
  8
LAYER_2
 10
9.827683655420987
 20
-9.99122547573514
 30
0.0
  0
VERTEX
  5
3A1
  8
LAYER_2
 10
9.819498189290414
 20
-10.03182915581598
 30
0.0
  0
VERTEX
  5
3A2
  8
LAYER_2
 10
9.819498189290414
 20
-13.93029920789931
 30
0.0
  0
VERTEX
  5
3A3
  8
LAYER_2
 10
3.651593017578136
 20
-13.93029920789931
 30
0.0
  0
VERTEX
  5
3A4
  8
LAYER_2
 10
3.612656373447853
 20
-13.93791677157085
 30
0.0
  0
VERTEX
  5
3A5
  8
LAYER_2
 10
3.580298381381574
 20
-13.95907113817006
 30
0.0
  0
VERTEX
  5
3A6
  8
LAYER_2
 10
3.558190894126901
 20
-13.99121482107378
 30
0.0
  0
VERTEX
  5
3A7
  8
LAYER_2
 10
3.550005764431432
 20
-14.03180033365888
 30
0.0
  0
VERTEX
  5
3A8
  8
LAYER_2
 10
3.550005764431432
 20
-114.1333560519748
 30
0.0
  0
VERTEX
  5
3A9
  8
LAYER_2
 10
9.819498189290414
 20
-114.1333560519748
 30
0.0
  0
VERTEX
  5
3AA
  8
LAYER_2
 10
9.819498189290414
 20
-118.0317830403646
 30
0.0
  0
VERTEX
  5
3AB
  8
LAYER_2
 10
9.827132574717254
 20
-118.0707354969449
 30
0.0
  0
VERTEX
  5
3AC
  8
LAYER_2
 10
9.84832394917811
 20
-118.1031072828505
 30
0.0
  0
VERTEX
  5
3AD
  8
LAYER_2
 10
9.880504639943481
 20
-118.1252245267232
 30
0.0
  0
VERTEX
  5
3AE
  8
LAYER_2
 10
9.921106974283873
 20
-118.1334133572048
 30
0.0
  0
VERTEX
  5
3AF
  8
LAYER_2
 10
13.38590410020618
 20
-118.1334133572048
 30
0.0
  0
VERTEX
  5
3B0
  8
LAYER_2
 10
13.42486227618325
 20
-118.1257756074269
 30
0.0
  0
VERTEX
  5
3B1
  8
LAYER_2
 10
13.45722565121123
 20
-118.1045768313938
 30
0.0
  0
VERTEX
  5
3B2
  8
LAYER_2
 10
13.47933044698507
 20
-118.0723887390561
 30
0.0
  0
VERTEX
  5
3B3
  8
LAYER_2
 10
13.48751288519969
 20
-118.0317830403646
 30
0.0
  0
VERTEX
  5
3B4
  8
LAYER_2
 10
13.48751288519969
 20
-114.1333560519748
 30
0.0
  0
VERTEX
  5
3B5
  8
LAYER_2
 10
15.65548994276264
 20
-114.1333560519748
 30
0.0
  0
VERTEX
  5
3B6
  8
LAYER_2
 10
21.55390252007379
 20
-114.1333560519748
 30
0.0
  0
VERTEX
  5
3B7
  8
LAYER_2
 10
21.55390252007379
 20
-118.0317830403646
 30
0.0
  0
VERTEX
  5
3B8
  8
LAYER_2
 10
21.56153690550063
 20
-118.0707354969449
 30
0.0
  0
VERTEX
  5
3B9
  8
LAYER_2
 10
21.58272827996149
 20
-118.1031072828505
 30
0.0
  0
VERTEX
  5
3BA
  8
LAYER_2
 10
21.61490897072688
 20
-118.1252245267232
 30
0.0
  0
VERTEX
  5
3BB
  8
LAYER_2
 10
21.65551130506731
 20
-118.1334133572048
 30
0.0
  0
VERTEX
  5
3BC
  8
LAYER_2
 10
103.6555233425564
 20
-118.1334133572048
 30
0.0
  0
VERTEX
  5
3BD
  8
LAYER_2
 10
107.6554945203993
 20
-118.1334133572048
 30
0.0
  0
SEQEND
  5
3CB
  8
LAYER_2
  0
ENDSEC
  0
EOF
