  0
SECTION
  2
HEADER
  9
$ACADVER
  1
AC1014
  9
$HANDSEED
  5
FFFF
  9
$MEASUREMENT
 70
     1
  0
ENDSEC
  0
SECTION
  2
TABLES
  0
TABLE
  2
VPORT
  5
8
330
0
100
AcDbSymbolTable
 70
     4
  0
VPORT
  5
2E
330
8
100
AcDbSymbolTableRecord
100
AcDbViewportTableRecord
  2
*ACTIVE
 70
     0
 10
0.0
 20
0.0
 11
1.0
 21
1.0
 12
210.0
 22
148.5
 13
0.0
 23
0.0
 14
10.0
 24
10.0
 15
10.0
 25
10.0
 16
0.0
 26
0.0
 36
1.0
 17
0.0
 27
0.0
 37
0.0
 40
341.0
 41
1.24
 42
50.0
 43
0.0
 44
0.0
 50
0.0
 51
0.0
 71
     0
 72
   100
 73
     1
 74
     3
 75
     0
 76
     0
 77
     0
 78
     0
  0
ENDTAB
  0
TABLE
  2
LTYPE
  5
5
330
0
100
AcDbSymbolTable
 70
     1
  0
LTYPE
  5
14
330
5
100
AcDbSymbolTableRecord
100
AcDbLinetypeTableRecord
  2
BYBLOCK
 70
     0
  3

 72
    65
 73
     0
 40
0.0
  0
LTYPE
  5
15
330
5
100
AcDbSymbolTableRecord
100
AcDbLinetypeTableRecord
  2
BYLAYER
 70
     0
  3

 72
    65
 73
     0
 40
0.0
  0
LTYPE
  5
16
330
5
100
AcDbSymbolTableRecord
100
AcDbLinetypeTableRecord
  2
CONTINUOUS
 70
     0
  3
Solid line
 72
    65
 73
     0
 40
0.0
  0
ENDTAB
  0
TABLE
  2
LAYER
  5
2
100
AcDbSymbolTable
 70
1
  0
LAYER
  5
50
100
AcDbSymbolTableRecord
100
AcDbLayerTableRecord
  2
0
 70
0
  6
CONTINUOUS
  0
ENDTAB
  0
TABLE
  2
STYLE
  5
3
330
0
100
AcDbSymbolTable
 70
     1
  0
STYLE
  5
11
330
3
100
AcDbSymbolTableRecord
100
AcDbTextStyleTableRecord
  2
STANDARD
 70
     0
 40
0.0
 41
1.0
 50
0.0
 71
     0
 42
2.5
  3
txt
  4

  0
ENDTAB
  0
TABLE
  2
VIEW
  5
6
330
0
100
AcDbSymbolTable
 70
     0
  0
ENDTAB
  0
TABLE
  2
UCS
  5
7
330
0
100
AcDbSymbolTable
 70
     0
  0
ENDTAB
  0
TABLE
  2
APPID
  5
9
330
0
100
AcDbSymbolTable
 70
     2
  0
APPID
  5
12
330
9
100
AcDbSymbolTableRecord
100
AcDbRegAppTableRecord
  2
ACAD
 70
     0
  0
ENDTAB
  0
TABLE
  2
DIMSTYLE
  5
A
330
0
100
AcDbSymbolTable
 70
     1
  0
DIMSTYLE
105
27
330
A
100
AcDbSymbolTableRecord
100
AcDbDimStyleTableRecord
  2
ISO-25
 70
     0
  3

  4

  5

  6

  7

 40
1.0
 41
2.5
 42
0.625
 43
3.75
 44
1.25
 45
0.0
 46
0.0
 47
0.0
 48
0.0
140
2.5
141
2.5
142
0.0
143
0.03937007874016
144
1.0
145
0.0
146
1.0
147
0.625
 71
     0
 72
     0
 73
     0
 74
     0
 75
     0
 76
     0
 77
     1
 78
     8
170
     0
171
     3
172
     1
173
     0
174
     0
175
     0
176
     0
177
     0
178
     0
270
     2
271
     2
272
     2
273
     2
274
     3
340
11
275
     0
280
     0
281
     0
282
     0
283
     0
284
     8
285
     0
286
     0
287
     3
288
     0
  0
ENDTAB
  0
TABLE
  2
BLOCK_RECORD
  5
1
330
0
100
AcDbSymbolTable
 70
     1
  0
BLOCK_RECORD
  5
1F
330
1
100
AcDbSymbolTableRecord
100
AcDbBlockTableRecord
  2
*MODEL_SPACE
  0
BLOCK_RECORD
  5
1B
330
1
100
AcDbSymbolTableRecord
100
AcDbBlockTableRecord
  2
*PAPER_SPACE
  0
ENDTAB
  0
ENDSEC
  0
SECTION
  2
BLOCKS
  0
BLOCK
  5
20
330
1F
100
AcDbEntity
  8
0
100
AcDbBlockBegin
  2
*MODEL_SPACE
 70
     0
 10
0.0
 20
0.0
 30
0.0
  3
*MODEL_SPACE
  1

  0
ENDBLK
  5
21
330
1F
100
AcDbEntity
  8
0
100
AcDbBlockEnd
  0
BLOCK
  5
1C
330
1B
100
AcDbEntity
 67
     1
  8
0
100
AcDbBlockBegin
  2
*PAPER_SPACE
  1

  0
ENDBLK
  5
1D
330
1B
100
AcDbEntity
 67
     1
  8
0
100
AcDbBlockEnd
  0
ENDSEC
  0
SECTION
  2
ENTITIES
  0
SPLINE
  5
100
100
AcDbEntity
  8
0
 62
7
100
AcDbSpline
 70
8
 71
3
 72
8
 73
4
 74
0
 40
0
 40
0
 40
0
 40
0
 40
1
 40
1
 40
1
 40
1
 10
57.540149
 20
0.632309
 30
0.0
 10
54.906029
 20
1.112446
 30
0.0
 10
52.712874
 20
1.850988
 30
0.0
 10
52.178529
 20
2.437828
 30
0.0
  0
SPLINE
  5
101
100
AcDbEntity
  8
0
 62
7
100
AcDbSpline
 70
8
 71
3
 72
8
 73
4
 74
0
 40
0
 40
0
 40
0
 40
0
 40
1
 40
1
 40
1
 40
1
 10
52.178529
 20
2.437828
 30
0.0
 10
51.876584
 20
2.769436
 30
0.0
 10
51.628704
 20
3.726566
 30
0.0
 10
51.454733
 20
5.232580
 30
0.0
  0
SPLINE
  5
102
100
AcDbEntity
  8
0
 62
7
100
AcDbSpline
 70
8
 71
3
 72
8
 73
4
 74
0
 40
0
 40
0
 40
0
 40
0
 40
1
 40
1
 40
1
 40
1
 10
47.882858
 20
7.706897
 30
0.0
 10
46.063847
 20
7.808037
 30
0.0
 10
39.396347
 20
7.953507
 30
0.0
 10
33.066191
 20
8.030165
 30
0.0
  0
SPLINE
  5
103
100
AcDbEntity
  8
0
 62
7
100
AcDbSpline
 70
8
 71
3
 72
8
 73
4
 74
0
 40
0
 40
0
 40
0
 40
0
 40
1
 40
1
 40
1
 40
1
 10
33.066191
 20
8.030165
 30
0.0
 10
23.606418
 20
8.144722
 30
0.0
 10
20.876460
 20
8.094467
 30
0.0
 10
17.736337
 20
7.747958
 30
0.0
  0
SPLINE
  5
104
100
AcDbEntity
  8
0
 62
7
100
AcDbSpline
 70
8
 71
3
 72
8
 73
4
 74
0
 40
0
 40
0
 40
0
 40
0
 40
1
 40
1
 40
1
 40
1
 10
17.736337
 20
7.747958
 30
0.0
 10
14.614079
 20
7.403423
 30
0.0
 10
13.308509
 20
7.378390
 30
0.0
 10
10.592587
 20
7.610988
 30
0.0
  0
SPLINE
  5
105
100
AcDbEntity
  8
0
 62
7
100
AcDbSpline
 70
8
 71
3
 72
8
 73
4
 74
0
 40
0
 40
0
 40
0
 40
0
 40
1
 40
1
 40
1
 40
1
 10
10.592587
 20
7.610988
 30
0.0
 10
8.764788
 20
7.767526
 30
0.0
 10
6.335005
 20
7.823473
 30
0.0
 10
5.193069
 20
7.735313
 30
0.0
  0
SPLINE
  5
106
100
AcDbEntity
  8
0
 62
7
100
AcDbSpline
 70
8
 71
3
 72
8
 73
4
 74
0
 40
0
 40
0
 40
0
 40
0
 40
1
 40
1
 40
1
 40
1
 10
5.193069
 20
7.735313
 30
0.0
 10
2.817452
 20
7.551912
 30
0.0
 10
2.649632
 20
7.662272
 30
0.0
 10
2.643157
 20
9.412118
 30
0.0
  0
SPLINE
  5
107
100
AcDbEntity
  8
0
 62
7
100
AcDbSpline
 70
8
 71
3
 72
8
 73
4
 74
0
 40
0
 40
0
 40
0
 40
0
 40
1
 40
1
 40
1
 40
1
 10
2.643157
 20
9.412118
 30
0.0
 10
2.639559
 20
10.386399
 30
0.0
 10
2.884751
 20
10.821506
 30
0.0
 10
4.861323
 20
13.348293
 30
0.0
  0
SPLINE
  5
108
100
AcDbEntity
  8
0
 62
7
100
AcDbSpline
 70
8
 71
3
 72
8
 73
4
 74
0
 40
0
 40
0
 40
0
 40
0
 40
1
 40
1
 40
1
 40
1
 10
4.861323
 20
13.348293
 30
0.0
 10
6.083542
 20
14.910739
 30
0.0
 10
7.240758
 20
16.501420
 30
0.0
 10
7.432917
 20
16.883137
 30
0.0
  0
SPLINE
  5
109
100
AcDbEntity
  8
0
 62
7
100
AcDbSpline
 70
8
 71
3
 72
8
 73
4
 74
0
 40
0
 40
0
 40
0
 40
0
 40
1
 40
1
 40
1
 40
1
 10
7.432917
 20
16.883137
 30
0.0
 10
7.625079
 20
17.264856
 30
0.0
 10
8.125208
 20
18.025980
 30
0.0
 10
8.544318
 20
18.574525
 30
0.0
  0
SPLINE
  5
10a
100
AcDbEntity
  8
0
 62
7
100
AcDbSpline
 70
8
 71
3
 72
8
 73
4
 74
0
 40
0
 40
0
 40
0
 40
0
 40
1
 40
1
 40
1
 40
1
 10
8.544318
 20
18.574525
 30
0.0
 10
9.648419
 20
20.019603
 30
0.0
 10
9.388776
 20
20.355295
 30
0.0
 10
7.166966
 20
20.355295
 30
0.0
  0
SPLINE
  5
10b
100
AcDbEntity
  8
0
 62
7
100
AcDbSpline
 70
8
 71
3
 72
8
 73
4
 74
0
 40
0
 40
0
 40
0
 40
0
 40
1
 40
1
 40
1
 40
1
 10
7.166966
 20
20.355295
 30
0.0
 10
4.430177
 20
20.355295
 30
0.0
 10
4.491190
 20
20.294320
 30
0.0
 10
4.491190
 20
23.029437
 30
0.0
  0
LWPOLYLINE
  5
10c
100
AcDbEntity
  8
0
 62
7
100
AcDbPolyline
 90
3
 70
0
 10
51.454733
 20
5.232580
 30
0.0
 10
51.190149
 20
7.523004
 30
0.0
 10
47.882858
 20
7.706897
 30
0.0
  0
SPLINE
  5
10d
100
AcDbEntity
  8
0
 62
7
100
AcDbSpline
 70
8
 71
3
 72
8
 73
4
 74
0
 40
0
 40
0
 40
0
 40
0
 40
1
 40
1
 40
1
 40
1
 10
7.203169
 20
25.420389
 30
0.0
 10
8.694758
 20
25.441291
 30
0.0
 10
11.582023
 20
25.461076
 30
0.0
 10
13.619315
 20
25.464352
 30
0.0
  0
LWPOLYLINE
  5
10e
100
AcDbEntity
  8
0
 62
7
100
AcDbPolyline
 90
3
 70
0
 10
4.491190
 20
23.029437
 30
0.0
 10
4.491190
 20
25.382379
 30
0.0
 10
7.203169
 20
25.420389
 30
0.0
  0
SPLINE
  5
10f
100
AcDbEntity
  8
0
 62
7
100
AcDbSpline
 70
8
 71
3
 72
8
 73
4
 74
0
 40
0
 40
0
 40
0
 40
0
 40
1
 40
1
 40
1
 40
1
 10
17.400528
 20
23.297184
 30
0.0
 10
17.459917
 20
21.622184
 30
0.0
 10
17.572171
 20
21.087768
 30
0.0
 10
17.890253
 20
20.965708
 30
0.0
  0
SPLINE
  5
110
100
AcDbEntity
  8
0
 62
7
100
AcDbSpline
 70
8
 71
3
 72
8
 73
4
 74
0
 40
0
 40
0
 40
0
 40
0
 40
1
 40
1
 40
1
 40
1
 10
17.890253
 20
20.965708
 30
0.0
 10
18.541200
 20
20.715915
 30
0.0
 10
18.770276
 20
21.390311
 30
0.0
 10
18.774639
 20
23.569332
 30
0.0
  0
LWPOLYLINE
  5
111
100
AcDbEntity
  8
0
 62
7
100
AcDbPolyline
 90
3
 70
0
 10
13.619315
 20
25.464352
 30
0.0
 10
17.323482
 20
25.470305
 30
0.0
 10
17.400528
 20
23.297184
 30
0.0
  0
SPLINE
  5
112
100
AcDbEntity
  8
0
 62
7
100
AcDbSpline
 70
8
 71
3
 72
8
 73
4
 74
0
 40
0
 40
0
 40
0
 40
0
 40
1
 40
1
 40
1
 40
1
 10
22.339167
 20
25.783450
 30
0.0
 10
26.165764
 20
25.988399
 30
0.0
 10
41.693666
 20
25.838928
 30
0.0
 10
41.937800
 20
25.594794
 30
0.0
  0
SPLINE
  5
113
100
AcDbEntity
  8
0
 62
7
100
AcDbSpline
 70
8
 71
3
 72
8
 73
4
 74
0
 40
0
 40
0
 40
0
 40
0
 40
1
 40
1
 40
1
 40
1
 10
41.937800
 20
25.594794
 30
0.0
 10
42.018934
 20
25.513660
 30
0.0
 10
42.137005
 20
24.462933
 30
0.0
 10
42.200179
 20
23.259846
 30
0.0
  0
SPLINE
  5
114
100
AcDbEntity
  8
0
 62
7
100
AcDbSpline
 70
8
 71
3
 72
8
 73
4
 74
0
 40
0
 40
0
 40
0
 40
0
 40
1
 40
1
 40
1
 40
1
 10
42.200179
 20
23.259846
 30
0.0
 10
42.263351
 20
22.056759
 30
0.0
 10
42.372039
 20
21.015418
 30
0.0
 10
42.441704
 20
20.945753
 30
0.0
  0
SPLINE
  5
115
100
AcDbEntity
  8
0
 62
7
100
AcDbSpline
 70
8
 71
3
 72
8
 73
4
 74
0
 40
0
 40
0
 40
0
 40
0
 40
1
 40
1
 40
1
 40
1
 10
42.441704
 20
20.945753
 30
0.0
 10
42.511369
 20
20.876088
 30
0.0
 10
42.752095
 20
20.889592
 30
0.0
 10
42.976652
 20
20.975764
 30
0.0
  0
SPLINE
  5
116
100
AcDbEntity
  8
0
 62
7
100
AcDbSpline
 70
8
 71
3
 72
8
 73
4
 74
0
 40
0
 40
0
 40
0
 40
0
 40
1
 40
1
 40
1
 40
1
 10
42.976652
 20
20.975764
 30
0.0
 10
43.296552
 20
21.098521
 30
0.0
 10
43.384938
 20
21.581004
 30
0.0
 10
43.384938
 20
23.204493
 30
0.0
  0
SPLINE
  5
117
100
AcDbEntity
  8
0
 62
7
100
AcDbSpline
 70
8
 71
3
 72
8
 73
4
 74
0
 40
0
 40
0
 40
0
 40
0
 40
1
 40
1
 40
1
 40
1
 10
43.384938
 20
23.204493
 30
0.0
 10
43.384938
 20
24.463312
 30
0.0
 10
43.509549
 20
25.401156
 30
0.0
 10
43.702438
 20
25.594045
 30
0.0
  0
SPLINE
  5
118
100
AcDbEntity
  8
0
 62
7
100
AcDbSpline
 70
8
 71
3
 72
8
 73
4
 74
0
 40
0
 40
0
 40
0
 40
0
 40
1
 40
1
 40
1
 40
1
 10
43.702438
 20
25.594045
 30
0.0
 10
43.934653
 20
25.826260
 30
0.0
 10
46.062580
 20
25.911545
 30
0.0
 10
51.624323
 20
25.911545
 30
0.0
  0
SPLINE
  5
119
100
AcDbEntity
  8
0
 62
7
100
AcDbSpline
 70
8
 71
3
 72
8
 73
4
 74
0
 40
0
 40
0
 40
0
 40
0
 40
1
 40
1
 40
1
 40
1
 10
51.624323
 20
25.911545
 30
0.0
 10
56.453474
 20
25.911545
 30
0.0
 10
59.288921
 20
26.008970
 30
0.0
 10
59.393693
 20
26.178497
 30
0.0
  0
SPLINE
  5
11a
100
AcDbEntity
  8
0
 62
7
100
AcDbSpline
 70
8
 71
3
 72
8
 73
4
 74
0
 40
0
 40
0
 40
0
 40
0
 40
1
 40
1
 40
1
 40
1
 10
59.393693
 20
26.178497
 30
0.0
 10
59.484435
 20
26.325319
 30
0.0
 10
59.483437
 20
26.682507
 30
0.0
 10
59.391576
 20
26.972247
 30
0.0
  0
SPLINE
  5
11b
100
AcDbEntity
  8
0
 62
7
100
AcDbSpline
 70
8
 71
3
 72
8
 73
4
 74
0
 40
0
 40
0
 40
0
 40
0
 40
1
 40
1
 40
1
 40
1
 10
59.391576
 20
26.972247
 30
0.0
 10
59.251855
 20
27.412156
 30
0.0
 10
58.989778
 20
27.499045
 30
0.0
 10
57.802515
 20
27.499045
 30
0.0
  0
SPLINE
  5
11c
100
AcDbEntity
  8
0
 62
7
100
AcDbSpline
 70
8
 71
3
 72
8
 73
4
 74
0
 40
0
 40
0
 40
0
 40
0
 40
1
 40
1
 40
1
 40
1
 10
57.802515
 20
27.499045
 30
0.0
 10
57.020545
 20
27.499045
 30
0.0
 10
56.320044
 20
27.597272
 30
0.0
 10
56.245847
 20
27.717327
 30
0.0
  0
SPLINE
  5
11d
100
AcDbEntity
  8
0
 62
7
100
AcDbSpline
 70
8
 71
3
 72
8
 73
4
 74
0
 40
0
 40
0
 40
0
 40
0
 40
1
 40
1
 40
1
 40
1
 10
56.245847
 20
27.717327
 30
0.0
 10
56.171650
 20
27.837379
 30
0.0
 10
56.030273
 20
29.004212
 30
0.0
 10
55.931678
 20
30.310288
 30
0.0
  0
SPLINE
  5
11e
100
AcDbEntity
  8
0
 62
7
100
AcDbSpline
 70
8
 71
3
 72
8
 73
4
 74
0
 40
0
 40
0
 40
0
 40
0
 40
1
 40
1
 40
1
 40
1
 10
55.931678
 20
30.310288
 30
0.0
 10
55.708942
 20
33.260829
 30
0.0
 10
55.924905
 20
33.584462
 30
0.0
 10
58.116520
 20
33.584462
 30
0.0
  0
SPLINE
  5
11f
100
AcDbEntity
  8
0
 62
7
100
AcDbSpline
 70
8
 71
3
 72
8
 73
4
 74
0
 40
0
 40
0
 40
0
 40
0
 40
1
 40
1
 40
1
 40
1
 10
58.116520
 20
33.584462
 30
0.0
 10
59.343356
 20
33.584462
 30
0.0
 10
59.555062
 20
33.652407
 30
0.0
 10
59.420538
 20
34.002977
 30
0.0
  0
SPLINE
  5
120
100
AcDbEntity
  8
0
 62
7
100
AcDbSpline
 70
8
 71
3
 72
8
 73
4
 74
0
 40
0
 40
0
 40
0
 40
0
 40
1
 40
1
 40
1
 40
1
 10
59.420538
 20
34.002977
 30
0.0
 10
59.332207
 20
34.233160
 30
0.0
 10
59.259938
 20
34.471285
 30
0.0
 10
59.259938
 20
34.532144
 30
0.0
  0
SPLINE
  5
121
100
AcDbEntity
  8
0
 62
7
100
AcDbSpline
 70
8
 71
3
 72
8
 73
4
 74
0
 40
0
 40
0
 40
0
 40
0
 40
1
 40
1
 40
1
 40
1
 10
59.259938
 20
34.532144
 30
0.0
 10
59.259938
 20
34.593001
 30
0.0
 10
56.452048
 20
34.642795
 30
0.0
 10
53.020182
 20
34.642795
 30
0.0
  0
SPLINE
  5
122
100
AcDbEntity
  8
0
 62
7
100
AcDbSpline
 70
8
 71
3
 72
8
 73
4
 74
0
 40
0
 40
0
 40
0
 40
0
 40
1
 40
1
 40
1
 40
1
 10
53.020182
 20
34.642795
 30
0.0
 10
48.146473
 20
34.642795
 30
0.0
 10
46.804352
 20
34.570390
 30
0.0
 10
46.889720
 20
34.312066
 30
0.0
  0
SPLINE
  5
123
100
AcDbEntity
  8
0
 62
7
100
AcDbSpline
 70
8
 71
3
 72
8
 73
4
 74
0
 40
0
 40
0
 40
0
 40
0
 40
1
 40
1
 40
1
 40
1
 10
46.889720
 20
34.312066
 30
0.0
 10
46.964155
 20
34.086824
 30
0.0
 10
47.920579
 20
33.934905
 30
0.0
 10
49.888330
 20
33.835763
 30
0.0
  0
SPLINE
  5
124
100
AcDbEntity
  8
0
 62
7
100
AcDbSpline
 70
8
 71
3
 72
8
 73
4
 74
0
 40
0
 40
0
 40
0
 40
0
 40
1
 40
1
 40
1
 40
1
 10
49.888330
 20
33.835763
 30
0.0
 10
51.594078
 20
33.749819
 30
0.0
 10
53.102796
 20
33.531932
 30
0.0
 10
53.571397
 20
33.303858
 30
0.0
  0
SPLINE
  5
125
100
AcDbEntity
  8
0
 62
7
100
AcDbSpline
 70
8
 71
3
 72
8
 73
4
 74
0
 40
0
 40
0
 40
0
 40
0
 40
1
 40
1
 40
1
 40
1
 10
53.571397
 20
33.303858
 30
0.0
 10
54.349809
 20
32.924993
 30
0.0
 10
54.366655
 20
32.874119
 30
0.0
 10
54.443212
 20
30.671307
 30
0.0
  0
SPLINE
  5
126
100
AcDbEntity
  8
0
 62
7
100
AcDbSpline
 70
8
 71
3
 72
8
 73
4
 74
0
 40
0
 40
0
 40
0
 40
0
 40
1
 40
1
 40
1
 40
1
 10
54.443212
 20
30.671307
 30
0.0
 10
54.486149
 20
29.435885
 30
0.0
 10
54.453822
 20
28.155998
 30
0.0
 10
54.371356
 20
27.827110
 30
0.0
  0
LWPOLYLINE
  5
127
100
AcDbEntity
  8
0
 62
7
100
AcDbPolyline
 90
3
 70
0
 10
18.774639
 20
23.569332
 30
0.0
 10
18.778687
 20
25.592752
 30
0.0
 10
22.339167
 20
25.783450
 30
0.0
  0
SPLINE
  5
128
100
AcDbEntity
  8
0
 62
7
100
AcDbSpline
 70
8
 71
3
 72
8
 73
4
 74
0
 40
0
 40
0
 40
0
 40
0
 40
1
 40
1
 40
1
 40
1
 10
29.891191
 20
28.821962
 30
0.0
 10
29.818431
 20
29.622327
 30
0.0
 10
29.798608
 20
31.016443
 30
0.0
 10
29.847143
 20
31.920000
 30
0.0
  0
SPLINE
  5
129
100
AcDbEntity
  8
0
 62
7
100
AcDbSpline
 70
8
 71
3
 72
8
 73
4
 74
0
 40
0
 40
0
 40
0
 40
0
 40
1
 40
1
 40
1
 40
1
 10
29.847143
 20
31.920000
 30
0.0
 10
29.922565
 20
33.324162
 30
0.0
 10
30.018662
 20
33.592238
 30
0.0
 10
30.508601
 20
33.765252
 30
0.0
  0
SPLINE
  5
12a
100
AcDbEntity
  8
0
 62
7
100
AcDbSpline
 70
8
 71
3
 72
8
 73
4
 74
0
 40
0
 40
0
 40
0
 40
0
 40
1
 40
1
 40
1
 40
1
 10
30.508601
 20
33.765252
 30
0.0
 10
31.229229
 20
34.019733
 30
0.0
 10
28.886063
 20
34.307711
 30
0.0
 10
25.754861
 20
34.349497
 30
0.0
  0
SPLINE
  5
12b
100
AcDbEntity
  8
0
 62
7
100
AcDbSpline
 70
8
 71
3
 72
8
 73
4
 74
0
 40
0
 40
0
 40
0
 40
0
 40
1
 40
1
 40
1
 40
1
 10
25.754861
 20
34.349497
 30
0.0
 10
23.758495
 20
34.376135
 30
0.0
 10
23.591373
 20
34.421254
 30
0.0
 10
23.443371
 20
34.973525
 30
0.0
  0
SPLINE
  5
12c
100
AcDbEntity
  8
0
 62
7
100
AcDbSpline
 70
8
 71
3
 72
8
 73
4
 74
0
 40
0
 40
0
 40
0
 40
0
 40
1
 40
1
 40
1
 40
1
 10
23.443371
 20
34.973525
 30
0.0
 10
23.200573
 20
35.879516
 30
0.0
 10
23.219380
 20
35.912613
 30
0.0
 10
24.070357
 20
36.076980
 30
0.0
  0
SPLINE
  5
12d
100
AcDbEntity
  8
0
 62
7
100
AcDbSpline
 70
8
 71
3
 72
8
 73
4
 74
0
 40
0
 40
0
 40
0
 40
0
 40
1
 40
1
 40
1
 40
1
 10
24.070357
 20
36.076980
 30
0.0
 10
24.506919
 20
36.161305
 30
0.0
 10
25.223588
 20
36.299791
 30
0.0
 10
25.662955
 20
36.384730
 30
0.0
  0
LWPOLYLINE
  5
12e
100
AcDbEntity
  8
0
 62
7
100
AcDbPolyline
 90
5
 70
0
 10
54.371356
 20
27.827110
 30
0.0
 10
54.221436
 20
27.229131
 30
0.0
 10
42.122460
 20
27.297944
 30
0.0
 10
30.023483
 20
27.366754
 30
0.0
 10
29.891191
 20
28.821962
 30
0.0
  0
SPLINE
  5
12f
100
AcDbEntity
  8
0
 62
7
100
AcDbSpline
 70
8
 71
3
 72
8
 73
4
 74
0
 40
0
 40
0
 40
0
 40
0
 40
1
 40
1
 40
1
 40
1
 10
26.290086
 20
38.215245
 30
0.0
 10
26.034094
 20
40.713877
 30
0.0
 10
26.667968
 20
42.288447
 30
0.0
 10
28.741251
 20
44.304043
 30
0.0
  0
LWPOLYLINE
  5
130
100
AcDbEntity
  8
0
 62
7
100
AcDbPolyline
 90
3
 70
0
 10
25.662955
 20
36.384730
 30
0.0
 10
26.461807
 20
36.539165
 30
0.0
 10
26.290086
 20
38.215245
 30
0.0
  0
SPLINE
  5
131
100
AcDbEntity
  8
0
 62
7
100
AcDbSpline
 70
8
 71
3
 72
8
 73
4
 74
0
 40
0
 40
0
 40
0
 40
0
 40
1
 40
1
 40
1
 40
1
 10
29.980506
 20
47.611334
 30
0.0
 10
29.492030
 20
49.718563
 30
0.0
 10
29.662009
 20
50.939777
 30
0.0
 10
30.720099
 20
52.924956
 30
0.0
  0
SPLINE
  5
132
100
AcDbEntity
  8
0
 62
7
100
AcDbSpline
 70
8
 71
3
 72
8
 73
4
 74
0
 40
0
 40
0
 40
0
 40
0
 40
1
 40
1
 40
1
 40
1
 10
30.720099
 20
52.924956
 30
0.0
 10
31.596322
 20
54.568918
 30
0.0
 10
34.850287
 20
57.926129
 30
0.0
 10
35.567472
 20
57.926129
 30
0.0
  0
SPLINE
  5
133
100
AcDbEntity
  8
0
 62
7
100
AcDbSpline
 70
8
 71
3
 72
8
 73
4
 74
0
 40
0
 40
0
 40
0
 40
0
 40
1
 40
1
 40
1
 40
1
 10
35.567472
 20
57.926129
 30
0.0
 10
35.811629
 20
57.926129
 30
0.0
 10
36.241694
 20
58.049380
 30
0.0
 10
36.523168
 20
58.200020
 30
0.0
  0
SPLINE
  5
134
100
AcDbEntity
  8
0
 62
7
100
AcDbSpline
 70
8
 71
3
 72
8
 73
4
 74
0
 40
0
 40
0
 40
0
 40
0
 40
1
 40
1
 40
1
 40
1
 10
36.523168
 20
58.200020
 30
0.0
 10
37.296410
 20
58.613847
 30
0.0
 10
37.265390
 20
62.522574
 30
0.0
 10
36.476593
 20
64.068743
 30
0.0
  0
SPLINE
  5
135
100
AcDbEntity
  8
0
 62
7
100
AcDbSpline
 70
8
 71
3
 72
8
 73
4
 74
0
 40
0
 40
0
 40
0
 40
0
 40
1
 40
1
 40
1
 40
1
 10
36.476593
 20
64.068743
 30
0.0
 10
36.025992
 20
64.951996
 30
0.0
 10
35.952576
 20
65.422235
 30
0.0
 10
36.096133
 20
66.505598
 30
0.0
  0
SPLINE
  5
136
100
AcDbEntity
  8
0
 62
7
100
AcDbSpline
 70
8
 71
3
 72
8
 73
4
 74
0
 40
0
 40
0
 40
0
 40
0
 40
1
 40
1
 40
1
 40
1
 10
36.096133
 20
66.505598
 30
0.0
 10
36.328384
 20
68.258275
 30
0.0
 10
36.333750
 20
68.898410
 30
0.0
 10
36.123213
 20
69.737250
 30
0.0
  0
LWPOLYLINE
  5
137
100
AcDbEntity
  8
0
 62
7
100
AcDbPolyline
 90
3
 70
0
 10
28.741251
 20
44.304043
 30
0.0
 10
30.378252
 20
45.895498
 30
0.0
 10
29.980506
 20
47.611334
 30
0.0
  0
SPLINE
  5
138
100
AcDbEntity
  8
0
 62
7
100
AcDbSpline
 70
8
 71
3
 72
8
 73
4
 74
0
 40
0
 40
0
 40
0
 40
0
 40
1
 40
1
 40
1
 40
1
 10
35.350797
 20
69.865867
 30
0.0
 10
35.021390
 20
69.556408
 30
0.0
 10
34.499767
 20
69.303212
 30
0.0
 10
34.191633
 20
69.303212
 30
0.0
  0
SPLINE
  5
139
100
AcDbEntity
  8
0
 62
7
100
AcDbSpline
 70
8
 71
3
 72
8
 73
4
 74
0
 40
0
 40
0
 40
0
 40
0
 40
1
 40
1
 40
1
 40
1
 10
34.191633
 20
69.303212
 30
0.0
 10
33.518562
 20
69.303212
 30
0.0
 10
32.537024
 20
70.586232
 30
0.0
 10
32.537024
 20
71.466041
 30
0.0
  0
SPLINE
  5
13a
100
AcDbEntity
  8
0
 62
7
100
AcDbSpline
 70
8
 71
3
 72
8
 73
4
 74
0
 40
0
 40
0
 40
0
 40
0
 40
1
 40
1
 40
1
 40
1
 10
32.537024
 20
71.466041
 30
0.0
 10
32.537024
 20
71.810303
 30
0.0
 10
32.298899
 20
72.951276
 30
0.0
 10
32.007858
 20
74.001535
 30
0.0
  0
SPLINE
  5
13b
100
AcDbEntity
  8
0
 62
7
100
AcDbSpline
 70
8
 71
3
 72
8
 73
4
 74
0
 40
0
 40
0
 40
0
 40
0
 40
1
 40
1
 40
1
 40
1
 10
32.007858
 20
74.001535
 30
0.0
 10
31.716816
 20
75.051793
 30
0.0
 10
31.481305
 20
76.299557
 30
0.0
 10
31.484501
 20
76.774342
 30
0.0
  0
SPLINE
  5
13c
100
AcDbEntity
  8
0
 62
7
100
AcDbSpline
 70
8
 71
3
 72
8
 73
4
 74
0
 40
0
 40
0
 40
0
 40
0
 40
1
 40
1
 40
1
 40
1
 10
31.484501
 20
76.774342
 30
0.0
 10
31.492280
 20
77.928653
 30
0.0
 10
32.375218
 20
79.820352
 30
0.0
 10
33.402601
 20
80.883845
 30
0.0
  0
SPLINE
  5
13d
100
AcDbEntity
  8
0
 62
7
100
AcDbSpline
 70
8
 71
3
 72
8
 73
4
 74
0
 40
0
 40
0
 40
0
 40
0
 40
1
 40
1
 40
1
 40
1
 10
33.402601
 20
80.883845
 30
0.0
 10
34.228553
 20
81.738825
 30
0.0
 10
36.003166
 20
82.446133
 30
0.0
 10
36.520361
 20
82.126489
 30
0.0
  0
SPLINE
  5
13e
100
AcDbEntity
  8
0
 62
7
100
AcDbSpline
 70
8
 71
3
 72
8
 73
4
 74
0
 40
0
 40
0
 40
0
 40
0
 40
1
 40
1
 40
1
 40
1
 10
36.520361
 20
82.126489
 30
0.0
 10
36.667189
 20
82.035745
 30
0.0
 10
37.825302
 20
82.295884
 30
0.0
 10
39.093944
 20
82.704575
 30
0.0
  0
SPLINE
  5
13f
100
AcDbEntity
  8
0
 62
7
100
AcDbSpline
 70
8
 71
3
 72
8
 73
4
 74
0
 40
0
 40
0
 40
0
 40
0
 40
1
 40
1
 40
1
 40
1
 10
39.093944
 20
82.704575
 30
0.0
 10
41.774184
 20
83.568011
 30
0.0
 10
43.677843
 20
83.641978
 30
0.0
 10
45.693925
 20
82.961022
 30
0.0
  0
SPLINE
  5
140
100
AcDbEntity
  8
0
 62
7
100
AcDbSpline
 70
8
 71
3
 72
8
 73
4
 74
0
 40
0
 40
0
 40
0
 40
0
 40
1
 40
1
 40
1
 40
1
 10
45.693925
 20
82.961022
 30
0.0
 10
46.454542
 20
82.704114
 30
0.0
 10
47.764229
 20
82.393226
 30
0.0
 10
48.604342
 20
82.270161
 30
0.0
  0
SPLINE
  5
141
100
AcDbEntity
  8
0
 62
7
100
AcDbSpline
 70
8
 71
3
 72
8
 73
4
 74
0
 40
0
 40
0
 40
0
 40
0
 40
1
 40
1
 40
1
 40
1
 10
48.604342
 20
82.270161
 30
0.0
 10
49.444452
 20
82.147095
 30
0.0
 10
50.644417
 20
81.960884
 30
0.0
 10
51.270929
 20
81.856360
 30
0.0
  0
LWPOLYLINE
  5
142
100
AcDbEntity
  8
0
 62
7
100
AcDbPolyline
 90
3
 70
0
 10
36.123213
 20
69.737250
 30
0.0
 10
35.949715
 20
70.428522
 30
0.0
 10
35.350797
 20
69.865867
 30
0.0
  0
SPLINE
  5
143
100
AcDbEntity
  8
0
 62
7
100
AcDbSpline
 70
8
 71
3
 72
8
 73
4
 74
0
 40
0
 40
0
 40
0
 40
0
 40
1
 40
1
 40
1
 40
1
 10
52.329263
 20
88.912369
 30
0.0
 10
52.268025
 20
94.405434
 30
0.0
 10
52.334739
 20
96.455024
 30
0.0
 10
52.604990
 20
97.384449
 30
0.0
  0
SPLINE
  5
144
100
AcDbEntity
  8
0
 62
7
100
AcDbSpline
 70
8
 71
3
 72
8
 73
4
 74
0
 40
0
 40
0
 40
0
 40
0
 40
1
 40
1
 40
1
 40
1
 10
52.604990
 20
97.384449
 30
0.0
 10
53.053157
 20
98.925700
 30
0.0
 10
54.152014
 20
100.137174
 30
0.0
 10
56.234894
 20
101.386378
 30
0.0
  0
SPLINE
  5
145
100
AcDbEntity
  8
0
 62
7
100
AcDbSpline
 70
8
 71
3
 72
8
 73
4
 74
0
 40
0
 40
0
 40
0
 40
0
 40
1
 40
1
 40
1
 40
1
 10
56.234894
 20
101.386378
 30
0.0
 10
59.774103
 20
103.509011
 30
0.0
 10
61.120970
 20
104.384163
 30
0.0
 10
62.013814
 20
105.141334
 30
0.0
  0
LWPOLYLINE
  5
146
100
AcDbEntity
  8
0
 62
7
100
AcDbPolyline
 90
3
 70
0
 10
51.270929
 20
81.856360
 30
0.0
 10
52.410042
 20
81.666315
 30
0.0
 10
52.329263
 20
88.912369
 30
0.0
  0
SPLINE
  5
147
100
AcDbEntity
  8
0
 62
7
100
AcDbSpline
 70
8
 71
3
 72
8
 73
4
 74
0
 40
0
 40
0
 40
0
 40
0
 40
1
 40
1
 40
1
 40
1
 10
61.962041
 20
107.306060
 30
0.0
 10
61.364820
 20
108.014336
 30
0.0
 10
60.623683
 20
109.164670
 30
0.0
 10
60.315070
 20
109.862355
 30
0.0
  0
SPLINE
  5
148
100
AcDbEntity
  8
0
 62
7
100
AcDbSpline
 70
8
 71
3
 72
8
 73
4
 74
0
 40
0
 40
0
 40
0
 40
0
 40
1
 40
1
 40
1
 40
1
 10
60.315070
 20
109.862355
 30
0.0
 10
59.836754
 20
110.943684
 30
0.0
 10
59.539783
 20
111.232278
 30
0.0
 10
58.302578
 20
111.818065
 30
0.0
  0
SPLINE
  5
149
100
AcDbEntity
  8
0
 62
7
100
AcDbSpline
 70
8
 71
3
 72
8
 73
4
 74
0
 40
0
 40
0
 40
0
 40
0
 40
1
 40
1
 40
1
 40
1
 10
58.302578
 20
111.818065
 30
0.0
 10
57.203419
 20
112.338493
 30
0.0
 10
56.724190
 20
112.754225
 30
0.0
 10
56.327826
 20
113.531163
 30
0.0
  0
SPLINE
  5
14a
100
AcDbEntity
  8
0
 62
7
100
AcDbSpline
 70
8
 71
3
 72
8
 73
4
 74
0
 40
0
 40
0
 40
0
 40
0
 40
1
 40
1
 40
1
 40
1
 10
56.327826
 20
113.531163
 30
0.0
 10
55.873351
 20
114.422005
 30
0.0
 10
55.735958
 20
114.520411
 30
0.0
 10
55.284206
 20
114.278640
 30
0.0
  0
SPLINE
  5
14b
100
AcDbEntity
  8
0
 62
7
100
AcDbSpline
 70
8
 71
3
 72
8
 73
4
 74
0
 40
0
 40
0
 40
0
 40
0
 40
1
 40
1
 40
1
 40
1
 10
55.284206
 20
114.278640
 30
0.0
 10
54.998072
 20
114.125507
 30
0.0
 10
54.170535
 20
113.978243
 30
0.0
 10
53.445233
 20
113.951385
 30
0.0
  0
SPLINE
  5
14c
100
AcDbEntity
  8
0
 62
7
100
AcDbSpline
 70
8
 71
3
 72
8
 73
4
 74
0
 40
0
 40
0
 40
0
 40
0
 40
1
 40
1
 40
1
 40
1
 10
53.445233
 20
113.951385
 30
0.0
 10
52.406748
 20
113.912933
 30
0.0
 10
52.042854
 20
114.013200
 30
0.0
 10
51.732886
 20
114.423195
 30
0.0
  0
SPLINE
  5
14d
100
AcDbEntity
  8
0
 62
7
100
AcDbSpline
 70
8
 71
3
 72
8
 73
4
 74
0
 40
0
 40
0
 40
0
 40
0
 40
1
 40
1
 40
1
 40
1
 10
51.732886
 20
114.423195
 30
0.0
 10
50.833814
 20
115.612413
 30
0.0
 10
51.473328
 20
116.657538
 30
0.0
 10
53.746678
 20
117.714228
 30
0.0
  0
LWPOLYLINE
  5
14e
100
AcDbEntity
  8
0
 62
7
100
AcDbPolyline
 90
3
 70
0
 10
62.013814
 20
105.141334
 30
0.0
 10
63.047896
 20
106.018282
 30
0.0
 10
61.962041
 20
107.306060
 30
0.0
  0
SPLINE
  5
14f
100
AcDbEntity
  8
0
 62
7
100
AcDbSpline
 70
8
 71
3
 72
8
 73
4
 74
0
 40
0
 40
0
 40
0
 40
0
 40
1
 40
1
 40
1
 40
1
 10
54.234670
 20
120.055317
 30
0.0
 10
53.824582
 20
121.027545
 30
0.0
 10
53.036732
 20
122.894567
 30
0.0
 10
52.483896
 20
124.204254
 30
0.0
  0
SPLINE
  5
150
100
AcDbEntity
  8
0
 62
7
100
AcDbSpline
 70
8
 71
3
 72
8
 73
4
 74
0
 40
0
 40
0
 40
0
 40
0
 40
1
 40
1
 40
1
 40
1
 10
52.483896
 20
124.204254
 30
0.0
 10
51.576983
 20
126.352758
 30
0.0
 10
51.477566
 20
126.818250
 30
0.0
 10
51.466737
 20
128.966754
 30
0.0
  0
SPLINE
  5
151
100
AcDbEntity
  8
0
 62
7
100
AcDbSpline
 70
8
 71
3
 72
8
 73
4
 74
0
 40
0
 40
0
 40
0
 40
0
 40
1
 40
1
 40
1
 40
1
 10
51.466737
 20
128.966754
 30
0.0
 10
51.455836
 20
131.130885
 30
0.0
 10
51.524212
 20
131.464039
 30
0.0
 10
52.216762
 20
132.620618
 30
0.0
  0
SPLINE
  5
152
100
AcDbEntity
  8
0
 62
7
100
AcDbSpline
 70
8
 71
3
 72
8
 73
4
 74
0
 40
0
 40
0
 40
0
 40
0
 40
1
 40
1
 40
1
 40
1
 10
52.216762
 20
132.620618
 30
0.0
 10
54.224751
 20
135.974021
 30
0.0
 10
60.296994
 20
139.331453
 30
0.0
 10
64.876953
 20
139.620621
 30
0.0
  0
SPLINE
  5
153
100
AcDbEntity
  8
0
 62
7
100
AcDbSpline
 70
8
 71
3
 72
8
 73
4
 74
0
 40
0
 40
0
 40
0
 40
0
 40
1
 40
1
 40
1
 40
1
 10
64.876953
 20
139.620621
 30
0.0
 10
66.706052
 20
139.736106
 30
0.0
 10
67.075164
 20
139.674853
 30
0.0
 10
68.371193
 20
139.040765
 30
0.0
  0
SPLINE
  5
154
100
AcDbEntity
  8
0
 62
7
100
AcDbSpline
 70
8
 71
3
 72
8
 73
4
 74
0
 40
0
 40
0
 40
0
 40
0
 40
1
 40
1
 40
1
 40
1
 10
68.371193
 20
139.040765
 30
0.0
 10
70.146804
 20
138.172039
 30
0.0
 10
71.202674
 20
136.888088
 30
0.0
 10
73.645501
 20
132.627132
 30
0.0
  0
LWPOLYLINE
  5
155
100
AcDbEntity
  8
0
 62
7
100
AcDbPolyline
 90
3
 70
0
 10
53.746678
 20
117.714228
 30
0.0
 10
54.980290
 20
118.287631
 30
0.0
 10
54.234670
 20
120.055317
 30
0.0
  0
SPLINE
  5
156
100
AcDbEntity
  8
0
 62
7
100
AcDbSpline
 70
8
 71
3
 72
8
 73
4
 74
0
 40
0
 40
0
 40
0
 40
0
 40
1
 40
1
 40
1
 40
1
 10
79.829824
 20
129.985156
 30
0.0
 10
81.053882
 20
129.074639
 30
0.0
 10
80.941503
 20
128.345899
 30
0.0
 10
79.362319
 20
126.953503
 30
0.0
  0
LWPOLYLINE
  5
157
100
AcDbEntity
  8
0
 62
7
100
AcDbPolyline
 90
5
 70
0
 10
73.645501
 20
132.627132
 30
0.0
 10
75.463350
 20
129.456305
 30
0.0
 10
77.282051
 20
129.991892
 30
0.0
 10
79.100749
 20
130.527480
 30
0.0
 10
79.829824
 20
129.985156
 30
0.0
  0
SPLINE
  5
158
100
AcDbEntity
  8
0
 62
7
100
AcDbSpline
 70
8
 71
3
 72
8
 73
4
 74
0
 40
0
 40
0
 40
0
 40
0
 40
1
 40
1
 40
1
 40
1
 10
78.704816
 20
123.910795
 30
0.0
 10
79.103892
 20
122.908031
 30
0.0
 10
79.763305
 20
121.789931
 30
0.0
 10
80.170179
 20
121.426129
 30
0.0
  0
SPLINE
  5
159
100
AcDbEntity
  8
0
 62
7
100
AcDbSpline
 70
8
 71
3
 72
8
 73
4
 74
0
 40
0
 40
0
 40
0
 40
0
 40
1
 40
1
 40
1
 40
1
 10
80.170179
 20
121.426129
 30
0.0
 10
81.064349
 20
120.626616
 30
0.0
 10
81.822028
 20
118.398353
 30
0.0
 10
81.848870
 20
116.489260
 30
0.0
  0
SPLINE
  5
15a
100
AcDbEntity
  8
0
 62
7
100
AcDbSpline
 70
8
 71
3
 72
8
 73
4
 74
0
 40
0
 40
0
 40
0
 40
0
 40
1
 40
1
 40
1
 40
1
 10
81.848870
 20
116.489260
 30
0.0
 10
81.864533
 20
115.374753
 30
0.0
 10
81.744214
 20
114.972290
 30
0.0
 10
81.232481
 20
114.427577
 30
0.0
  0
LWPOLYLINE
  5
15b
100
AcDbEntity
  8
0
 62
7
100
AcDbPolyline
 90
3
 70
0
 10
79.362319
 20
126.953503
 30
0.0
 10
77.979222
 20
125.734002
 30
0.0
 10
78.704816
 20
123.910795
 30
0.0
  0
SPLINE
  5
15c
100
AcDbEntity
  8
0
 62
7
100
AcDbSpline
 70
8
 71
3
 72
8
 73
4
 74
0
 40
0
 40
0
 40
0
 40
0
 40
1
 40
1
 40
1
 40
1
 10
81.264472
 20
111.846852
 30
0.0
 10
81.903083
 20
110.026304
 30
0.0
 10
81.996907
 20
109.907649
 30
0.0
 10
83.407917
 20
109.136111
 30
0.0
  0
SPLINE
  5
15d
100
AcDbEntity
  8
0
 62
7
100
AcDbSpline
 70
8
 71
3
 72
8
 73
4
 74
0
 40
0
 40
0
 40
0
 40
0
 40
1
 40
1
 40
1
 40
1
 10
83.407917
 20
109.136111
 30
0.0
 10
84.219497
 20
108.692339
 30
0.0
 10
85.481091
 20
107.775261
 30
0.0
 10
86.211460
 20
107.098161
 30
0.0
  0
SPLINE
  5
15e
100
AcDbEntity
  8
0
 62
7
100
AcDbSpline
 70
8
 71
3
 72
8
 73
4
 74
0
 40
0
 40
0
 40
0
 40
0
 40
1
 40
1
 40
1
 40
1
 10
86.211460
 20
107.098161
 30
0.0
 10
87.404522
 20
105.992110
 30
0.0
 10
87.789557
 20
105.808756
 30
0.0
 10
90.002275
 20
105.292959
 30
0.0
  0
SPLINE
  5
15f
100
AcDbEntity
  8
0
 62
7
100
AcDbSpline
 70
8
 71
3
 72
8
 73
4
 74
0
 40
0
 40
0
 40
0
 40
0
 40
1
 40
1
 40
1
 40
1
 10
90.002275
 20
105.292959
 30
0.0
 10
91.356857
 20
104.977200
 30
0.0
 10
93.536712
 20
104.206932
 30
0.0
 10
94.846399
 20
103.581250
 30
0.0
  0
SPLINE
  5
160
100
AcDbEntity
  8
0
 62
7
100
AcDbSpline
 70
8
 71
3
 72
8
 73
4
 74
0
 40
0
 40
0
 40
0
 40
0
 40
1
 40
1
 40
1
 40
1
 10
94.846399
 20
103.581250
 30
0.0
 10
97.076773
 20
102.515731
 30
0.0
 10
99.840600
 20
100.474558
 30
0.0
 10
100.373318
 20
99.499449
 30
0.0
  0
SPLINE
  5
161
100
AcDbEntity
  8
0
 62
7
100
AcDbSpline
 70
8
 71
3
 72
8
 73
4
 74
0
 40
0
 40
0
 40
0
 40
0
 40
1
 40
1
 40
1
 40
1
 10
100.373318
 20
99.499449
 30
0.0
 10
100.502704
 20
99.262613
 30
0.0
 10
101.089251
 20
98.354811
 30
0.0
 10
101.676753
 20
97.482112
 30
0.0
  0
SPLINE
  5
162
100
AcDbEntity
  8
0
 62
7
100
AcDbSpline
 70
8
 71
3
 72
8
 73
4
 74
0
 40
0
 40
0
 40
0
 40
0
 40
1
 40
1
 40
1
 40
1
 10
101.676753
 20
97.482112
 30
0.0
 10
102.691073
 20
95.975400
 30
0.0
 10
102.762492
 20
95.735241
 30
0.0
 10
103.093038
 20
92.719612
 30
0.0
  0
SPLINE
  5
163
100
AcDbEntity
  8
0
 62
7
100
AcDbSpline
 70
8
 71
3
 72
8
 73
4
 74
0
 40
0
 40
0
 40
0
 40
0
 40
1
 40
1
 40
1
 40
1
 10
103.093038
 20
92.719612
 30
0.0
 10
103.284494
 20
90.972936
 30
0.0
 10
103.557255
 20
88.710400
 30
0.0
 10
103.699175
 20
87.691754
 30
0.0
  0
SPLINE
  5
164
100
AcDbEntity
  8
0
 62
7
100
AcDbSpline
 70
8
 71
3
 72
8
 73
4
 74
0
 40
0
 40
0
 40
0
 40
0
 40
1
 40
1
 40
1
 40
1
 10
103.699175
 20
87.691754
 30
0.0
 10
103.841095
 20
86.673108
 30
0.0
 10
103.961107
 20
85.639333
 30
0.0
 10
103.965867
 20
85.394480
 30
0.0
  0
SPLINE
  5
165
100
AcDbEntity
  8
0
 62
7
100
AcDbSpline
 70
8
 71
3
 72
8
 73
4
 74
0
 40
0
 40
0
 40
0
 40
0
 40
1
 40
1
 40
1
 40
1
 10
103.965867
 20
85.394480
 30
0.0
 10
103.970630
 20
85.149624
 30
0.0
 10
104.201161
 20
84.877357
 30
0.0
 10
104.478159
 20
84.789441
 30
0.0
  0
SPLINE
  5
166
100
AcDbEntity
  8
0
 62
7
100
AcDbSpline
 70
8
 71
3
 72
8
 73
4
 74
0
 40
0
 40
0
 40
0
 40
0
 40
1
 40
1
 40
1
 40
1
 10
104.478159
 20
84.789441
 30
0.0
 10
104.755159
 20
84.701526
 30
0.0
 10
105.174547
 20
84.247016
 30
0.0
 10
105.410132
 20
83.779423
 30
0.0
  0
SPLINE
  5
167
100
AcDbEntity
  8
0
 62
7
100
AcDbSpline
 70
8
 71
3
 72
8
 73
4
 74
0
 40
0
 40
0
 40
0
 40
0
 40
1
 40
1
 40
1
 40
1
 10
105.410132
 20
83.779423
 30
0.0
 10
105.645717
 20
83.311831
 30
0.0
 10
106.086114
 20
82.616646
 30
0.0
 10
106.388789
 20
82.234569
 30
0.0
  0
SPLINE
  5
168
100
AcDbEntity
  8
0
 62
7
100
AcDbSpline
 70
8
 71
3
 72
8
 73
4
 74
0
 40
0
 40
0
 40
0
 40
0
 40
1
 40
1
 40
1
 40
1
 10
106.388789
 20
82.234569
 30
0.0
 10
106.996405
 20
81.467555
 30
0.0
 10
107.668129
 20
78.972159
 30
0.0
 10
107.674558
 20
77.458049
 30
0.0
  0
SPLINE
  5
169
100
AcDbEntity
  8
0
 62
7
100
AcDbSpline
 70
8
 71
3
 72
8
 73
4
 74
0
 40
0
 40
0
 40
0
 40
0
 40
1
 40
1
 40
1
 40
1
 10
107.674558
 20
77.458049
 30
0.0
 10
107.678739
 20
76.476961
 30
0.0
 10
107.142653
 20
75.653212
 30
0.0
 10
106.500025
 20
75.653212
 30
0.0
  0
SPLINE
  5
16a
100
AcDbEntity
  8
0
 62
7
100
AcDbSpline
 70
8
 71
3
 72
8
 73
4
 74
0
 40
0
 40
0
 40
0
 40
0
 40
1
 40
1
 40
1
 40
1
 10
106.500025
 20
75.653212
 30
0.0
 10
106.087206
 20
75.653212
 30
0.0
 10
105.835193
 20
74.834022
 30
0.0
 10
105.830219
 20
73.475956
 30
0.0
  0
SPLINE
  5
16b
100
AcDbEntity
  8
0
 62
7
100
AcDbSpline
 70
8
 71
3
 72
8
 73
4
 74
0
 40
0
 40
0
 40
0
 40
0
 40
1
 40
1
 40
1
 40
1
 10
105.830219
 20
73.475956
 30
0.0
 10
105.828103
 20
72.933309
 30
0.0
 10
105.571279
 20
71.711537
 30
0.0
 10
105.259209
 20
70.760910
 30
0.0
  0
SPLINE
  5
16c
100
AcDbEntity
  8
0
 62
7
100
AcDbSpline
 70
8
 71
3
 72
8
 73
4
 74
0
 40
0
 40
0
 40
0
 40
0
 40
1
 40
1
 40
1
 40
1
 10
105.259209
 20
70.760910
 30
0.0
 10
104.756093
 20
69.228311
 30
0.0
 10
104.735955
 20
68.980386
 30
0.0
 10
105.081467
 20
68.572541
 30
0.0
  0
SPLINE
  5
16d
100
AcDbEntity
  8
0
 62
7
100
AcDbSpline
 70
8
 71
3
 72
8
 73
4
 74
0
 40
0
 40
0
 40
0
 40
0
 40
1
 40
1
 40
1
 40
1
 10
105.081467
 20
68.572541
 30
0.0
 10
106.521777
 20
66.872387
 30
0.0
 10
107.578782
 20
63.919084
 30
0.0
 10
108.063221
 20
60.241447
 30
0.0
  0
SPLINE
  5
16e
100
AcDbEntity
  8
0
 62
7
100
AcDbSpline
 70
8
 71
3
 72
8
 73
4
 74
0
 40
0
 40
0
 40
0
 40
0
 40
1
 40
1
 40
1
 40
1
 10
108.063221
 20
60.241447
 30
0.0
 10
108.684624
 20
55.524022
 30
0.0
 10
108.631392
 20
55.658332
 30
0.0
 10
111.287833
 20
52.105295
 30
0.0
  0
SPLINE
  5
16f
100
AcDbEntity
  8
0
 62
7
100
AcDbSpline
 70
8
 71
3
 72
8
 73
4
 74
0
 40
0
 40
0
 40
0
 40
0
 40
1
 40
1
 40
1
 40
1
 10
111.287833
 20
52.105295
 30
0.0
 10
113.712432
 20
48.862350
 30
0.0
 10
114.483549
 20
47.426525
 30
0.0
 10
114.198934
 20
46.684827
 30
0.0
  0
SPLINE
  5
170
100
AcDbEntity
  8
0
 62
7
100
AcDbSpline
 70
8
 71
3
 72
8
 73
4
 74
0
 40
0
 40
0
 40
0
 40
0
 40
1
 40
1
 40
1
 40
1
 10
114.198934
 20
46.684827
 30
0.0
 10
114.120515
 20
46.480468
 30
0.0
 10
113.186924
 20
45.898969
 30
0.0
 10
112.124292
 20
45.392605
 30
0.0
  0
SPLINE
  5
171
100
AcDbEntity
  8
0
 62
7
100
AcDbSpline
 70
8
 71
3
 72
8
 73
4
 74
0
 40
0
 40
0
 40
0
 40
0
 40
1
 40
1
 40
1
 40
1
 10
112.124292
 20
45.392605
 30
0.0
 10
111.061659
 20
44.886242
 30
0.0
 10
109.826465
 20
44.126462
 30
0.0
 10
109.379414
 20
43.704206
 30
0.0
  0
SPLINE
  5
172
100
AcDbEntity
  8
0
 62
7
100
AcDbSpline
 70
8
 71
3
 72
8
 73
4
 74
0
 40
0
 40
0
 40
0
 40
0
 40
1
 40
1
 40
1
 40
1
 10
109.379414
 20
43.704206
 30
0.0
 10
108.507284
 20
42.880444
 30
0.0
 10
107.678691
 20
41.792663
 30
0.0
 10
107.678691
 20
41.471488
 30
0.0
  0
SPLINE
  5
173
100
AcDbEntity
  8
0
 62
7
100
AcDbSpline
 70
8
 71
3
 72
8
 73
4
 74
0
 40
0
 40
0
 40
0
 40
0
 40
1
 40
1
 40
1
 40
1
 10
107.678691
 20
41.471488
 30
0.0
 10
107.678691
 20
41.362963
 30
0.0
 10
109.077675
 20
41.240628
 30
0.0
 10
110.787545
 20
41.199631
 30
0.0
  0
LWPOLYLINE
  5
174
100
AcDbEntity
  8
0
 62
7
100
AcDbPolyline
 90
3
 70
0
 10
81.232481
 20
114.427577
 30
0.0
 10
80.596624
 20
113.750736
 30
0.0
 10
81.264472
 20
111.846852
 30
0.0
  0
SPLINE
  5
175
100
AcDbEntity
  8
0
 62
7
100
AcDbSpline
 70
8
 71
3
 72
8
 73
4
 74
0
 40
0
 40
0
 40
0
 40
0
 40
1
 40
1
 40
1
 40
1
 10
113.973036
 20
38.635265
 30
0.0
 10
114.020224
 20
37.102137
 30
0.0
 10
113.939817
 20
36.035589
 30
0.0
 10
113.763774
 20
35.859545
 30
0.0
  0
SPLINE
  5
176
100
AcDbEntity
  8
0
 62
7
100
AcDbSpline
 70
8
 71
3
 72
8
 73
4
 74
0
 40
0
 40
0
 40
0
 40
0
 40
1
 40
1
 40
1
 40
1
 10
113.763774
 20
35.859545
 30
0.0
 10
113.572531
 20
35.668302
 30
0.0
 10
111.785487
 20
35.602127
 30
0.0
 10
108.366182
 20
35.659669
 30
0.0
  0
SPLINE
  5
177
100
AcDbEntity
  8
0
 62
7
100
AcDbSpline
 70
8
 71
3
 72
8
 73
4
 74
0
 40
0
 40
0
 40
0
 40
0
 40
1
 40
1
 40
1
 40
1
 10
108.366182
 20
35.659669
 30
0.0
 10
103.720315
 20
35.737850
 30
0.0
 10
103.238506
 20
35.704042
 30
0.0
 10
103.079111
 20
35.288664
 30
0.0
  0
SPLINE
  5
178
100
AcDbEntity
  8
0
 62
7
100
AcDbSpline
 70
8
 71
3
 72
8
 73
4
 74
0
 40
0
 40
0
 40
0
 40
0
 40
1
 40
1
 40
1
 40
1
 10
103.079111
 20
35.288664
 30
0.0
 10
102.982654
 20
35.037302
 30
0.0
 10
102.944798
 20
34.790578
 30
0.0
 10
102.994987
 20
34.740390
 30
0.0
  0
SPLINE
  5
179
100
AcDbEntity
  8
0
 62
7
100
AcDbSpline
 70
8
 71
3
 72
8
 73
4
 74
0
 40
0
 40
0
 40
0
 40
0
 40
1
 40
1
 40
1
 40
1
 10
102.994987
 20
34.740390
 30
0.0
 10
103.045173
 20
34.690201
 30
0.0
 10
104.268368
 20
34.558414
 30
0.0
 10
105.713194
 20
34.447530
 30
0.0
  0
LWPOLYLINE
  5
17a
100
AcDbEntity
  8
0
 62
7
100
AcDbPolyline
 90
3
 70
0
 10
110.787545
 20
41.199631
 30
0.0
 10
113.896399
 20
41.125087
 30
0.0
 10
113.973036
 20
38.635265
 30
0.0
  0
SPLINE
  5
17b
100
AcDbEntity
  8
0
 62
7
100
AcDbSpline
 70
8
 71
3
 72
8
 73
4
 74
0
 40
0
 40
0
 40
0
 40
0
 40
1
 40
1
 40
1
 40
1
 10
108.472441
 20
31.645654
 30
0.0
 10
108.664790
 20
27.864922
 30
0.0
 10
108.813695
 20
28.028212
 30
0.0
 10
105.173674
 20
28.028212
 30
0.0
  0
SPLINE
  5
17c
100
AcDbEntity
  8
0
 62
7
100
AcDbSpline
 70
8
 71
3
 72
8
 73
4
 74
0
 40
0
 40
0
 40
0
 40
0
 40
1
 40
1
 40
1
 40
1
 10
105.173674
 20
28.028212
 30
0.0
 10
102.149301
 20
28.028212
 30
0.0
 10
102.122441
 20
28.022762
 30
0.0
 10
102.122441
 20
27.407838
 30
0.0
  0
LWPOLYLINE
  5
17d
100
AcDbEntity
  8
0
 62
7
100
AcDbPolyline
 90
3
 70
0
 10
105.713194
 20
34.447530
 30
0.0
 10
108.340149
 20
34.245920
 30
0.0
 10
108.472441
 20
31.645654
 30
0.0
  0
SPLINE
  5
17e
100
AcDbEntity
  8
0
 62
7
100
AcDbSpline
 70
8
 71
3
 72
8
 73
4
 74
0
 40
0
 40
0
 40
0
 40
0
 40
1
 40
1
 40
1
 40
1
 10
111.286433
 20
26.634919
 30
0.0
 10
118.417853
 20
26.516206
 30
0.0
 10
120.521037
 20
26.404395
 30
0.0
 10
120.768777
 20
26.130811
 30
0.0
  0
SPLINE
  5
17f
100
AcDbEntity
  8
0
 62
7
100
AcDbSpline
 70
8
 71
3
 72
8
 73
4
 74
0
 40
0
 40
0
 40
0
 40
0
 40
1
 40
1
 40
1
 40
1
 10
120.768777
 20
26.130811
 30
0.0
 10
120.994390
 20
25.881669
 30
0.0
 10
121.041747
 20
25.047022
 30
0.0
 10
120.931347
 20
23.265712
 30
0.0
  0
LWPOLYLINE
  5
180
100
AcDbEntity
  8
0
 62
7
100
AcDbPolyline
 90
3
 70
0
 10
102.122441
 20
27.407838
 30
0.0
 10
102.122441
 20
26.787467
 30
0.0
 10
111.286433
 20
26.634919
 30
0.0
  0
SPLINE
  5
181
100
AcDbEntity
  8
0
 62
7
100
AcDbSpline
 70
8
 71
3
 72
8
 73
4
 74
0
 40
0
 40
0
 40
0
 40
0
 40
1
 40
1
 40
1
 40
1
 10
112.715040
 20
20.682061
 30
0.0
 10
107.895901
 20
20.640143
 30
0.0
 10
104.550107
 20
20.507545
 30
0.0
 10
104.394884
 20
20.352321
 30
0.0
  0
SPLINE
  5
182
100
AcDbEntity
  8
0
 62
7
100
AcDbSpline
 70
8
 71
3
 72
8
 73
4
 74
0
 40
0
 40
0
 40
0
 40
0
 40
1
 40
1
 40
1
 40
1
 10
104.394884
 20
20.352321
 30
0.0
 10
104.045919
 20
20.003357
 30
0.0
 10
104.750116
 20
19.463951
 30
0.0
 10
106.884941
 20
18.444967
 30
0.0
  0
SPLINE
  5
183
100
AcDbEntity
  8
0
 62
7
100
AcDbSpline
 70
8
 71
3
 72
8
 73
4
 74
0
 40
0
 40
0
 40
0
 40
0
 40
1
 40
1
 40
1
 40
1
 10
106.884941
 20
18.444967
 30
0.0
 10
107.830826
 20
17.993482
 30
0.0
 10
109.140514
 20
17.241449
 30
0.0
 10
109.795358
 20
16.773782
 30
0.0
  0
SPLINE
  5
184
100
AcDbEntity
  8
0
 62
7
100
AcDbSpline
 70
8
 71
3
 72
8
 73
4
 74
0
 40
0
 40
0
 40
0
 40
0
 40
1
 40
1
 40
1
 40
1
 10
109.795358
 20
16.773782
 30
0.0
 10
110.450201
 20
16.306115
 30
0.0
 10
111.646338
 20
15.733736
 30
0.0
 10
112.453441
 20
15.501832
 30
0.0
  0
SPLINE
  5
185
100
AcDbEntity
  8
0
 62
7
100
AcDbSpline
 70
8
 71
3
 72
8
 73
4
 74
0
 40
0
 40
0
 40
0
 40
0
 40
1
 40
1
 40
1
 40
1
 10
112.453441
 20
15.501832
 30
0.0
 10
114.132238
 20
15.019457
 30
0.0
 10
114.835157
 20
14.378546
 30
0.0
 10
115.570209
 20
12.659998
 30
0.0
  0
SPLINE
  5
186
100
AcDbEntity
  8
0
 62
7
100
AcDbSpline
 70
8
 71
3
 72
8
 73
4
 74
0
 40
0
 40
0
 40
0
 40
0
 40
1
 40
1
 40
1
 40
1
 10
115.570209
 20
12.659998
 30
0.0
 10
116.378924
 20
10.769230
 30
0.0
 10
116.710701
 20
10.697371
 30
0.0
 10
124.612024
 20
10.701695
 30
0.0
  0
SPLINE
  5
187
100
AcDbEntity
  8
0
 62
7
100
AcDbSpline
 70
8
 71
3
 72
8
 73
4
 74
0
 40
0
 40
0
 40
0
 40
0
 40
1
 40
1
 40
1
 40
1
 10
124.612024
 20
10.701695
 30
0.0
 10
128.322806
 20
10.703811
 30
0.0
 10
133.361816
 20
10.863778
 30
0.0
 10
135.809826
 20
11.057366
 30
0.0
  0
SPLINE
  5
188
100
AcDbEntity
  8
0
 62
7
100
AcDbSpline
 70
8
 71
3
 72
8
 73
4
 74
0
 40
0
 40
0
 40
0
 40
0
 40
1
 40
1
 40
1
 40
1
 10
135.809826
 20
11.057366
 30
0.0
 10
139.844312
 20
11.376411
 30
0.0
 10
140.836150
 20
11.355811
 30
0.0
 10
140.441511
 20
10.961169
 30
0.0
  0
SPLINE
  5
189
100
AcDbEntity
  8
0
 62
7
100
AcDbSpline
 70
8
 71
3
 72
8
 73
4
 74
0
 40
0
 40
0
 40
0
 40
0
 40
1
 40
1
 40
1
 40
1
 10
140.441511
 20
10.961169
 30
0.0
 10
140.367970
 20
10.887631
 30
0.0
 10
139.028538
 20
10.659446
 30
0.0
 10
137.464990
 20
10.454095
 30
0.0
  0
SPLINE
  5
18a
100
AcDbEntity
  8
0
 62
7
100
AcDbSpline
 70
8
 71
3
 72
8
 73
4
 74
0
 40
0
 40
0
 40
0
 40
0
 40
1
 40
1
 40
1
 40
1
 10
137.464990
 20
10.454095
 30
0.0
 10
135.901446
 20
10.248744
 30
0.0
 10
134.555587
 20
10.014135
 30
0.0
 10
134.474191
 20
9.932741
 30
0.0
  0
SPLINE
  5
18b
100
AcDbEntity
  8
0
 62
7
100
AcDbSpline
 70
8
 71
3
 72
8
 73
4
 74
0
 40
0
 40
0
 40
0
 40
0
 40
1
 40
1
 40
1
 40
1
 10
134.474191
 20
9.932741
 30
0.0
 10
134.392797
 20
9.851345
 30
0.0
 10
134.485383
 20
9.592945
 30
0.0
 10
134.679941
 20
9.358519
 30
0.0
  0
SPLINE
  5
18c
100
AcDbEntity
  8
0
 62
7
100
AcDbSpline
 70
8
 71
3
 72
8
 73
4
 74
0
 40
0
 40
0
 40
0
 40
0
 40
1
 40
1
 40
1
 40
1
 10
134.679941
 20
9.358519
 30
0.0
 10
134.994938
 20
8.978971
 30
0.0
 10
135.701797
 20
8.952714
 30
0.0
 10
141.133790
 20
9.118785
 30
0.0
  0
SPLINE
  5
18d
100
AcDbEntity
  8
0
 62
7
100
AcDbSpline
 70
8
 71
3
 72
8
 73
4
 74
0
 40
0
 40
0
 40
0
 40
0
 40
1
 40
1
 40
1
 40
1
 10
141.133790
 20
9.118785
 30
0.0
 10
146.157569
 20
9.272378
 30
0.0
 10
147.318690
 20
9.379834
 30
0.0
 10
147.714454
 20
9.727790
 30
0.0
  0
SPLINE
  5
18e
100
AcDbEntity
  8
0
 62
7
100
AcDbSpline
 70
8
 71
3
 72
8
 73
4
 74
0
 40
0
 40
0
 40
0
 40
0
 40
1
 40
1
 40
1
 40
1
 10
147.714454
 20
9.727790
 30
0.0
 10
148.171908
 20
10.129986
 30
0.0
 10
148.172657
 20
10.166638
 30
0.0
 10
147.730038
 20
10.490295
 30
0.0
  0
SPLINE
  5
18f
100
AcDbEntity
  8
0
 62
7
100
AcDbSpline
 70
8
 71
3
 72
8
 73
4
 74
0
 40
0
 40
0
 40
0
 40
0
 40
1
 40
1
 40
1
 40
1
 10
147.730038
 20
10.490295
 30
0.0
 10
147.474300
 20
10.677295
 30
0.0
 10
146.781800
 20
10.831920
 30
0.0
 10
146.191150
 20
10.833907
 30
0.0
  0
SPLINE
  5
190
100
AcDbEntity
  8
0
 62
7
100
AcDbSpline
 70
8
 71
3
 72
8
 73
4
 74
0
 40
0
 40
0
 40
0
 40
0
 40
1
 40
1
 40
1
 40
1
 10
146.191150
 20
10.833907
 30
0.0
 10
145.600499
 20
10.836024
 30
0.0
 10
144.839285
 20
10.911946
 30
0.0
 10
144.499563
 20
11.002907
 30
0.0
  0
SPLINE
  5
191
100
AcDbEntity
  8
0
 62
7
100
AcDbSpline
 70
8
 71
3
 72
8
 73
4
 74
0
 40
0
 40
0
 40
0
 40
0
 40
1
 40
1
 40
1
 40
1
 10
144.499563
 20
11.002907
 30
0.0
 10
143.591351
 20
11.246085
 30
0.0
 10
144.321461
 20
11.614989
 30
0.0
 10
145.720856
 20
11.619995
 30
0.0
  0
SPLINE
  5
192
100
AcDbEntity
  8
0
 62
7
100
AcDbSpline
 70
8
 71
3
 72
8
 73
4
 74
0
 40
0
 40
0
 40
0
 40
0
 40
1
 40
1
 40
1
 40
1
 10
145.720856
 20
11.619995
 30
0.0
 10
146.505615
 20
11.622799
 30
0.0
 10
146.902837
 20
11.752247
 30
0.0
 10
147.013766
 20
12.041330
 30
0.0
  0
SPLINE
  5
193
100
AcDbEntity
  8
0
 62
7
100
AcDbSpline
 70
8
 71
3
 72
8
 73
4
 74
0
 40
0
 40
0
 40
0
 40
0
 40
1
 40
1
 40
1
 40
1
 10
147.013766
 20
12.041330
 30
0.0
 10
147.186036
 20
12.490252
 30
0.0
 10
144.556075
 20
17.914424
 30
0.0
 10
143.624094
 20
19.032379
 30
0.0
  0
LWPOLYLINE
  5
194
100
AcDbEntity
  8
0
 62
7
100
AcDbPolyline
 90
3
 70
0
 10
120.931347
 20
23.265712
 30
0.0
 10
120.775566
 20
20.752170
 30
0.0
 10
112.715040
 20
20.682061
 30
0.0
  0
SPLINE
  5
195
100
AcDbEntity
  8
0
 62
7
100
AcDbSpline
 70
8
 71
3
 72
8
 73
4
 74
0
 40
0
 40
0
 40
0
 40
0
 40
1
 40
1
 40
1
 40
1
 10
136.289746
 20
19.707834
 30
0.0
 10
128.773124
 20
19.723365
 30
0.0
 10
121.966191
 20
20.041029
 30
0.0
 10
121.966191
 20
20.376303
 30
0.0
  0
SPLINE
  5
196
100
AcDbEntity
  8
0
 62
7
100
AcDbSpline
 70
8
 71
3
 72
8
 73
4
 74
0
 40
0
 40
0
 40
0
 40
0
 40
1
 40
1
 40
1
 40
1
 10
121.966191
 20
20.376303
 30
0.0
 10
121.966191
 20
20.735163
 30
0.0
 10
142.611647
 20
20.631669
 30
0.0
 10
143.463402
 20
20.268539
 30
0.0
  0
SPLINE
  5
197
100
AcDbEntity
  8
0
 62
7
100
AcDbSpline
 70
8
 71
3
 72
8
 73
4
 74
0
 40
0
 40
0
 40
0
 40
0
 40
1
 40
1
 40
1
 40
1
 10
143.463402
 20
20.268539
 30
0.0
 10
143.996439
 20
20.041291
 30
0.0
 10
144.690751
 20
19.074641
 30
0.0
 10
146.061663
 20
16.651129
 30
0.0
  0
SPLINE
  5
198
100
AcDbEntity
  8
0
 62
7
100
AcDbSpline
 70
8
 71
3
 72
8
 73
4
 74
0
 40
0
 40
0
 40
0
 40
0
 40
1
 40
1
 40
1
 40
1
 10
146.061663
 20
16.651129
 30
0.0
 10
148.966066
 20
11.516699
 30
0.0
 10
149.298380
 20
10.690995
 30
0.0
 10
149.036865
 20
9.258623
 30
0.0
  0
LWPOLYLINE
  5
199
100
AcDbEntity
  8
0
 62
7
100
AcDbPolyline
 90
3
 70
0
 10
143.624094
 20
19.032379
 30
0.0
 10
143.072668
 20
19.693837
 30
0.0
 10
136.289746
 20
19.707834
 30
0.0
  0
SPLINE
  5
19a
100
AcDbEntity
  8
0
 62
7
100
AcDbSpline
 70
8
 71
3
 72
8
 73
4
 74
0
 40
0
 40
0
 40
0
 40
0
 40
1
 40
1
 40
1
 40
1
 10
143.319048
 20
7.989282
 30
0.0
 10
140.295395
 20
7.954690
 30
0.0
 10
131.247724
 20
7.789516
 30
0.0
 10
123.213114
 20
7.622225
 30
0.0
  0
SPLINE
  5
19b
100
AcDbEntity
  8
0
 62
7
100
AcDbSpline
 70
8
 71
3
 72
8
 73
4
 74
0
 40
0
 40
0
 40
0
 40
0
 40
1
 40
1
 40
1
 40
1
 10
123.213114
 20
7.622225
 30
0.0
 10
105.330448
 20
7.249888
 30
0.0
 10
104.468086
 20
7.243985
 30
0.0
 10
87.702649
 20
7.379155
 30
0.0
  0
SPLINE
  5
19c
100
AcDbEntity
  8
0
 62
7
100
AcDbSpline
 70
8
 71
3
 72
8
 73
4
 74
0
 40
0
 40
0
 40
0
 40
0
 40
1
 40
1
 40
1
 40
1
 10
87.702649
 20
7.379155
 30
0.0
 10
73.383024
 20
7.494606
 30
0.0
 10
67.726608
 20
7.302368
 30
0.0
 10
67.726608
 20
6.700247
 30
0.0
  0
SPLINE
  5
19d
100
AcDbEntity
  8
0
 62
7
100
AcDbSpline
 70
8
 71
3
 72
8
 73
4
 74
0
 40
0
 40
0
 40
0
 40
0
 40
1
 40
1
 40
1
 40
1
 10
67.726608
 20
6.700247
 30
0.0
 10
67.726608
 20
5.664351
 30
0.0
 10
66.490122
 20
3.236150
 30
0.0
 10
65.379896
 20
2.091796
 30
0.0
  0
SPLINE
  5
19e
100
AcDbEntity
  8
0
 62
7
100
AcDbSpline
 70
8
 71
3
 72
8
 73
4
 74
0
 40
0
 40
0
 40
0
 40
0
 40
1
 40
1
 40
1
 40
1
 10
65.379896
 20
2.091796
 30
0.0
 10
63.571318
 20
0.227618
 30
0.0
 10
61.685951
 20
-0.123370
 30
0.0
 10
57.540149
 20
0.632309
 30
0.0
  0
LWPOLYLINE
  5
19f
100
AcDbEntity
  8
0
 62
7
100
AcDbPolyline
 90
3
 70
0
 10
149.036865
 20
9.258623
 30
0.0
 10
148.816600
 20
8.052170
 30
0.0
 10
143.319048
 20
7.989282
 30
0.0
  0
SPLINE
  5
1a0
100
AcDbEntity
  8
0
 62
7
100
AcDbSpline
 70
8
 71
3
 72
8
 73
4
 74
0
 40
0
 40
0
 40
0
 40
0
 40
1
 40
1
 40
1
 40
1
 10
63.038752
 20
1.403488
 30
0.0
 10
63.898267
 20
1.769721
 30
0.0
 10
65.387567
 20
3.157379
 30
0.0
 10
64.921111
 20
3.157379
 30
0.0
  0
SPLINE
  5
1a1
100
AcDbEntity
  8
0
 62
7
100
AcDbSpline
 70
8
 71
3
 72
8
 73
4
 74
0
 40
0
 40
0
 40
0
 40
0
 40
1
 40
1
 40
1
 40
1
 10
64.921111
 20
3.157379
 30
0.0
 10
64.782565
 20
3.157379
 30
0.0
 10
64.470777
 20
2.925625
 30
0.0
 10
64.228247
 20
2.642373
 30
0.0
  0
SPLINE
  5
1a2
100
AcDbEntity
  8
0
 62
7
100
AcDbSpline
 70
8
 71
3
 72
8
 73
4
 74
0
 40
0
 40
0
 40
0
 40
0
 40
1
 40
1
 40
1
 40
1
 10
64.228247
 20
2.642373
 30
0.0
 10
63.482223
 20
1.771078
 30
0.0
 10
61.966136
 20
1.528038
 30
0.0
 10
59.213697
 20
1.838505
 30
0.0
  0
SPLINE
  5
1a3
100
AcDbEntity
  8
0
 62
7
100
AcDbSpline
 70
8
 71
3
 72
8
 73
4
 74
0
 40
0
 40
0
 40
0
 40
0
 40
1
 40
1
 40
1
 40
1
 10
59.213697
 20
1.838505
 30
0.0
 10
56.575687
 20
2.136061
 30
0.0
 10
55.224341
 20
2.426608
 30
0.0
 10
53.632190
 20
3.038554
 30
0.0
  0
SPLINE
  5
1a4
100
AcDbEntity
  8
0
 62
7
100
AcDbSpline
 70
8
 71
3
 72
8
 73
4
 74
0
 40
0
 40
0
 40
0
 40
0
 40
1
 40
1
 40
1
 40
1
 10
53.632190
 20
3.038554
 30
0.0
 10
52.433278
 20
3.499361
 30
0.0
 10
52.294801
 20
3.510539
 30
0.0
 10
52.531595
 20
3.127396
 30
0.0
  0
SPLINE
  5
1a5
100
AcDbEntity
  8
0
 62
7
100
AcDbSpline
 70
8
 71
3
 72
8
 73
4
 74
0
 40
0
 40
0
 40
0
 40
0
 40
1
 40
1
 40
1
 40
1
 10
52.531595
 20
3.127396
 30
0.0
 10
53.361601
 20
1.784421
 30
0.0
 10
60.993901
 20
0.532188
 30
0.0
 10
63.038752
 20
1.403488
 30
0.0
  0
LWPOLYLINE
  5
1a6
100
AcDbEntity
  8
0
 62
7
100
AcDbPolyline
 90
1
 70
1
 10
57.540149
 20
0.632309
 30
0.0
  0
SPLINE
  5
1a7
100
AcDbEntity
  8
0
 62
7
100
AcDbSpline
 70
8
 71
3
 72
8
 73
4
 74
0
 40
0
 40
0
 40
0
 40
0
 40
1
 40
1
 40
1
 40
1
 10
63.418051
 20
2.958941
 30
0.0
 10
64.166049
 20
3.462914
 30
0.0
 10
64.290347
 20
3.691311
 30
0.0
 10
64.228173
 20
4.447527
 30
0.0
  0
SPLINE
  5
1a8
100
AcDbEntity
  8
0
 62
7
100
AcDbSpline
 70
8
 71
3
 72
8
 73
4
 74
0
 40
0
 40
0
 40
0
 40
0
 40
1
 40
1
 40
1
 40
1
 10
64.228173
 20
4.447527
 30
0.0
 10
64.167856
 20
5.181185
 30
0.0
 10
63.883818
 20
5.554141
 30
0.0
 10
62.638559
 20
6.534766
 30
0.0
  0
SPLINE
  5
1a9
100
AcDbEntity
  8
0
 62
7
100
AcDbSpline
 70
8
 71
3
 72
8
 73
4
 74
0
 40
0
 40
0
 40
0
 40
0
 40
1
 40
1
 40
1
 40
1
 10
62.638559
 20
6.534766
 30
0.0
 10
61.675163
 20
7.293427
 30
0.0
 10
60.614060
 20
7.858040
 30
0.0
 10
59.728142
 20
8.083397
 30
0.0
  0
LWPOLYLINE
  5
1aa
100
AcDbEntity
  8
0
 62
7
100
AcDbPolyline
 90
1
 70
1
 10
63.038752
 20
1.403488
 30
0.0
  0
SPLINE
  5
1ab
100
AcDbEntity
  8
0
 62
7
100
AcDbSpline
 70
8
 71
3
 72
8
 73
4
 74
0
 40
0
 40
0
 40
0
 40
0
 40
1
 40
1
 40
1
 40
1
 10
59.789108
 20
8.283017
 30
0.0
 10
62.007083
 20
8.046707
 30
0.0
 10
62.170358
 20
8.067611
 30
0.0
 10
62.170358
 20
8.587886
 30
0.0
  0
SPLINE
  5
1ac
100
AcDbEntity
  8
0
 62
7
100
AcDbSpline
 70
8
 71
3
 72
8
 73
4
 74
0
 40
0
 40
0
 40
0
 40
0
 40
1
 40
1
 40
1
 40
1
 10
62.170358
 20
8.587886
 30
0.0
 10
62.170358
 20
9.164995
 30
0.0
 10
61.065492
 20
9.506482
 30
0.0
 10
59.176571
 20
9.513189
 30
0.0
  0
LWPOLYLINE
  5
1ad
100
AcDbEntity
  8
0
 62
7
100
AcDbPolyline
 90
3
 70
0
 10
59.728142
 20
8.083397
 30
0.0
 10
58.333899
 20
8.438057
 30
0.0
 10
59.789108
 20
8.283017
 30
0.0
  0
SPLINE
  5
1ae
100
AcDbEntity
  8
0
 62
7
100
AcDbSpline
 70
8
 71
3
 72
8
 73
4
 74
0
 40
0
 40
0
 40
0
 40
0
 40
1
 40
1
 40
1
 40
1
 10
58.693521
 20
10.042366
 30
0.0
 10
60.127653
 20
10.693120
 30
0.0
 10
60.677457
 20
10.691262
 30
0.0
 10
62.133104
 20
10.030751
 30
0.0
  0
SPLINE
  5
1af
100
AcDbEntity
  8
0
 62
7
100
AcDbSpline
 70
8
 71
3
 72
8
 73
4
 74
0
 40
0
 40
0
 40
0
 40
0
 40
1
 40
1
 40
1
 40
1
 10
62.133104
 20
10.030751
 30
0.0
 10
63.334506
 20
9.485601
 30
0.0
 10
64.425748
 20
9.333463
 30
0.0
 10
64.170340
 20
9.746726
 30
0.0
  0
SPLINE
  5
1b0
100
AcDbEntity
  8
0
 62
7
100
AcDbSpline
 70
8
 71
3
 72
8
 73
4
 74
0
 40
0
 40
0
 40
0
 40
0
 40
1
 40
1
 40
1
 40
1
 10
64.170340
 20
9.746726
 30
0.0
 10
64.088986
 20
9.878359
 30
0.0
 10
63.396569
 20
10.339268
 30
0.0
 10
62.631635
 20
10.770971
 30
0.0
  0
SPLINE
  5
1b1
100
AcDbEntity
  8
0
 62
7
100
AcDbSpline
 70
8
 71
3
 72
8
 73
4
 74
0
 40
0
 40
0
 40
0
 40
0
 40
1
 40
1
 40
1
 40
1
 10
62.631635
 20
10.770971
 30
0.0
 10
61.406773
 20
11.462239
 30
0.0
 10
61.009927
 20
11.550330
 30
0.0
 10
59.305338
 20
11.509327
 30
0.0
  0
SPLINE
  5
1b2
100
AcDbEntity
  8
0
 62
7
100
AcDbSpline
 70
8
 71
3
 72
8
 73
4
 74
0
 40
0
 40
0
 40
0
 40
0
 40
1
 40
1
 40
1
 40
1
 10
59.305338
 20
11.509327
 30
0.0
 10
57.467034
 20
11.465110
 30
0.0
 10
57.336640
 20
11.420359
 30
0.0
 10
56.708866
 20
10.618213
 30
0.0
  0
SPLINE
  5
1b3
100
AcDbEntity
  8
0
 62
7
100
AcDbSpline
 70
8
 71
3
 72
8
 73
4
 74
0
 40
0
 40
0
 40
0
 40
0
 40
1
 40
1
 40
1
 40
1
 10
56.708866
 20
10.618213
 30
0.0
 10
56.345333
 20
10.153706
 30
0.0
 10
55.226223
 20
9.242115
 30
0.0
 10
54.221954
 20
8.592455
 30
0.0
  0
SPLINE
  5
1b4
100
AcDbEntity
  8
0
 62
7
100
AcDbSpline
 70
8
 71
3
 72
8
 73
4
 74
0
 40
0
 40
0
 40
0
 40
0
 40
1
 40
1
 40
1
 40
1
 10
54.221954
 20
8.592455
 30
0.0
 10
52.208459
 20
7.289932
 30
0.0
 10
51.874658
 20
6.675318
 30
0.0
 10
52.368336
 20
5.179462
 30
0.0
  0
SPLINE
  5
1b5
100
AcDbEntity
  8
0
 62
7
100
AcDbSpline
 70
8
 71
3
 72
8
 73
4
 74
0
 40
0
 40
0
 40
0
 40
0
 40
1
 40
1
 40
1
 40
1
 10
52.368336
 20
5.179462
 30
0.0
 10
52.755067
 20
4.007654
 30
0.0
 10
53.678860
 20
3.631769
 30
0.0
 10
58.863066
 20
2.536796
 30
0.0
  0
SPLINE
  5
1b6
100
AcDbEntity
  8
0
 62
7
100
AcDbSpline
 70
8
 71
3
 72
8
 73
4
 74
0
 40
0
 40
0
 40
0
 40
0
 40
1
 40
1
 40
1
 40
1
 10
58.863066
 20
2.536796
 30
0.0
 10
59.154108
 20
2.475323
 30
0.0
 10
60.099239
 20
2.411217
 30
0.0
 10
60.963360
 20
2.394336
 30
0.0
  0
SPLINE
  5
1b7
100
AcDbEntity
  8
0
 62
7
100
AcDbSpline
 70
8
 71
3
 72
8
 73
4
 74
0
 40
0
 40
0
 40
0
 40
0
 40
1
 40
1
 40
1
 40
1
 10
60.963360
 20
2.394336
 30
0.0
 10
62.188794
 20
2.370392
 30
0.0
 10
62.728898
 20
2.494632
 30
0.0
 10
63.418051
 20
2.958957
 30
0.0
  0
LWPOLYLINE
  5
1b8
100
AcDbEntity
  8
0
 62
7
100
AcDbPolyline
 90
3
 70
0
 10
59.176571
 20
9.513189
 30
0.0
 10
57.540149
 20
9.519010
 30
0.0
 10
58.693521
 20
10.042366
 30
0.0
  0
SPLINE
  5
1b9
100
AcDbEntity
  8
0
 62
7
100
AcDbSpline
 70
8
 71
3
 72
8
 73
4
 74
0
 40
0
 40
0
 40
0
 40
0
 40
1
 40
1
 40
1
 40
1
 10
62.973159
 20
3.968041
 30
0.0
 10
63.189223
 20
4.371761
 30
0.0
 10
63.184720
 20
4.611351
 30
0.0
 10
62.955882
 20
4.887082
 30
0.0
  0
SPLINE
  5
1ba
100
AcDbEntity
  8
0
 62
7
100
AcDbSpline
 70
8
 71
3
 72
8
 73
4
 74
0
 40
0
 40
0
 40
0
 40
0
 40
1
 40
1
 40
1
 40
1
 10
62.955882
 20
4.887082
 30
0.0
 10
62.637802
 20
5.270344
 30
0.0
 10
61.123012
 20
5.659046
 30
0.0
 10
60.189319
 20
5.596998
 30
0.0
  0
SPLINE
  5
1bb
100
AcDbEntity
  8
0
 62
7
100
AcDbSpline
 70
8
 71
3
 72
8
 73
4
 74
0
 40
0
 40
0
 40
0
 40
0
 40
1
 40
1
 40
1
 40
1
 10
60.189319
 20
5.596998
 30
0.0
 10
59.762432
 20
5.568630
 30
0.0
 10
59.737540
 20
5.608878
 30
0.0
 10
60.057027
 20
5.810872
 30
0.0
  0
SPLINE
  5
1bc
100
AcDbEntity
  8
0
 62
7
100
AcDbSpline
 70
8
 71
3
 72
8
 73
4
 74
0
 40
0
 40
0
 40
0
 40
0
 40
1
 40
1
 40
1
 40
1
 10
60.057027
 20
5.810872
 30
0.0
 10
60.829534
 20
6.299298
 30
0.0
 10
62.570746
 20
6.108380
 30
0.0
 10
63.143209
 20
5.472483
 30
0.0
  0
SPLINE
  5
1bd
100
AcDbEntity
  8
0
 62
7
100
AcDbSpline
 70
8
 71
3
 72
8
 73
4
 74
0
 40
0
 40
0
 40
0
 40
0
 40
1
 40
1
 40
1
 40
1
 10
63.143209
 20
5.472483
 30
0.0
 10
63.985336
 20
4.537038
 30
0.0
 10
64.056530
 20
4.287599
 30
0.0
 10
63.609098
 20
3.840168
 30
0.0
  0
SPLINE
  5
1be
100
AcDbEntity
  8
0
 62
7
100
AcDbSpline
 70
8
 71
3
 72
8
 73
4
 74
0
 40
0
 40
0
 40
0
 40
0
 40
1
 40
1
 40
1
 40
1
 10
63.609098
 20
3.840168
 30
0.0
 10
63.006655
 20
3.237725
 30
0.0
 10
62.623533
 20
3.314761
 30
0.0
 10
62.973159
 20
3.968041
 30
0.0
  0
LWPOLYLINE
  5
1bf
100
AcDbEntity
  8
0
 62
7
100
AcDbPolyline
 90
1
 70
1
 10
63.418051
 20
2.958957
 30
0.0
  0
SPLINE
  5
1c0
100
AcDbEntity
  8
0
 62
7
100
AcDbSpline
 70
8
 71
3
 72
8
 73
4
 74
0
 40
0
 40
0
 40
0
 40
0
 40
1
 40
1
 40
1
 40
1
 10
53.439108
 20
8.713629
 30
0.0
 10
54.093951
 20
9.148945
 30
0.0
 10
54.741122
 20
9.505622
 30
0.0
 10
54.877264
 20
9.506246
 30
0.0
  0
SPLINE
  5
1c1
100
AcDbEntity
  8
0
 62
7
100
AcDbSpline
 70
8
 71
3
 72
8
 73
4
 74
0
 40
0
 40
0
 40
0
 40
0
 40
1
 40
1
 40
1
 40
1
 10
54.877264
 20
9.506246
 30
0.0
 10
55.013405
 20
9.506775
 30
0.0
 10
55.400358
 20
9.766258
 30
0.0
 10
55.737159
 20
10.082665
 30
0.0
  0
SPLINE
  5
1c2
100
AcDbEntity
  8
0
 62
7
100
AcDbSpline
 70
8
 71
3
 72
8
 73
4
 74
0
 40
0
 40
0
 40
0
 40
0
 40
1
 40
1
 40
1
 40
1
 10
55.737159
 20
10.082665
 30
0.0
 10
57.017253
 20
11.285254
 30
0.0
 10
56.204887
 20
13.827432
 30
0.0
 10
54.864720
 20
12.812834
 30
0.0
  0
SPLINE
  5
1c3
100
AcDbEntity
  8
0
 62
7
100
AcDbSpline
 70
8
 71
3
 72
8
 73
4
 74
0
 40
0
 40
0
 40
0
 40
0
 40
1
 40
1
 40
1
 40
1
 10
54.864720
 20
12.812834
 30
0.0
 10
53.904907
 20
12.086190
 30
0.0
 10
53.914506
 20
12.426437
 30
0.0
 10
54.884087
 20
13.499658
 30
0.0
  0
SPLINE
  5
1c4
100
AcDbEntity
  8
0
 62
7
100
AcDbSpline
 70
8
 71
3
 72
8
 73
4
 74
0
 40
0
 40
0
 40
0
 40
0
 40
1
 40
1
 40
1
 40
1
 10
54.884087
 20
13.499658
 30
0.0
 10
55.421654
 20
14.094682
 30
0.0
 10
55.804022
 20
14.638980
 30
0.0
 10
55.733791
 20
14.709211
 30
0.0
  0
SPLINE
  5
1c5
100
AcDbEntity
  8
0
 62
7
100
AcDbSpline
 70
8
 71
3
 72
8
 73
4
 74
0
 40
0
 40
0
 40
0
 40
0
 40
1
 40
1
 40
1
 40
1
 10
55.733791
 20
14.709211
 30
0.0
 10
55.424824
 20
15.018179
 30
0.0
 10
53.662831
 20
13.511996
 30
0.0
 10
53.207965
 20
12.550087
 30
0.0
  0
SPLINE
  5
1c6
100
AcDbEntity
  8
0
 62
7
100
AcDbSpline
 70
8
 71
3
 72
8
 73
4
 74
0
 40
0
 40
0
 40
0
 40
0
 40
1
 40
1
 40
1
 40
1
 10
53.207965
 20
12.550087
 30
0.0
 10
52.807558
 20
11.703325
 30
0.0
 10
51.851608
 20
8.518194
 30
0.0
 10
51.851608
 20
8.030800
 30
0.0
  0
SPLINE
  5
1c7
100
AcDbEntity
  8
0
 62
7
100
AcDbSpline
 70
8
 71
3
 72
8
 73
4
 74
0
 40
0
 40
0
 40
0
 40
0
 40
1
 40
1
 40
1
 40
1
 10
51.851608
 20
8.030800
 30
0.0
 10
51.851608
 20
7.769114
 30
0.0
 10
52.323815
 20
7.972221
 30
0.0
 10
53.439108
 20
8.713629
 30
0.0
  0
LWPOLYLINE
  5
1c8
100
AcDbEntity
  8
0
 62
7
100
AcDbPolyline
 90
1
 70
1
 10
62.973159
 20
3.968041
 30
0.0
  0
SPLINE
  5
1c9
100
AcDbEntity
  8
0
 62
7
100
AcDbSpline
 70
8
 71
3
 72
8
 73
4
 74
0
 40
0
 40
0
 40
0
 40
0
 40
1
 40
1
 40
1
 40
1
 10
78.276879
 20
8.729954
 30
0.0
 10
79.168210
 20
9.040850
 30
0.0
 10
79.859500
 20
9.142741
 30
0.0
 10
80.128962
 20
9.002937
 30
0.0
  0
SPLINE
  5
1ca
100
AcDbEntity
  8
0
 62
7
100
AcDbSpline
 70
8
 71
3
 72
8
 73
4
 74
0
 40
0
 40
0
 40
0
 40
0
 40
1
 40
1
 40
1
 40
1
 10
80.128962
 20
9.002937
 30
0.0
 10
80.365428
 20
8.880253
 30
0.0
 10
81.951433
 20
8.571889
 30
0.0
 10
83.653418
 20
8.317685
 30
0.0
  0
SPLINE
  5
1cb
100
AcDbEntity
  8
0
 62
7
100
AcDbSpline
 70
8
 71
3
 72
8
 73
4
 74
0
 40
0
 40
0
 40
0
 40
0
 40
1
 40
1
 40
1
 40
1
 10
83.653418
 20
8.317685
 30
0.0
 10
87.370899
 20
7.762449
 30
0.0
 10
88.966524
 20
7.911065
 30
0.0
 10
89.595590
 20
8.871138
 30
0.0
  0
SPLINE
  5
1cc
100
AcDbEntity
  8
0
 62
7
100
AcDbSpline
 70
8
 71
3
 72
8
 73
4
 74
0
 40
0
 40
0
 40
0
 40
0
 40
1
 40
1
 40
1
 40
1
 10
89.595590
 20
8.871138
 30
0.0
 10
89.830823
 20
9.230151
 30
0.0
 10
89.938101
 20
9.609471
 30
0.0
 10
89.833982
 20
9.714071
 30
0.0
  0
SPLINE
  5
1cd
100
AcDbEntity
  8
0
 62
7
100
AcDbSpline
 70
8
 71
3
 72
8
 73
4
 74
0
 40
0
 40
0
 40
0
 40
0
 40
1
 40
1
 40
1
 40
1
 10
89.833982
 20
9.714071
 30
0.0
 10
89.729866
 20
9.818669
 30
0.0
 10
88.791002
 20
9.974297
 30
0.0
 10
87.747623
 20
10.059908
 30
0.0
  0
SPLINE
  5
1ce
100
AcDbEntity
  8
0
 62
7
100
AcDbSpline
 70
8
 71
3
 72
8
 73
4
 74
0
 40
0
 40
0
 40
0
 40
0
 40
1
 40
1
 40
1
 40
1
 10
87.747623
 20
10.059908
 30
0.0
 10
86.497435
 20
10.162487
 30
0.0
 10
87.542177
 20
10.230152
 30
0.0
 10
90.811503
 20
10.258346
 30
0.0
  0
SPLINE
  5
1cf
100
AcDbEntity
  8
0
 62
7
100
AcDbSpline
 70
8
 71
3
 72
8
 73
4
 74
0
 40
0
 40
0
 40
0
 40
0
 40
1
 40
1
 40
1
 40
1
 10
90.811503
 20
10.258346
 30
0.0
 10
93.913886
 20
10.285100
 30
0.0
 10
95.772441
 20
10.400252
 30
0.0
 10
95.772441
 20
10.565712
 30
0.0
  0
SPLINE
  5
1d0
100
AcDbEntity
  8
0
 62
7
100
AcDbSpline
 70
8
 71
3
 72
8
 73
4
 74
0
 40
0
 40
0
 40
0
 40
0
 40
1
 40
1
 40
1
 40
1
 10
95.772441
 20
10.565712
 30
0.0
 10
95.772441
 20
10.711233
 30
0.0
 10
95.284806
 20
10.830295
 30
0.0
 10
94.688806
 20
10.830295
 30
0.0
  0
SPLINE
  5
1d1
100
AcDbEntity
  8
0
 62
7
100
AcDbSpline
 70
8
 71
3
 72
8
 73
4
 74
0
 40
0
 40
0
 40
0
 40
0
 40
1
 40
1
 40
1
 40
1
 10
94.688806
 20
10.830295
 30
0.0
 10
94.064876
 20
10.830295
 30
0.0
 10
93.307236
 20
11.037639
 30
0.0
 10
92.902868
 20
11.319055
 30
0.0
  0
SPLINE
  5
1d2
100
AcDbEntity
  8
0
 62
7
100
AcDbSpline
 70
8
 71
3
 72
8
 73
4
 74
0
 40
0
 40
0
 40
0
 40
0
 40
1
 40
1
 40
1
 40
1
 10
92.902868
 20
11.319055
 30
0.0
 10
92.311720
 20
11.730461
 30
0.0
 10
91.635784
 20
11.813244
 30
0.0
 10
88.632099
 20
11.842110
 30
0.0
  0
SPLINE
  5
1d3
100
AcDbEntity
  8
0
 62
7
100
AcDbSpline
 70
8
 71
3
 72
8
 73
4
 74
0
 40
0
 40
0
 40
0
 40
0
 40
1
 40
1
 40
1
 40
1
 10
88.632099
 20
11.842110
 30
0.0
 10
86.576845
 20
11.861848
 30
0.0
 10
84.744370
 20
12.008646
 30
0.0
 10
84.310747
 20
12.188259
 30
0.0
  0
LWPOLYLINE
  5
1d4
100
AcDbEntity
  8
0
 62
7
100
AcDbPolyline
 90
1
 70
1
 10
53.439108
 20
8.713629
 30
0.0
  0
SPLINE
  5
1d5
100
AcDbEntity
  8
0
 62
7
100
AcDbSpline
 70
8
 71
3
 72
8
 73
4
 74
0
 40
0
 40
0
 40
0
 40
0
 40
1
 40
1
 40
1
 40
1
 10
84.439091
 20
12.870643
 30
0.0
 10
84.923765
 20
13.074433
 30
0.0
 10
86.207687
 20
13.353677
 30
0.0
 10
87.292251
 20
13.491186
 30
0.0
  0
SPLINE
  5
1d6
100
AcDbEntity
  8
0
 62
7
100
AcDbSpline
 70
8
 71
3
 72
8
 73
4
 74
0
 40
0
 40
0
 40
0
 40
0
 40
1
 40
1
 40
1
 40
1
 10
87.292251
 20
13.491186
 30
0.0
 10
88.376813
 20
13.628695
 30
0.0
 10
89.383134
 20
13.860156
 30
0.0
 10
89.528520
 20
14.005541
 30
0.0
  0
SPLINE
  5
1d7
100
AcDbEntity
  8
0
 62
7
100
AcDbSpline
 70
8
 71
3
 72
8
 73
4
 74
0
 40
0
 40
0
 40
0
 40
0
 40
1
 40
1
 40
1
 40
1
 10
89.528520
 20
14.005541
 30
0.0
 10
89.953444
 20
14.430465
 30
0.0
 10
85.009130
 20
14.324417
 30
0.0
 10
82.506357
 20
13.854925
 30
0.0
  0
SPLINE
  5
1d8
100
AcDbEntity
  8
0
 62
7
100
AcDbSpline
 70
8
 71
3
 72
8
 73
4
 74
0
 40
0
 40
0
 40
0
 40
0
 40
1
 40
1
 40
1
 40
1
 10
82.506357
 20
13.854925
 30
0.0
 10
80.640415
 20
13.504894
 30
0.0
 10
72.139781
 20
11.425851
 30
0.0
 10
70.535919
 20
10.927255
 30
0.0
  0
SPLINE
  5
1d9
100
AcDbEntity
  8
0
 62
7
100
AcDbSpline
 70
8
 71
3
 72
8
 73
4
 74
0
 40
0
 40
0
 40
0
 40
0
 40
1
 40
1
 40
1
 40
1
 10
70.535919
 20
10.927255
 30
0.0
 10
69.286898
 20
10.538965
 30
0.0
 10
71.077926
 20
10.306172
 30
0.0
 10
75.664108
 20
10.260703
 30
0.0
  0
SPLINE
  5
1da
100
AcDbEntity
  8
0
 62
7
100
AcDbSpline
 70
8
 71
3
 72
8
 73
4
 74
0
 40
0
 40
0
 40
0
 40
0
 40
1
 40
1
 40
1
 40
1
 10
75.664108
 20
10.260703
 30
0.0
 10
80.924220
 20
10.208551
 30
0.0
 10
80.802337
 20
10.129282
 30
0.0
 10
75.002649
 20
9.830498
 30
0.0
  0
SPLINE
  5
1db
100
AcDbEntity
  8
0
 62
7
100
AcDbSpline
 70
8
 71
3
 72
8
 73
4
 74
0
 40
0
 40
0
 40
0
 40
0
 40
1
 40
1
 40
1
 40
1
 10
75.002649
 20
9.830498
 30
0.0
 10
71.447861
 20
9.647367
 30
0.0
 10
71.295122
 20
9.616040
 30
0.0
 10
71.215160
 20
9.053711
 30
0.0
  0
SPLINE
  5
1dc
100
AcDbEntity
  8
0
 62
7
100
AcDbSpline
 70
8
 71
3
 72
8
 73
4
 74
0
 40
0
 40
0
 40
0
 40
0
 40
1
 40
1
 40
1
 40
1
 10
71.215160
 20
9.053711
 30
0.0
 10
71.153597
 20
8.620773
 30
0.0
 10
71.291791
 20
8.433448
 30
0.0
 10
71.744327
 20
8.336407
 30
0.0
  0
SPLINE
  5
1dd
100
AcDbEntity
  8
0
 62
7
100
AcDbSpline
 70
8
 71
3
 72
8
 73
4
 74
0
 40
0
 40
0
 40
0
 40
0
 40
1
 40
1
 40
1
 40
1
 10
71.744327
 20
8.336407
 30
0.0
 10
72.081197
 20
8.264168
 30
0.0
 10
72.594941
 20
8.149381
 30
0.0
 10
72.885983
 20
8.081325
 30
0.0
  0
SPLINE
  5
1de
100
AcDbEntity
  8
0
 62
7
100
AcDbSpline
 70
8
 71
3
 72
8
 73
4
 74
0
 40
0
 40
0
 40
0
 40
0
 40
1
 40
1
 40
1
 40
1
 10
72.885983
 20
8.081325
 30
0.0
 10
73.827838
 20
7.861080
 30
0.0
 10
76.816942
 20
8.220726
 30
0.0
 10
78.276879
 20
8.729956
 30
0.0
  0
LWPOLYLINE
  5
1df
100
AcDbEntity
  8
0
 62
7
100
AcDbPolyline
 90
3
 70
0
 10
84.310747
 20
12.188259
 30
0.0
 10
83.557864
 20
12.500113
 30
0.0
 10
84.439091
 20
12.870643
 30
0.0
  0
SPLINE
  5
1e0
100
AcDbEntity
  8
0
 62
7
100
AcDbSpline
 70
8
 71
3
 72
8
 73
4
 74
0
 40
0
 40
0
 40
0
 40
0
 40
1
 40
1
 40
1
 40
1
 10
107.340646
 20
8.836091
 30
0.0
 10
112.184455
 20
9.701959
 30
0.0
 10
112.150073
 20
9.693714
 30
0.0
 10
112.861693
 20
10.159987
 30
0.0
  0
SPLINE
  5
1e1
100
AcDbEntity
  8
0
 62
7
100
AcDbSpline
 70
8
 71
3
 72
8
 73
4
 74
0
 40
0
 40
0
 40
0
 40
0
 40
1
 40
1
 40
1
 40
1
 10
112.861693
 20
10.159987
 30
0.0
 10
113.514251
 20
10.587559
 30
0.0
 10
114.200046
 20
11.624043
 30
0.0
 10
113.830391
 20
11.624043
 30
0.0
  0
SPLINE
  5
1e2
100
AcDbEntity
  8
0
 62
7
100
AcDbSpline
 70
8
 71
3
 72
8
 73
4
 74
0
 40
0
 40
0
 40
0
 40
0
 40
1
 40
1
 40
1
 40
1
 10
113.830391
 20
11.624043
 30
0.0
 10
113.711088
 20
11.624043
 30
0.0
 10
112.962759
 20
11.396160
 30
0.0
 10
112.167437
 20
11.117636
 30
0.0
  0
SPLINE
  5
1e3
100
AcDbEntity
  8
0
 62
7
100
AcDbSpline
 70
8
 71
3
 72
8
 73
4
 74
0
 40
0
 40
0
 40
0
 40
0
 40
1
 40
1
 40
1
 40
1
 10
112.167437
 20
11.117636
 30
0.0
 10
111.372116
 20
10.839114
 30
0.0
 10
108.671365
 20
10.294104
 30
0.0
 10
106.165772
 20
9.906503
 30
0.0
  0
SPLINE
  5
1e4
100
AcDbEntity
  8
0
 62
7
100
AcDbSpline
 70
8
 71
3
 72
8
 73
4
 74
0
 40
0
 40
0
 40
0
 40
0
 40
1
 40
1
 40
1
 40
1
 10
106.165772
 20
9.906503
 30
0.0
 10
101.234179
 20
9.143616
 30
0.0
 10
99.909950
 20
9.203396
 30
0.0
 10
97.789122
 20
10.284656
 30
0.0
  0
SPLINE
  5
1e5
100
AcDbEntity
  8
0
 62
7
100
AcDbSpline
 70
8
 71
3
 72
8
 73
4
 74
0
 40
0
 40
0
 40
0
 40
0
 40
1
 40
1
 40
1
 40
1
 10
97.789122
 20
10.284656
 30
0.0
 10
96.605143
 20
10.888282
 30
0.0
 10
96.534004
 20
10.548477
 30
0.0
 10
97.674356
 20
9.736476
 30
0.0
  0
SPLINE
  5
1e6
100
AcDbEntity
  8
0
 62
7
100
AcDbSpline
 70
8
 71
3
 72
8
 73
4
 74
0
 40
0
 40
0
 40
0
 40
0
 40
1
 40
1
 40
1
 40
1
 10
97.674356
 20
9.736476
 30
0.0
 10
98.842550
 20
8.904647
 30
0.0
 10
100.956949
 20
8.225123
 30
0.0
 10
102.445854
 20
8.203015
 30
0.0
  0
SPLINE
  5
1e7
100
AcDbEntity
  8
0
 62
7
100
AcDbSpline
 70
8
 71
3
 72
8
 73
4
 74
0
 40
0
 40
0
 40
0
 40
0
 40
1
 40
1
 40
1
 40
1
 10
102.445854
 20
8.203015
 30
0.0
 10
103.133057
 20
8.192802
 30
0.0
 10
105.335713
 20
8.477695
 30
0.0
 10
107.340646
 20
8.836091
 30
0.0
  0
LWPOLYLINE
  5
1e8
100
AcDbEntity
  8
0
 62
7
100
AcDbPolyline
 90
1
 70
1
 10
78.276879
 20
8.729956
 30
0.0
  0
SPLINE
  5
1e9
100
AcDbEntity
  8
0
 62
7
100
AcDbSpline
 70
8
 71
3
 72
8
 73
4
 74
0
 40
0
 40
0
 40
0
 40
0
 40
1
 40
1
 40
1
 40
1
 10
43.187144
 20
9.205018
 30
0.0
 10
43.302073
 20
9.644515
 30
0.0
 10
43.060821
 20
9.723549
 30
0.0
 10
40.902816
 20
9.953355
 30
0.0
  0
SPLINE
  5
1ea
100
AcDbEntity
  8
0
 62
7
100
AcDbSpline
 70
8
 71
3
 72
8
 73
4
 74
0
 40
0
 40
0
 40
0
 40
0
 40
1
 40
1
 40
1
 40
1
 10
40.902816
 20
9.953355
 30
0.0
 10
38.399593
 20
10.219920
 30
0.0
 10
36.414432
 20
10.133806
 30
0.0
 10
36.640238
 20
9.768443
 30
0.0
  0
SPLINE
  5
1eb
100
AcDbEntity
  8
0
 62
7
100
AcDbSpline
 70
8
 71
3
 72
8
 73
4
 74
0
 40
0
 40
0
 40
0
 40
0
 40
1
 40
1
 40
1
 40
1
 10
36.640238
 20
9.768443
 30
0.0
 10
36.711861
 20
9.652558
 30
0.0
 10
37.276453
 20
9.615427
 30
0.0
 10
37.894887
 20
9.685928
 30
0.0
  0
SPLINE
  5
1ec
100
AcDbEntity
  8
0
 62
7
100
AcDbSpline
 70
8
 71
3
 72
8
 73
4
 74
0
 40
0
 40
0
 40
0
 40
0
 40
1
 40
1
 40
1
 40
1
 10
37.894887
 20
9.685928
 30
0.0
 10
38.736688
 20
9.781892
 30
0.0
 10
38.919560
 20
9.743329
 30
0.0
 10
38.622441
 20
9.532504
 30
0.0
  0
SPLINE
  5
1ed
100
AcDbEntity
  8
0
 62
7
100
AcDbSpline
 70
8
 71
3
 72
8
 73
4
 74
0
 40
0
 40
0
 40
0
 40
0
 40
1
 40
1
 40
1
 40
1
 10
38.622441
 20
9.532504
 30
0.0
 10
38.404160
 20
9.377619
 30
0.0
 10
37.927910
 20
9.229667
 30
0.0
 10
37.564108
 20
9.203719
 30
0.0
  0
SPLINE
  5
1ee
100
AcDbEntity
  8
0
 62
7
100
AcDbSpline
 70
8
 71
3
 72
8
 73
4
 74
0
 40
0
 40
0
 40
0
 40
0
 40
1
 40
1
 40
1
 40
1
 10
37.564108
 20
9.203719
 30
0.0
 10
36.634153
 20
9.137391
 30
0.0
 10
39.481435
 20
8.808691
 30
0.0
 10
41.435853
 20
8.756753
 30
0.0
  0
SPLINE
  5
1ef
100
AcDbEntity
  8
0
 62
7
100
AcDbSpline
 70
8
 71
3
 72
8
 73
4
 74
0
 40
0
 40
0
 40
0
 40
0
 40
1
 40
1
 40
1
 40
1
 10
41.435853
 20
8.756753
 30
0.0
 10
42.815473
 20
8.720087
 30
0.0
 10
43.077895
 20
8.787260
 30
0.0
 10
43.187144
 20
9.205018
 30
0.0
  0
LWPOLYLINE
  5
1f0
100
AcDbEntity
  8
0
 62
7
100
AcDbPolyline
 90
1
 70
1
 10
107.340646
 20
8.836091
 30
0.0
  0
SPLINE
  5
1f1
100
AcDbEntity
  8
0
 62
7
100
AcDbSpline
 70
8
 71
3
 72
8
 73
4
 74
0
 40
0
 40
0
 40
0
 40
0
 40
1
 40
1
 40
1
 40
1
 10
20.166234
 20
9.348142
 30
0.0
 10
21.068442
 20
9.767835
 30
0.0
 10
20.304661
 20
10.036757
 30
0.0
 10
18.167762
 20
10.051791
 30
0.0
  0
SPLINE
  5
1f2
100
AcDbEntity
  8
0
 62
7
100
AcDbSpline
 70
8
 71
3
 72
8
 73
4
 74
0
 40
0
 40
0
 40
0
 40
0
 40
1
 40
1
 40
1
 40
1
 10
18.167762
 20
10.051791
 30
0.0
 10
16.975803
 20
10.060178
 30
0.0
 10
15.524315
 20
10.160341
 30
0.0
 10
14.942232
 20
10.274377
 30
0.0
  0
SPLINE
  5
1f3
100
AcDbEntity
  8
0
 62
7
100
AcDbSpline
 70
8
 71
3
 72
8
 73
4
 74
0
 40
0
 40
0
 40
0
 40
0
 40
1
 40
1
 40
1
 40
1
 10
14.942232
 20
10.274377
 30
0.0
 10
13.974330
 20
10.463996
 30
0.0
 10
13.940419
 20
10.497450
 30
0.0
 10
14.545357
 20
10.665891
 30
0.0
  0
SPLINE
  5
1f4
100
AcDbEntity
  8
0
 62
7
100
AcDbSpline
 70
8
 71
3
 72
8
 73
4
 74
0
 40
0
 40
0
 40
0
 40
0
 40
1
 40
1
 40
1
 40
1
 10
14.545357
 20
10.665891
 30
0.0
 10
15.369753
 20
10.895441
 30
0.0
 10
16.363534
 20
10.917454
 30
0.0
 10
22.482857
 20
10.841723
 30
0.0
  0
SPLINE
  5
1f5
100
AcDbEntity
  8
0
 62
7
100
AcDbSpline
 70
8
 71
3
 72
8
 73
4
 74
0
 40
0
 40
0
 40
0
 40
0
 40
1
 40
1
 40
1
 40
1
 10
22.482857
 20
10.841723
 30
0.0
 10
27.170917
 20
10.783705
 30
0.0
 10
27.907882
 20
10.558227
 30
0.0
 10
24.609784
 20
10.190983
 30
0.0
  0
SPLINE
  5
1f6
100
AcDbEntity
  8
0
 62
7
100
AcDbSpline
 70
8
 71
3
 72
8
 73
4
 74
0
 40
0
 40
0
 40
0
 40
0
 40
1
 40
1
 40
1
 40
1
 10
24.609784
 20
10.190983
 30
0.0
 10
23.149165
 20
10.028343
 30
0.0
 10
22.482857
 20
9.806898
 30
0.0
 10
22.482857
 20
9.484111
 30
0.0
  0
SPLINE
  5
1f7
100
AcDbEntity
  8
0
 62
7
100
AcDbSpline
 70
8
 71
3
 72
8
 73
4
 74
0
 40
0
 40
0
 40
0
 40
0
 40
1
 40
1
 40
1
 40
1
 10
22.482857
 20
9.484111
 30
0.0
 10
22.482857
 20
9.029782
 30
0.0
 10
23.881235
 20
8.919837
 30
0.0
 10
28.405053
 20
9.018495
 30
0.0
  0
SPLINE
  5
1f8
100
AcDbEntity
  8
0
 62
7
100
AcDbSpline
 70
8
 71
3
 72
8
 73
4
 74
0
 40
0
 40
0
 40
0
 40
0
 40
1
 40
1
 40
1
 40
1
 10
28.405053
 20
9.018495
 30
0.0
 10
31.759231
 20
9.091642
 30
0.0
 10
33.111059
 20
9.215239
 30
0.0
 10
33.427268
 20
9.477669
 30
0.0
  0
SPLINE
  5
1f9
100
AcDbEntity
  8
0
 62
7
100
AcDbSpline
 70
8
 71
3
 72
8
 73
4
 74
0
 40
0
 40
0
 40
0
 40
0
 40
1
 40
1
 40
1
 40
1
 10
33.427268
 20
9.477669
 30
0.0
 10
34.047999
 20
9.992831
 30
0.0
 10
33.963491
 20
10.250294
 30
0.0
 10
33.132337
 20
10.376204
 30
0.0
  0
SPLINE
  5
1fa
100
AcDbEntity
  8
0
 62
7
100
AcDbSpline
 70
8
 71
3
 72
8
 73
4
 74
0
 40
0
 40
0
 40
0
 40
0
 40
1
 40
1
 40
1
 40
1
 10
33.132337
 20
10.376204
 30
0.0
 10
31.903249
 20
10.562394
 30
0.0
 10
40.254552
 20
10.530970
 30
0.0
 10
41.665149
 20
10.344094
 30
0.0
  0
SPLINE
  5
1fb
100
AcDbEntity
  8
0
 62
7
100
AcDbSpline
 70
8
 71
3
 72
8
 73
4
 74
0
 40
0
 40
0
 40
0
 40
0
 40
1
 40
1
 40
1
 40
1
 10
41.665149
 20
10.344094
 30
0.0
 10
42.392753
 20
10.247704
 30
0.0
 10
44.000097
 20
10.319012
 30
0.0
 10
45.237024
 20
10.502572
 30
0.0
  0
SPLINE
  5
1fc
100
AcDbEntity
  8
0
 62
7
100
AcDbSpline
 70
8
 71
3
 72
8
 73
4
 74
0
 40
0
 40
0
 40
0
 40
0
 40
1
 40
1
 40
1
 40
1
 10
45.237024
 20
10.502572
 30
0.0
 10
46.571405
 20
10.700589
 30
0.0
 10
48.317970
 20
10.767557
 30
0.0
 10
49.531852
 20
10.667251
 30
0.0
  0
SPLINE
  5
1fd
100
AcDbEntity
  8
0
 62
7
100
AcDbSpline
 70
8
 71
3
 72
8
 73
4
 74
0
 40
0
 40
0
 40
0
 40
0
 40
1
 40
1
 40
1
 40
1
 10
49.531852
 20
10.667251
 30
0.0
 10
51.382898
 20
10.514293
 30
0.0
 10
51.593200
 20
10.545501
 30
0.0
 10
51.740239
 20
10.994975
 30
0.0
  0
SPLINE
  5
1fe
100
AcDbEntity
  8
0
 62
7
100
AcDbSpline
 70
8
 71
3
 72
8
 73
4
 74
0
 40
0
 40
0
 40
0
 40
0
 40
1
 40
1
 40
1
 40
1
 10
51.740239
 20
10.994975
 30
0.0
 10
52.005111
 20
11.804639
 30
0.0
 10
52.701685
 20
13.186727
 30
0.0
 10
53.991015
 20
15.460797
 30
0.0
  0
SPLINE
  5
1ff
100
AcDbEntity
  8
0
 62
7
100
AcDbSpline
 70
8
 71
3
 72
8
 73
4
 74
0
 40
0
 40
0
 40
0
 40
0
 40
1
 40
1
 40
1
 40
1
 10
53.991015
 20
15.460797
 30
0.0
 10
54.726311
 20
16.757682
 30
0.0
 10
55.272551
 20
18.098220
 30
0.0
 10
55.377395
 20
18.863151
 30
0.0
  0
LWPOLYLINE
  5
200
100
AcDbEntity
  8
0
 62
7
100
AcDbPolyline
 90
1
 70
1
 10
43.187144
 20
9.205018
 30
0.0
  0
SPLINE
  5
201
100
AcDbEntity
  8
0
 62
7
100
AcDbSpline
 70
8
 71
3
 72
8
 73
4
 74
0
 40
0
 40
0
 40
0
 40
0
 40
1
 40
1
 40
1
 40
1
 10
43.448404
 20
20.149947
 30
0.0
 10
10.022810
 20
20.217701
 30
0.0
 10
10.280284
 20
20.227827
 30
0.0
 10
9.350721
 20
18.809137
 30
0.0
  0
SPLINE
  5
202
100
AcDbEntity
  8
0
 62
7
100
AcDbSpline
 70
8
 71
3
 72
8
 73
4
 74
0
 40
0
 40
0
 40
0
 40
0
 40
1
 40
1
 40
1
 40
1
 10
9.350721
 20
18.809137
 30
0.0
 10
9.102406
 20
18.430158
 30
0.0
 10
8.795834
 20
17.997929
 30
0.0
 10
8.669450
 20
17.848625
 30
0.0
  0
SPLINE
  5
203
100
AcDbEntity
  8
0
 62
7
100
AcDbSpline
 70
8
 71
3
 72
8
 73
4
 74
0
 40
0
 40
0
 40
0
 40
0
 40
1
 40
1
 40
1
 40
1
 10
8.669450
 20
17.848625
 30
0.0
 10
8.543064
 20
17.699323
 30
0.0
 10
7.858351
 20
16.684196
 30
0.0
 10
7.147863
 20
15.592790
 30
0.0
  0
SPLINE
  5
204
100
AcDbEntity
  8
0
 62
7
100
AcDbSpline
 70
8
 71
3
 72
8
 73
4
 74
0
 40
0
 40
0
 40
0
 40
0
 40
1
 40
1
 40
1
 40
1
 10
7.147863
 20
15.592790
 30
0.0
 10
6.437375
 20
14.501384
 30
0.0
 10
5.251314
 20
12.934490
 30
0.0
 10
4.512169
 20
12.110805
 30
0.0
  0
SPLINE
  5
205
100
AcDbEntity
  8
0
 62
7
100
AcDbSpline
 70
8
 71
3
 72
8
 73
4
 74
0
 40
0
 40
0
 40
0
 40
0
 40
1
 40
1
 40
1
 40
1
 10
4.512169
 20
12.110805
 30
0.0
 10
3.106072
 20
10.543881
 30
0.0
 10
2.853615
 20
9.724710
 30
0.0
 10
3.631294
 20
9.252548
 30
0.0
  0
SPLINE
  5
206
100
AcDbEntity
  8
0
 62
7
100
AcDbSpline
 70
8
 71
3
 72
8
 73
4
 74
0
 40
0
 40
0
 40
0
 40
0
 40
1
 40
1
 40
1
 40
1
 10
3.631294
 20
9.252548
 30
0.0
 10
4.177505
 20
8.920919
 30
0.0
 10
19.437487
 20
9.009142
 30
0.0
 10
20.166234
 20
9.348139
 30
0.0
  0
LWPOLYLINE
  5
207
100
AcDbEntity
  8
0
 62
7
100
AcDbPolyline
 90
3
 70
0
 10
55.377395
 20
18.863151
 30
0.0
 10
55.550409
 20
20.125420
 30
0.0
 10
43.448404
 20
20.149947
 30
0.0
  0
SPLINE
  5
208
100
AcDbEntity
  8
0
 62
7
100
AcDbSpline
 70
8
 71
3
 72
8
 73
4
 74
0
 40
0
 40
0
 40
0
 40
0
 40
1
 40
1
 40
1
 40
1
 10
5.681815
 20
10.023208
 30
0.0
 10
4.203694
 20
10.315292
 30
0.0
 10
5.481853
 20
10.601238
 30
0.0
 10
8.956248
 20
10.755760
 30
0.0
  0
SPLINE
  5
209
100
AcDbEntity
  8
0
 62
7
100
AcDbSpline
 70
8
 71
3
 72
8
 73
4
 74
0
 40
0
 40
0
 40
0
 40
0
 40
1
 40
1
 40
1
 40
1
 10
8.956248
 20
10.755760
 30
0.0
 10
11.371904
 20
10.863196
 30
0.0
 10
12.404377
 20
10.819101
 30
0.0
 10
12.538063
 20
10.602793
 30
0.0
  0
SPLINE
  5
20a
100
AcDbEntity
  8
0
 62
7
100
AcDbSpline
 70
8
 71
3
 72
8
 73
4
 74
0
 40
0
 40
0
 40
0
 40
0
 40
1
 40
1
 40
1
 40
1
 10
12.538063
 20
10.602793
 30
0.0
 10
12.673332
 20
10.383927
 30
0.0
 10
12.184546
 20
10.304410
 30
0.0
 10
10.791353
 20
10.318636
 30
0.0
  0
SPLINE
  5
20b
100
AcDbEntity
  8
0
 62
7
100
AcDbSpline
 70
8
 71
3
 72
8
 73
4
 74
0
 40
0
 40
0
 40
0
 40
0
 40
1
 40
1
 40
1
 40
1
 10
10.791353
 20
10.318636
 30
0.0
 10
9.153939
 20
10.335358
 30
0.0
 10
7.093547
 20
10.141630
 30
0.0
 10
6.607857
 20
9.925288
 30
0.0
  0
SPLINE
  5
20c
100
AcDbEntity
  8
0
 62
7
100
AcDbSpline
 70
8
 71
3
 72
8
 73
4
 74
0
 40
0
 40
0
 40
0
 40
0
 40
1
 40
1
 40
1
 40
1
 10
6.607857
 20
9.925288
 30
0.0
 10
6.535096
 20
9.892879
 30
0.0
 10
6.118377
 20
9.936956
 30
0.0
 10
5.681815
 20
10.023208
 30
0.0
  0
LWPOLYLINE
  5
20d
100
AcDbEntity
  8
0
 62
7
100
AcDbPolyline
 90
1
 70
1
 10
20.166234
 20
9.348139
 30
0.0
  0
SPLINE
  5
20e
100
AcDbEntity
  8
0
 62
7
100
AcDbSpline
 70
8
 71
3
 72
8
 73
4
 74
0
 40
0
 40
0
 40
0
 40
0
 40
1
 40
1
 40
1
 40
1
 10
33.595358
 20
11.612480
 30
0.0
 10
29.714153
 20
11.834611
 30
0.0
 10
31.986262
 20
12.157141
 30
0.0
 10
37.266451
 20
12.133601
 30
0.0
  0
SPLINE
  5
20f
100
AcDbEntity
  8
0
 62
7
100
AcDbSpline
 70
8
 71
3
 72
8
 73
4
 74
0
 40
0
 40
0
 40
0
 40
0
 40
1
 40
1
 40
1
 40
1
 10
37.266451
 20
12.133601
 30
0.0
 10
41.883266
 20
12.113017
 30
0.0
 10
44.399390
 20
11.886184
 30
0.0
 10
43.590580
 20
11.563469
 30
0.0
  0
SPLINE
  5
210
100
AcDbEntity
  8
0
 62
7
100
AcDbSpline
 70
8
 71
3
 72
8
 73
4
 74
0
 40
0
 40
0
 40
0
 40
0
 40
1
 40
1
 40
1
 40
1
 10
43.590580
 20
11.563469
 30
0.0
 10
43.339880
 20
11.463438
 30
0.0
 10
42.094946
 20
11.499749
 30
0.0
 10
40.824063
 20
11.644156
 30
0.0
  0
SPLINE
  5
211
100
AcDbEntity
  8
0
 62
7
100
AcDbSpline
 70
8
 71
3
 72
8
 73
4
 74
0
 40
0
 40
0
 40
0
 40
0
 40
1
 40
1
 40
1
 40
1
 10
40.824063
 20
11.644156
 30
0.0
 10
39.553176
 20
11.788563
 30
0.0
 10
38.150953
 20
11.834228
 30
0.0
 10
37.708007
 20
11.745627
 30
0.0
  0
SPLINE
  5
212
100
AcDbEntity
  8
0
 62
7
100
AcDbSpline
 70
8
 71
3
 72
8
 73
4
 74
0
 40
0
 40
0
 40
0
 40
0
 40
1
 40
1
 40
1
 40
1
 10
37.708007
 20
11.745627
 30
0.0
 10
36.329763
 20
11.469949
 30
0.0
 10
36.173907
 20
11.464904
 30
0.0
 10
33.595358
 20
11.612480
 30
0.0
  0
LWPOLYLINE
  5
213
100
AcDbEntity
  8
0
 62
7
100
AcDbPolyline
 90
1
 70
1
 10
5.681815
 20
10.023208
 30
0.0
  0
SPLINE
  5
214
100
AcDbEntity
  8
0
 62
7
100
AcDbSpline
 70
8
 71
3
 72
8
 73
4
 74
0
 40
0
 40
0
 40
0
 40
0
 40
1
 40
1
 40
1
 40
1
 10
109.317015
 20
11.043809
 30
0.0
 10
112.897195
 20
11.927859
 30
0.0
 10
113.908986
 20
12.446460
 30
0.0
 10
113.509584
 20
13.192747
 30
0.0
  0
SPLINE
  5
215
100
AcDbEntity
  8
0
 62
7
100
AcDbSpline
 70
8
 71
3
 72
8
 73
4
 74
0
 40
0
 40
0
 40
0
 40
0
 40
1
 40
1
 40
1
 40
1
 10
113.509584
 20
13.192747
 30
0.0
 10
113.220582
 20
13.732756
 30
0.0
 10
111.933048
 20
14.269879
 30
0.0
 10
110.927602
 20
14.269879
 30
0.0
  0
SPLINE
  5
216
100
AcDbEntity
  8
0
 62
7
100
AcDbSpline
 70
8
 71
3
 72
8
 73
4
 74
0
 40
0
 40
0
 40
0
 40
0
 40
1
 40
1
 40
1
 40
1
 10
110.927602
 20
14.269879
 30
0.0
 10
110.575122
 20
14.269879
 30
0.0
 10
110.124647
 20
14.431957
 30
0.0
 10
109.926551
 20
14.630053
 30
0.0
  0
SPLINE
  5
217
100
AcDbEntity
  8
0
 62
7
100
AcDbSpline
 70
8
 71
3
 72
8
 73
4
 74
0
 40
0
 40
0
 40
0
 40
0
 40
1
 40
1
 40
1
 40
1
 10
109.926551
 20
14.630053
 30
0.0
 10
109.600892
 20
14.955713
 30
0.0
 10
108.232845
 20
14.880111
 30
0.0
 10
106.488066
 20
14.440030
 30
0.0
  0
SPLINE
  5
218
100
AcDbEntity
  8
0
 62
7
100
AcDbSpline
 70
8
 71
3
 72
8
 73
4
 74
0
 40
0
 40
0
 40
0
 40
0
 40
1
 40
1
 40
1
 40
1
 10
106.488066
 20
14.440030
 30
0.0
 10
105.994658
 20
14.315580
 30
0.0
 10
104.373775
 20
13.414401
 30
0.0
 10
103.906757
 20
13.004874
 30
0.0
  0
SPLINE
  5
219
100
AcDbEntity
  8
0
 62
7
100
AcDbSpline
 70
8
 71
3
 72
8
 73
4
 74
0
 40
0
 40
0
 40
0
 40
0
 40
1
 40
1
 40
1
 40
1
 10
103.906757
 20
13.004874
 30
0.0
 10
103.651203
 20
12.780777
 30
0.0
 10
103.364199
 20
12.675343
 30
0.0
 10
103.268968
 20
12.770572
 30
0.0
  0
SPLINE
  5
21a
100
AcDbEntity
  8
0
 62
7
100
AcDbSpline
 70
8
 71
3
 72
8
 73
4
 74
0
 40
0
 40
0
 40
0
 40
0
 40
1
 40
1
 40
1
 40
1
 10
103.268968
 20
12.770572
 30
0.0
 10
102.827254
 20
13.212286
 30
0.0
 10
105.414538
 20
15.077742
 30
0.0
 10
106.969883
 20
15.438964
 30
0.0
  0
SPLINE
  5
21b
100
AcDbEntity
  8
0
 62
7
100
AcDbSpline
 70
8
 71
3
 72
8
 73
4
 74
0
 40
0
 40
0
 40
0
 40
0
 40
1
 40
1
 40
1
 40
1
 10
106.969883
 20
15.438964
 30
0.0
 10
107.909267
 20
15.657132
 30
0.0
 10
107.760754
 20
16.223983
 30
0.0
 10
106.732245
 20
16.345995
 30
0.0
  0
SPLINE
  5
21c
100
AcDbEntity
  8
0
 62
7
100
AcDbSpline
 70
8
 71
3
 72
8
 73
4
 74
0
 40
0
 40
0
 40
0
 40
0
 40
1
 40
1
 40
1
 40
1
 10
106.732245
 20
16.345995
 30
0.0
 10
105.325500
 20
16.512876
 30
0.0
 10
103.098830
 20
15.833873
 30
0.0
 10
101.502133
 20
14.751119
 30
0.0
  0
SPLINE
  5
21d
100
AcDbEntity
  8
0
 62
7
100
AcDbSpline
 70
8
 71
3
 72
8
 73
4
 74
0
 40
0
 40
0
 40
0
 40
0
 40
1
 40
1
 40
1
 40
1
 10
101.502133
 20
14.751119
 30
0.0
 10
100.651643
 20
14.174380
 30
0.0
 10
99.900343
 20
13.757950
 30
0.0
 10
99.832578
 20
13.825712
 30
0.0
  0
SPLINE
  5
21e
100
AcDbEntity
  8
0
 62
7
100
AcDbSpline
 70
8
 71
3
 72
8
 73
4
 74
0
 40
0
 40
0
 40
0
 40
0
 40
1
 40
1
 40
1
 40
1
 10
99.832578
 20
13.825712
 30
0.0
 10
99.403038
 20
14.255255
 30
0.0
 10
103.713039
 20
17.180295
 30
0.0
 10
104.775508
 20
17.180295
 30
0.0
  0
SPLINE
  5
21f
100
AcDbEntity
  8
0
 62
7
100
AcDbSpline
 70
8
 71
3
 72
8
 73
4
 74
0
 40
0
 40
0
 40
0
 40
0
 40
1
 40
1
 40
1
 40
1
 10
104.775508
 20
17.180295
 30
0.0
 10
104.917049
 20
17.180295
 30
0.0
 10
105.032858
 20
17.299358
 30
0.0
 10
105.032858
 20
17.444879
 30
0.0
  0
SPLINE
  5
220
100
AcDbEntity
  8
0
 62
7
100
AcDbSpline
 70
8
 71
3
 72
8
 73
4
 74
0
 40
0
 40
0
 40
0
 40
0
 40
1
 40
1
 40
1
 40
1
 10
105.032858
 20
17.444879
 30
0.0
 10
105.032858
 20
17.984115
 30
0.0
 10
102.913961
 20
17.475279
 30
0.0
 10
100.966140
 20
16.468291
 30
0.0
  0
SPLINE
  5
221
100
AcDbEntity
  8
0
 62
7
100
AcDbSpline
 70
8
 71
3
 72
8
 73
4
 74
0
 40
0
 40
0
 40
0
 40
0
 40
1
 40
1
 40
1
 40
1
 10
100.966140
 20
16.468291
 30
0.0
 10
100.244862
 20
16.095403
 30
0.0
 10
100.181852
 20
16.092977
 30
0.0
 10
100.477569
 20
16.449479
 30
0.0
  0
SPLINE
  5
222
100
AcDbEntity
  8
0
 62
7
100
AcDbSpline
 70
8
 71
3
 72
8
 73
4
 74
0
 40
0
 40
0
 40
0
 40
0
 40
1
 40
1
 40
1
 40
1
 10
100.477569
 20
16.449479
 30
0.0
 10
100.664293
 20
16.674592
 30
0.0
 10
101.170309
 20
17.005091
 30
0.0
 10
101.602048
 20
17.183923
 30
0.0
  0
SPLINE
  5
223
100
AcDbEntity
  8
0
 62
7
100
AcDbSpline
 70
8
 71
3
 72
8
 73
4
 74
0
 40
0
 40
0
 40
0
 40
0
 40
1
 40
1
 40
1
 40
1
 10
101.602048
 20
17.183923
 30
0.0
 10
102.033784
 20
17.362755
 30
0.0
 10
102.387024
 20
17.613691
 30
0.0
 10
102.387024
 20
17.741556
 30
0.0
  0
SPLINE
  5
224
100
AcDbEntity
  8
0
 62
7
100
AcDbSpline
 70
8
 71
3
 72
8
 73
4
 74
0
 40
0
 40
0
 40
0
 40
0
 40
1
 40
1
 40
1
 40
1
 10
102.387024
 20
17.741556
 30
0.0
 10
102.387024
 20
18.033622
 30
0.0
 10
102.547132
 20
18.058908
 30
0.0
 10
100.548620
 20
17.451221
 30
0.0
  0
SPLINE
  5
225
100
AcDbEntity
  8
0
 62
7
100
AcDbSpline
 70
8
 71
3
 72
8
 73
4
 74
0
 40
0
 40
0
 40
0
 40
0
 40
1
 40
1
 40
1
 40
1
 10
100.548620
 20
17.451221
 30
0.0
 10
99.610259
 20
17.165894
 30
0.0
 10
98.787246
 20
16.987708
 30
0.0
 10
98.719703
 20
17.055251
 30
0.0
  0
SPLINE
  5
226
100
AcDbEntity
  8
0
 62
7
100
AcDbSpline
 70
8
 71
3
 72
8
 73
4
 74
0
 40
0
 40
0
 40
0
 40
0
 40
1
 40
1
 40
1
 40
1
 10
98.719703
 20
17.055251
 30
0.0
 10
98.652161
 20
17.122791
 30
0.0
 10
98.727615
 20
17.464950
 30
0.0
 10
98.887386
 20
17.815605
 30
0.0
  0
SPLINE
  5
227
100
AcDbEntity
  8
0
 62
7
100
AcDbSpline
 70
8
 71
3
 72
8
 73
4
 74
0
 40
0
 40
0
 40
0
 40
0
 40
1
 40
1
 40
1
 40
1
 10
98.887386
 20
17.815605
 30
0.0
 10
99.149800
 20
18.391539
 30
0.0
 10
99.100452
 20
18.485223
 30
0.0
 10
98.376761
 20
18.784985
 30
0.0
  0
SPLINE
  5
228
100
AcDbEntity
  8
0
 62
7
100
AcDbSpline
 70
8
 71
3
 72
8
 73
4
 74
0
 40
0
 40
0
 40
0
 40
0
 40
1
 40
1
 40
1
 40
1
 10
98.376761
 20
18.784985
 30
0.0
 10
97.776599
 20
19.033580
 30
0.0
 10
97.528364
 20
19.040306
 30
0.0
 10
97.387137
 20
18.811796
 30
0.0
  0
SPLINE
  5
229
100
AcDbEntity
  8
0
 62
7
100
AcDbSpline
 70
8
 71
3
 72
8
 73
4
 74
0
 40
0
 40
0
 40
0
 40
0
 40
1
 40
1
 40
1
 40
1
 10
97.387137
 20
18.811796
 30
0.0
 10
97.149436
 20
18.427187
 30
0.0
 10
93.391191
 20
18.066017
 30
0.0
 10
93.391191
 20
18.427782
 30
0.0
  0
SPLINE
  5
22a
100
AcDbEntity
  8
0
 62
7
100
AcDbSpline
 70
8
 71
3
 72
8
 73
4
 74
0
 40
0
 40
0
 40
0
 40
0
 40
1
 40
1
 40
1
 40
1
 10
93.391191
 20
18.427782
 30
0.0
 10
93.391191
 20
18.569678
 30
0.0
 10
93.629316
 20
18.901275
 30
0.0
 10
93.920358
 20
19.164665
 30
0.0
  0
SPLINE
  5
22b
100
AcDbEntity
  8
0
 62
7
100
AcDbSpline
 70
8
 71
3
 72
8
 73
4
 74
0
 40
0
 40
0
 40
0
 40
0
 40
1
 40
1
 40
1
 40
1
 10
93.920358
 20
19.164665
 30
0.0
 10
94.640059
 20
19.815987
 30
0.0
 10
94.587510
 20
20.022010
 30
0.0
 10
93.655774
 20
20.201975
 30
0.0
  0
SPLINE
  5
22c
100
AcDbEntity
  8
0
 62
7
100
AcDbSpline
 70
8
 71
3
 72
8
 73
4
 74
0
 40
0
 40
0
 40
0
 40
0
 40
1
 40
1
 40
1
 40
1
 10
93.655774
 20
20.201975
 30
0.0
 10
93.219212
 20
20.286300
 30
0.0
 10
92.504837
 20
20.424280
 30
0.0
 10
92.068274
 20
20.508606
 30
0.0
  0
SPLINE
  5
22d
100
AcDbEntity
  8
0
 62
7
100
AcDbSpline
 70
8
 71
3
 72
8
 73
4
 74
0
 40
0
 40
0
 40
0
 40
0
 40
1
 40
1
 40
1
 40
1
 10
92.068274
 20
20.508606
 30
0.0
 10
91.449999
 20
20.628025
 30
0.0
 10
91.274524
 20
20.567203
 30
0.0
 10
91.274524
 20
20.233481
 30
0.0
  0
SPLINE
  5
22e
100
AcDbEntity
  8
0
 62
7
100
AcDbSpline
 70
8
 71
3
 72
8
 73
4
 74
0
 40
0
 40
0
 40
0
 40
0
 40
1
 40
1
 40
1
 40
1
 10
91.274524
 20
20.233481
 30
0.0
 10
91.274524
 20
19.330458
 30
0.0
 10
92.408163
 20
17.645565
 30
0.0
 10
93.561024
 20
16.835128
 30
0.0
  0
SPLINE
  5
22f
100
AcDbEntity
  8
0
 62
7
100
AcDbSpline
 70
8
 71
3
 72
8
 73
4
 74
0
 40
0
 40
0
 40
0
 40
0
 40
1
 40
1
 40
1
 40
1
 10
93.561024
 20
16.835128
 30
0.0
 10
94.482891
 20
16.187073
 30
0.0
 10
95.000839
 20
15.515077
 30
0.0
 10
95.779294
 20
13.957094
 30
0.0
  0
SPLINE
  5
230
100
AcDbEntity
  8
0
 62
7
100
AcDbSpline
 70
8
 71
3
 72
8
 73
4
 74
0
 40
0
 40
0
 40
0
 40
0
 40
1
 40
1
 40
1
 40
1
 10
95.779294
 20
13.957094
 30
0.0
 10
97.575050
 20
10.363094
 30
0.0
 10
98.347832
 20
9.958398
 30
0.0
 10
103.048483
 20
10.150300
 30
0.0
  0
SPLINE
  5
231
100
AcDbEntity
  8
0
 62
7
100
AcDbSpline
 70
8
 71
3
 72
8
 73
4
 74
0
 40
0
 40
0
 40
0
 40
0
 40
1
 40
1
 40
1
 40
1
 10
103.048483
 20
10.150300
 30
0.0
 10
105.300444
 20
10.242235
 30
0.0
 10
107.122838
 20
10.501995
 30
0.0
 10
109.317015
 20
11.043804
 30
0.0
  0
LWPOLYLINE
  5
232
100
AcDbEntity
  8
0
 62
7
100
AcDbPolyline
 90
1
 70
1
 10
33.595358
 20
11.612480
 30
0.0
  0
SPLINE
  5
233
100
AcDbEntity
  8
0
 62
7
100
AcDbSpline
 70
8
 71
3
 72
8
 73
4
 74
0
 40
0
 40
0
 40
0
 40
0
 40
1
 40
1
 40
1
 40
1
 10
97.677441
 20
11.941545
 30
0.0
 10
97.502816
 20
12.116170
 30
0.0
 10
97.359941
 20
12.390014
 30
0.0
 10
97.359941
 20
12.550087
 30
0.0
  0
SPLINE
  5
234
100
AcDbEntity
  8
0
 62
7
100
AcDbSpline
 70
8
 71
3
 72
8
 73
4
 74
0
 40
0
 40
0
 40
0
 40
0
 40
1
 40
1
 40
1
 40
1
 10
97.359941
 20
12.550087
 30
0.0
 10
97.359941
 20
12.710160
 30
0.0
 10
97.213042
 20
12.988028
 30
0.0
 10
97.033495
 20
13.167574
 30
0.0
  0
SPLINE
  5
235
100
AcDbEntity
  8
0
 62
7
100
AcDbSpline
 70
8
 71
3
 72
8
 73
4
 74
0
 40
0
 40
0
 40
0
 40
0
 40
1
 40
1
 40
1
 40
1
 10
97.033495
 20
13.167574
 30
0.0
 10
96.853952
 20
13.347118
 30
0.0
 10
96.689132
 20
13.850326
 30
0.0
 10
96.667230
 20
14.285817
 30
0.0
  0
SPLINE
  5
236
100
AcDbEntity
  8
0
 62
7
100
AcDbSpline
 70
8
 71
3
 72
8
 73
4
 74
0
 40
0
 40
0
 40
0
 40
0
 40
1
 40
1
 40
1
 40
1
 10
96.667230
 20
14.285817
 30
0.0
 10
96.635570
 20
14.915372
 30
0.0
 10
96.699237
 20
15.018004
 30
0.0
 10
96.977949
 20
14.786695
 30
0.0
  0
SPLINE
  5
237
100
AcDbEntity
  8
0
 62
7
100
AcDbSpline
 70
8
 71
3
 72
8
 73
4
 74
0
 40
0
 40
0
 40
0
 40
0
 40
1
 40
1
 40
1
 40
1
 10
96.977949
 20
14.786695
 30
0.0
 10
97.170745
 20
14.626688
 30
0.0
 10
97.261593
 20
14.321449
 30
0.0
 10
97.179834
 20
14.108388
 30
0.0
  0
SPLINE
  5
238
100
AcDbEntity
  8
0
 62
7
100
AcDbSpline
 70
8
 71
3
 72
8
 73
4
 74
0
 40
0
 40
0
 40
0
 40
0
 40
1
 40
1
 40
1
 40
1
 10
97.179834
 20
14.108388
 30
0.0
 10
97.098075
 20
13.895327
 30
0.0
 10
97.207422
 20
13.517078
 30
0.0
 10
97.422830
 20
13.267836
 30
0.0
  0
SPLINE
  5
239
100
AcDbEntity
  8
0
 62
7
100
AcDbSpline
 70
8
 71
3
 72
8
 73
4
 74
0
 40
0
 40
0
 40
0
 40
0
 40
1
 40
1
 40
1
 40
1
 10
97.422830
 20
13.267836
 30
0.0
 10
97.748709
 20
12.890773
 30
0.0
 10
98.231664
 20
11.624045
 30
0.0
 10
98.049546
 20
11.624045
 30
0.0
  0
SPLINE
  5
23a
100
AcDbEntity
  8
0
 62
7
100
AcDbSpline
 70
8
 71
3
 72
8
 73
4
 74
0
 40
0
 40
0
 40
0
 40
0
 40
1
 40
1
 40
1
 40
1
 10
98.049546
 20
11.624045
 30
0.0
 10
98.019513
 20
11.624045
 30
0.0
 10
97.852066
 20
11.766920
 30
0.0
 10
97.677441
 20
11.941545
 30
0.0
  0
LWPOLYLINE
  5
23b
100
AcDbEntity
  8
0
 62
7
100
AcDbPolyline
 90
1
 70
1
 10
109.317015
 20
11.043804
 30
0.0
  0
SPLINE
  5
23c
100
AcDbEntity
  8
0
 62
7
100
AcDbSpline
 70
8
 71
3
 72
8
 73
4
 74
0
 40
0
 40
0
 40
0
 40
0
 40
1
 40
1
 40
1
 40
1
 10
111.524632
 20
12.137872
 30
0.0
 10
111.441907
 20
12.271719
 30
0.0
 10
111.495231
 20
12.456017
 30
0.0
 10
111.643126
 20
12.547420
 30
0.0
  0
SPLINE
  5
23d
100
AcDbEntity
  8
0
 62
7
100
AcDbSpline
 70
8
 71
3
 72
8
 73
4
 74
0
 40
0
 40
0
 40
0
 40
0
 40
1
 40
1
 40
1
 40
1
 10
111.643126
 20
12.547420
 30
0.0
 10
111.791020
 20
12.638823
 30
0.0
 10
111.912024
 20
12.905930
 30
0.0
 10
111.912024
 20
13.140989
 30
0.0
  0
SPLINE
  5
23e
100
AcDbEntity
  8
0
 62
7
100
AcDbSpline
 70
8
 71
3
 72
8
 73
4
 74
0
 40
0
 40
0
 40
0
 40
0
 40
1
 40
1
 40
1
 40
1
 10
111.912024
 20
13.140989
 30
0.0
 10
111.912024
 20
13.482881
 30
0.0
 10
111.779920
 20
13.444265
 30
0.0
 10
111.251608
 20
12.947941
 30
0.0
  0
SPLINE
  5
23f
100
AcDbEntity
  8
0
 62
7
100
AcDbSpline
 70
8
 71
3
 72
8
 73
4
 74
0
 40
0
 40
0
 40
0
 40
0
 40
1
 40
1
 40
1
 40
1
 10
111.251608
 20
12.947941
 30
0.0
 10
110.888380
 20
12.606708
 30
0.0
 10
110.524922
 20
12.393784
 30
0.0
 10
110.443925
 20
12.474784
 30
0.0
  0
SPLINE
  5
240
100
AcDbEntity
  8
0
 62
7
100
AcDbSpline
 70
8
 71
3
 72
8
 73
4
 74
0
 40
0
 40
0
 40
0
 40
0
 40
1
 40
1
 40
1
 40
1
 10
110.443925
 20
12.474784
 30
0.0
 10
110.194355
 20
12.724355
 30
0.0
 10
111.720593
 20
13.769255
 30
0.0
 10
112.114126
 20
13.618244
 30
0.0
  0
SPLINE
  5
241
100
AcDbEntity
  8
0
 62
7
100
AcDbSpline
 70
8
 71
3
 72
8
 73
4
 74
0
 40
0
 40
0
 40
0
 40
0
 40
1
 40
1
 40
1
 40
1
 10
112.114126
 20
13.618244
 30
0.0
 10
112.317816
 20
13.540081
 30
0.0
 10
112.593795
 20
13.476129
 30
0.0
 10
112.727415
 20
13.476129
 30
0.0
  0
SPLINE
  5
242
100
AcDbEntity
  8
0
 62
7
100
AcDbSpline
 70
8
 71
3
 72
8
 73
4
 74
0
 40
0
 40
0
 40
0
 40
0
 40
1
 40
1
 40
1
 40
1
 10
112.727415
 20
13.476129
 30
0.0
 10
112.861032
 20
13.476129
 30
0.0
 10
112.970358
 20
13.311227
 30
0.0
 10
112.970358
 20
13.109683
 30
0.0
  0
SPLINE
  5
243
100
AcDbEntity
  8
0
 62
7
100
AcDbSpline
 70
8
 71
3
 72
8
 73
4
 74
0
 40
0
 40
0
 40
0
 40
0
 40
1
 40
1
 40
1
 40
1
 10
112.970358
 20
13.109683
 30
0.0
 10
112.970358
 20
12.646345
 30
0.0
 10
111.726940
 20
11.810526
 30
0.0
 10
111.524632
 20
12.137872
 30
0.0
  0
LWPOLYLINE
  5
244
100
AcDbEntity
  8
0
 62
7
100
AcDbPolyline
 90
1
 70
1
 10
97.677441
 20
11.941545
 30
0.0
  0
SPLINE
  5
245
100
AcDbEntity
  8
0
 62
7
100
AcDbSpline
 70
8
 71
3
 72
8
 73
4
 74
0
 40
0
 40
0
 40
0
 40
0
 40
1
 40
1
 40
1
 40
1
 10
97.548189
 20
15.591539
 30
0.0
 10
97.470140
 20
15.890005
 30
0.0
 10
97.014398
 20
16.199842
 30
0.0
 10
96.397268
 20
16.373994
 30
0.0
  0
SPLINE
  5
246
100
AcDbEntity
  8
0
 62
7
100
AcDbSpline
 70
8
 71
3
 72
8
 73
4
 74
0
 40
0
 40
0
 40
0
 40
0
 40
1
 40
1
 40
1
 40
1
 10
96.397268
 20
16.373994
 30
0.0
 10
95.835332
 20
16.532572
 30
0.0
 10
95.087694
 20
16.823510
 30
0.0
 10
94.735851
 20
17.020524
 30
0.0
  0
LWPOLYLINE
  5
247
100
AcDbEntity
  8
0
 62
7
100
AcDbPolyline
 90
1
 70
1
 10
111.524632
 20
12.137872
 30
0.0
  0
SPLINE
  5
248
100
AcDbEntity
  8
0
 62
7
100
AcDbSpline
 70
8
 71
3
 72
8
 73
4
 74
0
 40
0
 40
0
 40
0
 40
0
 40
1
 40
1
 40
1
 40
1
 10
94.709824
 20
17.707168
 30
0.0
 10
95.253940
 20
17.998371
 30
0.0
 10
95.303454
 20
17.983338
 30
0.0
 10
95.146596
 20
17.574567
 30
0.0
  0
SPLINE
  5
249
100
AcDbEntity
  8
0
 62
7
100
AcDbSpline
 70
8
 71
3
 72
8
 73
4
 74
0
 40
0
 40
0
 40
0
 40
0
 40
1
 40
1
 40
1
 40
1
 10
95.146596
 20
17.574567
 30
0.0
 10
94.978659
 20
17.136935
 30
0.0
 10
95.005139
 20
17.136766
 30
0.0
 10
95.668219
 20
17.571233
 30
0.0
  0
SPLINE
  5
24a
100
AcDbEntity
  8
0
 62
7
100
AcDbSpline
 70
8
 71
3
 72
8
 73
4
 74
0
 40
0
 40
0
 40
0
 40
0
 40
1
 40
1
 40
1
 40
1
 10
95.668219
 20
17.571233
 30
0.0
 10
96.052418
 20
17.822968
 30
0.0
 10
96.282595
 20
17.892750
 30
0.0
 10
96.179722
 20
17.726300
 30
0.0
  0
SPLINE
  5
24b
100
AcDbEntity
  8
0
 62
7
100
AcDbSpline
 70
8
 71
3
 72
8
 73
4
 74
0
 40
0
 40
0
 40
0
 40
0
 40
1
 40
1
 40
1
 40
1
 10
96.179722
 20
17.726300
 30
0.0
 10
96.048502
 20
17.513980
 30
0.0
 10
96.216433
 20
17.471295
 30
0.0
 10
96.742459
 20
17.583266
 30
0.0
  0
SPLINE
  5
24c
100
AcDbEntity
  8
0
 62
7
100
AcDbSpline
 70
8
 71
3
 72
8
 73
4
 74
0
 40
0
 40
0
 40
0
 40
0
 40
1
 40
1
 40
1
 40
1
 10
96.742459
 20
17.583266
 30
0.0
 10
97.368394
 20
17.716503
 30
0.0
 10
97.414837
 20
17.693719
 30
0.0
 10
97.023648
 20
17.445318
 30
0.0
  0
SPLINE
  5
24d
100
AcDbEntity
  8
0
 62
7
100
AcDbSpline
 70
8
 71
3
 72
8
 73
4
 74
0
 40
0
 40
0
 40
0
 40
0
 40
1
 40
1
 40
1
 40
1
 10
97.023648
 20
17.445318
 30
0.0
 10
96.388182
 20
17.041807
 30
0.0
 10
96.709042
 20
16.567362
 30
0.0
 10
97.375999
 20
16.924306
 30
0.0
  0
SPLINE
  5
24e
100
AcDbEntity
  8
0
 62
7
100
AcDbSpline
 70
8
 71
3
 72
8
 73
4
 74
0
 40
0
 40
0
 40
0
 40
0
 40
1
 40
1
 40
1
 40
1
 10
97.375999
 20
16.924306
 30
0.0
 10
97.798660
 20
17.150509
 30
0.0
 10
97.889108
 20
17.111768
 30
0.0
 10
97.889108
 20
16.704535
 30
0.0
  0
SPLINE
  5
24f
100
AcDbEntity
  8
0
 62
7
100
AcDbSpline
 70
8
 71
3
 72
8
 73
4
 74
0
 40
0
 40
0
 40
0
 40
0
 40
1
 40
1
 40
1
 40
1
 10
97.889108
 20
16.704535
 30
0.0
 10
97.889108
 20
15.996682
 30
0.0
 10
98.120422
 20
15.857826
 30
0.0
 10
98.842354
 20
16.132305
 30
0.0
  0
SPLINE
  5
250
100
AcDbEntity
  8
0
 62
7
100
AcDbSpline
 70
8
 71
3
 72
8
 73
4
 74
0
 40
0
 40
0
 40
0
 40
0
 40
1
 40
1
 40
1
 40
1
 10
98.842354
 20
16.132305
 30
0.0
 10
99.810877
 20
16.500536
 30
0.0
 10
99.597353
 20
16.012967
 30
0.0
 10
98.577008
 20
15.526398
 30
0.0
  0
SPLINE
  5
251
100
AcDbEntity
  8
0
 62
7
100
AcDbSpline
 70
8
 71
3
 72
8
 73
4
 74
0
 40
0
 40
0
 40
0
 40
0
 40
1
 40
1
 40
1
 40
1
 10
98.577008
 20
15.526398
 30
0.0
 10
97.724751
 20
15.119985
 30
0.0
 10
97.670607
 20
15.123414
 30
0.0
 10
97.548189
 20
15.591539
 30
0.0
  0
LWPOLYLINE
  5
252
100
AcDbEntity
  8
0
 62
7
100
AcDbPolyline
 90
3
 70
0
 10
94.735851
 20
17.020524
 30
0.0
 10
94.096134
 20
17.378733
 30
0.0
 10
94.709824
 20
17.707168
 30
0.0
  0
SPLINE
  5
253
100
AcDbEntity
  8
0
 62
7
100
AcDbSpline
 70
8
 71
3
 72
8
 73
4
 74
0
 40
0
 40
0
 40
0
 40
0
 40
1
 40
1
 40
1
 40
1
 10
64.568832
 20
11.975616
 30
0.0
 10
64.243074
 20
12.832424
 30
0.0
 10
63.611641
 20
12.899009
 30
0.0
 10
63.402334
 20
12.098621
 30
0.0
  0
SPLINE
  5
254
100
AcDbEntity
  8
0
 62
7
100
AcDbSpline
 70
8
 71
3
 72
8
 73
4
 74
0
 40
0
 40
0
 40
0
 40
0
 40
1
 40
1
 40
1
 40
1
 10
63.402334
 20
12.098621
 30
0.0
 10
63.318374
 20
11.777554
 30
0.0
 10
63.274723
 20
11.499948
 30
0.0
 10
63.305330
 20
11.481721
 30
0.0
  0
SPLINE
  5
255
100
AcDbEntity
  8
0
 62
7
100
AcDbSpline
 70
8
 71
3
 72
8
 73
4
 74
0
 40
0
 40
0
 40
0
 40
0
 40
1
 40
1
 40
1
 40
1
 10
63.305330
 20
11.481721
 30
0.0
 10
63.335940
 20
11.463491
 30
0.0
 10
63.658639
 20
11.246678
 30
0.0
 10
64.022441
 20
10.999912
 30
0.0
  0
SPLINE
  5
256
100
AcDbEntity
  8
0
 62
7
100
AcDbSpline
 70
8
 71
3
 72
8
 73
4
 74
0
 40
0
 40
0
 40
0
 40
0
 40
1
 40
1
 40
1
 40
1
 10
64.022441
 20
10.999912
 30
0.0
 10
64.804076
 20
10.469732
 30
0.0
 10
65.004974
 20
10.828480
 30
0.0
 10
64.568832
 20
11.975616
 30
0.0
  0
LWPOLYLINE
  5
257
100
AcDbEntity
  8
0
 62
7
100
AcDbPolyline
 90
1
 70
1
 10
97.548189
 20
15.591539
 30
0.0
  0
LWPOLYLINE
  5
258
100
AcDbEntity
  8
0
 62
7
100
AcDbPolyline
 90
1
 70
1
 10
64.568832
 20
11.975616
 30
0.0
  0
SPLINE
  5
259
100
AcDbEntity
  8
0
 62
7
100
AcDbSpline
 70
8
 71
3
 72
8
 73
4
 74
0
 40
0
 40
0
 40
0
 40
0
 40
1
 40
1
 40
1
 40
1
 10
59.524524
 20
12.933545
 30
0.0
 10
60.033847
 20
12.939287
 30
0.0
 10
60.908216
 20
12.816925
 30
0.0
 10
61.467563
 20
12.661609
 30
0.0
  0
SPLINE
  5
25a
100
AcDbEntity
  8
0
 62
7
100
AcDbSpline
 70
8
 71
3
 72
8
 73
4
 74
0
 40
0
 40
0
 40
0
 40
0
 40
1
 40
1
 40
1
 40
1
 10
61.467563
 20
12.661609
 30
0.0
 10
62.026914
 20
12.506291
 30
0.0
 10
62.549442
 20
12.444092
 30
0.0
 10
62.628738
 20
12.523391
 30
0.0
  0
SPLINE
  5
25b
100
AcDbEntity
  8
0
 62
7
100
AcDbSpline
 70
8
 71
3
 72
8
 73
4
 74
0
 40
0
 40
0
 40
0
 40
0
 40
1
 40
1
 40
1
 40
1
 10
62.628738
 20
12.523391
 30
0.0
 10
62.837986
 20
12.732639
 30
0.0
 10
61.444767
 20
13.224701
 30
0.0
 10
59.971625
 20
13.461839
 30
0.0
  0
SPLINE
  5
25c
100
AcDbEntity
  8
0
 62
7
100
AcDbSpline
 70
8
 71
3
 72
8
 73
4
 74
0
 40
0
 40
0
 40
0
 40
0
 40
1
 40
1
 40
1
 40
1
 10
59.971625
 20
13.461839
 30
0.0
 10
59.271646
 20
13.574517
 30
0.0
 10
58.557271
 20
13.819944
 30
0.0
 10
58.384125
 20
14.007230
 30
0.0
  0
SPLINE
  5
25d
100
AcDbEntity
  8
0
 62
7
100
AcDbSpline
 70
8
 71
3
 72
8
 73
4
 74
0
 40
0
 40
0
 40
0
 40
0
 40
1
 40
1
 40
1
 40
1
 10
58.384125
 20
14.007230
 30
0.0
 10
58.132697
 20
14.279195
 30
0.0
 10
58.175853
 20
14.309548
 30
0.0
 10
58.598483
 20
14.157992
 30
0.0
  0
SPLINE
  5
25e
100
AcDbEntity
  8
0
 62
7
100
AcDbSpline
 70
8
 71
3
 72
8
 73
4
 74
0
 40
0
 40
0
 40
0
 40
0
 40
1
 40
1
 40
1
 40
1
 10
58.598483
 20
14.157992
 30
0.0
 10
59.907546
 20
13.688555
 30
0.0
 10
60.459250
 20
13.712510
 30
0.0
 10
61.048411
 20
14.264373
 30
0.0
  0
SPLINE
  5
25f
100
AcDbEntity
  8
0
 62
7
100
AcDbSpline
 70
8
 71
3
 72
8
 73
4
 74
0
 40
0
 40
0
 40
0
 40
0
 40
1
 40
1
 40
1
 40
1
 10
61.048411
 20
14.264373
 30
0.0
 10
61.512545
 20
14.699126
 30
0.0
 10
61.587761
 20
14.933657
 30
0.0
 10
61.384722
 20
15.313038
 30
0.0
  0
SPLINE
  5
260
100
AcDbEntity
  8
0
 62
7
100
AcDbSpline
 70
8
 71
3
 72
8
 73
4
 74
0
 40
0
 40
0
 40
0
 40
0
 40
1
 40
1
 40
1
 40
1
 10
61.384722
 20
15.313038
 30
0.0
 10
61.057713
 20
15.924072
 30
0.0
 10
59.769415
 20
16.386545
 30
0.0
 10
58.394312
 20
16.386545
 30
0.0
  0
SPLINE
  5
261
100
AcDbEntity
  8
0
 62
7
100
AcDbSpline
 70
8
 71
3
 72
8
 73
4
 74
0
 40
0
 40
0
 40
0
 40
0
 40
1
 40
1
 40
1
 40
1
 10
58.394312
 20
16.386545
 30
0.0
 10
57.433789
 20
16.386545
 30
0.0
 10
57.374404
 20
16.346980
 30
0.0
 10
57.706191
 20
15.928091
 30
0.0
  0
SPLINE
  5
262
100
AcDbEntity
  8
0
 62
7
100
AcDbSpline
 70
8
 71
3
 72
8
 73
4
 74
0
 40
0
 40
0
 40
0
 40
0
 40
1
 40
1
 40
1
 40
1
 10
57.706191
 20
15.928091
 30
0.0
 10
58.050647
 20
15.493209
 30
0.0
 10
58.032385
 20
15.493209
 30
0.0
 10
57.351020
 20
15.928091
 30
0.0
  0
SPLINE
  5
263
100
AcDbEntity
  8
0
 62
7
100
AcDbSpline
 70
8
 71
3
 72
8
 73
4
 74
0
 40
0
 40
0
 40
0
 40
0
 40
1
 40
1
 40
1
 40
1
 10
57.351020
 20
15.928091
 30
0.0
 10
56.501411
 20
16.470357
 30
0.0
 10
56.244286
 20
16.509735
 30
0.0
 10
56.516990
 20
16.055816
 30
0.0
  0
SPLINE
  5
264
100
AcDbEntity
  8
0
 62
7
100
AcDbSpline
 70
8
 71
3
 72
8
 73
4
 74
0
 40
0
 40
0
 40
0
 40
0
 40
1
 40
1
 40
1
 40
1
 10
56.516990
 20
16.055816
 30
0.0
 10
56.643037
 20
15.846010
 30
0.0
 10
56.545956
 20
15.862877
 30
0.0
 10
56.251470
 20
16.101949
 30
0.0
  0
SPLINE
  5
265
100
AcDbEntity
  8
0
 62
7
100
AcDbSpline
 70
8
 71
3
 72
8
 73
4
 74
0
 40
0
 40
0
 40
0
 40
0
 40
1
 40
1
 40
1
 40
1
 10
56.251470
 20
16.101949
 30
0.0
 10
55.819082
 20
16.452974
 30
0.0
 10
55.838111
 20
16.499599
 30
0.0
 10
56.529041
 20
16.782015
 30
0.0
  0
SPLINE
  5
266
100
AcDbEntity
  8
0
 62
7
100
AcDbSpline
 70
8
 71
3
 72
8
 73
4
 74
0
 40
0
 40
0
 40
0
 40
0
 40
1
 40
1
 40
1
 40
1
 10
56.529041
 20
16.782015
 30
0.0
 10
57.261085
 20
17.081241
 30
0.0
 10
57.262826
 20
17.087316
 30
0.0
 10
56.661532
 20
17.244557
 30
0.0
  0
SPLINE
  5
267
100
AcDbEntity
  8
0
 62
7
100
AcDbSpline
 70
8
 71
3
 72
8
 73
4
 74
0
 40
0
 40
0
 40
0
 40
0
 40
1
 40
1
 40
1
 40
1
 10
56.661532
 20
17.244557
 30
0.0
 10
56.175582
 20
17.371634
 30
0.0
 10
55.948625
 20
17.233974
 30
0.0
 10
55.540410
 20
16.564488
 30
0.0
  0
SPLINE
  5
268
100
AcDbEntity
  8
0
 62
7
100
AcDbSpline
 70
8
 71
3
 72
8
 73
4
 74
0
 40
0
 40
0
 40
0
 40
0
 40
1
 40
1
 40
1
 40
1
 10
55.540410
 20
16.564488
 30
0.0
 10
54.830221
 20
15.399766
 30
0.0
 10
54.866574
 20
15.015882
 30
0.0
 10
55.658546
 20
15.316988
 30
0.0
  0
SPLINE
  5
269
100
AcDbEntity
  8
0
 62
7
100
AcDbSpline
 70
8
 71
3
 72
8
 73
4
 74
0
 40
0
 40
0
 40
0
 40
0
 40
1
 40
1
 40
1
 40
1
 10
55.658546
 20
15.316988
 30
0.0
 10
56.221683
 20
15.531092
 30
0.0
 10
56.307384
 20
15.472767
 30
0.0
 10
56.445682
 20
14.781273
 30
0.0
  0
SPLINE
  5
26a
100
AcDbEntity
  8
0
 62
7
100
AcDbSpline
 70
8
 71
3
 72
8
 73
4
 74
0
 40
0
 40
0
 40
0
 40
0
 40
1
 40
1
 40
1
 40
1
 10
56.445682
 20
14.781273
 30
0.0
 10
56.539752
 20
14.310926
 30
0.0
 10
56.767653
 20
14.005295
 30
0.0
 10
57.024310
 20
14.005295
 30
0.0
  0
SPLINE
  5
26b
100
AcDbEntity
  8
0
 62
7
100
AcDbSpline
 70
8
 71
3
 72
8
 73
4
 74
0
 40
0
 40
0
 40
0
 40
0
 40
1
 40
1
 40
1
 40
1
 10
57.024310
 20
14.005295
 30
0.0
 10
57.321474
 20
14.005295
 30
0.0
 10
57.433432
 20
13.788329
 30
0.0
 10
57.399761
 20
13.277691
 30
0.0
  0
SPLINE
  5
26c
100
AcDbEntity
  8
0
 62
7
100
AcDbSpline
 70
8
 71
3
 72
8
 73
4
 74
0
 40
0
 40
0
 40
0
 40
0
 40
1
 40
1
 40
1
 40
1
 10
57.399761
 20
13.277691
 30
0.0
 10
57.373382
 20
12.877509
 30
0.0
 10
57.364402
 20
12.460790
 30
0.0
 10
57.379812
 20
12.351650
 30
0.0
  0
SPLINE
  5
26d
100
AcDbEntity
  8
0
 62
7
100
AcDbSpline
 70
8
 71
3
 72
8
 73
4
 74
0
 40
0
 40
0
 40
0
 40
0
 40
1
 40
1
 40
1
 40
1
 10
57.379812
 20
12.351650
 30
0.0
 10
57.395237
 20
12.242509
 30
0.0
 10
58.032925
 20
12.162883
 30
0.0
 10
58.796910
 20
12.174702
 30
0.0
  0
LWPOLYLINE
  5
26e
100
AcDbEntity
  8
0
 62
7
100
AcDbPolyline
 90
3
 70
0
 10
59.392233
 20
12.559641
 30
0.0
 10
58.598483
 20
12.923094
 30
0.0
 10
59.524524
 20
12.933545
 30
0.0
  0
LWPOLYLINE
  5
26f
100
AcDbEntity
  8
0
 62
7
100
AcDbPolyline
 90
4
 70
0
 10
58.796910
 20
12.174702
 30
0.0
 10
60.185972
 20
12.196186
 30
0.0
 10
59.392222
 20
12.559636
 30
0.0
 10
59.392233
 20
12.559641
 30
0.0
  0
SPLINE
  5
270
100
AcDbEntity
  8
0
 62
7
100
AcDbSpline
 70
8
 71
3
 72
8
 73
4
 74
0
 40
0
 40
0
 40
0
 40
0
 40
1
 40
1
 40
1
 40
1
 10
59.596599
 20
15.223622
 30
0.0
 10
60.265876
 20
15.137358
 30
0.0
 10
60.537042
 20
15.188287
 30
0.0
 10
60.419665
 20
15.378210
 30
0.0
  0
SPLINE
  5
271
100
AcDbEntity
  8
0
 62
7
100
AcDbSpline
 70
8
 71
3
 72
8
 73
4
 74
0
 40
0
 40
0
 40
0
 40
0
 40
1
 40
1
 40
1
 40
1
 10
60.419665
 20
15.378210
 30
0.0
 10
60.318213
 20
15.542366
 30
0.0
 10
60.399160
 20
15.609935
 30
0.0
 10
60.612173
 20
15.538926
 30
0.0
  0
SPLINE
  5
272
100
AcDbEntity
  8
0
 62
7
100
AcDbSpline
 70
8
 71
3
 72
8
 73
4
 74
0
 40
0
 40
0
 40
0
 40
0
 40
1
 40
1
 40
1
 40
1
 10
60.612173
 20
15.538926
 30
0.0
 10
61.104330
 20
15.374874
 30
0.0
 10
61.082330
 20
14.687285
 30
0.0
 10
60.582858
 20
14.622616
 30
0.0
  0
SPLINE
  5
273
100
AcDbEntity
  8
0
 62
7
100
AcDbSpline
 70
8
 71
3
 72
8
 73
4
 74
0
 40
0
 40
0
 40
0
 40
0
 40
1
 40
1
 40
1
 40
1
 10
60.582858
 20
14.622616
 30
0.0
 10
60.364576
 20
14.594353
 30
0.0
 10
59.828795
 20
14.746965
 30
0.0
 10
59.392233
 20
14.961751
 30
0.0
  0
LWPOLYLINE
  5
274
100
AcDbEntity
  8
0
 62
7
100
AcDbPolyline
 90
3
 70
0
 10
59.392233
 20
14.961751
 30
0.0
 10
58.598483
 20
15.352273
 30
0.0
 10
59.596599
 20
15.223622
 30
0.0
  0
SPLINE
  5
275
100
AcDbEntity
  8
0
 62
7
100
AcDbSpline
 70
8
 71
3
 72
8
 73
4
 74
0
 40
0
 40
0
 40
0
 40
0
 40
1
 40
1
 40
1
 40
1
 10
65.504041
 20
13.670222
 30
0.0
 10
65.439544
 20
13.734719
 30
0.0
 10
65.213526
 20
13.747200
 30
0.0
 10
65.001780
 20
13.697955
 30
0.0
  0
SPLINE
  5
276
100
AcDbEntity
  8
0
 62
7
100
AcDbSpline
 70
8
 71
3
 72
8
 73
4
 74
0
 40
0
 40
0
 40
0
 40
0
 40
1
 40
1
 40
1
 40
1
 10
65.001780
 20
13.697955
 30
0.0
 10
64.703145
 20
13.628505
 30
0.0
 10
64.674634
 20
13.460042
 30
0.0
 10
64.874669
 20
12.946962
 30
0.0
  0
LWPOLYLINE
  5
277
100
AcDbEntity
  8
0
 62
7
100
AcDbPolyline
 90
1
 70
1
 10
59.392233
 20
14.961751
 30
0.0
  0
SPLINE
  5
278
100
AcDbEntity
  8
0
 62
7
100
AcDbSpline
 70
8
 71
3
 72
8
 73
4
 74
0
 40
0
 40
0
 40
0
 40
0
 40
1
 40
1
 40
1
 40
1
 10
65.376930
 20
12.919228
 30
0.0
 10
65.511339
 20
13.267777
 30
0.0
 10
65.568539
 20
13.605724
 30
0.0
 10
65.504041
 20
13.670222
 30
0.0
  0
LWPOLYLINE
  5
279
100
AcDbEntity
  8
0
 62
7
100
AcDbPolyline
 90
3
 70
0
 10
64.874669
 20
12.946962
 30
0.0
 10
65.132553
 20
12.285504
 30
0.0
 10
65.376930
 20
12.919228
 30
0.0
  0
SPLINE
  5
27a
100
AcDbEntity
  8
0
 62
7
100
AcDbSpline
 70
8
 71
3
 72
8
 73
4
 74
0
 40
0
 40
0
 40
0
 40
0
 40
1
 40
1
 40
1
 40
1
 10
63.595046
 20
13.857131
 30
0.0
 10
63.514634
 20
14.066681
 30
0.0
 10
63.146204
 20
14.436429
 30
0.0
 10
62.776317
 20
14.678787
 30
0.0
  0
SPLINE
  5
27b
100
AcDbEntity
  8
0
 62
7
100
AcDbSpline
 70
8
 71
3
 72
8
 73
4
 74
0
 40
0
 40
0
 40
0
 40
0
 40
1
 40
1
 40
1
 40
1
 10
62.776317
 20
14.678787
 30
0.0
 10
62.220830
 20
15.042758
 30
0.0
 10
62.064244
 20
15.057033
 30
0.0
 10
61.876543
 20
14.760808
 30
0.0
  0
SPLINE
  5
27c
100
AcDbEntity
  8
0
 62
7
100
AcDbSpline
 70
8
 71
3
 72
8
 73
4
 74
0
 40
0
 40
0
 40
0
 40
0
 40
1
 40
1
 40
1
 40
1
 10
61.876543
 20
14.760808
 30
0.0
 10
61.523652
 20
14.203886
 30
0.0
 10
61.593555
 20
14.007391
 30
0.0
 10
62.236503
 20
13.748957
 30
0.0
  0
SPLINE
  5
27d
100
AcDbEntity
  8
0
 62
7
100
AcDbSpline
 70
8
 71
3
 72
8
 73
4
 74
0
 40
0
 40
0
 40
0
 40
0
 40
1
 40
1
 40
1
 40
1
 10
62.236503
 20
13.748957
 30
0.0
 10
63.166688
 20
13.375068
 30
0.0
 10
63.761845
 20
13.422458
 30
0.0
 10
63.595046
 20
13.857131
 30
0.0
  0
LWPOLYLINE
  5
27e
100
AcDbEntity
  8
0
 62
7
100
AcDbPolyline
 90
1
 70
1
 10
65.504041
 20
13.670222
 30
0.0
  0
SPLINE
  5
27f
100
AcDbEntity
  8
0
 62
7
100
AcDbSpline
 70
8
 71
3
 72
8
 73
4
 74
0
 40
0
 40
0
 40
0
 40
0
 40
1
 40
1
 40
1
 40
1
 10
94.667361
 20
14.679202
 30
0.0
 10
94.620313
 20
14.904331
 30
0.0
 10
94.192889
 20
15.333991
 30
0.0
 10
93.717533
 20
15.634004
 30
0.0
  0
LWPOLYLINE
  5
280
100
AcDbEntity
  8
0
 62
7
100
AcDbPolyline
 90
1
 70
1
 10
63.595046
 20
13.857131
 30
0.0
  0
SPLINE
  5
281
100
AcDbEntity
  8
0
 62
7
100
AcDbSpline
 70
8
 71
3
 72
8
 73
4
 74
0
 40
0
 40
0
 40
0
 40
0
 40
1
 40
1
 40
1
 40
1
 10
93.138776
 20
15.428502
 30
0.0
 10
93.295811
 20
15.015464
 30
0.0
 10
93.565676
 20
14.587627
 30
0.0
 10
93.738472
 20
14.477751
 30
0.0
  0
SPLINE
  5
282
100
AcDbEntity
  8
0
 62
7
100
AcDbSpline
 70
8
 71
3
 72
8
 73
4
 74
0
 40
0
 40
0
 40
0
 40
0
 40
1
 40
1
 40
1
 40
1
 10
93.738472
 20
14.477751
 30
0.0
 10
94.267742
 20
14.141215
 30
0.0
 10
94.757597
 20
14.247450
 30
0.0
 10
94.667361
 20
14.679202
 30
0.0
  0
LWPOLYLINE
  5
283
100
AcDbEntity
  8
0
 62
7
100
AcDbPolyline
 90
3
 70
0
 10
93.717533
 20
15.634004
 30
0.0
 10
92.853253
 20
16.179480
 30
0.0
 10
93.138776
 20
15.428502
 30
0.0
  0
SPLINE
  5
284
100
AcDbEntity
  8
0
 62
7
100
AcDbSpline
 70
8
 71
3
 72
8
 73
4
 74
0
 40
0
 40
0
 40
0
 40
0
 40
1
 40
1
 40
1
 40
1
 10
89.356295
 20
16.139978
 30
0.0
 10
88.810592
 20
16.428064
 30
0.0
 10
88.364108
 20
16.724646
 30
0.0
 10
88.364108
 20
16.799049
 30
0.0
  0
SPLINE
  5
285
100
AcDbEntity
  8
0
 62
7
100
AcDbSpline
 70
8
 71
3
 72
8
 73
4
 74
0
 40
0
 40
0
 40
0
 40
0
 40
1
 40
1
 40
1
 40
1
 10
88.364108
 20
16.799049
 30
0.0
 10
88.364108
 20
16.873455
 30
0.0
 10
88.608834
 20
16.803362
 30
0.0
 10
88.907943
 20
16.643279
 30
0.0
  0
SPLINE
  5
286
100
AcDbEntity
  8
0
 62
7
100
AcDbSpline
 70
8
 71
3
 72
8
 73
4
 74
0
 40
0
 40
0
 40
0
 40
0
 40
1
 40
1
 40
1
 40
1
 10
88.907943
 20
16.643279
 30
0.0
 10
90.018878
 20
16.048725
 30
0.0
 10
90.040225
 20
16.588550
 30
0.0
 10
88.933396
 20
17.287251
 30
0.0
  0
SPLINE
  5
287
100
AcDbEntity
  8
0
 62
7
100
AcDbSpline
 70
8
 71
3
 72
8
 73
4
 74
0
 40
0
 40
0
 40
0
 40
0
 40
1
 40
1
 40
1
 40
1
 10
88.933396
 20
17.287251
 30
0.0
 10
87.726459
 20
18.049155
 30
0.0
 10
87.252365
 20
18.014804
 30
0.0
 10
87.759836
 20
17.202216
 30
0.0
  0
SPLINE
  5
288
100
AcDbEntity
  8
0
 62
7
100
AcDbSpline
 70
8
 71
3
 72
8
 73
4
 74
0
 40
0
 40
0
 40
0
 40
0
 40
1
 40
1
 40
1
 40
1
 10
87.759836
 20
17.202216
 30
0.0
 10
87.973186
 20
16.860589
 30
0.0
 10
87.979075
 20
16.636526
 30
0.0
 10
87.779945
 20
16.437398
 30
0.0
  0
SPLINE
  5
289
100
AcDbEntity
  8
0
 62
7
100
AcDbSpline
 70
8
 71
3
 72
8
 73
4
 74
0
 40
0
 40
0
 40
0
 40
0
 40
1
 40
1
 40
1
 40
1
 10
87.779945
 20
16.437398
 30
0.0
 10
87.580814
 20
16.238268
 30
0.0
 10
87.760762
 20
16.080288
 30
0.0
 10
88.394220
 20
15.898140
 30
0.0
  0
SPLINE
  5
28a
100
AcDbEntity
  8
0
 62
7
100
AcDbSpline
 70
8
 71
3
 72
8
 73
4
 74
0
 40
0
 40
0
 40
0
 40
0
 40
1
 40
1
 40
1
 40
1
 10
88.394220
 20
15.898140
 30
0.0
 10
89.969073
 20
15.445293
 30
0.0
 10
90.445376
 20
15.565022
 30
0.0
 10
89.356279
 20
16.139978
 30
0.0
  0
LWPOLYLINE
  5
28b
100
AcDbEntity
  8
0
 62
7
100
AcDbPolyline
 90
1
 70
1
 10
94.667361
 20
14.679202
 30
0.0
  0
SPLINE
  5
28c
100
AcDbEntity
  8
0
 62
7
100
AcDbSpline
 70
8
 71
3
 72
8
 73
4
 74
0
 40
0
 40
0
 40
0
 40
0
 40
1
 40
1
 40
1
 40
1
 10
67.625238
 20
16.577207
 30
0.0
 10
67.992149
 20
16.973111
 30
0.0
 10
68.358197
 20
17.626261
 30
0.0
 10
68.438675
 20
18.028653
 30
0.0
  0
SPLINE
  5
28d
100
AcDbEntity
  8
0
 62
7
100
AcDbSpline
 70
8
 71
3
 72
8
 73
4
 74
0
 40
0
 40
0
 40
0
 40
0
 40
1
 40
1
 40
1
 40
1
 10
68.438675
 20
18.028653
 30
0.0
 10
68.590975
 20
18.790150
 30
0.0
 10
69.012760
 20
19.299171
 30
0.0
 10
70.842881
 20
20.930111
 30
0.0
  0
SPLINE
  5
28e
100
AcDbEntity
  8
0
 62
7
100
AcDbSpline
 70
8
 71
3
 72
8
 73
4
 74
0
 40
0
 40
0
 40
0
 40
0
 40
1
 40
1
 40
1
 40
1
 10
70.842881
 20
20.930111
 30
0.0
 10
71.641383
 20
21.641710
 30
0.0
 10
72.042843
 20
22.279102
 30
0.0
 10
72.342703
 20
23.311361
 30
0.0
  0
SPLINE
  5
28f
100
AcDbEntity
  8
0
 62
7
100
AcDbSpline
 70
8
 71
3
 72
8
 73
4
 74
0
 40
0
 40
0
 40
0
 40
0
 40
1
 40
1
 40
1
 40
1
 10
72.342703
 20
23.311361
 30
0.0
 10
72.762586
 20
24.756787
 30
0.0
 10
73.277119
 20
28.170656
 30
0.0
 10
73.253010
 20
29.351129
 30
0.0
  0
SPLINE
  5
290
100
AcDbEntity
  8
0
 62
7
100
AcDbSpline
 70
8
 71
3
 72
8
 73
4
 74
0
 40
0
 40
0
 40
0
 40
0
 40
1
 40
1
 40
1
 40
1
 10
73.253010
 20
29.351129
 30
0.0
 10
73.227478
 20
30.601346
 30
0.0
 10
71.948567
 20
27.259439
 30
0.0
 10
71.702456
 20
25.299390
 30
0.0
  0
SPLINE
  5
291
100
AcDbEntity
  8
0
 62
7
100
AcDbSpline
 70
8
 71
3
 72
8
 73
4
 74
0
 40
0
 40
0
 40
0
 40
0
 40
1
 40
1
 40
1
 40
1
 10
71.702456
 20
25.299390
 30
0.0
 10
71.562640
 20
24.185904
 30
0.0
 10
71.264785
 20
23.170012
 30
0.0
 10
70.957739
 20
22.759397
 30
0.0
  0
SPLINE
  5
292
100
AcDbEntity
  8
0
 62
7
100
AcDbSpline
 70
8
 71
3
 72
8
 73
4
 74
0
 40
0
 40
0
 40
0
 40
0
 40
1
 40
1
 40
1
 40
1
 10
70.957739
 20
22.759397
 30
0.0
 10
70.491554
 20
22.135962
 30
0.0
 10
70.272114
 20
22.073013
 30
0.0
 10
68.491007
 20
22.051764
 30
0.0
  0
SPLINE
  5
293
100
AcDbEntity
  8
0
 62
7
100
AcDbSpline
 70
8
 71
3
 72
8
 73
4
 74
0
 40
0
 40
0
 40
0
 40
0
 40
1
 40
1
 40
1
 40
1
 10
68.491007
 20
22.051764
 30
0.0
 10
66.767930
 20
22.031206
 30
0.0
 10
66.263184
 20
21.897798
 30
0.0
 10
64.236645
 20
20.927285
 30
0.0
  0
SPLINE
  5
294
100
AcDbEntity
  8
0
 62
7
100
AcDbSpline
 70
8
 71
3
 72
8
 73
4
 74
0
 40
0
 40
0
 40
0
 40
0
 40
1
 40
1
 40
1
 40
1
 10
64.236645
 20
20.927285
 30
0.0
 10
61.703556
 20
19.714184
 30
0.0
 10
61.376608
 20
19.634645
 30
0.0
 10
61.376608
 20
20.231502
 30
0.0
  0
SPLINE
  5
295
100
AcDbEntity
  8
0
 62
7
100
AcDbSpline
 70
8
 71
3
 72
8
 73
4
 74
0
 40
0
 40
0
 40
0
 40
0
 40
1
 40
1
 40
1
 40
1
 10
61.376608
 20
20.231502
 30
0.0
 10
61.376608
 20
21.693696
 30
0.0
 10
63.591437
 20
24.847963
 30
0.0
 10
65.458536
 20
26.044808
 30
0.0
  0
SPLINE
  5
296
100
AcDbEntity
  8
0
 62
7
100
AcDbSpline
 70
8
 71
3
 72
8
 73
4
 74
0
 40
0
 40
0
 40
0
 40
0
 40
1
 40
1
 40
1
 40
1
 10
65.458536
 20
26.044808
 30
0.0
 10
67.465340
 20
27.331210
 30
0.0
 10
69.393387
 20
29.824937
 30
0.0
 10
71.318631
 20
33.624224
 30
0.0
  0
SPLINE
  5
297
100
AcDbEntity
  8
0
 62
7
100
AcDbSpline
 70
8
 71
3
 72
8
 73
4
 74
0
 40
0
 40
0
 40
0
 40
0
 40
1
 40
1
 40
1
 40
1
 10
71.318631
 20
33.624224
 30
0.0
 10
72.089952
 20
35.146353
 30
0.0
 10
73.705183
 20
40.665445
 30
0.0
 10
73.913714
 20
42.491380
 30
0.0
  0
SPLINE
  5
298
100
AcDbEntity
  8
0
 62
7
100
AcDbSpline
 70
8
 71
3
 72
8
 73
4
 74
0
 40
0
 40
0
 40
0
 40
0
 40
1
 40
1
 40
1
 40
1
 10
73.913714
 20
42.491380
 30
0.0
 10
73.994087
 20
43.195126
 30
0.0
 10
74.290317
 20
44.961545
 30
0.0
 10
74.572006
 20
46.416754
 30
0.0
  0
SPLINE
  5
299
100
AcDbEntity
  8
0
 62
7
100
AcDbSpline
 70
8
 71
3
 72
8
 73
4
 74
0
 40
0
 40
0
 40
0
 40
0
 40
1
 40
1
 40
1
 40
1
 10
74.572006
 20
46.416754
 30
0.0
 10
74.853692
 20
47.871962
 30
0.0
 10
75.220195
 20
50.253212
 30
0.0
 10
75.386451
 20
51.708420
 30
0.0
  0
SPLINE
  5
29a
100
AcDbEntity
  8
0
 62
7
100
AcDbSpline
 70
8
 71
3
 72
8
 73
4
 74
0
 40
0
 40
0
 40
0
 40
0
 40
1
 40
1
 40
1
 40
1
 10
75.386451
 20
51.708420
 30
0.0
 10
75.979033
 20
56.895145
 30
0.0
 10
76.475534
 20
60.166306
 30
0.0
 10
76.705031
 20
60.395803
 30
0.0
  0
SPLINE
  5
29b
100
AcDbEntity
  8
0
 62
7
100
AcDbSpline
 70
8
 71
3
 72
8
 73
4
 74
0
 40
0
 40
0
 40
0
 40
0
 40
1
 40
1
 40
1
 40
1
 10
76.705031
 20
60.395803
 30
0.0
 10
77.146579
 20
60.837350
 30
0.0
 10
77.552322
 20
59.482310
 30
0.0
 10
77.944657
 20
56.255912
 30
0.0
  0
SPLINE
  5
29c
100
AcDbEntity
  8
0
 62
7
100
AcDbSpline
 70
8
 71
3
 72
8
 73
4
 74
0
 40
0
 40
0
 40
0
 40
0
 40
1
 40
1
 40
1
 40
1
 10
77.944657
 20
56.255912
 30
0.0
 10
78.160319
 20
54.482397
 30
0.0
 10
78.475861
 20
52.733681
 30
0.0
 10
78.645864
 20
52.369879
 30
0.0
  0
SPLINE
  5
29d
100
AcDbEntity
  8
0
 62
7
100
AcDbSpline
 70
8
 71
3
 72
8
 73
4
 74
0
 40
0
 40
0
 40
0
 40
0
 40
1
 40
1
 40
1
 40
1
 10
78.645864
 20
52.369879
 30
0.0
 10
78.915395
 20
51.793082
 30
0.0
 10
78.977617
 20
52.030130
 30
0.0
 10
79.132001
 20
54.221962
 30
0.0
  0
SPLINE
  5
29e
100
AcDbEntity
  8
0
 62
7
100
AcDbSpline
 70
8
 71
3
 72
8
 73
4
 74
0
 40
0
 40
0
 40
0
 40
0
 40
1
 40
1
 40
1
 40
1
 10
79.132001
 20
54.221962
 30
0.0
 10
79.229376
 20
55.604410
 30
0.0
 10
79.324195
 20
58.283316
 30
0.0
 10
79.342710
 20
60.175087
 30
0.0
  0
SPLINE
  5
29f
100
AcDbEntity
  8
0
 62
7
100
AcDbSpline
 70
8
 71
3
 72
8
 73
4
 74
0
 40
0
 40
0
 40
0
 40
0
 40
1
 40
1
 40
1
 40
1
 10
79.342710
 20
60.175087
 30
0.0
 10
79.361231
 20
62.066858
 30
0.0
 10
79.491792
 20
63.793264
 30
0.0
 10
79.632858
 20
64.011545
 30
0.0
  0
SPLINE
  5
2a0
100
AcDbEntity
  8
0
 62
7
100
AcDbSpline
 70
8
 71
3
 72
8
 73
4
 74
0
 40
0
 40
0
 40
0
 40
0
 40
1
 40
1
 40
1
 40
1
 10
79.632858
 20
64.011545
 30
0.0
 10
79.773923
 20
64.229827
 30
0.0
 10
79.891162
 20
64.314104
 30
0.0
 10
79.893390
 20
64.198828
 30
0.0
  0
SPLINE
  5
2a1
100
AcDbEntity
  8
0
 62
7
100
AcDbSpline
 70
8
 71
3
 72
8
 73
4
 74
0
 40
0
 40
0
 40
0
 40
0
 40
1
 40
1
 40
1
 40
1
 10
79.893390
 20
64.198828
 30
0.0
 10
79.895507
 20
64.083552
 30
0.0
 10
80.073013
 20
63.131052
 30
0.0
 10
80.287601
 20
62.082161
 30
0.0
  0
SPLINE
  5
2a2
100
AcDbEntity
  8
0
 62
7
100
AcDbSpline
 70
8
 71
3
 72
8
 73
4
 74
0
 40
0
 40
0
 40
0
 40
0
 40
1
 40
1
 40
1
 40
1
 10
80.287601
 20
62.082161
 30
0.0
 10
81.492400
 20
56.193214
 30
0.0
 10
81.483430
 20
48.601670
 30
0.0
 10
80.267307
 20
44.895400
 30
0.0
  0
SPLINE
  5
2a3
100
AcDbEntity
  8
0
 62
7
100
AcDbSpline
 70
8
 71
3
 72
8
 73
4
 74
0
 40
0
 40
0
 40
0
 40
0
 40
1
 40
1
 40
1
 40
1
 10
80.267307
 20
44.895400
 30
0.0
 10
79.808390
 20
43.496809
 30
0.0
 10
79.504686
 20
43.379350
 30
0.0
 10
78.463992
 20
44.197958
 30
0.0
  0
SPLINE
  5
2a4
100
AcDbEntity
  8
0
 62
7
100
AcDbSpline
 70
8
 71
3
 72
8
 73
4
 74
0
 40
0
 40
0
 40
0
 40
0
 40
1
 40
1
 40
1
 40
1
 10
78.463992
 20
44.197958
 30
0.0
 10
77.577979
 20
44.894897
 30
0.0
 10
77.342857
 20
44.695877
 30
0.0
 10
77.786606
 20
43.624577
 30
0.0
  0
SPLINE
  5
2a5
100
AcDbEntity
  8
0
 62
7
100
AcDbSpline
 70
8
 71
3
 72
8
 73
4
 74
0
 40
0
 40
0
 40
0
 40
0
 40
1
 40
1
 40
1
 40
1
 10
77.786606
 20
43.624577
 30
0.0
 10
78.442444
 20
42.041241
 30
0.0
 10
79.635273
 20
41.551709
 30
0.0
 10
80.492354
 20
42.514150
 30
0.0
  0
SPLINE
  5
2a6
100
AcDbEntity
  8
0
 62
7
100
AcDbSpline
 70
8
 71
3
 72
8
 73
4
 74
0
 40
0
 40
0
 40
0
 40
0
 40
1
 40
1
 40
1
 40
1
 10
80.492354
 20
42.514150
 30
0.0
 10
81.742809
 20
43.918325
 30
0.0
 10
82.069408
 20
45.140785
 30
0.0
 10
82.261221
 20
49.135030
 30
0.0
  0
SPLINE
  5
2a7
100
AcDbEntity
  8
0
 62
7
100
AcDbSpline
 70
8
 71
3
 72
8
 73
4
 74
0
 40
0
 40
0
 40
0
 40
0
 40
1
 40
1
 40
1
 40
1
 10
82.261221
 20
49.135030
 30
0.0
 10
82.445564
 20
52.973729
 30
0.0
 10
82.816195
 20
54.584052
 30
0.0
 10
83.384554
 20
54.015693
 30
0.0
  0
SPLINE
  5
2a8
100
AcDbEntity
  8
0
 62
7
100
AcDbSpline
 70
8
 71
3
 72
8
 73
4
 74
0
 40
0
 40
0
 40
0
 40
0
 40
1
 40
1
 40
1
 40
1
 10
83.384554
 20
54.015693
 30
0.0
 10
83.529247
 20
53.871000
 30
0.0
 10
83.734836
 20
52.431130
 30
0.0
 10
83.841421
 20
50.815978
 30
0.0
  0
SPLINE
  5
2a9
100
AcDbEntity
  8
0
 62
7
100
AcDbSpline
 70
8
 71
3
 72
8
 73
4
 74
0
 40
0
 40
0
 40
0
 40
0
 40
1
 40
1
 40
1
 40
1
 10
83.841421
 20
50.815978
 30
0.0
 10
83.948005
 20
49.200829
 30
0.0
 10
84.107314
 20
47.807240
 30
0.0
 10
84.195441
 20
47.719112
 30
0.0
  0
SPLINE
  5
2aa
100
AcDbEntity
  8
0
 62
7
100
AcDbSpline
 70
8
 71
3
 72
8
 73
4
 74
0
 40
0
 40
0
 40
0
 40
0
 40
1
 40
1
 40
1
 40
1
 10
84.195441
 20
47.719112
 30
0.0
 10
84.518116
 20
47.396434
 30
0.0
 10
84.727574
 20
50.137817
 30
0.0
 10
84.589038
 20
52.870531
 30
0.0
  0
SPLINE
  5
2ab
100
AcDbEntity
  8
0
 62
7
100
AcDbSpline
 70
8
 71
3
 72
8
 73
4
 74
0
 40
0
 40
0
 40
0
 40
0
 40
1
 40
1
 40
1
 40
1
 10
84.589038
 20
52.870531
 30
0.0
 10
84.491655
 20
54.791464
 30
0.0
 10
84.142352
 20
56.929610
 30
0.0
 10
83.482156
 20
59.645920
 30
0.0
  0
SPLINE
  5
2ac
100
AcDbEntity
  8
0
 62
7
100
AcDbSpline
 70
8
 71
3
 72
8
 73
4
 74
0
 40
0
 40
0
 40
0
 40
0
 40
1
 40
1
 40
1
 40
1
 10
83.482156
 20
59.645920
 30
0.0
 10
82.616783
 20
63.206429
 30
0.0
 10
81.392300
 20
68.293094
 30
0.0
 10
81.061875
 20
69.700087
 30
0.0
  0
SPLINE
  5
2ad
100
AcDbEntity
  8
0
 62
7
100
AcDbSpline
 70
8
 71
3
 72
8
 73
4
 74
0
 40
0
 40
0
 40
0
 40
0
 40
1
 40
1
 40
1
 40
1
 10
81.061875
 20
69.700087
 30
0.0
 10
80.993528
 20
69.991129
 30
0.0
 10
81.174831
 20
69.812535
 30
0.0
 10
81.464772
 20
69.303212
 30
0.0
  0
SPLINE
  5
2ae
100
AcDbEntity
  8
0
 62
7
100
AcDbSpline
 70
8
 71
3
 72
8
 73
4
 74
0
 40
0
 40
0
 40
0
 40
0
 40
1
 40
1
 40
1
 40
1
 10
81.464772
 20
69.303212
 30
0.0
 10
81.754713
 20
68.793889
 30
0.0
 10
81.996928
 20
68.162898
 30
0.0
 10
82.003027
 20
67.901010
 30
0.0
  0
SPLINE
  5
2af
100
AcDbEntity
  8
0
 62
7
100
AcDbSpline
 70
8
 71
3
 72
8
 73
4
 74
0
 40
0
 40
0
 40
0
 40
0
 40
1
 40
1
 40
1
 40
1
 10
82.003027
 20
67.901010
 30
0.0
 10
82.019696
 20
67.184939
 30
0.0
 10
82.794480
 20
65.824126
 30
0.0
 10
83.083720
 20
66.002884
 30
0.0
  0
SPLINE
  5
2b0
100
AcDbEntity
  8
0
 62
7
100
AcDbSpline
 70
8
 71
3
 72
8
 73
4
 74
0
 40
0
 40
0
 40
0
 40
0
 40
1
 40
1
 40
1
 40
1
 10
83.083720
 20
66.002884
 30
0.0
 10
83.223042
 20
66.088990
 30
0.0
 10
83.337035
 20
66.092099
 30
0.0
 10
83.337035
 20
66.009790
 30
0.0
  0
SPLINE
  5
2b1
100
AcDbEntity
  8
0
 62
7
100
AcDbSpline
 70
8
 71
3
 72
8
 73
4
 74
0
 40
0
 40
0
 40
0
 40
0
 40
1
 40
1
 40
1
 40
1
 10
83.337035
 20
66.009790
 30
0.0
 10
83.337035
 20
65.572791
 30
0.0
 10
84.160236
 20
60.381139
 30
0.0
 10
84.282478
 20
60.047198
 30
0.0
  0
SPLINE
  5
2b2
100
AcDbEntity
  8
0
 62
7
100
AcDbSpline
 70
8
 71
3
 72
8
 73
4
 74
0
 40
0
 40
0
 40
0
 40
0
 40
1
 40
1
 40
1
 40
1
 10
84.282478
 20
60.047198
 30
0.0
 10
84.411029
 20
59.696025
 30
0.0
 10
85.099139
 20
61.077713
 30
0.0
 10
86.026212
 20
63.548522
 30
0.0
  0
SPLINE
  5
2b3
100
AcDbEntity
  8
0
 62
7
100
AcDbSpline
 70
8
 71
3
 72
8
 73
4
 74
0
 40
0
 40
0
 40
0
 40
0
 40
1
 40
1
 40
1
 40
1
 10
86.026212
 20
63.548522
 30
0.0
 10
86.406606
 20
64.562339
 30
0.0
 10
86.691465
 20
64.456887
 30
0.0
 10
86.562250
 20
63.350084
 30
0.0
  0
SPLINE
  5
2b4
100
AcDbEntity
  8
0
 62
7
100
AcDbSpline
 70
8
 71
3
 72
8
 73
4
 74
0
 40
0
 40
0
 40
0
 40
0
 40
1
 40
1
 40
1
 40
1
 10
86.562250
 20
63.350084
 30
0.0
 10
86.496078
 20
62.783265
 30
0.0
 10
86.567992
 20
62.424043
 30
0.0
 10
86.747670
 20
62.424043
 30
0.0
  0
SPLINE
  5
2b5
100
AcDbEntity
  8
0
 62
7
100
AcDbSpline
 70
8
 71
3
 72
8
 73
4
 74
0
 40
0
 40
0
 40
0
 40
0
 40
1
 40
1
 40
1
 40
1
 10
86.747670
 20
62.424043
 30
0.0
 10
86.909114
 20
62.424043
 30
0.0
 10
87.041202
 20
62.550601
 30
0.0
 10
87.041202
 20
62.705282
 30
0.0
  0
SPLINE
  5
2b6
100
AcDbEntity
  8
0
 62
7
100
AcDbSpline
 70
8
 71
3
 72
8
 73
4
 74
0
 40
0
 40
0
 40
0
 40
0
 40
1
 40
1
 40
1
 40
1
 10
87.041202
 20
62.705282
 30
0.0
 10
87.041202
 20
63.087835
 30
0.0
 10
88.425187
 20
65.890754
 30
0.0
 10
88.551639
 20
65.764302
 30
0.0
  0
SPLINE
  5
2b7
100
AcDbEntity
  8
0
 62
7
100
AcDbSpline
 70
8
 71
3
 72
8
 73
4
 74
0
 40
0
 40
0
 40
0
 40
0
 40
1
 40
1
 40
1
 40
1
 10
88.551639
 20
65.764302
 30
0.0
 10
88.607127
 20
65.708810
 30
0.0
 10
88.517032
 20
65.125309
 30
0.0
 10
88.351426
 20
64.467626
 30
0.0
  0
SPLINE
  5
2b8
100
AcDbEntity
  8
0
 62
7
100
AcDbSpline
 70
8
 71
3
 72
8
 73
4
 74
0
 40
0
 40
0
 40
0
 40
0
 40
1
 40
1
 40
1
 40
1
 10
88.351426
 20
64.467626
 30
0.0
 10
88.185821
 20
63.809946
 30
0.0
 10
88.091359
 20
63.058765
 30
0.0
 10
88.141514
 20
62.798336
 30
0.0
  0
SPLINE
  5
2b9
100
AcDbEntity
  8
0
 62
7
100
AcDbSpline
 70
8
 71
3
 72
8
 73
4
 74
0
 40
0
 40
0
 40
0
 40
0
 40
1
 40
1
 40
1
 40
1
 10
88.141514
 20
62.798336
 30
0.0
 10
88.219259
 20
62.394637
 30
0.0
 10
88.385481
 20
62.458917
 30
0.0
 10
89.268951
 20
63.234329
 30
0.0
  0
SPLINE
  5
2ba
100
AcDbEntity
  8
0
 62
7
100
AcDbSpline
 70
8
 71
3
 72
8
 73
4
 74
0
 40
0
 40
0
 40
0
 40
0
 40
1
 40
1
 40
1
 40
1
 10
89.268951
 20
63.234329
 30
0.0
 10
91.041098
 20
64.789730
 30
0.0
 10
89.898143
 20
63.115611
 30
0.0
 10
87.646886
 20
60.858450
 30
0.0
  0
SPLINE
  5
2bb
100
AcDbEntity
  8
0
 62
7
100
AcDbSpline
 70
8
 71
3
 72
8
 73
4
 74
0
 40
0
 40
0
 40
0
 40
0
 40
1
 40
1
 40
1
 40
1
 10
87.646886
 20
60.858450
 30
0.0
 10
86.570352
 20
59.779090
 30
0.0
 10
85.590467
 20
58.707528
 30
0.0
 10
85.469365
 20
58.477200
 30
0.0
  0
SPLINE
  5
2bc
100
AcDbEntity
  8
0
 62
7
100
AcDbSpline
 70
8
 71
3
 72
8
 73
4
 74
0
 40
0
 40
0
 40
0
 40
0
 40
1
 40
1
 40
1
 40
1
 10
85.469365
 20
58.477200
 30
0.0
 10
85.229753
 20
58.021463
 30
0.0
 10
85.284463
 20
45.042587
 30
0.0
 10
85.527020
 20
44.800031
 30
0.0
  0
SPLINE
  5
2bd
100
AcDbEntity
  8
0
 62
7
100
AcDbSpline
 70
8
 71
3
 72
8
 73
4
 74
0
 40
0
 40
0
 40
0
 40
0
 40
1
 40
1
 40
1
 40
1
 10
85.527020
 20
44.800031
 30
0.0
 10
86.171450
 20
44.155601
 30
0.0
 10
86.861190
 20
49.384122
 30
0.0
 10
86.405463
 20
51.459024
 30
0.0
  0
SPLINE
  5
2be
100
AcDbEntity
  8
0
 62
7
100
AcDbSpline
 70
8
 71
3
 72
8
 73
4
 74
0
 40
0
 40
0
 40
0
 40
0
 40
1
 40
1
 40
1
 40
1
 10
86.405463
 20
51.459024
 30
0.0
 10
86.147058
 20
52.635539
 30
0.0
 10
86.650417
 20
55.618724
 30
0.0
 10
87.373606
 20
57.196755
 30
0.0
  0
SPLINE
  5
2bf
100
AcDbEntity
  8
0
 62
7
100
AcDbSpline
 70
8
 71
3
 72
8
 73
4
 74
0
 40
0
 40
0
 40
0
 40
0
 40
1
 40
1
 40
1
 40
1
 10
87.373606
 20
57.196755
 30
0.0
 10
87.724173
 20
57.961710
 30
0.0
 10
88.502149
 20
59.154568
 30
0.0
 10
89.102438
 20
59.847549
 30
0.0
  0
SPLINE
  5
2c0
100
AcDbEntity
  8
0
 62
7
100
AcDbSpline
 70
8
 71
3
 72
8
 73
4
 74
0
 40
0
 40
0
 40
0
 40
0
 40
1
 40
1
 40
1
 40
1
 10
89.102438
 20
59.847549
 30
0.0
 10
89.702730
 20
60.540530
 30
0.0
 10
90.609846
 20
61.851336
 30
0.0
 10
91.118251
 20
62.760450
 30
0.0
  0
SPLINE
  5
2c1
100
AcDbEntity
  8
0
 62
7
100
AcDbSpline
 70
8
 71
3
 72
8
 73
4
 74
0
 40
0
 40
0
 40
0
 40
0
 40
1
 40
1
 40
1
 40
1
 10
91.118251
 20
62.760450
 30
0.0
 10
92.120191
 20
64.552089
 30
0.0
 10
93.084663
 20
65.729191
 30
0.0
 10
93.340830
 20
65.473024
 30
0.0
  0
SPLINE
  5
2c2
100
AcDbEntity
  8
0
 62
7
100
AcDbSpline
 70
8
 71
3
 72
8
 73
4
 74
0
 40
0
 40
0
 40
0
 40
0
 40
1
 40
1
 40
1
 40
1
 10
93.340830
 20
65.473024
 30
0.0
 10
93.429381
 20
65.384474
 30
0.0
 10
92.343182
 20
63.005420
 30
0.0
 10
90.927055
 20
60.186239
 30
0.0
  0
SPLINE
  5
2c3
100
AcDbEntity
  8
0
 62
7
100
AcDbSpline
 70
8
 71
3
 72
8
 73
4
 74
0
 40
0
 40
0
 40
0
 40
0
 40
1
 40
1
 40
1
 40
1
 10
90.927055
 20
60.186239
 30
0.0
 10
89.510926
 20
57.367056
 30
0.0
 10
88.177635
 20
54.484839
 30
0.0
 10
87.964185
 20
53.781312
 30
0.0
  0
SPLINE
  5
2c4
100
AcDbEntity
  8
0
 62
7
100
AcDbSpline
 70
8
 71
3
 72
8
 73
4
 74
0
 40
0
 40
0
 40
0
 40
0
 40
1
 40
1
 40
1
 40
1
 10
87.964185
 20
53.781312
 30
0.0
 10
87.541359
 20
52.387677
 30
0.0
 10
87.455753
 20
51.308132
 30
0.0
 10
87.768806
 20
51.317448
 30
0.0
  0
SPLINE
  5
2c5
100
AcDbEntity
  8
0
 62
7
100
AcDbSpline
 70
8
 71
3
 72
8
 73
4
 74
0
 40
0
 40
0
 40
0
 40
0
 40
1
 40
1
 40
1
 40
1
 10
87.768806
 20
51.317448
 30
0.0
 10
87.877946
 20
51.320703
 30
0.0
 10
88.672339
 20
52.923162
 30
0.0
 10
89.534122
 20
54.878486
 30
0.0
  0
SPLINE
  5
2c6
100
AcDbEntity
  8
0
 62
7
100
AcDbSpline
 70
8
 71
3
 72
8
 73
4
 74
0
 40
0
 40
0
 40
0
 40
0
 40
1
 40
1
 40
1
 40
1
 10
89.534122
 20
54.878486
 30
0.0
 10
90.395907
 20
56.833807
 30
0.0
 10
91.259110
 20
58.494290
 30
0.0
 10
91.452351
 20
58.568442
 30
0.0
  0
SPLINE
  5
2c7
100
AcDbEntity
  8
0
 62
7
100
AcDbSpline
 70
8
 71
3
 72
8
 73
4
 74
0
 40
0
 40
0
 40
0
 40
0
 40
1
 40
1
 40
1
 40
1
 10
91.452351
 20
58.568442
 30
0.0
 10
91.645594
 20
58.642597
 30
0.0
 10
91.803702
 20
58.602912
 30
0.0
 10
91.803702
 20
58.480254
 30
0.0
  0
SPLINE
  5
2c8
100
AcDbEntity
  8
0
 62
7
100
AcDbSpline
 70
8
 71
3
 72
8
 73
4
 74
0
 40
0
 40
0
 40
0
 40
0
 40
1
 40
1
 40
1
 40
1
 10
91.803702
 20
58.480254
 30
0.0
 10
91.803702
 20
57.880459
 30
0.0
 10
90.587658
 20
54.888244
 30
0.0
 10
89.427958
 20
52.634459
 30
0.0
  0
SPLINE
  5
2c9
100
AcDbEntity
  8
0
 62
7
100
AcDbSpline
 70
8
 71
3
 72
8
 73
4
 74
0
 40
0
 40
0
 40
0
 40
0
 40
1
 40
1
 40
1
 40
1
 10
89.427958
 20
52.634459
 30
0.0
 10
88.178545
 20
50.206325
 30
0.0
 10
87.111753
 20
45.861131
 30
0.0
 10
87.636260
 20
45.336624
 30
0.0
  0
SPLINE
  5
2ca
100
AcDbEntity
  8
0
 62
7
100
AcDbSpline
 70
8
 71
3
 72
8
 73
4
 74
0
 40
0
 40
0
 40
0
 40
0
 40
1
 40
1
 40
1
 40
1
 10
87.636260
 20
45.336624
 30
0.0
 10
87.896094
 20
45.076790
 30
0.0
 10
89.336652
 20
48.296372
 30
0.0
 10
90.487230
 20
51.708418
 30
0.0
  0
SPLINE
  5
2cb
100
AcDbEntity
  8
0
 62
7
100
AcDbSpline
 70
8
 71
3
 72
8
 73
4
 74
0
 40
0
 40
0
 40
0
 40
0
 40
1
 40
1
 40
1
 40
1
 10
90.487230
 20
51.708418
 30
0.0
 10
92.796019
 20
58.555125
 30
0.0
 10
94.999694
 20
62.512035
 30
0.0
 10
94.596985
 20
59.087869
 30
0.0
  0
SPLINE
  5
2cc
100
AcDbEntity
  8
0
 62
7
100
AcDbSpline
 70
8
 71
3
 72
8
 73
4
 74
0
 40
0
 40
0
 40
0
 40
0
 40
1
 40
1
 40
1
 40
1
 10
94.596985
 20
59.087869
 30
0.0
 10
94.348313
 20
56.973483
 30
0.0
 10
92.878717
 20
53.157919
 30
0.0
 10
90.888518
 20
49.459459
 30
0.0
  0
SPLINE
  5
2cd
100
AcDbEntity
  8
0
 62
7
100
AcDbSpline
 70
8
 71
3
 72
8
 73
4
 74
0
 40
0
 40
0
 40
0
 40
0
 40
1
 40
1
 40
1
 40
1
 10
90.888518
 20
49.459459
 30
0.0
 10
89.831373
 20
47.494928
 30
0.0
 10
88.890830
 20
45.646179
 30
0.0
 10
88.798419
 20
45.351126
 30
0.0
  0
SPLINE
  5
2ce
100
AcDbEntity
  8
0
 62
7
100
AcDbSpline
 70
8
 71
3
 72
8
 73
4
 74
0
 40
0
 40
0
 40
0
 40
0
 40
1
 40
1
 40
1
 40
1
 10
88.798419
 20
45.351126
 30
0.0
 10
88.521043
 20
44.465499
 30
0.0
 10
88.122376
 20
38.758791
 30
0.0
 10
88.323428
 20
38.551858
 30
0.0
  0
SPLINE
  5
2cf
100
AcDbEntity
  8
0
 62
7
100
AcDbSpline
 70
8
 71
3
 72
8
 73
4
 74
0
 40
0
 40
0
 40
0
 40
0
 40
1
 40
1
 40
1
 40
1
 10
88.323428
 20
38.551858
 30
0.0
 10
88.704018
 20
38.160132
 30
0.0
 10
90.216789
 20
39.424044
 30
0.0
 10
90.840478
 20
40.654835
 30
0.0
  0
SPLINE
  5
2d0
100
AcDbEntity
  8
0
 62
7
100
AcDbSpline
 70
8
 71
3
 72
8
 73
4
 74
0
 40
0
 40
0
 40
0
 40
0
 40
1
 40
1
 40
1
 40
1
 10
90.840478
 20
40.654835
 30
0.0
 10
91.776968
 20
42.502910
 30
0.0
 10
94.384773
 20
48.937799
 30
0.0
 10
94.686313
 20
50.144635
 30
0.0
  0
SPLINE
  5
2d1
100
AcDbEntity
  8
0
 62
7
100
AcDbSpline
 70
8
 71
3
 72
8
 73
4
 74
0
 40
0
 40
0
 40
0
 40
0
 40
1
 40
1
 40
1
 40
1
 10
94.686313
 20
50.144635
 30
0.0
 10
94.828495
 20
50.713674
 30
0.0
 10
95.294744
 20
52.488939
 30
0.0
 10
95.722424
 20
54.089668
 30
0.0
  0
SPLINE
  5
2d2
100
AcDbEntity
  8
0
 62
7
100
AcDbSpline
 70
8
 71
3
 72
8
 73
4
 74
0
 40
0
 40
0
 40
0
 40
0
 40
1
 40
1
 40
1
 40
1
 10
95.722424
 20
54.089668
 30
0.0
 10
96.150102
 20
55.690397
 30
0.0
 10
96.584791
 20
57.619172
 30
0.0
 10
96.688399
 20
58.375836
 30
0.0
  0
SPLINE
  5
2d3
100
AcDbEntity
  8
0
 62
7
100
AcDbSpline
 70
8
 71
3
 72
8
 73
4
 74
0
 40
0
 40
0
 40
0
 40
0
 40
1
 40
1
 40
1
 40
1
 10
96.688399
 20
58.375836
 30
0.0
 10
96.792008
 20
59.132499
 30
0.0
 10
97.040118
 20
59.887146
 30
0.0
 10
97.239757
 20
60.052831
 30
0.0
  0
SPLINE
  5
2d4
100
AcDbEntity
  8
0
 62
7
100
AcDbSpline
 70
8
 71
3
 72
8
 73
4
 74
0
 40
0
 40
0
 40
0
 40
0
 40
1
 40
1
 40
1
 40
1
 10
97.239757
 20
60.052831
 30
0.0
 10
98.561710
 20
61.149955
 30
0.0
 10
97.658600
 20
52.992464
 30
0.0
 10
95.905902
 20
48.004561
 30
0.0
  0
SPLINE
  5
2d5
100
AcDbEntity
  8
0
 62
7
100
AcDbSpline
 70
8
 71
3
 72
8
 73
4
 74
0
 40
0
 40
0
 40
0
 40
0
 40
1
 40
1
 40
1
 40
1
 10
95.905902
 20
48.004561
 30
0.0
 10
94.370493
 20
43.635067
 30
0.0
 10
93.470151
 20
41.233677
 30
0.0
 10
92.334604
 20
38.479254
 30
0.0
  0
SPLINE
  5
2d6
100
AcDbEntity
  8
0
 62
7
100
AcDbSpline
 70
8
 71
3
 72
8
 73
4
 74
0
 40
0
 40
0
 40
0
 40
0
 40
1
 40
1
 40
1
 40
1
 10
92.334604
 20
38.479254
 30
0.0
 10
88.789828
 20
29.880928
 30
0.0
 10
87.305774
 20
25.594506
 30
0.0
 10
87.305774
 20
23.954391
 30
0.0
  0
SPLINE
  5
2d7
100
AcDbEntity
  8
0
 62
7
100
AcDbSpline
 70
8
 71
3
 72
8
 73
4
 74
0
 40
0
 40
0
 40
0
 40
0
 40
1
 40
1
 40
1
 40
1
 10
87.305774
 20
23.954391
 30
0.0
 10
87.305774
 20
22.863323
 30
0.0
 10
87.832409
 20
23.231972
 30
0.0
 10
88.417834
 20
24.732843
 30
0.0
  0
SPLINE
  5
2d8
100
AcDbEntity
  8
0
 62
7
100
AcDbSpline
 70
8
 71
3
 72
8
 73
4
 74
0
 40
0
 40
0
 40
0
 40
0
 40
1
 40
1
 40
1
 40
1
 10
88.417834
 20
24.732843
 30
0.0
 10
89.181464
 20
26.690587
 30
0.0
 10
91.374865
 20
31.295324
 30
0.0
 10
93.370532
 20
35.130333
 30
0.0
  0
SPLINE
  5
2d9
100
AcDbEntity
  8
0
 62
7
100
AcDbSpline
 70
8
 71
3
 72
8
 73
4
 74
0
 40
0
 40
0
 40
0
 40
0
 40
1
 40
1
 40
1
 40
1
 10
93.370532
 20
35.130333
 30
0.0
 10
93.850841
 20
36.053321
 30
0.0
 10
94.339399
 20
37.124883
 30
0.0
 10
94.456221
 20
37.511583
 30
0.0
  0
LWPOLYLINE
  5
2da
100
AcDbEntity
  8
0
 62
7
100
AcDbPolyline
 90
1
 70
1
 10
89.356279
 20
16.139978
 30
0.0
  0
SPLINE
  5
2db
100
AcDbEntity
  8
0
 62
7
100
AcDbSpline
 70
8
 71
3
 72
8
 73
4
 74
0
 40
0
 40
0
 40
0
 40
0
 40
1
 40
1
 40
1
 40
1
 10
94.691377
 20
37.472824
 30
0.0
 10
94.703892
 20
37.064807
 30
0.0
 10
94.290346
 20
35.464369
 30
0.0
 10
93.772403
 20
33.916292
 30
0.0
  0
SPLINE
  5
2dc
100
AcDbEntity
  8
0
 62
7
100
AcDbSpline
 70
8
 71
3
 72
8
 73
4
 74
0
 40
0
 40
0
 40
0
 40
0
 40
1
 40
1
 40
1
 40
1
 10
93.772403
 20
33.916292
 30
0.0
 10
92.734429
 20
30.813902
 30
0.0
 10
92.675273
 20
30.051211
 30
0.0
 10
93.082406
 20
25.020185
 30
0.0
  0
SPLINE
  5
2dd
100
AcDbEntity
  8
0
 62
7
100
AcDbSpline
 70
8
 71
3
 72
8
 73
4
 74
0
 40
0
 40
0
 40
0
 40
0
 40
1
 40
1
 40
1
 40
1
 10
93.082406
 20
25.020185
 30
0.0
 10
93.398327
 20
21.116287
 30
0.0
 10
93.486854
 20
21.002696
 30
0.0
 10
96.532814
 20
20.592772
 30
0.0
  0
SPLINE
  5
2de
100
AcDbEntity
  8
0
 62
7
100
AcDbSpline
 70
8
 71
3
 72
8
 73
4
 74
0
 40
0
 40
0
 40
0
 40
0
 40
1
 40
1
 40
1
 40
1
 10
96.532814
 20
20.592772
 30
0.0
 10
99.275707
 20
20.223636
 30
0.0
 10
99.864257
 20
20.434607
 30
0.0
 10
100.267310
 20
21.931442
 30
0.0
  0
SPLINE
  5
2df
100
AcDbEntity
  8
0
 62
7
100
AcDbSpline
 70
8
 71
3
 72
8
 73
4
 74
0
 40
0
 40
0
 40
0
 40
0
 40
1
 40
1
 40
1
 40
1
 10
100.267310
 20
21.931442
 30
0.0
 10
100.743028
 20
23.698123
 30
0.0
 10
100.681441
 20
36.205025
 30
0.0
 10
100.171491
 20
41.389670
 30
0.0
  0
SPLINE
  5
2e0
100
AcDbEntity
  8
0
 62
7
100
AcDbSpline
 70
8
 71
3
 72
8
 73
4
 74
0
 40
0
 40
0
 40
0
 40
0
 40
1
 40
1
 40
1
 40
1
 10
100.171491
 20
41.389670
 30
0.0
 10
99.928169
 20
43.863525
 30
0.0
 10
99.656358
 20
47.078212
 30
0.0
 10
99.567468
 20
48.533420
 30
0.0
  0
SPLINE
  5
2e1
100
AcDbEntity
  8
0
 62
7
100
AcDbSpline
 70
8
 71
3
 72
8
 73
4
 74
0
 40
0
 40
0
 40
0
 40
0
 40
1
 40
1
 40
1
 40
1
 10
99.567468
 20
48.533420
 30
0.0
 10
99.367210
 20
51.811759
 30
0.0
 10
99.720667
 20
62.286242
 30
0.0
 10
100.021353
 20
61.984014
 30
0.0
  0
SPLINE
  5
2e2
100
AcDbEntity
  8
0
 62
7
100
AcDbSpline
 70
8
 71
3
 72
8
 73
4
 74
0
 40
0
 40
0
 40
0
 40
0
 40
1
 40
1
 40
1
 40
1
 10
100.021353
 20
61.984014
 30
0.0
 10
100.142516
 20
61.862229
 30
0.0
 10
100.417442
 20
60.579460
 30
0.0
 10
100.632302
 20
59.133415
 30
0.0
  0
SPLINE
  5
2e3
100
AcDbEntity
  8
0
 62
7
100
AcDbSpline
 70
8
 71
3
 72
8
 73
4
 74
0
 40
0
 40
0
 40
0
 40
0
 40
1
 40
1
 40
1
 40
1
 10
100.632302
 20
59.133415
 30
0.0
 10
100.950945
 20
56.988898
 30
0.0
 10
101.132172
 20
56.421864
 30
0.0
 10
101.615423
 20
56.057348
 30
0.0
  0
LWPOLYLINE
  5
2e4
100
AcDbEntity
  8
0
 62
7
100
AcDbPolyline
 90
3
 70
0
 10
94.456221
 20
37.511583
 30
0.0
 10
94.668623
 20
38.214670
 30
0.0
 10
94.691377
 20
37.472824
 30
0.0
  0
SPLINE
  5
2e5
100
AcDbEntity
  8
0
 62
7
100
AcDbSpline
 70
8
 71
3
 72
8
 73
4
 74
0
 40
0
 40
0
 40
0
 40
0
 40
1
 40
1
 40
1
 40
1
 10
101.768090
 20
53.394851
 30
0.0
 10
101.225892
 20
50.663396
 30
0.0
 10
101.218291
 20
49.644594
 30
0.0
 10
101.725577
 20
47.696990
 30
0.0
  0
SPLINE
  5
2e6
100
AcDbEntity
  8
0
 62
7
100
AcDbSpline
 70
8
 71
3
 72
8
 73
4
 74
0
 40
0
 40
0
 40
0
 40
0
 40
1
 40
1
 40
1
 40
1
 10
101.725577
 20
47.696990
 30
0.0
 10
101.992269
 20
46.673095
 30
0.0
 10
102.122452
 20
44.882448
 30
0.0
 10
102.122452
 20
42.238075
 30
0.0
  0
SPLINE
  5
2e7
100
AcDbEntity
  8
0
 62
7
100
AcDbSpline
 70
8
 71
3
 72
8
 73
4
 74
0
 40
0
 40
0
 40
0
 40
0
 40
1
 40
1
 40
1
 40
1
 10
102.122452
 20
42.238075
 30
0.0
 10
102.122452
 20
37.818957
 30
0.0
 10
102.336666
 20
37.447866
 30
0.0
 10
103.383868
 20
40.052876
 30
0.0
  0
SPLINE
  5
2e8
100
AcDbEntity
  8
0
 62
7
100
AcDbSpline
 70
8
 71
3
 72
8
 73
4
 74
0
 40
0
 40
0
 40
0
 40
0
 40
1
 40
1
 40
1
 40
1
 10
103.383868
 20
40.052876
 30
0.0
 10
103.798291
 20
41.083788
 30
0.0
 10
104.084636
 20
42.555102
 30
0.0
 10
104.255512
 20
44.531613
 30
0.0
  0
SPLINE
  5
2e9
100
AcDbEntity
  8
0
 62
7
100
AcDbSpline
 70
8
 71
3
 72
8
 73
4
 74
0
 40
0
 40
0
 40
0
 40
0
 40
1
 40
1
 40
1
 40
1
 10
104.255512
 20
44.531613
 30
0.0
 10
104.395474
 20
46.150525
 30
0.0
 10
104.683713
 20
48.813019
 30
0.0
 10
104.896044
 20
50.448271
 30
0.0
  0
SPLINE
  5
2ea
100
AcDbEntity
  8
0
 62
7
100
AcDbSpline
 70
8
 71
3
 72
8
 73
4
 74
0
 40
0
 40
0
 40
0
 40
0
 40
1
 40
1
 40
1
 40
1
 10
104.896044
 20
50.448271
 30
0.0
 10
105.312932
 20
53.658916
 30
0.0
 10
105.121144
 20
57.509074
 30
0.0
 10
104.359691
 20
61.215543
 30
0.0
  0
SPLINE
  5
2eb
100
AcDbEntity
  8
0
 62
7
100
AcDbSpline
 70
8
 71
3
 72
8
 73
4
 74
0
 40
0
 40
0
 40
0
 40
0
 40
1
 40
1
 40
1
 40
1
 10
104.359691
 20
61.215543
 30
0.0
 10
103.967576
 20
63.124223
 30
0.0
 10
104.031436
 20
63.798490
 30
0.0
 10
104.490073
 20
62.592180
 30
0.0
  0
SPLINE
  5
2ec
100
AcDbEntity
  8
0
 62
7
100
AcDbSpline
 70
8
 71
3
 72
8
 73
4
 74
0
 40
0
 40
0
 40
0
 40
0
 40
1
 40
1
 40
1
 40
1
 10
104.490073
 20
62.592180
 30
0.0
 10
104.636242
 20
62.207727
 30
0.0
 10
104.981555
 20
61.387543
 30
0.0
 10
105.257436
 20
60.769548
 30
0.0
  0
SPLINE
  5
2ed
100
AcDbEntity
  8
0
 62
7
100
AcDbSpline
 70
8
 71
3
 72
8
 73
4
 74
0
 40
0
 40
0
 40
0
 40
0
 40
1
 40
1
 40
1
 40
1
 10
105.257436
 20
60.769548
 30
0.0
 10
106.560448
 20
57.850699
 30
0.0
 10
107.252164
 20
54.394925
 30
0.0
 10
106.871360
 20
52.706492
 30
0.0
  0
SPLINE
  5
2ee
100
AcDbEntity
  8
0
 62
7
100
AcDbSpline
 70
8
 71
3
 72
8
 73
4
 74
0
 40
0
 40
0
 40
0
 40
0
 40
1
 40
1
 40
1
 40
1
 10
106.871360
 20
52.706492
 30
0.0
 10
106.643122
 20
51.694517
 30
0.0
 10
107.085519
 20
51.518365
 30
0.0
 10
107.637106
 20
52.401594
 30
0.0
  0
SPLINE
  5
2ef
100
AcDbEntity
  8
0
 62
7
100
AcDbSpline
 70
8
 71
3
 72
8
 73
4
 74
0
 40
0
 40
0
 40
0
 40
0
 40
1
 40
1
 40
1
 40
1
 10
107.637106
 20
52.401594
 30
0.0
 10
108.056921
 20
53.073827
 30
0.0
 10
108.090904
 20
54.802257
 30
0.0
 10
107.712346
 20
56.228475
 30
0.0
  0
SPLINE
  5
2f0
100
AcDbEntity
  8
0
 62
7
100
AcDbSpline
 70
8
 71
3
 72
8
 73
4
 74
0
 40
0
 40
0
 40
0
 40
0
 40
1
 40
1
 40
1
 40
1
 10
107.712346
 20
56.228475
 30
0.0
 10
107.561078
 20
56.798382
 30
0.0
 10
107.369041
 20
57.681389
 30
0.0
 10
107.285600
 20
58.190712
 30
0.0
  0
SPLINE
  5
2f1
100
AcDbEntity
  8
0
 62
7
100
AcDbSpline
 70
8
 71
3
 72
8
 73
4
 74
0
 40
0
 40
0
 40
0
 40
0
 40
1
 40
1
 40
1
 40
1
 10
107.285600
 20
58.190712
 30
0.0
 10
107.115935
 20
59.226318
 30
0.0
 10
105.536791
 20
62.665819
 30
0.0
 10
104.125149
 20
65.074416
 30
0.0
  0
SPLINE
  5
2f2
100
AcDbEntity
  8
0
 62
7
100
AcDbSpline
 70
8
 71
3
 72
8
 73
4
 74
0
 40
0
 40
0
 40
0
 40
0
 40
1
 40
1
 40
1
 40
1
 10
104.125149
 20
65.074416
 30
0.0
 10
103.214035
 20
66.628997
 30
0.0
 10
103.176721
 20
66.958385
 30
0.0
 10
103.984250
 20
66.318236
 30
0.0
  0
SPLINE
  5
2f3
100
AcDbEntity
  8
0
 62
7
100
AcDbSpline
 70
8
 71
3
 72
8
 73
4
 74
0
 40
0
 40
0
 40
0
 40
0
 40
1
 40
1
 40
1
 40
1
 10
103.984250
 20
66.318236
 30
0.0
 10
104.776516
 20
65.690184
 30
0.0
 10
105.542376
 20
64.341661
 30
0.0
 10
106.176860
 20
62.457494
 30
0.0
  0
SPLINE
  5
2f4
100
AcDbEntity
  8
0
 62
7
100
AcDbSpline
 70
8
 71
3
 72
8
 73
4
 74
0
 40
0
 40
0
 40
0
 40
0
 40
1
 40
1
 40
1
 40
1
 10
106.176860
 20
62.457494
 30
0.0
 10
106.969176
 20
60.104639
 30
0.0
 10
107.277823
 20
59.756040
 30
0.0
 10
107.026387
 20
61.498004
 30
0.0
  0
SPLINE
  5
2f5
100
AcDbEntity
  8
0
 62
7
100
AcDbSpline
 70
8
 71
3
 72
8
 73
4
 74
0
 40
0
 40
0
 40
0
 40
0
 40
1
 40
1
 40
1
 40
1
 10
107.026387
 20
61.498004
 30
0.0
 10
106.531325
 20
64.927795
 30
0.0
 10
104.923246
 20
68.071669
 30
0.0
 10
102.345453
 20
70.649462
 30
0.0
  0
SPLINE
  5
2f6
100
AcDbEntity
  8
0
 62
7
100
AcDbSpline
 70
8
 71
3
 72
8
 73
4
 74
0
 40
0
 40
0
 40
0
 40
0
 40
1
 40
1
 40
1
 40
1
 10
102.345453
 20
70.649462
 30
0.0
 10
100.301475
 20
72.693443
 30
0.0
 10
99.550593
 20
73.003653
 30
0.0
 10
96.641595
 20
73.005902
 30
0.0
  0
SPLINE
  5
2f7
100
AcDbEntity
  8
0
 62
7
100
AcDbSpline
 70
8
 71
3
 72
8
 73
4
 74
0
 40
0
 40
0
 40
0
 40
0
 40
1
 40
1
 40
1
 40
1
 10
96.641595
 20
73.005902
 30
0.0
 10
94.618289
 20
73.007490
 30
0.0
 10
92.782602
 20
72.518897
 30
0.0
 10
91.432073
 20
71.619385
 30
0.0
  0
SPLINE
  5
2f8
100
AcDbEntity
  8
0
 62
7
100
AcDbSpline
 70
8
 71
3
 72
8
 73
4
 74
0
 40
0
 40
0
 40
0
 40
0
 40
1
 40
1
 40
1
 40
1
 10
91.432073
 20
71.619385
 30
0.0
 10
90.211815
 20
70.806638
 30
0.0
 10
87.789197
 20
67.902788
 30
0.0
 10
86.011787
 20
65.122406
 30
0.0
  0
LWPOLYLINE
  5
2f9
100
AcDbEntity
  8
0
 62
7
100
AcDbPolyline
 90
3
 70
0
 10
101.615423
 20
56.057348
 30
0.0
 10
102.207888
 20
55.610448
 30
0.0
 10
101.768090
 20
53.394851
 30
0.0
  0
SPLINE
  5
2fa
100
AcDbEntity
  8
0
 62
7
100
AcDbSpline
 70
8
 71
3
 72
8
 73
4
 74
0
 40
0
 40
0
 40
0
 40
0
 40
1
 40
1
 40
1
 40
1
 10
84.143276
 20
64.196365
 30
0.0
 10
83.281023
 20
68.678893
 30
0.0
 10
82.692087
 20
70.058772
 30
0.0
 10
81.170849
 20
71.160751
 30
0.0
  0
SPLINE
  5
2fb
100
AcDbEntity
  8
0
 62
7
100
AcDbSpline
 70
8
 71
3
 72
8
 73
4
 74
0
 40
0
 40
0
 40
0
 40
0
 40
1
 40
1
 40
1
 40
1
 10
81.170849
 20
71.160751
 30
0.0
 10
79.893448
 20
72.086094
 30
0.0
 10
78.862722
 20
72.398991
 30
0.0
 10
76.311707
 20
72.635830
 30
0.0
  0
SPLINE
  5
2fc
100
AcDbEntity
  8
0
 62
7
100
AcDbSpline
 70
8
 71
3
 72
8
 73
4
 74
0
 40
0
 40
0
 40
0
 40
0
 40
1
 40
1
 40
1
 40
1
 10
76.311707
 20
72.635830
 30
0.0
 10
74.013481
 20
72.849200
 30
0.0
 10
72.113124
 20
72.469645
 30
0.0
 10
70.590905
 20
71.493221
 30
0.0
  0
SPLINE
  5
2fd
100
AcDbEntity
  8
0
 62
7
100
AcDbSpline
 70
8
 71
3
 72
8
 73
4
 74
0
 40
0
 40
0
 40
0
 40
0
 40
1
 40
1
 40
1
 40
1
 10
70.590905
 20
71.493221
 30
0.0
 10
66.368242
 20
68.784613
 30
0.0
 10
61.820213
 20
65.218180
 30
0.0
 10
59.369193
 20
62.693476
 30
0.0
  0
SPLINE
  5
2fe
100
AcDbEntity
  8
0
 62
7
100
AcDbSpline
 70
8
 71
3
 72
8
 73
4
 74
0
 40
0
 40
0
 40
0
 40
0
 40
1
 40
1
 40
1
 40
1
 10
59.369193
 20
62.693476
 30
0.0
 10
53.413792
 20
56.559043
 30
0.0
 10
52.615362
 20
55.382919
 30
0.0
 10
51.462773
 20
51.046962
 30
0.0
  0
SPLINE
  5
2ff
100
AcDbEntity
  8
0
 62
7
100
AcDbSpline
 70
8
 71
3
 72
8
 73
4
 74
0
 40
0
 40
0
 40
0
 40
0
 40
1
 40
1
 40
1
 40
1
 10
51.462773
 20
51.046962
 30
0.0
 10
50.661160
 20
48.031355
 30
0.0
 10
50.630685
 20
46.972249
 30
0.0
 10
51.300555
 20
45.409504
 30
0.0
  0
SPLINE
  5
300
100
AcDbEntity
  8
0
 62
7
100
AcDbSpline
 70
8
 71
3
 72
8
 73
4
 74
0
 40
0
 40
0
 40
0
 40
0
 40
1
 40
1
 40
1
 40
1
 10
51.300555
 20
45.409504
 30
0.0
 10
51.961322
 20
43.867993
 30
0.0
 10
52.430019
 20
43.584794
 30
0.0
 10
51.925067
 20
45.032152
 30
0.0
  0
SPLINE
  5
301
100
AcDbEntity
  8
0
 62
7
100
AcDbSpline
 70
8
 71
3
 72
8
 73
4
 74
0
 40
0
 40
0
 40
0
 40
0
 40
1
 40
1
 40
1
 40
1
 10
51.925067
 20
45.032152
 30
0.0
 10
51.311014
 20
46.792235
 30
0.0
 10
51.613287
 20
48.802708
 30
0.0
 10
52.878188
 20
51.371524
 30
0.0
  0
SPLINE
  5
302
100
AcDbEntity
  8
0
 62
7
100
AcDbSpline
 70
8
 71
3
 72
8
 73
4
 74
0
 40
0
 40
0
 40
0
 40
0
 40
1
 40
1
 40
1
 40
1
 10
52.878188
 20
51.371524
 30
0.0
 10
54.061326
 20
53.774284
 30
0.0
 10
55.855497
 20
56.365534
 30
0.0
 10
56.011654
 20
55.897063
 30
0.0
  0
SPLINE
  5
303
100
AcDbEntity
  8
0
 62
7
100
AcDbSpline
 70
8
 71
3
 72
8
 73
4
 74
0
 40
0
 40
0
 40
0
 40
0
 40
1
 40
1
 40
1
 40
1
 10
56.011654
 20
55.897063
 30
0.0
 10
56.066113
 20
55.733688
 30
0.0
 10
55.678766
 20
54.545815
 30
0.0
 10
55.150882
 20
53.257344
 30
0.0
  0
SPLINE
  5
304
100
AcDbEntity
  8
0
 62
7
100
AcDbSpline
 70
8
 71
3
 72
8
 73
4
 74
0
 40
0
 40
0
 40
0
 40
0
 40
1
 40
1
 40
1
 40
1
 10
55.150882
 20
53.257344
 30
0.0
 10
52.967197
 20
47.927345
 30
0.0
 10
52.476665
 20
45.614280
 30
0.0
 10
53.330038
 20
44.671313
 30
0.0
  0
SPLINE
  5
305
100
AcDbEntity
  8
0
 62
7
100
AcDbSpline
 70
8
 71
3
 72
8
 73
4
 74
0
 40
0
 40
0
 40
0
 40
0
 40
1
 40
1
 40
1
 40
1
 10
53.330038
 20
44.671313
 30
0.0
 10
53.561086
 20
44.416009
 30
0.0
 10
53.850815
 20
43.395204
 30
0.0
 10
53.973883
 20
42.402861
 30
0.0
  0
SPLINE
  5
306
100
AcDbEntity
  8
0
 62
7
100
AcDbSpline
 70
8
 71
3
 72
8
 73
4
 74
0
 40
0
 40
0
 40
0
 40
0
 40
1
 40
1
 40
1
 40
1
 10
53.973883
 20
42.402861
 30
0.0
 10
54.213196
 20
40.473185
 30
0.0
 10
54.164664
 20
40.539892
 30
0.0
 10
56.972893
 20
38.280816
 30
0.0
  0
SPLINE
  5
307
100
AcDbEntity
  8
0
 62
7
100
AcDbSpline
 70
8
 71
3
 72
8
 73
4
 74
0
 40
0
 40
0
 40
0
 40
0
 40
1
 40
1
 40
1
 40
1
 10
56.972893
 20
38.280816
 30
0.0
 10
58.357124
 20
37.167272
 30
0.0
 10
58.628841
 20
37.299090
 30
0.0
 10
58.825384
 20
39.179524
 30
0.0
  0
SPLINE
  5
308
100
AcDbEntity
  8
0
 62
7
100
AcDbSpline
 70
8
 71
3
 72
8
 73
4
 74
0
 40
0
 40
0
 40
0
 40
0
 40
1
 40
1
 40
1
 40
1
 10
58.825384
 20
39.179524
 30
0.0
 10
59.074061
 20
41.558723
 30
0.0
 10
59.032791
 20
45.739595
 30
0.0
 10
58.727827
 20
49.062587
 30
0.0
  0
SPLINE
  5
309
100
AcDbEntity
  8
0
 62
7
100
AcDbSpline
 70
8
 71
3
 72
8
 73
4
 74
0
 40
0
 40
0
 40
0
 40
0
 40
1
 40
1
 40
1
 40
1
 10
58.727827
 20
49.062587
 30
0.0
 10
58.161105
 20
55.237764
 30
0.0
 10
58.007456
 20
55.016982
 30
0.0
 10
56.886507
 20
46.416754
 30
0.0
  0
SPLINE
  5
30a
100
AcDbEntity
  8
0
 62
7
100
AcDbSpline
 70
8
 71
3
 72
8
 73
4
 74
0
 40
0
 40
0
 40
0
 40
0
 40
1
 40
1
 40
1
 40
1
 10
56.886507
 20
46.416754
 30
0.0
 10
56.734771
 20
45.252587
 30
0.0
 10
56.611409
 20
43.876360
 30
0.0
 10
56.612369
 20
43.358469
 30
0.0
  0
SPLINE
  5
30b
100
AcDbEntity
  8
0
 62
7
100
AcDbSpline
 70
8
 71
3
 72
8
 73
4
 74
0
 40
0
 40
0
 40
0
 40
0
 40
1
 40
1
 40
1
 40
1
 10
56.612369
 20
43.358469
 30
0.0
 10
56.613428
 20
42.840579
 30
0.0
 10
56.459025
 20
42.204751
 30
0.0
 10
56.269469
 20
41.945515
 30
0.0
  0
SPLINE
  5
30c
100
AcDbEntity
  8
0
 62
7
100
AcDbSpline
 70
8
 71
3
 72
8
 73
4
 74
0
 40
0
 40
0
 40
0
 40
0
 40
1
 40
1
 40
1
 40
1
 10
56.269469
 20
41.945515
 30
0.0
 10
55.946215
 20
41.503439
 30
0.0
 10
55.901714
 20
41.502018
 30
0.0
 10
55.552642
 20
41.922629
 30
0.0
  0
SPLINE
  5
30d
100
AcDbEntity
  8
0
 62
7
100
AcDbSpline
 70
8
 71
3
 72
8
 73
4
 74
0
 40
0
 40
0
 40
0
 40
0
 40
1
 40
1
 40
1
 40
1
 10
55.552642
 20
41.922629
 30
0.0
 10
54.711970
 20
42.935575
 30
0.0
 10
55.007253
 20
48.727169
 30
0.0
 10
56.109447
 20
52.843597
 30
0.0
  0
SPLINE
  5
30e
100
AcDbEntity
  8
0
 62
7
100
AcDbSpline
 70
8
 71
3
 72
8
 73
4
 74
0
 40
0
 40
0
 40
0
 40
0
 40
1
 40
1
 40
1
 40
1
 10
56.109447
 20
52.843597
 30
0.0
 10
57.114472
 20
56.597135
 30
0.0
 10
58.225251
 20
59.584963
 30
0.0
 10
59.071634
 20
60.811436
 30
0.0
  0
SPLINE
  5
30f
100
AcDbEntity
  8
0
 62
7
100
AcDbSpline
 70
8
 71
3
 72
8
 73
4
 74
0
 40
0
 40
0
 40
0
 40
0
 40
1
 40
1
 40
1
 40
1
 10
59.071634
 20
60.811436
 30
0.0
 10
60.013260
 20
62.175924
 30
0.0
 10
60.363986
 20
61.826749
 30
0.0
 10
59.684727
 20
60.201056
 30
0.0
  0
SPLINE
  5
310
100
AcDbEntity
  8
0
 62
7
100
AcDbSpline
 70
8
 71
3
 72
8
 73
4
 74
0
 40
0
 40
0
 40
0
 40
0
 40
1
 40
1
 40
1
 40
1
 10
59.684727
 20
60.201056
 30
0.0
 10
59.465951
 20
59.677451
 30
0.0
 10
59.354008
 20
59.249048
 30
0.0
 10
59.435963
 20
59.249048
 30
0.0
  0
SPLINE
  5
311
100
AcDbEntity
  8
0
 62
7
100
AcDbSpline
 70
8
 71
3
 72
8
 73
4
 74
0
 40
0
 40
0
 40
0
 40
0
 40
1
 40
1
 40
1
 40
1
 10
59.435963
 20
59.249048
 30
0.0
 10
59.728693
 20
59.249048
 30
0.0
 10
62.722461
 20
61.972505
 30
0.0
 10
63.000202
 20
62.491469
 30
0.0
  0
SPLINE
  5
312
100
AcDbEntity
  8
0
 62
7
100
AcDbSpline
 70
8
 71
3
 72
8
 73
4
 74
0
 40
0
 40
0
 40
0
 40
0
 40
1
 40
1
 40
1
 40
1
 10
63.000202
 20
62.491469
 30
0.0
 10
63.210144
 20
62.883751
 30
0.0
 10
63.197917
 20
63.073301
 30
0.0
 10
62.952905
 20
63.224727
 30
0.0
  0
SPLINE
  5
313
100
AcDbEntity
  8
0
 62
7
100
AcDbSpline
 70
8
 71
3
 72
8
 73
4
 74
0
 40
0
 40
0
 40
0
 40
0
 40
1
 40
1
 40
1
 40
1
 10
62.952905
 20
63.224727
 30
0.0
 10
62.584436
 20
63.452454
 30
0.0
 10
63.941941
 20
64.276131
 30
0.0
 10
64.685730
 20
64.276131
 30
0.0
  0
SPLINE
  5
314
100
AcDbEntity
  8
0
 62
7
100
AcDbSpline
 70
8
 71
3
 72
8
 73
4
 74
0
 40
0
 40
0
 40
0
 40
0
 40
1
 40
1
 40
1
 40
1
 10
64.685730
 20
64.276131
 30
0.0
 10
65.823322
 20
64.276131
 30
0.0
 10
62.455563
 20
60.653919
 30
0.0
 10
59.648386
 20
58.858190
 30
0.0
  0
SPLINE
  5
315
100
AcDbEntity
  8
0
 62
7
100
AcDbSpline
 70
8
 71
3
 72
8
 73
4
 74
0
 40
0
 40
0
 40
0
 40
0
 40
1
 40
1
 40
1
 40
1
 10
59.648386
 20
58.858190
 30
0.0
 10
57.725093
 20
57.627875
 30
0.0
 10
57.511836
 20
57.123806
 30
0.0
 10
58.070922
 20
55.129602
 30
0.0
  0
SPLINE
  5
316
100
AcDbEntity
  8
0
 62
7
100
AcDbSpline
 70
8
 71
3
 72
8
 73
4
 74
0
 40
0
 40
0
 40
0
 40
0
 40
1
 40
1
 40
1
 40
1
 10
58.070922
 20
55.129602
 30
0.0
 10
58.312868
 20
54.266600
 30
0.0
 10
58.726517
 20
52.727069
 30
0.0
 10
58.990143
 20
51.708423
 30
0.0
  0
SPLINE
  5
317
100
AcDbEntity
  8
0
 62
7
100
AcDbSpline
 70
8
 71
3
 72
8
 73
4
 74
0
 40
0
 40
0
 40
0
 40
0
 40
1
 40
1
 40
1
 40
1
 10
58.990143
 20
51.708423
 30
0.0
 10
59.253766
 20
50.689777
 30
0.0
 10
59.779509
 20
48.918408
 30
0.0
 10
60.158455
 20
47.772047
 30
0.0
  0
SPLINE
  5
318
100
AcDbEntity
  8
0
 62
7
100
AcDbSpline
 70
8
 71
3
 72
8
 73
4
 74
0
 40
0
 40
0
 40
0
 40
0
 40
1
 40
1
 40
1
 40
1
 10
60.158455
 20
47.772047
 30
0.0
 10
60.537402
 20
46.625685
 30
0.0
 10
60.847452
 20
45.471853
 30
0.0
 10
60.847452
 20
45.207973
 30
0.0
  0
SPLINE
  5
319
100
AcDbEntity
  8
0
 62
7
100
AcDbSpline
 70
8
 71
3
 72
8
 73
4
 74
0
 40
0
 40
0
 40
0
 40
0
 40
1
 40
1
 40
1
 40
1
 10
60.847452
 20
45.207973
 30
0.0
 10
60.847452
 20
44.944096
 30
0.0
 10
60.966514
 20
44.654610
 30
0.0
 10
61.112035
 20
44.564673
 30
0.0
  0
SPLINE
  5
31a
100
AcDbEntity
  8
0
 62
7
100
AcDbSpline
 70
8
 71
3
 72
8
 73
4
 74
0
 40
0
 40
0
 40
0
 40
0
 40
1
 40
1
 40
1
 40
1
 10
61.112035
 20
44.564673
 30
0.0
 10
61.620437
 20
44.250462
 30
0.0
 10
61.378065
 20
46.482198
 30
0.0
 10
60.711448
 20
48.253243
 30
0.0
  0
SPLINE
  5
31b
100
AcDbEntity
  8
0
 62
7
100
AcDbSpline
 70
8
 71
3
 72
8
 73
4
 74
0
 40
0
 40
0
 40
0
 40
0
 40
1
 40
1
 40
1
 40
1
 10
60.711448
 20
48.253243
 30
0.0
 10
59.750870
 20
50.805263
 30
0.0
 10
58.202401
 20
56.837053
 30
0.0
 10
58.466008
 20
56.999971
 30
0.0
  0
SPLINE
  5
31c
100
AcDbEntity
  8
0
 62
7
100
AcDbSpline
 70
8
 71
3
 72
8
 73
4
 74
0
 40
0
 40
0
 40
0
 40
0
 40
1
 40
1
 40
1
 40
1
 10
58.466008
 20
56.999971
 30
0.0
 10
59.135267
 20
57.413594
 30
0.0
 10
60.830270
 20
53.471225
 30
0.0
 10
61.035457
 20
51.023753
 30
0.0
  0
SPLINE
  5
31d
100
AcDbEntity
  8
0
 62
7
100
AcDbSpline
 70
8
 71
3
 72
8
 73
4
 74
0
 40
0
 40
0
 40
0
 40
0
 40
1
 40
1
 40
1
 40
1
 10
61.035457
 20
51.023753
 30
0.0
 10
61.186158
 20
49.226208
 30
0.0
 10
61.609695
 20
48.495744
 30
0.0
 10
61.673991
 20
49.922486
 30
0.0
  0
SPLINE
  5
31e
100
AcDbEntity
  8
0
 62
7
100
AcDbSpline
 70
8
 71
3
 72
8
 73
4
 74
0
 40
0
 40
0
 40
0
 40
0
 40
1
 40
1
 40
1
 40
1
 10
61.673991
 20
49.922486
 30
0.0
 10
61.692036
 20
50.322668
 30
0.0
 10
61.735547
 20
51.087359
 30
0.0
 10
61.770705
 20
51.621796
 30
0.0
  0
SPLINE
  5
31f
100
AcDbEntity
  8
0
 62
7
100
AcDbSpline
 70
8
 71
3
 72
8
 73
4
 74
0
 40
0
 40
0
 40
0
 40
0
 40
1
 40
1
 40
1
 40
1
 10
61.770705
 20
51.621796
 30
0.0
 10
61.805862
 20
52.156236
 30
0.0
 10
61.658362
 20
52.957450
 30
0.0
 10
61.442928
 20
53.402275
 30
0.0
  0
SPLINE
  5
320
100
AcDbEntity
  8
0
 62
7
100
AcDbSpline
 70
8
 71
3
 72
8
 73
4
 74
0
 40
0
 40
0
 40
0
 40
0
 40
1
 40
1
 40
1
 40
1
 10
61.442928
 20
53.402275
 30
0.0
 10
60.942400
 20
54.435751
 30
0.0
 10
61.134432
 20
54.907421
 30
0.0
 10
62.244565
 20
55.371264
 30
0.0
  0
SPLINE
  5
321
100
AcDbEntity
  8
0
 62
7
100
AcDbSpline
 70
8
 71
3
 72
8
 73
4
 74
0
 40
0
 40
0
 40
0
 40
0
 40
1
 40
1
 40
1
 40
1
 10
62.244565
 20
55.371264
 30
0.0
 10
63.103898
 20
55.730317
 30
0.0
 10
64.050987
 20
57.229703
 30
0.0
 10
64.677631
 20
59.223177
 30
0.0
  0
SPLINE
  5
322
100
AcDbEntity
  8
0
 62
7
100
AcDbSpline
 70
8
 71
3
 72
8
 73
4
 74
0
 40
0
 40
0
 40
0
 40
0
 40
1
 40
1
 40
1
 40
1
 10
64.677631
 20
59.223177
 30
0.0
 10
65.145256
 20
60.710781
 30
0.0
 10
66.614844
 20
62.697931
 30
0.0
 10
68.749979
 20
64.729741
 30
0.0
  0
SPLINE
  5
323
100
AcDbEntity
  8
0
 62
7
100
AcDbSpline
 70
8
 71
3
 72
8
 73
4
 74
0
 40
0
 40
0
 40
0
 40
0
 40
1
 40
1
 40
1
 40
1
 10
68.749979
 20
64.729741
 30
0.0
 10
70.006141
 20
65.925110
 30
0.0
 10
71.131229
 20
66.907376
 30
0.0
 10
71.250178
 20
66.912553
 30
0.0
  0
SPLINE
  5
324
100
AcDbEntity
  8
0
 62
7
100
AcDbSpline
 70
8
 71
3
 72
8
 73
4
 74
0
 40
0
 40
0
 40
0
 40
0
 40
1
 40
1
 40
1
 40
1
 10
71.250178
 20
66.912553
 30
0.0
 10
71.850747
 20
66.938694
 30
0.0
 10
69.375036
 20
61.823073
 30
0.0
 10
67.221296
 20
58.587590
 30
0.0
  0
SPLINE
  5
325
100
AcDbEntity
  8
0
 62
7
100
AcDbSpline
 70
8
 71
3
 72
8
 73
4
 74
0
 40
0
 40
0
 40
0
 40
0
 40
1
 40
1
 40
1
 40
1
 10
67.221296
 20
58.587590
 30
0.0
 10
64.139866
 20
53.958471
 30
0.0
 10
62.885966
 20
51.052140
 30
0.0
 10
62.307401
 20
47.198023
 30
0.0
  0
SPLINE
  5
326
100
AcDbEntity
  8
0
 62
7
100
AcDbSpline
 70
8
 71
3
 72
8
 73
4
 74
0
 40
0
 40
0
 40
0
 40
0
 40
1
 40
1
 40
1
 40
1
 10
62.307401
 20
47.198023
 30
0.0
 10
62.059968
 20
45.549743
 30
0.0
 10
61.673650
 20
44.222019
 30
0.0
 10
61.125603
 20
43.136344
 30
0.0
  0
SPLINE
  5
327
100
AcDbEntity
  8
0
 62
7
100
AcDbSpline
 70
8
 71
3
 72
8
 73
4
 74
0
 40
0
 40
0
 40
0
 40
0
 40
1
 40
1
 40
1
 40
1
 10
61.125603
 20
43.136344
 30
0.0
 10
59.464152
 20
39.845025
 30
0.0
 10
58.805532
 20
37.384805
 30
0.0
 10
59.376747
 20
36.603620
 30
0.0
  0
SPLINE
  5
328
100
AcDbEntity
  8
0
 62
7
100
AcDbSpline
 70
8
 71
3
 72
8
 73
4
 74
0
 40
0
 40
0
 40
0
 40
0
 40
1
 40
1
 40
1
 40
1
 10
59.376747
 20
36.603620
 30
0.0
 10
59.880087
 20
35.915261
 30
0.0
 10
60.387542
 20
36.409437
 30
0.0
 10
61.109688
 20
38.291214
 30
0.0
  0
SPLINE
  5
329
100
AcDbEntity
  8
0
 62
7
100
AcDbSpline
 70
8
 71
3
 72
8
 73
4
 74
0
 40
0
 40
0
 40
0
 40
0
 40
1
 40
1
 40
1
 40
1
 10
61.109688
 20
38.291214
 30
0.0
 10
62.071880
 20
40.798504
 30
0.0
 10
62.498155
 20
41.852022
 30
0.0
 10
63.142723
 20
43.315744
 30
0.0
  0
SPLINE
  5
32a
100
AcDbEntity
  8
0
 62
7
100
AcDbSpline
 70
8
 71
3
 72
8
 73
4
 74
0
 40
0
 40
0
 40
0
 40
0
 40
1
 40
1
 40
1
 40
1
 10
63.142723
 20
43.315744
 30
0.0
 10
63.481043
 20
44.084036
 30
0.0
 10
63.757858
 20
44.782023
 30
0.0
 10
63.757858
 20
44.866822
 30
0.0
  0
SPLINE
  5
32b
100
AcDbEntity
  8
0
 62
7
100
AcDbSpline
 70
8
 71
3
 72
8
 73
4
 74
0
 40
0
 40
0
 40
0
 40
0
 40
1
 40
1
 40
1
 40
1
 10
63.757858
 20
44.866822
 30
0.0
 10
63.757858
 20
45.299069
 30
0.0
 10
66.255167
 20
50.253212
 30
0.0
 10
66.473054
 20
50.253212
 30
0.0
  0
SPLINE
  5
32c
100
AcDbEntity
  8
0
 62
7
100
AcDbSpline
 70
8
 71
3
 72
8
 73
4
 74
0
 40
0
 40
0
 40
0
 40
0
 40
1
 40
1
 40
1
 40
1
 10
66.473054
 20
50.253212
 30
0.0
 10
67.358617
 20
50.253212
 30
0.0
 10
64.852375
 20
42.652789
 30
0.0
 10
62.721458
 20
38.876129
 30
0.0
  0
SPLINE
  5
32d
100
AcDbEntity
  8
0
 62
7
100
AcDbSpline
 70
8
 71
3
 72
8
 73
4
 74
0
 40
0
 40
0
 40
0
 40
0
 40
1
 40
1
 40
1
 40
1
 10
62.721458
 20
38.876129
 30
0.0
 10
61.166872
 20
36.120903
 30
0.0
 10
61.055054
 20
35.813204
 30
0.0
 10
61.480189
 20
35.460374
 30
0.0
  0
SPLINE
  5
32e
100
AcDbEntity
  8
0
 62
7
100
AcDbSpline
 70
8
 71
3
 72
8
 73
4
 74
0
 40
0
 40
0
 40
0
 40
0
 40
1
 40
1
 40
1
 40
1
 10
61.480189
 20
35.460374
 30
0.0
 10
61.966261
 20
35.056969
 30
0.0
 10
62.455208
 20
35.521225
 30
0.0
 10
63.823657
 20
37.685504
 30
0.0
  0
SPLINE
  5
32f
100
AcDbEntity
  8
0
 62
7
100
AcDbSpline
 70
8
 71
3
 72
8
 73
4
 74
0
 40
0
 40
0
 40
0
 40
0
 40
1
 40
1
 40
1
 40
1
 10
63.823657
 20
37.685504
 30
0.0
 10
65.959363
 20
41.063238
 30
0.0
 10
67.163397
 20
43.497458
 30
0.0
 10
68.016591
 20
46.162436
 30
0.0
  0
SPLINE
  5
330
100
AcDbEntity
  8
0
 62
7
100
AcDbSpline
 70
8
 71
3
 72
8
 73
4
 74
0
 40
0
 40
0
 40
0
 40
0
 40
1
 40
1
 40
1
 40
1
 10
68.016591
 20
46.162436
 30
0.0
 10
69.792144
 20
51.708434
 30
0.0
 10
71.394704
 20
55.113663
 30
0.0
 10
72.601246
 20
55.904220
 30
0.0
  0
SPLINE
  5
331
100
AcDbEntity
  8
0
 62
7
100
AcDbSpline
 70
8
 71
3
 72
8
 73
4
 74
0
 40
0
 40
0
 40
0
 40
0
 40
1
 40
1
 40
1
 40
1
 10
72.601246
 20
55.904220
 30
0.0
 10
73.793130
 20
56.685172
 30
0.0
 10
73.792075
 20
56.755178
 30
0.0
 10
72.668397
 20
51.443837
 30
0.0
  0
SPLINE
  5
332
100
AcDbEntity
  8
0
 62
7
100
AcDbSpline
 70
8
 71
3
 72
8
 73
4
 74
0
 40
0
 40
0
 40
0
 40
0
 40
1
 40
1
 40
1
 40
1
 10
72.668397
 20
51.443837
 30
0.0
 10
72.298957
 20
49.697587
 30
0.0
 10
71.751865
 20
46.471557
 30
0.0
 10
71.452639
 20
44.274880
 30
0.0
  0
SPLINE
  5
333
100
AcDbEntity
  8
0
 62
7
100
AcDbSpline
 70
8
 71
3
 72
8
 73
4
 74
0
 40
0
 40
0
 40
0
 40
0
 40
1
 40
1
 40
1
 40
1
 10
71.452639
 20
44.274880
 30
0.0
 10
70.901092
 20
40.225832
 30
0.0
 10
69.733509
 20
35.968308
 30
0.0
 10
68.518154
 20
33.574424
 30
0.0
  0
SPLINE
  5
334
100
AcDbEntity
  8
0
 62
7
100
AcDbSpline
 70
8
 71
3
 72
8
 73
4
 74
0
 40
0
 40
0
 40
0
 40
0
 40
1
 40
1
 40
1
 40
1
 10
68.518154
 20
33.574424
 30
0.0
 10
67.184072
 20
30.946691
 30
0.0
 10
65.633415
 20
29.138883
 30
0.0
 10
62.783405
 20
26.888670
 30
0.0
  0
SPLINE
  5
335
100
AcDbEntity
  8
0
 62
7
100
AcDbSpline
 70
8
 71
3
 72
8
 73
4
 74
0
 40
0
 40
0
 40
0
 40
0
 40
1
 40
1
 40
1
 40
1
 10
62.783405
 20
26.888670
 30
0.0
 10
59.852060
 20
24.574235
 30
0.0
 10
56.349524
 20
20.212666
 30
0.0
 10
56.349524
 20
18.876812
 30
0.0
  0
SPLINE
  5
336
100
AcDbEntity
  8
0
 62
7
100
AcDbSpline
 70
8
 71
3
 72
8
 73
4
 74
0
 40
0
 40
0
 40
0
 40
0
 40
1
 40
1
 40
1
 40
1
 10
56.349524
 20
18.876812
 30
0.0
 10
56.349524
 20
18.171321
 30
0.0
 10
57.098914
 20
17.888958
 30
0.0
 10
60.243421
 20
17.409634
 30
0.0
  0
SPLINE
  5
337
100
AcDbEntity
  8
0
 62
7
100
AcDbSpline
 70
8
 71
3
 72
8
 73
4
 74
0
 40
0
 40
0
 40
0
 40
0
 40
1
 40
1
 40
1
 40
1
 10
60.243421
 20
17.409634
 30
0.0
 10
62.478526
 20
17.068930
 30
0.0
 10
63.205733
 20
17.200380
 30
0.0
 10
64.058369
 20
18.099222
 30
0.0
  0
SPLINE
  5
338
100
AcDbEntity
  8
0
 62
7
100
AcDbSpline
 70
8
 71
3
 72
8
 73
4
 74
0
 40
0
 40
0
 40
0
 40
0
 40
1
 40
1
 40
1
 40
1
 10
64.058369
 20
18.099222
 30
0.0
 10
64.962273
 20
19.052114
 30
0.0
 10
65.261326
 20
18.927800
 30
0.0
 10
65.473371
 20
17.511025
 30
0.0
  0
SPLINE
  5
339
100
AcDbEntity
  8
0
 62
7
100
AcDbSpline
 70
8
 71
3
 72
8
 73
4
 74
0
 40
0
 40
0
 40
0
 40
0
 40
1
 40
1
 40
1
 40
1
 10
65.473371
 20
17.511025
 30
0.0
 10
65.576823
 20
16.819801
 30
0.0
 10
65.716430
 20
16.164957
 30
0.0
 10
65.783611
 20
16.055816
 30
0.0
  0
SPLINE
  5
33a
100
AcDbEntity
  8
0
 62
7
100
AcDbSpline
 70
8
 71
3
 72
8
 73
4
 74
0
 40
0
 40
0
 40
0
 40
0
 40
1
 40
1
 40
1
 40
1
 10
65.783611
 20
16.055816
 30
0.0
 10
66.047924
 20
15.626405
 30
0.0
 10
66.991693
 20
15.893600
 30
0.0
 10
67.625238
 20
16.577207
 30
0.0
  0
LWPOLYLINE
  5
33b
100
AcDbEntity
  8
0
 62
7
100
AcDbPolyline
 90
3
 70
0
 10
86.011787
 20
65.122406
 30
0.0
 10
84.438540
 20
62.661390
 30
0.0
 10
84.143276
 20
64.196365
 30
0.0
  0
SPLINE
  5
33c
100
AcDbEntity
  8
0
 62
7
100
AcDbSpline
 70
8
 71
3
 72
8
 73
4
 74
0
 40
0
 40
0
 40
0
 40
0
 40
1
 40
1
 40
1
 40
1
 10
82.807858
 20
18.000348
 30
0.0
 10
84.649572
 20
18.537793
 30
0.0
 10
85.400478
 20
18.909202
 30
0.0
 10
85.150584
 20
19.159098
 30
0.0
  0
SPLINE
  5
33d
100
AcDbEntity
  8
0
 62
7
100
AcDbSpline
 70
8
 71
3
 72
8
 73
4
 74
0
 40
0
 40
0
 40
0
 40
0
 40
1
 40
1
 40
1
 40
1
 10
85.150584
 20
19.159098
 30
0.0
 10
84.751757
 20
19.557923
 30
0.0
 10
79.399265
 20
20.101370
 30
0.0
 10
76.542202
 20
20.033120
 30
0.0
  0
LWPOLYLINE
  5
33e
100
AcDbEntity
  8
0
 62
7
100
AcDbPolyline
 90
1
 70
1
 10
67.625238
 20
16.577207
 30
0.0
  0
SPLINE
  5
33f
100
AcDbEntity
  8
0
 62
7
100
AcDbSpline
 70
8
 71
3
 72
8
 73
4
 74
0
 40
0
 40
0
 40
0
 40
0
 40
1
 40
1
 40
1
 40
1
 10
74.738066
 20
17.420058
 30
0.0
 10
76.876479
 20
17.166093
 30
0.0
 10
80.953740
 20
17.459285
 30
0.0
 10
82.807858
 20
18.000348
 30
0.0
  0
LWPOLYLINE
  5
340
100
AcDbEntity
  8
0
 62
7
100
AcDbPolyline
 90
5
 70
0
 10
76.542202
 20
20.033120
 30
0.0
 10
73.415149
 20
19.958420
 30
0.0
 10
73.415149
 20
18.767795
 30
0.0
 10
73.415149
 20
17.577170
 30
0.0
 10
74.738066
 20
17.420058
 30
0.0
  0
SPLINE
  5
341
100
AcDbEntity
  8
0
 62
7
100
AcDbSpline
 70
8
 71
3
 72
8
 73
4
 74
0
 40
0
 40
0
 40
0
 40
0
 40
1
 40
1
 40
1
 40
1
 10
86.665324
 20
26.242275
 30
0.0
 10
86.646062
 20
26.787713
 30
0.0
 10
86.489154
 20
26.848670
 30
0.0
 10
84.792233
 20
26.969879
 30
0.0
  0
LWPOLYLINE
  5
342
100
AcDbEntity
  8
0
 62
7
100
AcDbPolyline
 90
1
 70
1
 10
82.807858
 20
18.000348
 30
0.0
  0
SPLINE
  5
343
100
AcDbEntity
  8
0
 62
7
100
AcDbSpline
 70
8
 71
3
 72
8
 73
4
 74
0
 40
0
 40
0
 40
0
 40
0
 40
1
 40
1
 40
1
 40
1
 10
82.807858
 20
29.218837
 30
0.0
 10
82.678701
 20
31.285331
 30
0.0
 10
82.658580
 20
31.337464
 30
0.0
 10
81.958929
 20
31.418165
 30
0.0
  0
LWPOLYLINE
  5
344
100
AcDbEntity
  8
0
 62
7
100
AcDbPolyline
 90
3
 70
0
 10
84.792233
 20
26.969879
 30
0.0
 10
82.940149
 20
27.102170
 30
0.0
 10
82.807858
 20
29.218837
 30
0.0
  0
SPLINE
  5
345
100
AcDbEntity
  8
0
 62
7
100
AcDbSpline
 70
8
 71
3
 72
8
 73
4
 74
0
 40
0
 40
0
 40
0
 40
0
 40
1
 40
1
 40
1
 40
1
 10
77.714628
 20
27.028119
 30
0.0
 10
74.579411
 20
26.959298
 30
0.0
 10
74.341191
 20
26.917872
 30
0.0
 10
74.341191
 20
26.441471
 30
0.0
  0
SPLINE
  5
346
100
AcDbEntity
  8
0
 62
7
100
AcDbSpline
 70
8
 71
3
 72
8
 73
4
 74
0
 40
0
 40
0
 40
0
 40
0
 40
1
 40
1
 40
1
 40
1
 10
74.341191
 20
26.441471
 30
0.0
 10
74.341191
 20
25.887397
 30
0.0
 10
74.690227
 20
25.859245
 30
0.0
 10
83.490324
 20
25.703519
 30
0.0
  0
SPLINE
  5
347
100
AcDbEntity
  8
0
 62
7
100
AcDbSpline
 70
8
 71
3
 72
8
 73
4
 74
0
 40
0
 40
0
 40
0
 40
0
 40
1
 40
1
 40
1
 40
1
 10
83.490324
 20
25.703519
 30
0.0
 10
86.650608
 20
25.647594
 30
0.0
 10
86.686096
 20
25.653616
 30
0.0
 10
86.665324
 20
26.242275
 30
0.0
  0
LWPOLYLINE
  5
348
100
AcDbEntity
  8
0
 62
7
100
AcDbPolyline
 90
5
 70
0
 10
81.958929
 20
31.418165
 30
0.0
 10
81.242292
 20
31.500829
 30
0.0
 10
81.165179
 20
29.301498
 30
0.0
 10
81.088066
 20
27.102170
 30
0.0
 10
77.714628
 20
27.028119
 30
0.0
  0
SPLINE
  5
349
100
AcDbEntity
  8
0
 62
7
100
AcDbSpline
 70
8
 71
3
 72
8
 73
4
 74
0
 40
0
 40
0
 40
0
 40
0
 40
1
 40
1
 40
1
 40
1
 10
37.578189
 20
29.615712
 30
0.0
 10
37.738325
 20
30.587961
 30
0.0
 10
38.319731
 20
31.858701
 30
0.0
 10
38.515060
 20
31.663373
 30
0.0
  0
SPLINE
  5
34a
100
AcDbEntity
  8
0
 62
7
100
AcDbSpline
 70
8
 71
3
 72
8
 73
4
 74
0
 40
0
 40
0
 40
0
 40
0
 40
1
 40
1
 40
1
 40
1
 10
38.515060
 20
31.663373
 30
0.0
 10
38.577941
 20
31.600492
 30
0.0
 10
38.449231
 20
31.117868
 30
0.0
 10
38.229040
 20
30.590876
 30
0.0
  0
SPLINE
  5
34b
100
AcDbEntity
  8
0
 62
7
100
AcDbSpline
 70
8
 71
3
 72
8
 73
4
 74
0
 40
0
 40
0
 40
0
 40
0
 40
1
 40
1
 40
1
 40
1
 10
38.229040
 20
30.590876
 30
0.0
 10
38.008848
 20
30.063885
 30
0.0
 10
37.828691
 20
29.375179
 30
0.0
 10
37.828691
 20
29.060426
 30
0.0
  0
SPLINE
  5
34c
100
AcDbEntity
  8
0
 62
7
100
AcDbSpline
 70
8
 71
3
 72
8
 73
4
 74
0
 40
0
 40
0
 40
0
 40
0
 40
1
 40
1
 40
1
 40
1
 10
37.828691
 20
29.060426
 30
0.0
 10
37.828691
 20
28.547266
 30
0.0
 10
37.931198
 20
28.504555
 30
0.0
 10
38.820878
 20
28.647004
 30
0.0
  0
SPLINE
  5
34d
100
AcDbEntity
  8
0
 62
7
100
AcDbSpline
 70
8
 71
3
 72
8
 73
4
 74
0
 40
0
 40
0
 40
0
 40
0
 40
1
 40
1
 40
1
 40
1
 10
38.820878
 20
28.647004
 30
0.0
 10
39.969816
 20
28.830966
 30
0.0
 10
40.904668
 20
29.758878
 30
0.0
 10
40.469423
 20
30.283317
 30
0.0
  0
SPLINE
  5
34e
100
AcDbEntity
  8
0
 62
7
100
AcDbSpline
 70
8
 71
3
 72
8
 73
4
 74
0
 40
0
 40
0
 40
0
 40
0
 40
1
 40
1
 40
1
 40
1
 10
40.469423
 20
30.283317
 30
0.0
 10
40.269430
 20
30.524297
 30
0.0
 10
40.382317
 20
31.048727
 30
0.0
 10
40.873029
 20
32.158318
 30
0.0
  0
SPLINE
  5
34f
100
AcDbEntity
  8
0
 62
7
100
AcDbSpline
 70
8
 71
3
 72
8
 73
4
 74
0
 40
0
 40
0
 40
0
 40
0
 40
1
 40
1
 40
1
 40
1
 10
40.873029
 20
32.158318
 30
0.0
 10
41.247724
 20
33.005567
 30
0.0
 10
41.650724
 20
33.762347
 30
0.0
 10
41.768586
 20
33.840055
 30
0.0
  0
SPLINE
  5
350
100
AcDbEntity
  8
0
 62
7
100
AcDbSpline
 70
8
 71
3
 72
8
 73
4
 74
0
 40
0
 40
0
 40
0
 40
0
 40
1
 40
1
 40
1
 40
1
 10
41.768586
 20
33.840055
 30
0.0
 10
41.886447
 20
33.917760
 30
0.0
 10
42.978975
 20
35.231493
 30
0.0
 10
44.196423
 20
36.759462
 30
0.0
  0
SPLINE
  5
351
100
AcDbEntity
  8
0
 62
7
100
AcDbSpline
 70
8
 71
3
 72
8
 73
4
 74
0
 40
0
 40
0
 40
0
 40
0
 40
1
 40
1
 40
1
 40
1
 10
44.196423
 20
36.759462
 30
0.0
 10
45.413874
 20
38.287431
 30
0.0
 10
46.477407
 20
39.597118
 30
0.0
 10
46.559830
 20
39.669879
 30
0.0
  0
SPLINE
  5
352
100
AcDbEntity
  8
0
 62
7
100
AcDbSpline
 70
8
 71
3
 72
8
 73
4
 74
0
 40
0
 40
0
 40
0
 40
0
 40
1
 40
1
 40
1
 40
1
 10
46.559830
 20
39.669879
 30
0.0
 10
46.980525
 20
40.041248
 30
0.0
 10
48.657653
 20
42.565770
 30
0.0
 10
49.020637
 20
43.374045
 30
0.0
  0
SPLINE
  5
353
100
AcDbEntity
  8
0
 62
7
100
AcDbSpline
 70
8
 71
3
 72
8
 73
4
 74
0
 40
0
 40
0
 40
0
 40
0
 40
1
 40
1
 40
1
 40
1
 10
49.020637
 20
43.374045
 30
0.0
 10
49.645020
 20
44.764389
 30
0.0
 10
49.995947
 20
46.278252
 30
0.0
 10
50.001958
 20
47.607379
 30
0.0
  0
SPLINE
  5
354
100
AcDbEntity
  8
0
 62
7
100
AcDbSpline
 70
8
 71
3
 72
8
 73
4
 74
0
 40
0
 40
0
 40
0
 40
0
 40
1
 40
1
 40
1
 40
1
 10
50.001958
 20
47.607379
 30
0.0
 10
50.007779
 20
48.891066
 30
0.0
 10
50.622766
 20
51.809608
 30
0.0
 10
51.046888
 20
52.566197
 30
0.0
  0
SPLINE
  5
355
100
AcDbEntity
  8
0
 62
7
100
AcDbSpline
 70
8
 71
3
 72
8
 73
4
 74
0
 40
0
 40
0
 40
0
 40
0
 40
1
 40
1
 40
1
 40
1
 10
51.046888
 20
52.566197
 30
0.0
 10
51.868766
 20
54.032343
 30
0.0
 10
53.429212
 20
57.495051
 30
0.0
 10
53.318111
 20
57.606152
 30
0.0
  0
SPLINE
  5
356
100
AcDbEntity
  8
0
 62
7
100
AcDbSpline
 70
8
 71
3
 72
8
 73
4
 74
0
 40
0
 40
0
 40
0
 40
0
 40
1
 40
1
 40
1
 40
1
 10
53.318111
 20
57.606152
 30
0.0
 10
53.246171
 20
57.678092
 30
0.0
 10
53.005842
 20
57.586335
 30
0.0
 10
52.784044
 20
57.402270
 30
0.0
  0
SPLINE
  5
357
100
AcDbEntity
  8
0
 62
7
100
AcDbSpline
 70
8
 71
3
 72
8
 73
4
 74
0
 40
0
 40
0
 40
0
 40
0
 40
1
 40
1
 40
1
 40
1
 10
52.784044
 20
57.402270
 30
0.0
 10
52.440565
 20
57.117208
 30
0.0
 10
52.380774
 20
57.168209
 30
0.0
 10
52.380774
 20
57.746249
 30
0.0
  0
SPLINE
  5
358
100
AcDbEntity
  8
0
 62
7
100
AcDbSpline
 70
8
 71
3
 72
8
 73
4
 74
0
 40
0
 40
0
 40
0
 40
0
 40
1
 40
1
 40
1
 40
1
 10
52.380774
 20
57.746249
 30
0.0
 10
52.380774
 20
58.282493
 30
0.0
 10
52.491823
 20
58.403527
 30
0.0
 10
52.909941
 20
58.323004
 30
0.0
  0
SPLINE
  5
359
100
AcDbEntity
  8
0
 62
7
100
AcDbSpline
 70
8
 71
3
 72
8
 73
4
 74
0
 40
0
 40
0
 40
0
 40
0
 40
1
 40
1
 40
1
 40
1
 10
52.909941
 20
58.323004
 30
0.0
 10
53.290070
 20
58.249796
 30
0.0
 10
53.439108
 20
58.363514
 30
0.0
 10
53.439108
 20
58.726766
 30
0.0
  0
SPLINE
  5
35a
100
AcDbEntity
  8
0
 62
7
100
AcDbSpline
 70
8
 71
3
 72
8
 73
4
 74
0
 40
0
 40
0
 40
0
 40
0
 40
1
 40
1
 40
1
 40
1
 10
53.439108
 20
58.726766
 30
0.0
 10
53.439108
 20
59.053947
 30
0.0
 10
53.571201
 20
59.181749
 30
0.0
 10
53.813334
 20
59.088835
 30
0.0
  0
SPLINE
  5
35b
100
AcDbEntity
  8
0
 62
7
100
AcDbSpline
 70
8
 71
3
 72
8
 73
4
 74
0
 40
0
 40
0
 40
0
 40
0
 40
1
 40
1
 40
1
 40
1
 10
53.813334
 20
59.088835
 30
0.0
 10
54.658101
 20
58.764667
 30
0.0
 10
56.179508
 20
62.599350
 30
0.0
 10
56.501231
 20
65.863629
 30
0.0
  0
SPLINE
  5
35c
100
AcDbEntity
  8
0
 62
7
100
AcDbSpline
 70
8
 71
3
 72
8
 73
4
 74
0
 40
0
 40
0
 40
0
 40
0
 40
1
 40
1
 40
1
 40
1
 10
56.501231
 20
65.863629
 30
0.0
 10
56.638227
 20
67.253652
 30
0.0
 10
56.626609
 20
67.289206
 30
0.0
 10
56.241881
 20
66.657379
 30
0.0
  0
LWPOLYLINE
  5
35d
100
AcDbEntity
  8
0
 62
7
100
AcDbPolyline
 90
1
 70
1
 10
86.665324
 20
26.242275
 30
0.0
  0
SPLINE
  5
35e
100
AcDbEntity
  8
0
 62
7
100
AcDbSpline
 70
8
 71
3
 72
8
 73
4
 74
0
 40
0
 40
0
 40
0
 40
0
 40
1
 40
1
 40
1
 40
1
 10
54.549680
 20
66.657379
 30
0.0
 10
54.361816
 20
65.857014
 30
0.0
 10
54.026861
 20
64.904514
 30
0.0
 10
53.805333
 20
64.540712
 30
0.0
  0
SPLINE
  5
35f
100
AcDbEntity
  8
0
 62
7
100
AcDbSpline
 70
8
 71
3
 72
8
 73
4
 74
0
 40
0
 40
0
 40
0
 40
0
 40
1
 40
1
 40
1
 40
1
 10
53.805333
 20
64.540712
 30
0.0
 10
53.583808
 20
64.176910
 30
0.0
 10
53.466815
 20
64.088235
 30
0.0
 10
53.545351
 20
64.343658
 30
0.0
  0
SPLINE
  5
360
100
AcDbEntity
  8
0
 62
7
100
AcDbSpline
 70
8
 71
3
 72
8
 73
4
 74
0
 40
0
 40
0
 40
0
 40
0
 40
1
 40
1
 40
1
 40
1
 10
53.545351
 20
64.343658
 30
0.0
 10
53.623887
 20
64.599079
 30
0.0
 10
53.883216
 20
65.770773
 30
0.0
 10
54.121635
 20
66.947420
 30
0.0
  0
SPLINE
  5
361
100
AcDbEntity
  8
0
 62
7
100
AcDbSpline
 70
8
 71
3
 72
8
 73
4
 74
0
 40
0
 40
0
 40
0
 40
0
 40
1
 40
1
 40
1
 40
1
 10
54.121635
 20
66.947420
 30
0.0
 10
54.454502
 20
68.590194
 30
0.0
 10
54.482656
 20
69.157958
 30
0.0
 10
54.242917
 20
69.393432
 30
0.0
  0
SPLINE
  5
362
100
AcDbEntity
  8
0
 62
7
100
AcDbSpline
 70
8
 71
3
 72
8
 73
4
 74
0
 40
0
 40
0
 40
0
 40
0
 40
1
 40
1
 40
1
 40
1
 10
54.242917
 20
69.393432
 30
0.0
 10
54.005260
 20
69.626864
 30
0.0
 10
53.806064
 20
69.542144
 30
0.0
 10
53.408686
 20
69.038629
 30
0.0
  0
SPLINE
  5
363
100
AcDbEntity
  8
0
 62
7
100
AcDbSpline
 70
8
 71
3
 72
8
 73
4
 74
0
 40
0
 40
0
 40
0
 40
0
 40
1
 40
1
 40
1
 40
1
 10
53.408686
 20
69.038629
 30
0.0
 10
51.985730
 20
67.235607
 30
0.0
 10
50.332772
 20
65.373729
 30
0.0
 10
49.785011
 20
64.956947
 30
0.0
  0
SPLINE
  5
364
100
AcDbEntity
  8
0
 62
7
100
AcDbSpline
 70
8
 71
3
 72
8
 73
4
 74
0
 40
0
 40
0
 40
0
 40
0
 40
1
 40
1
 40
1
 40
1
 10
49.785011
 20
64.956947
 30
0.0
 10
49.217487
 20
64.525131
 30
0.0
 10
49.230780
 20
64.593176
 30
0.0
 10
49.970283
 20
65.905295
 30
0.0
  0
SPLINE
  5
365
100
AcDbEntity
  8
0
 62
7
100
AcDbSpline
 70
8
 71
3
 72
8
 73
4
 74
0
 40
0
 40
0
 40
0
 40
0
 40
1
 40
1
 40
1
 40
1
 10
49.970283
 20
65.905295
 30
0.0
 10
50.408446
 20
66.682744
 30
0.0
 10
50.954914
 20
67.795087
 30
0.0
 10
51.184657
 20
68.377170
 30
0.0
  0
LWPOLYLINE
  5
366
100
AcDbEntity
  8
0
 62
7
100
AcDbPolyline
 90
9
 70
0
 10
56.241881
 20
66.657379
 30
0.0
 10
55.839109
 20
65.995920
 30
0.0
 10
55.803758
 20
66.921962
 30
0.0
 10
55.768407
 20
67.848004
 30
0.0
 10
55.432344
 20
66.657379
 30
0.0
 10
55.096283
 20
65.466754
 30
0.0
 10
54.993768
 20
66.789670
 30
0.0
 10
54.891252
 20
68.112587
 30
0.0
 10
54.549680
 20
66.657379
 30
0.0
  0
SPLINE
  5
367
100
AcDbEntity
  8
0
 62
7
100
AcDbSpline
 70
8
 71
3
 72
8
 73
4
 74
0
 40
0
 40
0
 40
0
 40
0
 40
1
 40
1
 40
1
 40
1
 10
50.934551
 20
68.641754
 30
0.0
 10
50.567254
 20
68.205191
 30
0.0
 10
50.266145
 20
67.758707
 30
0.0
 10
50.265423
 20
67.649566
 30
0.0
  0
SPLINE
  5
368
100
AcDbEntity
  8
0
 62
7
100
AcDbSpline
 70
8
 71
3
 72
8
 73
4
 74
0
 40
0
 40
0
 40
0
 40
0
 40
1
 40
1
 40
1
 40
1
 10
50.265423
 20
67.649566
 30
0.0
 10
50.264629
 20
67.540426
 30
0.0
 10
50.151596
 20
67.451129
 30
0.0
 10
50.014084
 20
67.451129
 30
0.0
  0
SPLINE
  5
369
100
AcDbEntity
  8
0
 62
7
100
AcDbSpline
 70
8
 71
3
 72
8
 73
4
 74
0
 40
0
 40
0
 40
0
 40
0
 40
1
 40
1
 40
1
 40
1
 10
50.014084
 20
67.451129
 30
0.0
 10
49.876570
 20
67.451129
 30
0.0
 10
50.056992
 20
68.135738
 30
0.0
 10
50.415018
 20
68.972483
 30
0.0
  0
LWPOLYLINE
  5
36a
100
AcDbEntity
  8
0
 62
7
100
AcDbPolyline
 90
3
 70
0
 10
51.184657
 20
68.377170
 30
0.0
 10
51.602367
 20
69.435504
 30
0.0
 10
50.934551
 20
68.641754
 30
0.0
  0
SPLINE
  5
36b
100
AcDbEntity
  8
0
 62
7
100
AcDbSpline
 70
8
 71
3
 72
8
 73
4
 74
0
 40
0
 40
0
 40
0
 40
0
 40
1
 40
1
 40
1
 40
1
 10
49.876734
 20
69.170920
 30
0.0
 10
49.222649
 20
68.443316
 30
0.0
 10
48.685043
 20
67.654186
 30
0.0
 10
48.682050
 20
67.417294
 30
0.0
  0
SPLINE
  5
36c
100
AcDbEntity
  8
0
 62
7
100
AcDbSpline
 70
8
 71
3
 72
8
 73
4
 74
0
 40
0
 40
0
 40
0
 40
0
 40
1
 40
1
 40
1
 40
1
 10
48.682050
 20
67.417294
 30
0.0
 10
48.672287
 20
66.644200
 30
0.0
 10
47.944371
 20
65.216360
 30
0.0
 10
47.215568
 20
64.540712
 30
0.0
  0
SPLINE
  5
36d
100
AcDbEntity
  8
0
 62
7
100
AcDbSpline
 70
8
 71
3
 72
8
 73
4
 74
0
 40
0
 40
0
 40
0
 40
0
 40
1
 40
1
 40
1
 40
1
 10
47.215568
 20
64.540712
 30
0.0
 10
46.823146
 20
64.176910
 30
0.0
 10
46.396410
 20
63.641129
 30
0.0
 10
46.267267
 20
63.350087
 30
0.0
  0
SPLINE
  5
36e
100
AcDbEntity
  8
0
 62
7
100
AcDbSpline
 70
8
 71
3
 72
8
 73
4
 74
0
 40
0
 40
0
 40
0
 40
0
 40
1
 40
1
 40
1
 40
1
 10
46.267267
 20
63.350087
 30
0.0
 10
46.091930
 20
62.954945
 30
0.0
 10
46.058299
 20
63.071563
 30
0.0
 10
46.134480
 20
63.810536
 30
0.0
  0
SPLINE
  5
36f
100
AcDbEntity
  8
0
 62
7
100
AcDbSpline
 70
8
 71
3
 72
8
 73
4
 74
0
 40
0
 40
0
 40
0
 40
0
 40
1
 40
1
 40
1
 40
1
 10
46.134480
 20
63.810536
 30
0.0
 10
46.205315
 20
64.497633
 30
0.0
 10
46.144402
 20
64.747455
 30
0.0
 10
45.935202
 20
64.627768
 30
0.0
  0
SPLINE
  5
370
100
AcDbEntity
  8
0
 62
7
100
AcDbSpline
 70
8
 71
3
 72
8
 73
4
 74
0
 40
0
 40
0
 40
0
 40
0
 40
1
 40
1
 40
1
 40
1
 10
45.935202
 20
64.627768
 30
0.0
 10
45.769485
 20
64.532957
 30
0.0
 10
45.930042
 20
64.780231
 30
0.0
 10
46.292016
 20
65.177265
 30
0.0
  0
SPLINE
  5
371
100
AcDbEntity
  8
0
 62
7
100
AcDbSpline
 70
8
 71
3
 72
8
 73
4
 74
0
 40
0
 40
0
 40
0
 40
0
 40
1
 40
1
 40
1
 40
1
 10
46.292016
 20
65.177265
 30
0.0
 10
46.653979
 20
65.574299
 30
0.0
 10
46.955350
 20
66.039984
 30
0.0
 10
46.961729
 20
66.212117
 30
0.0
  0
SPLINE
  5
372
100
AcDbEntity
  8
0
 62
7
100
AcDbSpline
 70
8
 71
3
 72
8
 73
4
 74
0
 40
0
 40
0
 40
0
 40
0
 40
1
 40
1
 40
1
 40
1
 10
46.961729
 20
66.212117
 30
0.0
 10
46.968106
 20
66.384249
 30
0.0
 10
47.177973
 20
66.986113
 30
0.0
 10
47.428094
 20
67.549586
 30
0.0
  0
SPLINE
  5
373
100
AcDbEntity
  8
0
 62
7
100
AcDbSpline
 70
8
 71
3
 72
8
 73
4
 74
0
 40
0
 40
0
 40
0
 40
0
 40
1
 40
1
 40
1
 40
1
 10
47.428094
 20
67.549586
 30
0.0
 10
48.260857
 20
69.425651
 30
0.0
 10
47.983786
 20
70.890712
 30
0.0
 10
46.796217
 20
70.890712
 30
0.0
  0
SPLINE
  5
374
100
AcDbEntity
  8
0
 62
7
100
AcDbSpline
 70
8
 71
3
 72
8
 73
4
 74
0
 40
0
 40
0
 40
0
 40
0
 40
1
 40
1
 40
1
 40
1
 10
46.796217
 20
70.890712
 30
0.0
 10
45.863682
 20
70.890712
 30
0.0
 10
45.816475
 20
71.218605
 30
0.0
 10
46.668621
 20
71.776952
 30
0.0
  0
SPLINE
  5
375
100
AcDbEntity
  8
0
 62
7
100
AcDbSpline
 70
8
 71
3
 72
8
 73
4
 74
0
 40
0
 40
0
 40
0
 40
0
 40
1
 40
1
 40
1
 40
1
 10
46.668621
 20
71.776952
 30
0.0
 10
47.588181
 20
72.379472
 30
0.0
 10
47.969017
 20
73.807503
 30
0.0
 10
47.821821
 20
76.101141
 30
0.0
  0
SPLINE
  5
376
100
AcDbEntity
  8
0
 62
7
100
AcDbSpline
 70
8
 71
3
 72
8
 73
4
 74
0
 40
0
 40
0
 40
0
 40
0
 40
1
 40
1
 40
1
 40
1
 10
47.821821
 20
76.101141
 30
0.0
 10
47.728606
 20
77.553622
 30
0.0
 10
47.548136
 20
78.263930
 30
0.0
 10
47.127893
 20
78.832340
 30
0.0
  0
SPLINE
  5
377
100
AcDbEntity
  8
0
 62
7
100
AcDbSpline
 70
8
 71
3
 72
8
 73
4
 74
0
 40
0
 40
0
 40
0
 40
0
 40
1
 40
1
 40
1
 40
1
 10
47.127893
 20
78.832340
 30
0.0
 10
46.815518
 20
79.254847
 30
0.0
 10
46.559941
 20
79.668725
 30
0.0
 10
46.559941
 20
79.752066
 30
0.0
  0
SPLINE
  5
378
100
AcDbEntity
  8
0
 62
7
100
AcDbSpline
 70
8
 71
3
 72
8
 73
4
 74
0
 40
0
 40
0
 40
0
 40
0
 40
1
 40
1
 40
1
 40
1
 10
46.559941
 20
79.752066
 30
0.0
 10
46.559941
 20
80.035874
 30
0.0
 10
47.749534
 20
80.355596
 30
0.0
 10
48.015149
 20
80.143175
 30
0.0
  0
SPLINE
  5
379
100
AcDbEntity
  8
0
 62
7
100
AcDbSpline
 70
8
 71
3
 72
8
 73
4
 74
0
 40
0
 40
0
 40
0
 40
0
 40
1
 40
1
 40
1
 40
1
 10
48.015149
 20
80.143175
 30
0.0
 10
48.170227
 20
80.019157
 30
0.0
 10
48.261863
 20
78.580832
 30
0.0
 10
48.236553
 20
76.667918
 30
0.0
  0
SPLINE
  5
37a
100
AcDbEntity
  8
0
 62
7
100
AcDbSpline
 70
8
 71
3
 72
8
 73
4
 74
0
 40
0
 40
0
 40
0
 40
0
 40
1
 40
1
 40
1
 40
1
 10
48.236553
 20
76.667918
 30
0.0
 10
48.186409
 20
72.877833
 30
0.0
 10
48.514368
 20
70.626129
 30
0.0
 10
49.116541
 20
70.626129
 30
0.0
  0
SPLINE
  5
37b
100
AcDbEntity
  8
0
 62
7
100
AcDbSpline
 70
8
 71
3
 72
8
 73
4
 74
0
 40
0
 40
0
 40
0
 40
0
 40
1
 40
1
 40
1
 40
1
 10
49.116541
 20
70.626129
 30
0.0
 10
49.337868
 20
70.626129
 30
0.0
 10
49.835443
 20
70.868434
 30
0.0
 10
50.222261
 20
71.164588
 30
0.0
  0
SPLINE
  5
37c
100
AcDbEntity
  8
0
 62
7
100
AcDbSpline
 70
8
 71
3
 72
8
 73
4
 74
0
 40
0
 40
0
 40
0
 40
0
 40
1
 40
1
 40
1
 40
1
 10
50.222261
 20
71.164588
 30
0.0
 10
54.501566
 20
74.440870
 30
0.0
 10
55.687031
 20
75.885889
 30
0.0
 10
55.470798
 20
77.562287
 30
0.0
  0
SPLINE
  5
37d
100
AcDbEntity
  8
0
 62
7
100
AcDbSpline
 70
8
 71
3
 72
8
 73
4
 74
0
 40
0
 40
0
 40
0
 40
0
 40
1
 40
1
 40
1
 40
1
 10
55.470798
 20
77.562287
 30
0.0
 10
55.343163
 20
78.551807
 30
0.0
 10
54.621798
 20
79.696590
 30
0.0
 10
53.734115
 20
80.318348
 30
0.0
  0
SPLINE
  5
37e
100
AcDbEntity
  8
0
 62
7
100
AcDbSpline
 70
8
 71
3
 72
8
 73
4
 74
0
 40
0
 40
0
 40
0
 40
0
 40
1
 40
1
 40
1
 40
1
 10
53.734115
 20
80.318348
 30
0.0
 10
53.470508
 20
80.502985
 30
0.0
 10
51.778247
 20
80.902336
 30
0.0
 10
49.973532
 20
81.205792
 30
0.0
  0
SPLINE
  5
37f
100
AcDbEntity
  8
0
 62
7
100
AcDbSpline
 70
8
 71
3
 72
8
 73
4
 74
0
 40
0
 40
0
 40
0
 40
0
 40
1
 40
1
 40
1
 40
1
 10
49.973532
 20
81.205792
 30
0.0
 10
48.168817
 20
81.509248
 30
0.0
 10
46.114134
 20
81.945610
 30
0.0
 10
45.407567
 20
82.175485
 30
0.0
  0
SPLINE
  5
380
100
AcDbEntity
  8
0
 62
7
100
AcDbSpline
 70
8
 71
3
 72
8
 73
4
 74
0
 40
0
 40
0
 40
0
 40
0
 40
1
 40
1
 40
1
 40
1
 10
45.407567
 20
82.175485
 30
0.0
 10
43.582942
 20
82.769107
 30
0.0
 10
41.963411
 20
82.695727
 30
0.0
 10
39.359380
 20
81.901448
 30
0.0
  0
SPLINE
  5
381
100
AcDbEntity
  8
0
 62
7
100
AcDbSpline
 70
8
 71
3
 72
8
 73
4
 74
0
 40
0
 40
0
 40
0
 40
0
 40
1
 40
1
 40
1
 40
1
 10
39.359380
 20
81.901448
 30
0.0
 10
38.111610
 20
81.520856
 30
0.0
 10
36.631676
 20
81.206814
 30
0.0
 10
36.070638
 20
81.203578
 30
0.0
  0
SPLINE
  5
382
100
AcDbEntity
  8
0
 62
7
100
AcDbSpline
 70
8
 71
3
 72
8
 73
4
 74
0
 40
0
 40
0
 40
0
 40
0
 40
1
 40
1
 40
1
 40
1
 10
36.070638
 20
81.203578
 30
0.0
 10
35.467777
 20
81.200112
 30
0.0
 10
34.780030
 20
80.986077
 30
0.0
 10
34.389108
 20
80.680295
 30
0.0
  0
SPLINE
  5
383
100
AcDbEntity
  8
0
 62
7
100
AcDbSpline
 70
8
 71
3
 72
8
 73
4
 74
0
 40
0
 40
0
 40
0
 40
0
 40
1
 40
1
 40
1
 40
1
 10
34.389108
 20
80.680295
 30
0.0
 10
34.025306
 20
80.395725
 30
0.0
 10
33.860483
 20
80.160249
 30
0.0
 10
34.022837
 20
80.157013
 30
0.0
  0
SPLINE
  5
384
100
AcDbEntity
  8
0
 62
7
100
AcDbSpline
 70
8
 71
3
 72
8
 73
4
 74
0
 40
0
 40
0
 40
0
 40
0
 40
1
 40
1
 40
1
 40
1
 10
34.022837
 20
80.157013
 30
0.0
 10
34.217909
 20
80.153124
 30
0.0
 10
34.153771
 20
79.653244
 30
0.0
 10
33.833734
 20
78.683144
 30
0.0
  0
SPLINE
  5
385
100
AcDbEntity
  8
0
 62
7
100
AcDbSpline
 70
8
 71
3
 72
8
 73
4
 74
0
 40
0
 40
0
 40
0
 40
0
 40
1
 40
1
 40
1
 40
1
 10
33.833734
 20
78.683144
 30
0.0
 10
33.163825
 20
76.652512
 30
0.0
 10
32.809659
 20
73.826748
 30
0.0
 10
33.122367
 20
73.007379
 30
0.0
  0
SPLINE
  5
386
100
AcDbEntity
  8
0
 62
7
100
AcDbSpline
 70
8
 71
3
 72
8
 73
4
 74
0
 40
0
 40
0
 40
0
 40
0
 40
1
 40
1
 40
1
 40
1
 10
33.122367
 20
73.007379
 30
0.0
 10
33.261210
 20
72.643577
 30
0.0
 10
33.457491
 20
71.869670
 30
0.0
 10
33.558551
 20
71.287587
 30
0.0
  0
SPLINE
  5
387
100
AcDbEntity
  8
0
 62
7
100
AcDbSpline
 70
8
 71
3
 72
8
 73
4
 74
0
 40
0
 40
0
 40
0
 40
0
 40
1
 40
1
 40
1
 40
1
 10
33.558551
 20
71.287587
 30
0.0
 10
33.700029
 20
70.472700
 30
0.0
 10
33.862333
 20
70.229254
 30
0.0
 10
34.264140
 20
70.229254
 30
0.0
  0
SPLINE
  5
388
100
AcDbEntity
  8
0
 62
7
100
AcDbSpline
 70
8
 71
3
 72
8
 73
4
 74
0
 40
0
 40
0
 40
0
 40
0
 40
1
 40
1
 40
1
 40
1
 10
34.264140
 20
70.229254
 30
0.0
 10
34.845310
 20
70.229254
 30
0.0
 10
34.859629
 20
70.502359
 30
0.0
 10
34.508660
 20
74.892511
 30
0.0
  0
SPLINE
  5
389
100
AcDbEntity
  8
0
 62
7
100
AcDbSpline
 70
8
 71
3
 72
8
 73
4
 74
0
 40
0
 40
0
 40
0
 40
0
 40
1
 40
1
 40
1
 40
1
 10
34.508660
 20
74.892511
 30
0.0
 10
34.304139
 20
77.450754
 30
0.0
 10
34.566487
 20
78.635942
 30
0.0
 10
35.579164
 20
79.728637
 30
0.0
  0
SPLINE
  5
38a
100
AcDbEntity
  8
0
 62
7
100
AcDbSpline
 70
8
 71
3
 72
8
 73
4
 74
0
 40
0
 40
0
 40
0
 40
0
 40
1
 40
1
 40
1
 40
1
 10
35.579164
 20
79.728637
 30
0.0
 10
36.297957
 20
80.504228
 30
0.0
 10
36.838932
 20
80.637698
 30
0.0
 10
36.585356
 20
79.976882
 30
0.0
  0
SPLINE
  5
38b
100
AcDbEntity
  8
0
 62
7
100
AcDbSpline
 70
8
 71
3
 72
8
 73
4
 74
0
 40
0
 40
0
 40
0
 40
0
 40
1
 40
1
 40
1
 40
1
 10
36.585356
 20
79.976882
 30
0.0
 10
36.443134
 20
79.606262
 30
0.0
 10
36.547237
 20
79.564108
 30
0.0
 10
37.255117
 20
79.705684
 30
0.0
  0
SPLINE
  5
38c
100
AcDbEntity
  8
0
 62
7
100
AcDbSpline
 70
8
 71
3
 72
8
 73
4
 74
0
 40
0
 40
0
 40
0
 40
0
 40
1
 40
1
 40
1
 40
1
 10
37.255117
 20
79.705684
 30
0.0
 10
38.091922
 20
79.873046
 30
0.0
 10
38.093274
 20
79.871488
 30
0.0
 10
38.093274
 20
78.739876
 30
0.0
  0
SPLINE
  5
38d
100
AcDbEntity
  8
0
 62
7
100
AcDbSpline
 70
8
 71
3
 72
8
 73
4
 74
0
 40
0
 40
0
 40
0
 40
0
 40
1
 40
1
 40
1
 40
1
 10
38.093274
 20
78.739876
 30
0.0
 10
38.093274
 20
78.116483
 30
0.0
 10
37.943287
 20
77.401317
 30
0.0
 10
37.759973
 20
77.150619
 30
0.0
  0
SPLINE
  5
38e
100
AcDbEntity
  8
0
 62
7
100
AcDbSpline
 70
8
 71
3
 72
8
 73
4
 74
0
 40
0
 40
0
 40
0
 40
0
 40
1
 40
1
 40
1
 40
1
 10
37.759973
 20
77.150619
 30
0.0
 10
37.477523
 20
76.764343
 30
0.0
 10
37.441219
 20
76.877730
 30
0.0
 10
37.522031
 20
77.893799
 30
0.0
  0
SPLINE
  5
38f
100
AcDbEntity
  8
0
 62
7
100
AcDbSpline
 70
8
 71
3
 72
8
 73
4
 74
0
 40
0
 40
0
 40
0
 40
0
 40
1
 40
1
 40
1
 40
1
 10
37.522031
 20
77.893799
 30
0.0
 10
37.605586
 20
78.944359
 30
0.0
 10
37.552556
 20
79.092795
 30
0.0
 10
37.093681
 20
79.092795
 30
0.0
  0
SPLINE
  5
390
100
AcDbEntity
  8
0
 62
7
100
AcDbSpline
 70
8
 71
3
 72
8
 73
4
 74
0
 40
0
 40
0
 40
0
 40
0
 40
1
 40
1
 40
1
 40
1
 10
37.093681
 20
79.092795
 30
0.0
 10
36.767402
 20
79.092795
 30
0.0
 10
36.463221
 20
78.818502
 30
0.0
 10
36.286795
 20
78.365191
 30
0.0
  0
SPLINE
  5
391
100
AcDbEntity
  8
0
 62
7
100
AcDbSpline
 70
8
 71
3
 72
8
 73
4
 74
0
 40
0
 40
0
 40
0
 40
0
 40
1
 40
1
 40
1
 40
1
 10
36.286795
 20
78.365191
 30
0.0
 10
35.707884
 20
76.877722
 30
0.0
 10
35.380382
 20
75.415846
 30
0.0
 10
35.535500
 20
75.011616
 30
0.0
  0
SPLINE
  5
392
100
AcDbEntity
  8
0
 62
7
100
AcDbSpline
 70
8
 71
3
 72
8
 73
4
 74
0
 40
0
 40
0
 40
0
 40
0
 40
1
 40
1
 40
1
 40
1
 10
35.535500
 20
75.011616
 30
0.0
 10
35.757451
 20
74.433218
 30
0.0
 10
36.831106
 20
74.490675
 30
0.0
 10
37.636304
 20
75.124045
 30
0.0
  0
SPLINE
  5
393
100
AcDbEntity
  8
0
 62
7
100
AcDbSpline
 70
8
 71
3
 72
8
 73
4
 74
0
 40
0
 40
0
 40
0
 40
0
 40
1
 40
1
 40
1
 40
1
 10
37.636304
 20
75.124045
 30
0.0
 10
38.452145
 20
75.765784
 30
0.0
 10
38.580385
 20
75.773285
 30
0.0
 10
39.196920
 20
75.215329
 30
0.0
  0
SPLINE
  5
394
100
AcDbEntity
  8
0
 62
7
100
AcDbSpline
 70
8
 71
3
 72
8
 73
4
 74
0
 40
0
 40
0
 40
0
 40
0
 40
1
 40
1
 40
1
 40
1
 10
39.196920
 20
75.215329
 30
0.0
 10
39.827036
 20
74.645083
 30
0.0
 10
39.807814
 20
73.966049
 30
0.0
 10
39.121427
 20
72.548160
 30
0.0
  0
SPLINE
  5
395
100
AcDbEntity
  8
0
 62
7
100
AcDbSpline
 70
8
 71
3
 72
8
 73
4
 74
0
 40
0
 40
0
 40
0
 40
0
 40
1
 40
1
 40
1
 40
1
 10
39.121427
 20
72.548160
 30
0.0
 10
38.457121
 20
71.175883
 30
0.0
 10
37.980853
 20
71.159878
 30
0.0
 10
37.094496
 20
72.480043
 30
0.0
  0
SPLINE
  5
396
100
AcDbEntity
  8
0
 62
7
100
AcDbSpline
 70
8
 71
3
 72
8
 73
4
 74
0
 40
0
 40
0
 40
0
 40
0
 40
1
 40
1
 40
1
 40
1
 10
37.094496
 20
72.480043
 30
0.0
 10
36.753213
 20
72.988360
 30
0.0
 10
36.348797
 20
73.448368
 30
0.0
 10
36.195791
 20
73.502282
 30
0.0
  0
SPLINE
  5
397
100
AcDbEntity
  8
0
 62
7
100
AcDbSpline
 70
8
 71
3
 72
8
 73
4
 74
0
 40
0
 40
0
 40
0
 40
0
 40
1
 40
1
 40
1
 40
1
 10
36.195791
 20
73.502282
 30
0.0
 10
35.823485
 20
73.633476
 30
0.0
 10
36.077266
 20
71.608974
 30
0.0
 10
36.606080
 20
70.229254
 30
0.0
  0
SPLINE
  5
398
100
AcDbEntity
  8
0
 62
7
100
AcDbSpline
 70
8
 71
3
 72
8
 73
4
 74
0
 40
0
 40
0
 40
0
 40
0
 40
1
 40
1
 40
1
 40
1
 10
36.606080
 20
70.229254
 30
0.0
 10
37.096393
 20
68.949985
 30
0.0
 10
37.135721
 20
67.899693
 30
0.0
 10
36.734824
 20
66.791030
 30
0.0
  0
SPLINE
  5
399
100
AcDbEntity
  8
0
 62
7
100
AcDbSpline
 70
8
 71
3
 72
8
 73
4
 74
0
 40
0
 40
0
 40
0
 40
0
 40
1
 40
1
 40
1
 40
1
 10
36.734824
 20
66.791030
 30
0.0
 10
36.343997
 20
65.710223
 30
0.0
 10
37.017796
 20
64.190848
 30
0.0
 10
38.135110
 20
63.633456
 30
0.0
  0
SPLINE
  5
39a
100
AcDbEntity
  8
0
 62
7
100
AcDbSpline
 70
8
 71
3
 72
8
 73
4
 74
0
 40
0
 40
0
 40
0
 40
0
 40
1
 40
1
 40
1
 40
1
 10
38.135110
 20
63.633456
 30
0.0
 10
39.342065
 20
63.031349
 30
0.0
 10
43.894780
 20
63.293196
 30
0.0
 10
45.300617
 20
64.045579
 30
0.0
  0
SPLINE
  5
39b
100
AcDbEntity
  8
0
 62
7
100
AcDbSpline
 70
8
 71
3
 72
8
 73
4
 74
0
 40
0
 40
0
 40
0
 40
0
 40
1
 40
1
 40
1
 40
1
 10
45.300617
 20
64.045579
 30
0.0
 10
45.581610
 20
64.195963
 30
0.0
 10
45.878978
 20
64.251538
 30
0.0
 10
45.961432
 20
64.169081
 30
0.0
  0
SPLINE
  5
39c
100
AcDbEntity
  8
0
 62
7
100
AcDbSpline
 70
8
 71
3
 72
8
 73
4
 74
0
 40
0
 40
0
 40
0
 40
0
 40
1
 40
1
 40
1
 40
1
 10
45.961432
 20
64.169081
 30
0.0
 10
46.043890
 20
64.086624
 30
0.0
 10
45.408615
 20
63.690336
 30
0.0
 10
44.549711
 20
63.288442
 30
0.0
  0
SPLINE
  5
39d
100
AcDbEntity
  8
0
 62
7
100
AcDbSpline
 70
8
 71
3
 72
8
 73
4
 74
0
 40
0
 40
0
 40
0
 40
0
 40
1
 40
1
 40
1
 40
1
 10
44.549711
 20
63.288442
 30
0.0
 10
43.157489
 20
62.637001
 30
0.0
 10
42.708192
 20
62.561047
 30
0.0
 10
40.408378
 20
62.588341
 30
0.0
  0
LWPOLYLINE
  5
39e
100
AcDbEntity
  8
0
 62
7
100
AcDbPolyline
 90
3
 70
0
 10
50.415018
 20
68.972483
 30
0.0
 10
51.065975
 20
70.493837
 30
0.0
 10
49.876734
 20
69.170920
 30
0.0
  0
SPLINE
  5
39f
100
AcDbEntity
  8
0
 62
7
100
AcDbSpline
 70
8
 71
3
 72
8
 73
4
 74
0
 40
0
 40
0
 40
0
 40
0
 40
1
 40
1
 40
1
 40
1
 10
37.828691
 20
60.701873
 30
0.0
 10
37.828691
 20
59.647476
 30
0.0
 10
37.659786
 20
57.966512
 30
0.0
 10
37.453345
 20
56.966398
 30
0.0
  0
SPLINE
  5
3a0
100
AcDbEntity
  8
0
 62
7
100
AcDbSpline
 70
8
 71
3
 72
8
 73
4
 74
0
 40
0
 40
0
 40
0
 40
0
 40
1
 40
1
 40
1
 40
1
 10
37.453345
 20
56.966398
 30
0.0
 10
37.086500
 20
55.189183
 30
0.0
 10
36.581083
 20
51.808507
 30
0.0
 10
36.355875
 20
49.625568
 30
0.0
  0
SPLINE
  5
3a1
100
AcDbEntity
  8
0
 62
7
100
AcDbSpline
 70
8
 71
3
 72
8
 73
4
 74
0
 40
0
 40
0
 40
0
 40
0
 40
1
 40
1
 40
1
 40
1
 10
36.355875
 20
49.625568
 30
0.0
 10
35.806862
 20
44.303945
 30
0.0
 10
34.664280
 20
41.136758
 30
0.0
 10
32.755729
 20
39.646109
 30
0.0
  0
SPLINE
  5
3a2
100
AcDbEntity
  8
0
 62
7
100
AcDbSpline
 70
8
 71
3
 72
8
 73
4
 74
0
 40
0
 40
0
 40
0
 40
0
 40
1
 40
1
 40
1
 40
1
 10
32.755729
 20
39.646109
 30
0.0
 10
32.126118
 20
39.154359
 30
0.0
 10
31.465941
 20
38.571585
 30
0.0
 10
31.288667
 20
38.351053
 30
0.0
  0
SPLINE
  5
3a3
100
AcDbEntity
  8
0
 62
7
100
AcDbSpline
 70
8
 71
3
 72
8
 73
4
 74
0
 40
0
 40
0
 40
0
 40
0
 40
1
 40
1
 40
1
 40
1
 10
31.288667
 20
38.351053
 30
0.0
 10
30.889906
 20
37.854985
 30
0.0
 10
30.865707
 20
38.092060
 30
0.0
 10
31.219989
 20
39.023891
 30
0.0
  0
SPLINE
  5
3a4
100
AcDbEntity
  8
0
 62
7
100
AcDbSpline
 70
8
 71
3
 72
8
 73
4
 74
0
 40
0
 40
0
 40
0
 40
0
 40
1
 40
1
 40
1
 40
1
 10
31.219989
 20
39.023891
 30
0.0
 10
31.368743
 20
39.415146
 30
0.0
 10
31.801372
 20
39.979833
 30
0.0
 10
32.181379
 20
40.278748
 30
0.0
  0
SPLINE
  5
3a5
100
AcDbEntity
  8
0
 62
7
100
AcDbSpline
 70
8
 71
3
 72
8
 73
4
 74
0
 40
0
 40
0
 40
0
 40
0
 40
1
 40
1
 40
1
 40
1
 10
32.181379
 20
40.278748
 30
0.0
 10
33.441196
 20
41.269719
 30
0.0
 10
34.150406
 20
43.401610
 30
0.0
 10
34.307862
 20
46.670976
 30
0.0
  0
SPLINE
  5
3a6
100
AcDbEntity
  8
0
 62
7
100
AcDbSpline
 70
8
 71
3
 72
8
 73
4
 74
0
 40
0
 40
0
 40
0
 40
0
 40
1
 40
1
 40
1
 40
1
 10
34.307862
 20
46.670976
 30
0.0
 10
34.432184
 20
49.252338
 30
0.0
 10
34.537888
 20
49.753713
 30
0.0
 10
35.217455
 20
50.985465
 30
0.0
  0
SPLINE
  5
3a7
100
AcDbEntity
  8
0
 62
7
100
AcDbSpline
 70
8
 71
3
 72
8
 73
4
 74
0
 40
0
 40
0
 40
0
 40
0
 40
1
 40
1
 40
1
 40
1
 10
35.217455
 20
50.985465
 30
0.0
 10
36.270380
 20
52.893944
 30
0.0
 10
36.876670
 20
55.551234
 30
0.0
 10
36.465222
 20
56.454265
 30
0.0
  0
SPLINE
  5
3a8
100
AcDbEntity
  8
0
 62
7
100
AcDbSpline
 70
8
 71
3
 72
8
 73
4
 74
0
 40
0
 40
0
 40
0
 40
0
 40
1
 40
1
 40
1
 40
1
 10
36.465222
 20
56.454265
 30
0.0
 10
36.295288
 20
56.827227
 30
0.0
 10
36.038798
 20
57.132379
 30
0.0
 10
35.895243
 20
57.132379
 30
0.0
  0
SPLINE
  5
3a9
100
AcDbEntity
  8
0
 62
7
100
AcDbSpline
 70
8
 71
3
 72
8
 73
4
 74
0
 40
0
 40
0
 40
0
 40
0
 40
1
 40
1
 40
1
 40
1
 10
35.895243
 20
57.132379
 30
0.0
 10
35.587413
 20
57.132379
 30
0.0
 10
33.396534
 20
55.384827
 30
0.0
 10
32.746577
 20
54.620851
 30
0.0
  0
SPLINE
  5
3aa
100
AcDbEntity
  8
0
 62
7
100
AcDbSpline
 70
8
 71
3
 72
8
 73
4
 74
0
 40
0
 40
0
 40
0
 40
0
 40
1
 40
1
 40
1
 40
1
 10
32.746577
 20
54.620851
 30
0.0
 10
32.498030
 20
54.328700
 30
0.0
 10
31.913494
 20
53.382532
 30
0.0
 10
31.447608
 20
52.518252
 30
0.0
  0
SPLINE
  5
3ab
100
AcDbEntity
  8
0
 62
7
100
AcDbSpline
 70
8
 71
3
 72
8
 73
4
 74
0
 40
0
 40
0
 40
0
 40
0
 40
1
 40
1
 40
1
 40
1
 10
31.447608
 20
52.518252
 30
0.0
 10
30.771790
 20
51.264521
 30
0.0
 10
30.604262
 20
50.649386
 30
0.0
 10
30.618943
 20
49.475543
 30
0.0
  0
SPLINE
  5
3ac
100
AcDbEntity
  8
0
 62
7
100
AcDbSpline
 70
8
 71
3
 72
8
 73
4
 74
0
 40
0
 40
0
 40
0
 40
0
 40
1
 40
1
 40
1
 40
1
 10
30.618943
 20
49.475543
 30
0.0
 10
30.654032
 20
46.669865
 30
0.0
 10
31.719755
 20
45.373062
 30
0.0
 10
31.773701
 20
48.070400
 30
0.0
  0
SPLINE
  5
3ad
100
AcDbEntity
  8
0
 62
7
100
AcDbSpline
 70
8
 71
3
 72
8
 73
4
 74
0
 40
0
 40
0
 40
0
 40
0
 40
1
 40
1
 40
1
 40
1
 10
31.773701
 20
48.070400
 30
0.0
 10
31.802414
 20
49.506010
 30
0.0
 10
31.815220
 20
49.534344
 30
0.0
 10
32.000933
 20
48.573124
 30
0.0
  0
SPLINE
  5
3ae
100
AcDbEntity
  8
0
 62
7
100
AcDbSpline
 70
8
 71
3
 72
8
 73
4
 74
0
 40
0
 40
0
 40
0
 40
0
 40
1
 40
1
 40
1
 40
1
 10
32.000933
 20
48.573124
 30
0.0
 10
32.109175
 20
48.012877
 30
0.0
 10
32.157924
 20
47.084914
 30
0.0
 10
32.109267
 20
46.510985
 30
0.0
  0
SPLINE
  5
3af
100
AcDbEntity
  8
0
 62
7
100
AcDbSpline
 70
8
 71
3
 72
8
 73
4
 74
0
 40
0
 40
0
 40
0
 40
0
 40
1
 40
1
 40
1
 40
1
 10
32.109267
 20
46.510985
 30
0.0
 10
32.055726
 20
45.879478
 30
0.0
 10
32.122708
 20
45.530460
 30
0.0
 10
32.278910
 20
45.627002
 30
0.0
  0
SPLINE
  5
3b0
100
AcDbEntity
  8
0
 62
7
100
AcDbSpline
 70
8
 71
3
 72
8
 73
4
 74
0
 40
0
 40
0
 40
0
 40
0
 40
1
 40
1
 40
1
 40
1
 10
32.278910
 20
45.627002
 30
0.0
 10
32.888679
 20
46.003861
 30
0.0
 10
32.460726
 20
45.270603
 30
0.0
 10
31.593494
 20
44.452606
 30
0.0
  0
SPLINE
  5
3b1
100
AcDbEntity
  8
0
 62
7
100
AcDbSpline
 70
8
 71
3
 72
8
 73
4
 74
0
 40
0
 40
0
 40
0
 40
0
 40
1
 40
1
 40
1
 40
1
 10
31.593494
 20
44.452606
 30
0.0
 10
30.803559
 20
43.707521
 30
0.0
 10
30.661263
 20
43.406110
 30
0.0
 10
30.719390
 20
42.601076
 30
0.0
  0
SPLINE
  5
3b2
100
AcDbEntity
  8
0
 62
7
100
AcDbSpline
 70
8
 71
3
 72
8
 73
4
 74
0
 40
0
 40
0
 40
0
 40
0
 40
1
 40
1
 40
1
 40
1
 10
30.719390
 20
42.601076
 30
0.0
 10
30.793142
 20
41.579610
 30
0.0
 10
30.569731
 20
40.992795
 30
0.0
 10
30.107086
 20
40.992795
 30
0.0
  0
SPLINE
  5
3b3
100
AcDbEntity
  8
0
 62
7
100
AcDbSpline
 70
8
 71
3
 72
8
 73
4
 74
0
 40
0
 40
0
 40
0
 40
0
 40
1
 40
1
 40
1
 40
1
 10
30.107086
 20
40.992795
 30
0.0
 10
29.934818
 20
40.992795
 30
0.0
 10
29.886833
 20
41.301731
 30
0.0
 10
29.983795
 20
41.786545
 30
0.0
  0
SPLINE
  5
3b4
100
AcDbEntity
  8
0
 62
7
100
AcDbSpline
 70
8
 71
3
 72
8
 73
4
 74
0
 40
0
 40
0
 40
0
 40
0
 40
1
 40
1
 40
1
 40
1
 10
29.983795
 20
41.786545
 30
0.0
 10
30.135856
 20
42.546857
 30
0.0
 10
29.836912
 20
42.870041
 30
0.0
 10
29.494316
 20
42.315712
 30
0.0
  0
SPLINE
  5
3b5
100
AcDbEntity
  8
0
 62
7
100
AcDbSpline
 70
8
 71
3
 72
8
 73
4
 74
0
 40
0
 40
0
 40
0
 40
0
 40
1
 40
1
 40
1
 40
1
 10
29.494316
 20
42.315712
 30
0.0
 10
29.163417
 20
41.780307
 30
0.0
 10
28.777126
 20
42.057635
 30
0.0
 10
28.941506
 20
42.712587
 30
0.0
  0
SPLINE
  5
3b6
100
AcDbEntity
  8
0
 62
7
100
AcDbSpline
 70
8
 71
3
 72
8
 73
4
 74
0
 40
0
 40
0
 40
0
 40
0
 40
1
 40
1
 40
1
 40
1
 10
28.941506
 20
42.712587
 30
0.0
 10
29.218324
 20
43.815508
 30
0.0
 10
28.697743
 20
43.456368
 30
0.0
 10
27.886835
 20
41.984983
 30
0.0
  0
SPLINE
  5
3b7
100
AcDbEntity
  8
0
 62
7
100
AcDbSpline
 70
8
 71
3
 72
8
 73
4
 74
0
 40
0
 40
0
 40
0
 40
0
 40
1
 40
1
 40
1
 40
1
 10
27.886835
 20
41.984983
 30
0.0
 10
27.241119
 20
40.813342
 30
0.0
 10
27.127536
 20
40.323344
 30
0.0
 10
27.161175
 20
38.854496
 30
0.0
  0
SPLINE
  5
3b8
100
AcDbEntity
  8
0
 62
7
100
AcDbSpline
 70
8
 71
3
 72
8
 73
4
 74
0
 40
0
 40
0
 40
0
 40
0
 40
1
 40
1
 40
1
 40
1
 10
27.161175
 20
38.854496
 30
0.0
 10
27.204350
 20
36.969338
 30
0.0
 10
27.795286
 20
35.171962
 30
0.0
 10
28.371911
 20
35.171962
 30
0.0
  0
SPLINE
  5
3b9
100
AcDbEntity
  8
0
 62
7
100
AcDbSpline
 70
8
 71
3
 72
8
 73
4
 74
0
 40
0
 40
0
 40
0
 40
0
 40
1
 40
1
 40
1
 40
1
 10
28.371911
 20
35.171962
 30
0.0
 10
29.058201
 20
35.171962
 30
0.0
 10
29.588412
 20
35.839442
 30
0.0
 10
29.843111
 20
37.024045
 30
0.0
  0
SPLINE
  5
3ba
100
AcDbEntity
  8
0
 62
7
100
AcDbSpline
 70
8
 71
3
 72
8
 73
4
 74
0
 40
0
 40
0
 40
0
 40
0
 40
1
 40
1
 40
1
 40
1
 10
29.843111
 20
37.024045
 30
0.0
 10
30.068660
 20
38.073079
 30
0.0
 10
30.102474
 20
38.114983
 30
0.0
 10
30.127440
 20
37.376415
 30
0.0
  0
SPLINE
  5
3bb
100
AcDbEntity
  8
0
 62
7
100
AcDbSpline
 70
8
 71
3
 72
8
 73
4
 74
0
 40
0
 40
0
 40
0
 40
0
 40
1
 40
1
 40
1
 40
1
 10
30.127440
 20
37.376415
 30
0.0
 10
30.165625
 20
36.246774
 30
0.0
 10
30.401152
 20
35.701129
 30
0.0
 10
30.850581
 20
35.701129
 30
0.0
  0
SPLINE
  5
3bc
100
AcDbEntity
  8
0
 62
7
100
AcDbSpline
 70
8
 71
3
 72
8
 73
4
 74
0
 40
0
 40
0
 40
0
 40
0
 40
1
 40
1
 40
1
 40
1
 10
30.850581
 20
35.701129
 30
0.0
 10
31.109444
 20
35.701129
 30
0.0
 10
31.176786
 20
35.889996
 30
0.0
 10
31.069849
 20
36.316073
 30
0.0
  0
SPLINE
  5
3bd
100
AcDbEntity
  8
0
 62
7
100
AcDbSpline
 70
8
 71
3
 72
8
 73
4
 74
0
 40
0
 40
0
 40
0
 40
0
 40
1
 40
1
 40
1
 40
1
 10
31.069849
 20
36.316073
 30
0.0
 10
30.975795
 20
36.690813
 30
0.0
 10
31.063023
 20
37.053443
 30
0.0
 10
31.293141
 20
37.244430
 30
0.0
  0
SPLINE
  5
3be
100
AcDbEntity
  8
0
 62
7
100
AcDbSpline
 70
8
 71
3
 72
8
 73
4
 74
0
 40
0
 40
0
 40
0
 40
0
 40
1
 40
1
 40
1
 40
1
 10
31.293141
 20
37.244430
 30
0.0
 10
31.608609
 20
37.506243
 30
0.0
 10
31.647945
 20
37.437674
 30
0.0
 10
31.532084
 20
36.827920
 30
0.0
  0
SPLINE
  5
3bf
100
AcDbEntity
  8
0
 62
7
100
AcDbSpline
 70
8
 71
3
 72
8
 73
4
 74
0
 40
0
 40
0
 40
0
 40
0
 40
1
 40
1
 40
1
 40
1
 10
31.532084
 20
36.827920
 30
0.0
 10
31.410862
 20
36.189946
 30
0.0
 10
31.445531
 20
36.141070
 30
0.0
 10
31.807333
 20
36.439898
 30
0.0
  0
SPLINE
  5
3c0
100
AcDbEntity
  8
0
 62
7
100
AcDbSpline
 70
8
 71
3
 72
8
 73
4
 74
0
 40
0
 40
0
 40
0
 40
0
 40
1
 40
1
 40
1
 40
1
 10
31.807333
 20
36.439898
 30
0.0
 10
32.168409
 20
36.738129
 30
0.0
 10
32.214143
 20
36.678780
 30
0.0
 10
32.165433
 20
35.975192
 30
0.0
  0
SPLINE
  5
3c1
100
AcDbEntity
  8
0
 62
7
100
AcDbSpline
 70
8
 71
3
 72
8
 73
4
 74
0
 40
0
 40
0
 40
0
 40
0
 40
1
 40
1
 40
1
 40
1
 10
32.165433
 20
35.975192
 30
0.0
 10
32.118591
 20
35.298602
 30
0.0
 10
32.188716
 20
35.193708
 30
0.0
 10
32.600588
 20
35.324428
 30
0.0
  0
SPLINE
  5
3c2
100
AcDbEntity
  8
0
 62
7
100
AcDbSpline
 70
8
 71
3
 72
8
 73
4
 74
0
 40
0
 40
0
 40
0
 40
0
 40
1
 40
1
 40
1
 40
1
 10
32.600588
 20
35.324428
 30
0.0
 10
32.870635
 20
35.410137
 30
0.0
 10
33.273540
 20
35.329244
 30
0.0
 10
33.495927
 20
35.144689
 30
0.0
  0
SPLINE
  5
3c3
100
AcDbEntity
  8
0
 62
7
100
AcDbSpline
 70
8
 71
3
 72
8
 73
4
 74
0
 40
0
 40
0
 40
0
 40
0
 40
1
 40
1
 40
1
 40
1
 10
33.495927
 20
35.144689
 30
0.0
 10
33.825288
 20
34.871345
 30
0.0
 10
33.944478
 20
34.879558
 30
0.0
 10
34.138650
 20
35.188975
 30
0.0
  0
SPLINE
  5
3c4
100
AcDbEntity
  8
0
 62
7
100
AcDbSpline
 70
8
 71
3
 72
8
 73
4
 74
0
 40
0
 40
0
 40
0
 40
0
 40
1
 40
1
 40
1
 40
1
 10
34.138650
 20
35.188975
 30
0.0
 10
34.269757
 20
35.397900
 30
0.0
 10
34.317527
 20
35.760387
 30
0.0
 10
34.244801
 20
35.994504
 30
0.0
  0
SPLINE
  5
3c5
100
AcDbEntity
  8
0
 62
7
100
AcDbSpline
 70
8
 71
3
 72
8
 73
4
 74
0
 40
0
 40
0
 40
0
 40
0
 40
1
 40
1
 40
1
 40
1
 10
34.244801
 20
35.994504
 30
0.0
 10
34.172078
 20
36.228621
 30
0.0
 10
34.293858
 20
36.570621
 30
0.0
 10
34.515425
 20
36.754504
 30
0.0
  0
SPLINE
  5
3c6
100
AcDbEntity
  8
0
 62
7
100
AcDbSpline
 70
8
 71
3
 72
8
 73
4
 74
0
 40
0
 40
0
 40
0
 40
0
 40
1
 40
1
 40
1
 40
1
 10
34.515425
 20
36.754504
 30
0.0
 10
34.736992
 20
36.938389
 30
0.0
 10
34.918274
 20
37.259882
 30
0.0
 10
34.918274
 20
37.468932
 30
0.0
  0
SPLINE
  5
3c7
100
AcDbEntity
  8
0
 62
7
100
AcDbSpline
 70
8
 71
3
 72
8
 73
4
 74
0
 40
0
 40
0
 40
0
 40
0
 40
1
 40
1
 40
1
 40
1
 10
34.918274
 20
37.468932
 30
0.0
 10
34.918274
 20
37.677984
 30
0.0
 10
35.028566
 20
37.780862
 30
0.0
 10
35.163366
 20
37.697550
 30
0.0
  0
SPLINE
  5
3c8
100
AcDbEntity
  8
0
 62
7
100
AcDbSpline
 70
8
 71
3
 72
8
 73
4
 74
0
 40
0
 40
0
 40
0
 40
0
 40
1
 40
1
 40
1
 40
1
 10
35.163366
 20
37.697550
 30
0.0
 10
35.313763
 20
37.604599
 30
0.0
 10
35.313763
 20
37.215905
 30
0.0
 10
35.163366
 20
36.691496
 30
0.0
  0
SPLINE
  5
3c9
100
AcDbEntity
  8
0
 62
7
100
AcDbSpline
 70
8
 71
3
 72
8
 73
4
 74
0
 40
0
 40
0
 40
0
 40
0
 40
1
 40
1
 40
1
 40
1
 10
35.163366
 20
36.691496
 30
0.0
 10
35.028566
 20
36.221474
 30
0.0
 10
34.918274
 20
35.802393
 30
0.0
 10
34.918274
 20
35.760202
 30
0.0
  0
SPLINE
  5
3ca
100
AcDbEntity
  8
0
 62
7
100
AcDbSpline
 70
8
 71
3
 72
8
 73
4
 74
0
 40
0
 40
0
 40
0
 40
0
 40
1
 40
1
 40
1
 40
1
 10
34.918274
 20
35.760202
 30
0.0
 10
34.918274
 20
35.718009
 30
0.0
 10
35.334993
 20
36.100208
 30
0.0
 10
35.844316
 20
36.609531
 30
0.0
  0
SPLINE
  5
3cb
100
AcDbEntity
  8
0
 62
7
100
AcDbSpline
 70
8
 71
3
 72
8
 73
4
 74
0
 40
0
 40
0
 40
0
 40
0
 40
1
 40
1
 40
1
 40
1
 10
35.844316
 20
36.609531
 30
0.0
 10
36.353639
 20
37.118854
 30
0.0
 10
36.770358
 20
37.769387
 30
0.0
 10
36.770358
 20
38.055158
 30
0.0
  0
SPLINE
  5
3cc
100
AcDbEntity
  8
0
 62
7
100
AcDbSpline
 70
8
 71
3
 72
8
 73
4
 74
0
 40
0
 40
0
 40
0
 40
0
 40
1
 40
1
 40
1
 40
1
 10
36.770358
 20
38.055158
 30
0.0
 10
36.770358
 20
38.379649
 30
0.0
 10
36.978863
 20
38.606487
 30
0.0
 10
37.325665
 20
38.659289
 30
0.0
  0
SPLINE
  5
3cd
100
AcDbEntity
  8
0
 62
7
100
AcDbSpline
 70
8
 71
3
 72
8
 73
4
 74
0
 40
0
 40
0
 40
0
 40
0
 40
1
 40
1
 40
1
 40
1
 10
37.325665
 20
38.659289
 30
0.0
 10
37.758317
 20
38.725163
 30
0.0
 10
38.110499
 20
39.323645
 30
0.0
 10
38.920110
 20
41.368840
 30
0.0
  0
SPLINE
  5
3ce
100
AcDbEntity
  8
0
 62
7
100
AcDbSpline
 70
8
 71
3
 72
8
 73
4
 74
0
 40
0
 40
0
 40
0
 40
0
 40
1
 40
1
 40
1
 40
1
 10
38.920110
 20
41.368840
 30
0.0
 10
39.977306
 20
44.039467
 30
0.0
 10
40.188327
 20
45.543904
 30
0.0
 10
39.201373
 20
43.374045
 30
0.0
  0
SPLINE
  5
3cf
100
AcDbEntity
  8
0
 62
7
100
AcDbSpline
 70
8
 71
3
 72
8
 73
4
 74
0
 40
0
 40
0
 40
0
 40
0
 40
1
 40
1
 40
1
 40
1
 10
39.201373
 20
43.374045
 30
0.0
 10
38.504678
 20
41.842333
 30
0.0
 10
38.488903
 20
42.241332
 30
0.0
 10
39.151608
 20
44.632785
 30
0.0
  0
SPLINE
  5
3d0
100
AcDbEntity
  8
0
 62
7
100
AcDbSpline
 70
8
 71
3
 72
8
 73
4
 74
0
 40
0
 40
0
 40
0
 40
0
 40
1
 40
1
 40
1
 40
1
 10
39.151608
 20
44.632785
 30
0.0
 10
39.442649
 20
45.683043
 30
0.0
 10
39.676813
 20
46.871276
 30
0.0
 10
39.671972
 20
47.273300
 30
0.0
  0
LWPOLYLINE
  5
3d1
100
AcDbEntity
  8
0
 62
7
100
AcDbPolyline
 90
3
 70
0
 10
40.408378
 20
62.588341
 30
0.0
 10
37.828691
 20
62.618959
 30
0.0
 10
37.828691
 20
60.701873
 30
0.0
  0
SPLINE
  5
3d2
100
AcDbEntity
  8
0
 62
7
100
AcDbSpline
 70
8
 71
3
 72
8
 73
4
 74
0
 40
0
 40
0
 40
0
 40
0
 40
1
 40
1
 40
1
 40
1
 10
38.624550
 20
47.379631
 30
0.0
 10
38.627196
 20
48.136559
 30
0.0
 10
39.881130
 20
54.245920
 30
0.0
 10
40.073432
 20
54.438222
 30
0.0
  0
SPLINE
  5
3d3
100
AcDbEntity
  8
0
 62
7
100
AcDbSpline
 70
8
 71
3
 72
8
 73
4
 74
0
 40
0
 40
0
 40
0
 40
0
 40
1
 40
1
 40
1
 40
1
 10
40.073432
 20
54.438222
 30
0.0
 10
40.148518
 20
54.513305
 30
0.0
 10
40.209952
 20
54.428803
 30
0.0
 10
40.209952
 20
54.250444
 30
0.0
  0
SPLINE
  5
3d4
100
AcDbEntity
  8
0
 62
7
100
AcDbSpline
 70
8
 71
3
 72
8
 73
4
 74
0
 40
0
 40
0
 40
0
 40
0
 40
1
 40
1
 40
1
 40
1
 10
40.209952
 20
54.250444
 30
0.0
 10
40.209952
 20
54.072081
 30
0.0
 10
40.327651
 20
53.998892
 30
0.0
 10
40.471505
 20
54.087797
 30
0.0
  0
SPLINE
  5
3d5
100
AcDbEntity
  8
0
 62
7
100
AcDbSpline
 70
8
 71
3
 72
8
 73
4
 74
0
 40
0
 40
0
 40
0
 40
0
 40
1
 40
1
 40
1
 40
1
 10
40.471505
 20
54.087797
 30
0.0
 10
40.621487
 20
54.180491
 30
0.0
 10
40.665842
 20
54.074277
 30
0.0
 10
40.575489
 20
53.838830
 30
0.0
  0
SPLINE
  5
3d6
100
AcDbEntity
  8
0
 62
7
100
AcDbSpline
 70
8
 71
3
 72
8
 73
4
 74
0
 40
0
 40
0
 40
0
 40
0
 40
1
 40
1
 40
1
 40
1
 10
40.575489
 20
53.838830
 30
0.0
 10
40.488825
 20
53.612989
 30
0.0
 10
40.539800
 20
53.428212
 30
0.0
 10
40.688763
 20
53.428212
 30
0.0
  0
SPLINE
  5
3d7
100
AcDbEntity
  8
0
 62
7
100
AcDbSpline
 70
8
 71
3
 72
8
 73
4
 74
0
 40
0
 40
0
 40
0
 40
0
 40
1
 40
1
 40
1
 40
1
 10
40.688763
 20
53.428212
 30
0.0
 10
40.837726
 20
53.428212
 30
0.0
 10
41.005043
 20
53.564525
 30
0.0
 10
41.060579
 20
53.731134
 30
0.0
  0
SPLINE
  5
3d8
100
AcDbEntity
  8
0
 62
7
100
AcDbSpline
 70
8
 71
3
 72
8
 73
4
 74
0
 40
0
 40
0
 40
0
 40
0
 40
1
 40
1
 40
1
 40
1
 10
41.060579
 20
53.731134
 30
0.0
 10
41.116112
 20
53.897739
 30
0.0
 10
41.315076
 20
53.521639
 30
0.0
 10
41.502714
 20
52.895354
 30
0.0
  0
SPLINE
  5
3d9
100
AcDbEntity
  8
0
 62
7
100
AcDbSpline
 70
8
 71
3
 72
8
 73
4
 74
0
 40
0
 40
0
 40
0
 40
0
 40
1
 40
1
 40
1
 40
1
 10
41.502714
 20
52.895354
 30
0.0
 10
41.909556
 20
51.537441
 30
0.0
 10
42.793153
 20
50.087758
 30
0.0
 10
44.086619
 20
48.656047
 30
0.0
  0
SPLINE
  5
3da
100
AcDbEntity
  8
0
 62
7
100
AcDbSpline
 70
8
 71
3
 72
8
 73
4
 74
0
 40
0
 40
0
 40
0
 40
0
 40
1
 40
1
 40
1
 40
1
 10
44.086619
 20
48.656047
 30
0.0
 10
45.169762
 20
47.457138
 30
0.0
 10
44.959244
 20
47.307352
 30
0.0
 10
43.542416
 20
48.268837
 30
0.0
  0
SPLINE
  5
3db
100
AcDbEntity
  8
0
 62
7
100
AcDbSpline
 70
8
 71
3
 72
8
 73
4
 74
0
 40
0
 40
0
 40
0
 40
0
 40
1
 40
1
 40
1
 40
1
 10
43.542416
 20
48.268837
 30
0.0
 10
42.138330
 20
49.221673
 30
0.0
 10
41.681982
 20
49.076475
 30
0.0
 10
42.322028
 20
47.880537
 30
0.0
  0
SPLINE
  5
3dc
100
AcDbEntity
  8
0
 62
7
100
AcDbSpline
 70
8
 71
3
 72
8
 73
4
 74
0
 40
0
 40
0
 40
0
 40
0
 40
1
 40
1
 40
1
 40
1
 10
42.322028
 20
47.880537
 30
0.0
 10
42.542944
 20
47.467750
 30
0.0
 10
42.498650
 20
47.416537
 30
0.0
 10
42.027322
 20
47.539794
 30
0.0
  0
SPLINE
  5
3dd
100
AcDbEntity
  8
0
 62
7
100
AcDbSpline
 70
8
 71
3
 72
8
 73
4
 74
0
 40
0
 40
0
 40
0
 40
0
 40
1
 40
1
 40
1
 40
1
 10
42.027322
 20
47.539794
 30
0.0
 10
41.545005
 20
47.665923
 30
0.0
 10
41.497695
 20
47.602111
 30
0.0
 10
41.664760
 20
47.050804
 30
0.0
  0
SPLINE
  5
3de
100
AcDbEntity
  8
0
 62
7
100
AcDbSpline
 70
8
 71
3
 72
8
 73
4
 74
0
 40
0
 40
0
 40
0
 40
0
 40
1
 40
1
 40
1
 40
1
 10
41.664760
 20
47.050804
 30
0.0
 10
41.770438
 20
46.702075
 30
0.0
 10
42.163455
 20
46.089332
 30
0.0
 10
42.538137
 20
45.689150
 30
0.0
  0
LWPOLYLINE
  5
3df
100
AcDbEntity
  8
0
 62
7
100
AcDbPolyline
 90
5
 70
0
 10
39.671972
 20
47.273300
 30
0.0
 10
39.663161
 20
48.004254
 30
0.0
 10
39.142797
 20
47.379631
 30
0.0
 10
38.622433
 20
46.755005
 30
0.0
 10
38.624550
 20
47.379631
 30
0.0
  0
SPLINE
  5
3e0
100
AcDbEntity
  8
0
 62
7
100
AcDbSpline
 70
8
 71
3
 72
8
 73
4
 74
0
 40
0
 40
0
 40
0
 40
0
 40
1
 40
1
 40
1
 40
1
 10
42.408517
 20
44.961545
 30
0.0
 10
41.449860
 20
44.961545
 30
0.0
 10
40.970435
 20
44.484446
 30
0.0
 10
41.168397
 20
43.727444
 30
0.0
  0
SPLINE
  5
3e1
100
AcDbEntity
  8
0
 62
7
100
AcDbSpline
 70
8
 71
3
 72
8
 73
4
 74
0
 40
0
 40
0
 40
0
 40
0
 40
1
 40
1
 40
1
 40
1
 10
41.168397
 20
43.727444
 30
0.0
 10
41.272426
 20
43.329638
 30
0.0
 10
41.162179
 20
43.143435
 30
0.0
 10
40.760449
 20
43.038376
 30
0.0
  0
SPLINE
  5
3e2
100
AcDbEntity
  8
0
 62
7
100
AcDbSpline
 70
8
 71
3
 72
8
 73
4
 74
0
 40
0
 40
0
 40
0
 40
0
 40
1
 40
1
 40
1
 40
1
 10
40.760449
 20
43.038376
 30
0.0
 10
40.218527
 20
42.896660
 30
0.0
 10
39.974835
 20
42.315712
 30
0.0
 10
40.457311
 20
42.315712
 30
0.0
  0
SPLINE
  5
3e3
100
AcDbEntity
  8
0
 62
7
100
AcDbSpline
 70
8
 71
3
 72
8
 73
4
 74
0
 40
0
 40
0
 40
0
 40
0
 40
1
 40
1
 40
1
 40
1
 10
40.457311
 20
42.315712
 30
0.0
 10
41.590616
 20
42.315712
 30
0.0
 10
43.794206
 20
44.089061
 30
0.0
 10
45.224552
 20
46.152170
 30
0.0
  0
SPLINE
  5
3e4
100
AcDbEntity
  8
0
 62
7
100
AcDbSpline
 70
8
 71
3
 72
8
 73
4
 74
0
 40
0
 40
0
 40
0
 40
0
 40
1
 40
1
 40
1
 40
1
 10
45.224552
 20
46.152170
 30
0.0
 10
46.397532
 20
47.844059
 30
0.0
 10
46.445212
 20
48.274862
 30
0.0
 10
45.502695
 20
48.665265
 30
0.0
  0
SPLINE
  5
3e5
100
AcDbEntity
  8
0
 62
7
100
AcDbSpline
 70
8
 71
3
 72
8
 73
4
 74
0
 40
0
 40
0
 40
0
 40
0
 40
1
 40
1
 40
1
 40
1
 10
45.502695
 20
48.665265
 30
0.0
 10
44.643990
 20
49.020955
 30
0.0
 10
44.087812
 20
49.576405
 30
0.0
 10
44.892563
 20
49.274600
 30
0.0
  0
SPLINE
  5
3e6
100
AcDbEntity
  8
0
 62
7
100
AcDbSpline
 70
8
 71
3
 72
8
 73
4
 74
0
 40
0
 40
0
 40
0
 40
0
 40
1
 40
1
 40
1
 40
1
 10
44.892563
 20
49.274600
 30
0.0
 10
45.311478
 20
49.117496
 30
0.0
 10
45.325265
 20
49.149968
 30
0.0
 10
45.006202
 20
49.542216
 30
0.0
  0
SPLINE
  5
3e7
100
AcDbEntity
  8
0
 62
7
100
AcDbSpline
 70
8
 71
3
 72
8
 73
4
 74
0
 40
0
 40
0
 40
0
 40
0
 40
1
 40
1
 40
1
 40
1
 10
45.006202
 20
49.542216
 30
0.0
 10
44.585983
 20
50.058815
 30
0.0
 10
44.776567
 20
50.112081
 30
0.0
 10
45.554844
 20
49.695560
 30
0.0
  0
SPLINE
  5
3e8
100
AcDbEntity
  8
0
 62
7
100
AcDbSpline
 70
8
 71
3
 72
8
 73
4
 74
0
 40
0
 40
0
 40
0
 40
0
 40
1
 40
1
 40
1
 40
1
 10
45.554844
 20
49.695560
 30
0.0
 10
46.050798
 20
49.430133
 30
0.0
 10
46.087398
 20
49.462465
 30
0.0
 10
45.942869
 20
50.038310
 30
0.0
  0
SPLINE
  5
3e9
100
AcDbEntity
  8
0
 62
7
100
AcDbSpline
 70
8
 71
3
 72
8
 73
4
 74
0
 40
0
 40
0
 40
0
 40
0
 40
1
 40
1
 40
1
 40
1
 10
45.942869
 20
50.038310
 30
0.0
 10
45.794888
 20
50.627920
 30
0.0
 10
45.847696
 20
50.666608
 30
0.0
 10
46.669537
 20
50.570662
 30
0.0
  0
SPLINE
  5
3ea
100
AcDbEntity
  8
0
 62
7
100
AcDbSpline
 70
8
 71
3
 72
8
 73
4
 74
0
 40
0
 40
0
 40
0
 40
0
 40
1
 40
1
 40
1
 40
1
 10
46.669537
 20
50.570662
 30
0.0
 10
47.156973
 20
50.513758
 30
0.0
 10
47.636404
 20
50.597644
 30
0.0
 10
47.734942
 20
50.757079
 30
0.0
  0
SPLINE
  5
3eb
100
AcDbEntity
  8
0
 62
7
100
AcDbSpline
 70
8
 71
3
 72
8
 73
4
 74
0
 40
0
 40
0
 40
0
 40
0
 40
1
 40
1
 40
1
 40
1
 10
47.734942
 20
50.757079
 30
0.0
 10
48.011194
 20
51.204069
 30
0.0
 10
48.412035
 20
51.100323
 30
0.0
 10
48.412035
 20
50.581835
 30
0.0
  0
SPLINE
  5
3ec
100
AcDbEntity
  8
0
 62
7
100
AcDbSpline
 70
8
 71
3
 72
8
 73
4
 74
0
 40
0
 40
0
 40
0
 40
0
 40
1
 40
1
 40
1
 40
1
 10
48.412035
 20
50.581835
 30
0.0
 10
48.412035
 20
49.963139
 30
0.0
 10
47.244664
 20
47.797233
 30
0.0
 10
46.009417
 20
46.124093
 30
0.0
  0
SPLINE
  5
3ed
100
AcDbEntity
  8
0
 62
7
100
AcDbSpline
 70
8
 71
3
 72
8
 73
4
 74
0
 40
0
 40
0
 40
0
 40
0
 40
1
 40
1
 40
1
 40
1
 10
46.009417
 20
46.124093
 30
0.0
 10
44.950883
 20
44.690310
 30
0.0
 10
38.394775
 20
37.559033
 30
0.0
 10
38.122087
 20
37.544809
 30
0.0
  0
SPLINE
  5
3ee
100
AcDbEntity
  8
0
 62
7
100
AcDbSpline
 70
8
 71
3
 72
8
 73
4
 74
0
 40
0
 40
0
 40
0
 40
0
 40
1
 40
1
 40
1
 40
1
 10
38.122087
 20
37.544809
 30
0.0
 10
38.033486
 20
37.540179
 30
0.0
 10
37.038259
 20
36.667316
 30
0.0
 10
35.910472
 20
35.605098
 30
0.0
  0
SPLINE
  5
3ef
100
AcDbEntity
  8
0
 62
7
100
AcDbSpline
 70
8
 71
3
 72
8
 73
4
 74
0
 40
0
 40
0
 40
0
 40
0
 40
1
 40
1
 40
1
 40
1
 10
35.910472
 20
35.605098
 30
0.0
 10
34.190546
 20
33.985166
 30
0.0
 10
33.859952
 20
33.538618
 30
0.0
 10
33.859952
 20
32.835376
 30
0.0
  0
SPLINE
  5
3f0
100
AcDbEntity
  8
0
 62
7
100
AcDbSpline
 70
8
 71
3
 72
8
 73
4
 74
0
 40
0
 40
0
 40
0
 40
0
 40
1
 40
1
 40
1
 40
1
 10
33.859952
 20
32.835376
 30
0.0
 10
33.859952
 20
31.770852
 30
0.0
 10
34.323570
 20
31.755715
 30
0.0
 10
35.312517
 20
32.787952
 30
0.0
  0
SPLINE
  5
3f1
100
AcDbEntity
  8
0
 62
7
100
AcDbSpline
 70
8
 71
3
 72
8
 73
4
 74
0
 40
0
 40
0
 40
0
 40
0
 40
1
 40
1
 40
1
 40
1
 10
35.312517
 20
32.787952
 30
0.0
 10
36.533436
 20
34.062318
 30
0.0
 10
36.427857
 20
33.449263
 30
0.0
 10
35.196312
 20
32.113191
 30
0.0
  0
SPLINE
  5
3f2
100
AcDbEntity
  8
0
 62
7
100
AcDbSpline
 70
8
 71
3
 72
8
 73
4
 74
0
 40
0
 40
0
 40
0
 40
0
 40
1
 40
1
 40
1
 40
1
 10
35.196312
 20
32.113191
 30
0.0
 10
34.357037
 20
31.202688
 30
0.0
 10
34.112861
 20
30.750981
 30
0.0
 10
34.227971
 20
30.321843
 30
0.0
  0
SPLINE
  5
3f3
100
AcDbEntity
  8
0
 62
7
100
AcDbSpline
 70
8
 71
3
 72
8
 73
4
 74
0
 40
0
 40
0
 40
0
 40
0
 40
1
 40
1
 40
1
 40
1
 10
34.227971
 20
30.321843
 30
0.0
 10
34.312627
 20
30.006232
 30
0.0
 10
34.383520
 20
29.599176
 30
0.0
 10
34.385507
 20
29.417275
 30
0.0
  0
SPLINE
  5
3f4
100
AcDbEntity
  8
0
 62
7
100
AcDbSpline
 70
8
 71
3
 72
8
 73
4
 74
0
 40
0
 40
0
 40
0
 40
0
 40
1
 40
1
 40
1
 40
1
 10
34.385507
 20
29.417275
 30
0.0
 10
34.391962
 20
28.826738
 30
0.0
 10
34.924280
 20
29.067868
 30
0.0
 10
35.196857
 20
29.784797
 30
0.0
  0
SPLINE
  5
3f5
100
AcDbEntity
  8
0
 62
7
100
AcDbSpline
 70
8
 71
3
 72
8
 73
4
 74
0
 40
0
 40
0
 40
0
 40
0
 40
1
 40
1
 40
1
 40
1
 10
35.196857
 20
29.784797
 30
0.0
 10
35.510925
 20
30.610884
 30
0.0
 10
36.770358
 20
32.171841
 30
0.0
 10
36.770358
 20
31.735025
 30
0.0
  0
SPLINE
  5
3f6
100
AcDbEntity
  8
0
 62
7
100
AcDbSpline
 70
8
 71
3
 72
8
 73
4
 74
0
 40
0
 40
0
 40
0
 40
0
 40
1
 40
1
 40
1
 40
1
 10
36.770358
 20
31.735025
 30
0.0
 10
36.770358
 20
31.568631
 30
0.0
 10
36.490309
 20
31.053479
 30
0.0
 10
36.148026
 20
30.590247
 30
0.0
  0
SPLINE
  5
3f7
100
AcDbEntity
  8
0
 62
7
100
AcDbSpline
 70
8
 71
3
 72
8
 73
4
 74
0
 40
0
 40
0
 40
0
 40
0
 40
1
 40
1
 40
1
 40
1
 10
36.148026
 20
30.590247
 30
0.0
 10
34.932879
 20
28.945705
 30
0.0
 10
35.013067
 20
28.485941
 30
0.0
 10
36.493241
 20
28.610933
 30
0.0
  0
SPLINE
  5
3f8
100
AcDbEntity
  8
0
 62
7
100
AcDbSpline
 70
8
 71
3
 72
8
 73
4
 74
0
 40
0
 40
0
 40
0
 40
0
 40
1
 40
1
 40
1
 40
1
 10
36.493241
 20
28.610933
 30
0.0
 10
37.332812
 20
28.681831
 30
0.0
 10
37.440851
 20
28.781886
 30
0.0
 10
37.578189
 20
29.615712
 30
0.0
  0
LWPOLYLINE
  5
3f9
100
AcDbEntity
  8
0
 62
7
100
AcDbPolyline
 90
3
 70
0
 10
42.538137
 20
45.689150
 30
0.0
 10
43.219370
 20
44.961545
 30
0.0
 10
42.408517
 20
44.961545
 30
0.0
  0
SPLINE
  5
3fa
100
AcDbEntity
  8
0
 62
7
100
AcDbSpline
 70
8
 71
3
 72
8
 73
4
 74
0
 40
0
 40
0
 40
0
 40
0
 40
1
 40
1
 40
1
 40
1
 10
33.330774
 20
38.446858
 30
0.0
 10
33.330774
 20
38.501799
 30
0.0
 10
33.512093
 20
38.697233
 30
0.0
 10
33.733706
 20
38.881156
 30
0.0
  0
SPLINE
  5
3fb
100
AcDbEntity
  8
0
 62
7
100
AcDbSpline
 70
8
 71
3
 72
8
 73
4
 74
0
 40
0
 40
0
 40
0
 40
0
 40
1
 40
1
 40
1
 40
1
 10
33.733706
 20
38.881156
 30
0.0
 10
34.070613
 20
39.160762
 30
0.0
 10
34.109329
 20
39.144395
 30
0.0
 10
33.969981
 20
38.781260
 30
0.0
  0
SPLINE
  5
3fc
100
AcDbEntity
  8
0
 62
7
100
AcDbSpline
 70
8
 71
3
 72
8
 73
4
 74
0
 40
0
 40
0
 40
0
 40
0
 40
1
 40
1
 40
1
 40
1
 10
33.969981
 20
38.781260
 30
0.0
 10
33.827664
 20
38.410385
 30
0.0
 10
33.330774
 20
38.150435
 30
0.0
 10
33.330774
 20
38.446858
 30
0.0
  0
LWPOLYLINE
  5
3fd
100
AcDbEntity
  8
0
 62
7
100
AcDbPolyline
 90
1
 70
1
 10
37.578189
 20
29.615712
 30
0.0
  0
SPLINE
  5
3fe
100
AcDbEntity
  8
0
 62
7
100
AcDbSpline
 70
8
 71
3
 72
8
 73
4
 74
0
 40
0
 40
0
 40
0
 40
0
 40
1
 40
1
 40
1
 40
1
 10
44.972441
 20
39.230898
 30
0.0
 10
44.972441
 20
39.280502
 30
0.0
 10
45.448691
 20
39.806933
 30
0.0
 10
46.030774
 20
40.400748
 30
0.0
  0
SPLINE
  5
3ff
100
AcDbEntity
  8
0
 62
7
100
AcDbSpline
 70
8
 71
3
 72
8
 73
4
 74
0
 40
0
 40
0
 40
0
 40
0
 40
1
 40
1
 40
1
 40
1
 10
46.030774
 20
40.400748
 30
0.0
 10
47.277568
 20
41.672663
 30
0.0
 10
47.455698
 20
41.428731
 30
0.0
 10
46.267949
 20
40.075961
 30
0.0
  0
SPLINE
  5
400
100
AcDbEntity
  8
0
 62
7
100
AcDbSpline
 70
8
 71
3
 72
8
 73
4
 74
0
 40
0
 40
0
 40
0
 40
0
 40
1
 40
1
 40
1
 40
1
 10
46.267949
 20
40.075961
 30
0.0
 10
45.572153
 20
39.283494
 30
0.0
 10
44.972441
 20
38.892300
 30
0.0
 10
44.972441
 20
39.230898
 30
0.0
  0
LWPOLYLINE
  5
401
100
AcDbEntity
  8
0
 62
7
100
AcDbPolyline
 90
1
 70
1
 10
33.330774
 20
38.446858
 30
0.0
  0
SPLINE
  5
402
100
AcDbEntity
  8
0
 62
7
100
AcDbSpline
 70
8
 71
3
 72
8
 73
4
 74
0
 40
0
 40
0
 40
0
 40
0
 40
1
 40
1
 40
1
 40
1
 10
36.745209
 20
40.000608
 30
0.0
 10
36.869695
 20
40.328030
 30
0.0
 10
36.996553
 20
40.714983
 30
0.0
 10
37.027115
 20
40.860504
 30
0.0
  0
SPLINE
  5
403
100
AcDbEntity
  8
0
 62
7
100
AcDbSpline
 70
8
 71
3
 72
8
 73
4
 74
0
 40
0
 40
0
 40
0
 40
0
 40
1
 40
1
 40
1
 40
1
 10
37.027115
 20
40.860504
 30
0.0
 10
37.057677
 20
41.006025
 30
0.0
 10
37.187381
 20
41.303681
 30
0.0
 10
37.315349
 20
41.521962
 30
0.0
  0
SPLINE
  5
404
100
AcDbEntity
  8
0
 62
7
100
AcDbSpline
 70
8
 71
3
 72
8
 73
4
 74
0
 40
0
 40
0
 40
0
 40
0
 40
1
 40
1
 40
1
 40
1
 10
37.315349
 20
41.521962
 30
0.0
 10
37.701802
 20
42.181161
 30
0.0
 10
37.607978
 20
41.345377
 30
0.0
 10
37.180734
 20
40.322839
 30
0.0
  0
SPLINE
  5
405
100
AcDbEntity
  8
0
 62
7
100
AcDbSpline
 70
8
 71
3
 72
8
 73
4
 74
0
 40
0
 40
0
 40
0
 40
0
 40
1
 40
1
 40
1
 40
1
 10
37.180734
 20
40.322839
 30
0.0
 10
36.761785
 20
39.320155
 30
0.0
 10
36.378756
 20
39.036765
 30
0.0
 10
36.745209
 20
40.000608
 30
0.0
  0
LWPOLYLINE
  5
406
100
AcDbEntity
  8
0
 62
7
100
AcDbPolyline
 90
1
 70
1
 10
44.972441
 20
39.230898
 30
0.0
  0
SPLINE
  5
407
100
AcDbEntity
  8
0
 62
7
100
AcDbSpline
 70
8
 71
3
 72
8
 73
4
 74
0
 40
0
 40
0
 40
0
 40
0
 40
1
 40
1
 40
1
 40
1
 10
38.242576
 20
41.599519
 30
0.0
 10
38.341935
 20
41.860457
 30
0.0
 10
38.489879
 20
42.007301
 30
0.0
 10
38.571342
 20
41.925838
 30
0.0
  0
SPLINE
  5
408
100
AcDbEntity
  8
0
 62
7
100
AcDbSpline
 70
8
 71
3
 72
8
 73
4
 74
0
 40
0
 40
0
 40
0
 40
0
 40
1
 40
1
 40
1
 40
1
 10
38.571342
 20
41.925838
 30
0.0
 10
38.652805
 20
41.844375
 30
0.0
 10
38.571511
 20
41.630883
 30
0.0
 10
38.390690
 20
41.451406
 30
0.0
  0
SPLINE
  5
409
100
AcDbEntity
  8
0
 62
7
100
AcDbSpline
 70
8
 71
3
 72
8
 73
4
 74
0
 40
0
 40
0
 40
0
 40
0
 40
1
 40
1
 40
1
 40
1
 10
38.390690
 20
41.451406
 30
0.0
 10
38.129382
 20
41.192045
 30
0.0
 10
38.098992
 20
41.222435
 30
0.0
 10
38.242576
 20
41.599519
 30
0.0
  0
LWPOLYLINE
  5
40a
100
AcDbEntity
  8
0
 62
7
100
AcDbPolyline
 90
1
 70
1
 10
36.745209
 20
40.000608
 30
0.0
  0
SPLINE
  5
40b
100
AcDbEntity
  8
0
 62
7
100
AcDbSpline
 70
8
 71
3
 72
8
 73
4
 74
0
 40
0
 40
0
 40
0
 40
0
 40
1
 40
1
 40
1
 40
1
 10
47.515425
 20
42.844879
 30
0.0
 10
47.687987
 20
43.572583
 30
0.0
 10
48.706056
 20
45.221454
 30
0.0
 10
48.984575
 20
45.224322
 30
0.0
  0
SPLINE
  5
40c
100
AcDbEntity
  8
0
 62
7
100
AcDbSpline
 70
8
 71
3
 72
8
 73
4
 74
0
 40
0
 40
0
 40
0
 40
0
 40
1
 40
1
 40
1
 40
1
 10
48.984575
 20
45.224322
 30
0.0
 10
49.081195
 20
45.225380
 30
0.0
 10
48.911277
 20
44.636825
 30
0.0
 10
48.606975
 20
43.916566
 30
0.0
  0
SPLINE
  5
40d
100
AcDbEntity
  8
0
 62
7
100
AcDbSpline
 70
8
 71
3
 72
8
 73
4
 74
0
 40
0
 40
0
 40
0
 40
0
 40
1
 40
1
 40
1
 40
1
 10
48.606975
 20
43.916566
 30
0.0
 10
48.302675
 20
43.196304
 30
0.0
 10
47.965900
 20
42.661266
 30
0.0
 10
47.858585
 20
42.727589
 30
0.0
  0
SPLINE
  5
40e
100
AcDbEntity
  8
0
 62
7
100
AcDbSpline
 70
8
 71
3
 72
8
 73
4
 74
0
 40
0
 40
0
 40
0
 40
0
 40
1
 40
1
 40
1
 40
1
 10
47.858585
 20
42.727589
 30
0.0
 10
47.751272
 20
42.793912
 30
0.0
 10
47.594869
 20
42.698607
 30
0.0
 10
47.511023
 20
42.515798
 30
0.0
  0
SPLINE
  5
40f
100
AcDbEntity
  8
0
 62
7
100
AcDbSpline
 70
8
 71
3
 72
8
 73
4
 74
0
 40
0
 40
0
 40
0
 40
0
 40
1
 40
1
 40
1
 40
1
 10
47.511023
 20
42.515798
 30
0.0
 10
47.427176
 20
42.332989
 30
0.0
 10
47.429158
 20
42.481077
 30
0.0
 10
47.515415
 20
42.844879
 30
0.0
  0
LWPOLYLINE
  5
410
100
AcDbEntity
  8
0
 62
7
100
AcDbPolyline
 90
1
 70
1
 10
38.242576
 20
41.599519
 30
0.0
  0
SPLINE
  5
411
100
AcDbEntity
  8
0
 62
7
100
AcDbSpline
 70
8
 71
3
 72
8
 73
4
 74
0
 40
0
 40
0
 40
0
 40
0
 40
1
 40
1
 40
1
 40
1
 10
44.044931
 20
52.900667
 30
0.0
 10
43.780734
 20
53.192601
 30
0.0
 10
43.627090
 20
53.493974
 30
0.0
 10
43.703502
 20
53.570383
 30
0.0
  0
SPLINE
  5
412
100
AcDbEntity
  8
0
 62
7
100
AcDbSpline
 70
8
 71
3
 72
8
 73
4
 74
0
 40
0
 40
0
 40
0
 40
0
 40
1
 40
1
 40
1
 40
1
 10
43.703502
 20
53.570383
 30
0.0
 10
43.779911
 20
53.646792
 30
0.0
 10
44.039893
 20
53.407937
 30
0.0
 10
44.281241
 20
53.039595
 30
0.0
  0
SPLINE
  5
413
100
AcDbEntity
  8
0
 62
7
100
AcDbSpline
 70
8
 71
3
 72
8
 73
4
 74
0
 40
0
 40
0
 40
0
 40
0
 40
1
 40
1
 40
1
 40
1
 10
44.281241
 20
53.039595
 30
0.0
 10
44.808555
 20
52.234812
 30
0.0
 10
44.703444
 20
52.173018
 30
0.0
 10
44.044931
 20
52.900667
 30
0.0
  0
LWPOLYLINE
  5
414
100
AcDbEntity
  8
0
 62
7
100
AcDbPolyline
 90
1
 70
1
 10
47.515415
 20
42.844879
 30
0.0
  0
SPLINE
  5
415
100
AcDbEntity
  8
0
 62
7
100
AcDbSpline
 70
8
 71
3
 72
8
 73
4
 74
0
 40
0
 40
0
 40
0
 40
0
 40
1
 40
1
 40
1
 40
1
 10
46.305285
 20
53.009289
 30
0.0
 10
46.043615
 20
53.712962
 30
0.0
 10
46.263724
 20
54.436666
 30
0.0
 10
46.582528
 20
53.920832
 30
0.0
  0
SPLINE
  5
416
100
AcDbEntity
  8
0
 62
7
100
AcDbSpline
 70
8
 71
3
 72
8
 73
4
 74
0
 40
0
 40
0
 40
0
 40
0
 40
1
 40
1
 40
1
 40
1
 10
46.582528
 20
53.920832
 30
0.0
 10
46.745488
 20
53.657159
 30
0.0
 10
46.841323
 20
53.693290
 30
0.0
 10
46.987182
 20
54.073396
 30
0.0
  0
SPLINE
  5
417
100
AcDbEntity
  8
0
 62
7
100
AcDbSpline
 70
8
 71
3
 72
8
 73
4
 74
0
 40
0
 40
0
 40
0
 40
0
 40
1
 40
1
 40
1
 40
1
 10
46.987182
 20
54.073396
 30
0.0
 10
47.162553
 20
54.530405
 30
0.0
 10
47.198928
 20
54.518891
 30
0.0
 10
47.428473
 20
53.933691
 30
0.0
  0
SPLINE
  5
418
100
AcDbEntity
  8
0
 62
7
100
AcDbSpline
 70
8
 71
3
 72
8
 73
4
 74
0
 40
0
 40
0
 40
0
 40
0
 40
1
 40
1
 40
1
 40
1
 10
47.428473
 20
53.933691
 30
0.0
 10
47.566530
 20
53.581723
 30
0.0
 10
47.732296
 20
53.438192
 30
0.0
 10
47.798379
 20
53.613397
 30
0.0
  0
SPLINE
  5
419
100
AcDbEntity
  8
0
 62
7
100
AcDbSpline
 70
8
 71
3
 72
8
 73
4
 74
0
 40
0
 40
0
 40
0
 40
0
 40
1
 40
1
 40
1
 40
1
 10
47.798379
 20
53.613397
 30
0.0
 10
47.876955
 20
53.821730
 30
0.0
 10
48.116720
 20
53.857657
 30
0.0
 10
48.495802
 20
53.717904
 30
0.0
  0
SPLINE
  5
41a
100
AcDbEntity
  8
0
 62
7
100
AcDbSpline
 70
8
 71
3
 72
8
 73
4
 74
0
 40
0
 40
0
 40
0
 40
0
 40
1
 40
1
 40
1
 40
1
 10
48.495802
 20
53.717904
 30
0.0
 10
48.813527
 20
53.600773
 30
0.0
 10
49.349104
 20
53.527878
 30
0.0
 10
49.685977
 20
53.555916
 30
0.0
  0
LWPOLYLINE
  5
41b
100
AcDbEntity
  8
0
 62
7
100
AcDbPolyline
 90
1
 70
1
 10
44.044931
 20
52.900667
 30
0.0
  0
SPLINE
  5
41c
100
AcDbEntity
  8
0
 62
7
100
AcDbSpline
 70
8
 71
3
 72
8
 73
4
 74
0
 40
0
 40
0
 40
0
 40
0
 40
1
 40
1
 40
1
 40
1
 10
49.647345
 20
52.955767
 30
0.0
 10
49.222308
 20
52.530732
 30
0.0
 10
48.873442
 20
52.380520
 30
0.0
 10
48.642627
 20
52.523170
 30
0.0
  0
SPLINE
  5
41d
100
AcDbEntity
  8
0
 62
7
100
AcDbSpline
 70
8
 71
3
 72
8
 73
4
 74
0
 40
0
 40
0
 40
0
 40
0
 40
1
 40
1
 40
1
 40
1
 10
48.642627
 20
52.523170
 30
0.0
 10
48.199799
 20
52.796855
 30
0.0
 10
47.353691
 20
52.869830
 30
0.0
 10
47.353691
 20
52.634343
 30
0.0
  0
SPLINE
  5
41e
100
AcDbEntity
  8
0
 62
7
100
AcDbSpline
 70
8
 71
3
 72
8
 73
4
 74
0
 40
0
 40
0
 40
0
 40
0
 40
1
 40
1
 40
1
 40
1
 10
47.353691
 20
52.634343
 30
0.0
 10
47.353691
 20
52.204014
 30
0.0
 10
46.489855
 20
52.512952
 30
0.0
 10
46.305285
 20
53.009289
 30
0.0
  0
LWPOLYLINE
  5
41f
100
AcDbEntity
  8
0
 62
7
100
AcDbPolyline
 90
3
 70
0
 10
49.685977
 20
53.555916
 30
0.0
 10
50.298472
 20
53.606893
 30
0.0
 10
49.647345
 20
52.955767
 30
0.0
  0
SPLINE
  5
420
100
AcDbEntity
  8
0
 62
7
100
AcDbSpline
 70
8
 71
3
 72
8
 73
4
 74
0
 40
0
 40
0
 40
0
 40
0
 40
1
 40
1
 40
1
 40
1
 10
43.034209
 20
53.988486
 30
0.0
 10
42.947204
 20
54.480701
 30
0.0
 10
42.969135
 20
55.300139
 30
0.0
 10
43.082943
 20
55.809462
 30
0.0
  0
SPLINE
  5
421
100
AcDbEntity
  8
0
 62
7
100
AcDbSpline
 70
8
 71
3
 72
8
 73
4
 74
0
 40
0
 40
0
 40
0
 40
0
 40
1
 40
1
 40
1
 40
1
 10
43.082943
 20
55.809462
 30
0.0
 10
43.285418
 20
56.715602
 30
0.0
 10
43.293112
 20
56.704230
 30
0.0
 10
43.440956
 20
55.280295
 30
0.0
  0
SPLINE
  5
422
100
AcDbEntity
  8
0
 62
7
100
AcDbSpline
 70
8
 71
3
 72
8
 73
4
 74
0
 40
0
 40
0
 40
0
 40
0
 40
1
 40
1
 40
1
 40
1
 10
43.440956
 20
55.280295
 30
0.0
 10
43.614628
 20
53.607557
 30
0.0
 10
43.286016
 20
52.563898
 30
0.0
 10
43.034209
 20
53.988486
 30
0.0
  0
LWPOLYLINE
  5
423
100
AcDbEntity
  8
0
 62
7
100
AcDbPolyline
 90
1
 70
1
 10
46.305285
 20
53.009289
 30
0.0
  0
SPLINE
  5
424
100
AcDbEntity
  8
0
 62
7
100
AcDbSpline
 70
8
 71
3
 72
8
 73
4
 74
0
 40
0
 40
0
 40
0
 40
0
 40
1
 40
1
 40
1
 40
1
 10
48.852997
 20
54.927519
 30
0.0
 10
48.517561
 20
55.262955
 30
0.0
 10
48.678661
 20
55.544879
 30
0.0
 10
49.205774
 20
55.544879
 30
0.0
  0
SPLINE
  5
425
100
AcDbEntity
  8
0
 62
7
100
AcDbSpline
 70
8
 71
3
 72
8
 73
4
 74
0
 40
0
 40
0
 40
0
 40
0
 40
1
 40
1
 40
1
 40
1
 10
49.205774
 20
55.544879
 30
0.0
 10
49.525396
 20
55.544879
 30
0.0
 10
49.743212
 20
55.728230
 30
0.0
 10
49.755830
 20
56.007900
 30
0.0
  0
SPLINE
  5
426
100
AcDbEntity
  8
0
 62
7
100
AcDbSpline
 70
8
 71
3
 72
8
 73
4
 74
0
 40
0
 40
0
 40
0
 40
0
 40
1
 40
1
 40
1
 40
1
 10
49.755830
 20
56.007900
 30
0.0
 10
49.769932
 20
56.320719
 30
0.0
 10
49.822505
 20
56.356149
 30
0.0
 10
49.917861
 20
56.117114
 30
0.0
  0
SPLINE
  5
427
100
AcDbEntity
  8
0
 62
7
100
AcDbSpline
 70
8
 71
3
 72
8
 73
4
 74
0
 40
0
 40
0
 40
0
 40
0
 40
1
 40
1
 40
1
 40
1
 10
49.917861
 20
56.117114
 30
0.0
 10
50.018164
 20
55.865689
 30
0.0
 10
50.318363
 20
56.014689
 30
0.0
 10
50.955308
 20
56.632038
 30
0.0
  0
SPLINE
  5
428
100
AcDbEntity
  8
0
 62
7
100
AcDbSpline
 70
8
 71
3
 72
8
 73
4
 74
0
 40
0
 40
0
 40
0
 40
0
 40
1
 40
1
 40
1
 40
1
 10
50.955308
 20
56.632038
 30
0.0
 10
51.448271
 20
57.109839
 30
0.0
 10
51.851608
 20
57.376007
 30
0.0
 10
51.851608
 20
57.223522
 30
0.0
  0
SPLINE
  5
429
100
AcDbEntity
  8
0
 62
7
100
AcDbSpline
 70
8
 71
3
 72
8
 73
4
 74
0
 40
0
 40
0
 40
0
 40
0
 40
1
 40
1
 40
1
 40
1
 10
51.851608
 20
57.223522
 30
0.0
 10
51.851608
 20
56.864560
 30
0.0
 10
50.339776
 20
55.280295
 30
0.0
 10
49.997222
 20
55.280295
 30
0.0
  0
SPLINE
  5
42a
100
AcDbEntity
  8
0
 62
7
100
AcDbSpline
 70
8
 71
3
 72
8
 73
4
 74
0
 40
0
 40
0
 40
0
 40
0
 40
1
 40
1
 40
1
 40
1
 10
49.997222
 20
55.280295
 30
0.0
 10
49.852969
 20
55.280295
 30
0.0
 10
49.734941
 20
55.161233
 30
0.0
 10
49.734941
 20
55.015712
 30
0.0
  0
SPLINE
  5
42b
100
AcDbEntity
  8
0
 62
7
100
AcDbSpline
 70
8
 71
3
 72
8
 73
4
 74
0
 40
0
 40
0
 40
0
 40
0
 40
1
 40
1
 40
1
 40
1
 10
49.734941
 20
55.015712
 30
0.0
 10
49.734941
 20
54.718130
 30
0.0
 10
49.123526
 20
54.656987
 30
0.0
 10
48.852997
 20
54.927519
 30
0.0
  0
LWPOLYLINE
  5
42c
100
AcDbEntity
  8
0
 62
7
100
AcDbPolyline
 90
1
 70
1
 10
43.034209
 20
53.988486
 30
0.0
  0
SPLINE
  5
42d
100
AcDbEntity
  8
0
 62
7
100
AcDbSpline
 70
8
 71
3
 72
8
 73
4
 74
0
 40
0
 40
0
 40
0
 40
0
 40
1
 40
1
 40
1
 40
1
 10
47.794664
 20
62.335852
 30
0.0
 10
47.697649
 20
62.432864
 30
0.0
 10
47.630461
 20
62.879348
 30
0.0
 10
47.645357
 20
63.328039
 30
0.0
  0
LWPOLYLINE
  5
42e
100
AcDbEntity
  8
0
 62
7
100
AcDbPolyline
 90
1
 70
1
 10
48.852997
 20
54.927519
 30
0.0
  0
SPLINE
  5
42f
100
AcDbEntity
  8
0
 62
7
100
AcDbSpline
 70
8
 71
3
 72
8
 73
4
 74
0
 40
0
 40
0
 40
0
 40
0
 40
1
 40
1
 40
1
 40
1
 10
47.889687
 20
63.219589
 30
0.0
 10
48.116032
 20
62.256622
 30
0.0
 10
48.092524
 20
62.037992
 30
0.0
 10
47.794664
 20
62.335852
 30
0.0
  0
LWPOLYLINE
  5
430
100
AcDbEntity
  8
0
 62
7
100
AcDbPolyline
 90
3
 70
0
 10
47.645357
 20
63.328039
 30
0.0
 10
47.672440
 20
64.143837
 30
0.0
 10
47.889687
 20
63.219589
 30
0.0
  0
SPLINE
  5
431
100
AcDbEntity
  8
0
 62
7
100
AcDbSpline
 70
8
 71
3
 72
8
 73
4
 74
0
 40
0
 40
0
 40
0
 40
0
 40
1
 40
1
 40
1
 40
1
 10
39.680774
 20
64.011545
 30
0.0
 10
39.389733
 20
64.302587
 30
0.0
 10
39.151608
 20
64.749929
 30
0.0
 10
39.151608
 20
65.005641
 30
0.0
  0
SPLINE
  5
432
100
AcDbEntity
  8
0
 62
7
100
AcDbSpline
 70
8
 71
3
 72
8
 73
4
 74
0
 40
0
 40
0
 40
0
 40
0
 40
1
 40
1
 40
1
 40
1
 10
39.151608
 20
65.005641
 30
0.0
 10
39.151608
 20
65.395306
 30
0.0
 10
39.347185
 20
65.455012
 30
0.0
 10
40.359780
 20
65.374478
 30
0.0
  0
SPLINE
  5
433
100
AcDbEntity
  8
0
 62
7
100
AcDbSpline
 70
8
 71
3
 72
8
 73
4
 74
0
 40
0
 40
0
 40
0
 40
0
 40
1
 40
1
 40
1
 40
1
 10
40.359780
 20
65.374478
 30
0.0
 10
41.358468
 20
65.295047
 30
0.0
 10
41.536768
 20
65.202964
 30
0.0
 10
41.388096
 20
64.843403
 30
0.0
  0
SPLINE
  5
434
100
AcDbEntity
  8
0
 62
7
100
AcDbSpline
 70
8
 71
3
 72
8
 73
4
 74
0
 40
0
 40
0
 40
0
 40
0
 40
1
 40
1
 40
1
 40
1
 10
41.388096
 20
64.843403
 30
0.0
 10
41.289174
 20
64.604162
 30
0.0
 10
41.148328
 20
64.200061
 30
0.0
 10
41.075107
 20
63.945400
 30
0.0
  0
SPLINE
  5
435
100
AcDbEntity
  8
0
 62
7
100
AcDbSpline
 70
8
 71
3
 72
8
 73
4
 74
0
 40
0
 40
0
 40
0
 40
0
 40
1
 40
1
 40
1
 40
1
 10
41.075107
 20
63.945400
 30
0.0
 10
40.898815
 20
63.332283
 30
0.0
 10
40.333205
 20
63.359115
 30
0.0
 10
39.680774
 20
64.011545
 30
0.0
  0
LWPOLYLINE
  5
436
100
AcDbEntity
  8
0
 62
7
100
AcDbPolyline
 90
1
 70
1
 10
47.794664
 20
62.335852
 30
0.0
  0
SPLINE
  5
437
100
AcDbEntity
  8
0
 62
7
100
AcDbSpline
 70
8
 71
3
 72
8
 73
4
 74
0
 40
0
 40
0
 40
0
 40
0
 40
1
 40
1
 40
1
 40
1
 10
48.432913
 20
63.901301
 30
0.0
 10
48.445613
 20
64.209528
 30
0.0
 10
48.508304
 20
64.272221
 30
0.0
 10
48.592764
 20
64.061155
 30
0.0
  0
SPLINE
  5
438
100
AcDbEntity
  8
0
 62
7
100
AcDbSpline
 70
8
 71
3
 72
8
 73
4
 74
0
 40
0
 40
0
 40
0
 40
0
 40
1
 40
1
 40
1
 40
1
 10
48.592764
 20
64.061155
 30
0.0
 10
48.669194
 20
63.870160
 30
0.0
 10
48.659796
 20
63.641954
 30
0.0
 10
48.571888
 20
63.554036
 30
0.0
  0
SPLINE
  5
439
100
AcDbEntity
  8
0
 62
7
100
AcDbSpline
 70
8
 71
3
 72
8
 73
4
 74
0
 40
0
 40
0
 40
0
 40
0
 40
1
 40
1
 40
1
 40
1
 10
48.571888
 20
63.554036
 30
0.0
 10
48.483967
 20
63.466117
 30
0.0
 10
48.421436
 20
63.622388
 30
0.0
 10
48.432924
 20
63.901301
 30
0.0
  0
LWPOLYLINE
  5
43a
100
AcDbEntity
  8
0
 62
7
100
AcDbPolyline
 90
1
 70
1
 10
39.680774
 20
64.011545
 30
0.0
  0
SPLINE
  5
43b
100
AcDbEntity
  8
0
 62
7
100
AcDbSpline
 70
8
 71
3
 72
8
 73
4
 74
0
 40
0
 40
0
 40
0
 40
0
 40
1
 40
1
 40
1
 40
1
 10
43.753744
 20
72.875087
 30
0.0
 10
44.037255
 20
73.780891
 30
0.0
 10
44.074318
 20
73.801129
 30
0.0
 10
45.449673
 20
73.801129
 30
0.0
  0
SPLINE
  5
43c
100
AcDbEntity
  8
0
 62
7
100
AcDbSpline
 70
8
 71
3
 72
8
 73
4
 74
0
 40
0
 40
0
 40
0
 40
0
 40
1
 40
1
 40
1
 40
1
 10
45.449673
 20
73.801129
 30
0.0
 10
47.051129
 20
73.801129
 30
0.0
 10
47.040737
 20
73.604009
 30
0.0
 10
45.388226
 20
72.635576
 30
0.0
  0
SPLINE
  5
43d
100
AcDbEntity
  8
0
 62
7
100
AcDbSpline
 70
8
 71
3
 72
8
 73
4
 74
0
 40
0
 40
0
 40
0
 40
0
 40
1
 40
1
 40
1
 40
1
 10
45.388226
 20
72.635576
 30
0.0
 10
43.727600
 20
71.662383
 30
0.0
 10
43.389672
 20
71.711902
 30
0.0
 10
43.753744
 20
72.875087
 30
0.0
  0
LWPOLYLINE
  5
43e
100
AcDbEntity
  8
0
 62
7
100
AcDbPolyline
 90
1
 70
1
 10
48.432924
 20
63.901301
 30
0.0
  0
SPLINE
  5
43f
100
AcDbEntity
  8
0
 62
7
100
AcDbSpline
 70
8
 71
3
 72
8
 73
4
 74
0
 40
0
 40
0
 40
0
 40
0
 40
1
 40
1
 40
1
 40
1
 10
46.128593
 20
34.973525
 30
0.0
 10
46.395317
 20
35.968794
 30
0.0
 10
46.315744
 20
36.494879
 30
0.0
 10
45.898483
 20
36.494879
 30
0.0
  0
SPLINE
  5
440
100
AcDbEntity
  8
0
 62
7
100
AcDbSpline
 70
8
 71
3
 72
8
 73
4
 74
0
 40
0
 40
0
 40
0
 40
0
 40
1
 40
1
 40
1
 40
1
 10
45.898483
 20
36.494879
 30
0.0
 10
45.680201
 20
36.494879
 30
0.0
 10
45.501608
 20
36.316285
 30
0.0
 10
45.501608
 20
36.098004
 30
0.0
  0
SPLINE
  5
441
100
AcDbEntity
  8
0
 62
7
100
AcDbSpline
 70
8
 71
3
 72
8
 73
4
 74
0
 40
0
 40
0
 40
0
 40
0
 40
1
 40
1
 40
1
 40
1
 10
45.501608
 20
36.098004
 30
0.0
 10
45.501608
 20
35.879722
 30
0.0
 10
45.382545
 20
35.701129
 30
0.0
 10
45.237024
 20
35.701129
 30
0.0
  0
SPLINE
  5
442
100
AcDbEntity
  8
0
 62
7
100
AcDbSpline
 70
8
 71
3
 72
8
 73
4
 74
0
 40
0
 40
0
 40
0
 40
0
 40
1
 40
1
 40
1
 40
1
 10
45.237024
 20
35.701129
 30
0.0
 10
45.091503
 20
35.701129
 30
0.0
 10
44.972441
 20
35.820191
 30
0.0
 10
44.972441
 20
35.965712
 30
0.0
  0
SPLINE
  5
443
100
AcDbEntity
  8
0
 62
7
100
AcDbSpline
 70
8
 71
3
 72
8
 73
4
 74
0
 40
0
 40
0
 40
0
 40
0
 40
1
 40
1
 40
1
 40
1
 10
44.972441
 20
35.965712
 30
0.0
 10
44.972441
 20
36.511622
 30
0.0
 10
44.276150
 20
36.202138
 30
0.0
 10
43.838863
 20
35.461869
 30
0.0
  0
SPLINE
  5
444
100
AcDbEntity
  8
0
 62
7
100
AcDbSpline
 70
8
 71
3
 72
8
 73
4
 74
0
 40
0
 40
0
 40
0
 40
0
 40
1
 40
1
 40
1
 40
1
 10
43.838863
 20
35.461869
 30
0.0
 10
43.589205
 20
35.039234
 30
0.0
 10
43.384941
 20
34.622515
 30
0.0
 10
43.384941
 20
34.535827
 30
0.0
  0
SPLINE
  5
445
100
AcDbEntity
  8
0
 62
7
100
AcDbSpline
 70
8
 71
3
 72
8
 73
4
 74
0
 40
0
 40
0
 40
0
 40
0
 40
1
 40
1
 40
1
 40
1
 10
43.384941
 20
34.535827
 30
0.0
 10
43.384941
 20
34.449139
 30
0.0
 10
43.966368
 20
34.378212
 30
0.0
 10
44.676999
 20
34.378212
 30
0.0
  0
SPLINE
  5
446
100
AcDbEntity
  8
0
 62
7
100
AcDbSpline
 70
8
 71
3
 72
8
 73
4
 74
0
 40
0
 40
0
 40
0
 40
0
 40
1
 40
1
 40
1
 40
1
 10
44.676999
 20
34.378212
 30
0.0
 10
45.793253
 20
34.378212
 30
0.0
 10
45.990764
 20
34.459214
 30
0.0
 10
46.128593
 20
34.973525
 30
0.0
  0
LWPOLYLINE
  5
447
100
AcDbEntity
  8
0
 62
7
100
AcDbPolyline
 90
1
 70
1
 10
43.753744
 20
72.875087
 30
0.0
  0
SPLINE
  5
448
100
AcDbEntity
  8
0
 62
7
100
AcDbSpline
 70
8
 71
3
 72
8
 73
4
 74
0
 40
0
 40
0
 40
0
 40
0
 40
1
 40
1
 40
1
 40
1
 10
56.169584
 20
35.873965
 30
0.0
 10
56.381047
 20
36.085428
 30
0.0
 10
55.015982
 20
37.119237
 30
0.0
 10
53.932944
 20
37.567846
 30
0.0
  0
SPLINE
  5
449
100
AcDbEntity
  8
0
 62
7
100
AcDbSpline
 70
8
 71
3
 72
8
 73
4
 74
0
 40
0
 40
0
 40
0
 40
0
 40
1
 40
1
 40
1
 40
1
 10
53.932944
 20
37.567846
 30
0.0
 10
53.301757
 20
37.829292
 30
0.0
 10
52.751837
 20
37.829448
 30
0.0
 10
51.238968
 20
37.568640
 30
0.0
  0
SPLINE
  5
44a
100
AcDbEntity
  8
0
 62
7
100
AcDbSpline
 70
8
 71
3
 72
8
 73
4
 74
0
 40
0
 40
0
 40
0
 40
0
 40
1
 40
1
 40
1
 40
1
 10
51.238968
 20
37.568640
 30
0.0
 10
47.758109
 20
36.968486
 30
0.0
 10
47.508954
 20
36.823584
 30
0.0
 10
48.939193
 20
36.231161
 30
0.0
  0
SPLINE
  5
44b
100
AcDbEntity
  8
0
 62
7
100
AcDbSpline
 70
8
 71
3
 72
8
 73
4
 74
0
 40
0
 40
0
 40
0
 40
0
 40
1
 40
1
 40
1
 40
1
 10
48.939193
 20
36.231161
 30
0.0
 10
49.477486
 20
36.008191
 30
0.0
 10
50.345665
 20
35.960743
 30
0.0
 10
51.651173
 20
36.082941
 30
0.0
  0
SPLINE
  5
44c
100
AcDbEntity
  8
0
 62
7
100
AcDbSpline
 70
8
 71
3
 72
8
 73
4
 74
0
 40
0
 40
0
 40
0
 40
0
 40
1
 40
1
 40
1
 40
1
 10
51.651173
 20
36.082941
 30
0.0
 10
52.768569
 20
36.187531
 30
0.0
 10
53.847950
 20
36.152307
 30
0.0
 10
54.232858
 20
35.998692
 30
0.0
  0
SPLINE
  5
44d
100
AcDbEntity
  8
0
 62
7
100
AcDbSpline
 70
8
 71
3
 72
8
 73
4
 74
0
 40
0
 40
0
 40
0
 40
0
 40
1
 40
1
 40
1
 40
1
 10
54.232858
 20
35.998692
 30
0.0
 10
55.010206
 20
35.688455
 30
0.0
 10
55.925133
 20
35.629551
 30
0.0
 10
56.169584
 20
35.874002
 30
0.0
  0
LWPOLYLINE
  5
44e
100
AcDbEntity
  8
0
 62
7
100
AcDbPolyline
 90
1
 70
1
 10
46.128593
 20
34.973525
 30
0.0
  0
SPLINE
  5
44f
100
AcDbEntity
  8
0
 62
7
100
AcDbSpline
 70
8
 71
3
 72
8
 73
4
 74
0
 40
0
 40
0
 40
0
 40
0
 40
1
 40
1
 40
1
 40
1
 10
40.739108
 20
41.226163
 30
0.0
 10
40.739108
 20
41.388853
 30
0.0
 10
40.520093
 20
41.521962
 30
0.0
 10
40.252412
 20
41.521962
 30
0.0
  0
SPLINE
  5
450
100
AcDbEntity
  8
0
 62
7
100
AcDbSpline
 70
8
 71
3
 72
8
 73
4
 74
0
 40
0
 40
0
 40
0
 40
0
 40
1
 40
1
 40
1
 40
1
 10
40.252412
 20
41.521962
 30
0.0
 10
39.736517
 20
41.521962
 30
0.0
 10
39.151608
 20
40.526356
 30
0.0
 10
39.151608
 20
39.648223
 30
0.0
  0
SPLINE
  5
451
100
AcDbEntity
  8
0
 62
7
100
AcDbSpline
 70
8
 71
3
 72
8
 73
4
 74
0
 40
0
 40
0
 40
0
 40
0
 40
1
 40
1
 40
1
 40
1
 10
39.151608
 20
39.648223
 30
0.0
 10
39.151608
 20
39.207403
 30
0.0
 10
39.280052
 20
39.268591
 30
0.0
 10
39.945358
 20
40.026331
 30
0.0
  0
SPLINE
  5
452
100
AcDbEntity
  8
0
 62
7
100
AcDbSpline
 70
8
 71
3
 72
8
 73
4
 74
0
 40
0
 40
0
 40
0
 40
0
 40
1
 40
1
 40
1
 40
1
 10
39.945358
 20
40.026331
 30
0.0
 10
40.381920
 20
40.523546
 30
0.0
 10
40.739108
 20
41.063471
 30
0.0
 10
40.739108
 20
41.226163
 30
0.0
  0
LWPOLYLINE
  5
453
100
AcDbEntity
  8
0
 62
7
100
AcDbPolyline
 90
1
 70
1
 10
56.169584
 20
35.874002
 30
0.0
  0
SPLINE
  5
454
100
AcDbEntity
  8
0
 62
7
100
AcDbSpline
 70
8
 71
3
 72
8
 73
4
 74
0
 40
0
 40
0
 40
0
 40
0
 40
1
 40
1
 40
1
 40
1
 10
51.130129
 20
40.258913
 30
0.0
 10
51.611361
 20
40.815953
 30
0.0
 10
51.568641
 20
41.310631
 30
0.0
 10
50.932223
 20
42.550636
 30
0.0
  0
SPLINE
  5
455
100
AcDbEntity
  8
0
 62
7
100
AcDbSpline
 70
8
 71
3
 72
8
 73
4
 74
0
 40
0
 40
0
 40
0
 40
0
 40
1
 40
1
 40
1
 40
1
 10
50.932223
 20
42.550636
 30
0.0
 10
50.614969
 20
43.168779
 30
0.0
 10
50.590003
 20
43.149279
 30
0.0
 10
49.777182
 20
41.648565
 30
0.0
  0
SPLINE
  5
456
100
AcDbEntity
  8
0
 62
7
100
AcDbSpline
 70
8
 71
3
 72
8
 73
4
 74
0
 40
0
 40
0
 40
0
 40
0
 40
1
 40
1
 40
1
 40
1
 10
49.777182
 20
41.648565
 30
0.0
 10
49.137999
 20
40.468442
 30
0.0
 10
49.015436
 20
40.031517
 30
0.0
 10
49.245734
 20
39.754022
 30
0.0
  0
SPLINE
  5
457
100
AcDbEntity
  8
0
 62
7
100
AcDbSpline
 70
8
 71
3
 72
8
 73
4
 74
0
 40
0
 40
0
 40
0
 40
0
 40
1
 40
1
 40
1
 40
1
 10
49.245734
 20
39.754022
 30
0.0
 10
49.622332
 20
39.300248
 30
0.0
 10
50.506617
 20
39.537177
 30
0.0
 10
51.130129
 20
40.258913
 30
0.0
  0
LWPOLYLINE
  5
458
100
AcDbEntity
  8
0
 62
7
100
AcDbPolyline
 90
1
 70
1
 10
40.739108
 20
41.226163
 30
0.0
  0
SPLINE
  5
459
100
AcDbEntity
  8
0
 62
7
100
AcDbSpline
 70
8
 71
3
 72
8
 73
4
 74
0
 40
0
 40
0
 40
0
 40
0
 40
1
 40
1
 40
1
 40
1
 10
107.955797
 20
44.639577
 30
0.0
 10
108.379472
 20
45.483232
 30
0.0
 10
108.606741
 20
46.444800
 30
0.0
 10
108.657250
 20
47.607379
 30
0.0
  0
SPLINE
  5
45a
100
AcDbEntity
  8
0
 62
7
100
AcDbSpline
 70
8
 71
3
 72
8
 73
4
 74
0
 40
0
 40
0
 40
0
 40
0
 40
1
 40
1
 40
1
 40
1
 10
108.657250
 20
47.607379
 30
0.0
 10
108.698345
 20
48.553264
 30
0.0
 10
108.659631
 20
49.148577
 30
0.0
 10
108.571128
 20
48.930295
 30
0.0
  0
SPLINE
  5
45b
100
AcDbEntity
  8
0
 62
7
100
AcDbSpline
 70
8
 71
3
 72
8
 73
4
 74
0
 40
0
 40
0
 40
0
 40
0
 40
1
 40
1
 40
1
 40
1
 10
108.571128
 20
48.930295
 30
0.0
 10
108.482664
 20
48.712014
 30
0.0
 10
107.828961
 20
47.145863
 30
0.0
 10
107.118449
 20
45.449958
 30
0.0
  0
SPLINE
  5
45c
100
AcDbEntity
  8
0
 62
7
100
AcDbSpline
 70
8
 71
3
 72
8
 73
4
 74
0
 40
0
 40
0
 40
0
 40
0
 40
1
 40
1
 40
1
 40
1
 10
107.118449
 20
45.449958
 30
0.0
 10
106.407937
 20
43.754053
 30
0.0
 10
105.826608
 20
42.273262
 30
0.0
 10
105.826608
 20
42.159312
 30
0.0
  0
SPLINE
  5
45d
100
AcDbEntity
  8
0
 62
7
100
AcDbSpline
 70
8
 71
3
 72
8
 73
4
 74
0
 40
0
 40
0
 40
0
 40
0
 40
1
 40
1
 40
1
 40
1
 10
105.826608
 20
42.159312
 30
0.0
 10
105.826608
 20
41.681712
 30
0.0
 10
107.377868
 20
43.488753
 30
0.0
 10
107.955797
 20
44.639577
 30
0.0
  0
LWPOLYLINE
  5
45e
100
AcDbEntity
  8
0
 62
7
100
AcDbPolyline
 90
1
 70
1
 10
51.130129
 20
40.258913
 30
0.0
  0
SPLINE
  5
45f
100
AcDbEntity
  8
0
 62
7
100
AcDbSpline
 70
8
 71
3
 72
8
 73
4
 74
0
 40
0
 40
0
 40
0
 40
0
 40
1
 40
1
 40
1
 40
1
 10
63.625566
 20
69.929753
 30
0.0
 10
64.353170
 20
70.271510
 30
0.0
 10
65.183083
 20
70.814734
 30
0.0
 10
65.469818
 20
71.136920
 30
0.0
  0
LWPOLYLINE
  5
460
100
AcDbEntity
  8
0
 62
7
100
AcDbPolyline
 90
1
 70
1
 10
107.955797
 20
44.639577
 30
0.0
  0
SPLINE
  5
461
100
AcDbEntity
  8
0
 62
7
100
AcDbSpline
 70
8
 71
3
 72
8
 73
4
 74
0
 40
0
 40
0
 40
0
 40
0
 40
1
 40
1
 40
1
 40
1
 10
64.600127
 20
71.174419
 30
0.0
 10
63.333262
 20
70.675069
 30
0.0
 10
61.905774
 20
70.448072
 30
0.0
 10
61.905774
 20
70.745972
 30
0.0
  0
SPLINE
  5
462
100
AcDbEntity
  8
0
 62
7
100
AcDbSpline
 70
8
 71
3
 72
8
 73
4
 74
0
 40
0
 40
0
 40
0
 40
0
 40
1
 40
1
 40
1
 40
1
 10
61.905774
 20
70.745972
 30
0.0
 10
61.905774
 20
71.008626
 30
0.0
 10
62.559861
 20
72.376874
 30
0.0
 10
62.923589
 20
72.875087
 30
0.0
  0
SPLINE
  5
463
100
AcDbEntity
  8
0
 62
7
100
AcDbSpline
 70
8
 71
3
 72
8
 73
4
 74
0
 40
0
 40
0
 40
0
 40
0
 40
1
 40
1
 40
1
 40
1
 10
62.923589
 20
72.875087
 30
0.0
 10
63.136071
 20
73.166129
 30
0.0
 10
62.878653
 20
72.963585
 30
0.0
 10
62.351550
 20
72.424991
 30
0.0
  0
SPLINE
  5
464
100
AcDbEntity
  8
0
 62
7
100
AcDbSpline
 70
8
 71
3
 72
8
 73
4
 74
0
 40
0
 40
0
 40
0
 40
0
 40
1
 40
1
 40
1
 40
1
 10
62.351550
 20
72.424991
 30
0.0
 10
61.366591
 20
71.418564
 30
0.0
 10
60.938989
 20
70.400344
 30
0.0
 10
61.207478
 20
69.700680
 30
0.0
  0
SPLINE
  5
465
100
AcDbEntity
  8
0
 62
7
100
AcDbSpline
 70
8
 71
3
 72
8
 73
4
 74
0
 40
0
 40
0
 40
0
 40
0
 40
1
 40
1
 40
1
 40
1
 10
61.207478
 20
69.700680
 30
0.0
 10
61.420820
 20
69.144716
 30
0.0
 10
62.088964
 20
69.208012
 30
0.0
 10
63.625566
 20
69.929753
 30
0.0
  0
LWPOLYLINE
  5
466
100
AcDbEntity
  8
0
 62
7
100
AcDbPolyline
 90
3
 70
0
 10
65.469818
 20
71.136920
 30
0.0
 10
65.991153
 20
71.722710
 30
0.0
 10
64.600127
 20
71.174419
 30
0.0
  0
SPLINE
  5
467
100
AcDbEntity
  8
0
 62
7
100
AcDbSpline
 70
8
 71
3
 72
8
 73
4
 74
0
 40
0
 40
0
 40
0
 40
0
 40
1
 40
1
 40
1
 40
1
 10
58.319900
 20
71.590445
 30
0.0
 10
58.748761
 20
72.411167
 30
0.0
 10
59.403604
 20
73.371451
 30
0.0
 10
59.775109
 20
73.724405
 30
0.0
  0
SPLINE
  5
468
100
AcDbEntity
  8
0
 62
7
100
AcDbSpline
 70
8
 71
3
 72
8
 73
4
 74
0
 40
0
 40
0
 40
0
 40
0
 40
1
 40
1
 40
1
 40
1
 10
59.775109
 20
73.724405
 30
0.0
 10
60.589718
 20
74.498343
 30
0.0
 10
62.242869
 20
75.388629
 30
0.0
 10
62.865373
 20
75.388629
 30
0.0
  0
SPLINE
  5
469
100
AcDbEntity
  8
0
 62
7
100
AcDbSpline
 70
8
 71
3
 72
8
 73
4
 74
0
 40
0
 40
0
 40
0
 40
0
 40
1
 40
1
 40
1
 40
1
 10
62.865373
 20
75.388629
 30
0.0
 10
63.906649
 20
75.388629
 30
0.0
 10
62.875718
 20
75.682200
 30
0.0
 10
60.230986
 20
76.138810
 30
0.0
  0
SPLINE
  5
46a
100
AcDbEntity
  8
0
 62
7
100
AcDbSpline
 70
8
 71
3
 72
8
 73
4
 74
0
 40
0
 40
0
 40
0
 40
0
 40
1
 40
1
 40
1
 40
1
 10
60.230986
 20
76.138810
 30
0.0
 10
57.329044
 20
76.639825
 30
0.0
 10
56.709209
 20
76.506980
 30
0.0
 10
58.333899
 20
75.732219
 30
0.0
  0
SPLINE
  5
46b
100
AcDbEntity
  8
0
 62
7
100
AcDbSpline
 70
8
 71
3
 72
8
 73
4
 74
0
 40
0
 40
0
 40
0
 40
0
 40
1
 40
1
 40
1
 40
1
 10
58.333899
 20
75.732219
 30
0.0
 10
58.843222
 20
75.489340
 30
0.0
 10
59.259941
 20
75.210225
 30
0.0
 10
59.259941
 20
75.111962
 30
0.0
  0
SPLINE
  5
46c
100
AcDbEntity
  8
0
 62
7
100
AcDbSpline
 70
8
 71
3
 72
8
 73
4
 74
0
 40
0
 40
0
 40
0
 40
0
 40
1
 40
1
 40
1
 40
1
 10
59.259941
 20
75.111962
 30
0.0
 10
59.259941
 20
75.013701
 30
0.0
 10
58.945759
 20
74.470331
 30
0.0
 10
58.561758
 20
73.904475
 30
0.0
  0
SPLINE
  5
46d
100
AcDbEntity
  8
0
 62
7
100
AcDbSpline
 70
8
 71
3
 72
8
 73
4
 74
0
 40
0
 40
0
 40
0
 40
0
 40
1
 40
1
 40
1
 40
1
 10
58.561758
 20
73.904475
 30
0.0
 10
57.869828
 20
72.884858
 30
0.0
 10
57.599911
 20
72.229948
 30
0.0
 10
57.292399
 20
70.824566
 30
0.0
  0
SPLINE
  5
46e
100
AcDbEntity
  8
0
 62
7
100
AcDbSpline
 70
8
 71
3
 72
8
 73
4
 74
0
 40
0
 40
0
 40
0
 40
0
 40
1
 40
1
 40
1
 40
1
 10
57.292399
 20
70.824566
 30
0.0
 10
57.035999
 20
69.652774
 30
0.0
 10
57.480525
 20
69.984115
 30
0.0
 10
58.319900
 20
71.590445
 30
0.0
  0
LWPOLYLINE
  5
46f
100
AcDbEntity
  8
0
 62
7
100
AcDbPolyline
 90
1
 70
1
 10
63.625566
 20
69.929753
 30
0.0
  0
SPLINE
  5
470
100
AcDbEntity
  8
0
 62
7
100
AcDbSpline
 70
8
 71
3
 72
8
 73
4
 74
0
 40
0
 40
0
 40
0
 40
0
 40
1
 40
1
 40
1
 40
1
 10
37.491596
 20
73.533394
 30
0.0
 10
37.468074
 20
73.845523
 30
0.0
 10
37.355044
 20
73.962482
 30
0.0
 10
37.213593
 20
73.821031
 30
0.0
  0
SPLINE
  5
471
100
AcDbEntity
  8
0
 62
7
100
AcDbSpline
 70
8
 71
3
 72
8
 73
4
 74
0
 40
0
 40
0
 40
0
 40
0
 40
1
 40
1
 40
1
 40
1
 10
37.213593
 20
73.821031
 30
0.0
 10
37.082487
 20
73.689924
 30
0.0
 10
37.055211
 20
73.453218
 30
0.0
 10
37.152985
 20
73.295015
 30
0.0
  0
SPLINE
  5
472
100
AcDbEntity
  8
0
 62
7
100
AcDbSpline
 70
8
 71
3
 72
8
 73
4
 74
0
 40
0
 40
0
 40
0
 40
0
 40
1
 40
1
 40
1
 40
1
 10
37.152985
 20
73.295015
 30
0.0
 10
37.419330
 20
72.864062
 30
0.0
 10
37.535837
 20
72.946080
 30
0.0
 10
37.491596
 20
73.533394
 30
0.0
  0
LWPOLYLINE
  5
473
100
AcDbEntity
  8
0
 62
7
100
AcDbPolyline
 90
1
 70
1
 10
58.319900
 20
71.590445
 30
0.0
  0
SPLINE
  5
474
100
AcDbEntity
  8
0
 62
7
100
AcDbSpline
 70
8
 71
3
 72
8
 73
4
 74
0
 40
0
 40
0
 40
0
 40
0
 40
1
 40
1
 40
1
 40
1
 10
76.815365
 20
75.190191
 30
0.0
 10
76.634602
 20
76.390738
 30
0.0
 10
76.480212
 20
77.731953
 30
0.0
 10
76.472280
 20
78.170672
 30
0.0
  0
SPLINE
  5
475
100
AcDbEntity
  8
0
 62
7
100
AcDbSpline
 70
8
 71
3
 72
8
 73
4
 74
0
 40
0
 40
0
 40
0
 40
0
 40
1
 40
1
 40
1
 40
1
 10
76.472280
 20
78.170672
 30
0.0
 10
76.457913
 20
78.965250
 30
0.0
 10
75.656162
 20
80.726039
 30
0.0
 10
75.018276
 20
81.363926
 30
0.0
  0
SPLINE
  5
476
100
AcDbEntity
  8
0
 62
7
100
AcDbSpline
 70
8
 71
3
 72
8
 73
4
 74
0
 40
0
 40
0
 40
0
 40
0
 40
1
 40
1
 40
1
 40
1
 10
75.018276
 20
81.363926
 30
0.0
 10
74.654794
 20
81.727408
 30
0.0
 10
73.097173
 20
82.440825
 30
0.0
 10
71.827649
 20
82.825288
 30
0.0
  0
SPLINE
  5
477
100
AcDbEntity
  8
0
 62
7
100
AcDbSpline
 70
8
 71
3
 72
8
 73
4
 74
0
 40
0
 40
0
 40
0
 40
0
 40
1
 40
1
 40
1
 40
1
 10
71.827649
 20
82.825288
 30
0.0
 10
71.111152
 20
83.042273
 30
0.0
 10
69.912910
 20
82.948629
 30
0.0
 10
65.911108
 20
82.362910
 30
0.0
  0
SPLINE
  5
478
100
AcDbEntity
  8
0
 62
7
100
AcDbSpline
 70
8
 71
3
 72
8
 73
4
 74
0
 40
0
 40
0
 40
0
 40
0
 40
1
 40
1
 40
1
 40
1
 10
65.911108
 20
82.362910
 30
0.0
 10
64.825679
 20
82.204041
 30
0.0
 10
63.585325
 20
81.074697
 30
0.0
 10
63.977406
 20
80.602267
 30
0.0
  0
SPLINE
  5
479
100
AcDbEntity
  8
0
 62
7
100
AcDbSpline
 70
8
 71
3
 72
8
 73
4
 74
0
 40
0
 40
0
 40
0
 40
0
 40
1
 40
1
 40
1
 40
1
 10
63.977406
 20
80.602267
 30
0.0
 10
64.159593
 20
80.382745
 30
0.0
 10
64.125245
 20
80.120509
 30
0.0
 10
63.868274
 20
79.769081
 30
0.0
  0
SPLINE
  5
47a
100
AcDbEntity
  8
0
 62
7
100
AcDbSpline
 70
8
 71
3
 72
8
 73
4
 74
0
 40
0
 40
0
 40
0
 40
0
 40
1
 40
1
 40
1
 40
1
 10
63.868274
 20
79.769081
 30
0.0
 10
63.418868
 20
79.154486
 30
0.0
 10
63.371452
 20
78.034462
 30
0.0
 10
63.794836
 20
78.034462
 30
0.0
  0
SPLINE
  5
47b
100
AcDbEntity
  8
0
 62
7
100
AcDbSpline
 70
8
 71
3
 72
8
 73
4
 74
0
 40
0
 40
0
 40
0
 40
0
 40
1
 40
1
 40
1
 40
1
 10
63.794836
 20
78.034462
 30
0.0
 10
63.960693
 20
78.034462
 30
0.0
 10
64.268070
 20
78.242821
 30
0.0
 10
64.477892
 20
78.497483
 30
0.0
  0
SPLINE
  5
47c
100
AcDbEntity
  8
0
 62
7
100
AcDbSpline
 70
8
 71
3
 72
8
 73
4
 74
0
 40
0
 40
0
 40
0
 40
0
 40
1
 40
1
 40
1
 40
1
 10
64.477892
 20
78.497483
 30
0.0
 10
64.838818
 20
78.935535
 30
0.0
 10
64.851060
 20
78.934289
 30
0.0
 10
64.704926
 20
78.474358
 30
0.0
  0
SPLINE
  5
47d
100
AcDbEntity
  8
0
 62
7
100
AcDbSpline
 70
8
 71
3
 72
8
 73
4
 74
0
 40
0
 40
0
 40
0
 40
0
 40
1
 40
1
 40
1
 40
1
 10
64.704926
 20
78.474358
 30
0.0
 10
64.032593
 20
76.358276
 30
0.0
 10
64.359896
 20
75.158261
 30
0.0
 10
65.362029
 20
76.065182
 30
0.0
  0
SPLINE
  5
47e
100
AcDbEntity
  8
0
 62
7
100
AcDbSpline
 70
8
 71
3
 72
8
 73
4
 74
0
 40
0
 40
0
 40
0
 40
0
 40
1
 40
1
 40
1
 40
1
 10
65.362029
 20
76.065182
 30
0.0
 10
65.931484
 20
76.580532
 30
0.0
 10
66.018503
 20
76.416625
 30
0.0
 10
65.595283
 20
75.625830
 30
0.0
  0
SPLINE
  5
47f
100
AcDbEntity
  8
0
 62
7
100
AcDbSpline
 70
8
 71
3
 72
8
 73
4
 74
0
 40
0
 40
0
 40
0
 40
0
 40
1
 40
1
 40
1
 40
1
 10
65.595283
 20
75.625830
 30
0.0
 10
65.203655
 20
74.894064
 30
0.0
 10
65.529299
 20
74.065717
 30
0.0
 10
66.208606
 20
74.065717
 30
0.0
  0
SPLINE
  5
480
100
AcDbEntity
  8
0
 62
7
100
AcDbSpline
 70
8
 71
3
 72
8
 73
4
 74
0
 40
0
 40
0
 40
0
 40
0
 40
1
 40
1
 40
1
 40
1
 10
66.208606
 20
74.065717
 30
0.0
 10
66.518258
 20
74.065717
 30
0.0
 10
67.098627
 20
74.379021
 30
0.0
 10
67.498315
 20
74.761945
 30
0.0
  0
SPLINE
  5
481
100
AcDbEntity
  8
0
 62
7
100
AcDbSpline
 70
8
 71
3
 72
8
 73
4
 74
0
 40
0
 40
0
 40
0
 40
0
 40
1
 40
1
 40
1
 40
1
 10
67.498315
 20
74.761945
 30
0.0
 10
68.516704
 20
75.737622
 30
0.0
 10
70.719154
 20
76.290244
 30
0.0
 10
71.657223
 20
75.805464
 30
0.0
  0
SPLINE
  5
482
100
AcDbEntity
  8
0
 62
7
100
AcDbSpline
 70
8
 71
3
 72
8
 73
4
 74
0
 40
0
 40
0
 40
0
 40
0
 40
1
 40
1
 40
1
 40
1
 10
71.657223
 20
75.805464
 30
0.0
 10
72.924712
 20
75.150448
 30
0.0
 10
74.136583
 20
75.175478
 30
0.0
 10
73.893646
 20
75.851655
 30
0.0
  0
SPLINE
  5
483
100
AcDbEntity
  8
0
 62
7
100
AcDbSpline
 70
8
 71
3
 72
8
 73
4
 74
0
 40
0
 40
0
 40
0
 40
0
 40
1
 40
1
 40
1
 40
1
 10
73.893646
 20
75.851655
 30
0.0
 10
73.753491
 20
76.241749
 30
0.0
 10
73.827725
 20
76.227112
 30
0.0
 10
74.364969
 20
75.758725
 30
0.0
  0
SPLINE
  5
484
100
AcDbEntity
  8
0
 62
7
100
AcDbSpline
 70
8
 71
3
 72
8
 73
4
 74
0
 40
0
 40
0
 40
0
 40
0
 40
1
 40
1
 40
1
 40
1
 10
74.364969
 20
75.758725
 30
0.0
 10
75.465543
 20
74.799206
 30
0.0
 10
75.704285
 20
74.739556
 30
0.0
 10
75.520981
 20
75.469893
 30
0.0
  0
SPLINE
  5
485
100
AcDbEntity
  8
0
 62
7
100
AcDbSpline
 70
8
 71
3
 72
8
 73
4
 74
0
 40
0
 40
0
 40
0
 40
0
 40
1
 40
1
 40
1
 40
1
 10
75.520981
 20
75.469893
 30
0.0
 10
75.425787
 20
75.849181
 30
0.0
 10
75.484389
 20
76.203604
 30
0.0
 10
75.660271
 20
76.312305
 30
0.0
  0
SPLINE
  5
486
100
AcDbEntity
  8
0
 62
7
100
AcDbSpline
 70
8
 71
3
 72
8
 73
4
 74
0
 40
0
 40
0
 40
0
 40
0
 40
1
 40
1
 40
1
 40
1
 10
75.660271
 20
76.312305
 30
0.0
 10
76.090854
 20
76.578420
 30
0.0
 10
76.218058
 20
76.373030
 30
0.0
 10
76.382650
 20
75.145903
 30
0.0
  0
LWPOLYLINE
  5
487
100
AcDbEntity
  8
0
 62
7
100
AcDbPolyline
 90
1
 70
1
 10
37.491596
 20
73.533394
 30
0.0
  0
SPLINE
  5
488
100
AcDbEntity
  8
0
 62
7
100
AcDbSpline
 70
8
 71
3
 72
8
 73
4
 74
0
 40
0
 40
0
 40
0
 40
0
 40
1
 40
1
 40
1
 40
1
 10
75.583878
 20
74.065717
 30
0.0
 10
75.064869
 20
74.065717
 30
0.0
 10
74.305049
 20
74.191307
 30
0.0
 10
73.895395
 20
74.344805
 30
0.0
  0
LWPOLYLINE
  5
489
100
AcDbEntity
  8
0
 62
7
100
AcDbPolyline
 90
3
 70
0
 10
76.382650
 20
75.145903
 30
0.0
 10
76.527533
 20
74.065717
 30
0.0
 10
75.583878
 20
74.065717
 30
0.0
  0
SPLINE
  5
48a
100
AcDbEntity
  8
0
 62
7
100
AcDbSpline
 70
8
 71
3
 72
8
 73
4
 74
0
 40
0
 40
0
 40
0
 40
0
 40
1
 40
1
 40
1
 40
1
 10
73.733840
 20
74.033465
 30
0.0
 10
74.221404
 20
73.539919
 30
0.0
 10
75.149004
 20
73.245954
 30
0.0
 10
76.867089
 20
73.040502
 30
0.0
  0
SPLINE
  5
48b
100
AcDbEntity
  8
0
 62
7
100
AcDbSpline
 70
8
 71
3
 72
8
 73
4
 74
0
 40
0
 40
0
 40
0
 40
0
 40
1
 40
1
 40
1
 40
1
 10
76.867089
 20
73.040502
 30
0.0
 10
77.055189
 20
73.018012
 30
0.0
 10
77.038597
 20
73.707620
 30
0.0
 10
76.815365
 20
75.190197
 30
0.0
  0
LWPOLYLINE
  5
48c
100
AcDbEntity
  8
0
 62
7
100
AcDbPolyline
 90
3
 70
0
 10
73.895395
 20
74.344805
 30
0.0
 10
73.150566
 20
74.623893
 30
0.0
 10
73.733840
 20
74.033465
 30
0.0
  0
SPLINE
  5
48d
100
AcDbEntity
  8
0
 62
7
100
AcDbSpline
 70
8
 71
3
 72
8
 73
4
 74
0
 40
0
 40
0
 40
0
 40
0
 40
1
 40
1
 40
1
 40
1
 10
70.514041
 20
74.228433
 30
0.0
 10
71.200052
 20
74.677926
 30
0.0
 10
71.398403
 20
75.391425
 30
0.0
 10
70.835462
 20
75.384644
 30
0.0
  0
SPLINE
  5
48e
100
AcDbEntity
  8
0
 62
7
100
AcDbSpline
 70
8
 71
3
 72
8
 73
4
 74
0
 40
0
 40
0
 40
0
 40
0
 40
1
 40
1
 40
1
 40
1
 10
70.835462
 20
75.384644
 30
0.0
 10
70.049406
 20
75.375172
 30
0.0
 10
68.380864
 20
74.610272
 30
0.0
 10
68.302521
 20
74.223478
 30
0.0
  0
SPLINE
  5
48f
100
AcDbEntity
  8
0
 62
7
100
AcDbSpline
 70
8
 71
3
 72
8
 73
4
 74
0
 40
0
 40
0
 40
0
 40
0
 40
1
 40
1
 40
1
 40
1
 10
68.302521
 20
74.223478
 30
0.0
 10
68.186350
 20
73.649943
 30
0.0
 10
69.636111
 20
73.653192
 30
0.0
 10
70.514041
 20
74.228426
 30
0.0
  0
LWPOLYLINE
  5
490
100
AcDbEntity
  8
0
 62
7
100
AcDbPolyline
 90
1
 70
1
 10
76.815365
 20
75.190197
 30
0.0
  0
SPLINE
  5
491
100
AcDbEntity
  8
0
 62
7
100
AcDbSpline
 70
8
 71
3
 72
8
 73
4
 74
0
 40
0
 40
0
 40
0
 40
0
 40
1
 40
1
 40
1
 40
1
 10
89.951608
 20
74.556766
 30
0.0
 10
86.350671
 20
76.811706
 30
0.0
 10
77.251608
 20
81.028736
 30
0.0
 10
77.251608
 20
80.442673
 30
0.0
  0
SPLINE
  5
492
100
AcDbEntity
  8
0
 62
7
100
AcDbSpline
 70
8
 71
3
 72
8
 73
4
 74
0
 40
0
 40
0
 40
0
 40
0
 40
1
 40
1
 40
1
 40
1
 10
77.251608
 20
80.442673
 30
0.0
 10
77.251608
 20
80.105065
 30
0.0
 10
80.123406
 20
78.521817
 30
0.0
 10
83.121151
 20
77.206737
 30
0.0
  0
SPLINE
  5
493
100
AcDbEntity
  8
0
 62
7
100
AcDbSpline
 70
8
 71
3
 72
8
 73
4
 74
0
 40
0
 40
0
 40
0
 40
0
 40
1
 40
1
 40
1
 40
1
 10
83.121151
 20
77.206737
 30
0.0
 10
84.767851
 20
76.484350
 30
0.0
 10
87.127181
 20
75.432333
 30
0.0
 10
88.364108
 20
74.868921
 30
0.0
  0
SPLINE
  5
494
100
AcDbEntity
  8
0
 62
7
100
AcDbSpline
 70
8
 71
3
 72
8
 73
4
 74
0
 40
0
 40
0
 40
0
 40
0
 40
1
 40
1
 40
1
 40
1
 10
88.364108
 20
74.868921
 30
0.0
 10
91.050459
 20
73.645308
 30
0.0
 10
91.570376
 20
73.543075
 30
0.0
 10
89.951608
 20
74.556766
 30
0.0
  0
LWPOLYLINE
  5
495
100
AcDbEntity
  8
0
 62
7
100
AcDbPolyline
 90
1
 70
1
 10
70.514041
 20
74.228426
 30
0.0
  0
SPLINE
  5
496
100
AcDbEntity
  8
0
 62
7
100
AcDbSpline
 70
8
 71
3
 72
8
 73
4
 74
0
 40
0
 40
0
 40
0
 40
0
 40
1
 40
1
 40
1
 40
1
 10
96.566191
 20
74.176424
 30
0.0
 10
96.566191
 20
74.237316
 30
0.0
 10
96.179238
 20
74.524896
 30
0.0
 10
95.706295
 20
74.815488
 30
0.0
  0
SPLINE
  5
497
100
AcDbEntity
  8
0
 62
7
100
AcDbSpline
 70
8
 71
3
 72
8
 73
4
 74
0
 40
0
 40
0
 40
0
 40
0
 40
1
 40
1
 40
1
 40
1
 10
95.706295
 20
74.815488
 30
0.0
 10
94.241924
 20
75.715252
 30
0.0
 10
89.417975
 20
77.006209
 30
0.0
 10
89.424917
 20
76.496474
 30
0.0
  0
SPLINE
  5
498
100
AcDbEntity
  8
0
 62
7
100
AcDbSpline
 70
8
 71
3
 72
8
 73
4
 74
0
 40
0
 40
0
 40
0
 40
0
 40
1
 40
1
 40
1
 40
1
 10
89.424917
 20
76.496474
 30
0.0
 10
89.427299
 20
76.331215
 30
0.0
 10
90.940877
 20
75.806959
 30
0.0
 10
94.978691
 20
74.572984
 30
0.0
  0
SPLINE
  5
499
100
AcDbEntity
  8
0
 62
7
100
AcDbSpline
 70
8
 71
3
 72
8
 73
4
 74
0
 40
0
 40
0
 40
0
 40
0
 40
1
 40
1
 40
1
 40
1
 10
94.978691
 20
74.572984
 30
0.0
 10
95.779056
 20
74.328388
 30
0.0
 10
96.463665
 20
74.114192
 30
0.0
 10
96.500045
 20
74.096988
 30
0.0
  0
SPLINE
  5
49a
100
AcDbEntity
  8
0
 62
7
100
AcDbSpline
 70
8
 71
3
 72
8
 73
4
 74
0
 40
0
 40
0
 40
0
 40
0
 40
1
 40
1
 40
1
 40
1
 10
96.500045
 20
74.096988
 30
0.0
 10
96.536425
 20
74.079791
 30
0.0
 10
96.566191
 20
74.115536
 30
0.0
 10
96.566191
 20
74.176424
 30
0.0
  0
LWPOLYLINE
  5
49b
100
AcDbEntity
  8
0
 62
7
100
AcDbPolyline
 90
1
 70
1
 10
89.951608
 20
74.556766
 30
0.0
  0
SPLINE
  5
49c
100
AcDbEntity
  8
0
 62
7
100
AcDbSpline
 70
8
 71
3
 72
8
 73
4
 74
0
 40
0
 40
0
 40
0
 40
0
 40
1
 40
1
 40
1
 40
1
 10
104.017662
 20
75.781845
 30
0.0
 10
104.040972
 20
76.942974
 30
0.0
 10
103.949249
 20
77.130132
 30
0.0
 10
102.818086
 20
78.229637
 30
0.0
  0
SPLINE
  5
49d
100
AcDbEntity
  8
0
 62
7
100
AcDbSpline
 70
8
 71
3
 72
8
 73
4
 74
0
 40
0
 40
0
 40
0
 40
0
 40
1
 40
1
 40
1
 40
1
 10
102.818086
 20
78.229637
 30
0.0
 10
102.144441
 20
78.884431
 30
0.0
 10
101.593274
 20
79.550395
 30
0.0
 10
101.593274
 20
79.709558
 30
0.0
  0
SPLINE
  5
49e
100
AcDbEntity
  8
0
 62
7
100
AcDbSpline
 70
8
 71
3
 72
8
 73
4
 74
0
 40
0
 40
0
 40
0
 40
0
 40
1
 40
1
 40
1
 40
1
 10
101.593274
 20
79.709558
 30
0.0
 10
101.593274
 20
80.211927
 30
0.0
 10
104.281171
 20
77.413535
 30
0.0
 10
104.673755
 20
76.502443
 30
0.0
  0
SPLINE
  5
49f
100
AcDbEntity
  8
0
 62
7
100
AcDbSpline
 70
8
 71
3
 72
8
 73
4
 74
0
 40
0
 40
0
 40
0
 40
0
 40
1
 40
1
 40
1
 40
1
 10
104.673755
 20
76.502443
 30
0.0
 10
105.196629
 20
75.288971
 30
0.0
 10
105.562024
 20
75.676937
 30
0.0
 10
105.562024
 20
77.445579
 30
0.0
  0
SPLINE
  5
4a0
100
AcDbEntity
  8
0
 62
7
100
AcDbSpline
 70
8
 71
3
 72
8
 73
4
 74
0
 40
0
 40
0
 40
0
 40
0
 40
1
 40
1
 40
1
 40
1
 10
105.562024
 20
77.445579
 30
0.0
 10
105.562024
 20
78.938043
 30
0.0
 10
105.557500
 20
78.946407
 30
0.0
 10
103.908378
 20
80.506988
 30
0.0
  0
SPLINE
  5
4a1
100
AcDbEntity
  8
0
 62
7
100
AcDbSpline
 70
8
 71
3
 72
8
 73
4
 74
0
 40
0
 40
0
 40
0
 40
0
 40
1
 40
1
 40
1
 40
1
 10
103.908378
 20
80.506988
 30
0.0
 10
102.165991
 20
82.155821
 30
0.0
 10
102.266073
 20
82.222509
 30
0.0
 10
104.239108
 20
80.727365
 30
0.0
  0
SPLINE
  5
4a2
100
AcDbEntity
  8
0
 62
7
100
AcDbSpline
 70
8
 71
3
 72
8
 73
4
 74
0
 40
0
 40
0
 40
0
 40
0
 40
1
 40
1
 40
1
 40
1
 10
104.239108
 20
80.727365
 30
0.0
 10
105.442012
 20
79.815820
 30
0.0
 10
106.034221
 20
78.757899
 30
0.0
 10
106.071061
 20
77.454765
 30
0.0
  0
SPLINE
  5
4a3
100
AcDbEntity
  8
0
 62
7
100
AcDbSpline
 70
8
 71
3
 72
8
 73
4
 74
0
 40
0
 40
0
 40
0
 40
0
 40
1
 40
1
 40
1
 40
1
 10
106.071061
 20
77.454765
 30
0.0
 10
106.096805
 20
76.544361
 30
0.0
 10
106.513238
 20
76.281598
 30
0.0
 10
106.870976
 20
76.950038
 30
0.0
  0
SPLINE
  5
4a4
100
AcDbEntity
  8
0
 62
7
100
AcDbSpline
 70
8
 71
3
 72
8
 73
4
 74
0
 40
0
 40
0
 40
0
 40
0
 40
1
 40
1
 40
1
 40
1
 10
106.870976
 20
76.950038
 30
0.0
 10
107.073388
 20
77.328247
 30
0.0
 10
107.033457
 20
77.915614
 30
0.0
 10
106.722923
 20
79.127739
 30
0.0
  0
SPLINE
  5
4a5
100
AcDbEntity
  8
0
 62
7
100
AcDbSpline
 70
8
 71
3
 72
8
 73
4
 74
0
 40
0
 40
0
 40
0
 40
0
 40
1
 40
1
 40
1
 40
1
 10
106.722923
 20
79.127739
 30
0.0
 10
106.186589
 20
81.221257
 30
0.0
 10
105.862295
 20
81.707889
 30
0.0
 10
104.378469
 20
82.645808
 30
0.0
  0
SPLINE
  5
4a6
100
AcDbEntity
  8
0
 62
7
100
AcDbSpline
 70
8
 71
3
 72
8
 73
4
 74
0
 40
0
 40
0
 40
0
 40
0
 40
1
 40
1
 40
1
 40
1
 10
104.378469
 20
82.645808
 30
0.0
 10
103.719736
 20
83.062188
 30
0.0
 10
103.180774
 20
83.442154
 30
0.0
 10
103.180774
 20
83.490173
 30
0.0
  0
SPLINE
  5
4a7
100
AcDbEntity
  8
0
 62
7
100
AcDbSpline
 70
8
 71
3
 72
8
 73
4
 74
0
 40
0
 40
0
 40
0
 40
0
 40
1
 40
1
 40
1
 40
1
 10
103.180774
 20
83.490173
 30
0.0
 10
103.180774
 20
83.538192
 30
0.0
 10
103.540100
 20
83.505625
 30
0.0
 10
103.979276
 20
83.417783
 30
0.0
  0
SPLINE
  5
4a8
100
AcDbEntity
  8
0
 62
7
100
AcDbSpline
 70
8
 71
3
 72
8
 73
4
 74
0
 40
0
 40
0
 40
0
 40
0
 40
1
 40
1
 40
1
 40
1
 10
103.979276
 20
83.417783
 30
0.0
 10
104.644470
 20
83.284743
 30
0.0
 10
104.750026
 20
83.330402
 30
0.0
 10
104.611551
 20
83.691264
 30
0.0
  0
SPLINE
  5
4a9
100
AcDbEntity
  8
0
 62
7
100
AcDbSpline
 70
8
 71
3
 72
8
 73
4
 74
0
 40
0
 40
0
 40
0
 40
0
 40
1
 40
1
 40
1
 40
1
 10
104.611551
 20
83.691264
 30
0.0
 10
104.430132
 20
84.164032
 30
0.0
 10
104.103374
 20
84.259613
 30
0.0
 10
101.725566
 20
84.535441
 30
0.0
  0
SPLINE
  5
4aa
100
AcDbEntity
  8
0
 62
7
100
AcDbSpline
 70
8
 71
3
 72
8
 73
4
 74
0
 40
0
 40
0
 40
0
 40
0
 40
1
 40
1
 40
1
 40
1
 10
101.725566
 20
84.535441
 30
0.0
 10
98.669774
 20
84.889914
 30
0.0
 10
96.246011
 20
84.868467
 30
0.0
 10
94.877792
 20
84.474844
 30
0.0
  0
SPLINE
  5
4ab
100
AcDbEntity
  8
0
 62
7
100
AcDbSpline
 70
8
 71
3
 72
8
 73
4
 74
0
 40
0
 40
0
 40
0
 40
0
 40
1
 40
1
 40
1
 40
1
 10
94.877792
 20
84.474844
 30
0.0
 10
91.800712
 20
83.589598
 30
0.0
 10
88.977166
 20
82.738621
 30
0.0
 10
88.231816
 20
82.471842
 30
0.0
  0
SPLINE
  5
4ac
100
AcDbEntity
  8
0
 62
7
100
AcDbSpline
 70
8
 71
3
 72
8
 73
4
 74
0
 40
0
 40
0
 40
0
 40
0
 40
1
 40
1
 40
1
 40
1
 10
88.231816
 20
82.471842
 30
0.0
 10
87.363797
 20
82.161155
 30
0.0
 10
82.807858
 20
79.646285
 30
0.0
 10
82.807858
 20
79.477828
 30
0.0
  0
SPLINE
  5
4ad
100
AcDbEntity
  8
0
 62
7
100
AcDbSpline
 70
8
 71
3
 72
8
 73
4
 74
0
 40
0
 40
0
 40
0
 40
0
 40
1
 40
1
 40
1
 40
1
 10
82.807858
 20
79.477828
 30
0.0
 10
82.807858
 20
79.420424
 30
0.0
 10
83.584918
 20
78.998691
 30
0.0
 10
84.534658
 20
78.540639
 30
0.0
  0
SPLINE
  5
4ae
100
AcDbEntity
  8
0
 62
7
100
AcDbSpline
 70
8
 71
3
 72
8
 73
4
 74
0
 40
0
 40
0
 40
0
 40
0
 40
1
 40
1
 40
1
 40
1
 10
84.534658
 20
78.540639
 30
0.0
 10
86.379166
 20
77.651049
 30
0.0
 10
89.687024
 20
77.132958
 30
0.0
 10
89.687024
 20
77.733655
 30
0.0
  0
SPLINE
  5
4af
100
AcDbEntity
  8
0
 62
7
100
AcDbSpline
 70
8
 71
3
 72
8
 73
4
 74
0
 40
0
 40
0
 40
0
 40
0
 40
1
 40
1
 40
1
 40
1
 10
89.687024
 20
77.733655
 30
0.0
 10
89.687024
 20
77.899099
 30
0.0
 10
89.419134
 20
78.047506
 30
0.0
 10
89.091712
 20
78.063452
 30
0.0
  0
SPLINE
  5
4b0
100
AcDbEntity
  8
0
 62
7
100
AcDbSpline
 70
8
 71
3
 72
8
 73
4
 74
0
 40
0
 40
0
 40
0
 40
0
 40
1
 40
1
 40
1
 40
1
 10
89.091712
 20
78.063452
 30
0.0
 10
88.404851
 20
78.096898
 30
0.0
 10
90.623104
 20
78.618763
 30
0.0
 10
91.380114
 20
78.601819
 30
0.0
  0
SPLINE
  5
4b1
100
AcDbEntity
  8
0
 62
7
100
AcDbSpline
 70
8
 71
3
 72
8
 73
4
 74
0
 40
0
 40
0
 40
0
 40
0
 40
1
 40
1
 40
1
 40
1
 10
91.380114
 20
78.601819
 30
0.0
 10
91.656471
 20
78.595627
 30
0.0
 10
92.013659
 20
78.450078
 30
0.0
 10
92.173864
 20
78.278358
 30
0.0
  0
SPLINE
  5
4b2
100
AcDbEntity
  8
0
 62
7
100
AcDbSpline
 70
8
 71
3
 72
8
 73
4
 74
0
 40
0
 40
0
 40
0
 40
0
 40
1
 40
1
 40
1
 40
1
 10
92.173864
 20
78.278358
 30
0.0
 10
92.394119
 20
78.042275
 30
0.0
 10
92.303854
 20
78.000601
 30
0.0
 10
91.803691
 20
78.107455
 30
0.0
  0
SPLINE
  5
4b3
100
AcDbEntity
  8
0
 62
7
100
AcDbSpline
 70
8
 71
3
 72
8
 73
4
 74
0
 40
0
 40
0
 40
0
 40
0
 40
1
 40
1
 40
1
 40
1
 10
91.803691
 20
78.107455
 30
0.0
 10
91.439889
 20
78.185179
 30
0.0
 10
90.926105
 20
78.166502
 30
0.0
 10
90.661950
 20
78.065953
 30
0.0
  0
SPLINE
  5
4b4
100
AcDbEntity
  8
0
 62
7
100
AcDbSpline
 70
8
 71
3
 72
8
 73
4
 74
0
 40
0
 40
0
 40
0
 40
0
 40
1
 40
1
 40
1
 40
1
 10
90.661950
 20
78.065953
 30
0.0
 10
90.197964
 20
77.889338
 30
0.0
 10
90.197964
 20
77.868507
 30
0.0
 10
90.661950
 20
77.451971
 30
0.0
  0
SPLINE
  5
4b5
100
AcDbEntity
  8
0
 62
7
100
AcDbSpline
 70
8
 71
3
 72
8
 73
4
 74
0
 40
0
 40
0
 40
0
 40
0
 40
1
 40
1
 40
1
 40
1
 10
90.661950
 20
77.451971
 30
0.0
 10
90.926105
 20
77.214831
 30
0.0
 10
91.916139
 20
76.825888
 30
0.0
 10
92.862024
 20
76.587654
 30
0.0
  0
SPLINE
  5
4b6
100
AcDbEntity
  8
0
 62
7
100
AcDbSpline
 70
8
 71
3
 72
8
 73
4
 74
0
 40
0
 40
0
 40
0
 40
0
 40
1
 40
1
 40
1
 40
1
 10
92.862024
 20
76.587654
 30
0.0
 10
93.807910
 20
76.349421
 30
0.0
 10
94.819007
 20
76.084068
 30
0.0
 10
95.108908
 20
75.997983
 30
0.0
  0
SPLINE
  5
4b7
100
AcDbEntity
  8
0
 62
7
100
AcDbSpline
 70
8
 71
3
 72
8
 73
4
 74
0
 40
0
 40
0
 40
0
 40
0
 40
1
 40
1
 40
1
 40
1
 10
95.108908
 20
75.997983
 30
0.0
 10
95.572498
 20
75.860323
 30
0.0
 10
95.592500
 20
75.893877
 30
0.0
 10
95.274948
 20
76.276504
 30
0.0
  0
SPLINE
  5
4b8
100
AcDbEntity
  8
0
 62
7
100
AcDbSpline
 70
8
 71
3
 72
8
 73
4
 74
0
 40
0
 40
0
 40
0
 40
0
 40
1
 40
1
 40
1
 40
1
 10
95.274948
 20
76.276504
 30
0.0
 10
94.854969
 20
76.782549
 30
0.0
 10
94.953352
 20
76.808677
 30
0.0
 10
95.909712
 20
76.445070
 30
0.0
  0
SPLINE
  5
4b9
100
AcDbEntity
  8
0
 62
7
100
AcDbSpline
 70
8
 71
3
 72
8
 73
4
 74
0
 40
0
 40
0
 40
0
 40
0
 40
1
 40
1
 40
1
 40
1
 10
95.909712
 20
76.445070
 30
0.0
 10
97.224234
 20
75.945288
 30
0.0
 10
97.416594
 20
76.888856
 30
0.0
 10
96.120569
 20
77.479364
 30
0.0
  0
SPLINE
  5
4ba
100
AcDbEntity
  8
0
 62
7
100
AcDbSpline
 70
8
 71
3
 72
8
 73
4
 74
0
 40
0
 40
0
 40
0
 40
0
 40
1
 40
1
 40
1
 40
1
 10
96.120569
 20
77.479364
 30
0.0
 10
95.048639
 20
77.967769
 30
0.0
 10
95.537401
 20
78.053546
 30
0.0
 10
96.838347
 20
77.605334
 30
0.0
  0
SPLINE
  5
4bb
100
AcDbEntity
  8
0
 62
7
100
AcDbSpline
 70
8
 71
3
 72
8
 73
4
 74
0
 40
0
 40
0
 40
0
 40
0
 40
1
 40
1
 40
1
 40
1
 10
96.838347
 20
77.605334
 30
0.0
 10
97.581387
 20
77.349334
 30
0.0
 10
98.413729
 20
77.259299
 30
0.0
 10
99.094094
 20
77.361328
 30
0.0
  0
SPLINE
  5
4bc
100
AcDbEntity
  8
0
 62
7
100
AcDbSpline
 70
8
 71
3
 72
8
 73
4
 74
0
 40
0
 40
0
 40
0
 40
0
 40
1
 40
1
 40
1
 40
1
 10
99.094094
 20
77.361328
 30
0.0
 10
99.988478
 20
77.495448
 30
0.0
 10
100.259608
 20
77.425291
 30
0.0
 10
100.684354
 20
76.949827
 30
0.0
  0
LWPOLYLINE
  5
4bd
100
AcDbEntity
  8
0
 62
7
100
AcDbPolyline
 90
1
 70
1
 10
96.566191
 20
74.176424
 30
0.0
  0
SPLINE
  5
4be
100
AcDbEntity
  8
0
 62
7
100
AcDbSpline
 70
8
 71
3
 72
8
 73
4
 74
0
 40
0
 40
0
 40
0
 40
0
 40
1
 40
1
 40
1
 40
1
 10
100.534941
 20
76.575513
 30
0.0
 10
99.874239
 20
76.774162
 30
0.0
 10
99.874372
 20
76.773447
 30
0.0
 10
100.650588
 20
75.949217
 30
0.0
  0
SPLINE
  5
4bf
100
AcDbEntity
  8
0
 62
7
100
AcDbSpline
 70
8
 71
3
 72
8
 73
4
 74
0
 40
0
 40
0
 40
0
 40
0
 40
1
 40
1
 40
1
 40
1
 10
100.650588
 20
75.949217
 30
0.0
 10
101.077996
 20
75.495372
 30
0.0
 10
101.574089
 20
75.124045
 30
0.0
 10
101.753019
 20
75.124045
 30
0.0
  0
SPLINE
  5
4c0
100
AcDbEntity
  8
0
 62
7
100
AcDbSpline
 70
8
 71
3
 72
8
 73
4
 74
0
 40
0
 40
0
 40
0
 40
0
 40
1
 40
1
 40
1
 40
1
 10
101.753019
 20
75.124045
 30
0.0
 10
101.931946
 20
75.124045
 30
0.0
 10
102.138398
 20
74.975217
 30
0.0
 10
102.211796
 20
74.793316
 30
0.0
  0
SPLINE
  5
4c1
100
AcDbEntity
  8
0
 62
7
100
AcDbSpline
 70
8
 71
3
 72
8
 73
4
 74
0
 40
0
 40
0
 40
0
 40
0
 40
1
 40
1
 40
1
 40
1
 10
102.211796
 20
74.793316
 30
0.0
 10
102.295301
 20
74.586367
 30
0.0
 10
102.353065
 20
74.626986
 30
0.0
 10
102.366135
 20
74.901848
 30
0.0
  0
SPLINE
  5
4c2
100
AcDbEntity
  8
0
 62
7
100
AcDbSpline
 70
8
 71
3
 72
8
 73
4
 74
0
 40
0
 40
0
 40
0
 40
0
 40
1
 40
1
 40
1
 40
1
 10
102.366135
 20
74.901848
 30
0.0
 10
102.377618
 20
75.143442
 30
0.0
 10
101.908007
 20
75.947114
 30
0.0
 10
101.322539
 20
76.687786
 30
0.0
  0
SPLINE
  5
4c3
100
AcDbEntity
  8
0
 62
7
100
AcDbSpline
 70
8
 71
3
 72
8
 73
4
 74
0
 40
0
 40
0
 40
0
 40
0
 40
1
 40
1
 40
1
 40
1
 10
101.322539
 20
76.687786
 30
0.0
 10
100.737072
 20
77.428458
 30
0.0
 10
100.325359
 20
78.034462
 30
0.0
 10
100.407621
 20
78.034462
 30
0.0
  0
SPLINE
  5
4c4
100
AcDbEntity
  8
0
 62
7
100
AcDbSpline
 70
8
 71
3
 72
8
 73
4
 74
0
 40
0
 40
0
 40
0
 40
0
 40
1
 40
1
 40
1
 40
1
 10
100.407621
 20
78.034462
 30
0.0
 10
100.967299
 20
78.034462
 30
0.0
 10
102.955849
 20
76.154426
 30
0.0
 10
103.311063
 20
75.289458
 30
0.0
  0
SPLINE
  5
4c5
100
AcDbEntity
  8
0
 62
7
100
AcDbSpline
 70
8
 71
3
 72
8
 73
4
 74
0
 40
0
 40
0
 40
0
 40
0
 40
1
 40
1
 40
1
 40
1
 10
103.311063
 20
75.289458
 30
0.0
 10
103.825908
 20
74.035782
 30
0.0
 10
103.984838
 20
74.146532
 30
0.0
 10
104.017662
 20
75.781845
 30
0.0
  0
LWPOLYLINE
  5
4c6
100
AcDbEntity
  8
0
 62
7
100
AcDbPolyline
 90
3
 70
0
 10
100.684354
 20
76.949827
 30
0.0
 10
101.196399
 20
76.376636
 30
0.0
 10
100.534941
 20
76.575513
 30
0.0
  0
SPLINE
  5
4c7
100
AcDbEntity
  8
0
 62
7
100
AcDbSpline
 70
8
 71
3
 72
8
 73
4
 74
0
 40
0
 40
0
 40
0
 40
0
 40
1
 40
1
 40
1
 40
1
 10
101.566795
 20
77.844282
 30
0.0
 10
99.933535
 20
78.850890
 30
0.0
 10
99.695325
 20
79.115602
 30
0.0
 10
100.044337
 20
79.536137
 30
0.0
  0
SPLINE
  5
4c8
100
AcDbEntity
  8
0
 62
7
100
AcDbSpline
 70
8
 71
3
 72
8
 73
4
 74
0
 40
0
 40
0
 40
0
 40
0
 40
1
 40
1
 40
1
 40
1
 10
100.044337
 20
79.536137
 30
0.0
 10
100.303232
 20
79.848086
 30
0.0
 10
100.502561
 20
79.766406
 30
0.0
 10
101.259942
 20
79.038011
 30
0.0
  0
SPLINE
  5
4c9
100
AcDbEntity
  8
0
 62
7
100
AcDbSpline
 70
8
 71
3
 72
8
 73
4
 74
0
 40
0
 40
0
 40
0
 40
0
 40
1
 40
1
 40
1
 40
1
 10
101.259942
 20
79.038011
 30
0.0
 10
102.036147
 20
78.291515
 30
0.0
 10
102.833495
 20
77.222845
 30
0.0
 10
102.594770
 20
77.248970
 30
0.0
  0
SPLINE
  5
4ca
100
AcDbEntity
  8
0
 62
7
100
AcDbSpline
 70
8
 71
3
 72
8
 73
4
 74
0
 40
0
 40
0
 40
0
 40
0
 40
1
 40
1
 40
1
 40
1
 10
102.594770
 20
77.248970
 30
0.0
 10
102.553270
 20
77.253521
 30
0.0
 10
102.090683
 20
77.521401
 30
0.0
 10
101.566795
 20
77.844282
 30
0.0
  0
LWPOLYLINE
  5
4cb
100
AcDbEntity
  8
0
 62
7
100
AcDbPolyline
 90
1
 70
1
 10
104.017662
 20
75.781845
 30
0.0
  0
SPLINE
  5
4cc
100
AcDbEntity
  8
0
 62
7
100
AcDbSpline
 70
8
 71
3
 72
8
 73
4
 74
0
 40
0
 40
0
 40
0
 40
0
 40
1
 40
1
 40
1
 40
1
 10
101.100054
 20
80.964297
 30
0.0
 10
100.554679
 20
81.182665
 30
0.0
 10
100.519664
 20
81.273737
 30
0.0
 10
100.826747
 20
81.675129
 30
0.0
  0
SPLINE
  5
4cd
100
AcDbEntity
  8
0
 62
7
100
AcDbSpline
 70
8
 71
3
 72
8
 73
4
 74
0
 40
0
 40
0
 40
0
 40
0
 40
1
 40
1
 40
1
 40
1
 10
100.826747
 20
81.675129
 30
0.0
 10
101.020459
 20
81.928335
 30
0.0
 10
101.200223
 20
82.172691
 30
0.0
 10
101.226218
 20
82.218141
 30
0.0
  0
SPLINE
  5
4ce
100
AcDbEntity
  8
0
 62
7
100
AcDbSpline
 70
8
 71
3
 72
8
 73
4
 74
0
 40
0
 40
0
 40
0
 40
0
 40
1
 40
1
 40
1
 40
1
 10
101.226218
 20
82.218141
 30
0.0
 10
101.252200
 20
82.263591
 30
0.0
 10
101.455371
 20
81.936169
 30
0.0
 10
101.677682
 20
81.490537
 30
0.0
  0
SPLINE
  5
4cf
100
AcDbEntity
  8
0
 62
7
100
AcDbSpline
 70
8
 71
3
 72
8
 73
4
 74
0
 40
0
 40
0
 40
0
 40
0
 40
1
 40
1
 40
1
 40
1
 10
101.677682
 20
81.490537
 30
0.0
 10
102.111183
 20
80.621563
 30
0.0
 10
102.063809
 20
80.578404
 30
0.0
 10
101.100054
 20
80.964297
 30
0.0
  0
LWPOLYLINE
  5
4d0
100
AcDbEntity
  8
0
 62
7
100
AcDbPolyline
 90
1
 70
1
 10
101.566795
 20
77.844282
 30
0.0
  0
SPLINE
  5
4d1
100
AcDbEntity
  8
0
 62
7
100
AcDbSpline
 70
8
 71
3
 72
8
 73
4
 74
0
 40
0
 40
0
 40
0
 40
0
 40
1
 40
1
 40
1
 40
1
 10
99.698765
 20
76.073614
 30
0.0
 10
99.173803
 20
76.598576
 30
0.0
 10
97.593888
 20
76.708233
 30
0.0
 10
97.426497
 20
76.231324
 30
0.0
  0
SPLINE
  5
4d2
100
AcDbEntity
  8
0
 62
7
100
AcDbSpline
 70
8
 71
3
 72
8
 73
4
 74
0
 40
0
 40
0
 40
0
 40
0
 40
1
 40
1
 40
1
 40
1
 10
97.426497
 20
76.231324
 30
0.0
 10
97.333715
 20
75.966984
 30
0.0
 10
97.526255
 20
75.925019
 30
0.0
 10
98.227901
 20
76.056646
 30
0.0
  0
SPLINE
  5
4d3
100
AcDbEntity
  8
0
 62
7
100
AcDbSpline
 70
8
 71
3
 72
8
 73
4
 74
0
 40
0
 40
0
 40
0
 40
0
 40
1
 40
1
 40
1
 40
1
 10
98.227901
 20
76.056646
 30
0.0
 10
98.792236
 20
76.162516
 30
0.0
 10
99.220734
 20
76.117754
 30
0.0
 10
99.329632
 20
75.941558
 30
0.0
  0
SPLINE
  5
4d4
100
AcDbEntity
  8
0
 62
7
100
AcDbSpline
 70
8
 71
3
 72
8
 73
4
 74
0
 40
0
 40
0
 40
0
 40
0
 40
1
 40
1
 40
1
 40
1
 10
99.329632
 20
75.941558
 30
0.0
 10
99.427644
 20
75.782966
 30
0.0
 10
99.645385
 20
75.653212
 30
0.0
 10
99.813502
 20
75.653212
 30
0.0
  0
SPLINE
  5
4d5
100
AcDbEntity
  8
0
 62
7
100
AcDbSpline
 70
8
 71
3
 72
8
 73
4
 74
0
 40
0
 40
0
 40
0
 40
0
 40
1
 40
1
 40
1
 40
1
 10
99.813502
 20
75.653212
 30
0.0
 10
99.996527
 20
75.653212
 30
0.0
 10
99.950492
 20
75.821887
 30
0.0
 10
99.698765
 20
76.073614
 30
0.0
  0
LWPOLYLINE
  5
4d6
100
AcDbEntity
  8
0
 62
7
100
AcDbPolyline
 90
1
 70
1
 10
101.100054
 20
80.964297
 30
0.0
  0
SPLINE
  5
4d7
100
AcDbEntity
  8
0
 62
7
100
AcDbSpline
 70
8
 71
3
 72
8
 73
4
 74
0
 40
0
 40
0
 40
0
 40
0
 40
1
 40
1
 40
1
 40
1
 10
59.652022
 20
80.539156
 30
0.0
 10
57.191021
 20
82.488752
 30
0.0
 10
56.651467
 20
83.240859
 30
0.0
 10
55.944402
 20
85.707379
 30
0.0
  0
LWPOLYLINE
  5
4d8
100
AcDbEntity
  8
0
 62
7
100
AcDbPolyline
 90
1
 70
1
 10
99.698765
 20
76.073614
 30
0.0
  0
SPLINE
  5
4d9
100
AcDbEntity
  8
0
 62
7
100
AcDbSpline
 70
8
 71
3
 72
8
 73
4
 74
0
 40
0
 40
0
 40
0
 40
0
 40
1
 40
1
 40
1
 40
1
 10
55.583458
 20
85.839670
 30
0.0
 10
55.562794
 20
84.726386
 30
0.0
 10
55.991429
 20
83.081701
 30
0.0
 10
56.570160
 20
82.053655
 30
0.0
  0
SPLINE
  5
4da
100
AcDbEntity
  8
0
 62
7
100
AcDbSpline
 70
8
 71
3
 72
8
 73
4
 74
0
 40
0
 40
0
 40
0
 40
0
 40
1
 40
1
 40
1
 40
1
 10
56.570160
 20
82.053655
 30
0.0
 10
57.012655
 20
81.267612
 30
0.0
 10
60.413284
 20
79.037820
 30
0.0
 10
60.557868
 20
79.438913
 30
0.0
  0
SPLINE
  5
4db
100
AcDbEntity
  8
0
 62
7
100
AcDbSpline
 70
8
 71
3
 72
8
 73
4
 74
0
 40
0
 40
0
 40
0
 40
0
 40
1
 40
1
 40
1
 40
1
 10
60.557868
 20
79.438913
 30
0.0
 10
60.616880
 20
79.602618
 30
0.0
 10
60.209253
 20
80.097728
 30
0.0
 10
59.652030
 20
80.539156
 30
0.0
  0
LWPOLYLINE
  5
4dc
100
AcDbEntity
  8
0
 62
7
100
AcDbPolyline
 90
3
 70
0
 10
55.944402
 20
85.707379
 30
0.0
 10
55.603090
 20
86.898004
 30
0.0
 10
55.583458
 20
85.839670
 30
0.0
  0
SPLINE
  5
4dd
100
AcDbEntity
  8
0
 62
7
100
AcDbSpline
 70
8
 71
3
 72
8
 73
4
 74
0
 40
0
 40
0
 40
0
 40
0
 40
1
 40
1
 40
1
 40
1
 10
79.897441
 20
81.686413
 30
0.0
 10
79.897441
 20
82.435443
 30
0.0
 10
77.823412
 20
84.352585
 30
0.0
 10
76.680002
 20
84.660473
 30
0.0
  0
SPLINE
  5
4de
100
AcDbEntity
  8
0
 62
7
100
AcDbSpline
 70
8
 71
3
 72
8
 73
4
 74
0
 40
0
 40
0
 40
0
 40
0
 40
1
 40
1
 40
1
 40
1
 10
76.680002
 20
84.660473
 30
0.0
 10
75.803951
 20
84.896370
 30
0.0
 10
75.664108
 20
85.037668
 30
0.0
 10
75.664108
 20
85.686940
 30
0.0
  0
SPLINE
  5
4df
100
AcDbEntity
  8
0
 62
7
100
AcDbSpline
 70
8
 71
3
 72
8
 73
4
 74
0
 40
0
 40
0
 40
0
 40
0
 40
1
 40
1
 40
1
 40
1
 10
75.664108
 20
85.686940
 30
0.0
 10
75.664108
 20
86.587833
 30
0.0
 10
73.863017
 20
90.229005
 30
0.0
 10
72.775797
 20
91.526082
 30
0.0
  0
LWPOLYLINE
  5
4e0
100
AcDbEntity
  8
0
 62
7
100
AcDbPolyline
 90
1
 70
1
 10
59.652030
 20
80.539156
 30
0.0
  0
SPLINE
  5
4e1
100
AcDbEntity
  8
0
 62
7
100
AcDbSpline
 70
8
 71
3
 72
8
 73
4
 74
0
 40
0
 40
0
 40
0
 40
0
 40
1
 40
1
 40
1
 40
1
 10
72.770077
 20
89.806291
 30
0.0
 10
73.192868
 20
88.352254
 30
0.0
 10
73.602609
 20
86.626806
 30
0.0
 10
73.680616
 20
85.971962
 30
0.0
  0
SPLINE
  5
4e2
100
AcDbEntity
  8
0
 62
7
100
AcDbSpline
 70
8
 71
3
 72
8
 73
4
 74
0
 40
0
 40
0
 40
0
 40
0
 40
1
 40
1
 40
1
 40
1
 10
73.680616
 20
85.971962
 30
0.0
 10
73.939958
 20
83.794859
 30
0.0
 10
74.302313
 20
83.092134
 30
0.0
 10
75.473743
 20
82.494514
 30
0.0
  0
SPLINE
  5
4e3
100
AcDbEntity
  8
0
 62
7
100
AcDbSpline
 70
8
 71
3
 72
8
 73
4
 74
0
 40
0
 40
0
 40
0
 40
0
 40
1
 40
1
 40
1
 40
1
 10
75.473743
 20
82.494514
 30
0.0
 10
78.063384
 20
81.173378
 30
0.0
 10
79.897441
 20
80.838342
 30
0.0
 10
79.897441
 20
81.686413
 30
0.0
  0
LWPOLYLINE
  5
4e4
100
AcDbEntity
  8
0
 62
7
100
AcDbPolyline
 90
3
 70
0
 10
72.775797
 20
91.526082
 30
0.0
 10
72.001369
 20
92.449994
 30
0.0
 10
72.770077
 20
89.806291
 30
0.0
  0
SPLINE
  5
4e5
100
AcDbEntity
  8
0
 62
7
100
AcDbSpline
 70
8
 71
3
 72
8
 73
4
 74
0
 40
0
 40
0
 40
0
 40
0
 40
1
 40
1
 40
1
 40
1
 10
82.125915
 20
83.386411
 30
0.0
 10
82.327874
 20
84.645463
 30
0.0
 10
82.438079
 20
86.029520
 30
0.0
 10
82.684681
 20
90.403992
 30
0.0
  0
SPLINE
  5
4e6
100
AcDbEntity
  8
0
 62
7
100
AcDbSpline
 70
8
 71
3
 72
8
 73
4
 74
0
 40
0
 40
0
 40
0
 40
0
 40
1
 40
1
 40
1
 40
1
 10
82.684681
 20
90.403992
 30
0.0
 10
82.881327
 20
93.892299
 30
0.0
 10
82.887743
 20
93.888708
 30
0.0
 10
80.348246
 20
91.711277
 30
0.0
  0
SPLINE
  5
4e7
100
AcDbEntity
  8
0
 62
7
100
AcDbSpline
 70
8
 71
3
 72
8
 73
4
 74
0
 40
0
 40
0
 40
0
 40
0
 40
1
 40
1
 40
1
 40
1
 10
80.348246
 20
91.711277
 30
0.0
 10
78.211312
 20
89.879017
 30
0.0
 10
77.941601
 20
89.258701
 30
0.0
 10
78.017322
 20
86.350316
 30
0.0
  0
SPLINE
  5
4e8
100
AcDbEntity
  8
0
 62
7
100
AcDbSpline
 70
8
 71
3
 72
8
 73
4
 74
0
 40
0
 40
0
 40
0
 40
0
 40
1
 40
1
 40
1
 40
1
 10
78.017322
 20
86.350316
 30
0.0
 10
78.038965
 20
85.518895
 30
0.0
 10
78.263586
 20
85.018510
 30
0.0
 10
79.002845
 20
84.154851
 30
0.0
  0
SPLINE
  5
4e9
100
AcDbEntity
  8
0
 62
7
100
AcDbSpline
 70
8
 71
3
 72
8
 73
4
 74
0
 40
0
 40
0
 40
0
 40
0
 40
1
 40
1
 40
1
 40
1
 10
79.002845
 20
84.154851
 30
0.0
 10
79.529464
 20
83.539618
 30
0.0
 10
80.020179
 20
83.096089
 30
0.0
 10
80.093325
 20
83.169233
 30
0.0
  0
SPLINE
  5
4ea
100
AcDbEntity
  8
0
 62
7
100
AcDbSpline
 70
8
 71
3
 72
8
 73
4
 74
0
 40
0
 40
0
 40
0
 40
0
 40
1
 40
1
 40
1
 40
1
 10
80.093325
 20
83.169233
 30
0.0
 10
80.166469
 20
83.242380
 30
0.0
 10
79.909175
 20
83.843384
 30
0.0
 10
79.521558
 20
84.504803
 30
0.0
  0
SPLINE
  5
4eb
100
AcDbEntity
  8
0
 62
7
100
AcDbSpline
 70
8
 71
3
 72
8
 73
4
 74
0
 40
0
 40
0
 40
0
 40
0
 40
1
 40
1
 40
1
 40
1
 10
79.521558
 20
84.504803
 30
0.0
 10
79.133941
 20
85.166219
 30
0.0
 10
78.934823
 20
85.707379
 30
0.0
 10
79.079071
 20
85.707379
 30
0.0
  0
SPLINE
  5
4ec
100
AcDbEntity
  8
0
 62
7
100
AcDbSpline
 70
8
 71
3
 72
8
 73
4
 74
0
 40
0
 40
0
 40
0
 40
0
 40
1
 40
1
 40
1
 40
1
 10
79.079071
 20
85.707379
 30
0.0
 10
79.449663
 20
85.707379
 30
0.0
 10
80.598116
 20
84.142683
 30
0.0
 10
81.087886
 20
82.970492
 30
0.0
  0
SPLINE
  5
4ed
100
AcDbEntity
  8
0
 62
7
100
AcDbSpline
 70
8
 71
3
 72
8
 73
4
 74
0
 40
0
 40
0
 40
0
 40
0
 40
1
 40
1
 40
1
 40
1
 10
81.087886
 20
82.970492
 30
0.0
 10
81.589393
 20
81.770220
 30
0.0
 10
81.885713
 20
81.888949
 30
0.0
 10
82.125915
 20
83.386411
 30
0.0
  0
LWPOLYLINE
  5
4ee
100
AcDbEntity
  8
0
 62
7
100
AcDbPolyline
 90
1
 70
1
 10
79.897441
 20
81.686413
 30
0.0
  0
SPLINE
  5
4ef
100
AcDbEntity
  8
0
 62
7
100
AcDbSpline
 70
8
 71
3
 72
8
 73
4
 74
0
 40
0
 40
0
 40
0
 40
0
 40
1
 40
1
 40
1
 40
1
 10
66.724003
 20
87.870168
 30
0.0
 10
66.010139
 20
89.372768
 30
0.0
 10
64.753064
 20
91.594578
 30
0.0
 10
63.930504
 20
92.807520
 30
0.0
  0
SPLINE
  5
4f0
100
AcDbEntity
  8
0
 62
7
100
AcDbSpline
 70
8
 71
3
 72
8
 73
4
 74
0
 40
0
 40
0
 40
0
 40
0
 40
1
 40
1
 40
1
 40
1
 10
63.930504
 20
92.807520
 30
0.0
 10
63.107946
 20
94.020463
 30
0.0
 10
62.434941
 20
95.164979
 30
0.0
 10
62.434941
 20
95.350888
 30
0.0
  0
SPLINE
  5
4f1
100
AcDbEntity
  8
0
 62
7
100
AcDbSpline
 70
8
 71
3
 72
8
 73
4
 74
0
 40
0
 40
0
 40
0
 40
0
 40
1
 40
1
 40
1
 40
1
 10
62.434941
 20
95.350888
 30
0.0
 10
62.434941
 20
95.536795
 30
0.0
 10
63.194319
 20
96.062742
 30
0.0
 10
64.122446
 20
96.519659
 30
0.0
  0
SPLINE
  5
4f2
100
AcDbEntity
  8
0
 62
7
100
AcDbSpline
 70
8
 71
3
 72
8
 73
4
 74
0
 40
0
 40
0
 40
0
 40
0
 40
1
 40
1
 40
1
 40
1
 10
64.122446
 20
96.519659
 30
0.0
 10
65.632311
 20
97.262963
 30
0.0
 10
65.870698
 20
97.491627
 30
0.0
 10
66.387038
 20
98.691890
 30
0.0
  0
SPLINE
  5
4f3
100
AcDbEntity
  8
0
 62
7
100
AcDbSpline
 70
8
 71
3
 72
8
 73
4
 74
0
 40
0
 40
0
 40
0
 40
0
 40
1
 40
1
 40
1
 40
1
 10
66.387038
 20
98.691890
 30
0.0
 10
67.164146
 20
100.498331
 30
0.0
 10
66.970378
 20
100.819805
 30
0.0
 10
65.955902
 20
99.407173
 30
0.0
  0
SPLINE
  5
4f4
100
AcDbEntity
  8
0
 62
7
100
AcDbSpline
 70
8
 71
3
 72
8
 73
4
 74
0
 40
0
 40
0
 40
0
 40
0
 40
1
 40
1
 40
1
 40
1
 10
65.955902
 20
99.407173
 30
0.0
 10
65.146502
 20
98.280106
 30
0.0
 10
64.557365
 20
97.888737
 30
0.0
 10
62.236503
 20
96.936364
 30
0.0
  0
SPLINE
  5
4f5
100
AcDbEntity
  8
0
 62
7
100
AcDbSpline
 70
8
 71
3
 72
8
 73
4
 74
0
 40
0
 40
0
 40
0
 40
0
 40
1
 40
1
 40
1
 40
1
 10
62.236503
 20
96.936364
 30
0.0
 10
60.851423
 20
96.367989
 30
0.0
 10
60.820276
 20
95.962666
 30
0.0
 10
62.031536
 20
94.269081
 30
0.0
  0
SPLINE
  5
4f6
100
AcDbEntity
  8
0
 62
7
100
AcDbSpline
 70
8
 71
3
 72
8
 73
4
 74
0
 40
0
 40
0
 40
0
 40
0
 40
1
 40
1
 40
1
 40
1
 10
62.031536
 20
94.269081
 30
0.0
 10
63.399683
 20
92.356138
 30
0.0
 10
65.657174
 20
88.738054
 30
0.0
 10
66.826593
 20
86.584041
 30
0.0
  0
SPLINE
  5
4f7
100
AcDbEntity
  8
0
 62
7
100
AcDbSpline
 70
8
 71
3
 72
8
 73
4
 74
0
 40
0
 40
0
 40
0
 40
0
 40
1
 40
1
 40
1
 40
1
 10
66.826593
 20
86.584041
 30
0.0
 10
68.312699
 20
83.846699
 30
0.0
 10
68.247567
 20
84.663246
 30
0.0
 10
66.724003
 20
87.870168
 30
0.0
  0
LWPOLYLINE
  5
4f8
100
AcDbEntity
  8
0
 62
7
100
AcDbPolyline
 90
1
 70
1
 10
82.125915
 20
83.386411
 30
0.0
  0
SPLINE
  5
4f9
100
AcDbEntity
  8
0
 62
7
100
AcDbSpline
 70
8
 71
3
 72
8
 73
4
 74
0
 40
0
 40
0
 40
0
 40
0
 40
1
 40
1
 40
1
 40
1
 10
89.229496
 20
87.876200
 30
0.0
 10
89.758165
 20
89.521006
 30
0.0
 10
90.385479
 20
91.521603
 30
0.0
 10
90.623522
 20
92.321967
 30
0.0
  0
SPLINE
  5
4fa
100
AcDbEntity
  8
0
 62
7
100
AcDbSpline
 70
8
 71
3
 72
8
 73
4
 74
0
 40
0
 40
0
 40
0
 40
0
 40
1
 40
1
 40
1
 40
1
 10
90.623522
 20
92.321967
 30
0.0
 10
90.861568
 20
93.122332
 30
0.0
 10
91.244700
 20
94.178136
 30
0.0
 10
91.474930
 20
94.668197
 30
0.0
  0
SPLINE
  5
4fb
100
AcDbEntity
  8
0
 62
7
100
AcDbSpline
 70
8
 71
3
 72
8
 73
4
 74
0
 40
0
 40
0
 40
0
 40
0
 40
1
 40
1
 40
1
 40
1
 10
91.474930
 20
94.668197
 30
0.0
 10
91.880462
 20
95.531411
 30
0.0
 10
91.873594
 20
95.574255
 30
0.0
 10
91.254882
 20
96.040951
 30
0.0
  0
SPLINE
  5
4fc
100
AcDbEntity
  8
0
 62
7
100
AcDbSpline
 70
8
 71
3
 72
8
 73
4
 74
0
 40
0
 40
0
 40
0
 40
0
 40
1
 40
1
 40
1
 40
1
 10
91.254882
 20
96.040951
 30
0.0
 10
90.903626
 20
96.305902
 30
0.0
 10
90.079743
 20
96.666635
 30
0.0
 10
89.424026
 20
96.842580
 30
0.0
  0
SPLINE
  5
4fd
100
AcDbEntity
  8
0
 62
7
100
AcDbSpline
 70
8
 71
3
 72
8
 73
4
 74
0
 40
0
 40
0
 40
0
 40
0
 40
1
 40
1
 40
1
 40
1
 10
89.424026
 20
96.842580
 30
0.0
 10
88.768312
 20
97.018525
 30
0.0
 10
88.118707
 20
97.263990
 30
0.0
 10
87.980462
 20
97.388058
 30
0.0
  0
SPLINE
  5
4fe
100
AcDbEntity
  8
0
 62
7
100
AcDbSpline
 70
8
 71
3
 72
8
 73
4
 74
0
 40
0
 40
0
 40
0
 40
0
 40
1
 40
1
 40
1
 40
1
 10
87.980462
 20
97.388058
 30
0.0
 10
87.842217
 20
97.512124
 30
0.0
 10
87.604092
 20
97.613041
 30
0.0
 10
87.451295
 20
97.612319
 30
0.0
  0
SPLINE
  5
4ff
100
AcDbEntity
  8
0
 62
7
100
AcDbSpline
 70
8
 71
3
 72
8
 73
4
 74
0
 40
0
 40
0
 40
0
 40
0
 40
1
 40
1
 40
1
 40
1
 10
87.451295
 20
97.612319
 30
0.0
 10
87.298498
 20
97.611525
 30
0.0
 10
87.522741
 20
97.331549
 30
0.0
 10
87.949614
 20
96.989990
 30
0.0
  0
LWPOLYLINE
  5
500
100
AcDbEntity
  8
0
 62
7
100
AcDbPolyline
 90
1
 70
1
 10
66.724003
 20
87.870168
 30
0.0
  0
SPLINE
  5
501
100
AcDbEntity
  8
0
 62
7
100
AcDbSpline
 70
8
 71
3
 72
8
 73
4
 74
0
 40
0
 40
0
 40
0
 40
0
 40
1
 40
1
 40
1
 40
1
 10
88.256790
 20
94.878046
 30
0.0
 10
87.872038
 20
93.654824
 30
0.0
 10
87.833517
 20
93.089584
 30
0.0
 10
88.042258
 20
91.730063
 30
0.0
  0
LWPOLYLINE
  5
502
100
AcDbEntity
  8
0
 62
7
100
AcDbPolyline
 90
3
 70
0
 10
87.949614
 20
96.989990
 30
0.0
 10
88.725743
 20
96.368976
 30
0.0
 10
88.256790
 20
94.878046
 30
0.0
  0
SPLINE
  5
503
100
AcDbEntity
  8
0
 62
7
100
AcDbSpline
 70
8
 71
3
 72
8
 73
4
 74
0
 40
0
 40
0
 40
0
 40
0
 40
1
 40
1
 40
1
 40
1
 10
88.356768
 20
91.925092
 30
0.0
 10
88.419527
 20
93.859556
 30
0.0
 10
88.550234
 20
94.483261
 30
0.0
 10
89.077580
 20
95.364676
 30
0.0
  0
SPLINE
  5
504
100
AcDbEntity
  8
0
 62
7
100
AcDbSpline
 70
8
 71
3
 72
8
 73
4
 74
0
 40
0
 40
0
 40
0
 40
0
 40
1
 40
1
 40
1
 40
1
 10
89.077580
 20
95.364676
 30
0.0
 10
89.333800
 20
95.792925
 30
0.0
 10
89.485176
 20
95.837555
 30
0.0
 10
89.871330
 20
95.598692
 30
0.0
  0
SPLINE
  5
505
100
AcDbEntity
  8
0
 62
7
100
AcDbSpline
 70
8
 71
3
 72
8
 73
4
 74
0
 40
0
 40
0
 40
0
 40
0
 40
1
 40
1
 40
1
 40
1
 10
89.871330
 20
95.598692
 30
0.0
 10
90.133765
 20
95.436359
 30
0.0
 10
90.331240
 20
95.079172
 30
0.0
 10
90.310166
 20
94.804942
 30
0.0
  0
SPLINE
  5
506
100
AcDbEntity
  8
0
 62
7
100
AcDbSpline
 70
8
 71
3
 72
8
 73
4
 74
0
 40
0
 40
0
 40
0
 40
0
 40
1
 40
1
 40
1
 40
1
 10
90.310166
 20
94.804942
 30
0.0
 10
90.241654
 20
93.913447
 30
0.0
 10
89.936357
 20
92.523717
 30
0.0
 10
89.713104
 20
92.087089
 30
0.0
  0
SPLINE
  5
507
100
AcDbEntity
  8
0
 62
7
100
AcDbSpline
 70
8
 71
3
 72
8
 73
4
 74
0
 40
0
 40
0
 40
0
 40
0
 40
1
 40
1
 40
1
 40
1
 10
89.713104
 20
92.087089
 30
0.0
 10
89.593142
 20
91.852470
 30
0.0
 10
89.415313
 20
91.139394
 30
0.0
 10
89.317931
 20
90.502473
 30
0.0
  0
SPLINE
  5
508
100
AcDbEntity
  8
0
 62
7
100
AcDbSpline
 70
8
 71
3
 72
8
 73
4
 74
0
 40
0
 40
0
 40
0
 40
0
 40
1
 40
1
 40
1
 40
1
 10
89.317931
 20
90.502473
 30
0.0
 10
89.220548
 20
89.865555
 30
0.0
 10
88.919058
 20
88.674930
 30
0.0
 10
88.647953
 20
87.856639
 30
0.0
  0
SPLINE
  5
509
100
AcDbEntity
  8
0
 62
7
100
AcDbSpline
 70
8
 71
3
 72
8
 73
4
 74
0
 40
0
 40
0
 40
0
 40
0
 40
1
 40
1
 40
1
 40
1
 10
88.647953
 20
87.856639
 30
0.0
 10
87.979874
 20
85.840160
 30
0.0
 10
87.721294
 20
84.547583
 30
0.0
 10
88.023319
 20
84.734244
 30
0.0
  0
SPLINE
  5
50a
100
AcDbEntity
  8
0
 62
7
100
AcDbSpline
 70
8
 71
3
 72
8
 73
4
 74
0
 40
0
 40
0
 40
0
 40
0
 40
1
 40
1
 40
1
 40
1
 10
88.023319
 20
84.734244
 30
0.0
 10
88.158047
 20
84.817511
 30
0.0
 10
88.700827
 20
86.231391
 30
0.0
 10
89.229496
 20
87.876200
 30
0.0
  0
LWPOLYLINE
  5
50b
100
AcDbEntity
  8
0
 62
7
100
AcDbPolyline
 90
3
 70
0
 10
88.042258
 20
91.730063
 30
0.0
 10
88.296679
 20
90.073009
 30
0.0
 10
88.356768
 20
91.925092
 30
0.0
  0
SPLINE
  5
50c
100
AcDbEntity
  8
0
 62
7
100
AcDbSpline
 70
8
 71
3
 72
8
 73
4
 74
0
 40
0
 40
0
 40
0
 40
0
 40
1
 40
1
 40
1
 40
1
 10
102.084367
 20
86.170405
 30
0.0
 10
102.219186
 20
86.425066
 30
0.0
 10
102.253142
 20
87.096293
 30
0.0
 10
102.159821
 20
87.662020
 30
0.0
  0
LWPOLYLINE
  5
50d
100
AcDbEntity
  8
0
 62
7
100
AcDbPolyline
 90
1
 70
1
 10
89.229496
 20
87.876200
 30
0.0
  0
SPLINE
  5
50e
100
AcDbEntity
  8
0
 62
7
100
AcDbSpline
 70
8
 71
3
 72
8
 73
4
 74
0
 40
0
 40
0
 40
0
 40
0
 40
1
 40
1
 40
1
 40
1
 10
101.655451
 20
87.764551
 30
0.0
 10
101.345198
 20
86.906124
 30
0.0
 10
101.221066
 20
86.826680
 30
0.0
 10
99.955919
 20
86.676841
 30
0.0
  0
SPLINE
  5
50f
100
AcDbEntity
  8
0
 62
7
100
AcDbSpline
 70
8
 71
3
 72
8
 73
4
 74
0
 40
0
 40
0
 40
0
 40
0
 40
1
 40
1
 40
1
 40
1
 10
99.955919
 20
86.676841
 30
0.0
 10
98.215196
 20
86.470678
 30
0.0
 10
97.732120
 20
86.040166
 30
0.0
 10
99.218491
 20
86.019653
 30
0.0
  0
SPLINE
  5
510
100
AcDbEntity
  8
0
 62
7
100
AcDbSpline
 70
8
 71
3
 72
8
 73
4
 74
0
 40
0
 40
0
 40
0
 40
0
 40
1
 40
1
 40
1
 40
1
 10
99.218491
 20
86.019653
 30
0.0
 10
99.827707
 20
86.011239
 30
0.0
 10
100.392976
 20
85.937545
 30
0.0
 10
100.474645
 20
85.855874
 30
0.0
  0
SPLINE
  5
511
100
AcDbEntity
  8
0
 62
7
100
AcDbSpline
 70
8
 71
3
 72
8
 73
4
 74
0
 40
0
 40
0
 40
0
 40
0
 40
1
 40
1
 40
1
 40
1
 10
100.474645
 20
85.855874
 30
0.0
 10
100.801114
 20
85.529404
 30
0.0
 10
101.853923
 20
85.735118
 30
0.0
 10
102.084367
 20
86.170405
 30
0.0
  0
LWPOLYLINE
  5
512
100
AcDbEntity
  8
0
 62
7
100
AcDbPolyline
 90
3
 70
0
 10
102.159821
 20
87.662020
 30
0.0
 10
101.990149
 20
88.690617
 30
0.0
 10
101.655451
 20
87.764551
 30
0.0
  0
SPLINE
  5
513
100
AcDbEntity
  8
0
 62
7
100
AcDbSpline
 70
8
 71
3
 72
8
 73
4
 74
0
 40
0
 40
0
 40
0
 40
0
 40
1
 40
1
 40
1
 40
1
 10
77.141515
 20
88.267503
 30
0.0
 10
77.117120
 20
89.603567
 30
0.0
 10
76.993821
 20
90.335328
 30
0.0
 10
76.781147
 20
90.406217
 30
0.0
  0
SPLINE
  5
514
100
AcDbEntity
  8
0
 62
7
100
AcDbSpline
 70
8
 71
3
 72
8
 73
4
 74
0
 40
0
 40
0
 40
0
 40
0
 40
1
 40
1
 40
1
 40
1
 10
76.781147
 20
90.406217
 30
0.0
 10
76.603336
 20
90.465484
 30
0.0
 10
76.457858
 20
90.384998
 30
0.0
 10
76.457858
 20
90.227343
 30
0.0
  0
SPLINE
  5
515
100
AcDbEntity
  8
0
 62
7
100
AcDbSpline
 70
8
 71
3
 72
8
 73
4
 74
0
 40
0
 40
0
 40
0
 40
0
 40
1
 40
1
 40
1
 40
1
 10
76.457858
 20
90.227343
 30
0.0
 10
76.457858
 20
90.069696
 30
0.0
 10
76.334607
 20
89.940712
 30
0.0
 10
76.183966
 20
89.940712
 30
0.0
  0
SPLINE
  5
516
100
AcDbEntity
  8
0
 62
7
100
AcDbSpline
 70
8
 71
3
 72
8
 73
4
 74
0
 40
0
 40
0
 40
0
 40
0
 40
1
 40
1
 40
1
 40
1
 10
76.183966
 20
89.940712
 30
0.0
 10
76.000920
 20
89.940712
 30
0.0
 10
76.006817
 20
90.121481
 30
0.0
 10
76.201746
 20
90.485711
 30
0.0
  0
SPLINE
  5
517
100
AcDbEntity
  8
0
 62
7
100
AcDbSpline
 70
8
 71
3
 72
8
 73
4
 74
0
 40
0
 40
0
 40
0
 40
0
 40
1
 40
1
 40
1
 40
1
 10
76.201746
 20
90.485711
 30
0.0
 10
76.362168
 20
90.785461
 30
0.0
 10
77.507526
 20
91.521857
 30
0.0
 10
78.746985
 20
92.122146
 30
0.0
  0
SPLINE
  5
518
100
AcDbEntity
  8
0
 62
7
100
AcDbSpline
 70
8
 71
3
 72
8
 73
4
 74
0
 40
0
 40
0
 40
0
 40
0
 40
1
 40
1
 40
1
 40
1
 10
78.746985
 20
92.122146
 30
0.0
 10
80.412934
 20
92.928996
 30
0.0
 10
81.253420
 20
93.525364
 30
0.0
 10
81.970348
 20
94.409294
 30
0.0
  0
SPLINE
  5
519
100
AcDbEntity
  8
0
 62
7
100
AcDbSpline
 70
8
 71
3
 72
8
 73
4
 74
0
 40
0
 40
0
 40
0
 40
0
 40
1
 40
1
 40
1
 40
1
 10
81.970348
 20
94.409294
 30
0.0
 10
82.503738
 20
95.066935
 30
0.0
 10
83.256594
 20
95.908117
 30
0.0
 10
83.643356
 20
96.278586
 30
0.0
  0
SPLINE
  5
51a
100
AcDbEntity
  8
0
 62
7
100
AcDbSpline
 70
8
 71
3
 72
8
 73
4
 74
0
 40
0
 40
0
 40
0
 40
0
 40
1
 40
1
 40
1
 40
1
 10
83.643356
 20
96.278586
 30
0.0
 10
84.836056
 20
97.421039
 30
0.0
 10
87.041191
 20
99.987679
 30
0.0
 10
87.041191
 20
100.233454
 30
0.0
  0
SPLINE
  5
51b
100
AcDbEntity
  8
0
 62
7
100
AcDbSpline
 70
8
 71
3
 72
8
 73
4
 74
0
 40
0
 40
0
 40
0
 40
0
 40
1
 40
1
 40
1
 40
1
 10
87.041191
 20
100.233454
 30
0.0
 10
87.041191
 20
100.361589
 30
0.0
 10
86.556427
 20
101.044939
 30
0.0
 10
85.963940
 20
101.752008
 30
0.0
  0
SPLINE
  5
51c
100
AcDbEntity
  8
0
 62
7
100
AcDbSpline
 70
8
 71
3
 72
8
 73
4
 74
0
 40
0
 40
0
 40
0
 40
0
 40
1
 40
1
 40
1
 40
1
 10
85.963940
 20
101.752008
 30
0.0
 10
85.371451
 20
102.459076
 30
0.0
 10
84.633792
 20
103.573368
 30
0.0
 10
84.324701
 20
104.228212
 30
0.0
  0
SPLINE
  5
51d
100
AcDbEntity
  8
0
 62
7
100
AcDbSpline
 70
8
 71
3
 72
8
 73
4
 74
0
 40
0
 40
0
 40
0
 40
0
 40
1
 40
1
 40
1
 40
1
 10
84.324701
 20
104.228212
 30
0.0
 10
83.663713
 20
105.628580
 30
0.0
 10
82.799195
 20
106.874045
 30
0.0
 10
82.488140
 20
106.874045
 30
0.0
  0
SPLINE
  5
51e
100
AcDbEntity
  8
0
 62
7
100
AcDbSpline
 70
8
 71
3
 72
8
 73
4
 74
0
 40
0
 40
0
 40
0
 40
0
 40
1
 40
1
 40
1
 40
1
 10
82.488140
 20
106.874045
 30
0.0
 10
82.367027
 20
106.874045
 30
0.0
 10
82.525576
 20
106.369030
 30
0.0
 10
82.840470
 20
105.751786
 30
0.0
  0
SPLINE
  5
51f
100
AcDbEntity
  8
0
 62
7
100
AcDbSpline
 70
8
 71
3
 72
8
 73
4
 74
0
 40
0
 40
0
 40
0
 40
0
 40
1
 40
1
 40
1
 40
1
 10
82.840470
 20
105.751786
 30
0.0
 10
83.225164
 20
104.997724
 30
0.0
 10
83.282369
 20
104.737945
 30
0.0
 10
83.014828
 20
104.959983
 30
0.0
  0
SPLINE
  5
520
100
AcDbEntity
  8
0
 62
7
100
AcDbSpline
 70
8
 71
3
 72
8
 73
4
 74
0
 40
0
 40
0
 40
0
 40
0
 40
1
 40
1
 40
1
 40
1
 10
83.014828
 20
104.959983
 30
0.0
 10
82.676931
 20
105.240413
 30
0.0
 10
82.553426
 20
105.119913
 30
0.0
 10
82.199004
 20
104.164014
 30
0.0
  0
SPLINE
  5
521
100
AcDbEntity
  8
0
 62
7
100
AcDbSpline
 70
8
 71
3
 72
8
 73
4
 74
0
 40
0
 40
0
 40
0
 40
0
 40
1
 40
1
 40
1
 40
1
 10
82.199004
 20
104.164014
 30
0.0
 10
81.969298
 20
103.544478
 30
0.0
 10
81.830116
 20
102.661654
 30
0.0
 10
81.889711
 20
102.202181
 30
0.0
  0
SPLINE
  5
522
100
AcDbEntity
  8
0
 62
7
100
AcDbSpline
 70
8
 71
3
 72
8
 73
4
 74
0
 40
0
 40
0
 40
0
 40
0
 40
1
 40
1
 40
1
 40
1
 10
81.889711
 20
102.202181
 30
0.0
 10
81.975687
 20
101.539350
 30
0.0
 10
81.788011
 20
101.102102
 30
0.0
 10
80.981198
 20
100.085514
 30
0.0
  0
SPLINE
  5
523
100
AcDbEntity
  8
0
 62
7
100
AcDbSpline
 70
8
 71
3
 72
8
 73
4
 74
0
 40
0
 40
0
 40
0
 40
0
 40
1
 40
1
 40
1
 40
1
 10
80.981198
 20
100.085514
 30
0.0
 10
80.421919
 20
99.380821
 30
0.0
 10
79.882997
 20
98.429646
 30
0.0
 10
79.783596
 20
97.971793
 30
0.0
  0
SPLINE
  5
524
100
AcDbEntity
  8
0
 62
7
100
AcDbSpline
 70
8
 71
3
 72
8
 73
4
 74
0
 40
0
 40
0
 40
0
 40
0
 40
1
 40
1
 40
1
 40
1
 10
79.783596
 20
97.971793
 30
0.0
 10
79.684195
 20
97.513939
 30
0.0
 10
79.382366
 20
96.939785
 30
0.0
 10
79.112869
 20
96.695895
 30
0.0
  0
SPLINE
  5
525
100
AcDbEntity
  8
0
 62
7
100
AcDbSpline
 70
8
 71
3
 72
8
 73
4
 74
0
 40
0
 40
0
 40
0
 40
0
 40
1
 40
1
 40
1
 40
1
 10
79.112869
 20
96.695895
 30
0.0
 10
78.843375
 20
96.452005
 30
0.0
 10
78.489709
 20
95.933641
 30
0.0
 10
78.326951
 20
95.543981
 30
0.0
  0
SPLINE
  5
526
100
AcDbEntity
  8
0
 62
7
100
AcDbSpline
 70
8
 71
3
 72
8
 73
4
 74
0
 40
0
 40
0
 40
0
 40
0
 40
1
 40
1
 40
1
 40
1
 10
78.326951
 20
95.543981
 30
0.0
 10
78.164190
 20
95.154319
 30
0.0
 10
77.636468
 20
94.578932
 30
0.0
 10
77.154233
 20
94.265345
 30
0.0
  0
SPLINE
  5
527
100
AcDbEntity
  8
0
 62
7
100
AcDbSpline
 70
8
 71
3
 72
8
 73
4
 74
0
 40
0
 40
0
 40
0
 40
0
 40
1
 40
1
 40
1
 40
1
 10
77.154233
 20
94.265345
 30
0.0
 10
75.227635
 20
93.012519
 30
0.0
 10
74.802807
 20
89.671194
 30
0.0
 10
76.276393
 20
87.361025
 30
0.0
  0
SPLINE
  5
528
100
AcDbEntity
  8
0
 62
7
100
AcDbSpline
 70
8
 71
3
 72
8
 73
4
 74
0
 40
0
 40
0
 40
0
 40
0
 40
1
 40
1
 40
1
 40
1
 10
76.276393
 20
87.361025
 30
0.0
 10
76.670892
 20
86.742561
 30
0.0
 10
77.035274
 20
86.236545
 30
0.0
 10
77.086129
 20
86.236545
 30
0.0
  0
SPLINE
  5
529
100
AcDbEntity
  8
0
 62
7
100
AcDbSpline
 70
8
 71
3
 72
8
 73
4
 74
0
 40
0
 40
0
 40
0
 40
0
 40
1
 40
1
 40
1
 40
1
 10
77.086129
 20
86.236545
 30
0.0
 10
77.136987
 20
86.236545
 30
0.0
 10
77.161909
 20
87.150474
 30
0.0
 10
77.141515
 20
88.267498
 30
0.0
  0
LWPOLYLINE
  5
52a
100
AcDbEntity
  8
0
 62
7
100
AcDbPolyline
 90
1
 70
1
 10
102.084367
 20
86.170405
 30
0.0
  0
SPLINE
  5
52b
100
AcDbEntity
  8
0
 62
7
100
AcDbSpline
 70
8
 71
3
 72
8
 73
4
 74
0
 40
0
 40
0
 40
0
 40
0
 40
1
 40
1
 40
1
 40
1
 10
80.670887
 20
94.902946
 30
0.0
 10
81.544562
 20
95.990119
 30
0.0
 10
82.030522
 20
96.794442
 30
0.0
 10
83.187852
 20
99.068842
 30
0.0
  0
SPLINE
  5
52c
100
AcDbEntity
  8
0
 62
7
100
AcDbSpline
 70
8
 71
3
 72
8
 73
4
 74
0
 40
0
 40
0
 40
0
 40
0
 40
1
 40
1
 40
1
 40
1
 10
83.187852
 20
99.068842
 30
0.0
 10
83.903574
 20
100.475383
 30
0.0
 10
84.094759
 20
100.038395
 30
0.0
 10
83.496494
 20
98.363386
 30
0.0
  0
SPLINE
  5
52d
100
AcDbEntity
  8
0
 62
7
100
AcDbSpline
 70
8
 71
3
 72
8
 73
4
 74
0
 40
0
 40
0
 40
0
 40
0
 40
1
 40
1
 40
1
 40
1
 10
83.496494
 20
98.363386
 30
0.0
 10
83.052166
 20
97.119363
 30
0.0
 10
81.422200
 20
94.896329
 30
0.0
 10
80.521834
 20
94.306385
 30
0.0
  0
SPLINE
  5
52e
100
AcDbEntity
  8
0
 62
7
100
AcDbSpline
 70
8
 71
3
 72
8
 73
4
 74
0
 40
0
 40
0
 40
0
 40
0
 40
1
 40
1
 40
1
 40
1
 10
80.521834
 20
94.306385
 30
0.0
 10
79.855094
 20
93.869523
 30
0.0
 10
79.861722
 20
93.896050
 30
0.0
 10
80.670887
 20
94.902946
 30
0.0
  0
LWPOLYLINE
  5
52f
100
AcDbEntity
  8
0
 62
7
100
AcDbPolyline
 90
1
 70
1
 10
77.141515
 20
88.267498
 30
0.0
  0
SPLINE
  5
530
100
AcDbEntity
  8
0
 62
7
100
AcDbSpline
 70
8
 71
3
 72
8
 73
4
 74
0
 40
0
 40
0
 40
0
 40
0
 40
1
 40
1
 40
1
 40
1
 10
97.889108
 20
88.019271
 30
0.0
 10
98.543951
 20
88.233290
 30
0.0
 10
99.291936
 20
88.596504
 30
0.0
 10
99.551297
 20
88.826417
 30
0.0
  0
SPLINE
  5
531
100
AcDbEntity
  8
0
 62
7
100
AcDbSpline
 70
8
 71
3
 72
8
 73
4
 74
0
 40
0
 40
0
 40
0
 40
0
 40
1
 40
1
 40
1
 40
1
 10
99.551297
 20
88.826417
 30
0.0
 10
100.146059
 20
89.353649
 30
0.0
 10
100.945040
 20
90.665509
 30
0.0
 10
101.196809
 20
91.528212
 30
0.0
  0
SPLINE
  5
532
100
AcDbEntity
  8
0
 62
7
100
AcDbSpline
 70
8
 71
3
 72
8
 73
4
 74
0
 40
0
 40
0
 40
0
 40
0
 40
1
 40
1
 40
1
 40
1
 10
101.196809
 20
91.528212
 30
0.0
 10
101.340174
 20
92.019453
 30
0.0
 10
101.175669
 20
91.898049
 30
0.0
 10
100.557518
 20
91.056436
 30
0.0
  0
SPLINE
  5
533
100
AcDbEntity
  8
0
 62
7
100
AcDbSpline
 70
8
 71
3
 72
8
 73
4
 74
0
 40
0
 40
0
 40
0
 40
0
 40
1
 40
1
 40
1
 40
1
 10
100.557518
 20
91.056436
 30
0.0
 10
99.519034
 20
89.642519
 30
0.0
 10
98.447283
 20
88.980198
 30
0.0
 10
96.572888
 20
88.594015
 30
0.0
  0
SPLINE
  5
534
100
AcDbEntity
  8
0
 62
7
100
AcDbSpline
 70
8
 71
3
 72
8
 73
4
 74
0
 40
0
 40
0
 40
0
 40
0
 40
1
 40
1
 40
1
 40
1
 10
96.572888
 20
88.594015
 30
0.0
 10
95.181179
 20
88.307280
 30
0.0
 10
93.655774
 20
87.692357
 30
0.0
 10
93.655774
 20
87.418063
 30
0.0
  0
SPLINE
  5
535
100
AcDbEntity
  8
0
 62
7
100
AcDbSpline
 70
8
 71
3
 72
8
 73
4
 74
0
 40
0
 40
0
 40
0
 40
0
 40
1
 40
1
 40
1
 40
1
 10
93.655774
 20
87.418063
 30
0.0
 10
93.655774
 20
87.191236
 30
0.0
 10
96.661724
 20
87.618133
 30
0.0
 10
97.889108
 20
88.019271
 30
0.0
  0
LWPOLYLINE
  5
536
100
AcDbEntity
  8
0
 62
7
100
AcDbPolyline
 90
1
 70
1
 10
80.670887
 20
94.902946
 30
0.0
  0
SPLINE
  5
537
100
AcDbEntity
  8
0
 62
7
100
AcDbSpline
 70
8
 71
3
 72
8
 73
4
 74
0
 40
0
 40
0
 40
0
 40
0
 40
1
 40
1
 40
1
 40
1
 10
75.757805
 20
93.491153
 30
0.0
 10
76.128970
 20
94.057367
 30
0.0
 10
76.185191
 20
94.378206
 30
0.0
 10
75.988786
 20
94.809268
 30
0.0
  0
SPLINE
  5
538
100
AcDbEntity
  8
0
 62
7
100
AcDbSpline
 70
8
 71
3
 72
8
 73
4
 74
0
 40
0
 40
0
 40
0
 40
0
 40
1
 40
1
 40
1
 40
1
 10
75.988786
 20
94.809268
 30
0.0
 10
75.512105
 20
95.855472
 30
0.0
 10
74.282337
 20
97.106473
 30
0.0
 10
72.692495
 20
98.162475
 30
0.0
  0
SPLINE
  5
539
100
AcDbEntity
  8
0
 62
7
100
AcDbSpline
 70
8
 71
3
 72
8
 73
4
 74
0
 40
0
 40
0
 40
0
 40
0
 40
1
 40
1
 40
1
 40
1
 10
72.692495
 20
98.162475
 30
0.0
 10
70.280332
 20
99.764678
 30
0.0
 10
70.246089
 20
99.776780
 30
0.0
 10
70.201994
 20
99.042635
 30
0.0
  0
SPLINE
  5
53a
100
AcDbEntity
  8
0
 62
7
100
AcDbSpline
 70
8
 71
3
 72
8
 73
4
 74
0
 40
0
 40
0
 40
0
 40
0
 40
1
 40
1
 40
1
 40
1
 10
70.201994
 20
99.042635
 30
0.0
 10
70.178869
 20
98.657529
 30
0.0
 10
70.309094
 20
98.407379
 30
0.0
 10
70.532723
 20
98.407379
 30
0.0
  0
SPLINE
  5
53b
100
AcDbEntity
  8
0
 62
7
100
AcDbSpline
 70
8
 71
3
 72
8
 73
4
 74
0
 40
0
 40
0
 40
0
 40
0
 40
1
 40
1
 40
1
 40
1
 10
70.532723
 20
98.407379
 30
0.0
 10
70.735608
 20
98.407379
 30
0.0
 10
70.901608
 20
98.288316
 30
0.0
 10
70.901608
 20
98.142795
 30
0.0
  0
SPLINE
  5
53c
100
AcDbEntity
  8
0
 62
7
100
AcDbSpline
 70
8
 71
3
 72
8
 73
4
 74
0
 40
0
 40
0
 40
0
 40
0
 40
1
 40
1
 40
1
 40
1
 10
70.901608
 20
98.142795
 30
0.0
 10
70.901608
 20
97.997275
 30
0.0
 10
70.663483
 20
97.878212
 30
0.0
 10
70.372441
 20
97.878212
 30
0.0
  0
SPLINE
  5
53d
100
AcDbEntity
  8
0
 62
7
100
AcDbSpline
 70
8
 71
3
 72
8
 73
4
 74
0
 40
0
 40
0
 40
0
 40
0
 40
1
 40
1
 40
1
 40
1
 10
70.372441
 20
97.878212
 30
0.0
 10
69.983001
 20
97.878212
 30
0.0
 10
69.843274
 20
98.054602
 30
0.0
 10
69.843274
 20
98.546219
 30
0.0
  0
SPLINE
  5
53e
100
AcDbEntity
  8
0
 62
7
100
AcDbSpline
 70
8
 71
3
 72
8
 73
4
 74
0
 40
0
 40
0
 40
0
 40
0
 40
1
 40
1
 40
1
 40
1
 10
69.843274
 20
98.546219
 30
0.0
 10
69.843274
 20
99.028366
 30
0.0
 10
69.640831
 20
99.294794
 30
0.0
 10
69.115670
 20
99.503799
 30
0.0
  0
SPLINE
  5
53f
100
AcDbEntity
  8
0
 62
7
100
AcDbSpline
 70
8
 71
3
 72
8
 73
4
 74
0
 40
0
 40
0
 40
0
 40
0
 40
1
 40
1
 40
1
 40
1
 10
69.115670
 20
99.503799
 30
0.0
 10
68.706569
 20
99.666613
 30
0.0
 10
68.532841
 20
99.847127
 30
0.0
 10
68.718795
 20
99.916173
 30
0.0
  0
SPLINE
  5
540
100
AcDbEntity
  8
0
 62
7
100
AcDbSpline
 70
8
 71
3
 72
8
 73
4
 74
0
 40
0
 40
0
 40
0
 40
0
 40
1
 40
1
 40
1
 40
1
 10
68.718795
 20
99.916173
 30
0.0
 10
69.102089
 20
100.058493
 30
0.0
 10
69.167222
 20
100.524045
 30
0.0
 10
68.803840
 20
100.524045
 30
0.0
  0
SPLINE
  5
541
100
AcDbEntity
  8
0
 62
7
100
AcDbSpline
 70
8
 71
3
 72
8
 73
4
 74
0
 40
0
 40
0
 40
0
 40
0
 40
1
 40
1
 40
1
 40
1
 10
68.803840
 20
100.524045
 30
0.0
 10
68.479458
 20
100.524045
 30
0.0
 10
67.726608
 20
99.762366
 30
0.0
 10
67.726608
 20
99.434179
 30
0.0
  0
SPLINE
  5
542
100
AcDbEntity
  8
0
 62
7
100
AcDbSpline
 70
8
 71
3
 72
8
 73
4
 74
0
 40
0
 40
0
 40
0
 40
0
 40
1
 40
1
 40
1
 40
1
 10
67.726608
 20
99.434179
 30
0.0
 10
67.726608
 20
99.292106
 30
0.0
 10
68.054030
 20
98.869550
 30
0.0
 10
68.454212
 20
98.495170
 30
0.0
  0
SPLINE
  5
543
100
AcDbEntity
  8
0
 62
7
100
AcDbSpline
 70
8
 71
3
 72
8
 73
4
 74
0
 40
0
 40
0
 40
0
 40
0
 40
1
 40
1
 40
1
 40
1
 10
68.454212
 20
98.495170
 30
0.0
 10
68.854394
 20
98.120787
 30
0.0
 10
69.157395
 20
97.725791
 30
0.0
 10
69.127547
 20
97.617394
 30
0.0
  0
SPLINE
  5
544
100
AcDbEntity
  8
0
 62
7
100
AcDbSpline
 70
8
 71
3
 72
8
 73
4
 74
0
 40
0
 40
0
 40
0
 40
0
 40
1
 40
1
 40
1
 40
1
 10
69.127547
 20
97.617394
 30
0.0
 10
69.097700
 20
97.508999
 30
0.0
 10
69.970639
 20
96.362480
 30
0.0
 10
71.067414
 20
95.069575
 30
0.0
  0
SPLINE
  5
545
100
AcDbEntity
  8
0
 62
7
100
AcDbSpline
 70
8
 71
3
 72
8
 73
4
 74
0
 40
0
 40
0
 40
0
 40
0
 40
1
 40
1
 40
1
 40
1
 10
71.067414
 20
95.069575
 30
0.0
 10
72.164186
 20
93.776670
 30
0.0
 10
73.496337
 20
92.063993
 30
0.0
 10
74.027744
 20
91.263629
 30
0.0
  0
LWPOLYLINE
  5
546
100
AcDbEntity
  8
0
 62
7
100
AcDbPolyline
 90
1
 70
1
 10
97.889108
 20
88.019271
 30
0.0
  0
SPLINE
  5
547
100
AcDbEntity
  8
0
 62
7
100
AcDbSpline
 70
8
 71
3
 72
8
 73
4
 74
0
 40
0
 40
0
 40
0
 40
0
 40
1
 40
1
 40
1
 40
1
 10
75.130589
 20
91.275599
 30
0.0
 10
75.205743
 20
92.082549
 30
0.0
 10
75.487990
 20
93.079546
 30
0.0
 10
75.757805
 20
93.491153
 30
0.0
  0
LWPOLYLINE
  5
548
100
AcDbEntity
  8
0
 62
7
100
AcDbPolyline
 90
3
 70
0
 10
74.027744
 20
91.263629
 30
0.0
 10
74.993945
 20
89.808420
 30
0.0
 10
75.130589
 20
91.275599
 30
0.0
  0
SPLINE
  5
549
100
AcDbEntity
  8
0
 62
7
100
AcDbSpline
 70
8
 71
3
 72
8
 73
4
 74
0
 40
0
 40
0
 40
0
 40
0
 40
1
 40
1
 40
1
 40
1
 10
59.953332
 20
91.726650
 30
0.0
 10
59.504667
 20
92.589067
 30
0.0
 10
58.693923
 20
93.344040
 30
0.0
 10
57.360214
 20
94.141391
 30
0.0
  0
SPLINE
  5
54a
100
AcDbEntity
  8
0
 62
7
100
AcDbSpline
 70
8
 71
3
 72
8
 73
4
 74
0
 40
0
 40
0
 40
0
 40
0
 40
1
 40
1
 40
1
 40
1
 10
57.360214
 20
94.141391
 30
0.0
 10
56.159347
 20
94.859322
 30
0.0
 10
54.762024
 20
96.415291
 30
0.0
 10
54.762024
 20
97.034572
 30
0.0
  0
SPLINE
  5
54b
100
AcDbEntity
  8
0
 62
7
100
AcDbSpline
 70
8
 71
3
 72
8
 73
4
 74
0
 40
0
 40
0
 40
0
 40
0
 40
1
 40
1
 40
1
 40
1
 10
54.762024
 20
97.034572
 30
0.0
 10
54.762024
 20
97.355025
 30
0.0
 10
55.255345
 20
97.026000
 30
0.0
 10
56.381235
 20
95.954646
 30
0.0
  0
SPLINE
  5
54c
100
AcDbEntity
  8
0
 62
7
100
AcDbSpline
 70
8
 71
3
 72
8
 73
4
 74
0
 40
0
 40
0
 40
0
 40
0
 40
1
 40
1
 40
1
 40
1
 10
56.381235
 20
95.954646
 30
0.0
 10
58.061106
 20
94.356134
 30
0.0
 10
58.902923
 20
94.063841
 30
0.0
 10
57.497469
 20
95.567071
 30
0.0
  0
SPLINE
  5
54d
100
AcDbEntity
  8
0
 62
7
100
AcDbSpline
 70
8
 71
3
 72
8
 73
4
 74
0
 40
0
 40
0
 40
0
 40
0
 40
1
 40
1
 40
1
 40
1
 10
57.497469
 20
95.567071
 30
0.0
 10
56.587213
 20
96.540653
 30
0.0
 10
55.434428
 20
98.374229
 30
0.0
 10
55.617494
 20
98.557292
 30
0.0
  0
SPLINE
  5
54e
100
AcDbEntity
  8
0
 62
7
100
AcDbSpline
 70
8
 71
3
 72
8
 73
4
 74
0
 40
0
 40
0
 40
0
 40
0
 40
1
 40
1
 40
1
 40
1
 10
55.617494
 20
98.557292
 30
0.0
 10
55.870329
 20
98.810127
 30
0.0
 10
57.195029
 20
97.508383
 30
0.0
 10
58.218298
 20
96.001552
 30
0.0
  0
SPLINE
  5
54f
100
AcDbEntity
  8
0
 62
7
100
AcDbSpline
 70
8
 71
3
 72
8
 73
4
 74
0
 40
0
 40
0
 40
0
 40
0
 40
1
 40
1
 40
1
 40
1
 10
58.218298
 20
96.001552
 30
0.0
 10
59.860032
 20
93.583993
 30
0.0
 10
59.842829
 20
94.006265
 30
0.0
 10
58.158010
 20
97.481337
 30
0.0
  0
SPLINE
  5
550
100
AcDbEntity
  8
0
 62
7
100
AcDbSpline
 70
8
 71
3
 72
8
 73
4
 74
0
 40
0
 40
0
 40
0
 40
0
 40
1
 40
1
 40
1
 40
1
 10
58.158010
 20
97.481337
 30
0.0
 10
57.314126
 20
99.221920
 30
0.0
 10
57.138028
 20
100.259462
 30
0.0
 10
57.686490
 20
100.259462
 30
0.0
  0
SPLINE
  5
551
100
AcDbEntity
  8
0
 62
7
100
AcDbSpline
 70
8
 71
3
 72
8
 73
4
 74
0
 40
0
 40
0
 40
0
 40
0
 40
1
 40
1
 40
1
 40
1
 10
57.686490
 20
100.259462
 30
0.0
 10
58.038455
 20
100.259462
 30
0.0
 10
59.482559
 20
97.650760
 30
0.0
 10
59.810243
 20
96.423004
 30
0.0
  0
SPLINE
  5
552
100
AcDbEntity
  8
0
 62
7
100
AcDbSpline
 70
8
 71
3
 72
8
 73
4
 74
0
 40
0
 40
0
 40
0
 40
0
 40
1
 40
1
 40
1
 40
1
 10
59.810243
 20
96.423004
 30
0.0
 10
60.135826
 20
95.203129
 30
0.0
 10
60.904191
 20
93.348850
 30
0.0
 10
61.031387
 20
93.476048
 30
0.0
  0
SPLINE
  5
553
100
AcDbEntity
  8
0
 62
7
100
AcDbSpline
 70
8
 71
3
 72
8
 73
4
 74
0
 40
0
 40
0
 40
0
 40
0
 40
1
 40
1
 40
1
 40
1
 10
61.031387
 20
93.476048
 30
0.0
 10
61.078846
 20
93.523506
 30
0.0
 10
60.929351
 20
94.086923
 30
0.0
 10
60.699176
 20
94.728086
 30
0.0
  0
SPLINE
  5
554
100
AcDbEntity
  8
0
 62
7
100
AcDbSpline
 70
8
 71
3
 72
8
 73
4
 74
0
 40
0
 40
0
 40
0
 40
0
 40
1
 40
1
 40
1
 40
1
 10
60.699176
 20
94.728086
 30
0.0
 10
60.424372
 20
95.493567
 30
0.0
 10
60.333858
 20
96.311585
 30
0.0
 10
60.435559
 20
97.110497
 30
0.0
  0
SPLINE
  5
555
100
AcDbEntity
  8
0
 62
7
100
AcDbSpline
 70
8
 71
3
 72
8
 73
4
 74
0
 40
0
 40
0
 40
0
 40
0
 40
1
 40
1
 40
1
 40
1
 10
60.435559
 20
97.110497
 30
0.0
 10
60.562691
 20
98.109162
 30
0.0
 10
60.467788
 20
98.546610
 30
0.0
 10
59.905897
 20
99.551942
 30
0.0
  0
SPLINE
  5
556
100
AcDbEntity
  8
0
 62
7
100
AcDbSpline
 70
8
 71
3
 72
8
 73
4
 74
0
 40
0
 40
0
 40
0
 40
0
 40
1
 40
1
 40
1
 40
1
 10
59.905897
 20
99.551942
 30
0.0
 10
59.279877
 20
100.672011
 30
0.0
 10
59.228183
 20
101.317795
 30
0.0
 10
59.764538
 20
101.317795
 30
0.0
  0
SPLINE
  5
557
100
AcDbEntity
  8
0
 62
7
100
AcDbSpline
 70
8
 71
3
 72
8
 73
4
 74
0
 40
0
 40
0
 40
0
 40
0
 40
1
 40
1
 40
1
 40
1
 10
59.764538
 20
101.317795
 30
0.0
 10
59.879370
 20
101.317795
 30
0.0
 10
60.189610
 20
100.838159
 30
0.0
 10
60.453958
 20
100.251940
 30
0.0
  0
SPLINE
  5
558
100
AcDbEntity
  8
0
 62
7
100
AcDbSpline
 70
8
 71
3
 72
8
 73
4
 74
0
 40
0
 40
0
 40
0
 40
0
 40
1
 40
1
 40
1
 40
1
 10
60.453958
 20
100.251940
 30
0.0
 10
60.718308
 20
99.665719
 30
0.0
 10
61.063812
 20
99.230265
 30
0.0
 10
61.221747
 20
99.284266
 30
0.0
  0
SPLINE
  5
559
100
AcDbEntity
  8
0
 62
7
100
AcDbSpline
 70
8
 71
3
 72
8
 73
4
 74
0
 40
0
 40
0
 40
0
 40
0
 40
1
 40
1
 40
1
 40
1
 10
61.221747
 20
99.284266
 30
0.0
 10
61.379679
 20
99.338268
 30
0.0
 10
61.520178
 20
100.026264
 30
0.0
 10
61.533966
 20
100.813145
 30
0.0
  0
SPLINE
  5
55a
100
AcDbEntity
  8
0
 62
7
100
AcDbSpline
 70
8
 71
3
 72
8
 73
4
 74
0
 40
0
 40
0
 40
0
 40
0
 40
1
 40
1
 40
1
 40
1
 10
61.533966
 20
100.813145
 30
0.0
 10
61.567060
 20
102.702024
 30
0.0
 10
61.582292
 20
102.754388
 30
0.0
 10
61.998196
 20
102.409218
 30
0.0
  0
SPLINE
  5
55b
100
AcDbEntity
  8
0
 62
7
100
AcDbSpline
 70
8
 71
3
 72
8
 73
4
 74
0
 40
0
 40
0
 40
0
 40
0
 40
1
 40
1
 40
1
 40
1
 10
61.998196
 20
102.409218
 30
0.0
 10
62.280617
 20
102.174828
 30
0.0
 10
62.455089
 20
102.334444
 30
0.0
 10
62.833345
 20
103.173268
 30
0.0
  0
SPLINE
  5
55c
100
AcDbEntity
  8
0
 62
7
100
AcDbSpline
 70
8
 71
3
 72
8
 73
4
 74
0
 40
0
 40
0
 40
0
 40
0
 40
1
 40
1
 40
1
 40
1
 10
62.833345
 20
103.173268
 30
0.0
 10
63.096325
 20
103.756455
 30
0.0
 10
63.257599
 20
104.287497
 30
0.0
 10
63.191734
 20
104.353363
 30
0.0
  0
SPLINE
  5
55d
100
AcDbEntity
  8
0
 62
7
100
AcDbSpline
 70
8
 71
3
 72
8
 73
4
 74
0
 40
0
 40
0
 40
0
 40
0
 40
1
 40
1
 40
1
 40
1
 10
63.191734
 20
104.353363
 30
0.0
 10
63.125869
 20
104.419228
 30
0.0
 10
62.363099
 20
103.989968
 30
0.0
 10
61.496689
 20
103.399450
 30
0.0
  0
SPLINE
  5
55e
100
AcDbEntity
  8
0
 62
7
100
AcDbSpline
 70
8
 71
3
 72
8
 73
4
 74
0
 40
0
 40
0
 40
0
 40
0
 40
1
 40
1
 40
1
 40
1
 10
61.496689
 20
103.399450
 30
0.0
 10
60.630279
 20
102.808932
 30
0.0
 10
59.340176
 20
102.029503
 30
0.0
 10
58.629793
 20
101.667387
 30
0.0
  0
SPLINE
  5
55f
100
AcDbEntity
  8
0
 62
7
100
AcDbSpline
 70
8
 71
3
 72
8
 73
4
 74
0
 40
0
 40
0
 40
0
 40
0
 40
1
 40
1
 40
1
 40
1
 10
58.629793
 20
101.667387
 30
0.0
 10
57.919408
 20
101.305270
 30
0.0
 10
57.205033
 20
100.898116
 30
0.0
 10
57.042293
 20
100.762602
 30
0.0
  0
SPLINE
  5
560
100
AcDbEntity
  8
0
 62
7
100
AcDbSpline
 70
8
 71
3
 72
8
 73
4
 74
0
 40
0
 40
0
 40
0
 40
0
 40
1
 40
1
 40
1
 40
1
 10
57.042293
 20
100.762602
 30
0.0
 10
56.879551
 20
100.627085
 30
0.0
 10
56.207708
 20
100.116304
 30
0.0
 10
55.549305
 20
99.627531
 30
0.0
  0
SPLINE
  5
561
100
AcDbEntity
  8
0
 62
7
100
AcDbSpline
 70
8
 71
3
 72
8
 73
4
 74
0
 40
0
 40
0
 40
0
 40
0
 40
1
 40
1
 40
1
 40
1
 10
55.549305
 20
99.627531
 30
0.0
 10
54.890903
 20
99.138759
 30
0.0
 10
54.116997
 20
98.298063
 30
0.0
 10
53.829514
 20
97.759319
 30
0.0
  0
LWPOLYLINE
  5
562
100
AcDbEntity
  8
0
 62
7
100
AcDbPolyline
 90
1
 70
1
 10
75.757805
 20
93.491153
 30
0.0
  0
SPLINE
  5
563
100
AcDbEntity
  8
0
 62
7
100
AcDbSpline
 70
8
 71
3
 72
8
 73
4
 74
0
 40
0
 40
0
 40
0
 40
0
 40
1
 40
1
 40
1
 40
1
 10
53.954143
 20
96.252281
 30
0.0
 10
54.487014
 20
95.818047
 30
0.0
 10
54.533797
 20
95.682578
 30
0.0
 10
54.218726
 20
95.486109
 30
0.0
  0
SPLINE
  5
564
100
AcDbEntity
  8
0
 62
7
100
AcDbSpline
 70
8
 71
3
 72
8
 73
4
 74
0
 40
0
 40
0
 40
0
 40
0
 40
1
 40
1
 40
1
 40
1
 10
54.218726
 20
95.486109
 30
0.0
 10
53.522872
 20
95.052197
 30
0.0
 10
54.315818
 20
94.344868
 30
0.0
 10
56.479506
 20
93.469434
 30
0.0
  0
SPLINE
  5
565
100
AcDbEntity
  8
0
 62
7
100
AcDbSpline
 70
8
 71
3
 72
8
 73
4
 74
0
 40
0
 40
0
 40
0
 40
0
 40
1
 40
1
 40
1
 40
1
 10
56.479506
 20
93.469434
 30
0.0
 10
57.617159
 20
93.009135
 30
0.0
 10
58.916520
 20
92.270233
 30
0.0
 10
59.366973
 20
91.827432
 30
0.0
  0
SPLINE
  5
566
100
AcDbEntity
  8
0
 62
7
100
AcDbSpline
 70
8
 71
3
 72
8
 73
4
 74
0
 40
0
 40
0
 40
0
 40
0
 40
1
 40
1
 40
1
 40
1
 10
59.366973
 20
91.827432
 30
0.0
 10
60.381740
 20
90.829903
 30
0.0
 10
60.423602
 20
90.822709
 30
0.0
 10
59.953332
 20
91.726650
 30
0.0
  0
LWPOLYLINE
  5
567
100
AcDbEntity
  8
0
 62
7
100
AcDbPolyline
 90
3
 70
0
 10
53.829514
 20
97.759319
 30
0.0
 10
53.306816
 20
96.779784
 30
0.0
 10
53.954143
 20
96.252281
 30
0.0
  0
SPLINE
  5
568
100
AcDbEntity
  8
0
 62
7
100
AcDbSpline
 70
8
 71
3
 72
8
 73
4
 74
0
 40
0
 40
0
 40
0
 40
0
 40
1
 40
1
 40
1
 40
1
 10
97.972340
 20
94.799258
 30
0.0
 10
99.509032
 20
96.553303
 30
0.0
 10
100.151896
 20
96.907279
 30
0.0
 10
100.439522
 20
96.157743
 30
0.0
  0
SPLINE
  5
569
100
AcDbEntity
  8
0
 62
7
100
AcDbSpline
 70
8
 71
3
 72
8
 73
4
 74
0
 40
0
 40
0
 40
0
 40
0
 40
1
 40
1
 40
1
 40
1
 10
100.439522
 20
96.157743
 30
0.0
 10
100.537719
 20
95.901841
 30
0.0
 10
100.008304
 20
95.174604
 30
0.0
 10
98.953669
 20
94.116694
 30
0.0
  0
SPLINE
  5
56a
100
AcDbEntity
  8
0
 62
7
100
AcDbSpline
 70
8
 71
3
 72
8
 73
4
 74
0
 40
0
 40
0
 40
0
 40
0
 40
1
 40
1
 40
1
 40
1
 10
98.953669
 20
94.116694
 30
0.0
 10
98.052546
 20
93.212772
 30
0.0
 10
97.061634
 20
92.111748
 30
0.0
 10
96.751637
 20
91.669976
 30
0.0
  0
LWPOLYLINE
  5
56b
100
AcDbEntity
  8
0
 62
7
100
AcDbPolyline
 90
1
 70
1
 10
59.953332
 20
91.726650
 30
0.0
  0
SPLINE
  5
56c
100
AcDbEntity
  8
0
 62
7
100
AcDbSpline
 70
8
 71
3
 72
8
 73
4
 74
0
 40
0
 40
0
 40
0
 40
0
 40
1
 40
1
 40
1
 40
1
 10
97.134913
 20
91.687012
 30
0.0
 10
97.655708
 20
92.138153
 30
0.0
 10
98.809889
 20
92.971591
 30
0.0
 10
99.699760
 20
93.539096
 30
0.0
  0
SPLINE
  5
56d
100
AcDbEntity
  8
0
 62
7
100
AcDbSpline
 70
8
 71
3
 72
8
 73
4
 74
0
 40
0
 40
0
 40
0
 40
0
 40
1
 40
1
 40
1
 40
1
 10
99.699760
 20
93.539096
 30
0.0
 10
101.541146
 20
94.713417
 30
0.0
 10
101.688106
 20
95.171580
 30
0.0
 10
100.667233
 20
96.555295
 30
0.0
  0
SPLINE
  5
56e
100
AcDbEntity
  8
0
 62
7
100
AcDbSpline
 70
8
 71
3
 72
8
 73
4
 74
0
 40
0
 40
0
 40
0
 40
0
 40
1
 40
1
 40
1
 40
1
 10
100.667233
 20
96.555295
 30
0.0
 10
100.303431
 20
97.048402
 30
0.0
 10
100.005774
 20
97.588861
 30
0.0
 10
100.005774
 20
97.756316
 30
0.0
  0
SPLINE
  5
56f
100
AcDbEntity
  8
0
 62
7
100
AcDbSpline
 70
8
 71
3
 72
8
 73
4
 74
0
 40
0
 40
0
 40
0
 40
0
 40
1
 40
1
 40
1
 40
1
 10
100.005774
 20
97.756316
 30
0.0
 10
100.005774
 20
97.923773
 30
0.0
 10
99.750256
 20
98.287594
 30
0.0
 10
99.437952
 20
98.564808
 30
0.0
  0
SPLINE
  5
570
100
AcDbEntity
  8
0
 62
7
100
AcDbSpline
 70
8
 71
3
 72
8
 73
4
 74
0
 40
0
 40
0
 40
0
 40
0
 40
1
 40
1
 40
1
 40
1
 10
99.437952
 20
98.564808
 30
0.0
 10
98.958159
 20
98.990698
 30
0.0
 10
98.850122
 20
99.007308
 30
0.0
 10
98.741077
 20
98.671962
 30
0.0
  0
SPLINE
  5
571
100
AcDbEntity
  8
0
 62
7
100
AcDbSpline
 70
8
 71
3
 72
8
 73
4
 74
0
 40
0
 40
0
 40
0
 40
0
 40
1
 40
1
 40
1
 40
1
 10
98.741077
 20
98.671962
 30
0.0
 10
98.670097
 20
98.453681
 30
0.0
 10
97.925620
 20
97.620243
 30
0.0
 10
97.086682
 20
96.819879
 30
0.0
  0
SPLINE
  5
572
100
AcDbEntity
  8
0
 62
7
100
AcDbSpline
 70
8
 71
3
 72
8
 73
4
 74
0
 40
0
 40
0
 40
0
 40
0
 40
1
 40
1
 40
1
 40
1
 10
97.086682
 20
96.819879
 30
0.0
 10
96.247744
 20
96.019514
 30
0.0
 10
95.436029
 20
95.115417
 30
0.0
 10
95.282872
 20
94.810773
 30
0.0
  0
SPLINE
  5
573
100
AcDbEntity
  8
0
 62
7
100
AcDbSpline
 70
8
 71
3
 72
8
 73
4
 74
0
 40
0
 40
0
 40
0
 40
0
 40
1
 40
1
 40
1
 40
1
 10
95.282872
 20
94.810773
 30
0.0
 10
95.129712
 20
94.506129
 30
0.0
 10
95.726552
 20
94.952614
 30
0.0
 10
96.609178
 20
95.802961
 30
0.0
  0
SPLINE
  5
574
100
AcDbEntity
  8
0
 62
7
100
AcDbSpline
 70
8
 71
3
 72
8
 73
4
 74
0
 40
0
 40
0
 40
0
 40
0
 40
1
 40
1
 40
1
 40
1
 10
96.609178
 20
95.802961
 30
0.0
 10
97.491804
 20
96.653308
 30
0.0
 10
98.319458
 20
97.349045
 30
0.0
 10
98.448405
 20
97.349045
 30
0.0
  0
SPLINE
  5
575
100
AcDbEntity
  8
0
 62
7
100
AcDbSpline
 70
8
 71
3
 72
8
 73
4
 74
0
 40
0
 40
0
 40
0
 40
0
 40
1
 40
1
 40
1
 40
1
 10
98.448405
 20
97.349045
 30
0.0
 10
98.906267
 20
97.349045
 30
0.0
 10
98.670830
 20
96.808078
 30
0.0
 10
97.786621
 20
95.828453
 30
0.0
  0
SPLINE
  5
576
100
AcDbEntity
  8
0
 62
7
100
AcDbSpline
 70
8
 71
3
 72
8
 73
4
 74
0
 40
0
 40
0
 40
0
 40
0
 40
1
 40
1
 40
1
 40
1
 10
97.786621
 20
95.828453
 30
0.0
 10
96.862122
 20
94.804193
 30
0.0
 10
94.444053
 20
91.319948
 30
0.0
 10
94.456597
 20
91.030155
 30
0.0
  0
SPLINE
  5
577
100
AcDbEntity
  8
0
 62
7
100
AcDbSpline
 70
8
 71
3
 72
8
 73
4
 74
0
 40
0
 40
0
 40
0
 40
0
 40
1
 40
1
 40
1
 40
1
 10
94.456597
 20
91.030155
 30
0.0
 10
94.464005
 20
90.859205
 30
0.0
 10
95.393859
 20
91.856078
 30
0.0
 10
97.972340
 20
94.799258
 30
0.0
  0
LWPOLYLINE
  5
578
100
AcDbEntity
  8
0
 62
7
100
AcDbPolyline
 90
3
 70
0
 10
96.751637
 20
91.669976
 30
0.0
 10
96.188011
 20
90.866754
 30
0.0
 10
97.134913
 20
91.687012
 30
0.0
  0
SPLINE
  5
579
100
AcDbEntity
  8
0
 62
7
100
AcDbSpline
 70
8
 71
3
 72
8
 73
4
 74
0
 40
0
 40
0
 40
0
 40
0
 40
1
 40
1
 40
1
 40
1
 10
96.632337
 20
97.915635
 30
0.0
 10
98.566690
 20
99.834300
 30
0.0
 10
98.316145
 20
100.629757
 30
0.0
 10
95.243274
 20
102.325802
 30
0.0
  0
SPLINE
  5
57a
100
AcDbEntity
  8
0
 62
7
100
AcDbSpline
 70
8
 71
3
 72
8
 73
4
 74
0
 40
0
 40
0
 40
0
 40
0
 40
1
 40
1
 40
1
 40
1
 10
95.243274
 20
102.325802
 30
0.0
 10
93.875233
 20
103.080881
 30
0.0
 10
89.695666
 20
104.589633
 30
0.0
 10
89.503718
 20
104.397683
 30
0.0
  0
SPLINE
  5
57b
100
AcDbEntity
  8
0
 62
7
100
AcDbSpline
 70
8
 71
3
 72
8
 73
4
 74
0
 40
0
 40
0
 40
0
 40
0
 40
1
 40
1
 40
1
 40
1
 10
89.503718
 20
104.397683
 30
0.0
 10
89.349755
 20
104.243719
 30
0.0
 10
91.319218
 20
100.867316
 30
0.0
 10
91.976395
 20
100.158576
 30
0.0
  0
SPLINE
  5
57c
100
AcDbEntity
  8
0
 62
7
100
AcDbSpline
 70
8
 71
3
 72
8
 73
4
 74
0
 40
0
 40
0
 40
0
 40
0
 40
1
 40
1
 40
1
 40
1
 10
91.976395
 20
100.158576
 30
0.0
 10
92.606318
 20
99.479235
 30
0.0
 10
92.610406
 20
99.478677
 30
0.0
 10
93.132164
 20
100.000435
 30
0.0
  0
SPLINE
  5
57d
100
AcDbEntity
  8
0
 62
7
100
AcDbSpline
 70
8
 71
3
 72
8
 73
4
 74
0
 40
0
 40
0
 40
0
 40
0
 40
1
 40
1
 40
1
 40
1
 10
93.132164
 20
100.000435
 30
0.0
 10
93.763859
 20
100.632130
 30
0.0
 10
94.271362
 20
100.664412
 30
0.0
 10
94.827500
 20
100.108271
 30
0.0
  0
SPLINE
  5
57e
100
AcDbEntity
  8
0
 62
7
100
AcDbSpline
 70
8
 71
3
 72
8
 73
4
 74
0
 40
0
 40
0
 40
0
 40
0
 40
1
 40
1
 40
1
 40
1
 10
94.827500
 20
100.108271
 30
0.0
 10
95.408896
 20
99.526878
 30
0.0
 10
95.353640
 20
99.077087
 30
0.0
 10
94.474866
 20
97.237664
 30
0.0
  0
SPLINE
  5
57f
100
AcDbEntity
  8
0
 62
7
100
AcDbSpline
 70
8
 71
3
 72
8
 73
4
 74
0
 40
0
 40
0
 40
0
 40
0
 40
1
 40
1
 40
1
 40
1
 10
94.474866
 20
97.237664
 30
0.0
 10
94.052242
 20
96.353037
 30
0.0
 10
93.627416
 20
95.331597
 30
0.0
 10
93.530809
 20
94.967795
 30
0.0
  0
SPLINE
  5
580
100
AcDbEntity
  8
0
 62
7
100
AcDbSpline
 70
8
 71
3
 72
8
 73
4
 74
0
 40
0
 40
0
 40
0
 40
0
 40
1
 40
1
 40
1
 40
1
 10
93.530809
 20
94.967795
 30
0.0
 10
93.387696
 20
94.428871
 30
0.0
 10
93.542292
 20
94.525179
 30
0.0
 10
94.365363
 20
95.487696
 30
0.0
  0
SPLINE
  5
581
100
AcDbEntity
  8
0
 62
7
100
AcDbSpline
 70
8
 71
3
 72
8
 73
4
 74
0
 40
0
 40
0
 40
0
 40
0
 40
1
 40
1
 40
1
 40
1
 10
94.365363
 20
95.487696
 30
0.0
 10
94.920975
 20
96.137447
 30
0.0
 10
95.941113
 20
97.230017
 30
0.0
 10
96.632337
 20
97.915635
 30
0.0
  0
LWPOLYLINE
  5
582
100
AcDbEntity
  8
0
 62
7
100
AcDbPolyline
 90
1
 70
1
 10
97.972340
 20
94.799258
 30
0.0
  0
SPLINE
  5
583
100
AcDbEntity
  8
0
 62
7
100
AcDbSpline
 70
8
 71
3
 72
8
 73
4
 74
0
 40
0
 40
0
 40
0
 40
0
 40
1
 40
1
 40
1
 40
1
 10
77.047572
 20
96.151912
 30
0.0
 10
76.619322
 20
97.012800
 30
0.0
 10
75.786123
 20
97.382867
 30
0.0
 10
75.321713
 20
96.918457
 30
0.0
  0
SPLINE
  5
584
100
AcDbEntity
  8
0
 62
7
100
AcDbSpline
 70
8
 71
3
 72
8
 73
4
 74
0
 40
0
 40
0
 40
0
 40
0
 40
1
 40
1
 40
1
 40
1
 10
75.321713
 20
96.918457
 30
0.0
 10
75.195962
 20
96.792703
 30
0.0
 10
77.128166
 20
95.262343
 30
0.0
 10
77.444447
 20
95.237194
 30
0.0
  0
SPLINE
  5
585
100
AcDbEntity
  8
0
 62
7
100
AcDbSpline
 70
8
 71
3
 72
8
 73
4
 74
0
 40
0
 40
0
 40
0
 40
0
 40
1
 40
1
 40
1
 40
1
 10
77.444447
 20
95.237194
 30
0.0
 10
77.477747
 20
95.234548
 30
0.0
 10
77.299153
 20
95.646169
 30
0.0
 10
77.047572
 20
96.151912
 30
0.0
  0
LWPOLYLINE
  5
586
100
AcDbEntity
  8
0
 62
7
100
AcDbPolyline
 90
1
 70
1
 10
96.632337
 20
97.915635
 30
0.0
  0
SPLINE
  5
587
100
AcDbEntity
  8
0
 62
7
100
AcDbSpline
 70
8
 71
3
 72
8
 73
4
 74
0
 40
0
 40
0
 40
0
 40
0
 40
1
 40
1
 40
1
 40
1
 10
78.689166
 20
96.953753
 30
0.0
 10
79.215835
 20
97.931719
 30
0.0
 10
79.075788
 20
98.509175
 30
0.0
 10
78.468781
 20
97.862464
 30
0.0
  0
SPLINE
  5
588
100
AcDbEntity
  8
0
 62
7
100
AcDbSpline
 70
8
 71
3
 72
8
 73
4
 74
0
 40
0
 40
0
 40
0
 40
0
 40
1
 40
1
 40
1
 40
1
 10
78.468781
 20
97.862464
 30
0.0
 10
78.046675
 20
97.412749
 30
0.0
 10
77.677709
 20
96.026129
 30
0.0
 10
77.980148
 20
96.026129
 30
0.0
  0
SPLINE
  5
589
100
AcDbEntity
  8
0
 62
7
100
AcDbSpline
 70
8
 71
3
 72
8
 73
4
 74
0
 40
0
 40
0
 40
0
 40
0
 40
1
 40
1
 40
1
 40
1
 10
77.980148
 20
96.026129
 30
0.0
 10
78.095351
 20
96.026129
 30
0.0
 10
78.414406
 20
96.443559
 30
0.0
 10
78.689166
 20
96.953753
 30
0.0
  0
LWPOLYLINE
  5
58a
100
AcDbEntity
  8
0
 62
7
100
AcDbPolyline
 90
1
 70
1
 10
77.047572
 20
96.151912
 30
0.0
  0
SPLINE
  5
58b
100
AcDbEntity
  8
0
 62
7
100
AcDbSpline
 70
8
 71
3
 72
8
 73
4
 74
0
 40
0
 40
0
 40
0
 40
0
 40
1
 40
1
 40
1
 40
1
 10
62.687219
 20
98.307451
 30
0.0
 10
62.442360
 20
98.951478
 30
0.0
 10
62.466567
 20
98.987922
 30
0.0
 10
63.024496
 20
98.815258
 30
0.0
  0
SPLINE
  5
58c
100
AcDbEntity
  8
0
 62
7
100
AcDbSpline
 70
8
 71
3
 72
8
 73
4
 74
0
 40
0
 40
0
 40
0
 40
0
 40
1
 40
1
 40
1
 40
1
 10
63.024496
 20
98.815258
 30
0.0
 10
63.355085
 20
98.712949
 30
0.0
 10
63.923222
 20
98.573939
 30
0.0
 10
64.287024
 20
98.506351
 30
0.0
  0
SPLINE
  5
58d
100
AcDbEntity
  8
0
 62
7
100
AcDbSpline
 70
8
 71
3
 72
8
 73
4
 74
0
 40
0
 40
0
 40
0
 40
0
 40
1
 40
1
 40
1
 40
1
 10
64.287024
 20
98.506351
 30
0.0
 10
64.802073
 20
98.410662
 30
0.0
 10
64.728868
 20
98.504764
 30
0.0
 10
63.956295
 20
98.930907
 30
0.0
  0
SPLINE
  5
58e
100
AcDbEntity
  8
0
 62
7
100
AcDbSpline
 70
8
 71
3
 72
8
 73
4
 74
0
 40
0
 40
0
 40
0
 40
0
 40
1
 40
1
 40
1
 40
1
 10
63.956295
 20
98.930907
 30
0.0
 10
63.410592
 20
99.232003
 30
0.0
 10
62.964108
 20
99.633577
 30
0.0
 10
62.964108
 20
99.823291
 30
0.0
  0
SPLINE
  5
58f
100
AcDbEntity
  8
0
 62
7
100
AcDbSpline
 70
8
 71
3
 72
8
 73
4
 74
0
 40
0
 40
0
 40
0
 40
0
 40
1
 40
1
 40
1
 40
1
 10
62.964108
 20
99.823291
 30
0.0
 10
62.964108
 20
100.013008
 30
0.0
 10
63.268180
 20
100.916557
 30
0.0
 10
63.639827
 20
101.831182
 30
0.0
  0
SPLINE
  5
590
100
AcDbEntity
  8
0
 62
7
100
AcDbSpline
 70
8
 71
3
 72
8
 73
4
 74
0
 40
0
 40
0
 40
0
 40
0
 40
1
 40
1
 40
1
 40
1
 10
63.639827
 20
101.831182
 30
0.0
 10
64.011471
 20
102.745807
 30
0.0
 10
64.267096
 20
103.542587
 30
0.0
 10
64.207879
 20
103.601800
 30
0.0
  0
SPLINE
  5
591
100
AcDbEntity
  8
0
 62
7
100
AcDbSpline
 70
8
 71
3
 72
8
 73
4
 74
0
 40
0
 40
0
 40
0
 40
0
 40
1
 40
1
 40
1
 40
1
 10
64.207879
 20
103.601800
 30
0.0
 10
64.041282
 20
103.768398
 30
0.0
 10
62.455147
 20
100.426644
 30
0.0
 10
62.276244
 20
99.532128
 30
0.0
  0
SPLINE
  5
592
100
AcDbEntity
  8
0
 62
7
100
AcDbSpline
 70
8
 71
3
 72
8
 73
4
 74
0
 40
0
 40
0
 40
0
 40
0
 40
1
 40
1
 40
1
 40
1
 10
62.276244
 20
99.532128
 30
0.0
 10
62.188738
 20
99.094592
 30
0.0
 10
62.252352
 20
98.483939
 30
0.0
 10
62.417643
 20
98.175120
 30
0.0
  0
SPLINE
  5
593
100
AcDbEntity
  8
0
 62
7
100
AcDbSpline
 70
8
 71
3
 72
8
 73
4
 74
0
 40
0
 40
0
 40
0
 40
0
 40
1
 40
1
 40
1
 40
1
 10
62.417643
 20
98.175120
 30
0.0
 10
62.837071
 20
97.391408
 30
0.0
 10
63.004290
 20
97.473495
 30
0.0
 10
62.687219
 20
98.307451
 30
0.0
  0
LWPOLYLINE
  5
594
100
AcDbEntity
  8
0
 62
7
100
AcDbPolyline
 90
1
 70
1
 10
78.689166
 20
96.953753
 30
0.0
  0
SPLINE
  5
595
100
AcDbEntity
  8
0
 62
7
100
AcDbSpline
 70
8
 71
3
 72
8
 73
4
 74
0
 40
0
 40
0
 40
0
 40
0
 40
1
 40
1
 40
1
 40
1
 10
76.414720
 20
97.995285
 30
0.0
 10
78.803839
 20
98.838216
 30
0.0
 10
80.687907
 20
100.709807
 30
0.0
 10
81.350578
 20
102.898453
 30
0.0
  0
SPLINE
  5
596
100
AcDbEntity
  8
0
 62
7
100
AcDbSpline
 70
8
 71
3
 72
8
 73
4
 74
0
 40
0
 40
0
 40
0
 40
0
 40
1
 40
1
 40
1
 40
1
 10
81.350578
 20
102.898453
 30
0.0
 10
81.925303
 20
104.796638
 30
0.0
 10
81.802695
 20
107.857314
 30
0.0
 10
81.090632
 20
109.387587
 30
0.0
  0
LWPOLYLINE
  5
597
100
AcDbEntity
  8
0
 62
7
100
AcDbPolyline
 90
1
 70
1
 10
62.687219
 20
98.307451
 30
0.0
  0
SPLINE
  5
598
100
AcDbEntity
  8
0
 62
7
100
AcDbSpline
 70
8
 71
3
 72
8
 73
4
 74
0
 40
0
 40
0
 40
0
 40
0
 40
1
 40
1
 40
1
 40
1
 10
80.410915
 20
108.382117
 30
0.0
 10
80.307923
 20
107.247029
 30
0.0
 10
80.165784
 20
106.260445
 30
0.0
 10
80.095050
 20
106.189711
 30
0.0
  0
SPLINE
  5
599
100
AcDbEntity
  8
0
 62
7
100
AcDbSpline
 70
8
 71
3
 72
8
 73
4
 74
0
 40
0
 40
0
 40
0
 40
0
 40
1
 40
1
 40
1
 40
1
 10
80.095050
 20
106.189711
 30
0.0
 10
80.024317
 20
106.118975
 30
0.0
 10
79.957681
 20
107.404874
 30
0.0
 10
79.946971
 20
109.047261
 30
0.0
  0
SPLINE
  5
59a
100
AcDbEntity
  8
0
 62
7
100
AcDbSpline
 70
8
 71
3
 72
8
 73
4
 74
0
 40
0
 40
0
 40
0
 40
0
 40
1
 40
1
 40
1
 40
1
 10
79.946971
 20
109.047261
 30
0.0
 10
79.932445
 20
111.274736
 30
0.0
 10
79.790105
 20
112.470364
 30
0.0
 10
79.386716
 20
113.753212
 30
0.0
  0
SPLINE
  5
59b
100
AcDbEntity
  8
0
 62
7
100
AcDbSpline
 70
8
 71
3
 72
8
 73
4
 74
0
 40
0
 40
0
 40
0
 40
0
 40
1
 40
1
 40
1
 40
1
 10
79.386716
 20
113.753212
 30
0.0
 10
78.763320
 20
115.735735
 30
0.0
 10
78.691161
 20
116.390214
 30
0.0
 10
79.233567
 20
115.142275
 30
0.0
  0
SPLINE
  5
59c
100
AcDbEntity
  8
0
 62
7
100
AcDbSpline
 70
8
 71
3
 72
8
 73
4
 74
0
 40
0
 40
0
 40
0
 40
0
 40
1
 40
1
 40
1
 40
1
 10
79.233567
 20
115.142275
 30
0.0
 10
79.753830
 20
113.945278
 30
0.0
 10
80.417416
 20
114.057012
 30
0.0
 10
80.939222
 20
115.429467
 30
0.0
  0
SPLINE
  5
59d
100
AcDbEntity
  8
0
 62
7
100
AcDbSpline
 70
8
 71
3
 72
8
 73
4
 74
0
 40
0
 40
0
 40
0
 40
0
 40
1
 40
1
 40
1
 40
1
 10
80.939222
 20
115.429467
 30
0.0
 10
81.290634
 20
116.353754
 30
0.0
 10
81.305530
 20
117.345262
 30
0.0
 10
80.955785
 20
116.531337
 30
0.0
  0
SPLINE
  5
59e
100
AcDbEntity
  8
0
 62
7
100
AcDbSpline
 70
8
 71
3
 72
8
 73
4
 74
0
 40
0
 40
0
 40
0
 40
0
 40
1
 40
1
 40
1
 40
1
 10
80.955785
 20
116.531337
 30
0.0
 10
80.788341
 20
116.141675
 30
0.0
 10
80.723491
 20
116.364250
 30
0.0
 10
80.709799
 20
117.375617
 30
0.0
  0
SPLINE
  5
59f
100
AcDbEntity
  8
0
 62
7
100
AcDbSpline
 70
8
 71
3
 72
8
 73
4
 74
0
 40
0
 40
0
 40
0
 40
0
 40
1
 40
1
 40
1
 40
1
 10
80.709799
 20
117.375617
 30
0.0
 10
80.699560
 20
118.131013
 30
0.0
 10
80.570197
 20
118.823851
 30
0.0
 10
80.422303
 20
118.915254
 30
0.0
  0
SPLINE
  5
5a0
100
AcDbEntity
  8
0
 62
7
100
AcDbSpline
 70
8
 71
3
 72
8
 73
4
 74
0
 40
0
 40
0
 40
0
 40
0
 40
1
 40
1
 40
1
 40
1
 10
80.422303
 20
118.915254
 30
0.0
 10
80.274409
 20
119.006657
 30
0.0
 10
80.233274
 20
119.210675
 30
0.0
 10
80.330892
 20
119.368626
 30
0.0
  0
SPLINE
  5
5a1
100
AcDbEntity
  8
0
 62
7
100
AcDbSpline
 70
8
 71
3
 72
8
 73
4
 74
0
 40
0
 40
0
 40
0
 40
0
 40
1
 40
1
 40
1
 40
1
 10
80.330892
 20
119.368626
 30
0.0
 10
80.429931
 20
119.528876
 30
0.0
 10
80.386619
 20
119.580554
 30
0.0
 10
80.232896
 20
119.485548
 30
0.0
  0
SPLINE
  5
5a2
100
AcDbEntity
  8
0
 62
7
100
AcDbSpline
 70
8
 71
3
 72
8
 73
4
 74
0
 40
0
 40
0
 40
0
 40
0
 40
1
 40
1
 40
1
 40
1
 10
80.232896
 20
119.485548
 30
0.0
 10
80.081366
 20
119.391906
 30
0.0
 10
79.811356
 20
119.491263
 30
0.0
 10
79.632858
 20
119.706337
 30
0.0
  0
SPLINE
  5
5a3
100
AcDbEntity
  8
0
 62
7
100
AcDbSpline
 70
8
 71
3
 72
8
 73
4
 74
0
 40
0
 40
0
 40
0
 40
0
 40
1
 40
1
 40
1
 40
1
 10
79.632858
 20
119.706337
 30
0.0
 10
79.303806
 20
120.102820
 30
0.0
 10
78.839108
 20
120.015204
 30
0.0
 10
78.839108
 20
119.556681
 30
0.0
  0
SPLINE
  5
5a4
100
AcDbEntity
  8
0
 62
7
100
AcDbSpline
 70
8
 71
3
 72
8
 73
4
 74
0
 40
0
 40
0
 40
0
 40
0
 40
1
 40
1
 40
1
 40
1
 10
78.839108
 20
119.556681
 30
0.0
 10
78.839108
 20
119.418785
 30
0.0
 10
79.140749
 20
119.043691
 30
0.0
 10
79.509419
 20
118.723135
 30
0.0
  0
SPLINE
  5
5a5
100
AcDbEntity
  8
0
 62
7
100
AcDbSpline
 70
8
 71
3
 72
8
 73
4
 74
0
 40
0
 40
0
 40
0
 40
0
 40
1
 40
1
 40
1
 40
1
 10
79.509419
 20
118.723135
 30
0.0
 10
80.053037
 20
118.250465
 30
0.0
 10
80.147784
 20
117.988255
 30
0.0
 10
80.010709
 20
117.335821
 30
0.0
  0
SPLINE
  5
5a6
100
AcDbEntity
  8
0
 62
7
100
AcDbSpline
 70
8
 71
3
 72
8
 73
4
 74
0
 40
0
 40
0
 40
0
 40
0
 40
1
 40
1
 40
1
 40
1
 10
80.010709
 20
117.335821
 30
0.0
 10
79.751489
 20
116.101992
 30
0.0
 10
79.368274
 20
115.889315
 30
0.0
 10
79.368274
 20
116.979279
 30
0.0
  0
SPLINE
  5
5a7
100
AcDbEntity
  8
0
 62
7
100
AcDbSpline
 70
8
 71
3
 72
8
 73
4
 74
0
 40
0
 40
0
 40
0
 40
0
 40
1
 40
1
 40
1
 40
1
 10
79.368274
 20
116.979279
 30
0.0
 10
79.368274
 20
117.580227
 30
0.0
 10
79.222280
 20
117.985953
 30
0.0
 10
78.971399
 20
118.082227
 30
0.0
  0
SPLINE
  5
5a8
100
AcDbEntity
  8
0
 62
7
100
AcDbSpline
 70
8
 71
3
 72
8
 73
4
 74
0
 40
0
 40
0
 40
0
 40
0
 40
1
 40
1
 40
1
 40
1
 10
78.971399
 20
118.082227
 30
0.0
 10
78.397386
 20
118.302495
 30
0.0
 10
78.428779
 20
120.328476
 30
0.0
 10
79.009661
 20
120.551382
 30
0.0
  0
SPLINE
  5
5a9
100
AcDbEntity
  8
0
 62
7
100
AcDbSpline
 70
8
 71
3
 72
8
 73
4
 74
0
 40
0
 40
0
 40
0
 40
0
 40
1
 40
1
 40
1
 40
1
 10
79.009661
 20
120.551382
 30
0.0
 10
79.276070
 20
120.653612
 30
0.0
 10
79.583849
 20
120.528178
 30
0.0
 10
79.803411
 20
120.227923
 30
0.0
  0
SPLINE
  5
5aa
100
AcDbEntity
  8
0
 62
7
100
AcDbSpline
 70
8
 71
3
 72
8
 73
4
 74
0
 40
0
 40
0
 40
0
 40
0
 40
1
 40
1
 40
1
 40
1
 10
79.803411
 20
120.227923
 30
0.0
 10
80.089476
 20
119.836708
 30
0.0
 10
80.162024
 20
119.819714
 30
0.0
 10
80.162024
 20
120.143926
 30
0.0
  0
SPLINE
  5
5ab
100
AcDbEntity
  8
0
 62
7
100
AcDbSpline
 70
8
 71
3
 72
8
 73
4
 74
0
 40
0
 40
0
 40
0
 40
0
 40
1
 40
1
 40
1
 40
1
 10
80.162024
 20
120.143926
 30
0.0
 10
80.162024
 20
120.367467
 30
0.0
 10
79.916930
 20
120.772171
 30
0.0
 10
79.617369
 20
121.043269
 30
0.0
  0
SPLINE
  5
5ac
100
AcDbEntity
  8
0
 62
7
100
AcDbSpline
 70
8
 71
3
 72
8
 73
4
 74
0
 40
0
 40
0
 40
0
 40
0
 40
1
 40
1
 40
1
 40
1
 10
79.617369
 20
121.043269
 30
0.0
 10
78.586454
 20
121.976237
 30
0.0
 10
77.453003
 20
120.572739
 30
0.0
 10
77.782444
 20
118.771167
 30
0.0
  0
SPLINE
  5
5ad
100
AcDbEntity
  8
0
 62
7
100
AcDbSpline
 70
8
 71
3
 72
8
 73
4
 74
0
 40
0
 40
0
 40
0
 40
0
 40
1
 40
1
 40
1
 40
1
 10
77.782444
 20
118.771167
 30
0.0
 10
78.038447
 20
117.371199
 30
0.0
 10
77.485412
 20
117.362108
 30
0.0
 10
76.608099
 20
118.751853
 30
0.0
  0
SPLINE
  5
5ae
100
AcDbEntity
  8
0
 62
7
100
AcDbSpline
 70
8
 71
3
 72
8
 73
4
 74
0
 40
0
 40
0
 40
0
 40
0
 40
1
 40
1
 40
1
 40
1
 10
76.608099
 20
118.751853
 30
0.0
 10
75.875404
 20
119.912516
 30
0.0
 10
74.634712
 20
120.896737
 30
0.0
 10
73.903472
 20
120.897388
 30
0.0
  0
SPLINE
  5
5af
100
AcDbEntity
  8
0
 62
7
100
AcDbSpline
 70
8
 71
3
 72
8
 73
4
 74
0
 40
0
 40
0
 40
0
 40
0
 40
1
 40
1
 40
1
 40
1
 10
73.903472
 20
120.897388
 30
0.0
 10
73.634894
 20
120.897626
 30
0.0
 10
72.956399
 20
121.385370
 30
0.0
 10
72.395704
 20
121.981256
 30
0.0
  0
LWPOLYLINE
  5
5b0
100
AcDbEntity
  8
0
 62
7
100
AcDbPolyline
 90
3
 70
0
 10
81.090632
 20
109.387587
 30
0.0
 10
80.598171
 20
110.445920
 30
0.0
 10
80.410915
 20
108.382117
 30
0.0
  0
SPLINE
  5
5b1
100
AcDbEntity
  8
0
 62
7
100
AcDbSpline
 70
8
 71
3
 72
8
 73
4
 74
0
 40
0
 40
0
 40
0
 40
0
 40
1
 40
1
 40
1
 40
1
 10
70.146746
 20
122.617764
 30
0.0
 10
66.324382
 20
121.228332
 30
0.0
 10
61.062386
 20
117.702716
 30
0.0
 10
59.770388
 20
115.665448
 30
0.0
  0
SPLINE
  5
5b2
100
AcDbEntity
  8
0
 62
7
100
AcDbSpline
 70
8
 71
3
 72
8
 73
4
 74
0
 40
0
 40
0
 40
0
 40
0
 40
1
 40
1
 40
1
 40
1
 10
59.770388
 20
115.665448
 30
0.0
 10
58.804019
 20
114.141642
 30
0.0
 10
58.802429
 20
113.726767
 30
0.0
 10
59.758800
 20
112.637536
 30
0.0
  0
SPLINE
  5
5b3
100
AcDbEntity
  8
0
 62
7
100
AcDbSpline
 70
8
 71
3
 72
8
 73
4
 74
0
 40
0
 40
0
 40
0
 40
0
 40
1
 40
1
 40
1
 40
1
 10
59.758800
 20
112.637536
 30
0.0
 10
60.178685
 20
112.159309
 30
0.0
 10
60.668445
 20
111.280011
 30
0.0
 10
60.847153
 20
110.683535
 30
0.0
  0
SPLINE
  5
5b4
100
AcDbEntity
  8
0
 62
7
100
AcDbSpline
 70
8
 71
3
 72
8
 73
4
 74
0
 40
0
 40
0
 40
0
 40
0
 40
1
 40
1
 40
1
 40
1
 10
60.847153
 20
110.683535
 30
0.0
 10
61.174072
 20
109.592377
 30
0.0
 10
61.661537
 20
108.906696
 30
0.0
 10
64.811823
 20
105.106750
 30
0.0
  0
SPLINE
  5
5b5
100
AcDbEntity
  8
0
 62
7
100
AcDbSpline
 70
8
 71
3
 72
8
 73
4
 74
0
 40
0
 40
0
 40
0
 40
0
 40
1
 40
1
 40
1
 40
1
 10
64.811823
 20
105.106750
 30
0.0
 10
68.333646
 20
100.858627
 30
0.0
 10
70.359685
 20
99.465704
 30
0.0
 10
73.016843
 20
99.465704
 30
0.0
  0
SPLINE
  5
5b6
100
AcDbEntity
  8
0
 62
7
100
AcDbSpline
 70
8
 71
3
 72
8
 73
4
 74
0
 40
0
 40
0
 40
0
 40
0
 40
1
 40
1
 40
1
 40
1
 10
73.016843
 20
99.465704
 30
0.0
 10
75.276895
 20
99.465704
 30
0.0
 10
77.845174
 20
101.019732
 30
0.0
 10
78.811520
 20
102.971981
 30
0.0
  0
SPLINE
  5
5b7
100
AcDbEntity
  8
0
 62
7
100
AcDbSpline
 70
8
 71
3
 72
8
 73
4
 74
0
 40
0
 40
0
 40
0
 40
0
 40
1
 40
1
 40
1
 40
1
 10
78.811520
 20
102.971981
 30
0.0
 10
79.117505
 20
103.590143
 30
0.0
 10
79.367952
 20
103.883730
 30
0.0
 10
79.368065
 20
103.624393
 30
0.0
  0
SPLINE
  5
5b8
100
AcDbEntity
  8
0
 62
7
100
AcDbSpline
 70
8
 71
3
 72
8
 73
4
 74
0
 40
0
 40
0
 40
0
 40
0
 40
1
 40
1
 40
1
 40
1
 10
79.368065
 20
103.624393
 30
0.0
 10
79.368330
 20
102.907034
 30
0.0
 10
78.619691
 20
101.269334
 30
0.0
 10
77.966583
 20
100.558777
 30
0.0
  0
SPLINE
  5
5b9
100
AcDbEntity
  8
0
 62
7
100
AcDbSpline
 70
8
 71
3
 72
8
 73
4
 74
0
 40
0
 40
0
 40
0
 40
0
 40
1
 40
1
 40
1
 40
1
 10
77.966583
 20
100.558777
 30
0.0
 10
77.326429
 20
99.862312
 30
0.0
 10
75.007391
 20
98.678627
 30
0.0
 10
74.275045
 20
98.674539
 30
0.0
  0
SPLINE
  5
5ba
100
AcDbEntity
  8
0
 62
7
100
AcDbSpline
 70
8
 71
3
 72
8
 73
4
 74
0
 40
0
 40
0
 40
0
 40
0
 40
1
 40
1
 40
1
 40
1
 10
74.275045
 20
98.674539
 30
0.0
 10
73.818747
 20
98.671893
 30
0.0
 10
73.644413
 20
98.134009
 30
0.0
 10
73.988414
 20
97.790011
 30
0.0
  0
SPLINE
  5
5bb
100
AcDbEntity
  8
0
 62
7
100
AcDbSpline
 70
8
 71
3
 72
8
 73
4
 74
0
 40
0
 40
0
 40
0
 40
0
 40
1
 40
1
 40
1
 40
1
 10
73.988414
 20
97.790011
 30
0.0
 10
74.274730
 20
97.503692
 30
0.0
 10
75.256940
 20
97.586787
 30
0.0
 10
76.414720
 20
97.995277
 30
0.0
  0
LWPOLYLINE
  5
5bc
100
AcDbEntity
  8
0
 62
7
100
AcDbPolyline
 90
3
 70
0
 10
72.395704
 20
121.981256
 30
0.0
 10
71.376262
 20
123.064694
 30
0.0
 10
70.146746
 20
122.617764
 30
0.0
  0
SPLINE
  5
5bd
100
AcDbEntity
  8
0
 62
7
100
AcDbSpline
 70
8
 71
3
 72
8
 73
4
 74
0
 40
0
 40
0
 40
0
 40
0
 40
1
 40
1
 40
1
 40
1
 10
71.959941
 20
102.679545
 30
0.0
 10
71.959941
 20
102.846481
 30
0.0
 10
71.710333
 20
102.903036
 30
0.0
 10
71.364628
 20
102.814430
 30
0.0
  0
SPLINE
  5
5be
100
AcDbEntity
  8
0
 62
7
100
AcDbSpline
 70
8
 71
3
 72
8
 73
4
 74
0
 40
0
 40
0
 40
0
 40
0
 40
1
 40
1
 40
1
 40
1
 10
71.364628
 20
102.814430
 30
0.0
 10
70.789980
 20
102.667144
 30
0.0
 10
70.792274
 20
102.679646
 30
0.0
 10
71.430774
 20
103.174565
 30
0.0
  0
SPLINE
  5
5bf
100
AcDbEntity
  8
0
 62
7
100
AcDbSpline
 70
8
 71
3
 72
8
 73
4
 74
0
 40
0
 40
0
 40
0
 40
0
 40
1
 40
1
 40
1
 40
1
 10
71.430774
 20
103.174565
 30
0.0
 10
71.794576
 20
103.456557
 30
0.0
 10
72.217751
 20
103.689925
 30
0.0
 10
72.371162
 20
103.693161
 30
0.0
  0
SPLINE
  5
5c0
100
AcDbEntity
  8
0
 62
7
100
AcDbSpline
 70
8
 71
3
 72
8
 73
4
 74
0
 40
0
 40
0
 40
0
 40
0
 40
1
 40
1
 40
1
 40
1
 10
72.371162
 20
103.693161
 30
0.0
 10
72.524572
 20
103.696389
 30
0.0
 10
73.213317
 20
104.056233
 30
0.0
 10
73.901705
 20
104.492795
 30
0.0
  0
SPLINE
  5
5c1
100
AcDbEntity
  8
0
 62
7
100
AcDbSpline
 70
8
 71
3
 72
8
 73
4
 74
0
 40
0
 40
0
 40
0
 40
0
 40
1
 40
1
 40
1
 40
1
 10
73.901705
 20
104.492795
 30
0.0
 10
74.590092
 20
104.929358
 30
0.0
 10
75.178949
 20
105.286461
 30
0.0
 10
75.210276
 20
105.286358
 30
0.0
  0
SPLINE
  5
5c2
100
AcDbEntity
  8
0
 62
7
100
AcDbSpline
 70
8
 71
3
 72
8
 73
4
 74
0
 40
0
 40
0
 40
0
 40
0
 40
1
 40
1
 40
1
 40
1
 10
75.210276
 20
105.286358
 30
0.0
 10
75.241602
 20
105.286257
 30
0.0
 10
75.283991
 20
104.995202
 30
0.0
 10
75.304475
 20
104.639576
 30
0.0
  0
SPLINE
  5
5c3
100
AcDbEntity
  8
0
 62
7
100
AcDbSpline
 70
8
 71
3
 72
8
 73
4
 74
0
 40
0
 40
0
 40
0
 40
0
 40
1
 40
1
 40
1
 40
1
 10
75.304475
 20
104.639576
 30
0.0
 10
75.333810
 20
104.130274
 30
0.0
 10
75.181180
 20
103.957718
 30
0.0
 10
74.585658
 20
103.826919
 30
0.0
  0
SPLINE
  5
5c4
100
AcDbEntity
  8
0
 62
7
100
AcDbSpline
 70
8
 71
3
 72
8
 73
4
 74
0
 40
0
 40
0
 40
0
 40
0
 40
1
 40
1
 40
1
 40
1
 10
74.585658
 20
103.826919
 30
0.0
 10
74.169826
 20
103.735587
 30
0.0
 10
73.408926
 20
103.375383
 30
0.0
 10
72.894769
 20
103.026469
 30
0.0
  0
SPLINE
  5
5c5
100
AcDbEntity
  8
0
 62
7
100
AcDbSpline
 70
8
 71
3
 72
8
 73
4
 74
0
 40
0
 40
0
 40
0
 40
0
 40
1
 40
1
 40
1
 40
1
 10
72.894769
 20
103.026469
 30
0.0
 10
72.380615
 20
102.677553
 30
0.0
 10
71.959941
 20
102.521438
 30
0.0
 10
71.959941
 20
102.679545
 30
0.0
  0
LWPOLYLINE
  5
5c6
100
AcDbEntity
  8
0
 62
7
100
AcDbPolyline
 90
1
 70
1
 10
76.414720
 20
97.995277
 30
0.0
  0
SPLINE
  5
5c7
100
AcDbEntity
  8
0
 62
7
100
AcDbSpline
 70
8
 71
3
 72
8
 73
4
 74
0
 40
0
 40
0
 40
0
 40
0
 40
1
 40
1
 40
1
 40
1
 10
69.407461
 20
103.273109
 30
0.0
 10
69.535344
 20
103.622433
 30
0.0
 10
69.420161
 20
103.892551
 30
0.0
 10
69.025445
 20
104.169025
 30
0.0
  0
SPLINE
  5
5c8
100
AcDbEntity
  8
0
 62
7
100
AcDbSpline
 70
8
 71
3
 72
8
 73
4
 74
0
 40
0
 40
0
 40
0
 40
0
 40
1
 40
1
 40
1
 40
1
 10
69.025445
 20
104.169025
 30
0.0
 10
68.566863
 20
104.490226
 30
0.0
 10
68.485573
 20
104.752926
 30
0.0
 10
68.594187
 20
105.562688
 30
0.0
  0
SPLINE
  5
5c9
100
AcDbEntity
  8
0
 62
7
100
AcDbSpline
 70
8
 71
3
 72
8
 73
4
 74
0
 40
0
 40
0
 40
0
 40
0
 40
1
 40
1
 40
1
 40
1
 10
68.594187
 20
105.562688
 30
0.0
 10
68.668561
 20
106.117197
 30
0.0
 10
68.599611
 20
106.688967
 30
0.0
 10
68.438982
 20
106.849587
 30
0.0
  0
SPLINE
  5
5ca
100
AcDbEntity
  8
0
 62
7
100
AcDbSpline
 70
8
 71
3
 72
8
 73
4
 74
0
 40
0
 40
0
 40
0
 40
0
 40
1
 40
1
 40
1
 40
1
 10
68.438982
 20
106.849587
 30
0.0
 10
68.229983
 20
107.058587
 30
0.0
 10
68.379462
 20
107.138629
 30
0.0
 10
68.978777
 20
107.138629
 30
0.0
  0
SPLINE
  5
5cb
100
AcDbEntity
  8
0
 62
7
100
AcDbSpline
 70
8
 71
3
 72
8
 73
4
 74
0
 40
0
 40
0
 40
0
 40
0
 40
1
 40
1
 40
1
 40
1
 10
68.978777
 20
107.138629
 30
0.0
 10
69.562305
 20
107.138629
 30
0.0
 10
69.855099
 20
107.288240
 30
0.0
 10
69.968054
 20
107.644126
 30
0.0
  0
SPLINE
  5
5cc
100
AcDbEntity
  8
0
 62
7
100
AcDbSpline
 70
8
 71
3
 72
8
 73
4
 74
0
 40
0
 40
0
 40
0
 40
0
 40
1
 40
1
 40
1
 40
1
 10
69.968054
 20
107.644126
 30
0.0
 10
70.162685
 20
108.257351
 30
0.0
 10
71.342128
 20
109.073278
 30
0.0
 10
71.777638
 20
108.895978
 30
0.0
  0
SPLINE
  5
5cd
100
AcDbEntity
  8
0
 62
7
100
AcDbSpline
 70
8
 71
3
 72
8
 73
4
 74
0
 40
0
 40
0
 40
0
 40
0
 40
1
 40
1
 40
1
 40
1
 10
71.777638
 20
108.895978
 30
0.0
 10
71.950665
 20
108.825538
 30
0.0
 10
71.854108
 20
108.750137
 30
0.0
 10
71.563066
 20
108.728420
 30
0.0
  0
SPLINE
  5
5ce
100
AcDbEntity
  8
0
 62
7
100
AcDbSpline
 70
8
 71
3
 72
8
 73
4
 74
0
 40
0
 40
0
 40
0
 40
0
 40
1
 40
1
 40
1
 40
1
 10
71.563066
 20
108.728420
 30
0.0
 10
71.092422
 20
108.693302
 30
0.0
 10
71.084998
 20
108.668701
 30
0.0
 10
71.495936
 20
108.505980
 30
0.0
  0
SPLINE
  5
5cf
100
AcDbEntity
  8
0
 62
7
100
AcDbSpline
 70
8
 71
3
 72
8
 73
4
 74
0
 40
0
 40
0
 40
0
 40
0
 40
1
 40
1
 40
1
 40
1
 10
71.495936
 20
108.505980
 30
0.0
 10
71.916335
 20
108.339506
 30
0.0
 10
71.906916
 20
108.291138
 30
0.0
 10
71.391428
 20
107.969209
 30
0.0
  0
SPLINE
  5
5d0
100
AcDbEntity
  8
0
 62
7
100
AcDbSpline
 70
8
 71
3
 72
8
 73
4
 74
0
 40
0
 40
0
 40
0
 40
0
 40
1
 40
1
 40
1
 40
1
 10
71.391428
 20
107.969209
 30
0.0
 10
70.891977
 20
107.657297
 30
0.0
 10
70.844735
 20
107.667126
 30
0.0
 10
70.992508
 20
108.052214
 30
0.0
  0
SPLINE
  5
5d1
100
AcDbEntity
  8
0
 62
7
100
AcDbSpline
 70
8
 71
3
 72
8
 73
4
 74
0
 40
0
 40
0
 40
0
 40
0
 40
1
 40
1
 40
1
 40
1
 10
70.992508
 20
108.052214
 30
0.0
 10
71.084699
 20
108.292461
 30
0.0
 10
71.057315
 20
108.425485
 30
0.0
 10
70.931651
 20
108.347822
 30
0.0
  0
SPLINE
  5
5d2
100
AcDbEntity
  8
0
 62
7
100
AcDbSpline
 70
8
 71
3
 72
8
 73
4
 74
0
 40
0
 40
0
 40
0
 40
0
 40
1
 40
1
 40
1
 40
1
 10
70.931651
 20
108.347822
 30
0.0
 10
70.805987
 20
108.270156
 30
0.0
 10
70.703170
 20
107.917700
 30
0.0
 10
70.703170
 20
107.564581
 30
0.0
  0
SPLINE
  5
5d3
100
AcDbEntity
  8
0
 62
7
100
AcDbSpline
 70
8
 71
3
 72
8
 73
4
 74
0
 40
0
 40
0
 40
0
 40
0
 40
1
 40
1
 40
1
 40
1
 10
70.703170
 20
107.564581
 30
0.0
 10
70.703170
 20
106.933600
 30
0.0
 10
70.718437
 20
106.937810
 30
0.0
 10
71.589858
 20
107.809239
 30
0.0
  0
SPLINE
  5
5d4
100
AcDbEntity
  8
0
 62
7
100
AcDbSpline
 70
8
 71
3
 72
8
 73
4
 74
0
 40
0
 40
0
 40
0
 40
0
 40
1
 40
1
 40
1
 40
1
 10
71.589858
 20
107.809239
 30
0.0
 10
72.077535
 20
108.296916
 30
0.0
 10
72.548911
 20
108.578835
 30
0.0
 10
72.637359
 20
108.435722
 30
0.0
  0
SPLINE
  5
5d5
100
AcDbEntity
  8
0
 62
7
100
AcDbSpline
 70
8
 71
3
 72
8
 73
4
 74
0
 40
0
 40
0
 40
0
 40
0
 40
1
 40
1
 40
1
 40
1
 10
72.637359
 20
108.435722
 30
0.0
 10
72.840784
 20
108.106575
 30
0.0
 10
74.921086
 20
106.762277
 30
0.0
 10
75.245185
 20
106.750538
 30
0.0
  0
SPLINE
  5
5d6
100
AcDbEntity
  8
0
 62
7
100
AcDbSpline
 70
8
 71
3
 72
8
 73
4
 74
0
 40
0
 40
0
 40
0
 40
0
 40
1
 40
1
 40
1
 40
1
 10
75.245185
 20
106.750538
 30
0.0
 10
75.378577
 20
106.745696
 30
0.0
 10
75.535107
 20
106.599588
 30
0.0
 10
75.593027
 20
106.425831
 30
0.0
  0
SPLINE
  5
5d7
100
AcDbEntity
  8
0
 62
7
100
AcDbSpline
 70
8
 71
3
 72
8
 73
4
 74
0
 40
0
 40
0
 40
0
 40
0
 40
1
 40
1
 40
1
 40
1
 10
75.593027
 20
106.425831
 30
0.0
 10
75.654278
 20
106.242078
 30
0.0
 10
75.253085
 20
105.990014
 30
0.0
 10
74.634058
 20
105.823329
 30
0.0
  0
SPLINE
  5
5d8
100
AcDbEntity
  8
0
 62
7
100
AcDbSpline
 70
8
 71
3
 72
8
 73
4
 74
0
 40
0
 40
0
 40
0
 40
0
 40
1
 40
1
 40
1
 40
1
 10
74.634058
 20
105.823329
 30
0.0
 10
74.048707
 20
105.665709
 30
0.0
 10
73.489984
 20
105.407629
 30
0.0
 10
73.392451
 20
105.249816
 30
0.0
  0
SPLINE
  5
5d9
100
AcDbEntity
  8
0
 62
7
100
AcDbSpline
 70
8
 71
3
 72
8
 73
4
 74
0
 40
0
 40
0
 40
0
 40
0
 40
1
 40
1
 40
1
 40
1
 10
73.392451
 20
105.249816
 30
0.0
 10
73.294915
 20
105.092003
 30
0.0
 10
72.545747
 20
104.668119
 30
0.0
 10
71.727632
 20
104.307849
 30
0.0
  0
SPLINE
  5
5da
100
AcDbEntity
  8
0
 62
7
100
AcDbSpline
 70
8
 71
3
 72
8
 73
4
 74
0
 40
0
 40
0
 40
0
 40
0
 40
1
 40
1
 40
1
 40
1
 10
71.727632
 20
104.307849
 30
0.0
 10
70.909516
 20
103.947579
 30
0.0
 10
70.011602
 20
103.454856
 30
0.0
 10
69.732263
 20
103.212908
 30
0.0
  0
SPLINE
  5
5db
100
AcDbEntity
  8
0
 62
7
100
AcDbSpline
 70
8
 71
3
 72
8
 73
4
 74
0
 40
0
 40
0
 40
0
 40
0
 40
1
 40
1
 40
1
 40
1
 10
69.732263
 20
103.212908
 30
0.0
 10
69.253926
 20
102.798597
 30
0.0
 10
69.235032
 20
102.802097
 30
0.0
 10
69.407461
 20
103.273109
 30
0.0
  0
LWPOLYLINE
  5
5dc
100
AcDbEntity
  8
0
 62
7
100
AcDbPolyline
 90
1
 70
1
 10
71.959941
 20
102.679545
 30
0.0
  0
SPLINE
  5
5dd
100
AcDbEntity
  8
0
 62
7
100
AcDbSpline
 70
8
 71
3
 72
8
 73
4
 74
0
 40
0
 40
0
 40
0
 40
0
 40
1
 40
1
 40
1
 40
1
 10
64.022441
 20
109.971319
 30
0.0
 10
65.049744
 20
110.346855
 30
0.0
 10
66.115224
 20
111.901129
 30
0.0
 10
65.345358
 20
111.901129
 30
0.0
  0
SPLINE
  5
5de
100
AcDbEntity
  8
0
 62
7
100
AcDbSpline
 70
8
 71
3
 72
8
 73
4
 74
0
 40
0
 40
0
 40
0
 40
0
 40
1
 40
1
 40
1
 40
1
 10
65.345358
 20
111.901129
 30
0.0
 10
65.199837
 20
111.901129
 30
0.0
 10
65.080774
 20
111.737114
 30
0.0
 10
65.080774
 20
111.536649
 30
0.0
  0
SPLINE
  5
5df
100
AcDbEntity
  8
0
 62
7
100
AcDbSpline
 70
8
 71
3
 72
8
 73
4
 74
0
 40
0
 40
0
 40
0
 40
0
 40
1
 40
1
 40
1
 40
1
 10
65.080774
 20
111.536649
 30
0.0
 10
65.080774
 20
110.911375
 30
0.0
 10
64.346180
 20
110.464325
 30
0.0
 10
63.911506
 20
110.825071
 30
0.0
  0
SPLINE
  5
5e0
100
AcDbEntity
  8
0
 62
7
100
AcDbSpline
 70
8
 71
3
 72
8
 73
4
 74
0
 40
0
 40
0
 40
0
 40
0
 40
1
 40
1
 40
1
 40
1
 10
63.911506
 20
110.825071
 30
0.0
 10
63.614879
 20
111.071250
 30
0.0
 10
63.477608
 20
111.036367
 30
0.0
 10
63.258094
 20
110.659029
 30
0.0
  0
SPLINE
  5
5e1
100
AcDbEntity
  8
0
 62
7
100
AcDbSpline
 70
8
 71
3
 72
8
 73
4
 74
0
 40
0
 40
0
 40
0
 40
0
 40
1
 40
1
 40
1
 40
1
 10
63.258094
 20
110.659029
 30
0.0
 10
63.034661
 20
110.274957
 30
0.0
 10
62.978623
 20
110.261712
 30
0.0
 10
62.972154
 20
110.591441
 30
0.0
  0
SPLINE
  5
5e2
100
AcDbEntity
  8
0
 62
7
100
AcDbSpline
 70
8
 71
3
 72
8
 73
4
 74
0
 40
0
 40
0
 40
0
 40
0
 40
1
 40
1
 40
1
 40
1
 10
62.972154
 20
110.591441
 30
0.0
 10
62.967735
 20
110.816999
 30
0.0
 10
63.053405
 20
111.117174
 30
0.0
 10
63.162545
 20
111.258498
 30
0.0
  0
SPLINE
  5
5e3
100
AcDbEntity
  8
0
 62
7
100
AcDbSpline
 70
8
 71
3
 72
8
 73
4
 74
0
 40
0
 40
0
 40
0
 40
0
 40
1
 40
1
 40
1
 40
1
 10
63.162545
 20
111.258498
 30
0.0
 10
63.271686
 20
111.399820
 30
0.0
 10
63.149633
 20
111.287703
 30
0.0
 10
62.891347
 20
111.009348
 30
0.0
  0
SPLINE
  5
5e4
100
AcDbEntity
  8
0
 62
7
100
AcDbSpline
 70
8
 71
3
 72
8
 73
4
 74
0
 40
0
 40
0
 40
0
 40
0
 40
1
 40
1
 40
1
 40
1
 10
62.891347
 20
111.009348
 30
0.0
 10
62.633045
 20
110.730993
 30
0.0
 10
62.353232
 20
110.571724
 30
0.0
 10
62.269539
 20
110.655420
 30
0.0
  0
SPLINE
  5
5e5
100
AcDbEntity
  8
0
 62
7
100
AcDbSpline
 70
8
 71
3
 72
8
 73
4
 74
0
 40
0
 40
0
 40
0
 40
0
 40
1
 40
1
 40
1
 40
1
 10
62.269539
 20
110.655420
 30
0.0
 10
62.028022
 20
110.896934
 30
0.0
 10
62.424725
 20
111.373417
 30
0.0
 10
63.323705
 20
111.921584
 30
0.0
  0
SPLINE
  5
5e6
100
AcDbEntity
  8
0
 62
7
100
AcDbSpline
 70
8
 71
3
 72
8
 73
4
 74
0
 40
0
 40
0
 40
0
 40
0
 40
1
 40
1
 40
1
 40
1
 10
63.323705
 20
111.921584
 30
0.0
 10
64.252356
 20
112.487845
 30
0.0
 10
63.792587
 20
112.599343
 30
0.0
 10
62.453642
 20
112.132586
 30
0.0
  0
SPLINE
  5
5e7
100
AcDbEntity
  8
0
 62
7
100
AcDbSpline
 70
8
 71
3
 72
8
 73
4
 74
0
 40
0
 40
0
 40
0
 40
0
 40
1
 40
1
 40
1
 40
1
 10
62.453642
 20
112.132586
 30
0.0
 10
61.983935
 20
111.968844
 30
0.0
 10
61.497467
 20
111.581890
 30
0.0
 10
61.372599
 20
111.272690
 30
0.0
  0
LWPOLYLINE
  5
5e8
100
AcDbEntity
  8
0
 62
7
100
AcDbPolyline
 90
1
 70
1
 10
69.407461
 20
103.273109
 30
0.0
  0
SPLINE
  5
5e9
100
AcDbEntity
  8
0
 62
7
100
AcDbSpline
 70
8
 71
3
 72
8
 73
4
 74
0
 40
0
 40
0
 40
0
 40
0
 40
1
 40
1
 40
1
 40
1
 10
61.128791
 20
111.282297
 30
0.0
 10
61.101475
 20
112.213792
 30
0.0
 10
62.537454
 20
113.224045
 30
0.0
 10
63.888811
 20
113.224045
 30
0.0
  0
SPLINE
  5
5ea
100
AcDbEntity
  8
0
 62
7
100
AcDbSpline
 70
8
 71
3
 72
8
 73
4
 74
0
 40
0
 40
0
 40
0
 40
0
 40
1
 40
1
 40
1
 40
1
 10
63.888811
 20
113.224045
 30
0.0
 10
65.412427
 20
113.224045
 30
0.0
 10
65.819250
 20
113.040073
 30
0.0
 10
66.284306
 20
112.140757
 30
0.0
  0
SPLINE
  5
5eb
100
AcDbEntity
  8
0
 62
7
100
AcDbSpline
 70
8
 71
3
 72
8
 73
4
 74
0
 40
0
 40
0
 40
0
 40
0
 40
1
 40
1
 40
1
 40
1
 10
66.284306
 20
112.140757
 30
0.0
 10
66.583711
 20
111.561766
 30
0.0
 10
66.594387
 20
111.416923
 30
0.0
 10
66.330182
 20
111.518308
 30
0.0
  0
SPLINE
  5
5ec
100
AcDbEntity
  8
0
 62
7
100
AcDbSpline
 70
8
 71
3
 72
8
 73
4
 74
0
 40
0
 40
0
 40
0
 40
0
 40
1
 40
1
 40
1
 40
1
 10
66.330182
 20
111.518308
 30
0.0
 10
66.117211
 20
111.600033
 30
0.0
 10
65.857146
 20
111.294513
 30
0.0
 10
65.648480
 20
110.717452
 30
0.0
  0
SPLINE
  5
5ed
100
AcDbEntity
  8
0
 62
7
100
AcDbSpline
 70
8
 71
3
 72
8
 73
4
 74
0
 40
0
 40
0
 40
0
 40
0
 40
1
 40
1
 40
1
 40
1
 10
65.648480
 20
110.717452
 30
0.0
 10
65.355589
 20
109.907475
 30
0.0
 10
65.199988
 20
109.787216
 30
0.0
 10
64.468335
 20
109.805351
 30
0.0
  0
SPLINE
  5
5ee
100
AcDbEntity
  8
0
 62
7
100
AcDbSpline
 70
8
 71
3
 72
8
 73
4
 74
0
 40
0
 40
0
 40
0
 40
0
 40
1
 40
1
 40
1
 40
1
 10
64.468335
 20
109.805351
 30
0.0
 10
64.004812
 20
109.816834
 30
0.0
 10
63.804160
 20
109.891523
 30
0.0
 10
64.022441
 20
109.971319
 30
0.0
  0
LWPOLYLINE
  5
5ef
100
AcDbEntity
  8
0
 62
7
100
AcDbPolyline
 90
3
 70
0
 10
61.372599
 20
111.272690
 30
0.0
 10
61.145566
 20
110.710504
 30
0.0
 10
61.128791
 20
111.282297
 30
0.0
  0
SPLINE
  5
5f0
100
AcDbEntity
  8
0
 62
7
100
AcDbSpline
 70
8
 71
3
 72
8
 73
4
 74
0
 40
0
 40
0
 40
0
 40
0
 40
1
 40
1
 40
1
 40
1
 10
70.241443
 20
114.015700
 30
0.0
 10
70.152220
 20
114.160067
 30
0.0
 10
70.201105
 20
114.487489
 30
0.0
 10
70.350076
 20
114.743304
 30
0.0
  0
SPLINE
  5
5f1
100
AcDbEntity
  8
0
 62
7
100
AcDbSpline
 70
8
 71
3
 72
8
 73
4
 74
0
 40
0
 40
0
 40
0
 40
0
 40
1
 40
1
 40
1
 40
1
 10
70.350076
 20
114.743304
 30
0.0
 10
70.582420
 20
115.142283
 30
0.0
 10
70.622078
 20
115.104958
 30
0.0
 10
70.628978
 20
114.480816
 30
0.0
  0
SPLINE
  5
5f2
100
AcDbEntity
  8
0
 62
7
100
AcDbSpline
 70
8
 71
3
 72
8
 73
4
 74
0
 40
0
 40
0
 40
0
 40
0
 40
1
 40
1
 40
1
 40
1
 10
70.628978
 20
114.480816
 30
0.0
 10
70.637392
 20
113.719943
 30
0.0
 10
70.515009
 20
113.573063
 30
0.0
 10
70.241443
 20
114.015700
 30
0.0
  0
LWPOLYLINE
  5
5f3
100
AcDbEntity
  8
0
 62
7
100
AcDbPolyline
 90
1
 70
1
 10
64.022441
 20
109.971319
 30
0.0
  0
SPLINE
  5
5f4
100
AcDbEntity
  8
0
 62
7
100
AcDbSpline
 70
8
 71
3
 72
8
 73
4
 74
0
 40
0
 40
0
 40
0
 40
0
 40
1
 40
1
 40
1
 40
1
 10
71.854198
 20
114.131021
 30
0.0
 10
72.305362
 20
114.327424
 30
0.0
 10
72.751847
 20
114.689689
 30
0.0
 10
72.846385
 20
114.936056
 30
0.0
  0
SPLINE
  5
5f5
100
AcDbEntity
  8
0
 62
7
100
AcDbSpline
 70
8
 71
3
 72
8
 73
4
 74
0
 40
0
 40
0
 40
0
 40
0
 40
1
 40
1
 40
1
 40
1
 10
72.846385
 20
114.936056
 30
0.0
 10
73.075078
 20
115.532022
 30
0.0
 10
73.064931
 20
115.605295
 30
0.0
 10
72.753691
 20
115.605295
 30
0.0
  0
SPLINE
  5
5f6
100
AcDbEntity
  8
0
 62
7
100
AcDbSpline
 70
8
 71
3
 72
8
 73
4
 74
0
 40
0
 40
0
 40
0
 40
0
 40
1
 40
1
 40
1
 40
1
 10
72.753691
 20
115.605295
 30
0.0
 10
72.608170
 20
115.605295
 30
0.0
 10
72.489108
 20
115.430890
 30
0.0
 10
72.489108
 20
115.217728
 30
0.0
  0
SPLINE
  5
5f7
100
AcDbEntity
  8
0
 62
7
100
AcDbSpline
 70
8
 71
3
 72
8
 73
4
 74
0
 40
0
 40
0
 40
0
 40
0
 40
1
 40
1
 40
1
 40
1
 10
72.489108
 20
115.217728
 30
0.0
 10
72.489108
 20
115.004567
 30
0.0
 10
72.265969
 20
114.710742
 30
0.0
 10
71.993244
 20
114.564784
 30
0.0
  0
SPLINE
  5
5f8
100
AcDbEntity
  8
0
 62
7
100
AcDbSpline
 70
8
 71
3
 72
8
 73
4
 74
0
 40
0
 40
0
 40
0
 40
0
 40
1
 40
1
 40
1
 40
1
 10
71.993244
 20
114.564784
 30
0.0
 10
71.610651
 20
114.360029
 30
0.0
 10
71.388875
 20
114.419303
 30
0.0
 10
71.022387
 20
114.824267
 30
0.0
  0
SPLINE
  5
5f9
100
AcDbEntity
  8
0
 62
7
100
AcDbSpline
 70
8
 71
3
 72
8
 73
4
 74
0
 40
0
 40
0
 40
0
 40
0
 40
1
 40
1
 40
1
 40
1
 10
71.022387
 20
114.824267
 30
0.0
 10
70.564809
 20
115.329885
 30
0.0
 10
70.566013
 20
115.363215
 30
0.0
 10
71.055230
 20
115.733380
 30
0.0
  0
SPLINE
  5
5fa
100
AcDbEntity
  8
0
 62
7
100
AcDbSpline
 70
8
 71
3
 72
8
 73
4
 74
0
 40
0
 40
0
 40
0
 40
0
 40
1
 40
1
 40
1
 40
1
 10
71.055230
 20
115.733380
 30
0.0
 10
71.334540
 20
115.944719
 30
0.0
 10
71.422869
 20
116.121418
 30
0.0
 10
71.251514
 20
116.126048
 30
0.0
  0
SPLINE
  5
5fb
100
AcDbEntity
  8
0
 62
7
100
AcDbSpline
 70
8
 71
3
 72
8
 73
4
 74
0
 40
0
 40
0
 40
0
 40
0
 40
1
 40
1
 40
1
 40
1
 10
71.251514
 20
116.126048
 30
0.0
 10
71.080159
 20
116.130679
 30
0.0
 10
70.634995
 20
115.747509
 30
0.0
 10
70.262261
 20
115.274566
 30
0.0
  0
SPLINE
  5
5fc
100
AcDbEntity
  8
0
 62
7
100
AcDbSpline
 70
8
 71
3
 72
8
 73
4
 74
0
 40
0
 40
0
 40
0
 40
0
 40
1
 40
1
 40
1
 40
1
 10
70.262261
 20
115.274566
 30
0.0
 10
69.889523
 20
114.801624
 30
0.0
 10
69.583239
 20
114.572658
 30
0.0
 10
69.581625
 20
114.765751
 30
0.0
  0
SPLINE
  5
5fd
100
AcDbEntity
  8
0
 62
7
100
AcDbSpline
 70
8
 71
3
 72
8
 73
4
 74
0
 40
0
 40
0
 40
0
 40
0
 40
1
 40
1
 40
1
 40
1
 10
69.581625
 20
114.765751
 30
0.0
 10
69.580038
 20
114.958847
 30
0.0
 10
69.926719
 20
115.464863
 30
0.0
 10
70.352089
 20
115.890230
 30
0.0
  0
SPLINE
  5
5fe
100
AcDbEntity
  8
0
 62
7
100
AcDbSpline
 70
8
 71
3
 72
8
 73
4
 74
0
 40
0
 40
0
 40
0
 40
0
 40
1
 40
1
 40
1
 40
1
 10
70.352089
 20
115.890230
 30
0.0
 10
71.001393
 20
116.539537
 30
0.0
 10
71.338511
 20
116.663629
 30
0.0
 10
72.453140
 20
116.663629
 30
0.0
  0
SPLINE
  5
5ff
100
AcDbEntity
  8
0
 62
7
100
AcDbSpline
 70
8
 71
3
 72
8
 73
4
 74
0
 40
0
 40
0
 40
0
 40
0
 40
1
 40
1
 40
1
 40
1
 10
72.453140
 20
116.663629
 30
0.0
 10
73.183350
 20
116.663629
 30
0.0
 10
73.849095
 20
116.553118
 30
0.0
 10
73.932574
 20
116.418045
 30
0.0
  0
SPLINE
  5
600
100
AcDbEntity
  8
0
 62
7
100
AcDbSpline
 70
8
 71
3
 72
8
 73
4
 74
0
 40
0
 40
0
 40
0
 40
0
 40
1
 40
1
 40
1
 40
1
 10
73.932574
 20
116.418045
 30
0.0
 10
74.016050
 20
116.282975
 30
0.0
 10
73.716986
 20
115.628132
 30
0.0
 10
73.267985
 20
114.962837
 30
0.0
  0
SPLINE
  5
601
100
AcDbEntity
  8
0
 62
7
100
AcDbSpline
 70
8
 71
3
 72
8
 73
4
 74
0
 40
0
 40
0
 40
0
 40
0
 40
1
 40
1
 40
1
 40
1
 10
73.267985
 20
114.962837
 30
0.0
 10
72.632570
 20
114.021333
 30
0.0
 10
72.294493
 20
113.755509
 30
0.0
 10
71.742758
 20
113.763568
 30
0.0
  0
LWPOLYLINE
  5
602
100
AcDbEntity
  8
0
 62
7
100
AcDbPolyline
 90
1
 70
1
 10
70.241443
 20
114.015700
 30
0.0
  0
SPLINE
  5
603
100
AcDbEntity
  8
0
 62
7
100
AcDbSpline
 70
8
 71
3
 72
8
 73
4
 74
0
 40
0
 40
0
 40
0
 40
0
 40
1
 40
1
 40
1
 40
1
 10
67.462024
 20
115.263597
 30
0.0
 10
67.462024
 20
115.512226
 30
0.0
 10
68.053786
 20
116.280070
 30
0.0
 10
68.777051
 20
116.969921
 30
0.0
  0
SPLINE
  5
604
100
AcDbEntity
  8
0
 62
7
100
AcDbSpline
 70
8
 71
3
 72
8
 73
4
 74
0
 40
0
 40
0
 40
0
 40
0
 40
1
 40
1
 40
1
 40
1
 10
68.777051
 20
116.969921
 30
0.0
 10
70.192093
 20
118.319582
 30
0.0
 10
71.286920
 20
118.700862
 30
0.0
 10
72.885983
 20
118.400878
 30
0.0
  0
SPLINE
  5
605
100
AcDbEntity
  8
0
 62
7
100
AcDbSpline
 70
8
 71
3
 72
8
 73
4
 74
0
 40
0
 40
0
 40
0
 40
0
 40
1
 40
1
 40
1
 40
1
 10
72.885983
 20
118.400878
 30
0.0
 10
74.070744
 20
118.178614
 30
0.0
 10
74.099378
 20
117.794672
 30
0.0
 10
72.920931
 20
117.932250
 30
0.0
  0
SPLINE
  5
606
100
AcDbEntity
  8
0
 62
7
100
AcDbSpline
 70
8
 71
3
 72
8
 73
4
 74
0
 40
0
 40
0
 40
0
 40
0
 40
1
 40
1
 40
1
 40
1
 10
72.920931
 20
117.932250
 30
0.0
 10
71.790184
 20
118.064259
 30
0.0
 10
70.731475
 20
117.516066
 30
0.0
 10
69.198514
 20
116.004806
 30
0.0
  0
SPLINE
  5
607
100
AcDbEntity
  8
0
 62
7
100
AcDbSpline
 70
8
 71
3
 72
8
 73
4
 74
0
 40
0
 40
0
 40
0
 40
0
 40
1
 40
1
 40
1
 40
1
 10
69.198514
 20
116.004806
 30
0.0
 10
67.904749
 20
114.729358
 30
0.0
 10
67.462024
 20
114.540382
 30
0.0
 10
67.462024
 20
115.263597
 30
0.0
  0
LWPOLYLINE
  5
608
100
AcDbEntity
  8
0
 62
7
100
AcDbPolyline
 90
4
 70
0
 10
71.742758
 20
113.763568
 30
0.0
 10
71.033899
 20
113.773913
 30
0.0
 10
71.854198
 20
114.131011
 30
0.0
 10
71.854198
 20
114.131021
 30
0.0
  0
SPLINE
  5
609
100
AcDbEntity
  8
0
 62
7
100
AcDbSpline
 70
8
 71
3
 72
8
 73
4
 74
0
 40
0
 40
0
 40
0
 40
0
 40
1
 40
1
 40
1
 40
1
 10
90.328470
 20
99.664150
 30
0.0
 10
88.575949
 20
102.874908
 30
0.0
 10
88.007142
 20
103.811713
 30
0.0
 10
86.950592
 20
105.227414
 30
0.0
  0
SPLINE
  5
60a
100
AcDbEntity
  8
0
 62
7
100
AcDbSpline
 70
8
 71
3
 72
8
 73
4
 74
0
 40
0
 40
0
 40
0
 40
0
 40
1
 40
1
 40
1
 40
1
 10
86.950592
 20
105.227414
 30
0.0
 10
86.377547
 20
105.995256
 30
0.0
 10
85.859824
 20
106.574624
 30
0.0
 10
85.800099
 20
106.514897
 30
0.0
  0
SPLINE
  5
60b
100
AcDbEntity
  8
0
 62
7
100
AcDbSpline
 70
8
 71
3
 72
8
 73
4
 74
0
 40
0
 40
0
 40
0
 40
0
 40
1
 40
1
 40
1
 40
1
 10
85.800099
 20
106.514897
 30
0.0
 10
85.564329
 20
106.279127
 30
0.0
 10
88.858990
 20
100.409396
 30
0.0
 10
89.915635
 20
99.182708
 30
0.0
  0
SPLINE
  5
60c
100
AcDbEntity
  8
0
 62
7
100
AcDbSpline
 70
8
 71
3
 72
8
 73
4
 74
0
 40
0
 40
0
 40
0
 40
0
 40
1
 40
1
 40
1
 40
1
 10
89.915635
 20
99.182708
 30
0.0
 10
90.533651
 20
98.465235
 30
0.0
 10
91.098695
 20
97.878212
 30
0.0
 10
91.171292
 20
97.878212
 30
0.0
  0
SPLINE
  5
60d
100
AcDbEntity
  8
0
 62
7
100
AcDbSpline
 70
8
 71
3
 72
8
 73
4
 74
0
 40
0
 40
0
 40
0
 40
0
 40
1
 40
1
 40
1
 40
1
 10
91.171292
 20
97.878212
 30
0.0
 10
91.243888
 20
97.878212
 30
0.0
 10
90.864619
 20
98.681884
 30
0.0
 10
90.328470
 20
99.664150
 30
0.0
  0
LWPOLYLINE
  5
60e
100
AcDbEntity
  8
0
 62
7
100
AcDbPolyline
 90
1
 70
1
 10
67.462024
 20
115.263597
 30
0.0
  0
SPLINE
  5
60f
100
AcDbEntity
  8
0
 62
7
100
AcDbSpline
 70
8
 71
3
 72
8
 73
4
 74
0
 40
0
 40
0
 40
0
 40
0
 40
1
 40
1
 40
1
 40
1
 10
65.213066
 20
99.730295
 30
0.0
 10
65.123129
 20
99.875816
 30
0.0
 10
64.877976
 20
99.994879
 30
0.0
 10
64.668284
 20
99.994879
 30
0.0
  0
SPLINE
  5
610
100
AcDbEntity
  8
0
 62
7
100
AcDbSpline
 70
8
 71
3
 72
8
 73
4
 74
0
 40
0
 40
0
 40
0
 40
0
 40
1
 40
1
 40
1
 40
1
 10
64.668284
 20
99.994879
 30
0.0
 10
64.151917
 20
99.994879
 30
0.0
 10
64.188972
 20
100.484416
 30
0.0
 10
64.795371
 20
101.673835
 30
0.0
  0
SPLINE
  5
611
100
AcDbEntity
  8
0
 62
7
100
AcDbSpline
 70
8
 71
3
 72
8
 73
4
 74
0
 40
0
 40
0
 40
0
 40
0
 40
1
 40
1
 40
1
 40
1
 10
64.795371
 20
101.673835
 30
0.0
 10
65.074964
 20
102.222236
 30
0.0
 10
65.176945
 20
102.628671
 30
0.0
 10
65.021997
 20
102.577022
 30
0.0
  0
SPLINE
  5
612
100
AcDbEntity
  8
0
 62
7
100
AcDbSpline
 70
8
 71
3
 72
8
 73
4
 74
0
 40
0
 40
0
 40
0
 40
0
 40
1
 40
1
 40
1
 40
1
 10
65.021997
 20
102.577022
 30
0.0
 10
64.599410
 20
102.436160
 30
0.0
 10
63.422832
 20
100.058328
 30
0.0
 10
63.618811
 20
99.741225
 30
0.0
  0
SPLINE
  5
613
100
AcDbEntity
  8
0
 62
7
100
AcDbSpline
 70
8
 71
3
 72
8
 73
4
 74
0
 40
0
 40
0
 40
0
 40
0
 40
1
 40
1
 40
1
 40
1
 10
63.618811
 20
99.741225
 30
0.0
 10
63.712463
 20
99.589693
 30
0.0
 10
64.146274
 20
99.465712
 30
0.0
 10
64.582836
 20
99.465712
 30
0.0
  0
SPLINE
  5
614
100
AcDbEntity
  8
0
 62
7
100
AcDbSpline
 70
8
 71
3
 72
8
 73
4
 74
0
 40
0
 40
0
 40
0
 40
0
 40
1
 40
1
 40
1
 40
1
 10
64.582836
 20
99.465712
 30
0.0
 10
65.044630
 20
99.465712
 30
0.0
 10
65.308200
 20
99.576363
 30
0.0
 10
65.213066
 20
99.730295
 30
0.0
  0
LWPOLYLINE
  5
615
100
AcDbEntity
  8
0
 62
7
100
AcDbPolyline
 90
1
 70
1
 10
90.328470
 20
99.664150
 30
0.0
  0
SPLINE
  5
616
100
AcDbEntity
  8
0
 62
7
100
AcDbSpline
 70
8
 71
3
 72
8
 73
4
 74
0
 40
0
 40
0
 40
0
 40
0
 40
1
 40
1
 40
1
 40
1
 10
66.394383
 20
101.035818
 30
0.0
 10
66.744628
 20
101.690257
 30
0.0
 10
66.739283
 20
101.846962
 30
0.0
 10
66.366713
 20
101.846962
 30
0.0
  0
SPLINE
  5
617
100
AcDbEntity
  8
0
 62
7
100
AcDbSpline
 70
8
 71
3
 72
8
 73
4
 74
0
 40
0
 40
0
 40
0
 40
0
 40
1
 40
1
 40
1
 40
1
 10
66.366713
 20
101.846962
 30
0.0
 10
66.058857
 20
101.846962
 30
0.0
 10
65.368980
 20
101.081120
 30
0.0
 10
65.353771
 20
100.722483
 30
0.0
  0
SPLINE
  5
618
100
AcDbEntity
  8
0
 62
7
100
AcDbSpline
 70
8
 71
3
 72
8
 73
4
 74
0
 40
0
 40
0
 40
0
 40
0
 40
1
 40
1
 40
1
 40
1
 10
65.353771
 20
100.722483
 30
0.0
 10
65.336150
 20
100.307169
 30
0.0
 10
66.132797
 20
100.547040
 30
0.0
 10
66.394383
 20
101.035818
 30
0.0
  0
LWPOLYLINE
  5
619
100
AcDbEntity
  8
0
 62
7
100
AcDbPolyline
 90
1
 70
1
 10
65.213066
 20
99.730295
 30
0.0
  0
SPLINE
  5
61a
100
AcDbEntity
  8
0
 62
7
100
AcDbSpline
 70
8
 71
3
 72
8
 73
4
 74
0
 40
0
 40
0
 40
0
 40
0
 40
1
 40
1
 40
1
 40
1
 10
55.493314
 20
116.903902
 30
0.0
 10
56.986278
 20
117.790397
 30
0.0
 10
58.259557
 20
118.515712
 30
0.0
 10
58.322819
 20
118.515712
 30
0.0
  0
SPLINE
  5
61b
100
AcDbEntity
  8
0
 62
7
100
AcDbSpline
 70
8
 71
3
 72
8
 73
4
 74
0
 40
0
 40
0
 40
0
 40
0
 40
1
 40
1
 40
1
 40
1
 10
58.322819
 20
118.515712
 30
0.0
 10
58.386080
 20
118.515712
 30
0.0
 10
59.128829
 20
118.917498
 30
0.0
 10
59.973369
 20
119.408567
 30
0.0
  0
SPLINE
  5
61c
100
AcDbEntity
  8
0
 62
7
100
AcDbSpline
 70
8
 71
3
 72
8
 73
4
 74
0
 40
0
 40
0
 40
0
 40
0
 40
1
 40
1
 40
1
 40
1
 10
59.973369
 20
119.408567
 30
0.0
 10
61.310322
 20
120.185955
 30
0.0
 10
64.019438
 20
121.503652
 30
0.0
 10
77.053170
 20
127.716063
 30
0.0
  0
SPLINE
  5
61d
100
AcDbEntity
  8
0
 62
7
100
AcDbSpline
 70
8
 71
3
 72
8
 73
4
 74
0
 40
0
 40
0
 40
0
 40
0
 40
1
 40
1
 40
1
 40
1
 10
77.053170
 20
127.716063
 30
0.0
 10
79.829644
 20
129.039444
 30
0.0
 10
80.462832
 20
129.809210
 30
0.0
 10
78.565616
 20
129.554740
 30
0.0
  0
SPLINE
  5
61e
100
AcDbEntity
  8
0
 62
7
100
AcDbSpline
 70
8
 71
3
 72
8
 73
4
 74
0
 40
0
 40
0
 40
0
 40
0
 40
1
 40
1
 40
1
 40
1
 10
78.565616
 20
129.554740
 30
0.0
 10
77.917582
 20
129.467820
 30
0.0
 10
75.397347
 20
128.287496
 30
0.0
 10
72.149470
 20
126.549806
 30
0.0
  0
SPLINE
  5
61f
100
AcDbEntity
  8
0
 62
7
100
AcDbSpline
 70
8
 71
3
 72
8
 73
4
 74
0
 40
0
 40
0
 40
0
 40
0
 40
1
 40
1
 40
1
 40
1
 10
72.149470
 20
126.549806
 30
0.0
 10
69.207573
 20
124.975824
 30
0.0
 10
66.086191
 20
123.327922
 30
0.0
 10
65.213066
 20
122.887804
 30
0.0
  0
SPLINE
  5
620
100
AcDbEntity
  8
0
 62
7
100
AcDbSpline
 70
8
 71
3
 72
8
 73
4
 74
0
 40
0
 40
0
 40
0
 40
0
 40
1
 40
1
 40
1
 40
1
 10
65.213066
 20
122.887804
 30
0.0
 10
64.339941
 20
122.447685
 30
0.0
 10
63.566035
 20
122.028056
 30
0.0
 10
63.493274
 20
121.955295
 30
0.0
  0
SPLINE
  5
621
100
AcDbEntity
  8
0
 62
7
100
AcDbSpline
 70
8
 71
3
 72
8
 73
4
 74
0
 40
0
 40
0
 40
0
 40
0
 40
1
 40
1
 40
1
 40
1
 10
63.493274
 20
121.955295
 30
0.0
 10
63.325076
 20
121.787097
 30
0.0
 10
60.606101
 20
120.358400
 30
0.0
 10
56.224715
 20
118.135998
 30
0.0
  0
SPLINE
  5
622
100
AcDbEntity
  8
0
 62
7
100
AcDbSpline
 70
8
 71
3
 72
8
 73
4
 74
0
 40
0
 40
0
 40
0
 40
0
 40
1
 40
1
 40
1
 40
1
 10
56.224715
 20
118.135998
 30
0.0
 10
52.409471
 20
116.200767
 30
0.0
 10
51.959232
 20
115.866786
 30
0.0
 10
52.226535
 20
115.170207
 30
0.0
  0
SPLINE
  5
623
100
AcDbEntity
  8
0
 62
7
100
AcDbSpline
 70
8
 71
3
 72
8
 73
4
 74
0
 40
0
 40
0
 40
0
 40
0
 40
1
 40
1
 40
1
 40
1
 10
52.226535
 20
115.170207
 30
0.0
 10
52.347074
 20
114.856091
 30
0.0
 10
52.472119
 20
114.795824
 30
0.0
 10
52.594036
 20
114.993089
 30
0.0
  0
SPLINE
  5
624
100
AcDbEntity
  8
0
 62
7
100
AcDbSpline
 70
8
 71
3
 72
8
 73
4
 74
0
 40
0
 40
0
 40
0
 40
0
 40
1
 40
1
 40
1
 40
1
 10
52.594036
 20
114.993089
 30
0.0
 10
52.695673
 20
115.157541
 30
0.0
 10
54.000347
 20
116.017408
 30
0.0
 10
55.493314
 20
116.903902
 30
0.0
  0
LWPOLYLINE
  5
625
100
AcDbEntity
  8
0
 62
7
100
AcDbPolyline
 90
1
 70
1
 10
66.394383
 20
101.035818
 30
0.0
  0
SPLINE
  5
626
100
AcDbEntity
  8
0
 62
7
100
AcDbSpline
 70
8
 71
3
 72
8
 73
4
 74
0
 40
0
 40
0
 40
0
 40
0
 40
1
 40
1
 40
1
 40
1
 10
60.765851
 20
121.166401
 30
0.0
 10
63.357339
 20
122.478758
 30
0.0
 10
66.311087
 20
124.069583
 30
0.0
 10
67.329733
 20
124.701568
 30
0.0
  0
SPLINE
  5
627
100
AcDbEntity
  8
0
 62
7
100
AcDbSpline
 70
8
 71
3
 72
8
 73
4
 74
0
 40
0
 40
0
 40
0
 40
0
 40
1
 40
1
 40
1
 40
1
 10
67.329733
 20
124.701568
 30
0.0
 10
68.348378
 20
125.333553
 30
0.0
 10
70.402207
 20
126.528697
 30
0.0
 10
71.893795
 20
127.357443
 30
0.0
  0
SPLINE
  5
628
100
AcDbEntity
  8
0
 62
7
100
AcDbSpline
 70
8
 71
3
 72
8
 73
4
 74
0
 40
0
 40
0
 40
0
 40
0
 40
1
 40
1
 40
1
 40
1
 10
71.893795
 20
127.357443
 30
0.0
 10
74.530805
 20
128.822599
 30
0.0
 10
74.833393
 20
129.124364
 30
0.0
 10
74.380833
 20
129.837714
 30
0.0
  0
SPLINE
  5
629
100
AcDbEntity
  8
0
 62
7
100
AcDbSpline
 70
8
 71
3
 72
8
 73
4
 74
0
 40
0
 40
0
 40
0
 40
0
 40
1
 40
1
 40
1
 40
1
 10
74.380833
 20
129.837714
 30
0.0
 10
74.095761
 20
130.287058
 30
0.0
 10
70.258297
 20
128.915213
 30
0.0
 10
66.401995
 20
126.985380
 30
0.0
  0
SPLINE
  5
62a
100
AcDbEntity
  8
0
 62
7
100
AcDbSpline
 70
8
 71
3
 72
8
 73
4
 74
0
 40
0
 40
0
 40
0
 40
0
 40
1
 40
1
 40
1
 40
1
 10
66.401995
 20
126.985380
 30
0.0
 10
63.784570
 20
125.675526
 30
0.0
 10
58.883973
 20
122.443470
 30
0.0
 10
56.438236
 20
120.414055
 30
0.0
  0
SPLINE
  5
62b
100
AcDbEntity
  8
0
 62
7
100
AcDbSpline
 70
8
 71
3
 72
8
 73
4
 74
0
 40
0
 40
0
 40
0
 40
0
 40
1
 40
1
 40
1
 40
1
 10
56.438236
 20
120.414055
 30
0.0
 10
55.464207
 20
119.605827
 30
0.0
 10
55.158494
 20
118.780295
 30
0.0
 10
55.833222
 20
118.780295
 30
0.0
  0
SPLINE
  5
62c
100
AcDbEntity
  8
0
 62
7
100
AcDbSpline
 70
8
 71
3
 72
8
 73
4
 74
0
 40
0
 40
0
 40
0
 40
0
 40
1
 40
1
 40
1
 40
1
 10
55.833222
 20
118.780295
 30
0.0
 10
55.954679
 20
118.780295
 30
0.0
 10
58.174363
 20
119.854043
 30
0.0
 10
60.765851
 20
121.166401
 30
0.0
  0
LWPOLYLINE
  5
62d
100
AcDbEntity
  8
0
 62
7
100
AcDbPolyline
 90
1
 70
1
 10
55.493314
 20
116.903902
 30
0.0
  0
SPLINE
  5
62e
100
AcDbEntity
  8
0
 62
7
100
AcDbSpline
 70
8
 71
3
 72
8
 73
4
 74
0
 40
0
 40
0
 40
0
 40
0
 40
1
 40
1
 40
1
 40
1
 10
57.055935
 20
129.756046
 30
0.0
 10
58.600001
 20
130.469448
 30
0.0
 10
59.520431
 20
131.147479
 30
0.0
 10
61.130529
 20
132.757576
 30
0.0
  0
SPLINE
  5
62f
100
AcDbEntity
  8
0
 62
7
100
AcDbSpline
 70
8
 71
3
 72
8
 73
4
 74
0
 40
0
 40
0
 40
0
 40
0
 40
1
 40
1
 40
1
 40
1
 10
61.130529
 20
132.757576
 30
0.0
 10
62.274500
 20
133.901547
 30
0.0
 10
63.333638
 20
135.161461
 30
0.0
 10
63.484167
 20
135.557384
 30
0.0
  0
SPLINE
  5
630
100
AcDbEntity
  8
0
 62
7
100
AcDbSpline
 70
8
 71
3
 72
8
 73
4
 74
0
 40
0
 40
0
 40
0
 40
0
 40
1
 40
1
 40
1
 40
1
 10
63.484167
 20
135.557384
 30
0.0
 10
64.242072
 20
137.550826
 30
0.0
 10
63.438826
 20
138.780316
 30
0.0
 10
61.686951
 20
138.308291
 30
0.0
  0
SPLINE
  5
631
100
AcDbEntity
  8
0
 62
7
100
AcDbSpline
 70
8
 71
3
 72
8
 73
4
 74
0
 40
0
 40
0
 40
0
 40
0
 40
1
 40
1
 40
1
 40
1
 10
61.686951
 20
138.308291
 30
0.0
 10
58.973678
 20
137.577229
 30
0.0
 10
54.492054
 20
134.555380
 30
0.0
 10
53.160943
 20
132.559413
 30
0.0
  0
SPLINE
  5
632
100
AcDbEntity
  8
0
 62
7
100
AcDbSpline
 70
8
 71
3
 72
8
 73
4
 74
0
 40
0
 40
0
 40
0
 40
0
 40
1
 40
1
 40
1
 40
1
 10
53.160943
 20
132.559413
 30
0.0
 10
52.412000
 20
131.436397
 30
0.0
 10
52.080417
 20
129.487597
 30
0.0
 10
52.557164
 20
129.010851
 30
0.0
  0
SPLINE
  5
633
100
AcDbEntity
  8
0
 62
7
100
AcDbSpline
 70
8
 71
3
 72
8
 73
4
 74
0
 40
0
 40
0
 40
0
 40
0
 40
1
 40
1
 40
1
 40
1
 10
52.557164
 20
129.010851
 30
0.0
 10
53.036610
 20
128.531405
 30
0.0
 10
55.170332
 20
128.884843
 30
0.0
 10
57.055935
 20
129.756046
 30
0.0
  0
LWPOLYLINE
  5
634
100
AcDbEntity
  8
0
 62
7
100
AcDbPolyline
 90
1
 70
1
 10
60.765851
 20
121.166401
 30
0.0
  0
SPLINE
  5
635
100
AcDbEntity
  8
0
 62
7
100
AcDbSpline
 70
8
 71
3
 72
8
 73
4
 74
0
 40
0
 40
0
 40
0
 40
0
 40
1
 40
1
 40
1
 40
1
 10
20.295290
 20
27.499045
 30
0.0
 10
19.984341
 20
27.862207
 30
0.0
 10
19.514785
 20
28.028212
 30
0.0
 10
18.798505
 20
28.028212
 30
0.0
  0
SPLINE
  5
636
100
AcDbEntity
  8
0
 62
7
100
AcDbSpline
 70
8
 71
3
 72
8
 73
4
 74
0
 40
0
 40
0
 40
0
 40
0
 40
1
 40
1
 40
1
 40
1
 10
18.798505
 20
28.028212
 30
0.0
 10
17.559381
 20
28.028212
 30
0.0
 10
16.594779
 20
28.360039
 30
0.0
 10
15.944984
 20
29.009835
 30
0.0
  0
SPLINE
  5
637
100
AcDbEntity
  8
0
 62
7
100
AcDbSpline
 70
8
 71
3
 72
8
 73
4
 74
0
 40
0
 40
0
 40
0
 40
0
 40
1
 40
1
 40
1
 40
1
 10
15.944984
 20
29.009835
 30
0.0
 10
15.573038
 20
29.381781
 30
0.0
 10
15.490977
 20
29.812147
 30
0.0
 10
15.562629
 20
31.015112
 30
0.0
  0
SPLINE
  5
638
100
AcDbEntity
  8
0
 62
7
100
AcDbSpline
 70
8
 71
3
 72
8
 73
4
 74
0
 40
0
 40
0
 40
0
 40
0
 40
1
 40
1
 40
1
 40
1
 10
15.562629
 20
31.015112
 30
0.0
 10
15.699043
 20
33.305350
 30
0.0
 10
15.743575
 20
33.320855
 30
0.0
 10
22.379627
 20
33.388414
 30
0.0
  0
LWPOLYLINE
  5
639
100
AcDbEntity
  8
0
 62
7
100
AcDbPolyline
 90
1
 70
1
 10
57.055935
 20
129.756046
 30
0.0
  0
SPLINE
  5
63a
100
AcDbEntity
  8
0
 62
7
100
AcDbSpline
 70
8
 71
3
 72
8
 73
4
 74
0
 40
0
 40
0
 40
0
 40
0
 40
1
 40
1
 40
1
 40
1
 10
28.085643
 20
32.257802
 30
0.0
 10
28.183996
 20
31.605016
 30
0.0
 10
28.273293
 20
30.148186
 30
0.0
 10
28.284080
 20
29.020400
 30
0.0
  0
LWPOLYLINE
  5
63b
100
AcDbEntity
  8
0
 62
7
100
AcDbPolyline
 90
3
 70
0
 10
22.379627
 20
33.388414
 30
0.0
 10
27.906816
 20
33.444685
 30
0.0
 10
28.085643
 20
32.257802
 30
0.0
  0
SPLINE
  5
63c
100
AcDbEntity
  8
0
 62
7
100
AcDbSpline
 70
8
 71
3
 72
8
 73
4
 74
0
 40
0
 40
0
 40
0
 40
0
 40
1
 40
1
 40
1
 40
1
 10
24.526027
 20
26.969879
 30
0.0
 10
21.075789
 20
26.969879
 30
0.0
 10
20.709100
 20
27.015742
 30
0.0
 10
20.295284
 20
27.499045
 30
0.0
  0
LWPOLYLINE
  5
63d
100
AcDbEntity
  8
0
 62
7
100
AcDbPolyline
 90
3
 70
0
 10
28.284080
 20
29.020400
 30
0.0
 10
28.303686
 20
26.969879
 30
0.0
 10
24.526027
 20
26.969879
 30
0.0
  0
SPLINE
  5
63e
100
AcDbEntity
  8
0
 62
7
100
AcDbSpline
 70
8
 71
3
 72
8
 73
4
 74
0
 40
0
 40
0
 40
0
 40
0
 40
1
 40
1
 40
1
 40
1
 10
117.563217
 20
27.697234
 30
0.0
 10
112.320364
 20
27.754138
 30
0.0
 10
110.578297
 20
27.854725
 30
0.0
 10
110.364011
 20
28.112924
 30
0.0
  0
SPLINE
  5
63f
100
AcDbEntity
  8
0
 62
7
100
AcDbSpline
 70
8
 71
3
 72
8
 73
4
 74
0
 40
0
 40
0
 40
0
 40
0
 40
1
 40
1
 40
1
 40
1
 10
110.364011
 20
28.112924
 30
0.0
 10
110.024706
 20
28.521761
 30
0.0
 10
109.833804
 20
33.974781
 30
0.0
 10
110.147772
 20
34.289709
 30
0.0
  0
SPLINE
  5
640
100
AcDbEntity
  8
0
 62
7
100
AcDbSpline
 70
8
 71
3
 72
8
 73
4
 74
0
 40
0
 40
0
 40
0
 40
0
 40
1
 40
1
 40
1
 40
1
 10
110.147772
 20
34.289709
 30
0.0
 10
110.268837
 20
34.411145
 30
0.0
 10
113.977055
 20
34.545156
 30
0.0
 10
118.388254
 20
34.587511
 30
0.0
  0
LWPOLYLINE
  5
641
100
AcDbEntity
  8
0
 62
7
100
AcDbPolyline
 90
1
 70
1
 10
20.295284
 20
27.499045
 30
0.0
  0
SPLINE
  5
642
100
AcDbEntity
  8
0
 62
7
100
AcDbSpline
 70
8
 71
3
 72
8
 73
4
 74
0
 40
0
 40
0
 40
0
 40
0
 40
1
 40
1
 40
1
 40
1
 10
126.965527
 20
33.956517
 30
0.0
 10
127.404688
 20
33.398217
 30
0.0
 10
127.522129
 20
32.878443
 30
0.0
 10
127.520965
 20
31.498260
 30
0.0
  0
SPLINE
  5
643
100
AcDbEntity
  8
0
 62
7
100
AcDbSpline
 70
8
 71
3
 72
8
 73
4
 74
0
 40
0
 40
0
 40
0
 40
0
 40
1
 40
1
 40
1
 40
1
 10
127.520965
 20
31.498260
 30
0.0
 10
127.518239
 20
28.269684
 30
0.0
 10
126.993343
 20
27.401962
 30
0.0
 10
125.141191
 20
27.564218
 30
0.0
  0
SPLINE
  5
644
100
AcDbEntity
  8
0
 62
7
100
AcDbSpline
 70
8
 71
3
 72
8
 73
4
 74
0
 40
0
 40
0
 40
0
 40
0
 40
1
 40
1
 40
1
 40
1
 10
125.141191
 20
27.564218
 30
0.0
 10
124.777389
 20
27.596087
 30
0.0
 10
121.367301
 20
27.655946
 30
0.0
 10
117.563217
 20
27.697234
 30
0.0
  0
LWPOLYLINE
  5
645
100
AcDbEntity
  8
0
 62
7
100
AcDbPolyline
 90
3
 70
0
 10
118.388254
 20
34.587511
 30
0.0
 10
126.408614
 20
34.664518
 30
0.0
 10
126.965527
 20
33.956517
 30
0.0
  0
SPLINE
  5
646
100
AcDbEntity
  8
0
 62
7
100
AcDbSpline
 70
8
 71
3
 72
8
 73
4
 74
0
 40
0
 40
0
 40
0
 40
0
 40
1
 40
1
 40
1
 40
1
 10
115.814422
 20
78.759158
 30
0.0
 10
114.336150
 20
78.851916
 30
0.0
 10
114.278455
 20
78.884447
 30
0.0
 10
113.786552
 20
79.902569
 30
0.0
  0
SPLINE
  5
647
100
AcDbEntity
  8
0
 62
7
100
AcDbSpline
 70
8
 71
3
 72
8
 73
4
 74
0
 40
0
 40
0
 40
0
 40
0
 40
1
 40
1
 40
1
 40
1
 10
113.786552
 20
79.902569
 30
0.0
 10
113.319129
 20
80.870020
 30
0.0
 10
113.314065
 20
80.968207
 30
0.0
 10
113.720613
 20
81.180972
 30
0.0
  0
SPLINE
  5
648
100
AcDbEntity
  8
0
 62
7
100
AcDbSpline
 70
8
 71
3
 72
8
 73
4
 74
0
 40
0
 40
0
 40
0
 40
0
 40
1
 40
1
 40
1
 40
1
 10
113.720613
 20
81.180972
 30
0.0
 10
114.619479
 20
81.651390
 30
0.0
 10
115.980054
 20
81.784918
 30
0.0
 10
118.027667
 20
81.603662
 30
0.0
  0
LWPOLYLINE
  5
649
100
AcDbEntity
  8
0
 62
7
100
AcDbPolyline
 90
1
 70
1
 10
117.563217
 20
27.697234
 30
0.0
  0
SPLINE
  5
64a
100
AcDbEntity
  8
0
 62
7
100
AcDbSpline
 70
8
 71
3
 72
8
 73
4
 74
0
 40
0
 40
0
 40
0
 40
0
 40
1
 40
1
 40
1
 40
1
 10
120.660395
 20
80.382152
 30
0.0
 10
121.059366
 20
79.600107
 30
0.0
 10
121.105673
 20
79.321620
 30
0.0
 10
120.849752
 20
79.243407
 30
0.0
  0
SPLINE
  5
64b
100
AcDbEntity
  8
0
 62
7
100
AcDbSpline
 70
8
 71
3
 72
8
 73
4
 74
0
 40
0
 40
0
 40
0
 40
0
 40
1
 40
1
 40
1
 40
1
 10
120.849752
 20
79.243407
 30
0.0
 10
119.877382
 20
78.946227
 30
0.0
 10
117.984312
 20
78.569905
 30
0.0
 10
117.681841
 20
78.613656
 30
0.0
  0
SPLINE
  5
64c
100
AcDbEntity
  8
0
 62
7
100
AcDbSpline
 70
8
 71
3
 72
8
 73
4
 74
0
 40
0
 40
0
 40
0
 40
0
 40
1
 40
1
 40
1
 40
1
 10
117.681841
 20
78.613656
 30
0.0
 10
117.491618
 20
78.641173
 30
0.0
 10
116.651281
 20
78.706649
 30
0.0
 10
115.814422
 20
78.759158
 30
0.0
  0
LWPOLYLINE
  5
64d
100
AcDbEntity
  8
0
 62
7
100
AcDbPolyline
 90
3
 70
0
 10
118.027667
 20
81.603662
 30
0.0
 10
120.132271
 20
81.417361
 30
0.0
 10
120.660395
 20
80.382152
 30
0.0
  0
SPLINE
  5
64e
100
AcDbEntity
  8
0
 62
7
100
AcDbSpline
 70
8
 71
3
 72
8
 73
4
 74
0
 40
0
 40
0
 40
0
 40
0
 40
1
 40
1
 40
1
 40
1
 10
111.259726
 20
83.193837
 30
0.0
 10
110.531055
 20
83.910109
 30
0.0
 10
109.530774
 20
85.358113
 30
0.0
 10
109.530774
 20
85.696666
 30
0.0
  0
SPLINE
  5
64f
100
AcDbEntity
  8
0
 62
7
100
AcDbSpline
 70
8
 71
3
 72
8
 73
4
 74
0
 40
0
 40
0
 40
0
 40
0
 40
1
 40
1
 40
1
 40
1
 10
109.530774
 20
85.696666
 30
0.0
 10
109.530774
 20
86.003993
 30
0.0
 10
109.382113
 20
85.998539
 30
0.0
 10
117.071399
 20
85.973224
 30
0.0
  0
SPLINE
  5
650
100
AcDbEntity
  8
0
 62
7
100
AcDbSpline
 70
8
 71
3
 72
8
 73
4
 74
0
 40
0
 40
0
 40
0
 40
0
 40
1
 40
1
 40
1
 40
1
 10
117.071399
 20
85.973224
 30
0.0
 10
122.550476
 20
85.955180
 30
0.0
 10
122.636386
 20
85.946229
 30
0.0
 10
123.256688
 20
85.328395
 30
0.0
  0
LWPOLYLINE
  5
651
100
AcDbEntity
  8
0
 62
7
100
AcDbPolyline
 90
1
 70
1
 10
115.814422
 20
78.759158
 30
0.0
  0
SPLINE
  5
652
100
AcDbEntity
  8
0
 62
7
100
AcDbSpline
 70
8
 71
3
 72
8
 73
4
 74
0
 40
0
 40
0
 40
0
 40
0
 40
1
 40
1
 40
1
 40
1
 10
122.992105
 20
83.902397
 30
0.0
 10
121.853833
 20
82.884066
 30
0.0
 10
120.755206
 20
82.698368
 30
0.0
 10
115.757643
 20
82.679566
 30
0.0
  0
SPLINE
  5
653
100
AcDbEntity
  8
0
 62
7
100
AcDbSpline
 70
8
 71
3
 72
8
 73
4
 74
0
 40
0
 40
0
 40
0
 40
0
 40
1
 40
1
 40
1
 40
1
 10
115.757643
 20
82.679566
 30
0.0
 10
112.142550
 20
82.665967
 30
0.0
 10
111.751216
 20
82.710711
 30
0.0
 10
111.259726
 20
83.193837
 30
0.0
  0
LWPOLYLINE
  5
654
100
AcDbEntity
  8
0
 62
7
100
AcDbPolyline
 90
3
 70
0
 10
123.256688
 20
85.328395
 30
0.0
 10
123.885727
 20
84.701856
 30
0.0
 10
122.992105
 20
83.902397
 30
0.0
  0
LWPOLYLINE
  5
655
100
AcDbEntity
  8
0
 62
7
100
AcDbPolyline
 90
1
 70
1
 10
111.259726
 20
83.193837
 30
0.0
  0
SPLINE
  5
656
100
AcDbEntity
  8
0
 62
7
100
AcDbSpline
 70
8
 71
3
 72
8
 73
4
 74
0
 40
0
 40
0
 40
0
 40
0
 40
1
 40
1
 40
1
 40
1
 10
106.379465
 20
88.134402
 30
0.0
 10
106.220914
 20
88.589218
 30
0.0
 10
106.091191
 20
89.886615
 30
0.0
 10
106.091191
 20
91.017505
 30
0.0
  0
SPLINE
  5
657
100
AcDbEntity
  8
0
 62
7
100
AcDbSpline
 70
8
 71
3
 72
8
 73
4
 74
0
 40
0
 40
0
 40
0
 40
0
 40
1
 40
1
 40
1
 40
1
 10
106.091191
 20
91.017505
 30
0.0
 10
106.091191
 20
93.046603
 30
0.0
 10
106.100769
 20
93.075710
 30
0.0
 10
106.818795
 20
93.228766
 30
0.0
  0
SPLINE
  5
658
100
AcDbEntity
  8
0
 62
7
100
AcDbSpline
 70
8
 71
3
 72
8
 73
4
 74
0
 40
0
 40
0
 40
0
 40
0
 40
1
 40
1
 40
1
 40
1
 10
106.818795
 20
93.228766
 30
0.0
 10
107.218977
 20
93.314070
 30
0.0
 10
111.415433
 20
93.406770
 30
0.0
 10
116.144252
 20
93.434768
 30
0.0
  0
LWPOLYLINE
  5
659
100
AcDbEntity
  8
0
 62
7
100
AcDbPolyline
 90
3
 70
0
 10
111.075819
 20
87.235022
 30
0.0
 10
106.667739
 20
87.307460
 30
0.0
 10
106.379465
 20
88.134402
 30
0.0
  0
SPLINE
  5
65a
100
AcDbEntity
  8
0
 62
7
100
AcDbSpline
 70
8
 71
3
 72
8
 73
4
 74
0
 40
0
 40
0
 40
0
 40
0
 40
1
 40
1
 40
1
 40
1
 10
125.056815
 20
92.854428
 30
0.0
 10
125.269159
 20
92.428507
 30
0.0
 10
125.288008
 20
92.067123
 30
0.0
 10
125.114759
 20
91.743406
 30
0.0
  0
SPLINE
  5
65b
100
AcDbEntity
  8
0
 62
7
100
AcDbSpline
 70
8
 71
3
 72
8
 73
4
 74
0
 40
0
 40
0
 40
0
 40
0
 40
1
 40
1
 40
1
 40
1
 10
125.114759
 20
91.743406
 30
0.0
 10
124.946225
 20
91.428501
 30
0.0
 10
124.952109
 20
91.087763
 30
0.0
 10
125.131878
 20
90.751856
 30
0.0
  0
SPLINE
  5
65c
100
AcDbEntity
  8
0
 62
7
100
AcDbSpline
 70
8
 71
3
 72
8
 73
4
 74
0
 40
0
 40
0
 40
0
 40
0
 40
1
 40
1
 40
1
 40
1
 10
125.131878
 20
90.751856
 30
0.0
 10
125.282518
 20
90.470381
 30
0.0
 10
125.405769
 20
89.577413
 30
0.0
 10
125.405769
 20
88.767481
 30
0.0
  0
LWPOLYLINE
  5
65d
100
AcDbEntity
  8
0
 62
7
100
AcDbPolyline
 90
3
 70
0
 10
116.144252
 20
93.434768
 30
0.0
 10
124.742107
 20
93.485674
 30
0.0
 10
125.056815
 20
92.854428
 30
0.0
  0
SPLINE
  5
65e
100
AcDbEntity
  8
0
 62
7
100
AcDbSpline
 70
8
 71
3
 72
8
 73
4
 74
0
 40
0
 40
0
 40
0
 40
0
 40
1
 40
1
 40
1
 40
1
 10
123.752123
 20
87.283264
 30
0.0
 10
122.842618
 20
87.276887
 30
0.0
 10
120.610196
 20
87.247108
 30
0.0
 10
118.791186
 20
87.217118
 30
0.0
  0
SPLINE
  5
65f
100
AcDbEntity
  8
0
 62
7
100
AcDbSpline
 70
8
 71
3
 72
8
 73
4
 74
0
 40
0
 40
0
 40
0
 40
0
 40
1
 40
1
 40
1
 40
1
 10
118.791186
 20
87.217118
 30
0.0
 10
116.972175
 20
87.187125
 30
0.0
 10
113.500257
 20
87.195184
 30
0.0
 10
111.075814
 20
87.235030
 30
0.0
  0
LWPOLYLINE
  5
660
100
AcDbEntity
  8
0
 62
7
100
AcDbPolyline
 90
3
 70
0
 10
125.405769
 20
88.767481
 30
0.0
 10
125.405769
 20
87.294879
 30
0.0
 10
123.752123
 20
87.283264
 30
0.0
  0
SPLINE
  5
661
100
AcDbEntity
  8
0
 62
7
100
AcDbSpline
 70
8
 71
3
 72
8
 73
4
 74
0
 40
0
 40
0
 40
0
 40
0
 40
1
 40
1
 40
1
 40
1
 10
119.021421
 20
94.724030
 30
0.0
 10
118.885536
 20
94.808238
 30
0.0
 10
118.638667
 20
95.979218
 30
0.0
 10
118.472818
 20
97.326204
 30
0.0
  0
SPLINE
  5
662
100
AcDbEntity
  8
0
 62
7
100
AcDbSpline
 70
8
 71
3
 72
8
 73
4
 74
0
 40
0
 40
0
 40
0
 40
0
 40
1
 40
1
 40
1
 40
1
 10
118.472818
 20
97.326204
 30
0.0
 10
118.218725
 20
99.389917
 30
0.0
 10
118.230457
 20
99.813054
 30
0.0
 10
118.547380
 20
100.015392
 30
0.0
  0
SPLINE
  5
663
100
AcDbEntity
  8
0
 62
7
100
AcDbSpline
 70
8
 71
3
 72
8
 73
4
 74
0
 40
0
 40
0
 40
0
 40
0
 40
1
 40
1
 40
1
 40
1
 10
118.547380
 20
100.015392
 30
0.0
 10
118.757986
 20
100.149851
 30
0.0
 10
122.643336
 20
100.227273
 30
0.0
 10
127.377082
 20
100.191340
 30
0.0
  0
LWPOLYLINE
  5
664
100
AcDbEntity
  8
0
 62
7
100
AcDbPolyline
 90
1
 70
1
 10
111.075814
 20
87.235030
 30
0.0
  0
SPLINE
  5
665
100
AcDbEntity
  8
0
 62
7
100
AcDbSpline
 70
8
 71
3
 72
8
 73
4
 74
0
 40
0
 40
0
 40
0
 40
0
 40
1
 40
1
 40
1
 40
1
 10
135.855842
 20
98.730546
 30
0.0
 10
135.874601
 20
97.688411
 30
0.0
 10
135.793985
 20
97.367310
 30
0.0
 10
135.538181
 20
97.465470
 30
0.0
  0
SPLINE
  5
666
100
AcDbEntity
  8
0
 62
7
100
AcDbSpline
 70
8
 71
3
 72
8
 73
4
 74
0
 40
0
 40
0
 40
0
 40
0
 40
1
 40
1
 40
1
 40
1
 10
135.538181
 20
97.465470
 30
0.0
 10
135.110850
 20
97.629453
 30
0.0
 10
135.111514
 20
97.614354
 30
0.0
 10
135.581054
 20
96.490586
 30
0.0
  0
SPLINE
  5
667
100
AcDbEntity
  8
0
 62
7
100
AcDbSpline
 70
8
 71
3
 72
8
 73
4
 74
0
 40
0
 40
0
 40
0
 40
0
 40
1
 40
1
 40
1
 40
1
 10
135.581054
 20
96.490586
 30
0.0
 10
136.320937
 20
94.719796
 30
0.0
 10
136.353304
 20
94.727011
 30
0.0
 10
127.298074
 20
94.644281
 30
0.0
  0
SPLINE
  5
668
100
AcDbEntity
  8
0
 62
7
100
AcDbSpline
 70
8
 71
3
 72
8
 73
4
 74
0
 40
0
 40
0
 40
0
 40
0
 40
1
 40
1
 40
1
 40
1
 10
127.298074
 20
94.644281
 30
0.0
 10
122.881805
 20
94.603932
 30
0.0
 10
119.157313
 20
94.639810
 30
0.0
 10
119.021429
 20
94.724030
 30
0.0
  0
LWPOLYLINE
  5
669
100
AcDbEntity
  8
0
 62
7
100
AcDbPolyline
 90
3
 70
0
 10
127.377082
 20
100.191340
 30
0.0
 10
135.830680
 20
100.127170
 30
0.0
 10
135.855842
 20
98.730546
 30
0.0
  0
SPLINE
  5
66a
100
AcDbEntity
  8
0
 62
7
100
AcDbSpline
 70
8
 71
3
 72
8
 73
4
 74
0
 40
0
 40
0
 40
0
 40
0
 40
1
 40
1
 40
1
 40
1
 10
115.845966
 20
101.125819
 30
0.0
 10
115.641633
 20
101.330151
 30
0.0
 10
115.297982
 20
101.566602
 30
0.0
 10
115.082299
 20
101.651260
 30
0.0
  0
SPLINE
  5
66b
100
AcDbEntity
  8
0
 62
7
100
AcDbSpline
 70
8
 71
3
 72
8
 73
4
 74
0
 40
0
 40
0
 40
0
 40
0
 40
1
 40
1
 40
1
 40
1
 10
115.082299
 20
101.651260
 30
0.0
 10
114.763722
 20
101.776308
 30
0.0
 10
114.773234
 20
101.809105
 30
0.0
 10
115.132998
 20
101.826073
 30
0.0
  0
SPLINE
  5
66c
100
AcDbEntity
  8
0
 62
7
100
AcDbSpline
 70
8
 71
3
 72
8
 73
4
 74
0
 40
0
 40
0
 40
0
 40
0
 40
1
 40
1
 40
1
 40
1
 10
115.132998
 20
101.826073
 30
0.0
 10
115.502804
 20
101.843509
 30
0.0
 10
115.568264
 20
102.119718
 30
0.0
 10
115.529873
 20
103.500608
 30
0.0
  0
LWPOLYLINE
  5
66d
100
AcDbEntity
  8
0
 62
7
100
AcDbPolyline
 90
1
 70
1
 10
119.021429
 20
94.724030
 30
0.0
  0
SPLINE
  5
66e
100
AcDbEntity
  8
0
 62
7
100
AcDbSpline
 70
8
 71
3
 72
8
 73
4
 74
0
 40
0
 40
0
 40
0
 40
0
 40
1
 40
1
 40
1
 40
1
 10
124.612024
 20
104.518246
 30
0.0
 10
124.612024
 20
103.719056
 30
0.0
 10
123.603785
 20
102.640712
 30
0.0
 10
122.856551
 20
102.640712
 30
0.0
  0
SPLINE
  5
66f
100
AcDbEntity
  8
0
 62
7
100
AcDbSpline
 70
8
 71
3
 72
8
 73
4
 74
0
 40
0
 40
0
 40
0
 40
0
 40
1
 40
1
 40
1
 40
1
 10
122.856551
 20
102.640712
 30
0.0
 10
122.657894
 20
102.640712
 30
0.0
 10
122.495358
 20
102.545470
 30
0.0
 10
122.495358
 20
102.429067
 30
0.0
  0
SPLINE
  5
670
100
AcDbEntity
  8
0
 62
7
100
AcDbSpline
 70
8
 71
3
 72
8
 73
4
 74
0
 40
0
 40
0
 40
0
 40
0
 40
1
 40
1
 40
1
 40
1
 10
122.495358
 20
102.429067
 30
0.0
 10
122.495358
 20
102.312660
 30
0.0
 10
123.204983
 20
102.070847
 30
0.0
 10
124.072306
 20
101.891706
 30
0.0
  0
SPLINE
  5
671
100
AcDbEntity
  8
0
 62
7
100
AcDbSpline
 70
8
 71
3
 72
8
 73
4
 74
0
 40
0
 40
0
 40
0
 40
0
 40
1
 40
1
 40
1
 40
1
 10
124.072306
 20
101.891706
 30
0.0
 10
124.939629
 20
101.712564
 30
0.0
 10
125.702018
 20
101.480382
 30
0.0
 10
125.766502
 20
101.375747
 30
0.0
  0
SPLINE
  5
672
100
AcDbEntity
  8
0
 62
7
100
AcDbSpline
 70
8
 71
3
 72
8
 73
4
 74
0
 40
0
 40
0
 40
0
 40
0
 40
1
 40
1
 40
1
 40
1
 10
125.766502
 20
101.375747
 30
0.0
 10
125.830989
 20
101.271112
 30
0.0
 10
124.139095
 20
101.152952
 30
0.0
 10
122.006741
 20
101.113167
 30
0.0
  0
SPLINE
  5
673
100
AcDbEntity
  8
0
 62
7
100
AcDbSpline
 70
8
 71
3
 72
8
 73
4
 74
0
 40
0
 40
0
 40
0
 40
0
 40
1
 40
1
 40
1
 40
1
 10
122.006741
 20
101.113167
 30
0.0
 10
119.874387
 20
101.073381
 30
0.0
 10
117.699475
 20
100.976361
 30
0.0
 10
117.173608
 20
100.897566
 30
0.0
  0
SPLINE
  5
674
100
AcDbEntity
  8
0
 62
7
100
AcDbSpline
 70
8
 71
3
 72
8
 73
4
 74
0
 40
0
 40
0
 40
0
 40
0
 40
1
 40
1
 40
1
 40
1
 10
117.173608
 20
100.897566
 30
0.0
 10
116.541219
 20
100.802810
 30
0.0
 10
116.091690
 20
100.880103
 30
0.0
 10
115.845966
 20
101.125819
 30
0.0
  0
LWPOLYLINE
  5
675
100
AcDbEntity
  8
0
 62
7
100
AcDbPolyline
 90
5
 70
0
 10
115.529873
 20
103.500608
 30
0.0
 10
115.483899
 20
105.154254
 30
0.0
 10
120.047962
 20
105.226646
 30
0.0
 10
124.612024
 20
105.299042
 30
0.0
 10
124.612024
 20
104.518246
 30
0.0
  0
LWPOLYLINE
  5
676
100
AcDbEntity
  8
0
 62
7
100
AcDbPolyline
 90
1
 70
1
 10
115.845966
 20
101.125819
 30
0.0
  0
ENDSEC
  0
SECTION
  2
OBJECTS
  0
DICTIONARY
  5
C
330
0
100
AcDbDictionary
  3
ACAD_GROUP
350
D
  3
ACAD_MLINESTYLE
350
17
  0
DICTIONARY
  5
D
330
C
100
AcDbDictionary
  0
DICTIONARY
  5
1A
330
C
100
AcDbDictionary
  0
DICTIONARY
  5
17
330
C
100
AcDbDictionary
  3
STANDARD
350
18
  0
DICTIONARY
  5
19
330
C
100
AcDbDictionary
  0
ENDSEC
  0
EOF
