  0
SECTION
  2
HEADER
  9
$ACADVER
  1
AC1009
  9
$DWGCODEPAGE
  3
ansi_1252
  9
$INSBASE
 10
0.0
 20
0.0
 30
0.0
  9
$EXTMIN
 10
0.3150114924830803
 20
0.1479597538149644
 30
0.0
  9
$EXTMAX
 10
19.21043082428384
 20
12.72268598682697
 30
0.0
  9
$LIMMIN
 10
0.0
 20
0.0
  9
$LIMMAX
 10
12.0
 20
9.0
  9
$ORTHOMODE
 70
     0
  9
$REGENMODE
 70
     1
  9
$FILLMODE
 70
     1
  9
$QTEXTMODE
 70
     0
  9
$MIRRTEXT
 70
     1
  9
$DRAGMODE
 70
     2
  9
$LTSCALE
 40
1.0
  9
$OSMODE
 70
    37
  9
$ATTMODE
 70
     1
  9
$TEXTSIZE
 40
0.2
  9
$TRACEWID
 40
0.05
  9
$TEXTSTYLE
  7
STANDARD
  9
$CLAYER
  8
0
  9
$CELTYPE
  6
BYBLOCK
  9
$CECOLOR
 62
   256
  9
$DIMSCALE
 40
1.0
  9
$DIMASZ
 40
0.18
  9
$DIMEXO
 40
0.0625
  9
$DIMDLI
 40
0.38
  9
$DIMRND
 40
0.0
  9
$DIMDLE
 40
0.0
  9
$DIMEXE
 40
0.18
  9
$DIMTP
 40
0.0
  9
$DIMTM
 40
0.0
  9
$DIMTXT
 40
0.18
  9
$DIMCEN
 40
0.09
  9
$DIMTSZ
 40
0.0
  9
$DIMTOL
 70
     0
  9
$DIMLIM
 70
     0
  9
$DIMTIH
 70
     1
  9
$DIMTOH
 70
     1
  9
$DIMSE1
 70
     0
  9
$DIMSE2
 70
     0
  9
$DIMTAD
 70
     0
  9
$DIMZIN
 70
     0
  9
$DIMBLK
  1

  9
$DIMASO
 70
     1
  9
$DIMSHO
 70
     1
  9
$DIMPOST
  1

  9
$DIMAPOST
  1

  9
$DIMALT
 70
     0
  9
$DIMALTD
 70
     2
  9
$DIMALTF
 40
25.4
  9
$DIMLFAC
 40
1.0
  9
$DIMTOFL
 70
     0
  9
$DIMTVP
 40
0.0
  9
$DIMTIX
 70
     0
  9
$DIMSOXD
 70
     0
  9
$DIMSAH
 70
     0
  9
$DIMBLK1
  1

  9
$DIMBLK2
  1

  9
$DIMSTYLE
  2
STANDARD
  9
$DIMCLRD
 70
     0
  9
$DIMCLRE
 70
     0
  9
$DIMCLRT
 70
     0
  9
$DIMTFAC
 40
1.0
  9
$DIMGAP
 40
0.09
  9
$LUNITS
 70
     2
  9
$LUPREC
 70
     4
  9
$SKETCHINC
 40
0.1
  9
$FILLETRAD
 40
0.5
  9
$AUNITS
 70
     0
  9
$AUPREC
 70
     0
  9
$MENU
  1
.
  9
$ELEVATION
 40
0.0
  9
$PELEVATION
 40
0.0
  9
$THICKNESS
 40
0.0
  9
$LIMCHECK
 70
     0
  9
$CHAMFERA
 40
0.5
  9
$CHAMFERB
 40
0.5
  9
$SKPOLY
 70
     0
  9
$TDCREATE
 40
2453353.508792488
  9
$TDUPDATE
 40
4909617.846965926
  9
$TDINDWG
 40
4895786.051922963
  9
$TDUSRTIMER
 40
4895786.051922963
  9
$USRTIMER
 70
     1
  9
$ANGBASE
 50
0.0
  9
$ANGDIR
 70
     0
  9
$PDMODE
 70
     0
  9
$PDSIZE
 40
0.0
  9
$PLINEWID
 40
0.0
  9
$COORDS
 70
     1
  9
$SPLFRAME
 70
     0
  9
$SPLINETYPE
 70
     6
  9
$SPLINESEGS
 70
     8
  9
$ATTDIA
 70
     0
  9
$ATTREQ
 70
     1
  9
$HANDLING
 70
     1
  9
$HANDSEED
  5
55D
  9
$SURFTAB1
 70
     6
  9
$SURFTAB2
 70
     6
  9
$SURFTYPE
 70
     6
  9
$SURFU
 70
     6
  9
$SURFV
 70
     6
  9
$UCSNAME
  2

  9
$UCSORG
 10
0.0
 20
0.0
 30
0.0
  9
$UCSXDIR
 10
1.0
 20
0.0
 30
0.0
  9
$UCSYDIR
 10
0.0
 20
1.0
 30
0.0
  9
$PUCSNAME
  2

  9
$PUCSORG
 10
0.0
 20
0.0
 30
0.0
  9
$PUCSXDIR
 10
1.0
 20
0.0
 30
0.0
  9
$PUCSYDIR
 10
0.0
 20
1.0
 30
0.0
  9
$USERI1
 70
     0
  9
$USERI2
 70
     0
  9
$USERI3
 70
     0
  9
$USERI4
 70
     0
  9
$USERI5
 70
     0
  9
$USERR1
 40
0.0
  9
$USERR2
 40
0.0
  9
$USERR3
 40
0.0
  9
$USERR4
 40
0.0
  9
$USERR5
 40
0.0
  9
$WORLDVIEW
 70
     1
  9
$SHADEDGE
 70
     3
  9
$SHADEDIF
 70
    70
  9
$TILEMODE
 70
     1
  9
$MAXACTVP
 70
    64
  9
$PLIMCHECK
 70
     0
  9
$PEXTMIN
 10
0.0
 20
0.0
 30
0.0
  9
$PEXTMAX
 10
0.0
 20
0.0
 30
0.0
  9
$PLIMMIN
 10
0.0
 20
0.0
  9
$PLIMMAX
 10
0.0
 20
0.0
  9
$UNITMODE
 70
     0
  9
$VISRETAIN
 70
     1
  9
$PLINEGEN
 70
     0
  9
$PSLTSCALE
 70
     1
  0
ENDSEC
  0
SECTION
  2
TABLES
  0
TABLE
  2
VPORT
 70
     1
  0
VPORT
  2
*ACTIVE
 70
     0
 10
0.0
 20
0.0
 11
1.0
 21
1.0
 12
10.45928962823239
 22
6.545807198688102
 13
0.0
 23
0.0
 14
0.5
 24
0.5
 15
0.5
 25
0.5
 16
0.0
 26
0.0
 36
1.0
 17
0.0
 27
0.0
 37
0.0
 40
13.65708648820601
 41
1.972972972850329
 42
50.0
 43
0.0
 44
0.0
 50
0.0
 51
0.0
 71
    16
 72
   100
 73
     1
 74
     3
 75
     0
 76
     0
 77
     0
 78
     0
  0
ENDTAB
  0
TABLE
  2
LTYPE
 70
     1
  0
LTYPE
  2
CONTINUOUS
 70
     0
  3
Solid line
 72
    65
 73
     0
 40
0.0
  0
ENDTAB
  0
TABLE
  2
LAYER
 70
     2
  0
LAYER
  2
0
 70
     0
 62
     7
  6
CONTINUOUS
  0
LAYER
  2
LAYER_1
 70
     0
 62
     7
  6
CONTINUOUS
  0
ENDTAB
  0
TABLE
  2
STYLE
 70
     1
  0
STYLE
  2
STANDARD
 70
     0
 40
0.0
 41
1.0
 50
0.0
 71
     0
 42
0.2
  3
txt
  4

  0
ENDTAB
  0
TABLE
  2
VIEW
 70
     0
  0
ENDTAB
  0
TABLE
  2
UCS
 70
     0
  0
ENDTAB
  0
TABLE
  2
APPID
 70
     1
  0
APPID
  2
ACAD
 70
     0
  0
ENDTAB
  0
TABLE
  2
DIMSTYLE
 70
     1
  0
DIMSTYLE
  2
STANDARD
 70
     0
  3

  4

  5

  6

  7

 40
1.0
 41
0.18
 42
0.0625
 43
0.38
 44
0.18
 45
0.0
 46
0.0
 47
0.0
 48
0.0
140
0.18
141
0.09
142
0.0
143
25.4
144
1.0
145
0.0
146
1.0
147
0.09
 71
     0
 72
     0
 73
     1
 74
     1
 75
     0
 76
     0
 77
     0
 78
     0
170
     0
171
     2
172
     0
173
     0
174
     0
175
     0
176
     0
177
     0
178
     0
  0
ENDTAB
  0
ENDSEC
  0
SECTION
  2
BLOCKS
  0
BLOCK
  8
0
  2
$MODEL_SPACE
 70
     0
 10
0.0
 20
0.0
 30
0.0
  3
$MODEL_SPACE
  1

  0
ENDBLK
  5
21
  8
0
  0
BLOCK
 67
     1
  8
0
  2
$PAPER_SPACE
 70
     0
 10
0.0
 20
0.0
 30
0.0
  3
$PAPER_SPACE
  1

  0
ENDBLK
  5
76
 67
     1
  8
0
  0
ENDSEC
  0
SECTION
  2
ENTITIES
  0
LINE
  5
259
  8
LAYER_1
 62
     3
 10
11.70755228285123
 20
0.1479597538149644
 30
0.0
 11
11.82631314175228
 21
0.2103118508794459
 31
0.0
  0
LINE
  5
25A
  8
LAYER_1
 62
     3
 10
11.82631314175228
 20
0.2103118508794459
 30
0.0
 11
11.88148387578021
 21
0.23653394154592
 31
0.0
  0
LINE
  5
25B
  8
LAYER_1
 62
     3
 10
11.88148387578021
 20
0.23653394154592
 30
0.0
 11
11.93887938458219
 21
0.2457833100590445
 31
0.0
  0
LINE
  5
25C
  8
LAYER_1
 62
     3
 10
11.93887938458219
 20
0.2457833100590445
 30
0.0
 11
11.99170187671325
 21
0.2379709908614727
 31
0.0
  0
LINE
  5
25D
  8
LAYER_1
 62
     3
 10
11.99170187671325
 20
0.2379709908614727
 30
0.0
 11
12.03212419056799
 21
0.2215145527756179
 31
0.0
  0
LINE
  5
25E
  8
LAYER_1
 62
     3
 10
12.03212419056799
 20
0.2215145527756179
 30
0.0
 11
12.0594997938401
 21
0.2283584535936435
 31
0.0
  0
LINE
  5
25F
  8
LAYER_1
 62
     3
 10
12.0594997938401
 20
0.2283584535936435
 30
0.0
 11
12.07181881531254
 21
0.2475213758841154
 31
0.0
  0
LINE
  5
260
  8
LAYER_1
 62
     3
 10
12.07181881531254
 20
0.2475213758841154
 30
0.0
 11
12.05480339494046
 21
0.2951123419667709
 31
0.0
  0
LINE
  5
261
  8
LAYER_1
 62
     3
 10
12.05480339494046
 20
0.2951123419667709
 30
0.0
 11
12.01569882860473
 21
0.3474423278272903
 31
0.0
  0
LINE
  5
262
  8
LAYER_1
 62
     3
 10
12.01569882860473
 20
0.3474423278272903
 30
0.0
 11
11.97737298402379
 21
0.3891901228172469
 31
0.0
  0
LINE
  5
263
  8
LAYER_1
 62
     3
 10
11.97737298402379
 20
0.3891901228172469
 30
0.0
 11
11.94013214307758
 21
0.4132108649535491
 31
0.0
  0
LINE
  5
264
  8
LAYER_1
 62
     3
 10
11.94013214307758
 20
0.4132108649535491
 30
0.0
 11
11.8273091864332
 21
0.4909878955462572
 31
0.0
  0
LINE
  5
265
  8
LAYER_1
 62
     3
 10
11.8273091864332
 20
0.4909878955462572
 30
0.0
 11
11.70733761693009
 21
0.5820281321437815
 31
0.0
  0
LINE
  5
266
  8
LAYER_1
 62
     3
 10
11.70733761693009
 20
0.5820281321437815
 30
0.0
 11
11.56192932380642
 21
0.6559210734414478
 31
0.0
  0
LINE
  5
267
  8
LAYER_1
 62
     3
 10
11.56192932380642
 20
0.6559210734414478
 30
0.0
 11
11.40749647649328
 21
0.7058884199441842
 31
0.0
  0
LINE
  5
268
  8
LAYER_1
 62
     3
 10
11.40749647649328
 20
0.7058884199441842
 30
0.0
 11
11.26045123891704
 21
0.7251513721872183
 31
0.0
  0
LINE
  5
269
  8
LAYER_1
 62
     3
 10
11.26045123891704
 20
0.7251513721872183
 30
0.0
 11
11.11692851196503
 21
0.7343681347270739
 31
0.0
  0
LINE
  5
26A
  8
LAYER_1
 62
     3
 10
11.11692851196503
 20
0.7343681347270739
 30
0.0
 11
10.99516052954331
 21
0.7587379082066974
 31
0.0
  0
LINE
  5
26B
  8
LAYER_1
 62
     3
 10
10.99516052954331
 20
0.7587379082066974
 30
0.0
 11
10.89289439519847
 21
0.7989092350456382
 31
0.0
  0
LINE
  5
26C
  8
LAYER_1
 62
     3
 10
10.89289439519847
 20
0.7989092350456382
 30
0.0
 11
10.80787761025087
 21
0.8555304532717969
 31
0.0
  0
LINE
  5
26D
  8
LAYER_1
 62
     3
 10
10.80787761025087
 20
0.8555304532717969
 30
0.0
 11
10.673311740564
 21
0.9401862476219485
 31
0.0
  0
LINE
  5
26E
  8
LAYER_1
 62
     3
 10
10.673311740564
 20
0.9401862476219485
 30
0.0
 11
10.59936027044478
 21
1.040231742377042
 31
0.0
  0
LINE
  5
26F
  8
LAYER_1
 62
     3
 10
10.59936027044478
 20
1.040231742377042
 30
0.0
 11
10.43893854082644
 21
1.29535002975598
 31
0.0
  0
LINE
  5
270
  8
LAYER_1
 62
     3
 10
10.43893854082644
 20
1.29535002975598
 30
0.0
 11
10.37845822240512
 21
1.395107021530518
 31
0.0
  0
LINE
  5
271
  8
LAYER_1
 62
     3
 10
10.37845822240512
 20
1.395107021530518
 30
0.0
 11
10.29919481153966
 21
1.626770266747244
 31
0.0
  0
LINE
  5
272
  8
LAYER_1
 62
     3
 10
10.29919481153966
 20
1.626770266747244
 30
0.0
 11
10.20243486255168
 21
1.97359673150344
 31
0.0
  0
LINE
  5
273
  8
LAYER_1
 62
     3
 10
10.20243486255168
 20
1.97359673150344
 30
0.0
 11
10.12499749461813
 21
2.294459815489699
 31
0.0
  0
LINE
  5
274
  8
LAYER_1
 62
     3
 10
10.12499749461813
 20
2.294459815489699
 30
0.0
 11
10.10370217424293
 21
2.448232821628903
 31
0.0
  0
LINE
  5
275
  8
LAYER_1
 62
     3
 10
10.10370217424293
 20
2.448232821628903
 30
0.0
 11
10.11415295188927
 21
2.49630977668626
 31
0.0
  0
LINE
  5
276
  8
LAYER_1
 62
     3
 10
10.11415295188927
 20
2.49630977668626
 30
0.0
 11
10.11052455856191
 21
2.576899380345552
 31
0.0
  0
LINE
  5
277
  8
LAYER_1
 62
     3
 10
10.11052455856191
 20
2.576899380345552
 30
0.0
 11
10.108698185583
 21
2.665214910874397
 31
0.0
  0
LINE
  5
278
  8
LAYER_1
 62
     3
 10
10.108698185583
 20
2.665214910874397
 30
0.0
 11
10.12348156108544
 21
2.731866740188858
 31
0.0
  0
LINE
  5
279
  8
LAYER_1
 62
     3
 10
10.12348156108544
 20
2.731866740188858
 30
0.0
 11
10.14391829787824
 21
2.804978728100497
 31
0.0
  0
LINE
  5
27A
  8
LAYER_1
 62
     3
 10
10.14391829787824
 20
2.804978728100497
 30
0.0
 11
10.16351976173823
 21
2.890913353117574
 31
0.0
  0
LINE
  5
27B
  8
LAYER_1
 62
     3
 10
10.16351976173823
 20
2.890913353117574
 30
0.0
 11
10.23961160925633
 21
3.022855709554705
 31
0.0
  0
LINE
  5
27C
  8
LAYER_1
 62
     3
 10
10.23961160925633
 20
3.022855709554705
 30
0.0
 11
10.35293119833304
 21
3.172199614513321
 31
0.0
  0
LINE
  5
27D
  8
LAYER_1
 62
     3
 10
10.35293119833304
 20
3.172199614513321
 30
0.0
 11
10.48421576072522
 21
3.310338949030648
 31
0.0
  0
LINE
  5
27E
  8
LAYER_1
 62
     3
 10
10.48421576072522
 20
3.310338949030648
 30
0.0
 11
10.59717083621504
 21
3.435442273647094
 31
0.0
  0
LINE
  5
27F
  8
LAYER_1
 62
     3
 10
10.59717083621504
 20
3.435442273647094
 30
0.0
 11
10.69041906781122
 21
3.572346456503563
 31
0.0
  0
LINE
  5
280
  8
LAYER_1
 62
     3
 10
10.69041906781122
 20
3.572346456503563
 30
0.0
 11
10.79049250726983
 21
3.724481016008181
 31
0.0
  0
LINE
  5
281
  8
LAYER_1
 62
     3
 10
10.79049250726983
 20
3.724481016008181
 30
0.0
 11
10.89909059598521
 21
3.8616100576414
 31
0.0
  0
LINE
  5
282
  8
LAYER_1
 62
     3
 10
10.89909059598521
 20
3.8616100576414
 30
0.0
 11
11.01336868821448
 21
4.001556240524607
 31
0.0
  0
LINE
  5
283
  8
LAYER_1
 62
     3
 10
11.01336868821448
 20
4.001556240524607
 30
0.0
 11
11.09265567065671
 21
4.100428644123301
 31
0.0
  0
LINE
  5
284
  8
LAYER_1
 62
     3
 10
11.09265567065671
 20
4.100428644123301
 30
0.0
 11
11.20959640930667
 21
4.290797524609857
 31
0.0
  0
LINE
  5
285
  8
LAYER_1
 62
     3
 10
11.20959640930667
 20
4.290797524609857
 30
0.0
 11
11.29404331030585
 21
4.475257661729518
 31
0.0
  0
LINE
  5
286
  8
LAYER_1
 62
     3
 10
11.29404331030585
 20
4.475257661729518
 30
0.0
 11
11.33552598672318
 21
4.605054489735853
 31
0.0
  0
LINE
  5
287
  8
LAYER_1
 62
     3
 10
11.33552598672318
 20
4.605054489735853
 30
0.0
 11
11.34118882088092
 21
4.624880162646548
 31
0.0
  0
LINE
  5
288
  8
LAYER_1
 62
     3
 10
11.34118882088092
 20
4.624880162646548
 30
0.0
 11
11.36536723142689
 21
4.64026828793817
 31
0.0
  0
LINE
  5
289
  8
LAYER_1
 62
     3
 10
11.36536723142689
 20
4.64026828793817
 30
0.0
 11
11.39249945724198
 21
4.661972669605671
 31
0.0
  0
LINE
  5
28A
  8
LAYER_1
 62
     3
 10
11.39249945724198
 20
4.661972669605671
 30
0.0
 11
11.40526414949845
 21
4.696984263042811
 31
0.0
  0
LINE
  5
28B
  8
LAYER_1
 62
     3
 10
11.40526414949845
 20
4.696984263042811
 30
0.0
 11
11.41571755196887
 21
4.734465138556752
 31
0.0
  0
LINE
  5
28C
  8
LAYER_1
 62
     3
 10
11.41571755196887
 20
4.734465138556752
 30
0.0
 11
11.43663499617355
 21
4.74928456694229
 31
0.0
  0
LINE
  5
28D
  8
LAYER_1
 62
     3
 10
11.43663499617355
 20
4.74928456694229
 30
0.0
 11
11.46063437609233
 21
4.740457566982851
 31
0.0
  0
LINE
  5
28E
  8
LAYER_1
 62
     3
 10
11.46063437609233
 20
4.740457566982851
 30
0.0
 11
11.4803333973536
 21
4.706999411477096
 31
0.0
  0
LINE
  5
28F
  8
LAYER_1
 62
     3
 10
11.4803333973536
 20
4.706999411477096
 30
0.0
 11
11.48529994638268
 21
4.667512750470223
 31
0.0
  0
LINE
  5
290
  8
LAYER_1
 62
     3
 10
11.48529994638268
 20
4.667512750470223
 30
0.0
 11
11.47307679905032
 21
4.646412648577314
 31
0.0
  0
LINE
  5
291
  8
LAYER_1
 62
     3
 10
11.47307679905032
 20
4.646412648577314
 30
0.0
 11
11.46050685180555
 21
4.608648072608371
 31
0.0
  0
LINE
  5
292
  8
LAYER_1
 62
     3
 10
11.46050685180555
 20
4.608648072608371
 30
0.0
 11
11.46464030690322
 21
4.529095607960093
 31
0.0
  0
LINE
  5
293
  8
LAYER_1
 62
     3
 10
11.46464030690322
 20
4.529095607960093
 30
0.0
 11
11.46641298762832
 21
4.429814345244481
 31
0.0
  0
LINE
  5
294
  8
LAYER_1
 62
     3
 10
11.46641298762832
 20
4.429814345244481
 30
0.0
 11
11.44816725144897
 21
4.34461602744317
 31
0.0
  0
LINE
  5
295
  8
LAYER_1
 62
     3
 10
11.44816725144897
 20
4.34461602744317
 30
0.0
 11
11.42923109668321
 21
4.279188447870501
 31
0.0
  0
LINE
  5
296
  8
LAYER_1
 62
     3
 10
11.42923109668321
 20
4.279188447870501
 30
0.0
 11
11.42934364616723
 21
4.227441034908853
 31
0.0
  0
LINE
  5
297
  8
LAYER_1
 62
     3
 10
11.42934364616723
 20
4.227441034908853
 30
0.0
 11
11.42424931019616
 21
4.16302160896276
 31
0.0
  0
LINE
  5
298
  8
LAYER_1
 62
     3
 10
11.42424931019616
 20
4.16302160896276
 30
0.0
 11
11.39279412355185
 21
4.067127283407903
 31
0.0
  0
LINE
  5
299
  8
LAYER_1
 62
     3
 10
11.39279412355185
 20
4.067127283407903
 30
0.0
 11
11.36413918355257
 21
3.97121705511708
 31
0.0
  0
LINE
  5
29A
  8
LAYER_1
 62
     3
 10
11.36413918355257
 20
3.97121705511708
 30
0.0
 11
11.36565446735921
 21
3.890179575946728
 31
0.0
  0
LINE
  5
29B
  8
LAYER_1
 62
     3
 10
11.36565446735921
 20
3.890179575946728
 30
0.0
 11
11.39719952528404
 21
3.824637864046832
 31
0.0
  0
LINE
  5
29C
  8
LAYER_1
 62
     3
 10
11.39719952528404
 20
3.824637864046832
 30
0.0
 11
11.4586337832237
 21
3.775215317726232
 31
0.0
  0
LINE
  5
29D
  8
LAYER_1
 62
     3
 10
11.4586337832237
 20
3.775215317726232
 30
0.0
 11
11.5154762337223
 21
3.730095255496712
 31
0.0
  0
LINE
  5
29E
  8
LAYER_1
 62
     3
 10
11.5154762337223
 20
3.730095255496712
 30
0.0
 11
11.55087173748771
 21
3.676214289108089
 31
0.0
  0
LINE
  5
29F
  8
LAYER_1
 62
     3
 10
11.55087173748771
 20
3.676214289108089
 30
0.0
 11
11.60377638164161
 21
3.569308674512083
 31
0.0
  0
LINE
  5
2A0
  8
LAYER_1
 62
     3
 10
11.60377638164161
 20
3.569308674512083
 30
0.0
 11
11.67851544079821
 21
3.484981364575637
 31
0.0
  0
LINE
  5
2A1
  8
LAYER_1
 62
     3
 10
11.67851544079821
 20
3.484981364575637
 30
0.0
 11
11.76490129709219
 21
3.431918994242205
 31
0.0
  0
LINE
  5
2A2
  8
LAYER_1
 62
     3
 10
11.76490129709219
 20
3.431918994242205
 30
0.0
 11
11.85274674392107
 21
3.418808227831146
 31
0.0
  0
LINE
  5
2A3
  8
LAYER_1
 62
     3
 10
11.85274674392107
 20
3.418808227831146
 30
0.0
 11
13.56155033198851
 21
3.37635421092869
 31
0.0
  0
LINE
  5
2AE
  8
LAYER_1
 62
     3
 10
13.56155033198851
 20
3.37635421092869
 30
0.0
 11
13.68912638680183
 21
3.080087295837794
 31
0.0
  0
LINE
  5
2AF
  8
LAYER_1
 62
     3
 10
13.68912638680183
 20
3.080087295837794
 30
0.0
 11
13.80195259867231
 21
3.017935318721034
 31
0.0
  0
LINE
  5
2B0
  8
LAYER_1
 62
     3
 10
13.80195259867231
 20
3.017935318721034
 30
0.0
 11
13.80114968062841
 21
2.876360092808559
 31
0.0
  0
LINE
  5
2B1
  8
LAYER_1
 62
     3
 10
13.80114968062841
 20
2.876360092808559
 30
0.0
 11
13.83658928747507
 21
2.79535221515398
 31
0.0
  0
LINE
  5
2B2
  8
LAYER_1
 62
     3
 10
13.83658928747507
 20
2.79535221515398
 30
0.0
 11
14.86405208596673
 21
2.58205394316556
 31
0.0
  0
LINE
  5
2CB
  8
LAYER_1
 62
     3
 10
14.86405208596673
 20
2.58205394316556
 30
0.0
 11
14.9266558694403
 21
2.635714329000045
 31
0.0
  0
LINE
  5
2CC
  8
LAYER_1
 62
     3
 10
14.9266558694403
 20
2.635714329000045
 30
0.0
 11
14.97492390799465
 21
2.672694156290771
 31
0.0
  0
LINE
  5
2CD
  8
LAYER_1
 62
     3
 10
14.97492390799465
 20
2.672694156290771
 30
0.0
 11
15.1003605384041
 21
2.626982962114921
 31
0.0
  0
LINE
  5
2CE
  8
LAYER_1
 62
     3
 10
15.1003605384041
 20
2.626982962114921
 30
0.0
 11
15.10167082318614
 21
2.695117770780939
 31
0.0
  0
LINE
  5
2CF
  8
LAYER_1
 62
     3
 10
15.10167082318614
 20
2.695117770780939
 30
0.0
 11
14.86896099394533
 21
2.887171408753658
 31
0.0
  0
LINE
  5
2D0
  8
LAYER_1
 62
     3
 10
14.86896099394533
 20
2.887171408753658
 30
0.0
 11
14.81209788635556
 21
2.929658746765888
 31
0.0
  0
LINE
  5
2D1
  8
LAYER_1
 62
     3
 10
14.81209788635556
 20
2.929658746765888
 30
0.0
 11
14.79113332984294
 21
2.951933588060548
 31
0.0
  0
LINE
  5
2D2
  8
LAYER_1
 62
     3
 10
14.79113332984294
 20
2.951933588060548
 30
0.0
 11
14.7747214513226
 21
2.972129927419426
 31
0.0
  0
LINE
  5
2D3
  8
LAYER_1
 62
     3
 10
14.7747214513226
 20
2.972129927419426
 30
0.0
 11
14.75431018829359
 21
3.005468323700142
 31
0.0
  0
LINE
  5
2D4
  8
LAYER_1
 62
     3
 10
14.75431018829359
 20
3.005468323700142
 30
0.0
 11
14.72678101245147
 21
3.044210524790179
 31
0.0
  0
LINE
  5
2D5
  8
LAYER_1
 62
     3
 10
14.72678101245147
 20
3.044210524790179
 30
0.0
 11
14.6883062422517
 21
3.086514583036284
 31
0.0
  0
LINE
  5
2D6
  8
LAYER_1
 62
     3
 10
14.6883062422517
 20
3.086514583036284
 30
0.0
 11
14.62648289738355
 21
3.146522564206435
 31
0.0
  0
LINE
  5
2D7
  8
LAYER_1
 62
     3
 10
14.62648289738355
 20
3.146522564206435
 30
0.0
 11
14.48298829277141
 21
3.252072202290572
 31
0.0
  0
LINE
  5
2D8
  8
LAYER_1
 62
     3
 10
14.48298829277141
 20
3.252072202290572
 30
0.0
 11
14.39897727154352
 21
3.304618121640099
 31
0.0
  0
LINE
  5
2D9
  8
LAYER_1
 62
     3
 10
14.39897727154352
 20
3.304618121640099
 30
0.0
 11
14.37832971765955
 21
3.314454750933654
 31
0.0
  0
LINE
  5
2DA
  8
LAYER_1
 62
     3
 10
14.37832971765955
 20
3.314454750933654
 30
0.0
 11
14.35998685953358
 21
3.348352743318751
 31
0.0
  0
LINE
  5
2DB
  8
LAYER_1
 62
     3
 10
14.35998685953358
 20
3.348352743318751
 30
0.0
 11
14.31536881607556
 21
3.405868221864257
 31
0.0
  0
LINE
  5
2DC
  8
LAYER_1
 62
     3
 10
14.31536881607556
 20
3.405868221864257
 30
0.0
 11
14.28041847832537
 21
3.43985430915124
 31
0.0
  0
LINE
  5
2DD
  8
LAYER_1
 62
     3
 10
14.28041847832537
 20
3.43985430915124
 30
0.0
 11
14.23559243440769
 21
3.512454012274386
 31
0.0
  0
LINE
  5
2DE
  8
LAYER_1
 62
     3
 10
14.23559243440769
 20
3.512454012274386
 30
0.0
 11
14.1917929697249
 21
3.58079907948192
 31
0.0
  0
LINE
  5
2DF
  8
LAYER_1
 62
     3
 10
14.1917929697249
 20
3.58079907948192
 30
0.0
 11
14.15930929441144
 21
3.604556840802584
 31
0.0
  0
LINE
  5
2E0
  8
LAYER_1
 62
     3
 10
14.15930929441144
 20
3.604556840802584
 30
0.0
 11
14.12411200028727
 21
3.622962269619549
 31
0.0
  0
LINE
  5
2E1
  8
LAYER_1
 62
     3
 10
14.12411200028727
 20
3.622962269619549
 30
0.0
 11
14.07378762385892
 21
3.678438398101514
 31
0.0
  0
LINE
  5
2E2
  8
LAYER_1
 62
     3
 10
14.07378762385892
 20
3.678438398101514
 30
0.0
 11
14.02008718454096
 21
3.732809843712499
 31
0.0
  0
LINE
  5
2E3
  8
LAYER_1
 62
     3
 10
14.02008718454096
 20
3.732809843712499
 30
0.0
 11
13.97677286476066
 21
3.748558686186467
 31
0.0
  0
LINE
  5
2E4
  8
LAYER_1
 62
     3
 10
13.97677286476066
 20
3.748558686186467
 30
0.0
 11
13.92546089611562
 21
3.753595184444237
 31
0.0
  0
LINE
  5
2E5
  8
LAYER_1
 62
     3
 10
13.92546089611562
 20
3.753595184444237
 30
0.0
 11
13.77595330339547
 21
3.79342390201783
 31
0.0
  0
LINE
  5
2E6
  8
LAYER_1
 62
     3
 10
13.77595330339547
 20
3.79342390201783
 30
0.0
 11
13.61033669706536
 21
3.80326911944544
 31
0.0
  0
LINE
  5
2E7
  8
LAYER_1
 62
     3
 10
13.61033669706536
 20
3.80326911944544
 30
0.0
 11
13.56421741007709
 21
3.811878018520225
 31
0.0
  0
LINE
  5
2E8
  8
LAYER_1
 62
     3
 10
13.56421741007709
 20
3.811878018520225
 30
0.0
 11
13.50545112219123
 21
3.827154702267979
 31
0.0
  0
LINE
  5
2E9
  8
LAYER_1
 62
     3
 10
13.50545112219123
 20
3.827154702267979
 30
0.0
 11
13.44828940698031
 21
3.847007716428339
 31
0.0
  0
LINE
  5
2EA
  8
LAYER_1
 62
     3
 10
13.44828940698031
 20
3.847007716428339
 30
0.0
 11
13.40554827452544
 21
3.858717615731044
 31
0.0
  0
LINE
  5
2EB
  8
LAYER_1
 62
     3
 10
13.40554827452544
 20
3.858717615731044
 30
0.0
 11
13.38212847592003
 21
3.865743555312667
 31
0.0
  0
LINE
  5
2EC
  8
LAYER_1
 62
     3
 10
13.38212847592003
 20
3.865743555312667
 30
0.0
 11
13.36105065717516
 21
3.873354989859425
 31
0.0
  0
LINE
  5
2ED
  8
LAYER_1
 62
     3
 10
13.36105065717516
 20
3.873354989859425
 30
0.0
 11
13.3317759089184
 21
3.883893899231859
 31
0.0
  0
LINE
  5
2EE
  8
LAYER_1
 62
     3
 10
13.3317759089184
 20
3.883893899231859
 30
0.0
 11
13.28207981026228
 21
3.897214885510499
 31
0.0
  0
LINE
  5
2EF
  8
LAYER_1
 62
     3
 10
13.28207981026228
 20
3.897214885510499
 30
0.0
 11
13.06260762178685
 21
3.955361080422737
 31
0.0
  0
LINE
  5
2F0
  8
LAYER_1
 62
     3
 10
13.06260762178685
 20
3.955361080422737
 30
0.0
 11
12.88405080904246
 21
4.001906945705198
 31
0.0
  0
LINE
  5
2F1
  8
LAYER_1
 62
     3
 10
12.88405080904246
 20
4.001906945705198
 30
0.0
 11
12.71867238605684
 21
4.06448904836947
 31
0.0
  0
LINE
  5
2F2
  8
LAYER_1
 62
     3
 10
12.71867238605684
 20
4.06448904836947
 30
0.0
 11
12.61061285321991
 21
4.106067205113975
 31
0.0
  0
LINE
  5
2F3
  8
LAYER_1
 62
     3
 10
12.61061285321991
 20
4.106067205113975
 30
0.0
 11
12.54542373419902
 21
4.127521851880341
 31
0.0
  0
LINE
  5
2F4
  8
LAYER_1
 62
     3
 10
12.54542373419902
 20
4.127521851880341
 30
0.0
 11
12.51324176404947
 21
4.141549890150658
 31
0.0
  0
LINE
  5
2F5
  8
LAYER_1
 62
     3
 10
12.51324176404947
 20
4.141549890150658
 30
0.0
 11
12.46599522787085
 21
4.17823343040296
 31
0.0
  0
LINE
  5
2F6
  8
LAYER_1
 62
     3
 10
12.46599522787085
 20
4.17823343040296
 30
0.0
 11
12.38843123247982
 21
4.25471931775474
 31
0.0
  0
LINE
  5
2F7
  8
LAYER_1
 62
     3
 10
12.38843123247982
 20
4.25471931775474
 30
0.0
 11
12.37791245367701
 21
4.272753306914209
 31
0.0
  0
LINE
  5
2F8
  8
LAYER_1
 62
     3
 10
12.37791245367701
 20
4.272753306914209
 30
0.0
 11
12.37578620558986
 21
4.294239747235608
 31
0.0
  0
LINE
  5
2F9
  8
LAYER_1
 62
     3
 10
12.37578620558986
 20
4.294239747235608
 30
0.0
 11
12.38451388345127
 21
4.346194213152926
 31
0.0
  0
LINE
  5
2FA
  8
LAYER_1
 62
     3
 10
12.38451388345127
 20
4.346194213152926
 30
0.0
 11
12.38503480517173
 21
4.429772748954132
 31
0.0
  0
LINE
  5
2FB
  8
LAYER_1
 62
     3
 10
12.38503480517173
 20
4.429772748954132
 30
0.0
 11
12.38516019538496
 21
4.512719339221453
 31
0.0
  0
LINE
  5
2FC
  8
LAYER_1
 62
     3
 10
12.38516019538496
 20
4.512719339221453
 30
0.0
 11
12.40506076131742
 21
4.563140528285356
 31
0.0
  0
LINE
  5
2FD
  8
LAYER_1
 62
     3
 10
12.40506076131742
 20
4.563140528285356
 30
0.0
 11
12.42571114392882
 21
4.59262954371707
 31
0.0
  0
LINE
  5
2FE
  8
LAYER_1
 62
     3
 10
12.42571114392882
 20
4.59262954371707
 30
0.0
 11
12.42763848018674
 21
4.625250093497064
 31
0.0
  0
LINE
  5
2FF
  8
LAYER_1
 62
     3
 10
12.42763848018674
 20
4.625250093497064
 30
0.0
 11
12.43195228091562
 21
4.658712695133389
 31
0.0
  0
LINE
  5
300
  8
LAYER_1
 62
     3
 10
12.43195228091562
 20
4.658712695133389
 30
0.0
 11
12.45834012805135
 21
4.690226312193198
 31
0.0
  0
LINE
  5
301
  8
LAYER_1
 62
     3
 10
12.45834012805135
 20
4.690226312193198
 30
0.0
 11
12.49624685405487
 21
4.73985048612872
 31
0.0
  0
LINE
  5
302
  8
LAYER_1
 62
     3
 10
12.49624685405487
 20
4.73985048612872
 30
0.0
 11
12.52825481413338
 21
4.816855691207749
 31
0.0
  0
LINE
  5
303
  8
LAYER_1
 62
     3
 10
12.52825481413338
 20
4.816855691207749
 30
0.0
 11
12.55652323280427
 21
4.887860201133648
 31
0.0
  0
LINE
  5
304
  8
LAYER_1
 62
     3
 10
12.55652323280427
 20
4.887860201133648
 30
0.0
 11
12.58543927972681
 21
4.923057298266418
 31
0.0
  0
LINE
  5
305
  8
LAYER_1
 62
     3
 10
12.58543927972681
 20
4.923057298266418
 30
0.0
 11
12.63554008646251
 21
4.984399873987044
 31
0.0
  0
LINE
  5
306
  8
LAYER_1
 62
     3
 10
12.63554008646251
 20
4.984399873987044
 30
0.0
 11
12.71474249565624
 21
5.118264275562073
 31
0.0
  0
LINE
  5
307
  8
LAYER_1
 62
     3
 10
12.71474249565624
 20
5.118264275562073
 30
0.0
 11
12.80416527167233
 21
5.279105329854147
 31
0.0
  0
LINE
  5
308
  8
LAYER_1
 62
     3
 10
12.80416527167233
 20
5.279105329854147
 30
0.0
 11
12.87221076333681
 21
5.372671906472661
 31
0.0
  0
LINE
  5
309
  8
LAYER_1
 62
     3
 10
12.87221076333681
 20
5.372671906472661
 30
0.0
 11
12.95076157507488
 21
5.432276748434626
 31
0.0
  0
LINE
  5
30A
  8
LAYER_1
 62
     3
 10
12.95076157507488
 20
5.432276748434626
 30
0.0
 11
13.04613250020182
 21
5.511540722023782
 31
0.0
  0
LINE
  5
30B
  8
LAYER_1
 62
     3
 10
13.04613250020182
 20
5.511540722023782
 30
0.0
 11
13.1387871592689
 21
5.612252307966258
 31
0.0
  0
LINE
  5
30C
  8
LAYER_1
 62
     3
 10
13.1387871592689
 20
5.612252307966258
 30
0.0
 11
13.25964106239987
 21
5.785476235787314
 31
0.0
  0
LINE
  5
314
  8
LAYER_1
 62
     3
 10
13.25964106239987
 20
5.785476235787314
 30
0.0
 11
13.45703577084712
 21
6.264863384873495
 31
0.0
  0
LINE
  5
315
  8
LAYER_1
 62
     3
 10
13.45703577084712
 20
6.264863384873495
 30
0.0
 11
13.5496904299142
 21
6.482400410509241
 31
0.0
  0
LINE
  5
316
  8
LAYER_1
 62
     3
 10
13.5496904299142
 20
6.482400410509241
 30
0.0
 11
13.60608891804198
 21
6.611311240515609
 31
0.0
  0
LINE
  5
317
  8
LAYER_1
 62
     3
 10
13.60608891804198
 20
6.611311240515609
 30
0.0
 11
13.68262972335826
 21
6.703965899582686
 31
0.0
  0
LINE
  5
318
  8
LAYER_1
 62
     3
 10
13.68262972335826
 20
6.703965899582686
 30
0.0
 11
13.84779672430392
 21
6.853019046777549
 31
0.0
  0
LINE
  5
319
  8
LAYER_1
 62
     3
 10
13.84779672430392
 20
6.853019046777549
 30
0.0
 11
14.10379556994705
 21
7.047316675937381
 31
0.0
  0
LINE
  5
31A
  8
LAYER_1
 62
     3
 10
14.10379556994705
 20
7.047316675937381
 30
0.0
 11
14.26764742780358
 21
7.179025926397021
 31
0.0
  0
LINE
  5
31B
  8
LAYER_1
 62
     3
 10
14.26764742780358
 20
7.179025926397021
 30
0.0
 11
14.3971586468932
 21
7.275815867672066
 31
0.0
  0
LINE
  5
31C
  8
LAYER_1
 62
     3
 10
14.3971586468932
 20
7.275815867672066
 30
0.0
 11
14.48747208671477
 21
7.367442835813739
 31
0.0
  0
LINE
  5
31D
  8
LAYER_1
 62
     3
 10
14.48747208671477
 20
7.367442835813739
 30
0.0
 11
14.6141734781838
 21
7.470747421607717
 31
0.0
  0
LINE
  5
31E
  8
LAYER_1
 62
     3
 10
14.6141734781838
 20
7.470747421607717
 30
0.0
 11
14.73882724215586
 21
7.540891384340787
 31
0.0
  0
LINE
  5
31F
  8
LAYER_1
 62
     3
 10
14.73882724215586
 20
7.540891384340787
 30
0.0
 11
14.84095507113717
 21
7.557912689171006
 31
0.0
  0
LINE
  5
320
  8
LAYER_1
 62
     3
 10
14.84095507113717
 20
7.557912689171006
 30
0.0
 11
14.94308290011849
 21
7.519006849559077
 31
0.0
  0
LINE
  5
325
  8
LAYER_1
 62
     3
 10
14.94308290011849
 20
7.519006849559077
 30
0.0
 11
15.21056054745049
 21
7.173717523003215
 31
0.0
  0
LINE
  5
326
  8
LAYER_1
 62
     3
 10
15.21056054745049
 20
7.173717523003215
 30
0.0
 11
15.25634339461028
 21
7.095178918611294
 31
0.0
  0
LINE
  5
327
  8
LAYER_1
 62
     3
 10
15.25634339461028
 20
7.095178918611294
 30
0.0
 11
15.31922865044957
 21
6.965914781608298
 31
0.0
  0
LINE
  5
32F
  8
LAYER_1
 62
     3
 10
15.31922865044957
 20
6.965914781608298
 30
0.0
 11
15.39259478226209
 21
6.965914781608298
 31
0.0
  0
LINE
  5
330
  8
LAYER_1
 62
     3
 10
15.39259478226209
 20
6.965914781608298
 30
0.0
 11
15.45198641277698
 21
7.011331910825567
 31
0.0
  0
LINE
  5
331
  8
LAYER_1
 62
     3
 10
15.45198641277698
 20
7.011331910825567
 30
0.0
 11
15.38883503865611
 21
7.215273599502035
 31
0.0
  0
LINE
  5
332
  8
LAYER_1
 62
     3
 10
15.38883503865611
 20
7.215273599502035
 30
0.0
 11
15.37502120925844
 21
7.272150823575412
 31
0.0
  0
LINE
  5
333
  8
LAYER_1
 62
     3
 10
15.37502120925844
 20
7.272150823575412
 30
0.0
 11
15.41135292907969
 21
7.284078264685181
 31
0.0
  0
LINE
  5
334
  8
LAYER_1
 62
     3
 10
15.41135292907969
 20
7.284078264685181
 30
0.0
 11
15.42261187429148
 21
7.256556398611922
 31
0.0
  0
LINE
  5
335
  8
LAYER_1
 62
     3
 10
15.42261187429148
 20
7.256556398611922
 30
0.0
 11
15.46747262962961
 21
7.132456907194159
 31
0.0
  0
LINE
  5
336
  8
LAYER_1
 62
     3
 10
15.46747262962961
 20
7.132456907194159
 30
0.0
 11
15.52269319113958
 21
6.993141725796823
 31
0.0
  0
LINE
  5
337
  8
LAYER_1
 62
     3
 10
15.52269319113958
 20
6.993141725796823
 30
0.0
 11
15.54595181425604
 21
6.974966103005665
 31
0.0
  0
LINE
  5
338
  8
LAYER_1
 62
     3
 10
15.54595181425604
 20
6.974966103005665
 30
0.0
 11
15.57512741981851
 21
6.978501312486518
 31
0.0
  0
LINE
  5
339
  8
LAYER_1
 62
     3
 10
15.57512741981851
 20
6.978501312486518
 30
0.0
 11
15.63736032411364
 21
7.015039895166936
 31
0.0
  0
LINE
  5
33A
  8
LAYER_1
 62
     3
 10
15.63736032411364
 20
7.015039895166936
 30
0.0
 11
15.66512407672502
 21
7.074894465206523
 31
0.0
  0
LINE
  5
33B
  8
LAYER_1
 62
     3
 10
15.66512407672502
 20
7.074894465206523
 30
0.0
 11
15.65894168464877
 21
7.161616459685117
 31
0.0
  0
LINE
  5
33C
  8
LAYER_1
 62
     3
 10
15.65894168464877
 20
7.161616459685117
 30
0.0
 11
15.61933590432173
 21
7.278757759777212
 31
0.0
  0
LINE
  5
33D
  8
LAYER_1
 62
     3
 10
15.61933590432173
 20
7.278757759777212
 30
0.0
 11
15.56089561679387
 21
7.397227065329673
 31
0.0
  0
LINE
  5
33E
  8
LAYER_1
 62
     3
 10
15.56089561679387
 20
7.397227065329673
 30
0.0
 11
15.51756798972578
 21
7.450922740566025
 31
0.0
  0
LINE
  5
33F
  8
LAYER_1
 62
     3
 10
15.51756798972578
 20
7.450922740566025
 30
0.0
 11
15.4796829967126
 21
7.483169457683289
 31
0.0
  0
LINE
  5
340
  8
LAYER_1
 62
     3
 10
15.4796829967126
 20
7.483169457683289
 30
0.0
 11
15.4343283488237
 21
7.550070788708052
 31
0.0
  0
LINE
  5
341
  8
LAYER_1
 62
     3
 10
15.4343283488237
 20
7.550070788708052
 30
0.0
 11
15.37809108875297
 21
7.626733284038338
 31
0.0
  0
LINE
  5
342
  8
LAYER_1
 62
     3
 10
15.37809108875297
 20
7.626733284038338
 30
0.0
 11
15.31404109772288
 21
7.682449204627938
 31
0.0
  0
LINE
  5
343
  8
LAYER_1
 62
     3
 10
15.31404109772288
 20
7.682449204627938
 30
0.0
 11
15.26033380517762
 21
7.72514402445562
 31
0.0
  0
LINE
  5
344
  8
LAYER_1
 62
     3
 10
15.26033380517762
 20
7.72514402445562
 30
0.0
 11
15.2289633680373
 21
7.770499978708561
 31
0.0
  0
LINE
  5
345
  8
LAYER_1
 62
     3
 10
15.2289633680373
 20
7.770499978708561
 30
0.0
 11
15.20044538941979
 21
7.804384859465569
 31
0.0
  0
LINE
  5
346
  8
LAYER_1
 62
     3
 10
15.20044538941979
 20
7.804384859465569
 30
0.0
 11
15.17052517483913
 21
7.826962311827401
 31
0.0
  0
LINE
  5
347
  8
LAYER_1
 62
     3
 10
15.17052517483913
 20
7.826962311827401
 30
0.0
 11
15.12740351783683
 21
7.856238052959379
 31
0.0
  0
LINE
  5
348
  8
LAYER_1
 62
     3
 10
15.12740351783683
 20
7.856238052959379
 30
0.0
 11
15.08407525659465
 21
7.913689213811171
 31
0.0
  0
LINE
  5
349
  8
LAYER_1
 62
     3
 10
15.08407525659465
 20
7.913689213811171
 30
0.0
 11
15.0746748777412
 21
7.99653425230786
 31
0.0
  0
LINE
  5
34A
  8
LAYER_1
 62
     3
 10
15.0746748777412
 20
7.99653425230786
 30
0.0
 11
15.08366375537371
 21
8.082413005315113
 31
0.0
  0
LINE
  5
34B
  8
LAYER_1
 62
     3
 10
15.08366375537371
 20
8.082413005315113
 30
0.0
 11
15.11856736296105
 21
8.198556333125879
 31
0.0
  0
LINE
  5
34C
  8
LAYER_1
 62
     3
 10
15.11856736296105
 20
8.198556333125879
 30
0.0
 11
15.12325250631218
 21
8.219586660317564
 31
0.0
  0
LINE
  5
34D
  8
LAYER_1
 62
     3
 10
15.12325250631218
 20
8.219586660317564
 30
0.0
 11
15.14597654313953
 21
8.235133069931038
 31
0.0
  0
LINE
  5
34E
  8
LAYER_1
 62
     3
 10
15.14597654313953
 20
8.235133069931038
 30
0.0
 11
15.18524520723692
 21
8.277908965545809
 31
0.0
  0
LINE
  5
34F
  8
LAYER_1
 62
     3
 10
15.18524520723692
 20
8.277908965545809
 30
0.0
 11
15.22970726287815
 21
8.364406108159637
 31
0.0
  0
LINE
  5
350
  8
LAYER_1
 62
     3
 10
15.22970726287815
 20
8.364406108159637
 30
0.0
 11
15.27284281814247
 21
8.450469228596555
 31
0.0
  0
LINE
  5
351
  8
LAYER_1
 62
     3
 10
15.27284281814247
 20
8.450469228596555
 30
0.0
 11
15.3089221084503
 21
8.492201434372097
 31
0.0
  0
LINE
  5
352
  8
LAYER_1
 62
     3
 10
15.3089221084503
 20
8.492201434372097
 30
0.0
 11
15.33151188353921
 21
8.525244045149128
 31
0.0
  0
LINE
  5
353
  8
LAYER_1
 62
     3
 10
15.33151188353921
 20
8.525244045149128
 30
0.0
 11
15.34221551520574
 21
8.590414957017137
 31
0.0
  0
LINE
  5
354
  8
LAYER_1
 62
     3
 10
15.34221551520574
 20
8.590414957017137
 30
0.0
 11
15.35152643664733
 21
8.655130388469056
 31
0.0
  0
LINE
  5
355
  8
LAYER_1
 62
     3
 10
15.35152643664733
 20
8.655130388469056
 30
0.0
 11
15.3707685328889
 21
8.687077395259683
 31
0.0
  0
LINE
  5
356
  8
LAYER_1
 62
     3
 10
15.3707685328889
 20
8.687077395259683
 30
0.0
 11
15.38762941776362
 21
8.738194651724907
 31
0.0
  0
LINE
  5
357
  8
LAYER_1
 62
     3
 10
15.38762941776362
 20
8.738194651724907
 30
0.0
 11
15.39211615966609
 21
8.848172521808261
 31
0.0
  0
LINE
  5
358
  8
LAYER_1
 62
     3
 10
15.39211615966609
 20
8.848172521808261
 30
0.0
 11
15.38474431275093
 21
8.974748206841008
 31
0.0
  0
LINE
  5
359
  8
LAYER_1
 62
     3
 10
15.38474431275093
 20
8.974748206841008
 30
0.0
 11
15.36602914432562
 21
9.075658498619657
 31
0.0
  0
LINE
  5
35A
  8
LAYER_1
 62
     3
 10
15.36602914432562
 20
9.075658498619657
 30
0.0
 11
15.35681635225159
 21
9.114526000088887
 31
0.0
  0
LINE
  5
35B
  8
LAYER_1
 62
     3
 10
15.35681635225159
 20
9.114526000088887
 30
0.0
 11
15.36660632568608
 21
9.140362425082333
 31
0.0
  0
LINE
  5
35C
  8
LAYER_1
 62
     3
 10
15.36660632568608
 20
9.140362425082333
 30
0.0
 11
15.4780963933774
 21
9.18789651848356
 31
0.0
  0
LINE
  5
35D
  8
LAYER_1
 62
     3
 10
15.4780963933774
 20
9.18789651848356
 30
0.0
 11
15.58599366097782
 21
9.237464076398107
 31
0.0
  0
LINE
  5
35E
  8
LAYER_1
 62
     3
 10
15.58599366097782
 20
9.237464076398107
 30
0.0
 11
15.69322379990551
 21
9.309866506453176
 31
0.0
  0
LINE
  5
35F
  8
LAYER_1
 62
     3
 10
15.69322379990551
 20
9.309866506453176
 30
0.0
 11
15.78186460644376
 21
9.391050624988564
 31
0.0
  0
LINE
  5
360
  8
LAYER_1
 62
     3
 10
15.78186460644376
 20
9.391050624988564
 30
0.0
 11
15.83399394081171
 21
9.466963374487674
 31
0.0
  0
LINE
  5
361
  8
LAYER_1
 62
     3
 10
15.83399394081171
 20
9.466963374487674
 30
0.0
 11
15.8707068574295
 21
9.507044673058271
 31
0.0
  0
LINE
  5
362
  8
LAYER_1
 62
     3
 10
15.8707068574295
 20
9.507044673058271
 30
0.0
 11
15.93811560375346
 21
9.540718967879116
 31
0.0
  0
LINE
  5
363
  8
LAYER_1
 62
     3
 10
15.93811560375346
 20
9.540718967879116
 30
0.0
 11
16.02295679168958
 21
9.563102582822793
 31
0.0
  0
LINE
  5
364
  8
LAYER_1
 62
     3
 10
16.02295679168958
 20
9.563102582822793
 30
0.0
 11
16.10311551906101
 21
9.583254436407239
 31
0.0
  0
LINE
  5
365
  8
LAYER_1
 62
     3
 10
16.10311551906101
 20
9.583254436407239
 30
0.0
 11
16.18209539262466
 21
9.61127955283305
 31
0.0
  0
LINE
  5
366
  8
LAYER_1
 62
     3
 10
16.18209539262466
 20
9.61127955283305
 30
0.0
 11
16.25665866812403
 21
9.65483256537328
 31
0.0
  0
LINE
  5
367
  8
LAYER_1
 62
     3
 10
16.25665866812403
 20
9.65483256537328
 30
0.0
 11
16.40120084831736
 21
9.78707346495859
 31
0.0
  0
LINE
  5
368
  8
LAYER_1
 62
     3
 10
16.40120084831736
 20
9.78707346495859
 30
0.0
 11
16.58832043040169
 21
9.915471255605116
 31
0.0
  0
LINE
  5
369
  8
LAYER_1
 62
     3
 10
16.58832043040169
 20
9.915471255605116
 30
0.0
 11
16.68305241681173
 21
9.969821638687726
 31
0.0
  0
LINE
  5
36A
  8
LAYER_1
 62
     3
 10
16.68305241681173
 20
9.969821638687726
 30
0.0
 11
16.75409340125145
 21
10.02854658570767
 31
0.0
  0
LINE
  5
36B
  8
LAYER_1
 62
     3
 10
16.75409340125145
 20
10.02854658570767
 30
0.0
 11
16.7954683147303
 21
10.0854976354942
 31
0.0
  0
LINE
  5
36C
  8
LAYER_1
 62
     3
 10
16.7954683147303
 20
10.0854976354942
 30
0.0
 11
16.80120202432194
 21
10.13452620073294
 31
0.0
  0
LINE
  5
36D
  8
LAYER_1
 62
     3
 10
16.80120202432194
 20
10.13452620073294
 30
0.0
 11
16.80483596278455
 21
10.17858020250281
 31
0.0
  0
LINE
  5
36E
  8
LAYER_1
 62
     3
 10
16.80483596278455
 20
10.17858020250281
 30
0.0
 11
16.85649744602178
 21
10.2073890429012
 31
0.0
  0
LINE
  5
36F
  8
LAYER_1
 62
     3
 10
16.85649744602178
 20
10.2073890429012
 30
0.0
 11
16.9657150968976
 21
10.22362063182089
 31
0.0
  0
LINE
  5
370
  8
LAYER_1
 62
     3
 10
16.9657150968976
 20
10.22362063182089
 30
0.0
 11
17.14201810678627
 21
10.22994274955506
 31
0.0
  0
LINE
  5
371
  8
LAYER_1
 62
     3
 10
17.14201810678627
 20
10.22994274955506
 30
0.0
 11
17.46126415744925
 21
10.24441511191701
 31
0.0
  0
LINE
  5
372
  8
LAYER_1
 62
     3
 10
17.46126415744925
 20
10.24441511191701
 30
0.0
 11
17.72614796925745
 21
10.25710350456398
 31
0.0
  0
LINE
  5
373
  8
LAYER_1
 62
     3
 10
17.72614796925745
 20
10.25710350456398
 30
0.0
 11
18.0221898476475
 21
10.24820542181126
 31
0.0
  0
LINE
  5
374
  8
LAYER_1
 62
     3
 10
18.0221898476475
 20
10.24820542181126
 30
0.0
 11
18.1959030357275
 21
10.18220594508618
 31
0.0
  0
LINE
  5
375
  8
LAYER_1
 62
     3
 10
18.1959030357275
 20
10.18220594508618
 30
0.0
 11
18.40519353335971
 21
10.10947331769257
 31
0.0
  0
LINE
  5
376
  8
LAYER_1
 62
     3
 10
18.40519353335971
 20
10.10947331769257
 30
0.0
 11
18.48364699159986
 21
10.10473455120741
 31
0.0
  0
LINE
  5
377
  8
LAYER_1
 62
     3
 10
18.48364699159986
 20
10.10473455120741
 30
0.0
 11
18.56272740263411
 21
10.11530654941557
 31
0.0
  0
LINE
  5
378
  8
LAYER_1
 62
     3
 10
18.56272740263411
 20
10.11530654941557
 30
0.0
 11
18.7084179758447
 21
10.17369020537049
 31
0.0
  0
LINE
  5
379
  8
LAYER_1
 62
     3
 10
18.7084179758447
 20
10.17369020537049
 30
0.0
 11
18.81356373834885
 21
10.26723977160839
 31
0.0
  0
LINE
  5
37A
  8
LAYER_1
 62
     3
 10
18.81356373834885
 20
10.26723977160839
 30
0.0
 11
18.84196311137616
 21
10.32176899178277
 31
0.0
  0
LINE
  5
37B
  8
LAYER_1
 62
     3
 10
18.84196311137616
 20
10.32176899178277
 30
0.0
 11
18.84946326881573
 21
10.37857044906118
 31
0.0
  0
LINE
  5
37C
  8
LAYER_1
 62
     3
 10
18.84946326881573
 20
10.37857044906118
 30
0.0
 11
18.85643298024165
 21
10.4827220184086
 31
0.0
  0
LINE
  5
37D
  8
LAYER_1
 62
     3
 10
18.85643298024165
 20
10.4827220184086
 30
0.0
 11
18.85512180890643
 21
10.62023829503206
 31
0.0
  0
LINE
  5
37E
  8
LAYER_1
 62
     3
 10
18.85512180890643
 20
10.62023829503206
 30
0.0
 11
18.83448931968096
 21
10.70388521220783
 31
0.0
  0
LINE
  5
37F
  8
LAYER_1
 62
     3
 10
18.83448931968096
 20
10.70388521220783
 30
0.0
 11
18.79282856476158
 21
10.72680729106092
 31
0.0
  0
LINE
  5
380
  8
LAYER_1
 62
     3
 10
18.79282856476158
 20
10.72680729106092
 30
0.0
 11
18.74972093907689
 21
10.71494114053814
 31
0.0
  0
LINE
  5
381
  8
LAYER_1
 62
     3
 10
18.74972093907689
 20
10.71494114053814
 30
0.0
 11
18.7146945349965
 21
10.68342707247169
 31
0.0
  0
LINE
  5
382
  8
LAYER_1
 62
     3
 10
18.7146945349965
 20
10.68342707247169
 30
0.0
 11
18.68731107774832
 21
10.65740834402894
 31
0.0
  0
LINE
  5
383
  8
LAYER_1
 62
     3
 10
18.68731107774832
 20
10.65740834402894
 30
0.0
 11
18.66624056085404
 21
10.69653287953772
 31
0.0
  0
LINE
  5
384
  8
LAYER_1
 62
     3
 10
18.66624056085404
 20
10.69653287953772
 30
0.0
 11
18.64255652615866
 21
10.73574158394425
 31
0.0
  0
LINE
  5
385
  8
LAYER_1
 62
     3
 10
18.64255652615866
 20
10.73574158394425
 30
0.0
 11
18.60631806852364
 21
10.72084257448711
 31
0.0
  0
LINE
  5
386
  8
LAYER_1
 62
     3
 10
18.60631806852364
 20
10.72084257448711
 30
0.0
 11
18.50822862627177
 21
10.6496895313139
 31
0.0
  0
LINE
  5
387
  8
LAYER_1
 62
     3
 10
18.50822862627177
 20
10.6496895313139
 30
0.0
 11
18.48502775619686
 21
10.64363061483265
 31
0.0
  0
LINE
  5
388
  8
LAYER_1
 62
     3
 10
18.48502775619686
 20
10.64363061483265
 30
0.0
 11
18.48118303520296
 21
10.65831273156898
 31
0.0
  0
LINE
  5
389
  8
LAYER_1
 62
     3
 10
18.48118303520296
 20
10.65831273156898
 30
0.0
 11
18.48023637054264
 21
10.70313510004177
 31
0.0
  0
LINE
  5
38A
  8
LAYER_1
 62
     3
 10
18.48023637054264
 20
10.70313510004177
 30
0.0
 11
18.45221098742559
 21
10.7288169023343
 31
0.0
  0
LINE
  5
38B
  8
LAYER_1
 62
     3
 10
18.45221098742559
 20
10.7288169023343
 30
0.0
 11
18.40006309093772
 21
10.73421240187559
 31
0.0
  0
LINE
  5
38C
  8
LAYER_1
 62
     3
 10
18.40006309093772
 20
10.73421240187559
 30
0.0
 11
18.32674897947666
 21
10.71817557697557
 31
0.0
  0
LINE
  5
38D
  8
LAYER_1
 62
     3
 10
18.32674897947666
 20
10.71817557697557
 30
0.0
 11
18.24065274201978
 21
10.70016374562562
 31
0.0
  0
LINE
  5
38E
  8
LAYER_1
 62
     3
 10
18.24065274201978
 20
10.70016374562562
 30
0.0
 11
18.19361560609335
 21
10.71060571049858
 31
0.0
  0
LINE
  5
38F
  8
LAYER_1
 62
     3
 10
18.19361560609335
 20
10.71060571049858
 30
0.0
 11
18.06870136557771
 21
10.79052408322553
 31
0.0
  0
LINE
  5
390
  8
LAYER_1
 62
     3
 10
18.06870136557771
 20
10.79052408322553
 30
0.0
 11
17.95622235783378
 21
10.86985632530705
 31
0.0
  0
LINE
  5
391
  8
LAYER_1
 62
     3
 10
17.95622235783378
 20
10.86985632530705
 30
0.0
 11
17.92666489134484
 21
10.89152765907438
 31
0.0
  0
LINE
  5
392
  8
LAYER_1
 62
     3
 10
17.92666489134484
 20
10.89152765907438
 30
0.0
 11
17.89277462136842
 21
10.9142740475142
 31
0.0
  0
LINE
  5
393
  8
LAYER_1
 62
     3
 10
17.89277462136842
 20
10.9142740475142
 30
0.0
 11
17.84020551751293
 21
10.97760636775222
 31
0.0
  0
LINE
  5
394
  8
LAYER_1
 62
     3
 10
17.84020551751293
 20
10.97760636775222
 30
0.0
 11
17.75403269014342
 21
11.12471685500953
 31
0.0
  0
LINE
  5
395
  8
LAYER_1
 62
     3
 10
17.75403269014342
 20
11.12471685500953
 30
0.0
 11
17.75242835585378
 21
11.16492677168759
 31
0.0
  0
LINE
  5
396
  8
LAYER_1
 62
     3
 10
17.75242835585378
 20
11.16492677168759
 30
0.0
 11
17.78945370256778
 21
11.17527279310638
 31
0.0
  0
LINE
  5
397
  8
LAYER_1
 62
     3
 10
17.78945370256778
 20
11.17527279310638
 30
0.0
 11
17.86073190440291
 21
11.16163271079028
 31
0.0
  0
LINE
  5
398
  8
LAYER_1
 62
     3
 10
17.86073190440291
 20
11.16163271079028
 30
0.0
 11
18.0327308127974
 21
11.10372657928085
 31
0.0
  0
LINE
  5
399
  8
LAYER_1
 62
     3
 10
18.0327308127974
 20
11.10372657928085
 30
0.0
 11
18.17232556301421
 21
11.07526986447477
 31
0.0
  0
LINE
  5
39A
  8
LAYER_1
 62
     3
 10
18.17232556301421
 20
11.07526986447477
 30
0.0
 11
18.21962140049516
 21
11.08278940828776
 31
0.0
  0
LINE
  5
39B
  8
LAYER_1
 62
     3
 10
18.21962140049516
 20
11.08278940828776
 30
0.0
 11
18.26652491404124
 21
11.10487967365359
 31
0.0
  0
LINE
  5
39C
  8
LAYER_1
 62
     3
 10
18.26652491404124
 20
11.10487967365359
 30
0.0
 11
18.33647270159128
 21
11.13486376477379
 31
0.0
  0
LINE
  5
39D
  8
LAYER_1
 62
     3
 10
18.33647270159128
 20
11.13486376477379
 30
0.0
 11
18.35198870195262
 21
11.07756433050366
 31
0.0
  0
LINE
  5
39E
  8
LAYER_1
 62
     3
 10
18.35198870195262
 20
11.07756433050366
 30
0.0
 11
18.35696302004622
 21
11.03761282853297
 31
0.0
  0
LINE
  5
39F
  8
LAYER_1
 62
     3
 10
18.35696302004622
 20
11.03761282853297
 30
0.0
 11
18.36968191007306
 21
11.01897048644768
 31
0.0
  0
LINE
  5
3A0
  8
LAYER_1
 62
     3
 10
18.36968191007306
 20
11.01897048644768
 30
0.0
 11
18.44589793820802
 21
11.03235274675861
 31
0.0
  0
LINE
  5
3A1
  8
LAYER_1
 62
     3
 10
18.44589793820802
 20
11.03235274675861
 30
0.0
 11
18.51429871078329
 21
11.06356844715036
 31
0.0
  0
LINE
  5
3A2
  8
LAYER_1
 62
     3
 10
18.51429871078329
 20
11.06356844715036
 30
0.0
 11
18.55373818025271
 21
11.09770577199648
 31
0.0
  0
LINE
  5
3A3
  8
LAYER_1
 62
     3
 10
18.55373818025271
 20
11.09770577199648
 30
0.0
 11
18.58155227799202
 21
11.12265299679602
 31
0.0
  0
LINE
  5
3A4
  8
LAYER_1
 62
     3
 10
18.58155227799202
 20
11.12265299679602
 30
0.0
 11
18.62200258639192
 21
11.13177321154971
 31
0.0
  0
LINE
  5
3A5
  8
LAYER_1
 62
     3
 10
18.62200258639192
 20
11.13177321154971
 30
0.0
 11
18.65851205063228
 21
11.12121990678909
 31
0.0
  0
LINE
  5
3A6
  8
LAYER_1
 62
     3
 10
18.65851205063228
 20
11.12121990678909
 30
0.0
 11
18.64459260340009
 21
11.07792117352171
 31
0.0
  0
LINE
  5
3A7
  8
LAYER_1
 62
     3
 10
18.64459260340009
 20
11.07792117352171
 30
0.0
 11
18.63002469675075
 21
10.98866291988863
 31
0.0
  0
LINE
  5
3A8
  8
LAYER_1
 62
     3
 10
18.63002469675075
 20
10.98866291988863
 30
0.0
 11
18.66038897609847
 21
10.96543071262838
 31
0.0
  0
LINE
  5
3A9
  8
LAYER_1
 62
     3
 10
18.66038897609847
 20
10.96543071262838
 30
0.0
 11
18.71244122980326
 21
10.97522365475791
 31
0.0
  0
LINE
  5
3AA
  8
LAYER_1
 62
     3
 10
18.71244122980326
 20
10.97522365475791
 30
0.0
 11
18.76899507406966
 21
11.01085387032631
 31
0.0
  0
LINE
  5
3AB
  8
LAYER_1
 62
     3
 10
18.76899507406966
 20
11.01085387032631
 30
0.0
 11
18.81286437738947
 21
11.06513335551109
 31
0.0
  0
LINE
  5
3AC
  8
LAYER_1
 62
     3
 10
18.81286437738947
 20
11.06513335551109
 30
0.0
 11
18.84852337962293
 21
11.11765565489997
 31
0.0
  0
LINE
  5
3AD
  8
LAYER_1
 62
     3
 10
18.84852337962293
 20
11.11765565489997
 30
0.0
 11
18.88309055181057
 21
11.1454430292
 31
0.0
  0
LINE
  5
3AE
  8
LAYER_1
 62
     3
 10
18.88309055181057
 20
11.1454430292
 30
0.0
 11
18.89587657270663
 21
11.14034142701089
 31
0.0
  0
LINE
  5
3AF
  8
LAYER_1
 62
     3
 10
18.89587657270663
 20
11.14034142701089
 30
0.0
 11
18.87871095076845
 21
11.11345752959764
 31
0.0
  0
LINE
  5
3B0
  8
LAYER_1
 62
     3
 10
18.87871095076845
 20
11.11345752959764
 30
0.0
 11
18.85542249209412
 21
11.06783973575167
 31
0.0
  0
LINE
  5
3B1
  8
LAYER_1
 62
     3
 10
18.85542249209412
 20
11.06783973575167
 30
0.0
 11
18.85895867616404
 21
11.02084474043394
 31
0.0
  0
LINE
  5
3B2
  8
LAYER_1
 62
     3
 10
18.85895867616404
 20
11.02084474043394
 30
0.0
 11
18.88595602680256
 21
10.98193514328387
 31
0.0
  0
LINE
  5
3B3
  8
LAYER_1
 62
     3
 10
18.88595602680256
 20
10.98193514328387
 30
0.0
 11
18.93305125791351
 21
10.9605736061487
 31
0.0
  0
LINE
  5
3B4
  8
LAYER_1
 62
     3
 10
18.93305125791351
 20
10.9605736061487
 30
0.0
 11
18.98388519926657
 21
10.96377020814042
 31
0.0
  0
LINE
  5
3B5
  8
LAYER_1
 62
     3
 10
18.98388519926657
 20
10.96377020814042
 30
0.0
 11
19.01280328695094
 21
11.0002030358123
 31
0.0
  0
LINE
  5
3B6
  8
LAYER_1
 62
     3
 10
19.01280328695094
 20
11.0002030358123
 30
0.0
 11
19.05705531519462
 21
11.04537742446971
 31
0.0
  0
LINE
  5
3B7
  8
LAYER_1
 62
     3
 10
19.05705531519462
 20
11.04537742446971
 30
0.0
 11
19.13700611028762
 21
11.08389829018606
 31
0.0
  0
LINE
  5
3B8
  8
LAYER_1
 62
     3
 10
19.13700611028762
 20
11.08389829018606
 30
0.0
 11
19.21043082428384
 21
11.12868696922457
 31
0.0
  0
LINE
  5
3B9
  8
LAYER_1
 62
     3
 10
19.21043082428384
 20
11.12868696922457
 30
0.0
 11
19.20006648216312
 21
11.24278927817689
 31
0.0
  0
LINE
  5
3BA
  8
LAYER_1
 62
     3
 10
19.20006648216312
 20
11.24278927817689
 30
0.0
 11
19.04728064660989
 21
11.60376136740205
 31
0.0
  0
LINE
  5
3BB
  8
LAYER_1
 62
     3
 10
19.04728064660989
 20
11.60376136740205
 30
0.0
 11
18.96656329748049
 21
11.75831860150826
 31
0.0
  0
LINE
  5
3BC
  8
LAYER_1
 62
     3
 10
18.96656329748049
 20
11.75831860150826
 30
0.0
 11
18.91847154387584
 21
11.82249081360913
 31
0.0
  0
LINE
  5
3BD
  8
LAYER_1
 62
     3
 10
18.91847154387584
 20
11.82249081360913
 30
0.0
 11
18.88287429671983
 21
11.8493023063131
 31
0.0
  0
LINE
  5
3BE
  8
LAYER_1
 62
     3
 10
18.88287429671983
 20
11.8493023063131
 30
0.0
 11
18.82416066979369
 21
11.89948077086222
 31
0.0
  0
LINE
  5
3BF
  8
LAYER_1
 62
     3
 10
18.82416066979369
 20
11.89948077086222
 30
0.0
 11
18.74925348192899
 21
11.91749065130606
 31
0.0
  0
LINE
  5
3C0
  8
LAYER_1
 62
     3
 10
18.74925348192899
 20
11.91749065130606
 30
0.0
 11
18.65127930211294
 21
11.9509146823709
 31
0.0
  0
LINE
  5
3C1
  8
LAYER_1
 62
     3
 10
18.65127930211294
 20
11.9509146823709
 30
0.0
 11
18.46232598631025
 21
12.03714593842792
 31
0.0
  0
LINE
  5
3C2
  8
LAYER_1
 62
     3
 10
18.46232598631025
 20
12.03714593842792
 30
0.0
 11
18.33364224441351
 21
12.07253107249666
 31
0.0
  0
LINE
  5
3C3
  8
LAYER_1
 62
     3
 10
18.33364224441351
 20
12.07253107249666
 30
0.0
 11
18.30812431132198
 21
12.08084215196659
 31
0.0
  0
LINE
  5
3C4
  8
LAYER_1
 62
     3
 10
18.30812431132198
 20
12.08084215196659
 30
0.0
 11
18.27802699161582
 21
12.11105284713826
 31
0.0
  0
LINE
  5
3C5
  8
LAYER_1
 62
     3
 10
18.27802699161582
 20
12.11105284713826
 30
0.0
 11
18.23893896863675
 21
12.14317468034477
 31
0.0
  0
LINE
  5
3C6
  8
LAYER_1
 62
     3
 10
18.23893896863675
 20
12.14317468034477
 30
0.0
 11
18.1918056335129
 21
12.15608169716332
 31
0.0
  0
LINE
  5
3C7
  8
LAYER_1
 62
     3
 10
18.1918056335129
 20
12.15608169716332
 30
0.0
 11
18.13938991338607
 21
12.16971680112646
 31
0.0
  0
LINE
  5
3C8
  8
LAYER_1
 62
     3
 10
18.13938991338607
 20
12.16971680112646
 30
0.0
 11
18.08760235910567
 21
12.20358953368386
 31
0.0
  0
LINE
  5
3C9
  8
LAYER_1
 62
     3
 10
18.08760235910567
 20
12.20358953368386
 30
0.0
 11
17.99682486282993
 21
12.25363814115326
 31
0.0
  0
LINE
  5
3CA
  8
LAYER_1
 62
     3
 10
17.99682486282993
 20
12.25363814115326
 30
0.0
 11
17.85662123291641
 21
12.29118528181103
 31
0.0
  0
LINE
  5
3CB
  8
LAYER_1
 62
     3
 10
17.85662123291641
 20
12.29118528181103
 30
0.0
 11
17.69029751038636
 21
12.31180805624984
 31
0.0
  0
LINE
  5
3CC
  8
LAYER_1
 62
     3
 10
17.69029751038636
 20
12.31180805624984
 30
0.0
 11
17.52115945286982
 21
12.31108378797371
 31
0.0
  0
LINE
  5
3CD
  8
LAYER_1
 62
     3
 10
17.52115945286982
 20
12.31108378797371
 30
0.0
 11
17.41302847454322
 21
12.34295329381895
 31
0.0
  0
LINE
  5
3CE
  8
LAYER_1
 62
     3
 10
17.41302847454322
 20
12.34295329381895
 30
0.0
 11
17.33336023367684
 21
12.43972370446684
 31
0.0
  0
LINE
  5
3CF
  8
LAYER_1
 62
     3
 10
17.33336023367684
 20
12.43972370446684
 30
0.0
 11
17.27499240097014
 21
12.55982604975822
 31
0.0
  0
LINE
  5
3D0
  8
LAYER_1
 62
     3
 10
17.27499240097014
 20
12.55982604975822
 30
0.0
 11
17.23948627443488
 21
12.58952785219515
 31
0.0
  0
LINE
  5
3D1
  8
LAYER_1
 62
     3
 10
17.23948627443488
 20
12.58952785219515
 30
0.0
 11
17.18969678151075
 21
12.6110006894741
 31
0.0
  0
LINE
  5
3D2
  8
LAYER_1
 62
     3
 10
17.18969678151075
 20
12.6110006894741
 30
0.0
 11
17.01457145881652
 21
12.68136967747978
 31
0.0
  0
LINE
  5
3D3
  8
LAYER_1
 62
     3
 10
17.01457145881652
 20
12.68136967747978
 30
0.0
 11
16.91594397428598
 21
12.71457958407144
 31
0.0
  0
LINE
  5
3D4
  8
LAYER_1
 62
     3
 10
16.91594397428598
 20
12.71457958407144
 30
0.0
 11
16.78579143698532
 21
12.72268598682697
 31
0.0
  0
LINE
  5
3D5
  8
LAYER_1
 62
     3
 10
16.78579143698532
 20
12.72268598682697
 30
0.0
 11
16.67390591136689
 21
12.70573363446054
 31
0.0
  0
LINE
  5
3D6
  8
LAYER_1
 62
     3
 10
16.67390591136689
 20
12.70573363446054
 30
0.0
 11
16.57897273811488
 21
12.67860987067425
 31
0.0
  0
LINE
  5
3D7
  8
LAYER_1
 62
     3
 10
16.57897273811488
 20
12.67860987067425
 30
0.0
 11
16.51428215261618
 21
12.63222157474615
 31
0.0
  0
LINE
  5
3D8
  8
LAYER_1
 62
     3
 10
16.51428215261618
 20
12.63222157474615
 30
0.0
 11
16.46205324427703
 21
12.59895502794158
 31
0.0
  0
LINE
  5
3D9
  8
LAYER_1
 62
     3
 10
16.46205324427703
 20
12.59895502794158
 30
0.0
 11
16.40658760990736
 21
12.58921438530207
 31
0.0
  0
LINE
  5
3DA
  8
LAYER_1
 62
     3
 10
16.40658760990736
 20
12.58921438530207
 30
0.0
 11
16.33053089943513
 21
12.59606940625845
 31
0.0
  0
LINE
  5
3DB
  8
LAYER_1
 62
     3
 10
16.33053089943513
 20
12.59606940625845
 30
0.0
 11
16.22039417133566
 21
12.60076184001957
 31
0.0
  0
LINE
  5
3DC
  8
LAYER_1
 62
     3
 10
16.22039417133566
 20
12.60076184001957
 30
0.0
 11
16.09200402784801
 21
12.58886244633321
 31
0.0
  0
LINE
  5
3DD
  8
LAYER_1
 62
     3
 10
16.09200402784801
 20
12.58886244633321
 30
0.0
 11
15.80982087840958
 21
12.52429356266259
 31
0.0
  0
LINE
  5
3DE
  8
LAYER_1
 62
     3
 10
15.80982087840958
 20
12.52429356266259
 30
0.0
 11
15.54269633948218
 21
12.42037251473083
 31
0.0
  0
LINE
  5
3DF
  8
LAYER_1
 62
     3
 10
15.54269633948218
 20
12.42037251473083
 30
0.0
 11
15.43312933298968
 21
12.35928297965381
 31
0.0
  0
LINE
  5
3E0
  8
LAYER_1
 62
     3
 10
15.43312933298968
 20
12.35928297965381
 30
0.0
 11
15.34934498320507
 21
12.29510906375008
 31
0.0
  0
LINE
  5
3E1
  8
LAYER_1
 62
     3
 10
15.34934498320507
 20
12.29510906375008
 30
0.0
 11
15.21445843297374
 21
12.18683581386142
 31
0.0
  0
LINE
  5
3E2
  8
LAYER_1
 62
     3
 10
15.21445843297374
 20
12.18683581386142
 30
0.0
 11
15.20173451126085
 21
12.17071531373279
 31
0.0
  0
LINE
  5
3E3
  8
LAYER_1
 62
     3
 10
15.20173451126085
 20
12.17071531373279
 30
0.0
 11
15.18937905444409
 21
12.15049729348718
 31
0.0
  0
LINE
  5
3E4
  8
LAYER_1
 62
     3
 10
15.18937905444409
 20
12.15049729348718
 30
0.0
 11
15.17702359762733
 21
12.13477216662949
 31
0.0
  0
LINE
  5
3E5
  8
LAYER_1
 62
     3
 10
15.17702359762733
 20
12.13477216662949
 30
0.0
 11
15.15882611449959
 21
12.11041710230672
 31
0.0
  0
LINE
  5
3E6
  8
LAYER_1
 62
     3
 10
15.15882611449959
 20
12.11041710230672
 30
0.0
 11
15.13658755713612
 21
12.08310389266849
 31
0.0
  0
LINE
  5
3E7
  8
LAYER_1
 62
     3
 10
15.13658755713612
 20
12.08310389266849
 30
0.0
 11
15.11521776949549
 21
12.05248658360696
 31
0.0
  0
LINE
  5
3E8
  8
LAYER_1
 62
     3
 10
15.11521776949549
 20
12.05248658360696
 30
0.0
 11
15.10289085672677
 21
12.02188822025818
 31
0.0
  0
LINE
  5
3E9
  8
LAYER_1
 62
     3
 10
15.10289085672677
 20
12.02188822025818
 30
0.0
 11
15.08759979225175
 21
11.99978917095507
 31
0.0
  0
LINE
  5
3EA
  8
LAYER_1
 62
     3
 10
15.08759979225175
 20
11.99978917095507
 30
0.0
 11
15.032260641916
 21
11.94529559585701
 31
0.0
  0
LINE
  5
3EB
  8
LAYER_1
 62
     3
 10
15.032260641916
 20
11.94529559585701
 30
0.0
 11
14.65404585872949
 21
11.26850517726242
 31
0.0
  0
LINE
  5
3EC
  8
LAYER_1
 62
     3
 10
14.65404585872949
 20
11.26850517726242
 30
0.0
 11
14.56994846195453
 21
11.13183528285021
 31
0.0
  0
LINE
  5
3ED
  8
LAYER_1
 62
     3
 10
14.56994846195453
 20
11.13183528285021
 30
0.0
 11
14.4880956543671
 21
11.01772959266016
 31
0.0
  0
LINE
  5
3EE
  8
LAYER_1
 62
     3
 10
14.4880956543671
 20
11.01772959266016
 30
0.0
 11
14.43212857146422
 21
10.93755495139535
 31
0.0
  0
LINE
  5
3EF
  8
LAYER_1
 62
     3
 10
14.43212857146422
 20
10.93755495139535
 30
0.0
 11
14.38503755838853
 21
10.89603657633387
 31
0.0
  0
LINE
  5
3F0
  8
LAYER_1
 62
     3
 10
14.38503755838853
 20
10.89603657633387
 30
0.0
 11
14.29403699872262
 21
10.80869021759735
 31
0.0
  0
LINE
  5
3F1
  8
LAYER_1
 62
     3
 10
14.29403699872262
 20
10.80869021759735
 30
0.0
 11
14.20962823456821
 21
10.72350106853634
 31
0.0
  0
LINE
  5
3F2
  8
LAYER_1
 62
     3
 10
14.20962823456821
 20
10.72350106853634
 30
0.0
 11
14.18474559875757
 21
10.70207573901788
 31
0.0
  0
LINE
  5
3F3
  8
LAYER_1
 62
     3
 10
14.18474559875757
 20
10.70207573901788
 30
0.0
 11
14.17291679884195
 21
10.66718030657384
 31
0.0
  0
LINE
  5
3F4
  8
LAYER_1
 62
     3
 10
14.17291679884195
 20
10.66718030657384
 30
0.0
 11
14.16105273573686
 21
10.63246367493368
 31
0.0
  0
LINE
  5
3F5
  8
LAYER_1
 62
     3
 10
14.16105273573686
 20
10.63246367493368
 30
0.0
 11
14.1360859258445
 21
10.61146786962172
 31
0.0
  0
LINE
  5
3F6
  8
LAYER_1
 62
     3
 10
14.1360859258445
 20
10.61146786962172
 30
0.0
 11
14.03781371531274
 21
10.53582665203836
 31
0.0
  0
LINE
  5
3F7
  8
LAYER_1
 62
     3
 10
14.03781371531274
 20
10.53582665203836
 30
0.0
 11
13.98058875588963
 21
10.49056557506682
 31
0.0
  0
LINE
  5
3F8
  8
LAYER_1
 62
     3
 10
13.98058875588963
 20
10.49056557506682
 30
0.0
 11
13.90813325911486
 21
10.45403317342373
 31
0.0
  0
LINE
  5
3F9
  8
LAYER_1
 62
     3
 10
13.90813325911486
 20
10.45403317342373
 30
0.0
 11
13.72202318937931
 21
10.40775241364444
 31
0.0
  0
LINE
  5
3FA
  8
LAYER_1
 62
     3
 10
13.72202318937931
 20
10.40775241364444
 30
0.0
 11
13.48846949368125
 21
10.39818018137619
 31
0.0
  0
LINE
  5
3FB
  8
LAYER_1
 62
     3
 10
13.48846949368125
 20
10.39818018137619
 30
0.0
 11
13.21645819242775
 21
10.42651250647803
 31
0.0
  0
LINE
  5
3FC
  8
LAYER_1
 62
     3
 10
13.21645819242775
 20
10.42651250647803
 30
0.0
 11
13.10862352662221
 21
10.44136419998211
 31
0.0
  0
LINE
  5
3FD
  8
LAYER_1
 62
     3
 10
13.10862352662221
 20
10.44136419998211
 30
0.0
 11
13.02592839761128
 21
10.44093857240384
 31
0.0
  0
LINE
  5
3FE
  8
LAYER_1
 62
     3
 10
13.02592839761128
 20
10.44093857240384
 30
0.0
 11
12.82587541447442
 21
10.38159612472123
 31
0.0
  0
LINE
  5
3FF
  8
LAYER_1
 62
     3
 10
12.82587541447442
 20
10.38159612472123
 30
0.0
 11
12.66367763890473
 21
10.30948685416459
 31
0.0
  0
LINE
  5
400
  8
LAYER_1
 62
     3
 10
12.66367763890473
 20
10.30948685416459
 30
0.0
 11
12.58815691958137
 21
10.2459728853873
 31
0.0
  0
LINE
  5
401
  8
LAYER_1
 62
     3
 10
12.58815691958137
 20
10.2459728853873
 30
0.0
 11
12.40821613680967
 21
10.03797908367802
 31
0.0
  0
LINE
  5
402
  8
LAYER_1
 62
     3
 10
12.40821613680967
 20
10.03797908367802
 30
0.0
 11
12.32286140783285
 21
9.953874500172766
 31
0.0
  0
LINE
  5
403
  8
LAYER_1
 62
     3
 10
12.32286140783285
 20
9.953874500172766
 30
0.0
 11
12.25417809428708
 21
9.902909917230346
 31
0.0
  0
LINE
  5
404
  8
LAYER_1
 62
     3
 10
12.25417809428708
 20
9.902909917230346
 30
0.0
 11
12.17345409756176
 21
9.868721139611647
 31
0.0
  0
LINE
  5
405
  8
LAYER_1
 62
     3
 10
12.17345409756176
 20
9.868721139611647
 30
0.0
 11
12.05197744691787
 21
9.834944224364801
 31
0.0
  0
LINE
  5
406
  8
LAYER_1
 62
     3
 10
12.05197744691787
 20
9.834944224364801
 30
0.0
 11
11.85011662700212
 21
9.768113530310657
 31
0.0
  0
LINE
  5
407
  8
LAYER_1
 62
     3
 10
11.85011662700212
 20
9.768113530310657
 30
0.0
 11
11.67654192733578
 21
9.666446544433825
 31
0.0
  0
LINE
  5
408
  8
LAYER_1
 62
     3
 10
11.67654192733578
 20
9.666446544433825
 30
0.0
 11
11.3970285540245
 21
9.497684484757482
 31
0.0
  0
LINE
  5
409
  8
LAYER_1
 62
     3
 10
11.3970285540245
 20
9.497684484757482
 30
0.0
 11
11.27863052134474
 21
9.424237279682467
 31
0.0
  0
LINE
  5
40A
  8
LAYER_1
 62
     3
 10
11.27863052134474
 20
9.424237279682467
 30
0.0
 11
11.15669746926355
 21
9.32467622350805
 31
0.0
  0
LINE
  5
40B
  8
LAYER_1
 62
     3
 10
11.15669746926355
 20
9.32467622350805
 30
0.0
 11
11.07505211090547
 21
9.254390241459623
 31
0.0
  0
LINE
  5
40C
  8
LAYER_1
 62
     3
 10
11.07505211090547
 20
9.254390241459623
 30
0.0
 11
10.9719535280092
 21
9.195218885996187
 31
0.0
  0
LINE
  5
40D
  8
LAYER_1
 62
     3
 10
10.9719535280092
 20
9.195218885996187
 30
0.0
 11
10.48792010806315
 21
9.00966750462095
 31
0.0
  0
LINE
  5
40E
  8
LAYER_1
 62
     3
 10
10.48792010806315
 20
9.00966750462095
 30
0.0
 11
10.00030179360232
 21
8.822249069813703
 31
0.0
  0
LINE
  5
40F
  8
LAYER_1
 62
     3
 10
10.00030179360232
 20
8.822249069813703
 30
0.0
 11
9.883321864030762
 21
8.757677402343504
 31
0.0
  0
LINE
  5
410
  8
LAYER_1
 62
     3
 10
9.883321864030762
 20
8.757677402343504
 30
0.0
 11
9.779453070661134
 21
8.67920720328992
 31
0.0
  0
LINE
  5
411
  8
LAYER_1
 62
     3
 10
9.779453070661134
 20
8.67920720328992
 30
0.0
 11
9.597811199716077
 21
8.512878295047528
 31
0.0
  0
LINE
  5
412
  8
LAYER_1
 62
     3
 10
9.597811199716077
 20
8.512878295047528
 30
0.0
 11
9.531520671646206
 21
8.464190286476043
 31
0.0
  0
LINE
  5
413
  8
LAYER_1
 62
     3
 10
9.531520671646206
 20
8.464190286476043
 30
0.0
 11
9.427024495211768
 21
8.385104933376715
 31
0.0
  0
LINE
  5
414
  8
LAYER_1
 62
     3
 10
9.427024495211768
 20
8.385104933376715
 30
0.0
 11
9.244300847694532
 21
8.217385580310573
 31
0.0
  0
LINE
  5
415
  8
LAYER_1
 62
     3
 10
9.244300847694532
 20
8.217385580310573
 30
0.0
 11
8.951674413195136
 21
7.92699576030282
 31
0.0
  0
LINE
  5
416
  8
LAYER_1
 62
     3
 10
8.951674413195136
 20
7.92699576030282
 30
0.0
 11
8.852596715176588
 21
7.784812845424318
 31
0.0
  0
LINE
  5
417
  8
LAYER_1
 62
     3
 10
8.852596715176588
 20
7.784812845424318
 30
0.0
 11
8.675016340442582
 21
7.507869423709744
 31
0.0
  0
LINE
  5
418
  8
LAYER_1
 62
     3
 10
8.675016340442582
 20
7.507869423709744
 30
0.0
 11
8.529846405147254
 21
7.334715575444097
 31
0.0
  0
LINE
  5
419
  8
LAYER_1
 62
     3
 10
8.529846405147254
 20
7.334715575444097
 30
0.0
 11
8.432432859413652
 21
7.260248896648701
 31
0.0
  0
LINE
  5
41A
  8
LAYER_1
 62
     3
 10
8.432432859413652
 20
7.260248896648701
 30
0.0
 11
8.253338059686399
 21
7.101595136421253
 31
0.0
  0
LINE
  5
41B
  8
LAYER_1
 62
     3
 10
8.253338059686399
 20
7.101595136421253
 30
0.0
 11
8.092445759981132
 21
6.974515533550738
 31
0.0
  0
LINE
  5
41C
  8
LAYER_1
 62
     3
 10
8.092445759981132
 20
6.974515533550738
 30
0.0
 11
7.81116279905541
 21
6.780588824131661
 31
0.0
  0
LINE
  5
41D
  8
LAYER_1
 62
     3
 10
7.81116279905541
 20
6.780588824131661
 30
0.0
 11
7.50851161538273
 21
6.579668772958033
 31
0.0
  0
LINE
  5
41E
  8
LAYER_1
 62
     3
 10
7.50851161538273
 20
6.579668772958033
 30
0.0
 11
7.310808661946908
 21
6.428470461761199
 31
0.0
  0
LINE
  5
41F
  8
LAYER_1
 62
     3
 10
7.310808661946908
 20
6.428470461761199
 30
0.0
 11
7.093567770923201
 21
6.25068867195562
 31
0.0
  0
LINE
  5
420
  8
LAYER_1
 62
     3
 10
7.093567770923201
 20
6.25068867195562
 30
0.0
 11
6.862115024846602
 21
6.057694986406066
 31
0.0
  0
LINE
  5
421
  8
LAYER_1
 62
     3
 10
6.862115024846602
 20
6.057694986406066
 30
0.0
 11
6.665801270350301
 21
5.896390578953682
 31
0.0
  0
LINE
  5
422
  8
LAYER_1
 62
     3
 10
6.665801270350301
 20
5.896390578953682
 30
0.0
 11
6.442848751780247
 21
5.707000968660953
 31
0.0
  0
LINE
  5
423
  8
LAYER_1
 62
     3
 10
6.442848751780247
 20
5.707000968660953
 30
0.0
 11
6.210401733059143
 21
5.51450385697135
 31
0.0
  0
LINE
  5
424
  8
LAYER_1
 62
     3
 10
6.210401733059143
 20
5.51450385697135
 30
0.0
 11
5.983867159069746
 21
5.338494801458703
 31
0.0
  0
LINE
  5
425
  8
LAYER_1
 62
     3
 10
5.983867159069746
 20
5.338494801458703
 30
0.0
 11
5.754948951064819
 21
5.161282035150217
 31
0.0
  0
LINE
  5
426
  8
LAYER_1
 62
     3
 10
5.754948951064819
 20
5.161282035150217
 30
0.0
 11
5.620792224612856
 21
5.079778019853176
 31
0.0
  0
LINE
  5
427
  8
LAYER_1
 62
     3
 10
5.620792224612856
 20
5.079778019853176
 30
0.0
 11
5.447715952944861
 21
4.947569517660014
 31
0.0
  0
LINE
  5
428
  8
LAYER_1
 62
     3
 10
5.447715952944861
 20
4.947569517660014
 30
0.0
 11
5.303304531326234
 21
4.829126195965063
 31
0.0
  0
LINE
  5
429
  8
LAYER_1
 62
     3
 10
5.303304531326234
 20
4.829126195965063
 30
0.0
 11
5.22710240490926
 21
4.785214933476002
 31
0.0
  0
LINE
  5
42A
  8
LAYER_1
 62
     3
 10
5.22710240490926
 20
4.785214933476002
 30
0.0
 11
5.066237431713432
 21
4.674675468545113
 31
0.0
  0
LINE
  5
42B
  8
LAYER_1
 62
     3
 10
5.066237431713432
 20
4.674675468545113
 30
0.0
 11
4.823624077446878
 21
4.522736372412608
 31
0.0
  0
LINE
  5
42C
  8
LAYER_1
 62
     3
 10
4.823624077446878
 20
4.522736372412608
 30
0.0
 11
4.609252652009441
 21
4.392249417798516
 31
0.0
  0
LINE
  5
42D
  8
LAYER_1
 62
     3
 10
4.609252652009441
 20
4.392249417798516
 30
0.0
 11
4.223125728789427
 21
4.152608054051978
 31
0.0
  0
LINE
  5
42E
  8
LAYER_1
 62
     3
 10
4.223125728789427
 20
4.152608054051978
 30
0.0
 11
3.750112863392531
 21
3.893719248838099
 31
0.0
  0
LINE
  5
42F
  8
LAYER_1
 62
     3
 10
3.750112863392531
 20
3.893719248838099
 30
0.0
 11
3.576991591284482
 21
3.795706349843016
 31
0.0
  0
LINE
  5
430
  8
LAYER_1
 62
     3
 10
3.576991591284482
 20
3.795706349843016
 30
0.0
 11
3.406908570208164
 21
3.702532657695458
 31
0.0
  0
LINE
  5
431
  8
LAYER_1
 62
     3
 10
3.406908570208164
 20
3.702532657695458
 30
0.0
 11
3.276421615594072
 21
3.627968683630263
 31
0.0
  0
LINE
  5
432
  8
LAYER_1
 62
     3
 10
3.276421615594072
 20
3.627968683630263
 30
0.0
 11
3.062050190156635
 21
3.525443219290619
 31
0.0
  0
LINE
  5
433
  8
LAYER_1
 62
     3
 10
3.062050190156635
 20
3.525443219290619
 30
0.0
 11
1.725368444179239
 21
2.983320032247898
 31
0.0
  0
LINE
  5
434
  8
LAYER_1
 62
     3
 10
1.725368444179239
 20
2.983320032247898
 30
0.0
 11
0.577012295336246
 21
2.545200739972653
 31
0.0
  0
LINE
  5
435
  8
LAYER_1
 62
     3
 10
0.577012295336246
 20
2.545200739972653
 30
0.0
 11
0.4597532289438959
 21
2.47588397982841
 31
0.0
  0
LINE
  5
436
  8
LAYER_1
 62
     3
 10
0.4597532289438959
 20
2.47588397982841
 30
0.0
 11
0.3717862712500875
 21
2.398997636598326
 31
0.0
  0
LINE
  5
437
  8
LAYER_1
 62
     3
 10
0.3717862712500875
 20
2.398997636598326
 30
0.0
 11
0.3209321641979415
 21
2.323146382977447
 31
0.0
  0
LINE
  5
438
  8
LAYER_1
 62
     3
 10
0.3209321641979415
 20
2.323146382977447
 30
0.0
 11
0.3150114924830803
 21
2.256935050636335
 31
0.0
  0
LINE
  5
439
  8
LAYER_1
 62
     3
 10
0.3150114924830803
 20
2.256935050636335
 30
0.0
 11
0.3404591255629867
 21
2.212495109872307
 31
0.0
  0
LINE
  5
43A
  8
LAYER_1
 62
     3
 10
0.3404591255629867
 20
2.212495109872307
 30
0.0
 11
0.3722768558801306
 21
2.19537674686338
 31
0.0
  0
LINE
  5
43B
  8
LAYER_1
 62
     3
 10
0.3722768558801306
 20
2.19537674686338
 30
0.0
 11
0.9813443527798142
 21
2.272077401502388
 31
0.0
  0
LINE
  5
43C
  8
LAYER_1
 62
     3
 10
0.9813443527798142
 20
2.272077401502388
 30
0.0
 11
1.597650359333443
 21
2.375481587187499
 31
0.0
  0
LINE
  5
43D
  8
LAYER_1
 62
     3
 10
1.597650359333443
 20
2.375481587187499
 30
0.0
 11
2.195851279842827
 21
2.498454446303649
 31
0.0
  0
LINE
  5
43E
  8
LAYER_1
 62
     3
 10
2.195851279842827
 20
2.498454446303649
 30
0.0
 11
2.686760173291489
 21
2.600928704685876
 31
0.0
  0
LINE
  5
43F
  8
LAYER_1
 62
     3
 10
2.686760173291489
 20
2.600928704685876
 30
0.0
 11
3.203032219883241
 21
2.728879609180368
 31
0.0
  0
LINE
  5
440
  8
LAYER_1
 62
     3
 10
3.203032219883241
 20
2.728879609180368
 30
0.0
 11
3.751929184625794
 21
2.884238555104773
 31
0.0
  0
LINE
  5
441
  8
LAYER_1
 62
     3
 10
3.751929184625794
 20
2.884238555104773
 30
0.0
 11
4.310996755748659
 21
3.087379871657596
 31
0.0
  0
LINE
  5
442
  8
LAYER_1
 62
     3
 10
4.310996755748659
 20
3.087379871657596
 30
0.0
 11
4.814303580688728
 21
3.273789806820584
 31
0.0
  0
LINE
  5
443
  8
LAYER_1
 62
     3
 10
4.814303580688728
 20
3.273789806820584
 30
0.0
 11
5.121879973707659
 21
3.413597258192826
 31
0.0
  0
LINE
  5
444
  8
LAYER_1
 62
     3
 10
5.121879973707659
 20
3.413597258192826
 30
0.0
 11
5.354892392661395
 21
3.525443219290619
 31
0.0
  0
LINE
  5
445
  8
LAYER_1
 62
     3
 10
5.354892392661395
 20
3.525443219290619
 30
0.0
 11
5.625186798647729
 21
3.66525067066286
 31
0.0
  0
LINE
  5
446
  8
LAYER_1
 62
     3
 10
5.625186798647729
 20
3.66525067066286
 30
0.0
 11
5.938761095325944
 21
3.810095037513737
 31
0.0
  0
LINE
  5
447
  8
LAYER_1
 62
     3
 10
5.938761095325944
 20
3.810095037513737
 30
0.0
 11
6.380363185272358
 21
4.044694966659341
 31
0.0
  0
LINE
  5
448
  8
LAYER_1
 62
     3
 10
6.380363185272358
 20
4.044694966659341
 30
0.0
 11
6.695347458217313
 21
4.212765983943177
 31
0.0
  0
LINE
  5
449
  8
LAYER_1
 62
     3
 10
6.695347458217313
 20
4.212765983943177
 30
0.0
 11
7.018674527976373
 21
4.358935667898464
 31
0.0
  0
LINE
  5
44A
  8
LAYER_1
 62
     3
 10
7.018674527976373
 20
4.358935667898464
 30
0.0
 11
7.372209308660118
 21
4.492231657686546
 31
0.0
  0
LINE
  5
44B
  8
LAYER_1
 62
     3
 10
7.372209308660118
 20
4.492231657686546
 30
0.0
 11
7.777816462091877
 21
4.621681720340387
 31
0.0
  0
LINE
  5
44C
  8
LAYER_1
 62
     3
 10
7.777816462091877
 20
4.621681720340387
 30
0.0
 11
8.104830046282729
 21
4.71455310565093
 31
0.0
  0
LINE
  5
44D
  8
LAYER_1
 62
     3
 10
8.104830046282729
 20
4.71455310565093
 30
0.0
 11
8.327668695180762
 21
4.761316003621781
 31
0.0
  0
LINE
  5
44E
  8
LAYER_1
 62
     3
 10
8.327668695180762
 20
4.761316003621781
 30
0.0
 11
8.506566322063634
 21
4.770333549565617
 31
0.0
  0
LINE
  5
44F
  8
LAYER_1
 62
     3
 10
8.506566322063634
 20
4.770333549565617
 30
0.0
 11
8.701756494610038
 21
4.749969291785877
 31
0.0
  0
LINE
  5
450
  8
LAYER_1
 62
     3
 10
8.701756494610038
 20
4.749969291785877
 30
0.0
 11
8.83338950542165
 21
4.743008315373563
 31
0.0
  0
LINE
  5
451
  8
LAYER_1
 62
     3
 10
8.83338950542165
 20
4.743008315373563
 30
0.0
 11
8.985636083915878
 21
4.70600392405226
 31
0.0
  0
LINE
  5
452
  8
LAYER_1
 62
     3
 10
8.985636083915878
 20
4.70600392405226
 30
0.0
 11
9.119923467509153
 21
4.678321729338506
 31
0.0
  0
LINE
  5
453
  8
LAYER_1
 62
     3
 10
9.119923467509153
 20
4.678321729338506
 30
0.0
 11
9.266166707018243
 21
4.678502558808257
 31
0.0
  0
LINE
  5
454
  8
LAYER_1
 62
     3
 10
9.266166707018243
 20
4.678502558808257
 30
0.0
 11
9.420923661033143
 21
4.687174573187878
 31
0.0
  0
LINE
  5
455
  8
LAYER_1
 62
     3
 10
9.420923661033143
 20
4.687174573187878
 30
0.0
 11
9.555323618302367
 21
4.677697520600114
 31
0.0
  0
LINE
  5
456
  8
LAYER_1
 62
     3
 10
9.555323618302367
 20
4.677697520600114
 30
0.0
 11
9.65346073247423
 21
4.652446892749094
 31
0.0
  0
LINE
  5
457
  8
LAYER_1
 62
     3
 10
9.65346073247423
 20
4.652446892749094
 30
0.0
 11
9.69942899994949
 21
4.613798340314466
 31
0.0
  0
LINE
  5
458
  8
LAYER_1
 62
     3
 10
9.69942899994949
 20
4.613798340314466
 30
0.0
 11
9.70262596136412
 21
4.577376281506057
 31
0.0
  0
LINE
  5
459
  8
LAYER_1
 62
     3
 10
9.70262596136412
 20
4.577376281506057
 30
0.0
 11
9.688289602559337
 21
4.557100160100072
 31
0.0
  0
LINE
  5
45A
  8
LAYER_1
 62
     3
 10
9.688289602559337
 20
4.557100160100072
 30
0.0
 11
9.673835505102204
 21
4.537407561795382
 31
0.0
  0
LINE
  5
45B
  8
LAYER_1
 62
     3
 10
9.673835505102204
 20
4.537407561795382
 30
0.0
 11
9.67674954538748
 21
4.502388180285772
 31
0.0
  0
LINE
  5
45C
  8
LAYER_1
 62
     3
 10
9.67674954538748
 20
4.502388180285772
 30
0.0
 11
9.703568034742318
 21
4.258802004365776
 31
0.0
  0
LINE
  5
45D
  8
LAYER_1
 62
     3
 10
9.703568034742318
 20
4.258802004365776
 30
0.0
 11
9.705651497056593
 21
4.125924749184785
 31
0.0
  0
LINE
  5
45E
  8
LAYER_1
 62
     3
 10
9.705651497056593
 20
4.125924749184785
 30
0.0
 11
9.696585266587817
 21
4.065015419771408
 31
0.0
  0
LINE
  5
45F
  8
LAYER_1
 62
     3
 10
9.696585266587817
 20
4.065015419771408
 30
0.0
 11
9.676915488182203
 21
3.956747027276075
 31
0.0
  0
LINE
  5
460
  8
LAYER_1
 62
     3
 10
9.676915488182203
 20
3.956747027276075
 30
0.0
 11
9.655713026790508
 21
3.842981117883614
 31
0.0
  0
LINE
  5
461
  8
LAYER_1
 62
     3
 10
9.655713026790508
 20
3.842981117883614
 30
0.0
 11
9.605956002888291
 21
3.712854801016599
 31
0.0
  0
LINE
  5
462
  8
LAYER_1
 62
     3
 10
9.605956002888291
 20
3.712854801016599
 30
0.0
 11
9.543766540381938
 21
3.546933474902986
 31
0.0
  0
LINE
  5
463
  8
LAYER_1
 62
     3
 10
9.543766540381938
 20
3.546933474902986
 30
0.0
 11
9.541366780719116
 21
3.527269464543934
 31
0.0
  0
LINE
  5
464
  8
LAYER_1
 62
     3
 10
9.541366780719116
 20
3.527269464543934
 30
0.0
 11
9.524500658292226
 21
3.513897556649734
 31
0.0
  0
LINE
  5
465
  8
LAYER_1
 62
     3
 10
9.524500658292226
 20
3.513897556649734
 30
0.0
 11
9.449101919848388
 21
3.418099442388243
 31
0.0
  0
LINE
  5
466
  8
LAYER_1
 62
     3
 10
9.449101919848388
 20
3.418099442388243
 30
0.0
 11
9.291615827901666
 21
3.146622058689882
 31
0.0
  0
LINE
  5
467
  8
LAYER_1
 62
     3
 10
9.291615827901666
 20
3.146622058689882
 30
0.0
 11
9.240648540647413
 21
3.031262475007585
 31
0.0
  0
LINE
  5
468
  8
LAYER_1
 62
     3
 10
9.240648540647413
 20
3.031262475007585
 30
0.0
 11
9.23383194511095
 21
2.968782775041982
 31
0.0
  0
LINE
  5
469
  8
LAYER_1
 62
     3
 10
9.23383194511095
 20
2.968782775041982
 30
0.0
 11
9.241963257827919
 21
2.888891599224881
 31
0.0
  0
LINE
  5
46A
  8
LAYER_1
 62
     3
 10
9.241963257827919
 20
2.888891599224881
 30
0.0
 11
9.310579039609678
 21
2.634238881630648
 31
0.0
  0
LINE
  5
46B
  8
LAYER_1
 62
     3
 10
9.310579039609678
 20
2.634238881630648
 30
0.0
 11
9.461515011822982
 21
2.182034214880442
 31
0.0
  0
LINE
  5
46C
  8
LAYER_1
 62
     3
 10
9.461515011822982
 20
2.182034214880442
 30
0.0
 11
9.649168713119536
 21
1.60522968516093
 31
0.0
  0
LINE
  5
46D
  8
LAYER_1
 62
     3
 10
9.649168713119536
 20
1.60522968516093
 30
0.0
 11
9.75692014832849
 21
1.227952456646264
 31
0.0
  0
LINE
  5
46E
  8
LAYER_1
 62
     3
 10
9.75692014832849
 20
1.227952456646264
 30
0.0
 11
9.808745250207466
 21
1.021558031609601
 31
0.0
  0
LINE
  5
46F
  8
LAYER_1
 62
     3
 10
9.808745250207466
 20
1.021558031609601
 30
0.0
 11
9.863042015340042
 21
0.8945775499756614
 31
0.0
  0
LINE
  5
470
  8
LAYER_1
 62
     3
 10
9.863042015340042
 20
0.8945775499756614
 30
0.0
 11
9.931724392312631
 21
0.8282870530096913
 31
0.0
  0
LINE
  5
471
  8
LAYER_1
 62
     3
 10
9.931647745679115
 20
0.8267860058270991
 30
0.0
 11
10.01376766441594
 21
0.7732175654731206
 31
0.0
  0
LINE
  5
472
  8
LAYER_1
 62
     3
 10
10.01376766441594
 20
0.7732175654731206
 30
0.0
 11
10.1089634236955
 21
0.7122144169338123
 31
0.0
  0
LINE
  5
473
  8
LAYER_1
 62
     3
 10
10.1089634236955
 20
0.7122144169338123
 30
0.0
 11
10.16589779936564
 21
0.6195143835516115
 31
0.0
  0
LINE
  5
474
  8
LAYER_1
 62
     3
 10
10.16589779936564
 20
0.6195143835516115
 30
0.0
 11
10.23364505414116
 21
0.4237403777509741
 31
0.0
  0
LINE
  5
475
  8
LAYER_1
 62
     3
 10
10.23364505414116
 20
0.4237403777509741
 30
0.0
 11
10.38118611611832
 21
0.2624087384737486
 31
0.0
  0
LINE
  5
476
  8
LAYER_1
 62
     3
 10
10.38118611611832
 20
0.2624087384737486
 30
0.0
 11
10.47836656873703
 21
0.1479597538149644
 31
0.0
  0
LINE
  5
477
  8
LAYER_1
 62
     3
 10
10.47836656873703
 20
0.1479597538149644
 30
0.0
 11
11.07142760864306
 21
0.1493475183511599
 31
0.0
  0
LINE
  5
478
  8
LAYER_1
 62
     3
 10
11.07142760864306
 20
0.1493475183511599
 30
0.0
 11
11.70755228285123
 21
0.1479597538149644
 31
0.0
  0
LINE
  5
479
  8
LAYER_1
 62
     3
 10
11.71363317759274
 20
0.1594341099995456
 30
0.0
 11
11.71363317759274
 21
0.1594341099995456
 31
0.0
  0
ENDSEC
  0
EOF
