999
\"DXF R12 Output\" (www.mydxf.blogspot.com)
 0 
SECTION
 2 
HEADER
 9 
$ACADVER
 1 
AC1009
 9 
$EXTMIN
 10 
 0 
 20 
 0 
 9 
$EXTMAX
 10 
 8.5 
 20 
 11 
 0 
ENDSEC
 0 
SECTION
 2 
ENTITIES
0
LINE
8
Layer 1
10
152.858611
20
291.359167
11
146.358586
21
291.170416
0
LINE
8
Layer 1
10
146.358586
20
291.170416
11
139.841111
21
290.671250
0
LINE
8
Layer 1
10
139.841111
20
290.671250
11
133.416193
21
289.897378
0
LINE
8
Layer 1
10
133.416193
20
289.897378
11
126.938264
21
288.863264
0
LINE
8
Layer 1
10
126.938264
20
288.863264
11
122.012729
21
287.704640
0
LINE
8
Layer 1
10
122.012729
20
287.704640
11
115.975056
21
286.031453
0
LINE
8
Layer 1
10
115.975056
20
286.031453
11
113.198937
21
285.131125
0
LINE
8
Layer 1
10
113.198937
20
285.131125
11
110.936505
21
284.257228
0
LINE
8
Layer 1
10
110.936505
20
284.257228
11
109.451668
21
283.461451
0
LINE
8
Layer 1
10
109.451668
20
283.461451
11
109.083319
21
283.109012
0
LINE
8
Layer 1
10
109.083319
20
283.109012
11
109.008333
21
282.795486
0
LINE
8
Layer 1
10
109.008333
20
282.795486
11
113.638542
21
266.408958
0
LINE
8
Layer 1
10
113.638542
20
266.408958
11
109.237470
21
264.876547
0
LINE
8
Layer 1
10
109.237470
20
264.876547
11
104.914390
21
263.185616
0
LINE
8
Layer 1
10
104.914390
20
263.185616
11
100.673750
21
261.340262
0
LINE
8
Layer 1
10
100.673750
20
261.340262
11
96.520000
21
259.344583
0
LINE
8
Layer 1
10
96.520000
20
259.344583
11
92.407901
21
257.175610
0
LINE
8
Layer 1
10
92.407901
20
257.175610
11
88.392373
21
254.860391
0
LINE
8
Layer 1
10
88.392373
20
254.860391
11
84.476318
21
252.401608
0
LINE
8
Layer 1
10
84.476318
20
252.401608
11
80.662639
21
249.801944
0
LINE
8
Layer 1
10
80.662639
20
249.801944
11
76.927378
21
247.043564
0
LINE
8
Layer 1
10
76.927378
20
247.043564
11
73.303869
21
244.149834
0
LINE
8
Layer 1
10
73.303869
20
244.149834
11
69.796689
21
241.125440
0
LINE
8
Layer 1
10
69.796689
20
241.125440
11
66.410417
21
237.975069
0
LINE
8
Layer 1
10
66.410417
20
237.975069
11
63.139434
21
234.691903
0
LINE
8
Layer 1
10
63.139434
20
234.691903
11
59.998046
21
231.288737
0
LINE
8
Layer 1
10
59.998046
20
231.288737
11
56.989266
21
227.769311
0
LINE
8
Layer 1
10
56.989266
20
227.769311
11
54.116111
21
224.137361
0
LINE
8
Layer 1
10
54.116111
20
224.137361
11
51.385523
21
220.402724
0
LINE
8
Layer 1
10
51.385523
20
220.402724
11
48.797915
21
216.564502
0
LINE
8
Layer 1
10
48.797915
20
216.564502
11
46.358068
21
212.625540
0
LINE
8
Layer 1
10
46.358068
20
212.625540
11
44.070764
21
208.588681
0
LINE
8
Layer 1
10
44.070764
20
208.588681
11
41.954541
21
204.486338
0
LINE
8
Layer 1
10
41.954541
20
204.486338
11
39.996176
21
200.295266
0
LINE
8
Layer 1
10
39.996176
20
200.295266
11
38.198768
21
196.019772
0
LINE
8
Layer 1
10
38.198768
20
196.019772
11
36.565417
21
191.664167
0
LINE
8
Layer 1
10
36.565417
20
191.664167
11
22.004514
21
195.774028
0
LINE
8
Layer 1
10
22.004514
20
195.774028
11
21.925139
21
195.782847
0
LINE
8
Layer 1
10
21.925139
20
195.782847
11
21.606703
21
195.636096
0
LINE
8
Layer 1
10
21.606703
20
195.636096
11
21.252128
21
195.212603
0
LINE
8
Layer 1
10
21.252128
20
195.212603
11
20.459159
21
193.661237
0
LINE
8
Layer 1
10
20.459159
20
193.661237
11
18.710095
21
188.621899
0
LINE
8
Layer 1
10
18.710095
20
188.621899
11
17.071453
21
182.678348
0
LINE
8
Layer 1
10
17.071453
20
182.678348
11
15.936736
21
177.844097
0
LINE
8
Layer 1
10
15.936736
20
177.844097
11
14.805768
21
171.606570
0
LINE
8
Layer 1
10
14.805768
20
171.606570
11
14.022917
21
165.417500
0
LINE
8
Layer 1
10
14.022917
20
165.417500
11
13.568719
21
159.128500
0
LINE
8
Layer 1
10
13.568719
20
159.128500
11
13.440833
21
152.858611
0
LINE
8
Layer 1
10
13.440833
20
152.858611
11
13.629585
21
146.358587
0
LINE
8
Layer 1
10
13.629585
20
146.358587
11
14.128750
21
139.841111
0
LINE
8
Layer 1
10
14.128750
20
139.841111
11
14.902620
21
133.416200
0
LINE
8
Layer 1
10
14.902620
20
133.416200
11
15.936736
21
126.938264
0
LINE
8
Layer 1
10
15.936736
20
126.938264
11
17.095361
21
122.012744
0
LINE
8
Layer 1
10
17.095361
20
122.012744
11
18.768547
21
115.975070
0
LINE
8
Layer 1
10
18.768547
20
115.975070
11
19.668875
21
113.198946
0
LINE
8
Layer 1
10
19.668875
20
113.198946
11
20.542772
21
110.936510
0
LINE
8
Layer 1
10
20.542772
20
110.936510
11
21.338549
21
109.451669
0
LINE
8
Layer 1
10
21.338549
20
109.451669
11
21.690988
21
109.083319
0
LINE
8
Layer 1
10
21.690988
20
109.083319
11
22.004514
21
109.008333
0
LINE
8
Layer 1
10
22.004514
20
109.008333
11
36.574236
21
113.118194
0
LINE
8
Layer 1
10
36.574236
20
113.118194
11
38.209261
21
108.764114
0
LINE
8
Layer 1
10
38.209261
20
108.764114
11
40.009498
21
104.491537
0
LINE
8
Layer 1
10
40.009498
20
104.491537
11
41.970646
21
100.303364
0
LINE
8
Layer 1
10
41.970646
20
100.303364
11
44.088403
21
96.202500
0
LINE
8
Layer 1
10
44.088403
20
96.202500
11
46.374556
21
92.164356
0
LINE
8
Layer 1
10
46.374556
20
92.164356
11
48.811208
21
88.222273
0
LINE
8
Layer 1
10
48.811208
20
88.222273
11
51.395589
21
84.380928
0
LINE
8
Layer 1
10
51.395589
20
84.380928
11
54.124931
21
80.645000
0
LINE
8
Layer 1
10
54.124931
20
80.645000
11
56.999611
21
77.013171
0
LINE
8
Layer 1
10
56.999611
20
77.013171
11
60.011329
21
73.493614
0
LINE
8
Layer 1
10
60.011329
20
73.493614
11
63.155629
21
70.090323
0
LINE
8
Layer 1
10
63.155629
20
70.090323
11
66.428056
21
66.807292
0
LINE
8
Layer 1
10
66.428056
20
66.807292
11
69.814430
21
63.658416
0
LINE
8
Layer 1
10
69.814430
20
63.658416
11
73.321537
21
60.636906
0
LINE
8
Layer 1
10
73.321537
20
60.636906
11
76.944958
21
57.746075
0
LINE
8
Layer 1
10
76.944958
20
57.746075
11
80.680278
21
54.989236
0
LINE
8
Layer 1
10
80.680278
20
54.989236
11
84.494048
21
52.388301
0
LINE
8
Layer 1
10
84.494048
20
52.388301
11
88.410010
21
49.926312
0
LINE
8
Layer 1
10
88.410010
20
49.926312
11
92.425446
21
47.607921
0
LINE
8
Layer 1
10
92.425446
20
47.607921
11
96.537639
21
45.437778
0
LINE
8
Layer 1
10
96.537639
20
45.437778
11
100.691519
21
43.443593
0
LINE
8
Layer 1
10
100.691519
20
43.443593
11
104.931999
21
41.601047
0
LINE
8
Layer 1
10
104.931999
20
41.601047
11
109.254935
21
39.912978
0
LINE
8
Layer 1
10
109.254935
20
39.912978
11
113.656181
21
38.382222
0
LINE
8
Layer 1
10
113.656181
20
38.382222
11
109.034792
21
22.004528
0
LINE
8
Layer 1
10
109.034792
20
22.004528
11
109.109776
21
21.690993
0
LINE
8
Layer 1
10
109.109776
20
21.690993
11
109.478124
21
21.338548
0
LINE
8
Layer 1
10
109.478124
20
21.338548
11
110.962961
21
20.542766
0
LINE
8
Layer 1
10
110.962961
20
20.542766
11
113.225394
21
19.668871
0
LINE
8
Layer 1
10
113.225394
20
19.668871
11
116.001515
21
18.768550
0
LINE
8
Layer 1
10
116.001515
20
18.768550
11
122.039190
21
17.095379
0
LINE
8
Layer 1
10
122.039190
20
17.095379
11
126.964722
21
15.936750
0
LINE
8
Layer 1
10
126.964722
20
15.936750
11
133.202253
21
14.805759
0
LINE
8
Layer 1
10
133.202253
20
14.805759
11
139.391319
21
14.022917
0
LINE
8
Layer 1
10
139.391319
20
14.022917
11
145.680320
21
13.568722
0
LINE
8
Layer 1
10
145.680320
20
13.568722
11
151.950208
21
13.440833
0
LINE
8
Layer 1
10
151.950208
20
13.440833
11
158.450239
21
13.629587
0
LINE
8
Layer 1
10
158.450239
20
13.629587
11
164.967708
21
14.128750
0
LINE
8
Layer 1
10
164.967708
20
14.128750
11
171.392628
21
14.902617
0
LINE
8
Layer 1
10
171.392628
20
14.902617
11
177.870556
21
15.936750
0
LINE
8
Layer 1
10
177.870556
20
15.936750
11
182.796087
21
17.095355
0
LINE
8
Layer 1
10
182.796087
20
17.095355
11
188.833760
21
18.768550
0
LINE
8
Layer 1
10
188.833760
20
18.768550
11
191.609881
21
19.668886
0
LINE
8
Layer 1
10
191.609881
20
19.668886
11
193.872313
21
20.542790
0
LINE
8
Layer 1
10
193.872313
20
20.542790
11
195.357151
21
21.338568
0
LINE
8
Layer 1
10
195.357151
20
21.338568
11
195.725501
21
21.691006
0
LINE
8
Layer 1
10
195.725501
20
21.691006
11
195.800486
21
22.004528
0
LINE
8
Layer 1
10
195.800486
20
22.004528
11
191.170278
21
38.391042
0
LINE
8
Layer 1
10
191.170278
20
38.391042
11
195.569841
21
39.923534
0
LINE
8
Layer 1
10
195.569841
20
39.923534
11
199.890030
21
41.614384
0
LINE
8
Layer 1
10
199.890030
20
41.614384
11
204.127774
21
43.459657
0
LINE
8
Layer 1
10
204.127774
20
43.459657
11
208.280000
21
45.455417
0
LINE
8
Layer 1
10
208.280000
20
45.455417
11
212.393282
21
47.624461
0
LINE
8
Layer 1
10
212.393282
20
47.624461
11
216.412022
21
49.939637
0
LINE
8
Layer 1
10
216.412022
20
49.939637
11
220.331296
21
52.398363
0
LINE
8
Layer 1
10
220.331296
20
52.398363
11
224.146181
21
54.998056
0
LINE
8
Layer 1
10
224.146181
20
54.998056
11
227.879872
21
57.756488
0
LINE
8
Layer 1
10
227.879872
20
57.756488
11
231.500514
21
60.650204
0
LINE
8
Layer 1
10
231.500514
20
60.650204
11
235.004840
21
63.674565
0
LINE
8
Layer 1
10
235.004840
20
63.674565
11
238.389583
21
66.824931
0
LINE
8
Layer 1
10
238.389583
20
66.824931
11
241.660392
21
70.108126
0
LINE
8
Layer 1
10
241.660392
20
70.108126
11
244.801918
21
73.511314
0
LINE
8
Layer 1
10
244.801918
20
73.511314
11
247.810854
21
77.030737
0
LINE
8
Layer 1
10
247.810854
20
77.030737
11
250.683889
21
80.662639
0
LINE
8
Layer 1
10
250.683889
20
80.662639
11
253.414326
21
84.397269
0
LINE
8
Layer 1
10
253.414326
20
84.397269
11
256.002034
21
88.235558
0
LINE
8
Layer 1
10
256.002034
20
88.235558
11
258.442007
21
92.174557
0
LINE
8
Layer 1
10
258.442007
20
92.174557
11
260.729236
21
96.211319
0
LINE
8
Layer 1
10
260.729236
20
96.211319
11
262.845342
21
100.313611
0
LINE
8
Layer 1
10
262.845342
20
100.313611
11
264.803759
21
104.504803
0
LINE
8
Layer 1
10
264.803759
20
104.504803
11
266.601253
21
108.780382
0
LINE
8
Layer 1
10
266.601253
20
108.780382
11
268.234583
21
113.135833
0
LINE
8
Layer 1
10
268.234583
20
113.135833
11
282.804306
21
109.025972
0
LINE
8
Layer 1
10
282.804306
20
109.025972
11
282.883695
21
109.017153
0
LINE
8
Layer 1
10
282.883695
20
109.017153
11
283.202121
21
109.163909
0
LINE
8
Layer 1
10
283.202121
20
109.163909
11
283.556688
21
109.587407
0
LINE
8
Layer 1
10
283.556688
20
109.587407
11
284.349645
21
111.138779
0
LINE
8
Layer 1
10
284.349645
20
111.138779
11
286.098700
21
116.178122
0
LINE
8
Layer 1
10
286.098700
20
116.178122
11
287.737349
21
122.121668
0
LINE
8
Layer 1
10
287.737349
20
122.121668
11
288.872083
21
126.955903
0
LINE
8
Layer 1
10
288.872083
20
126.955903
11
289.999441
21
133.193436
0
LINE
8
Layer 1
10
289.999441
20
133.193436
11
290.777083
21
139.382500
0
LINE
8
Layer 1
10
290.777083
20
139.382500
11
291.230473
21
145.671497
0
LINE
8
Layer 1
10
291.230473
20
145.671497
11
291.359167
21
151.941389
0
LINE
8
Layer 1
10
291.359167
20
151.941389
11
291.169566
21
158.437002
0
LINE
8
Layer 1
10
291.169566
20
158.437002
11
290.671250
21
164.950069
0
LINE
8
Layer 1
10
290.671250
20
164.950069
11
289.902614
21
171.379396
0
LINE
8
Layer 1
10
289.902614
20
171.379396
11
288.872083
21
177.861736
0
LINE
8
Layer 1
10
288.872083
20
177.861736
11
287.713443
21
182.787268
0
LINE
8
Layer 1
10
287.713443
20
182.787268
11
286.040251
21
188.824941
0
LINE
8
Layer 1
10
286.040251
20
188.824941
11
285.139925
21
191.601061
0
LINE
8
Layer 1
10
285.139925
20
191.601061
11
284.266031
21
193.863494
0
LINE
8
Layer 1
10
284.266031
20
193.863494
11
283.470262
21
195.348332
0
LINE
8
Layer 1
10
283.470262
20
195.348332
11
283.117826
21
195.716681
0
LINE
8
Layer 1
10
283.117826
20
195.716681
11
282.804306
21
195.791667
0
LINE
8
Layer 1
10
282.804306
20
195.791667
11
268.225764
21
191.672986
0
LINE
8
Layer 1
10
268.225764
20
191.672986
11
266.590836
21
196.028469
0
LINE
8
Layer 1
10
266.590836
20
196.028469
11
264.790456
21
200.303978
0
LINE
8
Layer 1
10
264.790456
20
200.303978
11
262.829189
21
204.495120
0
LINE
8
Layer 1
10
262.829189
20
204.495120
11
260.711597
21
208.597500
0
LINE
8
Layer 1
10
260.711597
20
208.597500
11
258.425594
21
212.634325
0
LINE
8
Layer 1
10
258.425594
20
212.634325
11
255.988754
21
216.573259
0
LINE
8
Layer 1
10
255.988754
20
216.573259
11
253.404205
21
220.411483
0
LINE
8
Layer 1
10
253.404205
20
220.411483
11
250.675069
21
224.146181
0
LINE
8
Layer 1
10
250.675069
20
224.146181
11
247.801934
21
227.778154
0
LINE
8
Layer 1
10
247.801934
20
227.778154
11
244.793083
21
231.297539
0
LINE
8
Layer 1
10
244.793083
20
231.297539
11
241.651649
21
234.700672
0
LINE
8
Layer 1
10
241.651649
20
234.700672
11
238.380764
21
237.983889
0
LINE
8
Layer 1
10
238.380764
20
237.983889
11
234.994562
21
241.134320
0
LINE
8
Layer 1
10
234.994562
20
241.134320
11
231.487310
21
244.158688
0
LINE
8
Layer 1
10
231.487310
20
244.158688
11
227.863730
21
247.052375
0
LINE
8
Layer 1
10
227.863730
20
247.052375
11
224.128542
21
249.810764
0
LINE
8
Layer 1
10
224.128542
20
249.810764
11
220.314892
21
252.410537
0
LINE
8
Layer 1
10
220.314892
20
252.410537
11
216.398873
21
254.869320
0
LINE
8
Layer 1
10
216.398873
20
254.869320
11
212.383349
21
257.184485
0
LINE
8
Layer 1
10
212.383349
20
257.184485
11
208.271181
21
259.353403
0
LINE
8
Layer 1
10
208.271181
20
259.353403
11
204.117467
21
261.349095
0
LINE
8
Layer 1
10
204.117467
20
261.349095
11
199.876886
21
263.194574
0
LINE
8
Layer 1
10
199.876886
20
263.194574
11
195.553817
21
264.885560
0
LINE
8
Layer 1
10
195.553817
20
264.885560
11
191.152639
21
266.417778
0
LINE
8
Layer 1
10
191.152639
20
266.417778
11
195.774028
21
282.795486
0
LINE
8
Layer 1
10
195.774028
20
282.795486
11
195.699038
21
283.109011
0
LINE
8
Layer 1
10
195.699038
20
283.109011
11
195.330685
21
283.461450
0
LINE
8
Layer 1
10
195.330685
20
283.461450
11
193.845843
21
284.257224
0
LINE
8
Layer 1
10
193.845843
20
284.257224
11
191.583410
21
285.131118
0
LINE
8
Layer 1
10
191.583410
20
285.131118
11
188.807291
21
286.031443
0
LINE
8
Layer 1
10
188.807291
20
286.031443
11
182.769625
21
287.704628
0
LINE
8
Layer 1
10
182.769625
20
287.704628
11
177.844097
21
288.863264
0
LINE
8
Layer 1
10
177.844097
20
288.863264
11
171.606566
21
289.994231
0
LINE
8
Layer 1
10
171.606566
20
289.994231
11
165.417500
21
290.777083
0
LINE
8
Layer 1
10
165.417500
20
290.777083
11
159.128496
21
291.231282
0
LINE
8
Layer 1
10
159.128496
20
291.231282
11
152.858611
21
291.359167
0
LINE
8
Layer 1
10
152.858611
20
291.359167
11
152.858611
21
291.359167
0
LINE
8
Layer 1
10
152.840972
20
287.302222
11
160.088296
21
287.046170
0
LINE
8
Layer 1
10
160.088296
20
287.046170
11
167.310104
21
286.320191
0
LINE
8
Layer 1
10
167.310104
20
286.320191
11
174.482988
21
285.121704
0
LINE
8
Layer 1
10
174.482988
20
285.121704
11
181.583542
21
283.448125
0
LINE
8
Layer 1
10
181.583542
20
283.448125
11
188.976072
21
281.012258
0
LINE
8
Layer 1
10
188.976072
20
281.012258
11
190.034862
21
280.430637
0
LINE
8
Layer 1
10
190.034862
20
280.430637
11
190.188652
21
280.183117
0
LINE
8
Layer 1
10
190.188652
20
280.183117
11
190.200139
21
279.920347
0
LINE
8
Layer 1
10
190.200139
20
279.920347
11
173.884167
21
219.948125
0
LINE
8
Layer 1
10
173.884167
20
219.948125
11
172.312814
21
214.337426
0
LINE
8
Layer 1
10
172.312814
20
214.337426
11
171.308889
21
211.366806
0
LINE
8
Layer 1
10
171.308889
20
211.366806
11
170.845349
21
210.585635
0
LINE
8
Layer 1
10
170.845349
20
210.585635
11
170.301490
21
210.080099
0
LINE
8
Layer 1
10
170.301490
20
210.080099
11
169.104028
21
209.558819
0
LINE
8
Layer 1
10
169.104028
20
209.558819
11
167.087216
21
208.850112
0
LINE
8
Layer 1
10
167.087216
20
208.850112
11
165.243055
21
207.940249
0
LINE
8
Layer 1
10
165.243055
20
207.940249
11
163.584977
21
206.831511
0
LINE
8
Layer 1
10
163.584977
20
206.831511
11
162.126416
21
205.526180
0
LINE
8
Layer 1
10
162.126416
20
205.526180
11
160.880802
21
204.026540
0
LINE
8
Layer 1
10
160.880802
20
204.026540
11
159.861569
21
202.334873
0
LINE
8
Layer 1
10
159.861569
20
202.334873
11
159.082148
21
200.453459
0
LINE
8
Layer 1
10
159.082148
20
200.453459
11
158.555972
21
198.384583
0
LINE
8
Layer 1
10
158.555972
20
198.384583
11
158.327228
21
197.311787
0
LINE
8
Layer 1
10
158.327228
20
197.311787
11
158.082847
21
197.019131
0
LINE
8
Layer 1
10
158.082847
20
197.019131
11
157.788681
21
196.894097
0
LINE
8
Layer 1
10
157.788681
20
196.894097
11
157.473138
21
196.941354
0
LINE
8
Layer 1
10
157.473138
20
196.941354
11
157.163744
21
197.164402
0
LINE
8
Layer 1
10
157.163744
20
197.164402
11
156.668611
21
198.146458
0
LINE
8
Layer 1
10
156.668611
20
198.146458
11
156.361310
21
199.905923
0
LINE
8
Layer 1
10
156.361310
20
199.905923
11
156.359775
21
201.680645
0
LINE
8
Layer 1
10
156.359775
20
201.680645
11
156.646996
21
203.429925
0
LINE
8
Layer 1
10
156.646996
20
203.429925
11
157.205966
21
205.113063
0
LINE
8
Layer 1
10
157.205966
20
205.113063
11
158.019677
21
206.689361
0
LINE
8
Layer 1
10
158.019677
20
206.689361
11
159.071119
21
208.118117
0
LINE
8
Layer 1
10
159.071119
20
208.118117
11
160.343285
21
209.358633
0
LINE
8
Layer 1
10
160.343285
20
209.358633
11
161.819167
21
210.370208
0
LINE
8
Layer 1
10
161.819167
20
210.370208
11
162.988308
21
211.090934
0
LINE
8
Layer 1
10
162.988308
20
211.090934
11
163.964499
21
211.871663
0
LINE
8
Layer 1
10
163.964499
20
211.871663
11
164.794052
21
212.800233
0
LINE
8
Layer 1
10
164.794052
20
212.800233
11
165.523281
21
213.964484
0
LINE
8
Layer 1
10
165.523281
20
213.964484
11
166.198497
21
215.452254
0
LINE
8
Layer 1
10
166.198497
20
215.452254
11
166.866013
21
217.351382
0
LINE
8
Layer 1
10
166.866013
20
217.351382
11
168.363194
21
222.735069
0
LINE
8
Layer 1
10
168.363194
20
222.735069
11
174.677917
21
246.018403
0
LINE
8
Layer 1
10
174.677917
20
246.018403
11
179.845011
21
264.605947
0
LINE
8
Layer 1
10
179.845011
20
264.605947
11
182.178121
21
273.748888
0
LINE
8
Layer 1
10
182.178121
20
273.748888
11
182.503452
21
275.845956
0
LINE
8
Layer 1
10
182.503452
20
275.845956
11
182.386112
21
276.862662
0
LINE
8
Layer 1
10
182.386112
20
276.862662
11
182.189130
21
277.099296
0
LINE
8
Layer 1
10
182.189130
20
277.099296
11
181.914707
21
277.225937
0
LINE
8
Layer 1
10
181.914707
20
277.225937
11
181.177847
21
277.362708
0
LINE
8
Layer 1
10
181.177847
20
277.362708
11
176.247778
21
278.535694
0
LINE
8
Layer 1
10
176.247778
20
278.535694
11
170.404121
21
279.646628
0
LINE
8
Layer 1
10
170.404121
20
279.646628
11
164.521442
21
280.449175
0
LINE
8
Layer 1
10
164.521442
20
280.449175
11
158.612746
21
280.941007
0
LINE
8
Layer 1
10
158.612746
20
280.941007
11
152.691042
21
281.119792
0
LINE
8
Layer 1
10
152.691042
20
281.119792
11
146.618508
21
280.975737
0
LINE
8
Layer 1
10
146.618508
20
280.975737
11
140.559340
21
280.498250
0
LINE
8
Layer 1
10
140.559340
20
280.498250
11
134.526908
21
279.685509
0
LINE
8
Layer 1
10
134.526908
20
279.685509
11
128.534583
21
278.535694
0
LINE
8
Layer 1
10
128.534583
20
278.535694
11
123.604514
21
277.362708
0
LINE
8
Layer 1
10
123.604514
20
277.362708
11
122.867652
21
277.225938
0
LINE
8
Layer 1
10
122.867652
20
277.225938
11
122.593228
21
277.099298
0
LINE
8
Layer 1
10
122.593228
20
277.099298
11
122.396243
21
276.862667
0
LINE
8
Layer 1
10
122.396243
20
276.862667
11
122.278897
21
275.845964
0
LINE
8
Layer 1
10
122.278897
20
275.845964
11
122.604223
21
273.748898
0
LINE
8
Layer 1
10
122.604223
20
273.748898
11
124.937331
21
264.605959
0
LINE
8
Layer 1
10
124.937331
20
264.605959
11
130.104444
21
246.018403
0
LINE
8
Layer 1
10
130.104444
20
246.018403
11
136.419167
21
222.735069
0
LINE
8
Layer 1
10
136.419167
20
222.735069
11
137.916328
21
217.351381
0
LINE
8
Layer 1
10
137.916328
20
217.351381
11
138.583838
21
215.452253
0
LINE
8
Layer 1
10
138.583838
20
215.452253
11
139.259051
21
213.964484
0
LINE
8
Layer 1
10
139.259051
20
213.964484
11
139.988281
21
212.800234
0
LINE
8
Layer 1
10
139.988281
20
212.800234
11
140.817839
21
211.871664
0
LINE
8
Layer 1
10
140.817839
20
211.871664
11
141.794039
21
211.090935
0
LINE
8
Layer 1
10
141.794039
20
211.090935
11
142.963194
21
210.370208
0
LINE
8
Layer 1
10
142.963194
20
210.370208
11
144.439061
21
209.358632
0
LINE
8
Layer 1
10
144.439061
20
209.358632
11
145.711216
21
208.118116
0
LINE
8
Layer 1
10
145.711216
20
208.118116
11
146.762652
21
206.689360
0
LINE
8
Layer 1
10
146.762652
20
206.689360
11
147.576361
21
205.113063
0
LINE
8
Layer 1
10
147.576361
20
205.113063
11
148.135333
21
203.429925
0
LINE
8
Layer 1
10
148.135333
20
203.429925
11
148.422561
21
201.680646
0
LINE
8
Layer 1
10
148.422561
20
201.680646
11
148.421036
21
199.905923
0
LINE
8
Layer 1
10
148.421036
20
199.905923
11
148.113750
21
198.146458
0
LINE
8
Layer 1
10
148.113750
20
198.146458
11
147.618595
21
197.164402
0
LINE
8
Layer 1
10
147.618595
20
197.164402
11
147.309211
21
196.941355
0
LINE
8
Layer 1
10
147.309211
20
196.941355
11
146.993681
21
196.894097
0
LINE
8
Layer 1
10
146.993681
20
196.894097
11
146.699502
21
197.019130
0
LINE
8
Layer 1
10
146.699502
20
197.019130
11
146.455111
21
197.311785
0
LINE
8
Layer 1
10
146.455111
20
197.311785
11
146.226389
21
198.384583
0
LINE
8
Layer 1
10
146.226389
20
198.384583
11
145.700198
21
200.453460
0
LINE
8
Layer 1
10
145.700198
20
200.453460
11
144.920767
21
202.334874
0
LINE
8
Layer 1
10
144.920767
20
202.334874
11
143.901527
21
204.026542
0
LINE
8
Layer 1
10
143.901527
20
204.026542
11
142.655912
21
205.526182
0
LINE
8
Layer 1
10
142.655912
20
205.526182
11
141.197352
21
206.831513
0
LINE
8
Layer 1
10
141.197352
20
206.831513
11
139.539281
21
207.940250
0
LINE
8
Layer 1
10
139.539281
20
207.940250
11
137.695131
21
208.850113
0
LINE
8
Layer 1
10
137.695131
20
208.850113
11
135.678333
21
209.558819
0
LINE
8
Layer 1
10
135.678333
20
209.558819
11
134.480832
21
210.080108
0
LINE
8
Layer 1
10
134.480832
20
210.080108
11
133.936984
21
210.585646
0
LINE
8
Layer 1
10
133.936984
20
210.585646
11
133.473472
21
211.366806
0
LINE
8
Layer 1
10
133.473472
20
211.366806
11
132.469519
21
214.337428
0
LINE
8
Layer 1
10
132.469519
20
214.337428
11
130.898194
21
219.948125
0
LINE
8
Layer 1
10
130.898194
20
219.948125
11
114.582222
21
279.920347
0
LINE
8
Layer 1
10
114.582222
20
279.920347
11
114.593707
21
280.183116
0
LINE
8
Layer 1
10
114.593707
20
280.183116
11
114.747492
21
280.430636
0
LINE
8
Layer 1
10
114.747492
20
280.430636
11
115.806272
21
281.012258
0
LINE
8
Layer 1
10
115.806272
20
281.012258
11
123.198819
21
283.448125
0
LINE
8
Layer 1
10
123.198819
20
283.448125
11
130.520637
21
285.147214
0
LINE
8
Layer 1
10
130.520637
20
285.147214
11
137.919137
21
286.357719
0
LINE
8
Layer 1
10
137.919137
20
286.357719
11
145.368017
21
287.076951
0
LINE
8
Layer 1
10
145.368017
20
287.076951
11
152.840972
21
287.302222
0
LINE
8
Layer 1
10
152.840972
20
287.302222
11
152.840972
21
287.302222
0
LINE
8
Layer 1
10
131.056944
20
276.057431
11
132.725752
21
275.979685
0
LINE
8
Layer 1
10
132.725752
20
275.979685
11
134.618330
21
275.712909
0
LINE
8
Layer 1
10
134.618330
20
275.712909
11
138.803801
21
274.673155
0
LINE
8
Layer 1
10
138.803801
20
274.673155
11
143.071364
21
273.059949
0
LINE
8
Layer 1
10
143.071364
20
273.059949
11
145.066558
21
272.076357
0
LINE
8
Layer 1
10
145.066558
20
272.076357
11
146.879028
21
270.995069
0
LINE
8
Layer 1
10
146.879028
20
270.995069
11
148.607557
21
269.710526
0
LINE
8
Layer 1
10
148.607557
20
269.710526
11
150.662202
21
267.969811
0
LINE
8
Layer 1
10
150.662202
20
267.969811
11
155.063635
21
263.808697
0
LINE
8
Layer 1
10
155.063635
20
263.808697
11
158.710925
21
259.889380
0
LINE
8
Layer 1
10
158.710925
20
259.889380
11
159.822889
21
258.450912
0
LINE
8
Layer 1
10
159.822889
20
258.450912
11
160.231667
21
257.589514
0
LINE
8
Layer 1
10
160.231667
20
257.589514
11
160.071087
21
256.951073
0
LINE
8
Layer 1
10
160.071087
20
256.951073
11
159.580796
21
256.264498
0
LINE
8
Layer 1
10
159.580796
20
256.264498
11
158.747868
21
255.515032
0
LINE
8
Layer 1
10
158.747868
20
255.515032
11
157.559375
21
254.687917
0
LINE
8
Layer 1
10
157.559375
20
254.687917
11
154.895903
21
252.994583
0
LINE
8
Layer 1
10
154.895903
20
252.994583
11
153.943403
21
254.282222
0
LINE
8
Layer 1
10
153.943403
20
254.282222
11
152.258889
21
256.460625
0
LINE
8
Layer 1
10
152.258889
20
256.460625
11
150.918333
21
258.427361
0
LINE
8
Layer 1
10
150.918333
20
258.427361
11
149.990039
21
259.535457
0
LINE
8
Layer 1
10
149.990039
20
259.535457
11
148.360818
21
260.966293
0
LINE
8
Layer 1
10
148.360818
20
260.966293
11
143.876089
21
264.216132
0
LINE
8
Layer 1
10
143.876089
20
264.216132
11
139.217134
21
267.016776
0
LINE
8
Layer 1
10
139.217134
20
267.016776
11
137.370132
21
267.886119
0
LINE
8
Layer 1
10
137.370132
20
267.886119
11
136.136944
21
268.208125
0
LINE
8
Layer 1
10
136.136944
20
268.208125
11
135.856189
21
268.085684
0
LINE
8
Layer 1
10
135.856189
20
268.085684
11
135.715885
21
267.705962
0
LINE
8
Layer 1
10
135.715885
20
267.705962
11
135.845903
21
266.100278
0
LINE
8
Layer 1
10
135.845903
20
266.100278
11
136.264748
21
264.281514
0
LINE
8
Layer 1
10
136.264748
20
264.281514
11
136.856967
21
262.804220
0
LINE
8
Layer 1
10
136.856967
20
262.804220
11
137.746224
21
261.431552
0
LINE
8
Layer 1
10
137.746224
20
261.431552
11
139.056181
21
259.926667
0
LINE
8
Layer 1
10
139.056181
20
259.926667
11
140.775972
21
258.109861
0
LINE
8
Layer 1
10
140.775972
20
258.109861
11
139.611806
21
255.719792
0
LINE
8
Layer 1
10
139.611806
20
255.719792
11
138.068403
21
252.059722
0
LINE
8
Layer 1
10
138.068403
20
252.059722
11
137.718546
21
251.209705
0
LINE
8
Layer 1
10
137.718546
20
251.209705
11
137.283472
21
250.886736
0
LINE
8
Layer 1
10
137.283472
20
250.886736
11
136.924890
21
250.962171
0
LINE
8
Layer 1
10
136.924890
20
250.962171
11
136.480669
21
251.263647
0
LINE
8
Layer 1
10
136.480669
20
251.263647
11
135.255000
21
252.562431
0
LINE
8
Layer 1
10
135.255000
20
252.562431
11
133.588056
21
254.956841
0
LINE
8
Layer 1
10
133.588056
20
254.956841
11
131.985621
21
257.992808
0
LINE
8
Layer 1
10
131.985621
20
257.992808
11
130.527898
21
261.412244
0
LINE
8
Layer 1
10
130.527898
20
261.412244
11
129.295090
21
264.957063
0
LINE
8
Layer 1
10
129.295090
20
264.957063
11
128.367401
21
268.369175
0
LINE
8
Layer 1
10
128.367401
20
268.369175
11
127.825035
21
271.390494
0
LINE
8
Layer 1
10
127.825035
20
271.390494
11
127.748195
21
273.762933
0
LINE
8
Layer 1
10
127.748195
20
273.762933
11
127.909410
21
274.625169
0
LINE
8
Layer 1
10
127.909410
20
274.625169
11
128.217083
21
275.228403
0
LINE
8
Layer 1
10
128.217083
20
275.228403
11
128.662779
21
275.588705
0
LINE
8
Layer 1
10
128.662779
20
275.588705
11
129.297796
21
275.843196
0
LINE
8
Layer 1
10
129.297796
20
275.843196
11
131.056944
21
276.057431
0
LINE
8
Layer 1
10
131.056944
20
276.057431
11
131.056944
21
276.057431
0
LINE
8
Layer 1
10
174.184028
20
275.501806
11
175.846448
21
275.409455
0
LINE
8
Layer 1
10
175.846448
20
275.409455
11
176.706389
21
275.131389
0
LINE
8
Layer 1
10
176.706389
20
275.131389
11
177.018133
21
274.347390
0
LINE
8
Layer 1
10
177.018133
20
274.347390
11
177.021340
21
273.012015
0
LINE
8
Layer 1
10
177.021340
20
273.012015
11
176.744008
21
271.224115
0
LINE
8
Layer 1
10
176.744008
20
271.224115
11
176.214131
21
269.082541
0
LINE
8
Layer 1
10
176.214131
20
269.082541
11
174.508727
21
264.133776
0
LINE
8
Layer 1
10
174.508727
20
264.133776
11
173.389192
21
261.524287
0
LINE
8
Layer 1
10
173.389192
20
261.524287
11
172.129097
21
258.956528
0
LINE
8
Layer 1
10
172.129097
20
258.956528
11
171.002322
21
256.990826
0
LINE
8
Layer 1
10
171.002322
20
256.990826
11
169.761053
21
255.170707
0
LINE
8
Layer 1
10
169.761053
20
255.170707
11
168.395303
21
253.486701
0
LINE
8
Layer 1
10
168.395303
20
253.486701
11
166.895083
21
251.929337
0
LINE
8
Layer 1
10
166.895083
20
251.929337
11
165.250404
21
250.489143
0
LINE
8
Layer 1
10
165.250404
20
250.489143
11
163.451277
21
249.156649
0
LINE
8
Layer 1
10
163.451277
20
249.156649
11
161.487712
21
247.922383
0
LINE
8
Layer 1
10
161.487712
20
247.922383
11
159.349722
21
246.776875
0
LINE
8
Layer 1
10
159.349722
20
246.776875
11
156.746659
21
245.557968
0
LINE
8
Layer 1
10
156.746659
20
245.557968
11
154.669812
21
244.788979
0
LINE
8
Layer 1
10
154.669812
20
244.788979
11
152.747903
21
244.356890
0
LINE
8
Layer 1
10
152.747903
20
244.356890
11
150.609653
21
244.148681
0
LINE
8
Layer 1
10
150.609653
20
244.148681
11
149.119167
21
244.086944
0
LINE
8
Layer 1
10
149.119167
20
244.086944
11
147.417765
21
244.218836
0
LINE
8
Layer 1
10
147.417765
20
244.218836
11
146.970302
21
244.458240
0
LINE
8
Layer 1
10
146.970302
20
244.458240
11
146.770532
21
244.850177
0
LINE
8
Layer 1
10
146.770532
20
244.850177
11
146.802605
21
245.422317
0
LINE
8
Layer 1
10
146.802605
20
245.422317
11
147.050672
21
246.202332
0
LINE
8
Layer 1
10
147.050672
20
246.202332
11
148.131389
21
248.496667
0
LINE
8
Layer 1
10
148.131389
20
248.496667
11
148.943437
21
249.999023
0
LINE
8
Layer 1
10
148.943437
20
249.999023
11
149.617572
21
250.807098
0
LINE
8
Layer 1
10
149.617572
20
250.807098
11
150.426150
21
251.125825
0
LINE
8
Layer 1
10
150.426150
20
251.125825
11
151.641528
21
251.160139
0
LINE
8
Layer 1
10
151.641528
20
251.160139
11
153.744964
21
251.378425
0
LINE
8
Layer 1
10
153.744964
20
251.378425
11
155.909819
21
252.170665
0
LINE
8
Layer 1
10
155.909819
20
252.170665
11
158.218149
21
253.577711
0
LINE
8
Layer 1
10
158.218149
20
253.577711
11
160.752014
21
255.640417
0
LINE
8
Layer 1
10
160.752014
20
255.640417
11
163.383032
21
258.336077
0
LINE
8
Layer 1
10
163.383032
20
258.336077
11
165.913239
21
261.472117
0
LINE
8
Layer 1
10
165.913239
20
261.472117
11
167.917765
21
264.472636
0
LINE
8
Layer 1
10
167.917765
20
264.472636
11
168.590124
21
265.742107
0
LINE
8
Layer 1
10
168.590124
20
265.742107
11
168.971736
21
266.761736
0
LINE
8
Layer 1
10
168.971736
20
266.761736
11
169.170524
21
267.687395
0
LINE
8
Layer 1
10
169.170524
20
267.687395
11
169.056203
21
268.128457
0
LINE
8
Layer 1
10
169.056203
20
268.128457
11
168.471906
21
268.203658
0
LINE
8
Layer 1
10
168.471906
20
268.203658
11
167.260764
21
268.031736
0
LINE
8
Layer 1
10
167.260764
20
268.031736
11
164.556449
21
267.175300
0
LINE
8
Layer 1
10
164.556449
20
267.175300
11
161.025417
21
265.597569
0
LINE
8
Layer 1
10
161.025417
20
265.597569
11
156.906736
21
263.507361
0
LINE
8
Layer 1
10
156.906736
20
263.507361
11
154.922361
21
265.438819
0
LINE
8
Layer 1
10
154.922361
20
265.438819
11
153.522317
21
266.964037
0
LINE
8
Layer 1
10
153.522317
20
266.964037
11
152.937986
21
267.925903
0
LINE
8
Layer 1
10
152.937986
20
267.925903
11
153.080918
21
268.304151
0
LINE
8
Layer 1
10
153.080918
20
268.304151
11
153.488404
21
268.801830
0
LINE
8
Layer 1
10
153.488404
20
268.801830
11
154.929747
21
270.030574
0
LINE
8
Layer 1
10
154.929747
20
270.030574
11
156.927431
21
271.362329
0
LINE
8
Layer 1
10
156.927431
20
271.362329
11
159.146875
21
272.547292
0
LINE
8
Layer 1
10
159.146875
20
272.547292
11
162.223896
21
273.646717
0
LINE
8
Layer 1
10
162.223896
20
273.646717
11
166.008403
21
274.619861
0
LINE
8
Layer 1
10
166.008403
20
274.619861
11
170.301812
21
275.275156
0
LINE
8
Layer 1
10
170.301812
20
275.275156
11
174.184028
21
275.501806
0
LINE
8
Layer 1
10
174.184028
20
275.501806
11
174.184028
21
275.501806
0
LINE
8
Layer 1
10
146.226389
20
260.905625
11
146.676394
21
260.754188
0
LINE
8
Layer 1
10
146.676394
20
260.754188
11
147.302327
21
260.347416
0
LINE
8
Layer 1
10
147.302327
20
260.347416
11
148.791102
21
259.053245
0
LINE
8
Layer 1
10
148.791102
20
259.053245
11
150.110975
21
257.593858
0
LINE
8
Layer 1
10
150.110975
20
257.593858
11
150.525780
21
256.980566
0
LINE
8
Layer 1
10
150.525780
20
256.980566
11
150.680208
21
256.540000
0
LINE
8
Layer 1
10
150.680208
20
256.540000
11
148.078472
21
251.010208
0
LINE
8
Layer 1
10
148.078472
20
251.010208
11
146.310052
21
247.068906
0
LINE
8
Layer 1
10
146.310052
20
247.068906
11
145.729416
21
245.326748
0
LINE
8
Layer 1
10
145.729416
20
245.326748
11
145.342438
21
243.689301
0
LINE
8
Layer 1
10
145.342438
20
243.689301
11
145.142572
21
242.120853
0
LINE
8
Layer 1
10
145.142572
20
242.120853
11
145.123275
21
240.585688
0
LINE
8
Layer 1
10
145.123275
20
240.585688
11
145.278002
21
239.048096
0
LINE
8
Layer 1
10
145.278002
20
239.048096
11
145.600208
21
237.472361
0
LINE
8
Layer 1
10
145.600208
20
237.472361
11
146.842465
21
233.755405
0
LINE
8
Layer 1
10
146.842465
20
233.755405
11
148.842640
21
228.643603
0
LINE
8
Layer 1
10
148.842640
20
228.643603
11
150.789256
21
224.118541
0
LINE
8
Layer 1
10
150.789256
20
224.118541
11
151.488892
21
222.695283
0
LINE
8
Layer 1
10
151.488892
20
222.695283
11
151.870833
21
222.161806
0
LINE
8
Layer 1
10
151.870833
20
222.161806
11
152.348224
21
222.755259
0
LINE
8
Layer 1
10
152.348224
20
222.755259
11
153.047356
21
224.389508
0
LINE
8
Layer 1
10
153.047356
20
224.389508
11
154.812863
21
229.773318
0
LINE
8
Layer 1
10
154.812863
20
229.773318
11
156.571383
21
236.299080
0
LINE
8
Layer 1
10
156.571383
20
236.299080
11
157.726944
21
241.952639
0
LINE
8
Layer 1
10
157.726944
20
241.952639
11
157.995043
21
243.401714
0
LINE
8
Layer 1
10
157.995043
20
243.401714
11
158.386992
21
244.334691
0
LINE
8
Layer 1
10
158.386992
20
244.334691
11
159.055255
21
244.978430
0
LINE
8
Layer 1
10
159.055255
20
244.978430
11
160.152292
21
245.559792
0
LINE
8
Layer 1
10
160.152292
20
245.559792
11
163.768264
21
247.588264
0
LINE
8
Layer 1
10
163.768264
20
247.588264
11
164.986866
21
248.250340
0
LINE
8
Layer 1
10
164.986866
20
248.250340
11
165.438506
21
248.371171
0
LINE
8
Layer 1
10
165.438506
20
248.371171
11
165.699722
21
248.320278
0
LINE
8
Layer 1
10
165.699722
20
248.320278
11
165.834360
21
247.659145
0
LINE
8
Layer 1
10
165.834360
20
247.659145
11
165.798629
21
246.263898
0
LINE
8
Layer 1
10
165.798629
20
246.263898
11
165.327412
21
242.050557
0
LINE
8
Layer 1
10
165.327412
20
242.050557
11
164.508773
21
237.239246
0
LINE
8
Layer 1
10
164.508773
20
237.239246
11
163.565417
21
233.388958
0
LINE
8
Layer 1
10
163.565417
20
233.388958
11
162.616893
21
230.610046
0
LINE
8
Layer 1
10
162.616893
20
230.610046
11
161.577081
21
228.004283
0
LINE
8
Layer 1
10
161.577081
20
228.004283
11
157.524097
21
219.348403
0
LINE
8
Layer 1
10
157.524097
20
219.348403
11
154.978871
21
213.644726
0
LINE
8
Layer 1
10
154.978871
20
213.644726
11
153.220208
21
209.003194
0
LINE
8
Layer 1
10
153.220208
20
209.003194
11
152.020764
21
205.113819
0
LINE
8
Layer 1
10
152.020764
20
205.113819
11
151.315208
21
208.271181
0
LINE
8
Layer 1
10
151.315208
20
208.271181
11
150.793376
21
209.976112
0
LINE
8
Layer 1
10
150.793376
20
209.976112
11
149.894627
21
212.284362
0
LINE
8
Layer 1
10
149.894627
20
212.284362
11
147.469931
21
217.496319
0
LINE
8
Layer 1
10
147.469931
20
217.496319
11
143.189937
21
225.826388
0
LINE
8
Layer 1
10
143.189937
20
225.826388
11
140.727162
21
230.898889
0
LINE
8
Layer 1
10
140.727162
20
230.898889
11
139.486032
21
234.034811
0
LINE
8
Layer 1
10
139.486032
20
234.034811
11
138.870972
21
236.555139
0
LINE
8
Layer 1
10
138.870972
20
236.555139
11
138.535393
21
238.806699
0
LINE
8
Layer 1
10
138.535393
20
238.806699
11
138.359528
21
241.115782
0
LINE
8
Layer 1
10
138.359528
20
241.115782
11
138.339493
21
243.439552
0
LINE
8
Layer 1
10
138.339493
20
243.439552
11
138.471404
21
245.735176
0
LINE
8
Layer 1
10
138.471404
20
245.735176
11
138.751378
21
247.959819
0
LINE
8
Layer 1
10
138.751378
20
247.959819
11
139.175530
21
250.070646
0
LINE
8
Layer 1
10
139.175530
20
250.070646
11
139.739976
21
252.024822
0
LINE
8
Layer 1
10
139.739976
20
252.024822
11
140.440833
21
253.779514
0
LINE
8
Layer 1
10
140.440833
20
253.779514
11
142.098161
21
256.859155
0
LINE
8
Layer 1
10
142.098161
20
256.859155
11
143.695208
21
259.159375
0
LINE
8
Layer 1
10
143.695208
20
259.159375
11
145.080829
21
260.392280
0
LINE
8
Layer 1
10
145.080829
20
260.392280
11
145.725512
21
260.767691
0
LINE
8
Layer 1
10
145.725512
20
260.767691
11
146.226389
21
260.905625
0
LINE
8
Layer 1
10
146.226389
20
260.905625
11
146.226389
21
260.905625
0
LINE
8
Layer 1
10
188.330417
20
256.434167
11
194.349421
21
254.241722
0
LINE
8
Layer 1
10
194.349421
20
254.241722
11
200.200307
21
251.725992
0
LINE
8
Layer 1
10
200.200307
20
251.725992
11
205.871685
21
248.898131
0
LINE
8
Layer 1
10
205.871685
20
248.898131
11
211.352170
21
245.769291
0
LINE
8
Layer 1
10
211.352170
20
245.769291
11
216.630375
21
242.350627
0
LINE
8
Layer 1
10
216.630375
20
242.350627
11
221.694912
21
238.653290
0
LINE
8
Layer 1
10
221.694912
20
238.653290
11
226.534394
21
234.688435
0
LINE
8
Layer 1
10
226.534394
20
234.688435
11
231.137434
21
230.467214
0
LINE
8
Layer 1
10
231.137434
20
230.467214
11
235.492646
21
226.000781
0
LINE
8
Layer 1
10
235.492646
20
226.000781
11
239.588641
21
221.300289
0
LINE
8
Layer 1
10
239.588641
20
221.300289
11
243.414033
21
216.376890
0
LINE
8
Layer 1
10
243.414033
20
216.376890
11
246.957436
21
211.241739
0
LINE
8
Layer 1
10
246.957436
20
211.241739
11
250.207461
21
205.905987
0
LINE
8
Layer 1
10
250.207461
20
205.905987
11
253.152722
21
200.380789
0
LINE
8
Layer 1
10
253.152722
20
200.380789
11
255.781832
21
194.677298
0
LINE
8
Layer 1
10
255.781832
20
194.677298
11
258.083403
21
188.806667
0
LINE
8
Layer 1
10
258.083403
20
188.806667
11
245.886111
21
185.367083
0
LINE
8
Layer 1
10
245.886111
20
185.367083
11
243.842143
21
190.475033
0
LINE
8
Layer 1
10
243.842143
20
190.475033
11
241.518063
21
195.438277
0
LINE
8
Layer 1
10
241.518063
20
195.438277
11
238.923468
21
200.247385
0
LINE
8
Layer 1
10
238.923468
20
200.247385
11
236.067957
21
204.892925
0
LINE
8
Layer 1
10
236.067957
20
204.892925
11
232.961126
21
209.365468
0
LINE
8
Layer 1
10
232.961126
20
209.365468
11
229.612572
21
213.655584
0
LINE
8
Layer 1
10
229.612572
20
213.655584
11
226.031894
21
217.753842
0
LINE
8
Layer 1
10
226.031894
20
217.753842
11
222.228689
21
221.650811
0
LINE
8
Layer 1
10
222.228689
20
221.650811
11
218.212554
21
225.337061
0
LINE
8
Layer 1
10
218.212554
20
225.337061
11
213.993086
21
228.803163
0
LINE
8
Layer 1
10
213.993086
20
228.803163
11
209.579883
21
232.039685
0
LINE
8
Layer 1
10
209.579883
20
232.039685
11
204.982542
21
235.037197
0
LINE
8
Layer 1
10
204.982542
20
235.037197
11
200.210661
21
237.786269
0
LINE
8
Layer 1
10
200.210661
20
237.786269
11
195.273837
21
240.277471
0
LINE
8
Layer 1
10
195.273837
20
240.277471
11
190.181668
21
242.501372
0
LINE
8
Layer 1
10
190.181668
20
242.501372
11
184.943750
21
244.448542
0
LINE
8
Layer 1
10
184.943750
20
244.448542
11
188.330417
21
256.434167
0
LINE
8
Layer 1
10
188.330417
20
256.434167
11
188.330417
21
256.434167
0
LINE
8
Layer 1
10
116.451944
20
256.425347
11
119.838611
21
244.439722
0
LINE
8
Layer 1
10
119.838611
20
244.439722
11
114.601573
21
242.491810
0
LINE
8
Layer 1
10
114.601573
20
242.491810
11
109.510174
21
240.267337
0
LINE
8
Layer 1
10
109.510174
20
240.267337
11
104.574025
21
237.775719
0
LINE
8
Layer 1
10
104.574025
20
237.775719
11
99.802738
21
235.026370
0
LINE
8
Layer 1
10
99.802738
20
235.026370
11
95.205923
21
232.028706
0
LINE
8
Layer 1
10
95.205923
20
232.028706
11
90.793193
21
228.792141
0
LINE
8
Layer 1
10
90.793193
20
228.792141
11
86.574160
21
225.326090
0
LINE
8
Layer 1
10
86.574160
20
225.326090
11
82.558433
21
221.639969
0
LINE
8
Layer 1
10
82.558433
20
221.639969
11
78.755626
21
217.743192
0
LINE
8
Layer 1
10
78.755626
20
217.743192
11
75.175349
21
213.645175
0
LINE
8
Layer 1
10
75.175349
20
213.645175
11
71.827214
21
209.355333
0
LINE
8
Layer 1
10
71.827214
20
209.355333
11
68.720832
21
204.883080
0
LINE
8
Layer 1
10
68.720832
20
204.883080
11
65.865815
21
200.237831
0
LINE
8
Layer 1
10
65.865815
20
200.237831
11
63.271775
21
195.429003
0
LINE
8
Layer 1
10
63.271775
20
195.429003
11
60.948323
21
190.466008
0
LINE
8
Layer 1
10
60.948323
20
190.466008
11
58.905069
21
185.358264
0
LINE
8
Layer 1
10
58.905069
20
185.358264
11
46.716597
21
188.797847
0
LINE
8
Layer 1
10
46.716597
20
188.797847
11
49.017443
21
194.668051
0
LINE
8
Layer 1
10
49.017443
20
194.668051
11
51.645734
21
200.371131
0
LINE
8
Layer 1
10
51.645734
20
200.371131
11
54.590092
21
205.895943
0
LINE
8
Layer 1
10
54.590092
20
205.895943
11
57.839138
21
211.231344
0
LINE
8
Layer 1
10
57.839138
20
211.231344
11
61.381496
21
216.366187
0
LINE
8
Layer 1
10
61.381496
20
216.366187
11
65.205788
21
221.289329
0
LINE
8
Layer 1
10
65.205788
20
221.289329
11
69.300635
21
225.989624
0
LINE
8
Layer 1
10
69.300635
20
225.989624
11
73.654661
21
230.455929
0
LINE
8
Layer 1
10
73.654661
20
230.455929
11
78.256487
21
234.677098
0
LINE
8
Layer 1
10
78.256487
20
234.677098
11
83.094735
21
238.641988
0
LINE
8
Layer 1
10
83.094735
20
238.641988
11
88.158028
21
242.339453
0
LINE
8
Layer 1
10
88.158028
20
242.339453
11
93.434988
21
245.758349
0
LINE
8
Layer 1
10
93.434988
20
245.758349
11
98.914238
21
248.887530
0
LINE
8
Layer 1
10
98.914238
20
248.887530
11
104.584399
21
251.715854
0
LINE
8
Layer 1
10
104.584399
20
251.715854
11
110.434094
21
254.232174
0
LINE
8
Layer 1
10
110.434094
20
254.232174
11
116.451944
21
256.425347
0
LINE
8
Layer 1
10
116.451944
20
256.425347
11
116.451944
21
256.425347
0
LINE
8
Layer 1
10
183.038750
20
237.684028
11
187.835887
21
235.875372
0
LINE
8
Layer 1
10
187.835887
20
235.875372
11
192.500327
21
233.816257
0
LINE
8
Layer 1
10
192.500327
20
233.816257
11
197.023419
21
231.515142
0
LINE
8
Layer 1
10
197.023419
20
231.515142
11
201.396511
21
228.980484
0
LINE
8
Layer 1
10
201.396511
20
228.980484
11
205.610952
21
226.220741
0
LINE
8
Layer 1
10
205.610952
20
226.220741
11
209.658092
21
223.244369
0
LINE
8
Layer 1
10
209.658092
20
223.244369
11
213.529277
21
220.059828
0
LINE
8
Layer 1
10
213.529277
20
220.059828
11
217.215859
21
216.675574
0
LINE
8
Layer 1
10
217.215859
20
216.675574
11
220.709184
21
213.100065
0
LINE
8
Layer 1
10
220.709184
20
213.100065
11
224.000602
21
209.341759
0
LINE
8
Layer 1
10
224.000602
20
209.341759
11
227.081461
21
205.409114
0
LINE
8
Layer 1
10
227.081461
20
205.409114
11
229.943110
21
201.310586
0
LINE
8
Layer 1
10
229.943110
20
201.310586
11
232.576899
21
197.054633
0
LINE
8
Layer 1
10
232.576899
20
197.054633
11
234.974174
21
192.649714
0
LINE
8
Layer 1
10
234.974174
20
192.649714
11
237.126286
21
188.104286
0
LINE
8
Layer 1
10
237.126286
20
188.104286
11
239.024583
21
183.426806
0
LINE
8
Layer 1
10
239.024583
20
183.426806
11
206.375000
21
174.210486
0
LINE
8
Layer 1
10
206.375000
20
174.210486
11
205.276339
21
173.611613
0
LINE
8
Layer 1
10
205.276339
20
173.611613
11
204.567227
21
172.784368
0
LINE
8
Layer 1
10
204.567227
20
172.784368
11
203.543958
21
170.594514
0
LINE
8
Layer 1
10
203.543958
20
170.594514
11
203.045362
21
168.889349
0
LINE
8
Layer 1
10
203.045362
20
168.889349
11
202.307934
21
167.208315
0
LINE
8
Layer 1
10
202.307934
20
167.208315
11
201.365773
21
165.597575
0
LINE
8
Layer 1
10
201.365773
20
165.597575
11
200.252978
21
164.103293
0
LINE
8
Layer 1
10
200.252978
20
164.103293
11
199.003648
21
162.771634
0
LINE
8
Layer 1
10
199.003648
20
162.771634
11
197.651880
21
161.648761
0
LINE
8
Layer 1
10
197.651880
20
161.648761
11
196.231775
21
160.780837
0
LINE
8
Layer 1
10
196.231775
20
160.780837
11
194.777431
21
160.214028
0
LINE
8
Layer 1
10
194.777431
20
160.214028
11
193.277872
21
159.894760
0
LINE
8
Layer 1
10
193.277872
20
159.894760
11
191.851431
21
159.788807
0
LINE
8
Layer 1
10
191.851431
20
159.788807
11
190.480642
21
159.903946
0
LINE
8
Layer 1
10
190.480642
20
159.903946
11
189.148038
21
160.247950
0
LINE
8
Layer 1
10
189.148038
20
160.247950
11
187.836152
21
160.828595
0
LINE
8
Layer 1
10
187.836152
20
160.828595
11
186.527518
21
161.653656
0
LINE
8
Layer 1
10
186.527518
20
161.653656
11
185.204669
21
162.730907
0
LINE
8
Layer 1
10
185.204669
20
162.730907
11
183.850139
21
164.068125
0
LINE
8
Layer 1
10
183.850139
20
164.068125
11
182.396173
21
166.033023
0
LINE
8
Layer 1
10
182.396173
20
166.033023
11
181.455217
21
167.871398
0
LINE
8
Layer 1
10
181.455217
20
167.871398
11
180.809933
21
169.737389
0
LINE
8
Layer 1
10
180.809933
20
169.737389
11
180.242986
21
171.785139
0
LINE
8
Layer 1
10
180.242986
20
171.785139
11
180.225347
21
171.882153
0
LINE
8
Layer 1
10
180.225347
20
171.882153
11
179.786564
21
173.369735
0
LINE
8
Layer 1
10
179.786564
20
173.369735
11
179.146383
21
174.761138
0
LINE
8
Layer 1
10
179.146383
20
174.761138
11
178.321720
21
176.039823
0
LINE
8
Layer 1
10
178.321720
20
176.039823
11
177.329492
21
177.189250
0
LINE
8
Layer 1
10
177.329492
20
177.189250
11
176.186616
21
178.192881
0
LINE
8
Layer 1
10
176.186616
20
178.192881
11
174.910008
21
179.034178
0
LINE
8
Layer 1
10
174.910008
20
179.034178
11
173.516585
21
179.696601
0
LINE
8
Layer 1
10
173.516585
20
179.696601
11
172.023264
21
180.163611
0
LINE
8
Layer 1
10
172.023264
20
180.163611
11
169.888512
21
180.751841
0
LINE
8
Layer 1
10
169.888512
20
180.751841
11
167.959626
21
181.403278
0
LINE
8
Layer 1
10
167.959626
20
181.403278
11
166.069365
21
182.354309
0
LINE
8
Layer 1
10
166.069365
20
182.354309
11
164.050486
21
183.841319
0
LINE
8
Layer 1
10
164.050486
20
183.841319
11
162.713260
21
185.195850
0
LINE
8
Layer 1
10
162.713260
20
185.195850
11
161.636004
21
186.518699
0
LINE
8
Layer 1
10
161.636004
20
186.518699
11
160.810943
21
187.827334
0
LINE
8
Layer 1
10
160.810943
20
187.827334
11
160.230300
21
189.139220
0
LINE
8
Layer 1
10
160.230300
20
189.139220
11
159.886300
21
190.471824
0
LINE
8
Layer 1
10
159.886300
20
190.471824
11
159.771165
21
191.842613
0
LINE
8
Layer 1
10
159.771165
20
191.842613
11
159.877120
21
193.269053
0
LINE
8
Layer 1
10
159.877120
20
193.269053
11
160.196389
21
194.768611
0
LINE
8
Layer 1
10
160.196389
20
194.768611
11
160.763188
21
196.222947
0
LINE
8
Layer 1
10
160.763188
20
196.222947
11
161.631104
21
197.643048
0
LINE
8
Layer 1
10
161.631104
20
197.643048
11
162.753973
21
198.994815
0
LINE
8
Layer 1
10
162.753973
20
198.994815
11
164.085631
21
200.244148
0
LINE
8
Layer 1
10
164.085631
20
200.244148
11
165.579915
21
201.356947
0
LINE
8
Layer 1
10
165.579915
20
201.356947
11
167.190659
21
202.299111
0
LINE
8
Layer 1
10
167.190659
20
202.299111
11
168.871701
21
203.036542
0
LINE
8
Layer 1
10
168.871701
20
203.036542
11
170.576875
21
203.535139
0
LINE
8
Layer 1
10
170.576875
20
203.535139
11
172.766717
21
204.558419
0
LINE
8
Layer 1
10
172.766717
20
204.558419
11
173.593970
21
205.267534
0
LINE
8
Layer 1
10
173.593970
20
205.267534
11
174.192847
21
206.366181
0
LINE
8
Layer 1
10
174.192847
20
206.366181
11
183.038750
21
237.684028
0
LINE
8
Layer 1
10
183.038750
20
237.684028
11
183.038750
21
237.684028
0
LINE
8
Layer 1
10
121.743611
20
237.675208
11
130.589514
21
206.366181
0
LINE
8
Layer 1
10
130.589514
20
206.366181
11
131.188388
21
205.267534
0
LINE
8
Layer 1
10
131.188388
20
205.267534
11
132.015641
21
204.558420
0
LINE
8
Layer 1
10
132.015641
20
204.558420
11
134.205486
21
203.535139
0
LINE
8
Layer 1
10
134.205486
20
203.535139
11
135.910650
21
203.036533
0
LINE
8
Layer 1
10
135.910650
20
203.036533
11
137.591685
21
202.299099
0
LINE
8
Layer 1
10
137.591685
20
202.299099
11
139.202426
21
201.356934
0
LINE
8
Layer 1
10
139.202426
20
201.356934
11
140.696710
21
200.244137
0
LINE
8
Layer 1
10
140.696710
20
200.244137
11
142.028371
21
198.994808
0
LINE
8
Layer 1
10
142.028371
20
198.994808
11
143.151244
21
197.643045
0
LINE
8
Layer 1
10
143.151244
20
197.643045
11
144.019166
21
196.222946
0
LINE
8
Layer 1
10
144.019166
20
196.222946
11
144.585972
21
194.768611
0
LINE
8
Layer 1
10
144.585972
20
194.768611
11
144.905230
21
193.269054
0
LINE
8
Layer 1
10
144.905230
20
193.269054
11
145.011179
21
191.842616
0
LINE
8
Layer 1
10
145.011179
20
191.842616
11
144.896042
21
190.471830
0
LINE
8
Layer 1
10
144.896042
20
190.471830
11
144.552042
21
189.139229
0
LINE
8
Layer 1
10
144.552042
20
189.139229
11
143.971402
21
187.827345
0
LINE
8
Layer 1
10
143.971402
20
187.827345
11
143.146345
21
186.518711
0
LINE
8
Layer 1
10
143.146345
20
186.518711
11
142.069095
21
185.195858
0
LINE
8
Layer 1
10
142.069095
20
185.195858
11
140.731875
21
183.841319
0
LINE
8
Layer 1
10
140.731875
20
183.841319
11
138.587945
21
182.278799
0
LINE
8
Layer 1
10
138.587945
20
182.278799
11
136.579844
21
181.309112
0
LINE
8
Layer 1
10
136.579844
20
181.309112
11
134.502429
21
180.644210
0
LINE
8
Layer 1
10
134.502429
20
180.644210
11
132.150556
21
179.996042
0
LINE
8
Layer 1
10
132.150556
20
179.996042
11
132.150556
21
179.987222
0
LINE
8
Layer 1
10
132.150556
20
179.987222
11
130.754744
21
179.686722
0
LINE
8
Layer 1
10
130.754744
20
179.686722
11
129.454051
21
179.168363
0
LINE
8
Layer 1
10
129.454051
20
179.168363
11
128.269130
21
178.452657
0
LINE
8
Layer 1
10
128.269130
20
178.452657
11
127.220634
21
177.560114
0
LINE
8
Layer 1
10
127.220634
20
177.560114
11
126.329216
21
176.511246
0
LINE
8
Layer 1
10
126.329216
20
176.511246
11
125.615528
21
175.326564
0
LINE
8
Layer 1
10
125.615528
20
175.326564
11
125.100225
21
174.026580
0
LINE
8
Layer 1
10
125.100225
20
174.026580
11
124.803958
21
172.631806
0
LINE
8
Layer 1
10
124.803958
20
172.631806
11
124.155788
21
170.279930
0
LINE
8
Layer 1
10
124.155788
20
170.279930
11
123.490886
21
168.202514
0
LINE
8
Layer 1
10
123.490886
20
168.202514
11
122.521200
21
166.194413
0
LINE
8
Layer 1
10
122.521200
20
166.194413
11
120.958681
21
164.050486
0
LINE
8
Layer 1
10
120.958681
20
164.050486
11
119.604147
21
162.713269
0
LINE
8
Layer 1
10
119.604147
20
162.713269
11
118.281295
21
161.636017
0
LINE
8
Layer 1
10
118.281295
20
161.636017
11
116.972657
21
160.810957
0
LINE
8
Layer 1
10
116.972657
20
160.810957
11
115.660768
21
160.230312
0
LINE
8
Layer 1
10
115.660768
20
160.230312
11
114.328162
21
159.886308
0
LINE
8
Layer 1
10
114.328162
20
159.886308
11
112.957374
21
159.771170
0
LINE
8
Layer 1
10
112.957374
20
159.771170
11
111.530938
21
159.877122
0
LINE
8
Layer 1
10
111.530938
20
159.877122
11
110.031389
21
160.196389
0
LINE
8
Layer 1
10
110.031389
20
160.196389
11
108.577044
21
160.763197
0
LINE
8
Layer 1
10
108.577044
20
160.763197
11
107.156939
21
161.631117
0
LINE
8
Layer 1
10
107.156939
20
161.631117
11
105.805171
21
162.753987
0
LINE
8
Layer 1
10
105.805171
20
162.753987
11
104.555840
21
164.085643
0
LINE
8
Layer 1
10
104.555840
20
164.085643
11
103.443045
21
165.579923
0
LINE
8
Layer 1
10
103.443045
20
165.579923
11
102.500884
21
167.190663
0
LINE
8
Layer 1
10
102.500884
20
167.190663
11
101.763457
21
168.871702
0
LINE
8
Layer 1
10
101.763457
20
168.871702
11
101.264861
21
170.576875
0
LINE
8
Layer 1
10
101.264861
20
170.576875
11
100.241580
21
172.766729
0
LINE
8
Layer 1
10
100.241580
20
172.766729
11
99.532466
21
173.593974
0
LINE
8
Layer 1
10
99.532466
20
173.593974
11
98.433819
21
174.192847
0
LINE
8
Layer 1
10
98.433819
20
174.192847
11
65.775417
21
183.417986
0
LINE
8
Layer 1
10
65.775417
20
183.417986
11
67.672993
21
188.095036
0
LINE
8
Layer 1
10
67.672993
20
188.095036
11
69.824288
21
192.640057
0
LINE
8
Layer 1
10
69.824288
20
192.640057
11
72.220662
21
197.044598
0
LINE
8
Layer 1
10
72.220662
20
197.044598
11
74.853473
21
201.300210
0
LINE
8
Layer 1
10
74.853473
20
201.300210
11
77.714078
21
205.398443
0
LINE
8
Layer 1
10
77.714078
20
205.398443
11
80.793835
21
209.330845
0
LINE
8
Layer 1
10
80.793835
20
209.330845
11
84.084104
21
213.088968
0
LINE
8
Layer 1
10
84.084104
20
213.088968
11
87.576242
21
216.664361
0
LINE
8
Layer 1
10
87.576242
20
216.664361
11
91.261607
21
220.048573
0
LINE
8
Layer 1
10
91.261607
20
220.048573
11
95.131557
21
223.233156
0
LINE
8
Layer 1
10
95.131557
20
223.233156
11
99.177451
21
226.209658
0
LINE
8
Layer 1
10
99.177451
20
226.209658
11
103.390647
21
228.969629
0
LINE
8
Layer 1
10
103.390647
20
228.969629
11
107.762502
21
231.504620
0
LINE
8
Layer 1
10
107.762502
20
231.504620
11
112.284376
21
233.806181
0
LINE
8
Layer 1
10
112.284376
20
233.806181
11
116.947626
21
235.865860
0
LINE
8
Layer 1
10
116.947626
20
235.865860
11
121.743611
21
237.675208
0
LINE
8
Layer 1
10
121.743611
20
237.675208
11
121.743611
21
237.675208
0
LINE
8
Layer 1
10
280.061458
20
190.226597
11
280.531100
21
189.943147
0
LINE
8
Layer 1
10
280.531100
20
189.943147
11
281.105998
21
188.767165
0
LINE
8
Layer 1
10
281.105998
20
188.767165
11
283.448139
21
181.601181
0
LINE
8
Layer 1
10
283.448139
20
181.601181
11
285.147171
21
174.279360
0
LINE
8
Layer 1
10
285.147171
20
174.279360
11
286.357684
21
166.880856
0
LINE
8
Layer 1
10
286.357684
20
166.880856
11
287.076946
21
159.431977
0
LINE
8
Layer 1
10
287.076946
20
159.431977
11
287.302222
21
151.959028
0
LINE
8
Layer 1
10
287.302222
20
151.959028
11
287.046180
21
144.711686
0
LINE
8
Layer 1
10
287.046180
20
144.711686
11
286.320198
21
137.489887
0
LINE
8
Layer 1
10
286.320198
20
137.489887
11
285.121708
21
130.317017
0
LINE
8
Layer 1
10
285.121708
20
130.317017
11
283.448139
21
123.216458
0
LINE
8
Layer 1
10
283.448139
20
123.216458
11
281.105979
21
116.050482
0
LINE
8
Layer 1
10
281.105979
20
116.050482
11
280.531089
21
114.874495
0
LINE
8
Layer 1
10
280.531089
20
114.874495
11
280.061458
21
114.591042
0
LINE
8
Layer 1
10
280.061458
20
114.591042
11
279.929167
21
114.599861
0
LINE
8
Layer 1
10
279.929167
20
114.599861
11
219.956944
21
130.915833
0
LINE
8
Layer 1
10
219.956944
20
130.915833
11
214.346230
21
132.487167
0
LINE
8
Layer 1
10
214.346230
20
132.487167
11
211.375625
21
133.491111
0
LINE
8
Layer 1
10
211.375625
20
133.491111
11
210.594456
21
133.954625
0
LINE
8
Layer 1
10
210.594456
20
133.954625
11
210.088912
21
134.498480
0
LINE
8
Layer 1
10
210.088912
20
134.498480
11
209.567639
21
135.695972
0
LINE
8
Layer 1
10
209.567639
20
135.695972
11
208.858920
21
137.712770
0
LINE
8
Layer 1
10
208.858920
20
137.712770
11
207.949050
21
139.556924
0
LINE
8
Layer 1
10
207.949050
20
139.556924
11
206.840311
21
141.215000
0
LINE
8
Layer 1
10
206.840311
20
141.215000
11
205.534984
21
142.673565
0
LINE
8
Layer 1
10
205.534984
20
142.673565
11
204.035349
21
143.919185
0
LINE
8
Layer 1
10
204.035349
20
143.919185
11
202.343686
21
144.938424
0
LINE
8
Layer 1
10
202.343686
20
144.938424
11
200.462277
21
145.717850
0
LINE
8
Layer 1
10
200.462277
20
145.717850
11
198.393403
21
146.244028
0
LINE
8
Layer 1
10
198.393403
20
146.244028
11
197.320590
21
146.472763
0
LINE
8
Layer 1
10
197.320590
20
146.472763
11
197.027936
21
146.717158
0
LINE
8
Layer 1
10
197.027936
20
146.717158
11
196.902917
21
147.011319
0
LINE
8
Layer 1
10
196.902917
20
147.011319
11
196.950152
21
147.326855
0
LINE
8
Layer 1
10
196.950152
20
147.326855
11
197.173195
21
147.636250
0
LINE
8
Layer 1
10
197.173195
20
147.636250
11
198.155278
21
148.131389
0
LINE
8
Layer 1
10
198.155278
20
148.131389
11
199.914729
21
148.438675
0
LINE
8
Layer 1
10
199.914729
20
148.438675
11
201.689443
21
148.440204
0
LINE
8
Layer 1
10
201.689443
20
148.440204
11
203.438718
21
148.152981
0
LINE
8
Layer 1
10
203.438718
20
148.152981
11
205.121856
21
147.594014
0
LINE
8
Layer 1
10
205.121856
20
147.594014
11
206.698157
21
146.780310
0
LINE
8
Layer 1
10
206.698157
20
146.780310
11
208.126919
21
145.728874
0
LINE
8
Layer 1
10
208.126919
20
145.728874
11
209.367442
21
144.456713
0
LINE
8
Layer 1
10
209.367442
20
144.456713
11
210.379028
21
142.980833
0
LINE
8
Layer 1
10
210.379028
20
142.980833
11
211.099740
21
141.811678
0
LINE
8
Layer 1
10
211.099740
20
141.811678
11
211.880460
21
140.835480
0
LINE
8
Layer 1
10
211.880460
20
140.835480
11
212.809026
21
140.005925
0
LINE
8
Layer 1
10
212.809026
20
140.005925
11
213.973277
21
139.276700
0
LINE
8
Layer 1
10
213.973277
20
139.276700
11
215.461050
21
138.601489
0
LINE
8
Layer 1
10
215.461050
20
138.601489
11
217.360184
21
137.933980
0
LINE
8
Layer 1
10
217.360184
20
137.933980
11
222.743889
21
136.436806
0
LINE
8
Layer 1
10
222.743889
20
136.436806
11
246.027222
21
130.122083
0
LINE
8
Layer 1
10
246.027222
20
130.122083
11
264.614736
21
124.954972
0
LINE
8
Layer 1
10
264.614736
20
124.954972
11
273.757680
21
122.621870
0
LINE
8
Layer 1
10
273.757680
20
122.621870
11
275.854756
21
122.296547
0
LINE
8
Layer 1
10
275.854756
20
122.296547
11
276.871472
21
122.413893
0
LINE
8
Layer 1
10
276.871472
20
122.413893
11
277.108109
21
122.610877
0
LINE
8
Layer 1
10
277.108109
20
122.610877
11
277.234753
21
122.885299
0
LINE
8
Layer 1
10
277.234753
20
122.885299
11
277.371528
21
123.622153
0
LINE
8
Layer 1
10
277.371528
20
123.622153
11
278.544514
21
128.552222
0
LINE
8
Layer 1
10
278.544514
20
128.552222
11
279.655437
21
134.395861
0
LINE
8
Layer 1
10
279.655437
20
134.395861
11
280.457979
21
140.278550
0
LINE
8
Layer 1
10
280.457979
20
140.278550
11
280.949813
21
146.187259
0
LINE
8
Layer 1
10
280.949813
20
146.187259
11
281.128611
21
152.108958
0
LINE
8
Layer 1
10
281.128611
20
152.108958
11
280.984516
21
158.181481
0
LINE
8
Layer 1
10
280.984516
20
158.181481
11
280.507012
21
164.240643
0
LINE
8
Layer 1
10
280.507012
20
164.240643
11
279.694283
21
170.273077
0
LINE
8
Layer 1
10
279.694283
20
170.273077
11
278.544514
21
176.265417
0
LINE
8
Layer 1
10
278.544514
20
176.265417
11
277.371528
21
181.195486
0
LINE
8
Layer 1
10
277.371528
20
181.195486
11
277.234744
21
181.932346
0
LINE
8
Layer 1
10
277.234744
20
181.932346
11
277.108098
21
182.206769
0
LINE
8
Layer 1
10
277.108098
20
182.206769
11
276.871461
21
182.403752
0
LINE
8
Layer 1
10
276.871461
20
182.403752
11
275.854751
21
182.521094
0
LINE
8
Layer 1
10
275.854751
20
182.521094
11
273.757682
21
182.195765
0
LINE
8
Layer 1
10
273.757682
20
182.195765
11
264.614749
21
179.862656
0
LINE
8
Layer 1
10
264.614749
20
179.862656
11
246.027222
21
174.695556
0
LINE
8
Layer 1
10
246.027222
20
174.695556
11
222.743889
21
168.380833
0
LINE
8
Layer 1
10
222.743889
20
168.380833
11
217.360179
21
166.883656
0
LINE
8
Layer 1
10
217.360179
20
166.883656
11
215.461047
21
166.216142
0
LINE
8
Layer 1
10
215.461047
20
166.216142
11
213.973277
21
165.540927
0
LINE
8
Layer 1
10
213.973277
20
165.540927
11
212.809029
21
164.811699
0
LINE
8
Layer 1
10
212.809029
20
164.811699
11
211.880465
21
163.982145
0
LINE
8
Layer 1
10
211.880465
20
163.982145
11
211.099745
21
163.005951
0
LINE
8
Layer 1
10
211.099745
20
163.005951
11
210.379028
21
161.836806
0
LINE
8
Layer 1
10
210.379028
20
161.836806
11
209.367438
21
160.360927
0
LINE
8
Layer 1
10
209.367438
20
160.360927
11
208.126914
21
159.088766
0
LINE
8
Layer 1
10
208.126914
20
159.088766
11
206.698154
21
158.037329
0
LINE
8
Layer 1
10
206.698154
20
158.037329
11
205.121856
21
157.223623
0
LINE
8
Layer 1
10
205.121856
20
157.223623
11
203.438721
21
156.664656
0
LINE
8
Layer 1
10
203.438721
20
156.664656
11
201.689447
21
156.377433
0
LINE
8
Layer 1
10
201.689447
20
156.377433
11
199.914733
21
156.378962
0
LINE
8
Layer 1
10
199.914733
20
156.378962
11
198.155278
21
156.686250
0
LINE
8
Layer 1
10
198.155278
20
156.686250
11
197.173195
21
157.181396
0
LINE
8
Layer 1
10
197.173195
20
157.181396
11
196.950157
21
157.490794
0
LINE
8
Layer 1
10
196.950157
20
157.490794
11
196.902917
21
157.806319
0
LINE
8
Layer 1
10
196.902917
20
157.806319
11
197.027931
21
158.100491
0
LINE
8
Layer 1
10
197.027931
20
158.100491
11
197.320589
21
158.344883
0
LINE
8
Layer 1
10
197.320589
20
158.344883
11
198.393403
21
158.573611
0
LINE
8
Layer 1
10
198.393403
20
158.573611
11
200.462274
21
159.099786
0
LINE
8
Layer 1
10
200.462274
20
159.099786
11
202.343682
21
159.879208
0
LINE
8
Layer 1
10
202.343682
20
159.879208
11
204.035347
21
160.898443
0
LINE
8
Layer 1
10
204.035347
20
160.898443
11
205.534985
21
162.144059
0
LINE
8
Layer 1
10
205.534985
20
162.144059
11
206.840315
21
163.602622
0
LINE
8
Layer 1
10
206.840315
20
163.602622
11
207.949055
21
165.260700
0
LINE
8
Layer 1
10
207.949055
20
165.260700
11
208.858924
21
167.104859
0
LINE
8
Layer 1
10
208.858924
20
167.104859
11
209.567639
21
169.121667
0
LINE
8
Layer 1
10
209.567639
20
169.121667
11
210.088911
21
170.319158
0
LINE
8
Layer 1
10
210.088911
20
170.319158
11
210.594459
21
170.863012
0
LINE
8
Layer 1
10
210.594459
20
170.863012
11
211.375625
21
171.326528
0
LINE
8
Layer 1
10
211.375625
20
171.326528
11
214.346231
21
172.330471
0
LINE
8
Layer 1
10
214.346231
20
172.330471
11
219.956944
21
173.901806
0
LINE
8
Layer 1
10
219.956944
20
173.901806
11
279.929167
21
190.217778
0
LINE
8
Layer 1
10
279.929167
20
190.217778
11
280.061458
21
190.226597
0
LINE
8
Layer 1
10
280.061458
20
190.226597
11
280.061458
21
190.226597
0
LINE
8
Layer 1
10
24.747361
20
190.208958
11
24.879653
21
190.200139
0
LINE
8
Layer 1
10
24.879653
20
190.200139
11
84.851875
21
173.884167
0
LINE
8
Layer 1
10
84.851875
20
173.884167
11
90.462573
21
172.312832
0
LINE
8
Layer 1
10
90.462573
20
172.312832
11
93.433194
21
171.308889
0
LINE
8
Layer 1
10
93.433194
20
171.308889
11
94.214353
21
170.845374
0
LINE
8
Layer 1
10
94.214353
20
170.845374
11
94.719890
21
170.301519
0
LINE
8
Layer 1
10
94.719890
20
170.301519
11
95.241181
21
169.104028
0
LINE
8
Layer 1
10
95.241181
20
169.104028
11
95.949894
21
167.087230
0
LINE
8
Layer 1
10
95.949894
20
167.087230
11
96.859758
21
165.243075
0
LINE
8
Layer 1
10
96.859758
20
165.243075
11
97.968493
21
163.584998
0
LINE
8
Layer 1
10
97.968493
20
163.584998
11
99.273819
21
162.126434
0
LINE
8
Layer 1
10
99.273819
20
162.126434
11
100.773454
21
160.880815
0
LINE
8
Layer 1
10
100.773454
20
160.880815
11
102.465119
21
159.861575
0
LINE
8
Layer 1
10
102.465119
20
159.861575
11
104.346533
21
159.082150
0
LINE
8
Layer 1
10
104.346533
20
159.082150
11
106.415417
21
158.555972
0
LINE
8
Layer 1
10
106.415417
20
158.555972
11
107.488213
21
158.327243
0
LINE
8
Layer 1
10
107.488213
20
158.327243
11
107.780877
21
158.082853
0
LINE
8
Layer 1
10
107.780877
20
158.082853
11
107.905903
21
157.788681
0
LINE
8
Layer 1
10
107.905903
20
157.788681
11
107.858649
21
157.473155
0
LINE
8
Layer 1
10
107.858649
20
157.473155
11
107.635608
21
157.163758
0
LINE
8
Layer 1
10
107.635608
20
157.163758
11
106.653542
21
156.668611
0
LINE
8
Layer 1
10
106.653542
20
156.668611
11
104.894086
21
156.361322
0
LINE
8
Layer 1
10
104.894086
20
156.361322
11
103.119370
21
156.359791
0
LINE
8
Layer 1
10
103.119370
20
156.359791
11
101.370094
21
156.647014
0
LINE
8
Layer 1
10
101.370094
20
156.647014
11
99.686957
21
157.205981
0
LINE
8
Layer 1
10
99.686957
20
157.205981
11
98.110658
21
158.019687
0
LINE
8
Layer 1
10
98.110658
20
158.019687
11
96.681899
21
159.071125
0
LINE
8
Layer 1
10
96.681899
20
159.071125
11
95.441376
21
160.343287
0
LINE
8
Layer 1
10
95.441376
20
160.343287
11
94.429792
21
161.819167
0
LINE
8
Layer 1
10
94.429792
20
161.819167
11
93.709074
21
162.988321
0
LINE
8
Layer 1
10
93.709074
20
162.988321
11
92.928351
21
163.964519
0
LINE
8
Layer 1
10
92.928351
20
163.964519
11
91.999784
21
164.794073
0
LINE
8
Layer 1
10
91.999784
20
164.794073
11
90.835534
21
165.523299
0
LINE
8
Layer 1
10
90.835534
20
165.523299
11
89.347763
21
166.198510
0
LINE
8
Layer 1
10
89.347763
20
166.198510
11
87.448631
21
166.866020
0
LINE
8
Layer 1
10
87.448631
20
166.866020
11
82.064931
21
168.363194
0
LINE
8
Layer 1
10
82.064931
20
168.363194
11
58.781597
21
174.677917
0
LINE
8
Layer 1
10
58.781597
20
174.677917
11
40.194047
21
179.845031
0
LINE
8
Layer 1
10
40.194047
20
179.845031
11
31.051106
21
182.178139
0
LINE
8
Layer 1
10
31.051106
20
182.178139
11
28.954040
21
182.503465
0
LINE
8
Layer 1
10
28.954040
20
182.503465
11
27.937335
21
182.386119
0
LINE
8
Layer 1
10
27.937335
20
182.386119
11
27.700703
21
182.189134
0
LINE
8
Layer 1
10
27.700703
20
182.189134
11
27.574063
21
181.914709
0
LINE
8
Layer 1
10
27.574063
20
181.914709
11
27.437292
21
181.177847
0
LINE
8
Layer 1
10
27.437292
20
181.177847
11
26.264306
21
176.247778
0
LINE
8
Layer 1
10
26.264306
20
176.247778
11
25.153388
21
170.404142
0
LINE
8
Layer 1
10
25.153388
20
170.404142
11
24.350846
21
164.521460
0
LINE
8
Layer 1
10
24.350846
20
164.521460
11
23.859009
21
158.612753
0
LINE
8
Layer 1
10
23.859009
20
158.612753
11
23.680208
21
152.691042
0
LINE
8
Layer 1
10
23.680208
20
152.691042
11
23.824267
21
146.618529
0
LINE
8
Layer 1
10
23.824267
20
146.618529
11
24.301761
21
140.559366
0
LINE
8
Layer 1
10
24.301761
20
140.559366
11
25.114503
21
134.526926
0
LINE
8
Layer 1
10
25.114503
20
134.526926
11
26.264306
21
128.534583
0
LINE
8
Layer 1
10
26.264306
20
128.534583
11
27.437292
21
123.604514
0
LINE
8
Layer 1
10
27.437292
20
123.604514
11
27.574063
21
122.867660
0
LINE
8
Layer 1
10
27.574063
20
122.867660
11
27.700703
21
122.593239
0
LINE
8
Layer 1
10
27.700703
20
122.593239
11
27.937335
21
122.396258
0
LINE
8
Layer 1
10
27.937335
20
122.396258
11
28.954039
21
122.278915
0
LINE
8
Layer 1
10
28.954039
20
122.278915
11
31.051106
21
122.604243
0
LINE
8
Layer 1
10
31.051106
20
122.604243
11
40.194046
21
124.937347
0
LINE
8
Layer 1
10
40.194046
20
124.937347
11
58.781597
21
130.104444
0
LINE
8
Layer 1
10
58.781597
20
130.104444
11
82.064931
21
136.419167
0
LINE
8
Layer 1
10
82.064931
20
136.419167
11
87.448630
21
137.916343
0
LINE
8
Layer 1
10
87.448630
20
137.916343
11
89.347762
21
138.583857
0
LINE
8
Layer 1
10
89.347762
20
138.583857
11
90.835533
21
139.259072
0
LINE
8
Layer 1
10
90.835533
20
139.259072
11
91.999783
21
139.988300
0
LINE
8
Layer 1
10
91.999783
20
139.988300
11
92.928351
21
140.817855
0
LINE
8
Layer 1
10
92.928351
20
140.817855
11
93.709074
21
141.794048
0
LINE
8
Layer 1
10
93.709074
20
141.794048
11
94.429792
21
142.963194
0
LINE
8
Layer 1
10
94.429792
20
142.963194
11
95.441376
21
144.439072
0
LINE
8
Layer 1
10
95.441376
20
144.439072
11
96.681899
21
145.711233
0
LINE
8
Layer 1
10
96.681899
20
145.711233
11
98.110658
21
146.762670
0
LINE
8
Layer 1
10
98.110658
20
146.762670
11
99.686957
21
147.576376
0
LINE
8
Layer 1
10
99.686957
20
147.576376
11
101.370094
21
148.135343
0
LINE
8
Layer 1
10
101.370094
20
148.135343
11
103.119370
21
148.422566
0
LINE
8
Layer 1
10
103.119370
20
148.422566
11
104.894086
21
148.421038
0
LINE
8
Layer 1
10
104.894086
20
148.421038
11
106.653542
21
148.113750
0
LINE
8
Layer 1
10
106.653542
20
148.113750
11
107.635597
21
147.618610
0
LINE
8
Layer 1
10
107.635597
20
147.618610
11
107.858645
21
147.309216
0
LINE
8
Layer 1
10
107.858645
20
147.309216
11
107.905903
21
146.993681
0
LINE
8
Layer 1
10
107.905903
20
146.993681
11
107.780877
21
146.699518
0
LINE
8
Layer 1
10
107.780877
20
146.699518
11
107.488214
21
146.455125
0
LINE
8
Layer 1
10
107.488214
20
146.455125
11
106.415417
21
146.226389
0
LINE
8
Layer 1
10
106.415417
20
146.226389
11
104.346533
21
145.700211
0
LINE
8
Layer 1
10
104.346533
20
145.700211
11
102.465118
21
144.920788
0
LINE
8
Layer 1
10
102.465118
20
144.920788
11
100.773453
21
143.901552
0
LINE
8
Layer 1
10
100.773453
20
143.901552
11
99.273818
21
142.655937
0
LINE
8
Layer 1
10
99.273818
20
142.655937
11
97.968492
21
141.197375
0
LINE
8
Layer 1
10
97.968492
20
141.197375
11
96.859758
21
139.539298
0
LINE
8
Layer 1
10
96.859758
20
139.539298
11
95.949894
21
137.695140
0
LINE
8
Layer 1
10
95.949894
20
137.695140
11
95.241181
21
135.678333
0
LINE
8
Layer 1
10
95.241181
20
135.678333
11
94.719891
21
134.480841
0
LINE
8
Layer 1
10
94.719891
20
134.480841
11
94.214354
21
133.936988
0
LINE
8
Layer 1
10
94.214354
20
133.936988
11
93.433194
21
133.473472
0
LINE
8
Layer 1
10
93.433194
20
133.473472
11
90.462572
21
132.469528
0
LINE
8
Layer 1
10
90.462572
20
132.469528
11
84.851875
21
130.898194
0
LINE
8
Layer 1
10
84.851875
20
130.898194
11
24.879653
21
114.582222
0
LINE
8
Layer 1
10
24.879653
20
114.582222
11
24.616893
21
114.593715
0
LINE
8
Layer 1
10
24.616893
20
114.593715
11
24.369379
21
114.747507
0
LINE
8
Layer 1
10
24.369379
20
114.747507
11
23.787763
21
115.806292
0
LINE
8
Layer 1
10
23.787763
20
115.806292
11
21.351875
21
123.198819
0
LINE
8
Layer 1
10
21.351875
20
123.198819
11
19.652785
21
130.520650
0
LINE
8
Layer 1
10
19.652785
20
130.520650
11
18.442280
21
137.919152
0
LINE
8
Layer 1
10
18.442280
20
137.919152
11
17.723048
21
145.368026
0
LINE
8
Layer 1
10
17.723048
20
145.368026
11
17.497778
21
152.840972
0
LINE
8
Layer 1
10
17.497778
20
152.840972
11
17.753830
21
160.088313
0
LINE
8
Layer 1
10
17.753830
20
160.088313
11
18.479809
21
167.310119
0
LINE
8
Layer 1
10
18.479809
20
167.310119
11
19.678296
21
174.482994
0
LINE
8
Layer 1
10
19.678296
20
174.482994
11
21.351875
21
181.583542
0
LINE
8
Layer 1
10
21.351875
20
181.583542
11
23.698387
21
188.749537
0
LINE
8
Layer 1
10
23.698387
20
188.749537
11
24.276320
21
189.925520
0
LINE
8
Layer 1
10
24.276320
20
189.925520
11
24.747361
21
190.208958
0
LINE
8
Layer 1
10
24.747361
20
190.208958
11
24.747361
21
190.208958
0
LINE
8
Layer 1
10
273.111736
20
177.085625
11
274.389104
21
176.957703
0
LINE
8
Layer 1
10
274.389104
20
176.957703
11
275.237222
21
176.582917
0
LINE
8
Layer 1
10
275.237222
20
176.582917
11
275.598436
21
176.136911
0
LINE
8
Layer 1
10
275.598436
20
176.136911
11
275.854969
21
175.501243
0
LINE
8
Layer 1
10
275.854969
20
175.501243
11
276.072200
21
173.741157
0
LINE
8
Layer 1
10
276.072200
20
173.741157
11
275.925329
21
171.463141
0
LINE
8
Layer 1
10
275.925329
20
171.463141
11
275.450768
21
168.827677
0
LINE
8
Layer 1
10
275.450768
20
168.827677
11
274.684931
21
165.995246
0
LINE
8
Layer 1
10
274.684931
20
165.995246
11
273.664230
21
163.126330
0
LINE
8
Layer 1
10
273.664230
20
163.126330
11
272.425079
21
160.381412
0
LINE
8
Layer 1
10
272.425079
20
160.381412
11
271.003889
21
157.920972
0
LINE
8
Layer 1
10
271.003889
20
157.920972
11
269.719326
21
156.192428
0
LINE
8
Layer 1
10
269.719326
20
156.192428
11
267.978602
21
154.137777
0
LINE
8
Layer 1
10
267.978602
20
154.137777
11
263.817491
21
149.736346
0
LINE
8
Layer 1
10
263.817491
20
149.736346
11
259.898190
21
146.089068
0
LINE
8
Layer 1
10
259.898190
20
146.089068
11
258.459729
21
144.977108
0
LINE
8
Layer 1
10
258.459729
20
144.977108
11
257.598333
21
144.568333
0
LINE
8
Layer 1
10
257.598333
20
144.568333
11
256.959871
21
144.728892
0
LINE
8
Layer 1
10
256.959871
20
144.728892
11
256.273292
21
145.219185
0
LINE
8
Layer 1
10
256.273292
20
145.219185
11
255.523834
21
146.052125
0
LINE
8
Layer 1
10
255.523834
20
146.052125
11
254.696736
21
147.240625
0
LINE
8
Layer 1
10
254.696736
20
147.240625
11
253.003403
21
149.904097
0
LINE
8
Layer 1
10
253.003403
20
149.904097
11
254.291042
21
150.856597
0
LINE
8
Layer 1
10
254.291042
20
150.856597
11
256.469444
21
152.541111
0
LINE
8
Layer 1
10
256.469444
20
152.541111
11
258.436181
21
153.881667
0
LINE
8
Layer 1
10
258.436181
20
153.881667
11
259.544255
21
154.809946
0
LINE
8
Layer 1
10
259.544255
20
154.809946
11
260.975081
21
156.439160
0
LINE
8
Layer 1
10
260.975081
20
156.439160
11
264.224923
21
160.923892
0
LINE
8
Layer 1
10
264.224923
20
160.923892
11
267.025585
21
165.582858
0
LINE
8
Layer 1
10
267.025585
20
165.582858
11
267.894935
21
167.429866
0
LINE
8
Layer 1
10
267.894935
20
167.429866
11
268.216944
21
168.663056
0
LINE
8
Layer 1
10
268.216944
20
168.663056
11
268.094495
21
168.943803
0
LINE
8
Layer 1
10
268.094495
20
168.943803
11
267.714789
21
169.084115
0
LINE
8
Layer 1
10
267.714789
20
169.084115
11
266.109097
21
168.954097
0
LINE
8
Layer 1
10
266.109097
20
168.954097
11
264.290384
21
168.535254
0
LINE
8
Layer 1
10
264.290384
20
168.535254
11
262.813077
21
167.943042
0
LINE
8
Layer 1
10
262.813077
20
167.943042
11
261.440378
21
167.053788
0
LINE
8
Layer 1
10
261.440378
20
167.053788
11
259.935486
21
165.743819
0
LINE
8
Layer 1
10
259.935486
20
165.743819
11
258.118681
21
164.024028
0
LINE
8
Layer 1
10
258.118681
20
164.024028
11
255.728611
21
165.188194
0
LINE
8
Layer 1
10
255.728611
20
165.188194
11
252.068542
21
166.731597
0
LINE
8
Layer 1
10
252.068542
20
166.731597
11
251.218508
21
167.081453
0
LINE
8
Layer 1
10
251.218508
20
167.081453
11
250.895556
21
167.516528
0
LINE
8
Layer 1
10
250.895556
20
167.516528
11
250.970986
21
167.875098
0
LINE
8
Layer 1
10
250.970986
20
167.875098
11
251.272463
21
168.319321
0
LINE
8
Layer 1
10
251.272463
20
168.319321
11
252.571250
21
169.545000
0
LINE
8
Layer 1
10
252.571250
20
169.545000
11
254.459913
21
170.901891
0
LINE
8
Layer 1
10
254.459913
20
170.901891
11
256.803828
21
172.226141
0
LINE
8
Layer 1
10
256.803828
20
172.226141
11
259.464639
21
173.474726
0
LINE
8
Layer 1
10
259.464639
20
173.474726
11
262.303986
21
174.604621
0
LINE
8
Layer 1
10
262.303986
20
174.604621
11
265.183512
21
175.572801
0
LINE
8
Layer 1
10
265.183512
20
175.572801
11
267.964859
21
176.336242
0
LINE
8
Layer 1
10
267.964859
20
176.336242
11
270.509669
21
176.851918
0
LINE
8
Layer 1
10
270.509669
20
176.851918
11
272.679583
21
177.076806
0
LINE
8
Layer 1
10
272.679583
20
177.076806
11
273.111736
21
177.085625
0
LINE
8
Layer 1
10
273.111736
20
177.085625
11
273.111736
21
177.085625
0
LINE
8
Layer 1
10
31.053264
20
177.059167
11
33.822648
21
176.693220
0
LINE
8
Layer 1
10
33.822648
20
176.693220
11
37.494132
21
175.669146
0
LINE
8
Layer 1
10
37.494132
20
175.669146
11
41.642734
21
174.107564
0
LINE
8
Layer 1
10
41.642734
20
174.107564
11
45.843472
21
172.129097
0
LINE
8
Layer 1
10
45.843472
20
172.129097
11
47.809177
21
171.002326
0
LINE
8
Layer 1
10
47.809177
20
171.002326
11
49.629298
21
169.761062
0
LINE
8
Layer 1
10
49.629298
20
169.761062
11
51.313305
21
168.395316
0
LINE
8
Layer 1
10
51.313305
20
168.395316
11
52.870670
21
166.895098
0
LINE
8
Layer 1
10
52.870670
20
166.895098
11
54.310863
21
165.250419
0
LINE
8
Layer 1
10
54.310863
20
165.250419
11
55.643356
21
163.451290
0
LINE
8
Layer 1
10
55.643356
20
163.451290
11
56.877620
21
161.487721
0
LINE
8
Layer 1
10
56.877620
20
161.487721
11
58.023125
21
159.349722
0
LINE
8
Layer 1
10
58.023125
20
159.349722
11
59.242040
21
156.746675
0
LINE
8
Layer 1
10
59.242040
20
156.746675
11
60.011030
21
154.669827
0
LINE
8
Layer 1
10
60.011030
20
154.669827
11
60.443117
21
152.747908
0
LINE
8
Layer 1
10
60.443117
20
152.747908
11
60.651319
21
150.609653
0
LINE
8
Layer 1
10
60.651319
20
150.609653
11
60.713056
21
149.119167
0
LINE
8
Layer 1
10
60.713056
20
149.119167
11
60.581166
21
147.417781
0
LINE
8
Layer 1
10
60.581166
20
147.417781
11
60.341762
21
146.970319
0
LINE
8
Layer 1
10
60.341762
20
146.970319
11
59.949825
21
146.770546
0
LINE
8
Layer 1
10
59.949825
20
146.770546
11
59.377685
21
146.802615
0
LINE
8
Layer 1
10
59.377685
20
146.802615
11
58.597669
21
147.050677
0
LINE
8
Layer 1
10
58.597669
20
147.050677
11
56.303333
21
148.131389
0
LINE
8
Layer 1
10
56.303333
20
148.131389
11
54.800980
21
148.943454
0
LINE
8
Layer 1
10
54.800980
20
148.943454
11
53.992905
21
149.617587
0
LINE
8
Layer 1
10
53.992905
20
149.617587
11
53.674176
21
150.426155
0
LINE
8
Layer 1
10
53.674176
20
150.426155
11
53.639861
21
151.641528
0
LINE
8
Layer 1
10
53.639861
20
151.641528
11
53.421566
21
153.744981
0
LINE
8
Layer 1
10
53.421566
20
153.744981
11
52.629327
21
155.909833
0
LINE
8
Layer 1
10
52.629327
20
155.909833
11
51.222286
21
158.218155
0
LINE
8
Layer 1
10
51.222286
20
158.218155
11
49.159583
21
160.752014
0
LINE
8
Layer 1
10
49.159583
20
160.752014
11
46.463930
21
163.383048
0
LINE
8
Layer 1
10
46.463930
20
163.383048
11
43.327897
21
165.913254
0
LINE
8
Layer 1
10
43.327897
20
165.913254
11
40.327377
21
167.917770
0
LINE
8
Layer 1
10
40.327377
20
167.917770
11
39.057901
21
168.590126
0
LINE
8
Layer 1
10
39.057901
20
168.590126
11
38.038264
21
168.971736
0
LINE
8
Layer 1
10
38.038264
20
168.971736
11
37.112622
21
169.170541
0
LINE
8
Layer 1
10
37.112622
20
169.170541
11
36.671565
21
169.056218
0
LINE
8
Layer 1
10
36.671565
20
169.056218
11
36.596358
21
168.471911
0
LINE
8
Layer 1
10
36.596358
20
168.471911
11
36.768264
21
167.260764
0
LINE
8
Layer 1
10
36.768264
20
167.260764
11
37.624721
21
164.556464
0
LINE
8
Layer 1
10
37.624721
20
164.556464
11
39.202431
21
161.025417
0
LINE
8
Layer 1
10
39.202431
20
161.025417
11
41.292639
21
156.906736
0
LINE
8
Layer 1
10
41.292639
20
156.906736
11
39.361181
21
154.922361
0
LINE
8
Layer 1
10
39.361181
20
154.922361
11
37.835975
21
153.522332
0
LINE
8
Layer 1
10
37.835975
20
153.522332
11
36.874097
21
152.937986
0
LINE
8
Layer 1
10
36.874097
20
152.937986
11
36.495851
21
153.080930
0
LINE
8
Layer 1
10
36.495851
20
153.080930
11
35.998174
21
153.488425
0
LINE
8
Layer 1
10
35.998174
20
153.488425
11
34.769430
21
154.929772
0
LINE
8
Layer 1
10
34.769430
20
154.929772
11
33.437672
21
156.927449
0
LINE
8
Layer 1
10
33.437672
20
156.927449
11
32.252708
21
159.146875
0
LINE
8
Layer 1
10
32.252708
20
159.146875
11
31.153283
21
162.223911
0
LINE
8
Layer 1
10
31.153283
20
162.223911
11
30.180139
21
166.008403
0
LINE
8
Layer 1
10
30.180139
20
166.008403
11
29.623320
21
169.441269
0
LINE
8
Layer 1
10
29.623320
20
169.441269
11
29.333846
21
172.756384
0
LINE
8
Layer 1
10
29.333846
20
172.756384
11
29.339637
21
175.372005
0
LINE
8
Layer 1
10
29.339637
20
175.372005
11
29.461981
21
176.235711
0
LINE
8
Layer 1
10
29.461981
20
176.235711
11
29.668611
21
176.706389
0
LINE
8
Layer 1
10
29.668611
20
176.706389
11
30.198907
21
176.971531
0
LINE
8
Layer 1
10
30.198907
20
176.971531
11
31.053264
21
177.059167
0
LINE
8
Layer 1
10
31.053264
20
177.059167
11
31.053264
21
177.059167
0
LINE
8
Layer 1
10
152.400000
20
171.873333
11
154.412883
21
171.772728
0
LINE
8
Layer 1
10
154.412883
20
171.772728
11
156.367780
21
171.477458
0
LINE
8
Layer 1
10
156.367780
20
171.477458
11
158.254773
21
170.997336
0
LINE
8
Layer 1
10
158.254773
20
170.997336
11
160.063943
21
170.342177
0
LINE
8
Layer 1
10
160.063943
20
170.342177
11
161.785374
21
169.521798
0
LINE
8
Layer 1
10
161.785374
20
169.521798
11
163.409148
21
168.546011
0
LINE
8
Layer 1
10
163.409148
20
168.546011
11
164.925346
21
167.424632
0
LINE
8
Layer 1
10
164.925346
20
167.424632
11
166.324051
21
166.167475
0
LINE
8
Layer 1
10
166.324051
20
166.167475
11
167.595346
21
164.784356
0
LINE
8
Layer 1
10
167.595346
20
164.784356
11
168.729312
21
163.285089
0
LINE
8
Layer 1
10
168.729312
20
163.285089
11
169.716032
21
161.679488
0
LINE
8
Layer 1
10
169.716032
20
161.679488
11
170.545588
21
159.977369
0
LINE
8
Layer 1
10
170.545588
20
159.977369
11
171.208063
21
158.188546
0
LINE
8
Layer 1
10
171.208063
20
158.188546
11
171.693538
21
156.322833
0
LINE
8
Layer 1
10
171.693538
20
156.322833
11
171.992096
21
154.390047
0
LINE
8
Layer 1
10
171.992096
20
154.390047
11
172.093819
21
152.400000
0
LINE
8
Layer 1
10
172.093819
20
152.400000
11
171.992096
21
150.409953
0
LINE
8
Layer 1
10
171.992096
20
150.409953
11
171.693538
21
148.477167
0
LINE
8
Layer 1
10
171.693538
20
148.477167
11
171.208063
21
146.611454
0
LINE
8
Layer 1
10
171.208063
20
146.611454
11
170.545588
21
144.822631
0
LINE
8
Layer 1
10
170.545588
20
144.822631
11
169.716032
21
143.120511
0
LINE
8
Layer 1
10
169.716032
20
143.120511
11
168.729312
21
141.514911
0
LINE
8
Layer 1
10
168.729312
20
141.514911
11
167.595346
21
140.015643
0
LINE
8
Layer 1
10
167.595346
20
140.015643
11
166.324051
21
138.632524
0
LINE
8
Layer 1
10
166.324051
20
138.632524
11
164.925346
21
137.375367
0
LINE
8
Layer 1
10
164.925346
20
137.375367
11
163.409148
21
136.253988
0
LINE
8
Layer 1
10
163.409148
20
136.253988
11
161.785374
21
135.278201
0
LINE
8
Layer 1
10
161.785374
20
135.278201
11
160.063943
21
134.457821
0
LINE
8
Layer 1
10
160.063943
20
134.457821
11
158.254773
21
133.802663
0
LINE
8
Layer 1
10
158.254773
20
133.802663
11
156.367780
21
133.322542
0
LINE
8
Layer 1
10
156.367780
20
133.322542
11
154.412883
21
133.027271
0
LINE
8
Layer 1
10
154.412883
20
133.027271
11
152.400000
21
132.926667
0
LINE
8
Layer 1
10
152.400000
20
132.926667
11
150.387117
21
133.027271
0
LINE
8
Layer 1
10
150.387117
20
133.027271
11
148.432221
21
133.322541
0
LINE
8
Layer 1
10
148.432221
20
133.322541
11
146.545228
21
133.802662
0
LINE
8
Layer 1
10
146.545228
20
133.802662
11
144.736058
21
134.457820
0
LINE
8
Layer 1
10
144.736058
20
134.457820
11
143.014627
21
135.278200
0
LINE
8
Layer 1
10
143.014627
20
135.278200
11
141.390854
21
136.253987
0
LINE
8
Layer 1
10
141.390854
20
136.253987
11
139.874655
21
137.375366
0
LINE
8
Layer 1
10
139.874655
20
137.375366
11
138.475950
21
138.632523
0
LINE
8
Layer 1
10
138.475950
20
138.632523
11
137.204655
21
140.015642
0
LINE
8
Layer 1
10
137.204655
20
140.015642
11
136.070689
21
141.514910
0
LINE
8
Layer 1
10
136.070689
20
141.514910
11
135.083969
21
143.120511
0
LINE
8
Layer 1
10
135.083969
20
143.120511
11
134.254412
21
144.822630
0
LINE
8
Layer 1
10
134.254412
20
144.822630
11
133.591938
21
146.611454
0
LINE
8
Layer 1
10
133.591938
20
146.611454
11
133.106462
21
148.477166
0
LINE
8
Layer 1
10
133.106462
20
148.477166
11
132.807904
21
150.409953
0
LINE
8
Layer 1
10
132.807904
20
150.409953
11
132.706181
21
152.400000
0
LINE
8
Layer 1
10
132.706181
20
152.400000
11
132.807904
21
154.390047
0
LINE
8
Layer 1
10
132.807904
20
154.390047
11
133.106463
21
156.322834
0
LINE
8
Layer 1
10
133.106463
20
156.322834
11
133.591938
21
158.188547
0
LINE
8
Layer 1
10
133.591938
20
158.188547
11
134.254413
21
159.977370
0
LINE
8
Layer 1
10
134.254413
20
159.977370
11
135.083969
21
161.679490
0
LINE
8
Layer 1
10
135.083969
20
161.679490
11
136.070689
21
163.285091
0
LINE
8
Layer 1
10
136.070689
20
163.285091
11
137.204656
21
164.784358
0
LINE
8
Layer 1
10
137.204656
20
164.784358
11
138.475950
21
166.167477
0
LINE
8
Layer 1
10
138.475950
20
166.167477
11
139.874655
21
167.424634
0
LINE
8
Layer 1
10
139.874655
20
167.424634
11
141.390853
21
168.546013
0
LINE
8
Layer 1
10
141.390853
20
168.546013
11
143.014626
21
169.521799
0
LINE
8
Layer 1
10
143.014626
20
169.521799
11
144.736057
21
170.342179
0
LINE
8
Layer 1
10
144.736057
20
170.342179
11
146.545228
21
170.997337
0
LINE
8
Layer 1
10
146.545228
20
170.997337
11
148.432220
21
171.477458
0
LINE
8
Layer 1
10
148.432220
20
171.477458
11
150.387117
21
171.772729
0
LINE
8
Layer 1
10
150.387117
20
171.772729
11
152.400000
21
171.873333
0
LINE
8
Layer 1
10
152.400000
20
171.873333
11
152.400000
21
171.873333
0
LINE
8
Layer 1
10
242.278958
20
166.467014
11
245.452984
21
166.350970
0
LINE
8
Layer 1
10
245.452984
20
166.350970
11
248.504504
21
165.954585
0
LINE
8
Layer 1
10
248.504504
20
165.954585
11
251.320594
21
165.287453
0
LINE
8
Layer 1
10
251.320594
20
165.287453
11
253.788333
21
164.359167
0
LINE
8
Layer 1
10
253.788333
20
164.359167
11
256.867959
21
162.701828
0
LINE
8
Layer 1
10
256.867959
20
162.701828
11
259.168194
21
161.104792
0
LINE
8
Layer 1
10
259.168194
20
161.104792
11
260.401085
21
159.719164
0
LINE
8
Layer 1
10
260.401085
20
159.719164
11
260.776505
21
159.074486
0
LINE
8
Layer 1
10
260.776505
20
159.074486
11
260.914444
21
158.573611
0
LINE
8
Layer 1
10
260.914444
20
158.573611
11
260.762996
21
158.123591
0
LINE
8
Layer 1
10
260.762996
20
158.123591
11
260.356219
21
157.497652
0
LINE
8
Layer 1
10
260.356219
20
157.497652
11
259.062050
21
156.008879
0
LINE
8
Layer 1
10
259.062050
20
156.008879
11
257.602672
21
154.689018
0
LINE
8
Layer 1
10
257.602672
20
154.689018
11
256.989384
21
154.274217
0
LINE
8
Layer 1
10
256.989384
20
154.274217
11
256.548819
21
154.119792
0
LINE
8
Layer 1
10
256.548819
20
154.119792
11
251.019028
21
156.721528
0
LINE
8
Layer 1
10
251.019028
20
156.721528
11
247.077732
21
158.489931
0
LINE
8
Layer 1
10
247.077732
20
158.489931
11
245.335574
21
159.070569
0
LINE
8
Layer 1
10
245.335574
20
159.070569
11
243.698126
21
159.457554
0
LINE
8
Layer 1
10
243.698126
20
159.457554
11
242.129675
21
159.657427
0
LINE
8
Layer 1
10
242.129675
20
159.657427
11
240.594509
21
159.676730
0
LINE
8
Layer 1
10
240.594509
20
159.676730
11
239.056915
21
159.522004
0
LINE
8
Layer 1
10
239.056915
20
159.522004
11
237.481181
21
159.199792
0
LINE
8
Layer 1
10
237.481181
20
159.199792
11
233.764231
21
157.957528
0
LINE
8
Layer 1
10
233.764231
20
157.957528
11
228.652428
21
155.957354
0
LINE
8
Layer 1
10
228.652428
20
155.957354
11
224.127363
21
154.010742
0
LINE
8
Layer 1
10
224.127363
20
154.010742
11
222.704104
21
153.311108
0
LINE
8
Layer 1
10
222.704104
20
153.311108
11
222.170625
21
152.929167
0
LINE
8
Layer 1
10
222.170625
20
152.929167
11
222.764073
21
152.451761
0
LINE
8
Layer 1
10
222.764073
20
152.451761
11
224.398321
21
151.752618
0
LINE
8
Layer 1
10
224.398321
20
151.752618
11
229.782132
21
149.987107
0
LINE
8
Layer 1
10
229.782132
20
149.987107
11
236.307898
21
148.228598
0
LINE
8
Layer 1
10
236.307898
20
148.228598
11
241.961458
21
147.073056
0
LINE
8
Layer 1
10
241.961458
20
147.073056
11
243.410522
21
146.804936
0
LINE
8
Layer 1
10
243.410522
20
146.804936
11
244.343493
21
146.412989
0
LINE
8
Layer 1
10
244.343493
20
146.412989
11
244.987235
21
145.744738
0
LINE
8
Layer 1
10
244.987235
20
145.744738
11
245.568611
21
144.647708
0
LINE
8
Layer 1
10
245.568611
20
144.647708
11
247.597083
21
141.031736
0
LINE
8
Layer 1
10
247.597083
20
141.031736
11
248.259142
21
139.813117
0
LINE
8
Layer 1
10
248.259142
20
139.813117
11
248.379984
21
139.361479
0
LINE
8
Layer 1
10
248.379984
20
139.361479
11
248.329097
21
139.100278
0
LINE
8
Layer 1
10
248.329097
20
139.100278
11
247.909847
21
138.979851
0
LINE
8
Layer 1
10
247.909847
20
138.979851
11
247.050278
21
138.959167
0
LINE
8
Layer 1
10
247.050278
20
138.959167
11
244.068493
21
139.206498
0
LINE
8
Layer 1
10
244.068493
20
139.206498
11
240.241632
21
139.748417
0
LINE
8
Layer 1
10
240.241632
20
139.748417
11
236.405969
21
140.464564
0
LINE
8
Layer 1
10
236.405969
20
140.464564
11
233.397778
21
141.234583
0
LINE
8
Layer 1
10
233.397778
20
141.234583
11
230.618853
21
142.183085
0
LINE
8
Layer 1
10
230.618853
20
142.183085
11
228.013084
21
143.222900
0
LINE
8
Layer 1
10
228.013084
20
143.222900
11
219.357222
21
147.275903
0
LINE
8
Layer 1
10
219.357222
20
147.275903
11
213.653529
21
149.821123
0
LINE
8
Layer 1
10
213.653529
20
149.821123
11
209.012014
21
151.579792
0
LINE
8
Layer 1
10
209.012014
20
151.579792
11
205.122639
21
152.779236
0
LINE
8
Layer 1
10
205.122639
20
152.779236
11
208.280000
21
153.484792
0
LINE
8
Layer 1
10
208.280000
20
153.484792
11
209.984910
21
154.006621
0
LINE
8
Layer 1
10
209.984910
20
154.006621
11
212.293155
21
154.905377
0
LINE
8
Layer 1
10
212.293155
20
154.905377
11
217.505139
21
157.330069
0
LINE
8
Layer 1
10
217.505139
20
157.330069
11
225.835194
21
161.610062
0
LINE
8
Layer 1
10
225.835194
20
161.610062
11
230.907704
21
164.072837
0
LINE
8
Layer 1
10
230.907704
20
164.072837
11
234.043636
21
165.313968
0
LINE
8
Layer 1
10
234.043636
20
165.313968
11
236.563958
21
165.929028
0
LINE
8
Layer 1
10
236.563958
20
165.929028
11
239.384877
21
166.322048
0
LINE
8
Layer 1
10
239.384877
20
166.322048
11
242.278958
21
166.467014
0
LINE
8
Layer 1
10
242.278958
20
166.467014
11
242.278958
21
166.467014
0
LINE
8
Layer 1
10
57.282292
20
165.840833
11
57.758542
21
165.840833
0
LINE
8
Layer 1
10
57.758542
20
165.840833
11
60.740318
21
165.593489
0
LINE
8
Layer 1
10
60.740318
20
165.593489
11
64.567179
21
165.051572
0
LINE
8
Layer 1
10
64.567179
20
165.051572
11
68.402846
21
164.335431
0
LINE
8
Layer 1
10
68.402846
20
164.335431
11
71.411042
21
163.565417
0
LINE
8
Layer 1
10
71.411042
20
163.565417
11
74.189958
21
162.616917
0
LINE
8
Layer 1
10
74.189958
20
162.616917
11
76.795726
21
161.577109
0
LINE
8
Layer 1
10
76.795726
20
161.577109
11
85.451597
21
157.524097
0
LINE
8
Layer 1
10
85.451597
20
157.524097
11
91.155284
21
154.978896
0
LINE
8
Layer 1
10
91.155284
20
154.978896
11
95.796806
21
153.220208
0
LINE
8
Layer 1
10
95.796806
20
153.220208
11
99.686181
21
152.020764
0
LINE
8
Layer 1
10
99.686181
20
152.020764
11
96.528819
21
151.315208
0
LINE
8
Layer 1
10
96.528819
20
151.315208
11
94.823902
21
150.793392
0
LINE
8
Layer 1
10
94.823902
20
150.793392
11
92.515658
21
149.894642
0
LINE
8
Layer 1
10
92.515658
20
149.894642
11
87.303681
21
147.469931
0
LINE
8
Layer 1
10
87.303681
20
147.469931
11
78.973615
21
143.189947
0
LINE
8
Layer 1
10
78.973615
20
143.189947
11
73.901111
21
140.727171
0
LINE
8
Layer 1
10
73.901111
20
140.727171
11
70.765186
21
139.486035
0
LINE
8
Layer 1
10
70.765186
20
139.486035
11
68.244861
21
138.870972
0
LINE
8
Layer 1
10
68.244861
20
138.870972
11
65.993298
21
138.535401
0
LINE
8
Layer 1
10
65.993298
20
138.535401
11
63.684213
21
138.359539
0
LINE
8
Layer 1
10
63.684213
20
138.359539
11
61.360440
21
138.339505
0
LINE
8
Layer 1
10
61.360440
20
138.339505
11
59.064815
21
138.471414
0
LINE
8
Layer 1
10
59.064815
20
138.471414
11
56.840173
21
138.751385
0
LINE
8
Layer 1
10
56.840173
20
138.751385
11
54.729347
21
139.175533
0
LINE
8
Layer 1
10
54.729347
20
139.175533
11
52.775173
21
139.739977
0
LINE
8
Layer 1
10
52.775173
20
139.739977
11
51.020486
21
140.440833
0
LINE
8
Layer 1
10
51.020486
20
140.440833
11
47.940847
21
142.098181
0
LINE
8
Layer 1
10
47.940847
20
142.098181
11
45.640625
21
143.695208
0
LINE
8
Layer 1
10
45.640625
20
143.695208
11
44.407721
21
145.080844
0
LINE
8
Layer 1
10
44.407721
20
145.080844
11
44.032309
21
145.725517
0
LINE
8
Layer 1
10
44.032309
20
145.725517
11
43.894375
21
146.226389
0
LINE
8
Layer 1
10
43.894375
20
146.226389
11
44.045821
21
146.676399
0
LINE
8
Layer 1
10
44.045821
20
146.676399
11
44.452597
21
147.302335
0
LINE
8
Layer 1
10
44.452597
20
147.302335
11
45.746766
21
148.791116
0
LINE
8
Layer 1
10
45.746766
20
148.791116
11
47.206146
21
150.110989
0
LINE
8
Layer 1
10
47.206146
20
150.110989
11
47.819435
21
150.525789
0
LINE
8
Layer 1
10
47.819435
20
150.525789
11
48.260000
21
150.680208
0
LINE
8
Layer 1
10
48.260000
20
150.680208
11
53.789792
21
148.078472
0
LINE
8
Layer 1
10
53.789792
20
148.078472
11
57.731089
21
146.310068
0
LINE
8
Layer 1
10
57.731089
20
146.310068
11
59.473248
21
145.729434
0
LINE
8
Layer 1
10
59.473248
20
145.729434
11
61.110697
21
145.342453
0
LINE
8
Layer 1
10
61.110697
20
145.342453
11
62.679149
21
145.142583
0
LINE
8
Layer 1
10
62.679149
20
145.142583
11
64.214315
21
145.123281
0
LINE
8
Layer 1
10
64.214315
20
145.123281
11
65.751908
21
145.278004
0
LINE
8
Layer 1
10
65.751908
20
145.278004
11
67.327639
21
145.600208
0
LINE
8
Layer 1
10
67.327639
20
145.600208
11
71.044587
21
146.842481
0
LINE
8
Layer 1
10
71.044587
20
146.842481
11
76.156389
21
148.842655
0
LINE
8
Layer 1
10
76.156389
20
148.842655
11
80.681455
21
150.789261
0
LINE
8
Layer 1
10
80.681455
20
150.789261
11
82.104715
21
151.488893
0
LINE
8
Layer 1
10
82.104715
20
151.488893
11
82.638194
21
151.870833
0
LINE
8
Layer 1
10
82.638194
20
151.870833
11
82.044738
21
152.348236
0
LINE
8
Layer 1
10
82.044738
20
152.348236
11
80.410486
21
153.047377
0
LINE
8
Layer 1
10
80.410486
20
153.047377
11
75.026676
21
154.812889
0
LINE
8
Layer 1
10
75.026676
20
154.812889
11
68.500916
21
156.571400
0
LINE
8
Layer 1
10
68.500916
20
156.571400
11
62.847361
21
157.726944
0
LINE
8
Layer 1
10
62.847361
20
157.726944
11
61.398293
21
157.995051
0
LINE
8
Layer 1
10
61.398293
20
157.995051
11
60.465321
21
158.387007
0
LINE
8
Layer 1
10
60.465321
20
158.387007
11
59.821581
21
159.055268
0
LINE
8
Layer 1
10
59.821581
20
159.055268
11
59.240208
21
160.152292
0
LINE
8
Layer 1
10
59.240208
20
160.152292
11
57.211736
21
163.768264
0
LINE
8
Layer 1
10
57.211736
20
163.768264
11
56.549661
21
164.986881
0
LINE
8
Layer 1
10
56.549661
20
164.986881
11
56.428826
21
165.438520
0
LINE
8
Layer 1
10
56.428826
20
165.438520
11
56.479722
21
165.699722
0
LINE
8
Layer 1
10
56.479722
20
165.699722
11
57.282292
21
165.840833
0
LINE
8
Layer 1
10
57.282292
20
165.840833
11
57.282292
21
165.840833
0
LINE
8
Layer 1
10
47.210486
20
160.231667
11
47.848929
21
160.071107
0
LINE
8
Layer 1
10
47.848929
20
160.071107
11
48.535503
21
159.580821
0
LINE
8
Layer 1
10
48.535503
20
159.580821
11
49.284968
21
158.747885
0
LINE
8
Layer 1
10
49.284968
20
158.747885
11
50.112083
21
157.559375
0
LINE
8
Layer 1
10
50.112083
20
157.559375
11
51.805417
21
154.895903
0
LINE
8
Layer 1
10
51.805417
20
154.895903
11
50.517778
21
153.943403
0
LINE
8
Layer 1
10
50.517778
20
153.943403
11
48.339375
21
152.258889
0
LINE
8
Layer 1
10
48.339375
20
152.258889
11
46.372639
21
150.918333
0
LINE
8
Layer 1
10
46.372639
20
150.918333
11
45.264554
21
149.990051
0
LINE
8
Layer 1
10
45.264554
20
149.990051
11
43.833723
21
148.360835
0
LINE
8
Layer 1
10
43.833723
20
148.360835
11
40.583882
21
143.876104
0
LINE
8
Layer 1
10
40.583882
20
143.876104
11
37.783229
21
139.217140
0
LINE
8
Layer 1
10
37.783229
20
139.217140
11
36.913882
21
137.370134
0
LINE
8
Layer 1
10
36.913882
20
137.370134
11
36.591875
21
136.136944
0
LINE
8
Layer 1
10
36.591875
20
136.136944
11
36.714313
21
135.856199
0
LINE
8
Layer 1
10
36.714313
20
135.856199
11
37.094027
21
135.715895
0
LINE
8
Layer 1
10
37.094027
20
135.715895
11
38.699722
21
135.845903
0
LINE
8
Layer 1
10
38.699722
20
135.845903
11
40.518481
21
136.264759
0
LINE
8
Layer 1
10
40.518481
20
136.264759
11
41.995783
21
136.856977
0
LINE
8
Layer 1
10
41.995783
20
136.856977
11
43.368457
21
137.746227
0
LINE
8
Layer 1
10
43.368457
20
137.746227
11
44.873333
21
139.056181
0
LINE
8
Layer 1
10
44.873333
20
139.056181
11
46.690139
21
140.775972
0
LINE
8
Layer 1
10
46.690139
20
140.775972
11
49.080208
21
139.611806
0
LINE
8
Layer 1
10
49.080208
20
139.611806
11
52.740278
21
138.068403
0
LINE
8
Layer 1
10
52.740278
20
138.068403
11
53.590288
21
137.718545
0
LINE
8
Layer 1
10
53.590288
20
137.718545
11
53.913264
21
137.283472
0
LINE
8
Layer 1
10
53.913264
20
137.283472
11
53.837829
21
136.924901
0
LINE
8
Layer 1
10
53.837829
20
136.924901
11
53.536354
21
136.480678
0
LINE
8
Layer 1
10
53.536354
20
136.480678
11
52.237569
21
135.255000
0
LINE
8
Layer 1
10
52.237569
20
135.255000
11
49.843160
21
133.588064
0
LINE
8
Layer 1
10
49.843160
20
133.588064
11
46.807193
21
131.985635
0
LINE
8
Layer 1
10
46.807193
20
131.985635
11
43.387757
21
130.527916
0
LINE
8
Layer 1
10
43.387757
20
130.527916
11
39.842938
21
129.295110
0
LINE
8
Layer 1
10
39.842938
20
129.295110
11
36.430826
21
128.367421
0
LINE
8
Layer 1
10
36.430826
20
128.367421
11
33.409506
21
127.825051
0
LINE
8
Layer 1
10
33.409506
20
127.825051
11
31.037068
21
127.748204
0
LINE
8
Layer 1
10
31.037068
20
127.748204
11
30.174831
21
127.909415
0
LINE
8
Layer 1
10
30.174831
20
127.909415
11
29.571597
21
128.217083
0
LINE
8
Layer 1
10
29.571597
20
128.217083
11
29.210373
21
128.663084
0
LINE
8
Layer 1
10
29.210373
20
128.663084
11
28.953831
21
129.298748
0
LINE
8
Layer 1
10
28.953831
20
129.298748
11
28.736591
21
131.058830
0
LINE
8
Layer 1
10
28.736591
20
131.058830
11
28.883461
21
133.336845
0
LINE
8
Layer 1
10
28.883461
20
133.336845
11
29.358026
21
135.972312
0
LINE
8
Layer 1
10
29.358026
20
135.972312
11
30.123870
21
138.804746
0
LINE
8
Layer 1
10
30.123870
20
138.804746
11
31.144580
21
141.673665
0
LINE
8
Layer 1
10
31.144580
20
141.673665
11
32.383738
21
144.418587
0
LINE
8
Layer 1
10
32.383738
20
144.418587
11
33.804931
21
146.879028
0
LINE
8
Layer 1
10
33.804931
20
146.879028
11
35.089474
21
148.607568
0
LINE
8
Layer 1
10
35.089474
20
148.607568
11
36.830189
21
150.662218
0
LINE
8
Layer 1
10
36.830189
20
150.662218
11
40.991303
21
155.063650
0
LINE
8
Layer 1
10
40.991303
20
155.063650
11
44.910620
21
158.710930
0
LINE
8
Layer 1
10
44.910620
20
158.710930
11
46.349088
21
159.822891
0
LINE
8
Layer 1
10
46.349088
20
159.822891
11
47.210486
21
160.231667
0
LINE
8
Layer 1
10
47.210486
20
160.231667
11
47.210486
21
160.231667
0
LINE
8
Layer 1
10
244.977708
20
158.035625
11
246.321476
21
157.700457
0
LINE
8
Layer 1
10
246.321476
20
157.700457
11
248.505486
21
156.668611
0
LINE
8
Layer 1
10
248.505486
20
156.668611
11
250.007835
21
155.856541
0
LINE
8
Layer 1
10
250.007835
20
155.856541
11
250.815911
21
155.182409
0
LINE
8
Layer 1
10
250.815911
20
155.182409
11
251.134642
21
154.373843
0
LINE
8
Layer 1
10
251.134642
20
154.373843
11
251.168958
21
153.158472
0
LINE
8
Layer 1
10
251.168958
20
153.158472
11
251.387237
21
151.055018
0
LINE
8
Layer 1
10
251.387237
20
151.055018
11
252.179478
21
148.890173
0
LINE
8
Layer 1
10
252.179478
20
148.890173
11
253.586528
21
146.581856
0
LINE
8
Layer 1
10
253.586528
20
146.581856
11
255.649236
21
144.047986
0
LINE
8
Layer 1
10
255.649236
20
144.047986
11
258.344885
21
141.416961
0
LINE
8
Layer 1
10
258.344885
20
141.416961
11
261.480919
21
138.886754
0
LINE
8
Layer 1
10
261.480919
20
138.886754
11
264.481441
21
136.882233
0
LINE
8
Layer 1
10
264.481441
20
136.882233
11
265.750918
21
136.209875
0
LINE
8
Layer 1
10
265.750918
20
136.209875
11
266.770556
21
135.828264
0
LINE
8
Layer 1
10
266.770556
20
135.828264
11
267.696182
21
135.629472
0
LINE
8
Layer 1
10
267.696182
20
135.629472
11
268.137241
21
135.743801
0
LINE
8
Layer 1
10
268.137241
20
135.743801
11
268.212456
21
136.328104
0
LINE
8
Layer 1
10
268.212456
20
136.328104
11
268.040556
21
137.539236
0
LINE
8
Layer 1
10
268.040556
20
137.539236
11
267.184084
21
140.243545
0
LINE
8
Layer 1
10
267.184084
20
140.243545
11
265.606389
21
143.774583
0
LINE
8
Layer 1
10
265.606389
20
143.774583
11
263.516181
21
147.893264
0
LINE
8
Layer 1
10
263.516181
20
147.893264
11
265.447639
21
149.877639
0
LINE
8
Layer 1
10
265.447639
20
149.877639
11
266.972841
21
151.277674
0
LINE
8
Layer 1
10
266.972841
20
151.277674
11
267.934722
21
151.862014
0
LINE
8
Layer 1
10
267.934722
20
151.862014
11
268.312958
21
151.719077
0
LINE
8
Layer 1
10
268.312958
20
151.719077
11
268.810630
21
151.311589
0
LINE
8
Layer 1
10
268.810630
20
151.311589
11
270.039376
21
149.870247
0
LINE
8
Layer 1
10
270.039376
20
149.870247
11
271.371142
21
147.872566
0
LINE
8
Layer 1
10
271.371142
20
147.872566
11
272.556111
21
145.653125
0
LINE
8
Layer 1
10
272.556111
20
145.653125
11
273.655479
21
142.576108
0
LINE
8
Layer 1
10
273.655479
20
142.576108
11
274.628681
21
138.791597
0
LINE
8
Layer 1
10
274.628681
20
138.791597
11
275.185506
21
135.358740
0
LINE
8
Layer 1
10
275.185506
20
135.358740
11
275.475000
21
132.043624
0
LINE
8
Layer 1
10
275.475000
20
132.043624
11
275.469216
21
129.427998
0
LINE
8
Layer 1
10
275.469216
20
129.427998
11
275.346862
21
128.564290
0
LINE
8
Layer 1
10
275.346862
20
128.564290
11
275.140208
21
128.093611
0
LINE
8
Layer 1
10
275.140208
20
128.093611
11
274.609921
21
127.828468
0
LINE
8
Layer 1
10
274.609921
20
127.828468
11
273.755556
21
127.740833
0
LINE
8
Layer 1
10
273.755556
20
127.740833
11
270.986154
21
128.106782
0
LINE
8
Layer 1
10
270.986154
20
128.106782
11
267.314672
21
129.130864
0
LINE
8
Layer 1
10
267.314672
20
129.130864
11
263.166080
21
130.692447
0
LINE
8
Layer 1
10
263.166080
20
130.692447
11
258.965347
21
132.670903
0
LINE
8
Layer 1
10
258.965347
20
132.670903
11
256.999631
21
133.797672
0
LINE
8
Layer 1
10
256.999631
20
133.797672
11
255.179503
21
135.038936
0
LINE
8
Layer 1
10
255.179503
20
135.038936
11
253.495493
21
136.404682
0
LINE
8
Layer 1
10
253.495493
20
136.404682
11
251.938129
21
137.904900
0
LINE
8
Layer 1
10
251.938129
20
137.904900
11
250.497938
21
139.549579
0
LINE
8
Layer 1
10
250.497938
20
139.549579
11
249.165450
21
141.348709
0
LINE
8
Layer 1
10
249.165450
20
141.348709
11
247.931192
21
143.312279
0
LINE
8
Layer 1
10
247.931192
20
143.312279
11
246.785694
21
145.450278
0
LINE
8
Layer 1
10
246.785694
20
145.450278
11
245.566764
21
148.053324
0
LINE
8
Layer 1
10
245.566764
20
148.053324
11
244.797771
21
150.130180
0
LINE
8
Layer 1
10
244.797771
20
150.130180
11
244.365691
21
152.052102
0
LINE
8
Layer 1
10
244.365691
20
152.052102
11
244.157500
21
154.190347
0
LINE
8
Layer 1
10
244.157500
20
154.190347
11
244.095764
21
155.680833
0
LINE
8
Layer 1
10
244.095764
20
155.680833
11
244.247012
21
157.448766
0
LINE
8
Layer 1
10
244.247012
20
157.448766
11
244.522740
21
157.879679
0
LINE
8
Layer 1
10
244.522740
20
157.879679
11
244.977708
21
158.035625
0
LINE
8
Layer 1
10
244.977708
20
158.035625
11
244.977708
21
158.035625
0
LINE
8
Layer 1
10
191.849375
20
145.026944
11
193.276842
21
144.921936
0
LINE
8
Layer 1
10
193.276842
20
144.921936
11
194.777431
21
144.603611
0
LINE
8
Layer 1
10
194.777431
20
144.603611
11
196.231766
21
144.036802
0
LINE
8
Layer 1
10
196.231766
20
144.036802
11
197.651868
21
143.168881
0
LINE
8
Layer 1
10
197.651868
20
143.168881
11
199.003635
21
142.046011
0
LINE
8
Layer 1
10
199.003635
20
142.046011
11
200.252967
21
140.714355
0
LINE
8
Layer 1
10
200.252967
20
140.714355
11
201.365766
21
139.220076
0
LINE
8
Layer 1
10
201.365766
20
139.220076
11
202.307931
21
137.609336
0
LINE
8
Layer 1
10
202.307931
20
137.609336
11
203.045362
21
135.928298
0
LINE
8
Layer 1
10
203.045362
20
135.928298
11
203.543958
21
134.223125
0
LINE
8
Layer 1
10
203.543958
20
134.223125
11
204.567228
21
132.033292
0
LINE
8
Layer 1
10
204.567228
20
132.033292
11
205.276341
21
131.206042
0
LINE
8
Layer 1
10
205.276341
20
131.206042
11
206.375000
21
130.607153
0
LINE
8
Layer 1
10
206.375000
20
130.607153
11
239.024583
21
121.390833
0
LINE
8
Layer 1
10
239.024583
20
121.390833
11
237.127256
21
116.713089
0
LINE
8
Layer 1
10
237.127256
20
116.713089
11
234.976202
21
112.167366
0
LINE
8
Layer 1
10
234.976202
20
112.167366
11
232.580059
21
107.762122
0
LINE
8
Layer 1
10
232.580059
20
107.762122
11
229.947462
21
103.505811
0
LINE
8
Layer 1
10
229.947462
20
103.505811
11
227.087047
21
99.406889
0
LINE
8
Layer 1
10
227.087047
20
99.406889
11
224.007450
21
95.473813
0
LINE
8
Layer 1
10
224.007450
20
95.473813
11
220.717307
21
91.715037
0
LINE
8
Layer 1
10
220.717307
20
91.715037
11
217.225254
21
88.139018
0
LINE
8
Layer 1
10
217.225254
20
88.139018
11
213.539927
21
84.754211
0
LINE
8
Layer 1
10
213.539927
20
84.754211
11
209.669962
21
81.569073
0
LINE
8
Layer 1
10
209.669962
20
81.569073
11
205.623995
21
78.592058
0
LINE
8
Layer 1
10
205.623995
20
78.592058
11
201.410662
21
75.831622
0
LINE
8
Layer 1
10
201.410662
20
75.831622
11
197.038599
21
73.296222
0
LINE
8
Layer 1
10
197.038599
20
73.296222
11
192.516442
21
70.994313
0
LINE
8
Layer 1
10
192.516442
20
70.994313
11
187.852826
21
68.934351
0
LINE
8
Layer 1
10
187.852826
20
68.934351
11
183.056389
21
67.124792
0
LINE
8
Layer 1
10
183.056389
20
67.124792
11
174.219306
21
98.433819
0
LINE
8
Layer 1
10
174.219306
20
98.433819
11
173.620426
21
99.532478
0
LINE
8
Layer 1
10
173.620426
20
99.532478
11
172.793175
21
100.241590
0
LINE
8
Layer 1
10
172.793175
20
100.241590
11
170.603333
21
101.264861
0
LINE
8
Layer 1
10
170.603333
20
101.264861
11
168.898159
21
101.763465
0
LINE
8
Layer 1
10
168.898159
20
101.763465
11
167.217120
21
102.500899
0
LINE
8
Layer 1
10
167.217120
20
102.500899
11
165.606379
21
103.443064
0
LINE
8
Layer 1
10
165.606379
20
103.443064
11
164.112100
21
104.555860
0
LINE
8
Layer 1
10
164.112100
20
104.555860
11
162.780445
21
105.805190
0
LINE
8
Layer 1
10
162.780445
20
105.805190
11
161.657576
21
107.156954
0
LINE
8
Layer 1
10
161.657576
20
107.156954
11
160.789656
21
108.577053
0
LINE
8
Layer 1
10
160.789656
20
108.577053
11
160.222847
21
110.031389
0
LINE
8
Layer 1
10
160.222847
20
110.031389
11
159.903578
21
111.530946
0
LINE
8
Layer 1
10
159.903578
20
111.530946
11
159.797623
21
112.957386
0
LINE
8
Layer 1
10
159.797623
20
112.957386
11
159.912758
21
114.328175
0
LINE
8
Layer 1
10
159.912758
20
114.328175
11
160.256759
21
115.660779
0
LINE
8
Layer 1
10
160.256759
20
115.660779
11
160.837402
21
116.972666
0
LINE
8
Layer 1
10
160.837402
20
116.972666
11
161.662463
21
118.281301
0
LINE
8
Layer 1
10
161.662463
20
118.281301
11
162.739719
21
119.604150
0
LINE
8
Layer 1
10
162.739719
20
119.604150
11
164.076944
21
120.958681
0
LINE
8
Layer 1
10
164.076944
20
120.958681
11
166.208402
21
122.513658
0
LINE
8
Layer 1
10
166.208402
20
122.513658
11
168.204950
21
123.481603
0
LINE
8
Layer 1
10
168.204950
20
123.481603
11
170.267392
21
124.144995
0
LINE
8
Layer 1
10
170.267392
20
124.144995
11
172.596528
21
124.786319
0
LINE
8
Layer 1
10
172.596528
20
124.786319
11
174.021988
21
125.082022
0
LINE
8
Layer 1
10
174.021988
20
125.082022
11
175.349773
21
125.604962
0
LINE
8
Layer 1
10
175.349773
20
125.604962
11
176.558003
21
126.333301
0
LINE
8
Layer 1
10
176.558003
20
126.333301
11
177.624801
21
127.245202
0
LINE
8
Layer 1
10
177.624801
20
127.245202
11
178.528292
21
128.318826
0
LINE
8
Layer 1
10
178.528292
20
128.318826
11
179.246596
21
129.532337
0
LINE
8
Layer 1
10
179.246596
20
129.532337
11
179.757838
21
130.863897
0
LINE
8
Layer 1
10
179.757838
20
130.863897
11
180.040139
21
132.291667
0
LINE
8
Layer 1
10
180.040139
20
132.291667
11
180.674791
21
134.598220
0
LINE
8
Layer 1
10
180.674791
20
134.598220
11
181.336669
21
136.645674
0
LINE
8
Layer 1
10
181.336669
20
136.645674
11
182.302782
21
138.630586
0
LINE
8
Layer 1
10
182.302782
20
138.630586
11
183.850139
21
140.749514
0
LINE
8
Layer 1
10
183.850139
20
140.749514
11
185.868639
21
142.657082
0
LINE
8
Layer 1
10
185.868639
20
142.657082
11
187.835123
21
143.988109
0
LINE
8
Layer 1
10
187.835123
20
143.988109
11
189.808925
21
144.769197
0
LINE
8
Layer 1
10
189.808925
20
144.769197
11
191.849375
21
145.026944
0
LINE
8
Layer 1
10
191.849375
20
145.026944
11
191.849375
21
145.026944
0
LINE
8
Layer 1
10
112.950625
20
145.009306
11
114.992452
21
144.751558
0
LINE
8
Layer 1
10
114.992452
20
144.751558
11
116.969283
21
143.970471
0
LINE
8
Layer 1
10
116.969283
20
143.970471
11
118.938800
21
142.639443
0
LINE
8
Layer 1
10
118.938800
20
142.639443
11
120.958681
21
140.731875
0
LINE
8
Layer 1
10
120.958681
20
140.731875
11
122.412629
21
138.766989
0
LINE
8
Layer 1
10
122.412629
20
138.766989
11
123.353588
21
136.928613
0
LINE
8
Layer 1
10
123.353588
20
136.928613
11
123.998881
21
135.062615
0
LINE
8
Layer 1
10
123.998881
20
135.062615
11
124.565833
21
133.014861
0
LINE
8
Layer 1
10
124.565833
20
133.014861
11
124.583472
21
132.917847
0
LINE
8
Layer 1
10
124.583472
20
132.917847
11
125.022246
21
131.430273
0
LINE
8
Layer 1
10
125.022246
20
131.430273
11
125.662423
21
130.038874
0
LINE
8
Layer 1
10
125.662423
20
130.038874
11
126.487086
21
128.760190
0
LINE
8
Layer 1
10
126.487086
20
128.760190
11
127.479316
21
127.610761
0
LINE
8
Layer 1
10
127.479316
20
127.610761
11
128.622195
21
126.607126
0
LINE
8
Layer 1
10
128.622195
20
126.607126
11
129.898807
21
125.765826
0
LINE
8
Layer 1
10
129.898807
20
125.765826
11
131.292233
21
125.103401
0
LINE
8
Layer 1
10
131.292233
20
125.103401
11
132.785556
21
124.636389
0
LINE
8
Layer 1
10
132.785556
20
124.636389
11
134.920294
21
124.048161
0
LINE
8
Layer 1
10
134.920294
20
124.048161
11
136.849182
21
123.396730
0
LINE
8
Layer 1
10
136.849182
20
123.396730
11
138.739450
21
122.445702
0
LINE
8
Layer 1
10
138.739450
20
122.445702
11
140.758333
21
120.958681
0
LINE
8
Layer 1
10
140.758333
20
120.958681
11
142.095555
21
119.604158
0
LINE
8
Layer 1
10
142.095555
20
119.604158
11
143.172808
21
118.281313
0
LINE
8
Layer 1
10
143.172808
20
118.281313
11
143.997869
21
116.972679
0
LINE
8
Layer 1
10
143.997869
20
116.972679
11
144.578513
21
115.660791
0
LINE
8
Layer 1
10
144.578513
20
115.660791
11
144.922515
21
114.328183
0
LINE
8
Layer 1
10
144.922515
20
114.328183
11
145.037652
21
112.957391
0
LINE
8
Layer 1
10
145.037652
20
112.957391
11
144.931698
21
111.530948
0
LINE
8
Layer 1
10
144.931698
20
111.530948
11
144.612431
21
110.031389
0
LINE
8
Layer 1
10
144.612431
20
110.031389
11
144.045625
21
108.577052
0
LINE
8
Layer 1
10
144.045625
20
108.577052
11
143.177706
21
107.156950
0
LINE
8
Layer 1
10
143.177706
20
107.156950
11
142.054837
21
105.805182
0
LINE
8
Layer 1
10
142.054837
20
105.805182
11
140.723180
21
104.555850
0
LINE
8
Layer 1
10
140.723180
20
104.555850
11
139.228899
21
103.443052
0
LINE
8
Layer 1
10
139.228899
20
103.443052
11
137.618157
21
102.500888
0
LINE
8
Layer 1
10
137.618157
20
102.500888
11
135.937118
21
101.763458
0
LINE
8
Layer 1
10
135.937118
20
101.763458
11
134.231944
21
101.264861
0
LINE
8
Layer 1
10
134.231944
20
101.264861
11
132.042101
21
100.241589
0
LINE
8
Layer 1
10
132.042101
20
100.241589
11
131.214849
21
99.532478
0
LINE
8
Layer 1
10
131.214849
20
99.532478
11
130.615972
21
98.433819
0
LINE
8
Layer 1
10
130.615972
20
98.433819
11
121.770069
21
67.115972
0
LINE
8
Layer 1
10
121.770069
20
67.115972
11
116.972684
21
68.924171
0
LINE
8
Layer 1
10
116.972684
20
68.924171
11
112.307903
21
70.982763
0
LINE
8
Layer 1
10
112.307903
20
70.982763
11
107.784390
21
73.283303
0
LINE
8
Layer 1
10
107.784390
20
73.283303
11
103.410805
21
75.817345
0
LINE
8
Layer 1
10
103.410805
20
75.817345
11
99.195813
21
78.576440
0
LINE
8
Layer 1
10
99.195813
20
78.576440
11
95.148075
21
81.552144
0
LINE
8
Layer 1
10
95.148075
20
81.552144
11
91.276254
21
84.736010
0
LINE
8
Layer 1
10
91.276254
20
84.736010
11
87.589011
21
88.119590
0
LINE
8
Layer 1
10
87.589011
20
88.119590
11
84.095011
21
91.694438
0
LINE
8
Layer 1
10
84.095011
20
91.694438
11
80.802914
21
95.452108
0
LINE
8
Layer 1
10
80.802914
20
95.452108
11
77.721384
21
99.384153
0
LINE
8
Layer 1
10
77.721384
20
99.384153
11
74.859083
21
103.482127
0
LINE
8
Layer 1
10
74.859083
20
103.482127
11
72.224674
21
107.737582
0
LINE
8
Layer 1
10
72.224674
20
107.737582
11
69.826818
21
112.142073
0
LINE
8
Layer 1
10
69.826818
20
112.142073
11
67.674178
21
116.687153
0
LINE
8
Layer 1
10
67.674178
20
116.687153
11
65.775417
21
121.364375
0
LINE
8
Layer 1
10
65.775417
20
121.364375
11
98.433819
21
130.589514
0
LINE
8
Layer 1
10
98.433819
20
130.589514
11
99.532464
21
131.188403
0
LINE
8
Layer 1
10
99.532464
20
131.188403
11
100.241578
21
132.015653
0
LINE
8
Layer 1
10
100.241578
20
132.015653
11
101.264861
21
134.205486
0
LINE
8
Layer 1
10
101.264861
20
134.205486
11
101.763457
21
135.910659
0
LINE
8
Layer 1
10
101.763457
20
135.910659
11
102.500884
21
137.591697
0
LINE
8
Layer 1
10
102.500884
20
137.591697
11
103.443045
21
139.202438
0
LINE
8
Layer 1
10
103.443045
20
139.202438
11
104.555840
21
140.696717
0
LINE
8
Layer 1
10
104.555840
20
140.696717
11
105.805171
21
142.028373
0
LINE
8
Layer 1
10
105.805171
20
142.028373
11
107.156939
21
143.151243
0
LINE
8
Layer 1
10
107.156939
20
143.151243
11
108.577044
21
144.019164
0
LINE
8
Layer 1
10
108.577044
20
144.019164
11
110.031389
21
144.585972
0
LINE
8
Layer 1
10
110.031389
20
144.585972
11
111.527566
21
144.904297
0
LINE
8
Layer 1
10
111.527566
20
144.904297
11
112.950625
21
145.009306
0
LINE
8
Layer 1
10
112.950625
20
145.009306
11
112.950625
21
145.009306
0
LINE
8
Layer 1
10
245.894931
20
119.450556
11
258.083403
21
116.002153
0
LINE
8
Layer 1
10
258.083403
20
116.002153
11
255.782769
21
110.132391
0
LINE
8
Layer 1
10
255.782769
20
110.132391
11
253.154760
21
104.429670
0
LINE
8
Layer 1
10
253.154760
20
104.429670
11
250.210750
21
98.905139
0
LINE
8
Layer 1
10
250.210750
20
98.905139
11
246.962109
21
93.569948
0
LINE
8
Layer 1
10
246.962109
20
93.569948
11
243.420212
21
88.435247
0
LINE
8
Layer 1
10
243.420212
20
88.435247
11
239.596429
21
83.512186
0
LINE
8
Layer 1
10
239.596429
20
83.512186
11
235.502135
21
78.811913
0
LINE
8
Layer 1
10
235.502135
20
78.811913
11
231.148700
21
74.345579
0
LINE
8
Layer 1
10
231.148700
20
74.345579
11
226.547498
21
70.124333
0
LINE
8
Layer 1
10
226.547498
20
70.124333
11
221.709901
21
66.159325
0
LINE
8
Layer 1
10
221.709901
20
66.159325
11
216.647281
21
62.461705
0
LINE
8
Layer 1
10
216.647281
20
62.461705
11
211.371010
21
59.042622
0
LINE
8
Layer 1
10
211.371010
20
59.042622
11
205.892462
21
55.913225
0
LINE
8
Layer 1
10
205.892462
20
55.913225
11
200.223009
21
53.084665
0
LINE
8
Layer 1
10
200.223009
20
53.084665
11
194.374022
21
50.568091
0
LINE
8
Layer 1
10
194.374022
20
50.568091
11
188.356875
21
48.374653
0
LINE
8
Layer 1
10
188.356875
20
48.374653
11
184.970208
21
60.360278
0
LINE
8
Layer 1
10
184.970208
20
60.360278
11
190.207000
21
62.308650
0
LINE
8
Layer 1
10
190.207000
20
62.308650
11
195.298061
21
64.533646
0
LINE
8
Layer 1
10
195.298061
20
64.533646
11
200.233790
21
67.025841
0
LINE
8
Layer 1
10
200.233790
20
67.025841
11
205.004587
21
69.775807
0
LINE
8
Layer 1
10
205.004587
20
69.775807
11
209.600852
21
72.774119
0
LINE
8
Layer 1
10
209.600852
20
72.774119
11
214.012985
21
76.011351
0
LINE
8
Layer 1
10
214.012985
20
76.011351
11
218.231384
21
79.478077
0
LINE
8
Layer 1
10
218.231384
20
79.478077
11
222.246450
21
83.164872
0
LINE
8
Layer 1
10
222.246450
20
83.164872
11
226.048582
21
87.062308
0
LINE
8
Layer 1
10
226.048582
20
87.062308
11
229.628180
21
91.160960
0
LINE
8
Layer 1
10
229.628180
20
91.160960
11
232.975643
21
95.451402
0
LINE
8
Layer 1
10
232.975643
20
95.451402
11
236.081372
21
99.924209
0
LINE
8
Layer 1
10
236.081372
20
99.924209
11
238.935765
21
104.569953
0
LINE
8
Layer 1
10
238.935765
20
104.569953
11
241.529223
21
109.379210
0
LINE
8
Layer 1
10
241.529223
20
109.379210
11
243.852145
21
114.342553
0
LINE
8
Layer 1
10
243.852145
20
114.342553
11
245.894931
21
119.450556
0
LINE
8
Layer 1
10
245.894931
20
119.450556
11
245.894931
21
119.450556
0
LINE
8
Layer 1
10
58.913889
20
119.432917
11
60.958071
21
114.324532
0
LINE
8
Layer 1
10
60.958071
20
114.324532
11
63.282435
21
109.360935
0
LINE
8
Layer 1
10
63.282435
20
109.360935
11
65.877379
21
104.551552
0
LINE
8
Layer 1
10
65.877379
20
104.551552
11
68.733299
21
99.905808
0
LINE
8
Layer 1
10
68.733299
20
99.905808
11
71.840593
21
95.433128
0
LINE
8
Layer 1
10
71.840593
20
95.433128
11
75.189658
21
91.142937
0
LINE
8
Layer 1
10
75.189658
20
91.142937
11
78.770892
21
87.044660
0
LINE
8
Layer 1
10
78.770892
20
87.044660
11
82.574690
21
83.147722
0
LINE
8
Layer 1
10
82.574690
20
83.147722
11
86.591450
21
79.461549
0
LINE
8
Layer 1
10
86.591450
20
79.461549
11
90.811570
21
75.995566
0
LINE
8
Layer 1
10
90.811570
20
75.995566
11
95.225446
21
72.759198
0
LINE
8
Layer 1
10
95.225446
20
72.759198
11
99.823475
21
69.761869
0
LINE
8
Layer 1
10
99.823475
20
69.761869
11
104.596055
21
67.013006
0
LINE
8
Layer 1
10
104.596055
20
67.013006
11
109.533583
21
64.522033
0
LINE
8
Layer 1
10
109.533583
20
64.522033
11
114.626455
21
62.298375
0
LINE
8
Layer 1
10
114.626455
20
62.298375
11
119.865069
21
60.351458
0
LINE
8
Layer 1
10
119.865069
20
60.351458
11
116.478403
21
48.365833
0
LINE
8
Layer 1
10
116.478403
20
48.365833
11
110.459152
21
50.557807
0
LINE
8
Layer 1
10
110.459152
20
50.557807
11
104.607929
21
53.073006
0
LINE
8
Layer 1
10
104.607929
20
53.073006
11
98.936133
21
55.900287
0
LINE
8
Layer 1
10
98.936133
20
55.900287
11
93.455161
21
59.028507
0
LINE
8
Layer 1
10
93.455161
20
59.028507
11
88.176411
21
62.446524
0
LINE
8
Layer 1
10
88.176411
20
62.446524
11
83.111281
21
66.143196
0
LINE
8
Layer 1
10
83.111281
20
66.143196
11
78.271169
21
70.107379
0
LINE
8
Layer 1
10
78.271169
20
70.107379
11
73.667472
21
74.327930
0
LINE
8
Layer 1
10
73.667472
20
74.327930
11
69.311588
21
78.793709
0
LINE
8
Layer 1
10
69.311588
20
78.793709
11
65.214916
21
83.493571
0
LINE
8
Layer 1
10
65.214916
20
83.493571
11
61.388853
21
88.416374
0
LINE
8
Layer 1
10
61.388853
20
88.416374
11
57.844797
21
93.550975
0
LINE
8
Layer 1
10
57.844797
20
93.550975
11
54.594145
21
98.886233
0
LINE
8
Layer 1
10
54.594145
20
98.886233
11
51.648296
21
104.411003
0
LINE
8
Layer 1
10
51.648296
20
104.411003
11
49.018648
21
110.114145
0
LINE
8
Layer 1
10
49.018648
20
110.114145
11
46.716597
21
115.984514
0
LINE
8
Layer 1
10
46.716597
20
115.984514
11
58.913889
21
119.432917
0
LINE
8
Layer 1
10
58.913889
20
119.432917
11
58.913889
21
119.432917
0
LINE
8
Layer 1
10
147.020139
20
107.905903
11
147.335668
21
107.858659
0
LINE
8
Layer 1
10
147.335668
20
107.858659
11
147.645064
21
107.635617
0
LINE
8
Layer 1
10
147.645064
20
107.635617
11
148.140208
21
106.653542
0
LINE
8
Layer 1
10
148.140208
20
106.653542
11
148.447492
21
104.894085
0
LINE
8
Layer 1
10
148.447492
20
104.894085
11
148.449018
21
103.119369
0
LINE
8
Layer 1
10
148.449018
20
103.119369
11
148.161793
21
101.370092
0
LINE
8
Layer 1
10
148.161793
20
101.370092
11
147.602825
21
99.686956
0
LINE
8
Layer 1
10
147.602825
20
99.686956
11
146.789121
21
98.110658
0
LINE
8
Layer 1
10
146.789121
20
98.110658
11
145.737686
21
96.681898
0
LINE
8
Layer 1
10
145.737686
20
96.681898
11
144.465528
21
95.441376
0
LINE
8
Layer 1
10
144.465528
20
95.441376
11
142.989653
21
94.429792
0
LINE
8
Layer 1
10
142.989653
20
94.429792
11
141.820507
21
93.709073
0
LINE
8
Layer 1
10
141.820507
20
93.709073
11
140.844314
21
92.928351
0
LINE
8
Layer 1
10
140.844314
20
92.928351
11
140.014760
21
91.999784
0
LINE
8
Layer 1
10
140.014760
20
91.999784
11
139.285532
21
90.835535
0
LINE
8
Layer 1
10
139.285532
20
90.835535
11
138.610318
21
89.347765
0
LINE
8
Layer 1
10
138.610318
20
89.347765
11
137.942804
21
87.448633
0
LINE
8
Layer 1
10
137.942804
20
87.448633
11
136.445625
21
82.064931
0
LINE
8
Layer 1
10
136.445625
20
82.064931
11
130.130903
21
58.781597
0
LINE
8
Layer 1
10
130.130903
20
58.781597
11
124.963802
21
40.194056
0
LINE
8
Layer 1
10
124.963802
20
40.194056
11
122.630692
21
31.051121
0
LINE
8
Layer 1
10
122.630692
20
31.051121
11
122.305363
21
28.954055
0
LINE
8
Layer 1
10
122.305363
20
28.954055
11
122.422705
21
27.937349
0
LINE
8
Layer 1
10
122.422705
20
27.937349
11
122.619688
21
27.700715
0
LINE
8
Layer 1
10
122.619688
20
27.700715
11
122.894111
21
27.574071
0
LINE
8
Layer 1
10
122.894111
20
27.574071
11
123.630972
21
27.437292
0
LINE
8
Layer 1
10
123.630972
20
27.437292
11
128.561042
21
26.264306
0
LINE
8
Layer 1
10
128.561042
20
26.264306
11
134.404681
21
25.153374
0
LINE
8
Layer 1
10
134.404681
20
25.153374
11
140.287366
21
24.350833
0
LINE
8
Layer 1
10
140.287366
20
24.350833
11
146.196073
21
23.859004
0
LINE
8
Layer 1
10
146.196073
20
23.859004
11
152.117778
21
23.680208
0
LINE
8
Layer 1
10
152.117778
20
23.680208
11
158.190294
21
23.824277
0
LINE
8
Layer 1
10
158.190294
20
23.824277
11
164.249457
21
24.301763
0
LINE
8
Layer 1
10
164.249457
20
24.301763
11
170.281895
21
25.114496
0
LINE
8
Layer 1
10
170.281895
20
25.114496
11
176.274236
21
26.264306
0
LINE
8
Layer 1
10
176.274236
20
26.264306
11
181.204306
21
27.437292
0
LINE
8
Layer 1
10
181.204306
20
27.437292
11
181.941162
21
27.574071
0
LINE
8
Layer 1
10
181.941162
20
27.574071
11
182.215583
21
27.700714
0
LINE
8
Layer 1
10
182.215583
20
27.700714
11
182.412565
21
27.937348
0
LINE
8
Layer 1
10
182.412565
20
27.937348
11
182.529908
21
28.954055
0
LINE
8
Layer 1
10
182.529908
20
28.954055
11
182.204579
21
31.051121
0
LINE
8
Layer 1
10
182.204579
20
31.051121
11
179.871474
21
40.194056
0
LINE
8
Layer 1
10
179.871474
20
40.194056
11
174.704375
21
58.781597
0
LINE
8
Layer 1
10
174.704375
20
58.781597
11
168.389653
21
82.064931
0
LINE
8
Layer 1
10
168.389653
20
82.064931
11
166.892472
21
87.448632
0
LINE
8
Layer 1
10
166.892472
20
87.448632
11
166.224961
21
89.347764
0
LINE
8
Layer 1
10
166.224961
20
89.347764
11
165.549751
21
90.835535
0
LINE
8
Layer 1
10
165.549751
20
90.835535
11
164.820527
21
91.999785
0
LINE
8
Layer 1
10
164.820527
20
91.999785
11
163.990974
21
92.928351
0
LINE
8
Layer 1
10
163.990974
20
92.928351
11
163.014778
21
93.709074
0
LINE
8
Layer 1
10
163.014778
20
93.709074
11
161.845625
21
94.429792
0
LINE
8
Layer 1
10
161.845625
20
94.429792
11
160.369750
21
95.441376
0
LINE
8
Layer 1
10
160.369750
20
95.441376
11
159.097590
21
96.681897
0
LINE
8
Layer 1
10
159.097590
20
96.681897
11
158.046153
21
98.110657
0
LINE
8
Layer 1
10
158.046153
20
98.110657
11
157.232447
21
99.686956
0
LINE
8
Layer 1
10
157.232447
20
99.686956
11
156.673478
21
101.370093
0
LINE
8
Layer 1
10
156.673478
20
101.370093
11
156.386254
21
103.119369
0
LINE
8
Layer 1
10
156.386254
20
103.119369
11
156.387782
21
104.894086
0
LINE
8
Layer 1
10
156.387782
20
104.894086
11
156.695069
21
106.653542
0
LINE
8
Layer 1
10
156.695069
20
106.653542
11
157.190212
21
107.635617
0
LINE
8
Layer 1
10
157.190212
20
107.635617
11
157.499605
21
107.858660
0
LINE
8
Layer 1
10
157.499605
20
107.858660
11
157.815139
21
107.905903
0
LINE
8
Layer 1
10
157.815139
20
107.905903
11
158.109305
21
107.780880
0
LINE
8
Layer 1
10
158.109305
20
107.780880
11
158.353697
21
107.488223
0
LINE
8
Layer 1
10
158.353697
20
107.488223
11
158.582431
21
106.415417
0
LINE
8
Layer 1
10
158.582431
20
106.415417
11
159.108612
21
104.346540
0
LINE
8
Layer 1
10
159.108612
20
104.346540
11
159.888039
21
102.465129
0
LINE
8
Layer 1
10
159.888039
20
102.465129
11
160.907278
21
100.773464
0
LINE
8
Layer 1
10
160.907278
20
100.773464
11
162.152896
21
99.273827
0
LINE
8
Layer 1
10
162.152896
20
99.273827
11
163.611459
21
97.968499
0
LINE
8
Layer 1
10
163.611459
20
97.968499
11
165.269534
21
96.859761
0
LINE
8
Layer 1
10
165.269534
20
96.859761
11
167.113688
21
95.949895
0
LINE
8
Layer 1
10
167.113688
20
95.949895
11
169.130486
21
95.241181
0
LINE
8
Layer 1
10
169.130486
20
95.241181
11
170.327971
21
94.719901
0
LINE
8
Layer 1
10
170.327971
20
94.719901
11
170.871829
21
94.214357
0
LINE
8
Layer 1
10
170.871829
20
94.214357
11
171.335347
21
93.433194
0
LINE
8
Layer 1
10
171.335347
20
93.433194
11
172.339295
21
90.462581
0
LINE
8
Layer 1
10
172.339295
20
90.462581
11
173.910625
21
84.851875
0
LINE
8
Layer 1
10
173.910625
20
84.851875
11
190.226597
21
24.879653
0
LINE
8
Layer 1
10
190.226597
20
24.879653
11
190.215098
21
24.616896
0
LINE
8
Layer 1
10
190.215098
20
24.616896
11
190.061304
21
24.369386
0
LINE
8
Layer 1
10
190.061304
20
24.369386
11
189.002520
21
23.787775
0
LINE
8
Layer 1
10
189.002520
20
23.787775
11
181.610000
21
21.351861
0
LINE
8
Layer 1
10
181.610000
20
21.351861
11
174.288162
21
19.652821
0
LINE
8
Layer 1
10
174.288162
20
19.652821
11
166.889660
21
18.442316
0
LINE
8
Layer 1
10
166.889660
20
18.442316
11
159.440790
21
17.723062
0
LINE
8
Layer 1
10
159.440790
20
17.723062
11
151.967847
21
17.497778
0
LINE
8
Layer 1
10
151.967847
20
17.497778
11
144.720516
21
17.753832
0
LINE
8
Layer 1
10
144.720516
20
17.753832
11
137.498709
21
18.479812
0
LINE
8
Layer 1
10
137.498709
20
18.479812
11
130.325829
21
19.678296
0
LINE
8
Layer 1
10
130.325829
20
19.678296
11
123.225278
21
21.351861
0
LINE
8
Layer 1
10
123.225278
20
21.351861
11
115.832730
21
23.787779
0
LINE
8
Layer 1
10
115.832730
20
23.787779
11
114.773951
21
24.369388
0
LINE
8
Layer 1
10
114.773951
20
24.369388
11
114.620166
21
24.616897
0
LINE
8
Layer 1
10
114.620166
20
24.616897
11
114.608681
21
24.879653
0
LINE
8
Layer 1
10
114.608681
20
24.879653
11
130.924653
21
84.851875
0
LINE
8
Layer 1
10
130.924653
20
84.851875
11
132.495999
21
90.462582
0
LINE
8
Layer 1
10
132.495999
20
90.462582
11
133.499931
21
93.433194
0
LINE
8
Layer 1
10
133.499931
20
93.433194
11
133.963459
21
94.214355
0
LINE
8
Layer 1
10
133.963459
20
94.214355
11
134.507312
21
94.719900
0
LINE
8
Layer 1
10
134.507312
20
94.719900
11
135.704792
21
95.241181
0
LINE
8
Layer 1
10
135.704792
20
95.241181
11
137.721599
21
95.949894
0
LINE
8
Layer 1
10
137.721599
20
95.949894
11
139.565757
21
96.859761
0
LINE
8
Layer 1
10
139.565757
20
96.859761
11
141.223835
21
97.968499
0
LINE
8
Layer 1
10
141.223835
20
97.968499
11
142.682397
21
99.273828
0
LINE
8
Layer 1
10
142.682397
20
99.273828
11
143.928013
21
100.773466
0
LINE
8
Layer 1
10
143.928013
20
100.773466
11
144.947248
21
102.465131
0
LINE
8
Layer 1
10
144.947248
20
102.465131
11
145.726671
21
104.346541
0
LINE
8
Layer 1
10
145.726671
20
104.346541
11
146.252847
21
106.415417
0
LINE
8
Layer 1
10
146.252847
20
106.415417
11
146.481569
21
107.488222
0
LINE
8
Layer 1
10
146.481569
20
107.488222
11
146.725964
21
107.780880
0
LINE
8
Layer 1
10
146.725964
20
107.780880
11
147.020139
21
107.905903
0
LINE
8
Layer 1
10
147.020139
20
107.905903
11
147.020139
21
107.905903
0
LINE
8
Layer 1
10
152.788056
20
99.686181
11
153.493611
21
96.528819
0
LINE
8
Layer 1
10
153.493611
20
96.528819
11
154.015419
21
94.823901
0
LINE
8
Layer 1
10
154.015419
20
94.823901
11
154.914170
21
92.515657
0
LINE
8
Layer 1
10
154.914170
20
92.515657
11
157.338889
21
87.303681
0
LINE
8
Layer 1
10
157.338889
20
87.303681
11
161.618876
21
78.973621
0
LINE
8
Layer 1
10
161.618876
20
78.973621
11
164.081651
21
73.901119
0
LINE
8
Layer 1
10
164.081651
20
73.901119
11
165.322785
21
70.765192
0
LINE
8
Layer 1
10
165.322785
20
70.765192
11
165.937847
21
68.244861
0
LINE
8
Layer 1
10
165.937847
20
68.244861
11
166.273421
21
65.993300
0
LINE
8
Layer 1
10
166.273421
20
65.993300
11
166.449284
21
63.684217
0
LINE
8
Layer 1
10
166.449284
20
63.684217
11
166.469319
21
61.360447
0
LINE
8
Layer 1
10
166.469319
20
61.360447
11
166.337409
21
59.064823
0
LINE
8
Layer 1
10
166.337409
20
59.064823
11
166.057437
21
56.840180
0
LINE
8
Layer 1
10
166.057437
20
56.840180
11
165.633287
21
54.729354
0
LINE
8
Layer 1
10
165.633287
20
54.729354
11
165.068843
21
52.775177
0
LINE
8
Layer 1
10
165.068843
20
52.775177
11
164.367986
21
51.020486
0
LINE
8
Layer 1
10
164.367986
20
51.020486
11
162.710641
21
47.940866
0
LINE
8
Layer 1
10
162.710641
20
47.940866
11
161.113611
21
45.640625
0
LINE
8
Layer 1
10
161.113611
20
45.640625
11
159.727978
21
44.407729
0
LINE
8
Layer 1
10
159.727978
20
44.407729
11
159.083303
21
44.032312
0
LINE
8
Layer 1
10
159.083303
20
44.032312
11
158.582431
21
43.894375
0
LINE
8
Layer 1
10
158.582431
20
43.894375
11
158.132415
21
44.045820
0
LINE
8
Layer 1
10
158.132415
20
44.045820
11
157.506476
21
44.452594
0
LINE
8
Layer 1
10
157.506476
20
44.452594
11
156.017696
21
45.746764
0
LINE
8
Layer 1
10
156.017696
20
45.746764
11
154.697828
21
47.206146
0
LINE
8
Layer 1
10
154.697828
20
47.206146
11
154.283030
21
47.819435
0
LINE
8
Layer 1
10
154.283030
20
47.819435
11
154.128611
21
48.260000
0
LINE
8
Layer 1
10
154.128611
20
48.260000
11
156.730347
21
53.789792
0
LINE
8
Layer 1
10
156.730347
20
53.789792
11
158.498755
21
57.731105
0
LINE
8
Layer 1
10
158.498755
20
57.731105
11
159.079390
21
59.473264
0
LINE
8
Layer 1
10
159.079390
20
59.473264
11
159.466370
21
61.110709
0
LINE
8
Layer 1
10
159.466370
20
61.110709
11
159.666239
21
62.679155
0
LINE
8
Layer 1
10
159.666239
20
62.679155
11
159.685540
21
64.214316
0
LINE
8
Layer 1
10
159.685540
20
64.214316
11
159.530816
21
65.751906
0
LINE
8
Layer 1
10
159.530816
20
65.751906
11
159.208611
21
67.327639
0
LINE
8
Layer 1
10
159.208611
20
67.327639
11
157.966342
21
71.044580
0
LINE
8
Layer 1
10
157.966342
20
71.044580
11
155.966168
21
76.156384
0
LINE
8
Layer 1
10
155.966168
20
76.156384
11
154.019559
21
80.681454
0
LINE
8
Layer 1
10
154.019559
20
80.681454
11
153.319927
21
82.104715
0
LINE
8
Layer 1
10
153.319927
20
82.104715
11
152.937986
21
82.638194
0
LINE
8
Layer 1
10
152.937986
20
82.638194
11
152.460586
21
82.044740
0
LINE
8
Layer 1
10
152.460586
20
82.044740
11
151.761446
21
80.410490
0
LINE
8
Layer 1
10
151.761446
20
80.410490
11
149.995934
21
75.026680
0
LINE
8
Layer 1
10
149.995934
20
75.026680
11
148.237420
21
68.500919
0
LINE
8
Layer 1
10
148.237420
20
68.500919
11
147.081875
21
62.847361
0
LINE
8
Layer 1
10
147.081875
20
62.847361
11
146.813760
21
61.398289
0
LINE
8
Layer 1
10
146.813760
20
61.398289
11
146.421805
21
60.465319
0
LINE
8
Layer 1
10
146.421805
20
60.465319
11
145.753548
21
59.821581
0
LINE
8
Layer 1
10
145.753548
20
59.821581
11
144.656528
21
59.240208
0
LINE
8
Layer 1
10
144.656528
20
59.240208
11
141.040556
21
57.211736
0
LINE
8
Layer 1
10
141.040556
20
57.211736
11
139.821937
21
56.549670
0
LINE
8
Layer 1
10
139.821937
20
56.549670
11
139.370299
21
56.428832
0
LINE
8
Layer 1
10
139.370299
20
56.428832
11
139.109097
21
56.479722
0
LINE
8
Layer 1
10
139.109097
20
56.479722
11
138.974453
21
57.140855
0
LINE
8
Layer 1
10
138.974453
20
57.140855
11
139.010179
21
58.536105
0
LINE
8
Layer 1
10
139.010179
20
58.536105
11
139.481391
21
62.749453
0
LINE
8
Layer 1
10
139.481391
20
62.749453
11
140.300032
21
67.560765
0
LINE
8
Layer 1
10
140.300032
20
67.560765
11
141.243403
21
71.411042
0
LINE
8
Layer 1
10
141.243403
20
71.411042
11
142.191917
21
74.189970
0
LINE
8
Layer 1
10
142.191917
20
74.189970
11
143.231727
21
76.795738
0
LINE
8
Layer 1
10
143.231727
20
76.795738
11
147.284722
21
85.451597
0
LINE
8
Layer 1
10
147.284722
20
85.451597
11
149.829916
21
91.155283
0
LINE
8
Layer 1
10
149.829916
20
91.155283
11
151.588611
21
95.796806
0
LINE
8
Layer 1
10
151.588611
20
95.796806
11
152.788056
21
99.686181
0
LINE
8
Layer 1
10
152.788056
20
99.686181
11
152.788056
21
99.686181
0
LINE
8
Layer 1
10
155.689653
20
60.713056
11
157.391030
21
60.581163
0
LINE
8
Layer 1
10
157.391030
20
60.581163
11
157.838492
21
60.341759
0
LINE
8
Layer 1
10
157.838492
20
60.341759
11
158.038266
21
59.949822
0
LINE
8
Layer 1
10
158.038266
20
59.949822
11
158.006199
21
59.377682
0
LINE
8
Layer 1
10
158.006199
20
59.377682
11
157.758139
21
58.597667
0
LINE
8
Layer 1
10
157.758139
20
58.597667
11
156.677431
21
56.303333
0
LINE
8
Layer 1
10
156.677431
20
56.303333
11
155.865357
21
54.800976
0
LINE
8
Layer 1
10
155.865357
20
54.800976
11
155.191225
21
53.992901
0
LINE
8
Layer 1
10
155.191225
20
53.992901
11
154.382662
21
53.674175
0
LINE
8
Layer 1
10
154.382662
20
53.674175
11
153.167292
21
53.639861
0
LINE
8
Layer 1
10
153.167292
20
53.639861
11
151.063828
21
53.421570
0
LINE
8
Layer 1
10
151.063828
20
53.421570
11
148.898973
21
52.629324
0
LINE
8
Layer 1
10
148.898973
20
52.629324
11
146.590656
21
51.222276
0
LINE
8
Layer 1
10
146.590656
20
51.222276
11
144.056806
21
49.159583
0
LINE
8
Layer 1
10
144.056806
20
49.159583
11
141.425781
21
46.463926
0
LINE
8
Layer 1
10
141.425781
20
46.463926
11
138.895574
21
43.327893
0
LINE
8
Layer 1
10
138.895574
20
43.327893
11
136.891052
21
40.327375
0
LINE
8
Layer 1
10
136.891052
20
40.327375
11
136.218695
21
39.057901
0
LINE
8
Layer 1
10
136.218695
20
39.057901
11
135.837083
21
38.038264
0
LINE
8
Layer 1
10
135.837083
20
38.038264
11
135.638288
21
37.112619
0
LINE
8
Layer 1
10
135.638288
20
37.112619
11
135.752610
21
36.671563
0
LINE
8
Layer 1
10
135.752610
20
36.671563
11
136.336911
21
36.596357
0
LINE
8
Layer 1
10
136.336911
20
36.596357
11
137.548056
21
36.768264
0
LINE
8
Layer 1
10
137.548056
20
36.768264
11
140.252364
21
37.624719
0
LINE
8
Layer 1
10
140.252364
20
37.624719
11
143.783403
21
39.202431
0
LINE
8
Layer 1
10
143.783403
20
39.202431
11
147.902083
21
41.292639
0
LINE
8
Layer 1
10
147.902083
20
41.292639
11
149.886458
21
39.361181
0
LINE
8
Layer 1
10
149.886458
20
39.361181
11
151.286490
21
37.835984
0
LINE
8
Layer 1
10
151.286490
20
37.835984
11
151.870833
21
36.874097
0
LINE
8
Layer 1
10
151.870833
20
36.874097
11
151.727884
21
36.495859
0
LINE
8
Layer 1
10
151.727884
20
36.495859
11
151.320391
21
35.998187
0
LINE
8
Layer 1
10
151.320391
20
35.998187
11
149.879051
21
34.769449
0
LINE
8
Layer 1
10
149.879051
20
34.769449
11
147.881380
21
33.437687
0
LINE
8
Layer 1
10
147.881380
20
33.437687
11
145.661944
21
32.252708
0
LINE
8
Layer 1
10
145.661944
20
32.252708
11
142.584917
21
31.153293
0
LINE
8
Layer 1
10
142.584917
20
31.153293
11
138.800417
21
30.180139
0
LINE
8
Layer 1
10
138.800417
20
30.180139
11
135.367560
21
29.623321
0
LINE
8
Layer 1
10
135.367560
20
29.623321
11
132.052443
21
29.333855
0
LINE
8
Layer 1
10
132.052443
20
29.333855
11
129.436817
21
29.339648
0
LINE
8
Layer 1
10
129.436817
20
29.339648
11
128.573110
21
29.461989
0
LINE
8
Layer 1
10
128.573110
20
29.461989
11
128.102431
21
29.668611
0
LINE
8
Layer 1
10
128.102431
20
29.668611
11
127.790674
21
30.452609
0
LINE
8
Layer 1
10
127.790674
20
30.452609
11
127.787460
21
31.787983
0
LINE
8
Layer 1
10
127.787460
20
31.787983
11
128.064792
21
33.575883
0
LINE
8
Layer 1
10
128.064792
20
33.575883
11
128.594672
21
35.717457
0
LINE
8
Layer 1
10
128.594672
20
35.717457
11
130.300086
21
40.666223
0
LINE
8
Layer 1
10
130.300086
20
40.666223
11
131.419625
21
43.275713
0
LINE
8
Layer 1
10
131.419625
20
43.275713
11
132.679722
21
45.843472
0
LINE
8
Layer 1
10
132.679722
20
45.843472
11
133.806494
21
47.809175
0
LINE
8
Layer 1
10
133.806494
20
47.809175
11
135.047761
21
49.629296
0
LINE
8
Layer 1
10
135.047761
20
49.629296
11
136.413512
21
51.313305
0
LINE
8
Layer 1
10
136.413512
20
51.313305
11
137.913735
21
52.870673
0
LINE
8
Layer 1
10
137.913735
20
52.870673
11
139.558417
21
54.310869
0
LINE
8
Layer 1
10
139.558417
20
54.310869
11
141.357546
21
55.643363
0
LINE
8
Layer 1
10
141.357546
20
55.643363
11
143.321111
21
56.877625
0
LINE
8
Layer 1
10
143.321111
20
56.877625
11
145.459097
21
58.023125
0
LINE
8
Layer 1
10
145.459097
20
58.023125
11
148.062136
21
59.242047
0
LINE
8
Layer 1
10
148.062136
20
59.242047
11
150.138985
21
60.011041
0
LINE
8
Layer 1
10
150.138985
20
60.011041
11
152.060908
21
60.443125
0
LINE
8
Layer 1
10
152.060908
20
60.443125
11
154.199167
21
60.651319
0
LINE
8
Layer 1
10
154.199167
20
60.651319
11
155.689653
21
60.713056
0
LINE
8
Layer 1
10
155.689653
20
60.713056
11
155.689653
21
60.713056
0
LINE
8
Layer 1
10
167.525347
20
53.913264
11
167.883922
21
53.837844
0
LINE
8
Layer 1
10
167.883922
20
53.837844
11
168.328144
21
53.536373
0
LINE
8
Layer 1
10
168.328144
20
53.536373
11
169.553819
21
52.237569
0
LINE
8
Layer 1
10
169.553819
20
52.237569
11
171.220751
21
49.843167
0
LINE
8
Layer 1
10
171.220751
20
49.843167
11
172.823180
21
46.807207
0
LINE
8
Layer 1
10
172.823180
20
46.807207
11
174.280902
21
43.387774
0
LINE
8
Layer 1
10
174.280902
20
43.387774
11
175.513712
21
39.842958
0
LINE
8
Layer 1
10
175.513712
20
39.842958
11
176.441406
21
36.430844
0
LINE
8
Layer 1
10
176.441406
20
36.430844
11
176.983778
21
33.409521
0
LINE
8
Layer 1
10
176.983778
20
33.409521
11
177.060623
21
31.037077
0
LINE
8
Layer 1
10
177.060623
20
31.037077
11
176.899409
21
30.174836
0
LINE
8
Layer 1
10
176.899409
20
30.174836
11
176.591736
21
29.571597
0
LINE
8
Layer 1
10
176.591736
20
29.571597
11
176.145733
21
29.210377
0
LINE
8
Layer 1
10
176.145733
20
29.210377
11
175.510066
21
28.953838
0
LINE
8
Layer 1
10
175.510066
20
28.953838
11
173.749981
21
28.736601
0
LINE
8
Layer 1
10
173.749981
20
28.736601
11
171.471966
21
28.883472
0
LINE
8
Layer 1
10
171.471966
20
28.883472
11
168.836501
21
29.358035
0
LINE
8
Layer 1
10
168.836501
20
29.358035
11
166.004068
21
30.123877
0
LINE
8
Layer 1
10
166.004068
20
30.123877
11
163.135151
21
31.144583
0
LINE
8
Layer 1
10
163.135151
20
31.144583
11
160.390232
21
32.383739
0
LINE
8
Layer 1
10
160.390232
20
32.383739
11
157.929792
21
33.804931
0
LINE
8
Layer 1
10
157.929792
20
33.804931
11
156.201245
21
35.089483
0
LINE
8
Layer 1
10
156.201245
20
35.089483
11
154.146593
21
36.830203
0
LINE
8
Layer 1
10
154.146593
20
36.830203
11
149.745162
21
40.991323
0
LINE
8
Layer 1
10
149.745162
20
40.991323
11
146.097886
21
44.910636
0
LINE
8
Layer 1
10
146.097886
20
44.910636
11
144.985928
21
46.349097
0
LINE
8
Layer 1
10
144.985928
20
46.349097
11
144.577153
21
47.210486
0
LINE
8
Layer 1
10
144.577153
20
47.210486
11
144.737720
21
47.848938
0
LINE
8
Layer 1
10
144.737720
20
47.848938
11
145.228012
21
48.535511
0
LINE
8
Layer 1
10
145.228012
20
48.535511
11
146.060947
21
49.284971
0
LINE
8
Layer 1
10
146.060947
20
49.284971
11
147.249444
21
50.112083
0
LINE
8
Layer 1
10
147.249444
20
50.112083
11
149.912917
21
51.805417
0
LINE
8
Layer 1
10
149.912917
20
51.805417
11
150.865417
21
50.517778
0
LINE
8
Layer 1
10
150.865417
20
50.517778
11
152.549931
21
48.339375
0
LINE
8
Layer 1
10
152.549931
20
48.339375
11
153.890486
21
46.372639
0
LINE
8
Layer 1
10
153.890486
20
46.372639
11
154.818763
21
45.264542
0
LINE
8
Layer 1
10
154.818763
20
45.264542
11
156.447976
21
43.833706
0
LINE
8
Layer 1
10
156.447976
20
43.833706
11
160.932708
21
40.583867
0
LINE
8
Layer 1
10
160.932708
20
40.583867
11
165.591677
21
37.783223
0
LINE
8
Layer 1
10
165.591677
20
37.783223
11
167.438685
21
36.913881
0
LINE
8
Layer 1
10
167.438685
20
36.913881
11
168.671875
21
36.591875
0
LINE
8
Layer 1
10
168.671875
20
36.591875
11
168.952612
21
36.714314
0
LINE
8
Layer 1
10
168.952612
20
36.714314
11
169.092917
21
37.094035
0
LINE
8
Layer 1
10
169.092917
20
37.094035
11
168.962917
21
38.699722
0
LINE
8
Layer 1
10
168.962917
20
38.699722
11
168.544064
21
40.518473
0
LINE
8
Layer 1
10
168.544064
20
40.518473
11
167.951846
21
41.995769
0
LINE
8
Layer 1
10
167.951846
20
41.995769
11
167.062593
21
43.368444
0
LINE
8
Layer 1
10
167.062593
20
43.368444
11
165.752639
21
44.873333
0
LINE
8
Layer 1
10
165.752639
20
44.873333
11
164.032847
21
46.690139
0
LINE
8
Layer 1
10
164.032847
20
46.690139
11
165.197014
21
49.080208
0
LINE
8
Layer 1
10
165.197014
20
49.080208
11
166.740417
21
52.740278
0
LINE
8
Layer 1
10
166.740417
20
52.740278
11
167.090267
21
53.590304
0
LINE
8
Layer 1
10
167.090267
20
53.590304
11
167.525347
21
53.913264
0
LINE
8
Layer 1
10
167.525347
20
53.913264
11
167.525347
21
53.913264
 0 
ENDSEC
 0 
EOF
